  0
SECTION
  2
HEADER
  9
$ACADVER
  1
AC1009
  9
$DWGCODEPAGE
  3
iso8859-1
  9
$INSBASE
 10
0.0
 20
0.0
 30
0.0
  9
$EXTMIN
 10
1.0E20
 20
1.0E20
  9
$EXTMAX
 10
-1.0E20
 20
-1.0E20
  9
$LIMMIN
 10
0.0
 20
0.0
  9
$LIMMAX
 10
12.0
 20
9.0
  9
$ORTHOMODE
 70
     0
  9
$REGENMODE
 70
     1
  9
$FILLMODE
 70
     1
  9
$QTEXTMODE
 70
     0
  9
$MIRRTEXT
 70
     1
  9
$DRAGMODE
 70
     2
  9
$LTSCALE
 40
15.0
  9
$OSMODE
 70
     0
  9
$ATTMODE
 70
     1
  9
$TEXTSIZE
 40
0.2
  9
$TRACEWID
 40
0.05
  9
$TEXTSTYLE
  7
STANDARD
  9
$CLAYER
  8
0
  9
$CELTYPE
  6
DASHED
  9
$CECOLOR
 62
   256
  9
$DIMSCALE
 40
1.0
  9
$DIMASZ
 40
0.18
  9
$DIMEXO
 40
0.0625
  9
$DIMDLI
 40
0.38
  9
$DIMRND
 40
0.0
  9
$DIMDLE
 40
0.0
  9
$DIMEXE
 40
0.18
  9
$DIMTP
 40
0.0
  9
$DIMTM
 40
0.0
  9
$DIMTXT
 40
0.18
  9
$DIMCEN
 40
0.09
  9
$DIMTSZ
 40
0.0
  9
$DIMTOL
 70
     0
  9
$DIMLIM
 70
     0
  9
$DIMTIH
 70
     1
  9
$DIMTOH
 70
     1
  9
$DIMSE1
 70
     0
  9
$DIMSE2
 70
     0
  9
$DIMTAD
 70
     0
  9
$DIMZIN
 70
     0
  9
$DIMBLK
  1

  9
$DIMASO
 70
     1
  9
$DIMSHO
 70
     1
  9
$DIMPOST
  1

  9
$DIMAPOST
  1

  9
$DIMALT
 70
     0
  9
$DIMALTD
 70
     2
  9
$DIMALTF
 40
25.4
  9
$DIMLFAC
 40
1.0
  9
$DIMTOFL
 70
     0
  9
$DIMTVP
 40
0.0
  9
$DIMTIX
 70
     0
  9
$DIMSOXD
 70
     0
  9
$DIMSAH
 70
     0
  9
$DIMBLK1
  1

  9
$DIMBLK2
  1

  9
$DIMSTYLE
  2
STANDARD
  9
$DIMCLRD
 70
     0
  9
$DIMCLRE
 70
     0
  9
$DIMCLRT
 70
     0
  9
$DIMTFAC
 40
1.0
  9
$DIMGAP
 40
0.09
  9
$LUNITS
 70
     2
  9
$LUPREC
 70
     4
  9
$AXISMODE
 70
     0
  9
$AXISUNIT
 10
0.0
 20
0.0
  9
$SKETCHINC
 40
0.1
  9
$FILLETRAD
 40
0.0
  9
$AUNITS
 70
     0
  9
$AUPREC
 70
     0
  9
$MENU
  1
acad
  9
$ELEVATION
 40
0.0
  9
$PELEVATION
 40
0.0
  9
$THICKNESS
 40
0.0
  9
$LIMCHECK
 70
     0
  9
$BLIPMODE
 70
     1
  9
$CHAMFERA
 40
0.0
  9
$CHAMFERB
 40
0.0
  9
$SKPOLY
 70
     0
  9
$TDCREATE
 40
0.000000000
  9
$TDUPDATE
 40
0.000000000
  9
$TDINDWG
 40
0.0
  9
$TDUSRTIMER
 40
0.0
  9
$USRTIMER
 70
     1
  9
$ANGBASE
 50
0.0
  9
$ANGDIR
 70
     0
  9
$PDMODE
 70
     0
  9
$PDSIZE
 40
0.0
  9
$PLINEWID
 40
0.0
  9
$COORDS
 70
     1
  9
$SPLFRAME
 70
     0
  9
$SPLINETYPE
 70
     6
  9
$SPLINESEGS
 70
     8
  9
$ATTDIA
 70
     0
  9
$ATTREQ
 70
     1
  9
$HANDLING
 70
     1
  9
$HANDSEED
  5
   7A5
  9
$SURFTAB1
 70
     6
  9
$SURFTAB2
 70
     6
  9
$SURFTYPE
 70
     6
  9
$SURFU
 70
     6
  9
$SURFV
 70
     6
  9
$UCSNAME
  2

  9
$UCSORG
 10
0.0
 20
0.0
 30
0.0
  9
$UCSXDIR
 10
1.0
 20
0.0
 30
0.0
  9
$UCSYDIR
 10
0.0
 20
1.0
 30
0.0
  9
$PUCSNAME
  2

  9
$PUCSORG
 10
0.0
 20
0.0
 30
0.0
  9
$PUCSXDIR
 10
1.0
 20
0.0
 30
0.0
  9
$PUCSYDIR
 10
0.0
 20
1.0
 30
0.0
  9
$USERI1
 70
     0
  9
$USERI2
 70
     0
  9
$USERI3
 70
     0
  9
$USERI4
 70
     0
  9
$USERI5
 70
     0
  9
$USERR1
 40
0.0
  9
$USERR2
 40
0.0
  9
$USERR3
 40
0.0
  9
$USERR4
 40
0.0
  9
$USERR5
 40
0.0
  9
$WORLDVIEW
 70
     1
  9
$SHADEDGE
 70
     3
  9
$SHADEDIF
 70
    70
  9
$TILEMODE
 70
     1
  9
$MAXACTVP
 70
    16
  9
$PINSBASE
 10
0.0
 20
0.0
 30
0.0
  9
$PLIMCHECK
 70
     0
  9
$PEXTMIN
 10
1.0E20
 20
1.0E20
 30
1.0E20
  9
$PEXTMAX
 10
-1.0E20
 20
-1.0E20
 30
-1.0E20
  9
$PLIMMIN
 10
0.0
 20
0.0
  9
$PLIMMAX
 10
12.0
 20
9.0
  9
$UNITMODE
 70
     0
  9
$VISRETAIN
 70
     0
  0
ENDSEC
  0
SECTION
  2
TABLES
  0
TABLE
  2
VPORT
 70
     1
  0
VPORT
  2
*ACTIVE
 70
     0
 10
0.0
 20
0.0
 11
1.0
 21
1.0
 12
6.801242
 22
4.5
 13
0.0
 23
0.0
 14
1.0
 24
1.0
 15
0.0
 25
0.0
 16
0.0
 26
0.0
 36
1.0
 17
0.0
 27
0.0
 37
0.0
 40
9.0
 41
1.511387
 42
50.0
 43
0.0
 44
0.0
 50
0.0
 51
0.0
 71
     0
 72
   100
 73
     1
 74
     1
 75
     0
 76
     0
 77
     0
 78
     0
  0
ENDTAB
  0
TABLE
  2
LTYPE
 70
    41
  0
LTYPE
  2
BYBLOCK
 70
     0
  3

 72
    65
 73
     0
 40
0.0
  0
LTYPE
  2
BYLAYER
 70
     0
  3

 72
    65
 73
     0
 40
0.0
  0
LTYPE
  2
CONTINUOUS
 70
     0
  3
Solid line
 72
    65
 73
     0
 40
0.0
  0
LTYPE
  2
BORDER
 70
    64
  3
__ __ . __ __ . __ __ . __ __ . __ __ . __ __ .
 72
    65
 73
     6
 40
1.75
 49
0.5
 49
-0.25
 49
0.5
 49
-0.25
 49
0.0
 49
-0.25
  0
LTYPE
  2
BORDER2
 70
    64
  3
__.__.__.__.__.__.__.__.__.__.__.__.__.__.__.__
 72
    65
 73
     6
 40
0.875
 49
0.25
 49
-0.125
 49
0.25
 49
-0.125
 49
0.0
 49
-0.125
  0
LTYPE
  2
BORDERX2
 70
    64
  3
____  ____  .  ____  ____  .  ____  ____  .  __
 72
    65
 73
     6
 40
3.5
 49
1.0
 49
-0.5
 49
1.0
 49
-0.5
 49
0.0
 49
-0.5
  0
LTYPE
  2
CENTER
 70
    64
  3
____ _ ____ _ ____ _ ____ _ ____ _ ____ _ ____
 72
    65
 73
     4
 40
2.0
 49
1.25
 49
-0.25
 49
0.25
 49
-0.25
  0
LTYPE
  2
CENTER2
 70
    64
  3
___ _ ___ _ ___ _ ___ _ ___ _ ___ _ ___ _ ___ _
 72
    65
 73
     4
 40
1.125
 49
0.75
 49
-0.125
 49
0.125
 49
-0.125
  0
LTYPE
  2
CENTERX2
 70
    64
  3
________  __  ________  __  ________  __  _____
 72
    65
 73
     4
 40
4.0
 49
2.5
 49
-0.5
 49
0.5
 49
-0.5
  0
LTYPE
  2
DASHDOT
 70
    64
  3
__ . __ . __ . __ . __ . __ . __ . __ . __ . __
 72
    65
 73
     4
 40
1.0
 49
0.5
 49
-0.25
 49
0.0
 49
-0.25
  0
LTYPE
  2
DASHDOT2
 70
    64
  3
_._._._._._._._._._._._._._._._._._._._._._._._
 72
    65
 73
     4
 40
0.5
 49
0.25
 49
-0.125
 49
0.0
 49
-0.125
  0
LTYPE
  2
DASHDOTX2
 70
    64
  3
____  .  ____  .  ____  .  ____  .  ____  .  __
 72
    65
 73
     4
 40
2.0
 49
1.0
 49
-0.5
 49
0.0
 49
-0.5
  0
LTYPE
  2
DASHED
 70
    64
  3
__ __ __ __ __ __ __ __ __ __ __ __ __ __ __ __
 72
    65
 73
     2
 40
0.75
 49
0.5
 49
-0.25
  0
LTYPE
  2
DASHED2
 70
    64
  3
_ _ _ _ _ _ _ _ _ _ _ _ _ _ _ _ _ _ _ _ _ _ _ _
 72
    65
 73
     2
 40
0.375
 49
0.25
 49
-0.125
  0
LTYPE
  2
DASHEDX2
 70
    64
  3
____  ____  ____  ____  ____  ____  ____  ____
 72
    65
 73
     2
 40
1.5
 49
1.0
 49
-0.5
  0
LTYPE
  2
DIVIDE
 70
    64
  3
____ . . ____ . . ____ . . ____ . . ____ . . __
 72
    65
 73
     6
 40
1.25
 49
0.5
 49
-0.25
 49
0.0
 49
-0.25
 49
0.0
 49
-0.25
  0
LTYPE
  2
DIVIDE2
 70
    64
  3
__..__..__..__..__..__..__..__..__..__..__..__.
 72
    65
 73
     6
 40
0.625
 49
0.25
 49
-0.125
 49
0.0
 49
-0.125
 49
0.0
 49
-0.125
  0
LTYPE
  2
DIVIDEX2
 70
    64
  3
________  .  .  ________  .  .  ________  .  .
 72
    65
 73
     6
 40
2.5
 49
1.0
 49
-0.5
 49
0.0
 49
-0.5
 49
0.0
 49
-0.5
  0
LTYPE
  2
DOT
 70
    64
  3
. . . . . . . . . . . . . . . . . . . . . . . .
 72
    65
 73
     2
 40
0.25
 49
0.0
 49
-0.25
  0
LTYPE
  2
DOT2
 70
    64
  3
...............................................
 72
    65
 73
     2
 40
0.125
 49
0.0
 49
-0.125
  0
LTYPE
  2
DOTX2
 70
    64
  3
.  .  .  .  .  .  .  .  .  .  .  .  .  .  .  .
 72
    65
 73
     2
 40
0.5
 49
0.0
 49
-0.5
  0
LTYPE
  2
HIDDEN
 70
    64
  3
__ __ __ __ __ __ __ __ __ __ __ __ __ __ __ __
 72
    65
 73
     2
 40
0.375
 49
0.25
 49
-0.125
  0
LTYPE
  2
HIDDEN2
 70
    64
  3
_ _ _ _ _ _ _ _ _ _ _ _ _ _ _ _ _ _ _ _ _ _ _ _
 72
    65
 73
     2
 40
0.1875
 49
0.125
 49
-0.0625
  0
LTYPE
  2
HIDDENX2
 70
    64
  3
____ ____ ____ ____ ____ ____ ____ ____ ____ __
 72
    65
 73
     2
 40
0.75
 49
0.5
 49
-0.25
  0
LTYPE
  2
PHANTOM
 70
    64
  3
______  __  __  ______  __  __  ______  __  __
 72
    65
 73
     6
 40
2.5
 49
1.25
 49
-0.25
 49
0.25
 49
-0.25
 49
0.25
 49
-0.25
  0
LTYPE
  2
PHANTOM2
 70
    64
  3
___ _ _ ___ _ _ ___ _ _ ___ _ _ ___ _ _ ___ _ _
 72
    65
 73
     6
 40
1.25
 49
0.625
 49
-0.125
 49
0.125
 49
-0.125
 49
0.125
 49
-0.125
  0
LTYPE
  2
PHANTOMX2
 70
    64
  3
____________    ____    ____    ____________
 72
    65
 73
     6
 40
5.0
 49
2.5
 49
-0.5
 49
0.5
 49
-0.5
 49
0.5
 49
-0.5
  0
LTYPE
  2
ACAD_ISO02W100
 70
    64
  3
__ __ __ __ __ __ __ __ __ __ __ __ __ __ __ __
 72
    65
 73
     2
 40
15.0
 49
12.0
 49
-3.0
  0
LTYPE
  2
ACAD_ISO03W100
 70
    64
  3
__    __    __    __    __    __    __    __
 72
    65
 73
     2
 40
30.0
 49
12.0
 49
-18.0
  0
LTYPE
  2
ACAD_ISO04W100
 70
    64
  3
____ . ____ . ____ . ____ . ____ . ____ . ____
 72
    65
 73
     4
 40
30.5
 49
24.0
 49
-3.0
 49
0.5
 49
-3.0
  0
LTYPE
  2
ACAD_ISO05W100
 70
    64
  3
____ .. ____ .. ____ .. ____ .. ____ .. ____ ..
 72
    65
 73
     6
 40
34.0
 49
24.0
 49
-3.0
 49
0.5
 49
-3.0
 49
0.5
 49
-3.0
  0
LTYPE
  2
ACAD_ISO06W100
 70
    64
  3
____ ... ____ ... ____ ... ____ ... ____ ... __
 72
    65
 73
     8
 40
37.5
 49
24.0
 49
-3.0
 49
0.5
 49
-3.0
 49
0.5
 49
-3.0
 49
0.5
 49
-3.0
  0
LTYPE
  2
ACAD_ISO07W100
 70
    64
  3
. . . . . . . . . . . . . . . . . . . . . . . .
 72
    65
 73
     2
 40
3.5
 49
0.5
 49
-3.0
  0
LTYPE
  2
ACAD_ISO08W100
 70
    64
  3
____ __ ____ __ ____ __ ____ ____ __ __ ____ __
 72
    65
 73
     4
 40
36.0
 49
24.0
 49
-3.0
 49
6.0
 49
-3.0
  0
LTYPE
  2
ACAD_ISO09W100
 70
    64
  3
____ __ __ ____ __ __ ____ __ __ ____ __ __ ___
 72
    65
 73
     6
 40
45.0
 49
24.0
 49
-3.0
 49
6.0
 49
-3.0
 49
6.0
 49
-3.0
  0
LTYPE
  2
ACAD_ISO10W100
 70
    64
  3
__ . __ . __ . __ . __ . __ . __ . __ . __ . __
 72
    65
 73
     4
 40
18.5
 49
12.0
 49
-3.0
 49
0.5
 49
-3.0
  0
LTYPE
  2
ACAD_ISO11W100
 70
    64
  3
__ __ . __ __ . __ __ . __ __ . __ __ . __ __ .
 72
    65
 73
     6
 40
33.5
 49
12.0
 49
-3.0
 49
12.0
 49
-3.0
 49
0.5
 49
-3.0
  0
LTYPE
  2
ACAD_ISO12W100
 70
    64
  3
__ . . __ . . __ . . __ . . __ . . __ . . __ .
 72
    65
 73
     6
 40
22.0
 49
12.0
 49
-3.0
 49
0.5
 49
-3.0
 49
0.5
 49
-3.0
  0
LTYPE
  2
ACAD_ISO13W100
 70
    64
  3
__ __ . . __ __ . . __ __ . . __ __ . . __ __ .
 72
    65
 73
     8
 40
37.0
 49
12.0
 49
-3.0
 49
12.0
 49
-3.0
 49
0.5
 49
-3.0
 49
0.5
 49
-3.0
  0
LTYPE
  2
ACAD_ISO14W100
 70
    64
  3
__ . . . __ . . . __ . . . __ . . . __ . . . __
 72
    65
 73
     8
 40
25.5
 49
12.0
 49
-3.0
 49
0.5
 49
-3.0
 49
0.5
 49
-3.0
 49
0.5
 49
-3.0
  0
LTYPE
  2
ACAD_ISO15W100
 70
    64
  3
__ __ . . . __ __ . . . __ __ . . . __ __ . . .
 72
    65
 73
    10
 40
40.5
 49
12.0
 49
-3.0
 49
12.0
 49
-3.0
 49
0.5
 49
-3.0
 49
0.5
 49
-3.0
 49
0.5
 49
-3.0
  0
ENDTAB
  0
TABLE
  2
STYLE
 70
     4
  0
STYLE
  2
STANDARD
 70
    64
 40
0.0
 41
1.0
 50
0.0
 71
     0
 42
0.2
  3
txt
  4

  0
STYLE
  2
TOLERANCE
 70
    64
 40
0.0
 41
1.0
 50
0.0
 71
     0
 42
0.2
  3
../igesfont/iges1003.shx
  4

  0
STYLE
  2
ROMANS
 70
    64
 40
0.0
 41
1.0
 50
0.0
 71
     0
 42
0.2
  3
romans.shx
  4

  0
STYLE
  2
ROMANC
 70
    64
 40
0.0
 41
1.0
 50
0.0
 71
     0
 42
0.2
  3
romanc.shx
  4

  0
ENDTAB
  0
TABLE
  2
DIMSTYLE
 70
     2
  0
DIMSTYLE
  2
UNNAMED
 70
     0
  3

  4

  5

  6

  7

 40
1.0
 41
0.18
 42
0.0625
 43
0.38
 44
0.18
 45
0.0
 46
0.0
 47
0.0
 48
0.0
140
0.18
141
0.09
142
0.0
143
25.4
144
1.0
145
0.0
146
1.0
147
0.09
 71
     0
 72
     0
 73
     1
 74
     1
 75
     0
 76
     0
 77
     0
 78
     0
170
     0
171
     2
172
     0
173
     0
174
     0
175
     0
176
     0
177
     0
178
     0
  0
DIMSTYLE
  2
STANDARD
 70
     0
  3

  4

  5

  6

  7

 40
1.0
 41
0.18
 42
0.0625
 43
0.38
 44
0.18
 45
0.0
 46
0.0
 47
0.0
 48
0.0
140
0.18
141
0.09
142
0.0
143
25.4
144
1.0
145
0.0
146
1.0
147
0.09
 71
     0
 72
     0
 73
     1
 74
     1
 75
     0
 76
     0
 77
     0
 78
     0
170
     0
171
     2
172
     0
173
     0
174
     0
175
     0
176
     0
177
     0
178
     0
  0
ENDTAB
  0
TABLE
  2
LAYER
 70
     2
  0
LAYER
  2
0
 70
     0
 62
     7
  6
CONTINUOUS
  0
LAYER
  2
255
 70
     0
 62
     7
  6
CONTINUOUS
  0
ENDTAB
  0
ENDSEC
  0
SECTION
  2
BLOCKS
  0
BLOCK
  5
     B
  8
0
  6
CONTINUOUS
 62
     7
  2
*UDIM146
 70
    65
 10
0.0
 20
0.0
 30
0.0
  3
*UDIM146
  0
TEXT
  5
     C
  8
0
  6
CONTINUOUS
 62
     7
 10
229.982546453427
 20
-89.5687627312306
 30
0.0
 40
3.00000002980232
  1
24
 50
408.822319676019
 41
0.933333333333333
 72
     1
 11
230.499530054166
 21
-86.6994896306967
 31
0.0
 73
     2
  0
TEXT
  5
     D
  8
0
  6
CONTINUOUS
 62
     7
 10
227.908598090643
 20
-91.9396777974208
 30
0.0
 40
3.00000002980232
  1
Ø
 50
408.822319676019
 41
0.933333333333334
 72
     1
 11
227.503826854474
 21
-90.124144731042
 31
0.0
 73
     2
  0
LINE
  5
     E
  8
0
  6
CONTINUOUS
 62
     7
 10
244.780486764086
 20
-74.1707614473094
 30
0.0
 11
228.661269540607
 21
-92.5980741008634
 31
0.0
  0
LINE
  5
     F
  8
0
  6
CONTINUOUS
 62
     7
 10
246.333568133034
 20
-71.6040635177845
 30
0.0
 11
244.780486764086
 21
-74.1707614473094
 31
0.0
  0
LINE
  5
    10
  8
0
  6
CONTINUOUS
 62
     7
 10
244.780486764086
 20
-74.1707614473094
 30
0.0
 11
247.117768128498
 21
-72.2900392925054
 31
0.0
  0
LINE
  5
    11
  8
0
  6
CONTINUOUS
 62
     7
 10
239.277027570091
 20
-81.2534880569225
 30
0.0
 11
240.830108939039
 21
-78.6867901273976
 31
0.0
  0
LINE
  5
    12
  8
0
  6
CONTINUOUS
 62
     7
 10
240.830108939039
 20
-78.6867901273976
 30
0.0
 11
238.492827574627
 21
-80.5675122822016
 31
0.0
  0
ENDBLK
  5
    13
  8
0
  6
CONTINUOUS
 62
     7
  0
BLOCK
  5
    14
  8
0
  6
CONTINUOUS
 62
     7
  2
*UDIM147
 70
    65
 10
0.0
 20
0.0
 30
0.0
  3
*UDIM147
  0
TEXT
  5
    15
  8
0
  6
CONTINUOUS
 62
     7
 10
272.570130946038
 20
-6.03399723134445
 30
0.0
 40
3.00000002980232
  1
5,5
 50
397.218992927382
 41
0.933333333333333
 72
     1
 11
274.768521163225
 21
-2.48053683338394
 31
0.0
 73
     2
  0
TEXT
  5
    16
  8
0
  6
CONTINUOUS
 62
     7
 10
270.061693157497
 20
-7.93931608224801
 30
0.0
 40
3.00000002980232
  1
Ø
 50
397.218992927382
 41
0.933333333333334
 72
     1
 11
270.030360875079
 21
-6.07947244451325
 31
0.0
 73
     2
  0
TEXT
  5
    17
  8
0
  6
CONTINUOUS
 62
     7
 10
279.219481967657
 20
-0.983390091169467
 30
0.0
 40
3.00000002980232
  1
-M5
 50
397.218992927382
 41
0.933333333333333
 72
     1
 11
281.417872184844
 21
2.57007030679104
 31
0.0
 73
     2
  0
LINE
  5
    18
  8
0
  6
CONTINUOUS
 62
     7
 10
286.035714909965
 20
2.93821286443323
 30
0.0
 11
255.382821351154
 21
-20.3446191851608
 31
0.0
  0
LINE
  5
    19
  8
0
  6
CONTINUOUS
 62
     7
 10
258.515368555189
 20
-17.3110673021684
 30
0.0
 11
256.477774351972
 21
-19.5129323895462
 31
0.0
  0
LINE
  5
    1A
  8
0
  6
CONTINUOUS
 62
     7
 10
256.477774351972
 20
-19.5129323895462
 30
0.0
 11
259.145568705938
 21
-18.140754090292
 31
0.0
  0
LINE
  5
    1B
  8
0
  6
CONTINUOUS
 62
     7
 10
253.345227147936
 20
-22.5464842725386
 30
0.0
 11
255.382821351154
 21
-20.3446191851608
 31
0.0
  0
LINE
  5
    1C
  8
0
  6
CONTINUOUS
 62
     7
 10
255.382821351154
 20
-20.3446191851608
 30
0.0
 11
252.715026997187
 21
-21.716797484415
 31
0.0
  0
ENDBLK
  5
    1D
  8
0
  6
CONTINUOUS
 62
     7
  0
BLOCK
  5
    1E
  8
0
  6
CONTINUOUS
 62
     7
  2
*UDIM148
 70
    65
 10
0.0
 20
0.0
 30
0.0
  3
*UDIM148
  0
TEXT
  5
    1F
  8
0
  6
CONTINUOUS
 62
     7
 10
219.081300728424
 20
-52.1037758347685
 30
0.0
 40
3.00000002980232
  1
228
 50
449.999999896069
 41
0.933333333333333
 72
     1
 11
217.581300720573
 21
-48.203775793314
 31
0.0
 73
     2
  0
LINE
  5
    20
  8
0
  6
CONTINUOUS
 62
     7
 10
238.055297851563
 20
-19.4287757873535
 30
0.0
 11
218.081300735474
 21
-19.4287757873535
 31
0.0
  0
LINE
  5
    21
  8
0
  6
CONTINUOUS
 62
     7
 10
238.055297851563
 20
-76.4287757873535
 30
0.0
 11
218.081300735474
 21
-76.4287757873535
 31
0.0
  0
LINE
  5
    22
  8
0
  6
CONTINUOUS
 62
     7
 10
220.081300735474
 20
-19.4287757873535
 30
0.0
 11
220.081300735474
 21
-76.4287757873535
 31
0.0
  0
LINE
  5
    23
  8
0
  6
CONTINUOUS
 62
     7
 10
220.602245165425
 20
-22.3831990645605
 30
0.0
 11
220.081300735474
 21
-19.4287757873535
 31
0.0
  0
LINE
  5
    24
  8
0
  6
CONTINUOUS
 62
     7
 10
220.081300735474
 20
-19.4287757873535
 30
0.0
 11
219.560356305522
 21
-22.3831990645605
 31
0.0
  0
LINE
  5
    25
  8
0
  6
CONTINUOUS
 62
     7
 10
219.560356305522
 20
-73.4743525101466
 30
0.0
 11
220.081300735474
 21
-76.4287757873535
 31
0.0
  0
LINE
  5
    26
  8
0
  6
CONTINUOUS
 62
     7
 10
220.081300735474
 20
-76.4287757873535
 30
0.0
 11
220.602245165425
 21
-73.4743525101466
 31
0.0
  0
ENDBLK
  5
    27
  8
0
  6
CONTINUOUS
 62
     7
  0
BLOCK
  5
    28
  8
0
  6
CONTINUOUS
 62
     7
  2
*UDIM149
 70
    65
 10
0.0
 20
0.0
 30
0.0
  3
*UDIM149
  0
TEXT
  5
    29
  8
0
  6
CONTINUOUS
 62
     7
 10
227.54339979868
 20
-75.7642284847592
 30
0.0
 40
3.00000002980232
  1
69,25
 50
449.999999896069
 41
0.933333333333333
 72
     1
 11
226.04339979589
 21
-69.0642284154892
 31
0.0
 73
     2
  0
LINE
  5
    2A
  8
0
  6
CONTINUOUS
 62
     7
 10
238.055297851563
 20
-76.4287757873535
 30
0.0
 11
226.543399810791
 21
-76.4287757873535
 31
0.0
  0
LINE
  5
    2B
  8
0
  6
CONTINUOUS
 62
     7
 10
228.543399810791
 20
-59.1162757873535
 30
0.0
 11
228.543399810791
 21
-76.4287757873535
 31
0.0
  0
LINE
  5
    2C
  8
0
  6
CONTINUOUS
 62
     7
 10
228.022455380839
 20
-56.1618525101466
 30
0.0
 11
228.543399810791
 21
-59.1162757873535
 31
0.0
  0
LINE
  5
    2D
  8
0
  6
CONTINUOUS
 62
     7
 10
228.543399810791
 20
-59.1162757873535
 30
0.0
 11
229.064344240743
 21
-56.1618525101466
 31
0.0
  0
LINE
  5
    2E
  8
0
  6
CONTINUOUS
 62
     7
 10
229.064344240743
 20
-79.3831990645605
 30
0.0
 11
228.543399810791
 21
-76.4287757873535
 31
0.0
  0
LINE
  5
    2F
  8
0
  6
CONTINUOUS
 62
     7
 10
228.543399810791
 20
-76.4287757873535
 30
0.0
 11
228.022455380839
 21
-79.3831990645605
 31
0.0
  0
ENDBLK
  5
    30
  8
0
  6
CONTINUOUS
 62
     7
  0
BLOCK
  5
    31
  8
0
  6
CONTINUOUS
 62
     7
  2
*UDIM150
 70
    65
 10
0.0
 20
0.0
 30
0.0
  3
*UDIM150
  0
TEXT
  5
    32
  8
0
  6
CONTINUOUS
 62
     7
 10
253.249928059447
 20
-4.27276229406169
 30
0.0
 40
3.00000002980232
  1
35
 50
359.999999896069
 41
0.933333333333333
 72
     1
 11
255.749928086996
 21
-2.77276228368282
 31
0.0
 73
     2
  0
LINE
  5
    33
  8
0
  6
CONTINUOUS
 62
     7
 10
260.305297851563
 20
-14.6787757873535
 30
0.0
 11
260.305297851563
 21
-3.27276229858398
 31
0.0
  0
LINE
  5
    34
  8
0
  6
CONTINUOUS
 62
     7
 10
251.555297851563
 20
-6.79774392237489
 30
0.0
 11
251.555297851563
 21
-3.27276229858398
 31
0.0
  0
LINE
  5
    35
  8
0
  6
CONTINUOUS
 62
     7
 10
260.305297851563
 20
-5.27276229858398
 30
0.0
 11
251.555297851563
 21
-5.27276229858398
 31
0.0
  0
LINE
  5
    36
  8
0
  6
CONTINUOUS
 62
     7
 10
263.259721128769
 20
-4.75181786863232
 30
0.0
 11
260.305297851563
 21
-5.27276229858398
 31
0.0
  0
LINE
  5
    37
  8
0
  6
CONTINUOUS
 62
     7
 10
260.305297851563
 20
-5.27276229858398
 30
0.0
 11
263.259721128769
 21
-5.79370672853565
 31
0.0
  0
LINE
  5
    38
  8
0
  6
CONTINUOUS
 62
     7
 10
248.600874574356
 20
-5.79370672853565
 30
0.0
 11
251.555297851563
 21
-5.27276229858398
 31
0.0
  0
LINE
  5
    39
  8
0
  6
CONTINUOUS
 62
     7
 10
251.555297851563
 20
-5.27276229858398
 30
0.0
 11
248.600874574356
 21
-4.75181786863232
 31
0.0
  0
ENDBLK
  5
    3A
  8
0
  6
CONTINUOUS
 62
     7
  0
BLOCK
  5
    3B
  8
0
  6
CONTINUOUS
 62
     7
  2
*UDIM151
 70
    65
 10
0.0
 20
0.0
 30
0.0
  3
*UDIM151
  0
TEXT
  5
    3C
  8
0
  6
CONTINUOUS
 62
     7
 10
243.150003048051
 20
-4.27276229406169
 30
0.0
 40
3.00000002980232
  1
35
 50
359.999999896069
 41
0.933333333333333
 72
     1
 11
245.6500030756
 21
-2.77276228368282
 31
0.0
 73
     2
  0
LINE
  5
    3D
  8
0
  6
CONTINUOUS
 62
     7
 10
242.805297851563
 20
-14.6787757873535
 30
0.0
 11
242.805297851563
 21
-3.27276229858398
 31
0.0
  0
LINE
  5
    3E
  8
0
  6
CONTINUOUS
 62
     7
 10
251.555297851563
 20
-5.27276229858398
 30
0.0
 11
242.805297851563
 21
-5.27276229858398
 31
0.0
  0
LINE
  5
    3F
  8
0
  6
CONTINUOUS
 62
     7
 10
248.600874574356
 20
-5.79370672853565
 30
0.0
 11
251.555297851563
 21
-5.27276229858398
 31
0.0
  0
LINE
  5
    40
  8
0
  6
CONTINUOUS
 62
     7
 10
251.555297851563
 20
-5.27276229858398
 30
0.0
 11
248.600874574356
 21
-4.75181786863232
 31
0.0
  0
LINE
  5
    41
  8
0
  6
CONTINUOUS
 62
     7
 10
245.759721128769
 20
-4.75181786863232
 30
0.0
 11
242.805297851563
 21
-5.27276229858398
 31
0.0
  0
LINE
  5
    42
  8
0
  6
CONTINUOUS
 62
     7
 10
242.805297851563
 20
-5.27276229858398
 30
0.0
 11
245.759721128769
 21
-5.79370672853565
 31
0.0
  0
ENDBLK
  5
    43
  8
0
  6
CONTINUOUS
 62
     7
  0
BLOCK
  5
    44
  8
0
  6
CONTINUOUS
 62
     7
  2
*UDIM152
 70
    65
 10
0.0
 20
0.0
 30
0.0
  3
*UDIM152
  0
TEXT
  5
    45
  8
0
  6
CONTINUOUS
 62
     7
 10
283.251029961212
 20
-52.1037758347685
 30
0.0
 40
3.00000002980232
  1
224
 50
449.999999896069
 41
0.933333333333333
 72
     1
 11
281.751029953361
 21
-48.203775793314
 31
0.0
 73
     2
  0
LINE
  5
    46
  8
0
  6
CONTINUOUS
 62
     7
 10
260.043579109457
 20
-19.9287757873535
 30
0.0
 11
286.251029968262
 21
-19.9287757873535
 31
0.0
  0
LINE
  5
    47
  8
0
  6
CONTINUOUS
 62
     7
 10
259.074163682856
 20
-75.9287757873535
 30
0.0
 11
286.251029968262
 21
-75.9287757873535
 31
0.0
  0
LINE
  5
    48
  8
0
  6
CONTINUOUS
 62
     7
 10
284.251029968262
 20
-19.9287757873535
 30
0.0
 11
284.251029968262
 21
-75.9287757873535
 31
0.0
  0
LINE
  5
    49
  8
0
  6
CONTINUOUS
 62
     7
 10
284.771974398213
 20
-22.8831990645605
 30
0.0
 11
284.251029968262
 21
-19.9287757873535
 31
0.0
  0
LINE
  5
    4A
  8
0
  6
CONTINUOUS
 62
     7
 10
284.251029968262
 20
-19.9287757873535
 30
0.0
 11
283.73008553831
 21
-22.8831990645605
 31
0.0
  0
LINE
  5
    4B
  8
0
  6
CONTINUOUS
 62
     7
 10
283.73008553831
 20
-72.9743525101465
 30
0.0
 11
284.251029968262
 21
-75.9287757873535
 31
0.0
  0
LINE
  5
    4C
  8
0
  6
CONTINUOUS
 62
     7
 10
284.251029968262
 20
-75.9287757873535
 30
0.0
 11
284.771974398213
 21
-72.9743525101465
 31
0.0
  0
ENDBLK
  5
    4D
  8
0
  6
CONTINUOUS
 62
     7
  0
BLOCK
  5
    4E
  8
0
  6
CONTINUOUS
 62
     7
  2
*UDIM153
 70
    65
 10
0.0
 20
0.0
 30
0.0
  3
*UDIM153
  0
TEXT
  5
    4F
  8
0
  6
CONTINUOUS
 62
     7
 10
277.079158770848
 20
-74.1489130697941
 30
0.0
 40
3.00000002980232
  1
67,25
 50
449.999999896069
 41
0.933333333333333
 72
     1
 11
275.579158768058
 21
-67.4489130005241
 31
0.0
 73
     2
  0
LINE
  5
    50
  8
0
  6
CONTINUOUS
 62
     7
 10
266.469305977335
 20
-59.1162757873535
 30
0.0
 11
280.079158782959
 21
-59.1162757873535
 31
0.0
  0
LINE
  5
    51
  8
0
  6
CONTINUOUS
 62
     7
 10
259.074163682856
 20
-75.9287757873535
 30
0.0
 11
280.079158782959
 21
-75.9287757873535
 31
0.0
  0
LINE
  5
    52
  8
0
  6
CONTINUOUS
 62
     7
 10
278.079158782959
 20
-59.1162757873535
 30
0.0
 11
278.079158782959
 21
-75.9287757873535
 31
0.0
  0
LINE
  5
    53
  8
0
  6
CONTINUOUS
 62
     7
 10
277.558214353007
 20
-56.1618525101466
 30
0.0
 11
278.079158782959
 21
-59.1162757873535
 31
0.0
  0
LINE
  5
    54
  8
0
  6
CONTINUOUS
 62
     7
 10
278.079158782959
 20
-59.1162757873535
 30
0.0
 11
278.600103212911
 21
-56.1618525101466
 31
0.0
  0
LINE
  5
    55
  8
0
  6
CONTINUOUS
 62
     7
 10
278.600103212911
 20
-78.8831990645605
 30
0.0
 11
278.079158782959
 21
-75.9287757873535
 31
0.0
  0
LINE
  5
    56
  8
0
  6
CONTINUOUS
 62
     7
 10
278.079158782959
 20
-75.9287757873535
 30
0.0
 11
277.558214353007
 21
-78.8831990645605
 31
0.0
  0
ENDBLK
  5
    57
  8
0
  6
CONTINUOUS
 62
     7
  0
BLOCK
  5
    58
  8
0
  6
CONTINUOUS
 62
     7
  2
*UDIM154
 70
    65
 10
0.0
 20
0.0
 30
0.0
  3
*UDIM154
  0
TEXT
  5
    59
  8
0
  6
CONTINUOUS
 62
     7
 10
258.905298205484
 20
-91.5095214798527
 30
0.0
 40
3.00000002980232
  1
35
 50
359.999999896069
 41
0.933333333333333
 72
     1
 11
261.405298233032
 21
-90.0095214694738
 31
0.0
 73
     2
  0
LINE
  5
    5A
  8
0
  6
CONTINUOUS
 62
     7
 10
255.930297851563
 20
-88.0924870267143
 30
0.0
 11
255.930297851563
 21
-94.509521484375
 31
0.0
  0
LINE
  5
    5B
  8
0
  6
CONTINUOUS
 62
     7
 10
247.180297851563
 20
-88.2972157884701
 30
0.0
 11
247.180297851563
 21
-94.509521484375
 31
0.0
  0
LINE
  5
    5C
  8
0
  6
CONTINUOUS
 62
     7
 10
263.905298257868
 20
-92.509521484375
 30
0.0
 11
247.180297851563
 21
-92.509521484375
 31
0.0
  0
LINE
  5
    5D
  8
0
  6
CONTINUOUS
 62
     7
 10
258.884721128769
 20
-91.9885770544233
 30
0.0
 11
255.930297851563
 21
-92.509521484375
 31
0.0
  0
LINE
  5
    5E
  8
0
  6
CONTINUOUS
 62
     7
 10
255.930297851563
 20
-92.509521484375
 30
0.0
 11
258.884721128769
 21
-93.0304659143267
 31
0.0
  0
LINE
  5
    5F
  8
0
  6
CONTINUOUS
 62
     7
 10
244.225874574356
 20
-93.0304659143267
 30
0.0
 11
247.180297851563
 21
-92.509521484375
 31
0.0
  0
LINE
  5
    60
  8
0
  6
CONTINUOUS
 62
     7
 10
247.180297851563
 20
-92.509521484375
 30
0.0
 11
244.225874574356
 21
-91.9885770544233
 31
0.0
  0
ENDBLK
  5
    61
  8
0
  6
CONTINUOUS
 62
     7
  0
BLOCK
  5
    62
  8
0
  6
CONTINUOUS
 62
     7
  2
*UDIM155
 70
    65
 10
0.0
 20
0.0
 30
0.0
  3
*UDIM155
  0
TEXT
  5
    63
  8
0
  6
CONTINUOUS
 62
     7
 10
154.543161601656
 20
-86.3725477554207
 30
0.0
 40
3.00000002980232
  1
7
 50
401.743212308633
 41
0.933333333333334
 72
     1
 11
154.365221564009
 21
-84.5209707487191
 31
0.0
 73
     2
  0
TEXT
  5
    64
  8
0
  6
CONTINUOUS
 62
     7
 10
152.192832396057
 20
-88.4697965932771
 30
0.0
 40
3.00000002980232
  1
Ø
 50
401.743212308633
 41
0.933333333333334
 72
     1
 11
152.014892358409
 21
-86.6182195865755
 31
0.0
 73
     2
  0
LINE
  5
    65
  8
0
  6
CONTINUOUS
 62
     7
 10
167.351416585
 20
-76.283706667564
 30
0.0
 11
152.858625680844
 21
-89.2159328461868
 31
0.0
  0
LINE
  5
    66
  8
0
  6
CONTINUOUS
 62
     7
 10
169.208977599402
 20
-73.9279759788446
 30
0.0
 11
167.351416585
 21
-76.283706667564
 31
0.0
  0
LINE
  5
    67
  8
0
  6
CONTINUOUS
 62
     7
 10
167.351416585
 20
-76.283706667564
 30
0.0
 11
169.902660200582
 21
-74.7053670292246
 31
0.0
  0
LINE
  5
    68
  8
0
  6
CONTINUOUS
 62
     7
 10
164.188117127161
 20
-79.8045755958625
 30
0.0
 11
166.045678141563
 21
-77.4488449071431
 31
0.0
  0
LINE
  5
    69
  8
0
  6
CONTINUOUS
 62
     7
 10
166.045678141563
 20
-77.4488449071431
 30
0.0
 11
163.494434525981
 21
-79.0271845454824
 31
0.0
  0
ENDBLK
  5
    6A
  8
0
  6
CONTINUOUS
 62
     7
  0
BLOCK
  5
    6B
  8
0
  6
CONTINUOUS
 62
     7
  2
*UDIM156
 70
    65
 10
0.0
 20
0.0
 30
0.0
  3
*UDIM156
  0
TEXT
  5
    6C
  8
0
  6
CONTINUOUS
 62
     7
 10
135.929512013339
 20
-63.2912758361289
 30
0.0
 40
3.00000002980232
  1
142
 50
449.999999844103
 41
0.933333333333333
 72
     1
 11
134.429512009025
 21
-59.391275793314
 31
0.0
 73
     2
  0
LINE
  5
    6D
  8
0
  6
CONTINUOUS
 62
     7
 10
164.073547363281
 20
-41.3662757873535
 30
0.0
 11
134.929512023926
 21
-41.3662757873535
 31
0.0
  0
LINE
  5
    6E
  8
0
  6
CONTINUOUS
 62
     7
 10
164.073547363281
 20
-76.8662757873535
 30
0.0
 11
134.929512023926
 21
-76.8662757873535
 31
0.0
  0
LINE
  5
    6F
  8
0
  6
CONTINUOUS
 62
     7
 10
136.929512023926
 20
-41.3662757873535
 30
0.0
 11
136.929512023926
 21
-76.8662757873535
 31
0.0
  0
LINE
  5
    70
  8
0
  6
CONTINUOUS
 62
     7
 10
137.450456453877
 20
-44.3206990645605
 30
0.0
 11
136.929512023926
 21
-41.3662757873535
 31
0.0
  0
LINE
  5
    71
  8
0
  6
CONTINUOUS
 62
     7
 10
136.929512023926
 20
-41.3662757873535
 30
0.0
 11
136.408567593974
 21
-44.3206990645605
 31
0.0
  0
LINE
  5
    72
  8
0
  6
CONTINUOUS
 62
     7
 10
136.408567593974
 20
-73.9118525101466
 30
0.0
 11
136.929512023926
 21
-76.8662757873535
 31
0.0
  0
LINE
  5
    73
  8
0
  6
CONTINUOUS
 62
     7
 10
136.929512023926
 20
-76.8662757873535
 30
0.0
 11
137.450456453877
 21
-73.9118525101466
 31
0.0
  0
ENDBLK
  5
    74
  8
0
  6
CONTINUOUS
 62
     7
  0
BLOCK
  5
    75
  8
0
  6
CONTINUOUS
 62
     7
  2
*UDIM157
 70
    65
 10
0.0
 20
0.0
 30
0.0
  3
*UDIM157
  0
TEXT
  5
    76
  8
0
  6
CONTINUOUS
 62
     7
 10
145.96120642557
 20
-63.2912758361289
 30
0.0
 40
3.00000002980232
  1
112
 50
449.999999844103
 41
0.933333333333333
 72
     1
 11
144.461206421256
 21
-59.391275793314
 31
0.0
 73
     2
  0
LINE
  5
    77
  8
0
  6
CONTINUOUS
 62
     7
 10
161.698547363281
 20
-45.1162757873535
 30
0.0
 11
144.961206436157
 21
-45.1162757873535
 31
0.0
  0
LINE
  5
    78
  8
0
  6
CONTINUOUS
 62
     7
 10
161.698547363281
 20
-73.1162757873535
 30
0.0
 11
144.961206436157
 21
-73.1162757873535
 31
0.0
  0
LINE
  5
    79
  8
0
  6
CONTINUOUS
 62
     7
 10
146.961206436157
 20
-45.1162757873535
 30
0.0
 11
146.961206436157
 21
-73.1162757873535
 31
0.0
  0
LINE
  5
    7A
  8
0
  6
CONTINUOUS
 62
     7
 10
147.482150866109
 20
-48.0706990645605
 30
0.0
 11
146.961206436157
 21
-45.1162757873535
 31
0.0
  0
LINE
  5
    7B
  8
0
  6
CONTINUOUS
 62
     7
 10
146.961206436157
 20
-45.1162757873535
 30
0.0
 11
146.440262006206
 21
-48.0706990645605
 31
0.0
  0
LINE
  5
    7C
  8
0
  6
CONTINUOUS
 62
     7
 10
146.440262006206
 20
-70.1618525101466
 30
0.0
 11
146.961206436157
 21
-73.1162757873535
 31
0.0
  0
LINE
  5
    7D
  8
0
  6
CONTINUOUS
 62
     7
 10
146.961206436157
 20
-73.1162757873535
 30
0.0
 11
147.482150866109
 21
-70.1618525101466
 31
0.0
  0
ENDBLK
  5
    7E
  8
0
  6
CONTINUOUS
 62
     7
  0
BLOCK
  5
    7F
  8
0
  6
CONTINUOUS
 62
     7
  2
*UDIM158
 70
    65
 10
0.0
 20
0.0
 30
0.0
  3
*UDIM158
  0
TEXT
  5
    80
  8
0
  6
CONTINUOUS
 62
     7
 10
172.523547314504
 20
-20.4005088700233
 30
0.0
 40
3.00000002980232
  1
112
 50
359.999999844103
 41
0.933333333333333
 72
     1
 11
176.423547357321
 21
-18.9005088657141
 31
0.0
 73
     2
  0
LINE
  5
    81
  8
0
  6
CONTINUOUS
 62
     7
 10
162.698547363281
 20
-44.1162757873535
 30
0.0
 11
162.698547363281
 21
-19.4005088806152
 31
0.0
  0
LINE
  5
    82
  8
0
  6
CONTINUOUS
 62
     7
 10
190.698547363281
 20
-44.1162757873535
 30
0.0
 11
190.698547363281
 21
-19.4005088806152
 31
0.0
  0
LINE
  5
    83
  8
0
  6
CONTINUOUS
 62
     7
 10
162.698547363281
 20
-21.4005088806152
 30
0.0
 11
190.698547363281
 21
-21.4005088806152
 31
0.0
  0
LINE
  5
    84
  8
0
  6
CONTINUOUS
 62
     7
 10
165.652970640488
 20
-20.8795644506636
 30
0.0
 11
162.698547363281
 21
-21.4005088806152
 31
0.0
  0
LINE
  5
    85
  8
0
  6
CONTINUOUS
 62
     7
 10
162.698547363281
 20
-21.4005088806152
 30
0.0
 11
165.652970640488
 21
-21.9214533105669
 31
0.0
  0
LINE
  5
    86
  8
0
  6
CONTINUOUS
 62
     7
 10
187.744124086074
 20
-21.9214533105669
 30
0.0
 11
190.698547363281
 21
-21.4005088806152
 31
0.0
  0
LINE
  5
    87
  8
0
  6
CONTINUOUS
 62
     7
 10
190.698547363281
 20
-21.4005088806152
 30
0.0
 11
187.744124086074
 21
-20.8795644506636
 31
0.0
  0
ENDBLK
  5
    88
  8
0
  6
CONTINUOUS
 62
     7
  0
BLOCK
  5
    89
  8
0
  6
CONTINUOUS
 62
     7
  2
*UDIM159
 70
    65
 10
0.0
 20
0.0
 30
0.0
  3
*UDIM159
  0
TEXT
  5
    8A
  8
0
  6
CONTINUOUS
 62
     7
 10
173.923547328412
 20
-28.5214023522191
 30
0.0
 40
3.00000002980232
  1
80
 50
359.999999844103
 41
0.933333333333333
 72
     1
 11
176.423547357321
 21
-27.0214023441076
 31
0.0
 73
     2
  0
LINE
  5
    8B
  8
0
  6
CONTINUOUS
 62
     7
 10
166.698547363281
 20
-38.7412757873535
 30
0.0
 11
166.698547363281
 21
-27.5214023590088
 31
0.0
  0
LINE
  5
    8C
  8
0
  6
CONTINUOUS
 62
     7
 10
186.698547363281
 20
-38.7412757873535
 30
0.0
 11
186.698547363281
 21
-27.5214023590088
 31
0.0
  0
LINE
  5
    8D
  8
0
  6
CONTINUOUS
 62
     7
 10
166.698547363281
 20
-29.5214023590088
 30
0.0
 11
186.698547363281
 21
-29.5214023590088
 31
0.0
  0
LINE
  5
    8E
  8
0
  6
CONTINUOUS
 62
     7
 10
169.652970640488
 20
-29.0004579290571
 30
0.0
 11
166.698547363281
 21
-29.5214023590088
 31
0.0
  0
LINE
  5
    8F
  8
0
  6
CONTINUOUS
 62
     7
 10
166.698547363281
 20
-29.5214023590088
 30
0.0
 11
169.652970640488
 21
-30.0423467889605
 31
0.0
  0
LINE
  5
    90
  8
0
  6
CONTINUOUS
 62
     7
 10
183.744124086074
 20
-30.0423467889605
 30
0.0
 11
186.698547363281
 21
-29.5214023590088
 31
0.0
  0
LINE
  5
    91
  8
0
  6
CONTINUOUS
 62
     7
 10
186.698547363281
 20
-29.5214023590088
 30
0.0
 11
183.744124086074
 21
-29.0004579290571
 31
0.0
  0
ENDBLK
  5
    92
  8
0
  6
CONTINUOUS
 62
     7
  0
BLOCK
  5
    93
  8
0
  6
CONTINUOUS
 62
     7
  2
*HATCH53
 70
    65
 10
0.0
 20
0.0
 30
0.0
  3
*HATCH53
  0
LINE
  5
    94
  8
0
  6
CONTINUOUS
 62
   210
 10
14.1969509124756
 20
-46.0167922973633
 30
0.0
 11
17.1801414489746
 21
-48.9999885559082
 31
0.0
  0
ENDBLK
  5
    95
  8
0
  6
CONTINUOUS
 62
     7
  0
BLOCK
  5
    96
  8
0
  6
CONTINUOUS
 62
     7
  2
*HATCH54
 70
    65
 10
0.0
 20
0.0
 30
0.0
  3
*HATCH54
  0
LINE
  5
    97
  8
0
  6
CONTINUOUS
 62
   210
 10
21.7528133392334
 20
-63.0999984741211
 30
0.0
 11
18.0000019073486
 21
-66.8528137207031
 31
0.0
  0
LINE
  5
    98
  8
0
  6
CONTINUOUS
 62
   210
 10
23.0
 20
-66.0954513549805
 30
0.0
 11
21.0954647064209
 21
-67.9999847412109
 31
0.0
  0
ENDBLK
  5
    99
  8
0
  6
CONTINUOUS
 62
     7
  0
BLOCK
  5
    9A
  8
0
  6
CONTINUOUS
 62
     7
  2
*HATCH55
 70
    65
 10
0.0
 20
0.0
 30
0.0
  3
*HATCH55
  0
LINE
  5
    9B
  8
0
  6
CONTINUOUS
 62
    52
 10
107.001167297363
 20
-64.8257827758789
 30
0.0
 11
105.001167297363
 21
-66.8257751464844
 31
0.0
  0
LINE
  5
    9C
  8
0
  6
CONTINUOUS
 62
    52
 10
107.001167297363
 20
-69.0684280395508
 30
0.0
 11
105.001167297363
 21
-71.0684204101563
 31
0.0
  0
LINE
  5
    9D
  8
0
  6
CONTINUOUS
 62
    52
 10
107.001167297363
 20
-73.3110733032227
 30
0.0
 11
105.001167297363
 21
-75.3110656738281
 31
0.0
  0
LINE
  5
    9E
  8
0
  6
CONTINUOUS
 62
    52
 10
107.001167297363
 20
-77.5537185668945
 30
0.0
 11
105.001167297363
 21
-79.5537109375
 31
0.0
  0
LINE
  5
    9F
  8
0
  6
CONTINUOUS
 62
    52
 10
107.001167297363
 20
-81.7963638305664
 30
0.0
 11
105.001167297363
 21
-83.7963562011719
 31
0.0
  0
LINE
  5
    A0
  8
0
  6
CONTINUOUS
 62
    52
 10
107.001167297363
 20
-86.0390090942383
 30
0.0
 11
105.001167297363
 21
-88.0390014648438
 31
0.0
  0
LINE
  5
    A1
  8
0
  6
CONTINUOUS
 62
    52
 10
107.001167297363
 20
-90.2816543579102
 30
0.0
 11
105.001167297363
 21
-92.2816467285156
 31
0.0
  0
LINE
  5
    A2
  8
0
  6
CONTINUOUS
 62
    52
 10
107.001167297363
 20
-94.524299621582
 30
0.0
 11
105.001167297363
 21
-96.5242919921875
 31
0.0
  0
LINE
  5
    A3
  8
0
  6
CONTINUOUS
 62
    52
 10
107.001167297363
 20
-98.7669448852539
 30
0.0
 11
105.001167297363
 21
-100.766937255859
 31
0.0
  0
LINE
  5
    A4
  8
0
  6
CONTINUOUS
 62
    52
 10
107.001167297363
 20
-103.009590148926
 30
0.0
 11
105.001167297363
 21
-105.009582519531
 31
0.0
  0
LINE
  5
    A5
  8
0
  6
CONTINUOUS
 62
    52
 10
107.001167297363
 20
-107.252235412598
 30
0.0
 11
105.001167297363
 21
-109.252227783203
 31
0.0
  0
LINE
  5
    A6
  8
0
  6
CONTINUOUS
 62
    52
 10
107.001167297363
 20
-111.49488067627
 30
0.0
 11
105.001167297363
 21
-113.494873046875
 31
0.0
  0
LINE
  5
    A7
  8
0
  6
CONTINUOUS
 62
    52
 10
107.001167297363
 20
-115.737464904785
 30
0.0
 11
105.269889831543
 21
-117.46875
 31
0.0
  0
ENDBLK
  5
    A8
  8
0
  6
CONTINUOUS
 62
     7
  0
BLOCK
  5
    A9
  8
0
  6
CONTINUOUS
 62
     7
  2
*HATCH56
 70
    65
 10
0.0
 20
0.0
 30
0.0
  3
*HATCH56
  0
LINE
  5
    AA
  8
0
  6
CONTINUOUS
 62
    52
 10
107.001167297363
 20
-47.8552169799805
 30
0.0
 11
105.001167297363
 21
-49.8552169799805
 31
0.0
  0
LINE
  5
    AB
  8
0
  6
CONTINUOUS
 62
    52
 10
107.001167297363
 20
-52.0978546142578
 30
0.0
 11
105.001167297363
 21
-54.0978546142578
 31
0.0
  0
LINE
  5
    AC
  8
0
  6
CONTINUOUS
 62
    52
 10
107.001167297363
 20
-56.3404998779297
 30
0.0
 11
106.091667175293
 21
-57.25
 31
0.0
  0
ENDBLK
  5
    AD
  8
0
  6
CONTINUOUS
 62
     7
  0
BLOCK
  5
    AE
  8
0
  6
CONTINUOUS
 62
     7
  2
*HATCH57
 70
    65
 10
0.0
 20
0.0
 30
0.0
  3
*HATCH57
  0
LINE
  5
    AF
  8
0
  6
CONTINUOUS
 62
    52
 10
107.001167297363
 20
77.3026809692383
 30
0.0
 11
105.001167297363
 21
75.3026809692383
 31
0.0
  0
LINE
  5
    B0
  8
0
  6
CONTINUOUS
 62
    52
 10
107.001167297363
 20
73.0600357055664
 30
0.0
 11
105.001167297363
 21
71.0600357055664
 31
0.0
  0
LINE
  5
    B1
  8
0
  6
CONTINUOUS
 62
    52
 10
107.001167297363
 20
68.8173904418945
 30
0.0
 11
105.001167297363
 21
66.8173904418945
 31
0.0
  0
ENDBLK
  5
    B2
  8
0
  6
CONTINUOUS
 62
     7
  0
BLOCK
  5
    B3
  8
0
  6
CONTINUOUS
 62
     7
  2
*HATCH58
 70
    65
 10
0.0
 20
0.0
 30
0.0
  3
*HATCH58
  0
LINE
  5
    B4
  8
0
  6
CONTINUOUS
 62
   210
 10
24.8035449981689
 20
-46.0167922973633
 30
0.0
 11
27.786735534668
 21
-48.9999885559082
 31
0.0
  0
LINE
  5
    B5
  8
0
  6
CONTINUOUS
 62
   210
 10
29.0461826324463
 20
-46.0167922973633
 30
0.0
 11
32.0293731689453
 21
-48.9999885559082
 31
0.0
  0
LINE
  5
    B6
  8
0
  6
CONTINUOUS
 62
   210
 10
33.2888221740723
 20
-46.0167922973633
 30
0.0
 11
36.2720108032227
 21
-48.9999885559082
 31
0.0
  0
LINE
  5
    B7
  8
0
  6
CONTINUOUS
 62
   210
 10
37.5314598083496
 20
-46.0167922973633
 30
0.0
 11
40.5146484375
 21
-48.9999885559082
 31
0.0
  0
LINE
  5
    B8
  8
0
  6
CONTINUOUS
 62
   210
 10
41.774097442627
 20
-46.0167922973633
 30
0.0
 11
44.7572860717773
 21
-48.9999885559082
 31
0.0
  0
LINE
  5
    B9
  8
0
  6
CONTINUOUS
 62
   210
 10
46.0167350769043
 20
-46.0167922973633
 30
0.0
 11
46.9614868164062
 21
-46.9615440368652
 31
0.0
  0
ENDBLK
  5
    BA
  8
0
  6
CONTINUOUS
 62
     7
  0
BLOCK
  5
    BB
  8
0
  6
CONTINUOUS
 62
     7
  2
*HATCH59
 70
    65
 10
0.0
 20
0.0
 30
0.0
  3
*HATCH59
  0
LINE
  5
    BC
  8
0
  6
CONTINUOUS
 62
   210
 10
25.55495262146
 20
159.0
 30
0.0
 11
26.2965507507324
 21
158.258407592773
 31
0.0
  0
LINE
  5
    BD
  8
0
  6
CONTINUOUS
 62
   210
 10
29.7975902557373
 20
159.0
 30
0.0
 11
30.5391883850098
 21
158.258407592773
 31
0.0
  0
LINE
  5
    BE
  8
0
  6
CONTINUOUS
 62
   210
 10
34.0402297973633
 20
159.0
 30
0.0
 11
34.7818260192871
 21
158.258407592773
 31
0.0
  0
ENDBLK
  5
    BF
  8
0
  6
CONTINUOUS
 62
     7
  0
BLOCK
  5
    C0
  8
0
  6
CONTINUOUS
 62
     7
  2
*HATCH60
 70
    65
 10
0.0
 20
0.0
 30
0.0
  3
*HATCH60
  0
LINE
  5
    C1
  8
0
  6
CONTINUOUS
 62
    52
 10
107.001167297363
 20
202.460571289063
 30
0.0
 11
105.001167297363
 21
200.460571289063
 31
0.0
  0
LINE
  5
    C2
  8
0
  6
CONTINUOUS
 62
    52
 10
107.001167297363
 20
198.217926025391
 30
0.0
 11
105.001167297363
 21
196.217926025391
 31
0.0
  0
LINE
  5
    C3
  8
0
  6
CONTINUOUS
 62
    52
 10
107.001167297363
 20
193.975280761719
 30
0.0
 11
105.001167297363
 21
191.975280761719
 31
0.0
  0
LINE
  5
    C4
  8
0
  6
CONTINUOUS
 62
    52
 10
107.001167297363
 20
189.732635498047
 30
0.0
 11
105.001167297363
 21
187.732635498047
 31
0.0
  0
LINE
  5
    C5
  8
0
  6
CONTINUOUS
 62
    52
 10
107.001167297363
 20
185.489990234375
 30
0.0
 11
105.001167297363
 21
183.489990234375
 31
0.0
  0
LINE
  5
    C6
  8
0
  6
CONTINUOUS
 62
    52
 10
107.001167297363
 20
181.247344970703
 30
0.0
 11
105.001167297363
 21
179.247344970703
 31
0.0
  0
LINE
  5
    C7
  8
0
  6
CONTINUOUS
 62
    52
 10
107.001167297363
 20
177.004699707031
 30
0.0
 11
105.001167297363
 21
175.004699707031
 31
0.0
  0
LINE
  5
    C8
  8
0
  6
CONTINUOUS
 62
    52
 10
107.001167297363
 20
172.762054443359
 30
0.0
 11
105.001167297363
 21
170.762054443359
 31
0.0
  0
LINE
  5
    C9
  8
0
  6
CONTINUOUS
 62
    52
 10
107.001167297363
 20
168.519409179688
 30
0.0
 11
105.001167297363
 21
166.519409179688
 31
0.0
  0
LINE
  5
    CA
  8
0
  6
CONTINUOUS
 62
    52
 10
107.001167297363
 20
164.276763916016
 30
0.0
 11
105.001167297363
 21
162.276763916016
 31
0.0
  0
LINE
  5
    CB
  8
0
  6
CONTINUOUS
 62
    52
 10
107.001167297363
 20
160.034118652344
 30
0.0
 11
105.001167297363
 21
158.034118652344
 31
0.0
  0
LINE
  5
    CC
  8
0
  6
CONTINUOUS
 62
    52
 10
107.001167297363
 20
155.791473388672
 30
0.0
 11
105.001167297363
 21
153.791473388672
 31
0.0
  0
LINE
  5
    CD
  8
0
  6
CONTINUOUS
 62
    52
 10
107.001167297363
 20
151.548828125
 30
0.0
 11
105.001167297363
 21
149.548828125
 31
0.0
  0
LINE
  5
    CE
  8
0
  6
CONTINUOUS
 62
    52
 10
107.001167297363
 20
147.306182861328
 30
0.0
 11
105.001167297363
 21
145.306182861328
 31
0.0
  0
LINE
  5
    CF
  8
0
  6
CONTINUOUS
 62
    52
 10
107.001167297363
 20
143.063537597656
 30
0.0
 11
105.001167297363
 21
141.063537597656
 31
0.0
  0
LINE
  5
    D0
  8
0
  6
CONTINUOUS
 62
    52
 10
107.001167297363
 20
138.820892333984
 30
0.0
 11
105.001167297363
 21
136.820892333984
 31
0.0
  0
LINE
  5
    D1
  8
0
  6
CONTINUOUS
 62
    52
 10
107.001167297363
 20
134.578247070313
 30
0.0
 11
105.001167297363
 21
132.578247070313
 31
0.0
  0
LINE
  5
    D2
  8
0
  6
CONTINUOUS
 62
    52
 10
107.001167297363
 20
130.335601806641
 30
0.0
 11
105.001167297363
 21
128.335601806641
 31
0.0
  0
LINE
  5
    D3
  8
0
  6
CONTINUOUS
 62
    52
 10
107.001167297363
 20
126.092956542969
 30
0.0
 11
105.001167297363
 21
124.092956542969
 31
0.0
  0
LINE
  5
    D4
  8
0
  6
CONTINUOUS
 62
    52
 10
107.001167297363
 20
121.850311279297
 30
0.0
 11
105.001167297363
 21
119.850311279297
 31
0.0
  0
LINE
  5
    D5
  8
0
  6
CONTINUOUS
 62
    52
 10
107.001167297363
 20
117.607666015625
 30
0.0
 11
105.001167297363
 21
115.607666015625
 31
0.0
  0
LINE
  5
    D6
  8
0
  6
CONTINUOUS
 62
    52
 10
107.001167297363
 20
113.365020751953
 30
0.0
 11
105.001167297363
 21
111.365020751953
 31
0.0
  0
LINE
  5
    D7
  8
0
  6
CONTINUOUS
 62
    52
 10
107.001167297363
 20
109.122375488281
 30
0.0
 11
105.001167297363
 21
107.122375488281
 31
0.0
  0
LINE
  5
    D8
  8
0
  6
CONTINUOUS
 62
    52
 10
107.001167297363
 20
104.879730224609
 30
0.0
 11
105.001167297363
 21
102.879730224609
 31
0.0
  0
LINE
  5
    D9
  8
0
  6
CONTINUOUS
 62
    52
 10
107.001167297363
 20
100.637084960938
 30
0.0
 11
105.001167297363
 21
98.6370849609375
 31
0.0
  0
LINE
  5
    DA
  8
0
  6
CONTINUOUS
 62
    52
 10
107.001167297363
 20
96.3944396972656
 30
0.0
 11
105.001167297363
 21
94.3944396972656
 31
0.0
  0
LINE
  5
    DB
  8
0
  6
CONTINUOUS
 62
    52
 10
107.001167297363
 20
92.1517944335938
 30
0.0
 11
105.001167297363
 21
90.1517944335938
 31
0.0
  0
LINE
  5
    DC
  8
0
  6
CONTINUOUS
 62
    52
 10
107.001167297363
 20
87.9091491699219
 30
0.0
 11
105.001167297363
 21
85.9091491699219
 31
0.0
  0
ENDBLK
  5
    DD
  8
0
  6
CONTINUOUS
 62
     7
  0
BLOCK
  5
    DE
  8
0
  6
CONTINUOUS
 62
     7
  2
*HATCH61
 70
    65
 10
0.0
 20
0.0
 30
0.0
  3
*HATCH61
  0
LINE
  5
    DF
  8
0
  6
CONTINUOUS
 62
   210
 10
21.0223026275635
 20
178.0
 30
0.0
 11
18.0000019073486
 21
174.977691650391
 31
0.0
  0
LINE
  5
    E0
  8
0
  6
CONTINUOUS
 62
   210
 10
23.0000019073486
 20
175.735061645508
 30
0.0
 11
20.4649429321289
 21
173.199996948242
 31
0.0
  0
ENDBLK
  5
    E1
  8
0
  6
CONTINUOUS
 62
     7
  0
BLOCK
  5
    E2
  8
0
  6
CONTINUOUS
 62
     7
  2
*HATCH62
 70
    65
 10
0.0
 20
0.0
 30
0.0
  3
*HATCH62
  0
LINE
  5
    E3
  8
0
  6
CONTINUOUS
 62
   210
 10
20.5502243041992
 20
164.800003051758
 30
0.0
 11
18.0000019073486
 21
162.249771118164
 31
0.0
  0
LINE
  5
    E4
  8
0
  6
CONTINUOUS
 62
   210
 10
23.0000019073486
 20
163.007141113281
 30
0.0
 11
18.2512645721436
 21
158.258407592773
 31
0.0
  0
LINE
  5
    E5
  8
0
  6
CONTINUOUS
 62
   210
 10
23.0000019073486
 20
158.764495849609
 30
0.0
 11
22.4939060211182
 21
158.258407592773
 31
0.0
  0
ENDBLK
  5
    E6
  8
0
  6
CONTINUOUS
 62
     7
  0
BLOCK
  5
    E7
  8
0
  6
CONTINUOUS
 62
     7
  2
*HATCH63
 70
    65
 10
0.0
 20
0.0
 30
0.0
  3
*HATCH63
  0
LINE
  5
    E8
  8
0
  6
CONTINUOUS
 62
     3
 10
1.9073486328125E-6
 20
183.847869873047
 30
0.0
 11
1.34786331653595
 21
182.500015258789
 31
0.0
  0
LINE
  5
    E9
  8
0
  6
CONTINUOUS
 62
     3
 10
0.969185471534729
 20
185.000015258789
 30
0.0
 11
3.46918225288391
 21
182.500015258789
 31
0.0
  0
LINE
  5
    EA
  8
0
  6
CONTINUOUS
 62
     3
 10
3.09050416946411
 20
185.000015258789
 30
0.0
 11
5.59050130844116
 21
182.500015258789
 31
0.0
  0
LINE
  5
    EB
  8
0
  6
CONTINUOUS
 62
     3
 10
5.21182298660278
 20
185.000015258789
 30
0.0
 11
7.71182012557983
 21
182.500015258789
 31
0.0
  0
LINE
  5
    EC
  8
0
  6
CONTINUOUS
 62
     3
 10
7.33314180374146
 20
185.000015258789
 30
0.0
 11
9.83313941955566
 21
182.500015258789
 31
0.0
  0
LINE
  5
    ED
  8
0
  6
CONTINUOUS
 62
     3
 10
9.45446014404297
 20
185.000015258789
 30
0.0
 11
11.9544582366943
 21
182.500015258789
 31
0.0
  0
LINE
  5
    EE
  8
0
  6
CONTINUOUS
 62
     3
 10
11.5757789611816
 20
185.000015258789
 30
0.0
 11
14.075777053833
 21
182.500015258789
 31
0.0
  0
LINE
  5
    EF
  8
0
  6
CONTINUOUS
 62
     3
 10
13.6970977783203
 20
185.000015258789
 30
0.0
 11
16.1970958709717
 21
182.500015258789
 31
0.0
  0
LINE
  5
    F0
  8
0
  6
CONTINUOUS
 62
     3
 10
15.818416595459
 20
185.000015258789
 30
0.0
 11
18.3184146881104
 21
182.500015258789
 31
0.0
  0
LINE
  5
    F1
  8
0
  6
CONTINUOUS
 62
     3
 10
17.9397354125977
 20
185.000015258789
 30
0.0
 11
20.439733505249
 21
182.500015258789
 31
0.0
  0
LINE
  5
    F2
  8
0
  6
CONTINUOUS
 62
     3
 10
20.0610542297363
 20
185.000015258789
 30
0.0
 11
22.5610523223877
 21
182.500015258789
 31
0.0
  0
LINE
  5
    F3
  8
0
  6
CONTINUOUS
 62
     3
 10
22.182373046875
 20
185.000015258789
 30
0.0
 11
24.6823711395264
 21
182.500015258789
 31
0.0
  0
LINE
  5
    F4
  8
0
  6
CONTINUOUS
 62
     3
 10
24.3036918640137
 20
185.000015258789
 30
0.0
 11
26.803689956665
 21
182.500015258789
 31
0.0
  0
LINE
  5
    F5
  8
0
  6
CONTINUOUS
 62
     3
 10
26.4250106811523
 20
185.000015258789
 30
0.0
 11
28.9250087738037
 21
182.500015258789
 31
0.0
  0
LINE
  5
    F6
  8
0
  6
CONTINUOUS
 62
     3
 10
28.546329498291
 20
185.000015258789
 30
0.0
 11
31.0463275909424
 21
182.500015258789
 31
0.0
  0
LINE
  5
    F7
  8
0
  6
CONTINUOUS
 62
     3
 10
30.6676483154297
 20
185.000015258789
 30
0.0
 11
33.1676483154297
 21
182.500015258789
 31
0.0
  0
LINE
  5
    F8
  8
0
  6
CONTINUOUS
 62
     3
 10
32.7889671325684
 20
185.000015258789
 30
0.0
 11
35.2889709472656
 21
182.500015258789
 31
0.0
  0
LINE
  5
    F9
  8
0
  6
CONTINUOUS
 62
     3
 10
34.910285949707
 20
185.000015258789
 30
0.0
 11
37.4102935791016
 21
182.500015258789
 31
0.0
  0
LINE
  5
    FA
  8
0
  6
CONTINUOUS
 62
     3
 10
37.031608581543
 20
185.000015258789
 30
0.0
 11
39.5316162109375
 21
182.500015258789
 31
0.0
  0
LINE
  5
    FB
  8
0
  6
CONTINUOUS
 62
     3
 10
39.1529312133789
 20
185.000015258789
 30
0.0
 11
41.6529388427734
 21
182.500015258789
 31
0.0
  0
LINE
  5
    FC
  8
0
  6
CONTINUOUS
 62
     3
 10
41.2742538452148
 20
185.000015258789
 30
0.0
 11
43.7742614746094
 21
182.500015258789
 31
0.0
  0
LINE
  5
    FD
  8
0
  6
CONTINUOUS
 62
     3
 10
43.3955764770508
 20
185.000015258789
 30
0.0
 11
45.8955841064453
 21
182.500015258789
 31
0.0
  0
LINE
  5
    FE
  8
0
  6
CONTINUOUS
 62
     3
 10
45.5168991088867
 20
185.000015258789
 30
0.0
 11
48.0169067382813
 21
182.500015258789
 31
0.0
  0
LINE
  5
    FF
  8
0
  6
CONTINUOUS
 62
     3
 10
47.6382217407227
 20
185.000015258789
 30
0.0
 11
50.1382293701172
 21
182.500015258789
 31
0.0
  0
LINE
  5
   100
  8
0
  6
CONTINUOUS
 62
     3
 10
49.7595443725586
 20
185.000015258789
 30
0.0
 11
52.2595520019531
 21
182.500015258789
 31
0.0
  0
LINE
  5
   101
  8
0
  6
CONTINUOUS
 62
     3
 10
51.8808670043945
 20
185.000015258789
 30
0.0
 11
54.3808746337891
 21
182.500015258789
 31
0.0
  0
LINE
  5
   102
  8
0
  6
CONTINUOUS
 62
     3
 10
54.0021896362305
 20
185.000015258789
 30
0.0
 11
56.502197265625
 21
182.500015258789
 31
0.0
  0
LINE
  5
   103
  8
0
  6
CONTINUOUS
 62
     3
 10
56.1235122680664
 20
185.000015258789
 30
0.0
 11
58.6235198974609
 21
182.500015258789
 31
0.0
  0
LINE
  5
   104
  8
0
  6
CONTINUOUS
 62
     3
 10
58.2448348999023
 20
185.000015258789
 30
0.0
 11
60.7448425292969
 21
182.500015258789
 31
0.0
  0
LINE
  5
   105
  8
0
  6
CONTINUOUS
 62
     3
 10
60.3661575317383
 20
185.000015258789
 30
0.0
 11
62.8661651611328
 21
182.500015258789
 31
0.0
  0
LINE
  5
   106
  8
0
  6
CONTINUOUS
 62
     3
 10
62.4874801635742
 20
185.000015258789
 30
0.0
 11
64.9874877929688
 21
182.500015258789
 31
0.0
  0
LINE
  5
   107
  8
0
  6
CONTINUOUS
 62
     3
 10
64.608757019043
 20
185.000015258789
 30
0.0
 11
65.5542221069336
 21
184.054550170898
 31
0.0
  0
ENDBLK
  5
   108
  8
0
  6
CONTINUOUS
 62
     7
  0
BLOCK
  5
   109
  8
0
  6
CONTINUOUS
 62
     7
  2
*HATCH64
 70
    65
 10
0.0
 20
0.0
 30
0.0
  3
*HATCH64
  0
LINE
  5
   10A
  8
0
  6
CONTINUOUS
 62
   210
 10
21.0
 20
-46.8822479248047
 30
0.0
 11
18.0000019073486
 21
-49.8822479248047
 31
0.0
  0
LINE
  5
   10B
  8
0
  6
CONTINUOUS
 62
   210
 10
21.0
 20
-51.1248893737793
 30
0.0
 11
18.0000019073486
 21
-54.124885559082
 31
0.0
  0
ENDBLK
  5
   10C
  8
0
  6
CONTINUOUS
 62
     7
  0
BLOCK
  5
   10D
  8
0
  6
CONTINUOUS
 62
     7
  2
*HATCH65
 70
    65
 10
0.0
 20
0.0
 30
0.0
  3
*HATCH65
  0
LINE
  5
   10E
  8
0
  6
CONTINUOUS
 62
   210
 10
23.0000019073486
 20
-49.1248893737793
 30
0.0
 11
21.0
 21
-51.1248893737793
 31
0.0
  0
LINE
  5
   10F
  8
0
  6
CONTINUOUS
 62
   210
 10
23.0000019073486
 20
-53.3675308227539
 30
0.0
 11
21.4675312042236
 21
-54.9000015258789
 31
0.0
  0
ENDBLK
  5
   110
  8
0
  6
CONTINUOUS
 62
     7
  0
BLOCK
  5
   111
  8
0
  6
CONTINUOUS
 62
     7
  2
*HATCH66
 70
    65
 10
0.0
 20
0.0
 30
0.0
  3
*HATCH66
  0
LINE
  5
   112
  8
0
  6
CONTINUOUS
 62
     3
 10
1.9073486328125E-6
 20
-73.892707824707
 30
0.0
 11
1.10728168487549
 21
-74.9999847412109
 31
0.0
  0
LINE
  5
   113
  8
0
  6
CONTINUOUS
 62
     3
 10
0.728603780269623
 20
-72.4999847412109
 30
0.0
 11
3.22860074043274
 21
-74.9999847412109
 31
0.0
  0
LINE
  5
   114
  8
0
  6
CONTINUOUS
 62
     3
 10
2.84992265701294
 20
-72.4999847412109
 30
0.0
 11
5.34991979598999
 21
-74.9999847412109
 31
0.0
  0
LINE
  5
   115
  8
0
  6
CONTINUOUS
 62
     3
 10
4.97124147415161
 20
-72.4999847412109
 30
0.0
 11
7.47123861312866
 21
-74.9999847412109
 31
0.0
  0
LINE
  5
   116
  8
0
  6
CONTINUOUS
 62
     3
 10
7.09256029129028
 20
-72.4999847412109
 30
0.0
 11
9.59255790710449
 21
-74.9999847412109
 31
0.0
  0
LINE
  5
   117
  8
0
  6
CONTINUOUS
 62
     3
 10
9.21387958526611
 20
-72.4999847412109
 30
0.0
 11
11.7138767242432
 21
-74.9999847412109
 31
0.0
  0
LINE
  5
   118
  8
0
  6
CONTINUOUS
 62
     3
 10
11.3351984024048
 20
-72.4999847412109
 30
0.0
 11
13.8351955413818
 21
-74.9999847412109
 31
0.0
  0
LINE
  5
   119
  8
0
  6
CONTINUOUS
 62
     3
 10
13.4565172195435
 20
-72.4999847412109
 30
0.0
 11
15.9565143585205
 21
-74.9999847412109
 31
0.0
  0
LINE
  5
   11A
  8
0
  6
CONTINUOUS
 62
     3
 10
15.5778360366821
 20
-72.4999847412109
 30
0.0
 11
18.0778331756592
 21
-74.9999847412109
 31
0.0
  0
LINE
  5
   11B
  8
0
  6
CONTINUOUS
 62
     3
 10
17.6991558074951
 20
-72.4999847412109
 30
0.0
 11
20.1991519927979
 21
-74.9999847412109
 31
0.0
  0
LINE
  5
   11C
  8
0
  6
CONTINUOUS
 62
     3
 10
19.8204746246338
 20
-72.4999847412109
 30
0.0
 11
22.3204708099365
 21
-74.9999847412109
 31
0.0
  0
LINE
  5
   11D
  8
0
  6
CONTINUOUS
 62
     3
 10
21.9417934417725
 20
-72.4999847412109
 30
0.0
 11
24.4417896270752
 21
-74.9999847412109
 31
0.0
  0
LINE
  5
   11E
  8
0
  6
CONTINUOUS
 62
     3
 10
24.0631122589111
 20
-72.4999847412109
 30
0.0
 11
26.5631084442139
 21
-74.9999847412109
 31
0.0
  0
LINE
  5
   11F
  8
0
  6
CONTINUOUS
 62
     3
 10
26.1844310760498
 20
-72.4999847412109
 30
0.0
 11
28.6844272613525
 21
-74.9999847412109
 31
0.0
  0
LINE
  5
   120
  8
0
  6
CONTINUOUS
 62
     3
 10
28.3057498931885
 20
-72.4999847412109
 30
0.0
 11
30.8057460784912
 21
-74.9999847412109
 31
0.0
  0
LINE
  5
   121
  8
0
  6
CONTINUOUS
 62
     3
 10
30.4270687103272
 20
-72.4999847412109
 30
0.0
 11
32.9270668029785
 21
-74.9999847412109
 31
0.0
  0
LINE
  5
   122
  8
0
  6
CONTINUOUS
 62
     3
 10
32.5483894348145
 20
-72.4999847412109
 30
0.0
 11
35.0483894348145
 21
-74.9999847412109
 31
0.0
  0
LINE
  5
   123
  8
0
  6
CONTINUOUS
 62
     3
 10
34.6697120666504
 20
-72.4999847412109
 30
0.0
 11
37.1697120666504
 21
-74.9999847412109
 31
0.0
  0
LINE
  5
   124
  8
0
  6
CONTINUOUS
 62
     3
 10
36.7910346984863
 20
-72.4999847412109
 30
0.0
 11
39.2910346984863
 21
-74.9999847412109
 31
0.0
  0
LINE
  5
   125
  8
0
  6
CONTINUOUS
 62
     3
 10
38.9123573303223
 20
-72.4999847412109
 30
0.0
 11
41.4123573303223
 21
-74.9999847412109
 31
0.0
  0
LINE
  5
   126
  8
0
  6
CONTINUOUS
 62
     3
 10
41.0336799621582
 20
-72.4999847412109
 30
0.0
 11
43.5336799621582
 21
-74.9999847412109
 31
0.0
  0
LINE
  5
   127
  8
0
  6
CONTINUOUS
 62
     3
 10
43.1550025939941
 20
-72.4999847412109
 30
0.0
 11
45.6550025939941
 21
-74.9999847412109
 31
0.0
  0
LINE
  5
   128
  8
0
  6
CONTINUOUS
 62
     3
 10
45.2763252258301
 20
-72.4999847412109
 30
0.0
 11
47.7763252258301
 21
-74.9999847412109
 31
0.0
  0
LINE
  5
   129
  8
0
  6
CONTINUOUS
 62
     3
 10
47.397647857666
 20
-72.4999847412109
 30
0.0
 11
49.897647857666
 21
-74.9999847412109
 31
0.0
  0
LINE
  5
   12A
  8
0
  6
CONTINUOUS
 62
     3
 10
49.5189437866211
 20
-72.4999847412109
 30
0.0
 11
50.1240081787109
 21
-73.1050491333008
 31
0.0
  0
ENDBLK
  5
   12B
  8
0
  6
CONTINUOUS
 62
     7
  0
BLOCK
  5
   12C
  8
0
  6
CONTINUOUS
 62
     7
  2
TERM_POST_
 70
    64
 10
0.0
 20
0.0
 30
0.0
  3
TERM_POST_
  0
LINE
  5
   12D
  8
0
  6
DASHDOT
 62
     7
 10
-105.961541792949
 20
84.0
 30
0.0
 11
34.4853490695609
 21
84.0
 31
0.0
  0
LINE
  5
   12E
  8
0
  6
CONTINUOUS
 62
     7
 10
23.8000011444092
 20
89.0
 30
0.0
 11
29.8000011444092
 21
89.0
 31
0.0
  0
LINE
  5
   12F
  8
0
  6
CONTINUOUS
 62
     7
 10
29.8000011444092
 20
79.0
 30
0.0
 11
29.8000011444092
 21
89.0
 31
0.0
  0
LINE
  5
   130
  8
0
  6
CONTINUOUS
 62
     5
 10
23.8000011444092
 20
76.5
 30
0.0
 11
23.8000011444092
 21
91.5
 31
0.0
  0
LINE
  5
   131
  8
0
  6
CONTINUOUS
 62
     7
 10
23.8000011444092
 20
79.0
 30
0.0
 11
29.8000011444092
 21
79.0
 31
0.0
  0
LINE
  5
   132
  8
0
  6
CONTINUOUS
 62
     2
 10
18.0000019073486
 20
76.0
 30
0.0
 11
18.0000019073486
 21
92.0
 31
0.0
  0
LINE
  5
   133
  8
0
  6
CONTINUOUS
 62
     5
 10
23.0000019073486
 20
76.5
 30
0.0
 11
23.0000019073486
 21
91.5
 31
0.0
  0
LINE
  5
   134
  8
0
  6
CONTINUOUS
 62
    98
 10
22.0000019073486
 20
80.0
 30
0.0
 11
22.0000019073486
 21
88.0
 31
0.0
  0
LINE
  5
   135
  8
0
  6
CONTINUOUS
 62
     2
 10
-29.9999980926514
 20
76.0
 30
0.0
 11
18.0000019073486
 21
76.0
 31
0.0
  0
LINE
  5
   136
  8
0
  6
CONTINUOUS
 62
     5
 10
23.0000019073486
 20
76.5
 30
0.0
 11
23.8000011444092
 21
76.5
 31
0.0
  0
LINE
  5
   137
  8
0
  6
CONTINUOUS
 62
    98
 10
18.0000019073486
 20
80.0
 30
0.0
 11
22.0000019073486
 21
80.0
 31
0.0
  0
LINE
  5
   138
  8
0
  6
CONTINUOUS
 62
    98
 10
18.0000019073486
 20
88.0
 30
0.0
 11
22.0000019073486
 21
88.0
 31
0.0
  0
LINE
  5
   139
  8
0
  6
CONTINUOUS
 62
     7
 10
22.0000019073486
 20
81.0
 30
0.0
 11
23.0000038146973
 21
81.0
 31
0.0
  0
LINE
  5
   13A
  8
0
  6
CONTINUOUS
 62
     7
 10
22.0000019073486
 20
87.0
 30
0.0
 11
23.0000019073486
 21
87.0
 31
0.0
  0
LINE
  5
   13B
  8
0
  6
CONTINUOUS
 62
     5
 10
23.0000019073486
 20
91.5
 30
0.0
 11
23.8000011444092
 21
91.5
 31
0.0
  0
LINE
  5
   13C
  8
0
  6
CONTINUOUS
 62
     2
 10
-29.9999980926514
 20
92.0
 30
0.0
 11
18.0000019073486
 21
92.0
 31
0.0
  0
LINE
  5
   13D
  8
0
  6
CONTINUOUS
 62
     7
 10
-35.9999980926514
 20
73.0
 30
0.0
 11
-35.9999980926514
 21
95.0
 31
0.0
  0
LINE
  5
   13E
  8
0
  6
CONTINUOUS
 62
     7
 10
-38.4999980926514
 20
73.0
 30
0.0
 11
-38.4999980926514
 21
95.0
 31
0.0
  0
LINE
  5
   13F
  8
0
  6
CONTINUOUS
 62
     7
 10
-40.9999980926514
 20
73.0
 30
0.0
 11
-40.9999980926514
 21
95.0
 31
0.0
  0
LINE
  5
   140
  8
0
  6
CONTINUOUS
 62
     7
 10
-43.4999980926514
 20
73.0
 30
0.0
 11
-43.4999980926514
 21
95.0
 31
0.0
  0
LINE
  5
   141
  8
0
  6
CONTINUOUS
 62
     3
 10
-49.4999980926514
 20
73.0303497314453
 30
0.0
 11
-49.4999980926514
 21
94.9696502685547
 31
0.0
  0
LINE
  5
   142
  8
0
  6
CONTINUOUS
 62
    98
 10
-56.9999980926514
 20
79.0
 30
0.0
 11
-56.9999980926514
 21
89.0
 31
0.0
  0
LINE
  5
   143
  8
0
  6
CONTINUOUS
 62
     7
 10
-38.4999980926514
 20
95.0
 30
0.0
 11
-35.9999980926514
 21
95.0
 31
0.0
  0
LINE
  5
   144
  8
0
  6
CONTINUOUS
 62
     7
 10
-38.4999980926514
 20
73.0
 30
0.0
 11
-35.9999980926514
 21
73.0
 31
0.0
  0
LINE
  5
   145
  8
0
  6
CONTINUOUS
 62
     7
 10
-43.4999980926514
 20
95.0
 30
0.0
 11
-40.9999980926514
 21
95.0
 31
0.0
  0
LINE
  5
   146
  8
0
  6
CONTINUOUS
 62
     7
 10
-43.4999980926514
 20
73.0
 30
0.0
 11
-40.9999980926514
 21
73.0
 31
0.0
  0
LINE
  5
   147
  8
0
  6
CONTINUOUS
 62
     3
 10
-35.9999980926514
 20
78.5151672363281
 30
0.0
 11
-29.9999980926514
 21
78.5151672363281
 31
0.0
  0
LINE
  5
   148
  8
0
  6
CONTINUOUS
 62
     3
 10
-35.9999980926514
 20
73.0303497314453
 30
0.0
 11
-29.9999980926514
 21
73.0303497314453
 31
0.0
  0
LINE
  5
   149
  8
0
  6
CONTINUOUS
 62
     3
 10
-35.9999980926514
 20
94.9696502685547
 30
0.0
 11
-29.9999980926514
 21
94.9696502685547
 31
0.0
  0
LINE
  5
   14A
  8
0
  6
CONTINUOUS
 62
     3
 10
-35.9999980926514
 20
89.4848327636719
 30
0.0
 11
-29.9999980926514
 21
89.4848327636719
 31
0.0
  0
LINE
  5
   14B
  8
0
  6
CONTINUOUS
 62
     3
 10
-49.4999980926514
 20
78.5151672363281
 30
0.0
 11
-43.4999980926514
 21
78.5151672363281
 31
0.0
  0
LINE
  5
   14C
  8
0
  6
CONTINUOUS
 62
     3
 10
-49.4999980926514
 20
73.0303497314453
 30
0.0
 11
-43.4999980926514
 21
73.0303497314453
 31
0.0
  0
LINE
  5
   14D
  8
0
  6
CONTINUOUS
 62
     3
 10
-49.4999980926514
 20
94.9696502685547
 30
0.0
 11
-43.4999980926514
 21
94.9696502685547
 31
0.0
  0
LINE
  5
   14E
  8
0
  6
CONTINUOUS
 62
     3
 10
-49.4999980926514
 20
89.4848327636719
 30
0.0
 11
-43.4999980926514
 21
89.4848327636719
 31
0.0
  0
LINE
  5
   14F
  8
0
  6
CONTINUOUS
 62
    98
 10
-56.999995384318
 20
78.9999956401395
 30
0.0
 11
-55.9999954185466
 21
77.999995674368
 31
0.0
  0
LINE
  5
   150
  8
0
  6
CONTINUOUS
 62
    98
 10
-56.9999980627014
 20
88.9999963247104
 30
0.0
 11
-55.9999980969299
 21
89.9999962904819
 31
0.0
  0
LINE
  5
   151
  8
0
  6
CONTINUOUS
 62
    98
 10
-55.9999980926514
 20
78.0
 30
0.0
 11
-49.4999980926514
 21
78.0
 31
0.0
  0
LINE
  5
   152
  8
0
  6
CONTINUOUS
 62
    98
 10
-40.9999980926514
 20
78.0
 30
0.0
 11
-38.4999980926514
 21
78.0
 31
0.0
  0
LINE
  5
   153
  8
0
  6
CONTINUOUS
 62
    98
 10
-55.9999980926514
 20
78.0
 30
0.0
 11
-55.9999980926514
 21
78.1152954101562
 31
0.0
  0
LINE
  5
   154
  8
0
  6
CONTINUOUS
 62
    98
 10
-55.9999980926514
 20
78.1152954101562
 30
0.0
 11
-55.9999980926514
 21
78.4567260742187
 31
0.0
  0
LINE
  5
   155
  8
0
  6
CONTINUOUS
 62
    98
 10
-55.9999980926514
 20
78.4567260742187
 30
0.0
 11
-55.9999980926514
 21
79.0111846923828
 31
0.0
  0
LINE
  5
   156
  8
0
  6
CONTINUOUS
 62
    98
 10
-55.9999980926514
 20
79.0111846923828
 30
0.0
 11
-55.9999980926514
 21
79.7573547363281
 31
0.0
  0
LINE
  5
   157
  8
0
  6
CONTINUOUS
 62
    98
 10
-55.9999980926514
 20
79.7573547363281
 30
0.0
 11
-55.9999980926514
 21
80.6665802001953
 31
0.0
  0
LINE
  5
   158
  8
0
  6
CONTINUOUS
 62
    98
 10
-55.9999980926514
 20
80.6665802001953
 30
0.0
 11
-55.9999980926514
 21
81.7039031982422
 31
0.0
  0
LINE
  5
   159
  8
0
  6
CONTINUOUS
 62
    98
 10
-55.9999980926514
 20
81.7039031982422
 30
0.0
 11
-55.9999980926514
 21
82.8294525146484
 31
0.0
  0
LINE
  5
   15A
  8
0
  6
CONTINUOUS
 62
    98
 10
-55.9999980926514
 20
82.8294525146484
 30
0.0
 11
-55.9999980926514
 21
84.0
 31
0.0
  0
LINE
  5
   15B
  8
0
  6
CONTINUOUS
 62
    98
 10
-55.9999980926514
 20
84.0
 30
0.0
 11
-55.9999980926514
 21
85.1705474853516
 31
0.0
  0
LINE
  5
   15C
  8
0
  6
CONTINUOUS
 62
    98
 10
-55.9999980926514
 20
85.1705474853516
 30
0.0
 11
-55.9999980926514
 21
86.2960968017578
 31
0.0
  0
LINE
  5
   15D
  8
0
  6
CONTINUOUS
 62
    98
 10
-55.9999980926514
 20
86.2960968017578
 30
0.0
 11
-55.9999980926514
 21
87.3334197998047
 31
0.0
  0
LINE
  5
   15E
  8
0
  6
CONTINUOUS
 62
    98
 10
-55.9999980926514
 20
87.3334197998047
 30
0.0
 11
-55.9999980926514
 21
88.2426452636719
 31
0.0
  0
LINE
  5
   15F
  8
0
  6
CONTINUOUS
 62
    98
 10
-55.9999980926514
 20
88.2426452636719
 30
0.0
 11
-55.9999980926514
 21
88.9888153076172
 31
0.0
  0
LINE
  5
   160
  8
0
  6
CONTINUOUS
 62
    98
 10
-55.9999980926514
 20
88.9888153076172
 30
0.0
 11
-55.9999980926514
 21
89.5432739257812
 31
0.0
  0
LINE
  5
   161
  8
0
  6
CONTINUOUS
 62
    98
 10
-55.9999980926514
 20
89.5432739257812
 30
0.0
 11
-55.9999980926514
 21
89.8847045898437
 31
0.0
  0
LINE
  5
   162
  8
0
  6
CONTINUOUS
 62
    98
 10
-55.9999980926514
 20
90.0
 30
0.0
 11
-49.4999980926514
 21
90.0
 31
0.0
  0
LINE
  5
   163
  8
0
  6
CONTINUOUS
 62
    98
 10
-40.9999980926514
 20
90.0
 30
0.0
 11
-38.4999980926514
 21
90.0
 31
0.0
  0
LINE
  5
   164
  8
0
  6
CONTINUOUS
 62
    98
 10
-55.9999980926514
 20
89.8847045898437
 30
0.0
 11
-55.9999980926514
 21
90.0
 31
0.0
  0
LINE
  5
   165
  8
0
  6
CONTINUOUS
 62
     2
 10
-40.9999980926514
 20
92.0
 30
0.0
 11
-38.4999980926514
 21
92.0
 31
0.0
  0
LINE
  5
   166
  8
0
  6
CONTINUOUS
 62
     2
 10
-74.9999980926514
 20
92.0
 30
0.0
 11
-49.4999942779541
 21
92.0
 31
0.0
  0
LINE
  5
   167
  8
0
  6
CONTINUOUS
 62
     2
 10
-40.9999980926514
 20
76.0
 30
0.0
 11
-38.4999980926514
 21
76.0
 31
0.0
  0
LINE
  5
   168
  8
0
  6
CONTINUOUS
 62
     2
 10
-74.9999980926514
 20
76.0
 30
0.0
 11
-49.5000019073486
 21
76.0
 31
0.0
  0
LINE
  5
   169
  8
0
  6
CONTINUOUS
 62
     3
 10
-29.9999980926514
 20
73.0303497314453
 30
0.0
 11
-29.9999980926514
 21
94.9696502685547
 31
0.0
  0
LINE
  5
   16A
  8
0
  6
CONTINUOUS
 62
     7
 10
-85.9999980926514
 20
73.0
 30
0.0
 11
-85.9999980926514
 21
95.0
 31
0.0
  0
LINE
  5
   16B
  8
0
  6
CONTINUOUS
 62
     7
 10
-88.4999980926514
 20
73.0
 30
0.0
 11
-88.4999980926514
 21
95.0
 31
0.0
  0
LINE
  5
   16C
  8
0
  6
CONTINUOUS
 62
     7
 10
-80.9999980926514
 20
73.0
 30
0.0
 11
-80.9999980926514
 21
95.0
 31
0.0
  0
LINE
  5
   16D
  8
0
  6
CONTINUOUS
 62
     7
 10
-83.4999980926514
 20
73.0
 30
0.0
 11
-83.4999980926514
 21
95.0
 31
0.0
  0
LINE
  5
   16E
  8
0
  6
CONTINUOUS
 62
     3
 10
-74.9999980926514
 20
73.0303497314453
 30
0.0
 11
-74.9999980926514
 21
94.9696502685547
 31
0.0
  0
LINE
  5
   16F
  8
0
  6
CONTINUOUS
 62
     3
 10
-94.4999980926514
 20
73.0303497314453
 30
0.0
 11
-94.4999980926514
 21
94.9696502685547
 31
0.0
  0
LINE
  5
   170
  8
0
  6
CONTINUOUS
 62
     7
 10
-88.4999980926514
 20
95.0
 30
0.0
 11
-85.9999980926514
 21
95.0
 31
0.0
  0
LINE
  5
   171
  8
0
  6
CONTINUOUS
 62
     7
 10
-88.4999980926514
 20
73.0
 30
0.0
 11
-85.9999980926514
 21
73.0
 31
0.0
  0
LINE
  5
   172
  8
0
  6
CONTINUOUS
 62
     7
 10
-83.4999980926514
 20
95.0
 30
0.0
 11
-80.9999980926514
 21
95.0
 31
0.0
  0
LINE
  5
   173
  8
0
  6
CONTINUOUS
 62
     7
 10
-83.4999980926514
 20
73.0
 30
0.0
 11
-80.9999980926514
 21
73.0
 31
0.0
  0
LINE
  5
   174
  8
0
  6
CONTINUOUS
 62
     3
 10
-80.9999980926514
 20
78.5151672363281
 30
0.0
 11
-74.9999980926514
 21
78.5151672363281
 31
0.0
  0
LINE
  5
   175
  8
0
  6
CONTINUOUS
 62
     3
 10
-80.9999980926514
 20
73.0303497314453
 30
0.0
 11
-74.9999980926514
 21
73.0303497314453
 31
0.0
  0
LINE
  5
   176
  8
0
  6
CONTINUOUS
 62
     3
 10
-80.9999980926514
 20
94.9696502685547
 30
0.0
 11
-74.9999980926514
 21
94.9696502685547
 31
0.0
  0
LINE
  5
   177
  8
0
  6
CONTINUOUS
 62
     3
 10
-80.9999980926514
 20
89.4848327636719
 30
0.0
 11
-74.9999980926514
 21
89.4848327636719
 31
0.0
  0
LINE
  5
   178
  8
0
  6
CONTINUOUS
 62
     3
 10
-94.4999980926514
 20
78.5151672363281
 30
0.0
 11
-88.4999980926514
 21
78.5151672363281
 31
0.0
  0
LINE
  5
   179
  8
0
  6
CONTINUOUS
 62
     3
 10
-94.4999980926514
 20
73.0303497314453
 30
0.0
 11
-88.4999980926514
 21
73.0303497314453
 31
0.0
  0
LINE
  5
   17A
  8
0
  6
CONTINUOUS
 62
     3
 10
-94.4999980926514
 20
94.9696502685547
 30
0.0
 11
-88.4999980926514
 21
94.9696502685547
 31
0.0
  0
LINE
  5
   17B
  8
0
  6
CONTINUOUS
 62
     3
 10
-94.4999980926514
 20
89.4848327636719
 30
0.0
 11
-88.4999980926514
 21
89.4848327636719
 31
0.0
  0
LINE
  5
   17C
  8
0
  6
CONTINUOUS
 62
    98
 10
-100.999998092651
 20
78.0
 30
0.0
 11
-94.4999980926514
 21
78.0
 31
0.0
  0
LINE
  5
   17D
  8
0
  6
CONTINUOUS
 62
    98
 10
-85.9999980926514
 20
78.0
 30
0.0
 11
-83.4999980926514
 21
78.0
 31
0.0
  0
LINE
  5
   17E
  8
0
  6
CONTINUOUS
 62
    98
 10
-100.999998092651
 20
90.0
 30
0.0
 11
-94.4999980926514
 21
90.0
 31
0.0
  0
LINE
  5
   17F
  8
0
  6
CONTINUOUS
 62
    98
 10
-85.9999980926514
 20
90.0
 30
0.0
 11
-83.4999980926514
 21
90.0
 31
0.0
  0
LINE
  5
   180
  8
0
  6
CONTINUOUS
 62
    98
 10
-101.999994229105
 20
78.9999952550684
 30
0.0
 11
-100.999994263333
 21
77.9999952892969
 31
0.0
  0
LINE
  5
   181
  8
0
  6
CONTINUOUS
 62
    98
 10
-100.999998092651
 20
82.8294525146484
 30
0.0
 11
-100.999998092651
 21
84.0
 31
0.0
  0
LINE
  5
   182
  8
0
  6
CONTINUOUS
 62
    98
 10
-101.999998092651
 20
79.0
 30
0.0
 11
-101.999998092651
 21
89.0
 31
0.0
  0
LINE
  5
   183
  8
0
  6
CONTINUOUS
 62
    98
 10
-101.999996907488
 20
88.9999967097815
 30
0.0
 11
-100.999996941717
 21
89.999996675553
 31
0.0
  0
LINE
  5
   184
  8
0
  6
CONTINUOUS
 62
    98
 10
-100.999998092651
 20
85.1705474853516
 30
0.0
 11
-100.999998092651
 21
86.2960968017578
 31
0.0
  0
LINE
  5
   185
  8
0
  6
CONTINUOUS
 62
    98
 10
-100.999998092651
 20
84.0
 30
0.0
 11
-100.999998092651
 21
85.1705474853516
 31
0.0
  0
LINE
  5
   186
  8
0
  6
CONTINUOUS
 62
    98
 10
-100.999998092651
 20
86.2960968017578
 30
0.0
 11
-100.999998092651
 21
87.3334197998047
 31
0.0
  0
LINE
  5
   187
  8
0
  6
CONTINUOUS
 62
    98
 10
-100.999998092651
 20
88.2426452636719
 30
0.0
 11
-100.999998092651
 21
88.9888153076172
 31
0.0
  0
LINE
  5
   188
  8
0
  6
CONTINUOUS
 62
    98
 10
-100.999998092651
 20
88.9888153076172
 30
0.0
 11
-100.999998092651
 21
89.5432739257812
 31
0.0
  0
LINE
  5
   189
  8
0
  6
CONTINUOUS
 62
    98
 10
-100.999998092651
 20
89.8847045898437
 30
0.0
 11
-100.999998092651
 21
90.0
 31
0.0
  0
LINE
  5
   18A
  8
0
  6
CONTINUOUS
 62
    98
 10
-100.999998092651
 20
80.6665802001953
 30
0.0
 11
-100.999998092651
 21
81.7039031982422
 31
0.0
  0
LINE
  5
   18B
  8
0
  6
CONTINUOUS
 62
    98
 10
-100.999998092651
 20
81.7039031982422
 30
0.0
 11
-100.999998092651
 21
82.8294525146484
 31
0.0
  0
LINE
  5
   18C
  8
0
  6
CONTINUOUS
 62
    98
 10
-100.999998092651
 20
87.3334197998047
 30
0.0
 11
-100.999998092651
 21
88.2426452636719
 31
0.0
  0
LINE
  5
   18D
  8
0
  6
CONTINUOUS
 62
    98
 10
-100.999998092651
 20
89.5432739257812
 30
0.0
 11
-100.999998092651
 21
89.8847045898437
 31
0.0
  0
LINE
  5
   18E
  8
0
  6
CONTINUOUS
 62
    98
 10
-100.999998092651
 20
78.0
 30
0.0
 11
-100.999998092651
 21
78.1152954101562
 31
0.0
  0
LINE
  5
   18F
  8
0
  6
CONTINUOUS
 62
    98
 10
-100.999998092651
 20
78.1152954101562
 30
0.0
 11
-100.999998092651
 21
78.4567260742187
 31
0.0
  0
LINE
  5
   190
  8
0
  6
CONTINUOUS
 62
    98
 10
-100.999998092651
 20
78.4567260742187
 30
0.0
 11
-100.999998092651
 21
79.0111846923828
 31
0.0
  0
LINE
  5
   191
  8
0
  6
CONTINUOUS
 62
    98
 10
-100.999998092651
 20
79.0111846923828
 30
0.0
 11
-100.999998092651
 21
79.7573547363281
 31
0.0
  0
LINE
  5
   192
  8
0
  6
CONTINUOUS
 62
    98
 10
-100.999998092651
 20
79.7573547363281
 30
0.0
 11
-100.999998092651
 21
80.6665802001953
 31
0.0
  0
LINE
  5
   193
  8
0
  6
CONTINUOUS
 62
     7
 10
-101.999996907488
 20
88.9999967097815
 30
0.0
 11
-94.4999980926514
 21
88.9999967097815
 31
0.0
  0
LINE
  5
   194
  8
0
  6
CONTINUOUS
 62
     7
 10
-101.999998092651
 20
79.0
 30
0.0
 11
-94.4999980926514
 21
79.0
 31
0.0
  0
LINE
  5
   195
  8
0
  6
CONTINUOUS
 62
     7
 10
-56.9999980627014
 20
88.9999963247104
 30
0.0
 11
-49.4999980926514
 21
88.9999963247104
 31
0.0
  0
LINE
  5
   196
  8
0
  6
CONTINUOUS
 62
     7
 10
-56.999995384318
 20
78.9999956401395
 30
0.0
 11
-49.4999980926514
 21
78.9999956401395
 31
0.0
  0
LINE
  5
   197
  8
0
  6
CONTINUOUS
 62
     7
 10
-40.9999980926514
 20
89.0
 30
0.0
 11
-38.4999980926514
 21
89.0
 31
0.0
  0
LINE
  5
   198
  8
0
  6
CONTINUOUS
 62
     7
 10
-40.9999980926514
 20
79.0
 30
0.0
 11
-38.4999980926514
 21
79.0
 31
0.0
  0
LINE
  5
   199
  8
0
  6
CONTINUOUS
 62
     7
 10
-85.9999980926514
 20
89.0
 30
0.0
 11
-83.4999980926514
 21
89.0
 31
0.0
  0
LINE
  5
   19A
  8
0
  6
CONTINUOUS
 62
     7
 10
-85.9999980926514
 20
79.0
 30
0.0
 11
-83.4999980926514
 21
79.0
 31
0.0
  0
POINT
  5
   19B
  8
0
  6
CONTINUOUS
 62
     7
 10
18.0000019073486
 20
84.0
 30
0.0
  0
ENDBLK
  5
   19C
  8
0
  6
CONTINUOUS
 62
     7
  0
BLOCK
  5
   19D
  8
0
  6
CONTINUOUS
 62
     7
  2
*UDIM160
 70
    65
 10
0.0
 20
0.0
 30
0.0
  3
*UDIM160
  0
TEXT
  5
   19E
  8
0
  6
CONTINUOUS
 62
     7
 10
275.502921443591
 20
90.7643936436892
 30
0.0
 40
2.99999994933605
  1
105
 50
90.0
 41
0.933333333333333
 72
     1
 11
274.002921468918
 21
94.6643935778242
 31
0.0
 73
     2
  0
LINE
  5
   19F
  8
0
  6
CONTINUOUS
 62
     7
 10
258.343104883021
 20
73.939393364837
 30
0.0
 11
278.502921443586
 21
73.939393364837
 31
0.0
  0
LINE
  5
   1A0
  8
0
  6
CONTINUOUS
 62
     7
 10
258.343104883021
 20
115.939393989742
 30
0.0
 11
278.502921443586
 21
115.939393989742
 31
0.0
  0
LINE
  5
   1A1
  8
0
  6
CONTINUOUS
 62
     7
 10
276.502921443586
 20
73.939393364837
 30
0.0
 11
276.502921443586
 21
115.939393989742
 31
0.0
  0
LINE
  5
   1A2
  8
0
  6
CONTINUOUS
 62
     7
 10
275.981977013634
 20
76.893816642044
 30
0.0
 11
276.502921443586
 21
73.939393364837
 31
0.0
  0
LINE
  5
   1A3
  8
0
  6
CONTINUOUS
 62
     7
 10
276.502921443586
 20
73.939393364837
 30
0.0
 11
277.023865873538
 21
76.893816642044
 31
0.0
  0
LINE
  5
   1A4
  8
0
  6
CONTINUOUS
 62
     7
 10
277.023865873538
 20
112.984970712535
 30
0.0
 11
276.502921443586
 21
115.939393989742
 31
0.0
  0
LINE
  5
   1A5
  8
0
  6
CONTINUOUS
 62
     7
 10
276.502921443586
 20
115.939393989742
 30
0.0
 11
275.981977013634
 21
112.984970712535
 31
0.0
  0
ENDBLK
  5
   1A6
  8
0
  6
CONTINUOUS
 62
     7
  0
BLOCK
  5
   1A7
  8
0
  6
CONTINUOUS
 62
     7
  2
*UDIM161
 70
    65
 10
0.0
 20
0.0
 30
0.0
  3
*UDIM161
  0
TEXT
  5
   1A8
  8
0
  6
CONTINUOUS
 62
     7
 10
237.376651393373
 20
27.2712652121763
 30
0.0
 40
2.99999994933605
  1
135
 41
0.933333333333333
 72
     1
 11
241.27665132751
 21
28.7712651868444
 31
0.0
 73
     2
  0
LINE
  5
   1A9
  8
0
  6
CONTINUOUS
 62
     7
 10
214.542636859417
 20
55.0206058864516
 30
0.0
 11
214.542636859417
 21
24.2712652121763
 31
0.0
  0
LINE
  5
   1AA
  8
0
  6
CONTINUOUS
 62
     7
 10
268.56066465939
 20
89.8393936157226
 30
0.0
 11
268.56066465939
 21
24.2712652121763
 31
0.0
  0
LINE
  5
   1AB
  8
0
  6
CONTINUOUS
 62
     7
 10
214.542636859417
 20
26.2712652121763
 30
0.0
 11
268.56066465939
 21
26.2712652121763
 31
0.0
  0
LINE
  5
   1AC
  8
0
  6
CONTINUOUS
 62
     7
 10
217.497060136624
 20
26.792209642128
 30
0.0
 11
214.542636859417
 21
26.2712652121763
 31
0.0
  0
LINE
  5
   1AD
  8
0
  6
CONTINUOUS
 62
     7
 10
214.542636859417
 20
26.2712652121763
 30
0.0
 11
217.497060136624
 21
25.7503207822247
 31
0.0
  0
LINE
  5
   1AE
  8
0
  6
CONTINUOUS
 62
     7
 10
265.606241382183
 20
25.7503207822247
 30
0.0
 11
268.56066465939
 21
26.2712652121763
 31
0.0
  0
LINE
  5
   1AF
  8
0
  6
CONTINUOUS
 62
     7
 10
268.56066465939
 20
26.2712652121763
 30
0.0
 11
265.606241382183
 21
26.792209642128
 31
0.0
  0
ENDBLK
  5
   1B0
  8
0
  6
CONTINUOUS
 62
     7
  0
BLOCK
  5
   1B1
  8
0
  6
CONTINUOUS
 62
     7
  2
*UDIM162
 70
    65
 10
0.0
 20
0.0
 30
0.0
  3
*UDIM162
  0
TEXT
  5
   1B2
  8
0
  6
CONTINUOUS
 62
     7
 10
231.767871409821
 20
36.4157965984405
 30
0.0
 40
2.99999994933605
  1
107
 41
0.933333333333333
 72
     1
 11
235.667871343958
 21
37.9157965731085
 31
0.0
 73
     2
  0
LINE
  5
   1B3
  8
0
  6
CONTINUOUS
 62
     7
 10
214.542636859417
 20
55.0206058864516
 30
0.0
 11
214.542636859417
 21
33.4157965984405
 31
0.0
  0
LINE
  5
   1B4
  8
0
  6
CONTINUOUS
 62
     7
 10
257.343104883021
 20
42.7745434866447
 30
0.0
 11
257.343104883021
 21
33.4157965984405
 31
0.0
  0
LINE
  5
   1B5
  8
0
  6
CONTINUOUS
 62
     7
 10
214.542636859417
 20
35.4157965984405
 30
0.0
 11
257.343104883021
 21
35.4157965984405
 31
0.0
  0
LINE
  5
   1B6
  8
0
  6
CONTINUOUS
 62
     7
 10
217.497060136624
 20
35.9367410283921
 30
0.0
 11
214.542636859417
 21
35.4157965984405
 31
0.0
  0
LINE
  5
   1B7
  8
0
  6
CONTINUOUS
 62
     7
 10
214.542636859417
 20
35.4157965984405
 30
0.0
 11
217.497060136624
 21
34.8948521684888
 31
0.0
  0
LINE
  5
   1B8
  8
0
  6
CONTINUOUS
 62
     7
 10
254.388681605814
 20
34.8948521684888
 30
0.0
 11
257.343104883021
 21
35.4157965984405
 31
0.0
  0
LINE
  5
   1B9
  8
0
  6
CONTINUOUS
 62
     7
 10
257.343104883021
 20
35.4157965984405
 30
0.0
 11
254.388681605814
 21
35.9367410283921
 31
0.0
  0
ENDBLK
  5
   1BA
  8
0
  6
CONTINUOUS
 62
     7
  0
BLOCK
  5
   1BB
  8
0
  6
CONTINUOUS
 62
     7
  2
*UDIM163
 70
    65
 10
0.0
 20
0.0
 30
0.0
  3
*UDIM163
  0
TEXT
  5
   1BC
  8
0
  6
CONTINUOUS
 62
     7
 10
261.143103830204
 20
36.4157965984405
 30
0.0
 40
2.99999994933605
  1
2
 41
0.933333333333333
 72
     1
 11
262.243103811627
 21
37.9157965731085
 31
0.0
 73
     2
  0
LINE
  5
   1BD
  8
0
  6
CONTINUOUS
 62
     7
 10
258.143104894942
 20
43.3502444298027
 30
0.0
 11
258.143104894942
 21
33.4157965984405
 31
0.0
  0
LINE
  5
   1BE
  8
0
  6
CONTINUOUS
 62
     7
 10
257.343104883021
 20
35.4157965984405
 30
0.0
 11
263.34310379305
 21
35.4157965984405
 31
0.0
  0
LINE
  5
   1BF
  8
0
  6
CONTINUOUS
 62
     7
 10
254.388681605814
 20
34.8948521684888
 30
0.0
 11
257.343104883021
 21
35.4157965984405
 31
0.0
  0
LINE
  5
   1C0
  8
0
  6
CONTINUOUS
 62
     7
 10
257.343104883021
 20
35.4157965984405
 30
0.0
 11
254.388681605814
 21
35.9367410283921
 31
0.0
  0
LINE
  5
   1C1
  8
0
  6
CONTINUOUS
 62
     7
 10
261.097528172149
 20
35.9367410283921
 30
0.0
 11
258.143104894942
 21
35.4157965984405
 31
0.0
  0
LINE
  5
   1C2
  8
0
  6
CONTINUOUS
 62
     7
 10
258.143104894942
 20
35.4157965984405
 30
0.0
 11
261.097528172149
 21
34.8948521684888
 31
0.0
  0
ENDBLK
  5
   1C3
  8
0
  6
CONTINUOUS
 62
     7
  0
BLOCK
  5
   1C4
  8
0
  6
CONTINUOUS
 62
     7
  2
*UDIM164
 70
    65
 10
0.0
 20
0.0
 30
0.0
  3
*UDIM164
  0
TEXT
  5
   1C5
  8
0
  6
CONTINUOUS
 62
     7
 10
207.592636790822
 20
44.468436488942
 30
0.0
 40
2.99999994933605
  1
3
 41
0.933333333333333
 72
     1
 11
208.692636772245
 21
45.96843646361
 31
0.0
 73
     2
  0
TEXT
  5
   1C6
  8
0
  6
CONTINUOUS
 62
     7
 10
204.842636816055
 20
44.468436488942
 30
0.0
 40
2.99999994933605
  1
_
 41
0.933333333333333
 72
     1
 11
205.942636797478
 21
45.96843646361
 31
0.0
 73
     2
  0
LINE
  5
   1C7
  8
0
  6
CONTINUOUS
 62
     7
 10
213.342636841536
 20
54.6733923469825
 30
0.0
 11
213.342636841536
 21
41.468436488942
 31
0.0
  0
LINE
  5
   1C8
  8
0
  6
CONTINUOUS
 62
     7
 10
214.542636859417
 20
55.0206058864516
 30
0.0
 11
214.542636859417
 21
41.468436488942
 31
0.0
  0
LINE
  5
   1C9
  8
0
  6
CONTINUOUS
 62
     7
 10
204.842636816055
 20
43.468436488942
 30
0.0
 11
214.542636859417
 21
43.468436488942
 31
0.0
  0
LINE
  5
   1CA
  8
0
  6
CONTINUOUS
 62
     7
 10
210.388213564329
 20
42.9474920589903
 30
0.0
 11
213.342636841536
 21
43.468436488942
 31
0.0
  0
LINE
  5
   1CB
  8
0
  6
CONTINUOUS
 62
     7
 10
213.342636841536
 20
43.468436488942
 30
0.0
 11
210.388213564329
 21
43.9893809188936
 31
0.0
  0
LINE
  5
   1CC
  8
0
  6
CONTINUOUS
 62
     7
 10
217.497060136624
 20
43.9893809188936
 30
0.0
 11
214.542636859417
 21
43.468436488942
 31
0.0
  0
LINE
  5
   1CD
  8
0
  6
CONTINUOUS
 62
     7
 10
214.542636859417
 20
43.468436488942
 30
0.0
 11
217.497060136624
 21
42.9474920589903
 31
0.0
  0
ENDBLK
  5
   1CE
  8
0
  6
CONTINUOUS
 62
     7
  0
BLOCK
  5
   1CF
  8
0
  6
CONTINUOUS
 62
     7
  2
*UDIM165
 70
    65
 10
0.0
 20
0.0
 30
0.0
  3
*UDIM165
  0
TEXT
  5
   1D0
  8
0
  6
CONTINUOUS
 62
     7
 10
228.267898876348
 20
44.468436488942
 30
0.0
 40
2.99999994933605
  1
103,5
 41
0.933333333333333
 72
     1
 11
234.967898763198
 21
45.96843646361
 31
0.0
 73
     2
  0
LINE
  5
   1D1
  8
0
  6
CONTINUOUS
 62
     7
 10
255.94316162885
 20
72.939393365355
 30
0.0
 11
255.94316162885
 21
41.468436488942
 31
0.0
  0
LINE
  5
   1D2
  8
0
  6
CONTINUOUS
 62
     7
 10
214.542636859417
 20
43.468436488942
 30
0.0
 11
255.94316162885
 21
43.468436488942
 31
0.0
  0
LINE
  5
   1D3
  8
0
  6
CONTINUOUS
 62
     7
 10
217.497060136624
 20
43.9893809188936
 30
0.0
 11
214.542636859417
 21
43.468436488942
 31
0.0
  0
LINE
  5
   1D4
  8
0
  6
CONTINUOUS
 62
     7
 10
214.542636859417
 20
43.468436488942
 30
0.0
 11
217.497060136624
 21
42.9474920589903
 31
0.0
  0
LINE
  5
   1D5
  8
0
  6
CONTINUOUS
 62
     7
 10
252.988738351643
 20
42.9474920589903
 30
0.0
 11
255.94316162885
 21
43.468436488942
 31
0.0
  0
LINE
  5
   1D6
  8
0
  6
CONTINUOUS
 62
     7
 10
255.94316162885
 20
43.468436488942
 30
0.0
 11
252.988738351643
 21
43.9893809188936
 31
0.0
  0
ENDBLK
  5
   1D7
  8
0
  6
CONTINUOUS
 62
     7
  0
BLOCK
  5
   1D8
  8
0
  6
CONTINUOUS
 62
     7
  2
*UDIM166
 70
    65
 10
0.0
 20
0.0
 30
0.0
  3
*UDIM166
  0
TEXT
  5
   1D9
  8
0
  6
CONTINUOUS
 62
     7
 10
206.017636811857
 20
53.2717477773481
 30
0.0
 40
2.99999994933605
  1
20
 41
0.933333333333333
 72
     1
 11
208.517636769637
 21
54.7717477520161
 31
0.0
 73
     2
  0
LINE
  5
   1DA
  8
0
  6
CONTINUOUS
 62
     7
 10
214.542636859417
 20
55.0206058864516
 30
0.0
 11
214.542636859417
 21
50.2717477773481
 31
0.0
  0
LINE
  5
   1DB
  8
0
  6
CONTINUOUS
 62
     7
 10
222.542636978626
 20
62.6393981776325
 30
0.0
 11
222.542636978626
 21
50.2717477773481
 31
0.0
  0
LINE
  5
   1DC
  8
0
  6
CONTINUOUS
 62
     7
 10
206.017636811857
 20
52.2717477773481
 30
0.0
 11
222.542636978626
 21
52.2717477773481
 31
0.0
  0
LINE
  5
   1DD
  8
0
  6
CONTINUOUS
 62
     7
 10
217.497060136624
 20
52.7926922072997
 30
0.0
 11
214.542636859417
 21
52.2717477773481
 31
0.0
  0
LINE
  5
   1DE
  8
0
  6
CONTINUOUS
 62
     7
 10
214.542636859417
 20
52.2717477773481
 30
0.0
 11
217.497060136624
 21
51.7508033473964
 31
0.0
  0
LINE
  5
   1DF
  8
0
  6
CONTINUOUS
 62
     7
 10
219.588213701419
 20
51.7508033473964
 30
0.0
 11
222.542636978626
 21
52.2717477773481
 31
0.0
  0
LINE
  5
   1E0
  8
0
  6
CONTINUOUS
 62
     7
 10
222.542636978626
 20
52.2717477773481
 30
0.0
 11
219.588213701419
 21
52.7926922072998
 31
0.0
  0
ENDBLK
  5
   1E1
  8
0
  6
CONTINUOUS
 62
     7
  0
BLOCK
  5
   1E2
  8
0
  6
CONTINUOUS
 62
     7
  2
*UDIM167
 70
    65
 10
0.0
 20
0.0
 30
0.0
  3
*UDIM167
  0
TEXT
  5
   1E3
  8
0
  6
CONTINUOUS
 62
     7
 10
227.542636897365
 20
53.2717477773481
 30
0.0
 40
2.99999994933605
  1
5
 41
0.933333333333333
 72
     1
 11
228.642636878789
 21
54.7717477520161
 31
0.0
 73
     2
  0
LINE
  5
   1E4
  8
0
  6
CONTINUOUS
 62
     7
 10
224.542636626959
 20
62.6393981776324
 30
0.0
 11
224.542636626959
 21
50.2717477773481
 31
0.0
  0
LINE
  5
   1E5
  8
0
  6
CONTINUOUS
 62
     7
 10
222.542636978626
 20
52.2717477773481
 30
0.0
 11
229.742636860212
 21
52.2717477773481
 31
0.0
  0
LINE
  5
   1E6
  8
0
  6
CONTINUOUS
 62
     7
 10
219.588213701419
 20
51.7508033473964
 30
0.0
 11
222.542636978626
 21
52.2717477773481
 31
0.0
  0
LINE
  5
   1E7
  8
0
  6
CONTINUOUS
 62
     7
 10
222.542636978626
 20
52.2717477773481
 30
0.0
 11
219.588213701419
 21
52.7926922072997
 31
0.0
  0
LINE
  5
   1E8
  8
0
  6
CONTINUOUS
 62
     7
 10
227.497059904166
 20
52.7926922072997
 30
0.0
 11
224.542636626959
 21
52.2717477773481
 31
0.0
  0
LINE
  5
   1E9
  8
0
  6
CONTINUOUS
 62
     7
 10
224.542636626959
 20
52.2717477773481
 30
0.0
 11
227.497059904166
 21
51.7508033473964
 31
0.0
  0
ENDBLK
  5
   1EA
  8
0
  6
CONTINUOUS
 62
     7
  0
BLOCK
  5
   1EB
  8
0
  6
CONTINUOUS
 62
     7
  2
*UDIM168
 70
    65
 10
0.0
 20
0.0
 30
0.0
  3
*UDIM168
  0
TEXT
  5
   1EC
  8
0
  6
CONTINUOUS
 62
     7
 10
227.867637175595
 20
183.001174759295
 30
0.0
 40
2.99999994933605
  1
101,5
 41
0.933333333333333
 72
     1
 11
234.567637062445
 21
184.501174733963
 31
0.0
 73
     2
  0
LINE
  5
   1ED
  8
0
  6
CONTINUOUS
 62
     7
 10
214.542636859417
 20
168.85071682123
 30
0.0
 11
214.542636859417
 21
184.001174759295
 31
0.0
  0
LINE
  5
   1EE
  8
0
  6
CONTINUOUS
 62
     7
 10
255.142637464404
 20
165.339399678179
 30
0.0
 11
255.142637464404
 21
184.001174759295
 31
0.0
  0
LINE
  5
   1EF
  8
0
  6
CONTINUOUS
 62
     7
 10
214.542636859417
 20
182.001174759295
 30
0.0
 11
255.142637464404
 21
182.001174759295
 31
0.0
  0
LINE
  5
   1F0
  8
0
  6
CONTINUOUS
 62
     7
 10
217.497060136624
 20
182.522119189247
 30
0.0
 11
214.542636859417
 21
182.001174759295
 31
0.0
  0
LINE
  5
   1F1
  8
0
  6
CONTINUOUS
 62
     7
 10
214.542636859417
 20
182.001174759295
 30
0.0
 11
217.497060136624
 21
181.480230329344
 31
0.0
  0
LINE
  5
   1F2
  8
0
  6
CONTINUOUS
 62
     7
 10
252.188214187197
 20
181.480230329344
 30
0.0
 11
255.142637464404
 21
182.001174759295
 31
0.0
  0
LINE
  5
   1F3
  8
0
  6
CONTINUOUS
 62
     7
 10
255.142637464404
 20
182.001174759295
 30
0.0
 11
252.188214187197
 21
182.522119189247
 31
0.0
  0
ENDBLK
  5
   1F4
  8
0
  6
CONTINUOUS
 62
     7
  0
BLOCK
  5
   1F5
  8
0
  6
CONTINUOUS
 62
     7
  2
*UDIM169
 70
    65
 10
0.0
 20
0.0
 30
0.0
  3
*UDIM169
  0
TEXT
  5
   1F6
  8
0
  6
CONTINUOUS
 62
     7
 10
216.867898816743
 20
174.675564283672
 30
0.0
 40
2.99999994933605
  1
25
 41
0.933333333333333
 72
     1
 11
219.367898774523
 21
176.17556425834
 31
0.0
 73
     2
  0
LINE
  5
   1F7
  8
0
  6
CONTINUOUS
 62
     7
 10
214.542636859417
 20
168.85071682123
 30
0.0
 11
214.542636859417
 21
175.675564283672
 31
0.0
  0
LINE
  5
   1F8
  8
0
  6
CONTINUOUS
 62
     7
 10
224.542637008429
 20
163.039394676685
 30
0.0
 11
224.542637008429
 21
175.675564283672
 31
0.0
  0
LINE
  5
   1F9
  8
0
  6
CONTINUOUS
 62
     7
 10
214.542636859417
 20
173.675564283672
 30
0.0
 11
224.542637008429
 21
173.675564283672
 31
0.0
  0
LINE
  5
   1FA
  8
0
  6
CONTINUOUS
 62
     7
 10
211.58821358221
 20
173.15461985372
 30
0.0
 11
214.542636859417
 21
173.675564283672
 31
0.0
  0
LINE
  5
   1FB
  8
0
  6
CONTINUOUS
 62
     7
 10
214.542636859417
 20
173.675564283672
 30
0.0
 11
211.58821358221
 21
174.196508713623
 31
0.0
  0
LINE
  5
   1FC
  8
0
  6
CONTINUOUS
 62
     7
 10
227.497060285636
 20
174.196508713623
 30
0.0
 11
224.542637008429
 21
173.675564283672
 31
0.0
  0
LINE
  5
   1FD
  8
0
  6
CONTINUOUS
 62
     7
 10
224.542637008429
 20
173.675564283672
 30
0.0
 11
227.497060285636
 21
173.15461985372
 31
0.0
  0
ENDBLK
  5
   1FE
  8
0
  6
CONTINUOUS
 62
     7
  0
BLOCK
  5
   1FF
  8
0
  6
CONTINUOUS
 62
     7
  2
*UDIM170
 70
    65
 10
0.0
 20
0.0
 30
0.0
  3
*UDIM170
  0
TEXT
  5
   200
  8
0
  6
CONTINUOUS
 62
     7
 10
156.726454829934
 20
108.664393957632
 30
0.0
 40
2.99999994933605
  1
228
 50
90.0
 41
0.933333333333333
 72
     1
 11
155.226454855261
 21
112.564393891767
 31
0.0
 73
     2
  0
LINE
  5
   201
  8
0
  6
CONTINUOUS
 62
     7
 10
171.958018759637
 20
67.2393932640553
 30
0.0
 11
155.726454829929
 21
67.2393932640553
 31
0.0
  0
LINE
  5
   202
  8
0
  6
CONTINUOUS
 62
     7
 10
171.958018759639
 20
158.439394623041
 30
0.0
 11
155.726454829929
 21
158.439394623041
 31
0.0
  0
LINE
  5
   203
  8
0
  6
CONTINUOUS
 62
     7
 10
157.726454829929
 20
67.2393932640553
 30
0.0
 11
157.726454829929
 21
158.439394623041
 31
0.0
  0
LINE
  5
   204
  8
0
  6
CONTINUOUS
 62
     7
 10
157.205510399977
 20
70.1938165412622
 30
0.0
 11
157.726454829929
 21
67.2393932640553
 31
0.0
  0
LINE
  5
   205
  8
0
  6
CONTINUOUS
 62
     7
 10
157.726454829929
 20
67.2393932640553
 30
0.0
 11
158.24739925988
 21
70.1938165412622
 31
0.0
  0
LINE
  5
   206
  8
0
  6
CONTINUOUS
 62
     7
 10
158.24739925988
 20
155.484971345834
 30
0.0
 11
157.726454829929
 21
158.439394623041
 31
0.0
  0
LINE
  5
   207
  8
0
  6
CONTINUOUS
 62
     7
 10
157.726454829929
 20
158.439394623041
 30
0.0
 11
157.205510399977
 21
155.484971345834
 31
0.0
  0
ENDBLK
  5
   208
  8
0
  6
CONTINUOUS
 62
     7
  0
BLOCK
  5
   209
  8
0
  6
CONTINUOUS
 62
     7
  2
*UDIM171
 70
    65
 10
0.0
 20
0.0
 30
0.0
  3
*UDIM171
  0
TEXT
  5
   20A
  8
0
  6
CONTINUOUS
 62
     7
 10
167.645290441859
 20
74.1143934841224
 30
0.0
 40
2.99999994933605
  1
69,25
 50
90.0
 41
0.933333333333333
 72
     1
 11
166.145290467183
 21
80.8143933709711
 31
0.0
 73
     2
  0
LINE
  5
   20B
  8
0
  6
CONTINUOUS
 62
     7
 10
171.958018759637
 20
67.2393932640553
 30
0.0
 11
166.645290441851
 21
67.2393932640553
 31
0.0
  0
LINE
  5
   20C
  8
0
  6
CONTINUOUS
 62
     7
 10
174.537804919501
 20
94.9393936768174
 30
0.0
 11
166.645290441851
 21
94.9393936768174
 31
0.0
  0
LINE
  5
   20D
  8
0
  6
CONTINUOUS
 62
     7
 10
168.645290441851
 20
67.2393932640553
 30
0.0
 11
168.645290441851
 21
94.9393936768174
 31
0.0
  0
LINE
  5
   20E
  8
0
  6
CONTINUOUS
 62
     7
 10
168.124346011899
 20
70.1938165412622
 30
0.0
 11
168.645290441851
 21
67.2393932640553
 31
0.0
  0
LINE
  5
   20F
  8
0
  6
CONTINUOUS
 62
     7
 10
168.645290441851
 20
67.2393932640553
 30
0.0
 11
169.166234871802
 21
70.1938165412622
 31
0.0
  0
LINE
  5
   210
  8
0
  6
CONTINUOUS
 62
     7
 10
169.166234871802
 20
91.9849703996105
 30
0.0
 11
168.645290441851
 21
94.9393936768174
 31
0.0
  0
LINE
  5
   211
  8
0
  6
CONTINUOUS
 62
     7
 10
168.645290441851
 20
94.9393936768174
 30
0.0
 11
168.124346011899
 21
91.9849703996105
 31
0.0
  0
ENDBLK
  5
   212
  8
0
  6
CONTINUOUS
 62
     7
  0
BLOCK
  5
   213
  8
0
  6
CONTINUOUS
 62
     7
  2
*UDIM172
 70
    65
 10
0.0
 20
0.0
 30
0.0
  3
*UDIM172
  0
TEXT
  5
   214
  8
0
  6
CONTINUOUS
 62
     7
 10
89.880984509799
 20
181.179017448063
 30
0.0
 40
2.99999994933605
  1
117
 50
359.999999948034
 41
0.933333333333333
 72
     1
 11
93.7809844452888
 21
182.679017419214
 31
0.0
 73
     2
  0
LINE
  5
   215
  8
0
  6
CONTINUOUS
 62
     7
 10
117.455984845757
 20
127.63939646099
 30
0.0
 11
117.455984845757
 21
182.179017444545
 31
0.0
  0
LINE
  5
   216
  8
0
  6
CONTINUOUS
 62
     7
 10
70.6559841483831
 20
127.63939646099
 30
0.0
 11
70.6559841483831
 21
182.179017444545
 31
0.0
  0
LINE
  5
   217
  8
0
  6
CONTINUOUS
 62
     7
 10
117.455984845757
 20
180.179017444545
 30
0.0
 11
70.6559841483831
 21
180.179017444545
 31
0.0
  0
LINE
  5
   218
  8
0
  6
CONTINUOUS
 62
     7
 10
114.501561568551
 20
179.658073014594
 30
0.0
 11
117.455984845757
 21
180.179017444545
 31
0.0
  0
LINE
  5
   219
  8
0
  6
CONTINUOUS
 62
     7
 10
117.455984845757
 20
180.179017444545
 30
0.0
 11
114.501561568551
 21
180.699961874497
 31
0.0
  0
LINE
  5
   21A
  8
0
  6
CONTINUOUS
 62
     7
 10
73.6104074255901
 20
180.699961874497
 30
0.0
 11
70.6559841483831
 21
180.179017444545
 31
0.0
  0
LINE
  5
   21B
  8
0
  6
CONTINUOUS
 62
     7
 10
70.6559841483831
 20
180.179017444545
 30
0.0
 11
73.6104074255901
 21
179.658073014594
 31
0.0
  0
ENDBLK
  5
   21C
  8
0
  6
CONTINUOUS
 62
     7
  0
BLOCK
  5
   21D
  8
0
  6
CONTINUOUS
 62
     7
  2
*UDIM173
 70
    65
 10
0.0
 20
0.0
 30
0.0
  3
*UDIM173
  0
TEXT
  5
   21E
  8
0
  6
CONTINUOUS
 62
     7
 10
89.8809829824372
 20
172.510853256397
 30
0.0
 40
2.99999994933605
  1
105
 50
359.999999948034
 41
0.933333333333333
 72
     1
 11
93.780982917927
 21
174.010853227548
 31
0.0
 73
     2
  0
LINE
  5
   21F
  8
0
  6
CONTINUOUS
 62
     7
 10
115.055999180698
 20
165.339348950119
 30
0.0
 11
115.055999180698
 21
173.51085325288
 31
0.0
  0
LINE
  5
   220
  8
0
  6
CONTINUOUS
 62
     7
 10
73.0559679508122
 20
163.719392726164
 30
0.0
 11
73.0559679508122
 21
173.51085325288
 31
0.0
  0
LINE
  5
   221
  8
0
  6
CONTINUOUS
 62
     7
 10
115.055999180698
 20
171.51085325288
 30
0.0
 11
73.0559679508122
 21
171.51085325288
 31
0.0
  0
LINE
  5
   222
  8
0
  6
CONTINUOUS
 62
     7
 10
112.101575903491
 20
170.989908822928
 30
0.0
 11
115.055999180698
 21
171.51085325288
 31
0.0
  0
LINE
  5
   223
  8
0
  6
CONTINUOUS
 62
     7
 10
115.055999180698
 20
171.51085325288
 30
0.0
 11
112.101575903491
 21
172.031797682831
 31
0.0
  0
LINE
  5
   224
  8
0
  6
CONTINUOUS
 62
     7
 10
76.0103912280192
 20
172.031797682831
 30
0.0
 11
73.0559679508122
 21
171.51085325288
 31
0.0
  0
LINE
  5
   225
  8
0
  6
CONTINUOUS
 62
     7
 10
73.0559679508122
 20
171.51085325288
 30
0.0
 11
76.0103912280192
 21
170.989908822928
 31
0.0
  0
ENDBLK
  5
   226
  8
0
  6
CONTINUOUS
 62
     7
  0
BLOCK
  5
   227
  8
0
  6
CONTINUOUS
 62
     7
  2
*UDIM174
 70
    65
 10
0.0
 20
0.0
 30
0.0
  3
*UDIM174
  0
TEXT
  5
   228
  8
0
  6
CONTINUOUS
 62
     7
 10
98.2809823064146
 20
51.2193963696261
 30
0.0
 40
2.99999994933605
  1
35
 50
359.999999948034
 41
0.933333333333333
 72
     1
 11
100.780982265548
 21
52.7193963420393
 31
0.0
 73
     2
  0
LINE
  5
   229
  8
0
  6
CONTINUOUS
 62
     7
 10
108.05598080516
 20
60.6793969837312
 30
0.0
 11
108.05598080516
 21
48.2193963673712
 31
0.0
  0
LINE
  5
   22A
  8
0
  6
CONTINUOUS
 62
     7
 10
94.0559844970703
 20
55.7258575426793
 30
0.0
 11
94.0559844970703
 21
48.2193963673712
 31
0.0
  0
LINE
  5
   22B
  8
0
  6
CONTINUOUS
 62
     7
 10
108.05598080516
 20
50.2193963673712
 30
0.0
 11
94.0559844970703
 21
50.2193963673712
 31
0.0
  0
LINE
  5
   22C
  8
0
  6
CONTINUOUS
 62
     7
 10
105.101557527953
 20
49.6984519374196
 30
0.0
 11
108.05598080516
 21
50.2193963673712
 31
0.0
  0
LINE
  5
   22D
  8
0
  6
CONTINUOUS
 62
     7
 10
108.05598080516
 20
50.2193963673712
 30
0.0
 11
105.101557527953
 21
50.7403407973229
 31
0.0
  0
LINE
  5
   22E
  8
0
  6
CONTINUOUS
 62
     7
 10
97.0104077742773
 20
50.7403407973229
 30
0.0
 11
94.0559844970703
 21
50.2193963673712
 31
0.0
  0
LINE
  5
   22F
  8
0
  6
CONTINUOUS
 62
     7
 10
94.0559844970703
 20
50.2193963673712
 30
0.0
 11
97.0104077742773
 21
49.6984519374196
 31
0.0
  0
ENDBLK
  5
   230
  8
0
  6
CONTINUOUS
 62
     7
  0
BLOCK
  5
   231
  8
0
  6
CONTINUOUS
 62
     7
  2
*UDIM175
 70
    65
 10
0.0
 20
0.0
 30
0.0
  3
*UDIM175
  0
TEXT
  5
   232
  8
0
  6
CONTINUOUS
 62
     7
 10
84.2809813356717
 20
51.2193963696261
 30
0.0
 40
2.99999994933605
  1
35
 50
359.999999948034
 41
0.933333333333333
 72
     1
 11
86.7809812948046
 21
52.7193963420393
 31
0.0
 73
     2
  0
LINE
  5
   233
  8
0
  6
CONTINUOUS
 62
     7
 10
80.0559776238974
 20
60.6793925631265
 30
0.0
 11
80.0559776238974
 21
48.2193963673712
 31
0.0
  0
LINE
  5
   234
  8
0
  6
CONTINUOUS
 62
     7
 10
94.0559844970703
 20
50.2193963673712
 30
0.0
 11
80.0559776238974
 21
50.2193963673712
 31
0.0
  0
LINE
  5
   235
  8
0
  6
CONTINUOUS
 62
     7
 10
91.1015612198634
 20
49.6984519374196
 30
0.0
 11
94.0559844970703
 21
50.2193963673712
 31
0.0
  0
LINE
  5
   236
  8
0
  6
CONTINUOUS
 62
     7
 10
94.0559844970703
 20
50.2193963673712
 30
0.0
 11
91.1015612198634
 21
50.7403407973229
 31
0.0
  0
LINE
  5
   237
  8
0
  6
CONTINUOUS
 62
     7
 10
83.0104009011044
 20
50.7403407973229
 30
0.0
 11
80.0559776238974
 21
50.2193963673712
 31
0.0
  0
LINE
  5
   238
  8
0
  6
CONTINUOUS
 62
     7
 10
80.0559776238974
 20
50.2193963673712
 30
0.0
 11
83.0104009011044
 21
49.6984519374196
 31
0.0
  0
ENDBLK
  5
   239
  8
0
  6
CONTINUOUS
 62
     7
  0
BLOCK
  5
   23A
  8
0
  6
CONTINUOUS
 62
     7
  2
*UDIM176
 70
    65
 10
0.0
 20
0.0
 30
0.0
  3
*UDIM176
  0
TEXT
  5
   23B
  8
0
  6
CONTINUOUS
 62
     7
 10
141.230081891076
 20
108.664392429539
 30
0.0
 40
2.99999994933605
  1
260
 50
89.9999999480344
 41
0.933333333333333
 72
     1
 11
139.73008191994
 21
112.564392365035
 31
0.0
 73
     2
  0
LINE
  5
   23C
  8
0
  6
CONTINUOUS
 62
     7
 10
115.555977622176
 20
60.8393924287371
 30
0.0
 11
144.230081894608
 21
60.8393924287371
 31
0.0
  0
LINE
  5
   23D
  8
0
  6
CONTINUOUS
 62
     7
 10
115.555977622176
 20
164.839393978458
 30
0.0
 11
144.230081894608
 21
164.839393978458
 31
0.0
  0
LINE
  5
   23E
  8
0
  6
CONTINUOUS
 62
     7
 10
142.230081894608
 20
60.8393924287371
 30
0.0
 11
142.230081894608
 21
164.839393978458
 31
0.0
  0
LINE
  5
   23F
  8
0
  6
CONTINUOUS
 62
     7
 10
141.709137464656
 20
63.793815705944
 30
0.0
 11
142.230081894608
 21
60.8393924287371
 31
0.0
  0
LINE
  5
   240
  8
0
  6
CONTINUOUS
 62
     7
 10
142.230081894608
 20
60.8393924287371
 30
0.0
 11
142.751026324559
 21
63.793815705944
 31
0.0
  0
LINE
  5
   241
  8
0
  6
CONTINUOUS
 62
     7
 10
142.751026324559
 20
161.884970701251
 30
0.0
 11
142.230081894608
 21
164.839393978458
 31
0.0
  0
LINE
  5
   242
  8
0
  6
CONTINUOUS
 62
     7
 10
142.230081894608
 20
164.839393978458
 30
0.0
 11
141.709137464656
 21
161.884970701251
 31
0.0
  0
ENDBLK
  5
   243
  8
0
  6
CONTINUOUS
 62
     7
  0
BLOCK
  5
   244
  8
0
  6
CONTINUOUS
 62
     7
  2
*UDIM177
 70
    65
 10
0.0
 20
0.0
 30
0.0
  3
*UDIM177
  0
TEXT
  5
   245
  8
0
  6
CONTINUOUS
 62
     7
 10
133.919263298155
 20
70.9143934342244
 30
0.0
 40
2.99999994933605
  1
85,25
 50
89.9999999480344
 41
0.933333333333333
 72
     1
 11
132.419263329555
 21
77.6143933224335
 31
0.0
 73
     2
  0
LINE
  5
   246
  8
0
  6
CONTINUOUS
 62
     7
 10
115.555977622176
 20
60.8393924287371
 30
0.0
 11
136.919263304223
 21
60.8393924287371
 31
0.0
  0
LINE
  5
   247
  8
0
  6
CONTINUOUS
 62
     7
 10
121.182331920534
 20
94.939395988623
 30
0.0
 11
136.919263304223
 21
94.939395988623
 31
0.0
  0
LINE
  5
   248
  8
0
  6
CONTINUOUS
 62
     7
 10
134.919263304223
 20
60.8393924287371
 30
0.0
 11
134.919263304223
 21
94.939395988623
 31
0.0
  0
LINE
  5
   249
  8
0
  6
CONTINUOUS
 62
     7
 10
134.398318874271
 20
63.793815705944
 30
0.0
 11
134.919263304223
 21
60.8393924287371
 31
0.0
  0
LINE
  5
   24A
  8
0
  6
CONTINUOUS
 62
     7
 10
134.919263304223
 20
60.8393924287371
 30
0.0
 11
135.440207734174
 21
63.793815705944
 31
0.0
  0
LINE
  5
   24B
  8
0
  6
CONTINUOUS
 62
     7
 10
135.440207734174
 20
91.984972711416
 30
0.0
 11
134.919263304223
 21
94.939395988623
 31
0.0
  0
LINE
  5
   24C
  8
0
  6
CONTINUOUS
 62
     7
 10
134.919263304223
 20
94.939395988623
 30
0.0
 11
134.398318874271
 21
91.984972711416
 31
0.0
  0
ENDBLK
  5
   24D
  8
0
  6
CONTINUOUS
 62
     7
  0
BLOCK
  5
   24E
  8
0
  6
CONTINUOUS
 62
     7
  2
*UDIM178
 70
    65
 10
0.0
 20
0.0
 30
0.0
  3
*UDIM178
  0
TEXT
  5
   24F
  8
0
  6
CONTINUOUS
 62
     7
 10
124.417819677663
 20
90.7643982663225
 30
0.0
 40
2.99999994933605
  1
161
 50
89.9999999480344
 41
0.933333333333333
 72
     1
 11
122.917819706527
 21
94.664398201818
 31
0.0
 73
     2
  0
LINE
  5
   250
  8
0
  6
CONTINUOUS
 62
     7
 10
117.955984838307
 20
62.7393970346845
 30
0.0
 11
127.417819681195
 21
62.7393970346845
 31
0.0
  0
LINE
  5
   251
  8
0
  6
CONTINUOUS
 62
     7
 10
117.955984838307
 20
127.13939646844
 30
0.0
 11
127.417819681195
 21
127.13939646844
 31
0.0
  0
LINE
  5
   252
  8
0
  6
CONTINUOUS
 62
     7
 10
125.417819681195
 20
62.7393970346845
 30
0.0
 11
125.417819681195
 21
127.13939646844
 31
0.0
  0
LINE
  5
   253
  8
0
  6
CONTINUOUS
 62
     7
 10
124.896875251243
 20
65.6938203118915
 30
0.0
 11
125.417819681195
 21
62.7393970346845
 31
0.0
  0
LINE
  5
   254
  8
0
  6
CONTINUOUS
 62
     7
 10
125.417819681195
 20
62.7393970346845
 30
0.0
 11
125.938764111147
 21
65.6938203118915
 31
0.0
  0
LINE
  5
   255
  8
0
  6
CONTINUOUS
 62
     7
 10
125.938764111147
 20
124.184973191233
 30
0.0
 11
125.417819681195
 21
127.13939646844
 31
0.0
  0
LINE
  5
   256
  8
0
  6
CONTINUOUS
 62
     7
 10
125.417819681195
 20
127.13939646844
 30
0.0
 11
124.896875251243
 21
124.184973191233
 31
0.0
  0
ENDBLK
  5
   257
  8
0
  6
CONTINUOUS
 62
     7
  0
BLOCK
  5
   258
  8
0
  6
CONTINUOUS
 62
     7
  2
*UDIM179
 70
    65
 10
0.0
 20
0.0
 30
0.0
  3
*UDIM179
  0
TEXT
  5
   259
  8
0
  6
CONTINUOUS
 62
     7
 10
54.3649835507863
 20
108.664392429539
 30
0.0
 40
2.99999994933605
  1
255
 50
89.9999999480344
 41
0.933333333333333
 72
     1
 11
52.8649835796505
 21
112.564392365035
 31
0.0
 73
     2
  0
LINE
  5
   25A
  8
0
  6
CONTINUOUS
 62
     7
 10
73.4559724693289
 20
61.8393924436382
 30
0.0
 11
53.3649835543185
 21
61.8393924436382
 31
0.0
  0
LINE
  5
   25B
  8
0
  6
CONTINUOUS
 62
     7
 10
73.4559724693289
 20
163.839393963557
 30
0.0
 11
53.3649835543185
 21
163.839393963557
 31
0.0
  0
LINE
  5
   25C
  8
0
  6
CONTINUOUS
 62
     7
 10
55.3649835543185
 20
61.8393924436382
 30
0.0
 11
55.3649835543185
 21
163.839393963557
 31
0.0
  0
LINE
  5
   25D
  8
0
  6
CONTINUOUS
 62
     7
 10
54.8440391243669
 20
64.7938157208452
 30
0.0
 11
55.3649835543185
 21
61.8393924436382
 31
0.0
  0
LINE
  5
   25E
  8
0
  6
CONTINUOUS
 62
     7
 10
55.3649835543185
 20
61.8393924436382
 30
0.0
 11
55.8859279842702
 21
64.7938157208452
 31
0.0
  0
LINE
  5
   25F
  8
0
  6
CONTINUOUS
 62
     7
 10
55.8859279842702
 20
160.88497068635
 30
0.0
 11
55.3649835543185
 21
163.839393963557
 31
0.0
  0
LINE
  5
   260
  8
0
  6
CONTINUOUS
 62
     7
 10
55.3649835543185
 20
163.839393963557
 30
0.0
 11
54.8440391243669
 21
160.88497068635
 31
0.0
  0
ENDBLK
  5
   261
  8
0
  6
CONTINUOUS
 62
     7
  0
BLOCK
  5
   262
  8
0
  6
CONTINUOUS
 62
     7
  2
*UDIM180
 70
    65
 10
0.0
 20
0.0
 30
0.0
  3
*UDIM180
  0
TEXT
  5
   263
  8
0
  6
CONTINUOUS
 62
     7
 10
61.812060075236
 20
71.4143934416749
 30
0.0
 40
2.99999994933605
  1
82,75
 50
89.9999999480344
 41
0.933333333333333
 72
     1
 11
60.3120601066362
 21
78.114393329884
 31
0.0
 73
     2
  0
LINE
  5
   264
  8
0
  6
CONTINUOUS
 62
     7
 10
73.4559724693289
 20
61.8393924436382
 30
0.0
 11
60.8120600813043
 21
61.8393924436382
 31
0.0
  0
LINE
  5
   265
  8
0
  6
CONTINUOUS
 62
     7
 10
62.8120600813043
 20
61.8393924436382
 30
0.0
 11
62.8120600813043
 21
94.939395988623
 31
0.0
  0
LINE
  5
   266
  8
0
  6
CONTINUOUS
 62
     7
 10
62.2911156513526
 20
64.7938157208452
 30
0.0
 11
62.8120600813043
 21
61.8393924436382
 31
0.0
  0
LINE
  5
   267
  8
0
  6
CONTINUOUS
 62
     7
 10
62.8120600813043
 20
61.8393924436382
 30
0.0
 11
63.3330045112559
 21
64.7938157208452
 31
0.0
  0
LINE
  5
   268
  8
0
  6
CONTINUOUS
 62
     7
 10
63.3330045112559
 20
91.984972711416
 30
0.0
 11
62.8120600813043
 21
94.939395988623
 31
0.0
  0
LINE
  5
   269
  8
0
  6
CONTINUOUS
 62
     7
 10
62.8120600813043
 20
94.939395988623
 30
0.0
 11
62.2911156513526
 21
91.984972711416
 31
0.0
  0
ENDBLK
  5
   26A
  8
0
  6
CONTINUOUS
 62
     7
  0
BLOCK
  5
   26B
  8
0
  6
CONTINUOUS
 62
     7
  2
*UDIM181
 70
    65
 10
0.0
 20
0.0
 30
0.0
  3
*UDIM181
  0
TEXT
  5
   26C
  8
0
  6
CONTINUOUS
 62
     7
 10
99.4309834411478
 20
27.8766681017192
 30
0.0
 40
2.99999994933605
  1
12
 50
359.999999896069
 41
0.933333333333333
 72
     1
 11
101.930983401641
 21
29.3766680718649
 31
0.0
 73
     2
  0
TEXT
  5
   26D
  8
0
  6
CONTINUOUS
 62
     7
 10
96.6809834663805
 20
27.8766680991867
 30
0.0
 40
2.99999994933605
  1
M
 50
359.999999896069
 41
0.933333333333333
 72
     1
 11
97.7809834505171
 21
29.3766680718649
 31
0.0
 73
     2
  0
LINE
  5
   26E
  8
0
  6
CONTINUOUS
 62
     7
 10
96.4559833200574
 20
21.3687425851822
 30
0.0
 11
96.4559833200574
 21
28.8766680971969
 31
0.0
  0
LINE
  5
   26F
  8
0
  6
CONTINUOUS
 62
     7
 10
91.6559832485318
 20
21.3687425851822
 30
0.0
 11
91.6559832485318
 21
28.8766680971969
 31
0.0
  0
LINE
  5
   270
  8
0
  6
CONTINUOUS
 62
     7
 10
104.430983359421
 20
26.8766680971969
 30
0.0
 11
91.6559832485318
 21
26.8766680971969
 31
0.0
  0
LINE
  5
   271
  8
0
  6
CONTINUOUS
 62
     7
 10
99.4104065972643
 20
27.3976125271486
 30
0.0
 11
96.4559833200574
 21
26.8766680971969
 31
0.0
  0
LINE
  5
   272
  8
0
  6
CONTINUOUS
 62
     7
 10
96.4559833200574
 20
26.8766680971969
 30
0.0
 11
99.4104065972643
 21
26.3557236672452
 31
0.0
  0
LINE
  5
   273
  8
0
  6
CONTINUOUS
 62
     7
 10
88.7015599713249
 20
26.3557236672452
 30
0.0
 11
91.6559832485318
 21
26.8766680971969
 31
0.0
  0
LINE
  5
   274
  8
0
  6
CONTINUOUS
 62
     7
 10
91.6559832485318
 20
26.8766680971969
 30
0.0
 11
88.7015599713249
 21
27.3976125271486
 31
0.0
  0
ENDBLK
  5
   275
  8
0
  6
CONTINUOUS
 62
     7
  0
BLOCK
  5
   276
  8
0
  6
CONTINUOUS
 62
     7
  2
*UDIM182
 70
    65
 10
0.0
 20
0.0
 30
0.0
  3
*UDIM182
  0
TEXT
  5
   277
  8
0
  6
CONTINUOUS
 62
     7
 10
130.31162958182
 20
-8.50625775084344
 30
0.0
 40
2.99999994933605
  1
81,5
 50
449.999999896069
 41
0.933333333333333
 72
     1
 11
128.811629616732
 21
-3.20625783763826
 31
0.0
 73
     2
  0
LINE
  5
   278
  8
0
  6
CONTINUOUS
 62
     7
 10
99.4559833498597
 20
13.3687424808741
 30
0.0
 11
133.3116295914
 21
13.3687424808741
 31
0.0
  0
LINE
  5
   279
  8
0
  6
CONTINUOUS
 62
     7
 10
118.338294390522
 20
-19.2312580049038
 30
0.0
 11
133.3116295914
 21
-19.2312580049038
 31
0.0
  0
LINE
  5
   27A
  8
0
  6
CONTINUOUS
 62
     7
 10
131.3116295914
 20
13.3687424808741
 30
0.0
 11
131.3116295914
 21
-19.2312580049038
 31
0.0
  0
LINE
  5
   27B
  8
0
  6
CONTINUOUS
 62
     7
 10
131.832574021352
 20
10.4143192036671
 30
0.0
 11
131.3116295914
 21
13.3687424808741
 31
0.0
  0
LINE
  5
   27C
  8
0
  6
CONTINUOUS
 62
     7
 10
131.3116295914
 20
13.3687424808741
 30
0.0
 11
130.790685161448
 21
10.4143192036671
 31
0.0
  0
LINE
  5
   27D
  8
0
  6
CONTINUOUS
 62
     7
 10
130.790685161448
 20
-16.2768347276968
 30
0.0
 11
131.3116295914
 21
-19.2312580049038
 31
0.0
  0
LINE
  5
   27E
  8
0
  6
CONTINUOUS
 62
     7
 10
131.3116295914
 20
-19.2312580049038
 30
0.0
 11
131.832574021352
 21
-16.2768347276968
 31
0.0
  0
ENDBLK
  5
   27F
  8
0
  6
CONTINUOUS
 62
     7
  0
BLOCK
  5
   280
  8
0
  6
CONTINUOUS
 62
     7
  2
*UDIM183
 70
    65
 10
0.0
 20
0.0
 30
0.0
  3
*UDIM183
  0
TEXT
  5
   281
  8
0
  6
CONTINUOUS
 62
     7
 10
122.903462967523
 20
-17.283022566543
 30
0.0
 40
2.99999994933605
  1
36,5
 50
449.999999896069
 41
0.933333333333333
 72
     1
 11
121.403463002436
 21
-11.9830226533378
 31
0.0
 73
     2
  0
LINE
  5
   282
  8
0
  6
CONTINUOUS
 62
     7
 10
113.455983558476
 20
-4.63125778734684
 30
0.0
 11
125.903462977104
 21
-4.63125778734684
 31
0.0
  0
LINE
  5
   283
  8
0
  6
CONTINUOUS
 62
     7
 10
118.338294390522
 20
-19.2312580049038
 30
0.0
 11
125.903462977104
 21
-19.2312580049038
 31
0.0
  0
LINE
  5
   284
  8
0
  6
CONTINUOUS
 62
     7
 10
123.903462977104
 20
-4.63125778734684
 30
0.0
 11
123.903462977104
 21
-19.2312580049038
 31
0.0
  0
LINE
  5
   285
  8
0
  6
CONTINUOUS
 62
     7
 10
123.382518547152
 20
-1.67683451013988
 30
0.0
 11
123.903462977104
 21
-4.63125778734684
 31
0.0
  0
LINE
  5
   286
  8
0
  6
CONTINUOUS
 62
     7
 10
123.903462977104
 20
-4.63125778734684
 30
0.0
 11
124.424407407055
 21
-1.67683451013988
 31
0.0
  0
LINE
  5
   287
  8
0
  6
CONTINUOUS
 62
     7
 10
124.424407407055
 20
-22.1856812821108
 30
0.0
 11
123.903462977104
 21
-19.2312580049038
 31
0.0
  0
LINE
  5
   288
  8
0
  6
CONTINUOUS
 62
     7
 10
123.903462977104
 20
-19.2312580049038
 30
0.0
 11
123.382518547152
 21
-22.1856812821108
 31
0.0
  0
ENDBLK
  5
   289
  8
0
  6
CONTINUOUS
 62
     7
  0
BLOCK
  5
   28A
  8
0
  6
CONTINUOUS
 62
     7
  2
*UDIM184
 70
    65
 10
0.0
 20
0.0
 30
0.0
  3
*UDIM184
  0
TEXT
  5
   28B
  8
0
  6
CONTINUOUS
 62
     7
 10
64.9438414424149
 20
-11.0062578532641
 30
0.0
 40
2.99999994933605
  1
55
 50
449.999999896069
 41
0.933333333333333
 72
     1
 11
63.443841472266
 21
-8.50625789277256
 31
0.0
 73
     2
  0
LINE
  5
   28C
  8
0
  6
CONTINUOUS
 62
     7
 10
77.0559834273458
 20
2.76874232292175
 30
0.0
 11
63.943841446934
 21
2.76874232292175
 31
0.0
  0
LINE
  5
   28D
  8
0
  6
CONTINUOUS
 62
     7
 10
69.7496690129434
 20
-19.2312580049038
 30
0.0
 11
63.943841446934
 21
-19.2312580049038
 31
0.0
  0
LINE
  5
   28E
  8
0
  6
CONTINUOUS
 62
     7
 10
65.943841446934
 20
2.76874232292175
 30
0.0
 11
65.943841446934
 21
-19.2312580049038
 31
0.0
  0
LINE
  5
   28F
  8
0
  6
CONTINUOUS
 62
     7
 10
66.4647858768857
 20
-0.18568095428521
 30
0.0
 11
65.943841446934
 21
2.76874232292175
 31
0.0
  0
LINE
  5
   290
  8
0
  6
CONTINUOUS
 62
     7
 10
65.943841446934
 20
2.76874232292175
 30
0.0
 11
65.4228970169823
 21
-0.18568095428521
 31
0.0
  0
LINE
  5
   291
  8
0
  6
CONTINUOUS
 62
     7
 10
65.4228970169823
 20
-16.2768347276968
 30
0.0
 11
65.943841446934
 21
-19.2312580049038
 31
0.0
  0
LINE
  5
   292
  8
0
  6
CONTINUOUS
 62
     7
 10
65.943841446934
 20
-19.2312580049038
 30
0.0
 11
66.4647858768857
 21
-16.2768347276968
 31
0.0
  0
ENDBLK
  5
   293
  8
0
  6
CONTINUOUS
 62
     7
  0
BLOCK
  5
   294
  8
0
  6
CONTINUOUS
 62
     7
  2
*UDIM185
 70
    65
 10
0.0
 20
0.0
 30
0.0
  3
*UDIM185
  0
TEXT
  5
   295
  8
0
  6
CONTINUOUS
 62
     7
 10
56.9300336422464
 20
-3.40625769551046
 30
0.0
 40
2.99999994933605
  1
100
 50
449.999999896069
 41
0.933333333333333
 72
     1
 11
55.4300336746283
 21
0.493742241337895
 31
0.0
 73
     2
  0
LINE
  5
   296
  8
0
  6
CONTINUOUS
 62
     7
 10
91.0559832544923
 20
20.7687425911427
 30
0.0
 11
55.9300336492963
 21
20.7687425911427
 31
0.0
  0
LINE
  5
   297
  8
0
  6
CONTINUOUS
 62
     7
 10
69.7496690129434
 20
-19.2312580049038
 30
0.0
 11
55.9300336492963
 21
-19.2312580049038
 31
0.0
  0
LINE
  5
   298
  8
0
  6
CONTINUOUS
 62
     7
 10
57.9300336492963
 20
20.7687425911427
 30
0.0
 11
57.9300336492963
 21
-19.2312580049038
 31
0.0
  0
LINE
  5
   299
  8
0
  6
CONTINUOUS
 62
     7
 10
58.450978079248
 20
17.8143193139357
 30
0.0
 11
57.9300336492963
 21
20.7687425911427
 31
0.0
  0
LINE
  5
   29A
  8
0
  6
CONTINUOUS
 62
     7
 10
57.9300336492963
 20
20.7687425911427
 30
0.0
 11
57.4090892193447
 21
17.8143193139357
 31
0.0
  0
LINE
  5
   29B
  8
0
  6
CONTINUOUS
 62
     7
 10
57.4090892193447
 20
-16.2768347276968
 30
0.0
 11
57.9300336492963
 21
-19.2312580049038
 31
0.0
  0
LINE
  5
   29C
  8
0
  6
CONTINUOUS
 62
     7
 10
57.9300336492963
 20
-19.2312580049038
 30
0.0
 11
58.450978079248
 21
-16.2768347276968
 31
0.0
  0
ENDBLK
  5
   29D
  8
0
  6
CONTINUOUS
 62
     7
  0
BLOCK
  5
   29E
  8
0
  6
CONTINUOUS
 62
     7
  2
*UDIM186
 70
    65
 10
0.0
 20
0.0
 30
0.0
  3
*UDIM186
  0
TEXT
  5
   29F
  8
0
  6
CONTINUOUS
 62
     7
 10
98.2809833763278
 20
35.3967335213941
 30
0.0
 40
2.99999994933605
  1
35
 50
359.999999896069
 41
0.933333333333333
 72
     1
 11
100.780983336821
 21
36.8967334915398
 31
0.0
 73
     2
  0
LINE
  5
   2A0
  8
0
  6
CONTINUOUS
 62
     7
 10
108.055983492911
 20
6.71714624683284
 30
0.0
 11
108.055983492911
 21
36.3967335168718
 31
0.0
  0
LINE
  5
   2A1
  8
0
  6
CONTINUOUS
 62
     7
 10
94.0559832842946
 20
24.3736234068158
 30
0.0
 11
94.0559832842946
 21
36.3967335168718
 31
0.0
  0
LINE
  5
   2A2
  8
0
  6
CONTINUOUS
 62
     7
 10
108.055983492911
 20
34.3967335168718
 30
0.0
 11
94.0559832842946
 21
34.3967335168718
 31
0.0
  0
LINE
  5
   2A3
  8
0
  6
CONTINUOUS
 62
     7
 10
105.101560215704
 20
33.8757890869201
 30
0.0
 11
108.055983492911
 21
34.3967335168718
 31
0.0
  0
LINE
  5
   2A4
  8
0
  6
CONTINUOUS
 62
     7
 10
108.055983492911
 20
34.3967335168718
 30
0.0
 11
105.101560215704
 21
34.9176779468235
 31
0.0
  0
LINE
  5
   2A5
  8
0
  6
CONTINUOUS
 62
     7
 10
97.0104065615016
 20
34.9176779468235
 30
0.0
 11
94.0559832842946
 21
34.3967335168718
 31
0.0
  0
LINE
  5
   2A6
  8
0
  6
CONTINUOUS
 62
     7
 10
94.0559832842946
 20
34.3967335168718
 30
0.0
 11
97.0104065615016
 21
33.8757890869201
 31
0.0
  0
ENDBLK
  5
   2A7
  8
0
  6
CONTINUOUS
 62
     7
  0
BLOCK
  5
   2A8
  8
0
  6
CONTINUOUS
 62
     7
  2
*UDIM187
 70
    65
 10
0.0
 20
0.0
 30
0.0
  3
*UDIM187
  0
TEXT
  5
   2A9
  8
0
  6
CONTINUOUS
 62
     7
 10
84.2809831677115
 20
35.3967335213941
 30
0.0
 40
2.99999994933605
  1
35
 50
359.999999896069
 41
0.933333333333333
 72
     1
 11
86.7809831282049
 21
36.8967334915398
 31
0.0
 73
     2
  0
LINE
  5
   2AA
  8
0
  6
CONTINUOUS
 62
     7
 10
80.0559838386178
 20
6.76085039821894
 30
0.0
 11
80.0559838386178
 21
36.3967335168718
 31
0.0
  0
LINE
  5
   2AB
  8
0
  6
CONTINUOUS
 62
     7
 10
94.0559832842946
 20
34.3967335168718
 30
0.0
 11
80.0559838386178
 21
34.3967335168718
 31
0.0
  0
LINE
  5
   2AC
  8
0
  6
CONTINUOUS
 62
     7
 10
91.1015600070876
 20
33.8757890869201
 30
0.0
 11
94.0559832842946
 21
34.3967335168718
 31
0.0
  0
LINE
  5
   2AD
  8
0
  6
CONTINUOUS
 62
     7
 10
94.0559832842946
 20
34.3967335168718
 30
0.0
 11
91.1015600070876
 21
34.9176779468235
 31
0.0
  0
LINE
  5
   2AE
  8
0
  6
CONTINUOUS
 62
     7
 10
83.0104071158248
 20
34.9176779468235
 30
0.0
 11
80.0559838386178
 21
34.3967335168718
 31
0.0
  0
LINE
  5
   2AF
  8
0
  6
CONTINUOUS
 62
     7
 10
80.0559838386178
 20
34.3967335168718
 30
0.0
 11
83.0104071158248
 21
33.8757890869201
 31
0.0
  0
ENDBLK
  5
   2B0
  8
0
  6
CONTINUOUS
 62
     7
  0
ENDSEC
  0
SECTION
  2
ENTITIES
  0
LINE
  5
   2B1
  8
0
  6
DASHDOT
 62
     7
 10
251.555297851563
 20
-7.79774392237489
 30
0.0
 11
251.555297851563
 21
-47.8437906045647
 31
0.0
  0
LINE
  5
   2B2
  8
0
  6
DASHDOT
 62
     7
 10
259.043579109457
 20
-19.9287757873535
 30
0.0
 11
243.004160232973
 21
-19.9287757873535
 31
0.0
  0
LINE
  5
   2B3
  8
0
  6
DASHDOT
 62
     7
 10
258.074163682856
 20
-75.9287757873535
 30
0.0
 11
243.004160232973
 21
-75.9287757873535
 31
0.0
  0
LINE
  5
   2B4
  8
0
  6
DASHDOT
 62
     7
 10
247.180297851563
 20
-10.5921730506392
 30
0.0
 11
247.180297851563
 21
-87.2972157884701
 31
0.0
  0
LINE
  5
   2B5
  8
0
  6
DASHDOT
 62
     7
 10
255.930297851563
 20
-9.70501508303082
 30
0.0
 11
255.930297851563
 21
-87.0924870267143
 31
0.0
  0
LINE
  5
   2B6
  8
0
  6
CONTINUOUS
 62
     3
 10
234.680297851563
 20
-12.4287757873535
 30
0.0
 11
234.680297851563
 21
-83.4287757873535
 31
0.0
  0
LINE
  5
   2B7
  8
0
  6
CONTINUOUS
 62
     3
 10
268.430297851563
 20
-12.4287757873535
 30
0.0
 11
268.430297851563
 21
-83.4287757873535
 31
0.0
  0
LINE
  5
   2B8
  8
0
  6
CONTINUOUS
 62
     3
 10
268.430297851563
 20
-12.4287757873535
 30
0.0
 11
234.680297851563
 21
-12.4287757873535
 31
0.0
  0
LINE
  5
   2B9
  8
0
  6
CONTINUOUS
 62
     3
 10
268.430297851563
 20
-83.4287757873535
 30
0.0
 11
234.680297851563
 21
-83.4287757873535
 31
0.0
  0
CIRCLE
  5
   2BA
  8
0
  6
CONTINUOUS
 62
     7
 10
247.180297851563
 20
-19.9287757873535
 30
0.0
 40
0.6875
  0
CIRCLE
  5
   2BB
  8
0
  6
CONTINUOUS
 62
     7
 10
255.930297851563
 20
-19.9287757873535
 30
0.0
 40
0.6875
  0
CIRCLE
  5
   2BC
  8
0
  6
CONTINUOUS
 62
     7
 10
247.180297851563
 20
-75.9287757873535
 30
0.0
 40
0.6875
  0
CIRCLE
  5
   2BD
  8
0
  6
CONTINUOUS
 62
     7
 10
255.930297851563
 20
-75.9287757873535
 30
0.0
 40
0.6875
  0
LINE
  5
   2BE
  8
0
  6
DASHDOT
 62
     7
 10
265.469305977335
 20
-59.1162757873535
 30
0.0
 11
226.85136236278
 21
-59.1162757873535
 31
0.0
  0
LINE
  5
   2BF
  8
0
  6
DASHDOT
 62
     7
 10
251.555297851563
 20
-54.7027116533161
 30
0.0
 11
251.555297851563
 21
-89.4809892471984
 31
0.0
  0
CIRCLE
  5
   2C0
  8
0
  6
CONTINUOUS
 62
     7
 10
251.555297851563
 20
-19.4287757873535
 30
0.0
 40
3.0
  0
CIRCLE
  5
   2C1
  8
0
  6
CONTINUOUS
 62
     7
 10
260.305297851563
 20
-19.4287757873535
 30
0.0
 40
3.0
  0
CIRCLE
  5
   2C2
  8
0
  6
CONTINUOUS
 62
     7
 10
242.805297851563
 20
-19.4287757873535
 30
0.0
 40
3.0
  0
CIRCLE
  5
   2C3
  8
0
  6
CONTINUOUS
 62
     7
 10
260.305297851563
 20
-76.4287757873535
 30
0.0
 40
3.0
  0
CIRCLE
  5
   2C4
  8
0
  6
CONTINUOUS
 62
     7
 10
251.555297851563
 20
-76.4287757873535
 30
0.0
 40
3.0
  0
CIRCLE
  5
   2C5
  8
0
  6
CONTINUOUS
 62
     7
 10
242.805297851563
 20
-76.4287757873535
 30
0.0
 40
3.0
  0
LINE
  5
   2C6
  8
0
  6
DASHDOT
 62
     7
 10
260.305297851563
 20
-15.6787757873535
 30
0.0
 11
260.305297851563
 21
-72.0141520432185
 31
0.0
  0
LINE
  5
   2C7
  8
0
  6
DASHDOT
 62
     7
 10
264.055297851563
 20
-19.4287757873535
 30
0.0
 11
256.555297851563
 21
-19.4287757873535
 31
0.0
  0
LINE
  5
   2C8
  8
0
  6
DASHDOT
 62
     7
 10
242.805297851563
 20
-15.6787757873535
 30
0.0
 11
242.805297851563
 21
-72.1506375014988
 31
0.0
  0
LINE
  5
   2C9
  8
0
  6
DASHDOT
 62
     7
 10
256.454675388297
 20
-19.4287757873535
 30
0.0
 11
239.055297851562
 21
-19.4287757873535
 31
0.0
  0
LINE
  5
   2CA
  8
0
  6
DASHDOT
 62
     7
 10
242.805297851563
 20
-72.6787757873535
 30
0.0
 11
242.805297851563
 21
-80.1787757873535
 31
0.0
  0
LINE
  5
   2CB
  8
0
  6
DASHDOT
 62
     7
 10
256.864131763138
 20
-76.4287757873535
 30
0.0
 11
239.055297851562
 21
-76.4287757873535
 31
0.0
  0
LINE
  5
   2CC
  8
0
  6
DASHDOT
 62
     7
 10
260.305297851563
 20
-72.6787757873535
 30
0.0
 11
260.305297851563
 21
-80.1787757873535
 31
0.0
  0
LINE
  5
   2CD
  8
0
  6
DASHDOT
 62
     7
 10
264.055297851563
 20
-76.4287757873535
 30
0.0
 11
256.555297851563
 21
-76.4287757873535
 31
0.0
  0
INSERT
  5
   2CE
  8
0
  6
CONTINUOUS
 62
     7
  2
*UDIM146
 10
0.0
 20
0.0
 30
0.0
  0
INSERT
  5
   2CF
  8
0
  6
CONTINUOUS
 62
     7
  2
*UDIM147
 10
0.0
 20
0.0
 30
0.0
  0
INSERT
  5
   2D0
  8
0
  6
CONTINUOUS
 62
     7
  2
*UDIM148
 10
0.0
 20
0.0
 30
0.0
  0
INSERT
  5
   2D1
  8
0
  6
CONTINUOUS
 62
     7
  2
*UDIM149
 10
0.0
 20
0.0
 30
0.0
  0
INSERT
  5
   2D2
  8
0
  6
CONTINUOUS
 62
     7
  2
*UDIM150
 10
0.0
 20
0.0
 30
0.0
  0
INSERT
  5
   2D3
  8
0
  6
CONTINUOUS
 62
     7
  2
*UDIM151
 10
0.0
 20
0.0
 30
0.0
  0
INSERT
  5
   2D4
  8
0
  6
CONTINUOUS
 62
     7
  2
*UDIM152
 10
0.0
 20
0.0
 30
0.0
  0
INSERT
  5
   2D5
  8
0
  6
CONTINUOUS
 62
     7
  2
*UDIM153
 10
0.0
 20
0.0
 30
0.0
  0
INSERT
  5
   2D6
  8
0
  6
CONTINUOUS
 62
     7
  2
*UDIM154
 10
0.0
 20
0.0
 30
0.0
  0
TEXT
  5
   2D7
  8
0
  6
CONTINUOUS
 62
     1
 10
138.296893362876
 20
-193.480715078495
 30
0.0
 40
2.00000008940697
  1
M4352 96-12-17
 50
359.999999896069
 41
0.749999861419206
 72
     2
 11
158.99689045566
 21
-193.48071511594
 31
0.0
  0
TEXT
  5
   2D8
  8
0
  6
CONTINUOUS
 62
     1
 10
130.442901609519
 20
-178.463390416956
 30
0.0
 40
2.00000008940697
  1
96-11-19 BARCELLA
 50
359.999999896069
 41
0.749999861419206
 72
     2
 11
155.642898071984
 21
-178.463390462541
 31
0.0
  0
TEXT
  5
   2D9
  8
0
  6
CONTINUOUS
 62
     7
 10
247.52896737781
 20
-95.2789497603868
 30
0.0
 40
3.00000002980232
  1
= =
 50
359.999999896069
 41
0.916666604744064
 72
     2
 11
255.228966929782
 21
-95.2789497743155
 31
0.0
  0
TEXT
  5
   2DA
  8
0
  6
CONTINUOUS
 62
     7
 10
250.463412878184
 20
-99.7829819003711
 30
0.0
 40
3.00000002980232
  1
Y
 50
359.999999896069
 41
0.916666604744064
 72
     2
 11
252.663412747054
 21
-99.7829819043507
 31
0.0
  0
TEXT
  5
   2DB
  8
0
  6
CONTINUOUS
 62
     7
 10
250.569617864756
 20
2.94219586452147
 30
0.0
 40
3.00000002980232
  1
Y
 50
359.999999896069
 41
0.916666604744064
 72
     2
 11
252.769617733626
 21
2.94219586054185
 31
0.0
  0
TEXT
  5
   2DC
  8
0
  6
CONTINUOUS
 62
     7
 10
211.460170743136
 20
-60.7480312267909
 30
0.0
 40
3.00000002980232
  1
X
 50
359.999999896069
 41
0.916666604744064
 72
     2
 11
213.660170612006
 21
-60.7480312307706
 31
0.0
  0
TEXT
  5
   2DD
  8
0
  6
CONTINUOUS
 62
     1
 10
231.973709102828
 20
-204.689869072577
 30
0.0
 40
4.00000017881393
  1
605032/081
 50
359.999999896069
 41
0.937499973922969
 72
     2
 11
268.723709702599
 21
-204.689869139055
 31
0.0
  0
TEXT
  5
   2DE
  8
0
  6
CONTINUOUS
 62
     1
 10
250.059402463107
 20
-195.708286308238
 30
0.0
 40
3.00000002980232
  1
S3X
 50
359.999999896069
 41
0.916666604744064
 72
     2
 11
257.759402015079
 21
-195.708286322167
 31
0.0
  0
TEXT
  5
   2DF
  8
0
  6
CONTINUOUS
 62
     1
 10
223.962477530593
 20
-177.398014065054
 30
0.0
 40
2.00000008940697
  1
3POLE LOW VOLTAGE M.C.C.B SERIES ISOMAX
 50
359.999999896069
 41
0.687499997764826
 72
     1
 11
250.637478634715
 21
-176.398014068604
 31
0.0
 73
     2
  0
TEXT
  5
   2E0
  8
0
  6
CONTINUOUS
 62
     1
 10
221.899977445097
 20
-180.398014061323
 30
0.0
 40
2.00000008940697
  1
SUPERLIMITING FIXED VERSION REAR TERMINALS
 50
359.999999896069
 41
0.687499997764826
 72
     1
 11
250.637478634715
 21
-179.398014068604
 31
0.0
 73
     2
  0
TEXT
  5
   2E1
  8
0
  6
CONTINUOUS
 62
     1
 10
215.602369909228
 20
-185.468280779982
 30
0.0
 40
2.00000008940697
  1
INTERR.AUTOMATICO SERIE ISOMAX SUPERLIMITATORE
 50
359.999999896069
 41
0.687499997764826
 72
     1
 11
247.08987121284
 21
-184.468280792236
 31
0.0
 73
     2
  0
TEXT
  5
   2E2
  8
0
  6
CONTINUOUS
 62
     1
 10
216.977369966225
 20
-188.468280782469
 30
0.0
 40
2.00000008940697
  1
TRIPOL.ESECUZIONE FISSA TERMINALI POSTERIORI
 50
359.999999896069
 41
0.687499997764826
 72
     1
 11
247.08987121284
 21
-187.468280792236
 31
0.0
 73
     2
  0
LINE
  5
   2E3
  8
0
  6
CONTINUOUS
 62
     7
 10
162.698547363281
 20
-73.1162757873535
 30
0.0
 11
190.698547363281
 21
-73.1162757873535
 31
0.0
  0
LINE
  5
   2E4
  8
0
  6
CONTINUOUS
 62
     7
 10
162.698547363281
 20
-45.1162757873535
 30
0.0
 11
190.698547363281
 21
-45.1162757873535
 31
0.0
  0
LINE
  5
   2E5
  8
0
  6
CONTINUOUS
 62
     7
 10
162.698547363281
 20
-45.1162757873535
 30
0.0
 11
162.698547363281
 21
-73.1162757873535
 31
0.0
  0
LINE
  5
   2E6
  8
0
  6
CONTINUOUS
 62
     7
 10
190.698547363281
 20
-45.1162757873535
 30
0.0
 11
190.698547363281
 21
-73.1162757873535
 31
0.0
  0
LINE
  5
   2E7
  8
0
  6
DASHDOT
 62
     7
 10
176.698547363281
 20
-30.0223125413779
 30
0.0
 11
176.698547363281
 21
-89.1530660651607
 31
0.0
  0
CIRCLE
  5
   2E8
  8
0
  6
CONTINUOUS
 62
     7
 10
166.698547363281
 20
-41.3662757873535
 30
0.0
 40
0.875
  0
CIRCLE
  5
   2E9
  8
0
  6
CONTINUOUS
 62
     7
 10
186.698547363281
 20
-41.3662757873535
 30
0.0
 40
0.875
  0
CIRCLE
  5
   2EA
  8
0
  6
CONTINUOUS
 62
     7
 10
186.698547363281
 20
-76.8662757873535
 30
0.0
 40
0.875
  0
CIRCLE
  5
   2EB
  8
0
  6
CONTINUOUS
 62
     7
 10
166.698547363281
 20
-76.8662757873535
 30
0.0
 40
0.875
  0
LINE
  5
   2EC
  8
0
  6
CONTINUOUS
 62
     3
 10
158.734051693867
 20
-39.0164754900623
 30
0.0
 11
194.537420963852
 21
-39.0164754900623
 31
0.0
  0
LINE
  5
   2ED
  8
0
  6
CONTINUOUS
 62
     3
 10
158.734051693867
 20
-80.2217566148175
 30
0.0
 11
194.537420963852
 21
-80.2217566148175
 31
0.0
  0
LINE
  5
   2EE
  8
0
  6
CONTINUOUS
 62
     3
 10
194.537420963852
 20
-39.0164754900623
 30
0.0
 11
194.537420963852
 21
-80.2217566148175
 31
0.0
  0
LINE
  5
   2EF
  8
0
  6
CONTINUOUS
 62
     3
 10
158.734051693867
 20
-39.0164754900623
 30
0.0
 11
158.734051693867
 21
-80.2217566148175
 31
0.0
  0
LINE
  5
   2F0
  8
0
  6
DASHDOT
 62
     7
 10
186.698547363281
 20
-39.7412757873535
 30
0.0
 11
186.698547363281
 21
-42.9912757873535
 31
0.0
  0
LINE
  5
   2F1
  8
0
  6
DASHDOT
 62
     7
 10
185.073547363281
 20
-41.3662757873535
 30
0.0
 11
188.323547363281
 21
-41.3662757873535
 31
0.0
  0
LINE
  5
   2F2
  8
0
  6
DASHDOT
 62
     7
 10
166.698547363281
 20
-39.7412757873535
 30
0.0
 11
166.698547363281
 21
-42.9912757873535
 31
0.0
  0
LINE
  5
   2F3
  8
0
  6
DASHDOT
 62
     7
 10
165.073547363281
 20
-41.3662757873535
 30
0.0
 11
168.323547363281
 21
-41.3662757873535
 31
0.0
  0
LINE
  5
   2F4
  8
0
  6
DASHDOT
 62
     7
 10
166.698547363281
 20
-75.2412757873535
 30
0.0
 11
166.698547363281
 21
-78.4912757873535
 31
0.0
  0
LINE
  5
   2F5
  8
0
  6
DASHDOT
 62
     7
 10
165.073547363281
 20
-76.8662757873535
 30
0.0
 11
168.323547363281
 21
-76.8662757873535
 31
0.0
  0
LINE
  5
   2F6
  8
0
  6
DASHDOT
 62
     7
 10
186.698547363281
 20
-75.2412757873535
 30
0.0
 11
186.698547363281
 21
-78.4912757873535
 31
0.0
  0
LINE
  5
   2F7
  8
0
  6
DASHDOT
 62
     7
 10
185.073547363281
 20
-76.8662757873535
 30
0.0
 11
188.323547363281
 21
-76.8662757873535
 31
0.0
  0
LINE
  5
   2F8
  8
0
  6
DASHDOT
 62
     7
 10
151.332689809925
 20
-59.1162757873535
 30
0.0
 11
204.328840662652
 21
-59.1162757873535
 31
0.0
  0
INSERT
  5
   2F9
  8
0
  6
CONTINUOUS
 62
     7
  2
*UDIM155
 10
0.0
 20
0.0
 30
0.0
  0
INSERT
  5
   2FA
  8
0
  6
CONTINUOUS
 62
     7
  2
*UDIM156
 10
0.0
 20
0.0
 30
0.0
  0
INSERT
  5
   2FB
  8
0
  6
CONTINUOUS
 62
     7
  2
*UDIM157
 10
0.0
 20
0.0
 30
0.0
  0
INSERT
  5
   2FC
  8
0
  6
CONTINUOUS
 62
     7
  2
*UDIM158
 10
0.0
 20
0.0
 30
0.0
  0
INSERT
  5
   2FD
  8
0
  6
CONTINUOUS
 62
     7
  2
*UDIM159
 10
0.0
 20
0.0
 30
0.0
  0
TEXT
  5
   2FE
  8
0
  6
CONTINUOUS
 62
     7
 10
169.448543337879
 20
-32.5783980454661
 30
0.0
 40
3.00000002980232
  1
=   =
 50
359.999999844103
 41
0.916666604744064
 72
     2
 11
182.648542572953
 21
-32.5783980813158
 31
0.0
  0
TEXT
  5
   2FF
  8
0
  6
CONTINUOUS
 62
     7
 10
168.232193894582
 20
-24.0581172638222
 30
0.0
 40
3.00000002980232
  1
=    =
 50
359.999999844103
 41
0.916666604744064
 72
     2
 11
184.182192971207
 21
-24.0581173071406
 31
0.0
  0
TEXT
  5
   300
  8
0
  6
CONTINUOUS
 62
     7
 10
150.139849725588
 20
-69.3801752876192
 30
0.0
 40
3.00000002980232
  1
=     =
 50
449.999999844103
 41
0.916666604744064
 72
     2
 11
150.139849776351
 21
-50.6801763694435
 31
0.0
  0
TEXT
  5
   301
  8
0
  6
CONTINUOUS
 62
     7
 10
140.426729970874
 20
-71.4720624447812
 30
0.0
 40
3.00000002980232
  1
=       =
 50
449.999999844103
 41
0.916666604744064
 72
     2
 11
140.426730036568
 21
-47.2720638435035
 31
0.0
  0
TEXT
  5
   302
  8
0
  6
CONTINUOUS
 62
     7
 10
175.50677942226
 20
-92.5611801838824
 30
0.0
 40
3.00000002980232
  1
Y
 50
359.999999844103
 41
0.916666604744064
 72
     2
 11
177.70677929113
 21
-92.5611801898574
 31
0.0
  0
TEXT
  5
   303
  8
0
  6
CONTINUOUS
 62
     7
 10
175.677185048557
 20
-14.6858063435504
 30
0.0
 40
3.00000002980232
  1
Y
 50
359.999999844103
 41
0.916666604744064
 72
     2
 11
177.877184917427
 21
-14.6858063495253
 31
0.0
  0
TEXT
  5
   304
  8
0
  6
CONTINUOUS
 62
     7
 10
127.281986345745
 20
-60.5249202942797
 30
0.0
 40
3.00000002980232
  1
X
 50
359.999999844103
 41
0.916666604744064
 72
     2
 11
129.481986214615
 21
-60.5249203002547
 31
0.0
  0
LINE
  5
   305
  8
0
  6
CONTINUOUS
 62
     3
 10
235.227478437652
 20
62.9593989986182
 30
0.0
 11
244.142637300491
 21
62.9593989986182
 31
0.0
  0
LINE
  5
   306
  8
0
  6
CONTINUOUS
 62
     7
 10
215.342636871338
 20
60.8393981359092
 30
0.0
 11
215.342636871338
 21
64.0393932163715
 31
0.0
  0
LINE
  5
   307
  8
0
  6
CONTINUOUS
 62
     7
 10
215.342636871338
 20
77.9570753085268
 30
0.0
 11
215.342636871338
 21
129.839388084376
 31
0.0
  0
LINE
  5
   308
  8
0
  6
DASHDOT
 62
     7
 10
214.542636859417
 20
56.0206058864516
 30
0.0
 11
214.542636859417
 21
64.0393932163715
 31
0.0
  0
LINE
  5
   309
  8
0
  6
CONTINUOUS
 62
     7
 10
214.542636859417
 20
125.571236174283
 30
0.0
 11
214.542636859417
 21
125.639381927252
 31
0.0
  0
LINE
  5
   30A
  8
0
  6
CONTINUOUS
 62
     7
 10
242.742628124456
 20
104.739392885152
 30
0.0
 11
242.742635871248
 21
101.43938335324
 31
0.0
  0
LINE
  5
   30B
  8
0
  6
CONTINUOUS
 62
     7
 10
243.742613605596
 20
123.23939131129
 30
0.0
 11
244.025462723751
 21
123.356548277366
 31
0.0
  0
LINE
  5
   30C
  8
0
  6
CONTINUOUS
 62
     7
 10
244.025467820996
 20
123.356539826935
 30
0.0
 11
244.142624796245
 21
123.63938283053
 31
0.0
  0
LINE
  5
   30D
  8
0
  6
CONTINUOUS
 62
     7
 10
242.742630740194
 20
120.439393622761
 30
0.0
 11
242.742636843709
 21
123.239393664709
 31
0.0
  0
LINE
  5
   30E
  8
0
  6
CONTINUOUS
 62
     7
 10
242.74263727963
 20
123.23939409852
 30
0.0
 11
243.742625087499
 21
123.23939409852
 31
0.0
  0
LINE
  5
   30F
  8
0
  6
CONTINUOUS
 62
     7
 10
242.742631176114
 20
104.739393822849
 30
0.0
 11
242.742631176114
 21
120.439394056797
 31
0.0
  0
LINE
  5
   310
  8
0
  6
CONTINUOUS
 62
     7
 10
240.942637252808
 20
84.4393935203552
 30
0.0
 11
240.942637252808
 21
100.639393761754
 31
0.0
  0
LINE
  5
   311
  8
0
  6
CONTINUOUS
 62
     7
 10
240.942649237692
 20
100.639415792612
 30
0.0
 11
241.0498269651
 21
101.039415787618
 31
0.0
  0
LINE
  5
   312
  8
0
  6
CONTINUOUS
 62
     7
 10
241.049840592097
 20
101.039431009648
 30
0.0
 11
241.342656743666
 21
101.332253257868
 31
0.0
  0
LINE
  5
   313
  8
0
  6
CONTINUOUS
 62
     7
 10
241.342615344767
 20
101.332205625879
 30
0.0
 11
241.742621432792
 21
101.43938335324
 31
0.0
  0
LINE
  5
   314
  8
0
  6
CONTINUOUS
 62
     7
 10
240.942637252808
 20
84.4393935203552
 30
0.0
 11
244.142637300491
 21
84.4393935203552
 31
0.0
  0
LINE
  5
   315
  8
0
  6
CONTINUOUS
 62
     7
 10
243.742589718464
 20
78.8393883218492
 30
0.0
 11
244.142620225633
 21
78.4393883301634
 31
0.0
  0
LINE
  5
   316
  8
0
  6
CONTINUOUS
 62
     7
 10
243.742599127149
 20
83.2393977449696
 30
0.0
 11
244.142635737438
 21
83.6393977364068
 31
0.0
  0
LINE
  5
   317
  8
0
  6
CONTINUOUS
 62
     7
 10
218.635470906648
 20
83.2393832853723
 30
0.0
 11
243.742594083507
 21
83.239395492403
 31
0.0
  0
LINE
  5
   318
  8
0
  6
CONTINUOUS
 62
     7
 10
218.635452319575
 20
78.8393934369087
 30
0.0
 11
243.742599910497
 21
78.8393934369087
 31
0.0
  0
LINE
  5
   319
  8
0
  6
CONTINUOUS
 62
     7
 10
217.142635090111
 20
83.6393820505592
 30
0.0
 11
218.635469118999
 21
83.2393759417335
 31
0.0
  0
LINE
  5
   31A
  8
0
  6
CONTINUOUS
 62
     7
 10
215.742635051591
 20
84.014511976804
 30
0.0
 11
217.142648027504
 21
83.6393777375115
 31
0.0
  0
LINE
  5
   31B
  8
0
  6
CONTINUOUS
 62
     7
 10
215.342637315881
 20
77.9570877730942
 30
0.0
 11
218.635453126542
 21
78.8393936808576
 31
0.0
  0
LINE
  5
   31C
  8
0
  6
CONTINUOUS
 62
     7
 10
215.34264207174
 20
84.9571149657315
 30
0.0
 11
215.742640911963
 21
85.0642926931435
 31
0.0
  0
LINE
  5
   31D
  8
0
  6
CONTINUOUS
 62
     7
 10
215.342636871338
 20
75.4393872827291
 30
0.0
 11
216.94263651371
 21
75.4393872827291
 31
0.0
  0
LINE
  5
   31E
  8
0
  6
CONTINUOUS
 62
     7
 10
216.94263651371
 20
72.4326760532192
 30
0.0
 11
216.94263651371
 21
75.4393872827291
 31
0.0
  0
LINE
  5
   31F
  8
0
  6
CONTINUOUS
 62
     7
 10
215.742636877298
 20
78.0642591480146
 30
0.0
 11
215.742636877298
 21
95.8393875867127
 31
0.0
  0
LINE
  5
   320
  8
0
  6
CONTINUOUS
 62
     7
 10
217.14263689816
 20
83.6393935084343
 30
0.0
 11
217.14263689816
 21
93.6393936574459
 31
0.0
  0
LINE
  5
   321
  8
0
  6
CONTINUOUS
 62
     7
 10
215.342636489868
 20
95.8393875867127
 30
0.0
 11
216.54263612628
 21
95.8393875867127
 31
0.0
  0
LINE
  5
   322
  8
0
  6
CONTINUOUS
 62
     7
 10
216.542640247196
 20
95.8393836214624
 30
0.0
 11
216.842640998463
 21
95.75900032591
 31
0.0
  0
LINE
  5
   323
  8
0
  6
CONTINUOUS
 62
     7
 10
216.542640247196
 20
95.8393836214624
 30
0.0
 11
216.842640998463
 21
95.75900032591
 31
0.0
  0
LINE
  5
   324
  8
0
  6
CONTINUOUS
 62
     7
 10
216.842638187221
 20
95.7589983056073
 30
0.0
 11
217.062253359968
 21
95.5393816148567
 31
0.0
  0
LINE
  5
   325
  8
0
  6
CONTINUOUS
 62
     7
 10
217.062246457982
 20
95.5393763359572
 30
0.0
 11
217.142630901292
 21
95.2393763324399
 31
0.0
  0
LINE
  5
   326
  8
0
  6
CONTINUOUS
 62
     7
 10
217.142644146085
 20
93.6393881738226
 30
0.0
 11
217.142644146085
 21
95.2393820941487
 31
0.0
  0
LINE
  5
   327
  8
0
  6
CONTINUOUS
 62
     7
 10
217.062255213903
 20
93.3393850104962
 30
0.0
 11
217.100344198095
 21
93.4815358893684
 31
0.0
  0
LINE
  5
   328
  8
0
  6
CONTINUOUS
 62
     7
 10
217.100343464367
 20
93.4815320150149
 30
0.0
 11
217.142638919927
 21
93.6393872393693
 31
0.0
  0
LINE
  5
   329
  8
0
  6
CONTINUOUS
 62
     7
 10
216.842636770097
 20
93.1197564421809
 30
0.0
 11
217.062252313412
 21
93.3393731332558
 31
0.0
  0
LINE
  5
   32A
  8
0
  6
CONTINUOUS
 62
     7
 10
216.542631748314
 20
93.0393792340932
 30
0.0
 11
216.842631748643
 21
93.1197625234783
 31
0.0
  0
LINE
  5
   32B
  8
0
  6
CONTINUOUS
 62
     7
 10
215.742636877298
 20
93.0393875449895
 30
0.0
 11
216.54263650775
 21
93.0393875449895
 31
0.0
  0
LINE
  5
   32C
  8
0
  6
CONTINUOUS
 62
     7
 10
214.542636859417
 20
125.639381927252
 30
0.0
 11
215.342636871338
 21
125.639381927252
 31
0.0
  0
LINE
  5
   32D
  8
0
  6
CONTINUOUS
 62
     7
 10
214.542636859417
 20
121.692043001244
 30
0.0
 11
215.342636871338
 21
121.692043001244
 31
0.0
  0
LINE
  5
   32E
  8
0
  6
CONTINUOUS
 62
     7
 10
217.142627486455
 20
79.0393888825886
 30
0.0
 11
218.262242253366
 21
78.7393889013334
 31
0.0
  0
LINE
  5
   32F
  8
0
  6
CONTINUOUS
 62
     7
 10
217.142623546719
 20
79.0393926960269
 30
0.0
 11
217.142623546719
 21
83.0393927556316
 31
0.0
  0
LINE
  5
   330
  8
0
  6
CONTINUOUS
 62
     7
 10
217.142623663733
 20
83.0393874059305
 30
0.0
 11
218.262247964848
 21
83.3393874077219
 31
0.0
  0
LINE
  5
   331
  8
0
  6
CONTINUOUS
 62
     7
 10
217.062256568872
 20
93.127668104289
 30
0.0
 11
217.142640625694
 21
93.4815377266711
 31
0.0
  0
LINE
  5
   332
  8
0
  6
CONTINUOUS
 62
     7
 10
217.100341060127
 20
93.4815384304843
 30
0.0
 11
217.142636135221
 21
93.4815384304843
 31
0.0
  0
LINE
  5
   333
  8
0
  6
CONTINUOUS
 62
     7
 10
217.089046186871
 20
87.8393833454712
 30
0.0
 11
217.142635050953
 21
87.8791660593279
 31
0.0
  0
LINE
  5
   334
  8
0
  6
CONTINUOUS
 62
     7
 10
217.062254173723
 20
87.8592606562451
 30
0.0
 11
217.089049750177
 21
87.8393693000311
 31
0.0
  0
LINE
  5
   335
  8
0
  6
CONTINUOUS
 62
     7
 10
217.062252070302
 20
91.8393936306238
 30
0.0
 11
217.14263651669
 21
91.8393936306238
 31
0.0
  0
LINE
  5
   336
  8
0
  6
CONTINUOUS
 62
     7
 10
217.062249883547
 20
89.4194789423155
 30
0.0
 11
217.089045460001
 21
89.4393702985295
 31
0.0
  0
LINE
  5
   337
  8
0
  6
CONTINUOUS
 62
     7
 10
217.089049332437
 20
89.4393805836461
 30
0.0
 11
217.142638196519
 21
89.3995978697894
 31
0.0
  0
LINE
  5
   338
  8
0
  6
CONTINUOUS
 62
     7
 10
217.062249807722
 20
92.772131185875
 30
0.0
 11
217.105919303997
 21
92.5282224936237
 31
0.0
  0
LINE
  5
   339
  8
0
  6
CONTINUOUS
 62
     7
 10
217.105921261557
 20
92.5282253207523
 30
0.0
 11
217.142636196579
 21
91.8393947703518
 31
0.0
  0
LINE
  5
   33A
  8
0
  6
CONTINUOUS
 62
     7
 10
216.856106380367
 20
87.9002758762326
 30
0.0
 11
217.062250330233
 21
87.8592724621381
 31
0.0
  0
LINE
  5
   33B
  8
0
  6
CONTINUOUS
 62
     7
 10
216.842635883324
 20
87.9092809757723
 30
0.0
 11
216.856107486834
 21
87.9002782906856
 31
0.0
  0
LINE
  5
   33C
  8
0
  6
CONTINUOUS
 62
     7
 10
216.842629954077
 20
89.3694838926564
 30
0.0
 11
216.856102320063
 21
89.3784865779288
 31
0.0
  0
LINE
  5
   33D
  8
0
  6
CONTINUOUS
 62
     7
 10
216.856104957763
 20
89.3784846611904
 30
0.0
 11
217.062248145149
 21
89.4194880689039
 31
0.0
  0
LINE
  5
   33E
  8
0
  6
CONTINUOUS
 62
     7
 10
216.84263651222
 20
91.8393936306238
 30
0.0
 11
217.062252070302
 21
91.8393936306238
 31
0.0
  0
LINE
  5
   33F
  8
0
  6
CONTINUOUS
 62
     7
 10
216.542634720257
 20
87.9629863844121
 30
0.0
 11
216.842634717765
 21
87.9092754584872
 31
0.0
  0
LINE
  5
   340
  8
0
  6
CONTINUOUS
 62
     7
 10
216.542634256026
 20
89.3157742635919
 30
0.0
 11
216.842634253534
 21
89.3694851895169
 31
0.0
  0
LINE
  5
   341
  8
0
  6
CONTINUOUS
 62
     7
 10
216.54263650775
 20
91.8393936306238
 30
0.0
 11
216.84263651222
 21
91.8393936306238
 31
0.0
  0
LINE
  5
   342
  8
0
  6
CONTINUOUS
 62
     7
 10
215.742636877298
 20
89.3157790910659
 30
0.0
 11
216.54263650775
 21
89.3157790910659
 31
0.0
  0
LINE
  5
   343
  8
0
  6
CONTINUOUS
 62
     7
 10
215.742636877298
 20
91.8393936306238
 30
0.0
 11
216.54263650775
 21
91.8393936306238
 31
0.0
  0
LINE
  5
   344
  8
0
  6
CONTINUOUS
 62
     7
 10
215.742636877298
 20
87.9629958677829
 30
0.0
 11
216.54263650775
 21
87.9629958677829
 31
0.0
  0
LINE
  5
   345
  8
0
  6
CONTINUOUS
 62
     3
 10
215.342636871338
 20
128.719399062991
 30
0.0
 11
253.022636212588
 21
128.719399062991
 31
0.0
  0
LINE
  5
   346
  8
0
  6
CONTINUOUS
 62
     3
 10
244.142637300968
 20
62.9593989986182
 30
0.0
 11
253.022636212588
 21
62.9593989986182
 31
0.0
  0
LINE
  5
   347
  8
0
  6
CONTINUOUS
 62
     3
 10
244.142637300968
 20
62.9593989986182
 30
0.0
 11
244.142637300968
 21
78.7393934354186
 31
0.0
  0
LINE
  5
   348
  8
0
  6
CONTINUOUS
 62
     3
 10
244.14263730097
 20
83.3393874004482
 30
0.0
 11
244.14263730097
 21
84.4394179344181
 31
0.0
  0
LINE
  5
   349
  8
0
  6
CONTINUOUS
 62
     3
 10
244.142637300491
 20
123.639413018563
 30
0.0
 11
244.142637300491
 21
129.839394196868
 31
0.0
  0
LINE
  5
   34A
  8
0
  6
CONTINUOUS
 62
     3
 10
255.942637476802
 20
101.01894088655
 30
0.0
 11
255.942637476802
 21
104.839265650509
 31
0.0
  0
LINE
  5
   34B
  8
0
  6
CONTINUOUS
 62
     3
 10
255.942615825247
 20
80.6595625921297
 30
0.0
 11
255.942634135794
 21
78.039274848562
 31
0.0
  0
LINE
  5
   34C
  8
0
  6
CONTINUOUS
 62
     3
 10
253.022636212588
 20
123.339400203526
 30
0.0
 11
254.14263744998
 21
123.339400203526
 31
0.0
  0
LINE
  5
   34D
  8
0
  6
CONTINUOUS
 62
     3
 10
253.022636212588
 20
62.9594005244971
 30
0.0
 11
253.022636212588
 21
71.7394004482461
 31
0.0
  0
LINE
  5
   34E
  8
0
  6
CONTINUOUS
 62
     3
 10
244.142636077443
 20
83.339393503964
 30
0.0
 11
253.022634989062
 21
83.339393503964
 31
0.0
  0
LINE
  5
   34F
  8
0
  6
CONTINUOUS
 62
     3
 10
244.142636353607
 20
78.7393934354186
 30
0.0
 11
253.022635265226
 21
78.7393934354186
 31
0.0
  0
LINE
  5
   350
  8
0
  6
CONTINUOUS
 62
     1
 10
253.022636212588
 20
120.139394052327
 30
0.0
 11
255.142637083411
 21
120.139394052327
 31
0.0
  0
LINE
  5
   351
  8
0
  6
CONTINUOUS
 62
     1
 10
253.942637447
 20
71.7393998160959
 30
0.0
 11
254.14263744998
 21
71.7393998160959
 31
0.0
  0
LINE
  5
   352
  8
0
  6
CONTINUOUS
 62
     1
 10
253.022636212588
 20
71.739400448246
 30
0.0
 11
254.14263744998
 21
71.7394001430699
 31
0.0
  0
LINE
  5
   353
  8
0
  6
CONTINUOUS
 62
     2
 10
259.543161658652
 20
74.139393748343
 30
0.0
 11
259.543161658652
 21
74.9393926158547
 31
0.0
  0
LINE
  5
   354
  8
0
  6
CONTINUOUS
 62
     2
 10
255.94316162885
 20
73.939393365355
 30
0.0
 11
255.94316162885
 21
115.939393991204
 31
0.0
  0
LINE
  5
   355
  8
0
  6
CONTINUOUS
 62
     2
 10
255.142637083411
 20
115.939393989742
 30
0.0
 11
257.343104883021
 21
115.939393989742
 31
0.0
  0
LINE
  5
   356
  8
0
  6
CONTINUOUS
 62
     2
 10
255.142637083411
 20
73.939393364837
 30
0.0
 11
257.343104883021
 21
73.939393364837
 31
0.0
  0
LINE
  5
   357
  8
0
  6
CONTINUOUS
 62
     2
 10
259.54313890824
 20
81.3393870447337
 30
0.0
 11
259.543161414954
 21
74.1393930410041
 31
0.0
  0
LINE
  5
   358
  8
0
  6
CONTINUOUS
 62
     2
 10
259.543083791451
 20
86.5393873054319
 30
0.0
 11
259.543137578684
 21
81.7393872339811
 31
0.0
  0
LINE
  5
   359
  8
0
  6
CONTINUOUS
 62
     2
 10
259.543160514243
 20
86.9393933717638
 30
0.0
 11
259.543160514243
 21
94.7393873844772
 31
0.0
  0
LINE
  5
   35A
  8
0
  6
CONTINUOUS
 62
     2
 10
259.543080914209
 20
86.9393831484606
 30
0.0
 11
259.543102276513
 21
94.7393832651863
 31
0.0
  0
LINE
  5
   35B
  8
0
  6
CONTINUOUS
 62
     2
 10
259.543018290562
 20
99.9393863498237
 30
0.0
 11
259.543101450917
 21
95.1393862783465
 31
0.0
  0
LINE
  5
   35C
  8
0
  6
CONTINUOUS
 62
     7
 10
241.742621432792
 20
101.43938335324
 30
0.0
 11
242.742634227972
 21
101.43938335324
 31
0.0
  0
LINE
  5
   35D
  8
0
  6
CONTINUOUS
 62
     7
 10
255.142637083411
 20
115.939393989742
 30
0.0
 11
255.142637083411
 21
120.139394052327
 31
0.0
  0
LINE
  5
   35E
  8
0
  6
CONTINUOUS
 62
     7
 10
255.142637083411
 20
71.7393998705916
 30
0.0
 11
255.142637083411
 21
73.939393364837
 31
0.0
  0
LINE
  5
   35F
  8
0
  6
CONTINUOUS
 62
     2
 10
253.022636212588
 20
120.139394052327
 30
0.0
 11
253.022636212588
 21
120.239398936629
 31
0.0
  0
LINE
  5
   360
  8
0
  6
CONTINUOUS
 62
     3
 10
253.022636212588
 20
71.7394004482461
 30
0.0
 11
253.022636212588
 21
120.139394052327
 31
0.0
  0
ARC
  5
   361
  8
0
  6
CONTINUOUS
 62
     7
 10
267.813053576947
 20
86.1218408851968
 30
0.0
 40
0.399999924262788
 50
348.623601768641
 51
436.688817106542
  0
ARC
  5
   362
  8
0
  6
CONTINUOUS
 62
     7
 10
267.334356986975
 20
83.7427134257059
 30
0.0
 40
0.400000304059165
 50
260.594020595617
 51
348.623601768641
  0
LINE
  5
   363
  8
0
  6
DASHDOT
 62
     7
 10
253.686611852801
 20
87.7119055436982
 30
0.0
 11
273.733288734712
 21
83.6783792675618
 31
0.0
  0
LINE
  5
   364
  8
0
  6
CONTINUOUS
 62
     7
 10
259.543085159672
 20
88.489525702159
 30
0.0
 11
267.90514936361
 21
86.5110941123214
 31
0.0
  0
LINE
  5
   365
  8
0
  6
CONTINUOUS
 62
     7
 10
267.72649818776
 20
83.6638119775188
 30
0.0
 11
268.205194646297
 21
86.0429394634552
 31
0.0
  0
LINE
  5
   366
  8
0
  6
CONTINUOUS
 62
     7
 10
259.543105210609
 20
84.627930765576
 30
0.0
 11
267.26898539037
 21
83.3480912091852
 31
0.0
  0
LINE
  5
   367
  8
0
  6
DASHDOT
 62
     7
 10
213.342636841536
 20
55.6733923469825
 30
0.0
 11
213.342636841536
 21
64.0393932163715
 31
0.0
  0
LINE
  5
   368
  8
0
  6
CONTINUOUS
 62
     7
 10
224.542637008429
 20
154.439394563437
 30
0.0
 11
229.536042063153
 21
154.439394563437
 31
0.0
  0
LINE
  5
   369
  8
0
  6
CONTINUOUS
 62
     7
 10
224.542637008429
 20
154.142755055108
 30
0.0
 11
224.542637008429
 21
156.759394598007
 31
0.0
  0
LINE
  5
   36A
  8
0
  6
CONTINUOUS
 62
     7
 10
222.542636978626
 20
162.039394676685
 30
0.0
 11
224.542637008429
 21
162.039394676685
 31
0.0
  0
LINE
  5
   36B
  8
0
  6
CONTINUOUS
 62
     7
 10
222.542636978626
 20
154.142755055108
 30
0.0
 11
222.542636978626
 21
155.239394575357
 31
0.0
  0
LINE
  5
   36C
  8
0
  6
CONTINUOUS
 62
     7
 10
215.342636871338
 20
71.2393982908813
 30
0.0
 11
222.542636978626
 21
71.2393982908813
 31
0.0
  0
LINE
  5
   36D
  8
0
  6
CONTINUOUS
 62
     7
 10
220.942636954784
 20
71.2393982908813
 30
0.0
 11
220.942636954784
 21
72.4326760532192
 31
0.0
  0
LINE
  5
   36E
  8
0
  6
CONTINUOUS
 62
     7
 10
222.542636978626
 20
71.2393982908813
 30
0.0
 11
222.542636978626
 21
72.4326760532192
 31
0.0
  0
LINE
  5
   36F
  8
0
  6
CONTINUOUS
 62
     7
 10
224.942637014389
 20
71.2393982908813
 30
0.0
 11
224.942637014389
 21
72.4326760532192
 31
0.0
  0
LINE
  5
   370
  8
0
  6
CONTINUOUS
 62
     7
 10
224.942637014389
 20
71.2393982908813
 30
0.0
 11
234.22586562004
 21
71.2393982908813
 31
0.0
  0
LINE
  5
   371
  8
0
  6
CONTINUOUS
 62
     3
 10
214.787507858198
 20
72.4326760532192
 30
0.0
 11
234.081517503628
 21
72.4326760532192
 31
0.0
  0
LINE
  5
   372
  8
0
  6
CONTINUOUS
 62
     7
 10
222.542636978626
 20
63.6393981776325
 30
0.0
 11
223.742636615038
 21
63.6393981776325
 31
0.0
  0
LINE
  5
   373
  8
0
  6
CONTINUOUS
 62
     7
 10
223.742636615038
 20
63.6393981776324
 30
0.0
 11
223.742636615038
 21
65.6393932402134
 31
0.0
  0
LINE
  5
   374
  8
0
  6
CONTINUOUS
 62
     7
 10
222.542636978624
 20
70.439393311739
 30
0.0
 11
222.542636978624
 21
72.4326760532192
 31
0.0
  0
LINE
  5
   375
  8
0
  6
CONTINUOUS
 62
     7
 10
223.742636615038
 20
63.6393981776324
 30
0.0
 11
224.542636626959
 21
63.6393981776324
 31
0.0
  0
LINE
  5
   376
  8
0
  6
CONTINUOUS
 62
     7
 10
223.742636615038
 20
72.0393983028021
 30
0.0
 11
224.542636626959
 21
72.0393983028021
 31
0.0
  0
INSERT
  5
   377
  8
0
  6
CONTINUOUS
 62
     7
  2
*HATCH53
 10
215.342636108398
 20
90.8393936157227
 30
0.0
 41
0.400000005960464
 42
0.400000005960464
 43
0.400000005960464
  0
LINE
  5
   378
  8
0
  6
CONTINUOUS
 62
     7
 10
222.542636978624
 20
68.8793932884932
 30
0.0
 11
224.542636626959
 21
68.8793932884932
 31
0.0
  0
LINE
  5
   379
  8
0
  6
CONTINUOUS
 62
     7
 10
222.542636978624
 20
65.5993932396173
 30
0.0
 11
224.542636626959
 21
65.5993932396173
 31
0.0
  0
INSERT
  5
   37A
  8
0
  6
CONTINUOUS
 62
     7
  2
*HATCH54
 10
215.342636108398
 20
90.8393936157227
 30
0.0
 41
0.400000005960464
 42
0.400000005960464
 43
0.400000005960464
  0
ARC
  5
   37B
  8
0
  6
DASHDOT
 62
     7
 10
238.142956366327
 20
90.8393936157227
 30
0.0
 40
30.4177082930624
 50
337.492314756863
 51
360.0
  0
LINE
  5
   37C
  8
0
  6
DASHDOT
 62
     7
 10
268.56066465939
 20
90.8393936157226
 30
0.0
 11
268.56066465939
 21
93.1394735038915
 31
0.0
  0
LINE
  5
   37D
  8
0
  6
CONTINUOUS
 62
     7
 10
222.542636978626
 20
160.119394648075
 30
0.0
 11
224.542637008429
 21
160.119394648075
 31
0.0
  0
LINE
  5
   37E
  8
0
  6
CONTINUOUS
 62
     7
 10
222.542636978626
 20
156.759394598007
 30
0.0
 11
224.542637008429
 21
156.759394598007
 31
0.0
  0
LINE
  5
   37F
  8
0
  6
CONTINUOUS
 62
     1
 10
257.343104883021
 20
72.9393933489919
 30
0.0
 11
257.343104883021
 21
73.7393933609128
 31
0.0
  0
LINE
  5
   380
  8
0
  6
CONTINUOUS
 62
     1
 10
257.343104883021
 20
72.9393933489919
 30
0.0
 11
258.143104894942
 21
72.9393933489919
 31
0.0
  0
LINE
  5
   381
  8
0
  6
CONTINUOUS
 62
     1
 10
257.343104883021
 20
116.139392466843
 30
0.0
 11
257.343104883021
 21
116.939392478764
 31
0.0
  0
LINE
  5
   382
  8
0
  6
CONTINUOUS
 62
     1
 10
257.343104883021
 20
116.939392478764
 30
0.0
 11
258.143104894942
 21
116.939392478764
 31
0.0
  0
LINE
  5
   383
  8
0
  6
CONTINUOUS
 62
     1
 10
257.343104883021
 20
73.7393933609128
 30
0.0
 11
257.343104883021
 21
116.139393992722
 31
0.0
  0
LINE
  5
   384
  8
0
  6
CONTINUOUS
 62
     1
 10
255.543104927724
 20
122.370331280394
 30
0.0
 11
255.543104927724
 21
124.308453867869
 31
0.0
  0
LINE
  5
   385
  8
0
  6
CONTINUOUS
 62
     1
 10
255.543104927724
 20
65.5703334857664
 30
0.0
 11
255.543104927724
 21
67.5084530214825
 31
0.0
  0
LINE
  5
   386
  8
0
  6
CONTINUOUS
 62
     1
 10
258.143104894942
 20
62.739393197
 30
0.0
 11
258.143104894942
 21
127.139394156635
 31
0.0
  0
LINE
  5
   387
  8
0
  6
CONTINUOUS
 62
     1
 10
259.543104915803
 20
62.739393197
 30
0.0
 11
259.543104915803
 21
127.139394156635
 31
0.0
  0
LINE
  5
   388
  8
0
  6
CONTINUOUS
 62
     1
 10
255.94310490124
 20
122.13939255625
 30
0.0
 11
258.143104894942
 21
122.13939255625
 31
0.0
  0
LINE
  5
   389
  8
0
  6
CONTINUOUS
 62
     1
 10
255.943104947768
 20
124.539392592013
 30
0.0
 11
258.143104894942
 21
124.539392592013
 31
0.0
  0
LINE
  5
   38A
  8
0
  6
CONTINUOUS
 62
     1
 10
255.543105232162
 20
122.370330364465
 30
0.0
 11
255.943105251293
 21
122.139391637425
 31
0.0
  0
LINE
  5
   38B
  8
0
  6
CONTINUOUS
 62
     1
 10
255.94310482526
 20
122.13939255625
 30
0.0
 11
255.94310482526
 21
122.230737772455
 31
0.0
  0
LINE
  5
   38C
  8
0
  6
CONTINUOUS
 62
     1
 10
255.94310490124
 20
122.13939255625
 30
0.0
 11
255.94310490124
 21
122.490863508753
 31
0.0
  0
LINE
  5
   38D
  8
0
  6
CONTINUOUS
 62
     1
 10
255.943104919085
 20
122.490863508753
 30
0.0
 11
255.943104919085
 21
122.880176258695
 31
0.0
  0
LINE
  5
   38E
  8
0
  6
CONTINUOUS
 62
     1
 10
255.943104929004
 20
122.880176258695
 30
0.0
 11
255.943104929004
 21
123.339392574131
 31
0.0
  0
LINE
  5
   38F
  8
0
  6
CONTINUOUS
 62
     1
 10
255.943104937722
 20
123.339392574131
 30
0.0
 11
255.943104937722
 21
123.798614993084
 31
0.0
  0
LINE
  5
   390
  8
0
  6
CONTINUOUS
 62
     1
 10
255.943104947768
 20
123.798614993084
 30
0.0
 11
255.943104947768
 21
124.539392592013
 31
0.0
  0
LINE
  5
   391
  8
0
  6
CONTINUOUS
 62
     1
 10
255.943104966036
 20
124.18792163951
 30
0.0
 11
255.943104966036
 21
124.448047375808
 31
0.0
  0
LINE
  5
   392
  8
0
  6
CONTINUOUS
 62
     1
 10
255.543104584852
 20
124.308452915173
 30
0.0
 11
255.943104603983
 21
124.539391642213
 31
0.0
  0
LINE
  5
   393
  8
0
  6
CONTINUOUS
 62
     1
 10
255.943105044379
 20
124.448047375808
 30
0.0
 11
255.943105044379
 21
124.539392592013
 31
0.0
  0
LINE
  5
   394
  8
0
  6
CONTINUOUS
 62
     1
 10
255.943105735047
 20
67.7393932715058
 30
0.0
 11
258.143104894942
 21
67.7393932715058
 31
0.0
  0
LINE
  5
   395
  8
0
  6
CONTINUOUS
 62
     1
 10
255.943104261624
 20
65.3393932357431
 30
0.0
 11
258.143104894942
 21
65.3393932357431
 31
0.0
  0
LINE
  5
   396
  8
0
  6
CONTINUOUS
 62
     1
 10
255.943104971742
 20
67.6480480553009
 30
0.0
 11
255.943104971742
 21
67.7393932715058
 31
0.0
  0
LINE
  5
   397
  8
0
  6
CONTINUOUS
 62
     1
 10
255.543104723662
 20
67.5084524613818
 30
0.0
 11
255.943104742794
 21
67.7393926986283
 31
0.0
  0
LINE
  5
   398
  8
0
  6
CONTINUOUS
 62
     1
 10
255.943104953931
 20
67.3879207931239
 30
0.0
 11
255.943104953931
 21
67.6480480553009
 31
0.0
  0
LINE
  5
   399
  8
0
  6
CONTINUOUS
 62
     1
 10
255.943104949903
 20
66.9986141466978
 30
0.0
 11
255.943104949903
 21
67.3879207931239
 31
0.0
  0
LINE
  5
   39A
  8
0
  6
CONTINUOUS
 62
     1
 10
255.943104947653
 20
66.5393932536244
 30
0.0
 11
255.943104947653
 21
66.9986141466978
 31
0.0
  0
LINE
  5
   39B
  8
0
  6
CONTINUOUS
 62
     1
 10
255.943104945726
 20
66.08017388643
 30
0.0
 11
255.943104945726
 21
66.5393932536244
 31
0.0
  0
LINE
  5
   39C
  8
0
  6
CONTINUOUS
 62
     1
 10
255.943104943665
 20
65.6908657141249
 30
0.0
 11
255.943104943665
 21
66.08017388643
 31
0.0
  0
LINE
  5
   39D
  8
0
  6
CONTINUOUS
 62
     1
 10
255.943104939977
 20
65.4307384519479
 30
0.0
 11
255.943104939977
 21
65.6908657141249
 31
0.0
  0
LINE
  5
   39E
  8
0
  6
CONTINUOUS
 62
     1
 10
255.943104924548
 20
65.3393932357431
 30
0.0
 11
255.943104924548
 21
65.430738451948
 31
0.0
  0
LINE
  5
   39F
  8
0
  6
CONTINUOUS
 62
     1
 10
255.543105092928
 20
65.5703329819899
 30
0.0
 11
255.94310511206
 21
65.3393927447434
 31
0.0
  0
LINE
  5
   3A0
  8
0
  6
CONTINUOUS
 62
     7
 10
258.143104894942
 20
127.139394156635
 30
0.0
 11
258.143104894942
 21
172.33714160859
 31
0.0
  0
LINE
  5
   3A1
  8
0
  6
CONTINUOUS
 62
     7
 10
257.343104883021
 20
116.139393992722
 30
0.0
 11
257.343104883021
 21
122.13939255625
 31
0.0
  0
LINE
  5
   3A2
  8
0
  6
CONTINUOUS
 62
     7
 10
258.143104894942
 20
44.3502444298027
 30
0.0
 11
258.143104894942
 21
62.739393197
 31
0.0
  0
LINE
  5
   3A3
  8
0
  6
CONTINUOUS
 62
     7
 10
257.343104883021
 20
43.7745434866447
 30
0.0
 11
257.343104883021
 21
65.3393932357431
 31
0.0
  0
LINE
  5
   3A4
  8
0
  6
CONTINUOUS
 62
     3
 10
255.835040098312
 20
42.6893006041905
 30
0.0
 11
259.724608370485
 21
45.4883357159412
 31
0.0
  0
LINE
  5
   3A5
  8
0
  6
CONTINUOUS
 62
     7
 10
257.343104883021
 20
124.739392594993
 30
0.0
 11
258.143104894942
 21
124.739392594993
 31
0.0
  0
LINE
  5
   3A6
  8
0
  6
CONTINUOUS
 62
     7
 10
257.343104883021
 20
121.93939255327
 30
0.0
 11
258.143104894942
 21
121.93939255327
 31
0.0
  0
LINE
  5
   3A7
  8
0
  6
CONTINUOUS
 62
     7
 10
257.343104883021
 20
117.339392484725
 30
0.0
 11
258.143104894942
 21
117.339392484725
 31
0.0
  0
LINE
  5
   3A8
  8
0
  6
CONTINUOUS
 62
     7
 10
257.343104883021
 20
72.5393933430314
 30
0.0
 11
258.143104894942
 21
72.5393933430314
 31
0.0
  0
LINE
  5
   3A9
  8
0
  6
CONTINUOUS
 62
     7
 10
257.343104883021
 20
67.9393932744861
 30
0.0
 11
258.143104894942
 21
67.9393932744861
 31
0.0
  0
LINE
  5
   3AA
  8
0
  6
CONTINUOUS
 62
     7
 10
257.343104883021
 20
65.1393932327628
 30
0.0
 11
258.143104894942
 21
65.1393932327628
 31
0.0
  0
LINE
  5
   3AB
  8
0
  6
CONTINUOUS
 62
     7
 10
257.343104883021
 20
67.7393932715058
 30
0.0
 11
257.343104883021
 21
72.9393933489919
 31
0.0
  0
LINE
  5
   3AC
  8
0
  6
CONTINUOUS
 62
     7
 10
257.343104883021
 20
124.539392592013
 30
0.0
 11
257.343104883021
 21
172.414300172916
 31
0.0
  0
INSERT
  5
   3AD
  8
0
  6
CONTINUOUS
 62
     7
  2
*HATCH55
 10
215.342636108398
 20
90.8393936157227
 30
0.0
 41
0.400000005960464
 42
0.400000005960464
 43
0.400000005960464
  0
INSERT
  5
   3AE
  8
0
  6
CONTINUOUS
 62
     7
  2
*HATCH56
 10
215.342636108398
 20
90.8393936157227
 30
0.0
 41
0.400000005960464
 42
0.400000005960464
 43
0.400000005960464
  0
INSERT
  5
   3AF
  8
0
  6
CONTINUOUS
 62
     7
  2
*HATCH57
 10
215.342636108398
 20
90.8393936157227
 30
0.0
 41
0.400000005960464
 42
0.400000005960464
 43
0.400000005960464
  0
LINE
  5
   3B0
  8
0
  6
DASHDOT
 62
     7
 10
175.537804919501
 20
94.9393936768174
 30
0.0
 11
271.025297065586
 21
94.9393936768174
 31
0.0
  0
LINE
  5
   3B1
  8
0
  6
CONTINUOUS
 62
     3
 10
234.081517503628
 20
72.4326760532192
 30
0.0
 11
235.590563174527
 21
59.9578985071216
 31
0.0
  0
INSERT
  5
   3B2
  8
0
  6
CONTINUOUS
 62
     7
  2
*HATCH58
 10
215.342636108398
 20
90.8393936157227
 30
0.0
 41
0.400000005960464
 42
0.400000005960464
 43
0.400000005960464
  0
LINE
  5
   3B3
  8
0
  6
CONTINUOUS
 62
     3
 10
241.056184804292
 20
155.049560217427
 30
0.0
 11
241.596664862415
 21
165.060190859179
 31
0.0
  0
LINE
  5
   3B4
  8
0
  6
CONTINUOUS
 62
     3
 10
215.074268948045
 20
154.142755055108
 30
0.0
 11
229.536042063153
 21
154.142755055108
 31
0.0
  0
LINE
  5
   3B5
  8
0
  6
CONTINUOUS
 62
     3
 10
229.536042063153
 20
154.142755055108
 30
0.0
 11
229.536042063153
 21
155.049560217427
 31
0.0
  0
LINE
  5
   3B6
  8
0
  6
CONTINUOUS
 62
     7
 10
224.542636626959
 20
63.6393981776324
 30
0.0
 11
224.542636626959
 21
65.6393932402134
 31
0.0
  0
LINE
  5
   3B7
  8
0
  6
CONTINUOUS
 62
     7
 10
224.542636626959
 20
68.8393932878971
 30
0.0
 11
224.542636626959
 21
72.0393983028021
 31
0.0
  0
LINE
  5
   3B8
  8
0
  6
CONTINUOUS
 62
     7
 10
223.742636615038
 20
68.8393932878971
 30
0.0
 11
223.742636615038
 21
72.4326760532192
 31
0.0
  0
LINE
  5
   3B9
  8
0
  6
CONTINUOUS
 62
     1
 10
258.143104894942
 20
127.139394156635
 30
0.0
 11
259.543104915803
 21
127.139394156635
 31
0.0
  0
LINE
  5
   3BA
  8
0
  6
CONTINUOUS
 62
     1
 10
258.143104894942
 20
62.739393197
 30
0.0
 11
259.543104915803
 21
62.739393197
 31
0.0
  0
LINE
  5
   3BB
  8
0
  6
CONTINUOUS
 62
     3
 10
229.536042063153
 20
155.049560217427
 30
0.0
 11
241.056184804292
 21
155.049560217427
 31
0.0
  0
INSERT
  5
   3BC
  8
0
  6
CONTINUOUS
 62
     7
  2
*HATCH59
 10
215.342636108398
 20
90.8393936157227
 30
0.0
 41
0.400000005960464
 42
0.400000005960464
 43
0.400000005960464
  0
LINE
  5
   3BD
  8
0
  6
CONTINUOUS
 62
     3
 10
255.02958090861
 20
172.637435405092
 30
0.0
 11
260.67427332971
 21
172.093014959109
 31
0.0
  0
INSERT
  5
   3BE
  8
0
  6
CONTINUOUS
 62
     7
  2
*HATCH60
 10
215.342636108398
 20
90.8393936157227
 30
0.0
 41
0.400000005960464
 42
0.400000005960464
 43
0.400000005960464
  0
LINE
  5
   3BF
  8
0
  6
CONTINUOUS
 62
   130
 10
241.463805172798
 20
162.599398347139
 30
0.0
 11
244.142637300491
 21
162.599398347139
 31
0.0
  0
LINE
  5
   3C0
  8
0
  6
CONTINUOUS
 62
   130
 10
244.142637300491
 20
157.119399486184
 30
0.0
 11
244.142637300491
 21
162.839399655828
 31
0.0
  0
LINE
  5
   3C1
  8
0
  6
CONTINUOUS
 62
   130
 10
244.142637300491
 20
128.839399149188
 30
0.0
 11
244.142637300491
 21
130.3195028466
 31
0.0
  0
LINE
  5
   3C2
  8
0
  6
CONTINUOUS
 62
   130
 10
215.342636871338
 20
128.839399149188
 30
0.0
 11
215.342636871338
 21
155.239394575357
 31
0.0
  0
LINE
  5
   3C3
  8
0
  6
CONTINUOUS
 62
   130
 10
215.342636871338
 20
150.119399381876
 30
0.0
 11
216.94263689518
 21
150.119399381876
 31
0.0
  0
LINE
  5
   3C4
  8
0
  6
CONTINUOUS
 62
   130
 10
216.94263689518
 20
150.119399381876
 30
0.0
 11
216.94263689518
 21
154.142755055108
 31
0.0
  0
LINE
  5
   3C5
  8
0
  6
CONTINUOUS
 62
   130
 10
242.74263727963
 20
154.319399444461
 30
0.0
 11
242.782636669874
 21
154.319399444461
 31
0.0
  0
LINE
  5
   3C6
  8
0
  6
CONTINUOUS
 62
   130
 10
242.74263727963
 20
157.119399486184
 30
0.0
 11
244.142637300491
 21
157.119399486184
 31
0.0
  0
LINE
  5
   3C7
  8
0
  6
CONTINUOUS
 62
   130
 10
242.74263727963
 20
130.319435707927
 30
0.0
 11
244.142637300491
 21
130.319435707927
 31
0.0
  0
LINE
  5
   3C8
  8
0
  6
CONTINUOUS
 62
   130
 10
242.74263727963
 20
133.119435749651
 30
0.0
 11
242.782636669874
 21
133.119435749651
 31
0.0
  0
LINE
  5
   3C9
  8
0
  6
CONTINUOUS
 62
   130
 10
242.74263727963
 20
130.319435707927
 30
0.0
 11
242.74263727963
 21
157.119399486184
 31
0.0
  0
LINE
  5
   3CA
  8
0
  6
CONTINUOUS
 62
   210
 10
244.142637300491
 20
162.599398347139
 30
0.0
 11
253.022636212111
 21
162.599398347139
 31
0.0
  0
LINE
  5
   3CB
  8
0
  6
CONTINUOUS
 62
   210
 10
244.142637300491
 20
130.319435707927
 30
0.0
 11
244.142637300491
 21
130.419399088323
 31
0.0
  0
LINE
  5
   3CC
  8
0
  6
CONTINUOUS
 62
   210
 10
244.142637300491
 20
157.019399484694
 30
0.0
 11
244.142637300491
 21
157.119399486184
 31
0.0
  0
LINE
  5
   3CD
  8
0
  6
CONTINUOUS
 62
   210
 10
253.022636212111
 20
133.219399130046
 30
0.0
 11
253.142637434602
 21
133.219399130046
 31
0.0
  0
LINE
  5
   3CE
  8
0
  6
CONTINUOUS
 62
   210
 10
253.022636212111
 20
130.219399085343
 30
0.0
 11
253.142637434602
 21
130.219399085343
 31
0.0
  0
LINE
  5
   3CF
  8
0
  6
CONTINUOUS
 62
   210
 10
253.022636212111
 20
129.719399077892
 30
0.0
 11
253.142637434602
 21
129.719399077892
 31
0.0
  0
LINE
  5
   3D0
  8
0
  6
CONTINUOUS
 62
   210
 10
253.022636212111
 20
129.839399164089
 30
0.0
 11
253.022636212111
 21
162.599398347139
 31
0.0
  0
LINE
  5
   3D1
  8
0
  6
CONTINUOUS
 62
   210
 10
242.982636672854
 20
130.419399088323
 30
0.0
 11
244.142637300491
 21
130.419399088323
 31
0.0
  0
LINE
  5
   3D2
  8
0
  6
CONTINUOUS
 62
   210
 10
242.841215872018
 20
130.477982368678
 30
0.0
 11
242.982637385636
 21
130.419400824532
 31
0.0
  0
LINE
  5
   3D3
  8
0
  6
CONTINUOUS
 62
   210
 10
242.782636261633
 20
130.619393095498
 30
0.0
 11
242.841214753803
 21
130.477974639951
 31
0.0
  0
LINE
  5
   3D4
  8
0
  6
CONTINUOUS
 62
   210
 10
242.782636669874
 20
130.619399091303
 30
0.0
 11
242.782636669874
 21
132.819399124086
 31
0.0
  0
LINE
  5
   3D5
  8
0
  6
CONTINUOUS
 62
   210
 10
242.782636669874
 20
154.619399448931
 30
0.0
 11
242.782636669874
 21
156.819399481714
 31
0.0
  0
LINE
  5
   3D6
  8
0
  6
CONTINUOUS
 62
   210
 10
242.782633302446
 20
156.819389984723
 30
0.0
 11
242.841211794617
 21
156.96080844027
 31
0.0
  0
LINE
  5
   3D7
  8
0
  6
CONTINUOUS
 62
   210
 10
242.841217335055
 20
156.960820948329
 30
0.0
 11
242.982638848672
 21
157.019402492474
 31
0.0
  0
LINE
  5
   3D8
  8
0
  6
CONTINUOUS
 62
   210
 10
242.982636672854
 20
157.019399484694
 30
0.0
 11
244.142637300491
 21
157.019399484694
 31
0.0
  0
LINE
  5
   3D9
  8
0
  6
CONTINUOUS
 62
   210
 10
242.782636669874
 20
132.819399124086
 30
0.0
 11
242.782636669874
 21
154.619399448931
 31
0.0
  0
LINE
  5
   3DA
  8
0
  6
CONTINUOUS
 62
     2
 10
253.142637434602
 20
120.239398936629
 30
0.0
 11
253.142637434602
 21
154.039399440289
 31
0.0
  0
LINE
  5
   3DB
  8
0
  6
CONTINUOUS
 62
     2
 10
255.142637464404
 20
120.63939894259
 30
0.0
 11
255.142637464404
 21
148.639399359822
 31
0.0
  0
LINE
  5
   3DC
  8
0
  6
CONTINUOUS
 62
     2
 10
255.142637464404
 20
149.039399365783
 30
0.0
 11
255.142637464404
 21
154.039399440289
 31
0.0
  0
LINE
  5
   3DD
  8
0
  6
CONTINUOUS
 62
     2
 10
253.142637434602
 20
154.039399440289
 30
0.0
 11
254.142637449503
 21
154.039399440289
 31
0.0
  0
LINE
  5
   3DE
  8
0
  6
CONTINUOUS
 62
     2
 10
253.142637434602
 20
120.239398936629
 30
0.0
 11
254.742637458444
 21
120.239398936629
 31
0.0
  0
LINE
  5
   3DF
  8
0
  6
CONTINUOUS
 62
     2
 10
254.742637458444
 20
149.039399365783
 30
0.0
 11
255.142637464404
 21
149.039399365783
 31
0.0
  0
LINE
  5
   3E0
  8
0
  6
CONTINUOUS
 62
     2
 10
254.742637458444
 20
148.639399359822
 30
0.0
 11
255.142637464404
 21
148.639399359822
 31
0.0
  0
LINE
  5
   3E1
  8
0
  6
CONTINUOUS
 62
     2
 10
254.742637458444
 20
148.639399359822
 30
0.0
 11
254.742637458444
 21
149.039399365783
 31
0.0
  0
LINE
  5
   3E2
  8
0
  6
CONTINUOUS
 62
     2
 10
254.742637458444
 20
120.239398936629
 30
0.0
 11
254.742637458444
 21
120.63939894259
 31
0.0
  0
LINE
  5
   3E3
  8
0
  6
CONTINUOUS
 62
     2
 10
253.342637437582
 20
120.63939894259
 30
0.0
 11
254.742637458444
 21
120.63939894259
 31
0.0
  0
LINE
  5
   3E4
  8
0
  6
CONTINUOUS
 62
     2
 10
253.342637437582
 20
120.63939894259
 30
0.0
 11
253.342637437582
 21
154.039399440289
 31
0.0
  0
LINE
  5
   3E5
  8
0
  6
CONTINUOUS
 62
   210
 10
253.022635323189
 20
134.419397725259
 30
0.0
 11
253.142633495154
 21
134.3666145204
 31
0.0
  0
LINE
  5
   3E6
  8
0
  6
CONTINUOUS
 62
   210
 10
253.022637858377
 20
153.019401322335
 30
0.0
 11
253.142639083831
 21
153.072184525136
 31
0.0
  0
LINE
  5
   3E7
  8
0
  6
CONTINUOUS
 62
     2
 10
254.742637458444
 20
120.63939894259
 30
0.0
 11
255.142637464404
 21
120.63939894259
 31
0.0
  0
LINE
  5
   3E8
  8
0
  6
CONTINUOUS
 62
     2
 10
254.142637449503
 20
154.039399440289
 30
0.0
 11
254.742637458444
 21
154.039399440289
 31
0.0
  0
LINE
  5
   3E9
  8
0
  6
CONTINUOUS
 62
   130
 10
215.342636871338
 20
128.839399149188
 30
0.0
 11
253.142637434602
 21
128.839399149188
 31
0.0
  0
LINE
  5
   3EA
  8
0
  6
CONTINUOUS
 62
     7
 10
255.142637464404
 20
154.439399446249
 30
0.0
 11
255.142637464404
 21
164.339399678179
 31
0.0
  0
ARC
  5
   3EB
  8
0
  6
CONTINUOUS
 62
     7
 10
254.642637456954
 20
164.339399678179
 30
0.0
 40
0.500000007450581
 50
0.0
 51
90.0
  0
LINE
  5
   3EC
  8
0
  6
CONTINUOUS
 62
     7
 10
253.142637434602
 20
154.039399440289
 30
0.0
 11
253.142637434602
 21
162.839399655828
 31
0.0
  0
LINE
  5
   3ED
  8
0
  6
CONTINUOUS
 62
     7
 10
241.476762989933
 20
162.839399655828
 30
0.0
 11
253.142637434602
 21
162.839399655828
 31
0.0
  0
LINE
  5
   3EE
  8
0
  6
CONTINUOUS
 62
     7
 10
241.48756111216
 20
163.039399658808
 30
0.0
 11
253.342637437582
 21
163.039399658808
 31
0.0
  0
LINE
  5
   3EF
  8
0
  6
CONTINUOUS
 62
     7
 10
253.342637437582
 20
154.439399446249
 30
0.0
 11
253.342637437582
 21
163.039399658808
 31
0.0
  0
LINE
  5
   3F0
  8
0
  6
CONTINUOUS
 62
     7
 10
253.342637437582
 20
154.439399446249
 30
0.0
 11
254.742637458444
 21
154.439399446249
 31
0.0
  0
LINE
  5
   3F1
  8
0
  6
CONTINUOUS
 62
     7
 10
254.742637458444
 20
154.0418966006
 30
0.0
 11
254.742637458444
 21
154.439399446249
 31
0.0
  0
LINE
  5
   3F2
  8
0
  6
CONTINUOUS
 62
     7
 10
215.342636871338
 20
164.83939968563
 30
0.0
 11
254.642637456954
 21
164.83939968563
 31
0.0
  0
LINE
  5
   3F3
  8
0
  6
CONTINUOUS
 62
     7
 10
215.342636871338
 20
163.839399670729
 30
0.0
 11
241.530753601066
 21
163.839399670729
 31
0.0
  0
LINE
  5
   3F4
  8
0
  6
CONTINUOUS
 62
     7
 10
254.742637458444
 20
154.439399446249
 30
0.0
 11
255.142637464404
 21
154.439399446249
 31
0.0
  0
LINE
  5
   3F5
  8
0
  6
CONTINUOUS
 62
     2
 10
254.742637458444
 20
154.039399440289
 30
0.0
 11
255.142637464404
 21
154.039399440289
 31
0.0
  0
LINE
  5
   3F6
  8
0
  6
CONTINUOUS
 62
     2
 10
253.022636212588
 20
120.239398936629
 30
0.0
 11
253.022636212588
 21
128.719399062991
 31
0.0
  0
LINE
  5
   3F7
  8
0
  6
CONTINUOUS
 62
     1
 10
254.14263744998
 20
71.7394001430699
 30
0.0
 11
255.142637083411
 21
71.7393998705916
 31
0.0
  0
LINE
  5
   3F8
  8
0
  6
CONTINUOUS
 62
     7
 10
222.542636978626
 20
161.639394670725
 30
0.0
 11
222.542636978626
 21
162.039394676685
 31
0.0
  0
INSERT
  5
   3F9
  8
0
  6
CONTINUOUS
 62
     7
  2
*HATCH61
 10
215.342636108398
 20
90.8393936157227
 30
0.0
 41
0.400000005960464
 42
0.400000005960464
 43
0.400000005960464
  0
INSERT
  5
   3FA
  8
0
  6
CONTINUOUS
 62
     7
  2
*HATCH62
 10
215.342636108398
 20
90.8393936157227
 30
0.0
 41
0.400000005960464
 42
0.400000005960464
 43
0.400000005960464
  0
LINE
  5
   3FB
  8
0
  6
CONTINUOUS
 62
     7
 10
224.542637008429
 20
160.119394648075
 30
0.0
 11
224.542637008429
 21
162.039394676685
 31
0.0
  0
INSERT
  5
   3FC
  8
0
  6
CONTINUOUS
 62
     7
  2
*HATCH63
 10
215.342636108398
 20
90.8393936157227
 30
0.0
 41
0.400000005960464
 42
0.400000005960464
 43
0.400000005960464
  0
INSERT
  5
   3FD
  8
0
  6
CONTINUOUS
 62
     7
  2
*HATCH64
 10
215.342636108398
 20
90.8393936157227
 30
0.0
 41
0.400000005960464
 42
0.400000005960464
 43
0.400000005960464
  0
INSERT
  5
   3FE
  8
0
  6
CONTINUOUS
 62
     7
  2
*HATCH65
 10
215.342636108398
 20
90.8393936157227
 30
0.0
 41
0.400000005960464
 42
0.400000005960464
 43
0.400000005960464
  0
LINE
  5
   3FF
  8
0
  6
CONTINUOUS
 62
     7
 10
215.342636871338
 20
60.8393981359092
 30
0.0
 11
254.642637456954
 21
60.8393981359092
 31
0.0
  0
LINE
  5
   400
  8
0
  6
CONTINUOUS
 62
     7
 10
215.342636871338
 20
61.8393981508104
 30
0.0
 11
235.362962411177
 21
61.8393981508104
 31
0.0
  0
LINE
  5
   401
  8
0
  6
CONTINUOUS
 62
     7
 10
235.266188216187
 20
62.6393981627313
 30
0.0
 11
253.342637437582
 21
62.6393981627313
 31
0.0
  0
LINE
  5
   402
  8
0
  6
CONTINUOUS
 62
     7
 10
235.241994667439
 20
62.8393981657115
 30
0.0
 11
253.142637434602
 21
62.8393981657115
 31
0.0
  0
LINE
  5
   403
  8
0
  6
CONTINUOUS
 62
   210
 10
253.022636212111
 20
63.0793994743998
 30
0.0
 11
253.022636212111
 21
71.7394004482461
 31
0.0
  0
LINE
  5
   404
  8
0
  6
CONTINUOUS
 62
     7
 10
253.142637434602
 20
62.8393981657115
 30
0.0
 11
253.142637434602
 21
71.6393983812506
 31
0.0
  0
LINE
  5
   405
  8
0
  6
CONTINUOUS
 62
     7
 10
253.342637437582
 20
62.6393981627313
 30
0.0
 11
253.342637437582
 21
71.2393983752901
 31
0.0
  0
LINE
  5
   406
  8
0
  6
CONTINUOUS
 62
     7
 10
253.342637437582
 20
71.2393983752901
 30
0.0
 11
254.742637458444
 21
71.2393983752901
 31
0.0
  0
LINE
  5
   407
  8
0
  6
CONTINUOUS
 62
     7
 10
254.742637458444
 20
71.2393983752901
 30
0.0
 11
254.742637458444
 21
71.6369012209391
 31
0.0
  0
LINE
  5
   408
  8
0
  6
CONTINUOUS
 62
     7
 10
254.742637458444
 20
71.2393983752901
 30
0.0
 11
255.142637464404
 21
71.2393983752901
 31
0.0
  0
LINE
  5
   409
  8
0
  6
CONTINUOUS
 62
     7
 10
255.142637464404
 20
61.3393981433598
 30
0.0
 11
255.142637464404
 21
71.2393983752901
 31
0.0
  0
ARC
  5
   40A
  8
0
  6
CONTINUOUS
 62
     7
 10
254.642637456954
 20
61.3393981433598
 30
0.0
 40
0.500000007450581
 50
270.0
 51
360.0
  0
LINE
  5
   40B
  8
0
  6
CONTINUOUS
 62
     2
 10
253.142637434602
 20
71.6393983812506
 30
0.0
 11
254.742637458444
 21
71.6393983812506
 31
0.0
  0
INSERT
  5
   40C
  8
0
  6
CONTINUOUS
 62
     7
  2
*HATCH66
 10
215.342636108398
 20
90.8393936157227
 30
0.0
 41
0.400000005960464
 42
0.400000005960464
 43
0.400000005960464
  0
INSERT
  5
   40D
  8
255
  6
CONTINUOUS
 62
     7
  2
TERM_POST_
 10
215.342636108399
 20
124.839394122362
 30
0.0
 41
0.400000005960464
 42
0.400000005960464
 43
0.400000005960464
  0
INSERT
  5
   40E
  8
255
  6
CONTINUOUS
 62
     7
  2
TERM_POST_
 10
215.342636108396
 20
33.6393927633762
 30
0.0
 41
0.400000005960464
 42
0.400000005960464
 43
0.400000005960464
  0
LINE
  5
   40F
  8
0
  6
CONTINUOUS
 62
     7
 10
222.542636978626
 20
63.6393981776325
 30
0.0
 11
222.542636978626
 21
64.0393932163715
 31
0.0
  0
LINE
  5
   410
  8
0
  6
CONTINUOUS
 62
     7
 10
215.342636871338
 20
70.439393311739
 30
0.0
 11
215.342636871338
 21
77.9570863792642
 31
0.0
  0
LINE
  5
   411
  8
0
  6
DASHDOT
 62
     7
 10
214.542636859417
 20
70.439393311739
 30
0.0
 11
214.542636859417
 21
155.239394575357
 31
0.0
  0
LINE
  5
   412
  8
0
  6
DASHDOT
 62
     7
 10
213.342636841536
 20
70.439393311739
 30
0.0
 11
213.342636841536
 21
155.239394575357
 31
0.0
  0
LINE
  5
   413
  8
0
  6
DASHDOT
 62
     7
 10
213.342636841536
 20
72.0393933355808
 30
0.0
 11
214.542636859417
 21
72.0393933355808
 31
0.0
  0
LINE
  5
   414
  8
0
  6
DASHDOT
 62
     7
 10
213.342636841536
 20
62.4393931925297
 30
0.0
 11
214.542636859417
 21
62.4393931925297
 31
0.0
  0
LINE
  5
   415
  8
0
  6
CONTINUOUS
 62
   130
 10
215.342636871338
 20
161.639394670725
 30
0.0
 11
215.342636871338
 21
164.83939968563
 31
0.0
  0
LINE
  5
   416
  8
0
  6
DASHDOT
 62
     7
 10
214.542636859417
 20
161.639394670725
 30
0.0
 11
214.542636859417
 21
167.85071682123
 31
0.0
  0
LINE
  5
   417
  8
0
  6
DASHDOT
 62
     7
 10
213.342636841536
 20
161.639394670725
 30
0.0
 11
213.342636841536
 21
167.85071682123
 31
0.0
  0
LINE
  5
   418
  8
0
  6
DASHDOT
 62
     7
 10
213.342636841536
 20
163.239394694567
 30
0.0
 11
214.542636859417
 21
163.239394694567
 31
0.0
  0
LINE
  5
   419
  8
0
  6
DASHDOT
 62
     7
 10
213.342636841536
 20
153.639394551516
 30
0.0
 11
214.542636859417
 21
153.639394551516
 31
0.0
  0
INSERT
  5
   41A
  8
0
  6
CONTINUOUS
 62
     7
  2
*UDIM160
 10
0.0
 20
0.0
 30
0.0
  0
INSERT
  5
   41B
  8
0
  6
CONTINUOUS
 62
     7
  2
*UDIM161
 10
0.0
 20
0.0
 30
0.0
  0
INSERT
  5
   41C
  8
0
  6
CONTINUOUS
 62
     7
  2
*UDIM162
 10
0.0
 20
0.0
 30
0.0
  0
INSERT
  5
   41D
  8
0
  6
CONTINUOUS
 62
     7
  2
*UDIM163
 10
0.0
 20
0.0
 30
0.0
  0
INSERT
  5
   41E
  8
0
  6
CONTINUOUS
 62
     7
  2
*UDIM164
 10
0.0
 20
0.0
 30
0.0
  0
INSERT
  5
   41F
  8
0
  6
CONTINUOUS
 62
     7
  2
*UDIM165
 10
0.0
 20
0.0
 30
0.0
  0
INSERT
  5
   420
  8
0
  6
CONTINUOUS
 62
     7
  2
*UDIM166
 10
0.0
 20
0.0
 30
0.0
  0
INSERT
  5
   421
  8
0
  6
CONTINUOUS
 62
     7
  2
*UDIM167
 10
0.0
 20
0.0
 30
0.0
  0
INSERT
  5
   422
  8
0
  6
CONTINUOUS
 62
     7
  2
*UDIM168
 10
0.0
 20
0.0
 30
0.0
  0
INSERT
  5
   423
  8
0
  6
CONTINUOUS
 62
     7
  2
*UDIM169
 10
0.0
 20
0.0
 30
0.0
  0
INSERT
  5
   424
  8
0
  6
CONTINUOUS
 62
     7
  2
*UDIM170
 10
0.0
 20
0.0
 30
0.0
  0
INSERT
  5
   425
  8
0
  6
CONTINUOUS
 62
     7
  2
*UDIM171
 10
0.0
 20
0.0
 30
0.0
  0
TEXT
  5
   426
  8
0
  6
CONTINUOUS
 62
     7
 10
280.61103914493
 20
86.7727008572484
 30
0.0
 40
2.99999994933605
  1
=    =
 50
90.0
 41
0.91666673368878
 72
     1
 11
279.111039170252
 21
94.7477013198034
 31
0.0
 73
     2
  0
TEXT
  5
   427
  8
0
  6
CONTINUOUS
 62
     7
 10
280.953477200282
 20
93.8165440230151
 30
0.0
 40
2.99999994933605
  1
X
 41
0.916666607525612
 72
     2
 11
283.153477018488
 21
93.8165440230151
 31
0.0
  0
LINE
  5
   428
  8
0
  6
CONTINUOUS
 62
     7
 10
86.355970336665
 20
163.839393963557
 30
0.0
 11
74.4559724693289
 21
163.839393963557
 31
0.0
  0
LINE
  5
   429
  8
0
  6
CONTINUOUS
 62
     7
 10
88.67077107977
 20
163.839393963557
 30
0.0
 11
87.7559703575267
 21
163.839393963557
 31
0.0
  0
LINE
  5
   42A
  8
0
  6
CONTINUOUS
 62
     7
 10
74.0559724633685
 20
162.719392726164
 30
0.0
 11
74.0559724633685
 21
163.439393957596
 31
0.0
  0
LINE
  5
   42B
  8
0
  6
CONTINUOUS
 62
     7
 10
74.0559724633685
 20
162.719392726164
 30
0.0
 11
73.0559724484673
 21
162.719392726164
 31
0.0
  0
LINE
  5
   42C
  8
0
  6
CONTINUOUS
 62
     7
 10
73.0559679508122
 20
127.13939646844
 30
0.0
 11
73.0559679508122
 21
162.719392726164
 31
0.0
  0
LINE
  5
   42D
  8
0
  6
CONTINUOUS
 62
     7
 10
88.055970361997
 20
161.239393924814
 30
0.0
 11
86.0559703321947
 21
161.239393924814
 31
0.0
  0
LINE
  5
   42E
  8
0
  6
CONTINUOUS
 62
     7
 10
74.0559700922997
 20
154.039391810894
 30
0.0
 11
74.0559700922997
 21
162.719392726164
 31
0.0
  0
CIRCLE
  5
   42F
  8
0
  6
CONTINUOUS
 62
     7
 10
80.0559723083036
 20
158.839390248423
 30
0.0
 40
2.20000058570355
  0
ARC
  5
   430
  8
0
  6
CONTINUOUS
 62
     7
 10
74.4559734897035
 20
163.439394410528
 30
0.0
 40
0.40000160241227
 50
90.0000472185487
 51
180.000478784316
  0
CIRCLE
  5
   431
  8
0
  6
CONTINUOUS
 62
     7
 10
80.0559789814
 20
66.8393938810909
 30
0.0
 40
2.19999878903394
  0
ARC
  5
   432
  8
0
  6
DOT
 62
     7
 10
87.0559774906193
 20
68.0393933916476
 30
0.0
 40
1.79999922154889
 50
359.999999948034
 51
496.521683037288
  0
CIRCLE
  5
   433
  8
0
  6
DOT
 62
     7
 10
94.0559756359977
 20
66.8393920294253
 30
0.0
 40
2.19999885163413
  0
CIRCLE
  5
   434
  8
0
  6
DOT
 62
     7
 10
101.055978815317
 20
68.0393832414602
 30
0.0
 40
1.79999176240177
  0
CIRCLE
  5
   435
  8
0
  6
DOT
 62
     7
 10
108.056001961566
 20
66.8393441453797
 30
0.0
 40
2.20005287110646
  0
LINE
  5
   436
  8
0
  6
DASHDOT
 62
     7
 10
80.0559703985517
 20
160.479395828564
 30
0.0
 11
80.0559703985517
 21
163.999399504254
 31
0.0
  0
LINE
  5
   437
  8
0
  6
DASHDOT
 62
     7
 10
80.0559723083036
 20
155.439389644839
 30
0.0
 11
80.0559723083036
 21
162.239390852008
 31
0.0
  0
LINE
  5
   438
  8
0
  6
DASHDOT
 62
     7
 10
83.4559729118885
 20
158.839390248423
 30
0.0
 11
76.6559717047186
 21
158.839390248423
 31
0.0
  0
LINE
  5
   439
  8
0
  6
DASHDOT
 62
     7
 10
80.0559789814
 20
63.4393950741756
 30
0.0
 11
80.0559789814
 21
70.2393926880062
 31
0.0
  0
LINE
  5
   43A
  8
0
  6
DASHDOT
 62
     7
 10
83.4559777883153
 20
66.8393938810909
 30
0.0
 11
76.6559801744846
 21
66.8393938810909
 31
0.0
  0
LINE
  5
   43B
  8
0
  6
DASHDOT
 62
     7
 10
87.0559774906193
 20
60.8685231087892
 30
0.0
 11
87.0559774906193
 21
71.0393926310778
 31
0.0
  0
LINE
  5
   43C
  8
0
  6
DASHDOT
 62
     7
 10
90.0559767300496
 20
68.0393933916476
 30
0.0
 11
84.055978251189
 21
68.0393933916476
 31
0.0
  0
LINE
  5
   43D
  8
0
  6
DASHDOT
 62
     7
 10
97.4559745055132
 20
66.8393920294253
 30
0.0
 11
90.6559767664822
 21
66.8393920294253
 31
0.0
  0
LINE
  5
   43E
  8
0
  6
DASHDOT
 62
     7
 10
104.055970595601
 20
68.0393832414602
 30
0.0
 11
98.0559870350342
 21
68.0393832414602
 31
0.0
  0
LINE
  5
   43F
  8
0
  6
DASHDOT
 62
     7
 10
108.056001961566
 20
63.4392912563918
 30
0.0
 11
108.056001961566
 21
70.2393970343675
 31
0.0
  0
LINE
  5
   440
  8
0
  6
DASHDOT
 62
     7
 10
111.456054850554
 20
66.8393441453797
 30
0.0
 11
104.655949072578
 21
66.8393441453797
 31
0.0
  0
LINE
  5
   441
  8
0
  6
DASHDOT
 62
     7
 10
108.05598080516
 20
61.6793969837312
 30
0.0
 11
108.05598080516
 21
65.1993910539729
 31
0.0
  0
LINE
  5
   442
  8
0
  6
DASHDOT
 62
     7
 10
80.0559776238974
 20
61.6793925631265
 30
0.0
 11
80.0559776238974
 21
65.1993927768799
 31
0.0
  0
LINE
  5
   443
  8
0
  6
CONTINUOUS
 62
     3
 10
114.855978703499
 20
115.939396301547
 30
0.0
 11
73.2559841871262
 21
115.939396301547
 31
0.0
  0
LINE
  5
   444
  8
0
  6
CONTINUOUS
 62
     3
 10
114.855978703499
 20
73.9394017792145
 30
0.0
 11
109.455978646874
 21
73.9394017792145
 31
0.0
  0
LINE
  5
   445
  8
0
  6
CONTINUOUS
 62
     3
 10
104.855978554487
 20
73.9394017792141
 30
0.0
 11
95.0356960494611
 21
73.9394017792141
 31
0.0
  0
LINE
  5
   446
  8
0
  6
CONTINUOUS
 62
     3
 10
78.6559842675925
 20
73.9394017792035
 30
0.0
 11
73.2559841871262
 21
73.9394017792035
 31
0.0
  0
LINE
  5
   447
  8
0
  6
CONTINUOUS
 62
     3
 10
83.2559843361378
 20
73.9394017792131
 30
0.0
 11
78.6559842675925
 21
73.9394017792131
 31
0.0
  0
LINE
  5
   448
  8
0
  6
CONTINUOUS
 62
     3
 10
109.455978623032
 20
73.9394017792145
 30
0.0
 11
104.855978554487
 21
73.9394017792145
 31
0.0
  0
LINE
  5
   449
  8
0
  6
DASHDOT
 62
     7
 10
94.0559844970703
 20
66.6909229435255
 30
0.0
 11
94.0559844970703
 21
108.00903122707
 31
0.0
  0
ARC
  5
   44A
  8
0
  6
CONTINUOUS
 62
     3
 10
73.2559841871262
 20
74.1394017821837
 30
0.0
 40
0.200000002980232
 50
179.999999948034
 51
269.999999948034
  0
ARC
  5
   44B
  8
0
  6
CONTINUOUS
 62
     3
 10
73.2559841871262
 20
115.739396298567
 30
0.0
 40
0.200000002980232
 50
449.999999948034
 51
539.999999948034
  0
ARC
  5
   44C
  8
0
  6
CONTINUOUS
 62
     3
 10
114.855978703499
 20
115.739396298567
 30
0.0
 40
0.200000002980232
 50
359.999999948034
 51
449.999999948034
  0
ARC
  5
   44D
  8
0
  6
CONTINUOUS
 62
     3
 10
114.855978703499
 20
74.1394017821948
 30
0.0
 40
0.200000002980232
 50
269.999999948034
 51
359.999999948034
  0
LINE
  5
   44E
  8
0
  6
CONTINUOUS
 62
     3
 10
93.0762043817444
 20
73.9394017792141
 30
0.0
 11
83.2559843361378
 21
73.9394017792141
 31
0.0
  0
LINE
  5
   44F
  8
0
  6
CONTINUOUS
 62
     7
 10
83.0559782296418
 20
73.9393956756986
 30
0.0
 11
79.0559842735529
 21
73.9393956756986
 31
0.0
  0
LINE
  5
   450
  8
0
  6
CONTINUOUS
 62
     7
 10
109.055972513556
 20
73.9393956756986
 30
0.0
 11
105.055972453952
 21
73.9393956756986
 31
0.0
  0
LINE
  5
   451
  8
0
  6
CONTINUOUS
 62
     7
 10
115.055984809995
 20
74.1393956786788
 30
0.0
 11
115.055984809995
 21
81.3393896824515
 31
0.0
  0
LINE
  5
   452
  8
0
  6
CONTINUOUS
 62
     7
 10
73.0559841841459
 20
74.1393956786788
 30
0.0
 11
73.0559841841459
 21
81.3393896824515
 31
0.0
  0
LINE
  5
   453
  8
0
  6
CONTINUOUS
 62
     7
 10
114.855984807014
 20
115.939396301547
 30
0.0
 11
73.2559841871373
 21
115.939396301547
 31
0.0
  0
LINE
  5
   454
  8
0
  6
CONTINUOUS
 62
     7
 10
79.0559842735529
 20
73.9393956756986
 30
0.0
 11
73.2559841871262
 21
73.9393956756986
 31
0.0
  0
LINE
  5
   455
  8
0
  6
CONTINUOUS
 62
     7
 10
105.055972453952
 20
73.9393956756986
 30
0.0
 11
83.0559782296418
 21
73.9393956756986
 31
0.0
  0
LINE
  5
   456
  8
0
  6
CONTINUOUS
 62
     7
 10
114.855984807014
 20
73.9393956756986
 30
0.0
 11
109.055972513556
 21
73.9393956756986
 31
0.0
  0
LINE
  5
   457
  8
0
  6
CONTINUOUS
 62
     7
 10
98.3559845611453
 20
82.8393897048032
 30
0.0
 11
98.3559845611453
 21
98.8393838397061
 31
0.0
  0
LINE
  5
   458
  8
0
  6
CONTINUOUS
 62
     7
 10
89.7559844329953
 20
82.8393897048032
 30
0.0
 11
89.7559844329953
 21
98.8393838397061
 31
0.0
  0
LINE
  5
   459
  8
0
  6
CONTINUOUS
 62
     7
 10
115.055984809995
 20
111.13938402299
 30
0.0
 11
73.0559841841459
 21
111.13938402299
 31
0.0
  0
LINE
  5
   45A
  8
0
  6
CONTINUOUS
 62
     7
 10
115.055984809995
 20
115.139384082595
 30
0.0
 11
73.0559841841459
 21
115.139384082595
 31
0.0
  0
LINE
  5
   45B
  8
0
  6
CONTINUOUS
 62
     7
 10
98.3559845611453
 20
98.7335977053172
 30
0.0
 11
89.7559844329953
 21
98.7335977053172
 31
0.0
  0
LINE
  5
   45C
  8
0
  6
CONTINUOUS
 62
     7
 10
98.3559845611453
 20
98.8393838397061
 30
0.0
 11
89.7559844329953
 21
98.8393838397061
 31
0.0
  0
LINE
  5
   45D
  8
0
  6
CONTINUOUS
 62
     7
 10
98.3559845611453
 20
82.8393897048032
 30
0.0
 11
89.7559844329953
 21
82.8393897048032
 31
0.0
  0
LINE
  5
   45E
  8
0
  6
CONTINUOUS
 62
     7
 10
98.3559845611453
 20
82.9451880462235
 30
0.0
 11
89.7559844329953
 21
82.9451880462235
 31
0.0
  0
LINE
  5
   45F
  8
0
  6
DASHDOT
 62
     7
 10
94.0559844970703
 20
56.7258575426793
 30
0.0
 11
94.0559844970703
 21
166.967137834211
 31
0.0
  0
LINE
  5
   460
  8
0
  6
CONTINUOUS
 62
     7
 10
115.055978706479
 20
81.7393896884119
 30
0.0
 11
115.055978706479
 21
86.5393865786421
 31
0.0
  0
LINE
  5
   461
  8
0
  6
CONTINUOUS
 62
     7
 10
115.055978706479
 20
100.339389965574
 30
0.0
 11
115.055978706479
 21
115.739396298567
 31
0.0
  0
LINE
  5
   462
  8
0
  6
CONTINUOUS
 62
     7
 10
115.055978706479
 20
86.9393865846025
 30
0.0
 11
115.055978706479
 21
94.739389882127
 31
0.0
  0
LINE
  5
   463
  8
0
  6
CONTINUOUS
 62
     7
 10
115.055978706479
 20
95.1393898880875
 30
0.0
 11
115.055978706479
 21
99.9393899596131
 31
0.0
  0
LINE
  5
   464
  8
0
  6
CONTINUOUS
 62
     7
 10
73.0559841841439
 20
81.7393896884119
 30
0.0
 11
73.0559841841439
 21
86.5393897599384
 31
0.0
  0
LINE
  5
   465
  8
0
  6
CONTINUOUS
 62
     7
 10
73.0559841841368
 20
86.9393897658989
 30
0.0
 11
73.0559841841368
 21
94.739389882127
 31
0.0
  0
LINE
  5
   466
  8
0
  6
CONTINUOUS
 62
     7
 10
73.055984184148
 20
95.1393898880875
 30
0.0
 11
73.055984184148
 21
99.9393899596131
 31
0.0
  0
LINE
  5
   467
  8
0
  6
CONTINUOUS
 62
     7
 10
73.0559841841571
 20
100.339389965574
 30
0.0
 11
73.0559841841571
 21
115.739396298567
 31
0.0
  0
LINE
  5
   468
  8
0
  6
CONTINUOUS
 62
     7
 10
89.7559812435057
 20
86.5393974541073
 30
0.0
 11
73.4559841662645
 21
86.5393974541073
 31
0.0
  0
LINE
  5
   469
  8
0
  6
CONTINUOUS
 62
     7
 10
115.055978706479
 20
86.5393942728088
 30
0.0
 11
114.655978700519
 21
86.5393942728088
 31
0.0
  0
LINE
  5
   46A
  8
0
  6
CONTINUOUS
 62
     7
 10
89.7559734198703
 20
86.9393974600701
 30
0.0
 11
73.4559841662645
 21
86.9393974600701
 31
0.0
  0
LINE
  5
   46B
  8
0
  6
CONTINUOUS
 62
     7
 10
115.055978706479
 20
86.9393942787692
 30
0.0
 11
114.655978700519
 21
86.9393942787692
 31
0.0
  0
LINE
  5
   46C
  8
0
  6
CONTINUOUS
 62
     7
 10
73.4559841662645
 20
86.5393897599375
 30
0.0
 11
73.4559841662645
 21
86.939389765898
 31
0.0
  0
LINE
  5
   46D
  8
0
  6
CONTINUOUS
 62
     7
 10
114.655978700519
 20
86.5393897599375
 30
0.0
 11
114.655978700519
 21
86.939389765898
 31
0.0
  0
LINE
  5
   46E
  8
0
  6
CONTINUOUS
 62
     7
 10
115.055984809995
 20
81.3393896824515
 30
0.0
 11
114.655978700519
 21
81.3393896824515
 31
0.0
  0
LINE
  5
   46F
  8
0
  6
CONTINUOUS
 62
     7
 10
115.055978706479
 20
81.7393896884119
 30
0.0
 11
114.655978700519
 21
81.7393896884119
 31
0.0
  0
LINE
  5
   470
  8
0
  6
CONTINUOUS
 62
     7
 10
73.4559841662645
 20
81.3393896824515
 30
0.0
 11
73.4559841662645
 21
81.7393896884119
 31
0.0
  0
LINE
  5
   471
  8
0
  6
CONTINUOUS
 62
     7
 10
114.655978700519
 20
81.3393896824515
 30
0.0
 11
114.655978700519
 21
81.7393896884119
 31
0.0
  0
LINE
  5
   472
  8
0
  6
CONTINUOUS
 62
     7
 10
115.055978706479
 20
99.9393899596131
 30
0.0
 11
114.655978700519
 21
99.9393899596131
 31
0.0
  0
LINE
  5
   473
  8
0
  6
CONTINUOUS
 62
     7
 10
115.055978706479
 20
100.339389965574
 30
0.0
 11
114.655978700519
 21
100.339389965574
 31
0.0
  0
LINE
  5
   474
  8
0
  6
CONTINUOUS
 62
     7
 10
73.4559841662645
 20
99.9393899596131
 30
0.0
 11
73.4559841662645
 21
100.339389965574
 31
0.0
  0
LINE
  5
   475
  8
0
  6
CONTINUOUS
 62
     7
 10
114.655978700519
 20
99.9393899596131
 30
0.0
 11
114.655978700519
 21
100.339389965574
 31
0.0
  0
LINE
  5
   476
  8
0
  6
CONTINUOUS
 62
     7
 10
89.7559812620282
 20
94.739389882127
 30
0.0
 11
73.4559841662645
 21
94.739389882127
 31
0.0
  0
LINE
  5
   477
  8
0
  6
CONTINUOUS
 62
     7
 10
115.055978706479
 20
94.739389882127
 30
0.0
 11
114.655978700519
 21
94.739389882127
 31
0.0
  0
LINE
  5
   478
  8
0
  6
CONTINUOUS
 62
     7
 10
89.7559844329953
 20
95.1393898880875
 30
0.0
 11
73.4559841662645
 21
95.1393898880875
 31
0.0
  0
LINE
  5
   479
  8
0
  6
CONTINUOUS
 62
     7
 10
115.055978706479
 20
95.1393898880875
 30
0.0
 11
114.655978700519
 21
95.1393898880875
 31
0.0
  0
LINE
  5
   47A
  8
0
  6
CONTINUOUS
 62
     7
 10
73.4559841662645
 20
94.739389882127
 30
0.0
 11
73.4559841662645
 21
95.1393898880875
 31
0.0
  0
LINE
  5
   47B
  8
0
  6
CONTINUOUS
 62
     7
 10
114.655978700519
 20
94.739389882127
 30
0.0
 11
114.655978700519
 21
95.1393898880875
 31
0.0
  0
ARC
  5
   47C
  8
0
  6
CONTINUOUS
 62
     7
 10
73.2559841871262
 20
74.1393956786788
 30
0.0
 40
0.200000002980232
 50
179.999999948034
 51
269.999999948034
  0
ARC
  5
   47D
  8
0
  6
CONTINUOUS
 62
     7
 10
114.855984807014
 20
74.1393956786788
 30
0.0
 40
0.200000002980232
 50
269.999999948034
 51
359.999999948034
  0
ARC
  5
   47E
  8
0
  6
CONTINUOUS
 62
     7
 10
114.855984807014
 20
115.739396298567
 30
0.0
 40
0.200000002980232
 50
359.999999948034
 51
449.999999948034
  0
ARC
  5
   47F
  8
0
  6
CONTINUOUS
 62
     7
 10
73.2559841871373
 20
115.739396298567
 30
0.0
 40
0.200000002980232
 50
449.999999948034
 51
539.999999948034
  0
LINE
  5
   480
  8
0
  6
CONTINUOUS
 62
     7
 10
85.0559843629599
 20
99.3393899506724
 30
0.0
 11
84.4559843540192
 21
99.3393899506724
 31
0.0
  0
LINE
  5
   481
  8
0
  6
CONTINUOUS
 62
     7
 10
85.0559843629599
 20
95.7393898970282
 30
0.0
 11
84.4559843540192
 21
95.7393898970282
 31
0.0
  0
CIRCLE
  5
   482
  8
0
  6
CONTINUOUS
 62
     7
 10
84.7559843584895
 20
84.1393897241747
 30
0.0
 40
1.80000002682209
  0
CIRCLE
  5
   483
  8
0
  6
CONTINUOUS
 62
     7
 10
84.7559843584895
 20
84.1393897241747
 30
0.0
 40
1.20000001788139
  0
LINE
  5
   484
  8
0
  6
CONTINUOUS
 62
     7
 10
84.4559843540192
 20
95.7393898970282
 30
0.0
 11
84.4559843540192
 21
99.3393899506724
 31
0.0
  0
LINE
  5
   485
  8
0
  6
CONTINUOUS
 62
     7
 10
85.0559843629599
 20
95.7393898970282
 30
0.0
 11
85.0559843629599
 21
99.3393899506724
 31
0.0
  0
LINE
  5
   486
  8
0
  6
CONTINUOUS
 62
     7
 10
88.655984416604
 20
81.7393896884119
 30
0.0
 11
88.655984416604
 21
86.5393954756038
 31
0.0
  0
LINE
  5
   487
  8
0
  6
CONTINUOUS
 62
     7
 10
99.4559845775366
 20
81.7393896884119
 30
0.0
 11
99.4559845775366
 21
86.5393922943053
 31
0.0
  0
LINE
  5
   488
  8
0
  6
CONTINUOUS
 62
     7
 10
99.4559845775366
 20
95.1393898880875
 30
0.0
 11
99.4559845775366
 21
99.9393899596131
 31
0.0
  0
LINE
  5
   489
  8
0
  6
CONTINUOUS
 62
     7
 10
88.655984416604
 20
95.1393898880875
 30
0.0
 11
88.655984416604
 21
99.9393899596131
 31
0.0
  0
LINE
  5
   48A
  8
0
  6
CONTINUOUS
 62
     7
 10
104.27598074311
 20
85.6793897471225
 30
0.0
 11
104.095980740428
 21
85.6793897471225
 31
0.0
  0
LINE
  5
   48B
  8
0
  6
CONTINUOUS
 62
     7
 10
103.895980737448
 20
82.599389701227
 30
0.0
 11
103.575980732679
 21
82.599389701227
 31
0.0
  0
LINE
  5
   48C
  8
0
  6
CONTINUOUS
 62
     7
 10
101.015980694532
 20
83.6393897167242
 30
0.0
 11
101.015980694532
 21
83.8393897197044
 31
0.0
  0
LINE
  5
   48D
  8
0
  6
CONTINUOUS
 62
     7
 10
103.095980725527
 20
83.6393897167242
 30
0.0
 11
103.095980725527
 21
83.8393897197044
 31
0.0
  0
ARC
  5
   48E
  8
0
  6
CONTINUOUS
 62
     7
 10
102.05598071003
 20
83.8393897197044
 30
0.0
 40
1.04000001549721
 50
359.999999948034
 51
539.999999948034
  0
ARC
  5
   48F
  8
0
  6
CONTINUOUS
 62
     7
 10
102.05598071003
 20
83.6393897167242
 30
0.0
 40
1.04000001549721
 50
179.999999948034
 51
359.999999948034
  0
ARC
  5
   490
  8
0
  6
CONTINUOUS
 62
     7
 10
102.05598071003
 20
83.8393897197044
 30
0.0
 40
0.720000010728837
 50
359.999999948034
 51
539.999999948034
  0
ARC
  5
   491
  8
0
  6
CONTINUOUS
 62
     7
 10
102.05598071003
 20
83.6393897167242
 30
0.0
 40
0.720000010728835
 50
179.999999948034
 51
359.999999948034
  0
LINE
  5
   492
  8
0
  6
CONTINUOUS
 62
     7
 10
101.335980699301
 20
83.6393897167242
 30
0.0
 11
101.335980699301
 21
83.8393897197044
 31
0.0
  0
LINE
  5
   493
  8
0
  6
CONTINUOUS
 62
     7
 10
102.775980720758
 20
83.6393897167242
 30
0.0
 11
102.775980720758
 21
83.8393897197044
 31
0.0
  0
LINE
  5
   494
  8
0
  6
CONTINUOUS
 62
     7
 10
103.195980727017
 20
84.3993897280491
 30
0.0
 11
103.195980727017
 21
84.7193897328174
 31
0.0
  0
LINE
  5
   495
  8
0
  6
CONTINUOUS
 62
     7
 10
103.575980732679
 20
84.399389728049
 30
0.0
 11
103.195980727017
 21
84.399389728049
 31
0.0
  0
LINE
  5
   496
  8
0
  6
CONTINUOUS
 62
     7
 10
104.27598074311
 20
84.3993897280491
 30
0.0
 11
104.27598074311
 21
84.7193897328174
 31
0.0
  0
LINE
  5
   497
  8
0
  6
CONTINUOUS
 62
     7
 10
103.575980732679
 20
84.7193897328174
 30
0.0
 11
103.195980727017
 21
84.7193897328174
 31
0.0
  0
LINE
  5
   498
  8
0
  6
CONTINUOUS
 62
     7
 10
103.575980732679
 20
82.599389701227
 30
0.0
 11
103.575980732679
 21
84.3993897280491
 31
0.0
  0
LINE
  5
   499
  8
0
  6
CONTINUOUS
 62
     7
 10
103.895980737448
 20
82.599389701227
 30
0.0
 11
103.895980737448
 21
84.3993897280491
 31
0.0
  0
LINE
  5
   49A
  8
0
  6
CONTINUOUS
 62
     7
 10
104.27598074311
 20
84.399389728049
 30
0.0
 11
103.895980737448
 21
84.399389728049
 31
0.0
  0
LINE
  5
   49B
  8
0
  6
CONTINUOUS
 62
     7
 10
104.27598074311
 20
84.7193897328174
 30
0.0
 11
103.895980737448
 21
84.7193897328174
 31
0.0
  0
LINE
  5
   49C
  8
0
  6
CONTINUOUS
 62
     7
 10
103.575980732679
 20
84.7193897328174
 30
0.0
 11
103.575980732679
 21
85.1593897393739
 31
0.0
  0
LINE
  5
   49D
  8
0
  6
CONTINUOUS
 62
     7
 10
103.895980737448
 20
84.7193897328174
 30
0.0
 11
103.895980737448
 21
85.1593897393739
 31
0.0
  0
ARC
  5
   49E
  8
0
  6
CONTINUOUS
 62
     7
 10
104.095980740428
 20
85.1593897393739
 30
0.0
 40
0.520000007748604
 50
449.999999948034
 51
539.999999948034
  0
ARC
  5
   49F
  8
0
  6
CONTINUOUS
 62
     7
 10
104.095980740428
 20
85.1593897393739
 30
0.0
 40
0.200000002980232
 50
449.999999948034
 51
539.999999948034
  0
LINE
  5
   4A0
  8
0
  6
CONTINUOUS
 62
     7
 10
104.27598074311
 20
85.3593897423542
 30
0.0
 11
104.27598074311
 21
85.6793897471225
 31
0.0
  0
LINE
  5
   4A1
  8
0
  6
CONTINUOUS
 62
     7
 10
104.27598074311
 20
85.3593897423542
 30
0.0
 11
104.095980740428
 21
85.3593897423542
 31
0.0
  0
LINE
  5
   4A2
  8
0
  6
CONTINUOUS
 62
     7
 10
105.555980762184
 20
85.6793897471225
 30
0.0
 11
105.375980759501
 21
85.6793897471225
 31
0.0
  0
LINE
  5
   4A3
  8
0
  6
CONTINUOUS
 62
     7
 10
105.175980756521
 20
82.599389701227
 30
0.0
 11
104.855980751753
 21
82.599389701227
 31
0.0
  0
LINE
  5
   4A4
  8
0
  6
CONTINUOUS
 62
     7
 10
104.47598074609
 20
84.3993897280491
 30
0.0
 11
104.47598074609
 21
84.7193897328174
 31
0.0
  0
LINE
  5
   4A5
  8
0
  6
CONTINUOUS
 62
     7
 10
104.855980751753
 20
84.399389728049
 30
0.0
 11
104.47598074609
 21
84.399389728049
 31
0.0
  0
LINE
  5
   4A6
  8
0
  6
CONTINUOUS
 62
     7
 10
105.555980762184
 20
84.3993897280491
 30
0.0
 11
105.555980762184
 21
84.7193897328174
 31
0.0
  0
LINE
  5
   4A7
  8
0
  6
CONTINUOUS
 62
     7
 10
104.855980751753
 20
84.7193897328174
 30
0.0
 11
104.47598074609
 21
84.7193897328174
 31
0.0
  0
LINE
  5
   4A8
  8
0
  6
CONTINUOUS
 62
     7
 10
104.855980751753
 20
82.599389701227
 30
0.0
 11
104.855980751753
 21
84.3993897280491
 31
0.0
  0
LINE
  5
   4A9
  8
0
  6
CONTINUOUS
 62
     7
 10
105.175980756521
 20
82.599389701227
 30
0.0
 11
105.175980756521
 21
84.3993897280491
 31
0.0
  0
LINE
  5
   4AA
  8
0
  6
CONTINUOUS
 62
     7
 10
105.555980762184
 20
84.399389728049
 30
0.0
 11
105.175980756521
 21
84.399389728049
 31
0.0
  0
LINE
  5
   4AB
  8
0
  6
CONTINUOUS
 62
     7
 10
105.555980762184
 20
84.7193897328174
 30
0.0
 11
105.175980756521
 21
84.7193897328174
 31
0.0
  0
LINE
  5
   4AC
  8
0
  6
CONTINUOUS
 62
     7
 10
104.855980751753
 20
84.7193897328174
 30
0.0
 11
104.855980751753
 21
85.1593897393739
 31
0.0
  0
LINE
  5
   4AD
  8
0
  6
CONTINUOUS
 62
     7
 10
105.175980756521
 20
84.7193897328174
 30
0.0
 11
105.175980756521
 21
85.1593897393739
 31
0.0
  0
ARC
  5
   4AE
  8
0
  6
CONTINUOUS
 62
     7
 10
105.375980759501
 20
85.1593897393739
 30
0.0
 40
0.520000007748604
 50
449.999999948034
 51
539.999999948034
  0
ARC
  5
   4AF
  8
0
  6
CONTINUOUS
 62
     7
 10
105.375980759501
 20
85.1593897393739
 30
0.0
 40
0.200000002980232
 50
449.999999948034
 51
539.999999948034
  0
LINE
  5
   4B0
  8
0
  6
CONTINUOUS
 62
     7
 10
105.555980762184
 20
85.3593897423542
 30
0.0
 11
105.555980762184
 21
85.6793897471225
 31
0.0
  0
LINE
  5
   4B1
  8
0
  6
CONTINUOUS
 62
     7
 10
105.555980762184
 20
85.3593897423542
 30
0.0
 11
105.375980759501
 21
85.3593897423542
 31
0.0
  0
LINE
  5
   4B2
  8
0
  6
CONTINUOUS
 62
     7
 10
103.735980735064
 20
96.399389906863
 30
0.0
 11
103.415980730295
 21
96.399389906863
 31
0.0
  0
ARC
  5
   4B3
  8
0
  6
CONTINUOUS
 62
     7
 10
102.05598071003
 20
97.6393899253404
 30
0.0
 40
1.04000001549721
 50
359.999999948034
 51
539.999999948034
  0
ARC
  5
   4B4
  8
0
  6
CONTINUOUS
 62
     7
 10
102.05598071003
 20
97.6393899253404
 30
0.0
 40
0.720000010728837
 50
359.999999948034
 51
539.999999948034
  0
ARC
  5
   4B5
  8
0
  6
CONTINUOUS
 62
     7
 10
102.05598071003
 20
97.4393899223602
 30
0.0
 40
1.04000001549721
 50
179.999999948034
 51
359.999999948034
  0
ARC
  5
   4B6
  8
0
  6
CONTINUOUS
 62
     7
 10
102.05598071003
 20
97.4393899223602
 30
0.0
 40
0.720000010728835
 50
179.999999948034
 51
359.999999948034
  0
LINE
  5
   4B7
  8
0
  6
CONTINUOUS
 62
     7
 10
102.775980720758
 20
97.4393899223602
 30
0.0
 11
102.775980720758
 21
97.6393899253404
 31
0.0
  0
LINE
  5
   4B8
  8
0
  6
CONTINUOUS
 62
     7
 10
103.095980725527
 20
97.4393899223602
 30
0.0
 11
103.095980725527
 21
97.6393899253404
 31
0.0
  0
LINE
  5
   4B9
  8
0
  6
CONTINUOUS
 62
     7
 10
101.335980699301
 20
97.4393899223602
 30
0.0
 11
101.335980699301
 21
97.6393899253404
 31
0.0
  0
LINE
  5
   4BA
  8
0
  6
CONTINUOUS
 62
     7
 10
101.015980694532
 20
97.4393899223602
 30
0.0
 11
101.015980694532
 21
97.6393899253404
 31
0.0
  0
LINE
  5
   4BB
  8
0
  6
CONTINUOUS
 62
     7
 10
103.415980730295
 20
96.399389906863
 30
0.0
 11
103.415980730295
 21
98.6793899408376
 31
0.0
  0
LINE
  5
   4BC
  8
0
  6
CONTINUOUS
 62
     7
 10
103.735980735063
 20
96.399389906863
 30
0.0
 11
103.735980735063
 21
97.7993899277246
 31
0.0
  0
LINE
  5
   4BD
  8
0
  6
CONTINUOUS
 62
     7
 10
104.855980751753
 20
96.399389906863
 30
0.0
 11
104.855980751753
 21
97.7993899277246
 31
0.0
  0
LINE
  5
   4BE
  8
0
  6
CONTINUOUS
 62
     7
 10
105.175980756521
 20
96.399389906863
 30
0.0
 11
105.175980756521
 21
97.8793899289167
 31
0.0
  0
LINE
  5
   4BF
  8
0
  6
CONTINUOUS
 62
     7
 10
103.735980735064
 20
98.6793899408376
 30
0.0
 11
103.415980730295
 21
98.6793899408376
 31
0.0
  0
ARC
  5
   4C0
  8
0
  6
CONTINUOUS
 62
     7
 10
104.295980743408
 20
97.7993899277246
 30
0.0
 40
0.56000000834465
 50
359.999999948034
 51
539.999999948034
  0
LINE
  5
   4C1
  8
0
  6
CONTINUOUS
 62
     7
 10
103.735980735063
 20
98.3593899360693
 30
0.0
 11
103.735980735063
 21
98.6793899408376
 31
0.0
  0
ARC
  5
   4C2
  8
0
  6
CONTINUOUS
 62
     7
 10
104.3759807446
 20
97.8793899289167
 30
0.0
 40
0.800000011920929
 50
359.999999948034
 51
503.13010230219
  0
LINE
  5
   4C3
  8
0
  6
CONTINUOUS
 62
     7
 10
105.175980756521
 20
96.399389906863
 30
0.0
 11
104.855980751753
 21
96.399389906863
 31
0.0
  0
LINE
  5
   4C4
  8
0
  6
CONTINUOUS
 62
     7
 10
86.355970336665
 20
162.639393945675
 30
0.0
 11
86.355970336665
 21
163.839393963557
 31
0.0
  0
LINE
  5
   4C5
  8
0
  6
CONTINUOUS
 62
     7
 10
87.7559703575267
 20
162.639393945675
 30
0.0
 11
87.7559703575267
 21
163.839393963557
 31
0.0
  0
LINE
  5
   4C6
  8
0
  6
CONTINUOUS
 62
     7
 10
86.0559703321947
 20
161.239393924814
 30
0.0
 11
86.0559703321947
 21
162.639393945675
 31
0.0
  0
LINE
  5
   4C7
  8
0
  6
CONTINUOUS
 62
     7
 10
88.055970361997
 20
161.239393924814
 30
0.0
 11
88.055970361997
 21
162.639393945675
 31
0.0
  0
LINE
  5
   4C8
  8
0
  6
CONTINUOUS
 62
     7
 10
88.055970361997
 20
162.639393945675
 30
0.0
 11
87.7559703575267
 21
162.639393945675
 31
0.0
  0
LINE
  5
   4C9
  8
0
  6
CONTINUOUS
 62
     7
 10
86.355970336665
 20
162.639393945675
 30
0.0
 11
86.0559703321947
 21
162.639393945675
 31
0.0
  0
LINE
  5
   4CA
  8
0
  6
CONTINUOUS
 62
     7
 10
73.4559841662645
 20
100.339389965574
 30
0.0
 11
73.0559841841571
 21
100.339389965574
 31
0.0
  0
LINE
  5
   4CB
  8
0
  6
CONTINUOUS
 62
     7
 10
73.4559841662645
 20
99.9393899596131
 30
0.0
 11
73.055984184148
 21
99.9393899596131
 31
0.0
  0
LINE
  5
   4CC
  8
0
  6
CONTINUOUS
 62
     7
 10
73.4559841662645
 20
95.1393898880875
 30
0.0
 11
73.055984184148
 21
95.1393898880875
 31
0.0
  0
LINE
  5
   4CD
  8
0
  6
CONTINUOUS
 62
     7
 10
73.4559841662645
 20
94.739389882127
 30
0.0
 11
73.0559841841368
 21
94.739389882127
 31
0.0
  0
LINE
  5
   4CE
  8
0
  6
CONTINUOUS
 62
     7
 10
73.4559841662645
 20
86.9393974600701
 30
0.0
 11
73.0559841841368
 21
86.9393974600701
 31
0.0
  0
LINE
  5
   4CF
  8
0
  6
CONTINUOUS
 62
     7
 10
73.4559841662645
 20
86.5393974541073
 30
0.0
 11
73.0559841841439
 21
86.5393974541073
 31
0.0
  0
LINE
  5
   4D0
  8
0
  6
CONTINUOUS
 62
     7
 10
73.4559841662645
 20
81.7393896884119
 30
0.0
 11
73.0559841841439
 21
81.7393896884119
 31
0.0
  0
LINE
  5
   4D1
  8
0
  6
CONTINUOUS
 62
     7
 10
73.4559841662645
 20
81.3393896824515
 30
0.0
 11
73.0559841841459
 21
81.3393896824515
 31
0.0
  0
LINE
  5
   4D2
  8
0
  6
CONTINUOUS
 62
     7
 10
114.655978700519
 20
100.339389965574
 30
0.0
 11
73.4559841662645
 21
100.339389965574
 31
0.0
  0
LINE
  5
   4D3
  8
0
  6
CONTINUOUS
 62
     7
 10
114.655978700519
 20
99.9393899596131
 30
0.0
 11
73.4559841662645
 21
99.9393899596131
 31
0.0
  0
LINE
  5
   4D4
  8
0
  6
CONTINUOUS
 62
     7
 10
114.655978700519
 20
95.1393898880875
 30
0.0
 11
98.3559845611453
 21
95.1393898880875
 31
0.0
  0
LINE
  5
   4D5
  8
0
  6
CONTINUOUS
 62
     7
 10
114.655978700519
 20
94.739389882127
 30
0.0
 11
98.3559845611453
 21
94.739389882127
 31
0.0
  0
LINE
  5
   4D6
  8
0
  6
CONTINUOUS
 62
     7
 10
114.655978700519
 20
86.9393942787692
 30
0.0
 11
98.3559833672419
 21
86.9393942787692
 31
0.0
  0
LINE
  5
   4D7
  8
0
  6
CONTINUOUS
 62
     7
 10
114.655978700519
 20
86.5393942728088
 30
0.0
 11
98.3559832206863
 21
86.5393942728088
 31
0.0
  0
LINE
  5
   4D8
  8
0
  6
CONTINUOUS
 62
     7
 10
114.655978700519
 20
81.7393896884119
 30
0.0
 11
73.4559841662645
 21
81.7393896884119
 31
0.0
  0
LINE
  5
   4D9
  8
0
  6
CONTINUOUS
 62
     7
 10
114.655978700519
 20
81.3393896824515
 30
0.0
 11
73.4559841662645
 21
81.3393896824515
 31
0.0
  0
LINE
  5
   4DA
  8
0
  6
DASHDOT
 62
     7
 10
101.055978815317
 20
62.2393914194538
 30
0.0
 11
101.055978815317
 21
70.9220543559034
 31
0.0
  0
LINE
  5
   4DB
  8
0
  6
CONTINUOUS
 62
     7
 10
98.3559845611453
 20
88.4895180727644
 30
0.0
 11
89.7559844329953
 21
88.4895180727644
 31
0.0
  0
LINE
  5
   4DC
  8
0
  6
CONTINUOUS
 62
     7
 10
98.3559845611453
 20
86.0429318340607
 30
0.0
 11
89.7559844329953
 21
86.0429318340607
 31
0.0
  0
LINE
  5
   4DD
  8
0
  6
CONTINUOUS
 62
     7
 10
98.3559845611453
 20
83.6638043481243
 30
0.0
 11
89.7559844329953
 21
83.6638043481243
 31
0.0
  0
LINE
  5
   4DE
  8
0
  6
CONTINUOUS
 62
     7
 10
98.3559845611453
 20
83.3427054922522
 30
0.0
 11
89.7559844329953
 21
83.3427054922522
 31
0.0
  0
LINE
  5
   4DF
  8
0
  6
DASHDOT
 62
     7
 10
120.182331920534
 20
94.939395988623
 30
0.0
 11
58.268114729307
 21
94.939395988623
 31
0.0
  0
LINE
  5
   4E0
  8
0
  6
DASHDOT
 62
     7
 10
50.9065914143454
 20
94.939395988623
 30
0.0
 11
42.8634455702208
 21
94.939395988623
 31
0.0
  0
LINE
  5
   4E1
  8
0
  6
CONTINUOUS
 62
     3
 10
114.555977622176
 20
164.839393978458
 30
0.0
 11
89.3036954996176
 21
164.839393978458
 31
0.0
  0
LINE
  5
   4E2
  8
0
  6
CONTINUOUS
 62
     3
 10
115.055999180698
 20
127.13939646844
 30
0.0
 11
115.055999180698
 21
154.439391816855
 31
0.0
  0
LINE
  5
   4E3
  8
0
  6
CONTINUOUS
 62
     3
 10
114.9095320692
 20
164.69294886783
 30
0.0
 11
114.555979815562
 21
164.839396626544
 31
0.0
  0
LINE
  5
   4E4
  8
0
  6
CONTINUOUS
 62
     3
 10
115.055978616723
 20
164.339398595395
 30
0.0
 11
114.909530858009
 21
164.692950849034
 31
0.0
  0
LINE
  5
   4E5
  8
0
  6
CONTINUOUS
 62
     3
 10
114.115978225971
 20
154.439391816855
 30
0.0
 11
114.115978225971
 21
164.715132501997
 31
0.0
  0
LINE
  5
   4E6
  8
0
  6
CONTINUOUS
 62
     3
 10
112.675978814865
 20
154.439391816855
 30
0.0
 11
112.675978814865
 21
164.715132501997
 31
0.0
  0
LINE
  5
   4E7
  8
0
  6
CONTINUOUS
 62
     3
 10
111.235979403759
 20
154.439391816855
 30
0.0
 11
111.235979403759
 21
164.715132501997
 31
0.0
  0
LINE
  5
   4E8
  8
0
  6
CONTINUOUS
 62
     3
 10
109.795979992653
 20
154.439391816855
 30
0.0
 11
109.795979992653
 21
164.715132501997
 31
0.0
  0
LINE
  5
   4E9
  8
0
  6
CONTINUOUS
 62
     3
 10
108.355977529789
 20
154.439391816855
 30
0.0
 11
108.355977529789
 21
164.715132501997
 31
0.0
  0
LINE
  5
   4EA
  8
0
  6
CONTINUOUS
 62
     3
 10
106.915978118683
 20
154.439391816855
 30
0.0
 11
106.915978118683
 21
164.715132501997
 31
0.0
  0
LINE
  5
   4EB
  8
0
  6
CONTINUOUS
 62
     3
 10
105.475978707577
 20
154.439391816855
 30
0.0
 11
105.475978707577
 21
164.715132501997
 31
0.0
  0
LINE
  5
   4EC
  8
0
  6
CONTINUOUS
 62
     3
 10
104.035979296471
 20
154.439391816855
 30
0.0
 11
104.035979296471
 21
164.715132501997
 31
0.0
  0
LINE
  5
   4ED
  8
0
  6
CONTINUOUS
 62
     3
 10
102.595979885365
 20
154.439391816855
 30
0.0
 11
102.595979885365
 21
164.715132501997
 31
0.0
  0
LINE
  5
   4EE
  8
0
  6
CONTINUOUS
 62
     3
 10
101.155977422501
 20
154.439391816855
 30
0.0
 11
101.155977422501
 21
164.715132501997
 31
0.0
  0
LINE
  5
   4EF
  8
0
  6
CONTINUOUS
 62
     3
 10
99.7159780113946
 20
154.439391816855
 30
0.0
 11
99.7159780113946
 21
164.715132501997
 31
0.0
  0
LINE
  5
   4F0
  8
0
  6
CONTINUOUS
 62
     3
 10
98.2759786002885
 20
154.439391816855
 30
0.0
 11
98.2759786002885
 21
164.715132501997
 31
0.0
  0
LINE
  5
   4F1
  8
0
  6
CONTINUOUS
 62
     3
 10
96.8359791891824
 20
154.439391816855
 30
0.0
 11
96.8359791891824
 21
164.715132501997
 31
0.0
  0
LINE
  5
   4F2
  8
0
  6
CONTINUOUS
 62
     3
 10
95.3959782521974
 20
154.439391816855
 30
0.0
 11
95.3959782521974
 21
164.715132501997
 31
0.0
  0
LINE
  5
   4F3
  8
0
  6
CONTINUOUS
 62
     3
 10
93.9559788410913
 20
154.439391816855
 30
0.0
 11
93.9559788410913
 21
164.715132501997
 31
0.0
  0
LINE
  5
   4F4
  8
0
  6
CONTINUOUS
 62
     3
 10
92.5159794299852
 20
154.439391816855
 30
0.0
 11
92.5159794299852
 21
164.715132501997
 31
0.0
  0
LINE
  5
   4F5
  8
0
  6
CONTINUOUS
 62
     3
 10
91.0759784930002
 20
154.439391816855
 30
0.0
 11
91.0759784930002
 21
164.715132501997
 31
0.0
  0
LINE
  5
   4F6
  8
0
  6
CONTINUOUS
 62
     3
 10
89.635979081894
 20
154.439391816855
 30
0.0
 11
89.635979081894
 21
164.715132501997
 31
0.0
  0
POLYLINE
  5
   4F7
  8
0
  6
CONTINUOUS
 62
     3
 66
     1
 10
0.0
 20
0.0
 30
0.0
  0
VERTEX
  5
   4F8
  8
0
  6
CONTINUOUS
 10
89.3036954996176
 20
164.839393691404
 30
0.0
 40
0.0
 41
0.0
  0
VERTEX
  5
   4F9
  8
0
  6
CONTINUOUS
 10
89.2407491441626
 20
164.7895159688
 30
0.0
 40
0.0
 41
0.0
  0
VERTEX
  5
   4FA
  8
0
  6
CONTINUOUS
 10
89.1811692901901
 20
164.73853020259
 30
0.0
 40
0.0
 41
0.0
  0
VERTEX
  5
   4FB
  8
0
  6
CONTINUOUS
 10
89.124945188383
 20
164.686439046687
 30
0.0
 40
0.0
 41
0.0
  0
VERTEX
  5
   4FC
  8
0
  6
CONTINUOUS
 10
89.0720623909806
 20
164.633246068119
 30
0.0
 40
0.0
 41
0.0
  0
VERTEX
  5
   4FD
  8
0
  6
CONTINUOUS
 10
89.0225022029408
 20
164.578955882529
 30
0.0
 40
0.0
 41
0.0
  0
VERTEX
  5
   4FE
  8
0
  6
CONTINUOUS
 10
88.9989609487999
 20
164.551401099568
 30
0.0
 40
0.0
 41
0.0
  0
VERTEX
  5
   4FF
  8
0
  6
CONTINUOUS
 10
88.976241133103
 20
164.523574289683
 30
0.0
 40
0.0
 41
0.0
  0
VERTEX
  5
   500
  8
0
  6
CONTINUOUS
 10
88.9543389800181
 20
164.495476385095
 30
0.0
 40
0.0
 41
0.0
  0
VERTEX
  5
   501
  8
0
  6
CONTINUOUS
 10
88.9332503453507
 20
164.467108408969
 30
0.0
 40
0.0
 41
0.0
  0
VERTEX
  5
   502
  8
0
  6
CONTINUOUS
 10
88.9129706993933
 20
164.438471479651
 30
0.0
 40
0.0
 41
0.0
  0
VERTEX
  5
   503
  8
0
  6
CONTINUOUS
 10
88.893495109774
 20
164.409566814901
 30
0.0
 40
0.0
 41
0.0
  0
VERTEX
  5
   504
  8
0
  6
CONTINUOUS
 10
88.8748182243052
 20
164.380395736128
 30
0.0
 40
0.0
 41
0.0
  0
VERTEX
  5
   505
  8
0
  6
CONTINUOUS
 10
88.8569342538326
 20
164.350959672624
 30
0.0
 40
0.0
 41
0.0
  0
VERTEX
  5
   506
  8
0
  6
CONTINUOUS
 10
88.839836955084
 20
164.321260165799
 30
0.0
 40
0.0
 41
0.0
  0
VERTEX
  5
   507
  8
0
  6
CONTINUOUS
 10
88.823519613518
 20
164.291298873416
 30
0.0
 40
0.0
 41
0.0
  0
VERTEX
  5
   508
  8
0
  6
CONTINUOUS
 10
88.8079750261732
 20
164.261077573822
 30
0.0
 40
0.0
 41
0.0
  0
VERTEX
  5
   509
  8
0
  6
CONTINUOUS
 10
88.7931954845165
 20
164.23059817019
 30
0.0
 40
0.0
 41
0.0
  0
VERTEX
  5
   50A
  8
0
  6
CONTINUOUS
 10
88.7658980733715
 20
164.168873312999
 30
0.0
 40
0.0
 41
0.0
  0
VERTEX
  5
   50B
  8
0
  6
CONTINUOUS
 10
88.7415549486463
 20
164.106142184541
 30
0.0
 40
0.0
 41
0.0
  0
VERTEX
  5
   50C
  8
0
  6
CONTINUOUS
 10
88.720084492087
 20
164.042424935656
 30
0.0
 40
0.0
 41
0.0
  0
VERTEX
  5
   50D
  8
0
  6
CONTINUOUS
 10
88.7013953497845
 20
163.977744120836
 30
0.0
 40
0.0
 41
0.0
  0
VERTEX
  5
   50E
  8
0
  6
CONTINUOUS
 10
88.6853858833376
 20
163.912124833724
 30
0.0
 40
0.0
 41
0.0
  0
VERTEX
  5
   50F
  8
0
  6
CONTINUOUS
 10
88.6719436210159
 20
163.845594842618
 30
0.0
 40
0.0
 41
0.0
  0
VERTEX
  5
   510
  8
0
  6
CONTINUOUS
 10
88.6609447089215
 20
163.778184725977
 30
0.0
 40
0.0
 41
0.0
  0
VERTEX
  5
   511
  8
0
  6
CONTINUOUS
 10
88.6522533621526
 20
163.709928007919
 30
0.0
 40
0.0
 41
0.0
  0
VERTEX
  5
   512
  8
0
  6
CONTINUOUS
 10
88.6457213159656
 20
163.640861293729
 30
0.0
 40
0.0
 41
0.0
  0
VERTEX
  5
   513
  8
0
  6
CONTINUOUS
 10
88.640274631352
 20
163.55184422443
 30
0.0
 40
0.0
 41
0.0
  0
VERTEX
  5
   514
  8
0
  6
CONTINUOUS
 10
88.6377008169468
 20
163.461669432733
 30
0.0
 40
0.0
 41
0.0
  0
VERTEX
  5
   515
  8
0
  6
CONTINUOUS
 10
88.6376064945142
 20
163.370434673853
 30
0.0
 40
0.0
 41
0.0
  0
VERTEX
  5
   516
  8
0
  6
CONTINUOUS
 10
88.6395728529818
 20
163.278244995791
 30
0.0
 40
0.0
 41
0.0
  0
VERTEX
  5
   517
  8
0
  6
CONTINUOUS
 10
88.6431607493159
 20
163.185211986795
 30
0.0
 40
0.0
 41
0.0
  0
VERTEX
  5
   518
  8
0
  6
CONTINUOUS
 10
88.6479158093977
 20
163.091453022815
 30
0.0
 40
0.0
 41
0.0
  0
VERTEX
  5
   519
  8
0
  6
CONTINUOUS
 10
88.6590643741572
 20
162.902251156979
 30
0.0
 40
0.0
 41
0.0
  0
VERTEX
  5
   51A
  8
0
  6
CONTINUOUS
 10
88.6692727658808
 20
162.711665563377
 30
0.0
 40
0.0
 41
0.0
  0
VERTEX
  5
   51B
  8
0
  6
CONTINUOUS
 10
88.6728720062339
 20
162.616187355449
 30
0.0
 40
0.0
 41
0.0
  0
VERTEX
  5
   51C
  8
0
  6
CONTINUOUS
 10
88.674877961871
 20
162.520766847677
 30
0.0
 40
0.0
 41
0.0
  0
VERTEX
  5
   51D
  8
0
  6
CONTINUOUS
 10
88.6748724655964
 20
162.425540858763
 30
0.0
 40
0.0
 41
0.0
  0
VERTEX
  5
   51E
  8
0
  6
CONTINUOUS
 10
88.672462926135
 20
162.330645974778
 30
0.0
 40
0.0
 41
0.0
  0
VERTEX
  5
   51F
  8
0
  6
CONTINUOUS
 10
88.6672874290081
 20
162.236217796618
 30
0.0
 40
0.0
 41
0.0
  0
VERTEX
  5
   520
  8
0
  6
CONTINUOUS
 10
88.6635589915254
 20
162.189220642924
 30
0.0
 40
0.0
 41
0.0
  0
VERTEX
  5
   521
  8
0
  6
CONTINUOUS
 10
88.6590198374086
 20
162.142390187464
 30
0.0
 40
0.0
 41
0.0
  0
VERTEX
  5
   522
  8
0
  6
CONTINUOUS
 10
88.6536356266803
 20
162.095742768155
 30
0.0
 40
0.0
 41
0.0
  0
VERTEX
  5
   523
  8
0
  6
CONTINUOUS
 10
88.6473748930774
 20
162.049294520238
 30
0.0
 40
0.0
 41
0.0
  0
VERTEX
  5
   524
  8
0
  6
CONTINUOUS
 10
88.640209203453
 20
162.00306135276
 30
0.0
 40
0.0
 41
0.0
  0
VERTEX
  5
   525
  8
0
  6
CONTINUOUS
 10
88.6321133171788
 20
161.957058925061
 30
0.0
 40
0.0
 41
0.0
  0
VERTEX
  5
   526
  8
0
  6
CONTINUOUS
 10
88.6230653455478
 20
161.911302623256
 30
0.0
 40
0.0
 41
0.0
  0
VERTEX
  5
   527
  8
0
  6
CONTINUOUS
 10
88.6130469111762
 20
161.865807536714
 30
0.0
 40
0.0
 41
0.0
  0
VERTEX
  5
   528
  8
0
  6
CONTINUOUS
 10
88.6020433074061
 20
161.820588434548
 30
0.0
 40
0.0
 41
0.0
  0
VERTEX
  5
   529
  8
0
  6
CONTINUOUS
 10
88.5900436577078
 20
161.775659742092
 30
0.0
 40
0.0
 41
0.0
  0
VERTEX
  5
   52A
  8
0
  6
CONTINUOUS
 10
88.5719023294549
 20
161.714371552513
 30
0.0
 40
0.0
 41
0.0
  0
VERTEX
  5
   52B
  8
0
  6
CONTINUOUS
 10
88.5518592657197
 20
161.653694451701
 30
0.0
 40
0.0
 41
0.0
  0
VERTEX
  5
   52C
  8
0
  6
CONTINUOUS
 10
88.5299228450691
 20
161.593662038821
 30
0.0
 40
0.0
 41
0.0
  0
VERTEX
  5
   52D
  8
0
  6
CONTINUOUS
 10
88.5061142682434
 20
161.534305912759
 30
0.0
 40
0.0
 41
0.0
  0
VERTEX
  5
   52E
  8
0
  6
CONTINUOUS
 10
88.4804665487016
 20
161.475655370972
 30
0.0
 40
0.0
 41
0.0
  0
VERTEX
  5
   52F
  8
0
  6
CONTINUOUS
 10
88.453023503166
 20
161.417737108331
 30
0.0
 40
0.0
 41
0.0
  0
VERTEX
  5
   530
  8
0
  6
CONTINUOUS
 10
88.4238387421677
 20
161.360574915963
 30
0.0
 40
0.0
 41
0.0
  0
VERTEX
  5
   531
  8
0
  6
CONTINUOUS
 10
88.3929746605917
 20
161.304189380096
 30
0.0
 40
0.0
 41
0.0
  0
VERTEX
  5
   532
  8
0
  6
CONTINUOUS
 10
88.3605014282216
 20
161.248597580902
 30
0.0
 40
0.0
 41
0.0
  0
VERTEX
  5
   533
  8
0
  6
CONTINUOUS
 10
88.3264959802851
 20
161.193812791343
 30
0.0
 40
0.0
 41
0.0
  0
VERTEX
  5
   534
  8
0
  6
CONTINUOUS
 10
88.2910410079992
 20
161.13984417601
 30
0.0
 40
0.0
 41
0.0
  0
VERTEX
  5
   535
  8
0
  6
CONTINUOUS
 10
88.2542239491148
 20
161.086696489974
 30
0.0
 40
0.0
 41
0.0
  0
VERTEX
  5
   536
  8
0
  6
CONTINUOUS
 10
88.2161359784621
 20
161.034369777623
 30
0.0
 40
0.0
 41
0.0
  0
VERTEX
  5
   537
  8
0
  6
CONTINUOUS
 10
88.1768709984959
 20
160.98285907151
 30
0.0
 40
0.0
 41
0.0
  0
VERTEX
  5
   538
  8
0
  6
CONTINUOUS
 10
88.1365246298403
 20
160.932154091196
 30
0.0
 40
0.0
 41
0.0
  0
VERTEX
  5
   539
  8
0
  6
CONTINUOUS
 10
88.095193201834
 20
160.882238942092
 30
0.0
 40
0.0
 41
0.0
  0
VERTEX
  5
   53A
  8
0
  6
CONTINUOUS
 10
88.0529727430756
 20
160.833091814305
 30
0.0
 40
0.0
 41
0.0
  0
VERTEX
  5
   53B
  8
0
  6
CONTINUOUS
 10
88.0099579719682
 20
160.784684681481
 30
0.0
 40
0.0
 41
0.0
  0
VERTEX
  5
   53C
  8
0
  6
CONTINUOUS
 10
87.966241287265
 20
160.736982999649
 30
0.0
 40
0.0
 41
0.0
  0
VERTEX
  5
   53D
  8
0
  6
CONTINUOUS
 10
87.921911758614
 20
160.689945406065
 30
0.0
 40
0.0
 41
0.0
  0
VERTEX
  5
   53E
  8
0
  6
CONTINUOUS
 10
87.8668913089191
 20
160.633152346776
 30
0.0
 40
0.0
 41
0.0
  0
VERTEX
  5
   53F
  8
0
  6
CONTINUOUS
 10
87.8112236129383
 20
160.577179140652
 30
0.0
 40
0.0
 41
0.0
  0
VERTEX
  5
   540
  8
0
  6
CONTINUOUS
 10
87.6984791476998
 20
160.467207055839
 30
0.0
 40
0.0
 41
0.0
  0
VERTEX
  5
   541
  8
0
  6
CONTINUOUS
 10
87.4706862696057
 20
160.251190483802
 30
0.0
 40
0.0
 41
0.0
  0
VERTEX
  5
   542
  8
0
  6
CONTINUOUS
 10
87.3574065772801
 20
160.142664794141
 30
0.0
 40
0.0
 41
0.0
  0
VERTEX
  5
   543
  8
0
  6
CONTINUOUS
 10
87.3013042858687
 20
160.087717327798
 30
0.0
 40
0.0
 41
0.0
  0
VERTEX
  5
   544
  8
0
  6
CONTINUOUS
 10
87.2457140474442
 20
160.03210920735
 30
0.0
 40
0.0
 41
0.0
  0
VERTEX
  5
   545
  8
0
  6
CONTINUOUS
 10
87.1907584327686
 20
159.975695534116
 30
0.0
 40
0.0
 41
0.0
  0
VERTEX
  5
   546
  8
0
  6
CONTINUOUS
 10
87.1365678475904
 20
159.918340627957
 30
0.0
 40
0.0
 41
0.0
  0
VERTEX
  5
   547
  8
0
  6
CONTINUOUS
 10
87.0832821895351
 20
159.859920188644
 30
0.0
 40
0.0
 41
0.0
  0
VERTEX
  5
   548
  8
0
  6
CONTINUOUS
 10
87.0310525049955
 20
159.800323457215
 30
0.0
 40
0.0
 41
0.0
  0
VERTEX
  5
   549
  8
0
  6
CONTINUOUS
 10
86.9800426460227
 20
159.739455377339
 30
0.0
 40
0.0
 41
0.0
  0
VERTEX
  5
   54A
  8
0
  6
CONTINUOUS
 10
86.9304309272164
 20
159.677238756679
 30
0.0
 40
0.0
 41
0.0
  0
VERTEX
  5
   54B
  8
0
  6
CONTINUOUS
 10
86.8824117826149
 20
159.613616428249
 30
0.0
 40
0.0
 41
0.0
  0
VERTEX
  5
   54C
  8
0
  6
CONTINUOUS
 10
86.8361974225867
 20
159.54855341178
 30
0.0
 40
0.0
 41
0.0
  0
VERTEX
  5
   54D
  8
0
  6
CONTINUOUS
 10
86.8059200630963
 20
159.503481405635
 30
0.0
 40
0.0
 41
0.0
  0
VERTEX
  5
   54E
  8
0
  6
CONTINUOUS
 10
86.7766618150351
 20
159.457741146329
 30
0.0
 40
0.0
 41
0.0
  0
VERTEX
  5
   54F
  8
0
  6
CONTINUOUS
 10
86.7485036607365
 20
159.411341241566
 30
0.0
 40
0.0
 41
0.0
  0
VERTEX
  5
   550
  8
0
  6
CONTINUOUS
 10
86.7215282087898
 20
159.364295088729
 30
0.0
 40
0.0
 41
0.0
  0
VERTEX
  5
   551
  8
0
  6
CONTINUOUS
 10
86.6958182525411
 20
159.316620435739
 30
0.0
 40
0.0
 41
0.0
  0
VERTEX
  5
   552
  8
0
  6
CONTINUOUS
 10
86.6714553285943
 20
159.268338941922
 30
0.0
 40
0.0
 41
0.0
  0
VERTEX
  5
   553
  8
0
  6
CONTINUOUS
 10
86.6485182753122
 20
159.219475738865
 30
0.0
 40
0.0
 41
0.0
  0
VERTEX
  5
   554
  8
0
  6
CONTINUOUS
 10
86.627081791317
 20
159.17005899128
 30
0.0
 40
0.0
 41
0.0
  0
VERTEX
  5
   555
  8
0
  6
CONTINUOUS
 10
86.6072149939919
 20
159.12011945787
 30
0.0
 40
0.0
 41
0.0
  0
VERTEX
  5
   556
  8
0
  6
CONTINUOUS
 10
86.5889799779816
 20
159.069690052182
 30
0.0
 40
0.0
 41
0.0
  0
VERTEX
  5
   557
  8
0
  6
CONTINUOUS
 10
86.5724303736934
 20
159.018805403476
 30
0.0
 40
0.0
 41
0.0
  0
VERTEX
  5
   558
  8
0
  6
CONTINUOUS
 10
86.5576099057983
 20
158.967501417586
 30
0.0
 40
0.0
 41
0.0
  0
VERTEX
  5
   559
  8
0
  6
CONTINUOUS
 10
86.5445509517317
 20
158.915814837777
 30
0.0
 40
0.0
 41
0.0
  0
VERTEX
  5
   55A
  8
0
  6
CONTINUOUS
 10
86.5332731001945
 20
158.863782805612
 30
0.0
 40
0.0
 41
0.0
  0
VERTEX
  5
   55B
  8
0
  6
CONTINUOUS
 10
86.5237817096543
 20
158.811442421813
 30
0.0
 40
0.0
 41
0.0
  0
VERTEX
  5
   55C
  8
0
  6
CONTINUOUS
 10
86.5160664668458
 20
158.758830307118
 30
0.0
 40
0.0
 41
0.0
  0
VERTEX
  5
   55D
  8
0
  6
CONTINUOUS
 10
86.5100999452722
 20
158.70598216315
 30
0.0
 40
0.0
 41
0.0
  0
VERTEX
  5
   55E
  8
0
  6
CONTINUOUS
 10
86.5058361637062
 20
158.652932333274
 30
0.0
 40
0.0
 41
0.0
  0
VERTEX
  5
   55F
  8
0
  6
CONTINUOUS
 10
86.5032091446906
 20
158.599713363458
 30
0.0
 40
0.0
 41
0.0
  0
VERTEX
  5
   560
  8
0
  6
CONTINUOUS
 10
86.5021314730398
 20
158.546355563139
 30
0.0
 40
0.0
 41
0.0
  0
VERTEX
  5
   561
  8
0
  6
CONTINUOUS
 10
86.5022967842978
 20
158.504627143647
 30
0.0
 40
0.0
 41
0.0
  0
VERTEX
  5
   562
  8
0
  6
CONTINUOUS
 10
86.5032770246919
 20
158.462842941667
 30
0.0
 40
0.0
 41
0.0
  0
VERTEX
  5
   563
  8
0
  6
CONTINUOUS
 10
86.5073928419495
 20
158.379149802735
 30
0.0
 40
0.0
 41
0.0
  0
VERTEX
  5
   564
  8
0
  6
CONTINUOUS
 10
86.5138321184075
 20
158.295353113292
 30
0.0
 40
0.0
 41
0.0
  0
VERTEX
  5
   565
  8
0
  6
CONTINUOUS
 10
86.5218586861699
 20
158.21151947531
 30
0.0
 40
0.0
 41
0.0
  0
VERTEX
  5
   566
  8
0
  6
CONTINUOUS
 10
86.5394475230257
 20
158.043980347166
 30
0.0
 40
0.0
 41
0.0
  0
VERTEX
  5
   567
  8
0
  6
CONTINUOUS
 10
86.5473386085581
 20
157.9603928517
 30
0.0
 40
0.0
 41
0.0
  0
VERTEX
  5
   568
  8
0
  6
CONTINUOUS
 10
86.553529720425
 20
157.877012533894
 30
0.0
 40
0.0
 41
0.0
  0
VERTEX
  5
   569
  8
0
  6
CONTINUOUS
 10
86.5572511494187
 20
157.793915196891
 30
0.0
 40
0.0
 41
0.0
  0
VERTEX
  5
   56A
  8
0
  6
CONTINUOUS
 10
86.5579652115626
 20
157.752500063976
 30
0.0
 40
0.0
 41
0.0
  0
VERTEX
  5
   56B
  8
0
  6
CONTINUOUS
 10
86.5578091312977
 20
157.711190689272
 30
0.0
 40
0.0
 41
0.0
  0
VERTEX
  5
   56C
  8
0
  6
CONTINUOUS
 10
86.5568694890901
 20
157.674200153719
 30
0.0
 40
0.0
 41
0.0
  0
VERTEX
  5
   56D
  8
0
  6
CONTINUOUS
 10
86.5551259929387
 20
157.637317344883
 30
0.0
 40
0.0
 41
0.0
  0
VERTEX
  5
   56E
  8
0
  6
CONTINUOUS
 10
86.5525383013487
 20
157.600554210416
 30
0.0
 40
0.0
 41
0.0
  0
VERTEX
  5
   56F
  8
0
  6
CONTINUOUS
 10
86.5490710467278
 20
157.563923462258
 30
0.0
 40
0.0
 41
0.0
  0
VERTEX
  5
   570
  8
0
  6
CONTINUOUS
 10
86.544693660299
 20
157.527438508187
 30
0.0
 40
0.0
 41
0.0
  0
VERTEX
  5
   571
  8
0
  6
CONTINUOUS
 10
86.5393801970137
 20
157.491113383362
 30
0.0
 40
0.0
 41
0.0
  0
VERTEX
  5
   572
  8
0
  6
CONTINUOUS
 10
86.5331091604641
 20
157.454962681869
 30
0.0
 40
0.0
 41
0.0
  0
VERTEX
  5
   573
  8
0
  6
CONTINUOUS
 10
86.5258633277962
 20
157.419001488264
 30
0.0
 40
0.0
 41
0.0
  0
VERTEX
  5
   574
  8
0
  6
CONTINUOUS
 10
86.5176295746225
 20
157.383245309118
 30
0.0
 40
0.0
 41
0.0
  0
VERTEX
  5
   575
  8
0
  6
CONTINUOUS
 10
86.508398699935
 20
157.347710004562
 30
0.0
 40
0.0
 41
0.0
  0
VERTEX
  5
   576
  8
0
  6
CONTINUOUS
 10
86.4981652510176
 20
157.312411719832
 30
0.0
 40
0.0
 41
0.0
  0
VERTEX
  5
   577
  8
0
  6
CONTINUOUS
 10
86.4869273483593
 20
157.277366816814
 30
0.0
 40
0.0
 41
0.0
  0
VERTEX
  5
   578
  8
0
  6
CONTINUOUS
 10
86.4746865105669
 20
157.242591805588
 30
0.0
 40
0.0
 41
0.0
  0
VERTEX
  5
   579
  8
0
  6
CONTINUOUS
 10
86.4614474792778
 20
157.20810327597
 30
0.0
 40
0.0
 41
0.0
  0
VERTEX
  5
   57A
  8
0
  6
CONTINUOUS
 10
86.4472180440725
 20
157.173917829065
 30
0.0
 40
0.0
 41
0.0
  0
VERTEX
  5
   57B
  8
0
  6
CONTINUOUS
 10
86.4320088673877
 20
157.1400520088
 30
0.0
 40
0.0
 41
0.0
  0
VERTEX
  5
   57C
  8
0
  6
CONTINUOUS
 10
86.4158333094293
 20
157.106522233479
 30
0.0
 40
0.0
 41
0.0
  0
VERTEX
  5
   57D
  8
0
  6
CONTINUOUS
 10
86.3987072530847
 20
157.073344727323
 30
0.0
 40
0.0
 41
0.0
  0
VERTEX
  5
   57E
  8
0
  6
CONTINUOUS
 10
86.380648928836
 20
157.040535452013
 30
0.0
 40
0.0
 41
0.0
  0
VERTEX
  5
   57F
  8
0
  6
CONTINUOUS
 10
86.3616787396724
 20
157.00811003824
 30
0.0
 40
0.0
 41
0.0
  0
VERTEX
  5
   580
  8
0
  6
CONTINUOUS
 10
86.3418190860034
 20
156.976083717244
 30
0.0
 40
0.0
 41
0.0
  0
VERTEX
  5
   581
  8
0
  6
CONTINUOUS
 10
86.3210941905714
 20
156.944471252362
 30
0.0
 40
0.0
 41
0.0
  0
VERTEX
  5
   582
  8
0
  6
CONTINUOUS
 10
86.2995299233647
 20
156.913286870572
 30
0.0
 40
0.0
 41
0.0
  0
VERTEX
  5
   583
  8
0
  6
CONTINUOUS
 10
86.2771536265299
 20
156.882544194039
 30
0.0
 40
0.0
 41
0.0
  0
VERTEX
  5
   584
  8
0
  6
CONTINUOUS
 10
86.2539939392849
 20
156.852256171657
 30
0.0
 40
0.0
 41
0.0
  0
VERTEX
  5
   585
  8
0
  6
CONTINUOUS
 10
86.2300806228321
 20
156.822435010595
 30
0.0
 40
0.0
 41
0.0
  0
VERTEX
  5
   586
  8
0
  6
CONTINUOUS
 10
86.2054443852704
 20
156.793092107841
 30
0.0
 40
0.0
 41
0.0
  0
VERTEX
  5
   587
  8
0
  6
CONTINUOUS
 10
86.1801167065085
 20
156.764237981749
 30
0.0
 40
0.0
 41
0.0
  0
VERTEX
  5
   588
  8
0
  6
CONTINUOUS
 10
86.154129663178
 20
156.735882203582
 30
0.0
 40
0.0
 41
0.0
  0
VERTEX
  5
   589
  8
0
  6
CONTINUOUS
 10
86.1275157535453
 20
156.708033329055
 30
0.0
 40
0.0
 41
0.0
  0
VERTEX
  5
   58A
  8
0
  6
CONTINUOUS
 10
86.0725383860938
 20
156.653885025325
 30
0.0
 40
0.0
 41
0.0
  0
VERTEX
  5
   58B
  8
0
  6
CONTINUOUS
 10
86.0154463696798
 20
156.60183860406
 30
0.0
 40
0.0
 41
0.0
  0
VERTEX
  5
   58C
  8
0
  6
CONTINUOUS
 10
85.9564970104139
 20
156.551918968885
 30
0.0
 40
0.0
 41
0.0
  0
VERTEX
  5
   58D
  8
0
  6
CONTINUOUS
 10
85.8959375522002
 20
156.504128202971
 30
0.0
 40
0.0
 41
0.0
  0
VERTEX
  5
   58E
  8
0
  6
CONTINUOUS
 10
85.8339995739461
 20
156.458443378471
 30
0.0
 40
0.0
 41
0.0
  0
VERTEX
  5
   58F
  8
0
  6
CONTINUOUS
 10
85.7801719334111
 20
156.421058502196
 30
0.0
 40
0.0
 41
0.0
  0
VERTEX
  5
   590
  8
0
  6
CONTINUOUS
 10
85.7256093387076
 20
156.385125947597
 30
0.0
 40
0.0
 41
0.0
  0
VERTEX
  5
   591
  8
0
  6
CONTINUOUS
 10
85.6704151480458
 20
156.350583883802
 30
0.0
 40
0.0
 41
0.0
  0
VERTEX
  5
   592
  8
0
  6
CONTINUOUS
 10
85.6146805083812
 20
156.317357495237
 30
0.0
 40
0.0
 41
0.0
  0
VERTEX
  5
   593
  8
0
  6
CONTINUOUS
 10
85.55848539626
 20
156.285360306383
 30
0.0
 40
0.0
 41
0.0
  0
VERTEX
  5
   594
  8
0
  6
CONTINUOUS
 10
85.5018996586658
 20
156.254495506539
 30
0.0
 40
0.0
 41
0.0
  0
VERTEX
  5
   595
  8
0
  6
CONTINUOUS
 10
85.4449840538656
 20
156.224657274579
 30
0.0
 40
0.0
 41
0.0
  0
VERTEX
  5
   596
  8
0
  6
CONTINUOUS
 10
85.3877912922563
 20
156.195732103713
 30
0.0
 40
0.0
 41
0.0
  0
VERTEX
  5
   597
  8
0
  6
CONTINUOUS
 10
85.2727511459235
 20
156.140136438343
 30
0.0
 40
0.0
 41
0.0
  0
VERTEX
  5
   598
  8
0
  6
CONTINUOUS
 10
85.1570794975929
 20
156.086697083705
 30
0.0
 40
0.0
 41
0.0
  0
VERTEX
  5
   599
  8
0
  6
CONTINUOUS
 10
84.9247653548901
 20
155.982093062065
 30
0.0
 40
0.0
 41
0.0
  0
VERTEX
  5
   59A
  8
0
  6
CONTINUOUS
 10
84.8085458858565
 20
155.928884180898
 30
0.0
 40
0.0
 41
0.0
  0
VERTEX
  5
   59B
  8
0
  6
CONTINUOUS
 10
84.6926075796609
 20
155.873827966764
 30
0.0
 40
0.0
 41
0.0
  0
VERTEX
  5
   59C
  8
0
  6
CONTINUOUS
 10
84.6268154826745
 20
155.841337953473
 30
0.0
 40
0.0
 41
0.0
  0
VERTEX
  5
   59D
  8
0
  6
CONTINUOUS
 10
84.5612903295818
 20
155.807872014232
 30
0.0
 40
0.0
 41
0.0
  0
VERTEX
  5
   59E
  8
0
  6
CONTINUOUS
 10
84.4961151228329
 20
155.773326537669
 30
0.0
 40
0.0
 41
0.0
  0
VERTEX
  5
   59F
  8
0
  6
CONTINUOUS
 10
84.4313819368699
 20
155.737614130019
 30
0.0
 40
0.0
 41
0.0
  0
VERTEX
  5
   5A0
  8
0
  6
CONTINUOUS
 10
84.3671909605679
 20
155.700662578383
 30
0.0
 40
0.0
 41
0.0
  0
VERTEX
  5
   5A1
  8
0
  6
CONTINUOUS
 10
84.3036495396766
 20
155.662413813983
 30
0.0
 40
0.0
 41
0.0
  0
VERTEX
  5
   5A2
  8
0
  6
CONTINUOUS
 10
84.2408712192617
 20
155.622822875415
 30
0.0
 40
0.0
 41
0.0
  0
VERTEX
  5
   5A3
  8
0
  6
CONTINUOUS
 10
84.1789747861466
 20
155.581856871905
 30
0.0
 40
0.0
 41
0.0
  0
VERTEX
  5
   5A4
  8
0
  6
CONTINUOUS
 10
84.1180833113537
 20
155.539493946567
 30
0.0
 40
0.0
 41
0.0
  0
VERTEX
  5
   5A5
  8
0
  6
CONTINUOUS
 10
84.0583231925461
 20
155.495722239658
 30
0.0
 40
0.0
 41
0.0
  0
VERTEX
  5
   5A6
  8
0
  6
CONTINUOUS
 10
83.9998231964687
 20
155.45053885183
 30
0.0
 40
0.0
 41
0.0
  0
VERTEX
  5
   5A7
  8
0
  6
CONTINUOUS
 10
83.9427135013903
 20
155.403948807391
 30
0.0
 40
0.0
 41
0.0
  0
VERTEX
  5
   5A8
  8
0
  6
CONTINUOUS
 10
83.8871247395442
 20
155.355964017556
 30
0.0
 40
0.0
 41
0.0
  0
VERTEX
  5
   5A9
  8
0
  6
CONTINUOUS
 10
83.8331870395707
 20
155.306602243704
 30
0.0
 40
0.0
 41
0.0
  0
VERTEX
  5
   5AA
  8
0
  6
CONTINUOUS
 10
83.7810290689579
 20
155.255886060636
 30
0.0
 40
0.0
 41
0.0
  0
VERTEX
  5
   5AB
  8
0
  6
CONTINUOUS
 10
83.7307770764834
 20
155.203841819827
 30
0.0
 40
0.0
 41
0.0
  0
VERTEX
  5
   5AC
  8
0
  6
CONTINUOUS
 10
83.6825539346558
 20
155.150498612683
 30
0.0
 40
0.0
 41
0.0
  0
VERTEX
  5
   5AD
  8
0
  6
CONTINUOUS
 10
83.636478182156
 20
155.095887233798
 30
0.0
 40
0.0
 41
0.0
  0
VERTEX
  5
   5AE
  8
0
  6
CONTINUOUS
 10
83.5926630662792
 20
155.040039144205
 30
0.0
 40
0.0
 41
0.0
  0
VERTEX
  5
   5AF
  8
0
  6
CONTINUOUS
 10
83.5512155853757
 20
154.982985434639
 30
0.0
 40
0.0
 41
0.0
  0
VERTEX
  5
   5B0
  8
0
  6
CONTINUOUS
 10
83.5171495449942
 20
154.932374891961
 30
0.0
 40
0.0
 41
0.0
  0
VERTEX
  5
   5B1
  8
0
  6
CONTINUOUS
 10
83.4850133606295
 20
154.880891996109
 30
0.0
 40
0.0
 41
0.0
  0
VERTEX
  5
   5B2
  8
0
  6
CONTINUOUS
 10
83.454863467585
 20
154.828553640158
 30
0.0
 40
0.0
 41
0.0
  0
VERTEX
  5
   5B3
  8
0
  6
CONTINUOUS
 10
83.426751964812
 20
154.775375419159
 30
0.0
 40
0.0
 41
0.0
  0
VERTEX
  5
   5B4
  8
0
  6
CONTINUOUS
 10
83.4007267883012
 20
154.721371682042
 30
0.0
 40
0.0
 41
0.0
  0
VERTEX
  5
   5B5
  8
0
  6
CONTINUOUS
 10
83.3768318844753
 20
154.666555583519
 30
0.0
 40
0.0
 41
0.0
  0
VERTEX
  5
   5B6
  8
0
  6
CONTINUOUS
 10
83.355107383581
 20
154.610939135986
 30
0.0
 40
0.0
 41
0.0
  0
VERTEX
  5
   5B7
  8
0
  6
CONTINUOUS
 10
83.3355897730809
 20
154.554533261426
 30
0.0
 40
0.0
 41
0.0
  0
VERTEX
  5
   5B8
  8
0
  6
CONTINUOUS
 10
83.3183120710458
 20
154.49734784331
 30
0.0
 40
0.0
 41
0.0
  0
VERTEX
  5
   5B9
  8
0
  6
CONTINUOUS
 10
83.303303999547
 20
154.439391778501
 30
0.0
 40
0.0
 41
0.0
  0
SEQEND
  5
   5BA
  8
0
  6
CONTINUOUS
 62
     3
  0
LINE
  5
   5BB
  8
0
  6
CONTINUOUS
 62
     7
 10
115.055999180698
 20
154.439391816855
 30
0.0
 11
83.303303999547
 21
154.439391816855
 31
0.0
  0
LINE
  5
   5BC
  8
0
  6
CONTINUOUS
 62
     7
 10
115.055999180698
 20
154.039391810894
 30
0.0
 11
73.0559679508122
 21
154.039391810894
 31
0.0
  0
LINE
  5
   5BD
  8
0
  6
CONTINUOUS
 62
     7
 10
115.055999180698
 20
149.039391736388
 30
0.0
 11
73.0559679508122
 21
149.039391736388
 31
0.0
  0
LINE
  5
   5BE
  8
0
  6
CONTINUOUS
 62
     7
 10
115.055999180698
 20
148.639391730428
 30
0.0
 11
73.0559679508122
 21
148.639391730428
 31
0.0
  0
LINE
  5
   5BF
  8
0
  6
CONTINUOUS
 62
     7
 10
114.655999174737
 20
154.039391810894
 30
0.0
 11
114.655999174737
 21
154.439391816855
 31
0.0
  0
LINE
  5
   5C0
  8
0
  6
CONTINUOUS
 62
     3
 10
88.195979670788
 20
154.439391816855
 30
0.0
 11
88.195979670788
 21
161.007640401898
 31
0.0
  0
LINE
  5
   5C1
  8
0
  6
CONTINUOUS
 62
     3
 10
86.7559802596818
 20
154.439391816855
 30
0.0
 11
86.7559802596818
 21
159.423912280816
 31
0.0
  0
LINE
  5
   5C2
  8
0
  6
CONTINUOUS
 62
     3
 10
85.3159808485758
 20
154.439391816855
 30
0.0
 11
85.3159808485758
 21
156.160635643002
 31
0.0
  0
LINE
  5
   5C3
  8
0
  6
CONTINUOUS
 62
     3
 10
83.8759814374697
 20
154.439391816855
 30
0.0
 11
83.8759814374697
 21
155.346004555697
 31
0.0
  0
LINE
  5
   5C4
  8
0
  6
CONTINUOUS
 62
     3
 10
115.055999180698
 20
154.439391816855
 30
0.0
 11
115.055999180698
 21
164.339348950119
 31
0.0
  0
LINE
  5
   5C5
  8
0
  6
CONTINUOUS
 62
     7
 10
74.0559724633685
 20
62.9593936810307
 30
0.0
 11
73.0559724484673
 21
62.9593936810307
 31
0.0
  0
LINE
  5
   5C6
  8
0
  6
CONTINUOUS
 62
     7
 10
74.0559724633685
 20
62.2393924495987
 30
0.0
 11
74.0559724633685
 21
62.9593936810307
 31
0.0
  0
ARC
  5
   5C7
  8
0
  6
CONTINUOUS
 62
     7
 10
74.4559734897035
 20
62.2393919966667
 30
0.0
 40
0.40000160241227
 50
179.999521111753
 51
269.99995267752
  0
LINE
  5
   5C8
  8
0
  6
CONTINUOUS
 62
     7
 10
86.355970336665
 20
61.8393924436382
 30
0.0
 11
74.4559724693289
 21
61.8393924436382
 31
0.0
  0
LINE
  5
   5C9
  8
0
  6
CONTINUOUS
 62
     7
 10
73.0559679508122
 20
62.9593936810306
 30
0.0
 11
73.0559679508122
 21
72.1949967256991
 31
0.0
  0
LINE
  5
   5CA
  8
0
  6
CONTINUOUS
 62
     7
 10
74.0559700922997
 20
62.9593936810306
 30
0.0
 11
74.0559700922997
 21
71.6393945963008
 31
0.0
  0
LINE
  5
   5CB
  8
0
  6
CONTINUOUS
 62
     7
 10
86.355970336665
 20
61.8393924436382
 30
0.0
 11
86.355970336665
 21
63.0393924615196
 31
0.0
  0
LINE
  5
   5CC
  8
0
  6
CONTINUOUS
 62
     7
 10
86.355970336665
 20
63.0393924615196
 30
0.0
 11
86.0559703321947
 21
63.0393924615196
 31
0.0
  0
LINE
  5
   5CD
  8
0
  6
CONTINUOUS
 62
     7
 10
86.0559703321947
 20
63.0393924615196
 30
0.0
 11
86.0559703321947
 21
64.4393924823812
 31
0.0
  0
LINE
  5
   5CE
  8
0
  6
CONTINUOUS
 62
     7
 10
88.055970361997
 20
64.4393924823812
 30
0.0
 11
86.0559703321947
 21
64.4393924823812
 31
0.0
  0
LINE
  5
   5CF
  8
0
  6
CONTINUOUS
 62
     7
 10
88.055970361997
 20
63.0393924615196
 30
0.0
 11
88.055970361997
 21
64.4393924823812
 31
0.0
  0
LINE
  5
   5D0
  8
0
  6
CONTINUOUS
 62
     7
 10
88.055970361997
 20
63.0393924615196
 30
0.0
 11
87.7559703575267
 21
63.0393924615196
 31
0.0
  0
LINE
  5
   5D1
  8
0
  6
CONTINUOUS
 62
     7
 10
87.7559703575267
 20
61.8393924436382
 30
0.0
 11
87.7559703575267
 21
63.0393924615196
 31
0.0
  0
LINE
  5
   5D2
  8
0
  6
CONTINUOUS
 62
     7
 10
88.67077107977
 20
61.8393924436382
 30
0.0
 11
87.7559703575267
 21
61.8393924436382
 31
0.0
  0
LINE
  5
   5D3
  8
0
  6
CONTINUOUS
 62
     7
 10
83.2627686921477
 20
71.6393945963008
 30
0.0
 11
73.0559679508122
 21
71.6393945963008
 31
0.0
  0
LINE
  5
   5D4
  8
0
  6
CONTINUOUS
 62
     3
 10
89.635979081894
 20
60.9636539051981
 30
0.0
 11
89.635979081894
 21
62.7393970346845
 31
0.0
  0
LINE
  5
   5D5
  8
0
  6
CONTINUOUS
 62
     3
 10
91.0759784930002
 20
60.9636539051981
 30
0.0
 11
91.0759784930002
 21
62.7393970346845
 31
0.0
  0
LINE
  5
   5D6
  8
0
  6
CONTINUOUS
 62
     3
 10
92.5159794299852
 20
60.9636539051981
 30
0.0
 11
92.5159794299852
 21
62.7393970346845
 31
0.0
  0
LINE
  5
   5D7
  8
0
  6
CONTINUOUS
 62
     3
 10
93.9559788410913
 20
60.9636539051981
 30
0.0
 11
93.9559788410913
 21
62.7393970346845
 31
0.0
  0
LINE
  5
   5D8
  8
0
  6
CONTINUOUS
 62
     3
 10
95.3959782521974
 20
60.9636539051981
 30
0.0
 11
95.3959782521974
 21
62.7393970346845
 31
0.0
  0
LINE
  5
   5D9
  8
0
  6
CONTINUOUS
 62
     3
 10
96.8359791891824
 20
60.9636539051981
 30
0.0
 11
96.8359791891824
 21
62.7393970346845
 31
0.0
  0
LINE
  5
   5DA
  8
0
  6
CONTINUOUS
 62
     3
 10
98.2759786002885
 20
60.9636539051981
 30
0.0
 11
98.2759786002885
 21
62.7393970346845
 31
0.0
  0
LINE
  5
   5DB
  8
0
  6
CONTINUOUS
 62
     3
 10
99.7159780113946
 20
60.9636539051981
 30
0.0
 11
99.7159780113946
 21
62.7393970346845
 31
0.0
  0
LINE
  5
   5DC
  8
0
  6
CONTINUOUS
 62
     3
 10
101.155977422501
 20
60.9636539051981
 30
0.0
 11
101.155977422501
 21
62.7393970346845
 31
0.0
  0
LINE
  5
   5DD
  8
0
  6
CONTINUOUS
 62
     3
 10
102.595979885365
 20
60.9636539051981
 30
0.0
 11
102.595979885365
 21
62.7393970346845
 31
0.0
  0
LINE
  5
   5DE
  8
0
  6
CONTINUOUS
 62
     3
 10
104.035979296471
 20
60.9636539051981
 30
0.0
 11
104.035979296471
 21
62.7393970346845
 31
0.0
  0
LINE
  5
   5DF
  8
0
  6
CONTINUOUS
 62
     3
 10
105.475978707577
 20
60.9636539051981
 30
0.0
 11
105.475978707577
 21
62.7393970346845
 31
0.0
  0
LINE
  5
   5E0
  8
0
  6
CONTINUOUS
 62
     3
 10
106.915978118683
 20
60.9636539051981
 30
0.0
 11
106.915978118683
 21
62.7393970346845
 31
0.0
  0
LINE
  5
   5E1
  8
0
  6
CONTINUOUS
 62
     3
 10
108.355977529789
 20
60.9636539051981
 30
0.0
 11
108.355977529789
 21
62.7393970346845
 31
0.0
  0
LINE
  5
   5E2
  8
0
  6
CONTINUOUS
 62
     3
 10
109.795979992653
 20
60.9636539051981
 30
0.0
 11
109.795979992653
 21
62.7393970346845
 31
0.0
  0
LINE
  5
   5E3
  8
0
  6
CONTINUOUS
 62
     3
 10
111.235979403759
 20
60.9636539051981
 30
0.0
 11
111.235979403759
 21
62.7393970346845
 31
0.0
  0
LINE
  5
   5E4
  8
0
  6
CONTINUOUS
 62
     3
 10
112.675978814865
 20
60.9636539051981
 30
0.0
 11
112.675978814865
 21
62.7393970346845
 31
0.0
  0
LINE
  5
   5E5
  8
0
  6
CONTINUOUS
 62
     3
 10
114.115978225971
 20
60.9636539051981
 30
0.0
 11
114.115978225971
 21
62.7393970346845
 31
0.0
  0
LINE
  5
   5E6
  8
0
  6
CONTINUOUS
 62
     3
 10
115.055999180698
 20
61.3394374570762
 30
0.0
 11
115.055999180698
 21
62.7393970346845
 31
0.0
  0
LINE
  5
   5E7
  8
0
  6
CONTINUOUS
 62
     3
 10
114.909530858009
 20
60.9858355581613
 30
0.0
 11
115.055978616723
 21
61.3393878117995
 31
0.0
  0
LINE
  5
   5E8
  8
0
  6
CONTINUOUS
 62
     3
 10
114.555977622176
 20
60.8393924287371
 30
0.0
 11
89.3036954996176
 21
60.8393924287371
 31
0.0
  0
LINE
  5
   5E9
  8
0
  6
CONTINUOUS
 62
     3
 10
114.555979815562
 20
60.8393897806506
 30
0.0
 11
114.9095320692
 21
60.9858375393645
 31
0.0
  0
POLYLINE
  5
   5EA
  8
0
  6
CONTINUOUS
 62
     3
 66
     1
 10
0.0
 20
0.0
 30
0.0
  0
VERTEX
  5
   5EB
  8
0
  6
CONTINUOUS
 10
89.3036954996176
 20
60.8393927157913
 30
0.0
 40
0.0
 41
0.0
  0
VERTEX
  5
   5EC
  8
0
  6
CONTINUOUS
 10
89.2407491441626
 20
60.889270438395
 30
0.0
 40
0.0
 41
0.0
  0
VERTEX
  5
   5ED
  8
0
  6
CONTINUOUS
 10
89.1811692901901
 20
60.9402562046051
 30
0.0
 40
0.0
 41
0.0
  0
VERTEX
  5
   5EE
  8
0
  6
CONTINUOUS
 10
89.124945188383
 20
60.992347360508
 30
0.0
 40
0.0
 41
0.0
  0
VERTEX
  5
   5EF
  8
0
  6
CONTINUOUS
 10
89.0720623909806
 20
61.0455403390763
 30
0.0
 40
0.0
 41
0.0
  0
VERTEX
  5
   5F0
  8
0
  6
CONTINUOUS
 10
89.0225022029408
 20
61.0998305246657
 30
0.0
 40
0.0
 41
0.0
  0
VERTEX
  5
   5F1
  8
0
  6
CONTINUOUS
 10
88.9989609487999
 20
61.1273853076268
 30
0.0
 40
0.0
 41
0.0
  0
VERTEX
  5
   5F2
  8
0
  6
CONTINUOUS
 10
88.976241133103
 20
61.1552121175116
 30
0.0
 40
0.0
 41
0.0
  0
VERTEX
  5
   5F3
  8
0
  6
CONTINUOUS
 10
88.9543389800181
 20
61.1833100220999
 30
0.0
 40
0.0
 41
0.0
  0
VERTEX
  5
   5F4
  8
0
  6
CONTINUOUS
 10
88.9332503453507
 20
61.2116779982259
 30
0.0
 40
0.0
 41
0.0
  0
VERTEX
  5
   5F5
  8
0
  6
CONTINUOUS
 10
88.9129706993933
 20
61.2403149275438
 30
0.0
 40
0.0
 41
0.0
  0
VERTEX
  5
   5F6
  8
0
  6
CONTINUOUS
 10
88.893495109774
 20
61.2692195922938
 30
0.0
 40
0.0
 41
0.0
  0
VERTEX
  5
   5F7
  8
0
  6
CONTINUOUS
 10
88.8748182243052
 20
61.2983906710668
 30
0.0
 40
0.0
 41
0.0
  0
VERTEX
  5
   5F8
  8
0
  6
CONTINUOUS
 10
88.8569342538326
 20
61.3278267345708
 30
0.0
 40
0.0
 41
0.0
  0
VERTEX
  5
   5F9
  8
0
  6
CONTINUOUS
 10
88.839836955084
 20
61.3575262413956
 30
0.0
 40
0.0
 41
0.0
  0
VERTEX
  5
   5FA
  8
0
  6
CONTINUOUS
 10
88.823519613518
 20
61.3874875337792
 30
0.0
 40
0.0
 41
0.0
  0
VERTEX
  5
   5FB
  8
0
  6
CONTINUOUS
 10
88.8079750261732
 20
61.4177088333725
 30
0.0
 40
0.0
 41
0.0
  0
VERTEX
  5
   5FC
  8
0
  6
CONTINUOUS
 10
88.7931954845165
 20
61.4481882370052
 30
0.0
 40
0.0
 41
0.0
  0
VERTEX
  5
   5FD
  8
0
  6
CONTINUOUS
 10
88.7658980733715
 20
61.5099130941955
 30
0.0
 40
0.0
 41
0.0
  0
VERTEX
  5
   5FE
  8
0
  6
CONTINUOUS
 10
88.7415549486463
 20
61.5726442226539
 30
0.0
 40
0.0
 41
0.0
  0
VERTEX
  5
   5FF
  8
0
  6
CONTINUOUS
 10
88.720084492087
 20
61.6363614715387
 30
0.0
 40
0.0
 41
0.0
  0
VERTEX
  5
   600
  8
0
  6
CONTINUOUS
 10
88.7013953497845
 20
61.7010422863588
 30
0.0
 40
0.0
 41
0.0
  0
VERTEX
  5
   601
  8
0
  6
CONTINUOUS
 10
88.6853858833376
 20
61.766661573471
 30
0.0
 40
0.0
 41
0.0
  0
VERTEX
  5
   602
  8
0
  6
CONTINUOUS
 10
88.6719436210159
 20
61.8331915645765
 30
0.0
 40
0.0
 41
0.0
  0
VERTEX
  5
   603
  8
0
  6
CONTINUOUS
 10
88.6609447089215
 20
61.900601681218
 30
0.0
 40
0.0
 41
0.0
  0
VERTEX
  5
   604
  8
0
  6
CONTINUOUS
 10
88.6522533621526
 20
61.968858399276
 30
0.0
 40
0.0
 41
0.0
  0
VERTEX
  5
   605
  8
0
  6
CONTINUOUS
 10
88.6457213159656
 20
62.0379251134661
 30
0.0
 40
0.0
 41
0.0
  0
VERTEX
  5
   606
  8
0
  6
CONTINUOUS
 10
88.640274631352
 20
62.1269421827653
 30
0.0
 40
0.0
 41
0.0
  0
VERTEX
  5
   607
  8
0
  6
CONTINUOUS
 10
88.6377008169468
 20
62.2171169744617
 30
0.0
 40
0.0
 41
0.0
  0
VERTEX
  5
   608
  8
0
  6
CONTINUOUS
 10
88.6376064945142
 20
62.3083517333415
 30
0.0
 40
0.0
 41
0.0
  0
VERTEX
  5
   609
  8
0
  6
CONTINUOUS
 10
88.6395728529818
 20
62.4005414114034
 30
0.0
 40
0.0
 41
0.0
  0
VERTEX
  5
   60A
  8
0
  6
CONTINUOUS
 10
88.6431607493159
 20
62.4935744204
 30
0.0
 40
0.0
 41
0.0
  0
VERTEX
  5
   60B
  8
0
  6
CONTINUOUS
 10
88.6479158093977
 20
62.5873333843798
 30
0.0
 40
0.0
 41
0.0
  0
VERTEX
  5
   60C
  8
0
  6
CONTINUOUS
 10
88.6590643741572
 20
62.7765352502159
 30
0.0
 40
0.0
 41
0.0
  0
VERTEX
  5
   60D
  8
0
  6
CONTINUOUS
 10
88.6692727658808
 20
62.9671208438181
 30
0.0
 40
0.0
 41
0.0
  0
VERTEX
  5
   60E
  8
0
  6
CONTINUOUS
 10
88.6728720062339
 20
63.0625990517458
 30
0.0
 40
0.0
 41
0.0
  0
VERTEX
  5
   60F
  8
0
  6
CONTINUOUS
 10
88.674877961871
 20
63.1580195595179
 30
0.0
 40
0.0
 41
0.0
  0
VERTEX
  5
   610
  8
0
  6
CONTINUOUS
 10
88.6748724655964
 20
63.2532455484318
 30
0.0
 40
0.0
 41
0.0
  0
VERTEX
  5
   611
  8
0
  6
CONTINUOUS
 10
88.672462926135
 20
63.3481404324169
 30
0.0
 40
0.0
 41
0.0
  0
VERTEX
  5
   612
  8
0
  6
CONTINUOUS
 10
88.6672874290081
 20
63.4425686105766
 30
0.0
 40
0.0
 41
0.0
  0
VERTEX
  5
   613
  8
0
  6
CONTINUOUS
 10
88.6635589915254
 20
63.4895657642712
 30
0.0
 40
0.0
 41
0.0
  0
VERTEX
  5
   614
  8
0
  6
CONTINUOUS
 10
88.6590198374086
 20
63.5363962197306
 30
0.0
 40
0.0
 41
0.0
  0
VERTEX
  5
   615
  8
0
  6
CONTINUOUS
 10
88.6536356266803
 20
63.5830436390393
 30
0.0
 40
0.0
 41
0.0
  0
VERTEX
  5
   616
  8
0
  6
CONTINUOUS
 10
88.6473748930774
 20
63.6294918869569
 30
0.0
 40
0.0
 41
0.0
  0
VERTEX
  5
   617
  8
0
  6
CONTINUOUS
 10
88.640209203453
 20
63.6757250544348
 30
0.0
 40
0.0
 41
0.0
  0
VERTEX
  5
   618
  8
0
  6
CONTINUOUS
 10
88.6321133171788
 20
63.7217274821334
 30
0.0
 40
0.0
 41
0.0
  0
VERTEX
  5
   619
  8
0
  6
CONTINUOUS
 10
88.6230653455478
 20
63.767483783939
 30
0.0
 40
0.0
 41
0.0
  0
VERTEX
  5
   61A
  8
0
  6
CONTINUOUS
 10
88.6130469111762
 20
63.8129788704805
 30
0.0
 40
0.0
 41
0.0
  0
VERTEX
  5
   61B
  8
0
  6
CONTINUOUS
 10
88.6020433074061
 20
63.8581979726466
 30
0.0
 40
0.0
 41
0.0
  0
VERTEX
  5
   61C
  8
0
  6
CONTINUOUS
 10
88.5900436577078
 20
63.9031266651026
 30
0.0
 40
0.0
 41
0.0
  0
VERTEX
  5
   61D
  8
0
  6
CONTINUOUS
 10
88.5719023294549
 20
63.9644148546824
 30
0.0
 40
0.0
 41
0.0
  0
VERTEX
  5
   61E
  8
0
  6
CONTINUOUS
 10
88.5518592657197
 20
64.0250919554937
 30
0.0
 40
0.0
 41
0.0
  0
VERTEX
  5
   61F
  8
0
  6
CONTINUOUS
 10
88.5299228450691
 20
64.0851243683743
 30
0.0
 40
0.0
 41
0.0
  0
VERTEX
  5
   620
  8
0
  6
CONTINUOUS
 10
88.5061142682434
 20
64.1444804944364
 30
0.0
 40
0.0
 41
0.0
  0
VERTEX
  5
   621
  8
0
  6
CONTINUOUS
 10
88.4804665487016
 20
64.2031310362229
 30
0.0
 40
0.0
 41
0.0
  0
VERTEX
  5
   622
  8
0
  6
CONTINUOUS
 10
88.453023503166
 20
64.2610492988636
 30
0.0
 40
0.0
 41
0.0
  0
VERTEX
  5
   623
  8
0
  6
CONTINUOUS
 10
88.4238387421677
 20
64.3182114912315
 30
0.0
 40
0.0
 41
0.0
  0
VERTEX
  5
   624
  8
0
  6
CONTINUOUS
 10
88.3929746605917
 20
64.3745970270986
 30
0.0
 40
0.0
 41
0.0
  0
VERTEX
  5
   625
  8
0
  6
CONTINUOUS
 10
88.3605014282216
 20
64.4301888262925
 30
0.0
 40
0.0
 41
0.0
  0
VERTEX
  5
   626
  8
0
  6
CONTINUOUS
 10
88.3264959802851
 20
64.4849736158523
 30
0.0
 40
0.0
 41
0.0
  0
VERTEX
  5
   627
  8
0
  6
CONTINUOUS
 10
88.2910410079992
 20
64.538942231185
 30
0.0
 40
0.0
 41
0.0
  0
VERTEX
  5
   628
  8
0
  6
CONTINUOUS
 10
88.2542239491148
 20
64.5920899172213
 30
0.0
 40
0.0
 41
0.0
  0
VERTEX
  5
   629
  8
0
  6
CONTINUOUS
 10
88.2161359784621
 20
64.6444166295722
 30
0.0
 40
0.0
 41
0.0
  0
VERTEX
  5
   62A
  8
0
  6
CONTINUOUS
 10
88.1768709984959
 20
64.6959273356848
 30
0.0
 40
0.0
 41
0.0
  0
VERTEX
  5
   62B
  8
0
  6
CONTINUOUS
 10
88.1365246298403
 20
64.746632315999
 30
0.0
 40
0.0
 41
0.0
  0
VERTEX
  5
   62C
  8
0
  6
CONTINUOUS
 10
88.095193201834
 20
64.7965474651029
 30
0.0
 40
0.0
 41
0.0
  0
VERTEX
  5
   62D
  8
0
  6
CONTINUOUS
 10
88.0529727430756
 20
64.8456945928897
 30
0.0
 40
0.0
 41
0.0
  0
VERTEX
  5
   62E
  8
0
  6
CONTINUOUS
 10
88.0099579719682
 20
64.8941017257134
 30
0.0
 40
0.0
 41
0.0
  0
VERTEX
  5
   62F
  8
0
  6
CONTINUOUS
 10
87.966241287265
 20
64.9418034075453
 30
0.0
 40
0.0
 41
0.0
  0
VERTEX
  5
   630
  8
0
  6
CONTINUOUS
 10
87.921911758614
 20
64.98884100113
 30
0.0
 40
0.0
 41
0.0
  0
VERTEX
  5
   631
  8
0
  6
CONTINUOUS
 10
87.8668913089191
 20
65.0456340604193
 30
0.0
 40
0.0
 41
0.0
  0
VERTEX
  5
   632
  8
0
  6
CONTINUOUS
 10
87.8112236129383
 20
65.1016072665431
 30
0.0
 40
0.0
 41
0.0
  0
VERTEX
  5
   633
  8
0
  6
CONTINUOUS
 10
87.6984791476998
 20
65.2115793513561
 30
0.0
 40
0.0
 41
0.0
  0
VERTEX
  5
   634
  8
0
  6
CONTINUOUS
 10
87.4706862696057
 20
65.427595923393
 30
0.0
 40
0.0
 41
0.0
  0
VERTEX
  5
   635
  8
0
  6
CONTINUOUS
 10
87.3574065772801
 20
65.5361216130541
 30
0.0
 40
0.0
 41
0.0
  0
VERTEX
  5
   636
  8
0
  6
CONTINUOUS
 10
87.3013042858687
 20
65.591069079397
 30
0.0
 40
0.0
 41
0.0
  0
VERTEX
  5
   637
  8
0
  6
CONTINUOUS
 10
87.2457140474442
 20
65.6466771998445
 30
0.0
 40
0.0
 41
0.0
  0
VERTEX
  5
   638
  8
0
  6
CONTINUOUS
 10
87.1907584327686
 20
65.7030908730791
 30
0.0
 40
0.0
 41
0.0
  0
VERTEX
  5
   639
  8
0
  6
CONTINUOUS
 10
87.1365678475904
 20
65.7604457792381
 30
0.0
 40
0.0
 41
0.0
  0
VERTEX
  5
   63A
  8
0
  6
CONTINUOUS
 10
87.0832821895351
 20
65.8188662185514
 30
0.0
 40
0.0
 41
0.0
  0
VERTEX
  5
   63B
  8
0
  6
CONTINUOUS
 10
87.0310525049955
 20
65.8784629499803
 30
0.0
 40
0.0
 41
0.0
  0
VERTEX
  5
   63C
  8
0
  6
CONTINUOUS
 10
86.9800426460227
 20
65.9393310298556
 30
0.0
 40
0.0
 41
0.0
  0
VERTEX
  5
   63D
  8
0
  6
CONTINUOUS
 10
86.9304309272164
 20
66.0015476505157
 30
0.0
 40
0.0
 41
0.0
  0
VERTEX
  5
   63E
  8
0
  6
CONTINUOUS
 10
86.8824117826149
 20
66.0651699789458
 30
0.0
 40
0.0
 41
0.0
  0
VERTEX
  5
   63F
  8
0
  6
CONTINUOUS
 10
86.8361974225867
 20
66.1302329954152
 30
0.0
 40
0.0
 41
0.0
  0
VERTEX
  5
   640
  8
0
  6
CONTINUOUS
 10
86.8059200630963
 20
66.1753050015601
 30
0.0
 40
0.0
 41
0.0
  0
VERTEX
  5
   641
  8
0
  6
CONTINUOUS
 10
86.7766618150351
 20
66.2210452608661
 30
0.0
 40
0.0
 41
0.0
  0
VERTEX
  5
   642
  8
0
  6
CONTINUOUS
 10
86.7485036607365
 20
66.267445165629
 30
0.0
 40
0.0
 41
0.0
  0
VERTEX
  5
   643
  8
0
  6
CONTINUOUS
 10
86.7215282087898
 20
66.3144913184664
 30
0.0
 40
0.0
 41
0.0
  0
VERTEX
  5
   644
  8
0
  6
CONTINUOUS
 10
86.6958182525411
 20
66.3621659714558
 30
0.0
 40
0.0
 41
0.0
  0
VERTEX
  5
   645
  8
0
  6
CONTINUOUS
 10
86.6714553285943
 20
66.4104474652731
 30
0.0
 40
0.0
 41
0.0
  0
VERTEX
  5
   646
  8
0
  6
CONTINUOUS
 10
86.6485182753122
 20
66.4593106683304
 30
0.0
 40
0.0
 41
0.0
  0
VERTEX
  5
   647
  8
0
  6
CONTINUOUS
 10
86.627081791317
 20
66.5087274159146
 30
0.0
 40
0.0
 41
0.0
  0
VERTEX
  5
   648
  8
0
  6
CONTINUOUS
 10
86.6072149939919
 20
66.5586669493253
 30
0.0
 40
0.0
 41
0.0
  0
VERTEX
  5
   649
  8
0
  6
CONTINUOUS
 10
86.5889799779816
 20
66.6090963550133
 30
0.0
 40
0.0
 41
0.0
  0
VERTEX
  5
   64A
  8
0
  6
CONTINUOUS
 10
86.5724303736934
 20
66.6599810037188
 30
0.0
 40
0.0
 41
0.0
  0
VERTEX
  5
   64B
  8
0
  6
CONTINUOUS
 10
86.5576099057983
 20
66.7112849896092
 30
0.0
 40
0.0
 41
0.0
  0
VERTEX
  5
   64C
  8
0
  6
CONTINUOUS
 10
86.5445509517317
 20
66.762971569418
 30
0.0
 40
0.0
 41
0.0
  0
VERTEX
  5
   64D
  8
0
  6
CONTINUOUS
 10
86.5332731001945
 20
66.8150036015825
 30
0.0
 40
0.0
 41
0.0
  0
VERTEX
  5
   64E
  8
0
  6
CONTINUOUS
 10
86.5237817096543
 20
66.867343985382
 30
0.0
 40
0.0
 41
0.0
  0
VERTEX
  5
   64F
  8
0
  6
CONTINUOUS
 10
86.5160664668458
 20
66.9199561000766
 30
0.0
 40
0.0
 41
0.0
  0
VERTEX
  5
   650
  8
0
  6
CONTINUOUS
 10
86.5100999452722
 20
66.9728042440445
 30
0.0
 40
0.0
 41
0.0
  0
VERTEX
  5
   651
  8
0
  6
CONTINUOUS
 10
86.5058361637062
 20
67.0258540739213
 30
0.0
 40
0.0
 41
0.0
  0
VERTEX
  5
   652
  8
0
  6
CONTINUOUS
 10
86.5032091446906
 20
67.0790730437371
 30
0.0
 40
0.0
 41
0.0
  0
VERTEX
  5
   653
  8
0
  6
CONTINUOUS
 10
86.5021314730398
 20
67.1324308440558
 30
0.0
 40
0.0
 41
0.0
  0
VERTEX
  5
   654
  8
0
  6
CONTINUOUS
 10
86.5022967842978
 20
67.174159263548
 30
0.0
 40
0.0
 41
0.0
  0
VERTEX
  5
   655
  8
0
  6
CONTINUOUS
 10
86.5032770246919
 20
67.215943465528
 30
0.0
 40
0.0
 41
0.0
  0
VERTEX
  5
   656
  8
0
  6
CONTINUOUS
 10
86.5073928419495
 20
67.2996366044599
 30
0.0
 40
0.0
 41
0.0
  0
VERTEX
  5
   657
  8
0
  6
CONTINUOUS
 10
86.5138321184075
 20
67.3834332939032
 30
0.0
 40
0.0
 41
0.0
  0
VERTEX
  5
   658
  8
0
  6
CONTINUOUS
 10
86.5218586861699
 20
67.4672669318848
 30
0.0
 40
0.0
 41
0.0
  0
VERTEX
  5
   659
  8
0
  6
CONTINUOUS
 10
86.5394475230257
 20
67.6348060600291
 30
0.0
 40
0.0
 41
0.0
  0
VERTEX
  5
   65A
  8
0
  6
CONTINUOUS
 10
86.5473386085581
 20
67.7183935554952
 30
0.0
 40
0.0
 41
0.0
  0
VERTEX
  5
   65B
  8
0
  6
CONTINUOUS
 10
86.553529720425
 20
67.8017738733005
 30
0.0
 40
0.0
 41
0.0
  0
VERTEX
  5
   65C
  8
0
  6
CONTINUOUS
 10
86.5572511494187
 20
67.8848712103042
 30
0.0
 40
0.0
 41
0.0
  0
VERTEX
  5
   65D
  8
0
  6
CONTINUOUS
 10
86.5579652115626
 20
67.9262863432187
 30
0.0
 40
0.0
 41
0.0
  0
VERTEX
  5
   65E
  8
0
  6
CONTINUOUS
 10
86.5578091312977
 20
67.967595717923
 30
0.0
 40
0.0
 41
0.0
  0
VERTEX
  5
   65F
  8
0
  6
CONTINUOUS
 10
86.5568694890901
 20
68.0045862534764
 30
0.0
 40
0.0
 41
0.0
  0
VERTEX
  5
   660
  8
0
  6
CONTINUOUS
 10
86.5551259929387
 20
68.0414690623115
 30
0.0
 40
0.0
 41
0.0
  0
VERTEX
  5
   661
  8
0
  6
CONTINUOUS
 10
86.5525383013487
 20
68.0782321967789
 30
0.0
 40
0.0
 41
0.0
  0
VERTEX
  5
   662
  8
0
  6
CONTINUOUS
 10
86.5490710467278
 20
68.1148629449372
 30
0.0
 40
0.0
 41
0.0
  0
VERTEX
  5
   663
  8
0
  6
CONTINUOUS
 10
86.544693660299
 20
68.1513478990082
 30
0.0
 40
0.0
 41
0.0
  0
VERTEX
  5
   664
  8
0
  6
CONTINUOUS
 10
86.5393801970137
 20
68.1876730238328
 30
0.0
 40
0.0
 41
0.0
  0
VERTEX
  5
   665
  8
0
  6
CONTINUOUS
 10
86.5331091604641
 20
68.2238237253257
 30
0.0
 40
0.0
 41
0.0
  0
VERTEX
  5
   666
  8
0
  6
CONTINUOUS
 10
86.5258633277962
 20
68.2597849189308
 30
0.0
 40
0.0
 41
0.0
  0
VERTEX
  5
   667
  8
0
  6
CONTINUOUS
 10
86.5176295746225
 20
68.2955410980771
 30
0.0
 40
0.0
 41
0.0
  0
VERTEX
  5
   668
  8
0
  6
CONTINUOUS
 10
86.508398699935
 20
68.331076402633
 30
0.0
 40
0.0
 41
0.0
  0
VERTEX
  5
   669
  8
0
  6
CONTINUOUS
 10
86.4981652510176
 20
68.3663746873627
 30
0.0
 40
0.0
 41
0.0
  0
VERTEX
  5
   66A
  8
0
  6
CONTINUOUS
 10
86.4869273483593
 20
68.4014195903806
 30
0.0
 40
0.0
 41
0.0
  0
VERTEX
  5
   66B
  8
0
  6
CONTINUOUS
 10
86.4746865105669
 20
68.4361946016073
 30
0.0
 40
0.0
 41
0.0
  0
VERTEX
  5
   66C
  8
0
  6
CONTINUOUS
 10
86.4614474792778
 20
68.4706831312245
 30
0.0
 40
0.0
 41
0.0
  0
VERTEX
  5
   66D
  8
0
  6
CONTINUOUS
 10
86.4472180440725
 20
68.5048685781303
 30
0.0
 40
0.0
 41
0.0
  0
VERTEX
  5
   66E
  8
0
  6
CONTINUOUS
 10
86.4320088673877
 20
68.5387343983949
 30
0.0
 40
0.0
 41
0.0
  0
VERTEX
  5
   66F
  8
0
  6
CONTINUOUS
 10
86.4158333094293
 20
68.5722641737156
 30
0.0
 40
0.0
 41
0.0
  0
VERTEX
  5
   670
  8
0
  6
CONTINUOUS
 10
86.3987072530847
 20
68.6054416798719
 30
0.0
 40
0.0
 41
0.0
  0
VERTEX
  5
   671
  8
0
  6
CONTINUOUS
 10
86.380648928836
 20
68.6382509551815
 30
0.0
 40
0.0
 41
0.0
  0
VERTEX
  5
   672
  8
0
  6
CONTINUOUS
 10
86.3616787396724
 20
68.670676368955
 30
0.0
 40
0.0
 41
0.0
  0
VERTEX
  5
   673
  8
0
  6
CONTINUOUS
 10
86.3418190860034
 20
68.7027026899513
 30
0.0
 40
0.0
 41
0.0
  0
VERTEX
  5
   674
  8
0
  6
CONTINUOUS
 10
86.3210941905714
 20
68.7343151548332
 30
0.0
 40
0.0
 41
0.0
  0
VERTEX
  5
   675
  8
0
  6
CONTINUOUS
 10
86.2995299233647
 20
68.7654995366225
 30
0.0
 40
0.0
 41
0.0
  0
VERTEX
  5
   676
  8
0
  6
CONTINUOUS
 10
86.2771536265299
 20
68.7962422131554
 30
0.0
 40
0.0
 41
0.0
  0
VERTEX
  5
   677
  8
0
  6
CONTINUOUS
 10
86.2539939392849
 20
68.8265302355377
 30
0.0
 40
0.0
 41
0.0
  0
VERTEX
  5
   678
  8
0
  6
CONTINUOUS
 10
86.2300806228321
 20
68.8563513966002
 30
0.0
 40
0.0
 41
0.0
  0
VERTEX
  5
   679
  8
0
  6
CONTINUOUS
 10
86.2054443852704
 20
68.8856942993539
 30
0.0
 40
0.0
 41
0.0
  0
VERTEX
  5
   67A
  8
0
  6
CONTINUOUS
 10
86.1801167065085
 20
68.9145484254456
 30
0.0
 40
0.0
 41
0.0
  0
VERTEX
  5
   67B
  8
0
  6
CONTINUOUS
 10
86.154129663178
 20
68.9429042036129
 30
0.0
 40
0.0
 41
0.0
  0
VERTEX
  5
   67C
  8
0
  6
CONTINUOUS
 10
86.1275157535453
 20
68.9707530781397
 30
0.0
 40
0.0
 41
0.0
  0
VERTEX
  5
   67D
  8
0
  6
CONTINUOUS
 10
86.0725383860938
 20
69.0249013818702
 30
0.0
 40
0.0
 41
0.0
  0
VERTEX
  5
   67E
  8
0
  6
CONTINUOUS
 10
86.0154463696798
 20
69.0769478031346
 30
0.0
 40
0.0
 41
0.0
  0
VERTEX
  5
   67F
  8
0
  6
CONTINUOUS
 10
85.9564970104139
 20
69.1268674383102
 30
0.0
 40
0.0
 41
0.0
  0
VERTEX
  5
   680
  8
0
  6
CONTINUOUS
 10
85.8959375522002
 20
69.1746582042242
 30
0.0
 40
0.0
 41
0.0
  0
VERTEX
  5
   681
  8
0
  6
CONTINUOUS
 10
85.8339995739461
 20
69.2203430287238
 30
0.0
 40
0.0
 41
0.0
  0
VERTEX
  5
   682
  8
0
  6
CONTINUOUS
 10
85.7801719334111
 20
69.2577279049986
 30
0.0
 40
0.0
 41
0.0
  0
VERTEX
  5
   683
  8
0
  6
CONTINUOUS
 10
85.7256093387076
 20
69.2936604595979
 30
0.0
 40
0.0
 41
0.0
  0
VERTEX
  5
   684
  8
0
  6
CONTINUOUS
 10
85.6704151480458
 20
69.3282025233929
 30
0.0
 40
0.0
 41
0.0
  0
VERTEX
  5
   685
  8
0
  6
CONTINUOUS
 10
85.6146805083812
 20
69.3614289119582
 30
0.0
 40
0.0
 41
0.0
  0
VERTEX
  5
   686
  8
0
  6
CONTINUOUS
 10
85.55848539626
 20
69.393426100812
 30
0.0
 40
0.0
 41
0.0
  0
VERTEX
  5
   687
  8
0
  6
CONTINUOUS
 10
85.5018996586658
 20
69.4242909006561
 30
0.0
 40
0.0
 41
0.0
  0
VERTEX
  5
   688
  8
0
  6
CONTINUOUS
 10
85.4449840538656
 20
69.4541291326162
 30
0.0
 40
0.0
 41
0.0
  0
VERTEX
  5
   689
  8
0
  6
CONTINUOUS
 10
85.3877912922563
 20
69.4830543034821
 30
0.0
 40
0.0
 41
0.0
  0
VERTEX
  5
   68A
  8
0
  6
CONTINUOUS
 10
85.2727511459235
 20
69.5386499688517
 30
0.0
 40
0.0
 41
0.0
  0
VERTEX
  5
   68B
  8
0
  6
CONTINUOUS
 10
85.1570794975929
 20
69.5920893234896
 30
0.0
 40
0.0
 41
0.0
  0
VERTEX
  5
   68C
  8
0
  6
CONTINUOUS
 10
84.9247653548901
 20
69.69669334513
 30
0.0
 40
0.0
 41
0.0
  0
VERTEX
  5
   68D
  8
0
  6
CONTINUOUS
 10
84.8085458858565
 20
69.7499022262967
 30
0.0
 40
0.0
 41
0.0
  0
VERTEX
  5
   68E
  8
0
  6
CONTINUOUS
 10
84.6926075796609
 20
69.8049584404308
 30
0.0
 40
0.0
 41
0.0
  0
VERTEX
  5
   68F
  8
0
  6
CONTINUOUS
 10
84.6268154826745
 20
69.8374484537215
 30
0.0
 40
0.0
 41
0.0
  0
VERTEX
  5
   690
  8
0
  6
CONTINUOUS
 10
84.5612903295818
 20
69.8709143929626
 30
0.0
 40
0.0
 41
0.0
  0
VERTEX
  5
   691
  8
0
  6
CONTINUOUS
 10
84.4961151228329
 20
69.9054598695264
 30
0.0
 40
0.0
 41
0.0
  0
VERTEX
  5
   692
  8
0
  6
CONTINUOUS
 10
84.4313819368699
 20
69.9411722771764
 30
0.0
 40
0.0
 41
0.0
  0
VERTEX
  5
   693
  8
0
  6
CONTINUOUS
 10
84.3671909605679
 20
69.9781238288117
 30
0.0
 40
0.0
 41
0.0
  0
VERTEX
  5
   694
  8
0
  6
CONTINUOUS
 10
84.3036495396766
 20
70.0163725932117
 30
0.0
 40
0.0
 41
0.0
  0
VERTEX
  5
   695
  8
0
  6
CONTINUOUS
 10
84.2408712192617
 20
70.0559635317802
 30
0.0
 40
0.0
 41
0.0
  0
VERTEX
  5
   696
  8
0
  6
CONTINUOUS
 10
84.1789747861466
 20
70.09692953529
 30
0.0
 40
0.0
 41
0.0
  0
VERTEX
  5
   697
  8
0
  6
CONTINUOUS
 10
84.1180833113537
 20
70.1392924606276
 30
0.0
 40
0.0
 41
0.0
  0
VERTEX
  5
   698
  8
0
  6
CONTINUOUS
 10
84.0583231925461
 20
70.1830641675369
 30
0.0
 40
0.0
 41
0.0
  0
VERTEX
  5
   699
  8
0
  6
CONTINUOUS
 10
83.9998231964687
 20
70.2282475553646
 30
0.0
 40
0.0
 41
0.0
  0
VERTEX
  5
   69A
  8
0
  6
CONTINUOUS
 10
83.9427135013903
 20
70.2748375998039
 30
0.0
 40
0.0
 41
0.0
  0
VERTEX
  5
   69B
  8
0
  6
CONTINUOUS
 10
83.8871247395442
 20
70.3228223896393
 30
0.0
 40
0.0
 41
0.0
  0
VERTEX
  5
   69C
  8
0
  6
CONTINUOUS
 10
83.8331870395707
 20
70.3721841634909
 30
0.0
 40
0.0
 41
0.0
  0
VERTEX
  5
   69D
  8
0
  6
CONTINUOUS
 10
83.7810290689579
 20
70.4229003465588
 30
0.0
 40
0.0
 41
0.0
  0
VERTEX
  5
   69E
  8
0
  6
CONTINUOUS
 10
83.7307770764834
 20
70.4749445873679
 30
0.0
 40
0.0
 41
0.0
  0
VERTEX
  5
   69F
  8
0
  6
CONTINUOUS
 10
83.6825539346558
 20
70.5282877945116
 30
0.0
 40
0.0
 41
0.0
  0
VERTEX
  5
   6A0
  8
0
  6
CONTINUOUS
 10
83.636478182156
 20
70.5828991733972
 30
0.0
 40
0.0
 41
0.0
  0
VERTEX
  5
   6A1
  8
0
  6
CONTINUOUS
 10
83.5926630662792
 20
70.6387472629895
 30
0.0
 40
0.0
 41
0.0
  0
VERTEX
  5
   6A2
  8
0
  6
CONTINUOUS
 10
83.5512155853757
 20
70.6958009725558
 30
0.0
 40
0.0
 41
0.0
  0
VERTEX
  5
   6A3
  8
0
  6
CONTINUOUS
 10
83.5182810876282
 20
70.7446691696737
 30
0.0
 40
0.0
 41
0.0
  0
VERTEX
  5
   6A4
  8
0
  6
CONTINUOUS
 10
83.4871450760598
 20
70.7943517247529
 30
0.0
 40
0.0
 41
0.0
  0
VERTEX
  5
   6A5
  8
0
  6
CONTINUOUS
 10
83.457858603883
 20
70.8448333557687
 30
0.0
 40
0.0
 41
0.0
  0
VERTEX
  5
   6A6
  8
0
  6
CONTINUOUS
 10
83.4304689401921
 20
70.8960999134165
 30
0.0
 40
0.0
 41
0.0
  0
VERTEX
  5
   6A7
  8
0
  6
CONTINUOUS
 10
83.4050197157093
 20
70.9481383374845
 30
0.0
 40
0.0
 41
0.0
  0
VERTEX
  5
   6A8
  8
0
  6
CONTINUOUS
 10
83.3815510685323
 20
71.0009366132265
 30
0.0
 40
0.0
 41
0.0
  0
VERTEX
  5
   6A9
  8
0
  6
CONTINUOUS
 10
83.360099789881
 20
71.0544837277346
 30
0.0
 40
0.0
 41
0.0
  0
VERTEX
  5
   6AA
  8
0
  6
CONTINUOUS
 10
83.3406994698445
 20
71.1087696263122
 30
0.0
 40
0.0
 41
0.0
  0
VERTEX
  5
   6AB
  8
0
  6
CONTINUOUS
 10
83.3233806431276
 20
71.1637851688466
 30
0.0
 40
0.0
 41
0.0
  0
VERTEX
  5
   6AC
  8
0
  6
CONTINUOUS
 10
83.3081709347987
 20
71.2195220861821
 30
0.0
 40
0.0
 41
0.0
  0
VERTEX
  5
   6AD
  8
0
  6
CONTINUOUS
 10
83.2950952060356
 20
71.2759729364924
 30
0.0
 40
0.0
 41
0.0
  0
VERTEX
  5
   6AE
  8
0
  6
CONTINUOUS
 10
83.2841756998733
 20
71.333131061654
 30
0.0
 40
0.0
 41
0.0
  0
VERTEX
  5
   6AF
  8
0
  6
CONTINUOUS
 10
83.2754321869504
 20
71.3909905436183
 30
0.0
 40
0.0
 41
0.0
  0
VERTEX
  5
   6B0
  8
0
  6
CONTINUOUS
 10
83.2688821112563
 20
71.449546160785
 30
0.0
 40
0.0
 41
0.0
  0
VERTEX
  5
   6B1
  8
0
  6
CONTINUOUS
 10
83.2645407358781
 20
71.5087933443745
 30
0.0
 40
0.0
 41
0.0
  0
VERTEX
  5
   6B2
  8
0
  6
CONTINUOUS
 10
83.2624212887476
 20
71.5687281348011
 30
0.0
 40
0.0
 41
0.0
  0
VERTEX
  5
   6B3
  8
0
  6
CONTINUOUS
 10
83.2625351083878
 20
71.6293471380453
 30
0.0
 40
0.0
 41
0.0
  0
VERTEX
  5
   6B4
  8
0
  6
CONTINUOUS
 10
83.2648917896605
 20
71.6906474820273
 30
0.0
 40
0.0
 41
0.0
  0
VERTEX
  5
   6B5
  8
0
  6
CONTINUOUS
 10
83.2694993295128
 20
71.752626772979
 30
0.0
 40
0.0
 41
0.0
  0
VERTEX
  5
   6B6
  8
0
  6
CONTINUOUS
 10
83.2763642727239
 20
71.8152830518175
 30
0.0
 40
0.0
 41
0.0
  0
VERTEX
  5
   6B7
  8
0
  6
CONTINUOUS
 10
78.4975661842719
 20
72.324796316589
 30
0.0
 40
0.0
 41
0.0
  0
VERTEX
  5
   6B8
  8
0
  6
CONTINUOUS
 10
70.0700075963875
 20
72.1237719833
 30
0.0
 40
0.0
 41
0.0
  0
SEQEND
  5
   6B9
  8
0
  6
CONTINUOUS
 62
     3
  0
LINE
  5
   6BA
  8
0
  6
CONTINUOUS
 62
     3
 10
117.455984845757
 20
63.2393970421351
 30
0.0
 11
117.455984845757
 21
126.63939646099
 31
0.0
  0
LINE
  5
   6BB
  8
0
  6
CONTINUOUS
 62
     3
 10
70.6559841483831
 20
72.1377494056411
 30
0.0
 11
70.6559841483831
 21
126.63939646099
 31
0.0
  0
LINE
  5
   6BC
  8
0
  6
CONTINUOUS
 62
     3
 10
116.955984838307
 20
127.13939646844
 30
0.0
 11
71.1559841558337
 21
127.13939646844
 31
0.0
  0
LINE
  5
   6BD
  8
0
  6
CONTINUOUS
 62
     3
 10
115.255984812975
 20
73.7393971985973
 30
0.0
 11
115.255984812975
 21
116.139397830407
 31
0.0
  0
LINE
  5
   6BE
  8
0
  6
CONTINUOUS
 62
     3
 10
115.255984812975
 20
73.7393971985973
 30
0.0
 11
72.8559841811657
 21
73.7393971985973
 31
0.0
  0
LINE
  5
   6BF
  8
0
  6
CONTINUOUS
 62
     3
 10
72.8559841811657
 20
73.7393971985973
 30
0.0
 11
72.8559841811657
 21
116.139397830407
 31
0.0
  0
LINE
  5
   6C0
  8
0
  6
CONTINUOUS
 62
     3
 10
115.255984812975
 20
116.139396304528
 30
0.0
 11
72.8559841811657
 21
116.139396304528
 31
0.0
  0
LINE
  5
   6C1
  8
0
  6
CONTINUOUS
 62
     3
 10
115.655984818935
 20
70.3393971479333
 30
0.0
 11
115.655984818935
 21
70.7393971538938
 31
0.0
  0
LINE
  5
   6C2
  8
0
  6
CONTINUOUS
 62
     3
 10
115.255984812975
 20
71.1393971598543
 30
0.0
 11
83.3307655734909
 21
71.1393971598543
 31
0.0
  0
LINE
  5
   6C3
  8
0
  6
CONTINUOUS
 62
     3
 10
115.255984812975
 20
70.7393971538938
 30
0.0
 11
83.5215661989198
 21
70.7393971538938
 31
0.0
  0
LINE
  5
   6C4
  8
0
  6
CONTINUOUS
 62
     3
 10
72.4559841752052
 20
72.1806851860974
 30
0.0
 11
72.4559841752052
 21
127.13939646844
 31
0.0
  0
LINE
  5
   6C5
  8
0
  6
CONTINUOUS
 62
     3
 10
72.8559841811657
 20
116.139396304528
 30
0.0
 11
72.8559841811657
 21
118.739396343271
 31
0.0
  0
LINE
  5
   6C6
  8
0
  6
CONTINUOUS
 62
     3
 10
72.8559841811657
 20
72.1902264706433
 30
0.0
 11
72.8559841811657
 21
73.7393971985973
 31
0.0
  0
LINE
  5
   6C7
  8
0
  6
CONTINUOUS
 62
     3
 10
115.655984818935
 20
62.7393970346845
 30
0.0
 11
115.655984818935
 21
70.3393971479333
 31
0.0
  0
LINE
  5
   6C8
  8
0
  6
CONTINUOUS
 62
     3
 10
115.655984818935
 20
70.7393971538938
 30
0.0
 11
115.655984818935
 21
127.13939646844
 31
0.0
  0
LINE
  5
   6C9
  8
0
  6
CONTINUOUS
 62
     3
 10
115.255984812975
 20
71.1393971598543
 30
0.0
 11
115.255984812975
 21
73.7393971985973
 31
0.0
  0
LINE
  5
   6CA
  8
0
  6
CONTINUOUS
 62
     3
 10
115.255984812975
 20
116.139396304528
 30
0.0
 11
115.255984812975
 21
118.739396343271
 31
0.0
  0
LINE
  5
   6CB
  8
0
  6
CONTINUOUS
 62
     3
 10
115.255984812975
 20
62.7393970346845
 30
0.0
 11
115.255984812975
 21
70.7393971538938
 31
0.0
  0
LINE
  5
   6CC
  8
0
  6
CONTINUOUS
 62
     3
 10
115.655984818935
 20
119.139396349231
 30
0.0
 11
72.4559841752052
 21
119.139396349231
 31
0.0
  0
LINE
  5
   6CD
  8
0
  6
CONTINUOUS
 62
     3
 10
115.255984812975
 20
118.739396343271
 30
0.0
 11
72.8559841811657
 21
118.739396343271
 31
0.0
  0
ARC
  5
   6CE
  8
0
  6
CONTINUOUS
 62
     3
 10
116.955984838307
 20
63.2393970421351
 30
0.0
 40
0.500000007450581
 50
269.999999948034
 51
359.999999948034
  0
ARC
  5
   6CF
  8
0
  6
CONTINUOUS
 62
     3
 10
116.955984838307
 20
126.63939646099
 30
0.0
 40
0.500000007450581
 50
359.999999948034
 51
449.999999948034
  0
ARC
  5
   6D0
  8
0
  6
CONTINUOUS
 62
     3
 10
71.1559841558337
 20
126.63939646099
 30
0.0
 40
0.500000007450581
 50
89.9999999480344
 51
179.999999948034
  0
LINE
  5
   6D1
  8
0
  6
DOT
 62
     3
 10
72.4559841752052
 20
122.839397972049
 30
0.0
 11
72.2559845342371
 21
122.839397972049
 31
0.0
  0
LINE
  5
   6D2
  8
0
  6
DOT
 62
     3
 10
72.4559841752052
 20
123.43939798099
 30
0.0
 11
72.255984534237
 21
123.43939798099
 31
0.0
  0
LINE
  5
   6D3
  8
0
  6
CONTINUOUS
 62
     3
 10
115.655984818935
 20
122.839397972118
 30
0.0
 11
115.455985179706
 21
122.839397972118
 31
0.0
  0
LINE
  5
   6D4
  8
0
  6
CONTINUOUS
 62
     3
 10
115.655984818935
 20
123.439397981059
 30
0.0
 11
115.455985179706
 21
123.439397981059
 31
0.0
  0
ARC
  5
   6D5
  8
0
  6
DOT
 62
     3
 10
72.2559845339249
 20
123.139397976538
 30
0.0
 40
0.300000004208414
 50
89.9999999480344
 51
269.999999948034
  0
ARC
  5
   6D6
  8
0
  6
CONTINUOUS
 62
     3
 10
72.6559845401393
 20
123.139397976469
 30
0.0
 40
0.300000004474229
 50
269.999999948034
 51
449.999999948034
  0
LINE
  5
   6D7
  8
0
  6
CONTINUOUS
 62
     3
 10
72.655984540198
 20
123.43939798099
 30
0.0
 11
72.4559841752052
 21
123.43939798099
 31
0.0
  0
LINE
  5
   6D8
  8
0
  6
CONTINUOUS
 62
     3
 10
72.655984540198
 20
122.839397972049
 30
0.0
 11
72.4559841752052
 21
122.839397972049
 31
0.0
  0
ARC
  5
   6D9
  8
0
  6
CONTINUOUS
 62
     3
 10
115.455985179782
 20
123.13939797646
 30
0.0
 40
0.300000004489751
 50
89.9999999519166
 51
269.999999944059
  0
ARC
  5
   6DA
  8
0
  6
DOT
 62
     3
 10
115.855985185709
 20
123.139397976466
 30
0.0
 40
0.30000000448199
 50
269.999999950484
 51
449.99999994552
  0
LINE
  5
   6DB
  8
0
  6
DOT
 62
     3
 10
115.855985185667
 20
123.439397981059
 30
0.0
 11
115.655984818935
 21
123.439397981059
 31
0.0
  0
LINE
  5
   6DC
  8
0
  6
DOT
 62
     3
 10
115.855985185666
 20
122.839397972118
 30
0.0
 11
115.655984818935
 21
122.839397972118
 31
0.0
  0
LINE
  5
   6DD
  8
0
  6
CONTINUOUS
 62
     3
 10
116.955984838307
 20
62.7393970346845
 30
0.0
 11
88.6568463533781
 21
62.7393970346845
 31
0.0
  0
ARC
  5
   6DE
  8
0
  6
CONTINUOUS
 62
     7
 10
87.0559774906193
 20
68.0393933916476
 30
0.0
 40
1.79999922154889
 50
136.521683037288
 51
260.198490207526
  0
ARC
  5
   6DF
  8
0
  6
DOT
 62
     7
 10
87.0559774906193
 20
68.0393933916476
 30
0.0
 40
1.79999922154889
 50
260.198490207526
 51
359.999999948034
  0
INSERT
  5
   6E0
  8
0
  6
CONTINUOUS
 62
     7
  2
*UDIM172
 10
0.0
 20
0.0
 30
0.0
  0
INSERT
  5
   6E1
  8
0
  6
CONTINUOUS
 62
     7
  2
*UDIM173
 10
0.0
 20
0.0
 30
0.0
  0
INSERT
  5
   6E2
  8
0
  6
CONTINUOUS
 62
     7
  2
*UDIM174
 10
0.0
 20
0.0
 30
0.0
  0
INSERT
  5
   6E3
  8
0
  6
CONTINUOUS
 62
     7
  2
*UDIM175
 10
0.0
 20
0.0
 30
0.0
  0
INSERT
  5
   6E4
  8
0
  6
CONTINUOUS
 62
     7
  2
*UDIM176
 10
0.0
 20
0.0
 30
0.0
  0
INSERT
  5
   6E5
  8
0
  6
CONTINUOUS
 62
     7
  2
*UDIM177
 10
0.0
 20
0.0
 30
0.0
  0
TEXT
  5
   6E6
  8
0
  6
CONTINUOUS
 62
     7
 10
130.083221917488
 20
87.1497295175121
 30
0.0
 40
2.99999994933605
  1
=    =
 50
89.9999999480344
 41
0.91666673368878
 72
     1
 11
128.583221950043
 21
95.1247299814275
 31
0.0
 73
     2
  0
INSERT
  5
   6E7
  8
0
  6
CONTINUOUS
 62
     7
  2
*UDIM178
 10
0.0
 20
0.0
 30
0.0
  0
INSERT
  5
   6E8
  8
0
  6
CONTINUOUS
 62
     7
  2
*UDIM179
 10
0.0
 20
0.0
 30
0.0
  0
INSERT
  5
   6E9
  8
0
  6
CONTINUOUS
 62
     7
  2
*UDIM180
 10
0.0
 20
0.0
 30
0.0
  0
TEXT
  5
   6EA
  8
0
  6
CONTINUOUS
 62
     7
 10
93.2036738396662
 20
185.733124387858
 30
0.0
 40
2.99999994933605
  1
Y
 50
359.999999948034
 41
0.916666607525612
 72
     2
 11
95.403673657872
 21
185.733124385874
 31
0.0
  0
TEXT
  5
   6EB
  8
0
  6
CONTINUOUS
 62
     7
 10
147.407895490695
 20
93.6679780026573
 30
0.0
 40
2.99999994933605
  1
X
 50
359.999999948034
 41
0.916666607525612
 72
     2
 11
149.607895308901
 21
93.667978000673
 31
0.0
  0
TEXT
  5
   6EC
  8
0
  6
CONTINUOUS
 62
     7
 10
39.2954976394603
 20
93.952872759405
 30
0.0
 40
2.99999994933605
  1
X
 50
359.999999948034
 41
0.916666607525612
 72
     2
 11
41.4954974576661
 21
93.9528727574207
 31
0.0
  0
LINE
  5
   6ED
  8
0
  6
CONTINUOUS
 62
     3
 10
115.043984085321
 20
-20.0312580168247
 30
0.0
 11
73.0439834594737
 21
-20.0312580168247
 31
0.0
  0
LINE
  5
   6EE
  8
0
  6
CONTINUOUS
 62
     3
 10
73.0439840802718
 20
-36.0203201560919
 30
0.0
 11
73.0439834594737
 21
-20.0312580168247
 31
0.0
  0
LINE
  5
   6EF
  8
0
  6
CONTINUOUS
 62
     3
 10
115.043984085321
 20
-20.0312580168247
 30
0.0
 11
115.043984085321
 21
-36.0203201560919
 31
0.0
  0
LINE
  5
   6F0
  8
0
  6
CONTINUOUS
 62
     7
 10
84.4559839041829
 20
-5.631257802248
 30
0.0
 11
75.6559837730527
 21
-5.631257802248
 31
0.0
  0
LINE
  5
   6F1
  8
0
  6
CONTINUOUS
 62
     7
 10
84.4559837134481
 20
-4.63125778734684
 30
0.0
 11
75.6559835823178
 21
-4.63125778734684
 31
0.0
  0
LINE
  5
   6F2
  8
0
  6
CONTINUOUS
 62
     7
 10
112.455983558476
 20
-5.631257802248
 30
0.0
 11
103.655983427346
 21
-5.631257802248
 31
0.0
  0
LINE
  5
   6F3
  8
0
  6
CONTINUOUS
 62
     7
 10
112.455983558476
 20
-4.63125778734684
 30
0.0
 11
103.655983427346
 21
-4.63125778734684
 31
0.0
  0
LINE
  5
   6F4
  8
0
  6
CONTINUOUS
 62
     7
 10
98.4559833498597
 20
12.3687424659729
 30
0.0
 11
89.6559832187295
 21
12.3687424659729
 31
0.0
  0
LINE
  5
   6F5
  8
0
  6
CONTINUOUS
 62
     7
 10
98.4559833498597
 20
13.3687424808741
 30
0.0
 11
89.6559832187295
 21
13.3687424808741
 31
0.0
  0
LINE
  5
   6F6
  8
0
  6
CONTINUOUS
 62
     7
 10
98.4559833498597
 20
14.3687424957752
 30
0.0
 11
89.6559832187295
 21
14.3687424957752
 31
0.0
  0
LINE
  5
   6F7
  8
0
  6
CONTINUOUS
 62
     7
 10
98.4559833498597
 20
15.3687425106764
 30
0.0
 11
89.6559832187295
 21
15.3687425106764
 31
0.0
  0
LINE
  5
   6F8
  8
0
  6
CONTINUOUS
 62
     7
 10
84.4559839041829
 20
-3.63125777244568
 30
0.0
 11
75.6559837730527
 21
-3.63125777244568
 31
0.0
  0
LINE
  5
   6F9
  8
0
  6
CONTINUOUS
 62
     7
 10
84.4559837134481
 20
-2.63125775754452
 30
0.0
 11
75.6559835823178
 21
-2.63125775754452
 31
0.0
  0
LINE
  5
   6FA
  8
0
  6
CONTINUOUS
 62
     7
 10
112.455983558476
 20
-3.63125777244568
 30
0.0
 11
103.655983427346
 21
-3.63125777244568
 31
0.0
  0
LINE
  5
   6FB
  8
0
  6
CONTINUOUS
 62
     7
 10
112.455983558476
 20
-2.63125775754452
 30
0.0
 11
103.655983427346
 21
-2.63125775754452
 31
0.0
  0
LINE
  5
   6FC
  8
0
  6
CONTINUOUS
 62
     3
 10
104.255983436286
 20
-0.231257721781731
 30
0.0
 11
104.255983436286
 21
-2.63125775754452
 31
0.0
  0
LINE
  5
   6FD
  8
0
  6
CONTINUOUS
 62
     3
 10
111.855983549535
 20
-0.231257721781731
 30
0.0
 11
111.855983549535
 21
-2.63125775754452
 31
0.0
  0
LINE
  5
   6FE
  8
0
  6
CONTINUOUS
 62
     3
 10
111.855983549535
 20
-0.231257721781731
 30
0.0
 11
104.255983436286
 21
-0.231257721781731
 31
0.0
  0
LINE
  5
   6FF
  8
0
  6
CONTINUOUS
 62
     3
 10
90.2559832276702
 20
17.7687425464392
 30
0.0
 11
90.2559832276702
 21
15.3687425106764
 31
0.0
  0
LINE
  5
   700
  8
0
  6
CONTINUOUS
 62
     3
 10
97.855983340919
 20
17.7687425464392
 30
0.0
 11
97.855983340919
 21
15.3687425106764
 31
0.0
  0
LINE
  5
   701
  8
0
  6
CONTINUOUS
 62
     3
 10
97.855983340919
 20
17.7687425464392
 30
0.0
 11
90.2559832276702
 21
17.7687425464392
 31
0.0
  0
LINE
  5
   702
  8
0
  6
CONTINUOUS
 62
     3
 10
90.2559832276702
 20
12.3687424659729
 30
0.0
 11
90.2559832276702
 21
9.96874243021011
 31
0.0
  0
LINE
  5
   703
  8
0
  6
CONTINUOUS
 62
     3
 10
97.855983340919
 20
12.3687424659729
 30
0.0
 11
97.855983340919
 21
9.96874243021011
 31
0.0
  0
LINE
  5
   704
  8
0
  6
CONTINUOUS
 62
     3
 10
97.855983340919
 20
9.96874243021011
 30
0.0
 11
90.2559832276702
 21
9.96874243021011
 31
0.0
  0
LINE
  5
   705
  8
0
  6
CONTINUOUS
 62
     3
 10
76.2559834005237
 20
-5.631257802248
 30
0.0
 11
76.2559834005237
 21
-8.03125783801079
 31
0.0
  0
LINE
  5
   706
  8
0
  6
CONTINUOUS
 62
     3
 10
83.8559838952422
 20
-5.631257802248
 30
0.0
 11
83.8559838952422
 21
-8.03125783801079
 31
0.0
  0
LINE
  5
   707
  8
0
  6
CONTINUOUS
 62
     3
 10
83.8559838952422
 20
-8.03125783801079
 30
0.0
 11
76.2559837819934
 21
-8.03125783801079
 31
0.0
  0
LINE
  5
   708
  8
0
  6
CONTINUOUS
 62
     3
 10
76.2559834005237
 20
-0.231257721781731
 30
0.0
 11
76.2559834005237
 21
-2.63125775754452
 31
0.0
  0
LINE
  5
   709
  8
0
  6
CONTINUOUS
 62
     3
 10
83.8559838952422
 20
-0.231257721781731
 30
0.0
 11
83.8559838952422
 21
-2.63125775754452
 31
0.0
  0
LINE
  5
   70A
  8
0
  6
CONTINUOUS
 62
     3
 10
83.8559835137725
 20
-0.231257721781731
 30
0.0
 11
76.2559834005237
 21
-0.231257721781731
 31
0.0
  0
LINE
  5
   70B
  8
0
  6
CONTINUOUS
 62
     3
 10
104.255983436286
 20
-5.631257802248
 30
0.0
 11
104.255983436286
 21
-8.03125783801079
 31
0.0
  0
LINE
  5
   70C
  8
0
  6
CONTINUOUS
 62
     3
 10
111.855983549535
 20
-5.631257802248
 30
0.0
 11
111.855983549535
 21
-8.03125783801079
 31
0.0
  0
LINE
  5
   70D
  8
0
  6
CONTINUOUS
 62
     3
 10
111.855983549535
 20
-8.03125783801079
 30
0.0
 11
104.255983436286
 21
-8.03125783801079
 31
0.0
  0
LINE
  5
   70E
  8
0
  6
CONTINUOUS
 62
    98
 10
96.0559833140969
 20
20.7687425911427
 30
0.0
 11
92.0559832544923
 21
20.7687425911427
 31
0.0
  0
LINE
  5
   70F
  8
0
  6
CONTINUOUS
 62
    98
 10
82.0559838684201
 20
2.76874232292175
 30
0.0
 11
78.0559834273458
 21
2.76874232292175
 31
0.0
  0
LINE
  5
   710
  8
0
  6
CONTINUOUS
 62
    98
 10
110.055983522713
 20
2.76874232292175
 30
0.0
 11
106.055983463109
 21
2.76874232292175
 31
0.0
  0
LINE
  5
   711
  8
0
  6
CONTINUOUS
 62
     7
 10
75.6559835823178
 20
-4.63125778734684
 30
0.0
 11
75.6559835823178
 21
-5.631257802248
 31
0.0
  0
LINE
  5
   712
  8
0
  6
CONTINUOUS
 62
     7
 10
84.4559839041829
 20
-4.63125778734684
 30
0.0
 11
84.4559839041829
 21
-5.631257802248
 31
0.0
  0
LINE
  5
   713
  8
0
  6
CONTINUOUS
 62
     7
 10
103.655983427346
 20
-4.63125778734684
 30
0.0
 11
103.655983427346
 21
-5.631257802248
 31
0.0
  0
LINE
  5
   714
  8
0
  6
CONTINUOUS
 62
     7
 10
112.455983558476
 20
-4.63125778734684
 30
0.0
 11
112.455983558476
 21
-5.631257802248
 31
0.0
  0
LINE
  5
   715
  8
0
  6
CONTINUOUS
 62
     7
 10
89.6559832187295
 20
13.3687424808741
 30
0.0
 11
89.6559832187295
 21
12.3687424659729
 31
0.0
  0
LINE
  5
   716
  8
0
  6
CONTINUOUS
 62
     7
 10
98.4559833498597
 20
13.3687424808741
 30
0.0
 11
98.4559833498597
 21
12.3687424659729
 31
0.0
  0
LINE
  5
   717
  8
0
  6
CONTINUOUS
 62
     7
 10
89.6559832187295
 20
15.3687425106764
 30
0.0
 11
89.6559832187295
 21
14.3687424957752
 31
0.0
  0
LINE
  5
   718
  8
0
  6
CONTINUOUS
 62
     7
 10
98.4559833498597
 20
15.3687425106764
 30
0.0
 11
98.4559833498597
 21
14.3687424957752
 31
0.0
  0
LINE
  5
   719
  8
0
  6
CONTINUOUS
 62
     7
 10
75.6559835823178
 20
-2.63125775754452
 30
0.0
 11
75.6559835823178
 21
-3.63125777244568
 31
0.0
  0
LINE
  5
   71A
  8
0
  6
CONTINUOUS
 62
     7
 10
84.4559839041829
 20
-2.63125775754452
 30
0.0
 11
84.4559839041829
 21
-3.63125777244568
 31
0.0
  0
LINE
  5
   71B
  8
0
  6
CONTINUOUS
 62
     7
 10
103.655983427346
 20
-2.63125775754452
 30
0.0
 11
103.655983427346
 21
-3.63125777244568
 31
0.0
  0
LINE
  5
   71C
  8
0
  6
CONTINUOUS
 62
     7
 10
112.455983558476
 20
-2.63125775754452
 30
0.0
 11
112.455983558476
 21
-3.63125777244568
 31
0.0
  0
LINE
  5
   71D
  8
0
  6
CONTINUOUS
 62
     3
 10
108.055983492911
 20
-0.231257721781731
 30
0.0
 11
108.055983492911
 21
-2.63125775754452
 31
0.0
  0
LINE
  5
   71E
  8
0
  6
CONTINUOUS
 62
     3
 10
94.0559832842946
 20
17.7687425464392
 30
0.0
 11
94.0559832842946
 21
15.3687425106764
 31
0.0
  0
LINE
  5
   71F
  8
0
  6
CONTINUOUS
 62
     3
 10
94.0559832842946
 20
12.3687424659729
 30
0.0
 11
94.0559832842946
 21
9.96874243021011
 31
0.0
  0
LINE
  5
   720
  8
0
  6
CONTINUOUS
 62
     3
 10
80.0559838386178
 20
-5.631257802248
 30
0.0
 11
80.0559838386178
 21
-8.03125783801079
 31
0.0
  0
LINE
  5
   721
  8
0
  6
CONTINUOUS
 62
     3
 10
80.0559838386178
 20
-0.231257721781731
 30
0.0
 11
80.0559838386178
 21
-2.63125775754452
 31
0.0
  0
LINE
  5
   722
  8
0
  6
CONTINUOUS
 62
     3
 10
108.055983492911
 20
-5.631257802248
 30
0.0
 11
108.055983492911
 21
-8.03125783801079
 31
0.0
  0
LINE
  5
   723
  8
0
  6
CONTINUOUS
 62
     2
 10
104.855983445227
 20
-8.03125783801079
 30
0.0
 11
104.855983445227
 21
-20.0312580168247
 31
0.0
  0
LINE
  5
   724
  8
0
  6
CONTINUOUS
 62
     2
 10
111.255983540595
 20
-8.03125783801079
 30
0.0
 11
111.255983540595
 21
-20.0312580168247
 31
0.0
  0
LINE
  5
   725
  8
0
  6
CONTINUOUS
 62
     2
 10
76.8559834094644
 20
-8.03125802874565
 30
0.0
 11
76.8559834094644
 21
-20.0312574446201
 31
0.0
  0
LINE
  5
   726
  8
0
  6
CONTINUOUS
 62
     2
 10
83.2559838863015
 20
-8.03125783801079
 30
0.0
 11
83.2559838863015
 21
-20.0312580168247
 31
0.0
  0
LINE
  5
   727
  8
0
  6
CONTINUOUS
 62
     2
 10
90.8559832366109
 20
9.96874223947525
 30
0.0
 11
90.8559832366109
 21
-20.0312580168247
 31
0.0
  0
LINE
  5
   728
  8
0
  6
CONTINUOUS
 62
     2
 10
97.2559833319783
 20
9.96874276399613
 30
0.0
 11
97.2559833319783
 21
-20.0312576830387
 31
0.0
  0
LINE
  5
   729
  8
0
  6
CONTINUOUS
 62
    98
 10
96.4559830613238
 20
20.3687417586656
 30
0.0
 11
96.0559830690548
 21
20.7687417509346
 31
0.0
  0
LINE
  5
   72A
  8
0
  6
CONTINUOUS
 62
    98
 10
92.0559824207192
 20
20.7687413913296
 30
0.0
 11
91.6559824284502
 21
20.3687413990605
 31
0.0
  0
LINE
  5
   72B
  8
0
  6
CONTINUOUS
 62
    98
 10
94.5242007595333
 20
20.3687425851822
 30
0.0
 11
94.0559832842946
 21
20.3687425851822
 31
0.0
  0
LINE
  5
   72C
  8
0
  6
CONTINUOUS
 62
    98
 10
94.9744235445625
 20
20.3687425851822
 30
0.0
 11
94.5242007595333
 21
20.3687425851822
 31
0.0
  0
LINE
  5
   72D
  8
0
  6
CONTINUOUS
 62
    98
 10
95.3893527499641
 20
20.3687425851822
 30
0.0
 11
94.9744235445625
 21
20.3687425851822
 31
0.0
  0
LINE
  5
   72E
  8
0
  6
CONTINUOUS
 62
    98
 10
95.7530398891726
 20
20.3687425851822
 30
0.0
 11
95.3893527499641
 21
20.3687425851822
 31
0.0
  0
LINE
  5
   72F
  8
0
  6
CONTINUOUS
 62
    98
 10
96.0515109629561
 20
20.3687425851822
 30
0.0
 11
95.7530398891726
 21
20.3687425851822
 31
0.0
  0
LINE
  5
   730
  8
0
  6
CONTINUOUS
 62
    98
 10
96.2732944135265
 20
20.3687425851822
 30
0.0
 11
96.0515109629561
 21
20.3687425851822
 31
0.0
  0
LINE
  5
   731
  8
0
  6
CONTINUOUS
 62
    98
 10
96.4098682070655
 20
20.3687425851822
 30
0.0
 11
96.2732944135265
 21
20.3687425851822
 31
0.0
  0
LINE
  5
   732
  8
0
  6
CONTINUOUS
 62
    98
 10
96.4559833200574
 20
20.3687425851822
 30
0.0
 11
96.4098682070655
 21
20.3687425851822
 31
0.0
  0
LINE
  5
   733
  8
0
  6
CONTINUOUS
 62
    98
 10
96.4559833200574
 20
20.3687425851822
 30
0.0
 11
96.4559833200574
 21
17.7687425464392
 31
0.0
  0
LINE
  5
   734
  8
0
  6
CONTINUOUS
 62
    98
 10
96.4559833200574
 20
14.3687424957752
 30
0.0
 11
96.4559833200574
 21
13.3687424808741
 31
0.0
  0
LINE
  5
   735
  8
0
  6
CONTINUOUS
 62
    98
 10
91.6559832485318
 20
20.3687425851822
 30
0.0
 11
91.6559832485318
 21
17.7687425464392
 31
0.0
  0
LINE
  5
   736
  8
0
  6
CONTINUOUS
 62
    98
 10
91.6559832485318
 20
14.3687424957752
 30
0.0
 11
91.6559832485318
 21
13.3687424808741
 31
0.0
  0
LINE
  5
   737
  8
0
  6
CONTINUOUS
 62
    98
 10
91.7020983615237
 20
20.3687425851822
 30
0.0
 11
91.6559832485318
 21
20.3687425851822
 31
0.0
  0
LINE
  5
   738
  8
0
  6
CONTINUOUS
 62
    98
 10
91.8386721550627
 20
20.3687425851822
 30
0.0
 11
91.7020983615237
 21
20.3687425851822
 31
0.0
  0
LINE
  5
   739
  8
0
  6
CONTINUOUS
 62
    98
 10
92.0604571315121
 20
20.3687425851822
 30
0.0
 11
91.8386721550627
 21
20.3687425851822
 31
0.0
  0
LINE
  5
   73A
  8
0
  6
CONTINUOUS
 62
    98
 10
92.3589282052956
 20
20.3687425851822
 30
0.0
 11
92.0604571315121
 21
20.3687425851822
 31
0.0
  0
LINE
  5
   73B
  8
0
  6
CONTINUOUS
 62
    98
 10
92.722615344504
 20
20.3687425851822
 30
0.0
 11
92.3589282052956
 21
20.3687425851822
 31
0.0
  0
LINE
  5
   73C
  8
0
  6
CONTINUOUS
 62
    98
 10
93.1375430240267
 20
20.3687425851822
 30
0.0
 11
92.722615344504
 21
20.3687425851822
 31
0.0
  0
LINE
  5
   73D
  8
0
  6
CONTINUOUS
 62
    98
 10
93.5877673349348
 20
20.3687425851822
 30
0.0
 11
93.1375430240267
 21
20.3687425851822
 31
0.0
  0
LINE
  5
   73E
  8
0
  6
CONTINUOUS
 62
    98
 10
94.0559832842946
 20
20.3687425851822
 30
0.0
 11
93.5877673349348
 21
20.3687425851822
 31
0.0
  0
LINE
  5
   73F
  8
0
  6
CONTINUOUS
 62
    98
 10
82.4559838210183
 20
2.3687418327301
 30
0.0
 11
82.0559838287492
 21
2.76874182499915
 31
0.0
  0
LINE
  5
   740
  8
0
  6
CONTINUOUS
 62
    98
 10
78.0559831070008
 20
2.76874170499388
 30
0.0
 11
77.6559831147318
 21
2.36874171272483
 31
0.0
  0
LINE
  5
   741
  8
0
  6
CONTINUOUS
 62
    98
 10
80.5242005509171
 20
2.36874231696129
 30
0.0
 11
80.0559838386178
 21
2.36874231696129
 31
0.0
  0
LINE
  5
   742
  8
0
  6
CONTINUOUS
 62
    98
 10
80.9744240988857
 20
2.36874231696129
 30
0.0
 11
80.5242005509171
 21
2.36874231696129
 31
0.0
  0
LINE
  5
   743
  8
0
  6
CONTINUOUS
 62
    98
 10
81.3893525413479
 20
2.36874231696129
 30
0.0
 11
80.9744240988857
 21
2.36874231696129
 31
0.0
  0
LINE
  5
   744
  8
0
  6
CONTINUOUS
 62
    98
 10
81.7530396805563
 20
2.36874231696129
 30
0.0
 11
81.3893525413479
 21
2.36874231696129
 31
0.0
  0
LINE
  5
   745
  8
0
  6
CONTINUOUS
 62
    98
 10
82.0515107543398
 20
2.36874231696129
 30
0.0
 11
81.7530396805563
 21
2.36874231696129
 31
0.0
  0
LINE
  5
   746
  8
0
  6
CONTINUOUS
 62
    98
 10
82.2732942049103
 20
2.36874231696129
 30
0.0
 11
82.0515107543398
 21
2.36874231696129
 31
0.0
  0
LINE
  5
   747
  8
0
  6
CONTINUOUS
 62
    98
 10
82.4098679984493
 20
2.36874231696129
 30
0.0
 11
82.2732942049103
 21
2.36874231696129
 31
0.0
  0
LINE
  5
   748
  8
0
  6
CONTINUOUS
 62
    98
 10
82.4559838743806
 20
2.36874231696129
 30
0.0
 11
82.4098679984493
 21
2.36874231696129
 31
0.0
  0
LINE
  5
   749
  8
0
  6
CONTINUOUS
 62
    98
 10
82.4559838743806
 20
2.36874231696129
 30
0.0
 11
82.4559838743806
 21
-0.231257721781731
 31
0.0
  0
LINE
  5
   74A
  8
0
  6
CONTINUOUS
 62
    98
 10
82.4559838743806
 20
-3.63125777244568
 30
0.0
 11
82.4559838743806
 21
-4.63125778734684
 31
0.0
  0
LINE
  5
   74B
  8
0
  6
CONTINUOUS
 62
    98
 10
77.6559834213853
 20
2.36874231696129
 30
0.0
 11
77.6559834213853
 21
-0.231257721781731
 31
0.0
  0
LINE
  5
   74C
  8
0
  6
CONTINUOUS
 62
    98
 10
77.6559834213853
 20
-3.63125777244568
 30
0.0
 11
77.6559834213853
 21
-4.63125778734684
 31
0.0
  0
LINE
  5
   74D
  8
0
  6
CONTINUOUS
 62
    98
 10
77.7020989158469
 20
2.36874231696129
 30
0.0
 11
77.6559834213853
 21
2.36874231696129
 31
0.0
  0
LINE
  5
   74E
  8
0
  6
CONTINUOUS
 62
    98
 10
77.8386727093859
 20
2.36874231696129
 30
0.0
 11
77.7020989158469
 21
2.36874231696129
 31
0.0
  0
LINE
  5
   74F
  8
0
  6
CONTINUOUS
 62
    98
 10
78.0604565414261
 20
2.36874231696129
 30
0.0
 11
77.8386727093859
 21
2.36874231696129
 31
0.0
  0
LINE
  5
   750
  8
0
  6
CONTINUOUS
 62
    98
 10
78.3589272337399
 20
2.36874231696129
 30
0.0
 11
78.0604565414261
 21
2.36874231696129
 31
0.0
  0
LINE
  5
   751
  8
0
  6
CONTINUOUS
 62
    98
 10
78.7226151358877
 20
2.36874231696129
 30
0.0
 11
78.3589272337399
 21
2.36874231696129
 31
0.0
  0
LINE
  5
   752
  8
0
  6
CONTINUOUS
 62
    98
 10
79.1375431968802
 20
2.36874231696129
 30
0.0
 11
78.7226151358877
 21
2.36874231696129
 31
0.0
  0
LINE
  5
   753
  8
0
  6
CONTINUOUS
 62
    98
 10
79.5877671263186
 20
2.36874231696129
 30
0.0
 11
79.1375431968802
 21
2.36874231696129
 31
0.0
  0
LINE
  5
   754
  8
0
  6
CONTINUOUS
 62
    98
 10
80.0559838386178
 20
2.36874231696129
 30
0.0
 11
79.5877671263186
 21
2.36874231696129
 31
0.0
  0
LINE
  5
   755
  8
0
  6
CONTINUOUS
 62
    98
 10
110.455982756512
 20
2.36874207232989
 30
0.0
 11
110.055982764243
 21
2.76874206459894
 31
0.0
  0
LINE
  5
   756
  8
0
  6
CONTINUOUS
 62
    98
 10
106.055982423964
 20
2.76874146539409
 30
0.0
 11
105.655982431695
 21
2.36874147312504
 31
0.0
  0
LINE
  5
   757
  8
0
  6
CONTINUOUS
 62
    98
 10
108.524199442271
 20
2.36874231696129
 30
0.0
 11
108.055983492911
 21
2.36874231696129
 31
0.0
  0
LINE
  5
   758
  8
0
  6
CONTINUOUS
 62
    98
 10
108.974425279058
 20
2.36874231696129
 30
0.0
 11
108.524199442271
 21
2.36874231696129
 31
0.0
  0
LINE
  5
   759
  8
0
  6
CONTINUOUS
 62
    98
 10
109.389351432701
 20
2.36874231696129
 30
0.0
 11
108.974425279058
 21
2.36874231696129
 31
0.0
  0
LINE
  5
   75A
  8
0
  6
CONTINUOUS
 62
    98
 10
109.753041623668
 20
2.36874231696129
 30
0.0
 11
109.389351432701
 21
2.36874231696129
 31
0.0
  0
LINE
  5
   75B
  8
0
  6
CONTINUOUS
 62
    98
 10
110.051509645693
 20
2.36874231696129
 30
0.0
 11
109.753041623668
 21
2.36874231696129
 31
0.0
  0
LINE
  5
   75C
  8
0
  6
CONTINUOUS
 62
    98
 10
110.273296148022
 20
2.36874231696129
 30
0.0
 11
110.051509645693
 21
2.36874231696129
 31
0.0
  0
LINE
  5
   75D
  8
0
  6
CONTINUOUS
 62
    98
 10
110.409868415682
 20
2.36874231696129
 30
0.0
 11
110.273296148022
 21
2.36874231696129
 31
0.0
  0
LINE
  5
   75E
  8
0
  6
CONTINUOUS
 62
    98
 10
110.455983528674
 20
2.36874231696129
 30
0.0
 11
110.409868415682
 21
2.36874231696129
 31
0.0
  0
LINE
  5
   75F
  8
0
  6
CONTINUOUS
 62
    98
 10
110.455983528674
 20
2.36874231696129
 30
0.0
 11
110.455983528674
 21
-0.231257721781731
 31
0.0
  0
LINE
  5
   760
  8
0
  6
CONTINUOUS
 62
    98
 10
110.455983528674
 20
-3.63125777244568
 30
0.0
 11
110.455983528674
 21
-4.63125778734684
 31
0.0
  0
LINE
  5
   761
  8
0
  6
CONTINUOUS
 62
    98
 10
105.655983457148
 20
2.36874231696129
 30
0.0
 11
105.655983457148
 21
-0.231257721781731
 31
0.0
  0
LINE
  5
   762
  8
0
  6
CONTINUOUS
 62
    98
 10
105.655983457148
 20
-3.63125777244568
 30
0.0
 11
105.655983457148
 21
-4.63125778734684
 31
0.0
  0
LINE
  5
   763
  8
0
  6
CONTINUOUS
 62
    98
 10
105.70209857014
 20
2.36874231696129
 30
0.0
 11
105.655983457148
 21
2.36874231696129
 31
0.0
  0
LINE
  5
   764
  8
0
  6
CONTINUOUS
 62
    98
 10
105.838673889558
 20
2.36874231696129
 30
0.0
 11
105.70209857014
 21
2.36874231696129
 31
0.0
  0
LINE
  5
   765
  8
0
  6
CONTINUOUS
 62
    98
 10
106.060457340128
 20
2.36874231696129
 30
0.0
 11
105.838673889558
 21
2.36874231696129
 31
0.0
  0
LINE
  5
   766
  8
0
  6
CONTINUOUS
 62
    98
 10
106.358928413912
 20
2.36874231696129
 30
0.0
 11
106.060457340128
 21
2.36874231696129
 31
0.0
  0
LINE
  5
   767
  8
0
  6
CONTINUOUS
 62
    98
 10
106.72261555312
 20
2.36874231696129
 30
0.0
 11
106.358928413912
 21
2.36874231696129
 31
0.0
  0
LINE
  5
   768
  8
0
  6
CONTINUOUS
 62
    98
 10
107.137544758522
 20
2.36874231696129
 30
0.0
 11
106.72261555312
 21
2.36874231696129
 31
0.0
  0
LINE
  5
   769
  8
0
  6
CONTINUOUS
 62
    98
 10
107.587767543551
 20
2.36874231696129
 30
0.0
 11
107.137544758522
 21
2.36874231696129
 31
0.0
  0
LINE
  5
   76A
  8
0
  6
CONTINUOUS
 62
    98
 10
108.055983492911
 20
2.36874231696129
 30
0.0
 11
107.587767543551
 21
2.36874231696129
 31
0.0
  0
LINE
  5
   76B
  8
0
  6
CONTINUOUS
 62
     3
 10
117.425702693294
 20
-36.0203201560919
 30
0.0
 11
70.2252191963103
 21
-36.0203201560919
 31
0.0
  0
LINE
  5
   76C
  8
0
  6
DASHDOT
 62
     7
 10
94.0559832842946
 20
23.3736234068158
 30
0.0
 11
94.0559832842946
 21
-39.4729462863909
 31
0.0
  0
LINE
  5
   76D
  8
0
  6
DASHDOT
 62
     7
 10
108.055983492911
 20
5.71714624683284
 30
0.0
 11
108.055983492911
 21
-39.4729462863909
 31
0.0
  0
LINE
  5
   76E
  8
0
  6
DASHDOT
 62
     7
 10
80.0559838386178
 20
5.76085039821894
 30
0.0
 11
80.0559838386178
 21
-39.4729462863909
 31
0.0
  0
LINE
  5
   76F
  8
0
  6
CONTINUOUS
 62
     3
 10
78.0559831070008
 20
2.76874170499388
 30
0.0
 11
78.0559831070008
 21
-0.231257721781731
 31
0.0
  0
LINE
  5
   770
  8
0
  6
CONTINUOUS
 62
     3
 10
82.0559838287492
 20
2.76874182499915
 30
0.0
 11
82.0559838287492
 21
-0.231257721781731
 31
0.0
  0
LINE
  5
   771
  8
0
  6
CONTINUOUS
 62
     3
 10
92.0559824207192
 20
20.7687413913296
 30
0.0
 11
92.0559824207192
 21
17.7687425464392
 31
0.0
  0
LINE
  5
   772
  8
0
  6
CONTINUOUS
 62
     3
 10
96.0559830690548
 20
20.7687417509346
 30
0.0
 11
96.0559830690548
 21
17.7687425464392
 31
0.0
  0
LINE
  5
   773
  8
0
  6
CONTINUOUS
 62
     3
 10
106.055982423964
 20
2.76874146539409
 30
0.0
 11
106.055982423964
 21
-0.231257721781731
 31
0.0
  0
LINE
  5
   774
  8
0
  6
CONTINUOUS
 62
     3
 10
110.055982764243
 20
2.76874206459894
 30
0.0
 11
110.055982764243
 21
-0.231257721781731
 31
0.0
  0
LINE
  5
   775
  8
0
  6
CONTINUOUS
 62
     3
 10
110.055983522713
 20
-3.63125777244568
 30
0.0
 11
110.055983522713
 21
-4.63125778734684
 31
0.0
  0
LINE
  5
   776
  8
0
  6
CONTINUOUS
 62
     3
 10
106.055983463109
 20
-3.63125777244568
 30
0.0
 11
106.055983463109
 21
-4.63125778734684
 31
0.0
  0
LINE
  5
   777
  8
0
  6
CONTINUOUS
 62
     3
 10
92.0559832544923
 20
14.3687424957752
 30
0.0
 11
92.0559832544923
 21
13.3687424808741
 31
0.0
  0
LINE
  5
   778
  8
0
  6
CONTINUOUS
 62
     3
 10
96.0559833140969
 20
14.3687424957752
 30
0.0
 11
96.0559833140969
 21
13.3687424808741
 31
0.0
  0
LINE
  5
   779
  8
0
  6
CONTINUOUS
 62
     3
 10
82.0559838684201
 20
-3.63125777244568
 30
0.0
 11
82.0559838684201
 21
-4.63125778734684
 31
0.0
  0
LINE
  5
   77A
  8
0
  6
CONTINUOUS
 62
     3
 10
78.0559834273458
 20
-3.63125777244568
 30
0.0
 11
78.0559834273458
 21
-4.63125778734684
 31
0.0
  0
LINE
  5
   77B
  8
0
  6
CONTINUOUS
 62
     7
 10
117.338294390522
 20
-19.2312580049038
 30
0.0
 11
111.255983540595
 21
-19.2312580049038
 31
0.0
  0
LINE
  5
   77C
  8
0
  6
CONTINUOUS
 62
     7
 10
117.076069482206
 20
-18.0312579870224
 30
0.0
 11
111.255983540595
 21
-18.0312579870224
 31
0.0
  0
LINE
  5
   77D
  8
0
  6
CONTINUOUS
 62
     3
 10
70.6622607101712
 20
-20.9860902500721
 30
0.0
 11
70.0066984393798
 21
-16.6156751114624
 31
0.0
  0
LINE
  5
   77E
  8
0
  6
CONTINUOUS
 62
     3
 10
117.338294390522
 20
-20.942386098686
 30
0.0
 11
116.595323816959
 21
-16.4845626573042
 31
0.0
  0
LINE
  5
   77F
  8
0
  6
CONTINUOUS
 62
     7
 10
104.855983445227
 20
-18.0312579870224
 30
0.0
 11
97.2559833319783
 21
-18.0312579870224
 31
0.0
  0
LINE
  5
   780
  8
0
  6
CONTINUOUS
 62
     7
 10
104.855983445227
 20
-19.2312580049038
 30
0.0
 11
97.2559833319783
 21
-19.2312580049038
 31
0.0
  0
LINE
  5
   781
  8
0
  6
CONTINUOUS
 62
     7
 10
90.8559832366109
 20
-18.0312579870224
 30
0.0
 11
83.2559838863015
 21
-18.0312579870224
 31
0.0
  0
LINE
  5
   782
  8
0
  6
CONTINUOUS
 62
     7
 10
90.8559832366109
 20
-19.2312580049038
 30
0.0
 11
83.2559838863015
 21
-19.2312580049038
 31
0.0
  0
LINE
  5
   783
  8
0
  6
CONTINUOUS
 62
     7
 10
76.8559834094644
 20
-18.0312579870224
 30
0.0
 11
70.5311482560129
 21
-18.0312579870224
 31
0.0
  0
LINE
  5
   784
  8
0
  6
CONTINUOUS
 62
     7
 10
76.8559834094644
 20
-19.2312580049038
 30
0.0
 11
70.7496690129434
 21
-19.2312580049038
 31
0.0
  0
LINE
  5
   785
  8
0
  6
DASHDOT
 62
     7
 10
87.0559831799865
 20
-13.4678089561785
 30
0.0
 11
87.0559831799865
 21
-21.6416525208636
 31
0.0
  0
LINE
  5
   786
  8
0
  6
DASHDOT
 62
     7
 10
101.055983388603
 20
-13.408416015267
 30
0.0
 11
101.055983388603
 21
-21.6416525208636
 31
0.0
  0
LINE
  5
   787
  8
0
  6
CONTINUOUS
 62
     7
 10
99.0559833588004
 20
-19.2312580049038
 30
0.0
 11
99.0559833588004
 21
-20.0312580168247
 31
0.0
  0
LINE
  5
   788
  8
0
  6
CONTINUOUS
 62
     7
 10
103.055983418405
 20
-19.2312580049038
 30
0.0
 11
103.055983418405
 21
-20.0312580168247
 31
0.0
  0
LINE
  5
   789
  8
0
  6
CONTINUOUS
 62
     7
 10
85.0559831501842
 20
-19.2312580049038
 30
0.0
 11
85.0559831501842
 21
-20.0312580168247
 31
0.0
  0
LINE
  5
   78A
  8
0
  6
CONTINUOUS
 62
     7
 10
89.0559832097888
 20
-19.2312580049038
 30
0.0
 11
89.0559832097888
 21
-20.0312580168247
 31
0.0
  0
LINE
  5
   78B
  8
0
  6
CONTINUOUS
 62
     7
 10
76.8559830279946
 20
-3.63125777244568
 30
0.0
 11
76.8559830279946
 21
-4.63125778734684
 31
0.0
  0
LINE
  5
   78C
  8
0
  6
CONTINUOUS
 62
     7
 10
83.2559831233621
 20
-3.63125777244568
 30
0.0
 11
83.2559831233621
 21
-4.63125778734684
 31
0.0
  0
LINE
  5
   78D
  8
0
  6
CONTINUOUS
 62
     7
 10
111.255983540595
 20
-3.63125777244568
 30
0.0
 11
111.255983540595
 21
-4.63125778734684
 31
0.0
  0
LINE
  5
   78E
  8
0
  6
CONTINUOUS
 62
     7
 10
104.855983445227
 20
-3.63125777244568
 30
0.0
 11
104.855983445227
 21
-4.63125778734684
 31
0.0
  0
LINE
  5
   78F
  8
0
  6
CONTINUOUS
 62
     7
 10
102.655983412445
 20
-16.4312579631805
 30
0.0
 11
99.4559833647609
 21
-16.4312579631805
 31
0.0
  0
LINE
  5
   790
  8
0
  6
CONTINUOUS
 62
     7
 10
102.055983403504
 20
-14.8312579393387
 30
0.0
 11
100.055983373702
 21
-14.8312579393387
 31
0.0
  0
LINE
  5
   791
  8
0
  6
CONTINUOUS
 62
     7
 10
85.4559831561446
 20
-16.4312579631805
 30
0.0
 11
85.4559831561446
 21
-18.0312579870224
 31
0.0
  0
LINE
  5
   792
  8
0
  6
CONTINUOUS
 62
     7
 10
88.6559832038283
 20
-16.4312579631805
 30
0.0
 11
88.6559832038283
 21
-18.0312579870224
 31
0.0
  0
LINE
  5
   793
  8
0
  6
CONTINUOUS
 62
     7
 10
99.4559833647609
 20
-16.4312579631805
 30
0.0
 11
99.4559833647609
 21
-18.0312579870224
 31
0.0
  0
LINE
  5
   794
  8
0
  6
CONTINUOUS
 62
     7
 10
102.655983412445
 20
-16.4312579631805
 30
0.0
 11
102.655983412445
 21
-18.0312579870224
 31
0.0
  0
LINE
  5
   795
  8
0
  6
CONTINUOUS
 62
     7
 10
100.055983373702
 20
-14.8312579393387
 30
0.0
 11
100.055983373702
 21
-18.0312579870224
 31
0.0
  0
LINE
  5
   796
  8
0
  6
CONTINUOUS
 62
     7
 10
102.055983403504
 20
-14.8312579393387
 30
0.0
 11
102.055983403504
 21
-18.0312579870224
 31
0.0
  0
LINE
  5
   797
  8
0
  6
CONTINUOUS
 62
     7
 10
86.0559831650853
 20
-14.8312579393387
 30
0.0
 11
86.0559831650853
 21
-18.0312579870224
 31
0.0
  0
LINE
  5
   798
  8
0
  6
CONTINUOUS
 62
     7
 10
88.0559831948876
 20
-14.8312579393387
 30
0.0
 11
88.0559831948876
 21
-18.0312579870224
 31
0.0
  0
LINE
  5
   799
  8
0
  6
CONTINUOUS
 62
     7
 10
88.0559831948876
 20
-14.8312579393387
 30
0.0
 11
86.0559831650853
 21
-14.8312579393387
 31
0.0
  0
LINE
  5
   79A
  8
0
  6
CONTINUOUS
 62
     7
 10
88.6559832038283
 20
-16.4312579631805
 30
0.0
 11
85.4559831561446
 21
-16.4312579631805
 31
0.0
  0
LINE
  5
   79B
  8
0
  6
DASHDOT
 62
     7
 10
94.0559832842946
 20
5.76085039821894
 30
0.0
 11
94.0559832842946
 21
-39.4729462863909
 31
0.0
  0
TEXT
  5
   79C
  8
0
  6
CONTINUOUS
 62
     7
 10
92.7408970324669
 20
-44.4884345400876
 30
0.0
 40
2.99999994933605
  1
Y
 50
359.999999896069
 41
0.916666607525612
 72
     1
 11
93.8408969442832
 21
-42.9884345674094
 31
0.0
 73
     2
  0
INSERT
  5
   79D
  8
0
  6
CONTINUOUS
 62
     7
  2
*UDIM181
 10
0.0
 20
0.0
 30
0.0
  0
INSERT
  5
   79E
  8
0
  6
CONTINUOUS
 62
     7
  2
*UDIM182
 10
0.0
 20
0.0
 30
0.0
  0
INSERT
  5
   79F
  8
0
  6
CONTINUOUS
 62
     7
  2
*UDIM183
 10
0.0
 20
0.0
 30
0.0
  0
INSERT
  5
   7A0
  8
0
  6
CONTINUOUS
 62
     7
  2
*UDIM184
 10
0.0
 20
0.0
 30
0.0
  0
INSERT
  5
   7A1
  8
0
  6
CONTINUOUS
 62
     7
  2
*UDIM185
 10
0.0
 20
0.0
 30
0.0
  0
TEXT
  5
   7A2
  8
0
  6
CONTINUOUS
 62
     7
 10
93.0531963404627
 20
41.4328226756736
 30
0.0
 40
2.99999994933605
  1
Y
 50
359.999999896069
 41
0.916666607525612
 72
     2
 11
95.2531961586685
 21
41.4328226716939
 31
0.0
  0
INSERT
  5
   7A3
  8
0
  6
CONTINUOUS
 62
     7
  2
*UDIM186
 10
0.0
 20
0.0
 30
0.0
  0
INSERT
  5
   7A4
  8
0
  6
CONTINUOUS
 62
     7
  2
*UDIM187
 10
0.0
 20
0.0
 30
0.0
  0
ENDSEC
  0
EOF
