  0
SECTION
  2
HEADER
  9
$ACADVER
  1
AC1009
  9
$DWGCODEPAGE
  3
iso8859-1
  9
$INSBASE
 10
0.0
 20
0.0
 30
0.0
  9
$EXTMIN
 10
1.0E20
 20
1.0E20
  9
$EXTMAX
 10
-1.0E20
 20
-1.0E20
  9
$LIMMIN
 10
0.0
 20
0.0
  9
$LIMMAX
 10
12.0
 20
9.0
  9
$ORTHOMODE
 70
     0
  9
$REGENMODE
 70
     1
  9
$FILLMODE
 70
     1
  9
$QTEXTMODE
 70
     0
  9
$MIRRTEXT
 70
     1
  9
$DRAGMODE
 70
     2
  9
$LTSCALE
 40
15.0
  9
$OSMODE
 70
     0
  9
$ATTMODE
 70
     1
  9
$TEXTSIZE
 40
0.2
  9
$TRACEWID
 40
0.05
  9
$TEXTSTYLE
  7
STANDARD
  9
$CLAYER
  8
0
  9
$CELTYPE
  6
DASHED
  9
$CECOLOR
 62
   256
  9
$DIMSCALE
 40
1.0
  9
$DIMASZ
 40
0.18
  9
$DIMEXO
 40
0.0625
  9
$DIMDLI
 40
0.38
  9
$DIMRND
 40
0.0
  9
$DIMDLE
 40
0.0
  9
$DIMEXE
 40
0.18
  9
$DIMTP
 40
0.0
  9
$DIMTM
 40
0.0
  9
$DIMTXT
 40
0.18
  9
$DIMCEN
 40
0.09
  9
$DIMTSZ
 40
0.0
  9
$DIMTOL
 70
     0
  9
$DIMLIM
 70
     0
  9
$DIMTIH
 70
     1
  9
$DIMTOH
 70
     1
  9
$DIMSE1
 70
     0
  9
$DIMSE2
 70
     0
  9
$DIMTAD
 70
     0
  9
$DIMZIN
 70
     0
  9
$DIMBLK
  1

  9
$DIMASO
 70
     1
  9
$DIMSHO
 70
     1
  9
$DIMPOST
  1

  9
$DIMAPOST
  1

  9
$DIMALT
 70
     0
  9
$DIMALTD
 70
     2
  9
$DIMALTF
 40
25.4
  9
$DIMLFAC
 40
1.0
  9
$DIMTOFL
 70
     0
  9
$DIMTVP
 40
0.0
  9
$DIMTIX
 70
     0
  9
$DIMSOXD
 70
     0
  9
$DIMSAH
 70
     0
  9
$DIMBLK1
  1

  9
$DIMBLK2
  1

  9
$DIMSTYLE
  2
STANDARD
  9
$DIMCLRD
 70
     0
  9
$DIMCLRE
 70
     0
  9
$DIMCLRT
 70
     0
  9
$DIMTFAC
 40
1.0
  9
$DIMGAP
 40
0.09
  9
$LUNITS
 70
     2
  9
$LUPREC
 70
     4
  9
$AXISMODE
 70
     0
  9
$AXISUNIT
 10
0.0
 20
0.0
  9
$SKETCHINC
 40
0.1
  9
$FILLETRAD
 40
0.0
  9
$AUNITS
 70
     0
  9
$AUPREC
 70
     0
  9
$MENU
  1
acad
  9
$ELEVATION
 40
0.0
  9
$PELEVATION
 40
0.0
  9
$THICKNESS
 40
0.0
  9
$LIMCHECK
 70
     0
  9
$BLIPMODE
 70
     1
  9
$CHAMFERA
 40
0.0
  9
$CHAMFERB
 40
0.0
  9
$SKPOLY
 70
     0
  9
$TDCREATE
 40
0.000000000
  9
$TDUPDATE
 40
0.000000000
  9
$TDINDWG
 40
0.0
  9
$TDUSRTIMER
 40
0.0
  9
$USRTIMER
 70
     1
  9
$ANGBASE
 50
0.0
  9
$ANGDIR
 70
     0
  9
$PDMODE
 70
     0
  9
$PDSIZE
 40
0.0
  9
$PLINEWID
 40
0.0
  9
$COORDS
 70
     1
  9
$SPLFRAME
 70
     0
  9
$SPLINETYPE
 70
     6
  9
$SPLINESEGS
 70
     8
  9
$ATTDIA
 70
     0
  9
$ATTREQ
 70
     1
  9
$HANDLING
 70
     1
  9
$HANDSEED
  5
   4BA
  9
$SURFTAB1
 70
     6
  9
$SURFTAB2
 70
     6
  9
$SURFTYPE
 70
     6
  9
$SURFU
 70
     6
  9
$SURFV
 70
     6
  9
$UCSNAME
  2

  9
$UCSORG
 10
0.0
 20
0.0
 30
0.0
  9
$UCSXDIR
 10
1.0
 20
0.0
 30
0.0
  9
$UCSYDIR
 10
0.0
 20
1.0
 30
0.0
  9
$PUCSNAME
  2

  9
$PUCSORG
 10
0.0
 20
0.0
 30
0.0
  9
$PUCSXDIR
 10
1.0
 20
0.0
 30
0.0
  9
$PUCSYDIR
 10
0.0
 20
1.0
 30
0.0
  9
$USERI1
 70
     0
  9
$USERI2
 70
     0
  9
$USERI3
 70
     0
  9
$USERI4
 70
     0
  9
$USERI5
 70
     0
  9
$USERR1
 40
0.0
  9
$USERR2
 40
0.0
  9
$USERR3
 40
0.0
  9
$USERR4
 40
0.0
  9
$USERR5
 40
0.0
  9
$WORLDVIEW
 70
     1
  9
$SHADEDGE
 70
     3
  9
$SHADEDIF
 70
    70
  9
$TILEMODE
 70
     1
  9
$MAXACTVP
 70
    16
  9
$PINSBASE
 10
0.0
 20
0.0
 30
0.0
  9
$PLIMCHECK
 70
     0
  9
$PEXTMIN
 10
1.0E20
 20
1.0E20
 30
1.0E20
  9
$PEXTMAX
 10
-1.0E20
 20
-1.0E20
 30
-1.0E20
  9
$PLIMMIN
 10
0.0
 20
0.0
  9
$PLIMMAX
 10
12.0
 20
9.0
  9
$UNITMODE
 70
     0
  9
$VISRETAIN
 70
     0
  0
ENDSEC
  0
SECTION
  2
TABLES
  0
TABLE
  2
VPORT
 70
     1
  0
VPORT
  2
*ACTIVE
 70
     0
 10
0.0
 20
0.0
 11
1.0
 21
1.0
 12
6.801242
 22
4.5
 13
0.0
 23
0.0
 14
1.0
 24
1.0
 15
0.0
 25
0.0
 16
0.0
 26
0.0
 36
1.0
 17
0.0
 27
0.0
 37
0.0
 40
9.0
 41
1.511387
 42
50.0
 43
0.0
 44
0.0
 50
0.0
 51
0.0
 71
     0
 72
   100
 73
     1
 74
     1
 75
     0
 76
     0
 77
     0
 78
     0
  0
ENDTAB
  0
TABLE
  2
LTYPE
 70
    41
  0
LTYPE
  2
BYBLOCK
 70
     0
  3

 72
    65
 73
     0
 40
0.0
  0
LTYPE
  2
BYLAYER
 70
     0
  3

 72
    65
 73
     0
 40
0.0
  0
LTYPE
  2
CONTINUOUS
 70
     0
  3
Solid line
 72
    65
 73
     0
 40
0.0
  0
LTYPE
  2
BORDER
 70
    64
  3
__ __ . __ __ . __ __ . __ __ . __ __ . __ __ .
 72
    65
 73
     6
 40
1.75
 49
0.5
 49
-0.25
 49
0.5
 49
-0.25
 49
0.0
 49
-0.25
  0
LTYPE
  2
BORDER2
 70
    64
  3
__.__.__.__.__.__.__.__.__.__.__.__.__.__.__.__
 72
    65
 73
     6
 40
0.875
 49
0.25
 49
-0.125
 49
0.25
 49
-0.125
 49
0.0
 49
-0.125
  0
LTYPE
  2
BORDERX2
 70
    64
  3
____  ____  .  ____  ____  .  ____  ____  .  __
 72
    65
 73
     6
 40
3.5
 49
1.0
 49
-0.5
 49
1.0
 49
-0.5
 49
0.0
 49
-0.5
  0
LTYPE
  2
CENTER
 70
    64
  3
____ _ ____ _ ____ _ ____ _ ____ _ ____ _ ____
 72
    65
 73
     4
 40
2.0
 49
1.25
 49
-0.25
 49
0.25
 49
-0.25
  0
LTYPE
  2
CENTER2
 70
    64
  3
___ _ ___ _ ___ _ ___ _ ___ _ ___ _ ___ _ ___ _
 72
    65
 73
     4
 40
1.125
 49
0.75
 49
-0.125
 49
0.125
 49
-0.125
  0
LTYPE
  2
CENTERX2
 70
    64
  3
________  __  ________  __  ________  __  _____
 72
    65
 73
     4
 40
4.0
 49
2.5
 49
-0.5
 49
0.5
 49
-0.5
  0
LTYPE
  2
DASHDOT
 70
    64
  3
__ . __ . __ . __ . __ . __ . __ . __ . __ . __
 72
    65
 73
     4
 40
1.0
 49
0.5
 49
-0.25
 49
0.0
 49
-0.25
  0
LTYPE
  2
DASHDOT2
 70
    64
  3
_._._._._._._._._._._._._._._._._._._._._._._._
 72
    65
 73
     4
 40
0.5
 49
0.25
 49
-0.125
 49
0.0
 49
-0.125
  0
LTYPE
  2
DASHDOTX2
 70
    64
  3
____  .  ____  .  ____  .  ____  .  ____  .  __
 72
    65
 73
     4
 40
2.0
 49
1.0
 49
-0.5
 49
0.0
 49
-0.5
  0
LTYPE
  2
DASHED
 70
    64
  3
__ __ __ __ __ __ __ __ __ __ __ __ __ __ __ __
 72
    65
 73
     2
 40
0.75
 49
0.5
 49
-0.25
  0
LTYPE
  2
DASHED2
 70
    64
  3
_ _ _ _ _ _ _ _ _ _ _ _ _ _ _ _ _ _ _ _ _ _ _ _
 72
    65
 73
     2
 40
0.375
 49
0.25
 49
-0.125
  0
LTYPE
  2
DASHEDX2
 70
    64
  3
____  ____  ____  ____  ____  ____  ____  ____
 72
    65
 73
     2
 40
1.5
 49
1.0
 49
-0.5
  0
LTYPE
  2
DIVIDE
 70
    64
  3
____ . . ____ . . ____ . . ____ . . ____ . . __
 72
    65
 73
     6
 40
1.25
 49
0.5
 49
-0.25
 49
0.0
 49
-0.25
 49
0.0
 49
-0.25
  0
LTYPE
  2
DIVIDE2
 70
    64
  3
__..__..__..__..__..__..__..__..__..__..__..__.
 72
    65
 73
     6
 40
0.625
 49
0.25
 49
-0.125
 49
0.0
 49
-0.125
 49
0.0
 49
-0.125
  0
LTYPE
  2
DIVIDEX2
 70
    64
  3
________  .  .  ________  .  .  ________  .  .
 72
    65
 73
     6
 40
2.5
 49
1.0
 49
-0.5
 49
0.0
 49
-0.5
 49
0.0
 49
-0.5
  0
LTYPE
  2
DOT
 70
    64
  3
. . . . . . . . . . . . . . . . . . . . . . . .
 72
    65
 73
     2
 40
0.25
 49
0.0
 49
-0.25
  0
LTYPE
  2
DOT2
 70
    64
  3
...............................................
 72
    65
 73
     2
 40
0.125
 49
0.0
 49
-0.125
  0
LTYPE
  2
DOTX2
 70
    64
  3
.  .  .  .  .  .  .  .  .  .  .  .  .  .  .  .
 72
    65
 73
     2
 40
0.5
 49
0.0
 49
-0.5
  0
LTYPE
  2
HIDDEN
 70
    64
  3
__ __ __ __ __ __ __ __ __ __ __ __ __ __ __ __
 72
    65
 73
     2
 40
0.375
 49
0.25
 49
-0.125
  0
LTYPE
  2
HIDDEN2
 70
    64
  3
_ _ _ _ _ _ _ _ _ _ _ _ _ _ _ _ _ _ _ _ _ _ _ _
 72
    65
 73
     2
 40
0.1875
 49
0.125
 49
-0.0625
  0
LTYPE
  2
HIDDENX2
 70
    64
  3
____ ____ ____ ____ ____ ____ ____ ____ ____ __
 72
    65
 73
     2
 40
0.75
 49
0.5
 49
-0.25
  0
LTYPE
  2
PHANTOM
 70
    64
  3
______  __  __  ______  __  __  ______  __  __
 72
    65
 73
     6
 40
2.5
 49
1.25
 49
-0.25
 49
0.25
 49
-0.25
 49
0.25
 49
-0.25
  0
LTYPE
  2
PHANTOM2
 70
    64
  3
___ _ _ ___ _ _ ___ _ _ ___ _ _ ___ _ _ ___ _ _
 72
    65
 73
     6
 40
1.25
 49
0.625
 49
-0.125
 49
0.125
 49
-0.125
 49
0.125
 49
-0.125
  0
LTYPE
  2
PHANTOMX2
 70
    64
  3
____________    ____    ____    ____________
 72
    65
 73
     6
 40
5.0
 49
2.5
 49
-0.5
 49
0.5
 49
-0.5
 49
0.5
 49
-0.5
  0
LTYPE
  2
ACAD_ISO02W100
 70
    64
  3
__ __ __ __ __ __ __ __ __ __ __ __ __ __ __ __
 72
    65
 73
     2
 40
15.0
 49
12.0
 49
-3.0
  0
LTYPE
  2
ACAD_ISO03W100
 70
    64
  3
__    __    __    __    __    __    __    __
 72
    65
 73
     2
 40
30.0
 49
12.0
 49
-18.0
  0
LTYPE
  2
ACAD_ISO04W100
 70
    64
  3
____ . ____ . ____ . ____ . ____ . ____ . ____
 72
    65
 73
     4
 40
30.5
 49
24.0
 49
-3.0
 49
0.5
 49
-3.0
  0
LTYPE
  2
ACAD_ISO05W100
 70
    64
  3
____ .. ____ .. ____ .. ____ .. ____ .. ____ ..
 72
    65
 73
     6
 40
34.0
 49
24.0
 49
-3.0
 49
0.5
 49
-3.0
 49
0.5
 49
-3.0
  0
LTYPE
  2
ACAD_ISO06W100
 70
    64
  3
____ ... ____ ... ____ ... ____ ... ____ ... __
 72
    65
 73
     8
 40
37.5
 49
24.0
 49
-3.0
 49
0.5
 49
-3.0
 49
0.5
 49
-3.0
 49
0.5
 49
-3.0
  0
LTYPE
  2
ACAD_ISO07W100
 70
    64
  3
. . . . . . . . . . . . . . . . . . . . . . . .
 72
    65
 73
     2
 40
3.5
 49
0.5
 49
-3.0
  0
LTYPE
  2
ACAD_ISO08W100
 70
    64
  3
____ __ ____ __ ____ __ ____ ____ __ __ ____ __
 72
    65
 73
     4
 40
36.0
 49
24.0
 49
-3.0
 49
6.0
 49
-3.0
  0
LTYPE
  2
ACAD_ISO09W100
 70
    64
  3
____ __ __ ____ __ __ ____ __ __ ____ __ __ ___
 72
    65
 73
     6
 40
45.0
 49
24.0
 49
-3.0
 49
6.0
 49
-3.0
 49
6.0
 49
-3.0
  0
LTYPE
  2
ACAD_ISO10W100
 70
    64
  3
__ . __ . __ . __ . __ . __ . __ . __ . __ . __
 72
    65
 73
     4
 40
18.5
 49
12.0
 49
-3.0
 49
0.5
 49
-3.0
  0
LTYPE
  2
ACAD_ISO11W100
 70
    64
  3
__ __ . __ __ . __ __ . __ __ . __ __ . __ __ .
 72
    65
 73
     6
 40
33.5
 49
12.0
 49
-3.0
 49
12.0
 49
-3.0
 49
0.5
 49
-3.0
  0
LTYPE
  2
ACAD_ISO12W100
 70
    64
  3
__ . . __ . . __ . . __ . . __ . . __ . . __ .
 72
    65
 73
     6
 40
22.0
 49
12.0
 49
-3.0
 49
0.5
 49
-3.0
 49
0.5
 49
-3.0
  0
LTYPE
  2
ACAD_ISO13W100
 70
    64
  3
__ __ . . __ __ . . __ __ . . __ __ . . __ __ .
 72
    65
 73
     8
 40
37.0
 49
12.0
 49
-3.0
 49
12.0
 49
-3.0
 49
0.5
 49
-3.0
 49
0.5
 49
-3.0
  0
LTYPE
  2
ACAD_ISO14W100
 70
    64
  3
__ . . . __ . . . __ . . . __ . . . __ . . . __
 72
    65
 73
     8
 40
25.5
 49
12.0
 49
-3.0
 49
0.5
 49
-3.0
 49
0.5
 49
-3.0
 49
0.5
 49
-3.0
  0
LTYPE
  2
ACAD_ISO15W100
 70
    64
  3
__ __ . . . __ __ . . . __ __ . . . __ __ . . .
 72
    65
 73
    10
 40
40.5
 49
12.0
 49
-3.0
 49
12.0
 49
-3.0
 49
0.5
 49
-3.0
 49
0.5
 49
-3.0
 49
0.5
 49
-3.0
  0
ENDTAB
  0
TABLE
  2
STYLE
 70
     4
  0
STYLE
  2
STANDARD
 70
    64
 40
0.0
 41
1.0
 50
0.0
 71
     0
 42
0.2
  3
txt
  4

  0
STYLE
  2
TOLERANCE
 70
    64
 40
0.0
 41
1.0
 50
0.0
 71
     0
 42
0.2
  3
../igesfont/iges1003.shx
  4

  0
STYLE
  2
ROMANS
 70
    64
 40
0.0
 41
1.0
 50
0.0
 71
     0
 42
0.2
  3
romans.shx
  4

  0
STYLE
  2
ROMANC
 70
    64
 40
0.0
 41
1.0
 50
0.0
 71
     0
 42
0.2
  3
romanc.shx
  4

  0
ENDTAB
  0
TABLE
  2
DIMSTYLE
 70
     2
  0
DIMSTYLE
  2
UNNAMED
 70
     0
  3

  4

  5

  6

  7

 40
1.0
 41
0.18
 42
0.0625
 43
0.38
 44
0.18
 45
0.0
 46
0.0
 47
0.0
 48
0.0
140
0.18
141
0.09
142
0.0
143
25.4
144
1.0
145
0.0
146
1.0
147
0.09
 71
     0
 72
     0
 73
     1
 74
     1
 75
     0
 76
     0
 77
     0
 78
     0
170
     0
171
     2
172
     0
173
     0
174
     0
175
     0
176
     0
177
     0
178
     0
  0
DIMSTYLE
  2
STANDARD
 70
     0
  3

  4

  5

  6

  7

 40
1.0
 41
0.18
 42
0.0625
 43
0.38
 44
0.18
 45
0.0
 46
0.0
 47
0.0
 48
0.0
140
0.18
141
0.09
142
0.0
143
25.4
144
1.0
145
0.0
146
1.0
147
0.09
 71
     0
 72
     0
 73
     1
 74
     1
 75
     0
 76
     0
 77
     0
 78
     0
170
     0
171
     2
172
     0
173
     0
174
     0
175
     0
176
     0
177
     0
178
     0
  0
ENDTAB
  0
TABLE
  2
LAYER
 70
     2
  0
LAYER
  2
0
 70
     0
 62
     7
  6
CONTINUOUS
  0
LAYER
  2
255
 70
     0
 62
     7
  6
CONTINUOUS
  0
ENDTAB
  0
ENDSEC
  0
SECTION
  2
BLOCKS
  0
BLOCK
  5
     B
  8
0
  6
CONTINUOUS
 62
     7
  2
*UDIM35
 70
    65
 10
0.0
 20
0.0
 30
0.0
  3
*UDIM35
  0
TEXT
  5
     C
  8
0
  6
CONTINUOUS
 62
     7
 10
31.0139278712006
 20
-39.1088297894954
 30
0.0
 40
3.00000001532688
  1
196
 50
89.9999999480344
 41
0.933333333333334
 72
     1
 11
29.5139278670694
 21
-35.2088297682119
 31
0.0
 73
     2
  0
LINE
  5
     D
  8
0
  6
CONTINUOUS
 62
     7
 10
12.8380742996942
 20
-69.2338275700765
 30
0.0
 11
34.0139278747329
 21
-69.2338275700765
 31
0.0
  0
LINE
  5
     E
  8
0
  6
CONTINUOUS
 62
     7
 10
11.7005770862109
 20
-0.633831909297129
 30
0.0
 11
34.0139278747329
 21
-0.633831909297129
 31
0.0
  0
LINE
  5
     F
  8
0
  6
CONTINUOUS
 62
     7
 10
32.0139278747329
 20
-69.2338275700765
 30
0.0
 11
32.0139278747329
 21
-0.633831909297129
 31
0.0
  0
LINE
  5
    10
  8
0
  6
CONTINUOUS
 62
     7
 10
31.4929834447812
 20
-66.2794042928696
 30
0.0
 11
32.0139278747329
 21
-69.2338275700765
 31
0.0
  0
LINE
  5
    11
  8
0
  6
CONTINUOUS
 62
     7
 10
32.0139278747329
 20
-69.2338275700765
 30
0.0
 11
32.5348723046845
 21
-66.2794042928696
 31
0.0
  0
LINE
  5
    12
  8
0
  6
CONTINUOUS
 62
     7
 10
32.5348723046845
 20
-3.58825518650409
 30
0.0
 11
32.0139278747329
 21
-0.633831909297129
 31
0.0
  0
LINE
  5
    13
  8
0
  6
CONTINUOUS
 62
     7
 10
32.0139278747329
 20
-0.633831909297129
 30
0.0
 11
31.4929834447812
 21
-3.58825518650409
 31
0.0
  0
ENDBLK
  5
    14
  8
0
  6
CONTINUOUS
 62
     7
  0
BLOCK
  5
    15
  8
0
  6
CONTINUOUS
 62
     7
  2
*UDIM36
 70
    65
 10
0.0
 20
0.0
 30
0.0
  3
*UDIM36
  0
TEXT
  5
    16
  8
0
  6
CONTINUOUS
 62
     7
 10
-18.4994249126646
 20
26.101828425573
 30
0.0
 40
3.00000001532688
  1
152
 50
359.999999948034
 41
0.933333333333334
 72
     1
 11
-14.5994248913868
 21
27.6018284297189
 31
0.0
 73
     2
  0
LINE
  5
    17
  8
0
  6
CONTINUOUS
 62
     7
 10
12.2755742549894
 20
-7.13285267331685E-2
 30
0.0
 11
12.2755742549894
 21
27.1018284220554
 31
0.0
  0
LINE
  5
    18
  8
0
  6
CONTINUOUS
 62
     7
 10
-40.924420309067
 20
-7.13405430283274E-2
 30
0.0
 11
-40.924420309067
 21
27.1018284220554
 31
0.0
  0
LINE
  5
    19
  8
0
  6
CONTINUOUS
 62
     7
 10
12.2755742549894
 20
25.1018284220554
 30
0.0
 11
-40.924420309067
 21
25.1018284220554
 31
0.0
  0
LINE
  5
    1A
  8
0
  6
CONTINUOUS
 62
     7
 10
9.32115097778241
 20
24.5808839921037
 30
0.0
 11
12.2755742549894
 21
25.1018284220554
 31
0.0
  0
LINE
  5
    1B
  8
0
  6
CONTINUOUS
 62
     7
 10
12.2755742549894
 20
25.1018284220554
 30
0.0
 11
9.32115097778241
 21
25.6227728520071
 31
0.0
  0
LINE
  5
    1C
  8
0
  6
CONTINUOUS
 62
     7
 10
-37.9699970318601
 20
25.6227728520071
 30
0.0
 11
-40.924420309067
 21
25.1018284220554
 31
0.0
  0
LINE
  5
    1D
  8
0
  6
CONTINUOUS
 62
     7
 10
-40.924420309067
 20
25.1018284220554
 30
0.0
 11
-37.9699970318601
 21
24.5808839921037
 31
0.0
  0
ENDBLK
  5
    1E
  8
0
  6
CONTINUOUS
 62
     7
  0
BLOCK
  5
    1F
  8
0
  6
CONTINUOUS
 62
     7
  2
*UDIM37
 70
    65
 10
0.0
 20
0.0
 30
0.0
  3
*UDIM37
  0
TEXT
  5
    20
  8
0
  6
CONTINUOUS
 62
     7
 10
-18.4994249126646
 20
16.4973692629079
 30
0.0
 40
3.00000001532688
  1
140
 50
359.999999948034
 41
0.933333333333334
 72
     1
 11
-14.5994248913868
 21
17.9973692670538
 31
0.0
 73
     2
  0
LINE
  5
    21
  8
0
  6
CONTINUOUS
 62
     7
 10
10.1755733026024
 20
-9.95884091332299
 30
0.0
 11
10.1755733026024
 21
17.4973692593903
 31
0.0
  0
LINE
  5
    22
  8
0
  6
CONTINUOUS
 62
     7
 10
-38.8244246972556
 20
-9.60885799466115
 30
0.0
 11
-38.8244246972556
 21
17.4973692593903
 31
0.0
  0
LINE
  5
    23
  8
0
  6
CONTINUOUS
 62
     7
 10
10.1755733026024
 20
15.4973692593903
 30
0.0
 11
-38.8244246972556
 21
15.4973692593903
 31
0.0
  0
LINE
  5
    24
  8
0
  6
CONTINUOUS
 62
     7
 10
7.22115002539541
 20
14.9764248294387
 30
0.0
 11
10.1755733026024
 21
15.4973692593903
 31
0.0
  0
LINE
  5
    25
  8
0
  6
CONTINUOUS
 62
     7
 10
10.1755733026024
 20
15.4973692593903
 30
0.0
 11
7.22115002539541
 21
16.018313689342
 31
0.0
  0
LINE
  5
    26
  8
0
  6
CONTINUOUS
 62
     7
 10
-35.8700014200487
 20
16.018313689342
 30
0.0
 11
-38.8244246972556
 21
15.4973692593903
 31
0.0
  0
LINE
  5
    27
  8
0
  6
CONTINUOUS
 62
     7
 10
-38.8244246972556
 20
15.4973692593903
 30
0.0
 11
-35.8700014200487
 21
14.9764248294387
 31
0.0
  0
ENDBLK
  5
    28
  8
0
  6
CONTINUOUS
 62
     7
  0
BLOCK
  5
    29
  8
0
  6
CONTINUOUS
 62
     7
  2
*UDIM38
 70
    65
 10
0.0
 20
0.0
 30
0.0
  3
*UDIM38
  0
TEXT
  5
    2A
  8
0
  6
CONTINUOUS
 62
     7
 10
-63.0094000764837
 20
-39.108857832873
 30
0.0
 40
3.00000001532688
  1
140
 50
89.9999999480344
 41
0.933333333333334
 72
     1
 11
-64.5094000806148
 21
-35.2088578115895
 31
0.0
 73
     2
  0
LINE
  5
    2B
  8
0
  6
CONTINUOUS
 62
     7
 10
-39.649424715137
 20
-59.4338552588077
 30
0.0
 11
-64.0094000729514
 21
-59.4338552588077
 31
0.0
  0
LINE
  5
    2C
  8
0
  6
CONTINUOUS
 62
     7
 10
-39.649424715137
 20
-10.4338580125425
 30
0.0
 11
-64.0094000729514
 21
-10.4338580125425
 31
0.0
  0
LINE
  5
    2D
  8
0
  6
CONTINUOUS
 62
     7
 10
-62.0094000729514
 20
-59.4338552588077
 30
0.0
 11
-62.0094000729514
 21
-10.4338580125425
 31
0.0
  0
LINE
  5
    2E
  8
0
  6
CONTINUOUS
 62
     7
 10
-62.5303445029031
 20
-56.4794319816008
 30
0.0
 11
-62.0094000729514
 21
-59.4338552588077
 31
0.0
  0
LINE
  5
    2F
  8
0
  6
CONTINUOUS
 62
     7
 10
-62.0094000729514
 20
-59.4338552588077
 30
0.0
 11
-61.4884556429997
 21
-56.4794319816008
 31
0.0
  0
LINE
  5
    30
  8
0
  6
CONTINUOUS
 62
     7
 10
-61.4884556429997
 20
-13.3882812897495
 30
0.0
 11
-62.0094000729514
 21
-10.4338580125425
 31
0.0
  0
LINE
  5
    31
  8
0
  6
CONTINUOUS
 62
     7
 10
-62.0094000729514
 20
-10.4338580125425
 30
0.0
 11
-62.5303445029031
 21
-13.3882812897495
 31
0.0
  0
ENDBLK
  5
    32
  8
0
  6
CONTINUOUS
 62
     7
  0
BLOCK
  5
    33
  8
0
  6
CONTINUOUS
 62
     7
  2
*UDIM39
 70
    65
 10
0.0
 20
0.0
 30
0.0
  3
*UDIM39
  0
TEXT
  5
    34
  8
0
  6
CONTINUOUS
 62
     7
 10
-15.7494184433883
 20
34.9246088961369
 30
0.0
 40
3.00000001532688
  1
210
 50
359.999999948034
 41
0.933333333333334
 72
     1
 11
-11.8494184221104
 21
36.4246089002827
 31
0.0
 73
     2
  0
LINE
  5
    35
  8
0
  6
CONTINUOUS
 62
     7
 10
22.338078346892
 20
-0.68382329046598
 30
0.0
 11
22.338078346892
 21
35.9246088926193
 31
0.0
  0
LINE
  5
    36
  8
0
  6
CONTINUOUS
 62
     7
 10
-50.9869141608041
 20
-0.68382329046598
 30
0.0
 11
-50.9869141608041
 21
35.9246088926193
 31
0.0
  0
LINE
  5
    37
  8
0
  6
CONTINUOUS
 62
     7
 10
22.338078346892
 20
33.9246088926193
 30
0.0
 11
-50.9869141608041
 21
33.9246088926193
 31
0.0
  0
LINE
  5
    38
  8
0
  6
CONTINUOUS
 62
     7
 10
19.3836550696851
 20
33.4036644626676
 30
0.0
 11
22.338078346892
 21
33.9246088926193
 31
0.0
  0
LINE
  5
    39
  8
0
  6
CONTINUOUS
 62
     7
 10
22.338078346892
 20
33.9246088926193
 30
0.0
 11
19.3836550696851
 21
34.445553322571
 31
0.0
  0
LINE
  5
    3A
  8
0
  6
CONTINUOUS
 62
     7
 10
-48.0324908835971
 20
34.445553322571
 30
0.0
 11
-50.9869141608041
 21
33.9246088926193
 31
0.0
  0
LINE
  5
    3B
  8
0
  6
CONTINUOUS
 62
     7
 10
-50.9869141608041
 20
33.9246088926193
 30
0.0
 11
-48.0324908835971
 21
33.4036644626676
 31
0.0
  0
ENDBLK
  5
    3C
  8
0
  6
CONTINUOUS
 62
     7
  0
BLOCK
  5
    3D
  8
0
  6
CONTINUOUS
 62
     7
  2
*UDIM40
 70
    65
 10
0.0
 20
0.0
 30
0.0
  3
*UDIM40
  0
TEXT
  5
    3E
  8
0
  6
CONTINUOUS
 62
     7
 10
-79.5524632664945
 20
-44.183813247789
 30
0.0
 40
3.00000001532688
  1
268
 50
89.9999999480344
 41
0.933333333333334
 72
     1
 11
-81.0524632706256
 21
-40.2838132265055
 31
0.0
 73
     2
  0
LINE
  5
    3F
  8
0
  6
CONTINUOUS
 62
     7
 10
-50.6744326945354
 20
-86.9088145822236
 30
0.0
 11
-80.5524632629622
 21
-86.9088145822236
 31
0.0
  0
LINE
  5
    40
  8
0
  6
CONTINUOUS
 62
     7
 10
-50.8494177016832
 20
6.89118134365026
 30
0.0
 11
-80.5524632629622
 21
6.89118134365026
 31
0.0
  0
LINE
  5
    41
  8
0
  6
CONTINUOUS
 62
     7
 10
-78.5524632629622
 20
-86.9088145822236
 30
0.0
 11
-78.5524632629622
 21
6.89118134365026
 31
0.0
  0
LINE
  5
    42
  8
0
  6
CONTINUOUS
 62
     7
 10
-79.0734076929139
 20
-83.9543913050166
 30
0.0
 11
-78.5524632629622
 21
-86.9088145822236
 31
0.0
  0
LINE
  5
    43
  8
0
  6
CONTINUOUS
 62
     7
 10
-78.5524632629622
 20
-86.9088145822236
 30
0.0
 11
-78.0315188330105
 21
-83.9543913050166
 31
0.0
  0
LINE
  5
    44
  8
0
  6
CONTINUOUS
 62
     7
 10
-78.0315188330105
 20
3.93675806644329
 30
0.0
 11
-78.5524632629622
 21
6.89118134365026
 31
0.0
  0
LINE
  5
    45
  8
0
  6
CONTINUOUS
 62
     7
 10
-78.5524632629622
 20
6.89118134365026
 30
0.0
 11
-79.0734076929139
 21
3.93675806644329
 31
0.0
  0
ENDBLK
  5
    46
  8
0
  6
CONTINUOUS
 62
     7
  0
BLOCK
  5
    47
  8
0
  6
CONTINUOUS
 62
     7
  2
*UDIM41
 70
    65
 10
0.0
 20
0.0
 30
0.0
  3
*UDIM41
  0
TEXT
  5
    48
  8
0
  6
CONTINUOUS
 62
     7
 10
-71.9958691925259
 20
-20.9963225097558
 30
0.0
 40
3.00000001532688
  1
119,5
 50
89.9999999480344
 41
0.933333333333333
 72
     1
 11
-73.4958691941211
 21
-14.2963224741672
 31
0.0
 73
     2
  0
LINE
  5
    49
  8
0
  6
CONTINUOUS
 62
     7
 10
-50.8494177016832
 20
6.89118134365026
 30
0.0
 11
-72.9958691864576
 21
6.89118134365026
 31
0.0
  0
LINE
  5
    4A
  8
0
  6
CONTINUOUS
 62
     7
 10
-70.9958691864576
 20
-34.9338252335765
 30
0.0
 11
-70.9958691864576
 21
6.89118134365026
 31
0.0
  0
LINE
  5
    4B
  8
0
  6
CONTINUOUS
 62
     7
 10
-71.5168136164093
 20
-31.9794019563695
 30
0.0
 11
-70.9958691864576
 21
-34.9338252335765
 31
0.0
  0
LINE
  5
    4C
  8
0
  6
CONTINUOUS
 62
     7
 10
-70.9958691864576
 20
-34.9338252335765
 30
0.0
 11
-70.474924756506
 21
-31.9794019563695
 31
0.0
  0
LINE
  5
    4D
  8
0
  6
CONTINUOUS
 62
     7
 10
-70.474924756506
 20
3.93675806644329
 30
0.0
 11
-70.9958691864576
 21
6.89118134365026
 31
0.0
  0
LINE
  5
    4E
  8
0
  6
CONTINUOUS
 62
     7
 10
-70.9958691864576
 20
6.89118134365026
 30
0.0
 11
-71.5168136164093
 21
3.93675806644329
 31
0.0
  0
ENDBLK
  5
    4F
  8
0
  6
CONTINUOUS
 62
     7
  0
BLOCK
  5
    50
  8
0
  6
CONTINUOUS
 62
     7
  2
MOSTRA
 70
    64
 10
0.0
 20
0.0
 30
0.0
  3
MOSTRA
  0
LINE
  5
    51
  8
0
  6
CONTINUOUS
 62
     3
 10
75.9999847412109
 20
-24.000020980835
 30
0.0
 11
75.9999847412109
 21
169.499979019165
 31
0.0
  0
LINE
  5
    52
  8
0
  6
CONTINUOUS
 62
     3
 10
-71.5000076293913
 20
170.749954223637
 30
0.0
 11
71.4999923706087
 21
170.749984741215
 31
0.0
  0
LINE
  5
    53
  8
0
  6
CONTINUOUS
 62
     3
 10
71.4999923722532
 20
170.749969484304
 30
0.0
 11
74.7499847428587
 21
170.749984743093
 31
0.0
  0
LINE
  5
    54
  8
0
  6
CONTINUOUS
 62
     3
 10
-74.7500152650933
 20
170.749938972373
 30
0.0
 11
-71.5000076356988
 21
170.74996948995
 31
0.0
  0
LINE
  5
    55
  8
0
  6
CONTINUOUS
 62
     3
 10
-76.0000152587891
 20
-24.0000553131103
 30
0.0
 11
-76.0000152587891
 21
169.49994468689
 31
0.0
  0
LINE
  5
    56
  8
0
  6
CONTINUOUS
 62
     3
 10
-74.7500152587851
 20
-25.250055313111
 30
0.0
 11
74.7499847412149
 21
-25.2500209808356
 31
0.0
  0
LINE
  5
    57
  8
0
  6
CONTINUOUS
 62
     3
 10
-70.50000762559
 20
2.24997818470003
 30
0.0
 11
70.49999237441
 21
2.24997818470002
 31
0.0
  0
LINE
  5
    58
  8
0
  6
CONTINUOUS
 62
     3
 10
-70.5000074412761
 20
2.24997806549074
 30
0.0
 11
-70.5000074412761
 21
93.0689001568776
 31
0.0
  0
LINE
  5
    59
  8
0
  6
CONTINUOUS
 62
     3
 10
-70.5000152587891
 20
108.431043142038
 30
0.0
 11
-70.5000152587891
 21
143.249984741211
 31
0.0
  0
LINE
  5
    5A
  8
0
  6
CONTINUOUS
 62
     3
 10
-70.500015258789
 20
143.249984741211
 30
0.0
 11
70.4999694824219
 21
143.249984741211
 31
0.0
  0
LINE
  5
    5B
  8
0
  6
CONTINUOUS
 62
     3
 10
70.499992735838
 20
2.24997854232794
 30
0.0
 11
70.499992735838
 21
143.249978542328
 31
0.0
  0
LINE
  5
    5C
  8
0
  6
CONTINUOUS
 62
     3
 10
-71.5000076293945
 20
150.749984741211
 30
0.0
 11
-71.5000076293945
 21
170.749969482422
 31
0.0
  0
LINE
  5
    5D
  8
0
  6
CONTINUOUS
 62
     3
 10
71.4999923706055
 20
150.749984741211
 30
0.0
 11
71.4999923706055
 21
170.749969482422
 31
0.0
  0
LINE
  5
    5E
  8
0
  6
CONTINUOUS
 62
     3
 10
-71.5000076293945
 20
150.749984741211
 30
0.0
 11
71.4999923706055
 21
150.749984741211
 31
0.0
  0
LINE
  5
    5F
  8
0
  6
CONTINUOUS
 62
     3
 10
-70.5000152587891
 20
-4.25005340576171
 30
0.0
 11
70.4999847412109
 21
-4.25005340576172
 31
0.0
  0
LINE
  5
    60
  8
0
  6
CONTINUOUS
 62
     3
 10
-70.5000152587891
 20
-5.25005340576171
 30
0.0
 11
70.4999847412109
 21
-5.25005340576172
 31
0.0
  0
LINE
  5
    61
  8
0
  6
CONTINUOUS
 62
     3
 10
-70.5000305175649
 20
149.74993896486
 30
0.0
 11
70.4999694824351
 21
149.750000000014
 31
0.0
  0
LINE
  5
    62
  8
0
  6
CONTINUOUS
 62
     3
 10
71.4999858357699
 20
-25.2500247955323
 30
0.0
 11
71.4999858357699
 21
150.749990463257
 31
0.0
  0
LINE
  5
    63
  8
0
  6
CONTINUOUS
 62
     3
 10
70.4999847412109
 20
-25.2500247955322
 30
0.0
 11
70.4999847412109
 21
-5.25005340576172
 31
0.0
  0
LINE
  5
    64
  8
0
  6
CONTINUOUS
 62
     3
 10
70.4999847412595
 20
-4.25005341252316
 30
0.0
 11
70.4999923706543
 21
2.24997805388479
 31
0.0
  0
LINE
  5
    65
  8
0
  6
CONTINUOUS
 62
     3
 10
70.4999694824219
 20
143.249984741211
 30
0.0
 11
70.4999694824219
 21
149.75
 31
0.0
  0
LINE
  5
    66
  8
0
  6
CONTINUOUS
 62
     3
 10
-71.5000141642294
 20
-25.2500457763669
 30
0.0
 11
-71.5000141642294
 21
150.749984741211
 31
0.0
  0
LINE
  5
    67
  8
0
  6
CONTINUOUS
 62
     3
 10
-70.5000152587891
 20
-25.2500419616699
 30
0.0
 11
-70.5000152587891
 21
-5.25005340576171
 31
0.0
  0
LINE
  5
    68
  8
0
  6
CONTINUOUS
 62
     3
 10
-70.5000152588376
 20
-4.25005339719544
 30
0.0
 11
-70.5000076294428
 21
2.24997808131977
 31
0.0
  0
LINE
  5
    69
  8
0
  6
CONTINUOUS
 62
     3
 10
-70.5000305177719
 20
149.749938959778
 30
0.0
 11
-70.5000152589833
 21
143.249984736586
 31
0.0
  0
LINE
  5
    6A
  8
0
  6
CONTINUOUS
 62
     3
 10
-71.5000076293945
 20
159.999984741211
 30
0.0
 11
-71.0
 21
159.999984741211
 31
0.0
  0
LINE
  5
    6B
  8
0
  6
CONTINUOUS
 62
     3
 10
-71.5000076293945
 20
161.499984741211
 30
0.0
 11
-71.0
 21
161.499984741211
 31
0.0
  0
LINE
  5
    6C
  8
0
  6
CONTINUOUS
 62
     3
 10
70.9999923706055
 20
159.999984741211
 30
0.0
 11
71.4999923706055
 21
159.999984741211
 31
0.0
  0
LINE
  5
    6D
  8
0
  6
CONTINUOUS
 62
     3
 10
70.9999923706055
 20
161.499984741211
 30
0.0
 11
71.4999923706055
 21
161.499984741211
 31
0.0
  0
ARC
  5
    6E
  8
0
  6
CONTINUOUS
 62
     3
 10
-74.7500446175772
 20
169.499966747805
 30
0.0
 40
1.2499712385188
 50
89.9986335430652
 51
180.000984426699
  0
ARC
  5
    6F
  8
0
  6
CONTINUOUS
 62
     3
 10
-71.0000555065448
 20
160.749933035418
 30
0.0
 40
0.750060676953542
 50
270.004052802733
 51
449.996390805965
  0
ARC
  5
    70
  8
0
  6
CONTINUOUS
 62
     3
 10
71.0004519501049
 20
160.749941254871
 30
0.0
 40
0.750296104915764
 50
90.0
 51
270.0
  0
ARC
  5
    71
  8
0
  6
CONTINUOUS
 62
     3
 10
74.7499844400411
 20
169.499990278414
 30
0.0
 40
1.25000142315613
 50
2.89360398659739E-4
 51
89.9998353051498
  0
ARC
  5
    72
  8
0
  6
CONTINUOUS
 62
     3
 10
74.7499756668578
 20
-24.0000128113076
 30
0.0
 40
1.25000813012569
 50
270.000329889624
 51
359.999635393882
  0
ARC
  5
    73
  8
0
  6
CONTINUOUS
 62
     3
 10
-74.7500061806411
 20
-24.0000471426785
 30
0.0
 40
1.25000813391971
 50
180.000364647548
 51
269.999670038333
  0
ARC
  5
    74
  8
0
  6
CONTINUOUS
 62
     3
 10
-41.5002621522514
 20
100.749971717654
 30
0.0
 40
29.9997423066705
 50
165.164904903841
 51
194.835095365634
  0
ARC
  5
    75
  8
0
  6
DOT
 62
     3
 10
-71.9999597522443
 20
160.749933035418
 30
0.0
 40
0.750060676953542
 50
90.003609194035
 51
269.995947197267
  0
LINE
  5
    76
  8
0
  6
DOT
 62
     3
 10
-72.0000152587891
 20
161.499984741211
 30
0.0
 11
-71.5000076293945
 21
161.499984741211
 31
0.0
  0
LINE
  5
    77
  8
0
  6
DOT
 62
     3
 10
-72.0000152587891
 20
159.999984741211
 30
0.0
 11
-71.5000076293945
 21
159.999984741211
 31
0.0
  0
LINE
  5
    78
  8
0
  6
DOT
 62
     3
 10
71.4999923706055
 20
161.499984741211
 30
0.0
 11
71.9999923706055
 21
161.499984741211
 31
0.0
  0
LINE
  5
    79
  8
0
  6
DOT
 62
     3
 10
71.4999923706055
 20
159.999984741211
 30
0.0
 11
71.9999923706055
 21
159.999984741211
 31
0.0
  0
ARC
  5
    7A
  8
0
  6
DOT
 62
     3
 10
71.999532791106
 20
160.749941254871
 30
0.0
 40
0.750296104915764
 50
270.0
 51
450.0
  0
POINT
  5
    7B
  8
0
  6
CONTINUOUS
 62
     3
 10
-2.28881835892954E-5
 20
72.7499785423279
 30
0.0
  0
ENDBLK
  5
    7C
  8
0
  6
CONTINUOUS
 62
     7
  0
BLOCK
  5
    7D
  8
0
  6
CONTINUOUS
 62
     7
  2
*HATCH7
 70
    65
 10
0.0
 20
0.0
 30
0.0
  3
*HATCH7
  0
LINE
  5
    7E
  8
0
  6
CONTINUOUS
 62
    52
 10
179.222381591797
 20
234.376708984375
 30
0.0
 11
177.499420166016
 21
232.653732299805
 31
0.0
  0
LINE
  5
    7F
  8
0
  6
CONTINUOUS
 62
    52
 10
179.499420166016
 20
230.411087036133
 30
0.0
 11
177.499420166016
 21
228.411087036133
 31
0.0
  0
LINE
  5
    80
  8
0
  6
CONTINUOUS
 62
    52
 10
179.499420166016
 20
226.168441772461
 30
0.0
 11
177.499420166016
 21
224.168441772461
 31
0.0
  0
LINE
  5
    81
  8
0
  6
CONTINUOUS
 62
    52
 10
179.499420166016
 20
221.925796508789
 30
0.0
 11
177.499420166016
 21
219.925796508789
 31
0.0
  0
LINE
  5
    82
  8
0
  6
CONTINUOUS
 62
    52
 10
179.499420166016
 20
217.683151245117
 30
0.0
 11
177.499420166016
 21
215.683151245117
 31
0.0
  0
LINE
  5
    83
  8
0
  6
CONTINUOUS
 62
    52
 10
179.499420166016
 20
213.440505981445
 30
0.0
 11
177.499420166016
 21
211.440505981445
 31
0.0
  0
LINE
  5
    84
  8
0
  6
CONTINUOUS
 62
    52
 10
179.499420166016
 20
209.197860717773
 30
0.0
 11
177.499420166016
 21
207.197860717773
 31
0.0
  0
LINE
  5
    85
  8
0
  6
CONTINUOUS
 62
    52
 10
179.499420166016
 20
204.955215454102
 30
0.0
 11
177.499420166016
 21
202.955215454102
 31
0.0
  0
LINE
  5
    86
  8
0
  6
CONTINUOUS
 62
    52
 10
179.499420166016
 20
200.71257019043
 30
0.0
 11
177.499420166016
 21
198.71257019043
 31
0.0
  0
LINE
  5
    87
  8
0
  6
CONTINUOUS
 62
    52
 10
179.499420166016
 20
196.469924926758
 30
0.0
 11
177.499420166016
 21
194.469924926758
 31
0.0
  0
LINE
  5
    88
  8
0
  6
CONTINUOUS
 62
    52
 10
179.499420166016
 20
192.227279663086
 30
0.0
 11
177.499420166016
 21
190.227279663086
 31
0.0
  0
LINE
  5
    89
  8
0
  6
CONTINUOUS
 62
    52
 10
179.499420166016
 20
187.984634399414
 30
0.0
 11
177.499420166016
 21
185.984634399414
 31
0.0
  0
LINE
  5
    8A
  8
0
  6
CONTINUOUS
 62
    52
 10
179.499420166016
 20
183.741989135742
 30
0.0
 11
177.499420166016
 21
181.741989135742
 31
0.0
  0
LINE
  5
    8B
  8
0
  6
CONTINUOUS
 62
    52
 10
179.499420166016
 20
179.49934387207
 30
0.0
 11
177.499420166016
 21
177.49934387207
 31
0.0
  0
LINE
  5
    8C
  8
0
  6
CONTINUOUS
 62
    52
 10
179.499420166016
 20
175.256698608398
 30
0.0
 11
177.499420166016
 21
173.256698608398
 31
0.0
  0
LINE
  5
    8D
  8
0
  6
CONTINUOUS
 62
    52
 10
179.499420166016
 20
171.014053344727
 30
0.0
 11
177.499420166016
 21
169.014053344727
 31
0.0
  0
LINE
  5
    8E
  8
0
  6
CONTINUOUS
 62
    52
 10
179.499420166016
 20
166.771408081055
 30
0.0
 11
177.499420166016
 21
164.771408081055
 31
0.0
  0
LINE
  5
    8F
  8
0
  6
CONTINUOUS
 62
    52
 10
179.499420166016
 20
162.528762817383
 30
0.0
 11
177.499420166016
 21
160.528762817383
 31
0.0
  0
LINE
  5
    90
  8
0
  6
CONTINUOUS
 62
    52
 10
179.499420166016
 20
158.286117553711
 30
0.0
 11
177.499420166016
 21
156.286117553711
 31
0.0
  0
LINE
  5
    91
  8
0
  6
CONTINUOUS
 62
    52
 10
179.499420166016
 20
154.043563842773
 30
0.0
 11
179.205703735352
 21
153.749847412109
 31
0.0
  0
ENDBLK
  5
    92
  8
0
  6
CONTINUOUS
 62
     7
  0
BLOCK
  5
    93
  8
0
  6
CONTINUOUS
 62
     7
  2
*HATCH8
 70
    65
 10
0.0
 20
0.0
 30
0.0
  3
*HATCH8
  0
LINE
  5
    94
  8
0
  6
CONTINUOUS
 62
    52
 10
179.499420166016
 20
-9.29809856414795
 30
0.0
 11
177.499420166016
 21
-11.2980985641479
 31
0.0
  0
LINE
  5
    95
  8
0
  6
CONTINUOUS
 62
    52
 10
179.499420166016
 20
-13.5407390594482
 30
0.0
 11
177.499420166016
 21
-15.5407390594482
 31
0.0
  0
LINE
  5
    96
  8
0
  6
CONTINUOUS
 62
    52
 10
179.499420166016
 20
-17.7833805084229
 30
0.0
 11
177.499420166016
 21
-19.7833805084229
 31
0.0
  0
LINE
  5
    97
  8
0
  6
CONTINUOUS
 62
    52
 10
179.499420166016
 20
-22.0260219573975
 30
0.0
 11
177.499420166016
 21
-24.0260219573975
 31
0.0
  0
LINE
  5
    98
  8
0
  6
CONTINUOUS
 62
    52
 10
179.499420166016
 20
-26.2686634063721
 30
0.0
 11
177.499420166016
 21
-28.2686634063721
 31
0.0
  0
LINE
  5
    99
  8
0
  6
CONTINUOUS
 62
    52
 10
179.499420166016
 20
-30.5113048553467
 30
0.0
 11
177.499420166016
 21
-32.511302947998
 31
0.0
  0
LINE
  5
    9A
  8
0
  6
CONTINUOUS
 62
    52
 10
179.499420166016
 20
-34.7539443969727
 30
0.0
 11
177.499420166016
 21
-36.7539405822754
 31
0.0
  0
LINE
  5
    9B
  8
0
  6
CONTINUOUS
 62
    52
 10
179.499420166016
 20
-38.99658203125
 30
0.0
 11
177.499420166016
 21
-40.9965782165527
 31
0.0
  0
LINE
  5
    9C
  8
0
  6
CONTINUOUS
 62
    52
 10
179.499420166016
 20
-43.2392196655273
 30
0.0
 11
177.499420166016
 21
-45.2392158508301
 31
0.0
  0
LINE
  5
    9D
  8
0
  6
CONTINUOUS
 62
    52
 10
179.499420166016
 20
-47.4818572998047
 30
0.0
 11
177.499420166016
 21
-49.4818534851074
 31
0.0
  0
LINE
  5
    9E
  8
0
  6
CONTINUOUS
 62
    52
 10
179.499420166016
 20
-51.724494934082
 30
0.0
 11
177.499420166016
 21
-53.7244911193848
 31
0.0
  0
LINE
  5
    9F
  8
0
  6
CONTINUOUS
 62
    52
 10
179.499420166016
 20
-55.9671325683594
 30
0.0
 11
177.499420166016
 21
-57.9671287536621
 31
0.0
  0
LINE
  5
    A0
  8
0
  6
CONTINUOUS
 62
    52
 10
179.499420166016
 20
-60.2097702026367
 30
0.0
 11
177.499420166016
 21
-62.2097663879395
 31
0.0
  0
LINE
  5
    A1
  8
0
  6
CONTINUOUS
 62
    52
 10
179.499420166016
 20
-64.4524078369141
 30
0.0
 11
177.499420166016
 21
-66.4524078369141
 31
0.0
  0
LINE
  5
    A2
  8
0
  6
CONTINUOUS
 62
    52
 10
179.499420166016
 20
-68.6950531005859
 30
0.0
 11
177.499420166016
 21
-70.6950531005859
 31
0.0
  0
LINE
  5
    A3
  8
0
  6
CONTINUOUS
 62
    52
 10
179.499420166016
 20
-72.9376983642578
 30
0.0
 11
177.499420166016
 21
-74.9376983642578
 31
0.0
  0
LINE
  5
    A4
  8
0
  6
CONTINUOUS
 62
    52
 10
179.499420166016
 20
-77.1803436279297
 30
0.0
 11
177.499420166016
 21
-79.1803436279297
 31
0.0
  0
LINE
  5
    A5
  8
0
  6
CONTINUOUS
 62
    52
 10
179.499420166016
 20
-81.4229888916016
 30
0.0
 11
177.499420166016
 21
-83.4229888916016
 31
0.0
  0
LINE
  5
    A6
  8
0
  6
CONTINUOUS
 62
    52
 10
179.499420166016
 20
-85.6656341552734
 30
0.0
 11
177.499420166016
 21
-87.6656341552734
 31
0.0
  0
LINE
  5
    A7
  8
0
  6
CONTINUOUS
 62
    52
 10
179.499420166016
 20
-89.9082794189453
 30
0.0
 11
177.499420166016
 21
-91.9082794189453
 31
0.0
  0
LINE
  5
    A8
  8
0
  6
CONTINUOUS
 62
    52
 10
179.499420166016
 20
-94.1509246826172
 30
0.0
 11
177.499420166016
 21
-96.1509246826172
 31
0.0
  0
ENDBLK
  5
    A9
  8
0
  6
CONTINUOUS
 62
     7
  0
BLOCK
  5
    AA
  8
0
  6
CONTINUOUS
 62
     7
  2
*HATCH9
 70
    65
 10
0.0
 20
0.0
 30
0.0
  3
*HATCH9
  0
LINE
  5
    AB
  8
0
  6
CONTINUOUS
 62
    52
 10
170.220428466797
 20
153.249862670898
 30
0.0
 11
167.999420166016
 21
151.028839111328
 31
0.0
  0
LINE
  5
    AC
  8
0
  6
CONTINUOUS
 62
    52
 10
170.499420166016
 20
149.286209106445
 30
0.0
 11
167.999420166016
 21
146.786209106445
 31
0.0
  0
LINE
  5
    AD
  8
0
  6
CONTINUOUS
 62
    52
 10
170.499420166016
 20
145.043563842773
 30
0.0
 11
169.705718994141
 21
144.249862670898
 31
0.0
  0
ENDBLK
  5
    AE
  8
0
  6
CONTINUOUS
 62
     7
  0
BLOCK
  5
    AF
  8
0
  6
CONTINUOUS
 62
     7
  2
*UDIM42
 70
    65
 10
0.0
 20
0.0
 30
0.0
  3
*UDIM42
  0
TEXT
  5
    B0
  8
0
  6
CONTINUOUS
 62
     7
 10
116.639744143783
 20
39.0249578999028
 30
0.0
 40
3.00000001532688
  1
2
 41
0.933333333333333
 72
     1
 11
117.739744149403
 21
40.5249579075662
 31
0.0
 73
     2
  0
LINE
  5
    B1
  8
0
  6
CONTINUOUS
 62
     7
 10
122.389743626585
 20
23.0198299500759
 30
0.0
 11
122.389743626585
 21
40.0249578999028
 31
0.0
  0
LINE
  5
    B2
  8
0
  6
CONTINUOUS
 62
     7
 10
123.08974355506
 20
22.5735799956734
 30
0.0
 11
123.08974355506
 21
40.0249578999028
 31
0.0
  0
LINE
  5
    B3
  8
0
  6
CONTINUOUS
 62
     7
 10
116.639744143783
 20
38.0249578999028
 30
0.0
 11
123.08974355506
 21
38.0249578999028
 31
0.0
  0
LINE
  5
    B4
  8
0
  6
CONTINUOUS
 62
     7
 10
119.435320349378
 20
37.5040134699511
 30
0.0
 11
122.389743626585
 21
38.0249578999028
 31
0.0
  0
LINE
  5
    B5
  8
0
  6
CONTINUOUS
 62
     7
 10
122.389743626585
 20
38.0249578999028
 30
0.0
 11
119.435320349378
 21
38.5459023298545
 31
0.0
  0
LINE
  5
    B6
  8
0
  6
CONTINUOUS
 62
     7
 10
126.044166832267
 20
38.5459023298545
 30
0.0
 11
123.08974355506
 21
38.0249578999028
 31
0.0
  0
LINE
  5
    B7
  8
0
  6
CONTINUOUS
 62
     7
 10
123.08974355506
 20
38.0249578999028
 30
0.0
 11
126.044166832267
 21
37.5040134699511
 31
0.0
  0
ENDBLK
  5
    B8
  8
0
  6
CONTINUOUS
 62
     7
  0
BLOCK
  5
    B9
  8
0
  6
CONTINUOUS
 62
     7
  2
*UDIM43
 70
    65
 10
0.0
 20
0.0
 30
0.0
  3
*UDIM43
  0
TEXT
  5
    BA
  8
0
  6
CONTINUOUS
 62
     7
 10
126.028799537619
 20
39.0249578999028
 30
0.0
 40
3.00000001532688
  1
44,5
 41
0.933333333333333
 72
     1
 11
131.328799564697
 21
40.5249579075662
 31
0.0
 73
     2
  0
LINE
  5
    BB
  8
0
  6
CONTINUOUS
 62
     7
 10
138.664739285446
 20
-16.2589824839296
 30
0.0
 11
138.664739285446
 21
40.0249578999028
 31
0.0
  0
LINE
  5
    BC
  8
0
  6
CONTINUOUS
 62
     7
 10
123.08974355506
 20
38.0249578999028
 30
0.0
 11
138.664739285446
 21
38.0249578999028
 31
0.0
  0
LINE
  5
    BD
  8
0
  6
CONTINUOUS
 62
     7
 10
120.135320277853
 20
37.5040134699511
 30
0.0
 11
123.08974355506
 21
38.0249578999028
 31
0.0
  0
LINE
  5
    BE
  8
0
  6
CONTINUOUS
 62
     7
 10
123.08974355506
 20
38.0249578999028
 30
0.0
 11
120.135320277853
 21
38.5459023298545
 31
0.0
  0
LINE
  5
    BF
  8
0
  6
CONTINUOUS
 62
     7
 10
141.619162562653
 20
38.5459023298545
 30
0.0
 11
138.664739285446
 21
38.0249578999028
 31
0.0
  0
LINE
  5
    C0
  8
0
  6
CONTINUOUS
 62
     7
 10
138.664739285446
 20
38.0249578999028
 30
0.0
 11
141.619162562653
 21
37.5040134699511
 31
0.0
  0
ENDBLK
  5
    C1
  8
0
  6
CONTINUOUS
 62
     7
  0
BLOCK
  5
    C2
  8
0
  6
CONTINUOUS
 62
     7
  2
*UDIM44
 70
    65
 10
0.0
 20
0.0
 30
0.0
  3
*UDIM44
  0
TEXT
  5
    C3
  8
0
  6
CONTINUOUS
 62
     7
 10
149.334202422412
 20
39.0249578999028
 30
0.0
 40
3.00000001532688
  1
22
 41
0.933333333333333
 72
     1
 11
151.834202435185
 21
40.5249579075662
 31
0.0
 73
     2
  0
LINE
  5
    C4
  8
0
  6
CONTINUOUS
 62
     7
 10
146.359199373244
 20
-34.1651017413993
 30
0.0
 11
146.359199373244
 21
40.0249578999028
 31
0.0
  0
LINE
  5
    C5
  8
0
  6
CONTINUOUS
 62
     7
 10
138.664739285446
 20
38.0249578999028
 30
0.0
 11
154.334202447957
 21
38.0249578999028
 31
0.0
  0
LINE
  5
    C6
  8
0
  6
CONTINUOUS
 62
     7
 10
141.619162562653
 20
38.5459023298545
 30
0.0
 11
138.664739285446
 21
38.0249578999028
 31
0.0
  0
LINE
  5
    C7
  8
0
  6
CONTINUOUS
 62
     7
 10
138.664739285446
 20
38.0249578999028
 30
0.0
 11
141.619162562653
 21
37.5040134699511
 31
0.0
  0
LINE
  5
    C8
  8
0
  6
CONTINUOUS
 62
     7
 10
143.404776096037
 20
37.5040134699511
 30
0.0
 11
146.359199373244
 21
38.0249578999028
 31
0.0
  0
LINE
  5
    C9
  8
0
  6
CONTINUOUS
 62
     7
 10
146.359199373244
 20
38.0249578999028
 30
0.0
 11
143.404776096037
 21
38.5459023298545
 31
0.0
  0
ENDBLK
  5
    CA
  8
0
  6
CONTINUOUS
 62
     7
  0
BLOCK
  5
    CB
  8
0
  6
CONTINUOUS
 62
     7
  2
*UDIM45
 70
    65
 10
0.0
 20
0.0
 30
0.0
  3
*UDIM45
  0
TEXT
  5
    CC
  8
0
  6
CONTINUOUS
 62
     7
 10
84.3524552999226
 20
30.3273925654703
 30
0.0
 40
3.00000001532688
  1
103,5
 41
0.933333333333333
 72
     1
 11
91.0524553341527
 21
31.8273925731337
 31
0.0
 73
     2
  0
LINE
  5
    CD
  8
0
  6
CONTINUOUS
 62
     7
 10
73.2149683117863
 20
15.1536584014746
 30
0.0
 11
73.2149683117863
 21
31.3273925654703
 31
0.0
  0
LINE
  5
    CE
  8
0
  6
CONTINUOUS
 62
     7
 10
109.439943248034
 20
-17.5714640959518
 30
0.0
 11
109.439943248034
 21
31.3273925654703
 31
0.0
  0
LINE
  5
    CF
  8
0
  6
CONTINUOUS
 62
     7
 10
73.2149683117863
 20
29.3273925654703
 30
0.0
 11
109.439943248034
 21
29.3273925654703
 31
0.0
  0
LINE
  5
    D0
  8
0
  6
CONTINUOUS
 62
     7
 10
76.1693915889933
 20
29.848336995422
 30
0.0
 11
73.2149683117863
 21
29.3273925654703
 31
0.0
  0
LINE
  5
    D1
  8
0
  6
CONTINUOUS
 62
     7
 10
73.2149683117863
 20
29.3273925654703
 30
0.0
 11
76.1693915889933
 21
28.8064481355186
 31
0.0
  0
LINE
  5
    D2
  8
0
  6
CONTINUOUS
 62
     7
 10
106.485519970827
 20
28.8064481355186
 30
0.0
 11
109.439943248034
 21
29.3273925654703
 31
0.0
  0
LINE
  5
    D3
  8
0
  6
CONTINUOUS
 62
     7
 10
109.439943248034
 20
29.3273925654703
 30
0.0
 11
106.485519970827
 21
29.848336995422
 31
0.0
  0
ENDBLK
  5
    D4
  8
0
  6
CONTINUOUS
 62
     7
  0
BLOCK
  5
    D5
  8
0
  6
CONTINUOUS
 62
     7
  2
*UDIM46
 70
    65
 10
0.0
 20
0.0
 30
0.0
  3
*UDIM46
  0
TEXT
  5
    D6
  8
0
  6
CONTINUOUS
 62
     7
 10
113.139839849536
 20
30.3273925654703
 30
0.0
 40
3.00000001532688
  1
37
 41
0.933333333333333
 72
     1
 11
115.639839862309
 21
31.8273925731337
 31
0.0
 73
     2
  0
LINE
  5
    D7
  8
0
  6
CONTINUOUS
 62
     7
 10
122.389743626585
 20
23.0198299500759
 30
0.0
 11
122.389743626585
 21
31.3273925654703
 31
0.0
  0
LINE
  5
    D8
  8
0
  6
CONTINUOUS
 62
     7
 10
109.439943248034
 20
29.3273925654703
 30
0.0
 11
122.389743626585
 21
29.3273925654703
 31
0.0
  0
LINE
  5
    D9
  8
0
  6
CONTINUOUS
 62
     7
 10
112.394366525241
 20
29.848336995422
 30
0.0
 11
109.439943248034
 21
29.3273925654703
 31
0.0
  0
LINE
  5
    DA
  8
0
  6
CONTINUOUS
 62
     7
 10
109.439943248034
 20
29.3273925654703
 30
0.0
 11
112.394366525241
 21
28.8064481355186
 31
0.0
  0
LINE
  5
    DB
  8
0
  6
CONTINUOUS
 62
     7
 10
119.435320349378
 20
28.8064481355186
 30
0.0
 11
122.389743626585
 21
29.3273925654703
 31
0.0
  0
LINE
  5
    DC
  8
0
  6
CONTINUOUS
 62
     7
 10
122.389743626585
 20
29.3273925654703
 30
0.0
 11
119.435320349378
 21
29.848336995422
 31
0.0
  0
ENDBLK
  5
    DD
  8
0
  6
CONTINUOUS
 62
     7
  0
BLOCK
  5
    DE
  8
0
  6
CONTINUOUS
 62
     7
  2
*UDIM47
 70
    65
 10
0.0
 20
0.0
 30
0.0
  3
*UDIM47
  0
TEXT
  5
    DF
  8
0
  6
CONTINUOUS
 62
     7
 10
111.280436805405
 20
-116.636281840477
 30
0.0
 40
3.00000001532688
  1
42,5
 41
0.933333333333333
 72
     1
 11
116.580436832482
 21
-115.136281832813
 31
0.0
 73
     2
  0
LINE
  5
    E0
  8
0
  6
CONTINUOUS
 62
     7
 10
109.439943248034
 20
-56.2339520961041
 30
0.0
 11
109.439943248034
 21
-119.636281840477
 31
0.0
  0
LINE
  5
    E1
  8
0
  6
CONTINUOUS
 62
     7
 10
124.31474342989
 20
-72.8589945781598
 30
0.0
 11
124.31474342989
 21
-119.636281840477
 31
0.0
  0
LINE
  5
    E2
  8
0
  6
CONTINUOUS
 62
     7
 10
109.439943248034
 20
-117.636281840477
 30
0.0
 11
124.31474342989
 21
-117.636281840477
 31
0.0
  0
LINE
  5
    E3
  8
0
  6
CONTINUOUS
 62
     7
 10
106.485519970827
 20
-118.157226270429
 30
0.0
 11
109.439943248034
 21
-117.636281840477
 31
0.0
  0
LINE
  5
    E4
  8
0
  6
CONTINUOUS
 62
     7
 10
109.439943248034
 20
-117.636281840477
 30
0.0
 11
106.485519970827
 21
-117.115337410525
 31
0.0
  0
LINE
  5
    E5
  8
0
  6
CONTINUOUS
 62
     7
 10
127.269166707097
 20
-117.115337410525
 30
0.0
 11
124.31474342989
 21
-117.636281840477
 31
0.0
  0
LINE
  5
    E6
  8
0
  6
CONTINUOUS
 62
     7
 10
124.31474342989
 20
-117.636281840477
 30
0.0
 11
127.269166707097
 21
-118.157226270429
 31
0.0
  0
ENDBLK
  5
    E7
  8
0
  6
CONTINUOUS
 62
     7
  0
BLOCK
  5
    E8
  8
0
  6
CONTINUOUS
 62
     7
  2
*UDIM48
 70
    65
 10
0.0
 20
0.0
 30
0.0
  3
*UDIM48
  0
TEXT
  5
    E9
  8
0
  6
CONTINUOUS
 62
     7
 10
222.104703610042
 20
-92.5587958955497
 30
0.0
 40
3.00000002980232
  1
R.min 200
 50
359.999999844103
 41
0.933333333333333
 72
     1
 11
234.404703736305
 21
-91.0587959140539
 31
0.0
 73
     2
  0
LINE
  5
    EA
  8
0
  6
CONTINUOUS
 62
     7
 10
210.557830810547
 20
-66.7497411762882
 30
0.0
 11
210.557830810547
 21
-95.5587959289551
 31
0.0
  0
LINE
  5
    EB
  8
0
  6
CONTINUOUS
 62
     7
 10
260.557830810547
 20
-81.0618767698268
 30
0.0
 11
260.557830810547
 21
-95.5587959289551
 31
0.0
  0
LINE
  5
    EC
  8
0
  6
CONTINUOUS
 62
     7
 10
210.557830810547
 20
-93.5587959289551
 30
0.0
 11
260.557830810547
 21
-93.5587959289551
 31
0.0
  0
LINE
  5
    ED
  8
0
  6
CONTINUOUS
 62
     7
 10
213.512254087754
 20
-93.0378514990034
 30
0.0
 11
210.557830810547
 21
-93.5587959289551
 31
0.0
  0
LINE
  5
    EE
  8
0
  6
CONTINUOUS
 62
     7
 10
210.557830810547
 20
-93.5587959289551
 30
0.0
 11
213.512254087754
 21
-94.0797403589067
 31
0.0
  0
LINE
  5
    EF
  8
0
  6
CONTINUOUS
 62
     7
 10
257.60340753334
 20
-94.0797403589067
 30
0.0
 11
260.557830810547
 21
-93.5587959289551
 31
0.0
  0
LINE
  5
    F0
  8
0
  6
CONTINUOUS
 62
     7
 10
260.557830810547
 20
-93.5587959289551
 30
0.0
 11
257.60340753334
 21
-93.0378514990034
 31
0.0
  0
ENDBLK
  5
    F1
  8
0
  6
CONTINUOUS
 62
     7
  0
BLOCK
  5
    F2
  8
0
  6
CONTINUOUS
 62
     7
  2
*UDIM49
 70
    65
 10
0.0
 20
0.0
 30
0.0
  3
*UDIM49
  0
TEXT
  5
    F3
  8
0
  6
CONTINUOUS
 62
     7
 10
196.805239811439
 20
-27.4187030648294
 30
0.0
 40
3.00000002980232
  1
2,75
 50
359.999999844103
 41
0.933333333333333
 72
     1
 11
202.105239868164
 21
-25.9187030643225
 31
0.0
 73
     2
  0
LINE
  5
    F4
  8
0
  6
CONTINUOUS
 62
     7
 10
209.870330810547
 20
-15.1038264465332
 30
0.0
 11
209.870330810547
 21
-30.4187030792236
 31
0.0
  0
LINE
  5
    F5
  8
0
  6
CONTINUOUS
 62
     7
 10
196.805239815513
 20
-28.4187030792236
 30
0.0
 11
210.557830810547
 21
-28.4187030792236
 31
0.0
  0
LINE
  5
    F6
  8
0
  6
CONTINUOUS
 62
     7
 10
206.91590753334
 20
-28.9396475091753
 30
0.0
 11
209.870330810547
 21
-28.4187030792236
 31
0.0
  0
LINE
  5
    F7
  8
0
  6
CONTINUOUS
 62
     7
 10
209.870330810547
 20
-28.4187030792236
 30
0.0
 11
206.91590753334
 21
-27.897758649272
 31
0.0
  0
LINE
  5
    F8
  8
0
  6
CONTINUOUS
 62
     7
 10
213.512254087754
 20
-27.897758649272
 30
0.0
 11
210.557830810547
 21
-28.4187030792236
 31
0.0
  0
LINE
  5
    F9
  8
0
  6
CONTINUOUS
 62
     7
 10
210.557830810547
 20
-28.4187030792236
 30
0.0
 11
213.512254087754
 21
-28.9396475091753
 31
0.0
  0
ENDBLK
  5
    FA
  8
0
  6
CONTINUOUS
 62
     7
  0
BLOCK
  5
    FB
  8
0
  6
CONTINUOUS
 62
     7
  2
*UDIM50
 70
    65
 10
0.0
 20
0.0
 30
0.0
  3
*UDIM50
  0
TEXT
  5
    FC
  8
0
  6
CONTINUOUS
 62
     7
 10
241.869567864307
 20
-26.4588264814009
 30
0.0
 40
3.00000002980232
  1
90
 50
449.999999844103
 41
0.933333333333333
 72
     1
 11
240.369567856193
 21
-23.9588264524937
 31
0.0
 73
     2
  0
LINE
  5
    FD
  8
0
  6
CONTINUOUS
 62
     7
 10
223.790330810547
 20
-12.4338264465332
 30
0.0
 11
244.869567871094
 21
-12.4338264465332
 31
0.0
  0
LINE
  5
    FE
  8
0
  6
CONTINUOUS
 62
     7
 10
242.869567871094
 20
-12.4338264465332
 30
0.0
 11
242.869567871094
 21
-34.9338264465332
 31
0.0
  0
LINE
  5
    FF
  8
0
  6
CONTINUOUS
 62
     7
 10
243.390512301045
 20
-15.3882497237402
 30
0.0
 11
242.869567871094
 21
-12.4338264465332
 31
0.0
  0
LINE
  5
   100
  8
0
  6
CONTINUOUS
 62
     7
 10
242.869567871094
 20
-12.4338264465332
 30
0.0
 11
242.348623441142
 21
-15.3882497237402
 31
0.0
  0
LINE
  5
   101
  8
0
  6
CONTINUOUS
 62
     7
 10
242.348623441142
 20
-31.9794031693262
 30
0.0
 11
242.869567871094
 21
-34.9338264465332
 31
0.0
  0
LINE
  5
   102
  8
0
  6
CONTINUOUS
 62
     7
 10
242.869567871094
 20
-34.9338264465332
 30
0.0
 11
243.390512301045
 21
-31.9794031693262
 31
0.0
  0
ENDBLK
  5
   103
  8
0
  6
CONTINUOUS
 62
     7
  0
BLOCK
  5
   104
  8
0
  6
CONTINUOUS
 62
     7
  2
*UDIM51
 70
    65
 10
0.0
 20
0.0
 30
0.0
  3
*UDIM51
  0
TEXT
  5
   105
  8
0
  6
CONTINUOUS
 62
     7
 10
212.920858451127
 20
-2.57317160881087
 30
0.0
 40
3.00000002980232
  1
45
 50
359.999999844103
 41
0.933333333333333
 72
     1
 11
215.420858480036
 21
-1.07317160069942
 31
0.0
 73
     2
  0
LINE
  5
   106
  8
0
  6
CONTINUOUS
 62
     7
 10
209.870330810547
 20
-9.7638264465332
 30
0.0
 11
209.870330810547
 21
-1.57317161560059
 31
0.0
  0
LINE
  5
   107
  8
0
  6
CONTINUOUS
 62
     7
 10
221.120330810547
 20
-9.7638264465332
 30
0.0
 11
221.120330810547
 21
-1.57317161560059
 31
0.0
  0
LINE
  5
   108
  8
0
  6
CONTINUOUS
 62
     7
 10
209.870330810547
 20
-3.57317161560059
 30
0.0
 11
221.120330810547
 21
-3.57317161560059
 31
0.0
  0
LINE
  5
   109
  8
0
  6
CONTINUOUS
 62
     7
 10
206.91590753334
 20
-4.09411604555225
 30
0.0
 11
209.870330810547
 21
-3.57317161560059
 31
0.0
  0
LINE
  5
   10A
  8
0
  6
CONTINUOUS
 62
     7
 10
209.870330810547
 20
-3.57317161560059
 30
0.0
 11
206.91590753334
 21
-3.05222718564892
 31
0.0
  0
LINE
  5
   10B
  8
0
  6
CONTINUOUS
 62
     7
 10
224.074754087754
 20
-3.05222718564892
 30
0.0
 11
221.120330810547
 21
-3.57317161560059
 31
0.0
  0
LINE
  5
   10C
  8
0
  6
CONTINUOUS
 62
     7
 10
221.120330810547
 20
-3.57317161560059
 30
0.0
 11
224.074754087754
 21
-4.09411604555225
 31
0.0
  0
ENDBLK
  5
   10D
  8
0
  6
CONTINUOUS
 62
     7
  0
BLOCK
  5
   10E
  8
0
  6
CONTINUOUS
 62
     7
  2
*UDIM52
 70
    65
 10
0.0
 20
0.0
 30
0.0
  3
*UDIM52
  0
TEXT
  5
   10F
  8
0
  6
CONTINUOUS
 62
     7
 10
180.555465384182
 20
-67.6688862888352
 30
0.0
 40
3.00000002980232
  1
7
 50
397.208926617964
 41
0.933333333333334
 72
     1
 11
180.524459858626
 21
-65.8090371750281
 31
0.0
 73
     2
  0
TEXT
  5
   110
  8
0
  6
CONTINUOUS
 62
     7
 10
178.046692887092
 20
-69.5737644005335
 30
0.0
 40
3.00000002980232
  1
Ø
 50
397.208926617964
 41
0.933333333333334
 72
     1
 11
178.015687361536
 21
-67.7139152867264
 31
0.0
 73
     2
  0
LINE
  5
   111
  8
0
  6
CONTINUOUS
 62
     7
 10
196.879712057541
 20
-56.5296936393969
 30
0.0
 11
178.651416100298
 21
-70.3702001112997
 31
0.0
  0
LINE
  5
   112
  8
0
  6
CONTINUOUS
 62
     7
 10
198.917693073525
 20
-54.3281865695719
 30
0.0
 11
196.879712057541
 21
-56.5296936393969
 31
0.0
  0
LINE
  5
   113
  8
0
  6
CONTINUOUS
 62
     7
 10
196.879712057541
 20
-56.5296936393969
 30
0.0
 11
199.547747447427
 21
-55.157984064336
 31
0.0
  0
LINE
  5
   114
  8
0
  6
CONTINUOUS
 62
     7
 10
193.447968547569
 20
-59.7894663234945
 30
0.0
 11
195.485949563553
 21
-57.5879592536695
 31
0.0
  0
LINE
  5
   115
  8
0
  6
CONTINUOUS
 62
     7
 10
195.485949563553
 20
-57.5879592536695
 30
0.0
 11
192.817914173667
 21
-58.9596688287304
 31
0.0
  0
ENDBLK
  5
   116
  8
0
  6
CONTINUOUS
 62
     7
  0
BLOCK
  5
   117
  8
0
  6
CONTINUOUS
 62
     7
  2
*UDIM53
 70
    65
 10
0.0
 20
0.0
 30
0.0
  3
*UDIM53
  0
TEXT
  5
   118
  8
0
  6
CONTINUOUS
 62
     7
 10
206.38283076177
 20
-81.3134307755409
 30
0.0
 40
3.00000002980232
  1
147
 50
359.999999844103
 41
0.933333333333333
 72
     1
 11
210.282830804586
 21
-79.8134307712317
 31
0.0
 73
     2
  0
LINE
  5
   119
  8
0
  6
CONTINUOUS
 62
     7
 10
192.182830810547
 20
-54.3088264465332
 30
0.0
 11
192.182830810547
 21
-84.3134307861328
 31
0.0
  0
LINE
  5
   11A
  8
0
  6
CONTINUOUS
 62
     7
 10
228.932830810547
 20
-54.3088264465332
 30
0.0
 11
228.932830810547
 21
-84.3134307861328
 31
0.0
  0
LINE
  5
   11B
  8
0
  6
CONTINUOUS
 62
     7
 10
192.182830810547
 20
-82.3134307861328
 30
0.0
 11
228.932830810547
 21
-82.3134307861328
 31
0.0
  0
LINE
  5
   11C
  8
0
  6
CONTINUOUS
 62
     7
 10
195.137254087754
 20
-81.7924863561811
 30
0.0
 11
192.182830810547
 21
-82.3134307861328
 31
0.0
  0
LINE
  5
   11D
  8
0
  6
CONTINUOUS
 62
     7
 10
192.182830810547
 20
-82.3134307861328
 30
0.0
 11
195.137254087754
 21
-82.8343752160845
 31
0.0
  0
LINE
  5
   11E
  8
0
  6
CONTINUOUS
 62
     7
 10
225.97840753334
 20
-82.8343752160845
 30
0.0
 11
228.932830810547
 21
-82.3134307861328
 31
0.0
  0
LINE
  5
   11F
  8
0
  6
CONTINUOUS
 62
     7
 10
228.932830810547
 20
-82.3134307861328
 30
0.0
 11
225.97840753334
 21
-81.7924863561811
 31
0.0
  0
ENDBLK
  5
   120
  8
0
  6
CONTINUOUS
 62
     7
  0
BLOCK
  5
   121
  8
0
  6
CONTINUOUS
 62
     7
  2
*UDIM54
 70
    65
 10
0.0
 20
0.0
 30
0.0
  3
*UDIM54
  0
TEXT
  5
   122
  8
0
  6
CONTINUOUS
 62
     7
 10
206.38283076177
 20
-69.8945236100135
 30
0.0
 40
3.00000002980232
  1
115
 50
359.999999844103
 41
0.933333333333333
 72
     1
 11
210.282830804586
 21
-68.3945236057043
 31
0.0
 73
     2
  0
LINE
  5
   123
  8
0
  6
CONTINUOUS
 62
     7
 10
196.182830810547
 20
-15.4338264465332
 30
0.0
 11
196.182830810547
 21
-72.8945236206055
 31
0.0
  0
LINE
  5
   124
  8
0
  6
CONTINUOUS
 62
     7
 10
224.932830810547
 20
-15.4338264465332
 30
0.0
 11
224.932830810547
 21
-72.8945236206055
 31
0.0
  0
LINE
  5
   125
  8
0
  6
CONTINUOUS
 62
     7
 10
196.182830810547
 20
-70.8945236206055
 30
0.0
 11
224.932830810547
 21
-70.8945236206055
 31
0.0
  0
LINE
  5
   126
  8
0
  6
CONTINUOUS
 62
     7
 10
199.137254087754
 20
-70.3735791906538
 30
0.0
 11
196.182830810547
 21
-70.8945236206055
 31
0.0
  0
LINE
  5
   127
  8
0
  6
CONTINUOUS
 62
     7
 10
196.182830810547
 20
-70.8945236206055
 30
0.0
 11
199.137254087754
 21
-71.4154680505571
 31
0.0
  0
LINE
  5
   128
  8
0
  6
CONTINUOUS
 62
     7
 10
221.97840753334
 20
-71.4154680505571
 30
0.0
 11
224.932830810547
 21
-70.8945236206055
 31
0.0
  0
LINE
  5
   129
  8
0
  6
CONTINUOUS
 62
     7
 10
224.932830810547
 20
-70.8945236206055
 30
0.0
 11
221.97840753334
 21
-70.3735791906538
 31
0.0
  0
ENDBLK
  5
   12A
  8
0
  6
CONTINUOUS
 62
     7
  0
BLOCK
  5
   12B
  8
0
  6
CONTINUOUS
 62
     7
  2
*UDIM55
 70
    65
 10
0.0
 20
0.0
 30
0.0
  3
*UDIM55
  0
TEXT
  5
   12C
  8
0
  6
CONTINUOUS
 62
     7
 10
169.537090290927
 20
-39.1088264953086
 30
0.0
 40
3.00000002980232
  1
177
 50
449.999999844103
 41
0.933333333333333
 72
     1
 11
168.037090286613
 21
-35.2088264524937
 31
0.0
 73
     2
  0
LINE
  5
   12D
  8
0
  6
CONTINUOUS
 62
     7
 10
193.557830810547
 20
-12.8088264465332
 30
0.0
 11
168.537090301514
 21
-12.8088264465332
 31
0.0
  0
LINE
  5
   12E
  8
0
  6
CONTINUOUS
 62
     7
 10
193.557830810547
 20
-57.0588264465332
 30
0.0
 11
168.537090301514
 21
-57.0588264465332
 31
0.0
  0
LINE
  5
   12F
  8
0
  6
CONTINUOUS
 62
     7
 10
170.537090301514
 20
-12.8088264465332
 30
0.0
 11
170.537090301514
 21
-57.0588264465332
 31
0.0
  0
LINE
  5
   130
  8
0
  6
CONTINUOUS
 62
     7
 10
171.058034731465
 20
-15.7632497237402
 30
0.0
 11
170.537090301514
 21
-12.8088264465332
 31
0.0
  0
LINE
  5
   131
  8
0
  6
CONTINUOUS
 62
     7
 10
170.537090301514
 20
-12.8088264465332
 30
0.0
 11
170.016145871562
 21
-15.7632497237402
 31
0.0
  0
LINE
  5
   132
  8
0
  6
CONTINUOUS
 62
     7
 10
170.016145871562
 20
-54.1044031693262
 30
0.0
 11
170.537090301514
 21
-57.0588264465332
 31
0.0
  0
LINE
  5
   133
  8
0
  6
CONTINUOUS
 62
     7
 10
170.537090301514
 20
-57.0588264465332
 30
0.0
 11
171.058034731465
 21
-54.1044031693262
 31
0.0
  0
ENDBLK
  5
   134
  8
0
  6
CONTINUOUS
 62
     7
  0
BLOCK
  5
   135
  8
0
  6
CONTINUOUS
 62
     7
  2
*UDIM56
 70
    65
 10
0.0
 20
0.0
 30
0.0
  3
*UDIM56
  0
TEXT
  5
   136
  8
0
  6
CONTINUOUS
 62
     7
 10
178.909399022006
 20
-39.1088264953086
 30
0.0
 40
3.00000002980232
  1
147
 50
449.999999844103
 41
0.933333333333333
 72
     1
 11
177.409399017692
 21
-35.2088264524937
 31
0.0
 73
     2
  0
LINE
  5
   137
  8
0
  6
CONTINUOUS
 62
     7
 10
191.182830810547
 20
-16.5588264465332
 30
0.0
 11
177.909399032593
 21
-16.5588264465332
 31
0.0
  0
LINE
  5
   138
  8
0
  6
CONTINUOUS
 62
     7
 10
191.182830810547
 20
-53.3088264465332
 30
0.0
 11
177.909399032593
 21
-53.3088264465332
 31
0.0
  0
LINE
  5
   139
  8
0
  6
CONTINUOUS
 62
     7
 10
179.909399032593
 20
-16.5588264465332
 30
0.0
 11
179.909399032593
 21
-53.3088264465332
 31
0.0
  0
LINE
  5
   13A
  8
0
  6
CONTINUOUS
 62
     7
 10
180.430343462544
 20
-19.5132497237402
 30
0.0
 11
179.909399032593
 21
-16.5588264465332
 31
0.0
  0
LINE
  5
   13B
  8
0
  6
CONTINUOUS
 62
     7
 10
179.909399032593
 20
-16.5588264465332
 30
0.0
 11
179.388454602641
 21
-19.5132497237402
 31
0.0
  0
LINE
  5
   13C
  8
0
  6
CONTINUOUS
 62
     7
 10
179.388454602641
 20
-50.3544031693262
 30
0.0
 11
179.909399032593
 21
-53.3088264465332
 31
0.0
  0
LINE
  5
   13D
  8
0
  6
CONTINUOUS
 62
     7
 10
179.909399032593
 20
-53.3088264465332
 30
0.0
 11
180.430343462544
 21
-50.3544031693262
 31
0.0
  0
ENDBLK
  5
   13E
  8
0
  6
CONTINUOUS
 62
     7
  0
BLOCK
  5
   13F
  8
0
  6
CONTINUOUS
 62
     7
  2
*HATCH10
 70
    65
 10
0.0
 20
0.0
 30
0.0
  3
*HATCH10
  0
LINE
  5
   140
  8
0
  6
CONTINUOUS
 62
    52
 10
-11.7279224395752
 20
1.0
 30
0.0
 11
-11.9763488769531
 21
0.75157368183136
 31
0.0
  0
LINE
  5
   141
  8
0
  6
CONTINUOUS
 62
    52
 10
-9.60660171508789
 20
1.0
 30
0.0
 11
-11.6066026687622
 21
-1.0
 31
0.0
  0
LINE
  5
   142
  8
0
  6
CONTINUOUS
 62
    52
 10
-7.48528146743774
 20
1.0
 30
0.0
 11
-9.48528289794922
 21
-1.0
 31
0.0
  0
LINE
  5
   143
  8
0
  6
CONTINUOUS
 62
    52
 10
-5.3639612197876
 20
1.0
 30
0.0
 11
-7.36396265029907
 21
-1.0
 31
0.0
  0
LINE
  5
   144
  8
0
  6
CONTINUOUS
 62
    52
 10
-3.47947335243225
 20
0.763167560100555
 30
0.0
 11
-5.24264097213745
 21
-1.0
 31
0.0
  0
LINE
  5
   145
  8
0
  6
CONTINUOUS
 62
    52
 10
-2.51160907745361
 20
-0.390288293361664
 30
0.0
 11
-3.1213207244873
 21
-1.0
 31
0.0
  0
ENDBLK
  5
   146
  8
0
  6
CONTINUOUS
 62
     7
  0
BLOCK
  5
   147
  8
0
  6
CONTINUOUS
 62
     7
  2
*HATCH11
 70
    65
 10
0.0
 20
0.0
 30
0.0
  3
*HATCH11
  0
LINE
  5
   148
  8
0
  6
CONTINUOUS
 62
    52
 10
5.24264097213745
 20
1.0
 30
0.0
 11
3.24264073371887
 21
-1.0
 31
0.0
  0
LINE
  5
   149
  8
0
  6
CONTINUOUS
 62
    52
 10
7.3639612197876
 20
1.0
 30
0.0
 11
5.3639612197876
 21
-1.0
 31
0.0
  0
LINE
  5
   14A
  8
0
  6
CONTINUOUS
 62
    52
 10
9.48528099060059
 20
1.0
 30
0.0
 11
7.4852819442749
 21
-1.0
 31
0.0
  0
ENDBLK
  5
   14B
  8
0
  6
CONTINUOUS
 62
     7
  0
BLOCK
  5
   14C
  8
0
  6
CONTINUOUS
 62
     7
  2
*UDIM57
 70
    65
 10
0.0
 20
0.0
 30
0.0
  3
*UDIM57
  0
TEXT
  5
   14D
  8
0
  6
CONTINUOUS
 62
     7
 10
233.039243463443
 20
24.7015284764068
 30
0.0
 40
3.00000002980232
  1
80
 50
449.241125536518
 41
0.933333333333333
 72
     1
 11
231.572486193508
 21
27.2211759279312
 31
0.0
 73
     2
  0
TEXT
  5
   14E
  8
0
  6
CONTINUOUS
 62
     7
 10
232.505518429181
 20
29.7090366478529
 30
0.0
 40
3.00000002980232
  1
°
 50
449.241125536518
 41
0.933333333333334
 72
     1
 11
231.02021890002
 21
30.8288068820598
 31
0.0
 73
     2
  0
LINE
  5
   14F
  8
0
  6
CONTINUOUS
 62
     7
 10
215.976814096439
 20
24.275069112456
 30
0.0
 11
230.17878126267
 21
12.3582037012801
 31
0.0
  0
LINE
  5
   150
  8
0
  6
CONTINUOUS
 62
     7
 10
215.976814096439
 20
32.9170428565382
 30
0.0
 11
230.17878126267
 21
44.833908267714
 31
0.0
  0
ARC
  5
   151
  8
0
  6
CONTINUOUS
 62
     7
 10
210.827262468132
 20
28.5960559844971
 30
0.0
 40
23.2616136940404
 50
319.999999815233
 51
399.999999769042
  0
LINE
  5
   152
  8
0
  6
CONTINUOUS
 62
     7
 10
230.146692467052
 20
16.2418550796871
 30
0.0
 11
228.646692376432
 21
13.6437789206532
 31
0.0
  0
LINE
  5
   153
  8
0
  6
CONTINUOUS
 62
     7
 10
228.646692376432
 20
13.6437789206532
 30
0.0
 11
230.944825638528
 21
15.5721418298708
 31
0.0
  0
LINE
  5
   154
  8
0
  6
CONTINUOUS
 62
     7
 10
230.944825638528
 20
41.6199701391233
 30
0.0
 11
228.646692376432
 21
43.548333048341
 31
0.0
  0
LINE
  5
   155
  8
0
  6
CONTINUOUS
 62
     7
 10
228.646692376432
 20
43.548333048341
 30
0.0
 11
230.146692467052
 21
40.950256889307
 31
0.0
  0
ENDBLK
  5
   156
  8
0
  6
CONTINUOUS
 62
     7
  0
BLOCK
  5
   157
  8
0
  6
CONTINUOUS
 62
     7
  2
*UDIM58
 70
    65
 10
0.0
 20
0.0
 30
0.0
  3
*UDIM58
  0
TEXT
  5
   158
  8
0
  6
CONTINUOUS
 62
     7
 10
192.765102379688
 20
34.4811229416738
 30
0.0
 40
3.00000002980232
  1
Ø4
 50
449.999999844103
 41
0.933333333333333
 72
     1
 11
191.265102371573
 21
36.9811229705811
 31
0.0
 73
     2
  0
LINE
  5
   159
  8
0
  6
CONTINUOUS
 62
     7
 10
212.21076965332
 20
30.5960559844971
 30
0.0
 11
191.765102386475
 21
30.5960559844971
 31
0.0
  0
LINE
  5
   15A
  8
0
  6
CONTINUOUS
 62
     7
 10
212.21076965332
 20
26.5960559844971
 30
0.0
 11
191.765102386475
 21
26.5960559844971
 31
0.0
  0
LINE
  5
   15B
  8
0
  6
CONTINUOUS
 62
     7
 10
193.765102386475
 20
39.4811229954163
 30
0.0
 11
193.765102386475
 21
26.5960559844971
 31
0.0
  0
LINE
  5
   15C
  8
0
  6
CONTINUOUS
 62
     7
 10
193.244157956523
 20
33.550479261704
 30
0.0
 11
193.765102386475
 21
30.5960559844971
 31
0.0
  0
LINE
  5
   15D
  8
0
  6
CONTINUOUS
 62
     7
 10
193.765102386475
 20
30.5960559844971
 30
0.0
 11
194.286046816426
 21
33.550479261704
 31
0.0
  0
LINE
  5
   15E
  8
0
  6
CONTINUOUS
 62
     7
 10
194.286046816426
 20
23.6416327072901
 30
0.0
 11
193.765102386475
 21
26.5960559844971
 31
0.0
  0
LINE
  5
   15F
  8
0
  6
CONTINUOUS
 62
     7
 10
193.765102386475
 20
26.5960559844971
 30
0.0
 11
193.244157956523
 21
23.6416327072901
 31
0.0
  0
ENDBLK
  5
   160
  8
0
  6
CONTINUOUS
 62
     7
  0
BLOCK
  5
   161
  8
0
  6
CONTINUOUS
 62
     7
  2
*UDIM59
 70
    65
 10
0.0
 20
0.0
 30
0.0
  3
*UDIM59
  0
TEXT
  5
   162
  8
0
  6
CONTINUOUS
 62
     7
 10
15.4267679962181
 20
-192.441577567714
 30
0.0
 40
2.99999994933605
  1
8
 50
449.999999896069
 41
0.933333333333333
 72
     1
 11
13.9267680235385
 21
-191.341577583579
 31
0.0
 73
     2
  0
LINE
  5
   163
  8
0
  6
CONTINUOUS
 62
     7
 10
0.675574511289597
 20
-182.739694520831
 30
0.0
 11
18.4267679982065
 21
-182.739694520831
 31
0.0
  0
LINE
  5
   164
  8
0
  6
CONTINUOUS
 62
     7
 10
-2.82442554086447
 20
-184.339694544673
 30
0.0
 11
18.4267679982065
 21
-184.339694544673
 31
0.0
  0
LINE
  5
   165
  8
0
  6
CONTINUOUS
 62
     7
 10
16.4267679982065
 20
-182.739694520831
 30
0.0
 11
16.4267679982065
 21
-192.441577565003
 31
0.0
  0
LINE
  5
   166
  8
0
  6
CONTINUOUS
 62
     7
 10
15.9058235682549
 20
-179.785271243624
 30
0.0
 11
16.4267679982065
 21
-182.739694520831
 31
0.0
  0
LINE
  5
   167
  8
0
  6
CONTINUOUS
 62
     7
 10
16.4267679982065
 20
-182.739694520831
 30
0.0
 11
16.9477124281582
 21
-179.785271243624
 31
0.0
  0
LINE
  5
   168
  8
0
  6
CONTINUOUS
 62
     7
 10
16.9477124281582
 20
-187.29411782188
 30
0.0
 11
16.4267679982065
 21
-184.339694544673
 31
0.0
  0
LINE
  5
   169
  8
0
  6
CONTINUOUS
 62
     7
 10
16.4267679982065
 20
-184.339694544673
 30
0.0
 11
15.9058235682549
 21
-187.29411782188
 31
0.0
  0
ENDBLK
  5
   16A
  8
0
  6
CONTINUOUS
 62
     7
  0
BLOCK
  5
   16B
  8
0
  6
CONTINUOUS
 62
     7
  2
*UDIM60
 70
    65
 10
0.0
 20
0.0
 30
0.0
  3
*UDIM60
  0
TEXT
  5
   16C
  8
0
  6
CONTINUOUS
 62
     7
 10
11.1732552278743
 20
-176.071734112685
 30
0.0
 40
2.99999994933605
  1
35
 50
397.752324863827
 41
0.933333333333333
 72
     1
 11
12.2315429941369
 21
-173.355113653974
 31
0.0
 73
     2
  0
TEXT
  5
   16D
  8
0
  6
CONTINUOUS
 62
     7
 10
8.68266136768479
 20
-178.000319582509
 30
0.0
 40
2.99999994933605
  1
Ø
 50
397.752324863827
 41
0.933333333333333
 72
     1
 11
8.63401852862848
 21
-176.140848217485
 31
0.0
 73
     2
  0
LINE
  5
   16E
  8
0
  6
CONTINUOUS
 62
     7
 10
15.7388281820783
 20
-173.801152074614
 30
0.0
 11
-3.09175208610345
 21
-188.382567380326
 31
0.0
  0
LINE
  5
   16F
  8
0
  6
CONTINUOUS
 62
     7
 10
0.425890721054719
 20
-186.317557926516
 30
0.0
 11
2.44290110868264
 21
-184.096821765645
 31
0.0
  0
LINE
  5
   170
  8
0
  6
CONTINUOUS
 62
     7
 10
2.44290110868264
 20
-184.096821765645
 30
0.0
 11
-0.212005071199284
 21
-185.493773152066
 31
0.0
  0
LINE
  5
   171
  8
0
  6
CONTINUOUS
 62
     7
 10
-1.07474169847552
 20
-186.161831219455
 30
0.0
 11
-3.09175208610345
 21
-188.382567380326
 31
0.0
  0
LINE
  5
   172
  8
0
  6
CONTINUOUS
 62
     7
 10
-3.09175208610345
 20
-188.382567380326
 30
0.0
 11
-0.436845906221523
 21
-186.985615993904
 31
0.0
  0
ENDBLK
  5
   173
  8
0
  6
CONTINUOUS
 62
     7
  0
BLOCK
  5
   174
  8
0
  6
CONTINUOUS
 62
     7
  2
*UDIM61
 70
    65
 10
0.0
 20
0.0
 30
0.0
  3
*UDIM61
  0
TEXT
  5
   175
  8
0
  6
CONTINUOUS
 62
     7
 10
-57.1946239558531
 20
-195.36123157341
 30
0.0
 40
2.99999994933605
  1
5,5
 50
376.410037752177
 41
0.933333333333333
 72
     1
 11
-53.8772567525792
 21
-192.820547758191
 31
0.0
 73
     2
  0
TEXT
  5
   176
  8
0
  6
CONTINUOUS
 62
     7
 10
-60.2163070678288
 20
-196.251136546782
 30
0.0
 40
2.99999994933605
  1
Ø
 50
376.410037752177
 41
0.933333333333333
 72
     1
 11
-59.5848804077203
 21
-194.501479364349
 31
0.0
 73
     2
  0
TEXT
  5
   177
  8
0
  6
CONTINUOUS
 62
     7
 10
-49.1847655356937
 20
-193.002277125301
 30
0.0
 40
2.99999994933605
  1
 - M5
 50
376.410037752177
 41
0.933333333333333
 72
     1
 11
-43.1814577892542
 21
-189.670566677297
 31
0.0
 73
     2
  0
LINE
  5
   178
  8
0
  6
CONTINUOUS
 62
     7
 10
-20.7968303213079
 20
-185.684314329691
 30
0.0
 11
-59.933797546449
 21
-197.210401043315
 31
0.0
  0
LINE
  5
   179
  8
0
  6
CONTINUOUS
 62
     7
 10
-18.1099287270489
 20
-184.349938137319
 30
0.0
 11
-20.7968303213079
 21
-185.684314329691
 31
0.0
  0
LINE
  5
   17A
  8
0
  6
CONTINUOUS
 62
     7
 10
-20.7968303213079
 20
-185.684314329691
 30
0.0
 11
-17.8155852072039
 21
-185.349385128768
 31
0.0
  0
LINE
  5
   17B
  8
0
  6
CONTINUOUS
 62
     7
 10
-24.5389228762206
 20
-187.32945099673
 30
0.0
 11
-21.8520212819617
 21
-185.995074804358
 31
0.0
  0
LINE
  5
   17C
  8
0
  6
CONTINUOUS
 62
     7
 10
-21.8520212819617
 20
-185.995074804358
 30
0.0
 11
-24.8332663960657
 21
-186.330004005281
 31
0.0
  0
ENDBLK
  5
   17D
  8
0
  6
CONTINUOUS
 62
     7
  0
BLOCK
  5
   17E
  8
0
  6
CONTINUOUS
 62
     7
  2
*UDIM62
 70
    65
 10
0.0
 20
0.0
 30
0.0
  3
*UDIM62
  0
TEXT
  5
   17F
  8
0
  6
CONTINUOUS
 62
     7
 10
-10.0994256052935
 20
-174.012907596972
 30
0.0
 40
2.99999994933605
  1
70
 50
359.999999896069
 41
0.933333333333333
 72
     1
 11
-7.59942564480007
 21
-172.512907626826
 31
0.0
 73
     2
  0
LINE
  5
   180
  8
0
  6
CONTINUOUS
 62
     7
 10
-0.324425488710403
 20
-180.039694495499
 30
0.0
 11
-0.324425488710403
 21
-173.012907601494
 31
0.0
  0
LINE
  5
   181
  8
0
  6
CONTINUOUS
 62
     7
 10
-14.3244256973267
 20
-180.039694495499
 30
0.0
 11
-14.3244256973267
 21
-173.012907601494
 31
0.0
  0
LINE
  5
   182
  8
0
  6
CONTINUOUS
 62
     7
 10
-0.324425488710403
 20
-175.012907601494
 30
0.0
 11
-14.3244256973267
 21
-175.012907601494
 31
0.0
  0
LINE
  5
   183
  8
0
  6
CONTINUOUS
 62
     7
 10
-3.27884876591737
 20
-175.533852031445
 30
0.0
 11
-0.324425488710403
 21
-175.012907601494
 31
0.0
  0
LINE
  5
   184
  8
0
  6
CONTINUOUS
 62
     7
 10
-0.324425488710403
 20
-175.012907601494
 30
0.0
 11
-3.27884876591737
 21
-174.491963171542
 31
0.0
  0
LINE
  5
   185
  8
0
  6
CONTINUOUS
 62
     7
 10
-11.3700024201197
 20
-174.491963171542
 30
0.0
 11
-14.3244256973267
 21
-175.012907601494
 31
0.0
  0
LINE
  5
   186
  8
0
  6
CONTINUOUS
 62
     7
 10
-14.3244256973267
 20
-175.012907601494
 30
0.0
 11
-11.3700024201197
 21
-175.533852031445
 31
0.0
  0
ENDBLK
  5
   187
  8
0
  6
CONTINUOUS
 62
     7
  0
BLOCK
  5
   188
  8
0
  6
CONTINUOUS
 62
     7
  2
*UDIM63
 70
    65
 10
0.0
 20
0.0
 30
0.0
  3
*UDIM63
  0
TEXT
  5
   189
  8
0
  6
CONTINUOUS
 62
     7
 10
-24.0994258139097
 20
-174.012907596972
 30
0.0
 40
2.99999994933605
  1
70
 50
359.999999896069
 41
0.933333333333333
 72
     1
 11
-21.5994258534163
 21
-172.512907626826
 31
0.0
 73
     2
  0
LINE
  5
   18A
  8
0
  6
CONTINUOUS
 62
     7
 10
-28.3244259059429
 20
-180.039694495499
 30
0.0
 11
-28.3244259059429
 21
-173.012907601494
 31
0.0
  0
LINE
  5
   18B
  8
0
  6
CONTINUOUS
 62
     7
 10
-14.3244256973267
 20
-175.012907601494
 30
0.0
 11
-28.3244259059429
 21
-175.012907601494
 31
0.0
  0
LINE
  5
   18C
  8
0
  6
CONTINUOUS
 62
     7
 10
-17.2788489745336
 20
-175.533852031445
 30
0.0
 11
-14.3244256973267
 21
-175.012907601494
 31
0.0
  0
LINE
  5
   18D
  8
0
  6
CONTINUOUS
 62
     7
 10
-14.3244256973267
 20
-175.012907601494
 30
0.0
 11
-17.2788489745336
 21
-174.491963171542
 31
0.0
  0
LINE
  5
   18E
  8
0
  6
CONTINUOUS
 62
     7
 10
-25.370002628736
 20
-174.491963171542
 30
0.0
 11
-28.3244259059429
 21
-175.012907601494
 31
0.0
  0
LINE
  5
   18F
  8
0
  6
CONTINUOUS
 62
     7
 10
-28.3244259059429
 20
-175.012907601494
 30
0.0
 11
-25.370002628736
 21
-175.533852031445
 31
0.0
  0
ENDBLK
  5
   190
  8
0
  6
CONTINUOUS
 62
     7
  0
BLOCK
  5
   191
  8
0
  6
CONTINUOUS
 62
     7
  2
*UDIM64
 70
    65
 10
0.0
 20
0.0
 30
0.0
  3
*UDIM64
  0
TEXT
  5
   192
  8
0
  6
CONTINUOUS
 62
     7
 10
23.4382366163962
 20
-166.314694202497
 30
0.0
 40
2.99999994933605
  1
241
 50
449.999999896069
 41
0.933333333333333
 72
     1
 11
21.9382366487781
 21
-162.414694265649
 31
0.0
 73
     2
  0
LINE
  5
   193
  8
0
  6
CONTINUOUS
 62
     7
 10
5.87557458877563
 20
-138.039693854749
 30
0.0
 11
26.4382366234461
 21
-138.039693854749
 31
0.0
  0
LINE
  5
   194
  8
0
  6
CONTINUOUS
 62
     7
 10
5.87557458877563
 20
-186.239694572985
 30
0.0
 11
26.4382366234461
 21
-186.239694572985
 31
0.0
  0
LINE
  5
   195
  8
0
  6
CONTINUOUS
 62
     7
 10
24.4382366234461
 20
-138.039693854749
 30
0.0
 11
24.4382366234461
 21
-186.239694572985
 31
0.0
  0
LINE
  5
   196
  8
0
  6
CONTINUOUS
 62
     7
 10
24.9591810533977
 20
-140.994117131956
 30
0.0
 11
24.4382366234461
 21
-138.039693854749
 31
0.0
  0
LINE
  5
   197
  8
0
  6
CONTINUOUS
 62
     7
 10
24.4382366234461
 20
-138.039693854749
 30
0.0
 11
23.9172921934944
 21
-140.994117131956
 31
0.0
  0
LINE
  5
   198
  8
0
  6
CONTINUOUS
 62
     7
 10
23.9172921934944
 20
-183.285271295778
 30
0.0
 11
24.4382366234461
 21
-186.239694572985
 31
0.0
  0
LINE
  5
   199
  8
0
  6
CONTINUOUS
 62
     7
 10
24.4382366234461
 20
-186.239694572985
 30
0.0
 11
24.9591810533977
 21
-183.285271295778
 31
0.0
  0
ENDBLK
  5
   19A
  8
0
  6
CONTINUOUS
 62
     7
  0
BLOCK
  5
   19B
  8
0
  6
CONTINUOUS
 62
     7
  2
*UDIM65
 70
    65
 10
0.0
 20
0.0
 30
0.0
  3
*UDIM65
  0
TEXT
  5
   19C
  8
0
  6
CONTINUOUS
 62
     7
 10
15.634070850691
 20
-152.641683756768
 30
0.0
 40
2.99999994933605
  1
106
 50
449.999999896069
 41
0.933333333333333
 72
     1
 11
14.1340708830729
 21
-148.74168381992
 31
0.0
 73
     2
  0
LINE
  5
   19D
  8
0
  6
CONTINUOUS
 62
     7
 10
5.87557458877563
 20
-138.039693854749
 30
0.0
 11
18.6340708577409
 21
-138.039693854749
 31
0.0
  0
LINE
  5
   19E
  8
0
  6
CONTINUOUS
 62
     7
 10
4.88918958705139
 20
-159.239694170654
 30
0.0
 11
18.6340708577409
 21
-159.239694170654
 31
0.0
  0
LINE
  5
   19F
  8
0
  6
CONTINUOUS
 62
     7
 10
16.6340708577409
 20
-138.039693854749
 30
0.0
 11
16.6340708577409
 21
-159.239694170654
 31
0.0
  0
LINE
  5
   1A0
  8
0
  6
CONTINUOUS
 62
     7
 10
17.1550152876925
 20
-140.994117131956
 30
0.0
 11
16.6340708577409
 21
-138.039693854749
 31
0.0
  0
LINE
  5
   1A1
  8
0
  6
CONTINUOUS
 62
     7
 10
16.6340708577409
 20
-138.039693854749
 30
0.0
 11
16.1131264277892
 21
-140.994117131956
 31
0.0
  0
LINE
  5
   1A2
  8
0
  6
CONTINUOUS
 62
     7
 10
16.1131264277892
 20
-156.285270893447
 30
0.0
 11
16.6340708577409
 21
-159.239694170654
 31
0.0
  0
LINE
  5
   1A3
  8
0
  6
CONTINUOUS
 62
     7
 10
16.6340708577409
 20
-159.239694170654
 30
0.0
 11
17.1550152876925
 21
-156.285270893447
 31
0.0
  0
ENDBLK
  5
   1A4
  8
0
  6
CONTINUOUS
 62
     7
  0
BLOCK
  5
   1A5
  8
0
  6
CONTINUOUS
 62
     7
  2
*UDIM66
 70
    65
 10
0.0
 20
0.0
 30
0.0
  3
*UDIM66
  0
TEXT
  5
   1A6
  8
0
  6
CONTINUOUS
 62
     7
 10
-47.0190886522497
 20
-152.641685282623
 30
0.0
 40
2.99999994933605
  1
104
 50
449.999999896069
 41
0.933333333333333
 72
     1
 11
-48.5190886198679
 21
-148.741685345775
 31
0.0
 73
     2
  0
LINE
  5
   1A7
  8
0
  6
CONTINUOUS
 62
     7
 10
-24.8889365538766
 20
-138.439693546793
 30
0.0
 11
-48.0190886451998
 21
-138.439686285857
 31
0.0
  0
LINE
  5
   1A8
  8
0
  6
CONTINUOUS
 62
     7
 10
-41.0536385382405
 20
-159.239691544359
 30
0.0
 11
-48.019088645193
 21
-159.239673251033
 31
0.0
  0
LINE
  5
   1A9
  8
0
  6
CONTINUOUS
 62
     7
 10
-46.0190886451999
 20
-138.43968691369
 30
0.0
 11
-46.0190886451999
 21
-159.239678503623
 31
0.0
  0
LINE
  5
   1AA
  8
0
  6
CONTINUOUS
 62
     7
 10
-45.4981442152482
 20
-141.394110190897
 30
0.0
 11
-46.0190886451999
 21
-138.43968691369
 31
0.0
  0
LINE
  5
   1AB
  8
0
  6
CONTINUOUS
 62
     7
 10
-46.0190886451999
 20
-138.43968691369
 30
0.0
 11
-46.5400330751515
 21
-141.394110190897
 31
0.0
  0
LINE
  5
   1AC
  8
0
  6
CONTINUOUS
 62
     7
 10
-46.5400330751515
 20
-156.285255226416
 30
0.0
 11
-46.0190886451999
 21
-159.239678503623
 31
0.0
  0
LINE
  5
   1AD
  8
0
  6
CONTINUOUS
 62
     7
 10
-46.0190886451999
 20
-159.239678503623
 30
0.0
 11
-45.4981442152482
 21
-156.285255226416
 31
0.0
  0
ENDBLK
  5
   1AE
  8
0
  6
CONTINUOUS
 62
     7
  0
BLOCK
  5
   1AF
  8
0
  6
CONTINUOUS
 62
     7
  2
*UDIM67
 70
    65
 10
0.0
 20
0.0
 30
0.0
  3
*UDIM67
  0
TEXT
  5
   1B0
  8
0
  6
CONTINUOUS
 62
     7
 10
-17.0994241837227
 20
-154.059292492511
 30
0.0
 40
2.99999994933605
  1
70
 50
359.999999896069
 41
0.933333333333333
 72
     1
 11
-14.5994242232293
 21
-152.559292522365
 31
0.0
 73
     2
  0
LINE
  5
   1B1
  8
0
  6
CONTINUOUS
 62
     7
 10
-7.32442559301853
 20
-155.059292497033
 30
0.0
 11
-21.3244258016348
 21
-155.059292497033
 31
0.0
  0
LINE
  5
   1B2
  8
0
  6
CONTINUOUS
 62
     7
 10
-10.2788488702255
 20
-155.580236926985
 30
0.0
 11
-7.32442559301853
 21
-155.059292497033
 31
0.0
  0
LINE
  5
   1B3
  8
0
  6
CONTINUOUS
 62
     7
 10
-7.32442559301853
 20
-155.059292497033
 30
0.0
 11
-10.2788488702255
 21
-154.538348067081
 31
0.0
  0
LINE
  5
   1B4
  8
0
  6
CONTINUOUS
 62
     7
 10
-18.3700025244278
 20
-154.538348067081
 30
0.0
 11
-21.3244258016348
 21
-155.059292497033
 31
0.0
  0
LINE
  5
   1B5
  8
0
  6
CONTINUOUS
 62
     7
 10
-21.3244258016348
 20
-155.059292497033
 30
0.0
 11
-18.3700025244278
 21
-155.580236926985
 31
0.0
  0
ENDBLK
  5
   1B6
  8
0
  6
CONTINUOUS
 62
     7
  0
BLOCK
  5
   1B7
  8
0
  6
CONTINUOUS
 62
     7
  2
*UDIM68
 70
    65
 10
0.0
 20
0.0
 30
0.0
  3
*UDIM68
  0
TEXT
  5
   1B8
  8
0
  6
CONTINUOUS
 62
     7
 10
-55.0430877952541
 20
-171.159896956238
 30
0.0
 40
2.99999994933605
  1
237
 50
449.999999896069
 41
0.933333333333333
 72
     1
 11
-56.5430877628723
 21
-167.259897019389
 31
0.0
 73
     2
  0
LINE
  5
   1B9
  8
0
  6
CONTINUOUS
 62
     7
 10
-24.8889365538766
 20
-138.439693546793
 30
0.0
 11
-56.0430877882042
 21
-138.439683766992
 31
0.0
  0
LINE
  5
   1BA
  8
0
  6
CONTINUOUS
 62
     7
 10
-25.0268584486946
 20
-185.839694253108
 30
0.0
 11
-56.0430877882042
 21
-185.839684516603
 31
0.0
  0
LINE
  5
   1BB
  8
0
  6
CONTINUOUS
 62
     7
 10
-54.0430877882043
 20
-138.439684394825
 30
0.0
 11
-54.0430877882043
 21
-185.839685144436
 31
0.0
  0
LINE
  5
   1BC
  8
0
  6
CONTINUOUS
 62
     7
 10
-53.5221433582526
 20
-141.394107672032
 30
0.0
 11
-54.0430877882043
 21
-138.439684394825
 31
0.0
  0
LINE
  5
   1BD
  8
0
  6
CONTINUOUS
 62
     7
 10
-54.0430877882043
 20
-138.439684394825
 30
0.0
 11
-54.5640322181559
 21
-141.394107672032
 31
0.0
  0
LINE
  5
   1BE
  8
0
  6
CONTINUOUS
 62
     7
 10
-54.5640322181559
 20
-182.885261867229
 30
0.0
 11
-54.0430877882043
 21
-185.839685144436
 31
0.0
  0
LINE
  5
   1BF
  8
0
  6
CONTINUOUS
 62
     7
 10
-54.0430877882043
 20
-185.839685144436
 30
0.0
 11
-53.5221433582526
 21
-182.885261867229
 31
0.0
  0
ENDBLK
  5
   1C0
  8
0
  6
CONTINUOUS
 62
     7
  0
BLOCK
  5
   1C1
  8
0
  6
CONTINUOUS
 62
     1
  2
*UDIM69
 70
    65
 10
0.0
 20
0.0
 30
0.0
  3
*UDIM69
  0
TEXT
  5
   1C2
  8
0
  6
CONTINUOUS
 62
     1
 10
7.84064421122783
 20
-113.730831153169
 30
0.0
 40
2.00000007748604
  1
FORATURA DA ESEGUIRE SOLO PER ESECUZ.TERM.POST.
 50
359.999999896069
 41
0.93749995827675
 72
     2
 11
95.5906436925599
 21
-111.730831234415
 31
0.0
 73
     3
  0
TEXT
  5
   1C3
  8
0
  6
CONTINUOUS
 62
     1
 10
9.7156442004245
 20
-116.730831154865
 30
0.0
 40
2.00000007748604
  1
REAR TERMINAL EXECUTION ONLY DRILLING TEMPLATE
 50
359.999999896069
 41
0.93749995827675
 72
     2
 11
95.59064369256
 21
-114.730831232719
 31
0.0
 73
     3
  0
LINE
  5
   1C4
  8
0
  6
CONTINUOUS
 62
     1
 10
-0.623029313960728
 20
-135.768093479103
 30
0.0
 11
7.76564421005651
 21
-117.730831232535
 31
0.0
  0
LINE
  5
   1C5
  8
0
  6
CONTINUOUS
 62
     1
 10
7.76564421005651
 20
-117.730831232535
 30
0.0
 11
95.590643690751
 21
-117.730831232535
 31
0.0
  0
LINE
  5
   1C6
  8
0
  6
CONTINUOUS
 62
     1
 10
0.150491325271835
 20
-132.869530762741
 30
0.0
 11
-0.623029313960728
 21
-135.768093479103
 31
0.0
  0
LINE
  5
   1C7
  8
0
  6
CONTINUOUS
 62
     1
 10
-0.623029313960728
 20
-135.768093479103
 30
0.0
 11
1.09520898688837
 21
-133.308895003685
 31
0.0
  0
ENDBLK
  5
   1C8
  8
0
  6
CONTINUOUS
 62
     1
  0
ENDSEC
  0
SECTION
  2
ENTITIES
  0
LINE
  5
   1C9
  8
0
  6
CONTINUOUS
 62
     1
 10
10.333054693343
 20
-55.3213047921655
 30
0.0
 11
10.333054693343
 21
-18.5713352501362
 31
0.0
  0
LINE
  5
   1CA
  8
0
  6
DASHDOT
 62
     7
 10
-14.3244256973267
 20
-97.0172179146406
 30
0.0
 11
-14.3244256973267
 21
11.207259175608
 31
0.0
  0
LINE
  5
   1CB
  8
0
  6
DASHDOT
 62
     7
 10
41.3983298978592
 20
-34.9338252335765
 30
0.0
 11
-70.3990959423948
 21
-34.9338252335765
 31
0.0
  0
LINE
  5
   1CC
  8
0
  6
CONTINUOUS
 62
     1
 10
-50.1994006693385
 20
5.84117611036504
 30
0.0
 11
-50.8994005978129
 21
5.84117611036504
 31
0.0
  0
LINE
  5
   1CD
  8
0
  6
CONTINUOUS
 62
     1
 10
-50.8994219601151
 20
-1.68380555324819
 30
0.0
 11
-50.8994219601151
 21
5.84117557056302
 31
0.0
  0
LINE
  5
   1CE
  8
0
  6
CONTINUOUS
 62
     1
 10
-50.1994006693385
 20
5.84117611036504
 30
0.0
 11
-50.1994006693385
 21
6.54117603883947
 31
0.0
  0
LINE
  5
   1CF
  8
0
  6
CONTINUOUS
 62
     1
 10
-27.3619403149887
 20
6.89118134365026
 30
0.0
 11
-49.8494177016832
 21
6.89118134365026
 31
0.0
  0
LINE
  5
   1D0
  8
0
  6
CONTINUOUS
 62
     1
 10
-34.7992002694568
 20
4.26617627129758
 30
0.0
 11
-36.7171438701438
 21
4.26617627129758
 31
0.0
  0
LINE
  5
   1D1
  8
0
  6
CONTINUOUS
 62
     1
 10
-34.7992002694568
 20
0.066176700451031
 30
0.0
 11
-36.7171438701438
 21
0.066176700451031
 31
0.0
  0
LINE
  5
   1D2
  8
0
  6
CONTINUOUS
 62
     1
 10
-40.9316839797259
 20
6.61765506580991E-2
 30
0.0
 11
-42.8492498344189
 21
6.61830829903138E-2
 31
0.0
  0
LINE
  5
   1D3
  8
0
  6
CONTINUOUS
 62
     1
 10
-42.849249833206
 20
4.26616988920652
 30
0.0
 11
-40.9316812915583
 21
4.2661764215688
 31
0.0
  0
LINE
  5
   1D4
  8
0
  6
CONTINUOUS
 62
     7
 10
-50.1994006693385
 20
-1.6838057229875
 30
0.0
 11
-50.1994006693385
 21
5.84117611036504
 31
0.0
  0
LINE
  5
   1D5
  8
0
  6
CONTINUOUS
 62
     1
 10
-2.86193747780817
 20
6.89117600307463
 30
0.0
 11
-25.7869404759213
 21
6.89117600307463
 31
0.0
  0
LINE
  5
   1D6
  8
0
  6
CONTINUOUS
 62
     1
 10
-16.4317033521845
 20
4.26617627129758
 30
0.0
 11
-18.3492914038337
 21
4.26617627129758
 31
0.0
  0
LINE
  5
   1D7
  8
0
  6
CONTINUOUS
 62
     1
 10
-16.4320788127165
 20
0.066176700451031
 30
0.0
 11
-18.3492914038337
 21
0.066176700451031
 31
0.0
  0
LINE
  5
   1D8
  8
0
  6
CONTINUOUS
 62
     1
 10
-12.2171475557718
 20
6.61731982917217E-2
 30
0.0
 11
-10.2993784961876
 21
0.066179731337094
 31
0.0
  0
LINE
  5
   1D9
  8
0
  6
CONTINUOUS
 62
     1
 10
-10.2993784937147
 20
4.26617324117105
 30
0.0
 11
-12.2171475708196
 21
4.26617977421647
 31
0.0
  0
LINE
  5
   1DA
  8
0
  6
CONTINUOUS
 62
     1
 10
22.2505492031596
 20
5.84117611036504
 30
0.0
 11
21.5505492746852
 21
5.84117611036504
 31
0.0
  0
LINE
  5
   1DB
  8
0
  6
CONTINUOUS
 62
     1
 10
22.2505705654617
 20
-1.68382329046598
 30
0.0
 11
22.2505705654617
 21
5.84117604723475
 31
0.0
  0
LINE
  5
   1DC
  8
0
  6
CONTINUOUS
 62
     1
 10
21.5505492746852
 20
5.84117611036504
 30
0.0
 11
21.5505492746852
 21
6.54117603883947
 31
0.0
  0
LINE
  5
   1DD
  8
0
  6
CONTINUOUS
 62
     1
 10
21.2005663070299
 20
6.89118134365026
 30
0.0
 11
-1.28693763874071
 21
6.89118134365026
 31
0.0
  0
LINE
  5
   1DE
  8
0
  6
CONTINUOUS
 62
     1
 10
8.06828746870087
 20
4.26617627129758
 30
0.0
 11
6.15049029918803
 21
4.26617627129758
 31
0.0
  0
LINE
  5
   1DF
  8
0
  6
CONTINUOUS
 62
     1
 10
8.06828746870087
 20
0.066176700451031
 30
0.0
 11
6.15049029918803
 21
0.066176700451031
 31
0.0
  0
LINE
  5
   1E0
  8
0
  6
CONTINUOUS
 62
     1
 10
12.2828329179659
 20
0.066176550659236
 30
0.0
 11
14.2006171681928
 21
6.61830837354245E-2
 31
0.0
  0
LINE
  5
   1E1
  8
0
  6
CONTINUOUS
 62
     1
 10
14.2006331906152
 20
4.26616988871811
 30
0.0
 11
12.2828302312001
 21
4.26617642185803
 31
0.0
  0
CIRCLE
  5
   1E2
  8
0
  6
CONTINUOUS
 62
     1
 10
-2.07450984810345
 20
1.46621116099975
 30
0.0
 40
1.83749981224537
  0
LINE
  5
   1E3
  8
0
  6
DASHDOT
 62
     7
 10
-15.8292106146981
 20
2.1661799595866
 30
0.0
 11
-20.8693718591832
 21
2.1661799595866
 31
0.0
  0
LINE
  5
   1E4
  8
0
  6
DASHDOT
 62
     7
 10
-18.3492914038337
 20
-0.353900495763014
 30
0.0
 11
-18.3492914038337
 21
4.68626041493617
 31
0.0
  0
ARC
  5
   1E5
  8
0
  6
CONTINUOUS
 62
     1
 10
-18.3492914038337
 20
2.1661799595866
 30
0.0
 40
2.10006671233868
 50
90.0036557603355
 51
269.996301839899
  0
LINE
  5
   1E6
  8
0
  6
DASHDOT
 62
     7
 10
-10.7542982311285
 20
2.16603468430551
 30
0.0
 11
-17.8946299903044
 21
2.16603468430551
 31
0.0
  0
ARC
  5
   1E7
  8
0
  6
CONTINUOUS
 62
     1
 10
-14.3244641107063
 20
2.16603468430552
 30
0.0
 40
2.97513823298993
 50
224.89430374687
 51
250.235065003453
  0
LINE
  5
   1E8
  8
0
  6
DASHDOT
 62
     7
 10
-7.77944616773063
 20
2.1662340179661
 30
0.0
 11
-12.819325798766
 21
2.1662340179661
 31
0.0
  0
LINE
  5
   1E9
  8
0
  6
DASHDOT
 62
     7
 10
-10.2993856494593
 20
-0.353707329623305
 30
0.0
 11
-10.2993856494593
 21
4.68617163384015
 31
0.0
  0
ARC
  5
   1EA
  8
0
  6
CONTINUOUS
 62
     1
 10
-10.2993856494624
 20
2.16623401796608
 30
0.0
 40
2.0999492343238
 50
269.999007927624
 51
450.00105270767
  0
LINE
  5
   1EB
  8
0
  6
DASHDOT
 62
     7
 10
8.67038700133297
 20
2.16619686589344
 30
0.0
 11
3.63057223474059
 21
2.16619686589344
 31
0.0
  0
LINE
  5
   1EC
  8
0
  6
DASHDOT
 62
     7
 10
6.15049029918804
 20
-0.353715857978386
 30
0.0
 11
6.15049029918804
 21
4.68610958976525
 31
0.0
  0
ARC
  5
   1ED
  8
0
  6
CONTINUOUS
 62
     1
 10
6.15049029918803
 20
2.16619686589344
 30
0.0
 40
2.09992660232123
 50
449.999999948034
 51
630.002376467854
  0
LINE
  5
   1EE
  8
0
  6
DASHDOT
 62
     7
 10
13.7455982974957
 20
2.16614696827403
 30
0.0
 11
6.60554031132771
 21
2.16614696827403
 31
0.0
  0
ARC
  5
   1EF
  8
0
  6
CONTINUOUS
 62
     1
 10
10.1755746449874
 20
2.16614696827403
 30
0.0
 40
2.97502416090334
 50
404.901045292561
 51
495.098630845462
  0
LINE
  5
   1F0
  8
0
  6
DASHDOT
 62
     7
 10
16.7206186148422
 20
2.16616602467024
 30
0.0
 11
11.6806120943959
 21
2.16616602467024
 31
0.0
  0
LINE
  5
   1F1
  8
0
  6
DASHDOT
 62
     7
 10
14.2006153546191
 20
-0.353842576128542
 30
0.0
 11
14.2006153546191
 21
4.68617462546901
 31
0.0
  0
ARC
  5
   1F2
  8
0
  6
CONTINUOUS
 62
     1
 10
14.2006153546191
 20
2.16616602467025
 30
0.0
 40
2.10000649976036
 50
269.998338346111
 51
450.001473300288
  0
LINE
  5
   1F3
  8
0
  6
DASHDOT
 62
     7
 10
20.9485412074233
 20
5.4911853378007
 30
0.0
 11
19.3525620306854
 21
5.4911853378007
 31
0.0
  0
LINE
  5
   1F4
  8
0
  6
DASHDOT
 62
     7
 10
20.1505542893422
 20
4.69319841971952
 30
0.0
 11
20.1505542893422
 21
6.28917225588185
 31
0.0
  0
CIRCLE
  5
   1F5
  8
0
  6
CONTINUOUS
 62
     1
 10
20.1505542893422
 20
5.4911853378007
 30
0.0
 40
0.664989098400968
  0
CIRCLE
  5
   1F6
  8
0
  6
CONTINUOUS
 62
     1
 10
20.1505752630992
 20
5.49118169074849
 30
0.0
 40
0.490019746478501
  0
ARC
  5
   1F7
  8
0
  6
CONTINUOUS
 62
     1
 10
21.2005520582128
 20
6.54116804414473
 30
0.0
 40
0.349999693004806
 50
360.000054589548
 51
449.999945306521
  0
CIRCLE
  5
   1F8
  8
0
  6
CONTINUOUS
 62
     1
 10
-48.799447268961
 20
5.49117932526546
 30
0.0
 40
0.489980557351486
  0
LINE
  5
   1F9
  8
0
  6
DASHDOT
 62
     7
 10
-48.0014598752588
 20
5.4912489427889
 30
0.0
 11
-49.5973474210454
 21
5.4912489427889
 31
0.0
  0
LINE
  5
   1FA
  8
0
  6
DASHDOT
 62
     7
 10
-48.7994036481521
 20
4.69331051047125
 30
0.0
 11
-48.7994036481521
 21
6.28918737510656
 31
0.0
  0
CIRCLE
  5
   1FB
  8
0
  6
CONTINUOUS
 62
     1
 10
-48.7994036481521
 20
5.4912489427889
 30
0.0
 40
0.664948693598051
  0
ARC
  5
   1FC
  8
0
  6
CONTINUOUS
 62
     1
 10
-49.8494018331352
 20
6.54117427198173
 30
0.0
 40
0.349995972226149
 50
90.0005173512766
 51
180.001122723422
  0
LINE
  5
   1FD
  8
0
  6
DASHDOT
 62
     7
 10
-40.3290997042917
 20
2.16619220949827
 30
0.0
 11
-45.3693642885671
 21
2.16619220949827
 31
0.0
  0
LINE
  5
   1FE
  8
0
  6
DASHDOT
 62
     7
 10
-42.8492319964294
 20
-0.353945423215073
 30
0.0
 11
-42.8492319964294
 21
4.68632984221161
 31
0.0
  0
ARC
  5
   1FF
  8
0
  6
CONTINUOUS
 62
     1
 10
-42.8492319964294
 20
2.16619220949828
 30
0.0
 40
2.10011469392778
 50
90.0052836333811
 51
269.995265213079
  0
LINE
  5
   200
  8
0
  6
DASHDOT
 62
     7
 10
-35.2543464189392
 20
2.16623724942299
 30
0.0
 11
-42.3944945160551
 21
2.16623724942299
 31
0.0
  0
ARC
  5
   201
  8
0
  6
CONTINUOUS
 62
     1
 10
-38.8244071160581
 20
2.16623724942299
 30
0.0
 40
2.97505948189176
 50
224.901380849089
 51
250.250828087894
  0
LINE
  5
   202
  8
0
  6
DASHDOT
 62
     7
 10
-32.2793786314019
 20
2.16619239101666
 30
0.0
 11
-37.3190219075117
 21
2.16619239101666
 31
0.0
  0
LINE
  5
   203
  8
0
  6
DASHDOT
 62
     7
 10
-34.7992002694568
 20
-0.353634587613868
 30
0.0
 11
-34.7992002694568
 21
4.68601936964718
 31
0.0
  0
ARC
  5
   204
  8
0
  6
CONTINUOUS
 62
     1
 10
-34.7992002694568
 20
2.16619239101665
 30
0.0
 40
2.09985581552544
 50
269.999999948034
 51
449.999945306521
  0
ARC
  5
   205
  8
0
  6
CONTINUOUS
 62
     1
 10
-38.8244071160581
 20
2.16623724942299
 30
0.0
 40
2.97505948189176
 50
404.897963373026
 51
495.101923170488
  0
ARC
  5
   206
  8
0
  6
CONTINUOUS
 62
     1
 10
-14.3244641107063
 20
2.16603468430552
 30
0.0
 40
2.97513823298993
 50
404.902109287098
 51
495.097767281763
  0
ARC
  5
   207
  8
0
  6
CONTINUOUS
 62
     1
 10
10.1755746449874
 20
2.16614696827403
 30
0.0
 40
2.97502416090334
 50
224.899545375473
 51
250.247577456667
  0
LINE
  5
   208
  8
0
  6
CONTINUOUS
 62
     7
 10
21.5505679666985
 20
-1.5088144397421
 30
0.0
 11
12.2755742549894
 21
-1.5088144397421
 31
0.0
  0
LINE
  5
   209
  8
0
  6
CONTINUOUS
 62
     1
 10
21.5505626261242
 20
-1.6838231207299
 30
0.0
 11
21.5505626261242
 21
6.54116804414473
 31
0.0
  0
LINE
  5
   20A
  8
0
  6
CONTINUOUS
 62
     7
 10
-50.124389614381
 20
-1.68380574117599
 30
0.0
 11
-50.124389614381
 21
-1.5088177980408
 31
0.0
  0
LINE
  5
   20B
  8
0
  6
CONTINUOUS
 62
     1
 10
22.338078346892
 20
-18.5713215649115
 30
0.0
 11
22.338078346892
 21
-1.68382329046598
 31
0.0
  0
LINE
  5
   20C
  8
0
  6
CONTINUOUS
 62
     1
 10
22.338078346892
 20
-85.9288149493896
 30
0.0
 11
22.338078346892
 21
-55.3213071286676
 31
0.0
  0
LINE
  5
   20D
  8
0
  6
CONTINUOUS
 62
     1
 10
-50.9869141608041
 20
-85.9288149493896
 30
0.0
 11
-50.9869141608041
 21
-55.3213284909701
 31
0.0
  0
LINE
  5
   20E
  8
0
  6
CONTINUOUS
 62
     1
 10
-50.9869141608041
 20
-18.571342927214
 30
0.0
 11
-50.9869141608041
 21
-1.68382329046598
 31
0.0
  0
LINE
  5
   20F
  8
0
  6
CONTINUOUS
 62
     1
 10
22.338078346892
 20
-1.68382329046598
 30
0.0
 11
12.2755742549894
 21
-1.68382329046598
 31
0.0
  0
LINE
  5
   210
  8
0
  6
CONTINUOUS
 62
     1
 10
21.9880783826548
 20
-63.2838169962155
 30
0.0
 11
12.2755742549894
 21
-63.2838169962155
 31
0.0
  0
LINE
  5
   211
  8
0
  6
CONTINUOUS
 62
     1
 10
-50.9869141608041
 20
-55.3213231503945
 30
0.0
 11
-50.9869141608041
 21
-18.5713269054871
 31
0.0
  0
LINE
  5
   212
  8
0
  6
CONTINUOUS
 62
     1
 10
22.338078346892
 20
-55.3213231503945
 30
0.0
 11
22.338078346892
 21
-18.5713269054871
 31
0.0
  0
LINE
  5
   213
  8
0
  6
CONTINUOUS
 62
     1
 10
22.1630783647734
 20
-55.3213231503945
 30
0.0
 11
12.2755742549894
 21
-55.3213231503945
 31
0.0
  0
LINE
  5
   214
  8
0
  6
CONTINUOUS
 62
     1
 10
22.1630783647734
 20
-18.5713269054871
 30
0.0
 11
12.2755742549894
 21
-18.5713269054871
 31
0.0
  0
LINE
  5
   215
  8
0
  6
CONTINUOUS
 62
     1
 10
22.338078346892
 20
-62.9338170528399
 30
0.0
 11
12.2755742549894
 21
-62.9338170528399
 31
0.0
  0
LINE
  5
   216
  8
0
  6
CONTINUOUS
 62
     1
 10
-50.6369142174285
 20
-63.2838169962155
 30
0.0
 11
-50.6369142174285
 21
-62.9338170528399
 31
0.0
  0
LINE
  5
   217
  8
0
  6
CONTINUOUS
 62
     1
 10
21.9880783826548
 20
-63.2838169962155
 30
0.0
 11
21.9880783826548
 21
-62.9338170528399
 31
0.0
  0
LINE
  5
   218
  8
0
  6
CONTINUOUS
 62
     1
 10
20.8680742246353
 20
-18.5713269054871
 30
0.0
 11
20.8680742246353
 21
-1.68382329046598
 31
0.0
  0
LINE
  5
   219
  8
0
  6
CONTINUOUS
 62
     1
 10
21.673075210496
 20
-18.5713269054871
 30
0.0
 11
21.673075210496
 21
-1.68382329046598
 31
0.0
  0
LINE
  5
   21A
  8
0
  6
CONTINUOUS
 62
     1
 10
15.8280768758496
 20
-18.5713269054871
 30
0.0
 11
15.8280768758496
 21
-1.68382329046598
 31
0.0
  0
LINE
  5
   21B
  8
0
  6
CONTINUOUS
 62
     1
 10
17.0880735427582
 20
-18.5713269054871
 30
0.0
 11
17.0880735427582
 21
-1.68382329046598
 31
0.0
  0
LINE
  5
   21C
  8
0
  6
CONTINUOUS
 62
     1
 10
18.3480755502424
 20
-18.5713269054871
 30
0.0
 11
18.3480755502424
 21
-1.68382329046598
 31
0.0
  0
LINE
  5
   21D
  8
0
  6
CONTINUOUS
 62
     1
 10
19.6080775577267
 20
-18.5713269054871
 30
0.0
 11
19.6080775577267
 21
-1.68382329046598
 31
0.0
  0
LINE
  5
   21E
  8
0
  6
CONTINUOUS
 62
     1
 10
13.3080782014568
 20
-18.5713269054871
 30
0.0
 11
13.3080782014568
 21
-1.68382329046598
 31
0.0
  0
LINE
  5
   21F
  8
0
  6
CONTINUOUS
 62
     1
 10
14.5680748683654
 20
-18.5713269054871
 30
0.0
 11
14.5680748683654
 21
-1.68382329046598
 31
0.0
  0
LINE
  5
   220
  8
0
  6
CONTINUOUS
 62
     1
 10
17.0880735427582
 20
-55.3213231503945
 30
0.0
 11
17.0880735427582
 21
-18.5713269054871
 31
0.0
  0
LINE
  5
   221
  8
0
  6
CONTINUOUS
 62
     1
 10
19.6080775577267
 20
-55.3213231503945
 30
0.0
 11
19.6080775577267
 21
-18.5713269054871
 31
0.0
  0
LINE
  5
   222
  8
0
  6
CONTINUOUS
 62
     1
 10
18.3480755502424
 20
-55.3213231503945
 30
0.0
 11
18.3480755502424
 21
-18.5713269054871
 31
0.0
  0
LINE
  5
   223
  8
0
  6
CONTINUOUS
 62
     1
 10
14.5680748683654
 20
-55.3213231503945
 30
0.0
 11
14.5680748683654
 21
-18.5713269054871
 31
0.0
  0
LINE
  5
   224
  8
0
  6
CONTINUOUS
 62
     1
 10
13.3080782014568
 20
-55.3213231503945
 30
0.0
 11
13.3080782014568
 21
-18.5713269054871
 31
0.0
  0
LINE
  5
   225
  8
0
  6
CONTINUOUS
 62
     1
 10
20.8680742246353
 20
-55.3213231503945
 30
0.0
 11
20.8680742246353
 21
-18.5713269054871
 31
0.0
  0
LINE
  5
   226
  8
0
  6
CONTINUOUS
 62
     1
 10
21.673075210496
 20
-55.3213231503945
 30
0.0
 11
21.673075210496
 21
-18.5713269054871
 31
0.0
  0
LINE
  5
   227
  8
0
  6
CONTINUOUS
 62
     1
 10
20.8680742246353
 20
-62.9338170528399
 30
0.0
 11
20.8680742246353
 21
-55.3213231712562
 31
0.0
  0
LINE
  5
   228
  8
0
  6
CONTINUOUS
 62
     1
 10
21.673075210496
 20
-62.9338170528399
 30
0.0
 11
21.673075210496
 21
-55.3213231712562
 31
0.0
  0
LINE
  5
   229
  8
0
  6
CONTINUOUS
 62
     1
 10
15.8280768758496
 20
-62.9338170528399
 30
0.0
 11
15.8280768758496
 21
-18.5713269054871
 31
0.0
  0
LINE
  5
   22A
  8
0
  6
CONTINUOUS
 62
     1
 10
17.0880735427582
 20
-62.9338170528399
 30
0.0
 11
17.0880735427582
 21
-55.3213231712562
 31
0.0
  0
LINE
  5
   22B
  8
0
  6
CONTINUOUS
 62
     1
 10
18.3480755502424
 20
-62.9338170528399
 30
0.0
 11
18.3480755502424
 21
-55.3213231712562
 31
0.0
  0
LINE
  5
   22C
  8
0
  6
CONTINUOUS
 62
     1
 10
19.6080775577267
 20
-62.9338170528399
 30
0.0
 11
19.6080775577267
 21
-55.3213231712562
 31
0.0
  0
LINE
  5
   22D
  8
0
  6
CONTINUOUS
 62
     1
 10
10.1580785233219
 20
-62.9338170528399
 30
0.0
 11
10.1580785233219
 21
-55.3213231712562
 31
0.0
  0
LINE
  5
   22E
  8
0
  6
CONTINUOUS
 62
     1
 10
13.3080782014568
 20
-62.9338170528399
 30
0.0
 11
13.3080782014568
 21
-55.3213231712562
 31
0.0
  0
LINE
  5
   22F
  8
0
  6
CONTINUOUS
 62
     1
 10
14.5680748683654
 20
-62.9338170528399
 30
0.0
 11
14.5680748683654
 21
-55.3213231712562
 31
0.0
  0
LINE
  5
   230
  8
0
  6
CONTINUOUS
 62
     1
 10
-49.516914377765
 20
-18.5713269054871
 30
0.0
 11
-49.516914377765
 21
-1.68382329046598
 31
0.0
  0
LINE
  5
   231
  8
0
  6
CONTINUOUS
 62
     1
 10
-50.3219143622678
 20
-18.5713269054871
 30
0.0
 11
-50.3219143622678
 21
-1.68382329046598
 31
0.0
  0
LINE
  5
   232
  8
0
  6
CONTINUOUS
 62
     1
 10
-44.4769180303373
 20
-18.5713269054871
 30
0.0
 11
-44.4769180303373
 21
-1.68382329046598
 31
0.0
  0
LINE
  5
   233
  8
0
  6
CONTINUOUS
 62
     1
 10
-45.7369146972459
 20
-18.5713269054871
 30
0.0
 11
-45.7369146972459
 21
-1.68382329046598
 31
0.0
  0
LINE
  5
   234
  8
0
  6
CONTINUOUS
 62
     1
 10
-46.9969147020143
 20
-18.5713269054871
 30
0.0
 11
-46.9969147020143
 21
-1.68382329046598
 31
0.0
  0
LINE
  5
   235
  8
0
  6
CONTINUOUS
 62
     1
 10
-48.2569147067826
 20
-18.5713269054871
 30
0.0
 11
-48.2569147067826
 21
-1.68382329046598
 31
0.0
  0
LINE
  5
   236
  8
0
  6
CONTINUOUS
 62
     1
 10
-41.9569193559445
 20
-18.5713269054871
 30
0.0
 11
-41.9569193559445
 21
-1.68382329046598
 31
0.0
  0
LINE
  5
   237
  8
0
  6
CONTINUOUS
 62
     1
 10
-43.2169160228531
 20
-18.5713269054871
 30
0.0
 11
-43.2169160228531
 21
-1.68382329046598
 31
0.0
  0
LINE
  5
   238
  8
0
  6
CONTINUOUS
 62
     1
 10
-45.7369150310319
 20
-55.3213231503945
 30
0.0
 11
-45.7369150310319
 21
-18.5713269054871
 31
0.0
  0
LINE
  5
   239
  8
0
  6
CONTINUOUS
 62
     1
 10
-44.4769180303373
 20
-55.3213231503945
 30
0.0
 11
-44.4769180303373
 21
-18.5713269054871
 31
0.0
  0
LINE
  5
   23A
  8
0
  6
CONTINUOUS
 62
     1
 10
-48.2569147067826
 20
-55.3213231503945
 30
0.0
 11
-48.2569147067826
 21
-18.5713269054871
 31
0.0
  0
LINE
  5
   23B
  8
0
  6
CONTINUOUS
 62
     1
 10
-46.9969147020143
 20
-55.3213231503945
 30
0.0
 11
-46.9969147020143
 21
-18.5713269054871
 31
0.0
  0
LINE
  5
   23C
  8
0
  6
CONTINUOUS
 62
     1
 10
-43.2169160228531
 20
-55.3213231503945
 30
0.0
 11
-43.2169160228531
 21
-18.5713269054871
 31
0.0
  0
LINE
  5
   23D
  8
0
  6
CONTINUOUS
 62
     1
 10
-41.9569193559445
 20
-55.3213231503945
 30
0.0
 11
-41.9569193559445
 21
-18.5713269054871
 31
0.0
  0
LINE
  5
   23E
  8
0
  6
CONTINUOUS
 62
     1
 10
-49.516914377765
 20
-55.3213231503945
 30
0.0
 11
-49.516914377765
 21
-18.5713269054871
 31
0.0
  0
LINE
  5
   23F
  8
0
  6
CONTINUOUS
 62
     1
 10
-50.3219143622678
 20
-55.3213231503945
 30
0.0
 11
-50.3219143622678
 21
-18.5713269054871
 31
0.0
  0
LINE
  5
   240
  8
0
  6
CONTINUOUS
 62
     1
 10
-49.516914377765
 20
-62.9338170528399
 30
0.0
 11
-49.516914377765
 21
-55.3213231712561
 31
0.0
  0
LINE
  5
   241
  8
0
  6
CONTINUOUS
 62
     1
 10
-50.3219143622678
 20
-62.9338170528399
 30
0.0
 11
-50.3219143622678
 21
-55.3213231712561
 31
0.0
  0
LINE
  5
   242
  8
0
  6
CONTINUOUS
 62
     1
 10
-44.4769180303373
 20
-62.9338170528399
 30
0.0
 11
-44.4769180303373
 21
-55.3213231712561
 31
0.0
  0
LINE
  5
   243
  8
0
  6
CONTINUOUS
 62
     1
 10
-45.7369146972459
 20
-62.9338170528399
 30
0.0
 11
-45.7369146972459
 21
-55.3213231712561
 31
0.0
  0
LINE
  5
   244
  8
0
  6
CONTINUOUS
 62
     1
 10
-46.9969147020143
 20
-62.9338170528399
 30
0.0
 11
-46.9969147020143
 21
-55.3213231712561
 31
0.0
  0
LINE
  5
   245
  8
0
  6
CONTINUOUS
 62
     1
 10
-48.2569147067826
 20
-62.9338170528399
 30
0.0
 11
-48.2569147067826
 21
-55.3213231712561
 31
0.0
  0
LINE
  5
   246
  8
0
  6
CONTINUOUS
 62
     1
 10
-38.8069196778096
 20
-62.9338170528399
 30
0.0
 11
-38.8069196778096
 21
-55.3213231712561
 31
0.0
  0
LINE
  5
   247
  8
0
  6
CONTINUOUS
 62
     1
 10
-41.9569193559445
 20
-62.9338170528399
 30
0.0
 11
-41.9569193559445
 21
-55.3213231712561
 31
0.0
  0
LINE
  5
   248
  8
0
  6
CONTINUOUS
 62
     1
 10
-43.2169160228531
 20
-62.9338170528399
 30
0.0
 11
-43.2169160228531
 21
-55.3213231712561
 31
0.0
  0
ARC
  5
   249
  8
0
  6
CONTINUOUS
 62
     1
 10
-50.8119141786855
 20
-18.7463268876058
 30
0.0
 40
0.174999982118607
 50
89.9999999480344
 51
179.999999948034
  0
ARC
  5
   24A
  8
0
  6
CONTINUOUS
 62
     1
 10
22.1630783647734
 20
-18.7463268876057
 30
0.0
 40
0.174999982118607
 50
359.999999948034
 51
449.999999948034
  0
ARC
  5
   24B
  8
0
  6
CONTINUOUS
 62
     1
 10
22.1630783647734
 20
-55.1463231682759
 30
0.0
 40
0.174999982118607
 50
269.999999948034
 51
359.999999948034
  0
ARC
  5
   24C
  8
0
  6
CONTINUOUS
 62
     1
 10
-50.8119141786855
 20
-55.1463231682759
 30
0.0
 40
0.174999982118607
 50
179.999999948034
 51
269.999999948034
  0
LINE
  5
   24D
  8
0
  6
CONTINUOUS
 62
     1
 10
-50.1994326408912
 20
-85.9288149493896
 30
0.0
 11
-50.9869141608041
 21
-85.9288149493896
 31
0.0
  0
LINE
  5
   24E
  8
0
  6
CONTINUOUS
 62
     1
 10
-50.1994326408913
 20
-86.3838149696552
 30
0.0
 11
-50.1994326408913
 21
-85.9288149493896
 31
0.0
  0
LINE
  5
   24F
  8
0
  6
CONTINUOUS
 62
     1
 10
-27.3619403149887
 20
-86.9088145822236
 30
0.0
 11
-49.6744326945354
 21
-86.9088145822236
 31
0.0
  0
LINE
  5
   250
  8
0
  6
CONTINUOUS
 62
     1
 10
-2.86193747780817
 20
-86.9088145822244
 30
0.0
 11
-25.7869351353456
 21
-86.9088145822244
 31
0.0
  0
LINE
  5
   251
  8
0
  6
CONTINUOUS
 62
     1
 10
21.025554740806
 20
-86.908814582244
 30
0.0
 11
-1.28693763874071
 21
-86.908814582244
 31
0.0
  0
LINE
  5
   252
  8
0
  6
CONTINUOUS
 62
     1
 10
21.5505546871618
 20
-86.3838146358692
 30
0.0
 11
21.5505546871618
 21
-85.9288149493896
 31
0.0
  0
LINE
  5
   253
  8
0
  6
CONTINUOUS
 62
     1
 10
22.338078346892
 20
-85.9288149493896
 30
0.0
 11
21.5505546871618
 21
-85.9288149493896
 31
0.0
  0
LINE
  5
   254
  8
0
  6
CONTINUOUS
 62
     1
 10
-47.7494332250167
 20
-78.5088207811076
 30
0.0
 11
-50.1994326408912
 21
-78.5088207811076
 31
0.0
  0
LINE
  5
   255
  8
0
  6
CONTINUOUS
 62
     1
 10
-33.5744343396236
 20
-78.5088207811076
 30
0.0
 11
-45.2994384821459
 21
-78.5088207811076
 31
0.0
  0
LINE
  5
   256
  8
0
  6
CONTINUOUS
 62
     1
 10
-7.84944230876408
 20
-78.5088207811076
 30
0.0
 11
-31.8244398590132
 21
-78.5088207811076
 31
0.0
  0
LINE
  5
   257
  8
0
  6
CONTINUOUS
 62
     1
 10
3.17555656470813
 20
-78.5088207811076
 30
0.0
 11
-5.39944255910359
 21
-78.5088207811076
 31
0.0
  0
LINE
  5
   258
  8
0
  6
CONTINUOUS
 62
     1
 10
16.6505513617717
 20
-78.5088307448656
 30
0.0
 11
4.92555255982507
 21
-78.5088307448656
 31
0.0
  0
LINE
  5
   259
  8
0
  6
CONTINUOUS
 62
     1
 10
21.5505569759711
 20
-78.5088242139024
 30
0.0
 11
19.1005518868291
 21
-78.5088188733288
 31
0.0
  0
LINE
  5
   25A
  8
0
  6
CONTINUOUS
 62
     1
 10
21.5505493465674
 20
-85.9288151509552
 30
0.0
 11
21.5505493465674
 21
-78.508822317817
 31
0.0
  0
LINE
  5
   25B
  8
0
  6
CONTINUOUS
 62
     1
 10
-49.3244330640842
 20
-77.1088155835831
 30
0.0
 11
-50.4619329478551
 21
-77.1088155835831
 31
0.0
  0
LINE
  5
   25C
  8
0
  6
CONTINUOUS
 62
     1
 10
-50.1994326408913
 20
-85.9288149493896
 30
0.0
 11
-50.1994326408913
 21
-78.5088221162515
 31
0.0
  0
LINE
  5
   25D
  8
0
  6
CONTINUOUS
 62
     1
 10
4.9255563858942
 20
-78.5088154405319
 30
0.0
 11
3.17556190528376
 21
-78.5088154405319
 31
0.0
  0
LINE
  5
   25E
  8
0
  6
CONTINUOUS
 62
     1
 10
14.2005584235874
 20
-80.0838208214604
 30
0.0
 11
12.2828324851003
 21
-80.0838154808864
 31
0.0
  0
LINE
  5
   25F
  8
0
  6
CONTINUOUS
 62
     1
 10
8.06827984477181
 20
-80.0838251063034
 30
0.0
 11
6.15055390539176
 21
-80.0838197657295
 31
0.0
  0
LINE
  5
   260
  8
0
  6
CONTINUOUS
 62
     1
 10
8.06828220002626
 20
-84.283814850446
 30
0.0
 11
6.15055626072444
 21
-84.283814850446
 31
0.0
  0
LINE
  5
   261
  8
0
  6
CONTINUOUS
 62
     1
 10
14.2005554381803
 20
-84.283814850446
 30
0.0
 11
12.2828348394542
 21
-84.283814850446
 31
0.0
  0
LINE
  5
   262
  8
0
  6
CONTINUOUS
 62
     1
 10
19.1005549375013
 20
-78.5088154405319
 30
0.0
 11
16.6505551878408
 21
-78.5088154405319
 31
0.0
  0
LINE
  5
   263
  8
0
  6
CONTINUOUS
 62
     1
 10
-31.8244451995888
 20
-78.5088154405319
 30
0.0
 11
-33.5744343396236
 21
-78.5088154405319
 31
0.0
  0
LINE
  5
   264
  8
0
  6
CONTINUOUS
 62
     1
 10
-34.7994365684192
 20
-80.0838232189224
 30
0.0
 11
-36.7171625077993
 21
-80.0838178783484
 31
0.0
  0
LINE
  5
   265
  8
0
  6
CONTINUOUS
 62
     1
 10
-40.9317151481204
 20
-80.0838221631897
 30
0.0
 11
-42.8494410875004
 21
-80.0838168226158
 31
0.0
  0
LINE
  5
   266
  8
0
  6
CONTINUOUS
 62
     1
 10
-40.9317127931836
 20
-84.283814850446
 30
0.0
 11
-42.8494387324854
 21
-84.283814850446
 31
0.0
  0
LINE
  5
   267
  8
0
  6
CONTINUOUS
 62
     1
 10
-34.7994395550295
 20
-84.283814850446
 30
0.0
 11
-36.7171601537557
 21
-84.283814850446
 31
0.0
  0
LINE
  5
   268
  8
0
  6
CONTINUOUS
 62
     1
 10
-45.2994388159319
 20
-78.5088154405319
 30
0.0
 11
-47.7494332250167
 21
-78.5088154405319
 31
0.0
  0
LINE
  5
   269
  8
0
  6
CONTINUOUS
 62
     1
 10
-10.2994390728624
 20
-80.0838220201914
 30
0.0
 11
-12.2171650122425
 21
-80.0838166796174
 31
0.0
  0
LINE
  5
   26A
  8
0
  6
CONTINUOUS
 62
     1
 10
-16.4317176516706
 20
-80.0838209644587
 30
0.0
 11
-18.3494435910506
 21
-80.0838156238848
 31
0.0
  0
LINE
  5
   26B
  8
0
  6
CONTINUOUS
 62
     1
 10
-16.4317152965787
 20
-84.283814850446
 30
0.0
 11
-18.3494412358805
 21
-84.283814850446
 31
0.0
  0
LINE
  5
   26C
  8
0
  6
CONTINUOUS
 62
     1
 10
-10.2994420584246
 20
-84.283814850446
 30
0.0
 11
-12.2171626571508
 21
-84.283814850446
 31
0.0
  0
LINE
  5
   26D
  8
0
  6
CONTINUOUS
 62
     1
 10
-5.39944255910359
 20
-78.5088154405319
 30
0.0
 11
-7.84944230876408
 21
-78.5088154405319
 31
0.0
  0
LINE
  5
   26E
  8
0
  6
CONTINUOUS
 62
     1
 10
-0.849437683444197
 20
-86.033814671632
 30
0.0
 11
-0.849437683444197
 21
-84.4588148325646
 31
0.0
  0
LINE
  5
   26F
  8
0
  6
CONTINUOUS
 62
     1
 10
-0.849437683444192
 20
-86.033814671632
 30
0.0
 11
-1.28693763874071
 21
-86.033814671632
 31
0.0
  0
LINE
  5
   270
  8
0
  6
CONTINUOUS
 62
     1
 10
-1.28693763874071
 20
-86.9088145822309
 30
0.0
 11
-1.28693763874071
 21
-86.0338146716379
 31
0.0
  0
LINE
  5
   271
  8
0
  6
CONTINUOUS
 62
     1
 10
-2.86193747780817
 20
-86.9088145822244
 30
0.0
 11
-2.86193747780817
 21
-86.0338146716314
 31
0.0
  0
LINE
  5
   272
  8
0
  6
CONTINUOUS
 62
     1
 10
-2.86193747780817
 20
-86.033814671632
 30
0.0
 11
-3.29943743310468
 21
-86.033814671632
 31
0.0
  0
LINE
  5
   273
  8
0
  6
CONTINUOUS
 62
     1
 10
-3.29943743310469
 20
-86.033814671632
 30
0.0
 11
-3.29943743310469
 21
-84.4588148325646
 31
0.0
  0
LINE
  5
   274
  8
0
  6
CONTINUOUS
 62
     1
 10
-0.849437683444192
 20
-84.4588148325646
 30
0.0
 11
-3.29943743310468
 21
-84.4588148325646
 31
0.0
  0
LINE
  5
   275
  8
0
  6
CONTINUOUS
 62
     1
 10
-27.7994402702852
 20
-86.033814671632
 30
0.0
 11
-27.7994402702852
 21
-84.4588148325646
 31
0.0
  0
LINE
  5
   276
  8
0
  6
CONTINUOUS
 62
     1
 10
-27.3619403149887
 20
-86.033814671632
 30
0.0
 11
-27.7994402702852
 21
-86.033814671632
 31
0.0
  0
LINE
  5
   277
  8
0
  6
CONTINUOUS
 62
     1
 10
-27.3619403149887
 20
-86.9088145822309
 30
0.0
 11
-27.3619403149887
 21
-86.0338146716379
 31
0.0
  0
LINE
  5
   278
  8
0
  6
CONTINUOUS
 62
     1
 10
-25.7869404759213
 20
-86.9088145822244
 30
0.0
 11
-25.7869404759213
 21
-86.0338146716314
 31
0.0
  0
LINE
  5
   279
  8
0
  6
CONTINUOUS
 62
     1
 10
-25.3494405206247
 20
-86.033814671632
 30
0.0
 11
-25.7869404759213
 21
-86.033814671632
 31
0.0
  0
LINE
  5
   27A
  8
0
  6
CONTINUOUS
 62
     1
 10
-25.3494405206247
 20
-86.033814671632
 30
0.0
 11
-25.3494405206247
 21
-84.4588148325646
 31
0.0
  0
LINE
  5
   27B
  8
0
  6
CONTINUOUS
 62
     1
 10
-25.3494405206247
 20
-84.4588148325646
 30
0.0
 11
-27.7994402702852
 21
-84.4588148325646
 31
0.0
  0
ARC
  5
   27C
  8
0
  6
CONTINUOUS
 62
     1
 10
-49.6744344100811
 20
-86.3838155954254
 30
0.0
 40
0.524998528301402
 50
179.999941123702
 51
270.000103159103
  0
CIRCLE
  5
   27D
  8
0
  6
CONTINUOUS
 62
     1
 10
-48.7994335590762
 20
-85.5088152242156
 30
0.0
 40
0.490000350151705
  0
ARC
  5
   27E
  8
0
  6
CONTINUOUS
 62
     1
 10
-42.8494449170671
 20
-82.1838197179401
 30
0.0
 40
2.09999780640047
 50
90.0001399327154
 51
270.000100332566
  0
ARC
  5
   27F
  8
0
  6
CONTINUOUS
 62
     1
 10
-38.8244426578534
 20
-82.1837829544989
 30
0.0
 40
2.97503231368161
 50
404.899302393594
 51
495.100813987516
  0
ARC
  5
   280
  8
0
  6
CONTINUOUS
 62
     1
 10
-34.7994380975091
 20
-82.1838175850443
 30
0.0
 40
2.09999491827499
 50
269.999747131106
 51
450.000048027357
  0
CIRCLE
  5
   281
  8
0
  6
CONTINUOUS
 62
     1
 10
-26.5744358256308
 20
-81.4838025883701
 30
0.0
 40
1.8374901065248
  0
CIRCLE
  5
   282
  8
0
  6
CONTINUOUS
 62
     1
 10
-26.5744454811357
 20
-81.4838259578228
 30
0.0
 40
0.962507308464076
  0
ARC
  5
   283
  8
0
  6
CONTINUOUS
 62
     1
 10
-18.3494712808426
 20
-82.1838358149816
 30
0.0
 40
2.09996786736678
 50
449.999680793011
 51
630.000858183329
  0
ARC
  5
   284
  8
0
  6
CONTINUOUS
 62
     1
 10
-14.3244256973266
 20
-82.183809962096
 30
0.0
 40
2.97499647139189
 50
404.900757179708
 51
495.099359217673
  0
ARC
  5
   285
  8
0
  6
CONTINUOUS
 62
     1
 10
-10.2994413479678
 20
-82.183817105285
 30
0.0
 40
2.09999612215487
 50
269.999783457987
 51
450.000092622467
  0
CIRCLE
  5
   286
  8
0
  6
CONTINUOUS
 62
     1
 10
-2.07440319622995
 20
-81.4838662977135
 30
0.0
 40
1.83755570860389
  0
CIRCLE
  5
   287
  8
0
  6
CONTINUOUS
 62
     1
 10
-2.07445776013304
 20
-81.4837960806221
 30
0.0
 40
0.962478203942512
  0
ARC
  5
   288
  8
0
  6
CONTINUOUS
 62
     1
 10
6.15054330314724
 20
-82.1838160723621
 30
0.0
 40
2.09999310233083
 50
90.0003609959681
 51
270.000490903722
  0
ARC
  5
   289
  8
0
  6
CONTINUOUS
 62
     1
 10
14.2005063691517
 20
-82.1838084378984
 30
0.0
 40
2.1000410813856
 50
270.001034630644
 51
449.998799421533
  0
ARC
  5
   28A
  8
0
  6
CONTINUOUS
 62
     1
 10
10.1755288769984
 20
-82.1838318107993
 30
0.0
 40
2.97500362988595
 50
404.901246442185
 51
495.09901516511
  0
CIRCLE
  5
   28B
  8
0
  6
CONTINUOUS
 62
     1
 10
20.1505546488935
 20
-85.5088173533893
 30
0.0
 40
0.489998689217135
  0
ARC
  5
   28C
  8
0
  6
CONTINUOUS
 62
     1
 10
10.1755288769984
 20
-82.1838318107993
 30
0.0
 40
2.97500362988595
 50
224.900341297451
 51
315.099658598617
  0
ARC
  5
   28D
  8
0
  6
CONTINUOUS
 62
     1
 10
-14.3244256973266
 20
-82.183809962096
 30
0.0
 40
2.97499647139189
 50
224.901072739214
 51
315.098927156855
  0
ARC
  5
   28E
  8
0
  6
CONTINUOUS
 62
     1
 10
-38.8244426578534
 20
-82.1837829544989
 30
0.0
 40
2.97503231368161
 50
224.901119153159
 51
315.09888074291
  0
LINE
  5
   28F
  8
0
  6
DASHDOT
 62
     2
 10
-38.8244426578534
 20
-88.1829003174376
 30
0.0
 11
-38.8244426578534
 21
-61.6886368621239
 31
0.0
  0
LINE
  5
   290
  8
0
  6
DASHDOT
 62
     2
 10
-34.7994104514601
 20
-82.1837829544989
 30
0.0
 11
-42.8494748642466
 21
-82.1837829544989
 31
0.0
  0
LINE
  5
   291
  8
0
  6
DASHDOT
 62
     2
 10
-34.7994380975091
 20
-85.3338123960309
 30
0.0
 11
-34.7994380975091
 21
-79.0338227740577
 31
0.0
  0
LINE
  5
   292
  8
0
  6
DASHDOT
 62
     2
 10
-31.6494432865224
 20
-82.1838175850443
 30
0.0
 11
-37.9494329084957
 21
-82.1838175850443
 31
0.0
  0
LINE
  5
   293
  8
0
  6
DASHDOT
 62
     2
 10
-42.8494449170671
 20
-85.3338174170522
 30
0.0
 11
-42.8494449170671
 21
-79.033822018828
 31
0.0
  0
LINE
  5
   294
  8
0
  6
DASHDOT
 62
     2
 10
-39.699447217955
 20
-82.1838197179401
 30
0.0
 11
-45.9994426161792
 21
-82.1838197179401
 31
0.0
  0
LINE
  5
   295
  8
0
  6
DASHDOT
 62
     2
 10
-23.346165010552
 20
-81.4838025883701
 30
0.0
 11
-29.4619258248673
 21
-81.4838025883701
 31
0.0
  0
LINE
  5
   296
  8
0
  6
DASHDOT
 62
     2
 10
-18.3494712808426
 20
-85.33380357506
 30
0.0
 11
-18.3494712808426
 21
-79.0338680549032
 31
0.0
  0
LINE
  5
   297
  8
0
  6
DASHDOT
 62
     2
 10
-15.1995035207642
 20
-82.1838358149816
 30
0.0
 11
-21.499439040921
 21
-82.1838358149816
 31
0.0
  0
LINE
  5
   298
  8
0
  6
DASHDOT
 62
     2
 10
-14.3244256973266
 20
-88.5580914121207
 30
0.0
 11
-14.3244256973266
 21
-61.6020543018124
 31
0.0
  0
LINE
  5
   299
  8
0
  6
DASHDOT
 62
     2
 10
-10.2994293332231
 20
-82.183809962096
 30
0.0
 11
-18.3494220614302
 21
-82.183809962096
 31
0.0
  0
LINE
  5
   29A
  8
0
  6
DASHDOT
 62
     2
 10
-10.2994413479678
 20
-85.3338131201515
 30
0.0
 11
-10.2994413479678
 21
-79.0338210904185
 31
0.0
  0
LINE
  5
   29B
  8
0
  6
DASHDOT
 62
     2
 10
-7.14944533310129
 20
-82.183817105285
 30
0.0
 11
-13.4494373628343
 21
-82.183817105285
 31
0.0
  0
LINE
  5
   29C
  8
0
  6
DASHDOT
 62
     2
 10
-2.07440319622996
 20
-84.371421899029
 30
0.0
 11
-2.07440319622996
 21
-78.596310696398
 31
0.0
  0
LINE
  5
   29D
  8
0
  6
DASHDOT
 62
     2
 10
6.15054330314724
 20
-85.3338090674046
 30
0.0
 11
6.15054330314724
 21
-79.0338230773196
 31
0.0
  0
LINE
  5
   29E
  8
0
  6
DASHDOT
 62
     2
 10
9.30053629818971
 20
-82.1838160723621
 30
0.0
 11
3.00055030810477
 21
-82.1838160723621
 31
0.0
  0
LINE
  5
   29F
  8
0
  6
DASHDOT
 62
     2
 10
10.1755288769984
 20
-88.4715088518092
 30
0.0
 11
10.1755288769984
 21
-62.1792713705556
 31
0.0
  0
LINE
  5
   2A0
  8
0
  6
DASHDOT
 62
     2
 10
14.200532399596
 20
-82.1838318107993
 30
0.0
 11
6.15052535440081
 21
-82.1838318107993
 31
0.0
  0
LINE
  5
   2A1
  8
0
  6
DASHDOT
 62
     2
 10
14.2005063691517
 20
-85.3338494119957
 30
0.0
 11
14.2005063691517
 21
-79.0337674638012
 31
0.0
  0
LINE
  5
   2A2
  8
0
  6
DASHDOT
 62
     2
 10
17.3505473432489
 20
-82.1838084378984
 30
0.0
 11
11.0504653950545
 21
-82.1838084378984
 31
0.0
  0
LINE
  5
   2A3
  8
0
  6
DASHDOT
 62
     2
 10
20.1505546488935
 20
-87.0488159353181
 30
0.0
 11
20.1505546488935
 21
-83.9688187714606
 31
0.0
  0
LINE
  5
   2A4
  8
0
  6
DASHDOT
 62
     2
 10
-48.7994335590762
 20
-87.0488154670789
 30
0.0
 11
-48.7994335590762
 21
-83.9688149813522
 31
0.0
  0
LINE
  5
   2A5
  8
0
  6
DASHDOT
 62
     2
 10
-47.2594333162128
 20
-85.5088152242155
 30
0.0
 11
-50.3394338019395
 21
-85.5088152242155
 31
0.0
  0
ARC
  5
   2A6
  8
0
  6
CONTINUOUS
 62
     1
 10
21.0255398105708
 20
-86.3838192059956
 30
0.0
 40
0.525005828877544
 50
270.001088208967
 51
360.000070595423
  0
LINE
  5
   2A7
  8
0
  6
DASHDOT
 62
     2
 10
-48.2744222283363
 20
-77.4411973659323
 30
0.0
 11
-48.2744222283363
 21
-62.5238140154186
 31
0.0
  0
LINE
  5
   2A8
  8
0
  6
DASHDOT
 62
     2
 10
-15.3467737401673
 20
-81.4838025883701
 30
0.0
 11
-21.7018456938618
 21
-81.4838025883701
 31
0.0
  0
LINE
  5
   2A9
  8
0
  6
DASHDOT
 62
     2
 10
1.00753730150808
 20
-81.4838025883701
 30
0.0
 11
-13.4061806727221
 21
-81.4838025883701
 31
0.0
  0
LINE
  5
   2AA
  8
0
  6
CONTINUOUS
 62
     1
 10
21.7255546692804
 20
-77.1088209241587
 30
0.0
 11
21.7255546692804
 21
-63.2838223367888
 31
0.0
  0
LINE
  5
   2AB
  8
0
  6
CONTINUOUS
 62
     1
 10
-38.8244231939316
 20
-77.1088155835854
 30
0.0
 11
-38.8244231939316
 21
-69.2338275700765
 31
0.0
  0
LINE
  5
   2AC
  8
0
  6
CONTINUOUS
 62
     1
 10
10.1755717992783
 20
-77.1088155835854
 30
0.0
 11
10.1755717992783
 21
-69.2338275700765
 31
0.0
  0
LINE
  5
   2AD
  8
0
  6
CONTINUOUS
 62
     1
 10
-50.374414223389
 20
-77.1088155835831
 30
0.0
 11
-50.374414223389
 21
-63.2838169962155
 31
0.0
  0
LINE
  5
   2AE
  8
0
  6
CONTINUOUS
 62
     1
 10
-38.8244178533559
 20
-18.5713269054871
 30
0.0
 11
-50.8119141786855
 21
-18.5713269054871
 31
0.0
  0
LINE
  5
   2AF
  8
0
  6
CONTINUOUS
 62
     1
 10
21.7255546690695
 20
-77.1088209256852
 30
0.0
 11
-50.374414223389
 21
-77.1088209256852
 31
0.0
  0
LINE
  5
   2B0
  8
0
  6
CONTINUOUS
 62
     1
 10
-25.3494405206247
 20
4.44118710429196
 30
0.0
 11
-27.7994402702852
 21
4.44118710429196
 31
0.0
  0
LINE
  5
   2B1
  8
0
  6
CONTINUOUS
 62
     1
 10
-27.7994402702852
 20
4.44118710429196
 30
0.0
 11
-27.7994402702852
 21
6.01618694335941
 31
0.0
  0
LINE
  5
   2B2
  8
0
  6
CONTINUOUS
 62
     1
 10
-27.3619403149887
 20
6.01618694335941
 30
0.0
 11
-27.7994402702852
 21
6.01618694335941
 31
0.0
  0
LINE
  5
   2B3
  8
0
  6
CONTINUOUS
 62
     1
 10
-27.3619403149887
 20
6.01618694336527
 30
0.0
 11
-27.3619403149887
 21
6.8911868539583
 31
0.0
  0
LINE
  5
   2B4
  8
0
  6
CONTINUOUS
 62
     1
 10
-25.7869404759213
 20
6.01618694335878
 30
0.0
 11
-25.7869404759213
 21
6.89118685395181
 31
0.0
  0
LINE
  5
   2B5
  8
0
  6
CONTINUOUS
 62
     1
 10
-25.3494405206247
 20
6.01618694335941
 30
0.0
 11
-25.7869404759213
 21
6.01618694335941
 31
0.0
  0
LINE
  5
   2B6
  8
0
  6
CONTINUOUS
 62
     1
 10
-25.3494405206247
 20
4.44118710429196
 30
0.0
 11
-25.3494405206247
 21
6.01618694335941
 31
0.0
  0
LINE
  5
   2B7
  8
0
  6
CONTINUOUS
 62
     1
 10
-1.28693763874071
 20
6.01618694336527
 30
0.0
 11
-1.28693763874071
 21
6.8911868539583
 31
0.0
  0
LINE
  5
   2B8
  8
0
  6
CONTINUOUS
 62
     1
 10
-0.849437683444192
 20
6.01618694335941
 30
0.0
 11
-1.28693763874071
 21
6.01618694335941
 31
0.0
  0
LINE
  5
   2B9
  8
0
  6
CONTINUOUS
 62
     1
 10
-0.849437683444197
 20
4.44118710429196
 30
0.0
 11
-0.849437683444197
 21
6.01618694335941
 31
0.0
  0
LINE
  5
   2BA
  8
0
  6
CONTINUOUS
 62
     1
 10
-0.849437683444192
 20
4.44118710429196
 30
0.0
 11
-3.29943743310468
 21
4.44118710429196
 31
0.0
  0
LINE
  5
   2BB
  8
0
  6
CONTINUOUS
 62
     1
 10
-2.86193747780817
 20
6.01618694335941
 30
0.0
 11
-3.29943743310468
 21
6.01618694335941
 31
0.0
  0
LINE
  5
   2BC
  8
0
  6
CONTINUOUS
 62
     1
 10
-2.86193747780817
 20
6.01618694335878
 30
0.0
 11
-2.86193747780817
 21
6.89118685395181
 31
0.0
  0
LINE
  5
   2BD
  8
0
  6
CONTINUOUS
 62
     1
 10
-3.29943743310469
 20
4.44118710429196
 30
0.0
 11
-3.29943743310469
 21
6.01618694335941
 31
0.0
  0
LINE
  5
   2BE
  8
0
  6
DASHDOT
 62
     7
 10
-2.07450984810345
 20
-2.12128847243169
 30
0.0
 11
-2.07450984810345
 21
5.05371079443118
 31
0.0
  0
LINE
  5
   2BF
  8
0
  6
DASHDOT
 62
     7
 10
1.51298978532798
 20
1.46621116099975
 30
0.0
 11
-5.66200948153489
 21
1.46621116099975
 31
0.0
  0
CIRCLE
  5
   2C0
  8
0
  6
CONTINUOUS
 62
     1
 10
-26.5743415465498
 20
1.46621116099975
 30
0.0
 40
1.83749981224537
  0
LINE
  5
   2C1
  8
0
  6
DASHDOT
 62
     7
 10
-26.5743415465498
 20
-2.12128847243169
 30
0.0
 11
-26.5743415465498
 21
5.05371079443118
 31
0.0
  0
LINE
  5
   2C2
  8
0
  6
DASHDOT
 62
     7
 10
-22.9868419131184
 20
1.46621116099975
 30
0.0
 11
-30.1618411799813
 21
1.46621116099975
 31
0.0
  0
LINE
  5
   2C3
  8
0
  6
CONTINUOUS
 62
     1
 10
-40.924420309067
 20
-55.3213231503945
 30
0.0
 11
-50.8119141786855
 21
-55.3213231503945
 31
0.0
  0
LINE
  5
   2C4
  8
0
  6
CONTINUOUS
 62
     1
 10
10.333054693343
 20
-55.3213047921655
 30
0.0
 11
10.333054693343
 21
-18.5713352501362
 31
0.0
  0
LINE
  5
   2C5
  8
0
  6
CONTINUOUS
 62
     7
 10
10.0005703138356
 20
-10.4338580125425
 30
0.0
 11
-38.649424715137
 21
-10.4338580125425
 31
0.0
  0
LINE
  5
   2C6
  8
0
  6
CONTINUOUS
 62
     7
 10
10.0005703138356
 20
-59.4338552588077
 30
0.0
 11
-38.649424715137
 21
-59.4338552588077
 31
0.0
  0
LINE
  5
   2C7
  8
0
  6
CONTINUOUS
 62
     7
 10
9.91307032277631
 20
-14.6338575833891
 30
0.0
 11
-38.5619247240777
 21
-14.6338575833891
 31
0.0
  0
LINE
  5
   2C8
  8
0
  6
CONTINUOUS
 62
     7
 10
9.91307032277631
 20
-11.133857941017
 30
0.0
 11
-38.5619247240777
 21
-11.133857941017
 31
0.0
  0
LINE
  5
   2C9
  8
0
  6
CONTINUOUS
 62
     7
 10
-38.8244246972556
 20
-59.2588552766891
 30
0.0
 11
-38.8244246972556
 21
-10.6088579946612
 31
0.0
  0
LINE
  5
   2CA
  8
0
  6
CONTINUOUS
 62
     7
 10
10.1755702959542
 20
-59.2588552766891
 30
0.0
 11
10.1755702959542
 21
-10.6088579946612
 31
0.0
  0
LINE
  5
   2CB
  8
0
  6
CONTINUOUS
 62
     7
 10
7.02557061781929
 20
-18.0463599049897
 30
0.0
 11
7.02557061781929
 21
-16.9963600122781
 31
0.0
  0
LINE
  5
   2CC
  8
0
  6
CONTINUOUS
 62
     7
 10
8.07557051053093
 20
-18.0463599049897
 30
0.0
 11
8.07557051053093
 21
-16.9963600122781
 31
0.0
  0
LINE
  5
   2CD
  8
0
  6
DOT
 62
     7
 10
1.32056078663024
 20
-55.7831449894973
 30
0.0
 11
1.32056078663024
 21
-52.934566732132
 31
0.0
  0
LINE
  5
   2CE
  8
0
  6
DOT
 62
     7
 10
5.73055980196157
 20
-55.7831449894973
 30
0.0
 11
5.73055980196157
 21
-52.934566732132
 31
0.0
  0
LINE
  5
   2CF
  8
0
  6
CONTINUOUS
 62
     7
 10
8.25056004965363
 20
-47.9713086197041
 30
0.0
 11
8.19930387499186
 21
-47.847564812136
 31
0.0
  0
LINE
  5
   2D0
  8
0
  6
CONTINUOUS
 62
     7
 10
8.19930404994089
 20
-47.8475649060069
 30
0.0
 11
8.07556024237284
 21
-47.7963087313451
 31
0.0
  0
LINE
  5
   2D1
  8
0
  6
CONTINUOUS
 62
     7
 10
8.07555982937967
 20
-47.7963087999722
 30
0.0
 11
7.02555993666804
 21
-47.7963087999722
 31
0.0
  0
LINE
  5
   2D2
  8
0
  6
CONTINUOUS
 62
     7
 10
6.90181661518283
 20
-47.8475647339981
 30
0.0
 11
7.02556042275088
 21
-47.7963085593363
 31
0.0
  0
LINE
  5
   2D3
  8
0
  6
CONTINUOUS
 62
     7
 10
6.85056027083142
 20
-47.9713084487212
 30
0.0
 11
6.90181644549319
 21
-47.8475646411531
 31
0.0
  0
LINE
  5
   2D4
  8
0
  6
CONTINUOUS
 62
     7
 10
6.85055995454943
 20
-48.8463086926839
 30
0.0
 11
6.85055995454943
 21
-47.9713087820908
 31
0.0
  0
LINE
  5
   2D5
  8
0
  6
CONTINUOUS
 62
     7
 10
6.85055995454943
 20
-49.5463092887302
 30
0.0
 11
6.85055995454943
 21
-48.8463086926839
 31
0.0
  0
LINE
  5
   2D6
  8
0
  6
CONTINUOUS
 62
     7
 10
6.85055995454943
 20
-50.2463092172047
 30
0.0
 11
6.85055995454943
 21
-49.5463092887302
 31
0.0
  0
LINE
  5
   2D7
  8
0
  6
CONTINUOUS
 62
     7
 10
6.85055995454943
 20
-50.9463091456791
 30
0.0
 11
6.85055995454943
 21
-50.2463092172047
 31
0.0
  0
LINE
  5
   2D8
  8
0
  6
CONTINUOUS
 62
     7
 10
6.85055995454943
 20
-51.8213090562721
 30
0.0
 11
6.85055995454943
 21
-50.9463091456791
 31
0.0
  0
LINE
  5
   2D9
  8
0
  6
CONTINUOUS
 62
     7
 10
6.9018163657393
 20
-51.9450527763806
 30
0.0
 11
6.85056019107754
 21
-51.8213089688125
 31
0.0
  0
LINE
  5
   2DA
  8
0
  6
CONTINUOUS
 62
     7
 10
7.02556034197118
 20
-51.9963090170866
 30
0.0
 11
6.90181653440314
 21
-51.9450528424249
 31
0.0
  0
LINE
  5
   2DB
  8
0
  6
CONTINUOUS
 62
     7
 10
8.07555982937967
 20
-51.9963090383907
 30
0.0
 11
7.02555993666804
 21
-51.9963090383907
 31
0.0
  0
LINE
  5
   2DC
  8
0
  6
CONTINUOUS
 62
     7
 10
8.07556032315254
 20
-51.9963088450779
 30
0.0
 11
8.19930413072059
 21
-51.9450526704161
 31
0.0
  0
LINE
  5
   2DD
  8
0
  6
CONTINUOUS
 62
     7
 10
8.19930395474574
 20
-51.9450526053976
 30
0.0
 11
8.2505601294075
 21
-51.8213087978296
 31
0.0
  0
LINE
  5
   2DE
  8
0
  6
CONTINUOUS
 62
     7
 10
8.25055981149828
 20
-51.8213090562721
 30
0.0
 11
8.25055981149828
 21
-50.9463091456791
 31
0.0
  0
LINE
  5
   2DF
  8
0
  6
CONTINUOUS
 62
     7
 10
8.25055981149828
 20
-50.9463091456791
 30
0.0
 11
8.25055981149828
 21
-50.2463092172047
 31
0.0
  0
LINE
  5
   2E0
  8
0
  6
CONTINUOUS
 62
     7
 10
8.25055981149828
 20
-50.2463092172047
 30
0.0
 11
8.25055981149828
 21
-49.5463092887302
 31
0.0
  0
LINE
  5
   2E1
  8
0
  6
CONTINUOUS
 62
     7
 10
8.25055981149828
 20
-49.5463092887302
 30
0.0
 11
8.25055981149828
 21
-48.8463100278278
 31
0.0
  0
LINE
  5
   2E2
  8
0
  6
CONTINUOUS
 62
     7
 10
8.25055981149828
 20
-48.8463100278278
 30
0.0
 11
8.25055981149828
 21
-47.9713087820908
 31
0.0
  0
LINE
  5
   2E3
  8
0
  6
CONTINUOUS
 62
     7
 10
-23.8619349045502
 20
-59.1713552856298
 30
0.0
 11
-23.8619349045502
 21
-32.95372193958
 31
0.0
  0
LINE
  5
   2E4
  8
0
  6
CONTINUOUS
 62
     7
 10
-24.2119009552867
 20
-33.166217355382
 30
0.0
 11
-23.8619350347691
 21
-32.9537211983069
 31
0.0
  0
LINE
  5
   2E5
  8
0
  6
CONTINUOUS
 62
     7
 10
-24.2119350155534
 20
-59.1713552856298
 30
0.0
 11
-24.2119350155534
 21
-33.1662367951846
 31
0.0
  0
LINE
  5
   2E6
  8
0
  6
CONTINUOUS
 62
     7
 10
-33.4869347843333
 20
-59.1713552856298
 30
0.0
 11
-33.4869347843333
 21
-33.1662367117381
 31
0.0
  0
LINE
  5
   2E7
  8
0
  6
CONTINUOUS
 62
     7
 10
-33.4869277884644
 20
-33.1662385321003
 30
0.0
 11
-33.8369330934798
 21
-32.9537236859269
 31
0.0
  0
LINE
  5
   2E8
  8
0
  6
CONTINUOUS
 62
     7
 10
-33.8369345528827
 20
-59.1713552856298
 30
0.0
 11
-33.8369345528827
 21
-32.9537218561335
 31
0.0
  0
LINE
  5
   2E9
  8
0
  6
CONTINUOUS
 62
     7
 10
9.9130703227763
 20
-20.1463516795496
 30
0.0
 11
1.82845136291933
 21
-20.1463516795496
 31
0.0
  0
ARC
  5
   2EA
  8
0
  6
CONTINUOUS
 62
     7
 10
7.55056770149418
 20
-16.9963633406959
 30
0.0
 40
0.525002663955118
 50
360.000264330205
 51
539.999752563663
  0
ARC
  5
   2EB
  8
0
  6
CONTINUOUS
 62
     7
 10
7.55054977945703
 20
-18.046352785118
 30
0.0
 40
0.525020291173391
 50
180.000872430867
 51
359.99911053366
  0
CIRCLE
  5
   2EC
  8
0
  6
CONTINUOUS
 62
     7
 10
7.98807061504615
 20
-57.2463510212737
 30
0.0
 40
0.90999628353866
  0
CIRCLE
  5
   2ED
  8
0
  6
CONTINUOUS
 62
     7
 10
7.9880706673371
 20
-57.2463601508968
 30
0.0
 40
1.48750476579848
  0
ARC
  5
   2EE
  8
0
  6
DOT
 62
     7
 10
3.52555830832543
 20
-54.3588461638871
 30
0.0
 40
2.62499005491966
 50
392.859484181593
 51
507.140355930743
  0
ARC
  5
   2EF
  8
0
  6
DOT
 62
     7
 10
3.52555830832543
 20
-54.3588461638871
 30
0.0
 40
2.62499005491966
 50
212.859643965326
 51
327.140515714475
  0
CIRCLE
  5
   2F0
  8
0
  6
CONTINUOUS
 62
     7
 10
-36.6369237979712
 20
-57.246356558424
 30
0.0
 40
0.910000119818836
  0
CIRCLE
  5
   2F1
  8
0
  6
CONTINUOUS
 62
     7
 10
-36.63692341729
 20
-57.24635500478
 30
0.0
 40
1.48749878059038
  0
LINE
  5
   2F2
  8
0
  6
DASHDOT
 62
     7
 10
7.55056770149417
 20
-17.8713659688883
 30
0.0
 11
7.55056770149417
 21
-16.1213607125036
 31
0.0
  0
LINE
  5
   2F3
  8
0
  6
CONTINUOUS
 62
     7
 10
9.9130703227763
 20
-58.9963553035112
 30
0.0
 11
9.9130703227763
 21
-10.8713579678391
 31
0.0
  0
LINE
  5
   2F4
  8
0
  6
CONTINUOUS
 62
     7
 10
9.73807034065769
 20
-59.1713552856298
 30
0.0
 11
-38.3869247419591
 21
-59.1713552856298
 31
0.0
  0
LINE
  5
   2F5
  8
0
  6
CONTINUOUS
 62
     7
 10
-38.5619247240777
 20
-58.9963553035112
 30
0.0
 11
-38.5619247240777
 21
-10.8713579678391
 31
0.0
  0
LINE
  5
   2F6
  8
0
  6
CONTINUOUS
 62
     7
 10
9.7380703406577
 20
-10.6963579857205
 30
0.0
 11
-38.3869247419591
 21
-10.6963579857205
 31
0.0
  0
ARC
  5
   2F7
  8
0
  6
CONTINUOUS
 62
     7
 10
-38.3869247419591
 20
-10.8713579678391
 30
0.0
 40
0.174999982118607
 50
89.9999999480344
 51
179.999999948034
  0
ARC
  5
   2F8
  8
0
  6
CONTINUOUS
 62
     7
 10
-38.649424715137
 20
-10.6088579946612
 30
0.0
 40
0.174999982118607
 50
89.9999999480344
 51
179.999999948034
  0
ARC
  5
   2F9
  8
0
  6
CONTINUOUS
 62
     7
 10
10.0005703138356
 20
-10.6088579946612
 30
0.0
 40
0.174999982118607
 50
359.999999948034
 51
449.999999948034
  0
ARC
  5
   2FA
  8
0
  6
CONTINUOUS
 62
     7
 10
9.7380703406577
 20
-10.8713579678391
 30
0.0
 40
0.174999982118607
 50
359.999999948034
 51
449.999999948034
  0
ARC
  5
   2FB
  8
0
  6
CONTINUOUS
 62
     7
 10
9.73807034065769
 20
-58.9963553035112
 30
0.0
 40
0.174999982118607
 50
269.999999948034
 51
359.999999948034
  0
ARC
  5
   2FC
  8
0
  6
CONTINUOUS
 62
     7
 10
10.0005703138356
 20
-59.2588552766891
 30
0.0
 40
0.174999982118607
 50
269.999999948034
 51
359.999999948034
  0
ARC
  5
   2FD
  8
0
  6
CONTINUOUS
 62
     7
 10
-38.3869247419591
 20
-58.9963553035112
 30
0.0
 40
0.174999982118607
 50
179.999999948034
 51
269.999999948034
  0
ARC
  5
   2FE
  8
0
  6
CONTINUOUS
 62
     7
 10
-38.649424715137
 20
-59.2588552766891
 30
0.0
 40
0.174999982118607
 50
179.999999948034
 51
269.999999948034
  0
LINE
  5
   2FF
  8
0
  6
CONTINUOUS
 62
     7
 10
10.1755733026024
 20
-47.3587731134683
 30
0.0
 11
10.1755733026024
 21
-10.958840913323
 31
0.0
  0
LINE
  5
   300
  8
0
  6
CONTINUOUS
 62
     7
 10
9.9130703227763
 20
-20.4963356672915
 30
0.0
 11
2.26111354125159
 21
-20.4963356672915
 31
0.0
  0
LINE
  5
   301
  8
0
  6
CONTINUOUS
 62
     7
 10
6.15056736747661
 20
-29.7713507413045
 30
0.0
 11
2.26124768976142
 21
-29.7713507413045
 31
0.0
  0
LINE
  5
   302
  8
0
  6
CONTINUOUS
 62
     7
 10
9.9130703227763
 20
-30.1213507055417
 30
0.0
 11
1.82861344448748
 21
-30.1213507055417
 31
0.0
  0
LINE
  5
   303
  8
0
  6
CONTINUOUS
 62
     7
 10
-24.2020554180814
 20
-58.9963645190915
 30
0.0
 11
-24.2020554180814
 21
-55.4963648767194
 31
0.0
  0
LINE
  5
   304
  8
0
  6
CONTINUOUS
 62
     7
 10
-33.4869345352759
 20
-58.9963645190915
 30
0.0
 11
-33.4869345352759
 21
-55.4963648767194
 31
0.0
  0
LINE
  5
   305
  8
0
  6
CONTINUOUS
 62
     7
 10
9.65056700984874
 20
-20.4963356672915
 30
0.0
 11
6.15056736747661
 21
-20.4963356672915
 31
0.0
  0
LINE
  5
   306
  8
0
  6
CONTINUOUS
 62
     7
 10
9.9130703227763
 20
-29.7713507413045
 30
0.0
 11
6.15056736747661
 21
-29.7713507413045
 31
0.0
  0
LINE
  5
   307
  8
0
  6
CONTINUOUS
 62
   253
 10
3.35057081236695
 20
-27.2339037502445
 30
0.0
 11
3.35057081236695
 21
-23.0339041793979
 31
0.0
  0
LINE
  5
   308
  8
0
  6
CONTINUOUS
 62
   253
 10
-0.149451319185749
 20
-19.5339045370258
 30
0.0
 11
-29.3063998054167
 21
-19.5339045370258
 31
0.0
  0
LINE
  5
   309
  8
0
  6
CONTINUOUS
 62
   253
 10
-0.149409763968638
 20
-30.7339033926166
 30
0.0
 11
-29.3063998054167
 21
-30.7339033926166
 31
0.0
  0
LINE
  5
   30A
  8
0
  6
CONTINUOUS
 62
   253
 10
-31.754303379144
 20
-26.6214038128294
 30
0.0
 11
-31.754303379144
 21
-23.6464041168131
 31
0.0
  0
LINE
  5
   30B
  8
0
  6
CONTINUOUS
 62
   253
 10
-34.6243013016703
 20
-25.1339032576281
 30
0.0
 11
-31.7543026806684
 21
-23.6464034424922
 31
0.0
  0
LINE
  5
   30C
  8
0
  6
CONTINUOUS
 62
   253
 10
-31.7543030778075
 20
-26.6214033092367
 30
0.0
 11
-34.6243016988094
 21
-25.1339034941008
 31
0.0
  0
LINE
  5
   30D
  8
0
  6
CONTINUOUS
 62
   253
 10
-17.7368037433284
 20
-21.896404295627
 30
0.0
 11
-33.8368020982402
 21
-21.896404295627
 31
0.0
  0
LINE
  5
   30E
  8
0
  6
CONTINUOUS
 62
   253
 10
-17.7368037433284
 20
-28.3714036340154
 30
0.0
 11
-33.8368020982402
 21
-28.3714036340154
 31
0.0
  0
LINE
  5
   30F
  8
0
  6
CONTINUOUS
 62
   253
 10
-17.7368037433284
 20
-22.2464042598642
 30
0.0
 11
-33.8368020982402
 21
-22.2464042598642
 31
0.0
  0
LINE
  5
   310
  8
0
  6
CONTINUOUS
 62
   253
 10
-17.7368037433284
 20
-28.0214036697782
 30
0.0
 11
-33.8368020982402
 21
-28.0214036697782
 31
0.0
  0
LINE
  5
   311
  8
0
  6
CONTINUOUS
 62
   212
 10
-38.1242183121085
 20
-25.1188538234045
 30
0.0
 11
-38.1218257342382
 21
-25.1039028818269
 31
0.0
  0
LINE
  5
   312
  8
0
  6
CONTINUOUS
 62
   212
 10
-38.123461673077
 20
-25.1236998700066
 30
0.0
 11
-38.1242200348139
 21
-25.1188586380897
 31
0.0
  0
ARC
  5
   313
  8
0
  6
CONTINUOUS
 62
   253
 10
-33.8367931442663
 20
-25.1339119448199
 30
0.0
 40
2.88751040360131
 50
90.0002154635732
 51
269.99979239382
  0
ARC
  5
   314
  8
0
  6
CONTINUOUS
 62
   253
 10
-17.7367338698909
 20
-25.1338449719878
 30
0.0
 40
2.88740980014256
 50
269.998670528618
 51
450.001337085033
  0
ARC
  5
   315
  8
0
  6
CONTINUOUS
 62
   253
 10
-17.7368108108929
 20
-25.1339159655321
 30
0.0
 40
3.23750961592477
 50
270.000071014136
 51
449.999851941332
  0
ARC
  5
   316
  8
0
  6
CONTINUOUS
 62
   253
 10
-0.149451319185749
 20
-23.0339305245326
 30
0.0
 40
3.50003008642377
 50
360.000408171145
 51
449.999687224272
  0
ARC
  5
   317
  8
0
  6
CONTINUOUS
 62
   253
 10
-0.149409763968638
 20
-27.2339310947936
 30
0.0
 40
3.49996683151764
 50
269.999625886224
 51
360.000495208613
  0
ARC
  5
   318
  8
0
  6
CONTINUOUS
 62
   253
 10
-33.8365913895749
 20
-25.1339186201727
 30
0.0
 40
3.23766956556554
 50
90.0037124837677
 51
269.996243749254
  0
ARC
  5
   319
  8
0
  6
CONTINUOUS
 62
   253
 10
-29.3064030654151
 20
-12.5338897098095
 30
0.0
 40
7.00001289713202
 50
234.341115437973
 51
269.999999948034
  0
ARC
  5
   31A
  8
0
  6
CONTINUOUS
 62
   253
 10
-29.3064384094884
 20
-37.7336765040719
 30
0.0
 40
6.99977226950215
 50
89.9999999480344
 51
125.659728516165
  0
ARC
  5
   31B
  8
0
  6
CONTINUOUS
 62
   253
 10
-34.2032746593866
 20
-30.9088902899038
 30
0.0
 40
1.40001070593149
 50
227.167359060545
 51
305.659728516165
  0
ARC
  5
   31C
  8
0
  6
CONTINUOUS
 62
   253
 10
-34.2032611343556
 20
-19.3589186008684
 30
0.0
 40
1.40001488729263
 50
414.341115437973
 51
492.832984108824
  0
ARC
  5
   31D
  8
0
  6
CONTINUOUS
 62
   253
 10
-28.8494258974567
 20
-25.1338624522984
 30
0.0
 40
9.27487028601404
 50
400.975915448473
 51
679.023494202201
  0
ARC
  5
   31E
  8
0
  6
CONTINUOUS
 62
   253
 10
-20.7901280740903
 20
-32.1339032495655
 30
0.0
 40
1.39999985694885
 50
89.9999999480344
 51
139.023494202201
  0
ARC
  5
   31F
  8
0
  6
CONTINUOUS
 62
   253
 10
-20.790055962019
 20
-18.1339046800769
 30
0.0
 40
1.39999985694885
 50
220.975915448474
 51
269.999999948034
  0
LINE
  5
   320
  8
0
  6
DASHDOT
 62
     7
 10
-28.8494258974567
 20
-35.1087326667869
 30
0.0
 11
-28.8494258974567
 21
-15.15899223781
 31
0.0
  0
LINE
  5
   321
  8
0
  6
DASHDOT
 62
     7
 10
4.10435656469523
 20
-25.1338624522984
 30
0.0
 11
-38.8242961119451
 21
-25.1338624522984
 31
0.0
  0
LINE
  5
   322
  8
0
  6
CONTINUOUS
 62
     7
 10
-40.924420309067
 20
-1.5088144397421
 30
0.0
 11
-50.1994006693385
 21
-1.5088144397421
 31
0.0
  0
LINE
  5
   323
  8
0
  6
CONTINUOUS
 62
     1
 10
-40.924420309067
 20
-1.68382329046598
 30
0.0
 11
-50.9869141608041
 21
-1.68382329046598
 31
0.0
  0
ARC
  5
   324
  8
0
  6
CONTINUOUS
 62
     1
 10
-38.8244071160581
 20
2.16623724942299
 30
0.0
 40
2.97505948189176
 50
289.749171808174
 51
315.098568474349
  0
ARC
  5
   325
  8
0
  6
CONTINUOUS
 62
     1
 10
-14.3244641107063
 20
2.16603468430552
 30
0.0
 40
2.97513823298993
 50
289.764934892616
 51
315.105491686916
  0
ARC
  5
   326
  8
0
  6
CONTINUOUS
 62
     1
 10
10.1755746449874
 20
2.16614696827403
 30
0.0
 40
2.97502416090334
 50
289.752422439401
 51
315.100341172749
  0
LINE
  5
   327
  8
0
  6
CONTINUOUS
 62
     1
 10
-40.924420309067
 20
-62.9338170528399
 30
0.0
 11
-50.9869141608041
 21
-62.9338170528399
 31
0.0
  0
LINE
  5
   328
  8
0
  6
CONTINUOUS
 62
     1
 10
-40.924420309067
 20
-63.2838169962155
 30
0.0
 11
-50.6369142174285
 21
-63.2838169962155
 31
0.0
  0
TEXT
  5
   329
  8
0
  6
CONTINUOUS
 62
     7
 10
35.2681681071797
 20
-50.1573714522525
 30
0.0
 40
3.00000001532688
  1
=         =
 50
89.9999999480344
 41
0.916666616797451
 72
     1
 11
33.7681681129661
 21
-35.3073721814767
 31
0.0
 73
     2
  0
TEXT
  5
   32A
  8
0
  6
CONTINUOUS
 62
     7
 10
-29.8047225926204
 20
22.4409368347929
 30
0.0
 40
3.00000001532688
  1
=         =
 50
359.999999948034
 41
0.916666616797451
 72
     1
 11
-14.9547233218502
 21
23.9409368290624
 31
0.0
 73
     2
  0
INSERT
  5
   32B
  8
0
  6
CONTINUOUS
 62
     7
  2
*UDIM35
 10
0.0
 20
0.0
 30
0.0
  0
INSERT
  5
   32C
  8
0
  6
CONTINUOUS
 62
     7
  2
*UDIM36
 10
0.0
 20
0.0
 30
0.0
  0
TEXT
  5
   32D
  8
0
  6
CONTINUOUS
 62
     7
 10
-58.1962771495092
 20
-44.3738464041184
 30
0.0
 40
3.00000001532688
  1
=     =
 50
89.9999999480344
 41
0.916666616797451
 72
     2
 11
-58.1962771325724
 21
-25.6738473230519
 31
0.0
  0
INSERT
  5
   32E
  8
0
  6
CONTINUOUS
 62
     7
  2
*UDIM37
 10
0.0
 20
0.0
 30
0.0
  0
INSERT
  5
   32F
  8
0
  6
CONTINUOUS
 62
     7
  2
*UDIM38
 10
0.0
 20
0.0
 30
0.0
  0
TEXT
  5
   330
  8
0
  6
CONTINUOUS
 62
     7
 10
-29.155743112596
 20
12.817494942803
 30
0.0
 40
3.00000001532688
  1
=         =
 50
359.999999948034
 41
0.916666616797451
 72
     2
 11
0.544255426238482
 21
12.8174949160152
 31
0.0
  0
INSERT
  5
   331
  8
0
  6
CONTINUOUS
 62
     7
  2
*UDIM39
 10
0.0
 20
0.0
 30
0.0
  0
INSERT
  5
   332
  8
0
  6
CONTINUOUS
 62
     7
  2
*UDIM40
 10
0.0
 20
0.0
 30
0.0
  0
INSERT
  5
   333
  8
0
  6
CONTINUOUS
 62
     7
  2
*UDIM41
 10
0.0
 20
0.0
 30
0.0
  0
TEXT
  5
   334
  8
0
  6
CONTINUOUS
 62
     7
 10
-13.7148683256272
 20
43.1343468788507
 30
0.0
 40
3.00000001532688
  1
Y
 50
359.999999948034
 41
0.916666616797451
 72
     2
 11
-11.5148684312126
 21
43.1343468768664
 31
0.0
  0
TEXT
  5
   335
  8
0
  6
CONTINUOUS
 62
     7
 10
47.8253823633081
 20
-36.4831815306777
 30
0.0
 40
3.00000001532688
  1
X
 50
359.999999948034
 41
0.916666616797451
 72
     2
 11
50.0253822577227
 21
-36.483181532662
 31
0.0
  0
TEXT
  5
   336
  8
0
  6
CONTINUOUS
 62
     7
 10
-87.6211858280926
 20
-35.2601897122829
 30
0.0
 40
3.00000001532688
  1
X
 50
359.999999948034
 41
0.916666616797451
 72
     2
 11
-85.421185933678
 21
-35.2601897142672
 31
0.0
  0
TEXT
  5
   337
  8
0
  6
CONTINUOUS
 62
     7
 10
-15.3520178890871
 20
-104.413930101267
 30
0.0
 40
3.00000001532688
  1
Y
 50
359.999999948034
 41
0.916666616797451
 72
     2
 11
-13.1520179946725
 21
-104.413930103252
 31
0.0
  0
INSERT
  5
   338
  8
255
  6
CONTINUOUS
 62
     7
  2
MOSTRA
 10
-14.3244176864632
 20
-60.3963151216493
 30
0.0
 41
0.349999964237213
 42
0.349999964237213
 50
359.999999792138
 43
0.349999964237213
  0
LINE
  5
   339
  8
0
  6
CONTINUOUS
 62
   130
 10
93.8649210058757
 20
-6.52156122607214
 30
0.0
 11
94.0399263232785
 21
-6.47467097587998
 31
0.0
  0
LINE
  5
   33A
  8
0
  6
CONTINUOUS
 62
   130
 10
93.8649168858664
 20
-9.27129837924062
 30
0.0
 11
94.0399275478851
 21
-9.31819396417915
 31
0.0
  0
LINE
  5
   33B
  8
0
  6
CONTINUOUS
 62
   130
 10
109.352439617013
 20
-18.571480053996
 30
0.0
 11
109.439934265154
 21
-18.6589800419793
 31
0.0
  0
LINE
  5
   33C
  8
0
  6
CONTINUOUS
 62
   130
 10
109.439943248034
 20
-55.2339520961041
 30
0.0
 11
109.439943248034
 21
-18.6589771956178
 31
0.0
  0
LINE
  5
   33D
  8
0
  6
CONTINUOUS
 62
   130
 10
106.534937136174
 20
1.02854749560356
 30
0.0
 11
106.639938193561
 21
1.02854749560356
 31
0.0
  0
LINE
  5
   33E
  8
0
  6
CONTINUOUS
 62
   130
 10
106.534937136174
 20
-0.371452361345291
 30
0.0
 11
106.639938193561
 21
-0.371452361345291
 31
0.0
  0
LINE
  5
   33F
  8
0
  6
DASHDOT
 62
     2
 10
55.204852975057
 20
-34.9338119580575
 30
0.0
 11
158.504192367038
 21
-34.9340985444109
 31
0.0
  0
LINE
  5
   340
  8
0
  6
CONTINUOUS
 62
   212
 10
124.31474342989
 20
-15.8611984803462
 30
0.0
 11
124.31474342989
 21
-10.7840051881466
 31
0.0
  0
LINE
  5
   341
  8
0
  6
CONTINUOUS
 62
   212
 10
124.314635610478
 20
-10.9590228992818
 30
0.0
 11
124.314745092276
 21
-11.4838145631816
 31
0.0
  0
LINE
  5
   342
  8
0
  6
CONTINUOUS
 62
     7
 10
106.534758690342
 20
1.20140755873411
 30
0.0
 11
106.639758579477
 21
1.20140755873411
 31
0.0
  0
LINE
  5
   343
  8
0
  6
CONTINUOUS
 62
     7
 10
109.064129823512
 20
-49.5229601248816
 30
0.0
 11
109.089757942776
 21
-49.4610882226091
 31
0.0
  0
LINE
  5
   344
  8
0
  6
CONTINUOUS
 62
     1
 10
122.389743626585
 20
-51.2965127876356
 30
0.0
 11
122.389743626585
 21
-50.5965128591612
 31
0.0
  0
LINE
  5
   345
  8
0
  6
CONTINUOUS
 62
     1
 10
122.389743626585
 20
-62.9339954901109
 30
0.0
 11
123.08974355506
 21
-62.9339954901109
 31
0.0
  0
LINE
  5
   346
  8
0
  6
CONTINUOUS
 62
     1
 10
122.389743626585
 20
-13.4965179851605
 30
0.0
 11
122.389743626585
 21
-12.7965180566861
 31
0.0
  0
LINE
  5
   347
  8
0
  6
CONTINUOUS
 62
     1
 10
122.389743626585
 20
-6.93400315399832
 30
0.0
 11
123.08974355506
 21
-6.93400315399832
 31
0.0
  0
LINE
  5
   348
  8
0
  6
CONTINUOUS
 62
     1
 10
122.389743626585
 20
-50.5965128591612
 30
0.0
 11
122.389743626585
 21
-13.4965166500166
 31
0.0
  0
LINE
  5
   349
  8
0
  6
CONTINUOUS
 62
     1
 10
123.08974355506
 20
-60.2215132108285
 30
0.0
 11
123.08974355506
 21
-3.87151896863716
 31
0.0
  0
LINE
  5
   34A
  8
0
  6
CONTINUOUS
 62
     1
 10
123.08974355506
 20
-71.8589945781598
 30
0.0
 11
124.31474342989
 21
-71.8589945781598
 31
0.0
  0
LINE
  5
   34B
  8
0
  6
CONTINUOUS
 62
     1
 10
124.31474342989
 20
-71.8589945781598
 30
0.0
 11
124.31474342989
 21
1.99099593405062
 31
0.0
  0
LINE
  5
   34C
  8
0
  6
CONTINUOUS
 62
     1
 10
123.08974355506
 20
1.99099593405062
 30
0.0
 11
123.614743501415
 21
1.99099593405062
 31
0.0
  0
LINE
  5
   34D
  8
0
  6
CONTINUOUS
 62
     1
 10
123.964743465653
 20
1.99099593405062
 30
0.0
 11
124.31474342989
 21
1.99099593405062
 31
0.0
  0
LINE
  5
   34E
  8
0
  6
CONTINUOUS
 62
     1
 10
123.614743501415
 20
1.99099593405062
 30
0.0
 11
123.964743465653
 21
1.99099593405062
 31
0.0
  0
LINE
  5
   34F
  8
0
  6
CONTINUOUS
 62
     7
 10
123.08974355506
 20
-3.87151896863716
 30
0.0
 11
123.08974355506
 21
21.5735799956734
 31
0.0
  0
LINE
  5
   350
  8
0
  6
CONTINUOUS
 62
     7
 10
123.08974355506
 20
-93.9780783407744
 30
0.0
 11
123.08974355506
 21
-60.2215118756846
 31
0.0
  0
LINE
  5
   351
  8
0
  6
CONTINUOUS
 62
     7
 10
119.945606841432
 20
-94.8920715714803
 30
0.0
 11
125.534390972149
 21
-93.2674250218531
 31
0.0
  0
LINE
  5
   352
  8
0
  6
CONTINUOUS
 62
     7
 10
120.660451323268
 20
23.1222537934409
 30
0.0
 11
125.859320282075
 21
19.8079748322014
 31
0.0
  0
LINE
  5
   353
  8
0
  6
CONTINUOUS
 62
     7
 10
122.389743626585
 20
-63.2839954543481
 30
0.0
 11
123.08974355506
 21
-63.2839954543481
 31
0.0
  0
LINE
  5
   354
  8
0
  6
CONTINUOUS
 62
     7
 10
122.389743626585
 20
-6.58400318976111
 30
0.0
 11
123.08974355506
 21
-6.58400318976111
 31
0.0
  0
LINE
  5
   355
  8
0
  6
CONTINUOUS
 62
     7
 10
122.389743626585
 20
-12.7965180566861
 30
0.0
 11
122.389743626585
 21
22.0198299500759
 31
0.0
  0
LINE
  5
   356
  8
0
  6
CONTINUOUS
 62
     7
 10
122.389743626585
 20
-94.1815666920751
 30
0.0
 11
122.389743626585
 21
-51.2965127876356
 31
0.0
  0
INSERT
  5
   357
  8
0
  6
CONTINUOUS
 62
     7
  2
*HATCH7
 10
60.2649536132813
 20
-60.3964462280273
 30
0.0
 41
0.349999964237213
 42
0.349999964237213
 43
0.349999964237213
  0
INSERT
  5
   358
  8
0
  6
CONTINUOUS
 62
     7
  2
*HATCH8
 10
60.2649536132813
 20
-60.3964462280273
 30
0.0
 41
0.349999964237213
 42
0.349999964237213
 43
0.349999964237213
  0
LINE
  5
   359
  8
0
  6
CONTINUOUS
 62
     7
 10
119.064744633904
 20
-9.90900090796632
 30
0.0
 11
119.939746547212
 21
-9.90900090796632
 31
0.0
  0
LINE
  5
   35A
  8
0
  6
CONTINUOUS
 62
     7
 10
119.064744633904
 20
-9.90900090796632
 30
0.0
 11
119.064744633904
 21
-6.23400128347559
 31
0.0
  0
LINE
  5
   35B
  8
0
  6
CONTINUOUS
 62
     7
 10
120.28974651145
 20
-5.00900140864534
 30
0.0
 11
121.164746422043
 21
-5.00900140864534
 31
0.0
  0
LINE
  5
   35C
  8
0
  6
CONTINUOUS
 62
     7
 10
121.51474638628
 20
-4.65900144440813
 30
0.0
 11
121.51474638628
 21
-1.85900173051042
 31
0.0
  0
LINE
  5
   35D
  8
0
  6
CONTINUOUS
 62
     7
 10
121.51474638628
 20
-1.85900173051042
 30
0.0
 11
122.389743626585
 21
-1.85900173051042
 31
0.0
  0
LINE
  5
   35E
  8
0
  6
CONTINUOUS
 62
     7
 10
122.389743626585
 20
-4.65900144440813
 30
0.0
 11
122.389743626585
 21
-1.85900173051042
 31
0.0
  0
LINE
  5
   35F
  8
0
  6
CONTINUOUS
 62
     7
 10
120.28974651145
 20
-5.88400131923837
 30
0.0
 11
121.164746422043
 21
-5.88400131923837
 31
0.0
  0
LINE
  5
   360
  8
0
  6
CONTINUOUS
 62
     7
 10
119.939746547212
 20
-9.90900090796632
 30
0.0
 11
119.939746547212
 21
-6.23400128347559
 31
0.0
  0
ARC
  5
   361
  8
0
  6
CONTINUOUS
 62
     7
 10
121.164747873591
 20
-4.65900167937666
 30
0.0
 40
0.349998906467009
 50
269.99984089121
 51
360.00025299209
  0
ARC
  5
   362
  8
0
  6
CONTINUOUS
 62
     7
 10
120.289751640177
 20
-6.2340057236817
 30
0.0
 40
1.22500633342002
 50
90.000186890172
 51
179.999680705376
  0
ARC
  5
   363
  8
0
  6
CONTINUOUS
 62
     7
 10
120.289731024599
 20
-6.23398697030321
 30
0.0
 40
0.349982401674234
 50
89.997764198722
 51
180.00116981594
  0
ARC
  5
   364
  8
0
  6
CONTINUOUS
 62
     7
 10
121.164753195376
 20
-4.65901266083397
 30
0.0
 40
1.22498974441176
 50
269.999653399338
 51
360.000420324806
  0
LINE
  5
   365
  8
0
  6
CONTINUOUS
 62
     7
 10
119.064744633904
 20
-6.75900122983141
 30
0.0
 11
119.939746547212
 21
-6.75900122983141
 31
0.0
  0
INSERT
  5
   366
  8
0
  6
CONTINUOUS
 62
     7
  2
*HATCH9
 10
60.2649536132813
 20
-60.3964462280273
 30
0.0
 41
0.349999964237213
 42
0.349999964237213
 43
0.349999964237213
  0
LINE
  5
   367
  8
0
  6
CONTINUOUS
 62
     7
 10
120.46474382328
 20
-7.98399576408762
 30
0.0
 11
121.164743751755
 21
-7.98399770611772
 31
0.0
  0
LINE
  5
   368
  8
0
  6
CONTINUOUS
 62
     7
 10
121.164743751755
 20
-10.4339974557877
 30
0.0
 11
121.164743751755
 21
-7.98399770611772
 31
0.0
  0
LINE
  5
   369
  8
0
  6
CONTINUOUS
 62
     7
 10
120.46474382328
 20
-10.4339974557877
 30
0.0
 11
120.46474382328
 21
-7.98399770611772
 31
0.0
  0
LINE
  5
   36A
  8
0
  6
CONTINUOUS
 62
   130
 10
73.5649683177468
 20
-34.4089411153832
 30
0.0
 11
73.5649683177468
 21
-29.8589415802994
 31
0.0
  0
LINE
  5
   36B
  8
0
  6
CONTINUOUS
 62
   130
 10
73.2149686455723
 20
3.21605504011723
 30
0.0
 11
74.0899682223793
 21
3.21605504011723
 31
0.0
  0
LINE
  5
   36C
  8
0
  6
CONTINUOUS
 62
   130
 10
73.2149686455723
 20
-0.283949942830532
 30
0.0
 11
74.0899682223793
 21
-0.283949942830532
 31
0.0
  0
LINE
  5
   36D
  8
0
  6
CONTINUOUS
 62
   130
 10
73.2149686455723
 20
-0.283949942830532
 30
0.0
 11
73.2149686455723
 21
0.183884482022677
 31
0.0
  0
LINE
  5
   36E
  8
0
  6
CONTINUOUS
 62
   130
 10
73.2149686455723
 20
0.183916525476434
 30
0.0
 11
73.2149686455723
 21
0.788758077443617
 31
0.0
  0
LINE
  5
   36F
  8
0
  6
CONTINUOUS
 62
   130
 10
73.2149686455723
 20
0.788800802048627
 30
0.0
 11
73.2149686455723
 21
3.21605470633125
 31
0.0
  0
LINE
  5
   370
  8
0
  6
CONTINUOUS
 62
     3
 10
73.7399682581421
 20
-62.5839385702648
 30
0.0
 11
74.0899682015177
 21
-62.5839385702648
 31
0.0
  0
LINE
  5
   371
  8
0
  6
CONTINUOUS
 62
   130
 10
73.7399682581421
 20
-57.3339441134963
 30
0.0
 11
73.7399682581421
 21
-54.3589390769043
 31
0.0
  0
LINE
  5
   372
  8
0
  6
CONTINUOUS
 62
     3
 10
73.7399682581421
 20
-34.1617472319499
 30
0.0
 11
73.7399682581421
 21
-29.8589415802994
 31
0.0
  0
LINE
  5
   373
  8
0
  6
CONTINUOUS
 62
   130
 10
73.739968258142
 20
-5.35894407695114
 30
0.0
 11
74.0899682223794
 21
-5.35894941752677
 31
0.0
  0
LINE
  5
   374
  8
0
  6
CONTINUOUS
 62
   130
 10
74.0899682223794
 20
-5.35894942427012
 30
0.0
 11
74.0899682223794
 21
6.89104932403234
 31
0.0
  0
LINE
  5
   375
  8
0
  6
CONTINUOUS
 62
     3
 10
74.0899682015177
 20
-62.5839385702648
 30
0.0
 11
89.6523948950497
 21
-62.5839385702648
 31
0.0
  0
LINE
  5
   376
  8
0
  6
CONTINUOUS
 62
     3
 10
99.6574606031181
 20
5.84105477189632
 30
0.0
 11
101.039949426056
 21
5.84105477189632
 31
0.0
  0
LINE
  5
   377
  8
0
  6
CONTINUOUS
 62
   130
 10
73.7399669365725
 20
-39.5557688743582
 30
0.0
 11
74.0899682223794
 21
-39.4619895668323
 31
0.0
  0
LINE
  5
   378
  8
0
  6
CONTINUOUS
 62
     3
 10
73.7399708357376
 20
-34.1617521972829
 30
0.0
 11
76.6217741165937
 21
-34.9339565312425
 31
0.0
  0
LINE
  5
   379
  8
0
  6
CONTINUOUS
 62
     3
 10
74.9649457025535
 20
-34.9339565017675
 30
0.0
 11
106.884942440987
 21
-34.9339413441752
 31
0.0
  0
LINE
  5
   37A
  8
0
  6
CONTINUOUS
 62
     3
 10
74.9649457025535
 20
-38.7839667895613
 30
0.0
 11
106.884942440987
 21
-38.7839516328217
 31
0.0
  0
LINE
  5
   37B
  8
0
  6
CONTINUOUS
 62
   130
 10
74.0899682223794
 20
-39.4620068527261
 30
0.0
 11
74.0899682223794
 21
-34.4089411153832
 31
0.0
  0
LINE
  5
   37C
  8
0
  6
DASHDOT
 62
   130
 10
73.2149683117863
 20
-62.5839382364788
 30
0.0
 11
73.2149683117863
 21
14.1536584014746
 31
0.0
  0
LINE
  5
   37D
  8
0
  6
CONTINUOUS
 62
   130
 10
73.2149683117863
 20
-57.3339387729206
 30
0.0
 11
73.7399679243562
 21
-57.3339387729206
 31
0.0
  0
LINE
  5
   37E
  8
0
  6
CONTINUOUS
 62
     3
 10
73.2149684230481
 20
-62.5839382364788
 30
0.0
 11
73.7399683694039
 21
-62.5839385702648
 31
0.0
  0
LINE
  5
   37F
  8
0
  6
CONTINUOUS
 62
     3
 10
89.6523864738204
 20
-62.583940163303
 30
0.0
 11
89.8399474748253
 21
-63.283939727046
 31
0.0
  0
LINE
  5
   380
  8
0
  6
CONTINUOUS
 62
     3
 10
89.6649612903597
 20
-63.2839381649533
 30
0.0
 11
101.039944106342
 21
-63.2839381649533
 31
0.0
  0
LINE
  5
   381
  8
0
  6
CONTINUOUS
 62
     3
 10
99.1149443030376
 20
-38.8714620217102
 30
0.0
 11
99.1149443030376
 21
-38.7839513494996
 31
0.0
  0
LINE
  5
   382
  8
0
  6
CONTINUOUS
 62
     3
 10
99.1149443030376
 20
-34.933941061739
 30
0.0
 11
99.1149443030376
 21
-34.8464624329822
 31
0.0
  0
LINE
  5
   383
  8
0
  6
CONTINUOUS
 62
     3
 10
99.1149443030376
 20
-34.8464624329822
 30
0.0
 11
106.884942440987
 21
-34.8464624329822
 31
0.0
  0
LINE
  5
   384
  8
0
  6
CONTINUOUS
 62
     3
 10
99.1149409043683
 20
-38.8714639624209
 30
0.0
 11
106.884942440987
 21
-38.8715070751983
 31
0.0
  0
LINE
  5
   385
  8
0
  6
CONTINUOUS
 62
     1
 10
73.2149699807162
 20
-53.3526892487816
 30
0.0
 11
73.2149699807162
 21
-50.815200189213
 31
0.0
  0
LINE
  5
   386
  8
0
  6
CONTINUOUS
 62
   130
 10
73.5649682753549
 20
-49.8089395418206
 30
0.0
 11
73.7399682574735
 21
-49.8089395418206
 31
0.0
  0
LINE
  5
   387
  8
0
  6
CONTINUOUS
 62
   130
 10
73.5649682753549
 20
-54.3589390769043
 30
0.0
 11
73.7399682574735
 21
-54.3589390769043
 31
0.0
  0
LINE
  5
   388
  8
0
  6
CONTINUOUS
 62
   130
 10
73.5649686098095
 20
-29.8589415802994
 30
0.0
 11
73.7399689257141
 21
-29.8589415802994
 31
0.0
  0
LINE
  5
   389
  8
0
  6
CONTINUOUS
 62
   130
 10
73.5649685889479
 20
-34.4089411153832
 30
0.0
 11
74.0899682015177
 21
-34.4089411153832
 31
0.0
  0
LINE
  5
   38A
  8
0
  6
CONTINUOUS
 62
     1
 10
73.2149683117863
 20
-50.8152001201538
 30
0.0
 11
73.5649702787394
 21
-50.8152001201538
 31
0.0
  0
LINE
  5
   38B
  8
0
  6
CONTINUOUS
 62
     1
 10
73.2149686455723
 20
-53.3526891797223
 30
0.0
 11
73.5649702787394
 21
-53.3526891797223
 31
0.0
  0
LINE
  5
   38C
  8
0
  6
CONTINUOUS
 62
     3
 10
108.73994331956
 20
-63.2839541866801
 30
0.0
 11
108.73994331956
 21
-55.3214550002835
 31
0.0
  0
LINE
  5
   38D
  8
0
  6
CONTINUOUS
 62
     3
 10
108.73994331956
 20
-18.5714640959518
 30
0.0
 11
108.73994331956
 21
-1.68396582150626
 31
0.0
  0
LINE
  5
   38E
  8
0
  6
CONTINUOUS
 62
     3
 10
106.989943498374
 20
-1.68396582150626
 30
0.0
 11
108.73994331956
 21
-1.68396582150626
 31
0.0
  0
LINE
  5
   38F
  8
0
  6
CONTINUOUS
 62
     3
 10
106.989943498374
 20
-63.2839541866801
 30
0.0
 11
108.73994331956
 21
-63.2839541866801
 31
0.0
  0
LINE
  5
   390
  8
0
  6
CONTINUOUS
 62
     3
 10
109.439943248034
 20
-55.3214550002835
 30
0.0
 11
109.439943248034
 21
-18.5714640959518
 31
0.0
  0
LINE
  5
   391
  8
0
  6
CONTINUOUS
 62
     3
 10
108.73994331956
 20
-55.3214550002835
 30
0.0
 11
109.439943248034
 21
-55.3214550002835
 31
0.0
  0
LINE
  5
   392
  8
0
  6
CONTINUOUS
 62
     3
 10
108.73994331956
 20
-18.5714640959518
 30
0.0
 11
109.439943248034
 21
-18.5714640959518
 31
0.0
  0
LINE
  5
   393
  8
0
  6
CONTINUOUS
 62
     3
 10
99.9899442136293
 20
-28.458949021624
 30
0.0
 11
99.9899442136293
 21
-2.49029694448387
 31
0.0
  0
LINE
  5
   394
  8
0
  6
CONTINUOUS
 62
     3
 10
99.9899433715079
 20
-28.4589488812662
 30
0.0
 11
101.039943565734
 21
-28.6339541798397
 31
0.0
  0
LINE
  5
   395
  8
0
  6
CONTINUOUS
 62
     3
 10
99.9899438805369
 20
-28.4589514571708
 30
0.0
 11
99.9899442143229
 21
-28.2839568154649
 31
0.0
  0
LINE
  5
   396
  8
0
  6
CONTINUOUS
 62
     3
 10
99.989943546099
 20
-3.95895585408015
 30
0.0
 11
99.989943879885
 21
-4.13395583619876
 31
0.0
  0
LINE
  5
   397
  8
0
  6
CONTINUOUS
 62
     3
 10
74.0899682223794
 20
5.84106152575654
 30
0.0
 11
107.409938690014
 21
5.84103359045578
 31
0.0
  0
LINE
  5
   398
  8
0
  6
CONTINUOUS
 62
     3
 10
101.039944106341
 20
6.89104932403234
 30
0.0
 11
107.689943426848
 21
6.89104932403234
 31
0.0
  0
LINE
  5
   399
  8
0
  6
CONTINUOUS
 62
     3
 10
101.039944106341
 20
-63.2839381649533
 30
0.0
 11
106.989938157798
 21
-63.2839381649533
 31
0.0
  0
LINE
  5
   39A
  8
0
  6
CONTINUOUS
 62
     3
 10
101.039944106341
 20
-62.5839435770545
 30
0.0
 11
106.884942440987
 21
-62.5839435770545
 31
0.0
  0
LINE
  5
   39B
  8
0
  6
CONTINUOUS
 62
     3
 10
107.689943426848
 20
-1.68396582150626
 30
0.0
 11
107.689943426848
 21
-1.50896049881203
 31
0.0
  0
LINE
  5
   39C
  8
0
  6
CONTINUOUS
 62
     3
 10
101.039944106341
 20
-63.2839381649533
 30
0.0
 11
101.039944106341
 21
-38.8714746435301
 31
0.0
  0
LINE
  5
   39D
  8
0
  6
CONTINUOUS
 62
     3
 10
101.039944106341
 20
-2.20895943489824
 30
0.0
 11
101.039944106341
 21
6.89104932403234
 31
0.0
  0
LINE
  5
   39E
  8
0
  6
CONTINUOUS
 62
     3
 10
107.689943426848
 20
6.89104932403234
 30
0.0
 11
107.864943408967
 21
6.89104932403234
 31
0.0
  0
LINE
  5
   39F
  8
0
  6
CONTINUOUS
 62
     3
 10
107.689943426848
 20
-1.50896049881203
 30
0.0
 11
107.864943408967
 21
-1.50896049881203
 31
0.0
  0
LINE
  5
   3A0
  8
0
  6
CONTINUOUS
 62
     3
 10
107.864943408967
 20
-1.50896049881203
 30
0.0
 11
107.864943408967
 21
6.89104932403234
 31
0.0
  0
LINE
  5
   3A1
  8
0
  6
CONTINUOUS
 62
     3
 10
106.884942440987
 20
-34.8464624329822
 30
0.0
 11
106.884942440987
 21
-1.50897117996328
 31
0.0
  0
LINE
  5
   3A2
  8
0
  6
CONTINUOUS
 62
     3
 10
106.884942440987
 20
-62.5839435770545
 30
0.0
 11
106.884942440987
 21
-38.8715070751983
 31
0.0
  0
LINE
  5
   3A3
  8
0
  6
CONTINUOUS
 62
     3
 10
106.88493872686
 20
-1.50896634088677
 30
0.0
 11
107.689939712721
 21
-1.5089610003112
 31
0.0
  0
LINE
  5
   3A4
  8
0
  6
CONTINUOUS
 62
     3
 10
107.409942387343
 20
-1.50897117996328
 30
0.0
 11
107.409942387343
 21
5.84103875016945
 31
0.0
  0
LINE
  5
   3A5
  8
0
  6
CONTINUOUS
 62
     3
 10
107.689938086272
 20
-1.68395514035501
 30
0.0
 11
108.73994331956
 21
-1.68395514035501
 31
0.0
  0
LINE
  5
   3A6
  8
0
  6
CONTINUOUS
 62
     3
 10
108.73994331956
 20
-18.5714534148005
 30
0.0
 11
109.439943248034
 21
-18.5714534148005
 31
0.0
  0
LINE
  5
   3A7
  8
0
  6
CONTINUOUS
 62
     3
 10
106.989943498374
 20
-63.2839541866801
 30
0.0
 11
106.989943498374
 21
-1.68396582150626
 31
0.0
  0
LINE
  5
   3A8
  8
0
  6
CONTINUOUS
 62
     3
 10
99.9899434820171
 20
-2.49030122694618
 30
0.0
 11
101.039943022009
 21
-2.20895972543885
 31
0.0
  0
LINE
  5
   3A9
  8
0
  6
CONTINUOUS
 62
     3
 10
106.884944076461
 20
-42.8264608745136
 30
0.0
 11
106.989945130422
 21
-42.8449746424907
 31
0.0
  0
LINE
  5
   3AA
  8
0
  6
CONTINUOUS
 62
     3
 10
106.884944352856
 20
-62.5839382233884
 30
0.0
 11
106.989940064202
 21
-62.6530345866219
 31
0.0
  0
LINE
  5
   3AB
  8
0
  6
CONTINUOUS
 62
     3
 10
106.884940716482
 20
-30.8914585946097
 30
0.0
 11
106.989941770172
 21
-30.8729428203872
 31
0.0
  0
LINE
  5
   3AC
  8
0
  6
CONTINUOUS
 62
     3
 10
106.884940985653
 20
-4.54633041913522
 30
0.0
 11
106.989936696576
 21
-4.5910310310317
 31
0.0
  0
LINE
  5
   3AD
  8
0
  6
CONTINUOUS
 62
     3
 10
106.884946694226
 20
-3.02156901952846
 30
0.0
 11
106.989942410568
 21
-2.97687374791844
 31
0.0
  0
LINE
  5
   3AE
  8
0
  6
CONTINUOUS
 62
     2
 10
73.2149683117863
 20
-83.2339414670503
 30
0.0
 11
73.9149628996851
 21
-83.2339414670503
 31
0.0
  0
LINE
  5
   3AF
  8
0
  6
CONTINUOUS
 62
     2
 10
73.2149683117863
 20
-83.2339414670503
 30
0.0
 11
73.2149683117863
 21
-79.7339471652538
 31
0.0
  0
LINE
  5
   3B0
  8
0
  6
CONTINUOUS
 62
     3
 10
92.8550653557204
 20
-85.9289414587056
 30
0.0
 11
106.884958462715
 21
-85.9289414587056
 31
0.0
  0
LINE
  5
   3B1
  8
0
  6
CONTINUOUS
 62
     2
 10
89.8355552975867
 20
-86.90894109154
 30
0.0
 11
107.864959430695
 21
-86.90894109154
 31
0.0
  0
LINE
  5
   3B2
  8
0
  6
CONTINUOUS
 62
     3
 10
73.2149629712107
 20
-62.7589435591733
 30
0.0
 11
89.6649612903597
 21
-62.7589435591733
 31
0.0
  0
LINE
  5
   3B3
  8
0
  6
CONTINUOUS
 62
     2
 10
107.864959430695
 20
-86.908941091541
 30
0.0
 11
107.864959430695
 21
-78.5089472904235
 31
0.0
  0
LINE
  5
   3B4
  8
0
  6
CONTINUOUS
 62
     2
 10
73.2149629712107
 20
-90.6784452299084
 30
0.0
 11
73.2149629712107
 21
-62.7589435591733
 31
0.0
  0
LINE
  5
   3B5
  8
0
  6
CONTINUOUS
 62
     2
 10
106.884959797859
 20
-78.5089472904235
 30
0.0
 11
107.864959430695
 21
-78.5089472904235
 31
0.0
  0
LINE
  5
   3B6
  8
0
  6
CONTINUOUS
 62
     3
 10
106.884959797859
 20
-85.9289401235617
 30
0.0
 11
106.884959797859
 21
-78.5089472904235
 31
0.0
  0
LINE
  5
   3B7
  8
0
  6
CONTINUOUS
 62
     3
 10
89.6649612903597
 20
-63.2839488461047
 30
0.0
 11
89.6649612903597
 21
-62.7589435591733
 31
0.0
  0
LINE
  5
   3B8
  8
0
  6
CONTINUOUS
 62
     2
 10
106.884959797859
 20
-77.1089474334747
 30
0.0
 11
106.884959797859
 21
-63.2839488461047
 31
0.0
  0
LINE
  5
   3B9
  8
0
  6
CONTINUOUS
 62
     3
 10
93.4274609059098
 20
-86.9089410915402
 30
0.0
 11
93.4274609059098
 21
-85.9289414587048
 31
0.0
  0
LINE
  5
   3BA
  8
0
  6
CONTINUOUS
 62
     2
 10
73.9149628996851
 20
-86.90894109154
 30
0.0
 11
73.9149628996851
 21
-83.2339414670503
 31
0.0
  0
LINE
  5
   3BB
  8
0
  6
CONTINUOUS
 62
     3
 10
93.3443829114689
 20
-86.9089410915404
 30
0.0
 11
93.3443829114689
 21
-85.9289424600629
 31
0.0
  0
LINE
  5
   3BC
  8
0
  6
CONTINUOUS
 62
     7
 10
108.739959608317
 20
-77.1089476032054
 30
0.0
 11
108.739959608317
 21
-63.4589489979541
 31
0.0
  0
LINE
  5
   3BD
  8
0
  6
CONTINUOUS
 62
     7
 10
106.884959797859
 20
-63.4589489979541
 30
0.0
 11
108.739959608317
 21
-63.4589489979541
 31
0.0
  0
LINE
  5
   3BE
  8
0
  6
CONTINUOUS
 62
     7
 10
106.884959797859
 20
-77.1089476032054
 30
0.0
 11
108.739959608317
 21
-77.1089476032054
 31
0.0
  0
LINE
  5
   3BF
  8
0
  6
CONTINUOUS
 62
     7
 10
107.864959697724
 20
-77.1089476032054
 30
0.0
 11
107.864959697724
 21
-63.4589489979541
 31
0.0
  0
LINE
  5
   3C0
  8
0
  6
CONTINUOUS
 62
     3
 10
101.039944106341
 20
-34.8464624329822
 30
0.0
 11
101.039944106341
 21
-28.6339684083473
 31
0.0
  0
LINE
  5
   3C1
  8
0
  6
CONTINUOUS
 62
     3
 10
106.884942440987
 20
-38.7839516328217
 30
0.0
 11
106.884942440987
 21
-34.9339413441752
 31
0.0
  0
LINE
  5
   3C2
  8
0
  6
CONTINUOUS
 62
     3
 10
74.9649457025535
 20
-38.7839516328217
 30
0.0
 11
74.9649457025535
 21
-34.9339565017675
 31
0.0
  0
LINE
  5
   3C3
  8
0
  6
CONTINUOUS
 62
     7
 10
74.1074672654248
 20
6.89104855982352
 30
0.0
 11
78.6574668005098
 21
6.89104446046568
 31
0.0
  0
LINE
  5
   3C4
  8
0
  6
CONTINUOUS
 62
   130
 10
78.6574604123814
 20
6.89104932403234
 30
0.0
 11
101.039965468645
 21
6.89104932403234
 31
0.0
  0
LINE
  5
   3C5
  8
0
  6
DASHDOT
 62
     7
 10
72.1649630784991
 20
-91.0879456347185
 30
0.0
 11
72.1649630784991
 21
12.2178383060087
 31
0.0
  0
LINE
  5
   3C6
  8
0
  6
CONTINUOUS
 62
     3
 10
74.0899682223794
 20
-39.4619895668323
 30
0.0
 11
76.620498159291
 21
-38.7839596429991
 31
0.0
  0
LINE
  5
   3C7
  8
0
  6
CONTINUOUS
 62
     3
 10
74.0899682223794
 20
-34.4089411153832
 30
0.0
 11
74.0899682223794
 21
-34.2555330805212
 31
0.0
  0
LINE
  5
   3C8
  8
0
  6
CONTINUOUS
 62
   130
 10
73.7399682581421
 20
-29.8589415802994
 30
0.0
 11
73.7399682581421
 21
-5.3589440836945
 31
0.0
  0
LINE
  5
   3C9
  8
0
  6
CONTINUOUS
 62
   130
 10
73.7399682581421
 20
-49.8089395418206
 30
0.0
 11
73.7399682581421
 21
-39.5557713389949
 31
0.0
  0
LINE
  5
   3CA
  8
0
  6
CONTINUOUS
 62
     3
 10
73.7399682581421
 20
-54.3589390769043
 30
0.0
 11
73.7399682581421
 21
-49.8089395418206
 31
0.0
  0
LINE
  5
   3CB
  8
0
  6
CONTINUOUS
 62
   130
 10
73.5649682760235
 20
-54.3589390769043
 30
0.0
 11
73.5649682760235
 21
-53.3526891797223
 31
0.0
  0
LINE
  5
   3CC
  8
0
  6
CONTINUOUS
 62
   130
 10
73.5649682760235
 20
-50.8152001201538
 30
0.0
 11
73.5649682760235
 21
-49.8089395418206
 31
0.0
  0
LINE
  5
   3CD
  8
0
  6
CONTINUOUS
 62
     3
 10
73.5649682760235
 20
-53.3526891797223
 30
0.0
 11
73.5649682760235
 21
-50.8152001201538
 31
0.0
  0
LINE
  5
   3CE
  8
0
  6
CONTINUOUS
 62
     2
 10
106.884959797859
 20
-78.5089472904235
 30
0.0
 11
106.884959797859
 21
-77.1089474334747
 31
0.0
  0
LINE
  5
   3CF
  8
0
  6
CONTINUOUS
 62
     2
 10
73.9149628996851
 20
-86.9089410915408
 30
0.0
 11
89.8355446164355
 21
-86.9089410915408
 31
0.0
  0
LINE
  5
   3D0
  8
0
  6
CONTINUOUS
 62
   130
 10
109.352431784886
 20
-55.3214555152561
 30
0.0
 11
109.43993177295
 21
-55.2339551952851
 31
0.0
  0
LINE
  5
   3D1
  8
0
  6
CONTINUOUS
 62
   130
 10
109.439943248034
 20
-55.3214524209504
 30
0.0
 11
109.439943248034
 21
-55.2339524298911
 31
0.0
  0
LINE
  5
   3D2
  8
0
  6
CONTINUOUS
 62
   130
 10
113.814948141574
 20
-51.2964374477169
 30
0.0
 11
113.814948141574
 21
-48.2339537823682
 31
0.0
  0
LINE
  5
   3D3
  8
0
  6
CONTINUOUS
 62
   130
 10
113.814948141574
 20
-17.2589729691017
 30
0.0
 11
113.814948141574
 21
-16.7339730227459
 31
0.0
  0
LINE
  5
   3D4
  8
0
  6
CONTINUOUS
 62
   212
 10
108.73994331956
 20
-10.4339629853045
 30
0.0
 11
123.964744436668
 21
-10.4340052239118
 31
0.0
  0
LINE
  5
   3D5
  8
0
  6
CONTINUOUS
 62
   212
 10
108.73994331956
 20
-59.4339579787029
 30
0.0
 11
123.964742494638
 21
-59.4340002173049
 31
0.0
  0
LINE
  5
   3D6
  8
0
  6
CONTINUOUS
 62
     7
 10
113.814948141574
 20
-59.433972058436
 30
0.0
 11
113.814948141574
 21
-10.4339770650376
 31
0.0
  0
LINE
  5
   3D7
  8
0
  6
CONTINUOUS
 62
   253
 10
126.939740483499
 20
-30.7339811070623
 30
0.0
 11
126.939740483499
 21
-19.5339822514715
 31
0.0
  0
LINE
  5
   3D8
  8
0
  6
CONTINUOUS
 62
   253
 10
138.664739285446
 20
-30.9062387035969
 30
0.0
 11
138.664739285446
 21
-19.3617273252247
 31
0.0
  0
LINE
  5
   3D9
  8
0
  6
CONTINUOUS
 62
   253
 10
132.364739929176
 20
-19.5339822514715
 30
0.0
 11
132.364739929176
 21
-17.2589824839296
 31
0.0
  0
LINE
  5
   3DA
  8
0
  6
CONTINUOUS
 62
   253
 10
126.939740483499
 20
-34.408980731553
 30
0.0
 11
126.939740483499
 21
-30.7339811070623
 31
0.0
  0
LINE
  5
   3DB
  8
0
  6
CONTINUOUS
 62
   253
 10
126.939740483499
 20
-19.5339822514715
 30
0.0
 11
126.939740483499
 21
-15.8589826269807
 31
0.0
  0
LINE
  5
   3DC
  8
0
  6
CONTINUOUS
 62
   253
 10
132.364739929176
 20
-33.0089864591839
 30
0.0
 11
132.364739929176
 21
-19.5339822514715
 31
0.0
  0
LINE
  5
   3DD
  8
0
  6
CONTINUOUS
 62
   212
 10
124.31474342989
 20
-15.8611984803472
 30
0.0
 11
124.31474342989
 21
-10.7840051881477
 31
0.0
  0
LINE
  5
   3DE
  8
0
  6
CONTINUOUS
 62
   212
 10
124.314635610478
 20
-10.9590228991387
 30
0.0
 11
124.314745092276
 21
-11.4838145630386
 31
0.0
  0
LINE
  5
   3DF
  8
0
  6
CONTINUOUS
 62
   212
 10
126.764233318435
 20
-17.4338436110827
 30
0.0
 11
126.765551149984
 21
-15.8612096533073
 31
0.0
  0
LINE
  5
   3E0
  8
0
  6
CONTINUOUS
 62
   212
 10
126.765872703636
 20
-29.3326941510712
 30
0.0
 11
126.765898679459
 21
-34.1607373762695
 31
0.0
  0
LINE
  5
   3E1
  8
0
  6
CONTINUOUS
 62
   212
 10
126.764699461951
 20
-15.8612314879582
 30
0.0
 11
126.764827290979
 21
-20.758955391657
 31
0.0
  0
LINE
  5
   3E2
  8
0
  6
CONTINUOUS
 62
   253
 10
132.364739929176
 20
-17.9617274682759
 30
0.0
 11
137.264739428497
 21
-17.9617274682759
 31
0.0
  0
LINE
  5
   3E3
  8
0
  6
CONTINUOUS
 62
   253
 10
132.364739929176
 20
-32.3062385605457
 30
0.0
 11
137.264739428497
 21
-32.3062385605457
 31
0.0
  0
LINE
  5
   3E4
  8
0
  6
CONTINUOUS
 62
   253
 10
126.939740483499
 20
-34.408980731553
 30
0.0
 11
130.964740072227
 21
-34.408980731553
 31
0.0
  0
LINE
  5
   3E5
  8
0
  6
CONTINUOUS
 62
   253
 10
126.939740483499
 20
-15.8589826269807
 30
0.0
 11
130.964740072227
 21
-15.8589826269807
 31
0.0
  0
LINE
  5
   3E6
  8
0
  6
CONTINUOUS
 62
   212
 10
124.31474342989
 20
-15.8611941048017
 30
0.0
 11
126.764699461951
 21
-15.8612314880214
 31
0.0
  0
LINE
  5
   3E7
  8
0
  6
CONTINUOUS
 62
   212
 10
124.31474342989
 20
-34.1607485775857
 30
0.0
 11
126.765898679218
 21
-34.1606925123061
 31
0.0
  0
ARC
  5
   3E8
  8
0
  6
CONTINUOUS
 62
   253
 10
130.964743880573
 20
-17.2589770030527
 30
0.0
 40
1.3999942695372
 50
359.999720152757
 51
450.000090729959
  0
ARC
  5
   3E9
  8
0
  6
CONTINUOUS
 62
   253
 10
130.964745377981
 20
-33.0089864591839
 30
0.0
 40
1.39999270377277
 50
269.999805810039
 51
360.000186401615
  0
ARC
  5
   3EA
  8
0
  6
CONTINUOUS
 62
   253
 10
137.264739428497
 20
-19.3617273252247
 30
0.0
 40
1.39999985694885
 50
7.01670929853487E-15
 51
90.0
  0
ARC
  5
   3EB
  8
0
  6
CONTINUOUS
 62
   253
 10
137.264739428497
 20
-30.9062387035969
 30
0.0
 40
1.39999985694885
 50
270.0
 51
360.0
  0
LINE
  5
   3EC
  8
0
  6
CONTINUOUS
 62
     7
 10
109.00225821571
 20
-12.7985904702111
 30
0.0
 11
109.06413004606
 21
-12.824219892773
 31
0.0
  0
LINE
  5
   3ED
  8
0
  6
CONTINUOUS
 62
     7
 10
109.064130536813
 20
-12.8242221574217
 30
0.0
 11
109.089758697982
 21
-12.8860927246219
 31
0.0
  0
LINE
  5
   3EE
  8
0
  6
CONTINUOUS
 62
     7
 10
109.064129823512
 20
-49.5229601248826
 30
0.0
 11
109.089757942776
 21
-49.4610882226101
 31
0.0
  0
LINE
  5
   3EF
  8
0
  6
DASHED
 62
     7
 10
138.664739285446
 20
-55.9339785321417
 30
0.0
 11
138.664739285446
 21
-17.2589824839296
 31
0.0
  0
LINE
  5
   3F0
  8
0
  6
DASHED
 62
     7
 10
133.764739786125
 20
-57.3339783890905
 30
0.0
 11
137.264739428497
 21
-57.3339783890905
 31
0.0
  0
LINE
  5
   3F1
  8
0
  6
DASHED
 62
     7
 10
126.939740483499
 20
-36.5001044802856
 30
0.0
 11
129.914740179515
 21
-36.5001044802856
 31
0.0
  0
LINE
  5
   3F2
  8
0
  6
DASHED
 62
     7
 10
130.964740072227
 20
-15.8589826269807
 30
0.0
 11
137.264739428497
 21
-15.8589826269807
 31
0.0
  0
ARC
  5
   3F3
  8
0
  6
DASHED
 62
     7
 10
133.764739786125
 20
-55.9339785321417
 30
0.0
 40
1.39999985694885
 50
180.0
 51
270.0
  0
ARC
  5
   3F4
  8
0
  6
DASHED
 62
     7
 10
137.264739428497
 20
-55.9339785321417
 30
0.0
 40
1.39999985694885
 50
270.0
 51
360.0
  0
ARC
  5
   3F5
  8
0
  6
DASHED
 62
     7
 10
129.914740179515
 20
-38.9501042299461
 30
0.0
 40
2.44999974966049
 50
7.01670929853487E-15
 51
90.0
  0
ARC
  5
   3F6
  8
0
  6
DASHED
 62
     7
 10
129.914740179515
 20
-37.7196115730843
 30
0.0
 40
2.44999974966049
 50
7.01670929853487E-15
 51
90.0
  0
ARC
  5
   3F7
  8
0
  6
DASHED
 62
     7
 10
137.264739428497
 20
-17.2589824839296
 30
0.0
 40
1.39999985694885
 50
7.01670929853487E-15
 51
90.0
  0
LINE
  5
   3F8
  8
0
  6
DASHED
 62
     7
 10
132.364739929176
 20
-55.9339785321417
 30
0.0
 11
132.364739929176
 21
-37.7196115730843
 31
0.0
  0
LINE
  5
   3F9
  8
0
  6
DASHED
 62
     7
 10
141.464738999343
 20
-34.5839807136717
 30
0.0
 11
141.464738999343
 21
-28.9839812858762
 31
0.0
  0
ARC
  5
   3FA
  8
0
  6
DASHED
 62
     7
 10
140.064739142395
 20
-34.5839807136717
 30
0.0
 40
1.39999985694885
 50
180.0
 51
360.0
  0
ARC
  5
   3FB
  8
0
  6
DASHED
 62
     7
 10
140.064739142395
 20
-28.9839812858762
 30
0.0
 40
1.39999985694885
 50
7.01670929853487E-15
 51
180.0
  0
LINE
  5
   3FC
  8
0
  6
DASHDOT
 62
     7
 10
137.614739392735
 20
-34.5839797426566
 30
0.0
 11
141.814738963582
 21
-34.5839797426566
 31
0.0
  0
LINE
  5
   3FD
  8
0
  6
DASHDOT
 62
     7
 10
140.064739142395
 20
-36.6839804990949
 30
0.0
 11
140.064739142395
 21
-26.883981500453
 31
0.0
  0
LINE
  5
   3FE
  8
0
  6
DASHDOT
 62
     7
 10
137.614739392735
 20
-28.9839803148612
 30
0.0
 11
141.814738963582
 21
-28.9839803148612
 31
0.0
  0
ARC
  5
   3FF
  8
0
  6
DASHED
 62
     7
 10
135.514739607311
 20
-22.3339819653692
 30
0.0
 40
14.4547866570591
 50
282.586944950844
 51
307.750050331541
  0
ARC
  5
   400
  8
0
  6
DASHED
 62
     7
 10
135.514739607311
 20
-22.3339819653692
 30
0.0
 40
15.5047865497708
 50
281.72198665881
 51
307.180704244992
  0
LINE
  5
   401
  8
0
  6
DASHED
 62
     7
 10
138.664739285446
 20
-23.6468394825583
 30
0.0
 11
145.444393687184
 21
-35.6804951168392
 31
0.0
  0
LINE
  5
   402
  8
0
  6
DASHED
 62
     7
 10
138.664739285446
 20
-21.5076971745028
 30
0.0
 11
146.359199373244
 21
-35.1651017413992
 31
0.0
  0
LINE
  5
   403
  8
0
  6
DASHED
 62
     7
 10
145.444393687184
 20
-35.6804951168391
 30
0.0
 11
146.359199373244
 21
-35.1651017413994
 31
0.0
  0
LINE
  5
   404
  8
0
  6
DASHED
 62
     7
 10
126.939740483499
 20
-36.5001044802856
 30
0.0
 11
126.939740483499
 21
-34.408980731553
 31
0.0
  0
LINE
  5
   405
  8
0
  6
DASHED
 62
     7
 10
126.939740483499
 20
-35.2696118234238
 30
0.0
 11
129.914740179515
 21
-35.2696118234238
 31
0.0
  0
LINE
  5
   406
  8
0
  6
CONTINUOUS
 62
   212
 10
124.31474342989
 20
-59.084000253069
 30
0.0
 11
124.31474342989
 21
-34.1607396010207
 31
0.0
  0
ARC
  5
   407
  8
0
  6
CONTINUOUS
 62
   212
 10
123.964743465653
 20
-59.084000253069
 30
0.0
 40
0.349999964237213
 50
269.999841042657
 51
360.0
  0
ARC
  5
   408
  8
0
  6
CONTINUOUS
 62
   212
 10
123.964743465653
 20
-10.7840051881477
 30
0.0
 40
0.349999964237213
 50
0.0
 51
89.999841042657
  0
LINE
  5
   409
  8
0
  6
CONTINUOUS
 62
     7
 10
113.814948141574
 20
-59.433972058436
 30
0.0
 11
113.814948141574
 21
-10.4339770650376
 31
0.0
  0
LINE
  5
   40A
  8
0
  6
DASHDOT
 62
     7
 10
66.9448064017416
 20
1.46603597044769
 30
0.0
 11
74.6833847289183
 21
1.46603964520419
 31
0.0
  0
LINE
  5
   40B
  8
0
  6
CONTINUOUS
 62
     7
 10
70.7649632215502
 20
6.60379275458567E-2
 30
0.0
 11
70.7649632215502
 21
2.86603764144387
 31
0.0
  0
LINE
  5
   40C
  8
0
  6
CONTINUOUS
 62
     7
 10
69.3649633646014
 20
0.591037209095056
 30
0.0
 11
69.3649633646014
 21
2.34103703028131
 31
0.0
  0
LINE
  5
   40D
  8
0
  6
CONTINUOUS
 62
     7
 10
70.7649632215502
 20
2.86603764144387
 30
0.0
 11
72.1649630784991
 21
2.86603830625055
 31
0.0
  0
LINE
  5
   40E
  8
0
  6
CONTINUOUS
 62
     7
 10
70.7649632215502
 20
6.60379275458567E-2
 30
0.0
 11
72.1649630784991
 21
0.066038592352534
 31
0.0
  0
LINE
  5
   40F
  8
0
  6
CONTINUOUS
 62
     7
 10
69.3649633646014
 20
2.34103703028131
 30
0.0
 11
72.1649630784991
 21
2.34103835989467
 31
0.0
  0
LINE
  5
   410
  8
0
  6
CONTINUOUS
 62
     7
 10
69.3649633646014
 20
0.591037209095056
 30
0.0
 11
72.1649630784991
 21
0.591038538708418
 31
0.0
  0
LINE
  5
   411
  8
0
  6
CONTINUOUS
 62
     7
 10
70.7649632215502
 20
-80.083953882785
 30
0.0
 11
72.1649630784991
 21
-80.0839532179783
 31
0.0
  0
LINE
  5
   412
  8
0
  6
CONTINUOUS
 62
     7
 10
69.3649633646014
 20
-80.6089544939475
 30
0.0
 11
72.1649630784991
 21
-80.6089531643342
 31
0.0
  0
LINE
  5
   413
  8
0
  6
DASHDOT
 62
     7
 10
66.9448064017416
 20
-81.4839555537812
 30
0.0
 11
74.6833847289183
 21
-81.4839518790247
 31
0.0
  0
LINE
  5
   414
  8
0
  6
CONTINUOUS
 62
     7
 10
69.3649633646014
 20
-82.3589543151338
 30
0.0
 11
72.1649630784991
 21
-82.3589529855205
 31
0.0
  0
LINE
  5
   415
  8
0
  6
CONTINUOUS
 62
     7
 10
70.7649632215502
 20
-82.883953596683
 30
0.0
 11
72.1649630784991
 21
-82.8839529318763
 31
0.0
  0
LINE
  5
   416
  8
0
  6
CONTINUOUS
 62
     7
 10
69.3649633646014
 20
-82.3589543151338
 30
0.0
 11
69.3649633646014
 21
-80.6089544939475
 31
0.0
  0
LINE
  5
   417
  8
0
  6
CONTINUOUS
 62
     7
 10
70.7649632215502
 20
-82.883953596683
 30
0.0
 11
70.7649632215502
 21
-80.083953882785
 31
0.0
  0
INSERT
  5
   418
  8
0
  6
CONTINUOUS
 62
     7
  2
*UDIM42
 10
0.0
 20
0.0
 30
0.0
  0
INSERT
  5
   419
  8
0
  6
CONTINUOUS
 62
     7
  2
*UDIM43
 10
0.0
 20
0.0
 30
0.0
  0
INSERT
  5
   41A
  8
0
  6
CONTINUOUS
 62
     7
  2
*UDIM44
 10
0.0
 20
0.0
 30
0.0
  0
INSERT
  5
   41B
  8
0
  6
CONTINUOUS
 62
     7
  2
*UDIM45
 10
0.0
 20
0.0
 30
0.0
  0
INSERT
  5
   41C
  8
0
  6
CONTINUOUS
 62
     7
  2
*UDIM46
 10
0.0
 20
0.0
 30
0.0
  0
INSERT
  5
   41D
  8
0
  6
CONTINUOUS
 62
     7
  2
*UDIM47
 10
0.0
 20
0.0
 30
0.0
  0
LINE
  5
   41E
  8
0
  6
CONTINUOUS
 62
     7
 10
192.182830810547
 20
-53.3088264465332
 30
0.0
 11
228.932830810547
 21
-53.3088264465332
 31
0.0
  0
LINE
  5
   41F
  8
0
  6
CONTINUOUS
 62
     7
 10
192.182830810547
 20
-16.5588264465332
 30
0.0
 11
228.932830810547
 21
-16.5588264465332
 31
0.0
  0
LINE
  5
   420
  8
0
  6
CONTINUOUS
 62
     7
 10
192.182830810547
 20
-16.5588264465332
 30
0.0
 11
192.182830810547
 21
-53.3088264465332
 31
0.0
  0
LINE
  5
   421
  8
0
  6
CONTINUOUS
 62
     7
 10
228.932830810547
 20
-16.5588264465332
 30
0.0
 11
228.932830810547
 21
-53.3088264465332
 31
0.0
  0
LINE
  5
   422
  8
0
  6
DASHDOT
 62
     7
 10
210.557830810547
 20
3.95577719097648
 30
0.0
 11
210.557830810547
 21
-65.7497411762882
 31
0.0
  0
CIRCLE
  5
   423
  8
0
  6
CONTINUOUS
 62
     7
 10
196.182830810547
 20
-12.8088264465332
 30
0.0
 40
0.875
  0
CIRCLE
  5
   424
  8
0
  6
CONTINUOUS
 62
     7
 10
224.932830810547
 20
-12.8088264465332
 30
0.0
 40
0.875
  0
CIRCLE
  5
   425
  8
0
  6
CONTINUOUS
 62
     7
 10
224.932830810547
 20
-57.0588264465332
 30
0.0
 40
0.875
  0
CIRCLE
  5
   426
  8
0
  6
CONTINUOUS
 62
     7
 10
196.182830810547
 20
-57.0588264465332
 30
0.0
 40
0.875
  0
LINE
  5
   427
  8
0
  6
CONTINUOUS
 62
     3
 10
188.218335141132
 20
-10.4590261492419
 30
0.0
 11
262.422274843175
 21
-10.4590261492419
 31
0.0
  0
LINE
  5
   428
  8
0
  6
CONTINUOUS
 62
     3
 10
188.218335141132
 20
-60.4143072739972
 30
0.0
 11
262.422274843175
 21
-60.4143072739972
 31
0.0
  0
LINE
  5
   429
  8
0
  6
CONTINUOUS
 62
     3
 10
188.218335141132
 20
-10.4590261492419
 30
0.0
 11
188.218335141132
 21
-60.4143072739972
 31
0.0
  0
LINE
  5
   42A
  8
0
  6
DASHDOT
 62
     7
 10
224.932830810547
 20
-11.1838264465332
 30
0.0
 11
224.932830810547
 21
-14.4338264465332
 31
0.0
  0
LINE
  5
   42B
  8
0
  6
DASHDOT
 62
     7
 10
223.307830810547
 20
-12.8088264465332
 30
0.0
 11
226.557830810547
 21
-12.8088264465332
 31
0.0
  0
LINE
  5
   42C
  8
0
  6
DASHDOT
 62
     7
 10
196.182830810547
 20
-11.1838264465332
 30
0.0
 11
196.182830810547
 21
-14.4338264465332
 31
0.0
  0
LINE
  5
   42D
  8
0
  6
DASHDOT
 62
     7
 10
194.557830810547
 20
-12.8088264465332
 30
0.0
 11
197.807830810547
 21
-12.8088264465332
 31
0.0
  0
LINE
  5
   42E
  8
0
  6
DASHDOT
 62
     7
 10
196.182830810547
 20
-55.4338264465332
 30
0.0
 11
196.182830810547
 21
-58.6838264465332
 31
0.0
  0
LINE
  5
   42F
  8
0
  6
DASHDOT
 62
     7
 10
194.557830810547
 20
-57.0588264465332
 30
0.0
 11
197.807830810547
 21
-57.0588264465332
 31
0.0
  0
LINE
  5
   430
  8
0
  6
DASHDOT
 62
     7
 10
224.932830810547
 20
-55.4338264465332
 30
0.0
 11
224.932830810547
 21
-58.6838264465332
 31
0.0
  0
LINE
  5
   431
  8
0
  6
DASHDOT
 62
     7
 10
223.307830810547
 20
-57.0588264465332
 30
0.0
 11
226.557830810547
 21
-57.0588264465332
 31
0.0
  0
LINE
  5
   432
  8
0
  6
DASHDOT
 62
     7
 10
185.19197325719
 20
-34.9338264465332
 30
0.0
 11
264.412603951447
 21
-34.9338264465332
 31
0.0
  0
CIRCLE
  5
   433
  8
0
  6
CONTINUOUS
 62
     7
 10
221.120330810547
 20
-12.4338264465332
 30
0.0
 40
0.5
  0
CIRCLE
  5
   434
  8
0
  6
CONTINUOUS
 62
     7
 10
209.870330810547
 20
-12.4338264465332
 30
0.0
 40
0.5
  0
CIRCLE
  5
   435
  8
0
  6
CONTINUOUS
 62
     7
 10
209.870330810547
 20
-12.4338264465332
 30
0.0
 40
0.92
  0
CIRCLE
  5
   436
  8
0
  6
CONTINUOUS
 62
     7
 10
221.120330810547
 20
-12.4338264465332
 30
0.0
 40
0.92
  0
LINE
  5
   437
  8
0
  6
DASHDOT
 62
     7
 10
221.120330810547
 20
-10.7638264465332
 30
0.0
 11
221.120330810547
 21
-14.1038264465332
 31
0.0
  0
LINE
  5
   438
  8
0
  6
DASHDOT
 62
     7
 10
219.450330810547
 20
-12.4338264465332
 30
0.0
 11
222.790330810547
 21
-12.4338264465332
 31
0.0
  0
LINE
  5
   439
  8
0
  6
DASHDOT
 62
     7
 10
209.870330810547
 20
-10.7638264465332
 30
0.0
 11
209.870330810547
 21
-14.1038264465332
 31
0.0
  0
LINE
  5
   43A
  8
0
  6
DASHDOT
 62
     7
 10
208.200330810547
 20
-12.4338264465332
 30
0.0
 11
211.540330810547
 21
-12.4338264465332
 31
0.0
  0
LINE
  5
   43B
  8
0
  6
DASHDOT
 62
     7
 10
260.557830810547
 20
-4.24277730158877
 30
0.0
 11
260.557830810547
 21
-80.0618767698268
 31
0.0
  0
LINE
  5
   43C
  8
0
  6
DOT
 62
     7
 10
258.379418841998
 20
-16.806729797556
 30
0.0
 11
262.422274843175
 21
-16.806729797556
 31
0.0
  0
LINE
  5
   43D
  8
0
  6
DOT
 62
     7
 10
258.379418841998
 20
-16.806729797556
 30
0.0
 11
258.379418841998
 21
-25.6388152155132
 31
0.0
  0
LINE
  5
   43E
  8
0
  6
DOT
 62
     7
 10
262.422274843175
 20
-16.806729797556
 30
0.0
 11
262.422274843175
 21
-25.6388152155132
 31
0.0
  0
LINE
  5
   43F
  8
0
  6
DOT
 62
     7
 10
258.379418841998
 20
-25.6388152155132
 30
0.0
 11
262.422274843175
 21
-25.6388152155132
 31
0.0
  0
LINE
  5
   440
  8
0
  6
DOT
 62
     7
 10
258.379418841998
 20
-44.2288376775532
 30
0.0
 11
258.379418841998
 21
-53.0609230955104
 31
0.0
  0
LINE
  5
   441
  8
0
  6
DOT
 62
     7
 10
258.379418841998
 20
-53.0609230955104
 30
0.0
 11
262.422274843175
 21
-53.0609230955104
 31
0.0
  0
LINE
  5
   442
  8
0
  6
DOT
 62
     7
 10
258.379418841998
 20
-44.2288376775532
 30
0.0
 11
262.422274843175
 21
-44.2288376775532
 31
0.0
  0
LINE
  5
   443
  8
0
  6
DOT
 62
     7
 10
262.422274843175
 20
-44.2288376775532
 30
0.0
 11
262.422274843175
 21
-53.0609230955104
 31
0.0
  0
LINE
  5
   444
  8
0
  6
CONTINUOUS
 62
     3
 10
262.422274843175
 20
-10.4590261492419
 30
0.0
 11
262.422274843175
 21
-16.806729797556
 31
0.0
  0
LINE
  5
   445
  8
0
  6
CONTINUOUS
 62
     3
 10
262.422274843175
 20
-53.0609230955104
 30
0.0
 11
262.422274843175
 21
-60.4143072739972
 31
0.0
  0
LINE
  5
   446
  8
0
  6
CONTINUOUS
 62
     3
 10
262.422274843175
 20
-25.6388152155132
 30
0.0
 11
262.422274843175
 21
-44.2288376775532
 31
0.0
  0
TEXT
  5
   447
  8
0
  6
CONTINUOUS
 62
     1
 10
161.877042442825
 20
-206.93088151659
 30
0.0
 40
2.00000008940697
  1
M 3193 95-10-26
 50
359.999999844103
 41
0.749999861419206
 72
     1
 11
172.977040886879
 21
-205.930881502033
 31
0.0
 73
     2
  0
TEXT
  5
   448
  8
0
  6
CONTINUOUS
 62
     1
 10
137.575456291702
 20
-206.967258469715
 30
0.0
 40
2.00000008940697
  1
M 3076 95-01-16
 50
359.999999844103
 41
0.749999861419206
 72
     1
 11
148.675454735756
 21
-205.967258455158
 31
0.0
 73
     2
  0
INSERT
  5
   449
  8
0
  6
CONTINUOUS
 62
     7
  2
*UDIM48
 10
0.0
 20
0.0
 30
0.0
  0
INSERT
  5
   44A
  8
0
  6
CONTINUOUS
 62
     7
  2
*UDIM49
 10
0.0
 20
0.0
 30
0.0
  0
INSERT
  5
   44B
  8
0
  6
CONTINUOUS
 62
     7
  2
*UDIM50
 10
0.0
 20
0.0
 30
0.0
  0
INSERT
  5
   44C
  8
0
  6
CONTINUOUS
 62
     7
  2
*UDIM51
 10
0.0
 20
0.0
 30
0.0
  0
TEXT
  5
   44D
  8
0
  6
CONTINUOUS
 62
     7
 10
203.834849623737
 20
-72.9649851884104
 30
0.0
 40
3.00000002980232
  1
=   =
 50
359.999999844103
 41
0.916666604744064
 72
     2
 11
217.034848858811
 21
-72.9649852242601
 31
0.0
  0
TEXT
  5
   44E
  8
0
  6
CONTINUOUS
 62
     7
 10
202.465157456594
 20
-84.5721133880898
 30
0.0
 40
3.00000002980232
  1
=    =
 50
359.999999844103
 41
0.916666604744064
 72
     2
 11
218.415156533219
 21
-84.5721134314082
 31
0.0
  0
TEXT
  5
   44F
  8
0
  6
CONTINUOUS
 62
     7
 10
183.999133172853
 20
-45.1977259467989
 30
0.0
 40
3.00000002980232
  1
=     =
 50
449.999999844103
 41
0.916666604744064
 72
     2
 11
183.999133223617
 21
-26.4977270286232
 31
0.0
  0
TEXT
  5
   450
  8
0
  6
CONTINUOUS
 62
     7
 10
174.28601341814
 20
-47.2896131039609
 30
0.0
 40
3.00000002980232
  1
=       =
 50
449.999999844103
 41
0.916666604744064
 72
     2
 11
174.286013483834
 21
-23.0896145026832
 31
0.0
  0
INSERT
  5
   451
  8
0
  6
CONTINUOUS
 62
     7
  2
*UDIM52
 10
0.0
 20
0.0
 30
0.0
  0
INSERT
  5
   452
  8
0
  6
CONTINUOUS
 62
     7
  2
*UDIM53
 10
0.0
 20
0.0
 30
0.0
  0
INSERT
  5
   453
  8
0
  6
CONTINUOUS
 62
     7
  2
*UDIM54
 10
0.0
 20
0.0
 30
0.0
  0
INSERT
  5
   454
  8
0
  6
CONTINUOUS
 62
     7
  2
*UDIM55
 10
0.0
 20
0.0
 30
0.0
  0
INSERT
  5
   455
  8
0
  6
CONTINUOUS
 62
     7
  2
*UDIM56
 10
0.0
 20
0.0
 30
0.0
  0
TEXT
  5
   456
  8
0
  6
CONTINUOUS
 62
     7
 10
209.727453937031
 20
-100.089565346236
 30
0.0
 40
3.00000002980232
  1
Y
 50
359.999999844103
 41
0.916666604744064
 72
     2
 11
211.927453805901
 21
-100.089565352211
 31
0.0
  0
TEXT
  5
   457
  8
0
  6
CONTINUOUS
 62
     7
 10
209.815549721218
 20
5.08512108564884
 30
0.0
 40
3.00000002980232
  1
Y
 50
359.999999844103
 41
0.916666604744064
 72
     2
 11
212.015549590088
 21
5.08512107967389
 31
0.0
  0
TEXT
  5
   458
  8
0
  6
CONTINUOUS
 62
     7
 10
265.643261064984
 20
-36.8966143822619
 30
0.0
 40
3.00000002980232
  1
X
 50
359.999999844103
 41
0.916666604744064
 72
     2
 11
267.843260933853
 21
-36.8966143882369
 31
0.0
  0
TEXT
  5
   459
  8
0
  6
CONTINUOUS
 62
     7
 10
161.141269793011
 20
-36.3424709534594
 30
0.0
 40
3.00000002980232
  1
X
 50
359.999999844103
 41
0.916666604744064
 72
     2
 11
163.341269661881
 21
-36.3424709594344
 31
0.0
  0
TEXT
  5
   45A
  8
0
  6
CONTINUOUS
 62
     1
 10
130.243331918389
 20
-191.841892158346
 30
0.0
 40
2.00000008940697
  1
93-04-05 ROTA S.
 50
359.999999844103
 41
0.749999861419206
 72
     2
 11
153.943328590959
 21
-191.841892222712
 31
0.0
  0
TEXT
  5
   45B
  8
0
  6
CONTINUOUS
 62
     1
 10
231.973709124863
 20
-218.083682923706
 30
0.0
 40
4.00000017881393
  1
601840/261
 50
359.999999844103
 41
0.937499973922969
 72
     2
 11
268.723709724635
 21
-218.083683023515
 31
0.0
  0
TEXT
  5
   45C
  8
0
  6
CONTINUOUS
 62
     1
 10
249.059402479634
 20
-209.102100365881
 30
0.0
 40
3.00000002980232
  1
S6
 50
359.999999844103
 41
0.916666604744064
 72
     2
 11
254.009402190055
 21
-209.102100379325
 31
0.0
  0
TEXT
  5
   45D
  8
0
  6
CONTINUOUS
 62
     1
 10
222.06358225595
 20
-191.589405029311
 30
0.0
 40
2.00000008940697
  1
3POLE LOW VOLTAGE FIXED M.C.C.B SERIES
 50
359.999999844103
 41
0.749999995529652
 72
     1
 11
250.413583350176
 21
-190.589405061603
 31
0.0
 73
     2
  0
TEXT
  5
   45E
  8
0
  6
CONTINUOUS
 62
     1
 10
220.56358223361
 20
-194.589405025238
 30
0.0
 40
2.00000008940697
  1
ISOMAX ROTARY HANDLE OPERATING MECHANISM
 50
359.999999844103
 41
0.749999995529652
 72
     1
 11
250.41358338595
 21
-193.589405061603
 31
0.0
 73
     2
  0
TEXT
  5
   45F
  8
0
  6
CONTINUOUS
 62
     1
 10
224.727374353518
 20
-198.862094864943
 30
0.0
 40
2.00000008940697
  1
INTERR.AUTOMATICO SERIE ISOMAX
 50
359.999999844103
 41
0.749999861419206
 72
     1
 11
247.077371221775
 21
-197.862094880939
 31
0.0
 73
     2
  0
TEXT
  5
   460
  8
0
  6
CONTINUOUS
 62
     1
 10
219.477375124665
 20
-201.862094850684
 30
0.0
 40
2.00000008940697
  1
TRIPOL.FISSO COMANDO MANIGLIA ROTANTE
 50
359.999999844103
 41
0.749999861419206
 72
     1
 11
247.077371257549
 21
-200.862094880939
 31
0.0
 73
     2
  0
LINE
  5
   461
  8
0
  6
CONTINUOUS
 62
     7
 10
215.21076965332
 20
40.5543167275985
 30
0.0
 11
215.21076965332
 21
16.6377952413957
 31
0.0
  0
LINE
  5
   462
  8
0
  6
CONTINUOUS
 62
     7
 10
213.21076965332
 20
40.5543167275985
 30
0.0
 11
213.21076965332
 21
16.6377952413957
 31
0.0
  0
LINE
  5
   463
  8
0
  6
DASHDOT
 62
     7
 10
210.008166550923
 20
28.5960559844971
 30
0.0
 11
218.434385743361
 21
28.5960559844971
 31
0.0
  0
POINT
  5
   464
  8
0
  6
CONTINUOUS
 62
     7
 10
213.21076965332
 20
30.5960559844971
 30
0.0
  0
POINT
  5
   465
  8
0
  6
CONTINUOUS
 62
     7
 10
213.21076965332
 20
26.5960559844971
 30
0.0
  0
LINE
  5
   466
  8
0
  6
CONTINUOUS
 62
     7
 10
215.21076965332
 20
32.2742552468516
 30
0.0
 11
213.21076965332
 21
30.5960559844971
 31
0.0
  0
LINE
  5
   467
  8
0
  6
CONTINUOUS
 62
     7
 10
213.21076965332
 20
26.5960559844971
 30
0.0
 11
215.21076965332
 21
24.9178567221425
 31
0.0
  0
LINE
  5
   468
  8
0
  6
CONTINUOUS
 62
     7
 10
213.21076965332
 20
19.0960559844971
 30
0.0
 11
215.21076965332
 21
19.0960559844971
 31
0.0
  0
CIRCLE
  5
   469
  8
0
  6
CONTINUOUS
 62
     7
 10
214.21076965332
 20
28.5960559844971
 30
0.0
 40
12.0
  0
LINE
  5
   46A
  8
0
  6
CONTINUOUS
 62
     7
 10
207.210777282715
 20
24.0960559844971
 30
0.0
 11
209.710777282715
 21
24.0960559844971
 31
0.0
  0
LINE
  5
   46B
  8
0
  6
CONTINUOUS
 62
     7
 10
210.710777282715
 20
33.0960559844971
 30
0.0
 11
210.710777282715
 21
25.0960559844971
 31
0.0
  0
LINE
  5
   46C
  8
0
  6
CONTINUOUS
 62
     7
 10
210.710777282715
 20
33.0960559844971
 30
0.0
 11
213.21076965332
 21
33.0960559844971
 31
0.0
  0
LINE
  5
   46D
  8
0
  6
CONTINUOUS
 62
     7
 10
207.210777282715
 20
21.5960559844971
 30
0.0
 11
209.710777282715
 21
21.5960559844971
 31
0.0
  0
LINE
  5
   46E
  8
0
  6
CONTINUOUS
 62
     7
 10
206.210777282715
 20
20.5960559844971
 30
0.0
 11
206.210777282715
 21
19.6517772505659
 31
0.0
  0
ARC
  5
   46F
  8
0
  6
CONTINUOUS
 62
     7
 10
209.710781429995
 20
25.0960553131584
 30
0.0
 40
0.999996977799109
 50
629.999840735313
 51
720.000252836193
  0
ARC
  5
   470
  8
0
  6
CONTINUOUS
 62
     7
 10
207.210791936222
 20
20.5960432981926
 30
0.0
 40
3.50001845311552
 50
450.000186734275
 51
513.408761128067
  0
ARC
  5
   471
  8
0
  6
CONTINUOUS
 62
     7
 10
207.210733034565
 20
20.5960968792795
 30
0.0
 40
0.999949821243504
 50
449.997764042825
 51
540.001169660043
  0
ARC
  5
   472
  8
0
  6
CONTINUOUS
 62
     7
 10
209.710796635097
 20
25.0960239375628
 30
0.0
 40
3.49997105594423
 50
629.999653243441
 51
720.000420168909
  0
INSERT
  5
   473
  8
0
  6
CONTINUOUS
 62
     7
  2
*HATCH10
 10
214.21076965332
 20
28.5960559844971
 30
0.0
 50
269.999999844103
  0
INSERT
  5
   474
  8
0
  6
CONTINUOUS
 62
     7
  2
*HATCH11
 10
214.21076965332
 20
28.5960559844971
 30
0.0
 50
269.999999844103
  0
LINE
  5
   475
  8
0
  6
CONTINUOUS
 62
     7
 10
205.635153894599
 20
20.2020811001661
 30
0.0
 11
199.264408730594
 21
13.9662752518506
 31
0.0
  0
LINE
  5
   476
  8
0
  6
CONTINUOUS
 62
     7
 10
199.264408730594
 20
-4.81064850061825
 30
0.0
 11
207.549640418725
 21
-11.560394497355
 31
0.0
  0
LINE
  5
   477
  8
0
  6
CONTINUOUS
 62
     7
 10
202.065126960985
 20
-9.0991523441835
 30
0.0
 11
207.549640418725
 21
-11.560394497355
 31
0.0
  0
LINE
  5
   478
  8
0
  6
CONTINUOUS
 62
     7
 10
204.302608019318
 20
-7.06344664016344
 30
0.0
 11
207.549640418725
 21
-11.560394497355
 31
0.0
  0
LINE
  5
   479
  8
0
  6
CONTINUOUS
 62
     7
 10
199.264408730594
 20
13.9662752518506
 30
0.0
 11
199.264408730594
 21
-4.81064850061824
 31
0.0
  0
INSERT
  5
   47A
  8
0
  6
CONTINUOUS
 62
     7
  2
*UDIM57
 10
0.0
 20
0.0
 30
0.0
  0
INSERT
  5
   47B
  8
0
  6
CONTINUOUS
 62
     7
  2
*UDIM58
 10
0.0
 20
0.0
 30
0.0
  0
LINE
  5
   47C
  8
0
  6
DASHDOT
 62
     2
 10
-5.40740264826159
 20
-138.43969386071
 30
0.0
 11
-23.8889365538767
 21
-138.43969386071
 31
0.0
  0
LINE
  5
   47D
  8
0
  6
DASHDOT
 62
     2
 10
-4.64883222676246
 20
-185.839694567025
 30
0.0
 11
-24.0268584486947
 21
-185.839694567025
 31
0.0
  0
LINE
  5
   47E
  8
0
  6
DASHDOT
 62
     2
 10
-21.3244258016348
 20
-133.886242669045
 30
0.0
 11
-21.3244258016348
 21
-187.95162543771
 31
0.0
  0
LINE
  5
   47F
  8
0
  6
DASHDOT
 62
     2
 10
-7.32442559301853
 20
-133.403516037182
 30
0.0
 11
-7.32442559301853
 21
-187.813703542892
 31
0.0
  0
LINE
  5
   480
  8
0
  6
DASHDOT
 62
     2
 10
-14.3244256973267
 20
-134.162086458681
 30
0.0
 11
-14.3244256973267
 21
-194.020188809703
 31
0.0
  0
CIRCLE
  5
   481
  8
0
  6
CONTINUOUS
 62
     7
 10
-7.32442559301853
 20
-138.43969386071
 30
0.0
 40
0.550000008195639
  0
CIRCLE
  5
   482
  8
0
  6
CONTINUOUS
 62
     7
 10
-21.3244258016348
 20
-138.43969386071
 30
0.0
 40
0.550000008195639
  0
CIRCLE
  5
   483
  8
0
  6
CONTINUOUS
 62
     7
 10
-21.3244258016348
 20
-185.839694567025
 30
0.0
 40
0.550000008195639
  0
CIRCLE
  5
   484
  8
0
  6
CONTINUOUS
 62
     7
 10
-7.32442559301853
 20
-185.839694567025
 30
0.0
 40
0.550000008195639
  0
LINE
  5
   485
  8
0
  6
DASHDOT
 62
     2
 10
3.88918958705139
 20
-159.239694170654
 30
0.0
 11
-40.0536385382439
 21
-159.239694170654
 31
0.0
  0
LINE
  5
   486
  8
0
  6
DASHDOT
 62
     7
 10
-28.3244259059429
 20
-132.839693777263
 30
0.0
 11
-28.3244259059429
 21
-143.239693932235
 31
0.0
  0
LINE
  5
   487
  8
0
  6
DASHDOT
 62
     7
 10
-23.1244258284569
 20
-138.039693854749
 30
0.0
 11
-33.524425983429
 21
-138.039693854749
 31
0.0
  0
LINE
  5
   488
  8
0
  6
DASHDOT
 62
     7
 10
-14.3244256973267
 20
-132.839693777263
 30
0.0
 11
-14.3244256973267
 21
-143.239693932235
 31
0.0
  0
LINE
  5
   489
  8
0
  6
DASHDOT
 62
     7
 10
-9.12442561984062
 20
-138.039693854749
 30
0.0
 11
-19.5244257748127
 21
-138.039693854749
 31
0.0
  0
LINE
  5
   48A
  8
0
  6
DASHDOT
 62
     7
 10
-0.324425488710403
 20
-132.839693777263
 30
0.0
 11
-0.324425488710403
 21
-143.239693932235
 31
0.0
  0
LINE
  5
   48B
  8
0
  6
DASHDOT
 62
     7
 10
4.87557458877563
 20
-138.039693854749
 30
0.0
 11
-5.52442556619644
 21
-138.039693854749
 31
0.0
  0
LINE
  5
   48C
  8
0
  6
DASHDOT
 62
     7
 10
-0.324425488710403
 20
-181.039694495499
 30
0.0
 11
-0.324425488710403
 21
-191.439694650471
 31
0.0
  0
LINE
  5
   48D
  8
0
  6
DASHDOT
 62
     7
 10
4.87557458877563
 20
-186.239694572985
 30
0.0
 11
-5.52442556619644
 21
-186.239694572985
 31
0.0
  0
LINE
  5
   48E
  8
0
  6
DASHDOT
 62
     7
 10
-14.3244256973267
 20
-181.039694495499
 30
0.0
 11
-14.3244256973267
 21
-191.439694650471
 31
0.0
  0
LINE
  5
   48F
  8
0
  6
DASHDOT
 62
     7
 10
-9.12442561984062
 20
-186.239694572985
 30
0.0
 11
-19.5244257748127
 21
-186.239694572985
 31
0.0
  0
LINE
  5
   490
  8
0
  6
DASHDOT
 62
     7
 10
-28.3244259059429
 20
-181.039694495499
 30
0.0
 11
-28.3244259059429
 21
-191.439694650471
 31
0.0
  0
LINE
  5
   491
  8
0
  6
DASHDOT
 62
     7
 10
-23.1244258284569
 20
-186.239694572985
 30
0.0
 11
-33.524425983429
 21
-186.239694572985
 31
0.0
  0
LINE
  5
   492
  8
0
  6
CONTINUOUS
 62
     7
 10
-34.144973068956
 20
-130.94995395792
 30
0.0
 11
-34.144973068956
 21
-193.010110678772
 31
0.0
  0
LINE
  5
   493
  8
0
  6
CONTINUOUS
 62
     7
 10
5.2664195079127
 20
-130.94995395792
 30
0.0
 11
-34.144973068956
 21
-130.94995395792
 31
0.0
  0
LINE
  5
   494
  8
0
  6
CONTINUOUS
 62
     7
 10
5.2664195079127
 20
-193.010110678772
 30
0.0
 11
-34.144973068956
 21
-193.010110678772
 31
0.0
  0
LINE
  5
   495
  8
0
  6
CONTINUOUS
 62
     7
 10
5.2664195079127
 20
-130.94995395792
 30
0.0
 11
5.2664195079127
 21
-193.010110678772
 31
0.0
  0
ARC
  5
   496
  8
0
  6
CONTINUOUS
 62
     7
 10
-28.3244259059429
 20
-186.239694572985
 30
0.0
 40
3.50000005215406
 50
449.999999896069
 51
719.999999896069
  0
ARC
  5
   497
  8
0
  6
CONTINUOUS
 62
     7
 10
-14.3244256973267
 20
-186.239694572985
 30
0.0
 40
3.50000005215406
 50
179.999999896069
 51
359.999999896069
  0
ARC
  5
   498
  8
0
  6
CONTINUOUS
 62
     7
 10
-0.324425488710403
 20
-186.239694572985
 30
0.0
 40
3.50000005215406
 50
179.999999896069
 51
449.999999896069
  0
ARC
  5
   499
  8
0
  6
CONTINUOUS
 62
     7
 10
-28.3244259059429
 20
-138.039693854749
 30
0.0
 40
3.50000005215406
 50
359.999999896069
 51
629.999999896069
  0
ARC
  5
   49A
  8
0
  6
CONTINUOUS
 62
     7
 10
-14.3244256973267
 20
-138.039693854749
 30
0.0
 40
3.50000005215406
 50
359.999999896069
 51
539.999999896069
  0
ARC
  5
   49B
  8
0
  6
CONTINUOUS
 62
     7
 10
-0.324425488710403
 20
-138.039693854749
 30
0.0
 40
3.50000005215406
 50
269.999999896069
 51
539.999999896069
  0
LINE
  5
   49C
  8
0
  6
CONTINUOUS
 62
     7
 10
-24.8244258537889
 20
-138.039693854749
 30
0.0
 11
-24.8244258537889
 21
-139.939693883061
 31
0.0
  0
LINE
  5
   49D
  8
0
  6
CONTINUOUS
 62
     7
 10
-17.8244257494807
 20
-138.039693854749
 30
0.0
 11
-17.8244257494807
 21
-139.939693883061
 31
0.0
  0
LINE
  5
   49E
  8
0
  6
CONTINUOUS
 62
     7
 10
-10.8244256451726
 20
-138.039693854749
 30
0.0
 11
-10.8244256451726
 21
-139.939693883061
 31
0.0
  0
LINE
  5
   49F
  8
0
  6
CONTINUOUS
 62
     7
 10
-3.82442554086447
 20
-138.039693854749
 30
0.0
 11
-3.82442554086447
 21
-139.939693883061
 31
0.0
  0
LINE
  5
   4A0
  8
0
  6
CONTINUOUS
 62
     7
 10
-24.8244258537889
 20
-184.339694544673
 30
0.0
 11
-24.8244258537889
 21
-186.239694572985
 31
0.0
  0
LINE
  5
   4A1
  8
0
  6
CONTINUOUS
 62
     7
 10
-17.8244257494807
 20
-184.339694544673
 30
0.0
 11
-17.8244257494807
 21
-186.239694572985
 31
0.0
  0
LINE
  5
   4A2
  8
0
  6
CONTINUOUS
 62
     7
 10
-10.8244256451726
 20
-184.339694544673
 30
0.0
 11
-10.8244256451726
 21
-186.239694572985
 31
0.0
  0
LINE
  5
   4A3
  8
0
  6
CONTINUOUS
 62
     7
 10
-3.82442554086447
 20
-184.339694544673
 30
0.0
 11
-3.82442554086447
 21
-186.239694572985
 31
0.0
  0
LINE
  5
   4A4
  8
0
  6
CONTINUOUS
 62
     7
 10
-0.324425488710403
 20
-141.539693906903
 30
0.0
 11
-28.3244259059429
 21
-141.539693906903
 31
0.0
  0
LINE
  5
   4A5
  8
0
  6
CONTINUOUS
 62
     7
 10
-0.324425488710403
 20
-182.739694520831
 30
0.0
 11
-28.3244259059429
 21
-182.739694520831
 31
0.0
  0
LINE
  5
   4A6
  8
0
  6
CONTINUOUS
 62
     7
 10
-3.82442554086447
 20
-184.339694544673
 30
0.0
 11
-10.8244256451726
 21
-184.339694544673
 31
0.0
  0
LINE
  5
   4A7
  8
0
  6
CONTINUOUS
 62
     7
 10
-3.82442554086447
 20
-139.939693883061
 30
0.0
 11
-10.8244256451726
 21
-139.939693883061
 31
0.0
  0
LINE
  5
   4A8
  8
0
  6
CONTINUOUS
 62
     7
 10
-17.8244257494807
 20
-139.939693883061
 30
0.0
 11
-24.8244258537889
 21
-139.939693883061
 31
0.0
  0
LINE
  5
   4A9
  8
0
  6
CONTINUOUS
 62
     7
 10
-17.8244257494807
 20
-184.339694544673
 30
0.0
 11
-24.8244258537889
 21
-184.339694544673
 31
0.0
  0
INSERT
  5
   4AA
  8
0
  6
CONTINUOUS
 62
     7
  2
*UDIM59
 10
0.0
 20
0.0
 30
0.0
  0
INSERT
  5
   4AB
  8
0
  6
CONTINUOUS
 62
     7
  2
*UDIM60
 10
0.0
 20
0.0
 30
0.0
  0
INSERT
  5
   4AC
  8
0
  6
CONTINUOUS
 62
     7
  2
*UDIM61
 10
0.0
 20
0.0
 30
0.0
  0
INSERT
  5
   4AD
  8
0
  6
CONTINUOUS
 62
     7
  2
*UDIM62
 10
0.0
 20
0.0
 30
0.0
  0
INSERT
  5
   4AE
  8
0
  6
CONTINUOUS
 62
     7
  2
*UDIM63
 10
0.0
 20
0.0
 30
0.0
  0
INSERT
  5
   4AF
  8
0
  6
CONTINUOUS
 62
     7
  2
*UDIM64
 10
0.0
 20
0.0
 30
0.0
  0
INSERT
  5
   4B0
  8
0
  6
CONTINUOUS
 62
     7
  2
*UDIM65
 10
0.0
 20
0.0
 30
0.0
  0
INSERT
  5
   4B1
  8
0
  6
CONTINUOUS
 62
     7
  2
*UDIM66
 10
0.0
 20
0.0
 30
0.0
  0
TEXT
  5
   4B2
  8
0
  6
CONTINUOUS
 62
     7
 10
-63.4960267745509
 20
-160.971495322857
 30
0.0
 40
2.99999994933605
  1
X
 50
359.999999896069
 41
0.916666607525612
 72
     2
 11
-61.296026956345
 21
-160.971495326837
 31
0.0
  0
TEXT
  5
   4B3
  8
0
  6
CONTINUOUS
 62
     7
 10
29.6043743930266
 20
-162.510344794946
 30
0.0
 40
2.99999994933605
  1
X
 50
359.999999896069
 41
0.916666607525612
 72
     2
 11
31.8043742112325
 21
-162.510344798925
 31
0.0
  0
TEXT
  5
   4B4
  8
0
  6
CONTINUOUS
 62
     7
 10
-10.7288522211688
 20
-158.863128515927
 30
0.0
 40
2.99999994933605
  1
=
 50
359.999999896069
 41
0.916666607525612
 72
     2
 11
-8.52885240296301
 21
-158.863128519907
 31
0.0
  0
TEXT
  5
   4B5
  8
0
  6
CONTINUOUS
 62
     7
 10
-18.9775095706459
 20
-158.863128515927
 30
0.0
 40
2.99999994933605
  1
=
 50
359.999999896069
 41
0.916666607525612
 72
     2
 11
-16.7775097524401
 21
-158.863128519907
 31
0.0
  0
INSERT
  5
   4B6
  8
0
  6
CONTINUOUS
 62
     7
  2
*UDIM67
 10
0.0
 20
0.0
 30
0.0
  0
INSERT
  5
   4B7
  8
0
  6
CONTINUOUS
 62
     7
  2
*UDIM68
 10
0.0
 20
0.0
 30
0.0
  0
TEXT
  5
   4B8
  8
0
  6
CONTINUOUS
 62
     7
 10
-14.3648121188989
 20
-203.807230770801
 30
0.0
 40
2.99999994933605
  1
Y
 50
359.999999896069
 41
0.916666607525612
 72
     2
 11
-12.164812300693
 21
-203.807230774781
 31
0.0
  0
INSERT
  5
   4B9
  8
0
  6
CONTINUOUS
 62
     1
  2
*UDIM69
 10
0.0
 20
0.0
 30
0.0
  0
ENDSEC
  0
EOF
