ISO-10303-21;
HEADER;
FILE_DESCRIPTION(('CATIA V5 STEP Exchange'),'2;1');

FILE_NAME('C:\\Users\\uff.tecnico\\Desktop\\STP\\1SDH001295R0300_1PA_001_00_XT2_4P_FIXED_MOSTRINA_MOE.stp','2014-11-11T15:21:31+00:00',('none'),('none'),'CATIA Version 5 Release 20 SP 1 (IN-10)','CATIA V5 STEP AP214','none');

FILE_SCHEMA(('AUTOMOTIVE_DESIGN { 1 0 10303 214 1 1 1 1 }'));

ENDSEC;
/* file written by CATIA V5R20 */
DATA;
#5=PRODUCT('1SDH001295R0300_1PA_001_00_XT2_4P_FIXED_MOSTRINA_MOE','','',(#2)) ;
#2=PRODUCT_CONTEXT(' ',#1,'mechanical') ;
#1=APPLICATION_CONTEXT('automotive design') ;
#10=PRODUCT_DEFINITION('',' ',#6,#3) ;
#3=PRODUCT_DEFINITION_CONTEXT('part definition',#1,' ') ;
#11=PRODUCT_DEFINITION_SHAPE(' ',' ',#10) ;
#466=MECHANICAL_DESIGN_GEOMETRIC_PRESENTATION_REPRESENTATION(' ',(#30),#17) ;
#20=SHAPE_REPRESENTATION(' ',(#19),#17) ;
#19=AXIS2_PLACEMENT_3D(' ',#18,$,$) ;
#35=AXIS2_PLACEMENT_3D('Plane Axis2P3D',#32,#33,#34) ;
#62=AXIS2_PLACEMENT_3D('Circle Axis2P3D',#60,#61,$) ;
#75=AXIS2_PLACEMENT_3D('Plane Axis2P3D',#72,#73,#74) ;
#106=AXIS2_PLACEMENT_3D('Plane Axis2P3D',#103,#104,#105) ;
#137=AXIS2_PLACEMENT_3D('Plane Axis2P3D',#134,#135,#136) ;
#146=AXIS2_PLACEMENT_3D('Circle Axis2P3D',#144,#145,$) ;
#159=AXIS2_PLACEMENT_3D('Plane Axis2P3D',#156,#157,#158) ;
#163=AXIS2_PLACEMENT_3D('Circle Axis2P3D',#161,#162,$) ;
#199=AXIS2_PLACEMENT_3D('Plane Axis2P3D',#196,#197,#198) ;
#203=AXIS2_PLACEMENT_3D('Circle Axis2P3D',#201,#202,$) ;
#239=AXIS2_PLACEMENT_3D('Cylinder Axis2P3D',#236,#237,#238) ;
#267=AXIS2_PLACEMENT_3D('Plane Axis2P3D',#264,#265,#266) ;
#284=AXIS2_PLACEMENT_3D('Plane Axis2P3D',#281,#282,#283) ;
#301=AXIS2_PLACEMENT_3D('Plane Axis2P3D',#298,#299,#300) ;
#347=AXIS2_PLACEMENT_3D('Plane Axis2P3D',#344,#345,#346) ;
#378=AXIS2_PLACEMENT_3D('Plane Axis2P3D',#375,#376,#377) ;
#409=AXIS2_PLACEMENT_3D('Plane Axis2P3D',#406,#407,#408) ;
#426=AXIS2_PLACEMENT_3D('Plane Axis2P3D',#423,#424,#425) ;
#443=AXIS2_PLACEMENT_3D('Plane Axis2P3D',#440,#441,#442) ;
#463=AXIS2_PLACEMENT_3D('Sistema di assi.1',#460,#461,#462) ;
#18=CARTESIAN_POINT(' ',(0.,0.,0.)) ;
#32=CARTESIAN_POINT('Axis2P3D Location',(-45.25,0.,-30.077)) ;
#37=CARTESIAN_POINT('Line Origine',(-45.25,174.574792818,-30.077)) ;
#41=CARTESIAN_POINT('Vertex',(-45.25,172.,-30.077)) ;
#43=CARTESIAN_POINT('Vertex',(-45.25,177.149585635,-30.077)) ;
#46=CARTESIAN_POINT('Line Origine',(7.1054273576E-014,172.,-30.077)) ;
#50=CARTESIAN_POINT('Vertex',(45.25,172.,-30.077)) ;
#53=CARTESIAN_POINT('Line Origine',(45.25,174.574792818,-30.077)) ;
#57=CARTESIAN_POINT('Vertex',(45.25,177.149585635,-30.077)) ;
#60=CARTESIAN_POINT('Axis2P3D Location',(7.1054273576E-014,-257.25,-30.077)) ;
#72=CARTESIAN_POINT('Axis2P3D Location',(45.25,0.,49.223)) ;
#77=CARTESIAN_POINT('Line Origine',(45.25,177.149585635,9.573)) ;
#81=CARTESIAN_POINT('Vertex',(45.25,177.149585635,49.223)) ;
#84=CARTESIAN_POINT('Line Origine',(45.25,172.,9.573)) ;
#88=CARTESIAN_POINT('Vertex',(45.25,172.,49.223)) ;
#91=CARTESIAN_POINT('Line Origine',(45.25,174.574792818,49.223)) ;
#103=CARTESIAN_POINT('Axis2P3D Location',(-45.25,0.,-30.077)) ;
#108=CARTESIAN_POINT('Line Origine',(-45.25,177.149585635,9.573)) ;
#112=CARTESIAN_POINT('Vertex',(-45.25,177.149585635,49.223)) ;
#115=CARTESIAN_POINT('Line Origine',(-45.25,174.574792818,49.223)) ;
#119=CARTESIAN_POINT('Vertex',(-45.25,172.,49.223)) ;
#122=CARTESIAN_POINT('Line Origine',(-45.25,172.,9.573)) ;
#134=CARTESIAN_POINT('Axis2P3D Location',(45.25,0.,49.223)) ;
#139=CARTESIAN_POINT('Line Origine',(0.,172.,49.223)) ;
#144=CARTESIAN_POINT('Axis2P3D Location',(7.1054273576E-014,-257.25,49.223)) ;
#156=CARTESIAN_POINT('Axis2P3D Location',(0.,174.,66.723)) ;
#161=CARTESIAN_POINT('Axis2P3D Location',(-2.84217094304E-014,-257.25,66.723)) ;
#165=CARTESIAN_POINT('Vertex',(-52.25,176.363306991,66.723)) ;
#167=CARTESIAN_POINT('Vertex',(52.25,176.363306991,66.723)) ;
#170=CARTESIAN_POINT('Line Origine',(-52.25,175.181653496,66.723)) ;
#174=CARTESIAN_POINT('Vertex',(-52.25,174.,66.723)) ;
#177=CARTESIAN_POINT('Line Origine',(0.,174.,66.723)) ;
#181=CARTESIAN_POINT('Vertex',(52.25,174.,66.723)) ;
#184=CARTESIAN_POINT('Line Origine',(52.25,175.181653496,66.723)) ;
#196=CARTESIAN_POINT('Axis2P3D Location',(0.,179.5,-47.577)) ;
#201=CARTESIAN_POINT('Axis2P3D Location',(-2.84217094304E-014,-257.25,-47.577)) ;
#205=CARTESIAN_POINT('Vertex',(52.25,176.363306991,-47.577)) ;
#207=CARTESIAN_POINT('Vertex',(-52.25,176.363306991,-47.577)) ;
#210=CARTESIAN_POINT('Line Origine',(52.25,175.181653496,-47.577)) ;
#214=CARTESIAN_POINT('Vertex',(52.25,174.,-47.577)) ;
#217=CARTESIAN_POINT('Line Origine',(0.,174.,-47.577)) ;
#221=CARTESIAN_POINT('Vertex',(-52.25,174.,-47.577)) ;
#224=CARTESIAN_POINT('Line Origine',(-52.25,175.181653496,-47.577)) ;
#236=CARTESIAN_POINT('Axis2P3D Location',(0.,-257.25,0.)) ;
#241=CARTESIAN_POINT('Line Origine',(52.25,176.363306991,0.)) ;
#246=CARTESIAN_POINT('Line Origine',(-52.25,176.363306991,0.)) ;
#264=CARTESIAN_POINT('Axis2P3D Location',(-52.25,0.,0.)) ;
#269=CARTESIAN_POINT('Line Origine',(-52.25,174.,9.573)) ;
#281=CARTESIAN_POINT('Axis2P3D Location',(52.25,0.,0.)) ;
#286=CARTESIAN_POINT('Line Origine',(52.25,174.,9.573)) ;
#298=CARTESIAN_POINT('Axis2P3D Location',(0.,172.,54.073)) ;
#303=CARTESIAN_POINT('Line Origine',(-48.25,172.,9.573)) ;
#307=CARTESIAN_POINT('Vertex',(-48.25,172.,54.073)) ;
#309=CARTESIAN_POINT('Vertex',(-48.25,172.,-34.927)) ;
#312=CARTESIAN_POINT('Line Origine',(2.13162820728E-014,172.,-34.927)) ;
#316=CARTESIAN_POINT('Vertex',(48.25,172.,-34.927)) ;
#319=CARTESIAN_POINT('Line Origine',(48.25,172.,9.573)) ;
#323=CARTESIAN_POINT('Vertex',(48.25,172.,54.073)) ;
#326=CARTESIAN_POINT('Line Origine',(2.13162820728E-014,172.,54.073)) ;
#344=CARTESIAN_POINT('Axis2P3D Location',(0.,172.,-34.927)) ;
#349=CARTESIAN_POINT('Line Origine',(-48.25,173.,-34.927)) ;
#353=CARTESIAN_POINT('Vertex',(-48.25,174.,-34.927)) ;
#356=CARTESIAN_POINT('Line Origine',(0.,174.,-34.927)) ;
#360=CARTESIAN_POINT('Vertex',(48.25,174.,-34.927)) ;
#363=CARTESIAN_POINT('Line Origine',(48.25,173.,-34.927)) ;
#375=CARTESIAN_POINT('Axis2P3D Location',(0.,172.,54.073)) ;
#380=CARTESIAN_POINT('Line Origine',(48.25,173.,54.073)) ;
#384=CARTESIAN_POINT('Vertex',(48.25,174.,54.073)) ;
#387=CARTESIAN_POINT('Line Origine',(0.,174.,54.073)) ;
#391=CARTESIAN_POINT('Vertex',(-48.25,174.,54.073)) ;
#394=CARTESIAN_POINT('Line Origine',(-48.25,173.,54.073)) ;
#406=CARTESIAN_POINT('Axis2P3D Location',(-48.25,149.,0.)) ;
#411=CARTESIAN_POINT('Line Origine',(-48.25,174.,9.573)) ;
#423=CARTESIAN_POINT('Axis2P3D Location',(48.25,149.,0.)) ;
#428=CARTESIAN_POINT('Line Origine',(48.25,174.,9.573)) ;
#440=CARTESIAN_POINT('Axis2P3D Location',(0.,174.,66.723)) ;
#460=CARTESIAN_POINT('Axis2P3D Location',(0.,0.,0.)) ;
#33=DIRECTION('Axis2P3D Direction',(0.,0.,1.)) ;
#34=DIRECTION('Axis2P3D XDirection',(1.,0.,0.)) ;
#38=DIRECTION('Vector Direction',(0.,1.,0.)) ;
#47=DIRECTION('Vector Direction',(1.,0.,0.)) ;
#54=DIRECTION('Vector Direction',(0.,1.,0.)) ;
#61=DIRECTION('Axis2P3D Direction',(0.,0.,1.)) ;
#73=DIRECTION('Axis2P3D Direction',(1.,-0.,0.)) ;
#74=DIRECTION('Axis2P3D XDirection',(0.,0.,-1.)) ;
#78=DIRECTION('Vector Direction',(0.,0.,-1.)) ;
#85=DIRECTION('Vector Direction',(0.,0.,-1.)) ;
#92=DIRECTION('Vector Direction',(0.,1.,0.)) ;
#104=DIRECTION('Axis2P3D Direction',(-1.,0.,0.)) ;
#105=DIRECTION('Axis2P3D XDirection',(0.,0.,1.)) ;
#109=DIRECTION('Vector Direction',(0.,0.,1.)) ;
#116=DIRECTION('Vector Direction',(0.,1.,0.)) ;
#123=DIRECTION('Vector Direction',(0.,0.,1.)) ;
#135=DIRECTION('Axis2P3D Direction',(0.,0.,-1.)) ;
#136=DIRECTION('Axis2P3D XDirection',(-1.,0.,0.)) ;
#140=DIRECTION('Vector Direction',(-1.,0.,0.)) ;
#145=DIRECTION('Axis2P3D Direction',(0.,0.,-1.)) ;
#157=DIRECTION('Axis2P3D Direction',(0.,0.,-1.)) ;
#158=DIRECTION('Axis2P3D XDirection',(0.,1.,0.)) ;
#162=DIRECTION('Axis2P3D Direction',(0.,0.,-1.)) ;
#171=DIRECTION('Vector Direction',(0.,1.,0.)) ;
#178=DIRECTION('Vector Direction',(1.,0.,0.)) ;
#185=DIRECTION('Vector Direction',(0.,1.,0.)) ;
#197=DIRECTION('Axis2P3D Direction',(-0.,0.,1.)) ;
#198=DIRECTION('Axis2P3D XDirection',(0.,-1.,0.)) ;
#202=DIRECTION('Axis2P3D Direction',(-0.,0.,1.)) ;
#211=DIRECTION('Vector Direction',(0.,-1.,0.)) ;
#218=DIRECTION('Vector Direction',(1.,0.,0.)) ;
#225=DIRECTION('Vector Direction',(0.,-1.,0.)) ;
#237=DIRECTION('Axis2P3D Direction',(0.,0.,1.)) ;
#238=DIRECTION('Axis2P3D XDirection',(0.171722953635,0.985145282278,0.)) ;
#242=DIRECTION('Vector Direction',(0.,0.,1.)) ;
#247=DIRECTION('Vector Direction',(0.,0.,1.)) ;
#265=DIRECTION('Axis2P3D Direction',(1.,0.,0.)) ;
#266=DIRECTION('Axis2P3D XDirection',(0.,1.,0.)) ;
#270=DIRECTION('Vector Direction',(0.,0.,1.)) ;
#282=DIRECTION('Axis2P3D Direction',(1.,0.,0.)) ;
#283=DIRECTION('Axis2P3D XDirection',(0.,1.,0.)) ;
#287=DIRECTION('Vector Direction',(0.,0.,-1.)) ;
#299=DIRECTION('Axis2P3D Direction',(0.,-1.,0.)) ;
#300=DIRECTION('Axis2P3D XDirection',(0.,0.,-1.)) ;
#304=DIRECTION('Vector Direction',(0.,0.,-1.)) ;
#313=DIRECTION('Vector Direction',(1.,0.,0.)) ;
#320=DIRECTION('Vector Direction',(0.,0.,-1.)) ;
#327=DIRECTION('Vector Direction',(1.,0.,0.)) ;
#345=DIRECTION('Axis2P3D Direction',(0.,0.,-1.)) ;
#346=DIRECTION('Axis2P3D XDirection',(0.,1.,0.)) ;
#350=DIRECTION('Vector Direction',(0.,-1.,0.)) ;
#357=DIRECTION('Vector Direction',(1.,0.,0.)) ;
#364=DIRECTION('Vector Direction',(0.,-1.,0.)) ;
#376=DIRECTION('Axis2P3D Direction',(0.,0.,-1.)) ;
#377=DIRECTION('Axis2P3D XDirection',(0.,1.,0.)) ;
#381=DIRECTION('Vector Direction',(0.,-1.,0.)) ;
#388=DIRECTION('Vector Direction',(1.,0.,0.)) ;
#395=DIRECTION('Vector Direction',(0.,-1.,0.)) ;
#407=DIRECTION('Axis2P3D Direction',(-1.,0.,0.)) ;
#408=DIRECTION('Axis2P3D XDirection',(0.,1.,0.)) ;
#412=DIRECTION('Vector Direction',(0.,0.,-1.)) ;
#424=DIRECTION('Axis2P3D Direction',(-1.,0.,0.)) ;
#425=DIRECTION('Axis2P3D XDirection',(0.,1.,0.)) ;
#429=DIRECTION('Vector Direction',(0.,0.,-1.)) ;
#441=DIRECTION('Axis2P3D Direction',(0.,-1.,0.)) ;
#442=DIRECTION('Axis2P3D XDirection',(0.,0.,-1.)) ;
#461=DIRECTION('Axis2P3D Direction',(0.,0.,1.)) ;
#462=DIRECTION('Axis2P3D XDirection',(1.,0.,0.)) ;
#8=PRODUCT_RELATED_PRODUCT_CATEGORY('part',$,(#5)) ;
#7=PRODUCT_CATEGORY('part','specification') ;
#30=STYLED_ITEM(' ',(#29),#22) ;
#29=PRESENTATION_STYLE_ASSIGNMENT((#28)) ;
#28=SURFACE_STYLE_USAGE(.BOTH.,#27) ;
#27=SURFACE_SIDE_STYLE(' ',(#26)) ;
#26=SURFACE_STYLE_FILL_AREA(#25) ;
#25=FILL_AREA_STYLE(' ',(#24)) ;
#24=FILL_AREA_STYLE_COLOUR(' ',#23) ;
#39=VECTOR('Line Direction',#38,1.) ;
#48=VECTOR('Line Direction',#47,1.) ;
#55=VECTOR('Line Direction',#54,1.) ;
#79=VECTOR('Line Direction',#78,1.) ;
#86=VECTOR('Line Direction',#85,1.) ;
#93=VECTOR('Line Direction',#92,1.) ;
#110=VECTOR('Line Direction',#109,1.) ;
#117=VECTOR('Line Direction',#116,1.) ;
#124=VECTOR('Line Direction',#123,1.) ;
#141=VECTOR('Line Direction',#140,1.) ;
#172=VECTOR('Line Direction',#171,1.) ;
#179=VECTOR('Line Direction',#178,1.) ;
#186=VECTOR('Line Direction',#185,1.) ;
#212=VECTOR('Line Direction',#211,1.) ;
#219=VECTOR('Line Direction',#218,1.) ;
#226=VECTOR('Line Direction',#225,1.) ;
#243=VECTOR('Line Direction',#242,1.) ;
#248=VECTOR('Line Direction',#247,1.) ;
#271=VECTOR('Line Direction',#270,1.) ;
#288=VECTOR('Line Direction',#287,1.) ;
#305=VECTOR('Line Direction',#304,1.) ;
#314=VECTOR('Line Direction',#313,1.) ;
#321=VECTOR('Line Direction',#320,1.) ;
#328=VECTOR('Line Direction',#327,1.) ;
#351=VECTOR('Line Direction',#350,1.) ;
#358=VECTOR('Line Direction',#357,1.) ;
#365=VECTOR('Line Direction',#364,1.) ;
#382=VECTOR('Line Direction',#381,1.) ;
#389=VECTOR('Line Direction',#388,1.) ;
#396=VECTOR('Line Direction',#395,1.) ;
#413=VECTOR('Line Direction',#412,1.) ;
#430=VECTOR('Line Direction',#429,1.) ;
#16=UNCERTAINTY_MEASURE_WITH_UNIT(LENGTH_MEASURE(0.005),#12,'distance_accuracy_value','CONFUSED CURVE UNCERTAINTY') ;
#459=SHAPE_REPRESENTATION_RELATIONSHIP(' ',' ',#20,#458) ;
#66=ORIENTED_EDGE('',*,*,#45,.F.) ;
#67=ORIENTED_EDGE('',*,*,#52,.T.) ;
#68=ORIENTED_EDGE('',*,*,#59,.T.) ;
#69=ORIENTED_EDGE('',*,*,#64,.T.) ;
#97=ORIENTED_EDGE('',*,*,#83,.T.) ;
#98=ORIENTED_EDGE('',*,*,#59,.F.) ;
#99=ORIENTED_EDGE('',*,*,#90,.F.) ;
#100=ORIENTED_EDGE('',*,*,#95,.T.) ;
#128=ORIENTED_EDGE('',*,*,#114,.T.) ;
#129=ORIENTED_EDGE('',*,*,#121,.F.) ;
#130=ORIENTED_EDGE('',*,*,#126,.F.) ;
#131=ORIENTED_EDGE('',*,*,#45,.T.) ;
#150=ORIENTED_EDGE('',*,*,#95,.F.) ;
#151=ORIENTED_EDGE('',*,*,#143,.T.) ;
#152=ORIENTED_EDGE('',*,*,#121,.T.) ;
#153=ORIENTED_EDGE('',*,*,#148,.T.) ;
#190=ORIENTED_EDGE('',*,*,#169,.F.) ;
#191=ORIENTED_EDGE('',*,*,#176,.T.) ;
#192=ORIENTED_EDGE('',*,*,#183,.T.) ;
#193=ORIENTED_EDGE('',*,*,#188,.F.) ;
#230=ORIENTED_EDGE('',*,*,#209,.F.) ;
#231=ORIENTED_EDGE('',*,*,#216,.F.) ;
#232=ORIENTED_EDGE('',*,*,#223,.F.) ;
#233=ORIENTED_EDGE('',*,*,#228,.T.) ;
#252=ORIENTED_EDGE('',*,*,#169,.T.) ;
#253=ORIENTED_EDGE('',*,*,#245,.F.) ;
#254=ORIENTED_EDGE('',*,*,#209,.T.) ;
#255=ORIENTED_EDGE('',*,*,#250,.T.) ;
#258=ORIENTED_EDGE('',*,*,#64,.F.) ;
#259=ORIENTED_EDGE('',*,*,#83,.F.) ;
#260=ORIENTED_EDGE('',*,*,#148,.F.) ;
#261=ORIENTED_EDGE('',*,*,#114,.F.) ;
#275=ORIENTED_EDGE('',*,*,#176,.F.) ;
#276=ORIENTED_EDGE('',*,*,#250,.F.) ;
#277=ORIENTED_EDGE('',*,*,#228,.F.) ;
#278=ORIENTED_EDGE('',*,*,#273,.F.) ;
#292=ORIENTED_EDGE('',*,*,#290,.T.) ;
#293=ORIENTED_EDGE('',*,*,#216,.T.) ;
#294=ORIENTED_EDGE('',*,*,#245,.T.) ;
#295=ORIENTED_EDGE('',*,*,#188,.T.) ;
#332=ORIENTED_EDGE('',*,*,#311,.T.) ;
#333=ORIENTED_EDGE('',*,*,#318,.T.) ;
#334=ORIENTED_EDGE('',*,*,#325,.F.) ;
#335=ORIENTED_EDGE('',*,*,#330,.F.) ;
#338=ORIENTED_EDGE('',*,*,#143,.F.) ;
#339=ORIENTED_EDGE('',*,*,#90,.T.) ;
#340=ORIENTED_EDGE('',*,*,#52,.F.) ;
#341=ORIENTED_EDGE('',*,*,#126,.T.) ;
#369=ORIENTED_EDGE('',*,*,#355,.F.) ;
#370=ORIENTED_EDGE('',*,*,#362,.T.) ;
#371=ORIENTED_EDGE('',*,*,#367,.T.) ;
#372=ORIENTED_EDGE('',*,*,#318,.F.) ;
#400=ORIENTED_EDGE('',*,*,#330,.T.) ;
#401=ORIENTED_EDGE('',*,*,#386,.F.) ;
#402=ORIENTED_EDGE('',*,*,#393,.F.) ;
#403=ORIENTED_EDGE('',*,*,#398,.T.) ;
#417=ORIENTED_EDGE('',*,*,#415,.T.) ;
#418=ORIENTED_EDGE('',*,*,#355,.T.) ;
#419=ORIENTED_EDGE('',*,*,#311,.F.) ;
#420=ORIENTED_EDGE('',*,*,#398,.F.) ;
#434=ORIENTED_EDGE('',*,*,#386,.T.) ;
#435=ORIENTED_EDGE('',*,*,#325,.T.) ;
#436=ORIENTED_EDGE('',*,*,#367,.F.) ;
#437=ORIENTED_EDGE('',*,*,#432,.F.) ;
#446=ORIENTED_EDGE('',*,*,#223,.T.) ;
#447=ORIENTED_EDGE('',*,*,#290,.F.) ;
#448=ORIENTED_EDGE('',*,*,#183,.F.) ;
#449=ORIENTED_EDGE('',*,*,#273,.T.) ;
#452=ORIENTED_EDGE('',*,*,#432,.T.) ;
#453=ORIENTED_EDGE('',*,*,#362,.F.) ;
#454=ORIENTED_EDGE('',*,*,#415,.F.) ;
#455=ORIENTED_EDGE('',*,*,#393,.T.) ;
#262=FACE_BOUND('',#257,.T.) ;
#342=FACE_BOUND('',#337,.T.) ;
#456=FACE_BOUND('',#451,.T.) ;
#31=CLOSED_SHELL('Closed Shell',(#71,#102,#133,#155,#195,#235,#263,#280,#297,#343,#374,#405,#422,#439,#457)) ;
#458=ADVANCED_BREP_SHAPE_REPRESENTATION('NONE',(#22),#17) ;
#71=ADVANCED_FACE('Mostrina',(#70),#36,.T.) ;
#102=ADVANCED_FACE('Mostrina',(#101),#76,.F.) ;
#133=ADVANCED_FACE('Mostrina',(#132),#107,.F.) ;
#155=ADVANCED_FACE('Mostrina',(#154),#138,.T.) ;
#195=ADVANCED_FACE('Mostrina',(#194),#160,.F.) ;
#235=ADVANCED_FACE('Mostrina',(#234),#200,.F.) ;
#263=ADVANCED_FACE('Mostrina',(#256,#262),#240,.T.) ;
#280=ADVANCED_FACE('Mostrina',(#279),#268,.F.) ;
#297=ADVANCED_FACE('Mostrina',(#296),#285,.T.) ;
#343=ADVANCED_FACE('Mostrina',(#336,#342),#302,.T.) ;
#374=ADVANCED_FACE('Mostrina',(#373),#348,.T.) ;
#405=ADVANCED_FACE('Mostrina',(#404),#379,.F.) ;
#422=ADVANCED_FACE('Mostrina',(#421),#410,.T.) ;
#439=ADVANCED_FACE('Mostrina',(#438),#427,.F.) ;
#457=ADVANCED_FACE('Mostrina',(#450,#456),#444,.T.) ;
#4=APPLICATION_PROTOCOL_DEFINITION('international standard','automotive_design',2001,#1) ;
#22=MANIFOLD_SOLID_BREP('Mostrina',#31) ;
#63=CIRCLE('generated circle',#62,436.75) ;
#147=CIRCLE('generated circle',#146,436.75) ;
#164=CIRCLE('generated circle',#163,436.75) ;
#204=CIRCLE('generated circle',#203,436.75) ;
#23=COLOUR_RGB('Colour',0.341176470588,0.364705882353,0.36862745098) ;
#464=CONSTRUCTIVE_GEOMETRY_REPRESENTATION('supplemental geometry',(#463),#17) ;
#465=CONSTRUCTIVE_GEOMETRY_REPRESENTATION_RELATIONSHIP('supplemental geometry','',#20,#464) ;
#240=CYLINDRICAL_SURFACE('generated cylinder',#239,436.75) ;
#45=EDGE_CURVE('',#42,#44,#40,.T.) ;
#52=EDGE_CURVE('',#42,#51,#49,.T.) ;
#59=EDGE_CURVE('',#51,#58,#56,.T.) ;
#64=EDGE_CURVE('',#58,#44,#63,.T.) ;
#83=EDGE_CURVE('',#82,#58,#80,.T.) ;
#90=EDGE_CURVE('',#89,#51,#87,.T.) ;
#95=EDGE_CURVE('',#89,#82,#94,.T.) ;
#114=EDGE_CURVE('',#44,#113,#111,.T.) ;
#121=EDGE_CURVE('',#120,#113,#118,.T.) ;
#126=EDGE_CURVE('',#42,#120,#125,.T.) ;
#143=EDGE_CURVE('',#89,#120,#142,.T.) ;
#148=EDGE_CURVE('',#113,#82,#147,.T.) ;
#169=EDGE_CURVE('',#166,#168,#164,.T.) ;
#176=EDGE_CURVE('',#166,#175,#173,.F.) ;
#183=EDGE_CURVE('',#175,#182,#180,.T.) ;
#188=EDGE_CURVE('',#168,#182,#187,.F.) ;
#209=EDGE_CURVE('',#206,#208,#204,.T.) ;
#216=EDGE_CURVE('',#215,#206,#213,.F.) ;
#223=EDGE_CURVE('',#222,#215,#220,.T.) ;
#228=EDGE_CURVE('',#222,#208,#227,.F.) ;
#245=EDGE_CURVE('',#206,#168,#244,.T.) ;
#250=EDGE_CURVE('',#208,#166,#249,.T.) ;
#273=EDGE_CURVE('',#175,#222,#272,.F.) ;
#290=EDGE_CURVE('',#182,#215,#289,.T.) ;
#311=EDGE_CURVE('',#308,#310,#306,.T.) ;
#318=EDGE_CURVE('',#310,#317,#315,.T.) ;
#325=EDGE_CURVE('',#324,#317,#322,.T.) ;
#330=EDGE_CURVE('',#308,#324,#329,.T.) ;
#355=EDGE_CURVE('',#354,#310,#352,.T.) ;
#362=EDGE_CURVE('',#354,#361,#359,.T.) ;
#367=EDGE_CURVE('',#361,#317,#366,.T.) ;
#386=EDGE_CURVE('',#385,#324,#383,.T.) ;
#393=EDGE_CURVE('',#392,#385,#390,.T.) ;
#398=EDGE_CURVE('',#392,#308,#397,.T.) ;
#415=EDGE_CURVE('',#392,#354,#414,.T.) ;
#432=EDGE_CURVE('',#385,#361,#431,.T.) ;
#65=EDGE_LOOP('',(#66,#67,#68,#69)) ;
#96=EDGE_LOOP('',(#97,#98,#99,#100)) ;
#127=EDGE_LOOP('',(#128,#129,#130,#131)) ;
#149=EDGE_LOOP('',(#150,#151,#152,#153)) ;
#189=EDGE_LOOP('',(#190,#191,#192,#193)) ;
#229=EDGE_LOOP('',(#230,#231,#232,#233)) ;
#251=EDGE_LOOP('',(#252,#253,#254,#255)) ;
#257=EDGE_LOOP('',(#258,#259,#260,#261)) ;
#274=EDGE_LOOP('',(#275,#276,#277,#278)) ;
#291=EDGE_LOOP('',(#292,#293,#294,#295)) ;
#331=EDGE_LOOP('',(#332,#333,#334,#335)) ;
#337=EDGE_LOOP('',(#338,#339,#340,#341)) ;
#368=EDGE_LOOP('',(#369,#370,#371,#372)) ;
#399=EDGE_LOOP('',(#400,#401,#402,#403)) ;
#416=EDGE_LOOP('',(#417,#418,#419,#420)) ;
#433=EDGE_LOOP('',(#434,#435,#436,#437)) ;
#445=EDGE_LOOP('',(#446,#447,#448,#449)) ;
#451=EDGE_LOOP('',(#452,#453,#454,#455)) ;
#70=FACE_OUTER_BOUND('',#65,.T.) ;
#101=FACE_OUTER_BOUND('',#96,.T.) ;
#132=FACE_OUTER_BOUND('',#127,.T.) ;
#154=FACE_OUTER_BOUND('',#149,.T.) ;
#194=FACE_OUTER_BOUND('',#189,.T.) ;
#234=FACE_OUTER_BOUND('',#229,.T.) ;
#256=FACE_OUTER_BOUND('',#251,.T.) ;
#279=FACE_OUTER_BOUND('',#274,.T.) ;
#296=FACE_OUTER_BOUND('',#291,.T.) ;
#336=FACE_OUTER_BOUND('',#331,.T.) ;
#373=FACE_OUTER_BOUND('',#368,.T.) ;
#404=FACE_OUTER_BOUND('',#399,.T.) ;
#421=FACE_OUTER_BOUND('',#416,.T.) ;
#438=FACE_OUTER_BOUND('',#433,.T.) ;
#450=FACE_OUTER_BOUND('',#445,.T.) ;
#40=LINE('Line',#37,#39) ;
#49=LINE('Line',#46,#48) ;
#56=LINE('Line',#53,#55) ;
#80=LINE('Line',#77,#79) ;
#87=LINE('Line',#84,#86) ;
#94=LINE('Line',#91,#93) ;
#111=LINE('Line',#108,#110) ;
#118=LINE('Line',#115,#117) ;
#125=LINE('Line',#122,#124) ;
#142=LINE('Line',#139,#141) ;
#173=LINE('Line',#170,#172) ;
#180=LINE('Line',#177,#179) ;
#187=LINE('Line',#184,#186) ;
#213=LINE('Line',#210,#212) ;
#220=LINE('Line',#217,#219) ;
#227=LINE('Line',#224,#226) ;
#244=LINE('Line',#241,#243) ;
#249=LINE('Line',#246,#248) ;
#272=LINE('Line',#269,#271) ;
#289=LINE('Line',#286,#288) ;
#306=LINE('Line',#303,#305) ;
#315=LINE('Line',#312,#314) ;
#322=LINE('Line',#319,#321) ;
#329=LINE('Line',#326,#328) ;
#352=LINE('Line',#349,#351) ;
#359=LINE('Line',#356,#358) ;
#366=LINE('Line',#363,#365) ;
#383=LINE('Line',#380,#382) ;
#390=LINE('Line',#387,#389) ;
#397=LINE('Line',#394,#396) ;
#414=LINE('Line',#411,#413) ;
#431=LINE('Line',#428,#430) ;
#36=PLANE('',#35) ;
#76=PLANE('',#75) ;
#107=PLANE('',#106) ;
#138=PLANE('',#137) ;
#160=PLANE('',#159) ;
#200=PLANE('',#199) ;
#268=PLANE('',#267) ;
#285=PLANE('',#284) ;
#302=PLANE('',#301) ;
#348=PLANE('',#347) ;
#379=PLANE('',#378) ;
#410=PLANE('',#409) ;
#427=PLANE('',#426) ;
#444=PLANE('',#443) ;
#14=PLANE_ANGLE_MEASURE_WITH_UNIT(PLANE_ANGLE_MEASURE(0.0174532925199),#13) ;
#9=PRODUCT_CATEGORY_RELATIONSHIP(' ',' ',#7,#8) ;
#6=PRODUCT_DEFINITION_FORMATION_WITH_SPECIFIED_SOURCE('',' ',#5,.NOT_KNOWN.) ;
#21=SHAPE_DEFINITION_REPRESENTATION(#11,#20) ;
#42=VERTEX_POINT('',#41) ;
#44=VERTEX_POINT('',#43) ;
#51=VERTEX_POINT('',#50) ;
#58=VERTEX_POINT('',#57) ;
#82=VERTEX_POINT('',#81) ;
#89=VERTEX_POINT('',#88) ;
#113=VERTEX_POINT('',#112) ;
#120=VERTEX_POINT('',#119) ;
#166=VERTEX_POINT('',#165) ;
#168=VERTEX_POINT('',#167) ;
#175=VERTEX_POINT('',#174) ;
#182=VERTEX_POINT('',#181) ;
#206=VERTEX_POINT('',#205) ;
#208=VERTEX_POINT('',#207) ;
#215=VERTEX_POINT('',#214) ;
#222=VERTEX_POINT('',#221) ;
#308=VERTEX_POINT('',#307) ;
#310=VERTEX_POINT('',#309) ;
#317=VERTEX_POINT('',#316) ;
#324=VERTEX_POINT('',#323) ;
#354=VERTEX_POINT('',#353) ;
#361=VERTEX_POINT('',#360) ;
#385=VERTEX_POINT('',#384) ;
#392=VERTEX_POINT('',#391) ;
#12=(LENGTH_UNIT()NAMED_UNIT(*)SI_UNIT(.MILLI.,.METRE.)) ;
#13=(NAMED_UNIT(*)PLANE_ANGLE_UNIT()SI_UNIT($,.RADIAN.)) ;
#15=(NAMED_UNIT(*)SI_UNIT($,.STERADIAN.)SOLID_ANGLE_UNIT()) ;
#17=(GEOMETRIC_REPRESENTATION_CONTEXT(3)GLOBAL_UNCERTAINTY_ASSIGNED_CONTEXT((#16))GLOBAL_UNIT_ASSIGNED_CONTEXT((#12,#13,#15))REPRESENTATION_CONTEXT(' ',' ')) ;
ENDSEC;
END-ISO-10303-21;
