  0
SECTION
  2
HEADER
  9
$ACADVER
  1
AC1009
  9
$INSBASE
 10
0.0
 20
0.0
 30
0.0
  9
$EXTMIN
 10
-222.0797227999999
 20
322.2310791968502
 30
0.0
  9
$EXTMAX
 10
984.29890399999999
 20
777.88340099999994
 30
0.0
  9
$LIMMIN
 10
0.0
 20
0.0
  9
$LIMMAX
 10
420.0
 20
297.0
  9
$ORTHOMODE
 70
     0
  9
$REGENMODE
 70
     1
  9
$FILLMODE
 70
     1
  9
$QTEXTMODE
 70
     0
  9
$MIRRTEXT
 70
     1
  9
$DRAGMODE
 70
     2
  9
$LTSCALE
 40
1.0
  9
$OSMODE
 70
    47
  9
$ATTMODE
 70
     1
  9
$TEXTSIZE
 40
0.0
  9
$TRACEWID
 40
1.0
  9
$TEXTSTYLE
  7
STANDARD
  9
$CLAYER
  8
0
  9
$CELTYPE
  6
BYLAYER
  9
$CECOLOR
 62
   256
  9
$DIMSCALE
 40
1.0
  9
$DIMASZ
 40
2.5
  9
$DIMEXO
 40
0.625
  9
$DIMDLI
 40
3.75
  9
$DIMRND
 40
0.0
  9
$DIMDLE
 40
0.0
  9
$DIMEXE
 40
1.25
  9
$DIMTP
 40
0.0
  9
$DIMTM
 40
0.0
  9
$DIMTXT
 40
2.5
  9
$DIMCEN
 40
2.5
  9
$DIMTSZ
 40
0.0
  9
$DIMTOL
 70
     0
  9
$DIMLIM
 70
     0
  9
$DIMTIH
 70
     0
  9
$DIMTOH
 70
     0
  9
$DIMSE1
 70
     0
  9
$DIMSE2
 70
     0
  9
$DIMTAD
 70
     1
  9
$DIMZIN
 70
     8
  9
$DIMBLK
  1

  9
$DIMASO
 70
     1
  9
$DIMSHO
 70
     1
  9
$DIMPOST
  1

  9
$DIMAPOST
  1

  9
$DIMALT
 70
     0
  9
$DIMALTD
 70
     3
  9
$DIMALTF
 40
0.03937
  9
$DIMLFAC
 40
1.0
  9
$DIMTOFL
 70
     1
  9
$DIMTVP
 40
0.0
  9
$DIMTIX
 70
     0
  9
$DIMSOXD
 70
     0
  9
$DIMSAH
 70
     0
  9
$DIMBLK1
  1

  9
$DIMBLK2
  1

  9
$DIMSTYLE
  2
STANDARD
  9
$DIMCLRD
 70
     0
  9
$DIMCLRE
 70
     0
  9
$DIMCLRT
 70
     0
  9
$DIMTFAC
 40
1.0
  9
$DIMGAP
 40
0.625
  9
$LUNITS
 70
     2
  9
$LUPREC
 70
     4
  9
$SKETCHINC
 40
1.0
  9
$FILLETRAD
 40
2.5
  9
$AUNITS
 70
     0
  9
$AUPREC
 70
     0
  9
$MENU
  1
.
  9
$ELEVATION
 40
0.0
  9
$PELEVATION
 40
0.0
  9
$THICKNESS
 40
0.0
  9
$LIMCHECK
 70
     0
  9
$BLIPMODE
 70
     0
  9
$CHAMFERA
 40
2.5
  9
$CHAMFERB
 40
2.5
  9
$SKPOLY
 70
     0
  9
$TDCREATE
 40
2311942.6599082062
  9
$TDUPDATE
 40
2454455.39565309
  9
$TDINDWG
 40
0.0003233102
  9
$TDUSRTIMER
 40
0.0003233102
  9
$USRTIMER
 70
     1
  9
$ANGBASE
 50
0.0
  9
$ANGDIR
 70
     0
  9
$PDMODE
 70
     0
  9
$PDSIZE
 40
0.0
  9
$PLINEWID
 40
0.0
  9
$COORDS
 70
     1
  9
$SPLFRAME
 70
     0
  9
$SPLINETYPE
 70
     6
  9
$SPLINESEGS
 70
     8
  9
$ATTDIA
 70
     0
  9
$ATTREQ
 70
     1
  9
$HANDLING
 70
 22529
  9
$HANDSEED
  5
EFC
  9
$SURFTAB1
 70
     6
  9
$SURFTAB2
 70
     6
  9
$SURFTYPE
 70
     6
  9
$SURFU
 70
     6
  9
$SURFV
 70
     6
  9
$UCSNAME
  2

  9
$UCSORG
 10
0.0
 20
0.0
 30
0.0
  9
$UCSXDIR
 10
1.0
 20
0.0
 30
0.0
  9
$UCSYDIR
 10
0.0
 20
1.0
 30
0.0
  9
$PUCSNAME
  2

  9
$PUCSORG
 10
0.0
 20
0.0
 30
0.0
  9
$PUCSXDIR
 10
1.0
 20
0.0
 30
0.0
  9
$PUCSYDIR
 10
0.0
 20
1.0
 30
0.0
  9
$USERI1
 70
     0
  9
$USERI2
 70
     0
  9
$USERI3
 70
     0
  9
$USERI4
 70
     0
  9
$USERI5
 70
     0
  9
$USERR1
 40
0.0
  9
$USERR2
 40
0.0
  9
$USERR3
 40
0.0
  9
$USERR4
 40
0.0
  9
$USERR5
 40
0.0
  9
$WORLDVIEW
 70
     1
  9
$SHADEDGE
 70
     3
  9
$SHADEDIF
 70
    70
  9
$TILEMODE
 70
     1
  9
$MAXACTVP
 70
    48
  9
$PLIMCHECK
 70
     0
  9
$PEXTMIN
 10
0.0
 20
0.0
 30
0.0
  9
$PEXTMAX
 10
297.72766100000001
 20
207.0
 30
2.0
  9
$PLIMMIN
 10
0.0
 20
0.0
  9
$PLIMMAX
 10
420.0
 20
297.0
  9
$UNITMODE
 70
     0
  9
$VISRETAIN
 70
     0
  9
$PLINEGEN
 70
     0
  9
$PSLTSCALE
 70
     1
  0
ENDSEC
  0
SECTION
  2
TABLES
  0
TABLE
  2
VPORT
 70
     2
  0
VPORT
  2
*ACTIVE
 70
     0
 10
0.0
 20
0.0
 11
1.0
 21
1.0
 12
381.10959059999988
 22
550.05724009842515
 13
0.0
 23
0.0
 14
1.0
 24
1.0
 15
0.0
 25
0.0
 16
0.0
 26
0.0
 36
1.0
 17
0.0
 27
0.0
 37
0.0
 40
781.90561312159105
 41
1.550724637681159
 42
50.0
 43
0.0
 44
0.0
 50
0.0
 51
0.0
 71
     0
 72
   100
 73
     1
 74
     1
 75
     0
 76
     0
 77
     0
 78
     0
  0
ENDTAB
  0
TABLE
  2
LTYPE
 70
     8
  0
LTYPE
  2
CONTINUOUS
 70
     0
  3
Solid line
 72
    65
 73
     0
 40
0.0
  0
LTYPE
  2
DASHED
 70
     0
  3
__ __ __ __ __ __ __ __ __ __ __ __ __ __ __ __
 72
    65
 73
     2
 40
15.0
 49
12.0
 49
-3.0
  0
LTYPE
  2
DASHDOT
 70
     0
  3
 __ . __ . __ . __ . __ . __ . __ . 
 72
    65
 73
     4
 40
18.5
 49
12.0
 49
-3.0
 49
0.5
 49
-3.0
  0
LTYPE
  2
DOT
 70
     0
  3
 . . . . . . . . . . . . . . . .
 72
    65
 73
     2
 40
3.5
 49
0.5
 49
-3.0
  0
LTYPE
  2
DASHSPACE
 70
     0
  3
__    __    __    __    __   
 72
    65
 73
     2
 40
30.0
 49
12.0
 49
-18.0
  0
LTYPE
  2
DASHDOT2
 70
     0
  3
__ . . __ . . __ . . __ 
 72
    65
 73
     6
 40
22.0
 49
12.0
 49
-3.0
 49
0.5
 49
-3.0
 49
0.5
 49
-3.0
  0
LTYPE
  2
PHANTOM
 70
     0
  3
____________    ____    ____   _
 72
    65
 73
     6
 40
20.0
 49
10.0
 49
-2.0
 49
2.0
 49
-2.0
 49
2.0
 49
-2.0
  0
LTYPE
  2
AXES
 70
     0
  3
________  __  ________  __  _____
 72
    65
 73
     4
 40
24.0
 49
15.0
 49
-3.0
 49
3.0
 49
-3.0
  0
ENDTAB
  0
TABLE
  2
LAYER
 70
     1
  0
LAYER
  2
0
 70
     0
 62
     7
  6
CONTINUOUS
  0
ENDTAB
  0
TABLE
  2
STYLE
 70
     2
  0
STYLE
  2
STANDARD
 70
     0
 40
0.0
 41
1.0
 50
0.0
 71
     0
 42
0.0
  3
isocp.shx
  4

  0
STYLE
  2
GDT
 70
     0
 40
0.0
 41
1.0
 50
0.0
 71
     0
 42
0.0
  3
amgdt.shx
  4

  0
ENDTAB
  0
TABLE
  2
VIEW
 70
     0
  0
ENDTAB
  0
TABLE
  2
UCS
 70
     0
  0
ENDTAB
  0
TABLE
  2
APPID
 70
     1
  0
APPID
  2
ACAD
 70
     0
  0
ENDTAB
  0
TABLE
  2
DIMSTYLE
 70
     1
  0
DIMSTYLE
  2
STANDARD
 70
     0
  3

  4

  5

  6

  7

 40
1.0
 41
2.5
 42
0.625
 43
3.75
 44
1.25
 45
0.0
 46
0.0
 47
0.0
 48
0.0
140
2.5
141
2.5
142
0.0
143
0.03937
144
1.0
145
0.0
146
1.0
147
0.625
 71
     0
 72
     0
 73
     0
 74
     0
 75
     0
 76
     0
 77
     1
 78
     8
170
     0
171
     3
172
     1
173
     0
174
     0
175
     0
176
     0
177
     0
178
     0
  0
ENDTAB
  0
ENDSEC
  0
SECTION
  2
BLOCKS
  0
BLOCK
  8
0
  2
$MODEL_SPACE
 70
     0
 10
0.0
 20
0.0
 30
0.0
  3
$MODEL_SPACE
  1

  0
ENDBLK
  5
E
  8
0
  0
BLOCK
 67
     1
  8
0
  2
$PAPER_SPACE
 70
     0
 10
0.0
 20
0.0
 30
0.0
  3
$PAPER_SPACE
  1

  0
ENDBLK
  5
10
 67
     1
  8
0
  0
BLOCK
  8
0
  2
BLOCK0
 70
     0
 10
0.0
 20
0.0
 30
0.0
  3
BLOCK0
  1

  0
TEXT
  5
8C8
  8
0
 62
     1
 10
-554.0
 20
-46.0
 30
0.0
 40
3.0
  1
Ts3
 50
180.0
 41
1.225762527177944
 72
     5
 11
-561.69995099999994
 21
-46.0
 31
0.0
  0
ENDBLK
  5
8C9
  8
0
  0
BLOCK
  8
0
  2
BLOCK1
 70
     0
 10
0.0
 20
0.0
 30
0.0
  3
BLOCK1
  1

  0
TEXT
  5
8CB
  8
0
 62
     1
 10
-528.0
 20
-32.0
 30
0.0
 40
4.0
  1
1SDH000637R0.121
 50
180.0
 41
1.4177707416267931
 72
     5
 11
-587.26281700000004
 21
-32.0
 31
0.0
  0
ENDBLK
  5
8CC
  8
0
  0
BLOCK
  8
0
  2
BLOCK2
 70
     0
 10
0.0
 20
0.0
 30
0.0
  3
BLOCK2
  1

  0
TEXT
  5
8CE
  8
0
 62
     1
 10
-468.15212999999989
 20
-43.0
 30
0.0
 40
2.0
  1
N0204 2007-09-17
 50
180.0
 41
1.1017693073406229
 72
     5
 11
-491.84787
 21
-43.0
 31
0.0
  0
ENDBLK
  5
8CF
  8
0
  0
BLOCK
  8
0
  2
BLOCK3
 70
     0
 10
0.0
 20
0.0
 30
0.0
  3
BLOCK3
  1

  0
TEXT
  5
8D1
  8
0
 62
     1
 10
-533.0
 20
-61.0
 30
0.0
 40
2.0
  1
INTERR.AUTOMATICO SERIE ISOMAX
 50
179.99999487194501
 41
1.0769160722891591
 72
     5
 11
-577.69201699999985
 21
-60.999996000000003
 31
0.0
  0
ENDBLK
  5
8D2
  8
0
  0
BLOCK
  8
0
  2
BLOCK4
 70
     0
 10
0.0
 20
0.0
 30
0.0
  3
BLOCK4
  1

  0
TEXT
  5
8D4
  8
0
 62
     1
 10
-521.0
 20
-58.0
 30
0.0
 40
2.0
  1
TETRAP.ESECUZIONE RIMOVIBILE TERMINALI PER CAVI
 50
179.99999346939779
 41
1.1158575357710721
 72
     5
 11
-591.18743899999993
 21
-57.999992000000013
 31
0.0
  0
ENDBLK
  5
8D5
  8
0
  0
BLOCK
  8
0
  2
BLOCK5
 70
     0
 10
0.0
 20
0.0
 30
0.0
  3
BLOCK5
  1

  0
TEXT
  5
8D7
  8
0
 62
     1
 10
-530.0
 20
-69.0
 30
0.0
 40
2.0
  1
4POLE LOW VOLTAGE M.C.C.B SERIES ISOMAX
 50
179.9999921228804
 41
1.095848870056507
 72
     5
 11
-588.18957499999988
 21
-68.999992000000006
 31
0.0
  0
ENDBLK
  5
8D8
  8
0
  0
BLOCK
  8
0
  2
BLOCK6
 70
     0
 10
0.0
 20
0.0
 30
0.0
  3
BLOCK6
  1

  0
TEXT
  5
8DA
  8
0
 62
     1
 10
-536.0
 20
-66.0
 30
0.0
 40
2.0
  1
PLUG-IN VERSION CABLE TERMINALS
 50
179.99999007687251
 41
1.0697673306271771
 72
     5
 11
-582.19171100000005
 21
-65.999992000000006
 31
0.0
  0
ENDBLK
  5
8DB
  8
0
  0
BLOCK
  8
0
  2
BLOCK7
 70
     0
 10
0.0
 20
0.0
 30
0.0
  3
BLOCK7
  1

  0
TEXT
  5
8DD
  8
0
 62
     7
 10
-130.0
 20
-7.0
 30
0.0
 40
3.0
  1
X
 50
180.0
 41
0.9777764444444425
 72
     5
 11
-132.199997
 21
-7.0
 31
0.0
  0
ENDBLK
  5
8DE
  8
0
  0
BLOCK
  8
0
  2
BLOCK8
 70
     0
 10
0.0
 20
0.0
 30
0.0
  3
BLOCK8
  1

  0
TEXT
  5
8E0
  8
0
 62
     7
 10
130.0
 20
-2.0
 30
0.0
 40
3.0
  1
X
 50
180.0
 41
0.9777764444444425
 72
     5
 11
127.800003
 21
-2.0
 31
0.0
  0
ENDBLK
  5
8E1
  8
0
  0
BLOCK
  8
0
  2
BLOCK9
 70
     0
 10
0.0
 20
0.0
 30
0.0
  3
BLOCK9
  1

  0
TEXT
  5
8E3
  8
0
 62
     7
 10
2.0
 20
-123.0
 30
0.0
 40
3.0
  1
Y
 50
180.0
 41
0.9777777777777778
 72
     5
 11
-0.2
 21
-123.0
 31
0.0
  0
ENDBLK
  5
8E4
  8
0
  0
BLOCK
  8
0
  2
BLOCK10
 70
     0
 10
0.0
 20
0.0
 30
0.0
  3
BLOCK10
  1

  0
TEXT
  5
8E6
  8
0
 62
     7
 10
3.0
 20
164.0
 30
0.0
 40
3.0
  1
Y
 50
180.0
 41
0.9777777777777778
 72
     5
 11
0.8
 21
164.0
 31
0.0
  0
ENDBLK
  5
8E7
  8
0
  0
BLOCK
  8
0
  2
BLOCK11
 70
     0
 10
0.0
 20
0.0
 30
0.0
  3
BLOCK11
  1

  0
TEXT
  5
8E9
  8
0
 62
     7
 10
148.66870099999991
 20
16.5
 30
0.0
 40
3.0
  1
100
 50
269.99988838455522
 41
1.4660032381408521
 72
     5
 11
148.66868600000001
 21
8.8000199999999982
 31
0.0
  0
ENDBLK
  5
8EA
  8
0
  0
BLOCK
  8
0
  2
BLOCK12
 70
     0
 10
0.0
 20
0.0
 30
0.0
  3
BLOCK12
  1

  0
TEXT
  5
8EC
  8
0
 62
     7
 10
-37.0
 20
138.13629199999991
 30
0.0
 40
3.0
  1
25
 50
180.0
 41
1.2776591662854091
 72
     5
 11
-41.949989000000002
 21
138.13629199999991
 31
0.0
  0
ENDBLK
  5
8ED
  8
0
  0
BLOCK
  8
0
  2
BLOCK13
 70
     0
 10
0.0
 20
0.0
 30
0.0
  3
BLOCK13
  1

  0
TEXT
  5
8EF
  8
0
 62
     7
 10
51.0
 20
138.13629199999991
 30
0.0
 40
3.0
  1
80
 50
180.0
 41
1.319166095897597
 72
     5
 11
46.050010999999991
 21
138.13629199999991
 31
0.0
  0
ENDBLK
  5
8F0
  8
0
  0
BLOCK
  8
0
  2
BLOCK14
 70
     0
 10
0.0
 20
0.0
 30
0.0
  3
BLOCK14
  1

  0
TEXT
  5
8F2
  8
0
 62
     7
 10
219.566666
 20
134.860489
 30
0.0
 40
3.0
  1
 5
 50
212.70408315676451
 41
1.664275729172219
 72
     5
 11
215.4013819999999
 21
132.18600499999991
 31
0.0
  0
ENDBLK
  5
8F3
  8
0
  0
BLOCK
  8
0
  2
BLOCK15
 70
     0
 10
0.0
 20
0.0
 30
0.0
  3
BLOCK15
  1

  0
TEXT
  5
8F5
  8
0
 62
     7
 10
220.9128419999999
 20
135.72497599999991
 30
0.0
 40
3.0
  1
%%c
 50
212.7040272305745
 41
0.977778741228206
 72
     5
 11
219.06159999999991
 21
134.536316
 31
0.0
  0
ENDBLK
  5
8F6
  8
0
  0
BLOCK
  8
0
  2
BLOCK16
 70
     0
 10
0.0
 20
0.0
 30
0.0
  3
BLOCK16
  1

  0
TEXT
  5
8F8
  8
0
 62
     7
 10
201.05419900000001
 20
122.9738769999999
 30
0.0
 40
3.0
  1
 (M4)
 50
212.7040437984592
 41
1.600224341829795
 72
     5
 11
189.9467929999999
 21
115.8419419999999
 31
0.0
  0
ENDBLK
  5
8F9
  8
0
  0
BLOCK
  8
0
  2
BLOCK17
 70
     0
 10
0.0
 20
0.0
 30
0.0
  3
BLOCK17
  1

  0
TEXT
  5
8FB
  8
0
 62
     7
 10
-108.9064939999999
 20
-62.0
 30
0.0
 40
3.0
  1
52,25
 50
270.00003038421983
 41
1.4466875246701709
 72
     5
 11
-108.906487
 21
-75.199958999999993
 31
0.0
  0
ENDBLK
  5
8FC
  8
0
  0
BLOCK
  8
0
  2
BLOCK18
 70
     0
 10
0.0
 20
0.0
 30
0.0
  3
BLOCK18
  1

  0
LINE
  5
8FE
  8
0
 62
     3
 10
30.737054999999991
 20
-173.338257
 30
0.0
 11
189.23704499999991
 21
-173.338257
 31
0.0
  0
LINE
  5
8FF
  8
0
 62
     3
 10
29.487054999999991
 20
-57.588248999999998
 30
0.0
 11
29.487054999999991
 21
-172.088257
 31
0.0
  0
LINE
  5
900
  8
0
 62
     3
 10
30.737054999999991
 20
-56.338248999999998
 30
0.0
 11
189.23704499999991
 21
-56.338248999999998
 31
0.0
  0
LINE
  5
901
  8
0
 62
     3
 10
190.48704499999991
 20
-57.588248999999998
 30
0.0
 11
190.48704499999991
 21
-172.088257
 31
0.0
  0
LINE
  5
902
  8
0
 62
     3
 10
56.987053000000003
 20
-167.838257
 30
0.0
 11
162.98704499999999
 21
-167.838257
 31
0.0
  0
LINE
  5
903
  8
0
 62
     3
 10
56.987053000000003
 20
-61.838248999999998
 30
0.0
 11
56.987053000000003
 21
-167.838257
 31
0.0
  0
LINE
  5
904
  8
0
 62
     3
 10
56.987053000000003
 20
-61.838248999999998
 30
0.0
 11
162.98704499999999
 21
-61.838248999999998
 31
0.0
  0
LINE
  5
905
  8
0
 62
     3
 10
162.98704499999999
 20
-61.838248999999998
 30
0.0
 11
162.98704499999999
 21
-167.838257
 31
0.0
  0
LINE
  5
906
  8
0
 62
     3
 10
48.487053000000003
 20
-168.83825699999991
 30
0.0
 11
49.487053000000003
 21
-168.83825699999991
 31
0.0
  0
LINE
  5
907
  8
0
 62
     3
 10
50.487053000000003
 20
-61.838248999999998
 30
0.0
 11
50.487053000000003
 21
-167.838257
 31
0.0
  0
LINE
  5
908
  8
0
 62
     3
 10
48.487053000000003
 20
-60.83824899999999
 30
0.0
 11
49.487053000000003
 21
-60.83824899999999
 31
0.0
  0
LINE
  5
909
  8
0
 62
     3
 10
49.487053000000003
 20
-61.838248999999998
 30
0.0
 11
49.487053000000003
 21
-167.838257
 31
0.0
  0
LINE
  5
90A
  8
0
 62
     3
 10
29.487054999999991
 20
-60.83824899999999
 30
0.0
 11
48.487053000000003
 21
-60.83824899999999
 31
0.0
  0
LINE
  5
90B
  8
0
 62
     3
 10
49.487048999999999
 20
-60.83824899999999
 30
0.0
 11
190.48704499999991
 21
-60.83824899999999
 31
0.0
  0
LINE
  5
90C
  8
0
 62
     3
 10
29.487054999999991
 20
-61.838248999999998
 30
0.0
 11
49.487053000000003
 21
-61.838248999999998
 31
0.0
  0
LINE
  5
90D
  8
0
 62
     3
 10
162.98704499999999
 20
-61.838248999999998
 30
0.0
 11
169.48704499999991
 21
-61.838248999999998
 31
0.0
  0
LINE
  5
90E
  8
0
 62
     3
 10
50.487053000000003
 20
-61.838248999999998
 30
0.0
 11
56.987053000000003
 21
-61.838248999999998
 31
0.0
  0
LINE
  5
90F
  8
0
 62
     3
 10
29.487054999999991
 20
-168.83825699999991
 30
0.0
 11
48.487053000000003
 21
-168.83825699999991
 31
0.0
  0
LINE
  5
910
  8
0
 62
     3
 10
49.487053000000003
 20
-168.83825699999991
 30
0.0
 11
190.48704499999991
 21
-168.83825699999991
 31
0.0
  0
LINE
  5
911
  8
0
 62
     3
 10
50.487053000000003
 20
-167.838257
 30
0.0
 11
56.987053000000003
 21
-167.838257
 31
0.0
  0
LINE
  5
912
  8
0
 62
     3
 10
162.98704499999999
 20
-167.838257
 30
0.0
 11
169.48704499999991
 21
-167.838257
 31
0.0
  0
LINE
  5
913
  8
0
 62
     3
 10
29.487054999999991
 20
-167.838257
 30
0.0
 11
49.487053000000003
 21
-167.838257
 31
0.0
  0
LINE
  5
914
  8
0
 62
     3
 10
170.48704499999999
 20
-60.83824899999999
 30
0.0
 11
170.48704499999999
 21
-168.83825699999991
 31
0.0
  0
LINE
  5
915
  8
0
 62
     3
 10
169.48704499999991
 20
-61.838248999999998
 30
0.0
 11
169.48704499999991
 21
-167.838257
 31
0.0
  0
ARC
  5
916
  8
0
 62
     3
 10
30.737054999999991
 20
-57.588248999999998
 30
0.0
 40
1.25
 50
90.000005000000002
 51
180.00000099999991
  0
ARC
  5
917
  8
0
 62
     3
 10
30.737054999999991
 20
-172.088257
 30
0.0
 40
1.25
 50
180.00000099999991
 51
270.0
  0
ARC
  5
918
  8
0
 62
     3
 10
189.23704499999991
 20
-172.088257
 30
0.0
 40
1.25
 50
270.0
 51
0.000003
  0
ARC
  5
919
  8
0
 62
     3
 10
189.23704499999991
 20
-57.588248999999998
 30
0.0
 40
1.25
 50
0.000003
 51
90.000005000000002
  0
LINE
  5
91A
  8
0
  6
DASHSPACE
 62
     3
 10
179.73704499999999
 20
-60.33824899999999
 30
0.0
 11
179.73704499999999
 21
-60.83824899999999
 31
0.0
  0
LINE
  5
91B
  8
0
  6
DASHSPACE
 62
     3
 10
181.23704499999991
 20
-60.33824899999999
 30
0.0
 11
181.23704499999991
 21
-60.83824899999999
 31
0.0
  0
LINE
  5
91C
  8
0
 62
     3
 10
179.73704499999999
 20
-168.338257
 30
0.0
 11
179.73704499999999
 21
-168.83825699999991
 31
0.0
  0
LINE
  5
91D
  8
0
 62
     3
 10
181.23704499999991
 20
-168.338257
 30
0.0
 11
181.23704499999991
 21
-168.83825699999991
 31
0.0
  0
ARC
  5
91E
  8
0
  6
DASHSPACE
 62
     3
 10
180.48704499999991
 20
-60.33824899999999
 30
0.0
 40
0.75
 50
0.000003
 51
180.00000099999991
  0
ARC
  5
91F
  8
0
 62
     3
 10
180.48704499999991
 20
-61.338248999999998
 30
0.0
 40
0.75
 50
180.00000099999991
 51
0.000003
  0
LINE
  5
920
  8
0
 62
     3
 10
181.23704499999991
 20
-60.83824899999999
 30
0.0
 11
181.23704499999991
 21
-61.338248999999998
 31
0.0
  0
LINE
  5
921
  8
0
 62
     3
 10
179.73704499999999
 20
-60.83824899999999
 30
0.0
 11
179.73704499999999
 21
-61.338248999999998
 31
0.0
  0
ARC
  5
922
  8
0
 62
     3
 10
180.48704499999991
 20
-168.338257
 30
0.0
 40
0.75
 50
0.000003
 51
180.00000099999991
  0
ARC
  5
923
  8
0
  6
DASHSPACE
 62
     3
 10
180.48704499999991
 20
-169.33825699999991
 30
0.0
 40
0.75
 50
180.00000099999991
 51
0.000003
  0
LINE
  5
924
  8
0
  6
DASHSPACE
 62
     3
 10
181.23704499999991
 20
-168.83825699999991
 30
0.0
 11
181.23704499999991
 21
-169.33825699999991
 31
0.0
  0
LINE
  5
925
  8
0
  6
DASHSPACE
 62
     3
 10
179.73704499999999
 20
-168.83825699999991
 30
0.0
 11
179.73704499999999
 21
-169.33825699999991
 31
0.0
  0
ENDBLK
  5
926
  8
0
  0
BLOCK
  8
0
  2
BLOCK19
 70
     0
 10
0.0
 20
0.0
 30
0.0
  3
BLOCK19
  1

  0
TEXT
  5
928
  8
0
 62
     7
 10
108.33646399999991
 20
58.844726999999992
 30
0.0
 40
3.0
  1
X
 50
270.0
 41
0.9777782222222221
 72
     5
 11
108.33646399999991
 21
56.644725999999991
 31
0.0
  0
ENDBLK
  5
929
  8
0
  0
BLOCK
  8
0
  2
BLOCK20
 70
     0
 10
0.0
 20
0.0
 30
0.0
  3
BLOCK20
  1

  0
TEXT
  5
92B
  8
0
 62
     7
 10
293.42767299999991
 20
-113.912842
 30
0.0
 40
3.0
  1
Y
 50
270.0
 41
0.9777764444444427
 72
     5
 11
293.42767299999991
 21
-116.11283899999999
 31
0.0
  0
ENDBLK
  5
92C
  8
0
  0
BLOCK
  8
0
  2
BLOCK21
 70
     0
 10
0.0
 20
0.0
 30
0.0
  3
BLOCK21
  1

  0
TEXT
  5
92E
  8
0
 62
     7
 10
111.5338899999999
 20
14.379761
 30
0.0
 40
3.0
  1
175
 50
359.99997767691389
 41
1.432750773232115
 72
     5
 11
119.23387099999999
 21
14.379758000000001
 31
0.0
  0
ENDBLK
  5
92F
  8
0
  0
BLOCK
  8
0
  2
BLOCK22
 70
     0
 10
0.0
 20
0.0
 30
0.0
  3
BLOCK22
  1

  0
TEXT
  5
931
  8
0
 62
     7
 10
-34.893813999999999
 20
-126.838257
 30
0.0
 40
3.0
  1
35
 50
269.99995370035219
 41
1.2776612311941129
 72
     5
 11
-34.893817999999989
 21
-131.78825399999999
 31
0.0
  0
ENDBLK
  5
932
  8
0
  0
BLOCK
  8
0
  2
BLOCK23
 70
     0
 10
0.0
 20
0.0
 30
0.0
  3
BLOCK23
  1

  0
TEXT
  5
934
  8
0
 62
     7
 10
-34.893805999999998
 20
-91.838256999999984
 30
0.0
 40
3.0
  1
35
 50
269.99995370027727
 41
1.2776591662858261
 72
     5
 11
-34.893809999999988
 21
-96.788246000000001
 31
0.0
  0
ENDBLK
  5
935
  8
0
  0
BLOCK
  8
0
  2
BLOCK24
 70
     0
 10
0.0
 20
0.0
 30
0.0
  3
BLOCK24
  1

  0
TEXT
  5
937
  8
0
 62
     7
 10
-34.893791
 20
-56.838256999999992
 30
0.0
 40
3.0
  1
35
 50
269.99995370027722
 41
1.2776591662858261
 72
     5
 11
-34.893794999999997
 21
-61.788245999999987
 31
0.0
  0
ENDBLK
  5
938
  8
0
  0
BLOCK
  8
0
  2
BLOCK25
 70
     0
 10
0.0
 20
0.0
 30
0.0
  3
BLOCK25
  1

  0
TEXT
  5
93A
  8
0
 62
     7
 10
286.08944700000001
 20
-89.088256999999984
 30
0.0
 40
3.0
  1
140
 50
270.0
 41
1.3867938934978381
 72
     5
 11
286.08944700000001
 21
-96.788239000000004
 31
0.0
  0
ENDBLK
  5
93B
  8
0
  0
BLOCK
  8
0
  2
BLOCK26
 70
     0
 10
0.0
 20
0.0
 30
0.0
  3
BLOCK26
  1

  0
TEXT
  5
93D
  8
0
 62
     7
 10
-50.06008099999999
 20
-130.08825699999991
 30
0.0
 40
3.0
  1
52,5
 50
269.9999780685298
 41
1.48769549347495
 72
     5
 11
-50.060085000000001
 21
-140.5382229999999
 31
0.0
  0
ENDBLK
  5
93E
  8
0
  0
BLOCK
  8
0
  2
BLOCK27
 70
     0
 10
0.0
 20
0.0
 30
0.0
  3
BLOCK27
  1

  0
TEXT
  5
940
  8
0
 62
     7
 10
250.50775100000001
 20
-106.588257
 30
0.0
 40
3.0
  1
105
 50
270.0
 41
1.4327509593039891
 72
     5
 11
250.50775100000001
 21
-114.288239
 31
0.0
  0
ENDBLK
  5
941
  8
0
  0
BLOCK
  8
0
  2
BLOCK28
 70
     0
 10
0.0
 20
0.0
 30
0.0
  3
BLOCK28
  1

  0
TEXT
  5
943
  8
0
 62
     7
 10
141.11204499999999
 20
-0.59668
 30
0.0
 40
3.0
  1
89,75
 50
359.99998263759909
 41
1.4450281888504961
 72
     5
 11
154.31201200000001
 21
-0.596684
 31
0.0
  0
ENDBLK
  5
944
  8
0
  0
BLOCK
  8
0
  2
BLOCK29
 70
     0
 10
0.0
 20
0.0
 30
0.0
  3
BLOCK29
  1

  0
TEXT
  5
946
  8
0
 62
     7
 10
-34.89382899999999
 20
-126.838257
 30
0.0
 40
3.0
  1
35
 50
270.0
 41
1.2776612311936959
 72
     5
 11
-34.89382899999999
 21
-131.78825399999999
 31
0.0
  0
ENDBLK
  5
947
  8
0
  0
BLOCK
  8
0
  2
BLOCK30
 70
     0
 10
0.0
 20
0.0
 30
0.0
  3
BLOCK30
  1

  0
TEXT
  5
949
  8
0
 62
     7
 10
-34.89382899999999
 20
-91.838256999999984
 30
0.0
 40
3.0
  1
35
 50
270.0
 41
1.2776591662854091
 72
     5
 11
-34.89382899999999
 21
-96.788246000000001
 31
0.0
  0
ENDBLK
  5
94A
  8
0
  0
BLOCK
  8
0
  2
BLOCK31
 70
     0
 10
0.0
 20
0.0
 30
0.0
  3
BLOCK31
  1

  0
TEXT
  5
94C
  8
0
 62
     7
 10
-34.893836999999991
 20
-56.838256999999992
 30
0.0
 40
3.0
  1
35
 50
270.0
 41
1.2776591662854091
 72
     5
 11
-34.893836999999991
 21
-61.788245999999987
 31
0.0
  0
ENDBLK
  5
94D
  8
0
  0
BLOCK
  8
0
  2
BLOCK32
 70
     0
 10
0.0
 20
0.0
 30
0.0
  3
BLOCK32
  1

  0
TEXT
  5
94F
  8
0
 62
     7
 10
157.11204499999999
 20
28.475342000000001
 30
0.0
 40
3.0
  1
127,25
 50
359.99997844666251
 41
1.5012758433756499
 72
     5
 11
173.06199599999999
 21
28.475335999999999
 31
0.0
  0
ENDBLK
  5
950
  8
0
  0
BLOCK
  8
0
  2
BLOCK33
 70
     0
 10
0.0
 20
0.0
 30
0.0
  3
BLOCK33
  1

  0
TEXT
  5
952
  8
0
 62
     7
 10
103.98704499999999
 20
42.042235999999988
 30
0.0
 40
3.0
  1
250
 50
359.99997767691679
 41
1.315704963336797
 72
     5
 11
111.6870269999999
 21
42.042233000000003
 31
0.0
  0
ENDBLK
  5
953
  8
0
  0
BLOCK
  8
0
  2
BLOCK34
 70
     0
 10
0.0
 20
0.0
 30
0.0
  3
BLOCK34
  1

  0
TEXT
  5
955
  8
0
 62
     7
 10
105.6495129999999
 20
-13.899292000000001
 30
0.0
 40
3.0
  1
161
 50
359.99997767691679
 41
1.655910107527008
 72
     5
 11
113.349495
 21
-13.899295
 31
0.0
  0
ENDBLK
  5
956
  8
0
  0
BLOCK
  8
0
  2
BLOCK35
 70
     0
 10
0.0
 20
0.0
 30
0.0
  3
BLOCK35
  1

  0
TEXT
  5
958
  8
0
 62
     7
 10
268.64627100000001
 20
-106.588257
 30
0.0
 40
3.0
  1
117
 50
270.0
 41
1.6559101075268761
 72
     5
 11
268.64627100000001
 21
-114.288239
 31
0.0
  0
ENDBLK
  5
959
  8
0
  0
BLOCK
  8
0
  2
BLOCK36
 70
     0
 10
0.0
 20
0.0
 30
0.0
  3
BLOCK36
  1

  0
TEXT
  5
95B
  8
0
 62
     7
 10
-5.0
 20
102.0
 30
0.0
 40
3.0
  1
X
 50
90.0
 41
0.9777764444444425
 72
     5
 11
-5.0
 21
104.1999969999999
 31
0.0
  0
ENDBLK
  5
95C
  8
0
  0
BLOCK
  8
0
  2
BLOCK37
 70
     0
 10
0.0
 20
0.0
 30
0.0
  3
BLOCK37
  1

  0
TEXT
  5
95E
  8
0
 62
     7
 10
18.75
 20
-114.04821800000001
 30
0.0
 40
3.0
  1
112
 50
179.9999404717629
 41
1.5941402843842269
 72
     5
 11
11.05002
 21
-114.04821
 31
0.0
  0
ENDBLK
  5
95F
  8
0
  0
BLOCK
  8
0
  2
BLOCK38
 70
     0
 10
0.0
 20
0.0
 30
0.0
  3
BLOCK38
  1

  0
TEXT
  5
961
  8
0
 62
     7
 10
-107.01321399999991
 20
-11.0
 30
0.0
 40
3.0
  1
80
 50
90.0
 41
1.3191663623963901
 72
     5
 11
-107.01321399999991
 21
-6.0500099999999994
 31
0.0
  0
ENDBLK
  5
962
  8
0
  0
BLOCK
  8
0
  2
BLOCK39
 70
     0
 10
0.0
 20
0.0
 30
0.0
  3
BLOCK39
  1

  0
TEXT
  5
964
  8
0
 62
     7
 10
-133.64590499999991
 20
-16.5
 30
0.0
 40
3.0
  1
112
 50
90.0
 41
1.594140284383367
 72
     5
 11
-133.64590499999991
 21
-8.8000199999999982
 31
0.0
  0
ENDBLK
  5
965
  8
0
  0
BLOCK
  8
0
  2
BLOCK40
 70
     0
 10
0.0
 20
0.0
 30
0.0
  3
BLOCK40
  1

  0
TEXT
  5
967
  8
0
 62
     7
 10
-6.0
 20
-93.0
 30
0.0
 40
3.0
  1
X
 50
90.0
 41
0.9777764444444425
 72
     5
 11
-6.0
 21
-90.800003000000004
 31
0.0
  0
ENDBLK
  5
968
  8
0
  0
BLOCK
  8
0
  2
BLOCK41
 70
     0
 10
0.0
 20
0.0
 30
0.0
  3
BLOCK41
  1

  0
TEXT
  5
96A
  8
0
 62
     7
 10
-142.0
 20
-6.0
 30
0.0
 40
3.0
  1
Y
 50
90.0
 41
0.9777777777777778
 72
     5
 11
-142.0
 21
-3.7999999999999989
 31
0.0
  0
ENDBLK
  5
96B
  8
0
  0
BLOCK
  8
0
  2
BLOCK42
 70
     0
 10
0.0
 20
0.0
 30
0.0
  3
BLOCK42
  1

  0
TEXT
  5
96D
  8
0
 62
     7
 10
111.0
 20
-4.0
 30
0.0
 40
3.0
  1
Y
 50
90.0
 41
0.9777777777777778
 72
     5
 11
111.0
 21
-1.8
 31
0.0
  0
ENDBLK
  5
96E
  8
0
  0
BLOCK
  8
0
  2
BLOCK43
 70
     0
 10
0.0
 20
0.0
 30
0.0
  3
BLOCK43
  1

  0
TEXT
  5
970
  8
0
 62
     7
 10
18.75
 20
-114.04821800000001
 30
0.0
 40
3.0
  1
112
 50
179.9999404717629
 41
1.5941402843842269
 72
     5
 11
11.05002
 21
-114.04821
 31
0.0
  0
ENDBLK
  5
971
  8
0
  0
BLOCK
  8
0
  2
BLOCK44
 70
     0
 10
0.0
 20
0.0
 30
0.0
  3
BLOCK44
  1

  0
TEXT
  5
973
  8
0
 62
     7
 10
18.75
 20
-148.4989009999999
 30
0.0
 40
3.0
  1
142
 50
180.0
 41
1.3437594995413831
 72
     5
 11
11.05002
 21
-148.4989009999999
 31
0.0
  0
ENDBLK
  5
974
  8
0
  0
BLOCK
  8
0
  2
BLOCK45
 70
     0
 10
0.0
 20
0.0
 30
0.0
  3
BLOCK45
  1

  0
TEXT
  5
976
  8
0
 62
     7
 10
-107.01321399999991
 20
-11.0
 30
0.0
 40
3.0
  1
80
 50
90.0
 41
1.3191663623963901
 72
     5
 11
-107.01321399999991
 21
-6.0500099999999994
 31
0.0
  0
ENDBLK
  5
977
  8
0
  0
BLOCK
  8
0
  2
BLOCK46
 70
     0
 10
0.0
 20
0.0
 30
0.0
  3
BLOCK46
  1

  0
TEXT
  5
979
  8
0
 62
     7
 10
-133.64590499999991
 20
-16.5
 30
0.0
 40
3.0
  1
112
 50
90.0
 41
1.594140284383367
 72
     5
 11
-133.64590499999991
 21
-8.8000199999999982
 31
0.0
  0
ENDBLK
  5
97A
  8
0
  0
BLOCK
  8
0
  2
BLOCK47
 70
     0
 10
0.0
 20
0.0
 30
0.0
  3
BLOCK47
  1

  0
TEXT
  5
97C
  8
0
 62
     7
 10
108.1015239999999
 20
-92.514899999999997
 30
0.0
 40
3.0
  1
 7
 50
127.2089895968551
 41
1.7368379258664901
 72
     5
 11
105.1081469999999
 21
-88.572556000000006
 31
0.0
  0
ENDBLK
  5
97D
  8
0
  0
BLOCK
  8
0
  2
BLOCK48
 70
     0
 10
0.0
 20
0.0
 30
0.0
  3
BLOCK48
  1

  0
TEXT
  5
97F
  8
0
 62
     7
 10
109.06907699999999
 20
-93.789185000000003
 30
0.0
 40
3.0
  1
%%c
 50
127.2089029542332
 41
0.9777782705535109
 72
     5
 11
107.738686
 21
-92.037025
 31
0.0
  0
ENDBLK
  5
980
  8
0
  0
BLOCK
  8
0
  2
BLOCK49
 70
     0
 10
0.0
 20
0.0
 30
0.0
  3
BLOCK49
  1

  0
TEXT
  5
982
  8
0
 62
     7
 10
101.73704499999999
 20
-54.130980999999998
 30
0.0
 40
3.0
  1
105
 50
359.99997023588912
 41
1.4327509593041881
 72
     5
 11
109.4370269999999
 21
-54.130985000000003
 31
0.0
  0
ENDBLK
  5
983
  8
0
  0
BLOCK
  8
0
  2
BLOCK50
 70
     0
 10
0.0
 20
0.0
 30
0.0
  3
BLOCK50
  1

  0
TEXT
  5
985
  8
0
 62
     7
 10
118.0
 20
207.0
 30
0.0
 40
3.0
  1
X
 50
270.0
 41
0.9777764444444425
 72
     5
 11
118.0
 21
204.80000299999989
 31
0.0
  0
ENDBLK
  5
986
  8
0
  0
BLOCK
  8
0
  2
BLOCK51
 70
     0
 10
0.0
 20
0.0
 30
0.0
  3
BLOCK51
  1

  0
TEXT
  5
988
  8
0
 62
     7
 10
113.0
 20
-68.0
 30
0.0
 40
3.0
  1
X
 50
270.0
 41
0.9777764444444425
 72
     5
 11
113.0
 21
-70.199996999999996
 31
0.0
  0
ENDBLK
  5
989
  8
0
  0
BLOCK
  8
0
  2
BLOCK52
 70
     0
 10
0.0
 20
0.0
 30
0.0
  3
BLOCK52
  1

  0
TEXT
  5
98B
  8
0
 62
     7
 10
-88.873359999999991
 20
76.727417000000003
 30
0.0
 40
3.0
  1
184,55
 50
269.99997485443947
 41
1.46004810023621
 72
     5
 11
-88.873367000000002
 21
60.777466000000011
 31
0.0
  0
ENDBLK
  5
98C
  8
0
  0
BLOCK
  8
0
  2
BLOCK53
 70
     0
 10
0.0
 20
0.0
 30
0.0
  3
BLOCK53
  1

  0
TEXT
  5
98E
  8
0
 62
     7
 10
-52.982108999999987
 20
84.249267999999987
 30
0.0
 40
3.0
  1
153
 50
269.99997023588912
 41
1.4327509593041881
 72
     5
 11
-52.982112999999998
 21
76.549285999999995
 31
0.0
  0
ENDBLK
  5
98F
  8
0
  0
BLOCK
  8
0
  2
BLOCK54
 70
     0
 10
0.0
 20
0.0
 30
0.0
  3
BLOCK54
  1

  0
TEXT
  5
991
  8
0
 62
     7
 10
-70.308906999999991
 20
-12.000061000000001
 30
0.0
 40
3.0
  1
2
 50
270.0
 41
1.2020694180030751
 72
     5
 11
-70.308906999999991
 21
-14.200060999999989
 31
0.0
  0
ENDBLK
  5
992
  8
0
  0
BLOCK
  8
0
  2
BLOCK55
 70
     0
 10
0.0
 20
0.0
 30
0.0
  3
BLOCK55
  1

  0
TEXT
  5
994
  8
0
 62
     7
 10
-70.308914000000001
 20
87.999938999999998
 30
0.0
 40
3.0
  1
156,5
 50
270.00003038421988
 41
1.5485159649678051
 72
     5
 11
-70.308906999999991
 21
74.799980000000005
 31
0.0
  0
ENDBLK
  5
995
  8
0
  0
BLOCK
  8
0
  2
BLOCK56
 70
     0
 10
0.0
 20
0.0
 30
0.0
  3
BLOCK56
  1

  0
TEXT
  5
997
  8
0
 62
     7
 10
271.48306300000002
 20
95.389708999999996
 30
0.0
 40
3.0
  1
18x18
 50
270.0
 41
1.4915206779661001
 72
     5
 11
271.48306300000002
 21
82.189750999999987
 31
0.0
  0
ENDBLK
  5
998
  8
0
  0
BLOCK
  8
0
  2
BLOCK57
 70
     0
 10
0.0
 20
0.0
 30
0.0
  3
BLOCK57
  1

  0
TEXT
  5
99A
  8
0
 62
     7
 10
271.48306300000002
 20
139.9999389999999
 30
0.0
 40
3.0
  1
36
 50
270.0
 41
1.269614498636775
 72
     5
 11
271.48306300000002
 21
135.04994199999999
 31
0.0
  0
ENDBLK
  5
99B
  8
0
  0
BLOCK
  8
0
  2
BLOCK58
 70
     0
 10
0.0
 20
0.0
 30
0.0
  3
BLOCK58
  1

  0
TEXT
  5
99D
  8
0
 62
     7
 10
271.48306300000002
 20
167.0
 30
0.0
 40
3.0
  1
3
 50
270.0
 41
1.2399490238209789
 72
     5
 11
271.48306300000002
 21
164.800003
 31
0.0
  0
ENDBLK
  5
99E
  8
0
  0
BLOCK
  8
0
  2
BLOCK59
 70
     0
 10
0.0
 20
0.0
 30
0.0
  3
BLOCK59
  1

  0
TEXT
  5
9A0
  8
0
 62
     7
 10
271.48306300000002
 20
172.5
 30
0.0
 40
3.0
  1
\U+2265
 50
270.0
 41
1.2422315693532049
 72
     5
 11
271.48306300000002
 21
170.300003
 31
0.0
  0
ENDBLK
  5
9A1
  8
0
  0
BLOCK
  8
0
  2
BLOCK60
 70
     0
 10
0.0
 20
0.0
 30
0.0
  3
BLOCK60
  1

  0
TEXT
  5
9A3
  8
0
 62
     7
 10
-38.23368099999999
 20
123.75
 30
0.0
 40
3.0
  1
79,5
 50
270.0000219314702
 41
1.4854785695324559
 72
     5
 11
-38.233677
 21
113.300034
 31
0.0
  0
ENDBLK
  5
9A4
  8
0
  0
BLOCK
  8
0
  2
BLOCK61
 70
     0
 10
0.0
 20
0.0
 30
0.0
  3
BLOCK61
  1

  0
TEXT
  5
9A6
  8
0
 62
     7
 10
147.11203
 20
179.32958999999991
 30
0.0
 40
3.0
  1
107,25
 41
1.501275843375544
 72
     5
 11
163.06198099999989
 21
179.32958999999991
 31
0.0
  0
ENDBLK
  5
9A7
  8
0
  0
BLOCK
  8
0
  2
BLOCK62
 70
     0
 10
0.0
 20
0.0
 30
0.0
  3
BLOCK62
  1

  0
TEXT
  5
9A9
  8
0
 62
     7
 10
103.9870529999999
 20
195.8632199999999
 30
0.0
 40
3.0
  1
210
 41
1.4660036189191219
 72
     5
 11
111.68703499999999
 21
195.8632199999999
 31
0.0
  0
ENDBLK
  5
9AA
  8
0
  0
BLOCK
  8
0
  2
BLOCK63
 70
     0
 10
0.0
 20
0.0
 30
0.0
  3
BLOCK63
  1

  0
LINE
  5
9AC
  8
0
 62
     2
 10
184.4806209999999
 20
-4.168404999999999
 30
0.0
 11
186.31227100000001
 21
-6.000051
 31
0.0
  0
LINE
  5
9AD
  8
0
 62
     2
 10
186.433594
 20
-4.000051
 30
0.0
 11
188.43359399999991
 21
-6.000051
 31
0.0
  0
LINE
  5
9AE
  8
0
 62
     2
 10
188.554901
 20
-4.000051
 30
0.0
 11
190.554901
 21
-6.000051
 31
0.0
  0
LINE
  5
9AF
  8
0
 62
     2
 10
190.67622399999991
 20
-4.000051
 30
0.0
 11
192.67622399999999
 21
-6.000051
 31
0.0
  0
LINE
  5
9B0
  8
0
 62
     2
 10
192.7975459999999
 20
-4.000051
 30
0.0
 11
194.7975459999999
 21
-6.000051
 31
0.0
  0
LINE
  5
9B1
  8
0
 62
     2
 10
194.91886899999989
 20
-4.000051
 30
0.0
 11
196.918869
 21
-6.000051
 31
0.0
  0
LINE
  5
9B2
  8
0
 62
     2
 10
197.04019199999999
 20
-4.000051
 30
0.0
 11
199.04019199999999
 21
-6.000051
 31
0.0
  0
LINE
  5
9B3
  8
0
 62
     2
 10
199.16151400000001
 20
-4.000051
 30
0.0
 11
201.1615139999999
 21
-6.000051
 31
0.0
  0
LINE
  5
9B4
  8
0
 62
     2
 10
201.282837
 20
-4.000051
 30
0.0
 11
203.28283699999989
 21
-6.000051
 31
0.0
  0
LINE
  5
9B5
  8
0
 62
     2
 10
203.404144
 20
-4.000051
 30
0.0
 11
205.404144
 21
-6.000051
 31
0.0
  0
LINE
  5
9B6
  8
0
 62
     2
 10
205.52546699999999
 20
-4.000051
 30
0.0
 11
207.52546699999999
 21
-6.000051
 31
0.0
  0
LINE
  5
9B7
  8
0
 62
     2
 10
207.6467899999999
 20
-4.000051
 30
0.0
 11
209.6467899999999
 21
-6.000051
 31
0.0
  0
LINE
  5
9B8
  8
0
 62
     2
 10
209.76811199999989
 20
-4.000051
 30
0.0
 11
211.76811199999989
 21
-6.000051
 31
0.0
  0
LINE
  5
9B9
  8
0
 62
     2
 10
211.88943499999999
 20
-4.000051
 30
0.0
 11
213.88943499999999
 21
-6.000051
 31
0.0
  0
LINE
  5
9BA
  8
0
 62
     2
 10
214.01075700000001
 20
-4.000051
 30
0.0
 11
216.01075700000001
 21
-6.000051
 31
0.0
  0
LINE
  5
9BB
  8
0
 62
     2
 10
216.1320649999999
 20
-4.000051
 30
0.0
 11
218.1320649999999
 21
-6.000051
 31
0.0
  0
LINE
  5
9BC
  8
0
 62
     2
 10
218.25338699999989
 20
-4.000051
 30
0.0
 11
220.25338699999989
 21
-6.000051
 31
0.0
  0
LINE
  5
9BD
  8
0
 62
     2
 10
220.37470999999999
 20
-4.000051
 30
0.0
 11
222.37470999999999
 21
-6.000051
 31
0.0
  0
LINE
  5
9BE
  8
0
 62
     2
 10
222.49603300000001
 20
-4.000051
 30
0.0
 11
224.49603300000001
 21
-6.000051
 31
0.0
  0
LINE
  5
9BF
  8
0
 62
     2
 10
224.61735499999989
 20
-4.000051
 30
0.0
 11
226.61735499999989
 21
-6.000051
 31
0.0
  0
LINE
  5
9C0
  8
0
 62
     2
 10
226.73867799999991
 20
-4.000051
 30
0.0
 11
228.73867799999991
 21
-6.000051
 31
0.0
  0
LINE
  5
9C1
  8
0
 62
     2
 10
228.85998499999999
 20
-4.000051
 30
0.0
 11
230.85998499999999
 21
-6.000051
 31
0.0
  0
LINE
  5
9C2
  8
0
 62
     2
 10
230.98130800000001
 20
-4.000051
 30
0.0
 11
232.98130800000001
 21
-6.000051
 31
0.0
  0
LINE
  5
9C3
  8
0
 62
     2
 10
233.10263099999989
 20
-4.000051
 30
0.0
 11
235.10263099999989
 21
-6.000051
 31
0.0
  0
LINE
  5
9C4
  8
0
 62
     2
 10
235.22395299999991
 20
-4.000051
 30
0.0
 11
235.93187
 21
-4.7079629999999986
 31
0.0
  0
ENDBLK
  5
9C5
  8
0
  0
BLOCK
  8
0
  2
BLOCK64
 70
     0
 10
0.0
 20
0.0
 30
0.0
  3
BLOCK64
  1

  0
LINE
  5
9C7
  8
0
 62
     2
 10
165.9806209999999
 20
-4.760286999999999
 30
0.0
 11
167.22038299999991
 21
-6.000051
 31
0.0
  0
LINE
  5
9C8
  8
0
 62
     2
 10
167.34170499999999
 20
-4.000051
 30
0.0
 11
169.34170499999999
 21
-6.000051
 31
0.0
  0
LINE
  5
9C9
  8
0
 62
     2
 10
169.46302800000001
 20
-4.000051
 30
0.0
 11
171.46302800000001
 21
-6.000051
 31
0.0
  0
LINE
  5
9CA
  8
0
 62
     2
 10
171.584351
 20
-4.000051
 30
0.0
 11
173.584351
 21
-6.000051
 31
0.0
  0
LINE
  5
9CB
  8
0
 62
     2
 10
173.7056729999999
 20
-4.000051
 30
0.0
 11
175.7056729999999
 21
-6.000051
 31
0.0
  0
LINE
  5
9CC
  8
0
 62
     2
 10
175.82698099999999
 20
-4.000051
 30
0.0
 11
177.4806209999999
 21
-5.6536860000000004
 31
0.0
  0
ENDBLK
  5
9CD
  8
0
  0
BLOCK
  8
0
  2
BLOCK65
 70
     0
 10
0.0
 20
0.0
 30
0.0
  3
BLOCK65
  1

  0
LINE
  5
9CF
  8
0
 62
     2
 10
42.480625000000003
 20
-4.2968619999999991
 30
0.0
 11
44.183815000000003
 21
-6.000051
 31
0.0
  0
LINE
  5
9D0
  8
0
 62
     2
 10
44.305134000000002
 20
-4.000051
 30
0.0
 11
46.305134000000002
 21
-6.000051
 31
0.0
  0
LINE
  5
9D1
  8
0
 62
     2
 10
46.426456000000002
 20
-4.000051
 30
0.0
 11
48.426456000000002
 21
-6.000051
 31
0.0
  0
LINE
  5
9D2
  8
0
 62
     2
 10
48.547775000000001
 20
-4.000051
 30
0.0
 11
50.547775000000001
 21
-6.000051
 31
0.0
  0
LINE
  5
9D3
  8
0
 62
     2
 10
50.669094000000001
 20
-4.000051
 30
0.0
 11
52.669093999999987
 21
-6.000051
 31
0.0
  0
LINE
  5
9D4
  8
0
 62
     2
 10
52.790416999999998
 20
-4.000051
 30
0.0
 11
53.980625000000003
 21
-5.1902609999999996
 31
0.0
  0
ENDBLK
  5
9D5
  8
0
  0
BLOCK
  8
0
  2
BLOCK66
 70
     0
 10
0.0
 20
0.0
 30
0.0
  3
BLOCK66
  1

  0
LINE
  5
9D7
  8
0
 62
     2
 10
-26.493057
 20
-5.3267470000000001
 30
0.0
 11
-25.819752000000001
 21
-6.000051
 31
0.0
  0
LINE
  5
9D8
  8
0
 62
     2
 10
-25.698430999999989
 20
-4.000051
 30
0.0
 11
-23.698432999999991
 21
-6.000051
 31
0.0
  0
LINE
  5
9D9
  8
0
 62
     2
 10
-23.577112
 20
-4.000051
 30
0.0
 11
-21.577112
 21
-6.000051
 31
0.0
  0
LINE
  5
9DA
  8
0
 62
     2
 10
-21.455791000000001
 20
-4.000051
 30
0.0
 11
-19.455791000000001
 21
-6.000051
 31
0.0
  0
LINE
  5
9DB
  8
0
 62
     2
 10
-19.334471000000001
 20
-4.000051
 30
0.0
 11
-17.334471000000001
 21
-6.000051
 31
0.0
  0
LINE
  5
9DC
  8
0
 62
     2
 10
-17.21315199999999
 20
-4.000051
 30
0.0
 11
-15.213151
 21
-6.000051
 31
0.0
  0
LINE
  5
9DD
  8
0
 62
     2
 10
-15.09183099999999
 20
-4.000051
 30
0.0
 11
-13.091831000000001
 21
-6.000051
 31
0.0
  0
LINE
  5
9DE
  8
0
 62
     2
 10
-12.970510000000001
 20
-4.000051
 30
0.0
 11
-10.970510000000001
 21
-6.000051
 31
0.0
  0
LINE
  5
9DF
  8
0
 62
     2
 10
-10.849190999999999
 20
-4.000051
 30
0.0
 11
-8.8491910000000011
 21
-6.000051
 31
0.0
  0
LINE
  5
9E0
  8
0
 62
     2
 10
-8.7278699999999994
 20
-4.000051
 30
0.0
 11
-6.7278699999999994
 21
-6.000051
 31
0.0
  0
LINE
  5
9E1
  8
0
 62
     2
 10
-6.6065500000000004
 20
-4.000051
 30
0.0
 11
-4.6065500000000004
 21
-6.000051
 31
0.0
  0
LINE
  5
9E2
  8
0
 62
     2
 10
-4.4852299999999996
 20
-4.000051
 30
0.0
 11
-2.4852300000000001
 21
-6.000051
 31
0.0
  0
LINE
  5
9E3
  8
0
 62
     2
 10
-2.3639099999999988
 20
-4.000051
 30
0.0
 11
-0.36391
 21
-6.000051
 31
0.0
  0
LINE
  5
9E4
  8
0
 62
     2
 10
-0.242589
 20
-4.000051
 30
0.0
 11
1.757409999999999
 21
-6.000051
 31
0.0
  0
LINE
  5
9E5
  8
0
 62
     2
 10
1.8787309999999999
 20
-4.000051
 30
0.0
 11
3.8787309999999988
 21
-6.000051
 31
0.0
  0
LINE
  5
9E6
  8
0
 62
     2
 10
4.000051
 20
-4.000051
 30
0.0
 11
6.000051
 21
-6.000051
 31
0.0
  0
LINE
  5
9E7
  8
0
 62
     2
 10
6.121370999999999
 20
-4.000051
 30
0.0
 11
8.1213709999999981
 21
-6.000051
 31
0.0
  0
LINE
  5
9E8
  8
0
 62
     2
 10
8.2426910000000007
 20
-4.000051
 30
0.0
 11
10.242691000000001
 21
-6.000051
 31
0.0
  0
LINE
  5
9E9
  8
0
 62
     2
 10
10.364012000000001
 20
-4.000051
 30
0.0
 11
12.36401199999999
 21
-6.000051
 31
0.0
  0
LINE
  5
9EA
  8
0
 62
     2
 10
12.485332
 20
-4.000051
 30
0.0
 11
14.485332
 21
-6.000051
 31
0.0
  0
LINE
  5
9EB
  8
0
 62
     2
 10
14.606652
 20
-4.000051
 30
0.0
 11
16.606650999999999
 21
-6.000051
 31
0.0
  0
LINE
  5
9EC
  8
0
 62
     2
 10
16.727972000000001
 20
-4.000051
 30
0.0
 11
18.727972000000001
 21
-6.000051
 31
0.0
  0
LINE
  5
9ED
  8
0
 62
     2
 10
18.849292999999989
 20
-4.000051
 30
0.0
 11
20.849292999999999
 21
-6.000051
 31
0.0
  0
LINE
  5
9EE
  8
0
 62
     2
 10
20.970613
 20
-4.000051
 30
0.0
 11
22.970611999999988
 21
-6.000051
 31
0.0
  0
LINE
  5
9EF
  8
0
 62
     2
 10
23.091932
 20
-4.000051
 30
0.0
 11
25.091932
 21
-6.000051
 31
0.0
  0
LINE
  5
9F0
  8
0
 62
     2
 10
25.213252999999991
 20
-4.000051
 30
0.0
 11
27.213253000000002
 21
-6.000051
 31
0.0
  0
LINE
  5
9F1
  8
0
 62
     2
 10
27.334574
 20
-4.000051
 30
0.0
 11
29.334573999999989
 21
-6.000051
 31
0.0
  0
LINE
  5
9F2
  8
0
 62
     2
 10
29.455892999999989
 20
-4.000051
 30
0.0
 11
31.455893
 21
-6.000051
 31
0.0
  0
LINE
  5
9F3
  8
0
 62
     2
 10
31.577213
 20
-4.000051
 30
0.0
 11
33.577213
 21
-6.000051
 31
0.0
  0
LINE
  5
9F4
  8
0
 62
     2
 10
33.698532
 20
-4.000051
 30
0.0
 11
35.480625000000003
 21
-5.7821429999999987
 31
0.0
  0
ENDBLK
  5
9F5
  8
0
  0
BLOCK
  8
0
  2
BLOCK67
 70
     0
 10
0.0
 20
0.0
 30
0.0
  3
BLOCK67
  1

  0
LINE
  5
9F7
  8
0
 62
     3
 10
209.80374099999989
 20
116.8795929999999
 30
0.0
 11
210.18339499999999
 21
116.49992399999989
 31
0.0
  0
LINE
  5
9F8
  8
0
 62
     3
 10
209.80374099999989
 20
117.940247
 30
0.0
 11
211.2440639999999
 21
116.49992399999989
 31
0.0
  0
LINE
  5
9F9
  8
0
 62
     3
 10
209.80374099999989
 20
119.000908
 30
0.0
 11
212.30471799999989
 21
116.49992399999989
 31
0.0
  0
LINE
  5
9FA
  8
0
 62
     3
 10
209.80374099999989
 20
120.06156900000001
 30
0.0
 11
213.13703899999999
 21
116.72827100000001
 31
0.0
  0
LINE
  5
9FB
  8
0
 62
     3
 10
209.80374099999989
 20
121.1222309999999
 30
0.0
 11
213.13703899999999
 21
117.788933
 31
0.0
  0
LINE
  5
9FC
  8
0
 62
     3
 10
210.48670999999999
 20
121.49992399999999
 30
0.0
 11
213.13703899999999
 21
118.8495939999999
 31
0.0
  0
LINE
  5
9FD
  8
0
 62
     3
 10
211.5473629999999
 20
121.49992399999999
 30
0.0
 11
213.13703899999999
 21
119.91025500000001
 31
0.0
  0
LINE
  5
9FE
  8
0
 62
     3
 10
212.6080169999999
 20
121.49992399999999
 30
0.0
 11
213.13703899999999
 21
120.97090900000001
 31
0.0
  0
ENDBLK
  5
9FF
  8
0
  0
BLOCK
  8
0
  2
BLOCK68
 70
     0
 10
0.0
 20
0.0
 30
0.0
  3
BLOCK68
  1

  0
LINE
  5
A01
  8
0
 62
     3
 10
221.3370359999999
 20
117.0135499999999
 30
0.0
 11
221.85066199999989
 21
116.49992399999989
 31
0.0
  0
LINE
  5
A02
  8
0
 62
     3
 10
221.3370359999999
 20
118.07421100000001
 30
0.0
 11
222.91133099999999
 21
116.49992399999989
 31
0.0
  0
LINE
  5
A03
  8
0
 62
     3
 10
221.3370359999999
 20
119.134872
 30
0.0
 11
223.97198499999999
 21
116.49992399999989
 31
0.0
  0
LINE
  5
A04
  8
0
 62
     3
 10
221.3370359999999
 20
120.19553399999999
 30
0.0
 11
225.03263899999999
 21
116.49992399999989
 31
0.0
  0
LINE
  5
A05
  8
0
 62
     3
 10
221.3370359999999
 20
121.25619499999991
 30
0.0
 11
226.0933069999999
 21
116.49992399999989
 31
0.0
  0
LINE
  5
A06
  8
0
 62
     3
 10
222.1539609999999
 20
121.49992399999999
 30
0.0
 11
227.15396100000001
 21
116.49992399999989
 31
0.0
  0
LINE
  5
A07
  8
0
 62
     3
 10
223.21462999999989
 20
121.49992399999999
 30
0.0
 11
227.23702999999989
 21
117.47751599999999
 31
0.0
  0
LINE
  5
A08
  8
0
 62
     3
 10
224.275284
 20
121.49992399999999
 30
0.0
 11
227.23702999999989
 21
118.53816999999989
 31
0.0
  0
LINE
  5
A09
  8
0
 62
     3
 10
225.3359529999999
 20
121.49992399999999
 30
0.0
 11
227.23702999999989
 21
119.598831
 31
0.0
  0
LINE
  5
A0A
  8
0
 62
     3
 10
226.39660599999999
 20
121.49992399999999
 30
0.0
 11
227.23702999999989
 21
120.6594919999999
 31
0.0
  0
ENDBLK
  5
A0B
  8
0
  0
BLOCK
  8
0
  2
BLOCK69
 70
     0
 10
0.0
 20
0.0
 30
0.0
  3
BLOCK69
  1

  0
LINE
  5
A0D
  8
0
 62
     3
 10
208.8529209999999
 20
123.99992399999989
 30
0.0
 11
207.23703
 21
122.38404800000001
 31
0.0
  0
LINE
  5
A0E
  8
0
 62
     3
 10
213.09555099999989
 20
123.99992399999989
 30
0.0
 11
210.59555099999989
 21
121.49992399999999
 31
0.0
  0
LINE
  5
A0F
  8
0
 62
     3
 10
215.587906
 20
122.249634
 30
0.0
 11
213.47705099999999
 21
120.13877099999991
 31
0.0
  0
LINE
  5
A10
  8
0
 62
     3
 10
221.58084099999999
 20
123.9999159999999
 30
0.0
 11
218.571564
 21
120.990646
 31
0.0
  0
LINE
  5
A11
  8
0
 62
     3
 10
217.6542509999999
 20
120.0733409999999
 30
0.0
 11
215.515411
 21
117.9345019999999
 31
0.0
  0
LINE
  5
A12
  8
0
 62
     3
 10
225.82348599999989
 20
123.99992399999989
 30
0.0
 11
223.32348599999989
 21
121.49992399999999
 31
0.0
  0
ENDBLK
  5
A13
  8
0
  0
BLOCK
  8
0
  2
BLOCK70
 70
     0
 10
0.0
 20
0.0
 30
0.0
  3
BLOCK70
  1

  0
LINE
  5
A15
  8
0
 62
     3
 10
223.47743199999999
 20
100.440681
 30
0.0
 11
220.23702999999989
 21
97.200287000000003
 31
0.0
  0
LINE
  5
A16
  8
0
 62
     3
 10
225.73702999999989
 20
98.457642000000007
 30
0.0
 11
224.779312
 21
97.499923999999993
 31
0.0
  0
ENDBLK
  5
A17
  8
0
  0
BLOCK
  8
0
  2
BLOCK71
 70
     0
 10
0.0
 20
0.0
 30
0.0
  3
BLOCK71
  1

  0
LINE
  5
A19
  8
0
 62
     3
 10
209.16610700000001
 20
103.09992199999991
 30
0.0
 11
208.73702999999989
 21
102.67085299999999
 31
0.0
  0
LINE
  5
A1A
  8
0
 62
     3
 10
213.37246699999989
 20
103.063637
 30
0.0
 11
211.34950299999991
 21
101.040688
 31
0.0
  0
LINE
  5
A1B
  8
0
 62
     3
 10
214.23702999999989
 20
99.685569999999998
 30
0.0
 11
213.6513819999999
 21
99.099921999999992
 31
0.0
  0
ENDBLK
  5
A1C
  8
0
  0
BLOCK
  8
0
  2
BLOCK72
 70
     0
 10
0.0
 20
0.0
 30
0.0
  3
BLOCK72
  1

  0
LINE
  5
A1E
  8
0
 62
     3
 10
211.4249419999999
 20
98.287827000000007
 30
0.0
 11
212.9728549999999
 21
96.739906000000005
 31
0.0
  0
LINE
  5
A1F
  8
0
 62
     3
 10
214.23702999999989
 20
99.718368999999996
 30
0.0
 11
217.21549999999999
 21
96.739906000000005
 31
0.0
  0
LINE
  5
A20
  8
0
 62
     3
 10
219.14897199999999
 20
99.049080000000004
 30
0.0
 11
221.4581299999999
 21
96.739906000000005
 31
0.0
  0
LINE
  5
A21
  8
0
 62
     3
 10
219.4473879999999
 20
102.99329399999991
 30
0.0
 11
220.2589569999999
 21
102.181732
 31
0.0
  0
ENDBLK
  5
A22
  8
0
  0
BLOCK
  8
0
  2
BLOCK73
 70
     0
 10
0.0
 20
0.0
 30
0.0
  3
BLOCK73
  1

  0
LINE
  5
A24
  8
0
 62
     3
 10
204.7195889999999
 20
75.294693000000009
 30
0.0
 11
207.01428200000001
 21
73.0
 31
0.0
  0
LINE
  5
A25
  8
0
 62
     3
 10
208.75691199999989
 20
75.5
 30
0.0
 11
211.25691199999989
 21
73.0
 31
0.0
  0
LINE
  5
A26
  8
0
 62
     3
 10
212.9995569999999
 20
75.5
 30
0.0
 11
215.49955700000001
 21
73.0
 31
0.0
  0
LINE
  5
A27
  8
0
 62
     3
 10
217.2422029999999
 20
75.5
 30
0.0
 11
219.7422029999999
 21
73.0
 31
0.0
  0
LINE
  5
A28
  8
0
 62
     3
 10
221.48483300000001
 20
75.5
 30
0.0
 11
223.98483300000001
 21
73.0
 31
0.0
  0
LINE
  5
A29
  8
0
 62
     3
 10
225.72747799999991
 20
75.5
 30
0.0
 11
228.22747799999991
 21
73.0
 31
0.0
  0
LINE
  5
A2A
  8
0
 62
     3
 10
229.970123
 20
75.5
 30
0.0
 11
232.470123
 21
73.0
 31
0.0
  0
LINE
  5
A2B
  8
0
 62
     3
 10
234.21275299999991
 20
75.5
 30
0.0
 11
236.55940200000001
 21
73.153357999999983
 31
0.0
  0
LINE
  5
A2C
  8
0
 62
     3
 10
235.45542900000001
 20
78.499961999999996
 30
0.0
 11
237.2370609999999
 21
76.718330000000009
 31
0.0
  0
ENDBLK
  5
A2D
  8
0
  0
BLOCK
  8
0
  2
BLOCK74
 70
     0
 10
0.0
 20
0.0
 30
0.0
  3
BLOCK74
  1

  0
LINE
  5
A2F
  8
0
 62
     3
 10
223.279312
 20
95.999923999999993
 30
0.0
 11
223.23702999999989
 21
95.957642000000007
 31
0.0
  0
LINE
  5
A30
  8
0
 62
     3
 10
227.23702999999989
 20
95.715004000000008
 30
0.0
 11
223.5219569999999
 21
91.999923999999993
 31
0.0
  0
ENDBLK
  5
A31
  8
0
  0
BLOCK
  8
0
  2
BLOCK75
 70
     0
 10
0.0
 20
0.0
 30
0.0
  3
BLOCK75
  1

  0
LINE
  5
A33
  8
0
 62
     3
 10
210.55139199999991
 20
95.999923999999993
 30
0.0
 11
207.23703
 21
92.685576999999995
 31
0.0
  0
LINE
  5
A34
  8
0
 62
     3
 10
211.23702999999989
 20
92.442931999999985
 30
0.0
 11
210.79402200000001
 21
91.999923999999993
 31
0.0
  0
ENDBLK
  5
A35
  8
0
  0
BLOCK
  8
0
  2
BLOCK76
 70
     0
 10
0.0
 20
0.0
 30
0.0
  3
BLOCK76
  1

  0
LINE
  5
A37
  8
0
 62
     3
 10
11.33706799999999
 20
117.00282300000001
 30
0.0
 11
11.839964
 21
116.49992399999989
 31
0.0
  0
LINE
  5
A38
  8
0
 62
     3
 10
11.33706799999999
 20
118.0634839999999
 30
0.0
 11
12.900624000000001
 21
116.49992399999989
 31
0.0
  0
LINE
  5
A39
  8
0
 62
     3
 10
11.33706799999999
 20
119.1241379999999
 30
0.0
 11
13.961285
 21
116.49992399999989
 31
0.0
  0
LINE
  5
A3A
  8
0
 62
     3
 10
11.33706799999999
 20
120.184799
 30
0.0
 11
14.670366
 21
116.8515009999999
 31
0.0
  0
LINE
  5
A3B
  8
0
 62
     3
 10
11.33706799999999
 20
121.24546099999991
 30
0.0
 11
14.670366
 21
117.91216300000001
 31
0.0
  0
LINE
  5
A3C
  8
0
 62
     3
 10
12.143265
 20
121.49992399999999
 30
0.0
 11
14.670366
 21
118.9728239999999
 31
0.0
  0
LINE
  5
A3D
  8
0
 62
     3
 10
13.203925
 20
121.49992399999999
 30
0.0
 11
14.670366
 21
120.033485
 31
0.0
  0
LINE
  5
A3E
  8
0
 62
     3
 10
14.264585
 20
121.49992399999999
 30
0.0
 11
14.670366
 21
121.09414699999989
 31
0.0
  0
ENDBLK
  5
A3F
  8
0
  0
BLOCK
  8
0
  2
BLOCK77
 70
     0
 10
0.0
 20
0.0
 30
0.0
  3
BLOCK77
  1

  0
LINE
  5
A41
  8
0
 62
     3
 10
-2.7629329999999999
 20
117.3142399999999
 30
0.0
 11
-1.9486169999999989
 21
116.49992399999989
 31
0.0
  0
LINE
  5
A42
  8
0
 62
     3
 10
-2.7629329999999999
 20
118.37490099999989
 30
0.0
 11
-0.8879569999999999
 21
116.49992399999989
 31
0.0
  0
LINE
  5
A43
  8
0
 62
     3
 10
-2.7629329999999999
 20
119.435562
 30
0.0
 11
0.172703
 21
116.49992399999989
 31
0.0
  0
LINE
  5
A44
  8
0
 62
     3
 10
-2.7629329999999999
 20
120.496223
 30
0.0
 11
1.2333629999999991
 21
116.49992399999989
 31
0.0
  0
LINE
  5
A45
  8
0
 62
     3
 10
-2.7059759999999988
 20
121.49992399999999
 30
0.0
 11
2.2940230000000001
 21
116.49992399999989
 31
0.0
  0
LINE
  5
A46
  8
0
 62
     3
 10
-1.645316
 20
121.49992399999999
 30
0.0
 11
3.1370669999999992
 21
116.71753699999999
 31
0.0
  0
LINE
  5
A47
  8
0
 62
     3
 10
-0.5846560000000001
 20
121.49992399999999
 30
0.0
 11
3.1370669999999992
 21
117.778198
 31
0.0
  0
LINE
  5
A48
  8
0
 62
     3
 10
0.476004
 20
121.49992399999999
 30
0.0
 11
3.1370669999999992
 21
118.83886
 31
0.0
  0
LINE
  5
A49
  8
0
 62
     3
 10
1.536664
 20
121.49992399999999
 30
0.0
 11
3.1370669999999992
 21
119.89952099999989
 31
0.0
  0
LINE
  5
A4A
  8
0
 62
     3
 10
2.5973239999999991
 20
121.49992399999999
 30
0.0
 11
3.1370669999999992
 21
120.960182
 31
0.0
  0
ENDBLK
  5
A4B
  8
0
  0
BLOCK
  8
0
  2
BLOCK78
 70
     0
 10
0.0
 20
0.0
 30
0.0
  3
BLOCK78
  1

  0
LINE
  5
A4D
  8
0
 62
     3
 10
0.963404
 20
123.9999159999999
 30
0.0
 11
-1.5365919999999991
 21
121.49992399999999
 31
0.0
  0
LINE
  5
A4E
  8
0
 62
     3
 10
4.686507999999999
 20
123.480377
 30
0.0
 11
2.7060509999999991
 21
121.49992399999999
 31
0.0
  0
LINE
  5
A4F
  8
0
 62
     3
 10
6.0487209999999987
 20
120.5999529999999
 30
0.0
 11
4.2841670000000001
 21
118.8354029999999
 31
0.0
  0
LINE
  5
A50
  8
0
 62
     3
 10
13.691338999999999
 20
123.99992399999989
 30
0.0
 11
7.2521009999999988
 21
117.5606919999999
 31
0.0
  0
LINE
  5
A51
  8
0
 62
     3
 10
17.237068000000001
 20
123.3030089999999
 30
0.0
 11
15.433979000000001
 21
121.49992399999999
 31
0.0
  0
ENDBLK
  5
A52
  8
0
  0
BLOCK
  8
0
  2
BLOCK79
 70
     0
 10
0.0
 20
0.0
 30
0.0
  3
BLOCK79
  1

  0
LINE
  5
A54
  8
0
 62
     3
 10
1.675783
 20
103.499107
 30
0.0
 11
-1.2234
 21
100.59992199999991
 31
0.0
  0
LINE
  5
A55
  8
0
 62
     3
 10
4.2370669999999988
 20
101.81774900000001
 30
0.0
 11
2.7370669999999988
 21
100.31774899999991
 31
0.0
  0
ENDBLK
  5
A56
  8
0
  0
BLOCK
  8
0
  2
BLOCK80
 70
     0
 10
0.0
 20
0.0
 30
0.0
  3
BLOCK80
  1

  0
LINE
  5
A58
  8
0
 62
     3
 10
14.101176000000001
 20
103.19657099999991
 30
0.0
 11
10.237066999999991
 21
99.332465999999997
 31
0.0
  0
ENDBLK
  5
A59
  8
0
  0
BLOCK
  8
0
  2
BLOCK81
 70
     0
 10
0.0
 20
0.0
 30
0.0
  3
BLOCK81
  1

  0
LINE
  5
A5B
  8
0
 62
     3
 10
-1.580762
 20
95.999923999999993
 30
0.0
 11
-2.7629329999999999
 21
94.817757
 31
0.0
  0
LINE
  5
A5C
  8
0
 62
     3
 10
1.237066999999999
 20
94.575110999999993
 30
0.0
 11
-1.3381229999999991
 21
91.999923999999993
 31
0.0
  0
ENDBLK
  5
A5D
  8
0
  0
BLOCK
  8
0
  2
BLOCK82
 70
     0
 10
0.0
 20
0.0
 30
0.0
  3
BLOCK82
  1

  0
LINE
  5
A5F
  8
0
 62
     3
 10
15.389810000000001
 20
95.999923999999993
 30
0.0
 11
13.237067
 21
93.847183000000015
 31
0.0
  0
LINE
  5
A60
  8
0
 62
     3
 10
17.237068000000001
 20
93.604538000000005
 30
0.0
 11
15.632448
 21
91.999923999999993
 31
0.0
  0
ENDBLK
  5
A61
  8
0
  0
BLOCK
  8
0
  2
BLOCK83
 70
     0
 10
0.0
 20
0.0
 30
0.0
  3
BLOCK83
  1

  0
LINE
  5
A63
  8
0
 62
     3
 10
2.7234590000000001
 20
99.099921999999992
 30
0.0
 11
5.0834739999999989
 21
96.739906000000005
 31
0.0
  0
LINE
  5
A64
  8
0
 62
     3
 10
4.2370669999999988
 20
101.8289569999999
 30
0.0
 11
5.2370669999999988
 21
100.8289569999999
 31
0.0
  0
LINE
  5
A65
  8
0
 62
     3
 10
7.7973309999999989
 20
98.268692000000001
 30
0.0
 11
9.3261140000000005
 21
96.739906000000005
 31
0.0
  0
LINE
  5
A66
  8
0
 62
     3
 10
9.2370669999999997
 20
101.07159399999991
 30
0.0
 11
10.237066999999991
 21
100.07159399999991
 31
0.0
  0
LINE
  5
A67
  8
0
 62
     3
 10
11.20873999999999
 20
99.099921999999992
 30
0.0
 11
13.237067
 21
97.071594000000005
 31
0.0
  0
ENDBLK
  5
A68
  8
0
  0
BLOCK
  8
0
  2
BLOCK84
 70
     0
 10
0.0
 20
0.0
 30
0.0
  3
BLOCK84
  1

  0
LINE
  5
A6A
  8
0
 62
     3
 10
-12.762964
 20
76.40258
 30
0.0
 11
-9.3603839999999998
 21
73.0
 31
0.0
  0
LINE
  5
A6B
  8
0
 62
     3
 10
-7.617742999999999
 20
75.5
 30
0.0
 11
-5.1177440000000001
 21
73.0
 31
0.0
  0
LINE
  5
A6C
  8
0
 62
     3
 10
-3.3751029999999989
 20
75.5
 30
0.0
 11
-0.875103
 21
73.0
 31
0.0
  0
LINE
  5
A6D
  8
0
 62
     3
 10
0.867537
 20
75.5
 30
0.0
 11
3.367537
 21
73.0
 31
0.0
  0
LINE
  5
A6E
  8
0
 62
     3
 10
5.1101779999999994
 20
75.5
 30
0.0
 11
7.6101779999999994
 21
73.0
 31
0.0
  0
LINE
  5
A6F
  8
0
 62
     3
 10
9.3528179999999992
 20
75.5
 30
0.0
 11
11.852817999999999
 21
73.0
 31
0.0
  0
LINE
  5
A70
  8
0
 62
     3
 10
13.595459
 20
75.5
 30
0.0
 11
16.095458999999991
 21
73.0
 31
0.0
  0
LINE
  5
A71
  8
0
 62
     3
 10
17.838099
 20
75.5
 30
0.0
 11
19.754516999999989
 21
73.583579999999984
 31
0.0
  0
ENDBLK
  5
A72
  8
0
  0
BLOCK
  8
0
  2
BLOCK85
 70
     0
 10
0.0
 20
0.0
 30
0.0
  3
BLOCK85
  1

  0
LINE
  5
A74
  8
0
 62
     3
 10
247.0845029999999
 20
112.479286
 30
0.0
 11
249.15576200000001
 21
110.408035
 31
0.0
  0
LINE
  5
A75
  8
0
 62
     3
 10
246.8795779999999
 20
113.744873
 30
0.0
 11
249.78851299999991
 21
110.83593
 31
0.0
  0
LINE
  5
A76
  8
0
 62
     3
 10
246.8795779999999
 20
114.8055269999999
 30
0.0
 11
250.22775299999989
 21
111.457359
 31
0.0
  0
LINE
  5
A77
  8
0
 62
     3
 10
247.0137939999999
 20
115.731979
 30
0.0
 11
250.54122899999999
 21
112.2045439999999
 31
0.0
  0
LINE
  5
A78
  8
0
 62
     3
 10
247.232224
 20
116.57421100000001
 30
0.0
 11
250.7237089999999
 21
113.08272599999999
 31
0.0
  0
LINE
  5
A79
  8
0
 62
     3
 10
247.54570000000001
 20
117.3213879999999
 30
0.0
 11
250.81881699999991
 21
114.04827899999999
 31
0.0
  0
LINE
  5
A7A
  8
0
 62
     3
 10
248.02773999999991
 20
117.90001699999991
 30
0.0
 11
250.79335
 21
115.1343989999999
 31
0.0
  0
LINE
  5
A7B
  8
0
 62
     3
 10
248.73039199999999
 20
118.2580259999999
 30
0.0
 11
250.503738
 21
116.48468
 31
0.0
  0
ENDBLK
  5
A7C
  8
0
  0
BLOCK
  8
0
  2
BLOCK86
 70
     0
 10
0.0
 20
0.0
 30
0.0
  3
BLOCK86
  1

  0
LINE
  5
A7E
  8
0
 62
     3
 10
-25.905266000000001
 20
111.818748
 30
0.0
 11
-24.392624000000001
 21
110.306107
 31
0.0
  0
LINE
  5
A7F
  8
0
 62
     3
 10
-26.280972999999999
 20
113.25511899999999
 30
0.0
 11
-23.633483999999999
 21
110.60762800000001
 31
0.0
  0
LINE
  5
A80
  8
0
 62
     3
 10
-26.344707
 20
114.379509
 30
0.0
 11
-23.14122999999999
 21
111.176033
 31
0.0
  0
LINE
  5
A81
  8
0
 62
     3
 10
-26.276092999999999
 20
115.371559
 30
0.0
 11
-22.808969000000001
 21
111.90443399999999
 31
0.0
  0
LINE
  5
A82
  8
0
 62
     3
 10
-26.112787000000001
 20
116.2689129999999
 30
0.0
 11
-22.566175000000001
 21
112.7222979999999
 31
0.0
  0
LINE
  5
A83
  8
0
 62
     3
 10
-25.804497000000001
 20
117.021278
 30
0.0
 11
-22.405476
 21
113.62226099999999
 31
0.0
  0
LINE
  5
A84
  8
0
 62
     3
 10
-25.394268
 20
117.67171499999991
 30
0.0
 11
-22.405476
 21
114.68292199999991
 31
0.0
  0
LINE
  5
A85
  8
0
 62
     3
 10
-24.808851000000001
 20
118.1469569999999
 30
0.0
 11
-22.572123000000001
 21
115.9102249999999
 31
0.0
  0
ENDBLK
  5
A86
  8
0
  0
ENDSEC
  0
SECTION
  2
ENTITIES
  0
LINE
  5
25
  8
0
  6
DASHDOT
 62
     7
 10
540.38629200000003
 20
710.41375700000003
 30
0.0
 11
540.38629200000003
 21
467.53112800000002
 31
0.0
  0
POLYLINE
  5
26
  8
0
 62
     3
 66
     1
 10
0.0
 20
0.0
 30
0.0
  0
VERTEX
  5
AF1
  8
0
 62
     3
 10
607.88629200000003
 20
699.41343700000004
 30
0.0
  0
VERTEX
  5
AF2
  8
0
 62
     3
 10
607.88629200000003
 20
683.41343700000004
 30
0.0
  0
VERTEX
  5
AF3
  8
0
 62
     3
 10
609.88629200000003
 20
682.41343700000004
 30
0.0
  0
VERTEX
  5
AF4
  8
0
 62
     3
 10
605.88629200000003
 20
681.41343700000004
 30
0.0
  0
VERTEX
  5
AF5
  8
0
 62
     3
 10
607.88629200000003
 20
680.41343700000004
 30
0.0
  0
VERTEX
  5
AF6
  8
0
 62
     3
 10
607.88629200000003
 20
664.41343700000004
 30
0.0
  0
VERTEX
  5
AF7
  8
0
 62
     3
 10
609.88629200000003
 20
663.41343700000004
 30
0.0
  0
VERTEX
  5
AF8
  8
0
 62
     3
 10
605.88629200000003
 20
662.41343700000004
 30
0.0
  0
VERTEX
  5
AF9
  8
0
 62
     3
 10
607.88629200000003
 20
661.41343700000004
 30
0.0
  0
VERTEX
  5
AFA
  8
0
 62
     3
 10
607.88629200000003
 20
645.41343700000004
 30
0.0
  0
VERTEX
  5
AFB
  8
0
 62
     3
 10
609.88629200000003
 20
644.41343700000004
 30
0.0
  0
VERTEX
  5
AFC
  8
0
 62
     3
 10
605.88629200000003
 20
643.41343700000004
 30
0.0
  0
VERTEX
  5
AFD
  8
0
 62
     3
 10
607.88629200000003
 20
642.41343700000004
 30
0.0
  0
VERTEX
  5
AFE
  8
0
 62
     3
 10
607.88629200000003
 20
626.41343700000004
 30
0.0
  0
VERTEX
  5
AFF
  8
0
 62
     3
 10
609.88629200000003
 20
625.41343700000004
 30
0.0
  0
VERTEX
  5
B00
  8
0
 62
     3
 10
605.88629200000003
 20
624.41343700000004
 30
0.0
  0
VERTEX
  5
B01
  8
0
 62
     3
 10
607.88629200000003
 20
623.41343700000004
 30
0.0
  0
VERTEX
  5
B02
  8
0
 62
     3
 10
607.88629200000003
 20
607.41343700000004
 30
0.0
  0
VERTEX
  5
B03
  8
0
 62
     3
 10
609.88629200000003
 20
606.41343700000004
 30
0.0
  0
VERTEX
  5
B04
  8
0
 62
     3
 10
605.88629200000003
 20
605.41343700000004
 30
0.0
  0
VERTEX
  5
B05
  8
0
 62
     3
 10
607.88629200000003
 20
604.41343700000004
 30
0.0
  0
VERTEX
  5
B06
  8
0
 62
     3
 10
607.88629200000003
 20
588.41343700000004
 30
0.0
  0
VERTEX
  5
B07
  8
0
 62
     3
 10
609.88629200000003
 20
587.41343700000004
 30
0.0
  0
VERTEX
  5
B08
  8
0
 62
     3
 10
605.88629200000003
 20
586.41343700000004
 30
0.0
  0
VERTEX
  5
B09
  8
0
 62
     3
 10
607.88629200000003
 20
585.41343700000004
 30
0.0
  0
VERTEX
  5
B0A
  8
0
 62
     3
 10
607.88629200000003
 20
569.41343700000004
 30
0.0
  0
VERTEX
  5
B0B
  8
0
 62
     3
 10
609.88629200000003
 20
568.41343700000004
 30
0.0
  0
VERTEX
  5
B0C
  8
0
 62
     3
 10
605.88629200000003
 20
567.41343700000004
 30
0.0
  0
VERTEX
  5
B0D
  8
0
 62
     3
 10
607.88629200000003
 20
566.41343700000004
 30
0.0
  0
VERTEX
  5
B0E
  8
0
 62
     3
 10
607.88629200000003
 20
550.41343700000004
 30
0.0
  0
VERTEX
  5
B0F
  8
0
 62
     3
 10
609.88629200000003
 20
549.41343700000004
 30
0.0
  0
VERTEX
  5
B10
  8
0
 62
     3
 10
605.88629200000003
 20
548.41343700000004
 30
0.0
  0
VERTEX
  5
B11
  8
0
 62
     3
 10
607.88629200000003
 20
547.41343700000004
 30
0.0
  0
VERTEX
  5
B12
  8
0
 62
     3
 10
607.88629200000003
 20
531.41343700000004
 30
0.0
  0
VERTEX
  5
B13
  8
0
 62
     3
 10
609.88629200000003
 20
530.41343700000004
 30
0.0
  0
VERTEX
  5
B14
  8
0
 62
     3
 10
605.88629200000003
 20
529.41343700000004
 30
0.0
  0
VERTEX
  5
B15
  8
0
 62
     3
 10
607.88629200000003
 20
528.41343700000004
 30
0.0
  0
VERTEX
  5
B16
  8
0
 62
     3
 10
607.88629200000003
 20
512.41343700000004
 30
0.0
  0
VERTEX
  5
B17
  8
0
 62
     3
 10
609.88629200000003
 20
511.41343699999999
 30
0.0
  0
VERTEX
  5
B18
  8
0
 62
     3
 10
605.88629200000003
 20
510.41343699999987
 30
0.0
  0
VERTEX
  5
B19
  8
0
 62
     3
 10
607.88629200000003
 20
509.41343699999987
 30
0.0
  0
VERTEX
  5
B1A
  8
0
 62
     3
 10
607.88629200000003
 20
494.34278099999989
 30
0.0
  0
SEQEND
  5
B1B
  8
0
 62
     3
  0
POLYLINE
  5
52
  8
0
 62
     3
 66
     1
 10
0.0
 20
0.0
 30
0.0
  0
VERTEX
  5
B1C
  8
0
 62
     3
 10
607.88629200000003
 20
494.34278099999989
 30
0.0
  0
VERTEX
  5
B1D
  8
0
 62
     3
 10
591.88629200000003
 20
494.34278099999989
 30
0.0
  0
VERTEX
  5
B1E
  8
0
 62
     3
 10
590.88629200000003
 20
492.34278099999989
 30
0.0
  0
VERTEX
  5
B1F
  8
0
 62
     3
 10
589.88629200000003
 20
496.34278099999989
 30
0.0
  0
VERTEX
  5
B20
  8
0
 62
     3
 10
588.88629200000003
 20
494.34278099999989
 30
0.0
  0
VERTEX
  5
B21
  8
0
 62
     3
 10
572.88629200000003
 20
494.34278099999989
 30
0.0
  0
VERTEX
  5
B22
  8
0
 62
     3
 10
571.88629200000003
 20
492.34278099999989
 30
0.0
  0
VERTEX
  5
B23
  8
0
 62
     3
 10
570.88629200000003
 20
496.34278099999989
 30
0.0
  0
VERTEX
  5
B24
  8
0
 62
     3
 10
569.88629200000003
 20
494.34278099999989
 30
0.0
  0
VERTEX
  5
B25
  8
0
 62
     3
 10
553.88629200000003
 20
494.34278099999989
 30
0.0
  0
VERTEX
  5
B26
  8
0
 62
     3
 10
552.88629200000003
 20
492.34278099999989
 30
0.0
  0
VERTEX
  5
B27
  8
0
 62
     3
 10
551.88629200000003
 20
496.34278099999989
 30
0.0
  0
VERTEX
  5
B28
  8
0
 62
     3
 10
550.88629200000003
 20
494.34278099999989
 30
0.0
  0
VERTEX
  5
B29
  8
0
 62
     3
 10
534.88629200000003
 20
494.34278099999989
 30
0.0
  0
VERTEX
  5
B2A
  8
0
 62
     3
 10
533.88629200000003
 20
492.34278099999989
 30
0.0
  0
VERTEX
  5
B2B
  8
0
 62
     3
 10
532.88629200000003
 20
496.34278099999989
 30
0.0
  0
VERTEX
  5
B2C
  8
0
 62
     3
 10
531.88629199999991
 20
494.34278099999989
 30
0.0
  0
VERTEX
  5
B2D
  8
0
 62
     3
 10
515.88629200000003
 20
494.34278099999989
 30
0.0
  0
VERTEX
  5
B2E
  8
0
 62
     3
 10
514.88629200000003
 20
492.34278099999989
 30
0.0
  0
VERTEX
  5
B2F
  8
0
 62
     3
 10
513.88629200000003
 20
496.34278099999989
 30
0.0
  0
VERTEX
  5
B30
  8
0
 62
     3
 10
512.88629200000003
 20
494.34278099999989
 30
0.0
  0
VERTEX
  5
B31
  8
0
 62
     3
 10
496.88629199999991
 20
494.34278099999989
 30
0.0
  0
VERTEX
  5
B32
  8
0
 62
     3
 10
495.88629199999991
 20
492.34278099999989
 30
0.0
  0
VERTEX
  5
B33
  8
0
 62
     3
 10
494.88629199999991
 20
496.34278099999989
 30
0.0
  0
VERTEX
  5
B34
  8
0
 62
     3
 10
493.88629200000003
 20
494.34278099999989
 30
0.0
  0
VERTEX
  5
B35
  8
0
 62
     3
 10
477.88629199999991
 20
494.34278099999989
 30
0.0
  0
VERTEX
  5
B36
  8
0
 62
     3
 10
476.88629200000003
 20
492.34278099999989
 30
0.0
  0
VERTEX
  5
B37
  8
0
 62
     3
 10
475.88629199999991
 20
496.34278099999989
 30
0.0
  0
VERTEX
  5
B38
  8
0
 62
     3
 10
474.88629199999991
 20
494.34278099999989
 30
0.0
  0
VERTEX
  5
B39
  8
0
 62
     3
 10
458.88629199999991
 20
494.34278099999989
 30
0.0
  0
VERTEX
  5
B3A
  8
0
 62
     3
 10
457.88629199999991
 20
492.34278099999989
 30
0.0
  0
VERTEX
  5
B3B
  8
0
 62
     3
 10
456.88629199999991
 20
496.34278099999989
 30
0.0
  0
VERTEX
  5
B3C
  8
0
 62
     3
 10
455.88629200000003
 20
494.34278099999989
 30
0.0
  0
VERTEX
  5
B3D
  8
0
 62
     3
 10
440.38629199999991
 20
494.34278099999989
 30
0.0
  0
SEQEND
  5
B3E
  8
0
 62
     3
  0
POLYLINE
  5
76
  8
0
 62
     3
 66
     1
 10
0.0
 20
0.0
 30
0.0
  0
VERTEX
  5
B3F
  8
0
 62
     3
 10
440.38629199999991
 20
699.41343700000004
 30
0.0
  0
VERTEX
  5
B40
  8
0
 62
     3
 10
440.38629199999991
 20
683.41343700000004
 30
0.0
  0
VERTEX
  5
B41
  8
0
 62
     3
 10
442.38629199999991
 20
682.41343700000004
 30
0.0
  0
VERTEX
  5
B42
  8
0
 62
     3
 10
438.38629199999991
 20
681.41343700000004
 30
0.0
  0
VERTEX
  5
B43
  8
0
 62
     3
 10
440.38629199999991
 20
680.41343700000004
 30
0.0
  0
VERTEX
  5
B44
  8
0
 62
     3
 10
440.38629199999991
 20
664.41343700000004
 30
0.0
  0
VERTEX
  5
B45
  8
0
 62
     3
 10
442.38629199999991
 20
663.41343700000004
 30
0.0
  0
VERTEX
  5
B46
  8
0
 62
     3
 10
438.38629199999991
 20
662.41343700000004
 30
0.0
  0
VERTEX
  5
B47
  8
0
 62
     3
 10
440.38629199999991
 20
661.41343700000004
 30
0.0
  0
VERTEX
  5
B48
  8
0
 62
     3
 10
440.38629199999991
 20
645.41343700000004
 30
0.0
  0
VERTEX
  5
B49
  8
0
 62
     3
 10
442.38629199999991
 20
644.41343700000004
 30
0.0
  0
VERTEX
  5
B4A
  8
0
 62
     3
 10
438.38629199999991
 20
643.41343700000004
 30
0.0
  0
VERTEX
  5
B4B
  8
0
 62
     3
 10
440.38629199999991
 20
642.41343700000004
 30
0.0
  0
VERTEX
  5
B4C
  8
0
 62
     3
 10
440.38629199999991
 20
626.41343700000004
 30
0.0
  0
VERTEX
  5
B4D
  8
0
 62
     3
 10
442.38629199999991
 20
625.41343700000004
 30
0.0
  0
VERTEX
  5
B4E
  8
0
 62
     3
 10
438.38629199999991
 20
624.41343700000004
 30
0.0
  0
VERTEX
  5
B4F
  8
0
 62
     3
 10
440.38629199999991
 20
623.41343700000004
 30
0.0
  0
VERTEX
  5
B50
  8
0
 62
     3
 10
440.38629199999991
 20
607.41343700000004
 30
0.0
  0
VERTEX
  5
B51
  8
0
 62
     3
 10
442.38629199999991
 20
606.41343700000004
 30
0.0
  0
VERTEX
  5
B52
  8
0
 62
     3
 10
438.38629199999991
 20
605.41343700000004
 30
0.0
  0
VERTEX
  5
B53
  8
0
 62
     3
 10
440.38629199999991
 20
604.41343700000004
 30
0.0
  0
VERTEX
  5
B54
  8
0
 62
     3
 10
440.38629199999991
 20
588.41343700000004
 30
0.0
  0
VERTEX
  5
B55
  8
0
 62
     3
 10
442.38629199999991
 20
587.41343700000004
 30
0.0
  0
VERTEX
  5
B56
  8
0
 62
     3
 10
438.38629199999991
 20
586.41343700000004
 30
0.0
  0
VERTEX
  5
B57
  8
0
 62
     3
 10
440.38629199999991
 20
585.41343700000004
 30
0.0
  0
VERTEX
  5
B58
  8
0
 62
     3
 10
440.38629199999991
 20
569.41343700000004
 30
0.0
  0
VERTEX
  5
B59
  8
0
 62
     3
 10
442.38629199999991
 20
568.41343700000004
 30
0.0
  0
VERTEX
  5
B5A
  8
0
 62
     3
 10
438.38629199999991
 20
567.41343700000004
 30
0.0
  0
VERTEX
  5
B5B
  8
0
 62
     3
 10
440.38629199999991
 20
566.41343700000004
 30
0.0
  0
VERTEX
  5
B5C
  8
0
 62
     3
 10
440.38629199999991
 20
550.41343700000004
 30
0.0
  0
VERTEX
  5
B5D
  8
0
 62
     3
 10
442.38629199999991
 20
549.41343700000004
 30
0.0
  0
VERTEX
  5
B5E
  8
0
 62
     3
 10
438.38629199999991
 20
548.41343700000004
 30
0.0
  0
VERTEX
  5
B5F
  8
0
 62
     3
 10
440.38629199999991
 20
547.41343700000004
 30
0.0
  0
VERTEX
  5
B60
  8
0
 62
     3
 10
440.38629199999991
 20
531.41343700000004
 30
0.0
  0
VERTEX
  5
B61
  8
0
 62
     3
 10
442.38629199999991
 20
530.41343700000004
 30
0.0
  0
VERTEX
  5
B62
  8
0
 62
     3
 10
438.38629199999991
 20
529.41343700000004
 30
0.0
  0
VERTEX
  5
B63
  8
0
 62
     3
 10
440.38629199999991
 20
528.41343700000004
 30
0.0
  0
VERTEX
  5
B64
  8
0
 62
     3
 10
440.38629199999991
 20
512.41343700000004
 30
0.0
  0
VERTEX
  5
B65
  8
0
 62
     3
 10
442.38629199999991
 20
511.41343699999999
 30
0.0
  0
VERTEX
  5
B66
  8
0
 62
     3
 10
438.38629199999991
 20
510.41343699999987
 30
0.0
  0
VERTEX
  5
B67
  8
0
 62
     3
 10
440.38629199999991
 20
509.41343699999987
 30
0.0
  0
VERTEX
  5
B68
  8
0
 62
     3
 10
440.38629199999991
 20
494.34278099999989
 30
0.0
  0
SEQEND
  5
B69
  8
0
 62
     3
  0
POLYLINE
  5
A2
  8
0
 62
     3
 66
     1
 10
0.0
 20
0.0
 30
0.0
  0
VERTEX
  5
B6A
  8
0
 62
     3
 10
607.88629200000003
 20
699.41343700000004
 30
0.0
  0
VERTEX
  5
B6B
  8
0
 62
     3
 10
591.88629200000003
 20
699.41343700000004
 30
0.0
  0
VERTEX
  5
B6C
  8
0
 62
     3
 10
590.88629200000003
 20
697.41343700000004
 30
0.0
  0
VERTEX
  5
B6D
  8
0
 62
     3
 10
589.88629200000003
 20
701.41343700000004
 30
0.0
  0
VERTEX
  5
B6E
  8
0
 62
     3
 10
588.88629200000003
 20
699.41343700000004
 30
0.0
  0
VERTEX
  5
B6F
  8
0
 62
     3
 10
572.88629200000003
 20
699.41343700000004
 30
0.0
  0
VERTEX
  5
B70
  8
0
 62
     3
 10
571.88629200000003
 20
697.41343700000004
 30
0.0
  0
VERTEX
  5
B71
  8
0
 62
     3
 10
570.88629200000003
 20
701.41343700000004
 30
0.0
  0
VERTEX
  5
B72
  8
0
 62
     3
 10
569.88629200000003
 20
699.41343700000004
 30
0.0
  0
VERTEX
  5
B73
  8
0
 62
     3
 10
553.88629200000003
 20
699.41343700000004
 30
0.0
  0
VERTEX
  5
B74
  8
0
 62
     3
 10
552.88629200000003
 20
697.41343700000004
 30
0.0
  0
VERTEX
  5
B75
  8
0
 62
     3
 10
551.88629200000003
 20
701.41343700000004
 30
0.0
  0
VERTEX
  5
B76
  8
0
 62
     3
 10
550.88629200000003
 20
699.41343700000004
 30
0.0
  0
VERTEX
  5
B77
  8
0
 62
     3
 10
534.88629200000003
 20
699.41343700000004
 30
0.0
  0
VERTEX
  5
B78
  8
0
 62
     3
 10
533.88629200000003
 20
697.41343700000004
 30
0.0
  0
VERTEX
  5
B79
  8
0
 62
     3
 10
532.88629200000003
 20
701.41343700000004
 30
0.0
  0
VERTEX
  5
B7A
  8
0
 62
     3
 10
531.88629199999991
 20
699.41343700000004
 30
0.0
  0
VERTEX
  5
B7B
  8
0
 62
     3
 10
515.88629200000003
 20
699.41343700000004
 30
0.0
  0
VERTEX
  5
B7C
  8
0
 62
     3
 10
514.88629200000003
 20
697.41343700000004
 30
0.0
  0
VERTEX
  5
B7D
  8
0
 62
     3
 10
513.88629200000003
 20
701.41343700000004
 30
0.0
  0
VERTEX
  5
B7E
  8
0
 62
     3
 10
512.88629200000003
 20
699.41343700000004
 30
0.0
  0
VERTEX
  5
B7F
  8
0
 62
     3
 10
496.88629199999991
 20
699.41343700000004
 30
0.0
  0
VERTEX
  5
B80
  8
0
 62
     3
 10
495.88629199999991
 20
697.41343700000004
 30
0.0
  0
VERTEX
  5
B81
  8
0
 62
     3
 10
494.88629199999991
 20
701.41343700000004
 30
0.0
  0
VERTEX
  5
B82
  8
0
 62
     3
 10
493.88629200000003
 20
699.41343700000004
 30
0.0
  0
VERTEX
  5
B83
  8
0
 62
     3
 10
477.88629199999991
 20
699.41343700000004
 30
0.0
  0
VERTEX
  5
B84
  8
0
 62
     3
 10
476.88629200000003
 20
697.41343700000004
 30
0.0
  0
VERTEX
  5
B85
  8
0
 62
     3
 10
475.88629199999991
 20
701.41343700000004
 30
0.0
  0
VERTEX
  5
B86
  8
0
 62
     3
 10
474.88629199999991
 20
699.41343700000004
 30
0.0
  0
VERTEX
  5
B87
  8
0
 62
     3
 10
458.88629199999991
 20
699.41343700000004
 30
0.0
  0
VERTEX
  5
B88
  8
0
 62
     3
 10
457.88629199999991
 20
697.41343700000004
 30
0.0
  0
VERTEX
  5
B89
  8
0
 62
     3
 10
456.88629199999991
 20
701.41343700000004
 30
0.0
  0
VERTEX
  5
B8A
  8
0
 62
     3
 10
455.88629200000003
 20
699.41343700000004
 30
0.0
  0
VERTEX
  5
B8B
  8
0
 62
     3
 10
440.38629199999991
 20
699.41343700000004
 30
0.0
  0
SEQEND
  5
B8C
  8
0
 62
     3
  0
CIRCLE
  5
C6
  8
0
 62
     7
 10
472.99902300000002
 20
679.63024900000005
 30
0.0
 40
0.2
  0
LINE
  5
C7
  8
0
  6
DASHDOT
 62
     7
 10
565.38629200000003
 20
659.95928200000003
 30
0.0
 11
565.38629200000003
 21
524.68395999999996
 31
0.0
  0
LINE
  5
C8
  8
0
  6
DASHDOT
 62
     7
 10
460.38629200000003
 20
661.14590499999986
 30
0.0
 11
460.38629200000003
 21
524.09064499999988
 31
0.0
  0
LINE
  5
C9
  8
0
  6
DASHDOT
 62
     7
 10
594.99509399999988
 20
643.84278099999995
 30
0.0
 11
465.05958600000002
 21
643.84278099999995
 31
0.0
  0
LINE
  5
CA
  8
0
  6
DASHDOT
 62
     7
 10
596.77503200000001
 20
543.84278099999995
 30
0.0
 11
463.27964800000001
 21
543.84278099999995
 31
0.0
  0
CIRCLE
  5
CB
  8
0
 62
     7
 10
460.38629200000003
 20
643.84278099999995
 30
0.0
 40
2.5
  0
CIRCLE
  5
CC
  8
0
 62
     7
 10
565.38629200000003
 20
643.84278099999995
 30
0.0
 40
2.5
  0
CIRCLE
  5
CD
  8
0
 62
     7
 10
460.38629200000003
 20
543.84278099999995
 30
0.0
 40
2.5
  0
CIRCLE
  5
CE
  8
0
 62
     7
 10
565.38629200000003
 20
543.84278099999995
 30
0.0
 40
2.5
  0
CIRCLE
  5
CF
  8
0
 62
     7
 10
472.99902300000002
 20
679.63024900000005
 30
0.0
 40
0.25
  0
LINE
  5
D0
  8
0
  6
DASHDOT
 62
     7
 10
662.13278200000002
 20
591.59278099999995
 30
0.0
 11
432.22834
 21
591.59278099999995
 31
0.0
  0
LINE
  5
D1
  8
0
 62
     7
 10
395.71758999999992
 20
643.84275100000002
 30
0.0
 11
393.63385
 21
632.02506300000005
 31
0.0
  0
LINE
  5
D2
  8
0
 62
     7
 10
395.71758999999992
 20
643.84275100000002
 30
0.0
 11
397.801331
 21
632.02506300000005
 31
0.0
  0
LINE
  5
D3
  8
0
 62
     7
 10
395.71758999999992
 20
543.84278099999995
 30
0.0
 11
397.801331
 21
555.66046900000003
 31
0.0
  0
LINE
  5
D4
  8
0
 62
     7
 10
395.71758999999992
 20
543.84278099999995
 30
0.0
 11
393.63385
 21
555.66046900000003
 31
0.0
  0
LINE
  5
D5
  8
0
 62
     7
 10
395.71758999999992
 20
643.84275100000002
 30
0.0
 11
395.71758999999992
 21
543.84278099999995
 31
0.0
  0
LINE
  5
D6
  8
0
 62
     7
 10
387.71758999999992
 20
643.84275100000002
 30
0.0
 11
465.05963100000002
 21
643.84275100000002
 31
0.0
  0
LINE
  5
D7
  8
0
 62
     7
 10
387.71758999999992
 20
543.84278099999995
 30
0.0
 11
463.2796019999999
 21
543.84275100000002
 31
0.0
  0
LINE
  5
D8
  8
0
 62
     7
 10
565.38629200000003
 20
451.70648999999997
 30
0.0
 11
577.20391799999993
 21
449.62268799999998
 31
0.0
  0
LINE
  5
D9
  8
0
 62
     7
 10
565.38629200000003
 20
451.70648999999997
 30
0.0
 11
577.20391799999993
 21
453.79029100000002
 31
0.0
  0
LINE
  5
DA
  8
0
 62
     7
 10
540.38629200000003
 20
451.70648999999997
 30
0.0
 11
528.56866500000001
 21
453.79029100000002
 31
0.0
  0
LINE
  5
DB
  8
0
 62
     7
 10
540.38629200000003
 20
451.70648999999997
 30
0.0
 11
528.56866500000001
 21
449.62268799999998
 31
0.0
  0
LINE
  5
DC
  8
0
 62
     7
 10
460.38629200000003
 20
451.70648999999997
 30
0.0
 11
472.20391799999999
 21
449.62268799999998
 31
0.0
  0
LINE
  5
DD
  8
0
 62
     7
 10
460.38629200000003
 20
451.70648999999997
 30
0.0
 11
472.20391799999999
 21
453.79029100000002
 31
0.0
  0
LINE
  5
DE
  8
0
 62
     7
 10
599.38629200000003
 20
451.70648999999997
 30
0.0
 11
460.38629200000003
 21
451.70648999999997
 31
0.0
  0
LINE
  5
DF
  8
0
 62
     7
 10
565.38629200000003
 20
443.70648999999997
 30
0.0
 11
565.38629200000003
 21
524.68396799999994
 31
0.0
  0
LINE
  5
E0
  8
0
 62
     7
 10
540.38629200000003
 20
443.70648999999997
 30
0.0
 11
540.38629200000003
 21
467.53113600000012
 31
0.0
  0
LINE
  5
E1
  8
0
 62
     7
 10
460.38629200000003
 20
443.70648999999997
 30
0.0
 11
460.38629200000003
 21
524.09064499999988
 31
0.0
  0
LINE
  5
E2
  8
0
 62
     7
 10
458.282532
 20
542.49204299999985
 30
0.0
 11
447.21246300000001
 21
537.8603589999999
 31
0.0
  0
LINE
  5
E3
  8
0
 62
     7
 10
458.282532
 20
542.49204299999985
 30
0.0
 11
449.46417199999991
 21
534.35349299999984
 31
0.0
  0
LINE
  5
E4
  8
0
 62
     7
 10
462.49005099999988
 20
545.19352000000003
 30
0.0
 11
473.56011999999998
 21
549.82517199999995
 31
0.0
  0
LINE
  5
E5
  8
0
 62
     7
 10
462.49005099999988
 20
545.19352000000003
 30
0.0
 11
471.30841099999998
 21
553.33206900000005
 31
0.0
  0
LINE
  5
E6
  8
0
 62
     7
 10
462.70025600000002
 20
545.32862099999988
 30
0.0
 11
320.66680899999989
 21
454.130562
 31
0.0
  0
LINE
  5
E7
  8
0
 62
     7
 10
653.29278599999998
 20
643.84278099999995
 30
0.0
 11
651.20880099999999
 21
632.02509299999997
 31
0.0
  0
LINE
  5
E8
  8
0
 62
     7
 10
653.29278599999998
 20
643.84278099999995
 30
0.0
 11
655.37652600000001
 21
632.02509299999997
 31
0.0
  0
LINE
  5
E9
  8
0
 62
     7
 10
653.29278599999998
 20
591.59278099999995
 30
0.0
 11
655.37652600000001
 21
603.41049999999996
 31
0.0
  0
LINE
  5
EA
  8
0
 62
     7
 10
653.29278599999998
 20
591.59278099999995
 30
0.0
 11
651.20880099999999
 21
603.41049999999996
 31
0.0
  0
LINE
  5
EB
  8
0
 62
     7
 10
653.29278599999998
 20
710.84278099999995
 30
0.0
 11
653.29278599999998
 21
591.59278099999995
 31
0.0
  0
LINE
  5
EC
  8
0
 62
     7
 10
661.29278599999998
 20
643.84278099999995
 30
0.0
 11
600.84674099999995
 21
643.84278099999995
 31
0.0
  0
LINE
  5
ED
  8
0
 62
     7
 10
661.29278599999998
 20
591.59278099999995
 30
0.0
 11
644.26983600000005
 21
591.59278099999995
 31
0.0
  0
LINE
  5
EE
  8
0
 62
     7
 10
-136.33678699999999
 20
511.64277299999998
 30
0.0
 11
-136.33678699999999
 21
676.04277000000002
 31
0.0
  0
LINE
  5
EF
  8
0
 62
     3
 10
3.163246
 20
644.09277300000008
 30
0.0
 11
-100.836747
 21
644.09277300000008
 31
0.0
  0
LINE
  5
F0
  8
0
 62
     3
 10
3.163246
 20
539.09279599999991
 30
0.0
 11
-10.33675399999999
 21
539.09279599999991
 31
0.0
  0
LINE
  5
F1
  8
0
 62
     3
 10
-21.836753999999988
 20
539.09279599999991
 30
0.0
 11
-46.387467000000001
 21
539.09279599999991
 31
0.0
  0
LINE
  5
F2
  8
0
 62
     3
 10
-87.336746999999988
 20
539.09279599999991
 30
0.0
 11
-100.836747
 21
539.09279599999991
 31
0.0
  0
LINE
  5
F3
  8
0
 62
     3
 10
-75.836747000000003
 20
539.09279599999991
 30
0.0
 11
-87.336746999999988
 21
539.09279599999991
 31
0.0
  0
LINE
  5
F4
  8
0
 62
     3
 10
-10.33675399999999
 20
539.09279599999991
 30
0.0
 11
-21.836753999999988
 21
539.09279599999991
 31
0.0
  0
LINE
  5
F5
  8
0
  6
DASHDOT
 62
     7
 10
-48.836747000000003
 20
432.30368399999992
 30
0.0
 11
-48.836747000000003
 21
756.86125199999992
 31
0.0
  0
ARC
  5
F6
  8
0
 62
     3
 10
-100.836747
 20
539.59279600000002
 30
0.0
 40
0.5
 50
180.00000299999991
 51
270.00000499999987
  0
ARC
  5
F7
  8
0
 62
     3
 10
-100.836747
 20
643.59277300000008
 30
0.0
 40
0.5
 50
90.0
 51
180.00000299999991
  0
ARC
  5
F8
  8
0
 62
     3
 10
3.163246
 20
643.59277300000008
 30
0.0
 40
0.5
 50
0.000001
 51
90.0
  0
ARC
  5
F9
  8
0
 62
     3
 10
3.163246
 20
539.59279600000002
 30
0.0
 40
0.5
 50
270.00000499999987
 51
0.000001
  0
LINE
  5
FA
  8
0
 62
     3
 10
-51.286194000000002
 20
539.09279599999991
 30
0.0
 11
-75.836747000000003
 21
539.09279599999991
 31
0.0
  0
LINE
  5
FB
  8
0
 62
     7
 10
-76.336761999999993
 20
539.09278099999995
 30
0.0
 11
-86.336747000000003
 21
539.09278099999995
 31
0.0
  0
LINE
  5
FC
  8
0
 62
     7
 10
-11.33677
 20
539.09278099999995
 30
0.0
 11
-21.336770000000001
 21
539.09278099999995
 31
0.0
  0
LINE
  5
FD
  8
0
 62
     7
 10
-101.3367469999999
 20
539.59278099999995
 30
0.0
 11
-101.3367469999999
 21
557.59276599999987
 31
0.0
  0
LINE
  5
FE
  8
0
 62
     7
 10
3.163260999999999
 20
644.09277300000008
 30
0.0
 11
-100.836747
 21
644.09277300000008
 31
0.0
  0
LINE
  5
FF
  8
0
 62
     7
 10
-86.336747000000003
 20
539.09278099999995
 30
0.0
 11
-100.836747
 21
539.09278099999995
 31
0.0
  0
LINE
  5
100
  8
0
 62
     7
 10
-21.336770000000001
 20
539.09278099999995
 30
0.0
 11
-76.336761999999993
 21
539.09278099999995
 31
0.0
  0
LINE
  5
101
  8
0
 62
     7
 10
3.163260999999999
 20
539.09278099999995
 30
0.0
 11
-11.33677
 21
539.09278099999995
 31
0.0
  0
LINE
  5
102
  8
0
 62
     7
 10
-38.086746999999988
 20
561.34276599999998
 30
0.0
 11
-38.086746999999988
 21
601.34275100000002
 31
0.0
  0
LINE
  5
103
  8
0
 62
     7
 10
-59.586746999999988
 20
561.34276599999998
 30
0.0
 11
-59.586746999999988
 21
601.34275100000002
 31
0.0
  0
LINE
  5
104
  8
0
 62
     7
 10
3.663260999999999
 20
632.09274299999993
 30
0.0
 11
-101.3367469999999
 21
632.09274299999993
 31
0.0
  0
LINE
  5
105
  8
0
 62
     7
 10
3.663260999999999
 20
642.09274299999981
 30
0.0
 11
-101.3367469999999
 21
642.09274299999981
 31
0.0
  0
LINE
  5
106
  8
0
 62
     7
 10
-38.086746999999988
 20
601.07828499999994
 30
0.0
 11
-59.586746999999988
 21
601.07828499999994
 31
0.0
  0
LINE
  5
107
  8
0
 62
     7
 10
-38.086746999999988
 20
601.34275100000002
 30
0.0
 11
-59.586746999999988
 21
601.34275100000002
 31
0.0
  0
LINE
  5
108
  8
0
 62
     7
 10
-38.086746999999988
 20
561.34276599999998
 30
0.0
 11
-59.586746999999988
 21
561.34276599999998
 31
0.0
  0
LINE
  5
109
  8
0
 62
     7
 10
-38.086746999999988
 20
561.60726199999988
 30
0.0
 11
-59.586746999999988
 21
561.60726199999988
 31
0.0
  0
LINE
  5
10A
  8
0
 62
     7
 10
3.663246
 20
558.59276599999998
 30
0.0
 11
3.663246
 21
570.59275799999989
 31
0.0
  0
LINE
  5
10B
  8
0
 62
     7
 10
3.663246
 20
571.59275799999989
 30
0.0
 11
3.663246
 21
591.09276599999987
 31
0.0
  0
LINE
  5
10C
  8
0
 62
     7
 10
3.663246
 20
592.09276599999998
 30
0.0
 11
3.663246
 21
604.09276599999998
 31
0.0
  0
LINE
  5
10D
  8
0
 62
     7
 10
-101.3367469999999
 20
558.59276599999998
 30
0.0
 11
-101.3367469999999
 21
570.59276599999987
 31
0.0
  0
LINE
  5
10E
  8
0
 62
     7
 10
-101.3367469999999
 20
571.59276599999998
 30
0.0
 11
-101.3367469999999
 21
591.09276599999987
 31
0.0
  0
LINE
  5
10F
  8
0
 62
     7
 10
-101.3367469999999
 20
592.09276599999998
 30
0.0
 11
-101.3367469999999
 21
604.09276599999998
 31
0.0
  0
LINE
  5
110
  8
0
 62
     7
 10
-101.3367469999999
 20
545.93267800000001
 30
0.0
 11
-101.3367469999999
 21
643.59277300000008
 31
0.0
  0
ARC
  5
111
  8
0
 62
     7
 10
-100.836747
 20
539.59278099999995
 30
0.0
 40
0.5
 50
180.00000299999991
 51
270.00000499999987
  0
ARC
  5
112
  8
0
 62
     7
 10
3.163260999999999
 20
539.59278099999995
 30
0.0
 40
0.5
 50
270.00000499999987
 51
0.000001
  0
ARC
  5
113
  8
0
 62
     7
 10
3.163260999999999
 20
643.59277300000008
 30
0.0
 40
0.5
 50
0.000001
 51
90.0
  0
ARC
  5
114
  8
0
 62
     7
 10
-100.836747
 20
643.59277300000008
 30
0.0
 40
0.5
 50
90.0
 51
180.00000299999991
  0
LINE
  5
115
  8
0
 62
     7
 10
-71.336747000000003
 20
602.59276599999987
 30
0.0
 11
-72.836747000000003
 21
602.59276599999987
 31
0.0
  0
LINE
  5
116
  8
0
 62
     7
 10
-71.336747000000003
 20
593.59276599999987
 30
0.0
 11
-72.836747000000003
 21
593.59276599999987
 31
0.0
  0
CIRCLE
  5
117
  8
0
 62
     7
 10
-72.086747000000003
 20
564.59276599999987
 30
0.0
 40
4.5
  0
CIRCLE
  5
118
  8
0
 62
     7
 10
-72.086747000000003
 20
564.59276599999987
 30
0.0
 40
3.0
  0
LINE
  5
119
  8
0
 62
     7
 10
-72.836747000000003
 20
593.59276599999987
 30
0.0
 11
-72.836747000000003
 21
602.59276599999987
 31
0.0
  0
LINE
  5
11A
  8
0
 62
     7
 10
-71.336747000000003
 20
593.59276599999987
 30
0.0
 11
-71.336747000000003
 21
602.59276599999987
 31
0.0
  0
LINE
  5
11B
  8
0
 62
     7
 10
-35.336739000000001
 20
558.59276599999998
 30
0.0
 11
-35.336739000000001
 21
570.59277299999997
 31
0.0
  0
LINE
  5
11C
  8
0
 62
     7
 10
-35.336739000000001
 20
592.09276599999998
 30
0.0
 11
-35.336739000000001
 21
604.09276599999998
 31
0.0
  0
LINE
  5
11D
  8
0
 62
     7
 10
-23.286750999999999
 20
568.44276400000001
 30
0.0
 11
-23.736747999999999
 21
568.44276400000001
 31
0.0
  0
LINE
  5
11E
  8
0
 62
     7
 10
-24.236747999999999
 20
560.74276699999984
 30
0.0
 11
-25.036750999999999
 21
560.74276699999984
 31
0.0
  0
LINE
  5
11F
  8
0
 62
     7
 10
-31.436759999999989
 20
563.34276599999987
 30
0.0
 11
-31.436759999999989
 21
563.84276599999987
 31
0.0
  0
LINE
  5
120
  8
0
 62
     7
 10
-26.236747999999992
 20
563.34276599999987
 30
0.0
 11
-26.236747999999992
 21
563.84276599999987
 31
0.0
  0
ARC
  5
121
  8
0
 62
     7
 10
-28.836753999999988
 20
563.84276599999987
 30
0.0
 40
2.6000000000000001
 50
0.000001
 51
180.00000299999991
  0
ARC
  5
122
  8
0
 62
     7
 10
-28.836753999999988
 20
563.34276599999987
 30
0.0
 40
2.6000000000000001
 50
180.00000299999991
 51
0.000001
  0
ARC
  5
123
  8
0
 62
     7
 10
-28.836753999999988
 20
563.84276599999987
 30
0.0
 40
1.8
 50
0.000001
 51
180.00000299999991
  0
ARC
  5
124
  8
0
 62
     7
 10
-28.836753999999988
 20
563.34276599999987
 30
0.0
 40
1.8
 50
180.00000299999991
 51
0.000001
  0
LINE
  5
125
  8
0
 62
     7
 10
-30.636756999999999
 20
563.34276599999987
 30
0.0
 11
-30.636756999999999
 21
563.84276599999987
 31
0.0
  0
LINE
  5
126
  8
0
 62
     7
 10
-27.036750999999999
 20
563.34276599999987
 30
0.0
 11
-27.036750999999999
 21
563.84276599999987
 31
0.0
  0
LINE
  5
127
  8
0
 62
     7
 10
-25.986747999999999
 20
565.24276699999984
 30
0.0
 11
-25.986747999999999
 21
566.04276300000004
 31
0.0
  0
LINE
  5
128
  8
0
 62
     7
 10
-25.036750999999999
 20
565.24276699999984
 30
0.0
 11
-25.986747999999999
 21
565.24276699999984
 31
0.0
  0
LINE
  5
129
  8
0
 62
     7
 10
-23.286750999999999
 20
565.24276699999984
 30
0.0
 11
-23.286750999999999
 21
566.04276300000004
 31
0.0
  0
LINE
  5
12A
  8
0
 62
     7
 10
-25.036750999999999
 20
566.04276300000004
 30
0.0
 11
-25.986747999999999
 21
566.04276300000004
 31
0.0
  0
LINE
  5
12B
  8
0
 62
     7
 10
-25.036750999999999
 20
560.74276699999984
 30
0.0
 11
-25.036750999999999
 21
565.24276699999984
 31
0.0
  0
LINE
  5
12C
  8
0
 62
     7
 10
-24.236747999999999
 20
560.74276699999984
 30
0.0
 11
-24.236747999999999
 21
565.24276699999984
 31
0.0
  0
LINE
  5
12D
  8
0
 62
     7
 10
-23.286750999999999
 20
565.24276699999984
 30
0.0
 11
-24.236747999999999
 21
565.24276699999984
 31
0.0
  0
LINE
  5
12E
  8
0
 62
     7
 10
-23.286750999999999
 20
566.04276300000004
 30
0.0
 11
-24.236747999999999
 21
566.04276300000004
 31
0.0
  0
LINE
  5
12F
  8
0
 62
     7
 10
-25.036750999999999
 20
566.04276300000004
 30
0.0
 11
-25.036750999999999
 21
567.14276900000004
 31
0.0
  0
LINE
  5
130
  8
0
 62
     7
 10
-24.236747999999999
 20
566.04276300000004
 30
0.0
 11
-24.236747999999999
 21
567.14276900000004
 31
0.0
  0
ARC
  5
131
  8
0
 62
     7
 10
-23.736747999999999
 20
567.14276900000004
 30
0.0
 40
1.3
 50
90.0
 51
180.00000299999991
  0
ARC
  5
132
  8
0
 62
     7
 10
-23.736747999999999
 20
567.14276900000004
 30
0.0
 40
0.5
 50
90.0
 51
180.00000299999991
  0
LINE
  5
133
  8
0
 62
     7
 10
-23.286750999999999
 20
567.64276900000004
 30
0.0
 11
-23.286750999999999
 21
568.44276400000001
 31
0.0
  0
LINE
  5
134
  8
0
 62
     7
 10
-23.286750999999999
 20
567.64276900000004
 30
0.0
 11
-23.736747999999999
 21
567.64276900000004
 31
0.0
  0
LINE
  5
135
  8
0
 62
     7
 10
-20.086753999999988
 20
568.44276400000001
 30
0.0
 11
-20.536750999999999
 21
568.44276400000001
 31
0.0
  0
LINE
  5
136
  8
0
 62
     7
 10
-21.036750999999999
 20
560.74276699999984
 30
0.0
 11
-21.836753999999988
 21
560.74276699999984
 31
0.0
  0
LINE
  5
137
  8
0
 62
     7
 10
-22.786750999999999
 20
565.24276699999984
 30
0.0
 11
-22.786750999999999
 21
566.04276300000004
 31
0.0
  0
LINE
  5
138
  8
0
 62
     7
 10
-21.836753999999988
 20
565.24276699999984
 30
0.0
 11
-22.786750999999999
 21
565.24276699999984
 31
0.0
  0
LINE
  5
139
  8
0
 62
     7
 10
-20.086753999999988
 20
565.24276699999984
 30
0.0
 11
-20.086753999999988
 21
566.04276300000004
 31
0.0
  0
LINE
  5
13A
  8
0
 62
     7
 10
-21.836753999999988
 20
566.04276300000004
 30
0.0
 11
-22.786750999999999
 21
566.04276300000004
 31
0.0
  0
LINE
  5
13B
  8
0
 62
     7
 10
-21.836753999999988
 20
560.74276699999984
 30
0.0
 11
-21.836753999999988
 21
565.24276699999984
 31
0.0
  0
LINE
  5
13C
  8
0
 62
     7
 10
-21.036750999999999
 20
560.74276699999984
 30
0.0
 11
-21.036750999999999
 21
565.24276699999984
 31
0.0
  0
LINE
  5
13D
  8
0
 62
     7
 10
-20.086753999999988
 20
565.24276699999984
 30
0.0
 11
-21.036750999999999
 21
565.24276699999984
 31
0.0
  0
LINE
  5
13E
  8
0
 62
     7
 10
-20.086753999999988
 20
566.04276300000004
 30
0.0
 11
-21.036750999999999
 21
566.04276300000004
 31
0.0
  0
LINE
  5
13F
  8
0
 62
     7
 10
-21.836753999999988
 20
566.04276300000004
 30
0.0
 11
-21.836753999999988
 21
567.14276900000004
 31
0.0
  0
LINE
  5
140
  8
0
 62
     7
 10
-21.036750999999999
 20
566.04276300000004
 30
0.0
 11
-21.036750999999999
 21
567.14276900000004
 31
0.0
  0
ARC
  5
141
  8
0
 62
     7
 10
-20.536750999999999
 20
567.14276900000004
 30
0.0
 40
1.3
 50
90.0
 51
180.00000299999991
  0
ARC
  5
142
  8
0
 62
     7
 10
-20.536750999999999
 20
567.14276900000004
 30
0.0
 40
0.5
 50
90.0
 51
180.00000299999991
  0
LINE
  5
143
  8
0
 62
     7
 10
-20.086753999999988
 20
567.64276900000004
 30
0.0
 11
-20.086753999999988
 21
568.44276400000001
 31
0.0
  0
LINE
  5
144
  8
0
 62
     7
 10
-20.086753999999988
 20
567.64276900000004
 30
0.0
 11
-20.536750999999999
 21
567.64276900000004
 31
0.0
  0
LINE
  5
145
  8
0
 62
     7
 10
-24.636756999999999
 20
595.24276699999984
 30
0.0
 11
-25.43676
 21
595.24276699999984
 31
0.0
  0
ARC
  5
146
  8
0
 62
     7
 10
-28.836753999999988
 20
598.34276599999998
 30
0.0
 40
2.6000000000000001
 50
0.000001
 51
180.00000299999991
  0
ARC
  5
147
  8
0
 62
     7
 10
-28.836753999999988
 20
598.34276599999998
 30
0.0
 40
1.8
 50
0.000001
 51
180.00000299999991
  0
ARC
  5
148
  8
0
 62
     7
 10
-28.836753999999988
 20
597.84276599999998
 30
0.0
 40
2.6000000000000001
 50
180.00000299999991
 51
0.000001
  0
ARC
  5
149
  8
0
 62
     7
 10
-28.836753999999988
 20
597.84276599999998
 30
0.0
 40
1.8
 50
180.00000299999991
 51
0.000001
  0
LINE
  5
14A
  8
0
 62
     7
 10
-27.036750999999999
 20
597.84276599999998
 30
0.0
 11
-27.036750999999999
 21
598.34276599999998
 31
0.0
  0
LINE
  5
14B
  8
0
 62
     7
 10
-26.236747999999992
 20
597.84276599999998
 30
0.0
 11
-26.236747999999992
 21
598.34276599999998
 31
0.0
  0
LINE
  5
14C
  8
0
 62
     7
 10
-30.636756999999999
 20
597.84276599999998
 30
0.0
 11
-30.636756999999999
 21
598.34276599999998
 31
0.0
  0
LINE
  5
14D
  8
0
 62
     7
 10
-31.436759999999989
 20
597.84276599999998
 30
0.0
 11
-31.436759999999989
 21
598.34276599999998
 31
0.0
  0
LINE
  5
14E
  8
0
 62
     7
 10
-25.43676
 20
595.24276699999984
 30
0.0
 11
-25.43676
 21
600.94276400000001
 31
0.0
  0
LINE
  5
14F
  8
0
 62
     7
 10
-24.636756999999999
 20
595.24276699999984
 30
0.0
 11
-24.636756999999999
 21
598.74276699999984
 31
0.0
  0
LINE
  5
150
  8
0
 62
     7
 10
-21.836753999999988
 20
595.24276699999984
 30
0.0
 11
-21.836753999999988
 21
598.74276699999984
 31
0.0
  0
LINE
  5
151
  8
0
 62
     7
 10
-21.036750999999999
 20
595.24276699999984
 30
0.0
 11
-21.036750999999999
 21
598.94276400000001
 31
0.0
  0
LINE
  5
152
  8
0
 62
     7
 10
-24.636756999999999
 20
600.94276400000001
 30
0.0
 11
-25.43676
 21
600.94276400000001
 31
0.0
  0
ARC
  5
153
  8
0
 62
     7
 10
-23.236747999999999
 20
598.74276699999984
 30
0.0
 40
1.399999999999999
 50
0.000001
 51
180.00000299999991
  0
LINE
  5
154
  8
0
 62
     7
 10
-24.636756999999999
 20
600.14276900000004
 30
0.0
 11
-24.636756999999999
 21
600.94276400000001
 31
0.0
  0
ARC
  5
155
  8
0
 62
     7
 10
-23.036750999999999
 20
598.94276400000001
 30
0.0
 40
2.0
 50
0.000001
 51
143.13010199999999
  0
LINE
  5
156
  8
0
 62
     7
 10
-21.036750999999999
 20
595.24276699999984
 30
0.0
 11
-21.836753999999988
 21
595.24276699999984
 31
0.0
  0
LINE
  5
157
  8
0
 62
     7
 10
-38.086746999999988
 20
575.46808599999997
 30
0.0
 11
-59.586746999999988
 21
575.46808599999997
 31
0.0
  0
LINE
  5
158
  8
0
 62
     7
 10
-38.086746999999988
 20
569.35162400000002
 30
0.0
 11
-59.586746999999988
 21
569.35162400000002
 31
0.0
  0
LINE
  5
159
  8
0
 62
     7
 10
-38.086746999999988
 20
563.40380099999993
 30
0.0
 11
-59.586746999999988
 21
563.40380099999993
 31
0.0
  0
LINE
  5
15A
  8
0
 62
     7
 10
-38.086746999999988
 20
562.60105899999985
 30
0.0
 11
-59.586746999999988
 21
562.60105899999985
 31
0.0
  0
LINE
  5
15B
  8
0
 62
     7
 10
-107.3367469999999
 20
644.09277300000008
 30
0.0
 11
-136.33678699999999
 21
644.09277300000008
 31
0.0
  0
LINE
  5
15C
  8
0
 62
     7
 10
-107.3367469999999
 20
539.09278099999995
 30
0.0
 11
-136.33678699999999
 21
539.09278099999995
 31
0.0
  0
LINE
  5
15D
  8
0
 62
     7
 10
3.66323
 20
541.08360300000004
 30
0.0
 11
3.66323
 21
643.59277300000008
 31
0.0
  0
LINE
  5
15E
  8
0
 62
     7
 10
2.4132150000000001
 20
681.34277299999997
 30
0.0
 11
-135.08676199999999
 21
681.34277299999997
 31
0.0
  0
LINE
  5
15F
  8
0
 62
     7
 10
-107.3367469999999
 20
652.34278899999993
 30
0.0
 11
-135.33676199999999
 21
652.34278899999993
 31
0.0
  0
LINE
  5
160
  8
0
 62
     7
 10
3.66323
 20
672.09277299999997
 30
0.0
 11
3.66323
 21
717.59277299999997
 31
0.0
  0
LINE
  5
161
  8
0
 62
     7
 10
-136.33676199999999
 20
653.34278899999993
 30
0.0
 11
-136.33676199999999
 21
717.59277299999997
 31
0.0
  0
LINE
  5
162
  8
0
 62
     7
 10
-107.3367469999999
 20
653.34278899999993
 30
0.0
 11
-136.08676199999999
 21
653.34278899999993
 31
0.0
  0
LINE
  5
163
  8
0
 62
     7
 10
-135.33676199999999
 20
652.34278899999993
 30
0.0
 11
-135.33676199999999
 21
653.34278899999993
 31
0.0
  0
LINE
  5
164
  8
0
 62
     7
 10
-136.08676199999999
 20
653.34278899999993
 30
0.0
 11
-136.33676199999999
 21
653.34278899999993
 31
0.0
  0
LINE
  5
165
  8
0
 62
     7
 10
-132.28676299999989
 20
506.34277299999991
 30
0.0
 11
-132.28676299999989
 21
681.34277299999997
 31
0.0
  0
LINE
  5
166
  8
0
 62
     7
 10
-125.08676199999999
 20
506.34277299999991
 30
0.0
 11
-125.08676199999999
 21
681.34277299999997
 31
0.0
  0
LINE
  5
167
  8
0
 62
     7
 10
-117.8867649999999
 20
506.34277299999991
 30
0.0
 11
-117.8867649999999
 21
681.34277299999997
 31
0.0
  0
LINE
  5
168
  8
0
 62
     7
 10
-107.08676199999999
 20
671.59275799999989
 30
0.0
 11
-107.08676199999999
 21
681.34277299999997
 31
0.0
  0
LINE
  5
169
  8
0
 62
     7
 10
-103.48677099999991
 20
506.34277299999991
 30
0.0
 11
-103.48677099999991
 21
511.092783
 31
0.0
  0
LINE
  5
16A
  8
0
 62
     7
 10
-99.886764999999997
 20
672.09277299999997
 30
0.0
 11
-99.886764999999997
 21
681.34277299999997
 31
0.0
  0
LINE
  5
16B
  8
0
 62
     7
 10
-96.286773999999994
 20
672.09277299999997
 30
0.0
 11
-96.286773999999994
 21
681.34277299999997
 31
0.0
  0
LINE
  5
16C
  8
0
 62
     7
 10
-92.686767999999987
 20
672.09277299999997
 30
0.0
 11
-92.686767999999987
 21
681.34277299999997
 31
0.0
  0
LINE
  5
16D
  8
0
 62
     7
 10
-89.086761999999993
 20
672.09277299999997
 30
0.0
 11
-89.086761999999993
 21
681.34277299999997
 31
0.0
  0
LINE
  5
16E
  8
0
 62
     7
 10
-85.48677099999999
 20
672.09277299999997
 30
0.0
 11
-85.48677099999999
 21
681.34277299999997
 31
0.0
  0
LINE
  5
16F
  8
0
 62
     7
 10
-81.886764999999997
 20
672.09277299999997
 30
0.0
 11
-81.886764999999997
 21
681.34277299999997
 31
0.0
  0
LINE
  5
170
  8
0
 62
     7
 10
-78.286773999999994
 20
672.09277299999997
 30
0.0
 11
-78.286773999999994
 21
681.34277299999997
 31
0.0
  0
LINE
  5
171
  8
0
 62
     7
 10
-74.686768000000001
 20
672.09277299999997
 30
0.0
 11
-74.686768000000001
 21
681.34277299999997
 31
0.0
  0
LINE
  5
172
  8
0
 62
     7
 10
-71.086761999999993
 20
672.09277299999997
 30
0.0
 11
-71.086761999999993
 21
681.34277299999997
 31
0.0
  0
LINE
  5
173
  8
0
 62
     7
 10
-67.48677099999999
 20
672.09277299999997
 30
0.0
 11
-67.48677099999999
 21
681.34277299999997
 31
0.0
  0
LINE
  5
174
  8
0
 62
     7
 10
-63.886764999999997
 20
672.09277299999997
 30
0.0
 11
-63.886764999999997
 21
681.34277299999997
 31
0.0
  0
LINE
  5
175
  8
0
 62
     7
 10
-60.286774000000001
 20
672.09277299999997
 30
0.0
 11
-60.286774000000001
 21
681.34277299999997
 31
0.0
  0
LINE
  5
176
  8
0
 62
     7
 10
-56.686768000000001
 20
672.09277299999997
 30
0.0
 11
-56.686768000000001
 21
681.34277299999997
 31
0.0
  0
LINE
  5
177
  8
0
 62
     7
 10
-53.086762
 20
672.09277299999997
 30
0.0
 11
-53.086762
 21
681.34277299999997
 31
0.0
  0
LINE
  5
178
  8
0
 62
     7
 10
-49.486771000000012
 20
672.09277299999997
 30
0.0
 11
-49.486771000000012
 21
681.34277299999997
 31
0.0
  0
LINE
  5
179
  8
0
 62
     7
 10
-45.886764999999997
 20
672.09277299999997
 30
0.0
 11
-45.886764999999997
 21
681.34277299999997
 31
0.0
  0
LINE
  5
17A
  8
0
 62
     7
 10
-42.286774000000001
 20
672.09277299999997
 30
0.0
 11
-42.286774000000001
 21
681.34277299999997
 31
0.0
  0
LINE
  5
17B
  8
0
 62
     7
 10
-38.686768000000001
 20
672.09277299999997
 30
0.0
 11
-38.686768000000001
 21
681.34277299999997
 31
0.0
  0
LINE
  5
17C
  8
0
 62
     7
 10
-35.086770000000001
 20
672.09277299999997
 30
0.0
 11
-35.086770000000001
 21
681.34277299999997
 31
0.0
  0
LINE
  5
17D
  8
0
 62
     7
 10
-31.486778999999999
 20
672.09277299999997
 30
0.0
 11
-31.486778999999999
 21
681.34277299999997
 31
0.0
  0
LINE
  5
17E
  8
0
 62
     7
 10
-27.886772999999991
 20
672.09277299999997
 30
0.0
 11
-27.886772999999991
 21
681.34277299999997
 31
0.0
  0
LINE
  5
17F
  8
0
 62
     7
 10
-24.286781999999999
 20
672.09277299999997
 30
0.0
 11
-24.286781999999999
 21
681.34277299999997
 31
0.0
  0
LINE
  5
180
  8
0
 62
     7
 10
-20.686775999999998
 20
672.09277299999997
 30
0.0
 11
-20.686775999999998
 21
681.34277299999997
 31
0.0
  0
LINE
  5
181
  8
0
 62
     7
 10
-17.086770000000001
 20
672.09277299999997
 30
0.0
 11
-17.086770000000001
 21
681.34277299999997
 31
0.0
  0
LINE
  5
182
  8
0
 62
     7
 10
-13.486779
 20
672.09277299999997
 30
0.0
 11
-13.486779
 21
681.34277299999997
 31
0.0
  0
LINE
  5
183
  8
0
 62
     7
 10
-9.8867729999999998
 20
672.09277299999997
 30
0.0
 11
-9.8867729999999998
 21
681.34277299999997
 31
0.0
  0
LINE
  5
184
  8
0
 62
     7
 10
-6.2867819999999988
 20
672.09277299999997
 30
0.0
 11
-6.2867819999999988
 21
681.34277299999997
 31
0.0
  0
LINE
  5
185
  8
0
 62
     7
 10
-2.6867760000000001
 20
672.09277299999997
 30
0.0
 11
-2.6867760000000001
 21
681.34277299999997
 31
0.0
  0
LINE
  5
186
  8
0
 62
     7
 10
0.9132299999999998
 20
672.09277299999997
 30
0.0
 11
0.9132299999999998
 21
681.34277299999997
 31
0.0
  0
ARC
  5
187
  8
0
 62
     7
 10
-135.08676199999999
 20
680.09277299999997
 30
0.0
 40
1.25
 50
90.0
 51
180.00000299999991
  0
ARC
  5
188
  8
0
 62
     7
 10
2.4132150000000001
 20
680.09277299999997
 30
0.0
 40
1.25
 50
0.000028
 51
90.0
  0
LINE
  5
189
  8
0
 62
     7
 10
2.4132150000000001
 20
506.34277299999991
 30
0.0
 11
-135.08676199999999
 21
506.34277299999991
 31
0.0
  0
LINE
  5
18A
  8
0
 62
     7
 10
3.66323
 20
470.09277300000002
 30
0.0
 11
3.66323
 21
511.092783
 31
0.0
  0
LINE
  5
18B
  8
0
 62
     7
 10
-136.33676199999999
 20
470.09277300000002
 30
0.0
 11
-136.33676199999999
 21
534.342758
 31
0.0
  0
LINE
  5
18C
  8
0
 62
     7
 10
-128.68675999999999
 20
506.34277299999991
 30
0.0
 11
-128.68675999999999
 21
681.34277299999997
 31
0.0
  0
LINE
  5
18D
  8
0
 62
     7
 10
-121.4867629999999
 20
506.34277299999991
 30
0.0
 11
-121.4867629999999
 21
681.34277299999997
 31
0.0
  0
LINE
  5
18E
  8
0
 62
     7
 10
-114.28677399999999
 20
506.34277299999991
 30
0.0
 11
-114.28677399999999
 21
681.34277299999997
 31
0.0
  0
LINE
  5
18F
  8
0
 62
     7
 10
-110.6867679999999
 20
506.34277299999991
 30
0.0
 11
-110.6867679999999
 21
681.34277299999997
 31
0.0
  0
LINE
  5
190
  8
0
 62
     7
 10
-99.886764999999997
 20
506.34277299999991
 30
0.0
 11
-99.886764999999997
 21
511.092783
 31
0.0
  0
LINE
  5
191
  8
0
 62
     7
 10
-96.286773999999994
 20
506.34277299999991
 30
0.0
 11
-96.286773999999994
 21
511.092783
 31
0.0
  0
LINE
  5
192
  8
0
 62
     7
 10
-92.686767999999987
 20
506.34277299999991
 30
0.0
 11
-92.686767999999987
 21
511.092783
 31
0.0
  0
LINE
  5
193
  8
0
 62
     7
 10
-89.086761999999993
 20
506.34277299999991
 30
0.0
 11
-89.086761999999993
 21
511.092783
 31
0.0
  0
LINE
  5
194
  8
0
 62
     7
 10
-85.48677099999999
 20
506.34277299999991
 30
0.0
 11
-85.48677099999999
 21
511.092783
 31
0.0
  0
LINE
  5
195
  8
0
 62
     7
 10
-81.886764999999997
 20
506.34277299999991
 30
0.0
 11
-81.886764999999997
 21
511.092783
 31
0.0
  0
LINE
  5
196
  8
0
 62
     7
 10
-78.286773999999994
 20
506.34277299999991
 30
0.0
 11
-78.286773999999994
 21
511.092783
 31
0.0
  0
LINE
  5
197
  8
0
 62
     7
 10
-74.686768000000001
 20
506.34277299999991
 30
0.0
 11
-74.686768000000001
 21
511.092783
 31
0.0
  0
LINE
  5
198
  8
0
 62
     7
 10
-71.086761999999993
 20
506.34277299999991
 30
0.0
 11
-71.086761999999993
 21
511.092783
 31
0.0
  0
LINE
  5
199
  8
0
 62
     7
 10
-67.48677099999999
 20
506.34277299999991
 30
0.0
 11
-67.48677099999999
 21
511.092783
 31
0.0
  0
LINE
  5
19A
  8
0
 62
     7
 10
-63.886764999999997
 20
506.34277299999991
 30
0.0
 11
-63.886764999999997
 21
511.092783
 31
0.0
  0
LINE
  5
19B
  8
0
 62
     7
 10
-60.286774000000001
 20
506.34277299999991
 30
0.0
 11
-60.286774000000001
 21
511.092783
 31
0.0
  0
LINE
  5
19C
  8
0
 62
     7
 10
-56.686768000000001
 20
506.34277299999991
 30
0.0
 11
-56.686768000000001
 21
511.092783
 31
0.0
  0
LINE
  5
19D
  8
0
 62
     7
 10
-53.086762
 20
506.34277299999991
 30
0.0
 11
-53.086762
 21
511.092783
 31
0.0
  0
LINE
  5
19E
  8
0
 62
     7
 10
-49.486771000000012
 20
506.34277299999991
 30
0.0
 11
-49.486771000000012
 21
511.092783
 31
0.0
  0
LINE
  5
19F
  8
0
 62
     7
 10
-45.886764999999997
 20
506.34277299999991
 30
0.0
 11
-45.886764999999997
 21
511.092783
 31
0.0
  0
LINE
  5
1A0
  8
0
 62
     7
 10
-42.286774000000001
 20
506.34277299999991
 30
0.0
 11
-42.286774000000001
 21
511.092783
 31
0.0
  0
LINE
  5
1A1
  8
0
 62
     7
 10
-38.686768000000001
 20
506.34277299999991
 30
0.0
 11
-38.686768000000001
 21
511.092783
 31
0.0
  0
LINE
  5
1A2
  8
0
 62
     7
 10
-35.086770000000001
 20
506.34277299999991
 30
0.0
 11
-35.086770000000001
 21
511.092783
 31
0.0
  0
LINE
  5
1A3
  8
0
 62
     7
 10
-31.486778999999999
 20
506.34277299999991
 30
0.0
 11
-31.486778999999999
 21
511.092783
 31
0.0
  0
LINE
  5
1A4
  8
0
 62
     7
 10
-27.886772999999991
 20
506.34277299999991
 30
0.0
 11
-27.886772999999991
 21
511.092783
 31
0.0
  0
LINE
  5
1A5
  8
0
 62
     7
 10
-24.286781999999999
 20
506.34277299999991
 30
0.0
 11
-24.286781999999999
 21
511.092783
 31
0.0
  0
LINE
  5
1A6
  8
0
 62
     7
 10
-20.686775999999998
 20
506.34277299999991
 30
0.0
 11
-20.686775999999998
 21
511.092783
 31
0.0
  0
LINE
  5
1A7
  8
0
 62
     7
 10
-17.086770000000001
 20
506.34277299999991
 30
0.0
 11
-17.086770000000001
 21
511.092783
 31
0.0
  0
LINE
  5
1A8
  8
0
 62
     7
 10
-13.486779
 20
506.34277299999991
 30
0.0
 11
-13.486779
 21
511.092783
 31
0.0
  0
LINE
  5
1A9
  8
0
 62
     7
 10
-9.8867729999999998
 20
506.34277299999991
 30
0.0
 11
-9.8867729999999998
 21
511.092783
 31
0.0
  0
LINE
  5
1AA
  8
0
 62
     7
 10
-6.2867819999999988
 20
506.34277299999991
 30
0.0
 11
-6.2867819999999988
 21
511.092783
 31
0.0
  0
LINE
  5
1AB
  8
0
 62
     7
 10
-2.6867760000000001
 20
506.34277299999991
 30
0.0
 11
-2.6867760000000001
 21
511.092783
 31
0.0
  0
LINE
  5
1AC
  8
0
 62
     7
 10
0.9132299999999998
 20
506.34277299999991
 30
0.0
 11
0.9132299999999998
 21
511.092783
 31
0.0
  0
ARC
  5
1AD
  8
0
 62
     7
 10
-135.08676199999999
 20
507.59277300000002
 30
0.0
 40
1.25
 50
180.00000299999991
 51
270.00000499999987
  0
ARC
  5
1AE
  8
0
 62
     7
 10
2.4132150000000001
 20
507.59277300000002
 30
0.0
 40
1.25
 50
270.00000499999987
 51
359.99997300000001
  0
LINE
  5
1AF
  8
0
  6
DASHDOT
 62
     7
 10
-118.836697
 20
482.74278900000002
 30
0.0
 11
-118.836697
 21
494.94278200000002
 31
0.0
  0
LINE
  5
1B0
  8
0
  6
DASHDOT
 62
     7
 10
-83.836701000000005
 20
482.74278900000002
 30
0.0
 11
-83.836701000000005
 21
494.94278200000002
 31
0.0
  0
LINE
  5
1B1
  8
0
  6
DASHDOT
 62
     7
 10
-48.836700999999991
 20
482.74278900000002
 30
0.0
 11
-48.836700999999991
 21
494.94278200000002
 31
0.0
  0
LINE
  5
1B2
  8
0
  6
DASHDOT
 62
     7
 10
-13.83669299999999
 20
482.74278900000002
 30
0.0
 11
-13.83669299999999
 21
494.94278200000002
 31
0.0
  0
LINE
  5
1B3
  8
0
  6
DASHDOT
 62
     7
 10
-48.836700999999991
 20
692.74276699999996
 30
0.0
 11
-48.836700999999991
 21
704.94276400000001
 31
0.0
  0
LINE
  5
1B4
  8
0
  6
DASHDOT
 62
     7
 10
20.848410999999992
 20
591.59278099999995
 30
0.0
 11
-153.89093500000001
 21
591.59278099999995
 31
0.0
  0
LINE
  5
1B5
  8
0
 62
     7
 10
2.4132299999999991
 20
718.84277299999997
 30
0.0
 11
-135.08676199999999
 21
718.84277299999997
 31
0.0
  0
LINE
  5
1B6
  8
0
 62
     7
 10
2.4132299999999991
 20
468.84277299999991
 30
0.0
 11
-135.08676199999999
 21
468.84277299999991
 31
0.0
  0
ARC
  5
1B7
  8
0
 62
     7
 10
-135.08676199999999
 20
470.09277300000002
 30
0.0
 40
1.25
 50
180.00000299999991
 51
270.00000499999987
  0
ARC
  5
1B8
  8
0
 62
     7
 10
2.4132299999999991
 20
470.09277300000002
 30
0.0
 40
1.25
 50
270.00000499999987
 51
0.000001
  0
ARC
  5
1B9
  8
0
 62
     7
 10
-135.08676199999999
 20
717.59277299999997
 30
0.0
 40
1.25
 50
90.0
 51
180.00000299999991
  0
ARC
  5
1BA
  8
0
 62
     7
 10
2.4132299999999991
 20
717.59277299999997
 30
0.0
 40
1.25
 50
0.000001
 51
90.0
  0
LINE
  5
1BB
  8
0
 62
     7
 10
3.66323
 20
681.84277299999997
 30
0.0
 11
-136.33676199999999
 21
681.84277299999997
 31
0.0
  0
LINE
  5
1BC
  8
0
 62
     7
 10
3.66323
 20
505.84277300000002
 30
0.0
 11
-136.33676199999999
 21
505.84277300000002
 31
0.0
  0
LINE
  5
1BD
  8
0
 62
     7
 10
-45.886764999999997
 20
468.84277299999991
 30
0.0
 11
-45.886764999999997
 21
505.84277300000002
 31
0.0
  0
LINE
  5
1BE
  8
0
 62
     7
 10
-42.286774000000001
 20
468.84277299999991
 30
0.0
 11
-42.286774000000001
 21
505.84277300000002
 31
0.0
  0
LINE
  5
1BF
  8
0
 62
     7
 10
-38.686768000000001
 20
468.84277299999991
 30
0.0
 11
-38.686768000000001
 21
505.84277300000002
 31
0.0
  0
LINE
  5
1C0
  8
0
 62
     7
 10
-35.086770000000001
 20
468.84277299999991
 30
0.0
 11
-35.086770000000001
 21
505.84277300000002
 31
0.0
  0
LINE
  5
1C1
  8
0
 62
     7
 10
-31.486778999999999
 20
468.84277299999991
 30
0.0
 11
-31.486778999999999
 21
505.84277300000002
 31
0.0
  0
LINE
  5
1C2
  8
0
 62
     7
 10
-27.886772999999991
 20
468.84277299999991
 30
0.0
 11
-27.886772999999991
 21
505.84277300000002
 31
0.0
  0
LINE
  5
1C3
  8
0
 62
     7
 10
-24.286781999999999
 20
468.84277299999991
 30
0.0
 11
-24.286781999999999
 21
505.84277300000002
 31
0.0
  0
LINE
  5
1C4
  8
0
 62
     7
 10
-20.686775999999998
 20
468.84277299999991
 30
0.0
 11
-20.686775999999998
 21
505.84277300000002
 31
0.0
  0
LINE
  5
1C5
  8
0
 62
     7
 10
-17.086770000000001
 20
468.84277299999991
 30
0.0
 11
-17.086770000000001
 21
505.84277300000002
 31
0.0
  0
LINE
  5
1C6
  8
0
 62
     7
 10
-13.486779
 20
468.84277299999991
 30
0.0
 11
-13.486779
 21
505.84277300000002
 31
0.0
  0
LINE
  5
1C7
  8
0
 62
     7
 10
-9.8867729999999998
 20
468.84277299999991
 30
0.0
 11
-9.8867729999999998
 21
505.84277300000002
 31
0.0
  0
LINE
  5
1C8
  8
0
 62
     7
 10
-6.2867819999999988
 20
468.84277299999991
 30
0.0
 11
-6.2867819999999988
 21
505.84277300000002
 31
0.0
  0
LINE
  5
1C9
  8
0
 62
     7
 10
-2.6867760000000001
 20
468.84277299999991
 30
0.0
 11
-2.6867760000000001
 21
505.84277300000002
 31
0.0
  0
LINE
  5
1CA
  8
0
 62
     7
 10
0.9132299999999998
 20
468.84277299999991
 30
0.0
 11
0.9132299999999998
 21
505.84277300000002
 31
0.0
  0
LINE
  5
1CB
  8
0
 62
     7
 10
-132.28676299999989
 20
468.84277299999991
 30
0.0
 11
-132.28676299999989
 21
505.84277300000002
 31
0.0
  0
LINE
  5
1CC
  8
0
 62
     7
 10
-125.08676199999999
 20
468.84277299999991
 30
0.0
 11
-125.08676199999999
 21
505.84277300000002
 31
0.0
  0
LINE
  5
1CD
  8
0
 62
     7
 10
-117.8867649999999
 20
468.84277299999991
 30
0.0
 11
-117.8867649999999
 21
505.84277300000002
 31
0.0
  0
LINE
  5
1CE
  8
0
 62
     7
 10
-107.08676199999999
 20
468.84277299999991
 30
0.0
 11
-107.08676199999999
 21
511.59280599999988
 31
0.0
  0
LINE
  5
1CF
  8
0
 62
     7
 10
-103.48677099999991
 20
468.84277299999991
 30
0.0
 11
-103.48677099999991
 21
505.84277300000002
 31
0.0
  0
LINE
  5
1D0
  8
0
 62
     7
 10
-128.68675999999999
 20
468.84277299999991
 30
0.0
 11
-128.68675999999999
 21
505.84277300000002
 31
0.0
  0
LINE
  5
1D1
  8
0
 62
     7
 10
-121.4867629999999
 20
468.84277299999991
 30
0.0
 11
-121.4867629999999
 21
505.84277300000002
 31
0.0
  0
LINE
  5
1D2
  8
0
 62
     7
 10
-114.28677399999999
 20
468.84277299999991
 30
0.0
 11
-114.28677399999999
 21
505.84277300000002
 31
0.0
  0
LINE
  5
1D3
  8
0
 62
     7
 10
-110.6867679999999
 20
468.84277299999991
 30
0.0
 11
-110.6867679999999
 21
505.84277300000002
 31
0.0
  0
LINE
  5
1D4
  8
0
 62
     7
 10
-99.886764999999997
 20
468.84277299999991
 30
0.0
 11
-99.886764999999997
 21
505.84277300000002
 31
0.0
  0
LINE
  5
1D5
  8
0
 62
     7
 10
-96.286773999999994
 20
468.84277299999991
 30
0.0
 11
-96.286773999999994
 21
505.84277300000002
 31
0.0
  0
LINE
  5
1D6
  8
0
 62
     7
 10
-92.686767999999987
 20
468.84277299999991
 30
0.0
 11
-92.686767999999987
 21
505.84277300000002
 31
0.0
  0
LINE
  5
1D7
  8
0
 62
     7
 10
-89.086761999999993
 20
468.84277299999991
 30
0.0
 11
-89.086761999999993
 21
505.84277300000002
 31
0.0
  0
LINE
  5
1D8
  8
0
 62
     7
 10
-85.48677099999999
 20
468.84277299999991
 30
0.0
 11
-85.48677099999999
 21
505.84277300000002
 31
0.0
  0
LINE
  5
1D9
  8
0
 62
     7
 10
-81.886764999999997
 20
468.84277299999991
 30
0.0
 11
-81.886764999999997
 21
505.84277300000002
 31
0.0
  0
LINE
  5
1DA
  8
0
 62
     7
 10
-78.286773999999994
 20
468.84277299999991
 30
0.0
 11
-78.286773999999994
 21
505.84277300000002
 31
0.0
  0
LINE
  5
1DB
  8
0
 62
     7
 10
-74.686768000000001
 20
468.84277299999991
 30
0.0
 11
-74.686768000000001
 21
505.84277300000002
 31
0.0
  0
LINE
  5
1DC
  8
0
 62
     7
 10
-71.086761999999993
 20
468.84277299999991
 30
0.0
 11
-71.086761999999993
 21
505.84277300000002
 31
0.0
  0
LINE
  5
1DD
  8
0
 62
     7
 10
-67.48677099999999
 20
468.84277299999991
 30
0.0
 11
-67.48677099999999
 21
505.84277300000002
 31
0.0
  0
LINE
  5
1DE
  8
0
 62
     7
 10
-63.886764999999997
 20
468.84277299999991
 30
0.0
 11
-63.886764999999997
 21
505.84277300000002
 31
0.0
  0
LINE
  5
1DF
  8
0
 62
     7
 10
-60.286774000000001
 20
468.84277299999991
 30
0.0
 11
-60.286774000000001
 21
505.84277300000002
 31
0.0
  0
LINE
  5
1E0
  8
0
 62
     7
 10
-56.686768000000001
 20
468.84277299999991
 30
0.0
 11
-56.686768000000001
 21
505.84277300000002
 31
0.0
  0
LINE
  5
1E1
  8
0
 62
     7
 10
-53.086762
 20
468.84277299999991
 30
0.0
 11
-53.086762
 21
505.84277300000002
 31
0.0
  0
LINE
  5
1E2
  8
0
 62
     7
 10
-49.486771000000012
 20
468.84277299999991
 30
0.0
 11
-49.486771000000012
 21
505.84277300000002
 31
0.0
  0
LINE
  5
1E3
  8
0
  6
DASHDOT
 62
     7
 10
-118.836697
 20
692.74276699999996
 30
0.0
 11
-118.836697
 21
704.94276400000001
 31
0.0
  0
LINE
  5
1E4
  8
0
  6
DASHDOT
 62
     7
 10
-83.836701000000005
 20
692.74276699999996
 30
0.0
 11
-83.836701000000005
 21
704.94276400000001
 31
0.0
  0
LINE
  5
1E5
  8
0
 62
     7
 10
-132.28676299999989
 20
681.84277299999997
 30
0.0
 11
-132.28676299999989
 21
718.84277299999997
 31
0.0
  0
LINE
  5
1E6
  8
0
 62
     7
 10
-125.08676199999999
 20
681.84277299999997
 30
0.0
 11
-125.08676199999999
 21
718.84277299999997
 31
0.0
  0
LINE
  5
1E7
  8
0
 62
     7
 10
-117.8867649999999
 20
681.84277299999997
 30
0.0
 11
-117.8867649999999
 21
718.84277299999997
 31
0.0
  0
LINE
  5
1E8
  8
0
 62
     7
 10
-107.08676199999999
 20
681.84277299999997
 30
0.0
 11
-107.08676199999999
 21
718.84277299999997
 31
0.0
  0
LINE
  5
1E9
  8
0
 62
     7
 10
-103.48677099999991
 20
681.84277299999997
 30
0.0
 11
-103.48677099999991
 21
718.84277299999997
 31
0.0
  0
LINE
  5
1EA
  8
0
 62
     7
 10
-128.68675999999999
 20
681.84277299999997
 30
0.0
 11
-128.68675999999999
 21
718.84277299999997
 31
0.0
  0
LINE
  5
1EB
  8
0
 62
     7
 10
-121.4867629999999
 20
681.84277299999997
 30
0.0
 11
-121.4867629999999
 21
718.84277299999997
 31
0.0
  0
LINE
  5
1EC
  8
0
 62
     7
 10
-114.28677399999999
 20
681.84277299999997
 30
0.0
 11
-114.28677399999999
 21
718.84277299999997
 31
0.0
  0
LINE
  5
1ED
  8
0
 62
     7
 10
-110.6867679999999
 20
681.84277299999997
 30
0.0
 11
-110.6867679999999
 21
718.84277299999997
 31
0.0
  0
LINE
  5
1EE
  8
0
 62
     7
 10
-99.886764999999997
 20
681.84277299999997
 30
0.0
 11
-99.886764999999997
 21
718.84277299999997
 31
0.0
  0
LINE
  5
1EF
  8
0
 62
     7
 10
-96.286773999999994
 20
681.84277299999997
 30
0.0
 11
-96.286773999999994
 21
718.84277299999997
 31
0.0
  0
LINE
  5
1F0
  8
0
 62
     7
 10
-92.686767999999987
 20
681.84277299999997
 30
0.0
 11
-92.686767999999987
 21
718.84277299999997
 31
0.0
  0
LINE
  5
1F1
  8
0
 62
     7
 10
-89.086761999999993
 20
681.84277299999997
 30
0.0
 11
-89.086761999999993
 21
718.84277299999997
 31
0.0
  0
LINE
  5
1F2
  8
0
 62
     7
 10
-85.48677099999999
 20
681.84277299999997
 30
0.0
 11
-85.48677099999999
 21
718.84277299999997
 31
0.0
  0
LINE
  5
1F3
  8
0
 62
     7
 10
-81.886764999999997
 20
681.84277299999997
 30
0.0
 11
-81.886764999999997
 21
718.84277299999997
 31
0.0
  0
LINE
  5
1F4
  8
0
 62
     7
 10
-78.286773999999994
 20
681.84277299999997
 30
0.0
 11
-78.286773999999994
 21
718.84277299999997
 31
0.0
  0
LINE
  5
1F5
  8
0
 62
     7
 10
-74.686768000000001
 20
681.84277299999997
 30
0.0
 11
-74.686768000000001
 21
718.84277299999997
 31
0.0
  0
LINE
  5
1F6
  8
0
 62
     7
 10
-71.086761999999993
 20
681.84277299999997
 30
0.0
 11
-71.086761999999993
 21
718.84277299999997
 31
0.0
  0
LINE
  5
1F7
  8
0
 62
     7
 10
-67.48677099999999
 20
681.84277299999997
 30
0.0
 11
-67.48677099999999
 21
718.84277299999997
 31
0.0
  0
LINE
  5
1F8
  8
0
 62
     7
 10
-63.886764999999997
 20
681.84277299999997
 30
0.0
 11
-63.886764999999997
 21
718.84277299999997
 31
0.0
  0
LINE
  5
1F9
  8
0
 62
     7
 10
-60.286774000000001
 20
681.84277299999997
 30
0.0
 11
-60.286774000000001
 21
718.84277299999997
 31
0.0
  0
LINE
  5
1FA
  8
0
 62
     7
 10
-56.686768000000001
 20
681.84277299999997
 30
0.0
 11
-56.686768000000001
 21
718.84277299999997
 31
0.0
  0
LINE
  5
1FB
  8
0
 62
     7
 10
-53.086762
 20
681.84277299999997
 30
0.0
 11
-53.086762
 21
718.84277299999997
 31
0.0
  0
LINE
  5
1FC
  8
0
  6
DASHDOT
 62
     7
 10
-13.83669299999999
 20
692.74276699999996
 30
0.0
 11
-13.83669299999999
 21
704.94276400000001
 31
0.0
  0
LINE
  5
1FD
  8
0
 62
     7
 10
-45.886764999999997
 20
681.84277299999997
 30
0.0
 11
-45.886764999999997
 21
718.84277299999997
 31
0.0
  0
LINE
  5
1FE
  8
0
 62
     7
 10
-42.286774000000001
 20
681.84277299999997
 30
0.0
 11
-42.286774000000001
 21
718.84277299999997
 31
0.0
  0
LINE
  5
1FF
  8
0
 62
     7
 10
-38.686768000000001
 20
681.84277299999997
 30
0.0
 11
-38.686768000000001
 21
718.84277299999997
 31
0.0
  0
LINE
  5
200
  8
0
 62
     7
 10
-35.086770000000001
 20
681.84277299999997
 30
0.0
 11
-35.086770000000001
 21
718.84277299999997
 31
0.0
  0
LINE
  5
201
  8
0
 62
     7
 10
-31.486778999999999
 20
681.84277299999997
 30
0.0
 11
-31.486778999999999
 21
718.84277299999997
 31
0.0
  0
LINE
  5
202
  8
0
 62
     7
 10
-27.886772999999991
 20
681.84277299999997
 30
0.0
 11
-27.886772999999991
 21
718.84277299999997
 31
0.0
  0
LINE
  5
203
  8
0
 62
     7
 10
-24.286781999999999
 20
681.84277299999997
 30
0.0
 11
-24.286781999999999
 21
718.84277299999997
 31
0.0
  0
LINE
  5
204
  8
0
 62
     7
 10
-20.686775999999998
 20
681.84277299999997
 30
0.0
 11
-20.686775999999998
 21
718.84277299999997
 31
0.0
  0
LINE
  5
205
  8
0
 62
     7
 10
-17.086770000000001
 20
681.84277299999997
 30
0.0
 11
-17.086770000000001
 21
718.84277299999997
 31
0.0
  0
LINE
  5
206
  8
0
 62
     7
 10
-13.486779
 20
681.84277299999997
 30
0.0
 11
-13.486779
 21
718.84277299999997
 31
0.0
  0
LINE
  5
207
  8
0
 62
     7
 10
-9.8867729999999998
 20
681.84277299999997
 30
0.0
 11
-9.8867729999999998
 21
718.84277299999997
 31
0.0
  0
LINE
  5
208
  8
0
 62
     7
 10
-6.2867819999999988
 20
681.84277299999997
 30
0.0
 11
-6.2867819999999988
 21
718.84277299999997
 31
0.0
  0
LINE
  5
209
  8
0
 62
     7
 10
-2.6867760000000001
 20
681.84277299999997
 30
0.0
 11
-2.6867760000000001
 21
718.84277299999997
 31
0.0
  0
LINE
  5
20A
  8
0
 62
     7
 10
0.9132299999999998
 20
681.84277299999997
 30
0.0
 11
0.9132299999999998
 21
718.84277299999997
 31
0.0
  0
LINE
  5
20B
  8
0
 62
     7
 10
-49.486771000000012
 20
681.84277299999997
 30
0.0
 11
-49.486771000000012
 21
718.84277299999997
 31
0.0
  0
LINE
  5
20C
  8
0
 62
     7
 10
-103.48677099999991
 20
672.09277299999997
 30
0.0
 11
-103.48677099999991
 21
681.34277299999997
 31
0.0
  0
LINE
  5
20D
  8
0
 62
     7
 10
3.663246
 20
539.59278099999995
 30
0.0
 11
3.663246
 21
557.59276599999987
 31
0.0
  0
LINE
  5
20E
  8
0
 62
     7
 10
-176.05475699999991
 20
506.34277299999991
 30
0.0
 11
-175.01288700000001
 21
512.25161899999989
 31
0.0
  0
LINE
  5
20F
  8
0
 62
     7
 10
-176.05475699999991
 20
506.34277299999991
 30
0.0
 11
-177.0967489999999
 21
512.25161899999989
 31
0.0
  0
LINE
  5
210
  8
0
 62
     7
 10
-176.05475699999991
 20
681.34277299999997
 30
0.0
 11
-177.0967489999999
 21
675.43392900000003
 31
0.0
  0
LINE
  5
211
  8
0
 62
     7
 10
-176.05475699999991
 20
681.34277299999997
 30
0.0
 11
-175.01288700000001
 21
675.43392900000003
 31
0.0
  0
LINE
  5
212
  8
0
 62
     7
 10
-176.05475699999991
 20
506.34277299999991
 30
0.0
 11
-176.05475699999991
 21
681.34277299999997
 31
0.0
  0
LINE
  5
213
  8
0
 62
     7
 10
-180.05475699999991
 20
506.34277299999991
 30
0.0
 11
-135.08673899999991
 21
506.34277500000002
 31
0.0
  0
LINE
  5
214
  8
0
 62
     7
 10
-180.05475699999991
 20
681.34277299999997
 30
0.0
 11
-135.08673899999991
 21
681.34277299999997
 31
0.0
  0
LINE
  5
215
  8
0
 62
     7
 10
-13.836739
 20
444.71190599999989
 30
0.0
 11
-19.745553000000001
 21
445.75379199999998
 31
0.0
  0
LINE
  5
216
  8
0
 62
     7
 10
-13.836739
 20
444.71190599999989
 30
0.0
 11
-19.745553000000001
 21
443.67001299999998
 31
0.0
  0
LINE
  5
217
  8
0
 62
     7
 10
-48.836739000000001
 20
444.71191399999992
 30
0.0
 11
-42.927803999999988
 21
443.670029
 31
0.0
  0
LINE
  5
218
  8
0
 62
     7
 10
-48.836739000000001
 20
444.71191399999992
 30
0.0
 11
-42.927803999999988
 21
445.75380699999999
 31
0.0
  0
LINE
  5
219
  8
0
 62
     7
 10
-48.836739000000001
 20
444.71191399999992
 30
0.0
 11
-54.745553000000001
 21
445.75380699999999
 31
0.0
  0
LINE
  5
21A
  8
0
 62
     7
 10
-48.836739000000001
 20
444.71191399999992
 30
0.0
 11
-54.745553000000001
 21
443.670029
 31
0.0
  0
LINE
  5
21B
  8
0
 62
     7
 10
-83.836738999999994
 20
444.71192899999988
 30
0.0
 11
-77.927804000000009
 21
443.67003599999998
 31
0.0
  0
LINE
  5
21C
  8
0
 62
     7
 10
-83.836738999999994
 20
444.71192899999988
 30
0.0
 11
-77.927804000000009
 21
445.75381499999997
 31
0.0
  0
LINE
  5
21D
  8
0
 62
     7
 10
-83.836738999999994
 20
444.71192899999988
 30
0.0
 11
-89.745553000000001
 21
445.75381499999997
 31
0.0
  0
LINE
  5
21E
  8
0
 62
     7
 10
-83.836738999999994
 20
444.71192899999988
 30
0.0
 11
-89.745553000000001
 21
443.67003599999998
 31
0.0
  0
LINE
  5
21F
  8
0
 62
     7
 10
-118.8366169999999
 20
444.71194500000001
 30
0.0
 11
-112.92780399999999
 21
443.67005199999988
 31
0.0
  0
LINE
  5
220
  8
0
 62
     7
 10
-118.8366169999999
 20
444.71194500000001
 30
0.0
 11
-112.92780399999999
 21
445.75382999999999
 31
0.0
  0
LINE
  5
221
  8
0
 62
     7
 10
-13.836739
 20
444.71190599999989
 30
0.0
 11
-118.8366169999999
 21
444.71193699999998
 31
0.0
  0
LINE
  5
222
  8
0
 62
     7
 10
-13.836739
 20
440.71190599999989
 30
0.0
 11
-13.836739
 21
482.74279799999999
 31
0.0
  0
LINE
  5
223
  8
0
 62
     7
 10
-48.836739000000001
 20
440.71191399999992
 30
0.0
 11
-48.836739000000001
 21
482.74280899999991
 31
0.0
  0
LINE
  5
224
  8
0
 62
     7
 10
-83.836738999999994
 20
440.71192899999988
 30
0.0
 11
-83.836738999999994
 21
482.74282099999988
 31
0.0
  0
LINE
  5
225
  8
0
 62
     7
 10
-118.83673899999999
 20
440.71194500000001
 30
0.0
 11
-118.8366169999999
 21
482.74283200000002
 31
0.0
  0
LINE
  5
226
  8
0
 62
     7
 10
3.663260999999999
 20
765.69514500000002
 30
0.0
 11
-2.245674999999999
 21
766.73704499999985
 31
0.0
  0
LINE
  5
227
  8
0
 62
     7
 10
3.663260999999999
 20
765.69514500000002
 30
0.0
 11
-2.245674999999999
 21
764.65327500000001
 31
0.0
  0
LINE
  5
228
  8
0
 62
     7
 10
-136.33673899999999
 20
765.69517499999995
 30
0.0
 11
-130.42792600000001
 21
764.65327500000001
 31
0.0
  0
LINE
  5
229
  8
0
 62
     7
 10
-136.33673899999999
 20
765.69517499999995
 30
0.0
 11
-130.42792600000001
 21
766.73707599999989
 31
0.0
  0
LINE
  5
22A
  8
0
 62
     7
 10
3.663260999999999
 20
765.69514500000002
 30
0.0
 11
-136.33673899999999
 21
765.69520599999998
 31
0.0
  0
LINE
  5
22B
  8
0
 62
     7
 10
3.663260999999999
 20
769.69514500000002
 30
0.0
 11
3.663260999999999
 21
717.59278899999993
 31
0.0
  0
LINE
  5
22C
  8
0
 62
     7
 10
-136.33673899999999
 20
769.69517499999995
 30
0.0
 11
-136.33673899999999
 21
717.59281899999996
 31
0.0
  0
LINE
  5
22D
  8
0
 62
     7
 10
3.663260999999999
 20
429.5456309999999
 30
0.0
 11
-2.245674999999999
 21
430.58751699999999
 31
0.0
  0
LINE
  5
22E
  8
0
 62
     7
 10
3.663260999999999
 20
429.5456309999999
 30
0.0
 11
-2.245674999999999
 21
428.503738
 31
0.0
  0
LINE
  5
22F
  8
0
 62
     7
 10
-48.836739000000001
 20
429.54564699999992
 30
0.0
 11
-42.927925999999999
 21
428.50375400000001
 31
0.0
  0
LINE
  5
230
  8
0
 62
     7
 10
-48.836739000000001
 20
429.54564699999992
 30
0.0
 11
-42.927925999999999
 21
430.58753200000001
 31
0.0
  0
LINE
  5
231
  8
0
 62
     7
 10
3.663260999999999
 20
429.5456309999999
 30
0.0
 11
-48.836739000000001
 21
429.54564699999992
 31
0.0
  0
LINE
  5
232
  8
0
 62
     7
 10
3.663260999999999
 20
425.5456309999999
 30
0.0
 11
3.663260999999999
 21
541.08360300000004
 31
0.0
  0
LINE
  5
233
  8
0
 62
     7
 10
-48.836739000000001
 20
425.54564699999992
 30
0.0
 11
-48.836739000000001
 21
432.30370299999998
 31
0.0
  0
LINE
  5
234
  8
0
 62
     7
 10
3.663260999999999
 20
730.11347999999987
 30
0.0
 11
-2.245674999999999
 21
731.15536499999996
 31
0.0
  0
LINE
  5
235
  8
0
 62
     7
 10
3.663260999999999
 20
730.11347999999987
 30
0.0
 11
-2.245674999999999
 21
729.071594
 31
0.0
  0
LINE
  5
236
  8
0
 62
     7
 10
-101.33673899999989
 20
730.11347999999987
 30
0.0
 11
-95.427925999999999
 21
729.071594
 31
0.0
  0
LINE
  5
237
  8
0
 62
     7
 10
-101.33673899999989
 20
730.11347999999987
 30
0.0
 11
-95.427925999999999
 21
731.15536499999996
 31
0.0
  0
LINE
  5
238
  8
0
 62
     7
 10
3.663260999999999
 20
730.11347999999987
 30
0.0
 11
-101.33673899999989
 21
730.11347999999987
 31
0.0
  0
LINE
  5
239
  8
0
 62
     7
 10
3.663260999999999
 20
734.11347999999987
 30
0.0
 11
3.663260999999999
 21
643.59278899999993
 31
0.0
  0
LINE
  5
23A
  8
0
 62
     7
 10
-101.33673899999989
 20
734.11347999999987
 30
0.0
 11
-101.33673899999989
 21
643.59278899999993
 31
0.0
  0
LINE
  5
23B
  8
0
 62
     7
 10
-161.07831599999989
 20
591.59278099999995
 30
0.0
 11
-160.0364459999999
 21
597.50162499999999
 31
0.0
  0
LINE
  5
23C
  8
0
 62
     7
 10
-161.07831599999989
 20
591.59278099999995
 30
0.0
 11
-162.12030799999991
 21
597.50163299999986
 31
0.0
  0
LINE
  5
23D
  8
0
 62
     7
 10
-161.07831599999989
 20
681.34277299999997
 30
0.0
 11
-162.12030799999991
 21
675.43392900000003
 31
0.0
  0
LINE
  5
23E
  8
0
 62
     7
 10
-161.07831599999989
 20
681.34277299999997
 30
0.0
 11
-160.0364459999999
 21
675.43392900000003
 31
0.0
  0
LINE
  5
23F
  8
0
 62
     7
 10
-161.07831599999989
 20
591.59278099999995
 30
0.0
 11
-161.07831599999989
 21
681.34277299999997
 31
0.0
  0
LINE
  5
240
  8
0
 62
     7
 10
-165.078316
 20
591.59278099999995
 30
0.0
 11
-152.86017699999991
 21
591.59278099999995
 31
0.0
  0
LINE
  5
241
  8
0
 62
     7
 10
-165.078316
 20
681.34277299999997
 30
0.0
 11
-135.08673899999991
 21
681.34277299999997
 31
0.0
  0
LINE
  5
242
  8
0
 62
     7
 10
-13.836739
 20
444.7118989999999
 30
0.0
 11
-19.745553000000001
 21
445.75378399999988
 31
0.0
  0
LINE
  5
243
  8
0
 62
     7
 10
-13.836739
 20
444.7118989999999
 30
0.0
 11
-19.745553000000001
 21
443.67000599999989
 31
0.0
  0
LINE
  5
244
  8
0
 62
     7
 10
-48.836739000000001
 20
444.7118989999999
 30
0.0
 11
-42.927803999999988
 21
443.67001299999998
 31
0.0
  0
LINE
  5
245
  8
0
 62
     7
 10
-48.836739000000001
 20
444.7118989999999
 30
0.0
 11
-42.927803999999988
 21
445.75379199999998
 31
0.0
  0
LINE
  5
246
  8
0
 62
     7
 10
-48.836739000000001
 20
444.7118989999999
 30
0.0
 11
-54.745553000000001
 21
445.75378399999988
 31
0.0
  0
LINE
  5
247
  8
0
 62
     7
 10
-48.836739000000001
 20
444.7118989999999
 30
0.0
 11
-54.745553000000001
 21
443.67000599999989
 31
0.0
  0
LINE
  5
248
  8
0
 62
     7
 10
-83.836738999999994
 20
444.7118989999999
 30
0.0
 11
-77.927804000000009
 21
443.67001299999998
 31
0.0
  0
LINE
  5
249
  8
0
 62
     7
 10
-83.836738999999994
 20
444.7118989999999
 30
0.0
 11
-77.927804000000009
 21
445.75379199999998
 31
0.0
  0
LINE
  5
24A
  8
0
 62
     7
 10
-83.836738999999994
 20
444.7118989999999
 30
0.0
 11
-89.745553000000001
 21
445.75378399999988
 31
0.0
  0
LINE
  5
24B
  8
0
 62
     7
 10
-83.836738999999994
 20
444.7118989999999
 30
0.0
 11
-89.745553000000001
 21
443.67000599999989
 31
0.0
  0
LINE
  5
24C
  8
0
 62
     7
 10
-118.83673899999999
 20
444.7118989999999
 30
0.0
 11
-112.92780399999999
 21
443.67001299999998
 31
0.0
  0
LINE
  5
24D
  8
0
 62
     7
 10
-118.83673899999999
 20
444.7118989999999
 30
0.0
 11
-112.92780399999999
 21
445.75379199999998
 31
0.0
  0
LINE
  5
24E
  8
0
 62
     7
 10
-13.836739
 20
444.7118989999999
 30
0.0
 11
-118.83673899999999
 21
444.71189099999998
 31
0.0
  0
LINE
  5
24F
  8
0
 62
     7
 10
-13.836739
 20
440.7118989999999
 30
0.0
 11
-13.836739
 21
491.4579809999999
 31
0.0
  0
LINE
  5
250
  8
0
 62
     7
 10
-48.836739000000001
 20
440.7118989999999
 30
0.0
 11
-48.836739000000001
 21
482.7427899999999
 31
0.0
  0
LINE
  5
251
  8
0
 62
     7
 10
-83.836738999999994
 20
440.7118989999999
 30
0.0
 11
-83.836738999999994
 21
519.5651019999998
 31
0.0
  0
LINE
  5
252
  8
0
 62
     7
 10
-118.83673899999999
 20
440.7118989999999
 30
0.0
 11
-118.83673899999999
 21
519.84066799999994
 31
0.0
  0
LINE
  5
253
  8
0
 62
     7
 10
-190.15033799999989
 20
591.59278099999995
 30
0.0
 11
-189.1083459999999
 21
597.50162499999999
 31
0.0
  0
LINE
  5
254
  8
0
 62
     7
 10
-190.15033799999989
 20
591.59278099999995
 30
0.0
 11
-191.19220799999999
 21
597.50162499999999
 31
0.0
  0
LINE
  5
255
  8
0
 62
     7
 10
-190.15033799999989
 20
718.84277299999997
 30
0.0
 11
-191.19220799999999
 21
712.93392900000003
 31
0.0
  0
LINE
  5
256
  8
0
 62
     7
 10
-190.15033799999989
 20
718.84277299999997
 30
0.0
 11
-189.1083459999999
 21
712.93392900000003
 31
0.0
  0
LINE
  5
257
  8
0
 62
     7
 10
-190.15033799999989
 20
591.59278099999995
 30
0.0
 11
-190.15033799999989
 21
718.84277299999997
 31
0.0
  0
LINE
  5
258
  8
0
 62
     7
 10
-194.15033799999989
 20
591.59278099999995
 30
0.0
 11
-153.89093799999989
 21
591.59278099999995
 31
0.0
  0
LINE
  5
259
  8
0
 62
     7
 10
-194.15033799999989
 20
718.84277299999997
 30
0.0
 11
-135.08673899999991
 21
718.84277299999997
 31
0.0
  0
LINE
  5
25A
  8
0
 62
     7
 10
-203.71723199999991
 20
468.84277299999991
 30
0.0
 11
-202.67523999999989
 21
474.75162099999989
 31
0.0
  0
LINE
  5
25B
  8
0
 62
     7
 10
-203.71723199999991
 20
468.84277299999991
 30
0.0
 11
-204.75910200000001
 21
474.75162099999989
 31
0.0
  0
LINE
  5
25C
  8
0
 62
     7
 10
-203.71723199999991
 20
718.84277299999997
 30
0.0
 11
-204.75910200000001
 21
712.93392900000003
 31
0.0
  0
LINE
  5
25D
  8
0
 62
     7
 10
-203.71723199999991
 20
718.84277299999997
 30
0.0
 11
-202.67523999999989
 21
712.93392900000003
 31
0.0
  0
LINE
  5
25E
  8
0
 62
     7
 10
-203.71723199999991
 20
468.84277299999991
 30
0.0
 11
-203.71723199999991
 21
718.84277299999997
 31
0.0
  0
LINE
  5
25F
  8
0
 62
     7
 10
-207.71723199999991
 20
468.84277299999991
 30
0.0
 11
-135.08673899999991
 21
468.84277299999991
 31
0.0
  0
LINE
  5
260
  8
0
 62
     7
 10
-207.71723199999991
 20
718.84277299999997
 30
0.0
 11
-135.08673899999991
 21
718.84277299999997
 31
0.0
  0
LINE
  5
261
  8
0
 62
     7
 10
-147.77570399999999
 20
511.092783
 30
0.0
 11
-146.73383399999989
 21
517.00162899999987
 31
0.0
  0
LINE
  5
262
  8
0
 62
     7
 10
-147.77570399999999
 20
511.092783
 30
0.0
 11
-148.8176959999999
 21
517.00162899999987
 31
0.0
  0
LINE
  5
263
  8
0
 62
     7
 10
-147.77570399999999
 20
672.09278899999993
 30
0.0
 11
-148.8176959999999
 21
666.18394499999999
 31
0.0
  0
LINE
  5
264
  8
0
 62
     7
 10
-147.77570399999999
 20
672.09278899999993
 30
0.0
 11
-146.73383399999989
 21
666.18394499999999
 31
0.0
  0
LINE
  5
265
  8
0
 62
     7
 10
-147.77570399999999
 20
511.092783
 30
0.0
 11
-147.77570399999999
 21
672.09278899999993
 31
0.0
  0
LINE
  5
266
  8
0
 62
     7
 10
-151.77570399999999
 20
511.092783
 30
0.0
 11
-106.08673899999989
 21
511.09278499999988
 31
0.0
  0
LINE
  5
267
  8
0
 62
     7
 10
-151.77570399999999
 20
672.09278899999993
 30
0.0
 11
-106.08673899999989
 21
672.09278899999993
 31
0.0
  0
LINE
  5
268
  8
0
 62
     7
 10
9.6632610000000003
 20
748.25199900000007
 30
0.0
 11
3.7544469999999999
 21
749.29389999999989
 31
0.0
  0
LINE
  5
269
  8
0
 62
     7
 10
9.6632610000000003
 20
748.25199900000007
 30
0.0
 11
3.7544469999999999
 21
747.21012900000005
 31
0.0
  0
LINE
  5
26A
  8
0
 62
     7
 10
-107.33673899999999
 20
748.25199900000007
 30
0.0
 11
-101.4279259999999
 21
747.21009800000002
 31
0.0
  0
LINE
  5
26B
  8
0
 62
     7
 10
-107.33673899999999
 20
748.25199900000007
 30
0.0
 11
-101.4279259999999
 21
749.29389999999989
 31
0.0
  0
LINE
  5
26C
  8
0
 62
     7
 10
9.6632610000000003
 20
748.25199900000007
 30
0.0
 11
-107.33673899999999
 21
748.25199900000007
 31
0.0
  0
LINE
  5
26D
  8
0
 62
     7
 10
9.6632610000000003
 20
752.25199900000007
 30
0.0
 11
9.6632610000000003
 21
670.84278899999993
 31
0.0
  0
LINE
  5
26E
  8
0
 62
     7
 10
-107.33673899999999
 20
752.25199900000007
 30
0.0
 11
-107.33673899999999
 21
670.84278899999993
 31
0.0
  0
LINE
  5
26F
  8
0
 62
     7
 10
824.09890700000005
 20
535.59278099999995
 30
0.0
 11
936.09890700000005
 21
535.59278099999995
 31
0.0
  0
LINE
  5
270
  8
0
 62
     7
 10
824.09890700000005
 20
647.59278099999995
 30
0.0
 11
936.09890700000005
 21
647.59278099999995
 31
0.0
  0
LINE
  5
271
  8
0
 62
     7
 10
824.09890700000005
 20
647.59278099999995
 30
0.0
 11
824.09890700000005
 21
535.59278099999995
 31
0.0
  0
LINE
  5
272
  8
0
 62
     7
 10
936.09890700000005
 20
647.59278099999995
 30
0.0
 11
936.09890700000005
 21
535.59278099999995
 31
0.0
  0
LINE
  5
273
  8
0
  6
DASHDOT
 62
     7
 10
880.09890699999994
 20
721.47865300000001
 30
0.0
 11
880.09890699999994
 21
494.10576600000002
 31
0.0
  0
CIRCLE
  5
274
  8
0
 62
     7
 10
840.09890700000005
 20
662.59278099999995
 30
0.0
 40
3.5
  0
CIRCLE
  5
275
  8
0
 62
     7
 10
920.09890700000005
 20
662.59278099999995
 30
0.0
 40
3.5
  0
CIRCLE
  5
276
  8
0
 62
     7
 10
920.09890700000005
 20
520.59278099999995
 30
0.0
 40
3.5
  0
CIRCLE
  5
277
  8
0
 62
     7
 10
840.09890700000005
 20
520.59278099999995
 30
0.0
 40
3.5
  0
POLYLINE
  5
278
  8
0
 62
     3
 66
     1
 10
0.0
 20
0.0
 30
0.0
  0
VERTEX
  5
B8D
  8
0
 62
     3
 10
808.24092099999984
 20
671.99198200000001
 30
0.0
  0
VERTEX
  5
B8E
  8
0
 62
     3
 10
824.24092099999984
 20
671.99198200000001
 30
0.0
  0
VERTEX
  5
B8F
  8
0
 62
     3
 10
825.24092099999984
 20
673.99198199999989
 30
0.0
  0
VERTEX
  5
B90
  8
0
 62
     3
 10
826.24092099999984
 20
669.99198199999989
 30
0.0
  0
VERTEX
  5
B91
  8
0
 62
     3
 10
827.24092099999984
 20
671.99198200000001
 30
0.0
  0
VERTEX
  5
B92
  8
0
 62
     3
 10
843.24092100000007
 20
671.99198200000001
 30
0.0
  0
VERTEX
  5
B93
  8
0
 62
     3
 10
844.24092099999996
 20
673.99198199999989
 30
0.0
  0
VERTEX
  5
B94
  8
0
 62
     3
 10
845.24092099999996
 20
669.99198199999989
 30
0.0
  0
VERTEX
  5
B95
  8
0
 62
     3
 10
846.24092099999996
 20
671.99198200000001
 30
0.0
  0
VERTEX
  5
B96
  8
0
 62
     3
 10
862.24092099999996
 20
671.99198200000001
 30
0.0
  0
VERTEX
  5
B97
  8
0
 62
     3
 10
863.24092099999996
 20
673.99198199999989
 30
0.0
  0
VERTEX
  5
B98
  8
0
 62
     3
 10
864.24092099999996
 20
669.99198199999989
 30
0.0
  0
VERTEX
  5
B99
  8
0
 62
     3
 10
865.24092099999996
 20
671.99198200000001
 30
0.0
  0
VERTEX
  5
B9A
  8
0
 62
     3
 10
881.24092099999996
 20
671.99198200000001
 30
0.0
  0
VERTEX
  5
B9B
  8
0
 62
     3
 10
882.24092100000007
 20
673.99198199999989
 30
0.0
  0
VERTEX
  5
B9C
  8
0
 62
     3
 10
883.24092100000007
 20
669.99198199999989
 30
0.0
  0
VERTEX
  5
B9D
  8
0
 62
     3
 10
884.24092100000007
 20
671.99198200000001
 30
0.0
  0
VERTEX
  5
B9E
  8
0
 62
     3
 10
900.24092100000007
 20
671.99198200000001
 30
0.0
  0
VERTEX
  5
B9F
  8
0
 62
     3
 10
901.24092100000007
 20
673.99198199999989
 30
0.0
  0
VERTEX
  5
BA0
  8
0
 62
     3
 10
902.24092100000007
 20
669.99198199999989
 30
0.0
  0
VERTEX
  5
BA1
  8
0
 62
     3
 10
903.24092099999996
 20
671.99198200000001
 30
0.0
  0
VERTEX
  5
BA2
  8
0
 62
     3
 10
919.24092099999996
 20
671.99198200000001
 30
0.0
  0
VERTEX
  5
BA3
  8
0
 62
     3
 10
920.24092099999996
 20
673.99198199999989
 30
0.0
  0
VERTEX
  5
BA4
  8
0
 62
     3
 10
921.24092099999996
 20
669.99198199999989
 30
0.0
  0
VERTEX
  5
BA5
  8
0
 62
     3
 10
922.24092099999996
 20
671.99198200000001
 30
0.0
  0
VERTEX
  5
BA6
  8
0
 62
     3
 10
938.24092099999996
 20
671.99198200000001
 30
0.0
  0
VERTEX
  5
BA7
  8
0
 62
     3
 10
939.24092099999996
 20
673.99198199999989
 30
0.0
  0
VERTEX
  5
BA8
  8
0
 62
     3
 10
940.24092099999996
 20
669.99198199999989
 30
0.0
  0
VERTEX
  5
BA9
  8
0
 62
     3
 10
941.24092100000007
 20
671.99198200000001
 30
0.0
  0
VERTEX
  5
BAA
  8
0
 62
     3
 10
951.45439899999985
 20
671.99198200000001
 30
0.0
  0
SEQEND
  5
BAB
  8
0
 62
     3
  0
POLYLINE
  5
298
  8
0
 62
     3
 66
     1
 10
0.0
 20
0.0
 30
0.0
  0
VERTEX
  5
BAC
  8
0
 62
     3
 10
808.24092099999984
 20
507.17086
 30
0.0
  0
VERTEX
  5
BAD
  8
0
 62
     3
 10
824.24092099999984
 20
507.17086
 30
0.0
  0
VERTEX
  5
BAE
  8
0
 62
     3
 10
825.24092099999984
 20
509.17085999999989
 30
0.0
  0
VERTEX
  5
BAF
  8
0
 62
     3
 10
826.24092099999984
 20
505.17085999999989
 30
0.0
  0
VERTEX
  5
BB0
  8
0
 62
     3
 10
827.24092099999984
 20
507.17086
 30
0.0
  0
VERTEX
  5
BB1
  8
0
 62
     3
 10
843.24092100000007
 20
507.17086
 30
0.0
  0
VERTEX
  5
BB2
  8
0
 62
     3
 10
844.24092099999996
 20
509.17085999999989
 30
0.0
  0
VERTEX
  5
BB3
  8
0
 62
     3
 10
845.24092099999996
 20
505.17085999999989
 30
0.0
  0
VERTEX
  5
BB4
  8
0
 62
     3
 10
846.24092099999996
 20
507.17086
 30
0.0
  0
VERTEX
  5
BB5
  8
0
 62
     3
 10
862.24092099999996
 20
507.17086
 30
0.0
  0
VERTEX
  5
BB6
  8
0
 62
     3
 10
863.24092099999996
 20
509.17085999999989
 30
0.0
  0
VERTEX
  5
BB7
  8
0
 62
     3
 10
864.24092099999996
 20
505.17085999999989
 30
0.0
  0
VERTEX
  5
BB8
  8
0
 62
     3
 10
865.24092099999996
 20
507.17086
 30
0.0
  0
VERTEX
  5
BB9
  8
0
 62
     3
 10
881.24092099999996
 20
507.17086
 30
0.0
  0
VERTEX
  5
BBA
  8
0
 62
     3
 10
882.24092100000007
 20
509.17085999999989
 30
0.0
  0
VERTEX
  5
BBB
  8
0
 62
     3
 10
883.24092100000007
 20
505.17085999999989
 30
0.0
  0
VERTEX
  5
BBC
  8
0
 62
     3
 10
884.24092100000007
 20
507.17086
 30
0.0
  0
VERTEX
  5
BBD
  8
0
 62
     3
 10
900.24092100000007
 20
507.17086
 30
0.0
  0
VERTEX
  5
BBE
  8
0
 62
     3
 10
901.24092100000007
 20
509.17085999999989
 30
0.0
  0
VERTEX
  5
BBF
  8
0
 62
     3
 10
902.24092100000007
 20
505.17085999999989
 30
0.0
  0
VERTEX
  5
BC0
  8
0
 62
     3
 10
903.24092099999996
 20
507.17086
 30
0.0
  0
VERTEX
  5
BC1
  8
0
 62
     3
 10
919.24092099999996
 20
507.17086
 30
0.0
  0
VERTEX
  5
BC2
  8
0
 62
     3
 10
920.24092099999996
 20
509.17085999999989
 30
0.0
  0
VERTEX
  5
BC3
  8
0
 62
     3
 10
921.24092099999996
 20
505.17085999999989
 30
0.0
  0
VERTEX
  5
BC4
  8
0
 62
     3
 10
922.24092099999996
 20
507.17086
 30
0.0
  0
VERTEX
  5
BC5
  8
0
 62
     3
 10
938.24092099999996
 20
507.17086
 30
0.0
  0
VERTEX
  5
BC6
  8
0
 62
     3
 10
939.24092099999996
 20
509.17085999999989
 30
0.0
  0
VERTEX
  5
BC7
  8
0
 62
     3
 10
940.24092099999996
 20
505.17085999999989
 30
0.0
  0
VERTEX
  5
BC8
  8
0
 62
     3
 10
941.24092100000007
 20
507.17086
 30
0.0
  0
VERTEX
  5
BC9
  8
0
 62
     3
 10
951.45439899999985
 20
507.17086
 30
0.0
  0
SEQEND
  5
BCA
  8
0
 62
     3
  0
POLYLINE
  5
2B8
  8
0
 62
     3
 66
     1
 10
0.0
 20
0.0
 30
0.0
  0
VERTEX
  5
BCB
  8
0
 62
     3
 10
951.45439899999985
 20
671.99198200000001
 30
0.0
  0
VERTEX
  5
BCC
  8
0
 62
     3
 10
951.45439899999985
 20
655.99198200000001
 30
0.0
  0
VERTEX
  5
BCD
  8
0
 62
     3
 10
953.45439899999985
 20
654.99198200000001
 30
0.0
  0
VERTEX
  5
BCE
  8
0
 62
     3
 10
949.45439899999997
 20
653.99198200000001
 30
0.0
  0
VERTEX
  5
BCF
  8
0
 62
     3
 10
951.45439899999985
 20
652.99198199999989
 30
0.0
  0
VERTEX
  5
BD0
  8
0
 62
     3
 10
951.45439899999985
 20
636.99198199999989
 30
0.0
  0
VERTEX
  5
BD1
  8
0
 62
     3
 10
953.45439899999985
 20
635.99198200000001
 30
0.0
  0
VERTEX
  5
BD2
  8
0
 62
     3
 10
949.45439899999997
 20
634.99198200000001
 30
0.0
  0
VERTEX
  5
BD3
  8
0
 62
     3
 10
951.45439899999985
 20
633.99198200000001
 30
0.0
  0
VERTEX
  5
BD4
  8
0
 62
     3
 10
951.45439899999985
 20
617.99198200000001
 30
0.0
  0
VERTEX
  5
BD5
  8
0
 62
     3
 10
953.45439899999985
 20
616.99198200000001
 30
0.0
  0
VERTEX
  5
BD6
  8
0
 62
     3
 10
949.45439899999997
 20
615.99198199999989
 30
0.0
  0
VERTEX
  5
BD7
  8
0
 62
     3
 10
951.45439899999985
 20
614.99198200000001
 30
0.0
  0
VERTEX
  5
BD8
  8
0
 62
     3
 10
951.45439899999985
 20
598.99198199999989
 30
0.0
  0
VERTEX
  5
BD9
  8
0
 62
     3
 10
953.45439899999985
 20
597.99198200000001
 30
0.0
  0
VERTEX
  5
BDA
  8
0
 62
     3
 10
949.45439899999997
 20
596.99198200000001
 30
0.0
  0
VERTEX
  5
BDB
  8
0
 62
     3
 10
951.45439899999985
 20
595.99198200000001
 30
0.0
  0
VERTEX
  5
BDC
  8
0
 62
     3
 10
951.45439899999985
 20
579.99198200000001
 30
0.0
  0
VERTEX
  5
BDD
  8
0
 62
     3
 10
953.45439899999985
 20
578.99198200000001
 30
0.0
  0
VERTEX
  5
BDE
  8
0
 62
     3
 10
949.45439899999997
 20
577.99198199999989
 30
0.0
  0
VERTEX
  5
BDF
  8
0
 62
     3
 10
951.45439899999985
 20
576.99198200000001
 30
0.0
  0
VERTEX
  5
BE0
  8
0
 62
     3
 10
951.45439899999985
 20
560.99198200000001
 30
0.0
  0
VERTEX
  5
BE1
  8
0
 62
     3
 10
953.45439899999985
 20
559.99198200000001
 30
0.0
  0
VERTEX
  5
BE2
  8
0
 62
     3
 10
949.45439899999997
 20
558.99198200000001
 30
0.0
  0
VERTEX
  5
BE3
  8
0
 62
     3
 10
951.45439899999985
 20
557.99198199999989
 30
0.0
  0
VERTEX
  5
BE4
  8
0
 62
     3
 10
951.45439899999985
 20
541.99198200000001
 30
0.0
  0
VERTEX
  5
BE5
  8
0
 62
     3
 10
953.45439899999985
 20
540.99198199999989
 30
0.0
  0
VERTEX
  5
BE6
  8
0
 62
     3
 10
949.45439899999997
 20
539.99198200000001
 30
0.0
  0
VERTEX
  5
BE7
  8
0
 62
     3
 10
951.45439899999985
 20
538.99198200000001
 30
0.0
  0
VERTEX
  5
BE8
  8
0
 62
     3
 10
951.45439899999985
 20
522.99198200000001
 30
0.0
  0
VERTEX
  5
BE9
  8
0
 62
     3
 10
953.45439899999985
 20
521.99198200000001
 30
0.0
  0
VERTEX
  5
BEA
  8
0
 62
     3
 10
949.45439899999997
 20
520.99198200000001
 30
0.0
  0
VERTEX
  5
BEB
  8
0
 62
     3
 10
951.45439899999985
 20
519.99198199999989
 30
0.0
  0
VERTEX
  5
BEC
  8
0
 62
     3
 10
951.45439899999985
 20
507.17086
 30
0.0
  0
SEQEND
  5
BED
  8
0
 62
     3
  0
POLYLINE
  5
2DC
  8
0
 62
     3
 66
     1
 10
0.0
 20
0.0
 30
0.0
  0
VERTEX
  5
BEE
  8
0
 62
     3
 10
808.24092099999984
 20
671.99198200000001
 30
0.0
  0
VERTEX
  5
BEF
  8
0
 62
     3
 10
808.24092099999984
 20
655.99198200000001
 30
0.0
  0
VERTEX
  5
BF0
  8
0
 62
     3
 10
810.24092099999984
 20
654.99198200000001
 30
0.0
  0
VERTEX
  5
BF1
  8
0
 62
     3
 10
806.24092099999996
 20
653.99198200000001
 30
0.0
  0
VERTEX
  5
BF2
  8
0
 62
     3
 10
808.24092099999984
 20
652.99198199999989
 30
0.0
  0
VERTEX
  5
BF3
  8
0
 62
     3
 10
808.24092099999984
 20
636.99198199999989
 30
0.0
  0
VERTEX
  5
BF4
  8
0
 62
     3
 10
810.24092099999984
 20
635.99198200000001
 30
0.0
  0
VERTEX
  5
BF5
  8
0
 62
     3
 10
806.24092099999996
 20
634.99198200000001
 30
0.0
  0
VERTEX
  5
BF6
  8
0
 62
     3
 10
808.24092099999984
 20
633.99198200000001
 30
0.0
  0
VERTEX
  5
BF7
  8
0
 62
     3
 10
808.24092099999984
 20
617.99198200000001
 30
0.0
  0
VERTEX
  5
BF8
  8
0
 62
     3
 10
810.24092099999984
 20
616.99198200000001
 30
0.0
  0
VERTEX
  5
BF9
  8
0
 62
     3
 10
806.24092099999996
 20
615.99198199999989
 30
0.0
  0
VERTEX
  5
BFA
  8
0
 62
     3
 10
808.24092099999984
 20
614.99198200000001
 30
0.0
  0
VERTEX
  5
BFB
  8
0
 62
     3
 10
808.24092099999984
 20
598.99198199999989
 30
0.0
  0
VERTEX
  5
BFC
  8
0
 62
     3
 10
810.24092099999984
 20
597.99198200000001
 30
0.0
  0
VERTEX
  5
BFD
  8
0
 62
     3
 10
806.24092099999996
 20
596.99198200000001
 30
0.0
  0
VERTEX
  5
BFE
  8
0
 62
     3
 10
808.24092099999984
 20
595.99198200000001
 30
0.0
  0
VERTEX
  5
BFF
  8
0
 62
     3
 10
808.24092099999984
 20
579.99198200000001
 30
0.0
  0
VERTEX
  5
C00
  8
0
 62
     3
 10
810.24092099999984
 20
578.99198200000001
 30
0.0
  0
VERTEX
  5
C01
  8
0
 62
     3
 10
806.24092099999996
 20
577.99198199999989
 30
0.0
  0
VERTEX
  5
C02
  8
0
 62
     3
 10
808.24092099999984
 20
576.99198200000001
 30
0.0
  0
VERTEX
  5
C03
  8
0
 62
     3
 10
808.24092099999984
 20
560.99198200000001
 30
0.0
  0
VERTEX
  5
C04
  8
0
 62
     3
 10
810.24092099999984
 20
559.99198200000001
 30
0.0
  0
VERTEX
  5
C05
  8
0
 62
     3
 10
806.24092099999996
 20
558.99198200000001
 30
0.0
  0
VERTEX
  5
C06
  8
0
 62
     3
 10
808.24092099999984
 20
557.99198199999989
 30
0.0
  0
VERTEX
  5
C07
  8
0
 62
     3
 10
808.24092099999984
 20
541.99198200000001
 30
0.0
  0
VERTEX
  5
C08
  8
0
 62
     3
 10
810.24092099999984
 20
540.99198199999989
 30
0.0
  0
VERTEX
  5
C09
  8
0
 62
     3
 10
806.24092099999996
 20
539.99198200000001
 30
0.0
  0
VERTEX
  5
C0A
  8
0
 62
     3
 10
808.24092099999984
 20
538.99198200000001
 30
0.0
  0
VERTEX
  5
C0B
  8
0
 62
     3
 10
808.24092099999984
 20
522.99198200000001
 30
0.0
  0
VERTEX
  5
C0C
  8
0
 62
     3
 10
810.24092099999984
 20
521.99198200000001
 30
0.0
  0
VERTEX
  5
C0D
  8
0
 62
     3
 10
806.24092099999996
 20
520.99198200000001
 30
0.0
  0
VERTEX
  5
C0E
  8
0
 62
     3
 10
808.24092099999984
 20
519.99198199999989
 30
0.0
  0
VERTEX
  5
C0F
  8
0
 62
     3
 10
808.24092099999984
 20
507.17086
 30
0.0
  0
SEQEND
  5
C10
  8
0
 62
     3
  0
LINE
  5
300
  8
0
  6
DASHDOT
 62
     7
 10
920.09890700000005
 20
669.09278099999995
 30
0.0
 11
920.09890700000005
 21
656.09278099999995
 31
0.0
  0
LINE
  5
301
  8
0
  6
DASHDOT
 62
     7
 10
913.59890700000005
 20
662.59278099999995
 30
0.0
 11
926.59890700000005
 21
662.59278099999995
 31
0.0
  0
LINE
  5
302
  8
0
  6
DASHDOT
 62
     7
 10
840.09890700000005
 20
669.09278099999995
 30
0.0
 11
840.09890700000005
 21
656.09278099999995
 31
0.0
  0
LINE
  5
303
  8
0
  6
DASHDOT
 62
     7
 10
833.59890700000005
 20
662.59278099999995
 30
0.0
 11
846.59890700000005
 21
662.59278099999995
 31
0.0
  0
LINE
  5
304
  8
0
  6
DASHDOT
 62
     7
 10
840.09890700000005
 20
527.09278099999995
 30
0.0
 11
840.09890700000005
 21
514.09278099999995
 31
0.0
  0
LINE
  5
305
  8
0
  6
DASHDOT
 62
     7
 10
833.59890700000005
 20
520.59278099999995
 30
0.0
 11
846.59890700000005
 21
520.59278099999995
 31
0.0
  0
LINE
  5
306
  8
0
  6
DASHDOT
 62
     7
 10
920.09890700000005
 20
527.09278099999995
 30
0.0
 11
920.09890700000005
 21
514.09278099999995
 31
0.0
  0
LINE
  5
307
  8
0
  6
DASHDOT
 62
     7
 10
913.59890700000005
 20
520.59278099999995
 30
0.0
 11
926.59890700000005
 21
520.59278099999995
 31
0.0
  0
CIRCLE
  5
308
  8
0
 62
     7
 10
814.77345300000013
 20
666.70578
 30
0.0
 40
0.25
  0
LINE
  5
309
  8
0
 62
     7
 10
824.09890700000005
 20
535.59278099999995
 30
0.0
 11
936.09890700000005
 21
535.59278099999995
 31
0.0
  0
LINE
  5
30A
  8
0
 62
     7
 10
824.09890700000005
 20
647.59278099999995
 30
0.0
 11
936.09890700000005
 21
647.59278099999995
 31
0.0
  0
LINE
  5
30B
  8
0
 62
     7
 10
824.09890700000005
 20
647.59278099999995
 30
0.0
 11
824.09890700000005
 21
535.59278099999995
 31
0.0
  0
LINE
  5
30C
  8
0
 62
     7
 10
936.09890700000005
 20
647.59278099999995
 30
0.0
 11
936.09890700000005
 21
535.59278099999995
 31
0.0
  0
LINE
  5
30D
  8
0
  6
DASHDOT
 62
     7
 10
880.09890699999994
 20
721.47865300000001
 30
0.0
 11
880.09890699999994
 21
494.10576600000002
 31
0.0
  0
CIRCLE
  5
30E
  8
0
 62
     7
 10
840.09890700000005
 20
662.59278099999995
 30
0.0
 40
3.5
  0
CIRCLE
  5
30F
  8
0
 62
     7
 10
920.09890700000005
 20
662.59278099999995
 30
0.0
 40
3.5
  0
CIRCLE
  5
310
  8
0
 62
     7
 10
920.09890700000005
 20
520.59278099999995
 30
0.0
 40
3.5
  0
CIRCLE
  5
311
  8
0
 62
     7
 10
840.09890700000005
 20
520.59278099999995
 30
0.0
 40
3.5
  0
POLYLINE
  5
312
  8
0
 62
     3
 66
     1
 10
0.0
 20
0.0
 30
0.0
  0
VERTEX
  5
C11
  8
0
 62
     3
 10
808.24092099999984
 20
671.99198200000001
 30
0.0
  0
VERTEX
  5
C12
  8
0
 62
     3
 10
824.24092099999984
 20
671.99198200000001
 30
0.0
  0
VERTEX
  5
C13
  8
0
 62
     3
 10
825.24092099999984
 20
673.99198199999989
 30
0.0
  0
VERTEX
  5
C14
  8
0
 62
     3
 10
826.24092099999984
 20
669.99198199999989
 30
0.0
  0
VERTEX
  5
C15
  8
0
 62
     3
 10
827.24092099999984
 20
671.99198200000001
 30
0.0
  0
VERTEX
  5
C16
  8
0
 62
     3
 10
843.24092100000007
 20
671.99198200000001
 30
0.0
  0
VERTEX
  5
C17
  8
0
 62
     3
 10
844.24092099999996
 20
673.99198199999989
 30
0.0
  0
VERTEX
  5
C18
  8
0
 62
     3
 10
845.24092099999996
 20
669.99198199999989
 30
0.0
  0
VERTEX
  5
C19
  8
0
 62
     3
 10
846.24092099999996
 20
671.99198200000001
 30
0.0
  0
VERTEX
  5
C1A
  8
0
 62
     3
 10
862.24092099999996
 20
671.99198200000001
 30
0.0
  0
VERTEX
  5
C1B
  8
0
 62
     3
 10
863.24092099999996
 20
673.99198199999989
 30
0.0
  0
VERTEX
  5
C1C
  8
0
 62
     3
 10
864.24092099999996
 20
669.99198199999989
 30
0.0
  0
VERTEX
  5
C1D
  8
0
 62
     3
 10
865.24092099999996
 20
671.99198200000001
 30
0.0
  0
VERTEX
  5
C1E
  8
0
 62
     3
 10
881.24092099999996
 20
671.99198200000001
 30
0.0
  0
VERTEX
  5
C1F
  8
0
 62
     3
 10
882.24092100000007
 20
673.99198199999989
 30
0.0
  0
VERTEX
  5
C20
  8
0
 62
     3
 10
883.24092100000007
 20
669.99198199999989
 30
0.0
  0
VERTEX
  5
C21
  8
0
 62
     3
 10
884.24092100000007
 20
671.99198200000001
 30
0.0
  0
VERTEX
  5
C22
  8
0
 62
     3
 10
900.24092100000007
 20
671.99198200000001
 30
0.0
  0
VERTEX
  5
C23
  8
0
 62
     3
 10
901.24092100000007
 20
673.99198199999989
 30
0.0
  0
VERTEX
  5
C24
  8
0
 62
     3
 10
902.24092100000007
 20
669.99198199999989
 30
0.0
  0
VERTEX
  5
C25
  8
0
 62
     3
 10
903.24092099999996
 20
671.99198200000001
 30
0.0
  0
VERTEX
  5
C26
  8
0
 62
     3
 10
919.24092099999996
 20
671.99198200000001
 30
0.0
  0
VERTEX
  5
C27
  8
0
 62
     3
 10
920.24092099999996
 20
673.99198199999989
 30
0.0
  0
VERTEX
  5
C28
  8
0
 62
     3
 10
921.24092099999996
 20
669.99198199999989
 30
0.0
  0
VERTEX
  5
C29
  8
0
 62
     3
 10
922.24092099999996
 20
671.99198200000001
 30
0.0
  0
VERTEX
  5
C2A
  8
0
 62
     3
 10
938.24092099999996
 20
671.99198200000001
 30
0.0
  0
VERTEX
  5
C2B
  8
0
 62
     3
 10
939.24092099999996
 20
673.99198199999989
 30
0.0
  0
VERTEX
  5
C2C
  8
0
 62
     3
 10
940.24092099999996
 20
669.99198199999989
 30
0.0
  0
VERTEX
  5
C2D
  8
0
 62
     3
 10
941.24092100000007
 20
671.99198200000001
 30
0.0
  0
VERTEX
  5
C2E
  8
0
 62
     3
 10
951.45439899999985
 20
671.99198200000001
 30
0.0
  0
SEQEND
  5
C2F
  8
0
 62
     3
  0
POLYLINE
  5
332
  8
0
 62
     3
 66
     1
 10
0.0
 20
0.0
 30
0.0
  0
VERTEX
  5
C30
  8
0
 62
     3
 10
808.24092099999984
 20
507.17086
 30
0.0
  0
VERTEX
  5
C31
  8
0
 62
     3
 10
824.24092099999984
 20
507.17086
 30
0.0
  0
VERTEX
  5
C32
  8
0
 62
     3
 10
825.24092099999984
 20
509.17085999999989
 30
0.0
  0
VERTEX
  5
C33
  8
0
 62
     3
 10
826.24092099999984
 20
505.17085999999989
 30
0.0
  0
VERTEX
  5
C34
  8
0
 62
     3
 10
827.24092099999984
 20
507.17086
 30
0.0
  0
VERTEX
  5
C35
  8
0
 62
     3
 10
843.24092100000007
 20
507.17086
 30
0.0
  0
VERTEX
  5
C36
  8
0
 62
     3
 10
844.24092099999996
 20
509.17085999999989
 30
0.0
  0
VERTEX
  5
C37
  8
0
 62
     3
 10
845.24092099999996
 20
505.17085999999989
 30
0.0
  0
VERTEX
  5
C38
  8
0
 62
     3
 10
846.24092099999996
 20
507.17086
 30
0.0
  0
VERTEX
  5
C39
  8
0
 62
     3
 10
862.24092099999996
 20
507.17086
 30
0.0
  0
VERTEX
  5
C3A
  8
0
 62
     3
 10
863.24092099999996
 20
509.17085999999989
 30
0.0
  0
VERTEX
  5
C3B
  8
0
 62
     3
 10
864.24092099999996
 20
505.17085999999989
 30
0.0
  0
VERTEX
  5
C3C
  8
0
 62
     3
 10
865.24092099999996
 20
507.17086
 30
0.0
  0
VERTEX
  5
C3D
  8
0
 62
     3
 10
881.24092099999996
 20
507.17086
 30
0.0
  0
VERTEX
  5
C3E
  8
0
 62
     3
 10
882.24092100000007
 20
509.17085999999989
 30
0.0
  0
VERTEX
  5
C3F
  8
0
 62
     3
 10
883.24092100000007
 20
505.17085999999989
 30
0.0
  0
VERTEX
  5
C40
  8
0
 62
     3
 10
884.24092100000007
 20
507.17086
 30
0.0
  0
VERTEX
  5
C41
  8
0
 62
     3
 10
900.24092100000007
 20
507.17086
 30
0.0
  0
VERTEX
  5
C42
  8
0
 62
     3
 10
901.24092100000007
 20
509.17085999999989
 30
0.0
  0
VERTEX
  5
C43
  8
0
 62
     3
 10
902.24092100000007
 20
505.17085999999989
 30
0.0
  0
VERTEX
  5
C44
  8
0
 62
     3
 10
903.24092099999996
 20
507.17086
 30
0.0
  0
VERTEX
  5
C45
  8
0
 62
     3
 10
919.24092099999996
 20
507.17086
 30
0.0
  0
VERTEX
  5
C46
  8
0
 62
     3
 10
920.24092099999996
 20
509.17085999999989
 30
0.0
  0
VERTEX
  5
C47
  8
0
 62
     3
 10
921.24092099999996
 20
505.17085999999989
 30
0.0
  0
VERTEX
  5
C48
  8
0
 62
     3
 10
922.24092099999996
 20
507.17086
 30
0.0
  0
VERTEX
  5
C49
  8
0
 62
     3
 10
938.24092099999996
 20
507.17086
 30
0.0
  0
VERTEX
  5
C4A
  8
0
 62
     3
 10
939.24092099999996
 20
509.17085999999989
 30
0.0
  0
VERTEX
  5
C4B
  8
0
 62
     3
 10
940.24092099999996
 20
505.17085999999989
 30
0.0
  0
VERTEX
  5
C4C
  8
0
 62
     3
 10
941.24092100000007
 20
507.17086
 30
0.0
  0
VERTEX
  5
C4D
  8
0
 62
     3
 10
951.45439899999985
 20
507.17086
 30
0.0
  0
SEQEND
  5
C4E
  8
0
 62
     3
  0
POLYLINE
  5
352
  8
0
 62
     3
 66
     1
 10
0.0
 20
0.0
 30
0.0
  0
VERTEX
  5
C4F
  8
0
 62
     3
 10
951.45439899999985
 20
671.99198200000001
 30
0.0
  0
VERTEX
  5
C50
  8
0
 62
     3
 10
951.45439899999985
 20
655.99198200000001
 30
0.0
  0
VERTEX
  5
C51
  8
0
 62
     3
 10
953.45439899999985
 20
654.99198200000001
 30
0.0
  0
VERTEX
  5
C52
  8
0
 62
     3
 10
949.45439899999997
 20
653.99198200000001
 30
0.0
  0
VERTEX
  5
C53
  8
0
 62
     3
 10
951.45439899999985
 20
652.99198199999989
 30
0.0
  0
VERTEX
  5
C54
  8
0
 62
     3
 10
951.45439899999985
 20
636.99198199999989
 30
0.0
  0
VERTEX
  5
C55
  8
0
 62
     3
 10
953.45439899999985
 20
635.99198200000001
 30
0.0
  0
VERTEX
  5
C56
  8
0
 62
     3
 10
949.45439899999997
 20
634.99198200000001
 30
0.0
  0
VERTEX
  5
C57
  8
0
 62
     3
 10
951.45439899999985
 20
633.99198200000001
 30
0.0
  0
VERTEX
  5
C58
  8
0
 62
     3
 10
951.45439899999985
 20
617.99198200000001
 30
0.0
  0
VERTEX
  5
C59
  8
0
 62
     3
 10
953.45439899999985
 20
616.99198200000001
 30
0.0
  0
VERTEX
  5
C5A
  8
0
 62
     3
 10
949.45439899999997
 20
615.99198199999989
 30
0.0
  0
VERTEX
  5
C5B
  8
0
 62
     3
 10
951.45439899999985
 20
614.99198200000001
 30
0.0
  0
VERTEX
  5
C5C
  8
0
 62
     3
 10
951.45439899999985
 20
598.99198199999989
 30
0.0
  0
VERTEX
  5
C5D
  8
0
 62
     3
 10
953.45439899999985
 20
597.99198200000001
 30
0.0
  0
VERTEX
  5
C5E
  8
0
 62
     3
 10
949.45439899999997
 20
596.99198200000001
 30
0.0
  0
VERTEX
  5
C5F
  8
0
 62
     3
 10
951.45439899999985
 20
595.99198200000001
 30
0.0
  0
VERTEX
  5
C60
  8
0
 62
     3
 10
951.45439899999985
 20
579.99198200000001
 30
0.0
  0
VERTEX
  5
C61
  8
0
 62
     3
 10
953.45439899999985
 20
578.99198200000001
 30
0.0
  0
VERTEX
  5
C62
  8
0
 62
     3
 10
949.45439899999997
 20
577.99198199999989
 30
0.0
  0
VERTEX
  5
C63
  8
0
 62
     3
 10
951.45439899999985
 20
576.99198200000001
 30
0.0
  0
VERTEX
  5
C64
  8
0
 62
     3
 10
951.45439899999985
 20
560.99198200000001
 30
0.0
  0
VERTEX
  5
C65
  8
0
 62
     3
 10
953.45439899999985
 20
559.99198200000001
 30
0.0
  0
VERTEX
  5
C66
  8
0
 62
     3
 10
949.45439899999997
 20
558.99198200000001
 30
0.0
  0
VERTEX
  5
C67
  8
0
 62
     3
 10
951.45439899999985
 20
557.99198199999989
 30
0.0
  0
VERTEX
  5
C68
  8
0
 62
     3
 10
951.45439899999985
 20
541.99198200000001
 30
0.0
  0
VERTEX
  5
C69
  8
0
 62
     3
 10
953.45439899999985
 20
540.99198199999989
 30
0.0
  0
VERTEX
  5
C6A
  8
0
 62
     3
 10
949.45439899999997
 20
539.99198200000001
 30
0.0
  0
VERTEX
  5
C6B
  8
0
 62
     3
 10
951.45439899999985
 20
538.99198200000001
 30
0.0
  0
VERTEX
  5
C6C
  8
0
 62
     3
 10
951.45439899999985
 20
522.99198200000001
 30
0.0
  0
VERTEX
  5
C6D
  8
0
 62
     3
 10
953.45439899999985
 20
521.99198200000001
 30
0.0
  0
VERTEX
  5
C6E
  8
0
 62
     3
 10
949.45439899999997
 20
520.99198200000001
 30
0.0
  0
VERTEX
  5
C6F
  8
0
 62
     3
 10
951.45439899999985
 20
519.99198199999989
 30
0.0
  0
VERTEX
  5
C70
  8
0
 62
     3
 10
951.45439899999985
 20
507.17086
 30
0.0
  0
SEQEND
  5
C71
  8
0
 62
     3
  0
POLYLINE
  5
376
  8
0
 62
     3
 66
     1
 10
0.0
 20
0.0
 30
0.0
  0
VERTEX
  5
C72
  8
0
 62
     3
 10
808.24092099999984
 20
671.99198200000001
 30
0.0
  0
VERTEX
  5
C73
  8
0
 62
     3
 10
808.24092099999984
 20
655.99198200000001
 30
0.0
  0
VERTEX
  5
C74
  8
0
 62
     3
 10
810.24092099999984
 20
654.99198200000001
 30
0.0
  0
VERTEX
  5
C75
  8
0
 62
     3
 10
806.24092099999996
 20
653.99198200000001
 30
0.0
  0
VERTEX
  5
C76
  8
0
 62
     3
 10
808.24092099999984
 20
652.99198199999989
 30
0.0
  0
VERTEX
  5
C77
  8
0
 62
     3
 10
808.24092099999984
 20
636.99198199999989
 30
0.0
  0
VERTEX
  5
C78
  8
0
 62
     3
 10
810.24092099999984
 20
635.99198200000001
 30
0.0
  0
VERTEX
  5
C79
  8
0
 62
     3
 10
806.24092099999996
 20
634.99198200000001
 30
0.0
  0
VERTEX
  5
C7A
  8
0
 62
     3
 10
808.24092099999984
 20
633.99198200000001
 30
0.0
  0
VERTEX
  5
C7B
  8
0
 62
     3
 10
808.24092099999984
 20
617.99198200000001
 30
0.0
  0
VERTEX
  5
C7C
  8
0
 62
     3
 10
810.24092099999984
 20
616.99198200000001
 30
0.0
  0
VERTEX
  5
C7D
  8
0
 62
     3
 10
806.24092099999996
 20
615.99198199999989
 30
0.0
  0
VERTEX
  5
C7E
  8
0
 62
     3
 10
808.24092099999984
 20
614.99198200000001
 30
0.0
  0
VERTEX
  5
C7F
  8
0
 62
     3
 10
808.24092099999984
 20
598.99198199999989
 30
0.0
  0
VERTEX
  5
C80
  8
0
 62
     3
 10
810.24092099999984
 20
597.99198200000001
 30
0.0
  0
VERTEX
  5
C81
  8
0
 62
     3
 10
806.24092099999996
 20
596.99198200000001
 30
0.0
  0
VERTEX
  5
C82
  8
0
 62
     3
 10
808.24092099999984
 20
595.99198200000001
 30
0.0
  0
VERTEX
  5
C83
  8
0
 62
     3
 10
808.24092099999984
 20
579.99198200000001
 30
0.0
  0
VERTEX
  5
C84
  8
0
 62
     3
 10
810.24092099999984
 20
578.99198200000001
 30
0.0
  0
VERTEX
  5
C85
  8
0
 62
     3
 10
806.24092099999996
 20
577.99198199999989
 30
0.0
  0
VERTEX
  5
C86
  8
0
 62
     3
 10
808.24092099999984
 20
576.99198200000001
 30
0.0
  0
VERTEX
  5
C87
  8
0
 62
     3
 10
808.24092099999984
 20
560.99198200000001
 30
0.0
  0
VERTEX
  5
C88
  8
0
 62
     3
 10
810.24092099999984
 20
559.99198200000001
 30
0.0
  0
VERTEX
  5
C89
  8
0
 62
     3
 10
806.24092099999996
 20
558.99198200000001
 30
0.0
  0
VERTEX
  5
C8A
  8
0
 62
     3
 10
808.24092099999984
 20
557.99198199999989
 30
0.0
  0
VERTEX
  5
C8B
  8
0
 62
     3
 10
808.24092099999984
 20
541.99198200000001
 30
0.0
  0
VERTEX
  5
C8C
  8
0
 62
     3
 10
810.24092099999984
 20
540.99198199999989
 30
0.0
  0
VERTEX
  5
C8D
  8
0
 62
     3
 10
806.24092099999996
 20
539.99198200000001
 30
0.0
  0
VERTEX
  5
C8E
  8
0
 62
     3
 10
808.24092099999984
 20
538.99198200000001
 30
0.0
  0
VERTEX
  5
C8F
  8
0
 62
     3
 10
808.24092099999984
 20
522.99198200000001
 30
0.0
  0
VERTEX
  5
C90
  8
0
 62
     3
 10
810.24092099999984
 20
521.99198200000001
 30
0.0
  0
VERTEX
  5
C91
  8
0
 62
     3
 10
806.24092099999996
 20
520.99198200000001
 30
0.0
  0
VERTEX
  5
C92
  8
0
 62
     3
 10
808.24092099999984
 20
519.99198199999989
 30
0.0
  0
VERTEX
  5
C93
  8
0
 62
     3
 10
808.24092099999984
 20
507.17086
 30
0.0
  0
SEQEND
  5
C94
  8
0
 62
     3
  0
LINE
  5
39A
  8
0
  6
DASHDOT
 62
     7
 10
920.09890700000005
 20
669.09278099999995
 30
0.0
 11
920.09890700000005
 21
656.09278099999995
 31
0.0
  0
LINE
  5
39B
  8
0
  6
DASHDOT
 62
     7
 10
913.59890700000005
 20
662.59278099999995
 30
0.0
 11
926.59890700000005
 21
662.59278099999995
 31
0.0
  0
LINE
  5
39C
  8
0
  6
DASHDOT
 62
     7
 10
840.09890700000005
 20
669.09278099999995
 30
0.0
 11
840.09890700000005
 21
656.09278099999995
 31
0.0
  0
LINE
  5
39D
  8
0
  6
DASHDOT
 62
     7
 10
833.59890700000005
 20
662.59278099999995
 30
0.0
 11
846.59890700000005
 21
662.59278099999995
 31
0.0
  0
LINE
  5
39E
  8
0
  6
DASHDOT
 62
     7
 10
840.09890700000005
 20
527.09278099999995
 30
0.0
 11
840.09890700000005
 21
514.09278099999995
 31
0.0
  0
LINE
  5
39F
  8
0
  6
DASHDOT
 62
     7
 10
833.59890700000005
 20
520.59278099999995
 30
0.0
 11
846.59890700000005
 21
520.59278099999995
 31
0.0
  0
LINE
  5
3A0
  8
0
  6
DASHDOT
 62
     7
 10
920.09890700000005
 20
527.09278099999995
 30
0.0
 11
920.09890700000005
 21
514.09278099999995
 31
0.0
  0
LINE
  5
3A1
  8
0
  6
DASHDOT
 62
     7
 10
913.59890700000005
 20
520.59278099999995
 30
0.0
 11
926.59890700000005
 21
520.59278099999995
 31
0.0
  0
CIRCLE
  5
3A2
  8
0
 62
     7
 10
814.77345300000013
 20
666.70578
 30
0.0
 40
0.25
  0
LINE
  5
3A3
  8
0
  6
DASHDOT
 62
     7
 10
781.34562699999992
 20
591.59278099999995
 30
0.0
 11
979.30381799999986
 21
591.59278099999995
 31
0.0
  0
LINE
  5
3A4
  8
0
 62
     7
 10
770.05069000000003
 20
647.59278099999995
 30
0.0
 11
767.96682699999985
 21
635.77509299999986
 31
0.0
  0
LINE
  5
3A5
  8
0
 62
     7
 10
770.05069000000003
 20
647.59278099999995
 30
0.0
 11
772.13442999999995
 21
635.77509299999986
 31
0.0
  0
LINE
  5
3A6
  8
0
 62
     7
 10
770.05069000000003
 20
535.59278099999995
 30
0.0
 11
772.13442999999995
 21
547.41046900000003
 31
0.0
  0
LINE
  5
3A7
  8
0
 62
     7
 10
770.05069000000003
 20
535.59278099999995
 30
0.0
 11
767.96682699999985
 21
547.41046900000003
 31
0.0
  0
LINE
  5
3A8
  8
0
 62
     7
 10
770.05069000000003
 20
647.59278099999995
 30
0.0
 11
770.05069000000003
 21
535.59278099999995
 31
0.0
  0
LINE
  5
3A9
  8
0
 62
     7
 10
762.05069000000003
 20
647.59278099999995
 30
0.0
 11
824.09890700000005
 21
647.59278099999995
 31
0.0
  0
LINE
  5
3AA
  8
0
 62
     7
 10
762.05069000000003
 20
535.59278099999995
 30
0.0
 11
824.09890700000005
 21
535.59278099999995
 31
0.0
  0
LINE
  5
3AB
  8
0
 62
     7
 10
840.09890700000005
 20
696.85599500000001
 30
0.0
 11
851.91665599999999
 21
694.77222400000005
 31
0.0
  0
LINE
  5
3AC
  8
0
 62
     7
 10
840.09890700000005
 20
696.85599500000001
 30
0.0
 11
851.91665599999999
 21
698.93976599999985
 31
0.0
  0
LINE
  5
3AD
  8
0
 62
     7
 10
920.09890700000005
 20
696.85599500000001
 30
0.0
 11
908.28115799999989
 21
698.93976599999985
 31
0.0
  0
LINE
  5
3AE
  8
0
 62
     7
 10
920.09890700000005
 20
696.85599500000001
 30
0.0
 11
908.28115799999989
 21
694.77219400000001
 31
0.0
  0
LINE
  5
3AF
  8
0
 62
     7
 10
840.09890700000005
 20
696.85599500000001
 30
0.0
 11
920.09890700000005
 21
696.85599500000001
 31
0.0
  0
LINE
  5
3B0
  8
0
 62
     7
 10
840.09890700000005
 20
704.85599500000001
 30
0.0
 11
840.09890700000005
 21
669.09278099999995
 31
0.0
  0
LINE
  5
3B1
  8
0
 62
     7
 10
920.09890700000005
 20
704.85599500000001
 30
0.0
 11
920.09890700000005
 21
669.09278099999995
 31
0.0
  0
LINE
  5
3B2
  8
0
 62
     7
 10
824.09890700000005
 20
723.48865499999988
 30
0.0
 11
835.91665599999999
 21
721.40488400000004
 31
0.0
  0
LINE
  5
3B3
  8
0
 62
     7
 10
824.09890700000005
 20
723.48865499999988
 30
0.0
 11
835.91665599999999
 21
725.57245599999987
 31
0.0
  0
LINE
  5
3B4
  8
0
 62
     7
 10
936.09890700000005
 20
723.48865499999988
 30
0.0
 11
924.28115799999989
 21
725.57245599999987
 31
0.0
  0
LINE
  5
3B5
  8
0
 62
     7
 10
936.09890700000005
 20
723.48865499999988
 30
0.0
 11
924.28115799999989
 21
721.40488400000004
 31
0.0
  0
LINE
  5
3B6
  8
0
 62
     7
 10
824.09890700000005
 20
723.48865499999988
 30
0.0
 11
936.09890700000005
 21
723.48868600000003
 31
0.0
  0
LINE
  5
3B7
  8
0
 62
     7
 10
824.09890700000005
 20
731.48865499999988
 30
0.0
 11
824.09890700000005
 21
647.59278099999995
 31
0.0
  0
LINE
  5
3B8
  8
0
 62
     7
 10
936.09890700000005
 20
731.48865499999988
 30
0.0
 11
936.09890700000005
 21
647.59278099999995
 31
0.0
  0
LINE
  5
3B9
  8
0
 62
     7
 10
770.05069000000003
 20
647.59278099999995
 30
0.0
 11
767.96682699999985
 21
635.77509299999986
 31
0.0
  0
LINE
  5
3BA
  8
0
 62
     7
 10
770.05069000000003
 20
647.59278099999995
 30
0.0
 11
772.13442999999995
 21
635.77509299999986
 31
0.0
  0
LINE
  5
3BB
  8
0
 62
     7
 10
770.05069000000003
 20
535.59278099999995
 30
0.0
 11
772.13442999999995
 21
547.41046900000003
 31
0.0
  0
LINE
  5
3BC
  8
0
 62
     7
 10
770.05069000000003
 20
535.59278099999995
 30
0.0
 11
767.96682699999985
 21
547.41046900000003
 31
0.0
  0
LINE
  5
3BD
  8
0
 62
     7
 10
770.05069000000003
 20
647.59278099999995
 30
0.0
 11
770.05069000000003
 21
535.59278099999995
 31
0.0
  0
LINE
  5
3BE
  8
0
 62
     7
 10
762.05069000000003
 20
647.59278099999995
 30
0.0
 11
824.09890700000005
 21
647.59278099999995
 31
0.0
  0
LINE
  5
3BF
  8
0
 62
     7
 10
762.05069000000003
 20
535.59278099999995
 30
0.0
 11
824.09890700000005
 21
535.59278099999995
 31
0.0
  0
LINE
  5
3C0
  8
0
 62
     7
 10
735.60000600000001
 20
662.59278099999995
 30
0.0
 11
733.51626599999986
 21
650.77509299999997
 31
0.0
  0
LINE
  5
3C1
  8
0
 62
     7
 10
735.60000600000001
 20
662.59278099999995
 30
0.0
 11
737.68386799999985
 21
650.77509299999997
 31
0.0
  0
LINE
  5
3C2
  8
0
 62
     7
 10
735.60000600000001
 20
520.59278099999995
 30
0.0
 11
737.68386799999985
 21
532.41046900000003
 31
0.0
  0
LINE
  5
3C3
  8
0
 62
     7
 10
735.60000600000001
 20
520.59278099999995
 30
0.0
 11
733.51626599999986
 21
532.41046900000003
 31
0.0
  0
LINE
  5
3C4
  8
0
 62
     7
 10
735.60000600000001
 20
662.59278099999995
 30
0.0
 11
735.60000600000001
 21
520.59278099999995
 31
0.0
  0
LINE
  5
3C5
  8
0
 62
     7
 10
727.60000600000001
 20
662.59278099999995
 30
0.0
 11
833.59890700000005
 21
662.59278099999995
 31
0.0
  0
LINE
  5
3C6
  8
0
 62
     7
 10
727.60000600000001
 20
520.59278099999995
 30
0.0
 11
833.59890700000005
 21
520.59278099999995
 31
0.0
  0
LINE
  5
3C7
  8
0
 62
     7
 10
840.09890700000005
 20
696.85599500000001
 30
0.0
 11
851.91665599999999
 21
694.77222400000005
 31
0.0
  0
LINE
  5
3C8
  8
0
 62
     7
 10
840.09890700000005
 20
696.85599500000001
 30
0.0
 11
851.91665599999999
 21
698.93976599999985
 31
0.0
  0
LINE
  5
3C9
  8
0
 62
     7
 10
920.09890700000005
 20
696.85599500000001
 30
0.0
 11
908.28115799999989
 21
698.93976599999985
 31
0.0
  0
LINE
  5
3CA
  8
0
 62
     7
 10
920.09890700000005
 20
696.85599500000001
 30
0.0
 11
908.28115799999989
 21
694.77219400000001
 31
0.0
  0
LINE
  5
3CB
  8
0
 62
     7
 10
840.09890700000005
 20
696.85599500000001
 30
0.0
 11
920.09890700000005
 21
696.85599500000001
 31
0.0
  0
LINE
  5
3CC
  8
0
 62
     7
 10
840.09890700000005
 20
704.85599500000001
 30
0.0
 11
840.09890700000005
 21
669.09278099999995
 31
0.0
  0
LINE
  5
3CD
  8
0
 62
     7
 10
920.09890700000005
 20
704.85599500000001
 30
0.0
 11
920.09890700000005
 21
669.09278099999995
 31
0.0
  0
LINE
  5
3CE
  8
0
 62
     7
 10
824.09890700000005
 20
723.48865499999988
 30
0.0
 11
835.91665599999999
 21
721.40488400000004
 31
0.0
  0
LINE
  5
3CF
  8
0
 62
     7
 10
824.09890700000005
 20
723.48865499999988
 30
0.0
 11
835.91665599999999
 21
725.57245599999987
 31
0.0
  0
LINE
  5
3D0
  8
0
 62
     7
 10
936.09890700000005
 20
723.48865499999988
 30
0.0
 11
924.28115799999989
 21
725.57245599999987
 31
0.0
  0
LINE
  5
3D1
  8
0
 62
     7
 10
936.09890700000005
 20
723.48865499999988
 30
0.0
 11
924.28115799999989
 21
721.40488400000004
 31
0.0
  0
LINE
  5
3D2
  8
0
 62
     7
 10
824.09890700000005
 20
723.48865499999988
 30
0.0
 11
936.09890700000005
 21
723.48868600000003
 31
0.0
  0
LINE
  5
3D3
  8
0
 62
     7
 10
824.09890700000005
 20
731.48865499999988
 30
0.0
 11
824.09890700000005
 21
647.59278099999995
 31
0.0
  0
LINE
  5
3D4
  8
0
 62
     7
 10
936.09890700000005
 20
731.48865499999988
 30
0.0
 11
936.09890700000005
 21
647.59278099999995
 31
0.0
  0
LINE
  5
3D5
  8
0
 62
     7
 10
837.31143199999997
 20
518.47625000000005
 30
0.0
 11
826.63919099999987
 21
512.98940300000004
 31
0.0
  0
LINE
  5
3D6
  8
0
 62
     7
 10
837.31143199999997
 20
518.47625000000005
 30
0.0
 11
829.15945399999998
 21
509.67021899999997
 31
0.0
  0
LINE
  5
3D7
  8
0
 62
     7
 10
842.88638300000002
 20
522.70931199999995
 30
0.0
 11
853.55862400000001
 21
528.19615899999985
 31
0.0
  0
LINE
  5
3D8
  8
0
 62
     7
 10
842.88638300000002
 20
522.70931199999995
 30
0.0
 11
851.0383609999999
 21
531.51535799999988
 31
0.0
  0
LINE
  5
3D9
  8
0
 62
     7
 10
842.88638300000002
 20
522.70931199999995
 30
0.0
 11
787.81277499999987
 21
480.89254
 31
0.0
  0
POINT
  5
3DA
  8
0
 62
     7
 10
103.4495469999999
 20
543.42711999999995
 30
0.0
  0
LINE
  5
3DB
  8
0
 62
     3
 10
233.10480499999991
 20
511.64279599999998
 30
0.0
 11
161.10480499999991
 21
511.64279599999998
 31
0.0
  0
LINE
  5
3DC
  8
0
 62
     7
 10
161.10480499999991
 20
506.34279400000003
 30
0.0
 11
161.10480499999991
 21
549.13701600000002
 31
0.0
  0
LINE
  5
3DD
  8
0
 62
     7
 10
161.10480499999991
 20
549.13698599999987
 30
0.0
 11
161.10480499999991
 21
681.34278099999995
 31
0.0
  0
LINE
  5
3DE
  8
0
 62
     7
 10
159.10480499999991
 20
658.47440300000005
 30
0.0
 11
159.10480499999991
 21
668.34275100000002
 31
0.0
  0
LINE
  5
3DF
  8
0
 62
     7
 10
229.6048009999999
 20
607.842758
 30
0.0
 11
229.60478199999989
 21
616.09278099999995
 31
0.0
  0
LINE
  5
3E0
  8
0
 62
     7
 10
232.10474599999989
 20
662.34278099999995
 30
0.0
 11
232.811869
 21
662.63567399999999
 31
0.0
  0
LINE
  5
3E1
  8
0
 62
     7
 10
232.81188199999991
 20
662.63564299999985
 30
0.0
 11
233.10477399999999
 21
663.34275100000002
 31
0.0
  0
LINE
  5
3E2
  8
0
 62
     7
 10
229.60479000000001
 20
655.34278099999995
 30
0.0
 11
229.60480499999991
 21
662.34278099999995
 31
0.0
  0
LINE
  5
3E3
  8
0
 62
     7
 10
232.10477399999999
 20
662.34278099999995
 30
0.0
 11
229.60480499999991
 21
662.34278099999995
 31
0.0
  0
LINE
  5
3E4
  8
0
 62
     7
 10
229.60479000000001
 20
616.09278099999995
 30
0.0
 11
229.60479000000001
 21
655.34278099999995
 31
0.0
  0
LINE
  5
3E5
  8
0
 62
     7
 10
225.10480499999991
 20
565.34278099999995
 30
0.0
 11
225.10480499999991
 21
605.84278099999995
 31
0.0
  0
LINE
  5
3E6
  8
0
 62
     7
 10
225.10483599999989
 20
605.84283400000004
 30
0.0
 11
225.37277999999989
 21
606.84283400000004
 31
0.0
  0
LINE
  5
3E7
  8
0
 62
     7
 10
225.37281400000001
 20
606.84287300000005
 30
0.0
 11
226.1048549999999
 21
607.574928
 31
0.0
  0
LINE
  5
3E8
  8
0
 62
     7
 10
226.10475199999991
 20
607.57481399999995
 30
0.0
 11
227.1047669999999
 21
607.842758
 31
0.0
  0
LINE
  5
3E9
  8
0
 62
     7
 10
233.10480499999991
 20
565.34278099999995
 30
0.0
 11
225.10480499999991
 21
565.34278099999995
 31
0.0
  0
LINE
  5
3EA
  8
0
 62
     7
 10
233.10476299999999
 20
550.34276599999987
 30
0.0
 11
232.1046869999999
 21
551.34276599999987
 31
0.0
  0
LINE
  5
3EB
  8
0
 62
     7
 10
232.10471000000001
 20
562.34278899999993
 30
0.0
 11
233.1048009999999
 21
563.34278899999993
 31
0.0
  0
LINE
  5
3EC
  8
0
 62
     7
 10
232.1046959999999
 20
562.34275099999991
 30
0.0
 11
169.33689099999989
 21
562.34275099999991
 31
0.0
  0
LINE
  5
3ED
  8
0
 62
     7
 10
232.10471200000001
 20
551.34278099999995
 30
0.0
 11
169.3368449999999
 21
551.34278099999995
 31
0.0
  0
LINE
  5
3EE
  8
0
 62
     7
 10
169.33688399999991
 20
562.34273499999995
 30
0.0
 11
165.60479699999991
 21
563.34275100000002
 31
0.0
  0
LINE
  5
3EF
  8
0
 62
     7
 10
165.60483599999989
 20
563.34274299999993
 30
0.0
 11
162.10479699999999
 21
564.28057899999988
 31
0.0
  0
LINE
  5
3F0
  8
0
 62
     7
 10
161.10480499999991
 20
549.13701600000002
 30
0.0
 11
169.3368449999999
 21
551.34278099999995
 31
0.0
  0
LINE
  5
3F1
  8
0
 62
     7
 10
161.1048199999999
 20
566.63708499999996
 30
0.0
 11
162.10481299999989
 21
566.90502900000001
 31
0.0
  0
LINE
  5
3F2
  8
0
 62
     7
 10
165.10480499999991
 20
542.84276599999987
 30
0.0
 11
161.10480499999991
 21
542.84276599999987
 31
0.0
  0
LINE
  5
3F3
  8
0
 62
     7
 10
165.10480499999991
 20
511.64279599999998
 30
0.0
 11
165.10480499999991
 21
542.84276599999987
 31
0.0
  0
LINE
  5
3F4
  8
0
 62
     7
 10
162.10480499999991
 20
549.404945
 30
0.0
 11
162.10480499999991
 21
593.84276599999998
 31
0.0
  0
LINE
  5
3F5
  8
0
 62
     7
 10
165.604805
 20
563.34278099999995
 30
0.0
 11
165.604805
 21
588.34278099999995
 31
0.0
  0
LINE
  5
3F6
  8
0
 62
     7
 10
164.104805
 20
593.84276599999998
 30
0.0
 11
161.10480499999991
 21
593.84276599999998
 31
0.0
  0
LINE
  5
3F7
  8
0
 62
     7
 10
164.85481299999989
 20
593.64179999999988
 30
0.0
 11
164.10481299999989
 21
593.84275799999989
 31
0.0
  0
LINE
  5
3F8
  8
0
 62
     7
 10
164.85481299999989
 20
593.64179999999988
 30
0.0
 11
164.10481299999989
 21
593.84275799999989
 31
0.0
  0
LINE
  5
3F9
  8
0
 62
     7
 10
165.4038469999999
 20
593.09275100000002
 30
0.0
 11
164.854805
 21
593.64179200000001
 31
0.0
  0
LINE
  5
3FA
  8
0
 62
     7
 10
165.60478999999989
 20
592.34273499999995
 30
0.0
 11
165.40383099999991
 21
593.09273499999995
 31
0.0
  0
LINE
  5
3FB
  8
0
 62
     7
 10
165.6048199999999
 20
588.34276599999987
 30
0.0
 11
165.6048199999999
 21
592.34275100000002
 31
0.0
  0
LINE
  5
3FC
  8
0
 62
     7
 10
165.40385399999991
 20
587.59275799999989
 30
0.0
 11
165.49907699999989
 21
587.94813499999987
 31
0.0
  0
LINE
  5
3FD
  8
0
 62
     7
 10
165.49906899999991
 20
587.948128
 30
0.0
 11
165.60481299999989
 21
588.34276599999987
 31
0.0
  0
LINE
  5
3FE
  8
0
 62
     7
 10
164.854805
 20
587.04368599999987
 30
0.0
 11
165.4038469999999
 21
587.59272799999997
 31
0.0
  0
LINE
  5
3FF
  8
0
 62
     7
 10
164.10478999999989
 20
586.84274299999993
 30
0.0
 11
164.85478999999989
 21
587.04370099999994
 31
0.0
  0
LINE
  5
400
  8
0
 62
     7
 10
164.104805
 20
586.84276599999998
 30
0.0
 11
162.10480499999991
 21
586.84276599999998
 31
0.0
  0
LINE
  5
401
  8
0
 62
     7
 10
161.10480499999991
 20
519.34276599999998
 30
0.0
 11
159.10480499999991
 21
519.34276599999998
 31
0.0
  0
LINE
  5
402
  8
0
 62
     7
 10
161.10480499999991
 20
668.34275100000002
 30
0.0
 11
159.10480499999991
 21
668.34275100000002
 31
0.0
  0
LINE
  5
403
  8
0
 62
     7
 10
161.10480499999991
 20
658.47440300000005
 30
0.0
 11
159.10480499999991
 21
658.47440300000005
 31
0.0
  0
LINE
  5
404
  8
0
 62
     7
 10
168.40381599999989
 20
551.09277299999997
 30
0.0
 11
165.60478199999989
 21
551.84277299999997
 31
0.0
  0
LINE
  5
405
  8
0
 62
     7
 10
165.60477399999991
 20
551.84278099999995
 30
0.0
 11
165.60477399999991
 21
561.84278099999995
 31
0.0
  0
LINE
  5
406
  8
0
 62
     7
 10
165.60477399999991
 20
561.84276599999998
 30
0.0
 11
168.403831
 21
562.59276599999998
 31
0.0
  0
LINE
  5
407
  8
0
 62
     7
 10
161.10480499999991
 20
529.34276599999987
 30
0.0
 11
159.10480499999991
 21
529.34276599999987
 31
0.0
  0
LINE
  5
408
  8
0
 62
     7
 10
165.40385399999991
 20
587.06346900000005
 30
0.0
 11
165.60481299999989
 21
587.94814299999985
 31
0.0
  0
LINE
  5
409
  8
0
 62
     7
 10
165.604805
 20
587.94814299999985
 30
0.0
 11
165.49906200000001
 21
587.94814299999985
 31
0.0
  0
LINE
  5
40A
  8
0
 62
     7
 10
165.47082499999991
 20
573.84275799999989
 30
0.0
 11
165.60479699999991
 21
573.94221500000003
 31
0.0
  0
LINE
  5
40B
  8
0
 62
     7
 10
165.4708399999999
 20
573.84271999999999
 30
0.0
 11
165.4038469999999
 21
573.89244799999994
 31
0.0
  0
LINE
  5
40C
  8
0
 62
     7
 10
165.604805
 20
583.84278099999995
 30
0.0
 11
165.4038469999999
 21
583.84278099999995
 31
0.0
  0
LINE
  5
40D
  8
0
 62
     7
 10
165.40383899999989
 20
577.79299200000003
 30
0.0
 11
165.47082499999991
 21
577.84271999999999
 31
0.0
  0
LINE
  5
40E
  8
0
 62
     7
 10
165.604805
 20
577.74329399999988
 30
0.0
 11
165.470833
 21
577.84275100000002
 31
0.0
  0
LINE
  5
40F
  8
0
 62
     7
 10
165.51300800000001
 20
585.56484999999998
 30
0.0
 11
165.40383899999989
 21
586.17462199999989
 31
0.0
  0
LINE
  5
410
  8
0
 62
     7
 10
165.604805
 20
583.84278099999995
 30
0.0
 11
165.51301599999991
 21
585.56485699999996
 31
0.0
  0
LINE
  5
411
  8
0
 62
     7
 10
165.40383899999989
 20
573.89247899999987
 30
0.0
 11
164.88848100000001
 21
573.99498700000004
 31
0.0
  0
LINE
  5
412
  8
0
 62
     7
 10
164.88848100000001
 20
573.99499500000002
 30
0.0
 11
164.854805
 21
574.01750199999992
 31
0.0
  0
LINE
  5
413
  8
0
 62
     7
 10
164.85478999999989
 20
577.66800699999999
 30
0.0
 11
164.88846599999999
 21
577.69051400000001
 31
0.0
  0
LINE
  5
414
  8
0
 62
     7
 10
164.88847399999989
 20
577.6905059999998
 30
0.0
 11
165.40383099999991
 21
577.79301500000008
 31
0.0
  0
LINE
  5
415
  8
0
 62
     7
 10
165.4038469999999
 20
583.84278099999995
 30
0.0
 11
164.854805
 21
583.84278099999995
 31
0.0
  0
LINE
  5
416
  8
0
 62
     7
 10
164.85479699999991
 20
574.01748699999985
 30
0.0
 11
164.10479699999991
 21
574.15176399999984
 31
0.0
  0
LINE
  5
417
  8
0
 62
     7
 10
164.10479699999991
 20
577.53372999999999
 30
0.0
 11
164.85479699999991
 21
577.66800699999999
 31
0.0
  0
LINE
  5
418
  8
0
 62
     7
 10
164.854805
 20
583.84278099999995
 30
0.0
 11
164.104805
 21
583.84278099999995
 31
0.0
  0
LINE
  5
419
  8
0
 62
     7
 10
164.104805
 20
577.53374500000007
 30
0.0
 11
162.10480499999991
 21
577.53374500000007
 31
0.0
  0
LINE
  5
41A
  8
0
 62
     7
 10
164.104805
 20
583.84278099999995
 30
0.0
 11
162.10480499999991
 21
583.84278099999995
 31
0.0
  0
LINE
  5
41B
  8
0
 62
     7
 10
164.104805
 20
574.15178700000001
 30
0.0
 11
162.10480499999991
 21
574.15178700000001
 31
0.0
  0
LINE
  5
41C
  8
0
 62
     3
 10
255.30480199999991
 20
676.04279299999985
 30
0.0
 11
161.10480499999991
 21
676.04279299999985
 31
0.0
  0
LINE
  5
41D
  8
0
 62
     3
 10
255.30480199999991
 20
511.64279599999998
 30
0.0
 11
233.10480499999991
 21
511.64279599999998
 31
0.0
  0
LINE
  5
41E
  8
0
 62
     3
 10
233.10480499999991
 20
511.64279599999998
 30
0.0
 11
233.10480499999991
 21
551.09278099999995
 31
0.0
  0
LINE
  5
41F
  8
0
 62
     3
 10
233.10480499999991
 20
562.59276599999998
 30
0.0
 11
233.10480499999991
 21
565.34284200000002
 31
0.0
  0
LINE
  5
420
  8
0
 62
     3
 10
233.10480499999991
 20
663.34282699999994
 30
0.0
 11
233.10480499999991
 21
676.04279299999985
 31
0.0
  0
LINE
  5
421
  8
0
 62
     3
 10
262.604805
 20
606.79164899999989
 30
0.0
 11
262.604805
 21
616.34246099999996
 31
0.0
  0
LINE
  5
422
  8
0
 62
     3
 10
262.60479700000002
 20
549.34248400000001
 30
0.0
 11
262.60475099999991
 21
555.89320399999997
 31
0.0
  0
LINE
  5
423
  8
0
 62
     3
 10
255.30480199999991
 20
511.64279900000002
 30
0.0
 11
255.30480199999991
 21
533.59280000000001
 31
0.0
  0
LINE
  5
424
  8
0
 62
     3
 10
255.304799
 20
562.59278099999995
 30
0.0
 11
233.1048009999999
 21
562.59278099999995
 31
0.0
  0
LINE
  5
425
  8
0
 62
     3
 10
255.30479999999989
 20
551.09278099999995
 30
0.0
 11
233.10480299999989
 21
551.09278099999995
 31
0.0
  0
LINE
  5
426
  8
0
 62
     1
 10
260.604804
 20
654.59278099999995
 30
0.0
 11
255.30480199999991
 21
654.59278099999995
 31
0.0
  0
LINE
  5
427
  8
0
 62
     1
 10
264.53158300000001
 20
539.16601900000001
 30
0.0
 11
264.561913
 21
539.23924299999999
 31
0.0
  0
LINE
  5
428
  8
0
 62
     1
 10
264.53158300000001
 20
539.16601900000001
 30
0.0
 11
264.561913
 21
539.23924299999999
 31
0.0
  0
LINE
  5
429
  8
0
 62
     1
 10
264.53158300000001
 20
539.16601900000001
 30
0.0
 11
264.561913
 21
539.23924299999999
 31
0.0
  0
LINE
  5
42A
  8
0
 62
     1
 10
258.104805
 20
533.59279600000002
 30
0.0
 11
257.604805
 21
533.59279600000002
 31
0.0
  0
LINE
  5
42B
  8
0
 62
     1
 10
260.604804
 20
533.59282299999995
 30
0.0
 11
255.30480199999991
 21
533.59282299999995
 31
0.0
  0
LINE
  5
42C
  8
0
 62
     2
 10
271.60611499999987
 20
539.59278099999995
 30
0.0
 11
271.60611499999987
 21
541.59278099999995
 31
0.0
  0
LINE
  5
42D
  8
0
 62
     2
 10
262.60611499999987
 20
539.09278099999995
 30
0.0
 11
262.60611499999987
 21
644.09278099999995
 31
0.0
  0
LINE
  5
42E
  8
0
 62
     2
 10
266.10477999999989
 20
644.09278099999995
 30
0.0
 11
260.604804
 21
644.09278099999995
 31
0.0
  0
LINE
  5
42F
  8
0
 62
     2
 10
266.10477999999989
 20
539.09278099999995
 30
0.0
 11
260.604804
 21
539.09278099999995
 31
0.0
  0
LINE
  5
430
  8
0
 62
     2
 10
271.60605499999991
 20
558.59276599999998
 30
0.0
 11
271.60592100000002
 21
570.59276599999987
 31
0.0
  0
LINE
  5
431
  8
0
 62
     2
 10
271.60591299999999
 20
571.59275799999989
 30
0.0
 11
271.60596699999991
 21
591.092758
 31
0.0
  0
LINE
  5
432
  8
0
 62
     7
 10
229.60479699999999
 20
607.842758
 30
0.0
 11
227.1047669999999
 21
607.842758
 31
0.0
  0
LINE
  5
433
  8
0
 62
     7
 10
260.604804
 20
644.09278099999995
 30
0.0
 11
260.604804
 21
654.59278099999995
 31
0.0
  0
LINE
  5
434
  8
0
 62
     7
 10
260.604804
 20
533.59279600000002
 30
0.0
 11
260.604804
 21
539.09278099999995
 31
0.0
  0
LINE
  5
435
  8
0
 62
     3
 10
255.30480199999991
 20
654.59278099999995
 30
0.0
 11
255.30480199999991
 21
676.04279299999985
 31
0.0
  0
LINE
  5
436
  8
0
 62
     3
 10
255.30480199999991
 20
533.59280000000001
 30
0.0
 11
255.30480199999991
 21
654.59278099999995
 31
0.0
  0
ARC
  5
437
  8
0
 62
     7
 10
292.280846
 20
569.54889700000001
 30
0.0
 40
1.0
 50
348.62360999999993
 51
76.688818000000012
  0
ARC
  5
438
  8
0
 62
     7
 10
291.08410299999991
 20
563.60108200000002
 30
0.0
 40
1.000000999999999
 50
260.59401500000001
 51
348.62360999999993
  0
LINE
  5
439
  8
0
  6
DASHDOT
 62
     7
 10
307.08143200000001
 20
563.440247
 30
0.0
 11
256.96474099999989
 21
573.52406299999996
 31
0.0
  0
LINE
  5
43A
  8
0
 62
     7
 10
292.51108399999993
 20
570.52203399999985
 30
0.0
 11
271.60592400000002
 21
575.46810900000003
 31
0.0
  0
LINE
  5
43B
  8
0
 62
     7
 10
292.06445699999989
 20
563.40382399999987
 30
0.0
 11
293.26119799999992
 21
569.35164599999985
 31
0.0
  0
LINE
  5
43C
  8
0
 62
     7
 10
290.92067500000002
 20
562.61452499999984
 30
0.0
 11
271.60597399999989
 21
565.81412499999988
 31
0.0
  0
ARC
  5
43D
  8
0
  6
DASHDOT
 62
     7
 10
218.105602
 20
581.34278099999995
 30
0.0
 40
76.044273000000004
 50
337.49231500000002
 51
0.000001
  0
LINE
  5
43E
  8
0
  6
DASHDOT
 62
     7
 10
294.14987200000002
 20
581.34278099999995
 30
0.0
 11
294.14987200000002
 21
587.0929789999999
 31
0.0
  0
LINE
  5
43F
  8
0
 62
     7
 10
159.10480499999991
 20
519.34276599999998
 30
0.0
 11
159.10480499999991
 21
529.34276599999987
 31
0.0
  0
LINE
  5
440
  8
0
 62
     6
 10
111.6047589999999
 20
563.842758
 30
0.0
 11
115.604759
 21
563.84277299999997
 31
0.0
  0
LINE
  5
441
  8
0
 62
     6
 10
111.6047589999999
 20
556.84275799999989
 30
0.0
 11
115.604759
 21
556.84277299999997
 31
0.0
  0
LINE
  5
442
  8
0
 62
     7
 10
111.104759
 20
509.84278099999989
 30
0.0
 11
111.104759
 21
534.84278099999995
 31
0.0
  0
LINE
  5
443
  8
0
 62
     3
 10
111.104759
 20
652.84278099999995
 30
0.0
 11
111.104759
 21
677.84278099999995
 31
0.0
  0
LINE
  5
444
  8
0
 62
     7
 10
159.10480499999991
 20
511.64278400000001
 30
0.0
 11
122.1047589999999
 21
511.64278400000001
 31
0.0
  0
LINE
  5
445
  8
0
 62
     3
 10
159.10480499999991
 20
676.04279299999985
 30
0.0
 11
122.1047589999999
 21
676.04279299999985
 31
0.0
  0
LINE
  5
446
  8
0
 62
     6
 10
159.10480499999991
 20
508.84278099999989
 30
0.0
 11
159.10480499999991
 21
678.84278099999995
 31
0.0
  0
LINE
  5
447
  8
0
 62
     6
 10
115.604759
 20
553.84273499999995
 30
0.0
 11
115.604759
 21
556.84277299999997
 31
0.0
  0
LINE
  5
448
  8
0
 62
     6
 10
122.1047589999999
 20
508.84278099999989
 30
0.0
 11
122.1047589999999
 21
509.84278099999989
 31
0.0
  0
LINE
  5
449
  8
0
 62
     3
 10
122.1047589999999
 20
625.84278099999995
 30
0.0
 11
115.604759
 21
625.84278099999995
 31
0.0
  0
LINE
  5
44A
  8
0
 62
     6
 10
122.1047589999999
 20
633.84278099999995
 30
0.0
 11
122.1047589999999
 21
650.34278099999995
 31
0.0
  0
LINE
  5
44B
  8
0
 62
     7
 10
122.1047589999999
 20
546.84271999999987
 30
0.0
 11
115.604759
 21
546.84271999999987
 31
0.0
  0
LINE
  5
44C
  8
0
 62
     7
 10
115.604759
 20
546.84271999999987
 30
0.0
 11
115.604759
 21
550.34278099999995
 31
0.0
  0
LINE
  5
44D
  8
0
 62
     7
 10
158.10483600000001
 20
562.342758
 30
0.0
 11
115.60477399999991
 21
562.342758
 31
0.0
  0
LINE
  5
44E
  8
0
 62
     7
 10
158.104828
 20
562.342758
 30
0.0
 11
159.10479699999991
 21
563.34277300000008
 31
0.0
  0
LINE
  5
44F
  8
0
 62
     7
 10
158.1048199999999
 20
551.34279600000002
 30
0.0
 11
115.604759
 21
551.34279600000002
 31
0.0
  0
LINE
  5
450
  8
0
 62
     7
 10
159.10480499999991
 20
550.34276599999987
 30
0.0
 11
158.10483600000001
 21
551.34278099999995
 31
0.0
  0
LINE
  5
451
  8
0
 62
     6
 10
109.6047439999999
 20
537.34277699999996
 30
0.0
 11
109.6047589999999
 21
550.34277300000008
 31
0.0
  0
LINE
  5
452
  8
0
 62
     6
 10
109.6047589999999
 20
637.34276599999987
 30
0.0
 11
109.6047439999999
 21
650.34276599999987
 31
0.0
  0
LINE
  5
453
  8
0
 62
     3
 10
115.604759
 20
625.84278099999995
 30
0.0
 11
115.604759
 21
629.84278099999995
 31
0.0
  0
LINE
  5
454
  8
0
 62
     6
 10
159.10480499999991
 20
535.84278099999995
 30
0.0
 11
159.10480499999991
 21
536.84278099999995
 31
0.0
  0
LINE
  5
455
  8
0
 62
     2
 10
111.6047589999999
 20
650.84278099999995
 30
0.0
 11
110.104759
 21
650.84278099999995
 31
0.0
  0
LINE
  5
456
  8
0
 62
     2
 10
111.6047589999999
 20
536.84278099999995
 30
0.0
 11
110.104759
 21
536.84278099999995
 31
0.0
  0
LINE
  5
457
  8
0
 62
     2
 10
111.6047589999999
 20
650.34278099999995
 30
0.0
 11
111.6047589999999
 21
650.84278099999995
 31
0.0
  0
LINE
  5
458
  8
0
 62
     2
 10
111.6047589999999
 20
550.34288800000002
 30
0.0
 11
111.6047589999999
 21
637.34278099999995
 31
0.0
  0
LINE
  5
459
  8
0
 62
     2
 10
111.6047589999999
 20
536.84278099999995
 30
0.0
 11
111.6047589999999
 21
537.34285699999987
 31
0.0
  0
LINE
  5
45A
  8
0
 62
     2
 10
110.104759
 20
536.84278099999995
 30
0.0
 11
110.104759
 21
537.34276599999987
 31
0.0
  0
LINE
  5
45B
  8
0
 62
     2
 10
110.104759
 20
550.34276599999987
 30
0.0
 11
110.104759
 21
637.34270500000002
 31
0.0
  0
LINE
  5
45C
  8
0
 62
     2
 10
110.104759
 20
650.34270499999991
 30
0.0
 11
110.104759
 21
650.84278099999995
 31
0.0
  0
LINE
  5
45D
  8
0
 62
     3
 10
110.104759
 20
652.34278099999995
 30
0.0
 11
110.104759
 21
678.34278099999995
 31
0.0
  0
LINE
  5
45E
  8
0
 62
     3
 10
118.10477400000001
 20
677.84278099999995
 30
0.0
 11
118.10477400000001
 21
679.34278099999995
 31
0.0
  0
LINE
  5
45F
  8
0
 62
     3
 10
118.10477400000001
 20
651.34278099999995
 30
0.0
 11
118.10477400000001
 21
652.84281199999998
 31
0.0
  0
LINE
  5
460
  8
0
 62
     6
 10
122.1047589999999
 20
534.84278099999995
 30
0.0
 11
118.10477400000001
 21
534.84278099999995
 31
0.0
  0
LINE
  5
461
  8
0
 62
     7
 10
121.10478999999999
 20
534.84278099999995
 30
0.0
 11
111.104759
 21
534.84278099999995
 31
0.0
  0
LINE
  5
462
  8
0
 62
     7
 10
122.1047589999999
 20
509.84278099999989
 30
0.0
 11
111.104759
 21
509.84278099999989
 31
0.0
  0
LINE
  5
463
  8
0
 62
     3
 10
121.10478999999999
 20
652.84278099999995
 30
0.0
 11
111.104759
 21
652.84278099999995
 31
0.0
  0
LINE
  5
464
  8
0
 62
     6
 10
122.1047589999999
 20
652.84278099999995
 30
0.0
 11
118.10477400000001
 21
652.84278099999995
 31
0.0
  0
LINE
  5
465
  8
0
 62
     3
 10
118.10477400000001
 20
677.84278099999995
 30
0.0
 11
111.104759
 21
677.84278099999995
 31
0.0
  0
LINE
  5
466
  8
0
 62
     6
 10
122.1047439999999
 20
537.34278099999995
 30
0.0
 11
109.6047439999999
 21
537.34278099999995
 31
0.0
  0
LINE
  5
467
  8
0
 62
     6
 10
115.604759
 20
550.34278099999995
 30
0.0
 11
109.6047589999999
 21
550.34278099999995
 31
0.0
  0
LINE
  5
468
  8
0
 62
     6
 10
122.1047439999999
 20
650.34278099999995
 30
0.0
 11
109.6047439999999
 21
650.34278099999995
 31
0.0
  0
LINE
  5
469
  8
0
 62
     6
 10
122.1047589999999
 20
637.34278099999995
 30
0.0
 11
109.6047589999999
 21
637.34278099999995
 31
0.0
  0
LINE
  5
46A
  8
0
 62
     6
 10
122.104607
 20
633.84278099999995
 30
0.0
 11
111.6047589999999
 21
633.84278099999995
 31
0.0
  0
LINE
  5
46B
  8
0
 62
     3
 10
122.10468299999999
 20
629.84278099999995
 30
0.0
 11
115.604759
 21
629.84278099999995
 31
0.0
  0
LINE
  5
46C
  8
0
 62
     6
 10
115.604759
 20
625.84278099999995
 30
0.0
 11
111.6047589999999
 21
625.84278099999995
 31
0.0
  0
LINE
  5
46D
  8
0
 62
     3
 10
110.104744
 20
678.34281199999987
 30
0.0
 11
111.1047439999999
 21
679.34281199999987
 31
0.0
  0
LINE
  5
46E
  8
0
 62
     3
 10
111.104698
 20
651.34284200000002
 30
0.0
 11
110.104698
 21
652.34284200000002
 31
0.0
  0
LINE
  5
46F
  8
0
 62
     3
 10
118.10477400000001
 20
679.34278099999995
 30
0.0
 11
111.104759
 21
679.34278099999995
 31
0.0
  0
LINE
  5
470
  8
0
 62
     3
 10
118.10477400000001
 20
651.34278099999995
 30
0.0
 11
111.104759
 21
651.34278099999995
 31
0.0
  0
LINE
  5
471
  8
0
 62
     3
 10
118.10477400000001
 20
508.34278099999989
 30
0.0
 11
111.104759
 21
508.34278099999989
 31
0.0
  0
LINE
  5
472
  8
0
 62
     3
 10
111.1047439999999
 20
508.34274499999998
 30
0.0
 11
110.104744
 21
509.34274499999998
 31
0.0
  0
LINE
  5
473
  8
0
 62
     3
 10
110.104759
 20
509.34278099999989
 30
0.0
 11
110.104759
 21
535.34278099999995
 31
0.0
  0
LINE
  5
474
  8
0
 62
     3
 10
110.104698
 20
535.34271999999987
 30
0.0
 11
111.104698
 21
536.34271999999999
 31
0.0
  0
LINE
  5
475
  8
0
 62
     3
 10
118.10477400000001
 20
536.34278099999995
 30
0.0
 11
111.104759
 21
536.34278099999995
 31
0.0
  0
LINE
  5
476
  8
0
 62
     3
 10
118.10477400000001
 20
534.84275100000002
 30
0.0
 11
118.10477400000001
 21
536.34278099999995
 31
0.0
  0
LINE
  5
477
  8
0
 62
     3
 10
118.10477400000001
 20
508.34278099999989
 30
0.0
 11
118.10477400000001
 21
509.84278099999989
 31
0.0
  0
LINE
  5
478
  8
0
  6
DASHDOT
 62
     7
 10
109.6047439999999
 20
650.34278099999995
 30
0.0
 11
109.6047439999999
 21
732.601494
 31
0.0
  0
LINE
  5
479
  8
0
  6
DASHDOT
 62
     7
 10
109.6047589999999
 20
550.34277300000008
 30
0.0
 11
109.6047589999999
 21
637.34278099999995
 31
0.0
  0
LINE
  5
47A
  8
0
  6
DASHDOT
 62
     7
 10
109.6047439999999
 20
484.79320000000001
 30
0.0
 11
109.6047439999999
 21
537.34277699999996
 31
0.0
  0
LINE
  5
47B
  8
0
  6
DASHDOT
 62
     7
 10
106.6047589999999
 20
484.69697500000001
 30
0.0
 11
106.6047589999999
 21
734.02996099999996
 31
0.0
  0
POLYLINE
  5
47C
  8
0
 62
     7
 66
     1
 10
0.0
 20
0.0
 30
0.0
  0
VERTEX
  5
C95
  8
0
 62
     7
 10
101.17910000000001
 20
484.59192300000001
 30
0.0
  0
VERTEX
  5
C96
  8
0
 62
     7
 10
112.3023449999999
 20
484.8072929999999
 30
0.0
  0
VERTEX
  5
C97
  8
0
 62
     7
 10
113.263435
 20
486.82627699999989
 30
0.0
  0
VERTEX
  5
C98
  8
0
 62
     7
 10
114.34069099999989
 20
482.84638499999988
 30
0.0
  0
VERTEX
  5
C99
  8
0
 62
     7
 10
115.30178100000001
 20
484.86536899999999
 30
0.0
  0
SEQEND
  5
C9A
  8
0
 62
     7
  0
LINE
  5
483
  8
0
 62
     7
 10
122.1047589999999
 20
509.84278099999989
 30
0.0
 11
118.10477400000001
 21
509.84278099999989
 31
0.0
  0
LINE
  5
484
  8
0
 62
     7
 10
122.1047589999999
 20
537.34278099999995
 30
0.0
 11
122.1047589999999
 21
546.84268999999995
 31
0.0
  0
LINE
  5
485
  8
0
 62
     6
 10
122.1047589999999
 20
534.84278099999995
 30
0.0
 11
122.1047589999999
 21
537.34278099999995
 31
0.0
  0
LINE
  5
486
  8
0
 62
     3
 10
115.604759
 20
556.84277299999997
 30
0.0
 11
115.604759
 21
563.84277299999997
 31
0.0
  0
LINE
  5
487
  8
0
 62
     6
 10
115.604759
 20
550.34278099999995
 30
0.0
 11
115.604759
 21
553.84273499999995
 31
0.0
  0
LINE
  5
488
  8
0
 62
     6
 10
115.604759
 20
563.84277299999997
 30
0.0
 11
115.604759
 21
625.84276599999987
 31
0.0
  0
LINE
  5
489
  8
0
 62
     7
 10
122.1047589999999
 20
509.84278099999989
 30
0.0
 11
122.1047589999999
 21
534.84278099999995
 31
0.0
  0
LINE
  5
48A
  8
0
 62
     6
 10
122.1047589999999
 20
677.84278099999995
 30
0.0
 11
122.1047589999999
 21
678.84278099999995
 31
0.0
  0
LINE
  5
48B
  8
0
 62
     3
 10
122.1047589999999
 20
652.84278099999995
 30
0.0
 11
122.1047589999999
 21
677.84278099999995
 31
0.0
  0
LINE
  5
48C
  8
0
 62
     6
 10
122.1047589999999
 20
650.34278099999995
 30
0.0
 11
122.1047589999999
 21
652.84278099999995
 31
0.0
  0
LINE
  5
48D
  8
0
 62
     6
 10
122.1047589999999
 20
677.84278099999995
 30
0.0
 11
118.10477400000001
 21
677.84278099999995
 31
0.0
  0
LINE
  5
48E
  8
0
 62
     3
 10
122.1047589999999
 20
625.84278099999995
 30
0.0
 11
122.1047589999999
 21
633.84278099999995
 31
0.0
  0
LINE
  5
48F
  8
0
  6
DASHDOT
 62
     7
 10
138.96386000000001
 20
643.84278099999995
 30
0.0
 11
92.525550999999993
 21
643.84278099999995
 31
0.0
  0
LINE
  5
490
  8
0
  6
DASHDOT
 62
     7
 10
136.42913799999999
 20
543.84278099999995
 30
0.0
 11
93.054130999999998
 21
543.84278099999995
 31
0.0
  0
CIRCLE
  5
491
  8
0
 62
     7
 10
132.6137469999999
 20
657.28147100000001
 30
0.0
 40
0.2
  0
LINE
  5
492
  8
0
 62
     1
 10
266.10477999999989
 20
536.5863609999999
 30
0.0
 11
266.10477999999989
 21
538.58636100000001
 31
0.0
  0
LINE
  5
493
  8
0
 62
     1
 10
268.10477999999989
 20
536.5863609999999
 30
0.0
 11
266.10477999999989
 21
536.5863609999999
 31
0.0
  0
LINE
  5
494
  8
0
 62
     1
 10
266.10477999999989
 20
644.09278099999995
 30
0.0
 11
266.10477999999989
 21
646.58635700000002
 31
0.0
  0
LINE
  5
495
  8
0
 62
     1
 10
268.10477999999989
 20
646.58635700000002
 30
0.0
 11
266.10477999999989
 21
646.58635700000002
 31
0.0
  0
LINE
  5
496
  8
0
 62
     1
 10
266.10477999999989
 20
538.58636100000001
 30
0.0
 11
266.10477999999989
 21
644.58635700000002
 31
0.0
  0
LINE
  5
497
  8
0
 62
     1
 10
261.60478000000001
 20
660.16370400000005
 30
0.0
 11
261.60478000000001
 21
665.00900999999988
 31
0.0
  0
LINE
  5
498
  8
0
 62
     1
 10
261.60478000000001
 20
518.16371200000003
 30
0.0
 11
261.60478000000001
 21
523.00900999999988
 31
0.0
  0
LINE
  5
499
  8
0
 62
     1
 10
268.10477999999989
 20
510.08636100000001
 30
0.0
 11
268.10477999999989
 21
673.08635700000002
 31
0.0
  0
LINE
  5
49A
  8
0
 62
     1
 10
271.60478000000001
 20
510.08636100000001
 30
0.0
 11
268.10477999999989
 21
510.08636100000001
 31
0.0
  0
LINE
  5
49B
  8
0
 62
     1
 10
271.60478000000001
 20
510.08635700000002
 30
0.0
 11
271.60478000000001
 21
673.08635700000002
 31
0.0
  0
LINE
  5
49C
  8
0
 62
     1
 10
271.60478000000001
 20
673.08635700000002
 30
0.0
 11
270.60477999999989
 21
673.08635700000002
 31
0.0
  0
LINE
  5
49D
  8
0
 62
     1
 10
269.60478000000001
 20
673.08635700000002
 30
0.0
 11
268.10477999999989
 21
673.08635700000002
 31
0.0
  0
LINE
  5
49E
  8
0
 62
     1
 10
268.10477999999989
 20
659.58635700000002
 30
0.0
 11
262.60477700000001
 21
659.58635700000002
 31
0.0
  0
LINE
  5
49F
  8
0
 62
     1
 10
268.10477999999989
 20
665.58635700000002
 30
0.0
 11
262.604784
 21
665.58635700000002
 31
0.0
  0
LINE
  5
4A0
  8
0
 62
     1
 10
262.60478000000001
 20
659.58635700000002
 30
0.0
 11
262.60478000000001
 21
659.81471999999985
 31
0.0
  0
LINE
  5
4A1
  8
0
 62
     1
 10
262.604781
 20
659.58635700000002
 30
0.0
 11
261.60478099999989
 21
660.16370400000005
 31
0.0
  0
LINE
  5
4A2
  8
0
 62
     1
 10
262.60478000000001
 20
659.81471999999985
 30
0.0
 11
262.60478000000001
 21
660.46503399999995
 31
0.0
  0
LINE
  5
4A3
  8
0
 62
     1
 10
262.60478000000001
 20
660.46503399999995
 30
0.0
 11
262.60478000000001
 21
661.43831599999999
 31
0.0
  0
LINE
  5
4A4
  8
0
 62
     1
 10
262.60478000000001
 20
661.43831599999999
 30
0.0
 11
262.60478000000001
 21
662.58635699999991
 31
0.0
  0
LINE
  5
4A5
  8
0
 62
     1
 10
262.60478000000001
 20
662.58635699999991
 30
0.0
 11
262.60478000000001
 21
663.73441300000002
 31
0.0
  0
LINE
  5
4A6
  8
0
 62
     1
 10
262.60478000000001
 20
663.73441300000002
 30
0.0
 11
262.60478000000001
 21
664.70767999999987
 31
0.0
  0
LINE
  5
4A7
  8
0
 62
     1
 10
262.60478000000001
 20
664.70767999999987
 30
0.0
 11
262.60478000000001
 21
665.35799400000008
 31
0.0
  0
LINE
  5
4A8
  8
0
 62
     1
 10
262.60478000000001
 20
665.35799400000008
 30
0.0
 11
262.60478000000001
 21
665.58635700000002
 31
0.0
  0
LINE
  5
4A9
  8
0
 62
     1
 10
261.60478000000001
 20
665.00900999999988
 30
0.0
 11
262.60478000000001
 21
665.58635700000002
 31
0.0
  0
LINE
  5
4AA
  8
0
 62
     1
 10
268.10477999999989
 20
523.58636100000001
 30
0.0
 11
262.604782
 21
523.58636100000001
 31
0.0
  0
LINE
  5
4AB
  8
0
 62
     1
 10
268.10477999999989
 20
517.58636100000001
 30
0.0
 11
262.60477900000001
 21
517.58636100000001
 31
0.0
  0
LINE
  5
4AC
  8
0
 62
     1
 10
261.60478000000001
 20
523.00900999999988
 30
0.0
 11
262.60478000000001
 21
523.58636100000001
 31
0.0
  0
LINE
  5
4AD
  8
0
 62
     1
 10
262.60478000000001
 20
523.35799799999995
 30
0.0
 11
262.60478000000001
 21
523.58636100000001
 31
0.0
  0
LINE
  5
4AE
  8
0
 62
     1
 10
262.60478000000001
 20
522.70767999999987
 30
0.0
 11
262.60478000000001
 21
523.35799799999995
 31
0.0
  0
LINE
  5
4AF
  8
0
 62
     1
 10
262.60478000000001
 20
521.7344129999999
 30
0.0
 11
262.60478000000001
 21
522.70767999999987
 31
0.0
  0
LINE
  5
4B0
  8
0
 62
     1
 10
262.60478000000001
 20
520.58636100000001
 30
0.0
 11
262.60478000000001
 21
521.7344129999999
 31
0.0
  0
LINE
  5
4B1
  8
0
 62
     1
 10
262.60478000000001
 20
519.43831299999999
 30
0.0
 11
262.60478000000001
 21
520.58636100000001
 31
0.0
  0
LINE
  5
4B2
  8
0
 62
     1
 10
262.60478000000001
 20
518.46504200000004
 30
0.0
 11
262.60478000000001
 21
519.43831299999999
 31
0.0
  0
LINE
  5
4B3
  8
0
 62
     1
 10
262.60478000000001
 20
517.81472399999996
 30
0.0
 11
262.60478000000001
 21
518.46504200000004
 31
0.0
  0
LINE
  5
4B4
  8
0
 62
     1
 10
262.604781
 20
517.58636100000001
 30
0.0
 11
261.60478099999989
 21
518.16371200000003
 31
0.0
  0
LINE
  5
4B5
  8
0
 62
     1
 10
262.60478000000001
 20
517.58636100000001
 30
0.0
 11
262.60478000000001
 21
517.81472399999996
 31
0.0
  0
LINE
  5
4B6
  8
0
 62
     1
 10
270.60477999999989
 20
673.08635700000002
 30
0.0
 11
269.60478000000001
 21
673.08635700000002
 31
0.0
  0
CIRCLE
  5
4B7
  8
0
 62
     7
 10
242.73584700000001
 20
663.93625599999984
 30
0.0
 40
0.25
  0
LINE
  5
4B8
  8
0
 62
     7
 10
268.10477999999989
 20
673.08635700000002
 30
0.0
 11
268.10477999999989
 21
717.08536500000002
 31
0.0
  0
LINE
  5
4B9
  8
0
 62
     7
 10
266.10477999999989
 20
646.58635700000002
 30
0.0
 11
266.10477999999989
 21
659.58635700000002
 31
0.0
  0
LINE
  5
4BA
  8
0
 62
     7
 10
268.10477999999989
 20
454.79908599999999
 30
0.0
 11
268.10477999999989
 21
510.08636100000001
 31
0.0
  0
LINE
  5
4BB
  8
0
 62
     7
 10
266.10477999999989
 20
455.73059299999989
 30
0.0
 11
266.10477999999989
 21
517.58636100000001
 31
0.0
  0
POLYLINE
  5
4BC
  8
0
 62
     3
 66
     1
 10
0.0
 20
0.0
 30
0.0
  0
VERTEX
  5
C9B
  8
0
 62
     3
 10
275.49556000000001
 20
451.35680400000001
 30
0.0
  0
VERTEX
  5
C9C
  8
0
 62
     3
 10
260.991558
 20
458.1120929999999
 30
0.0
  0
VERTEX
  5
C9D
  8
0
 62
     3
 10
259.24064700000002
 20
456.72129799999999
 30
0.0
  0
VERTEX
  5
C9E
  8
0
 62
     3
 10
260.02296899999988
 20
460.76950499999998
 30
0.0
  0
VERTEX
  5
C9F
  8
0
 62
     3
 10
258.27205800000002
 20
459.3787099999999
 30
0.0
  0
VERTEX
  5
CA0
  8
0
 62
     3
 10
258.03965499999993
 20
459.48695199999992
 30
0.0
  0
SEQEND
  5
CA1
  8
0
 62
     3
  0
POLYLINE
  5
4C4
  8
0
 62
     3
 66
     1
 10
0.0
 20
0.0
 30
0.0
  0
VERTEX
  5
CA2
  8
0
 62
     3
 10
277.16941400000002
 20
713.91274299999998
 30
0.0
  0
VERTEX
  5
CA3
  8
0
 62
     3
 10
262.067679
 20
719.19835699999987
 30
0.0
  0
VERTEX
  5
CA4
  8
0
 62
     3
 10
260.46312
 20
717.64098399999989
 30
0.0
  0
VERTEX
  5
CA5
  8
0
 62
     3
 10
260.840664
 20
721.74677299999996
 30
0.0
  0
VERTEX
  5
CA6
  8
0
 62
     3
 10
259.23610400000001
 20
720.18939999999998
 30
0.0
  0
VERTEX
  5
CA7
  8
0
 62
     3
 10
258.03965499999993
 20
720.60816199999988
 30
0.0
  0
SEQEND
  5
CA8
  8
0
 62
     3
  0
LINE
  5
4CC
  8
0
 62
     7
 10
268.10477999999989
 20
666.08635700000002
 30
0.0
 11
266.10477999999989
 21
666.08635700000002
 31
0.0
  0
LINE
  5
4CD
  8
0
 62
     7
 10
268.10477999999989
 20
659.08635700000002
 30
0.0
 11
266.10477999999989
 21
659.08635700000002
 31
0.0
  0
LINE
  5
4CE
  8
0
 62
     7
 10
268.10477999999989
 20
647.58635700000002
 30
0.0
 11
266.10477999999989
 21
647.58635700000002
 31
0.0
  0
LINE
  5
4CF
  8
0
 62
     7
 10
268.10477999999989
 20
535.58636100000001
 30
0.0
 11
266.10477999999989
 21
535.58636100000001
 31
0.0
  0
LINE
  5
4D0
  8
0
 62
     7
 10
268.10477999999989
 20
524.0863609999999
 30
0.0
 11
266.10477999999989
 21
524.0863609999999
 31
0.0
  0
LINE
  5
4D1
  8
0
 62
     7
 10
268.10477999999989
 20
517.08636100000001
 30
0.0
 11
266.10477999999989
 21
517.08636100000001
 31
0.0
  0
LINE
  5
4D2
  8
0
 62
     7
 10
266.10477999999989
 20
523.58636100000001
 30
0.0
 11
266.10477999999989
 21
536.5863609999999
 31
0.0
  0
LINE
  5
4D3
  8
0
 62
     7
 10
266.10477999999989
 20
665.58635700000002
 30
0.0
 11
266.10477999999989
 21
717.78536199999985
 31
0.0
  0
LINE
  5
4D4
  8
0
  6
DASHDOT
 62
     7
 10
324.02458200000001
 20
591.59278099999995
 30
0.0
 11
92.116507999999996
 21
591.59278099999995
 31
0.0
  0
LINE
  5
4D5
  8
0
 62
   150
 10
259.60480399999989
 20
681.34278099999995
 30
0.0
 11
161.10480499999991
 21
681.34278099999995
 31
0.0
  0
LINE
  5
4D6
  8
0
 62
   150
 10
259.60480399999989
 20
506.34279400000003
 30
0.0
 11
161.10480499999991
 21
506.34279400000003
 31
0.0
  0
LINE
  5
4D7
  8
0
 62
   150
 10
260.604804
 20
507.34279400000003
 30
0.0
 11
260.604804
 21
532.59282299999995
 31
0.0
  0
LINE
  5
4D8
  8
0
 62
   150
 10
260.604804
 20
655.59278099999995
 30
0.0
 11
260.604804
 21
680.34278099999995
 31
0.0
  0
ARC
  5
4D9
  8
0
 62
   150
 10
259.60480399999989
 20
680.34278099999995
 30
0.0
 40
1.0
 50
0.000001
 51
90.000010000000003
  0
ARC
  5
4DA
  8
0
 62
   150
 10
259.60480399999989
 20
507.34279400000003
 30
0.0
 40
1.0
 50
270.00000499999987
 51
0.000001
  0
LINE
  5
4DB
  8
0
 62
   150
 10
259.60480399999989
 20
654.59278099999995
 30
0.0
 11
259.60480399999989
 21
655.59278099999995
 31
0.0
  0
LINE
  5
4DC
  8
0
 62
   150
 10
260.604804
 20
655.59278099999995
 30
0.0
 11
259.60480399999989
 21
655.59278099999995
 31
0.0
  0
LINE
  5
4DD
  8
0
 62
   150
 10
260.604804
 20
532.59282299999995
 30
0.0
 11
259.60480399999989
 21
532.59282299999995
 31
0.0
  0
LINE
  5
4DE
  8
0
 62
   150
 10
259.60480399999989
 20
532.59282299999995
 30
0.0
 11
259.60480399999989
 21
533.59282299999995
 31
0.0
  0
CIRCLE
  5
4DF
  8
0
 62
     7
 10
154.95629099999991
 20
694.89658399999985
 30
0.0
 40
0.5
  0
POLYLINE
  5
4E0
  8
0
 62
     7
 66
     1
 10
0.0
 20
0.0
 30
0.0
  0
VERTEX
  5
CA9
  8
0
 62
     7
 10
118.81540699999999
 20
728.21575199999995
 30
0.0
  0
VERTEX
  5
CAA
  8
0
 62
     7
 10
104.3694689999999
 20
735.09432199999992
 30
0.0
  0
VERTEX
  5
CAB
  8
0
 62
     7
 10
102.606773
 20
733.71849799999995
 30
0.0
  0
VERTEX
  5
CAC
  8
0
 62
     7
 10
103.423546
 20
737.75987999999995
 30
0.0
  0
VERTEX
  5
CAD
  8
0
 62
     7
 10
101.66085099999989
 20
736.38405599999987
 30
0.0
  0
VERTEX
  5
CAE
  8
0
 62
     7
 10
99.195746999999997
 20
737.55783799999995
 30
0.0
  0
SEQEND
  5
CAF
  8
0
 62
     7
  0
LINE
  5
4E8
  8
0
 62
     4
 10
159.10472899999991
 20
678.84276599999987
 30
0.0
 11
122.10472900000001
 21
678.84276599999987
 31
0.0
  0
ARC
  5
4E9
  8
0
 62
   150
 10
140.604805
 20
698.84276599999998
 30
0.0
 40
4.0
 50
270.00000499999987
 51
90.0
  0
LINE
  5
4EA
  8
0
 62
   150
 10
138.10480499999991
 20
688.84276599999987
 30
0.0
 11
138.10480499999991
 21
708.84276599999987
 31
0.0
  0
LINE
  5
4EB
  8
0
 62
   150
 10
140.604805
 20
708.84276599999987
 30
0.0
 11
138.10480499999991
 21
708.84276599999987
 31
0.0
  0
LINE
  5
4EC
  8
0
 62
   150
 10
173.104805
 20
708.84276599999987
 30
0.0
 11
158.004807
 21
708.84276599999987
 31
0.0
  0
LINE
  5
4ED
  8
0
 62
   150
 10
140.604805
 20
688.84276599999987
 30
0.0
 11
138.10480499999991
 21
688.84276599999987
 31
0.0
  0
LINE
  5
4EE
  8
0
 62
   150
 10
173.104805
 20
688.84276599999987
 30
0.0
 11
158.004807
 21
688.84276599999987
 31
0.0
  0
ARC
  5
4EF
  8
0
 62
   150
 10
140.604805
 20
698.84276599999998
 30
0.0
 40
1.5
 50
270.00000499999987
 51
90.0
  0
ARC
  5
4F0
  8
0
 62
   150
 10
140.604805
 20
702.84276599999998
 30
0.0
 40
2.5
 50
180.00000299999991
 51
270.00000499999987
  0
ARC
  5
4F1
  8
0
 62
   150
 10
140.604805
 20
694.84276599999998
 30
0.0
 40
2.5
 50
90.000010000000003
 51
180.00000299999991
  0
LINE
  5
4F2
  8
0
 62
   150
 10
175.104805
 20
690.84276599999998
 30
0.0
 11
175.104805
 21
692.84276599999987
 31
0.0
  0
ARC
  5
4F3
  8
0
 62
   150
 10
173.104805
 20
706.84276599999998
 30
0.0
 40
2.0
 50
0.000001
 51
90.0
  0
ARC
  5
4F4
  8
0
 62
   150
 10
173.104805
 20
690.84276599999998
 30
0.0
 40
2.0
 50
270.00000499999987
 51
0.000001
  0
LINE
  5
4F5
  8
0
 62
   150
 10
166.10480499999991
 20
688.84276599999987
 30
0.0
 11
166.10480499999991
 21
692.84276599999987
 31
0.0
  0
LINE
  5
4F6
  8
0
 62
   150
 10
170.10480499999991
 20
688.84276599999987
 30
0.0
 11
170.10480499999991
 21
692.84276599999987
 31
0.0
  0
LINE
  5
4F7
  8
0
 62
     1
 10
161.504807
 20
707.34276599999998
 30
0.0
 11
158.004807
 21
707.34276599999998
 31
0.0
  0
LINE
  5
4F8
  8
0
 62
     1
 10
161.504807
 20
690.34276599999998
 30
0.0
 11
158.004807
 21
690.34276599999998
 31
0.0
  0
LINE
  5
4F9
  8
0
 62
     1
 10
159.00480699999989
 20
690.34276599999998
 30
0.0
 11
159.00480699999989
 21
691.84276599999987
 31
0.0
  0
LINE
  5
4FA
  8
0
 62
     1
 10
161.504807
 20
690.34276599999998
 30
0.0
 11
161.504807
 21
691.84276599999987
 31
0.0
  0
ARC
  5
4FB
  8
0
 62
     1
 10
159.754807
 20
704.84276599999987
 30
0.0
 40
1.25
 50
126.86989800000001
 51
233.13009700000001
  0
LINE
  5
4FC
  8
0
 62
     1
 10
159.00480699999989
 20
705.84276599999987
 30
0.0
 11
159.00480699999989
 21
707.34276599999998
 31
0.0
  0
ARC
  5
4FD
  8
0
 62
     1
 10
159.754807
 20
692.84276599999987
 30
0.0
 40
1.25
 50
126.86989800000001
 51
233.13009700000001
  0
LINE
  5
4FE
  8
0
 62
     1
 10
159.00480699999989
 20
693.84276599999998
 30
0.0
 11
159.00480699999989
 21
703.84276599999987
 31
0.0
  0
ARC
  5
4FF
  8
0
 62
     1
 10
162.254807
 20
704.84276599999987
 30
0.0
 40
1.25
 50
126.86989800000001
 51
233.13009700000001
  0
ARC
  5
500
  8
0
 62
     1
 10
162.254807
 20
692.84276599999987
 30
0.0
 40
1.25
 50
126.86989800000001
 51
233.13009700000001
  0
LINE
  5
501
  8
0
 62
     1
 10
161.504807
 20
705.84276599999987
 30
0.0
 11
161.504807
 21
707.34276599999998
 31
0.0
  0
LINE
  5
502
  8
0
 62
     1
 10
161.504807
 20
693.84276599999998
 30
0.0
 11
161.504807
 21
694.34276599999998
 31
0.0
  0
LINE
  5
503
  8
0
 62
     1
 10
163.00480699999989
 20
701.84276599999998
 30
0.0
 11
160.00480699999989
 21
701.84276599999998
 31
0.0
  0
LINE
  5
504
  8
0
 62
     1
 10
163.00480699999989
 20
695.84276599999987
 30
0.0
 11
160.00480699999989
 21
695.84276599999987
 31
0.0
  0
LINE
  5
505
  8
0
 62
     1
 10
163.00480699999989
 20
703.34276599999998
 30
0.0
 11
161.504807
 21
703.34276599999998
 31
0.0
  0
LINE
  5
506
  8
0
 62
     1
 10
163.00480699999989
 20
694.34276599999998
 30
0.0
 11
161.504807
 21
694.34276599999998
 31
0.0
  0
LINE
  5
507
  8
0
 62
     1
 10
161.504807
 20
703.34276599999998
 30
0.0
 11
161.504807
 21
703.84276599999987
 31
0.0
  0
ARC
  5
508
  8
0
 62
     1
 10
160.00480699999989
 20
702.84276599999998
 30
0.0
 40
1.0
 50
180.00000299999991
 51
270.00000499999987
  0
ARC
  5
509
  8
0
 62
     1
 10
160.00480699999989
 20
694.84276599999998
 30
0.0
 40
1.0
 50
90.0
 51
180.00000299999991
  0
LINE
  5
50A
  8
0
 62
     2
 10
163.00480699999989
 20
700.84276599999987
 30
0.0
 11
159.50480699999989
 21
700.84276599999987
 31
0.0
  0
LINE
  5
50B
  8
0
 62
     2
 10
163.00480699999989
 20
696.84276599999987
 30
0.0
 11
159.50480699999989
 21
696.84276599999987
 31
0.0
  0
LINE
  5
50C
  8
0
 62
     2
 10
163.00480699999989
 20
696.84276599999987
 30
0.0
 11
164.15950799999999
 21
698.84276599999998
 31
0.0
  0
LINE
  5
50D
  8
0
 62
     2
 10
164.15950799999999
 20
698.84276599999998
 30
0.0
 11
163.00480699999989
 21
700.84276599999987
 31
0.0
  0
LINE
  5
50E
  8
0
 62
     2
 10
163.00480699999989
 20
696.84276599999987
 30
0.0
 11
163.00480699999989
 21
700.84276599999987
 31
0.0
  0
LINE
  5
50F
  8
0
 62
     2
 10
163.00480699999989
 20
703.34276599999998
 30
0.0
 11
163.00480699999989
 21
703.84276599999987
 31
0.0
  0
LINE
  5
510
  8
0
 62
     1
 10
163.00480699999989
 20
694.34276599999998
 30
0.0
 11
163.00480699999989
 21
695.84276599999987
 31
0.0
  0
LINE
  5
511
  8
0
 62
     1
 10
163.00480699999989
 20
701.84276599999998
 30
0.0
 11
163.00480699999989
 21
703.34276599999998
 31
0.0
  0
LINE
  5
512
  8
0
 62
     2
 10
182.004807
 20
693.84276599999998
 30
0.0
 11
182.004807
 21
703.84276599999987
 31
0.0
  0
LINE
  5
513
  8
0
 62
     2
 10
181.004807
 20
704.84276599999987
 30
0.0
 11
164.00480699999989
 21
704.84276599999987
 31
0.0
  0
LINE
  5
514
  8
0
 62
     2
 10
181.004807
 20
692.84276599999987
 30
0.0
 11
164.00480699999989
 21
692.84276599999987
 31
0.0
  0
LINE
  5
515
  8
0
 62
   150
 10
166.10480499999991
 20
704.84276599999987
 30
0.0
 11
166.10480499999991
 21
708.84276599999987
 31
0.0
  0
LINE
  5
516
  8
0
 62
   150
 10
170.10480499999991
 20
704.84276599999987
 30
0.0
 11
170.10480499999991
 21
708.84276599999987
 31
0.0
  0
LINE
  5
517
  8
0
 62
   150
 10
175.104805
 20
704.84276599999987
 30
0.0
 11
175.104805
 21
706.84276599999998
 31
0.0
  0
LINE
  5
518
  8
0
 62
     2
 10
182.004807
 20
703.84276599999987
 30
0.0
 11
181.004807
 21
704.84276599999987
 31
0.0
  0
LINE
  5
519
  8
0
 62
     2
 10
181.004807
 20
692.84276599999987
 30
0.0
 11
182.004807
 21
693.84276599999998
 31
0.0
  0
LINE
  5
51A
  8
0
 62
     2
 10
164.00480699999989
 20
692.84276599999987
 30
0.0
 11
163.00480699999989
 21
693.84276599999998
 31
0.0
  0
LINE
  5
51B
  8
0
 62
     2
 10
163.00480699999989
 20
703.84276599999987
 30
0.0
 11
164.00480699999989
 21
704.84276599999987
 31
0.0
  0
LINE
  5
51C
  8
0
 62
     2
 10
181.004807
 20
692.84276599999987
 30
0.0
 11
181.004807
 21
704.84276599999987
 31
0.0
  0
LINE
  5
51D
  8
0
 62
     7
 10
181.75480699999989
 20
704.09276599999998
 30
0.0
 11
163.254807
 21
704.09276599999998
 31
0.0
  0
LINE
  5
51E
  8
0
 62
     7
 10
181.75480699999989
 20
693.59276599999987
 30
0.0
 11
163.254807
 21
693.59276599999987
 31
0.0
  0
LINE
  5
51F
  8
0
 62
     2
 10
163.00480699999989
 20
693.84276599999998
 30
0.0
 11
163.00480699999989
 21
694.34276599999998
 31
0.0
  0
ARC
  5
520
  8
0
 62
     2
 10
159.50480699999989
 20
701.34276599999987
 30
0.0
 40
0.5
 50
180.00000299999991
 51
270.00000499999987
  0
ARC
  5
521
  8
0
 62
     2
 10
159.50480699999989
 20
696.34276599999987
 30
0.0
 40
0.5
 50
90.0
 51
180.00000299999991
  0
POLYLINE
  5
522
  8
0
 62
     7
 66
     1
 10
0.0
 20
0.0
 30
0.0
  0
VERTEX
  5
CB0
  8
0
 62
     7
 10
165.364822
 20
692.34520699999996
 30
0.0
  0
VERTEX
  5
CB1
  8
0
 62
     7
 10
165.364822
 20
702.5903239999999
 30
0.0
  0
VERTEX
  5
CB2
  8
0
 62
     7
 10
163.36482199999989
 20
703.59032400000001
 30
0.0
  0
VERTEX
  5
CB3
  8
0
 62
     7
 10
167.364822
 20
704.59032400000001
 30
0.0
  0
VERTEX
  5
CB4
  8
0
 62
     7
 10
165.364822
 20
705.59032400000001
 30
0.0
  0
SEQEND
  5
CB5
  8
0
 62
     7
  0
LINE
  5
529
  8
0
 62
     7
 10
167.104805
 20
704.84276599999987
 30
0.0
 11
166.10480499999991
 21
704.84276599999987
 31
0.0
  0
LINE
  5
52A
  8
0
 62
     7
 10
167.104805
 20
692.84276599999987
 30
0.0
 11
166.10480499999991
 21
692.84276599999987
 31
0.0
  0
LINE
  5
52B
  8
0
 62
     3
 10
145.60480499999991
 20
686.32532500000002
 30
0.0
 11
145.60480499999991
 21
688.84276599999987
 31
0.0
  0
LINE
  5
52C
  8
0
  6
DASHDOT
 62
     7
 10
197.94827299999989
 20
698.84276599999998
 30
0.0
 11
138.42321799999991
 21
698.84276599999998
 31
0.0
  0
LINE
  5
52D
  8
0
 62
     3
 10
145.60480499999991
 20
688.84276599999987
 30
0.0
 11
140.604805
 21
688.84276599999987
 31
0.0
  0
LINE
  5
52E
  8
0
 62
     3
 10
145.60480499999991
 20
708.84276599999987
 30
0.0
 11
140.604805
 21
708.84276599999987
 31
0.0
  0
LINE
  5
52F
  8
0
 62
     3
 10
145.60480499999991
 20
702.94277199999999
 30
0.0
 11
140.604805
 21
702.94277199999999
 31
0.0
  0
LINE
  5
530
  8
0
 62
     3
 10
145.60480499999991
 20
694.74277500000005
 30
0.0
 11
140.604805
 21
694.74277500000005
 31
0.0
  0
LINE
  5
531
  8
0
 62
     3
 10
140.604805
 20
702.84276599999998
 30
0.0
 11
140.604805
 21
708.84276599999987
 31
0.0
  0
POLYLINE
  5
532
  8
0
 62
     7
 66
     1
 10
0.0
 20
0.0
 30
0.0
  0
VERTEX
  5
CB6
  8
0
 62
     7
 10
147.130394
 20
691.40947699999992
 30
0.0
  0
VERTEX
  5
CB7
  8
0
 62
     7
 10
141.91793799999991
 20
691.40947699999992
 30
0.0
  0
VERTEX
  5
CB8
  8
0
 62
     7
 10
140.91793799999991
 20
689.40947699999992
 30
0.0
  0
VERTEX
  5
CB9
  8
0
 62
     7
 10
139.91793799999991
 20
693.40947699999992
 30
0.0
  0
VERTEX
  5
CBA
  8
0
 62
     7
 10
138.91793799999991
 20
691.40947699999992
 30
0.0
  0
SEQEND
  5
CBB
  8
0
 62
     7
  0
LINE
  5
539
  8
0
 62
     3
 10
140.604805
 20
686.32532500000002
 30
0.0
 11
140.604805
 21
694.84276599999998
 31
0.0
  0
LINE
  5
53A
  8
0
 62
     4
 10
189.10472899999991
 20
683.09281199999998
 30
0.0
 11
189.10472899999991
 21
717.59281199999998
 31
0.0
  0
LINE
  5
53B
  8
0
 62
     4
 10
186.60472899999999
 20
686.32532500000002
 30
0.0
 11
186.60472899999999
 21
716.84281199999987
 31
0.0
  0
LINE
  5
53C
  8
0
 62
     4
 10
159.10472899999991
 20
681.84287300000005
 30
0.0
 11
122.10472900000001
 21
681.84287300000005
 31
0.0
  0
LINE
  5
53D
  8
0
 62
     4
 10
159.10472899999991
 20
678.84273499999995
 30
0.0
 11
159.10472899999991
 21
681.84278099999995
 31
0.0
  0
LINE
  5
53E
  8
0
 62
     4
 10
187.85472899999999
 20
718.84287300000005
 30
0.0
 11
159.804802
 21
718.84287300000005
 31
0.0
  0
ARC
  5
53F
  8
0
 62
     4
 10
187.85472899999999
 20
717.59281199999998
 30
0.0
 40
1.25
 50
0.000001
 51
90.0
  0
LINE
  5
540
  8
0
 62
     4
 10
186.60472899999999
 20
716.84287300000005
 30
0.0
 11
159.804802
 21
716.84287300000005
 31
0.0
  0
LINE
  5
541
  8
0
 62
     4
 10
185.6047669999999
 20
714.84287300000005
 30
0.0
 11
159.804802
 21
714.84287300000005
 31
0.0
  0
LINE
  5
542
  8
0
 62
     4
 10
183.6047669999999
 20
716.84279600000002
 30
0.0
 11
183.6047669999999
 21
718.84279600000002
 31
0.0
  0
LINE
  5
543
  8
0
 62
     4
 10
186.60472899999999
 20
712.84287300000005
 30
0.0
 11
159.804802
 21
712.84287300000005
 31
0.0
  0
LINE
  5
544
  8
0
 62
     4
 10
185.6047669999999
 20
714.84279600000002
 30
0.0
 11
185.6047669999999
 21
716.84279600000002
 31
0.0
  0
LINE
  5
545
  8
0
 62
     4
 10
111.1047439999999
 20
681.84275100000002
 30
0.0
 11
111.1047439999999
 21
718.84275100000002
 31
0.0
  0
ARC
  5
546
  8
0
 62
     4
 10
187.85472899999999
 20
683.09281199999998
 30
0.0
 40
1.25
 50
270.000046
 51
0.000001
  0
LINE
  5
547
  8
0
 62
     1
 10
158.004807
 20
690.34276599999998
 30
0.0
 11
158.004807
 21
707.34276599999998
 31
0.0
  0
LINE
  5
548
  8
0
 62
     1
 10
159.00480699999989
 20
705.84276599999987
 30
0.0
 11
158.004807
 21
705.84276599999987
 31
0.0
  0
LINE
  5
549
  8
0
 62
     1
 10
159.00480699999989
 20
703.84276599999987
 30
0.0
 11
158.004807
 21
703.84276599999987
 31
0.0
  0
LINE
  5
54A
  8
0
 62
     1
 10
159.00480699999989
 20
691.84276599999987
 30
0.0
 11
158.004807
 21
691.84276599999987
 31
0.0
  0
LINE
  5
54B
  8
0
 62
     1
 10
159.00480699999989
 20
693.84276599999998
 30
0.0
 11
158.004807
 21
693.84276599999998
 31
0.0
  0
POLYLINE
  5
54C
  8
0
 62
     7
 66
     1
 10
0.0
 20
0.0
 30
0.0
  0
VERTEX
  5
CBC
  8
0
 62
     7
 10
133.97652400000001
 20
686.32532500000002
 30
0.0
  0
VERTEX
  5
CBD
  8
0
 62
     7
 10
133.97652400000001
 20
702.32532500000002
 30
0.0
  0
VERTEX
  5
CBE
  8
0
 62
     7
 10
131.97652400000001
 20
703.32532500000002
 30
0.0
  0
VERTEX
  5
CBF
  8
0
 62
     7
 10
135.97652400000001
 20
704.32532500000002
 30
0.0
  0
VERTEX
  5
CC0
  8
0
 62
     7
 10
133.97652400000001
 20
705.32532500000002
 30
0.0
  0
VERTEX
  5
CC1
  8
0
 62
     7
 10
133.97652400000001
 20
720.0103069999999
 30
0.0
  0
SEQEND
  5
CC2
  8
0
 62
     7
  0
POLYLINE
  5
554
  8
0
 62
     7
 66
     1
 10
0.0
 20
0.0
 30
0.0
  0
VERTEX
  5
CC3
  8
0
 62
     7
 10
192.0900729999999
 20
686.32532500000002
 30
0.0
  0
VERTEX
  5
CC4
  8
0
 62
     7
 10
176.0900729999999
 20
686.32532500000002
 30
0.0
  0
VERTEX
  5
CC5
  8
0
 62
     7
 10
175.0900729999999
 20
684.32532500000002
 30
0.0
  0
VERTEX
  5
CC6
  8
0
 62
     7
 10
174.0900729999999
 20
688.32532500000002
 30
0.0
  0
VERTEX
  5
CC7
  8
0
 62
     7
 10
173.0900729999999
 20
686.32532500000002
 30
0.0
  0
VERTEX
  5
CC8
  8
0
 62
     7
 10
157.0900729999999
 20
686.32532500000002
 30
0.0
  0
VERTEX
  5
CC9
  8
0
 62
     7
 10
156.09007299999999
 20
684.32532500000002
 30
0.0
  0
VERTEX
  5
CCA
  8
0
 62
     7
 10
155.0900729999999
 20
688.32532500000002
 30
0.0
  0
VERTEX
  5
CCB
  8
0
 62
     7
 10
154.0900729999999
 20
686.32532500000002
 30
0.0
  0
VERTEX
  5
CCC
  8
0
 62
     7
 10
138.09007299999999
 20
686.32532500000002
 30
0.0
  0
VERTEX
  5
CCD
  8
0
 62
     7
 10
137.09007299999999
 20
684.32532500000002
 30
0.0
  0
VERTEX
  5
CCE
  8
0
 62
     7
 10
136.09007299999999
 20
688.32532500000002
 30
0.0
  0
VERTEX
  5
CCF
  8
0
 62
     7
 10
135.0900729999999
 20
686.32532500000002
 30
0.0
  0
VERTEX
  5
CD0
  8
0
 62
     7
 10
133.97652400000001
 20
686.32532500000002
 30
0.0
  0
SEQEND
  5
CD1
  8
0
 62
     7
  0
LINE
  5
564
  8
0
 62
     4
 10
122.10472900000001
 20
678.84276599999987
 30
0.0
 11
111.1047439999999
 21
681.84275100000002
 31
0.0
  0
LINE
  5
565
  8
0
 62
     4
 10
122.10472900000001
 20
680.84275100000002
 30
0.0
 11
122.10472900000001
 21
681.84275100000002
 31
0.0
  0
LINE
  5
566
  8
0
 62
     4
 10
159.10472899999991
 20
680.84287300000005
 30
0.0
 11
122.10472900000001
 21
680.84287300000005
 31
0.0
  0
LINE
  5
567
  8
0
 62
     4
 10
187.85472899999999
 20
681.84287300000005
 30
0.0
 11
159.10472899999991
 21
681.84287300000005
 31
0.0
  0
LINE
  5
568
  8
0
 62
     4
 10
143.80480199999991
 20
718.84287300000005
 30
0.0
 11
111.1047439999999
 21
718.84287300000005
 31
0.0
  0
LINE
  5
569
  8
0
 62
     4
 10
143.80480199999991
 20
716.84287300000005
 30
0.0
 11
133.97652400000001
 21
716.84287300000005
 31
0.0
  0
LINE
  5
56A
  8
0
 62
     4
 10
143.80480199999991
 20
714.84287300000005
 30
0.0
 11
133.97652400000001
 21
714.84287300000005
 31
0.0
  0
LINE
  5
56B
  8
0
 62
     4
 10
143.80480199999991
 20
712.84287300000005
 30
0.0
 11
133.97652400000001
 21
712.84287300000005
 31
0.0
  0
LINE
  5
56C
  8
0
 62
     4
 10
159.10472899999991
 20
508.84281199999998
 30
0.0
 11
122.10472900000001
 21
508.84281199999998
 31
0.0
  0
ARC
  5
56D
  8
0
 62
   150
 10
140.604805
 20
488.842803
 30
0.0
 40
4.0
 50
270.00000499999987
 51
90.0
  0
LINE
  5
56E
  8
0
 62
   150
 10
138.10480499999991
 20
478.842803
 30
0.0
 11
138.10480499999991
 21
498.842804
 31
0.0
  0
LINE
  5
56F
  8
0
 62
   150
 10
140.604805
 20
478.842803
 30
0.0
 11
138.10480499999991
 21
478.842803
 31
0.0
  0
LINE
  5
570
  8
0
 62
   150
 10
173.104805
 20
478.842803
 30
0.0
 11
158.004807
 21
478.842803
 31
0.0
  0
LINE
  5
571
  8
0
 62
   150
 10
140.604805
 20
498.842804
 30
0.0
 11
138.10480499999991
 21
498.842804
 31
0.0
  0
LINE
  5
572
  8
0
 62
   150
 10
173.104805
 20
498.842804
 30
0.0
 11
158.004807
 21
498.842804
 31
0.0
  0
ARC
  5
573
  8
0
 62
   150
 10
140.604805
 20
488.842803
 30
0.0
 40
1.5
 50
270.00000499999987
 51
90.0
  0
ARC
  5
574
  8
0
 62
   150
 10
140.604805
 20
484.84280299999989
 30
0.0
 40
2.5
 50
90.000010000000003
 51
180.00000299999991
  0
ARC
  5
575
  8
0
 62
   150
 10
140.604805
 20
492.842803
 30
0.0
 40
2.5
 50
180.00000299999991
 51
270.00000499999987
  0
LINE
  5
576
  8
0
 62
   150
 10
175.104805
 20
494.842803
 30
0.0
 11
175.104805
 21
496.842803
 31
0.0
  0
ARC
  5
577
  8
0
 62
   150
 10
173.104805
 20
480.84280299999989
 30
0.0
 40
2.0
 50
270.00000499999987
 51
0.000001
  0
ARC
  5
578
  8
0
 62
   150
 10
173.104805
 20
496.842803
 30
0.0
 40
2.0
 50
0.000001
 51
90.0
  0
LINE
  5
579
  8
0
 62
   150
 10
166.10480499999991
 20
494.842803
 30
0.0
 11
166.10480499999991
 21
498.842804
 31
0.0
  0
LINE
  5
57A
  8
0
 62
   150
 10
170.10480499999991
 20
494.842803
 30
0.0
 11
170.10480499999991
 21
498.842804
 31
0.0
  0
LINE
  5
57B
  8
0
 62
     1
 10
161.504807
 20
480.342803
 30
0.0
 11
158.004807
 21
480.342803
 31
0.0
  0
LINE
  5
57C
  8
0
 62
     1
 10
161.504807
 20
497.34280299999989
 30
0.0
 11
158.004807
 21
497.34280299999989
 31
0.0
  0
LINE
  5
57D
  8
0
 62
     1
 10
159.00480699999989
 20
495.842803
 30
0.0
 11
159.00480699999989
 21
497.34280299999989
 31
0.0
  0
LINE
  5
57E
  8
0
 62
     1
 10
161.504807
 20
495.842803
 30
0.0
 11
161.504807
 21
497.34280299999989
 31
0.0
  0
ARC
  5
57F
  8
0
 62
     1
 10
159.754807
 20
482.842803
 30
0.0
 40
1.25
 50
126.86989800000001
 51
233.13009700000001
  0
LINE
  5
580
  8
0
 62
     1
 10
159.00480699999989
 20
480.342803
 30
0.0
 11
159.00480699999989
 21
481.84280299999989
 31
0.0
  0
ARC
  5
581
  8
0
 62
     1
 10
159.754807
 20
494.842803
 30
0.0
 40
1.25
 50
126.86989800000001
 51
233.13009700000001
  0
LINE
  5
582
  8
0
 62
     1
 10
159.00480699999989
 20
483.842803
 30
0.0
 11
159.00480699999989
 21
493.84280299999989
 31
0.0
  0
ARC
  5
583
  8
0
 62
     1
 10
162.254807
 20
482.842803
 30
0.0
 40
1.25
 50
126.86989800000001
 51
233.13009700000001
  0
ARC
  5
584
  8
0
 62
     1
 10
162.254807
 20
494.842803
 30
0.0
 40
1.25
 50
126.86989800000001
 51
233.13009700000001
  0
LINE
  5
585
  8
0
 62
     1
 10
161.504807
 20
480.342803
 30
0.0
 11
161.504807
 21
481.84280299999989
 31
0.0
  0
LINE
  5
586
  8
0
 62
     1
 10
161.504807
 20
493.34280299999989
 30
0.0
 11
161.504807
 21
493.84280299999989
 31
0.0
  0
LINE
  5
587
  8
0
 62
     1
 10
163.00480699999989
 20
485.84280299999989
 30
0.0
 11
160.00480699999989
 21
485.84280299999989
 31
0.0
  0
LINE
  5
588
  8
0
 62
     1
 10
163.00480699999989
 20
491.842803
 30
0.0
 11
160.00480699999989
 21
491.842803
 31
0.0
  0
LINE
  5
589
  8
0
 62
     1
 10
163.00480699999989
 20
484.342803
 30
0.0
 11
161.504807
 21
484.342803
 31
0.0
  0
LINE
  5
58A
  8
0
 62
     1
 10
163.00480699999989
 20
493.34280299999989
 30
0.0
 11
161.504807
 21
493.34280299999989
 31
0.0
  0
LINE
  5
58B
  8
0
 62
     1
 10
161.504807
 20
483.842803
 30
0.0
 11
161.504807
 21
484.342803
 31
0.0
  0
ARC
  5
58C
  8
0
 62
     1
 10
160.00480699999989
 20
484.84280299999989
 30
0.0
 40
1.0
 50
90.0
 51
180.00000299999991
  0
ARC
  5
58D
  8
0
 62
     1
 10
160.00480699999989
 20
492.842803
 30
0.0
 40
1.0
 50
180.00000299999991
 51
270.00000499999987
  0
LINE
  5
58E
  8
0
 62
     2
 10
163.00480699999989
 20
486.842803
 30
0.0
 11
159.50480699999989
 21
486.842803
 31
0.0
  0
LINE
  5
58F
  8
0
 62
     2
 10
163.00480699999989
 20
490.842803
 30
0.0
 11
159.50480699999989
 21
490.842803
 31
0.0
  0
LINE
  5
590
  8
0
 62
     2
 10
164.15950799999999
 20
488.842803
 30
0.0
 11
163.00480699999989
 21
490.842803
 31
0.0
  0
LINE
  5
591
  8
0
 62
     2
 10
163.00480699999989
 20
486.842803
 30
0.0
 11
164.15950799999999
 21
488.842803
 31
0.0
  0
LINE
  5
592
  8
0
 62
     2
 10
163.00480699999989
 20
486.842803
 30
0.0
 11
163.00480699999989
 21
490.842803
 31
0.0
  0
LINE
  5
593
  8
0
 62
     2
 10
163.00480699999989
 20
483.842803
 30
0.0
 11
163.00480699999989
 21
484.342803
 31
0.0
  0
LINE
  5
594
  8
0
 62
     1
 10
163.00480699999989
 20
491.842803
 30
0.0
 11
163.00480699999989
 21
493.34280299999989
 31
0.0
  0
LINE
  5
595
  8
0
 62
     1
 10
163.00480699999989
 20
484.342803
 30
0.0
 11
163.00480699999989
 21
485.84280299999989
 31
0.0
  0
LINE
  5
596
  8
0
 62
     2
 10
182.004807
 20
483.842803
 30
0.0
 11
182.004807
 21
493.84280299999989
 31
0.0
  0
LINE
  5
597
  8
0
 62
     2
 10
181.004807
 20
482.842803
 30
0.0
 11
164.00480699999989
 21
482.842803
 31
0.0
  0
LINE
  5
598
  8
0
 62
     2
 10
181.004807
 20
494.842803
 30
0.0
 11
164.00480699999989
 21
494.842803
 31
0.0
  0
LINE
  5
599
  8
0
 62
   150
 10
166.10480499999991
 20
478.842803
 30
0.0
 11
166.10480499999991
 21
482.842803
 31
0.0
  0
LINE
  5
59A
  8
0
 62
   150
 10
170.10480499999991
 20
478.842803
 30
0.0
 11
170.10480499999991
 21
482.842803
 31
0.0
  0
LINE
  5
59B
  8
0
 62
   150
 10
175.104805
 20
480.84280299999989
 30
0.0
 11
175.104805
 21
482.842803
 31
0.0
  0
LINE
  5
59C
  8
0
 62
     2
 10
181.004807
 20
482.842803
 30
0.0
 11
182.004807
 21
483.842803
 31
0.0
  0
LINE
  5
59D
  8
0
 62
     2
 10
182.004807
 20
493.84280299999989
 30
0.0
 11
181.004807
 21
494.842803
 31
0.0
  0
LINE
  5
59E
  8
0
 62
     2
 10
163.00480699999989
 20
493.84280299999989
 30
0.0
 11
164.00480699999989
 21
494.842803
 31
0.0
  0
LINE
  5
59F
  8
0
 62
     2
 10
164.00480699999989
 20
482.842803
 30
0.0
 11
163.00480699999989
 21
483.842803
 31
0.0
  0
LINE
  5
5A0
  8
0
 62
     2
 10
181.004807
 20
482.842803
 30
0.0
 11
181.004807
 21
494.842803
 31
0.0
  0
LINE
  5
5A1
  8
0
 62
     7
 10
181.75480699999989
 20
483.59280299999989
 30
0.0
 11
163.254807
 21
483.59280299999989
 31
0.0
  0
LINE
  5
5A2
  8
0
 62
     7
 10
181.75480699999989
 20
494.092803
 30
0.0
 11
163.254807
 21
494.092803
 31
0.0
  0
LINE
  5
5A3
  8
0
 62
     2
 10
163.00480699999989
 20
493.34280299999989
 30
0.0
 11
163.00480699999989
 21
493.84280299999989
 31
0.0
  0
ARC
  5
5A4
  8
0
 62
     2
 10
159.50480699999989
 20
486.342803
 30
0.0
 40
0.5
 50
90.0
 51
180.00000299999991
  0
ARC
  5
5A5
  8
0
 62
     2
 10
159.50480699999989
 20
491.342803
 30
0.0
 40
0.5
 50
180.00000299999991
 51
270.00000499999987
  0
POLYLINE
  5
5A6
  8
0
 62
     7
 66
     1
 10
0.0
 20
0.0
 30
0.0
  0
VERTEX
  5
CD2
  8
0
 62
     7
 10
165.364822
 20
482.09524800000003
 30
0.0
  0
VERTEX
  5
CD3
  8
0
 62
     7
 10
165.364822
 20
492.34036200000003
 30
0.0
  0
VERTEX
  5
CD4
  8
0
 62
     7
 10
163.36482199999989
 20
493.34036199999991
 30
0.0
  0
VERTEX
  5
CD5
  8
0
 62
     7
 10
167.364822
 20
494.34036099999997
 30
0.0
  0
VERTEX
  5
CD6
  8
0
 62
     7
 10
165.364822
 20
495.34036099999997
 30
0.0
  0
SEQEND
  5
CD7
  8
0
 62
     7
  0
LINE
  5
5AD
  8
0
 62
     7
 10
167.104805
 20
482.842803
 30
0.0
 11
166.10480499999991
 21
482.842803
 31
0.0
  0
LINE
  5
5AE
  8
0
 62
     7
 10
167.104805
 20
494.842803
 30
0.0
 11
166.10480499999991
 21
494.842803
 31
0.0
  0
LINE
  5
5AF
  8
0
 62
     3
 10
145.60480499999991
 20
498.842804
 30
0.0
 11
145.60480499999991
 21
501.36025199999989
 31
0.0
  0
LINE
  5
5B0
  8
0
  6
DASHDOT
 62
     7
 10
197.94827299999989
 20
488.842803
 30
0.0
 11
138.42321799999991
 21
488.842803
 31
0.0
  0
LINE
  5
5B1
  8
0
 62
     3
 10
145.60480499999991
 20
498.842804
 30
0.0
 11
140.604805
 21
498.842804
 31
0.0
  0
LINE
  5
5B2
  8
0
 62
     3
 10
145.60480499999991
 20
478.842803
 30
0.0
 11
140.604805
 21
478.842803
 31
0.0
  0
LINE
  5
5B3
  8
0
 62
     3
 10
145.60480499999991
 20
484.74280299999998
 30
0.0
 11
140.604805
 21
484.74280299999998
 31
0.0
  0
LINE
  5
5B4
  8
0
 62
     3
 10
145.60480499999991
 20
492.94280300000003
 30
0.0
 11
140.604805
 21
492.94280300000003
 31
0.0
  0
LINE
  5
5B5
  8
0
 62
     3
 10
140.604805
 20
478.842803
 30
0.0
 11
140.604805
 21
484.84280299999989
 31
0.0
  0
POLYLINE
  5
5B6
  8
0
 62
     7
 66
     1
 10
0.0
 20
0.0
 30
0.0
  0
VERTEX
  5
CD8
  8
0
 62
     7
 10
147.130394
 20
496.27610199999998
 30
0.0
  0
VERTEX
  5
CD9
  8
0
 62
     7
 10
141.91793799999991
 20
496.27610199999998
 30
0.0
  0
VERTEX
  5
CDA
  8
0
 62
     7
 10
140.91793799999991
 20
494.27610199999992
 30
0.0
  0
VERTEX
  5
CDB
  8
0
 62
     7
 10
139.91793799999991
 20
498.27610199999992
 30
0.0
  0
VERTEX
  5
CDC
  8
0
 62
     7
 10
138.91793799999991
 20
496.27610199999998
 30
0.0
  0
SEQEND
  5
CDD
  8
0
 62
     7
  0
LINE
  5
5BD
  8
0
 62
     3
 10
140.604805
 20
492.842803
 30
0.0
 11
140.604805
 21
501.36025199999989
 31
0.0
  0
LINE
  5
5BE
  8
0
 62
     4
 10
189.10472899999991
 20
470.09276499999999
 30
0.0
 11
189.10472899999991
 21
504.59276599999998
 31
0.0
  0
LINE
  5
5BF
  8
0
 62
     4
 10
186.60472899999999
 20
470.84276599999998
 30
0.0
 11
186.60472899999999
 21
501.36025199999989
 31
0.0
  0
LINE
  5
5C0
  8
0
 62
     4
 10
159.10472899999991
 20
505.84270499999991
 30
0.0
 11
122.10472900000001
 21
505.84270499999991
 31
0.0
  0
LINE
  5
5C1
  8
0
 62
     4
 10
159.10472899999991
 20
505.84278899999993
 30
0.0
 11
159.10472899999991
 21
508.84283599999998
 31
0.0
  0
LINE
  5
5C2
  8
0
 62
     4
 10
187.85472899999999
 20
468.84270400000003
 30
0.0
 11
159.804802
 21
468.84270400000003
 31
0.0
  0
ARC
  5
5C3
  8
0
 62
     4
 10
187.85472899999999
 20
470.09276499999999
 30
0.0
 40
1.25
 50
269.99995000000001
 51
0.000001
  0
LINE
  5
5C4
  8
0
 62
     4
 10
186.60472899999999
 20
470.84270400000003
 30
0.0
 11
159.804802
 21
470.84270400000003
 31
0.0
  0
LINE
  5
5C5
  8
0
 62
     4
 10
185.6047669999999
 20
472.84270400000003
 30
0.0
 11
159.804802
 21
472.84270400000003
 31
0.0
  0
LINE
  5
5C6
  8
0
 62
     4
 10
183.6047669999999
 20
468.84277800000001
 30
0.0
 11
183.6047669999999
 21
470.84277800000001
 31
0.0
  0
LINE
  5
5C7
  8
0
 62
     4
 10
186.60472899999999
 20
474.84270400000003
 30
0.0
 11
159.804802
 21
474.84270400000003
 31
0.0
  0
LINE
  5
5C8
  8
0
 62
     4
 10
185.6047669999999
 20
470.8427759999999
 30
0.0
 11
185.6047669999999
 21
472.8427759999999
 31
0.0
  0
LINE
  5
5C9
  8
0
 62
     4
 10
111.1047439999999
 20
468.84282899999999
 30
0.0
 11
111.1047439999999
 21
505.84282899999999
 31
0.0
  0
ARC
  5
5CA
  8
0
 62
     4
 10
187.85472899999999
 20
504.59276599999998
 30
0.0
 40
1.25
 50
0.000001
 51
90.0
  0
LINE
  5
5CB
  8
0
 62
     1
 10
158.004807
 20
480.342803
 30
0.0
 11
158.004807
 21
497.34280299999989
 31
0.0
  0
LINE
  5
5CC
  8
0
 62
     1
 10
159.00480699999989
 20
481.84280299999989
 30
0.0
 11
158.004807
 21
481.84280299999989
 31
0.0
  0
LINE
  5
5CD
  8
0
 62
     1
 10
159.00480699999989
 20
483.842803
 30
0.0
 11
158.004807
 21
483.842803
 31
0.0
  0
LINE
  5
5CE
  8
0
 62
     1
 10
159.00480699999989
 20
495.842803
 30
0.0
 11
158.004807
 21
495.842803
 31
0.0
  0
LINE
  5
5CF
  8
0
 62
     1
 10
159.00480699999989
 20
493.84280299999989
 30
0.0
 11
158.004807
 21
493.84280299999989
 31
0.0
  0
POLYLINE
  5
5D0
  8
0
 62
     7
 66
     1
 10
0.0
 20
0.0
 30
0.0
  0
VERTEX
  5
CDE
  8
0
 62
     7
 10
133.97652400000001
 20
467.67527000000001
 30
0.0
  0
VERTEX
  5
CDF
  8
0
 62
     7
 10
133.97652400000001
 20
483.6752699999999
 30
0.0
  0
VERTEX
  5
CE0
  8
0
 62
     7
 10
131.97652400000001
 20
484.67527000000001
 30
0.0
  0
VERTEX
  5
CE1
  8
0
 62
     7
 10
135.97652400000001
 20
485.67527000000001
 30
0.0
  0
VERTEX
  5
CE2
  8
0
 62
     7
 10
133.97652400000001
 20
486.67527000000001
 30
0.0
  0
VERTEX
  5
CE3
  8
0
 62
     7
 10
133.97652400000001
 20
501.36025199999989
 30
0.0
  0
SEQEND
  5
CE4
  8
0
 62
     7
  0
POLYLINE
  5
5D8
  8
0
 62
     7
 66
     1
 10
0.0
 20
0.0
 30
0.0
  0
VERTEX
  5
CE5
  8
0
 62
     7
 10
192.0900729999999
 20
501.36025199999989
 30
0.0
  0
VERTEX
  5
CE6
  8
0
 62
     7
 10
176.0900729999999
 20
501.36025199999989
 30
0.0
  0
VERTEX
  5
CE7
  8
0
 62
     7
 10
175.0900729999999
 20
499.36025199999989
 30
0.0
  0
VERTEX
  5
CE8
  8
0
 62
     7
 10
174.0900729999999
 20
503.36025199999989
 30
0.0
  0
VERTEX
  5
CE9
  8
0
 62
     7
 10
173.0900729999999
 20
501.36025199999989
 30
0.0
  0
VERTEX
  5
CEA
  8
0
 62
     7
 10
157.0900729999999
 20
501.36025199999989
 30
0.0
  0
VERTEX
  5
CEB
  8
0
 62
     7
 10
156.09007299999999
 20
499.36025199999989
 30
0.0
  0
VERTEX
  5
CEC
  8
0
 62
     7
 10
155.0900729999999
 20
503.36025199999989
 30
0.0
  0
VERTEX
  5
CED
  8
0
 62
     7
 10
154.0900729999999
 20
501.36025199999989
 30
0.0
  0
VERTEX
  5
CEE
  8
0
 62
     7
 10
138.09007299999999
 20
501.36025199999989
 30
0.0
  0
VERTEX
  5
CEF
  8
0
 62
     7
 10
137.09007299999999
 20
499.36025199999989
 30
0.0
  0
VERTEX
  5
CF0
  8
0
 62
     7
 10
136.09007299999999
 20
503.36025199999989
 30
0.0
  0
VERTEX
  5
CF1
  8
0
 62
     7
 10
135.0900729999999
 20
501.36025199999989
 30
0.0
  0
VERTEX
  5
CF2
  8
0
 62
     7
 10
133.97652400000001
 20
501.36025199999989
 30
0.0
  0
SEQEND
  5
CF3
  8
0
 62
     7
  0
LINE
  5
5E8
  8
0
 62
     4
 10
111.1047439999999
 20
505.84282899999999
 30
0.0
 11
122.10472900000001
 21
508.84281199999998
 31
0.0
  0
LINE
  5
5E9
  8
0
 62
     4
 10
122.10472900000001
 20
505.84281899999991
 30
0.0
 11
122.10472900000001
 21
506.84281900000002
 31
0.0
  0
LINE
  5
5EA
  8
0
 62
     4
 10
159.10472899999991
 20
506.84270499999991
 30
0.0
 11
122.10472900000001
 21
506.84270499999991
 31
0.0
  0
LINE
  5
5EB
  8
0
 62
     4
 10
187.85472899999999
 20
505.84270499999991
 30
0.0
 11
159.10472899999991
 21
505.84270499999991
 31
0.0
  0
LINE
  5
5EC
  8
0
 62
     4
 10
143.80480199999991
 20
474.84270400000003
 30
0.0
 11
133.97652400000001
 21
474.84270400000003
 31
0.0
  0
LINE
  5
5ED
  8
0
 62
     4
 10
143.80480199999991
 20
472.84270400000003
 30
0.0
 11
133.97652400000001
 21
472.84270400000003
 31
0.0
  0
LINE
  5
5EE
  8
0
 62
     4
 10
143.80480199999991
 20
470.84270400000003
 30
0.0
 11
133.97652400000001
 21
470.84270400000003
 31
0.0
  0
LINE
  5
5EF
  8
0
 62
     4
 10
143.80480199999991
 20
468.84270400000003
 30
0.0
 11
111.1047439999999
 21
468.84270400000003
 31
0.0
  0
LINE
  5
5F0
  8
0
 62
    31
 10
158.004807
 20
688.84276599999987
 30
0.0
 11
158.004807
 21
711.84276599999998
 31
0.0
  0
LINE
  5
5F1
  8
0
 62
    31
 10
145.60480499999991
 20
688.84276599999987
 30
0.0
 11
145.60480499999991
 21
711.84276599999998
 31
0.0
  0
LINE
  5
5F2
  8
0
 62
    31
 10
158.004807
 20
688.84276599999987
 30
0.0
 11
145.60480499999991
 21
688.84276599999987
 31
0.0
  0
LINE
  5
5F3
  8
0
 62
    31
 10
159.804802
 20
711.84276599999998
 30
0.0
 11
143.80480199999991
 21
711.84276599999998
 31
0.0
  0
LINE
  5
5F4
  8
0
  6
DASHDOT
 62
    31
 10
151.80480199999991
 20
683.78150199999993
 30
0.0
 11
151.80480199999991
 21
732.45493299999987
 31
0.0
  0
LINE
  5
5F5
  8
0
 62
    31
 10
143.80480199999991
 20
711.84276599999998
 30
0.0
 11
143.80480199999991
 21
730.45493299999998
 31
0.0
  0
LINE
  5
5F6
  8
0
 62
    31
 10
159.804802
 20
711.84276599999998
 30
0.0
 11
159.804802
 21
730.45493299999998
 31
0.0
  0
LINE
  5
5F7
  8
0
 62
    31
 10
151.80480199999991
 20
688.84276599999987
 30
0.0
 11
155.86032900000001
 21
711.84276599999998
 31
0.0
  0
POLYLINE
  5
5F8
  8
0
 62
    31
 66
     1
 10
0.0
 20
0.0
 30
0.0
 70
     1
  0
VERTEX
  5
CF4
  8
0
 62
    31
 10
143.80480199999991
 20
730.45493299999998
 30
0.0
  0
VERTEX
  5
CF5
  8
0
 62
    31
 10
143.808807
 20
730.36547099999996
 30
0.0
  0
VERTEX
  5
CF6
  8
0
 62
    31
 10
143.820831
 20
730.27605400000004
 30
0.0
  0
VERTEX
  5
CF7
  8
0
 62
    31
 10
143.8409649999999
 20
730.18662300000005
 30
0.0
  0
VERTEX
  5
CF8
  8
0
 62
    31
 10
143.86935399999999
 20
730.09706900000003
 30
0.0
  0
VERTEX
  5
CF9
  8
0
 62
    31
 10
143.90623500000001
 20
730.00739299999987
 30
0.0
  0
VERTEX
  5
CFA
  8
0
 62
    31
 10
143.951874
 20
729.91759500000001
 30
0.0
  0
VERTEX
  5
CFB
  8
0
 62
    31
 10
144.00659899999991
 20
729.82770500000004
 30
0.0
  0
VERTEX
  5
CFC
  8
0
 62
    31
 10
144.0707699999999
 20
729.73783099999991
 30
0.0
  0
VERTEX
  5
CFD
  8
0
 62
    31
 10
144.144745
 20
729.64809400000001
 30
0.0
  0
VERTEX
  5
CFE
  8
0
 62
    31
 10
144.22891200000001
 20
729.55869299999995
 30
0.0
  0
VERTEX
  5
CFF
  8
0
 62
    31
 10
144.3236159999999
 20
729.46987200000001
 30
0.0
  0
VERTEX
  5
D00
  8
0
 62
    31
 10
144.42918399999999
 20
729.38194999999985
 30
0.0
  0
VERTEX
  5
D01
  8
0
 62
    31
 10
144.5458909999999
 20
729.29525000000001
 30
0.0
  0
VERTEX
  5
D02
  8
0
 62
    31
 10
144.673958
 20
729.21016699999996
 30
0.0
  0
VERTEX
  5
D03
  8
0
 62
    31
 10
144.81352200000001
 20
729.12712899999997
 30
0.0
  0
VERTEX
  5
D04
  8
0
 62
    31
 10
144.96463799999989
 20
729.04660799999988
 30
0.0
  0
VERTEX
  5
D05
  8
0
 62
    31
 10
145.12724299999991
 20
728.96910899999989
 30
0.0
  0
VERTEX
  5
D06
  8
0
 62
    31
 10
145.30118599999989
 20
728.89513399999987
 30
0.0
  0
VERTEX
  5
D07
  8
0
 62
    31
 10
145.48618300000001
 20
728.82520299999987
 30
0.0
  0
VERTEX
  5
D08
  8
0
 62
    31
 10
145.68180799999999
 20
728.75986499999988
 30
0.0
  0
VERTEX
  5
D09
  8
0
 62
    31
 10
145.88753500000001
 20
728.69965400000001
 30
0.0
  0
VERTEX
  5
D0A
  8
0
 62
    31
 10
146.10269199999991
 20
728.64504199999999
 30
0.0
  0
VERTEX
  5
D0B
  8
0
 62
    31
 10
146.32646199999999
 20
728.59653500000002
 30
0.0
  0
VERTEX
  5
D0C
  8
0
 62
    31
 10
146.5579449999999
 20
728.55457299999989
 30
0.0
  0
VERTEX
  5
D0D
  8
0
 62
    31
 10
146.79608200000001
 20
728.51956900000005
 30
0.0
  0
VERTEX
  5
D0E
  8
0
 62
    31
 10
147.0397419999999
 20
728.49185899999998
 30
0.0
  0
VERTEX
  5
D0F
  8
0
 62
    31
 10
147.28769700000001
 20
728.47171800000001
 30
0.0
  0
VERTEX
  5
D10
  8
0
 62
    31
 10
147.53864300000001
 20
728.45935799999995
 30
0.0
  0
VERTEX
  5
D11
  8
0
 62
    31
 10
147.79122899999999
 20
728.45494799999994
 30
0.0
  0
VERTEX
  5
D12
  8
0
 62
    31
 10
148.0440899999999
 20
728.45851900000002
 30
0.0
  0
VERTEX
  5
D13
  8
0
 62
    31
 10
148.17013499999999
 20
728.46329500000002
 30
0.0
  0
VERTEX
  5
D14
  8
0
 62
    31
 10
148.29581499999989
 20
728.470055
 30
0.0
  0
VERTEX
  5
D15
  8
0
 62
    31
 10
148.42073799999989
 20
728.47878299999991
 30
0.0
  0
VERTEX
  5
D16
  8
0
 62
    31
 10
148.5450439999999
 20
728.48947899999996
 30
0.0
  0
VERTEX
  5
D17
  8
0
 62
    31
 10
148.6681669999999
 20
728.50206800000001
 30
0.0
  0
VERTEX
  5
D18
  8
0
 62
    31
 10
148.7904429999999
 20
728.51659400000005
 30
0.0
  0
VERTEX
  5
D19
  8
0
 62
    31
 10
148.9111179999999
 20
728.53295100000003
 30
0.0
  0
VERTEX
  5
D1A
  8
0
 62
    31
 10
149.0307159999999
 20
728.55116999999996
 30
0.0
  0
VERTEX
  5
D1B
  8
0
 62
    31
 10
149.148338
 20
728.57112900000004
 30
0.0
  0
VERTEX
  5
D1C
  8
0
 62
    31
 10
149.2646639999999
 20
728.59288800000002
 30
0.0
  0
VERTEX
  5
D1D
  8
0
 62
    31
 10
149.37867
 20
728.61624900000004
 30
0.0
  0
VERTEX
  5
D1E
  8
0
 62
    31
 10
149.49118000000001
 20
728.64136499999995
 30
0.0
  0
VERTEX
  5
D1F
  8
0
 62
    31
 10
149.60105899999999
 20
728.66793099999995
 30
0.0
  0
VERTEX
  5
D20
  8
0
 62
    31
 10
149.7092669999999
 20
728.69615899999985
 30
0.0
  0
VERTEX
  5
D21
  8
0
 62
    31
 10
149.81455999999989
 20
728.72569999999985
 30
0.0
  0
VERTEX
  5
D22
  8
0
 62
    31
 10
149.91802200000001
 20
728.75682800000004
 30
0.0
  0
VERTEX
  5
D23
  8
0
 62
    31
 10
150.01834899999989
 20
728.789085
 30
0.0
  0
VERTEX
  5
D24
  8
0
 62
    31
 10
150.11671399999989
 20
728.82282300000008
 30
0.0
  0
VERTEX
  5
D25
  8
0
 62
    31
 10
150.21174600000001
 20
728.85753599999998
 30
0.0
  0
VERTEX
  5
D26
  8
0
 62
    31
 10
150.3047029999999
 20
728.89363899999989
 30
0.0
  0
VERTEX
  5
D27
  8
0
 62
    31
 10
150.39419599999991
 20
728.93053399999985
 30
0.0
  0
VERTEX
  5
D28
  8
0
 62
    31
 10
150.48151399999989
 20
728.96872699999994
 30
0.0
  0
VERTEX
  5
D29
  8
0
 62
    31
 10
150.56527700000001
 20
729.00752999999986
 30
0.0
  0
VERTEX
  5
D2A
  8
0
 62
    31
 10
150.646782
 20
729.04752300000007
 30
0.0
  0
VERTEX
  5
D2B
  8
0
 62
    31
 10
150.72469299999989
 20
729.08797500000003
 30
0.0
  0
VERTEX
  5
D2C
  8
0
 62
    31
 10
150.80030099999991
 20
729.12950899999998
 30
0.0
  0
VERTEX
  5
D2D
  8
0
 62
    31
 10
150.872299
 20
729.171333
 30
0.0
  0
VERTEX
  5
D2E
  8
0
 62
    31
 10
150.94195599999989
 20
729.21413399999994
 30
0.0
  0
VERTEX
  5
D2F
  8
0
 62
    31
 10
151.00804099999999
 20
729.25708799999995
 30
0.0
  0
VERTEX
  5
D30
  8
0
 62
    31
 10
151.0717699999999
 20
729.30092599999989
 30
0.0
  0
VERTEX
  5
D31
  8
0
 62
    31
 10
151.13198099999991
 20
729.34476500000005
 30
0.0
  0
VERTEX
  5
D32
  8
0
 62
    31
 10
151.189842
 20
729.38938099999996
 30
0.0
  0
VERTEX
  5
D33
  8
0
 62
    31
 10
151.24427800000001
 20
729.43390699999986
 30
0.0
  0
VERTEX
  5
D34
  8
0
 62
    31
 10
151.296379
 20
729.4791029999999
 30
0.0
  0
VERTEX
  5
D35
  8
0
 62
    31
 10
151.34517700000001
 20
729.52410099999986
 30
0.0
  0
VERTEX
  5
D36
  8
0
 62
    31
 10
151.39165499999999
 20
729.56970999999987
 30
0.0
  0
VERTEX
  5
D37
  8
0
 62
    31
 10
151.434967
 20
729.61499800000001
 30
0.0
  0
VERTEX
  5
D38
  8
0
 62
    31
 10
151.475998
 20
729.66083499999991
 30
0.0
  0
VERTEX
  5
D39
  8
0
 62
    31
 10
151.514015
 20
729.70630599999993
 30
0.0
  0
VERTEX
  5
D3A
  8
0
 62
    31
 10
151.5497739999999
 20
729.75221999999985
 30
0.0
  0
VERTEX
  5
D3B
  8
0
 62
    31
 10
151.58268699999999
 20
729.79773699999987
 30
0.0
  0
VERTEX
  5
D3C
  8
0
 62
    31
 10
151.6133879999999
 20
729.84363600000006
 30
0.0
  0
VERTEX
  5
D3D
  8
0
 62
    31
 10
151.6413959999999
 20
729.88912199999993
 30
0.0
  0
VERTEX
  5
D3E
  8
0
 62
    31
 10
151.667236
 20
729.93491399999994
 30
0.0
  0
VERTEX
  5
D3F
  8
0
 62
    31
 10
151.69053600000001
 20
729.98029299999985
 30
0.0
  0
VERTEX
  5
D40
  8
0
 62
    31
 10
151.71170000000001
 20
730.02593200000001
 30
0.0
  0
VERTEX
  5
D41
  8
0
 62
    31
 10
151.73048399999999
 20
730.07117500000004
 30
0.0
  0
VERTEX
  5
D42
  8
0
 62
    31
 10
151.7471689999999
 20
730.11663099999998
 30
0.0
  0
VERTEX
  5
D43
  8
0
 62
    31
 10
151.7615889999999
 20
730.16173600000002
 30
0.0
  0
VERTEX
  5
D44
  8
0
 62
    31
 10
151.7739489999999
 20
730.20697800000005
 30
0.0
  0
VERTEX
  5
D45
  8
0
 62
    31
 10
151.7841489999999
 20
730.25194499999998
 30
0.0
  0
VERTEX
  5
D46
  8
0
 62
    31
 10
151.79231299999989
 20
730.2970049999999
 30
0.0
  0
VERTEX
  5
D47
  8
0
 62
    31
 10
151.79840899999999
 20
730.34185000000002
 30
0.0
  0
VERTEX
  5
D48
  8
0
 62
    31
 10
151.80248299999991
 20
730.38675699999999
 30
0.0
  0
VERTEX
  5
D49
  8
0
 62
    31
 10
151.80452700000001
 20
730.43152599999996
 30
0.0
  0
VERTEX
  5
D4A
  8
0
 62
    31
 10
151.804573
 20
730.47631100000001
 30
0.0
  0
VERTEX
  5
D4B
  8
0
 62
    31
 10
151.79866000000001
 20
730.565742
 30
0.0
  0
VERTEX
  5
D4C
  8
0
 62
    31
 10
151.784706
 20
730.65515900000003
 30
0.0
  0
VERTEX
  5
D4D
  8
0
 62
    31
 10
151.762619
 20
730.74462100000005
 30
0.0
  0
VERTEX
  5
D4E
  8
0
 62
    31
 10
151.732224
 20
730.83419000000004
 30
0.0
  0
VERTEX
  5
D4F
  8
0
 62
    31
 10
151.69328300000001
 20
730.92389700000001
 30
0.0
  0
VERTEX
  5
D50
  8
0
 62
    31
 10
151.64550800000001
 20
731.01372500000002
 30
0.0
  0
VERTEX
  5
D51
  8
0
 62
    31
 10
151.58855399999999
 20
731.10362999999995
 30
0.0
  0
VERTEX
  5
D52
  8
0
 62
    31
 10
151.52207899999991
 20
731.19348899999989
 30
0.0
  0
VERTEX
  5
D53
  8
0
 62
    31
 10
151.44570200000001
 20
731.28316500000005
 30
0.0
  0
VERTEX
  5
D54
  8
0
 62
    31
 10
151.359047
 20
731.37244400000009
 30
0.0
  0
VERTEX
  5
D55
  8
0
 62
    31
 10
151.26177999999999
 20
731.46108200000003
 30
0.0
  0
VERTEX
  5
D56
  8
0
 62
    31
 10
151.15357199999991
 20
731.54874400000006
 30
0.0
  0
VERTEX
  5
D57
  8
0
 62
    31
 10
151.0341719999999
 20
731.63509400000009
 30
0.0
  0
VERTEX
  5
D58
  8
0
 62
    31
 10
150.90336600000001
 20
731.7197339999999
 30
0.0
  0
VERTEX
  5
D59
  8
0
 62
    31
 10
150.76104699999991
 20
731.80220799999995
 30
0.0
  0
VERTEX
  5
D5A
  8
0
 62
    31
 10
150.607178
 20
731.88205700000003
 30
0.0
  0
VERTEX
  5
D5B
  8
0
 62
    31
 10
150.4418409999999
 20
731.95876299999998
 30
0.0
  0
VERTEX
  5
D5C
  8
0
 62
    31
 10
150.26522800000001
 20
732.03182199999981
 30
0.0
  0
VERTEX
  5
D5D
  8
0
 62
    31
 10
150.077652
 20
732.10069999999985
 30
0.0
  0
VERTEX
  5
D5E
  8
0
 62
    31
 10
149.87956199999999
 20
732.16486399999985
 30
0.0
  0
VERTEX
  5
D5F
  8
0
 62
    31
 10
149.67151599999991
 20
732.223793
 30
0.0
  0
VERTEX
  5
D60
  8
0
 62
    31
 10
149.45422400000001
 20
732.27697000000001
 30
0.0
  0
VERTEX
  5
D61
  8
0
 62
    31
 10
149.228523
 20
732.32395199999985
 30
0.0
  0
VERTEX
  5
D62
  8
0
 62
    31
 10
148.99535399999991
 20
732.36429599999985
 30
0.0
  0
VERTEX
  5
D63
  8
0
 62
    31
 10
148.7557909999999
 20
732.39759100000003
 30
0.0
  0
VERTEX
  5
D64
  8
0
 62
    31
 10
148.5109939999999
 20
732.42351499999995
 30
0.0
  0
VERTEX
  5
D65
  8
0
 62
    31
 10
148.26219900000001
 20
732.44181100000003
 30
0.0
  0
VERTEX
  5
D66
  8
0
 62
    31
 10
148.01073500000001
 20
732.45227799999986
 30
0.0
  0
VERTEX
  5
D67
  8
0
 62
    31
 10
147.757957
 20
732.45479599999999
 30
0.0
  0
VERTEX
  5
D68
  8
0
 62
    31
 10
147.631516
 20
732.45305599999995
 30
0.0
  0
VERTEX
  5
D69
  8
0
 62
    31
 10
147.50524899999991
 20
732.44931799999995
 30
0.0
  0
VERTEX
  5
D6A
  8
0
 62
    31
 10
147.37940199999991
 20
732.44358099999988
 30
0.0
  0
VERTEX
  5
D6B
  8
0
 62
    31
 10
147.2539899999999
 20
732.43587500000001
 30
0.0
  0
VERTEX
  5
D6C
  8
0
 62
    31
 10
147.1294399999999
 20
732.42621599999995
 30
0.0
  0
VERTEX
  5
D6D
  8
0
 62
    31
 10
147.00555399999999
 20
732.41460400000005
 30
0.0
  0
VERTEX
  5
D6E
  8
0
 62
    31
 10
146.882957
 20
732.40110000000004
 30
0.0
  0
VERTEX
  5
D6F
  8
0
 62
    31
 10
146.76126899999991
 20
732.38567399999999
 30
0.0
  0
VERTEX
  5
D70
  8
0
 62
    31
 10
146.6412729999999
 20
732.36844599999995
 30
0.0
  0
VERTEX
  5
D71
  8
0
 62
    31
 10
146.5224
 20
732.34935800000005
 30
0.0
  0
VERTEX
  5
D72
  8
0
 62
    31
 10
146.40559400000001
 20
732.328575
 30
0.0
  0
VERTEX
  5
D73
  8
0
 62
    31
 10
146.290131
 20
732.30599199999995
 30
0.0
  0
VERTEX
  5
D74
  8
0
 62
    31
 10
146.17706299999989
 20
732.281837
 30
0.0
  0
VERTEX
  5
D75
  8
0
 62
    31
 10
146.06553600000001
 20
732.25597400000004
 30
0.0
  0
VERTEX
  5
D76
  8
0
 62
    31
 10
145.956718
 20
732.22866099999987
 30
0.0
  0
VERTEX
  5
D77
  8
0
 62
    31
 10
145.84960899999999
 20
732.19972999999993
 30
0.0
  0
VERTEX
  5
D78
  8
0
 62
    31
 10
145.7454679999999
 20
732.16950199999985
 30
0.0
  0
VERTEX
  5
D79
  8
0
 62
    31
 10
145.6431879999999
 20
732.13774899999987
 30
0.0
  0
VERTEX
  5
D7A
  8
0
 62
    31
 10
145.54409799999991
 20
732.10486600000002
 30
0.0
  0
VERTEX
  5
D7B
  8
0
 62
    31
 10
145.44700599999999
 20
732.07053399999995
 30
0.0
  0
VERTEX
  5
D7C
  8
0
 62
    31
 10
145.35327100000001
 20
732.03527099999985
 30
0.0
  0
VERTEX
  5
D7D
  8
0
 62
    31
 10
145.26164999999989
 20
731.99864999999988
 30
0.0
  0
VERTEX
  5
D7E
  8
0
 62
    31
 10
145.17350799999991
 20
731.96128099999987
 30
0.0
  0
VERTEX
  5
D7F
  8
0
 62
    31
 10
145.0875629999999
 20
731.92263000000003
 30
0.0
  0
VERTEX
  5
D80
  8
0
 62
    31
 10
145.0051959999999
 20
731.88340000000005
 30
0.0
  0
VERTEX
  5
D81
  8
0
 62
    31
 10
144.92508699999999
 20
731.84302500000001
 30
0.0
  0
VERTEX
  5
D82
  8
0
 62
    31
 10
144.84858700000001
 20
731.80222300000003
 30
0.0
  0
VERTEX
  5
D83
  8
0
 62
    31
 10
144.77439899999999
 20
731.76036799999986
 30
0.0
  0
VERTEX
  5
D84
  8
0
 62
    31
 10
144.703812
 20
731.71823899999993
 30
0.0
  0
VERTEX
  5
D85
  8
0
 62
    31
 10
144.63557399999999
 20
731.67517899999984
 30
0.0
  0
VERTEX
  5
D86
  8
0
 62
    31
 10
144.57089999999991
 20
731.63199599999984
 30
0.0
  0
VERTEX
  5
D87
  8
0
 62
    31
 10
144.50858299999999
 20
731.58794399999988
 30
0.0
  0
VERTEX
  5
D88
  8
0
 62
    31
 10
144.44976
 20
731.54392199999995
 30
0.0
  0
VERTEX
  5
D89
  8
0
 62
    31
 10
144.39328800000001
 20
731.49913800000002
 30
0.0
  0
VERTEX
  5
D8A
  8
0
 62
    31
 10
144.34020200000001
 20
731.45450599999992
 30
0.0
  0
VERTEX
  5
D8B
  8
0
 62
    31
 10
144.289467
 20
731.40918699999986
 30
0.0
  0
VERTEX
  5
D8C
  8
0
 62
    31
 10
144.2419889999999
 20
731.36409800000001
 30
0.0
  0
VERTEX
  5
D8D
  8
0
 62
    31
 10
144.196831
 20
731.31842800000004
 30
0.0
  0
VERTEX
  5
D8E
  8
0
 62
    31
 10
144.15479999999999
 20
731.27307900000005
 30
0.0
  0
VERTEX
  5
D8F
  8
0
 62
    31
 10
144.11505099999991
 20
731.22721100000001
 30
0.0
  0
VERTEX
  5
D90
  8
0
 62
    31
 10
144.07826999999989
 20
731.18172500000003
 30
0.0
  0
VERTEX
  5
D91
  8
0
 62
    31
 10
144.04373200000001
 20
731.13579600000003
 30
0.0
  0
VERTEX
  5
D92
  8
0
 62
    31
 10
144.01200900000001
 20
731.09027900000001
 30
0.0
  0
VERTEX
  5
D93
  8
0
 62
    31
 10
143.9824909999999
 20
731.04439499999989
 30
0.0
  0
VERTEX
  5
D94
  8
0
 62
    31
 10
143.9556199999999
 20
730.99893999999995
 30
0.0
  0
VERTEX
  5
D95
  8
0
 62
    31
 10
143.930916
 20
730.95317799999998
 30
0.0
  0
VERTEX
  5
D96
  8
0
 62
    31
 10
143.90871399999989
 20
730.90782899999999
 30
0.0
  0
VERTEX
  5
D97
  8
0
 62
    31
 10
143.88863399999991
 20
730.86223600000005
 30
0.0
  0
VERTEX
  5
D98
  8
0
 62
    31
 10
143.870903
 20
730.81702399999995
 30
0.0
  0
VERTEX
  5
D99
  8
0
 62
    31
 10
143.8552699999999
 20
730.771614
 30
0.0
  0
VERTEX
  5
D9A
  8
0
 62
    31
 10
143.8418659999999
 20
730.72655499999985
 30
0.0
  0
VERTEX
  5
D9B
  8
0
 62
    31
 10
143.830521
 20
730.68135800000005
 30
0.0
  0
VERTEX
  5
D9C
  8
0
 62
    31
 10
143.82131200000001
 20
730.63642100000004
 30
0.0
  0
VERTEX
  5
D9D
  8
0
 62
    31
 10
143.8141249999999
 20
730.59139299999993
 30
0.0
  0
VERTEX
  5
D9E
  8
0
 62
    31
 10
143.80900600000001
 20
730.54657699999996
 30
0.0
  0
VERTEX
  5
D9F
  8
0
 62
    31
 10
143.80590100000001
 20
730.50170100000003
 30
0.0
  0
SEQEND
  5
DA0
  8
0
 62
    31
  0
POLYLINE
  5
6A6
  8
0
 62
    31
 66
     1
 10
0.0
 20
0.0
 30
0.0
  0
VERTEX
  5
DA1
  8
0
 62
    31
 10
159.804802
 20
730.45493299999998
 30
0.0
  0
VERTEX
  5
DA2
  8
0
 62
    31
 10
159.800804
 20
730.54439499999989
 30
0.0
  0
VERTEX
  5
DA3
  8
0
 62
    31
 10
159.78877299999999
 20
730.63379699999984
 30
0.0
  0
VERTEX
  5
DA4
  8
0
 62
    31
 10
159.76864599999999
 20
730.72324399999991
 30
0.0
  0
VERTEX
  5
DA5
  8
0
 62
    31
 10
159.74025
 20
730.81278200000008
 30
0.0
  0
VERTEX
  5
DA6
  8
0
 62
    31
 10
159.7033769999999
 20
730.90245799999991
 30
0.0
  0
VERTEX
  5
DA7
  8
0
 62
    31
 10
159.65773799999999
 20
730.992256
 30
0.0
  0
VERTEX
  5
DA8
  8
0
 62
    31
 10
159.60301199999989
 20
731.08214599999985
 30
0.0
  0
VERTEX
  5
DA9
  8
0
 62
    31
 10
159.53884099999991
 20
731.17203499999994
 30
0.0
  0
VERTEX
  5
DAA
  8
0
 62
    31
 10
159.46485899999999
 20
731.26177199999995
 30
0.0
  0
VERTEX
  5
DAB
  8
0
 62
    31
 10
159.38069899999999
 20
731.35117300000002
 30
0.0
  0
VERTEX
  5
DAC
  8
0
 62
    31
 10
159.2859949999999
 20
731.43997999999999
 30
0.0
  0
VERTEX
  5
DAD
  8
0
 62
    31
 10
159.18042800000001
 20
731.527916
 30
0.0
  0
VERTEX
  5
DAE
  8
0
 62
    31
 10
159.0637209999999
 20
731.61461599999996
 30
0.0
  0
VERTEX
  5
DAF
  8
0
 62
    31
 10
158.93565399999989
 20
731.6996989999999
 30
0.0
  0
VERTEX
  5
DB0
  8
0
 62
    31
 10
158.79608899999991
 20
731.78273799999988
 30
0.0
  0
VERTEX
  5
DB1
  8
0
 62
    31
 10
158.64497399999991
 20
731.86324300000001
 30
0.0
  0
VERTEX
  5
DB2
  8
0
 62
    31
 10
158.48236099999991
 20
731.94075799999996
 30
0.0
  0
VERTEX
  5
DB3
  8
0
 62
    31
 10
158.3084179999999
 20
732.01473199999998
 30
0.0
  0
VERTEX
  5
DB4
  8
0
 62
    31
 10
158.1234279999999
 20
732.08464800000002
 30
0.0
  0
VERTEX
  5
DB5
  8
0
 62
    31
 10
157.92780300000001
 20
732.14998600000001
 30
0.0
  0
VERTEX
  5
DB6
  8
0
 62
    31
 10
157.7220759999999
 20
732.21021299999995
 30
0.0
  0
VERTEX
  5
DB7
  8
0
 62
    31
 10
157.50692000000001
 20
732.26482399999986
 30
0.0
  0
VERTEX
  5
DB8
  8
0
 62
    31
 10
157.28314199999991
 20
732.31333200000006
 30
0.0
  0
VERTEX
  5
DB9
  8
0
 62
    31
 10
157.0516659999999
 20
732.35527799999988
 30
0.0
  0
VERTEX
  5
DBA
  8
0
 62
    31
 10
156.81352999999999
 20
732.3902969999998
 30
0.0
  0
VERTEX
  5
DBB
  8
0
 62
    31
 10
156.56987000000001
 20
732.41800699999988
 30
0.0
  0
VERTEX
  5
DBC
  8
0
 62
    31
 10
156.3219149999999
 20
732.43814799999996
 30
0.0
  0
VERTEX
  5
DBD
  8
0
 62
    31
 10
156.07096899999991
 20
732.45049299999994
 30
0.0
  0
VERTEX
  5
DBE
  8
0
 62
    31
 10
155.81837499999989
 20
732.45491799999991
 30
0.0
  0
VERTEX
  5
DBF
  8
0
 62
    31
 10
155.5655209999999
 20
732.45134699999994
 30
0.0
  0
VERTEX
  5
DC0
  8
0
 62
    31
 10
155.43947600000001
 20
732.44657099999995
 30
0.0
  0
VERTEX
  5
DC1
  8
0
 62
    31
 10
155.3137889999999
 20
732.43981199999985
 30
0.0
  0
VERTEX
  5
DC2
  8
0
 62
    31
 10
155.18887299999989
 20
732.43108399999994
 30
0.0
  0
VERTEX
  5
DC3
  8
0
 62
    31
 10
155.06456
 20
732.42038699999989
 30
0.0
  0
VERTEX
  5
DC4
  8
0
 62
    31
 10
154.94143700000001
 20
732.40778399999999
 30
0.0
  0
VERTEX
  5
DC5
  8
0
 62
    31
 10
154.81916799999991
 20
732.39325700000006
 30
0.0
  0
VERTEX
  5
DC6
  8
0
 62
    31
 10
154.6984939999999
 20
732.37691500000005
 30
0.0
  0
VERTEX
  5
DC7
  8
0
 62
    31
 10
154.5788959999999
 20
732.35868099999993
 30
0.0
  0
VERTEX
  5
DC8
  8
0
 62
    31
 10
154.46127300000001
 20
732.33873700000004
 30
0.0
  0
VERTEX
  5
DC9
  8
0
 62
    31
 10
154.34493999999989
 20
732.31697799999995
 30
0.0
  0
VERTEX
  5
DCA
  8
0
 62
    31
 10
154.230942
 20
732.29360199999996
 30
0.0
  0
VERTEX
  5
DCB
  8
0
 62
    31
 10
154.11842299999989
 20
732.26850100000001
 30
0.0
  0
VERTEX
  5
DCC
  8
0
 62
    31
 10
154.00855299999989
 20
732.24193600000001
 30
0.0
  0
VERTEX
  5
DCD
  8
0
 62
    31
 10
153.9003449999999
 20
732.21369200000004
 30
0.0
  0
VERTEX
  5
DCE
  8
0
 62
    31
 10
153.795052
 20
732.18415099999993
 30
0.0
  0
VERTEX
  5
DCF
  8
0
 62
    31
 10
153.69158200000001
 20
732.15303800000004
 30
0.0
  0
VERTEX
  5
DD0
  8
0
 62
    31
 10
153.59125499999999
 20
732.12078099999985
 30
0.0
  0
VERTEX
  5
DD1
  8
0
 62
    31
 10
153.49289699999991
 20
732.08704399999999
 30
0.0
  0
VERTEX
  5
DD2
  8
0
 62
    31
 10
153.39785800000001
 20
732.05231500000002
 30
0.0
  0
VERTEX
  5
DD3
  8
0
 62
    31
 10
153.30490900000001
 20
732.01622799999996
 30
0.0
  0
VERTEX
  5
DD4
  8
0
 62
    31
 10
153.215416
 20
731.97931700000004
 30
0.0
  0
VERTEX
  5
DD5
  8
0
 62
    31
 10
153.12809799999999
 20
731.94113899999991
 30
0.0
  0
VERTEX
  5
DD6
  8
0
 62
    31
 10
153.04433399999999
 20
731.90232100000003
 30
0.0
  0
VERTEX
  5
DD7
  8
0
 62
    31
 10
152.96282199999999
 20
731.86232800000005
 30
0.0
  0
VERTEX
  5
DD8
  8
0
 62
    31
 10
152.88491799999991
 20
731.82187699999986
 30
0.0
  0
VERTEX
  5
DD9
  8
0
 62
    31
 10
152.80931100000001
 20
731.78035699999987
 30
0.0
  0
VERTEX
  5
DDA
  8
0
 62
    31
 10
152.737312
 20
731.73853299999985
 30
0.0
  0
VERTEX
  5
DDB
  8
0
 62
    31
 10
152.6676479999999
 20
731.69571699999995
 30
0.0
  0
VERTEX
  5
DDC
  8
0
 62
    31
 10
152.60157000000001
 20
731.65277900000001
 30
0.0
  0
VERTEX
  5
DDD
  8
0
 62
    31
 10
152.5378419999999
 20
731.60893999999996
 30
0.0
  0
VERTEX
  5
DDE
  8
0
 62
    31
 10
152.477631
 20
731.5651019999998
 30
0.0
  0
VERTEX
  5
DDF
  8
0
 62
    31
 10
152.419769
 20
731.52047000000005
 30
0.0
  0
VERTEX
  5
DE0
  8
0
 62
    31
 10
152.36532600000001
 20
731.47595999999999
 30
0.0
  0
VERTEX
  5
DE1
  8
0
 62
    31
 10
152.313232
 20
731.43074799999999
 30
0.0
  0
VERTEX
  5
DE2
  8
0
 62
    31
 10
152.26443499999999
 20
731.38576499999999
 30
0.0
  0
VERTEX
  5
DE3
  8
0
 62
    31
 10
152.21795700000001
 20
731.34015699999986
 30
0.0
  0
VERTEX
  5
DE4
  8
0
 62
    31
 10
152.174644
 20
731.29485299999988
 30
0.0
  0
VERTEX
  5
DE5
  8
0
 62
    31
 10
152.13361399999999
 20
731.24903099999995
 30
0.0
  0
VERTEX
  5
DE6
  8
0
 62
    31
 10
152.095596
 20
731.20355999999992
 30
0.0
  0
VERTEX
  5
DE7
  8
0
 62
    31
 10
152.05983699999999
 20
731.157646
 30
0.0
  0
VERTEX
  5
DE8
  8
0
 62
    31
 10
152.02692400000001
 20
731.11212899999987
 30
0.0
  0
VERTEX
  5
DE9
  8
0
 62
    31
 10
151.9962229999999
 20
731.06621600000005
 30
0.0
  0
VERTEX
  5
DEA
  8
0
 62
    31
 10
151.9682159999999
 20
731.02074400000004
 30
0.0
  0
VERTEX
  5
DEB
  8
0
 62
    31
 10
151.942375
 20
730.97493699999995
 30
0.0
  0
VERTEX
  5
DEC
  8
0
 62
    31
 10
151.91907499999991
 20
730.92955800000004
 30
0.0
  0
VERTEX
  5
DED
  8
0
 62
    31
 10
151.89790300000001
 20
730.88391899999999
 30
0.0
  0
VERTEX
  5
DEE
  8
0
 62
    31
 10
151.87912800000001
 20
730.83867599999985
 30
0.0
  0
VERTEX
  5
DEF
  8
0
 62
    31
 10
151.8624419999999
 20
730.79323599999987
 30
0.0
  0
VERTEX
  5
DF0
  8
0
 62
    31
 10
151.8480219999999
 20
730.74813099999994
 30
0.0
  0
VERTEX
  5
DF1
  8
0
 62
    31
 10
151.8356629999999
 20
730.70288800000003
 30
0.0
  0
VERTEX
  5
DF2
  8
0
 62
    31
 10
151.82546199999999
 20
730.65792099999987
 30
0.0
  0
VERTEX
  5
DF3
  8
0
 62
    31
 10
151.8172909999999
 20
730.61286199999995
 30
0.0
  0
VERTEX
  5
DF4
  8
0
 62
    31
 10
151.81120300000001
 20
730.56801599999994
 30
0.0
  0
VERTEX
  5
DF5
  8
0
 62
    31
 10
151.80712899999989
 20
730.52310899999986
 30
0.0
  0
VERTEX
  5
DF6
  8
0
 62
    31
 10
151.80480199999991
 20
730.45493299999998
 30
0.0
  0
SEQEND
  5
DF7
  8
0
 62
    31
  0
LINE
  5
6FE
  8
0
 62
    31
 10
153.22640200000001
 20
688.84276599999987
 30
0.0
 11
157.2819209999999
 21
711.84276599999998
 31
0.0
  0
LINE
  5
6FF
  8
0
 62
    31
 10
154.64800299999999
 20
688.84276599999987
 30
0.0
 11
158.004807
 21
707.88016500000003
 31
0.0
  0
LINE
  5
700
  8
0
 62
    31
 10
156.06959499999991
 20
688.84276599999987
 30
0.0
 11
158.004807
 21
699.81787899999995
 31
0.0
  0
LINE
  5
701
  8
0
 62
    31
 10
157.491196
 20
688.84276599999987
 30
0.0
 11
158.004807
 21
691.75560800000005
 31
0.0
  0
LINE
  5
702
  8
0
 62
    31
 10
150.38320899999999
 20
688.84276599999987
 30
0.0
 11
154.438728
 21
711.84276599999998
 31
0.0
  0
LINE
  5
703
  8
0
 62
    31
 10
148.96160900000001
 20
688.84276599999987
 30
0.0
 11
153.01712800000001
 21
711.84276599999998
 31
0.0
  0
LINE
  5
704
  8
0
 62
    31
 10
147.54001599999989
 20
688.84276599999987
 30
0.0
 11
151.59553500000001
 21
711.84276599999998
 31
0.0
  0
LINE
  5
705
  8
0
 62
    31
 10
146.11841599999991
 20
688.84276599999987
 30
0.0
 11
150.173935
 21
711.84276599999998
 31
0.0
  0
LINE
  5
706
  8
0
 62
    31
 10
145.60480499999991
 20
693.99221
 30
0.0
 11
148.752342
 21
711.84276599999998
 31
0.0
  0
LINE
  5
707
  8
0
 62
    31
 10
145.60480499999991
 20
702.05449699999986
 30
0.0
 11
147.3307419999999
 21
711.84276599999998
 31
0.0
  0
LINE
  5
708
  8
0
 62
    31
 10
145.60480499999991
 20
710.11676799999987
 30
0.0
 11
145.909142
 21
711.84276599999998
 31
0.0
  0
LINE
  5
709
  8
0
 62
    31
 10
158.004807
 20
475.842803
 30
0.0
 11
158.004807
 21
498.842804
 31
0.0
  0
LINE
  5
70A
  8
0
 62
    31
 10
145.60480499999991
 20
475.842803
 30
0.0
 11
145.60480499999991
 21
498.842804
 31
0.0
  0
LINE
  5
70B
  8
0
 62
    31
 10
158.004807
 20
498.842804
 30
0.0
 11
145.60480499999991
 21
498.842804
 31
0.0
  0
LINE
  5
70C
  8
0
 62
    31
 10
159.804802
 20
475.842803
 30
0.0
 11
143.80480199999991
 21
475.842803
 31
0.0
  0
LINE
  5
70D
  8
0
  6
DASHDOT
 62
    31
 10
151.80480199999991
 20
455.23064399999998
 30
0.0
 11
151.80480199999991
 21
503.904068
 31
0.0
  0
LINE
  5
70E
  8
0
 62
    31
 10
143.80480199999991
 20
457.23064399999998
 30
0.0
 11
143.80480199999991
 21
475.842803
 31
0.0
  0
LINE
  5
70F
  8
0
 62
    31
 10
159.804802
 20
457.23064399999998
 30
0.0
 11
159.804802
 21
475.842803
 31
0.0
  0
LINE
  5
710
  8
0
 62
    31
 10
155.86032900000001
 20
475.842803
 30
0.0
 11
151.80480199999991
 21
498.842804
 31
0.0
  0
POLYLINE
  5
711
  8
0
 62
    31
 66
     1
 10
0.0
 20
0.0
 30
0.0
 70
     1
  0
VERTEX
  5
DF8
  8
0
 62
    31
 10
143.80480199999991
 20
457.23064399999998
 30
0.0
  0
VERTEX
  5
DF9
  8
0
 62
    31
 10
143.808807
 20
457.141186
 30
0.0
  0
VERTEX
  5
DFA
  8
0
 62
    31
 10
143.820831
 20
457.05177500000002
 30
0.0
  0
VERTEX
  5
DFB
  8
0
 62
    31
 10
143.8409649999999
 20
456.96232800000001
 30
0.0
  0
VERTEX
  5
DFC
  8
0
 62
    31
 10
143.86935399999999
 20
456.87278700000002
 30
0.0
  0
VERTEX
  5
DFD
  8
0
 62
    31
 10
143.90623500000001
 20
456.78311300000001
 30
0.0
  0
VERTEX
  5
DFE
  8
0
 62
    31
 10
143.951874
 20
456.69331199999988
 30
0.0
  0
VERTEX
  5
DFF
  8
0
 62
    31
 10
144.00659899999991
 20
456.60342199999991
 30
0.0
  0
VERTEX
  5
E00
  8
0
 62
    31
 10
144.0707699999999
 20
456.51353799999998
 30
0.0
  0
VERTEX
  5
E01
  8
0
 62
    31
 10
144.144745
 20
456.42380099999991
 30
0.0
  0
VERTEX
  5
E02
  8
0
 62
    31
 10
144.22891200000001
 20
456.33440400000001
 30
0.0
  0
VERTEX
  5
E03
  8
0
 62
    31
 10
144.3236159999999
 20
456.24558999999999
 30
0.0
  0
VERTEX
  5
E04
  8
0
 62
    31
 10
144.42918399999999
 20
456.15765999999991
 30
0.0
  0
VERTEX
  5
E05
  8
0
 62
    31
 10
144.5458909999999
 20
456.07095700000002
 30
0.0
  0
VERTEX
  5
E06
  8
0
 62
    31
 10
144.673958
 20
455.98587400000002
 30
0.0
  0
VERTEX
  5
E07
  8
0
 62
    31
 10
144.81352200000001
 20
455.90284199999991
 30
0.0
  0
VERTEX
  5
E08
  8
0
 62
    31
 10
144.96463799999989
 20
455.82232499999998
 30
0.0
  0
VERTEX
  5
E09
  8
0
 62
    31
 10
145.12724299999991
 20
455.744822
 30
0.0
  0
VERTEX
  5
E0A
  8
0
 62
    31
 10
145.30118599999989
 20
455.67084299999988
 30
0.0
  0
VERTEX
  5
E0B
  8
0
 62
    31
 10
145.48618300000001
 20
455.60092199999991
 30
0.0
  0
VERTEX
  5
E0C
  8
0
 62
    31
 10
145.68180799999999
 20
455.53558499999991
 30
0.0
  0
VERTEX
  5
E0D
  8
0
 62
    31
 10
145.88753500000001
 20
455.47536100000002
 30
0.0
  0
VERTEX
  5
E0E
  8
0
 62
    31
 10
146.10269199999991
 20
455.42075299999999
 30
0.0
  0
VERTEX
  5
E0F
  8
0
 62
    31
 10
146.32646199999999
 20
455.37225000000001
 30
0.0
  0
VERTEX
  5
E10
  8
0
 62
    31
 10
146.5579449999999
 20
455.33029399999998
 30
0.0
  0
VERTEX
  5
E11
  8
0
 62
    31
 10
146.79608200000001
 20
455.29528399999992
 30
0.0
  0
VERTEX
  5
E12
  8
0
 62
    31
 10
147.0397419999999
 20
455.26756699999999
 30
0.0
  0
VERTEX
  5
E13
  8
0
 62
    31
 10
147.28769700000001
 20
455.2474269999999
 30
0.0
  0
VERTEX
  5
E14
  8
0
 62
    31
 10
147.53864300000001
 20
455.23507699999988
 30
0.0
  0
VERTEX
  5
E15
  8
0
 62
    31
 10
147.79122899999999
 20
455.2306559999999
 30
0.0
  0
VERTEX
  5
E16
  8
0
 62
    31
 10
148.0440899999999
 20
455.23422599999992
 30
0.0
  0
VERTEX
  5
E17
  8
0
 62
    31
 10
148.17013499999999
 20
455.23900199999991
 30
0.0
  0
VERTEX
  5
E18
  8
0
 62
    31
 10
148.29581499999989
 20
455.24576999999988
 30
0.0
  0
VERTEX
  5
E19
  8
0
 62
    31
 10
148.42073799999989
 20
455.25449800000001
 30
0.0
  0
VERTEX
  5
E1A
  8
0
 62
    31
 10
148.5450439999999
 20
455.2651899999999
 30
0.0
  0
VERTEX
  5
E1B
  8
0
 62
    31
 10
148.6681669999999
 20
455.27778599999999
 30
0.0
  0
VERTEX
  5
E1C
  8
0
 62
    31
 10
148.7904429999999
 20
455.29231299999992
 30
0.0
  0
VERTEX
  5
E1D
  8
0
 62
    31
 10
148.9111179999999
 20
455.30866099999997
 30
0.0
  0
VERTEX
  5
E1E
  8
0
 62
    31
 10
149.0307159999999
 20
455.326887
 30
0.0
  0
VERTEX
  5
E1F
  8
0
 62
    31
 10
149.148338
 20
455.346836
 30
0.0
  0
VERTEX
  5
E20
  8
0
 62
    31
 10
149.2646639999999
 20
455.3686009999999
 30
0.0
  0
VERTEX
  5
E21
  8
0
 62
    31
 10
149.37867
 20
455.39196600000002
 30
0.0
  0
VERTEX
  5
E22
  8
0
 62
    31
 10
149.49118000000001
 20
455.4170739999999
 30
0.0
  0
VERTEX
  5
E23
  8
0
 62
    31
 10
149.60105899999999
 20
455.44364400000001
 30
0.0
  0
VERTEX
  5
E24
  8
0
 62
    31
 10
149.7092669999999
 20
455.47187799999989
 30
0.0
  0
VERTEX
  5
E25
  8
0
 62
    31
 10
149.81455999999989
 20
455.501419
 30
0.0
  0
VERTEX
  5
E26
  8
0
 62
    31
 10
149.91802200000001
 20
455.532534
 30
0.0
  0
VERTEX
  5
E27
  8
0
 62
    31
 10
150.01834899999989
 20
455.564795
 30
0.0
  0
VERTEX
  5
E28
  8
0
 62
    31
 10
150.11671399999989
 20
455.59853700000002
 30
0.0
  0
VERTEX
  5
E29
  8
0
 62
    31
 10
150.21174600000001
 20
455.63325300000002
 30
0.0
  0
VERTEX
  5
E2A
  8
0
 62
    31
 10
150.3047029999999
 20
455.669353
 30
0.0
  0
VERTEX
  5
E2B
  8
0
 62
    31
 10
150.39419599999991
 20
455.706255
 30
0.0
  0
VERTEX
  5
E2C
  8
0
 62
    31
 10
150.48151399999989
 20
455.74443599999989
 30
0.0
  0
VERTEX
  5
E2D
  8
0
 62
    31
 10
150.56527700000001
 20
455.78324900000001
 30
0.0
  0
VERTEX
  5
E2E
  8
0
 62
    31
 10
150.646782
 20
455.82324
 30
0.0
  0
VERTEX
  5
E2F
  8
0
 62
    31
 10
150.72469299999989
 20
455.86369100000002
 30
0.0
  0
VERTEX
  5
E30
  8
0
 62
    31
 10
150.80030099999991
 20
455.90521999999999
 30
0.0
  0
VERTEX
  5
E31
  8
0
 62
    31
 10
150.872299
 20
455.947046
 30
0.0
  0
VERTEX
  5
E32
  8
0
 62
    31
 10
150.94195599999989
 20
455.98985099999999
 30
0.0
  0
VERTEX
  5
E33
  8
0
 62
    31
 10
151.00804099999999
 20
456.03280299999989
 30
0.0
  0
VERTEX
  5
E34
  8
0
 62
    31
 10
151.0717699999999
 20
456.0766329999999
 30
0.0
  0
VERTEX
  5
E35
  8
0
 62
    31
 10
151.13198099999991
 20
456.12047599999988
 30
0.0
  0
VERTEX
  5
E36
  8
0
 62
    31
 10
151.189842
 20
456.1651
 30
0.0
  0
VERTEX
  5
E37
  8
0
 62
    31
 10
151.24427800000001
 20
456.20961399999999
 30
0.0
  0
VERTEX
  5
E38
  8
0
 62
    31
 10
151.296379
 20
456.25482199999999
 30
0.0
  0
VERTEX
  5
E39
  8
0
 62
    31
 10
151.34517700000001
 20
456.29981399999991
 30
0.0
  0
VERTEX
  5
E3A
  8
0
 62
    31
 10
151.39165499999999
 20
456.345415
 30
0.0
  0
VERTEX
  5
E3B
  8
0
 62
    31
 10
151.434967
 20
456.390717
 30
0.0
  0
VERTEX
  5
E3C
  8
0
 62
    31
 10
151.475998
 20
456.43654600000002
 30
0.0
  0
VERTEX
  5
E3D
  8
0
 62
    31
 10
151.514015
 20
456.48201399999999
 30
0.0
  0
VERTEX
  5
E3E
  8
0
 62
    31
 10
151.5497739999999
 20
456.5279349999999
 30
0.0
  0
VERTEX
  5
E3F
  8
0
 62
    31
 10
151.58268699999999
 20
456.57345199999992
 30
0.0
  0
VERTEX
  5
E40
  8
0
 62
    31
 10
151.6133879999999
 20
456.61935399999987
 30
0.0
  0
VERTEX
  5
E41
  8
0
 62
    31
 10
151.6413959999999
 20
456.66483299999987
 30
0.0
  0
VERTEX
  5
E42
  8
0
 62
    31
 10
151.667236
 20
456.71062999999992
 30
0.0
  0
VERTEX
  5
E43
  8
0
 62
    31
 10
151.69053600000001
 20
456.75600999999989
 30
0.0
  0
VERTEX
  5
E44
  8
0
 62
    31
 10
151.71170000000001
 20
456.80165099999988
 30
0.0
  0
VERTEX
  5
E45
  8
0
 62
    31
 10
151.73048399999999
 20
456.84689500000002
 30
0.0
  0
VERTEX
  5
E46
  8
0
 62
    31
 10
151.7471689999999
 20
456.89234399999998
 30
0.0
  0
VERTEX
  5
E47
  8
0
 62
    31
 10
151.7615889999999
 20
456.93744299999992
 30
0.0
  0
VERTEX
  5
E48
  8
0
 62
    31
 10
151.7739489999999
 20
456.98269299999993
 30
0.0
  0
VERTEX
  5
E49
  8
0
 62
    31
 10
151.7841489999999
 20
457.02765299999999
 30
0.0
  0
VERTEX
  5
E4A
  8
0
 62
    31
 10
151.79231299999989
 20
457.07271600000001
 30
0.0
  0
VERTEX
  5
E4B
  8
0
 62
    31
 10
151.79840899999999
 20
457.1175629999999
 30
0.0
  0
VERTEX
  5
E4C
  8
0
 62
    31
 10
151.80248299999991
 20
457.16246799999999
 30
0.0
  0
VERTEX
  5
E4D
  8
0
 62
    31
 10
151.80452700000001
 20
457.20723699999991
 30
0.0
  0
VERTEX
  5
E4E
  8
0
 62
    31
 10
151.804573
 20
457.25201799999991
 30
0.0
  0
VERTEX
  5
E4F
  8
0
 62
    31
 10
151.79866000000001
 20
457.34145699999999
 30
0.0
  0
VERTEX
  5
E50
  8
0
 62
    31
 10
151.784706
 20
457.43087000000003
 30
0.0
  0
VERTEX
  5
E51
  8
0
 62
    31
 10
151.762619
 20
457.52033399999988
 30
0.0
  0
VERTEX
  5
E52
  8
0
 62
    31
 10
151.732224
 20
457.60990499999991
 30
0.0
  0
VERTEX
  5
E53
  8
0
 62
    31
 10
151.69328300000001
 20
457.699612
 30
0.0
  0
VERTEX
  5
E54
  8
0
 62
    31
 10
151.64550800000001
 20
457.7894399999999
 30
0.0
  0
VERTEX
  5
E55
  8
0
 62
    31
 10
151.58855399999999
 20
457.87933700000002
 30
0.0
  0
VERTEX
  5
E56
  8
0
 62
    31
 10
151.52207899999991
 20
457.96920199999988
 30
0.0
  0
VERTEX
  5
E57
  8
0
 62
    31
 10
151.44570200000001
 20
458.05887799999999
 30
0.0
  0
VERTEX
  5
E58
  8
0
 62
    31
 10
151.359047
 20
458.14815900000002
 30
0.0
  0
VERTEX
  5
E59
  8
0
 62
    31
 10
151.26177999999999
 20
458.23678999999998
 30
0.0
  0
VERTEX
  5
E5A
  8
0
 62
    31
 10
151.15357199999991
 20
458.32446099999999
 30
0.0
  0
VERTEX
  5
E5B
  8
0
 62
    31
 10
151.0341719999999
 20
458.4108139999999
 30
0.0
  0
VERTEX
  5
E5C
  8
0
 62
    31
 10
150.90336600000001
 20
458.4954469999999
 30
0.0
  0
VERTEX
  5
E5D
  8
0
 62
    31
 10
150.76104699999991
 20
458.577923
 30
0.0
  0
VERTEX
  5
E5E
  8
0
 62
    31
 10
150.607178
 20
458.65776599999998
 30
0.0
  0
VERTEX
  5
E5F
  8
0
 62
    31
 10
150.4418409999999
 20
458.73447599999992
 30
0.0
  0
VERTEX
  5
E60
  8
0
 62
    31
 10
150.26522800000001
 20
458.80753299999998
 30
0.0
  0
VERTEX
  5
E61
  8
0
 62
    31
 10
150.077652
 20
458.87640800000003
 30
0.0
  0
VERTEX
  5
E62
  8
0
 62
    31
 10
149.87956199999999
 20
458.94057099999998
 30
0.0
  0
VERTEX
  5
E63
  8
0
 62
    31
 10
149.67151599999991
 20
458.99949800000002
 30
0.0
  0
VERTEX
  5
E64
  8
0
 62
    31
 10
149.45422400000001
 20
459.05269099999998
 30
0.0
  0
VERTEX
  5
E65
  8
0
 62
    31
 10
149.228523
 20
459.09966999999989
 30
0.0
  0
VERTEX
  5
E66
  8
0
 62
    31
 10
148.99535399999991
 20
459.14000099999998
 30
0.0
  0
VERTEX
  5
E67
  8
0
 62
    31
 10
148.7557909999999
 20
459.17329799999999
 30
0.0
  0
VERTEX
  5
E68
  8
0
 62
    31
 10
148.5109939999999
 20
459.19922800000001
 30
0.0
  0
VERTEX
  5
E69
  8
0
 62
    31
 10
148.26219900000001
 20
459.21752500000002
 30
0.0
  0
VERTEX
  5
E6A
  8
0
 62
    31
 10
148.01073500000001
 20
459.22799099999997
 30
0.0
  0
VERTEX
  5
E6B
  8
0
 62
    31
 10
147.757957
 20
459.23050699999999
 30
0.0
  0
VERTEX
  5
E6C
  8
0
 62
    31
 10
147.631516
 20
459.22876500000001
 30
0.0
  0
VERTEX
  5
E6D
  8
0
 62
    31
 10
147.50524899999991
 20
459.22502700000001
 30
0.0
  0
VERTEX
  5
E6E
  8
0
 62
    31
 10
147.37940199999991
 20
459.21930099999992
 30
0.0
  0
VERTEX
  5
E6F
  8
0
 62
    31
 10
147.2539899999999
 20
459.21159
 30
0.0
  0
VERTEX
  5
E70
  8
0
 62
    31
 10
147.1294399999999
 20
459.20193099999989
 30
0.0
  0
VERTEX
  5
E71
  8
0
 62
    31
 10
147.00555399999999
 20
459.19031100000001
 30
0.0
  0
VERTEX
  5
E72
  8
0
 62
    31
 10
146.882957
 20
459.176807
 30
0.0
  0
VERTEX
  5
E73
  8
0
 62
    31
 10
146.76126899999991
 20
459.16138499999988
 30
0.0
  0
VERTEX
  5
E74
  8
0
 62
    31
 10
146.641266
 20
459.144161
 30
0.0
  0
VERTEX
  5
E75
  8
0
 62
    31
 10
146.5224
 20
459.12507199999988
 30
0.0
  0
VERTEX
  5
E76
  8
0
 62
    31
 10
146.40559400000001
 20
459.10428999999999
 30
0.0
  0
VERTEX
  5
E77
  8
0
 62
    31
 10
146.290131
 20
459.08170899999988
 30
0.0
  0
VERTEX
  5
E78
  8
0
 62
    31
 10
146.17706299999989
 20
459.05755799999997
 30
0.0
  0
VERTEX
  5
E79
  8
0
 62
    31
 10
146.06553600000001
 20
459.03168299999987
 30
0.0
  0
VERTEX
  5
E7A
  8
0
 62
    31
 10
145.956718
 20
459.00438100000002
 30
0.0
  0
VERTEX
  5
E7B
  8
0
 62
    31
 10
145.84960899999999
 20
458.975437
 30
0.0
  0
VERTEX
  5
E7C
  8
0
 62
    31
 10
145.7454679999999
 20
458.945223
 30
0.0
  0
VERTEX
  5
E7D
  8
0
 62
    31
 10
145.6431879999999
 20
458.91345599999988
 30
0.0
  0
VERTEX
  5
E7E
  8
0
 62
    31
 10
145.54409799999991
 20
458.88058499999988
 30
0.0
  0
VERTEX
  5
E7F
  8
0
 62
    31
 10
145.44700599999999
 20
458.84625399999999
 30
0.0
  0
VERTEX
  5
E80
  8
0
 62
    31
 10
145.35327100000001
 20
458.810991
 30
0.0
  0
VERTEX
  5
E81
  8
0
 62
    31
 10
145.26164999999989
 20
458.77436799999992
 30
0.0
  0
VERTEX
  5
E82
  8
0
 62
    31
 10
145.17350799999991
 20
458.736986
 30
0.0
  0
VERTEX
  5
E83
  8
0
 62
    31
 10
145.0875629999999
 20
458.6983469999999
 30
0.0
  0
VERTEX
  5
E84
  8
0
 62
    31
 10
145.0051959999999
 20
458.65912099999991
 30
0.0
  0
VERTEX
  5
E85
  8
0
 62
    31
 10
144.92508699999999
 20
458.61873600000001
 30
0.0
  0
VERTEX
  5
E86
  8
0
 62
    31
 10
144.84858700000001
 20
458.57793400000003
 30
0.0
  0
VERTEX
  5
E87
  8
0
 62
    31
 10
144.77439899999999
 20
458.53607699999998
 30
0.0
  0
VERTEX
  5
E88
  8
0
 62
    31
 10
144.703812
 20
458.4939589999999
 30
0.0
  0
VERTEX
  5
E89
  8
0
 62
    31
 10
144.63557399999999
 20
458.45088799999991
 30
0.0
  0
VERTEX
  5
E8A
  8
0
 62
    31
 10
144.57089999999991
 20
458.40770099999992
 30
0.0
  0
VERTEX
  5
E8B
  8
0
 62
    31
 10
144.50858299999999
 20
458.36366099999998
 30
0.0
  0
VERTEX
  5
E8C
  8
0
 62
    31
 10
144.44976
 20
458.31964099999999
 30
0.0
  0
VERTEX
  5
E8D
  8
0
 62
    31
 10
144.39328800000001
 20
458.274857
 30
0.0
  0
VERTEX
  5
E8E
  8
0
 62
    31
 10
144.34020200000001
 20
458.23021299999999
 30
0.0
  0
VERTEX
  5
E8F
  8
0
 62
    31
 10
144.289467
 20
458.18489499999998
 30
0.0
  0
VERTEX
  5
E90
  8
0
 62
    31
 10
144.2419889999999
 20
458.13981399999989
 30
0.0
  0
VERTEX
  5
E91
  8
0
 62
    31
 10
144.196831
 20
458.09414500000003
 30
0.0
  0
VERTEX
  5
E92
  8
0
 62
    31
 10
144.15479999999999
 20
458.04879199999999
 30
0.0
  0
VERTEX
  5
E93
  8
0
 62
    31
 10
144.1150439999999
 20
458.002928
 30
0.0
  0
VERTEX
  5
E94
  8
0
 62
    31
 10
144.07826999999989
 20
457.95743899999991
 30
0.0
  0
VERTEX
  5
E95
  8
0
 62
    31
 10
144.04373200000001
 20
457.9115139999999
 30
0.0
  0
VERTEX
  5
E96
  8
0
 62
    31
 10
144.01200900000001
 20
457.86599899999999
 30
0.0
  0
VERTEX
  5
E97
  8
0
 62
    31
 10
143.9824909999999
 20
457.82011599999998
 30
0.0
  0
VERTEX
  5
E98
  8
0
 62
    31
 10
143.9556199999999
 20
457.77465599999988
 30
0.0
  0
VERTEX
  5
E99
  8
0
 62
    31
 10
143.930916
 20
457.72889099999998
 30
0.0
  0
VERTEX
  5
E9A
  8
0
 62
    31
 10
143.90871399999989
 20
457.68354199999999
 30
0.0
  0
VERTEX
  5
E9B
  8
0
 62
    31
 10
143.88863399999991
 20
457.637945
 30
0.0
  0
VERTEX
  5
E9C
  8
0
 62
    31
 10
143.870903
 20
457.59273499999989
 30
0.0
  0
VERTEX
  5
E9D
  8
0
 62
    31
 10
143.8552699999999
 20
457.54733499999998
 30
0.0
  0
VERTEX
  5
E9E
  8
0
 62
    31
 10
143.8418659999999
 20
457.5022699999999
 30
0.0
  0
VERTEX
  5
E9F
  8
0
 62
    31
 10
143.830521
 20
457.457066
 30
0.0
  0
VERTEX
  5
EA0
  8
0
 62
    31
 10
143.82131200000001
 20
457.41213599999998
 30
0.0
  0
VERTEX
  5
EA1
  8
0
 62
    31
 10
143.8141249999999
 20
457.36711300000002
 30
0.0
  0
VERTEX
  5
EA2
  8
0
 62
    31
 10
143.80900600000001
 20
457.3222889999999
 30
0.0
  0
VERTEX
  5
EA3
  8
0
 62
    31
 10
143.80590100000001
 20
457.2774179999999
 30
0.0
  0
SEQEND
  5
EA4
  8
0
 62
    31
  0
POLYLINE
  5
7BF
  8
0
 62
    31
 66
     1
 10
0.0
 20
0.0
 30
0.0
  0
VERTEX
  5
EA5
  8
0
 62
    31
 10
151.80480199999991
 20
457.23064399999998
 30
0.0
  0
VERTEX
  5
EA6
  8
0
 62
    31
 10
151.808807
 20
457.141186
 30
0.0
  0
VERTEX
  5
EA7
  8
0
 62
    31
 10
151.820831
 20
457.05177500000002
 30
0.0
  0
VERTEX
  5
EA8
  8
0
 62
    31
 10
151.8409649999999
 20
456.96232999999989
 30
0.0
  0
VERTEX
  5
EA9
  8
0
 62
    31
 10
151.86935399999999
 20
456.87278700000002
 30
0.0
  0
VERTEX
  5
EAA
  8
0
 62
    31
 10
151.90623500000001
 20
456.78311300000001
 30
0.0
  0
VERTEX
  5
EAB
  8
0
 62
    31
 10
151.951874
 20
456.69331199999988
 30
0.0
  0
VERTEX
  5
EAC
  8
0
 62
    31
 10
152.00659899999991
 20
456.60342199999991
 30
0.0
  0
VERTEX
  5
EAD
  8
0
 62
    31
 10
152.0707699999999
 20
456.51353799999998
 30
0.0
  0
VERTEX
  5
EAE
  8
0
 62
    31
 10
152.144745
 20
456.42380099999991
 30
0.0
  0
VERTEX
  5
EAF
  8
0
 62
    31
 10
152.22891200000001
 20
456.33440400000001
 30
0.0
  0
VERTEX
  5
EB0
  8
0
 62
    31
 10
152.3236159999999
 20
456.24558999999999
 30
0.0
  0
VERTEX
  5
EB1
  8
0
 62
    31
 10
152.42918399999999
 20
456.15765999999991
 30
0.0
  0
VERTEX
  5
EB2
  8
0
 62
    31
 10
152.5458909999999
 20
456.07095900000002
 30
0.0
  0
VERTEX
  5
EB3
  8
0
 62
    31
 10
152.673958
 20
455.98587400000002
 30
0.0
  0
VERTEX
  5
EB4
  8
0
 62
    31
 10
152.81352200000001
 20
455.90284199999991
 30
0.0
  0
VERTEX
  5
EB5
  8
0
 62
    31
 10
152.96463799999989
 20
455.82232699999997
 30
0.0
  0
VERTEX
  5
EB6
  8
0
 62
    31
 10
153.12724299999999
 20
455.744822
 30
0.0
  0
VERTEX
  5
EB7
  8
0
 62
    31
 10
153.301186
 20
455.67084299999988
 30
0.0
  0
VERTEX
  5
EB8
  8
0
 62
    31
 10
153.48618300000001
 20
455.60092199999991
 30
0.0
  0
VERTEX
  5
EB9
  8
0
 62
    31
 10
153.68180799999999
 20
455.53558499999991
 30
0.0
  0
VERTEX
  5
EBA
  8
0
 62
    31
 10
153.88753500000001
 20
455.47536100000002
 30
0.0
  0
VERTEX
  5
EBB
  8
0
 62
    31
 10
154.10269199999999
 20
455.42075299999999
 30
0.0
  0
VERTEX
  5
EBC
  8
0
 62
    31
 10
154.32646199999999
 20
455.37225000000001
 30
0.0
  0
VERTEX
  5
EBD
  8
0
 62
    31
 10
154.5579449999999
 20
455.33029399999998
 30
0.0
  0
VERTEX
  5
EBE
  8
0
 62
    31
 10
154.79608200000001
 20
455.29528399999992
 30
0.0
  0
VERTEX
  5
EBF
  8
0
 62
    31
 10
155.0397419999999
 20
455.26756699999999
 30
0.0
  0
VERTEX
  5
EC0
  8
0
 62
    31
 10
155.28769699999989
 20
455.2474269999999
 30
0.0
  0
VERTEX
  5
EC1
  8
0
 62
    31
 10
155.53864300000001
 20
455.23507699999988
 30
0.0
  0
VERTEX
  5
EC2
  8
0
 62
    31
 10
155.79122899999999
 20
455.2306559999999
 30
0.0
  0
VERTEX
  5
EC3
  8
0
 62
    31
 10
156.0440899999999
 20
455.23422599999992
 30
0.0
  0
VERTEX
  5
EC4
  8
0
 62
    31
 10
156.17013499999999
 20
455.23900199999991
 30
0.0
  0
VERTEX
  5
EC5
  8
0
 62
    31
 10
156.295815
 20
455.24576999999988
 30
0.0
  0
VERTEX
  5
EC6
  8
0
 62
    31
 10
156.420738
 20
455.25449800000001
 30
0.0
  0
VERTEX
  5
EC7
  8
0
 62
    31
 10
156.54504399999999
 20
455.2651899999999
 30
0.0
  0
VERTEX
  5
EC8
  8
0
 62
    31
 10
156.6681669999999
 20
455.27778599999999
 30
0.0
  0
VERTEX
  5
EC9
  8
0
 62
    31
 10
156.7904429999999
 20
455.29231299999992
 30
0.0
  0
VERTEX
  5
ECA
  8
0
 62
    31
 10
156.9111179999999
 20
455.30866099999997
 30
0.0
  0
VERTEX
  5
ECB
  8
0
 62
    31
 10
157.0307159999999
 20
455.326887
 30
0.0
  0
VERTEX
  5
ECC
  8
0
 62
    31
 10
157.148338
 20
455.346836
 30
0.0
  0
VERTEX
  5
ECD
  8
0
 62
    31
 10
157.2646639999999
 20
455.3686009999999
 30
0.0
  0
VERTEX
  5
ECE
  8
0
 62
    31
 10
157.37867
 20
455.39196600000002
 30
0.0
  0
VERTEX
  5
ECF
  8
0
 62
    31
 10
157.49118000000001
 20
455.4170739999999
 30
0.0
  0
VERTEX
  5
ED0
  8
0
 62
    31
 10
157.60105899999999
 20
455.44364400000001
 30
0.0
  0
VERTEX
  5
ED1
  8
0
 62
    31
 10
157.7092669999999
 20
455.47187799999989
 30
0.0
  0
VERTEX
  5
ED2
  8
0
 62
    31
 10
157.81456
 20
455.501419
 30
0.0
  0
VERTEX
  5
ED3
  8
0
 62
    31
 10
157.91802200000001
 20
455.532534
 30
0.0
  0
VERTEX
  5
ED4
  8
0
 62
    31
 10
158.018349
 20
455.564795
 30
0.0
  0
VERTEX
  5
ED5
  8
0
 62
    31
 10
158.11671399999989
 20
455.59853700000002
 30
0.0
  0
VERTEX
  5
ED6
  8
0
 62
    31
 10
158.21174600000001
 20
455.63325300000002
 30
0.0
  0
VERTEX
  5
ED7
  8
0
 62
    31
 10
158.3047029999999
 20
455.669353
 30
0.0
  0
VERTEX
  5
ED8
  8
0
 62
    31
 10
158.39419599999991
 20
455.706255
 30
0.0
  0
VERTEX
  5
ED9
  8
0
 62
    31
 10
158.48151399999989
 20
455.74443599999989
 30
0.0
  0
VERTEX
  5
EDA
  8
0
 62
    31
 10
158.56527700000001
 20
455.78324900000001
 30
0.0
  0
VERTEX
  5
EDB
  8
0
 62
    31
 10
158.646782
 20
455.82324
 30
0.0
  0
VERTEX
  5
EDC
  8
0
 62
    31
 10
158.724693
 20
455.86369100000002
 30
0.0
  0
VERTEX
  5
EDD
  8
0
 62
    31
 10
158.80030099999991
 20
455.90521999999999
 30
0.0
  0
VERTEX
  5
EDE
  8
0
 62
    31
 10
158.87229899999991
 20
455.947046
 30
0.0
  0
VERTEX
  5
EDF
  8
0
 62
    31
 10
158.941956
 20
455.98985099999999
 30
0.0
  0
VERTEX
  5
EE0
  8
0
 62
    31
 10
159.00804099999991
 20
456.03280299999989
 30
0.0
  0
VERTEX
  5
EE1
  8
0
 62
    31
 10
159.0717699999999
 20
456.0766329999999
 30
0.0
  0
VERTEX
  5
EE2
  8
0
 62
    31
 10
159.13198099999991
 20
456.12047599999988
 30
0.0
  0
VERTEX
  5
EE3
  8
0
 62
    31
 10
159.18984199999991
 20
456.1651
 30
0.0
  0
VERTEX
  5
EE4
  8
0
 62
    31
 10
159.24427800000001
 20
456.20961399999999
 30
0.0
  0
VERTEX
  5
EE5
  8
0
 62
    31
 10
159.29637899999989
 20
456.25482199999999
 30
0.0
  0
VERTEX
  5
EE6
  8
0
 62
    31
 10
159.34517700000001
 20
456.29981399999991
 30
0.0
  0
VERTEX
  5
EE7
  8
0
 62
    31
 10
159.39165499999999
 20
456.345415
 30
0.0
  0
VERTEX
  5
EE8
  8
0
 62
    31
 10
159.43496699999989
 20
456.390717
 30
0.0
  0
VERTEX
  5
EE9
  8
0
 62
    31
 10
159.475998
 20
456.43654600000002
 30
0.0
  0
VERTEX
  5
EEA
  8
0
 62
    31
 10
159.51401499999989
 20
456.48201399999999
 30
0.0
  0
VERTEX
  5
EEB
  8
0
 62
    31
 10
159.5497739999999
 20
456.5279349999999
 30
0.0
  0
VERTEX
  5
EEC
  8
0
 62
    31
 10
159.58268699999999
 20
456.57345199999992
 30
0.0
  0
VERTEX
  5
EED
  8
0
 62
    31
 10
159.61338799999999
 20
456.61935399999987
 30
0.0
  0
VERTEX
  5
EEE
  8
0
 62
    31
 10
159.6413959999999
 20
456.66483299999987
 30
0.0
  0
VERTEX
  5
EEF
  8
0
 62
    31
 10
159.667236
 20
456.71062999999992
 30
0.0
  0
VERTEX
  5
EF0
  8
0
 62
    31
 10
159.69053600000001
 20
456.75600999999989
 30
0.0
  0
VERTEX
  5
EF1
  8
0
 62
    31
 10
159.71170000000001
 20
456.80165099999988
 30
0.0
  0
VERTEX
  5
EF2
  8
0
 62
    31
 10
159.73048399999999
 20
456.84689500000002
 30
0.0
  0
VERTEX
  5
EF3
  8
0
 62
    31
 10
159.7471689999999
 20
456.89234399999998
 30
0.0
  0
VERTEX
  5
EF4
  8
0
 62
    31
 10
159.7615889999999
 20
456.93744299999992
 30
0.0
  0
VERTEX
  5
EF5
  8
0
 62
    31
 10
159.7739489999999
 20
456.98269299999993
 30
0.0
  0
VERTEX
  5
EF6
  8
0
 62
    31
 10
159.7841489999999
 20
457.02765299999999
 30
0.0
  0
VERTEX
  5
EF7
  8
0
 62
    31
 10
159.79231299999989
 20
457.07271600000001
 30
0.0
  0
VERTEX
  5
EF8
  8
0
 62
    31
 10
159.79840899999999
 20
457.1175629999999
 30
0.0
  0
VERTEX
  5
EF9
  8
0
 62
    31
 10
159.80248299999991
 20
457.16246599999999
 30
0.0
  0
VERTEX
  5
EFA
  8
0
 62
    31
 10
159.804802
 20
457.23064399999998
 30
0.0
  0
SEQEND
  5
EFB
  8
0
 62
    31
  0
LINE
  5
817
  8
0
 62
    31
 10
157.2819209999999
 20
475.842803
 30
0.0
 11
153.22640200000001
 21
498.842804
 31
0.0
  0
LINE
  5
818
  8
0
 62
    31
 10
158.004807
 20
479.80541299999987
 30
0.0
 11
154.64800299999999
 21
498.842804
 31
0.0
  0
LINE
  5
819
  8
0
 62
    31
 10
158.004807
 20
487.86769199999998
 30
0.0
 11
156.06959499999991
 21
498.842804
 31
0.0
  0
LINE
  5
81A
  8
0
 62
    31
 10
158.004807
 20
495.92997100000002
 30
0.0
 11
157.491196
 21
498.842804
 31
0.0
  0
LINE
  5
81B
  8
0
 62
    31
 10
154.438728
 20
475.842803
 30
0.0
 11
150.38320899999999
 21
498.842804
 31
0.0
  0
LINE
  5
81C
  8
0
 62
    31
 10
153.01712800000001
 20
475.842803
 30
0.0
 11
148.96160900000001
 21
498.842804
 31
0.0
  0
LINE
  5
81D
  8
0
 62
    31
 10
151.59553500000001
 20
475.842803
 30
0.0
 11
147.54001599999989
 21
498.842804
 31
0.0
  0
LINE
  5
81E
  8
0
 62
    31
 10
150.173935
 20
475.842803
 30
0.0
 11
146.11841599999991
 21
498.842804
 31
0.0
  0
LINE
  5
81F
  8
0
 62
    31
 10
148.752342
 20
475.842803
 30
0.0
 11
145.60480499999991
 21
493.69335699999999
 31
0.0
  0
LINE
  5
820
  8
0
 62
    31
 10
147.3307419999999
 20
475.842803
 30
0.0
 11
145.60480499999991
 21
485.631078
 31
0.0
  0
LINE
  5
821
  8
0
 62
    31
 10
145.909142
 20
475.842803
 30
0.0
 11
145.60480499999991
 21
477.56879900000001
 31
0.0
  0
LINE
  5
822
  8
0
 62
     7
 10
103.40476200000001
 20
639.94278700000007
 30
0.0
 11
103.40476200000001
 21
647.74277500000005
 31
0.0
  0
LINE
  5
823
  8
0
 62
     7
 10
100.20476499999999
 20
641.84278099999995
 30
0.0
 11
100.20476499999999
 21
645.84278099999995
 31
0.0
  0
LINE
  5
824
  8
0
 62
     7
 10
106.6047589999999
 20
647.74277500000005
 30
0.0
 11
103.40476200000001
 21
647.74277500000005
 31
0.0
  0
LINE
  5
825
  8
0
 62
     7
 10
106.6047589999999
 20
639.94278700000007
 30
0.0
 11
103.40476200000001
 21
639.94278700000007
 31
0.0
  0
LINE
  5
826
  8
0
 62
     7
 10
106.6047589999999
 20
645.84278099999995
 30
0.0
 11
100.20476499999999
 21
645.84278099999995
 31
0.0
  0
LINE
  5
827
  8
0
 62
     7
 10
106.6047589999999
 20
641.84278099999995
 30
0.0
 11
100.20476499999999
 21
641.84278099999995
 31
0.0
  0
LINE
  5
828
  8
0
 62
     7
 10
106.6047589999999
 20
547.74278300000003
 30
0.0
 11
103.40476200000001
 21
547.74278300000003
 31
0.0
  0
LINE
  5
829
  8
0
 62
     7
 10
106.6047589999999
 20
545.84278099999995
 30
0.0
 11
100.20476499999999
 21
545.84278099999995
 31
0.0
  0
LINE
  5
82A
  8
0
 62
     7
 10
106.6047589999999
 20
541.84278099999995
 30
0.0
 11
100.20476499999999
 21
541.84278099999995
 31
0.0
  0
LINE
  5
82B
  8
0
 62
     7
 10
106.6047589999999
 20
539.94277999999986
 30
0.0
 11
103.40476200000001
 21
539.94277999999986
 31
0.0
  0
LINE
  5
82C
  8
0
 62
     7
 10
103.40476200000001
 20
539.94277999999986
 30
0.0
 11
103.40476200000001
 21
547.74278300000003
 31
0.0
  0
LINE
  5
82D
  8
0
 62
     7
 10
100.20476499999999
 20
541.84278099999995
 30
0.0
 11
100.20476499999999
 21
545.84278099999995
 31
0.0
  0
LINE
  5
82E
  8
0
 62
     7
 10
318.23570999999993
 20
539.09278099999995
 30
0.0
 11
319.27758
 21
545.00162899999987
 31
0.0
  0
LINE
  5
82F
  8
0
 62
     7
 10
318.23570999999993
 20
539.09278099999995
 30
0.0
 11
317.19383999999991
 21
545.00162899999987
 31
0.0
  0
LINE
  5
830
  8
0
 62
     7
 10
318.23570999999993
 20
644.09278099999995
 30
0.0
 11
317.19383999999991
 21
638.18393700000001
 31
0.0
  0
LINE
  5
831
  8
0
 62
     7
 10
318.23570999999993
 20
644.09278099999995
 30
0.0
 11
319.27764100000002
 21
638.18393700000001
 31
0.0
  0
LINE
  5
832
  8
0
 62
     7
 10
318.23570999999993
 20
539.09278099999995
 30
0.0
 11
318.23570999999993
 21
644.09278099999995
 31
0.0
  0
LINE
  5
833
  8
0
 62
     7
 10
322.23570999999993
 20
539.09278099999995
 30
0.0
 11
266.10478999999992
 21
539.09277699999996
 31
0.0
  0
LINE
  5
834
  8
0
 62
     7
 10
322.23570999999993
 20
644.09278099999995
 30
0.0
 11
266.10478999999992
 21
644.09278099999995
 31
0.0
  0
LINE
  5
835
  8
0
 62
     7
 10
294.14983399999988
 20
390.73234600000001
 30
0.0
 11
288.24101999999988
 21
391.77423099999987
 31
0.0
  0
LINE
  5
836
  8
0
 62
     7
 10
294.14983399999988
 20
390.73234600000001
 30
0.0
 11
288.24101999999988
 21
389.69045999999997
 31
0.0
  0
LINE
  5
837
  8
0
 62
     7
 10
109.60472900000001
 20
390.73240699999991
 30
0.0
 11
115.5136029999999
 21
389.69052099999988
 31
0.0
  0
LINE
  5
838
  8
0
 62
     7
 10
109.60472900000001
 20
390.73240699999991
 30
0.0
 11
115.5136029999999
 21
391.774292
 31
0.0
  0
LINE
  5
839
  8
0
 62
     7
 10
294.14983399999988
 20
390.73234600000001
 30
0.0
 11
109.60472900000001
 21
390.73240699999991
 31
0.0
  0
LINE
  5
83A
  8
0
 62
     7
 10
294.14983399999988
 20
386.73234600000001
 30
0.0
 11
294.14989500000001
 21
581.34275799999989
 31
0.0
  0
LINE
  5
83B
  8
0
 62
     7
 10
109.60472900000001
 20
386.73240699999991
 30
0.0
 11
109.60478999999999
 21
484.79325099999988
 31
0.0
  0
LINE
  5
83C
  8
0
 62
     7
 10
262.606133
 20
426.62360399999989
 30
0.0
 11
256.69725799999998
 21
427.66548899999992
 31
0.0
  0
LINE
  5
83D
  8
0
 62
     7
 10
262.606133
 20
426.62360399999989
 30
0.0
 11
256.69725799999998
 21
425.58171099999998
 31
0.0
  0
LINE
  5
83E
  8
0
 62
     7
 10
109.60472900000001
 20
426.62365699999998
 30
0.0
 11
115.5136029999999
 21
425.58176400000002
 31
0.0
  0
LINE
  5
83F
  8
0
 62
     7
 10
109.60472900000001
 20
426.62365699999998
 30
0.0
 11
115.5136029999999
 21
427.6655429999999
 31
0.0
  0
LINE
  5
840
  8
0
 62
     7
 10
262.606133
 20
426.62360399999989
 30
0.0
 11
109.60472900000001
 21
426.62364999999988
 31
0.0
  0
LINE
  5
841
  8
0
 62
     7
 10
262.606133
 20
422.62360399999989
 30
0.0
 11
262.606133
 21
539.09278099999995
 31
0.0
  0
LINE
  5
842
  8
0
 62
     7
 10
109.60472900000001
 20
422.62365699999998
 30
0.0
 11
109.60478999999999
 21
484.79324000000003
 31
0.0
  0
LINE
  5
843
  8
0
 62
     7
 10
268.10478999999992
 20
409.29682899999989
 30
0.0
 11
274.01360299999988
 21
408.25494399999991
 31
0.0
  0
LINE
  5
844
  8
0
 62
     7
 10
268.10478999999992
 20
409.29682899999989
 30
0.0
 11
274.01360299999988
 21
410.33872200000002
 31
0.0
  0
LINE
  5
845
  8
0
 62
     7
 10
266.10478999999992
 20
409.29682899999989
 30
0.0
 11
260.19591500000001
 21
410.33871499999992
 31
0.0
  0
LINE
  5
846
  8
0
 62
     7
 10
266.10478999999992
 20
409.29682899999989
 30
0.0
 11
260.19591500000001
 21
408.25494399999991
 31
0.0
  0
LINE
  5
847
  8
0
 62
     7
 10
109.60472900000001
 20
409.29682899999989
 30
0.0
 11
115.5136029999999
 21
408.254929
 31
0.0
  0
LINE
  5
848
  8
0
 62
     7
 10
109.60472900000001
 20
409.29682899999989
 30
0.0
 11
115.5136029999999
 21
410.33871499999992
 31
0.0
  0
LINE
  5
849
  8
0
 62
     7
 10
279.60478999999998
 20
409.29682899999989
 30
0.0
 11
109.60472900000001
 21
409.29682899999989
 31
0.0
  0
LINE
  5
84A
  8
0
 62
     7
 10
268.10478999999992
 20
405.29682899999989
 30
0.0
 11
268.10478999999992
 21
454.79908
 31
0.0
  0
LINE
  5
84B
  8
0
 62
     7
 10
266.10478999999992
 20
405.29682899999989
 30
0.0
 11
266.10478999999992
 21
455.730591
 31
0.0
  0
LINE
  5
84C
  8
0
 62
     7
 10
109.60472900000001
 20
405.29682899999989
 30
0.0
 11
109.60472900000001
 21
484.79318999999998
 31
0.0
  0
LINE
  5
84D
  8
0
 62
     7
 10
159.0048139999999
 20
751.08879899999999
 30
0.0
 11
164.91362799999999
 21
750.04689800000006
 31
0.0
  0
LINE
  5
84E
  8
0
 62
     7
 10
159.0048139999999
 20
751.08879899999999
 30
0.0
 11
164.91362799999999
 21
752.13069900000005
 31
0.0
  0
LINE
  5
84F
  8
0
 62
     7
 10
145.60478999999989
 20
751.08879899999999
 30
0.0
 11
139.695976
 21
752.13069900000005
 31
0.0
  0
LINE
  5
850
  8
0
 62
     7
 10
145.60478999999989
 20
751.08879899999999
 30
0.0
 11
139.695976
 21
750.04689800000006
 31
0.0
  0
LINE
  5
851
  8
0
 62
     7
 10
109.60472900000001
 20
751.08879899999999
 30
0.0
 11
115.5136029999999
 21
750.04689800000006
 31
0.0
  0
LINE
  5
852
  8
0
 62
     7
 10
109.60472900000001
 20
751.08879899999999
 30
0.0
 11
115.5136029999999
 21
752.13069900000005
 31
0.0
  0
LINE
  5
853
  8
0
 62
     7
 10
106.60472899999991
 20
751.08879899999999
 30
0.0
 11
100.6959149999999
 21
752.13069900000005
 31
0.0
  0
LINE
  5
854
  8
0
 62
     7
 10
106.60472899999991
 20
751.08879899999999
 30
0.0
 11
100.6959149999999
 21
750.04689800000006
 31
0.0
  0
LINE
  5
855
  8
0
 62
     7
 10
194.2150189999999
 20
751.08879899999999
 30
0.0
 11
89.604729000000006
 21
751.08879899999999
 31
0.0
  0
LINE
  5
856
  8
0
 62
     7
 10
159.0048139999999
 20
755.08879899999988
 30
0.0
 11
159.0048139999999
 21
707.34276599999998
 31
0.0
  0
LINE
  5
857
  8
0
 62
     7
 10
145.60478999999989
 20
755.08879899999988
 30
0.0
 11
145.60478999999989
 21
688.84276599999987
 31
0.0
  0
LINE
  5
858
  8
0
 62
     7
 10
109.60472900000001
 20
755.08879899999988
 30
0.0
 11
109.60472900000001
 21
732.60147900000004
 31
0.0
  0
LINE
  5
859
  8
0
 62
     7
 10
106.60472899999991
 20
755.08879899999988
 30
0.0
 11
106.60478999999999
 21
734.02996099999996
 31
0.0
  0
LINE
  5
85A
  8
0
 62
     7
 10
189.10472899999991
 20
441.37205499999988
 30
0.0
 11
183.195854
 21
442.41394000000003
 31
0.0
  0
LINE
  5
85B
  8
0
 62
     7
 10
189.10472899999991
 20
441.37205499999988
 30
0.0
 11
183.195854
 21
440.33016199999997
 31
0.0
  0
LINE
  5
85C
  8
0
 62
     7
 10
109.60472900000001
 20
441.37205499999988
 30
0.0
 11
115.5136029999999
 21
440.33016199999997
 31
0.0
  0
LINE
  5
85D
  8
0
 62
     7
 10
109.60472900000001
 20
441.37205499999988
 30
0.0
 11
115.5136029999999
 21
442.41394000000003
 31
0.0
  0
LINE
  5
85E
  8
0
 62
     7
 10
189.10472899999991
 20
441.37205499999988
 30
0.0
 11
109.60472900000001
 21
441.37205499999988
 31
0.0
  0
LINE
  5
85F
  8
0
 62
     7
 10
189.10472899999991
 20
437.37205499999988
 30
0.0
 11
189.10472899999991
 21
470.09276599999998
 31
0.0
  0
LINE
  5
860
  8
0
 62
     7
 10
109.60478999999999
 20
437.37205499999988
 30
0.0
 11
109.60472900000001
 21
484.79319800000002
 31
0.0
  0
LINE
  5
861
  8
0
 62
     7
 10
84.775138999999996
 20
591.59278099999995
 30
0.0
 11
85.817008999999985
 21
597.50162499999999
 31
0.0
  0
LINE
  5
862
  8
0
 62
     7
 10
84.775138999999996
 20
591.59278099999995
 30
0.0
 11
83.733208000000005
 21
597.50162499999999
 31
0.0
  0
LINE
  5
863
  8
0
 62
     7
 10
84.775138999999996
 20
698.84275100000002
 30
0.0
 11
83.733208000000005
 21
692.93390699999998
 31
0.0
  0
LINE
  5
864
  8
0
 62
     7
 10
84.775138999999996
 20
698.84276599999998
 30
0.0
 11
85.817008999999985
 21
692.93390699999998
 31
0.0
  0
LINE
  5
865
  8
0
 62
     7
 10
84.775138999999996
 20
591.59278099999995
 30
0.0
 11
84.775138999999996
 21
698.84275100000002
 31
0.0
  0
LINE
  5
866
  8
0
 62
     7
 10
80.775138999999996
 20
591.59278099999995
 30
0.0
 11
92.116507999999996
 21
591.59278099999995
 31
0.0
  0
LINE
  5
867
  8
0
 62
     7
 10
80.775138999999996
 20
698.84275100000002
 30
0.0
 11
138.42321000000001
 21
698.84276599999998
 31
0.0
  0
LINE
  5
868
  8
0
 62
     7
 10
68.241507999999996
 20
488.84280399999989
 30
0.0
 11
69.283439999999999
 21
494.75164799999999
 31
0.0
  0
LINE
  5
869
  8
0
 62
     7
 10
68.241507999999996
 20
488.84280399999989
 30
0.0
 11
67.199638000000007
 21
494.75164799999999
 31
0.0
  0
LINE
  5
86A
  8
0
 62
     7
 10
68.241507999999996
 20
698.84275100000002
 30
0.0
 11
67.199638000000007
 21
692.93390699999998
 31
0.0
  0
LINE
  5
86B
  8
0
 62
     7
 10
68.241507999999996
 20
698.84276599999998
 30
0.0
 11
69.283439999999999
 21
692.93392199999994
 31
0.0
  0
LINE
  5
86C
  8
0
 62
     7
 10
68.241507999999996
 20
488.84280399999989
 30
0.0
 11
68.241507999999996
 21
698.84276599999998
 31
0.0
  0
LINE
  5
86D
  8
0
 62
     7
 10
64.241507999999996
 20
488.84280399999989
 30
0.0
 11
138.42321000000001
 21
488.84280799999988
 31
0.0
  0
LINE
  5
86E
  8
0
 62
     7
 10
64.241507999999996
 20
698.84275100000002
 30
0.0
 11
138.42321000000001
 21
698.84276599999998
 31
0.0
  0
INSERT
  5
A87
  8
0
  2
BLOCK0
 10
-74.095885999999993
 20
290.03265399999998
 30
0.0
 50
180.0
  0
INSERT
  5
A88
  8
0
  2
BLOCK1
 10
-74.095885999999993
 20
290.03265399999998
 30
0.0
 50
180.0
  0
INSERT
  5
A89
  8
0
  2
BLOCK2
 10
-74.095885999999993
 20
290.03265399999998
 30
0.0
 50
180.0
  0
INSERT
  5
A8A
  8
0
  2
BLOCK3
 10
-74.095885999999993
 20
290.03265399999998
 30
0.0
 50
180.0
  0
INSERT
  5
A8B
  8
0
  2
BLOCK4
 10
-74.095885999999993
 20
290.03265399999998
 30
0.0
 50
180.0
  0
INSERT
  5
A8C
  8
0
  2
BLOCK5
 10
-74.095885999999993
 20
290.03265399999998
 30
0.0
 50
180.0
  0
INSERT
  5
A8D
  8
0
  2
BLOCK6
 10
-74.095885999999993
 20
290.03265399999998
 30
0.0
 50
180.0
  0
INSERT
  5
A8E
  8
0
  2
BLOCK7
 10
540.38629200000003
 20
593.84278099999995
 30
0.0
 50
180.0
  0
INSERT
  5
A8F
  8
0
  2
BLOCK8
 10
540.38629200000003
 20
593.84278099999995
 30
0.0
 50
180.0
  0
INSERT
  5
A90
  8
0
  2
BLOCK9
 10
540.38629200000003
 20
593.84278099999995
 30
0.0
 50
180.0
  0
INSERT
  5
A91
  8
0
  2
BLOCK10
 10
540.38629200000003
 20
593.84278099999995
 30
0.0
 50
180.0
  0
INSERT
  5
A92
  8
0
  2
BLOCK11
 10
540.38629200000003
 20
593.84278099999995
 30
0.0
 50
180.0
  0
INSERT
  5
A93
  8
0
  2
BLOCK12
 10
540.38629200000003
 20
593.84278099999995
 30
0.0
 50
180.0
  0
INSERT
  5
A94
  8
0
  2
BLOCK13
 10
540.38629200000003
 20
593.84278099999995
 30
0.0
 50
180.0
  0
INSERT
  5
A95
  8
0
  2
BLOCK14
 10
540.38629200000003
 20
593.84278099999995
 30
0.0
 50
180.0
  0
INSERT
  5
A96
  8
0
  2
BLOCK15
 10
540.38629200000003
 20
593.84278099999995
 30
0.0
 50
180.0
  0
INSERT
  5
A97
  8
0
  2
BLOCK16
 10
540.38629200000003
 20
593.84278099999995
 30
0.0
 50
180.0
  0
INSERT
  5
A98
  8
0
  2
BLOCK17
 10
540.38629200000003
 20
593.84278099999995
 30
0.0
 50
180.0
  0
INSERT
  5
A99
  8
0
  2
BLOCK18
 10
-163.67499599999991
 20
481.60572799999989
 30
0.0
 50
90.0
  0
INSERT
  5
A9A
  8
0
  2
BLOCK19
 10
-163.67499599999991
 20
481.60572799999989
 30
0.0
 50
90.0
  0
INSERT
  5
A9B
  8
0
  2
BLOCK20
 10
-163.67499599999991
 20
481.60572799999989
 30
0.0
 50
90.0
  0
INSERT
  5
A9C
  8
0
  2
BLOCK21
 10
-163.67499599999991
 20
481.60572799999989
 30
0.0
 50
90.0
  0
INSERT
  5
A9D
  8
0
  2
BLOCK22
 10
-163.67499599999991
 20
481.60572799999989
 30
0.0
 50
90.0
  0
INSERT
  5
A9E
  8
0
  2
BLOCK23
 10
-163.67499599999991
 20
481.60572799999989
 30
0.0
 50
90.0
  0
INSERT
  5
A9F
  8
0
  2
BLOCK24
 10
-163.67499599999991
 20
481.60572799999989
 30
0.0
 50
90.0
  0
INSERT
  5
AA0
  8
0
  2
BLOCK25
 10
-163.67499599999991
 20
481.60572799999989
 30
0.0
 50
90.0
  0
INSERT
  5
AA1
  8
0
  2
BLOCK26
 10
-163.67499599999991
 20
481.60572799999989
 30
0.0
 50
90.0
  0
INSERT
  5
AA2
  8
0
  2
BLOCK27
 10
-163.67499599999991
 20
481.60572799999989
 30
0.0
 50
90.0
  0
INSERT
  5
AA3
  8
0
  2
BLOCK28
 10
-163.67499599999991
 20
481.60572799999989
 30
0.0
 50
90.0
  0
INSERT
  5
AA4
  8
0
  2
BLOCK29
 10
-163.67499599999991
 20
481.60572799999989
 30
0.0
 50
90.0
  0
INSERT
  5
AA5
  8
0
  2
BLOCK30
 10
-163.67499599999991
 20
481.60572799999989
 30
0.0
 50
90.0
  0
INSERT
  5
AA6
  8
0
  2
BLOCK31
 10
-163.67499599999991
 20
481.60572799999989
 30
0.0
 50
90.0
  0
INSERT
  5
AA7
  8
0
  2
BLOCK32
 10
-163.67499599999991
 20
481.60572799999989
 30
0.0
 50
90.0
  0
INSERT
  5
AA8
  8
0
  2
BLOCK33
 10
-163.67499599999991
 20
481.60572799999989
 30
0.0
 50
90.0
  0
INSERT
  5
AA9
  8
0
  2
BLOCK34
 10
-163.67499599999991
 20
481.60572799999989
 30
0.0
 50
90.0
  0
INSERT
  5
AAA
  8
0
  2
BLOCK35
 10
-163.67499599999991
 20
481.60572799999989
 30
0.0
 50
90.0
  0
INSERT
  5
AAB
  8
0
  2
BLOCK36
 10
880.09890699999994
 20
593.84278099999995
 30
0.0
 50
270.0
  0
INSERT
  5
AAC
  8
0
  2
BLOCK37
 10
880.09890699999994
 20
593.84278099999995
 30
0.0
 50
270.0
  0
INSERT
  5
AAD
  8
0
  2
BLOCK38
 10
880.09890699999994
 20
593.84278099999995
 30
0.0
 50
270.0
  0
INSERT
  5
AAE
  8
0
  2
BLOCK39
 10
880.09890699999994
 20
593.84278099999995
 30
0.0
 50
270.0
  0
INSERT
  5
AAF
  8
0
  2
BLOCK40
 10
880.09890699999994
 20
593.84278099999995
 30
0.0
 50
270.0
  0
INSERT
  5
AB0
  8
0
  2
BLOCK41
 10
880.09890699999994
 20
593.84278099999995
 30
0.0
 50
270.0
  0
INSERT
  5
AB1
  8
0
  2
BLOCK42
 10
880.09890699999994
 20
593.84278099999995
 30
0.0
 50
270.0
  0
INSERT
  5
AB2
  8
0
  2
BLOCK43
 10
880.09890699999994
 20
593.84278099999995
 30
0.0
 50
270.0
  0
INSERT
  5
AB3
  8
0
  2
BLOCK44
 10
880.09890699999994
 20
593.84278099999995
 30
0.0
 50
270.0
  0
INSERT
  5
AB4
  8
0
  2
BLOCK45
 10
880.09890699999994
 20
593.84278099999995
 30
0.0
 50
270.0
  0
INSERT
  5
AB5
  8
0
  2
BLOCK46
 10
880.09890699999994
 20
593.84278099999995
 30
0.0
 50
270.0
  0
INSERT
  5
AB6
  8
0
  2
BLOCK47
 10
880.09890699999994
 20
593.84278099999995
 30
0.0
 50
270.0
  0
INSERT
  5
AB7
  8
0
  2
BLOCK48
 10
880.09890699999994
 20
593.84278099999995
 30
0.0
 50
270.0
  0
INSERT
  5
AB8
  8
0
  2
BLOCK49
 10
262.10472900000002
 20
481.60573599999998
 30
0.0
 50
90.0
  0
INSERT
  5
AB9
  8
0
  2
BLOCK50
 10
262.10472900000002
 20
481.60573599999998
 30
0.0
 50
90.0
  0
INSERT
  5
ABA
  8
0
  2
BLOCK51
 10
262.10472900000002
 20
481.60573599999998
 30
0.0
 50
90.0
  0
INSERT
  5
ABB
  8
0
  2
BLOCK52
 10
262.10472900000002
 20
481.60573599999998
 30
0.0
 50
90.0
  0
INSERT
  5
ABC
  8
0
  2
BLOCK53
 10
262.10472900000002
 20
481.60573599999998
 30
0.0
 50
90.0
  0
INSERT
  5
ABD
  8
0
  2
BLOCK54
 10
262.10472900000002
 20
481.60573599999998
 30
0.0
 50
90.0
  0
INSERT
  5
ABE
  8
0
  2
BLOCK55
 10
262.10472900000002
 20
481.60573599999998
 30
0.0
 50
90.0
  0
INSERT
  5
ABF
  8
0
  2
BLOCK56
 10
262.10472900000002
 20
481.60573599999998
 30
0.0
 50
90.0
  0
INSERT
  5
AC0
  8
0
  2
BLOCK57
 10
262.10472900000002
 20
481.60573599999998
 30
0.0
 50
90.0
  0
INSERT
  5
AC1
  8
0
  2
BLOCK58
 10
262.10472900000002
 20
481.60573599999998
 30
0.0
 50
90.0
  0
INSERT
  5
AC2
  8
0
  2
BLOCK59
 10
262.10472900000002
 20
481.60573599999998
 30
0.0
 50
90.0
  0
INSERT
  5
AC3
  8
0
  2
BLOCK60
 10
262.10472900000002
 20
481.60573599999998
 30
0.0
 50
90.0
  0
INSERT
  5
AC4
  8
0
  2
BLOCK61
 10
262.10472900000002
 20
481.60573599999998
 30
0.0
 50
90.0
  0
INSERT
  5
AC5
  8
0
  2
BLOCK62
 10
262.10472900000002
 20
481.60573599999998
 30
0.0
 50
90.0
  0
INSERT
  5
AC6
  8
0
  2
BLOCK63
 10
262.10472900000002
 20
481.60573599999998
 30
0.0
 50
90.0
  0
INSERT
  5
AC7
  8
0
  2
BLOCK64
 10
262.10472900000002
 20
481.60573599999998
 30
0.0
 50
90.0
  0
INSERT
  5
AC8
  8
0
  2
BLOCK65
 10
262.10472900000002
 20
481.60573599999998
 30
0.0
 50
90.0
  0
INSERT
  5
AC9
  8
0
  2
BLOCK66
 10
262.10472900000002
 20
481.60573599999998
 30
0.0
 50
90.0
  0
INSERT
  5
ACA
  8
0
  2
BLOCK67
 10
262.10472900000002
 20
481.60573599999998
 30
0.0
 50
90.0
  0
INSERT
  5
ACB
  8
0
  2
BLOCK68
 10
262.10472900000002
 20
481.60573599999998
 30
0.0
 50
90.0
  0
INSERT
  5
ACC
  8
0
  2
BLOCK69
 10
262.10472900000002
 20
481.60573599999998
 30
0.0
 50
90.0
  0
INSERT
  5
ACD
  8
0
  2
BLOCK70
 10
262.10472900000002
 20
481.60573599999998
 30
0.0
 50
90.0
  0
INSERT
  5
ACE
  8
0
  2
BLOCK71
 10
262.10472900000002
 20
481.60573599999998
 30
0.0
 50
90.0
  0
INSERT
  5
ACF
  8
0
  2
BLOCK72
 10
262.10472900000002
 20
481.60573599999998
 30
0.0
 50
90.0
  0
INSERT
  5
AD0
  8
0
  2
BLOCK73
 10
262.10472900000002
 20
481.60573599999998
 30
0.0
 50
90.0
  0
INSERT
  5
AD1
  8
0
  2
BLOCK74
 10
262.10472900000002
 20
481.60573599999998
 30
0.0
 50
90.0
  0
INSERT
  5
AD2
  8
0
  2
BLOCK75
 10
262.10472900000002
 20
481.60573599999998
 30
0.0
 50
90.0
  0
INSERT
  5
AD3
  8
0
  2
BLOCK76
 10
262.10472900000002
 20
481.60573599999998
 30
0.0
 50
90.0
  0
INSERT
  5
AD4
  8
0
  2
BLOCK77
 10
262.10472900000002
 20
481.60573599999998
 30
0.0
 50
90.0
  0
INSERT
  5
AD5
  8
0
  2
BLOCK78
 10
262.10472900000002
 20
481.60573599999998
 30
0.0
 50
90.0
  0
INSERT
  5
AD6
  8
0
  2
BLOCK79
 10
262.10472900000002
 20
481.60573599999998
 30
0.0
 50
90.0
  0
INSERT
  5
AD7
  8
0
  2
BLOCK80
 10
262.10472900000002
 20
481.60573599999998
 30
0.0
 50
90.0
  0
INSERT
  5
AD8
  8
0
  2
BLOCK81
 10
262.10472900000002
 20
481.60573599999998
 30
0.0
 50
90.0
  0
INSERT
  5
AD9
  8
0
  2
BLOCK82
 10
262.10472900000002
 20
481.60573599999998
 30
0.0
 50
90.0
  0
INSERT
  5
ADA
  8
0
  2
BLOCK83
 10
262.10472900000002
 20
481.60573599999998
 30
0.0
 50
90.0
  0
INSERT
  5
ADB
  8
0
  2
BLOCK84
 10
262.10472900000002
 20
481.60573599999998
 30
0.0
 50
90.0
  0
INSERT
  5
ADC
  8
0
  2
BLOCK85
 10
262.10472900000002
 20
481.60573599999998
 30
0.0
 50
90.0
  0
INSERT
  5
ADD
  8
0
  2
BLOCK86
 10
262.10472900000002
 20
481.60573599999998
 30
0.0
 50
90.0
  0
VIEWPORT
  5
86F
 67
     1
  8
0
 62
     0
 10
0.0
 20
0.0
 30
0.0
 40
1000.0
 41
1000.0
 68
     1
 69
     1
1001
ACAD
1000
MVIEW
1002
{
1070
    16
1010
0.0
1020
0.0
1030
0.0
1010
0.0
1020
0.0
1030
1.0
1040
0.0
1040
1000.0
1040
0.0
1040
0.0
1040
50.0
1040
0.0
1040
0.0
1070
     0
1070
   100
1070
     1
1070
     1
1070
     0
1070
     0
1070
     0
1070
     0
1040
0.0
1040
0.0
1040
0.0
1040
1.0
1040
1.0
1040
1.0
1040
1.0
1070
     0
1002
{
1002
}
1002
}
  0
ENDSEC
  0
EOF
