  0
SECTION
  2
HEADER
  9
$ACADVER
  1
AC1009
  9
$DWGCODEPAGE
  3
iso8859-1
  9
$INSBASE
 10
0.0
 20
0.0
 30
0.0
  9
$EXTMIN
 10
1.0E20
 20
1.0E20
  9
$EXTMAX
 10
-1.0E20
 20
-1.0E20
  9
$LIMMIN
 10
0.0
 20
0.0
  9
$LIMMAX
 10
12.0
 20
9.0
  9
$ORTHOMODE
 70
     0
  9
$REGENMODE
 70
     1
  9
$FILLMODE
 70
     1
  9
$QTEXTMODE
 70
     0
  9
$MIRRTEXT
 70
     1
  9
$DRAGMODE
 70
     2
  9
$LTSCALE
 40
15.0
  9
$OSMODE
 70
     0
  9
$ATTMODE
 70
     1
  9
$TEXTSIZE
 40
0.2
  9
$TRACEWID
 40
0.05
  9
$TEXTSTYLE
  7
STANDARD
  9
$CLAYER
  8
0
  9
$CELTYPE
  6
DASHED
  9
$CECOLOR
 62
   256
  9
$DIMSCALE
 40
1.0
  9
$DIMASZ
 40
0.18
  9
$DIMEXO
 40
0.0625
  9
$DIMDLI
 40
0.38
  9
$DIMRND
 40
0.0
  9
$DIMDLE
 40
0.0
  9
$DIMEXE
 40
0.18
  9
$DIMTP
 40
0.0
  9
$DIMTM
 40
0.0
  9
$DIMTXT
 40
0.18
  9
$DIMCEN
 40
0.09
  9
$DIMTSZ
 40
0.0
  9
$DIMTOL
 70
     0
  9
$DIMLIM
 70
     0
  9
$DIMTIH
 70
     1
  9
$DIMTOH
 70
     1
  9
$DIMSE1
 70
     0
  9
$DIMSE2
 70
     0
  9
$DIMTAD
 70
     0
  9
$DIMZIN
 70
     0
  9
$DIMBLK
  1

  9
$DIMASO
 70
     1
  9
$DIMSHO
 70
     1
  9
$DIMPOST
  1

  9
$DIMAPOST
  1

  9
$DIMALT
 70
     0
  9
$DIMALTD
 70
     2
  9
$DIMALTF
 40
25.4
  9
$DIMLFAC
 40
1.0
  9
$DIMTOFL
 70
     0
  9
$DIMTVP
 40
0.0
  9
$DIMTIX
 70
     0
  9
$DIMSOXD
 70
     0
  9
$DIMSAH
 70
     0
  9
$DIMBLK1
  1

  9
$DIMBLK2
  1

  9
$DIMSTYLE
  2
STANDARD
  9
$DIMCLRD
 70
     0
  9
$DIMCLRE
 70
     0
  9
$DIMCLRT
 70
     0
  9
$DIMTFAC
 40
1.0
  9
$DIMGAP
 40
0.09
  9
$LUNITS
 70
     2
  9
$LUPREC
 70
     4
  9
$AXISMODE
 70
     0
  9
$AXISUNIT
 10
0.0
 20
0.0
  9
$SKETCHINC
 40
0.1
  9
$FILLETRAD
 40
0.0
  9
$AUNITS
 70
     0
  9
$AUPREC
 70
     0
  9
$MENU
  1
acad
  9
$ELEVATION
 40
0.0
  9
$PELEVATION
 40
0.0
  9
$THICKNESS
 40
0.0
  9
$LIMCHECK
 70
     0
  9
$BLIPMODE
 70
     1
  9
$CHAMFERA
 40
0.0
  9
$CHAMFERB
 40
0.0
  9
$SKPOLY
 70
     0
  9
$TDCREATE
 40
0.000000000
  9
$TDUPDATE
 40
0.000000000
  9
$TDINDWG
 40
0.0
  9
$TDUSRTIMER
 40
0.0
  9
$USRTIMER
 70
     1
  9
$ANGBASE
 50
0.0
  9
$ANGDIR
 70
     0
  9
$PDMODE
 70
     0
  9
$PDSIZE
 40
0.0
  9
$PLINEWID
 40
0.0
  9
$COORDS
 70
     1
  9
$SPLFRAME
 70
     0
  9
$SPLINETYPE
 70
     6
  9
$SPLINESEGS
 70
     8
  9
$ATTDIA
 70
     0
  9
$ATTREQ
 70
     1
  9
$HANDLING
 70
     1
  9
$HANDSEED
  5
   2C2
  9
$SURFTAB1
 70
     6
  9
$SURFTAB2
 70
     6
  9
$SURFTYPE
 70
     6
  9
$SURFU
 70
     6
  9
$SURFV
 70
     6
  9
$UCSNAME
  2

  9
$UCSORG
 10
0.0
 20
0.0
 30
0.0
  9
$UCSXDIR
 10
1.0
 20
0.0
 30
0.0
  9
$UCSYDIR
 10
0.0
 20
1.0
 30
0.0
  9
$PUCSNAME
  2

  9
$PUCSORG
 10
0.0
 20
0.0
 30
0.0
  9
$PUCSXDIR
 10
1.0
 20
0.0
 30
0.0
  9
$PUCSYDIR
 10
0.0
 20
1.0
 30
0.0
  9
$USERI1
 70
     0
  9
$USERI2
 70
     0
  9
$USERI3
 70
     0
  9
$USERI4
 70
     0
  9
$USERI5
 70
     0
  9
$USERR1
 40
0.0
  9
$USERR2
 40
0.0
  9
$USERR3
 40
0.0
  9
$USERR4
 40
0.0
  9
$USERR5
 40
0.0
  9
$WORLDVIEW
 70
     1
  9
$SHADEDGE
 70
     3
  9
$SHADEDIF
 70
    70
  9
$TILEMODE
 70
     1
  9
$MAXACTVP
 70
    16
  9
$PINSBASE
 10
0.0
 20
0.0
 30
0.0
  9
$PLIMCHECK
 70
     0
  9
$PEXTMIN
 10
1.0E20
 20
1.0E20
 30
1.0E20
  9
$PEXTMAX
 10
-1.0E20
 20
-1.0E20
 30
-1.0E20
  9
$PLIMMIN
 10
0.0
 20
0.0
  9
$PLIMMAX
 10
12.0
 20
9.0
  9
$UNITMODE
 70
     0
  9
$VISRETAIN
 70
     0
  0
ENDSEC
  0
SECTION
  2
TABLES
  0
TABLE
  2
VPORT
 70
     1
  0
VPORT
  2
*ACTIVE
 70
     0
 10
0.0
 20
0.0
 11
1.0
 21
1.0
 12
6.801242
 22
4.5
 13
0.0
 23
0.0
 14
1.0
 24
1.0
 15
0.0
 25
0.0
 16
0.0
 26
0.0
 36
1.0
 17
0.0
 27
0.0
 37
0.0
 40
9.0
 41
1.511387
 42
50.0
 43
0.0
 44
0.0
 50
0.0
 51
0.0
 71
     0
 72
   100
 73
     1
 74
     1
 75
     0
 76
     0
 77
     0
 78
     0
  0
ENDTAB
  0
TABLE
  2
LTYPE
 70
    41
  0
LTYPE
  2
BYBLOCK
 70
     0
  3

 72
    65
 73
     0
 40
0.0
  0
LTYPE
  2
BYLAYER
 70
     0
  3

 72
    65
 73
     0
 40
0.0
  0
LTYPE
  2
CONTINUOUS
 70
     0
  3
Solid line
 72
    65
 73
     0
 40
0.0
  0
LTYPE
  2
BORDER
 70
    64
  3
__ __ . __ __ . __ __ . __ __ . __ __ . __ __ .
 72
    65
 73
     6
 40
1.75
 49
0.5
 49
-0.25
 49
0.5
 49
-0.25
 49
0.0
 49
-0.25
  0
LTYPE
  2
BORDER2
 70
    64
  3
__.__.__.__.__.__.__.__.__.__.__.__.__.__.__.__
 72
    65
 73
     6
 40
0.875
 49
0.25
 49
-0.125
 49
0.25
 49
-0.125
 49
0.0
 49
-0.125
  0
LTYPE
  2
BORDERX2
 70
    64
  3
____  ____  .  ____  ____  .  ____  ____  .  __
 72
    65
 73
     6
 40
3.5
 49
1.0
 49
-0.5
 49
1.0
 49
-0.5
 49
0.0
 49
-0.5
  0
LTYPE
  2
CENTER
 70
    64
  3
____ _ ____ _ ____ _ ____ _ ____ _ ____ _ ____
 72
    65
 73
     4
 40
2.0
 49
1.25
 49
-0.25
 49
0.25
 49
-0.25
  0
LTYPE
  2
CENTER2
 70
    64
  3
___ _ ___ _ ___ _ ___ _ ___ _ ___ _ ___ _ ___ _
 72
    65
 73
     4
 40
1.125
 49
0.75
 49
-0.125
 49
0.125
 49
-0.125
  0
LTYPE
  2
CENTERX2
 70
    64
  3
________  __  ________  __  ________  __  _____
 72
    65
 73
     4
 40
4.0
 49
2.5
 49
-0.5
 49
0.5
 49
-0.5
  0
LTYPE
  2
DASHDOT
 70
    64
  3
__ . __ . __ . __ . __ . __ . __ . __ . __ . __
 72
    65
 73
     4
 40
1.0
 49
0.5
 49
-0.25
 49
0.0
 49
-0.25
  0
LTYPE
  2
DASHDOT2
 70
    64
  3
_._._._._._._._._._._._._._._._._._._._._._._._
 72
    65
 73
     4
 40
0.5
 49
0.25
 49
-0.125
 49
0.0
 49
-0.125
  0
LTYPE
  2
DASHDOTX2
 70
    64
  3
____  .  ____  .  ____  .  ____  .  ____  .  __
 72
    65
 73
     4
 40
2.0
 49
1.0
 49
-0.5
 49
0.0
 49
-0.5
  0
LTYPE
  2
DASHED
 70
    64
  3
__ __ __ __ __ __ __ __ __ __ __ __ __ __ __ __
 72
    65
 73
     2
 40
0.75
 49
0.5
 49
-0.25
  0
LTYPE
  2
DASHED2
 70
    64
  3
_ _ _ _ _ _ _ _ _ _ _ _ _ _ _ _ _ _ _ _ _ _ _ _
 72
    65
 73
     2
 40
0.375
 49
0.25
 49
-0.125
  0
LTYPE
  2
DASHEDX2
 70
    64
  3
____  ____  ____  ____  ____  ____  ____  ____
 72
    65
 73
     2
 40
1.5
 49
1.0
 49
-0.5
  0
LTYPE
  2
DIVIDE
 70
    64
  3
____ . . ____ . . ____ . . ____ . . ____ . . __
 72
    65
 73
     6
 40
1.25
 49
0.5
 49
-0.25
 49
0.0
 49
-0.25
 49
0.0
 49
-0.25
  0
LTYPE
  2
DIVIDE2
 70
    64
  3
__..__..__..__..__..__..__..__..__..__..__..__.
 72
    65
 73
     6
 40
0.625
 49
0.25
 49
-0.125
 49
0.0
 49
-0.125
 49
0.0
 49
-0.125
  0
LTYPE
  2
DIVIDEX2
 70
    64
  3
________  .  .  ________  .  .  ________  .  .
 72
    65
 73
     6
 40
2.5
 49
1.0
 49
-0.5
 49
0.0
 49
-0.5
 49
0.0
 49
-0.5
  0
LTYPE
  2
DOT
 70
    64
  3
. . . . . . . . . . . . . . . . . . . . . . . .
 72
    65
 73
     2
 40
0.25
 49
0.0
 49
-0.25
  0
LTYPE
  2
DOT2
 70
    64
  3
...............................................
 72
    65
 73
     2
 40
0.125
 49
0.0
 49
-0.125
  0
LTYPE
  2
DOTX2
 70
    64
  3
.  .  .  .  .  .  .  .  .  .  .  .  .  .  .  .
 72
    65
 73
     2
 40
0.5
 49
0.0
 49
-0.5
  0
LTYPE
  2
HIDDEN
 70
    64
  3
__ __ __ __ __ __ __ __ __ __ __ __ __ __ __ __
 72
    65
 73
     2
 40
0.375
 49
0.25
 49
-0.125
  0
LTYPE
  2
HIDDEN2
 70
    64
  3
_ _ _ _ _ _ _ _ _ _ _ _ _ _ _ _ _ _ _ _ _ _ _ _
 72
    65
 73
     2
 40
0.1875
 49
0.125
 49
-0.0625
  0
LTYPE
  2
HIDDENX2
 70
    64
  3
____ ____ ____ ____ ____ ____ ____ ____ ____ __
 72
    65
 73
     2
 40
0.75
 49
0.5
 49
-0.25
  0
LTYPE
  2
PHANTOM
 70
    64
  3
______  __  __  ______  __  __  ______  __  __
 72
    65
 73
     6
 40
2.5
 49
1.25
 49
-0.25
 49
0.25
 49
-0.25
 49
0.25
 49
-0.25
  0
LTYPE
  2
PHANTOM2
 70
    64
  3
___ _ _ ___ _ _ ___ _ _ ___ _ _ ___ _ _ ___ _ _
 72
    65
 73
     6
 40
1.25
 49
0.625
 49
-0.125
 49
0.125
 49
-0.125
 49
0.125
 49
-0.125
  0
LTYPE
  2
PHANTOMX2
 70
    64
  3
____________    ____    ____    ____________
 72
    65
 73
     6
 40
5.0
 49
2.5
 49
-0.5
 49
0.5
 49
-0.5
 49
0.5
 49
-0.5
  0
LTYPE
  2
ACAD_ISO02W100
 70
    64
  3
__ __ __ __ __ __ __ __ __ __ __ __ __ __ __ __
 72
    65
 73
     2
 40
15.0
 49
12.0
 49
-3.0
  0
LTYPE
  2
ACAD_ISO03W100
 70
    64
  3
__    __    __    __    __    __    __    __
 72
    65
 73
     2
 40
30.0
 49
12.0
 49
-18.0
  0
LTYPE
  2
ACAD_ISO04W100
 70
    64
  3
____ . ____ . ____ . ____ . ____ . ____ . ____
 72
    65
 73
     4
 40
30.5
 49
24.0
 49
-3.0
 49
0.5
 49
-3.0
  0
LTYPE
  2
ACAD_ISO05W100
 70
    64
  3
____ .. ____ .. ____ .. ____ .. ____ .. ____ ..
 72
    65
 73
     6
 40
34.0
 49
24.0
 49
-3.0
 49
0.5
 49
-3.0
 49
0.5
 49
-3.0
  0
LTYPE
  2
ACAD_ISO06W100
 70
    64
  3
____ ... ____ ... ____ ... ____ ... ____ ... __
 72
    65
 73
     8
 40
37.5
 49
24.0
 49
-3.0
 49
0.5
 49
-3.0
 49
0.5
 49
-3.0
 49
0.5
 49
-3.0
  0
LTYPE
  2
ACAD_ISO07W100
 70
    64
  3
. . . . . . . . . . . . . . . . . . . . . . . .
 72
    65
 73
     2
 40
3.5
 49
0.5
 49
-3.0
  0
LTYPE
  2
ACAD_ISO08W100
 70
    64
  3
____ __ ____ __ ____ __ ____ ____ __ __ ____ __
 72
    65
 73
     4
 40
36.0
 49
24.0
 49
-3.0
 49
6.0
 49
-3.0
  0
LTYPE
  2
ACAD_ISO09W100
 70
    64
  3
____ __ __ ____ __ __ ____ __ __ ____ __ __ ___
 72
    65
 73
     6
 40
45.0
 49
24.0
 49
-3.0
 49
6.0
 49
-3.0
 49
6.0
 49
-3.0
  0
LTYPE
  2
ACAD_ISO10W100
 70
    64
  3
__ . __ . __ . __ . __ . __ . __ . __ . __ . __
 72
    65
 73
     4
 40
18.5
 49
12.0
 49
-3.0
 49
0.5
 49
-3.0
  0
LTYPE
  2
ACAD_ISO11W100
 70
    64
  3
__ __ . __ __ . __ __ . __ __ . __ __ . __ __ .
 72
    65
 73
     6
 40
33.5
 49
12.0
 49
-3.0
 49
12.0
 49
-3.0
 49
0.5
 49
-3.0
  0
LTYPE
  2
ACAD_ISO12W100
 70
    64
  3
__ . . __ . . __ . . __ . . __ . . __ . . __ .
 72
    65
 73
     6
 40
22.0
 49
12.0
 49
-3.0
 49
0.5
 49
-3.0
 49
0.5
 49
-3.0
  0
LTYPE
  2
ACAD_ISO13W100
 70
    64
  3
__ __ . . __ __ . . __ __ . . __ __ . . __ __ .
 72
    65
 73
     8
 40
37.0
 49
12.0
 49
-3.0
 49
12.0
 49
-3.0
 49
0.5
 49
-3.0
 49
0.5
 49
-3.0
  0
LTYPE
  2
ACAD_ISO14W100
 70
    64
  3
__ . . . __ . . . __ . . . __ . . . __ . . . __
 72
    65
 73
     8
 40
25.5
 49
12.0
 49
-3.0
 49
0.5
 49
-3.0
 49
0.5
 49
-3.0
 49
0.5
 49
-3.0
  0
LTYPE
  2
ACAD_ISO15W100
 70
    64
  3
__ __ . . . __ __ . . . __ __ . . . __ __ . . .
 72
    65
 73
    10
 40
40.5
 49
12.0
 49
-3.0
 49
12.0
 49
-3.0
 49
0.5
 49
-3.0
 49
0.5
 49
-3.0
 49
0.5
 49
-3.0
  0
ENDTAB
  0
TABLE
  2
STYLE
 70
     4
  0
STYLE
  2
STANDARD
 70
    64
 40
0.0
 41
1.0
 50
0.0
 71
     0
 42
0.2
  3
txt
  4

  0
STYLE
  2
TOLERANCE
 70
    64
 40
0.0
 41
1.0
 50
0.0
 71
     0
 42
0.2
  3
../igesfont/iges1003.shx
  4

  0
STYLE
  2
ROMANS
 70
    64
 40
0.0
 41
1.0
 50
0.0
 71
     0
 42
0.2
  3
romans.shx
  4

  0
STYLE
  2
ROMANC
 70
    64
 40
0.0
 41
1.0
 50
0.0
 71
     0
 42
0.2
  3
romanc.shx
  4

  0
ENDTAB
  0
TABLE
  2
DIMSTYLE
 70
     2
  0
DIMSTYLE
  2
UNNAMED
 70
     0
  3

  4

  5

  6

  7

 40
1.0
 41
0.18
 42
0.0625
 43
0.38
 44
0.18
 45
0.0
 46
0.0
 47
0.0
 48
0.0
140
0.18
141
0.09
142
0.0
143
25.4
144
1.0
145
0.0
146
1.0
147
0.09
 71
     0
 72
     0
 73
     1
 74
     1
 75
     0
 76
     0
 77
     0
 78
     0
170
     0
171
     2
172
     0
173
     0
174
     0
175
     0
176
     0
177
     0
178
     0
  0
DIMSTYLE
  2
STANDARD
 70
     0
  3

  4

  5

  6

  7

 40
1.0
 41
0.18
 42
0.0625
 43
0.38
 44
0.18
 45
0.0
 46
0.0
 47
0.0
 48
0.0
140
0.18
141
0.09
142
0.0
143
25.4
144
1.0
145
0.0
146
1.0
147
0.09
 71
     0
 72
     0
 73
     1
 74
     1
 75
     0
 76
     0
 77
     0
 78
     0
170
     0
171
     2
172
     0
173
     0
174
     0
175
     0
176
     0
177
     0
178
     0
  0
ENDTAB
  0
TABLE
  2
LAYER
 70
     2
  0
LAYER
  2
0
 70
     0
 62
     7
  6
CONTINUOUS
  0
LAYER
  2
255
 70
     0
 62
     7
  6
CONTINUOUS
  0
ENDTAB
  0
ENDSEC
  0
SECTION
  2
BLOCKS
  0
BLOCK
  5
     B
  8
0
  6
CONTINUOUS
 62
     7
  2
MIC_MOT
 70
    64
 10
0.0
 20
0.0
 30
0.0
  3
MIC_MOT
  0
LINE
  5
     C
  8
0
  6
CONTINUOUS
 62
     7
 10
-52.0
 20
52.5
 30
0.0
 11
52.0
 21
52.5
 31
0.0
  0
LINE
  5
     D
  8
0
  6
CONTINUOUS
 62
     7
 10
-52.0
 20
-52.5
 30
0.0
 11
52.0
 21
-52.5
 31
0.0
  0
LINE
  5
     E
  8
0
  6
CONTINUOUS
 62
     7
 10
-52.5
 20
-52.0
 30
0.0
 11
-52.5
 21
52.0
 31
0.0
  0
LINE
  5
     F
  8
0
  6
CONTINUOUS
 62
     7
 10
52.5
 20
-52.0
 30
0.0
 11
52.5
 21
52.0
 31
0.0
  0
ARC
  5
    10
  8
0
  6
CONTINUOUS
 62
     7
 10
-52.0
 20
52.0
 30
0.0
 40
0.5
 50
90.0
 51
180.0
  0
ARC
  5
    11
  8
0
  6
CONTINUOUS
 62
     7
 10
52.0
 20
52.0
 30
0.0
 40
0.5
 50
0.0
 51
90.0
  0
ARC
  5
    12
  8
0
  6
CONTINUOUS
 62
     7
 10
52.0
 20
-52.0
 30
0.0
 40
0.5
 50
270.0
 51
360.0
  0
ARC
  5
    13
  8
0
  6
CONTINUOUS
 62
     7
 10
-52.0
 20
-52.0
 30
0.0
 40
0.5
 50
180.0
 51
270.0
  0
LINE
  5
    14
  8
0
  6
CONTINUOUS
 62
     7
 10
-51.75
 20
51.75
 30
0.0
 11
51.75
 21
51.75
 31
0.0
  0
LINE
  5
    15
  8
0
  6
CONTINUOUS
 62
     7
 10
-51.75
 20
-51.75
 30
0.0
 11
51.75
 21
-51.75
 31
0.0
  0
LINE
  5
    16
  8
0
  6
CONTINUOUS
 62
     7
 10
-51.75
 20
-51.75
 30
0.0
 11
-51.75
 21
51.75
 31
0.0
  0
LINE
  5
    17
  8
0
  6
CONTINUOUS
 62
     7
 10
51.75
 20
-51.75
 30
0.0
 11
51.75
 21
51.75
 31
0.0
  0
LINE
  5
    18
  8
0
  6
CONTINUOUS
 62
     7
 10
-51.75
 20
40.5
 30
0.0
 11
51.75
 21
40.5
 31
0.0
  0
LINE
  5
    19
  8
0
  6
CONTINUOUS
 62
     7
 10
-51.75
 20
50.5
 30
0.0
 11
51.75
 21
50.5
 31
0.0
  0
LINE
  5
    1A
  8
0
  6
CONTINUOUS
 62
     7
 10
18.0
 20
-51.75
 30
0.0
 11
18.0
 21
40.5
 31
0.0
  0
LINE
  5
    1B
  8
0
  6
CONTINUOUS
 62
     7
 10
48.0
 20
-51.75
 30
0.0
 11
48.0
 21
40.5
 31
0.0
  0
LINE
  5
    1C
  8
0
  6
CONTINUOUS
 62
     7
 10
17.0
 20
-51.75
 30
0.0
 11
17.0
 21
40.5
 31
0.0
  0
LINE
  5
    1D
  8
0
  6
CONTINUOUS
 62
     7
 10
49.0
 20
-51.75
 30
0.0
 11
49.0
 21
40.5
 31
0.0
  0
CIRCLE
  5
    1E
  8
0
  6
CONTINUOUS
 62
     7
 10
33.0
 20
22.0
 30
0.0
 40
10.75
  0
CIRCLE
  5
    1F
  8
0
  6
CONTINUOUS
 62
     7
 10
33.0
 20
-27.3
 30
0.0
 40
10.75
  0
ARC
  5
    20
  8
0
  6
CONTINUOUS
 62
     7
 10
-20.25
 20
-23.0
 30
0.0
 40
5.25
 50
0.0
 51
180.0
  0
ARC
  5
    21
  8
0
  6
CONTINUOUS
 62
     7
 10
-20.25
 20
-33.0
 30
0.0
 40
5.25
 50
1.56165987539836
 51
360.0
  0
LINE
  5
    22
  8
0
  6
CONTINUOUS
 62
     7
 10
-15.0
 20
-33.0
 30
0.0
 11
-15.0
 21
-23.0
 31
0.0
  0
LINE
  5
    23
  8
0
  6
CONTINUOUS
 62
     7
 10
-25.5
 20
-33.0
 30
0.0
 11
-25.5
 21
-23.0
 31
0.0
  0
LINE
  5
    24
  8
0
  6
CONTINUOUS
 62
     7
 10
-25.4038820320221
 20
-32.0
 30
0.0
 11
-15.0961179679779
 21
-32.0
 31
0.0
  0
LINE
  5
    25
  8
0
  6
CONTINUOUS
 62
     7
 10
-25.4038820320221
 20
-34.0
 30
0.0
 11
-15.0961179679779
 21
-34.0
 31
0.0
  0
LINE
  5
    26
  8
0
  6
CONTINUOUS
 62
     7
 10
40.25
 20
8.75
 30
0.0
 11
42.75
 21
8.75
 31
0.0
  0
LINE
  5
    27
  8
0
  6
CONTINUOUS
 62
     7
 10
40.25
 20
-8.75
 30
0.0
 11
42.75
 21
-8.75
 31
0.0
  0
LINE
  5
    28
  8
0
  6
CONTINUOUS
 62
     7
 10
40.25
 20
-8.75
 30
0.0
 11
40.25
 21
8.75
 31
0.0
  0
LINE
  5
    29
  8
0
  6
CONTINUOUS
 62
     7
 10
42.75
 20
-8.75
 30
0.0
 11
42.75
 21
8.75
 31
0.0
  0
LINE
  5
    2A
  8
0
  6
CONTINUOUS
 62
     1
 10
-32.25
 20
32.0
 30
0.0
 11
-32.25
 21
38.3600093632938
 31
0.0
  0
LINE
  5
    2B
  8
0
  6
CONTINUOUS
 62
     1
 10
-32.25
 20
32.0
 30
0.0
 11
-25.75
 21
32.0
 31
0.0
  0
LINE
  5
    2C
  8
0
  6
CONTINUOUS
 62
     1
 10
-25.75
 20
-6.87467277262665
 30
0.0
 11
-25.75
 21
32.0
 31
0.0
  0
ARC
  5
    2D
  8
0
  6
CONTINUOUS
 62
     1
 10
-20.25
 20
17.0
 30
0.0
 40
23.0
 50
146.0
 51
256.164776385962
  0
ARC
  5
    2E
  8
0
  6
CONTINUOUS
 62
     1
 10
-20.25
 20
17.0
 30
0.0
 40
24.5
 50
119.327168765378
 51
257.027121849249
  0
LINE
  5
    2F
  8
0
  6
CONTINUOUS
 62
     1
 10
-40.5614205275985
 20
30.7002261350333
 30
0.0
 11
-39.317864168766
 21
29.8614367798272
 31
0.0
  0
LINE
  5
    30
  8
0
  6
CONTINUOUS
 62
     1
 10
-39.25
 20
17.0
 30
0.0
 11
-31.75
 21
24.5
 31
0.0
  0
LINE
  5
    31
  8
0
  6
CONTINUOUS
 62
     1
 10
-39.25
 20
17.0
 30
0.0
 11
-31.75
 21
9.49999999999999
 31
0.0
  0
LINE
  5
    32
  8
0
  6
CONTINUOUS
 62
     1
 10
-31.75
 20
9.5
 30
0.0
 11
-31.75
 21
24.5
 31
0.0
  0
ARC
  5
    33
  8
0
  6
CONTINUOUS
 62
     1
 10
-20.25
 20
17.0
 30
0.0
 40
22.5
 50
284.149004508935
 51
435.850995491065
  0
LINE
  5
    34
  8
0
  6
CONTINUOUS
 62
     1
 10
-14.75
 20
-4.81742422927143
 30
0.0
 11
-14.75
 21
38.8174242292714
 31
0.0
  0
LINE
  5
    35
  8
0
  6
CONTINUOUS
 62
     1
 10
-14.75
 20
25.0
 30
0.0
 11
0.779740844813091
 21
25.0
 31
0.0
  0
LINE
  5
    36
  8
0
  6
CONTINUOUS
 62
     1
 10
-14.75
 20
9.0
 30
0.0
 11
0.779740844813091
 21
9.0
 31
0.0
  0
LINE
  5
    37
  8
0
  6
CONTINUOUS
 62
     1
 10
-15.25
 20
-4.9374109684803
 30
0.0
 11
-15.25
 21
38.9374109684803
 31
0.0
  0
LINE
  5
    38
  8
0
  6
CONTINUOUS
 62
     1
 10
-24.25
 20
-11.0
 30
0.0
 11
-24.25
 21
38.2896688560438
 31
0.0
  0
ARC
  5
    39
  8
0
  6
CONTINUOUS
 62
     1
 10
-20.25
 20
17.0
 30
0.0
 40
22.5
 50
77.1604115930958
 51
87.4526818174296
  0
LINE
  5
    3A
  8
0
  6
CONTINUOUS
 62
     1
 10
-19.25
 20
-5.47776679298902
 30
0.0
 11
-19.25
 21
39.477766792989
 31
0.0
  0
LINE
  5
    3B
  8
0
  6
CONTINUOUS
 62
     1
 10
-21.25
 20
-11.0
 30
0.0
 11
-21.25
 21
39.477766792989
 31
0.0
  0
ARC
  5
    3C
  8
0
  6
CONTINUOUS
 62
     1
 10
-20.25
 20
17.0
 30
0.0
 40
22.5
 50
92.5473181825704
 51
116.387799961243
  0
ARC
  5
    3D
  8
0
  6
CONTINUOUS
 62
     1
 10
-20.25
 20
17.0
 30
0.0
 40
22.5
 50
259.759651678814
 51
267.45268181743
  0
LINE
  5
    3E
  8
0
  6
CONTINUOUS
 62
     1
 10
-21.25
 20
35.5
 30
0.0
 11
-19.25
 21
35.5
 31
0.0
  0
LINE
  5
    3F
  8
0
  6
CONTINUOUS
 62
     1
 10
-21.25
 20
-1.5
 30
0.0
 11
-19.25
 21
-1.5
 31
0.0
  0
LINE
  5
    40
  8
0
  6
CONTINUOUS
 62
     1
 10
-30.25
 20
34.0
 30
0.0
 11
-30.25
 21
37.1556443707464
 31
0.0
  0
LINE
  5
    41
  8
0
  6
CONTINUOUS
 62
     1
 10
-29.25
 20
33.0
 30
0.0
 11
-24.25
 21
33.0
 31
0.0
  0
ARC
  5
    42
  8
0
  6
CONTINUOUS
 62
     1
 10
-29.25
 20
34.0
 30
0.0
 40
1.0
 50
180.0
 51
270.0
  0
ARC
  5
    43
  8
0
  6
CONTINUOUS
 62
     1
 10
-23.25
 20
38.2896688560438
 30
0.0
 40
1.0
 50
98.0209328752446
 51
180.0
  0
LINE
  5
    44
  8
0
  6
CONTINUOUS
 62
     1
 10
-24.25
 20
-11.0
 30
0.0
 11
-21.25
 21
-11.0
 31
0.0
  0
ARC
  5
    45
  8
0
  6
CONTINUOUS
 62
     1
 10
-20.25
 20
17.0
 30
0.0
 40
22.5
 50
272.54731818257
 51
282.839588406904
  0
CIRCLE
  5
    46
  8
0
  6
CONTINUOUS
 62
     7
 10
-47.5
 20
17.0
 30
0.0
 40
2.5
  0
CIRCLE
  5
    47
  8
0
  6
CONTINUOUS
 62
     7
 10
-47.5
 20
17.0
 30
0.0
 40
1.5
  0
LINE
  5
    48
  8
0
  6
CONTINUOUS
 62
     7
 10
-21.25
 20
-14.25
 30
0.0
 11
-21.25
 21
-6.25
 31
0.0
  0
LINE
  5
    49
  8
0
  6
CONTINUOUS
 62
     7
 10
-19.25
 20
-14.25
 30
0.0
 11
-19.25
 21
-6.25
 31
0.0
  0
LINE
  5
    4A
  8
0
  6
CONTINUOUS
 62
     7
 10
-21.25
 20
-6.25
 30
0.0
 11
-19.25
 21
-6.25
 31
0.0
  0
LINE
  5
    4B
  8
0
  6
CONTINUOUS
 62
     7
 10
-21.25
 20
-14.25
 30
0.0
 11
-19.25
 21
-14.25
 31
0.0
  0
POINT
  5
    4C
  8
0
  6
CONTINUOUS
 62
     7
 10
0.0
 20
0.0
 30
0.0
  0
ENDBLK
  5
    4D
  8
0
  6
CONTINUOUS
 62
     7
  0
BLOCK
  5
    4E
  8
0
  6
CONTINUOUS
 62
     7
  2
*UDIM601
 70
    65
 10
0.0
 20
0.0
 30
0.0
  3
*UDIM601
  0
TEXT
  5
    4F
  8
0
  6
CONTINUOUS
 62
     7
 10
93.5869002974412
 20
35.179660799374
 30
0.0
 40
3.00000002980232
  1
58
 50
359.999999948034
 41
0.933333333333333
 72
     1
 11
96.0869003236294
 21
36.6796608120203
 31
0.0
 73
     2
  0
LINE
  5
    50
  8
0
  6
CONTINUOUS
 62
     7
 10
110.86190032959
 20
72.3228061589816
 30
0.0
 11
110.86190032959
 21
32.1796607971191
 31
0.0
  0
LINE
  5
    51
  8
0
  6
CONTINUOUS
 62
     7
 10
81.8619003295898
 20
40.0470653481703
 30
0.0
 11
81.8619003295898
 21
32.1796607971191
 31
0.0
  0
LINE
  5
    52
  8
0
  6
CONTINUOUS
 62
     7
 10
110.86190032959
 20
34.1796607971191
 30
0.0
 11
81.8619003295898
 21
34.1796607971191
 31
0.0
  0
LINE
  5
    53
  8
0
  6
CONTINUOUS
 62
     7
 10
107.907477052383
 20
33.6587163671675
 30
0.0
 11
110.86190032959
 21
34.1796607971191
 31
0.0
  0
LINE
  5
    54
  8
0
  6
CONTINUOUS
 62
     7
 10
110.86190032959
 20
34.1796607971191
 30
0.0
 11
107.907477052383
 21
34.7006052270708
 31
0.0
  0
LINE
  5
    55
  8
0
  6
CONTINUOUS
 62
     7
 10
84.8163236067968
 20
34.7006052270708
 30
0.0
 11
81.8619003295898
 21
34.1796607971191
 31
0.0
  0
LINE
  5
    56
  8
0
  6
CONTINUOUS
 62
     7
 10
81.8619003295898
 20
34.1796607971191
 30
0.0
 11
84.8163236067968
 21
33.6587163671675
 31
0.0
  0
ENDBLK
  5
    57
  8
0
  6
CONTINUOUS
 62
     7
  0
BLOCK
  5
    58
  8
0
  6
CONTINUOUS
 62
     7
  2
*UDIM602
 70
    65
 10
0.0
 20
0.0
 30
0.0
  3
*UDIM602
  0
TEXT
  5
    59
  8
0
  6
CONTINUOUS
 62
     7
 10
77.6869002835335
 20
25.892482761086
 30
0.0
 40
3.00000002980232
  1
117
 50
359.999999948034
 41
0.933333333333333
 72
     1
 11
81.5869003236294
 21
27.3924827724695
 31
0.0
 73
     2
  0
LINE
  5
    5A
  8
0
  6
CONTINUOUS
 62
     7
 10
111.11190032959
 20
90.2514926840652
 30
0.0
 11
111.11190032959
 21
22.8924827575684
 31
0.0
  0
LINE
  5
    5B
  8
0
  6
CONTINUOUS
 62
     7
 10
52.6119003295899
 20
44.1978063870712
 30
0.0
 11
52.6119003295899
 21
22.8924827575684
 31
0.0
  0
LINE
  5
    5C
  8
0
  6
CONTINUOUS
 62
     7
 10
111.11190032959
 20
24.8924827575684
 30
0.0
 11
52.6119003295899
 21
24.8924827575684
 31
0.0
  0
LINE
  5
    5D
  8
0
  6
CONTINUOUS
 62
     7
 10
108.157477052383
 20
24.3715383276167
 30
0.0
 11
111.11190032959
 21
24.8924827575684
 31
0.0
  0
LINE
  5
    5E
  8
0
  6
CONTINUOUS
 62
     7
 10
111.11190032959
 20
24.8924827575684
 30
0.0
 11
108.157477052383
 21
25.41342718752
 31
0.0
  0
LINE
  5
    5F
  8
0
  6
CONTINUOUS
 62
     7
 10
55.5663236067968
 20
25.41342718752
 30
0.0
 11
52.6119003295899
 21
24.8924827575684
 31
0.0
  0
LINE
  5
    60
  8
0
  6
CONTINUOUS
 62
     7
 10
52.6119003295899
 20
24.8924827575684
 30
0.0
 11
55.5663236067968
 21
24.3715383276167
 31
0.0
  0
ENDBLK
  5
    61
  8
0
  6
CONTINUOUS
 62
     7
  0
BLOCK
  5
    62
  8
0
  6
CONTINUOUS
 62
     7
  2
*UDIM603
 70
    65
 10
0.0
 20
0.0
 30
0.0
  3
*UDIM603
  0
TEXT
  5
    63
  8
0
  6
CONTINUOUS
 62
     7
 10
122.366283413216
 20
80.6478072648812
 30
0.0
 40
3.00000002980232
  1
161
 50
89.9999999480344
 41
0.933333333333333
 72
     1
 11
120.866283401847
 21
84.5478073049828
 31
0.0
 73
     2
  0
LINE
  5
    64
  8
0
  6
CONTINUOUS
 62
     7
 10
105.601782736317
 20
44.5728063870712
 30
0.0
 11
125.366283416748
 21
44.5728063870712
 31
0.0
  0
LINE
  5
    65
  8
0
  6
CONTINUOUS
 62
     7
 10
111.48690032959
 20
125.072804479723
 30
0.0
 11
125.366283416748
 21
125.072804479723
 31
0.0
  0
LINE
  5
    66
  8
0
  6
CONTINUOUS
 62
     7
 10
123.366283416748
 20
44.5728063870712
 30
0.0
 11
123.366283416748
 21
125.072804479723
 31
0.0
  0
LINE
  5
    67
  8
0
  6
CONTINUOUS
 62
     7
 10
122.845338986796
 20
47.5272296642782
 30
0.0
 11
123.366283416748
 21
44.5728063870712
 31
0.0
  0
LINE
  5
    68
  8
0
  6
CONTINUOUS
 62
     7
 10
123.366283416748
 20
44.5728063870712
 30
0.0
 11
123.8872278467
 21
47.5272296642782
 31
0.0
  0
LINE
  5
    69
  8
0
  6
CONTINUOUS
 62
     7
 10
123.8872278467
 20
122.118381202516
 30
0.0
 11
123.366283416748
 21
125.072804479723
 31
0.0
  0
LINE
  5
    6A
  8
0
  6
CONTINUOUS
 62
     7
 10
123.366283416748
 20
125.072804479723
 30
0.0
 11
122.845338986796
 21
122.118381202516
 31
0.0
  0
ENDBLK
  5
    6B
  8
0
  6
CONTINUOUS
 62
     7
  0
BLOCK
  5
    6C
  8
0
  6
CONTINUOUS
 62
     7
  2
*UDIM604
 70
    65
 10
0.0
 20
0.0
 30
0.0
  3
*UDIM604
  0
TEXT
  5
    6D
  8
0
  6
CONTINUOUS
 62
     7
 10
77.6868831307265
 20
178.756919864357
 30
0.0
 40
3.00000002980232
  1
105
 50
359.999999948034
 41
0.933333333333333
 72
     1
 11
81.5868831708225
 21
180.256919875741
 31
0.0
 73
     2
  0
LINE
  5
    6E
  8
0
  6
CONTINUOUS
 62
     7
 10
108.111885659992
 20
170.547799139148
 30
0.0
 11
108.111885659992
 21
179.75691986084
 31
0.0
  0
LINE
  5
    6F
  8
0
  6
CONTINUOUS
 62
     7
 10
55.611880037923
 20
170.547799139148
 30
0.0
 11
55.611880037923
 21
179.75691986084
 31
0.0
  0
LINE
  5
    70
  8
0
  6
CONTINUOUS
 62
     7
 10
108.111885659992
 20
177.75691986084
 30
0.0
 11
55.611880037923
 21
177.75691986084
 31
0.0
  0
LINE
  5
    71
  8
0
  6
CONTINUOUS
 62
     7
 10
105.157462382785
 20
177.235975430888
 30
0.0
 11
108.111885659992
 21
177.75691986084
 31
0.0
  0
LINE
  5
    72
  8
0
  6
CONTINUOUS
 62
     7
 10
108.111885659992
 20
177.75691986084
 30
0.0
 11
105.157462382785
 21
178.277864290792
 31
0.0
  0
LINE
  5
    73
  8
0
  6
CONTINUOUS
 62
     7
 10
58.5663033151299
 20
178.277864290792
 30
0.0
 11
55.611880037923
 21
177.75691986084
 31
0.0
  0
LINE
  5
    74
  8
0
  6
CONTINUOUS
 62
     7
 10
55.611880037923
 20
177.75691986084
 30
0.0
 11
58.5663033151299
 21
177.235975430888
 31
0.0
  0
ENDBLK
  5
    75
  8
0
  6
CONTINUOUS
 62
     7
  0
BLOCK
  5
    76
  8
0
  6
CONTINUOUS
 62
     7
  2
*HATCH104
 70
    65
 10
0.0
 20
0.0
 30
0.0
  3
*HATCH104
  0
LINE
  5
    77
  8
0
  6
CONTINUOUS
 62
    52
 10
169.378204345703
 20
-117.000053405762
 30
0.0
 11
167.378189086914
 21
-119.000053405762
 31
0.0
  0
LINE
  5
    78
  8
0
  6
CONTINUOUS
 62
    52
 10
173.620849609375
 20
-117.000053405762
 30
0.0
 11
171.620834350586
 21
-119.000053405762
 31
0.0
  0
LINE
  5
    79
  8
0
  6
CONTINUOUS
 62
    52
 10
177.480621337891
 20
-117.382911682129
 30
0.0
 11
175.863479614258
 21
-119.000053405762
 31
0.0
  0
ENDBLK
  5
    7A
  8
0
  6
CONTINUOUS
 62
     7
  0
BLOCK
  5
    7B
  8
0
  6
CONTINUOUS
 62
     7
  2
*HATCH105
 70
    65
 10
0.0
 20
0.0
 30
0.0
  3
*HATCH105
  0
LINE
  5
    7C
  8
0
  6
CONTINUOUS
 62
    52
 10
46.3416137695313
 20
-117.000053405762
 30
0.0
 11
44.3416137695313
 21
-119.000053405762
 31
0.0
  0
LINE
  5
    7D
  8
0
  6
CONTINUOUS
 62
    52
 10
50.5842514038086
 20
-117.000053405762
 30
0.0
 11
48.5842514038086
 21
-119.000053405762
 31
0.0
  0
LINE
  5
    7E
  8
0
  6
CONTINUOUS
 62
    52
 10
53.9806251525879
 20
-117.846321105957
 30
0.0
 11
52.8268928527832
 21
-119.000053405762
 31
0.0
  0
ENDBLK
  5
    7F
  8
0
  6
CONTINUOUS
 62
     7
  0
BLOCK
  5
    80
  8
0
  6
CONTINUOUS
 62
     7
  2
*HATCH106
 70
    65
 10
0.0
 20
0.0
 30
0.0
  3
*HATCH106
  0
LINE
  5
    81
  8
0
  6
CONTINUOUS
 62
    52
 10
-6.69139814376831
 20
-117.000053405762
 30
0.0
 11
-8.69139862060547
 21
-119.000053405762
 31
0.0
  0
LINE
  5
    82
  8
0
  6
CONTINUOUS
 62
    52
 10
-2.44875741004944
 20
-117.000053405762
 30
0.0
 11
-4.44875812530518
 21
-119.000053405762
 31
0.0
  0
LINE
  5
    83
  8
0
  6
CONTINUOUS
 62
    52
 10
1.79388356208801
 20
-117.000053405762
 30
0.0
 11
-0.206117630004883
 21
-119.000053405762
 31
0.0
  0
LINE
  5
    84
  8
0
  6
CONTINUOUS
 62
    52
 10
6.03652477264404
 20
-117.000053405762
 30
0.0
 11
4.03652286529541
 21
-119.000053405762
 31
0.0
  0
LINE
  5
    85
  8
0
  6
CONTINUOUS
 62
    52
 10
10.2791662216187
 20
-117.000053405762
 30
0.0
 11
8.2791633605957
 21
-119.000053405762
 31
0.0
  0
LINE
  5
    86
  8
0
  6
CONTINUOUS
 62
    52
 10
14.5218076705933
 20
-117.000053405762
 30
0.0
 11
12.5218048095703
 21
-119.000053405762
 31
0.0
  0
LINE
  5
    87
  8
0
  6
CONTINUOUS
 62
    52
 10
18.7644481658936
 20
-117.000053405762
 30
0.0
 11
16.7644462585449
 21
-119.000053405762
 31
0.0
  0
LINE
  5
    88
  8
0
  6
CONTINUOUS
 62
    52
 10
23.0070896148682
 20
-117.000053405762
 30
0.0
 11
21.0070877075195
 21
-119.000053405762
 31
0.0
  0
LINE
  5
    89
  8
0
  6
CONTINUOUS
 62
    52
 10
27.2497310638428
 20
-117.000053405762
 30
0.0
 11
25.2497291564941
 21
-119.000053405762
 31
0.0
  0
LINE
  5
    8A
  8
0
  6
CONTINUOUS
 62
    52
 10
31.4923725128174
 20
-117.000053405762
 30
0.0
 11
29.4923706054688
 21
-119.000053405762
 31
0.0
  0
LINE
  5
    8B
  8
0
  6
CONTINUOUS
 62
    52
 10
35.4806251525879
 20
-117.254440307617
 30
0.0
 11
33.7350082397461
 21
-119.000053405762
 31
0.0
  0
ENDBLK
  5
    8C
  8
0
  6
CONTINUOUS
 62
     7
  0
BLOCK
  5
    8D
  8
0
  6
CONTINUOUS
 62
     7
  2
*HATCH107
 70
    65
 10
0.0
 20
0.0
 30
0.0
  3
*HATCH107
  0
LINE
  5
    8E
  8
0
  6
CONTINUOUS
 62
    52
 10
162.982299804688
 20
-118.434745788574
 30
0.0
 11
167.047607421875
 21
-122.500053405762
 31
0.0
  0
LINE
  5
    8F
  8
0
  6
CONTINUOUS
 62
    52
 10
165.668914794922
 20
-119.000053405762
 30
0.0
 11
169.168914794922
 21
-122.500053405762
 31
0.0
  0
LINE
  5
    90
  8
0
  6
CONTINUOUS
 62
    52
 10
169.911560058594
 20
-119.000053405762
 30
0.0
 11
173.411560058594
 21
-122.500053405762
 31
0.0
  0
LINE
  5
    91
  8
0
  6
CONTINUOUS
 62
    52
 10
174.154205322266
 20
-119.000053405762
 30
0.0
 11
177.654205322266
 21
-122.500053405762
 31
0.0
  0
LINE
  5
    92
  8
0
  6
CONTINUOUS
 62
    52
 10
178.396850585938
 20
-119.000053405762
 30
0.0
 11
181.896850585937
 21
-122.500053405762
 31
0.0
  0
LINE
  5
    93
  8
0
  6
CONTINUOUS
 62
    52
 10
182.639495849609
 20
-119.000053405762
 30
0.0
 11
186.139495849609
 21
-122.500053405762
 31
0.0
  0
LINE
  5
    94
  8
0
  6
CONTINUOUS
 62
    52
 10
186.882141113281
 20
-119.000053405762
 30
0.0
 11
190.382141113281
 21
-122.500053405762
 31
0.0
  0
ENDBLK
  5
    95
  8
0
  6
CONTINUOUS
 62
     7
  0
BLOCK
  5
    96
  8
0
  6
CONTINUOUS
 62
     7
  2
*HATCH108
 70
    65
 10
0.0
 20
0.0
 30
0.0
  3
*HATCH108
  0
LINE
  5
    97
  8
0
  6
CONTINUOUS
 62
    52
 10
29.904504776001
 20
-119.000053405762
 30
0.0
 11
33.4044990539551
 21
-122.500053405762
 31
0.0
  0
LINE
  5
    98
  8
0
  6
CONTINUOUS
 62
    52
 10
34.147144317627
 20
-119.000053405762
 30
0.0
 11
37.6471366882324
 21
-122.500053405762
 31
0.0
  0
LINE
  5
    99
  8
0
  6
CONTINUOUS
 62
    52
 10
38.3897819519043
 20
-119.000053405762
 30
0.0
 11
41.8897743225098
 21
-122.500053405762
 31
0.0
  0
LINE
  5
    9A
  8
0
  6
CONTINUOUS
 62
    52
 10
42.6324195861816
 20
-119.000053405762
 30
0.0
 11
46.1324119567871
 21
-122.500053405762
 31
0.0
  0
LINE
  5
    9B
  8
0
  6
CONTINUOUS
 62
    52
 10
46.875057220459
 20
-119.000053405762
 30
0.0
 11
50.3750495910645
 21
-122.500053405762
 31
0.0
  0
LINE
  5
    9C
  8
0
  6
CONTINUOUS
 62
    52
 10
51.1176948547363
 20
-119.000053405762
 30
0.0
 11
54.6176872253418
 21
-122.500053405762
 31
0.0
  0
LINE
  5
    9D
  8
0
  6
CONTINUOUS
 62
    52
 10
54.9806251525879
 20
-118.620346069336
 30
0.0
 11
56.9848670959473
 21
-120.624588012695
 31
0.0
  0
ENDBLK
  5
    9E
  8
0
  6
CONTINUOUS
 62
     7
  0
BLOCK
  5
    9F
  8
0
  6
CONTINUOUS
 62
     7
  2
*HATCH109
 70
    65
 10
0.0
 20
0.0
 30
0.0
  3
*HATCH109
  0
LINE
  5
    A0
  8
0
  6
CONTINUOUS
 62
    52
 10
188.470077514648
 20
-117.000053405762
 30
0.0
 11
186.470077514648
 21
-119.000053405762
 31
0.0
  0
LINE
  5
    A1
  8
0
  6
CONTINUOUS
 62
    52
 10
192.71272277832
 20
-117.000053405762
 30
0.0
 11
190.71272277832
 21
-119.000053405762
 31
0.0
  0
LINE
  5
    A2
  8
0
  6
CONTINUOUS
 62
    52
 10
196.955368041992
 20
-117.000053405762
 30
0.0
 11
194.955368041992
 21
-119.000053405762
 31
0.0
  0
LINE
  5
    A3
  8
0
  6
CONTINUOUS
 62
    52
 10
201.198013305664
 20
-117.000053405762
 30
0.0
 11
199.198013305664
 21
-119.000053405762
 31
0.0
  0
LINE
  5
    A4
  8
0
  6
CONTINUOUS
 62
    52
 10
205.440658569336
 20
-117.000053405762
 30
0.0
 11
203.440658569336
 21
-119.000053405762
 31
0.0
  0
LINE
  5
    A5
  8
0
  6
CONTINUOUS
 62
    52
 10
209.683303833008
 20
-117.000053405762
 30
0.0
 11
207.683303833008
 21
-119.000053405762
 31
0.0
  0
LINE
  5
    A6
  8
0
  6
CONTINUOUS
 62
    52
 10
213.92594909668
 20
-117.000053405762
 30
0.0
 11
211.92594909668
 21
-119.000053405762
 31
0.0
  0
LINE
  5
    A7
  8
0
  6
CONTINUOUS
 62
    52
 10
218.168594360352
 20
-117.000053405762
 30
0.0
 11
216.168594360352
 21
-119.000053405762
 31
0.0
  0
LINE
  5
    A8
  8
0
  6
CONTINUOUS
 62
    52
 10
222.411239624023
 20
-117.000053405762
 30
0.0
 11
220.411239624023
 21
-119.000053405762
 31
0.0
  0
LINE
  5
    A9
  8
0
  6
CONTINUOUS
 62
    52
 10
226.653884887695
 20
-117.000053405762
 30
0.0
 11
224.653884887695
 21
-119.000053405762
 31
0.0
  0
LINE
  5
    AA
  8
0
  6
CONTINUOUS
 62
    52
 10
230.896530151367
 20
-117.000053405762
 30
0.0
 11
228.896530151367
 21
-119.000053405762
 31
0.0
  0
LINE
  5
    AB
  8
0
  6
CONTINUOUS
 62
    52
 10
235.139175415039
 20
-117.000053405762
 30
0.0
 11
233.139175415039
 21
-119.000053405762
 31
0.0
  0
LINE
  5
    AC
  8
0
  6
CONTINUOUS
 62
    52
 10
239.381820678711
 20
-117.000053405762
 30
0.0
 11
237.381820678711
 21
-119.000053405762
 31
0.0
  0
LINE
  5
    AD
  8
0
  6
CONTINUOUS
 62
    52
 10
243.624465942383
 20
-117.000053405762
 30
0.0
 11
241.624465942383
 21
-119.000053405762
 31
0.0
  0
LINE
  5
    AE
  8
0
  6
CONTINUOUS
 62
    52
 10
247.867111206055
 20
-117.000053405762
 30
0.0
 11
245.867111206055
 21
-119.000053405762
 31
0.0
  0
LINE
  5
    AF
  8
0
  6
CONTINUOUS
 62
    52
 10
252.109756469727
 20
-117.000053405762
 30
0.0
 11
250.109756469727
 21
-119.000053405762
 31
0.0
  0
LINE
  5
    B0
  8
0
  6
CONTINUOUS
 62
    52
 10
256.352386474609
 20
-117.000053405762
 30
0.0
 11
254.352401733398
 21
-119.000053405762
 31
0.0
  0
LINE
  5
    B1
  8
0
  6
CONTINUOUS
 62
    52
 10
260.595001220703
 20
-117.000053405762
 30
0.0
 11
258.595031738281
 21
-119.000053405762
 31
0.0
  0
LINE
  5
    B2
  8
0
  6
CONTINUOUS
 62
    52
 10
264.837615966797
 20
-117.000053405762
 30
0.0
 11
262.837646484375
 21
-119.000053405762
 31
0.0
  0
LINE
  5
    B3
  8
0
  6
CONTINUOUS
 62
    52
 10
269.080230712891
 20
-117.000053405762
 30
0.0
 11
267.080261230469
 21
-119.000053405762
 31
0.0
  0
LINE
  5
    B4
  8
0
  6
CONTINUOUS
 62
    52
 10
273.322845458984
 20
-117.000053405762
 30
0.0
 11
271.322875976563
 21
-119.000053405762
 31
0.0
  0
LINE
  5
    B5
  8
0
  6
CONTINUOUS
 62
    52
 10
277.565460205078
 20
-117.000053405762
 30
0.0
 11
275.565490722656
 21
-119.000053405762
 31
0.0
  0
LINE
  5
    B6
  8
0
  6
CONTINUOUS
 62
    52
 10
281.808074951172
 20
-117.000053405762
 30
0.0
 11
279.80810546875
 21
-119.000053405762
 31
0.0
  0
LINE
  5
    B7
  8
0
  6
CONTINUOUS
 62
    52
 10
286.050689697266
 20
-117.000053405762
 30
0.0
 11
284.050720214844
 21
-119.000053405762
 31
0.0
  0
LINE
  5
    B8
  8
0
  6
CONTINUOUS
 62
    52
 10
288.802856445313
 20
-118.490669250488
 30
0.0
 11
288.29345703125
 21
-119.000053405762
 31
0.0
  0
ENDBLK
  5
    B9
  8
0
  6
CONTINUOUS
 62
     7
  0
BLOCK
  5
    BA
  8
0
  6
CONTINUOUS
 62
     7
  2
COM_MOT_LT
 70
    64
 10
0.0
 20
0.0
 30
0.0
  3
COM_MOT_LT
  0
LINE
  5
    BB
  8
0
  6
CONTINUOUS
 62
     7
 10
103.499984741211
 20
57.4871405028944
 30
0.0
 11
103.499984741211
 21
162.487109985316
 31
0.0
  0
LINE
  5
    BC
  8
0
  6
CONTINUOUS
 62
     7
 10
103.499984741211
 20
162.487109985316
 30
0.0
 11
225.499984741211
 21
162.487109985316
 31
0.0
  0
LINE
  5
    BD
  8
0
  6
CONTINUOUS
 62
     7
 10
103.499984741211
 20
57.4871099853162
 30
0.0
 11
225.499984741211
 21
57.4871099853162
 31
0.0
  0
LINE
  5
    BE
  8
0
  6
CONTINUOUS
 62
     7
 10
225.499984741211
 20
57.4871405028944
 30
0.0
 11
225.499984741211
 21
162.487109985316
 31
0.0
  0
LINE
  5
    BF
  8
0
  6
CONTINUOUS
 62
     7
 10
225.499984741211
 20
149.464857856348
 30
0.0
 11
227.499984741211
 21
149.464857856348
 31
0.0
  0
LINE
  5
    C0
  8
0
  6
CONTINUOUS
 62
     7
 10
225.499984741211
 20
104.509324271488
 30
0.0
 11
227.499984741211
 21
104.509324271488
 31
0.0
  0
LINE
  5
    C1
  8
0
  6
CONTINUOUS
 62
     7
 10
227.499984741211
 20
104.509324271488
 30
0.0
 11
227.499984741211
 21
149.464857856348
 31
0.0
  0
POINT
  5
    C2
  8
0
  6
CONTINUOUS
 62
     7
 10
103.499984741211
 20
109.987109985316
 30
0.0
  0
ENDBLK
  5
    C3
  8
0
  6
CONTINUOUS
 62
     7
  0
BLOCK
  5
    C4
  8
0
  6
CONTINUOUS
 62
     7
  2
*UDIM605
 70
    65
 10
0.0
 20
0.0
 30
0.0
  3
*UDIM605
  0
TEXT
  5
    C5
  8
0
  6
CONTINUOUS
 62
     7
 10
172.261320429929
 20
27.9840023578039
 30
0.0
 40
3.00000002980232
  1
103,5
 50
359.999999948034
 41
0.933333333333333
 72
     1
 11
178.96132049784
 21
29.484002366662
 31
0.0
 73
     2
  0
LINE
  5
    C6
  8
0
  6
CONTINUOUS
 62
     7
 10
205.111647622286
 20
57.5728206746718
 30
0.0
 11
205.111647622286
 21
24.9840023517609
 31
0.0
  0
LINE
  5
    C7
  8
0
  6
CONTINUOUS
 62
     7
 10
205.111647622286
 20
26.9840023517609
 30
0.0
 11
153.360992431641
 21
26.9840023517609
 31
0.0
  0
LINE
  5
    C8
  8
0
  6
CONTINUOUS
 62
     7
 10
202.15722434508
 20
26.4630579218092
 30
0.0
 11
205.111647622286
 21
26.9840023517609
 31
0.0
  0
LINE
  5
    C9
  8
0
  6
CONTINUOUS
 62
     7
 10
205.111647622286
 20
26.9840023517609
 30
0.0
 11
202.15722434508
 21
27.5049467817125
 31
0.0
  0
LINE
  5
    CA
  8
0
  6
CONTINUOUS
 62
     7
 10
156.315415708848
 20
27.5049467817125
 30
0.0
 11
153.360992431641
 21
26.9840023517609
 31
0.0
  0
LINE
  5
    CB
  8
0
  6
CONTINUOUS
 62
     7
 10
153.360992431641
 20
26.9840023517609
 30
0.0
 11
156.315415708848
 21
26.4630579218092
 31
0.0
  0
ENDBLK
  5
    CC
  8
0
  6
CONTINUOUS
 62
     7
  0
BLOCK
  5
    CD
  8
0
  6
CONTINUOUS
 62
     7
  2
*UDIM606
 70
    65
 10
0.0
 20
0.0
 30
0.0
  3
*UDIM606
  0
TEXT
  5
    CE
  8
0
  6
CONTINUOUS
 62
     7
 10
267.360988509296
 20
16.5126810083774
 30
0.0
 40
3.00000002980232
  1
2
 50
359.999999948034
 41
0.933333333333334
 72
     1
 11
268.460988521576
 21
18.0126810222864
 31
0.0
 73
     2
  0
LINE
  5
    CF
  8
0
  6
CONTINUOUS
 62
     7
 10
264.360987663269
 20
23.5901154806956
 30
0.0
 11
264.360987663269
 21
13.5126810073853
 31
0.0
  0
LINE
  5
    D0
  8
0
  6
CONTINUOUS
 62
     7
 10
263.360987663269
 20
24.1892212929162
 30
0.0
 11
263.360987663269
 21
13.5126810073853
 31
0.0
  0
LINE
  5
    D1
  8
0
  6
CONTINUOUS
 62
     7
 10
269.560988532503
 20
15.5126810073853
 30
0.0
 11
263.360987663269
 21
15.5126810073853
 31
0.0
  0
LINE
  5
    D2
  8
0
  6
CONTINUOUS
 62
     7
 10
267.315410940476
 20
16.0336254373369
 30
0.0
 11
264.360987663269
 21
15.5126810073853
 31
0.0
  0
LINE
  5
    D3
  8
0
  6
CONTINUOUS
 62
     7
 10
264.360987663269
 20
15.5126810073853
 30
0.0
 11
267.315410940476
 21
14.9917365774336
 31
0.0
  0
LINE
  5
    D4
  8
0
  6
CONTINUOUS
 62
     7
 10
260.406564386062
 20
14.9917365774336
 30
0.0
 11
263.360987663269
 21
15.5126810073853
 31
0.0
  0
LINE
  5
    D5
  8
0
  6
CONTINUOUS
 62
     7
 10
263.360987663269
 20
15.5126810073853
 30
0.0
 11
260.406564386062
 21
16.0336254373369
 31
0.0
  0
ENDBLK
  5
    D6
  8
0
  6
CONTINUOUS
 62
     7
  0
BLOCK
  5
    D7
  8
0
  6
CONTINUOUS
 62
     7
  2
*UDIM607
 70
    65
 10
0.0
 20
0.0
 30
0.0
  3
*UDIM607
  0
TEXT
  5
    D8
  8
0
  6
CONTINUOUS
 62
     7
 10
204.18599232598
 20
16.5126810109028
 30
0.0
 40
3.00000002980232
  1
220
 50
359.999999948034
 41
0.933333333333333
 72
     1
 11
208.085992366076
 21
18.0126810222864
 31
0.0
 73
     2
  0
LINE
  5
    D9
  8
0
  6
CONTINUOUS
 62
     7
 10
263.360987663269
 20
15.5126810073853
 30
0.0
 11
153.360992431641
 21
15.5126810073853
 31
0.0
  0
LINE
  5
    DA
  8
0
  6
CONTINUOUS
 62
     7
 10
260.406564386062
 20
14.9917365774336
 30
0.0
 11
263.360987663269
 21
15.5126810073853
 31
0.0
  0
LINE
  5
    DB
  8
0
  6
CONTINUOUS
 62
     7
 10
263.360987663269
 20
15.5126810073853
 30
0.0
 11
260.406564386062
 21
16.0336254373369
 31
0.0
  0
LINE
  5
    DC
  8
0
  6
CONTINUOUS
 62
     7
 10
156.315415708848
 20
16.0336254373369
 30
0.0
 11
153.360992431641
 21
15.5126810073853
 31
0.0
  0
LINE
  5
    DD
  8
0
  6
CONTINUOUS
 62
     7
 10
153.360992431641
 20
15.5126810073853
 30
0.0
 11
156.315415708848
 21
14.9917365774336
 31
0.0
  0
ENDBLK
  5
    DE
  8
0
  6
CONTINUOUS
 62
     7
  0
BLOCK
  5
    DF
  8
0
  6
CONTINUOUS
 62
     7
  2
*UDIM608
 70
    65
 10
0.0
 20
0.0
 30
0.0
  3
*UDIM608
  0
TEXT
  5
    E0
  8
0
  6
CONTINUOUS
 62
     7
 10
278.171440120979
 20
80.6478053698207
 30
0.0
 40
3.00000002980232
  1
105
 50
89.9999999480344
 41
0.933333333333333
 72
     1
 11
276.671440109611
 21
84.5478054099223
 31
0.0
 73
     2
  0
LINE
  5
    E1
  8
0
  6
CONTINUOUS
 62
     7
 10
267.111647622287
 20
58.5728054158828
 30
0.0
 11
281.171440124512
 21
58.5728054158828
 31
0.0
  0
LINE
  5
    E2
  8
0
  6
CONTINUOUS
 62
     7
 10
267.111647622287
 20
111.072805415883
 30
0.0
 11
281.171440124512
 21
111.072805415883
 31
0.0
  0
LINE
  5
    E3
  8
0
  6
CONTINUOUS
 62
     7
 10
279.171440124512
 20
58.5728054158828
 30
0.0
 11
279.171440124512
 21
111.072805415883
 31
0.0
  0
LINE
  5
    E4
  8
0
  6
CONTINUOUS
 62
     7
 10
278.65049569456
 20
61.5272286930897
 30
0.0
 11
279.171440124512
 21
58.5728054158828
 31
0.0
  0
LINE
  5
    E5
  8
0
  6
CONTINUOUS
 62
     7
 10
279.171440124512
 20
58.5728054158828
 30
0.0
 11
279.692384554463
 21
61.5272286930897
 31
0.0
  0
LINE
  5
    E6
  8
0
  6
CONTINUOUS
 62
     7
 10
279.692384554463
 20
108.118382138676
 30
0.0
 11
279.171440124512
 21
111.072805415883
 31
0.0
  0
LINE
  5
    E7
  8
0
  6
CONTINUOUS
 62
     7
 10
279.171440124512
 20
111.072805415883
 30
0.0
 11
278.65049569456
 21
108.118382138676
 31
0.0
  0
ENDBLK
  5
    E8
  8
0
  6
CONTINUOUS
 62
     7
  0
BLOCK
  5
    E9
  8
0
  6
CONTINUOUS
 62
     7
  2
*UDIM609
 70
    65
 10
0.0
 20
0.0
 30
0.0
  3
*UDIM609
  0
TEXT
  5
    EA
  8
0
  6
CONTINUOUS
 62
     7
 10
202.760992357769
 20
6.72634125360163
 30
0.0
 40
3.00000002980232
  1
225,5
 50
359.999999948034
 41
0.933333333333333
 72
     1
 11
209.46099242568
 21
8.22634126245975
 31
0.0
 73
     2
  0
LINE
  5
    EB
  8
0
  6
CONTINUOUS
 62
     7
 10
266.110987663269
 20
43.5728197385117
 30
0.0
 11
266.110987663269
 21
3.72634124755859
 31
0.0
  0
LINE
  5
    EC
  8
0
  6
CONTINUOUS
 62
     7
 10
153.360992431641
 20
14.791177651148
 30
0.0
 11
153.360992431641
 21
3.72634124755859
 31
0.0
  0
LINE
  5
    ED
  8
0
  6
CONTINUOUS
 62
     7
 10
266.110987663269
 20
5.72634124755859
 30
0.0
 11
153.360992431641
 21
5.72634124755859
 31
0.0
  0
LINE
  5
    EE
  8
0
  6
CONTINUOUS
 62
     7
 10
263.156564386062
 20
5.20539681760693
 30
0.0
 11
266.110987663269
 21
5.72634124755859
 31
0.0
  0
LINE
  5
    EF
  8
0
  6
CONTINUOUS
 62
     7
 10
266.110987663269
 20
5.72634124755859
 30
0.0
 11
263.156564386062
 21
6.24728567751026
 31
0.0
  0
LINE
  5
    F0
  8
0
  6
CONTINUOUS
 62
     7
 10
156.315415708848
 20
6.24728567751026
 30
0.0
 11
153.360992431641
 21
5.72634124755859
 31
0.0
  0
LINE
  5
    F1
  8
0
  6
CONTINUOUS
 62
     7
 10
153.360992431641
 20
5.72634124755859
 30
0.0
 11
156.315415708848
 21
5.20539681760693
 31
0.0
  0
ENDBLK
  5
    F2
  8
0
  6
CONTINUOUS
 62
     7
  0
BLOCK
  5
    F3
  8
0
  6
CONTINUOUS
 62
     7
  2
*UDIM610
 70
    65
 10
0.0
 20
0.0
 30
0.0
  3
*UDIM610
  0
TEXT
  5
    F4
  8
0
  6
CONTINUOUS
 62
     7
 10
51.6680452762909
 20
-79.6934646272239
 30
0.0
 40
2.99999994039535
  1
7
 50
397.208926617964
 41
0.933333333333333
 72
     1
 11
51.6370397516587
 21
-77.8336155688447
 31
0.0
 73
     2
  0
TEXT
  5
    F5
  8
0
  6
CONTINUOUS
 62
     7
 10
49.1592728314188
 20
-81.5983426992735
 30
0.0
 40
2.99999994039535
  1
Ø
 50
397.208926617964
 41
0.933333333333333
 72
     1
 11
49.1282673067866
 21
-79.7384936408943
 31
0.0
 73
     2
  0
LINE
  5
    F6
  8
0
  6
CONTINUOUS
 62
     7
 10
70.6981573823754
 20
-66.4997437804388
 30
0.0
 11
49.7639960446249
 21
-82.3947784100397
 31
0.0
  0
LINE
  5
    F7
  8
0
  6
CONTINUOUS
 62
     7
 10
72.7361383983592
 20
-64.2982367106138
 30
0.0
 11
70.6981573823754
 21
-66.4997437804388
 31
0.0
  0
LINE
  5
    F8
  8
0
  6
CONTINUOUS
 62
     7
 10
70.6981573823754
 20
-66.4997437804388
 30
0.0
 11
73.3661927722618
 21
-65.1280342053779
 31
0.0
  0
LINE
  5
    F9
  8
0
  6
CONTINUOUS
 62
     7
 10
66.9876613071462
 20
-69.9711696378531
 30
0.0
 11
69.02564232313
 21
-67.7696625680281
 31
0.0
  0
LINE
  5
    FA
  8
0
  6
CONTINUOUS
 62
     7
 10
69.02564232313
 20
-67.7696625680281
 30
0.0
 11
66.3576069332436
 21
-69.1413721430889
 31
0.0
  0
ENDBLK
  5
    FB
  8
0
  6
CONTINUOUS
 62
     7
  0
BLOCK
  5
    FC
  8
0
  6
CONTINUOUS
 62
     7
  2
*UDIM611
 70
    65
 10
0.0
 20
0.0
 30
0.0
  3
*UDIM611
  0
TEXT
  5
    FD
  8
0
  6
CONTINUOUS
 62
     7
 10
77.6869048206998
 20
-92.6901516065555
 30
0.0
 40
2.99999994039535
  1
112
 50
359.999999844103
 41
0.933333333333333
 72
     1
 11
81.5869047472876
 21
-91.1901516469498
 31
0.0
 73
     2
  0
LINE
  5
    FE
  8
0
  6
CONTINUOUS
 62
     7
 10
65.0618996620178
 20
-63.6347029954195
 30
0.0
 11
65.0618996620178
 21
-95.6901516171474
 31
0.0
  0
LINE
  5
    FF
  8
0
  6
CONTINUOUS
 62
     7
 10
98.6619009971619
 20
-63.6347029954195
 30
0.0
 11
98.6619009971619
 21
-95.6901516171474
 31
0.0
  0
LINE
  5
   100
  8
0
  6
CONTINUOUS
 62
     7
 10
65.0618996620178
 20
-93.6901516171474
 30
0.0
 11
98.6619009971619
 21
-93.6901516171474
 31
0.0
  0
LINE
  5
   101
  8
0
  6
CONTINUOUS
 62
     7
 10
68.0163229392248
 20
-93.1692071871958
 30
0.0
 11
65.0618996620178
 21
-93.6901516171474
 31
0.0
  0
LINE
  5
   102
  8
0
  6
CONTINUOUS
 62
     7
 10
65.0618996620178
 20
-93.6901516171474
 30
0.0
 11
68.0163229392248
 21
-94.2110960470991
 31
0.0
  0
LINE
  5
   103
  8
0
  6
CONTINUOUS
 62
     7
 10
95.7074777199549
 20
-94.2110960470991
 30
0.0
 11
98.6619009971619
 21
-93.6901516171474
 31
0.0
  0
LINE
  5
   104
  8
0
  6
CONTINUOUS
 62
     7
 10
98.6619009971619
 20
-93.6901516171474
 30
0.0
 11
95.7074777199549
 21
-93.1692071871958
 31
0.0
  0
ENDBLK
  5
   105
  8
0
  6
CONTINUOUS
 62
     7
  0
BLOCK
  5
   106
  8
0
  6
CONTINUOUS
 62
     7
  2
*UDIM612
 70
    65
 10
0.0
 20
0.0
 30
0.0
  3
*UDIM612
  0
TEXT
  5
   107
  8
0
  6
CONTINUOUS
 62
     7
 10
79.0869038809332
 20
-81.40540232161
 30
0.0
 40
2.99999994039535
  1
80
 50
359.999999844103
 41
0.933333333333333
 72
     1
 11
81.5869038353365
 21
-79.9054023582021
 31
0.0
 73
     2
  0
LINE
  5
   108
  8
0
  6
CONTINUOUS
 62
     7
 10
69.8618998527527
 20
-27.4847015589476
 30
0.0
 11
69.8618998527527
 21
-84.4054023283998
 31
0.0
  0
LINE
  5
   109
  8
0
  6
CONTINUOUS
 62
     7
 10
93.861900806427
 20
-27.4847015589476
 30
0.0
 11
93.861900806427
 21
-84.4054023283998
 31
0.0
  0
LINE
  5
   10A
  8
0
  6
CONTINUOUS
 62
     7
 10
69.8618998527527
 20
-82.4054023283998
 30
0.0
 11
93.861900806427
 21
-82.4054023283998
 31
0.0
  0
LINE
  5
   10B
  8
0
  6
CONTINUOUS
 62
     7
 10
72.8163231299596
 20
-81.8844578984481
 30
0.0
 11
69.8618998527527
 21
-82.4054023283998
 31
0.0
  0
LINE
  5
   10C
  8
0
  6
CONTINUOUS
 62
     7
 10
69.8618998527527
 20
-82.4054023283998
 30
0.0
 11
72.8163231299596
 21
-82.9263467583514
 31
0.0
  0
LINE
  5
   10D
  8
0
  6
CONTINUOUS
 62
     7
 10
90.90747752922
 20
-82.9263467583514
 30
0.0
 11
93.861900806427
 21
-82.4054023283998
 31
0.0
  0
LINE
  5
   10E
  8
0
  6
CONTINUOUS
 62
     7
 10
93.861900806427
 20
-82.4054023283998
 30
0.0
 11
90.90747752922
 21
-81.8844578984481
 31
0.0
  0
ENDBLK
  5
   10F
  8
0
  6
CONTINUOUS
 62
     7
  0
BLOCK
  5
   110
  8
0
  6
CONTINUOUS
 62
     7
  2
*UDIM613
 70
    65
 10
0.0
 20
0.0
 30
0.0
  3
*UDIM613
  0
TEXT
  5
   111
  8
0
  6
CONTINUOUS
 62
     7
 10
41.3153746997135
 20
-50.0097024143725
 30
0.0
 40
2.99999994039535
  1
142
 50
449.999999844103
 41
0.933333333333333
 72
     1
 11
39.8153747401029
 21
-46.1097024877866
 31
0.0
 73
     2
  0
LINE
  5
   112
  8
0
  6
CONTINUOUS
 62
     7
 10
66.9118997752667
 20
-24.5347014814615
 30
0.0
 11
40.3153747103006
 21
-24.5347014814615
 31
0.0
  0
LINE
  5
   113
  8
0
  6
CONTINUOUS
 62
     7
 10
66.9118997752667
 20
-67.1347031742334
 30
0.0
 11
40.3153747103006
 21
-67.1347031742334
 31
0.0
  0
LINE
  5
   114
  8
0
  6
CONTINUOUS
 62
     7
 10
42.3153747103006
 20
-24.5347014814615
 30
0.0
 11
42.3153747103006
 21
-67.1347031742334
 31
0.0
  0
LINE
  5
   115
  8
0
  6
CONTINUOUS
 62
     7
 10
42.8363191402523
 20
-27.4891247586685
 30
0.0
 11
42.3153747103006
 21
-24.5347014814615
 31
0.0
  0
LINE
  5
   116
  8
0
  6
CONTINUOUS
 62
     7
 10
42.3153747103006
 20
-24.5347014814615
 30
0.0
 11
41.7944302803489
 21
-27.4891247586685
 31
0.0
  0
LINE
  5
   117
  8
0
  6
CONTINUOUS
 62
     7
 10
41.7944302803489
 20
-64.1802798970265
 30
0.0
 11
42.3153747103006
 21
-67.1347031742334
 31
0.0
  0
LINE
  5
   118
  8
0
  6
CONTINUOUS
 62
     7
 10
42.3153747103006
 20
-67.1347031742334
 30
0.0
 11
42.8363191402523
 21
-64.1802798970265
 31
0.0
  0
ENDBLK
  5
   119
  8
0
  6
CONTINUOUS
 62
     7
  0
BLOCK
  5
   11A
  8
0
  6
CONTINUOUS
 62
     7
  2
*UDIM614
 70
    65
 10
0.0
 20
0.0
 30
0.0
  3
*UDIM614
  0
TEXT
  5
   11B
  8
0
  6
CONTINUOUS
 62
     7
 10
50.6194308555563
 20
-50.0097024143725
 30
0.0
 40
2.99999994039535
  1
112
 50
449.999999844103
 41
0.933333333333333
 72
     1
 11
49.1194308959457
 21
-46.1097024877866
 31
0.0
 73
     2
  0
LINE
  5
   11C
  8
0
  6
CONTINUOUS
 62
     7
 10
64.0618996620178
 20
-29.0347016602755
 30
0.0
 11
49.6194308661434
 21
-29.0347016602755
 31
0.0
  0
LINE
  5
   11D
  8
0
  6
CONTINUOUS
 62
     7
 10
64.0618996620178
 20
-62.6347029954195
 30
0.0
 11
49.6194308661434
 21
-62.6347029954195
 31
0.0
  0
LINE
  5
   11E
  8
0
  6
CONTINUOUS
 62
     7
 10
51.6194308661434
 20
-29.0347016602755
 30
0.0
 11
51.6194308661434
 21
-62.6347029954195
 31
0.0
  0
LINE
  5
   11F
  8
0
  6
CONTINUOUS
 62
     7
 10
52.140375296095
 20
-31.9891249374824
 30
0.0
 11
51.6194308661434
 21
-29.0347016602755
 31
0.0
  0
LINE
  5
   120
  8
0
  6
CONTINUOUS
 62
     7
 10
51.6194308661434
 20
-29.0347016602755
 30
0.0
 11
51.0984864361917
 21
-31.9891249374824
 31
0.0
  0
LINE
  5
   121
  8
0
  6
CONTINUOUS
 62
     7
 10
51.0984864361917
 20
-59.6802797182125
 30
0.0
 11
51.6194308661434
 21
-62.6347029954195
 31
0.0
  0
LINE
  5
   122
  8
0
  6
CONTINUOUS
 62
     7
 10
51.6194308661434
 20
-62.6347029954195
 30
0.0
 11
52.140375296095
 21
-59.6802797182125
 31
0.0
  0
ENDBLK
  5
   123
  8
0
  6
CONTINUOUS
 62
     7
  0
ENDSEC
  0
SECTION
  2
ENTITIES
  0
LINE
  5
   124
  8
0
  6
CONTINUOUS
 62
     7
 10
108.111885659992
 20
169.547799139148
 30
0.0
 11
106.861885659992
 21
169.547799139148
 31
0.0
  0
LINE
  5
   125
  8
0
  6
CONTINUOUS
 62
     7
 10
106.861885659992
 20
169.547799139148
 30
0.0
 11
106.861885659992
 21
170.447800665027
 31
0.0
  0
LINE
  5
   126
  8
0
  6
CONTINUOUS
 62
     7
 10
72.2368827725072
 20
170.947800665027
 30
0.0
 11
57.3618856599918
 21
170.947800665027
 31
0.0
  0
LINE
  5
   127
  8
0
  6
CONTINUOUS
 62
     7
 10
89.7369178866725
 20
170.947800665027
 30
0.0
 11
73.9868827725072
 21
170.947800665027
 31
0.0
  0
LINE
  5
   128
  8
0
  6
CONTINUOUS
 62
     7
 10
106.361885659992
 20
170.947800665027
 30
0.0
 11
91.4869178866725
 21
170.947800665027
 31
0.0
  0
LINE
  5
   129
  8
0
  6
CONTINUOUS
 62
     7
 10
56.8618856599918
 20
169.547799139148
 30
0.0
 11
56.8618856599918
 21
170.447800665027
 31
0.0
  0
LINE
  5
   12A
  8
0
  6
CONTINUOUS
 62
     7
 10
56.8618856599918
 20
169.547799139148
 30
0.0
 11
55.6118856599918
 21
169.547799139148
 31
0.0
  0
LINE
  5
   12B
  8
0
  6
CONTINUOUS
 62
     2
 10
55.611880037923
 20
125.072804479723
 30
0.0
 11
55.611880037923
 21
158.697800665027
 31
0.0
  0
LINE
  5
   12C
  8
0
  6
CONTINUOUS
 62
     7
 10
56.8618856599918
 20
43.9478006650273
 30
0.0
 11
56.8618856599918
 21
44.5728063870712
 31
0.0
  0
LINE
  5
   12D
  8
0
  6
CONTINUOUS
 62
     7
 10
74.3618827725072
 20
167.697800665027
 30
0.0
 11
71.8618827725072
 21
167.697800665027
 31
0.0
  0
LINE
  5
   12E
  8
0
  6
CONTINUOUS
 62
     7
 10
106.861885659992
 20
158.697800665027
 30
0.0
 11
106.861885659992
 21
169.547799139148
 31
0.0
  0
LINE
  5
   12F
  8
0
  6
CONTINUOUS
 62
     7
 10
56.8618826961559
 20
158.697800665027
 30
0.0
 11
56.8618826961559
 21
169.547799139148
 31
0.0
  0
LINE
  5
   130
  8
0
  6
CONTINUOUS
 62
     2
 10
108.111885659992
 20
125.072804479723
 30
0.0
 11
108.111885659992
 21
158.697800665027
 31
0.0
  0
CIRCLE
  5
   131
  8
0
  6
CONTINUOUS
 62
     7
 10
64.361885354402
 20
164.697796114243
 30
0.0
 40
2.75000069115123
  0
CIRCLE
  5
   132
  8
0
  6
CONTINUOUS
 62
     7
 10
73.1118827725072
 20
163.197802580213
 30
0.0
 40
2.24999656892357
  0
CIRCLE
  5
   133
  8
0
  6
CONTINUOUS
 62
     7
 10
81.8619003295898
 20
164.697795007787
 30
0.0
 40
2.75001556139296
  0
ARC
  5
   134
  8
0
  6
CONTINUOUS
 62
     7
 10
90.6118844503249
 20
116.697802595654
 30
0.0
 40
1.87500337338897
 50
180.000125709671
 51
187.662301267597
  0
CIRCLE
  5
   135
  8
0
  6
CONTINUOUS
 62
     7
 10
90.6118873389781
 20
163.197804093848
 30
0.0
 40
2.24999987091582
  0
CIRCLE
  5
   136
  8
0
  6
CONTINUOUS
 62
     7
 10
99.3618888605535
 20
164.697816772441
 30
0.0
 40
2.74998599955911
  0
ARC
  5
   137
  8
0
  6
CONTINUOUS
 62
     7
 10
106.361888371813
 20
170.447803927646
 30
0.0
 40
0.499997602395233
 50
359.999798760808
 51
450.000230889021
  0
ARC
  5
   138
  8
0
  6
CONTINUOUS
 62
     7
 10
57.3618869354599
 20
170.447801231192
 30
0.0
 40
0.500001995564727
 50
90.0000472185487
 51
180.000478784316
  0
ARC
  5
   139
  8
0
  6
CONTINUOUS
 62
     7
 10
57.3618857806261
 20
43.9478007168692
 30
0.0
 40
0.500000053060852
 50
180.000006024791
 51
269.999989483217
  0
LINE
  5
   13A
  8
0
  6
DASHDOT
 62
     7
 10
64.3618829672122
 20
124.247803058872
 30
0.0
 11
64.3618829672122
 21
172.343818380242
 31
0.0
  0
LINE
  5
   13B
  8
0
  6
DASHDOT
 62
     7
 10
68.6118860455532
 20
164.697796114243
 30
0.0
 11
60.1118846632508
 21
164.697796114243
 31
0.0
  0
LINE
  5
   13C
  8
0
  6
DASHDOT
 62
     7
 10
86.1119158909828
 20
164.697795007787
 30
0.0
 11
77.6118847681969
 21
164.697795007787
 31
0.0
  0
LINE
  5
   13D
  8
0
  6
DASHDOT
 62
     7
 10
73.1118827725072
 20
159.447806011289
 30
0.0
 11
73.1118827725072
 21
172.129609100317
 31
0.0
  0
LINE
  5
   13E
  8
0
  6
DASHDOT
 62
     7
 10
76.8618793414308
 20
163.197802580213
 30
0.0
 11
69.3618862035836
 21
163.197802580213
 31
0.0
  0
LINE
  5
   13F
  8
0
  6
DASHDOT
 62
     7
 10
99.3618915992864
 20
124.247810888753
 30
0.0
 11
99.3618915992864
 21
128.647801650174
 31
0.0
  0
LINE
  5
   140
  8
0
  6
DASHDOT
 62
     7
 10
103.611874860113
 20
164.697816772441
 30
0.0
 11
95.1119028609944
 21
164.697816772441
 31
0.0
  0
LINE
  5
   141
  8
0
  6
DASHDOT
 62
     7
 10
64.3618936957723
 20
38.610479775748
 30
0.0
 11
64.3618936957723
 21
127.030870017334
 31
0.0
  0
LINE
  5
   142
  8
0
  6
DASHDOT
 62
     7
 10
99.3619218994384
 20
45.4476741511688
 30
0.0
 11
99.3619218994384
 21
171.89739462408
 31
0.0
  0
LINE
  5
   143
  8
0
  6
DASHDOT
 62
     7
 10
99.3618954539317
 20
41.3661420302733
 30
0.0
 11
99.3618954539317
 21
47.6477988653607
 31
0.0
  0
LINE
  5
   144
  8
0
  6
DASHDOT
 62
     7
 10
64.3618919988941
 20
43.2478008173678
 30
0.0
 11
64.3618919988941
 21
47.6478010189945
 31
0.0
  0
ARC
  5
   145
  8
0
  6
CONTINUOUS
 62
     7
 10
73.1118806546954
 20
116.697811744456
 30
0.0
 40
1.87501184484833
 50
352.337451371484
 51
359.999970304232
  0
LINE
  5
   146
  8
0
  6
DASHDOT
 62
     7
 10
81.8619003295898
 20
49.5122136995195
 30
0.0
 11
81.8619003295898
 21
101.15984828434
 31
0.0
  0
ARC
  5
   147
  8
0
  6
CONTINUOUS
 62
     3
 10
55.8619003295899
 20
110.822804479723
 30
0.0
 40
0.25
 50
449.999999948034
 51
539.999999948034
  0
LINE
  5
   148
  8
0
  6
DASHDOT
 62
     7
 10
81.8619003295898
 20
104.049465515258
 30
0.0
 11
81.8619003295898
 21
118.504590550138
 31
0.0
  0
LINE
  5
   149
  8
0
  6
DASHDOT
 62
     7
 10
81.8619003295898
 20
41.0470653481703
 30
0.0
 11
81.8619003295898
 21
100.174006623568
 31
0.0
  0
LINE
  5
   14A
  8
0
  6
DASHDOT
 62
     7
 10
81.8619003295898
 20
99.787640267308
 30
0.0
 11
81.8619003295898
 21
172.427522834523
 31
0.0
  0
ARC
  5
   14B
  8
0
  6
CONTINUOUS
 62
     7
 10
55.8619003296038
 20
110.822804479723
 30
0.0
 40
0.25
 50
449.999999948034
 51
539.999999948034
  0
LINE
  5
   14C
  8
0
  6
CONTINUOUS
 62
     7
 10
72.2368827725072
 20
169.447800665027
 30
0.0
 11
72.2368827725072
 21
170.947800665027
 31
0.0
  0
LINE
  5
   14D
  8
0
  6
CONTINUOUS
 62
     7
 10
73.9868827725072
 20
169.447800665027
 30
0.0
 11
73.9868827725072
 21
170.947800665027
 31
0.0
  0
LINE
  5
   14E
  8
0
  6
CONTINUOUS
 62
     7
 10
71.8618827725072
 20
167.697800665027
 30
0.0
 11
71.8618827725072
 21
169.447800665027
 31
0.0
  0
LINE
  5
   14F
  8
0
  6
CONTINUOUS
 62
     7
 10
74.3618827725072
 20
167.697800665027
 30
0.0
 11
74.3618827725072
 21
169.447800665027
 31
0.0
  0
LINE
  5
   150
  8
0
  6
CONTINUOUS
 62
     7
 10
74.3618827725072
 20
169.447800665027
 30
0.0
 11
73.9868827725072
 21
169.447800665027
 31
0.0
  0
LINE
  5
   151
  8
0
  6
CONTINUOUS
 62
     7
 10
72.2368827725072
 20
169.447800665027
 30
0.0
 11
71.8618827725072
 21
169.447800665027
 31
0.0
  0
LINE
  5
   152
  8
0
  6
CONTINUOUS
 62
     7
 10
89.7369178866725
 20
169.447800665027
 30
0.0
 11
89.7369178866725
 21
170.947800665027
 31
0.0
  0
LINE
  5
   153
  8
0
  6
CONTINUOUS
 62
     7
 10
91.4869178866725
 20
169.447800665027
 30
0.0
 11
91.4869178866725
 21
170.947800665027
 31
0.0
  0
LINE
  5
   154
  8
0
  6
CONTINUOUS
 62
     7
 10
91.8619178866725
 20
167.697800665027
 30
0.0
 11
91.8619178866725
 21
169.447800665027
 31
0.0
  0
LINE
  5
   155
  8
0
  6
CONTINUOUS
 62
     7
 10
91.8619178866725
 20
167.697800665027
 30
0.0
 11
89.3619178866725
 21
167.697800665027
 31
0.0
  0
LINE
  5
   156
  8
0
  6
CONTINUOUS
 62
     7
 10
89.3619178866725
 20
167.697800665027
 30
0.0
 11
89.3619178866725
 21
169.447800665027
 31
0.0
  0
LINE
  5
   157
  8
0
  6
CONTINUOUS
 62
     7
 10
91.8619178866725
 20
169.447800665027
 30
0.0
 11
91.4869178866725
 21
169.447800665027
 31
0.0
  0
LINE
  5
   158
  8
0
  6
CONTINUOUS
 62
     7
 10
89.7369178866725
 20
169.447800665027
 30
0.0
 11
89.3619178866725
 21
169.447800665027
 31
0.0
  0
LINE
  5
   159
  8
0
  6
DASHDOT
 62
     7
 10
90.6118873389781
 20
159.718538611185
 30
0.0
 11
90.6118873389781
 21
172.411394901299
 31
0.0
  0
LINE
  5
   15A
  8
0
  6
DASHDOT
 62
     7
 10
93.9040851256946
 20
163.197804093848
 30
0.0
 11
87.2446044712399
 21
163.197804093848
 31
0.0
  0
LINE
  5
   15B
  8
0
  6
CONTINUOUS
 62
     2
 10
108.111885659992
 20
158.697800665027
 30
0.0
 11
55.611880037923
 21
158.697800665027
 31
0.0
  0
LINE
  5
   15C
  8
0
  6
CONTINUOUS
 62
     2
 10
108.111885659992
 20
152.447800665027
 30
0.0
 11
55.611880037923
 21
152.447800665027
 31
0.0
  0
LINE
  5
   15D
  8
0
  6
CONTINUOUS
 62
     2
 10
108.111885659992
 20
151.947800665027
 30
0.0
 11
55.611880037923
 21
151.947800665027
 31
0.0
  0
LINE
  5
   15E
  8
0
  6
CONTINUOUS
 62
     7
 10
108.111885659992
 20
158.697800665027
 30
0.0
 11
108.111885659992
 21
169.547799139148
 31
0.0
  0
LINE
  5
   15F
  8
0
  6
CONTINUOUS
 62
     7
 10
55.611880037923
 20
158.697800665027
 30
0.0
 11
55.611880037923
 21
169.547799139148
 31
0.0
  0
LINE
  5
   160
  8
0
  6
CONTINUOUS
 62
     7
 10
72.2368827725072
 20
43.4478006650271
 30
0.0
 11
57.3618856599918
 21
43.4478006650271
 31
0.0
  0
LINE
  5
   161
  8
0
  6
CONTINUOUS
 62
     7
 10
89.7369178866725
 20
43.4478006650271
 30
0.0
 11
73.9868827725072
 21
43.4478006650271
 31
0.0
  0
LINE
  5
   162
  8
0
  6
CONTINUOUS
 62
     7
 10
106.361885659992
 20
43.4478006650271
 30
0.0
 11
91.4869178866725
 21
43.4478006650271
 31
0.0
  0
ARC
  5
   163
  8
0
  6
CONTINUOUS
 62
     7
 10
106.361888371813
 20
43.9477974024079
 30
0.0
 40
0.499997602395233
 50
269.999769007048
 51
360.000201135261
  0
LINE
  5
   164
  8
0
  6
CONTINUOUS
 62
     7
 10
106.861885659992
 20
43.9478006650271
 30
0.0
 11
106.861885659992
 21
44.847802190906
 31
0.0
  0
LINE
  5
   165
  8
0
  6
CONTINUOUS
 62
     7
 10
72.2368827725072
 20
43.4478006650271
 30
0.0
 11
72.2368827725072
 21
44.5728063870712
 31
0.0
  0
LINE
  5
   166
  8
0
  6
CONTINUOUS
 62
     7
 10
73.9868827725072
 20
43.4478006650271
 30
0.0
 11
73.9868827725072
 21
44.5728063870712
 31
0.0
  0
LINE
  5
   167
  8
0
  6
CONTINUOUS
 62
     7
 10
89.7369178866725
 20
43.4478006650271
 30
0.0
 11
89.7369178866725
 21
44.5728063870712
 31
0.0
  0
LINE
  5
   168
  8
0
  6
CONTINUOUS
 62
     7
 10
91.4869178866725
 20
43.4478006650271
 30
0.0
 11
91.4869178866725
 21
44.5728063870712
 31
0.0
  0
POINT
  5
   169
  8
0
  6
CONTINUOUS
 62
     7
 10
81.8619003295898
 20
84.8228044797226
 30
0.0
  0
LINE
  5
   16A
  8
0
  6
DASHDOT
 62
     7
 10
118.144376435814
 20
84.8228061589816
 30
0.0
 11
33.7507381476389
 21
84.8228061589816
 31
0.0
  0
LINE
  5
   16B
  8
0
  6
CONTINUOUS
 62
     7
 10
54.7368827725072
 20
170.947800665027
 30
0.0
 11
39.8618856599918
 21
170.947800665027
 31
0.0
  0
ARC
  5
   16C
  8
0
  6
CONTINUOUS
 62
     7
 10
39.8618869354599
 20
170.447801231192
 30
0.0
 40
0.500001995564727
 50
90.0000472185487
 51
180.000478784316
  0
LINE
  5
   16D
  8
0
  6
CONTINUOUS
 62
     7
 10
39.3618856599918
 20
169.547799139148
 30
0.0
 11
38.1118856599918
 21
169.547799139148
 31
0.0
  0
LINE
  5
   16E
  8
0
  6
CONTINUOUS
 62
     7
 10
38.111880037923
 20
44.847802190906
 30
0.0
 11
38.111880037923
 21
169.547799139148
 31
0.0
  0
LINE
  5
   16F
  8
0
  6
CONTINUOUS
 62
     7
 10
39.3618856599918
 20
169.547799139148
 30
0.0
 11
39.3618856599918
 21
170.447800665027
 31
0.0
  0
LINE
  5
   170
  8
0
  6
CONTINUOUS
 62
     7
 10
54.7368827725072
 20
43.4478006650271
 30
0.0
 11
39.8618856599918
 21
43.4478006650271
 31
0.0
  0
ARC
  5
   171
  8
0
  6
CONTINUOUS
 62
     7
 10
39.8618857806261
 20
43.9478007168692
 30
0.0
 40
0.500000053060852
 50
180.000006024791
 51
269.999989483217
  0
LINE
  5
   172
  8
0
  6
CONTINUOUS
 62
     7
 10
39.3618856599918
 20
43.9478006650273
 30
0.0
 11
39.3618856599918
 21
44.5728063870712
 31
0.0
  0
ARC
  5
   173
  8
0
  6
CONTINUOUS
 62
     7
 10
39.8618869354599
 20
43.9478000988621
 30
0.0
 40
0.500001995564727
 50
179.999521111753
 51
269.99995267752
  0
LINE
  5
   174
  8
0
  6
CONTINUOUS
 62
     7
 10
39.3618856599918
 20
43.9478006650271
 30
0.0
 11
39.3618856599918
 21
44.847802190906
 31
0.0
  0
LINE
  5
   175
  8
0
  6
CONTINUOUS
 62
     7
 10
39.3618856599918
 20
44.847802190906
 30
0.0
 11
38.1118856599918
 21
44.847802190906
 31
0.0
  0
LINE
  5
   176
  8
0
  6
CONTINUOUS
 62
     7
 10
110.86190032959
 20
73.3228061589816
 30
0.0
 11
110.86190032959
 21
89.3228061589816
 31
0.0
  0
INSERT
  5
   177
  8
255
  6
CONTINUOUS
 62
     7
  2
MIC_MOT
 10
81.8619003295898
 20
84.8228044797226
 30
0.0
 41
0.5
 42
0.5
 50
3.50835464724173E-15
 43
0.5
  0
LINE
  5
   178
  8
0
  6
CONTINUOUS
 62
     7
 10
110.86190032959
 20
89.3228061589816
 30
0.0
 11
108.11190032959
 21
89.3228061589816
 31
0.0
  0
LINE
  5
   179
  8
0
  6
CONTINUOUS
 62
     7
 10
110.86190032959
 20
73.3228061589816
 30
0.0
 11
108.11190032959
 21
73.3228061589816
 31
0.0
  0
LINE
  5
   17A
  8
0
  6
CONTINUOUS
 62
     7
 10
104.601782736317
 20
89.2483795784429
 30
0.0
 11
112.929540077164
 21
91.8107664525496
 31
0.0
  0
LINE
  5
   17B
  8
0
  6
CONTINUOUS
 62
     7
 10
104.601782736317
 20
41.6306901679605
 30
0.0
 11
104.601782736317
 21
89.2483795784429
 31
0.0
  0
LINE
  5
   17C
  8
0
  6
CONTINUOUS
 62
     3
 10
111.11190032959
 20
91.2514926840652
 30
0.0
 11
111.11190032959
 21
124.447804479723
 31
0.0
  0
LINE
  5
   17D
  8
0
  6
CONTINUOUS
 62
     3
 10
104.601782736317
 20
44.5728063870712
 30
0.0
 11
53.2369003295899
 21
44.5728063870712
 31
0.0
  0
LINE
  5
   17E
  8
0
  6
CONTINUOUS
 62
     3
 10
52.6119003295899
 20
45.1978063870712
 30
0.0
 11
52.6119003295899
 21
124.447804479723
 31
0.0
  0
LINE
  5
   17F
  8
0
  6
CONTINUOUS
 62
     3
 10
110.48690032959
 20
125.072804479723
 30
0.0
 11
53.2369003295899
 21
125.072804479723
 31
0.0
  0
LINE
  5
   180
  8
0
  6
CONTINUOUS
 62
     3
 10
108.36190032959
 20
90.4053388379114
 30
0.0
 11
108.36190032959
 21
111.322806387071
 31
0.0
  0
LINE
  5
   181
  8
0
  6
CONTINUOUS
 62
     3
 10
104.601782736317
 20
58.3228063870712
 30
0.0
 11
55.3619003295899
 21
58.3228063870712
 31
0.0
  0
LINE
  5
   182
  8
0
  6
CONTINUOUS
 62
     3
 10
55.3619003295899
 20
58.3228063870712
 30
0.0
 11
55.3619003295899
 21
111.322806387071
 31
0.0
  0
LINE
  5
   183
  8
0
  6
CONTINUOUS
 62
     3
 10
108.36190032959
 20
111.322804479723
 30
0.0
 11
55.3619003295899
 21
111.322804479723
 31
0.0
  0
LINE
  5
   184
  8
0
  6
CONTINUOUS
 62
     3
 10
104.601782736317
 20
55.0728063870712
 30
0.0
 11
55.3619003295899
 21
55.0728063870712
 31
0.0
  0
LINE
  5
   185
  8
0
  6
CONTINUOUS
 62
     3
 10
54.8619003295899
 20
54.0728063870712
 30
0.0
 11
54.8619003295899
 21
54.5728063870712
 31
0.0
  0
LINE
  5
   186
  8
0
  6
CONTINUOUS
 62
     3
 10
104.601782736317
 20
54.5728063870712
 30
0.0
 11
55.3619003295899
 21
54.5728063870712
 31
0.0
  0
LINE
  5
   187
  8
0
  6
CONTINUOUS
 62
     3
 10
54.8619003295899
 20
44.5728063870712
 30
0.0
 11
54.8619003295899
 21
54.0728063870712
 31
0.0
  0
LINE
  5
   188
  8
0
  6
CONTINUOUS
 62
     3
 10
54.8619003295899
 20
54.5728044797226
 30
0.0
 11
54.8619003295899
 21
125.072804479723
 31
0.0
  0
LINE
  5
   189
  8
0
  6
CONTINUOUS
 62
     3
 10
55.3619003295899
 20
44.5728063870712
 30
0.0
 11
55.3619003295899
 21
54.5728063870712
 31
0.0
  0
LINE
  5
   18A
  8
0
  6
CONTINUOUS
 62
     3
 10
55.3619003295899
 20
111.322804479723
 30
0.0
 11
55.3619003295899
 21
114.572804479723
 31
0.0
  0
LINE
  5
   18B
  8
0
  6
CONTINUOUS
 62
     3
 10
55.3619003295899
 20
55.0728063870712
 30
0.0
 11
55.3619003295899
 21
58.3228063870712
 31
0.0
  0
LINE
  5
   18C
  8
0
  6
CONTINUOUS
 62
     3
 10
108.86190032959
 20
90.5591849917575
 30
0.0
 11
108.86190032959
 21
125.072804479723
 31
0.0
  0
LINE
  5
   18D
  8
0
  6
CONTINUOUS
 62
     3
 10
108.36190032959
 20
111.322804479723
 30
0.0
 11
108.36190032959
 21
114.572804479723
 31
0.0
  0
LINE
  5
   18E
  8
0
  6
CONTINUOUS
 62
     3
 10
108.86190032959
 20
115.072804479723
 30
0.0
 11
54.8619003295899
 21
115.072804479723
 31
0.0
  0
LINE
  5
   18F
  8
0
  6
CONTINUOUS
 62
     3
 10
108.36190032959
 20
114.572804479723
 30
0.0
 11
55.3619003295899
 21
114.572804479723
 31
0.0
  0
ARC
  5
   190
  8
0
  6
CONTINUOUS
 62
     3
 10
53.2369003295899
 20
45.1978063870712
 30
0.0
 40
0.625
 50
179.999999948034
 51
269.999999948034
  0
ARC
  5
   191
  8
0
  6
CONTINUOUS
 62
     3
 10
110.48690032959
 20
124.447804479723
 30
0.0
 40
0.625
 50
359.999999948034
 51
449.999999948034
  0
ARC
  5
   192
  8
0
  6
CONTINUOUS
 62
     3
 10
53.2369003295899
 20
124.447804479723
 30
0.0
 40
0.625
 50
89.9999999480344
 51
179.999999948034
  0
LINE
  5
   193
  8
0
  6
DOT
 62
     3
 10
54.8619003295899
 20
119.697806439328
 30
0.0
 11
54.611900782105
 21
119.697806439328
 31
0.0
  0
LINE
  5
   194
  8
0
  6
DOT
 62
     3
 10
54.8619003295899
 20
120.447806439327
 30
0.0
 11
54.6119007821049
 21
120.447806439327
 31
0.0
  0
LINE
  5
   195
  8
0
  6
CONTINUOUS
 62
     3
 10
108.86190032959
 20
119.697806439414
 30
0.0
 11
108.611900784278
 21
119.697806439414
 31
0.0
  0
LINE
  5
   196
  8
0
  6
CONTINUOUS
 62
     3
 10
108.86190032959
 20
120.447806439414
 30
0.0
 11
108.611900784278
 21
120.447806439414
 31
0.0
  0
ARC
  5
   197
  8
0
  6
DOT
 62
     3
 10
54.6119007817147
 20
120.072806439351
 30
0.0
 40
0.374999999672582
 50
89.9999999480344
 51
269.999999948034
  0
ARC
  5
   198
  8
0
  6
CONTINUOUS
 62
     3
 10
55.1119007820321
 20
120.072806439264
 30
0.0
 40
0.375000000004851
 50
269.999999948034
 51
449.999999948034
  0
LINE
  5
   199
  8
0
  6
CONTINUOUS
 62
     3
 10
55.1119007821055
 20
120.447806439327
 30
0.0
 11
54.8619003295899
 21
120.447806439327
 31
0.0
  0
LINE
  5
   19A
  8
0
  6
CONTINUOUS
 62
     3
 10
55.1119007821056
 20
119.697806439328
 30
0.0
 11
54.8619003295899
 21
119.697806439328
 31
0.0
  0
ARC
  5
   19B
  8
0
  6
CONTINUOUS
 62
     3
 10
108.611900784373
 20
120.072806439253
 30
0.0
 40
0.375000000024253
 50
89.9999999519166
 51
269.999999944059
  0
ARC
  5
   19C
  8
0
  6
DOT
 62
     3
 10
109.111900784331
 20
120.07280643926
 30
0.0
 40
0.375000000014552
 50
269.999999950484
 51
449.99999994552
  0
LINE
  5
   19D
  8
0
  6
DOT
 62
     3
 10
109.111900784278
 20
120.447806439414
 30
0.0
 11
108.86190032959
 21
120.447806439414
 31
0.0
  0
LINE
  5
   19E
  8
0
  6
DOT
 62
     3
 10
109.111900784278
 20
119.697806439414
 30
0.0
 11
108.86190032959
 21
119.697806439414
 31
0.0
  0
LINE
  5
   19F
  8
0
  6
CONTINUOUS
 62
     7
 10
108.111885659992
 20
44.847802190906
 30
0.0
 11
106.861885659992
 21
44.847802190906
 31
0.0
  0
LINE
  5
   1A0
  8
0
  6
CONTINUOUS
 62
     7
 10
108.111885659992
 20
44.847802190906
 30
0.0
 11
108.111885659992
 21
58.8200962360394
 31
0.0
  0
INSERT
  5
   1A1
  8
0
  6
CONTINUOUS
 62
     7
  2
*UDIM601
 10
0.0
 20
0.0
 30
0.0
  0
TEXT
  5
   1A2
  8
0
  6
CONTINUOUS
 62
     7
 10
73.9914263634762
 20
21.4939956708164
 30
0.0
 40
3.00000002980232
  1
=    =
 50
359.999999948034
 41
0.916666689183977
 72
     1
 11
81.966426640749
 21
22.9939956785245
 31
0.0
 73
     2
  0
TEXT
  5
   1A3
  8
0
  6
CONTINUOUS
 62
     7
 10
73.8750403671345
 20
174.828269962809
 30
0.0
 40
3.00000002980232
  1
=    =
 50
359.999999948034
 41
0.916666689183977
 72
     1
 11
81.8500406444073
 21
176.328269970517
 31
0.0
 73
     2
  0
TEXT
  5
   1A4
  8
0
  6
CONTINUOUS
 62
     7
 10
80.8664267347635
 20
16.8760642986487
 30
0.0
 40
3.00000002980232
  1
Y
 50
359.999999948034
 41
0.916666604744064
 72
     1
 11
81.9664266705513
 21
18.3760643125577
 31
0.0
 73
     2
  0
INSERT
  5
   1A5
  8
0
  6
CONTINUOUS
 62
     7
  2
*UDIM602
 10
0.0
 20
0.0
 30
0.0
  0
TEXT
  5
   1A6
  8
0
  6
CONTINUOUS
 62
     7
 10
127.798305519153
 20
76.4139234571481
 30
0.0
 40
3.00000002980232
  1
=    =
 50
89.9999999480344
 41
0.916666689183977
 72
     1
 11
126.298305511475
 21
84.3889237344265
 31
0.0
 73
     2
  0
INSERT
  5
   1A7
  8
0
  6
CONTINUOUS
 62
     7
  2
*UDIM603
 10
0.0
 20
0.0
 30
0.0
  0
INSERT
  5
   1A8
  8
0
  6
CONTINUOUS
 62
     7
  2
*UDIM604
 10
0.0
 20
0.0
 30
0.0
  0
TEXT
  5
   1A9
  8
0
  6
CONTINUOUS
 62
     7
 10
81.2472245143256
 20
185.370978792112
 30
0.0
 40
3.00000002980232
  1
Y
 50
359.999999948034
 41
0.916666604744064
 72
     2
 11
83.4472243831954
 21
185.370978790128
 31
0.0
  0
TEXT
  5
   1AA
  8
0
  6
CONTINUOUS
 62
     7
 10
133.295802776655
 20
83.488226850431
 30
0.0
 40
3.00000002980232
  1
X
 50
359.999999948034
 41
0.916666604744064
 72
     2
 11
135.495802645525
 21
83.4882268484468
 31
0.0
  0
TEXT
  5
   1AB
  8
0
  6
CONTINUOUS
 62
     7
 10
29.506011669477
 20
83.1294283465553
 30
0.0
 40
3.00000002980232
  1
X
 50
359.999999948034
 41
0.916666604744064
 72
     2
 11
31.7060115383468
 21
83.129428344571
 31
0.0
  0
LINE
  5
   1AC
  8
0
  6
CONTINUOUS
 62
     7
 10
156.722100247703
 20
15.653989577023
 30
0.0
 11
149.012514342257
 21
15.9686665527555
 31
0.0
  0
LINE
  5
   1AD
  8
0
  6
DASHDOT
 62
     7
 10
153.360992431641
 20
15.791177651148
 30
0.0
 11
153.360992431641
 21
175.19599478007
 31
0.0
  0
LINE
  5
   1AE
  8
0
  6
DASHDOT
 62
     7
 10
151.860992431641
 20
15.8524021409439
 30
0.0
 11
151.860992431641
 21
175.400540234616
 31
0.0
  0
LINE
  5
   1AF
  8
0
  6
CONTINUOUS
 62
     7
 10
190.360992431641
 20
44.8478126638076
 30
0.0
 11
154.360992431641
 21
44.8478126638076
 31
0.0
  0
LINE
  5
   1B0
  8
0
  6
CONTINUOUS
 62
     7
 10
154.360992431641
 20
43.4478130452773
 30
0.0
 11
154.360992431641
 21
63.5949216102614
 31
0.0
  0
LINE
  5
   1B1
  8
0
  6
CONTINUOUS
 62
     7
 10
154.360992431641
 20
63.5949077718398
 30
0.0
 11
154.360992431641
 21
127.197805415883
 31
0.0
  0
LINE
  5
   1B2
  8
0
  6
CONTINUOUS
 62
     7
 10
153.360992431641
 20
123.112607967152
 30
0.0
 11
153.360992431641
 21
123.197790157094
 31
0.0
  0
LINE
  5
   1B3
  8
0
  6
CONTINUOUS
 62
     7
 10
188.610990671164
 20
92.9477923903392
 30
0.0
 11
188.610980987674
 21
97.0728042437616
 31
0.0
  0
LINE
  5
   1B4
  8
0
  6
CONTINUOUS
 62
     7
 10
189.860962820472
 20
120.197801931845
 30
0.0
 11
190.214524212897
 21
120.344248137258
 31
0.0
  0
LINE
  5
   1B5
  8
0
  6
CONTINUOUS
 62
     7
 10
190.214530584454
 20
120.344237574219
 30
0.0
 11
190.360976801333
 21
120.697791323444
 31
0.0
  0
LINE
  5
   1B6
  8
0
  6
CONTINUOUS
 62
     7
 10
188.610984257346
 20
116.697804873338
 30
0.0
 11
188.61099188674
 21
120.197804873618
 31
0.0
  0
LINE
  5
   1B7
  8
0
  6
CONTINUOUS
 62
     7
 10
189.860977172852
 20
120.197805415883
 30
0.0
 11
188.610992431641
 21
120.197805415883
 31
0.0
  0
LINE
  5
   1B8
  8
0
  6
CONTINUOUS
 62
     7
 10
188.610984802246
 20
97.0728054158828
 30
0.0
 11
188.610984802246
 21
116.697805415883
 31
0.0
  0
LINE
  5
   1B9
  8
0
  6
CONTINUOUS
 62
     7
 10
186.360992431641
 20
71.6978054158828
 30
0.0
 11
186.360992431641
 21
91.9478054158828
 31
0.0
  0
LINE
  5
   1BA
  8
0
  6
CONTINUOUS
 62
     7
 10
186.361007412745
 20
91.9478329544552
 30
0.0
 11
186.494979570009
 21
92.4478329407614
 31
0.0
  0
LINE
  5
   1BB
  8
0
  6
CONTINUOUS
 62
     7
 10
186.494996603756
 20
92.4478519682987
 30
0.0
 11
186.861016787763
 21
92.8138797731201
 31
0.0
  0
LINE
  5
   1BC
  8
0
  6
CONTINUOUS
 62
     7
 10
186.86096503914
 20
92.8138202331338
 30
0.0
 11
187.36097264172
 21
92.9477923903392
 31
0.0
  0
LINE
  5
   1BD
  8
0
  6
CONTINUOUS
 62
     7
 10
190.360992431641
 20
71.6978054158828
 30
0.0
 11
186.360992431641
 21
71.6978054158828
 31
0.0
  0
LINE
  5
   1BE
  8
0
  6
CONTINUOUS
 62
     7
 10
190.360971088068
 20
64.1977990399019
 30
0.0
 11
189.860932961557
 21
64.6977990220585
 31
0.0
  0
LINE
  5
   1BF
  8
0
  6
CONTINUOUS
 62
     7
 10
189.860944722414
 20
70.1978107190024
 30
0.0
 11
190.360990477824
 21
70.6978107008483
 31
0.0
  0
LINE
  5
   1C0
  8
0
  6
CONTINUOUS
 62
     7
 10
189.860938417862
 20
70.1977906432966
 30
0.0
 11
158.477034914444
 21
70.1977906432966
 31
0.0
  0
LINE
  5
   1C1
  8
0
  6
CONTINUOUS
 62
     7
 10
189.860945701599
 20
64.6978054158828
 30
0.0
 11
158.477011680603
 21
64.6978054158828
 31
0.0
  0
LINE
  5
   1C2
  8
0
  6
CONTINUOUS
 62
     7
 10
158.477032679883
 20
70.1977834649577
 30
0.0
 11
156.610990171579
 21
70.6977910935391
 31
0.0
  0
LINE
  5
   1C3
  8
0
  6
CONTINUOUS
 62
     7
 10
156.61100634332
 20
70.6977857022296
 30
0.0
 11
154.860990149506
 21
71.1667034943577
 31
0.0
  0
LINE
  5
   1C4
  8
0
  6
CONTINUOUS
 62
     7
 10
154.360992987319
 20
63.5949233525488
 30
0.0
 11
158.477012689312
 21
64.6978057208189
 31
0.0
  0
LINE
  5
   1C5
  8
0
  6
CONTINUOUS
 62
     7
 10
154.360998932143
 20
72.3449572129598
 30
0.0
 11
154.860997474972
 21
72.4789293702285
 31
0.0
  0
LINE
  5
   1C6
  8
0
  6
CONTINUOUS
 62
     7
 10
156.360991954803
 20
60.4477977864882
 30
0.0
 11
154.360992431641
 21
60.4477977864882
 31
0.0
  0
LINE
  5
   1C7
  8
0
  6
CONTINUOUS
 62
     7
 10
156.360991954803
 20
49.6978130452773
 30
0.0
 11
156.360991954803
 21
60.4477977864882
 31
0.0
  0
LINE
  5
   1C8
  8
0
  6
CONTINUOUS
 62
     7
 10
154.860992431641
 20
63.7288875692031
 30
0.0
 11
154.860992431641
 21
85.9477977864883
 31
0.0
  0
LINE
  5
   1C9
  8
0
  6
CONTINUOUS
 62
     7
 10
156.610992431641
 20
70.6978054158828
 30
0.0
 11
156.610992431641
 21
83.1978054158828
 31
0.0
  0
LINE
  5
   1CA
  8
0
  6
CONTINUOUS
 62
     7
 10
155.860991477966
 20
85.9477977864883
 30
0.0
 11
154.360991954803
 21
85.9477977864883
 31
0.0
  0
LINE
  5
   1CB
  8
0
  6
CONTINUOUS
 62
     7
 10
156.235997562608
 20
85.8473137119822
 30
0.0
 11
155.860996629111
 21
85.9477928299254
 31
0.0
  0
LINE
  5
   1CC
  8
0
  6
CONTINUOUS
 62
     7
 10
156.235997562608
 20
85.8473137119822
 30
0.0
 11
155.860996629111
 21
85.9477928299254
 31
0.0
  0
LINE
  5
   1CD
  8
0
  6
CONTINUOUS
 62
     7
 10
156.510513010398
 20
85.5727903272562
 30
0.0
 11
156.235994048555
 21
85.8473111866039
 31
0.0
  0
LINE
  5
   1CE
  8
0
  6
CONTINUOUS
 62
     7
 10
156.610984935555
 20
85.1977837298233
 30
0.0
 11
156.510504382916
 21
85.5727837286319
 31
0.0
  0
LINE
  5
   1CF
  8
0
  6
CONTINUOUS
 62
     7
 10
156.611001491547
 20
83.1977985613537
 30
0.0
 11
156.611001491547
 21
85.1977909319592
 31
0.0
  0
LINE
  5
   1D0
  8
0
  6
CONTINUOUS
 62
     7
 10
156.510515327817
 20
82.8227946127837
 30
0.0
 11
156.558126557347
 21
83.0004832087262
 31
0.0
  0
LINE
  5
   1D1
  8
0
  6
CONTINUOUS
 62
     7
 10
156.558125640187
 20
83.0004783657844
 30
0.0
 11
156.610994958849
 21
83.1977973932871
 31
0.0
  0
LINE
  5
   1D2
  8
0
  6
CONTINUOUS
 62
     7
 10
156.23599227715
 20
82.5482589064805
 30
0.0
 11
156.510511702203
 21
82.8227797662334
 31
0.0
  0
LINE
  5
   1D3
  8
0
  6
CONTINUOUS
 62
     7
 10
155.86098600551
 20
82.447787397868
 30
0.0
 11
156.235986000332
 21
82.5482665081021
 31
0.0
  0
LINE
  5
   1D4
  8
0
  6
CONTINUOUS
 62
     7
 10
155.860991954803
 20
82.4477977864882
 30
0.0
 11
154.860992431641
 21
82.4477977864882
 31
0.0
  0
LINE
  5
   1D5
  8
0
  6
CONTINUOUS
 62
     7
 10
154.360992431641
 20
48.6977982633254
 30
0.0
 11
153.360992431641
 21
48.6977982633254
 31
0.0
  0
LINE
  5
   1D6
  8
0
  6
CONTINUOUS
 62
     7
 10
154.360992431641
 20
123.197790157094
 30
0.0
 11
153.360992431641
 21
123.197790157094
 31
0.0
  0
LINE
  5
   1D7
  8
0
  6
CONTINUOUS
 62
     7
 10
154.360992431641
 20
118.263616573109
 30
0.0
 11
153.360992431641
 21
118.263616573109
 31
0.0
  0
LINE
  5
   1D8
  8
0
  6
CONTINUOUS
 62
     7
 10
158.010499104794
 20
64.5727997482764
 30
0.0
 11
156.610980667009
 21
64.9477997192574
 31
0.0
  0
LINE
  5
   1D9
  8
0
  6
CONTINUOUS
 62
     7
 10
156.61097574234
 20
64.9478044860552
 30
0.0
 11
156.61097574234
 21
69.9478044860552
 31
0.0
  0
LINE
  5
   1DA
  8
0
  6
CONTINUOUS
 62
     7
 10
156.610975888607
 20
69.947797798929
 30
0.0
 11
158.010506244146
 21
70.3227977955803
 31
0.0
  0
LINE
  5
   1DB
  8
0
  6
CONTINUOUS
 62
     7
 10
154.360992431641
 20
53.5901088826797
 30
0.0
 11
153.360992431641
 21
53.5901088826797
 31
0.0
  0
LINE
  5
   1DC
  8
0
  6
CONTINUOUS
 62
     7
 10
154.360992431641
 20
53.6977977864882
 30
0.0
 11
153.360992431641
 21
53.6977977864882
 31
0.0
  0
LINE
  5
   1DD
  8
0
  6
CONTINUOUS
 62
     7
 10
156.510517021528
 20
82.5581484839682
 30
0.0
 11
156.610997091058
 21
83.0004855053546
 31
0.0
  0
LINE
  5
   1DE
  8
0
  6
CONTINUOUS
 62
     7
 10
156.610991477966
 20
83.0004863851211
 30
0.0
 11
156.558122634888
 21
83.0004863851211
 31
0.0
  0
LINE
  5
   1DF
  8
0
  6
CONTINUOUS
 62
     7
 10
156.544004043528
 20
75.9477926339479
 30
0.0
 11
156.610990122632
 21
75.9975210255278
 31
0.0
  0
LINE
  5
   1E0
  8
0
  6
CONTINUOUS
 62
     7
 10
156.54400849766
 20
75.9477750771481
 30
0.0
 11
156.510514027591
 21
75.9726392720451
 31
0.0
  0
LINE
  5
   1E1
  8
0
  6
CONTINUOUS
 62
     7
 10
156.610991954803
 20
80.9478054158828
 30
0.0
 11
156.510511398315
 21
80.9478054158828
 31
0.0
  0
LINE
  5
   1E2
  8
0
  6
CONTINUOUS
 62
     7
 10
156.510508664871
 20
77.9229121005717
 30
0.0
 11
156.54400313494
 21
77.9477762954687
 31
0.0
  0
LINE
  5
   1E3
  8
0
  6
CONTINUOUS
 62
     7
 10
156.610994054589
 20
77.8980607602845
 30
0.0
 11
156.544007975485
 21
77.9477891518644
 31
0.0
  0
LINE
  5
   1E4
  8
0
  6
CONTINUOUS
 62
     7
 10
156.565095439621
 20
81.8088414818021
 30
0.0
 11
156.51050857009
 21
82.1137273425732
 31
0.0
  0
LINE
  5
   1E5
  8
0
  6
CONTINUOUS
 62
     7
 10
156.610991554664
 20
80.9478068405427
 30
0.0
 11
156.565097886571
 21
81.8088450157128
 31
0.0
  0
LINE
  5
   1E6
  8
0
  6
CONTINUOUS
 62
     7
 10
156.510509223229
 20
75.9726540294112
 30
0.0
 11
156.252829289736
 21
76.0239082962656
 31
0.0
  0
LINE
  5
   1E7
  8
0
  6
CONTINUOUS
 62
     7
 10
156.25283067282
 20
76.0239113143318
 30
0.0
 11
156.235991168684
 21
76.0351646705224
 31
0.0
  0
LINE
  5
   1E8
  8
0
  6
CONTINUOUS
 62
     7
 10
156.235983757125
 20
77.8604182894291
 30
0.0
 11
156.252824214356
 21
77.8716716458519
 31
0.0
  0
LINE
  5
   1E9
  8
0
  6
CONTINUOUS
 62
     7
 10
156.252827511482
 20
77.871669249929
 30
0.0
 11
156.510506491875
 21
77.9229235088071
 31
0.0
  0
LINE
  5
   1EA
  8
0
  6
CONTINUOUS
 62
     7
 10
156.510511398315
 20
80.9478054158828
 30
0.0
 11
156.235991954803
 21
80.9478054158828
 31
0.0
  0
LINE
  5
   1EB
  8
0
  6
CONTINUOUS
 62
     7
 10
156.235989711735
 20
76.0351577739161
 30
0.0
 11
155.860989720438
 21
76.1022964303219
 31
0.0
  0
LINE
  5
   1EC
  8
0
  6
CONTINUOUS
 62
     7
 10
155.860989140149
 20
77.793281254099
 30
0.0
 11
156.235989131446
 21
77.8604199105047
 31
0.0
  0
LINE
  5
   1ED
  8
0
  6
CONTINUOUS
 62
     7
 10
156.235991954803
 20
80.9478054158828
 30
0.0
 11
155.860991954803
 21
80.9478054158828
 31
0.0
  0
LINE
  5
   1EE
  8
0
  6
CONTINUOUS
 62
     7
 10
155.860991954803
 20
77.7932872884414
 30
0.0
 11
154.860992431641
 21
77.7932872884414
 31
0.0
  0
LINE
  5
   1EF
  8
0
  6
CONTINUOUS
 62
     7
 10
155.860991954803
 20
80.9478054158828
 30
0.0
 11
154.860992431641
 21
80.9478054158828
 31
0.0
  0
LINE
  5
   1F0
  8
0
  6
CONTINUOUS
 62
     7
 10
155.860991954803
 20
76.1023082845351
 30
0.0
 11
154.860992431641
 21
76.1023082845351
 31
0.0
  0
LINE
  5
   1F1
  8
0
  6
CONTINUOUS
 62
     3
 10
201.460990906358
 20
127.047811519398
 30
0.0
 11
187.129190637669
 21
127.047811519398
 31
0.0
  0
LINE
  5
   1F2
  8
0
  6
CONTINUOUS
 62
     3
 10
201.460990906358
 20
44.8478126638076
 30
0.0
 11
190.360992432237
 21
44.8478126638076
 31
0.0
  0
LINE
  5
   1F3
  8
0
  6
CONTINUOUS
 62
     3
 10
202.860992432237
 20
43.4478130452773
 30
0.0
 11
154.360992431641
 21
43.4478130452773
 31
0.0
  0
LINE
  5
   1F4
  8
0
  6
CONTINUOUS
 62
     3
 10
190.360992432237
 20
43.4478130452773
 30
0.0
 11
190.360992432237
 21
64.5728054158828
 31
0.0
  0
LINE
  5
   1F5
  8
0
  6
CONTINUOUS
 62
     3
 10
190.360992432238
 20
70.3227977864882
 30
0.0
 11
190.360992432238
 21
71.6978359334609
 31
0.0
  0
LINE
  5
   1F6
  8
0
  6
CONTINUOUS
 62
     3
 10
190.360992431641
 20
120.697829058485
 30
0.0
 11
190.360992431641
 21
128.447805415883
 31
0.0
  0
LINE
  5
   1F7
  8
0
  6
CONTINUOUS
 62
     3
 10
205.110992432237
 20
92.4222393148086
 30
0.0
 11
205.110992432237
 21
97.1976451985976
 31
0.0
  0
LINE
  5
   1F8
  8
0
  6
CONTINUOUS
 62
     3
 10
205.110988255977
 20
63.6976571953528
 30
0.0
 11
205.110965367794
 21
66.9730168260058
 31
0.0
  0
LINE
  5
   1F9
  8
0
  6
CONTINUOUS
 62
     3
 10
202.860992432237
 20
120.322813045277
 30
0.0
 11
201.460990906358
 21
120.322813045277
 31
0.0
  0
LINE
  5
   1FA
  8
0
  6
CONTINUOUS
 62
     3
 10
202.860992432237
 20
43.4478130452773
 30
0.0
 11
202.860992432237
 21
55.8228139308319
 31
0.0
  0
LINE
  5
   1FB
  8
0
  6
CONTINUOUS
 62
     3
 10
202.860992432237
 20
51.5728130452773
 30
0.0
 11
201.460990906358
 21
51.5728130452773
 31
0.0
  0
LINE
  5
   1FC
  8
0
  6
CONTINUOUS
 62
     3
 10
201.460990906358
 20
44.8478145711562
 30
0.0
 11
201.460990906358
 21
55.8228143123021
 31
0.0
  0
LINE
  5
   1FD
  8
0
  6
CONTINUOUS
 62
     3
 10
201.460989376951
 20
70.3228054158828
 30
0.0
 11
190.36099090283
 21
70.3228054158828
 31
0.0
  0
LINE
  5
   1FE
  8
0
  6
CONTINUOUS
 62
     3
 10
201.460989722156
 20
64.5728054158828
 30
0.0
 11
190.360991248035
 21
64.5728054158828
 31
0.0
  0
LINE
  5
   1FF
  8
0
  6
CONTINUOUS
 62
     1
 10
202.860992432237
 20
55.8228135221145
 30
0.0
 11
202.610992432237
 21
55.8228135221145
 31
0.0
  0
LINE
  5
   200
  8
0
  6
CONTINUOUS
 62
     2
 10
204.1109919554
 20
55.8228271460371
 30
0.0
 11
201.460990906358
 21
55.8228271460371
 31
0.0
  0
LINE
  5
   201
  8
0
  6
CONTINUOUS
 62
     2
 10
205.111647622286
 20
58.5728054177103
 30
0.0
 11
205.111647622286
 21
111.07280541771
 31
0.0
  0
LINE
  5
   202
  8
0
  6
CONTINUOUS
 62
     2
 10
205.111647622286
 20
111.072805415883
 30
0.0
 11
204.1109919554
 21
111.072805415883
 31
0.0
  0
LINE
  5
   203
  8
0
  6
CONTINUOUS
 62
     2
 10
205.111647622286
 20
58.5728054170628
 30
0.0
 11
204.1109919554
 21
58.5728054170628
 31
0.0
  0
LINE
  5
   204
  8
0
  6
CONTINUOUS
 62
     7
 10
188.610988617068
 20
92.9477923903392
 30
0.0
 11
187.36097264172
 21
92.9477923903392
 31
0.0
  0
LINE
  5
   205
  8
0
  6
CONTINUOUS
 62
     2
 10
204.1109919554
 20
111.072805415883
 30
0.0
 11
204.1109919554
 21
116.297805310372
 31
0.0
  0
LINE
  5
   206
  8
0
  6
CONTINUOUS
 62
     2
 10
204.1109919554
 20
55.822813590234
 30
0.0
 11
204.1109919554
 21
58.5728054170628
 31
0.0
  0
LINE
  5
   207
  8
0
  6
CONTINUOUS
 62
     3
 10
201.460990906358
 20
116.322805415883
 30
0.0
 11
201.460990906358
 21
127.047811519398
 31
0.0
  0
LINE
  5
   208
  8
0
  6
CONTINUOUS
 62
     2
 10
201.460990906358
 20
55.8228143123021
 30
0.0
 11
201.460990906358
 21
116.297805310372
 31
0.0
  0
LINE
  5
   209
  8
0
  6
CONTINUOUS
 62
     7
 10
156.483100197244
 20
174.770252812033
 30
0.0
 11
148.074755043031
 21
175.916845333062
 31
0.0
  0
LINE
  5
   20A
  8
0
  6
CONTINUOUS
 62
     1
 10
263.360987663269
 20
57.3195877075195
 30
0.0
 11
263.360987663269
 21
58.5728206746719
 31
0.0
  0
LINE
  5
   20B
  8
0
  6
CONTINUOUS
 62
     1
 10
264.360987663269
 20
57.3195877075195
 30
0.0
 11
263.360987663269
 21
57.3195877075195
 31
0.0
  0
LINE
  5
   20C
  8
0
  6
CONTINUOUS
 62
     1
 10
263.360987663269
 20
111.072764909329
 30
0.0
 11
263.360987663269
 21
112.319585800171
 31
0.0
  0
LINE
  5
   20D
  8
0
  6
CONTINUOUS
 62
     1
 10
264.360987663269
 20
112.319585800171
 30
0.0
 11
263.360987663269
 21
112.319585800171
 31
0.0
  0
LINE
  5
   20E
  8
0
  6
CONTINUOUS
 62
     1
 10
261.110987752676
 20
119.10825920105
 30
0.0
 11
261.110987752676
 21
121.530912399292
 31
0.0
  0
LINE
  5
   20F
  8
0
  6
CONTINUOUS
 62
     1
 10
261.110987752676
 20
48.1082630157471
 30
0.0
 11
261.110987752676
 21
50.530912399292
 31
0.0
  0
LINE
  5
   210
  8
0
  6
CONTINUOUS
 62
     1
 10
264.360987663269
 20
44.5728197385117
 30
0.0
 11
264.360987663269
 21
57.3195877075195
 31
0.0
  0
LINE
  5
   211
  8
0
  6
CONTINUOUS
 62
     1
 10
266.110987663269
 20
44.5728197385117
 30
0.0
 11
266.110987663269
 21
58.8233160501192
 31
0.0
  0
LINE
  5
   212
  8
0
  6
CONTINUOUS
 62
     1
 10
264.360987663269
 20
118.819585800171
 30
0.0
 11
261.610987745826
 21
118.819585800171
 31
0.0
  0
LINE
  5
   213
  8
0
  6
CONTINUOUS
 62
     1
 10
264.360987663269
 20
121.819585800171
 30
0.0
 11
261.610987745826
 21
121.819585800171
 31
0.0
  0
LINE
  5
   214
  8
0
  6
CONTINUOUS
 62
     1
 10
261.610988143687
 20
118.81958465164
 30
0.0
 11
261.110988127224
 21
119.108258056138
 31
0.0
  0
LINE
  5
   215
  8
0
  6
CONTINUOUS
 62
     1
 10
261.610987745826
 20
118.819585800171
 30
0.0
 11
261.610987745826
 21
119.258924484253
 31
0.0
  0
LINE
  5
   216
  8
0
  6
CONTINUOUS
 62
     1
 10
261.610987745826
 20
119.258924484253
 30
0.0
 11
261.610987745826
 21
119.745565414429
 31
0.0
  0
LINE
  5
   217
  8
0
  6
CONTINUOUS
 62
     1
 10
261.610987745826
 20
119.745565414429
 30
0.0
 11
261.610987745826
 21
120.319585800171
 31
0.0
  0
LINE
  5
   218
  8
0
  6
CONTINUOUS
 62
     1
 10
261.610987745826
 20
120.319585800171
 30
0.0
 11
261.610987745826
 21
120.893613815308
 31
0.0
  0
LINE
  5
   219
  8
0
  6
CONTINUOUS
 62
     1
 10
261.610987745826
 20
120.893613815308
 30
0.0
 11
261.610987745826
 21
121.819585800171
 31
0.0
  0
LINE
  5
   21A
  8
0
  6
CONTINUOUS
 62
     1
 10
261.610987745826
 20
121.380247116089
 30
0.0
 11
261.610987745826
 21
121.705404281616
 31
0.0
  0
LINE
  5
   21B
  8
0
  6
CONTINUOUS
 62
     1
 10
261.360987745826
 20
121.705404281616
 30
0.0
 11
261.360987745826
 21
121.819585800171
 31
0.0
  0
LINE
  5
   21C
  8
0
  6
CONTINUOUS
 62
     1
 10
261.110987318087
 20
121.530911208423
 30
0.0
 11
261.610987334551
 21
121.819584612921
 31
0.0
  0
LINE
  5
   21D
  8
0
  6
CONTINUOUS
 62
     1
 10
264.360987663269
 20
50.8195877075195
 30
0.0
 11
261.610987762471
 21
50.8195877075195
 31
0.0
  0
LINE
  5
   21E
  8
0
  6
CONTINUOUS
 62
     1
 10
264.360987663269
 20
47.8195877075195
 30
0.0
 11
261.610987762483
 21
47.8195877075195
 31
0.0
  0
LINE
  5
   21F
  8
0
  6
CONTINUOUS
 62
     1
 10
261.110987491601
 20
50.5309116991661
 30
0.0
 11
261.610987508066
 21
50.8195869914227
 31
0.0
  0
LINE
  5
   220
  8
0
  6
CONTINUOUS
 62
     1
 10
261.610987762471
 20
50.3802471160889
 30
0.0
 11
261.610987762471
 21
50.8195877075195
 31
0.0
  0
LINE
  5
   221
  8
0
  6
CONTINUOUS
 62
     1
 10
261.610987762485
 20
49.8936138153076
 30
0.0
 11
261.610987762485
 21
50.3802471160889
 31
0.0
  0
LINE
  5
   222
  8
0
  6
CONTINUOUS
 62
     1
 10
261.610987762451
 20
49.3195877075195
 30
0.0
 11
261.610987762451
 21
49.8936138153076
 31
0.0
  0
LINE
  5
   223
  8
0
  6
CONTINUOUS
 62
     1
 10
261.610987762512
 20
48.7455635070801
 30
0.0
 11
261.610987762512
 21
49.3195877075195
 31
0.0
  0
LINE
  5
   224
  8
0
  6
CONTINUOUS
 62
     1
 10
261.610987762485
 20
48.2589282989502
 30
0.0
 11
261.610987762485
 21
48.7455635070801
 31
0.0
  0
LINE
  5
   225
  8
0
  6
CONTINUOUS
 62
     1
 10
261.610987762472
 20
47.9337692260742
 30
0.0
 11
261.610987762472
 21
48.2589282989502
 31
0.0
  0
LINE
  5
   226
  8
0
  6
CONTINUOUS
 62
     1
 10
261.610987969646
 20
47.81958709377
 30
0.0
 11
261.110987953181
 21
48.1082623860265
 31
0.0
  0
LINE
  5
   227
  8
0
  6
CONTINUOUS
 62
     1
 10
261.610987762483
 20
47.8195877075195
 30
0.0
 11
261.610987762483
 21
47.9337692260742
 31
0.0
  0
LINE
  5
   228
  8
0
  6
CONTINUOUS
 62
     7
 10
264.360987663269
 20
125.072817831163
 30
0.0
 11
264.360987663269
 21
174.205160511568
 31
0.0
  0
LINE
  5
   229
  8
0
  6
CONTINUOUS
 62
     7
 10
263.360987663269
 20
112.319585800171
 30
0.0
 11
263.360987663269
 21
118.819585800171
 31
0.0
  0
LINE
  5
   22A
  8
0
  6
CONTINUOUS
 62
     7
 10
264.360987663269
 20
24.5901154806956
 30
0.0
 11
264.360987663269
 21
44.5728197385117
 31
0.0
  0
LINE
  5
   22B
  8
0
  6
CONTINUOUS
 62
     7
 10
263.360987663269
 20
25.1892212929162
 30
0.0
 11
263.360987663269
 21
47.8195877075195
 31
0.0
  0
LINE
  5
   22C
  8
0
  6
CONTINUOUS
 62
     7
 10
264.360987663269
 20
122.069585800171
 30
0.0
 11
263.360987663269
 21
122.069585800171
 31
0.0
  0
LINE
  5
   22D
  8
0
  6
CONTINUOUS
 62
     7
 10
264.360987663269
 20
118.569585800171
 30
0.0
 11
263.360987663269
 21
118.569585800171
 31
0.0
  0
LINE
  5
   22E
  8
0
  6
CONTINUOUS
 62
     7
 10
264.360987663269
 20
112.819585800171
 30
0.0
 11
263.360987663269
 21
112.819585800171
 31
0.0
  0
LINE
  5
   22F
  8
0
  6
CONTINUOUS
 62
     7
 10
264.360987663269
 20
56.8195877075195
 30
0.0
 11
263.360987663269
 21
56.8195877075195
 31
0.0
  0
LINE
  5
   230
  8
0
  6
CONTINUOUS
 62
     7
 10
264.360987663269
 20
51.0695877075195
 30
0.0
 11
263.360987663269
 21
51.0695877075195
 31
0.0
  0
LINE
  5
   231
  8
0
  6
CONTINUOUS
 62
     7
 10
264.360987663269
 20
47.5695877075195
 30
0.0
 11
263.360987663269
 21
47.5695877075195
 31
0.0
  0
LINE
  5
   232
  8
0
  6
CONTINUOUS
 62
     7
 10
263.360987663269
 20
50.8195877075195
 30
0.0
 11
263.360987663269
 21
57.3195877075195
 31
0.0
  0
LINE
  5
   233
  8
0
  6
CONTINUOUS
 62
     7
 10
263.360987663269
 20
121.819585800171
 30
0.0
 11
263.360987663269
 21
174.305424363811
 31
0.0
  0
LINE
  5
   234
  8
0
  6
CONTINUOUS
 62
     3
 10
267.084637364068
 20
22.9583611144943
 30
0.0
 11
260.868598587064
 21
26.6824260747856
 31
0.0
  0
INSERT
  5
   235
  8
0
  6
CONTINUOUS
 62
     7
  2
*HATCH104
 10
204.860961914063
 20
29.8292751312256
 30
0.0
 41
0.5
 42
0.5
 50
89.9999999480344
 43
0.5
  0
INSERT
  5
   236
  8
0
  6
CONTINUOUS
 62
     7
  2
*HATCH105
 10
204.860961914063
 20
29.8292751312256
 30
0.0
 41
0.5
 42
0.5
 50
89.9999999480344
 43
0.5
  0
INSERT
  5
   237
  8
0
  6
CONTINUOUS
 62
     7
  2
*HATCH106
 10
204.860961914063
 20
29.8292751312256
 30
0.0
 41
0.5
 42
0.5
 50
89.9999999480344
 43
0.5
  0
LINE
  5
   238
  8
0
  6
DASHDOT
 62
     5
 10
272.074186198491
 20
84.8228054158828
 30
0.0
 11
143.533225432546
 21
84.8228054158828
 31
0.0
  0
LINE
  5
   239
  8
0
  6
DASHDOT
 62
   218
 10
157.183345800604
 20
163.197805415883
 30
0.0
 11
144.858796242384
 21
163.197805415883
 31
0.0
  0
LINE
  5
   23A
  8
0
  6
CONTINUOUS
 62
     7
 10
151.860992431641
 20
165.197805415883
 30
0.0
 11
149.860992431641
 21
165.197805415883
 31
0.0
  0
LINE
  5
   23B
  8
0
  6
CONTINUOUS
 62
     7
 10
151.860992431641
 20
161.197805415883
 30
0.0
 11
149.860992431641
 21
161.197805415883
 31
0.0
  0
LINE
  5
   23C
  8
0
  6
CONTINUOUS
 62
     7
 10
149.860992431641
 20
161.197805415883
 30
0.0
 11
149.860992431641
 21
165.197805415883
 31
0.0
  0
LINE
  5
   23D
  8
0
  6
CONTINUOUS
 62
     7
 10
147.860992431641
 20
161.947805415883
 30
0.0
 11
147.860992431641
 21
164.447805415883
 31
0.0
  0
LINE
  5
   23E
  8
0
  6
CONTINUOUS
 62
     7
 10
151.860992431641
 20
164.447805415883
 30
0.0
 11
147.860992431641
 21
164.447805415883
 31
0.0
  0
LINE
  5
   23F
  8
0
  6
CONTINUOUS
 62
     7
 10
151.860992431641
 20
161.947805415883
 30
0.0
 11
147.860992431641
 21
161.947805415883
 31
0.0
  0
LINE
  5
   240
  8
0
  6
CONTINUOUS
 62
     7
 10
151.860992431641
 20
53.1978054158828
 30
0.0
 11
149.860992431641
 21
53.1978054158828
 31
0.0
  0
LINE
  5
   241
  8
0
  6
CONTINUOUS
 62
     7
 10
151.860992431641
 20
52.4478054158828
 30
0.0
 11
147.860992431641
 21
52.4478054158828
 31
0.0
  0
LINE
  5
   242
  8
0
  6
CONTINUOUS
 62
     7
 10
151.860992431641
 20
49.9478054158828
 30
0.0
 11
147.860992431641
 21
49.9478054158828
 31
0.0
  0
LINE
  5
   243
  8
0
  6
CONTINUOUS
 62
     7
 10
151.860992431641
 20
49.1978054158828
 30
0.0
 11
149.860992431641
 21
49.1978054158828
 31
0.0
  0
LINE
  5
   244
  8
0
  6
DASHDOT
 62
   218
 10
157.183345800604
 20
51.1978054158828
 30
0.0
 11
144.858796242384
 21
51.1978054158828
 31
0.0
  0
LINE
  5
   245
  8
0
  6
CONTINUOUS
 62
     7
 10
149.860992431641
 20
49.1978054158828
 30
0.0
 11
149.860992431641
 21
53.1978054158828
 31
0.0
  0
LINE
  5
   246
  8
0
  6
CONTINUOUS
 62
     7
 10
147.860992431641
 20
49.9478054158828
 30
0.0
 11
147.860992431641
 21
52.4478054158828
 31
0.0
  0
CIRCLE
  5
   247
  8
0
  6
CONTINUOUS
 62
     7
 10
150.6191835359
 20
162.431359933101
 30
0.0
 40
0.1
  0
LINE
  5
   248
  8
0
  6
CONTINUOUS
 62
     1
 10
266.110987663269
 20
125.072817831163
 30
0.0
 11
264.360987663269
 21
125.072817831163
 31
0.0
  0
LINE
  5
   249
  8
0
  6
CONTINUOUS
 62
     1
 10
266.110987663269
 20
44.5728197385117
 30
0.0
 11
264.360987663269
 21
44.5728197385117
 31
0.0
  0
LINE
  5
   24A
  8
0
  6
CONTINUOUS
 62
     2
 10
204.1109919554
 20
116.297805310372
 30
0.0
 11
203.610992431615
 21
116.297805310372
 31
0.0
  0
LINE
  5
   24B
  8
0
  6
CONTINUOUS
 62
     2
 10
201.610992431615
 20
116.297805310372
 30
0.0
 11
201.460990906358
 21
116.297805310372
 31
0.0
  0
LINE
  5
   24C
  8
0
  6
DASHDOT
 62
     7
 10
160.970744722531
 20
163.19868147004
 30
0.0
 11
149.284717119917
 21
163.19868147004
 31
0.0
  0
LINE
  5
   24D
  8
0
  6
CONTINUOUS
 62
   130
 10
190.360992431615
 20
169.397803784493
 30
0.0
 11
154.360992431615
 21
169.397803784493
 31
0.0
  0
LINE
  5
   24E
  8
0
  6
CONTINUOUS
 62
   130
 10
190.360992431615
 20
162.547805310372
 30
0.0
 11
190.360992431615
 21
170.947805415883
 31
0.0
  0
LINE
  5
   24F
  8
0
  6
CONTINUOUS
 62
   130
 10
190.360992431615
 20
127.197805415883
 30
0.0
 11
190.360992431615
 21
129.047935010079
 31
0.0
  0
LINE
  5
   250
  8
0
  6
CONTINUOUS
 62
   130
 10
154.360992431615
 20
127.197805415883
 30
0.0
 11
154.360992431615
 21
170.947805415883
 31
0.0
  0
LINE
  5
   251
  8
0
  6
CONTINUOUS
 62
   130
 10
156.360992431615
 20
153.797805310372
 30
0.0
 11
154.360992431615
 21
153.797805310372
 31
0.0
  0
LINE
  5
   252
  8
0
  6
CONTINUOUS
 62
   130
 10
156.360992431615
 20
153.797805310372
 30
0.0
 11
156.360992431615
 21
164.697805415883
 31
0.0
  0
LINE
  5
   253
  8
0
  6
CONTINUOUS
 62
   130
 10
188.660991668675
 20
159.047805310372
 30
0.0
 11
188.610992431615
 21
159.047805310372
 31
0.0
  0
LINE
  5
   254
  8
0
  6
CONTINUOUS
 62
   130
 10
190.360992431615
 20
162.547805310372
 30
0.0
 11
188.610992431615
 21
162.547805310372
 31
0.0
  0
LINE
  5
   255
  8
0
  6
CONTINUOUS
 62
   130
 10
190.360992431615
 20
129.047851086739
 30
0.0
 11
188.610992431615
 21
129.047851086739
 31
0.0
  0
LINE
  5
   256
  8
0
  6
CONTINUOUS
 62
   130
 10
188.660991668675
 20
132.547851086739
 30
0.0
 11
188.610992431615
 21
132.547851086739
 31
0.0
  0
LINE
  5
   257
  8
0
  6
CONTINUOUS
 62
   130
 10
188.610992431615
 20
129.047851086739
 30
0.0
 11
188.610992431615
 21
162.547805310372
 31
0.0
  0
LINE
  5
   258
  8
0
  6
CONTINUOUS
 62
   130
 10
153.360992431641
 20
160.979557629708
 30
0.0
 11
153.360992431641
 21
165.417805310372
 31
0.0
  0
LINE
  5
   259
  8
0
  6
CONTINUOUS
 62
   210
 10
201.460990905736
 20
169.397803784493
 30
0.0
 11
190.360992431615
 21
169.397803784493
 31
0.0
  0
LINE
  5
   25A
  8
0
  6
CONTINUOUS
 62
   210
 10
190.360992431615
 20
129.047851086739
 30
0.0
 11
190.360992431615
 21
129.172805310372
 31
0.0
  0
LINE
  5
   25B
  8
0
  6
CONTINUOUS
 62
   210
 10
190.360992431615
 20
162.422805310372
 30
0.0
 11
190.360992431615
 21
162.547805310372
 31
0.0
  0
LINE
  5
   25C
  8
0
  6
CONTINUOUS
 62
   210
 10
202.860992431615
 20
158.697805310372
 30
0.0
 11
202.860992431615
 21
170.947805415883
 31
0.0
  0
LINE
  5
   25D
  8
0
  6
CONTINUOUS
 62
   210
 10
202.860992431615
 20
162.672805310372
 30
0.0
 11
201.460990905736
 21
162.672805310372
 31
0.0
  0
LINE
  5
   25E
  8
0
  6
CONTINUOUS
 62
   210
 10
201.610992431615
 20
132.672805310372
 30
0.0
 11
201.460990905736
 21
132.672805310372
 31
0.0
  0
LINE
  5
   25F
  8
0
  6
CONTINUOUS
 62
   210
 10
201.610992431615
 20
128.922805310372
 30
0.0
 11
201.460990905736
 21
128.922805310372
 31
0.0
  0
LINE
  5
   260
  8
0
  6
CONTINUOUS
 62
   210
 10
201.610992431615
 20
128.297805310372
 30
0.0
 11
201.460990905736
 21
128.297805310372
 31
0.0
  0
LINE
  5
   261
  8
0
  6
CONTINUOUS
 62
   210
 10
201.460990905736
 20
128.447805415883
 30
0.0
 11
201.460990905736
 21
169.397803784493
 31
0.0
  0
LINE
  5
   262
  8
0
  6
CONTINUOUS
 62
   210
 10
190.360992431615
 20
129.172805310372
 30
0.0
 11
188.910991668675
 21
129.172805310372
 31
0.0
  0
LINE
  5
   263
  8
0
  6
CONTINUOUS
 62
   210
 10
188.910992559652
 20
129.172807480633
 30
0.0
 11
188.734215670264
 21
129.246034409724
 31
0.0
  0
LINE
  5
   264
  8
0
  6
CONTINUOUS
 62
   210
 10
188.734214272496
 20
129.246024748815
 30
0.0
 11
188.660991158374
 21
129.422797815615
 31
0.0
  0
LINE
  5
   265
  8
0
  6
CONTINUOUS
 62
   210
 10
188.660991668675
 20
129.422805310372
 30
0.0
 11
188.660991668675
 21
132.172805310372
 31
0.0
  0
LINE
  5
   266
  8
0
  6
CONTINUOUS
 62
   210
 10
188.660991668675
 20
159.422805310372
 30
0.0
 11
188.660991668675
 21
162.172805310372
 31
0.0
  0
LINE
  5
   267
  8
0
  6
CONTINUOUS
 62
   210
 10
188.660987459391
 20
162.172793439134
 30
0.0
 11
188.734210573512
 21
162.349566505933
 31
0.0
  0
LINE
  5
   268
  8
0
  6
CONTINUOUS
 62
   210
 10
188.73421749906
 20
162.349582141006
 30
0.0
 11
188.910994388448
 21
162.422809070096
 31
0.0
  0
LINE
  5
   269
  8
0
  6
CONTINUOUS
 62
   210
 10
190.360992431615
 20
162.422805310372
 30
0.0
 11
188.910991668675
 21
162.422805310372
 31
0.0
  0
LINE
  5
   26A
  8
0
  6
CONTINUOUS
 62
   210
 10
188.660991668675
 20
132.172805310372
 30
0.0
 11
188.660991668675
 21
159.422805310372
 31
0.0
  0
LINE
  5
   26B
  8
0
  6
CONTINUOUS
 62
     2
 10
201.610992431615
 20
116.447805310372
 30
0.0
 11
201.610992431615
 21
158.697805310372
 31
0.0
  0
LINE
  5
   26C
  8
0
  6
CONTINUOUS
 62
     2
 10
204.110992431615
 20
116.947805310372
 30
0.0
 11
204.110992431615
 21
151.947805310372
 31
0.0
  0
LINE
  5
   26D
  8
0
  6
CONTINUOUS
 62
     2
 10
204.110992431615
 20
152.447805310372
 30
0.0
 11
204.110992431615
 21
158.697805310372
 31
0.0
  0
LINE
  5
   26E
  8
0
  6
CONTINUOUS
 62
     2
 10
202.860992431615
 20
158.697805310372
 30
0.0
 11
201.610992431615
 21
158.697805310372
 31
0.0
  0
LINE
  5
   26F
  8
0
  6
CONTINUOUS
 62
     2
 10
203.610992431615
 20
116.297805310372
 30
0.0
 11
201.610992431615
 21
116.297805310372
 31
0.0
  0
LINE
  5
   270
  8
0
  6
CONTINUOUS
 62
     2
 10
204.110992431615
 20
152.447805310372
 30
0.0
 11
203.610992431615
 21
152.447805310372
 31
0.0
  0
LINE
  5
   271
  8
0
  6
CONTINUOUS
 62
     2
 10
204.110992431615
 20
151.947805310372
 30
0.0
 11
203.610992431615
 21
151.947805310372
 31
0.0
  0
LINE
  5
   272
  8
0
  6
CONTINUOUS
 62
     2
 10
203.610992431615
 20
151.947805310372
 30
0.0
 11
203.610992431615
 21
152.447805310372
 31
0.0
  0
LINE
  5
   273
  8
0
  6
CONTINUOUS
 62
     2
 10
203.610992431615
 20
116.447805310372
 30
0.0
 11
203.610992431615
 21
116.947805310372
 31
0.0
  0
LINE
  5
   274
  8
0
  6
CONTINUOUS
 62
     2
 10
203.610992431615
 20
116.947805310372
 30
0.0
 11
201.860992431615
 21
116.947805310372
 31
0.0
  0
LINE
  5
   275
  8
0
  6
CONTINUOUS
 62
     2
 10
201.860992431615
 20
116.947805310372
 30
0.0
 11
201.860992431615
 21
158.697805310372
 31
0.0
  0
LINE
  5
   276
  8
0
  6
CONTINUOUS
 62
   130
 10
154.360992431615
 20
165.417805310372
 30
0.0
 11
153.360992431641
 21
165.417805310372
 31
0.0
  0
LINE
  5
   277
  8
0
  6
CONTINUOUS
 62
   130
 10
154.360992431615
 20
160.979557629708
 30
0.0
 11
153.360992431615
 21
160.979557629708
 31
0.0
  0
LINE
  5
   278
  8
0
  6
CONTINUOUS
 62
   210
 10
202.860992431615
 20
158.922805310372
 30
0.0
 11
201.460990905736
 21
158.922805310372
 31
0.0
  0
LINE
  5
   279
  8
0
  6
CONTINUOUS
 62
   210
 10
201.610987507306
 20
134.106824526945
 30
0.0
 11
201.460989794585
 21
134.172803532036
 31
0.0
  0
LINE
  5
   27A
  8
0
  6
CONTINUOUS
 62
   210
 10
201.460992963569
 20
157.422807681929
 30
0.0
 11
201.610994493151
 21
157.488786684446
 31
0.0
  0
LINE
  5
   27B
  8
0
  6
CONTINUOUS
 62
     2
 10
204.110992431615
 20
116.947805310372
 30
0.0
 11
203.610992431615
 21
116.947805310372
 31
0.0
  0
LINE
  5
   27C
  8
0
  6
CONTINUOUS
 62
     2
 10
204.110992431615
 20
158.697805310372
 30
0.0
 11
202.860992431615
 21
158.697805310372
 31
0.0
  0
LINE
  5
   27D
  8
0
  6
CONTINUOUS
 62
   130
 10
190.360992431615
 20
170.947805415883
 30
0.0
 11
154.360992431615
 21
170.947805415883
 31
0.0
  0
LINE
  5
   27E
  8
0
  6
CONTINUOUS
 62
   210
 10
202.860992431615
 20
170.947805415883
 30
0.0
 11
190.360992431615
 21
170.947805415883
 31
0.0
  0
LINE
  5
   27F
  8
0
  6
CONTINUOUS
 62
   130
 10
201.610992431615
 20
127.197805415883
 30
0.0
 11
154.360992431615
 21
127.197805415883
 31
0.0
  0
POINT
  5
   280
  8
0
  6
CONTINUOUS
 62
     7
 10
154.360992431615
 20
128.447805415883
 30
0.0
  0
LINE
  5
   281
  8
0
  6
CONTINUOUS
 62
     7
 10
153.360992431641
 20
118.263616573109
 30
0.0
 11
153.360992431641
 21
123.197790157094
 31
0.0
  0
LINE
  5
   282
  8
0
  6
CONTINUOUS
 62
     2
 10
203.610992431615
 20
116.447805310372
 30
0.0
 11
201.610992431615
 21
116.447805310372
 31
0.0
  0
LINE
  5
   283
  8
0
  6
CONTINUOUS
 62
     2
 10
202.860992431615
 20
116.297805310372
 30
0.0
 11
202.860992431615
 21
116.447805310372
 31
0.0
  0
LINE
  5
   284
  8
0
  6
CONTINUOUS
 62
   130
 10
156.360992431615
 20
164.697805415883
 30
0.0
 11
154.360992431615
 21
164.697805415883
 31
0.0
  0
LINE
  5
   285
  8
0
  6
CONTINUOUS
 62
     7
 10
156.360991954803
 20
49.6978130452773
 30
0.0
 11
154.360992431641
 21
49.6978130452773
 31
0.0
  0
LINE
  5
   286
  8
0
  6
CONTINUOUS
 62
     1
 10
266.110987663269
 20
111.322805415883
 30
0.0
 11
263.360987663269
 21
111.322805415883
 31
0.0
  0
LINE
  5
   287
  8
0
  6
CONTINUOUS
 62
     1
 10
266.110987663269
 20
58.3228054158828
 30
0.0
 11
263.360987663269
 21
58.3228054158828
 31
0.0
  0
LINE
  5
   288
  8
0
  6
CONTINUOUS
 62
     1
 10
264.360987663269
 20
112.319585800171
 30
0.0
 11
264.360987663269
 21
125.072817831163
 31
0.0
  0
INSERT
  5
   289
  8
0
  6
CONTINUOUS
 62
     7
  2
*HATCH107
 10
204.860961914063
 20
29.8292751312256
 30
0.0
 41
0.5
 42
0.5
 50
89.9999999480344
 43
0.5
  0
INSERT
  5
   28A
  8
0
  6
CONTINUOUS
 62
     7
  2
*HATCH108
 10
204.860961914063
 20
29.8292751312256
 30
0.0
 41
0.5
 42
0.5
 50
89.9999999480344
 43
0.5
  0
POINT
  5
   28B
  8
0
  6
CONTINUOUS
 62
     7
 10
205.111647622286
 20
84.8228054158828
 30
0.0
  0
LINE
  5
   28C
  8
0
  6
CONTINUOUS
 62
     1
 10
266.110987663269
 20
110.969040482545
 30
0.0
 11
266.110987663269
 21
125.072817831163
 31
0.0
  0
LINE
  5
   28D
  8
0
  6
CONTINUOUS
 62
     7
 10
267.64628373214
 20
173.875764071945
 30
0.0
 11
259.603333884187
 21
174.682181207096
 31
0.0
  0
INSERT
  5
   28E
  8
0
  6
CONTINUOUS
 62
     7
  2
*HATCH109
 10
204.860961914063
 20
29.8292751312256
 30
0.0
 41
0.5
 42
0.5
 50
89.9999999480344
 43
0.5
  0
INSERT
  5
   28F
  8
255
  6
CONTINUOUS
 62
     7
  2
COM_MOT_LT
 10
153.361655251681
 20
29.8292504232247
 30
0.0
 41
0.5
 42
0.5
 50
3.50835464724173E-15
 43
0.5
  0
INSERT
  5
   290
  8
0
  6
CONTINUOUS
 62
     7
  2
*UDIM605
 10
0.0
 20
0.0
 30
0.0
  0
INSERT
  5
   291
  8
0
  6
CONTINUOUS
 62
     7
  2
*UDIM606
 10
0.0
 20
0.0
 30
0.0
  0
INSERT
  5
   292
  8
0
  6
CONTINUOUS
 62
     7
  2
*UDIM607
 10
0.0
 20
0.0
 30
0.0
  0
INSERT
  5
   293
  8
0
  6
CONTINUOUS
 62
     7
  2
*UDIM608
 10
0.0
 20
0.0
 30
0.0
  0
TEXT
  5
   294
  8
0
  6
CONTINUOUS
 62
     7
 10
284.15182495885
 20
76.6656243352914
 30
0.0
 40
3.00000002980232
  1
=    =
 50
89.9999999480344
 41
0.916666689183977
 72
     1
 11
282.651824951172
 21
84.6406246125698
 31
0.0
 73
     2
  0
INSERT
  5
   295
  8
0
  6
CONTINUOUS
 62
     7
  2
*UDIM609
 10
0.0
 20
0.0
 30
0.0
  0
TEXT
  5
   296
  8
0
  6
CONTINUOUS
 62
     1
 10
138.296893200863
 20
-193.480722545033
 30
0.0
 40
2.00000008940697
  1
M4352 96-12-17
 50
359.999999948034
 41
0.749999861419206
 72
     2
 11
158.996890293646
 21
-193.480722563703
 31
0.0
  0
TEXT
  5
   297
  8
0
  6
CONTINUOUS
 62
     7
 10
284.951791446043
 20
83.9602276138379
 30
0.0
 40
3.00000002980232
  1
X
 50
359.999999948034
 41
0.916666604744064
 72
     2
 11
287.151791314913
 21
83.9602276118536
 31
0.0
  0
TEXT
  5
   298
  8
0
  6
CONTINUOUS
 62
     1
 10
130.442901654138
 20
-178.463387970272
 30
0.0
 40
2.00000008940697
  1
96-11-19 BARCELLA
 50
359.999999948034
 41
0.749999861419206
 72
     2
 11
155.642898116602
 21
-178.463387993001
 31
0.0
  0
TEXT
  5
   299
  8
0
  6
CONTINUOUS
 62
     1
 10
231.973709192064
 20
-204.689858749303
 30
0.0
 40
4.00000017881393
  1
605032/311
 50
359.999999948034
 41
0.937499973922969
 72
     2
 11
268.723709791836
 21
-204.689858782449
 31
0.0
  0
TEXT
  5
   29A
  8
0
  6
CONTINUOUS
 62
     1
 10
250.059402530035
 20
-195.708276361325
 30
0.0
 40
3.00000002980232
  1
S3X-S4X
 50
359.999999948034
 41
0.916666604744064
 72
     2
 11
268.75940144821
 21
-195.708276378191
 31
0.0
  0
TEXT
  5
   29B
  8
0
  6
CONTINUOUS
 62
     1
 10
220.024982885112
 20
-177.398004555521
 30
0.0
 40
2.00000008940697
  1
3-4POLE LOW VOLTAGE M.C.C.B SERIES ISOMAX
 50
359.999999948034
 41
0.749999861419206
 72
     1
 11
250.62497859597
 21
-176.398004538417
 31
0.0
 73
     2
  0
TEXT
  5
   29C
  8
0
  6
CONTINUOUS
 62
     1
 10
222.274982701087
 20
-180.39800455755
 30
0.0
 40
2.00000008940697
  1
FIXED VERSION WITH OPERATING MECHANISM
 50
359.999999948034
 41
0.749999861419206
 72
     1
 11
250.624978727104
 21
-179.398004538417
 31
0.0
 73
     2
  0
TEXT
  5
   29D
  8
0
  6
CONTINUOUS
 62
     1
 10
212.008622666289
 20
-185.468271274844
 30
0.0
 40
2.00000008940697
  1
INTERR.AUTOMATICO SERIE ISOMAX CON COMANDO MOTORE
 50
359.999999948034
 41
0.718749937042597
 72
     1
 11
247.083621153234
 21
-184.468271261777
 31
0.0
 73
     2
  0
TEXT
  5
   29E
  8
0
  6
CONTINUOUS
 62
     1
 10
225.664872211715
 20
-188.468271287162
 30
0.0
 40
2.00000008940697
  1
TRIP. TETRAP. ESECUZIONE FISSA
 50
359.999999948034
 41
0.718749937042597
 72
     1
 11
247.083621284368
 21
-187.468271261777
 31
0.0
 73
     2
  0
LINE
  5
   29F
  8
0
  6
CONTINUOUS
 62
     7
 10
65.0618996620178
 20
-62.6347029954195
 30
0.0
 11
98.6619009971619
 21
-62.6347029954195
 31
0.0
  0
LINE
  5
   2A0
  8
0
  6
CONTINUOUS
 62
     7
 10
65.0618996620178
 20
-29.0347016602755
 30
0.0
 11
98.6619009971619
 21
-29.0347016602755
 31
0.0
  0
LINE
  5
   2A1
  8
0
  6
CONTINUOUS
 62
     7
 10
65.0618996620178
 20
-29.0347016602755
 30
0.0
 11
65.0618996620178
 21
-62.6347029954195
 31
0.0
  0
LINE
  5
   2A2
  8
0
  6
CONTINUOUS
 62
     7
 10
98.6619009971619
 20
-29.0347016602755
 30
0.0
 11
98.6619009971619
 21
-62.6347029954195
 31
0.0
  0
LINE
  5
   2A3
  8
0
  6
DASHDOT
 62
     7
 10
81.8619003295898
 20
-17.2997979078047
 30
0.0
 11
81.8619003295898
 21
-74.2939322174316
 31
0.0
  0
CIRCLE
  5
   2A4
  8
0
  6
CONTINUOUS
 62
     7
 10
69.8618998527527
 20
-24.5347014814615
 30
0.0
 40
1.05000004172325
  0
CIRCLE
  5
   2A5
  8
0
  6
CONTINUOUS
 62
     7
 10
93.861900806427
 20
-24.5347014814615
 30
0.0
 40
1.05000004172325
  0
CIRCLE
  5
   2A6
  8
0
  6
CONTINUOUS
 62
     7
 10
93.861900806427
 20
-67.1347031742334
 30
0.0
 40
1.05000004172325
  0
CIRCLE
  5
   2A7
  8
0
  6
CONTINUOUS
 62
     7
 10
69.8618998527527
 20
-67.1347031742334
 30
0.0
 40
1.05000004172325
  0
LINE
  5
   2A8
  8
0
  6
CONTINUOUS
 62
     3
 10
60.3045046696786
 20
-21.7149410126648
 30
0.0
 11
106.845899119499
 21
-21.7149410126648
 31
0.0
  0
LINE
  5
   2A9
  8
0
  6
CONTINUOUS
 62
     3
 10
60.3045046696786
 20
-71.161280327192
 30
0.0
 11
106.845899119499
 21
-71.161280327192
 31
0.0
  0
LINE
  5
   2AA
  8
0
  6
CONTINUOUS
 62
     3
 10
60.3045046696786
 20
-21.7149410126648
 30
0.0
 11
60.3045046696786
 21
-71.161280327192
 31
0.0
  0
LINE
  5
   2AB
  8
0
  6
DASHDOT
 62
     7
 10
93.861900806427
 20
-22.5847014039755
 30
0.0
 11
93.861900806427
 21
-26.4847015589476
 31
0.0
  0
LINE
  5
   2AC
  8
0
  6
DASHDOT
 62
     7
 10
91.911900728941
 20
-24.5347014814615
 30
0.0
 11
95.811900883913
 21
-24.5347014814615
 31
0.0
  0
LINE
  5
   2AD
  8
0
  6
DASHDOT
 62
     7
 10
69.8618998527527
 20
-22.5847014039755
 30
0.0
 11
69.8618998527527
 21
-26.4847015589476
 31
0.0
  0
LINE
  5
   2AE
  8
0
  6
DASHDOT
 62
     7
 10
67.9118997752667
 20
-24.5347014814615
 30
0.0
 11
72.5532401315465
 21
-24.5347014814615
 31
0.0
  0
LINE
  5
   2AF
  8
0
  6
DASHDOT
 62
     7
 10
69.8618998527527
 20
-65.1847030967474
 30
0.0
 11
69.8618998527527
 21
-69.0847032517195
 31
0.0
  0
LINE
  5
   2B0
  8
0
  6
DASHDOT
 62
     7
 10
67.9118997752667
 20
-67.1347031742334
 30
0.0
 11
71.8118999302387
 21
-67.1347031742334
 31
0.0
  0
LINE
  5
   2B1
  8
0
  6
DASHDOT
 62
     7
 10
93.861900806427
 20
-65.1847030967474
 30
0.0
 11
93.861900806427
 21
-69.0847032517195
 31
0.0
  0
LINE
  5
   2B2
  8
0
  6
DASHDOT
 62
     7
 10
91.911900728941
 20
-67.1347031742334
 30
0.0
 11
95.811900883913
 21
-67.1347031742334
 31
0.0
  0
LINE
  5
   2B3
  8
0
  6
DASHDOT
 62
     7
 10
56.9471427767049
 20
-45.8347023278475
 30
0.0
 11
112.818432483605
 21
-45.8347023278475
 31
0.0
  0
LINE
  5
   2B4
  8
0
  6
CONTINUOUS
 62
     3
 10
106.845899119499
 20
-21.7149410126648
 30
0.0
 11
106.845899119499
 21
-71.161280327192
 31
0.0
  0
TEXT
  5
   2B5
  8
0
  6
CONTINUOUS
 62
     7
 10
76.7473128788806
 20
-85.6321651413681
 30
0.0
 40
2.99999994039535
  1
=   =
 50
359.999999844103
 41
0.916666655739148
 72
     2
 11
89.9473124854899
 21
-85.6321651772178
 31
0.0
  0
TEXT
  5
   2B6
  8
0
  6
CONTINUOUS
 62
     7
 10
74.8352013357771
 20
-96.8099488450271
 30
0.0
 40
2.99999994039535
  1
=    =
 50
359.999999844103
 41
0.916666655739148
 72
     2
 11
90.7852008549662
 21
-96.8099488883455
 31
0.0
  0
TEXT
  5
   2B7
  8
0
  6
CONTINUOUS
 62
     7
 10
56.0818752209571
 20
-52.3985396580383
 30
0.0
 40
2.99999994039535
  1
=     =
 50
449.999999844103
 41
0.916666655739148
 72
     2
 11
56.0818752717207
 21
-33.6985402262693
 31
0.0
  0
TEXT
  5
   2B8
  8
0
  6
CONTINUOUS
 62
     7
 10
45.9417203037883
 20
-55.8860649617011
 30
0.0
 40
2.99999994039535
  1
=       =
 50
449.999999844103
 41
0.916666655739148
 72
     2
 11
45.9417203694823
 21
-31.6860657047724
 31
0.0
  0
INSERT
  5
   2B9
  8
0
  6
CONTINUOUS
 62
     7
  2
*UDIM610
 10
0.0
 20
0.0
 30
0.0
  0
INSERT
  5
   2BA
  8
0
  6
CONTINUOUS
 62
     7
  2
*UDIM611
 10
0.0
 20
0.0
 30
0.0
  0
INSERT
  5
   2BB
  8
0
  6
CONTINUOUS
 62
     7
  2
*UDIM612
 10
0.0
 20
0.0
 30
0.0
  0
INSERT
  5
   2BC
  8
0
  6
CONTINUOUS
 62
     7
  2
*UDIM613
 10
0.0
 20
0.0
 30
0.0
  0
INSERT
  5
   2BD
  8
0
  6
CONTINUOUS
 62
     7
  2
*UDIM614
 10
0.0
 20
0.0
 30
0.0
  0
TEXT
  5
   2BE
  8
0
  6
CONTINUOUS
 62
     7
 10
80.3753358606841
 20
-102.521287596284
 30
0.0
 40
2.99999994039535
  1
Y
 50
359.999999844103
 41
0.916666655739148
 72
     2
 11
82.575335816974
 21
-102.521287602259
 31
0.0
  0
TEXT
  5
   2BF
  8
0
  6
CONTINUOUS
 62
     7
 10
80.6068112231231
 20
-14.792148978405
 30
0.0
 40
2.99999994039535
  1
Y
 50
359.999999844103
 41
0.916666655739148
 72
     2
 11
82.806811179413
 21
-14.79214898438
 31
0.0
  0
TEXT
  5
   2C0
  8
0
  6
CONTINUOUS
 62
     7
 10
119.289041230065
 20
-46.6136548357735
 30
0.0
 40
2.99999994039535
  1
X
 50
359.999999844103
 41
0.916666655739148
 72
     2
 11
121.489041186355
 21
-46.6136548417485
 31
0.0
  0
TEXT
  5
   2C1
  8
0
  6
CONTINUOUS
 62
     7
 10
30.87770196252
 20
-46.3945533980816
 30
0.0
 40
2.99999994039535
  1
X
 50
359.999999844103
 41
0.916666655739148
 72
     2
 11
33.0777019188099
 21
-46.3945534040565
 31
0.0
  0
ENDSEC
  0
EOF
