  0
SECTION
  2
HEADER
  9
$ACADVER
  1
AC1009
  9
$INSBASE
 10
0.0
 20
0.0
 30
0.0
  9
$EXTMIN
 10
-375.44098480000002
 20
339.79550199999989
 30
0.0
  9
$EXTMAX
 10
927.61570700000004
 20
922.70830899999999
 30
0.0
  9
$LIMMIN
 10
0.0
 20
0.0
  9
$LIMMAX
 10
420.0
 20
297.0
  9
$ORTHOMODE
 70
     0
  9
$REGENMODE
 70
     1
  9
$FILLMODE
 70
     1
  9
$QTEXTMODE
 70
     0
  9
$MIRRTEXT
 70
     1
  9
$DRAGMODE
 70
     2
  9
$LTSCALE
 40
1.0
  9
$OSMODE
 70
    47
  9
$ATTMODE
 70
     1
  9
$TEXTSIZE
 40
0.0
  9
$TRACEWID
 40
1.0
  9
$TEXTSTYLE
  7
STANDARD
  9
$CLAYER
  8
0
  9
$CELTYPE
  6
BYLAYER
  9
$CECOLOR
 62
   256
  9
$DIMSCALE
 40
1.0
  9
$DIMASZ
 40
2.5
  9
$DIMEXO
 40
0.625
  9
$DIMDLI
 40
3.75
  9
$DIMRND
 40
0.0
  9
$DIMDLE
 40
0.0
  9
$DIMEXE
 40
1.25
  9
$DIMTP
 40
0.0
  9
$DIMTM
 40
0.0
  9
$DIMTXT
 40
2.5
  9
$DIMCEN
 40
2.5
  9
$DIMTSZ
 40
0.0
  9
$DIMTOL
 70
     0
  9
$DIMLIM
 70
     0
  9
$DIMTIH
 70
     0
  9
$DIMTOH
 70
     0
  9
$DIMSE1
 70
     0
  9
$DIMSE2
 70
     0
  9
$DIMTAD
 70
     1
  9
$DIMZIN
 70
     8
  9
$DIMBLK
  1

  9
$DIMASO
 70
     1
  9
$DIMSHO
 70
     1
  9
$DIMPOST
  1

  9
$DIMAPOST
  1

  9
$DIMALT
 70
     0
  9
$DIMALTD
 70
     3
  9
$DIMALTF
 40
0.03937
  9
$DIMLFAC
 40
1.0
  9
$DIMTOFL
 70
     1
  9
$DIMTVP
 40
0.0
  9
$DIMTIX
 70
     0
  9
$DIMSOXD
 70
     0
  9
$DIMSAH
 70
     0
  9
$DIMBLK1
  1

  9
$DIMBLK2
  1

  9
$DIMSTYLE
  2
STANDARD
  9
$DIMCLRD
 70
     0
  9
$DIMCLRE
 70
     0
  9
$DIMCLRT
 70
     0
  9
$DIMTFAC
 40
1.0
  9
$DIMGAP
 40
0.625
  9
$LUNITS
 70
     2
  9
$LUPREC
 70
     4
  9
$SKETCHINC
 40
1.0
  9
$FILLETRAD
 40
2.5
  9
$AUNITS
 70
     0
  9
$AUPREC
 70
     0
  9
$MENU
  1
.
  9
$ELEVATION
 40
0.0
  9
$PELEVATION
 40
0.0
  9
$THICKNESS
 40
0.0
  9
$LIMCHECK
 70
     0
  9
$BLIPMODE
 70
     0
  9
$CHAMFERA
 40
2.5
  9
$CHAMFERB
 40
2.5
  9
$SKPOLY
 70
     0
  9
$TDCREATE
 40
2311942.6599061568
  9
$TDUPDATE
 40
2454455.3879542239
  9
$TDINDWG
 40
0.0003656366
  9
$TDUSRTIMER
 40
0.0003656366
  9
$USRTIMER
 70
     1
  9
$ANGBASE
 50
0.0
  9
$ANGDIR
 70
     0
  9
$PDMODE
 70
     0
  9
$PDSIZE
 40
0.0
  9
$PLINEWID
 40
0.0
  9
$COORDS
 70
     1
  9
$SPLFRAME
 70
     0
  9
$SPLINETYPE
 70
     6
  9
$SPLINESEGS
 70
     8
  9
$ATTDIA
 70
     0
  9
$ATTREQ
 70
     1
  9
$HANDLING
 70
 22529
  9
$HANDSEED
  5
A36
  9
$SURFTAB1
 70
     6
  9
$SURFTAB2
 70
     6
  9
$SURFTYPE
 70
     6
  9
$SURFU
 70
     6
  9
$SURFV
 70
     6
  9
$UCSNAME
  2

  9
$UCSORG
 10
0.0
 20
0.0
 30
0.0
  9
$UCSXDIR
 10
1.0
 20
0.0
 30
0.0
  9
$UCSYDIR
 10
0.0
 20
1.0
 30
0.0
  9
$PUCSNAME
  2

  9
$PUCSORG
 10
0.0
 20
0.0
 30
0.0
  9
$PUCSXDIR
 10
1.0
 20
0.0
 30
0.0
  9
$PUCSYDIR
 10
0.0
 20
1.0
 30
0.0
  9
$USERI1
 70
     0
  9
$USERI2
 70
     0
  9
$USERI3
 70
     0
  9
$USERI4
 70
     0
  9
$USERI5
 70
     0
  9
$USERR1
 40
0.0
  9
$USERR2
 40
0.0
  9
$USERR3
 40
0.0
  9
$USERR4
 40
0.0
  9
$USERR5
 40
0.0
  9
$WORLDVIEW
 70
     1
  9
$SHADEDGE
 70
     3
  9
$SHADEDIF
 70
    70
  9
$TILEMODE
 70
     1
  9
$MAXACTVP
 70
    48
  9
$PLIMCHECK
 70
     0
  9
$PEXTMIN
 10
0.0
 20
0.0
 30
0.0
  9
$PEXTMAX
 10
271.18646200000001
 20
288.0
 30
2.0
  9
$PLIMMIN
 10
0.0
 20
0.0
  9
$PLIMMAX
 10
420.0
 20
297.0
  9
$UNITMODE
 70
     0
  9
$VISRETAIN
 70
     0
  9
$PLINEGEN
 70
     0
  9
$PSLTSCALE
 70
     1
  0
ENDSEC
  0
SECTION
  2
TABLES
  0
TABLE
  2
VPORT
 70
     2
  0
VPORT
  2
*ACTIVE
 70
     0
 10
0.0
 20
0.0
 11
1.0
 21
1.0
 12
276.0873610999999
 22
631.25190550000002
 13
0.0
 23
0.0
 14
1.0
 24
1.0
 15
0.0
 25
0.0
 16
0.0
 26
0.0
 36
1.0
 17
0.0
 27
0.0
 37
0.0
 40
844.56680423515525
 41
1.550724637681159
 42
50.0
 43
0.0
 44
0.0
 50
0.0
 51
0.0
 71
     0
 72
   100
 73
     1
 74
     1
 75
     0
 76
     0
 77
     0
 78
     0
  0
ENDTAB
  0
TABLE
  2
LTYPE
 70
     8
  0
LTYPE
  2
CONTINUOUS
 70
     0
  3
Solid line
 72
    65
 73
     0
 40
0.0
  0
LTYPE
  2
DASHED
 70
     0
  3
__ __ __ __ __ __ __ __ __ __ __ __ __ __ __ __
 72
    65
 73
     2
 40
15.0
 49
12.0
 49
-3.0
  0
LTYPE
  2
DASHDOT
 70
     0
  3
 __ . __ . __ . __ . __ . __ . __ . 
 72
    65
 73
     4
 40
18.5
 49
12.0
 49
-3.0
 49
0.5
 49
-3.0
  0
LTYPE
  2
DOT
 70
     0
  3
 . . . . . . . . . . . . . . . .
 72
    65
 73
     2
 40
3.5
 49
0.5
 49
-3.0
  0
LTYPE
  2
DASHSPACE
 70
     0
  3
__    __    __    __    __   
 72
    65
 73
     2
 40
30.0
 49
12.0
 49
-18.0
  0
LTYPE
  2
DASHDOT2
 70
     0
  3
__ . . __ . . __ . . __ 
 72
    65
 73
     6
 40
22.0
 49
12.0
 49
-3.0
 49
0.5
 49
-3.0
 49
0.5
 49
-3.0
  0
LTYPE
  2
PHANTOM
 70
     0
  3
____________    ____    ____   _
 72
    65
 73
     6
 40
20.0
 49
10.0
 49
-2.0
 49
2.0
 49
-2.0
 49
2.0
 49
-2.0
  0
LTYPE
  2
AXES
 70
     0
  3
________  __  ________  __  _____
 72
    65
 73
     4
 40
24.0
 49
15.0
 49
-3.0
 49
3.0
 49
-3.0
  0
ENDTAB
  0
TABLE
  2
LAYER
 70
     1
  0
LAYER
  2
0
 70
     0
 62
     7
  6
CONTINUOUS
  0
ENDTAB
  0
TABLE
  2
STYLE
 70
     2
  0
STYLE
  2
STANDARD
 70
     0
 40
0.0
 41
1.0
 50
0.0
 71
     0
 42
0.0
  3
isocp.shx
  4

  0
STYLE
  2
GDT
 70
     0
 40
0.0
 41
1.0
 50
0.0
 71
     0
 42
0.0
  3
amgdt.shx
  4

  0
ENDTAB
  0
TABLE
  2
VIEW
 70
     0
  0
ENDTAB
  0
TABLE
  2
UCS
 70
     0
  0
ENDTAB
  0
TABLE
  2
APPID
 70
     1
  0
APPID
  2
ACAD
 70
     0
  0
ENDTAB
  0
TABLE
  2
DIMSTYLE
 70
     1
  0
DIMSTYLE
  2
STANDARD
 70
     0
  3

  4

  5

  6

  7

 40
1.0
 41
2.5
 42
0.625
 43
3.75
 44
1.25
 45
0.0
 46
0.0
 47
0.0
 48
0.0
140
2.5
141
2.5
142
0.0
143
0.03937
144
1.0
145
0.0
146
1.0
147
0.625
 71
     0
 72
     0
 73
     0
 74
     0
 75
     0
 76
     0
 77
     1
 78
     8
170
     0
171
     3
172
     1
173
     0
174
     0
175
     0
176
     0
177
     0
178
     0
  0
ENDTAB
  0
ENDSEC
  0
SECTION
  2
BLOCKS
  0
BLOCK
  8
0
  2
$MODEL_SPACE
 70
     0
 10
0.0
 20
0.0
 30
0.0
  3
$MODEL_SPACE
  1

  0
ENDBLK
  5
E
  8
0
  0
BLOCK
 67
     1
  8
0
  2
$PAPER_SPACE
 70
     0
 10
0.0
 20
0.0
 30
0.0
  3
$PAPER_SPACE
  1

  0
ENDBLK
  5
10
 67
     1
  8
0
  0
BLOCK
  8
0
  2
BLOCK0
 70
     0
 10
0.0
 20
0.0
 30
0.0
  3
BLOCK0
  1

  0
TEXT
  5
75B
  8
0
 62
     1
 10
-525.0
 20
-64.0
 30
0.0
 40
3.0
  1
Ts3
 50
180.0
 41
1.225762527177944
 72
     5
 11
-532.69995099999994
 21
-64.0
 31
0.0
  0
ENDBLK
  5
75C
  8
0
  0
BLOCK
  8
0
  2
BLOCK1
 70
     0
 10
0.0
 20
0.0
 30
0.0
  3
BLOCK1
  1

  0
TEXT
  5
75E
  8
0
 62
     1
 10
-451.15213
 20
-66.0
 30
0.0
 40
2.0
  1
N0204 2007-09-17
 50
180.0
 41
1.1017693073406229
 72
     5
 11
-474.84786999999989
 21
-66.0
 31
0.0
  0
ENDBLK
  5
75F
  8
0
  0
BLOCK
  8
0
  2
BLOCK2
 70
     0
 10
0.0
 20
0.0
 30
0.0
  3
BLOCK2
  1

  0
TEXT
  5
761
  8
0
 62
     1
 10
-500.0
 20
-52.0
 30
0.0
 40
4.0
  1
1SDH000637R0.110
 50
180.0
 41
1.4176639214541329
 72
     5
 11
-559.26281700000004
 21
-52.0
 31
0.0
  0
ENDBLK
  5
762
  8
0
  0
BLOCK
  8
0
  2
BLOCK3
 70
     0
 10
0.0
 20
0.0
 30
0.0
  3
BLOCK3
  1

  0
TEXT
  5
764
  8
0
 62
     1
 10
-504.0
 20
-79.0
 30
0.0
 40
2.0
  1
INTERR.AUTOMATICO SERIE ISOMAX
 50
179.9999897438901
 41
1.076916072289172
 72
     5
 11
-548.69201699999985
 21
-78.999992000000006
 31
0.0
  0
ENDBLK
  5
765
  8
0
  0
BLOCK
  8
0
  2
BLOCK4
 70
     0
 10
0.0
 20
0.0
 30
0.0
  3
BLOCK4
  1

  0
TEXT
  5
767
  8
0
 62
     1
 10
-492.0
 20
-76.0
 30
0.0
 40
2.0
  1
TETRAP.ESECUZIONE RIMOVIBILE TERMIN.POSTERIORI
 50
179.99999332681179
 41
1.1132535494327489
 72
     5
 11
-560.68774399999995
 21
-75.999992000000006
 31
0.0
  0
ENDBLK
  5
768
  8
0
  0
BLOCK
  8
0
  2
BLOCK5
 70
     0
 10
0.0
 20
0.0
 30
0.0
  3
BLOCK5
  1

  0
TEXT
  5
76A
  8
0
 62
     1
 10
-501.0
 20
-87.0
 30
0.0
 40
2.0
  1
4POLE LOW VOLTAGE M.C.C.B SERIES ISOMAX
 50
179.9999921228804
 41
1.095848870056507
 72
     5
 11
-559.18957499999988
 21
-86.999992000000006
 31
0.0
  0
ENDBLK
  5
76B
  8
0
  0
BLOCK
  8
0
  2
BLOCK6
 70
     0
 10
0.0
 20
0.0
 30
0.0
  3
BLOCK6
  1

  0
TEXT
  5
76D
  8
0
 62
     1
 10
-508.0
 20
-84.0
 30
0.0
 40
2.0
  1
PLUG-IN VERSION REAR TERMINALS
 50
179.9999897438901
 41
1.064622565161625
 72
     5
 11
-552.69201699999985
 21
-83.999992000000006
 31
0.0
  0
ENDBLK
  5
76E
  8
0
  0
BLOCK
  8
0
  2
BLOCK7
 70
     0
 10
0.0
 20
0.0
 30
0.0
  3
BLOCK7
  1

  0
TEXT
  5
770
  8
0
 62
     7
 10
-107.0
 20
-3.0
 30
0.0
 40
3.0
  1
X
 50
180.0
 41
0.9777764444444425
 72
     5
 11
-109.199997
 21
-3.0
 31
0.0
  0
ENDBLK
  5
771
  8
0
  0
BLOCK
  8
0
  2
BLOCK8
 70
     0
 10
0.0
 20
0.0
 30
0.0
  3
BLOCK8
  1

  0
TEXT
  5
773
  8
0
 62
     7
 10
135.0
 20
0.0
 30
0.0
 40
3.0
  1
X
 50
180.0
 41
0.9777764444444425
 72
     5
 11
132.800003
 21
0.0
 31
0.0
  0
ENDBLK
  5
774
  8
0
  0
BLOCK
  8
0
  2
BLOCK9
 70
     0
 10
0.0
 20
0.0
 30
0.0
  3
BLOCK9
  1

  0
TEXT
  5
776
  8
0
 62
     7
 10
2.0
 20
-175.0
 30
0.0
 40
3.0
  1
Y
 50
180.0
 41
0.9777777777777778
 72
     5
 11
-0.2
 21
-175.0
 31
0.0
  0
ENDBLK
  5
777
  8
0
  0
BLOCK
  8
0
  2
BLOCK10
 70
     0
 10
0.0
 20
0.0
 30
0.0
  3
BLOCK10
  1

  0
TEXT
  5
779
  8
0
 62
     7
 10
2.0
 20
161.0
 30
0.0
 40
3.0
  1
Y
 50
180.0
 41
0.9777777777777778
 72
     5
 11
-0.2
 21
161.0
 31
0.0
  0
ENDBLK
  5
77A
  8
0
  0
BLOCK
  8
0
  2
BLOCK11
 70
     0
 10
0.0
 20
0.0
 30
0.0
  3
BLOCK11
  1

  0
TEXT
  5
77C
  8
0
 62
     7
 10
-37.0
 20
138.13629199999991
 30
0.0
 40
3.0
  1
25
 50
180.0
 41
1.2776591662854091
 72
     5
 11
-41.949989000000002
 21
138.13629199999991
 31
0.0
  0
ENDBLK
  5
77D
  8
0
  0
BLOCK
  8
0
  2
BLOCK12
 70
     0
 10
0.0
 20
0.0
 30
0.0
  3
BLOCK12
  1

  0
TEXT
  5
77F
  8
0
 62
     7
 10
51.0
 20
138.13629199999991
 30
0.0
 40
3.0
  1
80
 50
180.0
 41
1.319166095897597
 72
     5
 11
46.050010999999991
 21
138.13629199999991
 31
0.0
  0
ENDBLK
  5
780
  8
0
  0
BLOCK
  8
0
  2
BLOCK13
 70
     0
 10
0.0
 20
0.0
 30
0.0
  3
BLOCK13
  1

  0
TEXT
  5
782
  8
0
 62
     7
 10
219.566666
 20
134.860489
 30
0.0
 40
3.0
  1
 5
 50
212.70408315676451
 41
1.664275729172219
 72
     5
 11
215.4013819999999
 21
132.18600499999991
 31
0.0
  0
ENDBLK
  5
783
  8
0
  0
BLOCK
  8
0
  2
BLOCK14
 70
     0
 10
0.0
 20
0.0
 30
0.0
  3
BLOCK14
  1

  0
TEXT
  5
785
  8
0
 62
     7
 10
220.91285699999989
 20
135.72494499999991
 30
0.0
 40
3.0
  1
%%c
 50
212.7040272305739
 41
0.9777787412281993
 72
     5
 11
219.0616149999999
 21
134.53628499999999
 31
0.0
  0
ENDBLK
  5
786
  8
0
  0
BLOCK
  8
0
  2
BLOCK15
 70
     0
 10
0.0
 20
0.0
 30
0.0
  3
BLOCK15
  1

  0
TEXT
  5
788
  8
0
 62
     7
 10
201.05419900000001
 20
122.9738769999999
 30
0.0
 40
3.0
  1
 (M4)
 50
212.7040437984592
 41
1.600224341829795
 72
     5
 11
189.9467929999999
 21
115.8419419999999
 31
0.0
  0
ENDBLK
  5
789
  8
0
  0
BLOCK
  8
0
  2
BLOCK16
 70
     0
 10
0.0
 20
0.0
 30
0.0
  3
BLOCK16
  1

  0
TEXT
  5
78B
  8
0
 62
     7
 10
-81.551513999999983
 20
-87.711272999999991
 30
0.0
 40
3.0
  1
 14
 50
194.54589087612979
 41
1.6559094742122931
 72
     5
 11
-89.004683999999983
 21
-89.645163999999994
 31
0.0
  0
ENDBLK
  5
78C
  8
0
  0
BLOCK
  8
0
  2
BLOCK17
 70
     0
 10
0.0
 20
0.0
 30
0.0
  3
BLOCK17
  1

  0
TEXT
  5
78E
  8
0
 62
     7
 10
-81.551513999999983
 20
-87.711272999999991
 30
0.0
 40
3.0
  1
R
 50
194.54592657426139
 41
1.128206934279671
 72
     5
 11
-83.680999999999997
 21
-88.263817000000003
 31
0.0
  0
ENDBLK
  5
78F
  8
0
  0
BLOCK
  8
0
  2
BLOCK18
 70
     0
 10
0.0
 20
0.0
 30
0.0
  3
BLOCK18
  1

  0
TEXT
  5
791
  8
0
 62
     7
 10
34.0
 20
-171.074524
 30
0.0
 40
3.0
  1
105
 50
180.0
 41
1.432750587160017
 72
     5
 11
26.30002
 21
-171.074524
 31
0.0
  0
ENDBLK
  5
792
  8
0
  0
BLOCK
  8
0
  2
BLOCK19
 70
     0
 10
0.0
 20
0.0
 30
0.0
  3
BLOCK19
  1

  0
TEXT
  5
794
  8
0
 62
     7
 10
-151.3261719999999
 20
16.5
 30
0.0
 40
3.0
  1
143
 50
269.99988838455511
 41
1.357000644801243
 72
     5
 11
-151.326187
 21
8.8000199999999982
 31
0.0
  0
ENDBLK
  5
795
  8
0
  0
BLOCK
  8
0
  2
BLOCK20
 70
     0
 10
0.0
 20
0.0
 30
0.0
  3
BLOCK20
  1

  0
TEXT
  5
797
  8
0
 62
     7
 10
117.5546879999999
 20
-62.0
 30
0.0
 40
3.0
  1
52,25
 50
270.00003038421988
 41
1.4466875246701709
 72
     5
 11
117.5546949999999
 21
-75.199958999999993
 31
0.0
  0
ENDBLK
  5
798
  8
0
  0
BLOCK
  8
0
  2
BLOCK21
 70
     0
 10
0.0
 20
0.0
 30
0.0
  3
BLOCK21
  1

  0
TEXT
  5
79A
  8
0
 62
     7
 10
144.59033199999999
 20
16.5
 30
0.0
 40
3.0
  1
100
 50
270.0
 41
1.4660032381380701
 72
     5
 11
144.59033199999999
 21
8.8000199999999982
 31
0.0
  0
ENDBLK
  5
79B
  8
0
  0
BLOCK
  8
0
  2
BLOCK22
 70
     0
 10
0.0
 20
0.0
 30
0.0
  3
BLOCK22
  1

  0
TEXT
  5
79D
  8
0
 62
     7
 10
-120.84985399999999
 20
-9.2830509999999986
 30
0.0
 40
3.0
  1
73,75
 50
270.00003472482013
 41
1.4466876342681141
 72
     5
 11
-120.8498459999999
 21
-22.483010999999991
 31
0.0
  0
ENDBLK
  5
79E
  8
0
  0
BLOCK
  8
0
  2
BLOCK23
 70
     0
 10
0.0
 20
0.0
 30
0.0
  3
BLOCK23
  1

  0
TEXT
  5
7A0
  8
0
 62
     7
 10
-47.0
 20
-137.37098700000001
 30
0.0
 40
3.0
  1
35
 50
180.0
 41
1.2776591662854091
 72
     5
 11
-51.949989000000002
 21
-137.37098700000001
 31
0.0
  0
ENDBLK
  5
7A1
  8
0
  0
BLOCK
  8
0
  2
BLOCK24
 70
     0
 10
0.0
 20
0.0
 30
0.0
  3
BLOCK24
  1

  0
TEXT
  5
7A3
  8
0
 62
     7
 10
93.280272999999994
 20
-53.333984000000001
 30
0.0
 40
3.0
  1
105
 50
359.99997023588912
 41
1.4327509593041881
 72
     5
 11
100.980255
 21
-53.333987999999998
 31
0.0
  0
ENDBLK
  5
7A4
  8
0
  0
BLOCK
  8
0
  2
BLOCK25
 70
     0
 10
0.0
 20
0.0
 30
0.0
  3
BLOCK25
  1

  0
TEXT
  5
7A6
  8
0
 62
     7
 10
111.0
 20
288.0
 30
0.0
 40
3.0
  1
X
 50
270.0
 41
0.9777831111111176
 72
     5
 11
111.0
 21
285.79998799999993
 31
0.0
  0
ENDBLK
  5
7A7
  8
0
  0
BLOCK
  8
0
  2
BLOCK26
 70
     0
 10
0.0
 20
0.0
 30
0.0
  3
BLOCK26
  1

  0
TEXT
  5
7A9
  8
0
 62
     7
 10
109.0
 20
-64.0
 30
0.0
 40
3.0
  1
X
 50
270.0
 41
0.9777764444444425
 72
     5
 11
109.0
 21
-66.199996999999996
 31
0.0
  0
ENDBLK
  5
7AA
  8
0
  0
BLOCK
  8
0
  2
BLOCK27
 70
     0
 10
0.0
 20
0.0
 30
0.0
  3
BLOCK27
  1

  0
TEXT
  5
7AC
  8
0
 62
     7
 10
6.643489999999999
 20
84.249267999999987
 30
0.0
 40
3.0
  1
153
 50
269.99997023588912
 41
1.4327509593041881
 72
     5
 11
6.6434860000000002
 21
76.549285999999995
 31
0.0
  0
ENDBLK
  5
7AD
  8
0
  0
BLOCK
  8
0
  2
BLOCK28
 70
     0
 10
0.0
 20
0.0
 30
0.0
  3
BLOCK28
  1

  0
TEXT
  5
7AF
  8
0
 62
     7
 10
-36.368209999999991
 20
73.977417000000003
 30
0.0
 40
3.0
  1
184,5
 50
269.99996961578012
 41
1.4958708054538821
 72
     5
 11
-36.368217000000001
 21
60.777457999999989
 31
0.0
  0
ENDBLK
  5
7B0
  8
0
  0
BLOCK
  8
0
  2
BLOCK29
 70
     0
 10
0.0
 20
0.0
 30
0.0
  3
BLOCK29
  1

  0
TEXT
  5
7B2
  8
0
 62
     7
 10
6.6434689999999996
 20
169.35937499999989
 30
0.0
 40
3.0
  1
3
 50
269.99997395642828
 41
1.2399490238211071
 72
     5
 11
6.6434679999999986
 21
167.159378
 31
0.0
  0
ENDBLK
  5
7B3
  8
0
  0
BLOCK
  8
0
  2
BLOCK30
 70
     0
 10
0.0
 20
0.0
 30
0.0
  3
BLOCK30
  1

  0
TEXT
  5
7B5
  8
0
 62
     7
 10
103.9870379999999
 20
275.51672400000001
 30
0.0
 40
3.0
  1
143
 41
1.357000821032974
 72
     5
 11
111.68701899999991
 21
275.51672400000001
 31
0.0
  0
ENDBLK
  5
7B6
  8
0
  0
BLOCK
  8
0
  2
BLOCK31
 70
     0
 10
0.0
 20
0.0
 30
0.0
  3
BLOCK31
  1

  0
TEXT
  5
7B8
  8
0
 62
     7
 10
7.3841499999999991
 20
175.46783400000001
 30
0.0
 40
3.0
  1
\U+2265
 50
270.0
 41
1.2422310047017391
 72
     5
 11
7.3841499999999991
 21
173.2678379999999
 31
0.0
  0
ENDBLK
  5
7B9
  8
0
  0
BLOCK
  8
0
  2
BLOCK32
 70
     0
 10
0.0
 20
0.0
 30
0.0
  3
BLOCK32
  1

  0
TEXT
  5
7BB
  8
0
 62
     7
 10
-13.688305
 20
-12.000061000000001
 30
0.0
 40
3.0
  1
2
 50
270.00002604353608
 41
1.202069418003199
 72
     5
 11
-13.688304
 21
-14.200060999999989
 31
0.0
  0
ENDBLK
  5
7BC
  8
0
  0
BLOCK
  8
0
  2
BLOCK33
 70
     0
 10
0.0
 20
0.0
 30
0.0
  3
BLOCK33
  1

  0
TEXT
  5
7BE
  8
0
 62
     7
 10
-13.688309
 20
87.999938999999998
 30
0.0
 40
3.0
  1
156,5
 50
270.00001736241131
 41
1.5485159649676581
 72
     5
 11
-13.688305
 21
74.799980000000005
 31
0.0
  0
ENDBLK
  5
7BF
  8
0
  0
BLOCK
  8
0
  2
BLOCK34
 70
     0
 10
0.0
 20
0.0
 30
0.0
  3
BLOCK34
  1

  0
TEXT
  5
7C1
  8
0
 62
     7
 10
133.11204499999999
 20
257.574951
 30
0.0
 40
3.0
  1
73,75
 41
1.446688401453011
 72
     5
 11
146.31201200000001
 21
257.574951
 31
0.0
  0
ENDBLK
  5
7C2
  8
0
  0
BLOCK
  8
0
  2
BLOCK35
 70
     0
 10
0.0
 20
0.0
 30
0.0
  3
BLOCK35
  1

  0
LINE
  5
7C4
  8
0
 62
     2
 10
-20.539570000000001
 20
-4.9162730000000003
 30
0.0
 11
-19.455791000000001
 21
-6.000051
 31
0.0
  0
LINE
  5
7C5
  8
0
 62
     2
 10
-19.334471000000001
 20
-4.000051
 30
0.0
 11
-17.334471000000001
 21
-6.000051
 31
0.0
  0
LINE
  5
7C6
  8
0
 62
     2
 10
-17.21315199999999
 20
-4.000051
 30
0.0
 11
-15.213151
 21
-6.000051
 31
0.0
  0
LINE
  5
7C7
  8
0
 62
     2
 10
-15.09183099999999
 20
-4.000051
 30
0.0
 11
-13.091831000000001
 21
-6.000051
 31
0.0
  0
LINE
  5
7C8
  8
0
 62
     2
 10
-12.970510000000001
 20
-4.000051
 30
0.0
 11
-10.970510000000001
 21
-6.000051
 31
0.0
  0
LINE
  5
7C9
  8
0
 62
     2
 10
-10.849190999999999
 20
-4.000051
 30
0.0
 11
-8.8491910000000011
 21
-6.000051
 31
0.0
  0
LINE
  5
7CA
  8
0
 62
     2
 10
-8.7278699999999994
 20
-4.000051
 30
0.0
 11
-6.7278699999999994
 21
-6.000051
 31
0.0
  0
LINE
  5
7CB
  8
0
 62
     2
 10
-6.6065500000000004
 20
-4.000051
 30
0.0
 11
-4.6065500000000004
 21
-6.000051
 31
0.0
  0
LINE
  5
7CC
  8
0
 62
     2
 10
-4.4852299999999996
 20
-4.000051
 30
0.0
 11
-2.4852300000000001
 21
-6.000051
 31
0.0
  0
LINE
  5
7CD
  8
0
 62
     2
 10
-2.3639099999999988
 20
-4.000051
 30
0.0
 11
-0.36391
 21
-6.000051
 31
0.0
  0
LINE
  5
7CE
  8
0
 62
     2
 10
-0.242589
 20
-4.000051
 30
0.0
 11
1.757409999999999
 21
-6.000051
 31
0.0
  0
LINE
  5
7CF
  8
0
 62
     2
 10
1.8787309999999999
 20
-4.000051
 30
0.0
 11
3.8787309999999988
 21
-6.000051
 31
0.0
  0
LINE
  5
7D0
  8
0
 62
     2
 10
4.000051
 20
-4.000051
 30
0.0
 11
6.000051
 21
-6.000051
 31
0.0
  0
LINE
  5
7D1
  8
0
 62
     2
 10
6.121370999999999
 20
-4.000051
 30
0.0
 11
8.1213709999999981
 21
-6.000051
 31
0.0
  0
LINE
  5
7D2
  8
0
 62
     2
 10
8.2426910000000007
 20
-4.000051
 30
0.0
 11
10.242691000000001
 21
-6.000051
 31
0.0
  0
LINE
  5
7D3
  8
0
 62
     2
 10
10.364012000000001
 20
-4.000051
 30
0.0
 11
12.36401199999999
 21
-6.000051
 31
0.0
  0
LINE
  5
7D4
  8
0
 62
     2
 10
12.485332
 20
-4.000051
 30
0.0
 11
14.485332
 21
-6.000051
 31
0.0
  0
LINE
  5
7D5
  8
0
 62
     2
 10
14.606652
 20
-4.000051
 30
0.0
 11
16.606650999999999
 21
-6.000051
 31
0.0
  0
LINE
  5
7D6
  8
0
 62
     2
 10
16.727972000000001
 20
-4.000051
 30
0.0
 11
18.727972000000001
 21
-6.000051
 31
0.0
  0
LINE
  5
7D7
  8
0
 62
     2
 10
18.849292999999989
 20
-4.000051
 30
0.0
 11
20.849292999999999
 21
-6.000051
 31
0.0
  0
LINE
  5
7D8
  8
0
 62
     2
 10
20.970613
 20
-4.000051
 30
0.0
 11
22.970611999999988
 21
-6.000051
 31
0.0
  0
LINE
  5
7D9
  8
0
 62
     2
 10
23.091932
 20
-4.000051
 30
0.0
 11
25.091932
 21
-6.000051
 31
0.0
  0
LINE
  5
7DA
  8
0
 62
     2
 10
25.213252999999991
 20
-4.000051
 30
0.0
 11
27.213253000000002
 21
-6.000051
 31
0.0
  0
LINE
  5
7DB
  8
0
 62
     2
 10
27.334574
 20
-4.000051
 30
0.0
 11
29.334573999999989
 21
-6.000051
 31
0.0
  0
LINE
  5
7DC
  8
0
 62
     2
 10
29.455892999999989
 20
-4.000051
 30
0.0
 11
31.455893
 21
-6.000051
 31
0.0
  0
LINE
  5
7DD
  8
0
 62
     2
 10
31.577213
 20
-4.000051
 30
0.0
 11
33.577213
 21
-6.000051
 31
0.0
  0
LINE
  5
7DE
  8
0
 62
     2
 10
33.698532
 20
-4.000051
 30
0.0
 11
35.480625000000003
 21
-5.7821429999999987
 31
0.0
  0
ENDBLK
  5
7DF
  8
0
  0
BLOCK
  8
0
  2
BLOCK36
 70
     0
 10
0.0
 20
0.0
 30
0.0
  3
BLOCK36
  1

  0
LINE
  5
7E1
  8
0
 62
     2
 10
42.480625000000003
 20
-4.2968619999999991
 30
0.0
 11
44.183815000000003
 21
-6.000051
 31
0.0
  0
LINE
  5
7E2
  8
0
 62
     2
 10
44.305134000000002
 20
-4.000051
 30
0.0
 11
46.305134000000002
 21
-6.000051
 31
0.0
  0
LINE
  5
7E3
  8
0
 62
     2
 10
46.426456000000002
 20
-4.000051
 30
0.0
 11
48.426456000000002
 21
-6.000051
 31
0.0
  0
LINE
  5
7E4
  8
0
 62
     2
 10
48.547775000000001
 20
-4.000051
 30
0.0
 11
50.547775000000001
 21
-6.000051
 31
0.0
  0
LINE
  5
7E5
  8
0
 62
     2
 10
50.669094000000001
 20
-4.000051
 30
0.0
 11
52.669093999999987
 21
-6.000051
 31
0.0
  0
LINE
  5
7E6
  8
0
 62
     2
 10
52.790416999999998
 20
-4.000051
 30
0.0
 11
53.980625000000003
 21
-5.1902609999999996
 31
0.0
  0
ENDBLK
  5
7E7
  8
0
  0
BLOCK
  8
0
  2
BLOCK37
 70
     0
 10
0.0
 20
0.0
 30
0.0
  3
BLOCK37
  1

  0
LINE
  5
7E9
  8
0
 62
     2
 10
165.9806209999999
 20
-4.760286999999999
 30
0.0
 11
167.22038299999991
 21
-6.000051
 31
0.0
  0
LINE
  5
7EA
  8
0
 62
     2
 10
167.34170499999999
 20
-4.000051
 30
0.0
 11
169.34170499999999
 21
-6.000051
 31
0.0
  0
LINE
  5
7EB
  8
0
 62
     2
 10
169.46302800000001
 20
-4.000051
 30
0.0
 11
171.46302800000001
 21
-6.000051
 31
0.0
  0
LINE
  5
7EC
  8
0
 62
     2
 10
171.584351
 20
-4.000051
 30
0.0
 11
173.584351
 21
-6.000051
 31
0.0
  0
LINE
  5
7ED
  8
0
 62
     2
 10
173.7056729999999
 20
-4.000051
 30
0.0
 11
175.7056729999999
 21
-6.000051
 31
0.0
  0
LINE
  5
7EE
  8
0
 62
     2
 10
175.82698099999999
 20
-4.000051
 30
0.0
 11
177.4806209999999
 21
-5.6536860000000004
 31
0.0
  0
ENDBLK
  5
7EF
  8
0
  0
BLOCK
  8
0
  2
BLOCK38
 70
     0
 10
0.0
 20
0.0
 30
0.0
  3
BLOCK38
  1

  0
LINE
  5
7F1
  8
0
 62
     2
 10
184.4806209999999
 20
-4.168404999999999
 30
0.0
 11
186.31227100000001
 21
-6.000051
 31
0.0
  0
LINE
  5
7F2
  8
0
 62
     2
 10
186.433594
 20
-4.000051
 30
0.0
 11
188.43359399999991
 21
-6.000051
 31
0.0
  0
LINE
  5
7F3
  8
0
 62
     2
 10
188.554901
 20
-4.000051
 30
0.0
 11
190.554901
 21
-6.000051
 31
0.0
  0
LINE
  5
7F4
  8
0
 62
     2
 10
190.67622399999991
 20
-4.000051
 30
0.0
 11
192.67622399999999
 21
-6.000051
 31
0.0
  0
LINE
  5
7F5
  8
0
 62
     2
 10
192.7975459999999
 20
-4.000051
 30
0.0
 11
194.7975459999999
 21
-6.000051
 31
0.0
  0
LINE
  5
7F6
  8
0
 62
     2
 10
194.91886899999989
 20
-4.000051
 30
0.0
 11
196.918869
 21
-6.000051
 31
0.0
  0
LINE
  5
7F7
  8
0
 62
     2
 10
197.04019199999999
 20
-4.000051
 30
0.0
 11
199.04019199999999
 21
-6.000051
 31
0.0
  0
LINE
  5
7F8
  8
0
 62
     2
 10
199.16151400000001
 20
-4.000051
 30
0.0
 11
201.1615139999999
 21
-6.000051
 31
0.0
  0
LINE
  5
7F9
  8
0
 62
     2
 10
201.282837
 20
-4.000051
 30
0.0
 11
203.28283699999989
 21
-6.000051
 31
0.0
  0
LINE
  5
7FA
  8
0
 62
     2
 10
203.404144
 20
-4.000051
 30
0.0
 11
205.404144
 21
-6.000051
 31
0.0
  0
LINE
  5
7FB
  8
0
 62
     2
 10
205.52546699999999
 20
-4.000051
 30
0.0
 11
207.52546699999999
 21
-6.000051
 31
0.0
  0
LINE
  5
7FC
  8
0
 62
     2
 10
207.6467899999999
 20
-4.000051
 30
0.0
 11
209.6467899999999
 21
-6.000051
 31
0.0
  0
LINE
  5
7FD
  8
0
 62
     2
 10
209.76811199999989
 20
-4.000051
 30
0.0
 11
211.76811199999989
 21
-6.000051
 31
0.0
  0
LINE
  5
7FE
  8
0
 62
     2
 10
211.88943499999999
 20
-4.000051
 30
0.0
 11
213.88943499999999
 21
-6.000051
 31
0.0
  0
LINE
  5
7FF
  8
0
 62
     2
 10
214.01075700000001
 20
-4.000051
 30
0.0
 11
215.197327
 21
-5.1866229999999991
 31
0.0
  0
ENDBLK
  5
800
  8
0
  0
BLOCK
  8
0
  2
BLOCK39
 70
     0
 10
0.0
 20
0.0
 30
0.0
  3
BLOCK39
  1

  0
LINE
  5
802
  8
0
 62
     3
 10
30.737057
 20
-173.338257
 30
0.0
 11
189.23706100000001
 21
-173.338257
 31
0.0
  0
LINE
  5
803
  8
0
 62
     3
 10
29.487057
 20
-57.588248999999998
 30
0.0
 11
29.487057
 21
-172.088257
 31
0.0
  0
LINE
  5
804
  8
0
 62
     3
 10
30.737057
 20
-56.338248999999998
 30
0.0
 11
189.23706100000001
 21
-56.338248999999998
 31
0.0
  0
LINE
  5
805
  8
0
 62
     3
 10
190.48706100000001
 20
-57.588248999999998
 30
0.0
 11
190.48706100000001
 21
-172.088257
 31
0.0
  0
LINE
  5
806
  8
0
 62
     3
 10
56.987056999999993
 20
-167.838257
 30
0.0
 11
162.98706100000001
 21
-167.838257
 31
0.0
  0
LINE
  5
807
  8
0
 62
     3
 10
56.987056999999993
 20
-61.838248999999998
 30
0.0
 11
56.987056999999993
 21
-167.838257
 31
0.0
  0
LINE
  5
808
  8
0
 62
     3
 10
56.987056999999993
 20
-61.838248999999998
 30
0.0
 11
162.98706100000001
 21
-61.838248999999998
 31
0.0
  0
LINE
  5
809
  8
0
 62
     3
 10
162.98706100000001
 20
-61.838248999999998
 30
0.0
 11
162.98706100000001
 21
-167.838257
 31
0.0
  0
LINE
  5
80A
  8
0
 62
     3
 10
48.487057
 20
-168.83825699999991
 30
0.0
 11
49.487057
 21
-168.83825699999991
 31
0.0
  0
LINE
  5
80B
  8
0
 62
     3
 10
50.487057
 20
-61.838248999999998
 30
0.0
 11
50.487057
 21
-167.838257
 31
0.0
  0
LINE
  5
80C
  8
0
 62
     3
 10
48.487057
 20
-60.83824899999999
 30
0.0
 11
49.487057
 21
-60.83824899999999
 31
0.0
  0
LINE
  5
80D
  8
0
 62
     3
 10
49.487057
 20
-61.838248999999998
 30
0.0
 11
49.487057
 21
-167.838257
 31
0.0
  0
LINE
  5
80E
  8
0
 62
     3
 10
29.487057
 20
-60.83824899999999
 30
0.0
 11
48.487057
 21
-60.83824899999999
 31
0.0
  0
LINE
  5
80F
  8
0
 62
     3
 10
49.487053000000003
 20
-60.83824899999999
 30
0.0
 11
190.48706100000001
 21
-60.83824899999999
 31
0.0
  0
LINE
  5
810
  8
0
 62
     3
 10
29.487057
 20
-61.838248999999998
 30
0.0
 11
49.487057
 21
-61.838248999999998
 31
0.0
  0
LINE
  5
811
  8
0
 62
     3
 10
162.98706100000001
 20
-61.838248999999998
 30
0.0
 11
169.48706100000001
 21
-61.838248999999998
 31
0.0
  0
LINE
  5
812
  8
0
 62
     3
 10
50.487057
 20
-61.838248999999998
 30
0.0
 11
56.987056999999993
 21
-61.838248999999998
 31
0.0
  0
LINE
  5
813
  8
0
 62
     3
 10
29.487057
 20
-168.83825699999991
 30
0.0
 11
48.487057
 21
-168.83825699999991
 31
0.0
  0
LINE
  5
814
  8
0
 62
     3
 10
49.487057
 20
-168.83825699999991
 30
0.0
 11
190.48706100000001
 21
-168.83825699999991
 31
0.0
  0
LINE
  5
815
  8
0
 62
     3
 10
50.487057
 20
-167.838257
 30
0.0
 11
56.987056999999993
 21
-167.838257
 31
0.0
  0
LINE
  5
816
  8
0
 62
     3
 10
162.98706100000001
 20
-167.838257
 30
0.0
 11
169.48706100000001
 21
-167.838257
 31
0.0
  0
LINE
  5
817
  8
0
 62
     3
 10
29.487057
 20
-167.838257
 30
0.0
 11
49.487057
 21
-167.838257
 31
0.0
  0
LINE
  5
818
  8
0
 62
     3
 10
170.48706100000001
 20
-60.83824899999999
 30
0.0
 11
170.48706100000001
 21
-168.83825699999991
 31
0.0
  0
LINE
  5
819
  8
0
 62
     3
 10
169.48706100000001
 20
-61.838248999999998
 30
0.0
 11
169.48706100000001
 21
-167.838257
 31
0.0
  0
ARC
  5
81A
  8
0
 62
     3
 10
30.737057
 20
-57.588248999999998
 30
0.0
 40
1.25
 50
90.000005000000002
 51
180.00000099999991
  0
ARC
  5
81B
  8
0
 62
     3
 10
30.737057
 20
-172.088257
 30
0.0
 40
1.25
 50
180.00000099999991
 51
270.0
  0
ARC
  5
81C
  8
0
 62
     3
 10
189.23706100000001
 20
-172.088257
 30
0.0
 40
1.25
 50
270.0
 51
0.000003
  0
ARC
  5
81D
  8
0
 62
     3
 10
189.23706100000001
 20
-57.588248999999998
 30
0.0
 40
1.25
 50
0.000003
 51
90.000005000000002
  0
LINE
  5
81E
  8
0
  6
DASHSPACE
 62
     3
 10
179.73706100000001
 20
-60.33824899999999
 30
0.0
 11
179.73706100000001
 21
-60.83824899999999
 31
0.0
  0
LINE
  5
81F
  8
0
  6
DASHSPACE
 62
     3
 10
181.23706100000001
 20
-60.33824899999999
 30
0.0
 11
181.23706100000001
 21
-60.83824899999999
 31
0.0
  0
LINE
  5
820
  8
0
 62
     3
 10
179.73706100000001
 20
-168.338257
 30
0.0
 11
179.73706100000001
 21
-168.83825699999991
 31
0.0
  0
LINE
  5
821
  8
0
 62
     3
 10
181.23706100000001
 20
-168.338257
 30
0.0
 11
181.23706100000001
 21
-168.83825699999991
 31
0.0
  0
ARC
  5
822
  8
0
  6
DASHSPACE
 62
     3
 10
180.48706100000001
 20
-60.33824899999999
 30
0.0
 40
0.75
 50
0.000003
 51
180.00000099999991
  0
ARC
  5
823
  8
0
 62
     3
 10
180.48706100000001
 20
-61.338248999999998
 30
0.0
 40
0.75
 50
180.00000099999991
 51
0.000003
  0
LINE
  5
824
  8
0
 62
     3
 10
181.23706100000001
 20
-60.83824899999999
 30
0.0
 11
181.23706100000001
 21
-61.338248999999998
 31
0.0
  0
LINE
  5
825
  8
0
 62
     3
 10
179.73706100000001
 20
-60.83824899999999
 30
0.0
 11
179.73706100000001
 21
-61.338248999999998
 31
0.0
  0
ARC
  5
826
  8
0
 62
     3
 10
180.48706100000001
 20
-168.338257
 30
0.0
 40
0.75
 50
0.000003
 51
180.00000099999991
  0
ARC
  5
827
  8
0
  6
DASHSPACE
 62
     3
 10
180.48706100000001
 20
-169.33825699999991
 30
0.0
 40
0.75
 50
180.00000099999991
 51
0.000003
  0
LINE
  5
828
  8
0
  6
DASHSPACE
 62
     3
 10
181.23706100000001
 20
-168.83825699999991
 30
0.0
 11
181.23706100000001
 21
-169.33825699999991
 31
0.0
  0
LINE
  5
829
  8
0
  6
DASHSPACE
 62
     3
 10
179.73706100000001
 20
-168.83825699999991
 30
0.0
 11
179.73706100000001
 21
-169.33825699999991
 31
0.0
  0
POINT
  5
82A
  8
0
 62
     3
 10
109.987053
 20
-114.838249
 30
0.0
  0
ENDBLK
  5
82B
  8
0
  0
BLOCK
  8
0
  2
BLOCK40
 70
     0
 10
0.0
 20
0.0
 30
0.0
  3
BLOCK40
  1

  0
TEXT
  5
82D
  8
0
 62
     7
 10
109.0
 20
22.0
 30
0.0
 40
3.0
  1
X
 50
270.0
 41
0.9777782222222221
 72
     5
 11
109.0
 21
19.799999
 31
0.0
  0
ENDBLK
  5
82E
  8
0
  0
BLOCK
  8
0
  2
BLOCK41
 70
     0
 10
0.0
 20
0.0
 30
0.0
  3
BLOCK41
  1

  0
TEXT
  5
830
  8
0
 62
     7
 10
237.0
 20
-113.0
 30
0.0
 40
3.0
  1
Y
 50
270.0
 41
0.9777764444444427
 72
     5
 11
237.0
 21
-115.199997
 31
0.0
  0
ENDBLK
  5
831
  8
0
  0
BLOCK
  8
0
  2
BLOCK42
 70
     0
 10
0.0
 20
0.0
 30
0.0
  3
BLOCK42
  1

  0
TEXT
  5
833
  8
0
 62
     7
 10
103.98704499999999
 20
5.7484129999999993
 30
0.0
 40
3.0
  1
175
 50
359.99997767691679
 41
1.432750959304103
 72
     5
 11
111.6870269999999
 21
5.7484099999999989
 31
0.0
  0
ENDBLK
  5
834
  8
0
  0
BLOCK
  8
0
  2
BLOCK43
 70
     0
 10
0.0
 20
0.0
 30
0.0
  3
BLOCK43
  1

  0
TEXT
  5
836
  8
0
 62
     7
 10
220.0738529999999
 20
-89.088256999999984
 30
0.0
 40
3.0
  1
140
 50
270.0
 41
1.3867938934978381
 72
     5
 11
220.0738529999999
 21
-96.788239000000004
 31
0.0
  0
ENDBLK
  5
837
  8
0
  0
BLOCK
  8
0
  2
BLOCK44
 70
     0
 10
0.0
 20
0.0
 30
0.0
  3
BLOCK44
  1

  0
TEXT
  5
839
  8
0
 62
     7
 10
8.3870109999999993
 20
-130.08825699999991
 30
0.0
 40
3.0
  1
52,5
 50
269.99997258566219
 41
1.4876954934750111
 72
     5
 11
8.3870059999999995
 21
-140.5382229999999
 31
0.0
  0
ENDBLK
  5
83A
  8
0
  0
BLOCK
  8
0
  2
BLOCK45
 70
     0
 10
0.0
 20
0.0
 30
0.0
  3
BLOCK45
  1

  0
TEXT
  5
83C
  8
0
 62
     7
 10
-8.8095459999999992
 20
-106.588257
 30
0.0
 40
3.0
  1
105
 50
270.0000223230831
 41
1.4327509593040979
 72
     5
 11
-8.8095429999999997
 21
-114.288239
 31
0.0
  0
ENDBLK
  5
83D
  8
0
  0
BLOCK
  8
0
  2
BLOCK46
 70
     0
 10
0.0
 20
0.0
 30
0.0
  3
BLOCK46
  1

  0
TEXT
  5
83F
  8
0
 62
     7
 10
141.11204499999999
 20
-7.1511229999999992
 30
0.0
 40
3.0
  1
89,75
 50
359.9999782969989
 41
1.4450281888505341
 72
     5
 11
154.31201200000001
 21
-7.151127999999999
 31
0.0
  0
ENDBLK
  5
840
  8
0
  0
BLOCK
  8
0
  2
BLOCK47
 70
     0
 10
0.0
 20
0.0
 30
0.0
  3
BLOCK47
  1

  0
TEXT
  5
842
  8
0
 62
     7
 10
-27.394632000000001
 20
-106.588257
 30
0.0
 40
3.0
  1
117
 50
270.00001488205538
 41
1.655910107526932
 72
     5
 11
-27.394629999999999
 21
-114.288239
 31
0.0
  0
ENDBLK
  5
843
  8
0
  0
BLOCK
  8
0
  2
BLOCK48
 70
     0
 10
0.0
 20
0.0
 30
0.0
  3
BLOCK48
  1

  0
TEXT
  5
845
  8
0
 62
     7
 10
101.7370609999999
 20
-189.75451699999991
 30
0.0
 40
3.0
  1
161
 41
1.655909892473117
 72
     5
 11
109.43704199999991
 21
-189.75451699999991
 31
0.0
  0
ENDBLK
  5
846
  8
0
  0
BLOCK
  8
0
  2
BLOCK49
 70
     0
 10
0.0
 20
0.0
 30
0.0
  3
BLOCK49
  1

  0
TEXT
  5
848
  8
0
 62
     7
 10
67.912658999999991
 20
-126.8381959999999
 30
0.0
 40
3.0
  1
35
 50
269.99990740070427
 41
1.2776612311953719
 72
     5
 11
67.912650999999997
 21
-131.78819300000001
 31
0.0
  0
ENDBLK
  5
849
  8
0
  0
BLOCK
  8
0
  2
BLOCK50
 70
     0
 10
0.0
 20
0.0
 30
0.0
  3
BLOCK50
  1

  0
TEXT
  5
84B
  8
0
 62
     7
 10
67.912658999999991
 20
-91.838195999999996
 30
0.0
 40
3.0
  1
35
 50
269.99990740055472
 41
1.277659166287078
 72
     5
 11
67.912650999999997
 21
-96.788184999999999
 31
0.0
  0
ENDBLK
  5
84C
  8
0
  0
BLOCK
  8
0
  2
BLOCK51
 70
     0
 10
0.0
 20
0.0
 30
0.0
  3
BLOCK51
  1

  0
TEXT
  5
84E
  8
0
 62
     7
 10
67.912658999999991
 20
-56.838195999999989
 30
0.0
 40
3.0
  1
35
 50
269.99990740055472
 41
1.277659166287078
 72
     5
 11
67.912650999999997
 21
-61.788184999999999
 31
0.0
  0
ENDBLK
  5
84F
  8
0
  0
BLOCK
  8
0
  2
BLOCK52
 70
     0
 10
0.0
 20
0.0
 30
0.0
  3
BLOCK52
  1

  0
TEXT
  5
851
  8
0
 62
     7
 10
266.88647500000002
 20
-18.288985999999991
 30
0.0
 40
3.0
  1
12
 50
270.0
 41
1.486404402593795
 72
     5
 11
266.88647500000002
 21
-23.238976000000001
 31
0.0
  0
ENDBLK
  5
852
  8
0
  0
BLOCK
  8
0
  2
BLOCK53
 70
     0
 10
0.0
 20
0.0
 30
0.0
  3
BLOCK53
  1

  0
TEXT
  5
854
  8
0
 62
     7
 10
266.88647500000002
 20
-12.788985999999991
 30
0.0
 40
3.0
  1
M
 50
270.0
 41
0.9777777777777775
 72
     5
 11
266.88647500000002
 21
-14.98898599999999
 31
0.0
  0
ENDBLK
  5
855
  8
0
  0
BLOCK
  8
0
  2
BLOCK54
 70
     0
 10
0.0
 20
0.0
 30
0.0
  3
BLOCK54
  1

  0
TEXT
  5
857
  8
0
 62
     7
 10
182.0
 20
-22.769988999999999
 30
0.0
 40
3.0
  1
48
 50
180.0
 41
1.22222148148148
 72
     5
 11
177.050003
 21
-22.769988999999999
 31
0.0
  0
ENDBLK
  5
858
  8
0
  0
BLOCK
  8
0
  2
BLOCK55
 70
     0
 10
0.0
 20
0.0
 30
0.0
  3
BLOCK55
  1

  0
TEXT
  5
85A
  8
0
 62
     7
 10
210.74999999999989
 20
7.0242309999999986
 30
0.0
 40
3.0
  1
100
 50
180.00000744102769
 41
1.466003618919135
 72
     5
 11
203.05001799999991
 21
7.0242300000000002
 31
0.0
  0
ENDBLK
  5
85B
  8
0
  0
BLOCK
  8
0
  2
BLOCK56
 70
     0
 10
0.0
 20
0.0
 30
0.0
  3
BLOCK56
  1

  0
TEXT
  5
85D
  8
0
 62
     7
 10
173.400024
 20
-178.86050399999999
 30
0.0
 40
3.0
  1
31
 50
180.0
 41
1.5714276190476171
 72
     5
 11
168.45002700000001
 21
-178.86050399999999
 31
0.0
  0
ENDBLK
  5
85E
  8
0
  0
BLOCK
  8
0
  2
BLOCK57
 70
     0
 10
0.0
 20
0.0
 30
0.0
  3
BLOCK57
  1

  0
TEXT
  5
860
  8
0
 62
     7
 10
199.40014599999989
 20
-10.03259299999999
 30
0.0
 40
3.0
  1
83
 50
180.00001157491431
 41
1.27766097308019
 72
     5
 11
194.45015000000001
 21
-10.032593999999991
 31
0.0
  0
ENDBLK
  5
861
  8
0
  0
BLOCK
  8
0
  2
BLOCK58
 70
     0
 10
0.0
 20
0.0
 30
0.0
  3
BLOCK58
  1

  0
TEXT
  5
863
  8
0
 62
     7
 10
-4.0
 20
-83.0
 30
0.0
 40
3.0
  1
X
 50
90.0
 41
0.9777764444444425
 72
     5
 11
-4.0
 21
-80.800003000000004
 31
0.0
  0
ENDBLK
  5
864
  8
0
  0
BLOCK
  8
0
  2
BLOCK59
 70
     0
 10
0.0
 20
0.0
 30
0.0
  3
BLOCK59
  1

  0
TEXT
  5
866
  8
0
 62
     7
 10
-1.0
 20
99.0
 30
0.0
 40
3.0
  1
X
 50
90.0
 41
0.9777764444444425
 72
     5
 11
-1.0
 21
101.1999969999999
 31
0.0
  0
ENDBLK
  5
867
  8
0
  0
BLOCK
  8
0
  2
BLOCK60
 70
     0
 10
0.0
 20
0.0
 30
0.0
  3
BLOCK60
  1

  0
TEXT
  5
869
  8
0
 62
     7
 10
-139.0
 20
0.0
 30
0.0
 40
3.0
  1
Y
 50
90.0
 41
0.9777777777777778
 72
     5
 11
-139.0
 21
2.2000000000000002
 31
0.0
  0
ENDBLK
  5
86A
  8
0
  0
BLOCK
  8
0
  2
BLOCK61
 70
     0
 10
0.0
 20
0.0
 30
0.0
  3
BLOCK61
  1

  0
TEXT
  5
86C
  8
0
 62
     7
 10
107.0
 20
-2.0
 30
0.0
 40
3.0
  1
Y
 50
90.0
 41
0.9777777777777778
 72
     5
 11
107.0
 21
0.2
 31
0.0
  0
ENDBLK
  5
86D
  8
0
  0
BLOCK
  8
0
  2
BLOCK62
 70
     0
 10
0.0
 20
0.0
 30
0.0
  3
BLOCK62
  1

  0
TEXT
  5
86F
  8
0
 62
     7
 10
18.75
 20
-95.459472999999988
 30
0.0
 40
3.0
  1
112
 50
179.99994047176281
 41
1.5941402843842269
 72
     5
 11
11.05002
 21
-95.459465000000009
 31
0.0
  0
ENDBLK
  5
870
  8
0
  0
BLOCK
  8
0
  2
BLOCK63
 70
     0
 10
0.0
 20
0.0
 30
0.0
  3
BLOCK63
  1

  0
TEXT
  5
872
  8
0
 62
     7
 10
18.75
 20
-126.6910399999999
 30
0.0
 40
3.0
  1
142
 50
179.9999404717629
 41
1.343759499542108
 72
     5
 11
11.05002
 21
-126.69103200000001
 31
0.0
  0
ENDBLK
  5
873
  8
0
  0
BLOCK
  8
0
  2
BLOCK64
 70
     0
 10
0.0
 20
0.0
 30
0.0
  3
BLOCK64
  1

  0
TEXT
  5
875
  8
0
 62
     7
 10
-107.01321399999991
 20
-11.0
 30
0.0
 40
3.0
  1
80
 50
90.0
 41
1.3191663623963901
 72
     5
 11
-107.01321399999991
 21
-6.0500099999999994
 31
0.0
  0
ENDBLK
  5
876
  8
0
  0
BLOCK
  8
0
  2
BLOCK65
 70
     0
 10
0.0
 20
0.0
 30
0.0
  3
BLOCK65
  1

  0
TEXT
  5
878
  8
0
 62
     7
 10
-133.64590499999991
 20
-16.5
 30
0.0
 40
3.0
  1
112
 50
90.0
 41
1.594140284383367
 72
     5
 11
-133.64590499999991
 21
-8.8000199999999982
 31
0.0
  0
ENDBLK
  5
879
  8
0
  0
BLOCK
  8
0
  2
BLOCK66
 70
     0
 10
0.0
 20
0.0
 30
0.0
  3
BLOCK66
  1

  0
TEXT
  5
87B
  8
0
 62
     7
 10
122.342247
 20
-111.27027099999989
 30
0.0
 40
3.0
  1
 7
 50
127.20899881553621
 41
1.736838138050403
 72
     5
 11
119.34886899999989
 21
-107.327927
 31
0.0
  0
ENDBLK
  5
87C
  8
0
  0
BLOCK
  8
0
  2
BLOCK67
 70
     0
 10
0.0
 20
0.0
 30
0.0
  3
BLOCK67
  1

  0
TEXT
  5
87E
  8
0
 62
     7
 10
123.30978399999999
 20
-112.5445559999999
 30
0.0
 40
3.0
  1
%%c
 50
127.2089187033536
 41
0.9777779165820176
 72
     5
 11
121.9793929999999
 21
-110.79239699999989
 31
0.0
  0
ENDBLK
  5
87F
  8
0
  0
ENDSEC
  0
SECTION
  2
ENTITIES
  0
LINE
  5
25
  8
0
  6
DASHDOT
 62
     7
 10
448.96386699999988
 20
897.05717699999991
 30
0.0
 11
448.96386699999988
 21
618.54665599999998
 31
0.0
  0
POLYLINE
  5
26
  8
0
 62
     3
 66
     1
 10
0.0
 20
0.0
 30
0.0
  0
VERTEX
  5
8D7
  8
0
 62
     3
 10
526.46386699999994
 20
850.42896499999995
 30
0.0
  0
VERTEX
  5
8D8
  8
0
 62
     3
 10
526.46386699999994
 20
834.42896499999995
 30
0.0
  0
VERTEX
  5
8D9
  8
0
 62
     3
 10
528.46386699999994
 20
833.42896499999995
 30
0.0
  0
VERTEX
  5
8DA
  8
0
 62
     3
 10
524.46386699999994
 20
832.42896499999995
 30
0.0
  0
VERTEX
  5
8DB
  8
0
 62
     3
 10
526.46386699999994
 20
831.42896499999995
 30
0.0
  0
VERTEX
  5
8DC
  8
0
 62
     3
 10
526.46386699999994
 20
815.42896499999995
 30
0.0
  0
VERTEX
  5
8DD
  8
0
 62
     3
 10
528.46386699999994
 20
814.42896500000006
 30
0.0
  0
VERTEX
  5
8DE
  8
0
 62
     3
 10
524.46386699999994
 20
813.42896500000006
 30
0.0
  0
VERTEX
  5
8DF
  8
0
 62
     3
 10
526.46386699999994
 20
812.42896500000006
 30
0.0
  0
VERTEX
  5
8E0
  8
0
 62
     3
 10
526.46386699999994
 20
796.42896499999995
 30
0.0
  0
VERTEX
  5
8E1
  8
0
 62
     3
 10
528.46386699999994
 20
795.42896499999995
 30
0.0
  0
VERTEX
  5
8E2
  8
0
 62
     3
 10
524.46386699999994
 20
794.42896499999995
 30
0.0
  0
VERTEX
  5
8E3
  8
0
 62
     3
 10
526.46386699999994
 20
793.42896500000006
 30
0.0
  0
VERTEX
  5
8E4
  8
0
 62
     3
 10
526.46386699999994
 20
777.42896499999995
 30
0.0
  0
VERTEX
  5
8E5
  8
0
 62
     3
 10
528.46386699999994
 20
776.42896500000006
 30
0.0
  0
VERTEX
  5
8E6
  8
0
 62
     3
 10
524.46386699999994
 20
775.42896499999995
 30
0.0
  0
VERTEX
  5
8E7
  8
0
 62
     3
 10
526.46386699999994
 20
774.42896499999995
 30
0.0
  0
VERTEX
  5
8E8
  8
0
 62
     3
 10
526.46386699999994
 20
758.42896499999995
 30
0.0
  0
VERTEX
  5
8E9
  8
0
 62
     3
 10
528.46386699999994
 20
757.42896499999995
 30
0.0
  0
VERTEX
  5
8EA
  8
0
 62
     3
 10
524.46386699999994
 20
756.42896499999995
 30
0.0
  0
VERTEX
  5
8EB
  8
0
 62
     3
 10
526.46386699999994
 20
755.42896500000006
 30
0.0
  0
VERTEX
  5
8EC
  8
0
 62
     3
 10
526.46386699999994
 20
739.42896500000006
 30
0.0
  0
VERTEX
  5
8ED
  8
0
 62
     3
 10
528.46386699999994
 20
738.42896499999995
 30
0.0
  0
VERTEX
  5
8EE
  8
0
 62
     3
 10
524.46386699999994
 20
737.42896499999995
 30
0.0
  0
VERTEX
  5
8EF
  8
0
 62
     3
 10
526.46386699999994
 20
736.42896499999995
 30
0.0
  0
VERTEX
  5
8F0
  8
0
 62
     3
 10
526.46386699999994
 20
720.42896499999995
 30
0.0
  0
VERTEX
  5
8F1
  8
0
 62
     3
 10
528.46386699999994
 20
719.42896499999995
 30
0.0
  0
VERTEX
  5
8F2
  8
0
 62
     3
 10
524.46386699999994
 20
718.42896500000006
 30
0.0
  0
VERTEX
  5
8F3
  8
0
 62
     3
 10
526.46386699999994
 20
717.42896499999995
 30
0.0
  0
VERTEX
  5
8F4
  8
0
 62
     3
 10
526.46386699999994
 20
701.42896500000006
 30
0.0
  0
VERTEX
  5
8F5
  8
0
 62
     3
 10
528.46386699999994
 20
700.42896499999995
 30
0.0
  0
VERTEX
  5
8F6
  8
0
 62
     3
 10
524.46386699999994
 20
699.42896499999995
 30
0.0
  0
VERTEX
  5
8F7
  8
0
 62
     3
 10
526.46386699999994
 20
698.42896499999995
 30
0.0
  0
VERTEX
  5
8F8
  8
0
 62
     3
 10
526.46386699999994
 20
682.42896499999995
 30
0.0
  0
VERTEX
  5
8F9
  8
0
 62
     3
 10
528.46386699999994
 20
681.42896499999995
 30
0.0
  0
VERTEX
  5
8FA
  8
0
 62
     3
 10
524.46386699999994
 20
680.42896500000006
 30
0.0
  0
VERTEX
  5
8FB
  8
0
 62
     3
 10
526.46386699999994
 20
679.42896499999995
 30
0.0
  0
VERTEX
  5
8FC
  8
0
 62
     3
 10
526.46386699999994
 20
663.42896499999995
 30
0.0
  0
VERTEX
  5
8FD
  8
0
 62
     3
 10
528.46386699999994
 20
662.42896499999995
 30
0.0
  0
VERTEX
  5
8FE
  8
0
 62
     3
 10
524.46386699999994
 20
661.42896499999995
 30
0.0
  0
VERTEX
  5
8FF
  8
0
 62
     3
 10
526.46386699999994
 20
660.42896500000006
 30
0.0
  0
VERTEX
  5
900
  8
0
 62
     3
 10
526.46386699999994
 20
645.35830899999985
 30
0.0
  0
SEQEND
  5
901
  8
0
 62
     3
  0
POLYLINE
  5
52
  8
0
 62
     3
 66
     1
 10
0.0
 20
0.0
 30
0.0
  0
VERTEX
  5
902
  8
0
 62
     3
 10
526.46386699999994
 20
645.35830899999985
 30
0.0
  0
VERTEX
  5
903
  8
0
 62
     3
 10
510.46386699999988
 20
645.35830899999985
 30
0.0
  0
VERTEX
  5
904
  8
0
 62
     3
 10
509.46386699999999
 20
643.35830899999985
 30
0.0
  0
VERTEX
  5
905
  8
0
 62
     3
 10
508.46386699999999
 20
647.35830899999985
 30
0.0
  0
VERTEX
  5
906
  8
0
 62
     3
 10
507.46386699999988
 20
645.35830899999985
 30
0.0
  0
VERTEX
  5
907
  8
0
 62
     3
 10
491.46386699999999
 20
645.35830899999985
 30
0.0
  0
VERTEX
  5
908
  8
0
 62
     3
 10
490.46386699999988
 20
643.35830899999985
 30
0.0
  0
VERTEX
  5
909
  8
0
 62
     3
 10
489.46386699999988
 20
647.35830899999985
 30
0.0
  0
VERTEX
  5
90A
  8
0
 62
     3
 10
488.46386699999999
 20
645.35830899999985
 30
0.0
  0
VERTEX
  5
90B
  8
0
 62
     3
 10
472.46386699999999
 20
645.35830899999985
 30
0.0
  0
VERTEX
  5
90C
  8
0
 62
     3
 10
471.46386899999999
 20
643.35830899999985
 30
0.0
  0
VERTEX
  5
90D
  8
0
 62
     3
 10
470.46386899999999
 20
647.35830899999985
 30
0.0
  0
VERTEX
  5
90E
  8
0
 62
     3
 10
469.46386699999988
 20
645.35830899999985
 30
0.0
  0
VERTEX
  5
90F
  8
0
 62
     3
 10
453.46386799999988
 20
645.35830899999985
 30
0.0
  0
VERTEX
  5
910
  8
0
 62
     3
 10
452.46386799999988
 20
643.35830899999985
 30
0.0
  0
VERTEX
  5
911
  8
0
 62
     3
 10
451.46386799999999
 20
647.35830899999985
 30
0.0
  0
VERTEX
  5
912
  8
0
 62
     3
 10
450.46386799999999
 20
645.35830899999985
 30
0.0
  0
VERTEX
  5
913
  8
0
 62
     3
 10
434.46386799999999
 20
645.35830899999985
 30
0.0
  0
VERTEX
  5
914
  8
0
 62
     3
 10
433.46386799999999
 20
643.35830899999985
 30
0.0
  0
VERTEX
  5
915
  8
0
 62
     3
 10
432.46386899999999
 20
647.35830899999985
 30
0.0
  0
VERTEX
  5
916
  8
0
 62
     3
 10
431.46386699999988
 20
645.35830899999985
 30
0.0
  0
VERTEX
  5
917
  8
0
 62
     3
 10
415.46386699999988
 20
645.35830899999985
 30
0.0
  0
VERTEX
  5
918
  8
0
 62
     3
 10
414.46386699999988
 20
643.35830899999985
 30
0.0
  0
VERTEX
  5
919
  8
0
 62
     3
 10
413.46386699999999
 20
647.35830899999985
 30
0.0
  0
VERTEX
  5
91A
  8
0
 62
     3
 10
412.46386699999999
 20
645.35830899999985
 30
0.0
  0
VERTEX
  5
91B
  8
0
 62
     3
 10
396.46386699999988
 20
645.35830899999985
 30
0.0
  0
VERTEX
  5
91C
  8
0
 62
     3
 10
395.46386699999988
 20
643.35830899999985
 30
0.0
  0
VERTEX
  5
91D
  8
0
 62
     3
 10
394.46386699999999
 20
647.35830899999985
 30
0.0
  0
VERTEX
  5
91E
  8
0
 62
     3
 10
393.46386699999999
 20
645.35830899999985
 30
0.0
  0
VERTEX
  5
91F
  8
0
 62
     3
 10
377.46386699999988
 20
645.35830899999985
 30
0.0
  0
VERTEX
  5
920
  8
0
 62
     3
 10
376.46386699999999
 20
643.35830899999985
 30
0.0
  0
VERTEX
  5
921
  8
0
 62
     3
 10
375.46386699999988
 20
647.35830899999985
 30
0.0
  0
VERTEX
  5
922
  8
0
 62
     3
 10
374.46386699999999
 20
645.35830899999985
 30
0.0
  0
VERTEX
  5
923
  8
0
 62
     3
 10
358.46386699999988
 20
645.35830899999985
 30
0.0
  0
VERTEX
  5
924
  8
0
 62
     3
 10
357.46386699999999
 20
643.35830899999985
 30
0.0
  0
VERTEX
  5
925
  8
0
 62
     3
 10
356.46386699999988
 20
647.35830899999985
 30
0.0
  0
VERTEX
  5
926
  8
0
 62
     3
 10
355.46386699999999
 20
645.35830899999985
 30
0.0
  0
VERTEX
  5
927
  8
0
 62
     3
 10
348.96386699999999
 20
645.35830899999985
 30
0.0
  0
SEQEND
  5
928
  8
0
 62
     3
  0
POLYLINE
  5
7A
  8
0
 62
     3
 66
     1
 10
0.0
 20
0.0
 30
0.0
  0
VERTEX
  5
929
  8
0
 62
     3
 10
348.96386699999999
 20
850.42896499999995
 30
0.0
  0
VERTEX
  5
92A
  8
0
 62
     3
 10
348.96386699999999
 20
834.42896499999995
 30
0.0
  0
VERTEX
  5
92B
  8
0
 62
     3
 10
350.96386699999999
 20
833.42896499999995
 30
0.0
  0
VERTEX
  5
92C
  8
0
 62
     3
 10
346.96386699999999
 20
832.42896499999995
 30
0.0
  0
VERTEX
  5
92D
  8
0
 62
     3
 10
348.96386699999999
 20
831.42896499999995
 30
0.0
  0
VERTEX
  5
92E
  8
0
 62
     3
 10
348.96386699999999
 20
815.42896499999995
 30
0.0
  0
VERTEX
  5
92F
  8
0
 62
     3
 10
350.96386699999999
 20
814.42896500000006
 30
0.0
  0
VERTEX
  5
930
  8
0
 62
     3
 10
346.96386699999999
 20
813.42896500000006
 30
0.0
  0
VERTEX
  5
931
  8
0
 62
     3
 10
348.96386699999999
 20
812.42896500000006
 30
0.0
  0
VERTEX
  5
932
  8
0
 62
     3
 10
348.96386699999999
 20
796.42896499999995
 30
0.0
  0
VERTEX
  5
933
  8
0
 62
     3
 10
350.96386699999999
 20
795.42896499999995
 30
0.0
  0
VERTEX
  5
934
  8
0
 62
     3
 10
346.96386699999999
 20
794.42896499999995
 30
0.0
  0
VERTEX
  5
935
  8
0
 62
     3
 10
348.96386699999999
 20
793.42896500000006
 30
0.0
  0
VERTEX
  5
936
  8
0
 62
     3
 10
348.96386699999999
 20
777.42896499999995
 30
0.0
  0
VERTEX
  5
937
  8
0
 62
     3
 10
350.96386699999999
 20
776.42896500000006
 30
0.0
  0
VERTEX
  5
938
  8
0
 62
     3
 10
346.96386699999999
 20
775.42896499999995
 30
0.0
  0
VERTEX
  5
939
  8
0
 62
     3
 10
348.96386699999999
 20
774.42896499999995
 30
0.0
  0
VERTEX
  5
93A
  8
0
 62
     3
 10
348.96386699999999
 20
758.42896499999995
 30
0.0
  0
VERTEX
  5
93B
  8
0
 62
     3
 10
350.96386699999999
 20
757.42896499999995
 30
0.0
  0
VERTEX
  5
93C
  8
0
 62
     3
 10
346.96386699999999
 20
756.42896499999995
 30
0.0
  0
VERTEX
  5
93D
  8
0
 62
     3
 10
348.96386699999999
 20
755.42896500000006
 30
0.0
  0
VERTEX
  5
93E
  8
0
 62
     3
 10
348.96386699999999
 20
739.42896500000006
 30
0.0
  0
VERTEX
  5
93F
  8
0
 62
     3
 10
350.96386699999999
 20
738.42896499999995
 30
0.0
  0
VERTEX
  5
940
  8
0
 62
     3
 10
346.96386699999999
 20
737.42896499999995
 30
0.0
  0
VERTEX
  5
941
  8
0
 62
     3
 10
348.96386699999999
 20
736.42896499999995
 30
0.0
  0
VERTEX
  5
942
  8
0
 62
     3
 10
348.96386699999999
 20
720.42896499999995
 30
0.0
  0
VERTEX
  5
943
  8
0
 62
     3
 10
350.96386699999999
 20
719.42896499999995
 30
0.0
  0
VERTEX
  5
944
  8
0
 62
     3
 10
346.96386699999999
 20
718.42896500000006
 30
0.0
  0
VERTEX
  5
945
  8
0
 62
     3
 10
348.96386699999999
 20
717.42896499999995
 30
0.0
  0
VERTEX
  5
946
  8
0
 62
     3
 10
348.96386699999999
 20
701.42896500000006
 30
0.0
  0
VERTEX
  5
947
  8
0
 62
     3
 10
350.96386699999999
 20
700.42896499999995
 30
0.0
  0
VERTEX
  5
948
  8
0
 62
     3
 10
346.96386699999999
 20
699.42896499999995
 30
0.0
  0
VERTEX
  5
949
  8
0
 62
     3
 10
348.96386699999999
 20
698.42896499999995
 30
0.0
  0
VERTEX
  5
94A
  8
0
 62
     3
 10
348.96386699999999
 20
682.42896499999995
 30
0.0
  0
VERTEX
  5
94B
  8
0
 62
     3
 10
350.96386699999999
 20
681.42896499999995
 30
0.0
  0
VERTEX
  5
94C
  8
0
 62
     3
 10
346.96386699999999
 20
680.42896500000006
 30
0.0
  0
VERTEX
  5
94D
  8
0
 62
     3
 10
348.96386699999999
 20
679.42896499999995
 30
0.0
  0
VERTEX
  5
94E
  8
0
 62
     3
 10
348.96386699999999
 20
663.42896499999995
 30
0.0
  0
VERTEX
  5
94F
  8
0
 62
     3
 10
350.96386699999999
 20
662.42896499999995
 30
0.0
  0
VERTEX
  5
950
  8
0
 62
     3
 10
346.96386699999999
 20
661.42896499999995
 30
0.0
  0
VERTEX
  5
951
  8
0
 62
     3
 10
348.96386699999999
 20
660.42896500000006
 30
0.0
  0
VERTEX
  5
952
  8
0
 62
     3
 10
348.96386699999999
 20
645.35830899999985
 30
0.0
  0
SEQEND
  5
953
  8
0
 62
     3
  0
POLYLINE
  5
A6
  8
0
 62
     3
 66
     1
 10
0.0
 20
0.0
 30
0.0
  0
VERTEX
  5
954
  8
0
 62
     3
 10
526.46386699999994
 20
850.42896499999995
 30
0.0
  0
VERTEX
  5
955
  8
0
 62
     3
 10
510.46386699999988
 20
850.42896499999995
 30
0.0
  0
VERTEX
  5
956
  8
0
 62
     3
 10
509.46386699999999
 20
848.42896499999995
 30
0.0
  0
VERTEX
  5
957
  8
0
 62
     3
 10
508.46386699999999
 20
852.42896499999995
 30
0.0
  0
VERTEX
  5
958
  8
0
 62
     3
 10
507.46386699999988
 20
850.42896499999995
 30
0.0
  0
VERTEX
  5
959
  8
0
 62
     3
 10
491.46386699999999
 20
850.42896499999995
 30
0.0
  0
VERTEX
  5
95A
  8
0
 62
     3
 10
490.46386699999988
 20
848.42896499999995
 30
0.0
  0
VERTEX
  5
95B
  8
0
 62
     3
 10
489.46386699999988
 20
852.42896499999995
 30
0.0
  0
VERTEX
  5
95C
  8
0
 62
     3
 10
488.46386699999999
 20
850.42896499999995
 30
0.0
  0
VERTEX
  5
95D
  8
0
 62
     3
 10
472.46386699999999
 20
850.42896499999995
 30
0.0
  0
VERTEX
  5
95E
  8
0
 62
     3
 10
471.46386899999999
 20
848.42896499999995
 30
0.0
  0
VERTEX
  5
95F
  8
0
 62
     3
 10
470.46386899999999
 20
852.42896499999995
 30
0.0
  0
VERTEX
  5
960
  8
0
 62
     3
 10
469.46386699999988
 20
850.42896499999995
 30
0.0
  0
VERTEX
  5
961
  8
0
 62
     3
 10
453.46386799999988
 20
850.42896499999995
 30
0.0
  0
VERTEX
  5
962
  8
0
 62
     3
 10
452.46386799999988
 20
848.42896499999995
 30
0.0
  0
VERTEX
  5
963
  8
0
 62
     3
 10
451.46386799999999
 20
852.42896499999995
 30
0.0
  0
VERTEX
  5
964
  8
0
 62
     3
 10
450.46386799999999
 20
850.42896499999995
 30
0.0
  0
VERTEX
  5
965
  8
0
 62
     3
 10
434.46386799999999
 20
850.42896499999995
 30
0.0
  0
VERTEX
  5
966
  8
0
 62
     3
 10
433.46386799999999
 20
848.42896499999995
 30
0.0
  0
VERTEX
  5
967
  8
0
 62
     3
 10
432.46386899999999
 20
852.42896499999995
 30
0.0
  0
VERTEX
  5
968
  8
0
 62
     3
 10
431.46386699999988
 20
850.42896499999995
 30
0.0
  0
VERTEX
  5
969
  8
0
 62
     3
 10
415.46386699999988
 20
850.42896499999995
 30
0.0
  0
VERTEX
  5
96A
  8
0
 62
     3
 10
414.46386699999988
 20
848.42896499999995
 30
0.0
  0
VERTEX
  5
96B
  8
0
 62
     3
 10
413.46386699999999
 20
852.42896499999995
 30
0.0
  0
VERTEX
  5
96C
  8
0
 62
     3
 10
412.46386699999999
 20
850.42896499999995
 30
0.0
  0
VERTEX
  5
96D
  8
0
 62
     3
 10
396.46386699999988
 20
850.42896499999995
 30
0.0
  0
VERTEX
  5
96E
  8
0
 62
     3
 10
395.46386699999988
 20
848.42896499999995
 30
0.0
  0
VERTEX
  5
96F
  8
0
 62
     3
 10
394.46386699999999
 20
852.42896499999995
 30
0.0
  0
VERTEX
  5
970
  8
0
 62
     3
 10
393.46386699999999
 20
850.42896499999995
 30
0.0
  0
VERTEX
  5
971
  8
0
 62
     3
 10
377.46386699999988
 20
850.42896499999995
 30
0.0
  0
VERTEX
  5
972
  8
0
 62
     3
 10
376.46386699999999
 20
848.42896499999995
 30
0.0
  0
VERTEX
  5
973
  8
0
 62
     3
 10
375.46386699999988
 20
852.42896499999995
 30
0.0
  0
VERTEX
  5
974
  8
0
 62
     3
 10
374.46386699999999
 20
850.42896499999995
 30
0.0
  0
VERTEX
  5
975
  8
0
 62
     3
 10
358.46386699999988
 20
850.42896499999995
 30
0.0
  0
VERTEX
  5
976
  8
0
 62
     3
 10
357.46386699999999
 20
848.42896499999995
 30
0.0
  0
VERTEX
  5
977
  8
0
 62
     3
 10
356.46386699999988
 20
852.42896499999995
 30
0.0
  0
VERTEX
  5
978
  8
0
 62
     3
 10
355.46386699999999
 20
850.42896499999995
 30
0.0
  0
VERTEX
  5
979
  8
0
 62
     3
 10
348.96386699999999
 20
850.42896499999995
 30
0.0
  0
SEQEND
  5
97A
  8
0
 62
     3
  0
LINE
  5
CE
  8
0
  6
DASHDOT
 62
     7
 10
473.96386699999988
 20
810.97480999999993
 30
0.0
 11
473.96386699999988
 21
675.69948799999986
 31
0.0
  0
LINE
  5
CF
  8
0
  6
DASHDOT
 62
     7
 10
368.96386699999988
 20
812.16143199999999
 30
0.0
 11
368.96386699999988
 21
675.1061729999999
 31
0.0
  0
LINE
  5
D0
  8
0
  6
DASHDOT
 62
     7
 10
503.57267000000002
 20
794.85830899999985
 30
0.0
 11
373.63716099999988
 21
794.85830899999985
 31
0.0
  0
LINE
  5
D1
  8
0
  6
DASHDOT
 62
     7
 10
505.35260799999998
 20
694.85830899999985
 30
0.0
 11
371.85722399999997
 21
694.85830899999985
 31
0.0
  0
CIRCLE
  5
D2
  8
0
 62
     7
 10
368.96386699999988
 20
794.85830899999985
 30
0.0
 40
2.5
  0
CIRCLE
  5
D3
  8
0
 62
     7
 10
473.96386699999988
 20
794.85830899999985
 30
0.0
 40
2.5
  0
CIRCLE
  5
D4
  8
0
 62
     7
 10
368.96386699999988
 20
694.85830899999985
 30
0.0
 40
2.5
  0
CIRCLE
  5
D5
  8
0
 62
     7
 10
473.96386699999988
 20
694.85830899999985
 30
0.0
 40
2.5
  0
LINE
  5
D6
  8
0
  6
DASHDOT
 62
     7
 10
563.16800699999988
 20
816.35830899999985
 30
0.0
 11
371.78430900000001
 21
816.35830899999985
 31
0.0
  0
LINE
  5
D7
  8
0
  6
DASHDOT
 62
     7
 10
563.16800699999988
 20
673.35830899999985
 30
0.0
 11
339.91163599999987
 21
673.35830899999985
 31
0.0
  0
LINE
  5
D8
  8
0
  6
DASHDOT
 62
     7
 10
483.96386699999999
 20
861.42928500000005
 30
0.0
 11
483.96386699999999
 21
619.78856900000005
 31
0.0
  0
LINE
  5
D9
  8
0
  6
DASHDOT
 62
     7
 10
378.96386699999988
 20
861.42928500000005
 30
0.0
 11
378.96386699999988
 21
619.78856900000005
 31
0.0
  0
ARC
  5
DA
  8
0
 62
     7
 10
483.96386699999999
 20
816.35830899999985
 30
0.0
 40
14.0
 50
270.00000299999988
 51
90.000000999999983
  0
ARC
  5
DB
  8
0
 62
     7
 10
378.96386699999988
 20
816.35830899999985
 30
0.0
 40
14.0
 50
90.000000999999983
 51
270.00000299999988
  0
ARC
  5
DC
  8
0
 62
     7
 10
378.96386699999988
 20
673.35830899999985
 30
0.0
 40
14.0
 50
90.000000999999983
 51
270.00000299999988
  0
ARC
  5
DD
  8
0
 62
     7
 10
483.96386699999999
 20
673.35830899999985
 30
0.0
 40
14.0
 50
270.00000299999988
 51
90.000000999999983
  0
LINE
  5
DE
  8
0
 62
     7
 10
483.96386699999999
 20
687.35830899999985
 30
0.0
 11
378.96386699999988
 21
687.35830899999985
 31
0.0
  0
LINE
  5
DF
  8
0
 62
     7
 10
483.96386699999999
 20
659.35830899999996
 30
0.0
 11
378.96386699999988
 21
659.35830899999996
 31
0.0
  0
LINE
  5
E0
  8
0
 62
     7
 10
483.96386699999999
 20
802.35830899999985
 30
0.0
 11
378.96386699999988
 21
802.35830899999985
 31
0.0
  0
LINE
  5
E1
  8
0
 62
     7
 10
483.96386699999999
 20
830.35830899999996
 30
0.0
 11
378.96386699999988
 21
830.35830899999996
 31
0.0
  0
CIRCLE
  5
E2
  8
0
 62
     7
 10
378.830467
 20
836.75928699999986
 30
0.0
 40
0.2
  0
LINE
  5
E3
  8
0
  6
DASHDOT
 62
     7
 10
534.48924999999986
 20
742.60830899999985
 30
0.0
 11
332.95140800000001
 21
742.60830899999985
 31
0.0
  0
LINE
  5
E4
  8
0
 62
     7
 10
473.96386699999988
 20
602.72201699999994
 30
0.0
 11
485.78149400000001
 21
600.63824699999998
 31
0.0
  0
LINE
  5
E5
  8
0
 62
     7
 10
473.96386699999988
 20
602.72201699999994
 30
0.0
 11
485.78149400000001
 21
604.80578799999989
 31
0.0
  0
LINE
  5
E6
  8
0
 62
     7
 10
448.96386699999988
 20
602.72201699999994
 30
0.0
 11
437.14623999999998
 21
604.80578799999989
 31
0.0
  0
LINE
  5
E7
  8
0
 62
     7
 10
448.96386699999988
 20
602.72201699999994
 30
0.0
 11
437.14623999999998
 21
600.63824699999998
 31
0.0
  0
LINE
  5
E8
  8
0
 62
     7
 10
368.96386699999988
 20
602.72201699999994
 30
0.0
 11
380.78149400000001
 21
600.63824699999998
 31
0.0
  0
LINE
  5
E9
  8
0
 62
     7
 10
368.96386699999988
 20
602.72201699999994
 30
0.0
 11
380.78149400000001
 21
604.80578799999989
 31
0.0
  0
LINE
  5
EA
  8
0
 62
     7
 10
507.96386699999999
 20
602.72201699999994
 30
0.0
 11
368.96386699999988
 21
602.72201699999994
 31
0.0
  0
LINE
  5
EB
  8
0
 62
     7
 10
473.96386699999988
 20
594.72201699999994
 30
0.0
 11
473.96386699999988
 21
675.69949500000007
 31
0.0
  0
LINE
  5
EC
  8
0
 62
     7
 10
448.96386699999988
 20
594.72201699999994
 30
0.0
 11
448.96386699999988
 21
618.54666299999985
 31
0.0
  0
LINE
  5
ED
  8
0
 62
     7
 10
368.96386699999988
 20
594.72201699999994
 30
0.0
 11
368.96386699999988
 21
675.1061729999999
 31
0.0
  0
LINE
  5
EE
  8
0
 62
     7
 10
366.86010699999991
 20
693.50756999999987
 30
0.0
 11
355.79003899999998
 21
688.87588700000003
 31
0.0
  0
LINE
  5
EF
  8
0
 62
     7
 10
366.86010699999991
 20
693.50756999999987
 30
0.0
 11
358.04174799999993
 21
685.36901999999986
 31
0.0
  0
LINE
  5
F0
  8
0
 62
     7
 10
371.06762700000002
 20
696.20904699999994
 30
0.0
 11
382.13769500000001
 21
700.84069999999997
 31
0.0
  0
LINE
  5
F1
  8
0
 62
     7
 10
371.06762700000002
 20
696.20904699999994
 30
0.0
 11
379.885986
 21
704.34759699999995
 31
0.0
  0
LINE
  5
F2
  8
0
 62
     7
 10
371.27783199999988
 20
696.34414900000002
 30
0.0
 11
229.24438499999999
 21
605.14612
 31
0.0
  0
LINE
  5
F3
  8
0
 62
     7
 10
497.51513699999998
 20
819.87448300000005
 30
0.0
 11
509.47729500000003
 21
820.82557899999995
 31
0.0
  0
LINE
  5
F4
  8
0
 62
     7
 10
497.51513699999998
 20
819.87448300000005
 30
0.0
 11
508.43066399999998
 21
824.85954499999991
 31
0.0
  0
LINE
  5
F5
  8
0
 62
     7
 10
482.898438
 20
816.08185000000014
 30
0.0
 11
574.10961899999995
 21
839.74862899999994
 31
0.0
  0
LINE
  5
F6
  8
0
 62
     7
 10
483.96386699999999
 20
911.93283299999996
 30
0.0
 11
472.14623999999998
 21
914.01660299999992
 31
0.0
  0
LINE
  5
F7
  8
0
 62
     7
 10
483.96386699999999
 20
911.93283299999996
 30
0.0
 11
472.14623999999998
 21
909.84904699999993
 31
0.0
  0
LINE
  5
F8
  8
0
 62
     7
 10
378.96386699999988
 20
911.93283299999996
 30
0.0
 11
390.78149400000001
 21
909.84906199999989
 31
0.0
  0
LINE
  5
F9
  8
0
 62
     7
 10
378.96386699999988
 20
911.93283299999996
 30
0.0
 11
390.78149400000001
 21
914.01661899999999
 31
0.0
  0
LINE
  5
FA
  8
0
 62
     7
 10
483.96386699999999
 20
911.93283299999996
 30
0.0
 11
378.96386699999988
 21
911.93283299999996
 31
0.0
  0
LINE
  5
FB
  8
0
 62
     7
 10
483.96386699999999
 20
919.93283299999996
 30
0.0
 11
483.96386699999999
 21
861.42929299999992
 31
0.0
  0
LINE
  5
FC
  8
0
 62
     7
 10
378.96386699999988
 20
919.93283299999996
 30
0.0
 11
378.96386699999988
 21
861.42929299999992
 31
0.0
  0
LINE
  5
FD
  8
0
 62
     7
 10
604.29028300000004
 20
816.35830899999985
 30
0.0
 11
602.20629900000006
 21
804.54062099999987
 31
0.0
  0
LINE
  5
FE
  8
0
 62
     7
 10
604.29028300000004
 20
816.35830899999985
 30
0.0
 11
606.37402299999997
 21
804.54062099999987
 31
0.0
  0
LINE
  5
FF
  8
0
 62
     7
 10
604.29003899999987
 20
673.35830899999985
 30
0.0
 11
606.37402299999997
 21
685.17599699999994
 31
0.0
  0
LINE
  5
100
  8
0
 62
     7
 10
604.29003899999987
 20
673.35830899999985
 30
0.0
 11
602.20629900000006
 21
685.17599699999994
 31
0.0
  0
LINE
  5
101
  8
0
 62
     7
 10
604.29028300000004
 20
816.35830899999985
 30
0.0
 11
604.29003899999987
 21
673.35830899999985
 31
0.0
  0
LINE
  5
102
  8
0
 62
     7
 10
612.29028300000004
 20
816.35830899999985
 30
0.0
 11
563.16796900000008
 21
816.35830899999985
 31
0.0
  0
LINE
  5
103
  8
0
 62
     7
 10
612.29003899999987
 20
673.35830899999985
 30
0.0
 11
563.16796900000008
 21
673.35830899999985
 31
0.0
  0
LINE
  5
104
  8
0
 62
     7
 10
335.40917999999988
 20
794.85830899999985
 30
0.0
 11
333.32543900000002
 21
783.04062099999999
 31
0.0
  0
LINE
  5
105
  8
0
 62
     7
 10
335.40917999999988
 20
794.85830899999985
 30
0.0
 11
337.49292000000003
 21
783.04062099999999
 31
0.0
  0
LINE
  5
106
  8
0
 62
     7
 10
335.40917999999988
 20
742.60830899999985
 30
0.0
 11
337.49292000000003
 21
754.42599699999994
 31
0.0
  0
LINE
  5
107
  8
0
 62
     7
 10
335.40917999999988
 20
742.60830899999985
 30
0.0
 11
333.32543900000002
 21
754.42599699999994
 31
0.0
  0
LINE
  5
108
  8
0
 62
     7
 10
335.40917999999988
 20
861.85830899999985
 30
0.0
 11
335.40917999999988
 21
742.60830899999985
 31
0.0
  0
LINE
  5
109
  8
0
 62
     7
 10
327.40917999999988
 20
794.85830899999985
 30
0.0
 11
373.63720699999988
 21
794.85830899999985
 31
0.0
  0
LINE
  5
10A
  8
0
 62
     7
 10
308.37353499999989
 20
794.85830899999985
 30
0.0
 11
306.28979500000003
 21
783.04062099999999
 31
0.0
  0
LINE
  5
10B
  8
0
 62
     7
 10
308.37353499999989
 20
794.85830899999985
 30
0.0
 11
310.45751999999999
 21
783.04062099999999
 31
0.0
  0
LINE
  5
10C
  8
0
 62
     7
 10
308.37353499999989
 20
694.85830899999985
 30
0.0
 11
310.45751999999999
 21
706.67599699999994
 31
0.0
  0
LINE
  5
10D
  8
0
 62
     7
 10
308.37353499999989
 20
694.85830899999985
 30
0.0
 11
306.28979500000003
 21
706.67599699999994
 31
0.0
  0
LINE
  5
10E
  8
0
 62
     7
 10
308.37353499999989
 20
794.85830899999985
 30
0.0
 11
308.37353499999989
 21
694.85830899999985
 31
0.0
  0
LINE
  5
10F
  8
0
 62
     7
 10
300.37353499999989
 20
794.85830899999985
 30
0.0
 11
373.63720699999988
 21
794.85830899999985
 31
0.0
  0
LINE
  5
110
  8
0
 62
     7
 10
300.37353499999989
 20
694.85830899999985
 30
0.0
 11
371.85717799999992
 21
694.85830899999985
 31
0.0
  0
LINE
  5
111
  8
0
 62
     7
 10
573.81372099999987
 20
816.35830899999985
 30
0.0
 11
571.72997999999995
 21
804.54062099999987
 31
0.0
  0
LINE
  5
112
  8
0
 62
     7
 10
573.81372099999987
 20
816.35830899999985
 30
0.0
 11
575.89746100000002
 21
804.54062099999987
 31
0.0
  0
LINE
  5
113
  8
0
 62
     7
 10
573.81372099999987
 20
742.60830899999985
 30
0.0
 11
575.89746100000002
 21
754.42599699999994
 31
0.0
  0
LINE
  5
114
  8
0
 62
     7
 10
573.81372099999987
 20
742.60830899999985
 30
0.0
 11
571.72997999999995
 21
754.42599699999994
 31
0.0
  0
LINE
  5
115
  8
0
 62
     7
 10
573.81372099999987
 20
816.35830899999985
 30
0.0
 11
573.81372099999987
 21
742.60830899999985
 31
0.0
  0
LINE
  5
116
  8
0
 62
     7
 10
581.81372099999987
 20
816.35830899999985
 30
0.0
 11
563.16796900000008
 21
816.35830899999985
 31
0.0
  0
LINE
  5
117
  8
0
 62
     7
 10
581.81372099999987
 20
742.60830899999985
 30
0.0
 11
534.48925799999995
 21
742.60830899999985
 31
0.0
  0
LINE
  5
118
  8
0
 62
     7
 10
483.96386699999999
 20
878.22929600000009
 30
0.0
 11
495.78149400000001
 21
876.14552500000002
 31
0.0
  0
LINE
  5
119
  8
0
 62
     7
 10
483.96386699999999
 20
878.22929600000009
 30
0.0
 11
495.78149400000001
 21
880.31308199999989
 31
0.0
  0
LINE
  5
11A
  8
0
 62
     7
 10
448.96386699999988
 20
878.22929600000009
 30
0.0
 11
437.14623999999998
 21
880.31306699999993
 31
0.0
  0
LINE
  5
11B
  8
0
 62
     7
 10
448.96386699999988
 20
878.22929600000009
 30
0.0
 11
437.14623999999998
 21
876.14550999999994
 31
0.0
  0
LINE
  5
11C
  8
0
 62
     7
 10
517.96386699999994
 20
878.22929600000009
 30
0.0
 11
448.96386699999988
 21
878.22929600000009
 31
0.0
  0
LINE
  5
11D
  8
0
 62
     7
 10
483.96386699999999
 20
886.22929600000009
 30
0.0
 11
483.96386699999999
 21
861.42929299999992
 31
0.0
  0
POINT
  5
11E
  8
0
 62
     7
 10
-26.353389
 20
684.32793200000003
 30
0.0
  0
POINT
  5
11F
  8
0
 62
     7
 10
-32.353389
 20
684.32793200000003
 30
0.0
  0
POINT
  5
120
  8
0
 62
     7
 10
-23.853389
 20
684.35827800000004
 30
0.0
  0
POINT
  5
121
  8
0
 62
     7
 10
-26.353389
 20
684.35827800000004
 30
0.0
  0
LINE
  5
122
  8
0
 62
     7
 10
136.44662999999991
 20
662.658323
 30
0.0
 11
64.446629999999999
 21
662.658323
 31
0.0
  0
LINE
  5
123
  8
0
 62
     7
 10
64.446629999999999
 20
657.35832199999993
 30
0.0
 11
64.446629999999999
 21
700.15254400000003
 31
0.0
  0
LINE
  5
124
  8
0
 62
     7
 10
64.446629999999999
 20
700.152514
 30
0.0
 11
64.446629999999999
 21
832.35830899999985
 31
0.0
  0
LINE
  5
125
  8
0
 62
     7
 10
62.446629999999999
 20
819.18791399999986
 30
0.0
 11
62.446629999999999
 21
819.35827799999993
 31
0.0
  0
LINE
  5
126
  8
0
 62
     7
 10
132.94662600000001
 20
758.85828600000002
 30
0.0
 11
132.946607
 21
767.10830899999985
 31
0.0
  0
LINE
  5
127
  8
0
 62
     7
 10
135.44657000000001
 20
813.35830899999996
 30
0.0
 11
136.15369299999989
 21
813.65120100000001
 31
0.0
  0
LINE
  5
128
  8
0
 62
     7
 10
136.153707
 20
813.65117099999998
 30
0.0
 11
136.44659899999999
 21
814.35827800000004
 31
0.0
  0
LINE
  5
129
  8
0
 62
     7
 10
132.9466139999999
 20
806.35830899999985
 30
0.0
 11
132.94662999999991
 21
813.35830899999996
 31
0.0
  0
LINE
  5
12A
  8
0
 62
     7
 10
135.44659899999999
 20
813.35830899999996
 30
0.0
 11
132.94662999999991
 21
813.35830899999996
 31
0.0
  0
LINE
  5
12B
  8
0
 62
     7
 10
132.9466139999999
 20
767.10830899999985
 30
0.0
 11
132.9466139999999
 21
806.35830899999985
 31
0.0
  0
LINE
  5
12C
  8
0
 62
     7
 10
128.44663
 20
716.35830899999985
 30
0.0
 11
128.44663
 21
756.85830899999985
 31
0.0
  0
LINE
  5
12D
  8
0
 62
     7
 10
128.44666000000001
 20
756.85836200000006
 30
0.0
 11
128.71460400000001
 21
757.85836200000006
 31
0.0
  0
LINE
  5
12E
  8
0
 62
     7
 10
128.71463899999989
 20
757.85839999999985
 30
0.0
 11
129.44667899999999
 21
758.5904559999999
 31
0.0
  0
LINE
  5
12F
  8
0
 62
     7
 10
129.44657599999999
 20
758.59034199999996
 30
0.0
 11
130.4465909999999
 21
758.85828600000002
 31
0.0
  0
LINE
  5
130
  8
0
 62
     7
 10
136.44662999999991
 20
716.35830899999985
 30
0.0
 11
128.44663
 21
716.35830899999985
 31
0.0
  0
LINE
  5
131
  8
0
 62
     7
 10
136.44658799999999
 20
701.358294
 30
0.0
 11
135.44651099999999
 21
702.35829399999989
 31
0.0
  0
LINE
  5
132
  8
0
 62
     7
 10
135.44653400000001
 20
713.35831599999995
 30
0.0
 11
136.44662600000001
 21
714.35831599999995
 31
0.0
  0
LINE
  5
133
  8
0
 62
     7
 10
135.4465209999999
 20
713.35827800000004
 30
0.0
 11
72.678716000000009
 21
713.35827800000004
 31
0.0
  0
LINE
  5
134
  8
0
 62
     7
 10
135.44653600000001
 20
702.35830899999985
 30
0.0
 11
72.678669999999997
 21
702.35830899999985
 31
0.0
  0
LINE
  5
135
  8
0
 62
     7
 10
72.678708
 20
713.35826299999985
 30
0.0
 11
68.946621999999991
 21
714.35827800000004
 31
0.0
  0
LINE
  5
136
  8
0
 62
     7
 10
68.946659999999994
 20
714.35827099999995
 30
0.0
 11
65.446621999999991
 21
715.2961059999999
 31
0.0
  0
LINE
  5
137
  8
0
 62
     7
 10
64.446629999999999
 20
700.15254400000003
 30
0.0
 11
72.678669999999997
 21
702.35830899999985
 31
0.0
  0
LINE
  5
138
  8
0
 62
     7
 10
64.44664499999999
 20
717.65261299999997
 30
0.0
 11
65.446636999999996
 21
717.92055700000003
 31
0.0
  0
LINE
  5
139
  8
0
 62
     7
 10
68.446629999999999
 20
693.85829399999989
 30
0.0
 11
64.446629999999999
 21
693.85829399999989
 31
0.0
  0
LINE
  5
13A
  8
0
 62
     7
 10
68.446629999999999
 20
662.658323
 30
0.0
 11
68.446629999999999
 21
693.85829399999989
 31
0.0
  0
LINE
  5
13B
  8
0
 62
     7
 10
65.446629999999985
 20
700.42047300000002
 30
0.0
 11
65.446629999999985
 21
744.858294
 31
0.0
  0
LINE
  5
13C
  8
0
 62
     7
 10
68.946629999999999
 20
714.35830899999985
 30
0.0
 11
68.946629999999999
 21
739.35830899999985
 31
0.0
  0
LINE
  5
13D
  8
0
 62
     7
 10
67.446629999999999
 20
744.858294
 30
0.0
 11
64.446629999999999
 21
744.858294
 31
0.0
  0
LINE
  5
13E
  8
0
 62
     7
 10
68.196636999999996
 20
744.65732799999989
 30
0.0
 11
67.446636999999996
 21
744.85828600000002
 31
0.0
  0
LINE
  5
13F
  8
0
 62
     7
 10
68.196636999999996
 20
744.65732799999989
 30
0.0
 11
67.446636999999996
 21
744.85828600000002
 31
0.0
  0
LINE
  5
140
  8
0
 62
     7
 10
68.745671000000002
 20
744.10827800000004
 30
0.0
 11
68.196629999999999
 21
744.65732000000003
 31
0.0
  0
LINE
  5
141
  8
0
 62
     7
 10
68.946613999999997
 20
743.35826299999997
 30
0.0
 11
68.745656000000011
 21
744.10826299999985
 31
0.0
  0
LINE
  5
142
  8
0
 62
     7
 10
68.94664499999999
 20
739.35829399999989
 30
0.0
 11
68.94664499999999
 21
743.35827800000004
 31
0.0
  0
LINE
  5
143
  8
0
 62
     7
 10
68.74567900000001
 20
738.60828600000002
 30
0.0
 11
68.840901000000002
 21
738.963663
 31
0.0
  0
LINE
  5
144
  8
0
 62
     7
 10
68.840893999999992
 20
738.96365500000002
 30
0.0
 11
68.946636999999996
 21
739.35829399999989
 31
0.0
  0
LINE
  5
145
  8
0
 62
     7
 10
68.196629999999999
 20
738.059214
 30
0.0
 11
68.745671000000002
 21
738.60825499999999
 31
0.0
  0
LINE
  5
146
  8
0
 62
     7
 10
67.446613999999997
 20
737.85827099999995
 30
0.0
 11
68.196613999999997
 21
738.05922899999996
 31
0.0
  0
LINE
  5
147
  8
0
 62
     7
 10
67.446629999999999
 20
737.858294
 30
0.0
 11
65.446629999999985
 21
737.858294
 31
0.0
  0
LINE
  5
148
  8
0
 62
     7
 10
64.446629999999999
 20
670.358294
 30
0.0
 11
62.446629999999999
 21
670.358294
 31
0.0
  0
LINE
  5
149
  8
0
 62
     7
 10
64.446629999999999
 20
819.35827799999993
 30
0.0
 11
62.446629999999999
 21
819.35827799999993
 31
0.0
  0
LINE
  5
14A
  8
0
 62
     7
 10
64.446629999999999
 20
809.48993099999984
 30
0.0
 11
62.446629999999999
 21
809.48993099999984
 31
0.0
  0
LINE
  5
14B
  8
0
 62
     7
 10
71.745641000000006
 20
702.10830099999987
 30
0.0
 11
68.946607
 21
702.85830099999998
 31
0.0
  0
LINE
  5
14C
  8
0
 62
     7
 10
68.946598999999992
 20
702.85830899999985
 30
0.0
 11
68.946598999999992
 21
712.85830899999985
 31
0.0
  0
LINE
  5
14D
  8
0
 62
     7
 10
68.946598999999992
 20
712.858294
 30
0.0
 11
71.745656000000011
 21
713.608294
 31
0.0
  0
LINE
  5
14E
  8
0
 62
     7
 10
64.446629999999999
 20
680.358294
 30
0.0
 11
62.446629999999999
 21
680.358294
 31
0.0
  0
LINE
  5
14F
  8
0
 62
     7
 10
68.74567900000001
 20
738.07899699999984
 30
0.0
 11
68.946636999999996
 21
738.96367099999986
 31
0.0
  0
LINE
  5
150
  8
0
 62
     7
 10
68.946629999999999
 20
738.96367099999986
 30
0.0
 11
68.840885999999998
 21
738.96367099999986
 31
0.0
  0
LINE
  5
151
  8
0
 62
     7
 10
68.812650000000005
 20
724.85828599999991
 30
0.0
 11
68.946621999999991
 21
724.95774299999994
 31
0.0
  0
LINE
  5
152
  8
0
 62
     7
 10
68.812664999999996
 20
724.858248
 30
0.0
 11
68.745671000000002
 21
724.90797599999985
 31
0.0
  0
LINE
  5
153
  8
0
 62
     7
 10
68.946629999999999
 20
734.85830899999985
 30
0.0
 11
68.745664000000005
 21
734.85830899999985
 31
0.0
  0
LINE
  5
154
  8
0
 62
     7
 10
68.745664000000005
 20
728.80851900000005
 30
0.0
 11
68.812650000000005
 21
728.858248
 31
0.0
  0
LINE
  5
155
  8
0
 62
     7
 10
68.946629999999999
 20
728.75882100000001
 30
0.0
 11
68.812657000000002
 21
728.85827800000004
 31
0.0
  0
LINE
  5
156
  8
0
 62
     7
 10
68.854832999999999
 20
736.580378
 30
0.0
 11
68.745664000000005
 21
737.19014899999991
 31
0.0
  0
LINE
  5
157
  8
0
 62
     7
 10
68.946629999999999
 20
734.85830899999985
 30
0.0
 11
68.854839999999996
 21
736.58038499999986
 31
0.0
  0
LINE
  5
158
  8
0
 62
     7
 10
68.745664000000005
 20
724.90800699999988
 30
0.0
 11
68.230305999999999
 21
725.01051500000005
 31
0.0
  0
LINE
  5
159
  8
0
 62
     7
 10
68.230305999999999
 20
725.01052300000003
 30
0.0
 11
68.196629999999999
 21
725.03302999999994
 31
0.0
  0
LINE
  5
15A
  8
0
 62
     7
 10
68.196613999999997
 20
728.68353500000001
 30
0.0
 11
68.230289999999997
 21
728.70604100000003
 31
0.0
  0
LINE
  5
15B
  8
0
 62
     7
 10
68.230298000000005
 20
728.70603399999993
 30
0.0
 11
68.745656000000011
 21
728.80854199999987
 31
0.0
  0
LINE
  5
15C
  8
0
 62
     7
 10
68.745664000000005
 20
734.85830899999985
 30
0.0
 11
68.196629999999999
 21
734.85830899999985
 31
0.0
  0
LINE
  5
15D
  8
0
 62
     7
 10
68.196621999999991
 20
725.03301399999987
 30
0.0
 11
67.446621999999991
 21
725.16729199999986
 31
0.0
  0
LINE
  5
15E
  8
0
 62
     7
 10
67.446621999999991
 20
728.54925700000001
 30
0.0
 11
68.196621999999991
 21
728.68353500000001
 31
0.0
  0
LINE
  5
15F
  8
0
 62
     7
 10
68.196629999999999
 20
734.85830899999985
 30
0.0
 11
67.446629999999999
 21
734.85830899999985
 31
0.0
  0
LINE
  5
160
  8
0
 62
     7
 10
67.446629999999999
 20
728.54927300000008
 30
0.0
 11
65.446629999999985
 21
728.54927300000008
 31
0.0
  0
LINE
  5
161
  8
0
 62
     7
 10
67.446629999999999
 20
734.85830899999985
 30
0.0
 11
65.446629999999985
 21
734.85830899999985
 31
0.0
  0
LINE
  5
162
  8
0
 62
     7
 10
67.446629999999999
 20
725.16731500000003
 30
0.0
 11
65.446629999999985
 21
725.16731500000003
 31
0.0
  0
LINE
  5
163
  8
0
 62
     7
 10
158.64662599999991
 20
827.05832099999986
 30
0.0
 11
64.446629999999999
 21
827.05832099999986
 31
0.0
  0
LINE
  5
164
  8
0
 62
     7
 10
158.64662599999991
 20
662.658323
 30
0.0
 11
136.44662999999991
 21
662.658323
 31
0.0
  0
LINE
  5
165
  8
0
 62
     3
 10
136.44662999999991
 20
662.658323
 30
0.0
 11
136.44662999999991
 21
702.10830899999985
 31
0.0
  0
LINE
  5
166
  8
0
 62
     3
 10
136.44662999999991
 20
713.608294
 30
0.0
 11
136.44662999999991
 21
716.35837000000004
 31
0.0
  0
LINE
  5
167
  8
0
 62
     3
 10
136.44662999999991
 20
814.35835499999985
 30
0.0
 11
136.44662999999991
 21
827.05832099999986
 31
0.0
  0
LINE
  5
168
  8
0
 62
     3
 10
165.94663
 20
757.80717699999991
 30
0.0
 11
165.94663
 21
767.35798799999998
 31
0.0
  0
LINE
  5
169
  8
0
 62
     3
 10
165.94662099999991
 20
700.35801100000003
 30
0.0
 11
165.946575
 21
706.90873099999999
 31
0.0
  0
LINE
  5
16A
  8
0
 62
     7
 10
158.64662599999991
 20
662.65832699999999
 30
0.0
 11
158.64662599999991
 21
684.60832800000003
 31
0.0
  0
LINE
  5
16B
  8
0
 62
     3
 10
158.646624
 20
713.60830899999985
 30
0.0
 11
136.44662600000001
 21
713.60830899999985
 31
0.0
  0
LINE
  5
16C
  8
0
 62
     3
 10
158.646624
 20
702.10830899999985
 30
0.0
 11
136.446628
 21
702.10830899999985
 31
0.0
  0
LINE
  5
16D
  8
0
 62
     1
 10
163.946629
 20
805.60830899999985
 30
0.0
 11
158.64662599999991
 21
805.60830899999985
 31
0.0
  0
LINE
  5
16E
  8
0
 62
     1
 10
167.87340800000001
 20
690.18154700000002
 30
0.0
 11
167.90373700000001
 21
690.25477000000001
 31
0.0
  0
LINE
  5
16F
  8
0
 62
     1
 10
167.87340800000001
 20
690.18154700000002
 30
0.0
 11
167.90373700000001
 21
690.25477000000001
 31
0.0
  0
LINE
  5
170
  8
0
 62
     1
 10
167.87340800000001
 20
690.18154700000002
 30
0.0
 11
167.90373700000001
 21
690.25477000000001
 31
0.0
  0
LINE
  5
171
  8
0
 62
     1
 10
161.44663
 20
684.60832400000004
 30
0.0
 11
160.94663
 21
684.60832400000004
 31
0.0
  0
LINE
  5
172
  8
0
 62
     1
 10
163.946629
 20
684.60835099999986
 30
0.0
 11
158.64662599999991
 21
684.60835099999986
 31
0.0
  0
LINE
  5
173
  8
0
 62
     2
 10
174.94793999999999
 20
690.60830899999996
 30
0.0
 11
174.94793999999999
 21
692.60830899999985
 31
0.0
  0
LINE
  5
174
  8
0
 62
     2
 10
165.9479399999999
 20
690.10830899999996
 30
0.0
 11
165.9479399999999
 21
795.10830899999996
 31
0.0
  0
LINE
  5
175
  8
0
 62
     2
 10
169.44661999999991
 20
795.10830899999996
 30
0.0
 11
163.946629
 21
795.10830899999996
 31
0.0
  0
LINE
  5
176
  8
0
 62
     2
 10
169.44661999999991
 20
690.10830899999996
 30
0.0
 11
163.946629
 21
690.10830899999996
 31
0.0
  0
LINE
  5
177
  8
0
 62
     2
 10
174.94793899999991
 20
690.60830899999996
 30
0.0
 11
174.94788299999999
 21
708.60829399999989
 31
0.0
  0
LINE
  5
178
  8
0
 62
     2
 10
174.94788
 20
709.608294
 30
0.0
 11
174.947745
 21
721.60829399999989
 31
0.0
  0
LINE
  5
179
  8
0
 62
     2
 10
174.947937
 20
722.60830899999985
 30
0.0
 11
174.947937
 21
742.10829399999989
 31
0.0
  0
LINE
  5
17A
  8
0
 62
     2
 10
174.9477379999999
 20
722.60828599999991
 30
0.0
 11
174.94779099999991
 21
742.10828600000002
 31
0.0
  0
LINE
  5
17B
  8
0
 62
     2
 10
174.947789
 20
743.108294
 30
0.0
 11
174.94758100000001
 21
755.108294
 31
0.0
  0
LINE
  5
17C
  8
0
 62
     2
 10
174.947125
 20
756.10644000000002
 30
0.0
 11
174.94663600000001
 21
794.60830899999996
 31
0.0
  0
LINE
  5
17D
  8
0
 62
     7
 10
132.94662199999999
 20
758.85828600000002
 30
0.0
 11
130.4465909999999
 21
758.85828600000002
 31
0.0
  0
LINE
  5
17E
  8
0
 62
     7
 10
163.946629
 20
795.10830899999996
 30
0.0
 11
163.946629
 21
805.60830899999985
 31
0.0
  0
LINE
  5
17F
  8
0
 62
     7
 10
163.946629
 20
684.60832400000004
 30
0.0
 11
163.946629
 21
690.10830899999996
 31
0.0
  0
LINE
  5
180
  8
0
 62
     7
 10
158.64662599999991
 20
805.60830899999985
 30
0.0
 11
158.64662599999991
 21
827.05832099999986
 31
0.0
  0
LINE
  5
181
  8
0
 62
     3
 10
158.64662599999991
 20
684.60832800000003
 30
0.0
 11
158.64662599999991
 21
805.60830899999985
 31
0.0
  0
ARC
  5
182
  8
0
 62
     7
 10
195.62267
 20
720.56442500000003
 30
0.0
 40
1.0
 50
348.62360999999993
 51
76.688818000000012
  0
ARC
  5
183
  8
0
 62
     7
 10
194.425927
 20
714.61660999999992
 30
0.0
 40
1.000000999999999
 50
260.59401500000001
 51
348.62360999999993
  0
LINE
  5
184
  8
0
  6
DASHDOT
 62
     7
 10
210.42325699999989
 20
714.45577400000002
 30
0.0
 11
160.306566
 21
724.53959099999997
 31
0.0
  0
LINE
  5
185
  8
0
 62
     7
 10
195.85290800000001
 20
721.53756099999987
 30
0.0
 11
174.9477479999999
 21
726.48363700000004
 31
0.0
  0
LINE
  5
186
  8
0
 62
     7
 10
195.40628100000001
 20
714.41935199999989
 30
0.0
 11
196.60302300000001
 21
720.36717399999986
 31
0.0
  0
LINE
  5
187
  8
0
 62
     7
 10
194.2624999999999
 20
713.63005299999986
 30
0.0
 11
174.947799
 21
716.82965300000001
 31
0.0
  0
ARC
  5
188
  8
0
  6
DASHDOT
 62
     7
 10
121.44742699999991
 20
732.35830899999985
 30
0.0
 40
76.044273000000004
 50
337.49231500000002
 51
0.000001
  0
LINE
  5
189
  8
0
  6
DASHDOT
 62
     7
 10
197.49169599999999
 20
732.35830899999985
 30
0.0
 11
197.49169599999999
 21
738.10850700000003
 31
0.0
  0
LINE
  5
18A
  8
0
 62
     7
 10
62.446629999999999
 20
809.48993099999984
 30
0.0
 11
62.446629999999999
 21
819.35827799999993
 31
0.0
  0
LINE
  5
18B
  8
0
 62
     7
 10
62.446629999999999
 20
670.358294
 30
0.0
 11
62.446629999999999
 21
680.358294
 31
0.0
  0
LINE
  5
18C
  8
0
 62
     6
 10
14.946599000000001
 20
714.85827099999995
 30
0.0
 11
18.946598999999988
 21
714.85828600000002
 31
0.0
  0
LINE
  5
18D
  8
0
 62
     6
 10
14.946599000000001
 20
707.85827099999995
 30
0.0
 11
18.946598999999988
 21
707.85828600000002
 31
0.0
  0
LINE
  5
18E
  8
0
 62
     6
 10
14.44659899999999
 20
660.85829399999989
 30
0.0
 11
14.44659899999999
 21
685.85829399999989
 31
0.0
  0
LINE
  5
18F
  8
0
 62
     6
 10
14.446583999999991
 20
803.85829399999989
 30
0.0
 11
14.446583999999991
 21
828.85829399999989
 31
0.0
  0
LINE
  5
190
  8
0
 62
     3
 10
62.446629999999999
 20
662.65829699999995
 30
0.0
 11
25.446584000000001
 21
662.65829699999995
 31
0.0
  0
LINE
  5
191
  8
0
 62
     6
 10
62.446629999999999
 20
659.858294
 30
0.0
 11
25.446584000000001
 21
659.858294
 31
0.0
  0
LINE
  5
192
  8
0
 62
     6
 10
62.446629999999999
 20
829.85829399999989
 30
0.0
 11
25.446584000000001
 21
829.85829399999989
 31
0.0
  0
LINE
  5
193
  8
0
 62
     3
 10
62.446629999999999
 20
827.0583059999999
 30
0.0
 11
25.446584000000001
 21
827.0583059999999
 31
0.0
  0
LINE
  5
194
  8
0
 62
     6
 10
62.446629999999999
 20
659.858294
 30
0.0
 11
62.446629999999999
 21
829.85829399999989
 31
0.0
  0
LINE
  5
195
  8
0
 62
     6
 10
18.946598999999988
 20
704.858248
 30
0.0
 11
18.946598999999988
 21
707.85828600000002
 31
0.0
  0
LINE
  5
196
  8
0
 62
     6
 10
25.446598999999999
 20
659.85828800000002
 30
0.0
 11
25.446598999999999
 21
660.85829399999989
 31
0.0
  0
LINE
  5
197
  8
0
 62
     3
 10
25.446584000000001
 20
776.85829399999989
 30
0.0
 11
18.946584000000001
 21
776.85829399999989
 31
0.0
  0
LINE
  5
198
  8
0
 62
     3
 10
25.446584000000001
 20
776.85829399999989
 30
0.0
 11
25.446584000000001
 21
784.858294
 31
0.0
  0
LINE
  5
199
  8
0
 62
     3
 10
25.446598999999999
 20
697.85823200000004
 30
0.0
 11
18.946598999999988
 21
697.85823200000004
 31
0.0
  0
LINE
  5
19A
  8
0
 62
     6
 10
18.946598999999988
 20
701.358294
 30
0.0
 11
18.946598999999988
 21
704.858248
 31
0.0
  0
LINE
  5
19B
  8
0
 62
     3
 10
61.446674999999999
 20
713.35827099999995
 30
0.0
 11
18.946614
 21
713.35828600000002
 31
0.0
  0
LINE
  5
19C
  8
0
 62
     3
 10
61.446668000000003
 20
713.35827099999995
 30
0.0
 11
62.446637000000003
 21
714.35828600000002
 31
0.0
  0
LINE
  5
19D
  8
0
 62
     3
 10
61.446659999999987
 20
702.35830899999985
 30
0.0
 11
18.946598999999988
 21
702.35830899999985
 31
0.0
  0
LINE
  5
19E
  8
0
 62
     3
 10
62.44664499999999
 20
701.35827800000004
 30
0.0
 11
61.446674999999999
 21
702.35829399999989
 31
0.0
  0
LINE
  5
19F
  8
0
 62
     6
 10
12.946584
 20
688.35829000000001
 30
0.0
 11
12.946599000000001
 21
701.35828600000002
 31
0.0
  0
LINE
  5
1A0
  8
0
 62
     6
 10
12.946599000000001
 20
788.35827800000004
 30
0.0
 11
12.946584
 21
801.35827800000004
 31
0.0
  0
LINE
  5
1A1
  8
0
 62
     3
 10
18.946598999999988
 20
776.85829399999989
 30
0.0
 11
18.946598999999988
 21
780.85829399999989
 31
0.0
  0
LINE
  5
1A2
  8
0
 62
     6
 10
62.44664499999999
 20
801.85829399999989
 30
0.0
 11
62.44664499999999
 21
802.85829399999989
 31
0.0
  0
LINE
  5
1A3
  8
0
 62
     6
 10
62.44664499999999
 20
801.85829399999989
 30
0.0
 11
62.44664499999999
 21
802.85829399999989
 31
0.0
  0
LINE
  5
1A4
  8
0
 62
     6
 10
62.44664499999999
 20
801.85829399999989
 30
0.0
 11
62.44664499999999
 21
802.85829399999989
 31
0.0
  0
LINE
  5
1A5
  8
0
 62
     6
 10
62.44664499999999
 20
686.858294
 30
0.0
 11
62.44664499999999
 21
687.858294
 31
0.0
  0
LINE
  5
1A6
  8
0
 62
     2
 10
14.946599000000001
 20
801.85829399999989
 30
0.0
 11
13.44659899999999
 21
801.85829399999989
 31
0.0
  0
LINE
  5
1A7
  8
0
 62
     2
 10
14.946599000000001
 20
687.858294
 30
0.0
 11
13.44659899999999
 21
687.858294
 31
0.0
  0
LINE
  5
1A8
  8
0
 62
     2
 10
14.946599000000001
 20
801.358294
 30
0.0
 11
14.946599000000001
 21
801.85829399999989
 31
0.0
  0
LINE
  5
1A9
  8
0
 62
     2
 10
14.946599000000001
 20
701.35839999999985
 30
0.0
 11
14.946599000000001
 21
788.358294
 31
0.0
  0
LINE
  5
1AA
  8
0
 62
     2
 10
14.946599000000001
 20
687.858294
 30
0.0
 11
14.946599000000001
 21
688.35837000000004
 31
0.0
  0
LINE
  5
1AB
  8
0
 62
     2
 10
13.44659899999999
 20
687.858294
 30
0.0
 11
13.44659899999999
 21
688.35827800000004
 31
0.0
  0
LINE
  5
1AC
  8
0
 62
     2
 10
13.44659899999999
 20
701.35827800000004
 30
0.0
 11
13.44659899999999
 21
788.35821699999985
 31
0.0
  0
LINE
  5
1AD
  8
0
 62
     2
 10
13.44659899999999
 20
801.35821699999985
 30
0.0
 11
13.44659899999999
 21
801.85829399999989
 31
0.0
  0
LINE
  5
1AE
  8
0
 62
     6
 10
25.446598999999999
 20
685.85829399999989
 30
0.0
 11
24.446629999999999
 21
685.85829399999989
 31
0.0
  0
LINE
  5
1AF
  8
0
 62
     6
 10
24.446629999999999
 20
685.85829399999989
 30
0.0
 11
21.446797
 21
685.85829399999989
 31
0.0
  0
LINE
  5
1B0
  8
0
 62
     6
 10
25.446598999999999
 20
660.85829399999989
 30
0.0
 11
21.446828
 21
660.85829399999989
 31
0.0
  0
LINE
  5
1B1
  8
0
 62
     6
 10
24.446629999999999
 20
803.85829399999989
 30
0.0
 11
21.44661399999999
 21
803.85829399999989
 31
0.0
  0
LINE
  5
1B2
  8
0
 62
     6
 10
25.446584000000001
 20
803.85829399999989
 30
0.0
 11
24.446629999999999
 21
803.85829399999989
 31
0.0
  0
LINE
  5
1B3
  8
0
 62
     6
 10
25.446584000000001
 20
828.85829399999989
 30
0.0
 11
21.44661399999999
 21
828.85829399999989
 31
0.0
  0
LINE
  5
1B4
  8
0
 62
     6
 10
25.446584000000001
 20
688.358294
 30
0.0
 11
12.946584
 21
688.358294
 31
0.0
  0
LINE
  5
1B5
  8
0
 62
     6
 10
18.946598999999988
 20
701.358294
 30
0.0
 11
12.946599000000001
 21
701.358294
 31
0.0
  0
LINE
  5
1B6
  8
0
 62
     6
 10
25.446584000000001
 20
801.358294
 30
0.0
 11
12.946584
 21
801.358294
 31
0.0
  0
LINE
  5
1B7
  8
0
 62
     6
 10
25.446598999999999
 20
788.358294
 30
0.0
 11
12.946599000000001
 21
788.358294
 31
0.0
  0
LINE
  5
1B8
  8
0
 62
     6
 10
25.446445999999991
 20
784.858294
 30
0.0
 11
14.946599000000001
 21
784.858294
 31
0.0
  0
LINE
  5
1B9
  8
0
 62
     3
 10
25.446522999999999
 20
780.85829399999989
 30
0.0
 11
18.946598999999988
 21
780.85829399999989
 31
0.0
  0
LINE
  5
1BA
  8
0
 62
     6
 10
18.946598999999988
 20
776.85829399999989
 30
0.0
 11
14.946599000000001
 21
776.85829399999989
 31
0.0
  0
LINE
  5
1BB
  8
0
  6
DASHDOT
 62
     7
 10
38.191678000000003
 20
794.85830899999985
 30
0.0
 11
-0.274043
 21
794.85830899999985
 31
0.0
  0
LINE
  5
1BC
  8
0
  6
DASHDOT
 62
     7
 10
38.191678000000003
 20
694.85830899999985
 30
0.0
 11
-0.274043
 21
694.85830899999985
 31
0.0
  0
LINE
  5
1BD
  8
0
 62
     6
 10
21.44661399999999
 20
828.85829399999989
 30
0.0
 11
14.446583999999991
 21
828.85829399999989
 31
0.0
  0
LINE
  5
1BE
  8
0
 62
     6
 10
21.44661399999999
 20
803.85829399999989
 30
0.0
 11
14.446583999999991
 21
803.85829399999989
 31
0.0
  0
LINE
  5
1BF
  8
0
 62
     6
 10
25.446584000000001
 20
828.85829399999989
 30
0.0
 11
25.446584000000001
 21
829.85829399999989
 31
0.0
  0
LINE
  5
1C0
  8
0
 62
     3
 10
25.446584000000001
 20
803.85829399999989
 30
0.0
 11
25.446584000000001
 21
828.85829399999989
 31
0.0
  0
LINE
  5
1C1
  8
0
 62
     6
 10
25.446584000000001
 20
801.358294
 30
0.0
 11
25.446584000000001
 21
803.85829399999989
 31
0.0
  0
LINE
  5
1C2
  8
0
 62
     3
 10
25.446584000000001
 20
788.358294
 30
0.0
 11
25.446584000000001
 21
801.358294
 31
0.0
  0
LINE
  5
1C3
  8
0
 62
     6
 10
25.446584000000001
 20
784.858294
 30
0.0
 11
25.446584000000001
 21
788.358294
 31
0.0
  0
LINE
  5
1C4
  8
0
 62
     6
 10
18.946598999999988
 20
714.85828600000002
 30
0.0
 11
18.946584000000001
 21
776.85827800000004
 31
0.0
  0
LINE
  5
1C5
  8
0
 62
     3
 10
18.946598999999988
 20
707.85828600000002
 30
0.0
 11
18.946598999999988
 21
714.85828600000002
 31
0.0
  0
LINE
  5
1C6
  8
0
 62
     3
 10
25.446598999999999
 20
688.358294
 30
0.0
 11
25.446614
 21
697.85816399999987
 31
0.0
  0
LINE
  5
1C7
  8
0
 62
     6
 10
25.446598999999999
 20
685.85829399999989
 30
0.0
 11
25.446598999999999
 21
688.358294
 31
0.0
  0
LINE
  5
1C8
  8
0
 62
     3
 10
25.446598999999999
 20
660.85829399999989
 30
0.0
 11
25.446598999999999
 21
685.85829399999989
 31
0.0
  0
LINE
  5
1C9
  8
0
 62
     6
 10
21.446828
 20
660.85829399999989
 30
0.0
 11
14.44659899999999
 21
660.85829399999989
 31
0.0
  0
LINE
  5
1CA
  8
0
 62
     6
 10
21.446797
 20
685.85829399999989
 30
0.0
 11
14.44659899999999
 21
685.85829399999989
 31
0.0
  0
LINE
  5
1CB
  8
0
  6
DASHDOT
 62
     7
 10
12.946599000000001
 20
701.358294
 30
0.0
 11
12.946599000000001
 21
788.358294
 31
0.0
  0
LINE
  5
1CC
  8
0
  6
DASHDOT
 62
     7
 10
12.946584
 20
624.92531399999984
 30
0.0
 11
12.946584
 21
688.358294
 31
0.0
  0
LINE
  5
1CD
  8
0
  6
DASHDOT
 62
     7
 10
9.9465839999999996
 20
623.87199499999997
 30
0.0
 11
9.9465839999999996
 21
863.58990700000004
 31
0.0
  0
POLYLINE
  5
1CE
  8
0
 62
     3
 66
     1
 10
0.0
 20
0.0
 30
0.0
  0
VERTEX
  5
97B
  8
0
 62
     3
 10
4.2431839999999994
 20
621.76535699999999
 30
0.0
  0
VERTEX
  5
97C
  8
0
 62
     3
 10
16.346791
 20
626.17961500000001
 30
0.0
  0
VERTEX
  5
97D
  8
0
 62
     3
 10
16.601002999999992
 20
628.40118600000005
 30
0.0
  0
VERTEX
  5
97E
  8
0
 62
     3
 10
18.910999999999991
 20
624.98593499999993
 30
0.0
  0
VERTEX
  5
97F
  8
0
 62
     3
 10
19.165195999999991
 20
627.20750599999985
 30
0.0
  0
SEQEND
  5
980
  8
0
 62
     3
  0
POLYLINE
  5
1D5
  8
0
 62
     3
 66
     1
 10
0.0
 20
0.0
 30
0.0
  0
VERTEX
  5
981
  8
0
 62
     3
 10
17.936329999999991
 20
855.7777880000001
 30
0.0
  0
VERTEX
  5
982
  8
0
 62
     3
 10
6.1668139999999987
 20
864.98870999999986
 30
0.0
  0
VERTEX
  5
983
  8
0
 62
     3
 10
4.1466880000000002
 20
864.03001600000005
 30
0.0
  0
VERTEX
  5
984
  8
0
 62
     3
 10
5.8244220000000002
 20
867.79634299999998
 30
0.0
  0
VERTEX
  5
985
  8
0
 62
     3
 10
3.804295999999999
 20
866.83764799999994
 30
0.0
  0
SEQEND
  5
986
  8
0
 62
     3
  0
LINE
  5
1DC
  8
0
  6
DASHDOT
 62
     7
 10
12.946599000000001
 20
788.358294
 30
0.0
 11
12.946599000000001
 21
801.358294
 31
0.0
  0
LINE
  5
1DD
  8
0
  6
DASHDOT
 62
     7
 10
12.946599000000001
 20
828.35827799999993
 30
0.0
 11
12.946599000000001
 21
859.68278699999996
 31
0.0
  0
LINE
  5
1DE
  8
0
  6
DASHDOT
 62
     7
 10
12.946599000000001
 20
801.358294
 30
0.0
 11
12.946599000000001
 21
804.35827800000015
 31
0.0
  0
CIRCLE
  5
1DF
  8
0
 62
     7
 10
46.005489999999988
 20
810.92106799999999
 30
0.0
 40
0.2
  0
CIRCLE
  5
1E0
  8
0
 62
     7
 10
88.078587999999996
 20
809.31172399999991
 30
0.0
 40
0.2
  0
CIRCLE
  5
1E1
  8
0
 62
     7
 10
-41.129497000000001
 20
667.68862000000001
 30
0.0
 40
0.2
  0
LINE
  5
1E2
  8
0
 62
     1
 10
169.44661999999991
 20
687.60187300000007
 30
0.0
 11
169.44661999999991
 21
689.60187299999996
 31
0.0
  0
LINE
  5
1E3
  8
0
 62
     1
 10
171.44661999999991
 20
687.60187300000007
 30
0.0
 11
169.44661999999991
 21
687.60187300000007
 31
0.0
  0
LINE
  5
1E4
  8
0
 62
     1
 10
169.44661999999991
 20
795.60186999999985
 30
0.0
 11
169.44661999999991
 21
797.60186999999996
 31
0.0
  0
LINE
  5
1E5
  8
0
 62
     1
 10
171.44661999999991
 20
797.60186999999996
 30
0.0
 11
169.44661999999991
 21
797.60186999999996
 31
0.0
  0
LINE
  5
1E6
  8
0
 62
     1
 10
169.44661999999991
 20
689.60187299999996
 30
0.0
 11
169.44661999999991
 21
795.60186999999985
 31
0.0
  0
LINE
  5
1E7
  8
0
 62
     1
 10
164.94661999999991
 20
811.179216
 30
0.0
 11
164.94661999999991
 21
816.02452300000004
 31
0.0
  0
LINE
  5
1E8
  8
0
 62
     1
 10
164.94661999999991
 20
669.17922399999986
 30
0.0
 11
164.94661999999991
 21
674.02452300000004
 31
0.0
  0
LINE
  5
1E9
  8
0
 62
     1
 10
171.44661999999991
 20
661.10187299999996
 30
0.0
 11
171.44661999999991
 21
824.10186999999985
 31
0.0
  0
LINE
  5
1EA
  8
0
 62
     1
 10
174.94662
 20
661.10187299999996
 30
0.0
 11
171.44661999999991
 21
661.10187299999996
 31
0.0
  0
LINE
  5
1EB
  8
0
 62
     1
 10
174.94662
 20
661.10186999999985
 30
0.0
 11
174.94662
 21
824.10186999999985
 31
0.0
  0
LINE
  5
1EC
  8
0
 62
     1
 10
174.94662
 20
824.10186999999985
 30
0.0
 11
173.94662
 21
824.10186999999985
 31
0.0
  0
LINE
  5
1ED
  8
0
 62
     1
 10
172.94662
 20
824.10186999999985
 30
0.0
 11
171.44661999999991
 21
824.10186999999985
 31
0.0
  0
LINE
  5
1EE
  8
0
 62
     1
 10
171.44661999999991
 20
810.60186999999985
 30
0.0
 11
165.94661699999989
 21
810.60186999999985
 31
0.0
  0
LINE
  5
1EF
  8
0
 62
     1
 10
171.44661999999991
 20
816.60186999999996
 30
0.0
 11
165.9466229999999
 21
816.60186999999996
 31
0.0
  0
LINE
  5
1F0
  8
0
 62
     1
 10
165.94661999999991
 20
810.60186999999985
 30
0.0
 11
165.94661999999991
 21
810.83023300000002
 31
0.0
  0
LINE
  5
1F1
  8
0
 62
     1
 10
165.94662099999991
 20
810.60186999999985
 30
0.0
 11
164.94662099999991
 21
811.179216
 31
0.0
  0
LINE
  5
1F2
  8
0
 62
     1
 10
165.94661999999991
 20
810.83023300000002
 30
0.0
 11
165.94661999999991
 21
811.480547
 31
0.0
  0
LINE
  5
1F3
  8
0
 62
     1
 10
165.94661999999991
 20
811.480547
 30
0.0
 11
165.94661999999991
 21
812.45382900000004
 31
0.0
  0
LINE
  5
1F4
  8
0
 62
     1
 10
165.94661999999991
 20
812.45382900000004
 30
0.0
 11
165.94661999999991
 21
813.60186999999985
 31
0.0
  0
LINE
  5
1F5
  8
0
 62
     1
 10
165.94661999999991
 20
813.60186999999985
 30
0.0
 11
165.94661999999991
 21
814.74992599999996
 31
0.0
  0
LINE
  5
1F6
  8
0
 62
     1
 10
165.94661999999991
 20
814.74992599999996
 30
0.0
 11
165.94661999999991
 21
815.72319200000004
 31
0.0
  0
LINE
  5
1F7
  8
0
 62
     1
 10
165.94661999999991
 20
815.72319200000004
 30
0.0
 11
165.94661999999991
 21
816.3735069999999
 31
0.0
  0
LINE
  5
1F8
  8
0
 62
     1
 10
165.94661999999991
 20
816.3735069999999
 30
0.0
 11
165.94661999999991
 21
816.60186999999996
 31
0.0
  0
LINE
  5
1F9
  8
0
 62
     1
 10
164.946619
 20
816.02452300000004
 30
0.0
 11
165.946619
 21
816.60186999999996
 31
0.0
  0
LINE
  5
1FA
  8
0
 62
     1
 10
171.44661999999991
 20
674.60187300000007
 30
0.0
 11
165.94662199999991
 21
674.60187300000007
 31
0.0
  0
LINE
  5
1FB
  8
0
 62
     1
 10
171.44661999999991
 20
668.60187299999996
 30
0.0
 11
165.946618
 21
668.60187299999996
 31
0.0
  0
LINE
  5
1FC
  8
0
 62
     1
 10
164.94661999999991
 20
674.02452300000004
 30
0.0
 11
165.94661999999991
 21
674.60187300000007
 31
0.0
  0
LINE
  5
1FD
  8
0
 62
     1
 10
165.94661999999991
 20
674.37351000000001
 30
0.0
 11
165.94661999999991
 21
674.60187300000007
 31
0.0
  0
LINE
  5
1FE
  8
0
 62
     1
 10
165.94661999999991
 20
673.72319200000004
 30
0.0
 11
165.94661999999991
 21
674.37351000000001
 31
0.0
  0
LINE
  5
1FF
  8
0
 62
     1
 10
165.94661999999991
 20
672.74992599999996
 30
0.0
 11
165.94661999999991
 21
673.72319200000004
 31
0.0
  0
LINE
  5
200
  8
0
 62
     1
 10
165.94661999999991
 20
671.60187299999996
 30
0.0
 11
165.94661999999991
 21
672.74992599999996
 31
0.0
  0
LINE
  5
201
  8
0
 62
     1
 10
165.94661999999991
 20
670.45382500000005
 30
0.0
 11
165.94661999999991
 21
671.60187299999996
 31
0.0
  0
LINE
  5
202
  8
0
 62
     1
 10
165.94661999999991
 20
669.48055499999987
 30
0.0
 11
165.94661999999991
 21
670.45382500000005
 31
0.0
  0
LINE
  5
203
  8
0
 62
     1
 10
165.94661999999991
 20
668.83023600000001
 30
0.0
 11
165.94661999999991
 21
669.48055499999987
 31
0.0
  0
LINE
  5
204
  8
0
 62
     1
 10
165.94662099999991
 20
668.60187299999996
 30
0.0
 11
164.94662099999991
 21
669.17922399999986
 31
0.0
  0
LINE
  5
205
  8
0
 62
     1
 10
165.94661999999991
 20
668.60187299999996
 30
0.0
 11
165.94661999999991
 21
668.83023600000001
 31
0.0
  0
LINE
  5
206
  8
0
 62
     1
 10
173.94662
 20
824.10186999999985
 30
0.0
 11
172.94662
 21
824.10186999999985
 31
0.0
  0
LINE
  5
207
  8
0
 62
     7
 10
14.446583999999991
 20
803.85829399999989
 30
0.0
 11
14.446583999999991
 21
828.85829399999989
 31
0.0
  0
LINE
  5
208
  8
0
 62
     7
 10
14.446583999999991
 20
660.85830899999985
 30
0.0
 11
14.446583999999991
 21
685.85829399999989
 31
0.0
  0
LINE
  5
209
  8
0
 62
     9
 10
14.44656799999999
 20
804.35827800000015
 30
0.0
 11
14.44656799999999
 21
828.35827799999993
 31
0.0
  0
LINE
  5
20A
  8
0
 62
     9
 10
-1.553431999999999
 20
661.35830899999985
 30
0.0
 11
-1.553431999999999
 21
685.35830899999985
 31
0.0
  0
LINE
  5
20B
  8
0
 62
     9
 10
14.446614
 20
661.35827800000004
 30
0.0
 11
14.446614
 21
685.35827800000004
 31
0.0
  0
LINE
  5
20C
  8
0
 62
     9
 10
-1.5533859999999999
 20
805.35827800000015
 30
0.0
 11
-1.5533859999999999
 21
827.35827799999993
 31
0.0
  0
LINE
  5
20D
  8
0
 62
     7
 10
-67.353389000000007
 20
821.92576799999995
 30
0.0
 11
-67.353389000000007
 21
827.35827799999993
 31
0.0
  0
LINE
  5
20E
  8
0
 62
     7
 10
-67.353389000000007
 20
811.07179500000007
 30
0.0
 11
-67.353389000000007
 21
821.64476200000001
 31
0.0
  0
LINE
  5
20F
  8
0
 62
     7
 10
-67.353389000000007
 20
805.35827800000015
 30
0.0
 11
-67.353389000000007
 21
810.79077299999994
 31
0.0
  0
LINE
  5
210
  8
0
 62
     7
 10
-69.853389000000007
 20
805.35827800000015
 30
0.0
 11
-69.853389000000007
 21
827.35827799999993
 31
0.0
  0
LINE
  5
211
  8
0
 62
     7
 10
-75.853389000000007
 20
805.35827800000015
 30
0.0
 11
-75.853389000000007
 21
827.35827799999993
 31
0.0
  0
LINE
  5
212
  8
0
 62
     7
 10
-78.353389000000007
 20
805.35827800000015
 30
0.0
 11
-78.353389000000007
 21
810.79077299999994
 31
0.0
  0
LINE
  5
213
  8
0
 62
     7
 10
-78.353389000000007
 20
811.07179500000007
 30
0.0
 11
-78.353389000000007
 21
821.64476200000001
 31
0.0
  0
LINE
  5
214
  8
0
 62
     7
 10
-78.353389000000007
 20
821.92576799999995
 30
0.0
 11
-78.353389000000007
 21
827.35827799999993
 31
0.0
  0
LINE
  5
215
  8
0
 62
     7
 10
-26.353389
 20
805.35827800000015
 30
0.0
 11
-26.353389
 21
806.35827800000004
 31
0.0
  0
LINE
  5
216
  8
0
 62
     7
 10
-26.353389
 20
826.35827800000004
 30
0.0
 11
-26.353389
 21
827.35827799999993
 31
0.0
  0
LINE
  5
217
  8
0
 62
     7
 10
-15.353389
 20
826.35827800000004
 30
0.0
 11
-15.353389
 21
827.35827799999993
 31
0.0
  0
LINE
  5
218
  8
0
 62
     7
 10
-15.353389
 20
805.35827800000015
 30
0.0
 11
-15.353389
 21
806.35827800000004
 31
0.0
  0
LINE
  5
219
  8
0
 62
     7
 10
-53.553385999999989
 20
806.35827800000004
 30
0.0
 11
-53.553385999999989
 21
826.35827800000004
 31
0.0
  0
LINE
  5
21A
  8
0
 62
     7
 10
-54.353389
 20
806.72485499999982
 30
0.0
 11
-54.353389
 21
809.48445299999992
 31
0.0
  0
LINE
  5
21B
  8
0
 62
     7
 10
-54.353389
 20
813.2473769999998
 30
0.0
 11
-54.353389
 21
819.46917900000005
 31
0.0
  0
LINE
  5
21C
  8
0
 62
     7
 10
-54.353389
 20
823.2320729999999
 30
0.0
 11
-54.353389
 21
825.99170099999981
 31
0.0
  0
LINE
  5
21D
  8
0
 62
     3
 10
-67.353389000000007
 20
810.79077299999994
 30
0.0
 11
-67.353389000000007
 21
811.07179500000007
 31
0.0
  0
LINE
  5
21E
  8
0
 62
     3
 10
-67.353389000000007
 20
821.64476200000001
 30
0.0
 11
-67.353389000000007
 21
821.92576799999995
 31
0.0
  0
LINE
  5
21F
  8
0
 62
     3
 10
-61.353389
 20
805.38862800000004
 30
0.0
 11
-61.353389
 21
827.32792900000015
 31
0.0
  0
LINE
  5
220
  8
0
 62
     3
 10
-78.353389000000007
 20
821.64476200000001
 30
0.0
 11
-78.353389000000007
 21
821.92576799999995
 31
0.0
  0
LINE
  5
221
  8
0
 62
     3
 10
-78.353389000000007
 20
810.79077299999994
 30
0.0
 11
-78.353389000000007
 21
811.07179500000007
 31
0.0
  0
LINE
  5
222
  8
0
 62
     3
 10
-84.353389000000007
 20
805.38862800000004
 30
0.0
 11
-84.353389000000007
 21
827.32792900000015
 31
0.0
  0
LINE
  5
223
  8
0
 62
     3
 10
-60.353389
 20
805.38862800000004
 30
0.0
 11
-60.353389
 21
827.32792900000015
 31
0.0
  0
LINE
  5
224
  8
0
 62
     3
 10
-54.353389
 20
825.991716
 30
0.0
 11
-54.353389
 21
827.32792900000015
 31
0.0
  0
LINE
  5
225
  8
0
 62
     3
 10
-54.353389
 20
819.46917900000005
 30
0.0
 11
-54.353389
 21
823.23208799999986
 31
0.0
  0
LINE
  5
226
  8
0
 62
     3
 10
-54.353389
 20
809.48445299999992
 30
0.0
 11
-54.353389
 21
813.24736199999995
 31
0.0
  0
LINE
  5
227
  8
0
 62
     3
 10
-54.353389
 20
805.38862800000004
 30
0.0
 11
-54.353389
 21
806.72485499999982
 31
0.0
  0
LINE
  5
228
  8
0
 62
     3
 10
-2.3533889999999991
 20
826.35827800000004
 30
0.0
 11
-2.3533889999999991
 21
827.32792900000015
 31
0.0
  0
LINE
  5
229
  8
0
 62
     3
 10
-2.3533889999999991
 20
805.38862800000004
 30
0.0
 11
-2.3533889999999991
 21
806.35827800000004
 31
0.0
  0
LINE
  5
22A
  8
0
 62
   211
 10
-87.053386000000003
 20
812.35827800000015
 30
0.0
 11
-87.053386000000003
 21
820.35827800000015
 31
0.0
  0
LINE
  5
22B
  8
0
 62
     9
 10
-1.553431999999999
 20
804.35827800000015
 30
0.0
 11
-1.553431999999999
 21
805.35827800000015
 31
0.0
  0
LINE
  5
22C
  8
0
 62
     9
 10
-1.553431999999999
 20
827.35827799999993
 30
0.0
 11
-1.553431999999999
 21
828.35827799999993
 31
0.0
  0
LINE
  5
22D
  8
0
 62
     7
 10
-67.353389000000007
 20
678.92577199999994
 30
0.0
 11
-67.353389000000007
 21
684.35827800000004
 31
0.0
  0
LINE
  5
22E
  8
0
 62
     7
 10
-67.353389000000007
 20
668.07179499999995
 30
0.0
 11
-67.353389000000007
 21
678.64476200000001
 31
0.0
  0
LINE
  5
22F
  8
0
 62
     7
 10
-67.353389000000007
 20
662.35827800000004
 30
0.0
 11
-67.353389000000007
 21
667.79078499999991
 31
0.0
  0
LINE
  5
230
  8
0
 62
     7
 10
-69.853389000000007
 20
662.35827800000004
 30
0.0
 11
-69.853389000000007
 21
684.35827800000004
 31
0.0
  0
LINE
  5
231
  8
0
 62
     7
 10
-75.853389000000007
 20
662.35827800000004
 30
0.0
 11
-75.853389000000007
 21
684.35827800000004
 31
0.0
  0
LINE
  5
232
  8
0
 62
     7
 10
-78.353389000000007
 20
662.35827800000004
 30
0.0
 11
-78.353389000000007
 21
667.79078499999991
 31
0.0
  0
LINE
  5
233
  8
0
 62
     7
 10
-78.353389000000007
 20
668.07179499999995
 30
0.0
 11
-78.353389000000007
 21
678.64476200000001
 31
0.0
  0
LINE
  5
234
  8
0
 62
     7
 10
-78.353389000000007
 20
678.92577199999994
 30
0.0
 11
-78.353389000000007
 21
684.35827800000004
 31
0.0
  0
LINE
  5
235
  8
0
 62
     7
 10
-53.553385999999989
 20
663.35827800000004
 30
0.0
 11
-53.553385999999989
 21
683.35827800000004
 31
0.0
  0
LINE
  5
236
  8
0
 62
     7
 10
-54.353389
 20
663.72484399999996
 30
0.0
 11
-54.353389
 21
666.48447199999987
 31
0.0
  0
LINE
  5
237
  8
0
 62
     7
 10
-54.353389
 20
670.24737000000005
 30
0.0
 11
-54.353389
 21
676.46918700000003
 31
0.0
  0
LINE
  5
238
  8
0
 62
     7
 10
-54.353389
 20
680.23208399999999
 30
0.0
 11
-54.353389
 21
682.99171599999988
 31
0.0
  0
LINE
  5
239
  8
0
 62
     3
 10
-78.353389000000007
 20
678.644766
 30
0.0
 11
-78.353389000000007
 21
678.92576799999995
 31
0.0
  0
LINE
  5
23A
  8
0
 62
     3
 10
-78.353389000000007
 20
667.79078099999992
 30
0.0
 11
-78.353389000000007
 21
668.07179499999995
 31
0.0
  0
LINE
  5
23B
  8
0
 62
     3
 10
-84.353389000000007
 20
662.38862400000005
 30
0.0
 11
-84.353389000000007
 21
684.32793200000003
 31
0.0
  0
LINE
  5
23C
  8
0
 62
     3
 10
-60.353389
 20
662.38862400000005
 30
0.0
 11
-60.353389
 21
684.32793200000003
 31
0.0
  0
LINE
  5
23D
  8
0
 62
     3
 10
-54.353389
 20
682.991713
 30
0.0
 11
-54.353389
 21
684.32793200000003
 31
0.0
  0
LINE
  5
23E
  8
0
 62
     3
 10
-54.353389
 20
676.46918700000003
 30
0.0
 11
-54.353389
 21
680.23208399999999
 31
0.0
  0
LINE
  5
23F
  8
0
 62
     3
 10
-54.353389
 20
666.48447199999987
 30
0.0
 11
-54.353389
 21
670.24737000000005
 31
0.0
  0
LINE
  5
240
  8
0
 62
     3
 10
-54.353389
 20
662.38862400000005
 30
0.0
 11
-54.353389
 21
663.72484399999996
 31
0.0
  0
LINE
  5
241
  8
0
 62
     3
 10
-67.353389000000007
 20
667.79078499999991
 30
0.0
 11
-67.353389000000007
 21
668.07179799999994
 31
0.0
  0
LINE
  5
242
  8
0
 62
     3
 10
-67.353389000000007
 20
678.644766
 30
0.0
 11
-67.353389000000007
 21
678.92576799999995
 31
0.0
  0
LINE
  5
243
  8
0
 62
     3
 10
-61.353389
 20
662.38862400000005
 30
0.0
 11
-61.353389
 21
684.32793200000003
 31
0.0
  0
LINE
  5
244
  8
0
 62
   211
 10
-87.053386000000003
 20
669.35827800000004
 30
0.0
 11
-87.053386000000003
 21
677.35827800000004
 31
0.0
  0
LINE
  5
245
  8
0
 62
     9
 10
14.44656799999999
 20
661.35830899999985
 30
0.0
 11
-1.553431999999999
 21
661.35830899999985
 31
0.0
  0
LINE
  5
246
  8
0
 62
     9
 10
14.44656799999999
 20
685.35830899999985
 30
0.0
 11
-1.553431999999999
 21
685.35830899999985
 31
0.0
  0
LINE
  5
247
  8
0
 62
     9
 10
-53.260539000000001
 20
826.06538599999988
 30
0.0
 11
-52.553431999999987
 21
826.35827800000004
 31
0.0
  0
LINE
  5
248
  8
0
 62
     9
 10
-53.553432000000001
 20
825.35827800000004
 30
0.0
 11
-53.260539000000001
 21
826.06538599999988
 31
0.0
  0
LINE
  5
249
  8
0
 62
     9
 10
-52.553431999999987
 20
806.35827800000004
 30
0.0
 11
-53.260539000000001
 21
806.65117099999998
 31
0.0
  0
LINE
  5
24A
  8
0
 62
     9
 10
-53.260539000000001
 20
806.65117099999998
 30
0.0
 11
-53.553432000000001
 21
807.35827800000004
 31
0.0
  0
LINE
  5
24B
  8
0
 62
     9
 10
14.446614
 20
828.35827799999993
 30
0.0
 11
-0.5533859999999999
 21
828.35827799999993
 31
0.0
  0
LINE
  5
24C
  8
0
 62
     9
 10
14.446614
 20
804.35827800000015
 30
0.0
 11
-0.5533859999999999
 21
804.35827800000015
 31
0.0
  0
LINE
  5
24D
  8
0
 62
     9
 10
-1.5533859999999999
 20
827.35827799999993
 30
0.0
 11
-0.5533859999999999
 21
828.35827799999993
 31
0.0
  0
LINE
  5
24E
  8
0
 62
     9
 10
-0.5533859999999999
 20
804.35827800000015
 30
0.0
 11
-1.5533859999999999
 21
805.35827800000015
 31
0.0
  0
LINE
  5
24F
  8
0
 62
     7
 10
-67.353389000000007
 20
827.35827799999993
 30
0.0
 11
-69.853389000000007
 21
827.35827799999993
 31
0.0
  0
LINE
  5
250
  8
0
 62
     7
 10
-67.353389000000007
 20
805.35827800000015
 30
0.0
 11
-69.853389000000007
 21
805.35827800000015
 31
0.0
  0
LINE
  5
251
  8
0
 62
     7
 10
-75.853389000000007
 20
827.35827799999993
 30
0.0
 11
-78.353389000000007
 21
827.35827799999993
 31
0.0
  0
LINE
  5
252
  8
0
 62
     7
 10
-75.853389000000007
 20
805.35827800000015
 30
0.0
 11
-78.353389000000007
 21
805.35827800000015
 31
0.0
  0
LINE
  5
253
  8
0
 62
     7
 10
-23.853389
 20
827.35827799999993
 30
0.0
 11
-26.353389
 21
827.35827799999993
 31
0.0
  0
LINE
  5
254
  8
0
 62
     7
 10
-23.853389
 20
805.35827800000015
 30
0.0
 11
-26.353389
 21
805.35827800000015
 31
0.0
  0
LINE
  5
255
  8
0
 62
     7
 10
-15.353389
 20
827.35827799999993
 30
0.0
 11
-17.853389
 21
827.35827799999993
 31
0.0
  0
LINE
  5
256
  8
0
 62
     7
 10
-15.353389
 20
805.35827800000015
 30
0.0
 11
-17.853389
 21
805.35827800000015
 31
0.0
  0
LINE
  5
257
  8
0
 62
     7
 10
-53.553385999999989
 20
826.35827800000004
 30
0.0
 11
-54.353389
 21
826.35827800000004
 31
0.0
  0
LINE
  5
258
  8
0
 62
     7
 10
-53.553385999999989
 20
806.35827800000004
 30
0.0
 11
-54.353389
 21
806.35827800000004
 31
0.0
  0
LINE
  5
259
  8
0
 62
     3
 10
-61.353389
 20
827.32792900000015
 30
0.0
 11
-67.353389000000007
 21
827.32792900000015
 31
0.0
  0
LINE
  5
25A
  8
0
 62
     3
 10
-61.353389
 20
821.84311100000002
 30
0.0
 11
-67.353389000000007
 21
821.84311100000002
 31
0.0
  0
LINE
  5
25B
  8
0
 62
     3
 10
-61.353389
 20
810.87344599999994
 30
0.0
 11
-67.353389000000007
 21
810.87344599999994
 31
0.0
  0
LINE
  5
25C
  8
0
 62
     3
 10
-61.353389
 20
805.38862800000004
 30
0.0
 11
-67.353389000000007
 21
805.38862800000004
 31
0.0
  0
LINE
  5
25D
  8
0
 62
     3
 10
-78.353389000000007
 20
827.32792900000015
 30
0.0
 11
-84.353389000000007
 21
827.32792900000015
 31
0.0
  0
LINE
  5
25E
  8
0
 62
     3
 10
-78.353389000000007
 20
821.84311100000002
 30
0.0
 11
-84.353389000000007
 21
821.84311100000002
 31
0.0
  0
LINE
  5
25F
  8
0
 62
     3
 10
-78.353389000000007
 20
810.87344599999994
 30
0.0
 11
-84.353389000000007
 21
810.87344599999994
 31
0.0
  0
LINE
  5
260
  8
0
 62
     3
 10
-78.353389000000007
 20
805.38862800000004
 30
0.0
 11
-84.353389000000007
 21
805.38862800000004
 31
0.0
  0
LINE
  5
261
  8
0
 62
     3
 10
-54.353389
 20
827.32792900000015
 30
0.0
 11
-60.353389
 21
827.32792900000015
 31
0.0
  0
LINE
  5
262
  8
0
 62
     3
 10
-54.353389
 20
821.84311100000002
 30
0.0
 11
-60.353389
 21
821.84311100000002
 31
0.0
  0
LINE
  5
263
  8
0
 62
     3
 10
-54.353389
 20
810.87344599999994
 30
0.0
 11
-60.353389
 21
810.87344599999994
 31
0.0
  0
LINE
  5
264
  8
0
 62
     3
 10
-54.353389
 20
805.38862800000004
 30
0.0
 11
-60.353389
 21
805.38862800000004
 31
0.0
  0
LINE
  5
265
  8
0
 62
     3
 10
-26.353389
 20
827.32792900000015
 30
0.0
 11
-32.353389
 21
827.32792900000015
 31
0.0
  0
LINE
  5
266
  8
0
 62
     3
 10
-26.353389
 20
805.38862800000004
 30
0.0
 11
-32.353389
 21
805.38862800000004
 31
0.0
  0
LINE
  5
267
  8
0
 62
     3
 10
-9.3533889999999982
 20
827.32792900000015
 30
0.0
 11
-15.353389
 21
827.32792900000015
 31
0.0
  0
LINE
  5
268
  8
0
 62
     3
 10
-9.3533889999999982
 20
805.38862800000004
 30
0.0
 11
-15.353389
 21
805.38862800000004
 31
0.0
  0
LINE
  5
269
  8
0
 62
     3
 10
-2.3533889999999991
 20
827.32792900000015
 30
0.0
 11
-8.3533889999999982
 21
827.32792900000015
 31
0.0
  0
LINE
  5
26A
  8
0
 62
     3
 10
-2.3533889999999991
 20
805.38862800000004
 30
0.0
 11
-8.3533889999999982
 21
805.38862800000004
 31
0.0
  0
LINE
  5
26B
  8
0
 62
   211
 10
-87.053386000000003
 20
820.35827800000015
 30
0.0
 11
-85.053385999999989
 21
822.35827800000004
 31
0.0
  0
LINE
  5
26C
  8
0
 62
   211
 10
-85.053370000000001
 20
810.35827799999993
 30
0.0
 11
-87.053370000000001
 21
812.35826299999985
 31
0.0
  0
LINE
  5
26D
  8
0
 62
   211
 10
-85.053385999999989
 20
810.35827799999993
 30
0.0
 11
-85.053385999999989
 21
822.35827800000004
 31
0.0
  0
LINE
  5
26E
  8
0
 62
   211
 10
-84.353389000000007
 20
822.35827800000004
 30
0.0
 11
-85.053385999999989
 21
822.35827800000004
 31
0.0
  0
LINE
  5
26F
  8
0
 62
   211
 10
-69.853389000000007
 20
822.35827800000004
 30
0.0
 11
-75.853389000000007
 21
822.35827800000004
 31
0.0
  0
LINE
  5
270
  8
0
 62
   211
 10
-60.353389
 20
822.35827800000004
 30
0.0
 11
-61.353389
 21
822.35827800000004
 31
0.0
  0
LINE
  5
271
  8
0
 62
   211
 10
-84.353389000000007
 20
810.35827799999993
 30
0.0
 11
-85.053385999999989
 21
810.35827799999993
 31
0.0
  0
LINE
  5
272
  8
0
 62
   211
 10
-69.853389000000007
 20
810.35827799999993
 30
0.0
 11
-75.853389000000007
 21
810.35827799999993
 31
0.0
  0
LINE
  5
273
  8
0
 62
   211
 10
-60.353389
 20
810.35827799999993
 30
0.0
 11
-61.353389
 21
810.35827799999993
 31
0.0
  0
LINE
  5
274
  8
0
 62
     9
 10
-0.5533859999999999
 20
828.35827799999993
 30
0.0
 11
-1.553431999999999
 21
828.35827799999993
 31
0.0
  0
LINE
  5
275
  8
0
 62
     9
 10
-0.5533859999999999
 20
804.35827800000015
 30
0.0
 11
-1.553431999999999
 21
804.35827800000015
 31
0.0
  0
LINE
  5
276
  8
0
 62
     9
 10
-1.5533859999999999
 20
826.35827800000004
 30
0.0
 11
-52.553431999999987
 21
826.35827800000004
 31
0.0
  0
LINE
  5
277
  8
0
 62
     9
 10
-1.5533859999999999
 20
806.35827800000004
 30
0.0
 11
-52.553431999999987
 21
806.35827800000004
 31
0.0
  0
LINE
  5
278
  8
0
 62
     9
 10
-53.260523999999997
 20
683.06538599999988
 30
0.0
 11
-52.553416000000013
 21
683.35828200000003
 31
0.0
  0
LINE
  5
279
  8
0
 62
     9
 10
-53.553415999999999
 20
682.35828200000003
 30
0.0
 11
-53.260523999999997
 21
683.06539000000009
 31
0.0
  0
LINE
  5
27A
  8
0
 62
     9
 10
-52.553416000000013
 20
663.35827599999993
 30
0.0
 11
-53.260523999999997
 21
663.65116899999998
 31
0.0
  0
LINE
  5
27B
  8
0
 62
     9
 10
-53.260523999999997
 20
663.65116899999998
 30
0.0
 11
-53.553415999999999
 21
664.35827400000005
 31
0.0
  0
LINE
  5
27C
  8
0
 62
     7
 10
-67.353389000000007
 20
684.35827800000004
 30
0.0
 11
-69.853389000000007
 21
684.35827800000004
 31
0.0
  0
LINE
  5
27D
  8
0
 62
     7
 10
-67.353389000000007
 20
662.35827800000004
 30
0.0
 11
-69.853389000000007
 21
662.35827800000004
 31
0.0
  0
LINE
  5
27E
  8
0
 62
     7
 10
-75.853389000000007
 20
684.35827800000004
 30
0.0
 11
-78.353389000000007
 21
684.35827800000004
 31
0.0
  0
LINE
  5
27F
  8
0
 62
     7
 10
-75.853389000000007
 20
662.35827800000004
 30
0.0
 11
-78.353389000000007
 21
662.35827800000004
 31
0.0
  0
LINE
  5
280
  8
0
 62
     7
 10
-53.553385999999989
 20
683.35827800000004
 30
0.0
 11
-54.353389
 21
683.35827800000004
 31
0.0
  0
LINE
  5
281
  8
0
 62
     7
 10
-53.553385999999989
 20
663.35827800000004
 30
0.0
 11
-54.353389
 21
663.35827800000004
 31
0.0
  0
LINE
  5
282
  8
0
 62
     3
 10
-78.353389000000007
 20
684.32793200000003
 30
0.0
 11
-84.353389000000007
 21
684.32793200000003
 31
0.0
  0
LINE
  5
283
  8
0
 62
     3
 10
-78.353389000000007
 20
678.84310700000003
 30
0.0
 11
-84.353389000000007
 21
678.84310700000003
 31
0.0
  0
LINE
  5
284
  8
0
 62
     3
 10
-78.353389000000007
 20
667.87344900000005
 30
0.0
 11
-84.353389000000007
 21
667.87344900000005
 31
0.0
  0
LINE
  5
285
  8
0
 62
     3
 10
-78.353389000000007
 20
662.38862400000005
 30
0.0
 11
-84.353389000000007
 21
662.38862400000005
 31
0.0
  0
LINE
  5
286
  8
0
 62
     3
 10
-54.353389
 20
684.32793200000003
 30
0.0
 11
-60.353389
 21
684.32793200000003
 31
0.0
  0
LINE
  5
287
  8
0
 62
     3
 10
-54.353389
 20
678.84310700000003
 30
0.0
 11
-60.353389
 21
678.84310700000003
 31
0.0
  0
LINE
  5
288
  8
0
 62
     3
 10
-54.353389
 20
667.87344900000005
 30
0.0
 11
-60.353389
 21
667.87344900000005
 31
0.0
  0
LINE
  5
289
  8
0
 62
     3
 10
-54.353389
 20
662.38862400000005
 30
0.0
 11
-60.353389
 21
662.38862400000005
 31
0.0
  0
LINE
  5
28A
  8
0
 62
     3
 10
-61.353389
 20
684.32793200000003
 30
0.0
 11
-67.353389000000007
 21
684.32793200000003
 31
0.0
  0
LINE
  5
28B
  8
0
 62
     3
 10
-61.353389
 20
678.84310700000003
 30
0.0
 11
-67.353389000000007
 21
678.84310700000003
 31
0.0
  0
LINE
  5
28C
  8
0
 62
     3
 10
-61.353389
 20
667.87344900000005
 30
0.0
 11
-67.353389000000007
 21
667.87344900000005
 31
0.0
  0
LINE
  5
28D
  8
0
 62
     3
 10
-61.353389
 20
662.38862400000005
 30
0.0
 11
-67.353389000000007
 21
662.38862400000005
 31
0.0
  0
LINE
  5
28E
  8
0
 62
   211
 10
-87.053386000000003
 20
677.35828200000003
 30
0.0
 11
-85.053385999999989
 21
679.35828200000003
 31
0.0
  0
LINE
  5
28F
  8
0
 62
   211
 10
-85.053385999999989
 20
667.35827400000005
 30
0.0
 11
-87.053386000000003
 21
669.35827400000005
 31
0.0
  0
LINE
  5
290
  8
0
 62
   211
 10
-85.053385999999989
 20
667.35827800000004
 30
0.0
 11
-85.053385999999989
 21
679.35827800000004
 31
0.0
  0
LINE
  5
291
  8
0
 62
   211
 10
-84.353389000000007
 20
679.35827800000004
 30
0.0
 11
-85.053385999999989
 21
679.35827800000004
 31
0.0
  0
LINE
  5
292
  8
0
 62
   211
 10
-69.853389000000007
 20
679.35827800000004
 30
0.0
 11
-75.853389000000007
 21
679.35827800000004
 31
0.0
  0
LINE
  5
293
  8
0
 62
   211
 10
-60.353389
 20
679.35827800000004
 30
0.0
 11
-61.353389
 21
679.35827800000004
 31
0.0
  0
LINE
  5
294
  8
0
 62
   211
 10
-84.353389000000007
 20
667.35827800000004
 30
0.0
 11
-85.053385999999989
 21
667.35827800000004
 31
0.0
  0
LINE
  5
295
  8
0
 62
   211
 10
-69.853389000000007
 20
667.35827800000004
 30
0.0
 11
-75.853389000000007
 21
667.35827800000004
 31
0.0
  0
LINE
  5
296
  8
0
 62
   211
 10
-60.353389
 20
667.35827800000004
 30
0.0
 11
-61.353389
 21
667.35827800000004
 31
0.0
  0
LINE
  5
297
  8
0
 62
     7
 10
-69.853389000000007
 20
821.35827800000015
 30
0.0
 11
-75.853389000000007
 21
821.35827800000015
 31
0.0
  0
LINE
  5
298
  8
0
 62
     7
 10
-69.853389000000007
 20
811.35827799999993
 30
0.0
 11
-75.853389000000007
 21
811.35827799999993
 31
0.0
  0
LINE
  5
299
  8
0
 62
     7
 10
-69.853389000000007
 20
678.35827800000004
 30
0.0
 11
-75.853389000000007
 21
678.35827800000004
 31
0.0
  0
LINE
  5
29A
  8
0
 62
     7
 10
-69.853389000000007
 20
668.35827800000004
 30
0.0
 11
-75.853389000000007
 21
668.35827800000004
 31
0.0
  0
LINE
  5
29B
  8
0
  6
DASHDOT
 62
     7
 10
27.775319
 20
816.35827800000004
 30
0.0
 11
-103.8740489999999
 21
816.35827800000004
 31
0.0
  0
LINE
  5
29C
  8
0
  6
DASHDOT
 62
     7
 10
27.775319
 20
673.35830899999985
 30
0.0
 11
-103.8740489999999
 21
673.35830899999985
 31
0.0
  0
LINE
  5
29D
  8
0
 62
     7
 10
169.44661999999991
 20
797.60186999999996
 30
0.0
 11
169.44661999999991
 21
810.60186999999985
 31
0.0
  0
LINE
  5
29E
  8
0
 62
     7
 10
171.44661999999991
 20
824.10186999999985
 30
0.0
 11
171.44661999999991
 21
847.97859399999993
 31
0.0
  0
LINE
  5
29F
  8
0
 62
     7
 10
169.44661999999991
 20
612.32069200000001
 30
0.0
 11
169.44661999999991
 21
668.60187299999996
 31
0.0
  0
LINE
  5
2A0
  8
0
 62
     7
 10
171.44661999999991
 20
611.79895399999987
 30
0.0
 11
171.44661999999991
 21
661.10187299999996
 31
0.0
  0
POLYLINE
  5
2A1
  8
0
 62
     3
 66
     1
 10
0.0
 20
0.0
 30
0.0
  0
VERTEX
  5
987
  8
0
 62
     3
 10
164.07278400000001
 20
846.5280019999999
 30
0.0
  0
VERTEX
  5
988
  8
0
 62
     3
 10
175.14447799999991
 20
848.70604099999991
 30
0.0
  0
VERTEX
  5
989
  8
0
 62
     3
 10
175.73962900000001
 20
850.86145199999999
 30
0.0
  0
VERTEX
  5
98A
  8
0
 62
     3
 10
177.49291099999999
 20
847.12970199999995
 30
0.0
  0
VERTEX
  5
98B
  8
0
 62
     3
 10
178.08806100000001
 20
849.28511199999991
 30
0.0
  0
SEQEND
  5
98C
  8
0
 62
     3
  0
POLYLINE
  5
2A8
  8
0
 62
     3
 66
     1
 10
0.0
 20
0.0
 30
0.0
  0
VERTEX
  5
98D
  8
0
 62
     3
 10
179.69637099999991
 20
609.64684499999987
 30
0.0
  0
VERTEX
  5
98E
  8
0
 62
     3
 10
166.74587700000001
 20
613.02523399999995
 30
0.0
  0
VERTEX
  5
98F
  8
0
 62
     3
 10
165.273416
 20
611.34242199999994
 30
0.0
  0
VERTEX
  5
990
  8
0
 62
     3
 10
165.31548599999999
 20
615.46531300000004
 30
0.0
  0
VERTEX
  5
991
  8
0
 62
     3
 10
163.84302500000001
 20
613.78250100000002
 30
0.0
  0
SEQEND
  5
992
  8
0
 62
     3
  0
LINE
  5
2AF
  8
0
 62
     7
 10
171.44661999999991
 20
817.10186999999985
 30
0.0
 11
169.44661999999991
 21
817.10186999999985
 31
0.0
  0
LINE
  5
2B0
  8
0
 62
     7
 10
171.44661999999991
 20
810.10186999999985
 30
0.0
 11
169.44661999999991
 21
810.10186999999985
 31
0.0
  0
LINE
  5
2B1
  8
0
 62
     7
 10
171.44661999999991
 20
798.60186999999985
 30
0.0
 11
169.44661999999991
 21
798.60186999999985
 31
0.0
  0
LINE
  5
2B2
  8
0
 62
     7
 10
171.44661999999991
 20
686.60187299999996
 30
0.0
 11
169.44661999999991
 21
686.60187299999996
 31
0.0
  0
LINE
  5
2B3
  8
0
 62
     7
 10
171.44661999999991
 20
675.10187300000007
 30
0.0
 11
169.44661999999991
 21
675.10187300000007
 31
0.0
  0
LINE
  5
2B4
  8
0
 62
     7
 10
171.44661999999991
 20
668.10187299999996
 30
0.0
 11
169.44661999999991
 21
668.10187299999996
 31
0.0
  0
LINE
  5
2B5
  8
0
 62
     7
 10
169.44661999999991
 20
674.60187300000007
 30
0.0
 11
169.44661999999991
 21
689.60187299999996
 31
0.0
  0
LINE
  5
2B6
  8
0
 62
     7
 10
169.44661999999991
 20
816.60186999999996
 30
0.0
 11
169.44661999999991
 21
847.58514600000012
 31
0.0
  0
LINE
  5
2B7
  8
0
  6
DASHDOT
 62
     7
 10
190.79568399999991
 20
742.60830899999985
 30
0.0
 11
-3.3688150000000001
 21
742.60830899999985
 31
0.0
  0
LINE
  5
2B8
  8
0
 62
     7
 10
162.946629
 20
832.35830899999985
 30
0.0
 11
64.446629999999999
 21
832.35830899999985
 31
0.0
  0
LINE
  5
2B9
  8
0
 62
     7
 10
162.946629
 20
657.35832199999993
 30
0.0
 11
64.446629999999999
 21
657.35832199999993
 31
0.0
  0
LINE
  5
2BA
  8
0
 62
     7
 10
163.946629
 20
658.35832199999993
 30
0.0
 11
163.946629
 21
683.60835099999986
 31
0.0
  0
LINE
  5
2BB
  8
0
 62
     7
 10
163.946629
 20
806.60830899999985
 30
0.0
 11
163.946629
 21
831.35830899999985
 31
0.0
  0
LINE
  5
2BC
  8
0
 62
     7
 10
162.946629
 20
805.60830899999985
 30
0.0
 11
162.946629
 21
806.60830899999985
 31
0.0
  0
LINE
  5
2BD
  8
0
 62
     7
 10
163.946629
 20
806.60830899999985
 30
0.0
 11
162.946629
 21
806.60830899999985
 31
0.0
  0
LINE
  5
2BE
  8
0
 62
     7
 10
163.946629
 20
683.60835099999986
 30
0.0
 11
162.946629
 21
683.60835099999986
 31
0.0
  0
LINE
  5
2BF
  8
0
 62
     7
 10
162.946629
 20
683.60835099999986
 30
0.0
 11
162.946629
 21
684.60835099999986
 31
0.0
  0
ARC
  5
2C0
  8
0
 62
     7
 10
162.946629
 20
658.35832199999993
 30
0.0
 40
1.0
 50
270.00000499999987
 51
0.000001
  0
ARC
  5
2C1
  8
0
 62
     7
 10
162.946629
 20
831.35830899999985
 30
0.0
 40
1.0
 50
0.000001
 51
90.000010000000003
  0
LINE
  5
2C2
  8
0
 62
     3
 10
-26.353389
 20
684.32793200000003
 30
0.0
 11
-32.353389
 21
684.32793200000003
 31
0.0
  0
LINE
  5
2C3
  8
0
 62
     3
 10
-26.353389
 20
662.38862400000005
 30
0.0
 11
-32.353389
 21
662.38862400000005
 31
0.0
  0
LINE
  5
2C4
  8
0
 62
     7
 10
-23.853389
 20
662.35827800000004
 30
0.0
 11
-26.353389
 21
662.35827800000004
 31
0.0
  0
LINE
  5
2C5
  8
0
 62
     7
 10
-23.853389
 20
684.35827800000004
 30
0.0
 11
-26.353389
 21
684.35827800000004
 31
0.0
  0
LINE
  5
2C6
  8
0
 62
     7
 10
-15.353389
 20
684.35827800000004
 30
0.0
 11
-17.853389
 21
684.35827800000004
 31
0.0
  0
LINE
  5
2C7
  8
0
 62
     3
 10
-9.3533889999999982
 20
684.32793200000003
 30
0.0
 11
-15.353389
 21
684.32793200000003
 31
0.0
  0
LINE
  5
2C8
  8
0
 62
     7
 10
-17.853389
 20
662.35827800000004
 30
0.0
 11
-17.853389
 21
663.35830899999996
 31
0.0
  0
LINE
  5
2C9
  8
0
 62
     7
 10
-15.353389
 20
662.38862400000005
 30
0.0
 11
-15.353389
 21
663.35830899999996
 31
0.0
  0
LINE
  5
2CA
  8
0
 62
     7
 10
-9.3533889999999982
 20
662.38862400000005
 30
0.0
 11
-9.3533889999999982
 21
663.35830899999996
 31
0.0
  0
LINE
  5
2CB
  8
0
 62
     3
 10
-9.3533889999999982
 20
662.38862400000005
 30
0.0
 11
-15.353389
 21
662.38862400000005
 31
0.0
  0
LINE
  5
2CC
  8
0
 62
     7
 10
-15.353389
 20
662.35827800000004
 30
0.0
 11
-17.853389
 21
662.35827800000004
 31
0.0
  0
LINE
  5
2CD
  8
0
 62
     7
 10
-8.3533889999999982
 20
662.38862400000005
 30
0.0
 11
-8.3533889999999982
 21
663.35830899999996
 31
0.0
  0
LINE
  5
2CE
  8
0
 62
     3
 10
-2.3533889999999991
 20
662.38862400000005
 30
0.0
 11
-8.3533889999999982
 21
662.38862400000005
 31
0.0
  0
LINE
  5
2CF
  8
0
 62
     3
 10
-2.3533889999999991
 20
684.32793200000003
 30
0.0
 11
-8.3533889999999982
 21
684.32793200000003
 31
0.0
  0
LINE
  5
2D0
  8
0
 62
     7
 10
-2.3533889999999991
 20
662.38862400000005
 30
0.0
 11
-2.3533889999999991
 21
663.35830899999996
 31
0.0
  0
LINE
  5
2D1
  8
0
 62
     7
 10
-1.5533859999999999
 20
683.35827800000004
 30
0.0
 11
-2.3533889999999991
 21
683.35827800000004
 31
0.0
  0
LINE
  5
2D2
  8
0
 62
     7
 10
-1.5533859999999999
 20
663.35827800000004
 30
0.0
 11
-2.3533889999999991
 21
663.35827800000004
 31
0.0
  0
LINE
  5
2D3
  8
0
 62
     9
 10
-2.3533889999999991
 20
683.35830899999985
 30
0.0
 11
-52.553431999999987
 21
683.35830899999985
 31
0.0
  0
LINE
  5
2D4
  8
0
 62
     9
 10
-2.3533889999999991
 20
663.35830899999996
 30
0.0
 11
-52.553431999999987
 21
663.35830899999996
 31
0.0
  0
LINE
  5
2D5
  8
0
 62
     7
 10
-8.3533889999999982
 20
805.38862800000004
 30
0.0
 11
-8.3533889999999982
 21
806.35827800000004
 31
0.0
  0
LINE
  5
2D6
  8
0
 62
     7
 10
-9.3533889999999982
 20
805.38862800000004
 30
0.0
 11
-9.3533889999999982
 21
806.35827800000004
 31
0.0
  0
LINE
  5
2D7
  8
0
 62
     7
 10
-17.853389
 20
805.35827800000015
 30
0.0
 11
-17.853389
 21
806.35827800000004
 31
0.0
  0
LINE
  5
2D8
  8
0
 62
     7
 10
-23.853389
 20
805.35827800000015
 30
0.0
 11
-23.853389
 21
806.35827800000004
 31
0.0
  0
LINE
  5
2D9
  8
0
 62
     7
 10
-32.353389
 20
805.38862800000004
 30
0.0
 11
-32.353389
 21
806.35827800000004
 31
0.0
  0
LINE
  5
2DA
  8
0
 62
     7
 10
-32.353389
 20
826.35827800000004
 30
0.0
 11
-32.353389
 21
827.32792900000015
 31
0.0
  0
LINE
  5
2DB
  8
0
 62
     7
 10
-23.853389
 20
826.35827800000004
 30
0.0
 11
-23.853389
 21
827.35827799999993
 31
0.0
  0
LINE
  5
2DC
  8
0
 62
     7
 10
-17.853389
 20
826.35827800000004
 30
0.0
 11
-17.853389
 21
827.35827799999993
 31
0.0
  0
LINE
  5
2DD
  8
0
 62
     7
 10
-9.3533889999999982
 20
826.35827800000004
 30
0.0
 11
-9.3533889999999982
 21
827.32792900000015
 31
0.0
  0
LINE
  5
2DE
  8
0
 62
     7
 10
-8.3533889999999982
 20
826.35827800000004
 30
0.0
 11
-8.3533889999999982
 21
827.32792900000015
 31
0.0
  0
LINE
  5
2DF
  8
0
 62
     7
 10
6.746586999999999
 20
791.65831200000002
 30
0.0
 11
6.746586999999999
 21
798.05830599999979
 31
0.0
  0
LINE
  5
2E0
  8
0
 62
     7
 10
3.5465900000000001
 20
792.85830899999996
 30
0.0
 11
3.5465900000000001
 21
796.85830899999996
 31
0.0
  0
LINE
  5
2E1
  8
0
 62
     7
 10
9.9465839999999996
 20
798.05830599999979
 30
0.0
 11
6.746586999999999
 21
798.05830599999979
 31
0.0
  0
LINE
  5
2E2
  8
0
 62
     7
 10
9.9465839999999996
 20
791.65831200000002
 30
0.0
 11
6.746586999999999
 21
791.65831200000002
 31
0.0
  0
LINE
  5
2E3
  8
0
 62
     7
 10
9.9465839999999996
 20
796.85830899999996
 30
0.0
 11
3.5465900000000001
 21
796.85830899999996
 31
0.0
  0
LINE
  5
2E4
  8
0
 62
     7
 10
9.9465839999999996
 20
792.85830899999996
 30
0.0
 11
3.5465900000000001
 21
792.85830899999996
 31
0.0
  0
LINE
  5
2E5
  8
0
 62
     7
 10
9.9465839999999996
 20
698.05830599999979
 30
0.0
 11
6.746586999999999
 21
698.05830599999979
 31
0.0
  0
LINE
  5
2E6
  8
0
 62
     7
 10
9.9465839999999996
 20
696.85830899999996
 30
0.0
 11
3.5465900000000001
 21
696.85830899999996
 31
0.0
  0
LINE
  5
2E7
  8
0
 62
     7
 10
9.9465839999999996
 20
692.85830899999996
 30
0.0
 11
3.5465900000000001
 21
692.85830899999996
 31
0.0
  0
LINE
  5
2E8
  8
0
 62
     7
 10
9.9465839999999996
 20
691.65830800000003
 30
0.0
 11
6.746586999999999
 21
691.65830800000003
 31
0.0
  0
LINE
  5
2E9
  8
0
 62
     7
 10
6.746586999999999
 20
691.65830800000003
 30
0.0
 11
6.746586999999999
 21
698.05830599999979
 31
0.0
  0
LINE
  5
2EA
  8
0
 62
     7
 10
3.5465900000000001
 20
692.85830899999996
 30
0.0
 11
3.5465900000000001
 21
696.85830899999996
 31
0.0
  0
CIRCLE
  5
2EB
  8
0
 62
     7
 10
8.2729999999999997
 20
795.34024199999988
 30
0.0
 40
0.2
  0
LINE
  5
2EC
  8
0
 62
     7
 10
-32.353389
 20
662.38862400000005
 30
0.0
 11
-32.353389
 21
663.35830899999996
 31
0.0
  0
LINE
  5
2ED
  8
0
 62
     7
 10
-23.853389
 20
662.35827800000004
 30
0.0
 11
-23.853389
 21
663.35830899999996
 31
0.0
  0
LINE
  5
2EE
  8
0
 62
     7
 10
-26.353389
 20
662.38862400000005
 30
0.0
 11
-26.353389
 21
663.35830899999996
 31
0.0
  0
LINE
  5
2EF
  8
0
 62
     7
 10
-32.353389
 20
683.35830899999985
 30
0.0
 11
-32.353389
 21
684.32793200000003
 31
0.0
  0
LINE
  5
2F0
  8
0
 62
     7
 10
-26.353389
 20
683.35830899999985
 30
0.0
 11
-26.353389
 21
684.32793200000003
 31
0.0
  0
LINE
  5
2F1
  8
0
 62
     7
 10
-23.853389
 20
683.35830899999985
 30
0.0
 11
-23.853389
 21
684.32793200000003
 31
0.0
  0
LINE
  5
2F2
  8
0
 62
     7
 10
-2.3533889999999991
 20
683.35830899999985
 30
0.0
 11
-2.3533889999999991
 21
684.32793200000003
 31
0.0
  0
LINE
  5
2F3
  8
0
 62
     7
 10
-8.3533889999999982
 20
683.35830899999985
 30
0.0
 11
-8.3533889999999982
 21
684.32793200000003
 31
0.0
  0
LINE
  5
2F4
  8
0
 62
     7
 10
-9.3533889999999982
 20
683.35830899999985
 30
0.0
 11
-9.3533889999999982
 21
684.32793200000003
 31
0.0
  0
LINE
  5
2F5
  8
0
 62
     7
 10
-15.353389
 20
683.35830899999985
 30
0.0
 11
-15.353389
 21
684.35827800000004
 31
0.0
  0
LINE
  5
2F6
  8
0
 62
     7
 10
-17.853389
 20
683.35830899999985
 30
0.0
 11
-17.853389
 21
684.35827800000004
 31
0.0
  0
LINE
  5
2F7
  8
0
 62
     7
 10
220.78055299999991
 20
690.10830499999986
 30
0.0
 11
221.82248399999989
 21
696.01715699999988
 31
0.0
  0
LINE
  5
2F8
  8
0
 62
     7
 10
220.78055299999991
 20
690.10830499999986
 30
0.0
 11
219.73868300000001
 21
696.01715699999988
 31
0.0
  0
LINE
  5
2F9
  8
0
 62
     7
 10
220.78055299999991
 20
795.10830899999996
 30
0.0
 11
219.73868300000001
 21
789.19946500000003
 31
0.0
  0
LINE
  5
2FA
  8
0
 62
     7
 10
220.78055299999991
 20
795.10830899999996
 30
0.0
 11
221.82248399999989
 21
789.19946500000003
 31
0.0
  0
LINE
  5
2FB
  8
0
 62
     7
 10
220.78055299999991
 20
690.10830499999986
 30
0.0
 11
220.78055299999991
 21
795.10830899999996
 31
0.0
  0
LINE
  5
2FC
  8
0
 62
     7
 10
224.78055299999991
 20
690.10831299999995
 30
0.0
 11
169.44663
 21
690.10830499999986
 31
0.0
  0
LINE
  5
2FD
  8
0
 62
     7
 10
224.78055299999991
 20
795.10830899999996
 30
0.0
 11
169.44663
 21
795.10830899999996
 31
0.0
  0
LINE
  5
2FE
  8
0
 62
     7
 10
165.94797199999999
 20
637.26471100000003
 30
0.0
 11
160.039098
 21
638.306601
 31
0.0
  0
LINE
  5
2FF
  8
0
 62
     7
 10
165.94797199999999
 20
637.26471100000003
 30
0.0
 11
160.039098
 21
636.22282199999995
 31
0.0
  0
LINE
  5
300
  8
0
 62
     7
 10
12.946630000000001
 20
637.26475900000003
 30
0.0
 11
18.855443000000001
 21
636.22287000000006
 31
0.0
  0
LINE
  5
301
  8
0
 62
     7
 10
12.946630000000001
 20
637.26475900000003
 30
0.0
 11
18.855443000000001
 21
638.306646
 31
0.0
  0
LINE
  5
302
  8
0
 62
     7
 10
165.94797199999999
 20
637.26471100000003
 30
0.0
 11
12.946630000000001
 21
637.26475900000003
 31
0.0
  0
LINE
  5
303
  8
0
 62
     7
 10
165.94797199999999
 20
633.26471100000003
 30
0.0
 11
165.94797199999999
 21
690.10830499999986
 31
0.0
  0
LINE
  5
304
  8
0
 62
     7
 10
12.946630000000001
 20
641.26475900000003
 30
0.0
 11
12.946630000000001
 21
624.92537400000003
 31
0.0
  0
LINE
  5
305
  8
0
 62
     7
 10
197.49167299999991
 20
594.25300800000002
 30
0.0
 11
191.58286000000001
 21
595.29489699999999
 31
0.0
  0
LINE
  5
306
  8
0
 62
     7
 10
197.49167299999991
 20
594.25300800000002
 30
0.0
 11
191.58286000000001
 21
593.21111900000005
 31
0.0
  0
LINE
  5
307
  8
0
 62
     7
 10
12.946567999999999
 20
594.25306499999999
 30
0.0
 11
18.855443000000001
 21
593.21117199999992
 31
0.0
  0
LINE
  5
308
  8
0
 62
     7
 10
12.946567999999999
 20
594.25306499999999
 30
0.0
 11
18.855443000000001
 21
595.29494999999986
 31
0.0
  0
LINE
  5
309
  8
0
 62
     7
 10
197.49167299999991
 20
594.25300800000002
 30
0.0
 11
12.946567999999999
 21
594.25306499999999
 31
0.0
  0
LINE
  5
30A
  8
0
 62
     7
 10
197.49167299999991
 20
590.25300800000002
 30
0.0
 11
197.49173500000001
 21
732.35830899999985
 31
0.0
  0
LINE
  5
30B
  8
0
 62
     7
 10
12.946567999999999
 20
590.25306499999999
 30
0.0
 11
12.946630000000001
 21
624.92536699999994
 31
0.0
  0
LINE
  5
30C
  8
0
 62
     7
 10
12.946567999999999
 20
637.26471100000003
 30
0.0
 11
18.855443000000001
 21
636.22281999999996
 31
0.0
  0
LINE
  5
30D
  8
0
 62
     7
 10
12.946567999999999
 20
637.26471100000003
 30
0.0
 11
18.855443000000001
 21
638.30659900000001
 31
0.0
  0
LINE
  5
30E
  8
0
 62
     7
 10
9.9465679999999992
 20
637.26471100000003
 30
0.0
 11
4.0377549999999998
 21
638.306601
 31
0.0
  0
LINE
  5
30F
  8
0
 62
     7
 10
9.9465679999999992
 20
637.26471100000003
 30
0.0
 11
4.0377549999999998
 21
636.22282199999995
 31
0.0
  0
LINE
  5
310
  8
0
 62
     7
 10
12.946567999999999
 20
637.26471100000003
 30
0.0
 11
-3.912806999999999
 21
637.26471700000002
 31
0.0
  0
LINE
  5
311
  8
0
 62
     7
 10
-108.070155
 20
673.35830899999985
 30
0.0
 11
-107.028285
 21
679.267157
 31
0.0
  0
LINE
  5
312
  8
0
 62
     7
 10
-108.070155
 20
673.35830899999985
 30
0.0
 11
-109.112025
 21
679.267157
 31
0.0
  0
LINE
  5
313
  8
0
 62
     7
 10
-108.070155
 20
816.35827800000004
 30
0.0
 11
-109.112025
 21
810.449434
 31
0.0
  0
LINE
  5
314
  8
0
 62
     7
 10
-108.070155
 20
816.35827800000004
 30
0.0
 11
-107.028285
 21
810.449434
 31
0.0
  0
LINE
  5
315
  8
0
 62
     7
 10
-108.070155
 20
673.35830899999985
 30
0.0
 11
-108.070155
 21
816.35827800000004
 31
0.0
  0
LINE
  5
316
  8
0
 62
     7
 10
-112.0701549999999
 20
673.35830899999985
 30
0.0
 11
-101.17818699999989
 21
673.35830899999985
 31
0.0
  0
LINE
  5
317
  8
0
 62
     7
 10
-112.0701549999999
 20
816.35827800000004
 30
0.0
 11
-101.17818699999989
 21
816.35827800000004
 31
0.0
  0
LINE
  5
318
  8
0
 62
     7
 10
171.44662999999991
 20
616.93294300000002
 30
0.0
 11
177.35544299999989
 21
615.89105599999994
 31
0.0
  0
LINE
  5
319
  8
0
 62
     7
 10
171.44662999999991
 20
616.93294300000002
 30
0.0
 11
177.35544299999989
 21
617.97483299999988
 31
0.0
  0
LINE
  5
31A
  8
0
 62
     7
 10
169.44663
 20
616.93294300000002
 30
0.0
 11
163.537755
 21
617.97483199999988
 31
0.0
  0
LINE
  5
31B
  8
0
 62
     7
 10
169.44663
 20
616.93294300000002
 30
0.0
 11
163.537755
 21
615.89105400000005
 31
0.0
  0
LINE
  5
31C
  8
0
 62
     7
 10
12.946567999999999
 20
616.93293700000004
 30
0.0
 11
18.855443000000001
 21
615.89104800000007
 31
0.0
  0
LINE
  5
31D
  8
0
 62
     7
 10
12.946567999999999
 20
616.93293700000004
 30
0.0
 11
18.855443000000001
 21
617.97482600000001
 31
0.0
  0
LINE
  5
31E
  8
0
 62
     7
 10
182.94662999999991
 20
616.93294400000002
 30
0.0
 11
12.946567999999999
 21
616.93293700000004
 31
0.0
  0
LINE
  5
31F
  8
0
 62
     7
 10
12.946567999999999
 20
612.93293600000004
 30
0.0
 11
12.946567999999999
 21
624.92530799999986
 31
0.0
  0
LINE
  5
320
  8
0
 62
     7
 10
-90.128382999999999
 20
742.60830099999998
 30
0.0
 11
-89.086512999999997
 21
748.51714500000003
 31
0.0
  0
LINE
  5
321
  8
0
 62
     7
 10
-90.128382999999999
 20
742.60830099999998
 30
0.0
 11
-91.170252999999988
 21
748.51714500000003
 31
0.0
  0
LINE
  5
322
  8
0
 62
     7
 10
-90.128382999999999
 20
816.35827800000004
 30
0.0
 11
-91.170252999999988
 21
810.449434
 31
0.0
  0
LINE
  5
323
  8
0
 62
     7
 10
-90.128382999999999
 20
816.35827800000004
 30
0.0
 11
-89.086512999999997
 21
810.449434
 31
0.0
  0
LINE
  5
324
  8
0
 62
     7
 10
-90.128382999999999
 20
742.60830099999998
 30
0.0
 11
-90.128382999999999
 21
816.35827800000004
 31
0.0
  0
LINE
  5
325
  8
0
 62
     7
 10
-94.128382999999999
 20
742.60830099999998
 30
0.0
 11
-3.3687999999999989
 21
742.60830899999985
 31
0.0
  0
LINE
  5
326
  8
0
 62
     7
 10
-326.542776
 20
662.65830000000005
 30
0.0
 11
-326.542776
 21
827.05829800000004
 31
0.0
  0
LINE
  5
327
  8
0
 62
     3
 10
-187.042744
 20
795.10830099999987
 30
0.0
 11
-291.04273599999988
 21
795.10830099999987
 31
0.0
  0
LINE
  5
328
  8
0
 62
     3
 10
-187.042744
 20
690.10832400000004
 30
0.0
 11
-200.542744
 21
690.10832400000004
 31
0.0
  0
LINE
  5
329
  8
0
 62
     3
 10
-212.04274399999991
 20
690.10832400000004
 30
0.0
 11
-236.59345599999989
 21
690.10832400000004
 31
0.0
  0
LINE
  5
32A
  8
0
 62
     3
 10
-277.54273599999999
 20
690.10832400000004
 30
0.0
 11
-291.04273599999988
 21
690.10832400000004
 31
0.0
  0
LINE
  5
32B
  8
0
 62
     3
 10
-266.04273599999988
 20
690.10832400000004
 30
0.0
 11
-277.54273599999999
 21
690.10832400000004
 31
0.0
  0
LINE
  5
32C
  8
0
 62
     3
 10
-200.542744
 20
690.10832400000004
 30
0.0
 11
-212.04274399999991
 21
690.10832400000004
 31
0.0
  0
LINE
  5
32D
  8
0
  6
DASHDOT
 62
     7
 10
-239.04273599999991
 20
602.62475199999994
 30
0.0
 11
-239.04273599999991
 21
864.58037799999988
 31
0.0
  0
ARC
  5
32E
  8
0
 62
     3
 10
-291.04273599999988
 20
690.60832400000004
 30
0.0
 40
0.5
 50
180.00000299999991
 51
270.00000499999987
  0
ARC
  5
32F
  8
0
 62
     3
 10
-291.04273599999988
 20
794.60830099999987
 30
0.0
 40
0.5
 50
90.0
 51
180.00000299999991
  0
ARC
  5
330
  8
0
 62
     3
 10
-187.042744
 20
794.60830099999987
 30
0.0
 40
0.5
 50
0.000001
 51
90.0
  0
ARC
  5
331
  8
0
 62
     3
 10
-187.042744
 20
690.60832400000004
 30
0.0
 40
0.5
 50
270.00000499999987
 51
0.000001
  0
LINE
  5
332
  8
0
 62
     3
 10
-241.4921839999999
 20
690.10832400000004
 30
0.0
 11
-266.04273599999988
 21
690.10832400000004
 31
0.0
  0
LINE
  5
333
  8
0
 62
     7
 10
-266.5427509999999
 20
690.10830899999996
 30
0.0
 11
-276.54273599999988
 21
690.10830899999996
 31
0.0
  0
LINE
  5
334
  8
0
 62
     7
 10
-201.54275899999999
 20
690.10830899999996
 30
0.0
 11
-211.5427589999999
 21
690.10830899999996
 31
0.0
  0
LINE
  5
335
  8
0
 62
     7
 10
-291.54273599999988
 20
690.60830899999996
 30
0.0
 11
-291.54273599999988
 21
708.60829399999989
 31
0.0
  0
LINE
  5
336
  8
0
 62
     7
 10
-187.04272800000001
 20
795.10830099999987
 30
0.0
 11
-291.04273599999988
 21
795.10830099999987
 31
0.0
  0
LINE
  5
337
  8
0
 62
     7
 10
-276.54273599999988
 20
690.10830899999996
 30
0.0
 11
-291.04273599999988
 21
690.10830899999996
 31
0.0
  0
LINE
  5
338
  8
0
 62
     7
 10
-211.5427589999999
 20
690.10830899999996
 30
0.0
 11
-266.5427509999999
 21
690.10830899999996
 31
0.0
  0
LINE
  5
339
  8
0
 62
     7
 10
-187.04272800000001
 20
690.10830899999996
 30
0.0
 11
-201.54275899999999
 21
690.10830899999996
 31
0.0
  0
LINE
  5
33A
  8
0
 62
     7
 10
-228.29273599999991
 20
712.358294
 30
0.0
 11
-228.29273599999991
 21
752.35827800000004
 31
0.0
  0
LINE
  5
33B
  8
0
 62
     7
 10
-249.79273599999991
 20
712.358294
 30
0.0
 11
-249.79273599999991
 21
752.35827800000004
 31
0.0
  0
LINE
  5
33C
  8
0
 62
     7
 10
-186.54272800000001
 20
783.10827099999995
 30
0.0
 11
-291.54273599999988
 21
783.10827099999995
 31
0.0
  0
LINE
  5
33D
  8
0
 62
     7
 10
-186.54272800000001
 20
793.10827099999995
 30
0.0
 11
-291.54273599999988
 21
793.10827099999995
 31
0.0
  0
LINE
  5
33E
  8
0
 62
     7
 10
-228.29273599999991
 20
752.09381299999995
 30
0.0
 11
-249.79273599999991
 21
752.09381299999995
 31
0.0
  0
LINE
  5
33F
  8
0
 62
     7
 10
-228.29273599999991
 20
752.35827800000004
 30
0.0
 11
-249.79273599999991
 21
752.35827800000004
 31
0.0
  0
LINE
  5
340
  8
0
 62
     7
 10
-228.29273599999991
 20
712.358294
 30
0.0
 11
-249.79273599999991
 21
712.358294
 31
0.0
  0
LINE
  5
341
  8
0
 62
     7
 10
-228.29273599999991
 20
712.62278900000001
 30
0.0
 11
-249.79273599999991
 21
712.62278900000001
 31
0.0
  0
LINE
  5
342
  8
0
 62
     7
 10
-186.54274399999991
 20
709.608294
 30
0.0
 11
-186.54274399999991
 21
721.60828600000002
 31
0.0
  0
LINE
  5
343
  8
0
 62
     7
 10
-186.54274399999991
 20
722.60828599999991
 30
0.0
 11
-186.54274399999991
 21
742.10829399999989
 31
0.0
  0
LINE
  5
344
  8
0
 62
     7
 10
-186.54274399999991
 20
743.108294
 30
0.0
 11
-186.54274399999991
 21
755.108294
 31
0.0
  0
LINE
  5
345
  8
0
 62
     7
 10
-291.54273599999988
 20
709.608294
 30
0.0
 11
-291.54273599999988
 21
721.60829399999989
 31
0.0
  0
LINE
  5
346
  8
0
 62
     7
 10
-291.54273599999988
 20
722.608294
 30
0.0
 11
-291.54273599999988
 21
742.10829399999989
 31
0.0
  0
LINE
  5
347
  8
0
 62
     7
 10
-291.54273599999988
 20
743.108294
 30
0.0
 11
-291.54273599999988
 21
755.108294
 31
0.0
  0
LINE
  5
348
  8
0
 62
     7
 10
-291.54273599999988
 20
703.27909999999986
 30
0.0
 11
-291.54273599999988
 21
794.60830099999987
 31
0.0
  0
ARC
  5
349
  8
0
 62
     7
 10
-291.04273599999988
 20
690.60830899999996
 30
0.0
 40
0.5
 50
180.00000299999991
 51
270.00000499999987
  0
ARC
  5
34A
  8
0
 62
     7
 10
-187.04272800000001
 20
690.60830899999996
 30
0.0
 40
0.5
 50
270.00000499999987
 51
0.000001
  0
ARC
  5
34B
  8
0
 62
     7
 10
-187.04272800000001
 20
794.60830099999987
 30
0.0
 40
0.5
 50
0.000001
 51
90.0
  0
ARC
  5
34C
  8
0
 62
     7
 10
-291.04273599999988
 20
794.60830099999987
 30
0.0
 40
0.5
 50
90.0
 51
180.00000299999991
  0
LINE
  5
34D
  8
0
 62
     7
 10
-261.54273599999988
 20
753.608294
 30
0.0
 11
-263.04273599999999
 21
753.608294
 31
0.0
  0
LINE
  5
34E
  8
0
 62
     7
 10
-261.54273599999988
 20
744.608294
 30
0.0
 11
-263.04273599999999
 21
744.608294
 31
0.0
  0
CIRCLE
  5
34F
  8
0
 62
     7
 10
-262.29273599999988
 20
715.608294
 30
0.0
 40
4.5
  0
CIRCLE
  5
350
  8
0
 62
     7
 10
-262.29273599999988
 20
715.608294
 30
0.0
 40
3.0
  0
LINE
  5
351
  8
0
 62
     7
 10
-263.04273599999999
 20
744.608294
 30
0.0
 11
-263.04273599999999
 21
753.608294
 31
0.0
  0
LINE
  5
352
  8
0
 62
     7
 10
-261.54273599999988
 20
744.608294
 30
0.0
 11
-261.54273599999988
 21
753.608294
 31
0.0
  0
LINE
  5
353
  8
0
 62
     7
 10
-213.492741
 20
719.45829200000003
 30
0.0
 11
-213.94273799999991
 21
719.45829200000003
 31
0.0
  0
LINE
  5
354
  8
0
 62
     7
 10
-214.44273799999991
 20
711.75829499999998
 30
0.0
 11
-215.242741
 21
711.75829499999998
 31
0.0
  0
LINE
  5
355
  8
0
 62
     7
 10
-221.64274999999989
 20
714.35829399999989
 30
0.0
 11
-221.64274999999989
 21
714.85829399999989
 31
0.0
  0
LINE
  5
356
  8
0
 62
     7
 10
-216.44273799999991
 20
714.35829399999989
 30
0.0
 11
-216.44273799999991
 21
714.85829399999989
 31
0.0
  0
ARC
  5
357
  8
0
 62
     7
 10
-219.042744
 20
714.85829399999989
 30
0.0
 40
2.6000000000000001
 50
0.000001
 51
180.00000299999991
  0
ARC
  5
358
  8
0
 62
     7
 10
-219.042744
 20
714.35829399999989
 30
0.0
 40
2.6000000000000001
 50
180.00000299999991
 51
0.000001
  0
ARC
  5
359
  8
0
 62
     7
 10
-219.042744
 20
714.85829399999989
 30
0.0
 40
1.8
 50
0.000001
 51
180.00000299999991
  0
ARC
  5
35A
  8
0
 62
     7
 10
-219.042744
 20
714.35829399999989
 30
0.0
 40
1.8
 50
180.00000299999991
 51
0.000001
  0
LINE
  5
35B
  8
0
 62
     7
 10
-220.842747
 20
714.35829399999989
 30
0.0
 11
-220.842747
 21
714.85829399999989
 31
0.0
  0
LINE
  5
35C
  8
0
 62
     7
 10
-217.242741
 20
714.35829399999989
 30
0.0
 11
-217.242741
 21
714.85829399999989
 31
0.0
  0
LINE
  5
35D
  8
0
 62
     7
 10
-216.19273799999991
 20
716.25829499999998
 30
0.0
 11
-216.19273799999991
 21
717.05829100000005
 31
0.0
  0
LINE
  5
35E
  8
0
 62
     7
 10
-215.242741
 20
716.25829499999998
 30
0.0
 11
-216.19273799999991
 21
716.25829499999998
 31
0.0
  0
LINE
  5
35F
  8
0
 62
     7
 10
-213.492741
 20
716.25829499999998
 30
0.0
 11
-213.492741
 21
717.05829100000005
 31
0.0
  0
LINE
  5
360
  8
0
 62
     7
 10
-215.242741
 20
717.05829100000005
 30
0.0
 11
-216.19273799999991
 21
717.05829100000005
 31
0.0
  0
LINE
  5
361
  8
0
 62
     7
 10
-215.242741
 20
711.75829499999998
 30
0.0
 11
-215.242741
 21
716.25829499999998
 31
0.0
  0
LINE
  5
362
  8
0
 62
     7
 10
-214.44273799999991
 20
711.75829499999998
 30
0.0
 11
-214.44273799999991
 21
716.25829499999998
 31
0.0
  0
LINE
  5
363
  8
0
 62
     7
 10
-213.492741
 20
716.25829499999998
 30
0.0
 11
-214.44273799999991
 21
716.25829499999998
 31
0.0
  0
LINE
  5
364
  8
0
 62
     7
 10
-213.492741
 20
717.05829100000005
 30
0.0
 11
-214.44273799999991
 21
717.05829100000005
 31
0.0
  0
LINE
  5
365
  8
0
 62
     7
 10
-215.242741
 20
717.05829100000005
 30
0.0
 11
-215.242741
 21
718.15829699999995
 31
0.0
  0
LINE
  5
366
  8
0
 62
     7
 10
-214.44273799999991
 20
717.05829100000005
 30
0.0
 11
-214.44273799999991
 21
718.15829699999995
 31
0.0
  0
ARC
  5
367
  8
0
 62
     7
 10
-213.94273799999991
 20
718.15829699999995
 30
0.0
 40
1.3
 50
90.0
 51
180.00000299999991
  0
ARC
  5
368
  8
0
 62
     7
 10
-213.94273799999991
 20
718.15829699999995
 30
0.0
 40
0.5
 50
90.0
 51
180.00000299999991
  0
LINE
  5
369
  8
0
 62
     7
 10
-213.492741
 20
718.65829699999995
 30
0.0
 11
-213.492741
 21
719.45829200000003
 31
0.0
  0
LINE
  5
36A
  8
0
 62
     7
 10
-213.492741
 20
718.65829699999995
 30
0.0
 11
-213.94273799999991
 21
718.65829699999995
 31
0.0
  0
LINE
  5
36B
  8
0
 62
     7
 10
-210.292744
 20
719.45829200000003
 30
0.0
 11
-210.742741
 21
719.45829200000003
 31
0.0
  0
LINE
  5
36C
  8
0
 62
     7
 10
-211.242741
 20
711.75829499999998
 30
0.0
 11
-212.04274399999991
 21
711.75829499999998
 31
0.0
  0
LINE
  5
36D
  8
0
 62
     7
 10
-212.992741
 20
716.25829499999998
 30
0.0
 11
-212.992741
 21
717.05829100000005
 31
0.0
  0
LINE
  5
36E
  8
0
 62
     7
 10
-212.04274399999991
 20
716.25829499999998
 30
0.0
 11
-212.992741
 21
716.25829499999998
 31
0.0
  0
LINE
  5
36F
  8
0
 62
     7
 10
-210.292744
 20
716.25829499999998
 30
0.0
 11
-210.292744
 21
717.05829100000005
 31
0.0
  0
LINE
  5
370
  8
0
 62
     7
 10
-212.04274399999991
 20
717.05829100000005
 30
0.0
 11
-212.992741
 21
717.05829100000005
 31
0.0
  0
LINE
  5
371
  8
0
 62
     7
 10
-212.04274399999991
 20
711.75829499999998
 30
0.0
 11
-212.04274399999991
 21
716.25829499999998
 31
0.0
  0
LINE
  5
372
  8
0
 62
     7
 10
-211.242741
 20
711.75829499999998
 30
0.0
 11
-211.242741
 21
716.25829499999998
 31
0.0
  0
LINE
  5
373
  8
0
 62
     7
 10
-210.292744
 20
716.25829499999998
 30
0.0
 11
-211.242741
 21
716.25829499999998
 31
0.0
  0
LINE
  5
374
  8
0
 62
     7
 10
-210.292744
 20
717.05829100000005
 30
0.0
 11
-211.242741
 21
717.05829100000005
 31
0.0
  0
LINE
  5
375
  8
0
 62
     7
 10
-212.04274399999991
 20
717.05829100000005
 30
0.0
 11
-212.04274399999991
 21
718.15829699999995
 31
0.0
  0
LINE
  5
376
  8
0
 62
     7
 10
-211.242741
 20
717.05829100000005
 30
0.0
 11
-211.242741
 21
718.15829699999995
 31
0.0
  0
ARC
  5
377
  8
0
 62
     7
 10
-210.742741
 20
718.15829699999995
 30
0.0
 40
1.3
 50
90.0
 51
180.00000299999991
  0
ARC
  5
378
  8
0
 62
     7
 10
-210.742741
 20
718.15829699999995
 30
0.0
 40
0.5
 50
90.0
 51
180.00000299999991
  0
LINE
  5
379
  8
0
 62
     7
 10
-210.292744
 20
718.65829699999995
 30
0.0
 11
-210.292744
 21
719.45829200000003
 31
0.0
  0
LINE
  5
37A
  8
0
 62
     7
 10
-210.292744
 20
718.65829699999995
 30
0.0
 11
-210.742741
 21
718.65829699999995
 31
0.0
  0
LINE
  5
37B
  8
0
 62
     7
 10
-214.842747
 20
746.25829499999986
 30
0.0
 11
-215.64274999999989
 21
746.25829499999986
 31
0.0
  0
ARC
  5
37C
  8
0
 62
     7
 10
-219.042744
 20
749.358294
 30
0.0
 40
2.6000000000000001
 50
0.000001
 51
180.00000299999991
  0
ARC
  5
37D
  8
0
 62
     7
 10
-219.042744
 20
749.358294
 30
0.0
 40
1.8
 50
0.000001
 51
180.00000299999991
  0
ARC
  5
37E
  8
0
 62
     7
 10
-219.042744
 20
748.858294
 30
0.0
 40
2.6000000000000001
 50
180.00000299999991
 51
0.000001
  0
ARC
  5
37F
  8
0
 62
     7
 10
-219.042744
 20
748.858294
 30
0.0
 40
1.8
 50
180.00000299999991
 51
0.000001
  0
LINE
  5
380
  8
0
 62
     7
 10
-217.242741
 20
748.858294
 30
0.0
 11
-217.242741
 21
749.358294
 31
0.0
  0
LINE
  5
381
  8
0
 62
     7
 10
-216.44273799999991
 20
748.858294
 30
0.0
 11
-216.44273799999991
 21
749.358294
 31
0.0
  0
LINE
  5
382
  8
0
 62
     7
 10
-220.842747
 20
748.858294
 30
0.0
 11
-220.842747
 21
749.358294
 31
0.0
  0
LINE
  5
383
  8
0
 62
     7
 10
-221.64274999999989
 20
748.858294
 30
0.0
 11
-221.64274999999989
 21
749.358294
 31
0.0
  0
LINE
  5
384
  8
0
 62
     7
 10
-215.64274999999989
 20
746.25829499999986
 30
0.0
 11
-215.64274999999989
 21
751.95829200000003
 31
0.0
  0
LINE
  5
385
  8
0
 62
     7
 10
-214.842747
 20
746.25829499999986
 30
0.0
 11
-214.842747
 21
749.75829499999986
 31
0.0
  0
LINE
  5
386
  8
0
 62
     7
 10
-212.04274399999991
 20
746.25829499999986
 30
0.0
 11
-212.04274399999991
 21
749.75829499999986
 31
0.0
  0
LINE
  5
387
  8
0
 62
     7
 10
-211.242741
 20
746.25829499999986
 30
0.0
 11
-211.242741
 21
749.95829200000003
 31
0.0
  0
LINE
  5
388
  8
0
 62
     7
 10
-214.842747
 20
751.95829200000003
 30
0.0
 11
-215.64274999999989
 21
751.95829200000003
 31
0.0
  0
ARC
  5
389
  8
0
 62
     7
 10
-213.44273799999991
 20
749.75829499999986
 30
0.0
 40
1.399999999999999
 50
0.000001
 51
180.00000299999991
  0
LINE
  5
38A
  8
0
 62
     7
 10
-214.842747
 20
751.15829699999995
 30
0.0
 11
-214.842747
 21
751.95829200000003
 31
0.0
  0
ARC
  5
38B
  8
0
 62
     7
 10
-213.242741
 20
749.95829200000003
 30
0.0
 40
2.0
 50
0.000001
 51
143.13010199999999
  0
LINE
  5
38C
  8
0
 62
     7
 10
-211.242741
 20
746.25829499999986
 30
0.0
 11
-212.04274399999991
 21
746.25829499999986
 31
0.0
  0
LINE
  5
38D
  8
0
 62
     7
 10
-228.29273599999991
 20
726.48361399999987
 30
0.0
 11
-249.79273599999991
 21
726.48361399999987
 31
0.0
  0
LINE
  5
38E
  8
0
 62
     7
 10
-228.29273599999991
 20
720.36715099999992
 30
0.0
 11
-249.79273599999991
 21
720.36715099999992
 31
0.0
  0
LINE
  5
38F
  8
0
 62
     7
 10
-228.29273599999991
 20
714.41932899999995
 30
0.0
 11
-249.79273599999991
 21
714.41932899999995
 31
0.0
  0
LINE
  5
390
  8
0
 62
     7
 10
-228.29273599999991
 20
713.61658699999998
 30
0.0
 11
-249.79273599999991
 21
713.61658699999998
 31
0.0
  0
LINE
  5
391
  8
0
 62
     7
 10
-297.54273599999988
 20
795.10830099999987
 30
0.0
 11
-326.542776
 21
795.10830099999987
 31
0.0
  0
LINE
  5
392
  8
0
 62
     7
 10
-297.54273599999988
 20
690.10830899999996
 30
0.0
 11
-326.542776
 21
690.10830899999996
 31
0.0
  0
LINE
  5
393
  8
0
 62
     7
 10
-186.54272800000001
 20
690.60830899999996
 30
0.0
 11
-186.54272800000001
 21
708.60829399999989
 31
0.0
  0
LINE
  5
394
  8
0
 62
     7
 10
-186.54275899999999
 20
700.34908499999995
 30
0.0
 11
-186.54275899999999
 21
794.60830099999987
 31
0.0
  0
LINE
  5
395
  8
0
 62
     7
 10
-187.79277400000001
 20
832.35830099999998
 30
0.0
 11
-325.2927509999999
 21
832.35830099999998
 31
0.0
  0
LINE
  5
396
  8
0
 62
     7
 10
-297.54273599999988
 20
803.35831599999995
 30
0.0
 11
-325.5427509999999
 21
803.35831599999995
 31
0.0
  0
LINE
  5
397
  8
0
 62
     7
 10
-186.54275899999999
 20
823.10830099999998
 30
0.0
 11
-186.54275899999999
 21
831.10830099999998
 31
0.0
  0
LINE
  5
398
  8
0
 62
     7
 10
-326.5427509999999
 20
804.35831599999995
 30
0.0
 11
-326.5427509999999
 21
831.10830099999998
 31
0.0
  0
LINE
  5
399
  8
0
 62
     7
 10
-325.5427509999999
 20
803.35831599999995
 30
0.0
 11
-325.5427509999999
 21
804.35831599999995
 31
0.0
  0
LINE
  5
39A
  8
0
 62
     7
 10
-326.2927509999999
 20
804.35831599999995
 30
0.0
 11
-326.5427509999999
 21
804.35831599999995
 31
0.0
  0
LINE
  5
39B
  8
0
 62
     7
 10
-322.492752
 20
657.35830099999998
 30
0.0
 11
-322.492752
 21
832.35830099999998
 31
0.0
  0
LINE
  5
39C
  8
0
 62
     7
 10
-315.2927509999999
 20
657.35830099999998
 30
0.0
 11
-315.2927509999999
 21
832.35830099999998
 31
0.0
  0
LINE
  5
39D
  8
0
 62
     7
 10
-308.09275400000001
 20
657.35830099999998
 30
0.0
 11
-308.09275400000001
 21
832.35830099999998
 31
0.0
  0
LINE
  5
39E
  8
0
 62
     7
 10
-297.2927509999999
 20
822.60828599999991
 30
0.0
 11
-297.2927509999999
 21
832.35830099999998
 31
0.0
  0
LINE
  5
39F
  8
0
 62
     7
 10
-293.69276000000002
 20
823.10830099999998
 30
0.0
 11
-293.69276000000002
 21
832.35830099999998
 31
0.0
  0
LINE
  5
3A0
  8
0
 62
     7
 10
-290.0927539999999
 20
823.10830099999998
 30
0.0
 11
-290.0927539999999
 21
832.35830099999998
 31
0.0
  0
LINE
  5
3A1
  8
0
 62
     7
 10
-286.49276400000002
 20
823.10830099999998
 30
0.0
 11
-286.49276400000002
 21
832.35830099999998
 31
0.0
  0
LINE
  5
3A2
  8
0
 62
     7
 10
-282.8927569999999
 20
823.10830099999998
 30
0.0
 11
-282.8927569999999
 21
832.35830099999998
 31
0.0
  0
LINE
  5
3A3
  8
0
 62
     7
 10
-279.2927509999999
 20
823.10830099999998
 30
0.0
 11
-279.2927509999999
 21
832.35830099999998
 31
0.0
  0
LINE
  5
3A4
  8
0
 62
     7
 10
-275.69276000000002
 20
823.10830099999998
 30
0.0
 11
-275.69276000000002
 21
832.35830099999998
 31
0.0
  0
LINE
  5
3A5
  8
0
 62
     7
 10
-272.09275400000001
 20
823.10830099999998
 30
0.0
 11
-272.09275400000001
 21
832.35830099999998
 31
0.0
  0
LINE
  5
3A6
  8
0
 62
     7
 10
-268.49276400000002
 20
823.10830099999998
 30
0.0
 11
-268.49276400000002
 21
832.35830099999998
 31
0.0
  0
LINE
  5
3A7
  8
0
 62
     7
 10
-264.8927569999999
 20
823.10830099999998
 30
0.0
 11
-264.8927569999999
 21
832.35830099999998
 31
0.0
  0
LINE
  5
3A8
  8
0
 62
     7
 10
-261.2927509999999
 20
823.10830099999998
 30
0.0
 11
-261.2927509999999
 21
832.35830099999998
 31
0.0
  0
LINE
  5
3A9
  8
0
 62
     7
 10
-257.69276000000002
 20
823.10830099999998
 30
0.0
 11
-257.69276000000002
 21
832.35830099999998
 31
0.0
  0
LINE
  5
3AA
  8
0
 62
     7
 10
-254.09275400000001
 20
823.10830099999998
 30
0.0
 11
-254.09275400000001
 21
832.35830099999998
 31
0.0
  0
LINE
  5
3AB
  8
0
 62
     7
 10
-250.49276399999999
 20
823.10830099999998
 30
0.0
 11
-250.49276399999999
 21
832.35830099999998
 31
0.0
  0
LINE
  5
3AC
  8
0
 62
     7
 10
-246.8927569999999
 20
823.10830099999998
 30
0.0
 11
-246.8927569999999
 21
832.35830099999998
 31
0.0
  0
LINE
  5
3AD
  8
0
 62
     7
 10
-243.2927509999999
 20
823.10830099999998
 30
0.0
 11
-243.2927509999999
 21
832.35830099999998
 31
0.0
  0
LINE
  5
3AE
  8
0
 62
     7
 10
-239.69275999999999
 20
823.10830099999998
 30
0.0
 11
-239.69275999999999
 21
832.35830099999998
 31
0.0
  0
LINE
  5
3AF
  8
0
 62
     7
 10
-236.09275400000001
 20
823.10830099999998
 30
0.0
 11
-236.09275400000001
 21
832.35830099999998
 31
0.0
  0
LINE
  5
3B0
  8
0
 62
     7
 10
-232.49276399999999
 20
823.10830099999998
 30
0.0
 11
-232.49276399999999
 21
832.35830099999998
 31
0.0
  0
LINE
  5
3B1
  8
0
 62
     7
 10
-228.8927569999999
 20
823.10830099999998
 30
0.0
 11
-228.8927569999999
 21
832.35830099999998
 31
0.0
  0
LINE
  5
3B2
  8
0
 62
     7
 10
-225.29275899999999
 20
823.10830099999998
 30
0.0
 11
-225.29275899999999
 21
832.35830099999998
 31
0.0
  0
LINE
  5
3B3
  8
0
 62
     7
 10
-221.692768
 20
823.10830099999998
 30
0.0
 11
-221.692768
 21
832.35830099999998
 31
0.0
  0
LINE
  5
3B4
  8
0
 62
     7
 10
-218.09276199999999
 20
823.10830099999998
 30
0.0
 11
-218.09276199999999
 21
832.35830099999998
 31
0.0
  0
LINE
  5
3B5
  8
0
 62
     7
 10
-214.492771
 20
823.10830099999998
 30
0.0
 11
-214.492771
 21
832.35830099999998
 31
0.0
  0
LINE
  5
3B6
  8
0
 62
     7
 10
-210.892765
 20
823.10830099999998
 30
0.0
 11
-210.892765
 21
832.35830099999998
 31
0.0
  0
LINE
  5
3B7
  8
0
 62
     7
 10
-207.29275899999999
 20
823.10830099999998
 30
0.0
 11
-207.29275899999999
 21
832.35830099999998
 31
0.0
  0
LINE
  5
3B8
  8
0
 62
     7
 10
-203.692768
 20
823.10830099999998
 30
0.0
 11
-203.692768
 21
832.35830099999998
 31
0.0
  0
LINE
  5
3B9
  8
0
 62
     7
 10
-200.09276199999999
 20
823.10830099999998
 30
0.0
 11
-200.09276199999999
 21
832.35830099999998
 31
0.0
  0
LINE
  5
3BA
  8
0
 62
     7
 10
-196.49277099999989
 20
823.10830099999998
 30
0.0
 11
-196.49277099999989
 21
832.35830099999998
 31
0.0
  0
LINE
  5
3BB
  8
0
 62
     7
 10
-192.892765
 20
823.10830099999998
 30
0.0
 11
-192.892765
 21
832.35830099999998
 31
0.0
  0
LINE
  5
3BC
  8
0
 62
     7
 10
-189.29275899999999
 20
823.10830099999998
 30
0.0
 11
-189.29275899999999
 21
832.35830099999998
 31
0.0
  0
ARC
  5
3BD
  8
0
 62
     7
 10
-325.2927509999999
 20
831.10830099999998
 30
0.0
 40
1.25
 50
90.0
 51
180.00000299999991
  0
ARC
  5
3BE
  8
0
 62
     7
 10
-187.79277400000001
 20
831.10830099999998
 30
0.0
 40
1.25
 50
0.000028
 51
90.0
  0
LINE
  5
3BF
  8
0
 62
     7
 10
-187.79277400000001
 20
657.35830099999998
 30
0.0
 11
-325.2927509999999
 21
657.35830099999998
 31
0.0
  0
LINE
  5
3C0
  8
0
 62
     7
 10
-297.54273599999988
 20
686.35828600000002
 30
0.0
 11
-325.5427509999999
 21
686.35828600000002
 31
0.0
  0
LINE
  5
3C1
  8
0
 62
     7
 10
-186.54275899999999
 20
658.60830099999998
 30
0.0
 11
-186.54275899999999
 21
662.10831299999995
 31
0.0
  0
LINE
  5
3C2
  8
0
 62
     7
 10
-326.5427509999999
 20
658.60830099999998
 30
0.0
 11
-326.5427509999999
 21
685.35828600000002
 31
0.0
  0
LINE
  5
3C3
  8
0
 62
     7
 10
-297.54273599999988
 20
685.35828600000002
 30
0.0
 11
-326.2927509999999
 21
685.35828600000002
 31
0.0
  0
LINE
  5
3C4
  8
0
 62
     7
 10
-325.5427509999999
 20
685.35828600000002
 30
0.0
 11
-325.5427509999999
 21
686.35828600000002
 31
0.0
  0
LINE
  5
3C5
  8
0
 62
     7
 10
-326.2927509999999
 20
685.35828600000002
 30
0.0
 11
-326.5427509999999
 21
685.35828600000002
 31
0.0
  0
LINE
  5
3C6
  8
0
 62
     7
 10
-318.89274999999992
 20
657.35830099999998
 30
0.0
 11
-318.89274999999992
 21
832.35830099999998
 31
0.0
  0
LINE
  5
3C7
  8
0
 62
     7
 10
-311.69275299999993
 20
657.35830099999998
 30
0.0
 11
-311.69275299999993
 21
832.35830099999998
 31
0.0
  0
LINE
  5
3C8
  8
0
 62
     7
 10
-304.49276400000002
 20
657.35830099999998
 30
0.0
 11
-304.49276400000002
 21
832.35830099999998
 31
0.0
  0
LINE
  5
3C9
  8
0
 62
     7
 10
-300.8927569999999
 20
657.35830099999998
 30
0.0
 11
-300.8927569999999
 21
832.35830099999998
 31
0.0
  0
LINE
  5
3CA
  8
0
 62
     7
 10
-290.0927539999999
 20
657.35830099999998
 30
0.0
 11
-290.0927539999999
 21
662.10831299999995
 31
0.0
  0
LINE
  5
3CB
  8
0
 62
     7
 10
-286.49276400000002
 20
657.35830099999998
 30
0.0
 11
-286.49276400000002
 21
662.10831299999995
 31
0.0
  0
LINE
  5
3CC
  8
0
 62
     7
 10
-282.8927569999999
 20
657.35830099999998
 30
0.0
 11
-282.8927569999999
 21
662.10831299999995
 31
0.0
  0
LINE
  5
3CD
  8
0
 62
     7
 10
-279.2927509999999
 20
657.35830099999998
 30
0.0
 11
-279.2927509999999
 21
662.10831299999995
 31
0.0
  0
LINE
  5
3CE
  8
0
 62
     7
 10
-275.69276000000002
 20
657.35830099999998
 30
0.0
 11
-275.69276000000002
 21
662.10831299999995
 31
0.0
  0
LINE
  5
3CF
  8
0
 62
     7
 10
-272.09275400000001
 20
657.35830099999998
 30
0.0
 11
-272.09275400000001
 21
662.10831299999995
 31
0.0
  0
LINE
  5
3D0
  8
0
 62
     7
 10
-268.49276400000002
 20
657.35830099999998
 30
0.0
 11
-268.49276400000002
 21
662.10831299999995
 31
0.0
  0
LINE
  5
3D1
  8
0
 62
     7
 10
-264.8927569999999
 20
657.35830099999998
 30
0.0
 11
-264.8927569999999
 21
662.10831299999995
 31
0.0
  0
LINE
  5
3D2
  8
0
 62
     7
 10
-261.2927509999999
 20
657.35830099999998
 30
0.0
 11
-261.2927509999999
 21
662.10831299999995
 31
0.0
  0
LINE
  5
3D3
  8
0
 62
     7
 10
-257.69276000000002
 20
657.35830099999998
 30
0.0
 11
-257.69276000000002
 21
662.10831299999995
 31
0.0
  0
LINE
  5
3D4
  8
0
 62
     7
 10
-254.09275400000001
 20
657.35830099999998
 30
0.0
 11
-254.09275400000001
 21
662.10831299999995
 31
0.0
  0
LINE
  5
3D5
  8
0
 62
     7
 10
-250.49276399999999
 20
657.35830099999998
 30
0.0
 11
-250.49276399999999
 21
662.10831299999995
 31
0.0
  0
LINE
  5
3D6
  8
0
 62
     7
 10
-246.8927569999999
 20
657.35830099999998
 30
0.0
 11
-246.8927569999999
 21
662.10831299999995
 31
0.0
  0
LINE
  5
3D7
  8
0
 62
     7
 10
-243.2927509999999
 20
657.35830099999998
 30
0.0
 11
-243.2927509999999
 21
662.10831299999995
 31
0.0
  0
LINE
  5
3D8
  8
0
 62
     7
 10
-239.69275999999999
 20
657.35830099999998
 30
0.0
 11
-239.69275999999999
 21
662.10831299999995
 31
0.0
  0
LINE
  5
3D9
  8
0
 62
     7
 10
-236.09275400000001
 20
657.35830099999998
 30
0.0
 11
-236.09275400000001
 21
662.10831299999995
 31
0.0
  0
LINE
  5
3DA
  8
0
 62
     7
 10
-232.49276399999999
 20
657.35830099999998
 30
0.0
 11
-232.49276399999999
 21
662.10831299999995
 31
0.0
  0
LINE
  5
3DB
  8
0
 62
     7
 10
-228.8927569999999
 20
657.35830099999998
 30
0.0
 11
-228.8927569999999
 21
662.10831299999995
 31
0.0
  0
LINE
  5
3DC
  8
0
 62
     7
 10
-225.29275899999999
 20
657.35830099999998
 30
0.0
 11
-225.29275899999999
 21
662.10831299999995
 31
0.0
  0
LINE
  5
3DD
  8
0
 62
     7
 10
-221.692768
 20
657.35830099999998
 30
0.0
 11
-221.692768
 21
662.10831299999995
 31
0.0
  0
LINE
  5
3DE
  8
0
 62
     7
 10
-218.09276199999999
 20
657.35830099999998
 30
0.0
 11
-218.09276199999999
 21
662.10831299999995
 31
0.0
  0
LINE
  5
3DF
  8
0
 62
     7
 10
-214.492771
 20
657.35830099999998
 30
0.0
 11
-214.492771
 21
662.10831299999995
 31
0.0
  0
LINE
  5
3E0
  8
0
 62
     7
 10
-210.892765
 20
657.35830099999998
 30
0.0
 11
-210.892765
 21
662.10831299999995
 31
0.0
  0
LINE
  5
3E1
  8
0
 62
     7
 10
-207.29275899999999
 20
657.35830099999998
 30
0.0
 11
-207.29275899999999
 21
662.10831299999995
 31
0.0
  0
LINE
  5
3E2
  8
0
 62
     7
 10
-203.692768
 20
657.35830099999998
 30
0.0
 11
-203.692768
 21
662.10831299999995
 31
0.0
  0
LINE
  5
3E3
  8
0
 62
     7
 10
-200.09276199999999
 20
657.35830099999998
 30
0.0
 11
-200.09276199999999
 21
662.10831299999995
 31
0.0
  0
LINE
  5
3E4
  8
0
 62
     7
 10
-196.49277099999989
 20
657.35830099999998
 30
0.0
 11
-196.49277099999989
 21
662.10831299999995
 31
0.0
  0
LINE
  5
3E5
  8
0
 62
     7
 10
-192.892765
 20
657.35830099999998
 30
0.0
 11
-192.892765
 21
662.10831299999995
 31
0.0
  0
LINE
  5
3E6
  8
0
 62
     7
 10
-189.29275899999999
 20
657.35830099999998
 30
0.0
 11
-189.29275899999999
 21
662.10831299999995
 31
0.0
  0
ARC
  5
3E7
  8
0
 62
     7
 10
-325.2927509999999
 20
658.60830099999998
 30
0.0
 40
1.25
 50
180.00000299999991
 51
270.00000499999987
  0
ARC
  5
3E8
  8
0
 62
     7
 10
-187.79277400000001
 20
658.60830099999998
 30
0.0
 40
1.25
 50
270.00000499999987
 51
359.99997300000001
  0
LINE
  5
3E9
  8
0
  6
DASHDOT
 62
     7
 10
-164.083134
 20
742.60830899999985
 30
0.0
 11
-342.2720819999999
 21
742.60830899999985
 31
0.0
  0
LINE
  5
3EA
  8
0
 62
     7
 10
-297.2927509999999
 20
657.35830099999998
 30
0.0
 11
-297.2927509999999
 21
662.60833599999989
 31
0.0
  0
LINE
  5
3EB
  8
0
 62
     7
 10
-293.69276000000002
 20
657.35830099999998
 30
0.0
 11
-293.69276000000002
 21
662.10831299999995
 31
0.0
  0
CIRCLE
  5
3EC
  8
0
 62
     7
 10
-182.961521
 20
809.69854199999986
 30
0.0
 40
0.2
  0
LINE
  5
3ED
  8
0
 62
     7
 10
-357.62939799999992
 20
657.35830099999998
 30
0.0
 11
-356.58752799999991
 21
663.2671489999999
 31
0.0
  0
LINE
  5
3EE
  8
0
 62
     7
 10
-357.62939799999992
 20
657.35830099999998
 30
0.0
 11
-358.67139100000003
 21
663.2671489999999
 31
0.0
  0
LINE
  5
3EF
  8
0
 62
     7
 10
-357.62939799999992
 20
832.35830099999998
 30
0.0
 11
-358.67139100000003
 21
826.44945700000005
 31
0.0
  0
LINE
  5
3F0
  8
0
 62
     7
 10
-357.62939799999992
 20
832.35830099999998
 30
0.0
 11
-356.58752799999991
 21
826.44945700000005
 31
0.0
  0
LINE
  5
3F1
  8
0
 62
     7
 10
-357.62939799999992
 20
657.35830099999998
 30
0.0
 11
-357.62939799999992
 21
832.35830099999998
 31
0.0
  0
LINE
  5
3F2
  8
0
 62
     7
 10
-361.62939799999998
 20
657.35830099999998
 30
0.0
 11
-325.2927279999999
 21
657.35830099999998
 31
0.0
  0
LINE
  5
3F3
  8
0
 62
     7
 10
-361.62939799999998
 20
832.35830099999998
 30
0.0
 11
-325.2927279999999
 21
832.35830099999998
 31
0.0
  0
LINE
  5
3F4
  8
0
 62
     7
 10
-186.54272800000001
 20
850.69507799999997
 30
0.0
 11
-192.45166399999999
 21
851.73696300000006
 31
0.0
  0
LINE
  5
3F5
  8
0
 62
     7
 10
-186.54272800000001
 20
850.69507799999997
 30
0.0
 11
-192.45166399999999
 21
849.65319299999987
 31
0.0
  0
LINE
  5
3F6
  8
0
 62
     7
 10
-326.5427279999999
 20
850.69512400000008
 30
0.0
 11
-320.633915
 21
849.6532380000001
 31
0.0
  0
LINE
  5
3F7
  8
0
 62
     7
 10
-326.5427279999999
 20
850.69512400000008
 30
0.0
 11
-320.633915
 21
851.73700899999994
 31
0.0
  0
LINE
  5
3F8
  8
0
 62
     7
 10
-186.54272800000001
 20
850.69507799999997
 30
0.0
 11
-326.5427279999999
 21
850.69512400000008
 31
0.0
  0
LINE
  5
3F9
  8
0
 62
     7
 10
-186.54272800000001
 20
854.69507799999985
 30
0.0
 11
-186.54272800000001
 21
831.10830099999998
 31
0.0
  0
LINE
  5
3FA
  8
0
 62
     7
 10
-326.5427279999999
 20
854.69512399999996
 30
0.0
 11
-326.5427279999999
 21
831.10834699999987
 31
0.0
  0
LINE
  5
3FB
  8
0
 62
     7
 10
-186.54272800000001
 20
639.00825299999997
 30
0.0
 11
-192.4515419999999
 21
640.05014199999994
 31
0.0
  0
LINE
  5
3FC
  8
0
 62
     7
 10
-186.54272800000001
 20
639.00825299999997
 30
0.0
 11
-192.4515419999999
 21
637.966364
 31
0.0
  0
LINE
  5
3FD
  8
0
 62
     7
 10
-239.0427279999999
 20
639.00827000000004
 30
0.0
 11
-233.133915
 21
637.96638099999996
 31
0.0
  0
LINE
  5
3FE
  8
0
 62
     7
 10
-239.0427279999999
 20
639.00827000000004
 30
0.0
 11
-233.133915
 21
640.05015800000001
 31
0.0
  0
LINE
  5
3FF
  8
0
 62
     7
 10
-186.54272800000001
 20
639.00825299999997
 30
0.0
 11
-239.0427279999999
 21
639.00827000000004
 31
0.0
  0
LINE
  5
400
  8
0
 62
     7
 10
-186.54272800000001
 20
635.00825399999985
 30
0.0
 11
-186.54272800000001
 21
690.60831299999995
 31
0.0
  0
LINE
  5
401
  8
0
 62
     7
 10
-239.0427279999999
 20
643.00827000000004
 30
0.0
 11
-239.0427279999999
 21
635.2716519999999
 31
0.0
  0
LINE
  5
402
  8
0
 62
     7
 10
-186.54272800000001
 20
621.81171299999994
 30
0.0
 11
-192.45166399999999
 21
622.85360100000003
 31
0.0
  0
LINE
  5
403
  8
0
 62
     7
 10
-186.54272800000001
 20
621.81171299999994
 30
0.0
 11
-192.45166399999999
 21
620.76982399999997
 31
0.0
  0
LINE
  5
404
  8
0
 62
     7
 10
-291.5427279999999
 20
621.81170799999995
 30
0.0
 11
-285.633915
 21
620.76981999999998
 31
0.0
  0
LINE
  5
405
  8
0
 62
     7
 10
-291.5427279999999
 20
621.81170799999995
 30
0.0
 11
-285.633915
 21
622.85359900000003
 31
0.0
  0
LINE
  5
406
  8
0
 62
     7
 10
-186.54272800000001
 20
621.81171299999994
 30
0.0
 11
-291.5427279999999
 21
621.81170799999995
 31
0.0
  0
LINE
  5
407
  8
0
 62
     7
 10
-186.54272800000001
 20
617.81171299999994
 30
0.0
 11
-186.54272800000001
 21
700.34908499999995
 31
0.0
  0
LINE
  5
408
  8
0
 62
     7
 10
-291.5427279999999
 20
617.81170799999995
 30
0.0
 11
-291.5427279999999
 21
703.27909299999988
 31
0.0
  0
LINE
  5
409
  8
0
 62
     7
 10
-344.72986200000003
 20
742.60831600000006
 30
0.0
 11
-343.68799199999989
 21
748.51715999999999
 31
0.0
  0
LINE
  5
40A
  8
0
 62
     7
 10
-344.72986200000003
 20
742.60831600000006
 30
0.0
 11
-345.77173199999987
 21
748.51715999999999
 31
0.0
  0
LINE
  5
40B
  8
0
 62
     7
 10
-344.72986200000003
 20
832.35830099999998
 30
0.0
 11
-345.77173199999987
 21
826.44945700000005
 31
0.0
  0
LINE
  5
40C
  8
0
 62
     7
 10
-344.72986200000003
 20
832.35830099999998
 30
0.0
 11
-343.68799199999989
 21
826.44945700000005
 31
0.0
  0
LINE
  5
40D
  8
0
 62
     7
 10
-344.72986200000003
 20
742.60831600000006
 30
0.0
 11
-344.72986200000003
 21
832.35830099999998
 31
0.0
  0
LINE
  5
40E
  8
0
 62
     7
 10
-348.72986200000003
 20
742.60830099999998
 30
0.0
 11
-342.27209900000003
 21
742.60831600000006
 31
0.0
  0
LINE
  5
40F
  8
0
 62
     7
 10
-348.72986200000003
 20
832.35830099999998
 30
0.0
 11
-325.2927279999999
 21
832.35830099999998
 31
0.0
  0
LINE
  5
410
  8
0
 62
     7
 10
-180.54272800000001
 20
603.22662500000001
 30
0.0
 11
-186.45154199999999
 21
604.26851500000009
 31
0.0
  0
LINE
  5
411
  8
0
 62
     7
 10
-180.54272800000001
 20
603.22662500000001
 30
0.0
 11
-186.45154199999999
 21
602.18473600000004
 31
0.0
  0
LINE
  5
412
  8
0
 62
     7
 10
-297.5427279999999
 20
603.22662000000003
 30
0.0
 11
-291.633915
 21
602.18473200000005
 31
0.0
  0
LINE
  5
413
  8
0
 62
     7
 10
-297.5427279999999
 20
603.22662000000003
 30
0.0
 11
-291.633915
 21
604.26850899999988
 31
0.0
  0
LINE
  5
414
  8
0
 62
     7
 10
-180.54272800000001
 20
603.22662500000001
 30
0.0
 11
-297.5427279999999
 21
603.22662000000003
 31
0.0
  0
LINE
  5
415
  8
0
 62
     7
 10
-180.54272800000001
 20
599.22662500000001
 30
0.0
 11
-180.54272800000001
 21
663.35831299999995
 31
0.0
  0
LINE
  5
416
  8
0
 62
     7
 10
-297.5427279999999
 20
599.22662200000002
 30
0.0
 11
-297.5427279999999
 21
663.35830499999986
 31
0.0
  0
LINE
  5
417
  8
0
 62
     7
 10
-162.1264689999999
 20
662.10831299999995
 30
0.0
 11
-161.08447599999991
 21
668.01715999999999
 31
0.0
  0
LINE
  5
418
  8
0
 62
     7
 10
-162.1264689999999
 20
662.10831299999995
 30
0.0
 11
-163.168339
 21
668.01715999999999
 31
0.0
  0
LINE
  5
419
  8
0
 62
     7
 10
-162.1264689999999
 20
823.10831599999995
 30
0.0
 11
-163.168339
 21
817.19947200000001
 31
0.0
  0
LINE
  5
41A
  8
0
 62
     7
 10
-162.1264689999999
 20
823.10831599999995
 30
0.0
 11
-161.08447599999991
 21
817.19947200000001
 31
0.0
  0
LINE
  5
41B
  8
0
 62
     7
 10
-162.1264689999999
 20
662.10831299999995
 30
0.0
 11
-162.1264689999999
 21
823.10831599999995
 31
0.0
  0
LINE
  5
41C
  8
0
 62
     7
 10
-158.1264689999999
 20
662.10831299999995
 30
0.0
 11
-181.79272800000001
 21
662.10831299999995
 31
0.0
  0
LINE
  5
41D
  8
0
 62
     7
 10
-158.1264689999999
 20
823.10831599999995
 30
0.0
 11
-181.79272800000001
 21
823.10831599999995
 31
0.0
  0
LINE
  5
41E
  8
0
 62
     7
 10
14.44656799999999
 20
515.15795899999989
 30
0.0
 11
14.44656799999999
 21
514.65799000000004
 31
0.0
  0
LINE
  5
41F
  8
0
 62
     7
 10
14.44656799999999
 20
480.15798999999998
 30
0.0
 11
14.44656799999999
 21
455.15798999999998
 31
0.0
  0
LINE
  5
420
  8
0
 62
     7
 10
14.44656799999999
 20
445.158005
 30
0.0
 11
14.44656799999999
 21
420.158005
 31
0.0
  0
LINE
  5
421
  8
0
 62
     6
 10
62.446613999999997
 20
380.15803099999988
 30
0.0
 11
18.946567999999989
 21
380.15803099999988
 31
0.0
  0
LINE
  5
422
  8
0
 62
     6
 10
25.446567999999999
 20
520.15801999999985
 30
0.0
 11
18.946567999999989
 21
520.15803499999993
 31
0.0
  0
LINE
  5
423
  8
0
 62
     6
 10
62.446613999999997
 20
520.158005
 30
0.0
 11
25.446567999999999
 21
520.158005
 31
0.0
  0
LINE
  5
424
  8
0
 62
     6
 10
62.446613999999997
 20
520.158005
 30
0.0
 11
62.446613999999997
 21
515.15800499999989
 31
0.0
  0
LINE
  5
425
  8
0
 62
     6
 10
62.446613999999997
 20
490.15800499999989
 30
0.0
 11
62.446613999999997
 21
485.15798999999998
 31
0.0
  0
LINE
  5
426
  8
0
 62
     6
 10
62.446613999999997
 20
455.158005
 30
0.0
 11
62.446613999999997
 21
450.15798999999998
 31
0.0
  0
LINE
  5
427
  8
0
 62
     6
 10
62.446613999999997
 20
385.15800499999989
 30
0.0
 11
62.446613999999997
 21
380.15803099999988
 31
0.0
  0
LINE
  5
428
  8
0
 62
     7
 10
25.446567999999999
 20
520.158005
 30
0.0
 11
25.446567999999999
 21
485.15798999999998
 31
0.0
  0
LINE
  5
429
  8
0
 62
     6
 10
18.946567999999989
 20
384.158005
 30
0.0
 11
18.946567999999989
 21
380.15803099999988
 31
0.0
  0
LINE
  5
42A
  8
0
 62
     7
 10
18.946567999999989
 20
455.15798999999998
 30
0.0
 11
18.946567999999989
 21
445.158005
 31
0.0
  0
LINE
  5
42B
  8
0
 62
     7
 10
18.946567999999989
 20
482.65791299999989
 30
0.0
 11
18.946567999999989
 21
480.15798999999998
 31
0.0
  0
LINE
  5
42C
  8
0
 62
     6
 10
18.946567999999989
 20
520.15803499999993
 30
0.0
 11
18.946567999999989
 21
515.15797399999985
 31
0.0
  0
LINE
  5
42D
  8
0
 62
     6
 10
12.946567999999999
 20
385.65798999999993
 30
0.0
 11
12.946567999999999
 21
381.1579089999999
 31
0.0
  0
LINE
  5
42E
  8
0
 62
     6
 10
43.946613999999997
 20
477.90798999999998
 30
0.0
 11
43.946613999999997
 21
457.40798999999998
 31
0.0
  0
LINE
  5
42F
  8
0
 62
     6
 10
51.446613999999997
 20
457.40798999999998
 30
0.0
 11
43.946613999999997
 21
457.40798999999998
 31
0.0
  0
LINE
  5
430
  8
0
 62
     6
 10
51.446613999999997
 20
477.90798999999998
 30
0.0
 11
43.946613999999997
 21
477.90798999999998
 31
0.0
  0
LINE
  5
431
  8
0
 62
     6
 10
43.946613999999997
 20
442.90798999999998
 30
0.0
 11
43.946613999999997
 21
422.40798999999998
 31
0.0
  0
LINE
  5
432
  8
0
 62
     6
 10
51.446613999999997
 20
422.40798999999998
 30
0.0
 11
43.946613999999997
 21
422.40798999999998
 31
0.0
  0
LINE
  5
433
  8
0
 62
     6
 10
51.446613999999997
 20
442.90798999999998
 30
0.0
 11
43.946613999999997
 21
442.90798999999998
 31
0.0
  0
LINE
  5
434
  8
0
 62
     6
 10
43.946613999999997
 20
512.90799000000004
 30
0.0
 11
43.946613999999997
 21
492.40798999999998
 31
0.0
  0
LINE
  5
435
  8
0
 62
     6
 10
51.446613999999997
 20
492.40798999999998
 30
0.0
 11
43.946613999999997
 21
492.40798999999998
 31
0.0
  0
LINE
  5
436
  8
0
 62
     6
 10
51.446613999999997
 20
512.90799000000004
 30
0.0
 11
43.946613999999997
 21
512.90799000000004
 31
0.0
  0
LINE
  5
437
  8
0
 62
     7
 10
62.446613999999997
 20
517.658005
 30
0.0
 11
25.446567999999999
 21
517.658005
 31
0.0
  0
LINE
  5
438
  8
0
 62
     7
 10
62.446613999999997
 20
382.658005
 30
0.0
 11
25.446567999999999
 21
382.658005
 31
0.0
  0
LINE
  5
439
  8
0
 62
     9
 10
-1.553431999999999
 20
444.65798999999998
 30
0.0
 11
-1.553431999999999
 21
420.65798999999998
 31
0.0
  0
LINE
  5
43A
  8
0
 62
     9
 10
-1.553431999999999
 20
514.65799000000004
 30
0.0
 11
-1.553431999999999
 21
490.65798999999998
 31
0.0
  0
LINE
  5
43B
  8
0
 62
     9
 10
-1.5533859999999999
 20
478.65797400000002
 30
0.0
 11
-1.5533859999999999
 21
456.65797400000002
 31
0.0
  0
LINE
  5
43C
  8
0
 62
     7
 10
-23.853389
 20
513.65794400000004
 30
0.0
 11
-23.853389
 21
491.65794399999999
 31
0.0
  0
LINE
  5
43D
  8
0
 62
     7
 10
-26.353389
 20
493.15794399999999
 30
0.0
 11
-26.353389
 21
491.65794399999999
 31
0.0
  0
LINE
  5
43E
  8
0
 62
     7
 10
-26.353389
 20
512.01475500000004
 30
0.0
 11
-26.353389
 21
493.301132
 31
0.0
  0
LINE
  5
43F
  8
0
 62
     7
 10
-26.353389
 20
513.65794400000004
 30
0.0
 11
-26.353389
 21
512.15794400000004
 31
0.0
  0
LINE
  5
440
  8
0
 62
     7
 10
-15.353389
 20
513.65794400000004
 30
0.0
 11
-15.353389
 21
512.15794400000004
 31
0.0
  0
LINE
  5
441
  8
0
 62
     7
 10
-15.353389
 20
512.01475500000004
 30
0.0
 11
-15.353389
 21
493.301132
 31
0.0
  0
LINE
  5
442
  8
0
 62
     7
 10
-15.353389
 20
493.15794399999999
 30
0.0
 11
-15.353389
 21
491.65794399999999
 31
0.0
  0
LINE
  5
443
  8
0
 62
     7
 10
-17.853389
 20
513.65794400000004
 30
0.0
 11
-17.853389
 21
491.65794399999999
 31
0.0
  0
LINE
  5
444
  8
0
 62
     3
 10
-2.3533889999999991
 20
512.15794400000004
 30
0.0
 11
-8.3533889999999982
 21
512.15794400000004
 31
0.0
  0
LINE
  5
445
  8
0
 62
     3
 10
-2.3533889999999991
 20
493.15794399999999
 30
0.0
 11
-8.3533889999999982
 21
493.15794399999999
 31
0.0
  0
LINE
  5
446
  8
0
 62
     3
 10
-8.3533889999999982
 20
512.15794400000004
 30
0.0
 11
-8.3533889999999982
 21
493.15794399999999
 31
0.0
  0
LINE
  5
447
  8
0
 62
     3
 10
-2.3533889999999991
 20
512.15794400000004
 30
0.0
 11
-2.3533889999999991
 21
509.75212099999999
 31
0.0
  0
LINE
  5
448
  8
0
 62
     3
 10
-2.3533889999999991
 20
504.97233599999998
 30
0.0
 11
-2.3533889999999991
 21
500.34353599999997
 31
0.0
  0
LINE
  5
449
  8
0
 62
     3
 10
-2.3533889999999991
 20
495.56372099999987
 30
0.0
 11
-2.3533889999999991
 21
493.15794399999999
 31
0.0
  0
LINE
  5
44A
  8
0
 62
     3
 10
-9.3533889999999982
 20
512.15794400000004
 30
0.0
 11
-15.353389
 21
512.15794400000004
 31
0.0
  0
LINE
  5
44B
  8
0
 62
     3
 10
-9.3533889999999982
 20
493.15794399999999
 30
0.0
 11
-15.353389
 21
493.15794399999999
 31
0.0
  0
LINE
  5
44C
  8
0
 62
     3
 10
-15.353389
 20
493.301132
 30
0.0
 11
-15.353389
 21
493.15794399999999
 31
0.0
  0
LINE
  5
44D
  8
0
 62
     3
 10
-15.353389
 20
512.15794400000004
 30
0.0
 11
-15.353389
 21
512.01473999999996
 31
0.0
  0
LINE
  5
44E
  8
0
 62
     3
 10
-9.3533889999999982
 20
512.15794400000004
 30
0.0
 11
-9.3533889999999982
 21
493.15794399999999
 31
0.0
  0
LINE
  5
44F
  8
0
 62
     3
 10
-26.353389
 20
512.15794400000004
 30
0.0
 11
-32.353389
 21
512.15794400000004
 31
0.0
  0
LINE
  5
450
  8
0
 62
     3
 10
-26.353389
 20
493.15794399999999
 30
0.0
 11
-32.353389
 21
493.15794399999999
 31
0.0
  0
LINE
  5
451
  8
0
 62
     3
 10
-26.353389
 20
512.15794400000004
 30
0.0
 11
-26.353389
 21
512.01473999999996
 31
0.0
  0
LINE
  5
452
  8
0
 62
     3
 10
-26.353389
 20
493.301132
 30
0.0
 11
-26.353389
 21
493.15794399999999
 31
0.0
  0
LINE
  5
453
  8
0
 62
     3
 10
-32.353389
 20
512.15794400000004
 30
0.0
 11
-32.353389
 21
493.15794399999999
 31
0.0
  0
LINE
  5
454
  8
0
 62
     7
 10
-2.3533889999999991
 20
493.15794399999999
 30
0.0
 11
-2.3533889999999991
 21
492.65794399999999
 31
0.0
  0
LINE
  5
455
  8
0
 62
     7
 10
-2.3533889999999991
 20
500.34352100000001
 30
0.0
 11
-2.3533889999999991
 21
495.56375099999991
 31
0.0
  0
LINE
  5
456
  8
0
 62
     7
 10
-2.3533889999999991
 20
509.75215099999991
 30
0.0
 11
-2.3533889999999991
 21
504.97235099999989
 31
0.0
  0
LINE
  5
457
  8
0
 62
     7
 10
-2.3533889999999991
 20
512.65794400000004
 30
0.0
 11
-2.3533889999999991
 21
512.15794400000004
 31
0.0
  0
LINE
  5
458
  8
0
 62
   211
 10
-35.053385999999989
 20
506.65797400000002
 30
0.0
 11
-35.053385999999989
 21
498.65797400000002
 31
0.0
  0
LINE
  5
459
  8
0
 62
   211
 10
46.446613999999997
 20
459.15797400000002
 30
0.0
 11
45.946613999999997
 21
459.15797400000002
 31
0.0
  0
LINE
  5
45A
  8
0
 62
   211
 10
46.446613999999997
 20
476.15797400000002
 30
0.0
 11
45.946613999999997
 21
476.15797400000002
 31
0.0
  0
LINE
  5
45B
  8
0
 62
   211
 10
46.446613999999997
 20
471.15797400000002
 30
0.0
 11
45.946613999999997
 21
471.15797400000002
 31
0.0
  0
LINE
  5
45C
  8
0
 62
   211
 10
46.446613999999997
 20
464.15797400000002
 30
0.0
 11
45.946613999999997
 21
464.15797400000002
 31
0.0
  0
LINE
  5
45D
  8
0
 62
   211
 10
46.446613999999997
 20
494.15797400000002
 30
0.0
 11
45.946613999999997
 21
494.15797400000002
 31
0.0
  0
LINE
  5
45E
  8
0
 62
   211
 10
46.446613999999997
 20
511.15797400000002
 30
0.0
 11
45.946613999999997
 21
511.15797400000002
 31
0.0
  0
LINE
  5
45F
  8
0
 62
   211
 10
46.446613999999997
 20
499.15797400000002
 30
0.0
 11
45.946613999999997
 21
499.15797400000002
 31
0.0
  0
LINE
  5
460
  8
0
 62
   211
 10
46.446613999999997
 20
506.15797399999991
 30
0.0
 11
45.946613999999997
 21
506.15797399999991
 31
0.0
  0
LINE
  5
461
  8
0
 62
   211
 10
46.446613999999997
 20
424.15797400000002
 30
0.0
 11
45.946613999999997
 21
424.15797400000002
 31
0.0
  0
LINE
  5
462
  8
0
 62
   211
 10
46.446613999999997
 20
441.15797400000002
 30
0.0
 11
45.946613999999997
 21
441.15797400000002
 31
0.0
  0
LINE
  5
463
  8
0
 62
   211
 10
46.446613999999997
 20
429.15797400000002
 30
0.0
 11
45.946613999999997
 21
429.15797400000002
 31
0.0
  0
LINE
  5
464
  8
0
 62
   211
 10
46.446613999999997
 20
436.15797400000002
 30
0.0
 11
45.946613999999997
 21
436.15797400000002
 31
0.0
  0
LINE
  5
465
  8
0
 62
     6
 10
14.946567999999999
 20
455.15798199999989
 30
0.0
 11
14.946567999999999
 21
445.15799700000002
 31
0.0
  0
LINE
  5
466
  8
0
 62
     3
 10
13.446567999999999
 20
455.65797400000002
 30
0.0
 11
13.446567999999999
 21
444.65798999999998
 31
0.0
  0
LINE
  5
467
  8
0
 62
     3
 10
13.446567999999999
 20
490.65798999999998
 30
0.0
 11
13.446567999999999
 21
479.65797400000002
 31
0.0
  0
LINE
  5
468
  8
0
 62
     9
 10
-1.553431999999999
 20
456.65797400000002
 30
0.0
 11
-1.553431999999999
 21
455.65798999999998
 31
0.0
  0
LINE
  5
469
  8
0
 62
     9
 10
-1.553431999999999
 20
479.65798999999998
 30
0.0
 11
-1.553431999999999
 21
478.65797400000002
 31
0.0
  0
LINE
  5
46A
  8
0
 62
     7
 10
-67.353389000000007
 20
478.65797400000002
 30
0.0
 11
-67.353389000000007
 21
477.15797399999991
 31
0.0
  0
LINE
  5
46B
  8
0
 62
     7
 10
-67.353389000000007
 20
477.01478600000002
 30
0.0
 11
-67.353389000000007
 21
458.30115499999999
 31
0.0
  0
LINE
  5
46C
  8
0
 62
     7
 10
-67.353389000000007
 20
458.15797400000002
 30
0.0
 11
-67.353389000000007
 21
456.65797400000002
 31
0.0
  0
LINE
  5
46D
  8
0
 62
     7
 10
-69.853389000000007
 20
478.65797400000002
 30
0.0
 11
-69.853389000000007
 21
456.65797400000002
 31
0.0
  0
LINE
  5
46E
  8
0
 62
     7
 10
-75.853389000000007
 20
478.65797400000002
 30
0.0
 11
-75.853389000000007
 21
456.65797400000002
 31
0.0
  0
LINE
  5
46F
  8
0
 62
     7
 10
-78.353389000000007
 20
458.15797400000002
 30
0.0
 11
-78.353389000000007
 21
456.65797400000002
 31
0.0
  0
LINE
  5
470
  8
0
 62
     7
 10
-78.353389000000007
 20
477.01478600000002
 30
0.0
 11
-78.353389000000007
 21
458.30115499999999
 31
0.0
  0
LINE
  5
471
  8
0
 62
     7
 10
-78.353389000000007
 20
478.65797400000002
 30
0.0
 11
-78.353389000000007
 21
477.15797399999991
 31
0.0
  0
LINE
  5
472
  8
0
 62
     3
 10
-54.353389
 20
458.15797400000002
 30
0.0
 11
-60.353389
 21
458.15797400000002
 31
0.0
  0
LINE
  5
473
  8
0
 62
     3
 10
-54.353389
 20
477.15797399999991
 30
0.0
 11
-60.353389
 21
477.15797399999991
 31
0.0
  0
LINE
  5
474
  8
0
 62
     3
 10
-60.353389
 20
477.15797399999991
 30
0.0
 11
-60.353389
 21
458.15797400000002
 31
0.0
  0
LINE
  5
475
  8
0
 62
     3
 10
-54.353389
 20
477.15797399999991
 30
0.0
 11
-54.353389
 21
474.75217400000002
 31
0.0
  0
LINE
  5
476
  8
0
 62
     3
 10
-54.353389
 20
469.97238199999998
 30
0.0
 11
-54.353389
 21
465.34357499999987
 31
0.0
  0
LINE
  5
477
  8
0
 62
     3
 10
-54.353389
 20
460.56375899999989
 30
0.0
 11
-54.353389
 21
458.15797400000002
 31
0.0
  0
LINE
  5
478
  8
0
 62
     3
 10
-61.353389
 20
458.15797400000002
 30
0.0
 11
-67.353389000000007
 21
458.15797400000002
 31
0.0
  0
LINE
  5
479
  8
0
 62
     3
 10
-61.353389
 20
477.15797399999991
 30
0.0
 11
-67.353389000000007
 21
477.15797399999991
 31
0.0
  0
LINE
  5
47A
  8
0
 62
     3
 10
-67.353389000000007
 20
458.30115499999999
 30
0.0
 11
-67.353389000000007
 21
458.15797400000002
 31
0.0
  0
LINE
  5
47B
  8
0
 62
     3
 10
-67.353389000000007
 20
477.15797399999991
 30
0.0
 11
-67.353389000000007
 21
477.01477799999998
 31
0.0
  0
LINE
  5
47C
  8
0
 62
     3
 10
-61.353389
 20
477.15797399999991
 30
0.0
 11
-61.353389
 21
458.15797400000002
 31
0.0
  0
LINE
  5
47D
  8
0
 62
     3
 10
-78.353389000000007
 20
458.15797400000002
 30
0.0
 11
-84.353389000000007
 21
458.15797400000002
 31
0.0
  0
LINE
  5
47E
  8
0
 62
     3
 10
-78.353389000000007
 20
477.15797399999991
 30
0.0
 11
-84.353389000000007
 21
477.15797399999991
 31
0.0
  0
LINE
  5
47F
  8
0
 62
     3
 10
-78.353389000000007
 20
477.15797399999991
 30
0.0
 11
-78.353389000000007
 21
477.01477799999998
 31
0.0
  0
LINE
  5
480
  8
0
 62
     3
 10
-78.353389000000007
 20
458.30115499999999
 30
0.0
 11
-78.353389000000007
 21
458.15797400000002
 31
0.0
  0
LINE
  5
481
  8
0
 62
     3
 10
-84.353389000000007
 20
477.15797399999991
 30
0.0
 11
-84.353389000000007
 21
458.15797400000002
 31
0.0
  0
LINE
  5
482
  8
0
 62
     7
 10
-53.553385999999989
 20
477.65797400000002
 30
0.0
 11
-53.553385999999989
 21
457.65797400000002
 31
0.0
  0
LINE
  5
483
  8
0
 62
     7
 10
-54.353389
 20
458.15797400000002
 30
0.0
 11
-54.353389
 21
457.65797400000002
 31
0.0
  0
LINE
  5
484
  8
0
 62
     7
 10
-54.353389
 20
465.34356700000001
 30
0.0
 11
-54.353389
 21
460.56375100000002
 31
0.0
  0
LINE
  5
485
  8
0
 62
     7
 10
-54.353389
 20
474.75216699999999
 30
0.0
 11
-54.353389
 21
469.972374
 31
0.0
  0
LINE
  5
486
  8
0
 62
     7
 10
-54.353389
 20
477.65797400000002
 30
0.0
 11
-54.353389
 21
477.15797399999991
 31
0.0
  0
LINE
  5
487
  8
0
 62
   211
 10
-87.053386000000003
 20
471.65797400000002
 30
0.0
 11
-87.053386000000003
 21
463.65797400000002
 31
0.0
  0
LINE
  5
488
  8
0
 62
     7
 10
25.446567999999999
 20
490.15795899999989
 30
0.0
 11
18.946567999999989
 21
490.15795899999989
 31
0.0
  0
LINE
  5
489
  8
0
 62
     7
 10
25.446567999999999
 20
515.15795899999989
 30
0.0
 11
18.946584000000001
 21
515.15795899999989
 31
0.0
  0
LINE
  5
48A
  8
0
 62
     7
 10
25.446567999999999
 20
455.15798999999998
 30
0.0
 11
18.946567999999989
 21
455.15798999999998
 31
0.0
  0
LINE
  5
48B
  8
0
 62
     7
 10
25.446567999999999
 20
480.15798999999998
 30
0.0
 11
18.946567999999989
 21
480.15798999999998
 31
0.0
  0
LINE
  5
48C
  8
0
 62
     7
 10
25.446567999999999
 20
385.15800499999989
 30
0.0
 11
14.44656799999999
 21
385.15800499999989
 31
0.0
  0
LINE
  5
48D
  8
0
 62
     7
 10
25.446567999999999
 20
445.158005
 30
0.0
 11
18.946567999999989
 21
445.158005
 31
0.0
  0
LINE
  5
48E
  8
0
 62
     7
 10
25.446567999999999
 20
384.158005
 30
0.0
 11
18.946567999999989
 21
384.158005
 31
0.0
  0
LINE
  5
48F
  8
0
 62
     7
 10
62.446613999999997
 20
516.658005
 30
0.0
 11
25.446567999999999
 21
516.658005
 31
0.0
  0
LINE
  5
490
  8
0
 62
     7
 10
62.446613999999997
 20
383.658005
 30
0.0
 11
25.446567999999999
 21
383.658005
 31
0.0
  0
LINE
  5
491
  8
0
 62
     9
 10
14.44656799999999
 20
444.65798999999998
 30
0.0
 11
-1.553431999999999
 21
444.65798999999998
 31
0.0
  0
LINE
  5
492
  8
0
 62
     9
 10
14.44656799999999
 20
420.65798999999998
 30
0.0
 11
-1.553431999999999
 21
420.65798999999998
 31
0.0
  0
LINE
  5
493
  8
0
 62
     9
 10
-1.553431999999999
 20
442.65798999999998
 30
0.0
 11
-15.353389
 21
442.65798999999998
 31
0.0
  0
LINE
  5
494
  8
0
 62
     9
 10
-1.553431999999999
 20
422.65798999999998
 30
0.0
 11
-15.353389
 21
422.65798999999998
 31
0.0
  0
LINE
  5
495
  8
0
 62
     9
 10
14.44656799999999
 20
514.65799000000004
 30
0.0
 11
-1.553431999999999
 21
514.65799000000004
 31
0.0
  0
LINE
  5
496
  8
0
 62
     9
 10
14.44656799999999
 20
490.65798999999998
 30
0.0
 11
-1.553431999999999
 21
490.65798999999998
 31
0.0
  0
LINE
  5
497
  8
0
 62
     9
 10
-1.553431999999999
 20
512.65799000000004
 30
0.0
 11
-15.353389
 21
512.65799000000004
 31
0.0
  0
LINE
  5
498
  8
0
 62
     9
 10
-1.553431999999999
 20
492.65798999999998
 30
0.0
 11
-15.353389
 21
492.65798999999998
 31
0.0
  0
LINE
  5
499
  8
0
 62
     9
 10
14.446614
 20
479.65797400000002
 30
0.0
 11
-0.5533859999999999
 21
479.65797400000002
 31
0.0
  0
LINE
  5
49A
  8
0
 62
     9
 10
14.446614
 20
455.65797400000002
 30
0.0
 11
-0.5533859999999999
 21
455.65797400000002
 31
0.0
  0
LINE
  5
49B
  8
0
 62
     9
 10
-0.5533859999999999
 20
479.65797400000002
 30
0.0
 11
-1.5533859999999999
 21
478.65797400000002
 31
0.0
  0
LINE
  5
49C
  8
0
 62
     9
 10
-0.5533859999999999
 20
455.65796699999993
 30
0.0
 11
-1.5533859999999999
 21
456.65796699999999
 31
0.0
  0
LINE
  5
49D
  8
0
 62
     7
 10
-23.853389
 20
513.65794400000004
 30
0.0
 11
-26.353389
 21
513.65794400000004
 31
0.0
  0
LINE
  5
49E
  8
0
 62
     7
 10
-23.853389
 20
491.65794399999999
 30
0.0
 11
-26.353389
 21
491.65794399999999
 31
0.0
  0
LINE
  5
49F
  8
0
 62
     7
 10
-15.353389
 20
513.65794400000004
 30
0.0
 11
-17.853389
 21
513.65794400000004
 31
0.0
  0
LINE
  5
4A0
  8
0
 62
     7
 10
-15.353389
 20
491.65794399999999
 30
0.0
 11
-17.853389
 21
491.65794399999999
 31
0.0
  0
LINE
  5
4A1
  8
0
 62
     3
 10
-2.3533889999999991
 20
467.65794399999999
 30
0.0
 11
-8.3533889999999982
 21
467.65794399999999
 31
0.0
  0
LINE
  5
4A2
  8
0
 62
     3
 10
-9.3533889999999982
 20
467.65794399999999
 30
0.0
 11
-15.353389
 21
467.65794399999999
 31
0.0
  0
LINE
  5
4A3
  8
0
 62
     3
 10
-26.353389
 20
467.65794399999999
 30
0.0
 11
-32.353389
 21
467.65794399999999
 31
0.0
  0
LINE
  5
4A4
  8
0
 62
     7
 10
-1.5533859999999999
 20
512.65794400000004
 30
0.0
 11
-2.3533889999999991
 21
512.65794400000004
 31
0.0
  0
LINE
  5
4A5
  8
0
 62
     7
 10
-1.5533859999999999
 20
492.65794399999999
 30
0.0
 11
-2.3533889999999991
 21
492.65794399999999
 31
0.0
  0
LINE
  5
4A6
  8
0
 62
   211
 10
-33.053385999999989
 20
508.65797400000002
 30
0.0
 11
-35.053385999999989
 21
506.65797400000002
 31
0.0
  0
LINE
  5
4A7
  8
0
 62
   211
 10
-33.053385999999989
 20
496.65797400000002
 30
0.0
 11
-35.053385999999989
 21
498.65797400000002
 31
0.0
  0
LINE
  5
4A8
  8
0
 62
   211
 10
-32.353389
 20
508.65797400000002
 30
0.0
 11
-33.053385999999989
 21
508.65797400000002
 31
0.0
  0
LINE
  5
4A9
  8
0
 62
   211
 10
-17.853389
 20
508.65797400000002
 30
0.0
 11
-23.853389
 21
508.65797400000002
 31
0.0
  0
LINE
  5
4AA
  8
0
 62
   211
 10
-8.3533889999999982
 20
508.65797400000002
 30
0.0
 11
-9.3533889999999982
 21
508.65797400000002
 31
0.0
  0
LINE
  5
4AB
  8
0
 62
   211
 10
-33.053385999999989
 20
508.65797400000002
 30
0.0
 11
-33.053385999999989
 21
496.65797400000002
 31
0.0
  0
LINE
  5
4AC
  8
0
 62
   211
 10
-32.353389
 20
496.65797400000002
 30
0.0
 11
-33.053385999999989
 21
496.65797400000002
 31
0.0
  0
LINE
  5
4AD
  8
0
 62
   211
 10
-17.853389
 20
496.65797400000002
 30
0.0
 11
-23.853389
 21
496.65797400000002
 31
0.0
  0
LINE
  5
4AE
  8
0
 62
   211
 10
-8.3533889999999982
 20
496.65797400000002
 30
0.0
 11
-9.3533889999999982
 21
496.65797400000002
 31
0.0
  0
LINE
  5
4AF
  8
0
 62
     9
 10
-0.5533859999999999
 20
479.65798999999998
 30
0.0
 11
-1.553431999999999
 21
479.65798999999998
 31
0.0
  0
LINE
  5
4B0
  8
0
 62
     9
 10
-0.5533859999999999
 20
455.65798999999998
 30
0.0
 11
-1.553431999999999
 21
455.65798999999998
 31
0.0
  0
LINE
  5
4B1
  8
0
 62
     9
 10
-1.5533859999999999
 20
477.65798999999998
 30
0.0
 11
-52.553431999999987
 21
477.65798999999998
 31
0.0
  0
LINE
  5
4B2
  8
0
 62
     9
 10
-1.5533859999999999
 20
457.65798999999998
 30
0.0
 11
-52.553431999999987
 21
457.65798999999998
 31
0.0
  0
LINE
  5
4B3
  8
0
 62
     9
 10
-52.553431999999987
 20
477.65798999999998
 30
0.0
 11
-53.260539000000001
 21
477.3650889999999
 31
0.0
  0
LINE
  5
4B4
  8
0
 62
     9
 10
-53.260539000000001
 20
477.3650889999999
 30
0.0
 11
-53.553432000000001
 21
476.65798999999998
 31
0.0
  0
LINE
  5
4B5
  8
0
 62
     9
 10
-52.553431999999987
 20
457.65798999999998
 30
0.0
 11
-53.260539000000001
 21
457.95088199999998
 31
0.0
  0
LINE
  5
4B6
  8
0
 62
     9
 10
-53.260539000000001
 20
457.95088199999998
 30
0.0
 11
-53.553432000000001
 21
458.65798999999998
 31
0.0
  0
LINE
  5
4B7
  8
0
 62
     7
 10
-67.353389000000007
 20
456.65797400000002
 30
0.0
 11
-69.853389000000007
 21
456.65797400000002
 31
0.0
  0
LINE
  5
4B8
  8
0
 62
     7
 10
-67.353389000000007
 20
478.65797400000002
 30
0.0
 11
-69.853389000000007
 21
478.65797400000002
 31
0.0
  0
LINE
  5
4B9
  8
0
 62
     7
 10
-75.853389000000007
 20
456.65797400000002
 30
0.0
 11
-78.353389000000007
 21
456.65797400000002
 31
0.0
  0
LINE
  5
4BA
  8
0
 62
     7
 10
-75.853389000000007
 20
478.65797400000002
 30
0.0
 11
-78.353389000000007
 21
478.65797400000002
 31
0.0
  0
LINE
  5
4BB
  8
0
 62
     3
 10
-54.353389
 20
467.65797400000002
 30
0.0
 11
-60.353389
 21
467.65797400000002
 31
0.0
  0
LINE
  5
4BC
  8
0
 62
     3
 10
-61.353389
 20
467.65797400000002
 30
0.0
 11
-67.353389000000007
 21
467.65797400000002
 31
0.0
  0
LINE
  5
4BD
  8
0
 62
     3
 10
-78.353389000000007
 20
467.65797400000002
 30
0.0
 11
-84.353389000000007
 21
467.65797400000002
 31
0.0
  0
LINE
  5
4BE
  8
0
 62
     7
 10
-53.553385999999989
 20
457.65797400000002
 30
0.0
 11
-54.353389
 21
457.65797400000002
 31
0.0
  0
LINE
  5
4BF
  8
0
 62
     7
 10
-53.553385999999989
 20
477.65797400000002
 30
0.0
 11
-54.353389
 21
477.65797400000002
 31
0.0
  0
LINE
  5
4C0
  8
0
 62
   211
 10
-85.053385999999989
 20
461.65796699999999
 30
0.0
 11
-87.053386000000003
 21
463.65796699999993
 31
0.0
  0
LINE
  5
4C1
  8
0
 62
   211
 10
-85.053385999999989
 20
473.65797400000002
 30
0.0
 11
-87.053386000000003
 21
471.65797400000002
 31
0.0
  0
LINE
  5
4C2
  8
0
 62
   211
 10
-84.353389000000007
 20
461.65797400000002
 30
0.0
 11
-85.053385999999989
 21
461.65797400000002
 31
0.0
  0
LINE
  5
4C3
  8
0
 62
   211
 10
-69.853389000000007
 20
461.65797400000002
 30
0.0
 11
-75.853389000000007
 21
461.65797400000002
 31
0.0
  0
LINE
  5
4C4
  8
0
 62
   211
 10
-60.353389
 20
461.65797400000002
 30
0.0
 11
-61.353389
 21
461.65797400000002
 31
0.0
  0
LINE
  5
4C5
  8
0
 62
   211
 10
-85.053385999999989
 20
473.65797400000002
 30
0.0
 11
-85.053385999999989
 21
461.65797400000002
 31
0.0
  0
LINE
  5
4C6
  8
0
 62
   211
 10
-84.353389000000007
 20
473.65797400000002
 30
0.0
 11
-85.053385999999989
 21
473.65797400000002
 31
0.0
  0
LINE
  5
4C7
  8
0
 62
   211
 10
-69.853389000000007
 20
473.65797400000002
 30
0.0
 11
-75.853389000000007
 21
473.65797400000002
 31
0.0
  0
LINE
  5
4C8
  8
0
 62
   211
 10
-60.353389
 20
473.65797400000002
 30
0.0
 11
-61.353389
 21
473.65797400000002
 31
0.0
  0
LINE
  5
4C9
  8
0
 62
     7
 10
25.446567999999999
 20
485.15798999999998
 30
0.0
 11
25.446567999999999
 21
450.15798999999998
 31
0.0
  0
LINE
  5
4CA
  8
0
 62
     7
 10
25.446567999999999
 20
450.15798999999998
 30
0.0
 11
25.446567999999999
 21
415.15803099999988
 31
0.0
  0
LINE
  5
4CB
  8
0
 62
     6
 10
62.446613999999997
 20
450.15798999999998
 30
0.0
 11
62.446613999999997
 21
445.158005
 31
0.0
  0
LINE
  5
4CC
  8
0
 62
     6
 10
62.446613999999997
 20
485.15798999999998
 30
0.0
 11
62.446613999999997
 21
480.158005
 31
0.0
  0
LINE
  5
4CD
  8
0
 62
     7
 10
18.946567999999989
 20
490.15795899999989
 30
0.0
 11
14.946584
 21
490.15795899999989
 31
0.0
  0
LINE
  5
4CE
  8
0
 62
     7
 10
18.946567999999989
 20
480.15798999999998
 30
0.0
 11
14.946584
 21
480.15798999999998
 31
0.0
  0
LINE
  5
4CF
  8
0
 62
     7
 10
18.946567999999989
 20
455.15798999999998
 30
0.0
 11
14.946567999999999
 21
455.15798999999998
 31
0.0
  0
LINE
  5
4D0
  8
0
 62
     7
 10
18.946567999999989
 20
445.158005
 30
0.0
 11
14.946567999999999
 21
445.158005
 31
0.0
  0
LINE
  5
4D1
  8
0
 62
     6
 10
18.946567999999989
 20
384.158005
 30
0.0
 11
12.946567999999999
 21
384.158005
 31
0.0
  0
LINE
  5
4D2
  8
0
 62
     2
 10
51.446613999999997
 20
458.40797399999991
 30
0.0
 11
46.446613999999997
 21
458.40797399999991
 31
0.0
  0
LINE
  5
4D3
  8
0
 62
     2
 10
51.446613999999997
 20
476.90797400000002
 30
0.0
 11
46.446613999999997
 21
476.90797400000002
 31
0.0
  0
LINE
  5
4D4
  8
0
 62
     2
 10
46.446613999999997
 20
476.90797400000002
 30
0.0
 11
46.446613999999997
 21
458.40797399999991
 31
0.0
  0
LINE
  5
4D5
  8
0
 62
     2
 10
61.446613999999997
 20
458.407982
 30
0.0
 11
51.446613999999997
 21
458.40797399999991
 31
0.0
  0
LINE
  5
4D6
  8
0
 62
     2
 10
61.446613999999997
 20
476.90798199999989
 30
0.0
 11
51.446613999999997
 21
476.90797400000002
 31
0.0
  0
LINE
  5
4D7
  8
0
 62
     2
 10
51.446613999999997
 20
458.40799699999991
 30
0.0
 11
51.446613999999997
 21
454.658005
 31
0.0
  0
LINE
  5
4D8
  8
0
 62
     2
 10
51.446613999999997
 20
480.65800499999989
 30
0.0
 11
51.446613999999997
 21
476.908005
 31
0.0
  0
LINE
  5
4D9
  8
0
 62
     2
 10
62.446613999999997
 20
480.65800499999989
 30
0.0
 11
62.446613999999997
 21
477.65800499999989
 31
0.0
  0
LINE
  5
4DA
  8
0
 62
     2
 10
62.446613999999997
 20
457.658005
 30
0.0
 11
62.446613999999997
 21
454.658005
 31
0.0
  0
LINE
  5
4DB
  8
0
 62
     2
 10
62.446613999999997
 20
457.658005
 30
0.0
 11
61.446613999999997
 21
457.658005
 31
0.0
  0
LINE
  5
4DC
  8
0
 62
     2
 10
62.446613999999997
 20
477.65800499999989
 30
0.0
 11
61.446613999999997
 21
477.65800499999989
 31
0.0
  0
LINE
  5
4DD
  8
0
 62
     2
 10
62.446613999999997
 20
477.65800499999989
 30
0.0
 11
62.446613999999997
 21
457.658005
 31
0.0
  0
LINE
  5
4DE
  8
0
 62
     2
 10
61.446613999999997
 20
477.65800499999989
 30
0.0
 11
61.446613999999997
 21
476.90797400000002
 31
0.0
  0
LINE
  5
4DF
  8
0
 62
     2
 10
61.446613999999997
 20
458.40797399999991
 30
0.0
 11
61.446613999999997
 21
457.658005
 31
0.0
  0
LINE
  5
4E0
  8
0
 62
     2
 10
55.178662000000003
 20
458.40797399999991
 30
0.0
 11
55.178662000000003
 21
457.40802000000002
 31
0.0
  0
LINE
  5
4E1
  8
0
 62
     2
 10
55.178662000000003
 20
457.40802000000002
 30
0.0
 11
51.446613999999997
 21
458.40799699999991
 31
0.0
  0
LINE
  5
4E2
  8
0
 62
     2
 10
55.178662000000003
 20
477.908028
 30
0.0
 11
55.178662000000003
 21
476.90802799999989
 31
0.0
  0
LINE
  5
4E3
  8
0
 62
     2
 10
55.17866999999999
 20
477.90802000000002
 30
0.0
 11
51.446621999999991
 21
476.90799699999991
 31
0.0
  0
LINE
  5
4E4
  8
0
 62
     2
 10
51.446613999999997
 20
493.40797400000002
 30
0.0
 11
46.446613999999997
 21
493.40797400000002
 31
0.0
  0
LINE
  5
4E5
  8
0
 62
     2
 10
51.446613999999997
 20
511.90797400000002
 30
0.0
 11
46.446613999999997
 21
511.90797400000002
 31
0.0
  0
LINE
  5
4E6
  8
0
 62
     2
 10
46.446613999999997
 20
511.90797400000002
 30
0.0
 11
46.446613999999997
 21
493.40797400000002
 31
0.0
  0
LINE
  5
4E7
  8
0
 62
     2
 10
61.446613999999997
 20
493.40797400000002
 30
0.0
 11
51.446613999999997
 21
493.40797400000002
 31
0.0
  0
LINE
  5
4E8
  8
0
 62
     2
 10
61.446613999999997
 20
511.90797400000002
 30
0.0
 11
51.446613999999997
 21
511.90797400000002
 31
0.0
  0
LINE
  5
4E9
  8
0
 62
     2
 10
51.446613999999997
 20
493.408005
 30
0.0
 11
51.446613999999997
 21
489.65800499999989
 31
0.0
  0
LINE
  5
4EA
  8
0
 62
     2
 10
51.446613999999997
 20
515.658005
 30
0.0
 11
51.446613999999997
 21
511.90800499999989
 31
0.0
  0
LINE
  5
4EB
  8
0
 62
     2
 10
62.446613999999997
 20
515.658005
 30
0.0
 11
62.446613999999997
 21
512.658005
 31
0.0
  0
LINE
  5
4EC
  8
0
 62
     2
 10
62.446613999999997
 20
492.658005
 30
0.0
 11
62.446613999999997
 21
489.65800499999989
 31
0.0
  0
LINE
  5
4ED
  8
0
 62
     2
 10
62.446613999999997
 20
492.658005
 30
0.0
 11
61.446613999999997
 21
492.658005
 31
0.0
  0
LINE
  5
4EE
  8
0
 62
     2
 10
62.446613999999997
 20
512.658005
 30
0.0
 11
61.446613999999997
 21
512.658005
 31
0.0
  0
LINE
  5
4EF
  8
0
 62
     2
 10
62.446613999999997
 20
512.658005
 30
0.0
 11
62.446613999999997
 21
492.658005
 31
0.0
  0
LINE
  5
4F0
  8
0
 62
     2
 10
61.446613999999997
 20
512.658005
 30
0.0
 11
61.446613999999997
 21
511.90797400000002
 31
0.0
  0
LINE
  5
4F1
  8
0
 62
     2
 10
61.446613999999997
 20
493.40797400000002
 30
0.0
 11
61.446613999999997
 21
492.658005
 31
0.0
  0
LINE
  5
4F2
  8
0
 62
     2
 10
55.178662000000003
 20
493.40797400000002
 30
0.0
 11
55.178662000000003
 21
492.40802000000002
 31
0.0
  0
LINE
  5
4F3
  8
0
 62
     2
 10
55.178662000000003
 20
492.40802000000002
 30
0.0
 11
51.446613999999997
 21
493.408005
 31
0.0
  0
LINE
  5
4F4
  8
0
 62
     2
 10
55.178662000000003
 20
512.90801999999985
 30
0.0
 11
55.178662000000003
 21
511.90801999999991
 31
0.0
  0
LINE
  5
4F5
  8
0
 62
     2
 10
55.17866999999999
 20
512.90800499999989
 30
0.0
 11
51.446621999999991
 21
511.90798999999998
 31
0.0
  0
LINE
  5
4F6
  8
0
 62
     2
 10
51.446613999999997
 20
423.40797400000002
 30
0.0
 11
46.446613999999997
 21
423.40797400000002
 31
0.0
  0
LINE
  5
4F7
  8
0
 62
     2
 10
51.446613999999997
 20
441.90797399999991
 30
0.0
 11
46.446613999999997
 21
441.90797399999991
 31
0.0
  0
LINE
  5
4F8
  8
0
 62
     2
 10
46.446613999999997
 20
441.90797399999991
 30
0.0
 11
46.446613999999997
 21
423.40797400000002
 31
0.0
  0
LINE
  5
4F9
  8
0
 62
     2
 10
61.446621999999991
 20
423.40798199999989
 30
0.0
 11
51.446613999999997
 21
423.40797400000002
 31
0.0
  0
LINE
  5
4FA
  8
0
 62
     2
 10
61.446606999999993
 20
441.907982
 30
0.0
 11
51.446613999999997
 21
441.90797399999991
 31
0.0
  0
LINE
  5
4FB
  8
0
 62
     2
 10
51.446613999999997
 20
423.40799699999991
 30
0.0
 11
51.446613999999997
 21
419.65800499999989
 31
0.0
  0
LINE
  5
4FC
  8
0
 62
     2
 10
51.446613999999997
 20
445.658005
 30
0.0
 11
51.446613999999997
 21
441.90800499999989
 31
0.0
  0
LINE
  5
4FD
  8
0
 62
     2
 10
62.446613999999997
 20
445.658005
 30
0.0
 11
62.446613999999997
 21
442.658005
 31
0.0
  0
LINE
  5
4FE
  8
0
 62
     2
 10
62.446613999999997
 20
422.65800499999989
 30
0.0
 11
62.446613999999997
 21
419.65800499999989
 31
0.0
  0
LINE
  5
4FF
  8
0
 62
     2
 10
62.446613999999997
 20
422.65800499999989
 30
0.0
 11
61.446613999999997
 21
422.65800499999989
 31
0.0
  0
LINE
  5
500
  8
0
 62
     2
 10
62.446613999999997
 20
442.658005
 30
0.0
 11
61.446613999999997
 21
442.658005
 31
0.0
  0
LINE
  5
501
  8
0
 62
     2
 10
62.446613999999997
 20
442.658005
 30
0.0
 11
62.446613999999997
 21
422.65800499999989
 31
0.0
  0
LINE
  5
502
  8
0
 62
     2
 10
61.446613999999997
 20
442.658005
 30
0.0
 11
61.446613999999997
 21
441.90797399999991
 31
0.0
  0
LINE
  5
503
  8
0
 62
     2
 10
61.446613999999997
 20
423.40797400000002
 30
0.0
 11
61.446613999999997
 21
422.65800499999989
 31
0.0
  0
LINE
  5
504
  8
0
 62
     2
 10
55.178662000000003
 20
423.40797400000002
 30
0.0
 11
55.178662000000003
 21
422.40802000000002
 31
0.0
  0
LINE
  5
505
  8
0
 62
     2
 10
55.178662000000003
 20
422.40802000000002
 30
0.0
 11
51.446613999999997
 21
423.40799699999991
 31
0.0
  0
LINE
  5
506
  8
0
 62
     2
 10
55.178662000000003
 20
442.90802799999989
 30
0.0
 11
55.178662000000003
 21
441.908028
 31
0.0
  0
LINE
  5
507
  8
0
 62
     2
 10
55.17866999999999
 20
442.90802799999989
 30
0.0
 11
51.446621999999991
 21
441.90800499999989
 31
0.0
  0
LINE
  5
508
  8
0
 62
     2
 10
62.446613999999997
 20
454.658005
 30
0.0
 11
51.446613999999997
 21
454.658005
 31
0.0
  0
LINE
  5
509
  8
0
 62
     2
 10
62.446613999999997
 20
480.65800499999989
 30
0.0
 11
51.446613999999997
 21
480.65800499999989
 31
0.0
  0
LINE
  5
50A
  8
0
 62
     2
 10
64.446613999999997
 20
480.09133899999989
 30
0.0
 11
62.446613999999997
 21
480.158005
 31
0.0
  0
LINE
  5
50B
  8
0
 62
     2
 10
64.446613999999997
 20
455.22467
 30
0.0
 11
62.446613999999997
 21
455.158005
 31
0.0
  0
LINE
  5
50C
  8
0
 62
     2
 10
62.446613999999997
 20
489.65800499999989
 30
0.0
 11
51.446613999999997
 21
489.65800499999989
 31
0.0
  0
LINE
  5
50D
  8
0
 62
     2
 10
62.446613999999997
 20
515.658005
 30
0.0
 11
51.446613999999997
 21
515.658005
 31
0.0
  0
LINE
  5
50E
  8
0
 62
     2
 10
64.446613999999997
 20
515.09133899999995
 30
0.0
 11
62.446613999999997
 21
515.15800499999989
 31
0.0
  0
LINE
  5
50F
  8
0
 62
     2
 10
64.446613999999997
 20
490.22467
 30
0.0
 11
62.446613999999997
 21
490.15800499999989
 31
0.0
  0
LINE
  5
510
  8
0
 62
     2
 10
62.446613999999997
 20
419.65800499999989
 30
0.0
 11
51.446613999999997
 21
419.65800499999989
 31
0.0
  0
LINE
  5
511
  8
0
 62
     2
 10
62.446613999999997
 20
445.658005
 30
0.0
 11
51.446613999999997
 21
445.658005
 31
0.0
  0
LINE
  5
512
  8
0
 62
     2
 10
64.446613999999997
 20
445.09133899999989
 30
0.0
 11
62.446613999999997
 21
445.158005
 31
0.0
  0
LINE
  5
513
  8
0
 62
     2
 10
64.446613999999997
 20
420.22466999999989
 30
0.0
 11
62.446613999999997
 21
420.158005
 31
0.0
  0
LINE
  5
514
  8
0
 62
     6
 10
43.946613999999997
 20
407.90798999999993
 30
0.0
 11
43.946613999999997
 21
387.40798999999993
 31
0.0
  0
LINE
  5
515
  8
0
 62
     6
 10
51.446613999999997
 20
387.40798999999993
 30
0.0
 11
43.946613999999997
 21
387.40798999999993
 31
0.0
  0
LINE
  5
516
  8
0
 62
     6
 10
51.446613999999997
 20
407.90798999999993
 30
0.0
 11
43.946613999999997
 21
407.90798999999993
 31
0.0
  0
LINE
  5
517
  8
0
 62
   211
 10
46.446613999999997
 20
389.15797400000002
 30
0.0
 11
45.946613999999997
 21
389.15797400000002
 31
0.0
  0
LINE
  5
518
  8
0
 62
   211
 10
46.446613999999997
 20
406.15797399999991
 30
0.0
 11
45.946613999999997
 21
406.15797399999991
 31
0.0
  0
LINE
  5
519
  8
0
 62
   211
 10
46.446613999999997
 20
394.15797400000002
 30
0.0
 11
45.946613999999997
 21
394.15797400000002
 31
0.0
  0
LINE
  5
51A
  8
0
 62
   211
 10
46.446613999999997
 20
401.15797400000002
 30
0.0
 11
45.946613999999997
 21
401.15797400000002
 31
0.0
  0
LINE
  5
51B
  8
0
 62
     6
 10
62.446613999999997
 20
415.15798999999993
 30
0.0
 11
62.446613999999997
 21
410.15800499999989
 31
0.0
  0
LINE
  5
51C
  8
0
 62
     2
 10
51.446613999999997
 20
388.40797400000002
 30
0.0
 11
46.446613999999997
 21
388.40797400000002
 31
0.0
  0
LINE
  5
51D
  8
0
 62
     2
 10
51.446613999999997
 20
406.90797400000002
 30
0.0
 11
46.446613999999997
 21
406.90797400000002
 31
0.0
  0
LINE
  5
51E
  8
0
 62
     2
 10
46.446613999999997
 20
406.90797400000002
 30
0.0
 11
46.446613999999997
 21
388.40797400000002
 31
0.0
  0
LINE
  5
51F
  8
0
 62
     2
 10
61.446621999999991
 20
388.407982
 30
0.0
 11
51.446613999999997
 21
388.40797400000002
 31
0.0
  0
LINE
  5
520
  8
0
 62
     2
 10
61.446606999999993
 20
406.90798199999989
 30
0.0
 11
51.446613999999997
 21
406.90797400000002
 31
0.0
  0
LINE
  5
521
  8
0
 62
     2
 10
51.446613999999997
 20
388.40799700000002
 30
0.0
 11
51.446613999999997
 21
384.658005
 31
0.0
  0
LINE
  5
522
  8
0
 62
     2
 10
51.446613999999997
 20
410.65800499999989
 30
0.0
 11
51.446613999999997
 21
406.908005
 31
0.0
  0
LINE
  5
523
  8
0
 62
     2
 10
62.446613999999997
 20
410.65800499999989
 30
0.0
 11
62.446613999999997
 21
407.658005
 31
0.0
  0
LINE
  5
524
  8
0
 62
     2
 10
62.446613999999997
 20
387.658005
 30
0.0
 11
62.446613999999997
 21
384.658005
 31
0.0
  0
LINE
  5
525
  8
0
 62
     2
 10
62.446613999999997
 20
387.658005
 30
0.0
 11
61.446613999999997
 21
387.658005
 31
0.0
  0
LINE
  5
526
  8
0
 62
     2
 10
62.446613999999997
 20
407.658005
 30
0.0
 11
61.446613999999997
 21
407.658005
 31
0.0
  0
LINE
  5
527
  8
0
 62
     2
 10
62.446613999999997
 20
407.658005
 30
0.0
 11
62.446613999999997
 21
387.658005
 31
0.0
  0
LINE
  5
528
  8
0
 62
     2
 10
61.446613999999997
 20
407.658005
 30
0.0
 11
61.446613999999997
 21
406.90797400000002
 31
0.0
  0
LINE
  5
529
  8
0
 62
     2
 10
61.446613999999997
 20
388.40797400000002
 30
0.0
 11
61.446613999999997
 21
387.658005
 31
0.0
  0
LINE
  5
52A
  8
0
 62
     2
 10
55.178662000000003
 20
388.40797400000002
 30
0.0
 11
55.178662000000003
 21
387.40802000000002
 31
0.0
  0
LINE
  5
52B
  8
0
 62
     2
 10
55.178662000000003
 20
387.40802000000002
 30
0.0
 11
51.446613999999997
 21
388.40799700000002
 31
0.0
  0
LINE
  5
52C
  8
0
 62
     2
 10
55.178662000000003
 20
407.908028
 30
0.0
 11
55.178662000000003
 21
406.90802799999989
 31
0.0
  0
LINE
  5
52D
  8
0
 62
     2
 10
55.17866999999999
 20
407.90802400000001
 30
0.0
 11
51.446621999999991
 21
406.9080009999999
 31
0.0
  0
LINE
  5
52E
  8
0
 62
     2
 10
62.446613999999997
 20
384.658005
 30
0.0
 11
51.446613999999997
 21
384.658005
 31
0.0
  0
LINE
  5
52F
  8
0
 62
     2
 10
62.446613999999997
 20
410.65800499999989
 30
0.0
 11
51.446613999999997
 21
410.65800499999989
 31
0.0
  0
LINE
  5
530
  8
0
 62
     2
 10
64.446613999999997
 20
410.091339
 30
0.0
 11
62.446613999999997
 21
410.15800499999989
 31
0.0
  0
LINE
  5
531
  8
0
 62
     2
 10
64.446613999999997
 20
385.22467
 30
0.0
 11
62.446613999999997
 21
385.15800499999989
 31
0.0
  0
LINE
  5
532
  8
0
 62
     6
 10
62.446613999999997
 20
420.158005
 30
0.0
 11
62.446613999999997
 21
415.15798999999993
 31
0.0
  0
LINE
  5
533
  8
0
 62
     7
 10
25.446567999999999
 20
415.15798999999993
 30
0.0
 11
25.446567999999999
 21
380.15803099999988
 31
0.0
  0
LINE
  5
534
  8
0
 62
     9
 10
-1.5533859999999999
 20
408.65797400000002
 30
0.0
 11
-1.5533859999999999
 21
386.65797400000002
 31
0.0
  0
LINE
  5
535
  8
0
 62
     7
 10
-23.853389
 20
443.65794399999999
 30
0.0
 11
-23.853389
 21
421.65794399999999
 31
0.0
  0
LINE
  5
536
  8
0
 62
     7
 10
-26.353389
 20
423.15794399999999
 30
0.0
 11
-26.353389
 21
421.65794399999999
 31
0.0
  0
LINE
  5
537
  8
0
 62
     7
 10
-26.353389
 20
442.01475499999998
 30
0.0
 11
-26.353389
 21
423.30113200000011
 31
0.0
  0
LINE
  5
538
  8
0
 62
     7
 10
-26.353389
 20
443.65794399999999
 30
0.0
 11
-26.353389
 21
442.15794399999999
 31
0.0
  0
LINE
  5
539
  8
0
 62
     7
 10
-15.353389
 20
443.65794399999999
 30
0.0
 11
-15.353389
 21
442.15794399999999
 31
0.0
  0
LINE
  5
53A
  8
0
 62
     7
 10
-15.353389
 20
442.01475499999998
 30
0.0
 11
-15.353389
 21
423.30113200000011
 31
0.0
  0
LINE
  5
53B
  8
0
 62
     7
 10
-15.353389
 20
423.15794399999999
 30
0.0
 11
-15.353389
 21
421.65794399999999
 31
0.0
  0
LINE
  5
53C
  8
0
 62
     7
 10
-17.853389
 20
443.65794399999999
 30
0.0
 11
-17.853389
 21
421.65794399999999
 31
0.0
  0
LINE
  5
53D
  8
0
 62
     3
 10
-2.3533889999999991
 20
442.15794399999999
 30
0.0
 11
-8.3533889999999982
 21
442.15794399999999
 31
0.0
  0
LINE
  5
53E
  8
0
 62
     3
 10
-2.3533889999999991
 20
423.15794399999999
 30
0.0
 11
-8.3533889999999982
 21
423.15794399999999
 31
0.0
  0
LINE
  5
53F
  8
0
 62
     3
 10
-8.3533889999999982
 20
442.15794399999999
 30
0.0
 11
-8.3533889999999982
 21
423.15794399999999
 31
0.0
  0
LINE
  5
540
  8
0
 62
     3
 10
-2.3533889999999991
 20
442.15794399999999
 30
0.0
 11
-2.3533889999999991
 21
439.75212099999987
 31
0.0
  0
LINE
  5
541
  8
0
 62
     3
 10
-2.3533889999999991
 20
434.97233599999998
 30
0.0
 11
-2.3533889999999991
 21
430.34353599999997
 31
0.0
  0
LINE
  5
542
  8
0
 62
     3
 10
-2.3533889999999991
 20
425.56372800000003
 30
0.0
 11
-2.3533889999999991
 21
423.15794399999999
 31
0.0
  0
LINE
  5
543
  8
0
 62
     3
 10
-9.3533889999999982
 20
442.15794399999999
 30
0.0
 11
-15.353389
 21
442.15794399999999
 31
0.0
  0
LINE
  5
544
  8
0
 62
     3
 10
-9.3533889999999982
 20
423.15794399999999
 30
0.0
 11
-15.353389
 21
423.15794399999999
 31
0.0
  0
LINE
  5
545
  8
0
 62
     3
 10
-15.353389
 20
423.30113200000011
 30
0.0
 11
-15.353389
 21
423.15794399999999
 31
0.0
  0
LINE
  5
546
  8
0
 62
     3
 10
-15.353389
 20
442.15794399999999
 30
0.0
 11
-15.353389
 21
442.014748
 31
0.0
  0
LINE
  5
547
  8
0
 62
     3
 10
-9.3533889999999982
 20
442.15794399999999
 30
0.0
 11
-9.3533889999999982
 21
423.15794399999999
 31
0.0
  0
LINE
  5
548
  8
0
 62
     3
 10
-26.353389
 20
442.15794399999999
 30
0.0
 11
-32.353389
 21
442.15794399999999
 31
0.0
  0
LINE
  5
549
  8
0
 62
     3
 10
-26.353389
 20
423.15794399999999
 30
0.0
 11
-32.353389
 21
423.15794399999999
 31
0.0
  0
LINE
  5
54A
  8
0
 62
     3
 10
-26.353389
 20
442.15794399999999
 30
0.0
 11
-26.353389
 21
442.014748
 31
0.0
  0
LINE
  5
54B
  8
0
 62
     3
 10
-26.353389
 20
423.30113200000011
 30
0.0
 11
-26.353389
 21
423.15794399999999
 31
0.0
  0
LINE
  5
54C
  8
0
 62
     3
 10
-32.353389
 20
442.15794399999999
 30
0.0
 11
-32.353389
 21
423.15794399999999
 31
0.0
  0
LINE
  5
54D
  8
0
 62
     7
 10
-2.3533889999999991
 20
423.15794399999999
 30
0.0
 11
-2.3533889999999991
 21
422.65794399999999
 31
0.0
  0
LINE
  5
54E
  8
0
 62
     7
 10
-2.3533889999999991
 20
430.3435209999999
 30
0.0
 11
-2.3533889999999991
 21
425.56375099999991
 31
0.0
  0
LINE
  5
54F
  8
0
 62
     7
 10
-2.3533889999999991
 20
439.75215099999991
 30
0.0
 11
-2.3533889999999991
 21
434.972351
 31
0.0
  0
LINE
  5
550
  8
0
 62
     7
 10
-2.3533889999999991
 20
442.65794399999999
 30
0.0
 11
-2.3533889999999991
 21
442.15794399999999
 31
0.0
  0
LINE
  5
551
  8
0
 62
   211
 10
-35.053385999999989
 20
436.65797400000002
 30
0.0
 11
-35.053385999999989
 21
428.65797400000002
 31
0.0
  0
LINE
  5
552
  8
0
 62
     9
 10
-1.553431999999999
 20
386.65797400000002
 30
0.0
 11
-1.553431999999999
 21
385.65798999999993
 31
0.0
  0
LINE
  5
553
  8
0
 62
     9
 10
-1.553431999999999
 20
409.65798999999998
 30
0.0
 11
-1.553431999999999
 21
408.65797400000002
 31
0.0
  0
LINE
  5
554
  8
0
 62
     7
 10
-67.353389000000007
 20
408.65797400000002
 30
0.0
 11
-67.353389000000007
 21
407.15797400000002
 31
0.0
  0
LINE
  5
555
  8
0
 62
     7
 10
-67.353389000000007
 20
407.01478600000002
 30
0.0
 11
-67.353389000000007
 21
388.30115499999988
 31
0.0
  0
LINE
  5
556
  8
0
 62
     7
 10
-67.353389000000007
 20
388.15797400000002
 30
0.0
 11
-67.353389000000007
 21
386.65797400000002
 31
0.0
  0
LINE
  5
557
  8
0
 62
     7
 10
-69.853389000000007
 20
408.65797400000002
 30
0.0
 11
-69.853389000000007
 21
386.65797400000002
 31
0.0
  0
LINE
  5
558
  8
0
 62
     7
 10
-75.853389000000007
 20
408.65797400000002
 30
0.0
 11
-75.853389000000007
 21
386.65797400000002
 31
0.0
  0
LINE
  5
559
  8
0
 62
     7
 10
-78.353389000000007
 20
388.15797400000002
 30
0.0
 11
-78.353389000000007
 21
386.65797400000002
 31
0.0
  0
LINE
  5
55A
  8
0
 62
     7
 10
-78.353389000000007
 20
407.01478600000002
 30
0.0
 11
-78.353389000000007
 21
388.30115499999988
 31
0.0
  0
LINE
  5
55B
  8
0
 62
     7
 10
-78.353389000000007
 20
408.65797400000002
 30
0.0
 11
-78.353389000000007
 21
407.15797400000002
 31
0.0
  0
LINE
  5
55C
  8
0
 62
     3
 10
-54.353389
 20
388.15797400000002
 30
0.0
 11
-60.353389
 21
388.15797400000002
 31
0.0
  0
LINE
  5
55D
  8
0
 62
     3
 10
-54.353389
 20
407.15797400000002
 30
0.0
 11
-60.353389
 21
407.15797400000002
 31
0.0
  0
LINE
  5
55E
  8
0
 62
     3
 10
-60.353389
 20
407.15797400000002
 30
0.0
 11
-60.353389
 21
388.15797400000002
 31
0.0
  0
LINE
  5
55F
  8
0
 62
     3
 10
-54.353389
 20
407.15797400000002
 30
0.0
 11
-54.353389
 21
404.75217400000002
 31
0.0
  0
LINE
  5
560
  8
0
 62
     3
 10
-54.353389
 20
399.97238199999993
 30
0.0
 11
-54.353389
 21
395.34357499999999
 31
0.0
  0
LINE
  5
561
  8
0
 62
     3
 10
-54.353389
 20
390.56375899999989
 30
0.0
 11
-54.353389
 21
388.15797400000002
 31
0.0
  0
LINE
  5
562
  8
0
 62
     3
 10
-61.353389
 20
388.15797400000002
 30
0.0
 11
-67.353389000000007
 21
388.15797400000002
 31
0.0
  0
LINE
  5
563
  8
0
 62
     3
 10
-61.353389
 20
407.15797400000002
 30
0.0
 11
-67.353389000000007
 21
407.15797400000002
 31
0.0
  0
LINE
  5
564
  8
0
 62
     3
 10
-67.353389000000007
 20
388.30115499999988
 30
0.0
 11
-67.353389000000007
 21
388.15797400000002
 31
0.0
  0
LINE
  5
565
  8
0
 62
     3
 10
-67.353389000000007
 20
407.15797400000002
 30
0.0
 11
-67.353389000000007
 21
407.01477799999998
 31
0.0
  0
LINE
  5
566
  8
0
 62
     3
 10
-61.353389
 20
407.15797400000002
 30
0.0
 11
-61.353389
 21
388.15797400000002
 31
0.0
  0
LINE
  5
567
  8
0
 62
     3
 10
-78.353389000000007
 20
388.15797400000002
 30
0.0
 11
-84.353389000000007
 21
388.15797400000002
 31
0.0
  0
LINE
  5
568
  8
0
 62
     3
 10
-78.353389000000007
 20
407.15797400000002
 30
0.0
 11
-84.353389000000007
 21
407.15797400000002
 31
0.0
  0
LINE
  5
569
  8
0
 62
     3
 10
-78.353389000000007
 20
407.15797400000002
 30
0.0
 11
-78.353389000000007
 21
407.01477799999998
 31
0.0
  0
LINE
  5
56A
  8
0
 62
     3
 10
-78.353389000000007
 20
388.30115499999988
 30
0.0
 11
-78.353389000000007
 21
388.15797400000002
 31
0.0
  0
LINE
  5
56B
  8
0
 62
     3
 10
-84.353389000000007
 20
407.15797400000002
 30
0.0
 11
-84.353389000000007
 21
388.15797400000002
 31
0.0
  0
LINE
  5
56C
  8
0
 62
     7
 10
-53.553385999999989
 20
407.65797400000002
 30
0.0
 11
-53.553385999999989
 21
387.65797400000002
 31
0.0
  0
LINE
  5
56D
  8
0
 62
     7
 10
-54.353389
 20
388.15797400000002
 30
0.0
 11
-54.353389
 21
387.65797400000002
 31
0.0
  0
LINE
  5
56E
  8
0
 62
     7
 10
-54.353389
 20
395.34356700000001
 30
0.0
 11
-54.353389
 21
390.56375099999991
 31
0.0
  0
LINE
  5
56F
  8
0
 62
     7
 10
-54.353389
 20
404.75216699999999
 30
0.0
 11
-54.353389
 21
399.972374
 31
0.0
  0
LINE
  5
570
  8
0
 62
     7
 10
-54.353389
 20
407.65797400000002
 30
0.0
 11
-54.353389
 21
407.15797400000002
 31
0.0
  0
LINE
  5
571
  8
0
 62
   211
 10
-87.053386000000003
 20
401.65797400000002
 30
0.0
 11
-87.053386000000003
 21
393.65797400000002
 31
0.0
  0
LINE
  5
572
  8
0
 62
     9
 10
14.446614
 20
409.65797400000002
 30
0.0
 11
-0.5533859999999999
 21
409.65797400000002
 31
0.0
  0
LINE
  5
573
  8
0
 62
     9
 10
14.446614
 20
385.65797400000002
 30
0.0
 11
-0.5533859999999999
 21
385.65797400000002
 31
0.0
  0
LINE
  5
574
  8
0
 62
     9
 10
-0.5533859999999999
 20
409.65797400000002
 30
0.0
 11
-1.5533859999999999
 21
408.65797400000002
 31
0.0
  0
LINE
  5
575
  8
0
 62
     9
 10
-0.5533859999999999
 20
385.65796999999998
 30
0.0
 11
-1.5533859999999999
 21
386.65796999999998
 31
0.0
  0
LINE
  5
576
  8
0
 62
     7
 10
-23.853389
 20
443.65794399999999
 30
0.0
 11
-26.353389
 21
443.65794399999999
 31
0.0
  0
LINE
  5
577
  8
0
 62
     7
 10
-23.853389
 20
421.65794399999999
 30
0.0
 11
-26.353389
 21
421.65794399999999
 31
0.0
  0
LINE
  5
578
  8
0
 62
     7
 10
-15.353389
 20
443.65794399999999
 30
0.0
 11
-17.853389
 21
443.65794399999999
 31
0.0
  0
LINE
  5
579
  8
0
 62
     7
 10
-15.353389
 20
421.65794399999999
 30
0.0
 11
-17.853389
 21
421.65794399999999
 31
0.0
  0
LINE
  5
57A
  8
0
 62
     3
 10
-2.3533889999999991
 20
397.65794399999999
 30
0.0
 11
-8.3533889999999982
 21
397.65794399999999
 31
0.0
  0
LINE
  5
57B
  8
0
 62
     3
 10
-9.3533889999999982
 20
397.65794399999999
 30
0.0
 11
-15.353389
 21
397.65794399999999
 31
0.0
  0
LINE
  5
57C
  8
0
 62
     3
 10
-26.353389
 20
397.65794399999999
 30
0.0
 11
-32.353389
 21
397.65794399999999
 31
0.0
  0
LINE
  5
57D
  8
0
 62
     7
 10
-1.5533859999999999
 20
442.65794399999999
 30
0.0
 11
-2.3533889999999991
 21
442.65794399999999
 31
0.0
  0
LINE
  5
57E
  8
0
 62
     7
 10
-1.5533859999999999
 20
422.65794399999999
 30
0.0
 11
-2.3533889999999991
 21
422.65794399999999
 31
0.0
  0
LINE
  5
57F
  8
0
 62
   211
 10
-33.053385999999989
 20
438.65797400000002
 30
0.0
 11
-35.053385999999989
 21
436.65797400000002
 31
0.0
  0
LINE
  5
580
  8
0
 62
   211
 10
-33.053385999999989
 20
426.65796699999993
 30
0.0
 11
-35.053385999999989
 21
428.65796699999999
 31
0.0
  0
LINE
  5
581
  8
0
 62
   211
 10
-32.353389
 20
438.65797400000002
 30
0.0
 11
-33.053385999999989
 21
438.65797400000002
 31
0.0
  0
LINE
  5
582
  8
0
 62
   211
 10
-17.853389
 20
438.65797400000002
 30
0.0
 11
-23.853389
 21
438.65797400000002
 31
0.0
  0
LINE
  5
583
  8
0
 62
   211
 10
-8.3533889999999982
 20
438.65797400000002
 30
0.0
 11
-9.3533889999999982
 21
438.65797400000002
 31
0.0
  0
LINE
  5
584
  8
0
 62
   211
 10
-33.053385999999989
 20
438.65797400000002
 30
0.0
 11
-33.053385999999989
 21
426.65797400000002
 31
0.0
  0
LINE
  5
585
  8
0
 62
   211
 10
-32.353389
 20
426.65797400000002
 30
0.0
 11
-33.053385999999989
 21
426.65797400000002
 31
0.0
  0
LINE
  5
586
  8
0
 62
   211
 10
-17.853389
 20
426.65797400000002
 30
0.0
 11
-23.853389
 21
426.65797400000002
 31
0.0
  0
LINE
  5
587
  8
0
 62
   211
 10
-8.3533889999999982
 20
426.65797400000002
 30
0.0
 11
-9.3533889999999982
 21
426.65797400000002
 31
0.0
  0
LINE
  5
588
  8
0
 62
     9
 10
-0.5533859999999999
 20
409.65798999999998
 30
0.0
 11
-1.553431999999999
 21
409.65798999999998
 31
0.0
  0
LINE
  5
589
  8
0
 62
     9
 10
-0.5533859999999999
 20
385.65798999999993
 30
0.0
 11
-1.553431999999999
 21
385.65798999999993
 31
0.0
  0
LINE
  5
58A
  8
0
 62
     9
 10
-1.5533859999999999
 20
407.65798999999993
 30
0.0
 11
-52.553431999999987
 21
407.65798999999993
 31
0.0
  0
LINE
  5
58B
  8
0
 62
     9
 10
-1.5533859999999999
 20
387.65798999999993
 30
0.0
 11
-52.553431999999987
 21
387.65798999999993
 31
0.0
  0
LINE
  5
58C
  8
0
 62
     9
 10
-52.553431999999987
 20
407.65798999999993
 30
0.0
 11
-53.260539000000001
 21
407.36508900000001
 31
0.0
  0
LINE
  5
58D
  8
0
 62
     9
 10
-53.260539000000001
 20
407.36508599999991
 30
0.0
 11
-53.553432000000001
 21
406.65798599999999
 31
0.0
  0
LINE
  5
58E
  8
0
 62
     9
 10
-52.553431999999987
 20
387.65799299999998
 30
0.0
 11
-53.260539000000001
 21
387.95088599999991
 31
0.0
  0
LINE
  5
58F
  8
0
 62
     9
 10
-53.260539000000001
 20
387.95088599999991
 30
0.0
 11
-53.553432000000001
 21
388.65799299999998
 31
0.0
  0
LINE
  5
590
  8
0
 62
     7
 10
-67.353389000000007
 20
386.65797400000002
 30
0.0
 11
-69.853389000000007
 21
386.65797400000002
 31
0.0
  0
LINE
  5
591
  8
0
 62
     7
 10
-67.353389000000007
 20
408.65797400000002
 30
0.0
 11
-69.853389000000007
 21
408.65797400000002
 31
0.0
  0
LINE
  5
592
  8
0
 62
     7
 10
-75.853389000000007
 20
386.65797400000002
 30
0.0
 11
-78.353389000000007
 21
386.65797400000002
 31
0.0
  0
LINE
  5
593
  8
0
 62
     7
 10
-75.853389000000007
 20
408.65797400000002
 30
0.0
 11
-78.353389000000007
 21
408.65797400000002
 31
0.0
  0
LINE
  5
594
  8
0
 62
     3
 10
-54.353389
 20
397.65797400000002
 30
0.0
 11
-60.353389
 21
397.65797400000002
 31
0.0
  0
LINE
  5
595
  8
0
 62
     3
 10
-61.353389
 20
397.65797400000002
 30
0.0
 11
-67.353389000000007
 21
397.65797400000002
 31
0.0
  0
LINE
  5
596
  8
0
 62
     3
 10
-78.353389000000007
 20
397.65797400000002
 30
0.0
 11
-84.353389000000007
 21
397.65797400000002
 31
0.0
  0
LINE
  5
597
  8
0
 62
     7
 10
-53.553385999999989
 20
387.65797400000002
 30
0.0
 11
-54.353389
 21
387.65797400000002
 31
0.0
  0
LINE
  5
598
  8
0
 62
     7
 10
-53.553385999999989
 20
407.65797400000002
 30
0.0
 11
-54.353389
 21
407.65797400000002
 31
0.0
  0
LINE
  5
599
  8
0
 62
   211
 10
-85.053385999999989
 20
391.65796999999998
 30
0.0
 11
-87.053386000000003
 21
393.65796999999998
 31
0.0
  0
LINE
  5
59A
  8
0
 62
   211
 10
-85.053385999999989
 20
403.65797400000002
 30
0.0
 11
-87.053386000000003
 21
401.65797400000002
 31
0.0
  0
LINE
  5
59B
  8
0
 62
   211
 10
-84.353389000000007
 20
391.65797400000002
 30
0.0
 11
-85.053385999999989
 21
391.65797400000002
 31
0.0
  0
LINE
  5
59C
  8
0
 62
   211
 10
-69.853389000000007
 20
391.65797400000002
 30
0.0
 11
-75.853389000000007
 21
391.65797400000002
 31
0.0
  0
LINE
  5
59D
  8
0
 62
   211
 10
-60.353389
 20
391.65797400000002
 30
0.0
 11
-61.353389
 21
391.65797400000002
 31
0.0
  0
LINE
  5
59E
  8
0
 62
   211
 10
-85.053385999999989
 20
403.65797400000002
 30
0.0
 11
-85.053385999999989
 21
391.65797400000002
 31
0.0
  0
LINE
  5
59F
  8
0
 62
   211
 10
-84.353389000000007
 20
403.65797400000002
 30
0.0
 11
-85.053385999999989
 21
403.65797400000002
 31
0.0
  0
LINE
  5
5A0
  8
0
 62
   211
 10
-69.853389000000007
 20
403.65797400000002
 30
0.0
 11
-75.853389000000007
 21
403.65797400000002
 31
0.0
  0
LINE
  5
5A1
  8
0
 62
   211
 10
-60.353389
 20
403.65797400000002
 30
0.0
 11
-61.353389
 21
403.65797400000002
 31
0.0
  0
LINE
  5
5A2
  8
0
 62
     3
 10
13.446567999999999
 20
420.65798999999998
 30
0.0
 11
13.446567999999999
 21
409.65797400000002
 31
0.0
  0
LINE
  5
5A3
  8
0
 62
     6
 10
14.946567999999999
 20
420.15795899999989
 30
0.0
 11
14.946567999999999
 21
410.15798999999993
 31
0.0
  0
LINE
  5
5A4
  8
0
 62
     7
 10
25.446567999999999
 20
410.15798999999993
 30
0.0
 11
14.946567999999999
 21
410.15798999999993
 31
0.0
  0
LINE
  5
5A5
  8
0
 62
     7
 10
25.446567999999999
 20
420.15795899999989
 30
0.0
 11
14.946567999999999
 21
420.15795899999989
 31
0.0
  0
LINE
  5
5A6
  8
0
 62
     7
 10
18.946567999999989
 20
420.15795899999989
 30
0.0
 11
18.946567999999989
 21
410.15798999999993
 31
0.0
  0
LINE
  5
5A7
  8
0
 62
     6
 10
14.44656799999999
 20
410.15798999999993
 30
0.0
 11
14.44656799999999
 21
385.65797400000002
 31
0.0
  0
LINE
  5
5A8
  8
0
  6
DASHDOT
 62
     7
 10
68.847203000000007
 20
467.65798999999998
 30
0.0
 11
-94.955134000000001
 21
467.65798999999998
 31
0.0
  0
LINE
  5
5A9
  8
0
  6
DASHDOT
 62
     7
 10
68.847203000000007
 20
397.65798999999993
 30
0.0
 11
-94.955134000000001
 21
397.65798999999993
 31
0.0
  0
LINE
  5
5AA
  8
0
 62
     7
 10
-69.853389000000007
 20
472.65798999999998
 30
0.0
 11
-75.853389000000007
 21
472.65798999999998
 31
0.0
  0
LINE
  5
5AB
  8
0
 62
     7
 10
-69.853389000000007
 20
462.65798999999998
 30
0.0
 11
-75.853389000000007
 21
462.65798999999998
 31
0.0
  0
LINE
  5
5AC
  8
0
 62
     7
 10
-69.853389000000007
 20
402.65798999999993
 30
0.0
 11
-75.853389000000007
 21
402.65798999999993
 31
0.0
  0
LINE
  5
5AD
  8
0
 62
     7
 10
-69.853389000000007
 20
392.65798999999998
 30
0.0
 11
-75.853389000000007
 21
392.65798999999998
 31
0.0
  0
LINE
  5
5AE
  8
0
 62
     7
 10
-17.853389
 20
437.65798999999998
 30
0.0
 11
-23.853389
 21
437.65798999999998
 31
0.0
  0
LINE
  5
5AF
  8
0
 62
     7
 10
-17.853389
 20
427.65798999999998
 30
0.0
 11
-23.853389
 21
427.65798999999998
 31
0.0
  0
LINE
  5
5B0
  8
0
 62
     7
 10
-17.853389
 20
497.65798999999998
 30
0.0
 11
-23.853389
 21
497.65798999999998
 31
0.0
  0
LINE
  5
5B1
  8
0
 62
     7
 10
-17.853389
 20
507.65798999999998
 30
0.0
 11
-23.853389
 21
507.65798999999998
 31
0.0
  0
LINE
  5
5B2
  8
0
 62
     6
 10
14.446583999999991
 20
445.157982
 30
0.0
 11
14.446583999999991
 21
420.157982
 31
0.0
  0
LINE
  5
5B3
  8
0
 62
     6
 10
14.446583999999991
 20
480.15798199999989
 30
0.0
 11
14.446583999999991
 21
455.15798199999989
 31
0.0
  0
LINE
  5
5B4
  8
0
 62
     7
 10
62.446629999999999
 20
486.90791300000001
 30
0.0
 11
25.446584000000001
 21
486.90791300000001
 31
0.0
  0
LINE
  5
5B5
  8
0
 62
     7
 10
62.446629999999999
 20
483.40791300000001
 30
0.0
 11
25.446584000000001
 21
483.40791300000001
 31
0.0
  0
LINE
  5
5B6
  8
0
 62
     7
 10
62.446629999999999
 20
451.90791300000001
 30
0.0
 11
25.446584000000001
 21
451.90791300000001
 31
0.0
  0
LINE
  5
5B7
  8
0
 62
     7
 10
62.446629999999999
 20
448.40791300000001
 30
0.0
 11
25.446584000000001
 21
448.40791300000001
 31
0.0
  0
LINE
  5
5B8
  8
0
 62
     6
 10
12.946584
 20
490.65798999999998
 30
0.0
 11
12.946584
 21
486.15791299999989
 31
0.0
  0
LINE
  5
5B9
  8
0
 62
     3
 10
14.946584
 20
490.15795899999989
 30
0.0
 11
14.946584
 21
486.55574000000001
 31
0.0
  0
LINE
  5
5BA
  8
0
 62
     7
 10
51.446613999999997
 20
385.657982
 30
0.0
 11
43.946629999999999
 21
385.657982
 31
0.0
  0
LINE
  5
5BB
  8
0
 62
     7
 10
51.446613999999997
 20
444.657982
 30
0.0
 11
43.946629999999999
 21
444.657982
 31
0.0
  0
LINE
  5
5BC
  8
0
 62
     7
 10
43.946629999999999
 20
387.407982
 30
0.0
 11
43.946629999999999
 21
385.657982
 31
0.0
  0
LINE
  5
5BD
  8
0
 62
     7
 10
43.946629999999999
 20
444.657982
 30
0.0
 11
43.946629999999999
 21
442.907982
 31
0.0
  0
LINE
  5
5BE
  8
0
 62
     7
 10
43.946629999999999
 20
385.657982
 30
0.0
 11
28.446629999999999
 21
385.657982
 31
0.0
  0
LINE
  5
5BF
  8
0
 62
     7
 10
43.946629999999999
 20
387.407982
 30
0.0
 11
28.446629999999999
 21
387.407982
 31
0.0
  0
LINE
  5
5C0
  8
0
 62
     7
 10
43.946629999999999
 20
444.657982
 30
0.0
 11
37.446629999999999
 21
444.657982
 31
0.0
  0
LINE
  5
5C1
  8
0
 62
     7
 10
43.946629999999999
 20
442.907982
 30
0.0
 11
37.446629999999999
 21
442.907982
 31
0.0
  0
LINE
  5
5C2
  8
0
 62
     7
 10
51.446613999999997
 20
455.657982
 30
0.0
 11
43.946629999999999
 21
455.657982
 31
0.0
  0
LINE
  5
5C3
  8
0
 62
     7
 10
51.446613999999997
 20
479.65798199999989
 30
0.0
 11
43.946629999999999
 21
479.65798199999989
 31
0.0
  0
LINE
  5
5C4
  8
0
 62
     7
 10
43.946629999999999
 20
457.407982
 30
0.0
 11
43.946629999999999
 21
455.657982
 31
0.0
  0
LINE
  5
5C5
  8
0
 62
     7
 10
43.946629999999999
 20
479.65798199999989
 30
0.0
 11
43.946629999999999
 21
477.90798199999989
 31
0.0
  0
LINE
  5
5C6
  8
0
 62
     7
 10
43.946629999999999
 20
455.657982
 30
0.0
 11
37.446629999999999
 21
455.657982
 31
0.0
  0
LINE
  5
5C7
  8
0
 62
     7
 10
43.946629999999999
 20
457.407982
 30
0.0
 11
37.446629999999999
 21
457.407982
 31
0.0
  0
LINE
  5
5C8
  8
0
 62
     7
 10
43.946629999999999
 20
479.65798199999989
 30
0.0
 11
37.446629999999999
 21
479.65798199999989
 31
0.0
  0
LINE
  5
5C9
  8
0
 62
     7
 10
43.946629999999999
 20
477.90798199999989
 30
0.0
 11
37.446629999999999
 21
477.90798199999989
 31
0.0
  0
LINE
  5
5CA
  8
0
 62
     7
 10
51.446613999999997
 20
490.65798999999998
 30
0.0
 11
43.946629999999999
 21
490.65798999999998
 31
0.0
  0
LINE
  5
5CB
  8
0
 62
     7
 10
51.446613999999997
 20
514.65799000000004
 30
0.0
 11
43.946629999999999
 21
514.65799000000004
 31
0.0
  0
LINE
  5
5CC
  8
0
 62
     7
 10
43.946629999999999
 20
492.40798999999998
 30
0.0
 11
43.946629999999999
 21
490.65798999999998
 31
0.0
  0
LINE
  5
5CD
  8
0
 62
     7
 10
43.946629999999999
 20
514.65799000000004
 30
0.0
 11
43.946629999999999
 21
512.90799000000004
 31
0.0
  0
LINE
  5
5CE
  8
0
 62
     7
 10
43.946629999999999
 20
490.65798999999998
 30
0.0
 11
37.446629999999999
 21
490.65798999999998
 31
0.0
  0
LINE
  5
5CF
  8
0
 62
     7
 10
43.946629999999999
 20
492.40798999999998
 30
0.0
 11
37.446629999999999
 21
492.40798999999998
 31
0.0
  0
LINE
  5
5D0
  8
0
 62
     7
 10
43.946629999999999
 20
514.65799000000004
 30
0.0
 11
28.446629999999999
 21
514.65799000000004
 31
0.0
  0
LINE
  5
5D1
  8
0
 62
     7
 10
43.946629999999999
 20
512.90799000000004
 30
0.0
 11
28.446629999999999
 21
512.90799000000004
 31
0.0
  0
LINE
  5
5D2
  8
0
 62
     7
 10
43.946629999999999
 20
434.657982
 30
0.0
 11
41.446629999999999
 21
434.657982
 31
0.0
  0
LINE
  5
5D3
  8
0
 62
     7
 10
43.946629999999999
 20
430.657982
 30
0.0
 11
41.446629999999999
 21
430.657982
 31
0.0
  0
LINE
  5
5D4
  8
0
 62
     7
 10
41.446629999999999
 20
434.657982
 30
0.0
 11
41.446629999999999
 21
430.657982
 31
0.0
  0
LINE
  5
5D5
  8
0
 62
     7
 10
43.946629999999999
 20
469.657982
 30
0.0
 11
41.446629999999999
 21
469.657982
 31
0.0
  0
LINE
  5
5D6
  8
0
 62
     7
 10
43.946629999999999
 20
465.657982
 30
0.0
 11
41.446629999999999
 21
465.657982
 31
0.0
  0
LINE
  5
5D7
  8
0
 62
     7
 10
41.446629999999999
 20
469.657982
 30
0.0
 11
41.446629999999999
 21
465.657982
 31
0.0
  0
LINE
  5
5D8
  8
0
 62
     7
 10
43.946629999999999
 20
504.65798999999998
 30
0.0
 11
41.446629999999999
 21
504.65798999999998
 31
0.0
  0
LINE
  5
5D9
  8
0
 62
     7
 10
43.946629999999999
 20
500.65798999999998
 30
0.0
 11
41.446629999999999
 21
500.65798999999998
 31
0.0
  0
LINE
  5
5DA
  8
0
 62
     7
 10
41.446629999999999
 20
504.65798999999998
 30
0.0
 11
41.446629999999999
 21
500.65798999999998
 31
0.0
  0
LINE
  5
5DB
  8
0
 62
     7
 10
25.446567999999999
 20
381.1579089999999
 30
0.0
 11
18.946567999999989
 21
381.1579089999999
 31
0.0
  0
LINE
  5
5DC
  8
0
 62
     6
 10
13.446567999999999
 20
486.15791299999989
 30
0.0
 11
12.946584
 21
486.15791299999989
 31
0.0
  0
LINE
  5
5DD
  8
0
 62
     7
 10
25.446598999999999
 20
486.55574000000001
 30
0.0
 11
14.946584
 21
486.55574000000001
 31
0.0
  0
LINE
  5
5DE
  8
0
 62
     7
 10
28.446629999999999
 20
387.407982
 30
0.0
 11
28.446629999999999
 21
385.657982
 31
0.0
  0
LINE
  5
5DF
  8
0
 62
     7
 10
37.446629999999999
 20
444.657982
 30
0.0
 11
37.446629999999999
 21
442.907982
 31
0.0
  0
LINE
  5
5E0
  8
0
 62
     7
 10
37.446629999999999
 20
457.407982
 30
0.0
 11
37.446629999999999
 21
455.657982
 31
0.0
  0
LINE
  5
5E1
  8
0
 62
     7
 10
37.446629999999999
 20
479.65798199999989
 30
0.0
 11
37.446629999999999
 21
477.90798199999989
 31
0.0
  0
LINE
  5
5E2
  8
0
 62
     7
 10
37.446629999999999
 20
492.40798999999998
 30
0.0
 11
37.446629999999999
 21
490.65798999999998
 31
0.0
  0
LINE
  5
5E3
  8
0
 62
     7
 10
28.446629999999999
 20
514.65799000000004
 30
0.0
 11
28.446629999999999
 21
512.90799000000004
 31
0.0
  0
LINE
  5
5E4
  8
0
 62
     6
 10
14.946584
 20
490.15795899999989
 30
0.0
 11
14.44656799999999
 21
490.15795899999989
 31
0.0
  0
LINE
  5
5E5
  8
0
 62
     6
 10
14.946584
 20
480.15798999999998
 30
0.0
 11
14.44656799999999
 21
480.15798999999998
 31
0.0
  0
LINE
  5
5E6
  8
0
 62
     6
 10
14.946567999999999
 20
420.15795899999989
 30
0.0
 11
14.44656799999999
 21
420.15795899999989
 31
0.0
  0
LINE
  5
5E7
  8
0
 62
     6
 10
14.946567999999999
 20
410.15798999999993
 30
0.0
 11
14.44656799999999
 21
410.15798999999993
 31
0.0
  0
LINE
  5
5E8
  8
0
 62
     6
 10
14.946567999999999
 20
445.158005
 30
0.0
 11
14.44656799999999
 21
445.158005
 31
0.0
  0
LINE
  5
5E9
  8
0
 62
     6
 10
14.946567999999999
 20
455.15798999999998
 30
0.0
 11
14.44656799999999
 21
455.15798999999998
 31
0.0
  0
LINE
  5
5EA
  8
0
 62
     7
 10
62.446629999999999
 20
416.90791300000001
 30
0.0
 11
25.446584000000001
 21
416.90791300000001
 31
0.0
  0
LINE
  5
5EB
  8
0
 62
     7
 10
62.446629999999999
 20
413.40791299999989
 30
0.0
 11
25.446584000000001
 21
413.40791299999989
 31
0.0
  0
LINE
  5
5EC
  8
0
 62
     7
 10
43.946629999999999
 20
420.65798199999989
 30
0.0
 11
37.446629999999999
 21
420.65798199999989
 31
0.0
  0
LINE
  5
5ED
  8
0
 62
     7
 10
51.446613999999997
 20
420.65798199999989
 30
0.0
 11
43.946629999999999
 21
420.65798199999989
 31
0.0
  0
LINE
  5
5EE
  8
0
 62
     7
 10
43.946629999999999
 20
422.407982
 30
0.0
 11
43.946629999999999
 21
420.65798199999989
 31
0.0
  0
LINE
  5
5EF
  8
0
 62
     7
 10
43.946629999999999
 20
422.407982
 30
0.0
 11
37.446629999999999
 21
422.407982
 31
0.0
  0
LINE
  5
5F0
  8
0
 62
     7
 10
37.446629999999999
 20
422.407982
 30
0.0
 11
37.446629999999999
 21
420.65798199999989
 31
0.0
  0
LINE
  5
5F1
  8
0
 62
     7
 10
43.946629999999999
 20
399.657982
 30
0.0
 11
41.446629999999999
 21
399.657982
 31
0.0
  0
LINE
  5
5F2
  8
0
 62
     7
 10
43.946629999999999
 20
395.65798199999989
 30
0.0
 11
41.446629999999999
 21
395.65798199999989
 31
0.0
  0
LINE
  5
5F3
  8
0
 62
     7
 10
41.446629999999999
 20
399.657982
 30
0.0
 11
41.446629999999999
 21
395.65798199999989
 31
0.0
  0
LINE
  5
5F4
  8
0
 62
     7
 10
43.946629999999999
 20
407.907982
 30
0.0
 11
37.446629999999999
 21
407.907982
 31
0.0
  0
LINE
  5
5F5
  8
0
 62
     7
 10
37.446629999999999
 20
409.657982
 30
0.0
 11
37.446629999999999
 21
407.907982
 31
0.0
  0
LINE
  5
5F6
  8
0
 62
     7
 10
43.946629999999999
 20
409.657982
 30
0.0
 11
37.446629999999999
 21
409.657982
 31
0.0
  0
LINE
  5
5F7
  8
0
 62
     7
 10
51.446613999999997
 20
409.657982
 30
0.0
 11
43.946629999999999
 21
409.657982
 31
0.0
  0
LINE
  5
5F8
  8
0
 62
     7
 10
43.946629999999999
 20
409.657982
 30
0.0
 11
43.946629999999999
 21
407.907982
 31
0.0
  0
LINE
  5
5F9
  8
0
 62
     7
 10
14.44656799999999
 20
385.65797400000002
 30
0.0
 11
14.44656799999999
 21
385.15798999999993
 31
0.0
  0
LINE
  5
5FA
  8
0
 62
     6
 10
14.44656799999999
 20
514.65799000000004
 30
0.0
 11
14.44656799999999
 21
490.15795899999989
 31
0.0
  0
LINE
  5
5FB
  8
0
 62
     6
 10
18.946567999999989
 20
381.1579089999999
 30
0.0
 11
12.946584
 21
381.1579089999999
 31
0.0
  0
LINE
  5
5FC
  8
0
 62
     7
 10
25.446567999999999
 20
482.65791299999989
 30
0.0
 11
14.946584
 21
482.65791299999989
 31
0.0
  0
LINE
  5
5FD
  8
0
 62
     6
 10
14.946584
 20
486.55574000000001
 30
0.0
 11
14.946584
 21
480.15798199999989
 31
0.0
  0
LINE
  5
5FE
  8
0
 62
     6
 10
18.946584000000001
 20
515.15795899999989
 30
0.0
 11
14.44656799999999
 21
515.15795899999989
 31
0.0
  0
POLYLINE
  5
5FF
  8
0
 62
     3
 66
     1
 10
0.0
 20
0.0
 30
0.0
  0
VERTEX
  5
993
  8
0
 62
     3
 10
64.446613999999997
 20
524.75723300000004
 30
0.0
  0
VERTEX
  5
994
  8
0
 62
     3
 10
64.446613999999997
 20
508.75723299999993
 30
0.0
  0
VERTEX
  5
995
  8
0
 62
     3
 10
66.446613999999997
 20
507.75723299999993
 30
0.0
  0
VERTEX
  5
996
  8
0
 62
     3
 10
62.446613999999997
 20
506.75723299999993
 30
0.0
  0
VERTEX
  5
997
  8
0
 62
     3
 10
64.446613999999997
 20
505.75723299999999
 30
0.0
  0
VERTEX
  5
998
  8
0
 62
     3
 10
64.446613999999997
 20
489.75723299999999
 30
0.0
  0
VERTEX
  5
999
  8
0
 62
     3
 10
66.446613999999997
 20
488.75723299999999
 30
0.0
  0
VERTEX
  5
99A
  8
0
 62
     3
 10
62.446613999999997
 20
487.75723299999993
 30
0.0
  0
VERTEX
  5
99B
  8
0
 62
     3
 10
64.446613999999997
 20
486.75723299999993
 30
0.0
  0
VERTEX
  5
99C
  8
0
 62
     3
 10
64.446613999999997
 20
470.75723299999993
 30
0.0
  0
VERTEX
  5
99D
  8
0
 62
     3
 10
66.446613999999997
 20
469.75723299999993
 30
0.0
  0
VERTEX
  5
99E
  8
0
 62
     3
 10
62.446613999999997
 20
468.75723299999999
 30
0.0
  0
VERTEX
  5
99F
  8
0
 62
     3
 10
64.446613999999997
 20
467.75723299999999
 30
0.0
  0
VERTEX
  5
9A0
  8
0
 62
     3
 10
64.446613999999997
 20
451.75723299999999
 30
0.0
  0
VERTEX
  5
9A1
  8
0
 62
     3
 10
66.446613999999997
 20
450.75723299999999
 30
0.0
  0
VERTEX
  5
9A2
  8
0
 62
     3
 10
62.446613999999997
 20
449.75723299999993
 30
0.0
  0
VERTEX
  5
9A3
  8
0
 62
     3
 10
64.446613999999997
 20
448.75723299999993
 30
0.0
  0
VERTEX
  5
9A4
  8
0
 62
     3
 10
64.446613999999997
 20
432.75723299999993
 30
0.0
  0
VERTEX
  5
9A5
  8
0
 62
     3
 10
66.446613999999997
 20
431.75723299999993
 30
0.0
  0
VERTEX
  5
9A6
  8
0
 62
     3
 10
62.446613999999997
 20
430.75723299999999
 30
0.0
  0
VERTEX
  5
9A7
  8
0
 62
     3
 10
64.446613999999997
 20
429.75723299999999
 30
0.0
  0
VERTEX
  5
9A8
  8
0
 62
     3
 10
64.446613999999997
 20
413.75723299999999
 30
0.0
  0
VERTEX
  5
9A9
  8
0
 62
     3
 10
66.446613999999997
 20
412.75723299999993
 30
0.0
  0
VERTEX
  5
9AA
  8
0
 62
     3
 10
62.446613999999997
 20
411.75723299999993
 30
0.0
  0
VERTEX
  5
9AB
  8
0
 62
     3
 10
64.446613999999997
 20
410.75723299999993
 30
0.0
  0
VERTEX
  5
9AC
  8
0
 62
     3
 10
64.446613999999997
 20
394.75723299999993
 30
0.0
  0
VERTEX
  5
9AD
  8
0
 62
     3
 10
66.446613999999997
 20
393.75723299999999
 30
0.0
  0
VERTEX
  5
9AE
  8
0
 62
     3
 10
62.446613999999997
 20
392.75723299999993
 30
0.0
  0
VERTEX
  5
9AF
  8
0
 62
     3
 10
64.446613999999997
 20
391.75723299999999
 30
0.0
  0
VERTEX
  5
9B0
  8
0
 62
     3
 10
64.446613999999997
 20
377.37214999999992
 30
0.0
  0
SEQEND
  5
9B1
  8
0
 62
     3
  0
LINE
  5
61F
  8
0
 62
     9
 10
-17.853389
 20
512.65799000000004
 30
0.0
 11
-23.853389
 21
512.65799000000004
 31
0.0
  0
LINE
  5
620
  8
0
 62
     9
 10
-17.853389
 20
492.65798999999998
 30
0.0
 11
-23.853389
 21
492.65798999999998
 31
0.0
  0
LINE
  5
621
  8
0
 62
     9
 10
-17.853389
 20
442.65798999999998
 30
0.0
 11
-23.853389
 21
442.65798999999998
 31
0.0
  0
LINE
  5
622
  8
0
 62
     9
 10
-17.853389
 20
422.65798999999998
 30
0.0
 11
-23.853389
 21
422.65798999999998
 31
0.0
  0
LINE
  5
623
  8
0
  6
DASHDOT
 62
     7
 10
12.946462
 20
527.00070199999993
 30
0.0
 11
12.946279000000001
 21
367.00660499999992
 31
0.0
  0
LINE
  5
624
  8
0
  6
DASHDOT
 62
     7
 10
9.9465839999999996
 20
526.79325900000003
 30
0.0
 11
9.9465839999999996
 21
365.19719900000001
 31
0.0
  0
LINE
  5
625
  8
0
 62
     7
 10
99.533909999999992
 20
502.65792799999991
 30
0.0
 11
98.492040000000003
 21
496.74908399999993
 31
0.0
  0
LINE
  5
626
  8
0
 62
     7
 10
99.533909999999992
 20
502.65792799999991
 30
0.0
 11
100.57577999999999
 21
496.74908399999993
 31
0.0
  0
LINE
  5
627
  8
0
 62
     7
 10
99.533909999999992
 20
467.65792800000003
 30
0.0
 11
100.57577999999999
 21
473.5667719999999
 31
0.0
  0
LINE
  5
628
  8
0
 62
     7
 10
99.533909999999992
 20
467.65792800000003
 30
0.0
 11
98.492040000000003
 21
473.5667719999999
 31
0.0
  0
LINE
  5
629
  8
0
 62
     7
 10
99.533909999999992
 20
467.65792800000003
 30
0.0
 11
98.492040000000003
 21
461.74908399999998
 31
0.0
  0
LINE
  5
62A
  8
0
 62
     7
 10
99.533909999999992
 20
467.65792800000003
 30
0.0
 11
100.57577999999999
 21
461.74908399999998
 31
0.0
  0
LINE
  5
62B
  8
0
 62
     7
 10
99.533909999999992
 20
432.65792800000003
 30
0.0
 11
100.57577999999999
 21
438.5667719999999
 31
0.0
  0
LINE
  5
62C
  8
0
 62
     7
 10
99.533909999999992
 20
432.65792800000003
 30
0.0
 11
98.491979000000001
 21
438.5667719999999
 31
0.0
  0
LINE
  5
62D
  8
0
 62
     7
 10
99.533909999999992
 20
432.65792800000003
 30
0.0
 11
98.491979000000001
 21
426.74908399999993
 31
0.0
  0
LINE
  5
62E
  8
0
 62
     7
 10
99.533909999999992
 20
432.65792800000003
 30
0.0
 11
100.57577999999999
 21
426.74908399999993
 31
0.0
  0
LINE
  5
62F
  8
0
 62
     7
 10
99.533909999999992
 20
397.65792799999991
 30
0.0
 11
100.57577999999999
 21
403.56677200000001
 31
0.0
  0
LINE
  5
630
  8
0
 62
     7
 10
99.533909999999992
 20
397.65792799999991
 30
0.0
 11
98.491979000000001
 21
403.56677200000001
 31
0.0
  0
LINE
  5
631
  8
0
 62
     7
 10
99.533909999999992
 20
502.65792799999991
 30
0.0
 11
99.533849000000004
 21
397.65792799999991
 31
0.0
  0
LINE
  5
632
  8
0
 62
     7
 10
103.53390999999991
 20
502.65792799999991
 30
0.0
 11
-46.552211
 21
502.65795899999989
 31
0.0
  0
LINE
  5
633
  8
0
 62
     7
 10
103.53390999999991
 20
467.65792800000003
 30
0.0
 11
-94.955043000000003
 21
467.65798199999989
 31
0.0
  0
LINE
  5
634
  8
0
 62
     7
 10
103.53390999999991
 20
432.65792800000003
 30
0.0
 11
-50.574427999999997
 21
432.65797400000002
 31
0.0
  0
LINE
  5
635
  8
0
 62
     7
 10
103.53390999999991
 20
397.65792799999991
 30
0.0
 11
-94.955043000000003
 21
397.65797400000002
 31
0.0
  0
LINE
  5
636
  8
0
 62
     7
 10
-99.439906000000008
 20
403.65797400000002
 30
0.0
 11
-98.398036000000005
 21
409.56681800000001
 31
0.0
  0
LINE
  5
637
  8
0
 62
     7
 10
-99.439906000000008
 20
403.65797400000002
 30
0.0
 11
-100.4817759999999
 21
409.56681800000001
 31
0.0
  0
LINE
  5
638
  8
0
 62
     7
 10
-99.439906000000008
 20
391.65797400000002
 30
0.0
 11
-100.4817759999999
 21
385.74912999999992
 31
0.0
  0
LINE
  5
639
  8
0
 62
     7
 10
-99.439906000000008
 20
391.65797400000002
 30
0.0
 11
-98.398036000000005
 21
385.74912999999992
 31
0.0
  0
LINE
  5
63A
  8
0
 62
     7
 10
-99.439906000000008
 20
403.65797400000002
 30
0.0
 11
-99.439906000000008
 21
365.60871900000001
 31
0.0
  0
LINE
  5
63B
  8
0
 62
     7
 10
-103.43990599999999
 20
403.65797400000002
 30
0.0
 11
-85.053308999999999
 21
403.65797400000002
 31
0.0
  0
LINE
  5
63C
  8
0
 62
     7
 10
-103.43990599999999
 20
391.65797400000002
 30
0.0
 11
-85.053308999999999
 21
391.65797400000002
 31
0.0
  0
LINE
  5
63D
  8
0
 62
     7
 10
12.946567999999999
 20
373.58972199999999
 30
0.0
 11
7.0376940000000001
 21
374.63160699999992
 31
0.0
  0
LINE
  5
63E
  8
0
 62
     7
 10
12.946567999999999
 20
373.58972199999999
 30
0.0
 11
7.0376940000000001
 21
372.5478359999999
 31
0.0
  0
LINE
  5
63F
  8
0
 62
     7
 10
-35.053370000000001
 20
373.58972199999999
 30
0.0
 11
-29.144556999999988
 21
372.5478359999999
 31
0.0
  0
LINE
  5
640
  8
0
 62
     7
 10
-35.053370000000001
 20
373.58972199999999
 30
0.0
 11
-29.144556999999988
 21
374.63160699999992
 31
0.0
  0
LINE
  5
641
  8
0
 62
     7
 10
12.946567999999999
 20
373.58972199999999
 30
0.0
 11
-35.053370000000001
 21
373.58972199999999
 31
0.0
  0
LINE
  5
642
  8
0
 62
     7
 10
12.946567999999999
 20
369.58972199999988
 30
0.0
 11
12.946567999999999
 21
381.15791300000001
 31
0.0
  0
LINE
  5
643
  8
0
 62
     7
 10
-35.053370000000001
 20
369.58972199999988
 30
0.0
 11
-35.053370000000001
 21
428.65797400000002
 31
0.0
  0
LINE
  5
644
  8
0
 62
     7
 10
12.946567999999999
 20
343.79550199999989
 30
0.0
 11
7.0376940000000001
 21
344.83738699999998
 31
0.0
  0
LINE
  5
645
  8
0
 62
     7
 10
12.946567999999999
 20
343.79550199999989
 30
0.0
 11
7.0376940000000001
 21
342.75361600000002
 31
0.0
  0
LINE
  5
646
  8
0
 62
     7
 10
-87.053431999999987
 20
343.79550199999989
 30
0.0
 11
-81.144495999999975
 21
342.75361600000002
 31
0.0
  0
LINE
  5
647
  8
0
 62
     7
 10
-87.053431999999987
 20
343.79550199999989
 30
0.0
 11
-81.144495999999975
 21
344.83738699999998
 31
0.0
  0
LINE
  5
648
  8
0
 62
     7
 10
12.946567999999999
 20
343.79550199999989
 30
0.0
 11
-87.053431999999987
 21
343.79550199999989
 31
0.0
  0
LINE
  5
649
  8
0
 62
     7
 10
12.946567999999999
 20
339.79550199999989
 30
0.0
 11
12.946567999999999
 21
381.15791300000001
 31
0.0
  0
LINE
  5
64A
  8
0
 62
     7
 10
-87.053431999999987
 20
339.79550199999989
 30
0.0
 11
-87.053431999999987
 21
393.65797400000002
 31
0.0
  0
LINE
  5
64B
  8
0
 62
     7
 10
12.946446
 20
529.68023700000003
 30
0.0
 11
7.0376329999999996
 21
530.72212200000001
 31
0.0
  0
LINE
  5
64C
  8
0
 62
     7
 10
12.946446
 20
529.68023700000003
 30
0.0
 11
7.0376329999999996
 21
528.63835099999994
 31
0.0
  0
LINE
  5
64D
  8
0
 62
     7
 10
-17.853358
 20
529.68023700000003
 30
0.0
 11
-11.94448399999999
 21
528.63835099999994
 31
0.0
  0
LINE
  5
64E
  8
0
 62
     7
 10
-17.853358
 20
529.68023700000003
 30
0.0
 11
-11.94448399999999
 21
530.72212200000001
 31
0.0
  0
LINE
  5
64F
  8
0
 62
     7
 10
12.946446
 20
529.68023700000003
 30
0.0
 11
-17.853358
 21
529.68023700000003
 31
0.0
  0
LINE
  5
650
  8
0
 62
     7
 10
12.946446
 20
533.68023700000003
 30
0.0
 11
12.946446
 21
527.00070199999993
 31
0.0
  0
LINE
  5
651
  8
0
 62
     7
 10
-17.853358
 20
533.68023700000003
 30
0.0
 11
-17.853358
 21
513.65789800000005
 31
0.0
  0
LINE
  5
652
  8
0
 62
     7
 10
12.946263
 20
360.85232500000001
 30
0.0
 11
7.0373890000000001
 21
361.89421099999993
 31
0.0
  0
LINE
  5
653
  8
0
 62
     7
 10
12.946263
 20
360.85232500000001
 30
0.0
 11
7.0373890000000001
 21
359.81042500000001
 31
0.0
  0
LINE
  5
654
  8
0
 62
     7
 10
-69.853480000000005
 20
360.85232500000001
 30
0.0
 11
-63.944544999999998
 21
359.81042500000001
 31
0.0
  0
LINE
  5
655
  8
0
 62
     7
 10
-69.853480000000005
 20
360.85232500000001
 30
0.0
 11
-63.944544999999998
 21
361.89421099999993
 31
0.0
  0
LINE
  5
656
  8
0
 62
     7
 10
12.946263
 20
360.85232500000001
 30
0.0
 11
-69.853480000000005
 21
360.85232500000001
 31
0.0
  0
LINE
  5
657
  8
0
 62
     7
 10
12.946263
 20
356.85232500000001
 30
0.0
 11
12.946263
 21
367.00660699999992
 31
0.0
  0
LINE
  5
658
  8
0
 62
     7
 10
-69.853480000000005
 20
356.85232500000001
 30
0.0
 11
-69.853480000000005
 21
402.65789799999999
 31
0.0
  0
LINE
  5
659
  8
0
 62
     7
 10
770.41570999999988
 20
686.60830899999996
 30
0.0
 11
882.41570999999999
 21
686.60830899999996
 31
0.0
  0
LINE
  5
65A
  8
0
 62
     7
 10
770.41570999999988
 20
798.60830899999996
 30
0.0
 11
882.41570999999999
 21
798.60830899999996
 31
0.0
  0
LINE
  5
65B
  8
0
 62
     7
 10
770.41570999999988
 20
798.60830899999996
 30
0.0
 11
770.41570999999988
 21
686.60830899999996
 31
0.0
  0
LINE
  5
65C
  8
0
 62
     7
 10
882.41570999999999
 20
798.60830899999996
 30
0.0
 11
882.41570999999999
 21
686.60830899999996
 31
0.0
  0
LINE
  5
65D
  8
0
  6
DASHDOT
 62
     7
 10
826.41570999999999
 20
872.49418100000003
 30
0.0
 11
826.41570999999999
 21
645.12129400000003
 31
0.0
  0
CIRCLE
  5
65E
  8
0
 62
     7
 10
786.41570999999988
 20
813.60830899999985
 30
0.0
 40
3.5
  0
CIRCLE
  5
65F
  8
0
 62
     7
 10
866.41570999999999
 20
813.60830899999985
 30
0.0
 40
3.5
  0
CIRCLE
  5
660
  8
0
 62
     7
 10
866.41570999999999
 20
671.60830899999985
 30
0.0
 40
3.5
  0
CIRCLE
  5
661
  8
0
 62
     7
 10
786.41570999999988
 20
671.60830899999985
 30
0.0
 40
3.5
  0
POLYLINE
  5
662
  8
0
 62
     3
 66
     1
 10
0.0
 20
0.0
 30
0.0
  0
VERTEX
  5
9B2
  8
0
 62
     3
 10
754.55772400000001
 20
823.00750899999991
 30
0.0
  0
VERTEX
  5
9B3
  8
0
 62
     3
 10
770.55772400000001
 20
823.00750899999991
 30
0.0
  0
VERTEX
  5
9B4
  8
0
 62
     3
 10
771.55772400000001
 20
825.00750900000014
 30
0.0
  0
VERTEX
  5
9B5
  8
0
 62
     3
 10
772.55772400000001
 20
821.00750900000003
 30
0.0
  0
VERTEX
  5
9B6
  8
0
 62
     3
 10
773.55772400000001
 20
823.00750899999991
 30
0.0
  0
VERTEX
  5
9B7
  8
0
 62
     3
 10
789.55772400000001
 20
823.00750899999991
 30
0.0
  0
VERTEX
  5
9B8
  8
0
 62
     3
 10
790.55772400000001
 20
825.00750900000014
 30
0.0
  0
VERTEX
  5
9B9
  8
0
 62
     3
 10
791.55772400000001
 20
821.00750900000003
 30
0.0
  0
VERTEX
  5
9BA
  8
0
 62
     3
 10
792.55772399999989
 20
823.00750899999991
 30
0.0
  0
VERTEX
  5
9BB
  8
0
 62
     3
 10
808.55772400000001
 20
823.00750899999991
 30
0.0
  0
VERTEX
  5
9BC
  8
0
 62
     3
 10
809.55772400000001
 20
825.00750900000014
 30
0.0
  0
VERTEX
  5
9BD
  8
0
 62
     3
 10
810.55772400000001
 20
821.00750900000003
 30
0.0
  0
VERTEX
  5
9BE
  8
0
 62
     3
 10
811.55772400000001
 20
823.00750899999991
 30
0.0
  0
VERTEX
  5
9BF
  8
0
 62
     3
 10
827.55772400000001
 20
823.00750899999991
 30
0.0
  0
VERTEX
  5
9C0
  8
0
 62
     3
 10
828.55772400000001
 20
825.00750900000014
 30
0.0
  0
VERTEX
  5
9C1
  8
0
 62
     3
 10
829.55772400000001
 20
821.00750900000003
 30
0.0
  0
VERTEX
  5
9C2
  8
0
 62
     3
 10
830.55772399999989
 20
823.00750899999991
 30
0.0
  0
VERTEX
  5
9C3
  8
0
 62
     3
 10
846.55772400000001
 20
823.00750899999991
 30
0.0
  0
VERTEX
  5
9C4
  8
0
 62
     3
 10
847.55772399999989
 20
825.00750900000014
 30
0.0
  0
VERTEX
  5
9C5
  8
0
 62
     3
 10
848.55772399999989
 20
821.00750900000003
 30
0.0
  0
VERTEX
  5
9C6
  8
0
 62
     3
 10
849.55772399999989
 20
823.00750899999991
 30
0.0
  0
VERTEX
  5
9C7
  8
0
 62
     3
 10
865.55772399999989
 20
823.00750899999991
 30
0.0
  0
VERTEX
  5
9C8
  8
0
 62
     3
 10
866.55772400000012
 20
825.00750900000014
 30
0.0
  0
VERTEX
  5
9C9
  8
0
 62
     3
 10
867.55772400000001
 20
821.00750900000003
 30
0.0
  0
VERTEX
  5
9CA
  8
0
 62
     3
 10
868.55772400000001
 20
823.00750899999991
 30
0.0
  0
VERTEX
  5
9CB
  8
0
 62
     3
 10
884.55772400000001
 20
823.00750899999991
 30
0.0
  0
VERTEX
  5
9CC
  8
0
 62
     3
 10
885.55772400000001
 20
825.00750900000014
 30
0.0
  0
VERTEX
  5
9CD
  8
0
 62
     3
 10
886.55772400000001
 20
821.00750900000003
 30
0.0
  0
VERTEX
  5
9CE
  8
0
 62
     3
 10
887.55772400000001
 20
823.00750899999991
 30
0.0
  0
VERTEX
  5
9CF
  8
0
 62
     3
 10
897.77120199999979
 20
823.00750899999991
 30
0.0
  0
SEQEND
  5
9D0
  8
0
 62
     3
  0
POLYLINE
  5
682
  8
0
 62
     3
 66
     1
 10
0.0
 20
0.0
 30
0.0
  0
VERTEX
  5
9D1
  8
0
 62
     3
 10
754.55772400000001
 20
658.18638799999997
 30
0.0
  0
VERTEX
  5
9D2
  8
0
 62
     3
 10
770.55772400000001
 20
658.18638799999997
 30
0.0
  0
VERTEX
  5
9D3
  8
0
 62
     3
 10
771.55772400000001
 20
660.18638799999985
 30
0.0
  0
VERTEX
  5
9D4
  8
0
 62
     3
 10
772.55772400000001
 20
656.18638799999985
 30
0.0
  0
VERTEX
  5
9D5
  8
0
 62
     3
 10
773.55772400000001
 20
658.18638799999997
 30
0.0
  0
VERTEX
  5
9D6
  8
0
 62
     3
 10
789.55772400000001
 20
658.18638799999997
 30
0.0
  0
VERTEX
  5
9D7
  8
0
 62
     3
 10
790.55772400000001
 20
660.18638799999985
 30
0.0
  0
VERTEX
  5
9D8
  8
0
 62
     3
 10
791.55772400000001
 20
656.18638799999985
 30
0.0
  0
VERTEX
  5
9D9
  8
0
 62
     3
 10
792.55772399999989
 20
658.18638799999997
 30
0.0
  0
VERTEX
  5
9DA
  8
0
 62
     3
 10
808.55772400000001
 20
658.18638799999997
 30
0.0
  0
VERTEX
  5
9DB
  8
0
 62
     3
 10
809.55772400000001
 20
660.18638799999985
 30
0.0
  0
VERTEX
  5
9DC
  8
0
 62
     3
 10
810.55772400000001
 20
656.18638799999985
 30
0.0
  0
VERTEX
  5
9DD
  8
0
 62
     3
 10
811.55772400000001
 20
658.18638799999997
 30
0.0
  0
VERTEX
  5
9DE
  8
0
 62
     3
 10
827.55772400000001
 20
658.18638799999997
 30
0.0
  0
VERTEX
  5
9DF
  8
0
 62
     3
 10
828.55772400000001
 20
660.18638799999985
 30
0.0
  0
VERTEX
  5
9E0
  8
0
 62
     3
 10
829.55772400000001
 20
656.18638799999985
 30
0.0
  0
VERTEX
  5
9E1
  8
0
 62
     3
 10
830.55772399999989
 20
658.18638799999997
 30
0.0
  0
VERTEX
  5
9E2
  8
0
 62
     3
 10
846.55772400000001
 20
658.18638799999997
 30
0.0
  0
VERTEX
  5
9E3
  8
0
 62
     3
 10
847.55772399999989
 20
660.18638799999985
 30
0.0
  0
VERTEX
  5
9E4
  8
0
 62
     3
 10
848.55772399999989
 20
656.18638799999985
 30
0.0
  0
VERTEX
  5
9E5
  8
0
 62
     3
 10
849.55772399999989
 20
658.18638799999997
 30
0.0
  0
VERTEX
  5
9E6
  8
0
 62
     3
 10
865.55772399999989
 20
658.18638799999997
 30
0.0
  0
VERTEX
  5
9E7
  8
0
 62
     3
 10
866.55772400000012
 20
660.18638799999985
 30
0.0
  0
VERTEX
  5
9E8
  8
0
 62
     3
 10
867.55772400000001
 20
656.18638799999985
 30
0.0
  0
VERTEX
  5
9E9
  8
0
 62
     3
 10
868.55772400000001
 20
658.18638799999997
 30
0.0
  0
VERTEX
  5
9EA
  8
0
 62
     3
 10
884.55772400000001
 20
658.18638799999997
 30
0.0
  0
VERTEX
  5
9EB
  8
0
 62
     3
 10
885.55772400000001
 20
660.18638799999985
 30
0.0
  0
VERTEX
  5
9EC
  8
0
 62
     3
 10
886.55772400000001
 20
656.18638799999985
 30
0.0
  0
VERTEX
  5
9ED
  8
0
 62
     3
 10
887.55772400000001
 20
658.18638799999997
 30
0.0
  0
VERTEX
  5
9EE
  8
0
 62
     3
 10
897.77120199999979
 20
658.18638799999997
 30
0.0
  0
SEQEND
  5
9EF
  8
0
 62
     3
  0
POLYLINE
  5
6A2
  8
0
 62
     3
 66
     1
 10
0.0
 20
0.0
 30
0.0
  0
VERTEX
  5
9F0
  8
0
 62
     3
 10
897.77120199999979
 20
823.00750899999991
 30
0.0
  0
VERTEX
  5
9F1
  8
0
 62
     3
 10
897.77120199999979
 20
807.00750899999991
 30
0.0
  0
VERTEX
  5
9F2
  8
0
 62
     3
 10
899.7712019999999
 20
806.00750899999991
 30
0.0
  0
VERTEX
  5
9F3
  8
0
 62
     3
 10
895.77120199999979
 20
805.00750899999991
 30
0.0
  0
VERTEX
  5
9F4
  8
0
 62
     3
 10
897.77120199999979
 20
804.00750900000003
 30
0.0
  0
VERTEX
  5
9F5
  8
0
 62
     3
 10
897.77120199999979
 20
788.00750900000003
 30
0.0
  0
VERTEX
  5
9F6
  8
0
 62
     3
 10
899.7712019999999
 20
787.00750900000003
 30
0.0
  0
VERTEX
  5
9F7
  8
0
 62
     3
 10
895.77120199999979
 20
786.00750900000003
 30
0.0
  0
VERTEX
  5
9F8
  8
0
 62
     3
 10
897.77120199999979
 20
785.00750900000003
 30
0.0
  0
VERTEX
  5
9F9
  8
0
 62
     3
 10
897.77120199999979
 20
769.00750900000003
 30
0.0
  0
VERTEX
  5
9FA
  8
0
 62
     3
 10
899.7712019999999
 20
768.00750900000003
 30
0.0
  0
VERTEX
  5
9FB
  8
0
 62
     3
 10
895.77120199999979
 20
767.00750900000003
 30
0.0
  0
VERTEX
  5
9FC
  8
0
 62
     3
 10
897.77120199999979
 20
766.00750900000003
 30
0.0
  0
VERTEX
  5
9FD
  8
0
 62
     3
 10
897.77120199999979
 20
750.00750900000003
 30
0.0
  0
VERTEX
  5
9FE
  8
0
 62
     3
 10
899.7712019999999
 20
749.00750900000003
 30
0.0
  0
VERTEX
  5
9FF
  8
0
 62
     3
 10
895.77120199999979
 20
748.00750900000003
 30
0.0
  0
VERTEX
  5
A00
  8
0
 62
     3
 10
897.77120199999979
 20
747.00750900000003
 30
0.0
  0
VERTEX
  5
A01
  8
0
 62
     3
 10
897.77120199999979
 20
731.00750900000003
 30
0.0
  0
VERTEX
  5
A02
  8
0
 62
     3
 10
899.7712019999999
 20
730.00750899999991
 30
0.0
  0
VERTEX
  5
A03
  8
0
 62
     3
 10
895.77120199999979
 20
729.00750900000003
 30
0.0
  0
VERTEX
  5
A04
  8
0
 62
     3
 10
897.77120199999979
 20
728.00750900000003
 30
0.0
  0
VERTEX
  5
A05
  8
0
 62
     3
 10
897.77120199999979
 20
712.00750900000003
 30
0.0
  0
VERTEX
  5
A06
  8
0
 62
     3
 10
899.7712019999999
 20
711.00750900000003
 30
0.0
  0
VERTEX
  5
A07
  8
0
 62
     3
 10
895.77120199999979
 20
710.00750900000003
 30
0.0
  0
VERTEX
  5
A08
  8
0
 62
     3
 10
897.77120199999979
 20
709.00750900000003
 30
0.0
  0
VERTEX
  5
A09
  8
0
 62
     3
 10
897.77120199999979
 20
693.00750900000003
 30
0.0
  0
VERTEX
  5
A0A
  8
0
 62
     3
 10
899.7712019999999
 20
692.00750900000003
 30
0.0
  0
VERTEX
  5
A0B
  8
0
 62
     3
 10
895.77120199999979
 20
691.00750900000003
 30
0.0
  0
VERTEX
  5
A0C
  8
0
 62
     3
 10
897.77120199999979
 20
690.00750900000003
 30
0.0
  0
VERTEX
  5
A0D
  8
0
 62
     3
 10
897.77120199999979
 20
674.00750900000003
 30
0.0
  0
VERTEX
  5
A0E
  8
0
 62
     3
 10
899.7712019999999
 20
673.00750900000003
 30
0.0
  0
VERTEX
  5
A0F
  8
0
 62
     3
 10
895.77120199999979
 20
672.00750900000003
 30
0.0
  0
VERTEX
  5
A10
  8
0
 62
     3
 10
897.77120199999979
 20
671.00750900000003
 30
0.0
  0
VERTEX
  5
A11
  8
0
 62
     3
 10
897.77120199999979
 20
658.18638799999997
 30
0.0
  0
SEQEND
  5
A12
  8
0
 62
     3
  0
POLYLINE
  5
6C6
  8
0
 62
     3
 66
     1
 10
0.0
 20
0.0
 30
0.0
  0
VERTEX
  5
A13
  8
0
 62
     3
 10
754.55772400000001
 20
823.00750899999991
 30
0.0
  0
VERTEX
  5
A14
  8
0
 62
     3
 10
754.55772400000001
 20
807.00750899999991
 30
0.0
  0
VERTEX
  5
A15
  8
0
 62
     3
 10
756.55772400000001
 20
806.00750899999991
 30
0.0
  0
VERTEX
  5
A16
  8
0
 62
     3
 10
752.55772400000001
 20
805.00750899999991
 30
0.0
  0
VERTEX
  5
A17
  8
0
 62
     3
 10
754.55772400000001
 20
804.00750900000003
 30
0.0
  0
VERTEX
  5
A18
  8
0
 62
     3
 10
754.55772400000001
 20
788.00750900000003
 30
0.0
  0
VERTEX
  5
A19
  8
0
 62
     3
 10
756.55772400000001
 20
787.00750900000003
 30
0.0
  0
VERTEX
  5
A1A
  8
0
 62
     3
 10
752.55772400000001
 20
786.00750900000003
 30
0.0
  0
VERTEX
  5
A1B
  8
0
 62
     3
 10
754.55772400000001
 20
785.00750900000003
 30
0.0
  0
VERTEX
  5
A1C
  8
0
 62
     3
 10
754.55772400000001
 20
769.00750900000003
 30
0.0
  0
VERTEX
  5
A1D
  8
0
 62
     3
 10
756.55772400000001
 20
768.00750900000003
 30
0.0
  0
VERTEX
  5
A1E
  8
0
 62
     3
 10
752.55772400000001
 20
767.00750900000003
 30
0.0
  0
VERTEX
  5
A1F
  8
0
 62
     3
 10
754.55772400000001
 20
766.00750900000003
 30
0.0
  0
VERTEX
  5
A20
  8
0
 62
     3
 10
754.55772400000001
 20
750.00750900000003
 30
0.0
  0
VERTEX
  5
A21
  8
0
 62
     3
 10
756.55772400000001
 20
749.00750900000003
 30
0.0
  0
VERTEX
  5
A22
  8
0
 62
     3
 10
752.55772400000001
 20
748.00750900000003
 30
0.0
  0
VERTEX
  5
A23
  8
0
 62
     3
 10
754.55772400000001
 20
747.00750900000003
 30
0.0
  0
VERTEX
  5
A24
  8
0
 62
     3
 10
754.55772400000001
 20
731.00750900000003
 30
0.0
  0
VERTEX
  5
A25
  8
0
 62
     3
 10
756.55772400000001
 20
730.00750899999991
 30
0.0
  0
VERTEX
  5
A26
  8
0
 62
     3
 10
752.55772400000001
 20
729.00750900000003
 30
0.0
  0
VERTEX
  5
A27
  8
0
 62
     3
 10
754.55772400000001
 20
728.00750900000003
 30
0.0
  0
VERTEX
  5
A28
  8
0
 62
     3
 10
754.55772400000001
 20
712.00750900000003
 30
0.0
  0
VERTEX
  5
A29
  8
0
 62
     3
 10
756.55772400000001
 20
711.00750900000003
 30
0.0
  0
VERTEX
  5
A2A
  8
0
 62
     3
 10
752.55772400000001
 20
710.00750900000003
 30
0.0
  0
VERTEX
  5
A2B
  8
0
 62
     3
 10
754.55772400000001
 20
709.00750900000003
 30
0.0
  0
VERTEX
  5
A2C
  8
0
 62
     3
 10
754.55772400000001
 20
693.00750900000003
 30
0.0
  0
VERTEX
  5
A2D
  8
0
 62
     3
 10
756.55772400000001
 20
692.00750900000003
 30
0.0
  0
VERTEX
  5
A2E
  8
0
 62
     3
 10
752.55772400000001
 20
691.00750900000003
 30
0.0
  0
VERTEX
  5
A2F
  8
0
 62
     3
 10
754.55772400000001
 20
690.00750900000003
 30
0.0
  0
VERTEX
  5
A30
  8
0
 62
     3
 10
754.55772400000001
 20
674.00750900000003
 30
0.0
  0
VERTEX
  5
A31
  8
0
 62
     3
 10
756.55772400000001
 20
673.00750900000003
 30
0.0
  0
VERTEX
  5
A32
  8
0
 62
     3
 10
752.55772400000001
 20
672.00750900000003
 30
0.0
  0
VERTEX
  5
A33
  8
0
 62
     3
 10
754.55772400000001
 20
671.00750900000003
 30
0.0
  0
VERTEX
  5
A34
  8
0
 62
     3
 10
754.55772400000001
 20
658.18638799999997
 30
0.0
  0
SEQEND
  5
A35
  8
0
 62
     3
  0
LINE
  5
6EA
  8
0
  6
DASHDOT
 62
     7
 10
866.41570999999999
 20
820.10830899999985
 30
0.0
 11
866.41570999999999
 21
807.10830899999996
 31
0.0
  0
LINE
  5
6EB
  8
0
  6
DASHDOT
 62
     7
 10
859.91570999999988
 20
813.60830899999985
 30
0.0
 11
872.91570999999999
 21
813.60830899999985
 31
0.0
  0
LINE
  5
6EC
  8
0
  6
DASHDOT
 62
     7
 10
786.41570999999988
 20
820.10830899999985
 30
0.0
 11
786.41570999999988
 21
807.10830899999996
 31
0.0
  0
LINE
  5
6ED
  8
0
  6
DASHDOT
 62
     7
 10
779.91570999999999
 20
813.60830899999985
 30
0.0
 11
792.91570999999999
 21
813.60830899999985
 31
0.0
  0
LINE
  5
6EE
  8
0
  6
DASHDOT
 62
     7
 10
786.41570999999988
 20
678.10830899999996
 30
0.0
 11
786.41570999999988
 21
665.10830899999996
 31
0.0
  0
LINE
  5
6EF
  8
0
  6
DASHDOT
 62
     7
 10
779.91570999999999
 20
671.60830899999985
 30
0.0
 11
792.91570999999999
 21
671.60830899999985
 31
0.0
  0
LINE
  5
6F0
  8
0
  6
DASHDOT
 62
     7
 10
866.41570999999999
 20
678.10830899999996
 30
0.0
 11
866.41570999999999
 21
665.10830899999996
 31
0.0
  0
LINE
  5
6F1
  8
0
  6
DASHDOT
 62
     7
 10
859.91570999999988
 20
671.60830899999985
 30
0.0
 11
872.91570999999999
 21
671.60830899999985
 31
0.0
  0
CIRCLE
  5
6F2
  8
0
 62
     7
 10
761.09025599999995
 20
817.72130799999991
 30
0.0
 40
0.25
  0
LINE
  5
6F3
  8
0
  6
DASHDOT
 62
     7
 10
743.31272100000001
 20
742.60830899999985
 30
0.0
 11
919.78121899999996
 21
742.60830899999985
 31
0.0
  0
LINE
  5
6F4
  8
0
 62
     7
 10
734.95623799999998
 20
798.60830899999996
 30
0.0
 11
732.87249799999995
 21
786.79062099999999
 31
0.0
  0
LINE
  5
6F5
  8
0
 62
     7
 10
734.95623799999998
 20
798.60830899999996
 30
0.0
 11
737.04010000000005
 21
786.79062099999999
 31
0.0
  0
LINE
  5
6F6
  8
0
 62
     7
 10
734.95623799999998
 20
686.60830899999996
 30
0.0
 11
737.04010000000005
 21
698.42599699999994
 31
0.0
  0
LINE
  5
6F7
  8
0
 62
     7
 10
734.95623799999998
 20
686.60830899999996
 30
0.0
 11
732.87249799999995
 21
698.42599699999994
 31
0.0
  0
LINE
  5
6F8
  8
0
 62
     7
 10
734.95623799999998
 20
798.60830899999996
 30
0.0
 11
734.95623799999998
 21
686.60830899999996
 31
0.0
  0
LINE
  5
6F9
  8
0
 62
     7
 10
726.95623799999987
 20
798.60830899999996
 30
0.0
 11
770.41570999999988
 21
798.60830899999996
 31
0.0
  0
LINE
  5
6FA
  8
0
 62
     7
 10
726.95623799999987
 20
686.60830899999996
 30
0.0
 11
770.41570999999988
 21
686.60830899999996
 31
0.0
  0
LINE
  5
6FB
  8
0
 62
     7
 10
703.72466999999995
 20
813.60830899999985
 30
0.0
 11
701.64093000000003
 21
801.79062099999987
 31
0.0
  0
LINE
  5
6FC
  8
0
 62
     7
 10
703.72466999999995
 20
813.60830899999985
 30
0.0
 11
705.80841099999998
 21
801.79062099999987
 31
0.0
  0
LINE
  5
6FD
  8
0
 62
     7
 10
703.72466999999995
 20
671.60830899999985
 30
0.0
 11
705.80841099999998
 21
683.42599699999994
 31
0.0
  0
LINE
  5
6FE
  8
0
 62
     7
 10
703.72466999999995
 20
671.60830899999985
 30
0.0
 11
701.64093000000003
 21
683.42599699999994
 31
0.0
  0
LINE
  5
6FF
  8
0
 62
     7
 10
703.72466999999995
 20
813.60830899999985
 30
0.0
 11
703.72466999999995
 21
671.60830899999985
 31
0.0
  0
LINE
  5
700
  8
0
 62
     7
 10
695.72466999999995
 20
813.60830899999985
 30
0.0
 11
779.91570999999999
 21
813.60830899999985
 31
0.0
  0
LINE
  5
701
  8
0
 62
     7
 10
695.72466999999995
 20
671.60830899999985
 30
0.0
 11
779.91570999999999
 21
671.60830899999985
 31
0.0
  0
LINE
  5
702
  8
0
 62
     7
 10
786.41570999999988
 20
847.87152300000002
 30
0.0
 11
798.23345900000004
 21
845.78775199999995
 31
0.0
  0
LINE
  5
703
  8
0
 62
     7
 10
786.41570999999988
 20
847.87152300000002
 30
0.0
 11
798.23345900000004
 21
849.95529399999987
 31
0.0
  0
LINE
  5
704
  8
0
 62
     7
 10
866.41570999999999
 20
847.87152300000002
 30
0.0
 11
854.59796099999994
 21
849.95529399999987
 31
0.0
  0
LINE
  5
705
  8
0
 62
     7
 10
866.41570999999999
 20
847.87152300000002
 30
0.0
 11
854.59796099999994
 21
845.78772200000003
 31
0.0
  0
LINE
  5
706
  8
0
 62
     7
 10
786.41570999999988
 20
847.87152300000002
 30
0.0
 11
866.41570999999999
 21
847.87152300000002
 31
0.0
  0
LINE
  5
707
  8
0
 62
     7
 10
786.41570999999988
 20
855.87152300000002
 30
0.0
 11
786.41570999999988
 21
820.10830899999985
 31
0.0
  0
LINE
  5
708
  8
0
 62
     7
 10
866.41570999999999
 20
855.87152300000002
 30
0.0
 11
866.41570999999999
 21
820.10830899999985
 31
0.0
  0
LINE
  5
709
  8
0
 62
     7
 10
770.41570999999988
 20
874.5041829999999
 30
0.0
 11
782.23345900000004
 21
872.42041199999994
 31
0.0
  0
LINE
  5
70A
  8
0
 62
     7
 10
770.41570999999988
 20
874.5041829999999
 30
0.0
 11
782.23345900000004
 21
876.58798400000001
 31
0.0
  0
LINE
  5
70B
  8
0
 62
     7
 10
882.41570999999999
 20
874.5041829999999
 30
0.0
 11
870.59796099999994
 21
876.58798400000001
 31
0.0
  0
LINE
  5
70C
  8
0
 62
     7
 10
882.41570999999999
 20
874.5041829999999
 30
0.0
 11
870.59796099999994
 21
872.42041199999994
 31
0.0
  0
LINE
  5
70D
  8
0
 62
     7
 10
770.41570999999988
 20
874.5041829999999
 30
0.0
 11
882.41570999999999
 21
874.50421299999994
 31
0.0
  0
LINE
  5
70E
  8
0
 62
     7
 10
770.41570999999988
 20
882.5041829999999
 30
0.0
 11
770.41570999999988
 21
798.60830899999996
 31
0.0
  0
LINE
  5
70F
  8
0
 62
     7
 10
882.41570999999999
 20
882.5041829999999
 30
0.0
 11
882.41570999999999
 21
798.60830899999996
 31
0.0
  0
LINE
  5
710
  8
0
 62
     7
 10
783.62823500000002
 20
669.49177699999996
 30
0.0
 11
772.95599400000003
 21
664.00493099999994
 31
0.0
  0
LINE
  5
711
  8
0
 62
     7
 10
783.62823500000002
 20
669.49177699999996
 30
0.0
 11
775.47625700000003
 21
660.68574699999999
 31
0.0
  0
LINE
  5
712
  8
0
 62
     7
 10
789.20318600000007
 20
673.72484000000009
 30
0.0
 11
799.87542699999995
 21
679.21168699999998
 31
0.0
  0
LINE
  5
713
  8
0
 62
     7
 10
789.20318600000007
 20
673.72484000000009
 30
0.0
 11
797.35516399999995
 21
682.5308859999999
 31
0.0
  0
LINE
  5
714
  8
0
 62
     7
 10
789.20318600000007
 20
673.72484000000009
 30
0.0
 11
715.37420699999996
 21
617.66734499999995
 31
0.0
  0
INSERT
  5
880
  8
0
  2
BLOCK0
 10
-201.14810199999999
 20
345.08750199999997
 30
0.0
 50
180.0
  0
INSERT
  5
881
  8
0
  2
BLOCK1
 10
-201.14810199999999
 20
345.08750199999997
 30
0.0
 50
180.0
  0
INSERT
  5
882
  8
0
  2
BLOCK2
 10
-201.14810199999999
 20
345.08750199999997
 30
0.0
 50
180.0
  0
INSERT
  5
883
  8
0
  2
BLOCK3
 10
-201.14810199999999
 20
345.08750199999997
 30
0.0
 50
180.0
  0
INSERT
  5
884
  8
0
  2
BLOCK4
 10
-201.14810199999999
 20
345.08750199999997
 30
0.0
 50
180.0
  0
INSERT
  5
885
  8
0
  2
BLOCK5
 10
-201.14810199999999
 20
345.08750199999997
 30
0.0
 50
180.0
  0
INSERT
  5
886
  8
0
  2
BLOCK6
 10
-201.14810199999999
 20
345.08750199999997
 30
0.0
 50
180.0
  0
INSERT
  5
887
  8
0
  2
BLOCK7
 10
448.96386699999988
 20
744.85830899999985
 30
0.0
 50
180.0
  0
INSERT
  5
888
  8
0
  2
BLOCK8
 10
448.96386699999988
 20
744.85830899999985
 30
0.0
 50
180.0
  0
INSERT
  5
889
  8
0
  2
BLOCK9
 10
448.96386699999988
 20
744.85830899999985
 30
0.0
 50
180.0
  0
INSERT
  5
88A
  8
0
  2
BLOCK10
 10
448.96386699999988
 20
744.85830899999985
 30
0.0
 50
180.0
  0
INSERT
  5
88B
  8
0
  2
BLOCK11
 10
448.96386699999988
 20
744.85830899999985
 30
0.0
 50
180.0
  0
INSERT
  5
88C
  8
0
  2
BLOCK12
 10
448.96386699999988
 20
744.85830899999985
 30
0.0
 50
180.0
  0
INSERT
  5
88D
  8
0
  2
BLOCK13
 10
448.96386699999988
 20
744.85830899999985
 30
0.0
 50
180.0
  0
INSERT
  5
88E
  8
0
  2
BLOCK14
 10
448.96386699999988
 20
744.85830899999985
 30
0.0
 50
180.0
  0
INSERT
  5
88F
  8
0
  2
BLOCK15
 10
448.96386699999988
 20
744.85830899999985
 30
0.0
 50
180.0
  0
INSERT
  5
890
  8
0
  2
BLOCK16
 10
448.96386699999988
 20
744.85830899999985
 30
0.0
 50
180.0
  0
INSERT
  5
891
  8
0
  2
BLOCK17
 10
448.96386699999988
 20
744.85830899999985
 30
0.0
 50
180.0
  0
INSERT
  5
892
  8
0
  2
BLOCK18
 10
448.96386699999988
 20
744.85830899999985
 30
0.0
 50
180.0
  0
INSERT
  5
893
  8
0
  2
BLOCK19
 10
448.96386699999988
 20
744.85830899999985
 30
0.0
 50
180.0
  0
INSERT
  5
894
  8
0
  2
BLOCK20
 10
448.96386699999988
 20
744.85830899999985
 30
0.0
 50
180.0
  0
INSERT
  5
895
  8
0
  2
BLOCK21
 10
448.96386699999988
 20
744.85830899999985
 30
0.0
 50
180.0
  0
INSERT
  5
896
  8
0
  2
BLOCK22
 10
448.96386699999988
 20
744.85830899999985
 30
0.0
 50
180.0
  0
INSERT
  5
897
  8
0
  2
BLOCK23
 10
448.96386699999988
 20
744.85830899999985
 30
0.0
 50
180.0
  0
INSERT
  5
898
  8
0
  2
BLOCK24
 10
165.4465679999999
 20
632.62124800000004
 30
0.0
 50
90.0
  0
INSERT
  5
899
  8
0
  2
BLOCK25
 10
165.4465679999999
 20
632.62124800000004
 30
0.0
 50
90.0
  0
INSERT
  5
89A
  8
0
  2
BLOCK26
 10
165.4465679999999
 20
632.62124800000004
 30
0.0
 50
90.0
  0
INSERT
  5
89B
  8
0
  2
BLOCK27
 10
165.4465679999999
 20
632.62124800000004
 30
0.0
 50
90.0
  0
INSERT
  5
89C
  8
0
  2
BLOCK28
 10
165.4465679999999
 20
632.62124800000004
 30
0.0
 50
90.0
  0
INSERT
  5
89D
  8
0
  2
BLOCK29
 10
165.4465679999999
 20
632.62124800000004
 30
0.0
 50
90.0
  0
INSERT
  5
89E
  8
0
  2
BLOCK30
 10
165.4465679999999
 20
632.62124800000004
 30
0.0
 50
90.0
  0
INSERT
  5
89F
  8
0
  2
BLOCK31
 10
165.4465679999999
 20
632.62124800000004
 30
0.0
 50
90.0
  0
INSERT
  5
8A0
  8
0
  2
BLOCK32
 10
165.4465679999999
 20
632.62124800000004
 30
0.0
 50
90.0
  0
INSERT
  5
8A1
  8
0
  2
BLOCK33
 10
165.4465679999999
 20
632.62124800000004
 30
0.0
 50
90.0
  0
INSERT
  5
8A2
  8
0
  2
BLOCK34
 10
165.4465679999999
 20
632.62124800000004
 30
0.0
 50
90.0
  0
INSERT
  5
8A3
  8
0
  2
BLOCK35
 10
165.4465679999999
 20
632.62124800000004
 30
0.0
 50
90.0
  0
INSERT
  5
8A4
  8
0
  2
BLOCK36
 10
165.4465679999999
 20
632.62124800000004
 30
0.0
 50
90.0
  0
INSERT
  5
8A5
  8
0
  2
BLOCK37
 10
165.4465679999999
 20
632.62124800000004
 30
0.0
 50
90.0
  0
INSERT
  5
8A6
  8
0
  2
BLOCK38
 10
165.4465679999999
 20
632.62124800000004
 30
0.0
 50
90.0
  0
INSERT
  5
8A7
  8
0
  2
BLOCK39
 10
-353.88098500000001
 20
632.6212559999999
 30
0.0
 50
90.0
  0
INSERT
  5
8A8
  8
0
  2
BLOCK40
 10
-353.88098500000001
 20
632.6212559999999
 30
0.0
 50
90.0
  0
INSERT
  5
8A9
  8
0
  2
BLOCK41
 10
-353.88098500000001
 20
632.6212559999999
 30
0.0
 50
90.0
  0
INSERT
  5
8AA
  8
0
  2
BLOCK42
 10
-353.88098500000001
 20
632.6212559999999
 30
0.0
 50
90.0
  0
INSERT
  5
8AB
  8
0
  2
BLOCK43
 10
-353.88098500000001
 20
632.6212559999999
 30
0.0
 50
90.0
  0
INSERT
  5
8AC
  8
0
  2
BLOCK44
 10
-353.88098500000001
 20
632.6212559999999
 30
0.0
 50
90.0
  0
INSERT
  5
8AD
  8
0
  2
BLOCK45
 10
-353.88098500000001
 20
632.6212559999999
 30
0.0
 50
90.0
  0
INSERT
  5
8AE
  8
0
  2
BLOCK46
 10
-353.88098500000001
 20
632.6212559999999
 30
0.0
 50
90.0
  0
INSERT
  5
8AF
  8
0
  2
BLOCK47
 10
-353.88098500000001
 20
632.6212559999999
 30
0.0
 50
90.0
  0
INSERT
  5
8B0
  8
0
  2
BLOCK48
 10
-353.88098500000001
 20
632.6212559999999
 30
0.0
 50
90.0
  0
INSERT
  5
8B1
  8
0
  2
BLOCK49
 10
165.4465679999999
 20
352.81973299999993
 30
0.0
 50
180.0
  0
INSERT
  5
8B2
  8
0
  2
BLOCK50
 10
165.4465679999999
 20
352.81973299999993
 30
0.0
 50
180.0
  0
INSERT
  5
8B3
  8
0
  2
BLOCK51
 10
165.4465679999999
 20
352.81973299999993
 30
0.0
 50
180.0
  0
INSERT
  5
8B4
  8
0
  2
BLOCK52
 10
165.4465679999999
 20
352.81973299999993
 30
0.0
 50
180.0
  0
INSERT
  5
8B5
  8
0
  2
BLOCK53
 10
165.4465679999999
 20
352.81973299999993
 30
0.0
 50
180.0
  0
INSERT
  5
8B6
  8
0
  2
BLOCK54
 10
165.4465679999999
 20
352.81973299999993
 30
0.0
 50
180.0
  0
INSERT
  5
8B7
  8
0
  2
BLOCK55
 10
165.4465679999999
 20
352.81973299999993
 30
0.0
 50
180.0
  0
INSERT
  5
8B8
  8
0
  2
BLOCK56
 10
165.4465679999999
 20
352.81973299999993
 30
0.0
 50
180.0
  0
INSERT
  5
8B9
  8
0
  2
BLOCK57
 10
165.4465679999999
 20
352.81973299999993
 30
0.0
 50
180.0
  0
INSERT
  5
8BA
  8
0
  2
BLOCK58
 10
826.41570999999999
 20
744.85830899999985
 30
0.0
 50
270.0
  0
INSERT
  5
8BB
  8
0
  2
BLOCK59
 10
826.41570999999999
 20
744.85830899999985
 30
0.0
 50
270.0
  0
INSERT
  5
8BC
  8
0
  2
BLOCK60
 10
826.41570999999999
 20
744.85830899999985
 30
0.0
 50
270.0
  0
INSERT
  5
8BD
  8
0
  2
BLOCK61
 10
826.41570999999999
 20
744.85830899999985
 30
0.0
 50
270.0
  0
INSERT
  5
8BE
  8
0
  2
BLOCK62
 10
826.41570999999999
 20
744.85830899999985
 30
0.0
 50
270.0
  0
INSERT
  5
8BF
  8
0
  2
BLOCK63
 10
826.41570999999999
 20
744.85830899999985
 30
0.0
 50
270.0
  0
INSERT
  5
8C0
  8
0
  2
BLOCK64
 10
826.41570999999999
 20
744.85830899999985
 30
0.0
 50
270.0
  0
INSERT
  5
8C1
  8
0
  2
BLOCK65
 10
826.41570999999999
 20
744.85830899999985
 30
0.0
 50
270.0
  0
INSERT
  5
8C2
  8
0
  2
BLOCK66
 10
826.41570999999999
 20
744.85830899999985
 30
0.0
 50
270.0
  0
INSERT
  5
8C3
  8
0
  2
BLOCK67
 10
826.41570999999999
 20
744.85830899999985
 30
0.0
 50
270.0
  0
VIEWPORT
  5
715
 67
     1
  8
0
 62
     0
 10
0.0
 20
0.0
 30
0.0
 40
1000.0
 41
1000.0
 68
     1
 69
     1
1001
ACAD
1000
MVIEW
1002
{
1070
    16
1010
0.0
1020
0.0
1030
0.0
1010
0.0
1020
0.0
1030
1.0
1040
0.0
1040
1000.0
1040
0.0
1040
0.0
1040
50.0
1040
0.0
1040
0.0
1070
     0
1070
   100
1070
     1
1070
     1
1070
     0
1070
     0
1070
     0
1070
     0
1040
0.0
1040
0.0
1040
0.0
1040
1.0
1040
1.0
1040
1.0
1040
1.0
1070
     0
1002
{
1002
}
1002
}
  0
ENDSEC
  0
EOF
