  0
SECTION
  2
HEADER
  9
$ACADVER
  1
AC1009
  9
$INSBASE
 10
0.0
 20
0.0
 30
0.0
  9
$EXTMIN
 10
-336.24481142527043
 20
321.50376998668509
 30
-0.0000610304997082
  9
$EXTMAX
 10
643.00323610077999
 20
727.94366574397282
 30
0.000091555062788
  9
$LIMMIN
 10
0.0
 20
0.0
  9
$LIMMAX
 10
420.0
 20
297.0
  9
$ORTHOMODE
 70
     0
  9
$REGENMODE
 70
     1
  9
$FILLMODE
 70
     1
  9
$QTEXTMODE
 70
     0
  9
$MIRRTEXT
 70
     1
  9
$DRAGMODE
 70
     2
  9
$LTSCALE
 40
1.0
  9
$OSMODE
 70
    47
  9
$ATTMODE
 70
     1
  9
$TEXTSIZE
 40
0.0
  9
$TRACEWID
 40
1.0
  9
$TEXTSTYLE
  7
STANDARD
  9
$CLAYER
  8
0
  9
$CELTYPE
  6
BYLAYER
  9
$CECOLOR
 62
   256
  9
$DIMSCALE
 40
1.0
  9
$DIMASZ
 40
2.5
  9
$DIMEXO
 40
0.625
  9
$DIMDLI
 40
3.75
  9
$DIMRND
 40
0.0
  9
$DIMDLE
 40
0.0
  9
$DIMEXE
 40
1.25
  9
$DIMTP
 40
0.0
  9
$DIMTM
 40
0.0
  9
$DIMTXT
 40
2.5
  9
$DIMCEN
 40
2.5
  9
$DIMTSZ
 40
0.0
  9
$DIMTOL
 70
     0
  9
$DIMLIM
 70
     0
  9
$DIMTIH
 70
     0
  9
$DIMTOH
 70
     0
  9
$DIMSE1
 70
     0
  9
$DIMSE2
 70
     0
  9
$DIMTAD
 70
     1
  9
$DIMZIN
 70
     8
  9
$DIMBLK
  1

  9
$DIMASO
 70
     1
  9
$DIMSHO
 70
     1
  9
$DIMPOST
  1

  9
$DIMAPOST
  1

  9
$DIMALT
 70
     0
  9
$DIMALTD
 70
     3
  9
$DIMALTF
 40
0.03937
  9
$DIMLFAC
 40
1.0
  9
$DIMTOFL
 70
     1
  9
$DIMTVP
 40
0.0
  9
$DIMTIX
 70
     0
  9
$DIMSOXD
 70
     0
  9
$DIMSAH
 70
     0
  9
$DIMBLK1
  1

  9
$DIMBLK2
  1

  9
$DIMSTYLE
  2
STANDARD
  9
$DIMCLRD
 70
     0
  9
$DIMCLRE
 70
     0
  9
$DIMCLRT
 70
     0
  9
$DIMTFAC
 40
1.0
  9
$DIMGAP
 40
0.625
  9
$LUNITS
 70
     2
  9
$LUPREC
 70
     4
  9
$SKETCHINC
 40
1.0
  9
$FILLETRAD
 40
2.5
  9
$AUNITS
 70
     0
  9
$AUPREC
 70
     0
  9
$MENU
  1
.
  9
$ELEVATION
 40
0.0
  9
$PELEVATION
 40
0.0
  9
$THICKNESS
 40
0.0
  9
$LIMCHECK
 70
     0
  9
$BLIPMODE
 70
     0
  9
$CHAMFERA
 40
2.5
  9
$CHAMFERB
 40
2.5
  9
$SKPOLY
 70
     0
  9
$TDCREATE
 40
2311947.2531350688
  9
$TDUPDATE
 40
2454455.3991169902
  9
$TDINDWG
 40
0.000643206
  9
$TDUSRTIMER
 40
0.0006430208
  9
$USRTIMER
 70
     1
  9
$ANGBASE
 50
0.0
  9
$ANGDIR
 70
     0
  9
$PDMODE
 70
     0
  9
$PDSIZE
 40
0.0
  9
$PLINEWID
 40
0.0
  9
$COORDS
 70
     1
  9
$SPLFRAME
 70
     0
  9
$SPLINETYPE
 70
     6
  9
$SPLINESEGS
 70
     8
  9
$ATTDIA
 70
     0
  9
$ATTREQ
 70
     1
  9
$HANDLING
 70
 22529
  9
$HANDSEED
  5
68E
  9
$SURFTAB1
 70
     6
  9
$SURFTAB2
 70
     6
  9
$SURFTYPE
 70
     6
  9
$SURFU
 70
     6
  9
$SURFV
 70
     6
  9
$UCSNAME
  2

  9
$UCSORG
 10
0.0
 20
0.0
 30
0.0
  9
$UCSXDIR
 10
1.0
 20
0.0
 30
0.0
  9
$UCSYDIR
 10
0.0
 20
1.0
 30
0.0
  9
$PUCSNAME
  2

  9
$PUCSORG
 10
0.0
 20
0.0
 30
0.0
  9
$PUCSXDIR
 10
1.0
 20
0.0
 30
0.0
  9
$PUCSYDIR
 10
0.0
 20
1.0
 30
0.0
  9
$USERI1
 70
     0
  9
$USERI2
 70
     0
  9
$USERI3
 70
     0
  9
$USERI4
 70
     0
  9
$USERI5
 70
     0
  9
$USERR1
 40
0.0
  9
$USERR2
 40
0.0
  9
$USERR3
 40
0.0
  9
$USERR4
 40
0.0
  9
$USERR5
 40
0.0
  9
$WORLDVIEW
 70
     1
  9
$SHADEDGE
 70
     3
  9
$SHADEDIF
 70
    70
  9
$TILEMODE
 70
     1
  9
$MAXACTVP
 70
    48
  9
$PLIMCHECK
 70
     0
  9
$PEXTMIN
 10
0.0
 20
0.0
 30
0.0
  9
$PEXTMAX
 10
312.08337399999999
 20
296.358002
 30
2.0
  9
$PLIMMIN
 10
0.0
 20
0.0
  9
$PLIMMAX
 10
420.0
 20
297.0
  9
$UNITMODE
 70
     0
  9
$VISRETAIN
 70
     0
  9
$PLINEGEN
 70
     0
  9
$PSLTSCALE
 70
     1
  0
ENDSEC
  0
SECTION
  2
TABLES
  0
TABLE
  2
VPORT
 70
     3
  0
VPORT
  2
*ACTIVE
 70
     0
 10
0.0
 20
0.0
 11
1.0
 21
1.0
 12
153.37921233775469
 22
524.72371786532904
 13
0.0
 23
0.0
 14
1.0
 24
1.0
 15
0.0
 25
0.0
 16
0.0
 26
0.0
 36
1.0
 17
0.0
 27
0.0
 37
0.0
 40
634.69256499511562
 41
1.550724637681159
 42
50.0
 43
0.0
 44
0.0
 50
0.0
 51
0.0
 71
     0
 72
   100
 73
     1
 74
     1
 75
     0
 76
     0
 77
     0
 78
     0
  0
ENDTAB
  0
TABLE
  2
LTYPE
 70
     8
  0
LTYPE
  2
CONTINUOUS
 70
     0
  3
Solid line
 72
    65
 73
     0
 40
0.0
  0
LTYPE
  2
DASHED
 70
     0
  3
__ __ __ __ __ __ __ __ __ __ __ __ __ __ __ __
 72
    65
 73
     2
 40
15.0
 49
12.0
 49
-3.0
  0
LTYPE
  2
DASHDOT
 70
     0
  3
 __ . __ . __ . __ . __ . __ . __ . 
 72
    65
 73
     4
 40
18.5
 49
12.0
 49
-3.0
 49
0.5
 49
-3.0
  0
LTYPE
  2
DOT
 70
     0
  3
 . . . . . . . . . . . . . . . .
 72
    65
 73
     2
 40
3.5
 49
0.5
 49
-3.0
  0
LTYPE
  2
DASHSPACE
 70
     0
  3
__    __    __    __    __   
 72
    65
 73
     2
 40
30.0
 49
12.0
 49
-18.0
  0
LTYPE
  2
DASHDOT2
 70
     0
  3
__ . . __ . . __ . . __ 
 72
    65
 73
     6
 40
22.0
 49
12.0
 49
-3.0
 49
0.5
 49
-3.0
 49
0.5
 49
-3.0
  0
LTYPE
  2
PHANTOM
 70
     0
  3
____________    ____    ____   _
 72
    65
 73
     6
 40
20.0
 49
10.0
 49
-2.0
 49
2.0
 49
-2.0
 49
2.0
 49
-2.0
  0
LTYPE
  2
AXES
 70
     0
  3
________  __  ________  __  _____
 72
    65
 73
     4
 40
24.0
 49
15.0
 49
-3.0
 49
3.0
 49
-3.0
  0
ENDTAB
  0
TABLE
  2
LAYER
 70
     1
  0
LAYER
  2
0
 70
     0
 62
     7
  6
CONTINUOUS
  0
ENDTAB
  0
TABLE
  2
STYLE
 70
     2
  0
STYLE
  2
STANDARD
 70
     0
 40
0.0
 41
1.0
 50
0.0
 71
     0
 42
0.0
  3
isocp.shx
  4

  0
STYLE
  2
GDT
 70
     0
 40
0.0
 41
1.0
 50
0.0
 71
     0
 42
0.0
  3
amgdt.shx
  4

  0
ENDTAB
  0
TABLE
  2
VIEW
 70
     0
  0
ENDTAB
  0
TABLE
  2
UCS
 70
     0
  0
ENDTAB
  0
TABLE
  2
APPID
 70
     1
  0
APPID
  2
ACAD
 70
     0
  0
ENDTAB
  0
TABLE
  2
DIMSTYLE
 70
     1
  0
DIMSTYLE
  2
STANDARD
 70
     0
  3

  4

  5

  6

  7

 40
1.0
 41
2.5
 42
0.625
 43
3.75
 44
1.25
 45
0.0
 46
0.0
 47
0.0
 48
0.0
140
2.5
141
2.5
142
0.0
143
0.03937
144
1.0
145
0.0
146
1.0
147
0.625
 71
     0
 72
     0
 73
     0
 74
     0
 75
     0
 76
     0
 77
     1
 78
     8
170
     0
171
     3
172
     1
173
     0
174
     0
175
     0
176
     0
177
     0
178
     0
  0
ENDTAB
  0
ENDSEC
  0
SECTION
  2
BLOCKS
  0
BLOCK
  8
0
  2
$MODEL_SPACE
 70
     0
 10
0.0
 20
0.0
 30
0.0
  3
$MODEL_SPACE
  1

  0
ENDBLK
  5
E
  8
0
  0
BLOCK
 67
     1
  8
0
  2
$PAPER_SPACE
 70
     0
 10
0.0
 20
0.0
 30
0.0
  3
$PAPER_SPACE
  1

  0
ENDBLK
  5
10
 67
     1
  8
0
  0
BLOCK
  8
0
  2
BLOCK0
 70
     0
 10
0.0
 20
0.0
 30
0.0
  3
BLOCK0
  1

  0
LINE
  5
340
  8
0
  6
DASHDOT
 62
     7
 10
-57.63345300000001
 20
139.9167479999999
 30
0.0
 11
-57.63345300000001
 21
215.68319700000001
 31
0.0
  0
LINE
  5
341
  8
0
 62
     3
 10
-108.8834379999999
 20
199.737076
 30
0.0
 11
-6.3834530000000003
 21
199.737076
 31
0.0
  0
LINE
  5
342
  8
0
  6
DASHSPACE
 62
     4
 10
-5.1334530000000003
 20
162.7962489999999
 30
0.0
 11
-5.1334530000000003
 21
198.48706100000001
 31
0.0
  0
LINE
  5
343
  8
0
 62
     3
 10
-110.1334379999999
 20
190.480774
 30
0.0
 11
-110.1334379999999
 21
198.48709099999991
 31
0.0
  0
LINE
  5
344
  8
0
 62
     3
 10
-106.483437
 20
190.480774
 30
0.0
 11
-106.483437
 21
199.737076
 31
0.0
  0
LINE
  5
345
  8
0
 62
     3
 10
-102.8834379999999
 20
190.480774
 30
0.0
 11
-102.8834379999999
 21
199.737076
 31
0.0
  0
LINE
  5
346
  8
0
 62
     3
 10
-99.283439999999999
 20
190.480774
 30
0.0
 11
-99.283439999999999
 21
199.737076
 31
0.0
  0
LINE
  5
347
  8
0
 62
     3
 10
-95.683441000000002
 20
190.480774
 30
0.0
 11
-95.683441000000002
 21
199.737076
 31
0.0
  0
LINE
  5
348
  8
0
 62
     3
 10
-92.083449999999985
 20
190.480774
 30
0.0
 11
-92.083449999999985
 21
199.737076
 31
0.0
  0
LINE
  5
349
  8
0
 62
     3
 10
-88.483444000000006
 20
190.480774
 30
0.0
 11
-88.483444000000006
 21
199.737076
 31
0.0
  0
LINE
  5
34A
  8
0
 62
     3
 10
-84.883453000000003
 20
190.480774
 30
0.0
 11
-84.883453000000003
 21
199.737076
 31
0.0
  0
LINE
  5
34B
  8
0
 62
     3
 10
-77.683456000000007
 20
190.480774
 30
0.0
 11
-77.683456000000007
 21
199.737076
 31
0.0
  0
LINE
  5
34C
  8
0
 62
     3
 10
-74.083449999999999
 20
190.480774
 30
0.0
 11
-74.083449999999999
 21
199.737076
 31
0.0
  0
LINE
  5
34D
  8
0
 62
     3
 10
-70.483443999999992
 20
190.480774
 30
0.0
 11
-70.483443999999992
 21
199.737076
 31
0.0
  0
LINE
  5
34E
  8
0
 62
     3
 10
-66.883453000000003
 20
190.480774
 30
0.0
 11
-66.883453000000003
 21
199.737076
 31
0.0
  0
LINE
  5
34F
  8
0
 62
     3
 10
-63.283446999999988
 20
190.480774
 30
0.0
 11
-63.283446999999988
 21
199.737076
 31
0.0
  0
LINE
  5
350
  8
0
 62
     3
 10
-59.683456000000007
 20
190.480774
 30
0.0
 11
-59.683456000000007
 21
199.737076
 31
0.0
  0
LINE
  5
351
  8
0
 62
     3
 10
-56.083449999999992
 20
190.480774
 30
0.0
 11
-56.083449999999992
 21
199.737076
 31
0.0
  0
LINE
  5
352
  8
0
 62
     3
 10
-52.483443999999992
 20
190.480774
 30
0.0
 11
-52.483443999999992
 21
199.737076
 31
0.0
  0
LINE
  5
353
  8
0
 62
     3
 10
-48.88345300000001
 20
190.480774
 30
0.0
 11
-48.88345300000001
 21
199.737076
 31
0.0
  0
LINE
  5
354
  8
0
 62
     3
 10
-45.283446999999988
 20
190.480774
 30
0.0
 11
-45.283446999999988
 21
199.737076
 31
0.0
  0
LINE
  5
355
  8
0
 62
     3
 10
-41.683456
 20
190.480774
 30
0.0
 11
-41.683456
 21
199.737076
 31
0.0
  0
LINE
  5
356
  8
0
 62
     3
 10
-38.083449999999999
 20
190.480774
 30
0.0
 11
-38.083449999999999
 21
199.737076
 31
0.0
  0
LINE
  5
357
  8
0
 62
     3
 10
-34.483443999999992
 20
190.480774
 30
0.0
 11
-34.483443999999992
 21
199.737076
 31
0.0
  0
LINE
  5
358
  8
0
 62
     3
 10
-30.883452999999999
 20
190.480774
 30
0.0
 11
-30.883452999999999
 21
199.737076
 31
0.0
  0
LINE
  5
359
  8
0
 62
     3
 10
-27.283446999999999
 20
190.480774
 30
0.0
 11
-27.283446999999999
 21
199.737076
 31
0.0
  0
LINE
  5
35A
  8
0
 62
     3
 10
-23.683456
 20
190.480774
 30
0.0
 11
-23.683456
 21
199.737076
 31
0.0
  0
LINE
  5
35B
  8
0
 62
     3
 10
-20.083449999999988
 20
190.480774
 30
0.0
 11
-20.083449999999988
 21
199.737076
 31
0.0
  0
LINE
  5
35C
  8
0
 62
     3
 10
-16.483443999999999
 20
190.480774
 30
0.0
 11
-16.483443999999999
 21
199.737076
 31
0.0
  0
LINE
  5
35D
  8
0
 62
     3
 10
-12.883452999999999
 20
190.480774
 30
0.0
 11
-12.883452999999999
 21
199.737076
 31
0.0
  0
LINE
  5
35E
  8
0
 62
     3
 10
-9.2834470000000007
 20
190.480774
 30
0.0
 11
-9.2834470000000007
 21
199.737076
 31
0.0
  0
ARC
  5
35F
  8
0
 62
     3
 10
-6.3834689999999989
 20
198.48706100000001
 30
0.0
 40
1.2499990000000001
 50
0.000027
 51
90.000460000000004
  0
ARC
  5
360
  8
0
 62
     3
 10
-108.88346899999991
 20
198.48709099999991
 30
0.0
 40
1.2499670000000001
 50
89.998227000000014
 51
180.001193
  0
LINE
  5
361
  8
0
 62
     3
 10
-81.283455000000004
 20
190.480774
 30
0.0
 11
-81.283455000000004
 21
199.737076
 31
0.0
  0
LINE
  5
362
  8
0
  6
DASHDOT
 62
     7
 10
-92.633469000000005
 20
24.737068000000001
 30
0.0
 11
-92.633469000000005
 21
48.237068000000001
 31
0.0
  0
LINE
  5
363
  8
0
  6
DASHDOT
 62
     7
 10
-22.633407999999989
 20
24.737068000000001
 30
0.0
 11
-22.633407999999989
 21
48.237079999999992
 31
0.0
  0
LINE
  5
364
  8
0
  6
DASHDOT
 62
     7
 10
-22.633469000000002
 20
24.737068000000001
 30
0.0
 11
-22.633469000000002
 21
35.637062
 31
0.0
  0
LINE
  5
365
  8
0
  6
DASHDOT
 62
     7
 10
-92.633469000000005
 20
24.737068000000001
 30
0.0
 11
-92.633469000000005
 21
35.63706599999999
 31
0.0
  0
LINE
  5
366
  8
0
  6
DASHDOT
 62
     7
 10
-57.63345300000001
 20
17.316441999999999
 30
0.0
 11
-57.63345300000001
 21
140.68948399999999
 31
0.0
  0
LINE
  5
367
  8
0
 62
     3
 10
-108.8834379999999
 20
24.737068000000001
 30
0.0
 11
-6.3834530000000003
 21
24.737068000000001
 31
0.0
  0
LINE
  5
368
  8
0
  6
DASHSPACE
 62
     4
 10
-5.1334530000000003
 20
25.987079999999999
 30
0.0
 11
-5.1334530000000003
 21
57.147883999999991
 31
0.0
  0
LINE
  5
369
  8
0
 62
     3
 10
-110.1334379999999
 20
25.987047
 30
0.0
 11
-110.1334379999999
 21
29.487075999999998
 31
0.0
  0
LINE
  5
36A
  8
0
 62
     3
 10
-106.483437
 20
24.737068000000001
 30
0.0
 11
-106.483437
 21
29.487075999999998
 31
0.0
  0
LINE
  5
36B
  8
0
 62
     3
 10
-102.8834379999999
 20
24.737068000000001
 30
0.0
 11
-102.8834379999999
 21
29.487075999999998
 31
0.0
  0
LINE
  5
36C
  8
0
 62
     3
 10
-99.283439999999999
 20
24.737068000000001
 30
0.0
 11
-99.283439999999999
 21
29.487075999999998
 31
0.0
  0
LINE
  5
36D
  8
0
 62
     3
 10
-95.683441000000002
 20
24.737068000000001
 30
0.0
 11
-95.683441000000002
 21
29.487075999999998
 31
0.0
  0
LINE
  5
36E
  8
0
 62
     3
 10
-92.083449999999985
 20
24.737068000000001
 30
0.0
 11
-92.083449999999985
 21
29.487075999999998
 31
0.0
  0
LINE
  5
36F
  8
0
 62
     3
 10
-88.483444000000006
 20
24.737068000000001
 30
0.0
 11
-88.483444000000006
 21
29.487075999999998
 31
0.0
  0
LINE
  5
370
  8
0
 62
     3
 10
-84.883453000000003
 20
24.737068000000001
 30
0.0
 11
-84.883453000000003
 21
29.487075999999998
 31
0.0
  0
LINE
  5
371
  8
0
 62
     3
 10
-81.283446999999995
 20
24.737068000000001
 30
0.0
 11
-81.283446999999995
 21
29.487075999999998
 31
0.0
  0
LINE
  5
372
  8
0
 62
     3
 10
-77.683456000000007
 20
24.737068000000001
 30
0.0
 11
-77.683456000000007
 21
29.487075999999998
 31
0.0
  0
LINE
  5
373
  8
0
 62
     3
 10
-74.083449999999999
 20
24.737068000000001
 30
0.0
 11
-74.083449999999999
 21
29.487075999999998
 31
0.0
  0
LINE
  5
374
  8
0
 62
     3
 10
-70.483443999999992
 20
24.737068000000001
 30
0.0
 11
-70.483443999999992
 21
29.487075999999998
 31
0.0
  0
LINE
  5
375
  8
0
 62
     3
 10
-66.883453000000003
 20
24.737068000000001
 30
0.0
 11
-66.883453000000003
 21
29.487075999999998
 31
0.0
  0
LINE
  5
376
  8
0
 62
     3
 10
-63.283446999999988
 20
24.737068000000001
 30
0.0
 11
-63.283446999999988
 21
29.487075999999998
 31
0.0
  0
LINE
  5
377
  8
0
 62
     3
 10
-59.683456000000007
 20
24.737068000000001
 30
0.0
 11
-59.683456000000007
 21
29.487075999999998
 31
0.0
  0
LINE
  5
378
  8
0
 62
     3
 10
-56.083449999999992
 20
24.737068000000001
 30
0.0
 11
-56.083449999999992
 21
29.487075999999998
 31
0.0
  0
LINE
  5
379
  8
0
 62
     3
 10
-52.483443999999992
 20
24.737068000000001
 30
0.0
 11
-52.483443999999992
 21
29.487075999999998
 31
0.0
  0
LINE
  5
37A
  8
0
 62
     3
 10
-48.88345300000001
 20
24.737068000000001
 30
0.0
 11
-48.88345300000001
 21
29.487075999999998
 31
0.0
  0
LINE
  5
37B
  8
0
 62
     3
 10
-45.283446999999988
 20
24.737068000000001
 30
0.0
 11
-45.283446999999988
 21
29.487075999999998
 31
0.0
  0
LINE
  5
37C
  8
0
 62
     3
 10
-41.683456
 20
24.737068000000001
 30
0.0
 11
-41.683456
 21
29.487075999999998
 31
0.0
  0
LINE
  5
37D
  8
0
 62
     3
 10
-38.083449999999999
 20
24.737068000000001
 30
0.0
 11
-38.083449999999999
 21
29.487075999999998
 31
0.0
  0
LINE
  5
37E
  8
0
 62
     3
 10
-34.483443999999992
 20
24.737068000000001
 30
0.0
 11
-34.483443999999992
 21
29.487075999999998
 31
0.0
  0
LINE
  5
37F
  8
0
 62
     3
 10
-30.883452999999999
 20
24.737068000000001
 30
0.0
 11
-30.883452999999999
 21
29.487075999999998
 31
0.0
  0
LINE
  5
380
  8
0
 62
     3
 10
-27.283446999999999
 20
24.737068000000001
 30
0.0
 11
-27.283446999999999
 21
29.487075999999998
 31
0.0
  0
LINE
  5
381
  8
0
 62
     3
 10
-23.683456
 20
24.737068000000001
 30
0.0
 11
-23.683456
 21
29.487075999999998
 31
0.0
  0
LINE
  5
382
  8
0
 62
     3
 10
-20.083449999999988
 20
24.737068000000001
 30
0.0
 11
-20.083449999999988
 21
29.487075999999998
 31
0.0
  0
LINE
  5
383
  8
0
 62
     3
 10
-16.483443999999999
 20
24.737068000000001
 30
0.0
 11
-16.483443999999999
 21
29.487075999999998
 31
0.0
  0
LINE
  5
384
  8
0
 62
     3
 10
-12.883452999999999
 20
24.737068000000001
 30
0.0
 11
-12.883452999999999
 21
29.487075999999998
 31
0.0
  0
LINE
  5
385
  8
0
 62
     3
 10
-9.2834470000000007
 20
24.737068000000001
 30
0.0
 11
-9.2834470000000007
 21
29.487075999999998
 31
0.0
  0
ARC
  5
386
  8
0
 62
     3
 10
-6.3834689999999989
 20
25.987079999999999
 30
0.0
 40
1.2499990000000001
 50
269.99953599999992
 51
360.0
  0
ARC
  5
387
  8
0
 62
     3
 10
-108.88346899999991
 20
25.987047
 30
0.0
 40
1.2499670000000001
 50
179.99881699999989
 51
270.001777
  0
LINE
  5
388
  8
0
  6
DASHDOT
 62
     7
 10
-125.952591
 20
109.9870759999999
 30
0.0
 11
33.496184999999997
 21
109.9870759999999
 31
0.0
  0
ENDBLK
  5
389
  8
0
  0
BLOCK
  8
0
  2
BLOCK1
 70
     0
 10
0.0
 20
0.0
 30
0.0
  3
BLOCK1
  1

  0
TEXT
  5
38B
  8
0
 62
     7
 10
-58.332931999999992
 20
292.05801400000001
 30
0.0
 40
3.0
  1
Y
 41
0.977778222222216
 72
     5
 11
-56.132930999999999
 21
292.05801400000001
 31
0.0
  0
ENDBLK
  5
38C
  8
0
  0
BLOCK
  8
0
  2
BLOCK2
 70
     0
 10
0.0
 20
0.0
 30
0.0
  3
BLOCK2
  1

  0
TEXT
  5
38E
  8
0
 62
     7
 10
-58.885337999999997
 20
2.0445540000000002
 30
0.0
 40
3.0
  1
Y
 41
0.9777782222222223
 72
     5
 11
-56.685336999999997
 21
2.0445540000000002
 31
0.0
  0
ENDBLK
  5
38F
  8
0
  0
BLOCK
  8
0
  2
BLOCK3
 70
     0
 10
0.0
 20
0.0
 30
0.0
  3
BLOCK3
  1

  0
TEXT
  5
391
  8
0
 62
     7
 10
69.0
 20
111.0
 30
0.0
 40
3.0
  1
X
 41
0.9777764444444425
 72
     5
 11
71.199996999999996
 21
111.0
 31
0.0
  0
ENDBLK
  5
392
  8
0
  0
BLOCK
  8
0
  2
BLOCK4
 70
     0
 10
0.0
 20
0.0
 30
0.0
  3
BLOCK4
  1

  0
TEXT
  5
394
  8
0
 62
     7
 10
-159.953644
 20
101.733925
 30
0.0
 40
3.0
  1
161
 50
90.0
 41
1.6559101075268829
 72
     5
 11
-159.953644
 21
109.43390699999991
 31
0.0
  0
ENDBLK
  5
395
  8
0
  0
BLOCK
  8
0
  2
BLOCK5
 70
     0
 10
0.0
 20
0.0
 30
0.0
  3
BLOCK5
  1

  0
TEXT
  5
397
  8
0
 62
     7
 10
-18.133514000000002
 20
217.22108499999999
 30
0.0
 40
3.0
  1
84
 41
1.2345679012345669
 72
     5
 11
-13.133514
 21
217.22108499999999
 31
0.0
  0
LINE
  5
398
  8
0
 62
     7
 10
26.366420999999999
 20
119.23683200000001
 30
0.0
 11
26.366420999999999
 21
218.22108499999999
 31
0.0
  0
POLYLINE
  5
399
  8
0
 62
     7
 66
     1
 10
0.0
 20
0.0
 30
0.0
  0
VERTEX
  5
639
  8
0
 62
     7
 10
24.434567999999992
 20
215.70344499999999
 30
0.0
  0
VERTEX
  5
63A
  8
0
 62
     7
 10
26.366420999999999
 20
216.22108499999999
 30
0.0
  0
VERTEX
  5
63B
  8
0
 62
     7
 10
24.434567999999992
 20
216.73872399999999
 30
0.0
  0
SEQEND
  5
63C
  8
0
 62
     7
  0
POLYLINE
  5
39E
  8
0
 62
     7
 66
     1
 10
0.0
 20
0.0
 30
0.0
  0
VERTEX
  5
63D
  8
0
 62
     7
 10
-55.70159499999999
 20
216.73872399999999
 30
0.0
  0
VERTEX
  5
63E
  8
0
 62
     7
 10
-57.633450000000011
 20
216.22108499999999
 30
0.0
  0
VERTEX
  5
63F
  8
0
 62
     7
 10
-55.70159499999999
 20
215.70344499999999
 30
0.0
  0
SEQEND
  5
640
  8
0
 62
     7
  0
LINE
  5
3A3
  8
0
 62
     7
 10
-57.633450000000011
 20
216.22108499999999
 30
0.0
 11
26.366420999999999
 21
216.22108499999999
 31
0.0
  0
ENDBLK
  5
3A4
  8
0
  0
BLOCK
  8
0
  2
BLOCK6
 70
     0
 10
0.0
 20
0.0
 30
0.0
  3
BLOCK6
  1

  0
TEXT
  5
3A6
  8
0
 62
     7
 10
-61.823443999999988
 20
234.06948899999989
 30
0.0
 40
3.0
  1
105
 41
1.4513620656287269
 72
     5
 11
-54.023440999999998
 21
234.06948899999989
 31
0.0
  0
LINE
  5
3A7
  8
0
 62
     7
 10
-110.1334379999999
 20
199.48709099999991
 30
0.0
 11
-110.1334379999999
 21
235.069489
 31
0.0
  0
LINE
  5
3A8
  8
0
 62
     7
 10
-5.1334470000000003
 20
199.48706100000001
 30
0.0
 11
-5.1334470000000003
 21
235.069489
 31
0.0
  0
POLYLINE
  5
3A9
  8
0
 62
     7
 66
     1
 10
0.0
 20
0.0
 30
0.0
  0
VERTEX
  5
641
  8
0
 62
     7
 10
-108.201584
 20
233.58712799999989
 30
0.0
  0
VERTEX
  5
642
  8
0
 62
     7
 10
-110.1334379999999
 20
233.069489
 30
0.0
  0
VERTEX
  5
643
  8
0
 62
     7
 10
-108.201584
 20
232.551849
 30
0.0
  0
SEQEND
  5
644
  8
0
 62
     7
  0
POLYLINE
  5
3AE
  8
0
 62
     7
 66
     1
 10
0.0
 20
0.0
 30
0.0
  0
VERTEX
  5
645
  8
0
 62
     7
 10
-7.0652990000000004
 20
232.551849
 30
0.0
  0
VERTEX
  5
646
  8
0
 62
     7
 10
-5.1334470000000003
 20
233.069489
 30
0.0
  0
VERTEX
  5
647
  8
0
 62
     7
 10
-7.0652990000000004
 20
233.58712799999989
 30
0.0
  0
SEQEND
  5
648
  8
0
 62
     7
  0
LINE
  5
3B3
  8
0
 62
     7
 10
-110.1334379999999
 20
233.069489
 30
0.0
 11
-5.1334470000000003
 21
233.069489
 31
0.0
  0
ENDBLK
  5
3B4
  8
0
  0
BLOCK
  8
0
  2
BLOCK7
 70
     0
 10
0.0
 20
0.0
 30
0.0
  3
BLOCK7
  1

  0
TEXT
  5
3B6
  8
0
 62
     7
 10
-79.033462999999983
 20
254.37042199999999
 30
0.0
 40
3.0
  1
140
 41
1.4048082081826561
 72
     5
 11
-71.233458999999996
 21
254.37042199999999
 31
0.0
  0
LINE
  5
3B7
  8
0
 62
     7
 10
-145.13346899999991
 20
233.43045000000001
 30
0.0
 11
-145.13346899999991
 21
255.37042199999999
 31
0.0
  0
LINE
  5
3B8
  8
0
 62
     7
 10
-5.1334470000000003
 20
199.48706100000001
 30
0.0
 11
-5.1334470000000003
 21
255.37042199999999
 31
0.0
  0
POLYLINE
  5
3B9
  8
0
 62
     7
 66
     1
 10
0.0
 20
0.0
 30
0.0
  0
VERTEX
  5
649
  8
0
 62
     7
 10
-7.0652990000000004
 20
252.85278299999999
 30
0.0
  0
VERTEX
  5
64A
  8
0
 62
     7
 10
-5.1334470000000003
 20
253.37042199999999
 30
0.0
  0
VERTEX
  5
64B
  8
0
 62
     7
 10
-7.0652990000000004
 20
253.88806199999999
 30
0.0
  0
SEQEND
  5
64C
  8
0
 62
     7
  0
POLYLINE
  5
3BE
  8
0
 62
     7
 66
     1
 10
0.0
 20
0.0
 30
0.0
  0
VERTEX
  5
64D
  8
0
 62
     7
 10
-143.20161399999989
 20
253.88806199999999
 30
0.0
  0
VERTEX
  5
64E
  8
0
 62
     7
 10
-145.13346899999991
 20
253.37042199999999
 30
0.0
  0
VERTEX
  5
64F
  8
0
 62
     7
 10
-143.20161399999989
 20
252.85278299999999
 30
0.0
  0
SEQEND
  5
650
  8
0
 62
     7
  0
LINE
  5
3C3
  8
0
 62
     7
 10
-145.13346899999991
 20
253.37042199999999
 30
0.0
 11
-5.1334470000000003
 21
253.37042199999999
 31
0.0
  0
ENDBLK
  5
3C4
  8
0
  0
BLOCK
  8
0
  2
BLOCK8
 70
     0
 10
0.0
 20
0.0
 30
0.0
  3
BLOCK8
  1

  0
TEXT
  5
3C6
  8
0
 62
     7
 10
-102.7334589999999
 20
274.98086499999988
 30
0.0
 40
3.0
  1
78,5
 41
1.5090557382680749
 72
     5
 11
-92.133453000000003
 21
274.98086499999988
 31
0.0
  0
LINE
  5
3C7
  8
0
 62
     7
 10
-136.133453
 20
190.23077399999991
 30
0.0
 11
-136.133453
 21
274.98086499999988
 31
0.0
  0
LINE
  5
3C8
  8
0
 62
     7
 10
-57.633450000000011
 20
217.47531099999989
 30
0.0
 11
-57.633450000000011
 21
274.98086499999988
 31
0.0
  0
POLYLINE
  5
3C9
  8
0
 62
     7
 66
     1
 10
0.0
 20
0.0
 30
0.0
  0
VERTEX
  5
651
  8
0
 62
     7
 10
-134.2015989999999
 20
273.49850499999991
 30
0.0
  0
VERTEX
  5
652
  8
0
 62
     7
 10
-136.133453
 20
272.98086499999988
 30
0.0
  0
VERTEX
  5
653
  8
0
 62
     7
 10
-134.2015989999999
 20
272.46322599999991
 30
0.0
  0
SEQEND
  5
654
  8
0
 62
     7
  0
POLYLINE
  5
3CE
  8
0
 62
     7
 66
     1
 10
0.0
 20
0.0
 30
0.0
  0
VERTEX
  5
655
  8
0
 62
     7
 10
-59.565300000000001
 20
272.46322599999991
 30
0.0
  0
VERTEX
  5
656
  8
0
 62
     7
 10
-57.633450000000011
 20
272.98086499999988
 30
0.0
  0
VERTEX
  5
657
  8
0
 62
     7
 10
-59.565300000000001
 20
273.49850499999991
 30
0.0
  0
SEQEND
  5
658
  8
0
 62
     7
  0
LINE
  5
3D3
  8
0
 62
     7
 10
-136.133453
 20
272.98086499999988
 30
0.0
 11
-57.633450000000011
 21
272.98086499999988
 31
0.0
  0
ENDBLK
  5
3D4
  8
0
  0
BLOCK
  8
0
  2
BLOCK9
 70
     0
 10
0.0
 20
0.0
 30
0.0
  3
BLOCK9
  1

  0
TEXT
  5
3D6
  8
0
 62
     7
 10
-12.683453999999999
 20
274.98086499999988
 30
0.0
 40
3.0
  1
96
 41
1.2790007376802319
 72
     5
 11
-7.6834539999999993
 21
274.98086499999988
 31
0.0
  0
LINE
  5
3D7
  8
0
 62
     7
 10
-57.633450000000011
 20
217.47531099999989
 30
0.0
 11
-57.633450000000011
 21
274.98086499999988
 31
0.0
  0
LINE
  5
3D8
  8
0
 62
     7
 10
38.366554000000001
 20
190.23077399999991
 30
0.0
 11
38.366554000000001
 21
274.98086499999988
 31
0.0
  0
POLYLINE
  5
3D9
  8
0
 62
     7
 66
     1
 10
0.0
 20
0.0
 30
0.0
  0
VERTEX
  5
659
  8
0
 62
     7
 10
-55.70159499999999
 20
273.49850499999991
 30
0.0
  0
VERTEX
  5
65A
  8
0
 62
     7
 10
-57.633450000000011
 20
272.98086499999988
 30
0.0
  0
VERTEX
  5
65B
  8
0
 62
     7
 10
-55.70159499999999
 20
272.46322599999991
 30
0.0
  0
SEQEND
  5
65C
  8
0
 62
     7
  0
POLYLINE
  5
3DE
  8
0
 62
     7
 66
     1
 10
0.0
 20
0.0
 30
0.0
  0
VERTEX
  5
65D
  8
0
 62
     7
 10
36.434703999999989
 20
272.46322599999991
 30
0.0
  0
VERTEX
  5
65E
  8
0
 62
     7
 10
38.366554000000001
 20
272.98086499999988
 30
0.0
  0
VERTEX
  5
65F
  8
0
 62
     7
 10
36.434703999999989
 20
273.49850499999991
 30
0.0
  0
SEQEND
  5
660
  8
0
 62
     7
  0
LINE
  5
3E3
  8
0
 62
     7
 10
-57.633450000000011
 20
272.98086499999988
 30
0.0
 11
38.366554000000001
 21
272.98086499999988
 31
0.0
  0
ENDBLK
  5
3E4
  8
0
  0
BLOCK
  8
0
  2
BLOCK10
 70
     0
 10
0.0
 20
0.0
 30
0.0
  3
BLOCK10
  1

  0
LINE
  5
3E6
  8
0
 62
     3
 10
30.037075000000002
 20
20.500076
 30
0.0
 11
30.037075000000002
 21
-51.499924
 31
0.0
  0
LINE
  5
3E7
  8
0
 62
     7
 10
24.737075999999998
 20
-51.499924
 30
0.0
 11
40.48702999999999
 21
-51.499924
 31
0.0
  0
LINE
  5
3E8
  8
0
 62
     7
 10
37.737045000000002
 20
-51.499924
 30
0.0
 11
37.737045000000002
 21
-53.499924
 31
0.0
  0
LINE
  5
3E9
  8
0
 62
     7
 10
186.73703
 20
-51.499924
 30
0.0
 11
186.73703
 21
-53.499924
 31
0.0
  0
LINE
  5
3EA
  8
0
 62
     3
 10
194.43707299999991
 20
42.700072999999989
 30
0.0
 11
194.43707299999991
 21
-51.499924
 31
0.0
  0
LINE
  5
3EB
  8
0
 62
     3
 10
30.037075000000002
 20
42.700072999999989
 30
0.0
 11
30.037075000000002
 21
20.500076
 31
0.0
  0
LINE
  5
3EC
  8
0
 62
     3
 10
30.037078999999999
 20
42.700072999999989
 30
0.0
 11
41.23702999999999
 21
42.700072999999989
 31
0.0
  0
LINE
  5
3ED
  8
0
 62
     3
 10
185.23704499999999
 20
42.700072999999989
 30
0.0
 11
194.43707299999991
 21
42.700072999999989
 31
0.0
  0
LINE
  5
3EE
  8
0
 62
     6
 10
82.237044999999995
 20
-98.999984999999995
 30
0.0
 11
82.237037999999998
 21
-100.99996899999989
 31
0.0
  0
LINE
  5
3EF
  8
0
 62
     6
 10
75.237044999999995
 20
-98.999984999999995
 30
0.0
 11
75.237037999999984
 21
-100.99996899999989
 31
0.0
  0
LINE
  5
3F0
  8
0
 62
     7
 10
28.23706099999999
 20
-101.49996899999999
 30
0.0
 11
53.23706099999999
 21
-101.49996899999999
 31
0.0
  0
LINE
  5
3F1
  8
0
 62
     3
 10
171.23706100000001
 20
-101.49996899999999
 30
0.0
 11
196.23706100000001
 21
-101.49996899999999
 31
0.0
  0
LINE
  5
3F2
  8
0
 62
     7
 10
30.037064000000001
 20
-53.499924
 30
0.0
 11
30.037064000000001
 21
-90.499968999999993
 31
0.0
  0
LINE
  5
3F3
  8
0
 62
     6
 10
27.23706099999999
 20
-53.499924
 30
0.0
 11
27.23706099999999
 21
-90.499968999999993
 31
0.0
  0
LINE
  5
3F4
  8
0
 62
     6
 10
197.23706100000001
 20
-53.499924
 30
0.0
 11
197.23706100000001
 21
-90.499968999999993
 31
0.0
  0
LINE
  5
3F5
  8
0
 62
     3
 10
194.43707299999991
 20
-53.499924
 30
0.0
 11
194.43707299999991
 21
-90.499968999999993
 31
0.0
  0
LINE
  5
3F6
  8
0
 62
     6
 10
27.23706099999999
 20
-53.499924
 30
0.0
 11
40.48702999999999
 21
-53.499924
 31
0.0
  0
LINE
  5
3F7
  8
0
 62
     6
 10
27.23706099999999
 20
-90.499968999999993
 30
0.0
 11
28.23706099999999
 21
-90.499968999999993
 31
0.0
  0
LINE
  5
3F8
  8
0
 62
     6
 10
68.737053000000003
 20
-102.99996899999989
 30
0.0
 11
55.737056999999993
 21
-102.999985
 31
0.0
  0
LINE
  5
3F9
  8
0
 62
     6
 10
155.73704499999999
 20
-102.99996899999989
 30
0.0
 11
168.73704499999991
 21
-102.999985
 31
0.0
  0
LINE
  5
3FA
  8
0
 62
     2
 10
169.23706100000001
 20
-100.99996899999989
 30
0.0
 11
169.23706100000001
 21
-102.49996899999999
 31
0.0
  0
LINE
  5
3FB
  8
0
 62
     2
 10
55.237060999999997
 20
-100.99996899999989
 30
0.0
 11
55.237060999999997
 21
-102.49996899999999
 31
0.0
  0
LINE
  5
3FC
  8
0
 62
     2
 10
168.73706100000001
 20
-100.99996899999989
 30
0.0
 11
169.23706100000001
 21
-100.99996899999989
 31
0.0
  0
LINE
  5
3FD
  8
0
 62
     2
 10
68.737166999999999
 20
-100.99996899999989
 30
0.0
 11
155.73706100000001
 21
-100.99996899999989
 31
0.0
  0
LINE
  5
3FE
  8
0
 62
     2
 10
55.237060999999997
 20
-100.99996899999989
 30
0.0
 11
55.73713699999999
 21
-100.99996899999989
 31
0.0
  0
LINE
  5
3FF
  8
0
 62
     2
 10
55.237060999999997
 20
-102.49996899999999
 30
0.0
 11
55.737044999999988
 21
-102.49996899999999
 31
0.0
  0
LINE
  5
400
  8
0
 62
     2
 10
68.737044999999995
 20
-102.49996899999999
 30
0.0
 11
155.73698399999989
 21
-102.49996899999999
 31
0.0
  0
LINE
  5
401
  8
0
 62
     2
 10
168.73698400000001
 20
-102.49996899999999
 30
0.0
 11
169.23706100000001
 21
-102.49996899999999
 31
0.0
  0
LINE
  5
402
  8
0
 62
     3
 10
170.73706100000001
 20
-102.49996899999999
 30
0.0
 11
196.73706100000001
 21
-102.49996899999999
 31
0.0
  0
LINE
  5
403
  8
0
 62
     3
 10
196.23706100000001
 20
-94.499954000000002
 30
0.0
 11
197.73706100000001
 21
-94.499954000000002
 31
0.0
  0
LINE
  5
404
  8
0
 62
     7
 10
53.23706099999999
 20
-98.999984999999995
 30
0.0
 11
53.23706099999999
 21
-101.49996899999999
 31
0.0
  0
LINE
  5
405
  8
0
 62
     7
 10
28.23706099999999
 20
-90.499968999999993
 30
0.0
 11
28.23706099999999
 21
-101.49996899999999
 31
0.0
  0
LINE
  5
406
  8
0
 62
     3
 10
171.23706100000001
 20
-98.999968999999993
 30
0.0
 11
171.23706100000001
 21
-101.49996899999999
 31
0.0
  0
LINE
  5
407
  8
0
 62
     3
 10
196.23706100000001
 20
-94.499954000000002
 30
0.0
 11
196.23706100000001
 21
-101.49996899999999
 31
0.0
  0
LINE
  5
408
  8
0
 62
     6
 10
55.73706099999999
 20
-98.999984999999995
 30
0.0
 11
55.73706099999999
 21
-102.999985
 31
0.0
  0
LINE
  5
409
  8
0
 62
     6
 10
68.737060999999997
 20
-98.999984999999995
 30
0.0
 11
68.737060999999997
 21
-102.99996899999989
 31
0.0
  0
LINE
  5
40A
  8
0
 62
     6
 10
168.73706100000001
 20
-98.999968999999993
 30
0.0
 11
168.73706100000001
 21
-102.999985
 31
0.0
  0
LINE
  5
40B
  8
0
 62
     6
 10
155.73706100000001
 20
-98.999968999999993
 30
0.0
 11
155.73706100000001
 21
-102.99996899999989
 31
0.0
  0
LINE
  5
40C
  8
0
 62
     6
 10
152.23706100000001
 20
-98.999968999999993
 30
0.0
 11
152.23706100000001
 21
-100.99996899999989
 31
0.0
  0
LINE
  5
40D
  8
0
 62
     6
 10
144.23706100000001
 20
-98.999968999999993
 30
0.0
 11
144.23706100000001
 21
-100.99996899999989
 31
0.0
  0
LINE
  5
40E
  8
0
 62
     3
 10
197.73709099999991
 20
-101.4999849999999
 30
0.0
 11
196.73709099999991
 21
-102.4999849999999
 31
0.0
  0
LINE
  5
40F
  8
0
 62
     3
 10
169.73712199999991
 20
-101.50003100000001
 30
0.0
 11
170.73712199999991
 21
-102.50003100000001
 31
0.0
  0
LINE
  5
410
  8
0
 62
     3
 10
197.73706100000001
 20
-94.499954000000002
 30
0.0
 11
197.73706100000001
 21
-101.49996899999999
 31
0.0
  0
LINE
  5
411
  8
0
 62
     3
 10
169.73706100000001
 20
-98.999968999999993
 30
0.0
 11
169.73706100000001
 21
-101.49996899999999
 31
0.0
  0
LINE
  5
412
  8
0
 62
     3
 10
26.73706099999999
 20
-94.499954000000002
 30
0.0
 11
26.73706099999999
 21
-101.49996899999999
 31
0.0
  0
LINE
  5
413
  8
0
 62
     3
 10
26.737023999999991
 20
-101.4999849999999
 30
0.0
 11
27.737023999999991
 21
-102.4999849999999
 31
0.0
  0
LINE
  5
414
  8
0
 62
     3
 10
27.737061000000001
 20
-102.49996899999999
 30
0.0
 11
53.73706099999999
 21
-102.49996899999999
 31
0.0
  0
LINE
  5
415
  8
0
 62
     3
 10
54.737000000000002
 20
-101.50003100000001
 30
0.0
 11
53.736999999999988
 21
-102.50003100000001
 31
0.0
  0
LINE
  5
416
  8
0
 62
     3
 10
54.737060999999997
 20
-98.999984999999995
 30
0.0
 11
54.737060999999997
 21
-101.49996899999999
 31
0.0
  0
LINE
  5
417
  8
0
 62
     3
 10
26.73706099999999
 20
-94.499954000000002
 30
0.0
 11
28.23706099999999
 21
-94.499954000000002
 31
0.0
  0
LINE
  5
418
  8
0
  6
DASHDOT
 62
     7
 10
168.73706100000001
 20
-102.999985
 30
0.0
 11
218.75514200000001
 21
-102.999985
 31
0.0
  0
LINE
  5
419
  8
0
  6
DASHDOT
 62
     7
 10
68.737053000000003
 20
-102.99996899999989
 30
0.0
 11
155.73706100000001
 21
-102.99996899999989
 31
0.0
  0
LINE
  5
41A
  8
0
  6
DASHDOT
 62
     7
 10
3.187479999999999
 20
-102.999985
 30
0.0
 11
55.737056999999993
 21
-102.999985
 31
0.0
  0
LINE
  5
41B
  8
0
  6
DASHDOT
 62
     7
 10
3.091254999999999
 20
-105.99996899999989
 30
0.0
 11
218.75514200000001
 21
-105.99996899999989
 31
0.0
  0
POLYLINE
  5
41C
  8
0
 62
     7
 66
     1
 10
0.0
 20
0.0
 30
0.0
  0
VERTEX
  5
661
  8
0
 62
     7
 10
218.75514200000001
 20
-96.821822999999995
 30
0.0
  0
VERTEX
  5
662
  8
0
 62
     7
 10
218.75514200000001
 20
-112.8218229999999
 30
0.0
  0
VERTEX
  5
663
  8
0
 62
     7
 10
220.75514200000001
 20
-113.8218229999999
 30
0.0
  0
VERTEX
  5
664
  8
0
 62
     7
 10
216.75514200000001
 20
-114.8218229999999
 30
0.0
  0
VERTEX
  5
665
  8
0
 62
     7
 10
218.75514200000001
 20
-115.8218229999999
 30
0.0
  0
VERTEX
  5
666
  8
0
 62
     7
 10
218.75514200000001
 20
-117.1011959999999
 30
0.0
  0
SEQEND
  5
667
  8
0
 62
     7
  0
POLYLINE
  5
424
  8
0
 62
     7
 66
     1
 10
0.0
 20
0.0
 30
0.0
  0
VERTEX
  5
668
  8
0
 62
     7
 10
3.259647999999999
 20
-97.302948000000015
 30
0.0
  0
VERTEX
  5
669
  8
0
 62
     7
 10
3.0442779999999989
 20
-108.426193
 30
0.0
  0
VERTEX
  5
66A
  8
0
 62
     7
 10
5.0245449999999989
 20
-109.4647219999999
 30
0.0
  0
VERTEX
  5
66B
  8
0
 62
     7
 10
1.0059359999999999
 20
-110.3871
 30
0.0
  0
VERTEX
  5
66C
  8
0
 62
     7
 10
2.986202
 20
-111.4256289999999
 30
0.0
  0
SEQEND
  5
66D
  8
0
 62
     7
  0
LINE
  5
42B
  8
0
 62
     7
 10
28.23706099999999
 20
-90.499968999999993
 30
0.0
 11
28.23706099999999
 21
-94.499954000000002
 31
0.0
  0
LINE
  5
42C
  8
0
 62
     7
 10
28.23706099999999
 20
-90.499968999999993
 30
0.0
 11
45.236800999999993
 21
-90.499968999999993
 31
0.0
  0
LINE
  5
42D
  8
0
 62
     6
 10
196.23706100000001
 20
-90.499968999999993
 30
0.0
 11
197.23706100000001
 21
-90.499968999999993
 31
0.0
  0
LINE
  5
42E
  8
0
 62
     3
 10
171.23706100000001
 20
-90.499968999999993
 30
0.0
 11
196.23706100000001
 21
-90.499968999999993
 31
0.0
  0
LINE
  5
42F
  8
0
 62
     6
 10
196.23706100000001
 20
-90.499968999999993
 30
0.0
 11
196.23706100000001
 21
-94.499954000000002
 31
0.0
  0
LINE
  5
430
  8
0
  6
DASHDOT
 62
     7
 10
162.23706100000001
 20
-93.058837999999994
 30
0.0
 11
162.23706100000001
 21
-116.7235719999999
 31
0.0
  0
LINE
  5
431
  8
0
  6
DASHDOT
 62
     7
 10
62.237060999999997
 20
-94.230819999999994
 30
0.0
 11
62.237060999999997
 21
-116.074417
 31
0.0
  0
LINE
  5
432
  8
0
 62
     4
 10
60.237045000000002
 20
76.0
 30
0.0
 11
56.237018999999997
 21
75.999946999999992
 31
0.0
  0
LINE
  5
433
  8
0
 62
     3
 10
49.237014999999992
 20
62.301299999999991
 30
0.0
 11
49.237019000000011
 21
62.0
 31
0.0
  0
LINE
  5
434
  8
0
 62
     4
 10
45.237021999999989
 20
76.0
 30
0.0
 11
49.237006999999998
 21
75.999954000000002
 31
0.0
  0
LINE
  5
435
  8
0
 62
     4
 10
45.237029999999997
 20
-53.499939000000012
 30
0.0
 11
45.236903999999988
 21
-55.499938999999998
 31
0.0
  0
LINE
  5
436
  8
0
 62
     4
 10
45.237021999999989
 20
71.0
 30
0.0
 11
45.237029999999997
 21
-48.499924
 31
0.0
  0
LINE
  5
437
  8
0
 62
     4
 10
185.23704499999999
 20
-55.499924
 30
0.0
 11
185.23704499999999
 21
-98.999968999999993
 31
0.0
  0
LINE
  5
438
  8
0
 62
     4
 10
45.236903999999988
 20
-55.499938999999998
 30
0.0
 11
45.236778000000001
 21
-98.999968999999993
 31
0.0
  0
LINE
  5
439
  8
0
 62
     4
 10
45.236778000000001
 20
-98.999968999999993
 30
0.0
 11
56.236995999999998
 21
-98.999984999999995
 31
0.0
  0
LINE
  5
43A
  8
0
 62
     4
 10
49.237006999999998
 20
75.999961999999996
 30
0.0
 11
56.237018999999997
 21
75.999961999999996
 31
0.0
  0
LINE
  5
43B
  8
0
 62
     4
 10
185.23704499999999
 20
76.0
 30
0.0
 11
185.23704499999999
 21
-55.499924
 31
0.0
  0
LINE
  5
43C
  8
0
 62
     4
 10
153.23706100000001
 20
76.0
 30
0.0
 11
185.23704499999999
 21
76.0
 31
0.0
  0
LINE
  5
43D
  8
0
 62
     4
 10
41.23702999999999
 20
44.0
 30
0.0
 11
45.237029999999997
 21
44.0
 31
0.0
  0
LINE
  5
43E
  8
0
 62
     4
 10
41.23702999999999
 20
40.0
 30
0.0
 11
45.237029999999997
 21
40.0
 31
0.0
  0
LINE
  5
43F
  8
0
 62
     4
 10
41.23702999999999
 20
44.0
 30
0.0
 11
41.23702999999999
 21
40.0
 31
0.0
  0
LINE
  5
440
  8
0
 62
     4
 10
41.237082999999991
 20
-39.75
 30
0.0
 11
45.237015
 21
-39.75
 31
0.0
  0
LINE
  5
441
  8
0
 62
     4
 10
41.237082999999991
 20
-43.75
 30
0.0
 11
45.237015
 21
-43.75
 31
0.0
  0
LINE
  5
442
  8
0
 62
     4
 10
41.237082999999991
 20
-39.75
 30
0.0
 11
41.237082999999991
 21
-43.75
 31
0.0
  0
LINE
  5
443
  8
0
 62
     4
 10
40.48702999999999
 20
71.0
 30
0.0
 11
42.98702999999999
 21
71.0
 31
0.0
  0
LINE
  5
444
  8
0
 62
     4
 10
40.48702999999999
 20
76.0
 30
0.0
 11
45.237021999999989
 21
76.0
 31
0.0
  0
LINE
  5
445
  8
0
 62
     4
 10
40.48702999999999
 20
76.0
 30
0.0
 11
40.48702999999999
 21
71.0
 31
0.0
  0
LINE
  5
446
  8
0
 62
     4
 10
42.98702999999999
 20
71.0
 30
0.0
 11
45.237029999999997
 21
71.0
 31
0.0
  0
LINE
  5
447
  8
0
 62
     4
 10
40.48702999999999
 20
-48.499907999999998
 30
0.0
 11
42.98702999999999
 21
-48.499907999999998
 31
0.0
  0
LINE
  5
448
  8
0
 62
     4
 10
40.48702999999999
 20
-48.499907999999998
 30
0.0
 11
40.48702999999999
 21
-53.499907999999998
 31
0.0
  0
LINE
  5
449
  8
0
 62
     4
 10
40.48702999999999
 20
-53.499907999999998
 30
0.0
 11
45.237029999999997
 21
-53.499939000000012
 31
0.0
  0
LINE
  5
44A
  8
0
 62
     4
 10
42.98702999999999
 20
-48.499907999999998
 30
0.0
 11
45.237015
 21
-48.499924
 31
0.0
  0
LINE
  5
44B
  8
0
 62
     4
 10
60.237045000000002
 20
76.0
 30
0.0
 11
123.2370379999999
 21
76.0
 31
0.0
  0
LINE
  5
44C
  8
0
 62
     4
 10
45.236969000000002
 20
76.0
 30
0.0
 11
46.237040999999998
 21
76.0
 31
0.0
  0
LINE
  5
44D
  8
0
 62
     4
 10
45.236934999999988
 20
-53.499939000000012
 30
0.0
 11
45.236903999999988
 21
-55.499930999999997
 31
0.0
  0
LINE
  5
44E
  8
0
 62
     4
 10
56.236995999999998
 20
-98.999984999999995
 30
0.0
 11
185.23704499999999
 21
-98.999984999999995
 31
0.0
  0
LINE
  5
44F
  8
0
 62
     7
 10
123.2370379999999
 20
76.0
 30
0.0
 11
152.73706100000001
 21
76.0
 31
0.0
  0
LINE
  5
450
  8
0
 62
     6
 10
185.23704499999999
 20
-53.499924
 30
0.0
 11
197.23706100000001
 21
-53.499924
 31
0.0
  0
LINE
  5
451
  8
0
 62
     7
 10
185.23704499999999
 20
-51.499924
 30
0.0
 11
199.73706100000001
 21
-51.499924
 31
0.0
  0
LINE
  5
452
  8
0
 62
     3
 10
185.23704499999999
 20
20.500076
 30
0.0
 11
197.23706100000001
 21
20.500076
 31
0.0
  0
LINE
  5
453
  8
0
  6
DASHDOT
 62
     7
 10
95.236960999999994
 20
64.000092000000009
 30
0.0
 11
121.23699999999999
 21
64.000092000000009
 31
0.0
  0
LINE
  5
454
  8
0
  6
DASHDOT
 62
     7
 10
108.2369769999999
 20
77.000106999999986
 30
0.0
 11
108.2369769999999
 21
51.000072000000003
 31
0.0
  0
LINE
  5
455
  8
0
 62
     7
 10
199.73706100000001
 20
47.000076
 30
0.0
 11
199.73706100000001
 21
-51.499924
 31
0.0
  0
LINE
  5
456
  8
0
 62
     7
 10
185.23704499999999
 20
48.000076
 30
0.0
 11
198.73706100000001
 21
48.000076
 31
0.0
  0
LINE
  5
457
  8
0
 62
     7
 10
25.737075999999998
 20
48.000076
 30
0.0
 11
45.237021999999989
 21
48.000076
 31
0.0
  0
LINE
  5
458
  8
0
 62
     7
 10
24.737075999999998
 20
47.000076
 30
0.0
 11
24.737075999999998
 21
-51.499924
 31
0.0
  0
ARC
  5
459
  8
0
 62
     7
 10
25.737075999999998
 20
47.000076
 30
0.0
 40
1.0
 50
90.000005000000002
 51
180.00000099999991
  0
ARC
  5
45A
  8
0
 62
     7
 10
198.73706100000001
 20
47.000076
 30
0.0
 40
1.0
 50
0.000003
 51
90.000005000000002
  0
LINE
  5
45B
  8
0
 62
     7
 10
162.48706100000001
 20
87.000015000000005
 30
0.0
 11
162.48706100000001
 21
76.0
 31
0.0
  0
LINE
  5
45C
  8
0
 62
     7
 10
57.48706099999999
 20
87.000015000000005
 30
0.0
 11
57.48706099999999
 21
76.0
 31
0.0
  0
LINE
  5
45D
  8
0
  6
DASHDOT
 62
     7
 10
109.987061
 20
99.466080000000005
 30
0.0
 11
109.987061
 21
-116.162933
 31
0.0
  0
LINE
  5
45E
  8
0
 62
     7
 10
158.33706699999991
 20
-109.1999659999999
 30
0.0
 11
166.13705400000001
 21
-109.1999659999999
 31
0.0
  0
LINE
  5
45F
  8
0
 62
     7
 10
160.23706100000001
 20
-112.3999629999999
 30
0.0
 11
164.23706100000001
 21
-112.3999629999999
 31
0.0
  0
LINE
  5
460
  8
0
 62
     7
 10
166.13705400000001
 20
-105.99996899999989
 30
0.0
 11
166.13705400000001
 21
-109.1999659999999
 31
0.0
  0
LINE
  5
461
  8
0
 62
     7
 10
158.33706699999991
 20
-105.99996899999989
 30
0.0
 11
158.33706699999991
 21
-109.1999659999999
 31
0.0
  0
LINE
  5
462
  8
0
 62
     7
 10
164.23706100000001
 20
-105.99996899999989
 30
0.0
 11
164.23706100000001
 21
-112.3999629999999
 31
0.0
  0
LINE
  5
463
  8
0
 62
     7
 10
160.23706100000001
 20
-105.99996899999989
 30
0.0
 11
160.23706100000001
 21
-112.3999629999999
 31
0.0
  0
LINE
  5
464
  8
0
 62
     7
 10
66.137062
 20
-105.99996899999989
 30
0.0
 11
66.137062
 21
-109.1999659999999
 31
0.0
  0
LINE
  5
465
  8
0
 62
     7
 10
64.237060999999997
 20
-105.99996899999989
 30
0.0
 11
64.237060999999997
 21
-112.3999629999999
 31
0.0
  0
LINE
  5
466
  8
0
 62
     7
 10
60.237060999999997
 20
-105.99996899999989
 30
0.0
 11
60.237060999999997
 21
-112.3999629999999
 31
0.0
  0
LINE
  5
467
  8
0
 62
     7
 10
58.337058999999989
 20
-105.99996899999989
 30
0.0
 11
58.337058999999989
 21
-109.1999659999999
 31
0.0
  0
LINE
  5
468
  8
0
 62
     7
 10
58.337058999999989
 20
-109.1999659999999
 30
0.0
 11
66.137062
 21
-109.1999659999999
 31
0.0
  0
LINE
  5
469
  8
0
 62
     7
 10
60.237060999999997
 20
-112.3999629999999
 30
0.0
 11
64.237060999999997
 21
-112.3999629999999
 31
0.0
  0
ENDBLK
  5
46A
  8
0
  0
BLOCK
  8
0
  2
BLOCK11
 70
     0
 10
0.0
 20
0.0
 30
0.0
  3
BLOCK11
  1

  0
TEXT
  5
46C
  8
0
 62
     7
 10
105.92140999999999
 20
235.067657
 30
0.0
 40
3.0
  1
X
 50
270.00018230508402
 41
0.9777760000049488
 72
     5
 11
105.92141699999991
 21
232.867661
 31
0.0
  0
ENDBLK
  5
46D
  8
0
  0
BLOCK
  8
0
  2
BLOCK12
 70
     0
 10
0.0
 20
0.0
 30
0.0
  3
BLOCK12
  1

  0
TEXT
  5
46F
  8
0
 62
     7
 10
80.227005000000005
 20
115.818054
 30
0.0
 40
3.0
  1
1,75
 41
1.6266401704896309
 72
     5
 11
90.676970999999995
 21
115.818054
 31
0.0
  0
ENDBLK
  5
470
  8
0
  0
BLOCK
  8
0
  2
BLOCK13
 70
     0
 10
0.0
 20
0.0
 30
0.0
  3
BLOCK13
  1

  0
TEXT
  5
472
  8
0
 62
     7
 10
101.730621
 20
219.50662199999999
 30
0.0
 40
3.0
  1
105
 41
1.4327509593039951
 72
     5
 11
109.430603
 21
219.50662199999999
 31
0.0
  0
ENDBLK
  5
473
  8
0
  0
BLOCK
  8
0
  2
BLOCK14
 70
     0
 10
0.0
 20
0.0
 30
0.0
  3
BLOCK14
  1

  0
TEXT
  5
475
  8
0
 62
     7
 10
295.65191699999991
 20
225.97860700000001
 30
0.0
 40
3.0
  1
27,5
 50
270.0
 41
1.487695493474837
 72
     5
 11
295.65191699999991
 21
215.52864099999999
 31
0.0
  0
ENDBLK
  5
476
  8
0
  0
BLOCK
  8
0
  2
BLOCK15
 70
     0
 10
0.0
 20
0.0
 30
0.0
  3
BLOCK15
  1

  0
TEXT
  5
478
  8
0
 62
     7
 10
295.65191699999991
 20
203.9786379999999
 30
0.0
 40
3.0
  1
       CORSA DI SEZIONAMENTO
 50
270.00002248370771
 41
1.4438098205855681
 72
     5
 11
295.65194699999989
 21
127.528908
 31
0.0
  0
ENDBLK
  5
479
  8
0
  0
BLOCK
  8
0
  2
BLOCK16
 70
     0
 10
0.0
 20
0.0
 30
0.0
  3
BLOCK16
  1

  0
TEXT
  5
47B
  8
0
 62
     7
 10
274.22640999999987
 20
45.500121999999998
 30
0.0
 40
3.0
  1
269,5
 50
270.0
 41
1.4450273130735789
 72
     5
 11
274.22640999999987
 21
32.300162999999991
 31
0.0
  0
ENDBLK
  5
47C
  8
0
  0
BLOCK
  8
0
  2
BLOCK17
 70
     0
 10
0.0
 20
0.0
 30
0.0
  3
BLOCK17
  1

  0
TEXT
  5
47E
  8
0
 62
     7
 10
274.22640999999987
 20
180.00018299999999
 30
0.0
 40
3.0
  1
2
 50
270.0
 41
1.20206777881752
 72
     5
 11
274.22640999999987
 21
177.800186
 31
0.0
  0
ENDBLK
  5
47F
  8
0
  0
BLOCK
  8
0
  2
BLOCK18
 70
     0
 10
0.0
 20
0.0
 30
0.0
  3
BLOCK18
  1

  0
TEXT
  5
481
  8
0
 62
     7
 10
107.2279509999999
 20
-115.8125459999999
 30
0.0
 40
3.0
  1
X
 50
270.0
 41
0.9777764444444425
 72
     5
 11
107.2279509999999
 21
-118.01254299999989
 31
0.0
  0
ENDBLK
  5
482
  8
0
  0
BLOCK
  8
0
  2
BLOCK19
 70
     0
 10
0.0
 20
0.0
 30
0.0
  3
BLOCK19
  1

  0
TEXT
  5
484
  8
0
 62
     7
 10
78.709716999999998
 20
97.487861999999993
 30
0.0
 40
3.0
  1
 5,5
 50
313.96195378539369
 41
1.706322345140336
 72
     5
 11
85.963881999999984
 21
89.965964999999997
 31
0.0
  0
ENDBLK
  5
485
  8
0
  0
BLOCK
  8
0
  2
BLOCK20
 70
     0
 10
0.0
 20
0.0
 30
0.0
  3
BLOCK20
  1

  0
TEXT
  5
487
  8
0
 62
     7
 10
78.15436600000001
 20
98.063690000000008
 30
0.0
 40
3.0
  1
%%c
 50
313.96191454900668
 41
0.9777789737799729
 72
     5
 11
79.681563999999995
 21
96.480125000000001
 31
0.0
  0
ENDBLK
  5
488
  8
0
  0
BLOCK
  8
0
  2
BLOCK21
 70
     0
 10
0.0
 20
0.0
 30
0.0
  3
BLOCK21
  1

  0
TEXT
  5
48A
  8
0
 62
     7
 10
307.78338600000001
 20
166.6249389999999
 30
0.0
 40
3.0
  1
ISOLATING DISTANCE
 50
270.0
 41
1.3319681360544211
 72
     5
 11
307.78338600000001
 21
117.67511
 31
0.0
  0
ENDBLK
  5
48B
  8
0
  0
BLOCK
  8
0
  2
BLOCK22
 70
     0
 10
0.0
 20
0.0
 30
0.0
  3
BLOCK22
  1

  0
TEXT
  5
48D
  8
0
 62
     7
 10
-16.999302
 20
-15.049939999999991
 30
0.0
 40
3.0
  1
167
 50
270.0
 41
1.4857140952380949
 72
     5
 11
-16.999302
 21
-22.849938999999999
 31
0.0
  0
LINE
  5
48E
  8
0
 62
     7
 10
93.995163000000005
 20
64.000092000000009
 30
0.0
 11
-19.999302
 21
64.000092000000009
 31
0.0
  0
POLYLINE
  5
48F
  8
0
 62
     7
 66
     1
 10
0.0
 20
0.0
 30
0.0
  0
VERTEX
  5
66E
  8
0
 62
     7
 10
-18.516940999999989
 20
-101.06811500000001
 30
0.0
  0
VERTEX
  5
66F
  8
0
 62
     7
 10
-17.999302
 20
-102.99996899999989
 30
0.0
  0
VERTEX
  5
670
  8
0
 62
     7
 10
-17.481664999999989
 20
-101.06811500000001
 30
0.0
  0
SEQEND
  5
671
  8
0
 62
     7
  0
POLYLINE
  5
494
  8
0
 62
     7
 66
     1
 10
0.0
 20
0.0
 30
0.0
  0
VERTEX
  5
672
  8
0
 62
     7
 10
-17.481664999999989
 20
62.06824499999999
 30
0.0
  0
VERTEX
  5
673
  8
0
 62
     7
 10
-17.999302
 20
64.000092000000009
 30
0.0
  0
VERTEX
  5
674
  8
0
 62
     7
 10
-18.516940999999989
 20
62.06824499999999
 30
0.0
  0
SEQEND
  5
675
  8
0
 62
     7
  0
LINE
  5
499
  8
0
 62
     7
 10
-17.999302
 20
-102.99996899999989
 30
0.0
 11
-17.999302
 21
64.000092000000009
 31
0.0
  0
ENDBLK
  5
49A
  8
0
  0
BLOCK
  8
0
  2
BLOCK23
 70
     0
 10
0.0
 20
0.0
 30
0.0
  3
BLOCK23
  1

  0
LINE
  5
49C
  8
0
 62
     2
 10
184.48043799999999
 20
167.658737
 30
0.0
 11
185.63900799999999
 21
166.500168
 31
0.0
  0
LINE
  5
49D
  8
0
 62
     2
 10
185.76033000000001
 20
168.500168
 30
0.0
 11
187.76033000000001
 21
166.500168
 31
0.0
  0
LINE
  5
49E
  8
0
 62
     2
 10
187.88165299999989
 20
168.500168
 30
0.0
 11
189.88165299999989
 21
166.500168
 31
0.0
  0
LINE
  5
49F
  8
0
 62
     2
 10
190.00297499999991
 20
168.500168
 30
0.0
 11
192.00297499999991
 21
166.500168
 31
0.0
  0
LINE
  5
4A0
  8
0
 62
     2
 10
192.12428299999999
 20
168.500168
 30
0.0
 11
194.12428299999999
 21
166.500168
 31
0.0
  0
LINE
  5
4A1
  8
0
 62
     2
 10
194.24560500000001
 20
168.500168
 30
0.0
 11
196.24560500000001
 21
166.500168
 31
0.0
  0
LINE
  5
4A2
  8
0
 62
     2
 10
196.36692799999989
 20
168.500168
 30
0.0
 11
198.36692799999989
 21
166.500168
 31
0.0
  0
LINE
  5
4A3
  8
0
 62
     2
 10
198.48825099999999
 20
168.500168
 30
0.0
 11
200.48825099999991
 21
166.500168
 31
0.0
  0
LINE
  5
4A4
  8
0
 62
     2
 10
200.60957300000001
 20
168.500168
 30
0.0
 11
202.60957300000001
 21
166.500168
 31
0.0
  0
LINE
  5
4A5
  8
0
 62
     2
 10
202.730896
 20
168.500168
 30
0.0
 11
204.730896
 21
166.500168
 31
0.0
  0
LINE
  5
4A6
  8
0
 62
     2
 10
204.85220299999989
 20
168.500168
 30
0.0
 11
206.852203
 21
166.500168
 31
0.0
  0
LINE
  5
4A7
  8
0
 62
     2
 10
206.97352599999991
 20
168.500168
 30
0.0
 11
208.97352599999991
 21
166.500168
 31
0.0
  0
LINE
  5
4A8
  8
0
 62
     2
 10
209.09484900000001
 20
168.500168
 30
0.0
 11
211.09484900000001
 21
166.500168
 31
0.0
  0
LINE
  5
4A9
  8
0
 62
     2
 10
211.216171
 20
168.500168
 30
0.0
 11
213.216171
 21
166.500168
 31
0.0
  0
LINE
  5
4AA
  8
0
 62
     2
 10
213.33749399999991
 20
168.500168
 30
0.0
 11
215.33749399999991
 21
166.500168
 31
0.0
  0
LINE
  5
4AB
  8
0
 62
     2
 10
215.4588169999999
 20
168.500168
 30
0.0
 11
217.4588169999999
 21
166.500168
 31
0.0
  0
LINE
  5
4AC
  8
0
 62
     2
 10
217.58012400000001
 20
168.500168
 30
0.0
 11
219.58012400000001
 21
166.500168
 31
0.0
  0
LINE
  5
4AD
  8
0
 62
     2
 10
219.701447
 20
168.500168
 30
0.0
 11
221.701447
 21
166.500168
 31
0.0
  0
LINE
  5
4AE
  8
0
 62
     2
 10
221.82276899999991
 20
168.500168
 30
0.0
 11
223.82276899999991
 21
166.500168
 31
0.0
  0
LINE
  5
4AF
  8
0
 62
     2
 10
223.9440919999999
 20
168.500168
 30
0.0
 11
225.9440919999999
 21
166.500168
 31
0.0
  0
LINE
  5
4B0
  8
0
 62
     2
 10
226.065414
 20
168.500168
 30
0.0
 11
228.065414
 21
166.500168
 31
0.0
  0
LINE
  5
4B1
  8
0
 62
     2
 10
228.18673699999999
 20
168.500168
 30
0.0
 11
230.18673699999999
 21
166.500168
 31
0.0
  0
LINE
  5
4B2
  8
0
 62
     2
 10
230.30806000000001
 20
168.500168
 30
0.0
 11
232.30806000000001
 21
166.500168
 31
0.0
  0
LINE
  5
4B3
  8
0
 62
     2
 10
232.4293669999999
 20
168.500168
 30
0.0
 11
234.4293669999999
 21
166.500168
 31
0.0
  0
LINE
  5
4B4
  8
0
 62
     2
 10
234.55069
 20
168.500168
 30
0.0
 11
236.55069
 21
166.500168
 31
0.0
  0
LINE
  5
4B5
  8
0
 62
     2
 10
236.672012
 20
168.500168
 30
0.0
 11
238.672012
 21
166.500168
 31
0.0
  0
LINE
  5
4B6
  8
0
 62
     2
 10
238.79333500000001
 20
168.500168
 30
0.0
 11
240.7933349999999
 21
166.500168
 31
0.0
  0
LINE
  5
4B7
  8
0
 62
     2
 10
240.914658
 20
168.500168
 30
0.0
 11
242.914658
 21
166.500168
 31
0.0
  0
LINE
  5
4B8
  8
0
 62
     2
 10
243.03598
 20
168.500168
 30
0.0
 11
245.03598
 21
166.500168
 31
0.0
  0
LINE
  5
4B9
  8
0
 62
     2
 10
245.15728799999999
 20
168.500168
 30
0.0
 11
247.15728799999999
 21
166.500168
 31
0.0
  0
LINE
  5
4BA
  8
0
 62
     2
 10
247.2786099999999
 20
168.500168
 30
0.0
 11
249.27860999999999
 21
166.500168
 31
0.0
  0
LINE
  5
4BB
  8
0
 62
     2
 10
249.399933
 20
168.500168
 30
0.0
 11
251.399933
 21
166.500168
 31
0.0
  0
LINE
  5
4BC
  8
0
 62
     2
 10
251.52125499999991
 20
168.500168
 30
0.0
 11
253.52125499999991
 21
166.500168
 31
0.0
  0
LINE
  5
4BD
  8
0
 62
     2
 10
253.64257799999999
 20
168.500168
 30
0.0
 11
255.64257799999999
 21
166.500168
 31
0.0
  0
LINE
  5
4BE
  8
0
 62
     2
 10
255.76390099999989
 20
168.500168
 30
0.0
 11
257.31372099999999
 21
166.95034799999991
 31
0.0
  0
LINE
  5
4BF
  8
0
 62
     2
 10
257.88522299999988
 20
168.500168
 30
0.0
 11
257.94558699999988
 21
168.43978899999991
 31
0.0
  0
ENDBLK
  5
4C0
  8
0
  0
BLOCK
  8
0
  2
BLOCK24
 70
     0
 10
0.0
 20
0.0
 30
0.0
  3
BLOCK24
  1

  0
LINE
  5
4C2
  8
0
 62
     2
 10
173.03240999999991
 20
168.500168
 30
0.0
 11
175.03241
 21
166.500168
 31
0.0
  0
LINE
  5
4C3
  8
0
 62
     2
 10
175.15373199999999
 20
168.500168
 30
0.0
 11
177.15373199999999
 21
166.500168
 31
0.0
  0
LINE
  5
4C4
  8
0
 62
     2
 10
177.27505500000001
 20
168.500168
 30
0.0
 11
177.48043799999991
 21
168.29478499999999
 31
0.0
  0
ENDBLK
  5
4C5
  8
0
  0
BLOCK
  8
0
  2
BLOCK25
 70
     0
 10
0.0
 20
0.0
 30
0.0
  3
BLOCK25
  1

  0
LINE
  5
4C7
  8
0
 62
     2
 10
42.480434000000002
 20
167.5302889999999
 30
0.0
 11
43.510554999999997
 21
166.500168
 31
0.0
  0
LINE
  5
4C8
  8
0
 62
     2
 10
43.631874000000003
 20
168.500168
 30
0.0
 11
45.631873999999989
 21
166.500168
 31
0.0
  0
LINE
  5
4C9
  8
0
 62
     2
 10
45.753197
 20
168.500168
 30
0.0
 11
46.980441999999996
 21
167.272919
 31
0.0
  0
ENDBLK
  5
4CA
  8
0
  0
BLOCK
  8
0
  2
BLOCK26
 70
     0
 10
0.0
 20
0.0
 30
0.0
  3
BLOCK26
  1

  0
LINE
  5
4CC
  8
0
 62
     2
 10
-13.64377
 20
168.500168
 30
0.0
 11
-11.643770999999999
 21
166.500168
 31
0.0
  0
LINE
  5
4CD
  8
0
 62
     2
 10
-11.52244999999999
 20
168.500168
 30
0.0
 11
-9.5224499999999992
 21
166.500168
 31
0.0
  0
LINE
  5
4CE
  8
0
 62
     2
 10
-9.4011309999999995
 20
168.500168
 30
0.0
 11
-7.4011309999999986
 21
166.500168
 31
0.0
  0
LINE
  5
4CF
  8
0
 62
     2
 10
-7.2798100000000003
 20
168.500168
 30
0.0
 11
-5.2798099999999986
 21
166.500168
 31
0.0
  0
LINE
  5
4D0
  8
0
 62
     2
 10
-5.1584899999999996
 20
168.500168
 30
0.0
 11
-3.15849
 21
166.500168
 31
0.0
  0
LINE
  5
4D1
  8
0
 62
     2
 10
-3.0371700000000001
 20
168.500168
 30
0.0
 11
-1.0371699999999999
 21
166.500168
 31
0.0
  0
LINE
  5
4D2
  8
0
 62
     2
 10
-0.915849
 20
168.500168
 30
0.0
 11
1.0841499999999991
 21
166.500168
 31
0.0
  0
LINE
  5
4D3
  8
0
 62
     2
 10
1.2054709999999991
 20
168.500168
 30
0.0
 11
3.2054709999999988
 21
166.500168
 31
0.0
  0
LINE
  5
4D4
  8
0
 62
     2
 10
3.3267910000000001
 20
168.500168
 30
0.0
 11
5.3267910000000001
 21
166.500168
 31
0.0
  0
LINE
  5
4D5
  8
0
 62
     2
 10
5.448110999999999
 20
168.500168
 30
0.0
 11
7.448110999999999
 21
166.500168
 31
0.0
  0
LINE
  5
4D6
  8
0
 62
     2
 10
7.5694309999999989
 20
168.500168
 30
0.0
 11
9.5694309999999998
 21
166.500168
 31
0.0
  0
LINE
  5
4D7
  8
0
 62
     2
 10
9.6907519999999998
 20
168.500168
 30
0.0
 11
11.69075099999999
 21
166.500168
 31
0.0
  0
LINE
  5
4D8
  8
0
 62
     2
 10
11.812072000000001
 20
168.500168
 30
0.0
 11
13.812072000000001
 21
166.500168
 31
0.0
  0
LINE
  5
4D9
  8
0
 62
     2
 10
13.933392
 20
168.500168
 30
0.0
 11
15.933392
 21
166.500168
 31
0.0
  0
LINE
  5
4DA
  8
0
 62
     2
 10
16.054711999999999
 20
168.500168
 30
0.0
 11
18.054711999999991
 21
166.500168
 31
0.0
  0
LINE
  5
4DB
  8
0
 62
     2
 10
18.176033
 20
168.500168
 30
0.0
 11
20.176033
 21
166.500168
 31
0.0
  0
LINE
  5
4DC
  8
0
 62
     2
 10
20.297352
 20
168.500168
 30
0.0
 11
22.297351999999989
 21
166.500168
 31
0.0
  0
LINE
  5
4DD
  8
0
 62
     2
 10
22.418672999999998
 20
168.500168
 30
0.0
 11
24.418672999999998
 21
166.500168
 31
0.0
  0
LINE
  5
4DE
  8
0
 62
     2
 10
24.539992999999988
 20
168.500168
 30
0.0
 11
26.539992999999999
 21
166.500168
 31
0.0
  0
LINE
  5
4DF
  8
0
 62
     2
 10
26.661314000000001
 20
168.500168
 30
0.0
 11
28.661311999999992
 21
166.500168
 31
0.0
  0
LINE
  5
4E0
  8
0
 62
     2
 10
28.782633000000001
 20
168.500168
 30
0.0
 11
30.782633000000001
 21
166.500168
 31
0.0
  0
LINE
  5
4E1
  8
0
 62
     2
 10
30.903953999999999
 20
168.500168
 30
0.0
 11
32.903953999999992
 21
166.500168
 31
0.0
  0
LINE
  5
4E2
  8
0
 62
     2
 10
33.025271999999987
 20
168.500168
 30
0.0
 11
35.025271999999987
 21
166.500168
 31
0.0
  0
LINE
  5
4E3
  8
0
 62
     2
 10
35.146594999999998
 20
168.500168
 30
0.0
 11
35.480434000000002
 21
168.1663209999999
 31
0.0
  0
ENDBLK
  5
4E4
  8
0
  0
BLOCK
  8
0
  2
BLOCK27
 70
     0
 10
0.0
 20
0.0
 30
0.0
  3
BLOCK27
  1

  0
TEXT
  5
4E6
  8
0
 62
     1
 10
-257.15213
 20
11.999998
 30
0.0
 40
2.0
  1
N0204 2007-09-17
 50
179.9999903280877
 41
1.101769307340638
 72
     5
 11
-280.84787
 21
12.000002
 31
0.0
  0
ENDBLK
  5
4E7
  8
0
  0
BLOCK
  8
0
  2
BLOCK28
 70
     0
 10
0.0
 20
0.0
 30
0.0
  3
BLOCK28
  1

  0
TEXT
  5
4E9
  8
0
 62
     1
 10
-322.15002399999997
 20
13.499999000000001
 30
0.0
 40
3.0
  1
Ts3
 50
179.9999925589722
 41
1.225767462097461
 72
     5
 11
-329.85000600000001
 21
13.5
 31
0.0
  0
ENDBLK
  5
4EA
  8
0
  0
BLOCK
  8
0
  2
BLOCK29
 70
     0
 10
0.0
 20
0.0
 30
0.0
  3
BLOCK29
  1

  0
TEXT
  5
4EC
  8
0
 62
     1
 10
-303.06289700000002
 20
21.999995999999989
 30
0.0
 40
4.0
  1
1SDH000637R0.126
 50
179.99999009994539
 41
1.3522508301137179
 72
     5
 11
-360.93710299999992
 21
22.000005999999999
 31
0.0
  0
ENDBLK
  5
4ED
  8
0
  0
BLOCK
  8
0
  2
BLOCK30
 70
     0
 10
0.0
 20
0.0
 30
0.0
  3
BLOCK30
  1

  0
TEXT
  5
4EF
  8
0
 62
     1
 10
-301.0
 20
-5.0
 30
0.0
 40
2.2000000000000002
  1
3-4POLE LOW VOLTAGE M.C.C.B SERIES ISOMAX WITHDRAWABLE
 50
179.9999782316722
 41
0.7231827499701874
 72
     5
 11
-361.53762799999993
 21
-4.9999769999999986
 31
0.0
  0
ENDBLK
  5
4F0
  8
0
  0
BLOCK
  8
0
  2
BLOCK31
 70
     0
 10
0.0
 20
0.0
 30
0.0
  3
BLOCK31
  1

  0
TEXT
  5
4F2
  8
0
 62
     1
 10
-311.0
 20
-2.0
 30
0.0
 40
2.2000000000000002
  1
WITH OPERATING MECHANISM WITHDRAWABLE
 50
179.999977861335
 41
0.6907199499583504
 72
     5
 11
-352.40866099999988
 21
-1.9999839999999991
 31
0.0
  0
ENDBLK
  5
4F3
  8
0
  0
BLOCK
  8
0
  2
BLOCK32
 70
     0
 10
0.0
 20
0.0
 30
0.0
  3
BLOCK32
  1

  0
TEXT
  5
4F5
  8
0
 62
     1
 10
-295.0
 20
4.0
 30
0.0
 40
2.2000000000000002
  1
INTERR. AUTOMATICO SERIE ISOMAX TRIP. TETRAP.
 50
179.99997783663409
 41
1.0167006655574811
 72
     5
 11
-362.21408100000002
 21
4.0000260000000001
 31
0.0
  0
ENDBLK
  5
4F6
  8
0
  0
BLOCK
  8
0
  2
BLOCK33
 70
     0
 10
0.0
 20
0.0
 30
0.0
  3
BLOCK33
  1

  0
TEXT
  5
4F8
  8
0
 62
     1
 10
-298.0
 20
7.0
 30
0.0
 40
2.2000000000000002
  1
CON COMANDO A MOTORE ESECUZIONE ESTRAIBILE
 50
179.99997807319451
 41
0.9679446673870137
 72
     5
 11
-360.71313500000002
 21
7.0000239999999998
 31
0.0
  0
ENDBLK
  5
4F9
  8
0
  0
BLOCK
  8
0
  2
BLOCK34
 70
     0
 10
0.0
 20
0.0
 30
0.0
  3
BLOCK34
  1

  0
TEXT
  5
4FB
  8
0
 62
     7
 10
-2.0
 20
182.0
 30
0.0
 40
3.0
  1
X
 50
90.0
 41
0.9777764444444425
 72
     5
 11
-2.0
 21
184.19999699999991
 31
0.0
  0
ENDBLK
  5
4FC
  8
0
  0
BLOCK
  8
0
  2
BLOCK35
 70
     0
 10
0.0
 20
0.0
 30
0.0
  3
BLOCK35
  1

  0
TEXT
  5
4FE
  8
0
 62
     7
 10
-153.0
 20
-1.0
 30
0.0
 40
3.0
  1
Y
 50
90.0
 41
0.9777777777777778
 72
     5
 11
-153.0
 21
1.1999999999999991
 31
0.0
  0
ENDBLK
  5
4FF
  8
0
  0
BLOCK
  8
0
  2
BLOCK36
 70
     0
 10
0.0
 20
0.0
 30
0.0
  3
BLOCK36
  1

  0
TEXT
  5
501
  8
0
 62
     7
 10
208.0
 20
-2.0
 30
0.0
 40
3.0
  1
Y
 50
90.0
 41
0.9777777777777778
 72
     5
 11
208.0
 21
0.2
 31
0.0
  0
ENDBLK
  5
502
  8
0
  0
BLOCK
  8
0
  2
BLOCK37
 70
     0
 10
0.0
 20
0.0
 30
0.0
  3
BLOCK37
  1

  0
TEXT
  5
504
  8
0
 62
     7
 10
-142.934662
 20
20.5
 30
0.0
 40
3.0
  1
63
 50
90.0
 41
1.2776591662854091
 72
     5
 11
-142.934662
 21
25.449988999999999
 31
0.0
  0
ENDBLK
  5
505
  8
0
  0
BLOCK
  8
0
  2
BLOCK38
 70
     0
 10
0.0
 20
0.0
 30
0.0
  3
BLOCK38
  1

  0
TEXT
  5
507
  8
0
 62
     7
 10
-175.88305700000001
 20
-21.0
 30
0.0
 40
3.0
  1
135
 50
90.0
 41
1.432750587160017
 72
     5
 11
-175.88305700000001
 21
-13.30002
 31
0.0
  0
ENDBLK
  5
508
  8
0
  0
BLOCK
  8
0
  2
BLOCK39
 70
     0
 10
0.0
 20
0.0
 30
0.0
  3
BLOCK39
  1

  0
TEXT
  5
50A
  8
0
 62
     7
 10
106.68836999999991
 20
29.5
 30
0.0
 40
3.0
  1
81
 50
90.0
 41
1.571425079365079
 72
     5
 11
106.68836999999991
 21
34.449989000000002
 31
0.0
  0
ENDBLK
  5
50B
  8
0
  0
BLOCK
  8
0
  2
BLOCK40
 70
     0
 10
0.0
 20
0.0
 30
0.0
  3
BLOCK40
  1

  0
TEXT
  5
50D
  8
0
 62
     7
 10
138.45869400000001
 20
2.0
 30
0.0
 40
3.0
  1
125
 50
90.0
 41
1.432750587160017
 72
     5
 11
138.45869400000001
 21
9.69998
 31
0.0
  0
ENDBLK
  5
50E
  8
0
  0
BLOCK
  8
0
  2
BLOCK41
 70
     0
 10
0.0
 20
0.0
 30
0.0
  3
BLOCK41
  1

  0
TEXT
  5
510
  8
0
 62
     7
 10
-15.944335999999989
 20
36.0
 30
0.0
 40
3.0
  1
94
 50
89.99997685013868
 41
1.2190640892680471
 72
     5
 11
-15.944333999999991
 21
40.949989000000002
 31
0.0
  0
ENDBLK
  5
511
  8
0
  0
BLOCK
  8
0
  2
BLOCK42
 70
     0
 10
0.0
 20
0.0
 30
0.0
  3
BLOCK42
  1

  0
TEXT
  5
513
  8
0
 62
     7
 10
40.158951000000002
 20
28.069884999999999
 30
0.0
 40
3.0
  1
16
 50
179.9999537002866
 41
1.5005340255405331
 72
     5
 11
35.208960999999988
 21
28.069889
 31
0.0
  0
ENDBLK
  5
514
  8
0
  0
BLOCK
  8
0
  2
BLOCK43
 70
     0
 10
0.0
 20
0.0
 30
0.0
  3
BLOCK43
  1

  0
TEXT
  5
516
  8
0
 62
     7
 10
18.75
 20
189.90100099999989
 30
0.0
 40
3.0
  1
142
 50
180.0
 41
1.3437594995413831
 72
     5
 11
11.05002
 21
189.90100099999989
 31
0.0
  0
ENDBLK
  5
517
  8
0
  0
BLOCK
  8
0
  2
BLOCK44
 70
     0
 10
0.0
 20
0.0
 30
0.0
  3
BLOCK44
  1

  0
TEXT
  5
519
  8
0
 62
     7
 10
18.75
 20
-120.5733639999999
 30
0.0
 40
3.0
  1
126
 50
179.99994791279249
 41
1.4262341719542091
 72
     5
 11
11.05002
 21
-120.573357
 31
0.0
  0
ENDBLK
  5
51A
  8
0
  0
BLOCK
  8
0
  2
BLOCK45
 70
     0
 10
0.0
 20
0.0
 30
0.0
  3
BLOCK45
  1

  0
TEXT
  5
51C
  8
0
 62
     7
 10
-9.75
 20
152.3334659999999
 30
0.0
 40
3.0
  1
27,25
 50
179.99993489096721
 41
1.446687743866663
 72
     5
 11
-22.949960999999998
 21
152.33348100000001
 31
0.0
  0
ENDBLK
  5
51D
  8
0
  0
BLOCK
  8
0
  2
BLOCK46
 70
     0
 10
0.0
 20
0.0
 30
0.0
  3
BLOCK46
  1

  0
TEXT
  5
51F
  8
0
 62
     7
 10
177.289063
 20
11.937041999999989
 30
0.0
 40
3.0
  1
R min.200
 50
90.0
 41
1.5075613602138671
 72
     5
 11
177.289063
 21
36.136963000000002
 31
0.0
  0
ENDBLK
  5
520
  8
0
  0
BLOCK
  8
0
  2
BLOCK47
 70
     0
 10
0.0
 20
0.0
 30
0.0
  3
BLOCK47
  1

  0
TEXT
  5
522
  8
0
 62
     7
 10
-108.81523899999991
 20
-101.287834
 30
0.0
 40
3.0
  1
7
 50
55.851747170891556
 41
1.333333807883661
 72
     5
 11
-107.5802989999999
 21
-99.467140000000001
 31
0.0
  0
TEXT
  5
523
  8
0
 62
     7
 10
-111.06057
 20
-104.598198
 30
0.0
 40
3.0
  1
%%c
 50
55.851886663685413
 41
1.3333361464833291
 72
     5
 11
-109.3765639999999
 21
-102.1154249999999
 31
0.0
  0
POLYLINE
  5
524
  8
0
 62
     7
 66
     1
 10
0.0
 20
0.0
 30
0.0
  0
VERTEX
  5
676
  8
0
 62
     7
 10
-67.441353000000007
 20
-42.992783000000003
 30
0.0
  0
VERTEX
  5
677
  8
0
 62
     7
 10
-66.785331999999997
 20
-41.103436000000002
 30
0.0
  0
VERTEX
  5
678
  8
0
 62
     7
 10
-68.298141000000001
 20
-42.411647999999992
 30
0.0
  0
SEQEND
  5
679
  8
0
 62
     7
  0
POLYLINE
  5
529
  8
0
 62
     7
 66
     1
 10
0.0
 20
0.0
 30
0.0
  0
VERTEX
  5
67A
  8
0
 62
     7
 10
-70.058646999999993
 20
-45.00721699999999
 30
0.0
  0
VERTEX
  5
67B
  8
0
 62
     7
 10
-70.714668000000003
 20
-46.896563999999991
 30
0.0
  0
VERTEX
  5
67C
  8
0
 62
     7
 10
-69.201858999999985
 20
-45.588351999999993
 30
0.0
  0
SEQEND
  5
67D
  8
0
 62
     7
  0
LINE
  5
52E
  8
0
 62
     7
 10
-110.2329789999999
 20
-105.1595309999999
 30
0.0
 11
-66.785331999999997
 21
-41.103436000000002
 31
0.0
  0
ENDBLK
  5
52F
  8
0
  0
BLOCK
  8
0
  2
BLOCK48
 70
     0
 10
0.0
 20
0.0
 30
0.0
  3
BLOCK48
  1

  0
TEXT
  5
531
  8
0
 62
     7
 10
105.507576
 20
135.92184399999999
 30
0.0
 40
3.0
  1
7
 50
58.67300462342974
 41
1.333334957267615
 72
     5
 11
106.651405
 21
137.801117
 31
0.0
  0
TEXT
  5
532
  8
0
 62
     7
 10
103.42791
 20
132.504974
 30
0.0
 40
3.0
  1
%%c
 50
58.673309495024377
 41
1.333334801437563
 72
     5
 11
104.9876629999999
 21
135.06762699999999
 31
0.0
  0
POLYLINE
  5
533
  8
0
 62
     7
 66
     1
 10
0.0
 20
0.0
 30
0.0
  0
VERTEX
  5
67E
  8
0
 62
     7
 10
70.868049999999997
 20
76.090896999999998
 30
0.0
  0
VERTEX
  5
67F
  8
0
 62
     7
 10
71.430283000000003
 20
78.010245999999995
 30
0.0
  0
VERTEX
  5
680
  8
0
 62
     7
 10
69.983704000000003
 20
76.62915799999999
 30
0.0
  0
SEQEND
  5
681
  8
0
 62
     7
  0
POLYLINE
  5
538
  8
0
 62
     7
 66
     1
 10
0.0
 20
0.0
 30
0.0
  0
VERTEX
  5
682
  8
0
 62
     7
 10
75.631950000000003
 20
85.909103000000002
 30
0.0
  0
VERTEX
  5
683
  8
0
 62
     7
 10
75.069716999999997
 20
83.989754000000005
 30
0.0
  0
VERTEX
  5
684
  8
0
 62
     7
 10
76.516295999999997
 20
85.370841999999996
 30
0.0
  0
SEQEND
  5
685
  8
0
 62
     7
  0
LINE
  5
53D
  8
0
 62
     7
 10
68.830687999999995
 20
73.739165999999997
 30
0.0
 11
107.50561499999991
 21
137.2811889999999
 31
0.0
  0
ENDBLK
  5
53E
  8
0
  0
BLOCK
  8
0
  2
BLOCK49
 70
     0
 10
0.0
 20
0.0
 30
0.0
  3
BLOCK49
  1

  0
TEXT
  5
540
  8
0
 62
     7
 10
-161.41625999999999
 20
168.32591199999999
 30
0.0
 40
3.0
  1
8
 50
136.2494211711759
 41
1.3333221349127371
 72
     5
 11
-163.00543200000001
 21
169.8472439999999
 31
0.0
  0
TEXT
  5
541
  8
0
 62
     7
 10
-159.1047209999999
 20
166.11305200000001
 30
0.0
 40
3.0
  1
%%c
 50
136.2494211711759
 41
0.9777695656026917
 72
     5
 11
-160.693893
 21
167.63438400000001
 31
0.0
  0
TEXT
  5
542
  8
0
 62
     7
 10
-146.680161
 20
154.218918
 30
0.0
 40
3.0
  1
3 fori
 50
136.2495453454593
 41
1.7142859646969479
 72
     5
 11
-158.38237000000001
 21
165.42152400000001
 31
0.0
  0
POLYLINE
  5
543
  8
0
 62
     7
 66
     1
 10
0.0
 20
0.0
 30
0.0
  0
VERTEX
  5
686
  8
0
 62
     7
 10
-67.614013999999997
 20
79.195914999999999
 30
0.0
  0
VERTEX
  5
687
  8
0
 62
     7
 10
-65.860573000000002
 20
78.233924999999999
 30
0.0
  0
VERTEX
  5
688
  8
0
 62
     7
 10
-66.898102000000009
 20
79.943756000000008
 30
0.0
  0
SEQEND
  5
689
  8
0
 62
     7
  0
POLYLINE
  5
548
  8
0
 62
     7
 66
     1
 10
0.0
 20
0.0
 30
0.0
  0
VERTEX
  5
68A
  8
0
 62
     7
 10
-69.885986000000003
 20
82.804085000000001
 30
0.0
  0
VERTEX
  5
68B
  8
0
 62
     7
 10
-71.639426999999984
 20
83.766075000000001
 30
0.0
  0
VERTEX
  5
68C
  8
0
 62
     7
 10
-70.601897999999991
 20
82.056243999999992
 30
0.0
  0
SEQEND
  5
68D
  8
0
 62
     7
  0
LINE
  5
54D
  8
0
 62
     7
 10
-162.313919
 20
170.56961100000001
 30
0.0
 11
-65.860573000000002
 21
78.233924999999999
 31
0.0
  0
ENDBLK
  5
54E
  8
0
  0
ENDSEC
  0
SECTION
  2
ENTITIES
  0
LINE
  5
25
  8
0
  6
DASHSPACE
 62
     4
 10
218.79163600000001
 20
457.60369500000002
 30
0.0
 11
249.29168299999989
 21
457.60369500000002
 31
0.0
  0
LINE
  5
26
  8
0
  6
DASHSPACE
 62
     4
 10
218.79163600000001
 20
602.35371399999997
 30
0.0
 11
249.291687
 21
602.35371399999997
 31
0.0
  0
LINE
  5
27
  8
0
  6
DASHSPACE
 62
     4
 10
249.291687
 20
457.60369500000002
 30
0.0
 11
249.291687
 21
602.35371399999997
 31
0.0
  0
LINE
  5
28
  8
0
  6
DASHSPACE
 62
     4
 10
250.29166799999999
 20
515.35366799999997
 30
0.0
 11
250.29166799999999
 21
535.35366799999986
 31
0.0
  0
LINE
  5
29
  8
0
 62
     7
 10
218.79148799999999
 20
607.59760999999992
 30
0.0
 11
218.79148799999999
 21
615.57679699999994
 31
0.0
  0
LINE
  5
2A
  8
0
 62
     7
 10
113.7917709999999
 20
609.92227200000002
 30
0.0
 11
113.7917709999999
 21
612.39872700000001
 31
0.0
  0
LINE
  5
2B
  8
0
 62
   211
 10
113.791634
 20
474.84727500000002
 30
0.0
 11
113.791634
 21
475.09728999999999
 31
0.0
  0
LINE
  5
2C
  8
0
 62
   211
 10
113.791634
 20
493.09729799999991
 30
0.0
 11
113.791634
 21
494.09729800000002
 31
0.0
  0
LINE
  5
2D
  8
0
 62
   211
 10
113.791634
 20
506.09729800000002
 30
0.0
 11
113.791634
 21
507.09729800000002
 31
0.0
  0
LINE
  5
2E
  8
0
 62
   211
 10
113.791634
 20
526.59729799999991
 30
0.0
 11
113.791634
 21
527.59729800000002
 31
0.0
  0
LINE
  5
2F
  8
0
 62
   211
 10
113.791634
 20
539.59729000000004
 30
0.0
 11
113.791634
 21
540.59729000000004
 31
0.0
  0
LINE
  5
30
  8
0
 62
   211
 10
113.791634
 20
579.09729000000004
 30
0.0
 11
113.791634
 21
579.34727499999985
 31
0.0
  0
LINE
  5
31
  8
0
 62
   211
 10
218.79163600000001
 20
474.84727500000002
 30
0.0
 11
218.79163600000001
 21
475.09728999999999
 31
0.0
  0
LINE
  5
32
  8
0
 62
   211
 10
218.79163600000001
 20
579.09729000000004
 30
0.0
 11
218.79163600000001
 21
579.34727499999985
 31
0.0
  0
LINE
  5
33
  8
0
 62
   211
 10
218.7184189999999
 20
579.52401699999984
 30
0.0
 11
218.79163099999991
 21
579.34726000000001
 31
0.0
  0
LINE
  5
34
  8
0
 62
   211
 10
113.791634
 20
579.34726000000001
 30
0.0
 11
113.8648529999999
 21
579.52403300000003
 31
0.0
  0
LINE
  5
35
  8
0
 62
   211
 10
113.791634
 20
474.84727500000002
 30
0.0
 11
113.864861
 21
474.67049800000001
 31
0.0
  0
LINE
  5
36
  8
0
 62
   211
 10
218.71841499999991
 20
474.67050899999992
 30
0.0
 11
218.791642
 21
474.84727900000001
 31
0.0
  0
LINE
  5
37
  8
0
  6
DASHSPACE
 62
     4
 10
249.29168299999989
 20
535.35366799999986
 30
0.0
 11
250.29166799999999
 21
535.35366799999986
 31
0.0
  0
LINE
  5
38
  8
0
  6
DASHSPACE
 62
     4
 10
249.2916679999999
 20
515.35366799999997
 30
0.0
 11
250.29166799999999
 21
515.35366799999997
 31
0.0
  0
LINE
  5
39
  8
0
 62
     2
 10
113.791382
 20
494.09729800000002
 30
0.0
 11
113.7914429999999
 21
506.09729800000002
 31
0.0
  0
LINE
  5
3A
  8
0
 62
     2
 10
113.79132799999999
 20
526.59729799999991
 30
0.0
 11
113.7914429999999
 21
507.09729800000002
 31
0.0
  0
LINE
  5
3B
  8
0
 62
     2
 10
113.79132799999999
 20
527.59729800000002
 30
0.0
 11
113.7913889999999
 21
539.59729800000002
 31
0.0
  0
LINE
  5
3C
  8
0
 62
     2
 10
113.7913889999999
 20
540.59729800000002
 30
0.0
 11
113.791634
 21
579.09729000000004
 31
0.0
  0
CIRCLE
  5
3D
  8
0
 62
     4
 10
235.79196599999989
 20
499.85357699999997
 30
0.0
 40
5.2498189999999996
  0
LINE
  5
3E
  8
0
  6
DASHDOT
 62
     1
 10
166.291798
 20
426.54474199999999
 30
0.0
 11
166.291798
 21
633.59214799999995
 31
0.0
  0
LINE
  5
3F
  8
0
  6
DASHDOT
 62
     1
 10
235.79196599999989
 20
491.60376000000002
 30
0.0
 11
235.79196599999989
 21
508.10339399999998
 31
0.0
  0
LINE
  5
40
  8
0
 62
     7
 10
114.29180100000001
 20
579.60391200000004
 30
0.0
 11
218.291799
 21
579.60391200000004
 31
0.0
  0
LINE
  5
41
  8
0
 62
     7
 10
114.29180100000001
 20
474.60391199999998
 30
0.0
 11
218.291799
 21
474.60391199999998
 31
0.0
  0
LINE
  5
42
  8
0
 62
     7
 10
113.79180100000001
 20
475.10391199999998
 30
0.0
 11
113.79180100000001
 21
579.10391200000004
 31
0.0
  0
LINE
  5
43
  8
0
 62
     7
 10
218.791799
 20
475.10391199999998
 30
0.0
 11
218.791799
 21
579.10391200000004
 31
0.0
  0
ARC
  5
44
  8
0
 62
     7
 10
114.29180100000001
 20
579.10391200000004
 30
0.0
 40
0.5
 50
90.000003000000007
 51
180.00000499999999
  0
ARC
  5
45
  8
0
 62
     7
 10
218.291799
 20
579.10391200000004
 30
0.0
 40
0.5
 50
0.0
 51
90.000003000000007
  0
ARC
  5
46
  8
0
 62
     7
 10
218.291799
 20
475.10391199999998
 30
0.0
 40
0.5
 50
270.000001
 51
360.0
  0
ARC
  5
47
  8
0
 62
     7
 10
114.29180100000001
 20
475.10391199999998
 30
0.0
 40
0.5
 50
180.00000499999999
 51
270.000001
  0
LINE
  5
48
  8
0
 62
     7
 10
114.54180099999989
 20
578.85391200000004
 30
0.0
 11
218.041799
 21
578.85391200000004
 31
0.0
  0
LINE
  5
49
  8
0
 62
     7
 10
114.54180099999989
 20
475.35391199999998
 30
0.0
 11
218.041799
 21
475.35391199999998
 31
0.0
  0
LINE
  5
4A
  8
0
 62
     7
 10
114.54180099999989
 20
475.35391199999998
 30
0.0
 11
114.54180099999989
 21
578.85391200000004
 31
0.0
  0
LINE
  5
4B
  8
0
 62
     7
 10
218.041799
 20
475.35391199999998
 30
0.0
 11
218.041799
 21
578.85391200000004
 31
0.0
  0
LINE
  5
4C
  8
0
 62
     7
 10
114.54180099999989
 20
567.60391200000004
 30
0.0
 11
218.041799
 21
567.60391200000004
 31
0.0
  0
LINE
  5
4D
  8
0
 62
     7
 10
114.54180099999989
 20
577.60391200000004
 30
0.0
 11
218.041799
 21
577.60391200000004
 31
0.0
  0
LINE
  5
4E
  8
0
 62
     7
 10
184.291798
 20
475.35391199999998
 30
0.0
 11
184.291798
 21
567.60391200000004
 31
0.0
  0
LINE
  5
4F
  8
0
 62
     7
 10
214.29179999999991
 20
475.35391199999998
 30
0.0
 11
214.29179999999991
 21
567.60391200000004
 31
0.0
  0
LINE
  5
50
  8
0
 62
     7
 10
183.29179799999989
 20
475.35391199999998
 30
0.0
 11
183.29179799999989
 21
567.60391200000004
 31
0.0
  0
LINE
  5
51
  8
0
 62
     7
 10
215.29179999999999
 20
475.35391199999998
 30
0.0
 11
215.29179999999999
 21
567.60391200000004
 31
0.0
  0
CIRCLE
  5
52
  8
0
 62
     7
 10
199.29179999999991
 20
549.10391200000004
 30
0.0
 40
10.749999999999989
  0
CIRCLE
  5
53
  8
0
 62
     7
 10
199.29179999999991
 20
499.80390899999992
 30
0.0
 40
10.749999999999989
  0
LINE
  5
54
  8
0
  6
DASHDOT
 62
     1
 10
199.29179999999991
 20
535.35391200000004
 30
0.0
 11
199.29179999999991
 21
562.85391200000004
 31
0.0
  0
LINE
  5
55
  8
0
  6
DASHDOT
 62
     1
 10
185.541798
 20
549.10391200000004
 30
0.0
 11
213.04179999999999
 21
549.10391200000004
 31
0.0
  0
LINE
  5
56
  8
0
  6
DASHDOT
 62
     1
 10
199.29179999999991
 20
486.05390899999992
 30
0.0
 11
199.29179999999991
 21
513.55390899999986
 31
0.0
  0
LINE
  5
57
  8
0
  6
DASHDOT
 62
     1
 10
185.541798
 20
499.80390899999992
 30
0.0
 11
244.68509700000001
 21
499.80390899999992
 31
0.0
  0
ARC
  5
58
  8
0
 62
     7
 10
146.04180099999991
 20
504.10391199999998
 30
0.0
 40
5.25
 50
0.0
 51
180.00000499999999
  0
ARC
  5
59
  8
0
 62
     7
 10
146.04180099999991
 20
494.10391199999998
 30
0.0
 40
5.25
 50
1.56166
 51
360.0
  0
LINE
  5
5A
  8
0
 62
     7
 10
151.29180099999991
 20
494.10391199999998
 30
0.0
 11
151.29180099999991
 21
504.10391199999998
 31
0.0
  0
LINE
  5
5B
  8
0
 62
     7
 10
140.79180099999991
 20
494.10391199999998
 30
0.0
 11
140.79180099999991
 21
504.10391199999998
 31
0.0
  0
LINE
  5
5C
  8
0
  6
DASHDOT
 62
     1
 10
146.04180099999991
 20
485.85391199999998
 30
0.0
 11
146.04180099999991
 21
502.35391199999998
 31
0.0
  0
LINE
  5
5D
  8
0
  6
DASHDOT
 62
     1
 10
137.79180099999991
 20
494.10391199999998
 30
0.0
 11
154.29180099999991
 21
494.10391199999998
 31
0.0
  0
LINE
  5
5E
  8
0
 62
     7
 10
140.8879169999999
 20
495.10391199999998
 30
0.0
 11
151.19567900000001
 21
495.10391199999998
 31
0.0
  0
LINE
  5
5F
  8
0
 62
     7
 10
140.8879169999999
 20
493.10391199999998
 30
0.0
 11
151.19567900000001
 21
493.10391199999998
 31
0.0
  0
LINE
  5
60
  8
0
 62
     7
 10
206.54179999999999
 20
535.85391200000004
 30
0.0
 11
209.04179999999999
 21
535.85391200000004
 31
0.0
  0
LINE
  5
61
  8
0
 62
     7
 10
206.54179999999999
 20
518.35391200000004
 30
0.0
 11
209.04179999999999
 21
518.35391200000004
 31
0.0
  0
LINE
  5
62
  8
0
 62
     7
 10
206.54179999999999
 20
518.35391200000004
 30
0.0
 11
206.54179999999999
 21
535.85391200000004
 31
0.0
  0
LINE
  5
63
  8
0
 62
     7
 10
209.04179999999999
 20
518.35391200000004
 30
0.0
 11
209.04179999999999
 21
535.85391200000004
 31
0.0
  0
LINE
  5
64
  8
0
 62
     1
 10
134.04180099999999
 20
559.10391200000004
 30
0.0
 11
134.04180099999999
 21
565.46392800000001
 31
0.0
  0
LINE
  5
65
  8
0
 62
     1
 10
134.04180099999999
 20
559.10391200000004
 30
0.0
 11
140.54180099999991
 21
559.10391200000004
 31
0.0
  0
LINE
  5
66
  8
0
 62
     1
 10
140.54180099999991
 20
520.22924
 30
0.0
 11
140.54180099999991
 21
559.10391200000004
 31
0.0
  0
ARC
  5
67
  8
0
 62
     1
 10
146.04180099999991
 20
544.10391200000004
 30
0.0
 40
23.0
 50
146.0000039999999
 51
256.16476899999998
  0
ARC
  5
68
  8
0
 62
     1
 10
146.04180099999991
 20
544.10391200000004
 30
0.0
 40
24.5
 50
119.327175
 51
257.02712200000002
  0
LINE
  5
69
  8
0
 62
     1
 10
125.730377
 20
557.80413799999997
 30
0.0
 11
126.9739379999999
 21
556.96534699999995
 31
0.0
  0
LINE
  5
6A
  8
0
 62
     1
 10
127.04180099999989
 20
544.10391200000004
 30
0.0
 11
134.54180099999991
 21
551.60391200000004
 31
0.0
  0
LINE
  5
6B
  8
0
 62
     1
 10
127.04180099999989
 20
544.10391200000004
 30
0.0
 11
134.54180099999991
 21
536.60391200000004
 31
0.0
  0
LINE
  5
6C
  8
0
 62
     1
 10
134.54180099999991
 20
536.60391200000004
 30
0.0
 11
134.54180099999991
 21
551.60391200000004
 31
0.0
  0
ARC
  5
6D
  8
0
 62
     1
 10
146.04180099999991
 20
544.10391200000004
 30
0.0
 40
22.5
 50
284.14901099999992
 51
75.850992000000005
  0
LINE
  5
6E
  8
0
 62
     1
 10
151.54180099999991
 20
522.28649100000007
 30
0.0
 11
151.54180099999991
 21
565.92134099999987
 31
0.0
  0
LINE
  5
6F
  8
0
 62
     1
 10
151.54180099999991
 20
552.10391200000004
 30
0.0
 11
167.07154099999991
 21
552.10391200000004
 31
0.0
  0
LINE
  5
70
  8
0
 62
     1
 10
151.54180099999991
 20
536.10391200000004
 30
0.0
 11
167.07154099999991
 21
536.10391200000004
 31
0.0
  0
LINE
  5
71
  8
0
 62
     1
 10
151.04180099999991
 20
522.16650400000003
 30
0.0
 11
151.04180099999991
 21
566.04132100000004
 31
0.0
  0
LINE
  5
72
  8
0
 62
     1
 10
142.04180099999991
 20
516.10391200000004
 30
0.0
 11
142.04180099999991
 21
565.3935849999998
 31
0.0
  0
ARC
  5
73
  8
0
 62
     1
 10
146.04180099999991
 20
544.10391200000004
 30
0.0
 40
22.5
 50
77.160415
 51
87.452683999999977
  0
LINE
  5
74
  8
0
 62
     1
 10
147.04180099999991
 20
521.62614400000007
 30
0.0
 11
147.04180099999991
 21
566.58167999999989
 31
0.0
  0
LINE
  5
75
  8
0
 62
     1
 10
145.04180099999991
 20
516.10391200000004
 30
0.0
 11
145.04180099999991
 21
566.58167999999989
 31
0.0
  0
ARC
  5
76
  8
0
 62
     1
 10
146.04180099999991
 20
544.10391200000004
 30
0.0
 40
22.5
 50
92.547320999999997
 51
116.3878039999999
  0
ARC
  5
77
  8
0
 62
     1
 10
146.04180099999991
 20
544.10391200000004
 30
0.0
 40
22.5
 50
259.75966199999999
 51
267.45269500000001
  0
LINE
  5
78
  8
0
 62
     1
 10
145.04180099999991
 20
562.60391200000004
 30
0.0
 11
147.04180099999991
 21
562.60391200000004
 31
0.0
  0
LINE
  5
79
  8
0
 62
     1
 10
145.04180099999991
 20
525.60391200000004
 30
0.0
 11
147.04180099999991
 21
525.60391200000004
 31
0.0
  0
LINE
  5
7A
  8
0
 62
     1
 10
136.04180099999991
 20
561.10391200000004
 30
0.0
 11
136.04180099999991
 21
564.25955199999987
 31
0.0
  0
LINE
  5
7B
  8
0
 62
     1
 10
137.04180099999991
 20
560.10391200000004
 30
0.0
 11
142.04180099999991
 21
560.10391200000004
 31
0.0
  0
ARC
  5
7C
  8
0
 62
     1
 10
137.04180099999991
 20
561.10391200000004
 30
0.0
 40
1.0
 50
180.00000499999999
 51
270.000001
  0
ARC
  5
7D
  8
0
 62
     1
 10
143.04180099999991
 20
565.3935849999998
 30
0.0
 40
1.0
 50
98.020932000000016
 51
180.00000499999999
  0
LINE
  5
7E
  8
0
 62
     1
 10
142.04180099999991
 20
516.10391200000004
 30
0.0
 11
145.04180099999991
 21
516.10391200000004
 31
0.0
  0
ARC
  5
7F
  8
0
 62
     1
 10
146.04180099999991
 20
544.10391200000004
 30
0.0
 40
22.5
 50
272.54730599999999
 51
282.8395809999999
  0
CIRCLE
  5
80
  8
0
 62
     7
 10
118.79180100000001
 20
544.10391200000004
 30
0.0
 40
2.5
  0
CIRCLE
  5
81
  8
0
 62
     7
 10
118.79180100000001
 20
544.10391200000004
 30
0.0
 40
1.5
  0
LINE
  5
82
  8
0
 62
     7
 10
145.04180099999991
 20
512.85391200000004
 30
0.0
 11
145.04180099999991
 21
520.85391200000004
 31
0.0
  0
LINE
  5
83
  8
0
 62
     7
 10
147.04180099999991
 20
512.85391200000004
 30
0.0
 11
147.04180099999991
 21
520.85391200000004
 31
0.0
  0
LINE
  5
84
  8
0
 62
     7
 10
145.04180099999991
 20
520.85391200000004
 30
0.0
 11
147.04180099999991
 21
520.85391200000004
 31
0.0
  0
LINE
  5
85
  8
0
 62
     7
 10
145.04180099999991
 20
512.85391200000004
 30
0.0
 11
147.04180099999991
 21
512.85391200000004
 31
0.0
  0
LINE
  5
86
  8
0
  6
DASHDOT
 62
     1
 10
75.099746999999994
 20
527.10391200000004
 30
0.0
 11
262.81090899999992
 21
527.10391200000004
 31
0.0
  0
LINE
  5
87
  8
0
  6
DASHSPACE
 62
     7
 10
78.791779000000005
 20
400.85370999999998
 30
0.0
 11
78.791779000000005
 21
649.54728699999998
 31
0.0
  0
LINE
  5
88
  8
0
  6
DASHSPACE
 62
     4
 10
218.79163600000001
 20
446.60391199999998
 30
0.0
 11
218.79163600000001
 21
474.60409199999992
 31
0.0
  0
LINE
  5
89
  8
0
  6
DASHSPACE
 62
     4
 10
218.79163600000001
 20
579.603745
 30
0.0
 11
218.79163600000001
 21
607.59760999999992
 31
0.0
  0
LINE
  5
8A
  8
0
 62
     1
 10
226.79180099999991
 20
492.35391199999998
 30
0.0
 11
262.29180099999991
 21
492.35391199999998
 31
0.0
  0
LINE
  5
8B
  8
0
 62
     1
 10
226.79180099999991
 20
507.35391199999998
 30
0.0
 11
262.29180099999991
 21
507.35391199999998
 31
0.0
  0
LINE
  5
8C
  8
0
 62
     1
 10
262.29180099999991
 20
491.35391199999998
 30
0.0
 11
262.29180099999991
 21
508.35391199999998
 31
0.0
  0
LINE
  5
8D
  8
0
 62
     1
 10
226.79180099999991
 20
492.35391199999998
 30
0.0
 11
226.79180099999991
 21
507.35391199999998
 31
0.0
  0
LINE
  5
8E
  8
0
 62
     1
 10
262.29180099999991
 20
447.85391199999998
 30
0.0
 11
262.29180099999991
 21
606.34760999999992
 31
0.0
  0
LINE
  5
8F
  8
0
 62
     1
 10
89.041793999999996
 20
446.60391199999998
 30
0.0
 11
261.04180099999991
 21
446.60391199999998
 31
0.0
  0
LINE
  5
90
  8
0
 62
     1
 10
87.791793999999996
 20
447.85391199999998
 30
0.0
 11
87.791793999999996
 21
606.34760999999992
 31
0.0
  0
LINE
  5
91
  8
0
 62
     1
 10
226.79180099999991
 20
586.60391200000004
 30
0.0
 11
226.79180099999991
 21
587.60391200000004
 31
0.0
  0
LINE
  5
92
  8
0
 62
     1
 10
96.791793999999996
 20
586.60391200000004
 30
0.0
 11
96.791793999999996
 21
587.60391200000004
 31
0.0
  0
LINE
  5
93
  8
0
 62
     1
 10
226.79180099999991
 20
466.60391199999998
 30
0.0
 11
226.79180099999991
 21
467.60391199999998
 31
0.0
  0
LINE
  5
94
  8
0
 62
     1
 10
97.791793999999996
 20
466.60391199999998
 30
0.0
 11
225.791797
 21
466.60391199999998
 31
0.0
  0
LINE
  5
95
  8
0
 62
     1
 10
96.791793999999996
 20
466.60391199999998
 30
0.0
 11
96.791793999999996
 21
467.60391199999998
 31
0.0
  0
LINE
  5
96
  8
0
 62
     1
 10
225.79180099999991
 20
446.60391199999998
 30
0.0
 11
225.79180099999991
 21
466.60391199999998
 31
0.0
  0
LINE
  5
97
  8
0
 62
     1
 10
226.79180099999991
 20
587.60391200000004
 30
0.0
 11
226.79180099999991
 21
607.60391200000004
 31
0.0
  0
LINE
  5
98
  8
0
 62
     1
 10
226.79180099999991
 20
467.60391199999998
 30
0.0
 11
226.79180099999991
 21
491.35391199999998
 31
0.0
  0
LINE
  5
99
  8
0
 62
     1
 10
226.79180099999991
 20
508.35391199999998
 30
0.0
 11
226.79180099999991
 21
586.60391200000004
 31
0.0
  0
LINE
  5
9A
  8
0
 62
     1
 10
226.79180099999991
 20
446.60391199999998
 30
0.0
 11
226.79180099999991
 21
466.60391199999998
 31
0.0
  0
LINE
  5
9B
  8
0
 62
     1
 10
96.791793999999996
 20
587.60391200000004
 30
0.0
 11
96.791793999999996
 21
607.60391200000004
 31
0.0
  0
LINE
  5
9C
  8
0
 62
     1
 10
96.791793999999996
 20
467.60391199999998
 30
0.0
 11
96.791793999999996
 21
586.60391200000004
 31
0.0
  0
LINE
  5
9D
  8
0
 62
     1
 10
96.791793999999996
 20
446.60391199999998
 30
0.0
 11
96.791793999999996
 21
466.60391199999998
 31
0.0
  0
LINE
  5
9E
  8
0
 62
     1
 10
97.791793999999996
 20
446.60391199999998
 30
0.0
 11
97.791793999999996
 21
466.60391199999998
 31
0.0
  0
LINE
  5
9F
  8
0
 62
     1
 10
226.79180099999991
 20
491.35391199999998
 30
0.0
 11
262.29180099999991
 21
491.35391199999998
 31
0.0
  0
LINE
  5
A0
  8
0
 62
     1
 10
226.79180099999991
 20
508.35391199999998
 30
0.0
 11
262.29180099999991
 21
508.35391199999998
 31
0.0
  0
LINE
  5
A1
  8
0
 62
     1
 10
226.84180399999991
 20
507.35391199999998
 30
0.0
 11
226.84180399999991
 21
508.35391199999998
 31
0.0
  0
LINE
  5
A2
  8
0
 62
     1
 10
226.84180399999991
 20
491.35391199999998
 30
0.0
 11
226.84180399999991
 21
492.35391199999998
 31
0.0
  0
LINE
  5
A3
  8
0
 62
     1
 10
97.791793999999996
 20
586.60391200000004
 30
0.0
 11
225.791797
 21
586.60391200000004
 31
0.0
  0
LINE
  5
A4
  8
0
 62
     1
 10
97.791793999999996
 20
467.60391199999998
 30
0.0
 11
225.791797
 21
467.60391199999998
 31
0.0
  0
LINE
  5
A5
  8
0
 62
     1
 10
225.79180099999991
 20
467.60391199999998
 30
0.0
 11
225.79180099999991
 21
586.60391200000004
 31
0.0
  0
LINE
  5
A6
  8
0
 62
     1
 10
97.791793999999996
 20
467.60391199999998
 30
0.0
 11
97.791793999999996
 21
586.60391200000004
 31
0.0
  0
LINE
  5
A7
  8
0
 62
     1
 10
218.791799
 20
579.60391200000004
 30
0.0
 11
225.79179499999989
 21
586.60391200000004
 31
0.0
  0
LINE
  5
A8
  8
0
 62
     1
 10
97.791801000000007
 20
586.60391200000004
 30
0.0
 11
113.79180100000001
 21
579.07450900000003
 31
0.0
  0
LINE
  5
A9
  8
0
 62
     1
 10
218.791799
 20
474.60393099999987
 30
0.0
 11
225.79181800000001
 21
467.60390899999987
 31
0.0
  0
LINE
  5
AA
  8
0
 62
     1
 10
97.791801000000007
 20
467.60391199999998
 30
0.0
 11
113.79180100000001
 21
475.13332699999989
 31
0.0
  0
LINE
  5
AB
  8
0
 62
     1
 10
225.79174
 20
587.59760999999992
 30
0.0
 11
225.79174
 21
607.59760999999992
 31
0.0
  0
LINE
  5
AC
  8
0
 62
     1
 10
96.791793999999996
 20
587.59760999999992
 30
0.0
 11
226.79180099999991
 21
587.59760999999992
 31
0.0
  0
LINE
  5
AD
  8
0
 62
     1
 10
89.041793999999996
 20
607.59760999999992
 30
0.0
 11
96.791793999999996
 21
607.59760999999992
 31
0.0
  0
LINE
  5
AE
  8
0
 62
     1
 10
166.79706999999991
 20
607.59760999999992
 30
0.0
 11
226.79180099999991
 21
607.59760999999992
 31
0.0
  0
ARC
  5
AF
  8
0
 62
     1
 10
161.79176699999991
 20
611.74479699999995
 30
0.0
 40
6.5001670000000003
 50
219.64374699999999
 51
320.35625299999992
  0
LINE
  5
B0
  8
0
 62
     1
 10
156.7864689999999
 20
607.59760999999992
 30
0.0
 11
166.79706999999991
 21
607.59760999999992
 31
0.0
  0
LINE
  5
B1
  8
0
 62
     1
 10
97.791793999999996
 20
587.60391200000004
 30
0.0
 11
97.791793999999996
 21
607.60391200000004
 31
0.0
  0
LINE
  5
B2
  8
0
 62
     1
 10
96.791793999999996
 20
607.59760999999992
 30
0.0
 11
156.7864689999999
 21
607.59760999999992
 31
0.0
  0
LINE
  5
B3
  8
0
 62
     1
 10
226.79180099999991
 20
607.59760999999992
 30
0.0
 11
261.04180099999991
 21
607.59760999999992
 31
0.0
  0
ARC
  5
B4
  8
0
 62
     1
 10
89.041793999999996
 20
606.34760999999992
 30
0.0
 40
1.25
 50
90.000003000000007
 51
180.00000499999999
  0
ARC
  5
B5
  8
0
 62
     1
 10
89.041793999999996
 20
447.85391199999998
 30
0.0
 40
1.25
 50
180.00000499999999
 51
270.000001
  0
ARC
  5
B6
  8
0
 62
     1
 10
261.04180099999991
 20
606.34760999999992
 30
0.0
 40
1.25
 50
0.0
 51
90.000003000000007
  0
ARC
  5
B7
  8
0
 62
     1
 10
261.04180099999991
 20
447.85391199999998
 30
0.0
 40
1.25
 50
270.000001
 51
360.0
  0
LINE
  5
B8
  8
0
 62
     7
 10
65.971603000000002
 20
446.60391199999998
 30
0.0
 11
67.013489000000007
 21
452.5127599999999
 31
0.0
  0
LINE
  5
B9
  8
0
 62
     7
 10
65.971603000000002
 20
446.60391199999998
 30
0.0
 11
64.929718000000008
 21
452.5127599999999
 31
0.0
  0
LINE
  5
BA
  8
0
 62
     7
 10
65.971603000000002
 20
607.59760999999992
 30
0.0
 11
64.929718000000008
 21
601.68876599999999
 31
0.0
  0
LINE
  5
BB
  8
0
 62
     7
 10
65.971603000000002
 20
607.59760999999992
 30
0.0
 11
67.013489000000007
 21
601.68876599999999
 31
0.0
  0
LINE
  5
BC
  8
0
 62
     7
 10
65.971603000000002
 20
446.60391199999998
 30
0.0
 11
65.971603000000002
 21
607.59760999999992
 31
0.0
  0
LINE
  5
BD
  8
0
 62
     7
 10
61.971603000000002
 20
446.60391199999998
 30
0.0
 11
89.041793999999996
 21
446.60391399999992
 31
0.0
  0
LINE
  5
BE
  8
0
 62
     7
 10
61.971603000000002
 20
607.59760999999992
 30
0.0
 11
96.791793999999996
 21
607.59760999999992
 31
0.0
  0
LINE
  5
BF
  8
0
 62
     4
 10
-177.6099529999999
 20
473.35386999999997
 30
0.0
 11
-177.610006
 21
477.3538969999999
 31
0.0
  0
LINE
  5
C0
  8
0
 62
     4
 10
-163.98408299999991
 20
466.35386699999998
 30
0.0
 11
-163.61000599999991
 21
466.35386999999997
 31
0.0
  0
LINE
  5
C1
  8
0
 62
     4
 10
-177.610006
 20
462.35387399999991
 30
0.0
 11
-177.6099529999999
 21
466.35385899999989
 31
0.0
  0
LINE
  5
C2
  8
0
 62
     4
 10
-172.61001399999989
 20
462.35387399999991
 30
0.0
 11
-53.110083000000003
 21
462.353882
 31
0.0
  0
LINE
  5
C3
  8
0
 62
     4
 10
-46.110063999999987
 20
462.35375599999992
 30
0.0
 11
-48.110067000000001
 21
462.353882
 31
0.0
  0
LINE
  5
C4
  8
0
 62
     4
 10
-2.610028999999999
 20
602.35389699999985
 30
0.0
 11
-46.110078999999992
 21
602.35389699999985
 31
0.0
  0
LINE
  5
C5
  8
0
 62
     4
 10
-2.610028999999999
 20
462.35363000000001
 30
0.0
 11
-46.110063999999987
 21
462.35375599999992
 31
0.0
  0
LINE
  5
C6
  8
0
 62
     4
 10
-2.610028999999999
 20
462.35363000000001
 30
0.0
 11
-2.610028999999999
 21
473.35384799999991
 31
0.0
  0
LINE
  5
C7
  8
0
 62
     4
 10
-87.110022000000015
 20
570.35391200000004
 30
0.0
 11
-177.610006
 21
570.35391200000004
 31
0.0
  0
LINE
  5
C8
  8
0
 62
     4
 10
-87.110019999999977
 20
540.35386700000004
 30
0.0
 11
-121.610043
 21
540.35386700000004
 31
0.0
  0
LINE
  5
C9
  8
0
 62
     4
 10
-177.6099529999999
 20
466.35385899999989
 30
0.0
 11
-177.6099529999999
 21
473.35386999999997
 31
0.0
  0
LINE
  5
CA
  8
0
 62
     4
 10
-46.110078999999992
 20
602.35389699999985
 30
0.0
 11
-177.610006
 21
602.35389699999985
 31
0.0
  0
LINE
  5
CB
  8
0
 62
     4
 10
-177.610006
 20
570.35391200000004
 30
0.0
 11
-177.610006
 21
602.35389699999985
 31
0.0
  0
LINE
  5
CC
  8
0
 62
     4
 10
-75.360080999999994
 20
466.35392000000002
 30
0.0
 11
-50.110067000000001
 21
466.35396600000001
 31
0.0
  0
LINE
  5
CD
  8
0
 62
     4
 10
-116.23501999999991
 20
466.3538969999999
 30
0.0
 11
-79.360081000000008
 21
466.35392000000002
 31
0.0
  0
LINE
  5
CE
  8
0
 62
     4
 10
-173.60990000000001
 20
466.35385899999989
 30
0.0
 11
-120.23501999999991
 21
466.35389299999991
 31
0.0
  0
LINE
  5
CF
  8
0
 62
     4
 10
-173.609892
 20
470.85386999999997
 30
0.0
 11
-120.235018
 21
470.85390499999988
 31
0.0
  0
LINE
  5
D0
  8
0
 62
     4
 10
-116.235018
 20
470.85390899999999
 30
0.0
 11
-79.360078999999985
 21
470.85393099999987
 31
0.0
  0
LINE
  5
D1
  8
0
 62
     4
 10
-75.360078999999999
 20
470.85393499999992
 30
0.0
 11
-50.110067000000001
 21
470.853951
 31
0.0
  0
LINE
  5
D2
  8
0
 62
     4
 10
-173.60990000000001
 20
466.35385899999989
 30
0.0
 11
-173.609892
 21
470.85386999999997
 31
0.0
  0
LINE
  5
D3
  8
0
 62
     4
 10
-50.110067000000001
 20
466.35396600000001
 30
0.0
 11
-50.110067000000001
 21
470.853951
 31
0.0
  0
LINE
  5
D4
  8
0
 62
     4
 10
-75.360080999999994
 20
466.35392000000002
 30
0.0
 11
-75.360077000000004
 21
470.85395399999999
 31
0.0
  0
LINE
  5
D5
  8
0
 62
     4
 10
-79.360081000000008
 20
466.35392000000002
 30
0.0
 11
-79.360077000000004
 21
470.853951
 31
0.0
  0
LINE
  5
D6
  8
0
 62
     4
 10
-116.23501999999991
 20
466.3538969999999
 30
0.0
 11
-116.2350159999999
 21
470.85392400000001
 31
0.0
  0
LINE
  5
D7
  8
0
 62
     4
 10
-120.23501999999991
 20
466.35389299999991
 30
0.0
 11
-120.2350159999999
 21
470.853928
 31
0.0
  0
LINE
  5
D8
  8
0
 62
     4
 10
-145.61000599999991
 20
458.353882
 30
0.0
 11
-145.61000599999991
 21
462.353882
 31
0.0
  0
LINE
  5
D9
  8
0
 62
     4
 10
-141.61000599999991
 20
458.353882
 30
0.0
 11
-141.61000599999991
 21
462.353882
 31
0.0
  0
LINE
  5
DA
  8
0
 62
     4
 10
-141.61000599999991
 20
458.353882
 30
0.0
 11
-145.61000599999991
 21
458.353882
 31
0.0
  0
LINE
  5
DB
  8
0
 62
     4
 10
-61.860005999999998
 20
458.35393499999992
 30
0.0
 11
-61.860005999999998
 21
462.35386699999998
 31
0.0
  0
LINE
  5
DC
  8
0
 62
     4
 10
-57.860006000000013
 20
458.35393499999992
 30
0.0
 11
-57.860006000000013
 21
462.35386699999998
 31
0.0
  0
LINE
  5
DD
  8
0
 62
     4
 10
-57.860006000000013
 20
458.35393499999992
 30
0.0
 11
-61.860005999999998
 21
458.35393499999992
 31
0.0
  0
LINE
  5
DE
  8
0
 62
     4
 10
-172.610006
 20
457.603882
 30
0.0
 11
-172.610006
 21
460.103882
 31
0.0
  0
LINE
  5
DF
  8
0
 62
     4
 10
-177.610006
 20
457.603882
 30
0.0
 11
-177.610006
 21
462.35387399999991
 31
0.0
  0
LINE
  5
E0
  8
0
 62
     4
 10
-172.610006
 20
457.603882
 30
0.0
 11
-177.610006
 21
457.603882
 31
0.0
  0
LINE
  5
E1
  8
0
 62
     4
 10
-172.610006
 20
460.103882
 30
0.0
 11
-172.610006
 21
462.353882
 31
0.0
  0
LINE
  5
E2
  8
0
 62
     4
 10
-53.110098000000001
 20
457.603882
 30
0.0
 11
-53.110098000000001
 21
460.103882
 31
0.0
  0
LINE
  5
E3
  8
0
 62
     4
 10
-48.110098000000001
 20
457.603882
 30
0.0
 11
-53.110098000000001
 21
457.603882
 31
0.0
  0
LINE
  5
E4
  8
0
 62
     4
 10
-48.110098000000001
 20
457.603882
 30
0.0
 11
-48.110067000000001
 21
462.353882
 31
0.0
  0
LINE
  5
E5
  8
0
 62
     4
 10
-53.110098000000001
 20
460.103882
 30
0.0
 11
-53.110083000000003
 21
462.35386699999998
 31
0.0
  0
LINE
  5
E6
  8
0
 62
     4
 10
-170.6100219999999
 20
581.853928
 30
0.0
 11
-173.6100219999999
 21
584.85392799999988
 31
0.0
  0
LINE
  5
E7
  8
0
 62
     4
 10
-177.610006
 20
477.3538969999999
 30
0.0
 11
-177.610006
 21
540.35388899999998
 31
0.0
  0
LINE
  5
E8
  8
0
 62
     4
 10
-121.6100439999999
 20
540.353882
 30
0.0
 11
-177.610006
 21
540.35388899999998
 31
0.0
  0
LINE
  5
E9
  8
0
 62
     4
 10
-87.110019999999977
 20
540.35386700000004
 30
0.0
 11
-87.110022000000015
 21
570.35391200000004
 31
0.0
  0
LINE
  5
EA
  8
0
 62
     4
 10
-162.110006
 20
569.85391200000004
 30
0.0
 11
-162.110006
 21
570.35391200000004
 31
0.0
  0
LINE
  5
EB
  8
0
 62
     4
 10
-75.360078999999999
 20
589.10389699999985
 30
0.0
 11
-50.110067000000001
 21
589.10391200000004
 31
0.0
  0
LINE
  5
EC
  8
0
 62
     4
 10
-75.360078999999999
 20
581.85389699999985
 30
0.0
 11
-75.360078999999999
 21
589.10389699999985
 31
0.0
  0
LINE
  5
ED
  8
0
 62
     4
 10
-75.360078999999999
 20
581.85389699999985
 30
0.0
 11
-50.110067000000001
 21
581.85391200000004
 31
0.0
  0
LINE
  5
EE
  8
0
 62
     4
 10
-50.110067000000001
 20
581.85391200000004
 30
0.0
 11
-50.110067000000001
 21
589.10391200000004
 31
0.0
  0
LINE
  5
EF
  8
0
 62
     4
 10
-120.235018
 20
581.85391200000004
 30
0.0
 11
-120.235018
 21
589.10391200000004
 31
0.0
  0
LINE
  5
F0
  8
0
 62
     4
 10
-79.360081000000008
 20
581.85391200000004
 30
0.0
 11
-120.23501999999991
 21
581.85391200000004
 31
0.0
  0
LINE
  5
F1
  8
0
 62
     4
 10
-79.360081000000008
 20
581.85391200000004
 30
0.0
 11
-79.360081000000008
 21
589.10391200000004
 31
0.0
  0
LINE
  5
F2
  8
0
 62
     4
 10
-79.360081000000008
 20
589.10391200000004
 30
0.0
 11
-120.23501999999991
 21
589.10391200000004
 31
0.0
  0
LINE
  5
F3
  8
0
 62
     4
 10
-124.23501999999991
 20
581.85391200000004
 30
0.0
 11
-173.610006
 21
581.85391200000004
 31
0.0
  0
LINE
  5
F4
  8
0
 62
     4
 10
-124.23501999999991
 20
581.85391200000004
 30
0.0
 11
-124.23501999999991
 21
589.10391200000004
 31
0.0
  0
LINE
  5
F5
  8
0
 62
     4
 10
-124.23501999999991
 20
589.10391200000004
 30
0.0
 11
-173.610006
 21
589.10391200000004
 31
0.0
  0
LINE
  5
F6
  8
0
 62
     4
 10
-173.610006
 20
581.85391200000004
 30
0.0
 11
-173.610006
 21
589.10391200000004
 31
0.0
  0
LINE
  5
F7
  8
0
 62
     4
 10
-163.61000599999991
 20
466.35386999999997
 30
0.0
 11
-163.61000599999991
 21
470.85389299999991
 31
0.0
  0
LINE
  5
F8
  8
0
 62
     4
 10
-159.61000300000001
 20
466.35386999999997
 30
0.0
 11
-159.61000300000001
 21
470.8538969999999
 31
0.0
  0
LINE
  5
F9
  8
0
 62
     4
 10
-173.6096169999999
 20
466.3538319999999
 30
0.0
 11
-173.60961
 21
470.85386999999997
 31
0.0
  0
LINE
  5
FA
  8
0
 62
     4
 10
-177.610006
 20
462.35382099999993
 30
0.0
 11
-177.6099989999999
 21
463.35389299999991
 31
0.0
  0
LINE
  5
FB
  8
0
 62
     4
 10
-46.110075000000002
 20
462.35375599999992
 30
0.0
 11
-48.110067000000001
 21
462.3537859999999
 31
0.0
  0
LINE
  5
FC
  8
0
 62
     4
 10
-2.610028999999999
 20
473.35384799999991
 30
0.0
 11
-2.610028999999999
 21
602.35389699999985
 31
0.0
  0
LINE
  5
FD
  8
0
 62
     4
 10
-105.610085
 20
488.85385100000002
 30
0.0
 11
-116.110085
 21
488.85385100000002
 31
0.0
  0
LINE
  5
FE
  8
0
 62
     4
 10
-116.110085
 20
481.35385099999991
 30
0.0
 11
-116.110085
 21
488.85385100000002
 31
0.0
  0
LINE
  5
FF
  8
0
 62
     4
 10
-105.610085
 20
476.35385100000002
 30
0.0
 11
-116.110085
 21
476.35385100000002
 31
0.0
  0
LINE
  5
100
  8
0
 62
     4
 10
-105.610085
 20
476.35385100000002
 30
0.0
 11
-105.610085
 21
488.85385100000002
 31
0.0
  0
LINE
  5
101
  8
0
 62
     4
 10
-128.61008499999991
 20
476.35385100000002
 30
0.0
 11
-128.61008499999991
 21
481.35385099999991
 31
0.0
  0
LINE
  5
102
  8
0
 62
     4
 10
-116.110085
 20
476.35385100000002
 30
0.0
 11
-128.61008499999991
 21
476.35385100000002
 31
0.0
  0
LINE
  5
103
  8
0
 62
     4
 10
-116.110086
 20
476.35385100000002
 30
0.0
 11
-116.110086
 21
481.35385099999991
 31
0.0
  0
LINE
  5
104
  8
0
 62
     4
 10
-116.110085
 20
481.35385099999991
 30
0.0
 11
-128.61008499999991
 21
481.35385099999991
 31
0.0
  0
LINE
  5
105
  8
0
 62
     4
 10
-105.610085
 20
510.85385099999991
 30
0.0
 11
-116.110085
 21
510.85385099999991
 31
0.0
  0
LINE
  5
106
  8
0
 62
     4
 10
-116.110085
 20
518.35385099999985
 30
0.0
 11
-128.61008499999991
 21
518.35385099999985
 31
0.0
  0
LINE
  5
107
  8
0
 62
     4
 10
-116.110085
 20
510.85385099999991
 30
0.0
 11
-116.110085
 21
518.35385099999985
 31
0.0
  0
LINE
  5
108
  8
0
 62
     4
 10
-119.610085
 20
518.35385099999985
 30
0.0
 11
-119.610085
 21
530.85385099999985
 31
0.0
  0
LINE
  5
109
  8
0
 62
     4
 10
-115.610085
 20
530.85385099999985
 30
0.0
 11
-119.610085
 21
530.85385099999985
 31
0.0
  0
LINE
  5
10A
  8
0
 62
     4
 10
-115.610085
 20
530.85385099999985
 30
0.0
 11
-115.610085
 21
537.35385099999985
 31
0.0
  0
LINE
  5
10B
  8
0
 62
     4
 10
-115.610085
 20
537.35385099999985
 30
0.0
 11
-128.61008499999991
 21
537.35385099999985
 31
0.0
  0
LINE
  5
10C
  8
0
 62
     4
 10
-128.61008499999991
 20
518.35385099999985
 30
0.0
 11
-128.61008499999991
 21
537.35385099999985
 31
0.0
  0
LINE
  5
10D
  8
0
 62
     4
 10
-128.61008499999991
 20
481.35385099999991
 30
0.0
 11
-128.61008499999991
 21
518.35385099999985
 31
0.0
  0
LINE
  5
10E
  8
0
 62
     4
 10
-105.610085
 20
488.85385100000002
 30
0.0
 11
-105.610085
 21
537.35385099999985
 31
0.0
  0
LINE
  5
10F
  8
0
 62
     4
 10
-105.610085
 20
537.35385099999985
 30
0.0
 11
-115.610085
 21
537.35385099999985
 31
0.0
  0
LINE
  5
110
  8
0
 62
     4
 10
-75.308021999999994
 20
466.35390100000001
 30
0.0
 11
-75.308021999999994
 21
470.85393499999992
 31
0.0
  0
LINE
  5
111
  8
0
 62
     4
 10
-79.3613
 20
466.3538549999999
 30
0.0
 11
-79.3613
 21
470.85393099999987
 31
0.0
  0
LINE
  5
112
  8
0
 62
     4
 10
-21.110029000000001
 20
588.35368300000005
 30
0.0
 11
-25.110029000000001
 21
588.35369900000001
 31
0.0
  0
LINE
  5
113
  8
0
 62
     4
 10
-26.110029000000001
 20
585.35369900000001
 30
0.0
 11
-26.110029000000001
 21
587.35369899999989
 31
0.0
  0
LINE
  5
114
  8
0
 62
     4
 10
-21.110036999999991
 20
584.35368300000005
 30
0.0
 11
-25.110036999999991
 21
584.35369900000001
 31
0.0
  0
LINE
  5
115
  8
0
 62
     4
 10
-20.402922
 20
584.64659099999994
 30
0.0
 11
-20.396353000000001
 21
584.65641799999992
 31
0.0
  0
LINE
  5
116
  8
0
 62
     4
 10
-20.110029000000001
 20
585.35368300000005
 30
0.0
 11
-20.110029000000001
 21
587.35368300000005
 31
0.0
  0
LINE
  5
117
  8
0
 62
     4
 10
-132.6100669999999
 20
505.10385099999991
 30
0.0
 11
-146.11000599999991
 21
505.10385099999991
 31
0.0
  0
LINE
  5
118
  8
0
 62
     4
 10
-132.6100669999999
 20
494.60385100000002
 30
0.0
 11
-146.11000599999991
 21
494.60385100000002
 31
0.0
  0
LINE
  5
119
  8
0
 62
     4
 10
-146.11000599999991
 20
494.60385100000002
 30
0.0
 11
-146.11000599999991
 21
505.10385099999991
 31
0.0
  0
LINE
  5
11A
  8
0
 62
     4
 10
-132.6100669999999
 20
494.60385100000002
 30
0.0
 11
-132.6100669999999
 21
505.10385099999991
 31
0.0
  0
LINE
  5
11B
  8
0
 62
     4
 10
-29.610029000000001
 20
471.35370599999987
 30
0.0
 11
-29.610029000000001
 21
483.35370599999987
 31
0.0
  0
LINE
  5
11C
  8
0
 62
     4
 10
-21.110029000000001
 20
470.35368299999999
 30
0.0
 11
-28.61002899999999
 21
470.35370599999987
 31
0.0
  0
LINE
  5
11D
  8
0
 62
     4
 10
-20.110029000000001
 20
471.35368299999988
 30
0.0
 11
-20.110029000000001
 21
473.35378600000001
 31
0.0
  0
LINE
  5
11E
  8
0
 62
     4
 10
-21.110022000000001
 20
474.35369100000003
 30
0.0
 11
-26.61002899999999
 21
474.35369100000003
 31
0.0
  0
LINE
  5
11F
  8
0
 62
     4
 10
-27.61002899999999
 20
475.35369100000003
 30
0.0
 11
-27.61002899999999
 21
483.35370599999987
 31
0.0
  0
LINE
  5
120
  8
0
 62
     4
 10
-21.110022000000001
 20
474.35369100000003
 30
0.0
 11
-19.793385999999991
 21
474.35369899999989
 31
0.0
  0
LINE
  5
121
  8
0
 62
     4
 10
-27.052213999999999
 20
483.87686900000011
 30
0.0
 11
-26.426656999999999
 21
484.35369100000003
 31
0.0
  0
LINE
  5
122
  8
0
 62
     4
 10
-27.610036999999991
 20
483.32231100000001
 30
0.0
 11
-27.05222899999999
 21
483.87685399999998
 31
0.0
  0
LINE
  5
123
  8
0
 62
     6
 10
-101.610006
 20
569.85391200000004
 30
0.0
 11
-177.610006
 21
569.85391200000004
 31
0.0
  0
LINE
  5
124
  8
0
 62
     6
 10
-101.610006
 20
540.35386700000004
 30
0.0
 11
-101.610006
 21
569.85391200000004
 31
0.0
  0
LINE
  5
125
  8
0
 62
     6
 10
-177.610006
 20
540.35388899999998
 30
0.0
 11
-177.610006
 21
569.85391200000004
 31
0.0
  0
LINE
  5
126
  8
0
  6
DASHDOT
 62
     7
 10
1.3899779999999999
 20
394.5081009999999
 30
0.0
 11
1.3899779999999999
 21
657.07014500000002
 31
0.0
  0
LINE
  5
127
  8
0
 62
   181
 10
-0.6100220000000001
 20
508.88237800000002
 30
0.0
 11
-0.6100220000000001
 21
518.8823779999999
 31
0.0
  0
LINE
  5
128
  8
0
 62
   181
 10
-0.6102660000000001
 20
508.88315599999999
 30
0.0
 11
-0.6102660000000001
 21
518.88315599999987
 31
0.0
  0
LINE
  5
129
  8
0
 62
   181
 10
-24.259588000000001
 20
582.34153700000002
 30
0.0
 11
-23.326483
 21
582.55452000000002
 31
0.0
  0
LINE
  5
12A
  8
0
 62
   181
 10
-25.623021999999992
 20
581.40257299999996
 30
0.0
 11
-24.601773999999999
 21
582.216995
 31
0.0
  0
LINE
  5
12B
  8
0
 62
   181
 10
-26.205953999999998
 20
580.22792100000004
 30
0.0
 11
-25.72697999999999
 21
581.22251900000003
 31
0.0
  0
LINE
  5
12C
  8
0
 62
   181
 10
-26.278584999999989
 20
578.89179999999988
 30
0.0
 11
-26.278584999999989
 21
579.81599400000005
 31
0.0
  0
LINE
  5
12D
  8
0
 62
   181
 10
-25.726949999999992
 20
577.48525999999993
 30
0.0
 11
-26.205953999999998
 21
578.479919
 31
0.0
  0
LINE
  5
12E
  8
0
 62
   181
 10
-24.601706
 20
576.490768
 30
0.0
 11
-25.623052999999999
 21
577.305252
 31
0.0
  0
LINE
  5
12F
  8
0
 62
   181
 10
-23.326315000000001
 20
576.15327499999989
 30
0.0
 11
-24.259817000000002
 21
576.36633300000005
 31
0.0
  0
LINE
  5
130
  8
0
 62
   181
 10
-0.6100220000000001
 20
492.35385899999989
 30
0.0
 11
-2.610028999999999
 21
492.35385899999989
 31
0.0
  0
LINE
  5
131
  8
0
 62
   181
 10
-0.6100220000000001
 20
499.35385099999991
 30
0.0
 11
-2.610028999999999
 21
499.35385099999991
 31
0.0
  0
LINE
  5
132
  8
0
 62
   181
 10
-0.6100220000000001
 20
492.35385899999989
 30
0.0
 11
-0.6100220000000001
 21
499.35385099999991
 31
0.0
  0
LINE
  5
133
  8
0
 62
   101
 10
-147.8600669999999
 20
462.053898
 30
0.0
 11
-147.8600669999999
 21
462.34746200000001
 31
0.0
  0
LINE
  5
134
  8
0
 62
   211
 10
-145.61000599999991
 20
462.34746200000001
 30
0.0
 11
-146.6100669999999
 21
462.34746200000001
 31
0.0
  0
LINE
  5
135
  8
0
 62
   211
 10
-146.6100669999999
 20
462.34746200000001
 30
0.0
 11
-146.6100669999999
 21
462.35387800000001
 31
0.0
  0
LINE
  5
136
  8
0
 62
     4
 10
-170.609892
 20
466.35388599999999
 30
0.0
 11
-170.609892
 21
470.85388899999992
 31
0.0
  0
LINE
  5
137
  8
0
 62
     4
 10
-50.110067000000001
 20
583.35391200000004
 30
0.0
 11
-75.360070999999991
 21
583.35391200000004
 31
0.0
  0
LINE
  5
138
  8
0
 62
     4
 10
-79.360070999999991
 20
583.35391200000004
 30
0.0
 11
-120.23501
 21
583.35391200000004
 31
0.0
  0
LINE
  5
139
  8
0
 62
     4
 10
-124.23501
 20
583.35391200000004
 30
0.0
 11
-170.61000599999991
 21
583.35391200000004
 31
0.0
  0
LINE
  5
13A
  8
0
 62
     4
 10
-171.360006
 20
582.60392799999988
 30
0.0
 11
-170.61000599999991
 21
583.353928
 31
0.0
  0
LINE
  5
13B
  8
0
 62
     4
 10
-170.61000599999991
 20
583.35391200000004
 30
0.0
 11
-170.61000599999991
 21
589.10391200000004
 31
0.0
  0
LINE
  5
13C
  8
0
 62
     4
 10
-143.610006
 20
497.22885099999991
 30
0.0
 11
-143.610006
 21
498.49504899999999
 31
0.0
  0
LINE
  5
13D
  8
0
 62
     4
 10
-143.610006
 20
498.49504899999999
 30
0.0
 11
-143.610006
 21
499.85385099999991
 31
0.0
  0
LINE
  5
13E
  8
0
 62
     4
 10
-143.610006
 20
499.85385099999991
 30
0.0
 11
-143.610006
 21
501.21265399999987
 31
0.0
  0
LINE
  5
13F
  8
0
 62
     4
 10
-143.610006
 20
501.21265399999987
 30
0.0
 11
-143.610006
 21
502.47885099999991
 31
0.0
  0
LINE
  5
140
  8
0
 62
     4
 10
-143.610006
 20
502.47885099999991
 30
0.0
 11
-143.610006
 21
503.56616199999991
 31
0.0
  0
LINE
  5
141
  8
0
 62
     4
 10
-143.610006
 20
503.56616199999991
 30
0.0
 11
-143.610006
 21
504.40048200000001
 31
0.0
  0
LINE
  5
142
  8
0
 62
     4
 10
-143.610006
 20
504.40048200000001
 30
0.0
 11
-143.610006
 21
504.92496499999999
 31
0.0
  0
LINE
  5
143
  8
0
 62
     4
 10
-143.610006
 20
504.92496499999999
 30
0.0
 11
-143.610006
 21
505.10385099999991
 31
0.0
  0
LINE
  5
144
  8
0
 62
     4
 10
-143.610006
 20
494.60385100000002
 30
0.0
 11
-143.610006
 21
494.78273799999988
 31
0.0
  0
LINE
  5
145
  8
0
 62
     4
 10
-143.610006
 20
494.78273799999988
 30
0.0
 11
-143.610006
 21
495.30721999999997
 31
0.0
  0
LINE
  5
146
  8
0
 62
     4
 10
-143.610006
 20
495.30721999999997
 30
0.0
 11
-143.610006
 21
496.1415409999999
 31
0.0
  0
LINE
  5
147
  8
0
 62
     4
 10
-143.610006
 20
496.1415409999999
 30
0.0
 11
-143.610006
 21
497.22885099999991
 31
0.0
  0
LINE
  5
148
  8
0
 62
   181
 10
1.3899779999999999
 20
600.35391200000004
 30
0.0
 11
-2.610028999999999
 21
600.35391200000004
 31
0.0
  0
LINE
  5
149
  8
0
 62
   181
 10
1.3899779999999999
 20
585.35391200000004
 30
0.0
 11
-2.610028999999999
 21
585.35391200000004
 31
0.0
  0
LINE
  5
14A
  8
0
 62
   181
 10
1.3899779999999999
 20
465.35391199999998
 30
0.0
 11
-2.610028999999999
 21
465.35391199999998
 31
0.0
  0
LINE
  5
14B
  8
0
 62
   181
 10
-0.6102660000000001
 20
518.88315599999987
 30
0.0
 11
-2.610028999999999
 21
518.88315599999987
 31
0.0
  0
LINE
  5
14C
  8
0
 62
   181
 10
-0.6102660000000001
 20
508.88315599999999
 30
0.0
 11
-2.610028999999999
 21
508.88315599999999
 31
0.0
  0
CIRCLE
  5
14D
  8
0
 62
     4
 10
-23.110060000000001
 20
579.35391200000004
 30
0.0
 40
3.2499950000000002
  0
ARC
  5
14E
  8
0
 62
     4
 10
-23.110051999999989
 20
579.35385099999985
 30
0.0
 40
5.9999539999999989
 50
0.000001
 51
62.75771899999998
  0
ARC
  5
14F
  8
0
 62
     4
 10
-25.110074999999991
 20
585.35360700000001
 30
0.0
 40
0.9999069999999999
 50
179.99527599999999
 51
270.00235499999991
  0
ARC
  5
150
  8
0
 62
     4
 10
-21.110043999999998
 20
585.35369900000001
 30
0.0
 40
1.0000139999999991
 50
270.0001279999999
 51
0.000001
  0
ARC
  5
151
  8
0
 62
     4
 10
-21.109998999999991
 20
587.35369899999989
 30
0.0
 40
0.9999559999999998
 50
359.99918100000002
 51
90.001809999999992
  0
ARC
  5
152
  8
0
 62
     4
 10
-25.110074999999991
 20
587.35371399999985
 30
0.0
 40
0.999953
 50
89.997659999999996
 51
180.001676
  0
ARC
  5
153
  8
0
 62
     4
 10
-23.110051999999989
 20
579.35385099999985
 30
0.0
 40
5.9999539999999989
 50
117.241873
 51
0.000001
  0
CIRCLE
  5
154
  8
0
 62
     4
 10
-165.61008299999989
 20
525.34385700000007
 30
0.0
 40
2.7499989999999999
  0
CIRCLE
  5
155
  8
0
 62
     4
 10
-165.61009799999991
 20
525.343842
 30
0.0
 40
10.000018999999989
  0
ARC
  5
156
  8
0
 62
     4
 10
-23.110005999999991
 20
479.35375199999987
 30
0.0
 40
5.9999349999999989
 50
303.55706700000002
 51
123.55796100000001
  0
CIRCLE
  5
157
  8
0
 62
     4
 10
-23.110043999999991
 20
479.35392400000001
 30
0.0
 40
3.2499660000000001
  0
ARC
  5
158
  8
0
 62
     4
 10
-28.61002899999999
 20
483.35372899999987
 30
0.0
 40
0.99998
 50
359.99863499999998
 51
180.001655
  0
ARC
  5
159
  8
0
 62
     4
 10
-26.610036999999998
 20
475.3536719999999
 30
0.0
 40
0.9999809999999998
 50
179.998985
 51
270.00068799999991
  0
ARC
  5
15A
  8
0
 62
     4
 10
-28.61002899999999
 20
471.353703
 30
0.0
 40
0.9999959999999997
 50
179.99975699999999
 51
269.99975899999993
  0
ARC
  5
15B
  8
0
 62
     4
 10
-21.110036999999991
 20
471.35368699999998
 30
0.0
 40
1.000006999999999
 50
270.00031899999988
 51
359.99983700000001
  0
ARC
  5
15C
  8
0
 62
     4
 10
-21.110036999999991
 20
473.35367599999989
 30
0.0
 40
1.0000139999999991
 50
0.006312
 51
89.998835000000014
  0
LINE
  5
15D
  8
0
  6
DASHDOT
 62
     7
 10
14.184656
 20
457.85387800000001
 30
0.0
 11
-1.7241649999999999
 21
457.85387800000001
 31
0.0
  0
LINE
  5
15E
  8
0
 62
     7
 10
9.8899779999999993
 20
456.35387800000001
 30
0.0
 11
9.8899779999999993
 21
459.35387800000001
 31
0.0
  0
LINE
  5
15F
  8
0
 62
     7
 10
4.8899780000000002
 20
454.00387999999992
 30
0.0
 11
4.8899780000000002
 21
461.70387999999991
 31
0.0
  0
LINE
  5
160
  8
0
 62
     7
 10
8.0899750000000008
 20
454.00387999999992
 30
0.0
 11
8.0899750000000008
 21
461.70387999999991
 31
0.0
  0
LINE
  5
161
  8
0
 62
     7
 10
8.0899750000000008
 20
461.70387999999991
 30
0.0
 11
4.3899780000000002
 21
461.70387999999991
 31
0.0
  0
LINE
  5
162
  8
0
 62
     7
 10
8.0899750000000008
 20
454.00387999999992
 30
0.0
 11
4.3899780000000002
 21
454.00387999999992
 31
0.0
  0
LINE
  5
163
  8
0
 62
     7
 10
9.3899779999999993
 20
459.85387800000001
 30
0.0
 11
8.0899750000000008
 21
459.85387800000001
 31
0.0
  0
LINE
  5
164
  8
0
 62
     7
 10
9.3899779999999993
 20
455.85387800000001
 30
0.0
 11
8.0899750000000008
 21
455.85387800000001
 31
0.0
  0
LINE
  5
165
  8
0
 62
     7
 10
9.3899779999999993
 20
455.85387800000001
 30
0.0
 11
9.3899779999999993
 21
459.85387800000001
 31
0.0
  0
LINE
  5
166
  8
0
 62
     7
 10
9.3899779999999993
 20
455.85387800000001
 30
0.0
 11
9.8899779999999993
 21
456.35387800000001
 31
0.0
  0
LINE
  5
167
  8
0
 62
     7
 10
9.8899779999999993
 20
459.35387800000001
 30
0.0
 11
9.3899779999999993
 21
459.85387800000001
 31
0.0
  0
LINE
  5
168
  8
0
 62
     7
 10
9.3899779999999993
 20
459.45387999999991
 30
0.0
 11
4.8899780000000002
 21
459.45387999999991
 31
0.0
  0
LINE
  5
169
  8
0
 62
     7
 10
9.3899779999999993
 20
456.25387999999992
 30
0.0
 11
4.8899780000000002
 21
456.25387999999992
 31
0.0
  0
LINE
  5
16A
  8
0
  6
DASHDOT
 62
     7
 10
14.184656
 20
592.85388199999989
 30
0.0
 11
-1.7241649999999999
 21
592.85388199999989
 31
0.0
  0
LINE
  5
16B
  8
0
 62
     7
 10
9.8899779999999993
 20
591.353882
 30
0.0
 11
9.8899779999999993
 21
594.35388199999989
 31
0.0
  0
LINE
  5
16C
  8
0
 62
     7
 10
4.8899780000000002
 20
589.00387599999999
 30
0.0
 11
4.8899780000000002
 21
596.70387300000004
 31
0.0
  0
LINE
  5
16D
  8
0
 62
     7
 10
8.0899750000000008
 20
589.00387599999999
 30
0.0
 11
8.0899750000000008
 21
596.70387300000004
 31
0.0
  0
LINE
  5
16E
  8
0
 62
     7
 10
8.0899750000000008
 20
596.70387300000004
 30
0.0
 11
4.3899780000000002
 21
596.70387300000004
 31
0.0
  0
LINE
  5
16F
  8
0
 62
     7
 10
8.0899750000000008
 20
589.00387599999999
 30
0.0
 11
4.3899780000000002
 21
589.00387599999999
 31
0.0
  0
LINE
  5
170
  8
0
 62
     7
 10
9.3899779999999993
 20
594.853882
 30
0.0
 11
8.0899750000000008
 21
594.853882
 31
0.0
  0
LINE
  5
171
  8
0
 62
     7
 10
9.3899779999999993
 20
590.853882
 30
0.0
 11
8.0899750000000008
 21
590.853882
 31
0.0
  0
LINE
  5
172
  8
0
 62
     7
 10
9.3899779999999993
 20
590.853882
 30
0.0
 11
9.3899779999999993
 21
594.853882
 31
0.0
  0
LINE
  5
173
  8
0
 62
     7
 10
9.3899779999999993
 20
590.853882
 30
0.0
 11
9.8899779999999993
 21
591.353882
 31
0.0
  0
LINE
  5
174
  8
0
 62
     7
 10
9.8899779999999993
 20
594.35388199999989
 30
0.0
 11
9.3899779999999993
 21
594.853882
 31
0.0
  0
LINE
  5
175
  8
0
 62
     7
 10
9.3899779999999993
 20
594.45387300000004
 30
0.0
 11
4.8899780000000002
 21
594.45387300000004
 31
0.0
  0
LINE
  5
176
  8
0
 62
     7
 10
9.3899779999999993
 20
591.25387599999999
 30
0.0
 11
4.8899780000000002
 21
591.25387599999999
 31
0.0
  0
LINE
  5
177
  8
0
 62
   150
 10
-193.61052499999991
 20
474.60366399999992
 30
0.0
 11
-193.60885400000001
 21
474.60390899999999
 31
0.0
  0
LINE
  5
178
  8
0
 62
   150
 10
-195.60852600000001
 20
474.6054309999999
 30
0.0
 11
-195.964956
 21
474.74894699999987
 31
0.0
  0
LINE
  5
179
  8
0
 62
   150
 10
-195.9649489999999
 20
474.74894699999987
 30
0.0
 11
-196.108564
 21
475.10540800000001
 31
0.0
  0
LINE
  5
17A
  8
0
 62
   150
 10
-196.11027300000001
 20
475.10335900000001
 30
0.0
 11
-196.10999099999989
 21
475.10540800000001
 31
0.0
  0
LINE
  5
17B
  8
0
 62
   150
 10
-196.10877799999989
 20
579.10275300000001
 30
0.0
 11
-195.9647269999999
 21
579.45883200000003
 31
0.0
  0
LINE
  5
17C
  8
0
 62
   150
 10
-195.9647269999999
 20
579.45883200000003
 30
0.0
 11
-195.743864
 21
579.54811099999995
 31
0.0
  0
LINE
  5
17D
  8
0
 62
   150
 10
-195.7432159999999
 20
579.54836999999998
 30
0.0
 11
-195.6087399999999
 21
579.60272199999997
 31
0.0
  0
LINE
  5
17E
  8
0
 62
   150
 10
-192.85999099999989
 20
579.103973
 30
0.0
 11
-193.213705
 21
579.45753500000001
 31
0.0
  0
LINE
  5
17F
  8
0
 62
   150
 10
-195.2136899999999
 20
579.45750399999986
 30
0.0
 11
-195.74385599999991
 21
579.54846199999986
 31
0.0
  0
LINE
  5
180
  8
0
 62
   150
 10
-195.74384900000001
 20
474.65936699999997
 30
0.0
 11
-195.21357499999999
 21
474.75035099999991
 31
0.0
  0
LINE
  5
181
  8
0
 62
   150
 10
-193.21359799999991
 20
474.75035899999989
 30
0.0
 11
-192.85999099999989
 21
475.10391199999998
 31
0.0
  0
LINE
  5
182
  8
0
 62
   150
 10
-195.74529799999999
 20
474.65794799999998
 30
0.0
 11
-195.74387200000001
 21
474.65937000000002
 31
0.0
  0
LINE
  5
183
  8
0
 62
   150
 10
-195.743864
 20
579.54847699999993
 30
0.0
 11
-195.74517599999999
 21
579.54978899999992
 31
0.0
  0
LINE
  5
184
  8
0
 62
     1
 10
-268.11015900000001
 20
474.09086600000001
 30
0.0
 11
-268.11015900000001
 21
474.59747299999998
 31
0.0
  0
LINE
  5
185
  8
0
 62
     7
 10
-268.11015900000001
 20
459.59086600000001
 30
0.0
 11
-270.1101589999999
 21
459.59086600000001
 31
0.0
  0
LINE
  5
186
  8
0
  6
DASHDOT
 62
     3
 10
11.139848999999989
 20
527.09747300000004
 30
0.0
 11
-313.42044599999991
 21
527.09747300000004
 31
0.0
  0
LINE
  5
187
  8
0
 62
     7
 10
-177.610006
 20
579.59747300000004
 30
0.0
 11
-268.11015900000001
 21
579.59747300000004
 31
0.0
  0
LINE
  5
188
  8
0
 62
     7
 10
-177.610006
 20
474.59747299999998
 30
0.0
 11
-268.11015900000001
 21
474.59747299999998
 31
0.0
  0
LINE
  5
189
  8
0
 62
     7
 10
-273.61015900000001
 20
474.59750400000001
 30
0.0
 11
-273.61015900000001
 21
579.59747300000004
 31
0.0
  0
LINE
  5
18A
  8
0
 62
     7
 10
-273.61015900000001
 20
566.57522599999993
 30
0.0
 11
-275.61015900000001
 21
566.57522599999993
 31
0.0
  0
LINE
  5
18B
  8
0
 62
     7
 10
-273.61015900000001
 20
521.61968999999988
 30
0.0
 11
-275.61015900000001
 21
521.61968999999988
 31
0.0
  0
LINE
  5
18C
  8
0
 62
     7
 10
-275.61015900000001
 20
521.61968999999988
 30
0.0
 11
-275.61015900000001
 21
566.57522599999993
 31
0.0
  0
LINE
  5
18D
  8
0
  6
DASHDOT
 62
     7
 10
-165.61008299999989
 20
512.11201500000004
 30
0.0
 11
-165.61008299999989
 21
538.50516500000003
 31
0.0
  0
LINE
  5
18E
  8
0
  6
DASHDOT
 62
     7
 10
-153.41306900000001
 20
525.34385700000007
 30
0.0
 11
-179.806219
 21
525.34385700000007
 31
0.0
  0
LINE
  5
18F
  8
0
 62
     1
 10
-260.11015900000001
 20
493.347488
 30
0.0
 11
-260.11015900000001
 21
506.34728200000001
 31
0.0
  0
LINE
  5
190
  8
0
 62
     1
 10
-270.1101589999999
 20
446.597284
 30
0.0
 11
-270.1101589999999
 21
607.59729000000004
 31
0.0
  0
LINE
  5
191
  8
0
 62
     1
 10
-270.1101589999999
 20
446.597284
 30
0.0
 11
-273.61015900000001
 21
446.597284
 31
0.0
  0
LINE
  5
192
  8
0
 62
     1
 10
-273.61015900000001
 20
446.597284
 30
0.0
 11
-273.61015900000001
 21
491.34728199999989
 31
0.0
  0
LINE
  5
193
  8
0
 62
     1
 10
-273.61015900000001
 20
508.34728199999989
 30
0.0
 11
-273.61015900000001
 21
607.59729000000004
 31
0.0
  0
LINE
  5
194
  8
0
 62
     1
 10
-270.1101589999999
 20
607.59729000000004
 30
0.0
 11
-273.61015900000001
 21
607.59729000000004
 31
0.0
  0
LINE
  5
195
  8
0
 62
     1
 10
-268.11015900000001
 20
589.09732099999985
 30
0.0
 11
-270.1101589999999
 21
589.09732099999985
 31
0.0
  0
LINE
  5
196
  8
0
 62
     1
 10
-268.11015900000001
 20
530.09729000000004
 30
0.0
 11
-268.11015900000001
 21
589.09729000000004
 31
0.0
  0
LINE
  5
197
  8
0
 62
     1
 10
-268.11015900000001
 20
506.34728999999999
 30
0.0
 11
-268.11015900000001
 21
524.09729800000002
 31
0.0
  0
LINE
  5
198
  8
0
 62
     1
 10
-268.11015900000001
 20
465.09729399999998
 30
0.0
 11
-268.11015900000001
 21
493.34729800000002
 31
0.0
  0
LINE
  5
199
  8
0
 62
     1
 10
-268.11015900000001
 20
465.09729399999998
 30
0.0
 11
-270.1101589999999
 21
465.09729399999998
 31
0.0
  0
LINE
  5
19A
  8
0
 62
     1
 10
-268.11015900000001
 20
589.09729000000004
 30
0.0
 11
-270.1101589999999
 21
589.09729000000004
 31
0.0
  0
LINE
  5
19B
  8
0
 62
     1
 10
-263.6101589999999
 20
453.67463700000002
 30
0.0
 11
-263.6101589999999
 21
458.51993599999997
 31
0.0
  0
LINE
  5
19C
  8
0
 62
     1
 10
-263.6101589999999
 20
595.67463699999985
 30
0.0
 11
-263.6101589999999
 21
600.51994300000001
 31
0.0
  0
LINE
  5
19D
  8
0
 62
     1
 10
-263.6101589999999
 20
524.67463699999985
 30
0.0
 11
-263.6101589999999
 21
529.51993600000003
 31
0.0
  0
LINE
  5
19E
  8
0
 62
   150
 10
-273.61044900000002
 20
475.096878
 30
0.0
 11
-273.61015900000001
 21
475.098949
 31
0.0
  0
LINE
  5
19F
  8
0
 62
     1
 10
-260.11015900000001
 20
493.347488
 30
0.0
 11
-270.1101589999999
 21
493.347488
 31
0.0
  0
LINE
  5
1A0
  8
0
 62
     1
 10
-260.11015900000001
 20
506.34728200000001
 30
0.0
 11
-270.1101589999999
 21
506.34728200000001
 31
0.0
  0
LINE
  5
1A1
  8
0
 62
     1
 10
-273.61015900000001
 20
491.34728999999999
 30
0.0
 11
-273.61015900000001
 21
508.34728999999999
 31
0.0
  0
LINE
  5
1A2
  8
0
 62
     1
 10
-264.61015900000001
 20
453.097286
 30
0.0
 11
-270.1101589999999
 21
453.097286
 31
0.0
  0
LINE
  5
1A3
  8
0
 62
     1
 10
-264.61015900000001
 20
459.097286
 30
0.0
 11
-270.1101589999999
 21
459.097286
 31
0.0
  0
LINE
  5
1A4
  8
0
 62
     1
 10
-264.61015900000001
 20
458.86892699999993
 30
0.0
 11
-264.61015900000001
 21
459.097286
 31
0.0
  0
LINE
  5
1A5
  8
0
 62
     1
 10
-264.61015900000001
 20
458.2186089999999
 30
0.0
 11
-264.61015900000001
 21
458.86892699999993
 31
0.0
  0
LINE
  5
1A6
  8
0
 62
     1
 10
-264.61015900000001
 20
457.24533799999989
 30
0.0
 11
-264.61015900000001
 21
458.2186089999999
 31
0.0
  0
LINE
  5
1A7
  8
0
 62
     1
 10
-264.61015900000001
 20
456.097286
 30
0.0
 11
-264.61015900000001
 21
457.24533799999989
 31
0.0
  0
LINE
  5
1A8
  8
0
 62
     1
 10
-264.61015900000001
 20
454.94923799999998
 30
0.0
 11
-264.61015900000001
 21
456.097286
 31
0.0
  0
LINE
  5
1A9
  8
0
 62
     1
 10
-264.61015900000001
 20
453.97596699999991
 30
0.0
 11
-264.61015900000001
 21
454.94923799999998
 31
0.0
  0
LINE
  5
1AA
  8
0
 62
     1
 10
-264.61015900000001
 20
453.325649
 30
0.0
 11
-264.61015900000001
 21
453.97596699999991
 31
0.0
  0
LINE
  5
1AB
  8
0
 62
     1
 10
-264.61015900000001
 20
453.097286
 30
0.0
 11
-264.61015900000001
 21
453.325649
 31
0.0
  0
LINE
  5
1AC
  8
0
 62
     1
 10
-264.61015900000001
 20
453.097286
 30
0.0
 11
-263.6101589999999
 21
453.67463700000002
 31
0.0
  0
LINE
  5
1AD
  8
0
 62
     1
 10
-263.6101589999999
 20
458.51993599999997
 30
0.0
 11
-264.61015900000001
 21
459.097286
 31
0.0
  0
LINE
  5
1AE
  8
0
 62
     1
 10
-264.61015900000001
 20
595.09729000000004
 30
0.0
 11
-270.1101589999999
 21
595.09729000000004
 31
0.0
  0
LINE
  5
1AF
  8
0
 62
     1
 10
-264.61015900000001
 20
601.09729000000004
 30
0.0
 11
-270.1101589999999
 21
601.09729000000004
 31
0.0
  0
LINE
  5
1B0
  8
0
 62
     1
 10
-264.61015900000001
 20
600.86892699999987
 30
0.0
 11
-264.61015900000001
 21
601.09729000000004
 31
0.0
  0
LINE
  5
1B1
  8
0
 62
     1
 10
-264.61015900000001
 20
600.218613
 30
0.0
 11
-264.61015900000001
 21
600.86892699999987
 31
0.0
  0
LINE
  5
1B2
  8
0
 62
     1
 10
-264.61015900000001
 20
599.24533099999996
 30
0.0
 11
-264.61015900000001
 21
600.218613
 31
0.0
  0
LINE
  5
1B3
  8
0
 62
     1
 10
-264.61015900000001
 20
598.09729000000004
 30
0.0
 11
-264.61015900000001
 21
599.24533099999996
 31
0.0
  0
LINE
  5
1B4
  8
0
 62
     1
 10
-264.61015900000001
 20
596.94923399999993
 30
0.0
 11
-264.61015900000001
 21
598.09729000000004
 31
0.0
  0
LINE
  5
1B5
  8
0
 62
     1
 10
-264.61015900000001
 20
595.97596699999986
 30
0.0
 11
-264.61015900000001
 21
596.94923399999993
 31
0.0
  0
LINE
  5
1B6
  8
0
 62
     1
 10
-264.61015900000001
 20
595.32565299999987
 30
0.0
 11
-264.61015900000001
 21
595.97596699999986
 31
0.0
  0
LINE
  5
1B7
  8
0
 62
     1
 10
-264.61015900000001
 20
595.09729000000004
 30
0.0
 11
-264.61015900000001
 21
595.32565299999987
 31
0.0
  0
LINE
  5
1B8
  8
0
 62
     1
 10
-264.61015900000001
 20
595.09729000000004
 30
0.0
 11
-263.6101589999999
 21
595.67463699999985
 31
0.0
  0
LINE
  5
1B9
  8
0
 62
     1
 10
-263.6101589999999
 20
600.51994300000001
 30
0.0
 11
-264.61015900000001
 21
601.09729000000004
 31
0.0
  0
LINE
  5
1BA
  8
0
 62
     1
 10
-264.61015900000001
 20
524.09729000000004
 30
0.0
 11
-270.1101589999999
 21
524.09729000000004
 31
0.0
  0
LINE
  5
1BB
  8
0
 62
     1
 10
-264.61015900000001
 20
530.09729000000004
 30
0.0
 11
-270.1101589999999
 21
530.09729000000004
 31
0.0
  0
LINE
  5
1BC
  8
0
 62
     1
 10
-264.61015900000001
 20
529.86892699999987
 30
0.0
 11
-264.61015900000001
 21
530.09729000000004
 31
0.0
  0
LINE
  5
1BD
  8
0
 62
     1
 10
-264.61015900000001
 20
529.21860500000003
 30
0.0
 11
-264.61015900000001
 21
529.86892699999987
 31
0.0
  0
LINE
  5
1BE
  8
0
 62
     1
 10
-264.61015900000001
 20
528.24533799999995
 30
0.0
 11
-264.61015900000001
 21
529.21860500000003
 31
0.0
  0
LINE
  5
1BF
  8
0
 62
     1
 10
-264.61015900000001
 20
527.09729000000004
 30
0.0
 11
-264.61015900000001
 21
528.24533799999995
 31
0.0
  0
LINE
  5
1C0
  8
0
 62
     1
 10
-264.61015900000001
 20
525.94923399999993
 30
0.0
 11
-264.61015900000001
 21
527.09729000000004
 31
0.0
  0
LINE
  5
1C1
  8
0
 62
     1
 10
-264.61015900000001
 20
524.97596699999986
 30
0.0
 11
-264.61015900000001
 21
525.94923399999993
 31
0.0
  0
LINE
  5
1C2
  8
0
 62
     1
 10
-264.61015900000001
 20
524.32564500000001
 30
0.0
 11
-264.61015900000001
 21
524.97596699999986
 31
0.0
  0
LINE
  5
1C3
  8
0
 62
     1
 10
-264.61015900000001
 20
524.09729000000004
 30
0.0
 11
-264.61015900000001
 21
524.32564500000001
 31
0.0
  0
LINE
  5
1C4
  8
0
 62
     1
 10
-264.61015900000001
 20
524.09729000000004
 30
0.0
 11
-263.6101589999999
 21
524.67463699999985
 31
0.0
  0
LINE
  5
1C5
  8
0
 62
     1
 10
-263.6101589999999
 20
529.51993600000003
 30
0.0
 11
-264.61015900000001
 21
530.09729000000004
 31
0.0
  0
LINE
  5
1C6
  8
0
 62
     7
 10
-268.11015900000001
 20
589.09729000000004
 30
0.0
 11
-268.11015900000001
 21
595.09729000000004
 31
0.0
  0
LINE
  5
1C7
  8
0
 62
     7
 10
-270.1101589999999
 20
607.59729000000004
 30
0.0
 11
-270.1101589999999
 21
675.08807400000001
 31
0.0
  0
LINE
  5
1C8
  8
0
  6
DASHDOT
 62
     7
 10
-260.93259199999989
 20
671.19455000000005
 30
0.0
 11
-275.27655600000003
 21
677.27987699999994
 31
0.0
  0
LINE
  5
1C9
  8
0
  6
DASHDOT
 62
     7
 10
-275.13165900000001
 20
401.84696899999989
 30
0.0
 11
-261.51215200000001
 21
406.19362199999989
 31
0.0
  0
LINE
  5
1CA
  8
0
 62
     7
 10
-268.11015900000001
 20
601.59729000000004
 30
0.0
 11
-270.1101589999999
 21
601.59729000000004
 31
0.0
  0
LINE
  5
1CB
  8
0
 62
     7
 10
-268.11015900000001
 20
594.59729000000004
 30
0.0
 11
-270.1101589999999
 21
594.59729000000004
 31
0.0
  0
LINE
  5
1CC
  8
0
 62
     7
 10
-268.11015900000001
 20
590.09729000000004
 30
0.0
 11
-270.1101589999999
 21
590.09729000000004
 31
0.0
  0
LINE
  5
1CD
  8
0
 62
     7
 10
-268.11015900000001
 20
530.59729000000004
 30
0.0
 11
-270.1101589999999
 21
530.59729000000004
 31
0.0
  0
LINE
  5
1CE
  8
0
 62
     7
 10
-268.11015900000001
 20
523.59729000000004
 30
0.0
 11
-270.1101589999999
 21
523.59729000000004
 31
0.0
  0
LINE
  5
1CF
  8
0
 62
     7
 10
-268.11015900000001
 20
506.84728200000001
 30
0.0
 11
-270.1101589999999
 21
506.84728200000001
 31
0.0
  0
LINE
  5
1D0
  8
0
 62
     7
 10
-268.11015900000001
 20
492.847488
 30
0.0
 11
-270.1101589999999
 21
492.847488
 31
0.0
  0
LINE
  5
1D1
  8
0
 62
     7
 10
-268.11015900000001
 20
452.597286
 30
0.0
 11
-270.1101589999999
 21
452.597286
 31
0.0
  0
LINE
  5
1D2
  8
0
 62
     7
 10
-268.11015900000001
 20
464.09729399999998
 30
0.0
 11
-270.1101589999999
 21
464.09729399999998
 31
0.0
  0
LINE
  5
1D3
  8
0
 62
     7
 10
-268.11015900000001
 20
459.097286
 30
0.0
 11
-268.11015900000001
 21
465.09729399999998
 31
0.0
  0
LINE
  5
1D4
  8
0
 62
     7
 10
-268.11015900000001
 20
601.09729000000004
 30
0.0
 11
-268.11015900000001
 21
674.23959400000001
 31
0.0
  0
LINE
  5
1D5
  8
0
  6
DASHSPACE
 62
     7
 10
-301.1101589999999
 20
474.59742399999999
 30
0.0
 11
-301.1101589999999
 21
579.59747300000004
 31
0.0
  0
LINE
  5
1D6
  8
0
  6
DASHSPACE
 62
     7
 10
-273.61015900000001
 20
579.59747300000004
 30
0.0
 11
-301.1101589999999
 21
579.59747300000004
 31
0.0
  0
LINE
  5
1D7
  8
0
  6
DASHSPACE
 62
     7
 10
-273.61015900000001
 20
474.59742399999999
 30
0.0
 11
-301.1101589999999
 21
474.59742399999999
 31
0.0
  0
LINE
  5
1D8
  8
0
 62
     7
 10
-268.11015900000001
 20
404.087873
 30
0.0
 11
-268.11015900000001
 21
453.097286
 31
0.0
  0
LINE
  5
1D9
  8
0
 62
     7
 10
-270.1101589999999
 20
403.44957499999992
 30
0.0
 11
-270.1101589999999
 21
446.597284
 31
0.0
  0
LINE
  5
1DA
  8
0
 62
     7
 10
-215.428045
 20
525.34385700000007
 30
0.0
 11
-216.46994599999999
 21
519.43501300000003
 31
0.0
  0
LINE
  5
1DB
  8
0
 62
     7
 10
-215.428045
 20
525.34385700000007
 30
0.0
 11
-214.386145
 21
519.43501300000003
 31
0.0
  0
LINE
  5
1DC
  8
0
 62
     7
 10
-215.428045
 20
527.09747300000004
 30
0.0
 11
-214.386145
 21
533.00631699999985
 31
0.0
  0
LINE
  5
1DD
  8
0
 62
     7
 10
-215.428045
 20
527.09747300000004
 30
0.0
 11
-216.46994599999999
 21
533.00631699999985
 31
0.0
  0
LINE
  5
1DE
  8
0
 62
     7
 10
-215.428045
 20
497.3438569999999
 30
0.0
 11
-215.428045
 21
527.09747300000004
 31
0.0
  0
LINE
  5
1DF
  8
0
 62
     7
 10
-219.428045
 20
525.34385700000007
 30
0.0
 11
-179.806219
 21
525.34385700000007
 31
0.0
  0
LINE
  5
1E0
  8
0
 62
     7
 10
-219.428045
 20
527.09747300000004
 30
0.0
 11
-213.03528399999999
 21
527.09747300000004
 31
0.0
  0
LINE
  5
1E1
  8
0
 62
     7
 10
-319.11661299999992
 20
474.59747299999998
 30
0.0
 11
-318.07471299999992
 21
480.50632100000001
 31
0.0
  0
LINE
  5
1E2
  8
0
 62
     7
 10
-319.11661299999992
 20
474.59747299999998
 30
0.0
 11
-320.15848399999987
 21
480.50632100000001
 31
0.0
  0
LINE
  5
1E3
  8
0
 62
     7
 10
-319.11661299999992
 20
579.59747300000004
 30
0.0
 11
-320.15848399999987
 21
573.68862899999999
 31
0.0
  0
LINE
  5
1E4
  8
0
 62
     7
 10
-319.11661299999992
 20
579.59747300000004
 30
0.0
 11
-318.07471299999992
 21
573.68862899999999
 31
0.0
  0
LINE
  5
1E5
  8
0
 62
     7
 10
-319.11661299999992
 20
474.59747299999998
 30
0.0
 11
-319.11661299999992
 21
579.59747300000004
 31
0.0
  0
LINE
  5
1E6
  8
0
 62
     7
 10
-323.11661299999992
 20
474.59747299999998
 30
0.0
 11
-268.11014399999988
 21
474.59747700000003
 31
0.0
  0
LINE
  5
1E7
  8
0
 62
     7
 10
-323.11661299999992
 20
579.59747300000004
 30
0.0
 11
-268.11014399999988
 21
579.59747300000004
 31
0.0
  0
LINE
  5
1E8
  8
0
 62
     7
 10
-273.61014399999999
 20
710.76876800000002
 30
0.0
 11
-267.7013
 21
709.72686799999985
 31
0.0
  0
LINE
  5
1E9
  8
0
 62
     7
 10
-273.61014399999999
 20
710.76876800000002
 30
0.0
 11
-267.7013
 21
711.81066900000008
 31
0.0
  0
LINE
  5
1EA
  8
0
 62
     7
 10
-301.11014399999999
 20
710.76876800000002
 30
0.0
 11
-307.01901800000002
 21
711.81066900000008
 31
0.0
  0
LINE
  5
1EB
  8
0
 62
     7
 10
-301.11014399999999
 20
710.76876800000002
 30
0.0
 11
-307.01901800000002
 21
709.72686799999985
 31
0.0
  0
LINE
  5
1EC
  8
0
 62
     7
 10
-151.588629
 20
710.76876800000002
 30
0.0
 11
-327.58859799999988
 21
710.76876800000002
 31
0.0
  0
LINE
  5
1ED
  8
0
 62
     7
 10
-273.61017399999997
 20
714.76876800000002
 30
0.0
 11
-273.61014399999999
 21
607.59729000000004
 31
0.0
  0
LINE
  5
1EE
  8
0
 62
     7
 10
-301.11017399999997
 20
714.76876800000002
 30
0.0
 11
-301.11014399999999
 21
579.59747300000004
 31
0.0
  0
LINE
  5
1EF
  8
0
 62
     7
 10
1.3899779999999999
 20
689.34326199999987
 30
0.0
 11
-4.518866
 21
690.38516200000004
 31
0.0
  0
LINE
  5
1F0
  8
0
 62
     7
 10
1.3899779999999999
 20
689.34326199999987
 30
0.0
 11
-4.518866
 21
688.30136100000004
 31
0.0
  0
LINE
  5
1F1
  8
0
 62
     7
 10
-268.11017399999997
 20
689.34326199999987
 30
0.0
 11
-262.20132999999993
 21
688.30136100000004
 31
0.0
  0
LINE
  5
1F2
  8
0
 62
     7
 10
-268.11017399999997
 20
689.34326199999987
 30
0.0
 11
-262.20132999999993
 21
690.38516200000004
 31
0.0
  0
LINE
  5
1F3
  8
0
 62
     7
 10
-270.11017399999997
 20
689.34326199999987
 30
0.0
 11
-276.01901800000002
 21
690.38516200000004
 31
0.0
  0
LINE
  5
1F4
  8
0
 62
     7
 10
-270.11017399999997
 20
689.34326199999987
 30
0.0
 11
-276.01901800000002
 21
688.30136100000004
 31
0.0
  0
LINE
  5
1F5
  8
0
 62
     7
 10
1.3899779999999999
 20
689.34326199999987
 30
0.0
 11
-281.61017399999997
 21
689.34326199999987
 31
0.0
  0
LINE
  5
1F6
  8
0
 62
     7
 10
1.3899779999999999
 20
693.34326199999987
 30
0.0
 11
1.3899779999999999
 21
657.07014500000002
 31
0.0
  0
LINE
  5
1F7
  8
0
 62
     7
 10
-268.11017399999997
 20
693.34326199999987
 30
0.0
 11
-268.11017399999997
 21
674.23956299999986
 31
0.0
  0
LINE
  5
1F8
  8
0
 62
     7
 10
-270.11017399999997
 20
693.34326199999987
 30
0.0
 11
-270.11017399999997
 21
675.08804299999986
 31
0.0
  0
LINE
  5
1F9
  8
0
 62
     7
 10
-167.5895439999999
 20
523.43485999999984
 30
0.0
 11
-172.56598500000001
 21
520.08299999999997
 31
0.0
  0
LINE
  5
1FA
  8
0
 62
     7
 10
-167.5895439999999
 20
523.43485999999984
 30
0.0
 11
-171.119482
 21
518.58309899999995
 31
0.0
  0
LINE
  5
1FB
  8
0
 62
     7
 10
-163.63062099999991
 20
527.25285299999996
 30
0.0
 11
-158.65418099999991
 21
530.60471299999995
 31
0.0
  0
LINE
  5
1FC
  8
0
 62
     7
 10
-163.63062099999991
 20
527.25285299999996
 30
0.0
 11
-160.1007139999999
 21
532.10461399999986
 31
0.0
  0
LINE
  5
1FD
  8
0
 62
     7
 10
-163.63062099999991
 20
527.25285299999996
 30
0.0
 11
-199.68894
 21
492.47795899999988
 31
0.0
  0
LINE
  5
1FE
  8
0
 62
     7
 10
369.08637199999998
 20
464.10391199999998
 30
0.0
 11
504.08637199999993
 21
464.10391199999998
 31
0.0
  0
LINE
  5
1FF
  8
0
 62
     7
 10
369.08637199999998
 20
590.10391200000004
 30
0.0
 11
504.08637199999993
 21
590.10391200000004
 31
0.0
  0
LINE
  5
200
  8
0
 62
     7
 10
504.08637199999993
 20
590.10391200000004
 30
0.0
 11
504.08637199999993
 21
507.85391199999998
 31
0.0
  0
LINE
  5
201
  8
0
 62
     7
 10
369.08637199999998
 20
590.10391200000004
 30
0.0
 11
369.08637199999998
 21
464.10391199999998
 31
0.0
  0
LINE
  5
202
  8
0
  6
DASHDOT
 62
     7
 10
486.18642799999998
 20
499.85391199999998
 30
0.0
 11
542.10759699999994
 21
499.85391199999998
 31
0.0
  0
LINE
  5
203
  8
0
 62
     7
 10
504.08637199999993
 20
507.85391199999998
 30
0.0
 11
527.08637199999998
 21
507.85391199999998
 31
0.0
  0
LINE
  5
204
  8
0
 62
     7
 10
504.08637199999993
 20
491.85391199999998
 30
0.0
 11
527.08637199999998
 21
491.85391199999998
 31
0.0
  0
ARC
  5
205
  8
0
 62
     7
 10
527.08637199999998
 20
499.85391199999998
 30
0.0
 40
8.0
 50
270.0
 51
90.000005000000002
  0
LINE
  5
206
  8
0
 62
     7
 10
504.08637199999993
 20
491.85391199999998
 30
0.0
 11
504.08637199999993
 21
464.10391199999998
 31
0.0
  0
LINE
  5
207
  8
0
  6
DASHDOT
 62
     7
 10
441.08637199999998
 20
629.61387599999989
 30
0.0
 11
441.08637199999998
 21
330.41467299999988
 31
0.0
  0
CIRCLE
  5
208
  8
0
 62
     7
 10
397.08637199999998
 20
598.10391200000004
 30
0.0
 40
3.5
  0
CIRCLE
  5
209
  8
0
 62
     7
 10
522.08637199999987
 20
598.10391200000004
 30
0.0
 40
4.0
  0
CIRCLE
  5
20A
  8
0
 62
     7
 10
522.08637199999987
 20
527.10391200000004
 30
0.0
 40
4.0
  0
CIRCLE
  5
20B
  8
0
 62
     7
 10
522.08637199999987
 20
456.10391199999998
 30
0.0
 40
3.5
  0
CIRCLE
  5
20C
  8
0
 62
     7
 10
397.08637199999998
 20
456.10391199999998
 30
0.0
 40
4.0
  0
LINE
  5
20D
  8
0
  6
DASHDOT
 62
     7
 10
397.08637199999998
 20
604.60391200000004
 30
0.0
 11
397.08637199999998
 21
591.60391200000004
 31
0.0
  0
LINE
  5
20E
  8
0
  6
DASHDOT
 62
     7
 10
390.58637199999998
 20
598.10391200000004
 30
0.0
 11
403.58637199999998
 21
598.10391200000004
 31
0.0
  0
LINE
  5
20F
  8
0
  6
DASHDOT
 62
     7
 10
522.08637199999987
 20
604.60391200000004
 30
0.0
 11
522.08637199999987
 21
591.60391200000004
 31
0.0
  0
LINE
  5
210
  8
0
  6
DASHDOT
 62
     7
 10
515.58637199999998
 20
598.10391200000004
 30
0.0
 11
528.58637199999998
 21
598.10391200000004
 31
0.0
  0
LINE
  5
211
  8
0
  6
DASHDOT
 62
     7
 10
522.08637199999987
 20
533.60391200000004
 30
0.0
 11
522.08637199999987
 21
520.60391200000004
 31
0.0
  0
LINE
  5
212
  8
0
  6
DASHDOT
 62
     7
 10
515.58637199999998
 20
527.10391200000004
 30
0.0
 11
528.58637199999998
 21
527.10391200000004
 31
0.0
  0
LINE
  5
213
  8
0
  6
DASHDOT
 62
     7
 10
522.08637199999987
 20
462.60391199999998
 30
0.0
 11
522.08637199999987
 21
449.60391199999998
 31
0.0
  0
LINE
  5
214
  8
0
  6
DASHDOT
 62
     7
 10
515.58637199999998
 20
456.10391199999998
 30
0.0
 11
528.58637199999998
 21
456.10391199999998
 31
0.0
  0
LINE
  5
215
  8
0
  6
DASHDOT
 62
     7
 10
397.08637199999998
 20
462.60391199999998
 30
0.0
 11
397.08637199999998
 21
449.60391199999998
 31
0.0
  0
LINE
  5
216
  8
0
  6
DASHDOT
 62
     7
 10
390.58637199999998
 20
456.10391199999998
 30
0.0
 11
403.58637199999998
 21
456.10391199999998
 31
0.0
  0
POLYLINE
  5
217
  8
0
 62
     7
 66
     1
 10
0.0
 20
0.0
 30
0.0
  0
VERTEX
  5
595
  8
0
 62
     7
 10
345.38813799999991
 20
610.10391200000004
 30
0.0
  0
VERTEX
  5
596
  8
0
 62
     7
 10
361.38813799999991
 20
610.10391200000004
 30
0.0
  0
VERTEX
  5
597
  8
0
 62
     7
 10
362.38813799999991
 20
612.10391200000004
 30
0.0
  0
VERTEX
  5
598
  8
0
 62
     7
 10
363.38813799999991
 20
608.10391200000004
 30
0.0
  0
VERTEX
  5
599
  8
0
 62
     7
 10
364.38813799999991
 20
610.10391200000004
 30
0.0
  0
VERTEX
  5
59A
  8
0
 62
     7
 10
380.38813799999991
 20
610.10391200000004
 30
0.0
  0
VERTEX
  5
59B
  8
0
 62
     7
 10
381.38813799999991
 20
612.10391200000004
 30
0.0
  0
VERTEX
  5
59C
  8
0
 62
     7
 10
382.38813799999991
 20
608.10391200000004
 30
0.0
  0
VERTEX
  5
59D
  8
0
 62
     7
 10
383.38813799999991
 20
610.10391200000004
 30
0.0
  0
VERTEX
  5
59E
  8
0
 62
     7
 10
399.38813799999991
 20
610.10391200000004
 30
0.0
  0
VERTEX
  5
59F
  8
0
 62
     7
 10
400.38813800000003
 20
612.10391200000004
 30
0.0
  0
VERTEX
  5
5A0
  8
0
 62
     7
 10
401.38813799999991
 20
608.10391200000004
 30
0.0
  0
VERTEX
  5
5A1
  8
0
 62
     7
 10
402.38813799999991
 20
610.10391200000004
 30
0.0
  0
VERTEX
  5
5A2
  8
0
 62
     7
 10
418.38813799999991
 20
610.10391200000004
 30
0.0
  0
VERTEX
  5
5A3
  8
0
 62
     7
 10
419.38813799999991
 20
612.10391200000004
 30
0.0
  0
VERTEX
  5
5A4
  8
0
 62
     7
 10
420.38813799999991
 20
608.10391200000004
 30
0.0
  0
VERTEX
  5
5A5
  8
0
 62
     7
 10
421.38813800000003
 20
610.10391200000004
 30
0.0
  0
VERTEX
  5
5A6
  8
0
 62
     7
 10
437.38813799999991
 20
610.10391200000004
 30
0.0
  0
VERTEX
  5
5A7
  8
0
 62
     7
 10
438.38813800000003
 20
612.10391200000004
 30
0.0
  0
VERTEX
  5
5A8
  8
0
 62
     7
 10
439.38813799999991
 20
608.10391200000004
 30
0.0
  0
VERTEX
  5
5A9
  8
0
 62
     7
 10
440.38813799999991
 20
610.10391200000004
 30
0.0
  0
VERTEX
  5
5AA
  8
0
 62
     7
 10
456.38813799999991
 20
610.10391200000004
 30
0.0
  0
VERTEX
  5
5AB
  8
0
 62
     7
 10
457.38813799999991
 20
612.10391200000004
 30
0.0
  0
VERTEX
  5
5AC
  8
0
 62
     7
 10
458.38813800000003
 20
608.10391200000004
 30
0.0
  0
VERTEX
  5
5AD
  8
0
 62
     7
 10
459.38813800000003
 20
610.10391200000004
 30
0.0
  0
VERTEX
  5
5AE
  8
0
 62
     7
 10
475.38813800000003
 20
610.10391200000004
 30
0.0
  0
VERTEX
  5
5AF
  8
0
 62
     7
 10
476.38813799999991
 20
612.10391200000004
 30
0.0
  0
VERTEX
  5
5B0
  8
0
 62
     7
 10
477.38813799999991
 20
608.10391200000004
 30
0.0
  0
VERTEX
  5
5B1
  8
0
 62
     7
 10
478.38813799999991
 20
610.10391200000004
 30
0.0
  0
VERTEX
  5
5B2
  8
0
 62
     7
 10
494.38813799999991
 20
610.10391200000004
 30
0.0
  0
VERTEX
  5
5B3
  8
0
 62
     7
 10
495.38813799999991
 20
612.10391200000004
 30
0.0
  0
VERTEX
  5
5B4
  8
0
 62
     7
 10
496.38813800000003
 20
608.10391200000004
 30
0.0
  0
VERTEX
  5
5B5
  8
0
 62
     7
 10
497.38813799999991
 20
610.10391200000004
 30
0.0
  0
VERTEX
  5
5B6
  8
0
 62
     7
 10
513.38813800000003
 20
610.10391200000004
 30
0.0
  0
VERTEX
  5
5B7
  8
0
 62
     7
 10
514.38813800000003
 20
612.10391200000004
 30
0.0
  0
VERTEX
  5
5B8
  8
0
 62
     7
 10
515.38813800000003
 20
608.10391200000004
 30
0.0
  0
VERTEX
  5
5B9
  8
0
 62
     7
 10
516.38813800000003
 20
610.10391200000004
 30
0.0
  0
VERTEX
  5
5BA
  8
0
 62
     7
 10
532.38813800000003
 20
610.10391200000004
 30
0.0
  0
VERTEX
  5
5BB
  8
0
 62
     7
 10
533.38813800000003
 20
612.10391200000004
 30
0.0
  0
VERTEX
  5
5BC
  8
0
 62
     7
 10
534.38813800000003
 20
608.10391200000004
 30
0.0
  0
VERTEX
  5
5BD
  8
0
 62
     7
 10
535.38813800000003
 20
610.10391200000004
 30
0.0
  0
VERTEX
  5
5BE
  8
0
 62
     7
 10
543.73636599999986
 20
610.10391200000004
 30
0.0
  0
SEQEND
  5
5BF
  8
0
 62
     7
  0
POLYLINE
  5
243
  8
0
 62
     7
 66
     1
 10
0.0
 20
0.0
 30
0.0
  0
VERTEX
  5
5C0
  8
0
 62
     7
 10
342.85449199999999
 20
444.10391199999998
 30
0.0
  0
VERTEX
  5
5C1
  8
0
 62
     7
 10
358.85449199999988
 20
444.10391199999998
 30
0.0
  0
VERTEX
  5
5C2
  8
0
 62
     7
 10
359.85449199999999
 20
446.10391199999998
 30
0.0
  0
VERTEX
  5
5C3
  8
0
 62
     7
 10
360.85449199999988
 20
442.10391199999998
 30
0.0
  0
VERTEX
  5
5C4
  8
0
 62
     7
 10
361.85449199999999
 20
444.10391199999998
 30
0.0
  0
VERTEX
  5
5C5
  8
0
 62
     7
 10
377.85449199999988
 20
444.10391199999998
 30
0.0
  0
VERTEX
  5
5C6
  8
0
 62
     7
 10
378.85449199999999
 20
446.10391199999998
 30
0.0
  0
VERTEX
  5
5C7
  8
0
 62
     7
 10
379.85449199999988
 20
442.10391199999998
 30
0.0
  0
VERTEX
  5
5C8
  8
0
 62
     7
 10
380.85449199999999
 20
444.10391199999998
 30
0.0
  0
VERTEX
  5
5C9
  8
0
 62
     7
 10
396.85449199999988
 20
444.10391199999998
 30
0.0
  0
VERTEX
  5
5CA
  8
0
 62
     7
 10
397.85449199999999
 20
446.10391199999998
 30
0.0
  0
VERTEX
  5
5CB
  8
0
 62
     7
 10
398.85449199999988
 20
442.10391199999998
 30
0.0
  0
VERTEX
  5
5CC
  8
0
 62
     7
 10
399.85449199999999
 20
444.10391199999998
 30
0.0
  0
VERTEX
  5
5CD
  8
0
 62
     7
 10
415.85449199999988
 20
444.10391199999998
 30
0.0
  0
VERTEX
  5
5CE
  8
0
 62
     7
 10
416.85449199999999
 20
446.10391199999998
 30
0.0
  0
VERTEX
  5
5CF
  8
0
 62
     7
 10
417.85449199999999
 20
442.10391199999998
 30
0.0
  0
VERTEX
  5
5D0
  8
0
 62
     7
 10
418.85449199999999
 20
444.10391199999998
 30
0.0
  0
VERTEX
  5
5D1
  8
0
 62
     7
 10
434.85449199999999
 20
444.10391199999998
 30
0.0
  0
VERTEX
  5
5D2
  8
0
 62
     7
 10
435.85449199999988
 20
446.10391199999998
 30
0.0
  0
VERTEX
  5
5D3
  8
0
 62
     7
 10
436.85449199999988
 20
442.10391199999998
 30
0.0
  0
VERTEX
  5
5D4
  8
0
 62
     7
 10
437.85449199999999
 20
444.10391199999998
 30
0.0
  0
VERTEX
  5
5D5
  8
0
 62
     7
 10
453.85449199999988
 20
444.10391199999998
 30
0.0
  0
VERTEX
  5
5D6
  8
0
 62
     7
 10
454.85449199999999
 20
446.10391199999998
 30
0.0
  0
VERTEX
  5
5D7
  8
0
 62
     7
 10
455.85449199999999
 20
442.10391199999998
 30
0.0
  0
VERTEX
  5
5D8
  8
0
 62
     7
 10
456.85449199999988
 20
444.10391199999998
 30
0.0
  0
VERTEX
  5
5D9
  8
0
 62
     7
 10
472.85449199999999
 20
444.10391199999998
 30
0.0
  0
VERTEX
  5
5DA
  8
0
 62
     7
 10
473.85449199999988
 20
446.10391199999998
 30
0.0
  0
VERTEX
  5
5DB
  8
0
 62
     7
 10
474.85449199999988
 20
442.10391199999998
 30
0.0
  0
VERTEX
  5
5DC
  8
0
 62
     7
 10
475.85449199999999
 20
444.10391199999998
 30
0.0
  0
VERTEX
  5
5DD
  8
0
 62
     7
 10
491.85449199999999
 20
444.10391199999998
 30
0.0
  0
VERTEX
  5
5DE
  8
0
 62
     7
 10
492.85449199999999
 20
446.10391199999998
 30
0.0
  0
VERTEX
  5
5DF
  8
0
 62
     7
 10
493.85449199999999
 20
442.10391199999998
 30
0.0
  0
VERTEX
  5
5E0
  8
0
 62
     7
 10
494.85449199999988
 20
444.10391199999998
 30
0.0
  0
VERTEX
  5
5E1
  8
0
 62
     7
 10
510.85449199999988
 20
444.10391199999998
 30
0.0
  0
VERTEX
  5
5E2
  8
0
 62
     7
 10
511.85449199999988
 20
446.10391199999998
 30
0.0
  0
VERTEX
  5
5E3
  8
0
 62
     7
 10
512.85449199999994
 20
442.10391199999998
 30
0.0
  0
VERTEX
  5
5E4
  8
0
 62
     7
 10
513.85449199999994
 20
444.10391199999998
 30
0.0
  0
VERTEX
  5
5E5
  8
0
 62
     7
 10
529.85449199999994
 20
444.10391199999998
 30
0.0
  0
VERTEX
  5
5E6
  8
0
 62
     7
 10
530.85449199999994
 20
446.10391199999998
 30
0.0
  0
VERTEX
  5
5E7
  8
0
 62
     7
 10
531.85449199999994
 20
442.10391199999998
 30
0.0
  0
VERTEX
  5
5E8
  8
0
 62
     7
 10
532.85449199999994
 20
444.10391199999998
 30
0.0
  0
VERTEX
  5
5E9
  8
0
 62
     7
 10
545.54611999999997
 20
444.10391199999998
 30
0.0
  0
SEQEND
  5
5EA
  8
0
 62
     7
  0
POLYLINE
  5
26F
  8
0
 62
     7
 66
     1
 10
0.0
 20
0.0
 30
0.0
  0
VERTEX
  5
5EB
  8
0
 62
     7
 10
542.08637199999987
 20
613.42409499999985
 30
0.0
  0
VERTEX
  5
5EC
  8
0
 62
     7
 10
542.08637199999987
 20
597.42409499999985
 30
0.0
  0
VERTEX
  5
5ED
  8
0
 62
     7
 10
544.08637199999998
 20
596.42409499999985
 30
0.0
  0
VERTEX
  5
5EE
  8
0
 62
     7
 10
540.08637199999998
 20
595.42409499999985
 30
0.0
  0
VERTEX
  5
5EF
  8
0
 62
     7
 10
542.08637199999987
 20
594.42409499999997
 30
0.0
  0
VERTEX
  5
5F0
  8
0
 62
     7
 10
542.08637199999987
 20
578.42409499999997
 30
0.0
  0
VERTEX
  5
5F1
  8
0
 62
     7
 10
544.08637199999998
 20
577.42409499999985
 30
0.0
  0
VERTEX
  5
5F2
  8
0
 62
     7
 10
540.08637199999998
 20
576.42409499999985
 30
0.0
  0
VERTEX
  5
5F3
  8
0
 62
     7
 10
542.08637199999987
 20
575.42409499999985
 30
0.0
  0
VERTEX
  5
5F4
  8
0
 62
     7
 10
542.08637199999987
 20
559.42409499999985
 30
0.0
  0
VERTEX
  5
5F5
  8
0
 62
     7
 10
544.08637199999998
 20
558.42409499999985
 30
0.0
  0
VERTEX
  5
5F6
  8
0
 62
     7
 10
540.08637199999998
 20
557.42409499999997
 30
0.0
  0
VERTEX
  5
5F7
  8
0
 62
     7
 10
542.08637199999987
 20
556.42409499999985
 30
0.0
  0
VERTEX
  5
5F8
  8
0
 62
     7
 10
542.08637199999987
 20
540.42409499999997
 30
0.0
  0
VERTEX
  5
5F9
  8
0
 62
     7
 10
544.08637199999998
 20
539.42409499999985
 30
0.0
  0
VERTEX
  5
5FA
  8
0
 62
     7
 10
540.08637199999998
 20
538.42409499999985
 30
0.0
  0
VERTEX
  5
5FB
  8
0
 62
     7
 10
542.08637199999987
 20
537.42409499999985
 30
0.0
  0
VERTEX
  5
5FC
  8
0
 62
     7
 10
542.08637199999987
 20
521.42409499999985
 30
0.0
  0
VERTEX
  5
5FD
  8
0
 62
     7
 10
544.08637199999998
 20
520.42409499999985
 30
0.0
  0
VERTEX
  5
5FE
  8
0
 62
     7
 10
540.08637199999998
 20
519.42409499999997
 30
0.0
  0
VERTEX
  5
5FF
  8
0
 62
     7
 10
542.08637199999987
 20
518.42409499999985
 30
0.0
  0
VERTEX
  5
600
  8
0
 62
     7
 10
542.08637199999987
 20
502.42409500000002
 30
0.0
  0
VERTEX
  5
601
  8
0
 62
     7
 10
544.08637199999998
 20
501.42409500000002
 30
0.0
  0
VERTEX
  5
602
  8
0
 62
     7
 10
540.08637199999998
 20
500.42409500000002
 30
0.0
  0
VERTEX
  5
603
  8
0
 62
     7
 10
542.08637199999987
 20
499.42409500000002
 30
0.0
  0
VERTEX
  5
604
  8
0
 62
     7
 10
542.08637199999987
 20
483.42409500000002
 30
0.0
  0
VERTEX
  5
605
  8
0
 62
     7
 10
544.08637199999998
 20
482.42409500000002
 30
0.0
  0
VERTEX
  5
606
  8
0
 62
     7
 10
540.08637199999998
 20
481.42409500000002
 30
0.0
  0
VERTEX
  5
607
  8
0
 62
     7
 10
542.08637199999987
 20
480.42409500000002
 30
0.0
  0
VERTEX
  5
608
  8
0
 62
     7
 10
542.08637199999987
 20
464.42409500000002
 30
0.0
  0
VERTEX
  5
609
  8
0
 62
     7
 10
544.08637199999998
 20
463.42409500000002
 30
0.0
  0
VERTEX
  5
60A
  8
0
 62
     7
 10
540.08637199999998
 20
462.42409499999991
 30
0.0
  0
VERTEX
  5
60B
  8
0
 62
     7
 10
542.08637199999987
 20
461.42409500000002
 30
0.0
  0
VERTEX
  5
60C
  8
0
 62
     7
 10
542.08637199999987
 20
445.42409499999991
 30
0.0
  0
VERTEX
  5
60D
  8
0
 62
     7
 10
544.08637199999998
 20
444.42409500000002
 30
0.0
  0
VERTEX
  5
60E
  8
0
 62
     7
 10
540.08637199999998
 20
443.42409500000002
 30
0.0
  0
VERTEX
  5
60F
  8
0
 62
     7
 10
542.08637199999987
 20
442.42409500000002
 30
0.0
  0
VERTEX
  5
610
  8
0
 62
     7
 10
542.08637199999987
 20
440.41231499999998
 30
0.0
  0
SEQEND
  5
611
  8
0
 62
     7
  0
POLYLINE
  5
297
  8
0
 62
     7
 66
     1
 10
0.0
 20
0.0
 30
0.0
  0
VERTEX
  5
612
  8
0
 62
     7
 10
349.08637199999998
 20
613.42409499999985
 30
0.0
  0
VERTEX
  5
613
  8
0
 62
     7
 10
349.08637199999998
 20
597.42409499999985
 30
0.0
  0
VERTEX
  5
614
  8
0
 62
     7
 10
351.08637199999998
 20
596.42409499999985
 30
0.0
  0
VERTEX
  5
615
  8
0
 62
     7
 10
347.08637199999998
 20
595.42409499999985
 30
0.0
  0
VERTEX
  5
616
  8
0
 62
     7
 10
349.08637199999998
 20
594.42409499999997
 30
0.0
  0
VERTEX
  5
617
  8
0
 62
     7
 10
349.08637199999998
 20
578.42409499999997
 30
0.0
  0
VERTEX
  5
618
  8
0
 62
     7
 10
351.08637199999998
 20
577.42409499999985
 30
0.0
  0
VERTEX
  5
619
  8
0
 62
     7
 10
347.08637199999998
 20
576.42409499999985
 30
0.0
  0
VERTEX
  5
61A
  8
0
 62
     7
 10
349.08637199999998
 20
575.42409499999985
 30
0.0
  0
VERTEX
  5
61B
  8
0
 62
     7
 10
349.08637199999998
 20
559.42409499999985
 30
0.0
  0
VERTEX
  5
61C
  8
0
 62
     7
 10
351.08637199999998
 20
558.42409499999985
 30
0.0
  0
VERTEX
  5
61D
  8
0
 62
     7
 10
347.08637199999998
 20
557.42409499999997
 30
0.0
  0
VERTEX
  5
61E
  8
0
 62
     7
 10
349.08637199999998
 20
556.42409499999985
 30
0.0
  0
VERTEX
  5
61F
  8
0
 62
     7
 10
349.08637199999998
 20
540.42409499999997
 30
0.0
  0
VERTEX
  5
620
  8
0
 62
     7
 10
351.08637199999998
 20
539.42409499999985
 30
0.0
  0
VERTEX
  5
621
  8
0
 62
     7
 10
347.08637199999998
 20
538.42409499999985
 30
0.0
  0
VERTEX
  5
622
  8
0
 62
     7
 10
349.08637199999998
 20
537.42409499999985
 30
0.0
  0
VERTEX
  5
623
  8
0
 62
     7
 10
349.08637199999998
 20
521.42409499999985
 30
0.0
  0
VERTEX
  5
624
  8
0
 62
     7
 10
351.08637199999998
 20
520.42409499999985
 30
0.0
  0
VERTEX
  5
625
  8
0
 62
     7
 10
347.08637199999998
 20
519.42409499999997
 30
0.0
  0
VERTEX
  5
626
  8
0
 62
     7
 10
349.08637199999998
 20
518.42409499999985
 30
0.0
  0
VERTEX
  5
627
  8
0
 62
     7
 10
349.08637199999998
 20
502.42409500000002
 30
0.0
  0
VERTEX
  5
628
  8
0
 62
     7
 10
351.08637199999998
 20
501.42409500000002
 30
0.0
  0
VERTEX
  5
629
  8
0
 62
     7
 10
347.08637199999998
 20
500.42409500000002
 30
0.0
  0
VERTEX
  5
62A
  8
0
 62
     7
 10
349.08637199999998
 20
499.42409500000002
 30
0.0
  0
VERTEX
  5
62B
  8
0
 62
     7
 10
349.08637199999998
 20
483.42409500000002
 30
0.0
  0
VERTEX
  5
62C
  8
0
 62
     7
 10
351.08637199999998
 20
482.42409500000002
 30
0.0
  0
VERTEX
  5
62D
  8
0
 62
     7
 10
347.08637199999998
 20
481.42409500000002
 30
0.0
  0
VERTEX
  5
62E
  8
0
 62
     7
 10
349.08637199999998
 20
480.42409500000002
 30
0.0
  0
VERTEX
  5
62F
  8
0
 62
     7
 10
349.08637199999998
 20
464.42409500000002
 30
0.0
  0
VERTEX
  5
630
  8
0
 62
     7
 10
351.08637199999998
 20
463.42409500000002
 30
0.0
  0
VERTEX
  5
631
  8
0
 62
     7
 10
347.08637199999998
 20
462.42409499999991
 30
0.0
  0
VERTEX
  5
632
  8
0
 62
     7
 10
349.08637199999998
 20
461.42409500000002
 30
0.0
  0
VERTEX
  5
633
  8
0
 62
     7
 10
349.08637199999998
 20
445.42409499999991
 30
0.0
  0
VERTEX
  5
634
  8
0
 62
     7
 10
351.08637199999998
 20
444.42409500000002
 30
0.0
  0
VERTEX
  5
635
  8
0
 62
     7
 10
347.08637199999998
 20
443.42409500000002
 30
0.0
  0
VERTEX
  5
636
  8
0
 62
     7
 10
349.08637199999998
 20
442.42409500000002
 30
0.0
  0
VERTEX
  5
637
  8
0
 62
     7
 10
349.08637199999998
 20
438.059639
 30
0.0
  0
SEQEND
  5
638
  8
0
 62
     7
  0
LINE
  5
2BF
  8
0
  6
DASHDOT
 62
     7
 10
331.24347699999993
 20
527.10391200000004
 30
0.0
 11
613.2188339999999
 21
527.10391200000004
 31
0.0
  0
LINE
  5
2C0
  8
0
 62
     7
 10
551.62804400000005
 20
589.29877099999987
 30
0.0
 11
551.62804400000005
 21
559.06258800000001
 31
0.0
  0
LINE
  5
2C1
  8
0
 62
     7
 10
564.33879899999988
 20
589.29877099999987
 30
0.0
 11
564.33879899999988
 21
559.06258800000001
 31
0.0
  0
LINE
  5
2C2
  8
0
 62
     7
 10
551.62804400000005
 20
589.29877099999987
 30
0.0
 11
564.33879899999988
 21
589.29877099999987
 31
0.0
  0
LINE
  5
2C3
  8
0
 62
     7
 10
551.62804400000005
 20
559.06258800000001
 30
0.0
 11
564.33879899999988
 21
559.06258800000001
 31
0.0
  0
LINE
  5
2C4
  8
0
 62
     7
 10
564.33879899999988
 20
495.14523700000001
 30
0.0
 11
564.33879899999988
 21
464.90904999999992
 31
0.0
  0
LINE
  5
2C5
  8
0
 62
     7
 10
551.62804400000005
 20
495.14523700000001
 30
0.0
 11
551.62804400000005
 21
464.90904999999992
 31
0.0
  0
LINE
  5
2C6
  8
0
 62
     7
 10
551.62804400000005
 20
495.14523700000001
 30
0.0
 11
564.33879899999988
 21
495.14523700000001
 31
0.0
  0
LINE
  5
2C7
  8
0
 62
     7
 10
551.62804400000005
 20
464.90904999999992
 30
0.0
 11
564.33879899999988
 21
464.90904999999992
 31
0.0
  0
LINE
  5
2C8
  8
0
  6
DASHDOT
 62
     7
 10
557.98342100000002
 20
609.32783499999994
 30
0.0
 11
557.98342100000002
 21
394.20797700000003
 31
0.0
  0
CIRCLE
  5
2C9
  8
0
 62
     7
 10
361.993202
 20
451.04014599999988
 30
0.0
 40
0.4
  0
LINE
  5
2CA
  8
0
 62
     7
 10
441.08637199999998
 20
668.28857400000004
 30
0.0
 11
452.90406000000002
 21
666.20480299999997
 31
0.0
  0
LINE
  5
2CB
  8
0
 62
     7
 10
441.08637199999998
 20
668.28857400000004
 30
0.0
 11
452.90406000000002
 21
670.372345
 31
0.0
  0
LINE
  5
2CC
  8
0
 62
     7
 10
504.08637199999993
 20
668.28857400000004
 30
0.0
 11
492.26868399999989
 21
670.372345
 31
0.0
  0
LINE
  5
2CD
  8
0
 62
     7
 10
504.08637199999993
 20
668.28857400000004
 30
0.0
 11
492.26868399999989
 21
666.20480299999997
 31
0.0
  0
LINE
  5
2CE
  8
0
 62
     7
 10
441.08637199999998
 20
668.28857400000004
 30
0.0
 11
504.08637199999993
 21
668.28857400000004
 31
0.0
  0
LINE
  5
2CF
  8
0
 62
     7
 10
441.08637199999998
 20
676.28857400000004
 30
0.0
 11
441.08637199999998
 21
629.61386100000004
 31
0.0
  0
LINE
  5
2D0
  8
0
 62
     7
 10
504.08637199999993
 20
676.28857400000004
 30
0.0
 11
504.08637199999993
 21
590.10391200000004
 31
0.0
  0
LINE
  5
2D1
  8
0
 62
     7
 10
369.08637199999998
 20
701.23696900000004
 30
0.0
 11
380.90406000000002
 21
699.15319800000009
 31
0.0
  0
LINE
  5
2D2
  8
0
 62
     7
 10
369.08637199999998
 20
701.23696900000004
 30
0.0
 11
380.90406000000002
 21
703.32074
 31
0.0
  0
LINE
  5
2D3
  8
0
 62
     7
 10
504.08637199999993
 20
701.23696900000004
 30
0.0
 11
492.26868399999989
 21
703.32074
 31
0.0
  0
LINE
  5
2D4
  8
0
 62
     7
 10
504.08637199999993
 20
701.23696900000004
 30
0.0
 11
492.26868399999989
 21
699.15319800000009
 31
0.0
  0
LINE
  5
2D5
  8
0
 62
     7
 10
369.08637199999998
 20
701.23696900000004
 30
0.0
 11
504.08637199999993
 21
701.23696900000004
 31
0.0
  0
LINE
  5
2D6
  8
0
 62
     7
 10
369.08637199999998
 20
709.23696900000004
 30
0.0
 11
369.086388
 21
590.10391200000004
 31
0.0
  0
LINE
  5
2D7
  8
0
 62
     7
 10
504.08637199999993
 20
709.23696900000004
 30
0.0
 11
504.08637199999993
 21
590.10391200000004
 31
0.0
  0
LINE
  5
2D8
  8
0
 62
     7
 10
441.08637199999998
 20
418.665527
 30
0.0
 11
452.90406000000002
 21
416.58175699999993
 31
0.0
  0
LINE
  5
2D9
  8
0
 62
     7
 10
441.08637199999998
 20
418.665527
 30
0.0
 11
452.90406000000002
 21
420.74931299999992
 31
0.0
  0
LINE
  5
2DA
  8
0
 62
     7
 10
522.08637199999987
 20
418.665527
 30
0.0
 11
510.26868400000001
 21
420.74931299999992
 31
0.0
  0
LINE
  5
2DB
  8
0
 62
     7
 10
522.08637199999987
 20
418.665527
 30
0.0
 11
510.26868400000001
 21
416.58175699999993
 31
0.0
  0
LINE
  5
2DC
  8
0
 62
     7
 10
441.08637199999998
 20
418.665527
 30
0.0
 11
522.08637199999987
 21
418.66554300000001
 31
0.0
  0
LINE
  5
2DD
  8
0
 62
     7
 10
522.08637199999987
 20
410.665527
 30
0.0
 11
522.08637199999987
 21
449.60391199999998
 31
0.0
  0
LINE
  5
2DE
  8
0
 62
     7
 10
397.08637199999998
 20
386.89521799999989
 30
0.0
 11
408.90406000000002
 21
384.81144699999999
 31
0.0
  0
LINE
  5
2DF
  8
0
 62
     7
 10
397.08637199999998
 20
386.89521799999989
 30
0.0
 11
408.90406000000002
 21
388.97900399999997
 31
0.0
  0
LINE
  5
2E0
  8
0
 62
     7
 10
522.08637199999987
 20
386.89521799999989
 30
0.0
 11
510.26868400000001
 21
388.97898900000001
 31
0.0
  0
LINE
  5
2E1
  8
0
 62
     7
 10
522.08637199999987
 20
386.89521799999989
 30
0.0
 11
510.26868400000001
 21
384.81143199999991
 31
0.0
  0
LINE
  5
2E2
  8
0
 62
     7
 10
397.08637199999998
 20
386.89521799999989
 30
0.0
 11
522.08637199999987
 21
386.89521799999989
 31
0.0
  0
LINE
  5
2E3
  8
0
 62
     7
 10
397.08637199999998
 20
378.89521799999989
 30
0.0
 11
397.08637199999998
 21
449.60391199999998
 31
0.0
  0
LINE
  5
2E4
  8
0
 62
     7
 10
522.08637199999987
 20
378.89521799999989
 30
0.0
 11
522.08637199999987
 21
449.60391199999998
 31
0.0
  0
LINE
  5
2E5
  8
0
 62
     7
 10
441.08637199999998
 20
541.29824800000006
 30
0.0
 11
452.90406000000002
 21
539.21444699999995
 31
0.0
  0
LINE
  5
2E6
  8
0
 62
     7
 10
441.08637199999998
 20
541.29824800000006
 30
0.0
 11
452.90406000000002
 21
543.38201900000001
 31
0.0
  0
LINE
  5
2E7
  8
0
 62
     7
 10
535.08637199999987
 20
541.29824800000006
 30
0.0
 11
523.26868400000001
 21
543.38201900000001
 31
0.0
  0
LINE
  5
2E8
  8
0
 62
     7
 10
535.08637199999987
 20
541.29824800000006
 30
0.0
 11
523.26868400000001
 21
539.21447799999987
 31
0.0
  0
LINE
  5
2E9
  8
0
 62
     7
 10
441.08637199999998
 20
541.29824800000006
 30
0.0
 11
535.08637199999987
 21
541.29824800000006
 31
0.0
  0
LINE
  5
2EA
  8
0
 62
     7
 10
535.08637199999987
 20
549.29824800000006
 30
0.0
 11
535.08637199999987
 21
499.35391199999998
 31
0.0
  0
LINE
  5
2EB
  8
0
 62
     7
 10
473.15625799999998
 20
507.85391199999998
 30
0.0
 11
475.240028
 21
519.67160000000001
 31
0.0
  0
LINE
  5
2EC
  8
0
 62
     7
 10
473.15625799999998
 20
507.85391199999998
 30
0.0
 11
471.07245599999987
 21
519.67160000000001
 31
0.0
  0
LINE
  5
2ED
  8
0
 62
     7
 10
473.15625799999998
 20
491.85391199999998
 30
0.0
 11
471.07248699999991
 21
480.036224
 31
0.0
  0
LINE
  5
2EE
  8
0
 62
     7
 10
473.15625799999998
 20
491.85391199999998
 30
0.0
 11
475.240028
 21
480.036224
 31
0.0
  0
LINE
  5
2EF
  8
0
 62
     7
 10
473.15625799999998
 20
511.19497699999988
 30
0.0
 11
473.15625799999998
 21
489.19496199999998
 31
0.0
  0
LINE
  5
2F0
  8
0
 62
     7
 10
465.15625799999998
 20
507.85391199999998
 30
0.0
 11
504.08637199999993
 21
507.85391199999998
 31
0.0
  0
LINE
  5
2F1
  8
0
 62
     7
 10
465.15625799999998
 20
491.85391199999998
 30
0.0
 11
504.08637199999993
 21
491.85391199999998
 31
0.0
  0
LINE
  5
2F2
  8
0
 62
     7
 10
634.98737300000005
 20
598.10391200000004
 30
0.0
 11
632.90360299999998
 21
586.28622400000006
 31
0.0
  0
LINE
  5
2F3
  8
0
 62
     7
 10
634.98737300000005
 20
598.10391200000004
 30
0.0
 11
637.071144
 21
586.28622400000006
 31
0.0
  0
LINE
  5
2F4
  8
0
 62
     7
 10
634.98737300000005
 20
456.10391199999998
 30
0.0
 11
637.071144
 21
467.92160000000001
 31
0.0
  0
LINE
  5
2F5
  8
0
 62
     7
 10
634.98737300000005
 20
456.10391199999998
 30
0.0
 11
632.90360299999998
 21
467.92160000000001
 31
0.0
  0
LINE
  5
2F6
  8
0
 62
     7
 10
634.98737300000005
 20
598.10391200000004
 30
0.0
 11
634.98737300000005
 21
456.10391199999998
 31
0.0
  0
LINE
  5
2F7
  8
0
 62
     7
 10
642.98737300000005
 20
598.10391200000004
 30
0.0
 11
403.58638799999989
 21
598.10391200000004
 31
0.0
  0
LINE
  5
2F8
  8
0
 62
     7
 10
642.98737300000005
 20
456.10391199999998
 30
0.0
 11
528.58637199999998
 21
456.10391199999998
 31
0.0
  0
LINE
  5
2F9
  8
0
 62
     7
 10
324.51300800000001
 20
590.10391200000004
 30
0.0
 11
322.429237
 21
578.28622399999995
 31
0.0
  0
LINE
  5
2FA
  8
0
 62
     7
 10
324.51300800000001
 20
590.10391200000004
 30
0.0
 11
326.59679399999987
 21
578.28622399999995
 31
0.0
  0
LINE
  5
2FB
  8
0
 62
     7
 10
324.51300800000001
 20
464.10391199999998
 30
0.0
 11
326.59679399999987
 21
475.92160000000001
 31
0.0
  0
LINE
  5
2FC
  8
0
 62
     7
 10
324.51300800000001
 20
464.10391199999998
 30
0.0
 11
322.429237
 21
475.92160000000001
 31
0.0
  0
LINE
  5
2FD
  8
0
 62
     7
 10
324.51300800000001
 20
590.10391200000004
 30
0.0
 11
324.51300800000001
 21
464.10391199999998
 31
0.0
  0
LINE
  5
2FE
  8
0
 62
     7
 10
316.51300800000001
 20
590.10391200000004
 30
0.0
 11
369.08637199999998
 21
590.10391200000004
 31
0.0
  0
LINE
  5
2FF
  8
0
 62
     7
 10
316.51300800000001
 20
464.10391199999998
 30
0.0
 11
369.08637199999998
 21
464.10391199999998
 31
0.0
  0
LINE
  5
300
  8
0
 62
     7
 10
597.41983800000003
 20
527.10391200000004
 30
0.0
 11
599.50360899999998
 21
538.92160000000001
 31
0.0
  0
LINE
  5
301
  8
0
 62
     7
 10
597.41983800000003
 20
527.10391200000004
 30
0.0
 11
595.33606699999984
 21
538.92160000000001
 31
0.0
  0
LINE
  5
302
  8
0
 62
     7
 10
597.41983800000003
 20
499.85391199999998
 30
0.0
 11
595.33606699999984
 21
488.036224
 31
0.0
  0
LINE
  5
303
  8
0
 62
     7
 10
597.41983800000003
 20
499.85391199999998
 30
0.0
 11
599.50360899999998
 21
488.036224
 31
0.0
  0
LINE
  5
304
  8
0
 62
     7
 10
597.41983800000003
 20
594.10391200000004
 30
0.0
 11
597.41983800000003
 21
499.85391199999998
 31
0.0
  0
LINE
  5
305
  8
0
 62
     7
 10
605.41983800000003
 20
499.85391199999998
 30
0.0
 11
542.10758199999987
 21
499.85391199999998
 31
0.0
  0
LINE
  5
306
  8
0
 62
     7
 10
441.08637199999998
 20
348.06484999999998
 30
0.0
 11
429.26868400000001
 21
350.14862099999988
 31
0.0
  0
LINE
  5
307
  8
0
 62
     7
 10
441.08637199999998
 20
348.06484999999998
 30
0.0
 11
429.26868400000001
 21
345.98107900000002
 31
0.0
  0
LINE
  5
308
  8
0
 62
     7
 10
557.98343699999987
 20
348.06484999999998
 30
0.0
 11
569.80112499999996
 21
345.98107900000002
 31
0.0
  0
LINE
  5
309
  8
0
 62
     7
 10
557.98343699999987
 20
348.06484999999998
 30
0.0
 11
569.80112499999996
 21
350.14862099999988
 31
0.0
  0
LINE
  5
30A
  8
0
 62
     7
 10
441.08637199999998
 20
348.06484999999998
 30
0.0
 11
557.98343699999987
 21
348.06484999999998
 31
0.0
  0
LINE
  5
30B
  8
0
 62
     7
 10
557.98343699999987
 20
340.06484999999992
 30
0.0
 11
557.98340599999995
 21
394.20797700000003
 31
0.0
  0
INSERT
  5
54F
  8
0
  2
BLOCK0
 10
223.92524700000001
 20
417.11683699999998
 30
0.0
  0
INSERT
  5
550
  8
0
  2
BLOCK1
 10
223.92524700000001
 20
417.11683699999998
 30
0.0
  0
INSERT
  5
551
  8
0
  2
BLOCK2
 10
223.92524700000001
 20
417.11683699999998
 30
0.0
  0
INSERT
  5
552
  8
0
  2
BLOCK3
 10
223.92524700000001
 20
417.11683699999998
 30
0.0
  0
INSERT
  5
553
  8
0
  2
BLOCK4
 10
223.92524700000001
 20
417.11683699999998
 30
0.0
  0
INSERT
  5
554
  8
0
  2
BLOCK5
 10
223.92524700000001
 20
417.11683699999998
 30
0.0
  0
INSERT
  5
555
  8
0
  2
BLOCK6
 10
223.92524700000001
 20
417.11683699999998
 30
0.0
  0
INSERT
  5
556
  8
0
  2
BLOCK7
 10
223.92524700000001
 20
417.11683699999998
 30
0.0
  0
INSERT
  5
557
  8
0
  2
BLOCK8
 10
223.92524700000001
 20
417.11683699999998
 30
0.0
  0
INSERT
  5
558
  8
0
  2
BLOCK9
 10
223.92524700000001
 20
417.11683699999998
 30
0.0
  0
INSERT
  5
559
  8
0
  2
BLOCK10
 10
-101.60999099999999
 20
417.11685199999999
 30
0.0
 50
90.0
  0
INSERT
  5
55A
  8
0
  2
BLOCK11
 10
-101.60999099999999
 20
417.11685199999999
 30
0.0
 50
90.0
  0
INSERT
  5
55B
  8
0
  2
BLOCK12
 10
-101.60999099999999
 20
417.11685199999999
 30
0.0
 50
90.0
  0
INSERT
  5
55C
  8
0
  2
BLOCK13
 10
-101.60999099999999
 20
417.11685199999999
 30
0.0
 50
90.0
  0
INSERT
  5
55D
  8
0
  2
BLOCK14
 10
-101.60999099999999
 20
417.11685199999999
 30
0.0
 50
90.0
  0
INSERT
  5
55E
  8
0
  2
BLOCK15
 10
-101.60999099999999
 20
417.11685199999999
 30
0.0
 50
90.0
  0
INSERT
  5
55F
  8
0
  2
BLOCK16
 10
-101.60999099999999
 20
417.11685199999999
 30
0.0
 50
90.0
  0
INSERT
  5
560
  8
0
  2
BLOCK17
 10
-101.60999099999999
 20
417.11685199999999
 30
0.0
 50
90.0
  0
INSERT
  5
561
  8
0
  2
BLOCK18
 10
-81.557698179636958
 20
421.29246110293599
 30
0.0
 50
90.0
  0
INSERT
  5
562
  8
0
  2
BLOCK19
 10
-101.60999099999999
 20
417.11685199999999
 30
0.0
 50
90.0
  0
INSERT
  5
563
  8
0
  2
BLOCK20
 10
-101.60999099999999
 20
417.11685199999999
 30
0.0
 50
90.0
  0
INSERT
  5
564
  8
0
  2
BLOCK21
 10
-101.60999099999999
 20
417.11685199999999
 30
0.0
 50
90.0
  0
INSERT
  5
565
  8
0
  2
BLOCK22
 10
-101.60999099999999
 20
417.11685199999999
 30
0.0
 50
90.0
  0
INSERT
  5
566
  8
0
  2
BLOCK23
 10
-101.60999099999999
 20
417.11685199999999
 30
0.0
 50
90.0
  0
INSERT
  5
567
  8
0
  2
BLOCK24
 10
-101.60999099999999
 20
417.11685199999999
 30
0.0
 50
90.0
  0
INSERT
  5
568
  8
0
  2
BLOCK25
 10
-101.60999099999999
 20
417.11685199999999
 30
0.0
 50
90.0
  0
INSERT
  5
569
  8
0
  2
BLOCK26
 10
-101.60999099999999
 20
417.11685199999999
 30
0.0
 50
90.0
  0
INSERT
  5
56A
  8
0
  2
BLOCK27
 10
-131.499033
 20
355.78283299999993
 30
0.0
 50
180.0
  0
INSERT
  5
56B
  8
0
  2
BLOCK28
 10
-131.499033
 20
355.78283299999993
 30
0.0
 50
180.0
  0
INSERT
  5
56C
  8
0
  2
BLOCK29
 10
-131.499033
 20
355.78283299999993
 30
0.0
 50
180.0
  0
INSERT
  5
56D
  8
0
  2
BLOCK30
 10
-131.499033
 20
355.78283299999993
 30
0.0
 50
180.0
  0
INSERT
  5
56E
  8
0
  2
BLOCK31
 10
-131.499033
 20
355.78283299999993
 30
0.0
 50
180.0
  0
INSERT
  5
56F
  8
0
  2
BLOCK32
 10
-131.499033
 20
355.78283299999993
 30
0.0
 50
180.0
  0
INSERT
  5
570
  8
0
  2
BLOCK33
 10
-131.499033
 20
355.78283299999993
 30
0.0
 50
180.0
  0
INSERT
  5
571
  8
0
  2
BLOCK34
 10
441.08637199999998
 20
529.35391200000004
 30
0.0
 50
270.0
  0
INSERT
  5
572
  8
0
  2
BLOCK35
 10
441.08637199999998
 20
529.35391200000004
 30
0.0
 50
270.0
  0
INSERT
  5
573
  8
0
  2
BLOCK36
 10
441.08637199999998
 20
529.35391200000004
 30
0.0
 50
270.0
  0
INSERT
  5
574
  8
0
  2
BLOCK37
 10
441.08637199999998
 20
529.35391200000004
 30
0.0
 50
270.0
  0
INSERT
  5
575
  8
0
  2
BLOCK38
 10
441.08637199999998
 20
529.35391200000004
 30
0.0
 50
270.0
  0
INSERT
  5
576
  8
0
  2
BLOCK39
 10
441.08637199999998
 20
529.35391200000004
 30
0.0
 50
270.0
  0
INSERT
  5
577
  8
0
  2
BLOCK40
 10
441.08637199999998
 20
529.35391200000004
 30
0.0
 50
270.0
  0
INSERT
  5
578
  8
0
  2
BLOCK41
 10
441.08637199999998
 20
529.35391200000004
 30
0.0
 50
270.0
  0
INSERT
  5
579
  8
0
  2
BLOCK42
 10
441.08637199999998
 20
529.35391200000004
 30
0.0
 50
270.0
  0
INSERT
  5
57A
  8
0
  2
BLOCK43
 10
441.08637199999998
 20
529.35391200000004
 30
0.0
 50
270.0
  0
INSERT
  5
57B
  8
0
  2
BLOCK44
 10
441.08637199999998
 20
529.35391200000004
 30
0.0
 50
270.0
  0
INSERT
  5
57C
  8
0
  2
BLOCK45
 10
441.08637199999998
 20
529.35391200000004
 30
0.0
 50
270.0
  0
INSERT
  5
57D
  8
0
  2
BLOCK46
 10
441.08637199999998
 20
529.35391200000004
 30
0.0
 50
270.0
  0
INSERT
  5
57E
  8
0
  2
BLOCK47
 10
441.08637199999998
 20
529.35391200000004
 30
0.0
 50
270.0
  0
INSERT
  5
57F
  8
0
  2
BLOCK48
 10
441.08637199999998
 20
529.35391200000004
 30
0.0
 50
270.0
  0
INSERT
  5
580
  8
0
  2
BLOCK49
 10
441.08637199999998
 20
529.35391200000004
 30
0.0
 50
270.0
  0
VIEWPORT
  5
30C
 67
     1
  8
0
 62
     0
 10
0.0
 20
0.0
 30
0.0
 40
1000.0
 41
1000.0
 68
     1
 69
     1
1001
ACAD
1000
MVIEW
1002
{
1070
    16
1010
0.0
1020
0.0
1030
0.0
1010
0.0
1020
0.0
1030
1.0
1040
0.0
1040
1000.0
1040
0.0
1040
0.0
1040
50.0
1040
0.0
1040
0.0
1070
     0
1070
   100
1070
     1
1070
     1
1070
     0
1070
     0
1070
     0
1070
     0
1040
0.0
1040
0.0
1040
0.0
1040
1.0
1040
1.0
1040
1.0
1040
1.0
1070
     0
1002
{
1002
}
1002
}
  0
ENDSEC
  0
EOF
