  0
SECTION
  2
HEADER
  9
$ACADVER
  1
AC1009
  9
$DWGCODEPAGE
  3
iso8859-1
  9
$INSBASE
 10
0.0
 20
0.0
 30
0.0
  9
$EXTMIN
 10
1.0E20
 20
1.0E20
  9
$EXTMAX
 10
-1.0E20
 20
-1.0E20
  9
$LIMMIN
 10
0.0
 20
0.0
  9
$LIMMAX
 10
12.0
 20
9.0
  9
$ORTHOMODE
 70
     0
  9
$REGENMODE
 70
     1
  9
$FILLMODE
 70
     1
  9
$QTEXTMODE
 70
     0
  9
$MIRRTEXT
 70
     1
  9
$DRAGMODE
 70
     2
  9
$LTSCALE
 40
15.0
  9
$OSMODE
 70
     0
  9
$ATTMODE
 70
     1
  9
$TEXTSIZE
 40
0.2
  9
$TRACEWID
 40
0.05
  9
$TEXTSTYLE
  7
STANDARD
  9
$CLAYER
  8
0
  9
$CELTYPE
  6
DASHED
  9
$CECOLOR
 62
   256
  9
$DIMSCALE
 40
1.0
  9
$DIMASZ
 40
0.18
  9
$DIMEXO
 40
0.0625
  9
$DIMDLI
 40
0.38
  9
$DIMRND
 40
0.0
  9
$DIMDLE
 40
0.0
  9
$DIMEXE
 40
0.18
  9
$DIMTP
 40
0.0
  9
$DIMTM
 40
0.0
  9
$DIMTXT
 40
0.18
  9
$DIMCEN
 40
0.09
  9
$DIMTSZ
 40
0.0
  9
$DIMTOL
 70
     0
  9
$DIMLIM
 70
     0
  9
$DIMTIH
 70
     1
  9
$DIMTOH
 70
     1
  9
$DIMSE1
 70
     0
  9
$DIMSE2
 70
     0
  9
$DIMTAD
 70
     0
  9
$DIMZIN
 70
     0
  9
$DIMBLK
  1

  9
$DIMASO
 70
     1
  9
$DIMSHO
 70
     1
  9
$DIMPOST
  1

  9
$DIMAPOST
  1

  9
$DIMALT
 70
     0
  9
$DIMALTD
 70
     2
  9
$DIMALTF
 40
25.4
  9
$DIMLFAC
 40
1.0
  9
$DIMTOFL
 70
     0
  9
$DIMTVP
 40
0.0
  9
$DIMTIX
 70
     0
  9
$DIMSOXD
 70
     0
  9
$DIMSAH
 70
     0
  9
$DIMBLK1
  1

  9
$DIMBLK2
  1

  9
$DIMSTYLE
  2
STANDARD
  9
$DIMCLRD
 70
     0
  9
$DIMCLRE
 70
     0
  9
$DIMCLRT
 70
     0
  9
$DIMTFAC
 40
1.0
  9
$DIMGAP
 40
0.09
  9
$LUNITS
 70
     2
  9
$LUPREC
 70
     4
  9
$AXISMODE
 70
     0
  9
$AXISUNIT
 10
0.0
 20
0.0
  9
$SKETCHINC
 40
0.1
  9
$FILLETRAD
 40
0.0
  9
$AUNITS
 70
     0
  9
$AUPREC
 70
     0
  9
$MENU
  1
acad
  9
$ELEVATION
 40
0.0
  9
$PELEVATION
 40
0.0
  9
$THICKNESS
 40
0.0
  9
$LIMCHECK
 70
     0
  9
$BLIPMODE
 70
     1
  9
$CHAMFERA
 40
0.0
  9
$CHAMFERB
 40
0.0
  9
$SKPOLY
 70
     0
  9
$TDCREATE
 40
0.000000000
  9
$TDUPDATE
 40
0.000000000
  9
$TDINDWG
 40
0.0
  9
$TDUSRTIMER
 40
0.0
  9
$USRTIMER
 70
     1
  9
$ANGBASE
 50
0.0
  9
$ANGDIR
 70
     0
  9
$PDMODE
 70
     0
  9
$PDSIZE
 40
0.0
  9
$PLINEWID
 40
0.0
  9
$COORDS
 70
     1
  9
$SPLFRAME
 70
     0
  9
$SPLINETYPE
 70
     6
  9
$SPLINESEGS
 70
     8
  9
$ATTDIA
 70
     0
  9
$ATTREQ
 70
     1
  9
$HANDLING
 70
     1
  9
$HANDSEED
  5
   981
  9
$SURFTAB1
 70
     6
  9
$SURFTAB2
 70
     6
  9
$SURFTYPE
 70
     6
  9
$SURFU
 70
     6
  9
$SURFV
 70
     6
  9
$UCSNAME
  2

  9
$UCSORG
 10
0.0
 20
0.0
 30
0.0
  9
$UCSXDIR
 10
1.0
 20
0.0
 30
0.0
  9
$UCSYDIR
 10
0.0
 20
1.0
 30
0.0
  9
$PUCSNAME
  2

  9
$PUCSORG
 10
0.0
 20
0.0
 30
0.0
  9
$PUCSXDIR
 10
1.0
 20
0.0
 30
0.0
  9
$PUCSYDIR
 10
0.0
 20
1.0
 30
0.0
  9
$USERI1
 70
     0
  9
$USERI2
 70
     0
  9
$USERI3
 70
     0
  9
$USERI4
 70
     0
  9
$USERI5
 70
     0
  9
$USERR1
 40
0.0
  9
$USERR2
 40
0.0
  9
$USERR3
 40
0.0
  9
$USERR4
 40
0.0
  9
$USERR5
 40
0.0
  9
$WORLDVIEW
 70
     1
  9
$SHADEDGE
 70
     3
  9
$SHADEDIF
 70
    70
  9
$TILEMODE
 70
     1
  9
$MAXACTVP
 70
    16
  9
$PINSBASE
 10
0.0
 20
0.0
 30
0.0
  9
$PLIMCHECK
 70
     0
  9
$PEXTMIN
 10
1.0E20
 20
1.0E20
 30
1.0E20
  9
$PEXTMAX
 10
-1.0E20
 20
-1.0E20
 30
-1.0E20
  9
$PLIMMIN
 10
0.0
 20
0.0
  9
$PLIMMAX
 10
12.0
 20
9.0
  9
$UNITMODE
 70
     0
  9
$VISRETAIN
 70
     0
  0
ENDSEC
  0
SECTION
  2
TABLES
  0
TABLE
  2
VPORT
 70
     1
  0
VPORT
  2
*ACTIVE
 70
     0
 10
0.0
 20
0.0
 11
1.0
 21
1.0
 12
6.801242
 22
4.5
 13
0.0
 23
0.0
 14
1.0
 24
1.0
 15
0.0
 25
0.0
 16
0.0
 26
0.0
 36
1.0
 17
0.0
 27
0.0
 37
0.0
 40
9.0
 41
1.511387
 42
50.0
 43
0.0
 44
0.0
 50
0.0
 51
0.0
 71
     0
 72
   100
 73
     1
 74
     1
 75
     0
 76
     0
 77
     0
 78
     0
  0
ENDTAB
  0
TABLE
  2
LTYPE
 70
    41
  0
LTYPE
  2
BYBLOCK
 70
     0
  3

 72
    65
 73
     0
 40
0.0
  0
LTYPE
  2
BYLAYER
 70
     0
  3

 72
    65
 73
     0
 40
0.0
  0
LTYPE
  2
CONTINUOUS
 70
     0
  3
Solid line
 72
    65
 73
     0
 40
0.0
  0
LTYPE
  2
BORDER
 70
    64
  3
__ __ . __ __ . __ __ . __ __ . __ __ . __ __ .
 72
    65
 73
     6
 40
1.75
 49
0.5
 49
-0.25
 49
0.5
 49
-0.25
 49
0.0
 49
-0.25
  0
LTYPE
  2
BORDER2
 70
    64
  3
__.__.__.__.__.__.__.__.__.__.__.__.__.__.__.__
 72
    65
 73
     6
 40
0.875
 49
0.25
 49
-0.125
 49
0.25
 49
-0.125
 49
0.0
 49
-0.125
  0
LTYPE
  2
BORDERX2
 70
    64
  3
____  ____  .  ____  ____  .  ____  ____  .  __
 72
    65
 73
     6
 40
3.5
 49
1.0
 49
-0.5
 49
1.0
 49
-0.5
 49
0.0
 49
-0.5
  0
LTYPE
  2
CENTER
 70
    64
  3
____ _ ____ _ ____ _ ____ _ ____ _ ____ _ ____
 72
    65
 73
     4
 40
2.0
 49
1.25
 49
-0.25
 49
0.25
 49
-0.25
  0
LTYPE
  2
CENTER2
 70
    64
  3
___ _ ___ _ ___ _ ___ _ ___ _ ___ _ ___ _ ___ _
 72
    65
 73
     4
 40
1.125
 49
0.75
 49
-0.125
 49
0.125
 49
-0.125
  0
LTYPE
  2
CENTERX2
 70
    64
  3
________  __  ________  __  ________  __  _____
 72
    65
 73
     4
 40
4.0
 49
2.5
 49
-0.5
 49
0.5
 49
-0.5
  0
LTYPE
  2
DASHDOT
 70
    64
  3
__ . __ . __ . __ . __ . __ . __ . __ . __ . __
 72
    65
 73
     4
 40
1.0
 49
0.5
 49
-0.25
 49
0.0
 49
-0.25
  0
LTYPE
  2
DASHDOT2
 70
    64
  3
_._._._._._._._._._._._._._._._._._._._._._._._
 72
    65
 73
     4
 40
0.5
 49
0.25
 49
-0.125
 49
0.0
 49
-0.125
  0
LTYPE
  2
DASHDOTX2
 70
    64
  3
____  .  ____  .  ____  .  ____  .  ____  .  __
 72
    65
 73
     4
 40
2.0
 49
1.0
 49
-0.5
 49
0.0
 49
-0.5
  0
LTYPE
  2
DASHED
 70
    64
  3
__ __ __ __ __ __ __ __ __ __ __ __ __ __ __ __
 72
    65
 73
     2
 40
0.75
 49
0.5
 49
-0.25
  0
LTYPE
  2
DASHED2
 70
    64
  3
_ _ _ _ _ _ _ _ _ _ _ _ _ _ _ _ _ _ _ _ _ _ _ _
 72
    65
 73
     2
 40
0.375
 49
0.25
 49
-0.125
  0
LTYPE
  2
DASHEDX2
 70
    64
  3
____  ____  ____  ____  ____  ____  ____  ____
 72
    65
 73
     2
 40
1.5
 49
1.0
 49
-0.5
  0
LTYPE
  2
DIVIDE
 70
    64
  3
____ . . ____ . . ____ . . ____ . . ____ . . __
 72
    65
 73
     6
 40
1.25
 49
0.5
 49
-0.25
 49
0.0
 49
-0.25
 49
0.0
 49
-0.25
  0
LTYPE
  2
DIVIDE2
 70
    64
  3
__..__..__..__..__..__..__..__..__..__..__..__.
 72
    65
 73
     6
 40
0.625
 49
0.25
 49
-0.125
 49
0.0
 49
-0.125
 49
0.0
 49
-0.125
  0
LTYPE
  2
DIVIDEX2
 70
    64
  3
________  .  .  ________  .  .  ________  .  .
 72
    65
 73
     6
 40
2.5
 49
1.0
 49
-0.5
 49
0.0
 49
-0.5
 49
0.0
 49
-0.5
  0
LTYPE
  2
DOT
 70
    64
  3
. . . . . . . . . . . . . . . . . . . . . . . .
 72
    65
 73
     2
 40
0.25
 49
0.0
 49
-0.25
  0
LTYPE
  2
DOT2
 70
    64
  3
...............................................
 72
    65
 73
     2
 40
0.125
 49
0.0
 49
-0.125
  0
LTYPE
  2
DOTX2
 70
    64
  3
.  .  .  .  .  .  .  .  .  .  .  .  .  .  .  .
 72
    65
 73
     2
 40
0.5
 49
0.0
 49
-0.5
  0
LTYPE
  2
HIDDEN
 70
    64
  3
__ __ __ __ __ __ __ __ __ __ __ __ __ __ __ __
 72
    65
 73
     2
 40
0.375
 49
0.25
 49
-0.125
  0
LTYPE
  2
HIDDEN2
 70
    64
  3
_ _ _ _ _ _ _ _ _ _ _ _ _ _ _ _ _ _ _ _ _ _ _ _
 72
    65
 73
     2
 40
0.1875
 49
0.125
 49
-0.0625
  0
LTYPE
  2
HIDDENX2
 70
    64
  3
____ ____ ____ ____ ____ ____ ____ ____ ____ __
 72
    65
 73
     2
 40
0.75
 49
0.5
 49
-0.25
  0
LTYPE
  2
PHANTOM
 70
    64
  3
______  __  __  ______  __  __  ______  __  __
 72
    65
 73
     6
 40
2.5
 49
1.25
 49
-0.25
 49
0.25
 49
-0.25
 49
0.25
 49
-0.25
  0
LTYPE
  2
PHANTOM2
 70
    64
  3
___ _ _ ___ _ _ ___ _ _ ___ _ _ ___ _ _ ___ _ _
 72
    65
 73
     6
 40
1.25
 49
0.625
 49
-0.125
 49
0.125
 49
-0.125
 49
0.125
 49
-0.125
  0
LTYPE
  2
PHANTOMX2
 70
    64
  3
____________    ____    ____    ____________
 72
    65
 73
     6
 40
5.0
 49
2.5
 49
-0.5
 49
0.5
 49
-0.5
 49
0.5
 49
-0.5
  0
LTYPE
  2
ACAD_ISO02W100
 70
    64
  3
__ __ __ __ __ __ __ __ __ __ __ __ __ __ __ __
 72
    65
 73
     2
 40
15.0
 49
12.0
 49
-3.0
  0
LTYPE
  2
ACAD_ISO03W100
 70
    64
  3
__    __    __    __    __    __    __    __
 72
    65
 73
     2
 40
30.0
 49
12.0
 49
-18.0
  0
LTYPE
  2
ACAD_ISO04W100
 70
    64
  3
____ . ____ . ____ . ____ . ____ . ____ . ____
 72
    65
 73
     4
 40
30.5
 49
24.0
 49
-3.0
 49
0.5
 49
-3.0
  0
LTYPE
  2
ACAD_ISO05W100
 70
    64
  3
____ .. ____ .. ____ .. ____ .. ____ .. ____ ..
 72
    65
 73
     6
 40
34.0
 49
24.0
 49
-3.0
 49
0.5
 49
-3.0
 49
0.5
 49
-3.0
  0
LTYPE
  2
ACAD_ISO06W100
 70
    64
  3
____ ... ____ ... ____ ... ____ ... ____ ... __
 72
    65
 73
     8
 40
37.5
 49
24.0
 49
-3.0
 49
0.5
 49
-3.0
 49
0.5
 49
-3.0
 49
0.5
 49
-3.0
  0
LTYPE
  2
ACAD_ISO07W100
 70
    64
  3
. . . . . . . . . . . . . . . . . . . . . . . .
 72
    65
 73
     2
 40
3.5
 49
0.5
 49
-3.0
  0
LTYPE
  2
ACAD_ISO08W100
 70
    64
  3
____ __ ____ __ ____ __ ____ ____ __ __ ____ __
 72
    65
 73
     4
 40
36.0
 49
24.0
 49
-3.0
 49
6.0
 49
-3.0
  0
LTYPE
  2
ACAD_ISO09W100
 70
    64
  3
____ __ __ ____ __ __ ____ __ __ ____ __ __ ___
 72
    65
 73
     6
 40
45.0
 49
24.0
 49
-3.0
 49
6.0
 49
-3.0
 49
6.0
 49
-3.0
  0
LTYPE
  2
ACAD_ISO10W100
 70
    64
  3
__ . __ . __ . __ . __ . __ . __ . __ . __ . __
 72
    65
 73
     4
 40
18.5
 49
12.0
 49
-3.0
 49
0.5
 49
-3.0
  0
LTYPE
  2
ACAD_ISO11W100
 70
    64
  3
__ __ . __ __ . __ __ . __ __ . __ __ . __ __ .
 72
    65
 73
     6
 40
33.5
 49
12.0
 49
-3.0
 49
12.0
 49
-3.0
 49
0.5
 49
-3.0
  0
LTYPE
  2
ACAD_ISO12W100
 70
    64
  3
__ . . __ . . __ . . __ . . __ . . __ . . __ .
 72
    65
 73
     6
 40
22.0
 49
12.0
 49
-3.0
 49
0.5
 49
-3.0
 49
0.5
 49
-3.0
  0
LTYPE
  2
ACAD_ISO13W100
 70
    64
  3
__ __ . . __ __ . . __ __ . . __ __ . . __ __ .
 72
    65
 73
     8
 40
37.0
 49
12.0
 49
-3.0
 49
12.0
 49
-3.0
 49
0.5
 49
-3.0
 49
0.5
 49
-3.0
  0
LTYPE
  2
ACAD_ISO14W100
 70
    64
  3
__ . . . __ . . . __ . . . __ . . . __ . . . __
 72
    65
 73
     8
 40
25.5
 49
12.0
 49
-3.0
 49
0.5
 49
-3.0
 49
0.5
 49
-3.0
 49
0.5
 49
-3.0
  0
LTYPE
  2
ACAD_ISO15W100
 70
    64
  3
__ __ . . . __ __ . . . __ __ . . . __ __ . . .
 72
    65
 73
    10
 40
40.5
 49
12.0
 49
-3.0
 49
12.0
 49
-3.0
 49
0.5
 49
-3.0
 49
0.5
 49
-3.0
 49
0.5
 49
-3.0
  0
ENDTAB
  0
TABLE
  2
STYLE
 70
     4
  0
STYLE
  2
STANDARD
 70
    64
 40
0.0
 41
1.0
 50
0.0
 71
     0
 42
0.2
  3
txt
  4

  0
STYLE
  2
TOLERANCE
 70
    64
 40
0.0
 41
1.0
 50
0.0
 71
     0
 42
0.2
  3
../igesfont/iges1003.shx
  4

  0
STYLE
  2
ROMANS
 70
    64
 40
0.0
 41
1.0
 50
0.0
 71
     0
 42
0.2
  3
romans.shx
  4

  0
STYLE
  2
ROMANC
 70
    64
 40
0.0
 41
1.0
 50
0.0
 71
     0
 42
0.2
  3
romanc.shx
  4

  0
ENDTAB
  0
TABLE
  2
DIMSTYLE
 70
     2
  0
DIMSTYLE
  2
UNNAMED
 70
     0
  3

  4

  5

  6

  7

 40
1.0
 41
0.18
 42
0.0625
 43
0.38
 44
0.18
 45
0.0
 46
0.0
 47
0.0
 48
0.0
140
0.18
141
0.09
142
0.0
143
25.4
144
1.0
145
0.0
146
1.0
147
0.09
 71
     0
 72
     0
 73
     1
 74
     1
 75
     0
 76
     0
 77
     0
 78
     0
170
     0
171
     2
172
     0
173
     0
174
     0
175
     0
176
     0
177
     0
178
     0
  0
DIMSTYLE
  2
STANDARD
 70
     0
  3

  4

  5

  6

  7

 40
1.0
 41
0.18
 42
0.0625
 43
0.38
 44
0.18
 45
0.0
 46
0.0
 47
0.0
 48
0.0
140
0.18
141
0.09
142
0.0
143
25.4
144
1.0
145
0.0
146
1.0
147
0.09
 71
     0
 72
     0
 73
     1
 74
     1
 75
     0
 76
     0
 77
     0
 78
     0
170
     0
171
     2
172
     0
173
     0
174
     0
175
     0
176
     0
177
     0
178
     0
  0
ENDTAB
  0
TABLE
  2
LAYER
 70
     2
  0
LAYER
  2
0
 70
     0
 62
     7
  6
CONTINUOUS
  0
LAYER
  2
255
 70
     0
 62
     7
  6
CONTINUOUS
  0
ENDTAB
  0
ENDSEC
  0
SECTION
  2
BLOCKS
  0
BLOCK
  5
     B
  8
0
  6
CONTINUOUS
 62
     7
  2
*UDIM412
 70
    65
 10
0.0
 20
0.0
 30
0.0
  3
*UDIM412
  0
TEXT
  5
     C
  8
0
  6
CONTINUOUS
 62
     7
 10
61.226325544517
 20
-97.9327445714421
 30
0.0
 40
3.00000002980232
  1
7
 50
402.143140429773
 41
0.933333333333334
 72
     1
 11
61.0354658233281
 21
-96.082454692647
 31
0.0
 73
     2
  0
TEXT
  5
     D
  8
0
  6
CONTINUOUS
 62
     7
 10
58.8906924032638
 20
-100.046347630691
 30
0.0
 40
3.00000002980232
  1
Ø
 50
402.143140429773
 41
0.933333333333334
 72
     1
 11
58.6998326820749
 21
-98.1960577518955
 31
0.0
 73
     2
  0
LINE
  5
     E
  8
0
  6
CONTINUOUS
 62
     7
 10
75.3427490788033
 20
-86.5069279579414
 30
0.0
 11
59.561677504346
 21
-100.787818466327
 31
0.0
  0
LINE
  5
     F
  8
0
  6
CONTINUOUS
 62
     7
 10
77.1838218281368
 20
-84.1382888694221
 30
0.0
 11
75.3427490788033
 21
-86.5069279579414
 31
0.0
  0
LINE
  5
    10
  8
0
  6
CONTINUOUS
 62
     7
 10
75.3427490788033
 20
-86.5069279579414
 30
0.0
 11
77.8829137248809
 21
-84.9108190735549
 31
0.0
  0
LINE
  5
    11
  8
0
  6
CONTINUOUS
 62
     7
 10
72.2041023661991
 20
-90.0497909645622
 30
0.0
 11
74.0451751155326
 21
-87.681151876043
 31
0.0
  0
LINE
  5
    12
  8
0
  6
CONTINUOUS
 62
     7
 10
74.0451751155326
 20
-87.681151876043
 30
0.0
 11
71.5050104694551
 21
-89.2772607604295
 31
0.0
  0
ENDBLK
  5
    13
  8
0
  6
CONTINUOUS
 62
     7
  0
BLOCK
  5
    14
  8
0
  6
CONTINUOUS
 62
     7
  2
*UDIM413
 70
    65
 10
0.0
 20
0.0
 30
0.0
  3
*UDIM413
  0
TEXT
  5
    15
  8
0
  6
CONTINUOUS
 62
     7
 10
43.7718505753504
 20
-73.5190399657676
 30
0.0
 40
3.00000002980232
  1
142
 50
449.999999844103
 41
0.933333333333333
 72
     1
 11
42.2718505710363
 21
-69.6190399229527
 31
0.0
 73
     2
  0
LINE
  5
    16
  8
0
  6
CONTINUOUS
 62
     7
 10
72.068962097168
 20
-51.5940399169922
 30
0.0
 11
42.7718505859375
 21
-51.5940399169922
 31
0.0
  0
LINE
  5
    17
  8
0
  6
CONTINUOUS
 62
     7
 10
72.068962097168
 20
-87.0940399169922
 30
0.0
 11
42.7718505859375
 21
-87.0940399169922
 31
0.0
  0
LINE
  5
    18
  8
0
  6
CONTINUOUS
 62
     7
 10
44.7718505859375
 20
-51.5940399169922
 30
0.0
 11
44.7718505859375
 21
-87.0940399169922
 31
0.0
  0
LINE
  5
    19
  8
0
  6
CONTINUOUS
 62
     7
 10
45.2927950158892
 20
-54.5484631941992
 30
0.0
 11
44.7718505859375
 21
-51.5940399169922
 31
0.0
  0
LINE
  5
    1A
  8
0
  6
CONTINUOUS
 62
     7
 10
44.7718505859375
 20
-51.5940399169922
 30
0.0
 11
44.2509061559858
 21
-54.5484631941992
 31
0.0
  0
LINE
  5
    1B
  8
0
  6
CONTINUOUS
 62
     7
 10
44.2509061559858
 20
-84.1396166397852
 30
0.0
 11
44.7718505859375
 21
-87.0940399169922
 31
0.0
  0
LINE
  5
    1C
  8
0
  6
CONTINUOUS
 62
     7
 10
44.7718505859375
 20
-87.0940399169922
 30
0.0
 11
45.2927950158892
 21
-84.1396166397852
 31
0.0
  0
ENDBLK
  5
    1D
  8
0
  6
CONTINUOUS
 62
     7
  0
BLOCK
  5
    1E
  8
0
  6
CONTINUOUS
 62
     7
  2
*UDIM414
 70
    65
 10
0.0
 20
0.0
 30
0.0
  3
*UDIM414
  0
TEXT
  5
    1F
  8
0
  6
CONTINUOUS
 62
     7
 10
53.462345112704
 20
-73.5190399657676
 30
0.0
 40
3.00000002980232
  1
112
 50
449.999999844103
 41
0.933333333333333
 72
     1
 11
51.9623451083899
 21
-69.6190399229527
 31
0.0
 73
     2
  0
LINE
  5
    20
  8
0
  6
CONTINUOUS
 62
     7
 10
69.693962097168
 20
-55.3440399169922
 30
0.0
 11
52.462345123291
 21
-55.3440399169922
 31
0.0
  0
LINE
  5
    21
  8
0
  6
CONTINUOUS
 62
     7
 10
69.693962097168
 20
-83.3440399169922
 30
0.0
 11
52.462345123291
 21
-83.3440399169922
 31
0.0
  0
LINE
  5
    22
  8
0
  6
CONTINUOUS
 62
     7
 10
54.462345123291
 20
-55.3440399169922
 30
0.0
 11
54.462345123291
 21
-83.3440399169922
 31
0.0
  0
LINE
  5
    23
  8
0
  6
CONTINUOUS
 62
     7
 10
54.9832895532427
 20
-58.2984631941992
 30
0.0
 11
54.462345123291
 21
-55.3440399169922
 31
0.0
  0
LINE
  5
    24
  8
0
  6
CONTINUOUS
 62
     7
 10
54.462345123291
 20
-55.3440399169922
 30
0.0
 11
53.9414006933394
 21
-58.2984631941992
 31
0.0
  0
LINE
  5
    25
  8
0
  6
CONTINUOUS
 62
     7
 10
53.9414006933394
 20
-80.3896166397852
 30
0.0
 11
54.462345123291
 21
-83.3440399169922
 31
0.0
  0
LINE
  5
    26
  8
0
  6
CONTINUOUS
 62
     7
 10
54.462345123291
 20
-83.3440399169922
 30
0.0
 11
54.9832895532427
 21
-80.3896166397852
 31
0.0
  0
ENDBLK
  5
    27
  8
0
  6
CONTINUOUS
 62
     7
  0
BLOCK
  5
    28
  8
0
  6
CONTINUOUS
 62
     7
  2
*UDIM415
 70
    65
 10
0.0
 20
0.0
 30
0.0
  3
*UDIM415
  0
TEXT
  5
    29
  8
0
  6
CONTINUOUS
 62
     7
 10
80.5189620483907
 20
-29.9881324662147
 30
0.0
 40
3.00000002980232
  1
112
 50
359.999999844103
 41
0.933333333333333
 72
     1
 11
84.4189620912075
 21
-28.4881324619055
 31
0.0
 73
     2
  0
LINE
  5
    2A
  8
0
  6
CONTINUOUS
 62
     7
 10
70.693962097168
 20
-54.3440399169922
 30
0.0
 11
70.693962097168
 21
-28.9881324768066
 31
0.0
  0
LINE
  5
    2B
  8
0
  6
CONTINUOUS
 62
     7
 10
98.693962097168
 20
-54.3440399169922
 30
0.0
 11
98.693962097168
 21
-28.9881324768066
 31
0.0
  0
LINE
  5
    2C
  8
0
  6
CONTINUOUS
 62
     7
 10
70.693962097168
 20
-30.9881324768066
 30
0.0
 11
98.693962097168
 21
-30.9881324768066
 31
0.0
  0
LINE
  5
    2D
  8
0
  6
CONTINUOUS
 62
     7
 10
73.6483853743749
 20
-30.467188046855
 30
0.0
 11
70.693962097168
 21
-30.9881324768066
 31
0.0
  0
LINE
  5
    2E
  8
0
  6
CONTINUOUS
 62
     7
 10
70.693962097168
 20
-30.9881324768066
 30
0.0
 11
73.6483853743749
 21
-31.5090769067583
 31
0.0
  0
LINE
  5
    2F
  8
0
  6
CONTINUOUS
 62
     7
 10
95.739538819961
 20
-31.5090769067583
 30
0.0
 11
98.693962097168
 21
-30.9881324768066
 31
0.0
  0
LINE
  5
    30
  8
0
  6
CONTINUOUS
 62
     7
 10
98.693962097168
 20
-30.9881324768066
 30
0.0
 11
95.739538819961
 21
-30.467188046855
 31
0.0
  0
ENDBLK
  5
    31
  8
0
  6
CONTINUOUS
 62
     7
  0
BLOCK
  5
    32
  8
0
  6
CONTINUOUS
 62
     7
  2
*UDIM416
 70
    65
 10
0.0
 20
0.0
 30
0.0
  3
*UDIM416
  0
TEXT
  5
    33
  8
0
  6
CONTINUOUS
 62
     7
 10
81.9189620622984
 20
-37.836069100266
 30
0.0
 40
3.00000002980232
  1
80
 50
359.999999844103
 41
0.933333333333333
 72
     1
 11
84.4189620912075
 21
-36.3360690921545
 31
0.0
 73
     2
  0
LINE
  5
    34
  8
0
  6
CONTINUOUS
 62
     7
 10
74.693962097168
 20
-48.9690399169922
 30
0.0
 11
74.693962097168
 21
-36.8360691070557
 31
0.0
  0
LINE
  5
    35
  8
0
  6
CONTINUOUS
 62
     7
 10
94.693962097168
 20
-48.9690399169922
 30
0.0
 11
94.693962097168
 21
-36.8360691070557
 31
0.0
  0
LINE
  5
    36
  8
0
  6
CONTINUOUS
 62
     7
 10
74.693962097168
 20
-38.8360691070557
 30
0.0
 11
94.693962097168
 21
-38.8360691070557
 31
0.0
  0
LINE
  5
    37
  8
0
  6
CONTINUOUS
 62
     7
 10
77.6483853743749
 20
-38.315124677104
 30
0.0
 11
74.693962097168
 21
-38.8360691070557
 31
0.0
  0
LINE
  5
    38
  8
0
  6
CONTINUOUS
 62
     7
 10
74.693962097168
 20
-38.8360691070557
 30
0.0
 11
77.6483853743749
 21
-39.3570135370073
 31
0.0
  0
LINE
  5
    39
  8
0
  6
CONTINUOUS
 62
     7
 10
91.739538819961
 20
-39.3570135370073
 30
0.0
 11
94.693962097168
 21
-38.8360691070557
 31
0.0
  0
LINE
  5
    3A
  8
0
  6
CONTINUOUS
 62
     7
 10
94.693962097168
 20
-38.8360691070557
 30
0.0
 11
91.739538819961
 21
-38.315124677104
 31
0.0
  0
ENDBLK
  5
    3B
  8
0
  6
CONTINUOUS
 62
     7
  0
BLOCK
  5
    3C
  8
0
  6
CONTINUOUS
 62
     7
  2
*HATCH98
 70
    65
 10
0.0
 20
0.0
 30
0.0
  3
*HATCH98
  0
LINE
  5
    3D
  8
0
  6
CONTINUOUS
 62
   210
 10
310.737091064453
 20
81.7070236206055
 30
0.0
 11
314.444152832031
 21
77.9999618530274
 31
0.0
  0
LINE
  5
    3E
  8
0
  6
CONTINUOUS
 62
   210
 10
313.686798095703
 20
82.9999618530274
 30
0.0
 11
316.737030029297
 21
79.9497146606445
 31
0.0
  0
ENDBLK
  5
    3F
  8
0
  6
CONTINUOUS
 62
     7
  0
BLOCK
  5
    40
  8
0
  6
CONTINUOUS
 62
     7
  2
*HATCH99
 70
    65
 10
0.0
 20
0.0
 30
0.0
  3
*HATCH99
  0
LINE
  5
    41
  8
0
  6
CONTINUOUS
 62
   210
 10
-10.7629547119141
 20
80.7665863037109
 30
0.0
 11
-7.99633836746216
 21
77.9999618530274
 31
0.0
  0
LINE
  5
    42
  8
0
  6
CONTINUOUS
 62
   210
 10
-8.75369358062744
 20
82.9999618530274
 30
0.0
 11
-4.76300573348999
 21
79.0092697143555
 31
0.0
  0
ENDBLK
  5
    43
  8
0
  6
CONTINUOUS
 62
     7
  0
BLOCK
  5
    44
  8
0
  6
CONTINUOUS
 62
     7
  2
*HATCH100
 70
    65
 10
0.0
 20
0.0
 30
0.0
  3
*HATCH100
  0
LINE
  5
    45
  8
0
  6
CONTINUOUS
 62
   210
 10
3.23699402809143
 20
81.6158676147461
 30
0.0
 11
6.8528938293457
 21
77.9999618530274
 31
0.0
  0
LINE
  5
    46
  8
0
  6
CONTINUOUS
 62
   210
 10
6.09554004669189
 20
82.9999618530274
 30
0.0
 11
11.095531463623
 21
77.9999618530274
 31
0.0
  0
LINE
  5
    47
  8
0
  6
CONTINUOUS
 62
   210
 10
10.3381776809692
 20
82.9999618530274
 30
0.0
 11
15.3381690979004
 21
77.9999618530274
 31
0.0
  0
LINE
  5
    48
  8
0
  6
CONTINUOUS
 62
   210
 10
14.5808153152466
 20
82.9999618530274
 30
0.0
 11
19.5808067321777
 21
77.9999618530274
 31
0.0
  0
LINE
  5
    49
  8
0
  6
CONTINUOUS
 62
   210
 10
18.8234539031982
 20
82.9999618530274
 30
0.0
 11
19.7282676696777
 21
82.0951461791992
 31
0.0
  0
ENDBLK
  5
    4A
  8
0
  6
CONTINUOUS
 62
     7
  0
BLOCK
  5
    4B
  8
0
  6
CONTINUOUS
 62
     7
  2
*HATCH101
 70
    65
 10
0.0
 20
0.0
 30
0.0
  3
*HATCH101
  0
LINE
  5
    4C
  8
0
  6
CONTINUOUS
 62
     3
 10
17.0864696502686
 20
102.999938964844
 30
0.0
 11
15.2370948791504
 21
101.150566101074
 31
0.0
  0
LINE
  5
    4D
  8
0
  6
CONTINUOUS
 62
     3
 10
18.1471290588379
 20
102.999938964844
 30
0.0
 11
14.2369937896729
 21
99.0898056030274
 31
0.0
  0
LINE
  5
    4E
  8
0
  6
CONTINUOUS
 62
     3
 10
18.2369937896729
 20
100.968482971191
 30
0.0
 11
14.2369937896729
 21
96.9684829711914
 31
0.0
  0
LINE
  5
    4F
  8
0
  6
CONTINUOUS
 62
     3
 10
18.2369937896729
 20
98.8471603393555
 30
0.0
 11
14.2369937896729
 21
94.8471603393555
 31
0.0
  0
LINE
  5
    50
  8
0
  6
CONTINUOUS
 62
     3
 10
18.2369937896729
 20
96.7258377075195
 30
0.0
 11
14.2369937896729
 21
92.7258377075195
 31
0.0
  0
LINE
  5
    51
  8
0
  6
CONTINUOUS
 62
     3
 10
18.2369937896729
 20
94.6045150756836
 30
0.0
 11
14.2369937896729
 21
90.6045150756836
 31
0.0
  0
LINE
  5
    52
  8
0
  6
CONTINUOUS
 62
     3
 10
18.2369937896729
 20
92.4831924438477
 30
0.0
 11
14.2369937896729
 21
88.4831924438477
 31
0.0
  0
LINE
  5
    53
  8
0
  6
CONTINUOUS
 62
     3
 10
18.2369937896729
 20
90.3618698120117
 30
0.0
 11
14.2369937896729
 21
86.3618698120117
 31
0.0
  0
LINE
  5
    54
  8
0
  6
CONTINUOUS
 62
     3
 10
18.2369937896729
 20
88.2405471801758
 30
0.0
 11
14.2369937896729
 21
84.2405471801758
 31
0.0
  0
LINE
  5
    55
  8
0
  6
CONTINUOUS
 62
     3
 10
18.2369937896729
 20
86.1192398071289
 30
0.0
 11
15.117714881897
 21
82.9999618530274
 31
0.0
  0
LINE
  5
    56
  8
0
  6
CONTINUOUS
 62
     3
 10
18.2369937896729
 20
83.997917175293
 30
0.0
 11
17.23903465271
 21
82.9999618530274
 31
0.0
  0
ENDBLK
  5
    57
  8
0
  6
CONTINUOUS
 62
     7
  0
BLOCK
  5
    58
  8
0
  6
CONTINUOUS
 62
     7
  2
*HATCH102
 70
    65
 10
0.0
 20
0.0
 30
0.0
  3
*HATCH102
  0
LINE
  5
    59
  8
0
  6
CONTINUOUS
 62
     3
 10
12.2390375137329
 20
77.9999618530274
 30
0.0
 11
10.2369937896729
 21
75.997917175293
 31
0.0
  0
LINE
  5
    5A
  8
0
  6
CONTINUOUS
 62
     3
 10
14.2369937896729
 20
77.8766021728516
 30
0.0
 11
10.2369937896729
 21
73.8766021728516
 31
0.0
  0
LINE
  5
    5B
  8
0
  6
CONTINUOUS
 62
     3
 10
14.2369937896729
 20
75.7552795410156
 30
0.0
 11
10.2369937896729
 21
71.7552795410156
 31
0.0
  0
LINE
  5
    5C
  8
0
  6
CONTINUOUS
 62
     3
 10
14.2369937896729
 20
73.6339569091797
 30
0.0
 11
10.2369937896729
 21
69.6339569091797
 31
0.0
  0
LINE
  5
    5D
  8
0
  6
CONTINUOUS
 62
     3
 10
14.2369937896729
 20
71.5126342773438
 30
0.0
 11
10.2369937896729
 21
67.5126342773438
 31
0.0
  0
LINE
  5
    5E
  8
0
  6
CONTINUOUS
 62
     3
 10
14.2369937896729
 20
69.3913116455078
 30
0.0
 11
10.2369937896729
 21
65.3913116455078
 31
0.0
  0
LINE
  5
    5F
  8
0
  6
CONTINUOUS
 62
     3
 10
14.2369937896729
 20
67.2699890136719
 30
0.0
 11
10.2369937896729
 21
63.2699890136719
 31
0.0
  0
LINE
  5
    60
  8
0
  6
CONTINUOUS
 62
     3
 10
14.2369937896729
 20
65.148681640625
 30
0.0
 11
10.8553380966187
 21
61.7670249938965
 31
0.0
  0
LINE
  5
    61
  8
0
  6
CONTINUOUS
 62
     3
 10
14.2369937896729
 20
63.0273590087891
 30
0.0
 11
13.7800302505493
 21
62.5703964233398
 31
0.0
  0
ENDBLK
  5
    62
  8
0
  6
CONTINUOUS
 62
     7
  0
BLOCK
  5
    63
  8
0
  6
CONTINUOUS
 62
     7
  2
*HATCH103
 70
    65
 10
0.0
 20
0.0
 30
0.0
  3
*HATCH103
  0
LINE
  5
    64
  8
0
  6
CONTINUOUS
 62
     3
 10
167.826889038086
 20
-4.00005149841309
 30
0.0
 11
165.980621337891
 21
-5.84633255004883
 31
0.0
  0
LINE
  5
    65
  8
0
  6
CONTINUOUS
 62
     3
 10
169.948211669922
 20
-4.00005149841309
 30
0.0
 11
167.948211669922
 21
-6.00005149841309
 31
0.0
  0
LINE
  5
    66
  8
0
  6
CONTINUOUS
 62
     3
 10
172.069519042969
 20
-4.00005149841309
 30
0.0
 11
170.069519042969
 21
-6.00005149841309
 31
0.0
  0
LINE
  5
    67
  8
0
  6
CONTINUOUS
 62
     3
 10
174.190826416016
 20
-4.00005149841309
 30
0.0
 11
172.190826416016
 21
-6.00005149841309
 31
0.0
  0
LINE
  5
    68
  8
0
  6
CONTINUOUS
 62
     3
 10
176.312133789062
 20
-4.00005149841309
 30
0.0
 11
174.312133789063
 21
-6.00005149841309
 31
0.0
  0
LINE
  5
    69
  8
0
  6
CONTINUOUS
 62
     3
 10
177.480621337891
 20
-4.95293474197388
 30
0.0
 11
176.433502197266
 21
-6.00005149841309
 31
0.0
  0
ENDBLK
  5
    6A
  8
0
  6
CONTINUOUS
 62
     7
  0
BLOCK
  5
    6B
  8
0
  6
CONTINUOUS
 62
     7
  2
*HATCH104
 70
    65
 10
0.0
 20
0.0
 30
0.0
  3
*HATCH104
  0
LINE
  5
    6C
  8
0
  6
CONTINUOUS
 62
     3
 10
43.7296600341797
 20
-4.00005149841309
 30
0.0
 11
42.4806251525879
 21
-5.24908351898193
 31
0.0
  0
LINE
  5
    6D
  8
0
  6
CONTINUOUS
 62
     3
 10
45.8509788513184
 20
-4.00005149841309
 30
0.0
 11
43.8509788513184
 21
-6.00005149841309
 31
0.0
  0
LINE
  5
    6E
  8
0
  6
CONTINUOUS
 62
     3
 10
47.9723014831543
 20
-4.00005149841309
 30
0.0
 11
45.9723014831543
 21
-6.00005149841309
 31
0.0
  0
LINE
  5
    6F
  8
0
  6
CONTINUOUS
 62
     3
 10
50.0936241149902
 20
-4.00005149841309
 30
0.0
 11
48.0936241149902
 21
-6.00005149841309
 31
0.0
  0
LINE
  5
    70
  8
0
  6
CONTINUOUS
 62
     3
 10
52.2149467468262
 20
-4.00005149841309
 30
0.0
 11
50.2149467468262
 21
-6.00005149841309
 31
0.0
  0
LINE
  5
    71
  8
0
  6
CONTINUOUS
 62
     3
 10
53.9806251525879
 20
-4.35568618774414
 30
0.0
 11
52.3362579345703
 21
-6.00005149841309
 31
0.0
  0
ENDBLK
  5
    72
  8
0
  6
CONTINUOUS
 62
     7
  0
BLOCK
  5
    73
  8
0
  6
CONTINUOUS
 62
     7
  2
*HATCH105
 70
    65
 10
0.0
 20
0.0
 30
0.0
  3
*HATCH105
  0
LINE
  5
    74
  8
0
  6
CONTINUOUS
 62
     3
 10
-24.1525974273682
 20
-4.00005149841309
 30
0.0
 11
-25.3908443450928
 21
-5.23830080032349
 31
0.0
  0
LINE
  5
    75
  8
0
  6
CONTINUOUS
 62
     3
 10
-22.0312747955322
 20
-4.00005149841309
 30
0.0
 11
-24.0312747955322
 21
-6.00005149841309
 31
0.0
  0
LINE
  5
    76
  8
0
  6
CONTINUOUS
 62
     3
 10
-19.9099559783936
 20
-4.00005149841309
 30
0.0
 11
-21.9099559783936
 21
-6.00005149841309
 31
0.0
  0
LINE
  5
    77
  8
0
  6
CONTINUOUS
 62
     3
 10
-17.7886371612549
 20
-4.00005149841309
 30
0.0
 11
-19.7886371612549
 21
-6.00005149841309
 31
0.0
  0
LINE
  5
    78
  8
0
  6
CONTINUOUS
 62
     3
 10
-15.6673173904419
 20
-4.00005149841309
 30
0.0
 11
-17.6673183441162
 21
-6.00005149841309
 31
0.0
  0
LINE
  5
    79
  8
0
  6
CONTINUOUS
 62
     3
 10
-13.5459966659546
 20
-4.00005149841309
 30
0.0
 11
-15.5459985733032
 21
-6.00005149841309
 31
0.0
  0
LINE
  5
    7A
  8
0
  6
CONTINUOUS
 62
     3
 10
-11.4246759414673
 20
-4.00005149841309
 30
0.0
 11
-13.4246778488159
 21
-6.00005149841309
 31
0.0
  0
LINE
  5
    7B
  8
0
  6
CONTINUOUS
 62
     3
 10
-9.30335521697998
 20
-4.00005149841309
 30
0.0
 11
-11.3033571243286
 21
-6.00005149841309
 31
0.0
  0
LINE
  5
    7C
  8
0
  6
CONTINUOUS
 62
     3
 10
-7.18203449249268
 20
-4.00005149841309
 30
0.0
 11
-9.18203639984131
 21
-6.00005149841309
 31
0.0
  0
LINE
  5
    7D
  8
0
  6
CONTINUOUS
 62
     3
 10
-5.06071376800537
 20
-4.00005149841309
 30
0.0
 11
-7.060715675354
 21
-6.00005149841309
 31
0.0
  0
LINE
  5
    7E
  8
0
  6
CONTINUOUS
 62
     3
 10
-2.93939328193665
 20
-4.00005149841309
 30
0.0
 11
-4.9393949508667
 21
-6.00005149841309
 31
0.0
  0
LINE
  5
    7F
  8
0
  6
CONTINUOUS
 62
     3
 10
-0.818073034286499
 20
-4.00005149841309
 30
0.0
 11
-2.81807422637939
 21
-6.00005149841309
 31
0.0
  0
LINE
  5
    80
  8
0
  6
CONTINUOUS
 62
     3
 10
1.30324721336365
 20
-4.00005149841309
 30
0.0
 11
-0.696753740310669
 21
-6.00005149841309
 31
0.0
  0
LINE
  5
    81
  8
0
  6
CONTINUOUS
 62
     3
 10
3.42456746101379
 20
-4.00005149841309
 30
0.0
 11
1.42456674575806
 21
-6.00005149841309
 31
0.0
  0
LINE
  5
    82
  8
0
  6
CONTINUOUS
 62
     3
 10
5.54588794708252
 20
-4.00005149841309
 30
0.0
 11
3.54588747024536
 21
-6.00005149841309
 31
0.0
  0
LINE
  5
    83
  8
0
  6
CONTINUOUS
 62
     3
 10
7.66720867156982
 20
-4.00005149841309
 30
0.0
 11
5.66720819473267
 21
-6.00005149841309
 31
0.0
  0
LINE
  5
    84
  8
0
  6
CONTINUOUS
 62
     3
 10
9.78852939605713
 20
-4.00005149841309
 30
0.0
 11
7.78852891921997
 21
-6.00005149841309
 31
0.0
  0
LINE
  5
    85
  8
0
  6
CONTINUOUS
 62
     3
 10
11.9098501205444
 20
-4.00005149841309
 30
0.0
 11
9.90984916687012
 21
-6.00005149841309
 31
0.0
  0
LINE
  5
    86
  8
0
  6
CONTINUOUS
 62
     3
 10
14.0311708450317
 20
-4.00005149841309
 30
0.0
 11
12.0311698913574
 21
-6.00005149841309
 31
0.0
  0
LINE
  5
    87
  8
0
  6
CONTINUOUS
 62
     3
 10
16.1524906158447
 20
-4.00005149841309
 30
0.0
 11
14.1524906158447
 21
-6.00005149841309
 31
0.0
  0
LINE
  5
    88
  8
0
  6
CONTINUOUS
 62
     3
 10
18.2738094329834
 20
-4.00005149841309
 30
0.0
 11
16.273811340332
 21
-6.00005149841309
 31
0.0
  0
LINE
  5
    89
  8
0
  6
CONTINUOUS
 62
     3
 10
20.3951282501221
 20
-4.00005149841309
 30
0.0
 11
18.3951301574707
 21
-6.00005149841309
 31
0.0
  0
LINE
  5
    8A
  8
0
  6
CONTINUOUS
 62
     3
 10
22.5164470672607
 20
-4.00005149841309
 30
0.0
 11
20.5164489746094
 21
-6.00005149841309
 31
0.0
  0
LINE
  5
    8B
  8
0
  6
CONTINUOUS
 62
     3
 10
24.6377658843994
 20
-4.00005149841309
 30
0.0
 11
22.637767791748
 21
-6.00005149841309
 31
0.0
  0
LINE
  5
    8C
  8
0
  6
CONTINUOUS
 62
     3
 10
26.7590847015381
 20
-4.00005149841309
 30
0.0
 11
24.7590866088867
 21
-6.00005149841309
 31
0.0
  0
LINE
  5
    8D
  8
0
  6
CONTINUOUS
 62
     3
 10
28.8804035186768
 20
-4.00005149841309
 30
0.0
 11
26.8804054260254
 21
-6.00005149841309
 31
0.0
  0
LINE
  5
    8E
  8
0
  6
CONTINUOUS
 62
     3
 10
31.0017223358154
 20
-4.00005149841309
 30
0.0
 11
29.0017242431641
 21
-6.00005149841309
 31
0.0
  0
LINE
  5
    8F
  8
0
  6
CONTINUOUS
 62
     3
 10
33.1230430603027
 20
-4.00005149841309
 30
0.0
 11
31.1230430603027
 21
-6.00005149841309
 31
0.0
  0
LINE
  5
    90
  8
0
  6
CONTINUOUS
 62
     3
 10
35.2443656921387
 20
-4.00005149841309
 30
0.0
 11
33.2443656921387
 21
-6.00005149841309
 31
0.0
  0
LINE
  5
    91
  8
0
  6
CONTINUOUS
 62
     3
 10
35.4806251525879
 20
-5.88512229919434
 30
0.0
 11
35.3656959533691
 21
-6.00005149841309
 31
0.0
  0
ENDBLK
  5
    92
  8
0
  6
CONTINUOUS
 62
     7
  0
BLOCK
  5
    93
  8
0
  6
CONTINUOUS
 62
     7
  2
146558
 70
    64
 10
0.0
 20
0.0
 30
0.0
  3
146558
  0
LINE
  5
    94
  8
0
  6
CONTINUOUS
 62
     2
 10
-52.099964209298
 20
223.237096448575
 30
0.0
 11
-35.099964209298
 21
223.237096448575
 31
0.0
  0
LINE
  5
    95
  8
0
  6
CONTINUOUS
 62
     2
 10
-52.099964209298
 20
211.237096448575
 30
0.0
 11
-35.099964209298
 21
211.237096448575
 31
0.0
  0
LINE
  5
    96
  8
0
  6
CONTINUOUS
 62
     2
 10
-53.099964209298
 20
212.237096448575
 30
0.0
 11
-53.099964209298
 21
222.237096448575
 31
0.0
  0
LINE
  5
    97
  8
0
  6
CONTINUOUS
 62
     2
 10
-34.099964209298
 20
212.237096448575
 30
0.0
 11
-34.099964209298
 21
222.237096448575
 31
0.0
  0
LINE
  5
    98
  8
0
  6
CONTINUOUS
 62
     2
 10
-53.099964209298
 20
222.237096448575
 30
0.0
 11
-52.099964209298
 21
223.237096448575
 31
0.0
  0
LINE
  5
    99
  8
0
  6
CONTINUOUS
 62
     2
 10
-53.099964209298
 20
212.237096448575
 30
0.0
 11
-52.099964209298
 21
211.237096448575
 31
0.0
  0
LINE
  5
    9A
  8
0
  6
CONTINUOUS
 62
     2
 10
-35.099964209298
 20
223.237096448575
 30
0.0
 11
-34.099964209298
 21
222.237096448575
 31
0.0
  0
LINE
  5
    9B
  8
0
  6
CONTINUOUS
 62
     2
 10
-35.099964209298
 20
211.237096448575
 30
0.0
 11
-34.099964209298
 21
212.237096448575
 31
0.0
  0
LINE
  5
    9C
  8
0
  6
CONTINUOUS
 62
     2
 10
-53.099964209298
 20
222.237096448575
 30
0.0
 11
-34.099964209298
 21
222.237096448575
 31
0.0
  0
LINE
  5
    9D
  8
0
  6
CONTINUOUS
 62
     2
 10
-53.099964209298
 20
212.237096448575
 30
0.0
 11
-34.099964209298
 21
212.237096448575
 31
0.0
  0
LINE
  5
    9E
  8
0
  6
CONTINUOUS
 62
     2
 10
-52.099964209298
 20
211.237096448575
 30
0.0
 11
-52.099964209298
 21
223.237096448575
 31
0.0
  0
LINE
  5
    9F
  8
0
  6
CONTINUOUS
 62
     2
 10
-35.099964209298
 20
211.237096448575
 30
0.0
 11
-35.099964209298
 21
223.237096448575
 31
0.0
  0
LINE
  5
    A0
  8
0
  6
CONTINUOUS
 62
    98
 10
-53.099964209298
 20
212.737096448575
 30
0.0
 11
-53.099964209298
 21
221.737096448575
 31
0.0
  0
LINE
  5
    A1
  8
0
  6
CONTINUOUS
 62
    98
 10
-58.099964209298
 20
208.737096448575
 30
0.0
 11
-58.099964209298
 21
225.737096448575
 31
0.0
  0
LINE
  5
    A2
  8
0
  6
CONTINUOUS
 62
    98
 10
-58.099964209298
 20
225.737096448575
 30
0.0
 11
-55.1884296840102
 21
225.737096448575
 31
0.0
  0
LINE
  5
    A3
  8
0
  6
CONTINUOUS
 62
    98
 10
-58.099964209298
 20
208.737096448575
 30
0.0
 11
-55.1884296840102
 21
208.737096448575
 31
0.0
  0
LINE
  5
    A4
  8
0
  6
CONTINUOUS
 62
    98
 10
-55.599964209298
 20
208.737096448575
 30
0.0
 11
-55.599964209298
 21
225.737096448575
 31
0.0
  0
LINE
  5
    A5
  8
0
  6
CONTINUOUS
 62
    98
 10
-55.1884296840102
 20
208.737096448575
 30
0.0
 11
-55.1884296840102
 21
210.237096448577
 31
0.0
  0
LINE
  5
    A6
  8
0
  6
CONTINUOUS
 62
    98
 10
-55.1884296840102
 20
221.737096448575
 30
0.0
 11
-53.099964209298
 21
221.737096448575
 31
0.0
  0
LINE
  5
    A7
  8
0
  6
CONTINUOUS
 62
    98
 10
-55.1884296840102
 20
212.737096448575
 30
0.0
 11
-53.099964209298
 21
212.737096448575
 31
0.0
  0
ARC
  5
    A8
  8
0
  6
CONTINUOUS
 62
    98
 10
-30.7911578871332
 20
217.237096448575
 30
0.0
 40
24.8088063221649
 50
169.549429087188
 51
190.450570912812
  0
LINE
  5
    A9
  8
0
  6
CONTINUOUS
 62
    98
 10
-55.1884296840102
 20
221.737096448576
 30
0.0
 11
-55.1884296840102
 21
222.237096448581
 31
0.0
  0
ARC
  5
    AA
  8
0
  6
CONTINUOUS
 62
    98
 10
-54.4384296840195
 20
211.237096448576
 30
0.0
 40
1.24999999999367
 50
126.869897645536
 51
158.314733460268
  0
ARC
  5
    AB
  8
0
  6
CONTINUOUS
 62
    98
 10
-54.4384296840122
 20
223.237096448576
 30
0.0
 40
1.24999999999803
 50
126.869897645902
 51
158.314733460726
  0
ARC
  5
    AC
  8
0
  6
CONTINUOUS
 62
    98
 10
-54.4384296840122
 20
223.237096448576
 30
0.0
 40
1.24999999999803
 50
201.685266539274
 51
233.130102354098
  0
ARC
  5
    AD
  8
0
  6
CONTINUOUS
 62
    98
 10
-54.4384296840195
 20
211.237096448576
 30
0.0
 40
1.24999999999367
 50
201.685266539732
 51
233.130102354464
  0
LINE
  5
    AE
  8
0
  6
CONTINUOUS
 62
    98
 10
-55.1884296840102
 20
224.237096448572
 30
0.0
 11
-55.1884296840102
 21
225.737096448575
 31
0.0
  0
LINE
  5
    AF
  8
0
  6
CONTINUOUS
 62
    98
 10
-55.1884296840102
 20
212.237096448575
 30
0.0
 11
-55.1884296840102
 21
212.737096448575
 31
0.0
  0
ENDBLK
  5
    B0
  8
0
  6
CONTINUOUS
 62
     7
  0
BLOCK
  5
    B1
  8
0
  6
CONTINUOUS
 62
    98
  2
*HATCH106
 70
    65
 10
0.0
 20
0.0
 30
0.0
  3
*HATCH106
  0
LINE
  5
    B2
  8
0
  6
CONTINUOUS
 62
     3
 10
-46.4132194519043
 20
227.237091064453
 30
0.0
 11
-46.4999656677246
 21
227.150360107422
 31
0.0
  0
LINE
  5
    B3
  8
0
  6
CONTINUOUS
 62
     3
 10
-45.3525581359863
 20
227.237091064453
 30
0.0
 11
-46.4999656677246
 21
226.089706420898
 31
0.0
  0
LINE
  5
    B4
  8
0
  6
CONTINUOUS
 62
     3
 10
-44.2918968200684
 20
227.237091064453
 30
0.0
 11
-46.4999656677246
 21
225.029052734375
 31
0.0
  0
LINE
  5
    B5
  8
0
  6
CONTINUOUS
 62
     3
 10
-43.2312355041504
 20
227.237091064453
 30
0.0
 11
-46.4999656677246
 21
223.968399047852
 31
0.0
  0
LINE
  5
    B6
  8
0
  6
CONTINUOUS
 62
     3
 10
-42.4999656677246
 20
226.90771484375
 30
0.0
 11
-46.170581817627
 21
223.237091064453
 31
0.0
  0
LINE
  5
    B7
  8
0
  6
CONTINUOUS
 62
     3
 10
-42.4999656677246
 20
225.847061157227
 30
0.0
 11
-45.109920501709
 21
223.237091064453
 31
0.0
  0
LINE
  5
    B8
  8
0
  6
CONTINUOUS
 62
     3
 10
-42.4999656677246
 20
224.786407470703
 30
0.0
 11
-44.049259185791
 21
223.237091064453
 31
0.0
  0
LINE
  5
    B9
  8
0
  6
CONTINUOUS
 62
     3
 10
-42.4999656677246
 20
223.72575378418
 30
0.0
 11
-42.988597869873
 21
223.237091064453
 31
0.0
  0
ENDBLK
  5
    BA
  8
0
  6
CONTINUOUS
 62
    98
  0
BLOCK
  5
    BB
  8
0
  6
CONTINUOUS
 62
    98
  2
*HATCH107
 70
    65
 10
0.0
 20
0.0
 30
0.0
  3
*HATCH107
  0
LINE
  5
    BC
  8
0
  6
CONTINUOUS
 62
     3
 10
-45.4426574707031
 20
211.237091064453
 30
0.0
 11
-46.4999656677246
 21
210.179794311523
 31
0.0
  0
LINE
  5
    BD
  8
0
  6
CONTINUOUS
 62
     3
 10
-44.3819961547852
 20
211.237091064453
 30
0.0
 11
-46.4999656677246
 21
209.119140625
 31
0.0
  0
LINE
  5
    BE
  8
0
  6
CONTINUOUS
 62
     3
 10
-43.3213348388672
 20
211.237091064453
 30
0.0
 11
-46.4999656677246
 21
208.058486938477
 31
0.0
  0
LINE
  5
    BF
  8
0
  6
CONTINUOUS
 62
     3
 10
-42.4999656677246
 20
210.997817993164
 30
0.0
 11
-46.2606773376465
 21
207.237091064453
 31
0.0
  0
LINE
  5
    C0
  8
0
  6
CONTINUOUS
 62
     3
 10
-42.4999656677246
 20
209.937164306641
 30
0.0
 11
-45.2000160217285
 21
207.237091064453
 31
0.0
  0
LINE
  5
    C1
  8
0
  6
CONTINUOUS
 62
     3
 10
-42.4999656677246
 20
208.876510620117
 30
0.0
 11
-44.1393547058105
 21
207.237091064453
 31
0.0
  0
LINE
  5
    C2
  8
0
  6
CONTINUOUS
 62
     3
 10
-42.4999656677246
 20
207.815856933594
 30
0.0
 11
-43.0786933898926
 21
207.237091064453
 31
0.0
  0
ENDBLK
  5
    C3
  8
0
  6
CONTINUOUS
 62
    98
  0
BLOCK
  5
    C4
  8
0
  6
CONTINUOUS
 62
    98
  2
*HATCH108
 70
    65
 10
0.0
 20
0.0
 30
0.0
  3
*HATCH108
  0
LINE
  5
    C5
  8
0
  6
CONTINUOUS
 62
     3
 10
-77.1723709106445
 20
227.237091064453
 30
0.0
 11
-77.9999618530274
 21
226.40950012207
 31
0.0
  0
LINE
  5
    C6
  8
0
  6
CONTINUOUS
 62
     3
 10
-76.1117095947266
 20
227.237091064453
 30
0.0
 11
-77.9999618530274
 21
225.348846435547
 31
0.0
  0
LINE
  5
    C7
  8
0
  6
CONTINUOUS
 62
     3
 10
-75.4999618530274
 20
226.788177490234
 30
0.0
 11
-77.9999618530274
 21
224.288177490234
 31
0.0
  0
LINE
  5
    C8
  8
0
  6
CONTINUOUS
 62
     3
 10
-75.4999618530274
 20
225.727523803711
 30
0.0
 11
-77.9999618530274
 21
223.227523803711
 31
0.0
  0
LINE
  5
    C9
  8
0
  6
CONTINUOUS
 62
     3
 10
-75.4999618530274
 20
224.666870117188
 30
0.0
 11
-77.9999618530274
 21
222.166870117187
 31
0.0
  0
LINE
  5
    CA
  8
0
  6
CONTINUOUS
 62
     3
 10
-75.4999618530274
 20
223.606201171875
 30
0.0
 11
-77.9775619506836
 21
221.128601074219
 31
0.0
  0
LINE
  5
    CB
  8
0
  6
CONTINUOUS
 62
     3
 10
-75.4999618530274
 20
222.545547485352
 30
0.0
 11
-77.7388229370117
 21
220.306686401367
 31
0.0
  0
LINE
  5
    CC
  8
0
  6
CONTINUOUS
 62
     3
 10
-75.4999618530274
 20
221.484878540039
 30
0.0
 11
-77.2433700561523
 21
219.741470336914
 31
0.0
  0
LINE
  5
    CD
  8
0
  6
CONTINUOUS
 62
     3
 10
-74.7982330322266
 20
221.125946044922
 30
0.0
 11
-76.5722961425781
 21
219.35188293457
 31
0.0
  0
LINE
  5
    CE
  8
0
  6
CONTINUOUS
 62
     3
 10
-73.9712905883789
 20
220.892227172852
 30
0.0
 11
-75.6322555541992
 21
219.231262207031
 31
0.0
  0
LINE
  5
    CF
  8
0
  6
CONTINUOUS
 62
     3
 10
-73.2686462402344
 20
220.534210205078
 30
0.0
 11
-74.7601089477539
 21
219.042755126953
 31
0.0
  0
LINE
  5
    D0
  8
0
  6
CONTINUOUS
 62
     3
 10
-72.7089309692383
 20
220.033264160156
 30
0.0
 11
-74.1236267089844
 21
218.618576049805
 31
0.0
  0
LINE
  5
    D1
  8
0
  6
CONTINUOUS
 62
     3
 10
-72.2063140869141
 20
219.475219726562
 30
0.0
 11
-73.6947784423828
 21
217.986770629883
 31
0.0
  0
LINE
  5
    D2
  8
0
  6
CONTINUOUS
 62
     3
 10
-76.5567779541016
 20
215.124771118164
 30
0.0
 11
-77.8308486938477
 21
213.850692749023
 31
0.0
  0
LINE
  5
    D3
  8
0
  6
CONTINUOUS
 62
     3
 10
-71.8482971191406
 20
218.772583007813
 30
0.0
 11
-73.5564498901367
 21
217.064437866211
 31
0.0
  0
LINE
  5
    D4
  8
0
  6
CONTINUOUS
 62
     3
 10
-75.3259506225586
 20
215.294921875
 30
0.0
 11
-77.9999618530274
 21
212.620910644531
 31
0.0
  0
LINE
  5
    D5
  8
0
  6
CONTINUOUS
 62
     3
 10
-71.6125106811523
 20
217.947708129883
 30
0.0
 11
-77.9999618530274
 21
211.560256958008
 31
0.0
  0
LINE
  5
    D6
  8
0
  6
CONTINUOUS
 62
     3
 10
-71.5446624755859
 20
216.954895019531
 30
0.0
 11
-75.2177734375
 21
213.281784057617
 31
0.0
  0
LINE
  5
    D7
  8
0
  6
CONTINUOUS
 62
     3
 10
-75.4999618530274
 20
212.999603271484
 30
0.0
 11
-77.9999618530274
 21
210.499603271484
 31
0.0
  0
LINE
  5
    D8
  8
0
  6
CONTINUOUS
 62
     3
 10
-71.963623046875
 20
215.475280761719
 30
0.0
 11
-73.738151550293
 21
213.700744628906
 31
0.0
  0
LINE
  5
    D9
  8
0
  6
CONTINUOUS
 62
     3
 10
-75.4999618530274
 20
211.938934326172
 30
0.0
 11
-77.9999618530274
 21
209.438934326172
 31
0.0
  0
LINE
  5
    DA
  8
0
  6
CONTINUOUS
 62
     3
 10
-75.4999618530274
 20
210.878280639648
 30
0.0
 11
-77.9999618530274
 21
208.378280639648
 31
0.0
  0
LINE
  5
    DB
  8
0
  6
CONTINUOUS
 62
     3
 10
-75.4999618530274
 20
209.817626953125
 30
0.0
 11
-77.9999618530274
 21
207.317626953125
 31
0.0
  0
LINE
  5
    DC
  8
0
  6
CONTINUOUS
 62
     3
 10
-75.4999618530274
 20
208.756958007813
 30
0.0
 11
-77.0198211669922
 21
207.237091064453
 31
0.0
  0
LINE
  5
    DD
  8
0
  6
CONTINUOUS
 62
     3
 10
-75.4999618530274
 20
207.696304321289
 30
0.0
 11
-75.9591598510742
 21
207.237091064453
 31
0.0
  0
ENDBLK
  5
    DE
  8
0
  6
CONTINUOUS
 62
    98
  0
BLOCK
  5
    DF
  8
0
  6
CONTINUOUS
 62
   218
  2
*HATCH109
 70
    65
 10
0.0
 20
0.0
 30
0.0
  3
*HATCH109
  0
LINE
  5
    E0
  8
0
  6
CONTINUOUS
 62
     3
 10
-70.4023208618164
 20
252.038360595703
 30
0.0
 11
-72.2455978393555
 21
250.195083618164
 31
0.0
  0
LINE
  5
    E1
  8
0
  6
CONTINUOUS
 62
     3
 10
-69.0759735107422
 20
252.304061889648
 30
0.0
 11
-71.8744277954102
 21
249.505599975586
 31
0.0
  0
LINE
  5
    E2
  8
0
  6
CONTINUOUS
 62
     3
 10
-68.0004959106445
 20
252.318878173828
 30
0.0
 11
-71.2877426147461
 21
249.031631469727
 31
0.0
  0
LINE
  5
    E3
  8
0
  6
CONTINUOUS
 62
     3
 10
-67.0423049926758
 20
252.216400146484
 30
0.0
 11
-70.5405578613281
 21
248.718139648438
 31
0.0
  0
LINE
  5
    E4
  8
0
  6
CONTINUOUS
 62
     3
 10
-66.1708908081055
 20
252.027160644531
 30
0.0
 11
-69.6915588378906
 21
248.506484985352
 31
0.0
  0
LINE
  5
    E5
  8
0
  6
CONTINUOUS
 62
     3
 10
-65.423713684082
 20
251.713668823242
 30
0.0
 11
-68.7577438354492
 21
248.379638671875
 31
0.0
  0
LINE
  5
    E6
  8
0
  6
CONTINUOUS
 62
     3
 10
-64.8103408813477
 20
251.266387939453
 30
0.0
 11
-67.6970825195313
 21
248.379638671875
 31
0.0
  0
LINE
  5
    E7
  8
0
  6
CONTINUOUS
 62
     3
 10
-64.3956069946289
 20
250.620452880859
 30
0.0
 11
-66.4208602905273
 21
248.595199584961
 31
0.0
  0
ENDBLK
  5
    E8
  8
0
  6
CONTINUOUS
 62
   218
  0
BLOCK
  5
    E9
  8
0
  6
CONTINUOUS
 62
     7
  2
$1CAVO
 70
    64
 10
0.0
 20
0.0
 30
0.0
  3
$1CAVO
  0
LINE
  5
    EA
  8
0
  6
CONTINUOUS
 62
   218
 10
-58.099964209298
 20
208.737096448575
 30
0.0
 11
-58.099964209298
 21
231.737096448575
 31
0.0
  0
LINE
  5
    EB
  8
0
  6
CONTINUOUS
 62
   218
 10
-70.499964209298
 20
208.737096448575
 30
0.0
 11
-70.499964209298
 21
231.737096448575
 31
0.0
  0
LINE
  5
    EC
  8
0
  6
CONTINUOUS
 62
   218
 10
-70.499964209298
 20
208.737096448575
 30
0.0
 11
-58.099964209298
 21
208.737096448575
 31
0.0
  0
LINE
  5
    ED
  8
0
  6
CONTINUOUS
 62
   218
 10
-72.299964209298
 20
231.737096448575
 30
0.0
 11
-56.299964209298
 21
231.737096448575
 31
0.0
  0
LINE
  5
    EE
  8
0
  6
DASHDOT
 62
   218
 10
-64.299964209298
 20
203.675830579354
 30
0.0
 11
-64.299964209298
 21
252.349255591
 31
0.0
  0
LINE
  5
    EF
  8
0
  6
CONTINUOUS
 62
   218
 10
-72.299964209298
 20
231.737096448575
 30
0.0
 11
-72.299964209298
 21
250.349255591
 31
0.0
  0
LINE
  5
    F0
  8
0
  6
CONTINUOUS
 62
   218
 10
-56.299964209298
 20
231.737096448575
 30
0.0
 11
-56.299964209298
 21
250.349255591
 31
0.0
  0
LINE
  5
    F1
  8
0
  6
CONTINUOUS
 62
   218
 10
-64.299964209298
 20
208.737096448575
 30
0.0
 11
-60.2444436530033
 21
231.737096448575
 31
0.0
  0
POLYLINE
  5
    F2
  8
0
  6
CONTINUOUS
 62
   218
 66
     1
 10
0.0
 20
0.0
 30
0.0
 70
     1
  0
VERTEX
  5
    F3
  8
0
  6
CONTINUOUS
 10
-72.299964209298
 20
250.34925559099
 30
0.0
 40
0.0
 41
0.0
  0
VERTEX
  5
    F4
  8
0
  6
CONTINUOUS
 10
-72.2987594840827
 20
250.300173133944
 30
0.0
 40
0.0
 41
0.0
  0
VERTEX
  5
    F5
  8
0
  6
CONTINUOUS
 10
-72.2951460341185
 20
250.251120242335
 30
0.0
 40
0.0
 41
0.0
  0
VERTEX
  5
    F6
  8
0
  6
CONTINUOUS
 10
-72.2891260360124
 20
250.20212646379
 30
0.0
 40
0.0
 41
0.0
  0
VERTEX
  5
    F7
  8
0
  6
CONTINUOUS
 10
-72.2807031159863
 20
250.153221310331
 30
0.0
 40
0.0
 41
0.0
  0
VERTEX
  5
    F8
  8
0
  6
CONTINUOUS
 10
-72.2698823476922
 20
250.104434240591
 30
0.0
 40
0.0
 41
0.0
  0
VERTEX
  5
    F9
  8
0
  6
CONTINUOUS
 10
-72.2566702491564
 20
250.055794642079
 30
0.0
 40
0.0
 41
0.0
  0
VERTEX
  5
    FA
  8
0
  6
CONTINUOUS
 10
-72.2410747788529
 20
250.007331813469
 30
0.0
 40
0.0
 41
0.0
  0
VERTEX
  5
    FB
  8
0
  6
CONTINUOUS
 10
-72.22310533091
 20
249.959074946958
 30
0.0
 40
0.0
 41
0.0
  0
VERTEX
  5
    FC
  8
0
  6
CONTINUOUS
 10
-72.202772729451
 20
249.911053110676
 30
0.0
 40
0.0
 41
0.0
  0
VERTEX
  5
    FD
  8
0
  6
CONTINUOUS
 10
-72.180089222075
 20
249.863295231183
 30
0.0
 40
0.0
 41
0.0
  0
VERTEX
  5
    FE
  8
0
  6
CONTINUOUS
 10
-72.1550684724784
 20
249.81583007604
 30
0.0
 40
0.0
 41
0.0
  0
VERTEX
  5
    FF
  8
0
  6
CONTINUOUS
 10
-72.1277255522254
 20
249.768686236481
 30
0.0
 40
0.0
 41
0.0
  0
VERTEX
  5
   100
  8
0
  6
CONTINUOUS
 10
-72.0980769316686
 20
249.721892110192
 30
0.0
 40
0.0
 41
0.0
  0
VERTEX
  5
   101
  8
0
  6
CONTINUOUS
 10
-72.0661404700284
 20
249.675475884206
 30
0.0
 40
0.0
 41
0.0
  0
VERTEX
  5
   102
  8
0
  6
CONTINUOUS
 10
-72.0319354046352
 20
249.62946551792
 30
0.0
 40
0.0
 41
0.0
  0
VERTEX
  5
   103
  8
0
  6
CONTINUOUS
 10
-71.9954823393412
 20
249.58388872626
 30
0.0
 40
0.0
 41
0.0
  0
VERTEX
  5
   104
  8
0
  6
CONTINUOUS
 10
-71.9159213817896
 20
249.49414540413
 30
0.0
 40
0.0
 41
0.0
  0
VERTEX
  5
   105
  8
0
  6
CONTINUOUS
 10
-71.8276492666891
 20
249.406462117339
 30
0.0
 40
0.0
 41
0.0
  0
VERTEX
  5
   106
  8
0
  6
CONTINUOUS
 10
-71.7308786492965
 20
249.321050102605
 30
0.0
 40
0.0
 41
0.0
  0
VERTEX
  5
   107
  8
0
  6
CONTINUOUS
 10
-71.6258426585054
 20
249.238115124952
 30
0.0
 40
0.0
 41
0.0
  0
VERTEX
  5
   108
  8
0
  6
CONTINUOUS
 10
-71.5127943352176
 20
249.157856982007
 30
0.0
 40
0.0
 41
0.0
  0
VERTEX
  5
   109
  8
0
  6
CONTINUOUS
 10
-71.3920060227458
 20
249.080469022665
 30
0.0
 40
0.0
 41
0.0
  0
VERTEX
  5
   10A
  8
0
  6
CONTINUOUS
 10
-71.2637687107145
 20
249.006137681298
 30
0.0
 40
0.0
 41
0.0
  0
VERTEX
  5
   10B
  8
0
  6
CONTINUOUS
 10
-71.1283913340406
 20
248.93504202862
 30
0.0
 40
0.0
 41
0.0
  0
VERTEX
  5
   10C
  8
0
  6
CONTINUOUS
 10
-70.9862000286824
 20
248.867353340283
 30
0.0
 40
0.0
 41
0.0
  0
VERTEX
  5
   10D
  8
0
  6
CONTINUOUS
 10
-70.8375373459487
 20
248.803234684268
 30
0.0
 40
0.0
 41
0.0
  0
VERTEX
  5
   10E
  8
0
  6
CONTINUOUS
 10
-70.6827614272637
 20
248.742840528032
 30
0.0
 40
0.0
 41
0.0
  0
VERTEX
  5
   10F
  8
0
  6
CONTINUOUS
 10
-70.5222451413722
 20
248.686316366389
 30
0.0
 40
0.0
 41
0.0
  0
VERTEX
  5
   110
  8
0
  6
CONTINUOUS
 10
-70.3563751860666
 20
248.633798370994
 30
0.0
 40
0.0
 41
0.0
  0
VERTEX
  5
   111
  8
0
  6
CONTINUOUS
 10
-70.1855511565976
 20
248.585413062298
 30
0.0
 40
0.0
 41
0.0
  0
VERTEX
  5
   112
  8
0
  6
CONTINUOUS
 10
-70.0101845830146
 20
248.541277004749
 30
0.0
 40
0.0
 41
0.0
  0
VERTEX
  5
   113
  8
0
  6
CONTINUOUS
 10
-69.8306979387537
 20
248.501496525973
 30
0.0
 40
0.0
 41
0.0
  0
VERTEX
  5
   114
  8
0
  6
CONTINUOUS
 10
-69.6475236228622
 20
248.46616746063
 30
0.0
 40
0.0
 41
0.0
  0
VERTEX
  5
   115
  8
0
  6
CONTINUOUS
 10
-69.4611029183111
 20
248.435374919532
 30
0.0
 40
0.0
 41
0.0
  0
VERTEX
  5
   116
  8
0
  6
CONTINUOUS
 10
-69.2718849289062
 20
248.409193084608
 30
0.0
 40
0.0
 41
0.0
  0
VERTEX
  5
   117
  8
0
  6
CONTINUOUS
 10
-69.0803254973576
 20
248.387685030191
 30
0.0
 40
0.0
 41
0.0
  0
VERTEX
  5
   118
  8
0
  6
CONTINUOUS
 10
-68.8868861071145
 20
248.370902571069
 30
0.0
 40
0.0
 41
0.0
  0
VERTEX
  5
   119
  8
0
  6
CONTINUOUS
 10
-68.6920327706112
 20
248.358886137654
 30
0.0
 40
0.0
 41
0.0
  0
VERTEX
  5
   11A
  8
0
  6
CONTINUOUS
 10
-68.4962349066027
 20
248.351664678589
 30
0.0
 40
0.0
 41
0.0
  0
VERTEX
  5
   11B
  8
0
  6
CONTINUOUS
 10
-68.299964209293
 20
248.349255591
 30
0.0
 40
0.0
 41
0.0
  0
VERTEX
  5
   11C
  8
0
  6
CONTINUOUS
 10
-68.1036935119833
 20
248.35166467859
 30
0.0
 40
0.0
 41
0.0
  0
VERTEX
  5
   11D
  8
0
  6
CONTINUOUS
 10
-67.9078956479748
 20
248.358886137656
 30
0.0
 40
0.0
 41
0.0
  0
VERTEX
  5
   11E
  8
0
  6
CONTINUOUS
 10
-67.7130423114716
 20
248.370902571072
 30
0.0
 40
0.0
 41
0.0
  0
VERTEX
  5
   11F
  8
0
  6
CONTINUOUS
 10
-67.5196029212286
 20
248.387685030195
 30
0.0
 40
0.0
 41
0.0
  0
VERTEX
  5
   120
  8
0
  6
CONTINUOUS
 10
-67.3280434896801
 20
248.409193084613
 30
0.0
 40
0.0
 41
0.0
  0
VERTEX
  5
   121
  8
0
  6
CONTINUOUS
 10
-67.1388255002754
 20
248.435374919538
 30
0.0
 40
0.0
 41
0.0
  0
VERTEX
  5
   122
  8
0
  6
CONTINUOUS
 10
-66.9524047957244
 20
248.466167460637
 30
0.0
 40
0.0
 41
0.0
  0
VERTEX
  5
   123
  8
0
  6
CONTINUOUS
 10
-66.769230479833
 20
248.501496525981
 30
0.0
 40
0.0
 41
0.0
  0
VERTEX
  5
   124
  8
0
  6
CONTINUOUS
 10
-66.5897438355723
 20
248.541277004757
 30
0.0
 40
0.0
 41
0.0
  0
VERTEX
  5
   125
  8
0
  6
CONTINUOUS
 10
-66.4143772619896
 20
248.585413062308
 30
0.0
 40
0.0
 41
0.0
  0
VERTEX
  5
   126
  8
0
  6
CONTINUOUS
 10
-66.2435532325208
 20
248.633798371004
 30
0.0
 40
0.0
 41
0.0
  0
VERTEX
  5
   127
  8
0
  6
CONTINUOUS
 10
-66.0776832772154
 20
248.6863163664
 30
0.0
 40
0.0
 41
0.0
  0
VERTEX
  5
   128
  8
0
  6
CONTINUOUS
 10
-65.9171669913242
 20
248.742840528044
 30
0.0
 40
0.0
 41
0.0
  0
VERTEX
  5
   129
  8
0
  6
CONTINUOUS
 10
-65.7623910726396
 20
248.803234684281
 30
0.0
 40
0.0
 41
0.0
  0
VERTEX
  5
   12A
  8
0
  6
CONTINUOUS
 10
-65.6137283899062
 20
248.867353340297
 30
0.0
 40
0.0
 41
0.0
  0
VERTEX
  5
   12B
  8
0
  6
CONTINUOUS
 10
-65.4715370845483
 20
248.935042028634
 30
0.0
 40
0.0
 41
0.0
  0
VERTEX
  5
   12C
  8
0
  6
CONTINUOUS
 10
-65.3361597078748
 20
249.006137681313
 30
0.0
 40
0.0
 41
0.0
  0
VERTEX
  5
   12D
  8
0
  6
CONTINUOUS
 10
-65.2079223958439
 20
249.08046902268
 30
0.0
 40
0.0
 41
0.0
  0
VERTEX
  5
   12E
  8
0
  6
CONTINUOUS
 10
-65.0871340833724
 20
249.157856982023
 30
0.0
 40
0.0
 41
0.0
  0
VERTEX
  5
   12F
  8
0
  6
CONTINUOUS
 10
-64.974085760085
 20
249.238115124969
 30
0.0
 40
0.0
 41
0.0
  0
VERTEX
  5
   130
  8
0
  6
CONTINUOUS
 10
-64.8690497692943
 20
249.321050102622
 30
0.0
 40
0.0
 41
0.0
  0
VERTEX
  5
   131
  8
0
  6
CONTINUOUS
 10
-64.7722791519022
 20
249.406462117357
 30
0.0
 40
0.0
 41
0.0
  0
VERTEX
  5
   132
  8
0
  6
CONTINUOUS
 10
-64.6840070368021
 20
249.494145404148
 30
0.0
 40
0.0
 41
0.0
  0
VERTEX
  5
   133
  8
0
  6
CONTINUOUS
 10
-64.604446079251
 20
249.583888726279
 30
0.0
 40
0.0
 41
0.0
  0
VERTEX
  5
   134
  8
0
  6
CONTINUOUS
 10
-64.5679930139573
 20
249.629465517939
 30
0.0
 40
0.0
 41
0.0
  0
VERTEX
  5
   135
  8
0
  6
CONTINUOUS
 10
-64.5337879485642
 20
249.675475884225
 30
0.0
 40
0.0
 41
0.0
  0
VERTEX
  5
   136
  8
0
  6
CONTINUOUS
 10
-64.5018514869243
 20
249.721892110211
 30
0.0
 40
0.0
 41
0.0
  0
VERTEX
  5
   137
  8
0
  6
CONTINUOUS
 10
-64.4722028663677
 20
249.7686862365
 30
0.0
 40
0.0
 41
0.0
  0
VERTEX
  5
   138
  8
0
  6
CONTINUOUS
 10
-64.4448599461149
 20
249.81583007606
 30
0.0
 40
0.0
 41
0.0
  0
VERTEX
  5
   139
  8
0
  6
CONTINUOUS
 10
-64.4198391965186
 20
249.863295231203
 30
0.0
 40
0.0
 41
0.0
  0
VERTEX
  5
   13A
  8
0
  6
CONTINUOUS
 10
-64.3971556891428
 20
249.911053110696
 30
0.0
 40
0.0
 41
0.0
  0
VERTEX
  5
   13B
  8
0
  6
CONTINUOUS
 10
-64.3768230876841
 20
249.959074946977
 30
0.0
 40
0.0
 41
0.0
  0
VERTEX
  5
   13C
  8
0
  6
CONTINUOUS
 10
-64.3588536397414
 20
250.007331813489
 30
0.0
 40
0.0
 41
0.0
  0
VERTEX
  5
   13D
  8
0
  6
CONTINUOUS
 10
-64.3432581694382
 20
250.055794642099
 30
0.0
 40
0.0
 41
0.0
  0
VERTEX
  5
   13E
  8
0
  6
CONTINUOUS
 10
-64.3300460709026
 20
250.104434240611
 30
0.0
 40
0.0
 41
0.0
  0
VERTEX
  5
   13F
  8
0
  6
CONTINUOUS
 10
-64.3192253026087
 20
250.153221310351
 30
0.0
 40
0.0
 41
0.0
  0
VERTEX
  5
   140
  8
0
  6
CONTINUOUS
 10
-64.3108023825829
 20
250.20212646381
 30
0.0
 40
0.0
 41
0.0
  0
VERTEX
  5
   141
  8
0
  6
CONTINUOUS
 10
-64.3047823844771
 20
250.251120242355
 30
0.0
 40
0.0
 41
0.0
  0
VERTEX
  5
   142
  8
0
  6
CONTINUOUS
 10
-64.3011689345131
 20
250.300173133964
 30
0.0
 40
0.0
 41
0.0
  0
VERTEX
  5
   143
  8
0
  6
CONTINUOUS
 10
-64.299964209298
 20
250.34925559101
 30
0.0
 40
0.0
 41
0.0
  0
VERTEX
  5
   144
  8
0
  6
CONTINUOUS
 10
-64.3011689345133
 20
250.398338048056
 30
0.0
 40
0.0
 41
0.0
  0
VERTEX
  5
   145
  8
0
  6
CONTINUOUS
 10
-64.3047823844776
 20
250.447390939665
 30
0.0
 40
0.0
 41
0.0
  0
VERTEX
  5
   146
  8
0
  6
CONTINUOUS
 10
-64.3108023825836
 20
250.496384718209
 30
0.0
 40
0.0
 41
0.0
  0
VERTEX
  5
   147
  8
0
  6
CONTINUOUS
 10
-64.3192253026097
 20
250.545289871669
 30
0.0
 40
0.0
 41
0.0
  0
VERTEX
  5
   148
  8
0
  6
CONTINUOUS
 10
-64.3300460709038
 20
250.594076941408
 30
0.0
 40
0.0
 41
0.0
  0
VERTEX
  5
   149
  8
0
  6
CONTINUOUS
 10
-64.3432581694396
 20
250.64271653992
 30
0.0
 40
0.0
 41
0.0
  0
VERTEX
  5
   14A
  8
0
  6
CONTINUOUS
 10
-64.3588536397431
 20
250.69117936853
 30
0.0
 40
0.0
 41
0.0
  0
VERTEX
  5
   14B
  8
0
  6
CONTINUOUS
 10
-64.3768230876861
 20
250.739436235042
 30
0.0
 40
0.0
 41
0.0
  0
VERTEX
  5
   14C
  8
0
  6
CONTINUOUS
 10
-64.397155689145
 20
250.787458071323
 30
0.0
 40
0.0
 41
0.0
  0
VERTEX
  5
   14D
  8
0
  6
CONTINUOUS
 10
-64.4198391965211
 20
250.835215950816
 30
0.0
 40
0.0
 41
0.0
  0
VERTEX
  5
   14E
  8
0
  6
CONTINUOUS
 10
-64.4448599461176
 20
250.882681105959
 30
0.0
 40
0.0
 41
0.0
  0
VERTEX
  5
   14F
  8
0
  6
CONTINUOUS
 10
-64.4722028663706
 20
250.929824945518
 30
0.0
 40
0.0
 41
0.0
  0
VERTEX
  5
   150
  8
0
  6
CONTINUOUS
 10
-64.5018514869274
 20
250.976619071807
 30
0.0
 40
0.0
 41
0.0
  0
VERTEX
  5
   151
  8
0
  6
CONTINUOUS
 10
-64.5337879485676
 20
251.023035297794
 30
0.0
 40
0.0
 41
0.0
  0
VERTEX
  5
   152
  8
0
  6
CONTINUOUS
 10
-64.5679930139609
 20
251.069045664079
 30
0.0
 40
0.0
 41
0.0
  0
VERTEX
  5
   153
  8
0
  6
CONTINUOUS
 10
-64.6044460792548
 20
251.114622455739
 30
0.0
 40
0.0
 41
0.0
  0
VERTEX
  5
   154
  8
0
  6
CONTINUOUS
 10
-64.6840070368064
 20
251.204365777869
 30
0.0
 40
0.0
 41
0.0
  0
VERTEX
  5
   155
  8
0
  6
CONTINUOUS
 10
-64.772279151907
 20
251.292049064661
 30
0.0
 40
0.0
 41
0.0
  0
VERTEX
  5
   156
  8
0
  6
CONTINUOUS
 10
-64.8690497692995
 20
251.377461079395
 30
0.0
 40
0.0
 41
0.0
  0
VERTEX
  5
   157
  8
0
  6
CONTINUOUS
 10
-64.9740857600906
 20
251.460396057047
 30
0.0
 40
0.0
 41
0.0
  0
VERTEX
  5
   158
  8
0
  6
CONTINUOUS
 10
-65.0871340833784
 20
251.540654199993
 30
0.0
 40
0.0
 41
0.0
  0
VERTEX
  5
   159
  8
0
  6
CONTINUOUS
 10
-65.2079223958502
 20
251.618042159335
 30
0.0
 40
0.0
 41
0.0
  0
VERTEX
  5
   15A
  8
0
  6
CONTINUOUS
 10
-65.3361597078815
 20
251.692373500701
 30
0.0
 40
0.0
 41
0.0
  0
VERTEX
  5
   15B
  8
0
  6
CONTINUOUS
 10
-65.4715370845554
 20
251.76346915338
 30
0.0
 40
0.0
 41
0.0
  0
VERTEX
  5
   15C
  8
0
  6
CONTINUOUS
 10
-65.6137283899137
 20
251.831157841716
 30
0.0
 40
0.0
 41
0.0
  0
VERTEX
  5
   15D
  8
0
  6
CONTINUOUS
 10
-65.7623910726473
 20
251.895276497732
 30
0.0
 40
0.0
 41
0.0
  0
VERTEX
  5
   15E
  8
0
  6
CONTINUOUS
 10
-65.9171669913323
 20
251.955670653967
 30
0.0
 40
0.0
 41
0.0
  0
VERTEX
  5
   15F
  8
0
  6
CONTINUOUS
 10
-66.0776832772238
 20
252.01219481561
 30
0.0
 40
0.0
 41
0.0
  0
VERTEX
  5
   160
  8
0
  6
CONTINUOUS
 10
-66.2435532325294
 20
252.064712811005
 30
0.0
 40
0.0
 41
0.0
  0
VERTEX
  5
   161
  8
0
  6
CONTINUOUS
 10
-66.4143772619985
 20
252.113098119701
 30
0.0
 40
0.0
 41
0.0
  0
VERTEX
  5
   162
  8
0
  6
CONTINUOUS
 10
-66.5897438355814
 20
252.157234177251
 30
0.0
 40
0.0
 41
0.0
  0
VERTEX
  5
   163
  8
0
  6
CONTINUOUS
 10
-66.7692304798423
 20
252.197014656026
 30
0.0
 40
0.0
 41
0.0
  0
VERTEX
  5
   164
  8
0
  6
CONTINUOUS
 10
-66.9524047957339
 20
252.232343721369
 30
0.0
 40
0.0
 41
0.0
  0
VERTEX
  5
   165
  8
0
  6
CONTINUOUS
 10
-67.138825500285
 20
252.263136262467
 30
0.0
 40
0.0
 41
0.0
  0
VERTEX
  5
   166
  8
0
  6
CONTINUOUS
 10
-67.3280434896898
 20
252.289318097391
 30
0.0
 40
0.0
 41
0.0
  0
VERTEX
  5
   167
  8
0
  6
CONTINUOUS
 10
-67.5196029212384
 20
252.310826151808
 30
0.0
 40
0.0
 41
0.0
  0
VERTEX
  5
   168
  8
0
  6
CONTINUOUS
 10
-67.7130423114815
 20
252.327608610931
 30
0.0
 40
0.0
 41
0.0
  0
VERTEX
  5
   169
  8
0
  6
CONTINUOUS
 10
-67.9078956479848
 20
252.339625044345
 30
0.0
 40
0.0
 41
0.0
  0
VERTEX
  5
   16A
  8
0
  6
CONTINUOUS
 10
-68.1036935119934
 20
252.346846503411
 30
0.0
 40
0.0
 41
0.0
  0
VERTEX
  5
   16B
  8
0
  6
CONTINUOUS
 10
-68.299964209303
 20
252.349255591
 30
0.0
 40
0.0
 41
0.0
  0
VERTEX
  5
   16C
  8
0
  6
CONTINUOUS
 10
-68.4962349066127
 20
252.34684650341
 30
0.0
 40
0.0
 41
0.0
  0
VERTEX
  5
   16D
  8
0
  6
CONTINUOUS
 10
-68.6920327706213
 20
252.339625044343
 30
0.0
 40
0.0
 41
0.0
  0
VERTEX
  5
   16E
  8
0
  6
CONTINUOUS
 10
-68.8868861071244
 20
252.327608610928
 30
0.0
 40
0.0
 41
0.0
  0
VERTEX
  5
   16F
  8
0
  6
CONTINUOUS
 10
-69.0803254973675
 20
252.310826151804
 30
0.0
 40
0.0
 41
0.0
  0
VERTEX
  5
   170
  8
0
  6
CONTINUOUS
 10
-69.2718849289159
 20
252.289318097386
 30
0.0
 40
0.0
 41
0.0
  0
VERTEX
  5
   171
  8
0
  6
CONTINUOUS
 10
-69.4611029183207
 20
252.263136262461
 30
0.0
 40
0.0
 41
0.0
  0
VERTEX
  5
   172
  8
0
  6
CONTINUOUS
 10
-69.6475236228716
 20
252.232343721362
 30
0.0
 40
0.0
 41
0.0
  0
VERTEX
  5
   173
  8
0
  6
CONTINUOUS
 10
-69.830697938763
 20
252.197014656018
 30
0.0
 40
0.0
 41
0.0
  0
VERTEX
  5
   174
  8
0
  6
CONTINUOUS
 10
-70.0101845830237
 20
252.157234177242
 30
0.0
 40
0.0
 41
0.0
  0
VERTEX
  5
   175
  8
0
  6
CONTINUOUS
 10
-70.1855511566064
 20
252.113098119692
 30
0.0
 40
0.0
 41
0.0
  0
VERTEX
  5
   176
  8
0
  6
CONTINUOUS
 10
-70.3563751860752
 20
252.064712810995
 30
0.0
 40
0.0
 41
0.0
  0
VERTEX
  5
   177
  8
0
  6
CONTINUOUS
 10
-70.5222451413806
 20
252.012194815599
 30
0.0
 40
0.0
 41
0.0
  0
VERTEX
  5
   178
  8
0
  6
CONTINUOUS
 10
-70.6827614272718
 20
251.955670653955
 30
0.0
 40
0.0
 41
0.0
  0
VERTEX
  5
   179
  8
0
  6
CONTINUOUS
 10
-70.8375373459565
 20
251.895276497719
 30
0.0
 40
0.0
 41
0.0
  0
VERTEX
  5
   17A
  8
0
  6
CONTINUOUS
 10
-70.9862000286898
 20
251.831157841703
 30
0.0
 40
0.0
 41
0.0
  0
VERTEX
  5
   17B
  8
0
  6
CONTINUOUS
 10
-71.1283913340478
 20
251.763469153366
 30
0.0
 40
0.0
 41
0.0
  0
VERTEX
  5
   17C
  8
0
  6
CONTINUOUS
 10
-71.2637687107212
 20
251.692373500686
 30
0.0
 40
0.0
 41
0.0
  0
VERTEX
  5
   17D
  8
0
  6
CONTINUOUS
 10
-71.3920060227521
 20
251.618042159319
 30
0.0
 40
0.0
 41
0.0
  0
VERTEX
  5
   17E
  8
0
  6
CONTINUOUS
 10
-71.5127943352236
 20
251.540654199976
 30
0.0
 40
0.0
 41
0.0
  0
VERTEX
  5
   17F
  8
0
  6
CONTINUOUS
 10
-71.625842658511
 20
251.460396057031
 30
0.0
 40
0.0
 41
0.0
  0
VERTEX
  5
   180
  8
0
  6
CONTINUOUS
 10
-71.7308786493017
 20
251.377461079378
 30
0.0
 40
0.0
 41
0.0
  0
VERTEX
  5
   181
  8
0
  6
CONTINUOUS
 10
-71.8276492666938
 20
251.292049064643
 30
0.0
 40
0.0
 41
0.0
  0
VERTEX
  5
   182
  8
0
  6
CONTINUOUS
 10
-71.9159213817939
 20
251.204365777851
 30
0.0
 40
0.0
 41
0.0
  0
VERTEX
  5
   183
  8
0
  6
CONTINUOUS
 10
-71.9954823393451
 20
251.114622455721
 30
0.0
 40
0.0
 41
0.0
  0
VERTEX
  5
   184
  8
0
  6
CONTINUOUS
 10
-72.0319354046388
 20
251.06904566406
 30
0.0
 40
0.0
 41
0.0
  0
VERTEX
  5
   185
  8
0
  6
CONTINUOUS
 10
-72.0661404700318
 20
251.023035297775
 30
0.0
 40
0.0
 41
0.0
  0
VERTEX
  5
   186
  8
0
  6
CONTINUOUS
 10
-72.0980769316717
 20
250.976619071788
 30
0.0
 40
0.0
 41
0.0
  0
VERTEX
  5
   187
  8
0
  6
CONTINUOUS
 10
-72.1277255522283
 20
250.929824945499
 30
0.0
 40
0.0
 41
0.0
  0
VERTEX
  5
   188
  8
0
  6
CONTINUOUS
 10
-72.1550684724811
 20
250.88268110594
 30
0.0
 40
0.0
 41
0.0
  0
VERTEX
  5
   189
  8
0
  6
CONTINUOUS
 10
-72.1800892220774
 20
250.835215950796
 30
0.0
 40
0.0
 41
0.0
  0
VERTEX
  5
   18A
  8
0
  6
CONTINUOUS
 10
-72.2027727294532
 20
250.787458071304
 30
0.0
 40
0.0
 41
0.0
  0
VERTEX
  5
   18B
  8
0
  6
CONTINUOUS
 10
-72.2231053309119
 20
250.739436235022
 30
0.0
 40
0.0
 41
0.0
  0
VERTEX
  5
   18C
  8
0
  6
CONTINUOUS
 10
-72.2410747788546
 20
250.69117936851
 30
0.0
 40
0.0
 41
0.0
  0
VERTEX
  5
   18D
  8
0
  6
CONTINUOUS
 10
-72.2566702491579
 20
250.642716539901
 30
0.0
 40
0.0
 41
0.0
  0
VERTEX
  5
   18E
  8
0
  6
CONTINUOUS
 10
-72.2698823476935
 20
250.594076941388
 30
0.0
 40
0.0
 41
0.0
  0
VERTEX
  5
   18F
  8
0
  6
CONTINUOUS
 10
-72.2807031159873
 20
250.545289871649
 30
0.0
 40
0.0
 41
0.0
  0
VERTEX
  5
   190
  8
0
  6
CONTINUOUS
 10
-72.2891260360131
 20
250.496384718189
 30
0.0
 40
0.0
 41
0.0
  0
VERTEX
  5
   191
  8
0
  6
CONTINUOUS
 10
-72.2951460341189
 20
250.447390939645
 30
0.0
 40
0.0
 41
0.0
  0
VERTEX
  5
   192
  8
0
  6
CONTINUOUS
 10
-72.298759484083
 20
250.398338048035
 30
0.0
 40
0.0
 41
0.0
  0
VERTEX
  5
   193
  8
0
  6
CONTINUOUS
 10
-72.299964209298
 20
250.34925559099
 30
0.0
 40
0.0
 41
0.0
  0
SEQEND
  5
   194
  8
0
  6
CONTINUOUS
 62
   218
  0
POLYLINE
  5
   195
  8
0
  6
CONTINUOUS
 62
   218
 66
     1
 10
0.0
 20
0.0
 30
0.0
  0
VERTEX
  5
   196
  8
0
  6
CONTINUOUS
 10
-56.299964209298
 20
250.349255591015
 30
0.0
 40
0.0
 41
0.0
  0
VERTEX
  5
   197
  8
0
  6
CONTINUOUS
 10
-56.3011689345136
 20
250.398338048061
 30
0.0
 40
0.0
 41
0.0
  0
VERTEX
  5
   198
  8
0
  6
CONTINUOUS
 10
-56.3047823844781
 20
250.44739093967
 30
0.0
 40
0.0
 41
0.0
  0
VERTEX
  5
   199
  8
0
  6
CONTINUOUS
 10
-56.3108023825844
 20
250.496384718214
 30
0.0
 40
0.0
 41
0.0
  0
VERTEX
  5
   19A
  8
0
  6
CONTINUOUS
 10
-56.3192253026107
 20
250.545289871674
 30
0.0
 40
0.0
 41
0.0
  0
VERTEX
  5
   19B
  8
0
  6
CONTINUOUS
 10
-56.3300460709051
 20
250.594076941413
 30
0.0
 40
0.0
 41
0.0
  0
VERTEX
  5
   19C
  8
0
  6
CONTINUOUS
 10
-56.3432581694412
 20
250.642716539926
 30
0.0
 40
0.0
 41
0.0
  0
VERTEX
  5
   19D
  8
0
  6
CONTINUOUS
 10
-56.3588536397449
 20
250.691179368535
 30
0.0
 40
0.0
 41
0.0
  0
VERTEX
  5
   19E
  8
0
  6
CONTINUOUS
 10
-56.3768230876882
 20
250.739436235047
 30
0.0
 40
0.0
 41
0.0
  0
VERTEX
  5
   19F
  8
0
  6
CONTINUOUS
 10
-56.3971556891474
 20
250.787458071328
 30
0.0
 40
0.0
 41
0.0
  0
VERTEX
  5
   1A0
  8
0
  6
CONTINUOUS
 10
-56.4198391965237
 20
250.835215950821
 30
0.0
 40
0.0
 41
0.0
  0
VERTEX
  5
   1A1
  8
0
  6
CONTINUOUS
 10
-56.4448599461205
 20
250.882681105964
 30
0.0
 40
0.0
 41
0.0
  0
VERTEX
  5
   1A2
  8
0
  6
CONTINUOUS
 10
-56.4722028663738
 20
250.929824945523
 30
0.0
 40
0.0
 41
0.0
  0
VERTEX
  5
   1A3
  8
0
  6
CONTINUOUS
 10
-56.5018514869309
 20
250.976619071812
 30
0.0
 40
0.0
 41
0.0
  0
VERTEX
  5
   1A4
  8
0
  6
CONTINUOUS
 10
-56.5337879485714
 20
251.023035297799
 30
0.0
 40
0.0
 41
0.0
  0
VERTEX
  5
   1A5
  8
0
  6
CONTINUOUS
 10
-56.5679930139649
 20
251.069045664084
 30
0.0
 40
0.0
 41
0.0
  0
VERTEX
  5
   1A6
  8
0
  6
CONTINUOUS
 10
-56.6044460792591
 20
251.114622455744
 30
0.0
 40
0.0
 41
0.0
  0
VERTEX
  5
   1A7
  8
0
  6
CONTINUOUS
 10
-56.6840070368113
 20
251.204365777875
 30
0.0
 40
0.0
 41
0.0
  0
VERTEX
  5
   1A8
  8
0
  6
CONTINUOUS
 10
-56.7722791519124
 20
251.292049064666
 30
0.0
 40
0.0
 41
0.0
  0
VERTEX
  5
   1A9
  8
0
  6
CONTINUOUS
 10
-56.8690497693056
 20
251.3774610794
 30
0.0
 40
0.0
 41
0.0
  0
VERTEX
  5
   1AA
  8
0
  6
CONTINUOUS
 10
-56.9740857600973
 20
251.460396057052
 30
0.0
 40
0.0
 41
0.0
  0
VERTEX
  5
   1AB
  8
0
  6
CONTINUOUS
 10
-57.0871340833856
 20
251.540654199997
 30
0.0
 40
0.0
 41
0.0
  0
VERTEX
  5
   1AC
  8
0
  6
CONTINUOUS
 10
-57.207922395858
 20
251.61804215934
 30
0.0
 40
0.0
 41
0.0
  0
VERTEX
  5
   1AD
  8
0
  6
CONTINUOUS
 10
-57.3361597078899
 20
251.692373500706
 30
0.0
 40
0.0
 41
0.0
  0
VERTEX
  5
   1AE
  8
0
  6
CONTINUOUS
 10
-57.4715370845643
 20
251.763469153384
 30
0.0
 40
0.0
 41
0.0
  0
VERTEX
  5
   1AF
  8
0
  6
CONTINUOUS
 10
-57.6137283899231
 20
251.831157841721
 30
0.0
 40
0.0
 41
0.0
  0
VERTEX
  5
   1B0
  8
0
  6
CONTINUOUS
 10
-57.7623910726573
 20
251.895276497736
 30
0.0
 40
0.0
 41
0.0
  0
VERTEX
  5
   1B1
  8
0
  6
CONTINUOUS
 10
-57.9171669913428
 20
251.955670653971
 30
0.0
 40
0.0
 41
0.0
  0
VERTEX
  5
   1B2
  8
0
  6
CONTINUOUS
 10
-58.0776832772348
 20
252.012194815614
 30
0.0
 40
0.0
 41
0.0
  0
VERTEX
  5
   1B3
  8
0
  6
CONTINUOUS
 10
-58.2435532325409
 20
252.064712811009
 30
0.0
 40
0.0
 41
0.0
  0
VERTEX
  5
   1B4
  8
0
  6
CONTINUOUS
 10
-58.4143772620104
 20
252.113098119704
 30
0.0
 40
0.0
 41
0.0
  0
VERTEX
  5
   1B5
  8
0
  6
CONTINUOUS
 10
-58.5897438355938
 20
252.157234177254
 30
0.0
 40
0.0
 41
0.0
  0
VERTEX
  5
   1B6
  8
0
  6
CONTINUOUS
 10
-58.7692304798551
 20
252.197014656029
 30
0.0
 40
0.0
 41
0.0
  0
VERTEX
  5
   1B7
  8
0
  6
CONTINUOUS
 10
-58.952404795747
 20
252.232343721371
 30
0.0
 40
0.0
 41
0.0
  0
VERTEX
  5
   1B8
  8
0
  6
CONTINUOUS
 10
-59.1388255002985
 20
252.263136262469
 30
0.0
 40
0.0
 41
0.0
  0
VERTEX
  5
   1B9
  8
0
  6
CONTINUOUS
 10
-59.3280434897037
 20
252.289318097393
 30
0.0
 40
0.0
 41
0.0
  0
VERTEX
  5
   1BA
  8
0
  6
CONTINUOUS
 10
-59.5196029212526
 20
252.31082615181
 30
0.0
 40
0.0
 41
0.0
  0
VERTEX
  5
   1BB
  8
0
  6
CONTINUOUS
 10
-59.713042311496
 20
252.327608610932
 30
0.0
 40
0.0
 41
0.0
  0
VERTEX
  5
   1BC
  8
0
  6
CONTINUOUS
 10
-59.9078956479995
 20
252.339625044346
 30
0.0
 40
0.0
 41
0.0
  0
VERTEX
  5
   1BD
  8
0
  6
CONTINUOUS
 10
-60.1036935120083
 20
252.346846503411
 30
0.0
 40
0.0
 41
0.0
  0
VERTEX
  5
   1BE
  8
0
  6
CONTINUOUS
 10
-60.2999642093181
 20
252.349255591
 30
0.0
 40
0.0
 41
0.0
  0
VERTEX
  5
   1BF
  8
0
  6
CONTINUOUS
 10
-60.4962349066279
 20
252.346846503409
 30
0.0
 40
0.0
 41
0.0
  0
VERTEX
  5
   1C0
  8
0
  6
CONTINUOUS
 10
-60.6920327706366
 20
252.339625044342
 30
0.0
 40
0.0
 41
0.0
  0
VERTEX
  5
   1C1
  8
0
  6
CONTINUOUS
 10
-60.8868861071398
 20
252.327608610927
 30
0.0
 40
0.0
 41
0.0
  0
VERTEX
  5
   1C2
  8
0
  6
CONTINUOUS
 10
-61.0803254973829
 20
252.310826151803
 30
0.0
 40
0.0
 41
0.0
  0
VERTEX
  5
   1C3
  8
0
  6
CONTINUOUS
 10
-61.2718849289313
 20
252.289318097384
 30
0.0
 40
0.0
 41
0.0
  0
VERTEX
  5
   1C4
  8
0
  6
CONTINUOUS
 10
-61.461102918336
 20
252.263136262459
 30
0.0
 40
0.0
 41
0.0
  0
VERTEX
  5
   1C5
  8
0
  6
CONTINUOUS
 10
-61.6475236228869
 20
252.23234372136
 30
0.0
 40
0.0
 41
0.0
  0
VERTEX
  5
   1C6
  8
0
  6
CONTINUOUS
 10
-61.8306979387781
 20
252.197014656015
 30
0.0
 40
0.0
 41
0.0
  0
VERTEX
  5
   1C7
  8
0
  6
CONTINUOUS
 10
-62.0101845830386
 20
252.157234177239
 30
0.0
 40
0.0
 41
0.0
  0
VERTEX
  5
   1C8
  8
0
  6
CONTINUOUS
 10
-62.1855511566211
 20
252.113098119688
 30
0.0
 40
0.0
 41
0.0
  0
VERTEX
  5
   1C9
  8
0
  6
CONTINUOUS
 10
-62.3563751860896
 20
252.064712810991
 30
0.0
 40
0.0
 41
0.0
  0
VERTEX
  5
   1CA
  8
0
  6
CONTINUOUS
 10
-62.5222451413947
 20
252.012194815594
 30
0.0
 40
0.0
 41
0.0
  0
VERTEX
  5
   1CB
  8
0
  6
CONTINUOUS
 10
-62.6827614272855
 20
251.95567065395
 30
0.0
 40
0.0
 41
0.0
  0
VERTEX
  5
   1CC
  8
0
  6
CONTINUOUS
 10
-62.8375373459698
 20
251.895276497713
 30
0.0
 40
0.0
 41
0.0
  0
VERTEX
  5
   1CD
  8
0
  6
CONTINUOUS
 10
-62.9862000287027
 20
251.831157841697
 30
0.0
 40
0.0
 41
0.0
  0
VERTEX
  5
   1CE
  8
0
  6
CONTINUOUS
 10
-63.1283913340602
 20
251.763469153359
 30
0.0
 40
0.0
 41
0.0
  0
VERTEX
  5
   1CF
  8
0
  6
CONTINUOUS
 10
-63.2637687107331
 20
251.69237350068
 30
0.0
 40
0.0
 41
0.0
  0
VERTEX
  5
   1D0
  8
0
  6
CONTINUOUS
 10
-63.3920060227635
 20
251.618042159312
 30
0.0
 40
0.0
 41
0.0
  0
VERTEX
  5
   1D1
  8
0
  6
CONTINUOUS
 10
-63.5127943352343
 20
251.540654199969
 30
0.0
 40
0.0
 41
0.0
  0
VERTEX
  5
   1D2
  8
0
  6
CONTINUOUS
 10
-63.6258426585211
 20
251.460396057023
 30
0.0
 40
0.0
 41
0.0
  0
VERTEX
  5
   1D3
  8
0
  6
CONTINUOUS
 10
-63.7308786493111
 20
251.37746107937
 30
0.0
 40
0.0
 41
0.0
  0
VERTEX
  5
   1D4
  8
0
  6
CONTINUOUS
 10
-63.8276492667025
 20
251.292049064635
 30
0.0
 40
0.0
 41
0.0
  0
VERTEX
  5
   1D5
  8
0
  6
CONTINUOUS
 10
-63.9159213818019
 20
251.204365777843
 30
0.0
 40
0.0
 41
0.0
  0
VERTEX
  5
   1D6
  8
0
  6
CONTINUOUS
 10
-63.9954823393523
 20
251.114622455712
 30
0.0
 40
0.0
 41
0.0
  0
VERTEX
  5
   1D7
  8
0
  6
CONTINUOUS
 10
-64.0319354046456
 20
251.069045664051
 30
0.0
 40
0.0
 41
0.0
  0
VERTEX
  5
   1D8
  8
0
  6
CONTINUOUS
 10
-64.0661404700382
 20
251.023035297766
 30
0.0
 40
0.0
 41
0.0
  0
VERTEX
  5
   1D9
  8
0
  6
CONTINUOUS
 10
-64.0980769316777
 20
250.976619071779
 30
0.0
 40
0.0
 41
0.0
  0
VERTEX
  5
   1DA
  8
0
  6
CONTINUOUS
 10
-64.1277255522339
 20
250.92982494549
 30
0.0
 40
0.0
 41
0.0
  0
VERTEX
  5
   1DB
  8
0
  6
CONTINUOUS
 10
-64.1550684724862
 20
250.882681105931
 30
0.0
 40
0.0
 41
0.0
  0
VERTEX
  5
   1DC
  8
0
  6
CONTINUOUS
 10
-64.1800892220821
 20
250.835215950787
 30
0.0
 40
0.0
 41
0.0
  0
VERTEX
  5
   1DD
  8
0
  6
CONTINUOUS
 10
-64.2027727294575
 20
250.787458071294
 30
0.0
 40
0.0
 41
0.0
  0
VERTEX
  5
   1DE
  8
0
  6
CONTINUOUS
 10
-64.2231053309157
 20
250.739436235013
 30
0.0
 40
0.0
 41
0.0
  0
VERTEX
  5
   1DF
  8
0
  6
CONTINUOUS
 10
-64.241074778858
 20
250.691179368501
 30
0.0
 40
0.0
 41
0.0
  0
VERTEX
  5
   1E0
  8
0
  6
CONTINUOUS
 10
-64.2566702491608
 20
250.642716539891
 30
0.0
 40
0.0
 41
0.0
  0
VERTEX
  5
   1E1
  8
0
  6
CONTINUOUS
 10
-64.2698823476959
 20
250.594076941378
 30
0.0
 40
0.0
 41
0.0
  0
VERTEX
  5
   1E2
  8
0
  6
CONTINUOUS
 10
-64.2807031159892
 20
250.545289871639
 30
0.0
 40
0.0
 41
0.0
  0
VERTEX
  5
   1E3
  8
0
  6
CONTINUOUS
 10
-64.2891260360146
 20
250.496384718179
 30
0.0
 40
0.0
 41
0.0
  0
VERTEX
  5
   1E4
  8
0
  6
CONTINUOUS
 10
-64.2951460341199
 20
250.447390939635
 30
0.0
 40
0.0
 41
0.0
  0
VERTEX
  5
   1E5
  8
0
  6
CONTINUOUS
 10
-64.2987594840834
 20
250.398338048025
 30
0.0
 40
0.0
 41
0.0
  0
VERTEX
  5
   1E6
  8
0
  6
CONTINUOUS
 10
-64.299964209298
 20
250.34925559098
 30
0.0
 40
0.0
 41
0.0
  0
SEQEND
  5
   1E7
  8
0
  6
CONTINUOUS
 62
   218
  0
INSERT
  5
   1E8
  8
0
  6
CONTINUOUS
 62
   218
  2
*HATCH109
 10
0.0
 20
0.0
 30
0.0
  0
LINE
  5
   1E9
  8
0
  6
CONTINUOUS
 62
   218
 10
-62.878366952658
 20
208.737096448576
 30
0.0
 11
-58.8228463963633
 21
231.737096448576
 31
0.0
  0
LINE
  5
   1EA
  8
0
  6
CONTINUOUS
 62
   218
 10
-61.456769696018
 20
208.737096448575
 30
0.0
 11
-58.099964209298
 21
227.774486377403
 31
0.0
  0
LINE
  5
   1EB
  8
0
  6
CONTINUOUS
 62
   218
 10
-60.035172439378
 20
208.737096448575
 30
0.0
 11
-58.099964209298
 21
219.712207701002
 31
0.0
  0
LINE
  5
   1EC
  8
0
  6
CONTINUOUS
 62
   218
 10
-58.613575182738
 20
208.737096448575
 30
0.0
 11
-58.0999642092981
 21
211.649929024601
 31
0.0
  0
LINE
  5
   1ED
  8
0
  6
CONTINUOUS
 62
   218
 10
-65.7215614659381
 20
208.737096448575
 30
0.0
 11
-61.6660409096434
 21
231.737096448576
 31
0.0
  0
LINE
  5
   1EE
  8
0
  6
CONTINUOUS
 62
   218
 10
-67.1431587225781
 20
208.737096448575
 30
0.0
 11
-63.0876381662835
 21
231.737096448575
 31
0.0
  0
LINE
  5
   1EF
  8
0
  6
CONTINUOUS
 62
   218
 10
-68.5647559792182
 20
208.737096448576
 30
0.0
 11
-64.5092354229235
 21
231.737096448576
 31
0.0
  0
LINE
  5
   1F0
  8
0
  6
CONTINUOUS
 62
   218
 10
-69.9863532358582
 20
208.737096448575
 30
0.0
 11
-65.9308326795636
 21
231.737096448575
 31
0.0
  0
LINE
  5
   1F1
  8
0
  6
CONTINUOUS
 62
   218
 10
-70.499964209298
 20
213.886542548952
 30
0.0
 11
-67.3524299362037
 21
231.737096448576
 31
0.0
  0
LINE
  5
   1F2
  8
0
  6
CONTINUOUS
 62
   218
 10
-70.4999642092981
 20
221.948821225353
 30
0.0
 11
-68.7740271928438
 21
231.737096448575
 31
0.0
  0
LINE
  5
   1F3
  8
0
  6
CONTINUOUS
 62
   218
 10
-70.499964209298
 20
230.011099901754
 30
0.0
 11
-70.1956244494838
 21
231.737096448575
 31
0.0
  0
ENDBLK
  5
   1F4
  8
0
  6
CONTINUOUS
 62
     7
  0
BLOCK
  5
   1F5
  8
0
  6
CONTINUOUS
 62
     7
  2
159488
 70
    64
 10
0.0
 20
0.0
 30
0.0
  3
159488
  0
LINE
  5
   1F6
  8
0
  6
CONTINUOUS
 62
     3
 10
-77.999964209298
 20
207.237096448575
 30
0.0
 11
-77.999964209298
 21
227.237096448575
 31
0.0
  0
LINE
  5
   1F7
  8
0
  6
DASHDOT
 62
     3
 10
-82.6696138350863
 20
217.237096448575
 30
0.0
 11
-29.4109503494068
 21
217.237096448575
 31
0.0
  0
LINE
  5
   1F8
  8
0
  6
CONTINUOUS
 62
     3
 10
-75.499964209298
 20
207.237096448575
 30
0.0
 11
-75.499964209298
 21
213.237096448575
 31
0.0
  0
LINE
  5
   1F9
  8
0
  6
CONTINUOUS
 62
     3
 10
-77.999964209298
 20
227.237096448575
 30
0.0
 11
-70.499964209298
 21
227.237096448575
 31
0.0
  0
LINE
  5
   1FA
  8
0
  6
CONTINUOUS
 62
     3
 10
-77.999964209298
 20
207.237096448575
 30
0.0
 11
-75.499964209298
 21
207.237096448575
 31
0.0
  0
LINE
  5
   1FB
  8
0
  6
CONTINUOUS
 62
     3
 10
-38.999964209298
 20
209.237096448575
 30
0.0
 11
-38.999964209298
 21
211.237096448575
 31
0.0
  0
ARC
  5
   1FC
  8
0
  6
CONTINUOUS
 62
     3
 10
-75.499964209298
 20
217.237096448575
 30
0.0
 40
4.0
 50
0.0
 51
90.0
  0
ARC
  5
   1FD
  8
0
  6
CONTINUOUS
 62
     3
 10
-40.999964209298
 20
225.237096448575
 30
0.0
 40
2.0
 50
0.0
 51
90.0
  0
ARC
  5
   1FE
  8
0
  6
CONTINUOUS
 62
     3
 10
-40.999964209298
 20
209.237096448575
 30
0.0
 40
2.0
 50
270.0
 51
360.0
  0
ARC
  5
   1FF
  8
0
  6
CONTINUOUS
 62
     3
 10
-75.499964209298
 20
217.237096448575
 30
0.0
 40
4.0
 50
270.0
 51
360.0
  0
ARC
  5
   200
  8
0
  6
CONTINUOUS
 62
     3
 10
-75.499964209298
 20
217.237096448575
 30
0.0
 40
2.0
 50
262.819244218542
 51
457.180755781458
  0
ARC
  5
   201
  8
0
  6
CONTINUOUS
 62
     3
 10
-75.999964209298
 20
221.205723415172
 30
0.0
 40
2.0
 50
180.0
 51
277.180755781458
  0
ARC
  5
   202
  8
0
  6
CONTINUOUS
 62
     3
 10
-75.999964209298
 20
213.268469481978
 30
0.0
 40
2.0
 50
82.8192442185417
 51
180.0
  0
LINE
  5
   203
  8
0
  6
CONTINUOUS
 62
     3
 10
-75.499964209298
 20
221.237096448575
 30
0.0
 11
-75.499964209298
 21
227.237096448575
 31
0.0
  0
LINE
  5
   204
  8
0
  6
CONTINUOUS
 62
     3
 10
-46.499964209298
 20
207.237096448575
 30
0.0
 11
-46.499964209298
 21
211.237096448575
 31
0.0
  0
LINE
  5
   205
  8
0
  6
CONTINUOUS
 62
     3
 10
-42.499964209298
 20
207.237096448575
 30
0.0
 11
-42.499964209298
 21
211.237096448575
 31
0.0
  0
LINE
  5
   206
  8
0
  6
CONTINUOUS
 62
     3
 10
-46.499964209298
 20
222.237096448575
 30
0.0
 11
-42.499964209298
 21
222.237096448575
 31
0.0
  0
LINE
  5
   207
  8
0
  6
CONTINUOUS
 62
     3
 10
-46.499964209298
 20
212.237096448575
 30
0.0
 11
-42.499964209298
 21
212.237096448575
 31
0.0
  0
LINE
  5
   208
  8
0
  6
CONTINUOUS
 62
     3
 10
-46.499964209298
 20
223.237096448575
 30
0.0
 11
-42.499964209298
 21
223.237096448575
 31
0.0
  0
LINE
  5
   209
  8
0
  6
CONTINUOUS
 62
     3
 10
-46.499964209298
 20
211.237096448575
 30
0.0
 11
-42.499964209298
 21
211.237096448575
 31
0.0
  0
INSERT
  5
   20A
  8
255
  6
CONTINUOUS
 62
     7
  2
146558
 10
0.0
 20
0.0
 30
0.0
  0
LINE
  5
   20B
  8
0
  6
CONTINUOUS
 62
     3
 10
-70.499964209298
 20
207.237096448575
 30
0.0
 11
-40.999964209298
 21
207.237096448575
 31
0.0
  0
INSERT
  5
   20C
  8
0
  6
CONTINUOUS
 62
    98
  2
*HATCH106
 10
0.0
 20
0.0
 30
0.0
  0
INSERT
  5
   20D
  8
0
  6
CONTINUOUS
 62
    98
  2
*HATCH107
 10
0.0
 20
0.0
 30
0.0
  0
INSERT
  5
   20E
  8
0
  6
CONTINUOUS
 62
    98
  2
*HATCH108
 10
0.0
 20
0.0
 30
0.0
  0
LINE
  5
   20F
  8
0
  6
DOT
 62
     3
 10
-70.499964209298
 20
227.237096448575
 30
0.0
 11
-58.099964209298
 21
227.237096448575
 31
0.0
  0
LINE
  5
   210
  8
0
  6
CONTINUOUS
 62
     3
 10
-58.099964209298
 20
227.237096448575
 30
0.0
 11
-40.999964209298
 21
227.237096448575
 31
0.0
  0
INSERT
  5
   211
  8
255
  6
CONTINUOUS
 62
     7
  2
$1CAVO
 10
0.0
 20
0.0
 30
0.0
  0
LINE
  5
   212
  8
0
  6
CONTINUOUS
 62
     3
 10
-46.499964209298
 20
223.237096448575
 30
0.0
 11
-46.499964209298
 21
227.237096448575
 31
0.0
  0
LINE
  5
   213
  8
0
  6
CONTINUOUS
 62
     3
 10
-42.499964209298
 20
223.237096448575
 30
0.0
 11
-42.499964209298
 21
227.237096448575
 31
0.0
  0
LINE
  5
   214
  8
0
  6
CONTINUOUS
 62
     3
 10
-38.999964209298
 20
223.237096448575
 30
0.0
 11
-38.999964209298
 21
225.237096448575
 31
0.0
  0
ENDBLK
  5
   215
  8
0
  6
CONTINUOUS
 62
     7
  0
BLOCK
  5
   216
  8
0
  6
CONTINUOUS
 62
     0
  2
*HATCH110
 70
    65
 10
0.0
 20
0.0
 30
0.0
  3
*HATCH110
  0
LINE
  5
   217
  8
0
  6
CONTINUOUS
 62
   210
 10
0.514719009399414
 20
9.0
 30
0.0
 11
0.0
 21
8.48528099060059
 31
0.0
  0
LINE
  5
   218
  8
0
  6
CONTINUOUS
 62
   210
 10
2.63603949546814
 20
9.0
 30
0.0
 11
0.0
 21
6.36396074295044
 31
0.0
  0
LINE
  5
   219
  8
0
  6
CONTINUOUS
 62
   210
 10
4.75735998153687
 20
9.0
 30
0.0
 11
0.0
 21
4.24264049530029
 31
0.0
  0
LINE
  5
   21A
  8
0
  6
CONTINUOUS
 62
   210
 10
6.87868022918701
 20
9.0
 30
0.0
 11
1.87867987155914
 21
4.0
 31
0.0
  0
LINE
  5
   21B
  8
0
  6
CONTINUOUS
 62
   210
 10
9.00000095367432
 20
9.0
 30
0.0
 11
4.00000047683716
 21
4.0
 31
0.0
  0
LINE
  5
   21C
  8
0
  6
CONTINUOUS
 62
   210
 10
11.1213216781616
 20
9.0
 30
0.0
 11
6.1213207244873
 21
4.0
 31
0.0
  0
LINE
  5
   21D
  8
0
  6
CONTINUOUS
 62
   210
 10
13.2426424026489
 20
9.0
 30
0.0
 11
8.24264144897461
 21
4.0
 31
0.0
  0
LINE
  5
   21E
  8
0
  6
CONTINUOUS
 62
   210
 10
15.0
 20
8.63603782653809
 30
0.0
 11
10.3639612197876
 21
4.0
 31
0.0
  0
LINE
  5
   21F
  8
0
  6
CONTINUOUS
 62
   210
 10
15.0
 20
6.51471757888794
 30
0.0
 11
12.4852819442749
 21
4.0
 31
0.0
  0
LINE
  5
   220
  8
0
  6
CONTINUOUS
 62
   210
 10
15.0
 20
4.39339733123779
 30
0.0
 11
14.6066026687622
 21
4.0
 31
0.0
  0
ENDBLK
  5
   221
  8
0
  6
CONTINUOUS
 62
     0
  0
BLOCK
  5
   222
  8
0
  6
CONTINUOUS
 62
     0
  2
*HATCH111
 70
    65
 10
0.0
 20
0.0
 30
0.0
  3
*HATCH111
  0
LINE
  5
   223
  8
0
  6
CONTINUOUS
 62
   210
 10
0.242640540003777
 20
-4.0
 30
0.0
 11
0.0
 21
-4.24264049530029
 31
0.0
  0
LINE
  5
   224
  8
0
  6
CONTINUOUS
 62
   210
 10
2.36396098136902
 20
-4.0
 30
0.0
 11
0.0
 21
-6.36396074295044
 31
0.0
  0
LINE
  5
   225
  8
0
  6
CONTINUOUS
 62
   210
 10
-4.13603973388672
 20
-10.5
 30
0.0
 11
-5.0
 21
-11.3639602661133
 31
0.0
  0
LINE
  5
   226
  8
0
  6
CONTINUOUS
 62
   210
 10
4.48528146743774
 20
-4.0
 30
0.0
 11
0.0
 21
-8.48528099060059
 31
0.0
  0
LINE
  5
   227
  8
0
  6
CONTINUOUS
 62
   210
 10
-2.01471948623657
 20
-10.5
 30
0.0
 11
-5.0
 21
-13.4852809906006
 31
0.0
  0
LINE
  5
   228
  8
0
  6
CONTINUOUS
 62
   210
 10
6.60660171508789
 20
-4.0
 30
0.0
 11
-2.89339900016785
 21
-13.5
 31
0.0
  0
LINE
  5
   229
  8
0
  6
CONTINUOUS
 62
   210
 10
8.7279224395752
 20
-4.0
 30
0.0
 11
-0.7720787525177
 21
-13.5
 31
0.0
  0
LINE
  5
   22A
  8
0
  6
CONTINUOUS
 62
   210
 10
10.8492431640625
 20
-4.0
 30
0.0
 11
1.34924149513245
 21
-13.5
 31
0.0
  0
LINE
  5
   22B
  8
0
  6
CONTINUOUS
 62
   210
 10
12.9705638885498
 20
-4.0
 30
0.0
 11
3.47056174278259
 21
-13.5
 31
0.0
  0
LINE
  5
   22C
  8
0
  6
CONTINUOUS
 62
   210
 10
15.0
 20
-4.09188365936279
 30
0.0
 11
5.59188270568848
 21
-13.5
 31
0.0
  0
LINE
  5
   22D
  8
0
  6
CONTINUOUS
 62
   210
 10
15.0
 20
-6.21320390701294
 30
0.0
 11
7.71320295333862
 21
-13.5
 31
0.0
  0
LINE
  5
   22E
  8
0
  6
CONTINUOUS
 62
   210
 10
15.0
 20
-8.33452415466309
 30
0.0
 11
9.83452320098877
 21
-13.5
 31
0.0
  0
LINE
  5
   22F
  8
0
  6
CONTINUOUS
 62
   210
 10
15.0
 20
-10.4558448791504
 30
0.0
 11
11.9558429718018
 21
-13.5
 31
0.0
  0
LINE
  5
   230
  8
0
  6
CONTINUOUS
 62
   210
 10
15.0
 20
-12.5771656036377
 30
0.0
 11
14.0771636962891
 21
-13.5
 31
0.0
  0
ENDBLK
  5
   231
  8
0
  6
CONTINUOUS
 62
     0
  0
BLOCK
  5
   232
  8
0
  6
CONTINUOUS
 62
     0
  2
*HATCH112
 70
    65
 10
0.0
 20
0.0
 30
0.0
  3
*HATCH112
  0
LINE
  5
   233
  8
0
  6
CONTINUOUS
 62
   210
 10
15.0
 20
-29.5477275848389
 30
0.0
 11
13.0
 21
-31.5477256774902
 31
0.0
  0
LINE
  5
   234
  8
0
  6
CONTINUOUS
 62
   210
 10
15.0
 20
-31.6690483093262
 30
0.0
 11
13.0
 21
-33.6690444946289
 31
0.0
  0
LINE
  5
   235
  8
0
  6
CONTINUOUS
 62
   210
 10
15.0
 20
-33.7903671264648
 30
0.0
 11
13.0
 21
-35.7903633117676
 31
0.0
  0
LINE
  5
   236
  8
0
  6
CONTINUOUS
 62
   210
 10
15.0
 20
-35.9116859436035
 30
0.0
 11
13.0
 21
-37.9116821289063
 31
0.0
  0
LINE
  5
   237
  8
0
  6
CONTINUOUS
 62
   210
 10
15.0
 20
-38.0330047607422
 30
0.0
 11
13.0
 21
-40.0330009460449
 31
0.0
  0
LINE
  5
   238
  8
0
  6
CONTINUOUS
 62
   210
 10
15.0
 20
-40.1543273925781
 30
0.0
 11
14.1543283462524
 21
-41.0
 31
0.0
  0
ENDBLK
  5
   239
  8
0
  6
CONTINUOUS
 62
     0
  0
BLOCK
  5
   23A
  8
0
  6
CONTINUOUS
 62
     0
  2
*HATCH113
 70
    65
 10
0.0
 20
0.0
 30
0.0
  3
*HATCH113
  0
LINE
  5
   23B
  8
0
  6
CONTINUOUS
 62
   210
 10
-4.04415702819824
 20
-29.5
 30
0.0
 11
-5.0
 21
-30.4558429718018
 31
0.0
  0
LINE
  5
   23C
  8
0
  6
CONTINUOUS
 62
   210
 10
-3.0
 20
-30.5771636962891
 30
0.0
 11
-5.0
 21
-32.5771636962891
 31
0.0
  0
LINE
  5
   23D
  8
0
  6
CONTINUOUS
 62
   210
 10
-3.0
 20
-32.6984825134277
 30
0.0
 11
-5.0
 21
-34.6984825134277
 31
0.0
  0
LINE
  5
   23E
  8
0
  6
CONTINUOUS
 62
   210
 10
-3.0
 20
-34.8198013305664
 30
0.0
 11
-5.0
 21
-36.8198013305664
 31
0.0
  0
LINE
  5
   23F
  8
0
  6
CONTINUOUS
 62
   210
 10
-3.0
 20
-36.9411201477051
 30
0.0
 11
-5.0
 21
-38.9411201477051
 31
0.0
  0
LINE
  5
   240
  8
0
  6
CONTINUOUS
 62
   210
 10
-3.0
 20
-39.062442779541
 30
0.0
 11
-4.93755578994751
 21
-41.0
 31
0.0
  0
ENDBLK
  5
   241
  8
0
  6
CONTINUOUS
 62
     0
  0
BLOCK
  5
   242
  8
0
  6
CONTINUOUS
 62
     0
  2
MORSETTO
 70
    64
 10
0.0
 20
0.0
 30
0.0
  3
MORSETTO
  0
LINE
  5
   243
  8
0
  6
CONTINUOUS
 62
     0
 10
0.0
 20
9.0
 30
0.0
 11
15.0
 21
9.0
 31
0.0
  0
LINE
  5
   244
  8
0
  6
CONTINUOUS
 62
     0
 10
15.0
 20
-41.0
 30
0.0
 11
15.0
 21
-4.0
 31
0.0
  0
LINE
  5
   245
  8
0
  6
CONTINUOUS
 62
     0
 10
-5.0
 20
-41.0
 30
0.0
 11
15.0
 21
-41.0
 31
0.0
  0
LINE
  5
   246
  8
0
  6
CONTINUOUS
 62
     0
 10
-5.0
 20
-41.0
 30
0.0
 11
-5.0
 21
-25.891847175276
 31
0.0
  0
LINE
  5
   247
  8
0
  6
CONTINUOUS
 62
     0
 10
-5.0
 20
-10.5
 30
0.0
 11
0.0
 21
-10.5
 31
0.0
  0
LINE
  5
   248
  8
0
  6
CONTINUOUS
 62
     0
 10
0.0
 20
-10.5
 30
0.0
 11
0.0
 21
-4.0
 31
0.0
  0
LINE
  5
   249
  8
0
  6
CONTINUOUS
 62
     0
 10
-5.0
 20
4.0
 30
0.0
 11
15.5
 21
4.0
 31
0.0
  0
LINE
  5
   24A
  8
0
  6
CONTINUOUS
 62
     0
 10
-5.0
 20
-4.0
 30
0.0
 11
15.5
 21
-4.0
 31
0.0
  0
LINE
  5
   24B
  8
0
  6
CONTINUOUS
 62
     0
 10
-5.0
 20
-13.5
 30
0.0
 11
15.0
 21
-13.5
 31
0.0
  0
LINE
  5
   24C
  8
0
  6
CONTINUOUS
 62
     0
 10
-5.0
 20
-29.5
 30
0.0
 11
-3.0
 21
-29.5
 31
0.0
  0
INSERT
  5
   24D
  8
0
  6
CONTINUOUS
 62
     0
  2
*HATCH110
 10
0.0
 20
0.0
 30
0.0
  0
INSERT
  5
   24E
  8
0
  6
CONTINUOUS
 62
     0
  2
*HATCH111
 10
0.0
 20
0.0
 30
0.0
  0
LINE
  5
   24F
  8
0
  6
CONTINUOUS
 62
     0
 10
-3.0
 20
-41.0
 30
0.0
 11
-3.0
 21
-26.891847175276
 31
0.0
  0
LINE
  5
   250
  8
0
  6
CONTINUOUS
 62
     0
 10
13.0
 20
-41.0
 30
0.0
 11
13.0
 21
-26.891847175276
 31
0.0
  0
LINE
  5
   251
  8
0
  6
CONTINUOUS
 62
     0
 10
-1.5
 20
-38.6
 30
0.0
 11
-1.5
 21
-26.891847175276
 31
0.0
  0
LINE
  5
   252
  8
0
  6
CONTINUOUS
 62
     0
 10
11.5
 20
-38.6
 30
0.0
 11
11.5
 21
-26.891847175276
 31
0.0
  0
LINE
  5
   253
  8
0
  6
DASHDOT
 62
     0
 10
5.0
 20
-47.3956063362547
 30
0.0
 11
5.0
 21
-25.1245433649944
 31
0.0
  0
LINE
  5
   254
  8
0
  6
CONTINUOUS
 62
     0
 10
-1.5
 20
-38.6
 30
0.0
 11
11.5
 21
-38.6
 31
0.0
  0
LINE
  5
   255
  8
0
  6
CONTINUOUS
 62
     0
 10
-8.7
 20
-6.5
 30
0.0
 11
-8.7
 21
6.5
 31
0.0
  0
LINE
  5
   256
  8
0
  6
CONTINUOUS
 62
     0
 10
-9.0
 20
-6.20000000000001
 30
0.0
 11
-9.0
 21
6.2
 31
0.0
  0
LINE
  5
   257
  8
0
  6
CONTINUOUS
 62
     0
 10
-6.0
 20
-8.0
 30
0.0
 11
-6.0
 21
8.0
 31
0.0
  0
LINE
  5
   258
  8
0
  6
CONTINUOUS
 62
     0
 10
-3.0
 20
-3.99999999999998
 30
0.0
 11
-3.0
 21
4.00000000000002
 31
0.0
  0
LINE
  5
   259
  8
0
  6
CONTINUOUS
 62
     0
 10
-8.69999999999999
 20
6.5
 30
0.0
 11
-6.0
 21
6.5
 31
0.0
  0
LINE
  5
   25A
  8
0
  6
CONTINUOUS
 62
     0
 10
-6.0
 20
8.0
 30
0.0
 11
-5.0
 21
8.0
 31
0.0
  0
LINE
  5
   25B
  8
0
  6
CONTINUOUS
 62
     0
 10
-9.0
 20
6.19999999999999
 30
0.0
 11
-8.7
 21
6.49999999999999
 31
0.0
  0
LINE
  5
   25C
  8
0
  6
CONTINUOUS
 62
     0
 10
-8.7
 20
-6.5
 30
0.0
 11
-6.0
 21
-6.5
 31
0.0
  0
LINE
  5
   25D
  8
0
  6
CONTINUOUS
 62
     0
 10
-9.0
 20
-6.2
 30
0.0
 11
-8.7
 21
-6.49999999999999
 31
0.0
  0
LINE
  5
   25E
  8
0
  6
CONTINUOUS
 62
     0
 10
-6.0
 20
-8.0
 30
0.0
 11
-5.0
 21
-8.0
 31
0.0
  0
LINE
  5
   25F
  8
0
  6
CONTINUOUS
 62
     0
 10
-3.0
 20
3.5
 30
0.0
 11
16.0
 21
3.5
 31
0.0
  0
LINE
  5
   260
  8
0
  6
CONTINUOUS
 62
     0
 10
-3.0
 20
-3.5
 30
0.0
 11
16.0
 21
-3.5
 31
0.0
  0
LINE
  5
   261
  8
0
  6
CONTINUOUS
 62
     0
 10
16.0
 20
-3.5
 30
0.0
 11
16.0
 21
3.5
 31
0.0
  0
LINE
  5
   262
  8
0
  6
CONTINUOUS
 62
     0
 10
15.5
 20
-4.0
 30
0.0
 11
15.5
 21
4.0
 31
0.0
  0
LINE
  5
   263
  8
0
  6
CONTINUOUS
 62
     0
 10
15.5
 20
4.0
 30
0.0
 11
16.0
 21
3.49999999999999
 31
0.0
  0
LINE
  5
   264
  8
0
  6
CONTINUOUS
 62
     0
 10
15.5
 20
-4.00000000000001
 30
0.0
 11
16.0
 21
-3.5
 31
0.0
  0
LINE
  5
   265
  8
0
  6
CONTINUOUS
 62
     0
 10
8.99999809265137
 20
-4.0
 30
0.0
 11
9.49999999999999
 21
-4.0
 31
0.0
  0
LINE
  5
   266
  8
0
  6
CONTINUOUS
 62
     0
 10
8.99999809265137
 20
4.0
 30
0.0
 11
9.49999999999999
 21
4.0
 31
0.0
  0
LINE
  5
   267
  8
0
  6
CONTINUOUS
 62
     0
 10
-5.0
 20
-8.0
 30
0.0
 11
-5.0
 21
8.0
 31
0.0
  0
LINE
  5
   268
  8
0
  6
CONTINUOUS
 62
     0
 10
0.0
 20
4.0
 30
0.0
 11
0.0
 21
9.0
 31
0.0
  0
LINE
  5
   269
  8
0
  6
CONTINUOUS
 62
     0
 10
15.0
 20
4.0
 30
0.0
 11
15.0
 21
9.0
 31
0.0
  0
LINE
  5
   26A
  8
0
  6
CONTINUOUS
 62
     0
 10
-3.0
 20
-37.1
 30
0.0
 11
13.0
 21
-37.1
 31
0.0
  0
LINE
  5
   26B
  8
0
  6
CONTINUOUS
 62
     0
 10
11.5
 20
-38.6
 30
0.0
 11
13.0
 21
-37.1
 31
0.0
  0
LINE
  5
   26C
  8
0
  6
CONTINUOUS
 62
     0
 10
-3.0
 20
-37.1
 30
0.0
 11
-1.5
 21
-38.6
 31
0.0
  0
ARC
  5
   26D
  8
0
  6
CONTINUOUS
 62
     0
 10
5.0
 20
-58.391847175276
 30
0.0
 40
32.5
 50
75.7499673021964
 51
104.250032697804
  0
LINE
  5
   26E
  8
0
  6
CONTINUOUS
 62
     0
 10
-3.0
 20
-26.891847175276
 30
0.0
 11
13.0
 21
-26.891847175276
 31
0.0
  0
INSERT
  5
   26F
  8
0
  6
CONTINUOUS
 62
     0
  2
*HATCH112
 10
0.0
 20
0.0
 30
0.0
  0
INSERT
  5
   270
  8
0
  6
CONTINUOUS
 62
     0
  2
*HATCH113
 10
0.0
 20
0.0
 30
0.0
  0
LINE
  5
   271
  8
0
  6
CONTINUOUS
 62
     0
 10
13.0
 20
-29.5
 30
0.0
 11
15.0
 21
-29.5
 31
0.0
  0
LINE
  5
   272
  8
0
  6
CONTINUOUS
 62
     0
 10
-5.0
 20
-13.5
 30
0.0
 11
-5.0
 21
-10.5
 31
0.0
  0
ENDBLK
  5
   273
  8
0
  6
CONTINUOUS
 62
     0
  0
BLOCK
  5
   274
  8
0
  6
CONTINUOUS
 62
    98
  2
*HATCH114
 70
    65
 10
0.0
 20
0.0
 30
0.0
  3
*HATCH114
  0
LINE
  5
   275
  8
0
  6
CONTINUOUS
 62
   210
 10
-62.5955009460449
 20
26.4999542236328
 30
0.0
 11
-64.7629089355469
 21
24.3325500488281
 31
0.0
  0
LINE
  5
   276
  8
0
  6
CONTINUOUS
 62
   210
 10
-58.3528633117676
 20
26.4999542236328
 30
0.0
 11
-60.8528633117676
 21
23.9999542236328
 31
0.0
  0
LINE
  5
   277
  8
0
  6
CONTINUOUS
 62
   210
 10
-54.1102256774902
 20
26.4999542236328
 30
0.0
 11
-56.6102256774902
 21
23.9999542236328
 31
0.0
  0
LINE
  5
   278
  8
0
  6
CONTINUOUS
 62
   210
 10
-49.8675880432129
 20
26.4999542236328
 30
0.0
 11
-52.3675880432129
 21
23.9999542236328
 31
0.0
  0
LINE
  5
   279
  8
0
  6
CONTINUOUS
 62
   210
 10
-45.6249504089355
 20
26.4999542236328
 30
0.0
 11
-48.1249504089356
 21
23.9999542236328
 31
0.0
  0
LINE
  5
   27A
  8
0
  6
CONTINUOUS
 62
   210
 10
-42.4629058837891
 20
25.4193458557129
 30
0.0
 11
-44.4629058837891
 21
23.4193458557129
 31
0.0
  0
LINE
  5
   27B
  8
0
  6
CONTINUOUS
 62
   210
 10
-42.4629058837891
 20
23.2980270385742
 30
0.0
 11
-44.4629058837891
 21
21.2980270385742
 31
0.0
  0
LINE
  5
   27C
  8
0
  6
CONTINUOUS
 62
   210
 10
-42.4629058837891
 20
21.1767063140869
 30
0.0
 11
-44.4629058837891
 21
19.1767063140869
 31
0.0
  0
LINE
  5
   27D
  8
0
  6
CONTINUOUS
 62
   210
 10
-42.4629058837891
 20
19.0553855895996
 30
0.0
 11
-44.4629058837891
 21
17.0553855895996
 31
0.0
  0
LINE
  5
   27E
  8
0
  6
CONTINUOUS
 62
   210
 10
-20.8970146179199
 20
38.4999542236328
 30
0.0
 11
-21.4629058837891
 21
37.9340629577637
 31
0.0
  0
LINE
  5
   27F
  8
0
  6
CONTINUOUS
 62
   210
 10
-55.3970336914063
 20
3.99993896484375
 30
0.0
 11
-57.8970184326172
 21
1.49995422363281
 31
0.0
  0
LINE
  5
   280
  8
0
  6
CONTINUOUS
 62
   210
 10
-42.4629058837891
 20
14.8127450942993
 30
0.0
 11
-44.4629058837891
 21
12.8127450942993
 31
0.0
  0
LINE
  5
   281
  8
0
  6
CONTINUOUS
 62
   210
 10
-19.4629058837891
 20
35.6914253234863
 30
0.0
 11
-21.4629058837891
 21
33.6914253234863
 31
0.0
  0
LINE
  5
   282
  8
0
  6
CONTINUOUS
 62
   210
 10
-51.1543922424316
 20
3.99993896484375
 30
0.0
 11
-53.6543769836426
 21
1.49995422363281
 31
0.0
  0
LINE
  5
   283
  8
0
  6
CONTINUOUS
 62
   210
 10
-42.4629058837891
 20
10.570104598999
 30
0.0
 11
-44.4629058837891
 21
8.57010459899902
 31
0.0
  0
LINE
  5
   284
  8
0
  6
CONTINUOUS
 62
   210
 10
-19.4629058837891
 20
31.4487857818604
 30
0.0
 11
-21.4629058837891
 21
29.4487838745117
 31
0.0
  0
LINE
  5
   285
  8
0
  6
CONTINUOUS
 62
   210
 10
-46.9117546081543
 20
3.99993896484375
 30
0.0
 11
-49.4117393493652
 21
1.49995422363281
 31
0.0
  0
LINE
  5
   286
  8
0
  6
CONTINUOUS
 62
   210
 10
-22.290412902832
 20
26.4999542236328
 30
0.0
 11
-23.4629058837891
 21
25.3274631500244
 31
0.0
  0
LINE
  5
   287
  8
0
  6
CONTINUOUS
 62
   210
 10
-44.7904319763184
 20
3.99993896484375
 30
0.0
 11
-47.2904167175293
 21
1.49995422363281
 31
0.0
  0
LINE
  5
   288
  8
0
  6
CONTINUOUS
 62
   210
 10
-42.4629058837891
 20
4.20614385604858
 30
0.0
 11
-45.1690940856934
 21
1.49995422363281
 31
0.0
  0
LINE
  5
   289
  8
0
  6
CONTINUOUS
 62
   210
 10
-21.4629058837891
 20
23.0848217010498
 30
0.0
 11
-23.4629058837891
 21
21.0848217010498
 31
0.0
  0
LINE
  5
   28A
  8
0
  6
CONTINUOUS
 62
   210
 10
-21.4629058837891
 20
20.9635009765625
 30
0.0
 11
-23.4629058837891
 21
18.9635009765625
 31
0.0
  0
LINE
  5
   28B
  8
0
  6
CONTINUOUS
 62
   210
 10
-21.4629058837891
 20
18.8421802520752
 30
0.0
 11
-23.4629058837891
 21
16.8421802520752
 31
0.0
  0
LINE
  5
   28C
  8
0
  6
CONTINUOUS
 62
   210
 10
-21.4629058837891
 20
16.7208595275879
 30
0.0
 11
-23.4629058837891
 21
14.7208595275879
 31
0.0
  0
LINE
  5
   28D
  8
0
  6
CONTINUOUS
 62
   210
 10
-21.4629058837891
 20
14.5995388031006
 30
0.0
 11
-23.4629058837891
 21
12.5995388031006
 31
0.0
  0
LINE
  5
   28E
  8
0
  6
CONTINUOUS
 62
   210
 10
-21.4629058837891
 20
12.4782180786133
 30
0.0
 11
-23.4629058837891
 21
10.4782180786133
 31
0.0
  0
LINE
  5
   28F
  8
0
  6
CONTINUOUS
 62
   210
 10
-21.4629058837891
 20
10.356897354126
 30
0.0
 11
-23.4629058837891
 21
8.35689735412598
 31
0.0
  0
LINE
  5
   290
  8
0
  6
CONTINUOUS
 62
   210
 10
-21.4629058837891
 20
8.23557662963867
 30
0.0
 11
-23.4629058837891
 21
6.23557710647583
 31
0.0
  0
LINE
  5
   291
  8
0
  6
CONTINUOUS
 62
   210
 10
-21.4629058837891
 20
6.11425638198853
 30
0.0
 11
-23.4629058837891
 21
4.11425685882568
 31
0.0
  0
LINE
  5
   292
  8
0
  6
CONTINUOUS
 62
   210
 10
-21.4559059143066
 20
3.99993896484375
 30
0.0
 11
-23.9558906555176
 21
1.49995422363281
 31
0.0
  0
LINE
  5
   293
  8
0
  6
CONTINUOUS
 62
   210
 10
-17.213264465332
 20
3.99993896484375
 30
0.0
 11
-19.713249206543
 21
1.49995422363281
 31
0.0
  0
LINE
  5
   294
  8
0
  6
CONTINUOUS
 62
   210
 10
-12.9706230163574
 20
3.99993896484375
 30
0.0
 11
-15.4706077575684
 21
1.49995422363281
 31
0.0
  0
LINE
  5
   295
  8
0
  6
CONTINUOUS
 62
   210
 10
-8.72798156738281
 20
3.99993896484375
 30
0.0
 11
-11.2279663085938
 21
1.49995422363281
 31
0.0
  0
LINE
  5
   296
  8
0
  6
CONTINUOUS
 62
   210
 10
-4.48534107208252
 20
3.99993896484375
 30
0.0
 11
-6.9853253364563
 21
1.49995422363281
 31
0.0
  0
LINE
  5
   297
  8
0
  6
CONTINUOUS
 62
   210
 10
-0.242700576782227
 20
3.99993896484375
 30
0.0
 11
-2.74268484115601
 21
1.49995422363281
 31
0.0
  0
LINE
  5
   298
  8
0
  6
CONTINUOUS
 62
   210
 10
3.99993991851807
 20
3.99993896484375
 30
0.0
 11
1.49995565414429
 21
1.49995422363281
 31
0.0
  0
LINE
  5
   299
  8
0
  6
CONTINUOUS
 62
   210
 10
4.23709487915039
 20
2.11577415466309
 30
0.0
 11
3.62127470970154
 21
1.49995422363281
 31
0.0
  0
ENDBLK
  5
   29A
  8
0
  6
CONTINUOUS
 62
    98
  0
BLOCK
  5
   29B
  8
0
  6
CONTINUOUS
 62
   218
  2
*HATCH115
 70
    65
 10
0.0
 20
0.0
 30
0.0
  3
*HATCH115
  0
LINE
  5
   29C
  8
0
  6
CONTINUOUS
 62
     3
 10
-17.0614395141602
 20
116.581741333008
 30
0.0
 11
-19.9502468109131
 21
113.692932128906
 31
0.0
  0
LINE
  5
   29D
  8
0
  6
CONTINUOUS
 62
     3
 10
-15.06764793396
 20
116.454208374023
 30
0.0
 11
-18.5889472961426
 21
112.932914733887
 31
0.0
  0
LINE
  5
   29E
  8
0
  6
CONTINUOUS
 62
     3
 10
-13.4720983505249
 20
115.928436279297
 30
0.0
 11
-16.7580299377441
 21
112.642509460449
 31
0.0
  0
LINE
  5
   29F
  8
0
  6
CONTINUOUS
 62
     3
 10
-12.5162143707275
 20
114.763000488281
 30
0.0
 11
-14.3529853820801
 21
112.926231384277
 31
0.0
  0
ENDBLK
  5
   2A0
  8
0
  6
CONTINUOUS
 62
   218
  0
BLOCK
  5
   2A1
  8
0
  6
CONTINUOUS
 62
     7
  2
*HATCH116
 70
    65
 10
0.0
 20
0.0
 30
0.0
  3
*HATCH116
  0
LINE
  5
   2A2
  8
0
  6
CONTINUOUS
 62
     3
 10
185.858123779297
 20
-4.00005149841309
 30
0.0
 11
184.480621337891
 21
-5.37755584716797
 31
0.0
  0
LINE
  5
   2A3
  8
0
  6
CONTINUOUS
 62
     3
 10
187.979446411133
 20
-4.00005149841309
 30
0.0
 11
185.979446411133
 21
-6.00005149841309
 31
0.0
  0
LINE
  5
   2A4
  8
0
  6
CONTINUOUS
 62
     3
 10
190.10075378418
 20
-4.00005149841309
 30
0.0
 11
188.10075378418
 21
-6.00005149841309
 31
0.0
  0
LINE
  5
   2A5
  8
0
  6
CONTINUOUS
 62
     3
 10
192.222061157227
 20
-4.00005149841309
 30
0.0
 11
190.222061157227
 21
-6.00005149841309
 31
0.0
  0
LINE
  5
   2A6
  8
0
  6
CONTINUOUS
 62
     3
 10
194.343368530273
 20
-4.00005149841309
 30
0.0
 11
192.343368530273
 21
-6.00005149841309
 31
0.0
  0
LINE
  5
   2A7
  8
0
  6
CONTINUOUS
 62
     3
 10
196.46467590332
 20
-4.00005149841309
 30
0.0
 11
194.46467590332
 21
-6.00005149841309
 31
0.0
  0
LINE
  5
   2A8
  8
0
  6
CONTINUOUS
 62
     3
 10
198.585983276367
 20
-4.00005149841309
 30
0.0
 11
196.585983276367
 21
-6.00005149841309
 31
0.0
  0
LINE
  5
   2A9
  8
0
  6
CONTINUOUS
 62
     3
 10
200.707290649414
 20
-4.00005149841309
 30
0.0
 11
198.707290649414
 21
-6.00005149841309
 31
0.0
  0
LINE
  5
   2AA
  8
0
  6
CONTINUOUS
 62
     3
 10
202.828598022461
 20
-4.00005149841309
 30
0.0
 11
200.828598022461
 21
-6.00005149841309
 31
0.0
  0
LINE
  5
   2AB
  8
0
  6
CONTINUOUS
 62
     3
 10
204.949905395508
 20
-4.00005149841309
 30
0.0
 11
202.949905395508
 21
-6.00005149841309
 31
0.0
  0
LINE
  5
   2AC
  8
0
  6
CONTINUOUS
 62
     3
 10
207.071212768555
 20
-4.00005149841309
 30
0.0
 11
205.071212768555
 21
-6.00005149841309
 31
0.0
  0
LINE
  5
   2AD
  8
0
  6
CONTINUOUS
 62
     3
 10
209.192520141602
 20
-4.00005149841309
 30
0.0
 11
207.192520141602
 21
-6.00005149841309
 31
0.0
  0
LINE
  5
   2AE
  8
0
  6
CONTINUOUS
 62
     3
 10
211.313827514648
 20
-4.00005149841309
 30
0.0
 11
209.313827514648
 21
-6.00005149841309
 31
0.0
  0
LINE
  5
   2AF
  8
0
  6
CONTINUOUS
 62
     3
 10
213.435134887695
 20
-4.00005149841309
 30
0.0
 11
211.435134887695
 21
-6.00005149841309
 31
0.0
  0
LINE
  5
   2B0
  8
0
  6
CONTINUOUS
 62
     3
 10
215.556442260742
 20
-4.00005149841309
 30
0.0
 11
213.556442260742
 21
-6.00005149841309
 31
0.0
  0
LINE
  5
   2B1
  8
0
  6
CONTINUOUS
 62
     3
 10
217.677749633789
 20
-4.00005149841309
 30
0.0
 11
215.677749633789
 21
-6.00005149841309
 31
0.0
  0
LINE
  5
   2B2
  8
0
  6
CONTINUOUS
 62
     3
 10
219.799057006836
 20
-4.00005149841309
 30
0.0
 11
217.799057006836
 21
-6.00005149841309
 31
0.0
  0
LINE
  5
   2B3
  8
0
  6
CONTINUOUS
 62
     3
 10
221.920364379883
 20
-4.00005149841309
 30
0.0
 11
219.920364379883
 21
-6.00005149841309
 31
0.0
  0
LINE
  5
   2B4
  8
0
  6
CONTINUOUS
 62
     3
 10
224.04167175293
 20
-4.00005149841309
 30
0.0
 11
222.04167175293
 21
-6.00005149841309
 31
0.0
  0
LINE
  5
   2B5
  8
0
  6
CONTINUOUS
 62
     3
 10
226.162979125977
 20
-4.00005149841309
 30
0.0
 11
224.162979125977
 21
-6.00005149841309
 31
0.0
  0
LINE
  5
   2B6
  8
0
  6
CONTINUOUS
 62
     3
 10
228.284286499023
 20
-4.00005149841309
 30
0.0
 11
226.284286499023
 21
-6.00005149841309
 31
0.0
  0
LINE
  5
   2B7
  8
0
  6
CONTINUOUS
 62
     3
 10
230.40559387207
 20
-4.00005149841309
 30
0.0
 11
228.40559387207
 21
-6.00005149841309
 31
0.0
  0
LINE
  5
   2B8
  8
0
  6
CONTINUOUS
 62
     3
 10
232.526901245117
 20
-4.00005149841309
 30
0.0
 11
230.526901245117
 21
-6.00005149841309
 31
0.0
  0
LINE
  5
   2B9
  8
0
  6
CONTINUOUS
 62
     3
 10
234.648208618164
 20
-4.00005149841309
 30
0.0
 11
232.648208618164
 21
-6.00005149841309
 31
0.0
  0
LINE
  5
   2BA
  8
0
  6
CONTINUOUS
 62
     3
 10
236.769515991211
 20
-4.00005149841309
 30
0.0
 11
234.769515991211
 21
-6.00005149841309
 31
0.0
  0
LINE
  5
   2BB
  8
0
  6
CONTINUOUS
 62
     3
 10
238.890823364258
 20
-4.00005149841309
 30
0.0
 11
236.890823364258
 21
-6.00005149841309
 31
0.0
  0
LINE
  5
   2BC
  8
0
  6
CONTINUOUS
 62
     3
 10
241.012130737305
 20
-4.00005149841309
 30
0.0
 11
239.012130737305
 21
-6.00005149841309
 31
0.0
  0
LINE
  5
   2BD
  8
0
  6
CONTINUOUS
 62
     3
 10
243.133438110352
 20
-4.00005149841309
 30
0.0
 11
241.133438110352
 21
-6.00005149841309
 31
0.0
  0
LINE
  5
   2BE
  8
0
  6
CONTINUOUS
 62
     3
 10
245.254745483398
 20
-4.00005149841309
 30
0.0
 11
243.254745483398
 21
-6.00005149841309
 31
0.0
  0
LINE
  5
   2BF
  8
0
  6
CONTINUOUS
 62
     3
 10
247.376052856445
 20
-4.00005149841309
 30
0.0
 11
245.376052856445
 21
-6.00005149841309
 31
0.0
  0
LINE
  5
   2C0
  8
0
  6
CONTINUOUS
 62
     3
 10
249.497360229492
 20
-4.00005149841309
 30
0.0
 11
247.497360229492
 21
-6.00005149841309
 31
0.0
  0
LINE
  5
   2C1
  8
0
  6
CONTINUOUS
 62
     3
 10
251.618667602539
 20
-4.00005149841309
 30
0.0
 11
249.618667602539
 21
-6.00005149841309
 31
0.0
  0
LINE
  5
   2C2
  8
0
  6
CONTINUOUS
 62
     3
 10
253.739974975586
 20
-4.00005149841309
 30
0.0
 11
251.739974975586
 21
-6.00005149841309
 31
0.0
  0
LINE
  5
   2C3
  8
0
  6
CONTINUOUS
 62
     3
 10
255.861282348633
 20
-4.00005149841309
 30
0.0
 11
253.861282348633
 21
-6.00005149841309
 31
0.0
  0
LINE
  5
   2C4
  8
0
  6
CONTINUOUS
 62
     3
 10
257.982604980469
 20
-4.00005149841309
 30
0.0
 11
255.98258972168
 21
-6.00005149841309
 31
0.0
  0
LINE
  5
   2C5
  8
0
  6
CONTINUOUS
 62
     3
 10
260.103942871094
 20
-4.00005149841309
 30
0.0
 11
258.103912353516
 21
-6.00005149841309
 31
0.0
  0
LINE
  5
   2C6
  8
0
  6
CONTINUOUS
 62
     3
 10
262.225280761719
 20
-4.00005149841309
 30
0.0
 11
260.225250244141
 21
-6.00005149841309
 31
0.0
  0
LINE
  5
   2C7
  8
0
  6
CONTINUOUS
 62
     3
 10
264.346618652344
 20
-4.00005149841309
 30
0.0
 11
262.346588134766
 21
-6.00005149841309
 31
0.0
  0
LINE
  5
   2C8
  8
0
  6
CONTINUOUS
 62
     3
 10
266.467956542969
 20
-4.00005149841309
 30
0.0
 11
264.467926025391
 21
-6.00005149841309
 31
0.0
  0
LINE
  5
   2C9
  8
0
  6
CONTINUOUS
 62
     3
 10
268.589294433594
 20
-4.00005149841309
 30
0.0
 11
266.589263916016
 21
-6.00005149841309
 31
0.0
  0
LINE
  5
   2CA
  8
0
  6
CONTINUOUS
 62
     3
 10
270.710632324219
 20
-4.00005149841309
 30
0.0
 11
268.710601806641
 21
-6.00005149841309
 31
0.0
  0
LINE
  5
   2CB
  8
0
  6
CONTINUOUS
 62
     3
 10
272.831970214844
 20
-4.00005149841309
 30
0.0
 11
270.831939697266
 21
-6.00005149841309
 31
0.0
  0
LINE
  5
   2CC
  8
0
  6
CONTINUOUS
 62
     3
 10
274.953308105469
 20
-4.00005149841309
 30
0.0
 11
272.953277587891
 21
-6.00005149841309
 31
0.0
  0
LINE
  5
   2CD
  8
0
  6
CONTINUOUS
 62
     3
 10
277.074645996094
 20
-4.00005149841309
 30
0.0
 11
275.074615478516
 21
-6.00005149841309
 31
0.0
  0
LINE
  5
   2CE
  8
0
  6
CONTINUOUS
 62
     3
 10
279.195983886719
 20
-4.00005149841309
 30
0.0
 11
277.195953369141
 21
-6.00005149841309
 31
0.0
  0
LINE
  5
   2CF
  8
0
  6
CONTINUOUS
 62
     3
 10
281.317321777344
 20
-4.00005149841309
 30
0.0
 11
279.317291259766
 21
-6.00005149841309
 31
0.0
  0
LINE
  5
   2D0
  8
0
  6
CONTINUOUS
 62
     3
 10
283.438659667969
 20
-4.00005149841309
 30
0.0
 11
281.438629150391
 21
-6.00005149841309
 31
0.0
  0
LINE
  5
   2D1
  8
0
  6
CONTINUOUS
 62
     3
 10
285.559997558594
 20
-4.00005149841309
 30
0.0
 11
283.559967041016
 21
-6.00005149841309
 31
0.0
  0
LINE
  5
   2D2
  8
0
  6
CONTINUOUS
 62
     3
 10
287.681335449219
 20
-4.00005149841309
 30
0.0
 11
285.681304931641
 21
-6.00005149841309
 31
0.0
  0
LINE
  5
   2D3
  8
0
  6
CONTINUOUS
 62
     3
 10
289.802673339844
 20
-4.00005149841309
 30
0.0
 11
287.802642822266
 21
-6.00005149841309
 31
0.0
  0
LINE
  5
   2D4
  8
0
  6
CONTINUOUS
 62
     3
 10
291.924011230469
 20
-4.00005149841309
 30
0.0
 11
289.923980712891
 21
-6.00005149841309
 31
0.0
  0
LINE
  5
   2D5
  8
0
  6
CONTINUOUS
 62
     3
 10
294.045349121094
 20
-4.00005149841309
 30
0.0
 11
292.045318603516
 21
-6.00005149841309
 31
0.0
  0
LINE
  5
   2D6
  8
0
  6
CONTINUOUS
 62
     3
 10
296.166687011719
 20
-4.00005149841309
 30
0.0
 11
294.166656494141
 21
-6.00005149841309
 31
0.0
  0
LINE
  5
   2D7
  8
0
  6
CONTINUOUS
 62
     3
 10
298.288024902344
 20
-4.00005149841309
 30
0.0
 11
296.287994384766
 21
-6.00005149841309
 31
0.0
  0
LINE
  5
   2D8
  8
0
  6
CONTINUOUS
 62
     3
 10
300.409362792969
 20
-4.00005149841309
 30
0.0
 11
298.409332275391
 21
-6.00005149841309
 31
0.0
  0
LINE
  5
   2D9
  8
0
  6
CONTINUOUS
 62
     3
 10
302.530700683594
 20
-4.00005149841309
 30
0.0
 11
300.530670166016
 21
-6.00005149841309
 31
0.0
  0
LINE
  5
   2DA
  8
0
  6
CONTINUOUS
 62
     3
 10
304.652038574219
 20
-4.00005149841309
 30
0.0
 11
302.652008056641
 21
-6.00005149841309
 31
0.0
  0
LINE
  5
   2DB
  8
0
  6
CONTINUOUS
 62
     3
 10
306.773376464844
 20
-4.00005149841309
 30
0.0
 11
304.773345947266
 21
-6.00005149841309
 31
0.0
  0
LINE
  5
   2DC
  8
0
  6
CONTINUOUS
 62
     3
 10
308.894714355469
 20
-4.00005149841309
 30
0.0
 11
306.894683837891
 21
-6.00005149841309
 31
0.0
  0
LINE
  5
   2DD
  8
0
  6
CONTINUOUS
 62
     3
 10
311.016052246094
 20
-4.00005149841309
 30
0.0
 11
309.016021728516
 21
-6.00005149841309
 31
0.0
  0
LINE
  5
   2DE
  8
0
  6
CONTINUOUS
 62
     3
 10
313.137390136719
 20
-4.00005149841309
 30
0.0
 11
311.137359619141
 21
-6.00005149841309
 31
0.0
  0
LINE
  5
   2DF
  8
0
  6
CONTINUOUS
 62
     3
 10
315.258728027344
 20
-4.00005149841309
 30
0.0
 11
313.258697509766
 21
-6.00005149841309
 31
0.0
  0
LINE
  5
   2E0
  8
0
  6
CONTINUOUS
 62
     3
 10
317.380065917969
 20
-4.00005149841309
 30
0.0
 11
315.380035400391
 21
-6.00005149841309
 31
0.0
  0
LINE
  5
   2E1
  8
0
  6
CONTINUOUS
 62
     3
 10
319.501403808594
 20
-4.00005149841309
 30
0.0
 11
317.501373291016
 21
-6.00005149841309
 31
0.0
  0
LINE
  5
   2E2
  8
0
  6
CONTINUOUS
 62
     3
 10
321.622741699219
 20
-4.00005149841309
 30
0.0
 11
319.622711181641
 21
-6.00005149841309
 31
0.0
  0
LINE
  5
   2E3
  8
0
  6
CONTINUOUS
 62
     3
 10
323.744079589844
 20
-4.00005149841309
 30
0.0
 11
321.744049072266
 21
-6.00005149841309
 31
0.0
  0
LINE
  5
   2E4
  8
0
  6
CONTINUOUS
 62
     3
 10
325.865417480469
 20
-4.00005149841309
 30
0.0
 11
323.865386962891
 21
-6.00005149841309
 31
0.0
  0
LINE
  5
   2E5
  8
0
  6
CONTINUOUS
 62
     3
 10
327.986755371094
 20
-4.00005149841309
 30
0.0
 11
325.986724853516
 21
-6.00005149841309
 31
0.0
  0
LINE
  5
   2E6
  8
0
  6
CONTINUOUS
 62
     3
 10
330.108093261719
 20
-4.00005149841309
 30
0.0
 11
328.108062744141
 21
-6.00005149841309
 31
0.0
  0
LINE
  5
   2E7
  8
0
  6
CONTINUOUS
 62
     3
 10
332.229431152344
 20
-4.00005149841309
 30
0.0
 11
330.229400634766
 21
-6.00005149841309
 31
0.0
  0
LINE
  5
   2E8
  8
0
  6
CONTINUOUS
 62
     3
 10
333.858581542969
 20
-4.49203109741211
 30
0.0
 11
332.350555419922
 21
-6.00005149841309
 31
0.0
  0
LINE
  5
   2E9
  8
0
  6
CONTINUOUS
 62
     3
 10
334.601745605469
 20
-5.87021350860596
 30
0.0
 11
334.471893310547
 21
-6.00005149841309
 31
0.0
  0
ENDBLK
  5
   2EA
  8
0
  6
CONTINUOUS
 62
     7
  0
BLOCK
  5
   2EB
  8
0
  6
CONTINUOUS
 62
     7
  2
*HATCH117
 70
    65
 10
0.0
 20
0.0
 30
0.0
  3
*HATCH117
  0
LINE
  5
   2EC
  8
0
  6
CONTINUOUS
 62
   210
 10
294.891357421875
 20
80.5821990966797
 30
0.0
 11
297.473602294922
 21
77.9999618530274
 31
0.0
  0
LINE
  5
   2ED
  8
0
  6
CONTINUOUS
 62
   210
 10
296.716247558594
 20
82.9999618530274
 30
0.0
 11
301.716247558594
 21
77.9999618530274
 31
0.0
  0
LINE
  5
   2EE
  8
0
  6
CONTINUOUS
 62
   210
 10
300.958862304688
 20
82.9999618530274
 30
0.0
 11
302.737091064453
 21
81.2217483520508
 31
0.0
  0
ENDBLK
  5
   2EF
  8
0
  6
CONTINUOUS
 62
     7
  0
BLOCK
  5
   2F0
  8
0
  6
CONTINUOUS
 62
     7
  2
*HATCH118
 70
    65
 10
0.0
 20
0.0
 30
0.0
  3
*HATCH118
  0
LINE
  5
   2F1
  8
0
  6
CONTINUOUS
 62
     3
 10
294.891357421875
 20
42.7519607543945
 30
0.0
 11
295.737091064453
 21
41.9062347412109
 31
0.0
  0
LINE
  5
   2F2
  8
0
  6
CONTINUOUS
 62
     3
 10
294.891357421875
 20
44.8732833862305
 30
0.0
 11
295.737091064453
 21
44.0275573730469
 31
0.0
  0
LINE
  5
   2F3
  8
0
  6
CONTINUOUS
 62
     3
 10
294.891357421875
 20
46.9946060180664
 30
0.0
 11
295.737091064453
 21
46.1488800048828
 31
0.0
  0
LINE
  5
   2F4
  8
0
  6
CONTINUOUS
 62
     3
 10
294.891357421875
 20
49.1159286499023
 30
0.0
 11
295.737091064453
 21
48.2702026367188
 31
0.0
  0
LINE
  5
   2F5
  8
0
  6
CONTINUOUS
 62
     3
 10
294.891357421875
 20
51.2372512817383
 30
0.0
 11
295.737091064453
 21
50.3915252685547
 31
0.0
  0
LINE
  5
   2F6
  8
0
  6
CONTINUOUS
 62
     3
 10
294.891357421875
 20
53.3585739135742
 30
0.0
 11
295.737091064453
 21
52.5128479003906
 31
0.0
  0
LINE
  5
   2F7
  8
0
  6
CONTINUOUS
 62
     3
 10
294.891357421875
 20
55.4798965454102
 30
0.0
 11
295.737091064453
 21
54.6341705322266
 31
0.0
  0
LINE
  5
   2F8
  8
0
  6
CONTINUOUS
 62
     3
 10
294.891357421875
 20
57.6012191772461
 30
0.0
 11
295.737091064453
 21
56.7554931640625
 31
0.0
  0
LINE
  5
   2F9
  8
0
  6
CONTINUOUS
 62
     3
 10
294.891357421875
 20
59.722541809082
 30
0.0
 11
295.737091064453
 21
58.8768157958984
 31
0.0
  0
LINE
  5
   2FA
  8
0
  6
CONTINUOUS
 62
     3
 10
294.891357421875
 20
61.843864440918
 30
0.0
 11
295.737091064453
 21
60.9981384277344
 31
0.0
  0
LINE
  5
   2FB
  8
0
  6
CONTINUOUS
 62
     3
 10
294.891357421875
 20
63.9651870727539
 30
0.0
 11
295.737091064453
 21
63.1194610595703
 31
0.0
  0
LINE
  5
   2FC
  8
0
  6
CONTINUOUS
 62
     3
 10
294.891357421875
 20
66.0865097045899
 30
0.0
 11
295.737091064453
 21
65.2407836914063
 31
0.0
  0
LINE
  5
   2FD
  8
0
  6
CONTINUOUS
 62
     3
 10
294.891357421875
 20
68.2078323364258
 30
0.0
 11
295.737091064453
 21
67.3621063232422
 31
0.0
  0
LINE
  5
   2FE
  8
0
  6
CONTINUOUS
 62
     3
 10
294.891357421875
 20
70.3291549682617
 30
0.0
 11
295.737091064453
 21
69.4834289550781
 31
0.0
  0
LINE
  5
   2FF
  8
0
  6
CONTINUOUS
 62
     3
 10
294.891357421875
 20
72.4504776000977
 30
0.0
 11
295.737091064453
 21
71.6047515869141
 31
0.0
  0
LINE
  5
   300
  8
0
  6
CONTINUOUS
 62
     3
 10
294.891357421875
 20
74.5718002319336
 30
0.0
 11
295.737091064453
 21
73.72607421875
 31
0.0
  0
LINE
  5
   301
  8
0
  6
CONTINUOUS
 62
     3
 10
294.891357421875
 20
76.6931228637695
 30
0.0
 11
295.737091064453
 21
75.8473968505859
 31
0.0
  0
LINE
  5
   302
  8
0
  6
CONTINUOUS
 62
     3
 10
295.705841064453
 20
77.9999618530274
 30
0.0
 11
295.737091064453
 21
77.9687042236328
 31
0.0
  0
ENDBLK
  5
   303
  8
0
  6
CONTINUOUS
 62
     7
  0
BLOCK
  5
   304
  8
0
  6
CONTINUOUS
 62
     7
  2
*UDIM417
 70
    65
 10
0.0
 20
0.0
 30
0.0
  3
*UDIM417
  0
TEXT
  5
   305
  8
0
  6
CONTINUOUS
 62
     7
 10
262.286940354695
 20
82.2675440028397
 30
0.0
 40
2.99999997871263
  1
105
 50
89.9999999480344
 41
0.933333333333333
 72
     1
 11
260.786940368871
 21
86.1675439765247
 31
0.0
 73
     2
  0
LINE
  5
   306
  8
0
  6
CONTINUOUS
 62
     7
 10
241.778817439079
 20
68.0675477835585
 30
0.0
 11
265.286940358228
 21
68.0675477835585
 31
0.0
  0
LINE
  5
   307
  8
0
  6
CONTINUOUS
 62
     7
 10
241.778817439079
 20
104.817536476558
 30
0.0
 11
265.286940358228
 21
104.817536476558
 31
0.0
  0
LINE
  5
   308
  8
0
  6
CONTINUOUS
 62
     7
 10
263.286940358228
 20
68.0675477835585
 30
0.0
 11
263.286940358228
 21
104.817536476558
 31
0.0
  0
LINE
  5
   309
  8
0
  6
CONTINUOUS
 62
     7
 10
262.765995928276
 20
71.0219710607654
 30
0.0
 11
263.286940358228
 21
68.0675477835585
 31
0.0
  0
LINE
  5
   30A
  8
0
  6
CONTINUOUS
 62
     7
 10
263.286940358228
 20
68.0675477835585
 30
0.0
 11
263.807884788179
 21
71.0219710607654
 31
0.0
  0
LINE
  5
   30B
  8
0
  6
CONTINUOUS
 62
     7
 10
263.807884788179
 20
101.863113199351
 30
0.0
 11
263.286940358228
 21
104.817536476558
 31
0.0
  0
LINE
  5
   30C
  8
0
  6
CONTINUOUS
 62
     7
 10
263.286940358228
 20
104.817536476558
 30
0.0
 11
262.765995928276
 21
101.863113199351
 31
0.0
  0
ENDBLK
  5
   30D
  8
0
  6
CONTINUOUS
 62
     7
  0
BLOCK
  5
   30E
  8
0
  6
CONTINUOUS
 62
     7
  2
*UDIM418
 70
    65
 10
0.0
 20
0.0
 30
0.0
  3
*UDIM418
  0
TEXT
  5
   30F
  8
0
  6
CONTINUOUS
 62
     7
 10
222.78653327377
 20
3.09737550967486
 30
0.0
 40
2.99999997871263
  1
135
 50
359.999999948034
 41
0.933333333333333
 72
     1
 11
226.68653324745
 21
4.59737549551359
 31
0.0
 73
     2
  0
LINE
  5
   310
  8
0
  6
CONTINUOUS
 62
     7
 10
250.594244182715
 20
81.8550475317288
 30
0.0
 11
250.594244182715
 21
9.73755061572845E-2
 31
0.0
  0
LINE
  5
   311
  8
0
  6
CONTINUOUS
 62
     7
 10
203.328821414709
 20
19.8319847448698
 30
0.0
 11
203.328821414709
 21
9.73755061572845E-2
 31
0.0
  0
LINE
  5
   312
  8
0
  6
CONTINUOUS
 62
     7
 10
250.594244182715
 20
2.09737550615728
 30
0.0
 11
203.328821414709
 21
2.09737550615728
 31
0.0
  0
LINE
  5
   313
  8
0
  6
CONTINUOUS
 62
     7
 10
247.639820905508
 20
1.57643107620561
 30
0.0
 11
250.594244182715
 21
2.09737550615728
 31
0.0
  0
LINE
  5
   314
  8
0
  6
CONTINUOUS
 62
     7
 10
250.594244182715
 20
2.09737550615728
 30
0.0
 11
247.639820905508
 21
2.61831993610895
 31
0.0
  0
LINE
  5
   315
  8
0
  6
CONTINUOUS
 62
     7
 10
206.283244691916
 20
2.61831993610895
 30
0.0
 11
203.328821414709
 21
2.09737550615728
 31
0.0
  0
LINE
  5
   316
  8
0
  6
CONTINUOUS
 62
     7
 10
203.328821414709
 20
2.09737550615728
 30
0.0
 11
206.283244691916
 21
1.57643107620561
 31
0.0
  0
ENDBLK
  5
   317
  8
0
  6
CONTINUOUS
 62
     7
  0
BLOCK
  5
   318
  8
0
  6
CONTINUOUS
 62
     7
  2
*UDIM419
 70
    65
 10
0.0
 20
0.0
 30
0.0
  3
*UDIM419
  0
TEXT
  5
   319
  8
0
  6
CONTINUOUS
 62
     7
 10
244.4788167439
 20
9.07627059270737
 30
0.0
 40
2.99999997871263
  1
2
 50
359.999999948034
 41
0.933333333333333
 72
     1
 11
245.578816737447
 21
10.5762705810715
 31
0.0
 73
     2
  0
LINE
  5
   31A
  8
0
  6
CONTINUOUS
 62
     7
 10
241.478817427158
 20
38.2239090656771
 30
0.0
 11
241.478817427158
 21
6.07627059171523
 31
0.0
  0
LINE
  5
   31B
  8
0
  6
CONTINUOUS
 62
     7
 10
240.778817439079
 20
37.7942539005803
 30
0.0
 11
240.778817439079
 21
6.07627059171523
 31
0.0
  0
LINE
  5
   31C
  8
0
  6
CONTINUOUS
 62
     7
 10
246.678816729642
 20
8.07627059171523
 30
0.0
 11
240.778817439079
 21
8.07627059171523
 31
0.0
  0
LINE
  5
   31D
  8
0
  6
CONTINUOUS
 62
     7
 10
244.433240704365
 20
8.5972150216669
 30
0.0
 11
241.478817427158
 21
8.07627059171523
 31
0.0
  0
LINE
  5
   31E
  8
0
  6
CONTINUOUS
 62
     7
 10
241.478817427158
 20
8.07627059171523
 30
0.0
 11
244.433240704365
 21
7.55532616176356
 31
0.0
  0
LINE
  5
   31F
  8
0
  6
CONTINUOUS
 62
     7
 10
237.824394161872
 20
7.55532616176357
 30
0.0
 11
240.778817439079
 21
8.07627059171523
 31
0.0
  0
LINE
  5
   320
  8
0
  6
CONTINUOUS
 62
     7
 10
240.778817439079
 20
8.07627059171523
 30
0.0
 11
237.824394161872
 21
8.5972150216669
 31
0.0
  0
ENDBLK
  5
   321
  8
0
  6
CONTINUOUS
 62
     7
  0
BLOCK
  5
   322
  8
0
  6
CONTINUOUS
 62
     7
  2
*UDIM420
 70
    65
 10
0.0
 20
0.0
 30
0.0
  3
*UDIM420
  0
TEXT
  5
   323
  8
0
  6
CONTINUOUS
 62
     7
 10
217.87881756545
 20
9.07627059523281
 30
0.0
 40
2.99999997871263
  1
107
 50
359.999999948034
 41
0.933333333333333
 72
     1
 11
221.77881753913
 21
10.5762705810715
 31
0.0
 73
     2
  0
LINE
  5
   324
  8
0
  6
CONTINUOUS
 62
     7
 10
203.328821414709
 20
19.8319847448698
 30
0.0
 11
203.328821414709
 21
6.07627059171523
 31
0.0
  0
LINE
  5
   325
  8
0
  6
CONTINUOUS
 62
     7
 10
240.778817439079
 20
8.07627059171523
 30
0.0
 11
203.328821414709
 21
8.07627059171523
 31
0.0
  0
LINE
  5
   326
  8
0
  6
CONTINUOUS
 62
     7
 10
237.824394161872
 20
7.55532616176356
 30
0.0
 11
240.778817439079
 21
8.07627059171523
 31
0.0
  0
LINE
  5
   327
  8
0
  6
CONTINUOUS
 62
     7
 10
240.778817439079
 20
8.07627059171523
 30
0.0
 11
237.824394161872
 21
8.5972150216669
 31
0.0
  0
LINE
  5
   328
  8
0
  6
CONTINUOUS
 62
     7
 10
206.283244691916
 20
8.59721502166689
 30
0.0
 11
203.328821414709
 21
8.07627059171523
 31
0.0
  0
LINE
  5
   329
  8
0
  6
CONTINUOUS
 62
     7
 10
203.328821414709
 20
8.07627059171523
 30
0.0
 11
206.283244691916
 21
7.55532616176356
 31
0.0
  0
ENDBLK
  5
   32A
  8
0
  6
CONTINUOUS
 62
     7
  0
BLOCK
  5
   32B
  8
0
  6
CONTINUOUS
 62
     7
  2
*UDIM421
 70
    65
 10
0.0
 20
0.0
 30
0.0
  3
*UDIM421
  0
TEXT
  5
   32C
  8
0
  6
CONTINUOUS
 62
     7
 10
214.466317449718
 20
16.5498941277098
 30
0.0
 40
2.99999997871263
  1
103,5
 50
359.999999948034
 41
0.933333333333333
 72
     1
 11
221.166317403529
 21
18.0498941110231
 31
0.0
 73
     2
  0
LINE
  5
   32D
  8
0
  6
CONTINUOUS
 62
     7
 10
239.553815457225
 20
67.0675477835585
 30
0.0
 11
239.553815457225
 21
13.5498941216667
 31
0.0
  0
LINE
  5
   32E
  8
0
  6
CONTINUOUS
 62
     7
 10
203.328821414709
 20
19.8319847448698
 30
0.0
 11
203.328821414709
 21
13.5498941216667
 31
0.0
  0
LINE
  5
   32F
  8
0
  6
CONTINUOUS
 62
     7
 10
239.553815457225
 20
15.5498941216667
 30
0.0
 11
203.328821414709
 21
15.5498941216667
 31
0.0
  0
LINE
  5
   330
  8
0
  6
CONTINUOUS
 62
     7
 10
236.599392180018
 20
15.0289496917151
 30
0.0
 11
239.553815457225
 21
15.5498941216667
 31
0.0
  0
LINE
  5
   331
  8
0
  6
CONTINUOUS
 62
     7
 10
239.553815457225
 20
15.5498941216667
 30
0.0
 11
236.599392180018
 21
16.0708385516184
 31
0.0
  0
LINE
  5
   332
  8
0
  6
CONTINUOUS
 62
     7
 10
206.283244691916
 20
16.0708385516184
 30
0.0
 11
203.328821414709
 21
15.5498941216667
 31
0.0
  0
LINE
  5
   333
  8
0
  6
CONTINUOUS
 62
     7
 10
203.328821414709
 20
15.5498941216667
 30
0.0
 11
206.283244691916
 21
15.0289496917151
 31
0.0
  0
ENDBLK
  5
   334
  8
0
  6
CONTINUOUS
 62
     7
  0
BLOCK
  5
   335
  8
0
  6
CONTINUOUS
 62
     7
  2
*UDIM422
 70
    65
 10
0.0
 20
0.0
 30
0.0
  3
*UDIM422
  0
TEXT
  5
   336
  8
0
  6
CONTINUOUS
 62
     7
 10
196.528823568631
 20
16.5498941226589
 30
0.0
 40
2.99999997871263
  1
3
 50
359.999999948034
 41
0.933333333333333
 72
     1
 11
197.628823562179
 21
18.0498941110231
 31
0.0
 73
     2
  0
TEXT
  5
   337
  8
0
  6
CONTINUOUS
 62
     7
 10
193.778823572321
 20
16.5498941226589
 30
0.0
 40
2.99999997871263
  1
_
 50
359.999999948034
 41
0.933333333333333
 72
     1
 11
194.878823565869
 21
18.0498941110231
 31
0.0
 73
     2
  0
LINE
  5
   338
  8
0
  6
CONTINUOUS
 62
     7
 10
202.27882143259
 20
19.4868652288348
 30
0.0
 11
202.27882143259
 21
13.5498941216667
 31
0.0
  0
LINE
  5
   339
  8
0
  6
CONTINUOUS
 62
     7
 10
203.328821414709
 20
15.5498941216667
 30
0.0
 11
193.778823573674
 21
15.5498941216667
 31
0.0
  0
LINE
  5
   33A
  8
0
  6
CONTINUOUS
 62
     7
 10
206.283244691916
 20
16.0708385516184
 30
0.0
 11
203.328821414709
 21
15.5498941216667
 31
0.0
  0
LINE
  5
   33B
  8
0
  6
CONTINUOUS
 62
     7
 10
203.328821414709
 20
15.5498941216667
 30
0.0
 11
206.283244691916
 21
15.0289496917151
 31
0.0
  0
LINE
  5
   33C
  8
0
  6
CONTINUOUS
 62
     7
 10
199.324398155383
 20
15.0289496917151
 30
0.0
 11
202.27882143259
 21
15.5498941216667
 31
0.0
  0
LINE
  5
   33D
  8
0
  6
CONTINUOUS
 62
     7
 10
202.27882143259
 20
15.5498941216667
 30
0.0
 11
199.324398155383
 21
16.0708385516184
 31
0.0
  0
ENDBLK
  5
   33E
  8
0
  6
CONTINUOUS
 62
     7
  0
BLOCK
  5
   33F
  8
0
  6
CONTINUOUS
 62
     7
  2
*UDIM423
 70
    65
 10
0.0
 20
0.0
 30
0.0
  3
*UDIM423
  0
TEXT
  5
   340
  8
0
  6
CONTINUOUS
 62
     7
 10
250.833191085077
 20
39.1550079856427
 30
0.0
 40
2.99999997871263
  1
11
 50
89.9999999480344
 41
0.933333333333333
 72
     1
 11
249.333191097985
 21
41.6550079692618
 31
0.0
 73
     2
  0
LINE
  5
   341
  8
0
  6
CONTINUOUS
 62
     7
 10
218.575192344641
 20
47.6800075805543
 30
0.0
 11
253.833191087341
 21
47.6800075805543
 31
0.0
  0
LINE
  5
   342
  8
0
  6
CONTINUOUS
 62
     7
 10
218.819789149019
 20
51.5300075149892
 30
0.0
 11
253.833191087341
 21
51.5300075149892
 31
0.0
  0
LINE
  5
   343
  8
0
  6
CONTINUOUS
 62
     7
 10
251.833191087341
 20
39.1550079870012
 30
0.0
 11
251.833191087341
 21
51.5300075149892
 31
0.0
  0
LINE
  5
   344
  8
0
  6
CONTINUOUS
 62
     7
 10
252.354135517293
 20
44.7255843033474
 30
0.0
 11
251.833191087341
 21
47.6800075805543
 31
0.0
  0
LINE
  5
   345
  8
0
  6
CONTINUOUS
 62
     7
 10
251.833191087341
 20
47.6800075805543
 30
0.0
 11
251.31224665739
 21
44.7255843033474
 31
0.0
  0
LINE
  5
   346
  8
0
  6
CONTINUOUS
 62
     7
 10
251.31224665739
 20
54.4844307921962
 30
0.0
 11
251.833191087341
 21
51.5300075149892
 31
0.0
  0
LINE
  5
   347
  8
0
  6
CONTINUOUS
 62
     7
 10
251.833191087341
 20
51.5300075149892
 30
0.0
 11
252.354135517293
 21
54.4844307921962
 31
0.0
  0
ENDBLK
  5
   348
  8
0
  6
CONTINUOUS
 62
     7
  0
BLOCK
  5
   349
  8
0
  6
CONTINUOUS
 62
     7
  2
*UDIM424
 70
    65
 10
0.0
 20
0.0
 30
0.0
  3
*UDIM424
  0
TEXT
  5
   34A
  8
0
  6
CONTINUOUS
 62
     7
 10
214.116320125957
 20
183.741480254453
 30
0.0
 40
2.99999997871263
  1
101,5
 50
359.999999948034
 41
0.933333333333333
 72
     1
 11
220.816320079769
 21
185.241480237766
 31
0.0
 73
     2
  0
LINE
  5
   34B
  8
0
  6
CONTINUOUS
 62
     7
 10
238.853820809704
 20
152.45502364559
 30
0.0
 11
238.853820809704
 21
184.74148024841
 31
0.0
  0
LINE
  5
   34C
  8
0
  6
CONTINUOUS
 62
     7
 10
203.328821414709
 20
167.019297077439
 30
0.0
 11
203.328821414709
 21
184.74148024841
 31
0.0
  0
LINE
  5
   34D
  8
0
  6
CONTINUOUS
 62
     7
 10
238.853820809704
 20
182.74148024841
 30
0.0
 11
203.328821414709
 21
182.74148024841
 31
0.0
  0
LINE
  5
   34E
  8
0
  6
CONTINUOUS
 62
     7
 10
235.899397532497
 20
182.220535818458
 30
0.0
 11
238.853820809704
 21
182.74148024841
 31
0.0
  0
LINE
  5
   34F
  8
0
  6
CONTINUOUS
 62
     7
 10
238.853820809704
 20
182.74148024841
 30
0.0
 11
235.899397532497
 21
183.262424678362
 31
0.0
  0
LINE
  5
   350
  8
0
  6
CONTINUOUS
 62
     7
 10
206.283244691916
 20
183.262424678362
 30
0.0
 11
203.328821414709
 21
182.74148024841
 31
0.0
  0
LINE
  5
   351
  8
0
  6
CONTINUOUS
 62
     7
 10
203.328821414709
 20
182.74148024841
 30
0.0
 11
206.283244691916
 21
182.220535818458
 31
0.0
  0
ENDBLK
  5
   352
  8
0
  6
CONTINUOUS
 62
     7
  0
BLOCK
  5
   353
  8
0
  6
CONTINUOUS
 62
     7
  2
*UDIM425
 70
    65
 10
0.0
 20
0.0
 30
0.0
  3
*UDIM425
  0
TEXT
  5
   354
  8
0
  6
CONTINUOUS
 62
     7
 10
222.475464235191
 20
174.523998416797
 30
0.0
 40
2.99999997871263
  1
18x18
 50
359.999999948034
 41
0.933333333333333
 72
     1
 11
229.175464189002
 21
176.02399840011
 31
0.0
 73
     2
  0
LINE
  5
   355
  8
0
  6
CONTINUOUS
 62
     7
 10
216.418813023801
 20
161.380041473627
 30
0.0
 11
216.418813023801
 21
175.523998410754
 31
0.0
  0
LINE
  5
   356
  8
0
  6
CONTINUOUS
 62
     7
 10
212.07881309771
 20
161.380041473627
 30
0.0
 11
212.07881309771
 21
175.523998410754
 31
0.0
  0
LINE
  5
   357
  8
0
  6
CONTINUOUS
 62
     7
 10
235.875464141461
 20
173.523998410754
 30
0.0
 11
212.07881309771
 21
173.523998410754
 31
0.0
  0
LINE
  5
   358
  8
0
  6
CONTINUOUS
 62
     7
 10
219.373236301008
 20
174.044942840706
 30
0.0
 11
216.418813023801
 21
173.523998410754
 31
0.0
  0
LINE
  5
   359
  8
0
  6
CONTINUOUS
 62
     7
 10
216.418813023801
 20
173.523998410754
 30
0.0
 11
219.373236301008
 21
173.003053980802
 31
0.0
  0
LINE
  5
   35A
  8
0
  6
CONTINUOUS
 62
     7
 10
209.124389820503
 20
173.003053980802
 30
0.0
 11
212.07881309771
 21
173.523998410754
 31
0.0
  0
LINE
  5
   35B
  8
0
  6
CONTINUOUS
 62
     7
 10
212.07881309771
 20
173.523998410754
 30
0.0
 11
209.124389820503
 21
174.044942840706
 31
0.0
  0
ENDBLK
  5
   35C
  8
0
  6
CONTINUOUS
 62
     7
  0
BLOCK
  5
   35D
  8
0
  6
CONTINUOUS
 62
     7
  2
*UDIM426
 70
    65
 10
0.0
 20
0.0
 30
0.0
  3
*UDIM426
  0
TEXT
  5
   35E
  8
0
  6
CONTINUOUS
 62
     7
 10
194.803821741241
 20
174.523998413009
 30
0.0
 40
2.99999997871263
  1
25
 50
359.999999948034
 41
0.933333333333333
 72
     1
 11
197.303821724855
 21
176.02399840011
 31
0.0
 73
     2
  0
LINE
  5
   35F
  8
0
  6
CONTINUOUS
 62
     7
 10
203.328821414709
 20
167.019297077439
 30
0.0
 11
203.328821414709
 21
175.523998410754
 31
0.0
  0
LINE
  5
   360
  8
0
  6
CONTINUOUS
 62
     7
 10
212.07881309771
 20
173.523998410754
 30
0.0
 11
194.803821742594
 21
173.523998410754
 31
0.0
  0
LINE
  5
   361
  8
0
  6
CONTINUOUS
 62
     7
 10
209.124389820503
 20
173.003053980802
 30
0.0
 11
212.07881309771
 21
173.523998410754
 31
0.0
  0
LINE
  5
   362
  8
0
  6
CONTINUOUS
 62
     7
 10
212.07881309771
 20
173.523998410754
 30
0.0
 11
209.124389820503
 21
174.044942840706
 31
0.0
  0
LINE
  5
   363
  8
0
  6
CONTINUOUS
 62
     7
 10
206.283244691916
 20
174.044942840706
 30
0.0
 11
203.328821414709
 21
173.523998410754
 31
0.0
  0
LINE
  5
   364
  8
0
  6
CONTINUOUS
 62
     7
 10
203.328821414709
 20
173.523998410754
 30
0.0
 11
206.283244691916
 21
173.003053980802
 31
0.0
  0
ENDBLK
  5
   365
  8
0
  6
CONTINUOUS
 62
     7
  0
BLOCK
  5
   366
  8
0
  6
CONTINUOUS
 62
     7
  2
*UDIM427
 70
    65
 10
0.0
 20
0.0
 30
0.0
  3
*UDIM427
  0
TEXT
  5
   367
  8
0
  6
CONTINUOUS
 62
     7
 10
250.833191085077
 20
142.930042698279
 30
0.0
 40
2.99999997871263
  1
11
 50
89.9999999480344
 41
0.933333333333333
 72
     1
 11
249.333191097985
 21
145.430042681898
 31
0.0
 73
     2
  0
LINE
  5
   368
  8
0
  6
CONTINUOUS
 62
     7
 10
226.990534078567
 20
151.455041625619
 30
0.0
 11
253.833191087341
 21
151.455041625619
 31
0.0
  0
LINE
  5
   369
  8
0
  6
CONTINUOUS
 62
     7
 10
227.459967703763
 20
155.305041560053
 30
0.0
 11
253.833191087341
 21
155.305041560053
 31
0.0
  0
LINE
  5
   36A
  8
0
  6
CONTINUOUS
 62
     7
 10
251.833191087341
 20
142.930042699637
 30
0.0
 11
251.833191087341
 21
155.305041560053
 31
0.0
  0
LINE
  5
   36B
  8
0
  6
CONTINUOUS
 62
     7
 10
252.354135517293
 20
148.500618348412
 30
0.0
 11
251.833191087341
 21
151.455041625619
 31
0.0
  0
LINE
  5
   36C
  8
0
  6
CONTINUOUS
 62
     7
 10
251.833191087341
 20
151.455041625619
 30
0.0
 11
251.31224665739
 21
148.500618348412
 31
0.0
  0
LINE
  5
   36D
  8
0
  6
CONTINUOUS
 62
     7
 10
251.31224665739
 20
158.25946483726
 30
0.0
 11
251.833191087341
 21
155.305041560053
 31
0.0
  0
LINE
  5
   36E
  8
0
  6
CONTINUOUS
 62
     7
 10
251.833191087341
 20
155.305041560053
 30
0.0
 11
252.354135517293
 21
158.25946483726
 31
0.0
  0
ENDBLK
  5
   36F
  8
0
  6
CONTINUOUS
 62
     7
  0
BLOCK
  5
   370
  8
0
  6
CONTINUOUS
 62
     7
  2
*UDIM428
 70
    65
 10
0.0
 20
0.0
 30
0.0
  3
*UDIM428
  0
TEXT
  5
   371
  8
0
  6
CONTINUOUS
 62
     7
 10
190.340152025357
 20
58.6862721057478
 30
0.0
 40
2.99999997871263
  1
110,75
 50
89.9999999480344
 41
0.933333333333333
 72
     1
 11
188.840152043337
 21
66.7862720496304
 31
0.0
 73
     2
  0
LINE
  5
   372
  8
0
  6
CONTINUOUS
 62
     7
 10
206.728543100121
 20
47.6800075805543
 30
0.0
 11
189.340152032693
 21
47.6800075805543
 31
0.0
  0
LINE
  5
   373
  8
0
  6
CONTINUOUS
 62
     7
 10
196.81342548751
 20
86.4425367894819
 30
0.0
 11
189.340152032693
 21
86.4425367894819
 31
0.0
  0
LINE
  5
   374
  8
0
  6
CONTINUOUS
 62
     7
 10
191.340152032693
 20
47.6800075805543
 30
0.0
 11
191.340152032693
 21
86.4425367894819
 31
0.0
  0
LINE
  5
   375
  8
0
  6
CONTINUOUS
 62
     7
 10
190.819207602741
 20
50.6344308577613
 30
0.0
 11
191.340152032693
 21
47.6800075805543
 31
0.0
  0
LINE
  5
   376
  8
0
  6
CONTINUOUS
 62
     7
 10
191.340152032693
 20
47.6800075805543
 30
0.0
 11
191.861096462645
 21
50.6344308577613
 31
0.0
  0
LINE
  5
   377
  8
0
  6
CONTINUOUS
 62
     7
 10
191.861096462645
 20
83.4881135122749
 30
0.0
 11
191.340152032693
 21
86.4425367894819
 31
0.0
  0
LINE
  5
   378
  8
0
  6
CONTINUOUS
 62
     7
 10
191.340152032693
 20
86.4425367894819
 30
0.0
 11
190.819207602741
 21
83.4881135122749
 31
0.0
  0
ENDBLK
  5
   379
  8
0
  6
CONTINUOUS
 62
     7
  0
BLOCK
  5
   37A
  8
0
  6
CONTINUOUS
 62
     7
  2
*UDIM429
 70
    65
 10
0.0
 20
0.0
 30
0.0
  3
*UDIM429
  0
TEXT
  5
   37B
  8
0
  6
CONTINUOUS
 62
     7
 10
182.248934654771
 20
30.7800080459569
 30
0.0
 40
2.99999997871263
  1
16
 50
89.9999999480344
 41
0.933333333333333
 72
     1
 11
180.748934667679
 21
33.280008029576
 31
0.0
 73
     2
  0
TEXT
  5
   37C
  8
0
  6
CONTINUOUS
 62
     7
 10
182.248934656039
 20
27.6300080734886
 30
0.0
 40
2.99999997871263
  1
Ø
 50
89.9999999480344
 41
0.933333333333333
 72
     1
 11
180.748934667679
 21
28.7300080670418
 31
0.0
 73
     2
  0
LINE
  5
   37D
  8
0
  6
CONTINUOUS
 62
     7
 10
209.328812459941
 20
37.355007756388
 30
0.0
 11
181.248934657035
 21
37.355007756388
 31
0.0
  0
LINE
  5
   37E
  8
0
  6
CONTINUOUS
 62
     7
 10
208.278812477822
 20
42.9550076610206
 30
0.0
 11
181.248934657035
 21
42.9550076610206
 31
0.0
  0
LINE
  5
   37F
  8
0
  6
CONTINUOUS
 62
     7
 10
183.248934657035
 20
27.6300080748471
 30
0.0
 11
183.248934657035
 21
42.9550076610206
 31
0.0
  0
LINE
  5
   380
  8
0
  6
CONTINUOUS
 62
     7
 10
183.769879086987
 20
34.4005844791811
 30
0.0
 11
183.248934657035
 21
37.355007756388
 31
0.0
  0
LINE
  5
   381
  8
0
  6
CONTINUOUS
 62
     7
 10
183.248934657035
 20
37.355007756388
 30
0.0
 11
182.727990227084
 21
34.4005844791811
 31
0.0
  0
LINE
  5
   382
  8
0
  6
CONTINUOUS
 62
     7
 10
182.727990227084
 20
45.9094309382276
 30
0.0
 11
183.248934657035
 21
42.9550076610206
 31
0.0
  0
LINE
  5
   383
  8
0
  6
CONTINUOUS
 62
     7
 10
183.248934657035
 20
42.9550076610206
 30
0.0
 11
183.769879086987
 21
45.9094309382276
 31
0.0
  0
ENDBLK
  5
   384
  8
0
  6
CONTINUOUS
 62
     7
  0
BLOCK
  5
   385
  8
0
  6
CONTINUOUS
 62
     7
  2
*UDIM430
 70
    65
 10
0.0
 20
0.0
 30
0.0
  3
*UDIM430
  0
TEXT
  5
   386
  8
0
  6
CONTINUOUS
 62
     7
 10
172.189803673661
 20
28.8800072745025
 30
0.0
 40
2.99999997871263
  1
13,5
 50
89.9999999480344
 41
0.933333333333333
 72
     1
 11
170.689803689105
 21
34.1800072382534
 31
0.0
 73
     2
  0
LINE
  5
   387
  8
0
  6
CONTINUOUS
 62
     7
 10
208.278812477822
 20
42.9550076610206
 30
0.0
 11
171.189803678461
 21
42.9550076610206
 31
0.0
  0
LINE
  5
   388
  8
0
  6
CONTINUOUS
 62
     7
 10
206.728543100121
 20
47.6800075805543
 30
0.0
 11
171.189803678461
 21
47.6800075805543
 31
0.0
  0
LINE
  5
   389
  8
0
  6
CONTINUOUS
 62
     7
 10
173.189803678461
 20
28.8800072758611
 30
0.0
 11
173.189803678461
 21
47.6800075805543
 31
0.0
  0
LINE
  5
   38A
  8
0
  6
CONTINUOUS
 62
     7
 10
173.710748108413
 20
40.0005843838136
 30
0.0
 11
173.189803678461
 21
42.9550076610206
 31
0.0
  0
LINE
  5
   38B
  8
0
  6
CONTINUOUS
 62
     7
 10
173.189803678461
 20
42.9550076610206
 30
0.0
 11
172.66885924851
 21
40.0005843838136
 31
0.0
  0
LINE
  5
   38C
  8
0
  6
CONTINUOUS
 62
     7
 10
172.66885924851
 20
50.6344308577613
 30
0.0
 11
173.189803678461
 21
47.6800075805543
 31
0.0
  0
LINE
  5
   38D
  8
0
  6
CONTINUOUS
 62
     7
 10
173.189803678461
 20
47.6800075805543
 30
0.0
 11
173.710748108413
 21
50.6344308577613
 31
0.0
  0
ENDBLK
  5
   38E
  8
0
  6
CONTINUOUS
 62
     7
  0
BLOCK
  5
   38F
  8
0
  6
CONTINUOUS
 62
     7
  2
*UDIM431
 70
    65
 10
0.0
 20
0.0
 30
0.0
  3
*UDIM431
  0
TEXT
  5
   390
  8
0
  6
CONTINUOUS
 62
     7
 10
172.189803672393
 20
94.5175262543376
 30
0.0
 40
2.99999997871263
  1
307,5
 50
89.9999999480344
 41
0.933333333333333
 72
     1
 11
170.689803689105
 21
101.217526208154
 31
0.0
 73
     2
  0
LINE
  5
   391
  8
0
  6
CONTINUOUS
 62
     7
 10
206.819435801221
 20
155.305041560053
 30
0.0
 11
171.189803678461
 21
155.305041560053
 31
0.0
  0
LINE
  5
   392
  8
0
  6
CONTINUOUS
 62
     7
 10
173.189803678461
 20
47.6800075805543
 30
0.0
 11
173.189803678461
 21
155.305041560053
 31
0.0
  0
LINE
  5
   393
  8
0
  6
CONTINUOUS
 62
     7
 10
172.66885924851
 20
50.6344308577613
 30
0.0
 11
173.189803678461
 21
47.6800075805543
 31
0.0
  0
LINE
  5
   394
  8
0
  6
CONTINUOUS
 62
     7
 10
173.189803678461
 20
47.6800075805543
 30
0.0
 11
173.710748108413
 21
50.6344308577613
 31
0.0
  0
LINE
  5
   395
  8
0
  6
CONTINUOUS
 62
     7
 10
173.710748108413
 20
152.350618282847
 30
0.0
 11
173.189803678461
 21
155.305041560053
 31
0.0
  0
LINE
  5
   396
  8
0
  6
CONTINUOUS
 62
     7
 10
173.189803678461
 20
155.305041560053
 30
0.0
 11
172.66885924851
 21
152.350618282847
 31
0.0
  0
ENDBLK
  5
   397
  8
0
  6
CONTINUOUS
 62
     7
  0
BLOCK
  5
   398
  8
0
  6
CONTINUOUS
 62
     7
  2
*UDIM432
 70
    65
 10
0.0
 20
0.0
 30
0.0
  3
*UDIM432
  0
TEXT
  5
   399
  8
0
  6
CONTINUOUS
 62
     7
 10
152.170373501647
 20
-62.4551677658635
 30
0.0
 40
3.00000002980232
  1
70
 50
359.999999896069
 41
0.933333333333333
 72
     1
 11
154.670373529196
 21
-60.9551677554846
 31
0.0
 73
     2
  0
LINE
  5
   39A
  8
0
  6
CONTINUOUS
 62
     7
 10
163.695373535156
 20
-63.4551677703857
 30
0.0
 11
146.195373535156
 21
-63.4551677703857
 31
0.0
  0
LINE
  5
   39B
  8
0
  6
CONTINUOUS
 62
     7
 10
160.740950257949
 20
-63.9761122003374
 30
0.0
 11
163.695373535156
 21
-63.4551677703857
 31
0.0
  0
LINE
  5
   39C
  8
0
  6
CONTINUOUS
 62
     7
 10
163.695373535156
 20
-63.4551677703857
 30
0.0
 11
160.740950257949
 21
-62.9342233404341
 31
0.0
  0
LINE
  5
   39D
  8
0
  6
CONTINUOUS
 62
     7
 10
149.149796812363
 20
-62.9342233404341
 30
0.0
 11
146.195373535156
 21
-63.4551677703857
 31
0.0
  0
LINE
  5
   39E
  8
0
  6
CONTINUOUS
 62
     7
 10
146.195373535156
 20
-63.4551677703857
 30
0.0
 11
149.149796812363
 21
-63.9761122003374
 31
0.0
  0
ENDBLK
  5
   39F
  8
0
  6
CONTINUOUS
 62
     7
  0
BLOCK
  5
   3A0
  8
0
  6
CONTINUOUS
 62
     7
  2
*UDIM433
 70
    65
 10
0.0
 20
0.0
 30
0.0
  3
*UDIM433
  0
TEXT
  5
   3A1
  8
0
  6
CONTINUOUS
 62
     7
 10
142.282063619563
 20
-45.9670028590651
 30
0.0
 40
3.00000002980232
  1
17,5
 50
359.999999896069
 41
0.933333333333333
 72
     1
 11
147.582063674927
 21
-44.4670028537512
 31
0.0
 73
     2
  0
LINE
  5
   3A2
  8
0
  6
CONTINUOUS
 62
     7
 10
163.695373535156
 20
-46.9670028686523
 30
0.0
 11
142.282063622276
 21
-46.9670028686523
 31
0.0
  0
LINE
  5
   3A3
  8
0
  6
CONTINUOUS
 62
     7
 10
166.649796812363
 20
-46.4460584387007
 30
0.0
 11
163.695373535156
 21
-46.9670028686523
 31
0.0
  0
LINE
  5
   3A4
  8
0
  6
CONTINUOUS
 62
     7
 10
163.695373535156
 20
-46.9670028686523
 30
0.0
 11
166.649796812363
 21
-47.487947298604
 31
0.0
  0
LINE
  5
   3A5
  8
0
  6
CONTINUOUS
 62
     7
 10
156.365950257949
 20
-47.487947298604
 30
0.0
 11
159.320373535156
 21
-46.9670028686523
 31
0.0
  0
LINE
  5
   3A6
  8
0
  6
CONTINUOUS
 62
     7
 10
159.320373535156
 20
-46.9670028686523
 30
0.0
 11
156.365950257949
 21
-46.4460584387007
 31
0.0
  0
ENDBLK
  5
   3A7
  8
0
  6
CONTINUOUS
 62
     7
  0
BLOCK
  5
   3A8
  8
0
  6
CONTINUOUS
 62
     7
  2
*UDIM434
 70
    65
 10
0.0
 20
0.0
 30
0.0
  3
*UDIM434
  0
TEXT
  5
   3A9
  8
0
  6
CONTINUOUS
 62
     7
 10
130.481891617438
 20
-91.3127900061304
 30
0.0
 40
3.00000002980232
  1
108,75
 50
449.999999896069
 41
0.933333333333333
 72
     1
 11
128.981891617179
 21
-83.2127899229527
 31
0.0
 73
     2
  0
LINE
  5
   3AA
  8
0
  6
CONTINUOUS
 62
     7
 10
132.772814269892
 20
-69.3440399169922
 30
0.0
 11
129.48189163208
 21
-69.3440399169922
 31
0.0
  0
LINE
  5
   3AB
  8
0
  6
CONTINUOUS
 62
     7
 10
134.756602261003
 20
-96.5315399169922
 30
0.0
 11
129.48189163208
 21
-96.5315399169922
 31
0.0
  0
LINE
  5
   3AC
  8
0
  6
CONTINUOUS
 62
     7
 10
131.48189163208
 20
-69.3440399169922
 30
0.0
 11
131.48189163208
 21
-96.5315399169922
 31
0.0
  0
LINE
  5
   3AD
  8
0
  6
CONTINUOUS
 62
     7
 10
132.002836062032
 20
-72.2984631941992
 30
0.0
 11
131.48189163208
 21
-69.3440399169922
 31
0.0
  0
LINE
  5
   3AE
  8
0
  6
CONTINUOUS
 62
     7
 10
131.48189163208
 20
-69.3440399169922
 30
0.0
 11
130.960947202128
 21
-72.2984631941992
 31
0.0
  0
LINE
  5
   3AF
  8
0
  6
CONTINUOUS
 62
     7
 10
130.960947202128
 20
-93.5771166397852
 30
0.0
 11
131.48189163208
 21
-96.5315399169922
 31
0.0
  0
LINE
  5
   3B0
  8
0
  6
CONTINUOUS
 62
     7
 10
131.48189163208
 20
-96.5315399169922
 30
0.0
 11
132.002836062032
 21
-93.5771166397852
 31
0.0
  0
ENDBLK
  5
   3B1
  8
0
  6
CONTINUOUS
 62
     7
  0
BLOCK
  5
   3B2
  8
0
  6
CONTINUOUS
 62
     7
  2
*UDIM435
 70
    65
 10
0.0
 20
0.0
 30
0.0
  3
*UDIM435
  0
TEXT
  5
   3B3
  8
0
  6
CONTINUOUS
 62
     7
 10
175.514724872442
 20
-24.2511541467629
 30
0.0
 40
3.00000002980232
  1
5,5
 50
338.440974983981
 41
0.933333333333333
 72
     1
 11
179.693068305587
 21
-24.2891870482257
 31
0.0
 73
     2
  0
TEXT
  5
   3B4
  8
0
  6
CONTINUOUS
 62
     7
 10
172.585100397126
 20
-23.0936566322014
 30
0.0
 40
3.00000002980232
  1
Ø
 50
338.440974983981
 41
0.933333333333334
 72
     1
 11
174.159333171406
 21
-22.1028028381784
 31
0.0
 73
     2
  0
TEXT
  5
   3B5
  8
0
  6
CONTINUOUS
 62
     7
 10
183.280554886407
 20
-27.3194412401266
 30
0.0
 40
3.00000002980232
  1
 - M5
 50
338.440974983981
 41
0.933333333333333
 72
     1
 11
190.063008978418
 21
-28.3863608370752
 31
0.0
 73
     2
  0
LINE
  5
   3B6
  8
0
  6
CONTINUOUS
 62
     7
 10
195.375624946331
 20
-33.1734384992672
 30
0.0
 11
163.055971370347
 21
-20.4039114909635
 31
0.0
  0
LINE
  5
   3B7
  8
0
  6
CONTINUOUS
 62
     7
 10
167.273932079012
 20
-21.5103004246023
 30
0.0
 11
164.334775699965
 21
-20.9091683430209
 31
0.0
  0
LINE
  5
   3B8
  8
0
  6
CONTINUOUS
 62
     7
 10
164.334775699965
 20
-20.9091683430209
 30
0.0
 11
166.891080089523
 21
-22.4792982318931
 31
0.0
  0
LINE
  5
   3B9
  8
0
  6
CONTINUOUS
 62
     7
 10
160.1168149913
 20
-19.802779409382
 30
0.0
 11
163.055971370347
 21
-20.4039114909635
 31
0.0
  0
LINE
  5
   3BA
  8
0
  6
CONTINUOUS
 62
     7
 10
163.055971370347
 20
-20.4039114909635
 30
0.0
 11
160.49966698079
 21
-18.8337816020913
 31
0.0
  0
ENDBLK
  5
   3BB
  8
0
  6
CONTINUOUS
 62
     7
  0
BLOCK
  5
   3BC
  8
0
  6
CONTINUOUS
 62
     7
  2
*UDIM436
 70
    65
 10
0.0
 20
0.0
 30
0.0
  3
*UDIM436
  0
TEXT
  5
   3BD
  8
0
  6
CONTINUOUS
 62
     7
 10
122.91392134409
 20
-65.5690395057281
 30
0.0
 40
3.00000002980232
  1
303,5
 50
449.999999896069
 41
0.933333333333333
 72
     1
 11
121.4139213413
 21
-58.8690394364581
 31
0.0
 73
     2
  0
LINE
  5
   3BE
  8
0
  6
CONTINUOUS
 62
     7
 10
135.127367882781
 20
-20.6565396030757
 30
0.0
 11
121.913921356201
 21
-20.6565354551572
 31
0.0
  0
LINE
  5
   3BF
  8
0
  6
CONTINUOUS
 62
     7
 10
134.756602261004
 20
-96.5315386486662
 30
0.0
 11
121.913921356203
 21
-96.5315223599597
 31
0.0
  0
LINE
  5
   3C0
  8
0
  6
CONTINUOUS
 62
     7
 10
123.913921356201
 20
-20.6565360829901
 30
0.0
 11
123.913921356201
 21
-96.5315248966118
 31
0.0
  0
LINE
  5
   3C1
  8
0
  6
CONTINUOUS
 62
     7
 10
124.434865786153
 20
-23.6109593601971
 30
0.0
 11
123.913921356201
 21
-20.6565360829901
 31
0.0
  0
LINE
  5
   3C2
  8
0
  6
CONTINUOUS
 62
     7
 10
123.913921356201
 20
-20.6565360829901
 30
0.0
 11
123.39297692625
 21
-23.6109593601971
 31
0.0
  0
LINE
  5
   3C3
  8
0
  6
CONTINUOUS
 62
     7
 10
123.39297692625
 20
-93.5771016194048
 30
0.0
 11
123.913921356201
 21
-96.5315248966118
 31
0.0
  0
LINE
  5
   3C4
  8
0
  6
CONTINUOUS
 62
     7
 10
123.913921356201
 20
-96.5315248966118
 30
0.0
 11
124.434865786153
 21
-93.5771016194048
 31
0.0
  0
ENDBLK
  5
   3C5
  8
0
  6
CONTINUOUS
 62
     7
  0
BLOCK
  5
   3C6
  8
0
  6
CONTINUOUS
 62
     7
  2
*UDIM437
 70
    65
 10
0.0
 20
0.0
 30
0.0
  3
*UDIM437
  0
TEXT
  5
   3C7
  8
0
  6
CONTINUOUS
 62
     7
 10
239.112383985786
 20
-43.6769790578866
 30
0.0
 40
3.00000002980232
  1
105
 50
359.999999896069
 41
0.933333333333333
 72
     1
 11
243.012384027243
 21
-42.1769790500402
 31
0.0
 73
     2
  0
LINE
  5
   3C8
  8
0
  6
CONTINUOUS
 62
     7
 10
256.412384033203
 20
-20.4065399169922
 30
0.0
 11
256.412384033203
 21
-46.6769790649414
 31
0.0
  0
LINE
  5
   3C9
  8
0
  6
CONTINUOUS
 62
     7
 10
230.162384033203
 20
-20.4065399169922
 30
0.0
 11
230.162384033203
 21
-46.6769790649414
 31
0.0
  0
LINE
  5
   3CA
  8
0
  6
CONTINUOUS
 62
     7
 10
256.412384033203
 20
-44.6769790649414
 30
0.0
 11
230.162384033203
 21
-44.6769790649414
 31
0.0
  0
LINE
  5
   3CB
  8
0
  6
CONTINUOUS
 62
     7
 10
253.457960755996
 20
-45.1979234948931
 30
0.0
 11
256.412384033203
 21
-44.6769790649414
 31
0.0
  0
LINE
  5
   3CC
  8
0
  6
CONTINUOUS
 62
     7
 10
256.412384033203
 20
-44.6769790649414
 30
0.0
 11
253.457960755996
 21
-44.1560346349897
 31
0.0
  0
LINE
  5
   3CD
  8
0
  6
CONTINUOUS
 62
     7
 10
233.11680731041
 20
-44.1560346349897
 30
0.0
 11
230.162384033203
 21
-44.6769790649414
 31
0.0
  0
LINE
  5
   3CE
  8
0
  6
CONTINUOUS
 62
     7
 10
230.162384033203
 20
-44.6769790649414
 30
0.0
 11
233.11680731041
 21
-45.1979234948931
 31
0.0
  0
ENDBLK
  5
   3CF
  8
0
  6
CONTINUOUS
 62
     7
  0
BLOCK
  5
   3D0
  8
0
  6
CONTINUOUS
 62
     7
  2
*UDIM438
 70
    65
 10
0.0
 20
0.0
 30
0.0
  3
*UDIM438
  0
TEXT
  5
   3D1
  8
0
  6
CONTINUOUS
 62
     7
 10
259.387384387124
 20
-31.9869575455265
 30
0.0
 40
3.00000002980232
  1
35
 50
359.999999896069
 41
0.933333333333333
 72
     1
 11
261.887384414673
 21
-30.4869575351477
 31
0.0
 73
     2
  0
LINE
  5
   3D2
  8
0
  6
CONTINUOUS
 62
     7
 10
256.412384033203
 20
-20.4065399169922
 30
0.0
 11
256.412384033203
 21
-34.9869575500488
 31
0.0
  0
LINE
  5
   3D3
  8
0
  6
CONTINUOUS
 62
     7
 10
264.387384439508
 20
-32.9869575500488
 30
0.0
 11
247.662384033203
 21
-32.9869575500488
 31
0.0
  0
LINE
  5
   3D4
  8
0
  6
CONTINUOUS
 62
     7
 10
259.36680731041
 20
-32.4660131200972
 30
0.0
 11
256.412384033203
 21
-32.9869575500488
 31
0.0
  0
LINE
  5
   3D5
  8
0
  6
CONTINUOUS
 62
     7
 10
256.412384033203
 20
-32.9869575500488
 30
0.0
 11
259.36680731041
 21
-33.5079019800005
 31
0.0
  0
LINE
  5
   3D6
  8
0
  6
CONTINUOUS
 62
     7
 10
244.707960755996
 20
-33.5079019800005
 30
0.0
 11
247.662384033203
 21
-32.9869575500488
 31
0.0
  0
LINE
  5
   3D7
  8
0
  6
CONTINUOUS
 62
     7
 10
247.662384033203
 20
-32.9869575500488
 30
0.0
 11
244.707960755996
 21
-32.4660131200972
 31
0.0
  0
ENDBLK
  5
   3D8
  8
0
  6
CONTINUOUS
 62
     7
  0
BLOCK
  5
   3D9
  8
0
  6
CONTINUOUS
 62
     7
  2
*UDIM439
 70
    65
 10
0.0
 20
0.0
 30
0.0
  3
*UDIM439
  0
TEXT
  5
   3DA
  8
0
  6
CONTINUOUS
 62
     7
 10
272.699876714823
 20
-3.91020083385497
 30
0.0
 40
3.00000002980232
  1
15
 50
390.951601689505
 41
0.933333333333333
 72
     1
 11
274.072411109559
 21
-1.33801314549568
 31
0.0
 73
     2
  0
TEXT
  5
   3DB
  8
0
  6
CONTINUOUS
 62
     7
 10
270.341471045111
 20
-5.32456389998717
 30
0.0
 40
3.00000002980232
  1
R
 50
390.951601689505
 41
0.933333333333334
 72
     1
 11
270.513362554302
 21
-3.47241558578227
 31
0.0
 73
     2
  0
LINE
  5
   3DC
  8
0
  6
CONTINUOUS
 62
     7
 10
277.502200855464
 20
-2.19623368682751
 30
0.0
 11
246.764360952099
 21
-20.6300705621307
 31
0.0
  0
LINE
  5
   3DD
  8
0
  6
CONTINUOUS
 62
     7
 10
257.362601190573
 20
-14.8816268134817
 30
0.0
 11
259.628391726905
 21
-12.9153630352793
 31
0.0
  0
LINE
  5
   3DE
  8
0
  6
CONTINUOUS
 62
     7
 10
259.628391726905
 20
-12.9153630352793
 30
0.0
 11
256.826743335264
 21
-13.9881007896335
 31
0.0
  0
ENDBLK
  5
   3DF
  8
0
  6
CONTINUOUS
 62
     7
  0
BLOCK
  5
   3E0
  8
0
  6
CONTINUOUS
 62
     7
  2
*UDIM440
 70
    65
 10
0.0
 20
0.0
 30
0.0
  3
*UDIM440
  0
TEXT
  5
   3E1
  8
0
  6
CONTINUOUS
 62
     7
 10
211.33060836087
 20
-62.7690399644072
 30
0.0
 40
3.00000002980232
  1
350
 50
449.999999896069
 41
0.933333333333333
 72
     1
 11
209.830608353019
 21
-58.8690399229527
 31
0.0
 73
     2
  0
LINE
  5
   3E2
  8
0
  6
CONTINUOUS
 62
     7
 10
224.662384033203
 20
-14.8440399169922
 30
0.0
 11
210.33060836792
 21
-14.8440399169922
 31
0.0
  0
LINE
  5
   3E3
  8
0
  6
CONTINUOUS
 62
     7
 10
224.662384033203
 20
-102.344039916992
 30
0.0
 11
210.33060836792
 21
-102.344039916992
 31
0.0
  0
LINE
  5
   3E4
  8
0
  6
CONTINUOUS
 62
     7
 10
212.33060836792
 20
-14.8440399169922
 30
0.0
 11
212.33060836792
 21
-102.344039916992
 31
0.0
  0
LINE
  5
   3E5
  8
0
  6
CONTINUOUS
 62
     7
 10
212.851552797872
 20
-17.7984631941992
 30
0.0
 11
212.33060836792
 21
-14.8440399169922
 31
0.0
  0
LINE
  5
   3E6
  8
0
  6
CONTINUOUS
 62
     7
 10
212.33060836792
 20
-14.8440399169922
 30
0.0
 11
211.809663937968
 21
-17.7984631941992
 31
0.0
  0
LINE
  5
   3E7
  8
0
  6
CONTINUOUS
 62
     7
 10
211.809663937968
 20
-99.3896166397852
 30
0.0
 11
212.33060836792
 21
-102.344039916992
 31
0.0
  0
LINE
  5
   3E8
  8
0
  6
CONTINUOUS
 62
     7
 10
212.33060836792
 20
-102.344039916992
 30
0.0
 11
212.851552797872
 21
-99.3896166397852
 31
0.0
  0
ENDBLK
  5
   3E9
  8
0
  6
CONTINUOUS
 62
     7
  0
BLOCK
  5
   3EA
  8
0
  6
CONTINUOUS
 62
     7
  2
*UDIM441
 70
    65
 10
0.0
 20
0.0
 30
0.0
  3
*UDIM441
  0
TEXT
  5
   3EB
  8
0
  6
CONTINUOUS
 62
     7
 10
274.781635277374
 20
-90.0190399644072
 30
0.0
 40
3.00000002980232
  1
132
 50
449.999999896069
 41
0.933333333333333
 72
     1
 11
273.281635269523
 21
-86.1190399229527
 31
0.0
 73
     2
  0
LINE
  5
   3EC
  8
0
  6
CONTINUOUS
 62
     7
 10
269.326674422199
 20
-69.3440399169922
 30
0.0
 11
277.781635284424
 21
-69.3440399169922
 31
0.0
  0
LINE
  5
   3ED
  8
0
  6
CONTINUOUS
 62
     7
 10
261.912384033203
 20
-102.344039916992
 30
0.0
 11
277.781635284424
 21
-102.344039916992
 31
0.0
  0
LINE
  5
   3EE
  8
0
  6
CONTINUOUS
 62
     7
 10
275.781635284424
 20
-69.3440399169922
 30
0.0
 11
275.781635284424
 21
-102.344039916992
 31
0.0
  0
LINE
  5
   3EF
  8
0
  6
CONTINUOUS
 62
     7
 10
276.302579714376
 20
-72.2984631941992
 30
0.0
 11
275.781635284424
 21
-69.3440399169922
 31
0.0
  0
LINE
  5
   3F0
  8
0
  6
CONTINUOUS
 62
     7
 10
275.781635284424
 20
-69.3440399169922
 30
0.0
 11
275.260690854472
 21
-72.2984631941992
 31
0.0
  0
LINE
  5
   3F1
  8
0
  6
CONTINUOUS
 62
     7
 10
275.260690854472
 20
-99.3896166397852
 30
0.0
 11
275.781635284424
 21
-102.344039916992
 31
0.0
  0
LINE
  5
   3F2
  8
0
  6
CONTINUOUS
 62
     7
 10
275.781635284424
 20
-102.344039916992
 30
0.0
 11
276.302579714376
 21
-99.3896166397852
 31
0.0
  0
ENDBLK
  5
   3F3
  8
0
  6
CONTINUOUS
 62
     7
  0
BLOCK
  5
   3F4
  8
0
  6
CONTINUOUS
 62
     0
  2
$1ON-OFF
 70
    64
 10
0.0
 20
0.0
 30
0.0
  3
$1ON-OFF
  0
LINE
  5
   3F5
  8
0
  6
CONTINUOUS
 62
     0
 10
5.09999999999999
 20
-29.65
 30
0.0
 11
5.54999999999999
 21
-29.65
 31
0.0
  0
LINE
  5
   3F6
  8
0
  6
CONTINUOUS
 62
     0
 10
3.79999999999999
 20
-37.35
 30
0.0
 11
4.59999999999999
 21
-37.35
 31
0.0
  0
LINE
  5
   3F7
  8
0
  6
CONTINUOUS
 62
     0
 10
-2.6
 20
-34.75
 30
0.0
 11
-2.6
 21
-34.25
 31
0.0
  0
LINE
  5
   3F8
  8
0
  6
CONTINUOUS
 62
     0
 10
2.6
 20
-34.75
 30
0.0
 11
2.6
 21
-34.25
 31
0.0
  0
ARC
  5
   3F9
  8
0
  6
CONTINUOUS
 62
     0
 10
-3.5527136788005E-15
 20
-34.25
 30
0.0
 40
2.6
 50
0.0
 51
180.0
  0
ARC
  5
   3FA
  8
0
  6
CONTINUOUS
 62
     0
 10
-3.5527136788005E-15
 20
-34.75
 30
0.0
 40
2.6
 50
180.0
 51
360.0
  0
ARC
  5
   3FB
  8
0
  6
CONTINUOUS
 62
     0
 10
-3.5527136788005E-15
 20
-34.25
 30
0.0
 40
1.8
 50
0.0
 51
180.0
  0
ARC
  5
   3FC
  8
0
  6
CONTINUOUS
 62
     0
 10
-3.5527136788005E-15
 20
-34.75
 30
0.0
 40
1.8
 50
180.0
 51
360.0
  0
LINE
  5
   3FD
  8
0
  6
CONTINUOUS
 62
     0
 10
-1.8
 20
-34.75
 30
0.0
 11
-1.8
 21
-34.25
 31
0.0
  0
LINE
  5
   3FE
  8
0
  6
CONTINUOUS
 62
     0
 10
1.8
 20
-34.75
 30
0.0
 11
1.8
 21
-34.25
 31
0.0
  0
LINE
  5
   3FF
  8
0
  6
CONTINUOUS
 62
     0
 10
2.84999999999999
 20
-32.85
 30
0.0
 11
2.84999999999999
 21
-32.05
 31
0.0
  0
LINE
  5
   400
  8
0
  6
CONTINUOUS
 62
     0
 10
2.84999999999999
 20
-32.85
 30
0.0
 11
3.79999999999999
 21
-32.85
 31
0.0
  0
LINE
  5
   401
  8
0
  6
CONTINUOUS
 62
     0
 10
5.54999999999999
 20
-32.85
 30
0.0
 11
5.54999999999999
 21
-32.05
 31
0.0
  0
LINE
  5
   402
  8
0
  6
CONTINUOUS
 62
     0
 10
2.84999999999999
 20
-32.05
 30
0.0
 11
3.79999999999999
 21
-32.05
 31
0.0
  0
LINE
  5
   403
  8
0
  6
CONTINUOUS
 62
     0
 10
3.79999999999999
 20
-37.35
 30
0.0
 11
3.79999999999999
 21
-32.85
 31
0.0
  0
LINE
  5
   404
  8
0
  6
CONTINUOUS
 62
     0
 10
4.59999999999999
 20
-37.35
 30
0.0
 11
4.59999999999999
 21
-32.85
 31
0.0
  0
LINE
  5
   405
  8
0
  6
CONTINUOUS
 62
     0
 10
4.59999999999999
 20
-32.85
 30
0.0
 11
5.54999999999999
 21
-32.85
 31
0.0
  0
LINE
  5
   406
  8
0
  6
CONTINUOUS
 62
     0
 10
4.59999999999999
 20
-32.05
 30
0.0
 11
5.54999999999999
 21
-32.05
 31
0.0
  0
LINE
  5
   407
  8
0
  6
CONTINUOUS
 62
     0
 10
3.79999999999999
 20
-32.05
 30
0.0
 11
3.79999999999999
 21
-30.95
 31
0.0
  0
LINE
  5
   408
  8
0
  6
CONTINUOUS
 62
     0
 10
4.59999999999999
 20
-32.05
 30
0.0
 11
4.59999999999999
 21
-30.95
 31
0.0
  0
ARC
  5
   409
  8
0
  6
CONTINUOUS
 62
     0
 10
5.09999999999999
 20
-30.95
 30
0.0
 40
1.3
 50
89.9999999999999
 51
180.0
  0
ARC
  5
   40A
  8
0
  6
CONTINUOUS
 62
     0
 10
5.09999999999999
 20
-30.95
 30
0.0
 40
0.5
 50
89.9999999999999
 51
180.0
  0
LINE
  5
   40B
  8
0
  6
CONTINUOUS
 62
     0
 10
5.54999999999999
 20
-30.45
 30
0.0
 11
5.54999999999999
 21
-29.65
 31
0.0
  0
LINE
  5
   40C
  8
0
  6
CONTINUOUS
 62
     0
 10
5.09999999999999
 20
-30.45
 30
0.0
 11
5.54999999999999
 21
-30.45
 31
0.0
  0
LINE
  5
   40D
  8
0
  6
CONTINUOUS
 62
     0
 10
8.29999999999998
 20
-29.65
 30
0.0
 11
8.74999999999999
 21
-29.65
 31
0.0
  0
LINE
  5
   40E
  8
0
  6
CONTINUOUS
 62
     0
 10
6.99999999999999
 20
-37.35
 30
0.0
 11
7.79999999999999
 21
-37.35
 31
0.0
  0
LINE
  5
   40F
  8
0
  6
CONTINUOUS
 62
     0
 10
6.04999999999999
 20
-32.85
 30
0.0
 11
6.04999999999999
 21
-32.05
 31
0.0
  0
LINE
  5
   410
  8
0
  6
CONTINUOUS
 62
     0
 10
6.04999999999999
 20
-32.85
 30
0.0
 11
6.99999999999999
 21
-32.85
 31
0.0
  0
LINE
  5
   411
  8
0
  6
CONTINUOUS
 62
     0
 10
8.74999999999999
 20
-32.85
 30
0.0
 11
8.74999999999999
 21
-32.05
 31
0.0
  0
LINE
  5
   412
  8
0
  6
CONTINUOUS
 62
     0
 10
6.04999999999999
 20
-32.05
 30
0.0
 11
6.99999999999999
 21
-32.05
 31
0.0
  0
LINE
  5
   413
  8
0
  6
CONTINUOUS
 62
     0
 10
6.99999999999999
 20
-37.35
 30
0.0
 11
6.99999999999999
 21
-32.85
 31
0.0
  0
LINE
  5
   414
  8
0
  6
CONTINUOUS
 62
     0
 10
7.79999999999999
 20
-37.35
 30
0.0
 11
7.79999999999999
 21
-32.85
 31
0.0
  0
LINE
  5
   415
  8
0
  6
CONTINUOUS
 62
     0
 10
7.79999999999999
 20
-32.85
 30
0.0
 11
8.74999999999999
 21
-32.85
 31
0.0
  0
LINE
  5
   416
  8
0
  6
CONTINUOUS
 62
     0
 10
7.79999999999999
 20
-32.05
 30
0.0
 11
8.74999999999999
 21
-32.05
 31
0.0
  0
LINE
  5
   417
  8
0
  6
CONTINUOUS
 62
     0
 10
6.99999999999999
 20
-32.05
 30
0.0
 11
6.99999999999999
 21
-30.95
 31
0.0
  0
LINE
  5
   418
  8
0
  6
CONTINUOUS
 62
     0
 10
7.79999999999999
 20
-32.05
 30
0.0
 11
7.79999999999999
 21
-30.95
 31
0.0
  0
ARC
  5
   419
  8
0
  6
CONTINUOUS
 62
     0
 10
8.29999999999998
 20
-30.95
 30
0.0
 40
1.3
 50
89.9999999999999
 51
180.0
  0
ARC
  5
   41A
  8
0
  6
CONTINUOUS
 62
     0
 10
8.29999999999998
 20
-30.95
 30
0.0
 40
0.5
 50
89.9999999999999
 51
180.0
  0
LINE
  5
   41B
  8
0
  6
CONTINUOUS
 62
     0
 10
8.74999999999999
 20
-30.45
 30
0.0
 11
8.74999999999999
 21
-29.65
 31
0.0
  0
LINE
  5
   41C
  8
0
  6
CONTINUOUS
 62
     0
 10
8.29999999999998
 20
-30.45
 30
0.0
 11
8.74999999999999
 21
-30.45
 31
0.0
  0
LINE
  5
   41D
  8
0
  6
CONTINUOUS
 62
     0
 10
3.4
 20
-2.85000000000002
 30
0.0
 11
4.19999999999999
 21
-2.85000000000002
 31
0.0
  0
ARC
  5
   41E
  8
0
  6
CONTINUOUS
 62
     0
 10
-3.5527136788005E-15
 20
0.249999999999979
 30
0.0
 40
2.6
 50
0.0
 51
180.0
  0
ARC
  5
   41F
  8
0
  6
CONTINUOUS
 62
     0
 10
-3.5527136788005E-15
 20
0.249999999999979
 30
0.0
 40
1.8
 50
0.0
 51
180.0
  0
ARC
  5
   420
  8
0
  6
CONTINUOUS
 62
     0
 10
-3.5527136788005E-15
 20
-0.250000000000018
 30
0.0
 40
2.6
 50
180.0
 51
360.0
  0
ARC
  5
   421
  8
0
  6
CONTINUOUS
 62
     0
 10
-3.5527136788005E-15
 20
-0.250000000000018
 30
0.0
 40
1.8
 50
180.0
 51
360.0
  0
LINE
  5
   422
  8
0
  6
CONTINUOUS
 62
     0
 10
1.8
 20
-0.250000000000018
 30
0.0
 11
1.8
 21
0.249999999999979
 31
0.0
  0
LINE
  5
   423
  8
0
  6
CONTINUOUS
 62
     0
 10
2.6
 20
-0.250000000000018
 30
0.0
 11
2.6
 21
0.249999999999979
 31
0.0
  0
LINE
  5
   424
  8
0
  6
CONTINUOUS
 62
     0
 10
-1.8
 20
-0.250000000000032
 30
0.0
 11
-1.8
 21
0.249999999999964
 31
0.0
  0
LINE
  5
   425
  8
0
  6
CONTINUOUS
 62
     0
 10
-2.6
 20
-0.250000000000018
 30
0.0
 11
-2.6
 21
0.249999999999979
 31
0.0
  0
LINE
  5
   426
  8
0
  6
CONTINUOUS
 62
     0
 10
3.4
 20
-2.85000000000002
 30
0.0
 11
3.4
 21
2.84999999999998
 31
0.0
  0
LINE
  5
   427
  8
0
  6
CONTINUOUS
 62
     0
 10
4.19999999999999
 20
-2.85000000000002
 30
0.0
 11
4.19999999999999
 21
0.649999999999981
 31
0.0
  0
LINE
  5
   428
  8
0
  6
CONTINUOUS
 62
     0
 10
6.99999999999999
 20
-2.85000000000002
 30
0.0
 11
6.99999999999999
 21
0.649999999999981
 31
0.0
  0
LINE
  5
   429
  8
0
  6
CONTINUOUS
 62
     0
 10
7.79999999999999
 20
-2.85000000000002
 30
0.0
 11
7.79999999999999
 21
0.84999999999998
 31
0.0
  0
LINE
  5
   42A
  8
0
  6
CONTINUOUS
 62
     0
 10
3.4
 20
2.84999999999998
 30
0.0
 11
4.19999999999999
 21
2.84999999999998
 31
0.0
  0
ARC
  5
   42B
  8
0
  6
CONTINUOUS
 62
     0
 10
5.59999999999999
 20
0.649999999999981
 30
0.0
 40
1.4
 50
0.0
 51
180.0
  0
LINE
  5
   42C
  8
0
  6
CONTINUOUS
 62
     0
 10
4.19999999999999
 20
2.05
 30
0.0
 11
4.19999999999999
 21
2.84999999999998
 31
0.0
  0
ARC
  5
   42D
  8
0
  6
CONTINUOUS
 62
     0
 10
5.79999999999999
 20
0.84999999999998
 30
0.0
 40
2.0
 50
0.0
 51
143.130102354155
  0
LINE
  5
   42E
  8
0
  6
CONTINUOUS
 62
     0
 10
6.99999999999999
 20
-2.85000000000002
 30
0.0
 11
7.79999999999999
 21
-2.85000000000002
 31
0.0
  0
ENDBLK
  5
   42F
  8
0
  6
CONTINUOUS
 62
     0
  0
BLOCK
  5
   430
  8
0
  6
CONTINUOUS
 62
     7
  2
$1COPRITERM_PIAN
 70
    64
 10
0.0
 20
0.0
 30
0.0
  3
$1COPRITERM_PIAN
  0
LINE
  5
   431
  8
0
  6
CONTINUOUS
 62
     1
 10
-56.226997723693
 20
0.0
 30
0.0
 11
51.5
 21
0.0
 31
0.0
  0
LINE
  5
   432
  8
0
  6
CONTINUOUS
 62
     1
 10
-56.0916125897304
 20
01.0
 30
0.0
 11
51.5
 21
01.0
 31
0.0
  0
LINE
  5
   433
  8
0
  6
CONTINUOUS
 62
     1
 10
52.5
 20
01.0
 30
0.0
 11
52.5
 21
68.75
 31
0.0
  0
LINE
  5
   434
  8
0
  6
CONTINUOUS
 62
     1
 10
51.5
 20
0.0
 30
0.0
 11
51.5
 21
01.0
 31
0.0
  0
LINE
  5
   435
  8
0
  6
CONTINUOUS
 62
     1
 10
-36.6009643810488
 20
70.0
 30
0.0
 11
51.25
 21
70.0
 31
0.0
  0
ARC
  5
   436
  8
0
  6
CONTINUOUS
 62
     1
 10
51.25
 20
68.75
 30
0.0
 40
1.25
 50
0.0
 51
90.0
  0
LINE
  5
   437
  8
0
  6
CONTINUOUS
 62
     1
 10
48.9
 20
01.0
 30
0.0
 11
48.9
 21
70.0
 31
0.0
  0
LINE
  5
   438
  8
0
  6
CONTINUOUS
 62
     1
 10
45.3
 20
01.0
 30
0.0
 11
45.3
 21
70.0
 31
0.0
  0
LINE
  5
   439
  8
0
  6
CONTINUOUS
 62
     1
 10
41.7
 20
01.0
 30
0.0
 11
41.7
 21
70.0
 31
0.0
  0
LINE
  5
   43A
  8
0
  6
CONTINUOUS
 62
     1
 10
38.1
 20
01.0
 30
0.0
 11
38.1
 21
70.0
 31
0.0
  0
LINE
  5
   43B
  8
0
  6
CONTINUOUS
 62
     1
 10
34.5
 20
01.0
 30
0.0
 11
34.5
 21
70.0
 31
0.0
  0
LINE
  5
   43C
  8
0
  6
CONTINUOUS
 62
     1
 10
30.9
 20
01.0
 30
0.0
 11
30.9
 21
70.0
 31
0.0
  0
LINE
  5
   43D
  8
0
  6
CONTINUOUS
 62
     1
 10
27.3
 20
01.0
 30
0.0
 11
27.3
 21
70.0
 31
0.0
  0
LINE
  5
   43E
  8
0
  6
CONTINUOUS
 62
     1
 10
23.7
 20
01.0
 30
0.0
 11
23.7
 21
70.0
 31
0.0
  0
LINE
  5
   43F
  8
0
  6
CONTINUOUS
 62
     1
 10
20.1
 20
01.0
 30
0.0
 11
20.1
 21
70.0
 31
0.0
  0
LINE
  5
   440
  8
0
  6
CONTINUOUS
 62
     1
 10
16.5
 20
01.0
 30
0.0
 11
16.5
 21
70.0
 31
0.0
  0
LINE
  5
   441
  8
0
  6
CONTINUOUS
 62
     1
 10
12.9
 20
01.0
 30
0.0
 11
12.9
 21
70.0
 31
0.0
  0
LINE
  5
   442
  8
0
  6
CONTINUOUS
 62
     1
 10
9.29999999999999
 20
01.0
 30
0.0
 11
9.29999999999999
 21
70.0
 31
0.0
  0
LINE
  5
   443
  8
0
  6
CONTINUOUS
 62
     1
 10
5.69999999999999
 20
01.0
 30
0.0
 11
5.69999999999999
 21
70.0
 31
0.0
  0
LINE
  5
   444
  8
0
  6
CONTINUOUS
 62
     1
 10
2.09999999999999
 20
01.0
 30
0.0
 11
2.09999999999999
 21
70.0
 31
0.0
  0
LINE
  5
   445
  8
0
  6
CONTINUOUS
 62
     1
 10
-1.50000000000001
 20
01.0
 30
0.0
 11
-1.50000000000001
 21
70.0
 31
0.0
  0
LINE
  5
   446
  8
0
  6
CONTINUOUS
 62
     1
 10
-5.10000000000001
 20
01.0
 30
0.0
 11
-5.10000000000001
 21
70.0
 31
0.0
  0
LINE
  5
   447
  8
0
  6
CONTINUOUS
 62
     1
 10
-8.70000000000001
 20
01.0
 30
0.0
 11
-8.70000000000001
 21
70.0
 31
0.0
  0
LINE
  5
   448
  8
0
  6
CONTINUOUS
 62
     1
 10
-12.3
 20
01.0
 30
0.0
 11
-12.3
 21
70.0
 31
0.0
  0
LINE
  5
   449
  8
0
  6
CONTINUOUS
 62
     1
 10
-15.9
 20
01.0
 30
0.0
 11
-15.9
 21
70.0
 31
0.0
  0
LINE
  5
   44A
  8
0
  6
CONTINUOUS
 62
     1
 10
-19.5
 20
01.0
 30
0.0
 11
-19.5
 21
70.0
 31
0.0
  0
LINE
  5
   44B
  8
0
  6
CONTINUOUS
 62
     1
 10
-23.1
 20
01.0
 30
0.0
 11
-23.1
 21
70.0
 31
0.0
  0
LINE
  5
   44C
  8
0
  6
CONTINUOUS
 62
     1
 10
-26.7
 20
01.0
 30
0.0
 11
-26.7
 21
70.0
 31
0.0
  0
LINE
  5
   44D
  8
0
  6
CONTINUOUS
 62
     1
 10
-30.3
 20
01.0
 30
0.0
 11
-30.3
 21
70.0
 31
0.0
  0
LINE
  5
   44E
  8
0
  6
CONTINUOUS
 62
     1
 10
-33.9
 20
01.0
 30
0.0
 11
-33.9
 21
70.0
 31
0.0
  0
LINE
  5
   44F
  8
0
  6
CONTINUOUS
 62
     1
 10
51.5
 20
01.0
 30
0.0
 11
52.5
 21
01.0
 31
0.0
  0
POLYLINE
  5
   450
  8
0
  6
CONTINUOUS
 62
     1
 66
     1
 10
0.0
 20
0.0
 30
0.0
  0
VERTEX
  5
   451
  8
0
  6
CONTINUOUS
 10
-36.6009643810488
 20
69.9998044772326
 30
0.0
 40
0.0
 41
0.0
  0
VERTEX
  5
   452
  8
0
  6
CONTINUOUS
 10
-36.8285696984956
 20
69.6845005010683
 30
0.0
 40
0.0
 41
0.0
  0
VERTEX
  5
   453
  8
0
  6
CONTINUOUS
 10
-37.0542505368215
 20
69.3671808596701
 30
0.0
 40
0.0
 41
0.0
  0
VERTEX
  5
   454
  8
0
  6
CONTINUOUS
 10
-37.277960000942
 20
69.0478385555066
 30
0.0
 40
0.0
 41
0.0
  0
VERTEX
  5
   455
  8
0
  6
CONTINUOUS
 10
-37.4996268405661
 20
68.7264629568419
 30
0.0
 40
0.0
 41
0.0
  0
VERTEX
  5
   456
  8
0
  6
CONTINUOUS
 10
-37.7191503179955
 20
68.4030390319254
 30
0.0
 40
0.0
 41
0.0
  0
VERTEX
  5
   457
  8
0
  6
CONTINUOUS
 10
-37.9363950759235
 20
68.0775465831816
 30
0.0
 40
0.0
 41
0.0
  0
VERTEX
  5
   458
  8
0
  6
CONTINUOUS
 10
-38.1511860052343
 20
67.7499594813996
 30
0.0
 40
0.0
 41
0.0
  0
VERTEX
  5
   459
  8
0
  6
CONTINUOUS
 10
-38.3633031128013
 20
67.4202448999232
 30
0.0
 40
0.0
 41
0.0
  0
VERTEX
  5
   45A
  8
0
  6
CONTINUOUS
 10
-38.5724763892868
 20
67.0883625488401
 30
0.0
 40
0.0
 41
0.0
  0
VERTEX
  5
   45B
  8
0
  6
CONTINUOUS
 10
-38.7783806769405
 20
66.754263909172
 30
0.0
 40
0.0
 41
0.0
  0
VERTEX
  5
   45C
  8
0
  6
CONTINUOUS
 10
-39.0403176454829
 20
66.3168841247867
 30
0.0
 40
0.0
 41
0.0
  0
VERTEX
  5
   45D
  8
0
  6
CONTINUOUS
 10
-39.1686674672656
 20
66.0967100028514
 30
0.0
 40
0.0
 41
0.0
  0
VERTEX
  5
   45E
  8
0
  6
CONTINUOUS
 10
-39.2950916940275
 20
65.8755199585444
 30
0.0
 40
0.0
 41
0.0
  0
VERTEX
  5
   45F
  8
0
  6
CONTINUOUS
 10
-39.4194479425524
 20
65.6532934213859
 30
0.0
 40
0.0
 41
0.0
  0
VERTEX
  5
   460
  8
0
  6
CONTINUOUS
 10
-39.541590225405
 20
65.4300097153931
 30
0.0
 40
0.0
 41
0.0
  0
VERTEX
  5
   461
  8
0
  6
CONTINUOUS
 10
-39.6613709595447
 20
65.2056484668756
 30
0.0
 40
0.0
 41
0.0
  0
VERTEX
  5
   462
  8
0
  6
CONTINUOUS
 10
-39.7786429749397
 20
64.9801900122305
 30
0.0
 40
0.0
 41
0.0
  0
VERTEX
  5
   463
  8
0
  6
CONTINUOUS
 10
-39.8932615231805
 20
64.7536158057385
 30
0.0
 40
0.0
 41
0.0
  0
VERTEX
  5
   464
  8
0
  6
CONTINUOUS
 10
-40.0050862860942
 20
64.5259088273587
 30
0.0
 40
0.0
 41
0.0
  0
VERTEX
  5
   465
  8
0
  6
CONTINUOUS
 10
-40.1139833843579
 20
64.2970539905247
 30
0.0
 40
0.0
 41
0.0
  0
VERTEX
  5
   466
  8
0
  6
CONTINUOUS
 10
-40.2198273861132
 20
64.0670385499397
 30
0.0
 40
0.0
 41
0.0
  0
VERTEX
  5
   467
  8
0
  6
CONTINUOUS
 10
-40.3225033155795
 20
63.8358525093719
 30
0.0
 40
0.0
 41
0.0
  0
VERTEX
  5
   468
  8
0
  6
CONTINUOUS
 10
-40.4219086616682
 20
63.6034890294504
 30
0.0
 40
0.0
 41
0.0
  0
VERTEX
  5
   469
  8
0
  6
CONTINUOUS
 10
-40.5179553865965
 20
63.3699448354601
 30
0.0
 40
0.0
 41
0.0
  0
VERTEX
  5
   46A
  8
0
  6
CONTINUOUS
 10
-40.6105719345015
 20
63.1352206251377
 30
0.0
 40
0.0
 41
0.0
  0
VERTEX
  5
   46B
  8
0
  6
CONTINUOUS
 10
-40.6997052400536
 20
62.899321476467
 30
0.0
 40
0.0
 41
0.0
  0
VERTEX
  5
   46C
  8
0
  6
CONTINUOUS
 10
-40.7853227370709
 20
62.662257255474
 30
0.0
 40
0.0
 41
0.0
  0
VERTEX
  5
   46D
  8
0
  6
CONTINUOUS
 10
-40.8674143671326
 20
62.4240430240232
 30
0.0
 40
0.0
 41
0.0
  0
VERTEX
  5
   46E
  8
0
  6
CONTINUOUS
 10
-40.9459945881933
 20
62.184699447612
 30
0.0
 40
0.0
 41
0.0
  0
VERTEX
  5
   46F
  8
0
  6
CONTINUOUS
 10
-41.0454038485206
 20
61.8637878857457
 30
0.0
 40
0.0
 41
0.0
  0
VERTEX
  5
   470
  8
0
  6
CONTINUOUS
 10
-41.1388165353278
 20
61.5409960857738
 30
0.0
 40
0.0
 41
0.0
  0
VERTEX
  5
   471
  8
0
  6
CONTINUOUS
 10
-41.2264865899689
 20
61.216422427373
 30
0.0
 40
0.0
 41
0.0
  0
VERTEX
  5
   472
  8
0
  6
CONTINUOUS
 10
-41.3087401021974
 20
60.8901812254568
 30
0.0
 40
0.0
 41
0.0
  0
VERTEX
  5
   473
  8
0
  6
CONTINUOUS
 10
-41.3859662510396
 20
60.5624005441187
 30
0.0
 40
0.0
 41
0.0
  0
VERTEX
  5
   474
  8
0
  6
CONTINUOUS
 10
-41.4586082456676
 20
60.2332200105748
 30
0.0
 40
0.0
 41
0.0
  0
VERTEX
  5
   475
  8
0
  6
CONTINUOUS
 10
-41.5271542662725
 20
59.9027886291069
 30
0.0
 40
0.0
 41
0.0
  0
VERTEX
  5
   476
  8
0
  6
CONTINUOUS
 10
-41.5921284049379
 20
59.5712625950049
 30
0.0
 40
0.0
 41
0.0
  0
VERTEX
  5
   477
  8
0
  6
CONTINUOUS
 10
-41.6540816065122
 20
59.2388031085097
 30
0.0
 40
0.0
 41
0.0
  0
VERTEX
  5
   478
  8
0
  6
CONTINUOUS
 10
-41.7135826094829
 20
58.9055741887562
 30
0.0
 40
0.0
 41
0.0
  0
VERTEX
  5
   479
  8
0
  6
CONTINUOUS
 10
-41.8275375869936
 20
58.2374651041406
 30
0.0
 40
0.0
 41
0.0
  0
VERTEX
  5
   47A
  8
0
  6
CONTINUOUS
 10
-42.0509009103998
 20
56.8990319375851
 30
0.0
 40
0.0
 41
0.0
  0
VERTEX
  5
   47B
  8
0
  6
CONTINUOUS
 10
-42.1682571742248
 20
56.2309244073073
 30
0.0
 40
0.0
 41
0.0
  0
VERTEX
  5
   47C
  8
0
  6
CONTINUOUS
 10
-42.2297333042505
 20
55.897534468481
 30
0.0
 40
0.0
 41
0.0
  0
VERTEX
  5
   47D
  8
0
  6
CONTINUOUS
 10
-42.2934302627559
 20
55.5646893943264
 30
0.0
 40
0.0
 41
0.0
  0
VERTEX
  5
   47E
  8
0
  6
CONTINUOUS
 10
-42.3557354853142
 20
55.2510972010935
 30
0.0
 40
0.0
 41
0.0
  0
VERTEX
  5
   47F
  8
0
  6
CONTINUOUS
 10
-42.4202371340446
 20
54.938060109809
 30
0.0
 40
0.0
 41
0.0
  0
VERTEX
  5
   480
  8
0
  6
CONTINUOUS
 10
-42.4869380387558
 20
54.6255854264623
 30
0.0
 40
0.0
 41
0.0
  0
VERTEX
  5
   481
  8
0
  6
CONTINUOUS
 10
-42.5557805984482
 20
54.3136649067298
 30
0.0
 40
0.0
 41
0.0
  0
VERTEX
  5
   482
  8
0
  6
CONTINUOUS
 10
-42.6993932407777
 20
53.6913847105151
 30
0.0
 40
0.0
 41
0.0
  0
VERTEX
  5
   483
  8
0
  6
CONTINUOUS
 10
-42.8496280384706
 20
53.0709000750149
 30
0.0
 40
0.0
 41
0.0
  0
VERTEX
  5
   484
  8
0
  6
CONTINUOUS
 10
-43.0044456471546
 20
52.4517396159364
 30
0.0
 40
0.0
 41
0.0
  0
VERTEX
  5
   485
  8
0
  6
CONTINUOUS
 10
-43.3178340243459
 20
51.2150365997683
 30
0.0
 40
0.0
 41
0.0
  0
VERTEX
  5
   486
  8
0
  6
CONTINUOUS
 10
-43.4710500651394
 20
50.5962274842903
 30
0.0
 40
0.0
 41
0.0
  0
VERTEX
  5
   487
  8
0
  6
CONTINUOUS
 10
-43.6185140326249
 20
49.9763062953261
 30
0.0
 40
0.0
 41
0.0
  0
VERTEX
  5
   488
  8
0
  6
CONTINUOUS
 10
-43.689385529285
 20
49.6657661451479
 30
0.0
 40
0.0
 41
0.0
  0
VERTEX
  5
   489
  8
0
  6
CONTINUOUS
 10
-43.7580342568457
 20
49.3547684593858
 30
0.0
 40
0.0
 41
0.0
  0
VERTEX
  5
   48A
  8
0
  6
CONTINUOUS
 10
-43.8261661638194
 20
49.0341723826386
 30
0.0
 40
0.0
 41
0.0
  0
VERTEX
  5
   48B
  8
0
  6
CONTINUOUS
 10
-43.8915839021856
 20
48.7130158242232
 30
0.0
 40
0.0
 41
0.0
  0
VERTEX
  5
   48C
  8
0
  6
CONTINUOUS
 10
-43.9541752217177
 20
48.3912784672208
 30
0.0
 40
0.0
 41
0.0
  0
VERTEX
  5
   48D
  8
0
  6
CONTINUOUS
 10
-44.0138715689811
 20
48.0689511431117
 30
0.0
 40
0.0
 41
0.0
  0
VERTEX
  5
   48E
  8
0
  6
CONTINUOUS
 10
-44.0706447379133
 20
47.7460348461338
 30
0.0
 40
0.0
 41
0.0
  0
VERTEX
  5
   48F
  8
0
  6
CONTINUOUS
 10
-44.1245035204037
 20
47.4225397476409
 30
0.0
 40
0.0
 41
0.0
  0
VERTEX
  5
   490
  8
0
  6
CONTINUOUS
 10
-44.1754903568744
 20
47.098484210461
 30
0.0
 40
0.0
 41
0.0
  0
VERTEX
  5
   491
  8
0
  6
CONTINUOUS
 10
-44.2236779868593
 20
46.7738938032545
 30
0.0
 40
0.0
 41
0.0
  0
VERTEX
  5
   492
  8
0
  6
CONTINUOUS
 10
-44.269166099585
 20
46.4488003148727
 30
0.0
 40
0.0
 41
0.0
  0
VERTEX
  5
   493
  8
0
  6
CONTINUOUS
 10
-44.3120779845506
 20
46.1232407687163
 30
0.0
 40
0.0
 41
0.0
  0
VERTEX
  5
   494
  8
0
  6
CONTINUOUS
 10
-44.3525571821075
 20
45.797256437093
 30
0.0
 40
0.0
 41
0.0
  0
VERTEX
  5
   495
  8
0
  6
CONTINUOUS
 10
-44.3907641340399
 20
45.4708918555766
 30
0.0
 40
0.0
 41
0.0
  0
VERTEX
  5
   496
  8
0
  6
CONTINUOUS
 10
-44.4610674788113
 20
44.8172104876379
 30
0.0
 40
0.0
 41
0.0
  0
VERTEX
  5
   497
  8
0
  6
CONTINUOUS
 10
-44.5244823038332
 20
44.1625807604213
 30
0.0
 40
0.0
 41
0.0
  0
VERTEX
  5
   498
  8
0
  6
CONTINUOUS
 10
-44.582558954121
 20
43.5073759006325
 30
0.0
 40
0.0
 41
0.0
  0
VERTEX
  5
   499
  8
0
  6
CONTINUOUS
 10
-44.6367966532995
 20
42.8519267256274
 30
0.0
 40
0.0
 41
0.0
  0
VERTEX
  5
   49A
  8
0
  6
CONTINUOUS
 10
-44.7274896614957
 20
41.6905603860576
 30
0.0
 40
0.0
 41
0.0
  0
VERTEX
  5
   49B
  8
0
  6
CONTINUOUS
 10
-44.906311852802
 20
39.370106060696
 30
0.0
 40
0.0
 41
0.0
  0
VERTEX
  5
   49C
  8
0
  6
CONTINUOUS
 10
-45.0017191981834
 20
38.2108794345047
 30
0.0
 40
0.0
 41
0.0
  0
VERTEX
  5
   49D
  8
0
  6
CONTINUOUS
 10
-45.0523207286696
 20
37.6314286125344
 30
0.0
 40
0.0
 41
0.0
  0
VERTEX
  5
   49E
  8
0
  6
CONTINUOUS
 10
-45.1054699314082
 20
37.0520949090321
 30
0.0
 40
0.0
 41
0.0
  0
VERTEX
  5
   49F
  8
0
  6
CONTINUOUS
 10
-45.1639784051286
 20
36.4505189577033
 30
0.0
 40
0.0
 41
0.0
  0
VERTEX
  5
   4A0
  8
0
  6
CONTINUOUS
 10
-45.2265906233469
 20
35.84923743966
 30
0.0
 40
0.0
 41
0.0
  0
VERTEX
  5
   4A1
  8
0
  6
CONTINUOUS
 10
-45.2941554040321
 20
35.2484129993449
 30
0.0
 40
0.0
 41
0.0
  0
VERTEX
  5
   4A2
  8
0
  6
CONTINUOUS
 10
-45.3675928425452
 20
34.648252356466
 30
0.0
 40
0.0
 41
0.0
  0
VERTEX
  5
   4A3
  8
0
  6
CONTINUOUS
 10
-45.4478632907993
 20
34.0489989749679
 30
0.0
 40
0.0
 41
0.0
  0
VERTEX
  5
   4A4
  8
0
  6
CONTINUOUS
 10
-45.490864377168
 20
33.749796832851
 30
0.0
 40
0.0
 41
0.0
  0
VERTEX
  5
   4A5
  8
0
  6
CONTINUOUS
 10
-45.5359363364188
 20
33.4509257320024
 30
0.0
 40
0.0
 41
0.0
  0
VERTEX
  5
   4A6
  8
0
  6
CONTINUOUS
 10
-45.5831967207281
 20
33.1524231751328
 30
0.0
 40
0.0
 41
0.0
  0
VERTEX
  5
   4A7
  8
0
  6
CONTINUOUS
 10
-45.6327597818989
 20
32.8543275868999
 30
0.0
 40
0.0
 41
0.0
  0
VERTEX
  5
   4A8
  8
0
  6
CONTINUOUS
 10
-45.68473550196
 20
32.5566780848133
 30
0.0
 40
0.0
 41
0.0
  0
VERTEX
  5
   4A9
  8
0
  6
CONTINUOUS
 10
-45.7392286237647
 20
32.2595142501405
 30
0.0
 40
0.0
 41
0.0
  0
VERTEX
  5
   4AA
  8
0
  6
CONTINUOUS
 10
-45.796337681589
 20
31.9628758988115
 30
0.0
 40
0.0
 41
0.0
  0
VERTEX
  5
   4AB
  8
0
  6
CONTINUOUS
 10
-45.8561540317311
 20
31.6668028523249
 30
0.0
 40
0.0
 41
0.0
  0
VERTEX
  5
   4AC
  8
0
  6
CONTINUOUS
 10
-45.9187608831095
 20
31.3713347086526
 30
0.0
 40
0.0
 41
0.0
  0
VERTEX
  5
   4AD
  8
0
  6
CONTINUOUS
 10
-45.984232327862
 20
31.0765106131457
 30
0.0
 40
0.0
 41
0.0
  0
VERTEX
  5
   4AE
  8
0
  6
CONTINUOUS
 10
-46.0529018109111
 20
30.7812364336979
 30
0.0
 40
0.0
 41
0.0
  0
VERTEX
  5
   4AF
  8
0
  6
CONTINUOUS
 10
-46.1245762501935
 20
30.4866879750927
 30
0.0
 40
0.0
 41
0.0
  0
VERTEX
  5
   4B0
  8
0
  6
CONTINUOUS
 10
-46.1992979641781
 20
30.1929018179772
 30
0.0
 40
0.0
 41
0.0
  0
VERTEX
  5
   4B1
  8
0
  6
CONTINUOUS
 10
-46.2770976551343
 20
29.899912755027
 30
0.0
 40
0.0
 41
0.0
  0
VERTEX
  5
   4B2
  8
0
  6
CONTINUOUS
 10
-46.35799421456
 20
29.6077533594287
 30
0.0
 40
0.0
 41
0.0
  0
VERTEX
  5
   4B3
  8
0
  6
CONTINUOUS
 10
-46.4419945286102
 20
29.3164535533629
 30
0.0
 40
0.0
 41
0.0
  0
VERTEX
  5
   4B4
  8
0
  6
CONTINUOUS
 10
-46.529093283525
 20
29.0260401764869
 30
0.0
 40
0.0
 41
0.0
  0
VERTEX
  5
   4B5
  8
0
  6
CONTINUOUS
 10
-46.6192727710578
 20
28.7365365544173
 30
0.0
 40
0.0
 41
0.0
  0
VERTEX
  5
   4B6
  8
0
  6
CONTINUOUS
 10
-46.7125026939036
 20
28.4479620672132
 30
0.0
 40
0.0
 41
0.0
  0
VERTEX
  5
   4B7
  8
0
  6
CONTINUOUS
 10
-46.8087399711271
 20
28.1603317178585
 30
0.0
 40
0.0
 41
0.0
  0
VERTEX
  5
   4B8
  8
0
  6
CONTINUOUS
 10
-46.9079285435912
 20
27.8736557007447
 30
0.0
 40
0.0
 41
0.0
  0
VERTEX
  5
   4B9
  8
0
  6
CONTINUOUS
 10
-47.0099991793847
 20
27.5879389701541
 30
0.0
 40
0.0
 41
0.0
  0
VERTEX
  5
   4BA
  8
0
  6
CONTINUOUS
 10
-47.114869279251
 20
27.3031808087418
 30
0.0
 40
0.0
 41
0.0
  0
VERTEX
  5
   4BB
  8
0
  6
CONTINUOUS
 10
-47.2224426820161
 20
27.0193743960194
 30
0.0
 40
0.0
 41
0.0
  0
VERTEX
  5
   4BC
  8
0
  6
CONTINUOUS
 10
-47.3326094700169
 20
26.7365063768367
 30
0.0
 40
0.0
 41
0.0
  0
VERTEX
  5
   4BD
  8
0
  6
CONTINUOUS
 10
-47.4452457745293
 20
26.4545564298655
 30
0.0
 40
0.0
 41
0.0
  0
VERTEX
  5
   4BE
  8
0
  6
CONTINUOUS
 10
-47.5602135811965
 20
26.1734968360816
 30
0.0
 40
0.0
 41
0.0
  0
VERTEX
  5
   4BF
  8
0
  6
CONTINUOUS
 10
-47.6773605354571
 20
25.8932920472479
 30
0.0
 40
0.0
 41
0.0
  0
VERTEX
  5
   4C0
  8
0
  6
CONTINUOUS
 10
-47.9175096000604
 20
25.3352629563141
 30
0.0
 40
0.0
 41
0.0
  0
VERTEX
  5
   4C1
  8
0
  6
CONTINUOUS
 10
-48.1497780277908
 20
24.8120339635616
 30
0.0
 40
0.0
 41
0.0
  0
VERTEX
  5
   4C2
  8
0
  6
CONTINUOUS
 10
-48.386396223811
 20
24.2907775570958
 30
0.0
 40
0.0
 41
0.0
  0
VERTEX
  5
   4C3
  8
0
  6
CONTINUOUS
 10
-49.3451647941356
 20
22.2133916732258
 30
0.0
 40
0.0
 41
0.0
  0
VERTEX
  5
   4C4
  8
0
  6
CONTINUOUS
 10
-49.5806133139397
 20
21.6928930194302
 30
0.0
 40
0.0
 41
0.0
  0
VERTEX
  5
   4C5
  8
0
  6
CONTINUOUS
 10
-49.8120607252461
 20
21.1708951523152
 30
0.0
 40
0.0
 41
0.0
  0
VERTEX
  5
   4C6
  8
0
  6
CONTINUOUS
 10
-50.0388819857441
 20
20.647073526551
 30
0.0
 40
0.0
 41
0.0
  0
VERTEX
  5
   4C7
  8
0
  6
CONTINUOUS
 10
-50.2608759906041
 20
20.1212727373545
 30
0.0
 40
0.0
 41
0.0
  0
VERTEX
  5
   4C8
  8
0
  6
CONTINUOUS
 10
-50.4559927856409
 20
19.6483190173353
 30
0.0
 40
0.0
 41
0.0
  0
VERTEX
  5
   4C9
  8
0
  6
CONTINUOUS
 10
-50.648038024134
 20
19.173997628536
 30
0.0
 40
0.0
 41
0.0
  0
VERTEX
  5
   4CA
  8
0
  6
CONTINUOUS
 10
-51.4049689829094
 20
17.2702273783825
 30
0.0
 40
0.0
 41
0.0
  0
VERTEX
  5
   4CB
  8
0
  6
CONTINUOUS
 10
-51.5969878707269
 20
16.7948375446268
 30
0.0
 40
0.0
 41
0.0
  0
VERTEX
  5
   4CC
  8
0
  6
CONTINUOUS
 10
-51.792147524921
 20
16.3204910247596
 30
0.0
 40
0.0
 41
0.0
  0
VERTEX
  5
   4CD
  8
0
  6
CONTINUOUS
 10
-51.9911014965409
 20
15.8474764104734
 30
0.0
 40
0.0
 41
0.0
  0
VERTEX
  5
   4CE
  8
0
  6
CONTINUOUS
 10
-52.1941532628025
 20
15.3759557965037
 30
0.0
 40
0.0
 41
0.0
  0
VERTEX
  5
   4CF
  8
0
  6
CONTINUOUS
 10
-52.4234882558403
 20
14.8558158422524
 30
0.0
 40
0.0
 41
0.0
  0
VERTEX
  5
   4D0
  8
0
  6
CONTINUOUS
 10
-52.6567884662308
 20
14.3372469017987
 30
0.0
 40
0.0
 41
0.0
  0
VERTEX
  5
   4D1
  8
0
  6
CONTINUOUS
 10
-53.128729392251
 20
13.3026635879264
 30
0.0
 40
0.0
 41
0.0
  0
VERTEX
  5
   4D2
  8
0
  6
CONTINUOUS
 10
-53.3630271168508
 20
12.7851708066478
 30
0.0
 40
0.0
 41
0.0
  0
VERTEX
  5
   4D3
  8
0
  6
CONTINUOUS
 10
-53.5929127193324
 20
12.2664056481404
 30
0.0
 40
0.0
 41
0.0
  0
VERTEX
  5
   4D4
  8
0
  6
CONTINUOUS
 10
-53.7054032079153
 20
12.0062688635637
 30
0.0
 40
0.0
 41
0.0
  0
VERTEX
  5
   4D5
  8
0
  6
CONTINUOUS
 10
-53.8158437323855
 20
11.745484943354
 30
0.0
 40
0.0
 41
0.0
  0
VERTEX
  5
   4D6
  8
0
  6
CONTINUOUS
 10
-53.9239379070912
 20
11.4839508869728
 30
0.0
 40
0.0
 41
0.0
  0
VERTEX
  5
   4D7
  8
0
  6
CONTINUOUS
 10
-54.0294070783121
 20
11.2215700194145
 30
0.0
 40
0.0
 41
0.0
  0
VERTEX
  5
   4D8
  8
0
  6
CONTINUOUS
 10
-54.1319951468002
 20
10.9582537634666
 30
0.0
 40
0.0
 41
0.0
  0
VERTEX
  5
   4D9
  8
0
  6
CONTINUOUS
 10
-54.2314733903202
 20
10.6939234119714
 30
0.0
 40
0.0
 41
0.0
  0
VERTEX
  5
   4DA
  8
0
  6
CONTINUOUS
 10
-54.3276452861895
 20
10.4285119000861
 30
0.0
 40
0.0
 41
0.0
  0
VERTEX
  5
   4DB
  8
0
  6
CONTINUOUS
 10
-54.4203513338191
 20
10.1619655775442
 30
0.0
 40
0.0
 41
0.0
  0
VERTEX
  5
   4DC
  8
0
  6
CONTINUOUS
 10
-54.5008128417502
 20
9.92080351175237
 30
0.0
 40
0.0
 41
0.0
  0
VERTEX
  5
   4DD
  8
0
  6
CONTINUOUS
 10
-54.5783096594581
 20
9.67867191107669
 30
0.0
 40
0.0
 41
0.0
  0
VERTEX
  5
   4DE
  8
0
  6
CONTINUOUS
 10
-54.6528154741339
 20
9.4355643414133
 30
0.0
 40
0.0
 41
0.0
  0
VERTEX
  5
   4DF
  8
0
  6
CONTINUOUS
 10
-54.7243306115091
 20
9.19148403551221
 30
0.0
 40
0.0
 41
0.0
  0
VERTEX
  5
   4E0
  8
0
  6
CONTINUOUS
 10
-54.7928799778634
 20
8.9464431382259
 30
0.0
 40
0.0
 41
0.0
  0
VERTEX
  5
   4E1
  8
0
  6
CONTINUOUS
 10
-54.858511002033
 20
8.70046195175806
 30
0.0
 40
0.0
 41
0.0
  0
VERTEX
  5
   4E2
  8
0
  6
CONTINUOUS
 10
-54.9212915774189
 20
8.45356818091224
 30
0.0
 40
0.0
 41
0.0
  0
VERTEX
  5
   4E3
  8
0
  6
CONTINUOUS
 10
-54.9813080039945
 20
8.20579617834051
 30
0.0
 40
0.0
 41
0.0
  0
VERTEX
  5
   4E4
  8
0
  6
CONTINUOUS
 10
-55.0386629303144
 20
7.95718618979214
 30
0.0
 40
0.0
 41
0.0
  0
VERTEX
  5
   4E5
  8
0
  6
CONTINUOUS
 10
-55.0934732955217
 20
7.70778359936226
 30
0.0
 40
0.0
 41
0.0
  0
VERTEX
  5
   4E6
  8
0
  6
CONTINUOUS
 10
-55.1458682713571
 20
7.45763817474054
 30
0.0
 40
0.0
 41
0.0
  0
VERTEX
  5
   4E7
  8
0
  6
CONTINUOUS
 10
-55.1959872041661
 20
7.20680331245986
 30
0.0
 40
0.0
 41
0.0
  0
VERTEX
  5
   4E8
  8
0
  6
CONTINUOUS
 10
-55.2439775569078
 20
6.95533528314495
 30
0.0
 40
0.0
 41
0.0
  0
VERTEX
  5
   4E9
  8
0
  6
CONTINUOUS
 10
-55.2899928511627
 20
6.70329247676111
 30
0.0
 40
0.0
 41
0.0
  0
VERTEX
  5
   4EA
  8
0
  6
CONTINUOUS
 10
-55.3767302956898
 20
6.19772216084247
 30
0.0
 40
0.0
 41
0.0
  0
VERTEX
  5
   4EB
  8
0
  6
CONTINUOUS
 10
-55.4574706791295
 20
5.69057319068647
 30
0.0
 40
0.0
 41
0.0
  0
VERTEX
  5
   4EC
  8
0
  6
CONTINUOUS
 10
-55.5334503693272
 20
5.18231199763911
 30
0.0
 40
0.0
 41
0.0
  0
VERTEX
  5
   4ED
  8
0
  6
CONTINUOUS
 10
-55.6073044360307
 20
4.662597761161
 30
0.0
 40
0.0
 41
0.0
  0
VERTEX
  5
   4EE
  8
0
  6
CONTINUOUS
 10
-55.6784292883979
 20
4.14256562891271
 30
0.0
 40
0.0
 41
0.0
  0
VERTEX
  5
   4EF
  8
0
  6
CONTINUOUS
 10
-56.0875573342311
 20
1.03064530514073
 30
0.0
 40
0.0
 41
0.0
  0
VERTEX
  5
   4F0
  8
0
  6
CONTINUOUS
 10
-56.2269977236929
 20
1.72054122987471E-4
 30
0.0
 40
0.0
 41
0.0
  0
SEQEND
  5
   4F1
  8
0
  6
CONTINUOUS
 62
     1
  0
LINE
  5
   4F2
  8
0
  6
CONTINUOUS
 62
     1
 10
-37.5
 20
01.0
 30
0.0
 11
-37.5
 21
68.7259176301667
 31
0.0
  0
LINE
  5
   4F3
  8
0
  6
CONTINUOUS
 62
     1
 10
-41.1
 20
01.0
 30
0.0
 11
-41.1
 21
61.6778308000988
 31
0.0
  0
LINE
  5
   4F4
  8
0
  6
CONTINUOUS
 62
     1
 10
-44.7
 20
01.0
 30
0.0
 11
-44.7
 21
42.0484377567858
 31
0.0
  0
LINE
  5
   4F5
  8
0
  6
CONTINUOUS
 62
     1
 10
-48.3
 20
01.0
 30
0.0
 11
-48.3
 21
24.4800148273759
 31
0.0
  0
LINE
  5
   4F6
  8
0
  6
CONTINUOUS
 62
     1
 10
-51.9
 20
01.0
 30
0.0
 11
-51.9
 21
16.0627054645726
 31
0.0
  0
LINE
  5
   4F7
  8
0
  6
CONTINUOUS
 62
     1
 10
-55.5
 20
01.0
 30
0.0
 11
-55.5
 21
5.4096141640416
 31
0.0
  0
ENDBLK
  5
   4F8
  8
0
  6
CONTINUOUS
 62
     7
  0
BLOCK
  5
   4F9
  8
0
  6
CONTINUOUS
 62
     7
  2
$1MOSTRINA
 70
    64
 10
0.0
 20
0.0
 30
0.0
  3
$1MOSTRINA
  0
LINE
  5
   4FA
  8
0
  6
CONTINUOUS
 62
     3
 10
173.338256835938
 20
30.7306251525879
 30
0.0
 11
173.338256835938
 21
189.230621337891
 31
0.0
  0
LINE
  5
   4FB
  8
0
  6
CONTINUOUS
 62
     3
 10
57.5882568359375
 20
29.4806251525879
 30
0.0
 11
172.088256835938
 21
29.4806251525879
 31
0.0
  0
LINE
  5
   4FC
  8
0
  6
CONTINUOUS
 62
     3
 10
56.3382568359375
 20
30.7306251525879
 30
0.0
 11
56.3382568359375
 21
189.230621337891
 31
0.0
  0
LINE
  5
   4FD
  8
0
  6
CONTINUOUS
 62
     3
 10
57.5882568359375
 20
190.480621337891
 30
0.0
 11
172.088256835938
 21
190.480621337891
 31
0.0
  0
LINE
  5
   4FE
  8
0
  6
CONTINUOUS
 62
     3
 10
167.838256835938
 20
56.9806251525879
 30
0.0
 11
167.838256835938
 21
162.980625152588
 31
0.0
  0
LINE
  5
   4FF
  8
0
  6
CONTINUOUS
 62
     3
 10
61.8382568359375
 20
56.9806251525879
 30
0.0
 11
167.838256835938
 21
56.9806251525879
 31
0.0
  0
LINE
  5
   500
  8
0
  6
CONTINUOUS
 62
     3
 10
61.8382568359375
 20
56.9806251525879
 30
0.0
 11
61.8382568359375
 21
162.980625152588
 31
0.0
  0
LINE
  5
   501
  8
0
  6
CONTINUOUS
 62
     3
 10
61.8382568359375
 20
162.980621337891
 30
0.0
 11
167.838256835938
 21
162.980621337891
 31
0.0
  0
LINE
  5
   502
  8
0
  6
CONTINUOUS
 62
     3
 10
168.838256835938
 20
48.4806251525879
 30
0.0
 11
168.838256835938
 21
49.4806251525879
 31
0.0
  0
LINE
  5
   503
  8
0
  6
CONTINUOUS
 62
     3
 10
61.8382568359375
 20
50.4806251525879
 30
0.0
 11
167.838256835938
 21
50.4806251525879
 31
0.0
  0
LINE
  5
   504
  8
0
  6
CONTINUOUS
 62
     3
 10
60.8382568359375
 20
48.4806251525879
 30
0.0
 11
60.8382568359375
 21
49.4806251525879
 31
0.0
  0
LINE
  5
   505
  8
0
  6
CONTINUOUS
 62
     3
 10
61.8382568359375
 20
49.4806251525879
 30
0.0
 11
167.838256835938
 21
49.4806251525879
 31
0.0
  0
LINE
  5
   506
  8
0
  6
CONTINUOUS
 62
     3
 10
60.8382568359375
 20
29.4806251525879
 30
0.0
 11
60.8382568359375
 21
48.4806251525879
 31
0.0
  0
LINE
  5
   507
  8
0
  6
CONTINUOUS
 62
     3
 10
60.8382568359375
 20
49.4806213378906
 30
0.0
 11
60.8382568359375
 21
190.480621337891
 31
0.0
  0
LINE
  5
   508
  8
0
  6
CONTINUOUS
 62
     3
 10
61.8382568359375
 20
29.4806251525879
 30
0.0
 11
61.8382568359375
 21
49.4806251525879
 31
0.0
  0
LINE
  5
   509
  8
0
  6
CONTINUOUS
 62
     3
 10
61.8382568359375
 20
162.980621337891
 30
0.0
 11
61.8382568359375
 21
169.480621337891
 31
0.0
  0
LINE
  5
   50A
  8
0
  6
CONTINUOUS
 62
     3
 10
61.8382568359375
 20
50.4806251525879
 30
0.0
 11
61.8382568359375
 21
56.9806251525879
 31
0.0
  0
LINE
  5
   50B
  8
0
  6
CONTINUOUS
 62
     3
 10
168.838256835938
 20
29.4806251525879
 30
0.0
 11
168.838256835938
 21
48.4806251525879
 31
0.0
  0
LINE
  5
   50C
  8
0
  6
CONTINUOUS
 62
     3
 10
168.838256835938
 20
49.4806251525879
 30
0.0
 11
168.838256835938
 21
190.480621337891
 31
0.0
  0
LINE
  5
   50D
  8
0
  6
CONTINUOUS
 62
     3
 10
167.838256835938
 20
50.4806251525879
 30
0.0
 11
167.838256835938
 21
56.9806251525879
 31
0.0
  0
LINE
  5
   50E
  8
0
  6
CONTINUOUS
 62
     3
 10
167.838256835938
 20
162.980621337891
 30
0.0
 11
167.838256835938
 21
169.480621337891
 31
0.0
  0
LINE
  5
   50F
  8
0
  6
CONTINUOUS
 62
     3
 10
167.838256835938
 20
29.4806251525879
 30
0.0
 11
167.838256835938
 21
49.4806251525879
 31
0.0
  0
LINE
  5
   510
  8
0
  6
CONTINUOUS
 62
     3
 10
60.8382568359375
 20
170.480621337891
 30
0.0
 11
168.838256835938
 21
170.480621337891
 31
0.0
  0
LINE
  5
   511
  8
0
  6
CONTINUOUS
 62
     3
 10
61.8382568359375
 20
169.480621337891
 30
0.0
 11
167.838256835938
 21
169.480621337891
 31
0.0
  0
ARC
  5
   512
  8
0
  6
CONTINUOUS
 62
     3
 10
57.5882568359375
 20
30.7306251525879
 30
0.0
 40
1.25
 50
180.0
 51
270.0
  0
ARC
  5
   513
  8
0
  6
CONTINUOUS
 62
     3
 10
172.088256835938
 20
30.7306251525879
 30
0.0
 40
1.25
 50
270.0
 51
360.0
  0
ARC
  5
   514
  8
0
  6
CONTINUOUS
 62
     3
 10
172.088256835938
 20
189.230621337891
 30
0.0
 40
1.25
 50
0.0
 51
90.0
  0
ARC
  5
   515
  8
0
  6
CONTINUOUS
 62
     3
 10
57.5882568359375
 20
189.230621337891
 30
0.0
 40
1.25
 50
90.0
 51
180.0
  0
LINE
  5
   516
  8
0
  6
DOT
 62
     3
 10
60.3382577409677
 20
179.7306252571
 30
0.0
 11
60.8382568359375
 21
179.7306252571
 31
0.0
  0
LINE
  5
   517
  8
0
  6
DOT
 62
     3
 10
60.3382577409676
 20
181.2306252571
 30
0.0
 11
60.8382568359375
 21
181.2306252571
 31
0.0
  0
LINE
  5
   518
  8
0
  6
CONTINUOUS
 62
     3
 10
168.338257745313
 20
179.730625257273
 30
0.0
 11
168.838256835938
 21
179.730625257273
 31
0.0
  0
LINE
  5
   519
  8
0
  6
CONTINUOUS
 62
     3
 10
168.338257745314
 20
181.230625257273
 30
0.0
 11
168.838256835938
 21
181.230625257273
 31
0.0
  0
ARC
  5
   51A
  8
0
  6
DOT
 62
     3
 10
60.3382577401871
 20
180.480625257147
 30
0.0
 40
0.749999999345164
 50
90.0
 51
270.0
  0
ARC
  5
   51B
  8
0
  6
CONTINUOUS
 62
     3
 10
61.338257740822
 20
180.480625256974
 30
0.0
 40
0.750000000009701
 50
270.0
 51
450.0
  0
LINE
  5
   51C
  8
0
  6
CONTINUOUS
 62
     3
 10
60.8382568359375
 20
181.2306252571
 30
0.0
 11
61.3382577409688
 21
181.2306252571
 31
0.0
  0
LINE
  5
   51D
  8
0
  6
CONTINUOUS
 62
     3
 10
60.8382568359375
 20
179.7306252571
 30
0.0
 11
61.3382577409689
 21
179.7306252571
 31
0.0
  0
ARC
  5
   51E
  8
0
  6
CONTINUOUS
 62
     3
 10
168.338257745503
 20
180.480625256952
 30
0.0
 40
0.750000000048506
 50
90.0000000038822
 51
269.999999996024
  0
ARC
  5
   51F
  8
0
  6
DOT
 62
     3
 10
169.338257745421
 20
180.480625256965
 30
0.0
 40
0.750000000029104
 50
270.000000002449
 51
449.999999997486
  0
LINE
  5
   520
  8
0
  6
DOT
 62
     3
 10
168.838256835938
 20
181.230625257273
 30
0.0
 11
169.338257745315
 21
181.230625257273
 31
0.0
  0
LINE
  5
   521
  8
0
  6
DOT
 62
     3
 10
168.838256835938
 20
179.730625257273
 30
0.0
 11
169.338257745315
 21
179.730625257273
 31
0.0
  0
POINT
  5
   522
  8
0
  6
CONTINUOUS
 62
     3
 10
114.838256835938
 20
109.980621337891
 30
0.0
  0
ENDBLK
  5
   523
  8
0
  6
CONTINUOUS
 62
     7
  0
BLOCK
  5
   524
  8
0
  6
CONTINUOUS
 62
     7
  2
S4LL-FT
 70
    64
 10
0.0
 20
0.0
 30
0.0
  3
S4LL-FT
  0
LINE
  5
   525
  8
0
  6
CONTINUOUS
 62
     7
 10
164.838221155133
 20
279.437042236328
 30
0.0
 11
167.338221155133
 21
279.437042236328
 31
0.0
  0
LINE
  5
   526
  8
0
  6
CONTINUOUS
 62
     7
 10
164.838221155133
 20
279.437042236328
 30
0.0
 11
164.838221155133
 21
281.237045288086
 31
0.0
  0
LINE
  5
   527
  8
0
  6
CONTINUOUS
 62
     7
 10
64.0882153801636
 20
282.237045288086
 30
0.0
 11
95.5882153801636
 21
282.237045288086
 31
0.0
  0
LINE
  5
   528
  8
0
  6
CONTINUOUS
 62
     7
 10
99.0882153801636
 20
282.237045288086
 30
0.0
 11
130.588285608494
 21
282.237045288086
 31
0.0
  0
LINE
  5
   529
  8
0
  6
CONTINUOUS
 62
     7
 10
134.088285608494
 20
282.237045288086
 30
0.0
 11
163.838221155133
 21
282.237045288086
 31
0.0
  0
LINE
  5
   52A
  8
0
  6
CONTINUOUS
 62
     7
 10
29.8382211551328
 20
279.437042236328
 30
0.0
 11
29.8382211551328
 21
281.237045288086
 31
0.0
  0
LINE
  5
   52B
  8
0
  6
CONTINUOUS
 62
     7
 10
27.3382211551328
 20
279.437042236328
 30
0.0
 11
29.8382211551328
 21
279.437042236328
 31
0.0
  0
LINE
  5
   52C
  8
0
  6
CONTINUOUS
 62
     7
 10
94.8382153801636
 20
275.737045288086
 30
0.0
 11
99.8382153801636
 21
275.737045288086
 31
0.0
  0
LINE
  5
   52D
  8
0
  6
CONTINUOUS
 62
     7
 10
164.838221155133
 20
257.737060358292
 30
0.0
 11
164.838221155133
 21
279.437042236328
 31
0.0
  0
LINE
  5
   52E
  8
0
  6
CONTINUOUS
 62
     7
 10
29.838215227461
 20
257.737060358292
 30
0.0
 11
29.838215227461
 21
279.437042236328
 31
0.0
  0
CIRCLE
  5
   52F
  8
0
  6
CONTINUOUS
 62
     7
 10
79.8382205439531
 20
269.737036186518
 30
0.0
 40
5.50000138230246
  0
CIRCLE
  5
   530
  8
0
  6
CONTINUOUS
 62
     7
 10
97.3382153801636
 20
266.737049118457
 30
0.0
 40
4.49999313784714
  0
CIRCLE
  5
   531
  8
0
  6
CONTINUOUS
 62
     7
 10
114.838250494329
 20
269.737033973605
 30
0.0
 40
5.50003112278591
  0
CIRCLE
  5
   532
  8
0
  6
CONTINUOUS
 62
     7
 10
132.338224513105
 20
266.737052145727
 30
0.0
 40
4.49999974183164
  0
CIRCLE
  5
   533
  8
0
  6
CONTINUOUS
 62
     7
 10
149.838227556256
 20
269.737077502914
 30
0.0
 40
5.49997199911823
  0
ARC
  5
   534
  8
0
  6
CONTINUOUS
 62
     7
 10
163.838226578776
 20
281.237051813324
 30
0.0
 40
0.999995204790465
 50
359.999798812773
 51
450.000230940986
  0
ARC
  5
   535
  8
0
  6
CONTINUOUS
 62
     7
 10
30.8382237060691
 20
281.237046420416
 30
0.0
 40
1.00000399112945
 50
90.0000472705142
 51
180.000478836281
  0
LINE
  5
   536
  8
0
  6
DASHDOT
 62
     7
 10
79.8382205439532
 20
261.237034804215
 30
0.0
 11
79.8382205439532
 21
278.23703756882
 31
0.0
  0
LINE
  5
   537
  8
0
  6
DASHDOT
 62
     7
 10
71.3382191616507
 20
269.737036186518
 30
0.0
 11
88.3382219262556
 21
269.737036186518
 31
0.0
  0
LINE
  5
   538
  8
0
  6
DASHDOT
 62
     7
 10
97.3382153801636
 20
259.23705598061
 30
0.0
 11
97.3382153801636
 21
284.600662158666
 31
0.0
  0
LINE
  5
   539
  8
0
  6
DASHDOT
 62
     7
 10
89.8382222423165
 20
266.737049118457
 30
0.0
 11
104.838208518011
 21
266.737049118457
 31
0.0
  0
LINE
  5
   53A
  8
0
  6
DASHDOT
 62
     7
 10
149.838227556256
 20
261.237105503795
 30
0.0
 11
149.838227556256
 21
278.237049502032
 31
0.0
  0
LINE
  5
   53B
  8
0
  6
DASHDOT
 62
     7
 10
141.338255557138
 20
269.737077502914
 30
0.0
 11
158.338199555374
 21
269.737077502914
 31
0.0
  0
LINE
  5
   53C
  8
0
  6
CONTINUOUS
 62
     7
 10
95.5882153801636
 20
279.237045288086
 30
0.0
 11
95.5882153801636
 21
282.237045288086
 31
0.0
  0
LINE
  5
   53D
  8
0
  6
CONTINUOUS
 62
     7
 10
99.0882153801636
 20
279.237045288086
 30
0.0
 11
99.0882153801636
 21
282.237045288086
 31
0.0
  0
LINE
  5
   53E
  8
0
  6
CONTINUOUS
 62
     7
 10
94.8382153801636
 20
275.737045288086
 30
0.0
 11
94.8382153801636
 21
279.237045288086
 31
0.0
  0
LINE
  5
   53F
  8
0
  6
CONTINUOUS
 62
     7
 10
99.8382153801636
 20
275.737045288086
 30
0.0
 11
99.8382153801636
 21
279.237045288086
 31
0.0
  0
LINE
  5
   540
  8
0
  6
CONTINUOUS
 62
     7
 10
99.0882153801636
 20
279.237045288086
 30
0.0
 11
99.8382153801636
 21
279.237045288086
 31
0.0
  0
LINE
  5
   541
  8
0
  6
CONTINUOUS
 62
     7
 10
94.8382153801636
 20
279.237045288086
 30
0.0
 11
95.5882153801636
 21
279.237045288086
 31
0.0
  0
LINE
  5
   542
  8
0
  6
CONTINUOUS
 62
     7
 10
130.588285608494
 20
279.237045288086
 30
0.0
 11
130.588285608494
 21
282.237045288086
 31
0.0
  0
LINE
  5
   543
  8
0
  6
CONTINUOUS
 62
     7
 10
134.088285608494
 20
279.237045288086
 30
0.0
 11
134.088285608494
 21
282.237045288086
 31
0.0
  0
LINE
  5
   544
  8
0
  6
CONTINUOUS
 62
     7
 10
134.838285608494
 20
275.737045288086
 30
0.0
 11
134.838285608494
 21
279.237045288086
 31
0.0
  0
LINE
  5
   545
  8
0
  6
CONTINUOUS
 62
     7
 10
129.838285608494
 20
275.737045288086
 30
0.0
 11
134.838285608494
 21
275.737045288086
 31
0.0
  0
LINE
  5
   546
  8
0
  6
CONTINUOUS
 62
     7
 10
129.838285608494
 20
275.737045288086
 30
0.0
 11
129.838285608494
 21
279.237045288086
 31
0.0
  0
LINE
  5
   547
  8
0
  6
CONTINUOUS
 62
     7
 10
134.088285608494
 20
279.237045288086
 30
0.0
 11
134.838285608494
 21
279.237045288086
 31
0.0
  0
LINE
  5
   548
  8
0
  6
CONTINUOUS
 62
     7
 10
129.838285608494
 20
279.237045288086
 30
0.0
 11
130.588285608494
 21
279.237045288086
 31
0.0
  0
LINE
  5
   549
  8
0
  6
CONTINUOUS
 62
     7
 10
30.8382211551328
 20
282.237045288086
 30
0.0
 11
60.5882153801636
 21
282.237045288086
 31
0.0
  0
LINE
  5
   54A
  8
0
  6
CONTINUOUS
 62
     7
 10
59.8382153801636
 20
275.737045288086
 30
0.0
 11
64.8382153801636
 21
275.737045288086
 31
0.0
  0
CIRCLE
  5
   54B
  8
0
  6
CONTINUOUS
 62
     7
 10
44.8382205439531
 20
269.737036186518
 30
0.0
 40
5.50000138230246
  0
CIRCLE
  5
   54C
  8
0
  6
CONTINUOUS
 62
     7
 10
62.3382153801636
 20
266.737049118457
 30
0.0
 40
4.49999313784714
  0
LINE
  5
   54D
  8
0
  6
CONTINUOUS
 62
     7
 10
60.5882153801636
 20
279.237045288086
 30
0.0
 11
60.5882153801636
 21
282.237045288086
 31
0.0
  0
LINE
  5
   54E
  8
0
  6
CONTINUOUS
 62
     7
 10
64.0882153801636
 20
279.237045288086
 30
0.0
 11
64.0882153801636
 21
282.237045288086
 31
0.0
  0
LINE
  5
   54F
  8
0
  6
CONTINUOUS
 62
     7
 10
59.8382153801636
 20
275.737045288086
 30
0.0
 11
59.8382153801636
 21
279.237045288086
 31
0.0
  0
LINE
  5
   550
  8
0
  6
CONTINUOUS
 62
     7
 10
64.8382153801636
 20
275.737045288086
 30
0.0
 11
64.8382153801636
 21
279.237045288086
 31
0.0
  0
LINE
  5
   551
  8
0
  6
CONTINUOUS
 62
     7
 10
64.0882153801636
 20
279.237045288086
 30
0.0
 11
64.8382153801636
 21
279.237045288086
 31
0.0
  0
LINE
  5
   552
  8
0
  6
CONTINUOUS
 62
     7
 10
59.8382153801636
 20
279.237045288086
 30
0.0
 11
60.5882153801636
 21
279.237045288086
 31
0.0
  0
LINE
  5
   553
  8
0
  6
DASHDOT
 62
     7
 10
62.3382153801636
 20
252.23705598061
 30
0.0
 11
62.3382153801636
 21
281.237042256305
 31
0.0
  0
LINE
  5
   554
  8
0
  6
DASHDOT
 62
     7
 10
47.8382222423165
 20
266.737049118457
 30
0.0
 11
76.8382085180107
 21
266.737049118457
 31
0.0
  0
LINE
  5
   555
  8
0
  6
CONTINUOUS
 62
     2
 10
167.338250494329
 20
174.237060358292
 30
0.0
 11
167.338250494329
 21
257.737060358292
 31
0.0
  0
LINE
  5
   556
  8
0
  6
DASHDOT
 62
     7
 10
132.338224513105
 20
259.237052403896
 30
0.0
 11
132.338224513105
 21
274.237051887559
 31
0.0
  0
LINE
  5
   557
  8
0
  6
DASHDOT
 62
     7
 10
124.838224771274
 20
266.737052145727
 30
0.0
 11
139.838224254937
 21
266.737052145727
 31
0.0
  0
LINE
  5
   558
  8
0
  6
DASHDOT
 62
     7
 10
44.8382205439531
 20
261.237034804215
 30
0.0
 11
44.8382205439531
 21
278.23703756882
 31
0.0
  0
LINE
  5
   559
  8
0
  6
DASHDOT
 62
     7
 10
36.3382191616507
 20
269.737036186518
 30
0.0
 11
53.3382219262556
 21
269.737036186518
 31
0.0
  0
LINE
  5
   55A
  8
0
  6
CONTINUOUS
 62
     2
 10
27.3382099109952
 20
257.737060358292
 30
0.0
 11
167.338250494329
 21
257.737060358292
 31
0.0
  0
LINE
  5
   55B
  8
0
  6
CONTINUOUS
 62
     2
 10
27.3382099109952
 20
245.237060358292
 30
0.0
 11
167.338250494329
 21
245.237060358292
 31
0.0
  0
LINE
  5
   55C
  8
0
  6
CONTINUOUS
 62
     2
 10
27.3382099109952
 20
244.237060358292
 30
0.0
 11
167.338250494329
 21
244.237060358292
 31
0.0
  0
LINE
  5
   55D
  8
0
  6
CONTINUOUS
 62
     2
 10
27.3382099109952
 20
174.237060358292
 30
0.0
 11
167.338250494329
 21
174.237060358292
 31
0.0
  0
LINE
  5
   55E
  8
0
  6
CONTINUOUS
 62
     2
 10
28.3382099109951
 20
173.237060358292
 30
0.0
 11
166.338250494329
 21
173.237060358292
 31
0.0
  0
LINE
  5
   55F
  8
0
  6
CONTINUOUS
 62
     7
 10
167.338250494329
 20
257.737060358292
 30
0.0
 11
167.338250494329
 21
279.437042236328
 31
0.0
  0
LINE
  5
   560
  8
0
  6
CONTINUOUS
 62
     7
 10
27.3382099109952
 20
257.737060358292
 30
0.0
 11
27.3382099109952
 21
279.437042236328
 31
0.0
  0
LINE
  5
   561
  8
0
  6
CONTINUOUS
 62
     2
 10
27.3382099109952
 20
174.237060358292
 30
0.0
 11
27.3382099109952
 21
257.737060358292
 31
0.0
  0
LINE
  5
   562
  8
0
  6
CONTINUOUS
 62
     2
 10
28.3382099109951
 20
173.237060358292
 30
0.0
 11
28.3382099109951
 21
174.237060358292
 31
0.0
  0
LINE
  5
   563
  8
0
  6
CONTINUOUS
 62
     7
 10
62.4882504943289
 20
174.237060358292
 30
0.0
 11
62.4882504943289
 21
244.237060358292
 31
0.0
  0
LINE
  5
   564
  8
0
  6
CONTINUOUS
 62
     7
 10
29.9382504943568
 20
174.237060358292
 30
0.0
 11
29.9382504943568
 21
244.237060358292
 31
0.0
  0
LINE
  5
   565
  8
0
  6
CONTINUOUS
 62
     7
 10
33.5382504943568
 20
174.237060358292
 30
0.0
 11
33.5382504943568
 21
244.237060358292
 31
0.0
  0
LINE
  5
   566
  8
0
  6
CONTINUOUS
 62
     7
 10
37.1382504943568
 20
174.237060358292
 30
0.0
 11
37.1382504943568
 21
244.237060358292
 31
0.0
  0
LINE
  5
   567
  8
0
  6
CONTINUOUS
 62
     7
 10
40.7382504943568
 20
174.237060358292
 30
0.0
 11
40.7382504943568
 21
244.237060358292
 31
0.0
  0
LINE
  5
   568
  8
0
  6
CONTINUOUS
 62
     7
 10
44.3382504943568
 20
174.237060358292
 30
0.0
 11
44.3382504943568
 21
244.237060358292
 31
0.0
  0
LINE
  5
   569
  8
0
  6
CONTINUOUS
 62
     7
 10
47.9382504943568
 20
174.237060358292
 30
0.0
 11
47.9382504943568
 21
244.237060358292
 31
0.0
  0
LINE
  5
   56A
  8
0
  6
CONTINUOUS
 62
     7
 10
51.5382504943568
 20
174.237060358292
 30
0.0
 11
51.5382504943568
 21
244.237060358292
 31
0.0
  0
LINE
  5
   56B
  8
0
  6
CONTINUOUS
 62
     7
 10
55.1382504943568
 20
174.237060358292
 30
0.0
 11
55.1382504943568
 21
244.237060358292
 31
0.0
  0
LINE
  5
   56C
  8
0
  6
CONTINUOUS
 62
     7
 10
58.7382504943568
 20
174.237060358292
 30
0.0
 11
58.7382504943568
 21
244.237060358292
 31
0.0
  0
LINE
  5
   56D
  8
0
  6
CONTINUOUS
 62
     7
 10
62.4882504943289
 20
245.237060358292
 30
0.0
 11
62.4882504943289
 21
257.737060358292
 31
0.0
  0
LINE
  5
   56E
  8
0
  6
CONTINUOUS
 62
     7
 10
58.7382504943568
 20
245.237060358292
 30
0.0
 11
58.7382504943568
 21
257.737060358292
 31
0.0
  0
LINE
  5
   56F
  8
0
  6
CONTINUOUS
 62
     7
 10
55.1382504943568
 20
245.237060358292
 30
0.0
 11
55.1382504943568
 21
257.737060358292
 31
0.0
  0
LINE
  5
   570
  8
0
  6
CONTINUOUS
 62
     7
 10
51.5382504943568
 20
245.237060358292
 30
0.0
 11
51.5382504943568
 21
257.737060358292
 31
0.0
  0
LINE
  5
   571
  8
0
  6
CONTINUOUS
 62
     7
 10
47.9382504943568
 20
245.237060358292
 30
0.0
 11
47.9382504943568
 21
257.737060358292
 31
0.0
  0
LINE
  5
   572
  8
0
  6
CONTINUOUS
 62
     7
 10
44.3382504943568
 20
245.237060358292
 30
0.0
 11
44.3382504943568
 21
257.737060358292
 31
0.0
  0
LINE
  5
   573
  8
0
  6
CONTINUOUS
 62
     7
 10
40.7382504943568
 20
245.237060358292
 30
0.0
 11
40.7382504943568
 21
257.737060358292
 31
0.0
  0
LINE
  5
   574
  8
0
  6
CONTINUOUS
 62
     7
 10
37.1382504943568
 20
245.237060358292
 30
0.0
 11
37.1382504943568
 21
257.737060358292
 31
0.0
  0
LINE
  5
   575
  8
0
  6
CONTINUOUS
 62
     7
 10
33.5382504943568
 20
245.237060358292
 30
0.0
 11
33.5382504943568
 21
257.737060358292
 31
0.0
  0
LINE
  5
   576
  8
0
  6
CONTINUOUS
 62
     7
 10
29.9382504943568
 20
245.237060358292
 30
0.0
 11
29.9382504943568
 21
257.737060358292
 31
0.0
  0
LINE
  5
   577
  8
0
  6
CONTINUOUS
 62
     7
 10
27.3382099109952
 20
173.237060358292
 30
0.0
 11
28.3382099109951
 21
173.237060358292
 31
0.0
  0
POINT
  5
   578
  8
0
  6
CONTINUOUS
 62
     7
 10
114.838250494329
 20
282.237045288086
 30
0.0
  0
LINE
  5
   579
  8
0
  6
CONTINUOUS
 62
     2
 10
166.338250494329
 20
173.237060358292
 30
0.0
 11
166.338250494329
 21
174.237060358292
 31
0.0
  0
LINE
  5
   57A
  8
0
  6
CONTINUOUS
 62
     7
 10
166.338250494329
 20
173.237060358292
 30
0.0
 11
167.338250494329
 21
173.237060358292
 31
0.0
  0
LINE
  5
   57B
  8
0
  6
DASHDOT
 62
     7
 10
106.338219371543
 20
269.737033973605
 30
0.0
 11
123.338281617115
 21
269.737033973605
 31
0.0
  0
ENDBLK
  5
   57C
  8
0
  6
CONTINUOUS
 62
     7
  0
BLOCK
  5
   57D
  8
0
  6
CONTINUOUS
 62
     7
  2
*UDIM442
 70
    65
 10
0.0
 20
0.0
 30
0.0
  3
*UDIM442
  0
TEXT
  5
   57E
  8
0
  6
CONTINUOUS
 62
     7
 10
120.38350775088
 20
82.2675241572461
 30
0.0
 40
2.99999997871263
  1
161
 50
89.9999999480344
 41
0.933333333333333
 72
     1
 11
118.883507765056
 21
86.1675241309311
 31
0.0
 73
     2
  0
LINE
  5
   57F
  8
0
  6
CONTINUOUS
 62
     7
 10
105.731466481274
 20
58.2675254971547
 30
0.0
 11
123.383507754412
 21
58.2675254971547
 31
0.0
  0
LINE
  5
   580
  8
0
  6
CONTINUOUS
 62
     7
 10
105.731466481274
 20
114.617523202376
 30
0.0
 11
123.383507754412
 21
114.617523202376
 31
0.0
  0
LINE
  5
   581
  8
0
  6
CONTINUOUS
 62
     7
 10
121.383507754412
 20
58.2675254971547
 30
0.0
 11
121.383507754412
 21
114.617523202376
 31
0.0
  0
LINE
  5
   582
  8
0
  6
CONTINUOUS
 62
     7
 10
120.862563324461
 20
61.2219487743616
 30
0.0
 11
121.383507754412
 21
58.2675254971547
 31
0.0
  0
LINE
  5
   583
  8
0
  6
CONTINUOUS
 62
     7
 10
121.383507754412
 20
58.2675254971547
 30
0.0
 11
121.904452184364
 21
61.2219487743616
 31
0.0
  0
LINE
  5
   584
  8
0
  6
CONTINUOUS
 62
     7
 10
121.904452184364
 20
111.663099925169
 30
0.0
 11
121.383507754412
 21
114.617523202376
 31
0.0
  0
LINE
  5
   585
  8
0
  6
CONTINUOUS
 62
     7
 10
121.383507754412
 20
114.617523202376
 30
0.0
 11
120.862563324461
 21
111.663099925169
 31
0.0
  0
ENDBLK
  5
   586
  8
0
  6
CONTINUOUS
 62
     7
  0
BLOCK
  5
   587
  8
0
  6
CONTINUOUS
 62
     7
  2
*UDIM443
 70
    65
 10
0.0
 20
0.0
 30
0.0
  3
*UDIM443
  0
TEXT
  5
   588
  8
0
  6
CONTINUOUS
 62
     7
 10
38.6614157524484
 20
30.5550338038235
 30
0.0
 40
2.99999997871263
  1
46
 50
89.9999999480344
 41
0.933333333333333
 72
     1
 11
37.1614157653564
 21
33.0550337874426
 31
0.0
 73
     2
  0
LINE
  5
   589
  8
0
  6
CONTINUOUS
 62
     7
 10
70.8836611305697
 20
25.2800393569517
 30
0.0
 11
37.6614157547127
 21
25.2800393569517
 31
0.0
  0
LINE
  5
   58A
  8
0
  6
CONTINUOUS
 62
     7
 10
54.2939987883358
 20
41.3800312424434
 30
0.0
 11
37.6614157547127
 21
41.3800312424434
 31
0.0
  0
LINE
  5
   58B
  8
0
  6
CONTINUOUS
 62
     7
 10
39.6614157547127
 20
25.2800393569517
 30
0.0
 11
39.6614157547127
 21
41.3800312424434
 31
0.0
  0
LINE
  5
   58C
  8
0
  6
CONTINUOUS
 62
     7
 10
39.1404713247611
 20
28.2344626341587
 30
0.0
 11
39.6614157547127
 21
25.2800393569517
 31
0.0
  0
LINE
  5
   58D
  8
0
  6
CONTINUOUS
 62
     7
 10
39.6614157547127
 20
25.2800393569517
 30
0.0
 11
40.1823601846644
 21
28.2344626341587
 31
0.0
  0
LINE
  5
   58E
  8
0
  6
CONTINUOUS
 62
     7
 10
40.1823601846644
 20
38.4256079652365
 30
0.0
 11
39.6614157547127
 21
41.3800312424434
 31
0.0
  0
LINE
  5
   58F
  8
0
  6
CONTINUOUS
 62
     7
 10
39.6614157547127
 20
41.3800312424434
 30
0.0
 11
39.1404713247611
 21
38.4256079652365
 31
0.0
  0
ENDBLK
  5
   590
  8
0
  6
CONTINUOUS
 62
     7
  0
BLOCK
  5
   591
  8
0
  6
CONTINUOUS
 62
     7
  2
*UDIM444
 70
    65
 10
0.0
 20
0.0
 30
0.0
  3
*UDIM444
  0
TEXT
  5
   592
  8
0
  6
CONTINUOUS
 62
     7
 10
38.6614157511804
 20
96.5300292677454
 30
0.0
 40
2.99999997871263
  1
339
 50
89.9999999480344
 41
0.933333333333333
 72
     1
 11
37.1614157653564
 21
100.43002924143
 31
0.0
 73
     2
  0
LINE
  5
   593
  8
0
  6
CONTINUOUS
 62
     7
 10
54.2939518707591
 20
160.030029221846
 30
0.0
 11
37.6614157547127
 21
160.030029221846
 31
0.0
  0
LINE
  5
   594
  8
0
  6
CONTINUOUS
 62
     7
 10
39.6614157547127
 20
41.3800312424434
 30
0.0
 11
39.6614157547127
 21
160.030029221846
 31
0.0
  0
LINE
  5
   595
  8
0
  6
CONTINUOUS
 62
     7
 10
39.1404713247611
 20
44.3344545196504
 30
0.0
 11
39.6614157547127
 21
41.3800312424434
 31
0.0
  0
LINE
  5
   596
  8
0
  6
CONTINUOUS
 62
     7
 10
39.6614157547127
 20
41.3800312424434
 30
0.0
 11
40.1823601846644
 21
44.3344545196504
 31
0.0
  0
LINE
  5
   597
  8
0
  6
CONTINUOUS
 62
     7
 10
40.1823601846644
 20
157.075605944639
 30
0.0
 11
39.6614157547127
 21
160.030029221846
 31
0.0
  0
LINE
  5
   598
  8
0
  6
CONTINUOUS
 62
     7
 10
39.6614157547127
 20
160.030029221846
 30
0.0
 11
39.1404713247611
 21
157.075605944639
 31
0.0
  0
ENDBLK
  5
   599
  8
0
  6
CONTINUOUS
 62
     7
  0
BLOCK
  5
   59A
  8
0
  6
CONTINUOUS
 62
     7
  2
*UDIM445
 70
    65
 10
0.0
 20
0.0
 30
0.0
  3
*UDIM445
  0
TEXT
  5
   59B
  8
0
  6
CONTINUOUS
 62
     7
 10
46.3485698618416
 20
55.5362843716932
 30
0.0
 40
2.99999997871263
  1
128,75
 50
89.9999999480344
 41
0.933333333333333
 72
     1
 11
44.8485698798215
 21
63.6362843155758
 31
0.0
 73
     2
  0
LINE
  5
   59C
  8
0
  6
CONTINUOUS
 62
     7
 10
54.2939987883358
 20
41.3800312424434
 30
0.0
 11
45.3485698691779
 21
41.3800312424434
 31
0.0
  0
LINE
  5
   59D
  8
0
  6
CONTINUOUS
 62
     7
 10
47.3485698691779
 20
41.3800312424434
 30
0.0
 11
47.3485698691779
 21
86.4425370336348
 31
0.0
  0
LINE
  5
   59E
  8
0
  6
CONTINUOUS
 62
     7
 10
46.8276254392262
 20
44.3344545196504
 30
0.0
 11
47.3485698691779
 21
41.3800312424434
 31
0.0
  0
LINE
  5
   59F
  8
0
  6
CONTINUOUS
 62
     7
 10
47.3485698691779
 20
41.3800312424434
 30
0.0
 11
47.8695142991295
 21
44.3344545196504
 31
0.0
  0
LINE
  5
   5A0
  8
0
  6
CONTINUOUS
 62
     7
 10
47.8695142991295
 20
83.4881137564279
 30
0.0
 11
47.3485698691779
 21
86.4425370336348
 31
0.0
  0
LINE
  5
   5A1
  8
0
  6
CONTINUOUS
 62
     7
 10
47.3485698691779
 20
86.4425370336348
 30
0.0
 11
46.8276254392262
 21
83.4881137564279
 31
0.0
  0
ENDBLK
  5
   5A2
  8
0
  6
CONTINUOUS
 62
     7
  0
BLOCK
  5
   5A3
  8
0
  6
CONTINUOUS
 62
     7
  2
*UDIM446
 70
    65
 10
0.0
 20
0.0
 30
0.0
  3
*UDIM446
  0
TEXT
  5
   5A4
  8
0
  6
CONTINUOUS
 62
     7
 10
74.3939562634713
 20
181.982942226455
 30
0.0
 40
2.99999997871263
  1
140
 50
359.999999948034
 41
0.933333333333333
 72
     1
 11
78.2939562371506
 21
183.482942212294
 31
0.0
 73
     2
  0
LINE
  5
   5A5
  8
0
  6
CONTINUOUS
 62
     7
 10
103.068961325874
 20
160.05002817042
 30
0.0
 11
103.068961325874
 21
182.982942222938
 31
0.0
  0
LINE
  5
   5A6
  8
0
  6
CONTINUOUS
 62
     7
 10
54.0689479561726
 20
160.05002817042
 30
0.0
 11
54.0689479561726
 21
182.982942222938
 31
0.0
  0
LINE
  5
   5A7
  8
0
  6
CONTINUOUS
 62
     7
 10
103.068961325874
 20
180.982942222938
 30
0.0
 11
54.0689479561726
 21
180.982942222938
 31
0.0
  0
LINE
  5
   5A8
  8
0
  6
CONTINUOUS
 62
     7
 10
100.114538048667
 20
180.461997792986
 30
0.0
 11
103.068961325874
 21
180.982942222938
 31
0.0
  0
LINE
  5
   5A9
  8
0
  6
CONTINUOUS
 62
     7
 10
103.068961325874
 20
180.982942222938
 30
0.0
 11
100.114538048667
 21
181.503886652889
 31
0.0
  0
LINE
  5
   5AA
  8
0
  6
CONTINUOUS
 62
     7
 10
57.0233712333796
 20
181.503886652889
 30
0.0
 11
54.0689479561726
 21
180.982942222938
 31
0.0
  0
LINE
  5
   5AB
  8
0
  6
CONTINUOUS
 62
     7
 10
54.0689479561726
 20
180.982942222938
 30
0.0
 11
57.0233712333796
 21
180.461997792986
 31
0.0
  0
ENDBLK
  5
   5AC
  8
0
  6
CONTINUOUS
 62
     7
  0
BLOCK
  5
   5AD
  8
0
  6
CONTINUOUS
 62
     7
  2
*UDIM447
 70
    65
 10
0.0
 20
0.0
 30
0.0
  3
*UDIM447
  0
TEXT
  5
   5AE
  8
0
  6
CONTINUOUS
 62
     7
 10
89.0621841702307
 20
174.145977944677
 30
0.0
 40
2.99999997871263
  1
52,5
 50
359.999999948034
 41
0.933333333333333
 72
     1
 11
94.362184133976
 21
175.645977929253
 31
0.0
 73
     2
  0
LINE
  5
   5AF
  8
0
  6
CONTINUOUS
 62
     7
 10
103.068961325874
 20
160.05002817042
 30
0.0
 11
103.068961325874
 21
175.145977939897
 31
0.0
  0
LINE
  5
   5B0
  8
0
  6
CONTINUOUS
 62
     7
 10
84.6939616387985
 20
165.379766870131
 30
0.0
 11
84.6939616387985
 21
175.145977939897
 31
0.0
  0
LINE
  5
   5B1
  8
0
  6
CONTINUOUS
 62
     7
 10
103.068961325874
 20
173.145977939897
 30
0.0
 11
84.6939616387985
 21
173.145977939897
 31
0.0
  0
LINE
  5
   5B2
  8
0
  6
CONTINUOUS
 62
     7
 10
106.023384603081
 20
173.666922369848
 30
0.0
 11
103.068961325874
 21
173.145977939897
 31
0.0
  0
LINE
  5
   5B3
  8
0
  6
CONTINUOUS
 62
     7
 10
103.068961325874
 20
173.145977939897
 30
0.0
 11
106.023384603081
 21
172.625033509945
 31
0.0
  0
LINE
  5
   5B4
  8
0
  6
CONTINUOUS
 62
     7
 10
81.7395383615916
 20
172.625033509945
 30
0.0
 11
84.6939616387985
 21
173.145977939897
 31
0.0
  0
LINE
  5
   5B5
  8
0
  6
CONTINUOUS
 62
     7
 10
84.6939616387985
 20
173.145977939897
 30
0.0
 11
81.7395383615916
 21
173.666922369848
 31
0.0
  0
ENDBLK
  5
   5B6
  8
0
  6
CONTINUOUS
 62
     7
  0
BLOCK
  5
   5B7
  8
0
  6
CONTINUOUS
 62
     7
  2
*UDIM448
 70
    65
 10
0.0
 20
0.0
 30
0.0
  3
*UDIM448
  0
TEXT
  5
   5B8
  8
0
  6
CONTINUOUS
 62
     7
 10
88.4036793091344
 20
166.538006880308
 30
0.0
 40
2.99999997871263
  1
35
 50
359.999999948034
 41
0.933333333333333
 72
     1
 11
90.9036792927478
 21
168.03800686741
 31
0.0
 73
     2
  0
LINE
  5
   5B9
  8
0
  6
CONTINUOUS
 62
     7
 10
96.943953401857
 20
159.630030720569
 30
0.0
 11
96.943953401857
 21
167.538006878053
 31
0.0
  0
LINE
  5
   5BA
  8
0
  6
CONTINUOUS
 62
     7
 10
84.6939616387985
 20
165.379766870131
 30
0.0
 11
84.6939616387985
 21
167.538006878053
 31
0.0
  0
LINE
  5
   5BB
  8
0
  6
CONTINUOUS
 62
     7
 10
96.943953401857
 20
165.538006878053
 30
0.0
 11
84.6939616387985
 21
165.538006878053
 31
0.0
  0
LINE
  5
   5BC
  8
0
  6
CONTINUOUS
 62
     7
 10
93.98953012465
 20
165.017062448102
 30
0.0
 11
96.943953401857
 21
165.538006878053
 31
0.0
  0
LINE
  5
   5BD
  8
0
  6
CONTINUOUS
 62
     7
 10
96.943953401857
 20
165.538006878053
 30
0.0
 11
93.98953012465
 21
166.058951308005
 31
0.0
  0
LINE
  5
   5BE
  8
0
  6
CONTINUOUS
 62
     7
 10
87.6483849160055
 20
166.058951308005
 30
0.0
 11
84.6939616387985
 21
165.538006878053
 31
0.0
  0
LINE
  5
   5BF
  8
0
  6
CONTINUOUS
 62
     7
 10
84.6939616387985
 20
165.538006878053
 30
0.0
 11
87.6483849160055
 21
165.017062448102
 31
0.0
  0
ENDBLK
  5
   5C0
  8
0
  6
CONTINUOUS
 62
     7
  0
BLOCK
  5
   5C1
  8
0
  6
CONTINUOUS
 62
     7
  2
*UDIM449
 70
    65
 10
0.0
 20
0.0
 30
0.0
  3
*UDIM449
  0
TEXT
  5
   5C2
  8
0
  6
CONTINUOUS
 62
     7
 10
76.5210043234179
 20
166.538006880308
 30
0.0
 40
2.99999997871263
  1
35
 50
359.999999948034
 41
0.933333333333333
 72
     1
 11
79.0210043070314
 21
168.03800686741
 31
0.0
 73
     2
  0
LINE
  5
   5C3
  8
0
  6
CONTINUOUS
 62
     7
 10
72.4439513647835
 20
159.630026543945
 30
0.0
 11
72.4439513647835
 21
167.538006878053
 31
0.0
  0
LINE
  5
   5C4
  8
0
  6
CONTINUOUS
 62
     7
 10
84.6939616387985
 20
165.538006878053
 30
0.0
 11
72.4439513647835
 21
165.538006878053
 31
0.0
  0
LINE
  5
   5C5
  8
0
  6
CONTINUOUS
 62
     7
 10
81.7395383615916
 20
165.017062448102
 30
0.0
 11
84.6939616387985
 21
165.538006878053
 31
0.0
  0
LINE
  5
   5C6
  8
0
  6
CONTINUOUS
 62
     7
 10
84.6939616387985
 20
165.538006878053
 30
0.0
 11
81.7395383615916
 21
166.058951308005
 31
0.0
  0
LINE
  5
   5C7
  8
0
  6
CONTINUOUS
 62
     7
 10
75.3983746419904
 20
166.058951308005
 30
0.0
 11
72.4439513647835
 21
165.538006878053
 31
0.0
  0
LINE
  5
   5C8
  8
0
  6
CONTINUOUS
 62
     7
 10
72.4439513647835
 20
165.538006878053
 30
0.0
 11
75.3983746419904
 21
165.017062448102
 31
0.0
  0
ENDBLK
  5
   5C9
  8
0
  6
CONTINUOUS
 62
     7
  0
BLOCK
  5
   5CA
  8
0
  6
CONTINUOUS
 62
     7
  2
*UDIM450
 70
    65
 10
0.0
 20
0.0
 30
0.0
  3
*UDIM450
  0
TEXT
  5
   5CB
  8
0
  6
CONTINUOUS
 62
     7
 10
64.1039913823574
 20
166.538006880308
 30
0.0
 40
2.99999997871263
  1
35
 50
359.999999948034
 41
0.933333333333333
 72
     1
 11
66.6039913659708
 21
168.03800686741
 31
0.0
 73
     2
  0
LINE
  5
   5CC
  8
0
  6
CONTINUOUS
 62
     7
 10
60.1939515733997
 20
159.630026543945
 30
0.0
 11
60.1939515733997
 21
167.538006878053
 31
0.0
  0
LINE
  5
   5CD
  8
0
  6
CONTINUOUS
 62
     7
 10
72.4439513647835
 20
165.538006878053
 30
0.0
 11
60.1939515733997
 21
165.538006878053
 31
0.0
  0
LINE
  5
   5CE
  8
0
  6
CONTINUOUS
 62
     7
 10
69.4895280875765
 20
165.017062448102
 30
0.0
 11
72.4439513647835
 21
165.538006878053
 31
0.0
  0
LINE
  5
   5CF
  8
0
  6
CONTINUOUS
 62
     7
 10
72.4439513647835
 20
165.538006878053
 30
0.0
 11
69.4895280875765
 21
166.058951308005
 31
0.0
  0
LINE
  5
   5D0
  8
0
  6
CONTINUOUS
 62
     7
 10
63.1483748506067
 20
166.058951308005
 30
0.0
 11
60.1939515733997
 21
165.538006878053
 31
0.0
  0
LINE
  5
   5D1
  8
0
  6
CONTINUOUS
 62
     7
 10
60.1939515733997
 20
165.538006878053
 30
0.0
 11
63.1483748506067
 21
165.017062448102
 31
0.0
  0
ENDBLK
  5
   5D2
  8
0
  6
CONTINUOUS
 62
     7
  0
BLOCK
  5
   5D3
  8
0
  6
CONTINUOUS
 62
     7
  2
*UDIM451
 70
    65
 10
0.0
 20
0.0
 30
0.0
  3
*UDIM451
  0
TEXT
  5
   5D4
  8
0
  6
CONTINUOUS
 62
     7
 10
80.5189695297626
 20
6.05829655605237
 30
0.0
 40
2.99999997871263
  1
117
 50
359.999999948034
 41
0.933333333333333
 72
     1
 11
84.4189695034419
 21
7.5582965418911
 31
0.0
 73
     2
  0
LINE
  5
   5D5
  8
0
  6
CONTINUOUS
 62
     7
 10
105.168966473823
 20
57.7050254897041
 30
0.0
 11
105.168966473823
 21
3.05829655253479
 31
0.0
  0
LINE
  5
   5D6
  8
0
  6
CONTINUOUS
 62
     7
 10
64.2189671711974
 20
57.7050254897041
 30
0.0
 11
64.2189671711974
 21
3.05829655253479
 31
0.0
  0
LINE
  5
   5D7
  8
0
  6
CONTINUOUS
 62
     7
 10
105.168966473823
 20
5.05829655253478
 30
0.0
 11
64.2189671711974
 21
5.05829655253478
 31
0.0
  0
LINE
  5
   5D8
  8
0
  6
CONTINUOUS
 62
     7
 10
102.214543196616
 20
4.53735212258312
 30
0.0
 11
105.168966473823
 21
5.05829655253478
 31
0.0
  0
LINE
  5
   5D9
  8
0
  6
CONTINUOUS
 62
     7
 10
105.168966473823
 20
5.05829655253478
 30
0.0
 11
102.214543196616
 21
5.57924098248645
 31
0.0
  0
LINE
  5
   5DA
  8
0
  6
CONTINUOUS
 62
     7
 10
67.1733904484043
 20
5.57924098248645
 30
0.0
 11
64.2189671711974
 21
5.05829655253478
 31
0.0
  0
LINE
  5
   5DB
  8
0
  6
CONTINUOUS
 62
     7
 10
64.2189671711974
 20
5.05829655253478
 30
0.0
 11
67.1733904484043
 21
4.53735212258312
 31
0.0
  0
ENDBLK
  5
   5DC
  8
0
  6
CONTINUOUS
 62
     7
  0
BLOCK
  5
   5DD
  8
0
  6
CONTINUOUS
 62
     7
  2
*UDIM452
 70
    65
 10
0.0
 20
0.0
 30
0.0
  3
*UDIM452
  0
TEXT
  5
   5DE
  8
0
  6
CONTINUOUS
 62
     7
 10
80.5189962175952
 20
17.0249639260538
 30
0.0
 40
2.99999997871263
  1
105
 50
359.999999948034
 41
0.933333333333333
 72
     1
 11
84.4189961912745
 21
18.5249639118926
 31
0.0
 73
     2
  0
LINE
  5
   5DF
  8
0
  6
CONTINUOUS
 62
     7
 10
103.068997974731
 20
67.242537343579
 30
0.0
 11
103.068997974731
 21
14.0249639225362
 31
0.0
  0
LINE
  5
   5E0
  8
0
  6
CONTINUOUS
 62
     7
 10
66.3189986005794
 20
66.8925253332419
 30
0.0
 11
66.3189986005794
 21
14.0249639225362
 31
0.0
  0
LINE
  5
   5E1
  8
0
  6
CONTINUOUS
 62
     7
 10
103.068997974731
 20
16.0249639225362
 30
0.0
 11
66.3189986005794
 21
16.0249639225362
 31
0.0
  0
LINE
  5
   5E2
  8
0
  6
CONTINUOUS
 62
     7
 10
100.114574697524
 20
15.5040194925846
 30
0.0
 11
103.068997974731
 21
16.0249639225362
 31
0.0
  0
LINE
  5
   5E3
  8
0
  6
CONTINUOUS
 62
     7
 10
103.068997974731
 20
16.0249639225362
 30
0.0
 11
100.114574697524
 21
16.5459083524879
 31
0.0
  0
LINE
  5
   5E4
  8
0
  6
CONTINUOUS
 62
     7
 10
69.2734218777863
 20
16.5459083524879
 30
0.0
 11
66.3189986005794
 21
16.0249639225362
 31
0.0
  0
LINE
  5
   5E5
  8
0
  6
CONTINUOUS
 62
     7
 10
66.3189986005794
 20
16.0249639225362
 30
0.0
 11
69.2734218777863
 21
15.5040194925846
 31
0.0
  0
ENDBLK
  5
   5E6
  8
0
  6
CONTINUOUS
 62
     7
  0
ENDSEC
  0
SECTION
  2
ENTITIES
  0
LINE
  5
   5E7
  8
0
  6
CONTINUOUS
 62
     7
 10
70.693962097168
 20
-83.3440399169922
 30
0.0
 11
98.693962097168
 21
-83.3440399169922
 31
0.0
  0
LINE
  5
   5E8
  8
0
  6
CONTINUOUS
 62
     7
 10
70.693962097168
 20
-55.3440399169922
 30
0.0
 11
98.693962097168
 21
-55.3440399169922
 31
0.0
  0
LINE
  5
   5E9
  8
0
  6
CONTINUOUS
 62
     7
 10
70.693962097168
 20
-55.3440399169922
 30
0.0
 11
70.693962097168
 21
-83.3440399169922
 31
0.0
  0
LINE
  5
   5EA
  8
0
  6
CONTINUOUS
 62
     7
 10
98.693962097168
 20
-55.3440399169922
 30
0.0
 11
98.693962097168
 21
-83.3440399169922
 31
0.0
  0
LINE
  5
   5EB
  8
0
  6
DASHDOT
 62
     7
 10
84.693962097168
 20
-40.2500766710166
 30
0.0
 11
84.693962097168
 21
-99.3808301947994
 31
0.0
  0
CIRCLE
  5
   5EC
  8
0
  6
CONTINUOUS
 62
     7
 10
74.693962097168
 20
-51.5940399169922
 30
0.0
 40
0.875
  0
CIRCLE
  5
   5ED
  8
0
  6
CONTINUOUS
 62
     7
 10
94.693962097168
 20
-51.5940399169922
 30
0.0
 40
0.875
  0
CIRCLE
  5
   5EE
  8
0
  6
CONTINUOUS
 62
     7
 10
94.693962097168
 20
-87.0940399169922
 30
0.0
 40
0.875
  0
CIRCLE
  5
   5EF
  8
0
  6
CONTINUOUS
 62
     7
 10
74.693962097168
 20
-87.0940399169922
 30
0.0
 40
0.875
  0
LINE
  5
   5F0
  8
0
  6
CONTINUOUS
 62
     3
 10
66.7294664277535
 20
-49.2442396197009
 30
0.0
 11
102.532835697739
 21
-49.2442396197009
 31
0.0
  0
LINE
  5
   5F1
  8
0
  6
CONTINUOUS
 62
     3
 10
66.7294664277535
 20
-90.4495207444562
 30
0.0
 11
102.532835697739
 21
-90.4495207444562
 31
0.0
  0
LINE
  5
   5F2
  8
0
  6
CONTINUOUS
 62
     3
 10
102.532835697739
 20
-49.2442396197009
 30
0.0
 11
102.532835697739
 21
-90.4495207444562
 31
0.0
  0
LINE
  5
   5F3
  8
0
  6
CONTINUOUS
 62
     3
 10
66.7294664277535
 20
-49.2442396197009
 30
0.0
 11
66.7294664277535
 21
-90.4495207444562
 31
0.0
  0
LINE
  5
   5F4
  8
0
  6
DASHDOT
 62
     7
 10
94.693962097168
 20
-49.9690399169922
 30
0.0
 11
94.693962097168
 21
-53.2190399169922
 31
0.0
  0
LINE
  5
   5F5
  8
0
  6
DASHDOT
 62
     7
 10
93.068962097168
 20
-51.5940399169922
 30
0.0
 11
96.318962097168
 21
-51.5940399169922
 31
0.0
  0
LINE
  5
   5F6
  8
0
  6
DASHDOT
 62
     7
 10
74.693962097168
 20
-49.9690399169922
 30
0.0
 11
74.693962097168
 21
-53.2190399169922
 31
0.0
  0
LINE
  5
   5F7
  8
0
  6
DASHDOT
 62
     7
 10
73.068962097168
 20
-51.5940399169922
 30
0.0
 11
76.318962097168
 21
-51.5940399169922
 31
0.0
  0
LINE
  5
   5F8
  8
0
  6
DASHDOT
 62
     7
 10
74.693962097168
 20
-85.4690399169922
 30
0.0
 11
74.693962097168
 21
-88.7190399169922
 31
0.0
  0
LINE
  5
   5F9
  8
0
  6
DASHDOT
 62
     7
 10
73.068962097168
 20
-87.0940399169922
 30
0.0
 11
76.318962097168
 21
-87.0940399169922
 31
0.0
  0
LINE
  5
   5FA
  8
0
  6
DASHDOT
 62
     7
 10
94.693962097168
 20
-85.4690399169922
 30
0.0
 11
94.693962097168
 21
-88.7190399169922
 31
0.0
  0
LINE
  5
   5FB
  8
0
  6
DASHDOT
 62
     7
 10
93.068962097168
 20
-87.0940399169922
 30
0.0
 11
96.318962097168
 21
-87.0940399169922
 31
0.0
  0
LINE
  5
   5FC
  8
0
  6
DASHDOT
 62
     7
 10
59.3281045438114
 20
-69.3440399169922
 30
0.0
 11
112.324255396539
 21
-69.3440399169922
 31
0.0
  0
INSERT
  5
   5FD
  8
0
  6
CONTINUOUS
 62
     7
  2
*UDIM412
 10
0.0
 20
0.0
 30
0.0
  0
INSERT
  5
   5FE
  8
0
  6
CONTINUOUS
 62
     7
  2
*UDIM413
 10
0.0
 20
0.0
 30
0.0
  0
INSERT
  5
   5FF
  8
0
  6
CONTINUOUS
 62
     7
  2
*UDIM414
 10
0.0
 20
0.0
 30
0.0
  0
INSERT
  5
   600
  8
0
  6
CONTINUOUS
 62
     7
  2
*UDIM415
 10
0.0
 20
0.0
 30
0.0
  0
INSERT
  5
   601
  8
0
  6
CONTINUOUS
 62
     7
  2
*UDIM416
 10
0.0
 20
0.0
 30
0.0
  0
TEXT
  5
   602
  8
0
  6
CONTINUOUS
 62
     7
 10
77.4439580717655
 20
-42.8061621751047
 30
0.0
 40
3.00000002980232
  1
=   =
 50
359.999999844103
 41
0.916666604744064
 72
     2
 11
90.6439573068392
 21
-42.8061622109544
 31
0.0
  0
TEXT
  5
   603
  8
0
  6
CONTINUOUS
 62
     7
 10
76.2276086284689
 20
-34.2858813934609
 30
0.0
 40
3.00000002980232
  1
=    =
 50
359.999999844103
 41
0.916666604744064
 72
     2
 11
92.1776077050936
 21
-34.2858814367792
 31
0.0
  0
TEXT
  5
   604
  8
0
  6
CONTINUOUS
 62
     7
 10
58.1352644594745
 20
-79.6079394172578
 30
0.0
 40
3.00000002980232
  1
=     =
 50
449.999999844103
 41
0.916666604744064
 72
     2
 11
58.1352645102381
 21
-60.9079404990822
 31
0.0
  0
TEXT
  5
   605
  8
0
  6
CONTINUOUS
 62
     7
 10
48.4221447047607
 20
-81.6998265744199
 30
0.0
 40
3.00000002980232
  1
=       =
 50
449.999999844103
 41
0.916666604744064
 72
     2
 11
48.4221447704548
 21
-57.4998279731422
 31
0.0
  0
TEXT
  5
   606
  8
0
  6
CONTINUOUS
 62
     7
 10
83.5021941561472
 20
-102.788944313521
 30
0.0
 40
3.00000002980232
  1
Y
 50
359.999999844103
 41
0.916666604744064
 72
     2
 11
85.702194025017
 21
-102.788944319496
 31
0.0
  0
TEXT
  5
   607
  8
0
  6
CONTINUOUS
 62
     7
 10
83.6725997824442
 20
-24.9135704731891
 30
0.0
 40
3.00000002980232
  1
Y
 50
359.999999844103
 41
0.916666604744064
 72
     2
 11
85.872599651314
 21
-24.913570479164
 31
0.0
  0
TEXT
  5
   608
  8
0
  6
CONTINUOUS
 62
     7
 10
35.277401079632
 20
-70.7526844239184
 30
0.0
 40
3.00000002980232
  1
X
 50
359.999999844103
 41
0.916666604744064
 72
     2
 11
37.4774009485018
 21
-70.7526844298934
 31
0.0
  0
LINE
  5
   609
  8
0
  6
CONTINUOUS
 62
     7
 10
204.028810721636
 20
96.1550300017771
 30
0.0
 11
204.028810721636
 21
96.3300193176447
 31
0.0
  0
LINE
  5
   60A
  8
0
  6
CONTINUOUS
 62
     7
 10
204.028810721636
 20
101.580019228238
 30
0.0
 11
204.028810721636
 21
108.580008427876
 31
0.0
  0
LINE
  5
   60B
  8
0
  6
CONTINUOUS
 62
     7
 10
204.903821387887
 20
96.3300193176447
 30
0.0
 11
204.903821387887
 21
101.580019228238
 31
0.0
  0
LINE
  5
   60C
  8
0
  6
CONTINUOUS
 62
     7
 10
204.903821387887
 20
96.3300193176447
 30
0.0
 11
204.028810721636
 21
96.3300193176447
 31
0.0
  0
LINE
  5
   60D
  8
0
  6
CONTINUOUS
 62
     7
 10
204.903821387887
 20
101.580019228238
 30
0.0
 11
204.028810721636
 21
101.580019228238
 31
0.0
  0
LINE
  5
   60E
  8
0
  6
CONTINUOUS
 62
     7
 10
204.903821387887
 20
108.580008427876
 30
0.0
 11
204.903821387887
 21
113.830008338469
 31
0.0
  0
LINE
  5
   60F
  8
0
  6
CONTINUOUS
 62
     7
 10
204.903821387887
 20
108.580008427876
 30
0.0
 11
204.028810721636
 21
108.580008427876
 31
0.0
  0
LINE
  5
   610
  8
0
  6
CONTINUOUS
 62
     7
 10
204.903821387887
 20
113.830008338469
 30
0.0
 11
204.028810721636
 21
113.830008338469
 31
0.0
  0
LINE
  5
   611
  8
0
  6
CONTINUOUS
 62
     7
 10
228.003804972768
 20
96.1550193206249
 30
0.0
 11
228.003804972768
 21
115.405008311647
 31
0.0
  0
LINE
  5
   612
  8
0
  6
CONTINUOUS
 62
     2
 10
204.028789359169
 20
115.230008314627
 30
0.0
 11
204.028789359169
 21
122.445126599958
 31
0.0
  0
LINE
  5
   613
  8
0
  6
CONTINUOUS
 62
     7
 10
229.228810292482
 20
121.530008207339
 30
0.0
 11
228.003810313344
 21
121.530008207339
 31
0.0
  0
LINE
  5
   614
  8
0
  6
CONTINUOUS
 62
     7
 10
228.003772929063
 20
115.405005259922
 30
0.0
 11
228.003772929063
 21
121.530005155614
 31
0.0
  0
LINE
  5
   615
  8
0
  6
CONTINUOUS
 62
     7
 10
205.428810697794
 20
116.105008299726
 30
0.0
 11
204.028810721636
 21
116.105008299726
 31
0.0
  0
LINE
  5
   616
  8
0
  6
CONTINUOUS
 62
     7
 10
205.428811587762
 20
116.105003855961
 30
0.0
 11
205.42882493921
 21
121.355008210319
 31
0.0
  0
LINE
  5
   617
  8
0
  6
CONTINUOUS
 62
     7
 10
228.003804972768
 20
92.8300247178254
 30
0.0
 11
228.003804972768
 21
96.1550300017771
 31
0.0
  0
LINE
  5
   618
  8
0
  6
CONTINUOUS
 62
     7
 10
204.028814291398
 20
71.4800339844508
 30
0.0
 11
204.02882497255
 21
71.583016271315
 31
0.0
  0
LINE
  5
   619
  8
0
  6
CONTINUOUS
 62
     7
 10
204.02882140269
 20
76.9770503532108
 30
0.0
 11
204.02882140269
 21
96.1550270163579
 31
0.0
  0
LINE
  5
   61A
  8
0
  6
CONTINUOUS
 62
     7
 10
228.878810298443
 20
76.2050303415235
 30
0.0
 11
205.078798954486
 21
76.2050303415235
 31
0.0
  0
LINE
  5
   61B
  8
0
  6
CONTINUOUS
 62
     7
 10
228.878810298443
 20
72.3550304070886
 30
0.0
 11
205.078798954486
 21
72.3550304070886
 31
0.0
  0
LINE
  5
   61C
  8
0
  6
CONTINUOUS
 62
     7
 10
206.910031321256
 20
76.2050339007514
 30
0.0
 11
204.028822692419
 21
76.9770538867519
 31
0.0
  0
LINE
  5
   61D
  8
0
  6
CONTINUOUS
 62
     7
 10
204.028824307313
 20
71.5830132792106
 30
0.0
 11
206.910033002491
 21
72.3550307811405
 31
0.0
  0
LINE
  5
   61E
  8
0
  6
CONTINUOUS
 62
     7
 10
229.228804951906
 20
77.2550303236421
 30
0.0
 11
226.42880499959
 21
77.2550303236421
 31
0.0
  0
LINE
  5
   61F
  8
0
  6
CONTINUOUS
 62
     7
 10
226.42880499959
 20
77.2550303236421
 30
0.0
 11
226.42880499959
 21
92.1300247297463
 31
0.0
  0
LINE
  5
   620
  8
0
  6
CONTINUOUS
 62
     7
 10
204.378821396827
 20
74.4550303713259
 30
0.0
 11
204.378821396827
 21
76.8832674820728
 31
0.0
  0
LINE
  5
   621
  8
0
  6
CONTINUOUS
 62
     7
 10
204.378816467077
 20
71.6767967460054
 30
0.0
 11
204.378821807649
 21
72.0050338937666
 31
0.0
  0
LINE
  5
   622
  8
0
  6
CONTINUOUS
 62
     2
 10
204.028821402788
 20
77.2550303236421
 30
0.0
 11
203.328821414709
 21
77.2550303236421
 31
0.0
  0
LINE
  5
   623
  8
0
  6
CONTINUOUS
 62
     2
 10
204.028821402788
 20
79.1800302908596
 30
0.0
 11
203.328821414709
 21
79.1800302908596
 31
0.0
  0
LINE
  5
   624
  8
0
  6
CONTINUOUS
 62
     7
 10
229.228797388407
 20
72.0050440722165
 30
0.0
 11
228.878802746352
 21
72.3550387142715
 31
0.0
  0
LINE
  5
   625
  8
0
  6
CONTINUOUS
 62
     7
 10
228.878805875659
 20
76.2050308322083
 30
0.0
 11
229.228805857718
 21
76.5550308142679
 31
0.0
  0
LINE
  5
   626
  8
0
  6
CONTINUOUS
 62
     7
 10
228.003804972768
 20
92.1300247297463
 30
0.0
 11
228.003804972768
 21
92.8300247178254
 31
0.0
  0
LINE
  5
   627
  8
0
  6
CONTINUOUS
 62
     2
 10
204.728821390867
 20
65.1800412104307
 30
0.0
 11
203.328821414709
 21
65.1800412104307
 31
0.0
  0
LINE
  5
   628
  8
0
  6
CONTINUOUS
 62
     7
 10
204.028810721636
 20
70.0800304458317
 30
0.0
 11
204.028810721636
 21
71.4800304219898
 31
0.0
  0
LINE
  5
   629
  8
0
  6
CONTINUOUS
 62
     7
 10
229.228804951906
 20
66.930041180628
 30
0.0
 11
225.728810352087
 21
66.930041180628
 31
0.0
  0
LINE
  5
   62A
  8
0
  6
CONTINUOUS
 62
     7
 10
225.728810352087
 20
65.1800412104303
 30
0.0
 11
225.728810352087
 21
66.930041180628
 31
0.0
  0
LINE
  5
   62B
  8
0
  6
CONTINUOUS
 62
     7
 10
204.028810721636
 20
66.055047817831
 30
0.0
 11
204.028810721636
 21
70.0800304458317
 31
0.0
  0
LINE
  5
   62C
  8
0
  6
CONTINUOUS
 62
     2
 10
204.028810721636
 20
115.230008314627
 30
0.0
 11
203.853821405768
 21
115.230008314627
 31
0.0
  0
LINE
  5
   62D
  8
0
  6
CONTINUOUS
 62
     7
 10
204.028816062212
 20
90.5550300971445
 30
0.0
 11
203.853821405768
 21
90.5550300971445
 31
0.0
  0
LINE
  5
   62E
  8
0
  6
CONTINUOUS
 62
     7
 10
204.028821402788
 20
79.3550316230234
 30
0.0
 11
203.853821405768
 21
79.3550316230234
 31
0.0
  0
LINE
  5
   62F
  8
0
  6
CONTINUOUS
 62
     7
 10
204.378821396827
 20
76.7300306663688
 30
0.0
 11
203.853821405768
 21
76.7300306663688
 31
0.0
  0
LINE
  5
   630
  8
0
  6
CONTINUOUS
 62
     7
 10
204.028810721636
 20
71.1300357685263
 30
0.0
 11
203.853821405768
 21
71.1300357685263
 31
0.0
  0
LINE
  5
   631
  8
0
  6
CONTINUOUS
 62
     2
 10
203.853821405768
 20
66.370044532984
 30
0.0
 11
203.853821405768
 21
77.2550249830661
 31
0.0
  0
LINE
  5
   632
  8
0
  6
CONTINUOUS
 62
     2
 10
203.853821405768
 20
79.1800249502835
 30
0.0
 11
203.853821405768
 21
115.230002974051
 31
0.0
  0
LINE
  5
   633
  8
0
  6
CONTINUOUS
 62
     7
 10
204.378821396827
 20
108.580024449604
 30
0.0
 11
204.378821396827
 21
113.830008338469
 31
0.0
  0
LINE
  5
   634
  8
0
  6
CONTINUOUS
 62
     7
 10
204.378821396827
 20
96.330040679949
 30
0.0
 11
204.378821396827
 21
101.580035249966
 31
0.0
  0
LINE
  5
   635
  8
0
  6
CONTINUOUS
 62
     7
 10
204.378821396827
 20
72.0050571159295
 30
0.0
 11
204.378821396827
 21
74.4550570742063
 31
0.0
  0
LINE
  5
   636
  8
0
  6
CONTINUOUS
 62
     2
 10
203.993818670223
 20
66.2300472685294
 30
0.0
 11
203.853820810451
 21
66.3700451283011
 31
0.0
  0
LINE
  5
   637
  8
0
  6
CONTINUOUS
 62
     2
 10
204.028821402788
 20
120.83000821926
 30
0.0
 11
203.328821414709
 21
120.83000821926
 31
0.0
  0
LINE
  5
   638
  8
0
  6
CONTINUOUS
 62
     2
 10
204.028821402788
 20
124.680008153695
 30
0.0
 11
203.328821414709
 21
124.680008153695
 31
0.0
  0
LINE
  5
   639
  8
0
  6
CONTINUOUS
 62
     2
 10
204.028821402788
 20
123.739084097453
 30
0.0
 11
203.328821414709
 21
123.739084097453
 31
0.0
  0
LINE
  5
   63A
  8
0
  6
CONTINUOUS
 62
     2
 10
204.028821402788
 20
122.445126599958
 30
0.0
 11
203.328821414709
 21
122.445126599958
 31
0.0
  0
LINE
  5
   63B
  8
0
  6
CONTINUOUS
 62
     7
 10
228.178799629211
 20
97.2050071595419
 30
0.0
 11
228.178799629211
 21
116.280022856425
 31
0.0
  0
LINE
  5
   63C
  8
0
  6
CONTINUOUS
 62
     7
 10
237.803810146451
 20
121.705020167237
 30
0.0
 11
237.803810146451
 21
121.880020164257
 31
0.0
  0
LINE
  5
   63D
  8
0
  6
CONTINUOUS
 62
     7
 10
229.228810292482
 20
121.355014832621
 30
0.0
 11
229.228810292482
 21
121.705020167237
 31
0.0
  0
LINE
  5
   63E
  8
0
  6
CONTINUOUS
 62
     7
 10
237.103810158372
 20
121.705020167237
 30
0.0
 11
236.998809092045
 21
121.705020167237
 31
0.0
  0
LINE
  5
   63F
  8
0
  6
CONTINUOUS
 62
     7
 10
229.228810292482
 20
121.355025513773
 30
0.0
 11
228.178810310364
 21
121.355025513773
 31
0.0
  0
LINE
  5
   640
  8
0
  6
CONTINUOUS
 62
     7
 10
228.178810310364
 20
116.2800256002
 30
0.0
 11
228.178810310364
 21
121.355025513773
 31
0.0
  0
LINE
  5
   641
  8
0
  6
CONTINUOUS
 62
     7
 10
229.228794270754
 20
67.2800317752413
 30
0.0
 11
229.228794270754
 21
69.826845696713
 31
0.0
  0
LINE
  5
   642
  8
0
  6
CONTINUOUS
 62
     7
 10
228.178804969788
 20
93.005020655995
 30
0.0
 11
228.178804969788
 21
97.2050099033172
 31
0.0
  0
LINE
  5
   643
  8
0
  6
CONTINUOUS
 62
     7
 10
228.178804969788
 20
92.130009989744
 30
0.0
 11
227.828804975748
 21
92.130009989744
 31
0.0
  0
LINE
  5
   644
  8
0
  6
CONTINUOUS
 62
     7
 10
236.99879814628
 20
66.2300424742823
 30
0.0
 11
229.228794006141
 21
66.2300424742823
 31
0.0
  0
LINE
  5
   645
  8
0
  6
CONTINUOUS
 62
     7
 10
229.228794270754
 20
66.2300317931227
 30
0.0
 11
229.228794270754
 21
67.2800317752413
 31
0.0
  0
LINE
  5
   646
  8
0
  6
CONTINUOUS
 62
     7
 10
229.22879961133
 20
69.826845696713
 30
0.0
 11
229.22879961133
 21
72.2675349139038
 31
0.0
  0
LINE
  5
   647
  8
0
  6
CONTINUOUS
 62
     7
 10
237.103794136644
 20
65.180026470428
 30
0.0
 11
237.103794136644
 21
66.2300264525466
 31
0.0
  0
LINE
  5
   648
  8
0
  6
CONTINUOUS
 62
     7
 10
237.103794136644
 20
66.2300264525466
 30
0.0
 11
236.998798431754
 21
66.2300264525466
 31
0.0
  0
LINE
  5
   649
  8
0
  6
CONTINUOUS
 62
     7
 10
227.828804975748
 20
92.130009989744
 30
0.0
 11
226.42880499959
 21
92.130009989744
 31
0.0
  0
LINE
  5
   64A
  8
0
  6
CONTINUOUS
 62
     7
 10
228.178804969788
 20
92.130009989744
 30
0.0
 11
228.178804969788
 21
93.005020655995
 31
0.0
  0
LINE
  5
   64B
  8
0
  6
CONTINUOUS
 62
     7
 10
236.998796955469
 20
72.2675423714628
 30
0.0
 11
229.228798155906
 21
72.2675423714628
 31
0.0
  0
LINE
  5
   64C
  8
0
  6
CONTINUOUS
 62
     7
 10
236.998794381407
 20
76.2925423029165
 30
0.0
 11
229.228795581845
 21
76.2925423029165
 31
0.0
  0
LINE
  5
   64D
  8
0
  6
CONTINUOUS
 62
     7
 10
229.68345851015
 20
67.5425377616015
 30
0.0
 11
229.753793886116
 21
67.8050377535072
 31
0.0
  0
LINE
  5
   64E
  8
0
  6
CONTINUOUS
 62
     7
 10
229.491297535942
 20
67.3503705919635
 30
0.0
 11
229.68345679122
 21
67.5425351925943
 31
0.0
  0
LINE
  5
   64F
  8
0
  6
CONTINUOUS
 62
     7
 10
229.228788220865
 20
67.2800399777291
 30
0.0
 11
229.491293546386
 21
67.3503753590483
 31
0.0
  0
LINE
  5
   650
  8
0
  6
CONTINUOUS
 62
     7
 10
229.491296470904
 20
71.4096970784864
 30
0.0
 11
229.2287964773
 21
71.4800377998576
 31
0.0
  0
LINE
  5
   651
  8
0
  6
CONTINUOUS
 62
     7
 10
229.683455280871
 20
71.2175348816625
 30
0.0
 11
229.491296022919
 21
71.4096941396141
 31
0.0
  0
LINE
  5
   652
  8
0
  6
CONTINUOUS
 62
     7
 10
229.753790253171
 20
70.9550353727492
 30
0.0
 11
229.6834495318
 21
71.2175353663541
 31
0.0
  0
LINE
  5
   653
  8
0
  6
CONTINUOUS
 62
     7
 10
229.753791294839
 20
67.8050338441228
 30
0.0
 11
229.753796635414
 21
70.9550337904786
 31
0.0
  0
LINE
  5
   654
  8
0
  6
CONTINUOUS
 62
     7
 10
236.998798410892
 20
66.2300264525466
 30
0.0
 11
236.998798410892
 21
121.705015787762
 31
0.0
  0
LINE
  5
   655
  8
0
  6
CONTINUOUS
 62
     7
 10
236.998814432621
 20
129.300024310356
 30
0.0
 11
204.028789359169
 21
129.300024310356
 31
0.0
  0
LINE
  5
   656
  8
0
  6
CONTINUOUS
 62
     7
 10
236.998777048584
 20
121.705017755399
 30
0.0
 11
236.998777048584
 21
129.300021898518
 31
0.0
  0
LINE
  5
   657
  8
0
  6
CONTINUOUS
 62
     7
 10
229.228810292482
 20
121.705025507813
 30
0.0
 11
229.228810292482
 21
130.280024080056
 31
0.0
  0
LINE
  5
   658
  8
0
  6
CONTINUOUS
 62
     7
 10
242.70381540358
 20
68.0675477835585
 30
0.0
 11
242.70381540358
 21
74.5425357104118
 31
0.0
  0
LINE
  5
   659
  8
0
  6
CONTINUOUS
 62
     7
 10
242.70381540358
 20
104.030036489969
 30
0.0
 11
242.70381540358
 21
104.117536488478
 31
0.0
  0
LINE
  5
   65A
  8
0
  6
CONTINUOUS
 62
     7
 10
240.778817439079
 20
104.817536476558
 30
0.0
 11
239.553815457225
 21
104.817536476558
 31
0.0
  0
LINE
  5
   65B
  8
0
  6
CONTINUOUS
 62
     7
 10
240.778817439079
 20
68.0675477835585
 30
0.0
 11
239.553815457225
 21
68.0675477835585
 31
0.0
  0
LINE
  5
   65C
  8
0
  6
CONTINUOUS
 62
     7
 10
237.103815498948
 20
62.380047880416
 30
0.0
 11
237.103815498948
 21
66.2300264525466
 31
0.0
  0
LINE
  5
   65D
  8
0
  6
CONTINUOUS
 62
     7
 10
238.853815469146
 20
62.380047880416
 30
0.0
 11
238.853815469146
 21
68.0675477835585
 31
0.0
  0
LINE
  5
   65E
  8
0
  6
CONTINUOUS
 62
     7
 10
238.853815469146
 20
104.817536476558
 30
0.0
 11
238.853815469146
 21
121.705036188965
 31
0.0
  0
LINE
  5
   65F
  8
0
  6
CONTINUOUS
 62
     7
 10
238.853815469146
 20
121.705036188965
 30
0.0
 11
237.103815498948
 21
121.705036188965
 31
0.0
  0
LINE
  5
   660
  8
0
  6
CONTINUOUS
 62
     7
 10
238.853815469146
 20
62.380047880416
 30
0.0
 11
237.103815498948
 21
62.380047880416
 31
0.0
  0
LINE
  5
   661
  8
0
  6
CONTINUOUS
 62
     7
 10
239.553815457225
 20
68.0675477835585
 30
0.0
 11
239.553815457225
 21
104.817536476558
 31
0.0
  0
LINE
  5
   662
  8
0
  6
CONTINUOUS
 62
     7
 10
239.553815457225
 20
68.0675477835585
 30
0.0
 11
238.853815469146
 21
68.0675477835585
 31
0.0
  0
LINE
  5
   663
  8
0
  6
CONTINUOUS
 62
     7
 10
239.553815457225
 20
104.817536476558
 30
0.0
 11
238.853815469146
 21
104.817536476558
 31
0.0
  0
LINE
  5
   664
  8
0
  6
CONTINUOUS
 62
     7
 10
236.998790304812
 20
76.4850209034511
 30
0.0
 11
237.10379136627
 21
76.4942066931859
 31
0.0
  0
LINE
  5
   665
  8
0
  6
CONTINUOUS
 62
     7
 10
237.103809416495
 20
72.0658420778205
 30
0.0
 11
236.9988083521
 21
72.0750332081485
 31
0.0
  0
LINE
  5
   666
  8
0
  6
CONTINUOUS
 62
     7
 10
229.22879961133
 20
76.2925348453594
 30
0.0
 11
229.22879961133
 21
77.2550209242159
 31
0.0
  0
LINE
  5
   667
  8
0
  6
CONTINUOUS
 62
     7
 10
236.998814098835
 20
42.3600479543256
 30
0.0
 11
220.338646981661
 21
42.3600479543256
 31
0.0
  0
LINE
  5
   668
  8
0
  6
CONTINUOUS
 62
     2
 10
204.728821390867
 20
66.055047817831
 30
0.0
 11
203.328821414709
 21
66.055047817831
 31
0.0
  0
LINE
  5
   669
  8
0
  6
CONTINUOUS
 62
     7
 10
236.998819773197
 20
66.055047817831
 30
0.0
 11
230.978815603256
 21
66.055047817831
 31
0.0
  0
LINE
  5
   66A
  8
0
  6
CONTINUOUS
 62
   218
 10
237.978820824623
 20
41.3800482380437
 30
0.0
 11
237.978820824623
 21
49.7800427544165
 31
0.0
  0
LINE
  5
   66B
  8
0
  6
CONTINUOUS
 62
     2
 10
204.728821390867
 20
65.1800478327321
 30
0.0
 11
204.728821390867
 21
66.055047817831
 31
0.0
  0
LINE
  5
   66C
  8
0
  6
CONTINUOUS
 62
   218
 10
236.998816902239
 20
51.1800427302612
 30
0.0
 11
237.103815498675
 21
51.1800439626824
 31
0.0
  0
LINE
  5
   66D
  8
0
  6
CONTINUOUS
 62
   218
 10
237.978820824623
 20
49.7800427544165
 30
0.0
 11
236.998819773197
 21
49.7800427544165
 31
0.0
  0
LINE
  5
   66E
  8
0
  6
CONTINUOUS
 62
     7
 10
236.998819773197
 20
42.3600492894696
 30
0.0
 11
236.998819773197
 21
51.1800480711507
 31
0.0
  0
LINE
  5
   66F
  8
0
  6
CONTINUOUS
 62
   218
 10
236.998819773197
 20
51.1800480711507
 30
0.0
 11
236.998819773197
 21
66.055047817831
 31
0.0
  0
LINE
  5
   670
  8
0
  6
CONTINUOUS
 62
     7
 10
237.103815498948
 20
62.0300478863763
 30
0.0
 11
236.998819773197
 21
62.0300478863763
 31
0.0
  0
LINE
  5
   671
  8
0
  6
CONTINUOUS
 62
   218
 10
203.328821414679
 20
53.2800426951582
 30
0.0
 11
204.028821068957
 21
53.2800480357343
 31
0.0
  0
LINE
  5
   672
  8
0
  6
CONTINUOUS
 62
   218
 10
204.028821069002
 20
43.5850076502918
 30
0.0
 11
204.028821069002
 21
53.280042694812
 31
0.0
  0
LINE
  5
   673
  8
0
  6
CONTINUOUS
 62
   218
 10
204.028821402788
 20
49.5175427588868
 30
0.0
 11
203.328821414709
 21
49.5175427588868
 31
0.0
  0
LINE
  5
   674
  8
0
  6
CONTINUOUS
 62
     7
 10
229.22881162838
 20
66.0550478197356
 30
0.0
 11
229.228816968956
 21
66.7550478078307
 31
0.0
  0
LINE
  5
   675
  8
0
  6
CONTINUOUS
 62
     7
 10
229.228820973634
 20
66.75504780591
 30
0.0
 11
225.728821033239
 21
66.75504780591
 31
0.0
  0
LINE
  5
   676
  8
0
  6
CONTINUOUS
 62
     7
 10
230.978815603256
 20
66.055047817831
 30
0.0
 11
229.228815633058
 21
66.055047817831
 31
0.0
  0
LINE
  5
   677
  8
0
  6
CONTINUOUS
 62
   218
 10
204.028821402788
 20
46.4663858608508
 30
0.0
 11
203.328821414709
 21
46.4663858608508
 31
0.0
  0
LINE
  5
   678
  8
0
  6
CONTINUOUS
 62
   218
 10
204.028821402788
 20
47.3249318648303
 30
0.0
 11
203.328821414709
 21
47.3249318648303
 31
0.0
  0
LINE
  5
   679
  8
0
  6
CONTINUOUS
 62
   218
 10
204.028821402788
 20
49.4728207747852
 30
0.0
 11
203.328821414709
 21
49.4728207747852
 31
0.0
  0
LINE
  5
   67A
  8
0
  6
CONTINUOUS
 62
     7
 10
238.853815469146
 20
62.2050478833963
 30
0.0
 11
237.103815498948
 21
62.2050478833963
 31
0.0
  0
LINE
  5
   67B
  8
0
  6
CONTINUOUS
 62
     7
 10
238.853815469146
 20
49.9550480920125
 30
0.0
 11
237.103815498948
 21
49.9550480920125
 31
0.0
  0
LINE
  5
   67C
  8
0
  6
CONTINUOUS
 62
     7
 10
238.853815469146
 20
49.9550480920125
 30
0.0
 11
238.853815469146
 21
62.2050478833963
 31
0.0
  0
LINE
  5
   67D
  8
0
  6
CONTINUOUS
 62
     7
 10
238.153815481066
 20
49.9550480920125
 30
0.0
 11
238.153815481066
 21
62.2050478833963
 31
0.0
  0
LINE
  5
   67E
  8
0
  6
CONTINUOUS
 62
     7
 10
237.103815498948
 20
49.9550480920125
 30
0.0
 11
237.103815498948
 21
62.2050478833963
 31
0.0
  0
ARC
  5
   67F
  8
0
  6
CONTINUOUS
 62
     7
 10
249.940083750027
 20
78.7271890892538
 30
0.0
 40
0.349999922554071
 50
348.623573369035
 51
436.688788706936
  0
ARC
  5
   680
  8
0
  6
CONTINUOUS
 62
     7
 10
249.521223217217
 20
76.6454528359064
 30
0.0
 40
0.35000025487589
 50
260.593992196011
 51
348.623573369035
  0
LINE
  5
   681
  8
0
  6
DASHDOT
 62
     7
 10
255.12028828985
 20
76.5891576791362
 30
0.0
 11
237.579448324451
 21
80.1185017365606
 31
0.0
  0
LINE
  5
   682
  8
0
  6
CONTINUOUS
 62
     7
 10
250.020667729297
 20
79.0677856122426
 30
0.0
 11
242.70381540358
 21
80.7989279943417
 31
0.0
  0
LINE
  5
   683
  8
0
  6
CONTINUOUS
 62
     7
 10
249.86434672279
 20
76.5764139011837
 30
0.0
 11
250.283207140594
 21
78.6581501776709
 31
0.0
  0
LINE
  5
   684
  8
0
  6
CONTINUOUS
 62
     7
 10
249.464022901176
 20
76.3001584357768
 30
0.0
 11
242.70381540358
 21
77.4200318111363
 31
0.0
  0
LINE
  5
   685
  8
0
  6
CONTINUOUS
 62
     7
 10
205.078798954486
 20
72.3550304070886
 30
0.0
 11
205.078798954486
 21
76.2050303415235
 31
0.0
  0
LINE
  5
   686
  8
0
  6
CONTINUOUS
 62
     7
 10
212.07881309771
 20
158.805023594278
 30
0.0
 11
210.328813127513
 21
158.805023594278
 31
0.0
  0
LINE
  5
   687
  8
0
  6
DASHDOT
 62
     7
 10
217.575192344641
 20
155.305041560053
 30
0.0
 11
207.728543100121
 21
155.305041560053
 31
0.0
  0
LINE
  5
   688
  8
0
  6
CONTINUOUS
 62
     7
 10
212.078812430138
 20
156.705041536212
 30
0.0
 11
210.328813127513
 21
156.705041536212
 31
0.0
  0
LINE
  5
   689
  8
0
  6
CONTINUOUS
 62
     7
 10
212.078812430138
 20
153.905041583895
 30
0.0
 11
210.328813127513
 21
153.905041583895
 31
0.0
  0
LINE
  5
   68A
  8
0
  6
CONTINUOUS
 62
     7
 10
212.078812430138
 20
151.159037481179
 30
0.0
 11
212.078812430138
 21
158.805023594278
 31
0.0
  0
LINE
  5
   68B
  8
0
  6
CONTINUOUS
 62
     7
 10
210.328813127513
 20
151.159037481179
 30
0.0
 11
210.328813127513
 21
153.905041583895
 31
0.0
  0
LINE
  5
   68C
  8
0
  6
CONTINUOUS
 62
     2
 10
204.028789359169
 20
123.739084097453
 30
0.0
 11
204.028789359169
 21
130.280023703078
 31
0.0
  0
INSERT
  5
   68D
  8
0
  6
CONTINUOUS
 62
     7
  2
*HATCH98
 10
239.378799438477
 20
47.9470596313477
 30
0.0
 41
0.349999994039536
 42
0.349999994039536
 50
89.9999999480344
 43
0.349999994039536
  0
LINE
  5
   68E
  8
0
  6
DASHDOT
 62
     7
 10
203.328821414709
 20
43.5850076502918
 30
0.0
 11
203.328821414709
 21
166.019297077439
 31
0.0
  0
LINE
  5
   68F
  8
0
  6
DASHDOT
 62
     7
 10
202.27882143259
 20
43.5850076502918
 30
0.0
 11
202.27882143259
 21
166.019297077439
 31
0.0
  0
LINE
  5
   690
  8
0
  6
CONTINUOUS
 62
     7
 10
204.424223833951
 20
166.019297077439
 30
0.0
 11
200.875996783957
 21
166.019297077439
 31
0.0
  0
ARC
  5
   691
  8
0
  6
CONTINUOUS
 62
     7
 10
223.978815722465
 20
82.8550475317289
 30
0.0
 40
26.61542846025
 50
333.082565820193
 51
379.93594827737
  0
LINE
  5
   692
  8
0
  6
CONTINUOUS
 62
     7
 10
250.594244182715
 20
82.8550475317289
 30
0.0
 11
250.594244182715
 21
98.0272949341496
 31
0.0
  0
LINE
  5
   693
  8
0
  6
DASHDOT
 62
     7
 10
217.575192344641
 20
47.6800075805543
 30
0.0
 11
207.728543100121
 21
47.6800075805543
 31
0.0
  0
LINE
  5
   694
  8
0
  6
CONTINUOUS
 62
     7
 10
212.07881309771
 20
44.1800255463299
 30
0.0
 11
210.328813127513
 21
44.1800255463299
 31
0.0
  0
LINE
  5
   695
  8
0
  6
CONTINUOUS
 62
     7
 10
210.328813127513
 20
44.1800255463299
 30
0.0
 11
210.328813127513
 21
54.8519530291575
 31
0.0
  0
LINE
  5
   696
  8
0
  6
CONTINUOUS
 62
     7
 10
212.078812430138
 20
49.0800075567125
 30
0.0
 11
210.328813127513
 21
49.0800075567125
 31
0.0
  0
LINE
  5
   697
  8
0
  6
CONTINUOUS
 62
     7
 10
212.078812430138
 20
46.2800076043962
 30
0.0
 11
210.328813127513
 21
46.2800076043962
 31
0.0
  0
LINE
  5
   698
  8
0
  6
CONTINUOUS
 62
     7
 10
212.078812430138
 20
44.1800255463299
 30
0.0
 11
212.078812430138
 21
46.2800076043962
 31
0.0
  0
LINE
  5
   699
  8
0
  6
CONTINUOUS
 62
     7
 10
217.630952154059
 20
54.8519530291575
 30
0.0
 11
200.140822376873
 21
54.8519530291575
 31
0.0
  0
LINE
  5
   69A
  8
0
  6
CONTINUOUS
 62
     7
 10
220.906967174244
 20
40.2910652924369
 30
0.0
 11
216.76456801649
 21
55.3715641870077
 31
0.0
  0
INSERT
  5
   69B
  8
0
  6
CONTINUOUS
 62
     7
  2
*HATCH99
 10
239.378799438477
 20
47.9470596313477
 30
0.0
 41
0.349999994039536
 42
0.349999994039536
 50
89.9999999480344
 43
0.349999994039536
  0
INSERT
  5
   69C
  8
0
  6
CONTINUOUS
 62
     7
  2
*HATCH100
 10
239.378799438477
 20
47.9470596313477
 30
0.0
 41
0.349999994039536
 42
0.349999994039536
 50
89.9999999480344
 43
0.349999994039536
  0
LINE
  5
   69D
  8
0
  6
CONTINUOUS
 62
     7
 10
210.328813127513
 20
52.9300074911474
 30
0.0
 11
204.028821069002
 21
52.9300074911474
 31
0.0
  0
LINE
  5
   69E
  8
0
  6
CONTINUOUS
 62
     7
 10
210.328813127513
 20
54.3300074673055
 30
0.0
 11
203.328821414709
 21
54.3300074673055
 31
0.0
  0
LINE
  5
   69F
  8
0
  6
CONTINUOUS
 62
     7
 10
217.819789149019
 20
51.5300075149892
 30
0.0
 11
212.078812430138
 21
51.5300075149892
 31
0.0
  0
INSERT
  5
   6A0
  8
0
  6
CONTINUOUS
 62
     7
  2
*HATCH101
 10
239.378799438477
 20
47.9470596313477
 30
0.0
 41
0.349999994039536
 42
0.349999994039536
 50
89.9999999480344
 43
0.349999994039536
  0
LINE
  5
   6A1
  8
0
  6
CONTINUOUS
 62
     7
 10
217.435229011941
 20
52.9300074911474
 30
0.0
 11
212.078812430138
 21
52.9300074911474
 31
0.0
  0
INSERT
  5
   6A2
  8
0
  6
CONTINUOUS
 62
     7
  2
*HATCH102
 10
239.378799438477
 20
47.9470596313477
 30
0.0
 41
0.349999994039536
 42
0.349999994039536
 50
89.9999999480344
 43
0.349999994039536
  0
LINE
  5
   6A3
  8
0
  6
CONTINUOUS
 62
     7
 10
225.728810352087
 20
65.1800412104307
 30
0.0
 11
204.728821390867
 21
65.1800412104307
 31
0.0
  0
LINE
  5
   6A4
  8
0
  6
CONTINUOUS
 62
     7
 10
242.70381540358
 20
91.1675354272898
 30
0.0
 11
242.70381540358
 21
104.817536476558
 31
0.0
  0
LINE
  5
   6A5
  8
0
  6
CONTINUOUS
 62
     7
 10
242.70381540358
 20
86.6175355047758
 30
0.0
 11
242.70381540358
 21
90.8175354332502
 31
0.0
  0
LINE
  5
   6A6
  8
0
  6
CONTINUOUS
 62
     7
 10
242.70381540358
 20
79.4425463081167
 30
0.0
 11
242.70381540358
 21
86.2675355107362
 31
0.0
  0
LINE
  5
   6A7
  8
0
  6
CONTINUOUS
 62
     7
 10
242.70381540358
 20
74.8925357044514
 30
0.0
 11
242.70381540358
 21
79.0925463140772
 31
0.0
  0
LINE
  5
   6A8
  8
0
  6
CONTINUOUS
 62
     1
 10
240.778817439079
 20
67.1902781070434
 30
0.0
 11
240.778817439079
 21
67.8902780951224
 31
0.0
  0
LINE
  5
   6A9
  8
0
  6
CONTINUOUS
 62
     1
 10
241.478817427158
 20
67.1902781070434
 30
0.0
 11
240.778817439079
 21
67.1902781070434
 31
0.0
  0
LINE
  5
   6AA
  8
0
  6
CONTINUOUS
 62
     1
 10
240.778817439079
 20
104.990276128169
 30
0.0
 11
240.778817439079
 21
105.690276116248
 31
0.0
  0
LINE
  5
   6AB
  8
0
  6
CONTINUOUS
 62
     1
 10
241.478817427158
 20
105.690276116248
 30
0.0
 11
240.778817439079
 21
105.690276116248
 31
0.0
  0
LINE
  5
   6AC
  8
0
  6
CONTINUOUS
 62
     1
 10
240.778817439079
 20
67.8902780951224
 30
0.0
 11
240.778817439079
 21
104.990277463313
 31
0.0
  0
LINE
  5
   6AD
  8
0
  6
CONTINUOUS
 62
     1
 10
239.203817465901
 20
110.442347415936
 30
0.0
 11
239.203817465901
 21
112.138204625825
 31
0.0
  0
LINE
  5
   6AE
  8
0
  6
CONTINUOUS
 62
     1
 10
241.478817427158
 20
58.267529311852
 30
0.0
 11
241.478817427158
 21
114.617527017073
 31
0.0
  0
LINE
  5
   6AF
  8
0
  6
CONTINUOUS
 62
     1
 10
242.703817406296
 20
58.267529311852
 30
0.0
 11
242.703817406296
 21
114.617527017073
 31
0.0
  0
LINE
  5
   6B0
  8
0
  6
CONTINUOUS
 62
     1
 10
241.478817427158
 20
110.240276038762
 30
0.0
 11
239.553816341121
 21
110.240276038762
 31
0.0
  0
LINE
  5
   6B1
  8
0
  6
CONTINUOUS
 62
     1
 10
241.478817427158
 20
112.340276002999
 30
0.0
 11
239.553818606725
 21
112.340276002999
 31
0.0
  0
LINE
  5
   6B2
  8
0
  6
CONTINUOUS
 62
     1
 10
239.553817455145
 20
110.240276038762
 30
0.0
 11
239.553817455145
 21
110.320203100389
 31
0.0
  0
LINE
  5
   6B3
  8
0
  6
CONTINUOUS
 62
     1
 10
239.553817733649
 20
110.240275234791
 30
0.0
 11
239.203817728085
 21
110.442346614498
 31
0.0
  0
LINE
  5
   6B4
  8
0
  6
CONTINUOUS
 62
     1
 10
239.553817455145
 20
110.320203100389
 30
0.0
 11
239.553817455145
 21
110.547813112382
 31
0.0
  0
LINE
  5
   6B5
  8
0
  6
CONTINUOUS
 62
     1
 10
239.553817455145
 20
110.547813112382
 30
0.0
 11
239.553817455145
 21
110.888461757704
 31
0.0
  0
LINE
  5
   6B6
  8
0
  6
CONTINUOUS
 62
     1
 10
239.553817455145
 20
110.888461757704
 30
0.0
 11
239.553817455145
 21
111.290276020881
 31
0.0
  0
LINE
  5
   6B7
  8
0
  6
CONTINUOUS
 62
     1
 10
239.553817455145
 20
111.290276020881
 30
0.0
 11
239.553817455145
 21
111.692095624634
 31
0.0
  0
LINE
  5
   6B8
  8
0
  6
CONTINUOUS
 62
     1
 10
239.553817455145
 20
111.692095624634
 30
0.0
 11
239.553817455145
 21
112.032738929379
 31
0.0
  0
LINE
  5
   6B9
  8
0
  6
CONTINUOUS
 62
     1
 10
239.553817455145
 20
112.032738929379
 30
0.0
 11
239.553817455145
 21
112.260348941372
 31
0.0
  0
LINE
  5
   6BA
  8
0
  6
CONTINUOUS
 62
     1
 10
239.553817455145
 20
112.260348941372
 30
0.0
 11
239.553817455145
 21
112.340276002999
 31
0.0
  0
LINE
  5
   6BB
  8
0
  6
CONTINUOUS
 62
     1
 10
239.203817161689
 20
112.138203792217
 30
0.0
 11
239.553817167253
 21
112.340275171925
 31
0.0
  0
LINE
  5
   6BC
  8
0
  6
CONTINUOUS
 62
     1
 10
241.478817427158
 20
62.6402781845294
 30
0.0
 11
239.553818156934
 21
62.6402781845294
 31
0.0
  0
LINE
  5
   6BD
  8
0
  6
CONTINUOUS
 62
     1
 10
241.478817427158
 20
60.5402782202922
 30
0.0
 11
239.553817466806
 21
60.5402782202922
 31
0.0
  0
LINE
  5
   6BE
  8
0
  6
CONTINUOUS
 62
     1
 10
239.553817466806
 20
62.5603511229023
 30
0.0
 11
239.553817466806
 21
62.6402781845294
 31
0.0
  0
LINE
  5
   6BF
  8
0
  6
CONTINUOUS
 62
     1
 10
239.553817466797
 20
62.3327397757653
 30
0.0
 11
239.553817466797
 21
62.5603511229023
 31
0.0
  0
LINE
  5
   6C0
  8
0
  6
CONTINUOUS
 62
     1
 10
239.553817466807
 20
61.9920964710195
 30
0.0
 11
239.553817466807
 21
62.3327397757653
 31
0.0
  0
LINE
  5
   6C1
  8
0
  6
CONTINUOUS
 62
     1
 10
239.553817466783
 20
61.5902782024108
 30
0.0
 11
239.553817466783
 21
61.9920964710195
 31
0.0
  0
LINE
  5
   6C2
  8
0
  6
CONTINUOUS
 62
     1
 10
239.553817466826
 20
61.1884612689461
 30
0.0
 11
239.553817466826
 21
61.5902782024108
 31
0.0
  0
LINE
  5
   6C3
  8
0
  6
CONTINUOUS
 62
     1
 10
239.553817466807
 20
60.8478166290563
 30
0.0
 11
239.553817466807
 21
61.1884612689461
 31
0.0
  0
LINE
  5
   6C4
  8
0
  6
CONTINUOUS
 62
     1
 10
239.553817466798
 20
60.5402782202922
 30
0.0
 11
239.553817466798
 21
60.8478166290563
 31
0.0
  0
LINE
  5
   6C5
  8
0
  6
CONTINUOUS
 62
     1
 10
239.553817466806
 20
60.5402782202922
 30
0.0
 11
239.553817466806
 21
60.6202052819193
 31
0.0
  0
LINE
  5
   6C6
  8
0
  6
CONTINUOUS
 62
     7
 10
239.203817283149
 20
62.4382049821233
 30
0.0
 11
239.553817288714
 21
62.6402776832616
 31
0.0
  0
LINE
  5
   6C7
  8
0
  6
CONTINUOUS
 62
     7
 10
239.55381761182
 20
60.5402777906675
 30
0.0
 11
239.203817606255
 21
60.7423504918058
 31
0.0
  0
LINE
  5
   6C8
  8
0
  6
CONTINUOUS
 62
     7
 10
240.778817439079
 20
38.7942539005803
 30
0.0
 11
240.778817439079
 21
60.5402782202922
 31
0.0
  0
LINE
  5
   6C9
  8
0
  6
CONTINUOUS
 62
     7
 10
241.478817427158
 20
39.2239090656771
 30
0.0
 11
241.478817427158
 21
58.267529311852
 31
0.0
  0
LINE
  5
   6CA
  8
0
  6
CONTINUOUS
 62
     7
 10
241.478817427158
 20
112.515276000019
 30
0.0
 11
241.478817427158
 21
165.082161064052
 31
0.0
  0
LINE
  5
   6CB
  8
0
  6
CONTINUOUS
 62
     7
 10
241.478817427158
 20
66.8402781130038
 30
0.0
 11
240.778817439079
 21
66.8402781130038
 31
0.0
  0
LINE
  5
   6CC
  8
0
  6
CONTINUOUS
 62
     7
 10
241.478817427158
 20
106.040276110288
 30
0.0
 11
240.778817439079
 21
106.040276110288
 31
0.0
  0
LINE
  5
   6CD
  8
0
  6
CONTINUOUS
 62
     7
 10
241.478817427158
 20
112.515276000019
 30
0.0
 11
240.778817439079
 21
112.515276000019
 31
0.0
  0
LINE
  5
   6CE
  8
0
  6
CONTINUOUS
 62
     7
 10
241.478817427158
 20
110.065276041742
 30
0.0
 11
240.778817439079
 21
110.065276041742
 31
0.0
  0
LINE
  5
   6CF
  8
0
  6
CONTINUOUS
 62
     7
 10
241.478817427158
 20
62.8152781815492
 30
0.0
 11
240.778817439079
 21
62.8152781815492
 31
0.0
  0
LINE
  5
   6D0
  8
0
  6
CONTINUOUS
 62
     7
 10
241.478817427158
 20
60.3652782232724
 30
0.0
 11
240.778817439079
 21
60.3652782232724
 31
0.0
  0
LINE
  5
   6D1
  8
0
  6
CONTINUOUS
 62
     7
 10
240.778817439079
 20
62.6402781845294
 30
0.0
 11
240.778817439079
 21
110.240276038762
 31
0.0
  0
LINE
  5
   6D2
  8
0
  6
CONTINUOUS
 62
     7
 10
240.778817439079
 20
112.340276002999
 30
0.0
 11
240.778817439079
 21
164.704710090088
 31
0.0
  0
LINE
  5
   6D3
  8
0
  6
CONTINUOUS
 62
     7
 10
239.94099111878
 20
164.252940995809
 30
0.0
 11
242.498897534978
 21
165.632204259445
 31
0.0
  0
LINE
  5
   6D4
  8
0
  6
CONTINUOUS
 62
     7
 10
239.614983438284
 20
38.0799006173339
 30
0.0
 11
243.251222951507
 21
40.3117993530361
 31
0.0
  0
INSERT
  5
   6D5
  8
0
  6
CONTINUOUS
 62
     7
  2
*HATCH103
 10
239.378799438477
 20
47.9470596313477
 30
0.0
 41
0.349999994039536
 42
0.349999994039536
 50
89.9999999480344
 43
0.349999994039536
  0
INSERT
  5
   6D6
  8
0
  6
CONTINUOUS
 62
     7
  2
*HATCH104
 10
239.378799438477
 20
47.9470596313477
 30
0.0
 41
0.349999994039536
 42
0.349999994039536
 50
89.9999999480344
 43
0.349999994039536
  0
INSERT
  5
   6D7
  8
0
  6
CONTINUOUS
 62
     7
  2
*HATCH105
 10
239.378799438477
 20
47.9470596313477
 30
0.0
 41
0.349999994039536
 42
0.349999994039536
 50
89.9999999480344
 43
0.349999994039536
  0
LINE
  5
   6D8
  8
0
  6
CONTINUOUS
 62
     7
 10
239.203817606255
 20
60.7423504918058
 30
0.0
 11
239.203817283149
 21
62.4382049821233
 31
0.0
  0
LINE
  5
   6D9
  8
0
  6
DASHDOT
 62
     7
 10
255.39901971438
 20
86.4425367894819
 30
0.0
 11
197.81342548751
 21
86.4425367894819
 31
0.0
  0
INSERT
  5
   6DA
  8
255
  6
CONTINUOUS
 62
     7
  2
159488
 10
236.753800150752
 20
79.2720590978861
 30
0.0
 41
0.349999994039536
 42
0.349999994039536
 50
359.999999792138
 43
0.349999994039536
  0
LINE
  5
   6DB
  8
0
  6
CONTINUOUS
 62
     7
 10
210.328813127513
 20
156.705041536212
 30
0.0
 11
210.328813127513
 21
158.805023594278
 31
0.0
  0
LINE
  5
   6DC
  8
0
  6
CONTINUOUS
 62
     7
 10
225.856380153456
 20
151.159037481179
 30
0.0
 11
230.581955084906
 21
161.585789910572
 31
0.0
  0
INSERT
  5
   6DD
  8
255
  6
CONTINUOUS
 62
     1
  2
MORSETTO
 10
212.078812430138
 20
47.6800075805543
 30
0.0
 41
0.349999994039536
 42
0.349999994039536
 50
3.50835464724173E-15
 43
0.349999994039536
  0
LINE
  5
   6DE
  8
0
  6
CONTINUOUS
 62
    98
 10
238.416315476596
 20
25.280043171649
 30
0.0
 11
204.028821402788
 21
25.280043171649
 31
0.0
  0
LINE
  5
   6DF
  8
0
  6
CONTINUOUS
 62
    98
 10
204.028821402788
 20
25.280043171649
 30
0.0
 11
204.028821402788
 21
37.9850077456592
 31
0.0
  0
ARC
  5
   6E0
  8
0
  6
CONTINUOUS
 62
    98
 10
238.416315476596
 20
25.7175431641984
 30
0.0
 40
0.437499992549419
 50
269.999999948034
 51
359.999999948034
  0
LINE
  5
   6E1
  8
0
  6
CONTINUOUS
 62
    98
 10
238.853815469146
 20
25.7175431641984
 30
0.0
 11
238.853815469146
 21
39.63004292727
 31
0.0
  0
LINE
  5
   6E2
  8
0
  6
CONTINUOUS
 62
    98
 10
238.853815469146
 20
39.63004292727
 30
0.0
 11
238.853815469146
 21
49.430042760377
 31
0.0
  0
LINE
  5
   6E3
  8
0
  6
CONTINUOUS
 62
    98
 10
238.853815469146
 20
49.430042760377
 30
0.0
 11
238.503815475106
 21
49.430042760377
 31
0.0
  0
LINE
  5
   6E4
  8
0
  6
CONTINUOUS
 62
    98
 10
238.503815475106
 20
49.7800427544165
 30
0.0
 11
237.803818157315
 21
49.7800427544165
 31
0.0
  0
LINE
  5
   6E5
  8
0
  6
CONTINUOUS
 62
    98
 10
238.503815475106
 20
49.430042760377
 30
0.0
 11
238.503815475106
 21
49.7800427544165
 31
0.0
  0
LINE
  5
   6E6
  8
0
  6
CONTINUOUS
 62
    98
 10
237.978820824623
 20
40.4350429135609
 30
0.0
 11
237.978820824623
 21
49.7800427544165
 31
0.0
  0
LINE
  5
   6E7
  8
0
  6
CONTINUOUS
 62
    98
 10
237.978820824623
 20
41.5307947984484
 30
0.0
 11
237.978820824623
 21
43.4800428617049
 31
0.0
  0
LINE
  5
   6E8
  8
0
  6
CONTINUOUS
 62
    98
 10
237.978820824623
 20
33.0850430387306
 30
0.0
 11
230.103815618157
 21
33.0850430387306
 31
0.0
  0
LINE
  5
   6E9
  8
0
  6
CONTINUOUS
 62
    98
 10
237.978820824623
 20
39.7350429254818
 30
0.0
 11
230.103815618157
 21
39.7350429254818
 31
0.0
  0
LINE
  5
   6EA
  8
0
  6
CONTINUOUS
 62
    98
 10
237.978820824623
 20
32.3850430506516
 30
0.0
 11
230.978815603256
 21
32.3850430506516
 31
0.0
  0
LINE
  5
   6EB
  8
0
  6
CONTINUOUS
 62
    98
 10
237.978820824623
 20
40.4350429135609
 30
0.0
 11
230.978815603256
 21
40.4350429135609
 31
0.0
  0
LINE
  5
   6EC
  8
0
  6
CONTINUOUS
 62
     1
 10
230.978815603256
 20
40.4350429135609
 30
0.0
 11
230.978815603256
 21
41.13504290164
 31
0.0
  0
LINE
  5
   6ED
  8
0
  6
CONTINUOUS
 62
    98
 10
230.978815603256
 20
25.280043171649
 30
0.0
 11
230.978815603256
 21
32.3850430506516
 31
0.0
  0
LINE
  5
   6EE
  8
0
  6
CONTINUOUS
 62
    98
 10
237.978820824623
 20
25.280043171649
 30
0.0
 11
237.978820824623
 21
32.3850430506516
 31
0.0
  0
LINE
  5
   6EF
  8
0
  6
CONTINUOUS
 62
    98
 10
237.978820824623
 20
33.0850430387306
 30
0.0
 11
237.978820824623
 21
39.7350429254818
 31
0.0
  0
LINE
  5
   6F0
  8
0
  6
CONTINUOUS
 62
    98
 10
230.103815618157
 20
25.9800431597281
 30
0.0
 11
204.028821402788
 21
25.9800431597281
 31
0.0
  0
LINE
  5
   6F1
  8
0
  6
CONTINUOUS
 62
    98
 10
230.103815618157
 20
26.6800431478072
 30
0.0
 11
204.028821402788
 21
26.6800431478072
 31
0.0
  0
LINE
  5
   6F2
  8
0
  6
CONTINUOUS
 62
    98
 10
230.103815618157
 20
27.3800431358862
 30
0.0
 11
204.028821402788
 21
27.3800431358862
 31
0.0
  0
LINE
  5
   6F3
  8
0
  6
CONTINUOUS
 62
    98
 10
230.978815603256
 20
41.13504290164
 30
0.0
 11
217.328812340731
 21
41.13504290164
 31
0.0
  0
LINE
  5
   6F4
  8
0
  6
CONTINUOUS
 62
    98
 10
230.103815618157
 20
40.4350429135609
 30
0.0
 11
217.328812340731
 21
40.4350429135609
 31
0.0
  0
LINE
  5
   6F5
  8
0
  6
CONTINUOUS
 62
    98
 10
230.103815618157
 20
25.280043171649
 30
0.0
 11
230.103815618157
 21
40.4350429135609
 31
0.0
  0
LINE
  5
   6F6
  8
0
  6
CONTINUOUS
 62
     1
 10
225.903815689683
 20
40.4350429135609
 30
0.0
 11
225.903815689683
 21
41.13504290164
 31
0.0
  0
INSERT
  5
   6F7
  8
0
  6
CONTINUOUS
 62
    98
  2
*HATCH114
 10
239.378799438477
 20
47.9470596313477
 30
0.0
 41
0.349999994039536
 42
0.349999994039536
 50
89.9999999480344
 43
0.349999994039536
  0
LINE
  5
   6F8
  8
0
  6
CONTINUOUS
 62
     7
 10
212.078812430138
 20
49.0800075567125
 30
0.0
 11
212.078812430138
 21
54.8519530291575
 31
0.0
  0
LINE
  5
   6F9
  8
0
  6
CONTINUOUS
 62
     7
 10
199.87342662132
 20
19.6962474123814
 30
0.0
 11
205.691398755334
 21
21.608529089896
 31
0.0
  0
LINE
  5
   6FA
  8
0
  6
DASHDOT
 62
     7
 10
203.328821414709
 20
20.8319847448698
 30
0.0
 11
203.328821414709
 21
37.9850077456592
 31
0.0
  0
LINE
  5
   6FB
  8
0
  6
DASHDOT
 62
     7
 10
202.27882143259
 20
20.4868652288348
 30
0.0
 11
202.27882143259
 21
37.9850077456592
 31
0.0
  0
LINE
  5
   6FC
  8
0
  6
CONTINUOUS
 62
   218
 10
217.328812340731
 20
38.6150077349304
 30
0.0
 11
209.278812477822
 21
38.6150077349304
 31
0.0
  0
LINE
  5
   6FD
  8
0
  6
CONTINUOUS
 62
   218
 10
217.328812340731
 20
42.9550076610206
 30
0.0
 11
209.278812477822
 21
42.9550076610206
 31
0.0
  0
LINE
  5
   6FE
  8
0
  6
CONTINUOUS
 62
   218
 10
217.328812340731
 20
38.6150077349304
 30
0.0
 11
217.328812340731
 21
42.9550076610206
 31
0.0
  0
LINE
  5
   6FF
  8
0
  6
CONTINUOUS
 62
   218
 10
209.278812477822
 20
37.9850077456592
 30
0.0
 11
209.278812477822
 21
43.5850076502918
 31
0.0
  0
LINE
  5
   700
  8
0
  6
DASHDOT
 62
   218
 10
219.100255364791
 20
40.7850076979755
 30
0.0
 11
202.064556900832
 21
40.7850076979755
 31
0.0
  0
LINE
  5
   701
  8
0
  6
CONTINUOUS
 62
   218
 10
209.278812477822
 20
43.5850076502918
 30
0.0
 11
199.264556948515
 21
43.5850076502918
 31
0.0
  0
LINE
  5
   702
  8
0
  6
CONTINUOUS
 62
   218
 10
209.278812477822
 20
37.9850077456592
 30
0.0
 11
199.264556948515
 21
37.9850077456592
 31
0.0
  0
LINE
  5
   703
  8
0
  6
CONTINUOUS
 62
   218
 10
209.278812477822
 20
39.3655755274451
 30
0.0
 11
217.328812340731
 21
40.7850076979755
 31
0.0
  0
POLYLINE
  5
   704
  8
0
  6
CONTINUOUS
 62
   218
 66
     1
 10
0.0
 20
0.0
 30
0.0
 70
     1
  0
VERTEX
  5
   705
  8
0
  6
CONTINUOUS
 10
199.264556948515
 20
43.5850076502918
 30
0.0
 40
0.0
 41
0.0
  0
VERTEX
  5
   706
  8
0
  6
CONTINUOUS
 10
199.247378088842
 20
43.5845859964736
 30
0.0
 40
0.0
 41
0.0
  0
VERTEX
  5
   707
  8
0
  6
CONTINUOUS
 10
199.230209577071
 20
43.5833212890077
 30
0.0
 40
0.0
 41
0.0
  0
VERTEX
  5
   708
  8
0
  6
CONTINUOUS
 10
199.213061754872
 20
43.5812142897065
 30
0.0
 40
0.0
 41
0.0
  0
VERTEX
  5
   709
  8
0
  6
CONTINUOUS
 10
199.195944951453
 20
43.5782662677476
 30
0.0
 40
0.0
 41
0.0
  0
VERTEX
  5
   70A
  8
0
  6
CONTINUOUS
 10
199.178869477335
 20
43.5744789989092
 30
0.0
 40
0.0
 41
0.0
  0
VERTEX
  5
   70B
  8
0
  6
CONTINUOUS
 10
199.161845618146
 20
43.5698547645005
 30
0.0
 40
0.0
 41
0.0
  0
VERTEX
  5
   70C
  8
0
  6
CONTINUOUS
 10
199.144883628421
 20
43.5643963499873
 30
0.0
 40
0.0
 41
0.0
  0
VERTEX
  5
   70D
  8
0
  6
CONTINUOUS
 10
199.12799372543
 20
43.5581070433144
 30
0.0
 40
0.0
 41
0.0
  0
VERTEX
  5
   70E
  8
0
  6
CONTINUOUS
 10
199.111186083017
 20
43.550990632925
 30
0.0
 40
0.0
 41
0.0
  0
VERTEX
  5
   70F
  8
0
  6
CONTINUOUS
 10
199.09447082548
 20
43.5430514054786
 30
0.0
 40
0.0
 41
0.0
  0
VERTEX
  5
   710
  8
0
  6
CONTINUOUS
 10
199.077858021462
 20
43.534294143269
 30
0.0
 40
0.0
 41
0.0
  0
VERTEX
  5
   711
  8
0
  6
CONTINUOUS
 10
199.061357677898
 20
43.5247241213435
 30
0.0
 40
0.0
 41
0.0
  0
VERTEX
  5
   712
  8
0
  6
CONTINUOUS
 10
199.044979733975
 20
43.5143471043253
 30
0.0
 40
0.0
 41
0.0
  0
VERTEX
  5
   713
  8
0
  6
CONTINUOUS
 10
199.028734055157
 20
43.5031693429417
 30
0.0
 40
0.0
 41
0.0
  0
VERTEX
  5
   714
  8
0
  6
CONTINUOUS
 10
199.012630427231
 20
43.491197570258
 30
0.0
 40
0.0
 41
0.0
  0
VERTEX
  5
   715
  8
0
  6
CONTINUOUS
 10
198.996678550422
 20
43.4784389976224
 30
0.0
 40
0.0
 41
0.0
  0
VERTEX
  5
   716
  8
0
  6
CONTINUOUS
 10
198.965268388211
 20
43.4505926629537
 30
0.0
 40
0.0
 41
0.0
  0
VERTEX
  5
   717
  8
0
  6
CONTINUOUS
 10
198.934579238357
 20
43.4196974231947
 30
0.0
 40
0.0
 41
0.0
  0
VERTEX
  5
   718
  8
0
  6
CONTINUOUS
 10
198.904685033709
 20
43.3858277076842
 30
0.0
 40
0.0
 41
0.0
  0
VERTEX
  5
   719
  8
0
  6
CONTINUOUS
 10
198.875657792024
 20
43.3490651115334
 30
0.0
 40
0.0
 41
0.0
  0
VERTEX
  5
   71A
  8
0
  6
CONTINUOUS
 10
198.847567442472
 20
43.3094981990566
 30
0.0
 40
0.0
 41
0.0
  0
VERTEX
  5
   71B
  8
0
  6
CONTINUOUS
 10
198.820481657163
 20
43.2672222904114
 30
0.0
 40
0.0
 41
0.0
  0
VERTEX
  5
   71C
  8
0
  6
CONTINUOUS
 10
198.794465688128
 20
43.2223392319649
 30
0.0
 40
0.0
 41
0.0
  0
VERTEX
  5
   71D
  8
0
  6
CONTINUOUS
 10
198.769582210114
 20
43.174957150936
 30
0.0
 40
0.0
 41
0.0
  0
VERTEX
  5
   71E
  8
0
  6
CONTINUOUS
 10
198.7458911696
 20
43.1251901949082
 30
0.0
 40
0.0
 41
0.0
  0
VERTEX
  5
   71F
  8
0
  6
CONTINUOUS
 10
198.723449640376
 20
43.0731582568376
 30
0.0
 40
0.0
 41
0.0
  0
VERTEX
  5
   720
  8
0
  6
CONTINUOUS
 10
198.702311686054
 20
43.0189866862204
 30
0.0
 40
0.0
 41
0.0
  0
VERTEX
  5
   721
  8
0
  6
CONTINUOUS
 10
198.682528229815
 20
42.9628059871152
 30
0.0
 40
0.0
 41
0.0
  0
VERTEX
  5
   722
  8
0
  6
CONTINUOUS
 10
198.66414693174
 20
42.904751503747
 30
0.0
 40
0.0
 41
0.0
  0
VERTEX
  5
   723
  8
0
  6
CONTINUOUS
 10
198.647212073985
 20
42.844963094451
 30
0.0
 40
0.0
 41
0.0
  0
VERTEX
  5
   724
  8
0
  6
CONTINUOUS
 10
198.631764454105
 20
42.7835847947423
 30
0.0
 40
0.0
 41
0.0
  0
VERTEX
  5
   725
  8
0
  6
CONTINUOUS
 10
198.617841286771
 20
42.7207644703209
 30
0.0
 40
0.0
 41
0.0
  0
VERTEX
  5
   726
  8
0
  6
CONTINUOUS
 10
198.605476114111
 20
42.6566534608506
 30
0.0
 40
0.0
 41
0.0
  0
VERTEX
  5
   727
  8
0
  6
CONTINUOUS
 10
198.59469872491
 20
42.5914062153689
 30
0.0
 40
0.0
 41
0.0
  0
VERTEX
  5
   728
  8
0
  6
CONTINUOUS
 10
198.585535082843
 20
42.5251799202051
 30
0.0
 40
0.0
 41
0.0
  0
VERTEX
  5
   729
  8
0
  6
CONTINUOUS
 10
198.578007263925
 20
42.4581341203049
 30
0.0
 40
0.0
 41
0.0
  0
VERTEX
  5
   72A
  8
0
  6
CONTINUOUS
 10
198.572133403332
 20
42.3904303348728
 30
0.0
 40
0.0
 41
0.0
  0
VERTEX
  5
   72B
  8
0
  6
CONTINUOUS
 10
198.567927651708
 20
42.3222316682581
 30
0.0
 40
0.0
 41
0.0
  0
VERTEX
  5
   72C
  8
0
  6
CONTINUOUS
 10
198.565400141078
 20
42.2537024170221
 30
0.0
 40
0.0
 41
0.0
  0
VERTEX
  5
   72D
  8
0
  6
CONTINUOUS
 10
198.564556960436
 20
42.1850076741336
 30
0.0
 40
0.0
 41
0.0
  0
VERTEX
  5
   72E
  8
0
  6
CONTINUOUS
 10
198.565400141078
 20
42.1163129312451
 30
0.0
 40
0.0
 41
0.0
  0
VERTEX
  5
   72F
  8
0
  6
CONTINUOUS
 10
198.567927651708
 20
42.0477836800091
 30
0.0
 40
0.0
 41
0.0
  0
VERTEX
  5
   730
  8
0
  6
CONTINUOUS
 10
198.572133403332
 20
41.9795850133944
 30
0.0
 40
0.0
 41
0.0
  0
VERTEX
  5
   731
  8
0
  6
CONTINUOUS
 10
198.578007263925
 20
41.9118812279623
 30
0.0
 40
0.0
 41
0.0
  0
VERTEX
  5
   732
  8
0
  6
CONTINUOUS
 10
198.585535082843
 20
41.8448354280621
 30
0.0
 40
0.0
 41
0.0
  0
VERTEX
  5
   733
  8
0
  6
CONTINUOUS
 10
198.59469872491
 20
41.7786091328983
 30
0.0
 40
0.0
 41
0.0
  0
VERTEX
  5
   734
  8
0
  6
CONTINUOUS
 10
198.605476114111
 20
41.7133618874166
 30
0.0
 40
0.0
 41
0.0
  0
VERTEX
  5
   735
  8
0
  6
CONTINUOUS
 10
198.617841286771
 20
41.6492508779464
 30
0.0
 40
0.0
 41
0.0
  0
VERTEX
  5
   736
  8
0
  6
CONTINUOUS
 10
198.631764454105
 20
41.5864305535249
 30
0.0
 40
0.0
 41
0.0
  0
VERTEX
  5
   737
  8
0
  6
CONTINUOUS
 10
198.647212073985
 20
41.5250522538162
 30
0.0
 40
0.0
 41
0.0
  0
VERTEX
  5
   738
  8
0
  6
CONTINUOUS
 10
198.66414693174
 20
41.4652638445203
 30
0.0
 40
0.0
 41
0.0
  0
VERTEX
  5
   739
  8
0
  6
CONTINUOUS
 10
198.682528229815
 20
41.407209361152
 30
0.0
 40
0.0
 41
0.0
  0
VERTEX
  5
   73A
  8
0
  6
CONTINUOUS
 10
198.702311686054
 20
41.3510286620468
 30
0.0
 40
0.0
 41
0.0
  0
VERTEX
  5
   73B
  8
0
  6
CONTINUOUS
 10
198.723449640376
 20
41.2968570914296
 30
0.0
 40
0.0
 41
0.0
  0
VERTEX
  5
   73C
  8
0
  6
CONTINUOUS
 10
198.7458911696
 20
41.244825153359
 30
0.0
 40
0.0
 41
0.0
  0
VERTEX
  5
   73D
  8
0
  6
CONTINUOUS
 10
198.769582210114
 20
41.1950581973312
 30
0.0
 40
0.0
 41
0.0
  0
VERTEX
  5
   73E
  8
0
  6
CONTINUOUS
 10
198.794465688128
 20
41.1476761163023
 30
0.0
 40
0.0
 41
0.0
  0
VERTEX
  5
   73F
  8
0
  6
CONTINUOUS
 10
198.820481657163
 20
41.1027930578558
 30
0.0
 40
0.0
 41
0.0
  0
VERTEX
  5
   740
  8
0
  6
CONTINUOUS
 10
198.847567442472
 20
41.0605171492107
 30
0.0
 40
0.0
 41
0.0
  0
VERTEX
  5
   741
  8
0
  6
CONTINUOUS
 10
198.875657792024
 20
41.0209502367338
 30
0.0
 40
0.0
 41
0.0
  0
VERTEX
  5
   742
  8
0
  6
CONTINUOUS
 10
198.904685033709
 20
40.9841876405831
 30
0.0
 40
0.0
 41
0.0
  0
VERTEX
  5
   743
  8
0
  6
CONTINUOUS
 10
198.934579238357
 20
40.9503179250726
 30
0.0
 40
0.0
 41
0.0
  0
VERTEX
  5
   744
  8
0
  6
CONTINUOUS
 10
198.965268388211
 20
40.9194226853136
 30
0.0
 40
0.0
 41
0.0
  0
VERTEX
  5
   745
  8
0
  6
CONTINUOUS
 10
198.996678550422
 20
40.8915763506448
 30
0.0
 40
0.0
 41
0.0
  0
VERTEX
  5
   746
  8
0
  6
CONTINUOUS
 10
199.012630427231
 20
40.8788177780093
 30
0.0
 40
0.0
 41
0.0
  0
VERTEX
  5
   747
  8
0
  6
CONTINUOUS
 10
199.028734055157
 20
40.8668460053255
 30
0.0
 40
0.0
 41
0.0
  0
VERTEX
  5
   748
  8
0
  6
CONTINUOUS
 10
199.044979733975
 20
40.8556682439419
 30
0.0
 40
0.0
 41
0.0
  0
VERTEX
  5
   749
  8
0
  6
CONTINUOUS
 10
199.061357677898
 20
40.8452912269238
 30
0.0
 40
0.0
 41
0.0
  0
VERTEX
  5
   74A
  8
0
  6
CONTINUOUS
 10
199.077858021462
 20
40.8357212049982
 30
0.0
 40
0.0
 41
0.0
  0
VERTEX
  5
   74B
  8
0
  6
CONTINUOUS
 10
199.09447082548
 20
40.8269639427886
 30
0.0
 40
0.0
 41
0.0
  0
VERTEX
  5
   74C
  8
0
  6
CONTINUOUS
 10
199.111186083017
 20
40.8190247153422
 30
0.0
 40
0.0
 41
0.0
  0
VERTEX
  5
   74D
  8
0
  6
CONTINUOUS
 10
199.12799372543
 20
40.8119083049528
 30
0.0
 40
0.0
 41
0.0
  0
VERTEX
  5
   74E
  8
0
  6
CONTINUOUS
 10
199.144883628421
 20
40.8056189982799
 30
0.0
 40
0.0
 41
0.0
  0
VERTEX
  5
   74F
  8
0
  6
CONTINUOUS
 10
199.161845618146
 20
40.8001605837667
 30
0.0
 40
0.0
 41
0.0
  0
VERTEX
  5
   750
  8
0
  6
CONTINUOUS
 10
199.178869477335
 20
40.795536349358
 30
0.0
 40
0.0
 41
0.0
  0
VERTEX
  5
   751
  8
0
  6
CONTINUOUS
 10
199.195944951453
 20
40.7917490805196
 30
0.0
 40
0.0
 41
0.0
  0
VERTEX
  5
   752
  8
0
  6
CONTINUOUS
 10
199.213061754872
 20
40.7888010585607
 30
0.0
 40
0.0
 41
0.0
  0
VERTEX
  5
   753
  8
0
  6
CONTINUOUS
 10
199.230209577071
 20
40.7866940592595
 30
0.0
 40
0.0
 41
0.0
  0
VERTEX
  5
   754
  8
0
  6
CONTINUOUS
 10
199.247378088842
 20
40.7854293517936
 30
0.0
 40
0.0
 41
0.0
  0
VERTEX
  5
   755
  8
0
  6
CONTINUOUS
 10
199.264556948515
 20
40.7850076979755
 30
0.0
 40
0.0
 41
0.0
  0
VERTEX
  5
   756
  8
0
  6
CONTINUOUS
 10
199.281735808189
 20
40.7854293517936
 30
0.0
 40
0.0
 41
0.0
  0
VERTEX
  5
   757
  8
0
  6
CONTINUOUS
 10
199.29890431996
 20
40.7866940592595
 30
0.0
 40
0.0
 41
0.0
  0
VERTEX
  5
   758
  8
0
  6
CONTINUOUS
 10
199.316052142158
 20
40.7888010585607
 30
0.0
 40
0.0
 41
0.0
  0
VERTEX
  5
   759
  8
0
  6
CONTINUOUS
 10
199.333168945577
 20
40.7917490805196
 30
0.0
 40
0.0
 41
0.0
  0
VERTEX
  5
   75A
  8
0
  6
CONTINUOUS
 10
199.350244419695
 20
40.795536349358
 30
0.0
 40
0.0
 41
0.0
  0
VERTEX
  5
   75B
  8
0
  6
CONTINUOUS
 10
199.367268278885
 20
40.8001605837667
 30
0.0
 40
0.0
 41
0.0
  0
VERTEX
  5
   75C
  8
0
  6
CONTINUOUS
 10
199.384230268609
 20
40.8056189982799
 30
0.0
 40
0.0
 41
0.0
  0
VERTEX
  5
   75D
  8
0
  6
CONTINUOUS
 10
199.401120171601
 20
40.8119083049528
 30
0.0
 40
0.0
 41
0.0
  0
VERTEX
  5
   75E
  8
0
  6
CONTINUOUS
 10
199.417927814013
 20
40.8190247153422
 30
0.0
 40
0.0
 41
0.0
  0
VERTEX
  5
   75F
  8
0
  6
CONTINUOUS
 10
199.434643071551
 20
40.8269639427886
 30
0.0
 40
0.0
 41
0.0
  0
VERTEX
  5
   760
  8
0
  6
CONTINUOUS
 10
199.451255875568
 20
40.8357212049982
 30
0.0
 40
0.0
 41
0.0
  0
VERTEX
  5
   761
  8
0
  6
CONTINUOUS
 10
199.467756219133
 20
40.8452912269238
 30
0.0
 40
0.0
 41
0.0
  0
VERTEX
  5
   762
  8
0
  6
CONTINUOUS
 10
199.484134163055
 20
40.8556682439419
 30
0.0
 40
0.0
 41
0.0
  0
VERTEX
  5
   763
  8
0
  6
CONTINUOUS
 10
199.500379841874
 20
40.8668460053255
 30
0.0
 40
0.0
 41
0.0
  0
VERTEX
  5
   764
  8
0
  6
CONTINUOUS
 10
199.516483469799
 20
40.8788177780093
 30
0.0
 40
0.0
 41
0.0
  0
VERTEX
  5
   765
  8
0
  6
CONTINUOUS
 10
199.532435346609
 20
40.8915763506448
 30
0.0
 40
0.0
 41
0.0
  0
VERTEX
  5
   766
  8
0
  6
CONTINUOUS
 10
199.56384550882
 20
40.9194226853136
 30
0.0
 40
0.0
 41
0.0
  0
VERTEX
  5
   767
  8
0
  6
CONTINUOUS
 10
199.594534658674
 20
40.9503179250726
 30
0.0
 40
0.0
 41
0.0
  0
VERTEX
  5
   768
  8
0
  6
CONTINUOUS
 10
199.624428863322
 20
40.9841876405831
 30
0.0
 40
0.0
 41
0.0
  0
VERTEX
  5
   769
  8
0
  6
CONTINUOUS
 10
199.653456105006
 20
41.0209502367338
 30
0.0
 40
0.0
 41
0.0
  0
VERTEX
  5
   76A
  8
0
  6
CONTINUOUS
 10
199.681546454559
 20
41.0605171492107
 30
0.0
 40
0.0
 41
0.0
  0
VERTEX
  5
   76B
  8
0
  6
CONTINUOUS
 10
199.708632239867
 20
41.1027930578558
 30
0.0
 40
0.0
 41
0.0
  0
VERTEX
  5
   76C
  8
0
  6
CONTINUOUS
 10
199.734648208903
 20
41.1476761163023
 30
0.0
 40
0.0
 41
0.0
  0
VERTEX
  5
   76D
  8
0
  6
CONTINUOUS
 10
199.759531686916
 20
41.1950581973312
 30
0.0
 40
0.0
 41
0.0
  0
VERTEX
  5
   76E
  8
0
  6
CONTINUOUS
 10
199.783222727431
 20
41.244825153359
 30
0.0
 40
0.0
 41
0.0
  0
VERTEX
  5
   76F
  8
0
  6
CONTINUOUS
 10
199.805664256654
 20
41.2968570914296
 30
0.0
 40
0.0
 41
0.0
  0
VERTEX
  5
   770
  8
0
  6
CONTINUOUS
 10
199.826802210977
 20
41.3510286620468
 30
0.0
 40
0.0
 41
0.0
  0
VERTEX
  5
   771
  8
0
  6
CONTINUOUS
 10
199.846585667215
 20
41.407209361152
 30
0.0
 40
0.0
 41
0.0
  0
VERTEX
  5
   772
  8
0
  6
CONTINUOUS
 10
199.864966965291
 20
41.4652638445203
 30
0.0
 40
0.0
 41
0.0
  0
VERTEX
  5
   773
  8
0
  6
CONTINUOUS
 10
199.881901823046
 20
41.5250522538162
 30
0.0
 40
0.0
 41
0.0
  0
VERTEX
  5
   774
  8
0
  6
CONTINUOUS
 10
199.897349442925
 20
41.5864305535249
 30
0.0
 40
0.0
 41
0.0
  0
VERTEX
  5
   775
  8
0
  6
CONTINUOUS
 10
199.91127261026
 20
41.6492508779464
 30
0.0
 40
0.0
 41
0.0
  0
VERTEX
  5
   776
  8
0
  6
CONTINUOUS
 10
199.923637782919
 20
41.7133618874166
 30
0.0
 40
0.0
 41
0.0
  0
VERTEX
  5
   777
  8
0
  6
CONTINUOUS
 10
199.93441517212
 20
41.7786091328983
 30
0.0
 40
0.0
 41
0.0
  0
VERTEX
  5
   778
  8
0
  6
CONTINUOUS
 10
199.943578814188
 20
41.8448354280621
 30
0.0
 40
0.0
 41
0.0
  0
VERTEX
  5
   779
  8
0
  6
CONTINUOUS
 10
199.951106633106
 20
41.9118812279623
 30
0.0
 40
0.0
 41
0.0
  0
VERTEX
  5
   77A
  8
0
  6
CONTINUOUS
 10
199.956980493699
 20
41.9795850133944
 30
0.0
 40
0.0
 41
0.0
  0
VERTEX
  5
   77B
  8
0
  6
CONTINUOUS
 10
199.961186245322
 20
42.0477836800091
 30
0.0
 40
0.0
 41
0.0
  0
VERTEX
  5
   77C
  8
0
  6
CONTINUOUS
 10
199.963713755952
 20
42.1163129312451
 30
0.0
 40
0.0
 41
0.0
  0
VERTEX
  5
   77D
  8
0
  6
CONTINUOUS
 10
199.964556936594
 20
42.1850076741336
 30
0.0
 40
0.0
 41
0.0
  0
VERTEX
  5
   77E
  8
0
  6
CONTINUOUS
 10
199.963713755952
 20
42.2537024170221
 30
0.0
 40
0.0
 41
0.0
  0
VERTEX
  5
   77F
  8
0
  6
CONTINUOUS
 10
199.961186245322
 20
42.3222316682581
 30
0.0
 40
0.0
 41
0.0
  0
VERTEX
  5
   780
  8
0
  6
CONTINUOUS
 10
199.956980493699
 20
42.3904303348728
 30
0.0
 40
0.0
 41
0.0
  0
VERTEX
  5
   781
  8
0
  6
CONTINUOUS
 10
199.951106633106
 20
42.4581341203049
 30
0.0
 40
0.0
 41
0.0
  0
VERTEX
  5
   782
  8
0
  6
CONTINUOUS
 10
199.943578814188
 20
42.5251799202051
 30
0.0
 40
0.0
 41
0.0
  0
VERTEX
  5
   783
  8
0
  6
CONTINUOUS
 10
199.93441517212
 20
42.5914062153689
 30
0.0
 40
0.0
 41
0.0
  0
VERTEX
  5
   784
  8
0
  6
CONTINUOUS
 10
199.923637782919
 20
42.6566534608506
 30
0.0
 40
0.0
 41
0.0
  0
VERTEX
  5
   785
  8
0
  6
CONTINUOUS
 10
199.91127261026
 20
42.7207644703209
 30
0.0
 40
0.0
 41
0.0
  0
VERTEX
  5
   786
  8
0
  6
CONTINUOUS
 10
199.897349442925
 20
42.7835847947423
 30
0.0
 40
0.0
 41
0.0
  0
VERTEX
  5
   787
  8
0
  6
CONTINUOUS
 10
199.881901823046
 20
42.844963094451
 30
0.0
 40
0.0
 41
0.0
  0
VERTEX
  5
   788
  8
0
  6
CONTINUOUS
 10
199.864966965291
 20
42.904751503747
 30
0.0
 40
0.0
 41
0.0
  0
VERTEX
  5
   789
  8
0
  6
CONTINUOUS
 10
199.846585667215
 20
42.9628059871152
 30
0.0
 40
0.0
 41
0.0
  0
VERTEX
  5
   78A
  8
0
  6
CONTINUOUS
 10
199.826802210977
 20
43.0189866862204
 30
0.0
 40
0.0
 41
0.0
  0
VERTEX
  5
   78B
  8
0
  6
CONTINUOUS
 10
199.805664256654
 20
43.0731582568376
 30
0.0
 40
0.0
 41
0.0
  0
VERTEX
  5
   78C
  8
0
  6
CONTINUOUS
 10
199.783222727431
 20
43.1251901949082
 30
0.0
 40
0.0
 41
0.0
  0
VERTEX
  5
   78D
  8
0
  6
CONTINUOUS
 10
199.759531686916
 20
43.174957150936
 30
0.0
 40
0.0
 41
0.0
  0
VERTEX
  5
   78E
  8
0
  6
CONTINUOUS
 10
199.734648208903
 20
43.2223392319649
 30
0.0
 40
0.0
 41
0.0
  0
VERTEX
  5
   78F
  8
0
  6
CONTINUOUS
 10
199.708632239867
 20
43.2672222904114
 30
0.0
 40
0.0
 41
0.0
  0
VERTEX
  5
   790
  8
0
  6
CONTINUOUS
 10
199.681546454559
 20
43.3094981990566
 30
0.0
 40
0.0
 41
0.0
  0
VERTEX
  5
   791
  8
0
  6
CONTINUOUS
 10
199.653456105006
 20
43.3490651115334
 30
0.0
 40
0.0
 41
0.0
  0
VERTEX
  5
   792
  8
0
  6
CONTINUOUS
 10
199.624428863322
 20
43.3858277076842
 30
0.0
 40
0.0
 41
0.0
  0
VERTEX
  5
   793
  8
0
  6
CONTINUOUS
 10
199.594534658674
 20
43.4196974231947
 30
0.0
 40
0.0
 41
0.0
  0
VERTEX
  5
   794
  8
0
  6
CONTINUOUS
 10
199.56384550882
 20
43.4505926629536
 30
0.0
 40
0.0
 41
0.0
  0
VERTEX
  5
   795
  8
0
  6
CONTINUOUS
 10
199.532435346609
 20
43.4784389976224
 30
0.0
 40
0.0
 41
0.0
  0
VERTEX
  5
   796
  8
0
  6
CONTINUOUS
 10
199.516483469799
 20
43.491197570258
 30
0.0
 40
0.0
 41
0.0
  0
VERTEX
  5
   797
  8
0
  6
CONTINUOUS
 10
199.500379841874
 20
43.5031693429417
 30
0.0
 40
0.0
 41
0.0
  0
VERTEX
  5
   798
  8
0
  6
CONTINUOUS
 10
199.484134163055
 20
43.5143471043253
 30
0.0
 40
0.0
 41
0.0
  0
VERTEX
  5
   799
  8
0
  6
CONTINUOUS
 10
199.467756219133
 20
43.5247241213435
 30
0.0
 40
0.0
 41
0.0
  0
VERTEX
  5
   79A
  8
0
  6
CONTINUOUS
 10
199.451255875568
 20
43.534294143269
 30
0.0
 40
0.0
 41
0.0
  0
VERTEX
  5
   79B
  8
0
  6
CONTINUOUS
 10
199.434643071551
 20
43.5430514054786
 30
0.0
 40
0.0
 41
0.0
  0
VERTEX
  5
   79C
  8
0
  6
CONTINUOUS
 10
199.417927814013
 20
43.550990632925
 30
0.0
 40
0.0
 41
0.0
  0
VERTEX
  5
   79D
  8
0
  6
CONTINUOUS
 10
199.401120171601
 20
43.5581070433144
 30
0.0
 40
0.0
 41
0.0
  0
VERTEX
  5
   79E
  8
0
  6
CONTINUOUS
 10
199.384230268609
 20
43.5643963499873
 30
0.0
 40
0.0
 41
0.0
  0
VERTEX
  5
   79F
  8
0
  6
CONTINUOUS
 10
199.367268278885
 20
43.5698547645005
 30
0.0
 40
0.0
 41
0.0
  0
VERTEX
  5
   7A0
  8
0
  6
CONTINUOUS
 10
199.350244419695
 20
43.5744789989092
 30
0.0
 40
0.0
 41
0.0
  0
VERTEX
  5
   7A1
  8
0
  6
CONTINUOUS
 10
199.333168945577
 20
43.5782662677476
 30
0.0
 40
0.0
 41
0.0
  0
VERTEX
  5
   7A2
  8
0
  6
CONTINUOUS
 10
199.316052142158
 20
43.5812142897065
 30
0.0
 40
0.0
 41
0.0
  0
VERTEX
  5
   7A3
  8
0
  6
CONTINUOUS
 10
199.29890431996
 20
43.5833212890077
 30
0.0
 40
0.0
 41
0.0
  0
VERTEX
  5
   7A4
  8
0
  6
CONTINUOUS
 10
199.281735808189
 20
43.5845859964736
 30
0.0
 40
0.0
 41
0.0
  0
VERTEX
  5
   7A5
  8
0
  6
CONTINUOUS
 10
199.264556948515
 20
43.5850076502918
 30
0.0
 40
0.0
 41
0.0
  0
SEQEND
  5
   7A6
  8
0
  6
CONTINUOUS
 62
   218
  0
POLYLINE
  5
   7A7
  8
0
  6
CONTINUOUS
 62
   218
 66
     1
 10
0.0
 20
0.0
 30
0.0
  0
VERTEX
  5
   7A8
  8
0
  6
CONTINUOUS
 10
199.264556948515
 20
40.7850076979755
 30
0.0
 40
0.0
 41
0.0
  0
VERTEX
  5
   7A9
  8
0
  6
CONTINUOUS
 10
199.247378088842
 20
40.7845860441573
 30
0.0
 40
0.0
 41
0.0
  0
VERTEX
  5
   7AA
  8
0
  6
CONTINUOUS
 10
199.230209577071
 20
40.7833213366914
 30
0.0
 40
0.0
 41
0.0
  0
VERTEX
  5
   7AB
  8
0
  6
CONTINUOUS
 10
199.213061754872
 20
40.7812143373902
 30
0.0
 40
0.0
 41
0.0
  0
VERTEX
  5
   7AC
  8
0
  6
CONTINUOUS
 10
199.195944951453
 20
40.7782663154313
 30
0.0
 40
0.0
 41
0.0
  0
VERTEX
  5
   7AD
  8
0
  6
CONTINUOUS
 10
199.178869477335
 20
40.774479046593
 30
0.0
 40
0.0
 41
0.0
  0
VERTEX
  5
   7AE
  8
0
  6
CONTINUOUS
 10
199.161845618146
 20
40.7698548121842
 30
0.0
 40
0.0
 41
0.0
  0
VERTEX
  5
   7AF
  8
0
  6
CONTINUOUS
 10
199.144883628421
 20
40.764396397671
 30
0.0
 40
0.0
 41
0.0
  0
VERTEX
  5
   7B0
  8
0
  6
CONTINUOUS
 10
199.12799372543
 20
40.7581070909981
 30
0.0
 40
0.0
 41
0.0
  0
VERTEX
  5
   7B1
  8
0
  6
CONTINUOUS
 10
199.111186083017
 20
40.7509906806087
 30
0.0
 40
0.0
 41
0.0
  0
VERTEX
  5
   7B2
  8
0
  6
CONTINUOUS
 10
199.094470825479
 20
40.7430514531623
 30
0.0
 40
0.0
 41
0.0
  0
VERTEX
  5
   7B3
  8
0
  6
CONTINUOUS
 10
199.077858021462
 20
40.7342941909527
 30
0.0
 40
0.0
 41
0.0
  0
VERTEX
  5
   7B4
  8
0
  6
CONTINUOUS
 10
199.061357677897
 20
40.7247241690271
 30
0.0
 40
0.0
 41
0.0
  0
VERTEX
  5
   7B5
  8
0
  6
CONTINUOUS
 10
199.044979733975
 20
40.714347152009
 30
0.0
 40
0.0
 41
0.0
  0
VERTEX
  5
   7B6
  8
0
  6
CONTINUOUS
 10
199.028734055157
 20
40.7031693906253
 30
0.0
 40
0.0
 41
0.0
  0
VERTEX
  5
   7B7
  8
0
  6
CONTINUOUS
 10
199.012630427231
 20
40.6911976179415
 30
0.0
 40
0.0
 41
0.0
  0
VERTEX
  5
   7B8
  8
0
  6
CONTINUOUS
 10
198.996678550421
 20
40.678439045306
 30
0.0
 40
0.0
 41
0.0
  0
VERTEX
  5
   7B9
  8
0
  6
CONTINUOUS
 10
198.965268388211
 20
40.6505927106372
 30
0.0
 40
0.0
 41
0.0
  0
VERTEX
  5
   7BA
  8
0
  6
CONTINUOUS
 10
198.934579238356
 20
40.6196974708781
 30
0.0
 40
0.0
 41
0.0
  0
VERTEX
  5
   7BB
  8
0
  6
CONTINUOUS
 10
198.904685033708
 20
40.5858277553676
 30
0.0
 40
0.0
 41
0.0
  0
VERTEX
  5
   7BC
  8
0
  6
CONTINUOUS
 10
198.875657792024
 20
40.5490651592168
 30
0.0
 40
0.0
 41
0.0
  0
VERTEX
  5
   7BD
  8
0
  6
CONTINUOUS
 10
198.847567442472
 20
40.5094982467398
 30
0.0
 40
0.0
 41
0.0
  0
VERTEX
  5
   7BE
  8
0
  6
CONTINUOUS
 10
198.820481657163
 20
40.4672223380947
 30
0.0
 40
0.0
 41
0.0
  0
VERTEX
  5
   7BF
  8
0
  6
CONTINUOUS
 10
198.794465688128
 20
40.4223392796481
 30
0.0
 40
0.0
 41
0.0
  0
VERTEX
  5
   7C0
  8
0
  6
CONTINUOUS
 10
198.769582210114
 20
40.3749571986191
 30
0.0
 40
0.0
 41
0.0
  0
VERTEX
  5
   7C1
  8
0
  6
CONTINUOUS
 10
198.745891169599
 20
40.3251902425913
 30
0.0
 40
0.0
 41
0.0
  0
VERTEX
  5
   7C2
  8
0
  6
CONTINUOUS
 10
198.723449640376
 20
40.2731583045206
 30
0.0
 40
0.0
 41
0.0
  0
VERTEX
  5
   7C3
  8
0
  6
CONTINUOUS
 10
198.702311686053
 20
40.2189867339033
 30
0.0
 40
0.0
 41
0.0
  0
VERTEX
  5
   7C4
  8
0
  6
CONTINUOUS
 10
198.682528229815
 20
40.162806034798
 30
0.0
 40
0.0
 41
0.0
  0
VERTEX
  5
   7C5
  8
0
  6
CONTINUOUS
 10
198.66414693174
 20
40.1047515514297
 30
0.0
 40
0.0
 41
0.0
  0
VERTEX
  5
   7C6
  8
0
  6
CONTINUOUS
 10
198.647212073984
 20
40.0449631421337
 30
0.0
 40
0.0
 41
0.0
  0
VERTEX
  5
   7C7
  8
0
  6
CONTINUOUS
 10
198.631764454105
 20
39.9835848424249
 30
0.0
 40
0.0
 41
0.0
  0
VERTEX
  5
   7C8
  8
0
  6
CONTINUOUS
 10
198.617841286771
 20
39.9207645180034
 30
0.0
 40
0.0
 41
0.0
  0
VERTEX
  5
   7C9
  8
0
  6
CONTINUOUS
 10
198.605476114111
 20
39.8566535085331
 30
0.0
 40
0.0
 41
0.0
  0
VERTEX
  5
   7CA
  8
0
  6
CONTINUOUS
 10
198.59469872491
 20
39.7914062630513
 30
0.0
 40
0.0
 41
0.0
  0
VERTEX
  5
   7CB
  8
0
  6
CONTINUOUS
 10
198.585535082843
 20
39.7251799678874
 30
0.0
 40
0.0
 41
0.0
  0
VERTEX
  5
   7CC
  8
0
  6
CONTINUOUS
 10
198.578007263925
 20
39.6581341679871
 30
0.0
 40
0.0
 41
0.0
  0
VERTEX
  5
   7CD
  8
0
  6
CONTINUOUS
 10
198.572133403332
 20
39.5904303825549
 30
0.0
 40
0.0
 41
0.0
  0
VERTEX
  5
   7CE
  8
0
  6
CONTINUOUS
 10
198.567927651708
 20
39.5222317159402
 30
0.0
 40
0.0
 41
0.0
  0
VERTEX
  5
   7CF
  8
0
  6
CONTINUOUS
 10
198.565400141078
 20
39.4537024647042
 30
0.0
 40
0.0
 41
0.0
  0
VERTEX
  5
   7D0
  8
0
  6
CONTINUOUS
 10
198.564556960436
 20
39.3850077218156
 30
0.0
 40
0.0
 41
0.0
  0
VERTEX
  5
   7D1
  8
0
  6
CONTINUOUS
 10
198.565400141078
 20
39.316312978927
 30
0.0
 40
0.0
 41
0.0
  0
VERTEX
  5
   7D2
  8
0
  6
CONTINUOUS
 10
198.567927651708
 20
39.247783727691
 30
0.0
 40
0.0
 41
0.0
  0
VERTEX
  5
   7D3
  8
0
  6
CONTINUOUS
 10
198.572133403332
 20
39.1795850610762
 30
0.0
 40
0.0
 41
0.0
  0
VERTEX
  5
   7D4
  8
0
  6
CONTINUOUS
 10
198.578007263925
 20
39.1118812756441
 30
0.0
 40
0.0
 41
0.0
  0
VERTEX
  5
   7D5
  8
0
  6
CONTINUOUS
 10
198.585535082843
 20
39.0448354757439
 30
0.0
 40
0.0
 41
0.0
  0
VERTEX
  5
   7D6
  8
0
  6
CONTINUOUS
 10
198.594698724911
 20
38.97860918058
 30
0.0
 40
0.0
 41
0.0
  0
VERTEX
  5
   7D7
  8
0
  6
CONTINUOUS
 10
198.605476114112
 20
38.9133619350983
 30
0.0
 40
0.0
 41
0.0
  0
VERTEX
  5
   7D8
  8
0
  6
CONTINUOUS
 10
198.617841286771
 20
38.8492509256281
 30
0.0
 40
0.0
 41
0.0
  0
VERTEX
  5
   7D9
  8
0
  6
CONTINUOUS
 10
198.631764454106
 20
38.7864306012066
 30
0.0
 40
0.0
 41
0.0
  0
VERTEX
  5
   7DA
  8
0
  6
CONTINUOUS
 10
198.647212073985
 20
38.7250523014979
 30
0.0
 40
0.0
 41
0.0
  0
VERTEX
  5
   7DB
  8
0
  6
CONTINUOUS
 10
198.664146931741
 20
38.665263892202
 30
0.0
 40
0.0
 41
0.0
  0
VERTEX
  5
   7DC
  8
0
  6
CONTINUOUS
 10
198.682528229816
 20
38.6072094088337
 30
0.0
 40
0.0
 41
0.0
  0
VERTEX
  5
   7DD
  8
0
  6
CONTINUOUS
 10
198.702311686055
 20
38.5510287097285
 30
0.0
 40
0.0
 41
0.0
  0
VERTEX
  5
   7DE
  8
0
  6
CONTINUOUS
 10
198.723449640377
 20
38.4968571391114
 30
0.0
 40
0.0
 41
0.0
  0
VERTEX
  5
   7DF
  8
0
  6
CONTINUOUS
 10
198.7458911696
 20
38.4448252010408
 30
0.0
 40
0.0
 41
0.0
  0
VERTEX
  5
   7E0
  8
0
  6
CONTINUOUS
 10
198.769582210115
 20
38.395058245013
 30
0.0
 40
0.0
 41
0.0
  0
VERTEX
  5
   7E1
  8
0
  6
CONTINUOUS
 10
198.794465688129
 20
38.3476761639842
 30
0.0
 40
0.0
 41
0.0
  0
VERTEX
  5
   7E2
  8
0
  6
CONTINUOUS
 10
198.820481657164
 20
38.3027931055378
 30
0.0
 40
0.0
 41
0.0
  0
VERTEX
  5
   7E3
  8
0
  6
CONTINUOUS
 10
198.847567442473
 20
38.2605171968927
 30
0.0
 40
0.0
 41
0.0
  0
VERTEX
  5
   7E4
  8
0
  6
CONTINUOUS
 10
198.875657792026
 20
38.220950284416
 30
0.0
 40
0.0
 41
0.0
  0
VERTEX
  5
   7E5
  8
0
  6
CONTINUOUS
 10
198.90468503371
 20
38.1841876882653
 30
0.0
 40
0.0
 41
0.0
  0
VERTEX
  5
   7E6
  8
0
  6
CONTINUOUS
 10
198.934579238358
 20
38.1503179727549
 30
0.0
 40
0.0
 41
0.0
  0
VERTEX
  5
   7E7
  8
0
  6
CONTINUOUS
 10
198.965268388212
 20
38.119422732996
 30
0.0
 40
0.0
 41
0.0
  0
VERTEX
  5
   7E8
  8
0
  6
CONTINUOUS
 10
198.996678550423
 20
38.0915763983274
 30
0.0
 40
0.0
 41
0.0
  0
VERTEX
  5
   7E9
  8
0
  6
CONTINUOUS
 10
199.012630427232
 20
38.0788178256919
 30
0.0
 40
0.0
 41
0.0
  0
VERTEX
  5
   7EA
  8
0
  6
CONTINUOUS
 10
199.028734055158
 20
38.0668460530082
 30
0.0
 40
0.0
 41
0.0
  0
VERTEX
  5
   7EB
  8
0
  6
CONTINUOUS
 10
199.044979733977
 20
38.0556682916246
 30
0.0
 40
0.0
 41
0.0
  0
VERTEX
  5
   7EC
  8
0
  6
CONTINUOUS
 10
199.061357677899
 20
38.0452912746065
 30
0.0
 40
0.0
 41
0.0
  0
VERTEX
  5
   7ED
  8
0
  6
CONTINUOUS
 10
199.077858021464
 20
38.0357212526811
 30
0.0
 40
0.0
 41
0.0
  0
VERTEX
  5
   7EE
  8
0
  6
CONTINUOUS
 10
199.094470825481
 20
38.0269639904715
 30
0.0
 40
0.0
 41
0.0
  0
VERTEX
  5
   7EF
  8
0
  6
CONTINUOUS
 10
199.111186083019
 20
38.0190247630252
 30
0.0
 40
0.0
 41
0.0
  0
VERTEX
  5
   7F0
  8
0
  6
CONTINUOUS
 10
199.127993725431
 20
38.0119083526359
 30
0.0
 40
0.0
 41
0.0
  0
VERTEX
  5
   7F1
  8
0
  6
CONTINUOUS
 10
199.144883628423
 20
38.0056190459631
 30
0.0
 40
0.0
 41
0.0
  0
VERTEX
  5
   7F2
  8
0
  6
CONTINUOUS
 10
199.161845618147
 20
38.00016063145
 30
0.0
 40
0.0
 41
0.0
  0
VERTEX
  5
   7F3
  8
0
  6
CONTINUOUS
 10
199.178869477337
 20
37.9955363970413
 30
0.0
 40
0.0
 41
0.0
  0
VERTEX
  5
   7F4
  8
0
  6
CONTINUOUS
 10
199.195944951455
 20
37.991749128203
 30
0.0
 40
0.0
 41
0.0
  0
VERTEX
  5
   7F5
  8
0
  6
CONTINUOUS
 10
199.213061754874
 20
37.9888011062442
 30
0.0
 40
0.0
 41
0.0
  0
VERTEX
  5
   7F6
  8
0
  6
CONTINUOUS
 10
199.230209577073
 20
37.9866941069431
 30
0.0
 40
0.0
 41
0.0
  0
VERTEX
  5
   7F7
  8
0
  6
CONTINUOUS
 10
199.247378088843
 20
37.9854293994772
 30
0.0
 40
0.0
 41
0.0
  0
VERTEX
  5
   7F8
  8
0
  6
CONTINUOUS
 10
199.264556948517
 20
37.9850077456592
 30
0.0
 40
0.0
 41
0.0
  0
SEQEND
  5
   7F9
  8
0
  6
CONTINUOUS
 62
   218
  0
INSERT
  5
   7FA
  8
0
  6
CONTINUOUS
 62
   218
  2
*HATCH115
 10
239.378799438477
 20
47.9470596313477
 30
0.0
 41
0.349999994039536
 42
0.349999994039536
 50
89.9999999480344
 43
0.349999994039536
  0
LINE
  5
   7FB
  8
0
  6
CONTINUOUS
 62
   218
 10
209.278812477822
 20
38.8680164960945
 30
0.0
 11
217.328812340731
 21
40.2874486666248
 31
0.0
  0
LINE
  5
   7FC
  8
0
  6
CONTINUOUS
 62
   218
 10
210.665725979113
 20
38.6150077349304
 30
0.0
 11
217.328812340731
 21
39.7898896352742
 31
0.0
  0
LINE
  5
   7FD
  8
0
  6
CONTINUOUS
 62
   218
 10
213.487523467799
 20
38.6150077349304
 30
0.0
 11
217.328812340731
 21
39.2923306039236
 31
0.0
  0
LINE
  5
   7FE
  8
0
  6
CONTINUOUS
 62
   218
 10
216.309320956484
 20
38.6150077349304
 30
0.0
 11
217.328812340731
 21
38.794771572573
 31
0.0
  0
LINE
  5
   7FF
  8
0
  6
CONTINUOUS
 62
   218
 10
209.278812477822
 20
39.8631345587958
 30
0.0
 11
217.328812340731
 21
41.2825667293261
 31
0.0
  0
LINE
  5
   800
  8
0
  6
CONTINUOUS
 62
   218
 10
209.278812477822
 20
40.3606935901464
 30
0.0
 11
217.328812340731
 21
41.7801257606768
 31
0.0
  0
LINE
  5
   801
  8
0
  6
CONTINUOUS
 62
   218
 10
209.278812477822
 20
40.858252621497
 30
0.0
 11
217.328812340731
 21
42.2776847920274
 31
0.0
  0
LINE
  5
   802
  8
0
  6
CONTINUOUS
 62
   218
 10
209.278812477822
 20
41.3558116528477
 30
0.0
 11
217.328812340731
 21
42.775243823378
 31
0.0
  0
LINE
  5
   803
  8
0
  6
CONTINUOUS
 62
   218
 10
209.278812477822
 20
41.8533706841983
 30
0.0
 11
215.526506236293
 21
42.9550076610206
 31
0.0
  0
LINE
  5
   804
  8
0
  6
CONTINUOUS
 62
   218
 10
209.278812477822
 20
42.350929715549
 30
0.0
 11
212.704708747607
 21
42.9550076610206
 31
0.0
  0
LINE
  5
   805
  8
0
  6
CONTINUOUS
 62
   218
 10
209.278812477822
 20
42.8484887468996
 30
0.0
 11
209.882911258922
 21
42.9550076610206
 31
0.0
  0
LINE
  5
   806
  8
0
  6
CONTINUOUS
 62
     1
 10
200.878821456432
 20
153.205636927545
 30
0.0
 11
200.878821456432
 21
156.005636879861
 31
0.0
  0
LINE
  5
   807
  8
0
  6
CONTINUOUS
 62
     1
 10
199.478821480274
 20
153.730636918604
 30
0.0
 11
199.478821480274
 21
155.480636888802
 31
0.0
  0
LINE
  5
   808
  8
0
  6
CONTINUOUS
 62
     1
 10
202.27882143259
 20
156.005636879861
 30
0.0
 11
200.878821456432
 21
156.005636879861
 31
0.0
  0
LINE
  5
   809
  8
0
  6
CONTINUOUS
 62
     1
 10
202.27882143259
 20
153.205636927545
 30
0.0
 11
200.878821456432
 21
153.205636927545
 31
0.0
  0
LINE
  5
   80A
  8
0
  6
CONTINUOUS
 62
     1
 10
202.27882143259
 20
155.480636888802
 30
0.0
 11
199.478821480274
 21
155.480636888802
 31
0.0
  0
LINE
  5
   80B
  8
0
  6
CONTINUOUS
 62
     1
 10
202.27882143259
 20
153.730636918604
 30
0.0
 11
199.478821480274
 21
153.730636918604
 31
0.0
  0
LINE
  5
   80C
  8
0
  6
CONTINUOUS
 62
     1
 10
202.27882143259
 20
49.7800374138406
 30
0.0
 11
200.878821456432
 21
49.7800374138406
 31
0.0
  0
LINE
  5
   80D
  8
0
  6
CONTINUOUS
 62
     1
 10
202.27882143259
 20
49.2550374227813
 30
0.0
 11
199.478821480274
 21
49.2550374227813
 31
0.0
  0
LINE
  5
   80E
  8
0
  6
DASHDOT
 62
   218
 10
205.127000909913
 20
48.3800374376824
 30
0.0
 11
197.749518400158
 21
48.3800374376824
 31
0.0
  0
LINE
  5
   80F
  8
0
  6
CONTINUOUS
 62
     1
 10
202.27882143259
 20
47.5050374525836
 30
0.0
 11
199.478821480274
 21
47.5050374525836
 31
0.0
  0
LINE
  5
   810
  8
0
  6
CONTINUOUS
 62
     1
 10
202.27882143259
 20
46.9800374615243
 30
0.0
 11
200.878821456432
 21
46.9800374615243
 31
0.0
  0
LINE
  5
   811
  8
0
  6
CONTINUOUS
 62
     1
 10
200.878821456432
 20
46.9800374615243
 30
0.0
 11
200.878821456432
 21
49.7800374138406
 31
0.0
  0
LINE
  5
   812
  8
0
  6
CONTINUOUS
 62
     1
 10
199.478821480274
 20
47.5050374525836
 30
0.0
 11
199.478821480274
 21
49.2550374227813
 31
0.0
  0
LINE
  5
   813
  8
0
  6
CONTINUOUS
 62
     1
 10
242.703817406296
 20
114.617527017073
 30
0.0
 11
241.478817427158
 21
114.617527017073
 31
0.0
  0
LINE
  5
   814
  8
0
  6
CONTINUOUS
 62
     1
 10
242.703817406296
 20
58.267529311852
 30
0.0
 11
241.478817427158
 21
58.267529311852
 31
0.0
  0
LINE
  5
   815
  8
0
  6
CONTINUOUS
 62
     7
 10
205.428810697794
 20
121.355008210319
 30
0.0
 11
204.028810721636
 21
121.355008210319
 31
0.0
  0
LINE
  5
   816
  8
0
  6
DASHDOT
 62
     7
 10
208.655647927617
 20
154.605636903703
 30
0.0
 11
197.016364161373
 21
154.605636903703
 31
0.0
  0
LINE
  5
   817
  8
0
  6
CONTINUOUS
 62
   130
 10
229.228820973616
 20
154.150023599694
 30
0.0
 11
229.228820973616
 21
160.030023573416
 31
0.0
  0
LINE
  5
   818
  8
0
  6
CONTINUOUS
 62
   130
 10
229.228820973616
 20
129.405024094957
 30
0.0
 11
229.228820973616
 21
130.700114788839
 31
0.0
  0
LINE
  5
   819
  8
0
  6
CONTINUOUS
 62
   130
 10
204.02882140277
 20
129.405024094957
 30
0.0
 11
204.02882140277
 21
160.030023573416
 31
0.0
  0
LINE
  5
   81A
  8
0
  6
CONTINUOUS
 62
   130
 10
205.428821378928
 20
148.025023704002
 30
0.0
 11
204.02882140277
 21
148.025023704002
 31
0.0
  0
LINE
  5
   81B
  8
0
  6
CONTINUOUS
 62
   130
 10
205.428821378928
 20
148.025023704002
 30
0.0
 11
205.428821378928
 21
149.584037508002
 31
0.0
  0
LINE
  5
   81C
  8
0
  6
CONTINUOUS
 62
   130
 10
228.038820459824
 20
151.700023641418
 30
0.0
 11
228.003820994478
 21
151.700023641418
 31
0.0
  0
LINE
  5
   81D
  8
0
  6
CONTINUOUS
 62
   130
 10
229.228820973616
 20
154.150023599694
 30
0.0
 11
228.003820994478
 21
154.150023599694
 31
0.0
  0
LINE
  5
   81E
  8
0
  6
CONTINUOUS
 62
   130
 10
229.228820973616
 20
130.700056042502
 30
0.0
 11
228.003820994478
 21
130.700056042502
 31
0.0
  0
LINE
  5
   81F
  8
0
  6
CONTINUOUS
 62
   130
 10
228.038820459824
 20
133.150056000779
 30
0.0
 11
228.003820994478
 21
133.150056000779
 31
0.0
  0
LINE
  5
   820
  8
0
  6
CONTINUOUS
 62
   130
 10
228.003820994478
 20
130.700056042502
 30
0.0
 11
228.003820994478
 21
154.150023599694
 31
0.0
  0
LINE
  5
   821
  8
0
  6
CONTINUOUS
 62
   130
 10
203.328821414709
 20
153.052250241924
 30
0.0
 11
203.328821414709
 21
156.159023565481
 31
0.0
  0
LINE
  5
   822
  8
0
  6
CONTINUOUS
 62
   210
 10
236.998819773179
 20
158.945022449921
 30
0.0
 11
229.385116031102
 21
158.945022449921
 31
0.0
  0
LINE
  5
   823
  8
0
  6
CONTINUOUS
 62
   210
 10
229.228820973616
 20
130.700056042502
 30
0.0
 11
229.228820973616
 21
130.787523997555
 31
0.0
  0
LINE
  5
   824
  8
0
  6
CONTINUOUS
 62
   210
 10
229.228820973616
 20
154.062523601184
 30
0.0
 11
229.228820973616
 21
154.150023599694
 31
0.0
  0
LINE
  5
   825
  8
0
  6
CONTINUOUS
 62
   210
 10
237.978820824605
 20
151.45502364559
 30
0.0
 11
237.978820824605
 21
160.030023573416
 31
0.0
  0
LINE
  5
   826
  8
0
  6
CONTINUOUS
 62
   210
 10
237.978820824605
 20
154.237523598204
 30
0.0
 11
236.998819773179
 21
154.237523598204
 31
0.0
  0
LINE
  5
   827
  8
0
  6
CONTINUOUS
 62
   210
 10
237.103820839506
 20
133.237523955832
 30
0.0
 11
236.998819773179
 21
133.237523955832
 31
0.0
  0
LINE
  5
   828
  8
0
  6
CONTINUOUS
 62
   210
 10
237.103820839506
 20
130.612524000536
 30
0.0
 11
236.998819773179
 21
130.612524000536
 31
0.0
  0
LINE
  5
   829
  8
0
  6
CONTINUOUS
 62
   210
 10
237.103820839506
 20
130.175024007986
 30
0.0
 11
236.998819773179
 21
130.175024007986
 31
0.0
  0
LINE
  5
   82A
  8
0
  6
CONTINUOUS
 62
   210
 10
236.998819773179
 20
130.280024080056
 30
0.0
 11
236.998819773179
 21
158.945022449921
 31
0.0
  0
LINE
  5
   82B
  8
0
  6
CONTINUOUS
 62
   210
 10
229.228820973616
 20
130.787523997555
 30
0.0
 11
228.213820456844
 21
130.787523997555
 31
0.0
  0
LINE
  5
   82C
  8
0
  6
CONTINUOUS
 62
   210
 10
228.213821080528
 20
130.787525516738
 30
0.0
 11
228.090077260064
 21
130.838784366229
 31
0.0
  0
LINE
  5
   82D
  8
0
  6
CONTINUOUS
 62
   210
 10
228.090076281625
 20
130.838777603593
 30
0.0
 11
228.038820102613
 21
130.962518748245
 31
0.0
  0
LINE
  5
   82E
  8
0
  6
CONTINUOUS
 62
   210
 10
228.038820459824
 20
130.962523994575
 30
0.0
 11
228.038820459824
 21
132.887523961793
 31
0.0
  0
LINE
  5
   82F
  8
0
  6
CONTINUOUS
 62
   210
 10
228.038820459824
 20
151.962523636947
 30
0.0
 11
228.038820459824
 21
153.887523604165
 31
0.0
  0
LINE
  5
   830
  8
0
  6
CONTINUOUS
 62
   210
 10
228.038817513325
 20
153.887515294298
 30
0.0
 11
228.090073692337
 21
154.011256438951
 31
0.0
  0
LINE
  5
   831
  8
0
  6
CONTINUOUS
 62
   210
 10
228.09007854022
 20
154.011267383501
 30
0.0
 11
228.213822360685
 21
154.062526232992
 31
0.0
  0
LINE
  5
   832
  8
0
  6
CONTINUOUS
 62
   210
 10
229.228820973616
 20
154.062523601184
 30
0.0
 11
228.213820456844
 21
154.062523601184
 31
0.0
  0
LINE
  5
   833
  8
0
  6
CONTINUOUS
 62
   210
 10
228.038820459824
 20
132.887523961793
 30
0.0
 11
228.038820459824
 21
151.962523636947
 31
0.0
  0
LINE
  5
   834
  8
0
  6
CONTINUOUS
 62
     2
 10
237.103820839506
 20
121.880024149249
 30
0.0
 11
237.103820839506
 21
151.45502364559
 31
0.0
  0
LINE
  5
   835
  8
0
  6
CONTINUOUS
 62
     2
 10
238.853820809704
 20
122.230024143289
 30
0.0
 11
238.853820809704
 21
146.730023726056
 31
0.0
  0
LINE
  5
   836
  8
0
  6
CONTINUOUS
 62
     2
 10
238.853820809704
 20
147.080023720096
 30
0.0
 11
238.853820809704
 21
151.45502364559
 31
0.0
  0
LINE
  5
   837
  8
0
  6
CONTINUOUS
 62
     2
 10
237.978820824605
 20
151.45502364559
 30
0.0
 11
237.103820839506
 21
151.45502364559
 31
0.0
  0
LINE
  5
   838
  8
0
  6
CONTINUOUS
 62
     2
 10
238.503820815664
 20
121.880024149249
 30
0.0
 11
237.103820839506
 21
121.880024149249
 31
0.0
  0
LINE
  5
   839
  8
0
  6
CONTINUOUS
 62
     2
 10
238.853820809704
 20
147.080023720096
 30
0.0
 11
238.503820815664
 21
147.080023720096
 31
0.0
  0
LINE
  5
   83A
  8
0
  6
CONTINUOUS
 62
     2
 10
238.853820809704
 20
146.730023726056
 30
0.0
 11
238.503820815664
 21
146.730023726056
 31
0.0
  0
LINE
  5
   83B
  8
0
  6
CONTINUOUS
 62
     2
 10
238.503820815664
 20
146.730023726056
 30
0.0
 11
238.503820815664
 21
147.080023720096
 31
0.0
  0
LINE
  5
   83C
  8
0
  6
CONTINUOUS
 62
     2
 10
238.503820815664
 20
121.880024149249
 30
0.0
 11
238.503820815664
 21
122.230024143289
 31
0.0
  0
LINE
  5
   83D
  8
0
  6
CONTINUOUS
 62
     2
 10
238.503820815664
 20
122.230024143289
 30
0.0
 11
237.278820836526
 21
122.230024143289
 31
0.0
  0
LINE
  5
   83E
  8
0
  6
CONTINUOUS
 62
     2
 10
237.278820836526
 20
122.230024143289
 30
0.0
 11
237.278820836526
 21
151.45502364559
 31
0.0
  0
LINE
  5
   83F
  8
0
  6
CONTINUOUS
 62
   130
 10
204.02882140277
 20
156.159023565481
 30
0.0
 11
203.328821414709
 21
156.159023565481
 31
0.0
  0
LINE
  5
   840
  8
0
  6
CONTINUOUS
 62
   130
 10
204.02882140277
 20
153.052250241924
 30
0.0
 11
203.328821414691
 21
153.052250241924
 31
0.0
  0
LINE
  5
   841
  8
0
  6
CONTINUOUS
 62
   210
 10
237.978820824605
 20
151.612523642908
 30
0.0
 11
236.998819773179
 21
151.612523642908
 31
0.0
  0
LINE
  5
   842
  8
0
  6
CONTINUOUS
 62
   210
 10
237.103817392489
 20
134.241337390338
 30
0.0
 11
236.998818995373
 21
134.287522693116
 31
0.0
  0
LINE
  5
   843
  8
0
  6
CONTINUOUS
 62
   210
 10
236.998821213662
 20
150.562525320879
 30
0.0
 11
237.103822282581
 21
150.608710621855
 31
0.0
  0
LINE
  5
   844
  8
0
  6
CONTINUOUS
 62
     2
 10
238.853820809704
 20
122.230024143289
 30
0.0
 11
238.503820815664
 21
122.230024143289
 31
0.0
  0
LINE
  5
   845
  8
0
  6
CONTINUOUS
 62
     2
 10
238.853820809704
 20
151.45502364559
 30
0.0
 11
237.978820824605
 21
151.45502364559
 31
0.0
  0
LINE
  5
   846
  8
0
  6
CONTINUOUS
 62
   130
 10
229.228820973616
 20
160.030023573416
 30
0.0
 11
216.418813023801
 21
160.030023573416
 31
0.0
  0
LINE
  5
   847
  8
0
  6
CONTINUOUS
 62
   210
 10
237.978820824605
 20
160.030023573416
 30
0.0
 11
229.228820973616
 21
160.030023573416
 31
0.0
  0
LINE
  5
   848
  8
0
  6
CONTINUOUS
 62
   130
 10
237.103820839506
 20
129.405024094957
 30
0.0
 11
204.02882140277
 21
129.405024094957
 31
0.0
  0
LINE
  5
   849
  8
0
  6
CONTINUOUS
 62
   130
 10
212.07881309771
 20
160.030023573416
 30
0.0
 11
204.02882140277
 21
160.030023573416
 31
0.0
  0
INSERT
  5
   84A
  8
0
  6
CONTINUOUS
 62
     7
  2
*HATCH116
 10
239.378799438477
 20
47.9470596313477
 30
0.0
 41
0.349999994039536
 42
0.349999994039536
 50
89.9999999480344
 43
0.349999994039536
  0
LINE
  5
   84B
  8
0
  6
CONTINUOUS
 62
     7
 10
225.990534078567
 20
151.455041625619
 30
0.0
 11
212.078812430138
 21
151.455041625619
 31
0.0
  0
LINE
  5
   84C
  8
0
  6
CONTINUOUS
 62
     7
 10
225.856380153456
 20
151.159037481179
 30
0.0
 11
203.781925859742
 21
151.159037481179
 31
0.0
  0
INSERT
  5
   84D
  8
0
  6
CONTINUOUS
 62
     7
  2
*HATCH117
 10
239.378799438477
 20
47.9470596313477
 30
0.0
 41
0.349999994039536
 42
0.349999994039536
 50
89.9999999480344
 43
0.349999994039536
  0
INSERT
  5
   84E
  8
0
  6
CONTINUOUS
 62
     7
  2
*HATCH118
 10
239.378799438477
 20
47.9470596313477
 30
0.0
 41
0.349999994039536
 42
0.349999994039536
 50
89.9999999480344
 43
0.349999994039536
  0
LINE
  5
   84F
  8
0
  6
DASHDOT
 62
     7
 10
187.534693571937
 20
86.4425367894819
 30
0.0
 11
176.732501603761
 21
86.4425367894819
 31
0.0
  0
LINE
  5
   850
  8
0
  6
DASHDOT
 62
     7
 10
168.000729762819
 20
86.4425367894819
 30
0.0
 11
144.505962232037
 21
86.4425367894819
 31
0.0
  0
TEXT
  5
   851
  8
0
  6
CONTINUOUS
 62
     7
 10
267.226504812976
 20
78.8405580665323
 30
0.0
 40
2.99999997871263
  1
=    =
 50
89.9999999480344
 41
0.916666703091727
 72
     1
 11
265.726504830842
 21
86.815558333167
 31
0.0
 73
     2
  0
INSERT
  5
   852
  8
0
  6
CONTINUOUS
 62
     7
  2
*UDIM417
 10
0.0
 20
0.0
 30
0.0
  0
INSERT
  5
   853
  8
0
  6
CONTINUOUS
 62
     7
  2
*UDIM418
 10
0.0
 20
0.0
 30
0.0
  0
INSERT
  5
   854
  8
0
  6
CONTINUOUS
 62
     7
  2
*UDIM419
 10
0.0
 20
0.0
 30
0.0
  0
INSERT
  5
   855
  8
0
  6
CONTINUOUS
 62
     7
  2
*UDIM420
 10
0.0
 20
0.0
 30
0.0
  0
INSERT
  5
   856
  8
0
  6
CONTINUOUS
 62
     7
  2
*UDIM421
 10
0.0
 20
0.0
 30
0.0
  0
INSERT
  5
   857
  8
0
  6
CONTINUOUS
 62
     7
  2
*UDIM422
 10
0.0
 20
0.0
 30
0.0
  0
INSERT
  5
   858
  8
0
  6
CONTINUOUS
 62
     7
  2
*UDIM423
 10
0.0
 20
0.0
 30
0.0
  0
INSERT
  5
   859
  8
0
  6
CONTINUOUS
 62
     7
  2
*UDIM424
 10
0.0
 20
0.0
 30
0.0
  0
INSERT
  5
   85A
  8
0
  6
CONTINUOUS
 62
     7
  2
*UDIM425
 10
0.0
 20
0.0
 30
0.0
  0
INSERT
  5
   85B
  8
0
  6
CONTINUOUS
 62
     7
  2
*UDIM426
 10
0.0
 20
0.0
 30
0.0
  0
INSERT
  5
   85C
  8
0
  6
CONTINUOUS
 62
     7
  2
*UDIM427
 10
0.0
 20
0.0
 30
0.0
  0
INSERT
  5
   85D
  8
0
  6
CONTINUOUS
 62
     7
  2
*UDIM428
 10
0.0
 20
0.0
 30
0.0
  0
INSERT
  5
   85E
  8
0
  6
CONTINUOUS
 62
     7
  2
*UDIM429
 10
0.0
 20
0.0
 30
0.0
  0
INSERT
  5
   85F
  8
0
  6
CONTINUOUS
 62
     7
  2
*UDIM430
 10
0.0
 20
0.0
 30
0.0
  0
INSERT
  5
   860
  8
0
  6
CONTINUOUS
 62
     7
  2
*UDIM431
 10
0.0
 20
0.0
 30
0.0
  0
TEXT
  5
   861
  8
0
  6
CONTINUOUS
 62
     7
 10
269.347274682601
 20
85.032829422694
 30
0.0
 40
2.99999997871263
  1
X
 50
359.999999948034
 41
0.91666663951344
 72
     1
 11
270.44727465181
 21
86.5328294110581
 31
0.0
 73
     2
  0
LINE
  5
   862
  8
0
  6
DASHDOT
 62
     7
 10
159.320373535156
 20
-13.9877459637441
 30
0.0
 11
159.320373535156
 21
-103.563298133106
 31
0.0
  0
LINE
  5
   863
  8
0
  6
DASHDOT
 62
     7
 10
171.262911128876
 20
-20.6565399169922
 30
0.0
 11
136.12736788278
 21
-20.6565399169922
 31
0.0
  0
LINE
  5
   864
  8
0
  6
DASHDOT
 62
     7
 10
171.762255845508
 20
-96.5315399169922
 30
0.0
 11
135.756602261003
 21
-96.5315399169922
 31
0.0
  0
LINE
  5
   865
  8
0
  6
CONTINUOUS
 62
     7
 10
173.070373535156
 20
-15.6565399169922
 30
0.0
 11
173.070373535156
 21
-101.531539916992
 31
0.0
  0
LINE
  5
   866
  8
0
  6
CONTINUOUS
 62
     7
 10
136.820373535156
 20
-15.6565399169922
 30
0.0
 11
136.820373535156
 21
-101.531539916992
 31
0.0
  0
LINE
  5
   867
  8
0
  6
CONTINUOUS
 62
     7
 10
173.070373535156
 20
-101.531539916992
 30
0.0
 11
136.820373535156
 21
-101.531539916992
 31
0.0
  0
LINE
  5
   868
  8
0
  6
CONTINUOUS
 62
     7
 10
173.070373535156
 20
-15.6565399169922
 30
0.0
 11
136.820373535156
 21
-15.6565399169922
 31
0.0
  0
CIRCLE
  5
   869
  8
0
  6
CONTINUOUS
 62
     7
 10
146.195373535156
 20
-20.6565399169922
 30
0.0
 40
0.6875
  0
CIRCLE
  5
   86A
  8
0
  6
CONTINUOUS
 62
     7
 10
163.695373535156
 20
-20.6565399169922
 30
0.0
 40
0.6875
  0
CIRCLE
  5
   86B
  8
0
  6
CONTINUOUS
 62
     7
 10
146.195373535156
 20
-96.5315399169922
 30
0.0
 40
0.6875
  0
CIRCLE
  5
   86C
  8
0
  6
CONTINUOUS
 62
     7
 10
163.695373535156
 20
-96.5315399169922
 30
0.0
 40
0.6875
  0
LINE
  5
   86D
  8
0
  6
DASHDOT
 62
     7
 10
146.195373535156
 20
-13.8969829577152
 30
0.0
 11
146.195373535156
 21
-38.4175835222167
 31
0.0
  0
LINE
  5
   86E
  8
0
  6
DASHDOT
 62
     7
 10
163.695373535156
 20
-13.7154569456574
 30
0.0
 11
163.695373535156
 21
-99.3606025741462
 31
0.0
  0
LINE
  5
   86F
  8
0
  6
DASHDOT
 62
     7
 10
179.984663924152
 20
-69.3440399169922
 30
0.0
 11
133.772814269892
 21
-69.3440399169922
 31
0.0
  0
LINE
  5
   870
  8
0
  6
DASHDOT
 62
     7
 10
146.195373535156
 20
-53.444496075438
 30
0.0
 11
146.195373535156
 21
-99.6330637658069
 31
0.0
  0
INSERT
  5
   871
  8
0
  6
CONTINUOUS
 62
     7
  2
*UDIM432
 10
0.0
 20
0.0
 30
0.0
  0
INSERT
  5
   872
  8
0
  6
CONTINUOUS
 62
     7
  2
*UDIM433
 10
0.0
 20
0.0
 30
0.0
  0
INSERT
  5
   873
  8
0
  6
CONTINUOUS
 62
     7
  2
*UDIM434
 10
0.0
 20
0.0
 30
0.0
  0
TEXT
  5
   874
  8
0
  6
CONTINUOUS
 62
     7
 10
158.929929897452
 20
-13.3265790096936
 30
0.0
 40
3.00000002980232
  1
Y
 50
359.999999896069
 41
0.916666604744064
 72
     2
 11
161.129929766322
 21
-13.3265790136732
 31
0.0
  0
INSERT
  5
   875
  8
0
  6
CONTINUOUS
 62
     7
  2
*UDIM435
 10
0.0
 20
0.0
 30
0.0
  0
INSERT
  5
   876
  8
0
  6
CONTINUOUS
 62
     7
  2
*UDIM436
 10
0.0
 20
0.0
 30
0.0
  0
TEXT
  5
   877
  8
0
  6
CONTINUOUS
 62
     7
 10
118.094264981417
 20
-70.1120548526416
 30
0.0
 40
3.00000002980232
  1
X
 50
359.999999896069
 41
0.916666604744064
 72
     2
 11
120.294264850287
 21
-70.1120548566212
 31
0.0
  0
TEXT
  5
   878
  8
0
  6
CONTINUOUS
 62
     7
 10
181.314933774142
 20
-71.3920617381702
 30
0.0
 40
3.00000002980232
  1
X
 50
359.999999896069
 41
0.916666604744064
 72
     2
 11
183.514933643012
 21
-71.3920617421498
 31
0.0
  0
TEXT
  5
   879
  8
0
  6
CONTINUOUS
 62
     7
 10
158.323369977145
 20
-109.146862057842
 30
0.0
 40
3.00000002980232
  1
Y
 50
359.999999896069
 41
0.916666604744064
 72
     2
 11
160.523369846015
 21
-109.146862061821
 31
0.0
  0
LINE
  5
   87A
  8
0
  6
DASHDOT
 62
     7
 10
247.662384033203
 20
-6.4242357050306
 30
0.0
 11
247.662384033203
 21
-110.315524118996
 31
0.0
  0
LINE
  5
   87B
  8
0
  6
DASHDOT
 62
     7
 10
256.669814445413
 20
-20.6565399169922
 30
0.0
 11
226.560715630767
 21
-20.6565399169922
 31
0.0
  0
LINE
  5
   87C
  8
0
  6
DASHDOT
 62
     7
 10
260.104266343555
 20
-96.5315399169922
 30
0.0
 11
230.694411178524
 21
-96.5315399169922
 31
0.0
  0
CIRCLE
  5
   87D
  8
0
  6
CONTINUOUS
 62
     7
 10
234.537384033203
 20
-20.6565399169922
 30
0.0
 40
0.6875
  0
CIRCLE
  5
   87E
  8
0
  6
CONTINUOUS
 62
     7
 10
252.037384033203
 20
-20.6565399169922
 30
0.0
 40
0.6875
  0
CIRCLE
  5
   87F
  8
0
  6
CONTINUOUS
 62
     7
 10
234.537384033203
 20
-96.5315399169922
 30
0.0
 40
0.6875
  0
CIRCLE
  5
   880
  8
0
  6
CONTINUOUS
 62
     7
 10
252.037384033203
 20
-96.5315399169922
 30
0.0
 40
0.6875
  0
LINE
  5
   881
  8
0
  6
DASHDOT
 62
     7
 10
234.537384033203
 20
-17.1644511747562
 30
0.0
 11
234.537384033203
 21
-99.6330637658069
 31
0.0
  0
LINE
  5
   882
  8
0
  6
DASHDOT
 62
     7
 10
252.037384033203
 20
-17.7090292109297
 30
0.0
 11
252.037384033203
 21
-99.3606025741462
 31
0.0
  0
LINE
  5
   883
  8
0
  6
DASHDOT
 62
     7
 10
268.326674422199
 20
-69.3440399169922
 30
0.0
 11
203.370043687313
 21
-69.3440399169922
 31
0.0
  0
ARC
  5
   884
  8
0
  6
CONTINUOUS
 62
     7
 10
230.162384033203
 20
-14.8440399169922
 30
0.0
 40
3.75
 50
449.999999896069
 51
629.999999896069
  0
ARC
  5
   885
  8
0
  6
CONTINUOUS
 62
     7
 10
256.412384033203
 20
-14.8440399169922
 30
0.0
 40
3.75
 50
269.999999896069
 51
449.999999896069
  0
ARC
  5
   886
  8
0
  6
CONTINUOUS
 62
     7
 10
256.412384033203
 20
-102.344039916992
 30
0.0
 40
3.75
 50
269.999999896069
 51
449.999999896069
  0
ARC
  5
   887
  8
0
  6
CONTINUOUS
 62
     7
 10
230.162384033203
 20
-102.344039916992
 30
0.0
 40
3.75
 50
449.999999896069
 51
629.999999896069
  0
LINE
  5
   888
  8
0
  6
CONTINUOUS
 62
     7
 10
256.412384033203
 20
-11.0940399169922
 30
0.0
 11
230.162384033203
 21
-11.0940399169922
 31
0.0
  0
LINE
  5
   889
  8
0
  6
CONTINUOUS
 62
     7
 10
256.412384033203
 20
-18.5940399169922
 30
0.0
 11
230.162384033203
 21
-18.5940399169922
 31
0.0
  0
LINE
  5
   88A
  8
0
  6
CONTINUOUS
 62
     7
 10
256.412384033203
 20
-98.5940399169922
 30
0.0
 11
230.162384033203
 21
-98.5940399169922
 31
0.0
  0
LINE
  5
   88B
  8
0
  6
CONTINUOUS
 62
     7
 10
256.412384033203
 20
-106.094039916992
 30
0.0
 11
230.162384033203
 21
-106.094039916992
 31
0.0
  0
LINE
  5
   88C
  8
0
  6
CONTINUOUS
 62
     7
 10
265.162384033203
 20
-7.8036529124947
 30
0.0
 11
221.412384033203
 21
-7.8036529124947
 31
0.0
  0
LINE
  5
   88D
  8
0
  6
CONTINUOUS
 62
     7
 10
265.162384033203
 20
-109.384421819927
 30
0.0
 11
221.412384033203
 21
-109.384421819927
 31
0.0
  0
LINE
  5
   88E
  8
0
  6
CONTINUOUS
 62
     7
 10
221.412384033203
 20
-7.8036529124947
 30
0.0
 11
221.412384033203
 21
-109.384421819927
 31
0.0
  0
LINE
  5
   88F
  8
0
  6
CONTINUOUS
 62
     7
 10
265.162384033203
 20
-7.8036529124947
 30
0.0
 11
265.162384033203
 21
-109.384421819927
 31
0.0
  0
LINE
  5
   890
  8
0
  6
DASHDOT
 62
     7
 10
256.412384033203
 20
-10.4065399169922
 30
0.0
 11
256.412384033203
 21
-19.4065399169922
 31
0.0
  0
LINE
  5
   891
  8
0
  6
DASHDOT
 62
     7
 10
260.912384033203
 20
-14.8440399169922
 30
0.0
 11
251.912384033203
 21
-14.8440399169922
 31
0.0
  0
LINE
  5
   892
  8
0
  6
DASHDOT
 62
     7
 10
230.162384033203
 20
-10.4065399169922
 30
0.0
 11
230.162384033203
 21
-19.4065399169922
 31
0.0
  0
LINE
  5
   893
  8
0
  6
DASHDOT
 62
     7
 10
234.662384033203
 20
-14.8440399169922
 30
0.0
 11
225.662384033203
 21
-14.8440399169922
 31
0.0
  0
LINE
  5
   894
  8
0
  6
DASHDOT
 62
     7
 10
230.162384033203
 20
-97.7815399169922
 30
0.0
 11
230.162384033203
 21
-106.781539916992
 31
0.0
  0
LINE
  5
   895
  8
0
  6
DASHDOT
 62
     7
 10
234.662384033203
 20
-102.344039916992
 30
0.0
 11
225.662384033203
 21
-102.344039916992
 31
0.0
  0
LINE
  5
   896
  8
0
  6
DASHDOT
 62
     7
 10
256.412384033203
 20
-97.7815399169922
 30
0.0
 11
256.412384033203
 21
-106.781539916992
 31
0.0
  0
LINE
  5
   897
  8
0
  6
DASHDOT
 62
     7
 10
260.912384033203
 20
-102.344039916992
 30
0.0
 11
251.912384033203
 21
-102.344039916992
 31
0.0
  0
CIRCLE
  5
   898
  8
0
  6
CONTINUOUS
 62
     7
 10
259.208015138373
 20
-59.340854303315
 30
0.0
 40
0.075
  0
INSERT
  5
   899
  8
0
  6
CONTINUOUS
 62
     7
  2
*UDIM437
 10
0.0
 20
0.0
 30
0.0
  0
INSERT
  5
   89A
  8
0
  6
CONTINUOUS
 62
     7
  2
*UDIM438
 10
0.0
 20
0.0
 30
0.0
  0
TEXT
  5
   89B
  8
0
  6
CONTINUOUS
 62
     1
 10
138.296893362876
 20
-193.480718893192
 30
0.0
 40
2.00000008940697
  1
M4352 96-12-17
 50
359.999999896069
 41
0.749999861419206
 72
     2
 11
158.99689045566
 21
-193.480718930637
 31
0.0
  0
TEXT
  5
   89C
  8
0
  6
CONTINUOUS
 62
     1
 10
130.442901609519
 20
-178.463394231654
 30
0.0
 40
2.00000008940697
  1
96-11-19 BARCELLA
 50
359.999999896069
 41
0.749999861419206
 72
     2
 11
155.642898071984
 21
-178.463394277238
 31
0.0
  0
TEXT
  5
   89D
  8
0
  6
CONTINUOUS
 62
     1
 10
231.973709102828
 20
-204.68986525788
 30
0.0
 40
4.00000017881393
  1
605032/031
 50
359.999999896069
 41
0.937499973922969
 72
     2
 11
268.723709702599
 21
-204.689865324357
 31
0.0
  0
TEXT
  5
   89E
  8
0
  6
CONTINUOUS
 62
     1
 10
250.059402463107
 20
-195.708282493541
 30
0.0
 40
3.00000002980232
  1
S4X
 50
359.999999896069
 41
0.916666604744064
 72
     2
 11
257.759402015079
 21
-195.70828250747
 31
0.0
  0
TEXT
  5
   89F
  8
0
  6
CONTINUOUS
 62
     1
 10
223.962477530593
 20
-177.398010250357
 30
0.0
 40
2.00000008940697
  1
4POLE LOW VOLTAGE M.C.C.B SERIES ISOMAX
 50
359.999999896069
 41
0.687499997764826
 72
     1
 11
250.637478634715
 21
-176.398010253906
 31
0.0
 73
     2
  0
TEXT
  5
   8A0
  8
0
  6
CONTINUOUS
 62
     1
 10
221.212477416599
 20
-180.398010245382
 30
0.0
 40
2.00000008940697
  1
SUPERLIMITING FIXED VERSION TERMINALS CABLE
 50
359.999999896069
 41
0.687499997764826
 72
     1
 11
250.637478634715
 21
-179.398010253906
 31
0.0
 73
     2
  0
TEXT
  5
   8A1
  8
0
  6
CONTINUOUS
 62
     1
 10
212.727376053164
 20
-185.468276960106
 30
0.0
 40
2.00000008940697
  1
INTERR.AUTOMATICO SERIE ISOMAX SUPERLIMITATORE
 50
359.999999896069
 41
0.749999861419206
 72
     1
 11
247.077371239662
 21
-184.468276977539
 31
0.0
 73
     2
  0
TEXT
  5
   8A2
  8
0
  6
CONTINUOUS
 62
     1
 10
217.227375422844
 20
-188.468276968246
 30
0.0
 40
2.00000008940697
  1
TETRAP.ESECUZIONE FISSA TERMINALI X CAVI
 50
359.999999896069
 41
0.749999861419206
 72
     1
 11
247.077371239662
 21
-187.468276977539
 31
0.0
 73
     2
  0
INSERT
  5
   8A3
  8
0
  6
CONTINUOUS
 62
     7
  2
*UDIM439
 10
0.0
 20
0.0
 30
0.0
  0
INSERT
  5
   8A4
  8
0
  6
CONTINUOUS
 62
     7
  2
*UDIM440
 10
0.0
 20
0.0
 30
0.0
  0
INSERT
  5
   8A5
  8
0
  6
CONTINUOUS
 62
     7
  2
*UDIM441
 10
0.0
 20
0.0
 30
0.0
  0
TEXT
  5
   8A6
  8
0
  6
CONTINUOUS
 62
     7
 10
246.548817798759
 20
-5.60532275359008
 30
0.0
 40
3.00000002980232
  1
Y
 50
359.999999896069
 41
0.916666604744064
 72
     2
 11
248.748817667628
 21
-5.6053227575697
 31
0.0
  0
TEXT
  5
   8A7
  8
0
  6
CONTINUOUS
 62
     7
 10
277.767988202243
 20
-70.4848184863696
 30
0.0
 40
3.00000002980232
  1
X
 50
359.999999896069
 41
0.916666604744064
 72
     2
 11
279.967988071112
 21
-70.4848184903493
 31
0.0
  0
TEXT
  5
   8A8
  8
0
  6
CONTINUOUS
 62
     7
 10
246.842078146605
 20
-115.268722561992
 30
0.0
 40
3.00000002980232
  1
Y
 50
359.999999896069
 41
0.916666604744064
 72
     2
 11
249.042078015475
 21
-115.268722565972
 31
0.0
  0
LINE
  5
   8A9
  8
0
  6
CONTINUOUS
 62
     7
 10
75.0689984515678
 20
68.0675373465592
 30
0.0
 11
71.5689985111724
 21
68.0675373465592
 31
0.0
  0
LINE
  5
   8AA
  8
0
  6
CONTINUOUS
 62
     7
 10
66.3189986005794
 20
104.117526051479
 30
0.0
 11
66.3189986005794
 21
104.817526039558
 31
0.0
  0
LINE
  5
   8AB
  8
0
  6
CONTINUOUS
 62
     7
 10
71.5689985111724
 20
68.0675373465592
 30
0.0
 11
66.3189986005794
 21
68.0675373465592
 31
0.0
  0
LINE
  5
   8AC
  8
0
  6
CONTINUOUS
 62
     7
 10
84.6939876065028
 20
68.0675373465592
 30
0.0
 11
75.0689984515678
 21
68.0675373465592
 31
0.0
  0
LINE
  5
   8AD
  8
0
  6
CONTINUOUS
 62
    52
 10
97.8189767018333
 20
68.0675373465592
 30
0.0
 11
94.3189767614379
 21
68.0675373465592
 31
0.0
  0
LINE
  5
   8AE
  8
0
  6
CONTINUOUS
 62
    52
 10
103.068976612426
 20
68.0675373465592
 30
0.0
 11
97.8189767018333
 21
68.0675373465592
 31
0.0
  0
LINE
  5
   8AF
  8
0
  6
CONTINUOUS
 62
    52
 10
94.3189767614379
 20
68.0675373465592
 30
0.0
 11
84.6939876065028
 21
68.0675373465592
 31
0.0
  0
LINE
  5
   8B0
  8
0
  6
CONTINUOUS
 62
     7
 10
54.0689988091956
 20
104.817515358406
 30
0.0
 11
54.0689988091956
 21
121.705025751966
 31
0.0
  0
LINE
  5
   8B1
  8
0
  6
CONTINUOUS
 62
     7
 10
84.6939876065028
 20
121.705025751966
 30
0.0
 11
54.0689934686196
 21
121.705025751966
 31
0.0
  0
LINE
  5
   8B2
  8
0
  6
CONTINUOUS
 62
     7
 10
103.068976612426
 20
114.617523202376
 30
0.0
 11
103.068976612426
 21
121.880035146109
 31
0.0
  0
LINE
  5
   8B3
  8
0
  6
CONTINUOUS
 62
     7
 10
103.068976612426
 20
121.705025751966
 30
0.0
 11
84.6939876065028
 21
121.705025751966
 31
0.0
  0
LINE
  5
   8B4
  8
0
  6
CONTINUOUS
 62
     3
 10
54.0689988091956
 20
42.360037767666
 30
0.0
 11
54.0689988091956
 21
68.0675373465602
 31
0.0
  0
LINE
  5
   8B5
  8
0
  6
CONTINUOUS
 62
     3
 10
54.9439987942945
 20
42.360037767666
 30
0.0
 11
54.0689988091956
 21
42.360037767666
 31
0.0
  0
LINE
  5
   8B6
  8
0
  6
CONTINUOUS
 62
     7
 10
54.9439987942945
 20
42.360037767666
 30
0.0
 11
54.9439987942945
 21
49.430037663954
 31
0.0
  0
LINE
  5
   8B7
  8
0
  6
CONTINUOUS
 62
     7
 10
100.793998013474
 20
49.7800376579935
 30
0.0
 11
92.6564981520544
 21
49.7800376579935
 31
0.0
  0
LINE
  5
   8B8
  8
0
  6
CONTINUOUS
 62
     7
 10
98.1689980581771
 20
49.7800376579935
 30
0.0
 11
98.1689980581771
 21
49.9550376550133
 31
0.0
  0
LINE
  5
   8B9
  8
0
  6
CONTINUOUS
 62
     7
 10
102.456497985161
 20
49.430037663954
 30
0.0
 11
102.456497985161
 21
49.9550376550133
 31
0.0
  0
LINE
  5
   8BA
  8
0
  6
CONTINUOUS
 62
     7
 10
54.6814987987648
 20
49.430037663954
 30
0.0
 11
54.6814987987648
 21
49.9550376550133
 31
0.0
  0
LINE
  5
   8BB
  8
0
  6
CONTINUOUS
 62
     7
 10
100.793998013474
 20
49.430037663954
 30
0.0
 11
100.793998013474
 21
49.9550376550133
 31
0.0
  0
ARC
  5
   8BC
  8
0
  6
CONTINUOUS
 62
     3
 10
55.2939988857946
 20
41.7300379390832
 30
0.0
 40
0.350000144503819
 50
180.000023420064
 51
269.999992853049
  0
LINE
  5
   8BD
  8
0
  6
DASHDOT
 62
     3
 10
84.693998445778
 20
45.0550400511433
 30
0.0
 11
84.693998445778
 21
69.9310689069715
 31
0.0
  0
LINE
  5
   8BE
  8
0
  6
DASHDOT
 62
     3
 10
84.69399695817
 20
23.582036832886
 30
0.0
 11
84.69399695817
 21
130.963877427193
 31
0.0
  0
LINE
  5
   8BF
  8
0
  6
CONTINUOUS
 62
     3
 10
54.9439987942945
 20
41.7300377950842
 30
0.0
 11
54.9439987942945
 21
42.360037767666
 31
0.0
  0
LINE
  5
   8C0
  8
0
  6
CONTINUOUS
 62
     3
 10
103.068997974731
 20
42.3600388524706
 30
0.0
 11
103.068997974731
 21
58.2675254971547
 31
0.0
  0
LINE
  5
   8C1
  8
0
  6
CONTINUOUS
 62
     7
 10
56.3439987704526
 20
49.430037663954
 30
0.0
 11
54.6814987987648
 21
49.430037663954
 31
0.0
  0
LINE
  5
   8C2
  8
0
  6
CONTINUOUS
 62
     7
 10
91.6939981684457
 20
46.1050377205784
 30
0.0
 11
91.6939981684457
 21
46.7642572387022
 31
0.0
  0
LINE
  5
   8C3
  8
0
  6
CONTINUOUS
 62
     7
 10
71.2189985171329
 20
49.7800376579935
 30
0.0
 11
71.2189985171329
 21
49.9550376550133
 31
0.0
  0
LINE
  5
   8C4
  8
0
  6
CONTINUOUS
 62
     7
 10
56.3439987704526
 20
49.430037663954
 30
0.0
 11
56.3439987704526
 21
49.9550376550133
 31
0.0
  0
ARC
  5
   8C5
  8
0
  6
CONTINUOUS
 62
     3
 10
55.2939988857946
 20
41.7300379390832
 30
0.0
 40
0.350000144503819
 50
180.000023420064
 51
269.999992853049
  0
LINE
  5
   8C6
  8
0
  6
CONTINUOUS
 62
     7
 10
76.7314984232555
 20
49.7800376579935
 30
0.0
 11
68.1564985692869
 21
49.7800376579935
 31
0.0
  0
LINE
  5
   8C7
  8
0
  6
CONTINUOUS
 62
     7
 10
102.456497985161
 20
49.430037663954
 30
0.0
 11
100.793998013474
 21
49.430037663954
 31
0.0
  0
LINE
  5
   8C8
  8
0
  6
CONTINUOUS
 62
     7
 10
103.068976612426
 20
49.9550376550133
 30
0.0
 11
54.0689988091956
 21
49.9550376550133
 31
0.0
  0
LINE
  5
   8C9
  8
0
  6
CONTINUOUS
 62
     7
 10
75.0689931109917
 20
68.0675373465592
 30
0.0
 11
71.5689985111724
 21
68.0675373465592
 31
0.0
  0
LINE
  5
   8CA
  8
0
  6
CONTINUOUS
 62
     7
 10
97.8189873829854
 20
68.0675373465592
 30
0.0
 11
94.3189874425901
 21
68.0675373465592
 31
0.0
  0
LINE
  5
   8CB
  8
0
  6
CONTINUOUS
 62
     7
 10
103.068997974731
 20
68.242537343579
 30
0.0
 11
103.068997974731
 21
74.5425318957145
 31
0.0
  0
LINE
  5
   8CC
  8
0
  6
CONTINUOUS
 62
     7
 10
66.3189986005794
 20
67.8925253332419
 30
0.0
 11
66.3189986005794
 21
74.5425318957145
 31
0.0
  0
LINE
  5
   8CD
  8
0
  6
CONTINUOUS
 62
     7
 10
102.893997977711
 20
104.81753672071
 30
0.0
 11
66.4939985976089
 21
104.81753672071
 31
0.0
  0
LINE
  5
   8CE
  8
0
  6
CONTINUOUS
 62
     7
 10
71.5689985111724
 20
68.0675373465592
 30
0.0
 11
66.4939985975991
 21
68.0675373465592
 31
0.0
  0
LINE
  5
   8CF
  8
0
  6
CONTINUOUS
 62
     7
 10
94.3189874425901
 20
68.0675373465592
 30
0.0
 11
75.0689931109917
 21
68.0675373465592
 31
0.0
  0
LINE
  5
   8D0
  8
0
  6
CONTINUOUS
 62
     7
 10
102.893997977711
 20
68.0675373465592
 30
0.0
 11
97.8189873829854
 21
68.0675373465592
 31
0.0
  0
LINE
  5
   8D1
  8
0
  6
CONTINUOUS
 62
     7
 10
88.45649822358
 20
75.8550318733628
 30
0.0
 11
88.45649822358
 21
89.8550262943681
 31
0.0
  0
LINE
  5
   8D2
  8
0
  6
CONTINUOUS
 62
     7
 10
80.93149835173
 20
75.8550318733628
 30
0.0
 11
80.93149835173
 21
89.8550262943681
 31
0.0
  0
LINE
  5
   8D3
  8
0
  6
CONTINUOUS
 62
     7
 10
103.068997974731
 20
100.617526111084
 30
0.0
 11
66.3189986005794
 21
100.617526111084
 31
0.0
  0
LINE
  5
   8D4
  8
0
  6
CONTINUOUS
 62
     7
 10
103.068997974731
 20
104.117526051479
 30
0.0
 11
66.3189986005794
 21
104.117526051479
 31
0.0
  0
LINE
  5
   8D5
  8
0
  6
CONTINUOUS
 62
     7
 10
88.45649822358
 20
89.7624634297335
 30
0.0
 11
80.93149835173
 21
89.7624634297335
 31
0.0
  0
LINE
  5
   8D6
  8
0
  6
CONTINUOUS
 62
     7
 10
88.45649822358
 20
89.8550262943681
 30
0.0
 11
80.93149835173
 21
89.8550262943681
 31
0.0
  0
LINE
  5
   8D7
  8
0
  6
CONTINUOUS
 62
     7
 10
88.45649822358
 20
75.8550318733628
 30
0.0
 11
80.93149835173
 21
75.8550318733628
 31
0.0
  0
LINE
  5
   8D8
  8
0
  6
CONTINUOUS
 62
     7
 10
88.45649822358
 20
75.9476054191496
 30
0.0
 11
80.93149835173
 21
75.9476054191496
 31
0.0
  0
LINE
  5
   8D9
  8
0
  6
CONTINUOUS
 62
     7
 10
103.068992634155
 20
74.8925318897541
 30
0.0
 11
103.068992634155
 21
79.0925290345951
 31
0.0
  0
LINE
  5
   8DA
  8
0
  6
CONTINUOUS
 62
     7
 10
103.068992634155
 20
91.1675316125925
 30
0.0
 11
103.068992634155
 21
104.642536723691
 31
0.0
  0
LINE
  5
   8DB
  8
0
  6
CONTINUOUS
 62
     7
 10
103.068992634155
 20
79.4425290286346
 30
0.0
 11
103.068992634155
 21
86.267531696039
 31
0.0
  0
LINE
  5
   8DC
  8
0
  6
CONTINUOUS
 62
     7
 10
103.068992634155
 20
86.6175316900785
 30
0.0
 11
103.068992634155
 21
90.8175316185529
 31
0.0
  0
LINE
  5
   8DD
  8
0
  6
CONTINUOUS
 62
     7
 10
66.3189986005776
 20
74.8925318897541
 30
0.0
 11
66.3189986005776
 21
79.0925318182293
 31
0.0
  0
LINE
  5
   8DE
  8
0
  6
CONTINUOUS
 62
     7
 10
66.3189986005714
 20
79.4425318122688
 30
0.0
 11
66.3189986005714
 21
86.267531696039
 31
0.0
  0
LINE
  5
   8DF
  8
0
  6
CONTINUOUS
 62
     7
 10
66.3189986005812
 20
86.6175316900785
 30
0.0
 11
66.3189986005812
 21
90.8175316185529
 31
0.0
  0
LINE
  5
   8E0
  8
0
  6
CONTINUOUS
 62
     7
 10
66.3189986005891
 20
91.1675316125925
 30
0.0
 11
66.3189986005891
 21
104.642536723691
 31
0.0
  0
LINE
  5
   8E1
  8
0
  6
CONTINUOUS
 62
     7
 10
80.9314955609266
 20
79.0925318182278
 30
0.0
 11
66.6689985737573
 21
79.0925318182278
 31
0.0
  0
LINE
  5
   8E2
  8
0
  6
CONTINUOUS
 62
     7
 10
103.068992634155
 20
79.0925424993799
 30
0.0
 11
102.718992640115
 21
79.0925424993799
 31
0.0
  0
LINE
  5
   8E3
  8
0
  6
CONTINUOUS
 62
     7
 10
80.9314887152459
 20
79.4425318122673
 30
0.0
 11
66.6689985737573
 21
79.4425318122673
 31
0.0
  0
LINE
  5
   8E4
  8
0
  6
CONTINUOUS
 62
     7
 10
103.068992634155
 20
79.4425424934195
 30
0.0
 11
102.718992640115
 21
79.4425424934195
 31
0.0
  0
LINE
  5
   8E5
  8
0
  6
CONTINUOUS
 62
     7
 10
66.6689985737573
 20
79.0925318182285
 30
0.0
 11
66.6689985737573
 21
79.442531812268
 31
0.0
  0
LINE
  5
   8E6
  8
0
  6
CONTINUOUS
 62
     7
 10
102.718992640115
 20
79.0925318182285
 30
0.0
 11
102.718992640115
 21
79.442531812268
 31
0.0
  0
LINE
  5
   8E7
  8
0
  6
CONTINUOUS
 62
     7
 10
103.068997974731
 20
74.5425318957145
 30
0.0
 11
102.718992640115
 21
74.5425318957145
 31
0.0
  0
LINE
  5
   8E8
  8
0
  6
CONTINUOUS
 62
     7
 10
103.068992634155
 20
74.8925318897541
 30
0.0
 11
102.718992640115
 21
74.8925318897541
 31
0.0
  0
LINE
  5
   8E9
  8
0
  6
CONTINUOUS
 62
     7
 10
66.6689985737573
 20
74.5425318957145
 30
0.0
 11
66.6689985737573
 21
74.8925318897541
 31
0.0
  0
LINE
  5
   8EA
  8
0
  6
CONTINUOUS
 62
     7
 10
102.718992640115
 20
74.5425318957145
 30
0.0
 11
102.718992640115
 21
74.8925318897541
 31
0.0
  0
LINE
  5
   8EB
  8
0
  6
CONTINUOUS
 62
     7
 10
103.068992634155
 20
90.8175316185529
 30
0.0
 11
102.718992640115
 21
90.8175316185529
 31
0.0
  0
LINE
  5
   8EC
  8
0
  6
CONTINUOUS
 62
     7
 10
103.068992634155
 20
91.1675316125925
 30
0.0
 11
102.718992640115
 21
91.1675316125925
 31
0.0
  0
LINE
  5
   8ED
  8
0
  6
CONTINUOUS
 62
     7
 10
66.6689985737573
 20
90.8175316185529
 30
0.0
 11
66.6689985737573
 21
91.1675316125925
 31
0.0
  0
LINE
  5
   8EE
  8
0
  6
CONTINUOUS
 62
     7
 10
102.718992640115
 20
90.8175316185529
 30
0.0
 11
102.718992640115
 21
91.1675316125925
 31
0.0
  0
LINE
  5
   8EF
  8
0
  6
CONTINUOUS
 62
     7
 10
80.9314955771338
 20
86.267531696039
 30
0.0
 11
66.6689985737573
 21
86.267531696039
 31
0.0
  0
LINE
  5
   8F0
  8
0
  6
CONTINUOUS
 62
     7
 10
103.068992634155
 20
86.267531696039
 30
0.0
 11
102.718992640115
 21
86.267531696039
 31
0.0
  0
LINE
  5
   8F1
  8
0
  6
CONTINUOUS
 62
     7
 10
80.93149835173
 20
86.6175316900785
 30
0.0
 11
66.6689985737573
 21
86.6175316900785
 31
0.0
  0
LINE
  5
   8F2
  8
0
  6
CONTINUOUS
 62
     7
 10
103.068992634155
 20
86.6175316900785
 30
0.0
 11
102.718992640115
 21
86.6175316900785
 31
0.0
  0
LINE
  5
   8F3
  8
0
  6
CONTINUOUS
 62
     7
 10
66.6689985737573
 20
86.267531696039
 30
0.0
 11
66.6689985737573
 21
86.6175316900785
 31
0.0
  0
LINE
  5
   8F4
  8
0
  6
CONTINUOUS
 62
     7
 10
102.718992640115
 20
86.267531696039
 30
0.0
 11
102.718992640115
 21
86.6175316900785
 31
0.0
  0
ARC
  5
   8F5
  8
0
  6
CONTINUOUS
 62
     7
 10
66.4939985975991
 20
68.242537343579
 30
0.0
 40
0.174999997019768
 50
179.999999948034
 51
269.999999948034
  0
ARC
  5
   8F6
  8
0
  6
CONTINUOUS
 62
     7
 10
102.893997977711
 20
68.242537343579
 30
0.0
 40
0.174999997019768
 50
269.999999948034
 51
359.999999948034
  0
ARC
  5
   8F7
  8
0
  6
CONTINUOUS
 62
     7
 10
102.893997977711
 20
104.642536723691
 30
0.0
 40
0.174999997019768
 50
359.999999948034
 51
449.999999948034
  0
ARC
  5
   8F8
  8
0
  6
CONTINUOUS
 62
     7
 10
66.4939985976089
 20
104.642536723691
 30
0.0
 40
0.174999997019768
 50
449.999999948034
 51
539.999999948034
  0
INSERT
  5
   8F9
  8
255
  6
CONTINUOUS
 62
     7
  2
$1ON-OFF
 10
91.693994750477
 20
88.7175316543157
 30
0.0
 41
0.349999994039536
 42
0.349999994039536
 50
359.999999792137
 43
0.349999994039536
  0
LINE
  5
   8FA
  8
0
  6
CONTINUOUS
 62
     7
 10
76.8189984217654
 20
90.2925316274936
 30
0.0
 11
76.2939984307061
 21
90.2925316274936
 31
0.0
  0
LINE
  5
   8FB
  8
0
  6
CONTINUOUS
 62
     7
 10
76.8189984217654
 20
87.1425316811378
 30
0.0
 11
76.2939984307061
 21
87.1425316811378
 31
0.0
  0
CIRCLE
  5
   8FC
  8
0
  6
CONTINUOUS
 62
     7
 10
76.5564984262358
 20
76.9925318539913
 30
0.0
 40
1.57499997317791
  0
CIRCLE
  5
   8FD
  8
0
  6
CONTINUOUS
 62
     7
 10
76.5564984262358
 20
76.9925318539913
 30
0.0
 40
1.04999998211861
  0
LINE
  5
   8FE
  8
0
  6
CONTINUOUS
 62
     7
 10
76.2939984307061
 20
87.1425316811378
 30
0.0
 11
76.2939984307061
 21
90.2925316274936
 31
0.0
  0
LINE
  5
   8FF
  8
0
  6
CONTINUOUS
 62
     7
 10
76.8189984217654
 20
87.1425316811378
 30
0.0
 11
76.8189984217654
 21
90.2925316274936
 31
0.0
  0
LINE
  5
   900
  8
0
  6
CONTINUOUS
 62
     7
 10
79.9689983681213
 20
74.8925318897541
 30
0.0
 11
79.9689983681213
 21
79.0925368194364
 31
0.0
  0
LINE
  5
   901
  8
0
  6
CONTINUOUS
 62
     7
 10
89.4189982071887
 20
74.8925318897541
 30
0.0
 11
89.4189982071887
 21
79.0925340358002
 31
0.0
  0
LINE
  5
   902
  8
0
  6
CONTINUOUS
 62
     7
 10
89.4189982071887
 20
86.6175316900785
 30
0.0
 11
89.4189982071887
 21
90.8175316185529
 31
0.0
  0
LINE
  5
   903
  8
0
  6
CONTINUOUS
 62
     7
 10
79.9689983681213
 20
86.6175316900785
 30
0.0
 11
79.9689983681213
 21
90.8175316185529
 31
0.0
  0
LINE
  5
   904
  8
0
  6
DASHDOT
 62
     7
 10
84.6939741756187
 20
118.554650201094
 30
0.0
 11
84.6939741756187
 21
129.405008919896
 31
0.0
  0
LINE
  5
   905
  8
0
  6
DASHDOT
 62
     7
 10
84.6939616387985
 20
124.890025840127
 30
0.0
 11
84.6939616387985
 21
164.379766870131
 31
0.0
  0
LINE
  5
   906
  8
0
  6
CONTINUOUS
 62
     7
 10
88.45649822358
 20
79.0677820430543
 30
0.0
 11
80.93149835173
 21
79.0677820430543
 31
0.0
  0
LINE
  5
   907
  8
0
  6
CONTINUOUS
 62
     7
 10
88.45649822358
 20
76.2954487663332
 30
0.0
 11
80.93149835173
 21
76.2954487663332
 31
0.0
  0
LINE
  5
   908
  8
0
  6
CONTINUOUS
 62
     7
 10
88.45649822358
 20
79.0677817975453
 30
0.0
 11
80.93149835173
 21
79.0677817975453
 31
0.0
  0
LINE
  5
   909
  8
0
  6
CONTINUOUS
 62
     7
 10
88.45649822358
 20
80.7989241796444
 30
0.0
 11
80.93149835173
 21
80.7989241796444
 31
0.0
  0
LINE
  5
   90A
  8
0
  6
CONTINUOUS
 62
     7
 10
102.543976574786
 20
119.955025781768
 30
0.0
 11
66.843977182752
 21
119.955025781768
 31
0.0
  0
LINE
  5
   90B
  8
0
  6
CONTINUOUS
 62
     7
 10
66.8439786032848
 20
114.617523202376
 30
0.0
 11
66.8439771827519
 21
119.955025781768
 31
0.0
  0
LINE
  5
   90C
  8
0
  6
CONTINUOUS
 62
     7
 10
102.543977995319
 20
114.617523202376
 30
0.0
 11
102.543976574786
 21
119.955025781768
 31
0.0
  0
LINE
  5
   90D
  8
0
  6
CONTINUOUS
 62
     7
 10
66.6689985737573
 20
91.1675316125925
 30
0.0
 11
66.3189986005891
 21
91.1675316125925
 31
0.0
  0
LINE
  5
   90E
  8
0
  6
CONTINUOUS
 62
     7
 10
66.6689985737573
 20
90.8175316185529
 30
0.0
 11
66.3189986005812
 21
90.8175316185529
 31
0.0
  0
LINE
  5
   90F
  8
0
  6
CONTINUOUS
 62
     7
 10
66.6689985737573
 20
86.6175316900785
 30
0.0
 11
66.3189986005812
 21
86.6175316900785
 31
0.0
  0
LINE
  5
   910
  8
0
  6
CONTINUOUS
 62
     7
 10
66.6689985737573
 20
86.267531696039
 30
0.0
 11
66.3189986005714
 21
86.267531696039
 31
0.0
  0
LINE
  5
   911
  8
0
  6
CONTINUOUS
 62
     7
 10
66.6689985737573
 20
79.4425318122673
 30
0.0
 11
66.3189986005714
 21
79.4425318122673
 31
0.0
  0
LINE
  5
   912
  8
0
  6
CONTINUOUS
 62
     7
 10
66.6689985737573
 20
79.0925318182278
 30
0.0
 11
66.3189986005776
 21
79.0925318182278
 31
0.0
  0
LINE
  5
   913
  8
0
  6
CONTINUOUS
 62
     7
 10
66.6689985737573
 20
74.8925318897541
 30
0.0
 11
66.3189986005776
 21
74.8925318897541
 31
0.0
  0
LINE
  5
   914
  8
0
  6
CONTINUOUS
 62
     7
 10
66.6689985737573
 20
74.5425318957145
 30
0.0
 11
66.3189986005794
 21
74.5425318957145
 31
0.0
  0
LINE
  5
   915
  8
0
  6
CONTINUOUS
 62
     7
 10
102.718992640115
 20
74.8925318897541
 30
0.0
 11
66.6689985737573
 21
74.8925318897541
 31
0.0
  0
LINE
  5
   916
  8
0
  6
CONTINUOUS
 62
     7
 10
102.718992640115
 20
74.5425318957145
 30
0.0
 11
66.6689985737573
 21
74.5425318957145
 31
0.0
  0
LINE
  5
   917
  8
0
  6
CONTINUOUS
 62
     7
 10
102.718992640115
 20
79.4425424934195
 30
0.0
 11
88.4564971789145
 21
79.4425424934195
 31
0.0
  0
LINE
  5
   918
  8
0
  6
CONTINUOUS
 62
     7
 10
102.718992640115
 20
79.0925424993799
 30
0.0
 11
88.4564970506784
 21
79.0925424993799
 31
0.0
  0
LINE
  5
   919
  8
0
  6
CONTINUOUS
 62
     7
 10
102.718992640115
 20
86.6175316900785
 30
0.0
 11
88.45649822358
 21
86.6175316900785
 31
0.0
  0
LINE
  5
   91A
  8
0
  6
CONTINUOUS
 62
     7
 10
102.718992640115
 20
86.267531696039
 30
0.0
 11
88.45649822358
 21
86.267531696039
 31
0.0
  0
LINE
  5
   91B
  8
0
  6
CONTINUOUS
 62
     7
 10
102.718992640115
 20
91.1675316125925
 30
0.0
 11
66.6689985737573
 21
91.1675316125925
 31
0.0
  0
LINE
  5
   91C
  8
0
  6
CONTINUOUS
 62
     7
 10
102.718992640115
 20
90.8175316185529
 30
0.0
 11
66.6689985737573
 21
90.8175316185529
 31
0.0
  0
CIRCLE
  5
   91D
  8
0
  6
CONTINUOUS
 62
     7
 10
60.1939982660797
 20
42.7800370683711
 30
0.0
 40
0.490000710339291
  0
CIRCLE
  5
   91E
  8
0
  6
CONTINUOUS
 62
     7
 10
60.1939987519752
 20
47.6800362669126
 30
0.0
 40
1.92499852271199
  0
LINE
  5
   91F
  8
0
  6
CONTINUOUS
 62
     7
 10
64.4814986318718
 20
48.3800376818354
 30
0.0
 11
64.4814986318718
 21
49.7800376579935
 31
0.0
  0
ARC
  5
   920
  8
0
  6
CONTINUOUS
 62
     7
 10
66.31899907199
 20
48.3800438150187
 30
0.0
 40
1.83749401361082
 50
121.002781363519
 51
241.56299252681
  0
LINE
  5
   921
  8
0
  6
CONTINUOUS
 62
     7
 10
65.4439986154805
 20
46.1050377205784
 30
0.0
 11
65.4439986154805
 21
46.7642596551868
 31
0.0
  0
LINE
  5
   922
  8
0
  6
CONTINUOUS
 62
     7
 10
65.7064986110119
 20
41.3800312424434
 30
0.0
 11
55.2939987883358
 21
41.3800312424434
 31
0.0
  0
LINE
  5
   923
  8
0
  6
CONTINUOUS
 62
     3
 10
67.19399858568
 20
42.4300312245617
 30
0.0
 11
67.19399858568
 21
43.6550312037001
 31
0.0
  0
LINE
  5
   924
  8
0
  6
CONTINUOUS
 62
     3
 10
65.4439986154823
 20
42.4300311411152
 30
0.0
 11
65.4439986154823
 21
43.6550312037001
 31
0.0
  0
LINE
  5
   925
  8
0
  6
CONTINUOUS
 62
     3
 10
67.19399858568
 20
43.6550312037001
 30
0.0
 11
65.4439986154823
 21
43.6550312037001
 31
0.0
  0
LINE
  5
   926
  8
0
  6
CONTINUOUS
 62
     3
 10
66.9314985901503
 20
41.3800312424433
 30
0.0
 11
66.9314985901503
 21
42.4300312245619
 31
0.0
  0
LINE
  5
   927
  8
0
  6
CONTINUOUS
 62
     3
 10
65.7064986110119
 20
41.3800312424433
 30
0.0
 11
65.7064986110119
 21
42.4300312245619
 31
0.0
  0
LINE
  5
   928
  8
0
  6
CONTINUOUS
 62
     3
 10
65.7064986110119
 20
42.4300312245617
 30
0.0
 11
65.4439986154823
 21
42.4300312245617
 31
0.0
  0
LINE
  5
   929
  8
0
  6
CONTINUOUS
 62
     3
 10
67.19399858568
 20
42.4300312245617
 30
0.0
 11
66.9314985901503
 21
42.4300312245617
 31
0.0
  0
LINE
  5
   92A
  8
0
  6
CONTINUOUS
 62
     7
 10
64.4814986318718
 20
49.7800376579935
 30
0.0
 11
56.3439987704526
 21
49.7800376579935
 31
0.0
  0
LINE
  5
   92B
  8
0
  6
CONTINUOUS
 62
     7
 10
58.9689987257491
 20
49.7800376579935
 30
0.0
 11
58.9689987257491
 21
49.9550376550133
 31
0.0
  0
LINE
  5
   92C
  8
0
  6
DASHDOT
 62
     7
 10
60.1939987519752
 20
42.2550378038052
 30
0.0
 11
60.1939987519752
 21
53.1050347300199
 31
0.0
  0
LINE
  5
   92D
  8
0
  6
DASHDOT
 62
     7
 10
65.6189972150826
 20
47.6800362669126
 30
0.0
 11
54.7690002888679
 21
47.6800362669126
 31
0.0
  0
LINE
  5
   92E
  8
0
  6
DASHDOT
 62
     7
 10
60.1939982660797
 20
38.7900364176365
 30
0.0
 11
60.1939982660797
 21
46.7700377191058
 31
0.0
  0
LINE
  5
   92F
  8
0
  6
DASHDOT
 62
     7
 10
64.1839989168143
 20
42.7800370683711
 30
0.0
 11
56.203997615345
 21
42.7800370683711
 31
0.0
  0
LINE
  5
   930
  8
0
  6
CONTINUOUS
 62
     7
 10
60.7189825732998
 20
100.092535761002
 30
0.0
 11
60.7189821075515
 21
101.8425357312
 31
0.0
  0
LINE
  5
   931
  8
0
  6
CONTINUOUS
 62
     7
 10
61.5939825583986
 20
100.092542141753
 30
0.0
 11
60.7189825732998
 21
100.092542141753
 31
0.0
  0
LINE
  5
   932
  8
0
  6
CONTINUOUS
 62
     7
 10
61.5939825583986
 20
100.092535993876
 30
0.0
 11
61.5939820926503
 21
101.842535964074
 31
0.0
  0
LINE
  5
   933
  8
0
  6
CONTINUOUS
 62
     7
 10
61.5939820926504
 20
101.842542111951
 30
0.0
 11
60.7189821075516
 21
101.842542111951
 31
0.0
  0
LINE
  5
   934
  8
0
  6
CONTINUOUS
 62
     7
 10
60.7189912827918
 20
67.3675363183067
 30
0.0
 11
60.718990444445
 21
70.5175362646624
 31
0.0
  0
LINE
  5
   935
  8
0
  6
CONTINUOUS
 62
     7
 10
61.5939912678906
 20
67.3675426990576
 30
0.0
 11
60.7189912827918
 21
67.3675426990576
 31
0.0
  0
LINE
  5
   936
  8
0
  6
CONTINUOUS
 62
     7
 10
61.5939881525664
 20
67.3675362932897
 30
0.0
 11
61.5939819736438
 21
70.517536239644
 31
0.0
  0
LINE
  5
   937
  8
0
  6
CONTINUOUS
 62
     7
 10
61.5939850889677
 20
70.5175426454133
 30
0.0
 11
60.718990444445
 21
70.5175426454133
 31
0.0
  0
LINE
  5
   938
  8
0
  6
CONTINUOUS
 62
     7
 10
60.7189910964939
 20
68.0675373465605
 30
0.0
 11
54.2439912067628
 21
68.0675373465605
 31
0.0
  0
LINE
  5
   939
  8
0
  6
CONTINUOUS
 62
     2
 10
54.068991209743
 20
68.0675291959664
 30
0.0
 11
54.06898142903
 21
104.817528570116
 31
0.0
  0
LINE
  5
   93A
  8
0
  6
CONTINUOUS
 62
     2
 10
54.06898142903
 20
104.817528570116
 30
0.0
 11
54.0689768879829
 21
121.880035146109
 31
0.0
  0
LINE
  5
   93B
  8
0
  6
CONTINUOUS
 62
     7
 10
61.2439912738511
 20
67.3675364580312
 30
0.0
 11
61.2439904355042
 21
70.5175364043869
 31
0.0
  0
LINE
  5
   93C
  8
0
  6
CONTINUOUS
 62
     7
 10
61.2439825643591
 20
100.092535900727
 30
0.0
 11
61.2439820986108
 21
101.842535870924
 31
0.0
  0
LINE
  5
   93D
  8
0
  6
CONTINUOUS
 62
     7
 10
60.5264900316555
 20
68.0675362551532
 30
0.0
 11
60.526480250944
 21
104.817530288727
 31
0.0
  0
LINE
  5
   93E
  8
0
  6
CONTINUOUS
 62
     7
 10
59.2664909209569
 20
68.0675359198147
 30
0.0
 11
59.2664811402454
 21
104.817529953389
 31
0.0
  0
LINE
  5
   93F
  8
0
  6
CONTINUOUS
 62
     7
 10
58.0064908089002
 20
68.0675355844759
 30
0.0
 11
58.0064810281887
 21
104.81752961805
 31
0.0
  0
LINE
  5
   940
  8
0
  6
CONTINUOUS
 62
     7
 10
56.7464958511232
 20
49.9550376550133
 30
0.0
 11
56.746481249918
 21
104.817529282711
 31
0.0
  0
LINE
  5
   941
  8
0
  6
CONTINUOUS
 62
     7
 10
63.0464889206249
 20
68.0675369258304
 30
0.0
 11
63.0464791399134
 21
104.817530959404
 31
0.0
  0
LINE
  5
   942
  8
0
  6
CONTINUOUS
 62
     7
 10
61.7864868058522
 20
68.0675365904911
 30
0.0
 11
61.7864770251407
 21
104.817530624065
 31
0.0
  0
LINE
  5
   943
  8
0
  6
CONTINUOUS
 62
     7
 10
55.6614909155926
 20
68.0675349603733
 30
0.0
 11
55.661481134881
 21
104.817528993947
 31
0.0
  0
LINE
  5
   944
  8
0
  6
CONTINUOUS
 62
     7
 10
54.8564908625445
 20
68.0675347461291
 30
0.0
 11
54.8564810818329
 21
104.817528779703
 31
0.0
  0
LINE
  5
   945
  8
0
  6
CONTINUOUS
 62
     7
 10
65.5664926300885
 20
49.9550376550133
 30
0.0
 11
65.5664904177876
 21
58.2675254971547
 31
0.0
  0
LINE
  5
   946
  8
0
  6
CONTINUOUS
 62
     7
 10
64.3064905153158
 20
49.9550376550133
 30
0.0
 11
64.3064883030149
 21
58.2675254971547
 31
0.0
  0
LINE
  5
   947
  8
0
  6
CONTINUOUS
 62
     7
 10
58.0064956759688
 20
49.7800376579935
 30
0.0
 11
58.0064908089001
 21
68.0675358974003
 31
0.0
  0
LINE
  5
   948
  8
0
  6
CONTINUOUS
 62
     7
 10
60.5264948521495
 20
49.9550376550133
 30
0.0
 11
60.5264900316555
 21
68.0675365680776
 31
0.0
  0
LINE
  5
   949
  8
0
  6
CONTINUOUS
 62
     7
 10
59.2664957414507
 20
49.9550376550133
 30
0.0
 11
59.2664909209568
 21
68.0675362327391
 31
0.0
  0
LINE
  5
   94A
  8
0
  6
CONTINUOUS
 62
     7
 10
63.046493741119
 20
49.9550376550133
 30
0.0
 11
63.0464889206248
 21
68.0675372387547
 31
0.0
  0
LINE
  5
   94B
  8
0
  6
CONTINUOUS
 62
     7
 10
61.7864916263462
 20
49.9550376550133
 30
0.0
 11
61.7864868058521
 21
68.0675369034154
 31
0.0
  0
LINE
  5
   94C
  8
0
  6
CONTINUOUS
 62
     7
 10
55.6614957360862
 20
49.9550376550133
 30
0.0
 11
55.6614909155925
 21
68.0675352732977
 31
0.0
  0
LINE
  5
   94D
  8
0
  6
CONTINUOUS
 62
     7
 10
54.856495349252
 20
49.9550376550133
 30
0.0
 11
54.8564905287584
 21
68.067535030668
 31
0.0
  0
LINE
  5
   94E
  8
0
  6
CONTINUOUS
 62
     7
 10
55.661481134881
 20
104.817528993947
 30
0.0
 11
55.6614766404106
 21
121.705028706354
 31
0.0
  0
LINE
  5
   94F
  8
0
  6
CONTINUOUS
 62
     7
 10
54.8564810818329
 20
104.817528779703
 30
0.0
 11
54.8564765873625
 21
121.70502849211
 31
0.0
  0
LINE
  5
   950
  8
0
  6
CONTINUOUS
 62
     7
 10
65.5664754206948
 20
114.617523202376
 30
0.0
 11
65.5664735344122
 21
121.705031342488
 31
0.0
  0
LINE
  5
   951
  8
0
  6
CONTINUOUS
 62
     7
 10
64.306473305922
 20
114.617523202376
 30
0.0
 11
64.3064714196395
 21
121.705031007149
 31
0.0
  0
LINE
  5
   952
  8
0
  6
CONTINUOUS
 62
     7
 10
63.0464791399134
 20
104.817530959404
 30
0.0
 11
63.0464746454429
 21
121.705030671811
 31
0.0
  0
LINE
  5
   953
  8
0
  6
CONTINUOUS
 62
     7
 10
61.7864770251407
 20
104.817530624065
 30
0.0
 11
61.7864725306702
 21
121.705030336472
 31
0.0
  0
LINE
  5
   954
  8
0
  6
CONTINUOUS
 62
     7
 10
60.526480250944
 20
104.817530288727
 30
0.0
 11
60.5264757564735
 21
121.705030001134
 31
0.0
  0
LINE
  5
   955
  8
0
  6
CONTINUOUS
 62
     7
 10
59.2664811402454
 20
104.817529953389
 30
0.0
 11
59.2664766457749
 21
121.705029665796
 31
0.0
  0
LINE
  5
   956
  8
0
  6
CONTINUOUS
 62
     7
 10
58.0064810281887
 20
104.81752961805
 30
0.0
 11
58.0064765337182
 21
121.705029330457
 31
0.0
  0
LINE
  5
   957
  8
0
  6
CONTINUOUS
 62
     7
 10
56.746481249918
 20
104.817529282711
 30
0.0
 11
56.7464767554475
 21
121.705028995118
 31
0.0
  0
ARC
  5
   958
  8
0
  6
CONTINUOUS
 62
     7
 10
54.2439814726246
 20
104.642528619671
 30
0.0
 40
0.174999997019768
 50
90.0000151968393
 51
180.000015196839
  0
ARC
  5
   959
  8
0
  6
CONTINUOUS
 62
     2
 10
102.893975303542
 20
104.642541567471
 30
0.0
 40
0.174999997019768
 50
360.000015196839
 51
450.000015196839
  0
ARC
  5
   95A
  8
0
  6
CONTINUOUS
 62
     7
 10
54.2439911601879
 20
68.242529239561
 30
0.0
 40
0.174999997019768
 50
180.000015196839
 51
270.000015196839
  0
LINE
  5
   95B
  8
0
  6
CONTINUOUS
 62
     7
 10
64.2189671711974
 20
104.817528616691
 30
0.0
 11
54.2439814726246
 21
104.817528616691
 31
0.0
  0
LINE
  5
   95C
  8
0
  6
CONTINUOUS
 62
     7
 10
64.2189671711974
 20
68.0675373465592
 30
0.0
 11
61.5939867794704
 21
68.0675373465592
 31
0.0
  0
LINE
  5
   95D
  8
0
  6
CONTINUOUS
 62
     7
 10
64.2189671711974
 20
62.3800374434168
 30
0.0
 11
54.0689988091956
 21
62.3800374434168
 31
0.0
  0
LINE
  5
   95E
  8
0
  6
DASHDOT
 62
     2
 10
115.341341806404
 20
86.4425370336348
 30
0.0
 11
41.3892342337885
 21
86.4425370336348
 31
0.0
  0
INSERT
  5
   95F
  8
255
  6
CONTINUOUS
 62
     7
  2
$1COPRITERM_PIAN
 10
84.693998445778
 20
49.7800389397192
 30
0.0
 41
0.349999994039536
 42
-0.349999994039536
 50
1.03931199646468E-7
 43
0.349999994039536
  0
LINE
  5
   960
  8
0
  6
CONTINUOUS
 62
     7
 10
65.7064986110119
 20
41.3800312424433
 30
0.0
 11
65.0145495776245
 21
41.3800312424433
 31
0.0
  0
LINE
  5
   961
  8
0
  6
CONTINUOUS
 62
     7
 10
67.7458857055011
 20
41.3800312424433
 30
0.0
 11
66.9314985901503
 21
41.3800312424433
 31
0.0
  0
LINE
  5
   962
  8
0
  6
CONTINUOUS
 62
     1
 10
65.7192145054027
 20
46.1050377205784
 30
0.0
 11
65.4439986154805
 21
46.1050377205784
 31
0.0
  0
LINE
  5
   963
  8
0
  6
CONTINUOUS
 62
     7
 10
56.3439983316448
 20
33.3300040102361
 30
0.0
 11
56.3439983316448
 21
41.3800312424434
 31
0.0
  0
LINE
  5
   964
  8
0
  6
CONTINUOUS
 62
     7
 10
64.0439982005146
 20
33.3300040102361
 30
0.0
 11
64.0439982005146
 21
41.3800312424434
 31
0.0
  0
LINE
  5
   965
  8
0
  6
CONTINUOUS
 62
     7
 10
64.0439982005146
 20
33.3300040102361
 30
0.0
 11
56.3439983316448
 21
33.3300040102361
 31
0.0
  0
ARC
  5
   966
  8
0
  6
CONTINUOUS
 62
     7
 10
60.1939982660797
 20
39.9800038969873
 30
0.0
 40
2.79999995231628
 50
149.999353253709
 51
390.00064664236
  0
LINE
  5
   967
  8
0
  6
DASHDOT
 62
     7
 10
60.1939982660797
 20
36.8300039506315
 30
0.0
 11
60.1939982660797
 21
43.1300038433431
 31
0.0
  0
LINE
  5
   968
  8
0
  6
DASHDOT
 62
     7
 10
63.3439982124355
 20
39.9800038969873
 30
0.0
 11
57.0439983197238
 21
39.9800038969873
 31
0.0
  0
LINE
  5
   969
  8
0
  6
DOT
 62
     7
 10
57.3939983137634
 20
33.3300040102361
 30
0.0
 11
57.3939983137634
 21
39.9800038969873
 31
0.0
  0
LINE
  5
   96A
  8
0
  6
DOT
 62
     7
 10
62.9939982183959
 20
33.3300040102361
 30
0.0
 11
62.9939982183959
 21
39.9800038969873
 31
0.0
  0
LINE
  5
   96B
  8
0
  6
DOT
 62
     7
 10
57.8314983063128
 20
33.3300040102361
 30
0.0
 11
57.8314983063128
 21
38.4771420693156
 31
0.0
  0
LINE
  5
   96C
  8
0
  6
DOT
 62
     7
 10
62.5564982258465
 20
33.3300040102361
 30
0.0
 11
62.5564982258465
 21
38.4771420693156
 31
0.0
  0
INSERT
  5
   96D
  8
255
  6
CONTINUOUS
 62
     7
  2
$1MOSTRINA
 10
44.5005776144214
 20
47.9493068694672
 30
0.0
 41
0.349999994039536
 42
0.349999994039536
 50
3.50835464724173E-15
 43
0.349999994039536
  0
INSERT
  5
   96E
  8
255
  6
CONTINUOUS
 62
     7
  2
S4LL-FT
 10
44.5005746502727
 20
61.2470650532798
 30
0.0
 41
0.349999994039536
 42
0.349999994039536
 50
3.50835464724173E-15
 43
0.349999994039536
  0
TEXT
  5
   96F
  8
0
  6
CONTINUOUS
 62
     7
 10
76.3659189203489
 20
2.56595345964319
 30
0.0
 40
2.99999997871263
  1
=    =
 50
359.999999948034
 41
0.916666703091727
 72
     1
 11
84.340919186978
 21
4.06595344180649
 31
0.0
 73
     2
  0
TEXT
  5
   970
  8
0
  6
CONTINUOUS
 62
     7
 10
76.0860273388118
 20
13.2527265778194
 30
0.0
 40
2.99999997871263
  1
=    =
 50
359.999999948034
 41
0.916666703091727
 72
     1
 11
84.0610276054408
 21
14.7527265599827
 31
0.0
 73
     2
  0
TEXT
  5
   971
  8
0
  6
CONTINUOUS
 62
     7
 10
126.293097064467
 20
78.0023268033414
 30
0.0
 40
2.99999997871263
  1
=    =
 50
89.9999999480344
 41
0.916666703091727
 72
     1
 11
124.793097082334
 21
85.9773270699761
 31
0.0
 73
     2
  0
INSERT
  5
   972
  8
0
  6
CONTINUOUS
 62
     7
  2
*UDIM442
 10
0.0
 20
0.0
 30
0.0
  0
INSERT
  5
   973
  8
0
  6
CONTINUOUS
 62
     7
  2
*UDIM443
 10
0.0
 20
0.0
 30
0.0
  0
INSERT
  5
   974
  8
0
  6
CONTINUOUS
 62
     7
  2
*UDIM444
 10
0.0
 20
0.0
 30
0.0
  0
INSERT
  5
   975
  8
0
  6
CONTINUOUS
 62
     7
  2
*UDIM445
 10
0.0
 20
0.0
 30
0.0
  0
INSERT
  5
   976
  8
0
  6
CONTINUOUS
 62
     7
  2
*UDIM446
 10
0.0
 20
0.0
 30
0.0
  0
INSERT
  5
   977
  8
0
  6
CONTINUOUS
 62
     7
  2
*UDIM447
 10
0.0
 20
0.0
 30
0.0
  0
INSERT
  5
   978
  8
0
  6
CONTINUOUS
 62
     7
  2
*UDIM448
 10
0.0
 20
0.0
 30
0.0
  0
INSERT
  5
   979
  8
0
  6
CONTINUOUS
 62
     7
  2
*UDIM449
 10
0.0
 20
0.0
 30
0.0
  0
INSERT
  5
   97A
  8
0
  6
CONTINUOUS
 62
     7
  2
*UDIM450
 10
0.0
 20
0.0
 30
0.0
  0
INSERT
  5
   97B
  8
0
  6
CONTINUOUS
 62
     7
  2
*UDIM451
 10
0.0
 20
0.0
 30
0.0
  0
INSERT
  5
   97C
  8
0
  6
CONTINUOUS
 62
     7
  2
*UDIM452
 10
0.0
 20
0.0
 30
0.0
  0
TEXT
  5
   97D
  8
0
  6
CONTINUOUS
 62
     7
 10
83.3122461724964
 20
-3.24605084340072
 30
0.0
 40
2.99999997871263
  1
Y
 50
359.999999948034
 41
0.91666663951344
 72
     2
 11
85.5122461082085
 21
-3.246050845385
 31
0.0
  0
TEXT
  5
   97E
  8
0
  6
CONTINUOUS
 62
     7
 10
31.1460517755539
 20
84.9478154846953
 30
0.0
 40
2.99999997871263
  1
X
 50
359.999999948034
 41
0.91666663951344
 72
     2
 11
33.3460517112661
 21
84.947815482711
 31
0.0
  0
TEXT
  5
   97F
  8
0
  6
CONTINUOUS
 62
     7
 10
134.591468833892
 20
84.2211376278164
 30
0.0
 40
2.99999997871263
  1
X
 50
359.999999948034
 41
0.91666663951344
 72
     1
 11
135.691468803101
 21
85.7211376161806
 31
0.0
 73
     2
  0
TEXT
  5
   980
  8
0
  6
CONTINUOUS
 62
     7
 10
83.353474558765
 20
186.669766406808
 30
0.0
 40
2.99999997871263
  1
Y
 50
359.999999948034
 41
0.91666663951344
 72
     1
 11
84.453474527974
 21
188.169766395172
 31
0.0
 73
     2
  0
ENDSEC
  0
EOF
