  0
SECTION
  2
HEADER
  9
$ACADVER
  1
AC1009
  9
$INSBASE
 10
0.0
 20
0.0
 30
0.0
  9
$EXTMIN
 10
0.0
 20
0.0
 30
0.0
  9
$EXTMAX
 10
392.0
 20
262.5
 30
0.0
  9
$LIMMIN
 10
0.0
 20
0.0
  9
$LIMMAX
 10
420.0
 20
297.0
  9
$ORTHOMODE
 70
     1
  9
$REGENMODE
 70
     1
  9
$FILLMODE
 70
     1
  9
$QTEXTMODE
 70
     0
  9
$MIRRTEXT
 70
     1
  9
$DRAGMODE
 70
     2
  9
$LTSCALE
 40
4.0
  9
$OSMODE
 70
    37
  9
$ATTMODE
 70
     1
  9
$TEXTSIZE
 40
3.5
  9
$TRACEWID
 40
1.0
  9
$TEXTSTYLE
  7
T25
  9
$CLAYER
  8
KATKO07
  9
$CELTYPE
  6
BYLAYER
  9
$CECOLOR
 62
   256
  9
$DIMSCALE
 40
1.0
  9
$DIMASZ
 40
2.5
  9
$DIMEXO
 40
0.625
  9
$DIMDLI
 40
3.75
  9
$DIMRND
 40
0.0
  9
$DIMDLE
 40
0.0
  9
$DIMEXE
 40
1.25
  9
$DIMTP
 40
0.0
  9
$DIMTM
 40
0.0
  9
$DIMTXT
 40
2.5
  9
$DIMCEN
 40
2.5
  9
$DIMTSZ
 40
0.0
  9
$DIMTOL
 70
     0
  9
$DIMLIM
 70
     0
  9
$DIMTIH
 70
     0
  9
$DIMTOH
 70
     0
  9
$DIMSE1
 70
     0
  9
$DIMSE2
 70
     0
  9
$DIMTAD
 70
     1
  9
$DIMZIN
 70
     8
  9
$DIMBLK
  1

  9
$DIMASO
 70
     1
  9
$DIMSHO
 70
     1
  9
$DIMPOST
  1

  9
$DIMAPOST
  1

  9
$DIMALT
 70
     0
  9
$DIMALTD
 70
     3
  9
$DIMALTF
 40
0.03937007874016
  9
$DIMLFAC
 40
1.0
  9
$DIMTOFL
 70
     1
  9
$DIMTVP
 40
0.0
  9
$DIMTIX
 70
     0
  9
$DIMSOXD
 70
     0
  9
$DIMSAH
 70
     0
  9
$DIMBLK1
  1

  9
$DIMBLK2
  1

  9
$DIMSTYLE
  2
ISO-25
  9
$DIMCLRD
 70
     0
  9
$DIMCLRE
 70
     0
  9
$DIMCLRT
 70
     0
  9
$DIMTFAC
 40
1.0
  9
$DIMGAP
 40
0.625
  9
$LUNITS
 70
     2
  9
$LUPREC
 70
     4
  9
$SKETCHINC
 40
1.0
  9
$FILLETRAD
 40
0.5
  9
$AUNITS
 70
     0
  9
$AUPREC
 70
     0
  9
$MENU
  1
.
  9
$ELEVATION
 40
0.0
  9
$PELEVATION
 40
0.0
  9
$THICKNESS
 40
0.0
  9
$LIMCHECK
 70
     0
  9
$BLIPMODE
 70
     0
  9
$CHAMFERA
 40
10.0
  9
$CHAMFERB
 40
10.0
  9
$SKPOLY
 70
     0
  9
$TDCREATE
 40
2451507.4892950342
  9
$TDUPDATE
 40
2452438.6537049999
  9
$TDINDWG
 40
3.2726205092999998
  9
$TDUSRTIMER
 40
3.2726203935
  9
$USRTIMER
 70
     1
  9
$ANGBASE
 50
0.0
  9
$ANGDIR
 70
     0
  9
$PDMODE
 70
     0
  9
$PDSIZE
 40
0.0
  9
$PLINEWID
 40
0.0
  9
$COORDS
 70
     1
  9
$SPLFRAME
 70
     0
  9
$SPLINETYPE
 70
     6
  9
$SPLINESEGS
 70
     8
  9
$ATTDIA
 70
     0
  9
$ATTREQ
 70
     1
  9
$HANDLING
 70
     1
  9
$HANDSEED
  5
D01
  9
$SURFTAB1
 70
     6
  9
$SURFTAB2
 70
     6
  9
$SURFTYPE
 70
     6
  9
$SURFU
 70
     6
  9
$SURFV
 70
     6
  9
$UCSNAME
  2

  9
$UCSORG
 10
0.0
 20
0.0
 30
0.0
  9
$UCSXDIR
 10
1.0
 20
0.0
 30
0.0
  9
$UCSYDIR
 10
0.0
 20
1.0
 30
0.0
  9
$PUCSNAME
  2

  9
$PUCSORG
 10
0.0
 20
0.0
 30
0.0
  9
$PUCSXDIR
 10
1.0
 20
0.0
 30
0.0
  9
$PUCSYDIR
 10
0.0
 20
1.0
 30
0.0
  9
$USERI1
 70
     0
  9
$USERI2
 70
     0
  9
$USERI3
 70
     0
  9
$USERI4
 70
     0
  9
$USERI5
 70
     0
  9
$USERR1
 40
0.0
  9
$USERR2
 40
0.0
  9
$USERR3
 40
0.0
  9
$USERR4
 40
0.0
  9
$USERR5
 40
0.0
  9
$WORLDVIEW
 70
     1
  9
$SHADEDGE
 70
     3
  9
$SHADEDIF
 70
    70
  9
$TILEMODE
 70
     1
  9
$MAXACTVP
 70
    64
  9
$PLIMCHECK
 70
     0
  9
$PEXTMIN
 10
1.0000000000000000E+020
 20
1.0000000000000000E+020
 30
1.0000000000000000E+020
  9
$PEXTMAX
 10
-1.0000000000000000E+020
 20
-1.0000000000000000E+020
 30
-1.0000000000000000E+020
  9
$PLIMMIN
 10
0.0
 20
0.0
  9
$PLIMMAX
 10
420.0
 20
297.0
  9
$UNITMODE
 70
     0
  9
$VISRETAIN
 70
     1
  9
$PLINEGEN
 70
     0
  9
$PSLTSCALE
 70
     1
  0
ENDSEC
  0
SECTION
  2
TABLES
  0
TABLE
  2
VPORT
 70
     2
  0
VPORT
  2
*ACTIVE
 70
     0
 10
0.0
 20
0.0
 11
1.0
 21
1.0
 12
217.82848219319359
 22
148.49773538370181
 13
0.0
 23
0.0
 14
0.25
 24
0.25
 15
10.0
 25
10.0
 16
0.0
 26
0.0
 36
1.0
 17
0.0
 27
0.0
 37
0.0
 40
299.71277721951981
 41
1.6504347826086949
 42
50.0
 43
0.0
 44
0.0
 50
0.0
 51
0.0
 71
     0
 72
   100
 73
     1
 74
     3
 75
     1
 76
     0
 77
     0
 78
     0
  0
ENDTAB
  0
TABLE
  2
LTYPE
 70
    19
  0
LTYPE
  2
CONTINUOUS
 70
     0
  3
Solid line
 72
    65
 73
     0
 40
0.0
  0
LTYPE
  2
DASHED
 70
     0
  3
__ __ __ __ __ __ __ __ __ __ __ __ __ __ __ __
 72
    65
 73
     2
 40
0.75
 49
0.5
 49
-0.25
  0
LTYPE
  2
CENTER
 70
     0
  3
____ _ ____ _ ____ _ ____ _ ____ _ ____ _ ____ 
 72
    65
 73
     4
 40
2.0
 49
1.25
 49
-0.25
 49
0.25
 49
-0.25
  0
LTYPE
  2
DASHDOT
 70
     0
  3
__ . __ . __ . __ . __ . __ . __ . __ . __ . __
 72
    65
 73
     4
 40
1.0
 49
0.5
 49
-0.25
 49
0.0
 49
-0.25
  0
LTYPE
  2
DOT
 70
     0
  3
. . . . . . . . . . . . . . . . . . . . . . . .
 72
    65
 73
     2
 40
0.25
 49
0.0
 49
-0.25
  0
LTYPE
  2
HIDDEN
 70
     0
  3
__ __ __ __ __ __ __ __ __ __ __ __ __ __ __ __
 72
    65
 73
     2
 40
0.375
 49
0.25
 49
-0.125
  0
LTYPE
  2
PHANTOM2
 70
     0
  3
___ _ _ ___ _ _ ___ _ _ ___ _ _ ___ _ _ ___ _ _
 72
    65
 73
     6
 40
1.25
 49
0.625
 49
-0.125
 49
0.125
 49
-0.125
 49
0.125
 49
-0.125
  0
LTYPE
  2
ASULTYPE
 70
     0
  3
Solid line
 72
    65
 73
     2
 40
3.0
 49
2.5
 49
0.5
  0
LTYPE
  2
ASVLTYPE
 70
     0
  3
__ __ __ __ __ __ __ __ __ __ __ __ __ __ __ __ __ __ __ __ __
 72
    65
 73
     2
 40
0.75
 49
0.5
 49
-0.25
  0
LTYPE
  2
GEN3
 70
     0
  3
-- -- -- -- -- -- -- -- -- -- -- -- -- -- --
 72
    65
 73
     2
 40
6.25
 49
4.75
 49
-1.5
  0
LTYPE
  2
GEN7
 70
     0
  3
____ . ____ . ____ . ____ . ____ . ____ . ____
 72
    65
 73
     4
 40
13.75
 49
9.75
 49
-1.5
 49
1.0
 49
-1.5
  0
LTYPE
  2
GEN3A
 70
     0
  3
 - - - - -
 72
    65
 73
     2
 40
3.125
 49
2.25
 49
-0.875
  0
LTYPE
  2
GEN7A
 70
     0
  3
__ . __ . __
 72
    65
 73
     4
 40
6.875
 49
4.75
 49
-0.875
 49
0.375
 49
-0.875
  0
LTYPE
  2
GEN4A
 70
     0
  3
_____ . . _____ . . _____ . . ____ .. ____
 72
    65
 73
     6
 40
16.25
 49
9.75
 49
-1.5
 49
1.0
 49
-1.5
 49
1.0
 49
-1.5
  0
LTYPE
  2
GENZIGZAG
 70
     0
  3
/\/-/\/-/\/-/\/-/\/-/\/
 72
    65
 73
     2
 40
12.0001
 49
0.0001
 49
-12.0
  0
LTYPE
  2
AM_ISO02W050
 70
     0
  3
__ __ __ __ __ __ __ __ __ __ __ __ __ __ __
 72
    65
 73
     2
 40
7.5
 49
6.0
 49
-1.5
  0
LTYPE
  2
ACISOWELD
 70
     0
  3
_ _ _ _ _
 72
    65
 73
     2
 40
2.0
 49
2.0
 49
-1.0
  0
LTYPE
  2
ACISOTGB
 70
     0
  3
__ . . __ . .
 72
    65
 73
     6
 40
9.0
 49
4.0
 49
-1.0
 49
1.0
 49
-1.0
 49
1.0
 49
-1.0
  0
LTYPE
  2
ACISOTGL
 70
     0
  3
_ _ _ _ _
 72
    65
 73
     2
 40
3.0
 49
2.0
 49
-1.0
  0
ENDTAB
  0
TABLE
  2
LAYER
 70
    27
  0
LAYER
  2
0
 70
     0
 62
     7
  6
CONTINUOUS
  0
LAYER
  2
PAKSU
 70
     0
 62
     3
  6
CONTINUOUS
  0
LAYER
  2
RAAMI
 70
     0
 62
     4
  6
CONTINUOUS
  0
LAYER
  2
OHUT
 70
     0
 62
     6
  6
CONTINUOUS
  0
LAYER
  2
KESKI
 70
     0
 62
     2
  6
CONTINUOUS
  0
LAYER
  2
KATKO
 70
     0
 62
    13
  6
CENTER
  0
LAYER
  2
KATKO07
 70
     0
 62
     1
  6
DASHED
  0
LAYER
  2
PISTKATK
 70
     0
 62
     7
  6
DASHDOT
  0
LAYER
  2
MITTA
 70
     4
 62
     1
  6
CONTINUOUS
  0
LAYER
  2
APU
 70
     0
 62
     1
  6
DOT
  0
LAYER
  2
TEXT25
 70
     0
 62
     1
  6
CONTINUOUS
  0
LAYER
  2
TEXT35
 70
     0
 62
     5
  6
CONTINUOUS
  0
LAYER
  2
TEXT5
 70
     0
 62
    14
  6
CONTINUOUS
  0
LAYER
  2
TEXT7
 70
     0
 62
     3
  6
CONTINUOUS
  0
LAYER
  2
TEXT
 70
     0
 62
     1
  6
CONTINUOUS
  0
LAYER
  2
AM_TR
 70
     0
 62
     7
  6
CONTINUOUS
  0
LAYER
  2
AM_BM
 70
     0
 62
     7
  6
CONTINUOUS
  0
LAYER
  2
AM_BL
 70
     0
 62
     7
  6
CONTINUOUS
  0
LAYER
  2
AM_VIEWS
 70
     0
 62
    -7
  6
CONTINUOUS
  0
LAYER
  2
AM_PARDIM
 70
     0
 62
     3
  6
CONTINUOUS
  0
LAYER
  2
AM_REFDIM
 70
     0
 62
     4
  6
CONTINUOUS
  0
LAYER
  2
AM_VIS
 70
     0
 62
     7
  6
CONTINUOUS
  0
LAYER
  2
AM_HID
 70
     0
 62
     6
  6
GEN3
  0
LAYER
  2
1
 70
     0
 62
     3
  6
CONTINUOUS
  0
LAYER
  2
2
 70
     0
 62
     5
  6
CONTINUOUS
  0
LAYER
  2
3
 70
     0
 62
     6
  6
GEN3
  0
LAYER
  2
4A
 70
     0
 62
     3
  6
GEN4A
  0
ENDTAB
  0
TABLE
  2
STYLE
 70
    11
  0
STYLE
  2
STANDARD
 70
     0
 40
0.0
 41
1.0
 50
0.0
 71
     0
 42
2.0
  3
txt
  4

  0
STYLE
  2
ROMANS
 70
     0
 40
0.0
 41
1.0
 50
0.0
 71
     0
 42
2.5
  3
romans
  4

  0
STYLE
  2
T7
 70
     0
 40
7.0
 41
0.9
 50
0.0
 71
     0
 42
0.2
  3
ROMANS
  4

  0
STYLE
  2
T5
 70
     0
 40
5.0
 41
0.9
 50
0.0
 71
     0
 42
0.2
  3
ROMANS
  4

  0
STYLE
  2
T35
 70
     0
 40
3.5
 41
0.9
 50
0.0
 71
     0
 42
0.2
  3
ROMANS
  4

  0
STYLE
  2
T25
 70
     0
 40
3.5
 41
1.0
 50
0.0
 71
     0
 42
3.5
  3
norm.shx
  4

  0
STYLE
  2

 70
     1
 40
0.0
 41
1.0
 50
0.0
 71
     0
 42
3.0
  3
genltshp.shx
  4

  0
STYLE
  2
ACISOTS
 70
     0
 40
1.0
 41
1.0
 50
0.0
 71
     0
 42
3.0
  3
isocp.shx
  4

  0
STYLE
  2
ACISOGDT
 70
     0
 40
0.0
 41
1.0
 50
0.0
 71
     0
 42
3.0
  3
amgdt.shx
  4

  0
STYLE
  2

 70
     1
 40
0.0
 41
1.0
 50
0.0
 71
     0
 42
2.5
  3
ltypeshp.shx
  4

  0
STYLE
  2
T225
 70
     0
 40
2.25
 41
0.9
 50
0.0
 71
     0
 42
2.25
  3
norm.shx
  4

  0
ENDTAB
  0
TABLE
  2
VIEW
 70
     0
  0
ENDTAB
  0
TABLE
  2
UCS
 70
     0
  0
ENDTAB
  0
TABLE
  2
APPID
 70
    21
  0
APPID
  2
ACAD
 70
     0
  0
APPID
  2
GENIUS_GENCFG_13
 70
     0
  0
APPID
  2
GENIUS_GEVCFG0_13
 70
     0
  0
APPID
  2
GENIUS_GENCFG0_13
 70
     0
  0
APPID
  2
GENIUS_GENCFG1_13
 70
     0
  0
APPID
  2
GENIUS_GENCFG2_13
 70
     0
  0
APPID
  2
GENIUS_GENCFG3_13
 70
     0
  0
APPID
  2
GENIUS_GENCFG4_13
 70
     0
  0
APPID
  2
MCAD_NO_VIS
 70
     0
  0
APPID
  2
AD_DRAW
 70
     0
  0
APPID
  2
DESIGNERASSEMBLIES
 70
     0
  0
APPID
  2
ASURF_PCURVE_APPNAME
 70
     0
  0
APPID
  2
GENIUS_GE3CFG0_13
 70
     0
  0
APPID
  2
GENIUS_GENCFG5_13
 70
     0
  0
APPID
  2
GENIUS_GENDIM_13
 70
     0
  0
APPID
  2
GENIUS_GENDTOL_13
 70
     0
  0
APPID
  2
GENIUS_GE3DTOL_13
 70
     0
  0
APPID
  2
ACAD_TEMP_GRAPHIC
 70
     0
  0
APPID
  2
ACATTRIBSERVICES
 70
     0
  0
APPID
  2
ACADM_DIM_EDIT
 70
     0
  0
APPID
  2
CONTENTBLOCKICON
 70
     0
  0
ENDTAB
  0
TABLE
  2
DIMSTYLE
 70
     9
  0
DIMSTYLE
  2
ISO-25
 70
     0
  3

  4

  5

  6

  7

 40
1.0
 41
2.5
 42
0.625
 43
3.75
 44
1.25
 45
0.0
 46
0.0
 47
0.0
 48
0.0
140
2.5
141
2.5
142
0.0
143
0.03937007874016
144
1.0
145
0.0
146
1.0
147
0.625
 71
     0
 72
     0
 73
     0
 74
     0
 75
     0
 76
     0
 77
     1
 78
     8
170
     0
171
     3
172
     1
173
     0
174
     0
175
     0
176
     0
177
     0
178
     0
  0
DIMSTYLE
  2
STANDARD
 70
     0
  3

  4

  5

  6

  7

 40
1.0
 41
0.18
 42
0.0625
 43
0.38
 44
0.18
 45
0.0
 46
0.0
 47
0.0
 48
0.0
140
0.18
141
0.09
142
0.0
143
25.399999999999999
144
1.0
145
0.0
146
1.0
147
0.09
 71
     0
 72
     0
 73
     1
 74
     1
 75
     0
 76
     0
 77
     0
 78
     0
170
     0
171
     2
172
     0
173
     0
174
     0
175
     0
176
     0
177
     0
178
     0
  0
DIMSTYLE
  2
GEN-ISO
 70
     0
  3
<>
  4

  5

  6

  7

 40
1.0
 41
2.5
 42
1.0
 43
0.0
 44
1.0
 45
0.0
 46
0.0
 47
0.1
 48
0.1
140
3.5
141
0.0
142
0.0
143
0.0393701
144
1.0
145
0.0
146
0.71
147
1.5
 71
     0
 72
     0
 73
     0
 74
     0
 75
     0
 76
     0
 77
     1
 78
     8
170
     0
171
     2
172
     1
173
     0
174
     0
175
     0
176
     0
177
     0
178
     0
  0
DIMSTYLE
  2
GEN-ISO$3
 70
     0
  3

  4

  5

  6

  7

 40
1.0
 41
2.5
 42
1.0
 43
0.0
 44
1.0
 45
0.0
 46
0.0
 47
0.1
 48
0.1
140
3.5
141
0.0
142
0.0
143
0.0393701
144
1.0
145
0.0
146
0.71
147
1.5
 71
     0
 72
     0
 73
     0
 74
     1
 75
     0
 76
     0
 77
     1
 78
     8
170
     0
171
     2
172
     0
173
     0
174
     0
175
     0
176
     0
177
     0
178
     0
  0
DIMSTYLE
  2
GEN-ISO$4
 70
     0
  3

  4

  5

  6

  7

 40
1.0
 41
2.5
 42
1.0
 43
0.0
 44
1.0
 45
0.0
 46
0.0
 47
0.1
 48
0.1
140
3.5
141
0.0
142
0.0
143
0.0393701
144
1.0
145
0.0
146
0.71
147
1.5
 71
     0
 72
     0
 73
     0
 74
     1
 75
     0
 76
     0
 77
     1
 78
     8
170
     0
171
     2
172
     0
173
     0
174
     0
175
     0
176
     0
177
     0
178
     0
  0
DIMSTYLE
  2
GEN-ISO$6
 70
     0
  3

  4

  5

  6

  7

 40
1.0
 41
2.5
 42
1.0
 43
0.0
 44
1.0
 45
0.0
 46
0.0
 47
0.1
 48
0.1
140
3.5
141
0.0
142
0.0
143
0.0393701
144
1.0
145
0.0
146
0.71
147
1.5
 71
     0
 72
     0
 73
     0
 74
     0
 75
     0
 76
     0
 77
     2
 78
     8
170
     0
171
     2
172
     0
173
     0
174
     0
175
     0
176
     0
177
     0
178
     0
  0
DIMSTYLE
  2
GEN-ISO-POS
 70
     0
  3

  4

  5

  6

  7

 40
1.0
 41
2.5
 42
1.0
 43
0.0
 44
1.0
 45
0.0
 46
0.0
 47
0.1
 48
0.1
140
5.0
141
0.0
142
0.0
143
0.0393701
144
1.0
145
0.0
146
0.71
147
1.5
 71
     0
 72
     0
 73
     0
 74
     0
 75
     0
 76
     0
 77
     2
 78
     8
170
     0
171
     2
172
     0
173
     0
174
     0
175
     0
176
     0
177
     0
178
     0
  0
DIMSTYLE
  2
GEN-ISO-AXE-F
 70
     0
  3

  4

  5

  6

  7

 40
1.0
 41
2.5
 42
1.0
 43
0.0
 44
1.0
 45
0.0
 46
0.0
 47
0.1
 48
0.1
140
3.5
141
0.0
142
0.0
143
0.0393701
144
1.0
145
0.0
146
0.71
147
1.5
 71
     0
 72
     0
 73
     0
 74
     0
 75
     1
 76
     1
 77
     1
 78
     8
170
     0
171
     2
172
     1
173
     0
174
     0
175
     0
176
     0
177
     0
178
     0
  0
DIMSTYLE
  2
GEN-ISO-AXE-H
 70
     0
  3

  4

  5

  6

  7

 40
1.0
 41
2.5
 42
1.0
 43
0.0
 44
1.0
 45
0.0
 46
0.0
 47
0.1
 48
0.1
140
3.5
141
0.0
142
0.0
143
0.0393701
144
2.0
145
0.0
146
0.71
147
1.5
 71
     0
 72
     0
 73
     0
 74
     0
 75
     1
 76
     1
 77
     1
 78
     8
170
     0
171
     2
172
     1
173
     1
174
     0
175
     0
176
     0
177
     0
178
     0
  0
ENDTAB
  0
ENDSEC
  0
SECTION
  2
BLOCKS
  0
BLOCK
  8
0
  2
$MODEL_SPACE
 70
     0
 10
0.0
 20
0.0
 30
0.0
  3
$MODEL_SPACE
  1

  0
ENDBLK
  5
21
  8
0
  0
BLOCK
 67
     1
  8
0
  2
$PAPER_SPACE
 70
     0
 10
0.0
 20
0.0
 30
0.0
  3
$PAPER_SPACE
  1

  0
ENDBLK
  5
1D
 67
     1
  8
0
  0
BLOCK
  8
0
  2
LOGO
 70
     0
 10
0.0
 20
0.0
 30
0.0
  3
LOGO
  1

  0
LINE
  5
2C
  8
RAAMI
 10
0.9499999999999992
 20
10.5
 30
0.0
 11
2.6999999999999988
 21
10.5
 31
0.0
  0
LINE
  5
2D
  8
RAAMI
 10
6.1999999999999993
 20
10.5
 30
0.0
 11
7.9499999999999993
 21
10.5
 31
0.0
  0
LINE
  5
2E
  8
RAAMI
 10
3.3999999999999981
 20
17.5
 30
0.0
 11
2.2502499999999981
 21
14.214999999999989
 31
0.0
  0
LINE
  5
2F
  8
RAAMI
 10
3.1887866980971959
 20
11.9
 30
0.0
 11
4.2350000000000021
 21
11.9
 31
0.0
  0
LINE
  5
30
  8
RAAMI
 10
3.18878989496271
 20
11.8965425570363
 30
0.0
 11
2.6999999999999988
 21
10.5
 31
0.0
  0
LINE
  5
31
  8
RAAMI
 10
5.5
 20
17.5
 30
0.0
 11
6.64975
 21
14.214999999999989
 31
0.0
  0
LINE
  5
32
  8
RAAMI
 10
5.7110977032855557
 20
11.896863704898401
 30
0.0
 11
6.1999999999999993
 21
10.5
 31
0.0
  0
LINE
  5
33
  8
RAAMI
 10
5.5
 20
17.5
 30
0.0
 11
4.665
 21
17.5
 31
0.0
  0
LINE
  5
34
  8
RAAMI
 10
4.2350000000000021
 20
17.5
 30
0.0
 11
4.2350000000000021
 21
14.214999999999989
 31
0.0
  0
LINE
  5
35
  8
RAAMI
 10
4.665
 20
17.5
 30
0.0
 11
4.665
 21
14.214999999999989
 31
0.0
  0
LINE
  5
36
  8
RAAMI
 10
4.665
 20
11.9
 30
0.0
 11
5.7098933934267491
 21
11.9
 31
0.0
  0
LINE
  5
37
  8
RAAMI
 10
4.2350000000000021
 20
17.5
 30
0.0
 11
3.3999999999999981
 21
17.5
 31
0.0
  0
LINE
  5
38
  8
RAAMI
 10
2.2502499999999981
 20
14.214999999999989
 30
0.0
 11
4.2350000000000021
 21
14.214999999999989
 31
0.0
  0
LINE
  5
39
  8
RAAMI
 10
2.0997499999999998
 20
13.785
 30
0.0
 11
4.2350000000000021
 21
13.785
 31
0.0
  0
LINE
  5
3A
  8
RAAMI
 10
6.8002499999999992
 20
13.785
 30
0.0
 11
7.9499999999999993
 21
10.5
 31
0.0
  0
LINE
  5
3B
  8
RAAMI
 10
4.665
 20
14.214999999999989
 30
0.0
 11
6.64975
 21
14.214999999999989
 31
0.0
  0
LINE
  5
3C
  8
RAAMI
 10
4.665
 20
13.785
 30
0.0
 11
6.8002499999999992
 21
13.785
 31
0.0
  0
LINE
  5
3D
  8
RAAMI
 10
4.665
 20
13.785
 30
0.0
 11
4.665
 21
11.9
 31
0.0
  0
LINE
  5
3E
  8
RAAMI
 10
4.2350000000000021
 20
13.785
 30
0.0
 11
4.2350000000000021
 21
11.9
 31
0.0
  0
LINE
  5
3F
  8
RAAMI
 10
2.0997499999999998
 20
13.785
 30
0.0
 11
0.9499999999999992
 21
10.5
 31
0.0
  0
LINE
  5
40
  8
RAAMI
 10
8.4400000000000013
 20
10.5
 30
0.0
 11
8.4400000000000013
 21
13.785
 31
0.0
  0
LINE
  5
41
  8
RAAMI
 10
8.4400000000000013
 20
17.5
 30
0.0
 11
10.32499999999999
 21
17.5
 31
0.0
  0
LINE
  5
42
  8
RAAMI
 10
10.32499999999999
 20
17.5
 30
0.0
 11
10.32499999999999
 21
14.214999999999989
 31
0.0
  0
LINE
  5
43
  8
RAAMI
 10
10.32499999999999
 20
14.214999999999989
 30
0.0
 11
8.4400000000000013
 21
14.214999999999989
 31
0.0
  0
LINE
  5
44
  8
RAAMI
 10
8.4400000000000013
 20
13.785
 30
0.0
 11
10.32499999999999
 21
13.785
 31
0.0
  0
LINE
  5
45
  8
RAAMI
 10
10.32499999999999
 20
13.785
 30
0.0
 11
10.32499999999999
 21
10.5
 31
0.0
  0
LINE
  5
46
  8
RAAMI
 10
10.32499999999999
 20
10.5
 30
0.0
 11
8.4400000000000013
 21
10.5
 31
0.0
  0
LINE
  5
47
  8
RAAMI
 10
8.4400000000000013
 20
14.214999999999989
 30
0.0
 11
8.4400000000000013
 21
17.5
 31
0.0
  0
ARC
  5
48
  8
RAAMI
 10
11.24
 20
15.925000000000001
 30
0.0
 40
1.574999999999998
 50
298.45585933941169
 51
90.052436995563497
  0
LINE
  5
49
  8
RAAMI
 10
10.75499999999999
 20
17.499999340399661
 30
0.0
 11
11.238558563000881
 21
17.499999340399661
 31
0.0
  0
LINE
  5
4A
  8
RAAMI
 10
10.75499999999999
 20
17.5
 30
0.0
 11
10.75499999999999
 21
14.214999999999989
 31
0.0
  0
LINE
  5
4B
  8
RAAMI
 10
10.75499999999999
 20
14.214999999999989
 30
0.0
 11
12.582302126944599
 21
14.214999999999989
 31
0.0
  0
LINE
  5
4C
  8
RAAMI
 10
12.97371710495109
 20
13.785
 30
0.0
 11
10.75499999999999
 21
13.785
 31
0.0
  0
LINE
  5
4D
  8
RAAMI
 10
10.75499999999999
 20
13.785
 30
0.0
 11
10.75499999999999
 21
10.5
 31
0.0
  0
ARC
  5
4E
  8
RAAMI
 10
11.24
 20
12.6
 30
0.0
 40
2.0999999999999979
 50
269.9377244294032
 51
34.35270472657853
  0
LINE
  5
4F
  8
RAAMI
 10
10.75499999999999
 20
10.50000124045045
 30
0.0
 11
11.23771748157343
 21
10.50000124045045
 31
0.0
  0
ARC
  5
50
  8
RAAMI
 10
11.24
 20
12.6
 30
0.0
 40
2.0999999999999979
 50
50.268442740227627
 51
68.787999321869179
  0
INSERT
  5
51
  8
RAAMI
  2
*X2
 10
0.0
 20
0.0
 30
0.0
  0
INSERT
  5
52
  8
RAAMI
  2
*X3
 10
0.0
 20
0.0
 30
0.0
  0
INSERT
  5
53
  8
RAAMI
  2
*X4
 10
0.0
 20
0.0
 30
0.0
  0
INSERT
  5
54
  8
RAAMI
  2
*X5
 10
0.0
 20
0.0
 30
0.0
  0
INSERT
  5
55
  8
RAAMI
  2
*X6
 10
0.0
 20
0.0
 30
0.0
  0
INSERT
  5
56
  8
RAAMI
  2
*X7
 10
0.0
 20
0.0
 30
0.0
  0
INSERT
  5
57
  8
RAAMI
  2
*X8
 10
0.0
 20
0.0
 30
0.0
  0
INSERT
  5
58
  8
RAAMI
  2
*X9
 10
0.0
 20
0.0
 30
0.0
  0
INSERT
  5
59
  8
RAAMI
  2
*X9
 10
5.4599999999999973
 20
0.0
 30
0.0
  0
INSERT
  5
5A
  8
RAAMI
  2
*X8
 10
5.4599999999999973
 20
0.0
 30
0.0
  0
INSERT
  5
5B
  8
RAAMI
  2
*X7
 10
5.4599999999999973
 20
0.0
 30
0.0
  0
INSERT
  5
5C
  8
RAAMI
  2
*X6
 10
5.4599999999999973
 20
0.0
 30
0.0
  0
ARC
  5
5D
  8
RAAMI
 10
16.699999999999989
 20
12.6
 30
0.0
 40
2.0999999999999979
 50
50.268442740227627
 51
68.787999321869179
  0
LINE
  5
5E
  8
RAAMI
 10
16.214999999999989
 20
10.50000124045045
 30
0.0
 11
16.69771748157342
 21
10.50000124045045
 31
0.0
  0
ARC
  5
5F
  8
RAAMI
 10
16.699999999999989
 20
12.6
 30
0.0
 40
2.0999999999999979
 50
269.9377244294032
 51
34.35270472657853
  0
LINE
  5
60
  8
RAAMI
 10
16.214999999999989
 20
13.785
 30
0.0
 11
16.214999999999989
 21
10.5
 31
0.0
  0
LINE
  5
61
  8
RAAMI
 10
18.433717104951089
 20
13.785
 30
0.0
 11
16.214999999999989
 21
13.785
 31
0.0
  0
LINE
  5
62
  8
RAAMI
 10
16.214999999999989
 20
14.214999999999989
 30
0.0
 11
18.042302126944591
 21
14.214999999999989
 31
0.0
  0
LINE
  5
63
  8
RAAMI
 10
16.214999999999989
 20
17.5
 30
0.0
 11
16.214999999999989
 21
14.214999999999989
 31
0.0
  0
LINE
  5
64
  8
RAAMI
 10
16.214999999999989
 20
17.499999340399661
 30
0.0
 11
16.698558563000869
 21
17.499999340399661
 31
0.0
  0
ARC
  5
65
  8
RAAMI
 10
16.699999999999989
 20
15.925000000000001
 30
0.0
 40
1.574999999999998
 50
298.45585933941169
 51
90.052436995563497
  0
LINE
  5
66
  8
RAAMI
 10
13.89999999999999
 20
14.214999999999989
 30
0.0
 11
13.89999999999999
 21
17.5
 31
0.0
  0
LINE
  5
67
  8
RAAMI
 10
15.784999999999989
 20
10.5
 30
0.0
 11
13.89999999999999
 21
10.5
 31
0.0
  0
LINE
  5
68
  8
RAAMI
 10
15.784999999999989
 20
13.785
 30
0.0
 11
15.784999999999989
 21
10.5
 31
0.0
  0
LINE
  5
69
  8
RAAMI
 10
13.89999999999999
 20
13.785
 30
0.0
 11
15.784999999999989
 21
13.785
 31
0.0
  0
LINE
  5
6A
  8
RAAMI
 10
15.784999999999989
 20
14.214999999999989
 30
0.0
 11
13.89999999999999
 21
14.214999999999989
 31
0.0
  0
LINE
  5
6B
  8
RAAMI
 10
15.784999999999989
 20
17.5
 30
0.0
 11
15.784999999999989
 21
14.214999999999989
 31
0.0
  0
LINE
  5
6C
  8
RAAMI
 10
13.89999999999999
 20
17.5
 30
0.0
 11
15.784999999999989
 21
17.5
 31
0.0
  0
LINE
  5
6D
  8
RAAMI
 10
13.89999999999999
 20
10.5
 30
0.0
 11
13.89999999999999
 21
13.785
 31
0.0
  0
ENDBLK
  5
6F
  8
0
  0
BLOCK
  8
0
  2
*X2
 70
     1
 10
0.0
 20
0.0
 30
0.0
  3
*X2
  1

  0
LINE
  5
71
  8
0
 62
     0
 10
2.5850388412187519
 20
15.171539546339289
 30
0.0
 11
4.2350000000000021
 21
16.821500705120538
 31
0.0
  0
LINE
  5
72
  8
0
 62
     0
 10
2.6611888022696109
 20
15.38911086362746
 30
0.0
 11
4.2350000000000021
 21
16.962922061357851
 31
0.0
  0
LINE
  5
73
  8
0
 62
     0
 10
2.7373387633204711
 20
15.60668218091563
 30
0.0
 11
4.2350000000000021
 21
17.10434341759516
 31
0.0
  0
LINE
  5
74
  8
0
 62
     0
 10
2.81348872437133
 20
15.824253498203801
 30
0.0
 11
4.2350000000000021
 21
17.24576477383247
 31
0.0
  0
LINE
  5
75
  8
0
 62
     0
 10
2.889638685422188
 20
16.041824815491971
 30
0.0
 11
4.2350000000000021
 21
17.387186130069779
 31
0.0
  0
LINE
  5
76
  8
0
 62
     0
 10
2.965788646473047
 20
16.259396132780129
 30
0.0
 11
4.206392513692907
 21
17.5
 31
0.0
  0
LINE
  5
77
  8
0
 62
     0
 10
3.0419386075239059
 20
16.476967450068301
 30
0.0
 11
4.0649711574555969
 21
17.5
 31
0.0
  0
LINE
  5
78
  8
0
 62
     0
 10
3.1180885685747661
 20
16.69453876735648
 30
0.0
 11
3.9235498012182859
 21
17.5
 31
0.0
  0
LINE
  5
79
  8
0
 62
     0
 10
3.194238529625625
 20
16.912110084644642
 30
0.0
 11
3.7821284449809771
 21
17.5
 31
0.0
  0
LINE
  5
7A
  8
0
 62
     0
 10
3.2703884906764831
 20
17.12968140193281
 30
0.0
 11
3.6407070887436679
 21
17.5
 31
0.0
  0
LINE
  5
7B
  8
0
 62
     0
 10
3.3465384517273411
 20
17.347252719220979
 30
0.0
 11
3.4992857325063591
 21
17.5
 31
0.0
  0
LINE
  5
7C
  8
0
 62
     0
 10
2.5088888801678939
 20
14.95396822905113
 30
0.0
 11
4.2350000000000021
 21
16.68007934888324
 31
0.0
  0
LINE
  5
7D
  8
0
 62
     0
 10
2.432738919117035
 20
14.736396911762959
 30
0.0
 11
4.2350000000000021
 21
16.538657992645931
 31
0.0
  0
LINE
  5
7E
  8
0
 62
     0
 10
2.3565889580661761
 20
14.518825594474791
 30
0.0
 11
4.2350000000000021
 21
16.397236636408621
 31
0.0
  0
LINE
  5
7F
  8
0
 62
     0
 10
2.280438997015318
 20
14.30125427718662
 30
0.0
 11
4.2350000000000021
 21
16.255815280171309
 31
0.0
  0
LINE
  5
80
  8
0
 62
     0
 10
2.3356060760660009
 20
14.214999999999989
 30
0.0
 11
4.2350000000000021
 21
16.114393923933999
 31
0.0
  0
LINE
  5
81
  8
0
 62
     0
 10
2.4770274323033101
 20
14.214999999999989
 30
0.0
 11
4.2350000000000021
 21
15.97297256769669
 31
0.0
  0
LINE
  5
82
  8
0
 62
     0
 10
2.6184487885406189
 20
14.214999999999989
 30
0.0
 11
4.2350000000000021
 21
15.831551211459381
 31
0.0
  0
LINE
  5
83
  8
0
 62
     0
 10
2.7598701447779281
 20
14.214999999999989
 30
0.0
 11
4.2350000000000021
 21
15.69012985522207
 31
0.0
  0
LINE
  5
84
  8
0
 62
     0
 10
2.9012915010152391
 20
14.214999999999989
 30
0.0
 11
4.2350000000000021
 21
15.548708498984761
 31
0.0
  0
LINE
  5
85
  8
0
 62
     0
 10
3.042712857252547
 20
14.214999999999989
 30
0.0
 11
4.2350000000000021
 21
15.40728714274745
 31
0.0
  0
LINE
  5
86
  8
0
 62
     0
 10
3.184134213489858
 20
14.214999999999989
 30
0.0
 11
4.2350000000000021
 21
15.26586578651014
 31
0.0
  0
LINE
  5
87
  8
0
 62
     0
 10
3.3255555697271668
 20
14.214999999999989
 30
0.0
 11
4.2350000000000021
 21
15.124444430272829
 31
0.0
  0
LINE
  5
88
  8
0
 62
     0
 10
3.466976925964476
 20
14.214999999999989
 30
0.0
 11
4.2350000000000021
 21
14.98302307403552
 31
0.0
  0
LINE
  5
89
  8
0
 62
     0
 10
3.6083982822017862
 20
14.214999999999989
 30
0.0
 11
4.2350000000000021
 21
14.841601717798209
 31
0.0
  0
LINE
  5
8A
  8
0
 62
     0
 10
3.7498196384390949
 20
14.214999999999989
 30
0.0
 11
4.2350000000000021
 21
14.7001803615609
 31
0.0
  0
LINE
  5
8B
  8
0
 62
     0
 10
3.8912409946764051
 20
14.214999999999989
 30
0.0
 11
4.2350000000000021
 21
14.558759005323591
 31
0.0
  0
LINE
  5
8C
  8
0
 62
     0
 10
4.0326623509137152
 20
14.214999999999989
 30
0.0
 11
4.2350000000000021
 21
14.41733764908628
 31
0.0
  0
LINE
  5
8D
  8
0
 62
     0
 10
4.1740837071510226
 20
14.214999999999989
 30
0.0
 11
4.2350000000000021
 21
14.275916292848979
 31
0.0
  0
ENDBLK
  5
8F
  8
0
  0
BLOCK
  8
0
  2
*X3
 70
     1
 10
0.0
 20
0.0
 30
0.0
  3
*X3
  1

  0
LINE
  5
91
  8
0
 62
     0
 10
4.665
 20
14.847337649086279
 30
0.0
 11
5.9712457946813329
 21
16.153583443767619
 31
0.0
  0
LINE
  5
92
  8
0
 62
     0
 10
4.665
 20
14.98875900532359
 30
0.0
 11
5.9345809986198077
 21
16.258340003943399
 31
0.0
  0
LINE
  5
93
  8
0
 62
     0
 10
4.665
 20
15.1301803615609
 30
0.0
 11
5.8979162025582843
 21
16.363096564119189
 31
0.0
  0
LINE
  5
94
  8
0
 62
     0
 10
4.665
 20
15.271601717798211
 30
0.0
 11
5.8612514064967591
 21
16.467853124294969
 31
0.0
  0
LINE
  5
95
  8
0
 62
     0
 10
4.665
 20
15.41302307403552
 30
0.0
 11
5.824586610435234
 21
16.572609684470759
 31
0.0
  0
LINE
  5
96
  8
0
 62
     0
 10
4.665
 20
15.554444430272831
 30
0.0
 11
5.7879218143737088
 21
16.677366244646539
 31
0.0
  0
LINE
  5
97
  8
0
 62
     0
 10
4.665
 20
15.69586578651014
 30
0.0
 11
5.7512570183121854
 21
16.782122804822318
 31
0.0
  0
LINE
  5
98
  8
0
 62
     0
 10
4.665
 20
15.837287142747449
 30
0.0
 11
5.7145922222506602
 21
16.886879364998109
 31
0.0
  0
LINE
  5
99
  8
0
 62
     0
 10
4.665
 20
15.97870849898476
 30
0.0
 11
5.677927426189135
 21
16.991635925173892
 31
0.0
  0
LINE
  5
9A
  8
0
 62
     0
 10
4.665
 20
16.120129855222071
 30
0.0
 11
5.6412626301276099
 21
17.096392485349678
 31
0.0
  0
LINE
  5
9B
  8
0
 62
     0
 10
4.665
 20
16.261551211459381
 30
0.0
 11
5.6045978340660856
 21
17.201149045525462
 31
0.0
  0
LINE
  5
9C
  8
0
 62
     0
 10
4.665
 20
16.402972567696679
 30
0.0
 11
5.5679330380045622
 21
17.305905605701248
 31
0.0
  0
LINE
  5
9D
  8
0
 62
     0
 10
4.665
 20
16.544393923933988
 30
0.0
 11
5.531268241943037
 21
17.410662165877032
 31
0.0
  0
LINE
  5
9E
  8
0
 62
     0
 10
4.665
 20
16.685815280171312
 30
0.0
 11
5.47918471982869
 21
17.5
 31
0.0
  0
LINE
  5
9F
  8
0
 62
     0
 10
4.665
 20
16.827236636408621
 30
0.0
 11
5.3377633635913808
 21
17.5
 31
0.0
  0
LINE
  5
A0
  8
0
 62
     0
 10
4.665
 20
16.96865799264593
 30
0.0
 11
5.1963420073540716
 21
17.5
 31
0.0
  0
LINE
  5
A1
  8
0
 62
     0
 10
4.665
 20
17.110079348883239
 30
0.0
 11
5.0549206511167641
 21
17.5
 31
0.0
  0
LINE
  5
A2
  8
0
 62
     0
 10
4.665
 20
17.251500705120542
 30
0.0
 11
4.913499294879454
 21
17.5
 31
0.0
  0
LINE
  5
A3
  8
0
 62
     0
 10
4.665
 20
17.392922061357851
 30
0.0
 11
4.7720779386421448
 21
17.5
 31
0.0
  0
LINE
  5
A4
  8
0
 62
     0
 10
4.665
 20
14.70591629284897
 30
0.0
 11
6.007910590742858
 21
16.048826883591829
 31
0.0
  0
LINE
  5
A5
  8
0
 62
     0
 10
4.665
 20
14.564494936611659
 30
0.0
 11
6.0445753868043832
 21
15.944070323416041
 31
0.0
  0
LINE
  5
A6
  8
0
 62
     0
 10
4.665
 20
14.42307358037435
 30
0.0
 11
6.0812401828659066
 21
15.839313763240259
 31
0.0
  0
LINE
  5
A7
  8
0
 62
     0
 10
4.665
 20
14.281652224137041
 30
0.0
 11
6.1179049789274309
 21
15.734557203064471
 31
0.0
  0
LINE
  5
A8
  8
0
 62
     0
 10
4.7397691321002631
 20
14.214999999999989
 30
0.0
 11
6.1545697749889561
 21
15.629800642888689
 31
0.0
  0
LINE
  5
A9
  8
0
 62
     0
 10
4.8811904883375723
 20
14.214999999999989
 30
0.0
 11
6.1912345710504813
 21
15.52504408271291
 31
0.0
  0
LINE
  5
AA
  8
0
 62
     0
 10
5.0226118445748824
 20
14.214999999999989
 30
0.0
 11
6.2278993671120064
 21
15.420287522537119
 31
0.0
  0
LINE
  5
AB
  8
0
 62
     0
 10
5.1640332008121907
 20
14.214999999999989
 30
0.0
 11
6.2645641631735298
 21
15.31553096236134
 31
0.0
  0
LINE
  5
AC
  8
0
 62
     0
 10
5.3054545570495009
 20
14.214999999999989
 30
0.0
 11
6.301228959235055
 21
15.21077440218555
 31
0.0
  0
LINE
  5
AD
  8
0
 62
     0
 10
5.4468759132868101
 20
14.214999999999989
 30
0.0
 11
6.3378937552965802
 21
15.10601784200977
 31
0.0
  0
LINE
  5
AE
  8
0
 62
     0
 10
5.5882972695241202
 20
14.214999999999989
 30
0.0
 11
6.3745585513581036
 21
15.00126128183398
 31
0.0
  0
LINE
  5
AF
  8
0
 62
     0
 10
5.7297186257614303
 20
14.214999999999989
 30
0.0
 11
6.4112233474196287
 21
14.8965047216582
 31
0.0
  0
LINE
  5
B0
  8
0
 62
     0
 10
5.8711399819987387
 20
14.214999999999989
 30
0.0
 11
6.447888143481153
 21
14.79174816148241
 31
0.0
  0
LINE
  5
B1
  8
0
 62
     0
 10
6.012561338236047
 20
14.214999999999989
 30
0.0
 11
6.4845529395426791
 21
14.68699160130663
 31
0.0
  0
LINE
  5
B2
  8
0
 62
     0
 10
6.153982694473358
 20
14.214999999999989
 30
0.0
 11
6.5212177356042034
 21
14.58223504113084
 31
0.0
  0
LINE
  5
B3
  8
0
 62
     0
 10
6.2954040507106672
 20
14.214999999999989
 30
0.0
 11
6.5578825316657277
 21
14.47747848095506
 31
0.0
  0
LINE
  5
B4
  8
0
 62
     0
 10
6.4368254069479782
 20
14.214999999999989
 30
0.0
 11
6.5945473277272519
 21
14.37272192077927
 31
0.0
  0
LINE
  5
B5
  8
0
 62
     0
 10
6.5782467631852857
 20
14.214999999999989
 30
0.0
 11
6.631212123788778
 21
14.26796536060349
 31
0.0
  0
ENDBLK
  5
B7
  8
0
  0
BLOCK
  8
0
  2
*X4
 70
     1
 10
0.0
 20
0.0
 30
0.0
  3
*X4
  1

  0
LINE
  5
B9
  8
0
 62
     0
 10
1.024769132100263
 20
10.5
 30
0.0
 11
4.2350000000000021
 21
13.710230867899741
 31
0.0
  0
LINE
  5
BA
  8
0
 62
     0
 10
0.9858896591507163
 20
10.60254188328776
 30
0.0
 11
4.168347775862955
 21
13.785
 31
0.0
  0
LINE
  5
BB
  8
0
 62
     0
 10
1.0620396202015749
 20
10.82011320057593
 30
0.0
 11
4.026926419625644
 21
13.785
 31
0.0
  0
LINE
  5
BC
  8
0
 62
     0
 10
1.1381895812524341
 20
11.037684517864101
 30
0.0
 11
3.8855050633883348
 21
13.785
 31
0.0
  0
LINE
  5
BD
  8
0
 62
     0
 10
1.2143395423032941
 20
11.25525583515226
 30
0.0
 11
3.7440837071510251
 21
13.785
 31
0.0
  0
LINE
  5
BE
  8
0
 62
     0
 10
1.290489503354153
 20
11.472827152440431
 30
0.0
 11
3.6026623509137159
 21
13.785
 31
0.0
  0
LINE
  5
BF
  8
0
 62
     0
 10
1.3666394644050111
 20
11.690398469728599
 30
0.0
 11
3.4612409946764071
 21
13.785
 31
0.0
  0
LINE
  5
C0
  8
0
 62
     0
 10
1.4427894254558711
 20
11.90796978701677
 30
0.0
 11
3.3198196384390961
 21
13.785
 31
0.0
  0
LINE
  5
C1
  8
0
 62
     0
 10
1.51893938650673
 20
12.12554110430494
 30
0.0
 11
3.1783982822017882
 21
13.785
 31
0.0
  0
LINE
  5
C2
  8
0
 62
     0
 10
1.5950893475575889
 20
12.34311242159311
 30
0.0
 11
3.0369769259644772
 21
13.785
 31
0.0
  0
LINE
  5
C3
  8
0
 62
     0
 10
1.671239308608448
 20
12.560683738881281
 30
0.0
 11
2.895555569727168
 21
13.785
 31
0.0
  0
LINE
  5
C4
  8
0
 62
     0
 10
1.747389269659307
 20
12.77825505616944
 30
0.0
 11
2.7541342134898592
 21
13.785
 31
0.0
  0
LINE
  5
C5
  8
0
 62
     0
 10
1.8235392307101661
 20
12.995826373457611
 30
0.0
 11
2.6127128572525491
 21
13.785
 31
0.0
  0
LINE
  5
C6
  8
0
 62
     0
 10
1.899689191761025
 20
13.213397690745779
 30
0.0
 11
2.4712915010152399
 21
13.785
 31
0.0
  0
LINE
  5
C7
  8
0
 62
     0
 10
1.975839152811885
 20
13.43096900803395
 30
0.0
 11
2.3298701447779302
 21
13.785
 31
0.0
  0
LINE
  5
C8
  8
0
 62
     0
 10
2.0519891138627431
 20
13.64854032532212
 30
0.0
 11
2.188448788540621
 21
13.785
 31
0.0
  0
LINE
  5
C9
  8
0
 62
     0
 10
1.166190488337572
 20
10.5
 30
0.0
 11
4.2350000000000021
 21
13.56880951166243
 31
0.0
  0
LINE
  5
CA
  8
0
 62
     0
 10
1.3076118445748821
 20
10.5
 30
0.0
 11
4.2350000000000021
 21
13.42738815542512
 31
0.0
  0
LINE
  5
CB
  8
0
 62
     0
 10
1.4490332008121909
 20
10.5
 30
0.0
 11
4.2350000000000021
 21
13.285966799187809
 31
0.0
  0
LINE
  5
CC
  8
0
 62
     0
 10
1.5904545570495019
 20
10.5
 30
0.0
 11
4.2350000000000021
 21
13.1445454429505
 31
0.0
  0
LINE
  5
CD
  8
0
 62
     0
 10
1.7318759132868109
 20
10.5
 30
0.0
 11
4.2350000000000021
 21
13.003124086713189
 31
0.0
  0
LINE
  5
CE
  8
0
 62
     0
 10
1.8732972695241199
 20
10.5
 30
0.0
 11
3.1451476241023988
 21
11.77185035457827
 31
0.0
  0
LINE
  5
CF
  8
0
 62
     0
 10
3.2732972695241198
 20
11.9
 30
0.0
 11
4.2350000000000021
 21
12.86170273047588
 31
0.0
  0
LINE
  5
D0
  8
0
 62
     0
 10
2.01471862576143
 20
10.5
 30
0.0
 11
3.068997663051539
 21
11.554279037290099
 31
0.0
  0
LINE
  5
D1
  8
0
 62
     0
 10
3.4147186257614299
 20
11.9
 30
0.0
 11
4.2350000000000021
 21
12.720281374238571
 31
0.0
  0
LINE
  5
D2
  8
0
 62
     0
 10
2.1561399819987388
 20
10.5
 30
0.0
 11
2.9928477020006801
 21
11.336707720001939
 31
0.0
  0
LINE
  5
D3
  8
0
 62
     0
 10
3.5561399819987392
 20
11.9
 30
0.0
 11
4.2350000000000021
 21
12.57886001800126
 31
0.0
  0
LINE
  5
D4
  8
0
 62
     0
 10
2.297561338236048
 20
10.5
 30
0.0
 11
2.9166977409498198
 21
11.119136402713769
 31
0.0
  0
LINE
  5
D5
  8
0
 62
     0
 10
3.6975613382360479
 20
11.9
 30
0.0
 11
4.2350000000000021
 21
12.437438661763951
 31
0.0
  0
LINE
  5
D6
  8
0
 62
     0
 10
2.4389826944733581
 20
10.5
 30
0.0
 11
2.84054777989896
 21
10.901565085425601
 31
0.0
  0
LINE
  5
D7
  8
0
 62
     0
 10
3.838982694473358
 20
11.9
 30
0.0
 11
4.2350000000000021
 21
12.29601730552664
 31
0.0
  0
LINE
  5
D8
  8
0
 62
     0
 10
2.5804040507106669
 20
10.5
 30
0.0
 11
2.7643978188481011
 21
10.68399376813743
 31
0.0
  0
LINE
  5
D9
  8
0
 62
     0
 10
3.9804040507106668
 20
11.9
 30
0.0
 11
4.2350000000000021
 21
12.15459594928933
 31
0.0
  0
LINE
  5
DA
  8
0
 62
     0
 10
4.1218254069479769
 20
11.9
 30
0.0
 11
4.2350000000000021
 21
12.013174593052019
 31
0.0
  0
ENDBLK
  5
DC
  8
0
  0
BLOCK
  8
0
  2
*X5
 70
     1
 10
0.0
 20
0.0
 30
0.0
  3
*X5
  1

  0
LINE
  5
DE
  8
0
 62
     0
 10
5.8115581762923014
 20
11.60983378202199
 30
0.0
 11
7.107854472588599
 21
12.906130078318281
 31
0.0
  0
LINE
  5
DF
  8
0
 62
     0
 10
5.7748933802307771
 20
11.71459034219777
 30
0.0
 11
7.071189676527073
 21
13.010886638494069
 31
0.0
  0
LINE
  5
E0
  8
0
 62
     0
 10
5.7382285841692511
 20
11.81934690237356
 30
0.0
 11
7.0345248804655487
 21
13.115643198669851
 31
0.0
  0
LINE
  5
E1
  8
0
 62
     0
 10
5.677460325558382
 20
11.9
 30
0.0
 11
6.9978600844040244
 21
13.220399758845639
 31
0.0
  0
LINE
  5
E2
  8
0
 62
     0
 10
5.5360389693210728
 20
11.9
 30
0.0
 11
6.9611952883425001
 21
13.325156319021421
 31
0.0
  0
LINE
  5
E3
  8
0
 62
     0
 10
5.3946176130837626
 20
11.9
 30
0.0
 11
6.9245304922809741
 21
13.429912879197211
 31
0.0
  0
LINE
  5
E4
  8
0
 62
     0
 10
5.2531962568464543
 20
11.9
 30
0.0
 11
6.8878656962194498
 21
13.53466943937299
 31
0.0
  0
LINE
  5
E5
  8
0
 62
     0
 10
5.1117749006091442
 20
11.9
 30
0.0
 11
6.8512009001579246
 21
13.639425999548781
 31
0.0
  0
LINE
  5
E6
  8
0
 62
     0
 10
4.9703535443718341
 20
11.9
 30
0.0
 11
6.8145361040964012
 21
13.74418255972456
 31
0.0
  0
LINE
  5
E7
  8
0
 62
     0
 10
4.8289321881345257
 20
11.9
 30
0.0
 11
6.7139321881345246
 21
13.785
 31
0.0
  0
LINE
  5
E8
  8
0
 62
     0
 10
4.6875108318972156
 20
11.9
 30
0.0
 11
6.5725108318972136
 21
13.785
 31
0.0
  0
LINE
  5
E9
  8
0
 62
     0
 10
4.665
 20
12.01891052434009
 30
0.0
 11
6.4310894756599062
 21
13.785
 31
0.0
  0
LINE
  5
EA
  8
0
 62
     0
 10
4.665
 20
12.160331880577401
 30
0.0
 11
6.2896681194225961
 21
13.785
 31
0.0
  0
LINE
  5
EB
  8
0
 62
     0
 10
4.665
 20
12.30175323681471
 30
0.0
 11
6.148246763185286
 21
13.785
 31
0.0
  0
LINE
  5
EC
  8
0
 62
     0
 10
4.665
 20
12.443174593052021
 30
0.0
 11
6.0068254069479767
 21
13.785
 31
0.0
  0
LINE
  5
ED
  8
0
 62
     0
 10
4.665
 20
12.58459594928933
 30
0.0
 11
5.8654040507106666
 21
13.785
 31
0.0
  0
LINE
  5
EE
  8
0
 62
     0
 10
4.665
 20
12.726017305526639
 30
0.0
 11
5.7239826944733583
 21
13.785
 31
0.0
  0
LINE
  5
EF
  8
0
 62
     0
 10
4.665
 20
12.86743866176395
 30
0.0
 11
5.5825613382360482
 21
13.785
 31
0.0
  0
LINE
  5
F0
  8
0
 62
     0
 10
4.665
 20
13.008860018001259
 30
0.0
 11
5.4411399819987381
 21
13.785
 31
0.0
  0
LINE
  5
F1
  8
0
 62
     0
 10
4.665
 20
13.15028137423857
 30
0.0
 11
5.2997186257614288
 21
13.785
 31
0.0
  0
LINE
  5
F2
  8
0
 62
     0
 10
4.665
 20
13.29170273047588
 30
0.0
 11
5.1582972695241187
 21
13.785
 31
0.0
  0
LINE
  5
F3
  8
0
 62
     0
 10
4.665
 20
13.433124086713191
 30
0.0
 11
5.0168759132868104
 21
13.785
 31
0.0
  0
LINE
  5
F4
  8
0
 62
     0
 10
4.665
 20
13.574545442950489
 30
0.0
 11
4.875454557049502
 21
13.785
 31
0.0
  0
LINE
  5
F5
  8
0
 62
     0
 10
4.665
 20
13.715966799187809
 30
0.0
 11
4.734033200812191
 21
13.785
 31
0.0
  0
LINE
  5
F6
  8
0
 62
     0
 10
5.8482229723538257
 20
11.5050772218462
 30
0.0
 11
7.1445192686501233
 21
12.801373518142499
 31
0.0
  0
LINE
  5
F7
  8
0
 62
     0
 10
5.88488776841535
 20
11.40032066167042
 30
0.0
 11
7.1811840647116476
 21
12.696616957966709
 31
0.0
  0
LINE
  5
F8
  8
0
 62
     0
 10
5.9215525644768761
 20
11.29556410149463
 30
0.0
 11
7.2178488607731719
 21
12.59186039779093
 31
0.0
  0
LINE
  5
F9
  8
0
 62
     0
 10
5.9582173605384003
 20
11.190807541318851
 30
0.0
 11
7.2545136568346971
 21
12.487103837615139
 31
0.0
  0
LINE
  5
FA
  8
0
 62
     0
 10
5.9948821565999246
 20
11.08605098114306
 30
0.0
 11
7.2911784528962222
 21
12.38234727743936
 31
0.0
  0
LINE
  5
FB
  8
0
 62
     0
 10
6.0315469526614489
 20
10.981294420967281
 30
0.0
 11
7.3278432489577456
 21
12.27759071726358
 31
0.0
  0
LINE
  5
FC
  8
0
 62
     0
 10
6.0682117487229741
 20
10.87653786079149
 30
0.0
 11
7.3645080450192708
 21
12.17283415708779
 31
0.0
  0
LINE
  5
FD
  8
0
 62
     0
 10
6.1048765447844993
 20
10.771781300615711
 30
0.0
 11
7.4011728410807951
 21
12.06807759691201
 31
0.0
  0
LINE
  5
FE
  8
0
 62
     0
 10
6.1415413408460244
 20
10.667024740439921
 30
0.0
 11
7.4378376371423212
 21
11.96332103673622
 31
0.0
  0
LINE
  5
FF
  8
0
 62
     0
 10
6.1782061369075478
 20
10.562268180264139
 30
0.0
 11
7.4745024332038454
 21
11.85856447656044
 31
0.0
  0
LINE
  5
100
  8
0
 62
     0
 10
6.2573593128807152
 20
10.5
 30
0.0
 11
7.5111672292653697
 21
11.75380791638465
 31
0.0
  0
LINE
  5
101
  8
0
 62
     0
 10
6.3987806691180236
 20
10.5
 30
0.0
 11
7.547832025326894
 21
11.64905135620887
 31
0.0
  0
LINE
  5
102
  8
0
 62
     0
 10
6.5402020253553337
 20
10.5
 30
0.0
 11
7.5844968213884192
 21
11.54429479603308
 31
0.0
  0
LINE
  5
103
  8
0
 62
     0
 10
6.6816233815926429
 20
10.5
 30
0.0
 11
7.6211616174499444
 21
11.439538235857301
 31
0.0
  0
LINE
  5
104
  8
0
 62
     0
 10
6.823044737829953
 20
10.5
 30
0.0
 11
7.6578264135114678
 21
11.33478167568151
 31
0.0
  0
LINE
  5
105
  8
0
 62
     0
 10
6.9644660940672631
 20
10.5
 30
0.0
 11
7.6944912095729929
 21
11.230025115505731
 31
0.0
  0
LINE
  5
106
  8
0
 62
     0
 10
7.1058874503045724
 20
10.5
 30
0.0
 11
7.7311560056345181
 21
11.12526855532994
 31
0.0
  0
LINE
  5
107
  8
0
 62
     0
 10
7.2473088065418807
 20
10.5
 30
0.0
 11
7.7678208016960433
 21
11.020511995154161
 31
0.0
  0
LINE
  5
108
  8
0
 62
     0
 10
7.3887301627791908
 20
10.5
 30
0.0
 11
7.8044855977575667
 21
10.915755434978371
 31
0.0
  0
LINE
  5
109
  8
0
 62
     0
 10
7.5301515190165
 20
10.5
 30
0.0
 11
7.8411503938190918
 21
10.810998874802589
 31
0.0
  0
LINE
  5
10A
  8
0
 62
     0
 10
7.671572875253811
 20
10.5
 30
0.0
 11
7.877815189880617
 21
10.706242314626801
 31
0.0
  0
LINE
  5
10B
  8
0
 62
     0
 10
7.8129942314911203
 20
10.5
 30
0.0
 11
7.9144799859421413
 21
10.601485754451019
 31
0.0
  0
ENDBLK
  5
10D
  8
0
  0
BLOCK
  8
0
  2
*X6
 70
     1
 10
0.0
 20
0.0
 30
0.0
  3
*X6
  1

  0
LINE
  5
10F
  8
0
 62
     0
 10
8.4400000000000013
 20
14.80396103067892
 30
0.0
 11
10.324999999999999
 21
16.688961030678929
 31
0.0
  0
LINE
  5
110
  8
0
 62
     0
 10
8.4400000000000013
 20
14.94538238691624
 30
0.0
 11
10.324999999999999
 21
16.830382386916231
 31
0.0
  0
LINE
  5
111
  8
0
 62
     0
 10
8.4400000000000013
 20
15.08680374315354
 30
0.0
 11
10.324999999999999
 21
16.97180374315354
 31
0.0
  0
LINE
  5
112
  8
0
 62
     0
 10
8.4400000000000013
 20
15.22822509939086
 30
0.0
 11
10.324999999999999
 21
17.113225099390849
 31
0.0
  0
LINE
  5
113
  8
0
 62
     0
 10
8.4400000000000013
 20
15.36964645562816
 30
0.0
 11
10.324999999999999
 21
17.254646455628158
 31
0.0
  0
LINE
  5
114
  8
0
 62
     0
 10
8.4400000000000013
 20
15.51106781186547
 30
0.0
 11
10.324999999999999
 21
17.396067811865471
 31
0.0
  0
LINE
  5
115
  8
0
 62
     0
 10
8.4400000000000013
 20
15.652489168102781
 30
0.0
 11
10.28751083189721
 21
17.5
 31
0.0
  0
LINE
  5
116
  8
0
 62
     0
 10
8.4400000000000013
 20
15.79391052434009
 30
0.0
 11
10.146089475659901
 21
17.5
 31
0.0
  0
LINE
  5
117
  8
0
 62
     0
 10
8.4400000000000013
 20
15.935331880577399
 30
0.0
 11
10.00466811942259
 21
17.5
 31
0.0
  0
LINE
  5
118
  8
0
 62
     0
 10
8.4400000000000013
 20
16.07675323681471
 30
0.0
 11
9.8632467631852876
 21
17.5
 31
0.0
  0
LINE
  5
119
  8
0
 62
     0
 10
8.4400000000000013
 20
16.218174593052019
 30
0.0
 11
9.7218254069479801
 21
17.5
 31
0.0
  0
LINE
  5
11A
  8
0
 62
     0
 10
8.4400000000000013
 20
16.359595949289329
 30
0.0
 11
9.5804040507106691
 21
17.5
 31
0.0
  0
LINE
  5
11B
  8
0
 62
     0
 10
8.4400000000000013
 20
16.501017305526641
 30
0.0
 11
9.4389826944733581
 21
17.5
 31
0.0
  0
LINE
  5
11C
  8
0
 62
     0
 10
8.4400000000000013
 20
16.642438661763951
 30
0.0
 11
9.2975613382360471
 21
17.5
 31
0.0
  0
LINE
  5
11D
  8
0
 62
     0
 10
8.4400000000000013
 20
16.78386001800126
 30
0.0
 11
9.1561399819987415
 21
17.5
 31
0.0
  0
LINE
  5
11E
  8
0
 62
     0
 10
8.4400000000000013
 20
16.925281374238569
 30
0.0
 11
9.0147186257614322
 21
17.5
 31
0.0
  0
LINE
  5
11F
  8
0
 62
     0
 10
8.4400000000000013
 20
17.066702730475878
 30
0.0
 11
8.8732972695241212
 21
17.5
 31
0.0
  0
LINE
  5
120
  8
0
 62
     0
 10
8.4400000000000013
 20
17.208124086713191
 30
0.0
 11
8.731875913286812
 21
17.5
 31
0.0
  0
LINE
  5
121
  8
0
 62
     0
 10
8.4400000000000013
 20
17.3495454429505
 30
0.0
 11
8.5904545570495028
 21
17.5
 31
0.0
  0
LINE
  5
122
  8
0
 62
     0
 10
8.4400000000000013
 20
17.490966799187809
 30
0.0
 11
8.4490332008121936
 21
17.5
 31
0.0
  0
LINE
  5
123
  8
0
 62
     0
 10
8.4400000000000013
 20
14.66253967444162
 30
0.0
 11
10.324999999999999
 21
16.547539674441619
 31
0.0
  0
LINE
  5
124
  8
0
 62
     0
 10
8.4400000000000013
 20
14.52111831820431
 30
0.0
 11
10.324999999999999
 21
16.40611831820431
 31
0.0
  0
LINE
  5
125
  8
0
 62
     0
 10
8.4400000000000013
 20
14.379696961966999
 30
0.0
 11
10.324999999999999
 21
16.264696961967001
 31
0.0
  0
LINE
  5
126
  8
0
 62
     0
 10
8.4400000000000013
 20
14.23827560572969
 30
0.0
 11
10.324999999999999
 21
16.123275605729692
 31
0.0
  0
LINE
  5
127
  8
0
 62
     0
 10
8.5581457505076202
 20
14.214999999999989
 30
0.0
 11
10.324999999999999
 21
15.981854249492381
 31
0.0
  0
LINE
  5
128
  8
0
 62
     0
 10
8.6995671067449294
 20
14.214999999999989
 30
0.0
 11
10.324999999999999
 21
15.84043289325507
 31
0.0
  0
LINE
  5
129
  8
0
 62
     0
 10
8.8409884629822386
 20
14.214999999999989
 30
0.0
 11
10.324999999999999
 21
15.699011537017761
 31
0.0
  0
LINE
  5
12A
  8
0
 62
     0
 10
8.9824098192195478
 20
14.214999999999989
 30
0.0
 11
10.324999999999999
 21
15.55759018078045
 31
0.0
  0
LINE
  5
12B
  8
0
 62
     0
 10
9.1238311754568571
 20
14.214999999999989
 30
0.0
 11
10.324999999999999
 21
15.41616882454314
 31
0.0
  0
LINE
  5
12C
  8
0
 62
     0
 10
9.2652525316941681
 20
14.214999999999989
 30
0.0
 11
10.324999999999999
 21
15.274747468305829
 31
0.0
  0
LINE
  5
12D
  8
0
 62
     0
 10
9.4066738879314773
 20
14.214999999999989
 30
0.0
 11
10.324999999999999
 21
15.13332611206852
 31
0.0
  0
LINE
  5
12E
  8
0
 62
     0
 10
9.5480952441687865
 20
14.214999999999989
 30
0.0
 11
10.324999999999999
 21
14.991904755831211
 31
0.0
  0
LINE
  5
12F
  8
0
 62
     0
 10
9.6895166004060957
 20
14.214999999999989
 30
0.0
 11
10.324999999999999
 21
14.8504833995939
 31
0.0
  0
LINE
  5
130
  8
0
 62
     0
 10
9.8309379566434032
 20
14.214999999999989
 30
0.0
 11
10.324999999999999
 21
14.709062043356591
 31
0.0
  0
LINE
  5
131
  8
0
 62
     0
 10
9.9723593128807142
 20
14.214999999999989
 30
0.0
 11
10.324999999999999
 21
14.56764068711928
 31
0.0
  0
LINE
  5
132
  8
0
 62
     0
 10
10.11378066911802
 20
14.214999999999989
 30
0.0
 11
10.324999999999999
 21
14.42621933088197
 31
0.0
  0
LINE
  5
133
  8
0
 62
     0
 10
10.255202025355331
 20
14.214999999999989
 30
0.0
 11
10.324999999999999
 21
14.28479797464467
 31
0.0
  0
ENDBLK
  5
135
  8
0
  0
BLOCK
  8
0
  2
*X7
 70
     1
 10
0.0
 20
0.0
 30
0.0
  3
*X7
  1

  0
LINE
  5
137
  8
0
 62
     0
 10
8.4400000000000013
 20
11.12700576850888
 30
0.0
 11
10.324999999999999
 21
13.01200576850888
 31
0.0
  0
LINE
  5
138
  8
0
 62
     0
 10
8.4400000000000013
 20
11.268427124746189
 30
0.0
 11
10.324999999999999
 21
13.153427124746189
 31
0.0
  0
LINE
  5
139
  8
0
 62
     0
 10
8.4400000000000013
 20
11.4098484809835
 30
0.0
 11
10.324999999999999
 21
13.2948484809835
 31
0.0
  0
LINE
  5
13A
  8
0
 62
     0
 10
8.4400000000000013
 20
11.55126983722081
 30
0.0
 11
10.324999999999999
 21
13.436269837220809
 31
0.0
  0
LINE
  5
13B
  8
0
 62
     0
 10
8.4400000000000013
 20
11.692691193458121
 30
0.0
 11
10.324999999999999
 21
13.57769119345812
 31
0.0
  0
LINE
  5
13C
  8
0
 62
     0
 10
8.4400000000000013
 20
11.83411254969543
 30
0.0
 11
10.324999999999999
 21
13.71911254969543
 31
0.0
  0
LINE
  5
13D
  8
0
 62
     0
 10
8.4400000000000013
 20
11.975533905932741
 30
0.0
 11
10.249466094067261
 21
13.785
 31
0.0
  0
LINE
  5
13E
  8
0
 62
     0
 10
8.4400000000000013
 20
12.116955262170039
 30
0.0
 11
10.10804473782995
 21
13.785
 31
0.0
  0
LINE
  5
13F
  8
0
 62
     0
 10
8.4400000000000013
 20
12.258376618407359
 30
0.0
 11
9.9666233815926422
 21
13.785
 31
0.0
  0
LINE
  5
140
  8
0
 62
     0
 10
8.4400000000000013
 20
12.39979797464466
 30
0.0
 11
9.8252020253553312
 21
13.785
 31
0.0
  0
LINE
  5
141
  8
0
 62
     0
 10
8.4400000000000013
 20
12.541219330881971
 30
0.0
 11
9.6837806691180237
 21
13.785
 31
0.0
  0
LINE
  5
142
  8
0
 62
     0
 10
8.4400000000000013
 20
12.68264068711928
 30
0.0
 11
9.5423593128807145
 21
13.785
 31
0.0
  0
LINE
  5
143
  8
0
 62
     0
 10
8.4400000000000013
 20
12.824062043356591
 30
0.0
 11
9.4009379566434053
 21
13.785
 31
0.0
  0
LINE
  5
144
  8
0
 62
     0
 10
8.4400000000000013
 20
12.9654833995939
 30
0.0
 11
9.259516600406096
 21
13.785
 31
0.0
  0
LINE
  5
145
  8
0
 62
     0
 10
8.4400000000000013
 20
13.106904755831209
 30
0.0
 11
9.118095244168785
 21
13.785
 31
0.0
  0
LINE
  5
146
  8
0
 62
     0
 10
8.4400000000000013
 20
13.24832611206852
 30
0.0
 11
8.9766738879314776
 21
13.785
 31
0.0
  0
LINE
  5
147
  8
0
 62
     0
 10
8.4400000000000013
 20
13.38974746830583
 30
0.0
 11
8.8352525316941666
 21
13.785
 31
0.0
  0
LINE
  5
148
  8
0
 62
     0
 10
8.4400000000000013
 20
13.531168824543141
 30
0.0
 11
8.6938311754568574
 21
13.785
 31
0.0
  0
LINE
  5
149
  8
0
 62
     0
 10
8.4400000000000013
 20
13.67259018078045
 30
0.0
 11
8.5524098192195481
 21
13.785
 31
0.0
  0
LINE
  5
14A
  8
0
 62
     0
 10
8.4400000000000013
 20
10.985584412271569
 30
0.0
 11
10.324999999999999
 21
12.870584412271571
 31
0.0
  0
LINE
  5
14B
  8
0
 62
     0
 10
8.4400000000000013
 20
10.84416305603426
 30
0.0
 11
10.324999999999999
 21
12.72916305603426
 31
0.0
  0
LINE
  5
14C
  8
0
 62
     0
 10
8.4400000000000013
 20
10.702741699796951
 30
0.0
 11
10.324999999999999
 21
12.58774169979695
 31
0.0
  0
LINE
  5
14D
  8
0
 62
     0
 10
8.4400000000000013
 20
10.56132034355964
 30
0.0
 11
10.324999999999999
 21
12.446320343559639
 31
0.0
  0
LINE
  5
14E
  8
0
 62
     0
 10
8.5201010126776673
 20
10.5
 30
0.0
 11
10.324999999999999
 21
12.30489898732233
 31
0.0
  0
LINE
  5
14F
  8
0
 62
     0
 10
8.6615223689149765
 20
10.5
 30
0.0
 11
10.324999999999999
 21
12.163477631085019
 31
0.0
  0
LINE
  5
150
  8
0
 62
     0
 10
8.8029437251522857
 20
10.5
 30
0.0
 11
10.324999999999999
 21
12.02205627484771
 31
0.0
  0
LINE
  5
151
  8
0
 62
     0
 10
8.9443650813895932
 20
10.5
 30
0.0
 11
10.324999999999999
 21
11.880634918610401
 31
0.0
  0
LINE
  5
152
  8
0
 62
     0
 10
9.0857864376269042
 20
10.5
 30
0.0
 11
10.324999999999999
 21
11.73921356237309
 31
0.0
  0
LINE
  5
153
  8
0
 62
     0
 10
9.2272077938642134
 20
10.5
 30
0.0
 11
10.324999999999999
 21
11.597792206135781
 31
0.0
  0
LINE
  5
154
  8
0
 62
     0
 10
9.3686291501015244
 20
10.5
 30
0.0
 11
10.324999999999999
 21
11.45637084989847
 31
0.0
  0
LINE
  5
155
  8
0
 62
     0
 10
9.5100505063388336
 20
10.5
 30
0.0
 11
10.324999999999999
 21
11.31494949366116
 31
0.0
  0
LINE
  5
156
  8
0
 62
     0
 10
9.6514718625761429
 20
10.5
 30
0.0
 11
10.324999999999999
 21
11.173528137423849
 31
0.0
  0
LINE
  5
157
  8
0
 62
     0
 10
9.7928932188134521
 20
10.5
 30
0.0
 11
10.324999999999999
 21
11.032106781186551
 31
0.0
  0
LINE
  5
158
  8
0
 62
     0
 10
9.9343145750507613
 20
10.5
 30
0.0
 11
10.324999999999999
 21
10.89068542494924
 31
0.0
  0
LINE
  5
159
  8
0
 62
     0
 10
10.075735931288071
 20
10.5
 30
0.0
 11
10.324999999999999
 21
10.749264068711931
 31
0.0
  0
LINE
  5
15A
  8
0
 62
     0
 10
10.21715728752538
 20
10.5
 30
0.0
 11
10.324999999999999
 21
10.607842712474611
 31
0.0
  0
ENDBLK
  5
15C
  8
0
  0
BLOCK
  8
0
  2
*X8
 70
     1
 10
0.0
 20
0.0
 30
0.0
  3
*X8
  1

  0
LINE
  5
15E
  8
0
 62
     0
 10
10.75499999999999
 20
14.85621933088197
 30
0.0
 11
12.606651951193619
 21
16.70787128207559
 31
0.0
  0
LINE
  5
15F
  8
0
 62
     0
 10
10.75499999999999
 20
14.997640687119279
 30
0.0
 11
12.552688730876721
 21
16.795329417996001
 31
0.0
  0
LINE
  5
160
  8
0
 62
     0
 10
10.75499999999999
 20
15.13906204335659
 30
0.0
 11
12.49395055341158
 21
16.878012596768169
 31
0.0
  0
LINE
  5
161
  8
0
 62
     0
 10
10.75499999999999
 20
15.2804833995939
 30
0.0
 11
12.43059182218045
 21
16.956075221774359
 31
0.0
  0
LINE
  5
162
  8
0
 62
     0
 10
10.75499999999999
 20
15.421904755831211
 30
0.0
 11
12.362704050492461
 21
17.029608806323679
 31
0.0
  0
LINE
  5
163
  8
0
 62
     0
 10
10.75499999999999
 20
15.56332611206852
 30
0.0
 11
12.290321731415871
 21
17.09864784348439
 31
0.0
  0
LINE
  5
164
  8
0
 62
     0
 10
10.75499999999999
 20
15.704747468305831
 30
0.0
 11
12.21342448184601
 21
17.163171950151838
 31
0.0
  0
LINE
  5
165
  8
0
 62
     0
 10
10.75499999999999
 20
15.84616882454314
 30
0.0
 11
12.13193578000449
 21
17.22310460454764
 31
0.0
  0
LINE
  5
166
  8
0
 62
     0
 10
10.75499999999999
 20
15.987590180780449
 30
0.0
 11
12.045718109380029
 21
17.278308290160481
 31
0.0
  0
LINE
  5
167
  8
0
 62
     0
 10
10.75499999999999
 20
16.12901153701776
 30
0.0
 11
11.95456376436614
 21
17.3285753013839
 31
0.0
  0
LINE
  5
168
  8
0
 62
     0
 10
10.75499999999999
 20
16.270432893255069
 30
0.0
 11
11.858179799954581
 21
17.373612693209651
 31
0.0
  0
LINE
  5
169
  8
0
 62
     0
 10
10.75499999999999
 20
16.411854249492372
 30
0.0
 11
11.756164352832529
 21
17.413018602324911
 31
0.0
  0
LINE
  5
16A
  8
0
 62
     0
 10
10.75499999999999
 20
16.553275605729691
 30
0.0
 11
11.647969296643449
 21
17.446244902373142
 31
0.0
  0
LINE
  5
16B
  8
0
 62
     0
 10
10.75499999999999
 20
16.69469696196699
 30
0.0
 11
11.53283975161226
 21
17.47253671357926
 31
0.0
  0
LINE
  5
16C
  8
0
 62
     0
 10
10.75499999999999
 20
16.83611831820431
 30
0.0
 11
11.409711496309511
 21
17.49082981451382
 31
0.0
  0
LINE
  5
16D
  8
0
 62
     0
 10
10.75499999999999
 20
16.977539674441608
 30
0.0
 11
11.2770250730259
 21
17.49956474746751
 31
0.0
  0
LINE
  5
16E
  8
0
 62
     0
 10
10.75499999999999
 20
17.118961030678928
 30
0.0
 11
11.13603830972073
 21
17.499999340399661
 31
0.0
  0
LINE
  5
16F
  8
0
 62
     0
 10
10.75499999999999
 20
17.260382386916231
 30
0.0
 11
10.994616953483421
 21
17.499999340399661
 31
0.0
  0
LINE
  5
170
  8
0
 62
     0
 10
10.75499999999999
 20
17.40180374315354
 30
0.0
 11
10.85319559724611
 21
17.499999340399661
 31
0.0
  0
LINE
  5
171
  8
0
 62
     0
 10
10.75499999999999
 20
14.714797974644661
 30
0.0
 11
12.655612411288869
 21
16.61541038593354
 31
0.0
  0
LINE
  5
172
  8
0
 62
     0
 10
10.75499999999999
 20
14.57337661840735
 30
0.0
 11
12.699251980783631
 21
16.517628599190981
 31
0.0
  0
LINE
  5
173
  8
0
 62
     0
 10
10.75499999999999
 20
14.431955262170041
 30
0.0
 11
12.73713563115315
 21
16.414090893323191
 31
0.0
  0
LINE
  5
174
  8
0
 62
     0
 10
10.75499999999999
 20
14.29053390593273
 30
0.0
 11
12.768669326167331
 21
16.304203232100068
 31
0.0
  0
LINE
  5
175
  8
0
 62
     0
 10
10.82088745030457
 20
14.215
 30
0.0
 11
12.79303113012304
 21
16.187143679818458
 31
0.0
  0
LINE
  5
176
  8
0
 62
     0
 10
10.962308806541881
 20
14.215
 30
0.0
 11
12.809052621510171
 21
16.061743814968288
 31
0.0
  0
LINE
  5
177
  8
0
 62
     0
 10
11.10373016277919
 20
14.215
 30
0.0
 11
12.81499948851172
 21
15.92626932573253
 31
0.0
  0
LINE
  5
178
  8
0
 62
     0
 10
11.245151519016501
 20
14.215
 30
0.0
 11
12.808122251093319
 21
15.77797073207682
 31
0.0
  0
LINE
  5
179
  8
0
 62
     0
 10
11.38657287525381
 20
14.215
 30
0.0
 11
12.783588631445481
 21
15.612015756191671
 31
0.0
  0
LINE
  5
17A
  8
0
 62
     0
 10
11.52799423149111
 20
14.215
 30
0.0
 11
12.731254429283981
 21
15.41826019779286
 31
0.0
  0
LINE
  5
17B
  8
0
 62
     0
 10
11.66941558772843
 20
14.215
 30
0.0
 11
11.999808236352161
 21
14.54539264862373
 31
0.0
  0
LINE
  5
17C
  8
0
 62
     0
 10
12.00867663314944
 20
14.55426104542102
 30
0.0
 11
12.61960735137626
 21
15.16519176364783
 31
0.0
  0
LINE
  5
17D
  8
0
 62
     0
 10
11.810836943965731
 20
14.215
 30
0.0
 11
12.108037487788099
 21
14.51220054382236
 31
0.0
  0
LINE
  5
17E
  8
0
 62
     0
 10
11.95225830020304
 20
14.215
 30
0.0
 11
12.20328965915022
 21
14.466031358947181
 31
0.0
  0
LINE
  5
17F
  8
0
 62
     0
 10
12.093679656440351
 20
14.215
 30
0.0
 11
12.294643919212939
 21
14.415964262772579
 31
0.0
  0
LINE
  5
180
  8
0
 62
     0
 10
12.23510101267766
 20
14.215
 30
0.0
 11
12.382266506587831
 21
14.36216549391016
 31
0.0
  0
LINE
  5
181
  8
0
 62
     0
 10
12.376522368914969
 20
14.215
 30
0.0
 11
12.46628661553598
 21
14.30476424662101
 31
0.0
  0
LINE
  5
182
  8
0
 62
     0
 10
12.51794372515228
 20
14.215
 30
0.0
 11
12.54680174666866
 21
14.243858021516379
 31
0.0
  0
ENDBLK
  5
184
  8
0
  0
BLOCK
  8
0
  2
*X9
 70
     1
 10
0.0
 20
0.0
 30
0.0
  3
*X9
  1

  0
LINE
  5
186
  8
0
 62
     0
 10
10.75499999999999
 20
10.89642135623731
 30
0.0
 11
13.20345567881146
 21
13.344877035048761
 31
0.0
  0
LINE
  5
187
  8
0
 62
     0
 10
10.75499999999999
 20
11.03784271247461
 30
0.0
 11
13.162389701849291
 21
13.4452324143239
 31
0.0
  0
LINE
  5
188
  8
0
 62
     0
 10
10.75499999999999
 20
11.17926406871192
 30
0.0
 11
13.11715841360858
 21
13.54142248232051
 31
0.0
  0
LINE
  5
189
  8
0
 62
     0
 10
10.75499999999999
 20
11.320685424949231
 30
0.0
 11
13.06798435218605
 21
13.633669777135291
 31
0.0
  0
LINE
  5
18A
  8
0
 62
     0
 10
10.75499999999999
 20
11.46210678118654
 30
0.0
 11
13.015043382565789
 21
13.722150163752341
 31
0.0
  0
LINE
  5
18B
  8
0
 62
     0
 10
10.75499999999999
 20
11.603528137423851
 30
0.0
 11
12.936471862576139
 21
13.785
 31
0.0
  0
LINE
  5
18C
  8
0
 62
     0
 10
10.75499999999999
 20
11.74494949366116
 30
0.0
 11
12.79505050633883
 21
13.785
 31
0.0
  0
LINE
  5
18D
  8
0
 62
     0
 10
10.75499999999999
 20
11.886370849898469
 30
0.0
 11
12.653629150101519
 21
13.785
 31
0.0
  0
LINE
  5
18E
  8
0
 62
     0
 10
10.75499999999999
 20
12.02779220613578
 30
0.0
 11
12.51220779386421
 21
13.785
 31
0.0
  0
LINE
  5
18F
  8
0
 62
     0
 10
10.75499999999999
 20
12.169213562373089
 30
0.0
 11
12.370786437626901
 21
13.785
 31
0.0
  0
LINE
  5
190
  8
0
 62
     0
 10
10.75499999999999
 20
12.3106349186104
 30
0.0
 11
12.22936508138959
 21
13.785
 31
0.0
  0
LINE
  5
191
  8
0
 62
     0
 10
10.75499999999999
 20
12.45205627484771
 30
0.0
 11
12.087943725152281
 21
13.785
 31
0.0
  0
LINE
  5
192
  8
0
 62
     0
 10
10.75499999999999
 20
12.593477631085021
 30
0.0
 11
11.94652236891497
 21
13.785
 31
0.0
  0
LINE
  5
193
  8
0
 62
     0
 10
10.75499999999999
 20
12.73489898732233
 30
0.0
 11
11.80510101267766
 21
13.785
 31
0.0
  0
LINE
  5
194
  8
0
 62
     0
 10
10.75499999999999
 20
12.876320343559639
 30
0.0
 11
11.663679656440349
 21
13.785
 31
0.0
  0
LINE
  5
195
  8
0
 62
     0
 10
10.75499999999999
 20
13.01774169979695
 30
0.0
 11
11.52225830020304
 21
13.785
 31
0.0
  0
LINE
  5
196
  8
0
 62
     0
 10
10.75499999999999
 20
13.159163056034259
 30
0.0
 11
11.380836943965731
 21
13.785
 31
0.0
  0
LINE
  5
197
  8
0
 62
     0
 10
10.75499999999999
 20
13.30058441227157
 30
0.0
 11
11.23941558772842
 21
13.785
 31
0.0
  0
LINE
  5
198
  8
0
 62
     0
 10
10.75499999999999
 20
13.44200576850888
 30
0.0
 11
11.097994231491111
 21
13.785
 31
0.0
  0
LINE
  5
199
  8
0
 62
     0
 10
10.75499999999999
 20
13.583427124746191
 30
0.0
 11
10.95657287525381
 21
13.785
 31
0.0
  0
LINE
  5
19A
  8
0
 62
     0
 10
10.75499999999999
 20
13.7248484809835
 30
0.0
 11
10.815151519016499
 21
13.785
 31
0.0
  0
LINE
  5
19B
  8
0
 62
     0
 10
10.75499999999999
 20
10.75499999999999
 30
0.0
 11
13.240075755401939
 21
13.240075755401939
 31
0.0
  0
LINE
  5
19C
  8
0
 62
     0
 10
10.75499999999999
 20
10.61357864376269
 30
0.0
 11
13.271895082394099
 21
13.13047372615679
 31
0.0
  0
LINE
  5
19D
  8
0
 62
     0
 10
10.78284395292507
 20
10.50000124045045
 30
0.0
 11
13.29846094958801
 21
13.01561823711339
 31
0.0
  0
LINE
  5
19E
  8
0
 62
     0
 10
10.924265309162379
 20
10.50000124045045
 30
0.0
 11
13.319187396702601
 21
12.89492332799067
 31
0.0
  0
LINE
  5
19F
  8
0
 62
     0
 10
11.06568666539969
 20
10.50000124045045
 30
0.0
 11
13.333300102664319
 21
12.767614677715089
 31
0.0
  0
LINE
  5
1A0
  8
0
 62
     0
 10
11.207108021637
 20
10.50000124045045
 30
0.0
 11
13.339746332228669
 21
12.63263955104213
 31
0.0
  0
LINE
  5
1A1
  8
0
 62
     0
 10
11.351489740603171
 20
10.50296160317931
 30
0.0
 11
13.337038396820679
 21
12.48851025939682
 31
0.0
  0
LINE
  5
1A2
  8
0
 62
     0
 10
11.50699107720297
 20
10.517041583541801
 30
0.0
 11
13.32295841645819
 21
12.333008922797021
 31
0.0
  0
LINE
  5
1A3
  8
0
 62
     0
 10
11.677435573684759
 20
10.54606472378628
 30
0.0
 11
13.293935276213711
 21
12.16256442631523
 31
0.0
  0
LINE
  5
1A4
  8
0
 62
     0
 10
11.86929982173049
 20
10.59650761559471
 30
0.0
 11
13.243492384405281
 21
11.9707001782695
 31
0.0
  0
LINE
  5
1A5
  8
0
 62
     0
 10
12.097073973158301
 20
10.682860410785199
 30
0.0
 11
13.15713958921479
 21
11.74292602684169
 31
0.0
  0
LINE
  5
1A6
  8
0
 62
     0
 10
12.41538471448807
 20
10.85974979587767
 30
0.0
 11
12.980250204122321
 21
11.424615285511919
 31
0.0
  0
ENDBLK
  5
1A8
  8
0
  0
BLOCK
  8
0
  2
A$C4
 70
     0
 10
0.0
 20
0.0
 30
0.0
  3
A$C4
  1

  0
TEXT
  5
1AA
  8
RAAMI
 10
-0.2441931095487746
 20
5.2673594271254771
 30
0.0
 40
1.399999999999999
  1
PROJ
  7
ROMANS
  0
LINE
  5
1AB
  8
PISTKATK
  6
DASHDOT
 10
17.718000433552628
 20
3.1785155246459271
 30
0.0
 11
14.375424355772051
 21
3.1785155246459271
 31
0.0
  0
CIRCLE
  5
1AC
  8
RAAMI
 10
17.718000433552628
 20
3.1785155246459271
 30
0.0
 40
2.3436537871156058
  0
LINE
  5
1AD
  8
PISTKATK
  6
DASHDOT
 10
13.45279153821954
 20
3.1832370311318452
 30
0.0
 11
6.2161169275761656
 21
3.1832370311318452
 31
0.0
  0
LINE
  5
1AE
  8
RAAMI
 10
7.2990735606409771
 20
2.0289021840865331
 30
0.0
 11
12.30956819013314
 21
0.8745673370412134
 31
0.0
  0
LINE
  5
1AF
  8
RAAMI
 10
12.30956819013314
 20
5.4919067252224814
 30
0.0
 11
7.2990735606409771
 21
4.222138393472636
 31
0.0
  0
LINE
  5
1B0
  8
RAAMI
 10
7.2990735606409771
 20
4.222138393472636
 30
0.0
 11
7.2990735606409771
 21
2.0289021840865331
 31
0.0
  0
LINE
  5
1B1
  8
RAAMI
 10
12.30956819013314
 20
0.8745673370412134
 30
0.0
 11
12.30956819013314
 21
5.4919067252224814
 31
0.0
  0
LINE
  5
1B2
  8
PISTKATK
  6
DASHDOT
 10
17.718000433552628
 20
3.1785155246459271
 30
0.0
 11
17.718000433552628
 21
0.021462716470495
 31
0.0
  0
LINE
  5
1B3
  8
PISTKATK
  6
DASHDOT
 10
17.718000433552628
 20
3.1785155246459271
 30
0.0
 11
17.718000433552628
 21
6.3355683328213601
 31
0.0
  0
LINE
  5
1B4
  8
PISTKATK
  6
DASHDOT
 10
17.718000433552628
 20
3.1785155246459271
 30
0.0
 11
21.060576511333199
 21
3.1785155246459271
 31
0.0
  0
CIRCLE
  5
1B5
  8
RAAMI
 10
17.718000433552628
 20
3.1785155246459271
 30
0.0
 40
1.1146645383722451
  0
ENDBLK
  5
1B7
  8
0
  0
BLOCK
  8
0
  2
ABB3T
 70
     0
 10
0.0
 20
0.0
 30
0.0
  3
ABB3T
  1

  0
LINE
  5
1EF
  8
PAKSU
 10
0.0
 20
0.0
 30
0.0
 11
0.0
 21
262.5
 31
0.0
  0
LINE
  5
1F0
  8
PAKSU
 10
392.0
 20
262.5
 30
0.0
 11
392.0
 21
0.0
 31
0.0
  0
LINE
  5
1F1
  8
PAKSU
 10
0.0
 20
0.0
 30
0.0
 11
392.0
 21
0.0
 31
0.0
  0
TEXT
  5
1F2
  8
RAAMI
 10
42.0
 20
0.9523809523809526
 30
0.0
 40
2.5
  1
B
  7
ROMANS
  0
TEXT
  5
1F3
  8
RAAMI
 10
42.0
 20
5.354421058643247
 30
0.0
 40
2.5
  1
C
  7
ROMANS
  0
TEXT
  5
1F4
  8
RAAMI
 10
229.55338193795569
 20
1.5201476350649139
 30
0.0
 40
2.4300000000000002
  1
ABB Substation Automation Oy
 41
0.8
  7
ROMANS
  0
TEXT
  5
1F5
  8
RAAMI
 10
283.97425333656832
 20
7.0
 30
0.0
 40
1.399999999999999
  1
OSASTO DEPT.
  7
ROMANS
  0
TEXT
  5
1F6
  8
RAAMI
 10
210.0
 20
32.0
 30
0.0
 40
1.399999999999999
  1
TEKI  PREPARED
  7
ROMANS
  0
LINE
  5
1F7
  8
OHUT
 10
281.97425333656832
 20
9.5
 30
0.0
 11
281.97425333656832
 21
0.0
 31
0.0
  0
LINE
  5
1F8
  8
OHUT
 10
257.0
 20
9.5
 30
0.0
 11
257.0
 21
35.0
 31
0.0
  0
LINE
  5
1F9
  8
OHUT
 10
40.499999999999993
 20
4.5
 30
0.0
 11
209.0
 21
4.5
 31
0.0
  0
LINE
  5
1FA
  8
OHUT
 10
46.5
 20
0.0
 30
0.0
 11
46.5
 21
9.0
 31
0.0
  0
LINE
  5
1FB
  8
OHUT
 10
46.5
 20
9.0
 30
0.0
 11
209.0
 21
9.0
 31
0.0
  0
TEXT
  5
1FC
  8
RAAMI
 10
27.5
 20
2.2333333333333338
 30
0.0
 40
1.399999999999999
  1
REVISION
  7
ROMANS
  0
TEXT
  5
1FD
  8
RAAMI
 10
27.5
 20
4.5
 30
0.0
 40
1.399999999999999
  1
MUUTOS
  7
ROMANS
  0
LINE
  5
1FE
  8
OHUT
 10
282.0
 20
9.5
 30
0.0
 11
282.0
 21
18.0
 31
0.0
  0
LINE
  5
1FF
  8
RAAMI
 10
209.9499999999999
 20
1.5
 30
0.0
 11
211.6999999999999
 21
1.5
 31
0.0
  0
LINE
  5
200
  8
OHUT
 10
369.5
 20
18.0
 30
0.0
 11
369.5
 21
0.0
 31
0.0
  0
TEXT
  5
201
  8
RAAMI
 10
371.0
 20
7.0
 30
0.0
 40
1.399999999999999
  1
PAINOS  REVISION
  7
ROMANS
  0
TEXT
  5
202
  8
RAAMI
 10
309.0
 20
32.5
 30
0.0
 40
1.399999999999999
  1
NIMITYS  NAME
  7
ROMANS
  0
TEXT
  5
203
  8
RAAMI
 10
259.0
 20
15.5
 30
0.0
 40
1.399999999999999
  1
SUHDE  SCALE
  7
ROMANS
  0
TEXT
  5
204
  8
RAAMI
 10
259.0
 20
23.5
 30
0.0
 40
1.399999999999999
  1
TOLERANSSIT  TOLERANCES
  7
ROMANS
  0
TEXT
  5
205
  8
RAAMI
 10
259.0
 20
32.5
 30
0.0
 40
1.399999999999999
  1
LIITTYY  CONCERNING
  7
ROMANS
  0
LINE
  5
206
  8
OHUT
 10
307.0
 20
0.0
 30
0.0
 11
307.0
 21
35.0
 31
0.0
  0
TEXT
  5
207
  8
RAAMI
 10
209.74283472586629
 20
15.46666666666666
 30
0.0
 40
1.399999999999999
  1
HYVÄKSYI  APPROVED
  7
ROMANS
  0
TEXT
  5
208
  8
RAAMI
 10
210.0
 20
23.733333333333331
 30
0.0
 40
1.399999999999999
  1
TARKASTI  CHECKED
  7
ROMANS
  0
LINE
  5
209
  8
PAKSU
 10
209.0
 20
35.0
 30
0.0
 11
392.0
 21
35.0
 31
0.0
  0
LINE
  5
20A
  8
OHUT
 10
209.0
 20
26.5
 30
0.0
 11
307.0
 21
26.5
 31
0.0
  0
LINE
  5
20B
  8
OHUT
 10
209.0
 20
9.5
 30
0.0
 11
392.0
 21
9.5
 31
0.0
  0
LINE
  5
20C
  8
OHUT
 10
209.0
 20
18.0
 30
0.0
 11
392.0
 21
18.0
 31
0.0
  0
LINE
  5
20D
  8
PAKSU
 10
392.0
 20
0.0
 30
0.0
 11
392.0
 21
35.0
 31
0.0
  0
LINE
  5
20E
  8
PAKSU
 10
209.0
 20
0.0
 30
0.0
 11
209.0
 21
35.0
 31
0.0
  0
LINE
  5
20F
  8
PAKSU
 10
209.0
 20
0.0
 30
0.0
 11
392.0
 21
0.0
 31
0.0
  0
LINE
  5
210
  8
PAKSU
 10
0.0
 20
262.5
 30
0.0
 11
392.0
 21
262.5
 31
0.0
  0
TEXT
  5
211
  8
RAAMI
 10
309.0
 20
7.0
 30
0.0
 40
1.399999999999999
  1
PIIRUSTUS NO  DRAWING NO
  7
ROMANS
  0
INSERT
  5
212
  8
RAAMI
  2
LOGO
 10
209.0
 20
-9.0
 30
0.0
  0
TEXT
  5
213
  8
RAAMI
 10
283.55482520994389
 20
15.500966000653291
 30
0.0
 40
1.399999999999999
  1
PROJ
  7
ROMANS
  0
LINE
  5
214
  8
RAAMI
  6
DASHDOT
 10
301.51701875304531
 20
13.41212209817375
 30
0.0
 11
298.17444267526469
 21
13.41212209817375
 31
0.0
  0
CIRCLE
  5
215
  8
RAAMI
 10
301.51701875304531
 20
13.41212209817375
 30
0.0
 40
2.3436537871156058
  0
LINE
  5
216
  8
RAAMI
  6
DASHDOT
 10
297.2518098577122
 20
13.416843604659659
 30
0.0
 11
290.01513524706883
 21
13.416843604659659
 31
0.0
  0
LINE
  5
217
  8
RAAMI
 10
291.09809188013361
 20
12.26250875761435
 30
0.0
 11
296.10858650962581
 21
11.108173910569031
 31
0.0
  0
LINE
  5
218
  8
RAAMI
 10
296.10858650962581
 20
15.7255132987503
 30
0.0
 11
291.09809188013361
 21
14.455744967000459
 31
0.0
  0
LINE
  5
219
  8
RAAMI
 10
291.09809188013361
 20
14.455744967000459
 30
0.0
 11
291.09809188013361
 21
12.26250875761435
 31
0.0
  0
LINE
  5
21A
  8
RAAMI
 10
296.10858650962581
 20
11.108173910569031
 30
0.0
 11
296.10858650962581
 21
15.7255132987503
 31
0.0
  0
LINE
  5
21B
  8
RAAMI
  6
DASHDOT
 10
301.51701875304531
 20
13.41212209817375
 30
0.0
 11
301.51701875304531
 21
10.25506928999831
 31
0.0
  0
LINE
  5
21C
  8
RAAMI
  6
DASHDOT
 10
301.51701875304531
 20
13.41212209817375
 30
0.0
 11
301.51701875304531
 21
16.569174906349179
 31
0.0
  0
LINE
  5
21D
  8
RAAMI
  6
DASHDOT
 10
301.51701875304531
 20
13.41212209817375
 30
0.0
 11
304.85959483082593
 21
13.41212209817375
 31
0.0
  0
CIRCLE
  5
21E
  8
RAAMI
 10
301.51701875304531
 20
13.41212209817375
 30
0.0
 40
1.1146645383722451
  0
TEXT
  5
21F
  8
RAAMI
 10
371.0
 20
15.058467927016061
 30
0.0
 40
1.399999999999999
  1
LEHTI   SHEET
  7
ROMANS
  0
ENDBLK
  5
221
  8
0
  0
BLOCK
  8
0
  2
VT
 70
     0
 10
0.0
 20
0.0
 30
0.0
  3
VT
  1

  0
LINE
  5
381
  8
TEXT25
 10
-20.0
 20
0.0
 30
0.0
 11
0.0
 21
0.0
 31
0.0
  0
LINE
  5
382
  8
TEXT25
 10
-20.0
 20
9.0
 30
0.0
 11
0.0
 21
9.0
 31
0.0
  0
POLYLINE
  5
383
  8
TEXT25
 66
     1
 10
0.0
 20
0.0
 30
0.0
  0
VERTEX
  5
B4D
  8
TEXT25
 10
-26.0
 20
4.4999999999999707
 30
0.0
 42
1.0
  0
VERTEX
  5
B4E
  8
TEXT25
 10
-26.0
 20
8.9999999999999716
 30
0.0
 42
-0.9999999999999998
  0
SEQEND
  5
B4F
  8
TEXT25
  0
POLYLINE
  5
384
  8
TEXT25
 66
     1
 10
0.0
 20
0.0
 30
0.0
  0
VERTEX
  5
B50
  8
TEXT25
 10
-26.0
 20
-0.0000000000000284
 30
0.0
 42
1.0
  0
VERTEX
  5
B51
  8
TEXT25
 10
-26.0
 20
4.4999999999999707
 30
0.0
 42
-0.9999999999999998
  0
SEQEND
  5
B52
  8
TEXT25
  0
LINE
  5
385
  8
TEXT25
 10
-26.0
 20
0.0
 30
0.0
 11
-32.0
 21
0.0
 31
0.0
  0
LINE
  5
386
  8
TEXT25
 10
-26.0
 20
9.0
 30
0.0
 11
-32.0
 21
9.0
 31
0.0
  0
LINE
  5
387
  8
TEXT25
 10
-23.0
 20
9.0
 30
0.0
 11
-23.0
 21
0.0
 31
0.0
  0
POLYLINE
  5
388
  8
TEXT25
 66
     1
 10
0.0
 20
0.0
 30
0.0
  0
VERTEX
  5
B53
  8
TEXT25
 10
-20.0
 20
-0.0000000000000284
 30
0.0
 42
-1.0
  0
VERTEX
  5
B54
  8
TEXT25
 10
-20.0
 20
4.4999999999999707
 30
0.0
 42
0.9999999999999998
  0
SEQEND
  5
B55
  8
TEXT25
  0
POLYLINE
  5
389
  8
TEXT25
 66
     1
 10
0.0
 20
0.0
 30
0.0
  0
VERTEX
  5
B56
  8
TEXT25
 10
-20.0
 20
4.4999999999999707
 30
0.0
 42
-1.0
  0
VERTEX
  5
B57
  8
TEXT25
 10
-20.0
 20
8.9999999999999716
 30
0.0
 42
0.9999999999999998
  0
SEQEND
  5
B58
  8
TEXT25
  0
ENDBLK
  5
369
  8
0
  0
BLOCK
  8
0
  2
CT
 70
     0
 10
0.0
 20
0.0
 30
0.0
  3
CT
  1

  0
LINE
  5
3A0
  8
TEXT25
 10
-20.0
 20
-9.0
 30
0.0
 11
0.0
 21
-9.0
 31
0.0
  0
POLYLINE
  5
3A1
  8
TEXT25
 66
     1
 10
0.0
 20
0.0
 30
0.0
  0
VERTEX
  5
B5A
  8
TEXT25
 10
-26.0
 20
-6.0
 30
0.0
 42
-0.9999999999999998
  0
VERTEX
  5
B5B
  8
TEXT25
 10
-26.0
 20
-9.0
 30
0.0
 42
1.0
  0
SEQEND
  5
B5C
  8
TEXT25
  0
POLYLINE
  5
3A2
  8
TEXT25
 66
     1
 10
0.0
 20
0.0
 30
0.0
  0
VERTEX
  5
B5D
  8
TEXT25
 10
-20.0
 20
-6.0
 30
0.0
 42
0.9999999999999998
  0
VERTEX
  5
B5E
  8
TEXT25
 10
-20.0
 20
-9.0
 30
0.0
 42
-1.0
  0
SEQEND
  5
B5F
  8
TEXT25
  0
LINE
  5
3A3
  8
TEXT25
 10
-26.0
 20
-9.0
 30
0.0
 11
-32.0
 21
-9.0
 31
0.0
  0
POLYLINE
  5
3A4
  8
TEXT25
 66
     1
 10
0.0
 20
0.0
 30
0.0
  0
VERTEX
  5
B60
  8
TEXT25
 10
-26.0
 20
-3.0
 30
0.0
 42
-0.9999999999999998
  0
VERTEX
  5
B61
  8
TEXT25
 10
-26.0
 20
-6.0
 30
0.0
 42
1.0
  0
SEQEND
  5
B62
  8
TEXT25
  0
POLYLINE
  5
3A5
  8
TEXT25
 66
     1
 10
0.0
 20
0.0
 30
0.0
  0
VERTEX
  5
B63
  8
TEXT25
 10
-26.0
 20
0.0
 30
0.0
 42
-0.9999999999999998
  0
VERTEX
  5
B64
  8
TEXT25
 10
-26.0
 20
-3.0
 30
0.0
 42
1.0
  0
SEQEND
  5
B65
  8
TEXT25
  0
LINE
  5
3A6
  8
TEXT25
 10
-26.0
 20
0.0
 30
0.0
 11
-32.0
 21
0.0
 31
0.0
  0
POLYLINE
  5
3A7
  8
TEXT25
 66
     1
 10
0.0
 20
0.0
 30
0.0
  0
VERTEX
  5
B66
  8
TEXT25
 10
-20.0
 20
0.0
 30
0.0
 42
0.9999999999999998
  0
VERTEX
  5
B67
  8
TEXT25
 10
-20.0
 20
-3.0
 30
0.0
 42
-1.0
  0
SEQEND
  5
B68
  8
TEXT25
  0
LINE
  5
3A8
  8
TEXT25
 10
-20.0
 20
-3.0
 30
0.0
 11
-18.0
 21
-3.0
 31
0.0
  0
POLYLINE
  5
3A9
  8
TEXT25
 66
     1
 10
0.0
 20
0.0
 30
0.0
  0
VERTEX
  5
B69
  8
TEXT25
 10
-20.0
 20
-3.0
 30
0.0
 42
0.9999999999999998
  0
VERTEX
  5
B6A
  8
TEXT25
 10
-20.0
 20
-6.0
 30
0.0
 42
-1.0
  0
SEQEND
  5
B6B
  8
TEXT25
  0
LINE
  5
3AA
  8
TEXT25
 10
-20.0
 20
0.0
 30
0.0
 11
-18.0
 21
0.0
 31
0.0
  0
LINE
  5
3AB
  8
TEXT25
 10
-13.5
 20
-3.0
 30
0.0
 11
0.0
 21
-3.0
 31
0.0
  0
LINE
  5
3AC
  8
TEXT25
 10
-13.5
 20
0.0
 30
0.0
 11
0.0
 21
0.0
 31
0.0
  0
TEXT
  5
3AD
  8
TEXT25
 10
-17.5
 20
-4.2380952380952399
 30
0.0
 40
2.0
  1
5A
 41
0.9
  7
T25
  0
TEXT
  5
3AE
  8
TEXT25
 10
-17.5
 20
-1.0
 30
0.0
 40
2.0
  1
1A
 41
0.9
  7
T25
  0
ENDBLK
  5
39F
  8
0
  0
BLOCK
  8
0
  2
SENS
 70
     0
 10
0.0
 20
0.0
 30
0.0
  3
SENS
  1

  0
LINE
  5
3F9
  8
TEXT25
 10
-8.0
 20
1.0
 30
0.0
 11
-25.0
 21
1.0
 31
0.0
  0
LINE
  5
3FA
  8
TEXT25
 10
-25.0
 20
4.0
 30
0.0
 11
-8.0
 21
4.0
 31
0.0
  0
LINE
  5
3FB
  8
TEXT25
 10
-34.0
 20
7.0
 30
0.0
 11
-25.0
 21
7.0
 31
0.0
  0
LINE
  5
3FC
  8
TEXT25
 10
-25.0
 20
-2.0
 30
0.0
 11
-34.0
 21
-2.0
 31
0.0
  0
POLYLINE
  5
3FD
  8
TEXT25
 66
     1
 10
0.0
 20
0.0
 30
0.0
 70
     1
  0
VERTEX
  5
B6D
  8
TEXT25
 10
-26.5
 20
6.0
 30
0.0
  0
VERTEX
  5
B6E
  8
TEXT25
 10
-26.5
 20
-1.0
 30
0.0
  0
VERTEX
  5
B6F
  8
TEXT25
 10
-33.0
 20
2.5
 30
0.0
  0
SEQEND
  5
B70
  8
TEXT25
  0
TEXT
  5
3FE
  8
TEXT25
 10
-33.5
 20
-1.5
 30
0.0
 40
1.5
  1
DIFF
 41
0.9
  7
T25
  0
LINE
  5
3FF
  8
TEXT25
 10
-34.0
 20
-2.0
 30
0.0
 11
-34.0
 21
7.0
 31
0.0
  0
LINE
  5
400
  8
TEXT25
 10
-34.0
 20
2.5
 30
0.0
 11
-39.0
 21
2.5
 31
0.0
  0
LINE
  5
401
  8
TEXT25
 10
-40.0
 20
2.5
 30
0.0
 11
-38.0
 21
3.5
 31
0.0
  0
LINE
  5
402
  8
TEXT25
 10
-38.0
 20
3.5
 30
0.0
 11
-38.0
 21
1.5
 31
0.0
  0
LINE
  5
403
  8
TEXT25
 10
-38.0
 20
1.5
 30
0.0
 11
-40.0
 21
2.5
 31
0.0
  0
INSERT
  5
404
  8
TEXT25
  6
CONTINUOUS
  2
*U22
 10
0.0
 20
0.0
 30
0.0
1001
ACAD
1002
{
1000
R14_HATCH_DATA
1000
404
1011
1.0
1021
3.7657060863361795E+175
1031
9.5004932111745217E+137
1021
0.0
1031
0.0
1011
0.0
1021
3.7657060863361795E+175
1031
9.5004932111745217E+137
1021
1.0
1031
0.0
1011
0.0
1021
3.7657060863361795E+175
1031
9.5004932111745217E+137
1021
0.0
1031
1.0
1040
0.0
1010
0.0
1020
0.0
1030
1.0
1000
SOLID
1070
     1
1070
     0
1071
        1
1071
        1
1071
        3
1070
     1
1040
-40.0
1040
2.5
1040
-38.0
1040
3.5
1070
     1
1040
-38.0
1040
3.5
1040
-38.0
1040
1.5
1070
     1
1040
-38.0
1040
1.5
1040
-40.0
1040
2.5
1071
        0
1070
     0
1070
     1
1071
        1
1040
-194.0
1040
-114.0
1040
0.0
1002
}
  0
LINE
  5
405
  8
TEXT25
 10
-25.0
 20
7.0
 30
0.0
 11
-25.0
 21
-2.0
 31
0.0
  0
POLYLINE
  5
406
  8
TEXT25
 66
     1
 10
0.0
 20
0.0
 30
0.0
 70
     1
  0
VERTEX
  5
B77
  8
TEXT25
 10
-8.0
 20
5.0
 30
0.0
  0
VERTEX
  5
B78
  8
TEXT25
 10
0.0
 20
5.0
 30
0.0
  0
VERTEX
  5
B79
  8
TEXT25
 10
0.0
 20
0.0
 30
0.0
  0
VERTEX
  5
B7A
  8
TEXT25
 10
-8.0
 20
0.0
 30
0.0
  0
SEQEND
  5
B7B
  8
TEXT25
  0
ENDBLK
  5
3F8
  8
0
  0
BLOCK
  8
0
  2
UFTRAFO
 70
     0
 10
0.0
 20
0.0
 30
0.0
  3
UFTRAFO
  1

  0
LINE
  5
703
  8
TEXT25
 10
11.750000196171349
 20
17.999999781705458
 30
0.0
 11
11.750000196171349
 21
6.5
 31
0.0
  0
POLYLINE
  5
704
  8
TEXT25
 66
     1
 10
0.0
 20
0.0
 30
0.0
  0
VERTEX
  5
B7D
  8
TEXT25
 10
8.1500001961713338
 20
7.9999997817054691
 30
0.0
 42
1.0
  0
VERTEX
  5
B7E
  8
TEXT25
 10
4.550000196171367
 20
7.9999997817054691
 30
0.0
 42
-0.9999999999999998
  0
SEQEND
  5
B7F
  8
TEXT25
  0
POLYLINE
  5
705
  8
TEXT25
 66
     1
 10
0.0
 20
0.0
 30
0.0
  0
VERTEX
  5
B80
  8
TEXT25
 10
0.9500001961713451
 20
7.9999997817054691
 30
0.0
 42
-1.0
  0
VERTEX
  5
B81
  8
TEXT25
 10
4.550000196171367
 20
7.9999997817054691
 30
0.0
 42
0.9999999999999998
  0
SEQEND
  5
B82
  8
TEXT25
  0
POLYLINE
  5
706
  8
TEXT25
 66
     1
 10
0.0
 20
0.0
 30
0.0
  0
VERTEX
  5
B83
  8
TEXT25
 10
11.750000196171349
 20
7.9999997817054691
 30
0.0
 42
1.0
  0
VERTEX
  5
B84
  8
TEXT25
 10
8.1500001961713338
 20
7.9999997817054691
 30
0.0
 42
-0.9999999999999998
  0
SEQEND
  5
B85
  8
TEXT25
  0
POLYLINE
  5
707
  8
TEXT25
 66
     1
 10
0.0
 20
0.0
 30
0.0
  0
VERTEX
  5
B86
  8
TEXT25
 10
25.15000019617133
 20
8.4999997817054691
 30
0.0
 42
1.0
  0
VERTEX
  5
B87
  8
TEXT25
 10
21.550000196171371
 20
8.4999997817054691
 30
0.0
 42
-0.9999999999999998
  0
SEQEND
  5
B88
  8
TEXT25
  0
POLYLINE
  5
708
  8
TEXT25
 66
     1
 10
0.0
 20
0.0
 30
0.0
  0
VERTEX
  5
B89
  8
TEXT25
 10
28.75000019617136
 20
8.4999997817054691
 30
0.0
 42
1.0
  0
VERTEX
  5
B8A
  8
TEXT25
 10
25.15000019617133
 20
8.4999997817054691
 30
0.0
 42
-0.9999999999999998
  0
SEQEND
  5
B8B
  8
TEXT25
  0
POLYLINE
  5
709
  8
TEXT25
 66
     1
 10
0.0
 20
0.0
 30
0.0
  0
VERTEX
  5
B8C
  8
TEXT25
 10
17.950000196171342
 20
8.4999997817054691
 30
0.0
 42
-1.0
  0
VERTEX
  5
B8D
  8
TEXT25
 10
21.550000196171371
 20
8.4999997817054691
 30
0.0
 42
0.9999999999999998
  0
SEQEND
  5
B8E
  8
TEXT25
  0
LINE
  5
70A
  8
TEXT25
 10
10.750000196171349
 20
-14.0
 30
0.0
 11
12.250000196171349
 21
-14.0
 31
0.0
  0
LINE
  5
70B
  8
TEXT25
 10
12.750000196171349
 20
-14.0
 30
0.0
 11
10.750000196171349
 21
-14.0
 31
0.0
  0
LINE
  5
70C
  8
TEXT25
 10
12.250000196171349
 20
-14.5
 30
0.0
 11
11.250000196171349
 21
-14.5
 31
0.0
  0
LINE
  5
70D
  8
TEXT25
 10
11.750000196171349
 20
-1.0
 30
0.0
 11
0.0
 21
-2.5
 31
0.0
  0
LINE
  5
70E
  8
TEXT25
 10
11.750000196171349
 20
-6.0
 30
0.0
 11
0.0
 21
-7.5
 31
0.0
  0
POLYLINE
  5
70F
  8
TEXT25
 66
     1
 10
0.0
 20
0.0
 30
0.0
  0
VERTEX
  5
B8F
  8
TEXT25
 10
8.1500001961713338
 20
-5.00000021829453
 30
0.0
 42
1.0
  0
VERTEX
  5
B90
  8
TEXT25
 10
4.550000196171367
 20
-5.00000021829453
 30
0.0
 42
-0.9999999999999998
  0
SEQEND
  5
B91
  8
TEXT25
  0
LINE
  5
710
  8
TEXT25
 10
11.750000196171349
 20
-12.0
 30
0.0
 11
0.0
 21
-12.0
 31
0.0
  0
POLYLINE
  5
711
  8
TEXT25
 66
     1
 10
0.0
 20
0.0
 30
0.0
  0
VERTEX
  5
B92
  8
TEXT25
 10
8.1500001961713338
 20
-10.000000218294529
 30
0.0
 42
1.0
  0
VERTEX
  5
B93
  8
TEXT25
 10
4.550000196171367
 20
-10.000000218294529
 30
0.0
 42
-0.9999999999999998
  0
SEQEND
  5
B94
  8
TEXT25
  0
LINE
  5
712
  8
TEXT25
 10
0.0
 20
-7.5
 30
0.0
 11
0.0
 21
-10.0
 31
0.0
  0
POLYLINE
  5
713
  8
TEXT25
 66
     1
 10
0.0
 20
0.0
 30
0.0
  0
VERTEX
  5
B95
  8
TEXT25
 10
0.9500001961713451
 20
-10.000000218294529
 30
0.0
 42
-1.0
  0
VERTEX
  5
B96
  8
TEXT25
 10
4.550000196171367
 20
-10.000000218294529
 30
0.0
 42
0.9999999999999998
  0
SEQEND
  5
B97
  8
TEXT25
  0
LINE
  5
714
  8
TEXT25
 10
0.0
 20
-10.0
 30
0.0
 11
1.0
 21
-10.0
 31
0.0
  0
POLYLINE
  5
715
  8
TEXT25
 66
     1
 10
0.0
 20
0.0
 30
0.0
  0
VERTEX
  5
B98
  8
TEXT25
 10
0.9500001961713451
 20
-5.00000021829453
 30
0.0
 42
-1.0
  0
VERTEX
  5
B99
  8
TEXT25
 10
4.550000196171367
 20
-5.00000021829453
 30
0.0
 42
0.9999999999999998
  0
SEQEND
  5
B9A
  8
TEXT25
  0
LINE
  5
716
  8
TEXT25
 10
0.0
 20
-5.0
 30
0.0
 11
1.0
 21
-5.0
 31
0.0
  0
LINE
  5
717
  8
TEXT25
 10
0.0
 20
-2.5
 30
0.0
 11
0.0
 21
-5.0
 31
0.0
  0
LINE
  5
718
  8
TEXT25
 10
13.250000196171349
 20
-13.5
 30
0.0
 11
10.250000196171349
 21
-13.5
 31
0.0
  0
POLYLINE
  5
719
  8
TEXT25
 66
     1
 10
0.0
 20
0.0
 30
0.0
  0
VERTEX
  5
B9B
  8
TEXT25
 10
11.750000196171349
 20
-10.000000218294529
 30
0.0
 42
1.0
  0
VERTEX
  5
B9C
  8
TEXT25
 10
8.1500001961713338
 20
-10.000000218294529
 30
0.0
 42
-0.9999999999999998
  0
SEQEND
  5
B9D
  8
TEXT25
  0
LINE
  5
71A
  8
TEXT25
 10
11.750000196171349
 20
-10.000000218294529
 30
0.0
 11
11.750000196171349
 21
-13.5
 31
0.0
  0
POLYLINE
  5
71B
  8
TEXT25
 66
     1
 10
0.0
 20
0.0
 30
0.0
 70
     1
 40
0.5
 41
0.5
  0
VERTEX
  5
B9E
  8
TEXT25
 10
11.500000196171349
 20
-12.0
 30
0.0
 42
1.0
  0
VERTEX
  5
B9F
  8
TEXT25
 10
12.000000196171349
 20
-12.0
 30
0.0
 42
1.0
  0
SEQEND
  5
BA0
  8
TEXT25
  0
POLYLINE
  5
71C
  8
TEXT25
 66
     1
 10
0.0
 20
0.0
 30
0.0
  0
VERTEX
  5
BA1
  8
TEXT25
 10
11.750000196171349
 20
-5.00000021829453
 30
0.0
 42
1.0
  0
VERTEX
  5
BA2
  8
TEXT25
 10
8.1500001961713338
 20
-5.00000021829453
 30
0.0
 42
-0.9999999999999998
  0
SEQEND
  5
BA3
  8
TEXT25
  0
LINE
  5
71D
  8
TEXT25
 10
11.750000196171349
 20
-5.00000021829453
 30
0.0
 11
11.750000196171349
 21
-6.0
 31
0.0
  0
POLYLINE
  5
71E
  8
TEXT25
 66
     1
 10
0.0
 20
0.0
 30
0.0
  0
VERTEX
  5
BA4
  8
TEXT25
 10
8.1500001961713338
 20
-0.0000002182945309
 30
0.0
 42
1.0
  0
VERTEX
  5
BA5
  8
TEXT25
 10
4.550000196171367
 20
-0.0000002182945309
 30
0.0
 42
-0.9999999999999998
  0
SEQEND
  5
BA6
  8
TEXT25
  0
POLYLINE
  5
71F
  8
TEXT25
 66
     1
 10
0.0
 20
0.0
 30
0.0
  0
VERTEX
  5
BA7
  8
TEXT25
 10
0.9500001961713451
 20
-0.0000002182945309
 30
0.0
 42
-1.0
  0
VERTEX
  5
BA8
  8
TEXT25
 10
4.550000196171367
 20
-0.0000002182945309
 30
0.0
 42
0.9999999999999998
  0
SEQEND
  5
BA9
  8
TEXT25
  0
LINE
  5
720
  8
TEXT25
 10
1.0
 20
0.0
 30
0.0
 11
0.0
 21
0.0
 31
0.0
  0
LINE
  5
721
  8
TEXT25
 10
0.9500001961713451
 20
7.9999997817054691
 30
0.0
 11
-0.5
 21
7.9999997817054691
 31
0.0
  0
POLYLINE
  5
722
  8
TEXT25
 66
     1
 10
0.0
 20
0.0
 30
0.0
  0
VERTEX
  5
BAA
  8
TEXT25
 10
11.750000196171349
 20
-0.0000002182945309
 30
0.0
 42
1.0
  0
VERTEX
  5
BAB
  8
TEXT25
 10
8.1500001961713338
 20
-0.0000002182945309
 30
0.0
 42
-0.9999999999999998
  0
SEQEND
  5
BAC
  8
TEXT25
  0
LINE
  5
723
  8
TEXT25
 10
11.750000196171349
 20
-0.0000002182945309
 30
0.0
 11
11.750000196171349
 21
-1.0
 31
0.0
  0
LINE
  5
724
  8
TEXT25
 10
13.250000196171349
 20
6.5
 30
0.0
 11
10.250000196171349
 21
6.5
 31
0.0
  0
LINE
  5
725
  8
TEXT25
 10
12.250000196171349
 20
5.5
 30
0.0
 11
11.250000196171349
 21
5.5
 31
0.0
  0
LINE
  5
726
  8
TEXT25
 10
12.750000196171349
 20
6.0
 30
0.0
 11
10.750000196171349
 21
6.0
 31
0.0
  0
LINE
  5
727
  8
TEXT25
 10
10.750000196171349
 20
6.0
 30
0.0
 11
12.250000196171349
 21
6.0
 31
0.0
  0
LINE
  5
728
  8
TEXT25
 10
17.950000196171342
 20
8.9999997817054691
 30
0.0
 11
17.950000196171342
 21
-2.5
 31
0.0
  0
LINE
  5
729
  8
TEXT25
 10
18.950000196171342
 20
-3.0
 30
0.0
 11
16.950000196171342
 21
-3.0
 31
0.0
  0
LINE
  5
72A
  8
TEXT25
 10
19.450000196171342
 20
-2.5
 30
0.0
 11
16.450000196171342
 21
-2.5
 31
0.0
  0
LINE
  5
72B
  8
TEXT25
 10
18.450000196171342
 20
-3.5
 30
0.0
 11
17.450000196171342
 21
-3.5
 31
0.0
  0
LINE
  5
72C
  8
TEXT25
 10
16.950000196171342
 20
-3.0
 30
0.0
 11
18.450000196171342
 21
-3.0
 31
0.0
  0
POLYLINE
  5
72D
  8
TEXT25
 66
     1
 10
0.0
 20
0.0
 30
0.0
  0
VERTEX
  5
BAD
  8
TEXT25
 10
25.15000019617133
 20
-1.00000021829453
 30
0.0
 42
1.0
  0
VERTEX
  5
BAE
  8
TEXT25
 10
21.550000196171371
 20
-1.00000021829453
 30
0.0
 42
-0.9999999999999998
  0
SEQEND
  5
BAF
  8
TEXT25
  0
POLYLINE
  5
72E
  8
TEXT25
 66
     1
 10
0.0
 20
0.0
 30
0.0
  0
VERTEX
  5
BB0
  8
TEXT25
 10
25.15000019617133
 20
3.9999997817054691
 30
0.0
 42
1.0
  0
VERTEX
  5
BB1
  8
TEXT25
 10
21.550000196171371
 20
3.9999997817054691
 30
0.0
 42
-0.9999999999999998
  0
SEQEND
  5
BB2
  8
TEXT25
  0
POLYLINE
  5
72F
  8
TEXT25
 66
     1
 10
0.0
 20
0.0
 30
0.0
  0
VERTEX
  5
BB3
  8
TEXT25
 10
17.950000196171342
 20
-1.00000021829453
 30
0.0
 42
-1.0
  0
VERTEX
  5
BB4
  8
TEXT25
 10
21.550000196171371
 20
-1.00000021829453
 30
0.0
 42
0.9999999999999998
  0
SEQEND
  5
BB5
  8
TEXT25
  0
POLYLINE
  5
730
  8
TEXT25
 66
     1
 10
0.0
 20
0.0
 30
0.0
  0
VERTEX
  5
BB6
  8
TEXT25
 10
17.950000196171342
 20
3.9999997817054691
 30
0.0
 42
-1.0
  0
VERTEX
  5
BB7
  8
TEXT25
 10
21.550000196171371
 20
3.9999997817054691
 30
0.0
 42
0.9999999999999998
  0
SEQEND
  5
BB8
  8
TEXT25
  0
POLYLINE
  5
731
  8
TEXT25
 66
     1
 10
0.0
 20
0.0
 30
0.0
  0
VERTEX
  5
BB9
  8
TEXT25
 10
28.75000019617136
 20
-1.00000021829453
 30
0.0
 42
1.0
  0
VERTEX
  5
BBA
  8
TEXT25
 10
25.15000019617133
 20
-1.00000021829453
 30
0.0
 42
-0.9999999999999998
  0
SEQEND
  5
BBB
  8
TEXT25
  0
LINE
  5
732
  8
TEXT25
 10
28.75000019617136
 20
-1.00000021829453
 30
0.0
 11
31.0
 21
-1.00000021829453
 31
0.0
  0
POLYLINE
  5
733
  8
TEXT25
 66
     1
 10
0.0
 20
0.0
 30
0.0
  0
VERTEX
  5
BBC
  8
TEXT25
 10
28.75000019617136
 20
3.9999997817054691
 30
0.0
 42
1.0
  0
VERTEX
  5
BBD
  8
TEXT25
 10
25.15000019617133
 20
3.9999997817054691
 30
0.0
 42
-0.9999999999999998
  0
SEQEND
  5
BBE
  8
TEXT25
  0
LINE
  5
734
  8
TEXT25
 10
28.75000019617136
 20
8.4999997817054691
 30
0.0
 11
31.0
 21
8.4999997817054691
 31
0.0
  0
LINE
  5
735
  8
TEXT25
 10
28.75000019617136
 20
3.9999997817054691
 30
0.0
 11
31.0
 21
3.9999997817054691
 31
0.0
  0
POLYLINE
  5
736
  8
TEXT25
 66
     1
 10
0.0
 20
0.0
 30
0.0
  0
VERTEX
  5
BBF
  8
TEXT25
 10
8.1500001961713338
 20
12.99999978170546
 30
0.0
 42
1.0
  0
VERTEX
  5
BC0
  8
TEXT25
 10
4.550000196171367
 20
12.99999978170546
 30
0.0
 42
-0.9999999999999998
  0
SEQEND
  5
BC1
  8
TEXT25
  0
POLYLINE
  5
737
  8
TEXT25
 66
     1
 10
0.0
 20
0.0
 30
0.0
  0
VERTEX
  5
BC2
  8
TEXT25
 10
8.1500001961713338
 20
17.999999781705458
 30
0.0
 42
1.0
  0
VERTEX
  5
BC3
  8
TEXT25
 10
4.550000196171367
 20
17.999999781705458
 30
0.0
 42
-0.9999999999999998
  0
SEQEND
  5
BC4
  8
TEXT25
  0
POLYLINE
  5
738
  8
TEXT25
 66
     1
 10
0.0
 20
0.0
 30
0.0
  0
VERTEX
  5
BC5
  8
TEXT25
 10
0.9500001961713451
 20
12.99999978170546
 30
0.0
 42
-1.0
  0
VERTEX
  5
BC6
  8
TEXT25
 10
4.550000196171367
 20
12.99999978170546
 30
0.0
 42
0.9999999999999998
  0
SEQEND
  5
BC7
  8
TEXT25
  0
LINE
  5
739
  8
TEXT25
 10
0.9500001961713451
 20
12.99999978170546
 30
0.0
 11
-0.5
 21
12.99999978170546
 31
0.0
  0
POLYLINE
  5
73A
  8
TEXT25
 66
     1
 10
0.0
 20
0.0
 30
0.0
  0
VERTEX
  5
BC8
  8
TEXT25
 10
0.9500001961713451
 20
17.999999781705458
 30
0.0
 42
-1.0
  0
VERTEX
  5
BC9
  8
TEXT25
 10
4.550000196171367
 20
17.999999781705458
 30
0.0
 42
0.9999999999999998
  0
SEQEND
  5
BCA
  8
TEXT25
  0
LINE
  5
73B
  8
TEXT25
 10
0.9500001961713451
 20
17.999999781705458
 30
0.0
 11
-0.5
 21
17.999999781705458
 31
0.0
  0
POLYLINE
  5
73C
  8
TEXT25
 66
     1
 10
0.0
 20
0.0
 30
0.0
  0
VERTEX
  5
BCB
  8
TEXT25
 10
11.750000196171349
 20
12.99999978170546
 30
0.0
 42
1.0
  0
VERTEX
  5
BCC
  8
TEXT25
 10
8.1500001961713338
 20
12.99999978170546
 30
0.0
 42
-0.9999999999999998
  0
SEQEND
  5
BCD
  8
TEXT25
  0
POLYLINE
  5
73D
  8
TEXT25
 66
     1
 10
0.0
 20
0.0
 30
0.0
  0
VERTEX
  5
BCE
  8
TEXT25
 10
11.750000196171349
 20
17.999999781705458
 30
0.0
 42
1.0
  0
VERTEX
  5
BCF
  8
TEXT25
 10
8.1500001961713338
 20
17.999999781705458
 30
0.0
 42
-0.9999999999999998
  0
SEQEND
  5
BD0
  8
TEXT25
  0
ENDBLK
  5
73F
  8
0
  0
BLOCK
  8
0
  2
APU
 70
     0
 10
0.0
 20
0.0
 30
0.0
  3
APU
  1

  0
TEXT
  5
A32
  8
OHUT
 10
-0.5000004961457308
 20
0.375000006184564
 30
0.0
 40
2.5
  1
30
 41
0.9
  7
T25
  0
POLYLINE
  5
A33
  8
OHUT
 66
     1
 10
0.0
 20
0.0
 30
0.0
  0
VERTEX
  5
CDF
  8
OHUT
 10
-0.0000004961457307
 20
-0.124999993815436
 30
0.0
  0
VERTEX
  5
CE0
  8
OHUT
 10
7.4999995038542693
 20
-0.124999993815436
 30
0.0
  0
VERTEX
  5
CE1
  8
OHUT
 10
14.499999503854269
 20
-3.124999993815436
 30
0.0
  0
SEQEND
  5
CE2
  8
OHUT
  0
TEXT
  5
A34
  8
OHUT
 10
15.49999950385426
 20
0.375000006184564
 30
0.0
 40
2.5
  1
29
 41
0.9
  7
T25
  0
LINE
  5
A35
  8
OHUT
 10
14.999999503854269
 20
-0.124999993815436
 30
0.0
 11
20.999999503854269
 21
-0.124999993815436
 31
0.0
  0
ENDBLK
  5
A37
  8
0
  0
BLOCK
  8
0
  2
1A
 70
     0
 10
0.0
 20
0.0
 30
0.0
  3
1A
  1

  0
POLYLINE
  5
A39
  8
OHUT
 66
     1
 10
0.0
 20
0.0
 30
0.0
  0
VERTEX
  5
CE4
  8
OHUT
 10
0.0
 20
26.37500000618456
 30
0.0
  0
VERTEX
  5
CE5
  8
OHUT
 10
0.0
 20
16.37500000618456
 30
0.0
  0
VERTEX
  5
CE6
  8
OHUT
 10
-3.0
 20
8.8750000061845622
 30
0.0
  0
VERTEX
  5
CE7
  8
OHUT
 10
-1.0
 20
7.8750000061845631
 30
0.0
  0
SEQEND
  5
CE8
  8
OHUT
  0
LINE
  5
A3A
  8
OHUT
 10
0.0
 20
0.0
 30
0.0
 11
0.0
 21
8.8750000061845622
 31
0.0
  0
TEXT
  5
A3B
  8
OHUT
 10
-0.5
 20
0.875000006184571
 30
0.0
 40
2.5
  1
1A
 50
90.0
 41
0.9
  7
T25
  0
LINE
  5
A3C
  8
OHUT
 10
0.0
 20
8.8750000061845622
 30
0.0
 11
-2.5
 21
8.8750000061845622
 31
0.0
  0
TEXT
  5
A3D
  8
OHUT
 10
-0.5
 20
16.875000006184571
 30
0.0
 40
2.5
  1
1B
 50
90.0
 41
0.9
  7
T25
  0
ENDBLK
  5
A3F
  8
0
  0
BLOCK
  8
0
  2
12A
 70
     0
 10
0.0
 20
0.0
 30
0.0
  3
12A
  1

  0
POLYLINE
  5
A41
  8
OHUT
 66
     1
 10
0.0
 20
0.0
 30
0.0
  0
VERTEX
  5
CEA
  8
OHUT
 10
-0.0000004961457307
 20
26.37500000618456
 30
0.0
  0
VERTEX
  5
CEB
  8
OHUT
 10
-0.0000004961457307
 20
16.37500000618456
 30
0.0
  0
VERTEX
  5
CEC
  8
OHUT
 10
-3.0000004961457298
 20
8.8750000061845622
 30
0.0
  0
VERTEX
  5
CED
  8
OHUT
 10
-1.0000004961457301
 20
7.8750000061845631
 30
0.0
  0
SEQEND
  5
CEE
  8
OHUT
  0
LINE
  5
A42
  8
OHUT
 10
-0.0000004961457307
 20
0.0
 30
0.0
 11
-0.0000004961457307
 21
8.8750000061845622
 31
0.0
  0
TEXT
  5
A43
  8
OHUT
 10
-0.5000004961457308
 20
0.875000006184571
 30
0.0
 40
2.5
  1
12A
 50
90.0
 41
0.9
  7
T25
  0
LINE
  5
A44
  8
OHUT
 10
-0.0000004961457307
 20
8.8750000061845622
 30
0.0
 11
-2.5000004961457298
 21
8.8750000061845622
 31
0.0
  0
TEXT
  5
A45
  8
OHUT
 10
-0.5000004961457308
 20
16.875000006184571
 30
0.0
 40
2.5
  1
12B
 50
90.0
 41
0.9
  7
T25
  0
ENDBLK
  5
A47
  8
0
  0
BLOCK
  8
0
  2
OPENCIRC
 70
     2
 10
0.0
 20
0.0
 30
0.0
  3
OPENCIRC
  1

  0
LINE
  5
A7E
  8
OHUT
 10
0.0
 20
0.0
 30
0.0
 11
8.5
 21
0.0
 31
0.0
  0
LINE
  5
A7F
  8
OHUT
 10
8.5
 20
0.0
 30
0.0
 11
8.5
 21
2.5
 31
0.0
  0
LINE
  5
A80
  8
OHUT
 10
14.5
 20
0.0
 30
0.0
 11
23.0
 21
0.0
 31
0.0
  0
LINE
  5
A81
  8
OHUT
 10
14.5
 20
0.0
 30
0.0
 11
8.0
 21
2.0
 31
0.0
  0
ATTDEF
  5
A82
  8
OHUT
 10
0.5
 20
0.0
 30
0.0
 40
2.25
  1
1B
 41
0.9
  7
T225
  3

  2
TERMINAL1
 70
     0
  0
ATTDEF
  5
A83
  8
OHUT
 10
18.0
 20
0.0
 30
0.0
 40
2.25
  1
1A
 41
0.9
  7
T225
  3

  2
TERMINAL2
 70
     0
  0
LINE
  5
A84
  8
OHUT
 10
8.0
 20
2.0
 30
0.0
 11
7.7003289132186401
 21
0.8013156528746492
 31
0.0
  0
ENDBLK
  5
A86
  8
0
  0
BLOCK
  8
0
  2
TRIPCIRC
 70
     2
 10
0.0
 20
0.0
 30
0.0
  3
TRIPCIRC
  1

  0
LINE
  5
A9B
  8
OHUT
 10
0.0
 20
0.0
 30
0.0
 11
8.5
 21
0.0
 31
0.0
  0
LINE
  5
A9C
  8
OHUT
 10
8.5
 20
0.0
 30
0.0
 11
8.5
 21
2.5
 31
0.0
  0
LINE
  5
A9D
  8
OHUT
 10
14.5
 20
0.0
 30
0.0
 11
23.0
 21
0.0
 31
0.0
  0
LINE
  5
A9E
  8
OHUT
 10
14.5
 20
0.0
 30
0.0
 11
8.0
 21
2.0
 31
0.0
  0
ATTDEF
  5
A9F
  8
OHUT
 10
0.5
 20
0.0
 30
0.0
 40
2.25
  1
1B
 41
0.9
  7
T225
  3

  2
TERMINAL1
 70
     0
  0
ATTDEF
  5
AA0
  8
OHUT
 10
18.0
 20
0.0
 30
0.0
 40
2.25
  1
1A
 41
0.9
  7
T225
  3

  2
TERMINAL2
 70
     0
  0
ENDBLK
  5
AA2
  8
0
  0
BLOCK
  8
0
  2
SHORTCIRC
 70
     2
 10
0.0
 20
0.0
 30
0.0
  3
SHORTCIRC
  1

  0
LINE
  5
AC5
  8
OHUT
 10
0.0
 20
0.0
 30
0.0
 11
8.5
 21
0.0
 31
0.0
  0
LINE
  5
AC6
  8
OHUT
 10
8.5
 20
0.0
 30
0.0
 11
8.5
 21
2.5
 31
0.0
  0
LINE
  5
AC7
  8
OHUT
 10
15.5
 20
4.5
 30
0.0
 11
24.0
 21
4.5
 31
0.0
  0
LINE
  5
AC8
  8
OHUT
 10
0.0
 20
6.0
 30
0.0
 11
8.5
 21
6.0
 31
0.0
  0
LINE
  5
AC9
  8
OHUT
 10
15.5
 20
10.5
 30
0.0
 11
24.0
 21
10.5
 31
0.0
  0
LINE
  5
ACA
  8
OHUT
 10
8.5
 20
6.0
 30
0.0
 11
8.5
 21
8.5
 31
0.0
  0
LINE
  5
ACB
  8
OHUT
 10
8.5
 20
4.5
 30
0.0
 11
5.0
 21
4.5
 31
0.0
  0
LINE
  5
ACC
  8
OHUT
 10
5.0
 20
4.5
 30
0.0
 11
5.0
 21
10.5
 31
0.0
  0
LINE
  5
ACD
  8
OHUT
 10
5.0
 20
10.5
 30
0.0
 11
8.5
 21
10.5
 31
0.0
  0
LINE
  5
ACE
  8
OHUT
 10
15.5
 20
10.5
 30
0.0
 11
7.8497982017063288
 21
7.9068527914165223
 31
0.0
  0
LINE
  5
ACF
  8
OHUT
 10
8.1840048249933606
 20
7.1378073227015184
 30
0.0
 11
7.5155915784192997
 21
8.6758982601315271
 31
0.0
  0
LINE
  5
AD0
  8
OHUT
 10
15.5
 20
4.5
 30
0.0
 11
7.8497982017063288
 21
1.9068527914165221
 31
0.0
  0
LINE
  5
AD1
  8
OHUT
 10
8.1840048249933606
 20
1.137807322701518
 30
0.0
 11
7.5155915784192997
 21
2.6758982601315271
 31
0.0
  0
ATTDEF
  5
AD2
  8
OHUT
 10
0.0
 20
6.0
 30
0.0
 40
2.25
  1
1B
 41
0.9
  7
T225
  3

  2
TERMINAL1
 70
     0
  0
ATTDEF
  5
AD3
  8
OHUT
 10
19.0
 20
10.5
 30
0.0
 40
2.25
  1
1A
 41
0.9
  7
T225
  3

  2
TERMINAL2
 70
     0
  0
ATTDEF
  5
AD4
  8
OHUT
 10
0.0
 20
0.0
 30
0.0
 40
2.25
  1
2B
 41
0.9
  7
T225
  3

  2
TERMINAL3
 70
     0
  0
ATTDEF
  5
AD5
  8
OHUT
 10
19.0
 20
4.5
 30
0.0
 40
2.25
  1
2A
 41
0.9
  7
T225
  3

  2
TERMINAL4
 70
     0
  0
ENDBLK
  5
AD7
  8
0
  0
BLOCK
  8
0
  2
*U22
 70
     1
 10
0.0
 20
0.0
 30
0.0
  3
*U22
  1

  0
SOLID
  5
B72
  8
TEXT25
  6
CONTINUOUS
 10
38.666666666666657
 20
2.5
 30
0.0
 11
40.0
 21
2.5
 31
0.0
 12
38.0
 22
3.5
 32
0.0
 13
38.0
 23
3.5
 33
0.0
210
0.0
220
0.0
230
-1.0
  0
SOLID
  5
B73
  8
TEXT25
  6
CONTINUOUS
 10
38.666666666666657
 20
2.5
 30
0.0
 11
38.0
 21
3.5
 31
0.0
 12
38.0
 22
1.5
 32
0.0
 13
38.0
 23
1.5
 33
0.0
210
0.0
220
0.0
230
-1.0
  0
SOLID
  5
B74
  8
TEXT25
  6
CONTINUOUS
 10
38.666666666666657
 20
2.5
 30
0.0
 11
38.0
 21
1.5
 31
0.0
 12
40.0
 22
2.5
 32
0.0
 13
40.0
 23
2.5
 33
0.0
210
0.0
220
0.0
230
-1.0
  0
ENDBLK
  5
B76
  8
0
  0
BLOCK
  8
0
  2
*U23
 70
     1
 10
0.0
 20
0.0
 30
0.0
  3
*U23
  1

  0
SOLID
  5
C01
  8
TEXT25
  6
CONTINUOUS
 10
-291.50000051671572
 20
205.9166669469256
 30
0.0
 11
-290.50000051671572
 21
207.25000028025889
 31
0.0
 12
-292.50000051671572
 22
207.25000028025889
 32
0.0
 13
-292.50000051671572
 23
207.25000028025889
 33
0.0
210
0.0
220
0.0
230
-1.0
  0
SOLID
  5
C02
  8
TEXT25
  6
CONTINUOUS
 10
-291.50000051671572
 20
205.9166669469256
 30
0.0
 11
-292.50000051671572
 21
207.25000028025889
 31
0.0
 12
-291.50000051671572
 22
203.25000028025889
 32
0.0
 13
-291.50000051671572
 23
203.25000028025889
 33
0.0
210
0.0
220
0.0
230
-1.0
  0
SOLID
  5
C03
  8
TEXT25
  6
CONTINUOUS
 10
-291.50000051671572
 20
205.9166669469256
 30
0.0
 11
-291.50000051671572
 21
203.25000028025889
 31
0.0
 12
-290.50000051671572
 22
207.25000028025889
 32
0.0
 13
-290.50000051671572
 23
207.25000028025889
 33
0.0
210
0.0
220
0.0
230
-1.0
  0
ENDBLK
  5
C05
  8
0
  0
ENDSEC
  0
SECTION
  2
ENTITIES
  0
INSERT
  5
223
  8
0
  2
ABB3T
 10
0.0
 20
0.0
 30
0.0
  0
INSERT
  5
38B
  8
MITTA
  2
VT
 10
139.5
 20
204.0
 30
0.0
  0
INSERT
  5
38C
  8
MITTA
  2
VT
 10
139.5
 20
153.0
 30
0.0
  0
INSERT
  5
38D
  8
MITTA
  2
VT
 10
139.5
 20
141.0
 30
0.0
  0
INSERT
  5
3B0
  8
MITTA
  2
CT
 10
139.5
 20
138.0
 30
0.0
  0
INSERT
  5
3B1
  8
MITTA
  2
CT
 10
139.5
 20
126.0
 30
0.0
  0
INSERT
  5
3B2
  8
MITTA
  2
CT
 10
139.5
 20
114.0
 30
0.0
  0
TEXT
  5
3C4
  8
MITTA
 10
132.49999999999989
 20
218.5
 30
0.0
 40
2.5
  1
X1.1
 41
0.9
  7
T25
  0
TEXT
  5
3C5
  8
MITTA
 10
135.0
 20
212.14075287028979
 30
0.0
 40
2.5
  1
27
 41
0.9
  7
T25
  0
TEXT
  5
3C6
  8
MITTA
 10
135.0
 20
203.1877079318968
 30
0.0
 40
2.5
  1
25
 41
0.9
  7
T25
  0
TEXT
  5
3C7
  8
MITTA
 10
135.0
 20
199.64008818624879
 30
0.0
 40
2.5
  1
24
 41
0.9
  7
T25
  0
TEXT
  5
3C8
  8
MITTA
 10
135.0
 20
190.53588063123181
 30
0.0
 40
2.5
  1
22
 41
0.9
  7
T25
  0
TEXT
  5
3C9
  8
MITTA
 10
135.0
 20
187.05415293985351
 30
0.0
 40
2.5
  1
21
 41
0.9
  7
T25
  0
TEXT
  5
3CA
  8
MITTA
 10
135.0
 20
177.99723174142059
 30
0.0
 40
2.5
  1
19
 41
0.9
  7
T25
  0
TEXT
  5
3CB
  8
MITTA
 10
135.0
 20
174.45891484461561
 30
0.0
 40
2.5
  1
18
 41
0.9
  7
T25
  0
TEXT
  5
3CC
  8
MITTA
 10
135.0
 20
165.61904761904771
 30
0.0
 40
2.5
  1
16
 41
0.9
  7
T25
  0
TEXT
  5
3CD
  8
MITTA
 10
135.0
 20
161.08073142027141
 30
0.0
 40
2.5
  1
15
 41
0.9
  7
T25
  0
TEXT
  5
3CF
  8
MITTA
 10
135.0
 20
152.4761904761906
 30
0.0
 40
2.5
  1
13
 41
0.9
  7
T25
  0
TEXT
  5
3D0
  8
MITTA
 10
135.0
 20
148.9285714285715
 30
0.0
 40
2.5
  1
12
 41
0.9
  7
T25
  0
TEXT
  5
3D2
  8
MITTA
 10
135.0
 20
140.3333333333334
 30
0.0
 40
2.5
  1
10
 41
0.9
  7
T25
  0
TEXT
  5
3D3
  8
MITTA
 10
136.49999999999989
 20
137.06865961482029
 30
0.0
 40
2.5
  1
9
 41
0.9
  7
T25
  0
TEXT
  5
3D4
  8
MITTA
 10
136.49999999999989
 20
133.91716500519021
 30
0.0
 40
2.5
  1
8
 41
0.9
  7
T25
  0
TEXT
  5
3D5
  8
MITTA
 10
136.92523126173469
 20
128.19047619047629
 30
0.0
 40
2.5
  1
7
 41
0.9
  7
T25
  0
TEXT
  5
3D6
  8
MITTA
 10
136.92523126173469
 20
124.9823923754191
 30
0.0
 40
2.5
  1
6
 41
0.9
  7
T25
  0
TEXT
  5
3D7
  8
MITTA
 10
136.92523126173469
 20
121.9440747805851
 30
0.0
 40
2.5
  1
5
 41
0.9
  7
T25
  0
TEXT
  5
3D8
  8
MITTA
 10
136.92523126173469
 20
116.54761904761919
 30
0.0
 40
2.5
  1
4
 41
0.9
  7
T25
  0
TEXT
  5
3D9
  8
MITTA
 10
136.92523126173469
 20
113.0000000000002
 30
0.0
 40
2.5
  1
3
 41
0.9
  7
T25
  0
TEXT
  5
3DA
  8
MITTA
 10
136.92523126173469
 20
110.0182730066509
 30
0.0
 40
2.5
  1
2
 41
0.9
  7
T25
  0
TEXT
  5
3DB
  8
MITTA
 10
136.92523126173469
 20
103.9047619047621
 30
0.0
 40
2.5
  1
1
 41
0.9
  7
T25
  0
LINE
  5
3E4
  8
MITTA
 10
116.5
 20
138.0
 30
0.0
 11
116.5
 21
129.0
 31
0.0
  0
LINE
  5
3E5
  8
MITTA
 10
116.5
 20
126.0
 30
0.0
 11
116.5
 21
117.0
 31
0.0
  0
LINE
  5
3E6
  8
MITTA
 10
116.5
 20
114.0
 30
0.0
 11
116.5
 21
105.0
 31
0.0
  0
LINE
  5
411
  8
MITTA
 10
107.4999999999999
 20
207.5
 30
0.0
 11
66.0
 21
207.5
 31
0.0
  0
LINE
  5
412
  8
MITTA
 10
107.4999999999999
 20
195.0
 30
0.0
 11
66.0
 21
195.0
 31
0.0
  0
LINE
  5
413
  8
MITTA
 10
107.4999999999999
 20
182.5
 30
0.0
 11
66.0
 21
182.5
 31
0.0
  0
LINE
  5
414
  8
MITTA
 10
107.4999999999999
 20
170.0
 30
0.0
 11
66.0
 21
170.0
 31
0.0
  0
LINE
  5
415
  8
MITTA
 10
107.4999999999999
 20
157.5
 30
0.0
 11
66.5
 21
157.5
 31
0.0
  0
LINE
  5
416
  8
MITTA
 10
107.4999999999999
 20
145.5
 30
0.0
 11
66.5
 21
145.5
 31
0.0
  0
LINE
  5
417
  8
MITTA
 10
107.4999999999999
 20
133.49999999999989
 30
0.0
 11
66.5
 21
133.49999999999989
 31
0.0
  0
LINE
  5
418
  8
MITTA
 10
107.4999999999999
 20
121.5
 30
0.0
 11
66.5
 21
121.5
 31
0.0
  0
LINE
  5
419
  8
MITTA
 10
107.4999999999999
 20
109.4999999999999
 30
0.0
 11
66.5
 21
109.4999999999999
 31
0.0
  0
TEXT
  5
433
  8
MITTA
 10
46.0
 20
206.0
 30
0.0
 40
2.5
  1
CH10, VT3
 41
0.9
  7
T25
  0
TEXT
  5
434
  8
MITTA
 10
46.0
 20
193.95238095238091
 30
0.0
 40
2.5
  1
CH9, CT6
 41
0.9
  7
T25
  0
TEXT
  5
435
  8
MITTA
 10
46.0
 20
181.4047619047619
 30
0.0
 40
2.5
  1
CH8, CT5
 41
0.9
  7
T25
  0
TEXT
  5
436
  8
MITTA
 10
46.0
 20
169.3571428571428
 30
0.0
 40
2.5
  1
CH7, CT4
 41
0.9
  7
T25
  0
TEXT
  5
437
  8
MITTA
 10
46.0
 20
156.3095238095238
 30
0.0
 40
2.5
  1
CH6, VT2
 41
0.9
  7
T25
  0
TEXT
  5
438
  8
MITTA
 10
46.0
 20
143.76190476190479
 30
0.0
 40
2.5
  1
CH5, VT1
 41
0.9
  7
T25
  0
TEXT
  5
439
  8
MITTA
 10
46.0
 20
132.21428571428569
 30
0.0
 40
2.5
  1
CH4, CT3
 41
0.9
  7
T25
  0
TEXT
  5
43A
  8
MITTA
 10
46.0
 20
120.1666666666667
 30
0.0
 40
2.5
  1
CH3, CT2
 41
0.9
  7
T25
  0
TEXT
  5
43B
  8
MITTA
 10
46.0
 20
108.61904761904771
 30
0.0
 40
2.5
  1
CH2, CT1
 41
0.9
  7
T25
  0
LINE
  5
44C
  8
PISTKATK
 10
190.0
 20
230.75
 30
0.0
 11
19.5
 21
230.75
 31
0.0
  0
LINE
  5
44D
  8
PISTKATK
 10
19.5
 20
230.75
 30
0.0
 11
19.5
 21
28.25
 31
0.0
  0
LINE
  5
44E
  8
PISTKATK
 10
19.5
 20
73.25
 30
0.0
 11
140.0
 21
73.25
 31
0.0
  0
LINE
  5
44F
  8
PISTKATK
 10
140.0
 20
73.25
 30
0.0
 11
140.0
 21
230.75
 31
0.0
  0
TEXT
  5
450
  8
MITTA
 10
122.0
 20
207.0
 30
0.0
 40
2.5
  1
100V
 41
0.9
  7
T25
  0
TEXT
  5
452
  8
MITTA
 10
122.0
 20
156.0
 30
0.0
 40
2.5
  1
100V
 41
0.9
  7
T25
  0
TEXT
  5
453
  8
MITTA
 10
122.0
 20
143.5
 30
0.0
 40
2.5
  1
100V
 41
0.9
  7
T25
  0
LINE
  5
459
  8
KATKO07
 10
217.49999898366519
 20
255.99999967331641
 30
0.0
 11
337.49999898366519
 21
255.99999967331641
 31
0.0
  0
LINE
  5
45A
  8
KATKO07
 10
217.49999898366519
 20
250.99999967331641
 30
0.0
 11
337.49999898366519
 21
250.99999967331641
 31
0.0
  0
LINE
  5
45B
  8
KATKO07
 10
217.49999898366519
 20
245.99999967331641
 30
0.0
 11
337.49999898366519
 21
245.99999967331641
 31
0.0
  0
TEXT
  5
504
  8
KATKO07
 10
210.99999898366519
 20
253.99999967331641
 30
0.0
 40
2.5
  1
L1
 41
0.9
  7
T25
  0
TEXT
  5
505
  8
KATKO07
 10
210.99999898366519
 20
249.4523806256974
 30
0.0
 40
2.5
  1
L2
 41
0.9
  7
T25
  0
TEXT
  5
506
  8
KATKO07
 10
210.99999898366519
 20
244.90476157807831
 30
0.0
 40
2.5
  1
L3
 41
0.9
  7
T25
  0
TEXT
  5
51E
  8
TEXT25
 10
24.5
 20
230.75
 30
0.0
 40
2.5
  1
MIM6030,  TRANSFORMER MODULE + RTXP 24
 41
0.9
  7
T25
  0
TEXT
  5
521
  8
TEXT25
 10
308.74999999999989
 20
225.0
 30
0.0
 40
2.5
  1
MODULE
 41
0.9
  7
T25
  0
TEXT
  5
522
  8
TEXT25
 10
308.49999999999989
 20
220.45238095238091
 30
0.0
 40
2.5
  1
MIM6030
 41
0.9
  7
T25
  0
TEXT
  5
523
  8
TEXT25
 10
323.75
 20
225.0
 30
0.0
 40
2.5
  1
FRONT
 41
0.9
  7
T25
  0
TEXT
  5
524
  8
TEXT25
 10
339.25
 20
225.0
 30
0.0
 40
2.5
  1
REAR
 41
0.9
  7
T25
  0
TEXT
  5
525
  8
TEXT25
 10
323.75
 20
220.5
 30
0.0
 40
2.5
  1
S1,S2
 41
0.9
  7
T25
  0
TEXT
  5
526
  8
TEXT25
 10
338.75
 20
220.5
 30
0.0
 40
2.5
  1
X1.1 
 41
0.9
  7
T25
  0
TEXT
  5
527
  8
TEXT25
 10
330.25
 20
230.0
 30
0.0
 40
2.5
  1
POSITION
 41
0.9
  7
T25
  0
LINE
  5
528
  8
TEXT25
 10
306.25
 20
225.49999999999989
 30
0.0
 11
351.25
 21
225.49999999999989
 31
0.0
  0
LINE
  5
529
  8
TEXT25
 10
306.25
 20
220.5
 30
0.0
 11
351.25
 21
220.5
 31
0.0
  0
LINE
  5
52A
  8
TEXT25
 10
322.25
 20
230.5
 30
0.0
 11
351.25
 21
230.5
 31
0.0
  0
LINE
  5
52B
  8
TEXT25
 10
306.25
 20
235.49999999999989
 30
0.0
 11
351.25
 21
235.49999999999989
 31
0.0
  0
LINE
  5
52C
  8
TEXT25
 10
306.25
 20
220.5
 30
0.0
 11
306.25
 21
235.49999999999989
 31
0.0
  0
LINE
  5
52D
  8
TEXT25
 10
322.25
 20
220.5
 30
0.0
 11
322.25
 21
235.49999999999989
 31
0.0
  0
LINE
  5
52F
  8
TEXT25
 10
336.75
 20
220.5
 30
0.0
 11
336.75
 21
230.5
 31
0.0
  0
TEXT
  5
67C
  8
TEXT25
 10
309.50000040170761
 20
26.500000199691719
 30
0.0
 40
3.5
  1
TERMINAL DIAGRAM
 41
0.9
  7
T25
  0
TEXT
  5
67D
  8
TEXT25
 10
309.50000040170761
 20
22.000000199691719
 30
0.0
 40
3.5
  1
MACHINE TERMINAL
 41
0.9
  7
T25
  0
TEXT
  5
67E
  8
TEXT25
 10
309.50000040170761
 20
17.500000199691719
 30
0.0
 40
3.5
  1
REM 54_ , MIM6030 + RTXP 24
 41
0.9
  7
T25
  0
TEXT
  5
682
  8
TEXT25
 10
310.0
 20
-1.5
 30
0.0
 40
5.0
  1
1MRS010245-AAA
  7
T25
  0
LINE
  5
692
  8
TEXT25
 10
351.25
 20
220.5
 30
0.0
 11
351.25
 21
235.49999999999989
 31
0.0
  0
TEXT
  5
6A6
  8
TEXT25
 10
211.1624997588508
 20
26.74999972324758
 30
0.0
 40
2.5
  1
29-03-2001 S.Bjorklund
 41
0.9
  7
T25
  0
TEXT
  5
6A7
  8
TEXT25
 10
286.66249975885069
 20
-0.7500002767524167
 30
0.0
 40
3.5
  1
RSG
 41
0.9
  7
T25
  0
TEXT
  5
6A9
  8
TEXT25
 10
378.1624997588508
 20
-1.7500002767524161
 30
0.0
 40
5.0
  1
A
  7
T25
  0
TEXT
  5
6AA
  8
TEXT25
 10
376.66249975885069
 20
9.2499997232475835
 30
0.0
 40
2.5
  1
13 / 27
 41
0.9
  7
T25
  0
INSERT
  5
6CD
  8
MITTA
  2
CT
 10
139.5
 20
175.5
 30
0.0
  0
INSERT
  5
6CE
  8
MITTA
  2
CT
 10
139.5
 20
188.0
 30
0.0
  0
INSERT
  5
6CF
  8
MITTA
  2
CT
 10
139.5
 20
200.49999999999989
 30
0.0
  0
TEXT
  5
6E1
  8
MITTA
 10
135.0
 20
196.39008818624879
 30
0.0
 40
2.5
  1
23
 41
0.9
  7
T25
  0
TEXT
  5
6E2
  8
MITTA
 10
135.0
 20
183.90454685508351
 30
0.0
 40
2.5
  1
20
 41
0.9
  7
T25
  0
TEXT
  5
6E3
  8
MITTA
 10
135.0
 20
171.4352925332883
 30
0.0
 40
2.5
  1
17
 41
0.9
  7
T25
  0
LINE
  5
6EA
  8
MITTA
 10
116.5
 20
175.5
 30
0.0
 11
116.5
 21
166.5
 31
0.0
  0
LINE
  5
6EB
  8
MITTA
 10
116.5
 20
188.0
 30
0.0
 11
116.5
 21
179.0
 31
0.0
  0
LINE
  5
6EC
  8
MITTA
 10
116.5
 20
200.49999999999989
 30
0.0
 11
116.5
 21
191.5
 31
0.0
  0
LINE
  5
7B9
  8
KATKO07
 10
281.0
 20
139.5
 30
0.0
 11
190.0
 21
139.5
 31
0.0
  0
LINE
  5
7BA
  8
KATKO07
 10
276.0
 20
127.5
 30
0.0
 11
190.0
 21
127.5
 31
0.0
  0
LINE
  5
7BB
  8
KATKO07
 10
271.0
 20
115.5
 30
0.0
 11
190.0
 21
115.5
 31
0.0
  0
LINE
  5
7BC
  8
KATKO07
 10
197.0
 20
106.4999999999999
 30
0.0
 11
197.0
 21
133.49999999999989
 31
0.0
  0
LINE
  5
7C0
  8
KATKO07
 10
197.0
 20
121.5
 30
0.0
 11
190.0
 21
121.5
 31
0.0
  0
POLYLINE
  5
7C1
  8
KATKO07
 66
     1
 10
0.0
 20
0.0
 30
0.0
  0
VERTEX
  5
BD1
  8
KATKO07
 10
144.00000101633469
 20
109.50000032668351
 30
0.0
  0
VERTEX
  5
BD2
  8
KATKO07
 10
145.50000101633469
 20
111.00000032668351
 30
0.0
  0
VERTEX
  5
BD3
  8
KATKO07
 10
145.50000101633469
 20
114.00000032668351
 30
0.0
  0
VERTEX
  5
BD4
  8
KATKO07
 10
144.00000101633469
 20
115.50000032668351
 30
0.0
  0
SEQEND
  5
BD5
  8
KATKO07
  0
LINE
  5
7C2
  8
KATKO07
 10
140.00000101633469
 20
111.00000032668351
 30
0.0
 11
143.00000101633469
 21
111.00000032668351
 31
0.0
  0
LINE
  5
7C3
  8
KATKO07
 10
140.00000101633469
 20
114.00000032668351
 30
0.0
 11
143.00000101633469
 21
114.00000032668351
 31
0.0
  0
POLYLINE
  5
7C4
  8
KATKO07
 66
     1
 10
0.0
 20
0.0
 30
0.0
 70
     1
 40
0.5
 41
0.5
  0
VERTEX
  5
BD6
  8
KATKO07
 10
196.75
 20
121.5
 30
0.0
 42
1.0
  0
VERTEX
  5
BD7
  8
KATKO07
 10
197.25
 20
121.5
 30
0.0
 42
1.0
  0
SEQEND
  5
BD8
  8
KATKO07
  0
LINE
  5
7C6
  8
KATKO07
 10
197.0
 20
133.49999999999989
 30
0.0
 11
190.25
 21
133.49999999999989
 31
0.0
  0
POLYLINE
  5
7C7
  8
KATKO07
 66
     1
 10
0.0
 20
0.0
 30
0.0
  0
VERTEX
  5
BD9
  8
KATKO07
 10
144.00000101633469
 20
121.50000032668351
 30
0.0
  0
VERTEX
  5
BDA
  8
KATKO07
 10
145.50000101633469
 20
123.00000032668351
 30
0.0
  0
VERTEX
  5
BDB
  8
KATKO07
 10
145.50000101633469
 20
126.00000032668351
 30
0.0
  0
VERTEX
  5
BDC
  8
KATKO07
 10
144.00000101633469
 20
127.50000032668351
 30
0.0
  0
SEQEND
  5
BDD
  8
KATKO07
  0
LINE
  5
7C8
  8
KATKO07
 10
140.00000101633469
 20
123.00000032668351
 30
0.0
 11
143.00000101633469
 21
123.00000032668351
 31
0.0
  0
LINE
  5
7C9
  8
KATKO07
 10
140.00000101633469
 20
126.00000032668351
 30
0.0
 11
143.00000101633469
 21
126.00000032668351
 31
0.0
  0
POLYLINE
  5
7CA
  8
KATKO07
 66
     1
 10
0.0
 20
0.0
 30
0.0
  0
VERTEX
  5
BDE
  8
KATKO07
 10
144.00000101633469
 20
133.50000032668351
 30
0.0
  0
VERTEX
  5
BDF
  8
KATKO07
 10
145.50000101633469
 20
135.00000032668351
 30
0.0
  0
VERTEX
  5
BE0
  8
KATKO07
 10
145.50000101633469
 20
138.00000032668351
 30
0.0
  0
VERTEX
  5
BE1
  8
KATKO07
 10
144.00000101633469
 20
139.50000032668351
 30
0.0
  0
SEQEND
  5
BE2
  8
KATKO07
  0
LINE
  5
7CB
  8
KATKO07
 10
140.00000101633469
 20
135.00000032668351
 30
0.0
 11
143.00000101633469
 21
135.00000032668351
 31
0.0
  0
LINE
  5
7CC
  8
KATKO07
 10
140.00000101633469
 20
138.00000032668351
 30
0.0
 11
143.00000101633469
 21
138.00000032668351
 31
0.0
  0
LINE
  5
7EA
  8
KATKO07
 10
256.0
 20
100.5
 30
0.0
 11
256.0
 21
130.49999999999989
 31
0.0
  0
CIRCLE
  5
7F2
  8
TEXT25
 10
276.0
 20
152.0
 30
0.0
 40
7.0
  0
TEXT
  5
7F3
  8
TEXT25
 10
274.0
 20
145.80000000000001
 30
0.0
 40
3.5
  1
3~
  7
T25
  0
TEXT
  5
7F4
  8
TEXT25
 10
274.5
 20
151.0
 30
0.0
 40
3.5
  1
M
  7
T25
  0
POLYLINE
  5
801
  8
TEXT25
 66
     1
 10
0.0
 20
0.0
 30
0.0
  0
VERTEX
  5
BE3
  8
TEXT25
 10
279.0
 20
139.5
 30
0.0
  0
VERTEX
  5
BE4
  8
TEXT25
 10
281.0
 20
139.5
 30
0.0
 42
-1.0
  0
VERTEX
  5
BE5
  8
TEXT25
 10
281.0
 20
135.0
 30
0.0
  0
VERTEX
  5
BE6
  8
TEXT25
 10
279.0
 20
135.0
 30
0.0
  0
VERTEX
  5
BE7
  8
TEXT25
 10
281.0
 20
135.0
 30
0.0
 42
-1.0
  0
VERTEX
  5
BE8
  8
TEXT25
 10
281.0
 20
130.49999999999989
 30
0.0
  0
VERTEX
  5
BE9
  8
TEXT25
 10
279.0
 20
130.49999999999989
 30
0.0
  0
SEQEND
  5
BEA
  8
TEXT25
  0
LINE
  5
802
  8
TEXT25
 10
271.0
 20
99.0
 30
0.0
 11
281.0
 21
99.0
 31
0.0
  0
LINE
  5
803
  8
KATKO07
 10
281.0
 20
130.49999999999989
 30
0.0
 11
256.0
 21
130.49999999999989
 31
0.0
  0
POLYLINE
  5
804
  8
TEXT25
 66
     1
 10
0.0
 20
0.0
 30
0.0
  0
VERTEX
  5
BEB
  8
TEXT25
 10
274.0
 20
127.5
 30
0.0
  0
VERTEX
  5
BEC
  8
TEXT25
 10
276.0
 20
127.5
 30
0.0
 42
-1.0
  0
VERTEX
  5
BED
  8
TEXT25
 10
276.0
 20
123.0
 30
0.0
  0
VERTEX
  5
BEE
  8
TEXT25
 10
274.0
 20
123.0
 30
0.0
  0
VERTEX
  5
BEF
  8
TEXT25
 10
276.0
 20
123.0
 30
0.0
 42
-1.0
  0
VERTEX
  5
BF0
  8
TEXT25
 10
276.0
 20
118.5
 30
0.0
  0
VERTEX
  5
BF1
  8
TEXT25
 10
274.0
 20
118.5
 30
0.0
  0
SEQEND
  5
BF2
  8
TEXT25
  0
LINE
  5
805
  8
KATKO07
 10
197.0
 20
106.4999999999999
 30
0.0
 11
271.0
 21
106.4999999999999
 31
0.0
  0
LINE
  5
806
  8
KATKO07
 10
276.0
 20
118.5
 30
0.0
 11
256.0
 21
118.5
 31
0.0
  0
LINE
  5
807
  8
TEXT25
 10
257.5
 20
100.5
 30
0.0
 11
254.49999999999989
 21
100.5
 31
0.0
  0
LINE
  5
808
  8
TEXT25
 10
255.0
 20
100.0
 30
0.0
 11
256.49999999999989
 21
100.0
 31
0.0
  0
LINE
  5
809
  8
TEXT25
 10
257.0
 20
100.0
 30
0.0
 11
255.0
 21
100.0
 31
0.0
  0
LINE
  5
80A
  8
TEXT25
 10
256.49999999999989
 20
99.500000000000014
 30
0.0
 11
255.5
 21
99.500000000000014
 31
0.0
  0
POLYLINE
  5
80D
  8
TEXT25
 66
     1
 10
0.0
 20
0.0
 30
0.0
  0
VERTEX
  5
BF3
  8
TEXT25
 10
269.49999999999989
 20
115.5
 30
0.0
  0
VERTEX
  5
BF4
  8
TEXT25
 10
271.49999999999989
 20
115.5
 30
0.0
 42
-1.0
  0
VERTEX
  5
BF5
  8
TEXT25
 10
271.49999999999989
 20
111.0
 30
0.0
  0
VERTEX
  5
BF6
  8
TEXT25
 10
269.49999999999989
 20
111.0
 30
0.0
  0
VERTEX
  5
BF7
  8
TEXT25
 10
271.49999999999989
 20
111.0
 30
0.0
 42
-1.0
  0
VERTEX
  5
BF8
  8
TEXT25
 10
271.49999999999989
 20
106.4999999999999
 30
0.0
  0
VERTEX
  5
BF9
  8
TEXT25
 10
269.49999999999989
 20
106.4999999999999
 30
0.0
  0
SEQEND
  5
BFA
  8
TEXT25
  0
POLYLINE
  5
810
  8
TEXT25
 66
     1
 10
0.0
 20
0.0
 30
0.0
  0
VERTEX
  5
BFB
  8
TEXT25
 10
290.50000051671572
 20
207.25000028025889
 30
0.0
  0
VERTEX
  5
BFC
  8
TEXT25
 10
292.50000051671572
 20
207.25000028025889
 30
0.0
  0
VERTEX
  5
BFD
  8
TEXT25
 10
291.50000051671572
 20
203.25000028025889
 30
0.0
  0
VERTEX
  5
BFE
  8
TEXT25
 10
290.50000051671572
 20
207.25000028025889
 30
0.0
  0
SEQEND
  5
BFF
  8
TEXT25
  0
INSERT
  5
811
  8
TEXT25
  6
CONTINUOUS
  2
*U23
 10
0.0
 20
0.0
 30
0.0
1001
ACAD
1002
{
1000
R14_HATCH_DATA
1000
811
1011
1.0
1021
3.7657060863361795E+175
1031
9.5004932111745217E+137
1021
0.0
1031
0.0
1011
0.0
1021
3.7657060863361795E+175
1031
9.5004932111745217E+137
1021
1.0
1031
0.0
1011
0.0
1021
3.7657060863361795E+175
1031
9.5004932111745217E+137
1021
0.0
1031
1.0
1040
0.0
1010
0.0
1020
0.0
1030
1.0
1000
SOLID
1070
     1
1070
     0
1071
        1
1071
        1
1071
        3
1070
     1
1040
290.50000051671572
1040
207.25000028025889
1040
292.50000051671572
1040
207.25000028025889
1070
     1
1040
292.50000051671572
1040
207.25000028025889
1040
291.50000051671572
1040
203.25000028025889
1070
     1
1040
291.50000051671572
1040
203.25000028025889
1040
290.50000051671572
1040
207.25000028025889
1071
        0
1070
     0
1070
     1
1071
        1
1040
-11.499999483284221
1040
59.750000280258973
1040
0.0
1002
}
  0
POLYLINE
  5
815
  8
TEXT25
 66
     1
 10
0.0
 20
0.0
 30
0.0
  0
VERTEX
  5
C06
  8
TEXT25
 10
281.0
 20
203.5
 30
0.0
  0
VERTEX
  5
C07
  8
TEXT25
 10
281.0
 20
207.5
 30
0.0
  0
VERTEX
  5
C08
  8
TEXT25
 10
278.0
 20
214.5
 30
0.0
  0
SEQEND
  5
C09
  8
TEXT25
  0
POLYLINE
  5
816
  8
TEXT25
 66
     1
 10
0.0
 20
0.0
 30
0.0
  0
VERTEX
  5
C0A
  8
TEXT25
 10
276.0
 20
203.5
 30
0.0
  0
VERTEX
  5
C0B
  8
TEXT25
 10
276.0
 20
207.5
 30
0.0
  0
VERTEX
  5
C0C
  8
TEXT25
 10
273.0
 20
214.5
 30
0.0
  0
SEQEND
  5
C0D
  8
TEXT25
  0
POLYLINE
  5
817
  8
TEXT25
 66
     1
 10
0.0
 20
0.0
 30
0.0
  0
VERTEX
  5
C0E
  8
TEXT25
 10
271.0
 20
203.5
 30
0.0
  0
VERTEX
  5
C0F
  8
TEXT25
 10
271.0
 20
207.5
 30
0.0
  0
VERTEX
  5
C10
  8
TEXT25
 10
268.0
 20
214.5
 30
0.0
  0
SEQEND
  5
C11
  8
TEXT25
  0
LINE
  5
818
  8
TEXT25
 10
272.0
 20
214.0
 30
0.0
 11
270.0
 21
216.0
 31
0.0
  0
LINE
  5
819
  8
TEXT25
 10
270.0
 20
214.0
 30
0.0
 11
272.0
 21
216.0
 31
0.0
  0
LINE
  5
81A
  8
TEXT25
 10
275.0
 20
214.0
 30
0.0
 11
277.0
 21
216.0
 31
0.0
  0
LINE
  5
81B
  8
TEXT25
 10
277.0
 20
214.0
 30
0.0
 11
275.0
 21
216.0
 31
0.0
  0
LINE
  5
81C
  8
TEXT25
 10
280.0
 20
214.0
 30
0.0
 11
282.0
 21
216.0
 31
0.0
  0
LINE
  5
81D
  8
TEXT25
 10
282.0
 20
214.0
 30
0.0
 11
280.0
 21
216.0
 31
0.0
  0
LINE
  5
81E
  8
KATKO07
 10
250.99999951882421
 20
220.25000008351591
 30
0.0
 11
260.25
 21
220.25000008351591
 31
0.0
  0
LINE
  5
81F
  8
KATKO07
 10
250.99999951882421
 20
225.25000008351591
 30
0.0
 11
255.5
 21
225.25000008351591
 31
0.0
  0
LINE
  5
824
  8
TEXT25
 10
291.50000051671572
 20
206.25000028025889
 30
0.0
 11
291.50000051671572
 21
217.25000028025889
 31
0.0
  0
TEXT
  5
825
  8
TEXT25
 10
291.00000051671572
 20
218.25000028025889
 30
0.0
 40
2.5
  1
P
 41
0.9
  7
T25
  0
LINE
  5
826
  8
KATKO07
 10
271.0
 20
147.1010205144336
 30
0.0
 11
271.0
 21
99.0
 31
0.0
  0
LINE
  5
827
  8
KATKO07
 10
276.0
 20
145.0
 30
0.0
 11
276.0
 21
99.0
 31
0.0
  0
LINE
  5
828
  8
KATKO07
 10
281.0
 20
147.1010205144336
 30
0.0
 11
281.0
 21
99.0
 31
0.0
  0
POLYLINE
  5
82A
  8
TEXT25
 66
     1
 10
0.0
 20
0.0
 30
0.0
 70
     1
 40
0.5
 41
0.5
  0
VERTEX
  5
C12
  8
TEXT25
 10
196.75
 20
121.5
 30
0.0
 42
1.0
  0
VERTEX
  5
C13
  8
TEXT25
 10
197.25
 20
121.5
 30
0.0
 42
1.0
  0
SEQEND
  5
C14
  8
TEXT25
  0
POLYLINE
  5
82C
  8
TEXT25
 66
     1
 10
0.0
 20
0.0
 30
0.0
 70
     1
 40
0.5
 41
0.5
  0
VERTEX
  5
C15
  8
TEXT25
 10
255.75
 20
106.4999999999999
 30
0.0
 42
1.0
  0
VERTEX
  5
C16
  8
TEXT25
 10
256.25
 20
106.4999999999999
 30
0.0
 42
1.0
  0
SEQEND
  5
C17
  8
TEXT25
  0
POLYLINE
  5
82D
  8
TEXT25
 66
     1
 10
0.0
 20
0.0
 30
0.0
 70
     1
 40
0.5
 41
0.5
  0
VERTEX
  5
C18
  8
TEXT25
 10
255.75
 20
118.5
 30
0.0
 42
1.0
  0
VERTEX
  5
C19
  8
TEXT25
 10
256.25
 20
118.5
 30
0.0
 42
1.0
  0
SEQEND
  5
C1A
  8
TEXT25
  0
POLYLINE
  5
82E
  8
TEXT25
 66
     1
 10
0.0
 20
0.0
 30
0.0
  0
VERTEX
  5
C1B
  8
TEXT25
 10
274.0
 20
189.49999999999989
 30
0.0
  0
VERTEX
  5
C1C
  8
TEXT25
 10
276.0
 20
189.49999999999989
 30
0.0
 42
-1.0
  0
VERTEX
  5
C1D
  8
TEXT25
 10
276.0
 20
185.0
 30
0.0
  0
VERTEX
  5
C1E
  8
TEXT25
 10
274.0
 20
185.0
 30
0.0
  0
VERTEX
  5
C1F
  8
TEXT25
 10
276.0
 20
185.0
 30
0.0
 42
-1.0
  0
VERTEX
  5
C20
  8
TEXT25
 10
276.0
 20
180.49999999999989
 30
0.0
  0
VERTEX
  5
C21
  8
TEXT25
 10
274.0
 20
180.49999999999989
 30
0.0
  0
SEQEND
  5
C22
  8
TEXT25
  0
LINE
  5
82F
  8
KATKO07
 10
276.0
 20
180.49999999999989
 30
0.0
 11
256.0
 21
180.49999999999989
 31
0.0
  0
POLYLINE
  5
830
  8
TEXT25
 66
     1
 10
0.0
 20
0.0
 30
0.0
 70
     1
 40
0.5
 41
0.5
  0
VERTEX
  5
C23
  8
TEXT25
 10
255.75
 20
168.0
 30
0.0
 42
1.0
  0
VERTEX
  5
C24
  8
TEXT25
 10
256.25
 20
168.0
 30
0.0
 42
1.0
  0
SEQEND
  5
C25
  8
TEXT25
  0
POLYLINE
  5
831
  8
TEXT25
 66
     1
 10
0.0
 20
0.0
 30
0.0
 70
     1
 40
0.5
 41
0.5
  0
VERTEX
  5
C26
  8
TEXT25
 10
255.75
 20
180.49999999999989
 30
0.0
 42
1.0
  0
VERTEX
  5
C27
  8
TEXT25
 10
256.25
 20
180.49999999999989
 30
0.0
 42
1.0
  0
SEQEND
  5
C28
  8
TEXT25
  0
POLYLINE
  5
832
  8
TEXT25
 66
     1
 10
0.0
 20
0.0
 30
0.0
  0
VERTEX
  5
C29
  8
TEXT25
 10
269.49999999999989
 20
177.0
 30
0.0
  0
VERTEX
  5
C2A
  8
TEXT25
 10
271.49999999999989
 20
177.0
 30
0.0
 42
-1.0
  0
VERTEX
  5
C2B
  8
TEXT25
 10
271.49999999999989
 20
172.5
 30
0.0
  0
VERTEX
  5
C2C
  8
TEXT25
 10
269.49999999999989
 20
172.5
 30
0.0
  0
VERTEX
  5
C2D
  8
TEXT25
 10
271.49999999999989
 20
172.5
 30
0.0
 42
-1.0
  0
VERTEX
  5
C2E
  8
TEXT25
 10
271.49999999999989
 20
168.0
 30
0.0
  0
VERTEX
  5
C2F
  8
TEXT25
 10
269.49999999999989
 20
168.0
 30
0.0
  0
SEQEND
  5
C30
  8
TEXT25
  0
LINE
  5
833
  8
KATKO07
 10
281.0
 20
193.0
 30
0.0
 11
256.0
 21
193.0
 31
0.0
  0
POLYLINE
  5
834
  8
TEXT25
 66
     1
 10
0.0
 20
0.0
 30
0.0
  0
VERTEX
  5
C31
  8
TEXT25
 10
279.0
 20
202.0
 30
0.0
  0
VERTEX
  5
C32
  8
TEXT25
 10
281.0
 20
202.0
 30
0.0
 42
-1.0
  0
VERTEX
  5
C33
  8
TEXT25
 10
281.0
 20
197.5
 30
0.0
  0
VERTEX
  5
C34
  8
TEXT25
 10
279.0
 20
197.5
 30
0.0
  0
VERTEX
  5
C35
  8
TEXT25
 10
281.0
 20
197.5
 30
0.0
 42
-1.0
  0
VERTEX
  5
C36
  8
TEXT25
 10
281.0
 20
193.0
 30
0.0
  0
VERTEX
  5
C37
  8
TEXT25
 10
279.0
 20
193.0
 30
0.0
  0
SEQEND
  5
C38
  8
TEXT25
  0
LINE
  5
835
  8
KATKO07
 10
281.0
 20
202.0
 30
0.0
 11
190.0
 21
202.0
 31
0.0
  0
LINE
  5
836
  8
KATKO07
 10
276.0
 20
189.49999999999989
 30
0.0
 11
190.0
 21
189.49999999999989
 31
0.0
  0
LINE
  5
837
  8
KATKO07
 10
271.0
 20
177.0
 30
0.0
 11
190.0
 21
177.0
 31
0.0
  0
LINE
  5
838
  8
KATKO07
 10
197.0
 20
168.0
 30
0.0
 11
271.0
 21
168.0
 31
0.0
  0
LINE
  5
839
  8
KATKO07
 10
197.0
 20
168.0
 30
0.0
 11
197.0
 21
196.0
 31
0.0
  0
LINE
  5
83A
  8
KATKO07
 10
197.0
 20
183.49999999999989
 30
0.0
 11
190.0
 21
183.49999999999989
 31
0.0
  0
LINE
  5
83B
  8
KATKO07
 10
140.00000101633469
 20
172.50000032668351
 30
0.0
 11
143.00000101633469
 21
172.50000032668351
 31
0.0
  0
LINE
  5
83C
  8
KATKO07
 10
140.00000101633469
 20
175.50000032668351
 30
0.0
 11
143.00000101633469
 21
175.50000032668351
 31
0.0
  0
POLYLINE
  5
83D
  8
TEXT25
 66
     1
 10
0.0
 20
0.0
 30
0.0
 70
     1
 40
0.5
 41
0.5
  0
VERTEX
  5
C39
  8
TEXT25
 10
196.75
 20
170.75
 30
0.0
 42
1.0
  0
VERTEX
  5
C3A
  8
TEXT25
 10
197.25
 20
170.75
 30
0.0
 42
1.0
  0
SEQEND
  5
C3B
  8
TEXT25
  0
POLYLINE
  5
83E
  8
KATKO07
 66
     1
 10
0.0
 20
0.0
 30
0.0
  0
VERTEX
  5
C3C
  8
KATKO07
 10
144.00000101633469
 20
171.00000032668351
 30
0.0
  0
VERTEX
  5
C3D
  8
KATKO07
 10
145.50000101633469
 20
172.50000032668351
 30
0.0
  0
VERTEX
  5
C3E
  8
KATKO07
 10
145.50000101633469
 20
175.50000032668351
 30
0.0
  0
VERTEX
  5
C3F
  8
KATKO07
 10
144.00000101633469
 20
177.00000032668351
 30
0.0
  0
SEQEND
  5
C40
  8
KATKO07
  0
POLYLINE
  5
83F
  8
KATKO07
 66
     1
 10
0.0
 20
0.0
 30
0.0
 70
     1
 40
0.5
 41
0.5
  0
VERTEX
  5
C41
  8
KATKO07
 10
196.75
 20
183.49999999999989
 30
0.0
 42
1.0
  0
VERTEX
  5
C42
  8
KATKO07
 10
197.25
 20
183.49999999999989
 30
0.0
 42
1.0
  0
SEQEND
  5
C43
  8
KATKO07
  0
POLYLINE
  5
840
  8
TEXT25
 66
     1
 10
0.0
 20
0.0
 30
0.0
 70
     1
 40
0.5
 41
0.5
  0
VERTEX
  5
C44
  8
TEXT25
 10
196.75
 20
183.49999999999989
 30
0.0
 42
1.0
  0
VERTEX
  5
C45
  8
TEXT25
 10
197.25
 20
183.49999999999989
 30
0.0
 42
1.0
  0
SEQEND
  5
C46
  8
TEXT25
  0
LINE
  5
841
  8
KATKO07
 10
140.00000101633469
 20
197.50000032668351
 30
0.0
 11
143.00000101633469
 21
197.50000032668351
 31
0.0
  0
LINE
  5
842
  8
KATKO07
 10
140.00000101633469
 20
200.50000032668351
 30
0.0
 11
143.00000101633469
 21
200.50000032668351
 31
0.0
  0
LINE
  5
843
  8
KATKO07
 10
197.0
 20
196.0
 30
0.0
 11
190.0
 21
196.0
 31
0.0
  0
LINE
  5
844
  8
KATKO07
 10
140.00000101633469
 20
188.00000032668351
 30
0.0
 11
143.00000101633469
 21
188.00000032668351
 31
0.0
  0
LINE
  5
845
  8
KATKO07
 10
140.00000101633469
 20
185.00000032668351
 30
0.0
 11
143.00000101633469
 21
185.00000032668351
 31
0.0
  0
POLYLINE
  5
846
  8
KATKO07
 66
     1
 10
0.0
 20
0.0
 30
0.0
  0
VERTEX
  5
C47
  8
KATKO07
 10
144.00000101633469
 20
183.50000032668351
 30
0.0
  0
VERTEX
  5
C48
  8
KATKO07
 10
145.50000101633469
 20
185.00000032668351
 30
0.0
  0
VERTEX
  5
C49
  8
KATKO07
 10
145.50000101633469
 20
188.00000032668351
 30
0.0
  0
VERTEX
  5
C4A
  8
KATKO07
 10
144.00000101633469
 20
189.50000032668351
 30
0.0
  0
SEQEND
  5
C4B
  8
KATKO07
  0
POLYLINE
  5
847
  8
KATKO07
 66
     1
 10
0.0
 20
0.0
 30
0.0
  0
VERTEX
  5
C4C
  8
KATKO07
 10
144.00000101633469
 20
196.00000032668351
 30
0.0
  0
VERTEX
  5
C4D
  8
KATKO07
 10
145.50000101633469
 20
197.50000032668351
 30
0.0
  0
VERTEX
  5
C4E
  8
KATKO07
 10
145.50000101633469
 20
200.50000032668351
 30
0.0
  0
VERTEX
  5
C4F
  8
KATKO07
 10
144.00000101633469
 20
202.00000032668351
 30
0.0
  0
SEQEND
  5
C50
  8
KATKO07
  0
LINE
  5
848
  8
KATKO07
 10
256.0
 20
162.0
 30
0.0
 11
256.0
 21
192.0
 31
0.0
  0
LINE
  5
849
  8
TEXT25
 10
257.5
 20
162.0
 30
0.0
 11
254.49999999999989
 21
162.0
 31
0.0
  0
LINE
  5
84A
  8
TEXT25
 10
255.0
 20
161.5
 30
0.0
 11
256.49999999999989
 21
161.5
 31
0.0
  0
LINE
  5
84B
  8
TEXT25
 10
257.0
 20
161.5
 30
0.0
 11
255.0
 21
161.5
 31
0.0
  0
LINE
  5
84C
  8
TEXT25
 10
256.49999999999989
 20
161.0
 30
0.0
 11
255.5
 21
161.0
 31
0.0
  0
LINE
  5
84D
  8
KATKO07
 10
271.0
 20
203.5
 30
0.0
 11
271.0
 21
158.24999967331641
 31
0.0
  0
LINE
  5
84E
  8
KATKO07
 10
276.0
 20
203.5
 30
0.0
 11
276.0
 21
159.0
 31
0.0
  0
LINE
  5
84F
  8
KATKO07
 10
281.0
 20
203.5
 30
0.0
 11
281.0
 21
157.49999967331641
 31
0.0
  0
LINE
  5
850
  8
KATKO07
 10
271.0
 20
215.0
 30
0.0
 11
271.0
 21
255.99999967331641
 31
0.0
  0
LINE
  5
851
  8
KATKO07
 10
276.0
 20
215.0
 30
0.0
 11
276.0
 21
250.99999967331641
 31
0.0
  0
LINE
  5
852
  8
KATKO07
 10
281.0
 20
215.0
 30
0.0
 11
281.0
 21
245.99999967331641
 31
0.0
  0
LINE
  5
853
  8
TEXT25
 10
231.7499992818604
 20
230.24999963037561
 30
0.0
 11
231.7499992818604
 21
218.7499998486702
 31
0.0
  0
POLYLINE
  5
854
  8
TEXT25
 66
     1
 10
0.0
 20
0.0
 30
0.0
  0
VERTEX
  5
C51
  8
TEXT25
 10
228.14999928186029
 20
220.24999963037561
 30
0.0
 42
1.0
  0
VERTEX
  5
C52
  8
TEXT25
 10
224.54999928186041
 20
220.24999963037561
 30
0.0
 42
-0.9999999999999998
  0
SEQEND
  5
C53
  8
TEXT25
  0
POLYLINE
  5
855
  8
TEXT25
 66
     1
 10
0.0
 20
0.0
 30
0.0
  0
VERTEX
  5
C54
  8
TEXT25
 10
220.94999928186041
 20
220.24999963037561
 30
0.0
 42
-1.0
  0
VERTEX
  5
C55
  8
TEXT25
 10
224.54999928186041
 20
220.24999963037561
 30
0.0
 42
0.9999999999999998
  0
SEQEND
  5
C56
  8
TEXT25
  0
POLYLINE
  5
856
  8
TEXT25
 66
     1
 10
0.0
 20
0.0
 30
0.0
  0
VERTEX
  5
C57
  8
TEXT25
 10
231.7499992818604
 20
220.24999963037561
 30
0.0
 42
1.0
  0
VERTEX
  5
C58
  8
TEXT25
 10
228.14999928186029
 20
220.24999963037561
 30
0.0
 42
-0.9999999999999998
  0
SEQEND
  5
C59
  8
TEXT25
  0
POLYLINE
  5
857
  8
TEXT25
 66
     1
 10
0.0
 20
0.0
 30
0.0
  0
VERTEX
  5
C5A
  8
TEXT25
 10
245.14999928186029
 20
229.74999963037561
 30
0.0
 42
1.0
  0
VERTEX
  5
C5B
  8
TEXT25
 10
241.54999928186041
 20
229.74999963037561
 30
0.0
 42
-0.9999999999999998
  0
SEQEND
  5
C5C
  8
TEXT25
  0
POLYLINE
  5
858
  8
TEXT25
 66
     1
 10
0.0
 20
0.0
 30
0.0
  0
VERTEX
  5
C5D
  8
TEXT25
 10
248.7499992818604
 20
229.74999963037561
 30
0.0
 42
1.0
  0
VERTEX
  5
C5E
  8
TEXT25
 10
245.14999928186029
 20
229.74999963037561
 30
0.0
 42
-0.9999999999999998
  0
SEQEND
  5
C5F
  8
TEXT25
  0
POLYLINE
  5
859
  8
TEXT25
 66
     1
 10
0.0
 20
0.0
 30
0.0
  0
VERTEX
  5
C60
  8
TEXT25
 10
237.94999928186041
 20
229.74999963037561
 30
0.0
 42
-1.0
  0
VERTEX
  5
C61
  8
TEXT25
 10
241.54999928186041
 20
229.74999963037561
 30
0.0
 42
0.9999999999999998
  0
SEQEND
  5
C62
  8
TEXT25
  0
LINE
  5
871
  8
TEXT25
 10
220.94999928186041
 20
220.24999963037561
 30
0.0
 11
219.49999908568901
 21
220.24999963037561
 31
0.0
  0
LINE
  5
874
  8
TEXT25
 10
233.2499992818604
 20
218.7499998486702
 30
0.0
 11
230.2499992818604
 21
218.7499998486702
 31
0.0
  0
LINE
  5
875
  8
TEXT25
 10
232.2499992818604
 20
217.74999984867009
 30
0.0
 11
231.2499992818604
 21
217.74999984867009
 31
0.0
  0
LINE
  5
876
  8
TEXT25
 10
232.7499992818604
 20
218.2499998486702
 30
0.0
 11
230.7499992818604
 21
218.2499998486702
 31
0.0
  0
LINE
  5
877
  8
TEXT25
 10
230.7499992818604
 20
218.2499998486702
 30
0.0
 11
232.2499992818604
 21
218.2499998486702
 31
0.0
  0
LINE
  5
878
  8
TEXT25
 10
237.94999928186041
 20
230.24999963037561
 30
0.0
 11
237.94999928186041
 21
218.7499998486702
 31
0.0
  0
LINE
  5
879
  8
TEXT25
 10
238.94999928186041
 20
218.2499998486702
 30
0.0
 11
236.94999928186041
 21
218.2499998486702
 31
0.0
  0
LINE
  5
87A
  8
TEXT25
 10
239.44999928186041
 20
218.7499998486702
 30
0.0
 11
236.44999928186041
 21
218.7499998486702
 31
0.0
  0
LINE
  5
87B
  8
TEXT25
 10
238.44999928186041
 20
217.74999984867009
 30
0.0
 11
237.44999928186041
 21
217.74999984867009
 31
0.0
  0
LINE
  5
87C
  8
TEXT25
 10
236.94999928186041
 20
218.2499998486702
 30
0.0
 11
238.44999928186041
 21
218.2499998486702
 31
0.0
  0
POLYLINE
  5
87D
  8
TEXT25
 66
     1
 10
0.0
 20
0.0
 30
0.0
  0
VERTEX
  5
C63
  8
TEXT25
 10
245.14999928186029
 20
220.24999963037561
 30
0.0
 42
1.0
  0
VERTEX
  5
C64
  8
TEXT25
 10
241.54999928186041
 20
220.24999963037561
 30
0.0
 42
-0.9999999999999998
  0
SEQEND
  5
C65
  8
TEXT25
  0
POLYLINE
  5
87E
  8
TEXT25
 66
     1
 10
0.0
 20
0.0
 30
0.0
  0
VERTEX
  5
C66
  8
TEXT25
 10
245.14999928186029
 20
225.24999963037561
 30
0.0
 42
1.0
  0
VERTEX
  5
C67
  8
TEXT25
 10
241.54999928186041
 20
225.24999963037561
 30
0.0
 42
-0.9999999999999998
  0
SEQEND
  5
C68
  8
TEXT25
  0
POLYLINE
  5
87F
  8
TEXT25
 66
     1
 10
0.0
 20
0.0
 30
0.0
  0
VERTEX
  5
C69
  8
TEXT25
 10
237.94999928186041
 20
220.24999963037561
 30
0.0
 42
-1.0
  0
VERTEX
  5
C6A
  8
TEXT25
 10
241.54999928186041
 20
220.24999963037561
 30
0.0
 42
0.9999999999999998
  0
SEQEND
  5
C6B
  8
TEXT25
  0
POLYLINE
  5
880
  8
TEXT25
 66
     1
 10
0.0
 20
0.0
 30
0.0
  0
VERTEX
  5
C6C
  8
TEXT25
 10
237.94999928186041
 20
225.24999963037561
 30
0.0
 42
-1.0
  0
VERTEX
  5
C6D
  8
TEXT25
 10
241.54999928186041
 20
225.24999963037561
 30
0.0
 42
0.9999999999999998
  0
SEQEND
  5
C6E
  8
TEXT25
  0
POLYLINE
  5
881
  8
TEXT25
 66
     1
 10
0.0
 20
0.0
 30
0.0
  0
VERTEX
  5
C6F
  8
TEXT25
 10
248.7499992818604
 20
220.24999963037561
 30
0.0
 42
1.0
  0
VERTEX
  5
C70
  8
TEXT25
 10
245.14999928186029
 20
220.24999963037561
 30
0.0
 42
-0.9999999999999998
  0
SEQEND
  5
C71
  8
TEXT25
  0
LINE
  5
882
  8
TEXT25
 10
248.7499992818604
 20
220.24999963037561
 30
0.0
 11
250.99999908568901
 21
220.24999963037561
 31
0.0
  0
POLYLINE
  5
883
  8
TEXT25
 66
     1
 10
0.0
 20
0.0
 30
0.0
  0
VERTEX
  5
C72
  8
TEXT25
 10
248.7499992818604
 20
225.24999963037561
 30
0.0
 42
1.0
  0
VERTEX
  5
C73
  8
TEXT25
 10
245.14999928186029
 20
225.24999963037561
 30
0.0
 42
-0.9999999999999998
  0
SEQEND
  5
C74
  8
TEXT25
  0
LINE
  5
884
  8
TEXT25
 10
248.7499992818604
 20
229.74999963037561
 30
0.0
 11
250.99999908568901
 21
229.74999963037561
 31
0.0
  0
LINE
  5
885
  8
TEXT25
 10
248.7499992818604
 20
225.24999963037561
 30
0.0
 11
250.99999908568901
 21
225.24999963037561
 31
0.0
  0
POLYLINE
  5
886
  8
TEXT25
 66
     1
 10
0.0
 20
0.0
 30
0.0
  0
VERTEX
  5
C75
  8
TEXT25
 10
228.14999928186029
 20
225.24999963037561
 30
0.0
 42
1.0
  0
VERTEX
  5
C76
  8
TEXT25
 10
224.54999928186041
 20
225.24999963037561
 30
0.0
 42
-0.9999999999999998
  0
SEQEND
  5
C77
  8
TEXT25
  0
POLYLINE
  5
887
  8
TEXT25
 66
     1
 10
0.0
 20
0.0
 30
0.0
  0
VERTEX
  5
C78
  8
TEXT25
 10
228.14999928186029
 20
230.24999963037561
 30
0.0
 42
1.0
  0
VERTEX
  5
C79
  8
TEXT25
 10
224.54999928186041
 20
230.24999963037561
 30
0.0
 42
-0.9999999999999998
  0
SEQEND
  5
C7A
  8
TEXT25
  0
POLYLINE
  5
888
  8
TEXT25
 66
     1
 10
0.0
 20
0.0
 30
0.0
  0
VERTEX
  5
C7B
  8
TEXT25
 10
220.94999928186041
 20
225.24999963037561
 30
0.0
 42
-1.0
  0
VERTEX
  5
C7C
  8
TEXT25
 10
224.54999928186041
 20
225.24999963037561
 30
0.0
 42
0.9999999999999998
  0
SEQEND
  5
C7D
  8
TEXT25
  0
LINE
  5
889
  8
TEXT25
 10
220.94999928186041
 20
225.24999963037561
 30
0.0
 11
219.49999908568901
 21
225.24999963037561
 31
0.0
  0
POLYLINE
  5
88A
  8
TEXT25
 66
     1
 10
0.0
 20
0.0
 30
0.0
  0
VERTEX
  5
C7E
  8
TEXT25
 10
220.94999928186041
 20
230.24999963037561
 30
0.0
 42
-1.0
  0
VERTEX
  5
C7F
  8
TEXT25
 10
224.54999928186041
 20
230.24999963037561
 30
0.0
 42
0.9999999999999998
  0
SEQEND
  5
C80
  8
TEXT25
  0
LINE
  5
88B
  8
TEXT25
 10
220.94999928186041
 20
230.24999963037561
 30
0.0
 11
219.49999908568901
 21
230.24999963037561
 31
0.0
  0
POLYLINE
  5
88C
  8
TEXT25
 66
     1
 10
0.0
 20
0.0
 30
0.0
  0
VERTEX
  5
C81
  8
TEXT25
 10
231.7499992818604
 20
225.24999963037561
 30
0.0
 42
1.0
  0
VERTEX
  5
C82
  8
TEXT25
 10
228.14999928186029
 20
225.24999963037561
 30
0.0
 42
-0.9999999999999998
  0
SEQEND
  5
C83
  8
TEXT25
  0
POLYLINE
  5
88D
  8
TEXT25
 66
     1
 10
0.0
 20
0.0
 30
0.0
  0
VERTEX
  5
C84
  8
TEXT25
 10
231.7499992818604
 20
230.24999963037561
 30
0.0
 42
1.0
  0
VERTEX
  5
C85
  8
TEXT25
 10
228.14999928186029
 20
230.24999963037561
 30
0.0
 42
-0.9999999999999998
  0
SEQEND
  5
C86
  8
TEXT25
  0
LINE
  5
88E
  8
KATKO07
 10
190.5
 20
149.99999967331641
 30
0.0
 11
211.49999898366519
 21
149.99999967331641
 31
0.0
  0
LINE
  5
88F
  8
KATKO07
 10
211.49999898366519
 20
149.99999967331641
 30
0.0
 11
211.49999898366519
 21
230.24999967331641
 31
0.0
  0
LINE
  5
890
  8
KATKO07
 10
211.49999898366519
 20
230.24999967331641
 30
0.0
 11
219.74999898366519
 21
230.24999967331641
 31
0.0
  0
LINE
  5
892
  8
KATKO07
 10
216.49999898366519
 20
144.74999999999989
 30
0.0
 11
216.49999898366519
 21
225.24999967331641
 31
0.0
  0
LINE
  5
893
  8
KATKO07
 10
216.49999898366519
 20
225.24999967331641
 30
0.0
 11
219.49999898366519
 21
225.24999967331641
 31
0.0
  0
LINE
  5
894
  8
KATKO07
 10
190.5
 20
161.99999967331641
 30
0.0
 11
216.49999898366519
 21
161.99999967331641
 31
0.0
  0
LINE
  5
897
  8
KATKO07
 10
206.99999898366519
 20
220.24999967331641
 30
0.0
 11
219.74999898366519
 21
220.24999967331641
 31
0.0
  0
LINE
  5
899
  8
KATKO07
 10
206.99999898366519
 20
156.75
 30
0.0
 11
206.99999898366519
 21
220.24999967331641
 31
0.0
  0
LINE
  5
89A
  8
KATKO07
 10
190.5
 20
212.99999967331641
 30
0.0
 11
206.99999898366519
 21
212.99999967331641
 31
0.0
  0
POLYLINE
  5
89C
  8
TEXT25
 66
     1
 10
0.0
 20
0.0
 30
0.0
 70
     1
 40
0.5
 41
0.5
  0
VERTEX
  5
C87
  8
TEXT25
 10
206.74999898366519
 20
212.99999967331641
 30
0.0
 42
1.0
  0
VERTEX
  5
C88
  8
TEXT25
 10
207.24999898366519
 20
212.99999967331641
 30
0.0
 42
1.0
  0
SEQEND
  5
C89
  8
TEXT25
  0
POLYLINE
  5
89D
  8
TEXT25
 66
     1
 10
0.0
 20
0.0
 30
0.0
 70
     1
 40
0.5
 41
0.5
  0
VERTEX
  5
C8A
  8
TEXT25
 10
211.24999898366519
 20
207.5
 30
0.0
 42
1.0
  0
VERTEX
  5
C8B
  8
TEXT25
 10
211.74999898366519
 20
207.5
 30
0.0
 42
1.0
  0
SEQEND
  5
C8C
  8
TEXT25
  0
POLYLINE
  5
89E
  8
TEXT25
 66
     1
 10
0.0
 20
0.0
 30
0.0
 70
     1
 40
0.5
 41
0.5
  0
VERTEX
  5
C8D
  8
TEXT25
 10
216.24999898366519
 20
161.99999967331641
 30
0.0
 42
1.0
  0
VERTEX
  5
C8E
  8
TEXT25
 10
216.74999898366519
 20
161.99999967331641
 30
0.0
 42
1.0
  0
SEQEND
  5
C8F
  8
TEXT25
  0
POLYLINE
  5
89F
  8
TEXT25
 66
     1
 10
0.0
 20
0.0
 30
0.0
 70
     1
 40
0.5
 41
0.5
  0
VERTEX
  5
C90
  8
TEXT25
 10
196.74999898366519
 20
170.74999967331641
 30
0.0
 42
1.0
  0
VERTEX
  5
C91
  8
TEXT25
 10
197.24999898366519
 20
170.74999967331641
 30
0.0
 42
1.0
  0
SEQEND
  5
C92
  8
TEXT25
  0
POLYLINE
  5
8A0
  8
TEXT25
 66
     1
 10
0.0
 20
0.0
 30
0.0
 70
     1
 40
0.5
 41
0.5
  0
VERTEX
  5
C93
  8
TEXT25
 10
196.74999898366519
 20
183.49999967331641
 30
0.0
 42
1.0
  0
VERTEX
  5
C94
  8
TEXT25
 10
197.24999898366519
 20
183.49999967331641
 30
0.0
 42
1.0
  0
SEQEND
  5
C95
  8
TEXT25
  0
POLYLINE
  5
8A1
  8
TEXT25
 66
     1
 10
0.0
 20
0.0
 30
0.0
 70
     1
 40
0.5
 41
0.5
  0
VERTEX
  5
C96
  8
TEXT25
 10
255.99999898366519
 20
180.49999967331641
 30
0.0
 42
1.0
  0
VERTEX
  5
C97
  8
TEXT25
 10
256.49999898366519
 20
180.49999967331641
 30
0.0
 42
1.0
  0
SEQEND
  5
C98
  8
TEXT25
  0
POLYLINE
  5
8A2
  8
TEXT25
 66
     1
 10
0.0
 20
0.0
 30
0.0
 70
     1
 40
0.5
 41
0.5
  0
VERTEX
  5
C99
  8
TEXT25
 10
255.74999898366519
 20
167.99999967331641
 30
0.0
 42
1.0
  0
VERTEX
  5
C9A
  8
TEXT25
 10
256.24999898366519
 20
167.99999967331641
 30
0.0
 42
1.0
  0
SEQEND
  5
C9B
  8
TEXT25
  0
POLYLINE
  5
8A3
  8
KATKO07
 66
     1
 10
0.0
 20
0.0
 30
0.0
 70
     1
 40
0.5
 41
0.5
  0
VERTEX
  5
C9C
  8
KATKO07
 10
270.74999951882421
 20
256.00000008351589
 30
0.0
 42
1.0
  0
VERTEX
  5
C9D
  8
KATKO07
 10
271.24999951882421
 20
256.00000008351589
 30
0.0
 42
1.0
  0
SEQEND
  5
C9E
  8
KATKO07
  0
POLYLINE
  5
8A4
  8
KATKO07
 66
     1
 10
0.0
 20
0.0
 30
0.0
 70
     1
 40
0.5
 41
0.5
  0
VERTEX
  5
C9F
  8
KATKO07
 10
275.74999951882421
 20
251.00000008351591
 30
0.0
 42
1.0
  0
VERTEX
  5
CA0
  8
KATKO07
 10
276.24999951882421
 20
251.00000008351591
 30
0.0
 42
1.0
  0
SEQEND
  5
CA1
  8
KATKO07
  0
POLYLINE
  5
8A5
  8
KATKO07
 66
     1
 10
0.0
 20
0.0
 30
0.0
 70
     1
 40
0.5
 41
0.5
  0
VERTEX
  5
CA2
  8
KATKO07
 10
280.74999951882421
 20
246.00000008351591
 30
0.0
 42
1.0
  0
VERTEX
  5
CA3
  8
KATKO07
 10
281.24999951882421
 20
246.00000008351591
 30
0.0
 42
1.0
  0
SEQEND
  5
CA4
  8
KATKO07
  0
TEXT
  5
948
  8
TEXT25
 10
156.24999946545421
 20
56.000000224381893
 30
0.0
 40
3.5
  1
-
  7
T25
  0
TEXT
  5
989
  8
TEXT25
 10
175.0
 20
218.5
 30
0.0
 40
2.5
  1
101
 41
0.9
  7
T25
  0
LINE
  5
98C
  8
KATKO07
 10
150.24999896930851
 20
29.500000224381889
 30
0.0
 11
150.24999896930851
 21
22.500000224381889
 31
0.0
  0
LINE
  5
98E
  8
KATKO07
 10
157.24999946545421
 20
29.500000224381889
 30
0.0
 11
157.24999946545421
 21
22.500000224381889
 31
0.0
  0
TEXT
  5
990
  8
TEXT25
 10
148.74999946545421
 20
56.000000224381893
 30
0.0
 40
3.5
  1
+
  7
T25
  0
LINE
  5
9CB
  8
KATKO07
 10
197.0
 20
109.4999999999999
 30
0.0
 11
190.0
 21
109.4999999999999
 31
0.0
  0
POLYLINE
  5
9CC
  8
KATKO07
 66
     1
 10
0.0
 20
0.0
 30
0.0
 70
     1
 40
0.5
 41
0.5
  0
VERTEX
  5
CA5
  8
KATKO07
 10
196.75
 20
109.4999999999999
 30
0.0
 42
1.0
  0
VERTEX
  5
CA6
  8
KATKO07
 10
197.25
 20
109.4999999999999
 30
0.0
 42
1.0
  0
SEQEND
  5
CA7
  8
KATKO07
  0
POLYLINE
  5
9CD
  8
TEXT25
 66
     1
 10
0.0
 20
0.0
 30
0.0
 70
     1
 40
0.5
 41
0.5
  0
VERTEX
  5
CA8
  8
TEXT25
 10
196.75
 20
109.4999999999999
 30
0.0
 42
1.0
  0
VERTEX
  5
CA9
  8
TEXT25
 10
197.25
 20
109.4999999999999
 30
0.0
 42
1.0
  0
SEQEND
  5
CAA
  8
TEXT25
  0
LINE
  5
9CE
  8
KATKO07
 10
140.0
 20
153.0
 30
0.0
 11
156.0
 21
153.0
 31
0.0
  0
LINE
  5
9CF
  8
KATKO07
 10
156.0
 20
153.0
 30
0.0
 11
156.0
 21
156.75
 31
0.0
  0
LINE
  5
9D0
  8
KATKO07
 10
156.0
 20
156.75
 30
0.0
 11
207.0
 21
156.75
 31
0.0
  0
LINE
  5
9D1
  8
KATKO07
 10
140.0
 20
141.0
 30
0.0
 11
156.0
 21
141.0
 31
0.0
  0
LINE
  5
9D2
  8
KATKO07
 10
156.0
 20
144.74999999999989
 30
0.0
 11
216.49999898366519
 21
144.74999999999989
 31
0.0
  0
LINE
  5
9D3
  8
KATKO07
 10
156.0
 20
141.0
 30
0.0
 11
156.0
 21
144.74999999999989
 31
0.0
  0
LINE
  5
9D6
  8
KATKO07
 10
197.0
 20
171.0
 30
0.0
 11
190.0
 21
171.0
 31
0.0
  0
POLYLINE
  5
9D7
  8
TEXT25
 66
     1
 10
0.0
 20
0.0
 30
0.0
 70
     1
 40
0.5
 41
0.5
  0
VERTEX
  5
CAB
  8
TEXT25
 10
196.74999898366519
 20
170.99999967331641
 30
0.0
 42
1.0
  0
VERTEX
  5
CAC
  8
TEXT25
 10
197.24999898366519
 20
170.99999967331641
 30
0.0
 42
1.0
  0
SEQEND
  5
CAD
  8
TEXT25
  0
POLYLINE
  5
9D8
  8
TEXT25
 66
     1
 10
0.0
 20
0.0
 30
0.0
 70
     1
 40
0.5
 41
0.5
  0
VERTEX
  5
CAE
  8
TEXT25
 10
196.75
 20
171.0
 30
0.0
 42
1.0
  0
VERTEX
  5
CAF
  8
TEXT25
 10
197.25
 20
171.0
 30
0.0
 42
1.0
  0
SEQEND
  5
CB0
  8
TEXT25
  0
LINE
  5
9D9
  8
KATKO07
 10
140.0
 20
204.0
 30
0.0
 11
156.0
 21
204.0
 31
0.0
  0
LINE
  5
9DA
  8
KATKO07
 10
156.0
 20
207.5
 30
0.0
 11
211.49999898366519
 21
207.5
 31
0.0
  0
LINE
  5
9DB
  8
KATKO07
 10
156.0
 20
204.0
 30
0.0
 11
156.0
 21
207.5
 31
0.0
  0
LINE
  5
9DC
  8
PISTKATK
 10
190.0
 20
28.25
 30
0.0
 11
190.0
 21
230.75
 31
0.0
  0
LINE
  5
9DE
  8
PISTKATK
 10
19.5
 20
28.25
 30
0.0
 11
190.25
 21
28.25
 31
0.0
  0
TEXT
  5
9DF
  8
TEXT25
 10
308.49999999999989
 20
198.20238095238091
 30
0.0
 40
2.5
  1
101
 41
0.9
  7
T25
  0
TEXT
  5
9E0
  8
TEXT25
 10
308.49999999999989
 20
193.20238095238091
 30
0.0
 40
2.5
  1
RTXP 24
 41
0.9
  7
T25
  0
TEXT
  5
9E1
  8
TEXT25
 10
308.49999999999989
 20
188.20238095238091
 30
0.0
 40
2.5
  1
RK 926 315-AH
 41
0.9
  7
T25
  0
TEXT
  5
9E2
  8
TEXT25
 10
148.74999946545421
 20
16.500000224381889
 30
0.0
 40
3.5
  1
+
  7
T25
  0
TEXT
  5
9E3
  8
TEXT25
 10
156.24999946545421
 20
16.500000224381889
 30
0.0
 40
3.5
  1
-
  7
T25
  0
TEXT
  5
9FD
  8
MITTA
 10
157.0
 20
104.45238095238091
 30
0.0
 40
2.5
  1
IL1
 41
0.9
  7
T25
  0
TEXT
  5
9FE
  8
MITTA
 10
157.0
 20
110.45238095238091
 30
0.0
 40
2.5
  1
IL1
 41
0.9
  7
T25
  0
TEXT
  5
9FF
  8
MITTA
 10
157.0
 20
116.45238095238091
 30
0.0
 40
2.5
  1
IL2
 41
0.9
  7
T25
  0
TEXT
  5
A00
  8
MITTA
 10
157.0
 20
122.45238095238091
 30
0.0
 40
2.5
  1
IL2
 41
0.9
  7
T25
  0
TEXT
  5
A01
  8
MITTA
 10
157.0
 20
128.45238095238091
 30
0.0
 40
2.5
  1
IL3
 41
0.9
  7
T25
  0
TEXT
  5
A02
  8
MITTA
 10
157.0
 20
134.45238095238091
 30
0.0
 40
2.5
  1
IL3
 41
0.9
  7
T25
  0
TEXT
  5
A03
  8
MITTA
 10
157.0
 20
149.45238095238091
 30
0.0
 40
2.5
  1
UL1
 41
0.9
  7
T25
  0
TEXT
  5
A04
  8
MITTA
 10
157.0
 20
161.45238095238091
 30
0.0
 40
2.5
  1
UL2
 41
0.9
  7
T25
  0
TEXT
  5
A05
  8
TEXT25
 10
157.0
 20
165.95238095238091
 30
0.0
 40
2.5
  1
IL1
 41
0.9
  7
T25
  0
TEXT
  5
A06
  8
TEXT25
 10
157.0
 20
171.95238095238091
 30
0.0
 40
2.5
  1
IL1
 41
0.9
  7
T25
  0
TEXT
  5
A07
  8
TEXT25
 10
157.0
 20
178.45238095238091
 30
0.0
 40
2.5
  1
IL2
 41
0.9
  7
T25
  0
TEXT
  5
A08
  8
TEXT25
 10
157.0
 20
184.45238095238091
 30
0.0
 40
2.5
  1
IL2
 41
0.9
  7
T25
  0
TEXT
  5
A09
  8
TEXT25
 10
157.0
 20
190.95238095238091
 30
0.0
 40
2.5
  1
IL3
 41
0.9
  7
T25
  0
TEXT
  5
A0A
  8
TEXT25
 10
157.0
 20
196.95238095238091
 30
0.0
 40
2.5
  1
IL3
 41
0.9
  7
T25
  0
TEXT
  5
A0B
  8
MITTA
 10
157.0
 20
212.45238095238091
 30
0.0
 40
2.5
  1
UL3
 41
0.9
  7
T25
  0
POLYLINE
  5
A0C
  8
TEXT25
 66
     1
 10
0.0
 20
0.0
 30
0.0
 70
     1
 40
0.5
 41
0.5
  0
VERTEX
  5
CB1
  8
TEXT25
 10
206.74999999999989
 20
213.0
 30
0.0
 42
1.0
  0
VERTEX
  5
CB2
  8
TEXT25
 10
207.25
 20
213.0
 30
0.0
 42
1.0
  0
SEQEND
  5
CB3
  8
TEXT25
  0
POLYLINE
  5
A0D
  8
TEXT25
 66
     1
 10
0.0
 20
0.0
 30
0.0
 70
     1
 40
0.5
 41
0.5
  0
VERTEX
  5
CB4
  8
TEXT25
 10
211.24999999999989
 20
207.5
 30
0.0
 42
1.0
  0
VERTEX
  5
CB5
  8
TEXT25
 10
211.75
 20
207.5
 30
0.0
 42
1.0
  0
SEQEND
  5
CB6
  8
TEXT25
  0
POLYLINE
  5
A0E
  8
TEXT25
 66
     1
 10
0.0
 20
0.0
 30
0.0
 70
     1
 40
0.5
 41
0.5
  0
VERTEX
  5
CB7
  8
TEXT25
 10
196.75
 20
183.49999999999989
 30
0.0
 42
1.0
  0
VERTEX
  5
CB8
  8
TEXT25
 10
197.25
 20
183.49999999999989
 30
0.0
 42
1.0
  0
SEQEND
  5
CB9
  8
TEXT25
  0
POLYLINE
  5
A0F
  8
TEXT25
 66
     1
 10
0.0
 20
0.0
 30
0.0
 70
     1
 40
0.5
 41
0.5
  0
VERTEX
  5
CBA
  8
TEXT25
 10
196.75
 20
171.0
 30
0.0
 42
1.0
  0
VERTEX
  5
CBB
  8
TEXT25
 10
197.25
 20
171.0
 30
0.0
 42
1.0
  0
SEQEND
  5
CBC
  8
TEXT25
  0
POLYLINE
  5
A10
  8
TEXT25
 66
     1
 10
0.0
 20
0.0
 30
0.0
 70
     1
 40
0.5
 41
0.5
  0
VERTEX
  5
CBD
  8
TEXT25
 10
216.25
 20
162.0
 30
0.0
 42
1.0
  0
VERTEX
  5
CBE
  8
TEXT25
 10
216.74999999999989
 20
162.0
 30
0.0
 42
1.0
  0
SEQEND
  5
CBF
  8
TEXT25
  0
POLYLINE
  5
A11
  8
TEXT25
 66
     1
 10
0.0
 20
0.0
 30
0.0
 70
     1
 40
0.5
 41
0.5
  0
VERTEX
  5
CC0
  8
TEXT25
 10
255.75
 20
180.49999999999989
 30
0.0
 42
1.0
  0
VERTEX
  5
CC1
  8
TEXT25
 10
256.25
 20
180.49999999999989
 30
0.0
 42
1.0
  0
SEQEND
  5
CC2
  8
TEXT25
  0
POLYLINE
  5
A12
  8
TEXT25
 66
     1
 10
0.0
 20
0.0
 30
0.0
 70
     1
 40
0.5
 41
0.5
  0
VERTEX
  5
CC3
  8
TEXT25
 10
255.75
 20
168.0
 30
0.0
 42
1.0
  0
VERTEX
  5
CC4
  8
TEXT25
 10
256.25
 20
168.0
 30
0.0
 42
1.0
  0
SEQEND
  5
CC5
  8
TEXT25
  0
POLYLINE
  5
A16
  8
TEXT25
 66
     1
 10
0.0
 20
0.0
 30
0.0
 70
     1
 40
0.5
 41
0.5
  0
VERTEX
  5
CC6
  8
TEXT25
 10
270.75
 20
256.0
 30
0.0
 42
1.0
  0
VERTEX
  5
CC7
  8
TEXT25
 10
271.24999999999989
 20
256.0
 30
0.0
 42
1.0
  0
SEQEND
  5
CC8
  8
TEXT25
  0
POLYLINE
  5
A17
  8
TEXT25
 66
     1
 10
0.0
 20
0.0
 30
0.0
 70
     1
 40
0.5
 41
0.5
  0
VERTEX
  5
CC9
  8
TEXT25
 10
275.74999999999989
 20
251.0
 30
0.0
 42
1.0
  0
VERTEX
  5
CCA
  8
TEXT25
 10
276.25
 20
251.0
 30
0.0
 42
1.0
  0
SEQEND
  5
CCB
  8
TEXT25
  0
POLYLINE
  5
A18
  8
TEXT25
 66
     1
 10
0.0
 20
0.0
 30
0.0
 70
     1
 40
0.5
 41
0.5
  0
VERTEX
  5
CCC
  8
TEXT25
 10
280.75
 20
246.0
 30
0.0
 42
1.0
  0
VERTEX
  5
CCD
  8
TEXT25
 10
281.25
 20
246.0
 30
0.0
 42
1.0
  0
SEQEND
  5
CCE
  8
TEXT25
  0
POLYLINE
  5
A19
  8
TEXT25
 66
     1
 10
0.0
 20
0.0
 30
0.0
 70
     1
 40
0.5
 41
0.5
  0
VERTEX
  5
CCF
  8
TEXT25
 10
196.75
 20
121.5
 30
0.0
 42
1.0
  0
VERTEX
  5
CD0
  8
TEXT25
 10
197.25
 20
121.5
 30
0.0
 42
1.0
  0
SEQEND
  5
CD1
  8
TEXT25
  0
POLYLINE
  5
A1A
  8
TEXT25
 66
     1
 10
0.0
 20
0.0
 30
0.0
 70
     1
 40
0.5
 41
0.5
  0
VERTEX
  5
CD2
  8
TEXT25
 10
196.75
 20
109.4999999999999
 30
0.0
 42
1.0
  0
VERTEX
  5
CD3
  8
TEXT25
 10
197.25
 20
109.4999999999999
 30
0.0
 42
1.0
  0
SEQEND
  5
CD4
  8
TEXT25
  0
POLYLINE
  5
A1B
  8
TEXT25
 66
     1
 10
0.0
 20
0.0
 30
0.0
 70
     1
 40
0.5
 41
0.5
  0
VERTEX
  5
CD5
  8
TEXT25
 10
255.75
 20
118.5
 30
0.0
 42
1.0
  0
VERTEX
  5
CD6
  8
TEXT25
 10
256.25
 20
118.5
 30
0.0
 42
1.0
  0
SEQEND
  5
CD7
  8
TEXT25
  0
POLYLINE
  5
A1C
  8
TEXT25
 66
     1
 10
0.0
 20
0.0
 30
0.0
 70
     1
 40
0.5
 41
0.5
  0
VERTEX
  5
CD8
  8
TEXT25
 10
255.75
 20
106.4999999999999
 30
0.0
 42
1.0
  0
VERTEX
  5
CD9
  8
TEXT25
 10
256.25
 20
106.4999999999999
 30
0.0
 42
1.0
  0
SEQEND
  5
CDA
  8
TEXT25
  0
POLYLINE
  5
A1D
  8
TEXT25
 66
     1
 10
0.0
 20
0.0
 30
0.0
 70
     1
 40
0.5
 41
0.5
  0
VERTEX
  5
CDB
  8
TEXT25
 10
275.74999999999989
 20
99.0
 30
0.0
 42
1.0
  0
VERTEX
  5
CDC
  8
TEXT25
 10
276.25
 20
99.0
 30
0.0
 42
1.0
  0
SEQEND
  5
CDD
  8
TEXT25
  0
INSERT
  5
A59
  8
OHUT
  2
12A
 10
157.12499946334009
 20
28.250000261344091
 30
0.0
  0
INSERT
  5
A5A
  8
OHUT
  2
1A
 10
150.12499946334009
 20
28.250000261344091
 30
0.0
  0
INSERT
  5
A5B
  8
OHUT
  2
APU
 10
166.87499946334009
 20
46.750000261344098
 30
0.0
  0
INSERT
  5
A8B
  8
OHUT
 66
     1
  2
OPENCIRC
 10
164.25
 20
88.75
 30
0.0
  0
ATTRIB
  5
A8C
  8
OHUT
 10
164.74999999999989
 20
88.75
 30
0.0
 40
2.25
  1
5B
 41
0.9
  7
T225
  2
TERMINAL1
 70
     0
  0
ATTRIB
  5
A8D
  8
OHUT
 10
182.24999999999989
 20
88.75
 30
0.0
 40
2.25
  1
5A
 41
0.9
  7
T225
  2
TERMINAL2
 70
     0
  0
SEQEND
  5
A8E
  8
OHUT
  0
INSERT
  5
A8F
  8
OHUT
 66
     1
  2
OPENCIRC
 10
164.5
 20
82.75
 30
0.0
  0
ATTRIB
  5
A90
  8
OHUT
 10
165.0
 20
82.75
 30
0.0
 40
2.25
  1
6B
 41
0.9
  7
T225
  2
TERMINAL1
 70
     0
  0
ATTRIB
  5
A91
  8
OHUT
 10
182.5
 20
82.75
 30
0.0
 40
2.25
  1
6A
 41
0.9
  7
T225
  2
TERMINAL2
 70
     0
  0
SEQEND
  5
A92
  8
OHUT
  0
INSERT
  5
A93
  8
OHUT
 66
     1
  2
OPENCIRC
 10
164.74999999999989
 20
76.75
 30
0.0
  0
ATTRIB
  5
A94
  8
OHUT
 10
165.25
 20
76.75
 30
0.0
 40
2.25
  1
7B
 41
0.9
  7
T225
  2
TERMINAL1
 70
     0
  0
ATTRIB
  5
A95
  8
OHUT
 10
182.75
 20
76.75
 30
0.0
 40
2.25
  1
7A
 41
0.9
  7
T225
  2
TERMINAL2
 70
     0
  0
SEQEND
  5
A96
  8
OHUT
  0
INSERT
  5
AA3
  8
OHUT
 66
     1
  2
TRIPCIRC
 10
164.74999999999989
 20
71.25
 30
0.0
  0
ATTRIB
  5
AA4
  8
OHUT
 10
165.25
 20
71.25
 30
0.0
 40
2.25
  1
8B
 41
0.9
  7
T225
  2
TERMINAL1
 70
     0
  0
ATTRIB
  5
AA5
  8
OHUT
 10
182.75
 20
71.25
 30
0.0
 40
2.25
  1
8A
 41
0.9
  7
T225
  2
TERMINAL2
 70
     0
  0
SEQEND
  5
AA6
  8
OHUT
  0
INSERT
  5
AA7
  8
OHUT
 66
     1
  2
TRIPCIRC
 10
165.0
 20
64.75
 30
0.0
  0
ATTRIB
  5
AA8
  8
OHUT
 10
165.5
 20
64.75
 30
0.0
 40
2.25
  1
9B
 41
0.9
  7
T225
  2
TERMINAL1
 70
     0
  0
ATTRIB
  5
AA9
  8
OHUT
 10
183.0
 20
64.75
 30
0.0
 40
2.25
  1
9A
 41
0.9
  7
T225
  2
TERMINAL2
 70
     0
  0
SEQEND
  5
AAA
  8
OHUT
  0
INSERT
  5
AAB
  8
OHUT
 66
     1
  2
TRIPCIRC
 10
165.25
 20
58.75
 30
0.0
  0
ATTRIB
  5
AAC
  8
OHUT
 10
165.74999999999989
 20
58.75
 30
0.0
 40
2.25
  1
10B
 41
0.9
  7
T225
  2
TERMINAL1
 70
     0
  0
ATTRIB
  5
AAD
  8
OHUT
 10
183.24999999999989
 20
58.75
 30
0.0
 40
2.25
  1
10A
 41
0.9
  7
T225
  2
TERMINAL2
 70
     0
  0
SEQEND
  5
AAE
  8
OHUT
  0
INSERT
  5
AAF
  8
OHUT
 66
     1
  2
TRIPCIRC
 10
165.25
 20
52.75
 30
0.0
  0
ATTRIB
  5
AB0
  8
OHUT
 10
165.74999999999989
 20
52.75
 30
0.0
 40
2.25
  1
11B
 41
0.9
  7
T225
  2
TERMINAL1
 70
     0
  0
ATTRIB
  5
AB1
  8
OHUT
 10
183.24999999999989
 20
52.75
 30
0.0
 40
2.25
  1
11A
 41
0.9
  7
T225
  2
TERMINAL2
 70
     0
  0
SEQEND
  5
AB2
  8
OHUT
  0
INSERT
  5
AB3
  8
OHUT
 66
     1
  2
OPENCIRC
 10
166.0
 20
162.0
 30
0.0
  0
ATTRIB
  5
AB4
  8
OHUT
 10
166.5
 20
162.0
 30
0.0
 40
2.25
  1
3B
 41
0.9
  7
T225
  2
TERMINAL1
 70
     0
  0
ATTRIB
  5
AB5
  8
OHUT
 10
184.0
 20
162.0
 30
0.0
 40
2.25
  1
3A
 41
0.9
  7
T225
  2
TERMINAL2
 70
     0
  0
SEQEND
  5
AB6
  8
OHUT
  0
INSERT
  5
AB7
  8
OHUT
 66
     1
  2
OPENCIRC
 10
166.25
 20
150.0
 30
0.0
  0
ATTRIB
  5
AB8
  8
OHUT
 10
166.74999999999989
 20
150.0
 30
0.0
 40
2.25
  1
2B
 41
0.9
  7
T225
  2
TERMINAL1
 70
     0
  0
ATTRIB
  5
AB9
  8
OHUT
 10
184.25
 20
150.0
 30
0.0
 40
2.25
  1
2A
 41
0.9
  7
T225
  2
TERMINAL2
 70
     0
  0
SEQEND
  5
ABA
  8
OHUT
  0
INSERT
  5
ABB
  8
OHUT
 66
     1
  2
OPENCIRC
 10
166.0
 20
213.0
 30
0.0
  0
ATTRIB
  5
ABC
  8
OHUT
 10
166.5
 20
213.0
 30
0.0
 40
2.25
  1
4B
 41
0.9
  7
T225
  2
TERMINAL1
 70
     0
  0
ATTRIB
  5
ABD
  8
OHUT
 10
184.0
 20
213.0
 30
0.0
 40
2.25
  1
4A
 41
0.9
  7
T225
  2
TERMINAL2
 70
     0
  0
SEQEND
  5
ABE
  8
OHUT
  0
LINE
  5
ABF
  8
MITTA
 10
139.5
 20
213.0
 30
0.0
 11
167.25
 21
213.0
 31
0.0
  0
LINE
  5
AC0
  8
MITTA
 10
140.0
 20
162.0
 30
0.0
 11
166.74999999999989
 21
162.0
 31
0.0
  0
INSERT
  5
AD8
  8
MITTA
 66
     1
  2
SHORTCIRC
 10
166.0
 20
191.5
 30
0.0
  0
ATTRIB
  5
AD9
  8
OHUT
 10
166.0
 20
197.5
 30
0.0
 40
2.25
  1
24B
 41
0.9
  7
T225
  2
TERMINAL1
 70
     0
  0
ATTRIB
  5
ADA
  8
OHUT
 10
185.0
 20
202.0
 30
0.0
 40
2.25
  1
24A
 41
0.9
  7
T225
  2
TERMINAL2
 70
     0
  0
ATTRIB
  5
ADB
  8
OHUT
 10
166.0
 20
191.5
 30
0.0
 40
2.25
  1
23B
 41
0.9
  7
T225
  2
TERMINAL3
 70
     0
  0
ATTRIB
  5
ADC
  8
OHUT
 10
185.0
 20
196.0
 30
0.0
 40
2.25
  1
23A
 41
0.9
  7
T225
  2
TERMINAL4
 70
     0
  0
SEQEND
  5
ADD
  8
MITTA
  0
INSERT
  5
ADE
  8
MITTA
 66
     1
  2
SHORTCIRC
 10
166.0
 20
179.0
 30
0.0
  0
ATTRIB
  5
ADF
  8
OHUT
 10
166.0
 20
185.0
 30
0.0
 40
2.25
  1
22B
 41
0.9
  7
T225
  2
TERMINAL1
 70
     0
  0
ATTRIB
  5
AE0
  8
OHUT
 10
185.0
 20
189.49999999999989
 30
0.0
 40
2.25
  1
22A
 41
0.9
  7
T225
  2
TERMINAL2
 70
     0
  0
ATTRIB
  5
AE1
  8
OHUT
 10
166.0
 20
179.0
 30
0.0
 40
2.25
  1
21B
 41
0.9
  7
T225
  2
TERMINAL3
 70
     0
  0
ATTRIB
  5
AE2
  8
OHUT
 10
185.0
 20
183.49999999999989
 30
0.0
 40
2.25
  1
21A
 41
0.9
  7
T225
  2
TERMINAL4
 70
     0
  0
SEQEND
  5
AE3
  8
MITTA
  0
INSERT
  5
AE4
  8
MITTA
 66
     1
  2
SHORTCIRC
 10
165.74999999999989
 20
166.5
 30
0.0
  0
ATTRIB
  5
AE5
  8
OHUT
 10
165.74999999999989
 20
172.5
 30
0.0
 40
2.25
  1
20B
 41
0.9
  7
T225
  2
TERMINAL1
 70
     0
  0
ATTRIB
  5
AE6
  8
OHUT
 10
184.75
 20
177.0
 30
0.0
 40
2.25
  1
20A
 41
0.9
  7
T225
  2
TERMINAL2
 70
     0
  0
ATTRIB
  5
AE7
  8
OHUT
 10
165.74999999999989
 20
166.5
 30
0.0
 40
2.25
  1
19B
 41
0.9
  7
T225
  2
TERMINAL3
 70
     0
  0
ATTRIB
  5
AE8
  8
OHUT
 10
184.75
 20
171.0
 30
0.0
 40
2.25
  1
19A
 41
0.9
  7
T225
  2
TERMINAL4
 70
     0
  0
SEQEND
  5
AE9
  8
MITTA
  0
LINE
  5
AEA
  8
MITTA
 10
166.0
 20
197.5
 30
0.0
 11
145.5
 21
197.5
 31
0.0
  0
LINE
  5
AEB
  8
MITTA
 10
166.25
 20
191.5
 30
0.0
 11
140.0
 21
191.5
 31
0.0
  0
LINE
  5
AEC
  8
MITTA
 10
166.25
 20
179.0
 30
0.0
 11
140.0
 21
179.0
 31
0.0
  0
LINE
  5
AED
  8
MITTA
 10
166.0
 20
185.0
 30
0.0
 11
145.5
 21
185.0
 31
0.0
  0
LINE
  5
AEE
  8
MITTA
 10
166.25
 20
166.5
 30
0.0
 11
140.0
 21
166.5
 31
0.0
  0
LINE
  5
AEF
  8
MITTA
 10
166.0
 20
172.5
 30
0.0
 11
145.5
 21
172.5
 31
0.0
  0
LINE
  5
AF0
  8
MITTA
 10
139.5
 20
150.0
 30
0.0
 11
166.74999999999989
 21
150.0
 31
0.0
  0
INSERT
  5
AF1
  8
MITTA
 66
     1
  2
SHORTCIRC
 10
165.74999999999989
 20
129.0
 30
0.0
  0
ATTRIB
  5
AF2
  8
OHUT
 10
165.74999999999989
 20
135.0
 30
0.0
 40
2.25
  1
18B
 41
0.9
  7
T225
  2
TERMINAL1
 70
     0
  0
ATTRIB
  5
AF3
  8
OHUT
 10
184.75
 20
139.5
 30
0.0
 40
2.25
  1
18A
 41
0.9
  7
T225
  2
TERMINAL2
 70
     0
  0
ATTRIB
  5
AF4
  8
OHUT
 10
165.74999999999989
 20
129.0
 30
0.0
 40
2.25
  1
17B
 41
0.9
  7
T225
  2
TERMINAL3
 70
     0
  0
ATTRIB
  5
AF5
  8
OHUT
 10
184.75
 20
133.49999999999989
 30
0.0
 40
2.25
  1
17A
 41
0.9
  7
T225
  2
TERMINAL4
 70
     0
  0
SEQEND
  5
AF6
  8
MITTA
  0
INSERT
  5
AF7
  8
MITTA
 66
     1
  2
SHORTCIRC
 10
166.0
 20
117.0
 30
0.0
  0
ATTRIB
  5
AF8
  8
OHUT
 10
166.0
 20
123.0
 30
0.0
 40
2.25
  1
16B
 41
0.9
  7
T225
  2
TERMINAL1
 70
     0
  0
ATTRIB
  5
AF9
  8
OHUT
 10
185.0
 20
127.5
 30
0.0
 40
2.25
  1
16A
 41
0.9
  7
T225
  2
TERMINAL2
 70
     0
  0
ATTRIB
  5
AFA
  8
OHUT
 10
166.0
 20
117.0
 30
0.0
 40
2.25
  1
15B
 41
0.9
  7
T225
  2
TERMINAL3
 70
     0
  0
ATTRIB
  5
AFB
  8
OHUT
 10
185.0
 20
121.5
 30
0.0
 40
2.25
  1
15A
 41
0.9
  7
T225
  2
TERMINAL4
 70
     0
  0
SEQEND
  5
AFC
  8
MITTA
  0
INSERT
  5
AFD
  8
MITTA
 66
     1
  2
SHORTCIRC
 10
165.74999999999989
 20
105.0
 30
0.0
  0
ATTRIB
  5
AFE
  8
OHUT
 10
165.74999999999989
 20
111.0
 30
0.0
 40
2.25
  1
14B
 41
0.9
  7
T225
  2
TERMINAL1
 70
     0
  0
ATTRIB
  5
AFF
  8
OHUT
 10
184.75
 20
115.5
 30
0.0
 40
2.25
  1
14A
 41
0.9
  7
T225
  2
TERMINAL2
 70
     0
  0
ATTRIB
  5
B00
  8
OHUT
 10
165.74999999999989
 20
105.0
 30
0.0
 40
2.25
  1
13B
 41
0.9
  7
T225
  2
TERMINAL3
 70
     0
  0
ATTRIB
  5
B01
  8
OHUT
 10
184.75
 20
109.4999999999999
 30
0.0
 40
2.25
  1
13A
 41
0.9
  7
T225
  2
TERMINAL4
 70
     0
  0
SEQEND
  5
B02
  8
MITTA
  0
LINE
  5
B03
  8
MITTA
 10
165.74999999999989
 20
135.0
 30
0.0
 11
145.5
 21
135.0
 31
0.0
  0
LINE
  5
B04
  8
MITTA
 10
166.0
 20
129.0
 30
0.0
 11
140.0
 21
129.0
 31
0.0
  0
LINE
  5
B05
  8
MITTA
 10
166.0
 20
117.0
 30
0.0
 11
140.0
 21
117.0
 31
0.0
  0
LINE
  5
B06
  8
MITTA
 10
165.74999999999989
 20
123.0
 30
0.0
 11
145.5
 21
123.0
 31
0.0
  0
LINE
  5
B07
  8
MITTA
 10
166.0
 20
105.0
 30
0.0
 11
140.0
 21
105.0
 31
0.0
  0
LINE
  5
B08
  8
MITTA
 10
165.74999999999989
 20
111.0
 30
0.0
 11
145.5
 21
111.0
 31
0.0
  0
TEXT
  5
B23
  8
TEXT25
 10
211.66250041530131
 20
18.125000261199709
 30
0.0
 40
2.5
  1
T.Sonntag
 41
0.9
  7
T25
  0
TEXT
  5
B24
  8
TEXT25
 10
211.66250041530131
 20
9.6250002611997161
 30
0.0
 40
2.5
  1
K.Latva-Rasku
 41
0.9
  7
T25
  0
LINE
  5
B30
  8
KATKO07
 10
250.99999908568901
 20
229.74999963037561
 30
0.0
 11
250.99999908568901
 21
256.0
 31
0.0
  0
LINE
  5
B31
  8
KATKO07
 10
255.5
 20
225.24999999999989
 30
0.0
 11
255.5
 21
251.0
 31
0.0
  0
LINE
  5
B32
  8
KATKO07
 10
260.25
 20
220.25
 30
0.0
 11
260.25
 21
246.0
 31
0.0
  0
POLYLINE
  5
B33
  8
TEXT25
 66
     1
 10
0.0
 20
0.0
 30
0.0
 70
     1
 40
0.5
 41
0.5
  0
VERTEX
  5
CEF
  8
TEXT25
 10
255.25
 20
251.0
 30
0.0
 42
1.0
  0
VERTEX
  5
CF0
  8
TEXT25
 10
255.75
 20
251.0
 30
0.0
 42
1.0
  0
SEQEND
  5
CF1
  8
TEXT25
  0
POLYLINE
  5
B34
  8
KATKO07
 66
     1
 10
0.0
 20
0.0
 30
0.0
 70
     1
 40
0.5
 41
0.5
  0
VERTEX
  5
CF2
  8
KATKO07
 10
255.24999951882421
 20
251.00000008351591
 30
0.0
 42
1.0
  0
VERTEX
  5
CF3
  8
KATKO07
 10
255.74999951882421
 20
251.00000008351591
 30
0.0
 42
1.0
  0
SEQEND
  5
CF4
  8
KATKO07
  0
POLYLINE
  5
B35
  8
TEXT25
 66
     1
 10
0.0
 20
0.0
 30
0.0
 70
     1
 40
0.5
 41
0.5
  0
VERTEX
  5
CF5
  8
TEXT25
 10
250.74999999999989
 20
256.0
 30
0.0
 42
1.0
  0
VERTEX
  5
CF6
  8
TEXT25
 10
251.25
 20
256.0
 30
0.0
 42
1.0
  0
SEQEND
  5
CF7
  8
TEXT25
  0
POLYLINE
  5
B36
  8
KATKO07
 66
     1
 10
0.0
 20
0.0
 30
0.0
 70
     1
 40
0.5
 41
0.5
  0
VERTEX
  5
CF8
  8
KATKO07
 10
250.74999951882421
 20
256.00000008351589
 30
0.0
 42
1.0
  0
VERTEX
  5
CF9
  8
KATKO07
 10
251.24999951882421
 20
256.00000008351589
 30
0.0
 42
1.0
  0
SEQEND
  5
CFA
  8
KATKO07
  0
POLYLINE
  5
B37
  8
TEXT25
 66
     1
 10
0.0
 20
0.0
 30
0.0
 70
     1
 40
0.5
 41
0.5
  0
VERTEX
  5
CFB
  8
TEXT25
 10
260.0
 20
246.0
 30
0.0
 42
1.0
  0
VERTEX
  5
CFC
  8
TEXT25
 10
260.49999999999989
 20
246.0
 30
0.0
 42
1.0
  0
SEQEND
  5
CFD
  8
TEXT25
  0
POLYLINE
  5
B38
  8
KATKO07
 66
     1
 10
0.0
 20
0.0
 30
0.0
 70
     1
 40
0.5
 41
0.5
  0
VERTEX
  5
CFE
  8
KATKO07
 10
259.9999995188241
 20
246.00000008351591
 30
0.0
 42
1.0
  0
VERTEX
  5
CFF
  8
KATKO07
 10
260.49999951882421
 20
246.00000008351591
 30
0.0
 42
1.0
  0
SEQEND
  5
D00
  8
KATKO07
  0
ENDSEC
  0
EOF
