  0
SECTION
  2
HEADER
  9
$ACADVER
  1
AC1009
  9
$DWGCODEPAGE
  3
iso8859-1
  9
$INSBASE
 10
0.0
 20
0.0
 30
0.0
  9
$EXTMIN
 10
1.0E20
 20
1.0E20
  9
$EXTMAX
 10
-1.0E20
 20
-1.0E20
  9
$LIMMIN
 10
0.0
 20
0.0
  9
$LIMMAX
 10
12.0
 20
9.0
  9
$ORTHOMODE
 70
     0
  9
$REGENMODE
 70
     1
  9
$FILLMODE
 70
     1
  9
$QTEXTMODE
 70
     0
  9
$MIRRTEXT
 70
     1
  9
$DRAGMODE
 70
     2
  9
$LTSCALE
 40
15.0
  9
$OSMODE
 70
     0
  9
$ATTMODE
 70
     1
  9
$TEXTSIZE
 40
0.2
  9
$TRACEWID
 40
0.05
  9
$TEXTSTYLE
  7
STANDARD
  9
$CLAYER
  8
0
  9
$CELTYPE
  6
DASHED
  9
$CECOLOR
 62
   256
  9
$DIMSCALE
 40
1.0
  9
$DIMASZ
 40
0.18
  9
$DIMEXO
 40
0.0625
  9
$DIMDLI
 40
0.38
  9
$DIMRND
 40
0.0
  9
$DIMDLE
 40
0.0
  9
$DIMEXE
 40
0.18
  9
$DIMTP
 40
0.0
  9
$DIMTM
 40
0.0
  9
$DIMTXT
 40
0.18
  9
$DIMCEN
 40
0.09
  9
$DIMTSZ
 40
0.0
  9
$DIMTOL
 70
     0
  9
$DIMLIM
 70
     0
  9
$DIMTIH
 70
     1
  9
$DIMTOH
 70
     1
  9
$DIMSE1
 70
     0
  9
$DIMSE2
 70
     0
  9
$DIMTAD
 70
     0
  9
$DIMZIN
 70
     0
  9
$DIMBLK
  1

  9
$DIMASO
 70
     1
  9
$DIMSHO
 70
     1
  9
$DIMPOST
  1

  9
$DIMAPOST
  1

  9
$DIMALT
 70
     0
  9
$DIMALTD
 70
     2
  9
$DIMALTF
 40
25.4
  9
$DIMLFAC
 40
1.0
  9
$DIMTOFL
 70
     0
  9
$DIMTVP
 40
0.0
  9
$DIMTIX
 70
     0
  9
$DIMSOXD
 70
     0
  9
$DIMSAH
 70
     0
  9
$DIMBLK1
  1

  9
$DIMBLK2
  1

  9
$DIMSTYLE
  2
STANDARD
  9
$DIMCLRD
 70
     0
  9
$DIMCLRE
 70
     0
  9
$DIMCLRT
 70
     0
  9
$DIMTFAC
 40
1.0
  9
$DIMGAP
 40
0.09
  9
$LUNITS
 70
     2
  9
$LUPREC
 70
     4
  9
$AXISMODE
 70
     0
  9
$AXISUNIT
 10
0.0
 20
0.0
  9
$SKETCHINC
 40
0.1
  9
$FILLETRAD
 40
0.0
  9
$AUNITS
 70
     0
  9
$AUPREC
 70
     0
  9
$MENU
  1
acad
  9
$ELEVATION
 40
0.0
  9
$PELEVATION
 40
0.0
  9
$THICKNESS
 40
0.0
  9
$LIMCHECK
 70
     0
  9
$BLIPMODE
 70
     1
  9
$CHAMFERA
 40
0.0
  9
$CHAMFERB
 40
0.0
  9
$SKPOLY
 70
     0
  9
$TDCREATE
 40
0.000000000
  9
$TDUPDATE
 40
0.000000000
  9
$TDINDWG
 40
0.0
  9
$TDUSRTIMER
 40
0.0
  9
$USRTIMER
 70
     1
  9
$ANGBASE
 50
0.0
  9
$ANGDIR
 70
     0
  9
$PDMODE
 70
     0
  9
$PDSIZE
 40
0.0
  9
$PLINEWID
 40
0.0
  9
$COORDS
 70
     1
  9
$SPLFRAME
 70
     0
  9
$SPLINETYPE
 70
     6
  9
$SPLINESEGS
 70
     8
  9
$ATTDIA
 70
     0
  9
$ATTREQ
 70
     1
  9
$HANDLING
 70
     1
  9
$HANDSEED
  5
   500
  9
$SURFTAB1
 70
     6
  9
$SURFTAB2
 70
     6
  9
$SURFTYPE
 70
     6
  9
$SURFU
 70
     6
  9
$SURFV
 70
     6
  9
$UCSNAME
  2

  9
$UCSORG
 10
0.0
 20
0.0
 30
0.0
  9
$UCSXDIR
 10
1.0
 20
0.0
 30
0.0
  9
$UCSYDIR
 10
0.0
 20
1.0
 30
0.0
  9
$PUCSNAME
  2

  9
$PUCSORG
 10
0.0
 20
0.0
 30
0.0
  9
$PUCSXDIR
 10
1.0
 20
0.0
 30
0.0
  9
$PUCSYDIR
 10
0.0
 20
1.0
 30
0.0
  9
$USERI1
 70
     0
  9
$USERI2
 70
     0
  9
$USERI3
 70
     0
  9
$USERI4
 70
     0
  9
$USERI5
 70
     0
  9
$USERR1
 40
0.0
  9
$USERR2
 40
0.0
  9
$USERR3
 40
0.0
  9
$USERR4
 40
0.0
  9
$USERR5
 40
0.0
  9
$WORLDVIEW
 70
     1
  9
$SHADEDGE
 70
     3
  9
$SHADEDIF
 70
    70
  9
$TILEMODE
 70
     1
  9
$MAXACTVP
 70
    16
  9
$PINSBASE
 10
0.0
 20
0.0
 30
0.0
  9
$PLIMCHECK
 70
     0
  9
$PEXTMIN
 10
1.0E20
 20
1.0E20
 30
1.0E20
  9
$PEXTMAX
 10
-1.0E20
 20
-1.0E20
 30
-1.0E20
  9
$PLIMMIN
 10
0.0
 20
0.0
  9
$PLIMMAX
 10
12.0
 20
9.0
  9
$UNITMODE
 70
     0
  9
$VISRETAIN
 70
     0
  0
ENDSEC
  0
SECTION
  2
TABLES
  0
TABLE
  2
VPORT
 70
     1
  0
VPORT
  2
*ACTIVE
 70
     0
 10
0.0
 20
0.0
 11
1.0
 21
1.0
 12
6.801242
 22
4.5
 13
0.0
 23
0.0
 14
1.0
 24
1.0
 15
0.0
 25
0.0
 16
0.0
 26
0.0
 36
1.0
 17
0.0
 27
0.0
 37
0.0
 40
9.0
 41
1.511387
 42
50.0
 43
0.0
 44
0.0
 50
0.0
 51
0.0
 71
     0
 72
   100
 73
     1
 74
     1
 75
     0
 76
     0
 77
     0
 78
     0
  0
ENDTAB
  0
TABLE
  2
LTYPE
 70
    41
  0
LTYPE
  2
BYBLOCK
 70
     0
  3

 72
    65
 73
     0
 40
0.0
  0
LTYPE
  2
BYLAYER
 70
     0
  3

 72
    65
 73
     0
 40
0.0
  0
LTYPE
  2
CONTINUOUS
 70
     0
  3
Solid line
 72
    65
 73
     0
 40
0.0
  0
LTYPE
  2
BORDER
 70
    64
  3
__ __ . __ __ . __ __ . __ __ . __ __ . __ __ .
 72
    65
 73
     6
 40
1.75
 49
0.5
 49
-0.25
 49
0.5
 49
-0.25
 49
0.0
 49
-0.25
  0
LTYPE
  2
BORDER2
 70
    64
  3
__.__.__.__.__.__.__.__.__.__.__.__.__.__.__.__
 72
    65
 73
     6
 40
0.875
 49
0.25
 49
-0.125
 49
0.25
 49
-0.125
 49
0.0
 49
-0.125
  0
LTYPE
  2
BORDERX2
 70
    64
  3
____  ____  .  ____  ____  .  ____  ____  .  __
 72
    65
 73
     6
 40
3.5
 49
1.0
 49
-0.5
 49
1.0
 49
-0.5
 49
0.0
 49
-0.5
  0
LTYPE
  2
CENTER
 70
    64
  3
____ _ ____ _ ____ _ ____ _ ____ _ ____ _ ____
 72
    65
 73
     4
 40
2.0
 49
1.25
 49
-0.25
 49
0.25
 49
-0.25
  0
LTYPE
  2
CENTER2
 70
    64
  3
___ _ ___ _ ___ _ ___ _ ___ _ ___ _ ___ _ ___ _
 72
    65
 73
     4
 40
1.125
 49
0.75
 49
-0.125
 49
0.125
 49
-0.125
  0
LTYPE
  2
CENTERX2
 70
    64
  3
________  __  ________  __  ________  __  _____
 72
    65
 73
     4
 40
4.0
 49
2.5
 49
-0.5
 49
0.5
 49
-0.5
  0
LTYPE
  2
DASHDOT
 70
    64
  3
__ . __ . __ . __ . __ . __ . __ . __ . __ . __
 72
    65
 73
     4
 40
1.0
 49
0.5
 49
-0.25
 49
0.0
 49
-0.25
  0
LTYPE
  2
DASHDOT2
 70
    64
  3
_._._._._._._._._._._._._._._._._._._._._._._._
 72
    65
 73
     4
 40
0.5
 49
0.25
 49
-0.125
 49
0.0
 49
-0.125
  0
LTYPE
  2
DASHDOTX2
 70
    64
  3
____  .  ____  .  ____  .  ____  .  ____  .  __
 72
    65
 73
     4
 40
2.0
 49
1.0
 49
-0.5
 49
0.0
 49
-0.5
  0
LTYPE
  2
DASHED
 70
    64
  3
__ __ __ __ __ __ __ __ __ __ __ __ __ __ __ __
 72
    65
 73
     2
 40
0.75
 49
0.5
 49
-0.25
  0
LTYPE
  2
DASHED2
 70
    64
  3
_ _ _ _ _ _ _ _ _ _ _ _ _ _ _ _ _ _ _ _ _ _ _ _
 72
    65
 73
     2
 40
0.375
 49
0.25
 49
-0.125
  0
LTYPE
  2
DASHEDX2
 70
    64
  3
____  ____  ____  ____  ____  ____  ____  ____
 72
    65
 73
     2
 40
1.5
 49
1.0
 49
-0.5
  0
LTYPE
  2
DIVIDE
 70
    64
  3
____ . . ____ . . ____ . . ____ . . ____ . . __
 72
    65
 73
     6
 40
1.25
 49
0.5
 49
-0.25
 49
0.0
 49
-0.25
 49
0.0
 49
-0.25
  0
LTYPE
  2
DIVIDE2
 70
    64
  3
__..__..__..__..__..__..__..__..__..__..__..__.
 72
    65
 73
     6
 40
0.625
 49
0.25
 49
-0.125
 49
0.0
 49
-0.125
 49
0.0
 49
-0.125
  0
LTYPE
  2
DIVIDEX2
 70
    64
  3
________  .  .  ________  .  .  ________  .  .
 72
    65
 73
     6
 40
2.5
 49
1.0
 49
-0.5
 49
0.0
 49
-0.5
 49
0.0
 49
-0.5
  0
LTYPE
  2
DOT
 70
    64
  3
. . . . . . . . . . . . . . . . . . . . . . . .
 72
    65
 73
     2
 40
0.25
 49
0.0
 49
-0.25
  0
LTYPE
  2
DOT2
 70
    64
  3
...............................................
 72
    65
 73
     2
 40
0.125
 49
0.0
 49
-0.125
  0
LTYPE
  2
DOTX2
 70
    64
  3
.  .  .  .  .  .  .  .  .  .  .  .  .  .  .  .
 72
    65
 73
     2
 40
0.5
 49
0.0
 49
-0.5
  0
LTYPE
  2
HIDDEN
 70
    64
  3
__ __ __ __ __ __ __ __ __ __ __ __ __ __ __ __
 72
    65
 73
     2
 40
0.375
 49
0.25
 49
-0.125
  0
LTYPE
  2
HIDDEN2
 70
    64
  3
_ _ _ _ _ _ _ _ _ _ _ _ _ _ _ _ _ _ _ _ _ _ _ _
 72
    65
 73
     2
 40
0.1875
 49
0.125
 49
-0.0625
  0
LTYPE
  2
HIDDENX2
 70
    64
  3
____ ____ ____ ____ ____ ____ ____ ____ ____ __
 72
    65
 73
     2
 40
0.75
 49
0.5
 49
-0.25
  0
LTYPE
  2
PHANTOM
 70
    64
  3
______  __  __  ______  __  __  ______  __  __
 72
    65
 73
     6
 40
2.5
 49
1.25
 49
-0.25
 49
0.25
 49
-0.25
 49
0.25
 49
-0.25
  0
LTYPE
  2
PHANTOM2
 70
    64
  3
___ _ _ ___ _ _ ___ _ _ ___ _ _ ___ _ _ ___ _ _
 72
    65
 73
     6
 40
1.25
 49
0.625
 49
-0.125
 49
0.125
 49
-0.125
 49
0.125
 49
-0.125
  0
LTYPE
  2
PHANTOMX2
 70
    64
  3
____________    ____    ____    ____________
 72
    65
 73
     6
 40
5.0
 49
2.5
 49
-0.5
 49
0.5
 49
-0.5
 49
0.5
 49
-0.5
  0
LTYPE
  2
ACAD_ISO02W100
 70
    64
  3
__ __ __ __ __ __ __ __ __ __ __ __ __ __ __ __
 72
    65
 73
     2
 40
15.0
 49
12.0
 49
-3.0
  0
LTYPE
  2
ACAD_ISO03W100
 70
    64
  3
__    __    __    __    __    __    __    __
 72
    65
 73
     2
 40
30.0
 49
12.0
 49
-18.0
  0
LTYPE
  2
ACAD_ISO04W100
 70
    64
  3
____ . ____ . ____ . ____ . ____ . ____ . ____
 72
    65
 73
     4
 40
30.5
 49
24.0
 49
-3.0
 49
0.5
 49
-3.0
  0
LTYPE
  2
ACAD_ISO05W100
 70
    64
  3
____ .. ____ .. ____ .. ____ .. ____ .. ____ ..
 72
    65
 73
     6
 40
34.0
 49
24.0
 49
-3.0
 49
0.5
 49
-3.0
 49
0.5
 49
-3.0
  0
LTYPE
  2
ACAD_ISO06W100
 70
    64
  3
____ ... ____ ... ____ ... ____ ... ____ ... __
 72
    65
 73
     8
 40
37.5
 49
24.0
 49
-3.0
 49
0.5
 49
-3.0
 49
0.5
 49
-3.0
 49
0.5
 49
-3.0
  0
LTYPE
  2
ACAD_ISO07W100
 70
    64
  3
. . . . . . . . . . . . . . . . . . . . . . . .
 72
    65
 73
     2
 40
3.5
 49
0.5
 49
-3.0
  0
LTYPE
  2
ACAD_ISO08W100
 70
    64
  3
____ __ ____ __ ____ __ ____ ____ __ __ ____ __
 72
    65
 73
     4
 40
36.0
 49
24.0
 49
-3.0
 49
6.0
 49
-3.0
  0
LTYPE
  2
ACAD_ISO09W100
 70
    64
  3
____ __ __ ____ __ __ ____ __ __ ____ __ __ ___
 72
    65
 73
     6
 40
45.0
 49
24.0
 49
-3.0
 49
6.0
 49
-3.0
 49
6.0
 49
-3.0
  0
LTYPE
  2
ACAD_ISO10W100
 70
    64
  3
__ . __ . __ . __ . __ . __ . __ . __ . __ . __
 72
    65
 73
     4
 40
18.5
 49
12.0
 49
-3.0
 49
0.5
 49
-3.0
  0
LTYPE
  2
ACAD_ISO11W100
 70
    64
  3
__ __ . __ __ . __ __ . __ __ . __ __ . __ __ .
 72
    65
 73
     6
 40
33.5
 49
12.0
 49
-3.0
 49
12.0
 49
-3.0
 49
0.5
 49
-3.0
  0
LTYPE
  2
ACAD_ISO12W100
 70
    64
  3
__ . . __ . . __ . . __ . . __ . . __ . . __ .
 72
    65
 73
     6
 40
22.0
 49
12.0
 49
-3.0
 49
0.5
 49
-3.0
 49
0.5
 49
-3.0
  0
LTYPE
  2
ACAD_ISO13W100
 70
    64
  3
__ __ . . __ __ . . __ __ . . __ __ . . __ __ .
 72
    65
 73
     8
 40
37.0
 49
12.0
 49
-3.0
 49
12.0
 49
-3.0
 49
0.5
 49
-3.0
 49
0.5
 49
-3.0
  0
LTYPE
  2
ACAD_ISO14W100
 70
    64
  3
__ . . . __ . . . __ . . . __ . . . __ . . . __
 72
    65
 73
     8
 40
25.5
 49
12.0
 49
-3.0
 49
0.5
 49
-3.0
 49
0.5
 49
-3.0
 49
0.5
 49
-3.0
  0
LTYPE
  2
ACAD_ISO15W100
 70
    64
  3
__ __ . . . __ __ . . . __ __ . . . __ __ . . .
 72
    65
 73
    10
 40
40.5
 49
12.0
 49
-3.0
 49
12.0
 49
-3.0
 49
0.5
 49
-3.0
 49
0.5
 49
-3.0
 49
0.5
 49
-3.0
  0
ENDTAB
  0
TABLE
  2
STYLE
 70
     4
  0
STYLE
  2
STANDARD
 70
    64
 40
0.0
 41
1.0
 50
0.0
 71
     0
 42
0.2
  3
txt
  4

  0
STYLE
  2
TOLERANCE
 70
    64
 40
0.0
 41
1.0
 50
0.0
 71
     0
 42
0.2
  3
../igesfont/iges1003.shx
  4

  0
STYLE
  2
ROMANS
 70
    64
 40
0.0
 41
1.0
 50
0.0
 71
     0
 42
0.2
  3
romans.shx
  4

  0
STYLE
  2
ROMANC
 70
    64
 40
0.0
 41
1.0
 50
0.0
 71
     0
 42
0.2
  3
romanc.shx
  4

  0
ENDTAB
  0
TABLE
  2
DIMSTYLE
 70
     2
  0
DIMSTYLE
  2
UNNAMED
 70
     0
  3

  4

  5

  6

  7

 40
1.0
 41
0.18
 42
0.0625
 43
0.38
 44
0.18
 45
0.0
 46
0.0
 47
0.0
 48
0.0
140
0.18
141
0.09
142
0.0
143
25.4
144
1.0
145
0.0
146
1.0
147
0.09
 71
     0
 72
     0
 73
     1
 74
     1
 75
     0
 76
     0
 77
     0
 78
     0
170
     0
171
     2
172
     0
173
     0
174
     0
175
     0
176
     0
177
     0
178
     0
  0
DIMSTYLE
  2
STANDARD
 70
     0
  3

  4

  5

  6

  7

 40
1.0
 41
0.18
 42
0.0625
 43
0.38
 44
0.18
 45
0.0
 46
0.0
 47
0.0
 48
0.0
140
0.18
141
0.09
142
0.0
143
25.4
144
1.0
145
0.0
146
1.0
147
0.09
 71
     0
 72
     0
 73
     1
 74
     1
 75
     0
 76
     0
 77
     0
 78
     0
170
     0
171
     2
172
     0
173
     0
174
     0
175
     0
176
     0
177
     0
178
     0
  0
ENDTAB
  0
TABLE
  2
LAYER
 70
     2
  0
LAYER
  2
0
 70
     0
 62
     7
  6
CONTINUOUS
  0
LAYER
  2
255
 70
     0
 62
     7
  6
CONTINUOUS
  0
ENDTAB
  0
ENDSEC
  0
SECTION
  2
BLOCKS
  0
BLOCK
  5
     B
  8
0
  6
CONTINUOUS
 62
    18
  2
*HATCH411
 70
    65
 10
0.0
 20
0.0
 30
0.0
  3
*HATCH411
  0
LINE
  5
     C
  8
0
  6
DOT2
 62
    10
 10
18.2260398864746
 20
-21.75
 30
0.0
 11
36.2260398864746
 21
-21.75
 31
0.0
  0
LINE
  5
     D
  8
0
  6
DOT2
 62
    10
 10
18.2260398864746
 20
-19.75
 30
0.0
 11
21.1800842285156
 21
-19.75
 31
0.0
  0
LINE
  5
     E
  8
0
  6
DOT2
 62
    10
 10
18.2260398864746
 20
-17.75
 30
0.0
 11
21.1800842285156
 21
-17.75
 31
0.0
  0
LINE
  5
     F
  8
0
  6
DOT2
 62
    10
 10
18.2260398864746
 20
-15.75
 30
0.0
 11
21.1800842285156
 21
-15.75
 31
0.0
  0
LINE
  5
    10
  8
0
  6
DOT2
 62
    10
 10
18.2260398864746
 20
-13.75
 30
0.0
 11
21.1800842285156
 21
-13.75
 31
0.0
  0
LINE
  5
    11
  8
0
  6
DOT2
 62
    10
 10
18.2260398864746
 20
-11.75
 30
0.0
 11
21.1800842285156
 21
-11.75
 31
0.0
  0
LINE
  5
    12
  8
0
  6
DOT2
 62
    10
 10
18.2260398864746
 20
-9.74999999999999
 30
0.0
 11
21.1800842285156
 21
-9.74999999999999
 31
0.0
  0
LINE
  5
    13
  8
0
  6
DOT2
 62
    10
 10
18.2260398864746
 20
-7.74999999999999
 30
0.0
 11
21.1800842285156
 21
-7.74999999999999
 31
0.0
  0
LINE
  5
    14
  8
0
  6
DOT2
 62
    10
 10
18.2260398864746
 20
-5.74999999999999
 30
0.0
 11
21.1800842285156
 21
-5.74999999999999
 31
0.0
  0
LINE
  5
    15
  8
0
  6
DOT2
 62
    10
 10
18.2260398864746
 20
-3.74999999999999
 30
0.0
 11
21.1800842285156
 21
-3.74999999999999
 31
0.0
  0
LINE
  5
    16
  8
0
  6
DOT2
 62
    10
 10
18.2260398864746
 20
-1.74999999999999
 30
0.0
 11
21.1800842285156
 21
-1.74999999999999
 31
0.0
  0
LINE
  5
    17
  8
0
  6
DOT2
 62
    10
 10
18.2260398864746
 20
0.250000000000011
 30
0.0
 11
21.1800842285156
 21
0.250000000000011
 31
0.0
  0
LINE
  5
    18
  8
0
  6
DOT2
 62
    10
 10
18.2260398864746
 20
2.25000000000001
 30
0.0
 11
21.1800842285156
 21
2.25000000000001
 31
0.0
  0
LINE
  5
    19
  8
0
  6
DOT2
 62
    10
 10
18.2260398864746
 20
4.25000000000001
 30
0.0
 11
21.1800842285156
 21
4.25000000000001
 31
0.0
  0
LINE
  5
    1A
  8
0
  6
DOT2
 62
    10
 10
18.2260398864746
 20
6.25000000000001
 30
0.0
 11
21.1800842285156
 21
6.25000000000001
 31
0.0
  0
LINE
  5
    1B
  8
0
  6
DOT2
 62
    10
 10
18.2260398864746
 20
8.25000000000001
 30
0.0
 11
21.1800842285156
 21
8.25000000000001
 31
0.0
  0
LINE
  5
    1C
  8
0
  6
DOT2
 62
    10
 10
18.2260398864746
 20
10.25
 30
0.0
 11
21.1800842285156
 21
10.25
 31
0.0
  0
LINE
  5
    1D
  8
0
  6
DOT2
 62
    10
 10
18.2260398864746
 20
12.25
 30
0.0
 11
21.1800842285156
 21
12.25
 31
0.0
  0
LINE
  5
    1E
  8
0
  6
DOT2
 62
    10
 10
18.2260398864746
 20
14.25
 30
0.0
 11
21.1800842285156
 21
14.25
 31
0.0
  0
LINE
  5
    1F
  8
0
  6
DOT2
 62
    10
 10
18.2260398864746
 20
16.25
 30
0.0
 11
21.1800842285156
 21
16.25
 31
0.0
  0
LINE
  5
    20
  8
0
  6
DOT2
 62
    10
 10
18.2260398864746
 20
18.25
 30
0.0
 11
21.1800842285156
 21
18.25
 31
0.0
  0
LINE
  5
    21
  8
0
  6
DOT2
 62
    10
 10
18.2260398864746
 20
20.25
 30
0.0
 11
21.1800842285156
 21
20.25
 31
0.0
  0
LINE
  5
    22
  8
0
  6
DOT2
 62
    10
 10
18.2260398864746
 20
22.25
 30
0.0
 11
36.2260398864746
 21
22.25
 31
0.0
  0
ENDBLK
  5
    23
  8
0
  6
CONTINUOUS
 62
    18
  0
BLOCK
  5
    24
  8
0
  6
CONTINUOUS
 62
     7
  2
*HATCH412
 70
    65
 10
0.0
 20
0.0
 30
0.0
  3
*HATCH412
  0
LINE
  5
    25
  8
0
  6
DOT2
 62
    10
 10
85.0557632446289
 20
-21.75
 30
0.0
 11
103.055763244629
 21
-21.75
 31
0.0
  0
LINE
  5
    26
  8
0
  6
DOT2
 62
    10
 10
100.319770812988
 20
-19.75
 30
0.0
 11
103.055763244629
 21
-19.75
 31
0.0
  0
LINE
  5
    27
  8
0
  6
DOT2
 62
    10
 10
100.319770812988
 20
-17.75
 30
0.0
 11
103.055763244629
 21
-17.75
 31
0.0
  0
LINE
  5
    28
  8
0
  6
DOT2
 62
    10
 10
100.319770812988
 20
-15.75
 30
0.0
 11
103.055763244629
 21
-15.75
 31
0.0
  0
LINE
  5
    29
  8
0
  6
DOT2
 62
    10
 10
100.319770812988
 20
-13.75
 30
0.0
 11
103.055763244629
 21
-13.75
 31
0.0
  0
LINE
  5
    2A
  8
0
  6
DOT2
 62
    10
 10
100.319770812988
 20
-11.75
 30
0.0
 11
103.055763244629
 21
-11.75
 31
0.0
  0
LINE
  5
    2B
  8
0
  6
DOT2
 62
    10
 10
100.319770812988
 20
-9.74999999999999
 30
0.0
 11
103.055763244629
 21
-9.74999999999999
 31
0.0
  0
LINE
  5
    2C
  8
0
  6
DOT2
 62
    10
 10
100.319770812988
 20
-7.74999999999999
 30
0.0
 11
103.055763244629
 21
-7.74999999999999
 31
0.0
  0
LINE
  5
    2D
  8
0
  6
DOT2
 62
    10
 10
100.319770812988
 20
-5.74999999999999
 30
0.0
 11
103.055763244629
 21
-5.74999999999999
 31
0.0
  0
LINE
  5
    2E
  8
0
  6
DOT2
 62
    10
 10
100.319770812988
 20
-3.74999999999999
 30
0.0
 11
103.055763244629
 21
-3.74999999999999
 31
0.0
  0
LINE
  5
    2F
  8
0
  6
DOT2
 62
    10
 10
100.319770812988
 20
-1.74999999999999
 30
0.0
 11
103.055763244629
 21
-1.74999999999999
 31
0.0
  0
LINE
  5
    30
  8
0
  6
DOT2
 62
    10
 10
100.319770812988
 20
0.250000000000014
 30
0.0
 11
103.055763244629
 21
0.250000000000014
 31
0.0
  0
LINE
  5
    31
  8
0
  6
DOT2
 62
    10
 10
100.319770812988
 20
2.25000000000001
 30
0.0
 11
103.055763244629
 21
2.25000000000001
 31
0.0
  0
LINE
  5
    32
  8
0
  6
DOT2
 62
    10
 10
100.319770812988
 20
4.25000000000001
 30
0.0
 11
103.055763244629
 21
4.25000000000001
 31
0.0
  0
LINE
  5
    33
  8
0
  6
DOT2
 62
    10
 10
100.319770812988
 20
6.25000000000001
 30
0.0
 11
103.055763244629
 21
6.25000000000001
 31
0.0
  0
LINE
  5
    34
  8
0
  6
DOT2
 62
    10
 10
100.319770812988
 20
8.25000000000001
 30
0.0
 11
103.055763244629
 21
8.25000000000001
 31
0.0
  0
LINE
  5
    35
  8
0
  6
DOT2
 62
    10
 10
100.319770812988
 20
10.25
 30
0.0
 11
103.055763244629
 21
10.25
 31
0.0
  0
LINE
  5
    36
  8
0
  6
DOT2
 62
    10
 10
100.319770812988
 20
12.25
 30
0.0
 11
103.055763244629
 21
12.25
 31
0.0
  0
LINE
  5
    37
  8
0
  6
DOT2
 62
    10
 10
100.319770812988
 20
14.25
 30
0.0
 11
103.055763244629
 21
14.25
 31
0.0
  0
LINE
  5
    38
  8
0
  6
DOT2
 62
    10
 10
100.319770812988
 20
16.25
 30
0.0
 11
103.055763244629
 21
16.25
 31
0.0
  0
LINE
  5
    39
  8
0
  6
DOT2
 62
    10
 10
100.319770812988
 20
18.25
 30
0.0
 11
103.055763244629
 21
18.25
 31
0.0
  0
LINE
  5
    3A
  8
0
  6
DOT2
 62
    10
 10
100.319770812988
 20
20.25
 30
0.0
 11
103.055763244629
 21
20.25
 31
0.0
  0
LINE
  5
    3B
  8
0
  6
DOT2
 62
    10
 10
85.0557632446289
 20
22.25
 30
0.0
 11
103.055763244629
 21
22.25
 31
0.0
  0
ENDBLK
  5
    3C
  8
0
  6
CONTINUOUS
 62
     7
  0
BLOCK
  5
    3D
  8
0
  6
CONTINUOUS
 62
     7
  2
MOSTRA
 70
    64
 10
0.0
 20
0.0
 30
0.0
  3
MOSTRA
  0
LINE
  5
    3E
  8
0
  6
CONTINUOUS
 62
     3
 10
75.9999847412109
 20
-24.000020980835
 30
0.0
 11
75.9999847412109
 21
169.499979019165
 31
0.0
  0
LINE
  5
    3F
  8
0
  6
CONTINUOUS
 62
     3
 10
-71.5000076293913
 20
170.749954223637
 30
0.0
 11
71.4999923706087
 21
170.749984741215
 31
0.0
  0
LINE
  5
    40
  8
0
  6
CONTINUOUS
 62
     3
 10
71.4999923722532
 20
170.749969484304
 30
0.0
 11
74.7499847428587
 21
170.749984743093
 31
0.0
  0
LINE
  5
    41
  8
0
  6
CONTINUOUS
 62
     3
 10
-74.7500152650933
 20
170.749938972373
 30
0.0
 11
-71.5000076356988
 21
170.74996948995
 31
0.0
  0
LINE
  5
    42
  8
0
  6
CONTINUOUS
 62
     3
 10
-76.0000152587891
 20
-24.0000553131103
 30
0.0
 11
-76.0000152587891
 21
169.49994468689
 31
0.0
  0
LINE
  5
    43
  8
0
  6
CONTINUOUS
 62
     3
 10
-74.7500152587851
 20
-25.250055313111
 30
0.0
 11
74.7499847412149
 21
-25.2500209808356
 31
0.0
  0
LINE
  5
    44
  8
0
  6
CONTINUOUS
 62
     3
 10
-70.50000762559
 20
2.24997818470003
 30
0.0
 11
70.49999237441
 21
2.24997818470002
 31
0.0
  0
LINE
  5
    45
  8
0
  6
CONTINUOUS
 62
     3
 10
-70.5000074412761
 20
2.24997806549074
 30
0.0
 11
-70.5000074412761
 21
93.0689001568776
 31
0.0
  0
LINE
  5
    46
  8
0
  6
CONTINUOUS
 62
     3
 10
-70.5000152587891
 20
108.431043142038
 30
0.0
 11
-70.5000152587891
 21
143.249984741211
 31
0.0
  0
LINE
  5
    47
  8
0
  6
CONTINUOUS
 62
     3
 10
-70.500015258789
 20
143.249984741211
 30
0.0
 11
70.4999694824219
 21
143.249984741211
 31
0.0
  0
LINE
  5
    48
  8
0
  6
CONTINUOUS
 62
     3
 10
70.499992735838
 20
2.24997854232794
 30
0.0
 11
70.499992735838
 21
143.249978542328
 31
0.0
  0
LINE
  5
    49
  8
0
  6
CONTINUOUS
 62
     3
 10
-71.5000076293945
 20
150.749984741211
 30
0.0
 11
-71.5000076293945
 21
170.749969482422
 31
0.0
  0
LINE
  5
    4A
  8
0
  6
CONTINUOUS
 62
     3
 10
71.4999923706055
 20
150.749984741211
 30
0.0
 11
71.4999923706055
 21
170.749969482422
 31
0.0
  0
LINE
  5
    4B
  8
0
  6
CONTINUOUS
 62
     3
 10
-71.5000076293945
 20
150.749984741211
 30
0.0
 11
71.4999923706055
 21
150.749984741211
 31
0.0
  0
LINE
  5
    4C
  8
0
  6
CONTINUOUS
 62
     3
 10
-70.5000152587891
 20
-4.25005340576171
 30
0.0
 11
70.4999847412109
 21
-4.25005340576172
 31
0.0
  0
LINE
  5
    4D
  8
0
  6
CONTINUOUS
 62
     3
 10
-70.5000152587891
 20
-5.25005340576171
 30
0.0
 11
70.4999847412109
 21
-5.25005340576172
 31
0.0
  0
LINE
  5
    4E
  8
0
  6
CONTINUOUS
 62
     3
 10
-70.5000305175649
 20
149.74993896486
 30
0.0
 11
70.4999694824351
 21
149.750000000014
 31
0.0
  0
LINE
  5
    4F
  8
0
  6
CONTINUOUS
 62
     3
 10
71.4999858357699
 20
-25.2500247955323
 30
0.0
 11
71.4999858357699
 21
150.749990463257
 31
0.0
  0
LINE
  5
    50
  8
0
  6
CONTINUOUS
 62
     3
 10
70.4999847412109
 20
-25.2500247955322
 30
0.0
 11
70.4999847412109
 21
-5.25005340576172
 31
0.0
  0
LINE
  5
    51
  8
0
  6
CONTINUOUS
 62
     3
 10
70.4999847412595
 20
-4.25005341252316
 30
0.0
 11
70.4999923706543
 21
2.24997805388479
 31
0.0
  0
LINE
  5
    52
  8
0
  6
CONTINUOUS
 62
     3
 10
70.4999694824219
 20
143.249984741211
 30
0.0
 11
70.4999694824219
 21
149.75
 31
0.0
  0
LINE
  5
    53
  8
0
  6
CONTINUOUS
 62
     3
 10
-71.5000141642294
 20
-25.2500457763669
 30
0.0
 11
-71.5000141642294
 21
150.749984741211
 31
0.0
  0
LINE
  5
    54
  8
0
  6
CONTINUOUS
 62
     3
 10
-70.5000152587891
 20
-25.2500419616699
 30
0.0
 11
-70.5000152587891
 21
-5.25005340576171
 31
0.0
  0
LINE
  5
    55
  8
0
  6
CONTINUOUS
 62
     3
 10
-70.5000152588376
 20
-4.25005339719544
 30
0.0
 11
-70.5000076294428
 21
2.24997808131977
 31
0.0
  0
LINE
  5
    56
  8
0
  6
CONTINUOUS
 62
     3
 10
-70.5000305177719
 20
149.749938959778
 30
0.0
 11
-70.5000152589833
 21
143.249984736586
 31
0.0
  0
LINE
  5
    57
  8
0
  6
CONTINUOUS
 62
     3
 10
-71.5000076293945
 20
159.999984741211
 30
0.0
 11
-71.0
 21
159.999984741211
 31
0.0
  0
LINE
  5
    58
  8
0
  6
CONTINUOUS
 62
     3
 10
-71.5000076293945
 20
161.499984741211
 30
0.0
 11
-71.0
 21
161.499984741211
 31
0.0
  0
LINE
  5
    59
  8
0
  6
CONTINUOUS
 62
     3
 10
70.9999923706055
 20
159.999984741211
 30
0.0
 11
71.4999923706055
 21
159.999984741211
 31
0.0
  0
LINE
  5
    5A
  8
0
  6
CONTINUOUS
 62
     3
 10
70.9999923706055
 20
161.499984741211
 30
0.0
 11
71.4999923706055
 21
161.499984741211
 31
0.0
  0
ARC
  5
    5B
  8
0
  6
CONTINUOUS
 62
     3
 10
-74.7500446175772
 20
169.499966747805
 30
0.0
 40
1.2499712385188
 50
89.9986335430652
 51
180.000984426699
  0
ARC
  5
    5C
  8
0
  6
CONTINUOUS
 62
     3
 10
-71.0000555065448
 20
160.749933035418
 30
0.0
 40
0.750060676953542
 50
270.004052802733
 51
449.996390805965
  0
ARC
  5
    5D
  8
0
  6
CONTINUOUS
 62
     3
 10
71.0004519501049
 20
160.749941254871
 30
0.0
 40
0.750296104915764
 50
90.0
 51
270.0
  0
ARC
  5
    5E
  8
0
  6
CONTINUOUS
 62
     3
 10
74.7499844400411
 20
169.499990278414
 30
0.0
 40
1.25000142315613
 50
2.89360398659739E-4
 51
89.9998353051498
  0
ARC
  5
    5F
  8
0
  6
CONTINUOUS
 62
     3
 10
74.7499756668578
 20
-24.0000128113076
 30
0.0
 40
1.25000813012569
 50
270.000329889624
 51
359.999635393882
  0
ARC
  5
    60
  8
0
  6
CONTINUOUS
 62
     3
 10
-74.7500061806411
 20
-24.0000471426785
 30
0.0
 40
1.25000813391971
 50
180.000364647548
 51
269.999670038333
  0
ARC
  5
    61
  8
0
  6
CONTINUOUS
 62
     3
 10
-41.5002621522514
 20
100.749971717654
 30
0.0
 40
29.9997423066705
 50
165.164904903841
 51
194.835095365634
  0
ARC
  5
    62
  8
0
  6
DOT
 62
     3
 10
-71.9999597522443
 20
160.749933035418
 30
0.0
 40
0.750060676953542
 50
90.003609194035
 51
269.995947197267
  0
LINE
  5
    63
  8
0
  6
DOT
 62
     3
 10
-72.0000152587891
 20
161.499984741211
 30
0.0
 11
-71.5000076293945
 21
161.499984741211
 31
0.0
  0
LINE
  5
    64
  8
0
  6
DOT
 62
     3
 10
-72.0000152587891
 20
159.999984741211
 30
0.0
 11
-71.5000076293945
 21
159.999984741211
 31
0.0
  0
LINE
  5
    65
  8
0
  6
DOT
 62
     3
 10
71.4999923706055
 20
161.499984741211
 30
0.0
 11
71.9999923706055
 21
161.499984741211
 31
0.0
  0
LINE
  5
    66
  8
0
  6
DOT
 62
     3
 10
71.4999923706055
 20
159.999984741211
 30
0.0
 11
71.9999923706055
 21
159.999984741211
 31
0.0
  0
ARC
  5
    67
  8
0
  6
DOT
 62
     3
 10
71.999532791106
 20
160.749941254871
 30
0.0
 40
0.750296104915764
 50
270.0
 51
450.0
  0
POINT
  5
    68
  8
0
  6
CONTINUOUS
 62
     3
 10
-2.28881835892954E-5
 20
72.7499785423279
 30
0.0
  0
ENDBLK
  5
    69
  8
0
  6
CONTINUOUS
 62
     7
  0
BLOCK
  5
    6A
  8
0
  6
CONTINUOUS
 62
     7
  2
*UDIM1116
 70
    65
 10
0.0
 20
0.0
 30
0.0
  3
*UDIM1116
  0
TEXT
  5
    6B
  8
0
  6
CONTINUOUS
 62
     7
 10
-14.8457240841124
 20
41.430902889682
 30
0.0
 40
3.00000001532688
  1
152
 50
359.999999948034
 41
0.933333333333334
 72
     1
 11
-10.9457240628345
 21
42.9309028938278
 31
0.0
 73
     2
  0
LINE
  5
    6C
  8
0
  6
CONTINUOUS
 62
     7
 10
15.9292750835416
 20
-11.0129941761472
 30
0.0
 11
15.9292750835416
 21
42.4309028861644
 31
0.0
  0
LINE
  5
    6D
  8
0
  6
CONTINUOUS
 62
     7
 10
-37.2707194805148
 20
-11.0130061924424
 30
0.0
 11
-37.2707194805148
 21
42.4309028861644
 31
0.0
  0
LINE
  5
    6E
  8
0
  6
CONTINUOUS
 62
     7
 10
15.9292750835416
 20
40.4309028861644
 30
0.0
 11
-37.2707194805148
 21
40.4309028861644
 31
0.0
  0
LINE
  5
    6F
  8
0
  6
CONTINUOUS
 62
     7
 10
12.9748518063347
 20
39.9099584562127
 30
0.0
 11
15.9292750835416
 21
40.4309028861644
 31
0.0
  0
LINE
  5
    70
  8
0
  6
CONTINUOUS
 62
     7
 10
15.9292750835416
 20
40.4309028861644
 30
0.0
 11
12.9748518063347
 21
40.9518473161161
 31
0.0
  0
LINE
  5
    71
  8
0
  6
CONTINUOUS
 62
     7
 10
-34.3162962033078
 20
40.9518473161161
 30
0.0
 11
-37.2707194805148
 21
40.4309028861644
 31
0.0
  0
LINE
  5
    72
  8
0
  6
CONTINUOUS
 62
     7
 10
-37.2707194805148
 20
40.4309028861644
 30
0.0
 11
-34.3162962033078
 21
39.9099584562127
 31
0.0
  0
ENDBLK
  5
    73
  8
0
  6
CONTINUOUS
 62
     7
  0
BLOCK
  5
    74
  8
0
  6
CONTINUOUS
 62
     7
  2
*UDIM1117
 70
    65
 10
0.0
 20
0.0
 30
0.0
  3
*UDIM1117
  0
TEXT
  5
    75
  8
0
  6
CONTINUOUS
 62
     7
 10
36.3047768173821
 20
-50.0504954389095
 30
0.0
 40
3.00000001532688
  1
196
 50
89.9999999480344
 41
0.933333333333334
 72
     1
 11
34.804776813251
 21
-46.150495417626
 31
0.0
 73
     2
  0
LINE
  5
    76
  8
0
  6
CONTINUOUS
 62
     7
 10
16.4917751282465
 20
-80.1754932194906
 30
0.0
 11
39.3047768209144
 21
-80.1754932194906
 31
0.0
  0
LINE
  5
    77
  8
0
  6
CONTINUOUS
 62
     7
 10
15.3542779147631
 20
-11.5754975587112
 30
0.0
 11
39.3047768209144
 21
-11.5754975587112
 31
0.0
  0
LINE
  5
    78
  8
0
  6
CONTINUOUS
 62
     7
 10
37.3047768209144
 20
-80.1754932194906
 30
0.0
 11
37.3047768209144
 21
-11.5754975587112
 31
0.0
  0
LINE
  5
    79
  8
0
  6
CONTINUOUS
 62
     7
 10
36.7838323909627
 20
-77.2210699422837
 30
0.0
 11
37.3047768209144
 21
-80.1754932194906
 31
0.0
  0
LINE
  5
    7A
  8
0
  6
CONTINUOUS
 62
     7
 10
37.3047768209144
 20
-80.1754932194906
 30
0.0
 11
37.8257212508661
 21
-77.2210699422837
 31
0.0
  0
LINE
  5
    7B
  8
0
  6
CONTINUOUS
 62
     7
 10
37.8257212508661
 20
-14.5299208359182
 30
0.0
 11
37.3047768209144
 21
-11.5754975587112
 31
0.0
  0
LINE
  5
    7C
  8
0
  6
CONTINUOUS
 62
     7
 10
37.3047768209144
 20
-11.5754975587112
 30
0.0
 11
36.7838323909627
 21
-14.5299208359182
 31
0.0
  0
ENDBLK
  5
    7D
  8
0
  6
CONTINUOUS
 62
     7
  0
BLOCK
  5
    7E
  8
0
  6
CONTINUOUS
 62
     7
  2
*UDIM1118
 70
    65
 10
0.0
 20
0.0
 30
0.0
  3
*UDIM1118
  0
TEXT
  5
    7F
  8
0
  6
CONTINUOUS
 62
     7
 10
-75.304078660816
 20
-47.1630464631173
 30
0.0
 40
3.00000001532688
  1
406
 50
89.9999999480344
 41
0.933333333333334
 72
     1
 11
-76.8040786649472
 21
-43.2630464418338
 31
0.0
 73
     2
  0
LINE
  5
    80
  8
0
  6
CONTINUOUS
 62
     7
 10
-48.4207044274616
 20
-114.037957735657
 30
0.0
 11
-76.3040786572838
 21
-114.037957735657
 31
0.0
  0
LINE
  5
    81
  8
0
  6
CONTINUOUS
 62
     7
 10
-47.8956984609175
 20
28.061866077291
 30
0.0
 11
-76.3040786572838
 21
28.061866077291
 31
0.0
  0
LINE
  5
    82
  8
0
  6
CONTINUOUS
 62
     7
 10
-74.3040786572838
 20
-114.037957735657
 30
0.0
 11
-74.3040786572838
 21
28.061866077291
 31
0.0
  0
LINE
  5
    83
  8
0
  6
CONTINUOUS
 62
     7
 10
-74.8250230872354
 20
-111.083534458451
 30
0.0
 11
-74.3040786572838
 21
-114.037957735657
 31
0.0
  0
LINE
  5
    84
  8
0
  6
CONTINUOUS
 62
     7
 10
-74.3040786572838
 20
-114.037957735657
 30
0.0
 11
-73.7831342273321
 21
-111.083534458451
 31
0.0
  0
LINE
  5
    85
  8
0
  6
CONTINUOUS
 62
     7
 10
-73.7831342273321
 20
25.1074428000841
 30
0.0
 11
-74.3040786572838
 21
28.061866077291
 31
0.0
  0
LINE
  5
    86
  8
0
  6
CONTINUOUS
 62
     7
 10
-74.3040786572838
 20
28.061866077291
 30
0.0
 11
-74.8250230872354
 21
25.1074428000841
 31
0.0
  0
ENDBLK
  5
    87
  8
0
  6
CONTINUOUS
 62
     7
  0
BLOCK
  5
    88
  8
0
  6
CONTINUOUS
 62
     7
  2
*UDIM1119
 70
    65
 10
0.0
 20
0.0
 30
0.0
  3
*UDIM1119
  0
TEXT
  5
    89
  8
0
  6
CONTINUOUS
 62
     7
 10
-14.8457267544002
 20
47.8224076687308
 30
0.0
 40
3.00000001532688
  1
210
 50
359.999999948034
 41
0.933333333333334
 72
     1
 11
-10.9457267331224
 21
49.3224076728766
 31
0.0
 73
     2
  0
LINE
  5
    8A
  8
0
  6
CONTINUOUS
 62
     7
 10
26.079271376133
 20
28.5369375288574
 30
0.0
 11
26.079271376133
 21
48.8224076652132
 31
0.0
  0
LINE
  5
    8B
  8
0
  6
CONTINUOUS
 62
     7
 10
-47.4207211136818
 20
28.5369375288574
 30
0.0
 11
-47.4207211136818
 21
48.8224076652132
 31
0.0
  0
LINE
  5
    8C
  8
0
  6
CONTINUOUS
 62
     7
 10
26.079271376133
 20
46.8224076652132
 30
0.0
 11
-47.4207211136818
 21
46.8224076652132
 31
0.0
  0
LINE
  5
    8D
  8
0
  6
CONTINUOUS
 62
     7
 10
23.124848098926
 20
46.3014632352615
 30
0.0
 11
26.079271376133
 21
46.8224076652132
 31
0.0
  0
LINE
  5
    8E
  8
0
  6
CONTINUOUS
 62
     7
 10
26.079271376133
 20
46.8224076652132
 30
0.0
 11
23.124848098926
 21
47.3433520951648
 31
0.0
  0
LINE
  5
    8F
  8
0
  6
CONTINUOUS
 62
     7
 10
-44.4662978364748
 20
47.3433520951648
 30
0.0
 11
-47.4207211136818
 21
46.8224076652132
 31
0.0
  0
LINE
  5
    90
  8
0
  6
CONTINUOUS
 62
     7
 10
-47.4207211136818
 20
46.8224076652132
 30
0.0
 11
-44.4662978364748
 21
46.3014632352615
 31
0.0
  0
ENDBLK
  5
    91
  8
0
  6
CONTINUOUS
 62
     7
  0
BLOCK
  5
    92
  8
0
  6
CONTINUOUS
 62
     7
  2
*UDIM1120
 70
    65
 10
0.0
 20
0.0
 30
0.0
  3
*UDIM1120
  0
TEXT
  5
    93
  8
0
  6
CONTINUOUS
 62
     7
 10
-67.1449501648188
 20
-17.2818125158392
 30
0.0
 40
3.00000001532688
  1
211,25
 50
89.9999999480344
 41
0.933333333333333
 72
     1
 11
-68.644950165146
 21
-9.18181247309809
 31
0.0
 73
     2
  0
LINE
  5
    94
  8
0
  6
CONTINUOUS
 62
     7
 10
-47.8956984609175
 20
28.061866077291
 30
0.0
 11
-68.1449501574825
 21
28.061866077291
 31
0.0
  0
LINE
  5
    95
  8
0
  6
CONTINUOUS
 62
     7
 10
-66.1449501574825
 20
-45.8754908829906
 30
0.0
 11
-66.1449501574825
 21
28.061866077291
 31
0.0
  0
LINE
  5
    96
  8
0
  6
CONTINUOUS
 62
     7
 10
-66.6658945874342
 20
-42.9210676057836
 30
0.0
 11
-66.1449501574825
 21
-45.8754908829906
 31
0.0
  0
LINE
  5
    97
  8
0
  6
CONTINUOUS
 62
     7
 10
-66.1449501574825
 20
-45.8754908829906
 30
0.0
 11
-65.6240057275309
 21
-42.9210676057836
 31
0.0
  0
LINE
  5
    98
  8
0
  6
CONTINUOUS
 62
     7
 10
-65.6240057275309
 20
25.1074428000841
 30
0.0
 11
-66.1449501574825
 21
28.061866077291
 31
0.0
  0
LINE
  5
    99
  8
0
  6
CONTINUOUS
 62
     7
 10
-66.1449501574825
 20
28.061866077291
 30
0.0
 11
-66.6658945874342
 21
25.1074428000841
 31
0.0
  0
ENDBLK
  5
    9A
  8
0
  6
CONTINUOUS
 62
     7
  0
BLOCK
  5
    9B
  8
0
  6
CONTINUOUS
 62
     7
  2
*UDIM1121
 70
    65
 10
0.0
 20
0.0
 30
0.0
  3
*UDIM1121
  0
TEXT
  5
    9C
  8
0
  6
CONTINUOUS
 62
     7
 10
-58.9496552830731
 20
-50.0504941037659
 30
0.0
 40
3.00000001532688
  1
140
 50
89.9999999480344
 41
0.933333333333334
 72
     1
 11
-60.4496552872043
 21
-46.1504940824824
 31
0.0
 73
     2
  0
LINE
  5
    9D
  8
0
  6
CONTINUOUS
 62
     7
 10
-35.9957223832607
 20
-70.3754906326508
 30
0.0
 11
-59.9496552795408
 21
-70.3754906326508
 31
0.0
  0
LINE
  5
    9E
  8
0
  6
CONTINUOUS
 62
     7
 10
-35.9957223832607
 20
-21.3754933863856
 30
0.0
 11
-59.9496552795408
 21
-21.3754933863856
 31
0.0
  0
LINE
  5
    9F
  8
0
  6
CONTINUOUS
 62
     7
 10
-57.9496552795408
 20
-70.3754906326508
 30
0.0
 11
-57.9496552795408
 21
-21.3754933863856
 31
0.0
  0
LINE
  5
    A0
  8
0
  6
CONTINUOUS
 62
     7
 10
-58.4705997094925
 20
-67.4210673554439
 30
0.0
 11
-57.9496552795408
 21
-70.3754906326508
 31
0.0
  0
LINE
  5
    A1
  8
0
  6
CONTINUOUS
 62
     7
 10
-57.9496552795408
 20
-70.3754906326508
 30
0.0
 11
-57.4287108495892
 21
-67.4210673554439
 31
0.0
  0
LINE
  5
    A2
  8
0
  6
CONTINUOUS
 62
     7
 10
-57.4287108495892
 20
-24.3299166635926
 30
0.0
 11
-57.9496552795408
 21
-21.3754933863856
 31
0.0
  0
LINE
  5
    A3
  8
0
  6
CONTINUOUS
 62
     7
 10
-57.9496552795408
 20
-21.3754933863856
 30
0.0
 11
-58.4705997094925
 21
-24.3299166635926
 31
0.0
  0
ENDBLK
  5
    A4
  8
0
  6
CONTINUOUS
 62
     7
  0
BLOCK
  5
    A5
  8
0
  6
CONTINUOUS
 62
     7
  2
*UDIM1122
 70
    65
 10
0.0
 20
0.0
 30
0.0
  3
*UDIM1122
  0
TEXT
  5
    A6
  8
0
  6
CONTINUOUS
 62
     7
 10
-14.8457240841124
 20
34.4258514203954
 30
0.0
 40
3.00000001532688
  1
140
 50
359.999999948034
 41
0.933333333333334
 72
     1
 11
-10.9457240628345
 21
35.9258514245412
 31
0.0
 73
     2
  0
LINE
  5
    A7
  8
0
  6
CONTINUOUS
 62
     7
 10
13.8292726278305
 20
-20.5504933685042
 30
0.0
 11
13.8292726278305
 21
35.4258514168778
 31
0.0
  0
LINE
  5
    A8
  8
0
  6
CONTINUOUS
 62
     7
 10
-35.1707223653793
 20
-20.5504933685042
 30
0.0
 11
-35.1707223653793
 21
35.4258514168778
 31
0.0
  0
LINE
  5
    A9
  8
0
  6
CONTINUOUS
 62
     7
 10
13.8292726278305
 20
33.4258514168778
 30
0.0
 11
-35.1707223653793
 21
33.4258514168778
 31
0.0
  0
LINE
  5
    AA
  8
0
  6
CONTINUOUS
 62
     7
 10
10.8748493506235
 20
32.9049069869261
 30
0.0
 11
13.8292726278305
 21
33.4258514168778
 31
0.0
  0
LINE
  5
    AB
  8
0
  6
CONTINUOUS
 62
     7
 10
13.8292726278305
 20
33.4258514168778
 30
0.0
 11
10.8748493506235
 21
33.9467958468294
 31
0.0
  0
LINE
  5
    AC
  8
0
  6
CONTINUOUS
 62
     7
 10
-32.2162990881724
 20
33.9467958468294
 30
0.0
 11
-35.1707223653793
 21
33.4258514168778
 31
0.0
  0
LINE
  5
    AD
  8
0
  6
CONTINUOUS
 62
     7
 10
-35.1707223653793
 20
33.4258514168778
 30
0.0
 11
-32.2162990881724
 21
32.9049069869261
 31
0.0
  0
ENDBLK
  5
    AE
  8
0
  6
CONTINUOUS
 62
     7
  0
BLOCK
  5
    AF
  8
0
  6
CONTINUOUS
 62
     7
  2
*HATCH413
 70
    65
 10
0.0
 20
0.0
 30
0.0
  3
*HATCH413
  0
LINE
  5
    B0
  8
0
  6
CONTINUOUS
 62
    52
 10
179.222381591797
 20
234.376708984375
 30
0.0
 11
177.499420166016
 21
232.653732299805
 31
0.0
  0
LINE
  5
    B1
  8
0
  6
CONTINUOUS
 62
    52
 10
179.499420166016
 20
230.411087036133
 30
0.0
 11
177.499420166016
 21
228.411087036133
 31
0.0
  0
LINE
  5
    B2
  8
0
  6
CONTINUOUS
 62
    52
 10
179.499420166016
 20
226.168441772461
 30
0.0
 11
177.499420166016
 21
224.168441772461
 31
0.0
  0
LINE
  5
    B3
  8
0
  6
CONTINUOUS
 62
    52
 10
179.499420166016
 20
221.925796508789
 30
0.0
 11
177.499420166016
 21
219.925796508789
 31
0.0
  0
LINE
  5
    B4
  8
0
  6
CONTINUOUS
 62
    52
 10
179.499420166016
 20
217.683151245117
 30
0.0
 11
177.499420166016
 21
215.683151245117
 31
0.0
  0
LINE
  5
    B5
  8
0
  6
CONTINUOUS
 62
    52
 10
179.499420166016
 20
213.440505981445
 30
0.0
 11
177.499420166016
 21
211.440505981445
 31
0.0
  0
LINE
  5
    B6
  8
0
  6
CONTINUOUS
 62
    52
 10
179.499420166016
 20
209.197860717773
 30
0.0
 11
177.499420166016
 21
207.197860717773
 31
0.0
  0
LINE
  5
    B7
  8
0
  6
CONTINUOUS
 62
    52
 10
179.499420166016
 20
204.955215454102
 30
0.0
 11
177.499420166016
 21
202.955215454102
 31
0.0
  0
LINE
  5
    B8
  8
0
  6
CONTINUOUS
 62
    52
 10
179.499420166016
 20
200.71257019043
 30
0.0
 11
177.499420166016
 21
198.71257019043
 31
0.0
  0
LINE
  5
    B9
  8
0
  6
CONTINUOUS
 62
    52
 10
179.499420166016
 20
196.469924926758
 30
0.0
 11
177.499420166016
 21
194.469924926758
 31
0.0
  0
LINE
  5
    BA
  8
0
  6
CONTINUOUS
 62
    52
 10
179.499420166016
 20
192.227279663086
 30
0.0
 11
177.499420166016
 21
190.227279663086
 31
0.0
  0
LINE
  5
    BB
  8
0
  6
CONTINUOUS
 62
    52
 10
179.499420166016
 20
187.984634399414
 30
0.0
 11
177.499420166016
 21
185.984634399414
 31
0.0
  0
LINE
  5
    BC
  8
0
  6
CONTINUOUS
 62
    52
 10
179.499420166016
 20
183.741989135742
 30
0.0
 11
177.499420166016
 21
181.741989135742
 31
0.0
  0
LINE
  5
    BD
  8
0
  6
CONTINUOUS
 62
    52
 10
179.499420166016
 20
179.49934387207
 30
0.0
 11
177.499420166016
 21
177.49934387207
 31
0.0
  0
LINE
  5
    BE
  8
0
  6
CONTINUOUS
 62
    52
 10
179.499420166016
 20
175.256698608398
 30
0.0
 11
177.499420166016
 21
173.256698608398
 31
0.0
  0
LINE
  5
    BF
  8
0
  6
CONTINUOUS
 62
    52
 10
179.499420166016
 20
171.014053344727
 30
0.0
 11
177.499420166016
 21
169.014053344727
 31
0.0
  0
LINE
  5
    C0
  8
0
  6
CONTINUOUS
 62
    52
 10
179.499420166016
 20
166.771408081055
 30
0.0
 11
177.499420166016
 21
164.771408081055
 31
0.0
  0
LINE
  5
    C1
  8
0
  6
CONTINUOUS
 62
    52
 10
179.499420166016
 20
162.528762817383
 30
0.0
 11
177.499420166016
 21
160.528762817383
 31
0.0
  0
LINE
  5
    C2
  8
0
  6
CONTINUOUS
 62
    52
 10
179.499420166016
 20
158.286117553711
 30
0.0
 11
177.499420166016
 21
156.286117553711
 31
0.0
  0
LINE
  5
    C3
  8
0
  6
CONTINUOUS
 62
    52
 10
179.499420166016
 20
154.043563842773
 30
0.0
 11
179.205703735352
 21
153.749847412109
 31
0.0
  0
ENDBLK
  5
    C4
  8
0
  6
CONTINUOUS
 62
     7
  0
BLOCK
  5
    C5
  8
0
  6
CONTINUOUS
 62
     7
  2
*HATCH414
 70
    65
 10
0.0
 20
0.0
 30
0.0
  3
*HATCH414
  0
LINE
  5
    C6
  8
0
  6
CONTINUOUS
 62
    52
 10
179.499420166016
 20
-9.29809856414795
 30
0.0
 11
177.499420166016
 21
-11.2980985641479
 31
0.0
  0
LINE
  5
    C7
  8
0
  6
CONTINUOUS
 62
    52
 10
179.499420166016
 20
-13.5407390594482
 30
0.0
 11
177.499420166016
 21
-15.5407390594482
 31
0.0
  0
LINE
  5
    C8
  8
0
  6
CONTINUOUS
 62
    52
 10
179.499420166016
 20
-17.7833805084229
 30
0.0
 11
177.499420166016
 21
-19.7833805084229
 31
0.0
  0
LINE
  5
    C9
  8
0
  6
CONTINUOUS
 62
    52
 10
179.499420166016
 20
-22.0260219573975
 30
0.0
 11
177.499420166016
 21
-24.0260219573975
 31
0.0
  0
LINE
  5
    CA
  8
0
  6
CONTINUOUS
 62
    52
 10
179.499420166016
 20
-26.2686634063721
 30
0.0
 11
177.499420166016
 21
-28.2686634063721
 31
0.0
  0
LINE
  5
    CB
  8
0
  6
CONTINUOUS
 62
    52
 10
179.499420166016
 20
-30.5113048553467
 30
0.0
 11
177.499420166016
 21
-32.511302947998
 31
0.0
  0
LINE
  5
    CC
  8
0
  6
CONTINUOUS
 62
    52
 10
179.499420166016
 20
-34.7539443969727
 30
0.0
 11
177.499420166016
 21
-36.7539405822754
 31
0.0
  0
LINE
  5
    CD
  8
0
  6
CONTINUOUS
 62
    52
 10
179.499420166016
 20
-38.99658203125
 30
0.0
 11
177.499420166016
 21
-40.9965782165527
 31
0.0
  0
LINE
  5
    CE
  8
0
  6
CONTINUOUS
 62
    52
 10
179.499420166016
 20
-43.2392196655273
 30
0.0
 11
177.499420166016
 21
-45.2392158508301
 31
0.0
  0
LINE
  5
    CF
  8
0
  6
CONTINUOUS
 62
    52
 10
179.499420166016
 20
-47.4818572998047
 30
0.0
 11
177.499420166016
 21
-49.4818534851074
 31
0.0
  0
LINE
  5
    D0
  8
0
  6
CONTINUOUS
 62
    52
 10
179.499420166016
 20
-51.724494934082
 30
0.0
 11
177.499420166016
 21
-53.7244911193848
 31
0.0
  0
LINE
  5
    D1
  8
0
  6
CONTINUOUS
 62
    52
 10
179.499420166016
 20
-55.9671325683594
 30
0.0
 11
177.499420166016
 21
-57.9671287536621
 31
0.0
  0
LINE
  5
    D2
  8
0
  6
CONTINUOUS
 62
    52
 10
179.499420166016
 20
-60.2097702026367
 30
0.0
 11
177.499420166016
 21
-62.2097663879395
 31
0.0
  0
LINE
  5
    D3
  8
0
  6
CONTINUOUS
 62
    52
 10
179.499420166016
 20
-64.4524078369141
 30
0.0
 11
177.499420166016
 21
-66.4524078369141
 31
0.0
  0
LINE
  5
    D4
  8
0
  6
CONTINUOUS
 62
    52
 10
179.499420166016
 20
-68.6950531005859
 30
0.0
 11
177.499420166016
 21
-70.6950531005859
 31
0.0
  0
LINE
  5
    D5
  8
0
  6
CONTINUOUS
 62
    52
 10
179.499420166016
 20
-72.9376983642578
 30
0.0
 11
177.499420166016
 21
-74.9376983642578
 31
0.0
  0
LINE
  5
    D6
  8
0
  6
CONTINUOUS
 62
    52
 10
179.499420166016
 20
-77.1803436279297
 30
0.0
 11
177.499420166016
 21
-79.1803436279297
 31
0.0
  0
LINE
  5
    D7
  8
0
  6
CONTINUOUS
 62
    52
 10
179.499420166016
 20
-81.4229888916016
 30
0.0
 11
177.499420166016
 21
-83.4229888916016
 31
0.0
  0
LINE
  5
    D8
  8
0
  6
CONTINUOUS
 62
    52
 10
179.499420166016
 20
-85.6656341552734
 30
0.0
 11
177.499420166016
 21
-87.6656341552734
 31
0.0
  0
LINE
  5
    D9
  8
0
  6
CONTINUOUS
 62
    52
 10
179.499420166016
 20
-89.9082794189453
 30
0.0
 11
177.499420166016
 21
-91.9082794189453
 31
0.0
  0
LINE
  5
    DA
  8
0
  6
CONTINUOUS
 62
    52
 10
179.499420166016
 20
-94.1509246826172
 30
0.0
 11
177.499420166016
 21
-96.1509246826172
 31
0.0
  0
ENDBLK
  5
    DB
  8
0
  6
CONTINUOUS
 62
     7
  0
BLOCK
  5
    DC
  8
0
  6
CONTINUOUS
 62
     7
  2
*HATCH415
 70
    65
 10
0.0
 20
0.0
 30
0.0
  3
*HATCH415
  0
LINE
  5
    DD
  8
0
  6
CONTINUOUS
 62
    52
 10
170.220428466797
 20
153.249862670898
 30
0.0
 11
167.999420166016
 21
151.028839111328
 31
0.0
  0
LINE
  5
    DE
  8
0
  6
CONTINUOUS
 62
    52
 10
170.499420166016
 20
149.286209106445
 30
0.0
 11
167.999420166016
 21
146.786209106445
 31
0.0
  0
LINE
  5
    DF
  8
0
  6
CONTINUOUS
 62
    52
 10
170.499420166016
 20
145.043563842773
 30
0.0
 11
169.705718994141
 21
144.249862670898
 31
0.0
  0
ENDBLK
  5
    E0
  8
0
  6
CONTINUOUS
 62
     7
  0
BLOCK
  5
    E1
  8
0
  6
CONTINUOUS
 62
     7
  2
*UDIM1123
 70
    65
 10
0.0
 20
0.0
 30
0.0
  3
*UDIM1123
  0
TEXT
  5
    E2
  8
0
  6
CONTINUOUS
 62
     7
 10
86.4609364150256
 20
46.8181765056179
 30
0.0
 40
3.00000001532688
  1
140,5
 41
0.933333333333333
 72
     1
 11
93.1609364492556
 21
48.3181765132813
 31
0.0
 73
     2
  0
LINE
  5
    E3
  8
0
  6
CONTINUOUS
 62
     7
 10
68.8484420776367
 20
35.2704366152974
 30
0.0
 11
68.8484420776367
 21
47.8181765056179
 31
0.0
  0
LINE
  5
    E4
  8
0
  6
CONTINUOUS
 62
     7
 10
118.02343171239
 20
-28.6004978865358
 30
0.0
 11
118.02343171239
 21
47.8181765056179
 31
0.0
  0
LINE
  5
    E5
  8
0
  6
CONTINUOUS
 62
     7
 10
68.8484420776367
 20
45.8181765056179
 30
0.0
 11
118.02343171239
 21
45.8181765056179
 31
0.0
  0
LINE
  5
    E6
  8
0
  6
CONTINUOUS
 62
     7
 10
71.8028653548437
 20
46.3391209355696
 30
0.0
 11
68.8484420776367
 21
45.8181765056179
 31
0.0
  0
LINE
  5
    E7
  8
0
  6
CONTINUOUS
 62
     7
 10
68.8484420776367
 20
45.8181765056179
 30
0.0
 11
71.8028653548437
 21
45.2972320756662
 31
0.0
  0
LINE
  5
    E8
  8
0
  6
CONTINUOUS
 62
     7
 10
115.069008435183
 20
45.2972320756662
 30
0.0
 11
118.02343171239
 21
45.8181765056179
 31
0.0
  0
LINE
  5
    E9
  8
0
  6
CONTINUOUS
 62
     7
 10
118.02343171239
 20
45.8181765056179
 30
0.0
 11
115.069008435183
 21
46.3391209355696
 31
0.0
  0
ENDBLK
  5
    EA
  8
0
  6
CONTINUOUS
 62
     7
  0
BLOCK
  5
    EB
  8
0
  6
CONTINUOUS
 62
     7
  2
*UDIM1124
 70
    65
 10
0.0
 20
0.0
 30
0.0
  3
*UDIM1124
  0
TEXT
  5
    EC
  8
0
  6
CONTINUOUS
 62
     7
 10
121.723333654467
 20
46.8181765056179
 30
0.0
 40
3.00000001532688
  1
37
 41
0.933333333333333
 72
     1
 11
124.22333366724
 21
48.3181765132813
 31
0.0
 73
     2
  0
LINE
  5
    ED
  8
0
  6
CONTINUOUS
 62
     7
 10
130.973232090941
 20
12.0783092591579
 30
0.0
 11
130.973232090941
 21
47.8181765056179
 31
0.0
  0
LINE
  5
    EE
  8
0
  6
CONTINUOUS
 62
     7
 10
118.02343171239
 20
45.8181765056179
 30
0.0
 11
130.973232090941
 21
45.8181765056179
 31
0.0
  0
LINE
  5
    EF
  8
0
  6
CONTINUOUS
 62
     7
 10
120.977854989597
 20
46.3391209355696
 30
0.0
 11
118.02343171239
 21
45.8181765056179
 31
0.0
  0
LINE
  5
    F0
  8
0
  6
CONTINUOUS
 62
     7
 10
118.02343171239
 20
45.8181765056179
 30
0.0
 11
120.977854989597
 21
45.2972320756662
 31
0.0
  0
LINE
  5
    F1
  8
0
  6
CONTINUOUS
 62
     7
 10
128.018808813734
 20
45.2972320756662
 30
0.0
 11
130.973232090941
 21
45.8181765056179
 31
0.0
  0
LINE
  5
    F2
  8
0
  6
CONTINUOUS
 62
     7
 10
130.973232090941
 20
45.8181765056179
 30
0.0
 11
128.018808813734
 21
46.3391209355696
 31
0.0
  0
ENDBLK
  5
    F3
  8
0
  6
CONTINUOUS
 62
     7
  0
BLOCK
  5
    F4
  8
0
  6
CONTINUOUS
 62
     7
  2
*UDIM1125
 70
    65
 10
0.0
 20
0.0
 30
0.0
  3
*UDIM1125
  0
TEXT
  5
    F5
  8
0
  6
CONTINUOUS
 62
     7
 10
134.673231642543
 20
46.8181765056179
 30
0.0
 40
3.00000001532688
  1
2
 41
0.933333333333333
 72
     1
 11
135.773231648163
 21
48.3181765132813
 31
0.0
 73
     2
  0
LINE
  5
    F6
  8
0
  6
CONTINUOUS
 62
     7
 10
131.673232019415
 20
11.6320593047555
 30
0.0
 11
131.673232019415
 21
47.8181765056179
 31
0.0
  0
LINE
  5
    F7
  8
0
  6
CONTINUOUS
 62
     7
 10
130.973232090941
 20
45.8181765056179
 30
0.0
 11
136.873231653783
 21
45.8181765056179
 31
0.0
  0
LINE
  5
    F8
  8
0
  6
CONTINUOUS
 62
     7
 10
128.018808813734
 20
45.2972320756662
 30
0.0
 11
130.973232090941
 21
45.8181765056179
 31
0.0
  0
LINE
  5
    F9
  8
0
  6
CONTINUOUS
 62
     7
 10
130.973232090941
 20
45.8181765056179
 30
0.0
 11
128.018808813734
 21
46.3391209355696
 31
0.0
  0
LINE
  5
    FA
  8
0
  6
CONTINUOUS
 62
     7
 10
134.627655296622
 20
46.3391209355696
 30
0.0
 11
131.673232019415
 21
45.8181765056179
 31
0.0
  0
LINE
  5
    FB
  8
0
  6
CONTINUOUS
 62
     7
 10
131.673232019415
 20
45.8181765056179
 30
0.0
 11
134.627655296622
 21
45.2972320756662
 31
0.0
  0
ENDBLK
  5
    FC
  8
0
  6
CONTINUOUS
 62
     7
  0
BLOCK
  5
    FD
  8
0
  6
CONTINUOUS
 62
     7
  2
*UDIM1126
 70
    65
 10
0.0
 20
0.0
 30
0.0
  3
*UDIM1126
  0
TEXT
  5
    FE
  8
0
  6
CONTINUOUS
 62
     7
 10
137.872586481966
 20
-134.980513261807
 30
0.0
 40
3.00000001532688
  1
42,5
 41
0.933333333333333
 72
     1
 11
143.172586509044
 21
-133.480513254143
 31
0.0
 73
     2
  0
LINE
  5
    FF
  8
0
  6
CONTINUOUS
 62
     7
 10
118.02343171239
 20
-67.1754727870221
 30
0.0
 11
118.02343171239
 21
-137.980513261807
 31
0.0
  0
LINE
  5
   100
  8
0
  6
CONTINUOUS
 62
     7
 10
132.898231894245
 20
-83.8005152690778
 30
0.0
 11
132.898231894245
 21
-137.980513261807
 31
0.0
  0
LINE
  5
   101
  8
0
  6
CONTINUOUS
 62
     7
 10
118.02343171239
 20
-135.980513261807
 30
0.0
 11
148.472586536121
 21
-135.980513261807
 31
0.0
  0
LINE
  5
   102
  8
0
  6
CONTINUOUS
 62
     7
 10
120.977854989597
 20
-135.459568831855
 30
0.0
 11
118.02343171239
 21
-135.980513261807
 31
0.0
  0
LINE
  5
   103
  8
0
  6
CONTINUOUS
 62
     7
 10
118.02343171239
 20
-135.980513261807
 30
0.0
 11
120.977854989597
 21
-136.501457691758
 31
0.0
  0
LINE
  5
   104
  8
0
  6
CONTINUOUS
 62
     7
 10
129.943808617038
 20
-136.501457691758
 30
0.0
 11
132.898231894245
 21
-135.980513261807
 31
0.0
  0
LINE
  5
   105
  8
0
  6
CONTINUOUS
 62
     7
 10
132.898231894245
 20
-135.980513261807
 30
0.0
 11
129.943808617038
 21
-135.459568831855
 31
0.0
  0
ENDBLK
  5
   106
  8
0
  6
CONTINUOUS
 62
     7
  0
BLOCK
  5
   107
  8
0
  6
CONTINUOUS
 62
     1
  2
*UDIM1127
 70
    65
 10
0.0
 20
0.0
 30
0.0
  3
*UDIM1127
  0
TEXT
  5
   108
  8
0
  6
CONTINUOUS
 62
     1
 10
11.494344342028
 20
-127.534118037064
 30
0.0
 40
2.00000009536742
  1
FORATURA DA ESEGUIRE SOLO PER ESECUZ.TERM.POST.
 50
359.999999896069
 41
0.937499979138376
 72
     2
 11
99.2443465688986
 21
-125.534118100429
 31
0.0
 73
     3
  0
TEXT
  5
   109
  8
0
  6
CONTINUOUS
 62
     1
 10
13.3693443897117
 20
-130.53411803876
 30
0.0
 40
2.00000009536742
  1
REAR TERMINAL EXECUTION ONLY DRILLING TEMPLATE
 50
359.999999896069
 41
0.937499979138376
 72
     2
 11
99.2443465688986
 21
-128.534118098733
 31
0.0
 73
     3
  0
LINE
  5
   10A
  8
0
  6
CONTINUOUS
 62
     1
 10
3.03067144743227
 20
-149.571379135346
 30
0.0
 11
11.4193443483073
 21
-131.53411811643
 31
0.0
  0
LINE
  5
   10B
  8
0
  6
CONTINUOUS
 62
     1
 10
11.4193443483073
 20
-131.53411811643
 30
0.0
 11
99.2443465670897
 21
-131.53411811643
 31
0.0
  0
LINE
  5
   10C
  8
0
  6
CONTINUOUS
 62
     1
 10
3.80419207976907
 20
-146.672816417145
 30
0.0
 11
3.03067144743227
 21
-149.571379135346
 31
0.0
  0
LINE
  5
   10D
  8
0
  6
CONTINUOUS
 62
     1
 10
3.03067144743227
 20
-149.571379135346
 30
0.0
 11
4.74890974243087
 21
-147.112180655841
 31
0.0
  0
ENDBLK
  5
   10E
  8
0
  6
CONTINUOUS
 62
     1
  0
BLOCK
  5
   10F
  8
0
  6
CONTINUOUS
 62
     7
  2
*UDIM1128
 70
    65
 10
0.0
 20
0.0
 30
0.0
  3
*UDIM1128
  0
TEXT
  5
   110
  8
0
  6
CONTINUOUS
 62
     7
 10
-6.44572422527409
 20
-186.401270369639
 30
0.0
 40
3.00000005960463
  1
70
 50
359.999999896069
 41
0.933333333333334
 72
     1
 11
-3.94572417289019
 21
-184.901270344359
 31
0.0
 73
     2
  0
LINE
  5
   111
  8
0
  6
CONTINUOUS
 62
     7
 10
3.32927525043488
 20
-187.401270374161
 30
0.0
 11
-10.6707239151001
 21
-187.401270374161
 31
0.0
  0
LINE
  5
   112
  8
0
  6
CONTINUOUS
 62
     7
 10
0.374851973227912
 20
-187.922214804113
 30
0.0
 11
3.32927525043488
 21
-187.401270374161
 31
0.0
  0
LINE
  5
   113
  8
0
  6
CONTINUOUS
 62
     7
 10
3.32927525043488
 20
-187.401270374161
 30
0.0
 11
0.374851973227912
 21
-186.88032594421
 31
0.0
  0
LINE
  5
   114
  8
0
  6
CONTINUOUS
 62
     7
 10
-7.71630063789313
 20
-186.88032594421
 30
0.0
 11
-10.6707239151001
 21
-187.401270374161
 31
0.0
  0
LINE
  5
   115
  8
0
  6
CONTINUOUS
 62
     7
 10
-10.6707239151001
 20
-187.401270374161
 30
0.0
 11
-7.71630063789313
 21
-187.922214804113
 31
0.0
  0
ENDBLK
  5
   116
  8
0
  6
CONTINUOUS
 62
     7
  0
BLOCK
  5
   117
  8
0
  6
CONTINUOUS
 62
     7
  2
*UDIM1129
 70
    65
 10
0.0
 20
0.0
 30
0.0
  3
*UDIM1129
  0
TEXT
  5
   118
  8
0
  6
CONTINUOUS
 62
     7
 10
-20.4457233908091
 20
-186.401270369639
 30
0.0
 40
3.00000005960463
  1
70
 50
359.999999896069
 41
0.933333333333334
 72
     1
 11
-17.9457233384252
 21
-184.901270344359
 31
0.0
 73
     2
  0
LINE
  5
   119
  8
0
  6
CONTINUOUS
 62
     7
 10
-10.6707239151001
 20
-187.401270374161
 30
0.0
 11
-24.6707230806351
 21
-187.401270374161
 31
0.0
  0
LINE
  5
   11A
  8
0
  6
CONTINUOUS
 62
     7
 10
-13.6251471923071
 20
-187.922214804113
 30
0.0
 11
-10.6707239151001
 21
-187.401270374161
 31
0.0
  0
LINE
  5
   11B
  8
0
  6
CONTINUOUS
 62
     7
 10
-10.6707239151001
 20
-187.401270374161
 30
0.0
 11
-13.6251471923071
 21
-186.88032594421
 31
0.0
  0
LINE
  5
   11C
  8
0
  6
CONTINUOUS
 62
     7
 10
-21.7162998034281
 20
-186.88032594421
 30
0.0
 11
-24.6707230806351
 21
-187.401270374161
 31
0.0
  0
LINE
  5
   11D
  8
0
  6
CONTINUOUS
 62
     7
 10
-24.6707230806351
 20
-187.401270374161
 30
0.0
 11
-21.7162998034281
 21
-187.922214804113
 31
0.0
  0
ENDBLK
  5
   11E
  8
0
  6
CONTINUOUS
 62
     7
  0
BLOCK
  5
   11F
  8
0
  6
CONTINUOUS
 62
     7
  2
*UDIM1130
 70
    65
 10
0.0
 20
0.0
 30
0.0
  3
*UDIM1130
  0
TEXT
  5
   120
  8
0
  6
CONTINUOUS
 62
     7
 10
-43.4792740550082
 20
-189.942518287493
 30
0.0
 40
3.00000005960463
  1
40
 50
333.486988543552
 41
0.933333333333334
 72
     1
 11
-40.5725899196004
 21
-189.716271354413
 31
0.0
 73
     2
  0
TEXT
  5
   121
  8
0
  6
CONTINUOUS
 62
     7
 10
-45.9400648862942
 20
-188.71491542393
 30
0.0
 40
3.00000005960463
  1
R
 50
333.486988543552
 41
0.933333333333334
 72
     1
 11
-44.2861469901094
 21
-187.863707029841
 31
0.0
 73
     2
  0
LINE
  5
   122
  8
0
  6
CONTINUOUS
 62
     7
 10
-46.3864659178437
 20
-189.609748437967
 30
0.0
 11
-18.4068915766278
 21
-203.567783889447
 31
0.0
  0
LINE
  5
   123
  8
0
  6
CONTINUOUS
 62
     7
 10
-28.9531211335501
 20
-197.724467723392
 30
0.0
 11
-31.8293867423085
 21
-196.871768393104
 31
0.0
  0
LINE
  5
   124
  8
0
  6
CONTINUOUS
 62
     7
 10
-31.8293867423085
 20
-196.871768393104
 30
0.0
 11
-29.4182213969755
 21
-198.656784269074
 31
0.0
  0
ENDBLK
  5
   125
  8
0
  6
CONTINUOUS
 62
     7
  0
BLOCK
  5
   126
  8
0
  6
CONTINUOUS
 62
     7
  2
*UDIM1131
 70
    65
 10
0.0
 20
0.0
 30
0.0
  3
*UDIM1131
  0
TEXT
  5
   127
  8
0
  6
CONTINUOUS
 62
     7
 10
22.9744674968116
 20
-154.091706683045
 30
0.0
 40
3.00000005960463
  1
50
 50
449.999999896069
 41
0.933333333333334
 72
     1
 11
21.4744674715284
 21
-151.591706630663
 31
0.0
 73
     2
  0
LINE
  5
   128
  8
0
  6
CONTINUOUS
 62
     7
 10
-15.9157215412676
 20
-146.44297966361
 30
0.0
 11
25.9744675013308
 21
-146.44297966361
 31
0.0
  0
LINE
  5
   129
  8
0
  6
CONTINUOUS
 62
     7
 10
-15.9157215412676
 20
-156.442979067564
 30
0.0
 11
25.9744675013308
 21
-156.442979067564
 31
0.0
  0
LINE
  5
   12A
  8
0
  6
CONTINUOUS
 62
     7
 10
23.9744675013308
 20
-146.44297966361
 30
0.0
 11
23.9744675013308
 21
-156.442979067564
 31
0.0
  0
LINE
  5
   12B
  8
0
  6
CONTINUOUS
 62
     7
 10
23.4535230713791
 20
-143.488556386404
 30
0.0
 11
23.9744675013308
 21
-146.44297966361
 31
0.0
  0
LINE
  5
   12C
  8
0
  6
CONTINUOUS
 62
     7
 10
23.9744675013308
 20
-146.44297966361
 30
0.0
 11
24.4954119312824
 21
-143.488556386404
 31
0.0
  0
LINE
  5
   12D
  8
0
  6
CONTINUOUS
 62
     7
 10
24.4954119312824
 20
-159.397402344771
 30
0.0
 11
23.9744675013308
 21
-156.442979067564
 31
0.0
  0
LINE
  5
   12E
  8
0
  6
CONTINUOUS
 62
     7
 10
23.9744675013308
 20
-156.442979067564
 30
0.0
 11
23.4535230713791
 21
-159.397402344771
 31
0.0
  0
ENDBLK
  5
   12F
  8
0
  6
CONTINUOUS
 62
     7
  0
BLOCK
  5
   130
  8
0
  6
CONTINUOUS
 62
     7
  2
*UDIM1132
 70
    65
 10
0.0
 20
0.0
 30
0.0
  3
*UDIM1132
  0
TEXT
  5
   131
  8
0
  6
CONTINUOUS
 62
     7
 10
-43.8246374184929
 20
-171.492978340119
 30
0.0
 40
3.00000005960463
  1
165,75
 50
449.999999896069
 41
0.933333333333334
 72
     1
 11
-45.3246374336531
 21
-163.392978176475
 31
0.0
 73
     2
  0
LINE
  5
   132
  8
0
  6
CONTINUOUS
 62
     7
 10
-39.3914531263018
 20
-151.442979365587
 30
0.0
 11
-44.8246374038508
 21
-151.442979365587
 31
0.0
  0
LINE
  5
   133
  8
0
  6
CONTINUOUS
 62
     7
 10
-40.0125666583409
 20
-174.792977973819
 30
0.0
 11
-44.8246374038508
 21
-174.792977973819
 31
0.0
  0
LINE
  5
   134
  8
0
  6
CONTINUOUS
 62
     7
 10
-42.8246374038508
 20
-151.442979365587
 30
0.0
 11
-42.8246374038508
 21
-174.792977973819
 31
0.0
  0
LINE
  5
   135
  8
0
  6
CONTINUOUS
 62
     7
 10
-42.3036929738992
 20
-154.397402642794
 30
0.0
 11
-42.8246374038508
 21
-151.442979365587
 31
0.0
  0
LINE
  5
   136
  8
0
  6
CONTINUOUS
 62
     7
 10
-42.8246374038508
 20
-151.442979365587
 30
0.0
 11
-43.3455818338025
 21
-154.397402642794
 31
0.0
  0
LINE
  5
   137
  8
0
  6
CONTINUOUS
 62
     7
 10
-43.3455818338025
 20
-171.838554696612
 30
0.0
 11
-42.8246374038508
 21
-174.792977973819
 31
0.0
  0
LINE
  5
   138
  8
0
  6
CONTINUOUS
 62
     7
 10
-42.8246374038508
 20
-174.792977973819
 30
0.0
 11
-42.3036929738992
 21
-171.838554696612
 31
0.0
  0
ENDBLK
  5
   139
  8
0
  6
CONTINUOUS
 62
     7
  0
BLOCK
  5
   13A
  8
0
  6
CONTINUOUS
 62
     7
  2
*UDIM1133
 70
    65
 10
0.0
 20
0.0
 30
0.0
  3
*UDIM1133
  0
TEXT
  5
   13B
  8
0
  6
CONTINUOUS
 62
     7
 10
-51.1061158587267
 20
-185.118328241714
 30
0.0
 40
3.00000005960463
  1
315
 50
449.999999896069
 41
0.933333333333334
 72
     1
 11
-52.6061158814791
 21
-181.218328161517
 31
0.0
 73
     2
  0
LINE
  5
   13C
  8
0
  6
CONTINUOUS
 62
     7
 10
-39.3914531263018
 20
-151.442979365587
 30
0.0
 11
-52.1061158516768
 21
-151.442979365587
 31
0.0
  0
LINE
  5
   13D
  8
0
  6
CONTINUOUS
 62
     7
 10
-39.3914531263018
 20
-200.44297644496
 30
0.0
 11
-52.1061158516768
 21
-200.44297644496
 31
0.0
  0
LINE
  5
   13E
  8
0
  6
CONTINUOUS
 62
     7
 10
-50.1061158516768
 20
-151.442979365587
 30
0.0
 11
-50.1061158516768
 21
-200.44297644496
 31
0.0
  0
LINE
  5
   13F
  8
0
  6
CONTINUOUS
 62
     7
 10
-49.5851714217251
 20
-154.397402642794
 30
0.0
 11
-50.1061158516768
 21
-151.442979365587
 31
0.0
  0
LINE
  5
   140
  8
0
  6
CONTINUOUS
 62
     7
 10
-50.1061158516768
 20
-151.442979365587
 30
0.0
 11
-50.6270602816285
 21
-154.397402642794
 31
0.0
  0
LINE
  5
   141
  8
0
  6
CONTINUOUS
 62
     7
 10
-50.6270602816285
 20
-197.488553167753
 30
0.0
 11
-50.1061158516768
 21
-200.44297644496
 31
0.0
  0
LINE
  5
   142
  8
0
  6
CONTINUOUS
 62
     7
 10
-50.1061158516768
 20
-200.44297644496
 30
0.0
 11
-49.5851714217251
 21
-197.488553167753
 31
0.0
  0
ENDBLK
  5
   143
  8
0
  6
CONTINUOUS
 62
     7
  0
BLOCK
  5
   144
  8
0
  6
CONTINUOUS
 62
     7
  2
*UDIM1134
 70
    65
 10
0.0
 20
0.0
 30
0.0
  3
*UDIM1134
  0
TEXT
  5
   145
  8
0
  6
CONTINUOUS
 62
     7
 10
-59.3205410358806
 20
-168.342978527873
 30
0.0
 40
3.00000005960463
  1
197,25
 50
449.999999896069
 41
0.933333333333334
 72
     1
 11
-60.8205410510409
 21
-160.242978364229
 31
0.0
 73
     2
  0
LINE
  5
   146
  8
0
  6
CONTINUOUS
 62
     7
 10
-39.8431720586938
 20
-145.142979741097
 30
0.0
 11
-60.3205410212386
 21
-145.142979741097
 31
0.0
  0
LINE
  5
   147
  8
0
  6
CONTINUOUS
 62
     7
 10
-40.0125666583409
 20
-174.792977973819
 30
0.0
 11
-60.3205410212386
 21
-174.792977973819
 31
0.0
  0
LINE
  5
   148
  8
0
  6
CONTINUOUS
 62
     7
 10
-58.3205410212386
 20
-145.142979741097
 30
0.0
 11
-58.3205410212386
 21
-174.792977973819
 31
0.0
  0
LINE
  5
   149
  8
0
  6
CONTINUOUS
 62
     7
 10
-57.7995965912869
 20
-148.097403018303
 30
0.0
 11
-58.3205410212386
 21
-145.142979741097
 31
0.0
  0
LINE
  5
   14A
  8
0
  6
CONTINUOUS
 62
     7
 10
-58.3205410212386
 20
-145.142979741097
 30
0.0
 11
-58.8414854511902
 21
-148.097403018303
 31
0.0
  0
LINE
  5
   14B
  8
0
  6
CONTINUOUS
 62
     7
 10
-58.8414854511902
 20
-171.838554696612
 30
0.0
 11
-58.3205410212386
 21
-174.792977973819
 31
0.0
  0
LINE
  5
   14C
  8
0
  6
CONTINUOUS
 62
     7
 10
-58.3205410212386
 20
-174.792977973819
 30
0.0
 11
-57.7995965912869
 21
-171.838554696612
 31
0.0
  0
ENDBLK
  5
   14D
  8
0
  6
CONTINUOUS
 62
     7
  0
BLOCK
  5
   14E
  8
0
  6
CONTINUOUS
 62
     7
  2
*UDIM1135
 70
    65
 10
0.0
 20
0.0
 30
0.0
  3
*UDIM1135
  0
TEXT
  5
   14F
  8
0
  6
CONTINUOUS
 62
     7
 10
-66.9930900094454
 20
-180.11797734925
 30
0.0
 40
3.00000005960463
  1
378
 50
449.999999896069
 41
0.933333333333334
 72
     1
 11
-68.4930900321979
 21
-176.217977269053
 31
0.0
 73
     2
  0
LINE
  5
   150
  8
0
  6
CONTINUOUS
 62
     7
 10
-39.8431720586935
 20
-145.142978917125
 30
0.0
 11
-67.9930900023949
 21
-145.142955722401
 31
0.0
  0
LINE
  5
   151
  8
0
  6
CONTINUOUS
 62
     7
 10
-39.3914531263015
 20
-206.742975224931
 30
0.0
 11
-67.9930900023948
 21
-206.742951070284
 31
0.0
  0
LINE
  5
   152
  8
0
  6
CONTINUOUS
 62
     7
 10
-65.9930900023955
 20
-145.142957370344
 30
0.0
 11
-65.9930900023955
 21
-206.742952759324
 31
0.0
  0
LINE
  5
   153
  8
0
  6
CONTINUOUS
 62
     7
 10
-65.4721455724439
 20
-148.097380647551
 30
0.0
 11
-65.9930900023955
 21
-145.142957370344
 31
0.0
  0
LINE
  5
   154
  8
0
  6
CONTINUOUS
 62
     7
 10
-65.9930900023955
 20
-145.142957370344
 30
0.0
 11
-66.5140344323472
 21
-148.097380647551
 31
0.0
  0
LINE
  5
   155
  8
0
  6
CONTINUOUS
 62
     7
 10
-66.5140344323472
 20
-203.788529482117
 30
0.0
 11
-65.9930900023955
 21
-206.742952759324
 31
0.0
  0
LINE
  5
   156
  8
0
  6
CONTINUOUS
 62
     7
 10
-65.9930900023955
 20
-206.742952759324
 30
0.0
 11
-65.4721455724439
 21
-203.788529482117
 31
0.0
  0
ENDBLK
  5
   157
  8
0
  6
CONTINUOUS
 62
     7
  0
BLOCK
  5
   158
  8
0
  6
CONTINUOUS
 62
     7
  2
*UDIM1136
 70
    65
 10
0.0
 20
0.0
 30
0.0
  3
*UDIM1136
  0
TEXT
  5
   159
  8
0
  6
CONTINUOUS
 62
     7
 10
20.5259642418719
 20
-192.479346738903
 30
0.0
 40
3.00000005960463
  1
5,5
 50
388.478485351186
 41
0.933333333333334
 72
     1
 11
23.2388064770693
 21
-189.301220293853
 31
0.0
 73
     2
  0
TEXT
  5
   15A
  8
0
  6
CONTINUOUS
 62
     7
 10
17.7571261118579
 20
-193.98135726152
 30
0.0
 40
3.00000005960463
  1
Ø
 50
388.478485351186
 41
0.933333333333334
 72
     1
 11
18.0087788695315
 21
-192.138351285664
 31
0.0
 73
     2
  0
TEXT
  5
   15B
  8
0
  6
CONTINUOUS
 62
     7
 10
27.8655828536028
 20
-188.497826750074
 30
0.0
 40
3.00000005960463
  1
 - M5
 50
388.478485351186
 41
0.933333333333333
 72
     1
 11
33.0396145663241
 21
-183.984579835831
 31
0.0
 73
     2
  0
LINE
  5
   15C
  8
0
  6
CONTINUOUS
 62
     7
 10
40.1209612237587
 20
-182.987317859207
 30
0.0
 11
-4.15417222652237
 21
-207.005231855931
 31
0.0
  0
LINE
  5
   15D
  8
0
  6
CONTINUOUS
 62
     7
 10
-0.838750805939556
 20
-204.614058193869
 30
0.0
 11
-3.18727643814285
 21
-206.48072028297
 31
0.0
  0
LINE
  5
   15E
  8
0
  6
CONTINUOUS
 62
     7
 10
-3.18727643814285
 20
-206.48072028297
 30
0.0
 11
-0.34194826291044
 21
-205.529874567184
 31
0.0
  0
LINE
  5
   15F
  8
0
  6
CONTINUOUS
 62
     7
 10
-6.50269785872567
 20
-208.871893945031
 30
0.0
 11
-4.15417222652237
 21
-207.005231855931
 31
0.0
  0
LINE
  5
   160
  8
0
  6
CONTINUOUS
 62
     7
 10
-4.15417222652237
 20
-207.005231855931
 30
0.0
 11
-6.99950040175478
 21
-207.956077571717
 31
0.0
  0
ENDBLK
  5
   161
  8
0
  6
CONTINUOUS
 62
     7
  0
BLOCK
  5
   162
  8
0
  6
CONTINUOUS
 62
     7
  2
*UDIM1137
 70
    65
 10
0.0
 20
0.0
 30
0.0
  3
*UDIM1137
  0
TEXT
  5
   163
  8
0
  6
CONTINUOUS
 62
     7
 10
-13.4457222821628
 20
-169.071868097498
 30
0.0
 40
3.00000005960463
  1
70
 50
359.999999896069
 41
0.933333333333334
 72
     1
 11
-10.9457222297789
 21
-167.571868072218
 31
0.0
 73
     2
  0
LINE
  5
   164
  8
0
  6
CONTINUOUS
 62
     7
 10
-3.67072433233261
 20
-170.071868102021
 30
0.0
 11
-17.6707234978676
 21
-170.071868102021
 31
0.0
  0
LINE
  5
   165
  8
0
  6
CONTINUOUS
 62
     7
 10
-6.62514760953958
 20
-170.592812531972
 30
0.0
 11
-3.67072433233261
 21
-170.071868102021
 31
0.0
  0
LINE
  5
   166
  8
0
  6
CONTINUOUS
 62
     7
 10
-3.67072433233261
 20
-170.071868102021
 30
0.0
 11
-6.62514760953958
 21
-169.550923672069
 31
0.0
  0
LINE
  5
   167
  8
0
  6
CONTINUOUS
 62
     7
 10
-14.7163002206606
 20
-169.550923672069
 30
0.0
 11
-17.6707234978676
 21
-170.071868102021
 31
0.0
  0
LINE
  5
   168
  8
0
  6
CONTINUOUS
 62
     7
 10
-17.6707234978676
 20
-170.071868102021
 30
0.0
 11
-14.7163002206606
 21
-170.592812531972
 31
0.0
  0
ENDBLK
  5
   169
  8
0
  6
CONTINUOUS
 62
     7
  0
BLOCK
  5
   16A
  8
0
  6
CONTINUOUS
 62
     7
  2
*UDIM1138
 70
    65
 10
0.0
 20
0.0
 30
0.0
  3
*UDIM1138
  0
TEXT
  5
   16B
  8
0
  6
CONTINUOUS
 62
     7
 10
196.805239811439
 20
-38.3602237557474
 30
0.0
 40
3.00000002980232
  1
2,75
 50
359.999999844103
 41
0.933333333333333
 72
     1
 11
202.105239868164
 21
-36.8602237552404
 31
0.0
 73
     2
  0
LINE
  5
   16C
  8
0
  6
CONTINUOUS
 62
     7
 10
209.870330810547
 20
-26.0453471374512
 30
0.0
 11
209.870330810547
 21
-41.3602237701416
 31
0.0
  0
LINE
  5
   16D
  8
0
  6
CONTINUOUS
 62
     7
 10
196.805239815513
 20
-39.3602237701416
 30
0.0
 11
210.557830810547
 21
-39.3602237701416
 31
0.0
  0
LINE
  5
   16E
  8
0
  6
CONTINUOUS
 62
     7
 10
206.91590753334
 20
-39.8811682000933
 30
0.0
 11
209.870330810547
 21
-39.3602237701416
 31
0.0
  0
LINE
  5
   16F
  8
0
  6
CONTINUOUS
 62
     7
 10
209.870330810547
 20
-39.3602237701416
 30
0.0
 11
206.91590753334
 21
-38.8392793401899
 31
0.0
  0
LINE
  5
   170
  8
0
  6
CONTINUOUS
 62
     7
 10
213.512254087754
 20
-38.8392793401899
 30
0.0
 11
210.557830810547
 21
-39.3602237701416
 31
0.0
  0
LINE
  5
   171
  8
0
  6
CONTINUOUS
 62
     7
 10
210.557830810547
 20
-39.3602237701416
 30
0.0
 11
213.512254087754
 21
-39.8811682000933
 31
0.0
  0
ENDBLK
  5
   172
  8
0
  6
CONTINUOUS
 62
     7
  0
BLOCK
  5
   173
  8
0
  6
CONTINUOUS
 62
     7
  2
*UDIM1139
 70
    65
 10
0.0
 20
0.0
 30
0.0
  3
*UDIM1139
  0
TEXT
  5
   174
  8
0
  6
CONTINUOUS
 62
     7
 10
241.869567864307
 20
-37.4003471723189
 30
0.0
 40
3.00000002980232
  1
90
 50
449.999999844103
 41
0.933333333333333
 72
     1
 11
240.369567856193
 21
-34.9003471434116
 31
0.0
 73
     2
  0
LINE
  5
   175
  8
0
  6
CONTINUOUS
 62
     7
 10
223.790330810547
 20
-23.3753471374512
 30
0.0
 11
244.869567871094
 21
-23.3753471374512
 31
0.0
  0
LINE
  5
   176
  8
0
  6
CONTINUOUS
 62
     7
 10
239.188124109918
 20
-45.8753471374512
 30
0.0
 11
244.869567871094
 21
-45.8753471374512
 31
0.0
  0
LINE
  5
   177
  8
0
  6
CONTINUOUS
 62
     7
 10
242.869567871094
 20
-23.3753471374512
 30
0.0
 11
242.869567871094
 21
-45.8753471374512
 31
0.0
  0
LINE
  5
   178
  8
0
  6
CONTINUOUS
 62
     7
 10
243.390512301045
 20
-26.3297704146581
 30
0.0
 11
242.869567871094
 21
-23.3753471374512
 31
0.0
  0
LINE
  5
   179
  8
0
  6
CONTINUOUS
 62
     7
 10
242.869567871094
 20
-23.3753471374512
 30
0.0
 11
242.348623441142
 21
-26.3297704146581
 31
0.0
  0
LINE
  5
   17A
  8
0
  6
CONTINUOUS
 62
     7
 10
242.348623441142
 20
-42.9209238602442
 30
0.0
 11
242.869567871094
 21
-45.8753471374512
 31
0.0
  0
LINE
  5
   17B
  8
0
  6
CONTINUOUS
 62
     7
 10
242.869567871094
 20
-45.8753471374512
 30
0.0
 11
243.390512301045
 21
-42.9209238602442
 31
0.0
  0
ENDBLK
  5
   17C
  8
0
  6
CONTINUOUS
 62
     7
  0
BLOCK
  5
   17D
  8
0
  6
CONTINUOUS
 62
     7
  2
*UDIM1140
 70
    65
 10
0.0
 20
0.0
 30
0.0
  3
*UDIM1140
  0
TEXT
  5
   17E
  8
0
  6
CONTINUOUS
 62
     7
 10
212.920858451127
 20
-13.5146922997288
 30
0.0
 40
3.00000002980232
  1
45
 50
359.999999844103
 41
0.933333333333333
 72
     1
 11
215.420858480036
 21
-12.0146922916174
 31
0.0
 73
     2
  0
LINE
  5
   17F
  8
0
  6
CONTINUOUS
 62
     7
 10
209.870330810547
 20
-20.7053471374512
 30
0.0
 11
209.870330810547
 21
-12.5146923065186
 31
0.0
  0
LINE
  5
   180
  8
0
  6
CONTINUOUS
 62
     7
 10
221.120330810547
 20
-20.7053471374512
 30
0.0
 11
221.120330810547
 21
-12.5146923065186
 31
0.0
  0
LINE
  5
   181
  8
0
  6
CONTINUOUS
 62
     7
 10
209.870330810547
 20
-14.5146923065186
 30
0.0
 11
221.120330810547
 21
-14.5146923065186
 31
0.0
  0
LINE
  5
   182
  8
0
  6
CONTINUOUS
 62
     7
 10
206.91590753334
 20
-15.0356367364702
 30
0.0
 11
209.870330810547
 21
-14.5146923065186
 31
0.0
  0
LINE
  5
   183
  8
0
  6
CONTINUOUS
 62
     7
 10
209.870330810547
 20
-14.5146923065186
 30
0.0
 11
206.91590753334
 21
-13.9937478765669
 31
0.0
  0
LINE
  5
   184
  8
0
  6
CONTINUOUS
 62
     7
 10
224.074754087754
 20
-13.9937478765669
 30
0.0
 11
221.120330810547
 21
-14.5146923065186
 31
0.0
  0
LINE
  5
   185
  8
0
  6
CONTINUOUS
 62
     7
 10
221.120330810547
 20
-14.5146923065186
 30
0.0
 11
224.074754087754
 21
-15.0356367364702
 31
0.0
  0
ENDBLK
  5
   186
  8
0
  6
CONTINUOUS
 62
     7
  0
BLOCK
  5
   187
  8
0
  6
CONTINUOUS
 62
     7
  2
*UDIM1141
 70
    65
 10
0.0
 20
0.0
 30
0.0
  3
*UDIM1141
  0
TEXT
  5
   188
  8
0
  6
CONTINUOUS
 62
     7
 10
180.555465384182
 20
-78.6104069797531
 30
0.0
 40
3.00000002980232
  1
7
 50
397.208926617964
 41
0.933333333333334
 72
     1
 11
180.524459858626
 21
-76.750557865946
 31
0.0
 73
     2
  0
TEXT
  5
   189
  8
0
  6
CONTINUOUS
 62
     7
 10
178.046692887092
 20
-80.5152850914515
 30
0.0
 40
3.00000002980232
  1
Ø
 50
397.208926617964
 41
0.933333333333334
 72
     1
 11
178.015687361536
 21
-78.6554359776444
 31
0.0
 73
     2
  0
LINE
  5
   18A
  8
0
  6
CONTINUOUS
 62
     7
 10
196.879712057541
 20
-67.4712143303149
 30
0.0
 11
178.651416100298
 21
-81.3117208022176
 31
0.0
  0
LINE
  5
   18B
  8
0
  6
CONTINUOUS
 62
     7
 10
198.917693073525
 20
-65.2697072604898
 30
0.0
 11
196.879712057541
 21
-67.4712143303149
 31
0.0
  0
LINE
  5
   18C
  8
0
  6
CONTINUOUS
 62
     7
 10
196.879712057541
 20
-67.4712143303149
 30
0.0
 11
199.547747447427
 21
-66.099504755254
 31
0.0
  0
LINE
  5
   18D
  8
0
  6
CONTINUOUS
 62
     7
 10
193.447968547569
 20
-70.7309870144125
 30
0.0
 11
195.485949563553
 21
-68.5294799445875
 31
0.0
  0
LINE
  5
   18E
  8
0
  6
CONTINUOUS
 62
     7
 10
195.485949563553
 20
-68.5294799445875
 30
0.0
 11
192.817914173667
 21
-69.9011895196484
 31
0.0
  0
ENDBLK
  5
   18F
  8
0
  6
CONTINUOUS
 62
     7
  0
BLOCK
  5
   190
  8
0
  6
CONTINUOUS
 62
     7
  2
*UDIM1142
 70
    65
 10
0.0
 20
0.0
 30
0.0
  3
*UDIM1142
  0
TEXT
  5
   191
  8
0
  6
CONTINUOUS
 62
     7
 10
206.38283076177
 20
-92.2549514664588
 30
0.0
 40
3.00000002980232
  1
147
 50
359.999999844103
 41
0.933333333333333
 72
     1
 11
210.282830804586
 21
-90.7549514621496
 31
0.0
 73
     2
  0
LINE
  5
   192
  8
0
  6
CONTINUOUS
 62
     7
 10
192.182830810547
 20
-65.2503471374512
 30
0.0
 11
192.182830810547
 21
-95.2549514770508
 31
0.0
  0
LINE
  5
   193
  8
0
  6
CONTINUOUS
 62
     7
 10
228.932830810547
 20
-65.2503471374512
 30
0.0
 11
228.932830810547
 21
-95.2549514770508
 31
0.0
  0
LINE
  5
   194
  8
0
  6
CONTINUOUS
 62
     7
 10
192.182830810547
 20
-93.2549514770508
 30
0.0
 11
228.932830810547
 21
-93.2549514770508
 31
0.0
  0
LINE
  5
   195
  8
0
  6
CONTINUOUS
 62
     7
 10
195.137254087754
 20
-92.7340070470991
 30
0.0
 11
192.182830810547
 21
-93.2549514770508
 31
0.0
  0
LINE
  5
   196
  8
0
  6
CONTINUOUS
 62
     7
 10
192.182830810547
 20
-93.2549514770508
 30
0.0
 11
195.137254087754
 21
-93.7758959070024
 31
0.0
  0
LINE
  5
   197
  8
0
  6
CONTINUOUS
 62
     7
 10
225.97840753334
 20
-93.7758959070024
 30
0.0
 11
228.932830810547
 21
-93.2549514770508
 31
0.0
  0
LINE
  5
   198
  8
0
  6
CONTINUOUS
 62
     7
 10
228.932830810547
 20
-93.2549514770508
 30
0.0
 11
225.97840753334
 21
-92.7340070470991
 31
0.0
  0
ENDBLK
  5
   199
  8
0
  6
CONTINUOUS
 62
     7
  0
BLOCK
  5
   19A
  8
0
  6
CONTINUOUS
 62
     7
  2
*UDIM1143
 70
    65
 10
0.0
 20
0.0
 30
0.0
  3
*UDIM1143
  0
TEXT
  5
   19B
  8
0
  6
CONTINUOUS
 62
     7
 10
206.38283076177
 20
-80.8360443009315
 30
0.0
 40
3.00000002980232
  1
115
 50
359.999999844103
 41
0.933333333333333
 72
     1
 11
210.282830804586
 21
-79.3360442966223
 31
0.0
 73
     2
  0
LINE
  5
   19C
  8
0
  6
CONTINUOUS
 62
     7
 10
196.182830810547
 20
-26.3753471374512
 30
0.0
 11
196.182830810547
 21
-83.8360443115234
 31
0.0
  0
LINE
  5
   19D
  8
0
  6
CONTINUOUS
 62
     7
 10
224.932830810547
 20
-26.3753471374512
 30
0.0
 11
224.932830810547
 21
-83.8360443115234
 31
0.0
  0
LINE
  5
   19E
  8
0
  6
CONTINUOUS
 62
     7
 10
196.182830810547
 20
-81.8360443115234
 30
0.0
 11
224.932830810547
 21
-81.8360443115234
 31
0.0
  0
LINE
  5
   19F
  8
0
  6
CONTINUOUS
 62
     7
 10
199.137254087754
 20
-81.3150998815718
 30
0.0
 11
196.182830810547
 21
-81.8360443115234
 31
0.0
  0
LINE
  5
   1A0
  8
0
  6
CONTINUOUS
 62
     7
 10
196.182830810547
 20
-81.8360443115234
 30
0.0
 11
199.137254087754
 21
-82.3569887414751
 31
0.0
  0
LINE
  5
   1A1
  8
0
  6
CONTINUOUS
 62
     7
 10
221.97840753334
 20
-82.3569887414751
 30
0.0
 11
224.932830810547
 21
-81.8360443115234
 31
0.0
  0
LINE
  5
   1A2
  8
0
  6
CONTINUOUS
 62
     7
 10
224.932830810547
 20
-81.8360443115234
 30
0.0
 11
221.97840753334
 21
-81.3150998815718
 31
0.0
  0
ENDBLK
  5
   1A3
  8
0
  6
CONTINUOUS
 62
     7
  0
BLOCK
  5
   1A4
  8
0
  6
CONTINUOUS
 62
     7
  2
*UDIM1144
 70
    65
 10
0.0
 20
0.0
 30
0.0
  3
*UDIM1144
  0
TEXT
  5
   1A5
  8
0
  6
CONTINUOUS
 62
     7
 10
169.537090290927
 20
-50.0503471862266
 30
0.0
 40
3.00000002980232
  1
177
 50
449.999999844103
 41
0.933333333333333
 72
     1
 11
168.037090286613
 21
-46.1503471434116
 31
0.0
 73
     2
  0
LINE
  5
   1A6
  8
0
  6
CONTINUOUS
 62
     7
 10
193.557830810547
 20
-23.7503471374512
 30
0.0
 11
168.537090301514
 21
-23.7503471374512
 31
0.0
  0
LINE
  5
   1A7
  8
0
  6
CONTINUOUS
 62
     7
 10
193.557830810547
 20
-68.0003471374512
 30
0.0
 11
168.537090301514
 21
-68.0003471374512
 31
0.0
  0
LINE
  5
   1A8
  8
0
  6
CONTINUOUS
 62
     7
 10
170.537090301514
 20
-23.7503471374512
 30
0.0
 11
170.537090301514
 21
-68.0003471374512
 31
0.0
  0
LINE
  5
   1A9
  8
0
  6
CONTINUOUS
 62
     7
 10
171.058034731465
 20
-26.7047704146581
 30
0.0
 11
170.537090301514
 21
-23.7503471374512
 31
0.0
  0
LINE
  5
   1AA
  8
0
  6
CONTINUOUS
 62
     7
 10
170.537090301514
 20
-23.7503471374512
 30
0.0
 11
170.016145871562
 21
-26.7047704146581
 31
0.0
  0
LINE
  5
   1AB
  8
0
  6
CONTINUOUS
 62
     7
 10
170.016145871562
 20
-65.0459238602442
 30
0.0
 11
170.537090301514
 21
-68.0003471374512
 31
0.0
  0
LINE
  5
   1AC
  8
0
  6
CONTINUOUS
 62
     7
 10
170.537090301514
 20
-68.0003471374512
 30
0.0
 11
171.058034731465
 21
-65.0459238602442
 31
0.0
  0
ENDBLK
  5
   1AD
  8
0
  6
CONTINUOUS
 62
     7
  0
BLOCK
  5
   1AE
  8
0
  6
CONTINUOUS
 62
     7
  2
*UDIM1145
 70
    65
 10
0.0
 20
0.0
 30
0.0
  3
*UDIM1145
  0
TEXT
  5
   1AF
  8
0
  6
CONTINUOUS
 62
     7
 10
178.909399022006
 20
-50.0503471862266
 30
0.0
 40
3.00000002980232
  1
147
 50
449.999999844103
 41
0.933333333333333
 72
     1
 11
177.409399017692
 21
-46.1503471434116
 31
0.0
 73
     2
  0
LINE
  5
   1B0
  8
0
  6
CONTINUOUS
 62
     7
 10
191.182830810547
 20
-27.5003471374512
 30
0.0
 11
177.909399032593
 21
-27.5003471374512
 31
0.0
  0
LINE
  5
   1B1
  8
0
  6
CONTINUOUS
 62
     7
 10
191.182830810547
 20
-64.2503471374512
 30
0.0
 11
177.909399032593
 21
-64.2503471374512
 31
0.0
  0
LINE
  5
   1B2
  8
0
  6
CONTINUOUS
 62
     7
 10
179.909399032593
 20
-27.5003471374512
 30
0.0
 11
179.909399032593
 21
-64.2503471374512
 31
0.0
  0
LINE
  5
   1B3
  8
0
  6
CONTINUOUS
 62
     7
 10
180.430343462544
 20
-30.4547704146581
 30
0.0
 11
179.909399032593
 21
-27.5003471374512
 31
0.0
  0
LINE
  5
   1B4
  8
0
  6
CONTINUOUS
 62
     7
 10
179.909399032593
 20
-27.5003471374512
 30
0.0
 11
179.388454602641
 21
-30.4547704146581
 31
0.0
  0
LINE
  5
   1B5
  8
0
  6
CONTINUOUS
 62
     7
 10
179.388454602641
 20
-61.2959238602442
 30
0.0
 11
179.909399032593
 21
-64.2503471374512
 31
0.0
  0
LINE
  5
   1B6
  8
0
  6
CONTINUOUS
 62
     7
 10
179.909399032593
 20
-64.2503471374512
 30
0.0
 11
180.430343462544
 21
-61.2959238602442
 31
0.0
  0
ENDBLK
  5
   1B7
  8
0
  6
CONTINUOUS
 62
     7
  0
BLOCK
  5
   1B8
  8
0
  6
CONTINUOUS
 62
     7
  2
*HATCH416
 70
    65
 10
0.0
 20
0.0
 30
0.0
  3
*HATCH416
  0
LINE
  5
   1B9
  8
0
  6
CONTINUOUS
 62
    52
 10
-11.7279224395752
 20
1.0
 30
0.0
 11
-11.9763488769531
 21
0.75157368183136
 31
0.0
  0
LINE
  5
   1BA
  8
0
  6
CONTINUOUS
 62
    52
 10
-9.60660171508789
 20
1.0
 30
0.0
 11
-11.6066026687622
 21
-1.0
 31
0.0
  0
LINE
  5
   1BB
  8
0
  6
CONTINUOUS
 62
    52
 10
-7.48528146743774
 20
1.0
 30
0.0
 11
-9.48528289794922
 21
-1.0
 31
0.0
  0
LINE
  5
   1BC
  8
0
  6
CONTINUOUS
 62
    52
 10
-5.3639612197876
 20
1.0
 30
0.0
 11
-7.36396265029907
 21
-1.0
 31
0.0
  0
LINE
  5
   1BD
  8
0
  6
CONTINUOUS
 62
    52
 10
-3.47947335243225
 20
0.763167560100555
 30
0.0
 11
-5.24264097213745
 21
-1.0
 31
0.0
  0
LINE
  5
   1BE
  8
0
  6
CONTINUOUS
 62
    52
 10
-2.51160907745361
 20
-0.390288293361664
 30
0.0
 11
-3.1213207244873
 21
-1.0
 31
0.0
  0
ENDBLK
  5
   1BF
  8
0
  6
CONTINUOUS
 62
     7
  0
BLOCK
  5
   1C0
  8
0
  6
CONTINUOUS
 62
     7
  2
*HATCH417
 70
    65
 10
0.0
 20
0.0
 30
0.0
  3
*HATCH417
  0
LINE
  5
   1C1
  8
0
  6
CONTINUOUS
 62
    52
 10
5.24264097213745
 20
1.0
 30
0.0
 11
3.24264073371887
 21
-1.0
 31
0.0
  0
LINE
  5
   1C2
  8
0
  6
CONTINUOUS
 62
    52
 10
7.3639612197876
 20
1.0
 30
0.0
 11
5.3639612197876
 21
-1.0
 31
0.0
  0
LINE
  5
   1C3
  8
0
  6
CONTINUOUS
 62
    52
 10
9.48528099060059
 20
1.0
 30
0.0
 11
7.4852819442749
 21
-1.0
 31
0.0
  0
ENDBLK
  5
   1C4
  8
0
  6
CONTINUOUS
 62
     7
  0
BLOCK
  5
   1C5
  8
0
  6
CONTINUOUS
 62
     7
  2
*UDIM1146
 70
    65
 10
0.0
 20
0.0
 30
0.0
  3
*UDIM1146
  0
TEXT
  5
   1C6
  8
0
  6
CONTINUOUS
 62
     7
 10
233.039243463443
 20
13.4633311497466
 30
0.0
 40
3.00000002980232
  1
80
 50
449.241125536518
 41
0.933333333333333
 72
     1
 11
231.572486193508
 21
15.982978601271
 31
0.0
 73
     2
  0
TEXT
  5
   1C7
  8
0
  6
CONTINUOUS
 62
     7
 10
232.505518429181
 20
18.4708393211927
 30
0.0
 40
3.00000002980232
  1
°
 50
449.241125536518
 41
0.933333333333334
 72
     1
 11
231.02021890002
 21
19.5906095553997
 31
0.0
 73
     2
  0
LINE
  5
   1C8
  8
0
  6
CONTINUOUS
 62
     7
 10
215.976814096439
 20
13.0368717857958
 30
0.0
 11
230.17878126267
 21
1.12000637461996
 31
0.0
  0
LINE
  5
   1C9
  8
0
  6
CONTINUOUS
 62
     7
 10
215.976814096439
 20
21.678845529878
 30
0.0
 11
230.17878126267
 21
33.5957109410539
 31
0.0
  0
ARC
  5
   1CA
  8
0
  6
CONTINUOUS
 62
     7
 10
210.827262468132
 20
17.3578586578369
 30
0.0
 40
23.2616136940404
 50
319.999999815233
 51
399.999999769042
  0
LINE
  5
   1CB
  8
0
  6
CONTINUOUS
 62
     7
 10
230.146692467052
 20
5.00365775302694
 30
0.0
 11
228.646692376432
 21
2.40558159399304
 31
0.0
  0
LINE
  5
   1CC
  8
0
  6
CONTINUOUS
 62
     7
 10
228.646692376432
 20
2.40558159399304
 30
0.0
 11
230.944825638528
 21
4.33394450321065
 31
0.0
  0
LINE
  5
   1CD
  8
0
  6
CONTINUOUS
 62
     7
 10
230.944825638528
 20
30.3817728124632
 30
0.0
 11
228.646692376432
 21
32.3101357216808
 31
0.0
  0
LINE
  5
   1CE
  8
0
  6
CONTINUOUS
 62
     7
 10
228.646692376432
 20
32.3101357216808
 30
0.0
 11
230.146692467052
 21
29.7120595626469
 31
0.0
  0
ENDBLK
  5
   1CF
  8
0
  6
CONTINUOUS
 62
     7
  0
BLOCK
  5
   1D0
  8
0
  6
CONTINUOUS
 62
     7
  2
*UDIM1147
 70
    65
 10
0.0
 20
0.0
 30
0.0
  3
*UDIM1147
  0
TEXT
  5
   1D1
  8
0
  6
CONTINUOUS
 62
     7
 10
192.765102379688
 20
23.2429256150137
 30
0.0
 40
3.00000002980232
  1
Ø4
 50
449.999999844103
 41
0.933333333333333
 72
     1
 11
191.265102371573
 21
25.7429256439209
 31
0.0
 73
     2
  0
LINE
  5
   1D2
  8
0
  6
CONTINUOUS
 62
     7
 10
212.21076965332
 20
19.3578586578369
 30
0.0
 11
191.765102386475
 21
19.3578586578369
 31
0.0
  0
LINE
  5
   1D3
  8
0
  6
CONTINUOUS
 62
     7
 10
212.21076965332
 20
15.3578586578369
 30
0.0
 11
191.765102386475
 21
15.3578586578369
 31
0.0
  0
LINE
  5
   1D4
  8
0
  6
CONTINUOUS
 62
     7
 10
193.765102386475
 20
28.2429256687562
 30
0.0
 11
193.765102386475
 21
15.3578586578369
 31
0.0
  0
LINE
  5
   1D5
  8
0
  6
CONTINUOUS
 62
     7
 10
193.244157956523
 20
22.3122819350439
 30
0.0
 11
193.765102386475
 21
19.3578586578369
 31
0.0
  0
LINE
  5
   1D6
  8
0
  6
CONTINUOUS
 62
     7
 10
193.765102386475
 20
19.3578586578369
 30
0.0
 11
194.286046816426
 21
22.3122819350439
 31
0.0
  0
LINE
  5
   1D7
  8
0
  6
CONTINUOUS
 62
     7
 10
194.286046816426
 20
12.40343538063
 30
0.0
 11
193.765102386475
 21
15.3578586578369
 31
0.0
  0
LINE
  5
   1D8
  8
0
  6
CONTINUOUS
 62
     7
 10
193.765102386475
 20
15.3578586578369
 30
0.0
 11
193.244157956523
 21
12.40343538063
 31
0.0
  0
ENDBLK
  5
   1D9
  8
0
  6
CONTINUOUS
 62
     7
  0
ENDSEC
  0
SECTION
  2
ENTITIES
  0
LINE
  5
   1DA
  8
0
  6
CONTINUOUS
 62
     1
 10
-46.3246385099887
 20
-74.6629659196335
 30
0.0
 11
-46.983195571604
 21
-74.6629635831319
 31
0.0
  0
LINE
  5
   1DB
  8
0
  6
CONTINUOUS
 62
     1
 10
24.9831887724399
 20
-74.6629659196335
 30
0.0
 11
25.6417458340552
 21
-74.6629635831319
 31
0.0
  0
LINE
  5
   1DC
  8
0
  6
CONTINUOUS
 62
     1
 10
26.079270588581
 20
-0.987974107265472
 30
0.0
 11
-47.4207203261298
 21
-0.987974107265472
 31
0.0
  0
LINE
  5
   1DD
  8
0
  6
CONTINUOUS
 62
     1
 10
24.983187656343
 20
-74.6629662454129
 30
0.0
 11
15.9292750835416
 21
-74.6629662454129
 31
0.0
  0
LINE
  5
   1DE
  8
0
  6
CONTINUOUS
 62
     1
 10
25.9917607039224
 20
-74.3129662811756
 30
0.0
 11
15.9292750835416
 21
-74.3129662811756
 31
0.0
  0
LINE
  5
   1DF
  8
0
  6
CONTINUOUS
 62
     1
 10
-37.2707194805148
 20
-29.5129925549008
 30
0.0
 11
-47.4207163145432
 21
-29.5129925549008
 31
0.0
  0
LINE
  5
   1E0
  8
0
  6
CONTINUOUS
 62
     1
 10
25.9917607039224
 20
-29.5129925549008
 30
0.0
 11
15.9292750835416
 21
-29.5129925549008
 31
0.0
  0
LINE
  5
   1E1
  8
0
  6
CONTINUOUS
 62
     1
 10
25.9917607039224
 20
-66.2629731118673
 30
0.0
 11
15.9292750835416
 21
-66.2629731118673
 31
0.0
  0
LINE
  5
   1E2
  8
0
  6
CONTINUOUS
 62
     1
 10
-37.2707194805148
 20
-66.2629731118673
 30
0.0
 11
-47.3332211226225
 21
-66.2629731118673
 31
0.0
  0
LINE
  5
   1E3
  8
0
  6
CONTINUOUS
 62
     1
 10
-46.6682126456508
 20
-29.5129925549008
 30
0.0
 11
-46.6682126456508
 21
-0.987979447841099
 31
0.0
  0
LINE
  5
   1E4
  8
0
  6
CONTINUOUS
 62
     1
 10
-45.4081999570153
 20
-29.5129925549008
 30
0.0
 11
-45.4081999570153
 21
-0.987979447841099
 31
0.0
  0
LINE
  5
   1E5
  8
0
  6
CONTINUOUS
 62
     1
 10
-44.1482086306824
 20
-29.5129925549008
 30
0.0
 11
-44.1482086306824
 21
-0.987979447841099
 31
0.0
  0
LINE
  5
   1E6
  8
0
  6
CONTINUOUS
 62
     1
 10
-42.8882173043494
 20
-29.5129925549008
 30
0.0
 11
-42.8882173043494
 21
-0.987979447841099
 31
0.0
  0
LINE
  5
   1E7
  8
0
  6
CONTINUOUS
 62
     1
 10
-41.6282046157139
 20
-29.5129925549008
 30
0.0
 11
-41.6282046157139
 21
-0.987979447841099
 31
0.0
  0
LINE
  5
   1E8
  8
0
  6
CONTINUOUS
 62
     1
 10
-40.368213289381
 20
-29.5129925549008
 30
0.0
 11
-40.368213289381
 21
-0.987979447841099
 31
0.0
  0
LINE
  5
   1E9
  8
0
  6
CONTINUOUS
 62
     1
 10
-39.1082006007455
 20
-29.5129925549008
 30
0.0
 11
-39.1082006007455
 21
-0.987979447841099
 31
0.0
  0
LINE
  5
   1EA
  8
0
  6
CONTINUOUS
 62
     1
 10
-37.8482092744125
 20
-29.5129925549008
 30
0.0
 11
-37.8482092744125
 21
-0.987979447841099
 31
0.0
  0
LINE
  5
   1EB
  8
0
  6
CONTINUOUS
 62
     1
 10
-36.5882179480795
 20
-11.5755059366614
 30
0.0
 11
-36.5882179480795
 21
-0.987979447841099
 31
0.0
  0
LINE
  5
   1EC
  8
0
  6
CONTINUOUS
 62
     1
 10
-35.3282052594441
 20
-11.5754975587112
 30
0.0
 11
-35.3282052594441
 21
-0.987979447841099
 31
0.0
  0
LINE
  5
   1ED
  8
0
  6
CONTINUOUS
 62
     1
 10
-46.6682126456508
 20
-66.2629620969301
 30
0.0
 11
-46.6682126456508
 21
-29.5129925549008
 31
0.0
  0
LINE
  5
   1EE
  8
0
  6
CONTINUOUS
 62
     1
 10
-45.4081999570153
 20
-66.2629620969301
 30
0.0
 11
-45.4081999570153
 21
-29.5129925549008
 31
0.0
  0
LINE
  5
   1EF
  8
0
  6
CONTINUOUS
 62
     1
 10
-44.1482086306824
 20
-66.2629620969301
 30
0.0
 11
-44.1482086306824
 21
-29.5129925549008
 31
0.0
  0
LINE
  5
   1F0
  8
0
  6
CONTINUOUS
 62
     1
 10
-42.8882173043494
 20
-66.2629620969301
 30
0.0
 11
-42.8882173043494
 21
-29.5129925549008
 31
0.0
  0
LINE
  5
   1F1
  8
0
  6
CONTINUOUS
 62
     1
 10
-41.6282046157139
 20
-66.2629620969301
 30
0.0
 11
-41.6282046157139
 21
-29.5129925549008
 31
0.0
  0
LINE
  5
   1F2
  8
0
  6
CONTINUOUS
 62
     1
 10
-40.368213289381
 20
-66.2629620969301
 30
0.0
 11
-40.368213289381
 21
-29.5129925549008
 31
0.0
  0
LINE
  5
   1F3
  8
0
  6
CONTINUOUS
 62
     1
 10
-39.1082006007455
 20
-66.2629620969301
 30
0.0
 11
-39.1082006007455
 21
-29.5129925549008
 31
0.0
  0
LINE
  5
   1F4
  8
0
  6
CONTINUOUS
 62
     1
 10
-37.8482092744125
 20
-66.2629620969301
 30
0.0
 11
-37.8482092744125
 21
-29.5129925549008
 31
0.0
  0
LINE
  5
   1F5
  8
0
  6
CONTINUOUS
 62
     2
 10
-46.6682126456508
 20
-114.037957735657
 30
0.0
 11
-46.6682126456508
 21
-89.0129602926967
 31
0.0
  0
LINE
  5
   1F6
  8
0
  6
CONTINUOUS
 62
     2
 10
-45.4081999570153
 20
-114.037957735657
 30
0.0
 11
-45.4081999570153
 21
-89.0129602926967
 31
0.0
  0
LINE
  5
   1F7
  8
0
  6
CONTINUOUS
 62
     2
 10
-44.1482086306824
 20
-114.037957735657
 30
0.0
 11
-44.1482086306824
 21
-89.0129602926967
 31
0.0
  0
LINE
  5
   1F8
  8
0
  6
CONTINUOUS
 62
     2
 10
-42.8882173043494
 20
-114.037957735657
 30
0.0
 11
-42.8882173043494
 21
-89.0129602926967
 31
0.0
  0
LINE
  5
   1F9
  8
0
  6
CONTINUOUS
 62
     2
 10
-41.6282046157139
 20
-114.037957735657
 30
0.0
 11
-41.6282046157139
 21
-89.0129602926967
 31
0.0
  0
LINE
  5
   1FA
  8
0
  6
CONTINUOUS
 62
     2
 10
-40.368213289381
 20
-114.037957735657
 30
0.0
 11
-40.368213289381
 21
-89.0129602926967
 31
0.0
  0
LINE
  5
   1FB
  8
0
  6
CONTINUOUS
 62
     2
 10
-39.1082006007455
 20
-114.037957735657
 30
0.0
 11
-39.1082006007455
 21
-89.0129602926967
 31
0.0
  0
LINE
  5
   1FC
  8
0
  6
CONTINUOUS
 62
     2
 10
-37.8482092744125
 20
-114.037957735657
 30
0.0
 11
-37.8482092744125
 21
-89.0129602926967
 31
0.0
  0
LINE
  5
   1FD
  8
0
  6
CONTINUOUS
 62
     2
 10
-36.5882179480795
 20
-114.037957735657
 30
0.0
 11
-36.5882179480795
 21
-89.0129602926967
 31
0.0
  0
LINE
  5
   1FE
  8
0
  6
CONTINUOUS
 62
     2
 10
-35.3282052594441
 20
-88.4879624962809
 30
0.0
 11
-35.3282052594441
 21
-74.8379638910296
 31
0.0
  0
LINE
  5
   1FF
  8
0
  6
CONTINUOUS
 62
     1
 10
25.326762908102
 20
-29.5129925549008
 30
0.0
 11
25.326762908102
 21
-0.987979447841099
 31
0.0
  0
LINE
  5
   200
  8
0
  6
CONTINUOUS
 62
     1
 10
24.0667502194665
 20
-29.5129925549008
 30
0.0
 11
24.0667502194665
 21
-0.987979447841099
 31
0.0
  0
LINE
  5
   201
  8
0
  6
CONTINUOUS
 62
     1
 10
22.8067588931335
 20
-29.5129925549008
 30
0.0
 11
22.8067588931335
 21
-0.987979447841099
 31
0.0
  0
LINE
  5
   202
  8
0
  6
CONTINUOUS
 62
     1
 10
21.5467675668006
 20
-29.5129925549008
 30
0.0
 11
21.5467675668006
 21
-0.987979447841099
 31
0.0
  0
LINE
  5
   203
  8
0
  6
CONTINUOUS
 62
     1
 10
20.2867548781651
 20
-29.5129925549008
 30
0.0
 11
20.2867548781651
 21
-0.987979447841099
 31
0.0
  0
LINE
  5
   204
  8
0
  6
CONTINUOUS
 62
     1
 10
19.0267635518321
 20
-29.5129925549008
 30
0.0
 11
19.0267635518321
 21
-0.987979447841099
 31
0.0
  0
LINE
  5
   205
  8
0
  6
CONTINUOUS
 62
     1
 10
17.7667508631966
 20
-29.5129925549008
 30
0.0
 11
17.7667508631966
 21
-0.987979447841099
 31
0.0
  0
LINE
  5
   206
  8
0
  6
CONTINUOUS
 62
     1
 10
16.5067595368637
 20
-29.5129925549008
 30
0.0
 11
16.5067595368637
 21
-0.987979447841099
 31
0.0
  0
LINE
  5
   207
  8
0
  6
CONTINUOUS
 62
     1
 10
15.2467682105307
 20
-11.5754975587112
 30
0.0
 11
15.2467682105307
 21
-0.987979447841099
 31
0.0
  0
LINE
  5
   208
  8
0
  6
CONTINUOUS
 62
     1
 10
13.9867555218952
 20
-11.5754975587112
 30
0.0
 11
13.9867555218952
 21
-0.987979447841099
 31
0.0
  0
LINE
  5
   209
  8
0
  6
CONTINUOUS
 62
     1
 10
25.326762908102
 20
-66.2629704415795
 30
0.0
 11
25.326762908102
 21
-29.5130008995503
 31
0.0
  0
LINE
  5
   20A
  8
0
  6
CONTINUOUS
 62
     1
 10
24.0667502194665
 20
-66.2629704415795
 30
0.0
 11
24.0667502194665
 21
-29.5130008995503
 31
0.0
  0
LINE
  5
   20B
  8
0
  6
CONTINUOUS
 62
     1
 10
22.8067588931335
 20
-66.2629704415795
 30
0.0
 11
22.8067588931335
 21
-29.5130008995503
 31
0.0
  0
LINE
  5
   20C
  8
0
  6
CONTINUOUS
 62
     1
 10
21.5467675668006
 20
-66.2629704415795
 30
0.0
 11
21.5467675668006
 21
-29.5130008995503
 31
0.0
  0
LINE
  5
   20D
  8
0
  6
CONTINUOUS
 62
     1
 10
20.2867548781651
 20
-66.2629704415795
 30
0.0
 11
20.2867548781651
 21
-29.5130008995503
 31
0.0
  0
LINE
  5
   20E
  8
0
  6
CONTINUOUS
 62
     1
 10
19.0267635518321
 20
-66.2629704415795
 30
0.0
 11
19.0267635518321
 21
-29.5130008995503
 31
0.0
  0
LINE
  5
   20F
  8
0
  6
CONTINUOUS
 62
     1
 10
17.7667508631966
 20
-66.2629704415795
 30
0.0
 11
17.7667508631966
 21
-29.5130008995503
 31
0.0
  0
LINE
  5
   210
  8
0
  6
CONTINUOUS
 62
     1
 10
16.5067595368637
 20
-66.2629704415795
 30
0.0
 11
16.5067595368637
 21
-29.5130008995503
 31
0.0
  0
LINE
  5
   211
  8
0
  6
CONTINUOUS
 62
     1
 10
13.9867555218952
 20
-66.2629704415795
 30
0.0
 11
13.9867555218952
 21
-29.5130008995503
 31
0.0
  0
LINE
  5
   212
  8
0
  6
CONTINUOUS
 62
     1
 10
25.326762908102
 20
-74.3129662811756
 30
0.0
 11
25.326762908102
 21
-66.2629724442954
 31
0.0
  0
LINE
  5
   213
  8
0
  6
CONTINUOUS
 62
     1
 10
24.0667502194665
 20
-74.3129662811756
 30
0.0
 11
24.0667502194665
 21
-66.2629724442954
 31
0.0
  0
LINE
  5
   214
  8
0
  6
CONTINUOUS
 62
     1
 10
22.8067588931335
 20
-74.3129662811756
 30
0.0
 11
22.8067588931335
 21
-66.2629724442954
 31
0.0
  0
LINE
  5
   215
  8
0
  6
CONTINUOUS
 62
     1
 10
21.5467675668006
 20
-74.3129662811756
 30
0.0
 11
21.5467675668006
 21
-66.2629724442954
 31
0.0
  0
LINE
  5
   216
  8
0
  6
CONTINUOUS
 62
     1
 10
20.2867548781651
 20
-74.3129662811756
 30
0.0
 11
20.2867548781651
 21
-66.2629724442954
 31
0.0
  0
LINE
  5
   217
  8
0
  6
CONTINUOUS
 62
     1
 10
19.0267635518321
 20
-74.3129662811756
 30
0.0
 11
19.0267635518321
 21
-66.2629724442954
 31
0.0
  0
LINE
  5
   218
  8
0
  6
CONTINUOUS
 62
     1
 10
17.7667508631966
 20
-74.3129662811756
 30
0.0
 11
17.7667508631966
 21
-66.2629724442954
 31
0.0
  0
LINE
  5
   219
  8
0
  6
CONTINUOUS
 62
     1
 10
16.5067595368637
 20
-74.3129662811756
 30
0.0
 11
16.5067595368637
 21
-66.2629724442954
 31
0.0
  0
LINE
  5
   21A
  8
0
  6
CONTINUOUS
 62
     1
 10
13.304264862616
 20
-11.5754975587112
 30
0.0
 11
13.3042613371304
 21
-2.73797504543293
 31
0.0
  0
LINE
  5
   21B
  8
0
  6
CONTINUOUS
 62
     1
 10
-34.6457142161591
 20
-11.5754975587112
 30
0.0
 11
-34.6457177416435
 21
-2.73797815202659
 31
0.0
  0
LINE
  5
   21C
  8
0
  6
CONTINUOUS
 62
     1
 10
13.3042620003234
 20
-2.73797392845154
 30
0.0
 11
-34.6457170784479
 21
-2.73797392845154
 31
0.0
  0
LINE
  5
   21D
  8
0
  6
CONTINUOUS
 62
     1
 10
25.6417500585339
 20
-74.662963908911
 30
0.0
 11
25.6417500585339
 21
-74.3129662811756
 31
0.0
  0
LINE
  5
   21E
  8
0
  6
CONTINUOUS
 62
     1
 10
-46.9831997960828
 20
-74.662963908911
 30
0.0
 11
-46.9831997960828
 21
-74.3129662811756
 31
0.0
  0
LINE
  5
   21F
  8
0
  6
CONTINUOUS
 62
     1
 10
-10.1281261765114
 20
-114.037957735657
 30
0.0
 11
-10.1281417559922
 21
-89.0129602926967
 31
0.0
  0
LINE
  5
   220
  8
0
  6
CONTINUOUS
 62
     1
 10
-8.8681280084558
 20
-114.037957735657
 30
0.0
 11
-8.86814329398422
 21
-89.0129602926967
 31
0.0
  0
LINE
  5
   221
  8
0
  6
CONTINUOUS
 62
     1
 10
-7.43312651864151
 20
-114.037957735657
 30
0.0
 11
-7.43314209812235
 21
-89.0129602926967
 31
0.0
  0
LINE
  5
   222
  8
0
  6
CONTINUOUS
 62
     1
 10
-6.17312684765889
 20
-114.037957735657
 30
0.0
 11
-6.17314242713973
 21
-89.0129602926967
 31
0.0
  0
LINE
  5
   223
  8
0
  6
CONTINUOUS
 62
     1
 10
-4.91314370353298
 20
-114.037957735657
 30
0.0
 11
-4.91315781325174
 21
-89.0129602926967
 31
0.0
  0
LINE
  5
   224
  8
0
  6
CONTINUOUS
 62
     1
 10
-3.65314169604856
 20
-114.037957735657
 30
0.0
 11
-3.65315580576732
 21
-89.0129602926967
 31
0.0
  0
LINE
  5
   225
  8
0
  6
CONTINUOUS
 62
     1
 10
-2.39312098230628
 20
-114.037957735657
 30
0.0
 11
-2.39313979526368
 21
-89.0129602926967
 31
0.0
  0
LINE
  5
   226
  8
0
  6
CONTINUOUS
 62
     1
 10
-1.13314302165535
 20
-114.037957735657
 30
0.0
 11
-1.13315713137411
 21
-89.0129602926967
 31
0.0
  0
LINE
  5
   227
  8
0
  6
CONTINUOUS
 62
     1
 10
0.126797526476366
 20
-114.037957735657
 30
0.0
 11
0.126797526476366
 21
-98.8990191354621
 31
0.0
  0
LINE
  5
   228
  8
0
  6
CONTINUOUS
 62
     1
 10
1.38678885280933
 20
-114.037957735657
 30
0.0
 11
1.38678885280933
 21
-99.852066093778
 31
0.0
  0
LINE
  5
   229
  8
0
  6
CONTINUOUS
 62
     1
 10
2.64679086029355
 20
-114.037957735657
 30
0.0
 11
2.64679086029355
 21
-99.4473331099683
 31
0.0
  0
LINE
  5
   22A
  8
0
  6
CONTINUOUS
 62
     1
 10
3.90687303338971
 20
-114.037957735657
 30
0.0
 11
3.90685422043231
 21
-89.0129602926967
 31
0.0
  0
LINE
  5
   22B
  8
0
  6
CONTINUOUS
 62
     1
 10
5.16687504087428
 20
-114.037957735657
 30
0.0
 11
5.16685622791688
 21
-89.0129602926967
 31
0.0
  0
LINE
  5
   22C
  8
0
  6
CONTINUOUS
 62
     1
 10
6.42687704835885
 20
-114.037957735657
 30
0.0
 11
6.42685823540145
 21
-89.0129602926967
 31
0.0
  0
LINE
  5
   22D
  8
0
  6
CONTINUOUS
 62
     1
 10
7.68682562159656
 20
-114.037957735657
 30
0.0
 11
7.68681621511786
 21
-89.0129602926967
 31
0.0
  0
LINE
  5
   22E
  8
0
  6
CONTINUOUS
 62
     1
 10
8.94687038217675
 20
-114.037957735657
 30
0.0
 11
8.94685156921935
 21
-89.0129602926967
 31
0.0
  0
LINE
  5
   22F
  8
0
  6
CONTINUOUS
 62
     1
 10
10.2068723896613
 20
-114.037957735657
 30
0.0
 11
10.2068535767039
 21
-89.0129602926967
 31
0.0
  0
LINE
  5
   230
  8
0
  6
CONTINUOUS
 62
     1
 10
11.4668743971459
 20
-114.037957735657
 30
0.0
 11
11.4668555841885
 21
-89.0129602926967
 31
0.0
  0
LINE
  5
   231
  8
0
  6
CONTINUOUS
 62
     1
 10
12.7268657234792
 20
-114.037957735657
 30
0.0
 11
12.7268469105218
 21
-89.0129602926967
 31
0.0
  0
LINE
  5
   232
  8
0
  6
CONTINUOUS
 62
     1
 10
26.0792706624131
 20
-0.462979501485279
 30
0.0
 11
-10.6707248687744
 21
-0.462979501485279
 31
0.0
  0
LINE
  5
   233
  8
0
  6
CONTINUOUS
 62
     1
 10
25.9917500227712
 20
-0.462979501485279
 30
0.0
 11
25.9555302388744
 21
-0.462979501485279
 31
0.0
  0
LINE
  5
   234
  8
0
  6
CONTINUOUS
 62
     1
 10
-11.3883270470187
 20
-114.037957735657
 30
0.0
 11
-11.3883117614903
 21
-89.0129602926967
 31
0.0
  0
LINE
  5
   235
  8
0
  6
CONTINUOUS
 62
     1
 10
-12.6483323959235
 20
-114.037957735657
 30
0.0
 11
-12.6483159345854
 21
-89.0129602926967
 31
0.0
  0
LINE
  5
   236
  8
0
  6
CONTINUOUS
 62
     1
 10
-13.9083285594829
 20
-114.037957735657
 30
0.0
 11
-13.9083129800021
 21
-89.0129602926967
 31
0.0
  0
LINE
  5
   237
  8
0
  6
CONTINUOUS
 62
     1
 10
-15.1683282304656
 20
-114.037957735657
 30
0.0
 11
-15.1683126509847
 21
-89.0129602926967
 31
0.0
  0
LINE
  5
   238
  8
0
  6
CONTINUOUS
 62
     1
 10
-16.4283113745187
 20
-114.037957735657
 30
0.0
 11
-16.4282972648426
 21
-89.0129602926967
 31
0.0
  0
LINE
  5
   239
  8
0
  6
CONTINUOUS
 62
     1
 10
-17.6883133820031
 20
-114.037957735657
 30
0.0
 11
-17.688299272327
 21
-89.0129602926967
 31
0.0
  0
LINE
  5
   23A
  8
0
  6
CONTINUOUS
 62
     1
 10
-18.9483340957235
 20
-114.037957735657
 30
0.0
 11
-18.9483152828216
 21
-89.0129602926967
 31
0.0
  0
LINE
  5
   23B
  8
0
  6
CONTINUOUS
 62
     1
 10
-20.2083120563963
 20
-114.037957735657
 30
0.0
 11
-20.2082979467202
 21
-89.0129602926967
 31
0.0
  0
LINE
  5
   23C
  8
0
  6
CONTINUOUS
 62
     1
 10
-21.4682526046008
 20
-114.037957735657
 30
0.0
 11
-21.4682526046008
 21
-98.8990561466539
 31
0.0
  0
LINE
  5
   23D
  8
0
  6
CONTINUOUS
 62
     1
 10
-21.4682506524059
 20
12.8894041365207
 30
0.0
 11
-21.468229135991
 21
28.0618520260031
 31
0.0
  0
LINE
  5
   23E
  8
0
  6
CONTINUOUS
 62
     1
 10
-22.5532486463225
 20
13.8295296865575
 30
0.0
 11
-22.5532271197581
 21
28.0618520260032
 31
0.0
  0
LINE
  5
   23F
  8
0
  6
CONTINUOUS
 62
     1
 10
-22.7282385903582
 20
-114.037957735657
 30
0.0
 11
-22.7282385903582
 21
-99.8520236344766
 31
0.0
  0
LINE
  5
   240
  8
0
  6
CONTINUOUS
 62
     1
 10
-23.8132369931073
 20
13.6039346841856
 30
0.0
 11
-23.8132154691187
 21
28.0618520260031
 31
0.0
  0
LINE
  5
   241
  8
0
  6
CONTINUOUS
 62
     1
 10
-23.9882405978424
 20
-114.037957735657
 30
0.0
 11
-23.9882405978424
 21
-99.4470683316841
 31
0.0
  0
LINE
  5
   242
  8
0
  6
CONTINUOUS
 62
     1
 10
-25.2483227708536
 20
-114.037957735657
 30
0.0
 11
-25.248303957946
 21
-89.0129602926967
 31
0.0
  0
LINE
  5
   243
  8
0
  6
CONTINUOUS
 62
     1
 10
-26.5083247783382
 20
-114.037957735657
 30
0.0
 11
-26.5083059654305
 21
-89.0129602926967
 31
0.0
  0
LINE
  5
   244
  8
0
  6
CONTINUOUS
 62
     1
 10
-27.7683267858227
 20
-114.037957735657
 30
0.0
 11
-27.7683079729151
 21
-89.0129602926967
 31
0.0
  0
LINE
  5
   245
  8
0
  6
CONTINUOUS
 62
     1
 10
-29.0283287933073
 20
-114.037957735657
 30
0.0
 11
-29.0283099803997
 21
-89.0129602926967
 31
0.0
  0
LINE
  5
   246
  8
0
  6
CONTINUOUS
 62
     1
 10
-30.2883201196406
 20
-114.037957735657
 30
0.0
 11
-30.288301306733
 21
-89.0129602926967
 31
0.0
  0
LINE
  5
   247
  8
0
  6
CONTINUOUS
 62
     1
 10
-31.5483221271252
 20
-114.037957735657
 30
0.0
 11
-31.5483033142176
 21
-89.0129602926967
 31
0.0
  0
LINE
  5
   248
  8
0
  6
CONTINUOUS
 62
     1
 10
-32.8083241346171
 20
-114.037957735657
 30
0.0
 11
-32.8083053217052
 21
-89.0129602926967
 31
0.0
  0
LINE
  5
   249
  8
0
  6
CONTINUOUS
 62
     1
 10
-34.0683261421016
 20
-114.037957735657
 30
0.0
 11
-34.0683073291898
 21
-89.0129602926967
 31
0.0
  0
LINE
  5
   24A
  8
0
  6
CONTINUOUS
 62
     1
 10
-35.3282373028978
 20
-0.462958139182774
 30
0.0
 11
-35.3282373028978
 21
28.0618520260032
 31
0.0
  0
LINE
  5
   24B
  8
0
  6
CONTINUOUS
 62
     1
 10
-36.5882340320469
 20
-0.463033846447402
 30
0.0
 11
-36.5882233100445
 21
28.0618520260031
 31
0.0
  0
LINE
  5
   24C
  8
0
  6
CONTINUOUS
 62
     1
 10
-37.8482361017676
 20
-0.463023157256799
 30
0.0
 11
-37.8482146577708
 21
28.0618520260031
 31
0.0
  0
LINE
  5
   24D
  8
0
  6
CONTINUOUS
 62
     1
 10
-39.1082326441992
 20
-0.462958139182774
 30
0.0
 11
-39.1082326441992
 21
28.0618520260032
 31
0.0
  0
LINE
  5
   24E
  8
0
  6
CONTINUOUS
 62
     1
 10
-40.368229373348
 20
-0.46303242561369
 30
0.0
 11
-40.3682186513462
 21
28.0618520260032
 31
0.0
  0
LINE
  5
   24F
  8
0
  6
CONTINUOUS
 62
     1
 10
-41.6282366591677
 20
-0.462958139182774
 30
0.0
 11
-41.6282366591677
 21
28.0618520260032
 31
0.0
  0
LINE
  5
   250
  8
0
  6
CONTINUOUS
 62
     1
 10
-42.8882333883163
 20
-0.463031478388558
 30
0.0
 11
-42.8882226662862
 21
28.0619280224656
 31
0.0
  0
LINE
  5
   251
  8
0
  6
CONTINUOUS
 62
     1
 10
-44.1482247146492
 20
-0.463031004780007
 30
0.0
 11
-44.1482139926157
 21
28.0619374752132
 31
0.0
  0
LINE
  5
   252
  8
0
  6
CONTINUOUS
 62
     1
 10
-45.4082320004691
 20
-0.462958139182774
 30
0.0
 11
-45.4082320004691
 21
28.0619152811943
 31
0.0
  0
LINE
  5
   253
  8
0
  6
CONTINUOUS
 62
     1
 10
-46.6682287296053
 20
-0.463019376399515
 30
0.0
 11
-46.6682180076015
 21
28.0618617834349
 31
0.0
  0
LINE
  5
   254
  8
0
  6
CONTINUOUS
 62
     1
 10
-10.6707270278947
 20
-0.462979501464872
 30
0.0
 11
-47.4207203999657
 21
-0.462952708358358
 31
0.0
  0
LINE
  5
   255
  8
0
  6
CONTINUOUS
 62
   130
 10
26.079271376133
 20
1.28702031970079
 30
0.0
 11
26.079271376133
 21
27.5369375288574
 31
0.0
  0
LINE
  5
   256
  8
0
  6
CONTINUOUS
 62
   130
 10
25.8167522159104
 20
27.9915404370312
 30
0.0
 11
25.5538438321987
 21
28.0619745491079
 31
0.0
  0
LINE
  5
   257
  8
0
  6
CONTINUOUS
 62
   130
 10
26.0088822095754
 20
27.7993914877217
 30
0.0
 11
25.8167229600318
 21
27.9915667575703
 31
0.0
  0
LINE
  5
   258
  8
0
  6
CONTINUOUS
 62
   130
 10
26.0792862327539
 20
27.5368740693424
 30
0.0
 11
26.0089455173722
 21
27.7993740405955
 31
0.0
  0
LINE
  5
   259
  8
0
  6
CONTINUOUS
 62
   130
 10
-47.4207211136818
 20
1.28702031970079
 30
0.0
 11
-47.4207211136818
 21
27.5369375288574
 31
0.0
  0
LINE
  5
   25A
  8
0
  6
CONTINUOUS
 62
   130
 10
-47.1581984270326
 20
27.9915413817737
 30
0.0
 11
-46.8956984609175
 21
28.061866077291
 31
0.0
  0
LINE
  5
   25B
  8
0
  6
CONTINUOUS
 62
   130
 10
-47.3503319471242
 20
27.7993914877217
 30
0.0
 11
-47.1581726975806
 21
27.9915667575703
 31
0.0
  0
LINE
  5
   25C
  8
0
  6
CONTINUOUS
 62
   130
 10
-47.4207359703028
 20
27.5368740693424
 30
0.0
 11
-47.3503952549211
 21
27.7993740405955
 31
0.0
  0
LINE
  5
   25D
  8
0
  6
CONTINUOUS
 62
     1
 10
26.0792582831101
 20
-88.4879624962809
 30
0.0
 11
26.0792709085218
 21
1.28701515140433
 31
0.0
  0
LINE
  5
   25E
  8
0
  6
CONTINUOUS
 62
     1
 10
-47.4207080206589
 20
-88.4879624962809
 30
0.0
 11
-47.4207206460706
 21
1.28701515140433
 31
0.0
  0
CIRCLE
  5
   25F
  8
0
  6
CONTINUOUS
 62
     1
 10
-22.9206899063361
 20
12.3120173382721
 30
0.0
 40
1.57569269749607
  0
LINE
  5
   260
  8
0
  6
DASHDOT
 62
     7
 10
-22.9206899063361
 20
7.23632499840386
 30
0.0
 11
-22.9206899063361
 21
28.0618520260032
 31
0.0
  0
LINE
  5
   261
  8
0
  6
DASHDOT
 62
     7
 10
-17.8449975664679
 20
12.3120173382721
 30
0.0
 11
-27.9963822462043
 21
12.3120173382721
 31
0.0
  0
LINE
  5
   262
  8
0
  6
CONTINUOUS
 62
     1
 10
26.0792546899128
 20
-114.037957735657
 30
0.0
 11
-47.4207044274616
 21
-114.037957735657
 31
0.0
  0
LINE
  5
   263
  8
0
  6
CONTINUOUS
 62
     1
 10
26.0792582092776
 20
-89.0129602926967
 30
0.0
 11
-47.4207079468264
 21
-89.0129602926967
 31
0.0
  0
LINE
  5
   264
  8
0
  6
CONTINUOUS
 62
     1
 10
25.7292582942622
 20
-88.6629603284595
 30
0.0
 11
-47.070708031811
 21
-88.6629603284595
 31
0.0
  0
LINE
  5
   265
  8
0
  6
CONTINUOUS
 62
     1
 10
26.0792582831101
 20
-88.4879624962809
 30
0.0
 11
-47.4207080206589
 21
-88.4879624962809
 31
0.0
  0
LINE
  5
   266
  8
0
  6
CONTINUOUS
 62
     1
 10
26.0792602027636
 20
-74.8379638910296
 30
0.0
 11
15.9292750835416
 21
-74.8379638910296
 31
0.0
  0
LINE
  5
   267
  8
0
  6
CONTINUOUS
 62
     1
 10
26.0792546899128
 20
-114.037957735657
 30
0.0
 11
26.0792582092775
 21
-89.0129602926967
 31
0.0
  0
LINE
  5
   268
  8
0
  6
CONTINUOUS
 62
     1
 10
-47.4207044274616
 20
-114.037957735657
 30
0.0
 11
-47.4207079468264
 21
-89.0129602926967
 31
0.0
  0
LINE
  5
   269
  8
0
  6
CONTINUOUS
 62
     1
 10
-47.0707079825892
 20
-89.0129602926967
 30
0.0
 11
-47.0707080318111
 21
-88.6629603284595
 31
0.0
  0
LINE
  5
   26A
  8
0
  6
CONTINUOUS
 62
     1
 10
25.7292582450403
 20
-89.0129602926967
 30
0.0
 11
25.7292582942622
 21
-88.6629603284595
 31
0.0
  0
LINE
  5
   26B
  8
0
  6
CONTINUOUS
 62
     1
 10
13.8292726278305
 20
-88.4879624962809
 30
0.0
 11
13.8292726278305
 21
-80.1754932194906
 31
0.0
  0
LINE
  5
   26C
  8
0
  6
CONTINUOUS
 62
     2
 10
-46.6682126456508
 20
-88.4879624962809
 30
0.0
 11
-46.6682126456508
 21
-74.8379638910296
 31
0.0
  0
LINE
  5
   26D
  8
0
  6
CONTINUOUS
 62
     2
 10
-45.4081999570153
 20
-88.4879624962809
 30
0.0
 11
-45.4081999570153
 21
-74.8379638910296
 31
0.0
  0
LINE
  5
   26E
  8
0
  6
CONTINUOUS
 62
     2
 10
-44.1482086306824
 20
-88.4879624962809
 30
0.0
 11
-44.1482086306824
 21
-74.8379638910296
 31
0.0
  0
LINE
  5
   26F
  8
0
  6
CONTINUOUS
 62
     2
 10
-42.8882173043494
 20
-88.4879624962809
 30
0.0
 11
-42.8882173043494
 21
-74.8379638910296
 31
0.0
  0
LINE
  5
   270
  8
0
  6
CONTINUOUS
 62
     2
 10
-41.6282046157139
 20
-88.4879624962809
 30
0.0
 11
-41.6282046157139
 21
-74.8379638910296
 31
0.0
  0
LINE
  5
   271
  8
0
  6
CONTINUOUS
 62
     2
 10
-40.368213289381
 20
-88.4879624962809
 30
0.0
 11
-40.368213289381
 21
-74.8379638910296
 31
0.0
  0
LINE
  5
   272
  8
0
  6
CONTINUOUS
 62
     2
 10
-39.1082006007455
 20
-88.4879624962809
 30
0.0
 11
-39.1082006007455
 21
-74.8379638910296
 31
0.0
  0
LINE
  5
   273
  8
0
  6
CONTINUOUS
 62
     2
 10
-37.8482092744125
 20
-88.4879624962809
 30
0.0
 11
-37.8482092744125
 21
-74.8379638910296
 31
0.0
  0
LINE
  5
   274
  8
0
  6
CONTINUOUS
 62
     2
 10
-36.5882179480795
 20
-88.4879624962809
 30
0.0
 11
-36.5882179480795
 21
-80.1754932194906
 31
0.0
  0
LINE
  5
   275
  8
0
  6
CONTINUOUS
 62
     1
 10
-46.6682126456508
 20
-74.3129662811756
 30
0.0
 11
-46.6682126456508
 21
-66.2629724442954
 31
0.0
  0
LINE
  5
   276
  8
0
  6
CONTINUOUS
 62
     1
 10
-45.4081999570153
 20
-74.3129662811756
 30
0.0
 11
-45.4081999570153
 21
-66.2629724442954
 31
0.0
  0
LINE
  5
   277
  8
0
  6
CONTINUOUS
 62
     1
 10
-44.1482086306824
 20
-74.3129662811756
 30
0.0
 11
-44.1482086306824
 21
-66.2629724442954
 31
0.0
  0
LINE
  5
   278
  8
0
  6
CONTINUOUS
 62
     1
 10
-42.8882173043494
 20
-74.3129662811756
 30
0.0
 11
-42.8882173043494
 21
-66.2629724442954
 31
0.0
  0
LINE
  5
   279
  8
0
  6
CONTINUOUS
 62
     1
 10
-41.6282046157139
 20
-74.3129662811756
 30
0.0
 11
-41.6282046157139
 21
-66.2629724442954
 31
0.0
  0
LINE
  5
   27A
  8
0
  6
CONTINUOUS
 62
     1
 10
-40.368213289381
 20
-74.3129662811756
 30
0.0
 11
-40.368213289381
 21
-66.2629724442954
 31
0.0
  0
LINE
  5
   27B
  8
0
  6
CONTINUOUS
 62
     1
 10
-39.1082006007455
 20
-74.3129662811756
 30
0.0
 11
-39.1082006007455
 21
-66.2629724442954
 31
0.0
  0
LINE
  5
   27C
  8
0
  6
CONTINUOUS
 62
     1
 10
-37.8482092744125
 20
-74.3129662811756
 30
0.0
 11
-37.8482092744125
 21
-66.2629724442954
 31
0.0
  0
LINE
  5
   27D
  8
0
  6
CONTINUOUS
 62
     2
 10
-35.3282180768256
 20
-114.037957735657
 30
0.0
 11
-35.3282180768256
 21
-89.0129602926967
 31
0.0
  0
LINE
  5
   27E
  8
0
  6
CONTINUOUS
 62
     1
 10
25.326762908102
 20
-88.4879624962809
 30
0.0
 11
25.326762908102
 21
-74.8379638910296
 31
0.0
  0
LINE
  5
   27F
  8
0
  6
CONTINUOUS
 62
     1
 10
24.0667502194665
 20
-88.4879624962809
 30
0.0
 11
24.0667502194665
 21
-74.8379638910296
 31
0.0
  0
LINE
  5
   280
  8
0
  6
CONTINUOUS
 62
     1
 10
22.8067588931335
 20
-88.4879624962809
 30
0.0
 11
22.8067588931335
 21
-74.8379638910296
 31
0.0
  0
LINE
  5
   281
  8
0
  6
CONTINUOUS
 62
     1
 10
21.5467675668006
 20
-88.4879624962809
 30
0.0
 11
21.5467675668006
 21
-74.8379638910296
 31
0.0
  0
LINE
  5
   282
  8
0
  6
CONTINUOUS
 62
     1
 10
20.2867548781651
 20
-88.4879624962809
 30
0.0
 11
20.2867548781651
 21
-74.8379638910296
 31
0.0
  0
LINE
  5
   283
  8
0
  6
CONTINUOUS
 62
     1
 10
19.0267635518321
 20
-88.4879624962809
 30
0.0
 11
19.0267635518321
 21
-74.8379638910296
 31
0.0
  0
LINE
  5
   284
  8
0
  6
CONTINUOUS
 62
     1
 10
17.7667508631966
 20
-88.4879624962809
 30
0.0
 11
17.7667508631966
 21
-74.8379638910296
 31
0.0
  0
LINE
  5
   285
  8
0
  6
CONTINUOUS
 62
     1
 10
16.5067595368637
 20
-88.4879624962809
 30
0.0
 11
16.5067595368637
 21
-74.8379638910296
 31
0.0
  0
LINE
  5
   286
  8
0
  6
CONTINUOUS
 62
     1
 10
15.2467682105307
 20
-88.4879624962809
 30
0.0
 11
15.2467682105307
 21
-80.1754932194906
 31
0.0
  0
LINE
  5
   287
  8
0
  6
CONTINUOUS
 62
     1
 10
13.9867555218952
 20
-88.4879624962809
 30
0.0
 11
13.9867555218952
 21
-80.1754932194906
 31
0.0
  0
LINE
  5
   288
  8
0
  6
CONTINUOUS
 62
     1
 10
25.326762908102
 20
-114.037957735657
 30
0.0
 11
25.326762908102
 21
-89.0129602926967
 31
0.0
  0
LINE
  5
   289
  8
0
  6
CONTINUOUS
 62
     1
 10
24.0667502194665
 20
-114.037957735657
 30
0.0
 11
24.0667502194665
 21
-89.0129602926967
 31
0.0
  0
LINE
  5
   28A
  8
0
  6
CONTINUOUS
 62
     1
 10
22.8067588931335
 20
-114.037957735657
 30
0.0
 11
22.8067588931335
 21
-89.0129602926967
 31
0.0
  0
LINE
  5
   28B
  8
0
  6
CONTINUOUS
 62
     1
 10
21.5467675668006
 20
-114.037957735657
 30
0.0
 11
21.5467675668006
 21
-89.0129602926967
 31
0.0
  0
LINE
  5
   28C
  8
0
  6
CONTINUOUS
 62
     1
 10
20.2867548781651
 20
-114.037957735657
 30
0.0
 11
20.2867548781651
 21
-89.0129602926967
 31
0.0
  0
LINE
  5
   28D
  8
0
  6
CONTINUOUS
 62
     1
 10
19.0267635518321
 20
-114.037957735657
 30
0.0
 11
19.0267635518321
 21
-89.0129602926967
 31
0.0
  0
LINE
  5
   28E
  8
0
  6
CONTINUOUS
 62
     1
 10
17.7667508631966
 20
-114.037957735657
 30
0.0
 11
17.7667508631966
 21
-89.0129602926967
 31
0.0
  0
LINE
  5
   28F
  8
0
  6
CONTINUOUS
 62
     1
 10
16.5067595368637
 20
-114.037957735657
 30
0.0
 11
16.5067595368637
 21
-89.0129602926967
 31
0.0
  0
LINE
  5
   290
  8
0
  6
CONTINUOUS
 62
     1
 10
15.2467682105307
 20
-114.037957735657
 30
0.0
 11
15.2467682105307
 21
-89.0129602926967
 31
0.0
  0
LINE
  5
   291
  8
0
  6
CONTINUOUS
 62
     1
 10
13.9867683392767
 20
-114.037957735657
 30
0.0
 11
13.9867683392767
 21
-89.0129602926967
 31
0.0
  0
CIRCLE
  5
   292
  8
0
  6
CONTINUOUS
 62
     1
 10
-22.9206899063361
 20
-98.2881278681542
 30
0.0
 40
1.57569269749607
  0
CIRCLE
  5
   293
  8
0
  6
CONTINUOUS
 62
     1
 10
1.57939336585571
 20
-98.2880105911197
 30
0.0
 40
1.57586995460973
  0
LINE
  5
   294
  8
0
  6
DASHDOT
 62
     1
 10
1.57939336585571
 20
-103.363880188102
 30
0.0
 11
1.57939336585571
 21
-89.0129602926967
 31
0.0
  0
LINE
  5
   295
  8
0
  6
DASHDOT
 62
     1
 10
6.65526296283757
 20
-98.2880105911197
 30
0.0
 11
-3.49647623112614
 21
-98.2880105911197
 31
0.0
  0
LINE
  5
   296
  8
0
  6
DASHDOT
 62
     1
 10
-22.9206899063361
 20
-103.363820208022
 30
0.0
 11
-22.9206899063361
 21
-89.0129602926967
 31
0.0
  0
LINE
  5
   297
  8
0
  6
DASHDOT
 62
     1
 10
-17.8449975664679
 20
-98.2881278681542
 30
0.0
 11
-27.9963822462043
 21
-98.2881278681542
 31
0.0
  0
LINE
  5
   298
  8
0
  6
CONTINUOUS
 62
     1
 10
-10.1281968833796
 20
-0.462979501485293
 30
0.0
 11
-10.1282146417058
 21
28.0618520260031
 31
0.0
  0
LINE
  5
   299
  8
0
  6
CONTINUOUS
 62
     1
 10
-8.86819738123243
 20
-0.462979501485293
 30
0.0
 11
-8.86821480449587
 21
28.0618520260031
 31
0.0
  0
LINE
  5
   29A
  8
0
  6
CONTINUOUS
 62
     1
 10
-7.43319722550975
 20
-0.462979501485293
 30
0.0
 11
-7.43321498383589
 21
28.0618520260031
 31
0.0
  0
LINE
  5
   29B
  8
0
  6
CONTINUOUS
 62
     1
 10
-6.17319755452713
 20
-0.462979501485293
 30
0.0
 11
-6.17321531285326
 21
28.0618520260031
 31
0.0
  0
LINE
  5
   29C
  8
0
  6
CONTINUOUS
 62
     1
 10
-4.91320773994317
 20
-0.462979501485293
 30
0.0
 11
-4.91322382295582
 21
28.0618520260031
 31
0.0
  0
LINE
  5
   29D
  8
0
  6
CONTINUOUS
 62
     1
 10
-3.65320573245875
 20
-0.462979501485293
 30
0.0
 11
-3.6532218154714
 21
28.0618520260031
 31
0.0
  0
LINE
  5
   29E
  8
0
  6
CONTINUOUS
 62
     1
 10
-2.39320636418223
 20
-0.462979501485293
 30
0.0
 11
-2.39322780819803
 21
28.0618520260031
 31
0.0
  0
LINE
  5
   29F
  8
0
  6
CONTINUOUS
 62
     1
 10
-1.13320705806554
 20
-0.462979501485293
 30
0.0
 11
-1.13322314107819
 21
28.0618520260031
 31
0.0
  0
LINE
  5
   2A0
  8
0
  6
CONTINUOUS
 62
     1
 10
-11.3882576742421
 20
-0.462979501485279
 30
0.0
 11
-11.3882402509786
 21
28.0618520260032
 31
0.0
  0
LINE
  5
   2A1
  8
0
  6
CONTINUOUS
 62
     1
 10
-12.6482576867804
 20
-0.462979501485279
 30
0.0
 11
-12.6482389232662
 21
28.0618520260031
 31
0.0
  0
LINE
  5
   2A2
  8
0
  6
CONTINUOUS
 62
     1
 10
-13.9082578526147
 20
-0.462979501485293
 30
0.0
 11
-13.9082400942886
 21
28.0618520260031
 31
0.0
  0
LINE
  5
   2A3
  8
0
  6
CONTINUOUS
 62
     1
 10
-15.1682575235973
 20
-0.462979501485293
 30
0.0
 11
-15.1682397652712
 21
28.0618520260031
 31
0.0
  0
LINE
  5
   2A4
  8
0
  6
CONTINUOUS
 62
     1
 10
-16.4282473383022
 20
-0.462979501485293
 30
0.0
 11
-16.4282312553381
 21
28.0618520260031
 31
0.0
  0
LINE
  5
   2A5
  8
0
  6
CONTINUOUS
 62
     1
 10
-17.6882493457866
 20
-0.462979501485293
 30
0.0
 11
-17.6882332628226
 21
28.0618520260031
 31
0.0
  0
LINE
  5
   2A6
  8
0
  6
CONTINUOUS
 62
     1
 10
-18.9482487140993
 20
-0.462979501485293
 30
0.0
 11
-18.9482272701468
 21
28.0618520260031
 31
0.0
  0
LINE
  5
   2A7
  8
0
  6
CONTINUOUS
 62
     1
 10
-20.2082480201798
 20
-0.462979501485293
 30
0.0
 11
-20.2082319372158
 21
28.0618520260031
 31
0.0
  0
LINE
  5
   2A8
  8
0
  6
CONTINUOUS
 62
     1
 10
-21.4682526046008
 20
-0.462979501485279
 30
0.0
 11
-21.4682526046008
 21
11.734590815895
 31
0.0
  0
LINE
  5
   2A9
  8
0
  6
CONTINUOUS
 62
     1
 10
-22.7282385903582
 20
-0.462979501485279
 30
0.0
 11
-22.7282385903582
 21
10.766814425524
 31
0.0
  0
LINE
  5
   2AA
  8
0
  6
CONTINUOUS
 62
     1
 10
-23.9882405978424
 20
-0.462979501485279
 30
0.0
 11
-23.9882405978424
 21
11.1786262120586
 31
0.0
  0
LINE
  5
   2AB
  8
0
  6
CONTINUOUS
 62
     1
 10
-25.2482373892036
 20
-0.462979501485293
 30
0.0
 11
-25.2482159452446
 21
28.0618520260031
 31
0.0
  0
LINE
  5
   2AC
  8
0
  6
CONTINUOUS
 62
     1
 10
-26.5082393966882
 20
-0.462979501485293
 30
0.0
 11
-26.5082179527291
 21
28.0618520260031
 31
0.0
  0
LINE
  5
   2AD
  8
0
  6
CONTINUOUS
 62
     1
 10
-27.7682414041727
 20
-0.462979501485293
 30
0.0
 11
-27.7682199602137
 21
28.0618520260031
 31
0.0
  0
LINE
  5
   2AE
  8
0
  6
CONTINUOUS
 62
     1
 10
-29.0282434116573
 20
-0.462979501485293
 30
0.0
 11
-29.0282219676983
 21
28.0618520260031
 31
0.0
  0
LINE
  5
   2AF
  8
0
  6
CONTINUOUS
 62
     1
 10
-30.2882347379906
 20
-0.462979501485293
 30
0.0
 11
-30.2882132940316
 21
28.0618520260031
 31
0.0
  0
LINE
  5
   2B0
  8
0
  6
CONTINUOUS
 62
     1
 10
-31.5482367454752
 20
-0.462979501485293
 30
0.0
 11
-31.5482153015162
 21
28.0618520260031
 31
0.0
  0
LINE
  5
   2B1
  8
0
  6
CONTINUOUS
 62
     1
 10
-32.8082387529477
 20
-0.462979501485293
 30
0.0
 11
-32.8082173089838
 21
28.0618520260031
 31
0.0
  0
LINE
  5
   2B2
  8
0
  6
CONTINUOUS
 62
     1
 10
-34.0682407604323
 20
-0.462979501485293
 30
0.0
 11
-34.0682193164684
 21
28.0618520260031
 31
0.0
  0
LINE
  5
   2B3
  8
0
  6
CONTINUOUS
 62
     1
 10
1.38678885280933
 20
-96.7239550884613
 30
0.0
 11
1.38678885280933
 21
-89.0129602926967
 31
0.0
  0
LINE
  5
   2B4
  8
0
  6
CONTINUOUS
 62
     1
 10
2.64679086029355
 20
-97.128688072271
 30
0.0
 11
2.64679086029355
 21
-89.0129602926967
 31
0.0
  0
LINE
  5
   2B5
  8
0
  6
CONTINUOUS
 62
     1
 10
0.126797526476366
 20
-97.6770020467772
 30
0.0
 11
0.126797526476366
 21
-89.0129602926967
 31
0.0
  0
LINE
  5
   2B6
  8
0
  6
CONTINUOUS
 62
     1
 10
-21.4682526046008
 20
-97.6771995896546
 30
0.0
 11
-21.4682526046008
 21
-89.0129602926967
 31
0.0
  0
LINE
  5
   2B7
  8
0
  6
CONTINUOUS
 62
     1
 10
-22.7282385903582
 20
-96.7242321018319
 30
0.0
 11
-22.7282385903582
 21
-89.0129602926967
 31
0.0
  0
LINE
  5
   2B8
  8
0
  6
CONTINUOUS
 62
     1
 10
-23.9882405978424
 20
-97.1291874046243
 30
0.0
 11
-23.9882405978424
 21
-89.0129602926967
 31
0.0
  0
LINE
  5
   2B9
  8
0
  6
DASHDOT
 62
     7
 10
-10.6707248687744
 20
-130.424670290328
 30
0.0
 11
-10.6707248687744
 21
36.6639126805291
 31
0.0
  0
LINE
  5
   2BA
  8
0
  6
DASHDOT
 62
     7
 10
13.8292726278305
 20
-10.2631405076208
 30
0.0
 11
13.8292726278305
 21
34.524680148015
 31
0.0
  0
LINE
  5
   2BB
  8
0
  6
CONTINUOUS
 62
   130
 10
21.7042718231678
 20
3.38693999648967
 30
0.0
 11
21.7042718231678
 21
3.56193997860828
 31
0.0
  0
LINE
  5
   2BC
  8
0
  6
DASHDOT
 62
     7
 10
-35.1707223653793
 20
-10.2631405076208
 30
0.0
 11
-35.1707223653793
 21
34.524680148015
 31
0.0
  0
LINE
  5
   2BD
  8
0
  6
CONTINUOUS
 62
   130
 10
-46.8956984609175
 20
28.061866077291
 30
0.0
 11
25.5538438321987
 21
28.0619745491079
 31
0.0
  0
LINE
  5
   2BE
  8
0
  6
CONTINUOUS
 62
     1
 10
0.126792813188224
 20
-0.462978791065893
 30
0.0
 11
0.126776730128345
 21
28.061936479576
 31
0.0
  0
LINE
  5
   2BF
  8
0
  6
CONTINUOUS
 62
     1
 10
1.38679268444199
 20
-0.462978080646494
 30
0.0
 11
1.38677660138137
 21
28.0619383660541
 31
0.0
  0
LINE
  5
   2C0
  8
0
  6
CONTINUOUS
 62
     1
 10
2.64679255569575
 20
-0.46297737022708
 30
0.0
 11
2.6467764726344
 21
28.0619402525322
 31
0.0
  0
LINE
  5
   2C1
  8
0
  6
CONTINUOUS
 62
     1
 10
3.90679242694951
 20
-0.462976659807666
 30
0.0
 11
3.90677634388743
 21
28.0619421390103
 31
0.0
  0
LINE
  5
   2C2
  8
0
  6
CONTINUOUS
 62
     1
 10
5.16679229820328
 20
-0.462975949388252
 30
0.0
 11
5.16677621514046
 21
28.0619440254884
 31
0.0
  0
LINE
  5
   2C3
  8
0
  6
CONTINUOUS
 62
     1
 10
6.42679216945704
 20
-0.462975238968838
 30
0.0
 11
6.42677608639354
 21
28.0619459119665
 31
0.0
  0
LINE
  5
   2C4
  8
0
  6
CONTINUOUS
 62
     1
 10
7.68679204071081
 20
-0.462974528549424
 30
0.0
 11
7.68677595764655
 21
28.0619477984446
 31
0.0
  0
LINE
  5
   2C5
  8
0
  6
CONTINUOUS
 62
     1
 10
8.94679191196457
 20
-0.46297381813001
 30
0.0
 11
8.94677582889956
 21
28.0619496849227
 31
0.0
  0
LINE
  5
   2C6
  8
0
  6
CONTINUOUS
 62
     1
 10
10.2067917832183
 20
-0.462973107710596
 30
0.0
 11
10.2067757001526
 21
28.0619515714008
 31
0.0
  0
LINE
  5
   2C7
  8
0
  6
CONTINUOUS
 62
     1
 10
11.4667916544721
 20
-0.462972397291168
 30
0.0
 11
11.4667755714056
 21
28.0619534578789
 31
0.0
  0
LINE
  5
   2C8
  8
0
  6
CONTINUOUS
 62
     1
 10
12.7267915257259
 20
-0.462971686871725
 30
0.0
 11
12.7267754426586
 21
28.061955344357
 31
0.0
  0
LINE
  5
   2C9
  8
0
  6
CONTINUOUS
 62
     1
 10
13.9867913969796
 20
-0.462970976452297
 30
0.0
 11
13.9867753139117
 21
28.0619572308351
 31
0.0
  0
LINE
  5
   2CA
  8
0
  6
CONTINUOUS
 62
     1
 10
15.2467912682334
 20
-0.462970266032841
 30
0.0
 11
15.2467751851647
 21
28.0619591173133
 31
0.0
  0
LINE
  5
   2CB
  8
0
  6
CONTINUOUS
 62
     1
 10
16.5067911394872
 20
-0.462969555613412
 30
0.0
 11
16.5067750564177
 21
28.0619610037914
 31
0.0
  0
LINE
  5
   2CC
  8
0
  6
CONTINUOUS
 62
     1
 10
17.7667910107409
 20
-0.462968845193956
 30
0.0
 11
17.7667749276706
 21
28.0619628902695
 31
0.0
  0
LINE
  5
   2CD
  8
0
  6
CONTINUOUS
 62
     1
 10
19.0267908819947
 20
-0.462968134774513
 30
0.0
 11
19.0267747989236
 21
28.0619647767476
 31
0.0
  0
LINE
  5
   2CE
  8
0
  6
CONTINUOUS
 62
     1
 10
20.2867907532484
 20
-0.462967424355057
 30
0.0
 11
20.2867746701766
 21
28.0619666632257
 31
0.0
  0
LINE
  5
   2CF
  8
0
  6
CONTINUOUS
 62
     1
 10
21.5467906245022
 20
-0.462966713935586
 30
0.0
 11
21.5467745414296
 21
28.0619685497038
 31
0.0
  0
LINE
  5
   2D0
  8
0
  6
CONTINUOUS
 62
     1
 10
22.806790495756
 20
-0.462966003516115
 30
0.0
 11
22.8067744126826
 21
28.0619704361819
 31
0.0
  0
LINE
  5
   2D1
  8
0
  6
CONTINUOUS
 62
     1
 10
24.0667903670097
 20
-0.462965293096644
 30
0.0
 11
24.0667742839355
 21
28.06197232266
 31
0.0
  0
LINE
  5
   2D2
  8
0
  6
CONTINUOUS
 62
     1
 10
25.3267902382635
 20
-0.462964582677174
 30
0.0
 11
25.3267741551885
 21
28.0619742091381
 31
0.0
  0
LINE
  5
   2D3
  8
0
  6
DASHDOT
 62
     7
 10
45.0520307264114
 20
-45.8754908829906
 30
0.0
 11
-66.7453951138426
 21
-45.8754908829906
 31
0.0
  0
LINE
  5
   2D4
  8
0
  6
CONTINUOUS
 62
     7
 10
1.40426855683381
 20
-68.5379912376379
 30
0.0
 11
1.40426855683381
 21
-31.2629950463747
 31
0.0
  0
LINE
  5
   2D5
  8
0
  6
CONTINUOUS
 62
     7
 10
1.40426855683381
 20
-35.2684534688865
 30
0.0
 11
-33.9457251608369
 21
-35.2684534688865
 31
0.0
  0
LINE
  5
   2D6
  8
0
  6
CONTINUOUS
 62
     7
 10
1.40426855683381
 20
-34.9184535046493
 30
0.0
 11
-33.9457251608369
 21
-34.9184535046493
 31
0.0
  0
LINE
  5
   2D7
  8
0
  6
CONTINUOUS
 62
     7
 10
-18.0207241177559
 20
-63.9249381964237
 30
0.0
 11
-18.0207241177559
 21
-36.226050722114
 31
0.0
  0
LINE
  5
   2D8
  8
0
  6
CONTINUOUS
 62
     7
 10
-3.32072561979294
 20
-63.9249381964237
 30
0.0
 11
-3.32072561979294
 21
-36.226050722114
 31
0.0
  0
LINE
  5
   2D9
  8
0
  6
CONTINUOUS
 62
     7
 10
-18.0207241177559
 20
-41.9184527893935
 30
0.0
 11
-33.9457251608369
 21
-41.9184527893935
 31
0.0
  0
LINE
  5
   2DA
  8
0
  6
CONTINUOUS
 62
     7
 10
1.40426855683381
 20
-41.9184527893935
 30
0.0
 11
-3.32072561979294
 21
-41.9184527893935
 31
0.0
  0
LINE
  5
   2DB
  8
0
  6
CONTINUOUS
 62
     7
 10
-2.3582257181406
 20
-41.5684528251563
 30
0.0
 11
-3.32072561979294
 21
-41.5684528251563
 31
0.0
  0
LINE
  5
   2DC
  8
0
  6
CONTINUOUS
 62
     7
 10
-18.0207241177559
 20
-41.5684528251563
 30
0.0
 11
-33.9457251608369
 21
-41.5684528251563
 31
0.0
  0
LINE
  5
   2DD
  8
0
  6
CONTINUOUS
 62
     7
 10
1.40426855683381
 20
-58.3088542899861
 30
0.0
 11
-3.32072561979294
 21
-58.3088542899861
 31
0.0
  0
LINE
  5
   2DE
  8
0
  6
CONTINUOUS
 62
     7
 10
-18.0207241177559
 20
-58.3088542899861
 30
0.0
 11
-33.9457251608369
 21
-58.3088542899861
 31
0.0
  0
LINE
  5
   2DF
  8
0
  6
CONTINUOUS
 62
     7
 10
-18.0207241177559
 20
-58.6588542542233
 30
0.0
 11
-33.9457251608369
 21
-58.6588542542233
 31
0.0
  0
LINE
  5
   2E0
  8
0
  6
CONTINUOUS
 62
     7
 10
1.40426855683381
 20
-58.6588542542233
 30
0.0
 11
-3.32072561979294
 21
-58.6588542542233
 31
0.0
  0
LINE
  5
   2E1
  8
0
  6
CONTINUOUS
 62
     7
 10
1.40426855683381
 20
-64.9588536104932
 30
0.0
 11
-33.9457251608369
 21
-64.9588536104932
 31
0.0
  0
LINE
  5
   2E2
  8
0
  6
CONTINUOUS
 62
     7
 10
1.40426855683381
 20
-65.3088535747304
 30
0.0
 11
-33.9457251608369
 21
-65.3088535747304
 31
0.0
  0
LINE
  5
   2E3
  8
0
  6
CONTINUOUS
 62
     7
 10
-3.32072561979294
 20
-36.6082196436355
 30
0.0
 11
-18.0207241177559
 21
-36.6082196436355
 31
0.0
  0
LINE
  5
   2E4
  8
0
  6
CONTINUOUS
 62
     7
 10
-3.32072561979294
 20
-36.226050722114
 30
0.0
 11
-18.0207241177559
 21
-36.226050722114
 31
0.0
  0
LINE
  5
   2E5
  8
0
  6
CONTINUOUS
 62
     7
 10
-3.32072561979294
 20
-63.9249381964237
 30
0.0
 11
-18.0207241177559
 21
-63.9249381964237
 31
0.0
  0
LINE
  5
   2E6
  8
0
  6
CONTINUOUS
 62
     7
 10
-3.32072561979294
 20
-63.5427699424741
 30
0.0
 11
-18.0207241177559
 21
-63.5427699424741
 31
0.0
  0
LINE
  5
   2E7
  8
0
  6
CONTINUOUS
 62
     7
 10
-21.6957250773905
 20
-36.843453307954
 30
0.0
 11
-22.2207250237464
 21
-36.843453307954
 31
0.0
  0
LINE
  5
   2E8
  8
0
  6
CONTINUOUS
 62
     7
 10
-21.6957250773905
 20
-39.9934529860889
 30
0.0
 11
-22.2207250237464
 21
-39.9934529860889
 31
0.0
  0
LINE
  5
   2E9
  8
0
  6
CONTINUOUS
 62
     7
 10
-21.6957250773905
 20
-39.9934529860889
 30
0.0
 11
-21.6957250773905
 21
-36.843453307954
 31
0.0
  0
LINE
  5
   2EA
  8
0
  6
CONTINUOUS
 62
     7
 10
-22.2207250237464
 20
-39.9934529860889
 30
0.0
 11
-22.2207250237464
 21
-36.843453307954
 31
0.0
  0
CIRCLE
  5
   2EB
  8
0
  6
CONTINUOUS
 62
     7
 10
-21.9582250505685
 20
-61.8088539323583
 30
0.0
 40
1.13749988377094
  0
CIRCLE
  5
   2EC
  8
0
  6
CONTINUOUS
 62
     7
 10
-21.9582250505685
 20
-61.8088539323583
 30
0.0
 40
1.66249983012676
  0
LINE
  5
   2ED
  8
0
  6
DASHDOT
 62
     7
 10
-10.6707248687744
 20
-72.1389341332798
 30
0.0
 11
-10.6707248687744
 21
-27.6407716923845
 31
0.0
  0
LINE
  5
   2EE
  8
0
  6
CONTINUOUS
 62
     7
 10
-2.35822571814061
 20
-41.5684528251563
 30
0.0
 11
-2.35822571814061
 21
-35.2684534688865
 31
0.0
  0
LINE
  5
   2EF
  8
0
  6
CONTINUOUS
 62
     7
 10
-18.9832240194082
 20
-41.5684528251563
 30
0.0
 11
-18.9832240194082
 21
-35.2684534688865
 31
0.0
  0
LINE
  5
   2F0
  8
0
  6
CONTINUOUS
 62
     7
 10
1.40426855683381
 20
-41.5684528251563
 30
0.0
 11
-2.3582257181406
 21
-41.5684528251563
 31
0.0
  0
LINE
  5
   2F1
  8
0
  6
CONTINUOUS
 62
     7
 10
-2.35822571814061
 20
-64.9588536104932
 30
0.0
 11
-2.35822571814061
 21
-58.6588542542233
 31
0.0
  0
LINE
  5
   2F2
  8
0
  6
CONTINUOUS
 62
     7
 10
-18.9832240194082
 20
-64.9588536104932
 30
0.0
 11
-18.9832240194082
 21
-58.6588542542233
 31
0.0
  0
INSERT
  5
   2F3
  8
0
  6
CONTINUOUS
 62
    18
  2
*HATCH411
 10
-10.6707248687744
 20
-71.3379669189453
 30
0.0
 41
0.349999964237213
 42
0.349999964237213
 50
89.9999999480344
  0
LINE
  5
   2F4
  8
0
  6
CONTINUOUS
 62
     7
 10
13.6542726457119
 20
-21.3754933863856
 30
0.0
 11
-34.9957223832607
 21
-21.3754933863856
 31
0.0
  0
LINE
  5
   2F5
  8
0
  6
CONTINUOUS
 62
     7
 10
13.6542726457119
 20
-70.3754906326508
 30
0.0
 11
-34.9957223832607
 21
-70.3754906326508
 31
0.0
  0
LINE
  5
   2F6
  8
0
  6
CONTINUOUS
 62
     7
 10
10.6792729496956
 20
-28.9879952788328
 30
0.0
 11
10.6792729496956
 21
-27.9379953861212
 31
0.0
  0
LINE
  5
   2F7
  8
0
  6
CONTINUOUS
 62
     7
 10
11.7292728424072
 20
-28.9879952788328
 30
0.0
 11
11.7292728424072
 21
-27.9379953861212
 31
0.0
  0
LINE
  5
   2F8
  8
0
  6
DOT
 62
     7
 10
4.97426311850654
 20
-66.7247803633404
 30
0.0
 11
4.97426311850654
 21
-63.876202105975
 31
0.0
  0
LINE
  5
   2F9
  8
0
  6
DOT
 62
     7
 10
9.38426213383787
 20
-66.7247803633404
 30
0.0
 11
9.38426213383787
 21
-63.876202105975
 31
0.0
  0
LINE
  5
   2FA
  8
0
  6
CONTINUOUS
 62
     7
 10
11.729262161256
 20
-58.7379441738153
 30
0.0
 11
10.6792622685443
 21
-58.7379441738153
 31
0.0
  0
LINE
  5
   2FB
  8
0
  6
CONTINUOUS
 62
     7
 10
10.5042622864257
 20
-59.787944066527
 30
0.0
 11
10.5042622864257
 21
-58.9129441559339
 31
0.0
  0
LINE
  5
   2FC
  8
0
  6
CONTINUOUS
 62
     7
 10
10.5042622864257
 20
-60.4879446625733
 30
0.0
 11
10.5042622864257
 21
-59.787944066527
 31
0.0
  0
LINE
  5
   2FD
  8
0
  6
CONTINUOUS
 62
     7
 10
10.5042622864257
 20
-61.1879445910478
 30
0.0
 11
10.5042622864257
 21
-60.4879446625733
 31
0.0
  0
LINE
  5
   2FE
  8
0
  6
CONTINUOUS
 62
     7
 10
10.5042622864257
 20
-61.8879445195222
 30
0.0
 11
10.5042622864257
 21
-61.1879445910478
 31
0.0
  0
LINE
  5
   2FF
  8
0
  6
CONTINUOUS
 62
     7
 10
10.5042622864257
 20
-62.7629444301152
 30
0.0
 11
10.5042622864257
 21
-61.8879445195222
 31
0.0
  0
LINE
  5
   300
  8
0
  6
CONTINUOUS
 62
     7
 10
11.729262161256
 20
-62.9379444122338
 30
0.0
 11
10.6792622685443
 21
-62.9379444122338
 31
0.0
  0
LINE
  5
   301
  8
0
  6
CONTINUOUS
 62
     7
 10
11.9042621433746
 20
-62.7629444301152
 30
0.0
 11
11.9042621433746
 21
-61.8879445195222
 31
0.0
  0
LINE
  5
   302
  8
0
  6
CONTINUOUS
 62
     7
 10
11.9042621433746
 20
-61.8879445195222
 30
0.0
 11
11.9042621433746
 21
-61.1879445910478
 31
0.0
  0
LINE
  5
   303
  8
0
  6
CONTINUOUS
 62
     7
 10
11.9042621433746
 20
-61.1879445910478
 30
0.0
 11
11.9042621433746
 21
-60.4879446625733
 31
0.0
  0
LINE
  5
   304
  8
0
  6
CONTINUOUS
 62
     7
 10
11.9042621433746
 20
-60.4879446625733
 30
0.0
 11
11.9042621433746
 21
-59.7879454016709
 31
0.0
  0
LINE
  5
   305
  8
0
  6
CONTINUOUS
 62
     7
 10
11.9042621433746
 20
-59.7879454016709
 30
0.0
 11
11.9042621433746
 21
-58.9129441559339
 31
0.0
  0
ARC
  5
   306
  8
0
  6
CONTINUOUS
 62
     7
 10
11.2042727006855
 20
-27.9379960464251
 30
0.0
 40
0.524999302322405
 50
359.999973013555
 51
540.000043615088
  0
ARC
  5
   307
  8
0
  6
CONTINUOUS
 62
     7
 10
11.2042400065966
 20
-28.9879508028124
 30
0.0
 40
0.52505174731448
 50
180.004949696118
 51
359.995034083139
  0
ARC
  5
   308
  8
0
  6
DOT
 62
     7
 10
7.17926336832726
 20
-65.3004898778398
 30
0.0
 40
2.62500139177998
 50
392.859977017252
 51
507.140082588953
  0
ARC
  5
   309
  8
0
  6
DOT
 62
     7
 10
7.17926336832726
 20
-65.3004898778398
 30
0.0
 40
2.62500139177998
 50
212.859917307116
 51
327.140022878817
  0
ARC
  5
   30A
  8
0
  6
CONTINUOUS
 62
     7
 10
10.6792624101096
 20
-58.9129437462936
 30
0.0
 40
0.174999811768228
 50
449.999889462241
 51
540.000025360212
  0
ARC
  5
   30B
  8
0
  6
CONTINUOUS
 62
     7
 10
11.7292630107245
 20
-58.9129434702819
 30
0.0
 40
0.174999366440514
 50
359.999829068822
 51
450.000145163477
  0
ARC
  5
   30C
  8
0
  6
CONTINUOUS
 62
     7
 10
11.7292628192386
 20
-62.7629445825873
 30
0.0
 40
0.174999637680245
 50
269.999943873992
 51
360.000134042801
  0
ARC
  5
   30D
  8
0
  6
CONTINUOUS
 62
     7
 10
10.6792621580202
 20
-62.7629447501518
 30
0.0
 40
0.174999639432298
 50
179.999866090912
 51
270.000166521604
  0
ARC
  5
   30E
  8
0
  6
CONTINUOUS
 62
     7
 10
13.6542726457119
 20
-70.2004906505322
 30
0.0
 40
0.174999982118607
 50
269.999999948034
 51
359.999999948034
  0
ARC
  5
   30F
  8
0
  6
CONTINUOUS
 62
     7
 10
13.6542726457119
 20
-21.5504933685042
 30
0.0
 40
0.174999982118607
 50
359.999999948034
 51
449.999999948034
  0
LINE
  5
   310
  8
0
  6
DASHDOT
 62
     7
 10
11.2042727006855
 20
-30.8254951073487
 30
0.0
 11
11.2042727006855
 21
-29.0754965742294
 31
0.0
  0
LINE
  5
   311
  8
0
  6
DASHDOT
 62
     7
 10
12.0792719672451
 20
-27.9379960464251
 30
0.0
 11
10.3292734341259
 21
-27.9379960464251
 31
0.0
  0
LINE
  5
   312
  8
0
  6
DASHDOT
 62
     7
 10
11.2042400065966
 20
-54.2123931305703
 30
0.0
 11
11.2042400065966
 21
-26.1003992968967
 31
0.0
  0
LINE
  5
   313
  8
0
  6
DASHDOT
 62
     7
 10
12.0792917181483
 20
-28.9879508028124
 30
0.0
 11
10.3291882950449
 21
-28.9879508028124
 31
0.0
  0
LINE
  5
   314
  8
0
  6
DASHDOT
 62
     7
 10
7.17926336832727
 20
-68.275491233857
 30
0.0
 11
7.17926336832727
 21
-62.3254885218226
 31
0.0
  0
LINE
  5
   315
  8
0
  6
DASHDOT
 62
     7
 10
10.1542647243445
 20
-65.3004898778398
 30
0.0
 11
4.20426201231007
 21
-65.3004898778398
 31
0.0
  0
LINE
  5
   316
  8
0
  6
DASHDOT
 62
     7
 10
11.6417731889991
 20
-70.0254905197886
 30
0.0
 11
11.6417731889991
 21
-66.3504910658179
 31
0.0
  0
LINE
  5
   317
  8
0
  6
DASHDOT
 62
     7
 10
13.4792729159845
 20
-68.1879907928032
 30
0.0
 11
9.8042734620138
 21
-68.1879907928032
 31
0.0
  0
LINE
  5
   318
  8
0
  6
DASHDOT
 62
     7
 10
-10.6707248687744
 20
-73.0809808797385
 30
0.0
 11
-10.6707248687744
 21
-22.810602588705
 31
0.0
  0
LINE
  5
   319
  8
0
  6
DASHDOT
 62
     7
 10
13.2424620078177
 20
-60.8379442930246
 30
0.0
 11
9.67319000658583
 21
-60.8379442930246
 31
0.0
  0
LINE
  5
   31A
  8
0
  6
DASHDOT
 62
     7
 10
11.2042622149002
 20
-63.5917955248995
 30
0.0
 11
11.2042622149002
 21
-58.21910188094
 31
0.0
  0
ARC
  5
   31B
  8
0
  6
CONTINUOUS
 62
     7
 10
-34.9957223832607
 20
-70.2004906505322
 30
0.0
 40
0.174999982118607
 50
179.999999948034
 51
269.999999948034
  0
ARC
  5
   31C
  8
0
  6
CONTINUOUS
 62
     7
 10
-34.9957223832607
 20
-21.5504933685042
 30
0.0
 40
0.174999982118607
 50
89.9999999480344
 51
179.999999948034
  0
LINE
  5
   31D
  8
0
  6
CONTINUOUS
 62
     7
 10
13.6542726457119
 20
-21.3754933863856
 30
0.0
 11
-34.9957223832607
 21
-21.3754933863856
 31
0.0
  0
LINE
  5
   31E
  8
0
  6
CONTINUOUS
 62
     7
 10
13.6542726457119
 20
-70.3754906326508
 30
0.0
 11
-34.9957223832607
 21
-70.3754906326508
 31
0.0
  0
LINE
  5
   31F
  8
0
  6
CONTINUOUS
 62
     7
 10
13.5667726546526
 20
-25.5754929572322
 30
0.0
 11
-34.9082223922014
 21
-25.5754929572322
 31
0.0
  0
LINE
  5
   320
  8
0
  6
CONTINUOUS
 62
     7
 10
13.5667726546526
 20
-22.0754933148601
 30
0.0
 11
-34.9082223922014
 21
-22.0754933148601
 31
0.0
  0
LINE
  5
   321
  8
0
  6
CONTINUOUS
 62
     7
 10
-35.1707223653793
 20
-70.2004906505322
 30
0.0
 11
-35.1707223653793
 21
-21.5504933685042
 31
0.0
  0
LINE
  5
   322
  8
0
  6
CONTINUOUS
 62
     7
 10
13.8292726278305
 20
-70.2004906505322
 30
0.0
 11
13.8292726278305
 21
-21.5504933685042
 31
0.0
  0
LINE
  5
   323
  8
0
  6
CONTINUOUS
 62
     7
 10
1.0542685925966
 20
-26.6254955202317
 30
0.0
 11
-33.5957251965997
 21
-26.6254955202317
 31
0.0
  0
LINE
  5
   324
  8
0
  6
CONTINUOUS
 62
     7
 10
1.22926857471521
 20
-69.150491341946
 30
0.0
 11
-33.5957251965997
 21
-69.150491341946
 31
0.0
  0
LINE
  5
   325
  8
0
  6
CONTINUOUS
 62
     7
 10
-33.9457251608369
 20
-68.8004913777088
 30
0.0
 11
-33.9457251608369
 21
-26.9754954844689
 31
0.0
  0
LINE
  5
   326
  8
0
  6
CONTINUOUS
 62
     7
 10
1.40426855683381
 20
-68.9754913598274
 30
0.0
 11
1.40426855683381
 21
-26.9754954844689
 31
0.0
  0
LINE
  5
   327
  8
0
  6
CONTINUOUS
 62
     7
 10
11.729275512695
 20
-43.8629937589144
 30
0.0
 11
11.729275512695
 21
-43.1630205333181
 31
0.0
  0
LINE
  5
   328
  8
0
  6
CONTINUOUS
 62
     7
 10
11.7292781829829
 20
-45.7879935622191
 30
0.0
 11
11.7292781829829
 21
-45.0879936337446
 31
0.0
  0
LINE
  5
   329
  8
0
  6
CONTINUOUS
 62
     7
 10
10.6792676097413
 20
-50.6004944053856
 30
0.0
 11
10.679272950317
 21
-49.9004931417703
 31
0.0
  0
LINE
  5
   32A
  8
0
  6
CONTINUOUS
 62
     7
 10
10.6792553702986
 20
-50.6004944056098
 30
0.0
 11
10.6792553702986
 21
-41.1504967063489
 31
0.0
  0
LINE
  5
   32B
  8
0
  6
CONTINUOUS
 62
     7
 10
11.7292861938463
 20
-50.6004944056247
 30
0.0
 11
10.6792729496956
 21
-50.6004944056247
 31
0.0
  0
LINE
  5
   32C
  8
0
  6
CONTINUOUS
 62
     7
 10
11.7292861938606
 20
-50.6004944003339
 30
0.0
 11
11.7292755127089
 21
-41.1505207342231
 31
0.0
  0
LINE
  5
   32D
  8
0
  6
CONTINUOUS
 62
     7
 10
11.7292755245246
 20
-41.150520731047
 30
0.0
 11
10.6792809723615
 21
-41.1504966984567
 31
0.0
  0
LINE
  5
   32E
  8
0
  6
CONTINUOUS
 62
     7
 10
-18.0207241177559
 20
-63.5427699424741
 30
0.0
 11
-18.0207241177559
 21
-36.6082203112074
 31
0.0
  0
LINE
  5
   32F
  8
0
  6
CONTINUOUS
 62
     7
 10
-3.32072561979294
 20
-63.5427699424741
 30
0.0
 11
-3.32072561979294
 21
-36.6082203112074
 31
0.0
  0
LINE
  5
   330
  8
0
  6
CONTINUOUS
 62
     7
 10
-3.32072561979294
 20
-63.5427699424741
 30
0.0
 11
-18.0207241177559
 21
-63.5427699424741
 31
0.0
  0
LINE
  5
   331
  8
0
  6
CONTINUOUS
 62
     7
 10
-3.32072561979294
 20
-63.2879911065078
 30
0.0
 11
-18.0207241177559
 21
-63.2879911065078
 31
0.0
  0
LINE
  5
   332
  8
0
  6
CONTINUOUS
 62
     7
 10
-3.32072561979294
 20
-36.8629971444579
 30
0.0
 11
-18.0207241177559
 21
-36.8629971444579
 31
0.0
  0
LINE
  5
   333
  8
0
  6
CONTINUOUS
 62
     7
 10
-3.32072561979294
 20
-36.6082196436355
 30
0.0
 11
-18.0207241177559
 21
-36.6082196436355
 31
0.0
  0
CIRCLE
  5
   334
  8
0
  6
CONTINUOUS
 62
     7
 10
11.6417683562204
 20
-68.1879909121325
 30
0.0
 40
0.910002492644921
  0
CIRCLE
  5
   335
  8
0
  6
CONTINUOUS
 62
     7
 10
11.6417678364491
 20
-68.1879916510559
 30
0.0
 40
1.48750398503051
  0
LINE
  5
   336
  8
0
  6
CONTINUOUS
 62
     7
 10
13.5667726546526
 20
-69.9379906773543
 30
0.0
 11
13.5667726546526
 21
-21.8129933416822
 31
0.0
  0
LINE
  5
   337
  8
0
  6
CONTINUOUS
 62
     7
 10
13.391772672534
 20
-70.1129906594729
 30
0.0
 11
-34.7332224100828
 21
-70.1129906594729
 31
0.0
  0
LINE
  5
   338
  8
0
  6
CONTINUOUS
 62
     7
 10
-34.9082223922014
 20
-69.9379906773543
 30
0.0
 11
-34.9082223922014
 21
-21.8129933416822
 31
0.0
  0
LINE
  5
   339
  8
0
  6
CONTINUOUS
 62
     7
 10
13.391772672534
 20
-21.6379933595636
 30
0.0
 11
-34.7332224100828
 21
-21.6379933595636
 31
0.0
  0
ARC
  5
   33A
  8
0
  6
CONTINUOUS
 62
     7
 10
-34.7332224100828
 20
-21.8129933416822
 30
0.0
 40
0.174999982118607
 50
89.9999999480344
 51
179.999999948034
  0
ARC
  5
   33B
  8
0
  6
CONTINUOUS
 62
     7
 10
13.391772672534
 20
-21.8129933416822
 30
0.0
 40
0.174999982118607
 50
359.999999948034
 51
449.999999948034
  0
ARC
  5
   33C
  8
0
  6
CONTINUOUS
 62
     7
 10
13.391772672534
 20
-69.9379906773543
 30
0.0
 40
0.174999982118607
 50
269.999999948034
 51
359.999999948034
  0
ARC
  5
   33D
  8
0
  6
CONTINUOUS
 62
     7
 10
-34.7332224100828
 20
-69.9379906773543
 30
0.0
 40
0.174999982118607
 50
179.999999948034
 51
269.999999948034
  0
ARC
  5
   33E
  8
0
  6
CONTINUOUS
 62
     7
 10
-33.5957251965997
 20
-68.8004913777088
 30
0.0
 40
0.349999964237213
 50
179.999999948034
 51
269.999999948034
  0
ARC
  5
   33F
  8
0
  6
CONTINUOUS
 62
     7
 10
-33.5957251965997
 20
-26.9754954844689
 30
0.0
 40
0.349999964237213
 50
89.9999999480344
 51
179.999999948034
  0
ARC
  5
   340
  8
0
  6
CONTINUOUS
 62
     7
 10
1.0542685925966
 20
-26.9754954844689
 30
0.0
 40
0.349999964237213
 50
359.999999948034
 51
449.999999948034
  0
LINE
  5
   341
  8
0
  6
CONTINUOUS
 62
     7
 10
1.23143857449348
 20
-69.3276613238429
 30
0.0
 11
-33.7728951784966
 21
-69.3276613238429
 31
0.0
  0
LINE
  5
   342
  8
0
  6
CONTINUOUS
 62
     7
 10
-34.1228951427338
 20
-68.9776613596057
 30
0.0
 11
-34.1228951427338
 21
-26.798325502572
 31
0.0
  0
LINE
  5
   343
  8
0
  6
CONTINUOUS
 62
     7
 10
1.58143853873069
 20
-68.9776613596057
 30
0.0
 11
1.58143853873069
 21
-26.798325502572
 31
0.0
  0
LINE
  5
   344
  8
0
  6
CONTINUOUS
 62
     7
 10
1.23143857449348
 20
-26.4483255383348
 30
0.0
 11
-33.7728951784966
 21
-26.4483255383348
 31
0.0
  0
ARC
  5
   345
  8
0
  6
CONTINUOUS
 62
     7
 10
1.23143857449348
 20
-26.798325502572
 30
0.0
 40
0.349999964237213
 50
359.999999948034
 51
449.999999948034
  0
ARC
  5
   346
  8
0
  6
CONTINUOUS
 62
     7
 10
1.23143857449348
 20
-68.9776613596057
 30
0.0
 40
0.349999964237213
 50
269.999999948034
 51
359.999999948034
  0
ARC
  5
   347
  8
0
  6
CONTINUOUS
 62
     7
 10
-33.7728951784966
 20
-68.9776613596057
 30
0.0
 40
0.349999964237213
 50
179.999999948034
 51
269.999999948034
  0
ARC
  5
   348
  8
0
  6
CONTINUOUS
 62
     7
 10
-33.7728951784966
 20
-26.798325502572
 30
0.0
 40
0.349999964237213
 50
89.9999999480344
 51
179.999999948034
  0
LINE
  5
   349
  8
0
  6
CONTINUOUS
 62
     7
 10
1.0542685925966
 20
-67.5670786086859
 30
0.0
 11
1.0542685925966
 21
-34.7750507226983
 31
0.0
  0
LINE
  5
   34A
  8
0
  6
DASHDOT
 62
     7
 10
9.8042734620138
 20
-68.1879907928032
 30
0.0
 11
2.06236289895605
 21
-68.1879907928032
 31
0.0
  0
LINE
  5
   34B
  8
0
  6
CONTINUOUS
 62
     7
 10
11.6242677795892
 20
-59.6129440844084
 30
0.0
 11
11.6242677795892
 21
-58.9129441559339
 31
0.0
  0
LINE
  5
   34C
  8
0
  6
CONTINUOUS
 62
     7
 10
11.9042621433746
 20
-58.9129441559339
 30
0.0
 11
11.6242677795892
 21
-58.9129441559339
 31
0.0
  0
LINE
  5
   34D
  8
0
  6
CONTINUOUS
 62
     7
 10
11.9042621433746
 20
-59.6129440844084
 30
0.0
 11
11.6242677795892
 21
-59.6129440844084
 31
0.0
  0
LINE
  5
   34E
  8
0
  6
CONTINUOUS
 62
     7
 10
10.7842633259306
 20
-62.7629444301152
 30
0.0
 11
10.7842633259306
 21
-62.0629445016408
 31
0.0
  0
LINE
  5
   34F
  8
0
  6
CONTINUOUS
 62
     7
 10
10.7842633259306
 20
-62.7629444301152
 30
0.0
 11
10.5042636215696
 21
-62.7629444301152
 31
0.0
  0
LINE
  5
   350
  8
0
  6
CONTINUOUS
 62
     7
 10
10.7842633259306
 20
-62.0629445016408
 30
0.0
 11
10.5042636215696
 21
-62.0629445016408
 31
0.0
  0
ARC
  5
   351
  8
0
  6
CONTINUOUS
 62
     7
 10
1.22926857471521
 20
-68.9754913598274
 30
0.0
 40
0.174999982118607
 50
269.999999948034
 51
359.999999948034
  0
INSERT
  5
   352
  8
0
  6
CONTINUOUS
 62
     7
  2
*HATCH412
 10
-10.6707248687744
 20
-71.3379669189453
 30
0.0
 41
0.349999964237213
 42
0.349999964237213
 50
89.9999999480344
  0
LINE
  5
   353
  8
0
  6
CONTINUOUS
 62
     7
 10
-28.379133485393
 20
-39.1439076183495
 30
0.0
 11
-28.5827698282219
 21
-39.1439076183495
 31
0.0
  0
ARC
  5
   354
  8
0
  6
CONTINUOUS
 62
     7
 10
-29.4832242816685
 20
-38.3548167898874
 30
0.0
 40
0.661818114194003
 50
359.999999948034
 51
539.999999948034
  0
ARC
  5
   355
  8
0
  6
CONTINUOUS
 62
     7
 10
-29.4832242816685
 20
-38.3548167898874
 30
0.0
 40
0.458181771365079
 50
359.999999948034
 51
539.999999948034
  0
ARC
  5
   356
  8
0
  6
CONTINUOUS
 62
     7
 10
-29.4832242816685
 20
-38.4820895041555
 30
0.0
 40
0.661818114194002
 50
179.999999948034
 51
359.999999948034
  0
ARC
  5
   357
  8
0
  6
CONTINUOUS
 62
     7
 10
-29.4832242816685
 20
-38.4820895041555
 30
0.0
 40
0.458181771365078
 50
179.999999948034
 51
359.999999948034
  0
LINE
  5
   358
  8
0
  6
CONTINUOUS
 62
     7
 10
-29.0250425103035
 20
-38.4820895041555
 30
0.0
 11
-29.0250425103035
 21
-38.3548167898874
 31
0.0
  0
LINE
  5
   359
  8
0
  6
CONTINUOUS
 62
     7
 10
-28.8214061674745
 20
-38.4820895041555
 30
0.0
 11
-28.8214061674745
 21
-38.3548167898874
 31
0.0
  0
LINE
  5
   35A
  8
0
  6
CONTINUOUS
 62
     7
 10
-29.9414060530336
 20
-38.4820895041555
 30
0.0
 11
-29.9414060530336
 21
-38.3548167898874
 31
0.0
  0
LINE
  5
   35B
  8
0
  6
CONTINUOUS
 62
     7
 10
-30.1450423958625
 20
-38.4820895041555
 30
0.0
 11
-30.1450423958625
 21
-38.3548167898874
 31
0.0
  0
LINE
  5
   35C
  8
0
  6
CONTINUOUS
 62
     7
 10
-28.5827698282219
 20
-39.1439076183495
 30
0.0
 11
-28.5827698282219
 21
-37.6929986756934
 31
0.0
  0
LINE
  5
   35D
  8
0
  6
CONTINUOUS
 62
     7
 10
-28.379133485393
 20
-39.1439076183495
 30
0.0
 11
-28.379133485393
 21
-38.2529986184729
 31
0.0
  0
LINE
  5
   35E
  8
0
  6
CONTINUOUS
 62
     7
 10
-27.6664062854917
 20
-39.1439076183495
 30
0.0
 11
-27.6664062854917
 21
-38.2529986184729
 31
0.0
  0
LINE
  5
   35F
  8
0
  6
CONTINUOUS
 62
     7
 10
-27.4627699426628
 20
-39.1439076183495
 30
0.0
 11
-27.4627699426628
 21
-38.2020895327657
 31
0.0
  0
LINE
  5
   360
  8
0
  6
CONTINUOUS
 62
     7
 10
-28.379133485393
 20
-37.6929986756934
 30
0.0
 11
-28.5827698282219
 21
-37.6929986756934
 31
0.0
  0
ARC
  5
   361
  8
0
  6
CONTINUOUS
 62
     7
 10
-28.0227698854423
 20
-38.2529986184729
 30
0.0
 40
0.356363599950617
 50
359.999999948034
 51
539.999999948034
  0
LINE
  5
   362
  8
0
  6
CONTINUOUS
 62
     7
 10
-28.379133485393
 20
-37.8966350185223
 30
0.0
 11
-28.379133485393
 21
-37.6929986756934
 31
0.0
  0
ARC
  5
   363
  8
0
  6
CONTINUOUS
 62
     7
 10
-27.9718607997351
 20
-38.2020895327657
 30
0.0
 40
0.50909085707231
 50
359.999999948034
 51
503.13010230219
  0
LINE
  5
   364
  8
0
  6
CONTINUOUS
 62
     7
 10
-27.4627699426628
 20
-39.1439076183495
 30
0.0
 11
-27.6664062854917
 21
-39.1439076183495
 31
0.0
  0
LINE
  5
   365
  8
0
  6
CONTINUOUS
 62
     7
 10
-28.0354971568692
 20
-60.8288540324941
 30
0.0
 11
-28.1500425997104
 21
-60.8288540324941
 31
0.0
  0
LINE
  5
   366
  8
0
  6
CONTINUOUS
 62
     7
 10
-28.2773153139785
 20
-62.7888538322225
 30
0.0
 11
-28.4809516568074
 21
-62.7888538322225
 31
0.0
  0
LINE
  5
   367
  8
0
  6
CONTINUOUS
 62
     7
 10
-30.1450423958625
 20
-62.1270357180285
 30
0.0
 11
-30.1450423958625
 21
-61.9997630037604
 31
0.0
  0
LINE
  5
   368
  8
0
  6
CONTINUOUS
 62
     7
 10
-28.8214061674745
 20
-62.1270357180285
 30
0.0
 11
-28.8214061674745
 21
-61.9997630037604
 31
0.0
  0
ARC
  5
   369
  8
0
  6
CONTINUOUS
 62
     7
 10
-29.4832242816685
 20
-61.9997630037604
 30
0.0
 40
0.661818114194003
 50
359.999999948034
 51
539.999999948034
  0
ARC
  5
   36A
  8
0
  6
CONTINUOUS
 62
     7
 10
-29.4832242816685
 20
-62.1270357180285
 30
0.0
 40
0.661818114194002
 50
179.999999948034
 51
359.999999948034
  0
ARC
  5
   36B
  8
0
  6
CONTINUOUS
 62
     7
 10
-29.4832242816685
 20
-61.9997630037604
 30
0.0
 40
0.458181771365079
 50
359.999999948034
 51
539.999999948034
  0
ARC
  5
   36C
  8
0
  6
CONTINUOUS
 62
     7
 10
-29.4832242816685
 20
-62.1270357180285
 30
0.0
 40
0.458181771365078
 50
179.999999948034
 51
359.999999948034
  0
LINE
  5
   36D
  8
0
  6
CONTINUOUS
 62
     7
 10
-29.9414060530336
 20
-62.1270357180285
 30
0.0
 11
-29.9414060530336
 21
-61.9997630037604
 31
0.0
  0
LINE
  5
   36E
  8
0
  6
CONTINUOUS
 62
     7
 10
-29.0250425103035
 20
-62.1270357180285
 30
0.0
 11
-29.0250425103035
 21
-61.9997630037604
 31
0.0
  0
LINE
  5
   36F
  8
0
  6
CONTINUOUS
 62
     7
 10
-28.7227698139168
 20
-61.6433994038098
 30
0.0
 11
-28.7227698139168
 21
-61.4397630609809
 31
0.0
  0
LINE
  5
   370
  8
0
  6
CONTINUOUS
 62
     7
 10
-28.4809516568074
 20
-61.6433994038098
 30
0.0
 11
-28.7227698139168
 21
-61.6433994038098
 31
0.0
  0
LINE
  5
   371
  8
0
  6
CONTINUOUS
 62
     7
 10
-28.0354971568692
 20
-61.6433994038098
 30
0.0
 11
-28.0354971568692
 21
-61.4397630609809
 31
0.0
  0
LINE
  5
   372
  8
0
  6
CONTINUOUS
 62
     7
 10
-28.4809516568074
 20
-61.4397630609808
 30
0.0
 11
-28.7227698139168
 21
-61.4397630609808
 31
0.0
  0
LINE
  5
   373
  8
0
  6
CONTINUOUS
 62
     7
 10
-28.4809516568074
 20
-62.7888538322225
 30
0.0
 11
-28.4809516568074
 21
-61.6433994038098
 31
0.0
  0
LINE
  5
   374
  8
0
  6
CONTINUOUS
 62
     7
 10
-28.2773153139785
 20
-62.7888538322225
 30
0.0
 11
-28.2773153139785
 21
-61.6433994038098
 31
0.0
  0
LINE
  5
   375
  8
0
  6
CONTINUOUS
 62
     7
 10
-28.0354971568692
 20
-61.6433994038098
 30
0.0
 11
-28.2773153139785
 21
-61.6433994038098
 31
0.0
  0
LINE
  5
   376
  8
0
  6
CONTINUOUS
 62
     7
 10
-28.0354971568692
 20
-61.4397630609808
 30
0.0
 11
-28.2773153139785
 21
-61.4397630609808
 31
0.0
  0
LINE
  5
   377
  8
0
  6
CONTINUOUS
 62
     7
 10
-28.4809516568074
 20
-61.4397630609809
 30
0.0
 11
-28.4809516568074
 21
-61.1597630895911
 31
0.0
  0
LINE
  5
   378
  8
0
  6
CONTINUOUS
 62
     7
 10
-28.2773153139785
 20
-61.4397630609809
 30
0.0
 11
-28.2773153139785
 21
-61.1597630895911
 31
0.0
  0
ARC
  5
   379
  8
0
  6
CONTINUOUS
 62
     7
 10
-28.1500425997104
 20
-61.1597630895911
 30
0.0
 40
0.330909057097001
 50
449.999999948034
 51
539.999999948034
  0
ARC
  5
   37A
  8
0
  6
CONTINUOUS
 62
     7
 10
-28.1500425997104
 20
-61.1597630895911
 30
0.0
 40
0.127272714268077
 50
449.999999948034
 51
539.999999948034
  0
LINE
  5
   37B
  8
0
  6
CONTINUOUS
 62
     7
 10
-28.0354971568692
 20
-61.032490375323
 30
0.0
 11
-28.0354971568692
 21
-60.8288540324941
 31
0.0
  0
LINE
  5
   37C
  8
0
  6
CONTINUOUS
 62
     7
 10
-28.0354971568692
 20
-61.032490375323
 30
0.0
 11
-28.1500425997104
 21
-61.032490375323
 31
0.0
  0
LINE
  5
   37D
  8
0
  6
CONTINUOUS
 62
     7
 10
-27.1859517891297
 20
-60.8288540324941
 30
0.0
 11
-27.300497231971
 21
-60.8288540324941
 31
0.0
  0
LINE
  5
   37E
  8
0
  6
CONTINUOUS
 62
     7
 10
-27.4277699462391
 20
-62.7888538322225
 30
0.0
 11
-27.631406289068
 21
-62.7888538322225
 31
0.0
  0
LINE
  5
   37F
  8
0
  6
CONTINUOUS
 62
     7
 10
-27.8732244461774
 20
-61.6433994038098
 30
0.0
 11
-27.8732244461774
 21
-61.4397630609809
 31
0.0
  0
LINE
  5
   380
  8
0
  6
CONTINUOUS
 62
     7
 10
-27.631406289068
 20
-61.6433994038098
 30
0.0
 11
-27.8732244461774
 21
-61.6433994038098
 31
0.0
  0
LINE
  5
   381
  8
0
  6
CONTINUOUS
 62
     7
 10
-27.1859517891297
 20
-61.6433994038098
 30
0.0
 11
-27.1859517891297
 21
-61.4397630609809
 31
0.0
  0
LINE
  5
   382
  8
0
  6
CONTINUOUS
 62
     7
 10
-27.631406289068
 20
-61.4397630609808
 30
0.0
 11
-27.8732244461774
 21
-61.4397630609808
 31
0.0
  0
LINE
  5
   383
  8
0
  6
CONTINUOUS
 62
     7
 10
-27.631406289068
 20
-62.7888538322225
 30
0.0
 11
-27.631406289068
 21
-61.6433994038098
 31
0.0
  0
LINE
  5
   384
  8
0
  6
CONTINUOUS
 62
     7
 10
-27.4277699462391
 20
-62.7888538322225
 30
0.0
 11
-27.4277699462391
 21
-61.6433994038098
 31
0.0
  0
LINE
  5
   385
  8
0
  6
CONTINUOUS
 62
     7
 10
-27.1859517891297
 20
-61.6433994038098
 30
0.0
 11
-27.4277699462391
 21
-61.6433994038098
 31
0.0
  0
LINE
  5
   386
  8
0
  6
CONTINUOUS
 62
     7
 10
-27.1859517891297
 20
-61.4397630609808
 30
0.0
 11
-27.4277699462391
 21
-61.4397630609808
 31
0.0
  0
LINE
  5
   387
  8
0
  6
CONTINUOUS
 62
     7
 10
-27.631406289068
 20
-61.4397630609809
 30
0.0
 11
-27.631406289068
 21
-61.1597630895911
 31
0.0
  0
LINE
  5
   388
  8
0
  6
CONTINUOUS
 62
     7
 10
-27.4277699462391
 20
-61.4397630609809
 30
0.0
 11
-27.4277699462391
 21
-61.1597630895911
 31
0.0
  0
ARC
  5
   389
  8
0
  6
CONTINUOUS
 62
     7
 10
-27.300497231971
 20
-61.1597630895911
 30
0.0
 40
0.330909057097001
 50
449.999999948034
 51
539.999999948034
  0
ARC
  5
   38A
  8
0
  6
CONTINUOUS
 62
     7
 10
-27.300497231971
 20
-61.1597630895911
 30
0.0
 40
0.127272714268077
 50
449.999999948034
 51
539.999999948034
  0
LINE
  5
   38B
  8
0
  6
CONTINUOUS
 62
     7
 10
-27.1859517891297
 20
-61.032490375323
 30
0.0
 11
-27.1859517891297
 21
-60.8288540324941
 31
0.0
  0
LINE
  5
   38C
  8
0
  6
CONTINUOUS
 62
     7
 10
-27.1859517891297
 20
-61.032490375323
 30
0.0
 11
-27.300497231971
 21
-61.032490375323
 31
0.0
  0
INSERT
  5
   38D
  8
255
  6
CONTINUOUS
 62
     7
  2
MOSTRA
 10
-10.670716857911
 20
-71.3379807710634
 30
0.0
 41
0.349999964237213
 42
0.349999964237213
 50
359.999999792138
 43
0.349999964237213
  0
LINE
  5
   38E
  8
0
  6
CONTINUOUS
 62
     1
 10
-37.2707194805148
 20
-74.3129662811756
 30
0.0
 11
-47.3332104414712
 21
-74.3129662811756
 31
0.0
  0
LINE
  5
   38F
  8
0
  6
CONTINUOUS
 62
     1
 10
-37.2707194805148
 20
-74.6629662454129
 30
0.0
 11
-46.3246320533162
 21
-74.6629662454129
 31
0.0
  0
LINE
  5
   390
  8
0
  6
CONTINUOUS
 62
     1
 10
-37.2707194805148
 20
-74.8379638910296
 30
0.0
 11
-47.4207099403124
 21
-74.8379638910296
 31
0.0
  0
TEXT
  5
   391
  8
0
  6
CONTINUOUS
 62
     7
 10
40.7713957242875
 20
-60.9487693252728
 30
0.0
 40
3.00000001532688
  1
=         =
 50
89.9999999480344
 41
0.916666616797451
 72
     1
 11
39.2713957300739
 21
-46.098770054497
 31
0.0
 73
     2
  0
TEXT
  5
   392
  8
0
  6
CONTINUOUS
 62
     7
 10
-25.5107279690575
 20
37.5788507349385
 30
0.0
 40
3.00000001532688
  1
=         =
 50
359.999999948034
 41
0.916666616797451
 72
     1
 11
-10.6607286982873
 21
39.078850729208
 31
0.0
 73
     2
  0
INSERT
  5
   393
  8
0
  6
CONTINUOUS
 62
     7
  2
*UDIM1116
 10
0.0
 20
0.0
 30
0.0
  0
INSERT
  5
   394
  8
0
  6
CONTINUOUS
 62
     7
  2
*UDIM1117
 10
0.0
 20
0.0
 30
0.0
  0
TEXT
  5
   395
  8
0
  6
CONTINUOUS
 62
     7
 10
-54.3320561703487
 20
-53.8194646142346
 30
0.0
 40
3.00000001532688
  1
=     =
 50
89.9999999480344
 41
0.916666616797451
 72
     2
 11
-54.3320561534118
 21
-35.1194655331681
 31
0.0
  0
INSERT
  5
   396
  8
0
  6
CONTINUOUS
 62
     7
  2
*UDIM1118
 10
0.0
 20
0.0
 30
0.0
  0
INSERT
  5
   397
  8
0
  6
CONTINUOUS
 62
     7
  2
*UDIM1119
 10
0.0
 20
0.0
 30
0.0
  0
INSERT
  5
   398
  8
0
  6
CONTINUOUS
 62
     7
  2
*UDIM1120
 10
0.0
 20
0.0
 30
0.0
  0
INSERT
  5
   399
  8
0
  6
CONTINUOUS
 62
     7
  2
*UDIM1121
 10
0.0
 20
0.0
 30
0.0
  0
INSERT
  5
   39A
  8
0
  6
CONTINUOUS
 62
     7
  2
*UDIM1122
 10
0.0
 20
0.0
 30
0.0
  0
TEXT
  5
   39B
  8
0
  6
CONTINUOUS
 62
     7
 10
-25.9923457622458
 20
30.7522851769035
 30
0.0
 40
3.00000001532688
  1
=         =
 50
359.999999948034
 41
0.916666616797451
 72
     2
 11
3.70765277658869
 21
30.7522851501157
 31
0.0
  0
TEXT
  5
   39C
  8
0
  6
CONTINUOUS
 62
     7
 10
-11.722220698779
 20
52.4457141331384
 30
0.0
 40
3.00000001532688
  1
Y
 50
359.999999948034
 41
0.916666616797451
 72
     2
 11
-9.52222080436437
 21
52.4457141311541
 31
0.0
  0
TEXT
  5
   39D
  8
0
  6
CONTINUOUS
 62
     7
 10
51.4790831918604
 20
-47.4248471800917
 30
0.0
 40
3.00000001532688
  1
X
 50
359.999999948034
 41
0.916666616797451
 72
     2
 11
53.679083086275
 21
-47.424847182076
 31
0.0
  0
TEXT
  5
   39E
  8
0
  6
CONTINUOUS
 62
     7
 10
-83.9674849995404
 20
-46.2018553616969
 30
0.0
 40
3.00000001532688
  1
X
 50
359.999999948034
 41
0.916666616797451
 72
     2
 11
-81.7674851051258
 21
-46.2018553636812
 31
0.0
  0
TEXT
  5
   39F
  8
0
  6
CONTINUOUS
 62
     7
 10
-11.3979415581231
 20
-139.175951593099
 30
0.0
 40
3.00000001532688
  1
Y
 50
359.999999948034
 41
0.916666616797451
 72
     2
 11
-9.19794166370847
 21
-139.175951595083
 31
0.0
  0
LINE
  5
   3A0
  8
0
  6
CONTINUOUS
 62
   130
 10
69.3734416443932
 20
28.0620176034822
 30
0.0
 11
69.3734426457511
 21
1.28702033933537
 31
0.0
  0
LINE
  5
   3A1
  8
0
  6
CONTINUOUS
 62
   130
 10
102.448418015247
 20
1.28700021398274
 30
0.0
 11
102.448418865219
 21
2.70744193374341
 31
0.0
  0
LINE
  5
   3A2
  8
0
  6
CONTINUOUS
 62
   130
 10
70.4234351584683
 20
-38.7879739732293
 30
0.0
 11
70.6859354626806
 21
-38.7176386032537
 31
0.0
  0
LINE
  5
   3A3
  8
0
  6
CONTINUOUS
 62
   130
 10
68.8484420776367
 20
-71.3379808905848
 30
0.0
 11
103.848417139061
 21
-71.3379669189422
 31
0.0
  0
LINE
  5
   3A4
  8
0
  6
CONTINUOUS
 62
   130
 10
103.848406458025
 20
-34.587954652073
 30
0.0
 11
103.8484117986
 21
-36.337954473259
 31
0.0
  0
LINE
  5
   3A5
  8
0
  6
CONTINUOUS
 62
   130
 10
103.848406457907
 20
-40.8879425294253
 30
0.0
 11
103.848411798481
 21
-71.3379714615166
 31
0.0
  0
LINE
  5
   3A6
  8
0
  6
CONTINUOUS
 62
   130
 10
69.373442405714
 20
1.28701499325616
 30
0.0
 11
69.3734434070719
 21
-35.9159368328099
 31
0.0
  0
LINE
  5
   3A7
  8
0
  6
CONTINUOUS
 62
   130
 10
69.3734427259761
 20
-55.587968540544
 30
0.0
 11
69.373443059762
 21
-41.3099609662591
 31
0.0
  0
LINE
  5
   3A8
  8
0
  6
CONTINUOUS
 62
   130
 10
69.3734426005326
 20
-60.8379699399251
 30
0.0
 11
69.3734436018901
 21
-70.4629689564485
 31
0.0
  0
LINE
  5
   3A9
  8
0
  6
CONTINUOUS
 62
   130
 10
69.3734436929224
 20
-70.4629686772822
 30
0.0
 11
69.7234413206578
 21
-70.4629686772822
 31
0.0
  0
LINE
  5
   3AA
  8
0
  6
CONTINUOUS
 62
   130
 10
69.7234416544438
 20
-41.2161857865658
 30
0.0
 11
69.7234416544438
 21
-38.7879755854601
 31
0.0
  0
LINE
  5
   3AB
  8
0
  6
CONTINUOUS
 62
   130
 10
69.7234416544438
 20
-36.5129704773426
 30
0.0
 11
69.7234416544438
 21
-36.0097387172391
 31
0.0
  0
LINE
  5
   3AC
  8
0
  6
CONTINUOUS
 62
   130
 10
68.8484420776367
 20
-55.5879685282707
 30
0.0
 11
69.3734430253505
 21
-55.5879685282707
 31
0.0
  0
LINE
  5
   3AD
  8
0
  6
CONTINUOUS
 62
   130
 10
68.8484420776367
 20
-60.8379679918289
 30
0.0
 11
69.3734426915645
 21
-60.8379679918289
 31
0.0
  0
LINE
  5
   3AE
  8
0
  6
CONTINUOUS
 62
   130
 10
68.8484420776367
 20
-60.8379679918289
 30
0.0
 11
68.8484420776367
 21
-55.5879685282707
 31
0.0
  0
LINE
  5
   3AF
  8
0
  6
CONTINUOUS
 62
   130
 10
70.4234351584683
 20
-38.7879739732293
 30
0.0
 11
70.6859354626806
 21
-38.7176386032537
 31
0.0
  0
LINE
  5
   3B0
  8
0
  6
CONTINUOUS
 62
   130
 10
70.6859384662514
 20
-38.7176472925722
 30
0.0
 11
70.8781017199064
 21
-38.5254827106642
 31
0.0
  0
LINE
  5
   3B1
  8
0
  6
CONTINUOUS
 62
   130
 10
70.8781054109221
 20
-38.5254798247166
 30
0.0
 11
70.9484251019465
 21
-38.2629958818465
 31
0.0
  0
LINE
  5
   3B2
  8
0
  6
CONTINUOUS
 62
   130
 10
70.9484241724018
 20
-38.2629714429182
 30
0.0
 11
70.9484248399738
 21
-37.037971568088
 31
0.0
  0
LINE
  5
   3B3
  8
0
  6
CONTINUOUS
 62
   130
 10
70.8780977865858
 20
-36.7754785438627
 30
0.0
 11
70.9484228114589
 21
-37.0379785095919
 31
0.0
  0
LINE
  5
   3B4
  8
0
  6
CONTINUOUS
 62
   130
 10
70.6859339721231
 20
-36.5833166121668
 30
0.0
 11
70.878097228452
 21
-36.775475851396
 31
0.0
  0
LINE
  5
   3B5
  8
0
  6
CONTINUOUS
 62
   130
 10
70.4234363148092
 20
-36.512978016034
 30
0.0
 11
70.6859362860623
 21
-36.5833187314157
 31
0.0
  0
LINE
  5
   3B6
  8
0
  6
CONTINUOUS
 62
   130
 10
69.7234416544438
 20
-36.5129704773426
 30
0.0
 11
70.4234365761286
 21
-36.5129704773426
 31
0.0
  0
LINE
  5
   3B7
  8
0
  6
CONTINUOUS
 62
   130
 10
69.7234416544438
 20
-38.7879702448845
 30
0.0
 11
70.4234365761286
 21
-38.7879702448845
 31
0.0
  0
LINE
  5
   3B8
  8
0
  6
CONTINUOUS
 62
   130
 10
102.448417412362
 20
-34.5879863570892
 30
0.0
 11
102.448426738818
 21
28.0619365762405
 31
0.0
  0
LINE
  5
   3B9
  8
0
  6
CONTINUOUS
 62
   130
 10
102.448417282107
 20
-34.5879813551892
 30
0.0
 11
103.848406457904
 21
-34.5879813551892
 31
0.0
  0
LINE
  5
   3BA
  8
0
  6
CONTINUOUS
 62
   130
 10
102.448409470231
 20
-17.4630819169901
 30
0.0
 11
102.623414787634
 21
-17.416191666798
 31
0.0
  0
LINE
  5
   3BB
  8
0
  6
CONTINUOUS
 62
   130
 10
102.448405350222
 20
-20.2128190701586
 30
0.0
 11
102.623416012241
 21
-20.2597146550971
 31
0.0
  0
LINE
  5
   3BC
  8
0
  6
CONTINUOUS
 62
   130
 10
69.7234410482294
 20
-70.4629687386398
 30
0.0
 11
93.5234386163599
 21
-70.4629704075685
 31
0.0
  0
LINE
  5
   3BD
  8
0
  6
CONTINUOUS
 62
   130
 10
93.5234395563602
 20
-71.3379650351308
 30
0.0
 11
93.5234395563602
 21
-70.4629704651134
 31
0.0
  0
LINE
  5
   3BE
  8
0
  6
CONTINUOUS
 62
   130
 10
72.254631163721
 20
-36.6879514260636
 30
0.0
 11
103.498408488829
 21
-36.6879727883655
 31
0.0
  0
LINE
  5
   3BF
  8
0
  6
CONTINUOUS
 62
   130
 10
72.2546281975755
 20
-40.5379510326718
 30
0.0
 11
103.498405522683
 21
-40.5379723949737
 31
0.0
  0
LINE
  5
   3C0
  8
0
  6
CONTINUOUS
 62
   130
 10
69.3734451690214
 20
-35.9159408684897
 30
0.0
 11
69.7234416544438
 21
-36.009722188093
 31
0.0
  0
LINE
  5
   3C1
  8
0
  6
CONTINUOUS
 62
   130
 10
69.3734379891715
 20
-41.30996540113
 30
0.0
 11
69.7234416544438
 21
-41.2161820928975
 31
0.0
  0
LINE
  5
   3C2
  8
0
  6
CONTINUOUS
 62
   130
 10
103.498432691622
 20
-36.6879536763831
 30
0.0
 11
103.848421963928
 21
-36.3379590641953
 31
0.0
  0
LINE
  5
   3C3
  8
0
  6
CONTINUOUS
 62
   130
 10
103.49840839362
 20
-40.5379675067023
 30
0.0
 11
103.848408345877
 21
-40.8879674589595
 31
0.0
  0
LINE
  5
   3C4
  8
0
  6
CONTINUOUS
 62
   130
 10
102.623502713435
 20
-0.812963443995613
 30
0.0
 11
102.623502713435
 21
28.0619361263132
 31
0.0
  0
LINE
  5
   3C5
  8
0
  6
CONTINUOUS
 62
     1
 10
102.623502713435
 20
28.0619374752132
 30
0.0
 11
103.848481225963
 21
28.0619374752132
 31
0.0
  0
LINE
  5
   3C6
  8
0
  6
CONTINUOUS
 62
   130
 10
116.973522609464
 20
-0.462979501485279
 30
0.0
 11
117.148367714889
 21
-0.462979501485279
 31
0.0
  0
LINE
  5
   3C7
  8
0
  6
CONTINUOUS
 62
     1
 10
112.773512357466
 20
28.0619374752132
 30
0.0
 11
113.823522931329
 21
28.0619374752132
 31
0.0
  0
LINE
  5
   3C8
  8
0
  6
CONTINUOUS
 62
   130
 10
117.323522074369
 20
27.6244316638513
 30
0.0
 11
117.32354343667
 21
-0.462953314096936
 31
0.0
  0
LINE
  5
   3C9
  8
0
  6
CONTINUOUS
 62
   130
 10
116.273437231779
 20
-0.81296894359447
 30
0.0
 11
116.973517598192
 21
-0.81294758166932
 31
0.0
  0
LINE
  5
   3CA
  8
0
  6
CONTINUOUS
 62
   130
 10
115.11842560053
 20
-0.812963443995613
 30
0.0
 11
116.273437231779
 21
-0.812963443995613
 31
0.0
  0
LINE
  5
   3CB
  8
0
  6
CONTINUOUS
 62
     1
 10
113.823522931329
 20
28.0619374752132
 30
0.0
 11
116.4484585762
 21
28.0619374752132
 31
0.0
  0
LINE
  5
   3CC
  8
0
  6
CONTINUOUS
 62
   130
 10
103.848481225963
 20
28.0619374752132
 30
0.0
 11
112.773512357466
 21
28.0619374752132
 31
0.0
  0
LINE
  5
   3CD
  8
0
  6
CONTINUOUS
 62
   130
 10
116.973522609464
 20
-0.462952798607148
 30
0.0
 11
117.323543936003
 21
-0.462952798607148
 31
0.0
  0
LINE
  5
   3CE
  8
0
  6
CONTINUOUS
 62
   130
 10
116.973522609464
 20
-0.812947422268735
 30
0.0
 11
116.973522609464
 21
-0.462952798607148
 31
0.0
  0
LINE
  5
   3CF
  8
0
  6
CONTINUOUS
 62
     1
 10
116.885971902529
 20
28.0618156308088
 30
0.0
 11
117.195330084297
 21
27.9336418285406
 31
0.0
  0
LINE
  5
   3D0
  8
0
  6
CONTINUOUS
 62
     1
 10
117.19539643261
 20
27.9337134967669
 30
0.0
 11
117.323538203359
 21
27.6243873700673
 31
0.0
  0
LINE
  5
   3D1
  8
0
  6
CONTINUOUS
 62
   130
 10
102.973524039975
 20
-0.462947458031522
 30
0.0
 11
102.973524039975
 21
28.0619374752132
 31
0.0
  0
LINE
  5
   3D2
  8
0
  6
CONTINUOUS
 62
   130
 10
102.973519033198
 20
-0.462949794558114
 30
0.0
 11
116.973517602687
 21
-0.462955135133427
 31
0.0
  0
LINE
  5
   3D3
  8
0
  6
CONTINUOUS
 62
   130
 10
116.973431819678
 20
-74.662963908911
 30
0.0
 11
116.973431819678
 21
-74.3129662811756
 31
0.0
  0
LINE
  5
   3D4
  8
0
  6
CONTINUOUS
 62
   130
 10
115.573426838839
 20
-0.987979048734445
 30
0.0
 11
115.573432179411
 21
-74.312966215855
 31
0.0
  0
LINE
  5
   3D5
  8
0
  6
CONTINUOUS
 62
   130
 10
115.223426898943
 20
-0.987976753770624
 30
0.0
 11
115.223432239515
 21
-74.6629638851284
 31
0.0
  0
LINE
  5
   3D6
  8
0
  6
CONTINUOUS
 62
   130
 10
115.223426657916
 20
-0.987974107265472
 30
0.0
 11
115.573426838839
 21
-0.987974107265472
 31
0.0
  0
LINE
  5
   3D7
  8
0
  6
CONTINUOUS
 62
   130
 10
115.223431998492
 20
-74.662963908911
 30
0.0
 11
115.923437267542
 21
-74.662963908911
 31
0.0
  0
LINE
  5
   3D8
  8
0
  6
CONTINUOUS
 62
   130
 10
115.573426838839
 20
-0.987974107265472
 30
0.0
 11
117.323431783915
 21
-0.987974107265472
 31
0.0
  0
LINE
  5
   3D9
  8
0
  6
CONTINUOUS
 62
   130
 10
117.323431783915
 20
-74.3129662811756
 30
0.0
 11
117.323431783915
 21
-66.262977784871
 31
0.0
  0
LINE
  5
   3DA
  8
0
  6
CONTINUOUS
 62
   130
 10
117.323431783915
 20
-29.5129925549008
 30
0.0
 11
117.323431783915
 21
-0.987979447841099
 31
0.0
  0
LINE
  5
   3DB
  8
0
  6
CONTINUOUS
 62
   130
 10
117.935928081369
 20
-29.513000744914
 30
0.0
 11
118.02342272951
 21
-29.6005007328973
 31
0.0
  0
LINE
  5
   3DC
  8
0
  6
CONTINUOUS
 62
   130
 10
117.935920249241
 20
-66.2629762061731
 30
0.0
 11
118.023420237305
 21
-66.175475886202
 31
0.0
  0
LINE
  5
   3DD
  8
0
  6
CONTINUOUS
 62
   130
 10
118.02343171239
 20
-66.175472787022
 30
0.0
 11
118.02343171239
 21
-29.6004978865358
 31
0.0
  0
LINE
  5
   3DE
  8
0
  6
CONTINUOUS
 62
   130
 10
115.573431962729
 20
-74.3129662811756
 30
0.0
 11
116.973431819678
 21
-74.3129662811756
 31
0.0
  0
LINE
  5
   3DF
  8
0
  6
CONTINUOUS
 62
   130
 10
103.848417139056
 20
-40.8879967331859
 30
0.0
 11
103.848417139056
 21
-36.3380078792534
 31
0.0
  0
LINE
  5
   3E0
  8
0
  6
CONTINUOUS
 62
   130
 10
103.848417139056
 20
-34.5880133986429
 30
0.0
 11
103.848417139056
 21
-34.2380080938301
 31
0.0
  0
LINE
  5
   3E1
  8
0
  6
CONTINUOUS
 62
   130
 10
103.848417139056
 20
-71.3379669189451
 30
0.0
 11
115.223431998492
 21
-71.3379669189451
 31
0.0
  0
LINE
  5
   3E2
  8
0
  6
CONTINUOUS
 62
   130
 10
116.273437231779
 20
-0.987974107265472
 30
0.0
 11
116.273437231779
 21
-0.812979465722492
 31
0.0
  0
LINE
  5
   3E3
  8
0
  6
CONTINUOUS
 62
   130
 10
102.623417264225
 20
-34.2379707098007
 30
0.0
 11
102.623417264225
 21
-0.812974125146866
 31
0.0
  0
LINE
  5
   3E4
  8
0
  6
CONTINUOUS
 62
   130
 10
102.623417264225
 20
-34.2379707098007
 30
0.0
 11
103.848417139056
 21
-34.2379707098007
 31
0.0
  0
LINE
  5
   3E5
  8
0
  6
CONTINUOUS
 62
   130
 10
102.623417264225
 20
-0.812974125146866
 30
0.0
 11
103.848417139056
 21
-0.812974125146866
 31
0.0
  0
LINE
  5
   3E6
  8
0
  6
CONTINUOUS
 62
   130
 10
103.848413175048
 20
-0.812974689015093
 30
0.0
 11
115.118426977098
 21
-0.812980029590221
 31
0.0
  0
LINE
  5
   3E7
  8
0
  6
CONTINUOUS
 62
   130
 10
115.118430941106
 20
-16.8254671484237
 30
0.0
 11
115.118430941106
 21
-0.812979465722492
 31
0.0
  0
LINE
  5
   3E8
  8
0
  6
CONTINUOUS
 62
   130
 10
115.11841491938
 20
-71.3379709211274
 30
0.0
 11
115.118430941105
 21
-20.8504707393338
 31
0.0
  0
LINE
  5
   3E9
  8
0
  6
CONTINUOUS
 62
   130
 10
115.11842560053
 20
-9.91297319531441
 30
0.0
 11
115.223426657916
 21
-9.91297319531441
 31
0.0
  0
LINE
  5
   3EA
  8
0
  6
CONTINUOUS
 62
   130
 10
115.11842560053
 20
-11.3129730522633
 30
0.0
 11
115.223426657916
 21
-11.3129730522633
 31
0.0
  0
LINE
  5
   3EB
  8
0
  6
CONTINUOUS
 62
   130
 10
103.848417139056
 20
-70.4629670083523
 30
0.0
 11
115.118430941106
 21
-70.4629670083523
 31
0.0
  0
LINE
  5
   3EC
  8
0
  6
CONTINUOUS
 62
   130
 10
113.473416155579
 20
-16.8254671484237
 30
0.0
 11
115.223431998492
 21
-16.8254671484237
 31
0.0
  0
LINE
  5
   3ED
  8
0
  6
CONTINUOUS
 62
   130
 10
113.473416155579
 20
-20.8504667371517
 30
0.0
 11
113.473416155579
 21
-16.8254671484237
 31
0.0
  0
LINE
  5
   3EE
  8
0
  6
CONTINUOUS
 62
   130
 10
113.473416155579
 20
-20.8504667371517
 30
0.0
 11
115.223426657916
 21
-20.8504667371517
 31
0.0
  0
LINE
  5
   3EF
  8
0
  6
CONTINUOUS
 62
   130
 10
118.02343171239
 20
-66.2629731118673
 30
0.0
 11
118.02343171239
 21
-66.175473120808
 31
0.0
  0
LINE
  5
   3F0
  8
0
  6
CONTINUOUS
 62
   130
 10
118.023431179446
 20
-29.6005130197203
 30
0.0
 11
118.023436520021
 21
-29.5129916663585
 31
0.0
  0
LINE
  5
   3F1
  8
0
  6
CONTINUOUS
 62
   130
 10
122.398436605929
 20
-62.2379581386338
 30
0.0
 11
122.398436605929
 21
-59.1754744732851
 31
0.0
  0
LINE
  5
   3F2
  8
0
  6
CONTINUOUS
 62
   130
 10
122.398436605929
 20
-28.2004936600186
 30
0.0
 11
122.398436605929
 21
-27.6754937136628
 31
0.0
  0
LINE
  5
   3F3
  8
0
  6
CONTINUOUS
 62
   130
 10
117.935926380755
 20
-66.2629731118673
 30
0.0
 11
118.02343171239
 21
-66.2629731118673
 31
0.0
  0
LINE
  5
   3F4
  8
0
  6
CONTINUOUS
 62
   130
 10
68.8484420776367
 20
21.0619381904689
 30
0.0
 11
69.3734420239925
 21
21.0619381904689
 31
0.0
  0
LINE
  5
   3F5
  8
0
  6
CONTINUOUS
 62
   130
 10
68.8484420776367
 20
25.2619377613155
 30
0.0
 11
69.3734420239925
 21
25.2619377613155
 31
0.0
  0
LINE
  5
   3F6
  8
0
  6
CONTINUOUS
 62
   130
 10
70.9484168930369
 20
-40.3629556502053
 30
0.0
 11
71.928078369434
 21
-40.6254609228744
 31
0.0
  0
LINE
  5
   3F7
  8
0
  6
CONTINUOUS
 62
   130
 10
70.9484099887511
 20
-40.3629520580573
 30
0.0
 11
70.9484240077608
 21
-38.2629736349366
 31
0.0
  0
LINE
  5
   3F8
  8
0
  6
CONTINUOUS
 62
   130
 10
70.9484134335775
 20
-36.8629516230838
 30
0.0
 11
70.9484247823006
 21
-37.0379729675049
 31
0.0
  0
LINE
  5
   3F9
  8
0
  6
CONTINUOUS
 62
   130
 10
70.9484042022654
 20
-36.8629639257846
 30
0.0
 11
71.9280676937391
 21
-36.6004693445969
 31
0.0
  0
LINE
  5
   3FA
  8
0
  6
CONTINUOUS
 62
     1
 10
116.4484585762
 20
28.0619374752132
 30
0.0
 11
116.886022618404
 21
28.0619374752132
 31
0.0
  0
LINE
  5
   3FB
  8
0
  6
CONTINUOUS
 62
   130
 10
116.973431819678
 20
-74.3129662811756
 30
0.0
 11
117.323431783915
 21
-74.3129662811756
 31
0.0
  0
LINE
  5
   3FC
  8
0
  6
CONTINUOUS
 62
   130
 10
117.323431783915
 20
-29.5129925549008
 30
0.0
 11
117.935937061906
 21
-29.5129925549008
 31
0.0
  0
LINE
  5
   3FD
  8
0
  6
CONTINUOUS
 62
   130
 10
117.323431783915
 20
-66.2629731118673
 30
0.0
 11
117.93593172133
 21
-66.2629731118673
 31
0.0
  0
LINE
  5
   3FE
  8
0
  6
CONTINUOUS
 62
   130
 10
115.923437267542
 20
-88.6629603284595
 30
0.0
 11
115.923437267542
 21
-88.4879624962809
 31
0.0
  0
LINE
  5
   3FF
  8
0
  6
CONTINUOUS
 62
   130
 10
117.323437124491
 20
-114.037957735657
 30
0.0
 11
117.323437124491
 21
-89.0129602926967
 31
0.0
  0
LINE
  5
   400
  8
0
  6
CONTINUOUS
 62
   130
 10
115.923437267542
 20
-114.037957735657
 30
0.0
 11
117.323437124491
 21
-114.037957735657
 31
0.0
  0
LINE
  5
   401
  8
0
  6
CONTINUOUS
 62
   130
 10
104.023438483477
 20
-88.6629603284595
 30
0.0
 11
115.923437267542
 21
-88.6629603284595
 31
0.0
  0
LINE
  5
   402
  8
0
  6
CONTINUOUS
 62
   130
 10
117.323437124491
 20
-88.4879624962809
 30
0.0
 11
117.323437124491
 21
-74.8379638910296
 31
0.0
  0
LINE
  5
   403
  8
0
  6
CONTINUOUS
 62
   130
 10
104.023438483477
 20
-114.037962486019
 30
0.0
 11
104.023438483477
 21
-88.6629603284595
 31
0.0
  0
LINE
  5
   404
  8
0
  6
CONTINUOUS
 62
   130
 10
104.023438483477
 20
-89.0129602926967
 30
0.0
 11
117.323437124491
 21
-89.0129602926967
 31
0.0
  0
LINE
  5
   405
  8
0
  6
CONTINUOUS
 62
   130
 10
116.973437160254
 20
-89.0129602926967
 30
0.0
 11
116.973437160254
 21
-88.6629603284595
 31
0.0
  0
LINE
  5
   406
  8
0
  6
CONTINUOUS
 62
   130
 10
115.223431998492
 20
-74.8379638910296
 30
0.0
 11
115.573431962729
 21
-74.8379638910296
 31
0.0
  0
LINE
  5
   407
  8
0
  6
CONTINUOUS
 62
   130
 10
115.223431998492
 20
-88.4879624962809
 30
0.0
 11
115.573431962729
 21
-88.4879624962809
 31
0.0
  0
LINE
  5
   408
  8
0
  6
CONTINUOUS
 62
   130
 10
115.223431998492
 20
-88.4879624962809
 30
0.0
 11
115.223431998492
 21
-74.8379638910296
 31
0.0
  0
LINE
  5
   409
  8
0
  6
CONTINUOUS
 62
   130
 10
115.573431962729
 20
-88.4879624962809
 30
0.0
 11
115.573431962729
 21
-74.8379638910296
 31
0.0
  0
LINE
  5
   40A
  8
0
  6
CONTINUOUS
 62
   130
 10
115.923437267542
 20
-74.8379638910296
 30
0.0
 11
115.923437267542
 21
-74.662963908911
 31
0.0
  0
LINE
  5
   40B
  8
0
  6
CONTINUOUS
 62
   130
 10
104.198438465595
 20
-114.037962486019
 30
0.0
 11
104.198438465595
 21
-89.0129602926967
 31
0.0
  0
LINE
  5
   40C
  8
0
  6
CONTINUOUS
 62
   130
 10
68.8484420776367
 20
-121.087844737152
 30
0.0
 11
68.8484420776367
 21
34.2704366152974
 31
0.0
  0
LINE
  5
   40D
  8
0
  6
CONTINUOUS
 62
   130
 10
67.7984421849251
 20
-121.087844737152
 30
0.0
 11
67.7984421849251
 21
34.4765566363898
 31
0.0
  0
LINE
  5
   40E
  8
0
  6
CONTINUOUS
 62
   130
 10
115.923437267542
 20
-88.6629603284595
 30
0.0
 11
116.973437160254
 21
-88.6629603284595
 31
0.0
  0
LINE
  5
   40F
  8
0
  6
CONTINUOUS
 62
   130
 10
115.923437267542
 20
-74.662963908911
 30
0.0
 11
116.973431819678
 21
-74.662963908911
 31
0.0
  0
LINE
  5
   410
  8
0
  6
CONTINUOUS
 62
   130
 10
115.573431962729
 20
-74.8379638910296
 30
0.0
 11
117.323437124491
 21
-74.8379638910296
 31
0.0
  0
LINE
  5
   411
  8
0
  6
CONTINUOUS
 62
   130
 10
115.573431962729
 20
-88.4879624962809
 30
0.0
 11
117.323437124491
 21
-88.4879624962809
 31
0.0
  0
LINE
  5
   412
  8
0
  6
CONTINUOUS
 62
   130
 10
69.7234416544438
 20
-36.009722188093
 30
0.0
 11
72.2546324842623
 21
-36.6879530449023
 31
0.0
  0
LINE
  5
   413
  8
0
  6
CONTINUOUS
 62
   130
 10
69.7234416544438
 20
-41.2161820928975
 30
0.0
 11
72.2546230475249
 21
-40.5379532960787
 31
0.0
  0
LINE
  5
   414
  8
0
  6
CONTINUOUS
 62
   130
 10
68.8484420776367
 20
-114.037976527528
 30
0.0
 11
115.923437267542
 21
-114.037957735657
 31
0.0
  0
LINE
  5
   415
  8
0
  6
CONTINUOUS
 62
   130
 10
69.3734414579173
 20
28.0620215755569
 30
0.0
 11
102.623480785058
 21
28.0619361263695
 31
0.0
  0
LINE
  5
   416
  8
0
  6
CONTINUOUS
 62
     1
 10
66.2266225451248
 20
34.7851123796408
 30
0.0
 11
70.2910455006638
 21
33.9872466359019
 31
0.0
  0
LINE
  5
   417
  8
0
  6
CONTINUOUS
 62
     1
 10
66.8463450794972
 20
-121.087844737152
 30
0.0
 11
69.9063471401429
 21
-121.087844737152
 31
0.0
  0
LINE
  5
   418
  8
0
  6
DASHDOT
 62
     2
 10
63.7883414394124
 20
-45.8753326489754
 30
0.0
 11
142.619536083271
 21
-45.8755513526452
 31
0.0
  0
LINE
  5
   419
  8
0
  6
CONTINUOUS
 62
   212
 10
117.323431783915
 20
-21.3754836762214
 30
0.0
 11
132.548232901023
 21
-21.3755259148287
 31
0.0
  0
LINE
  5
   41A
  8
0
  6
CONTINUOUS
 62
   212
 10
117.323431783915
 20
-70.3754786696198
 30
0.0
 11
132.548230958993
 21
-70.3755209082218
 31
0.0
  0
LINE
  5
   41B
  8
0
  6
CONTINUOUS
 62
     7
 10
122.398436605929
 20
-70.3754927493529
 30
0.0
 11
122.398436605929
 21
-21.3754977559545
 31
0.0
  0
LINE
  5
   41C
  8
0
  6
CONTINUOUS
 62
   212
 10
132.898231894245
 20
-26.8027191712642
 30
0.0
 11
132.898231894245
 21
-21.7255258790646
 31
0.0
  0
LINE
  5
   41D
  8
0
  6
CONTINUOUS
 62
   212
 10
132.898124074833
 20
-21.9005435901998
 30
0.0
 11
132.898233556631
 21
-22.4253352540996
 31
0.0
  0
LINE
  5
   41E
  8
0
  6
CONTINUOUS
 62
     7
 10
115.118247154697
 20
-9.74011313218386
 30
0.0
 11
115.223247043832
 21
-9.74011313218386
 31
0.0
  0
LINE
  5
   41F
  8
0
  6
CONTINUOUS
 62
     7
 10
117.585746680065
 20
-23.740111161128
 30
0.0
 11
117.647618510415
 21
-23.76574058369
 31
0.0
  0
LINE
  5
   420
  8
0
  6
CONTINUOUS
 62
     7
 10
117.647619001168
 20
-23.7657428483386
 30
0.0
 11
117.673247162337
 21
-23.8276134155388
 31
0.0
  0
LINE
  5
   421
  8
0
  6
CONTINUOUS
 62
     7
 10
117.647618287867
 20
-60.4644808157995
 30
0.0
 11
117.673246407132
 21
-60.4026089135271
 31
0.0
  0
LINE
  5
   422
  8
0
  6
CONTINUOUS
 62
   212
 10
132.898231894245
 20
-70.0255209439859
 30
0.0
 11
132.898231894245
 21
-45.1022602919377
 31
0.0
  0
ARC
  5
   423
  8
0
  6
CONTINUOUS
 62
   212
 10
132.548231930008
 20
-70.0255209439859
 30
0.0
 40
0.349999964237213
 50
269.999841042657
 51
360.0
  0
ARC
  5
   424
  8
0
  6
CONTINUOUS
 62
   212
 10
132.548231930008
 20
-21.7255258790646
 30
0.0
 40
0.349999964237213
 50
0.0
 51
89.999841042657
  0
LINE
  5
   425
  8
0
  6
CONTINUOUS
 62
     7
 10
122.398436605929
 20
-70.3754927493529
 30
0.0
 11
122.398436605929
 21
-21.3754977559545
 31
0.0
  0
LINE
  5
   426
  8
0
  6
CONTINUOUS
 62
     1
 10
130.973232090941
 20
-62.2380334785536
 30
0.0
 11
130.973232090941
 21
-61.5380335500792
 31
0.0
  0
LINE
  5
   427
  8
0
  6
CONTINUOUS
 62
     1
 10
130.973232090941
 20
-73.8755161810289
 30
0.0
 11
131.673232019415
 21
-73.8755161810289
 31
0.0
  0
LINE
  5
   428
  8
0
  6
CONTINUOUS
 62
     1
 10
130.973232090941
 20
-24.4380386760785
 30
0.0
 11
130.973232090941
 21
-23.7380387476041
 31
0.0
  0
LINE
  5
   429
  8
0
  6
CONTINUOUS
 62
     1
 10
130.973232090941
 20
-17.8755238449163
 30
0.0
 11
131.673232019415
 21
-17.8755238449163
 31
0.0
  0
LINE
  5
   42A
  8
0
  6
CONTINUOUS
 62
     1
 10
130.973232090941
 20
-61.5380335500792
 30
0.0
 11
130.973232090941
 21
-24.4380373409346
 31
0.0
  0
LINE
  5
   42B
  8
0
  6
CONTINUOUS
 62
     1
 10
131.673232019415
 20
-71.1630339017464
 30
0.0
 11
131.673232019415
 21
-14.8130396595551
 31
0.0
  0
LINE
  5
   42C
  8
0
  6
CONTINUOUS
 62
     1
 10
131.673232019415
 20
-82.8005152690778
 30
0.0
 11
132.898231894245
 21
-82.8005152690778
 31
0.0
  0
LINE
  5
   42D
  8
0
  6
CONTINUOUS
 62
     1
 10
132.898231894245
 20
-82.8005152690778
 30
0.0
 11
132.898231894245
 21
-8.95052475686735
 31
0.0
  0
LINE
  5
   42E
  8
0
  6
CONTINUOUS
 62
     1
 10
131.673232019415
 20
-8.95052475686735
 30
0.0
 11
132.198231965771
 21
-8.95052475686735
 31
0.0
  0
LINE
  5
   42F
  8
0
  6
CONTINUOUS
 62
     1
 10
132.548231930008
 20
-8.95052475686735
 30
0.0
 11
132.898231894245
 21
-8.95052475686735
 31
0.0
  0
LINE
  5
   430
  8
0
  6
CONTINUOUS
 62
     1
 10
132.198231965771
 20
-8.95052475686735
 30
0.0
 11
132.548231930008
 21
-8.95052475686735
 31
0.0
  0
LINE
  5
   431
  8
0
  6
CONTINUOUS
 62
     7
 10
131.673232019415
 20
-14.8130396595551
 30
0.0
 11
131.673232019415
 21
10.6320593047555
 31
0.0
  0
LINE
  5
   432
  8
0
  6
CONTINUOUS
 62
     7
 10
131.673232019415
 20
-104.919599031692
 30
0.0
 11
131.673232019415
 21
-71.1630325666025
 31
0.0
  0
LINE
  5
   433
  8
0
  6
CONTINUOUS
 62
     7
 10
128.529095305787
 20
-105.833592262398
 30
0.0
 11
134.117879436505
 21
-104.208945712771
 31
0.0
  0
LINE
  5
   434
  8
0
  6
CONTINUOUS
 62
     7
 10
129.243939787623
 20
12.1807331025229
 30
0.0
 11
134.44280874643
 21
8.86645414128338
 31
0.0
  0
LINE
  5
   435
  8
0
  6
CONTINUOUS
 62
     7
 10
130.973232090941
 20
-74.2255161452661
 30
0.0
 11
131.673232019415
 21
-74.2255161452661
 31
0.0
  0
LINE
  5
   436
  8
0
  6
CONTINUOUS
 62
     7
 10
130.973232090941
 20
-17.5255238806791
 30
0.0
 11
131.673232019415
 21
-17.5255238806791
 31
0.0
  0
LINE
  5
   437
  8
0
  6
CONTINUOUS
 62
     7
 10
130.973232090941
 20
-23.7380387476041
 30
0.0
 11
130.973232090941
 21
11.0783092591579
 31
0.0
  0
LINE
  5
   438
  8
0
  6
CONTINUOUS
 62
     7
 10
130.973232090941
 20
-105.123087382993
 30
0.0
 11
130.973232090941
 21
-62.2380334785536
 31
0.0
  0
INSERT
  5
   439
  8
0
  6
CONTINUOUS
 62
     7
  2
*HATCH413
 10
68.8484420776367
 20
-71.3379669189453
 30
0.0
 41
0.349999964237213
 42
0.349999964237213
 43
0.349999964237213
  0
INSERT
  5
   43A
  8
0
  6
CONTINUOUS
 62
     7
  2
*HATCH414
 10
68.8484420776367
 20
-71.3379669189453
 30
0.0
 41
0.349999964237213
 42
0.349999964237213
 43
0.349999964237213
  0
LINE
  5
   43B
  8
0
  6
CONTINUOUS
 62
     7
 10
132.898231894245
 20
-41.150496698449
 30
0.0
 11
134.648231715431
 21
-41.150496698449
 31
0.0
  0
LINE
  5
   43C
  8
0
  6
CONTINUOUS
 62
     7
 10
132.898231894245
 20
-50.6004944056169
 30
0.0
 11
134.648231715431
 21
-50.6004944056169
 31
0.0
  0
LINE
  5
   43D
  8
0
  6
CONTINUOUS
 62
     7
 10
134.648231715431
 20
-50.6004944056169
 30
0.0
 11
134.648231715431
 21
-41.150496698449
 31
0.0
  0
LINE
  5
   43E
  8
0
  6
CONTINUOUS
 62
     7
 10
127.648233098259
 20
-20.8505215988843
 30
0.0
 11
128.523235011568
 21
-20.8505215988843
 31
0.0
  0
LINE
  5
   43F
  8
0
  6
CONTINUOUS
 62
     7
 10
127.648233098259
 20
-20.8505215988843
 30
0.0
 11
127.648233098259
 21
-17.1755219743936
 31
0.0
  0
LINE
  5
   440
  8
0
  6
CONTINUOUS
 62
     7
 10
128.873234975805
 20
-15.9505220995633
 30
0.0
 11
129.748234886398
 21
-15.9505220995633
 31
0.0
  0
LINE
  5
   441
  8
0
  6
CONTINUOUS
 62
     7
 10
130.098234850635
 20
-15.6005221353261
 30
0.0
 11
130.098234850635
 21
-12.8005224214284
 31
0.0
  0
LINE
  5
   442
  8
0
  6
CONTINUOUS
 62
     7
 10
130.098234850635
 20
-12.8005224214284
 30
0.0
 11
130.973232090941
 21
-12.8005224214284
 31
0.0
  0
LINE
  5
   443
  8
0
  6
CONTINUOUS
 62
     7
 10
130.973232090941
 20
-15.6005221353261
 30
0.0
 11
130.973232090941
 21
-12.8005224214284
 31
0.0
  0
LINE
  5
   444
  8
0
  6
CONTINUOUS
 62
     7
 10
128.873234975805
 20
-16.8255220101563
 30
0.0
 11
129.748234886398
 21
-16.8255220101563
 31
0.0
  0
LINE
  5
   445
  8
0
  6
CONTINUOUS
 62
     7
 10
128.523235011568
 20
-20.8505215988843
 30
0.0
 11
128.523235011568
 21
-17.1755219743936
 31
0.0
  0
ARC
  5
   446
  8
0
  6
CONTINUOUS
 62
     7
 10
129.748236337946
 20
-15.6005223702946
 30
0.0
 40
0.349998906467009
 50
269.99984089121
 51
360.00025299209
  0
ARC
  5
   447
  8
0
  6
CONTINUOUS
 62
     7
 10
128.873240104532
 20
-17.1755264145997
 30
0.0
 40
1.22500633342002
 50
90.000186890172
 51
179.999680705376
  0
ARC
  5
   448
  8
0
  6
CONTINUOUS
 62
     7
 10
128.873219488954
 20
-17.1755076612212
 30
0.0
 40
0.349982401674234
 50
89.997764198722
 51
180.00116981594
  0
ARC
  5
   449
  8
0
  6
CONTINUOUS
 62
     7
 10
129.748241659731
 20
-15.6005333517519
 30
0.0
 40
1.22498974441176
 50
269.999653399338
 51
360.000420324806
  0
LINE
  5
   44A
  8
0
  6
CONTINUOUS
 62
     7
 10
127.648233098259
 20
-17.7005219207494
 30
0.0
 11
128.523235011568
 21
-17.7005219207494
 31
0.0
  0
INSERT
  5
   44B
  8
0
  6
CONTINUOUS
 62
     7
  2
*HATCH415
 10
68.8484420776367
 20
-71.3379669189453
 30
0.0
 41
0.349999964237213
 42
0.349999964237213
 43
0.349999964237213
  0
LINE
  5
   44C
  8
0
  6
CONTINUOUS
 62
     7
 10
129.048232287636
 20
-18.9255164550056
 30
0.0
 11
129.74823221611
 21
-18.9255183970357
 31
0.0
  0
LINE
  5
   44D
  8
0
  6
CONTINUOUS
 62
     7
 10
129.74823221611
 20
-21.3755181467056
 30
0.0
 11
129.74823221611
 21
-18.9255183970357
 31
0.0
  0
LINE
  5
   44E
  8
0
  6
CONTINUOUS
 62
     7
 10
129.048232287636
 20
-21.3755181467056
 30
0.0
 11
129.048232287636
 21
-18.9255183970357
 31
0.0
  0
LINE
  5
   44F
  8
0
  6
DASHDOT
 62
     2
 10
62.5876466075958
 20
23.1621636282031
 30
0.0
 11
71.0794458040569
 21
23.1621400691583
 31
0.0
  0
LINE
  5
   450
  8
0
  6
CONTINUOUS
 62
     7
 10
66.3984423279762
 20
21.7621531988477
 30
0.0
 11
66.3984423279762
 21
24.5621529127562
 31
0.0
  0
LINE
  5
   451
  8
0
  6
CONTINUOUS
 62
     7
 10
64.9984424710274
 20
22.2871570292658
 30
0.0
 11
64.9984424710274
 21
24.0371568504586
 31
0.0
  0
LINE
  5
   452
  8
0
  6
CONTINUOUS
 62
     7
 10
66.3984423279762
 20
24.5621529127562
 30
0.0
 11
67.7984421849251
 21
24.562149028696
 31
0.0
  0
LINE
  5
   453
  8
0
  6
CONTINUOUS
 62
     7
 10
66.3984423279762
 20
21.7621531988477
 30
0.0
 11
67.7984421849251
 21
21.7621493147875
 31
0.0
  0
LINE
  5
   454
  8
0
  6
CONTINUOUS
 62
     7
 10
64.9984424710274
 20
24.0371568504586
 30
0.0
 11
67.7984421849251
 21
24.0371490823382
 31
0.0
  0
LINE
  5
   455
  8
0
  6
CONTINUOUS
 62
     7
 10
64.9984424710274
 20
22.2871570292658
 30
0.0
 11
67.7984421849251
 21
22.2871492611454
 31
0.0
  0
LINE
  5
   456
  8
0
  6
CONTINUOUS
 62
     7
 10
66.3984423279762
 20
-107.73783356942
 30
0.0
 11
67.7984421849251
 21
-107.73783745348
 31
0.0
  0
LINE
  5
   457
  8
0
  6
CONTINUOUS
 62
     7
 10
64.9984424710274
 20
-108.262829631717
 30
0.0
 11
67.7984421849251
 21
-108.262837399838
 31
0.0
  0
LINE
  5
   458
  8
0
  6
DASHDOT
 62
     2
 10
62.5876466075958
 20
-109.137822853973
 30
0.0
 11
71.0794458040569
 21
-109.137846413017
 31
0.0
  0
LINE
  5
   459
  8
0
  6
CONTINUOUS
 62
     7
 10
64.9984424710274
 20
-110.01282945291
 30
0.0
 11
67.7984421849251
 21
-110.01283722103
 31
0.0
  0
LINE
  5
   45A
  8
0
  6
CONTINUOUS
 62
     7
 10
66.3984423279762
 20
-110.537833283328
 30
0.0
 11
67.7984421849251
 21
-110.537837167388
 31
0.0
  0
LINE
  5
   45B
  8
0
  6
CONTINUOUS
 62
     7
 10
66.3984423279762
 20
-110.537833283328
 30
0.0
 11
66.3984423279762
 21
-107.737833569419
 31
0.0
  0
LINE
  5
   45C
  8
0
  6
CONTINUOUS
 62
     7
 10
64.9984424710274
 20
-110.01282945291
 30
0.0
 11
64.9984424710274
 21
-108.262829631717
 31
0.0
  0
INSERT
  5
   45D
  8
0
  6
CONTINUOUS
 62
     7
  2
*UDIM1123
 10
0.0
 20
0.0
 30
0.0
  0
INSERT
  5
   45E
  8
0
  6
CONTINUOUS
 62
     7
  2
*UDIM1124
 10
0.0
 20
0.0
 30
0.0
  0
INSERT
  5
   45F
  8
0
  6
CONTINUOUS
 62
     7
  2
*UDIM1125
 10
0.0
 20
0.0
 30
0.0
  0
INSERT
  5
   460
  8
0
  6
CONTINUOUS
 62
     7
  2
*UDIM1126
 10
0.0
 20
0.0
 30
0.0
  0
TEXT
  5
   461
  8
0
  6
CONTINUOUS
 62
     7
 10
147.63106634624
 20
-47.0632611767749
 30
0.0
 40
3.00000001532688
  1
X
 41
0.916666616797451
 72
     2
 11
149.831066240655
 21
-47.0632611767749
 31
0.0
  0
LINE
  5
   462
  8
0
  6
DASHDOT
 62
     7
 10
5.27030234126343
 20
-145.142979741097
 30
0.0
 11
-38.8431720586938
 21
-145.142979741097
 31
0.0
  0
LINE
  5
   463
  8
0
  6
DASHDOT
 62
     7
 10
8.2627345951798
 20
-206.74297606945
 30
0.0
 11
-38.3914531263018
 21
-206.74297606945
 31
0.0
  0
LINE
  5
   464
  8
0
  6
DASHDOT
 62
     7
 10
-17.6707234978676
 20
-136.483449933126
 30
0.0
 11
-17.6707234978676
 21
-217.583435933334
 31
0.0
  0
LINE
  5
   465
  8
0
  6
DASHDOT
 62
     7
 10
-3.67072433233261
 20
-135.824100453449
 30
0.0
 11
-3.67072433233261
 21
-217.583435933334
 31
0.0
  0
LINE
  5
   466
  8
0
  6
CONTINUOUS
 62
     1
 10
14.3292745947838
 20
-141.142979979515
 30
0.0
 11
14.3292745947838
 21
-210.742975831032
 31
0.0
  0
LINE
  5
   467
  8
0
  6
CONTINUOUS
 62
     1
 10
14.3292745947838
 20
-141.142979979515
 30
0.0
 11
-35.670722424984
 21
-141.142979979515
 31
0.0
  0
LINE
  5
   468
  8
0
  6
CONTINUOUS
 62
     1
 10
-35.670722424984
 20
-141.142979979515
 30
0.0
 11
-35.670722424984
 21
-210.742975831032
 31
0.0
  0
LINE
  5
   469
  8
0
  6
CONTINUOUS
 62
     1
 10
14.3292745947838
 20
-210.742975831032
 30
0.0
 11
-35.670722424984
 21
-210.742975831032
 31
0.0
  0
LINE
  5
   46A
  8
0
  6
DASHDOT
 62
     7
 10
19.5414999529751
 20
-174.792977973819
 30
0.0
 11
-39.0125666583409
 21
-174.792977973819
 31
0.0
  0
LINE
  5
   46B
  8
0
  6
DASHDOT
 62
     7
 10
-10.6707239151001
 20
-138.677276334178
 30
0.0
 11
-10.6707239151001
 21
-213.911715418288
 31
0.0
  0
CIRCLE
  5
   46C
  8
0
  6
CONTINUOUS
 62
     7
 10
-17.6707234978676
 20
-145.142979741097
 30
0.0
 40
0.549999967217445
  0
CIRCLE
  5
   46D
  8
0
  6
CONTINUOUS
 62
     7
 10
-3.67072433233261
 20
-145.142979741097
 30
0.0
 40
0.549999967217445
  0
CIRCLE
  5
   46E
  8
0
  6
CONTINUOUS
 62
     7
 10
-17.6707234978676
 20
-206.74297606945
 30
0.0
 40
0.549999967217445
  0
CIRCLE
  5
   46F
  8
0
  6
CONTINUOUS
 62
     7
 10
-3.67072433233261
 20
-206.74297606945
 30
0.0
 40
0.549999967217445
  0
LINE
  5
   470
  8
0
  6
DASHDOT
 62
     7
 10
-40.7061061049554
 20
-174.792977973819
 30
0.0
 11
-45.5779014203002
 21
-174.792977973819
 31
0.0
  0
LINE
  5
   471
  8
0
  6
DASHDOT
 62
     7
 10
-24.6707230806351
 20
-138.677276334178
 30
0.0
 11
-24.6707230806351
 21
-213.911715418288
 31
0.0
  0
LINE
  5
   472
  8
0
  6
DASHDOT
 62
     7
 10
3.32927525043488
 20
-138.677276334178
 30
0.0
 11
3.32927525043488
 21
-213.911715418288
 31
0.0
  0
LINE
  5
   473
  8
0
  6
DASHDOT
 62
     7
 10
15.2501700952509
 20
-151.442979365587
 30
0.0
 11
-38.3914531263018
 21
-151.442979365587
 31
0.0
  0
LINE
  5
   474
  8
0
  6
DASHDOT
 62
     7
 10
15.2501700952509
 20
-200.44297644496
 30
0.0
 11
-38.3914531263018
 21
-200.44297644496
 31
0.0
  0
ARC
  5
   475
  8
0
  6
CONTINUOUS
 62
     7
 10
3.32927525043488
 20
-151.442979365587
 30
0.0
 40
7.99999952316284
 50
218.682187349558
 51
269.999999896069
  0
ARC
  5
   476
  8
0
  6
CONTINUOUS
 62
     7
 10
-10.6707239151001
 20
-151.442979365587
 30
0.0
 40
7.99999952316284
 50
218.682187349558
 51
321.317812442579
  0
ARC
  5
   477
  8
0
  6
CONTINUOUS
 62
     7
 10
-24.6707230806351
 20
-151.442979365587
 30
0.0
 40
7.99999952316284
 50
179.999999896069
 51
269.999999896069
  0
ARC
  5
   478
  8
0
  6
CONTINUOUS
 62
     7
 10
-10.6707239151001
 20
-151.442979365587
 30
0.0
 40
7.99999952316284
 50
398.682187349558
 51
449.999999896069
  0
ARC
  5
   479
  8
0
  6
CONTINUOUS
 62
     7
 10
-10.6707239151001
 20
-151.442979365587
 30
0.0
 40
7.99999952316284
 50
449.999999896069
 51
501.317812442579
  0
ARC
  5
   47A
  8
0
  6
CONTINUOUS
 62
     7
 10
-24.6707230806351
 20
-151.442979365587
 30
0.0
 40
7.99999952316284
 50
269.999999896069
 51
321.317812442579
  0
ARC
  5
   47B
  8
0
  6
CONTINUOUS
 62
     7
 10
-24.6707230806351
 20
-151.442979365587
 30
0.0
 40
7.99999952316284
 50
398.682187349558
 51
539.999999896069
  0
ARC
  5
   47C
  8
0
  6
CONTINUOUS
 62
     7
 10
3.32927525043488
 20
-151.442979365587
 30
0.0
 40
7.99999952316284
 50
269.999999896069
 51
449.999999896069
  0
ARC
  5
   47D
  8
0
  6
CONTINUOUS
 62
     7
 10
3.32927525043488
 20
-151.442979365587
 30
0.0
 40
7.99999952316284
 50
449.999999896069
 51
501.317812442579
  0
LINE
  5
   47E
  8
0
  6
CONTINUOUS
 62
     7
 10
-2.91572237573263
 20
-146.44297966361
 30
0.0
 11
-4.42572628893259
 21
-146.44297966361
 31
0.0
  0
LINE
  5
   47F
  8
0
  6
CONTINUOUS
 62
     7
 10
-16.9157215412676
 20
-146.44297966361
 30
0.0
 11
-18.4257254544676
 21
-146.44297966361
 31
0.0
  0
LINE
  5
   480
  8
0
  6
CONTINUOUS
 62
     7
 10
-16.9157215412676
 20
-156.442979067564
 30
0.0
 11
-18.4257254544676
 21
-156.442979067564
 31
0.0
  0
LINE
  5
   481
  8
0
  6
CONTINUOUS
 62
     7
 10
-2.91572237573263
 20
-156.442979067564
 30
0.0
 11
-4.42572628893259
 21
-156.442979067564
 31
0.0
  0
ARC
  5
   482
  8
0
  6
CONTINUOUS
 62
     7
 10
-24.6707230806351
 20
-200.44297644496
 30
0.0
 40
7.99999952316284
 50
398.682187349558
 51
539.999999896069
  0
ARC
  5
   483
  8
0
  6
CONTINUOUS
 62
     7
 10
-24.6707230806351
 20
-200.44297644496
 30
0.0
 40
7.99999952316284
 50
179.999999896069
 51
269.999999896069
  0
ARC
  5
   484
  8
0
  6
CONTINUOUS
 62
     7
 10
-24.6707230806351
 20
-200.44297644496
 30
0.0
 40
7.99999952316284
 50
269.999999896069
 51
321.317812442579
  0
ARC
  5
   485
  8
0
  6
CONTINUOUS
 62
     7
 10
-10.6707239151001
 20
-200.44297644496
 30
0.0
 40
7.99999952316284
 50
218.682187349558
 51
321.317812442579
  0
ARC
  5
   486
  8
0
  6
CONTINUOUS
 62
     7
 10
-10.6707239151001
 20
-200.44297644496
 30
0.0
 40
7.99999952316284
 50
449.999999896069
 51
501.317812442579
  0
ARC
  5
   487
  8
0
  6
CONTINUOUS
 62
     7
 10
-10.6707239151001
 20
-200.44297644496
 30
0.0
 40
7.99999952316284
 50
398.682187349558
 51
449.999999896069
  0
ARC
  5
   488
  8
0
  6
CONTINUOUS
 62
     7
 10
3.32927525043488
 20
-200.44297644496
 30
0.0
 40
7.99999952316284
 50
449.999999896069
 51
501.317812442579
  0
ARC
  5
   489
  8
0
  6
CONTINUOUS
 62
     7
 10
3.32927525043488
 20
-200.44297644496
 30
0.0
 40
7.99999952316284
 50
269.999999896069
 51
449.999999896069
  0
ARC
  5
   48A
  8
0
  6
CONTINUOUS
 62
     7
 10
3.32927525043488
 20
-200.44297644496
 30
0.0
 40
7.99999952316284
 50
218.682187349558
 51
269.999999896069
  0
LINE
  5
   48B
  8
0
  6
CONTINUOUS
 62
     7
 10
-2.91572237573263
 20
-195.442976742983
 30
0.0
 11
-4.42572628893259
 21
-195.442976742983
 31
0.0
  0
LINE
  5
   48C
  8
0
  6
CONTINUOUS
 62
     7
 10
-2.91572237573263
 20
-205.442976146936
 30
0.0
 11
-4.42572628893259
 21
-205.442976146936
 31
0.0
  0
LINE
  5
   48D
  8
0
  6
CONTINUOUS
 62
     7
 10
-16.9157215412676
 20
-195.442976742983
 30
0.0
 11
-18.4257254544676
 21
-195.442976742983
 31
0.0
  0
LINE
  5
   48E
  8
0
  6
CONTINUOUS
 62
     7
 10
-16.9157215412676
 20
-205.442976146936
 30
0.0
 11
-18.4257254544676
 21
-205.442976146936
 31
0.0
  0
INSERT
  5
   48F
  8
0
  6
CONTINUOUS
 62
     1
  2
*UDIM1127
 10
0.0
 20
0.0
 30
0.0
  0
INSERT
  5
   490
  8
0
  6
CONTINUOUS
 62
     7
  2
*UDIM1128
 10
0.0
 20
0.0
 30
0.0
  0
INSERT
  5
   491
  8
0
  6
CONTINUOUS
 62
     7
  2
*UDIM1129
 10
0.0
 20
0.0
 30
0.0
  0
INSERT
  5
   492
  8
0
  6
CONTINUOUS
 62
     7
  2
*UDIM1130
 10
0.0
 20
0.0
 30
0.0
  0
INSERT
  5
   493
  8
0
  6
CONTINUOUS
 62
     7
  2
*UDIM1131
 10
0.0
 20
0.0
 30
0.0
  0
INSERT
  5
   494
  8
0
  6
CONTINUOUS
 62
     7
  2
*UDIM1132
 10
0.0
 20
0.0
 30
0.0
  0
INSERT
  5
   495
  8
0
  6
CONTINUOUS
 62
     7
  2
*UDIM1133
 10
0.0
 20
0.0
 30
0.0
  0
INSERT
  5
   496
  8
0
  6
CONTINUOUS
 62
     7
  2
*UDIM1134
 10
0.0
 20
0.0
 30
0.0
  0
TEXT
  5
   497
  8
0
  6
CONTINUOUS
 62
     7
 10
-9.11842651354196
 20
-172.732587479175
 30
0.0
 40
3.00000005960463
  1
=
 50
359.999999896069
 41
0.916666581564485
 72
     2
 11
-6.91842669235589
 21
-172.732587483154
 31
0.0
  0
TEXT
  5
   498
  8
0
  6
CONTINUOUS
 62
     7
 10
-14.1128975721249
 20
-172.485980966311
 30
0.0
 40
3.00000005960463
  1
=
 50
359.999999896069
 41
0.916666581564485
 72
     2
 11
-11.9128977509388
 21
-172.485980970291
 31
0.0
  0
TEXT
  5
   499
  8
0
  6
CONTINUOUS
 62
     7
 10
-11.1273498766957
 20
-219.069223740123
 30
0.0
 40
3.00000005960463
  1
Y
 50
359.999999896069
 41
0.916666581564485
 72
     2
 11
-8.92735005550962
 21
-219.069223744102
 31
0.0
  0
TEXT
  5
   49A
  8
0
  6
CONTINUOUS
 62
     7
 10
21.0095873042443
 20
-177.948009131049
 30
0.0
 40
3.00000005960463
  1
X
 50
359.999999896069
 41
0.916666581564485
 72
     2
 11
23.2095871254303
 21
-177.948009135029
 31
0.0
  0
TEXT
  5
   49B
  8
0
  6
CONTINUOUS
 62
     7
 10
-77.5326400985481
 20
-177.16277615707
 30
0.0
 40
3.00000005960463
  1
X
 50
359.999999896069
 41
0.916666581564485
 72
     2
 11
-75.332640277362
 21
-177.16277616105
 31
0.0
  0
INSERT
  5
   49C
  8
0
  6
CONTINUOUS
 62
     7
  2
*UDIM1135
 10
0.0
 20
0.0
 30
0.0
  0
INSERT
  5
   49D
  8
0
  6
CONTINUOUS
 62
     7
  2
*UDIM1136
 10
0.0
 20
0.0
 30
0.0
  0
INSERT
  5
   49E
  8
0
  6
CONTINUOUS
 62
     7
  2
*UDIM1137
 10
0.0
 20
0.0
 30
0.0
  0
LINE
  5
   49F
  8
0
  6
CONTINUOUS
 62
     7
 10
192.182830810547
 20
-64.2503471374512
 30
0.0
 11
228.932830810547
 21
-64.2503471374512
 31
0.0
  0
LINE
  5
   4A0
  8
0
  6
CONTINUOUS
 62
     7
 10
192.182830810547
 20
-27.5003471374512
 30
0.0
 11
228.932830810547
 21
-27.5003471374512
 31
0.0
  0
LINE
  5
   4A1
  8
0
  6
CONTINUOUS
 62
     7
 10
192.182830810547
 20
-27.5003471374512
 30
0.0
 11
192.182830810547
 21
-64.2503471374512
 31
0.0
  0
LINE
  5
   4A2
  8
0
  6
CONTINUOUS
 62
     7
 10
228.932830810547
 20
-27.5003471374512
 30
0.0
 11
228.932830810547
 21
-64.2503471374512
 31
0.0
  0
LINE
  5
   4A3
  8
0
  6
DASHDOT
 62
     7
 10
210.557830810547
 20
-6.98574349994148
 30
0.0
 11
210.557830810547
 21
-76.6912618672061
 31
0.0
  0
CIRCLE
  5
   4A4
  8
0
  6
CONTINUOUS
 62
     7
 10
196.182830810547
 20
-23.7503471374512
 30
0.0
 40
0.875
  0
CIRCLE
  5
   4A5
  8
0
  6
CONTINUOUS
 62
     7
 10
224.932830810547
 20
-23.7503471374512
 30
0.0
 40
0.875
  0
CIRCLE
  5
   4A6
  8
0
  6
CONTINUOUS
 62
     7
 10
224.932830810547
 20
-68.0003471374512
 30
0.0
 40
0.875
  0
CIRCLE
  5
   4A7
  8
0
  6
CONTINUOUS
 62
     7
 10
196.182830810547
 20
-68.0003471374512
 30
0.0
 40
0.875
  0
LINE
  5
   4A8
  8
0
  6
CONTINUOUS
 62
     3
 10
188.218335141132
 20
-21.4005468401599
 30
0.0
 11
232.771704411118
 21
-21.4005468401599
 31
0.0
  0
LINE
  5
   4A9
  8
0
  6
CONTINUOUS
 62
     3
 10
188.218335141132
 20
-71.3558279649152
 30
0.0
 11
232.771704411118
 21
-71.3558279649152
 31
0.0
  0
LINE
  5
   4AA
  8
0
  6
CONTINUOUS
 62
     3
 10
232.771704411118
 20
-21.4005468401599
 30
0.0
 11
232.771704411118
 21
-71.3558279649152
 31
0.0
  0
LINE
  5
   4AB
  8
0
  6
CONTINUOUS
 62
     3
 10
188.218335141132
 20
-21.4005468401599
 30
0.0
 11
188.218335141132
 21
-71.3558279649152
 31
0.0
  0
LINE
  5
   4AC
  8
0
  6
DASHDOT
 62
     7
 10
224.932830810547
 20
-22.1253471374512
 30
0.0
 11
224.932830810547
 21
-25.3753471374512
 31
0.0
  0
LINE
  5
   4AD
  8
0
  6
DASHDOT
 62
     7
 10
223.307830810547
 20
-23.7503471374512
 30
0.0
 11
226.557830810547
 21
-23.7503471374512
 31
0.0
  0
LINE
  5
   4AE
  8
0
  6
DASHDOT
 62
     7
 10
196.182830810547
 20
-22.1253471374512
 30
0.0
 11
196.182830810547
 21
-25.3753471374512
 31
0.0
  0
LINE
  5
   4AF
  8
0
  6
DASHDOT
 62
     7
 10
194.557830810547
 20
-23.7503471374512
 30
0.0
 11
197.807830810547
 21
-23.7503471374512
 31
0.0
  0
LINE
  5
   4B0
  8
0
  6
DASHDOT
 62
     7
 10
196.182830810547
 20
-66.3753471374512
 30
0.0
 11
196.182830810547
 21
-69.6253471374512
 31
0.0
  0
LINE
  5
   4B1
  8
0
  6
DASHDOT
 62
     7
 10
194.557830810547
 20
-68.0003471374512
 30
0.0
 11
197.807830810547
 21
-68.0003471374512
 31
0.0
  0
LINE
  5
   4B2
  8
0
  6
DASHDOT
 62
     7
 10
224.932830810547
 20
-66.3753471374512
 30
0.0
 11
224.932830810547
 21
-69.6253471374512
 31
0.0
  0
LINE
  5
   4B3
  8
0
  6
DASHDOT
 62
     7
 10
223.307830810547
 20
-68.0003471374512
 30
0.0
 11
226.557830810547
 21
-68.0003471374512
 31
0.0
  0
LINE
  5
   4B4
  8
0
  6
DASHDOT
 62
     7
 10
185.19197325719
 20
-45.8753471374512
 30
0.0
 11
238.188124109918
 21
-45.8753471374512
 31
0.0
  0
CIRCLE
  5
   4B5
  8
0
  6
CONTINUOUS
 62
     7
 10
221.120330810547
 20
-23.3753471374512
 30
0.0
 40
0.5
  0
CIRCLE
  5
   4B6
  8
0
  6
CONTINUOUS
 62
     7
 10
209.870330810547
 20
-23.3753471374512
 30
0.0
 40
0.5
  0
CIRCLE
  5
   4B7
  8
0
  6
CONTINUOUS
 62
     7
 10
209.870330810547
 20
-23.3753471374512
 30
0.0
 40
0.92
  0
CIRCLE
  5
   4B8
  8
0
  6
CONTINUOUS
 62
     7
 10
221.120330810547
 20
-23.3753471374512
 30
0.0
 40
0.92
  0
LINE
  5
   4B9
  8
0
  6
DASHDOT
 62
     7
 10
221.120330810547
 20
-21.7053471374512
 30
0.0
 11
221.120330810547
 21
-25.0453471374512
 31
0.0
  0
LINE
  5
   4BA
  8
0
  6
DASHDOT
 62
     7
 10
219.450330810547
 20
-23.3753471374512
 30
0.0
 11
222.790330810547
 21
-23.3753471374512
 31
0.0
  0
LINE
  5
   4BB
  8
0
  6
DASHDOT
 62
     7
 10
209.870330810547
 20
-21.7053471374512
 30
0.0
 11
209.870330810547
 21
-25.0453471374512
 31
0.0
  0
LINE
  5
   4BC
  8
0
  6
DASHDOT
 62
     7
 10
208.200330810547
 20
-23.3753471374512
 30
0.0
 11
211.540330810547
 21
-23.3753471374512
 31
0.0
  0
TEXT
  5
   4BD
  8
0
  6
CONTINUOUS
 62
     1
 10
137.365556389358
 20
-207.316905991688
 30
0.0
 40
2.00000008940697
  1
M 3076 95-01-16
 50
359.999999844103
 41
0.749999861419206
 72
     1
 11
148.465554833412
 21
-206.316905977131
 31
0.0
 73
     2
  0
INSERT
  5
   4BE
  8
0
  6
CONTINUOUS
 62
     7
  2
*UDIM1138
 10
0.0
 20
0.0
 30
0.0
  0
INSERT
  5
   4BF
  8
0
  6
CONTINUOUS
 62
     7
  2
*UDIM1139
 10
0.0
 20
0.0
 30
0.0
  0
INSERT
  5
   4C0
  8
0
  6
CONTINUOUS
 62
     7
  2
*UDIM1140
 10
0.0
 20
0.0
 30
0.0
  0
TEXT
  5
   4C1
  8
0
  6
CONTINUOUS
 62
     7
 10
203.834849623737
 20
-83.9065058793284
 30
0.0
 40
3.00000002980232
  1
=   =
 50
359.999999844103
 41
0.916666604744064
 72
     2
 11
217.034848858811
 21
-83.9065059151781
 31
0.0
  0
TEXT
  5
   4C2
  8
0
  6
CONTINUOUS
 62
     7
 10
202.465157456594
 20
-95.5136340790077
 30
0.0
 40
3.00000002980232
  1
=    =
 50
359.999999844103
 41
0.916666604744064
 72
     2
 11
218.415156533219
 21
-95.5136341223261
 31
0.0
  0
TEXT
  5
   4C3
  8
0
  6
CONTINUOUS
 62
     7
 10
183.999133172853
 20
-56.1392466377168
 30
0.0
 40
3.00000002980232
  1
=     =
 50
449.999999844103
 41
0.916666604744064
 72
     2
 11
183.999133223617
 21
-37.4392477195411
 31
0.0
  0
TEXT
  5
   4C4
  8
0
  6
CONTINUOUS
 62
     7
 10
174.28601341814
 20
-58.2311337948788
 30
0.0
 40
3.00000002980232
  1
=       =
 50
449.999999844103
 41
0.916666604744064
 72
     2
 11
174.286013483834
 21
-34.0311351936012
 31
0.0
  0
INSERT
  5
   4C5
  8
0
  6
CONTINUOUS
 62
     7
  2
*UDIM1141
 10
0.0
 20
0.0
 30
0.0
  0
INSERT
  5
   4C6
  8
0
  6
CONTINUOUS
 62
     7
  2
*UDIM1142
 10
0.0
 20
0.0
 30
0.0
  0
INSERT
  5
   4C7
  8
0
  6
CONTINUOUS
 62
     7
  2
*UDIM1143
 10
0.0
 20
0.0
 30
0.0
  0
INSERT
  5
   4C8
  8
0
  6
CONTINUOUS
 62
     7
  2
*UDIM1144
 10
0.0
 20
0.0
 30
0.0
  0
INSERT
  5
   4C9
  8
0
  6
CONTINUOUS
 62
     7
  2
*UDIM1145
 10
0.0
 20
0.0
 30
0.0
  0
TEXT
  5
   4CA
  8
0
  6
CONTINUOUS
 62
     7
 10
209.752808441616
 20
-98.4624710774371
 30
0.0
 40
3.00000002980232
  1
Y
 50
359.999999844103
 41
0.916666604744064
 72
     2
 11
211.952808310486
 21
-98.462471083412
 31
0.0
  0
TEXT
  5
   4CB
  8
0
  6
CONTINUOUS
 62
     7
 10
209.815549721218
 20
-5.85639960526913
 30
0.0
 40
3.00000002980232
  1
Y
 50
359.999999844103
 41
0.916666604744064
 72
     2
 11
212.015549590088
 21
-5.85639961124408
 31
0.0
  0
TEXT
  5
   4CC
  8
0
  6
CONTINUOUS
 62
     7
 10
245.578056444622
 20
-47.2028787827441
 30
0.0
 40
3.00000002980232
  1
X
 50
359.999999844103
 41
0.916666604744064
 72
     2
 11
247.778056313492
 21
-47.2028787887191
 31
0.0
  0
TEXT
  5
   4CD
  8
0
  6
CONTINUOUS
 62
     7
 10
161.141269793011
 20
-47.2839916443774
 30
0.0
 40
3.00000002980232
  1
X
 50
359.999999844103
 41
0.916666604744064
 72
     2
 11
163.341269661881
 21
-47.2839916503524
 31
0.0
  0
TEXT
  5
   4CE
  8
0
  6
CONTINUOUS
 62
     1
 10
130.243331918389
 20
-191.841884528951
 30
0.0
 40
2.00000008940697
  1
93-04-05 ROTA S.
 50
359.999999844103
 41
0.749999861419206
 72
     2
 11
153.943328590959
 21
-191.841884593318
 31
0.0
  0
TEXT
  5
   4CF
  8
0
  6
CONTINUOUS
 62
     1
 10
231.973709124863
 20
-218.083675294311
 30
0.0
 40
4.00000017881393
  1
601840/241
 50
359.999999844103
 41
0.937499973922969
 72
     2
 11
268.723709724635
 21
-218.08367539412
 31
0.0
  0
TEXT
  5
   4D0
  8
0
  6
CONTINUOUS
 62
     1
 10
249.059402479634
 20
-209.102092736486
 30
0.0
 40
3.00000002980232
  1
S7
 50
359.999999844103
 41
0.916666604744064
 72
     2
 11
254.009402190055
 21
-209.10209274993
 31
0.0
  0
TEXT
  5
   4D1
  8
0
  6
CONTINUOUS
 62
     1
 10
222.274982615819
 20
-190.79182049562
 30
0.0
 40
2.00000008940697
  1
3POLE LOW VOLTAGE FIXED M.C.C.B SERIES
 50
359.999999844103
 41
0.749999861419206
 72
     1
 11
250.62497864365
 21
-189.791820527912
 31
0.0
 73
     2
  0
TEXT
  5
   4D2
  8
0
  6
CONTINUOUS
 62
     1
 10
222.274982651593
 20
-193.79182049562
 30
0.0
 40
2.00000008940697
  1
ISOMAX FRONT PANEL WITH PADLOK DEVICES
 50
359.999999844103
 41
0.749999861419206
 72
     1
 11
250.624978679425
 21
-192.791820527912
 31
0.0
 73
     2
  0
TEXT
  5
   4D3
  8
0
  6
CONTINUOUS
 62
     1
 10
224.727374353518
 20
-198.862087235548
 30
0.0
 40
2.00000008940697
  1
INTERR.AUTOMATICO SERIE ISOMAX
 50
359.999999844103
 41
0.749999861419206
 72
     1
 11
247.077371221775
 21
-197.862087251545
 31
0.0
 73
     2
  0
TEXT
  5
   4D4
  8
0
  6
CONTINUOUS
 62
     1
 10
222.477374704452
 20
-201.862087229437
 30
0.0
 40
2.00000008940697
  1
TRIPOL.FISSO FRONTALE PER BLOCCHI
 50
359.999999844103
 41
0.749999861419206
 72
     1
 11
247.077371257549
 21
-200.862087251545
 31
0.0
 73
     2
  0
LINE
  5
   4D5
  8
0
  6
CONTINUOUS
 62
     7
 10
215.21076965332
 20
29.3161194009383
 30
0.0
 11
215.21076965332
 21
5.39959791473552
 31
0.0
  0
LINE
  5
   4D6
  8
0
  6
CONTINUOUS
 62
     7
 10
213.21076965332
 20
29.3161194009383
 30
0.0
 11
213.21076965332
 21
5.39959791473552
 31
0.0
  0
LINE
  5
   4D7
  8
0
  6
DASHDOT
 62
     7
 10
210.008166550923
 20
17.3578586578369
 30
0.0
 11
218.434385743361
 21
17.3578586578369
 31
0.0
  0
POINT
  5
   4D8
  8
0
  6
CONTINUOUS
 62
     7
 10
213.21076965332
 20
19.3578586578369
 30
0.0
  0
POINT
  5
   4D9
  8
0
  6
CONTINUOUS
 62
     7
 10
213.21076965332
 20
15.3578586578369
 30
0.0
  0
LINE
  5
   4DA
  8
0
  6
CONTINUOUS
 62
     7
 10
215.21076965332
 20
21.0360579201915
 30
0.0
 11
213.21076965332
 21
19.3578586578369
 31
0.0
  0
LINE
  5
   4DB
  8
0
  6
CONTINUOUS
 62
     7
 10
213.21076965332
 20
15.3578586578369
 30
0.0
 11
215.21076965332
 21
13.6796593954824
 31
0.0
  0
LINE
  5
   4DC
  8
0
  6
CONTINUOUS
 62
     7
 10
213.21076965332
 20
7.85785865783691
 30
0.0
 11
215.21076965332
 21
7.85785865783691
 31
0.0
  0
CIRCLE
  5
   4DD
  8
0
  6
CONTINUOUS
 62
     7
 10
214.21076965332
 20
17.3578586578369
 30
0.0
 40
12.0
  0
LINE
  5
   4DE
  8
0
  6
CONTINUOUS
 62
     7
 10
207.210777282715
 20
12.8578586578369
 30
0.0
 11
209.710777282715
 21
12.8578586578369
 31
0.0
  0
LINE
  5
   4DF
  8
0
  6
CONTINUOUS
 62
     7
 10
210.710777282715
 20
21.8578586578369
 30
0.0
 11
210.710777282715
 21
13.8578586578369
 31
0.0
  0
LINE
  5
   4E0
  8
0
  6
CONTINUOUS
 62
     7
 10
210.710777282715
 20
21.8578586578369
 30
0.0
 11
213.21076965332
 21
21.8578586578369
 31
0.0
  0
LINE
  5
   4E1
  8
0
  6
CONTINUOUS
 62
     7
 10
207.210777282715
 20
10.3578586578369
 30
0.0
 11
209.710777282715
 21
10.3578586578369
 31
0.0
  0
LINE
  5
   4E2
  8
0
  6
CONTINUOUS
 62
     7
 10
206.210777282715
 20
9.35785865783691
 30
0.0
 11
206.210777282715
 21
8.4135799239057
 31
0.0
  0
ARC
  5
   4E3
  8
0
  6
CONTINUOUS
 62
     7
 10
209.710781429995
 20
13.8578579864982
 30
0.0
 40
0.999996977799109
 50
629.999840735313
 51
720.000252836193
  0
ARC
  5
   4E4
  8
0
  6
CONTINUOUS
 62
     7
 10
207.210791936222
 20
9.35784597153244
 30
0.0
 40
3.50001845311552
 50
450.000186734275
 51
513.408761128067
  0
ARC
  5
   4E5
  8
0
  6
CONTINUOUS
 62
     7
 10
207.210733034565
 20
9.3578995526193
 30
0.0
 40
0.999949821243504
 50
449.997764042825
 51
540.001169660043
  0
ARC
  5
   4E6
  8
0
  6
CONTINUOUS
 62
     7
 10
209.710796635097
 20
13.8578266109026
 30
0.0
 40
3.49997105594423
 50
629.999653243441
 51
720.000420168909
  0
INSERT
  5
   4E7
  8
0
  6
CONTINUOUS
 62
     7
  2
*HATCH416
 10
214.21076965332
 20
17.3578586578369
 30
0.0
 50
269.999999844103
  0
INSERT
  5
   4E8
  8
0
  6
CONTINUOUS
 62
     7
  2
*HATCH417
 10
214.21076965332
 20
17.3578586578369
 30
0.0
 50
269.999999844103
  0
LINE
  5
   4E9
  8
0
  6
CONTINUOUS
 62
     7
 10
205.635153894599
 20
8.96388377350597
 30
0.0
 11
199.264408730594
 21
2.72807792519045
 31
0.0
  0
LINE
  5
   4EA
  8
0
  6
CONTINUOUS
 62
     7
 10
199.264408730594
 20
-16.0488458272784
 30
0.0
 11
207.549640418725
 21
-22.7985918240152
 31
0.0
  0
LINE
  5
   4EB
  8
0
  6
CONTINUOUS
 62
     7
 10
202.065126960985
 20
-20.3373496708437
 30
0.0
 11
207.549640418725
 21
-22.7985918240152
 31
0.0
  0
LINE
  5
   4EC
  8
0
  6
CONTINUOUS
 62
     7
 10
204.302608019318
 20
-18.3016439668236
 30
0.0
 11
207.549640418725
 21
-22.7985918240152
 31
0.0
  0
LINE
  5
   4ED
  8
0
  6
CONTINUOUS
 62
     7
 10
199.264408730594
 20
2.72807792519045
 30
0.0
 11
199.264408730594
 21
-16.0488458272784
 31
0.0
  0
INSERT
  5
   4EE
  8
0
  6
CONTINUOUS
 62
     7
  2
*UDIM1146
 10
0.0
 20
0.0
 30
0.0
  0
INSERT
  5
   4EF
  8
0
  6
CONTINUOUS
 62
     7
  2
*UDIM1147
 10
0.0
 20
0.0
 30
0.0
  0
ENDSEC
  0
EOF
