  0
SECTION
  2
HEADER
  9
$ACADVER
  1
AC1009
  9
$INSBASE
 10
0.0
 20
0.0
 30
0.0
  9
$EXTMIN
 10
0.57084
 20
0.577227
 30
0.0
  9
$EXTMAX
 10
392.57084
 20
263.077227
 30
0.0
  9
$LIMMIN
 10
0.0
 20
0.0
  9
$LIMMAX
 10
12.0
 20
9.0
  9
$ORTHOMODE
 70
     1
  9
$REGENMODE
 70
     1
  9
$FILLMODE
 70
     1
  9
$QTEXTMODE
 70
     0
  9
$MIRRTEXT
 70
     1
  9
$DRAGMODE
 70
     2
  9
$LTSCALE
 40
5.0
  9
$OSMODE
 70
     0
  9
$ATTMODE
 70
     1
  9
$TEXTSIZE
 40
2.0
  9
$TRACEWID
 40
0.05
  9
$TEXTSTYLE
  7
ROMANS
  9
$CLAYER
  8
0
  9
$CELTYPE
  6
CONTINUOUS
  9
$CECOLOR
 62
   256
  9
$DIMSCALE
 40
1.0
  9
$DIMASZ
 40
0.18
  9
$DIMEXO
 40
0.0625
  9
$DIMDLI
 40
0.38
  9
$DIMRND
 40
0.0
  9
$DIMDLE
 40
0.0
  9
$DIMEXE
 40
0.18
  9
$DIMTP
 40
0.0
  9
$DIMTM
 40
0.0
  9
$DIMTXT
 40
0.18
  9
$DIMCEN
 40
0.09
  9
$DIMTSZ
 40
0.0
  9
$DIMTOL
 70
     0
  9
$DIMLIM
 70
     0
  9
$DIMTIH
 70
     1
  9
$DIMTOH
 70
     1
  9
$DIMSE1
 70
     0
  9
$DIMSE2
 70
     0
  9
$DIMTAD
 70
     0
  9
$DIMZIN
 70
     0
  9
$DIMBLK
  1

  9
$DIMASO
 70
     1
  9
$DIMSHO
 70
     1
  9
$DIMPOST
  1

  9
$DIMAPOST
  1

  9
$DIMALT
 70
     0
  9
$DIMALTD
 70
     2
  9
$DIMALTF
 40
25.4
  9
$DIMLFAC
 40
1.0
  9
$DIMTOFL
 70
     0
  9
$DIMTVP
 40
0.0
  9
$DIMTIX
 70
     0
  9
$DIMSOXD
 70
     0
  9
$DIMSAH
 70
     0
  9
$DIMBLK1
  1

  9
$DIMBLK2
  1

  9
$DIMSTYLE
  2
*UNNAMED
  9
$DIMCLRD
 70
     0
  9
$DIMCLRE
 70
     0
  9
$DIMCLRT
 70
     0
  9
$DIMTFAC
 40
1.0
  9
$DIMGAP
 40
0.09
  9
$LUNITS
 70
     2
  9
$LUPREC
 70
     4
  9
$SKETCHINC
 40
0.1
  9
$FILLETRAD
 40
0.0
  9
$AUNITS
 70
     0
  9
$AUPREC
 70
     0
  9
$MENU
  1
acad
  9
$ELEVATION
 40
0.0
  9
$PELEVATION
 40
0.0
  9
$THICKNESS
 40
0.0
  9
$LIMCHECK
 70
     0
  9
$BLIPMODE
 70
     1
  9
$CHAMFERA
 40
0.0
  9
$CHAMFERB
 40
0.0
  9
$SKPOLY
 70
     0
  9
$TDCREATE
 40
2448862.726181134
  9
$TDUPDATE
 40
2449118.294218750
  9
$TDINDWG
 40
0.0155648148
  9
$TDUSRTIMER
 40
0.0155648148
  9
$USRTIMER
 70
     1
  9
$ANGBASE
 50
0.0
  9
$ANGDIR
 70
     0
  9
$PDMODE
 70
     0
  9
$PDSIZE
 40
0.0
  9
$PLINEWID
 40
0.0
  9
$COORDS
 70
     2
  9
$SPLFRAME
 70
     0
  9
$SPLINETYPE
 70
     6
  9
$SPLINESEGS
 70
     8
  9
$ATTDIA
 70
     0
  9
$ATTREQ
 70
     1
  9
$HANDLING
 70
     0
  9
$HANDSEED
  5
0
  9
$SURFTAB1
 70
   250
  9
$SURFTAB2
 70
   250
  9
$SURFTYPE
 70
     6
  9
$SURFU
 70
     6
  9
$SURFV
 70
     6
  9
$UCSNAME
  2

  9
$UCSORG
 10
0.0
 20
0.0
 30
0.0
  9
$UCSXDIR
 10
1.0
 20
0.0
 30
0.0
  9
$UCSYDIR
 10
0.0
 20
1.0
 30
0.0
  9
$PUCSNAME
  2

  9
$PUCSORG
 10
0.0
 20
0.0
 30
0.0
  9
$PUCSXDIR
 10
1.0
 20
0.0
 30
0.0
  9
$PUCSYDIR
 10
0.0
 20
1.0
 30
0.0
  9
$USERI1
 70
     0
  9
$USERI2
 70
     0
  9
$USERI3
 70
     0
  9
$USERI4
 70
     0
  9
$USERI5
 70
     0
  9
$USERR1
 40
0.0
  9
$USERR2
 40
0.0
  9
$USERR3
 40
0.0
  9
$USERR4
 40
0.0
  9
$USERR5
 40
0.0
  9
$WORLDVIEW
 70
     1
  9
$SHADEDGE
 70
     3
  9
$SHADEDIF
 70
    70
  9
$TILEMODE
 70
     1
  9
$MAXACTVP
 70
    16
  9
$PINSBASE
 10
0.0
 20
0.0
 30
0.0
  9
$PLIMCHECK
 70
     0
  9
$PEXTMIN
 10
1.000000E+20
 20
1.000000E+20
 30
1.000000E+20
  9
$PEXTMAX
 10
-1.000000E+20
 20
-1.000000E+20
 30
-1.000000E+20
  9
$PLIMMIN
 10
0.0
 20
0.0
  9
$PLIMMAX
 10
12.0
 20
9.0
  9
$UNITMODE
 70
     0
  9
$VISRETAIN
 70
     0
  9
$PLINEGEN
 70
     0
  9
$PSLTSCALE
 70
     0
  9
$TREEDEPTH
 70
  3020
  9
$DWGCODEPAGE
  3
undefined
  0
ENDSEC
  0
SECTION
  2
TABLES
  0
TABLE
  2
VPORT
 70
     2
  0
VPORT
  2
*ACTIVE
 70
     0
 10
0.0
 20
0.0
 11
1.0
 21
1.0
 12
222.71218
 22
142.161342
 13
0.0
 23
0.0
 14
2.5
 24
2.5
 15
0.0
 25
0.0
 16
0.0
 26
0.0
 36
1.0
 17
0.0
 27
0.0
 37
0.0
 40
284.322685
 41
1.566616
 42
50.0
 43
0.0
 44
0.0
 50
0.0
 51
0.0
 71
     0
 72
   100
 73
     1
 74
     1
 75
     1
 76
     0
 77
     0
 78
     0
  0
ENDTAB
  0
TABLE
  2
LTYPE
 70
     7
  0
LTYPE
  2
CONTINUOUS
 70
    64
  3
Solid line
 72
    65
 73
     0
 40
0.0
  0
LTYPE
  2
DASHED
 70
    64
  3
__ __ __ __ __ __ __ __ __ __ __ __ __ __ __ __
 72
    65
 73
     2
 40
0.75
 49
0.5
 49
-0.25
  0
LTYPE
  2
CENTER
 70
    64
  3
____ _ ____ _ ____ _ ____ _ ____ _ ____ _ ____ 
 72
    65
 73
     4
 40
2.0
 49
1.25
 49
-0.25
 49
0.25
 49
-0.25
  0
LTYPE
  2
HIDDEN
 70
    64
  3
__ __ __ __ __ __ __ __ __ __ __ __ __ __ __ __
 72
    65
 73
     2
 40
0.375
 49
0.25
 49
-0.125
  0
LTYPE
  2
DOT
 70
     0
  3
. . . . . . . . . . . . . . . . . . . . . . . .
 72
    65
 73
     2
 40
0.25
 49
0.0
 49
-0.25
  0
LTYPE
  2
DASHDOT
 70
     0
  3
__ . __ . __ . __ . __ . __ . __ . __ . __ . __
 72
    65
 73
     4
 40
1.0
 49
0.5
 49
-0.25
 49
0.0
 49
-0.25
  0
LTYPE
  2
PHANTOM
 70
     0
  3
______  __  __  ______  __  __  ______  __  __ 
 72
    65
 73
     6
 40
2.5
 49
1.25
 49
-0.25
 49
0.25
 49
-0.25
 49
0.25
 49
-0.25
  0
ENDTAB
  0
TABLE
  2
LAYER
 70
    13
  0
LAYER
  2
0
 70
    64
 62
     7
  6
CONTINUOUS
  0
LAYER
  2
RAAMI
 70
    64
 62
    -4
  6
CONTINUOUS
  0
LAYER
  2
PAKSU
 70
    64
 62
    -3
  6
CONTINUOUS
  0
LAYER
  2
OHUT
 70
    64
 62
    -6
  6
CONTINUOUS
  0
LAYER
  2
SWEDEN
 70
    64
 62
    -7
  6
CONTINUOUS
  0
LAYER
  2
SWEDEN2
 70
    64
 62
    -5
  6
CONTINUOUS
  0
LAYER
  2
BASE
 70
    64
 62
    -7
  6
CONTINUOUS
  0
LAYER
  2
21
 70
    64
 62
    -2
  6
CONTINUOUS
  0
LAYER
  2
HEL035
 70
    64
 62
    -7
  6
CONTINUOUS
  0
LAYER
  2
MUO
 70
    64
 62
    -7
  6
CONTINUOUS
  0
LAYER
  2
1
 70
    64
 62
    -2
  6
CONTINUOUS
  0
LAYER
  2
BASE1
 70
    64
 62
    -1
  6
CONTINUOUS
  0
LAYER
  2
TEKS
 70
    64
 62
    -5
  6
CONTINUOUS
  0
ENDTAB
  0
TABLE
  2
STYLE
 70
     6
  0
STYLE
  2
STANDARD
 70
    64
 40
0.0
 41
1.0
 50
0.0
 71
     0
 42
2.5
  3
txt
  4

  0
STYLE
  2
ROMANS
 70
    64
 40
0.0
 41
1.0
 50
0.0
 71
     0
 42
2.0
  3
romans
  4

  0
STYLE
  2
GREEKC
 70
    64
 40
0.0
 41
1.0
 50
0.0
 71
     0
 42
1.5
  3
GREEKC
  4

  0
STYLE
  2
GREEKS
 70
    64
 40
0.0
 41
1.0
 50
0.0
 71
     0
 42
2.0
  3
TXT
  4

  0
STYLE
  2
MONOTXT
 70
     0
 40
0.0
 41
1.0
 50
0.0
 71
     0
 42
2.0
  3
monotxt
  4

  0
STYLE
  2
ROMANT
 70
     0
 40
0.0
 41
1.0
 50
0.0
 71
     0
 42
2.5
  3
romant
  4

  0
ENDTAB
  0
TABLE
  2
VIEW
 70
     0
  0
ENDTAB
  0
TABLE
  2
UCS
 70
     0
  0
ENDTAB
  0
TABLE
  2
APPID
 70
     1
  0
APPID
  2
ACAD
 70
    64
  0
ENDTAB
  0
TABLE
  2
DIMSTYLE
 70
     0
  0
ENDTAB
  0
ENDSEC
  0
SECTION
  2
BLOCKS
  0
BLOCK
  8
0
  2
1
 70
    64
 10
0.0
 20
0.0
 30
0.0
  3
1
  0
ENDBLK
  8
0
  0
BLOCK
  8
0
  2
BLC16
 70
     0
 10
0.0
 20
0.0
 30
0.0
  3
BLC16
  0
LINE
  8
0
  6
CONTINUOUS
 10
0.007689
 20
38.054928
 30
0.0
 11
19.983683
 21
38.054928
 31
0.0
  0
LINE
  8
0
  6
CONTINUOUS
 10
19.983683
 20
38.054928
 30
0.0
 11
19.983683
 21
-0.003751
 31
0.0
  0
LINE
  8
0
  6
CONTINUOUS
 10
19.983683
 20
-0.003751
 30
0.0
 11
0.007689
 21
-0.003751
 31
0.0
  0
LINE
  8
0
  6
CONTINUOUS
 10
0.007689
 20
-0.003751
 30
0.0
 11
0.007689
 21
38.054928
 31
0.0
  0
LINE
  8
0
  6
CONTINUOUS
 10
14.152643
 20
36.919738
 30
0.0
 11
14.152643
 21
33.528469
 31
0.0
  0
LINE
  8
0
  6
CONTINUOUS
 10
14.152643
 20
33.528469
 30
0.0
 11
11.560435
 21
33.528469
 31
0.0
  0
LINE
  8
0
  6
CONTINUOUS
 10
11.560435
 20
33.528469
 30
0.0
 11
11.560435
 21
30.778433
 31
0.0
  0
LINE
  8
0
  6
CONTINUOUS
 10
11.560435
 20
30.778433
 30
0.0
 11
14.152643
 21
30.778433
 31
0.0
  0
LINE
  8
0
  6
CONTINUOUS
 10
14.152643
 20
30.778433
 30
0.0
 11
14.152643
 21
27.387164
 31
0.0
  0
TEXT
  8
0
  6
CONTINUOUS
 10
6.558569
 20
30.805266
 30
0.0
 40
2.5
  1
2
 11
6.558569
 21
29.971932
 31
0.0
 73
     1
  0
TEXT
  8
0
  6
CONTINUOUS
 10
6.553289
 20
23.854078
 30
0.0
 40
2.5
  1
2 I
 11
6.553289
 21
23.020744
 31
0.0
 73
     1
  0
LINE
  8
0
  6
CONTINUOUS
 10
12.942534
 20
26.359129
 30
0.0
 11
15.288299
 21
25.023775
 31
0.0
  0
LINE
  8
0
  6
CONTINUOUS
 10
15.288299
 20
25.023775
 30
0.0
 11
12.942534
 21
23.833856
 31
0.0
  0
LINE
  8
0
  6
CONTINUOUS
 10
14.169823
 20
26.359129
 30
0.0
 11
16.515589
 21
25.023775
 31
0.0
  0
LINE
  8
0
  6
CONTINUOUS
 10
16.515589
 20
25.023775
 30
0.0
 11
14.169823
 21
23.833856
 31
0.0
  0
TEXT
  8
0
  6
CONTINUOUS
 10
11.566446
 20
19.235679
 30
0.0
 40
2.5
  1
I
 11
11.566446
 21
18.402346
 31
0.0
 73
     1
  0
TEXT
  8
0
  6
CONTINUOUS
 10
13.018181
 20
18.902346
 30
0.0
 40
1.5
  1
2
 11
13.018181
 21
18.402346
 31
0.0
 73
     1
  0
LINE
  8
0
  6
CONTINUOUS
 10
10.65733
 20
12.773825
 30
0.0
 11
13.003095
 21
13.963744
 31
0.0
  0
LINE
  8
0
  6
CONTINUOUS
 10
13.003095
 20
11.438471
 30
0.0
 11
10.65733
 21
12.773825
 31
0.0
  0
LINE
  8
0
  6
CONTINUOUS
 10
6.557002
 20
16.714658
 30
0.0
 11
15.281743
 21
16.714658
 31
0.0
  0
LINE
  8
0
  6
CONTINUOUS
 10
6.557002
 20
17.523984
 30
0.0
 11
6.557002
 21
15.908791
 31
0.0
  0
LINE
  8
0
  6
CONTINUOUS
 10
15.286518
 20
17.523984
 30
0.0
 11
15.286518
 21
15.908791
 31
0.0
  0
ARC
  8
0
  6
CONTINUOUS
 10
12.684846
 20
18.508045
 30
0.0
 40
2.922744
 50
193.105513
 51
283.105513
  0
TEXT
  8
0
  6
CONTINUOUS
 10
6.557002
 20
11.567974
 30
0.0
 40
2.5
  1
2I
 11
6.557002
 21
10.734641
 31
0.0
 73
     1
  0
LINE
  8
0
  6
CONTINUOUS
 10
6.557002
 20
9.441103
 30
0.0
 11
15.281743
 21
9.441103
 31
0.0
  0
LINE
  8
0
  6
CONTINUOUS
 10
15.286518
 20
10.250429
 30
0.0
 11
15.286518
 21
8.635236
 31
0.0
  0
LINE
  8
0
  6
CONTINUOUS
 10
6.557002
 20
10.250429
 30
0.0
 11
6.557002
 21
8.635236
 31
0.0
  0
TEXT
  8
0
  6
CONTINUOUS
 10
6.557002
 20
4.778631
 30
0.0
 40
2.5
  1
I
 11
6.557002
 21
3.945298
 31
0.0
 73
     1
  0
LINE
  8
0
  6
CONTINUOUS
 10
9.509029
 20
6.822462
 30
0.0
 11
9.509029
 21
5.477736
 31
0.0
  0
LINE
  8
0
  6
CONTINUOUS
 10
8.615065
 20
5.477736
 30
0.0
 11
9.52622
 21
5.477736
 31
0.0
  0
LINE
  8
0
  6
CONTINUOUS
 10
9.509029
 20
5.477736
 30
0.0
 11
10.402992
 21
5.477736
 31
0.0
  0
LINE
  8
0
  6
CONTINUOUS
 10
8.901592
 20
5.082328
 30
0.0
 11
9.509029
 21
5.082328
 31
0.0
  0
LINE
  8
0
  6
CONTINUOUS
 10
9.509029
 20
5.082328
 30
0.0
 11
10.150849
 21
5.082328
 31
0.0
  0
LINE
  8
0
  6
CONTINUOUS
 10
9.981861
 20
4.719969
 30
0.0
 11
9.072041
 21
4.719969
 31
0.0
  0
LINE
  8
0
  6
CONTINUOUS
 10
15.286518
 20
2.797924
 30
0.0
 11
15.286518
 21
1.182731
 31
0.0
  0
LINE
  8
0
  6
CONTINUOUS
 10
6.557002
 20
1.988598
 30
0.0
 11
15.281743
 21
1.988598
 31
0.0
  0
LINE
  8
0
  6
CONTINUOUS
 10
6.557002
 20
2.797924
 30
0.0
 11
6.557002
 21
1.182731
 31
0.0
  0
ENDBLK
  8
0
  0
BLOCK
  8
0
  2
BLC27
 70
    64
 10
0.0
 20
0.0
 30
0.0
  3
BLC27
  0
INSERT
  8
SWEDEN2
  6
CENTER
  2
BLC26
 10
0.08063
 20
0.037985
 30
0.0
 41
1.006225
 42
1.006225
 43
1.006225
  0
ENDBLK
  8
0
  0
BLOCK
  8
0
  2
BLC26
 70
    64
 10
0.0
 20
0.0
 30
0.0
  3
BLC26
  0
ARC
  8
0
  6
CONTINUOUS
 10
-0.180576
 20
1.17922
 30
0.0
 40
1.196859
 50
90.0
 51
265.706237
  0
LINE
  8
0
  6
CONTINUOUS
 10
-0.186638
 20
-0.01092
 30
0.0
 11
0.458942
 21
-0.01092
 31
0.0
  0
LINE
  8
0
  6
CONTINUOUS
 10
-0.186638
 20
2.375671
 30
0.0
 11
0.45288
 21
2.375671
 31
0.0
  0
LINE
  8
0
  6
CONTINUOUS
 10
-0.185509
 20
-2.404629
 30
0.0
 11
0.460071
 21
-2.404629
 31
0.0
  0
ARC
  8
0
  6
CONTINUOUS
 10
-0.180576
 20
-1.207779
 30
0.0
 40
1.196859
 50
90.0
 51
270.0
  0
LINE
  8
0
  6
CONTINUOUS
 10
0.451525
 20
-2.404586
 30
0.0
 11
1.401805
 21
-2.404586
 31
0.0
  0
LINE
  8
0
  6
CONTINUOUS
 10
0.446785
 20
2.375674
 30
0.0
 11
1.418544
 21
2.375674
 31
0.0
  0
LINE
  8
0
  6
CONTINUOUS
 10
0.456627
 20
-0.010911
 30
0.0
 11
1.422749
 21
-0.010911
 31
0.0
  0
ENDBLK
  8
0
  0
BLOCK
  8
0
  2
BLC22
 70
     0
 10
0.0
 20
0.0
 30
0.0
  3
BLC22
  0
LINE
  8
HEL035
 10
0.0
 20
-0.00155
 30
0.0
 11
0.0
 21
9.99845
 31
0.0
  0
LINE
  8
21
 10
2.5
 20
10.0
 30
0.0
 11
5.0
 21
10.0
 31
0.0
  0
LINE
  8
HEL035
 10
0.0
 20
9.99845
 30
0.0
 11
2.5
 21
9.99845
 31
0.0
  0
LINE
  8
HEL035
 10
-2.5
 20
5.0
 30
0.0
 11
2.5
 21
5.0
 31
0.0
  0
LINE
  8
21
 10
2.5
 20
5.0
 30
0.0
 11
5.0
 21
5.0
 31
0.0
  0
LINE
  8
21
 10
5.0
 20
5.0
 30
0.0
 11
5.0
 21
7.9
 31
0.0
  0
LINE
  8
HEL035
 10
3.88095
 20
6.944425
 30
0.0
 11
4.560313
 21
6.008681
 31
0.0
  0
LINE
  8
21
 10
10.0
 20
10.0
 30
0.0
 11
4.2
 21
6.5
 31
0.0
  0
LINE
  8
HEL035
 10
2.5
 20
-0.00155
 30
0.0
 11
0.0
 21
-0.00155
 31
0.0
  0
LINE
  8
21
 10
2.5
 20
0.0
 30
0.0
 11
5.0
 21
0.0
 31
0.0
  0
ENDBLK
  8
0
  0
BLOCK
  8
0
  2
BLC18
 70
     0
 10
0.0
 20
0.0
 30
0.0
  3
BLC18
  0
LINE
  8
MUO
 10
-0.056268
 20
0.849555
 30
0.0
 11
8.307242
 21
9.215502
 31
0.0
  0
LINE
  8
MUO
 10
0.928025
 20
-0.107047
 30
0.0
 11
9.268386
 21
8.2307
 31
0.0
  0
LINE
  8
MUO
 10
-0.056268
 20
-0.107047
 30
0.0
 11
-0.056268
 21
9.215502
 31
0.0
  0
LINE
  8
MUO
 10
9.268386
 20
-0.107047
 30
0.0
 11
-0.056268
 21
-0.107047
 31
0.0
  0
LINE
  8
MUO
 10
9.268386
 20
9.215502
 30
0.0
 11
9.268386
 21
-0.107047
 31
0.0
  0
LINE
  8
MUO
 10
-0.056268
 20
9.215502
 30
0.0
 11
9.268386
 21
9.215502
 31
0.0
  0
ENDBLK
  8
0
  0
BLOCK
  8
0
  2
BLC29
 70
    64
 10
0.0
 20
0.0
 30
0.0
  3
BLC29
  0
LINE
  8
0
  6
CONTINUOUS
 10
0.004865
 20
1.206889
 30
0.0
 11
2.350631
 21
-0.128465
 31
0.0
  0
LINE
  8
0
  6
CONTINUOUS
 10
2.350631
 20
-0.128465
 30
0.0
 11
0.004865
 21
-1.318384
 31
0.0
  0
ENDBLK
  8
0
  0
BLOCK
  8
0
  2
WKU130
 70
     0
 10
190.0
 20
250.0
 30
0.0
  3
WKU130
  0
ARC
  8
21
 10
191.083333
 20
249.916667
 30
0.0
 40
1.086534
 50
32.471192
 51
175.601295
  0
ARC
  8
21
 10
192.916667
 20
251.083333
 30
0.0
 40
1.086534
 50
212.471192
 51
355.601295
  0
ENDBLK
  8
0
  0
BLOCK
  8
0
  2
BLC15
 70
    64
 10
0.0
 20
0.0
 30
0.0
  3
BLC15
  0
LINE
  8
0
  6
CONTINUOUS
 10
0.142084
 20
3.490022
 30
0.0
 11
0.142084
 21
0.844365
 31
0.0
  0
LINE
  8
0
  6
CONTINUOUS
 10
-0.461611
 20
-0.937188
 30
0.0
 11
0.745779
 21
-0.937188
 31
0.0
  0
LINE
  8
0
  6
CONTINUOUS
 10
-0.894108
 20
-0.049675
 30
0.0
 11
1.169267
 21
-0.049675
 31
0.0
  0
LINE
  8
0
  6
CONTINUOUS
 10
-1.389679
 20
0.844365
 30
0.0
 11
1.673848
 21
0.844365
 31
0.0
  0
ENDBLK
  8
0
  0
BLOCK
  8
0
  2
BLC5
 70
     0
 10
0.0
 20
0.0
 30
0.0
  3
BLC5
  0
TEXT
  8
0
 10
-3.043704
 20
-6.645912
 30
0.0
 40
3.2
  1
PE
  0
LINE
  8
0
 10
-2.946392
 20
1.181176
 30
0.0
 11
2.135458
 21
1.181176
 31
0.0
  0
LINE
  8
0
 10
-0.48656
 20
2.238362
 30
0.0
 11
-0.48656
 21
6.930438
 31
0.0
  0
LINE
  8
0
 10
-1.973271
 20
0.065258
 30
0.0
 11
1.225411
 21
0.065258
 31
0.0
  0
LINE
  8
0
 10
2.685091
 20
2.238362
 30
0.0
 11
1.68494
 21
2.238362
 31
0.0
  0
LINE
  8
0
 10
-3.505035
 20
2.238362
 30
0.0
 11
2.649049
 21
2.238362
 31
0.0
  0
CIRCLE
  8
0
 10
-0.47755
 20
1.422632
 30
0.0
 40
3.804563
  0
ENDBLK
  8
0
  0
BLOCK
  8
0
  2
BLC43
 70
    64
 10
0.0
 20
0.0
 30
0.0
  3
BLC43
  0
TEXT
  8
SWEDEN2
  6
CONTINUOUS
 10
-0.646672
 20
-0.986365
 30
0.0
 40
2.0
  1
+
  0
ENDBLK
  8
0
  0
BLOCK
  8
0
  2
BLC42
 70
    64
 10
0.0
 20
0.0
 30
0.0
  3
BLC42
  0
TEXT
  8
SWEDEN2
  6
CONTINUOUS
 10
-0.655237
 20
-0.99442
 30
0.0
 40
2.0
  1
-
  0
ENDBLK
  8
0
  0
BLOCK
  8
0
  2
BLC25
 70
     0
 10
0.0
 20
0.0
 30
0.0
  3
BLC25
  0
TEXT
  8
0
  6
CONTINUOUS
 10
2.0
 20
30.666667
 30
0.0
 40
2.0
  1
1)
 11
2.0
 21
30.0
 31
0.0
 73
     1
  0
TEXT
  8
0
 10
6.0
 20
2.0
 30
0.0
 40
2.0
  1
7B    27     26
 11
6.0
 21
1.333333
 31
0.0
 73
     1
  0
TEXT
  8
0
 10
6.0
 20
5.333333
 30
0.0
 40
2.0
  1
5B     9      8
 11
6.0
 21
4.666667
 31
0.0
 73
     1
  0
TEXT
  8
0
 10
6.0
 20
8.666667
 30
0.0
 40
2.0
  1
3B     3      2
 11
6.0
 21
8.0
 31
0.0
 73
     1
  0
TEXT
  8
0
 10
32.0
 20
12.666667
 30
0.0
 40
2.0
  1
In=5A
 11
32.0
 21
12.0
 31
0.0
 73
     1
  0
TEXT
  8
0
 10
16.0
 20
12.666667
 30
0.0
 40
2.0
  1
In=1A 
 11
16.0
 21
12.0
 31
0.0
 73
     1
  0
TEXT
  8
0
 10
26.0
 20
18.666667
 30
0.0
 40
2.0
  1
108:
 11
26.0
 21
18.0
 31
0.0
 73
     1
  0
TEXT
  8
0
 10
6.0
 20
18.666667
 30
0.0
 40
2.0
  1
101:       
 11
6.0
 21
18.0
 31
0.0
 73
     1
  0
TEXT
  8
0
 10
6.0
 20
24.666667
 30
0.0
 40
2.0
  1
TERMINALS / UTTAG
 11
6.0
 21
24.0
 31
0.0
 73
     1
  0
LINE
  8
0
 10
0.0
 20
12.0
 30
0.0
 11
44.0
 21
12.0
 31
0.0
  0
LINE
  8
0
 10
28.0
 20
18.0
 30
0.0
 11
28.0
 21
0.0
 31
0.0
  0
LINE
  8
0
 10
14.0
 20
18.0
 30
0.0
 11
44.0
 21
18.0
 31
0.0
  0
LINE
  8
0
 10
14.0
 20
24.0
 30
0.0
 11
14.0
 21
0.0
 31
0.0
  0
LINE
  8
0
 10
0.0
 20
24.0
 30
0.0
 11
44.0
 21
24.0
 31
0.0
  0
LINE
  8
0
 10
44.0
 20
0.0
 30
0.0
 11
44.0
 21
30.0
 31
0.0
  0
LINE
  8
0
 10
0.0
 20
0.0
 30
0.0
 11
44.0
 21
0.0
 31
0.0
  0
LINE
  8
0
 10
0.0
 20
30.0
 30
0.0
 11
0.0
 21
0.0
 31
0.0
  0
LINE
  8
0
 10
44.0
 20
30.0
 30
0.0
 11
0.0
 21
30.0
 31
0.0
  0
ENDBLK
  8
0
  0
BLOCK
  8
0
  2
ABBA3V
 70
    64
 10
0.0
 20
0.0
 30
0.0
  3
ABBA3V
  0
TEXT
  8
RAAMI
  6
DASHED
 10
292.217194
 20
11.813359
 30
0.0
 40
3.0
  1
A3
  7
GREEKS
  0
TEXT
  8
RAAMI
  6
DASHED
 10
351.818577
 20
15.69253
 30
0.0
 40
1.4
  1
LEHTI SHEET
  7
GREEKS
  0
LINE
  8
PAKSU
 10
0.237099
 20
262.737999
 30
0.0
 11
392.237099
 21
262.737999
 31
0.0
  0
LINE
  8
RAAMI
 10
18.237099
 20
0.237999
 30
0.0
 11
0.237099
 21
0.237999
 31
0.0
  0
LINE
  8
PAKSU
 10
209.237099
 20
0.237999
 30
0.0
 11
392.237099
 21
0.237999
 31
0.0
  0
LINE
  8
PAKSU
 10
209.237099
 20
0.237999
 30
0.0
 11
209.237099
 21
35.237999
 31
0.0
  0
LINE
  8
PAKSU
 10
392.237099
 20
0.237999
 30
0.0
 11
392.237099
 21
35.237999
 31
0.0
  0
LINE
  8
OHUT
 10
209.237099
 20
18.237999
 30
0.0
 11
392.237099
 21
18.237999
 31
0.0
  0
LINE
  8
OHUT
 10
209.237099
 20
9.737999
 30
0.0
 11
392.237099
 21
9.737999
 31
0.0
  0
LINE
  8
OHUT
 10
209.237099
 20
26.737999
 30
0.0
 11
307.237099
 21
26.737999
 31
0.0
  0
LINE
  8
PAKSU
 10
209.237099
 20
35.237999
 30
0.0
 11
392.237099
 21
35.237999
 31
0.0
  0
TEXT
  8
RAAMI
 10
210.237099
 20
23.971333
 30
0.0
 40
1.4
  1
TARKASTI  CHECKED
  7
ROMANS
  0
TEXT
  8
RAAMI
 10
209.979934
 20
15.704666
 30
0.0
 40
1.4
  1
HYVÄKSYI  APPROVED
  7
ROMANS
  0
LINE
  8
OHUT
 10
307.237099
 20
0.237999
 30
0.0
 11
307.237099
 21
35.237999
 31
0.0
  0
TEXT
  8
RAAMI
 10
259.237099
 20
32.737999
 30
0.0
 40
1.4
  1
LIITTYY  CONCERNING
  7
ROMANS
  0
TEXT
  8
RAAMI
 10
259.237099
 20
23.737999
 30
0.0
 40
1.4
  1
TOLERANSSIT  TOLERANCES
  7
ROMANS
  0
TEXT
  8
RAAMI
 10
259.237099
 20
15.737999
 30
0.0
 40
1.4
  1
SUHDE  SCALE
  7
ROMANS
  0
TEXT
  8
RAAMI
 10
309.237099
 20
32.737999
 30
0.0
 40
1.4
  1
NIMITYS  NAME
  7
ROMANS
  0
TEXT
  8
RAAMI
 10
309.237099
 20
15.737999
 30
0.0
 40
1.4
  1
KOODI  CODE
  7
ROMANS
  0
TEXT
  8
RAAMI
 10
309.237099
 20
7.237999
 30
0.0
 40
1.4
  1
PIIRUSTUS NO  DRAWING NR
  7
ROMANS
  0
LINE
  8
OHUT
 10
349.737099
 20
9.737999
 30
0.0
 11
349.737099
 21
18.237999
 31
0.0
  0
TEXT
  8
RAAMI
 10
371.237099
 20
7.237999
 30
0.0
 40
1.4
  1
PAINOS  REVISION
  7
ROMANS
  0
LINE
  8
OHUT
 10
369.737099
 20
9.737999
 30
0.0
 11
369.737099
 21
0.237999
 31
0.0
  0
LINE
  8
RAAMI
 10
210.187099
 20
1.737999
 30
0.0
 11
211.937099
 21
1.737999
 31
0.0
  0
LINE
  8
RAAMI
 10
215.437099
 20
1.737999
 30
0.0
 11
217.187099
 21
1.737999
 31
0.0
  0
LINE
  8
RAAMI
 10
212.637099
 20
8.737999
 30
0.0
 11
211.459571
 21
5.373634
 31
0.0
  0
LINE
  8
RAAMI
 10
212.425886
 20
3.137999
 30
0.0
 11
213.547099
 21
3.137999
 31
0.0
  0
LINE
  8
RAAMI
 10
212.425889
 20
3.134542
 30
0.0
 11
211.937099
 21
1.737999
 31
0.0
  0
LINE
  8
RAAMI
 10
214.737099
 20
8.737999
 30
0.0
 11
215.913452
 21
5.376991
 31
0.0
  0
LINE
  8
RAAMI
 10
214.948197
 20
3.134863
 30
0.0
 11
215.437099
 21
1.737999
 31
0.0
  0
LINE
  8
RAAMI
 10
214.737099
 20
8.737999
 30
0.0
 11
213.827099
 21
8.737999
 31
0.0
  0
LINE
  8
RAAMI
 10
213.547099
 20
8.737999
 30
0.0
 11
213.547099
 21
5.377999
 31
0.0
  0
LINE
  8
RAAMI
 10
213.827099
 20
8.737999
 30
0.0
 11
213.827099
 21
5.377999
 31
0.0
  0
LINE
  8
RAAMI
 10
213.827099
 20
3.137999
 30
0.0
 11
214.946992
 21
3.137999
 31
0.0
  0
LINE
  8
RAAMI
 10
213.547099
 20
8.737999
 30
0.0
 11
212.637099
 21
8.737999
 31
0.0
  0
LINE
  8
RAAMI
 10
211.45904
 20
5.377999
 30
0.0
 11
213.547099
 21
5.377999
 31
0.0
  0
LINE
  8
RAAMI
 10
211.360082
 20
5.097999
 30
0.0
 11
213.547099
 21
5.097999
 31
0.0
  0
LINE
  8
RAAMI
 10
216.011591
 20
5.096594
 30
0.0
 11
217.187099
 21
1.737999
 31
0.0
  0
LINE
  8
RAAMI
 10
213.827099
 20
5.377999
 30
0.0
 11
215.912213
 21
5.377999
 31
0.0
  0
LINE
  8
RAAMI
 10
213.827099
 20
5.097999
 30
0.0
 11
216.010356
 21
5.097999
 31
0.0
  0
LINE
  8
RAAMI
 10
213.827099
 20
5.097999
 30
0.0
 11
213.827099
 21
3.137999
 31
0.0
  0
LINE
  8
RAAMI
 10
213.547099
 20
5.097999
 30
0.0
 11
213.547099
 21
3.137999
 31
0.0
  0
LINE
  8
RAAMI
 10
211.356988
 20
5.080538
 30
0.0
 11
210.187099
 21
1.737999
 31
0.0
  0
INSERT
  8
RAAMI
  2
*X22
 10
210.187099
 20
1.737999
 30
0.0
 41
0.7
 42
0.7
 43
0.7
  0
INSERT
  8
RAAMI
  2
*X23
 10
210.187099
 20
1.737999
 30
0.0
 41
0.7
 42
0.7
 43
0.7
  0
INSERT
  8
RAAMI
  2
*X24
 10
210.187099
 20
1.737999
 30
0.0
 41
0.7
 42
0.7
 43
0.7
  0
INSERT
  8
RAAMI
  2
*X25
 10
210.187099
 20
1.737999
 30
0.0
 41
0.7
 42
0.7
 43
0.7
  0
LINE
  8
RAAMI
 10
217.677099
 20
1.737999
 30
0.0
 11
217.677099
 21
5.097999
 31
0.0
  0
LINE
  8
RAAMI
 10
217.677099
 20
8.737999
 30
0.0
 11
219.637099
 21
8.737999
 31
0.0
  0
LINE
  8
RAAMI
 10
219.637099
 20
8.737999
 30
0.0
 11
219.637099
 21
5.377999
 31
0.0
  0
LINE
  8
RAAMI
 10
219.637099
 20
5.377999
 30
0.0
 11
217.677099
 21
5.377999
 31
0.0
  0
LINE
  8
RAAMI
 10
217.677099
 20
5.097999
 30
0.0
 11
219.637099
 21
5.097999
 31
0.0
  0
LINE
  8
RAAMI
 10
219.637099
 20
5.097999
 30
0.0
 11
219.637099
 21
1.737999
 31
0.0
  0
LINE
  8
RAAMI
 10
219.637099
 20
1.737999
 30
0.0
 11
217.677099
 21
1.737999
 31
0.0
  0
LINE
  8
RAAMI
 10
217.677099
 20
5.377999
 30
0.0
 11
217.677099
 21
8.737999
 31
0.0
  0
ARC
  8
RAAMI
 10
220.477099
 20
7.162999
 30
0.0
 40
1.575
 50
298.455859
 51
90.052437
  0
LINE
  8
RAAMI
 10
219.917099
 20
8.737999
 30
0.0
 11
220.475658
 21
8.737999
 31
0.0
  0
LINE
  8
RAAMI
 10
219.917099
 20
8.737999
 30
0.0
 11
219.917099
 21
5.377999
 31
0.0
  0
LINE
  8
RAAMI
 10
219.917099
 20
5.377999
 30
0.0
 11
221.901542
 21
5.377999
 31
0.0
  0
LINE
  8
RAAMI
 10
222.157099
 20
5.097999
 30
0.0
 11
219.917099
 21
5.097999
 31
0.0
  0
LINE
  8
RAAMI
 10
219.917099
 20
5.097999
 30
0.0
 11
219.917099
 21
1.737999
 31
0.0
  0
ARC
  8
RAAMI
 10
220.477099
 20
3.837999
 30
0.0
 40
2.1
 50
269.937724
 51
37.056553
  0
LINE
  8
RAAMI
 10
219.917099
 20
1.737999
 30
0.0
 11
220.474817
 21
1.738
 31
0.0
  0
ARC
  8
RAAMI
 10
220.477099
 20
3.837999
 30
0.0
 40
2.1
 50
47.28622
 51
68.787999
  0
INSERT
  8
RAAMI
  2
*X26
 10
210.187099
 20
1.737999
 30
0.0
 41
0.7
 42
0.7
 43
0.7
  0
INSERT
  8
RAAMI
  2
*X27
 10
210.187099
 20
1.737999
 30
0.0
 41
0.7
 42
0.7
 43
0.7
  0
INSERT
  8
RAAMI
  2
*X28
 10
210.187099
 20
1.737999
 30
0.0
 41
0.7
 42
0.7
 43
0.7
  0
INSERT
  8
RAAMI
  2
*X29
 10
210.187099
 20
1.737999
 30
0.0
 41
0.7
 42
0.7
 43
0.7
  0
INSERT
  8
RAAMI
  2
*X29
 10
215.647099
 20
1.737999
 30
0.0
 41
0.7
 42
0.7
 43
0.7
  0
INSERT
  8
RAAMI
  2
*X28
 10
215.647099
 20
1.737999
 30
0.0
 41
0.7
 42
0.7
 43
0.7
  0
INSERT
  8
RAAMI
  2
*X27
 10
215.647099
 20
1.737999
 30
0.0
 41
0.7
 42
0.7
 43
0.7
  0
INSERT
  8
RAAMI
  2
*X26
 10
215.647099
 20
1.737999
 30
0.0
 41
0.7
 42
0.7
 43
0.7
  0
ARC
  8
RAAMI
 10
225.937099
 20
3.837999
 30
0.0
 40
2.1
 50
47.28622
 51
68.787999
  0
LINE
  8
RAAMI
 10
225.377099
 20
1.737999
 30
0.0
 11
225.934817
 21
1.738
 31
0.0
  0
ARC
  8
RAAMI
 10
225.937099
 20
3.837999
 30
0.0
 40
2.1
 50
269.937724
 51
37.056553
  0
LINE
  8
RAAMI
 10
225.377099
 20
5.097999
 30
0.0
 11
225.377099
 21
1.737999
 31
0.0
  0
LINE
  8
RAAMI
 10
227.617099
 20
5.097999
 30
0.0
 11
225.377099
 21
5.097999
 31
0.0
  0
LINE
  8
RAAMI
 10
225.377099
 20
5.377999
 30
0.0
 11
227.361542
 21
5.377999
 31
0.0
  0
LINE
  8
RAAMI
 10
225.377099
 20
8.737999
 30
0.0
 11
225.377099
 21
5.377999
 31
0.0
  0
LINE
  8
RAAMI
 10
225.377099
 20
8.737999
 30
0.0
 11
225.935658
 21
8.737999
 31
0.0
  0
ARC
  8
RAAMI
 10
225.937099
 20
7.162999
 30
0.0
 40
1.575
 50
298.455859
 51
90.052437
  0
LINE
  8
RAAMI
 10
223.137099
 20
5.377999
 30
0.0
 11
223.137099
 21
8.737999
 31
0.0
  0
LINE
  8
RAAMI
 10
225.097099
 20
1.737999
 30
0.0
 11
223.137099
 21
1.737999
 31
0.0
  0
LINE
  8
RAAMI
 10
225.097099
 20
5.097999
 30
0.0
 11
225.097099
 21
1.737999
 31
0.0
  0
LINE
  8
RAAMI
 10
223.137099
 20
5.097999
 30
0.0
 11
225.097099
 21
5.097999
 31
0.0
  0
LINE
  8
RAAMI
 10
225.097099
 20
5.377999
 30
0.0
 11
223.137099
 21
5.377999
 31
0.0
  0
LINE
  8
RAAMI
 10
225.097099
 20
8.737999
 30
0.0
 11
225.097099
 21
5.377999
 31
0.0
  0
LINE
  8
RAAMI
 10
223.137099
 20
8.737999
 30
0.0
 11
225.097099
 21
8.737999
 31
0.0
  0
LINE
  8
RAAMI
 10
223.137099
 20
1.737999
 30
0.0
 11
223.137099
 21
5.097999
 31
0.0
  0
TEXT
  8
RAAMI
 10
229.737099
 20
1.737999
 30
0.0
 40
3.0
  1
ABB 
 41
0.8
  7
ROMANS
  0
TEXT
  8
RAAMI
 10
237.737099
 20
1.737999
 30
0.0
 40
3.0
  1
Strömberg
 41
0.8
  7
ROMANS
  0
LINE
  8
OHUT
 10
282.237099
 20
9.737999
 30
0.0
 11
282.237099
 21
18.237999
 31
0.0
  0
TEXT
  8
RAAMI
 10
27.737099
 20
4.737999
 30
0.0
 40
1.4
  1
MUUTOS
  7
ROMANS
  0
TEXT
  8
RAAMI
 10
27.737099
 20
2.471333
 30
0.0
 40
1.4
  1
REVISION
  7
ROMANS
  0
LINE
  8
OHUT
 10
46.737099
 20
9.237999
 30
0.0
 11
209.237099
 21
9.237999
 31
0.0
  0
LINE
  8
OHUT
 10
46.737099
 20
0.237999
 30
0.0
 11
46.737099
 21
9.237999
 31
0.0
  0
LINE
  8
OHUT
 10
40.737099
 20
4.737999
 30
0.0
 11
209.237099
 21
4.737999
 31
0.0
  0
LINE
  8
OHUT
 10
257.237099
 20
9.737999
 30
0.0
 11
257.237099
 21
35.237999
 31
0.0
  0
LINE
  8
OHUT
 10
271.237099
 20
9.737999
 30
0.0
 11
271.237099
 21
0.237999
 31
0.0
  0
TEXT
  8
RAAMI
 10
210.237099
 20
32.237999
 30
0.0
 40
1.4
  1
TEKI  PREPARED
  7
ROMANS
  0
TEXT
  8
RAAMI
 10
273.237099
 20
7.237999
 30
0.0
 40
1.4
  1
VAST.OSASTO RESP.DEPT.
  7
ROMANS
  0
TEXT
  8
RAAMI
 10
257.407006
 20
1.741783
 30
0.0
 40
3.0
  1
Power
 41
0.8
  7
ROMANS
  0
TEXT
  8
RAAMI
 10
42.237099
 20
1.195292
 30
0.0
 40
2.5
  1
B
  7
ROMANS
  0
TEXT
  8
RAAMI
 10
42.237099
 20
5.587508
 30
0.0
 40
2.5
  1
C
  7
ROMANS
  0
LINE
  8
PAKSU
 10
0.237099
 20
0.237999
 30
0.0
 11
392.237099
 21
0.237999
 31
0.0
  0
LINE
  8
PAKSU
 10
392.237099
 20
262.737999
 30
0.0
 11
392.237099
 21
0.237999
 31
0.0
  0
LINE
  8
PAKSU
 10
0.237099
 20
0.237999
 30
0.0
 11
0.237099
 21
262.737999
 31
0.0
  0
ENDBLK
  8
0
  0
BLOCK
  8
0
  2
*X22
 70
    65
 10
0.0
 20
0.0
 30
0.0
  3
*X
  0
LINE
  8
0
 62
     0
 10
2.284499
 20
6.52714
 30
0.0
 11
4.8
 21
9.042641
 31
0.0
  0
LINE
  8
0
 62
     0
 10
2.379686
 20
6.799104
 30
0.0
 11
4.8
 21
9.219417
 31
0.0
  0
LINE
  8
0
 62
     0
 10
2.474874
 20
7.071068
 30
0.0
 11
4.8
 21
9.396194
 31
0.0
  0
LINE
  8
0
 62
     0
 10
2.570061
 20
7.343032
 30
0.0
 11
4.8
 21
9.572971
 31
0.0
  0
LINE
  8
0
 62
     0
 10
2.665249
 20
7.614996
 30
0.0
 11
4.8
 21
9.749747
 31
0.0
  0
LINE
  8
0
 62
     0
 10
2.760436
 20
7.88696
 30
0.0
 11
4.8
 21
9.926524
 31
0.0
  0
LINE
  8
0
 62
     0
 10
2.855624
 20
8.158924
 30
0.0
 11
4.696699
 21
10.0
 31
0.0
  0
LINE
  8
0
 62
     0
 10
2.950811
 20
8.430889
 30
0.0
 11
4.519922
 21
10.0
 31
0.0
  0
LINE
  8
0
 62
     0
 10
3.045998
 20
8.702853
 30
0.0
 11
4.343146
 21
10.0
 31
0.0
  0
LINE
  8
0
 62
     0
 10
3.141186
 20
8.974817
 30
0.0
 11
4.166369
 21
10.0
 31
0.0
  0
LINE
  8
0
 62
     0
 10
3.236373
 20
9.246781
 30
0.0
 11
3.989592
 21
10.0
 31
0.0
  0
LINE
  8
0
 62
     0
 10
3.331561
 20
9.518745
 30
0.0
 11
3.812816
 21
10.0
 31
0.0
  0
LINE
  8
0
 62
     0
 10
3.426748
 20
9.790709
 30
0.0
 11
3.636039
 21
10.0
 31
0.0
  0
LINE
  8
0
 62
     0
 10
2.189311
 20
6.255175
 30
0.0
 11
4.8
 21
8.865864
 31
0.0
  0
LINE
  8
0
 62
     0
 10
2.094124
 20
5.983211
 30
0.0
 11
4.8
 21
8.689087
 31
0.0
  0
LINE
  8
0
 62
     0
 10
1.998936
 20
5.711247
 30
0.0
 11
4.8
 21
8.512311
 31
0.0
  0
LINE
  8
0
 62
     0
 10
1.903749
 20
5.439283
 30
0.0
 11
4.8
 21
8.335534
 31
0.0
  0
LINE
  8
0
 62
     0
 10
1.841243
 20
5.2
 30
0.0
 11
4.8
 21
8.158757
 31
0.0
  0
LINE
  8
0
 62
     0
 10
2.018019
 20
5.2
 30
0.0
 11
4.8
 21
7.981981
 31
0.0
  0
LINE
  8
0
 62
     0
 10
2.194796
 20
5.2
 30
0.0
 11
4.8
 21
7.805204
 31
0.0
  0
LINE
  8
0
 62
     0
 10
2.371573
 20
5.2
 30
0.0
 11
4.8
 21
7.628427
 31
0.0
  0
LINE
  8
0
 62
     0
 10
2.54835
 20
5.2
 30
0.0
 11
4.8
 21
7.45165
 31
0.0
  0
LINE
  8
0
 62
     0
 10
2.725126
 20
5.2
 30
0.0
 11
4.8
 21
7.274874
 31
0.0
  0
LINE
  8
0
 62
     0
 10
2.901903
 20
5.2
 30
0.0
 11
4.8
 21
7.098097
 31
0.0
  0
LINE
  8
0
 62
     0
 10
3.07868
 20
5.2
 30
0.0
 11
4.8
 21
6.92132
 31
0.0
  0
LINE
  8
0
 62
     0
 10
3.255456
 20
5.2
 30
0.0
 11
4.8
 21
6.744544
 31
0.0
  0
LINE
  8
0
 62
     0
 10
3.432233
 20
5.2
 30
0.0
 11
4.8
 21
6.567767
 31
0.0
  0
LINE
  8
0
 62
     0
 10
3.60901
 20
5.2
 30
0.0
 11
4.8
 21
6.39099
 31
0.0
  0
LINE
  8
0
 62
     0
 10
3.785786
 20
5.2
 30
0.0
 11
4.8
 21
6.214214
 31
0.0
  0
LINE
  8
0
 62
     0
 10
3.962563
 20
5.2
 30
0.0
 11
4.8
 21
6.037437
 31
0.0
  0
LINE
  8
0
 62
     0
 10
4.13934
 20
5.2
 30
0.0
 11
4.8
 21
5.86066
 31
0.0
  0
LINE
  8
0
 62
     0
 10
4.316117
 20
5.2
 30
0.0
 11
4.8
 21
5.683883
 31
0.0
  0
LINE
  8
0
 62
     0
 10
4.492893
 20
5.2
 30
0.0
 11
4.8
 21
5.507107
 31
0.0
  0
LINE
  8
0
 62
     0
 10
4.66967
 20
5.2
 30
0.0
 11
4.8
 21
5.33033
 31
0.0
  0
ENDBLK
  8
0
  0
BLOCK
  8
0
  2
*X23
 70
    65
 10
0.0
 20
0.0
 30
0.0
  3
*X
  0
LINE
  8
0
 62
     0
 10
5.2
 20
6.083883
 30
0.0
 11
7.178252
 21
8.062136
 31
0.0
  0
LINE
  8
0
 62
     0
 10
5.2
 20
6.26066
 30
0.0
 11
7.132421
 21
8.193082
 31
0.0
  0
LINE
  8
0
 62
     0
 10
5.2
 20
6.437437
 30
0.0
 11
7.08659
 21
8.324027
 31
0.0
  0
LINE
  8
0
 62
     0
 10
5.2
 20
6.614214
 30
0.0
 11
7.040759
 21
8.454973
 31
0.0
  0
LINE
  8
0
 62
     0
 10
5.2
 20
6.79099
 30
0.0
 11
6.994928
 21
8.585919
 31
0.0
  0
LINE
  8
0
 62
     0
 10
5.2
 20
6.967767
 30
0.0
 11
6.949097
 21
8.716864
 31
0.0
  0
LINE
  8
0
 62
     0
 10
5.2
 20
7.144544
 30
0.0
 11
6.903266
 21
8.84781
 31
0.0
  0
LINE
  8
0
 62
     0
 10
5.2
 20
7.32132
 30
0.0
 11
6.857435
 21
8.978756
 31
0.0
  0
LINE
  8
0
 62
     0
 10
5.2
 20
7.498097
 30
0.0
 11
6.811604
 21
9.109702
 31
0.0
  0
LINE
  8
0
 62
     0
 10
5.2
 20
7.674874
 30
0.0
 11
6.765773
 21
9.240647
 31
0.0
  0
LINE
  8
0
 62
     0
 10
5.2
 20
7.85165
 30
0.0
 11
6.719942
 21
9.371593
 31
0.0
  0
LINE
  8
0
 62
     0
 10
5.2
 20
8.028427
 30
0.0
 11
6.674111
 21
9.502539
 31
0.0
  0
LINE
  8
0
 62
     0
 10
5.2
 20
8.205204
 30
0.0
 11
6.62828
 21
9.633484
 31
0.0
  0
LINE
  8
0
 62
     0
 10
5.2
 20
8.381981
 30
0.0
 11
6.582449
 21
9.76443
 31
0.0
  0
LINE
  8
0
 62
     0
 10
5.2
 20
8.558757
 30
0.0
 11
6.536619
 21
9.895376
 31
0.0
  0
LINE
  8
0
 62
     0
 10
5.2
 20
8.735534
 30
0.0
 11
6.464466
 21
10.0
 31
0.0
  0
LINE
  8
0
 62
     0
 10
5.2
 20
8.912311
 30
0.0
 11
6.287689
 21
10.0
 31
0.0
  0
LINE
  8
0
 62
     0
 10
5.2
 20
9.089087
 30
0.0
 11
6.110913
 21
10.0
 31
0.0
  0
LINE
  8
0
 62
     0
 10
5.2
 20
9.265864
 30
0.0
 11
5.934136
 21
10.0
 31
0.0
  0
LINE
  8
0
 62
     0
 10
5.2
 20
9.442641
 30
0.0
 11
5.757359
 21
10.0
 31
0.0
  0
LINE
  8
0
 62
     0
 10
5.2
 20
9.619417
 30
0.0
 11
5.580583
 21
10.0
 31
0.0
  0
LINE
  8
0
 62
     0
 10
5.2
 20
9.796194
 30
0.0
 11
5.403806
 21
10.0
 31
0.0
  0
LINE
  8
0
 62
     0
 10
5.2
 20
9.972971
 30
0.0
 11
5.227029
 21
10.0
 31
0.0
  0
LINE
  8
0
 62
     0
 10
5.2
 20
5.907107
 30
0.0
 11
7.224083
 21
7.93119
 31
0.0
  0
LINE
  8
0
 62
     0
 10
5.2
 20
5.73033
 30
0.0
 11
7.269914
 21
7.800245
 31
0.0
  0
LINE
  8
0
 62
     0
 10
5.2
 20
5.553553
 30
0.0
 11
7.315745
 21
7.669299
 31
0.0
  0
LINE
  8
0
 62
     0
 10
5.2
 20
5.376777
 30
0.0
 11
7.361576
 21
7.538353
 31
0.0
  0
LINE
  8
0
 62
     0
 10
5.2
 20
5.2
 30
0.0
 11
7.407407
 21
7.407407
 31
0.0
  0
LINE
  8
0
 62
     0
 10
5.376777
 20
5.2
 30
0.0
 11
7.453238
 21
7.276462
 31
0.0
  0
LINE
  8
0
 62
     0
 10
5.553553
 20
5.2
 30
0.0
 11
7.499069
 21
7.145516
 31
0.0
  0
LINE
  8
0
 62
     0
 10
5.73033
 20
5.2
 30
0.0
 11
7.5449
 21
7.01457
 31
0.0
  0
LINE
  8
0
 62
     0
 10
5.907107
 20
5.2
 30
0.0
 11
7.590731
 21
6.883625
 31
0.0
  0
LINE
  8
0
 62
     0
 10
6.083883
 20
5.2
 30
0.0
 11
7.636562
 21
6.752679
 31
0.0
  0
LINE
  8
0
 62
     0
 10
6.26066
 20
5.2
 30
0.0
 11
7.682393
 21
6.621733
 31
0.0
  0
LINE
  8
0
 62
     0
 10
6.437437
 20
5.2
 30
0.0
 11
7.728224
 21
6.490788
 31
0.0
  0
LINE
  8
0
 62
     0
 10
6.614214
 20
5.2
 30
0.0
 11
7.774055
 21
6.359842
 31
0.0
  0
LINE
  8
0
 62
     0
 10
6.79099
 20
5.2
 30
0.0
 11
7.819886
 21
6.228896
 31
0.0
  0
LINE
  8
0
 62
     0
 10
6.967767
 20
5.2
 30
0.0
 11
7.865717
 21
6.09795
 31
0.0
  0
LINE
  8
0
 62
     0
 10
7.144544
 20
5.2
 30
0.0
 11
7.911548
 21
5.967005
 31
0.0
  0
LINE
  8
0
 62
     0
 10
7.32132
 20
5.2
 30
0.0
 11
7.957379
 21
5.836059
 31
0.0
  0
LINE
  8
0
 62
     0
 10
7.498097
 20
5.2
 30
0.0
 11
8.00321
 21
5.705113
 31
0.0
  0
LINE
  8
0
 62
     0
 10
7.674874
 20
5.2
 30
0.0
 11
8.049041
 21
5.574168
 31
0.0
  0
LINE
  8
0
 62
     0
 10
7.85165
 20
5.2
 30
0.0
 11
8.094872
 21
5.443222
 31
0.0
  0
LINE
  8
0
 62
     0
 10
8.028427
 20
5.2
 30
0.0
 11
8.140703
 21
5.312276
 31
0.0
  0
ENDBLK
  8
0
  0
BLOCK
  8
0
  2
*X24
 70
    65
 10
0.0
 20
0.0
 30
0.0
  3
*X
  0
LINE
  8
0
 62
     0
 10
0.0
 20
0.0
 30
0.0
 11
4.8
 21
4.8
 31
0.0
  0
LINE
  8
0
 62
     0
 10
0.095187
 20
0.271964
 30
0.0
 11
4.623223
 21
4.8
 31
0.0
  0
LINE
  8
0
 62
     0
 10
0.190375
 20
0.543928
 30
0.0
 11
4.446447
 21
4.8
 31
0.0
  0
LINE
  8
0
 62
     0
 10
0.285562
 20
0.815892
 30
0.0
 11
4.26967
 21
4.8
 31
0.0
  0
LINE
  8
0
 62
     0
 10
0.38075
 20
1.087857
 30
0.0
 11
4.092893
 21
4.8
 31
0.0
  0
LINE
  8
0
 62
     0
 10
0.475937
 20
1.359821
 30
0.0
 11
3.916117
 21
4.8
 31
0.0
  0
LINE
  8
0
 62
     0
 10
0.571125
 20
1.631785
 30
0.0
 11
3.73934
 21
4.8
 31
0.0
  0
LINE
  8
0
 62
     0
 10
0.666312
 20
1.903749
 30
0.0
 11
3.562563
 21
4.8
 31
0.0
  0
LINE
  8
0
 62
     0
 10
0.7615
 20
2.175713
 30
0.0
 11
3.385786
 21
4.8
 31
0.0
  0
LINE
  8
0
 62
     0
 10
0.856687
 20
2.447677
 30
0.0
 11
3.20901
 21
4.8
 31
0.0
  0
LINE
  8
0
 62
     0
 10
0.951875
 20
2.719641
 30
0.0
 11
3.032233
 21
4.8
 31
0.0
  0
LINE
  8
0
 62
     0
 10
1.047062
 20
2.991606
 30
0.0
 11
2.855456
 21
4.8
 31
0.0
  0
LINE
  8
0
 62
     0
 10
1.142249
 20
3.26357
 30
0.0
 11
2.67868
 21
4.8
 31
0.0
  0
LINE
  8
0
 62
     0
 10
1.237437
 20
3.535534
 30
0.0
 11
2.501903
 21
4.8
 31
0.0
  0
LINE
  8
0
 62
     0
 10
1.332624
 20
3.807498
 30
0.0
 11
2.325126
 21
4.8
 31
0.0
  0
LINE
  8
0
 62
     0
 10
1.427812
 20
4.079462
 30
0.0
 11
2.14835
 21
4.8
 31
0.0
  0
LINE
  8
0
 62
     0
 10
1.522999
 20
4.351426
 30
0.0
 11
1.971573
 21
4.8
 31
0.0
  0
LINE
  8
0
 62
     0
 10
1.618187
 20
4.62339
 30
0.0
 11
1.794796
 21
4.8
 31
0.0
  0
LINE
  8
0
 62
     0
 10
0.176777
 20
0.0
 30
0.0
 11
4.8
 21
4.623223
 31
0.0
  0
LINE
  8
0
 62
     0
 10
0.353553
 20
0.0
 30
0.0
 11
4.8
 21
4.446447
 31
0.0
  0
LINE
  8
0
 62
     0
 10
0.53033
 20
0.0
 30
0.0
 11
4.8
 21
4.26967
 31
0.0
  0
LINE
  8
0
 62
     0
 10
0.707107
 20
0.0
 30
0.0
 11
4.8
 21
4.092893
 31
0.0
  0
LINE
  8
0
 62
     0
 10
0.883883
 20
0.0
 30
0.0
 11
4.8
 21
3.916117
 31
0.0
  0
LINE
  8
0
 62
     0
 10
1.06066
 20
0.0
 30
0.0
 11
4.8
 21
3.73934
 31
0.0
  0
LINE
  8
0
 62
     0
 10
1.237437
 20
0.0
 30
0.0
 11
3.179842
 21
1.942405
 31
0.0
  0
LINE
  8
0
 62
     0
 10
3.237437
 20
2.0
 30
0.0
 11
4.8
 21
3.562563
 31
0.0
  0
LINE
  8
0
 62
     0
 10
1.414214
 20
0.0
 30
0.0
 11
3.084654
 21
1.670441
 31
0.0
  0
LINE
  8
0
 62
     0
 10
3.414214
 20
2.0
 30
0.0
 11
4.8
 21
3.385786
 31
0.0
  0
LINE
  8
0
 62
     0
 10
1.59099
 20
0.0
 30
0.0
 11
2.989467
 21
1.398477
 31
0.0
  0
LINE
  8
0
 62
     0
 10
3.59099
 20
2.0
 30
0.0
 11
4.8
 21
3.20901
 31
0.0
  0
LINE
  8
0
 62
     0
 10
1.767767
 20
0.0
 30
0.0
 11
2.894279
 21
1.126512
 31
0.0
  0
LINE
  8
0
 62
     0
 10
3.767767
 20
2.0
 30
0.0
 11
4.8
 21
3.032233
 31
0.0
  0
LINE
  8
0
 62
     0
 10
1.944544
 20
0.0
 30
0.0
 11
2.799092
 21
0.854548
 31
0.0
  0
LINE
  8
0
 62
     0
 10
3.944544
 20
2.0
 30
0.0
 11
4.8
 21
2.855456
 31
0.0
  0
LINE
  8
0
 62
     0
 10
2.12132
 20
0.0
 30
0.0
 11
2.703904
 21
0.582584
 31
0.0
  0
LINE
  8
0
 62
     0
 10
4.12132
 20
2.0
 30
0.0
 11
4.8
 21
2.67868
 31
0.0
  0
LINE
  8
0
 62
     0
 10
2.298097
 20
0.0
 30
0.0
 11
2.608717
 21
0.31062
 31
0.0
  0
LINE
  8
0
 62
     0
 10
4.298097
 20
2.0
 30
0.0
 11
4.8
 21
2.501903
 31
0.0
  0
LINE
  8
0
 62
     0
 10
2.474874
 20
0.0
 30
0.0
 11
2.51353
 21
0.038656
 31
0.0
  0
LINE
  8
0
 62
     0
 10
4.474874
 20
2.0
 30
0.0
 11
4.8
 21
2.325126
 31
0.0
  0
LINE
  8
0
 62
     0
 10
4.65165
 20
2.0
 30
0.0
 11
4.8
 21
2.14835
 31
0.0
  0
ENDBLK
  8
0
  0
BLOCK
  8
0
  2
*X25
 70
    65
 10
0.0
 20
0.0
 30
0.0
  3
*X
  0
LINE
  8
0
 62
     0
 10
6.884654
 20
1.75813
 30
0.0
 11
8.736506
 21
3.609982
 31
0.0
  0
LINE
  8
0
 62
     0
 10
6.838823
 20
1.889076
 30
0.0
 11
8.690675
 21
3.740928
 31
0.0
  0
LINE
  8
0
 62
     0
 10
6.772971
 20
2.0
 30
0.0
 11
8.644844
 21
3.871874
 31
0.0
  0
LINE
  8
0
 62
     0
 10
6.596194
 20
2.0
 30
0.0
 11
8.599013
 21
4.002819
 31
0.0
  0
LINE
  8
0
 62
     0
 10
6.419417
 20
2.0
 30
0.0
 11
8.553182
 21
4.133765
 31
0.0
  0
LINE
  8
0
 62
     0
 10
6.242641
 20
2.0
 30
0.0
 11
8.507351
 21
4.264711
 31
0.0
  0
LINE
  8
0
 62
     0
 10
6.065864
 20
2.0
 30
0.0
 11
8.46152
 21
4.395656
 31
0.0
  0
LINE
  8
0
 62
     0
 10
5.889087
 20
2.0
 30
0.0
 11
8.415689
 21
4.526602
 31
0.0
  0
LINE
  8
0
 62
     0
 10
5.712311
 20
2.0
 30
0.0
 11
8.369858
 21
4.657548
 31
0.0
  0
LINE
  8
0
 62
     0
 10
5.535534
 20
2.0
 30
0.0
 11
8.324027
 21
4.788493
 31
0.0
  0
LINE
  8
0
 62
     0
 10
5.358757
 20
2.0
 30
0.0
 11
8.158757
 21
4.8
 31
0.0
  0
LINE
  8
0
 62
     0
 10
5.2
 20
2.018019
 30
0.0
 11
7.981981
 21
4.8
 31
0.0
  0
LINE
  8
0
 62
     0
 10
5.2
 20
2.194796
 30
0.0
 11
7.805204
 21
4.8
 31
0.0
  0
LINE
  8
0
 62
     0
 10
5.2
 20
2.371573
 30
0.0
 11
7.628427
 21
4.8
 31
0.0
  0
LINE
  8
0
 62
     0
 10
5.2
 20
2.54835
 30
0.0
 11
7.45165
 21
4.8
 31
0.0
  0
LINE
  8
0
 62
     0
 10
5.2
 20
2.725126
 30
0.0
 11
7.274874
 21
4.8
 31
0.0
  0
LINE
  8
0
 62
     0
 10
5.2
 20
2.901903
 30
0.0
 11
7.098097
 21
4.8
 31
0.0
  0
LINE
  8
0
 62
     0
 10
5.2
 20
3.07868
 30
0.0
 11
6.92132
 21
4.8
 31
0.0
  0
LINE
  8
0
 62
     0
 10
5.2
 20
3.255456
 30
0.0
 11
6.744544
 21
4.8
 31
0.0
  0
LINE
  8
0
 62
     0
 10
5.2
 20
3.432233
 30
0.0
 11
6.567767
 21
4.8
 31
0.0
  0
LINE
  8
0
 62
     0
 10
5.2
 20
3.60901
 30
0.0
 11
6.39099
 21
4.8
 31
0.0
  0
LINE
  8
0
 62
     0
 10
5.2
 20
3.785786
 30
0.0
 11
6.214214
 21
4.8
 31
0.0
  0
LINE
  8
0
 62
     0
 10
5.2
 20
3.962563
 30
0.0
 11
6.037437
 21
4.8
 31
0.0
  0
LINE
  8
0
 62
     0
 10
5.2
 20
4.13934
 30
0.0
 11
5.86066
 21
4.8
 31
0.0
  0
LINE
  8
0
 62
     0
 10
5.2
 20
4.316117
 30
0.0
 11
5.683883
 21
4.8
 31
0.0
  0
LINE
  8
0
 62
     0
 10
5.2
 20
4.492893
 30
0.0
 11
5.507107
 21
4.8
 31
0.0
  0
LINE
  8
0
 62
     0
 10
5.2
 20
4.66967
 30
0.0
 11
5.33033
 21
4.8
 31
0.0
  0
LINE
  8
0
 62
     0
 10
6.930485
 20
1.627185
 30
0.0
 11
8.782337
 21
3.479036
 31
0.0
  0
LINE
  8
0
 62
     0
 10
6.976316
 20
1.496239
 30
0.0
 11
8.828168
 21
3.348091
 31
0.0
  0
LINE
  8
0
 62
     0
 10
7.022147
 20
1.365293
 30
0.0
 11
8.873999
 21
3.217145
 31
0.0
  0
LINE
  8
0
 62
     0
 10
7.067978
 20
1.234347
 30
0.0
 11
8.91983
 21
3.086199
 31
0.0
  0
LINE
  8
0
 62
     0
 10
7.113809
 20
1.103402
 30
0.0
 11
8.965661
 21
2.955254
 31
0.0
  0
LINE
  8
0
 62
     0
 10
7.15964
 20
0.972456
 30
0.0
 11
9.011492
 21
2.824308
 31
0.0
  0
LINE
  8
0
 62
     0
 10
7.205471
 20
0.84151
 30
0.0
 11
9.057323
 21
2.693362
 31
0.0
  0
LINE
  8
0
 62
     0
 10
7.251302
 20
0.710565
 30
0.0
 11
9.103154
 21
2.562416
 31
0.0
  0
LINE
  8
0
 62
     0
 10
7.297133
 20
0.579619
 30
0.0
 11
9.148985
 21
2.431471
 31
0.0
  0
LINE
  8
0
 62
     0
 10
7.342964
 20
0.448673
 30
0.0
 11
9.194816
 21
2.300525
 31
0.0
  0
LINE
  8
0
 62
     0
 10
7.388795
 20
0.317728
 30
0.0
 11
9.240647
 21
2.169579
 31
0.0
  0
LINE
  8
0
 62
     0
 10
7.434626
 20
0.186782
 30
0.0
 11
9.286478
 21
2.038634
 31
0.0
  0
LINE
  8
0
 62
     0
 10
7.480457
 20
0.055836
 30
0.0
 11
9.332309
 21
1.907688
 31
0.0
  0
LINE
  8
0
 62
     0
 10
7.601398
 20
0.0
 30
0.0
 11
9.37814
 21
1.776742
 31
0.0
  0
LINE
  8
0
 62
     0
 10
7.778175
 20
0.0
 30
0.0
 11
9.423971
 21
1.645797
 31
0.0
  0
LINE
  8
0
 62
     0
 10
7.954951
 20
0.0
 30
0.0
 11
9.469802
 21
1.514851
 31
0.0
  0
LINE
  8
0
 62
     0
 10
8.131728
 20
0.0
 30
0.0
 11
9.515633
 21
1.383905
 31
0.0
  0
LINE
  8
0
 62
     0
 10
8.308505
 20
0.0
 30
0.0
 11
9.561464
 21
1.252959
 31
0.0
  0
LINE
  8
0
 62
     0
 10
8.485281
 20
0.0
 30
0.0
 11
9.607295
 21
1.122014
 31
0.0
  0
LINE
  8
0
 62
     0
 10
8.662058
 20
0.0
 30
0.0
 11
9.653126
 21
0.991068
 31
0.0
  0
LINE
  8
0
 62
     0
 10
8.838835
 20
0.0
 30
0.0
 11
9.698957
 21
0.860122
 31
0.0
  0
LINE
  8
0
 62
     0
 10
9.015611
 20
0.0
 30
0.0
 11
9.744788
 21
0.729177
 31
0.0
  0
LINE
  8
0
 62
     0
 10
9.192388
 20
0.0
 30
0.0
 11
9.790619
 21
0.598231
 31
0.0
  0
LINE
  8
0
 62
     0
 10
9.369165
 20
0.0
 30
0.0
 11
9.83645
 21
0.467285
 31
0.0
  0
LINE
  8
0
 62
     0
 10
9.545942
 20
0.0
 30
0.0
 11
9.882281
 21
0.33634
 31
0.0
  0
LINE
  8
0
 62
     0
 10
9.722718
 20
0.0
 30
0.0
 11
9.928112
 21
0.205394
 31
0.0
  0
LINE
  8
0
 62
     0
 10
9.899495
 20
0.0
 30
0.0
 11
9.973943
 21
0.074448
 31
0.0
  0
ENDBLK
  8
0
  0
BLOCK
  8
0
  2
*X26
 70
    65
 10
0.0
 20
0.0
 30
0.0
  3
*X
  0
LINE
  8
0
 62
     0
 10
10.7
 20
6.280583
 30
0.0
 11
13.5
 21
9.080583
 31
0.0
  0
LINE
  8
0
 62
     0
 10
10.7
 20
6.457359
 30
0.0
 11
13.5
 21
9.257359
 31
0.0
  0
LINE
  8
0
 62
     0
 10
10.7
 20
6.634136
 30
0.0
 11
13.5
 21
9.434136
 31
0.0
  0
LINE
  8
0
 62
     0
 10
10.7
 20
6.810913
 30
0.0
 11
13.5
 21
9.610913
 31
0.0
  0
LINE
  8
0
 62
     0
 10
10.7
 20
6.987689
 30
0.0
 11
13.5
 21
9.787689
 31
0.0
  0
LINE
  8
0
 62
     0
 10
10.7
 20
7.164466
 30
0.0
 11
13.5
 21
9.964466
 31
0.0
  0
LINE
  8
0
 62
     0
 10
10.7
 20
7.341243
 30
0.0
 11
13.358757
 21
10.0
 31
0.0
  0
LINE
  8
0
 62
     0
 10
10.7
 20
7.518019
 30
0.0
 11
13.181981
 21
10.0
 31
0.0
  0
LINE
  8
0
 62
     0
 10
10.7
 20
7.694796
 30
0.0
 11
13.005204
 21
10.0
 31
0.0
  0
LINE
  8
0
 62
     0
 10
10.7
 20
7.871573
 30
0.0
 11
12.828427
 21
10.0
 31
0.0
  0
LINE
  8
0
 62
     0
 10
10.7
 20
8.04835
 30
0.0
 11
12.65165
 21
10.0
 31
0.0
  0
LINE
  8
0
 62
     0
 10
10.7
 20
8.225126
 30
0.0
 11
12.474874
 21
10.0
 31
0.0
  0
LINE
  8
0
 62
     0
 10
10.7
 20
8.401903
 30
0.0
 11
12.298097
 21
10.0
 31
0.0
  0
LINE
  8
0
 62
     0
 10
10.7
 20
8.57868
 30
0.0
 11
12.12132
 21
10.0
 31
0.0
  0
LINE
  8
0
 62
     0
 10
10.7
 20
8.755456
 30
0.0
 11
11.944544
 21
10.0
 31
0.0
  0
LINE
  8
0
 62
     0
 10
10.7
 20
8.932233
 30
0.0
 11
11.767767
 21
10.0
 31
0.0
  0
LINE
  8
0
 62
     0
 10
10.7
 20
9.10901
 30
0.0
 11
11.59099
 21
10.0
 31
0.0
  0
LINE
  8
0
 62
     0
 10
10.7
 20
9.285786
 30
0.0
 11
11.414214
 21
10.0
 31
0.0
  0
LINE
  8
0
 62
     0
 10
10.7
 20
9.462563
 30
0.0
 11
11.237437
 21
10.0
 31
0.0
  0
LINE
  8
0
 62
     0
 10
10.7
 20
9.63934
 30
0.0
 11
11.06066
 21
10.0
 31
0.0
  0
LINE
  8
0
 62
     0
 10
10.7
 20
9.816117
 30
0.0
 11
10.883883
 21
10.0
 31
0.0
  0
LINE
  8
0
 62
     0
 10
10.7
 20
9.992893
 30
0.0
 11
10.707107
 21
10.0
 31
0.0
  0
LINE
  8
0
 62
     0
 10
10.7
 20
6.103806
 30
0.0
 11
13.5
 21
8.903806
 31
0.0
  0
LINE
  8
0
 62
     0
 10
10.7
 20
5.927029
 30
0.0
 11
13.5
 21
8.727029
 31
0.0
  0
LINE
  8
0
 62
     0
 10
10.7
 20
5.750253
 30
0.0
 11
13.5
 21
8.550253
 31
0.0
  0
LINE
  8
0
 62
     0
 10
10.7
 20
5.573476
 30
0.0
 11
13.5
 21
8.373476
 31
0.0
  0
LINE
  8
0
 62
     0
 10
10.7
 20
5.396699
 30
0.0
 11
13.5
 21
8.196699
 31
0.0
  0
LINE
  8
0
 62
     0
 10
10.7
 20
5.219922
 30
0.0
 11
13.5
 21
8.019922
 31
0.0
  0
LINE
  8
0
 62
     0
 10
10.856854
 20
5.2
 30
0.0
 11
13.5
 21
7.843146
 31
0.0
  0
LINE
  8
0
 62
     0
 10
11.033631
 20
5.2
 30
0.0
 11
13.5
 21
7.666369
 31
0.0
  0
LINE
  8
0
 62
     0
 10
11.210408
 20
5.2
 30
0.0
 11
13.5
 21
7.489592
 31
0.0
  0
LINE
  8
0
 62
     0
 10
11.387184
 20
5.2
 30
0.0
 11
13.5
 21
7.312816
 31
0.0
  0
LINE
  8
0
 62
     0
 10
11.563961
 20
5.2
 30
0.0
 11
13.5
 21
7.136039
 31
0.0
  0
LINE
  8
0
 62
     0
 10
11.740738
 20
5.2
 30
0.0
 11
13.5
 21
6.959262
 31
0.0
  0
LINE
  8
0
 62
     0
 10
11.917514
 20
5.2
 30
0.0
 11
13.5
 21
6.782486
 31
0.0
  0
LINE
  8
0
 62
     0
 10
12.094291
 20
5.2
 30
0.0
 11
13.5
 21
6.605709
 31
0.0
  0
LINE
  8
0
 62
     0
 10
12.271068
 20
5.2
 30
0.0
 11
13.5
 21
6.428932
 31
0.0
  0
LINE
  8
0
 62
     0
 10
12.447845
 20
5.2
 30
0.0
 11
13.5
 21
6.252155
 31
0.0
  0
LINE
  8
0
 62
     0
 10
12.624621
 20
5.2
 30
0.0
 11
13.5
 21
6.075379
 31
0.0
  0
LINE
  8
0
 62
     0
 10
12.801398
 20
5.2
 30
0.0
 11
13.5
 21
5.898602
 31
0.0
  0
LINE
  8
0
 62
     0
 10
12.978175
 20
5.2
 30
0.0
 11
13.5
 21
5.721825
 31
0.0
  0
LINE
  8
0
 62
     0
 10
13.154951
 20
5.2
 30
0.0
 11
13.5
 21
5.545049
 31
0.0
  0
LINE
  8
0
 62
     0
 10
13.331728
 20
5.2
 30
0.0
 11
13.5
 21
5.368272
 31
0.0
  0
ENDBLK
  8
0
  0
BLOCK
  8
0
  2
*X27
 70
    65
 10
0.0
 20
0.0
 30
0.0
  3
*X
  0
LINE
  8
0
 62
     0
 10
10.7
 20
1.154058
 30
0.0
 11
13.5
 21
3.954058
 31
0.0
  0
LINE
  8
0
 62
     0
 10
10.7
 20
1.330835
 30
0.0
 11
13.5
 21
4.130835
 31
0.0
  0
LINE
  8
0
 62
     0
 10
10.7
 20
1.507612
 30
0.0
 11
13.5
 21
4.307612
 31
0.0
  0
LINE
  8
0
 62
     0
 10
10.7
 20
1.684389
 30
0.0
 11
13.5
 21
4.484389
 31
0.0
  0
LINE
  8
0
 62
     0
 10
10.7
 20
1.861165
 30
0.0
 11
13.5
 21
4.661165
 31
0.0
  0
LINE
  8
0
 62
     0
 10
10.7
 20
2.037942
 30
0.0
 11
13.462058
 21
4.8
 31
0.0
  0
LINE
  8
0
 62
     0
 10
10.7
 20
2.214719
 30
0.0
 11
13.285281
 21
4.8
 31
0.0
  0
LINE
  8
0
 62
     0
 10
10.7
 20
2.391495
 30
0.0
 11
13.108505
 21
4.8
 31
0.0
  0
LINE
  8
0
 62
     0
 10
10.7
 20
2.568272
 30
0.0
 11
12.931728
 21
4.8
 31
0.0
  0
LINE
  8
0
 62
     0
 10
10.7
 20
2.745049
 30
0.0
 11
12.754951
 21
4.8
 31
0.0
  0
LINE
  8
0
 62
     0
 10
10.7
 20
2.921825
 30
0.0
 11
12.578175
 21
4.8
 31
0.0
  0
LINE
  8
0
 62
     0
 10
10.7
 20
3.098602
 30
0.0
 11
12.401398
 21
4.8
 31
0.0
  0
LINE
  8
0
 62
     0
 10
10.7
 20
3.275379
 30
0.0
 11
12.224621
 21
4.8
 31
0.0
  0
LINE
  8
0
 62
     0
 10
10.7
 20
3.452155
 30
0.0
 11
12.047845
 21
4.8
 31
0.0
  0
LINE
  8
0
 62
     0
 10
10.7
 20
3.628932
 30
0.0
 11
11.871068
 21
4.8
 31
0.0
  0
LINE
  8
0
 62
     0
 10
10.7
 20
3.805709
 30
0.0
 11
11.694291
 21
4.8
 31
0.0
  0
LINE
  8
0
 62
     0
 10
10.7
 20
3.982486
 30
0.0
 11
11.517514
 21
4.8
 31
0.0
  0
LINE
  8
0
 62
     0
 10
10.7
 20
4.159262
 30
0.0
 11
11.340738
 21
4.8
 31
0.0
  0
LINE
  8
0
 62
     0
 10
10.7
 20
4.336039
 30
0.0
 11
11.163961
 21
4.8
 31
0.0
  0
LINE
  8
0
 62
     0
 10
10.7
 20
4.512816
 30
0.0
 11
10.987184
 21
4.8
 31
0.0
  0
LINE
  8
0
 62
     0
 10
10.7
 20
4.689592
 30
0.0
 11
10.810408
 21
4.8
 31
0.0
  0
LINE
  8
0
 62
     0
 10
10.7
 20
0.977282
 30
0.0
 11
13.5
 21
3.777282
 31
0.0
  0
LINE
  8
0
 62
     0
 10
10.7
 20
0.800505
 30
0.0
 11
13.5
 21
3.600505
 31
0.0
  0
LINE
  8
0
 62
     0
 10
10.7
 20
0.623728
 30
0.0
 11
13.5
 21
3.423728
 31
0.0
  0
LINE
  8
0
 62
     0
 10
10.7
 20
0.446952
 30
0.0
 11
13.5
 21
3.246952
 31
0.0
  0
LINE
  8
0
 62
     0
 10
10.7
 20
0.270175
 30
0.0
 11
13.5
 21
3.070175
 31
0.0
  0
LINE
  8
0
 62
     0
 10
10.7
 20
0.093398
 30
0.0
 11
13.5
 21
2.893398
 31
0.0
  0
LINE
  8
0
 62
     0
 10
10.783378
 20
0.0
 30
0.0
 11
13.5
 21
2.716622
 31
0.0
  0
LINE
  8
0
 62
     0
 10
10.960155
 20
0.0
 30
0.0
 11
13.5
 21
2.539845
 31
0.0
  0
LINE
  8
0
 62
     0
 10
11.136932
 20
0.0
 30
0.0
 11
13.5
 21
2.363068
 31
0.0
  0
LINE
  8
0
 62
     0
 10
11.313708
 20
0.0
 30
0.0
 11
13.5
 21
2.186292
 31
0.0
  0
LINE
  8
0
 62
     0
 10
11.490485
 20
0.0
 30
0.0
 11
13.5
 21
2.009515
 31
0.0
  0
LINE
  8
0
 62
     0
 10
11.667262
 20
0.0
 30
0.0
 11
13.5
 21
1.832738
 31
0.0
  0
LINE
  8
0
 62
     0
 10
11.844039
 20
0.0
 30
0.0
 11
13.5
 21
1.655961
 31
0.0
  0
LINE
  8
0
 62
     0
 10
12.020815
 20
0.0
 30
0.0
 11
13.5
 21
1.479185
 31
0.0
  0
LINE
  8
0
 62
     0
 10
12.197592
 20
0.0
 30
0.0
 11
13.5
 21
1.302408
 31
0.0
  0
LINE
  8
0
 62
     0
 10
12.374369
 20
0.0
 30
0.0
 11
13.5
 21
1.125631
 31
0.0
  0
LINE
  8
0
 62
     0
 10
12.551145
 20
0.0
 30
0.0
 11
13.5
 21
0.948855
 31
0.0
  0
LINE
  8
0
 62
     0
 10
12.727922
 20
0.0
 30
0.0
 11
13.5
 21
0.772078
 31
0.0
  0
LINE
  8
0
 62
     0
 10
12.904699
 20
0.0
 30
0.0
 11
13.5
 21
0.595301
 31
0.0
  0
LINE
  8
0
 62
     0
 10
13.081475
 20
0.0
 30
0.0
 11
13.5
 21
0.418525
 31
0.0
  0
LINE
  8
0
 62
     0
 10
13.258252
 20
0.0
 30
0.0
 11
13.5
 21
0.241748
 31
0.0
  0
LINE
  8
0
 62
     0
 10
13.435029
 20
0.0
 30
0.0
 11
13.5
 21
0.064971
 31
0.0
  0
ENDBLK
  8
0
  0
BLOCK
  8
0
  2
*X28
 70
    65
 10
0.0
 20
0.0
 30
0.0
  3
*X
  0
LINE
  8
0
 62
     0
 10
13.9
 20
6.298602
 30
0.0
 11
16.582995
 21
8.981597
 31
0.0
  0
LINE
  8
0
 62
     0
 10
13.9
 20
6.475379
 30
0.0
 11
16.510503
 21
9.085882
 31
0.0
  0
LINE
  8
0
 62
     0
 10
13.9
 20
6.652155
 30
0.0
 11
16.432927
 21
9.185083
 31
0.0
  0
LINE
  8
0
 62
     0
 10
13.9
 20
6.828932
 30
0.0
 11
16.350372
 21
9.279304
 31
0.0
  0
LINE
  8
0
 62
     0
 10
13.9
 20
7.005709
 30
0.0
 11
16.262892
 21
9.368601
 31
0.0
  0
LINE
  8
0
 62
     0
 10
13.9
 20
7.182486
 30
0.0
 11
16.170495
 21
9.452981
 31
0.0
  0
LINE
  8
0
 62
     0
 10
13.9
 20
7.359262
 30
0.0
 11
16.073145
 21
9.532407
 31
0.0
  0
LINE
  8
0
 62
     0
 10
13.9
 20
7.536039
 30
0.0
 11
15.970755
 21
9.606794
 31
0.0
  0
LINE
  8
0
 62
     0
 10
13.9
 20
7.712816
 30
0.0
 11
15.863189
 21
9.676004
 31
0.0
  0
LINE
  8
0
 62
     0
 10
13.9
 20
7.889592
 30
0.0
 11
15.75025
 21
9.739843
 31
0.0
  0
LINE
  8
0
 62
     0
 10
13.9
 20
8.066369
 30
0.0
 11
15.631675
 21
9.798044
 31
0.0
  0
LINE
  8
0
 62
     0
 10
13.9
 20
8.243146
 30
0.0
 11
15.50711
 21
9.850256
 31
0.0
  0
LINE
  8
0
 62
     0
 10
13.9
 20
8.419922
 30
0.0
 11
15.376096
 21
9.896018
 31
0.0
  0
LINE
  8
0
 62
     0
 10
13.9
 20
8.596699
 30
0.0
 11
15.238027
 21
9.934726
 31
0.0
  0
LINE
  8
0
 62
     0
 10
13.9
 20
8.773476
 30
0.0
 11
15.092096
 21
9.965572
 31
0.0
  0
LINE
  8
0
 62
     0
 10
13.9
 20
8.950253
 30
0.0
 11
14.937209
 21
9.987461
 31
0.0
  0
LINE
  8
0
 62
     0
 10
13.9
 20
9.127029
 30
0.0
 11
14.771824
 21
9.998853
 31
0.0
  0
LINE
  8
0
 62
     0
 10
13.9
 20
9.303806
 30
0.0
 11
14.596193
 21
9.999999
 31
0.0
  0
LINE
  8
0
 62
     0
 10
13.9
 20
9.480583
 30
0.0
 11
14.419417
 21
9.999999
 31
0.0
  0
LINE
  8
0
 62
     0
 10
13.9
 20
9.657359
 30
0.0
 11
14.24264
 21
10.0
 31
0.0
  0
LINE
  8
0
 62
     0
 10
13.9
 20
9.834136
 30
0.0
 11
14.065864
 21
10.0
 31
0.0
  0
LINE
  8
0
 62
     0
 10
13.9
 20
6.121825
 30
0.0
 11
16.650245
 21
8.872071
 31
0.0
  0
LINE
  8
0
 62
     0
 10
13.9
 20
5.945049
 30
0.0
 11
16.712035
 21
8.757083
 31
0.0
  0
LINE
  8
0
 62
     0
 10
13.9
 20
5.768272
 30
0.0
 11
16.768067
 21
8.636339
 31
0.0
  0
LINE
  8
0
 62
     0
 10
13.9
 20
5.591495
 30
0.0
 11
16.817955
 21
8.509451
 31
0.0
  0
LINE
  8
0
 62
     0
 10
13.9
 20
5.414719
 30
0.0
 11
16.861189
 21
8.375908
 31
0.0
  0
LINE
  8
0
 62
     0
 10
13.9
 20
5.237942
 30
0.0
 11
16.897097
 21
8.235039
 31
0.0
  0
LINE
  8
0
 62
     0
 10
14.038835
 20
5.2
 30
0.0
 11
16.924779
 21
8.085944
 31
0.0
  0
LINE
  8
0
 62
     0
 10
14.215611
 20
5.2
 30
0.0
 11
16.942997
 21
7.927385
 31
0.0
  0
LINE
  8
0
 62
     0
 10
14.392388
 20
5.2
 30
0.0
 11
16.949987
 21
7.757599
 31
0.0
  0
LINE
  8
0
 62
     0
 10
14.569165
 20
5.2
 30
0.0
 11
16.943101
 21
7.573936
 31
0.0
  0
LINE
  8
0
 62
     0
 10
14.745942
 20
5.2
 30
0.0
 11
16.918037
 21
7.372095
 31
0.0
  0
LINE
  8
0
 62
     0
 10
14.922718
 20
5.2
 30
0.0
 11
16.866909
 21
7.144191
 31
0.0
  0
LINE
  8
0
 62
     0
 10
15.099495
 20
5.2
 30
0.0
 11
16.771715
 21
6.87222
 31
0.0
  0
LINE
  8
0
 62
     0
 10
15.276272
 20
5.2
 30
0.0
 11
15.847951
 21
5.77168
 31
0.0
  0
LINE
  8
0
 62
     0
 10
15.96673
 20
5.890458
 30
0.0
 11
16.559542
 21
6.48327
 31
0.0
  0
LINE
  8
0
 62
     0
 10
15.453048
 20
5.2
 30
0.0
 11
15.970661
 21
5.717613
 31
0.0
  0
LINE
  8
0
 62
     0
 10
15.629825
 20
5.2
 30
0.0
 11
16.088934
 21
5.659109
 31
0.0
  0
LINE
  8
0
 62
     0
 10
15.806602
 20
5.2
 30
0.0
 11
16.202964
 21
5.596363
 31
0.0
  0
LINE
  8
0
 62
     0
 10
15.983378
 20
5.2
 30
0.0
 11
16.312909
 21
5.529531
 31
0.0
  0
LINE
  8
0
 62
     0
 10
16.160155
 20
5.2
 30
0.0
 11
16.418895
 21
5.45874
 31
0.0
  0
LINE
  8
0
 62
     0
 10
16.336932
 20
5.2
 30
0.0
 11
16.521021
 21
5.384089
 31
0.0
  0
LINE
  8
0
 62
     0
 10
16.513708
 20
5.2
 30
0.0
 11
16.619363
 21
5.305655
 31
0.0
  0
LINE
  8
0
 62
     0
 10
16.690485
 20
5.2
 30
0.0
 11
16.713975
 21
5.22349
 31
0.0
  0
ENDBLK
  8
0
  0
BLOCK
  8
0
  2
*X29
 70
    65
 10
0.0
 20
0.0
 30
0.0
  3
*X
  0
LINE
  8
0
 62
     0
 10
13.9
 20
0.818525
 30
0.0
 11
17.39645
 21
4.314974
 31
0.0
  0
LINE
  8
0
 62
     0
 10
13.9
 20
0.995301
 30
0.0
 11
17.336354
 21
4.431655
 31
0.0
  0
LINE
  8
0
 62
     0
 10
13.9
 20
1.172078
 30
0.0
 11
17.272078
 21
4.544156
 31
0.0
  0
LINE
  8
0
 62
     0
 10
13.9
 20
1.348855
 30
0.0
 11
17.203766
 21
4.652621
 31
0.0
  0
LINE
  8
0
 62
     0
 10
13.9
 20
1.525631
 30
0.0
 11
17.131535
 21
4.757167
 31
0.0
  0
LINE
  8
0
 62
     0
 10
13.9
 20
1.702408
 30
0.0
 11
16.997592
 21
4.8
 31
0.0
  0
LINE
  8
0
 62
     0
 10
13.9
 20
1.879185
 30
0.0
 11
16.820815
 21
4.8
 31
0.0
  0
LINE
  8
0
 62
     0
 10
13.9
 20
2.055961
 30
0.0
 11
16.644039
 21
4.8
 31
0.0
  0
LINE
  8
0
 62
     0
 10
13.9
 20
2.232738
 30
0.0
 11
16.467262
 21
4.8
 31
0.0
  0
LINE
  8
0
 62
     0
 10
13.9
 20
2.409515
 30
0.0
 11
16.290485
 21
4.8
 31
0.0
  0
LINE
  8
0
 62
     0
 10
13.9
 20
2.586292
 30
0.0
 11
16.113708
 21
4.8
 31
0.0
  0
LINE
  8
0
 62
     0
 10
13.9
 20
2.763068
 30
0.0
 11
15.936932
 21
4.8
 31
0.0
  0
LINE
  8
0
 62
     0
 10
13.9
 20
2.939845
 30
0.0
 11
15.760155
 21
4.8
 31
0.0
  0
LINE
  8
0
 62
     0
 10
13.9
 20
3.116622
 30
0.0
 11
15.583378
 21
4.8
 31
0.0
  0
LINE
  8
0
 62
     0
 10
13.9
 20
3.293398
 30
0.0
 11
15.406602
 21
4.8
 31
0.0
  0
LINE
  8
0
 62
     0
 10
13.9
 20
3.470175
 30
0.0
 11
15.229825
 21
4.8
 31
0.0
  0
LINE
  8
0
 62
     0
 10
13.9
 20
3.646952
 30
0.0
 11
15.053048
 21
4.8
 31
0.0
  0
LINE
  8
0
 62
     0
 10
13.9
 20
3.823728
 30
0.0
 11
14.876272
 21
4.8
 31
0.0
  0
LINE
  8
0
 62
     0
 10
13.9
 20
4.000505
 30
0.0
 11
14.699495
 21
4.8
 31
0.0
  0
LINE
  8
0
 62
     0
 10
13.9
 20
4.177282
 30
0.0
 11
14.522718
 21
4.8
 31
0.0
  0
LINE
  8
0
 62
     0
 10
13.9
 20
4.354058
 30
0.0
 11
14.345942
 21
4.8
 31
0.0
  0
LINE
  8
0
 62
     0
 10
13.9
 20
4.530835
 30
0.0
 11
14.169165
 21
4.8
 31
0.0
  0
LINE
  8
0
 62
     0
 10
13.9
 20
4.707612
 30
0.0
 11
13.992388
 21
4.8
 31
0.0
  0
LINE
  8
0
 62
     0
 10
13.9
 20
0.641748
 30
0.0
 11
17.452185
 21
4.193933
 31
0.0
  0
LINE
  8
0
 62
     0
 10
13.9
 20
0.464971
 30
0.0
 11
17.503339
 21
4.068311
 31
0.0
  0
LINE
  8
0
 62
     0
 10
13.9
 20
0.288194
 30
0.0
 11
17.549642
 21
3.937837
 31
0.0
  0
LINE
  8
0
 62
     0
 10
13.9
 20
0.111418
 30
0.0
 11
17.590762
 21
3.80218
 31
0.0
  0
LINE
  8
0
 62
     0
 10
13.965359
 20
0.0
 30
0.0
 11
17.62629
 21
3.660931
 31
0.0
  0
LINE
  8
0
 62
     0
 10
14.142136
 20
0.000001
 30
0.0
 11
17.655713
 21
3.513577
 31
0.0
  0
LINE
  8
0
 62
     0
 10
14.318913
 20
0.000001
 30
0.0
 11
17.678385
 21
3.359473
 31
0.0
  0
LINE
  8
0
 62
     0
 10
14.49569
 20
0.000001
 30
0.0
 11
17.693473
 21
3.197784
 31
0.0
  0
LINE
  8
0
 62
     0
 10
14.672467
 20
0.000002
 30
0.0
 11
17.699875
 21
3.027409
 31
0.0
  0
LINE
  8
0
 62
     0
 10
14.853154
 20
0.003912
 30
0.0
 11
17.696088
 21
2.846846
 31
0.0
  0
LINE
  8
0
 62
     0
 10
15.046044
 20
0.020025
 30
0.0
 11
17.679975
 21
2.653956
 31
0.0
  0
LINE
  8
0
 62
     0
 10
15.254483
 20
0.051687
 30
0.0
 11
17.648313
 21
2.445517
 31
0.0
  0
LINE
  8
0
 62
     0
 10
15.483762
 20
0.10419
 30
0.0
 11
17.59581
 21
2.216238
 31
0.0
  0
LINE
  8
0
 62
     0
 10
15.743786
 20
0.187437
 30
0.0
 11
17.512563
 21
1.956214
 31
0.0
  0
LINE
  8
0
 62
     0
 10
16.058176
 20
0.32505
 30
0.0
 11
17.37495
 21
1.641824
 31
0.0
  0
LINE
  8
0
 62
     0
 10
16.54193
 20
0.632028
 30
0.0
 11
17.067972
 21
1.15807
 31
0.0
  0
ENDBLK
  8
0
  0
BLOCK
  8
0
  2
B155
 70
     0
 10
0.0
 20
0.0
 30
0.0
  3
B155
  0
LINE
  8
0
  6
CONTINUOUS
 10
0.0
 20
0.0
 30
0.0
 11
0.0
 21
-1.35427
 31
0.0
  0
LINE
  8
0
  6
CONTINUOUS
 10
-1.210228
 20
-1.35427
 30
0.0
 11
-0.015887
 21
-1.35427
 31
0.0
  0
LINE
  8
0
  6
CONTINUOUS
 10
-0.015887
 20
-1.35427
 30
0.0
 11
1.178454
 21
-1.35427
 31
0.0
  0
LINE
  8
0
  6
CONTINUOUS
 10
-0.831823
 20
-1.833881
 30
0.0
 11
0.752749
 21
-1.833881
 31
0.0
  0
LINE
  8
0
  6
CONTINUOUS
 10
-0.500718
 20
-2.322055
 30
0.0
 11
0.386169
 21
-2.322055
 31
0.0
  0
ENDBLK
  8
0
  0
BLOCK
  8
0
  2
MAA
 70
    64
 10
0.0
 20
0.0
 30
0.0
  3
MAA
  0
LINE
  8
0
  6
CONTINUOUS
 10
-0.500718
 20
-2.587966
 30
0.0
 11
0.386169
 21
-2.587966
 31
0.0
  0
LINE
  8
0
  6
CONTINUOUS
 10
-0.831823
 20
-1.976333
 30
0.0
 11
0.752749
 21
-1.976333
 31
0.0
  0
LINE
  8
0
  6
CONTINUOUS
 10
-0.015887
 20
-1.35427
 30
0.0
 11
1.178454
 21
-1.35427
 31
0.0
  0
LINE
  8
0
  6
CONTINUOUS
 10
-1.210228
 20
-1.35427
 30
0.0
 11
-0.015887
 21
-1.35427
 31
0.0
  0
LINE
  8
0
  6
CONTINUOUS
 10
0.0
 20
0.0
 30
0.0
 11
0.0
 21
-1.35427
 31
0.0
  0
ENDBLK
  8
0
  0
BLOCK
  8
0
  2
B507
 70
    64
 10
0.0
 20
0.0
 30
0.0
  3
B507
  0
LINE
  8
0
  6
CONTINUOUS
 10
0.079622
 20
0.147754
 30
0.0
 11
0.079622
 21
-9.002074
 31
0.0
  0
INSERT
  8
0
  6
CONTINUOUS
  2
BLC29
 10
0.212369
 20
-6.641509
 30
0.0
 50
270.0
  0
ENDBLK
  8
0
  0
ENDSEC
  0
SECTION
  2
ENTITIES
  0
INSERT
  8
0
  2
1
 10
65.405438
 20
98.713066
 30
0.0
  0
INSERT
  8
0
  2
1
 10
72.541652
 20
49.71056
 30
0.0
  0
INSERT
  8
0
  2
1
 10
85.390443
 20
73.497234
 30
0.0
  0
LINE
  8
0
  6
CENTER
 62
   249
 10
260.0
 20
195.0
 30
0.0
 11
260.0
 21
87.5
 31
0.0
  0
LINE
  8
0
  6
CENTER
 62
   249
 10
260.0
 20
87.5
 30
0.0
 11
260.0
 21
57.5
 31
0.0
  0
LINE
  8
0
  6
CONTINUOUS
 62
   249
 10
210.450615
 20
202.209828
 30
0.0
 11
210.450615
 21
160.0
 31
0.0
  0
LINE
  8
0
  6
CONTINUOUS
 62
   249
 10
210.450615
 20
217.5
 30
0.0
 11
210.450615
 21
202.18832
 31
0.0
  0
LINE
  8
0
  6
CENTER
 62
   249
 10
260.0
 20
217.5
 30
0.0
 11
260.0
 21
195.0
 31
0.0
  0
LINE
  8
0
  6
CONTINUOUS
 62
   249
 10
180.0
 20
215.0
 30
0.0
 11
180.0
 21
200.0
 31
0.0
  0
LINE
  8
0
  6
CONTINUOUS
 62
   249
 10
180.0
 20
215.0
 30
0.0
 11
180.0
 21
217.5
 31
0.0
  0
LINE
  8
0
  6
CONTINUOUS
 62
   249
 10
180.0
 20
200.0
 30
0.0
 11
180.0
 21
160.0
 31
0.0
  0
LINE
  8
0
  6
CENTER
 62
   249
 10
40.0
 20
242.5
 30
0.0
 11
40.0
 21
57.5
 31
0.0
  0
LINE
  8
0
  6
CONTINUOUS
 62
   249
 10
62.5
 20
132.5
 30
0.0
 11
56.756076
 21
129.285297
 31
0.0
  0
LINE
  8
0
  6
CONTINUOUS
 62
   249
 10
75.0
 20
122.5
 30
0.0
 11
69.256076
 21
119.285297
 31
0.0
  0
LINE
  8
0
  6
CONTINUOUS
 62
   249
 10
75.0
 20
122.5
 30
0.0
 11
77.5
 21
122.5
 31
0.0
  0
LINE
  8
0
  6
CONTINUOUS
 62
   249
 10
70.0
 20
122.5
 30
0.0
 11
40.0
 21
122.5
 31
0.0
  0
LINE
  8
0
  6
DASHED
 62
   249
 10
60.0
 20
137.5
 30
0.0
 11
60.0
 21
131.100824
 31
0.0
  0
LINE
  8
0
  6
DASHED
 62
   249
 10
72.5
 20
135.0
 30
0.0
 11
72.5
 21
121.100824
 31
0.0
  0
LINE
  8
0
  6
DASHED
 62
   249
 10
85.0
 20
135.0
 30
0.0
 11
85.0
 21
106.100824
 31
0.0
  0
LINE
  8
0
  6
DASHED
 62
   249
 10
107.5
 20
112.5
 30
0.0
 11
107.5
 21
76.100824
 31
0.0
  0
TEXT
  8
0
  6
DASHED
 62
   249
 10
55.697373
 20
133.403492
 30
0.0
 40
2.0
  1
A
  7
ROMANS
  0
TEXT
  8
0
  6
DASHED
 62
   249
 10
69.143373
 20
123.774588
 30
0.0
 40
2.0
  1
B
  7
ROMANS
  0
TEXT
  8
0
  6
DASHED
 62
   249
 10
81.055109
 20
108.134364
 30
0.0
 40
2.0
  1
C
  7
ROMANS
  0
TEXT
  8
0
  6
DASHED
 62
   249
 10
103.171573
 20
78.364654
 30
0.0
 40
2.0
  1
E
  7
ROMANS
  0
LINE
  8
0
  6
CENTER
 62
   249
 10
40.0
 20
57.5
 30
0.0
 11
260.0
 21
57.5
 31
0.0
  0
LINE
  8
0
  6
CONTINUOUS
 62
   249
 10
240.0
 20
177.5
 30
0.0
 11
241.0
 21
176.5
 31
0.0
  0
LINE
  8
0
  6
CONTINUOUS
 62
   249
 10
240.0
 20
222.5
 30
0.0
 11
241.0
 21
223.5
 31
0.0
  0
LINE
  8
0
  6
CONTINUOUS
 62
   249
 10
240.0
 20
222.5
 30
0.0
 11
240.0
 21
177.5
 31
0.0
  0
LINE
  8
0
  6
CENTER
 62
   249
 10
260.0
 20
217.5
 30
0.0
 11
260.0
 21
242.5
 31
0.0
  0
LINE
  8
0
  6
CENTER
 62
   249
 10
260.0
 20
242.5
 30
0.0
 11
40.0
 21
242.5
 31
0.0
  0
LINE
  8
0
  6
CONTINUOUS
 62
   249
 10
25.0
 20
107.5
 30
0.0
 11
25.0
 21
97.499655
 31
0.0
  0
LINE
  8
0
  6
CONTINUOUS
 62
   249
 10
25.0
 20
107.5
 30
0.0
 11
26.0
 21
108.5
 31
0.0
  0
LINE
  8
0
  6
CONTINUOUS
 62
   249
 10
25.0
 20
97.499655
 30
0.0
 11
26.0
 21
96.499655
 31
0.0
  0
TEXT
  8
0
  6
CONTINUOUS
 62
   249
 10
20.0
 20
129.277191
 30
0.0
 40
2.0
  1
4)
  7
ROMANS
  0
LINE
  8
0
  6
CONTINUOUS
 62
   249
 10
180.0
 20
160.0
 30
0.0
 11
210.450615
 21
160.0
 31
0.0
  0
LINE
  8
0
  6
CONTINUOUS
 62
   249
 10
107.5
 20
187.5
 30
0.0
 11
107.5
 21
112.5
 31
0.0
  0
LINE
  8
0
  6
HIDDEN
 62
   249
 10
180.0
 20
175.0
 30
0.0
 11
200.0
 21
175.0
 31
0.0
  0
LINE
  8
0
  6
HIDDEN
 62
   249
 10
180.0
 20
170.0
 30
0.0
 11
200.0
 21
170.0
 31
0.0
  0
LINE
  8
0
  6
HIDDEN
 62
   249
 10
180.0
 20
185.0
 30
0.0
 11
200.0
 21
185.0
 31
0.0
  0
LINE
  8
0
  6
CONTINUOUS
 62
   249
 10
186.731727
 20
188.677597
 30
0.0
 11
189.077493
 21
187.342244
 31
0.0
  0
LINE
  8
0
  6
CONTINUOUS
 62
   249
 10
189.077493
 20
187.342244
 30
0.0
 11
186.731727
 21
186.152325
 31
0.0
  0
LINE
  8
0
  6
CONTINUOUS
 62
   249
 10
180.0
 20
217.5
 30
0.0
 11
210.450615
 21
217.5
 31
0.0
  0
TEXT
  8
0
  6
CONTINUOUS
 62
   249
 10
205.0
 20
212.5
 30
0.0
 40
2.5
  1
U1
  7
ROMANS
  0
LINE
  8
0
  6
CONTINUOUS
 62
   249
 10
52.798812
 20
215.0
 30
0.0
 11
47.5
 21
215.0
 31
0.0
  0
LINE
  8
0
  6
CONTINUOUS
 62
   249
 10
52.798812
 20
220.0
 30
0.0
 11
40.0
 21
220.0
 31
0.0
  0
LINE
  8
0
 62
   249
 10
52.798812
 20
221.589925
 30
0.0
 11
52.798812
 21
213.4
 31
0.0
  0
LINE
  8
0
 62
   249
 10
57.004853
 20
221.59384
 30
0.0
 11
55.09105
 21
219.315018
 31
0.0
  0
LINE
  8
0
 62
   249
 10
58.496971
 20
221.59384
 30
0.0
 11
56.642636
 21
219.315018
 31
0.0
  0
LINE
  8
0
 62
   249
 10
60.221556
 20
221.589925
 30
0.0
 11
52.798812
 21
221.589925
 31
0.0
  0
LINE
  8
0
 62
   249
 10
60.221556
 20
213.4
 30
0.0
 11
60.221556
 21
221.589925
 31
0.0
  0
LINE
  8
0
  6
CONTINUOUS
 62
   249
 10
60.221556
 20
217.5
 30
0.0
 11
65.0
 21
217.5
 31
0.0
  0
LINE
  8
0
  6
CONTINUOUS
 62
   249
 10
60.221556
 20
210.0
 30
0.0
 11
167.5
 21
210.0
 31
0.0
  0
LINE
  8
0
 62
   249
 10
60.221556
 20
206.204212
 30
0.0
 11
60.221556
 21
214.089925
 31
0.0
  0
LINE
  8
0
 62
   249
 10
60.221556
 20
213.704212
 30
0.0
 11
52.798812
 21
213.704212
 31
0.0
  0
LINE
  8
0
 62
   249
 10
58.496971
 20
213.708127
 30
0.0
 11
56.642636
 21
211.429305
 31
0.0
  0
LINE
  8
0
 62
   249
 10
57.004853
 20
213.708127
 30
0.0
 11
55.09105
 21
211.429305
 31
0.0
  0
LINE
  8
0
 62
   249
 10
52.798812
 20
214.089925
 30
0.0
 11
52.798812
 21
206.204212
 31
0.0
  0
LINE
  8
0
  6
CONTINUOUS
 62
   249
 10
52.798812
 20
212.5
 30
0.0
 11
40.0
 21
212.5
 31
0.0
  0
LINE
  8
0
  6
CONTINUOUS
 62
   249
 10
52.798812
 20
207.5
 30
0.0
 11
47.5
 21
207.5
 31
0.0
  0
LINE
  8
0
 62
   249
 10
60.221556
 20
206.204212
 30
0.0
 11
52.798812
 21
206.204212
 31
0.0
  0
LINE
  8
0
  6
CONTINUOUS
 62
   249
 10
232.5
 20
95.0
 30
0.0
 11
240.0
 21
95.0
 31
0.0
  0
LINE
  8
0
 62
   249
 10
245.0
 20
137.5
 30
0.0
 11
243.480133
 21
137.5
 31
0.0
  0
ARC
  8
0
 62
   249
 10
245.065849
 20
138.75
 30
0.0
 40
1.251733
 50
266.984476
 51
93.015524
  0
LINE
  8
0
 62
   249
 10
245.0
 20
140.0
 30
0.0
 11
243.480133
 21
140.0
 31
0.0
  0
LINE
  8
0
 62
   249
 10
245.0
 20
142.5
 30
0.0
 11
243.480133
 21
142.5
 31
0.0
  0
ARC
  8
0
 62
   249
 10
245.065849
 20
141.25
 30
0.0
 40
1.251733
 50
266.984476
 51
93.015524
  0
LINE
  8
0
 62
   249
 10
250.0
 20
135.0
 30
0.0
 11
252.5
 21
135.0
 31
0.0
  0
ARC
  8
0
 62
   249
 10
249.934151
 20
136.25
 30
0.0
 40
1.251733
 50
86.984476
 51
273.015524
  0
ARC
  8
0
 62
   249
 10
249.934151
 20
138.75
 30
0.0
 40
1.251733
 50
86.984476
 51
273.015524
  0
LINE
  8
0
 62
   249
 10
250.0
 20
137.5
 30
0.0
 11
252.5
 21
137.5
 31
0.0
  0
LINE
  8
0
 62
   249
 10
250.0
 20
140.0
 30
0.0
 11
252.5
 21
140.0
 31
0.0
  0
LINE
  8
0
 62
   249
 10
252.5
 20
140.0
 30
0.0
 11
255.0
 21
140.0
 31
0.0
  0
LINE
  8
0
 62
   249
 10
252.5
 20
135.0
 30
0.0
 11
260.0
 21
135.0
 31
0.0
  0
LINE
  8
0
 62
   249
 10
252.5
 20
140.0
 30
0.0
 11
260.0
 21
140.0
 31
0.0
  0
LINE
  8
0
 62
   249
 10
252.5
 20
145.0
 30
0.0
 11
260.0
 21
145.0
 31
0.0
  0
LINE
  8
0
 62
   249
 10
250.0
 20
145.0
 30
0.0
 11
252.5
 21
145.0
 31
0.0
  0
LINE
  8
0
 62
   249
 10
250.0
 20
142.5
 30
0.0
 11
252.5
 21
142.5
 31
0.0
  0
ARC
  8
0
 62
   249
 10
249.934151
 20
143.75
 30
0.0
 40
1.251733
 50
86.984476
 51
273.015524
  0
ARC
  8
0
 62
   249
 10
249.934151
 20
141.25
 30
0.0
 40
1.251733
 50
86.984476
 51
273.015524
  0
LINE
  8
0
 62
   249
 10
250.0
 20
140.0
 30
0.0
 11
252.5
 21
140.0
 31
0.0
  0
LINE
  8
0
 62
   249
 10
245.0
 20
177.5
 30
0.0
 11
243.480133
 21
177.5
 31
0.0
  0
ARC
  8
0
 62
   249
 10
245.065849
 20
178.75
 30
0.0
 40
1.251733
 50
266.984476
 51
93.015524
  0
LINE
  8
0
 62
   249
 10
245.0
 20
180.0
 30
0.0
 11
243.480133
 21
180.0
 31
0.0
  0
LINE
  8
0
 62
   249
 10
245.0
 20
182.5
 30
0.0
 11
243.480133
 21
182.5
 31
0.0
  0
ARC
  8
0
 62
   249
 10
245.065849
 20
181.25
 30
0.0
 40
1.251733
 50
266.984476
 51
93.015524
  0
LINE
  8
0
 62
   249
 10
250.0
 20
175.0
 30
0.0
 11
252.5
 21
175.0
 31
0.0
  0
ARC
  8
0
 62
   249
 10
249.934151
 20
176.25
 30
0.0
 40
1.251733
 50
86.984476
 51
273.015524
  0
ARC
  8
0
 62
   249
 10
249.934151
 20
178.75
 30
0.0
 40
1.251733
 50
86.984476
 51
273.015524
  0
LINE
  8
0
 62
   249
 10
250.0
 20
177.5
 30
0.0
 11
252.5
 21
177.5
 31
0.0
  0
LINE
  8
0
 62
   249
 10
250.0
 20
180.0
 30
0.0
 11
252.5
 21
180.0
 31
0.0
  0
LINE
  8
0
 62
   249
 10
252.5
 20
180.0
 30
0.0
 11
255.0
 21
180.0
 31
0.0
  0
LINE
  8
0
 62
   249
 10
252.5
 20
175.0
 30
0.0
 11
260.0
 21
175.0
 31
0.0
  0
LINE
  8
0
 62
   249
 10
252.5
 20
180.0
 30
0.0
 11
260.0
 21
180.0
 31
0.0
  0
LINE
  8
0
 62
   249
 10
252.5
 20
185.0
 30
0.0
 11
260.0
 21
185.0
 31
0.0
  0
LINE
  8
0
 62
   249
 10
250.0
 20
185.0
 30
0.0
 11
252.5
 21
185.0
 31
0.0
  0
LINE
  8
0
 62
   249
 10
250.0
 20
182.5
 30
0.0
 11
252.5
 21
182.5
 31
0.0
  0
ARC
  8
0
 62
   249
 10
249.934151
 20
183.75
 30
0.0
 40
1.251733
 50
86.984476
 51
273.015524
  0
ARC
  8
0
 62
   249
 10
249.934151
 20
181.25
 30
0.0
 40
1.251733
 50
86.984476
 51
273.015524
  0
LINE
  8
0
 62
   249
 10
250.0
 20
180.0
 30
0.0
 11
252.5
 21
180.0
 31
0.0
  0
LINE
  8
0
 62
   249
 10
245.0
 20
197.5
 30
0.0
 11
243.480133
 21
197.5
 31
0.0
  0
ARC
  8
0
 62
   249
 10
245.065849
 20
198.75
 30
0.0
 40
1.251733
 50
266.984476
 51
93.015524
  0
LINE
  8
0
 62
   249
 10
245.0
 20
200.0
 30
0.0
 11
243.480133
 21
200.0
 31
0.0
  0
LINE
  8
0
 62
   249
 10
245.0
 20
202.5
 30
0.0
 11
243.480133
 21
202.5
 31
0.0
  0
ARC
  8
0
 62
   249
 10
245.065849
 20
201.25
 30
0.0
 40
1.251733
 50
266.984476
 51
93.015524
  0
LINE
  8
0
 62
   249
 10
250.0
 20
195.0
 30
0.0
 11
252.5
 21
195.0
 31
0.0
  0
ARC
  8
0
 62
   249
 10
249.934151
 20
196.25
 30
0.0
 40
1.251733
 50
86.984476
 51
273.015524
  0
ARC
  8
0
 62
   249
 10
249.934151
 20
198.75
 30
0.0
 40
1.251733
 50
86.984476
 51
273.015524
  0
LINE
  8
0
 62
   249
 10
250.0
 20
197.5
 30
0.0
 11
252.5
 21
197.5
 31
0.0
  0
LINE
  8
0
 62
   249
 10
250.0
 20
200.0
 30
0.0
 11
252.5
 21
200.0
 31
0.0
  0
LINE
  8
0
 62
   249
 10
252.5
 20
200.0
 30
0.0
 11
255.0
 21
200.0
 31
0.0
  0
LINE
  8
0
 62
   249
 10
252.5
 20
195.0
 30
0.0
 11
260.0
 21
195.0
 31
0.0
  0
LINE
  8
0
 62
   249
 10
252.5
 20
200.0
 30
0.0
 11
260.0
 21
200.0
 31
0.0
  0
LINE
  8
0
 62
   249
 10
252.5
 20
205.0
 30
0.0
 11
260.0
 21
205.0
 31
0.0
  0
LINE
  8
0
 62
   249
 10
250.0
 20
205.0
 30
0.0
 11
252.5
 21
205.0
 31
0.0
  0
LINE
  8
0
 62
   249
 10
250.0
 20
202.5
 30
0.0
 11
252.5
 21
202.5
 31
0.0
  0
ARC
  8
0
 62
   249
 10
249.934151
 20
203.75
 30
0.0
 40
1.251733
 50
86.984476
 51
273.015524
  0
ARC
  8
0
 62
   249
 10
249.934151
 20
201.25
 30
0.0
 40
1.251733
 50
86.984476
 51
273.015524
  0
LINE
  8
0
 62
   249
 10
250.0
 20
200.0
 30
0.0
 11
252.5
 21
200.0
 31
0.0
  0
LINE
  8
0
 62
   249
 10
245.0
 20
217.5
 30
0.0
 11
243.480133
 21
217.5
 31
0.0
  0
ARC
  8
0
 62
   249
 10
245.065849
 20
218.75
 30
0.0
 40
1.251733
 50
266.984476
 51
93.015524
  0
LINE
  8
0
 62
   249
 10
245.0
 20
220.0
 30
0.0
 11
243.480133
 21
220.0
 31
0.0
  0
LINE
  8
0
 62
   249
 10
245.0
 20
222.5
 30
0.0
 11
243.480133
 21
222.5
 31
0.0
  0
ARC
  8
0
 62
   249
 10
245.065849
 20
221.25
 30
0.0
 40
1.251733
 50
266.984476
 51
93.015524
  0
LINE
  8
0
 62
   249
 10
250.0
 20
215.0
 30
0.0
 11
252.5
 21
215.0
 31
0.0
  0
ARC
  8
0
 62
   249
 10
249.934151
 20
216.25
 30
0.0
 40
1.251733
 50
86.984476
 51
273.015524
  0
ARC
  8
0
 62
   249
 10
249.934151
 20
218.75
 30
0.0
 40
1.251733
 50
86.984476
 51
273.015524
  0
LINE
  8
0
 62
   249
 10
250.0
 20
217.5
 30
0.0
 11
252.5
 21
217.5
 31
0.0
  0
LINE
  8
0
 62
   249
 10
250.0
 20
220.0
 30
0.0
 11
252.5
 21
220.0
 31
0.0
  0
LINE
  8
0
 62
   249
 10
252.5
 20
220.0
 30
0.0
 11
255.0
 21
220.0
 31
0.0
  0
LINE
  8
0
 62
   249
 10
252.5
 20
215.0
 30
0.0
 11
260.0
 21
215.0
 31
0.0
  0
LINE
  8
0
 62
   249
 10
252.5
 20
220.0
 30
0.0
 11
255.0
 21
220.0
 31
0.0
  0
LINE
  8
0
 62
   249
 10
252.5
 20
225.0
 30
0.0
 11
255.0
 21
225.0
 31
0.0
  0
LINE
  8
0
 62
   249
 10
250.0
 20
225.0
 30
0.0
 11
260.0
 21
225.0
 31
0.0
  0
LINE
  8
0
 62
   249
 10
250.0
 20
222.5
 30
0.0
 11
252.5
 21
222.5
 31
0.0
  0
ARC
  8
0
 62
   249
 10
249.934151
 20
223.75
 30
0.0
 40
1.251733
 50
86.984476
 51
273.015524
  0
ARC
  8
0
 62
   249
 10
249.934151
 20
221.25
 30
0.0
 40
1.251733
 50
86.984476
 51
273.015524
  0
LINE
  8
0
 62
   249
 10
250.0
 20
220.0
 30
0.0
 11
260.0
 21
220.0
 31
0.0
  0
TEXT
  8
0
  6
CONTINUOUS
 62
   249
 10
256.620002
 20
222.163714
 30
0.0
 40
2.0
  1
3
  7
ROMANS
  0
TEXT
  8
0
  6
CONTINUOUS
 62
   249
 10
256.620002
 20
217.199365
 30
0.0
 40
2.0
  1
2
  7
ROMANS
  0
TEXT
  8
0
  6
CONTINUOUS
 62
   249
 10
256.620002
 20
212.246037
 30
0.0
 40
2.0
  1
1
  7
ROMANS
  0
TEXT
  8
0
  6
CONTINUOUS
 62
   249
 10
256.620002
 20
182.106638
 30
0.0
 40
2.0
  1
9
  7
ROMANS
  0
TEXT
  8
0
  6
CONTINUOUS
 62
   249
 10
256.620002
 20
177.505961
 30
0.0
 40
2.0
  1
8
  7
ROMANS
  0
TEXT
  8
0
  6
CONTINUOUS
 62
   249
 10
256.620002
 20
172.001615
 30
0.0
 40
2.0
  1
7
  7
ROMANS
  0
LINE
  8
0
  6
HIDDEN
 62
   249
 10
260.0
 20
230.0
 30
0.0
 11
255.0
 21
230.0
 31
0.0
  0
LINE
  8
0
  6
HIDDEN
 62
   249
 10
255.0
 20
230.0
 30
0.0
 11
255.0
 21
65.0
 31
0.0
  0
LINE
  8
0
  6
HIDDEN
 62
   249
 10
255.0
 20
65.0
 30
0.0
 11
260.0
 21
65.0
 31
0.0
  0
TEXT
  8
0
  6
HIDDEN
 62
   249
 10
255.929881
 20
226.186149
 30
0.0
 40
2.0
  1
X0
  7
ROMANS
  0
LINE
  8
0
  6
CONTINUOUS
 62
   249
 10
240.0
 20
200.0
 30
0.0
 11
232.5
 21
200.0
 31
0.0
  0
LINE
  8
0
  6
DASHED
 62
   249
 10
40.0
 20
220.0
 30
0.0
 11
32.5
 21
220.0
 31
0.0
  0
LINE
  8
0
  6
DASHED
 62
   249
 10
40.0
 20
212.5
 30
0.0
 11
32.5
 21
212.5
 31
0.0
  0
LINE
  8
0
  6
DASHED
 62
   249
 10
40.0
 20
207.5
 30
0.0
 11
32.5
 21
207.5
 31
0.0
  0
LINE
  8
0
  6
CONTINUOUS
 62
   249
 10
25.0
 20
207.499655
 30
0.0
 11
26.0
 21
206.499655
 31
0.0
  0
LINE
  8
0
  6
CONTINUOUS
 62
   249
 10
25.0
 20
220.0
 30
0.0
 11
26.0
 21
221.0
 31
0.0
  0
LINE
  8
0
  6
CONTINUOUS
 62
   249
 10
25.0
 20
220.0
 30
0.0
 11
25.0
 21
207.499655
 31
0.0
  0
LINE
  8
0
  6
DASHED
 62
   249
 10
40.0
 20
107.5
 30
0.0
 11
27.5
 21
107.5
 31
0.0
  0
LINE
  8
0
  6
DASHED
 62
   249
 10
40.0
 20
97.5
 30
0.0
 11
27.5
 21
97.5
 31
0.0
  0
LINE
  8
0
  6
DASHED
 62
   249
 10
40.0
 20
77.5
 30
0.0
 11
27.5
 21
77.5
 31
0.0
  0
LINE
  8
0
  6
CONTINUOUS
 62
   249
 10
25.0
 20
77.5
 30
0.0
 11
26.0
 21
78.5
 31
0.0
  0
LINE
  8
0
  6
CONTINUOUS
 62
   249
 10
25.0
 20
67.499655
 30
0.0
 11
26.0
 21
66.499655
 31
0.0
  0
LINE
  8
0
  6
CONTINUOUS
 62
   249
 10
25.0
 20
77.5
 30
0.0
 11
25.0
 21
67.499655
 31
0.0
  0
TEXT
  8
0
  6
CONTINUOUS
 62
   249
 10
203.537884
 20
180.244195
 30
0.0
 40
2.5
  1
U
  7
GREEKS
  0
TEXT
  8
0
  6
CONTINUOUS
 62
   249
 10
255.433748
 20
142.294439
 30
0.0
 40
2.0
  1
30
  7
ROMANS
  0
TEXT
  8
0
  6
CONTINUOUS
 62
   249
 10
255.433748
 20
137.245957
 30
0.0
 40
2.0
  1
29
  7
ROMANS
  0
TEXT
  8
0
  6
CONTINUOUS
 62
   249
 10
255.433748
 20
132.197475
 30
0.0
 40
2.0
  1
28
  7
ROMANS
  0
LINE
  8
0
  6
CONTINUOUS
 62
   249
 10
47.5
 20
207.5
 30
0.0
 11
40.0
 21
207.5
 31
0.0
  0
LINE
  8
0
  6
CONTINUOUS
 62
   249
 10
47.5
 20
215.0
 30
0.0
 11
47.5
 21
207.5
 31
0.0
  0
LINE
  8
0
  6
CONTINUOUS
 62
   249
 10
189.900936
 20
179.960055
 30
0.0
 11
192.400936
 21
179.960055
 31
0.0
  0
LINE
  8
0
  6
CONTINUOUS
 62
   249
 10
189.900936
 20
179.960055
 30
0.0
 11
187.676489
 21
179.399413
 31
0.0
  0
LINE
  8
0
  6
CONTINUOUS
 62
   249
 10
184.900936
 20
179.960055
 30
0.0
 11
187.400936
 21
179.960055
 31
0.0
  0
TEXT
  8
0
  6
HIDDEN
 62
   249
 10
181.080478
 20
179.226807
 30
0.0
 40
1.5
  1
EN
  0
TEXT
  8
0
  6
HIDDEN
 62
   249
 10
181.080478
 20
182.167847
 30
0.0
 40
1.5
  1
EN
  0
LINE
  8
0
  6
CONTINUOUS
 62
   249
 10
184.900936
 20
182.901095
 30
0.0
 11
187.400936
 21
182.901095
 31
0.0
  0
LINE
  8
0
  6
CONTINUOUS
 62
   249
 10
189.900936
 20
182.901095
 30
0.0
 11
187.676489
 21
182.340453
 31
0.0
  0
LINE
  8
0
  6
CONTINUOUS
 62
   249
 10
189.900936
 20
182.901095
 30
0.0
 11
192.400936
 21
182.901095
 31
0.0
  0
LINE
  8
0
  6
CONTINUOUS
 62
   249
 10
178.01273
 20
164.971652
 30
0.0
 11
170.0
 21
164.971652
 31
0.0
  0
LINE
  8
0
  6
CONTINUOUS
 62
   249
 10
178.01273
 20
168.000813
 30
0.0
 11
167.5
 21
168.000813
 31
0.0
  0
CIRCLE
  8
0
  6
CONTINUOUS
 62
   249
 10
179.012659
 20
167.994509
 30
0.0
 40
1.0
  0
CIRCLE
  8
0
  6
CONTINUOUS
 62
   249
 10
179.012659
 20
164.965349
 30
0.0
 40
1.0
  0
LINE
  8
0
  6
CONTINUOUS
 62
   249
 10
191.431134
 20
177.590902
 30
0.0
 11
191.431134
 21
175.80277
 31
0.0
  0
LINE
  8
0
  6
CONTINUOUS
 62
   249
 10
191.462165
 20
176.745623
 30
0.0
 11
199.25037
 21
176.745623
 31
0.0
  0
LINE
  8
0
  6
CONTINUOUS
 62
   249
 10
196.291717
 20
178.943786
 30
0.0
 11
197.192394
 21
177.820037
 31
0.0
  0
LINE
  8
0
  6
CONTINUOUS
 62
   249
 10
193.84631
 20
175.578021
 30
0.0
 11
196.72242
 21
178.406579
 31
0.0
  0
LINE
  8
0
  6
CONTINUOUS
 62
   249
 10
199.245829
 20
177.590902
 30
0.0
 11
199.245829
 21
175.80277
 31
0.0
  0
LINE
  8
0
  6
CONTINUOUS
 62
   249
 10
186.116749
 20
173.561795
 30
0.0
 11
188.462514
 21
172.226442
 31
0.0
  0
LINE
  8
0
  6
CONTINUOUS
 62
   249
 10
188.462514
 20
172.226442
 30
0.0
 11
186.116749
 21
171.036523
 31
0.0
  0
LINE
  8
0
  6
CONTINUOUS
 62
   249
 10
187.847242
 20
173.561795
 30
0.0
 11
190.193008
 21
172.226442
 31
0.0
  0
LINE
  8
0
  6
CONTINUOUS
 62
   249
 10
190.193008
 20
172.226442
 30
0.0
 11
187.847242
 21
171.036523
 31
0.0
  0
LINE
  8
0
  6
CONTINUOUS
 62
   249
 10
189.900936
 20
167.901095
 30
0.0
 11
192.400936
 21
167.901095
 31
0.0
  0
LINE
  8
0
  6
CONTINUOUS
 62
   249
 10
189.900936
 20
167.901095
 30
0.0
 11
187.676489
 21
167.340453
 31
0.0
  0
LINE
  8
0
  6
CONTINUOUS
 62
   249
 10
184.900936
 20
167.901095
 30
0.0
 11
187.400936
 21
167.901095
 31
0.0
  0
TEXT
  8
0
  6
HIDDEN
 62
   249
 10
181.080478
 20
167.167847
 30
0.0
 40
1.5
  1
EN
  0
TEXT
  8
0
  6
HIDDEN
 62
   249
 10
181.080478
 20
164.226807
 30
0.0
 40
1.5
  1
EN
  0
LINE
  8
0
  6
CONTINUOUS
 62
   249
 10
184.900936
 20
164.960055
 30
0.0
 11
187.400936
 21
164.960055
 31
0.0
  0
LINE
  8
0
  6
CONTINUOUS
 62
   249
 10
189.900936
 20
164.960055
 30
0.0
 11
187.676489
 21
164.399413
 31
0.0
  0
LINE
  8
0
  6
CONTINUOUS
 62
   249
 10
189.900936
 20
164.960055
 30
0.0
 11
192.400936
 21
164.960055
 31
0.0
  0
LINE
  8
0
  6
CONTINUOUS
 62
   249
 10
199.245829
 20
162.489158
 30
0.0
 11
199.245829
 21
160.701026
 31
0.0
  0
LINE
  8
0
  6
CONTINUOUS
 62
   249
 10
193.84631
 20
160.476276
 30
0.0
 11
196.72242
 21
163.304835
 31
0.0
  0
LINE
  8
0
  6
CONTINUOUS
 62
   249
 10
196.291717
 20
163.842042
 30
0.0
 11
197.192394
 21
162.718293
 31
0.0
  0
LINE
  8
0
  6
CONTINUOUS
 62
   249
 10
191.462165
 20
161.643879
 30
0.0
 11
199.25037
 21
161.643879
 31
0.0
  0
LINE
  8
0
  6
CONTINUOUS
 62
   249
 10
191.431134
 20
162.489158
 30
0.0
 11
191.431134
 21
160.701026
 31
0.0
  0
TEXT
  8
0
  6
CONTINUOUS
 62
   249
 10
205.0
 20
185.775586
 30
0.0
 40
2.5
  1
U2
  7
ROMANS
  0
ARC
  8
0
 62
   249
 10
249.934151
 20
116.25
 30
0.0
 40
1.251733
 50
86.984476
 51
273.015524
  0
ARC
  8
0
 62
   249
 10
249.934151
 20
118.75
 30
0.0
 40
1.251733
 50
86.984476
 51
273.015524
  0
LINE
  8
0
 62
   249
 10
250.0
 20
117.5
 30
0.0
 11
252.5
 21
117.5
 31
0.0
  0
LINE
  8
0
 62
   249
 10
252.5
 20
120.0
 30
0.0
 11
255.0
 21
120.0
 31
0.0
  0
LINE
  8
0
 62
   249
 10
252.5
 20
115.0
 30
0.0
 11
255.0
 21
115.0
 31
0.0
  0
LINE
  8
0
 62
   249
 10
252.5
 20
115.0
 30
0.0
 11
255.0
 21
115.0
 31
0.0
  0
LINE
  8
0
 62
   249
 10
250.0
 20
115.0
 30
0.0
 11
260.0
 21
115.0
 31
0.0
  0
LINE
  8
0
 62
   249
 10
250.0
 20
112.5
 30
0.0
 11
252.5
 21
112.5
 31
0.0
  0
ARC
  8
0
 62
   249
 10
249.934151
 20
113.75
 30
0.0
 40
1.251733
 50
86.984476
 51
273.015524
  0
ARC
  8
0
 62
   249
 10
249.934151
 20
111.25
 30
0.0
 40
1.251733
 50
86.984476
 51
273.015524
  0
LINE
  8
0
 62
   249
 10
250.0
 20
110.0
 30
0.0
 11
252.5
 21
110.0
 31
0.0
  0
ARC
  8
0
 62
   249
 10
245.065849
 20
116.25
 30
0.0
 40
1.251733
 50
266.984476
 51
93.015524
  0
LINE
  8
0
 62
   249
 10
245.0
 20
117.5
 30
0.0
 11
243.480133
 21
117.5
 31
0.0
  0
LINE
  8
0
 62
   249
 10
245.0
 20
115.0
 30
0.0
 11
243.480133
 21
115.0
 31
0.0
  0
ARC
  8
0
 62
   249
 10
245.065849
 20
113.75
 30
0.0
 40
1.251733
 50
266.984476
 51
93.015524
  0
LINE
  8
0
 62
   249
 10
245.0
 20
112.5
 30
0.0
 11
243.480133
 21
112.5
 31
0.0
  0
LINE
  8
0
 62
   249
 10
250.0
 20
95.0
 30
0.0
 11
252.5
 21
95.0
 31
0.0
  0
ARC
  8
0
 62
   249
 10
249.934151
 20
96.25
 30
0.0
 40
1.251733
 50
86.984476
 51
273.015524
  0
ARC
  8
0
 62
   249
 10
249.934151
 20
98.75
 30
0.0
 40
1.251733
 50
86.984476
 51
273.015524
  0
LINE
  8
0
 62
   249
 10
250.0
 20
97.5
 30
0.0
 11
252.5
 21
97.5
 31
0.0
  0
LINE
  8
0
 62
   249
 10
252.5
 20
95.0
 30
0.0
 11
255.0
 21
95.0
 31
0.0
  0
LINE
  8
0
 62
   249
 10
250.0
 20
95.0
 30
0.0
 11
260.0
 21
95.0
 31
0.0
  0
LINE
  8
0
 62
   249
 10
250.0
 20
92.5
 30
0.0
 11
252.5
 21
92.5
 31
0.0
  0
ARC
  8
0
 62
   249
 10
249.934151
 20
93.75
 30
0.0
 40
1.251733
 50
86.984476
 51
273.015524
  0
ARC
  8
0
 62
   249
 10
249.934151
 20
91.25
 30
0.0
 40
1.251733
 50
86.984476
 51
273.015524
  0
LINE
  8
0
 62
   249
 10
250.0
 20
90.0
 30
0.0
 11
252.5
 21
90.0
 31
0.0
  0
ARC
  8
0
 62
   249
 10
245.065849
 20
96.25
 30
0.0
 40
1.251733
 50
266.984476
 51
93.015524
  0
LINE
  8
0
 62
   249
 10
245.0
 20
97.5
 30
0.0
 11
243.480133
 21
97.5
 31
0.0
  0
LINE
  8
0
 62
   249
 10
245.0
 20
95.0
 30
0.0
 11
243.480133
 21
95.0
 31
0.0
  0
ARC
  8
0
 62
   249
 10
245.065849
 20
93.75
 30
0.0
 40
1.251733
 50
266.984476
 51
93.015524
  0
LINE
  8
0
 62
   249
 10
245.0
 20
92.5
 30
0.0
 11
243.480133
 21
92.5
 31
0.0
  0
LINE
  8
0
 62
   249
 10
250.0
 20
75.0
 30
0.0
 11
252.5
 21
75.0
 31
0.0
  0
ARC
  8
0
 62
   249
 10
249.934151
 20
76.25
 30
0.0
 40
1.251733
 50
86.984476
 51
273.015524
  0
ARC
  8
0
 62
   249
 10
249.934151
 20
78.75
 30
0.0
 40
1.251733
 50
86.984476
 51
273.015524
  0
LINE
  8
0
 62
   249
 10
250.0
 20
77.5
 30
0.0
 11
252.5
 21
77.5
 31
0.0
  0
LINE
  8
0
 62
   249
 10
252.5
 20
75.0
 30
0.0
 11
255.0
 21
75.0
 31
0.0
  0
LINE
  8
0
 62
   249
 10
250.0
 20
75.0
 30
0.0
 11
260.0
 21
75.0
 31
0.0
  0
LINE
  8
0
 62
   249
 10
250.0
 20
72.5
 30
0.0
 11
252.5
 21
72.5
 31
0.0
  0
ARC
  8
0
 62
   249
 10
249.934151
 20
73.75
 30
0.0
 40
1.251733
 50
86.984476
 51
273.015524
  0
ARC
  8
0
 62
   249
 10
249.934151
 20
71.25
 30
0.0
 40
1.251733
 50
86.984476
 51
273.015524
  0
LINE
  8
0
 62
   249
 10
250.0
 20
70.0
 30
0.0
 11
252.5
 21
70.0
 31
0.0
  0
ARC
  8
0
 62
   249
 10
245.065849
 20
76.25
 30
0.0
 40
1.251733
 50
266.984476
 51
93.015524
  0
LINE
  8
0
 62
   249
 10
245.0
 20
77.5
 30
0.0
 11
243.480133
 21
77.5
 31
0.0
  0
LINE
  8
0
 62
   249
 10
245.0
 20
75.0
 30
0.0
 11
243.480133
 21
75.0
 31
0.0
  0
ARC
  8
0
 62
   249
 10
245.065849
 20
73.75
 30
0.0
 40
1.251733
 50
266.984476
 51
93.015524
  0
LINE
  8
0
 62
   249
 10
245.0
 20
72.5
 30
0.0
 11
243.480133
 21
72.5
 31
0.0
  0
LINE
  8
0
 62
   249
 10
250.0
 20
120.0
 30
0.0
 11
260.0
 21
120.0
 31
0.0
  0
LINE
  8
0
 62
   249
 10
252.5
 20
110.0
 30
0.0
 11
260.0
 21
110.0
 31
0.0
  0
LINE
  8
0
 62
   249
 10
250.0
 20
80.0
 30
0.0
 11
260.0
 21
80.0
 31
0.0
  0
LINE
  8
0
 62
   249
 10
252.5
 20
70.0
 30
0.0
 11
260.0
 21
70.0
 31
0.0
  0
LINE
  8
0
 62
   249
 10
252.5
 20
90.0
 30
0.0
 11
260.0
 21
90.0
 31
0.0
  0
LINE
  8
0
 62
   249
 10
250.0
 20
100.0
 30
0.0
 11
260.0
 21
100.0
 31
0.0
  0
LINE
  8
0
  6
CONTINUOUS
 62
   249
 10
240.0
 20
117.5
 30
0.0
 11
240.0
 21
72.5
 31
0.0
  0
LINE
  8
0
  6
CONTINUOUS
 62
   249
 10
240.0
 20
72.5
 30
0.0
 11
241.0
 21
71.5
 31
0.0
  0
LINE
  8
0
  6
CONTINUOUS
 62
   249
 10
240.0
 20
117.5
 30
0.0
 11
241.0
 21
118.5
 31
0.0
  0
TEXT
  8
0
  6
HIDDEN
 62
   249
 10
256.602688
 20
202.505131
 30
0.0
 40
2.0
  1
6
  7
ROMANS
  0
TEXT
  8
0
  6
HIDDEN
 62
   249
 10
256.602688
 20
197.453437
 30
0.0
 40
2.0
  1
5
  7
ROMANS
  0
TEXT
  8
0
  6
HIDDEN
 62
   249
 10
256.602688
 20
192.390728
 30
0.0
 40
2.0
  1
4
  7
ROMANS
  0
TEXT
  8
0
  6
HIDDEN
 62
   249
 10
255.228358
 20
117.459045
 30
0.0
 40
2.0
  1
15
  7
ROMANS
  0
TEXT
  8
0
  6
HIDDEN
 62
   249
 10
255.228358
 20
112.352276
 30
0.0
 40
2.0
  1
14
  7
ROMANS
  0
TEXT
  8
0
  6
HIDDEN
 62
   249
 10
255.228358
 20
107.344643
 30
0.0
 40
2.0
  1
13
  7
ROMANS
  0
TEXT
  8
0
  6
HIDDEN
 62
   249
 10
255.407324
 20
97.325125
 30
0.0
 40
2.0
  1
18
  7
ROMANS
  0
TEXT
  8
0
  6
HIDDEN
 62
   249
 10
255.407324
 20
92.328507
 30
0.0
 40
2.0
  1
17
  7
ROMANS
  0
TEXT
  8
0
  6
HIDDEN
 62
   249
 10
255.407324
 20
87.320874
 30
0.0
 40
2.0
  1
16
  7
ROMANS
  0
TEXT
  8
0
  6
HIDDEN
 62
   249
 10
255.407324
 20
77.455568
 30
0.0
 40
2.0
  1
21
  7
ROMANS
  0
TEXT
  8
0
  6
HIDDEN
 62
   249
 10
255.407324
 20
72.293723
 30
0.0
 40
2.0
  1
20
  7
ROMANS
  0
TEXT
  8
0
  6
HIDDEN
 62
   249
 10
255.407324
 20
67.297105
 30
0.0
 40
2.0
  1
19
  7
ROMANS
  0
LINE
  8
0
  6
CONTINUOUS
 62
   249
 10
240.0
 20
135.0
 30
0.0
 11
241.0
 21
134.0
 31
0.0
  0
LINE
  8
0
  6
CONTINUOUS
 62
   249
 10
240.0
 20
165.0
 30
0.0
 11
241.0
 21
166.0
 31
0.0
  0
TEXT
  8
0
  6
CONTINUOUS
 62
   249
 10
51.636438
 20
154.2654
 30
0.0
 40
2.0
  1
SGR
 50
90.0
  7
ROMANS
  0
LINE
  8
0
  6
CONTINUOUS
 62
   249
 10
55.0
 20
157.5
 30
0.0
 11
55.0
 21
177.5
 31
0.0
  0
LINE
  8
0
  6
CONTINUOUS
 62
   249
 10
55.0
 20
152.5
 30
0.0
 11
53.285914
 21
157.586297
 31
0.0
  0
LINE
  8
0
  6
CONTINUOUS
 62
   249
 10
55.0
 20
147.5
 30
0.0
 11
55.0
 21
152.5
 31
0.0
  0
TEXT
  8
0
  6
CONTINUOUS
 62
   249
 10
60.367753
 20
143.964455
 30
0.0
 40
2.5
  1
1
 11
60.367753
 21
143.131122
 31
0.0
 73
     1
  0
LINE
  8
0
  6
CONTINUOUS
 62
   249
 10
55.933891
 20
146.624549
 30
0.0
 11
58.279656
 21
145.289195
 31
0.0
  0
LINE
  8
0
  6
CONTINUOUS
 62
   249
 10
55.925849
 20
143.299262
 30
0.0
 11
58.30931
 21
144.487454
 31
0.0
  0
LINE
  8
0
  6
CONTINUOUS
 62
   249
 10
58.279656
 20
145.289195
 30
0.0
 11
55.933891
 21
144.099276
 31
0.0
  0
LINE
  8
0
  6
CONTINUOUS
 62
   249
 10
60.0
 20
142.5
 30
0.0
 11
60.0
 21
137.5
 31
0.0
  0
LINE
  8
0
  6
CONTINUOUS
 62
   249
 10
65.0
 20
147.5
 30
0.0
 11
52.5
 21
147.5
 31
0.0
  0
LINE
  8
0
  6
CONTINUOUS
 62
   249
 10
65.0
 20
147.5
 30
0.0
 11
65.0
 21
142.5
 31
0.0
  0
LINE
  8
0
  6
CONTINUOUS
 62
   249
 10
52.5
 20
142.5
 30
0.0
 11
65.0
 21
142.5
 31
0.0
  0
LINE
  8
0
  6
CONTINUOUS
 62
   249
 10
52.5
 20
147.5
 30
0.0
 11
52.5
 21
142.5
 31
0.0
  0
TEXT
  8
0
  6
CONTINUOUS
 62
   249
 10
86.295492
 20
143.964455
 30
0.0
 40
2.5
  1
1
 11
86.295492
 21
143.131122
 31
0.0
 73
     1
  0
LINE
  8
0
  6
CONTINUOUS
 62
   249
 10
81.86163
 20
146.624549
 30
0.0
 11
84.207396
 21
145.289195
 31
0.0
  0
LINE
  8
0
  6
CONTINUOUS
 62
   249
 10
81.853589
 20
143.299262
 30
0.0
 11
84.237049
 21
144.487454
 31
0.0
  0
LINE
  8
0
  6
CONTINUOUS
 62
   249
 10
84.207396
 20
145.289195
 30
0.0
 11
81.86163
 21
144.099276
 31
0.0
  0
LINE
  8
0
  6
CONTINUOUS
 62
   249
 10
80.0
 20
142.5
 30
0.0
 11
80.0
 21
147.5
 31
0.0
  0
LINE
  8
0
  6
CONTINUOUS
 62
   249
 10
90.0
 20
142.5
 30
0.0
 11
80.0
 21
142.5
 31
0.0
  0
LINE
  8
0
  6
CONTINUOUS
 62
   249
 10
90.0
 20
147.5
 30
0.0
 11
90.0
 21
142.5
 31
0.0
  0
LINE
  8
0
  6
CONTINUOUS
 62
   249
 10
80.0
 20
147.5
 30
0.0
 11
90.0
 21
147.5
 31
0.0
  0
LINE
  8
0
  6
CONTINUOUS
 62
   249
 10
87.5
 20
147.5
 30
0.0
 11
87.5
 21
152.5
 31
0.0
  0
LINE
  8
0
  6
CONTINUOUS
 62
   249
 10
87.5
 20
152.5
 30
0.0
 11
85.785914
 21
157.586297
 31
0.0
  0
LINE
  8
0
  6
CONTINUOUS
 62
   249
 10
87.5
 20
157.5
 30
0.0
 11
87.5
 21
170.0
 31
0.0
  0
LINE
  8
0
  6
CONTINUOUS
 62
   249
 10
72.5
 20
157.5
 30
0.0
 11
72.5
 21
170.0
 31
0.0
  0
LINE
  8
0
  6
CONTINUOUS
 62
   249
 10
72.5
 20
152.5
 30
0.0
 11
70.785914
 21
157.586297
 31
0.0
  0
TEXT
  8
0
  6
CONTINUOUS
 62
   249
 10
54.411099
 20
155.0
 30
0.0
 40
2.0
  1
3
  7
ROMANS
  0
TEXT
  8
0
  6
CONTINUOUS
 62
   249
 10
72.061751
 20
155.0
 30
0.0
 40
2.0
  1
7
  7
ROMANS
  0
TEXT
  8
0
  6
CONTINUOUS
 62
   249
 10
87.11958
 20
155.0
 30
0.0
 40
2.0
  1
8
  7
ROMANS
  0
LINE
  8
0
  6
CONTINUOUS
 62
   249
 10
57.5
 20
132.5
 30
0.0
 11
40.0
 21
132.5
 31
0.0
  0
LINE
  8
0
  6
CONTINUOUS
 62
   249
 10
65.0
 20
132.5
 30
0.0
 11
65.0
 21
127.5
 31
0.0
  0
LINE
  8
0
  6
CONTINUOUS
 62
   249
 10
65.0
 20
127.5
 30
0.0
 11
40.0
 21
127.5
 31
0.0
  0
LINE
  8
0
  6
CONTINUOUS
 62
   249
 10
62.5
 20
132.5
 30
0.0
 11
65.0
 21
132.5
 31
0.0
  0
LINE
  8
0
  6
CONTINUOUS
 62
   249
 10
77.5
 20
122.5
 30
0.0
 11
77.5
 21
117.5
 31
0.0
  0
LINE
  8
0
  6
CONTINUOUS
 62
   249
 10
77.5
 20
117.5
 30
0.0
 11
40.0
 21
117.5
 31
0.0
  0
LINE
  8
0
  6
CONTINUOUS
 62
   249
 10
115.0
 20
92.5
 30
0.0
 11
115.0
 21
90.0
 31
0.0
  0
LINE
  8
0
  6
CONTINUOUS
 62
   249
 10
117.5
 20
137.5
 30
0.0
 11
117.5
 21
132.5
 31
0.0
  0
LINE
  8
0
  6
CONTINUOUS
 62
   249
 10
117.5
 20
132.5
 30
0.0
 11
110.0
 21
132.5
 31
0.0
  0
LINE
  8
0
  6
CONTINUOUS
 62
   249
 10
110.0
 20
132.5
 30
0.0
 11
110.0
 21
137.5
 31
0.0
  0
LINE
  8
0
  6
CONTINUOUS
 62
   249
 10
110.0
 20
137.5
 30
0.0
 11
117.5
 21
137.5
 31
0.0
  0
TEXT
  8
0
  6
CONTINUOUS
 62
   249
 10
145.651854
 20
133.964455
 30
0.0
 40
2.5
  1
1
 11
145.651854
 21
133.131122
 31
0.0
 73
     1
  0
LINE
  8
0
  6
CONTINUOUS
 62
   249
 10
141.217992
 20
136.624549
 30
0.0
 11
143.563758
 21
135.289195
 31
0.0
  0
LINE
  8
0
  6
CONTINUOUS
 62
   249
 10
141.20995
 20
133.299262
 30
0.0
 11
143.593411
 21
134.487454
 31
0.0
  0
LINE
  8
0
  6
CONTINUOUS
 62
   249
 10
143.563758
 20
135.289195
 30
0.0
 11
141.217992
 21
134.099276
 31
0.0
  0
LINE
  8
0
  6
CONTINUOUS
 62
   249
 10
137.5
 20
132.5
 30
0.0
 11
137.5
 21
137.5
 31
0.0
  0
LINE
  8
0
  6
CONTINUOUS
 62
   249
 10
150.0
 20
132.5
 30
0.0
 11
137.5
 21
132.5
 31
0.0
  0
LINE
  8
0
  6
CONTINUOUS
 62
   249
 10
150.0
 20
137.5
 30
0.0
 11
150.0
 21
132.5
 31
0.0
  0
LINE
  8
0
  6
CONTINUOUS
 62
   249
 10
137.5
 20
137.5
 30
0.0
 11
150.0
 21
137.5
 31
0.0
  0
LINE
  8
0
  6
CONTINUOUS
 62
   249
 10
145.0
 20
90.0
 30
0.0
 11
145.0
 21
92.5
 31
0.0
  0
LINE
  8
0
  6
CONTINUOUS
 62
   249
 10
72.5
 20
135.0
 30
0.0
 11
72.5
 21
152.5
 31
0.0
  0
LINE
  8
0
  6
CONTINUOUS
 62
   249
 10
85.0
 20
135.0
 30
0.0
 11
85.0
 21
142.5
 31
0.0
  0
LINE
  8
0
  6
CONTINUOUS
 62
   249
 10
115.0
 20
132.5
 30
0.0
 11
115.0
 21
57.5
 31
0.0
  0
LINE
  8
0
  6
CONTINUOUS
 62
   249
 10
145.0
 20
132.5
 30
0.0
 11
145.0
 21
57.5
 31
0.0
  0
TEXT
  8
0
  6
CONTINUOUS
 62
   249
 10
113.25176
 20
133.955036
 30
0.0
 40
2.5
  1
&
  7
GREEKS
  0
CIRCLE
  8
0
  6
CONTINUOUS
 62
   249
 10
112.499507
 20
138.207385
 30
0.0
 40
0.707409
  0
LINE
  8
0
  6
CONTINUOUS
 62
   249
 10
107.5
 20
187.5
 30
0.0
 11
180.0
 21
187.5
 31
0.0
  0
LINE
  8
0
  6
CONTINUOUS
 62
   249
 10
65.0
 20
217.5
 30
0.0
 11
170.0
 21
217.5
 31
0.0
  0
LINE
  8
0
  6
CONTINUOUS
 62
   249
 10
170.0
 20
217.5
 30
0.0
 11
170.0
 21
164.971652
 31
0.0
  0
LINE
  8
0
  6
CONTINUOUS
 62
   249
 10
167.5
 20
210.0
 30
0.0
 11
167.5
 21
168.000813
 31
0.0
  0
LINE
  8
0
  6
CONTINUOUS
 62
   249
 10
145.0
 20
172.5
 30
0.0
 11
145.0
 21
137.5
 31
0.0
  0
LINE
  8
0
  6
CONTINUOUS
 62
   249
 10
55.0
 20
151.055194
 30
0.0
 11
112.5
 21
151.055194
 31
0.0
  0
LINE
  8
0
  6
CONTINUOUS
 62
   249
 10
40.0
 20
107.5
 30
0.0
 11
82.5
 21
107.5
 31
0.0
  0
LINE
  8
0
  6
CONTINUOUS
 62
   249
 10
82.5
 20
102.5
 30
0.0
 11
40.0
 21
102.5
 31
0.0
  0
LINE
  8
0
  6
CONTINUOUS
 62
   249
 10
82.5
 20
102.5
 30
0.0
 11
82.5
 21
105.0
 31
0.0
  0
LINE
  8
0
  6
CONTINUOUS
 62
   249
 10
87.5
 20
107.5
 30
0.0
 11
90.0
 21
107.5
 31
0.0
  0
LINE
  8
0
  6
CONTINUOUS
 62
   249
 10
87.5
 20
107.5
 30
0.0
 11
81.756076
 21
104.285297
 31
0.0
  0
LINE
  8
0
  6
CONTINUOUS
 62
   249
 10
40.0
 20
77.5
 30
0.0
 11
105.0
 21
77.5
 31
0.0
  0
LINE
  8
0
  6
CONTINUOUS
 62
   249
 10
105.0
 20
72.5
 30
0.0
 11
40.0
 21
72.5
 31
0.0
  0
LINE
  8
0
  6
CONTINUOUS
 62
   249
 10
105.0
 20
72.5
 30
0.0
 11
105.0
 21
75.0
 31
0.0
  0
LINE
  8
0
  6
CONTINUOUS
 62
   249
 10
110.0
 20
77.5
 30
0.0
 11
112.5
 21
77.5
 31
0.0
  0
LINE
  8
0
  6
CONTINUOUS
 62
   249
 10
110.0
 20
77.5
 30
0.0
 11
104.256076
 21
74.285297
 31
0.0
  0
LINE
  8
0
  6
CONTINUOUS
 62
   249
 10
90.0
 20
107.5
 30
0.0
 11
90.0
 21
97.5
 31
0.0
  0
LINE
  8
0
  6
CONTINUOUS
 62
   249
 10
90.0
 20
97.5
 30
0.0
 11
40.0
 21
97.5
 31
0.0
  0
LINE
  8
0
  6
CONTINUOUS
 62
   249
 10
112.5
 20
77.5
 30
0.0
 11
112.5
 21
67.5
 31
0.0
  0
LINE
  8
0
  6
CONTINUOUS
 62
   249
 10
112.5
 20
67.5
 30
0.0
 11
40.0
 21
67.5
 31
0.0
  0
LINE
  8
0
  6
CONTINUOUS
 62
   249
 10
85.0
 20
162.5
 30
0.0
 11
85.0
 21
147.5
 31
0.0
  0
LINE
  8
0
  6
CONTINUOUS
 62
   249
 10
147.5
 20
137.5
 30
0.0
 11
147.5
 21
162.5
 31
0.0
  0
LINE
  8
0
  6
CONTINUOUS
 62
   249
 10
142.5
 20
137.5
 30
0.0
 11
142.5
 21
177.5
 31
0.0
  0
LINE
  8
0
  6
CONTINUOUS
 62
   249
 10
140.0
 20
137.5
 30
0.0
 11
140.0
 21
187.5
 31
0.0
  0
LINE
  8
0
  6
CONTINUOUS
 62
   249
 10
115.0
 20
137.5
 30
0.0
 11
115.0
 21
177.5
 31
0.0
  0
LINE
  8
0
  6
HIDDEN
 62
   249
 10
40.0
 20
225.0
 30
0.0
 11
45.0
 21
225.0
 31
0.0
  0
LINE
  8
0
  6
HIDDEN
 62
   249
 10
45.0
 20
225.0
 30
0.0
 11
45.0
 21
202.5
 31
0.0
  0
LINE
  8
0
  6
HIDDEN
 62
   249
 10
45.0
 20
202.5
 30
0.0
 11
40.0
 21
202.5
 31
0.0
  0
TEXT
  8
0
  6
HIDDEN
 62
   249
 10
40.879157
 20
221.746473
 30
0.0
 40
2.0
  1
X2
  7
ROMANS
  0
TEXT
  8
0
  6
HIDDEN
 62
   249
 10
40.379407
 20
217.333058
 30
0.0
 40
2.0
  1
12
  7
ROMANS
  0
TEXT
  8
0
  6
HIDDEN
 62
   249
 10
40.379407
 20
209.949416
 30
0.0
 40
2.0
  1
10
  7
ROMANS
  0
TEXT
  8
0
  6
HIDDEN
 62
   249
 10
40.379407
 20
204.809022
 30
0.0
 40
2.0
  1
11
  7
ROMANS
  0
LINE
  8
0
  6
HIDDEN
 62
   249
 10
40.0
 20
137.5
 30
0.0
 11
45.0
 21
137.5
 31
0.0
  0
LINE
  8
0
  6
HIDDEN
 62
   249
 10
45.0
 20
137.5
 30
0.0
 11
45.0
 21
113.211798
 31
0.0
  0
LINE
  8
0
  6
HIDDEN
 62
   249
 10
45.0
 20
113.211798
 30
0.0
 11
40.0
 21
113.211798
 31
0.0
  0
LINE
  8
0
  6
HIDDEN
 62
   249
 10
40.0
 20
62.5
 30
0.0
 11
45.0
 21
62.5
 31
0.0
  0
LINE
  8
0
  6
HIDDEN
 62
   249
 10
45.0
 20
62.5
 30
0.0
 11
45.0
 21
111.97351
 31
0.0
  0
LINE
  8
0
  6
HIDDEN
 62
   249
 10
45.0
 20
111.97351
 30
0.0
 11
40.0
 21
111.97351
 31
0.0
  0
TEXT
  8
0
  6
HIDDEN
 62
   249
 10
41.1717
 20
133.629257
 30
0.0
 40
2.0
  1
X1
  7
ROMANS
  0
TEXT
  8
0
  6
HIDDEN
 62
   249
 10
41.1717
 20
129.910394
 30
0.0
 40
2.0
  1
4
  7
ROMANS
  0
TEXT
  8
0
  6
HIDDEN
 62
   249
 10
41.1717
 20
124.902761
 30
0.0
 40
2.0
  1
3
  7
ROMANS
  0
TEXT
  8
0
  6
HIDDEN
 62
   249
 10
41.1717
 20
119.61975
 30
0.0
 40
2.0
  1
7
  7
ROMANS
  0
TEXT
  8
0
  6
HIDDEN
 62
   249
 10
41.1717
 20
114.810389
 30
0.0
 40
2.0
  1
6
  7
ROMANS
  0
TEXT
  8
0
  6
HIDDEN
 62
   249
 10
40.745853
 20
108.976621
 30
0.0
 40
2.0
  1
X2
  7
ROMANS
  0
TEXT
  8
0
  6
HIDDEN
 62
   249
 10
41.1717
 20
104.773092
 30
0.0
 40
2.0
  1
3
  7
ROMANS
  0
TEXT
  8
0
  6
HIDDEN
 62
   249
 10
41.1717
 20
99.842565
 30
0.0
 40
2.0
  1
1
  7
ROMANS
  0
TEXT
  8
0
  6
HIDDEN
 62
   249
 10
41.1717
 20
94.625644
 30
0.0
 40
2.0
  1
2
  7
ROMANS
  0
TEXT
  8
0
  6
HIDDEN
 62
   249
 10
41.1717
 20
74.760338
 30
0.0
 40
2.0
  1
9
  7
ROMANS
  0
TEXT
  8
0
  6
HIDDEN
 62
   249
 10
41.1717
 20
69.686614
 30
0.0
 40
2.0
  1
7
  7
ROMANS
  0
TEXT
  8
0
  6
HIDDEN
 62
   249
 10
41.1717
 20
64.756087
 30
0.0
 40
2.0
  1
8
  7
ROMANS
  0
TEXT
  8
0
  6
HIDDEN
 62
   249
 10
19.955888
 20
231.239977
 30
0.0
 40
2.0
  1
2)
  7
ROMANS
  0
LINE
  8
0
  6
DASHED
 62
   249
 10
40.0
 20
132.5
 30
0.0
 11
27.5
 21
132.5
 31
0.0
  0
LINE
  8
0
  6
DASHED
 62
   249
 10
40.0
 20
127.5
 30
0.0
 11
27.5
 21
127.5
 31
0.0
  0
LINE
  8
0
  6
DASHED
 62
   249
 10
40.0
 20
117.5
 30
0.0
 11
27.5
 21
117.5
 31
0.0
  0
LINE
  8
0
  6
DASHED
 62
   249
 10
40.0
 20
122.5
 30
0.0
 11
27.5
 21
122.5
 31
0.0
  0
LINE
  8
0
  6
CONTINUOUS
 62
   249
 10
25.0
 20
122.5
 30
0.0
 11
26.0
 21
123.5
 31
0.0
  0
LINE
  8
0
  6
CONTINUOUS
 62
   249
 10
25.0
 20
117.499655
 30
0.0
 11
26.0
 21
116.499655
 31
0.0
  0
LINE
  8
0
  6
CONTINUOUS
 62
   249
 10
25.0
 20
122.5
 30
0.0
 11
25.0
 21
117.5
 31
0.0
  0
LINE
  8
0
  6
DASHED
 62
   249
 10
40.0
 20
67.5
 30
0.0
 11
27.5
 21
67.5
 31
0.0
  0
LINE
  8
0
  6
CONTINUOUS
 62
   249
 10
115.0
 20
45.0
 30
0.0
 11
227.500345
 21
45.0
 31
0.0
  0
LINE
  8
0
  6
CONTINUOUS
 62
   249
 10
227.500345
 20
45.0
 30
0.0
 11
228.500345
 21
46.0
 31
0.0
  0
LINE
  8
0
  6
CONTINUOUS
 62
   249
 10
115.0
 20
45.0
 30
0.0
 11
114.0
 21
46.0
 31
0.0
  0
LINE
  8
0
  6
CONTINUOUS
 62
   249
 10
115.0
 20
57.5
 30
0.0
 11
115.0
 21
50.0
 31
0.0
  0
LINE
  8
0
  6
CONTINUOUS
 62
   249
 10
145.0
 20
57.5
 30
0.0
 11
145.0
 21
50.0
 31
0.0
  0
LINE
  8
0
  6
CONTINUOUS
 62
   249
 10
227.5
 20
57.5
 30
0.0
 11
227.5
 21
50.0
 31
0.0
  0
TEXT
  8
0
  6
HIDDEN
 62
   249
 10
168.484926
 20
38.667815
 30
0.0
 40
2.0
  1
SHEET 2
  7
ROMANS
  0
LINE
  8
0
 62
   249
 10
60.221556
 20
228.704212
 30
0.0
 11
52.798812
 21
228.704212
 31
0.0
  0
LINE
  8
0
  6
CONTINUOUS
 62
   249
 10
60.221556
 20
232.5
 30
0.0
 11
65.0
 21
232.5
 31
0.0
  0
LINE
  8
0
 62
   249
 10
60.221556
 20
228.704212
 30
0.0
 11
60.221556
 21
236.589925
 31
0.0
  0
LINE
  8
0
 62
   249
 10
60.221556
 20
236.589925
 30
0.0
 11
52.798812
 21
236.589925
 31
0.0
  0
LINE
  8
0
 62
   249
 10
58.496971
 20
236.567786
 30
0.0
 11
56.642636
 21
234.288964
 31
0.0
  0
LINE
  8
0
 62
   249
 10
57.004853
 20
236.567786
 30
0.0
 11
55.09105
 21
234.288964
 31
0.0
  0
LINE
  8
0
 62
   249
 10
52.798812
 20
236.589925
 30
0.0
 11
52.798812
 21
228.704212
 31
0.0
  0
LINE
  8
0
  6
CONTINUOUS
 62
   249
 10
52.798812
 20
230.0
 30
0.0
 11
40.0
 21
230.0
 31
0.0
  0
LINE
  8
0
  6
CONTINUOUS
 62
   249
 10
52.798812
 20
235.0
 30
0.0
 11
40.0
 21
235.0
 31
0.0
  0
LINE
  8
0
  6
HIDDEN
 62
   249
 10
40.0
 20
240.0
 30
0.0
 11
45.0
 21
240.0
 31
0.0
  0
LINE
  8
0
  6
HIDDEN
 62
   249
 10
40.0
 20
226.348482
 30
0.0
 11
45.0
 21
226.348482
 31
0.0
  0
LINE
  8
0
  6
HIDDEN
 62
   249
 10
45.0
 20
240.0
 30
0.0
 11
45.0
 21
226.348482
 31
0.0
  0
TEXT
  8
0
  6
CONTINUOUS
 62
   249
 10
41.09856
 20
236.598074
 30
0.0
 40
2.0
  1
X1
  7
ROMANS
  0
TEXT
  8
0
  6
CONTINUOUS
 62
   249
 10
40.346595
 20
232.252652
 30
0.0
 40
2.0
  1
12
  7
ROMANS
  0
TEXT
  8
0
  6
CONTINUOUS
 62
   249
 10
40.346595
 20
227.401185
 30
0.0
 40
2.0
  1
11
  7
ROMANS
  0
TEXT
  8
0
  6
CONTINUOUS
 62
   249
 10
182.005063
 20
171.346592
 30
0.0
 40
2.5
  1
I
 11
182.005063
 21
170.513259
 31
0.0
 73
     1
  0
TEXT
  8
0
  6
CONTINUOUS
 62
   249
 10
182.005063
 20
175.765761
 30
0.0
 40
2.5
  1
I
 11
182.005063
 21
174.932428
 31
0.0
 73
     1
  0
LINE
  8
0
  6
CONTINUOUS
 62
   249
 10
188.849853
 20
176.762687
 30
0.0
 11
186.504087
 21
175.572768
 31
0.0
  0
LINE
  8
0
  6
CONTINUOUS
 62
   249
 10
186.504087
 20
178.098041
 30
0.0
 11
188.849853
 21
176.762687
 31
0.0
  0
TEXT
  8
0
  6
CONTINUOUS
 62
   249
 10
182.005063
 20
186.268175
 30
0.0
 40
2.5
  1
I
 11
182.005063
 21
185.434842
 31
0.0
 73
     1
  0
TEXT
  8
0
  6
CONTINUOUS
 62
   249
 10
182.005063
 20
160.733974
 30
0.0
 40
2.5
  1
I
 11
182.005063
 21
159.900641
 31
0.0
 73
     1
  0
LINE
  8
0
  6
CONTINUOUS
 62
   249
 10
190.193008
 20
161.613824
 30
0.0
 11
187.847242
 21
160.423905
 31
0.0
  0
LINE
  8
0
  6
CONTINUOUS
 62
   249
 10
187.847242
 20
162.949178
 30
0.0
 11
190.193008
 21
161.613824
 31
0.0
  0
LINE
  8
0
  6
CONTINUOUS
 62
   249
 10
188.462514
 20
161.613824
 30
0.0
 11
186.116749
 21
160.423905
 31
0.0
  0
LINE
  8
0
  6
CONTINUOUS
 62
   249
 10
186.116749
 20
162.949178
 30
0.0
 11
188.462514
 21
161.613824
 31
0.0
  0
LINE
  8
0
  6
CONTINUOUS
 62
   249
 10
201.724689
 20
173.214764
 30
0.0
 11
209.268276
 21
173.214764
 31
0.0
  0
TEXT
  8
0
  6
CONTINUOUS
 62
   249
 10
204.296619
 20
175.776781
 30
0.0
 40
2.5
  1
I
 11
204.296619
 21
174.943448
 31
0.0
 73
     1
  0
TEXT
  8
0
  6
CONTINUOUS
 62
   249
 10
204.72661
 20
168.025469
 30
0.0
 40
1.5
  1
f
  7
GREEKC
  0
TEXT
  8
0
  6
CONTINUOUS
 62
   249
 10
200.471568
 20
167.510459
 30
0.0
 40
1.5
  1
SIN
  7
GREEKS
  0
TEXT
  8
0
  6
CONTINUOUS
 62
   249
 10
200.471568
 20
163.357643
 30
0.0
 40
1.5
  1
COS
  7
GREEKS
  0
TEXT
  8
0
  6
CONTINUOUS
 62
   249
 10
204.72661
 20
163.864059
 30
0.0
 40
1.5
  1
f
  7
GREEKC
  0
TEXT
  8
0
  6
HIDDEN
 62
   249
 10
207.367691
 20
163.362921
 30
0.0
 40
1.5
  1
EN
  0
TEXT
  8
0
  6
HIDDEN
 62
   249
 10
207.367691
 20
167.499914
 30
0.0
 40
1.5
  1
EN
  0
LINE
  8
0
  6
CONTINUOUS
 62
   249
 10
55.0
 20
177.5
 30
0.0
 11
180.0
 21
177.5
 31
0.0
  0
LINE
  8
0
  6
CONTINUOUS
 62
   249
 10
147.5
 20
162.5
 30
0.0
 11
180.0
 21
162.5
 31
0.0
  0
LINE
  8
0
  6
CONTINUOUS
 62
   249
 10
62.5
 20
147.5
 30
0.0
 11
62.5
 21
162.5
 31
0.0
  0
LINE
  8
0
  6
CONTINUOUS
 62
   249
 10
62.5
 20
162.5
 30
0.0
 11
147.5
 21
162.5
 31
0.0
  0
LINE
  8
0
  6
CONTINUOUS
 62
   249
 10
47.5
 20
138.608096
 30
0.0
 11
47.5
 21
170.0
 31
0.0
  0
LINE
  8
0
  6
CONTINUOUS
 62
   249
 10
47.5
 20
170.0
 30
0.0
 11
87.5
 21
170.0
 31
0.0
  0
LINE
  8
0
  6
CONTINUOUS
 62
   249
 10
60.0
 20
138.608096
 30
0.0
 11
47.5
 21
138.608096
 31
0.0
  0
LINE
  8
0
  6
CONTINUOUS
 62
   249
 10
82.5
 20
147.5
 30
0.0
 11
82.5
 21
177.5
 31
0.0
  0
LINE
  8
0
  6
CONTINUOUS
 62
   249
 10
180.0
 20
172.5
 30
0.0
 11
145.0
 21
172.5
 31
0.0
  0
LINE
  8
0
  6
CONTINUOUS
 62
   249
 10
145.0
 20
160.0
 30
0.0
 11
145.0
 21
157.5
 31
0.0
  0
ARC
  8
0
 62
   249
 10
249.934151
 20
161.25
 30
0.0
 40
1.251733
 50
86.984476
 51
273.015524
  0
LINE
  8
0
 62
   249
 10
250.0
 20
160.0
 30
0.0
 11
252.5
 21
160.0
 31
0.0
  0
ARC
  8
0
 62
   249
 10
249.934151
 20
163.75
 30
0.0
 40
1.251733
 50
86.984476
 51
273.015524
  0
LINE
  8
0
 62
   249
 10
250.0
 20
162.5
 30
0.0
 11
252.5
 21
162.5
 31
0.0
  0
LINE
  8
0
 62
   249
 10
250.0
 20
165.0
 30
0.0
 11
252.5
 21
165.0
 31
0.0
  0
LINE
  8
0
 62
   249
 10
252.5
 20
160.0
 30
0.0
 11
255.0
 21
160.0
 31
0.0
  0
LINE
  8
0
 62
   249
 10
250.0
 20
160.0
 30
0.0
 11
252.5
 21
160.0
 31
0.0
  0
LINE
  8
0
 62
   249
 10
250.0
 20
157.5
 30
0.0
 11
252.5
 21
157.5
 31
0.0
  0
ARC
  8
0
 62
   249
 10
249.934151
 20
158.75
 30
0.0
 40
1.251733
 50
86.984476
 51
273.015524
  0
ARC
  8
0
 62
   249
 10
249.934151
 20
156.25
 30
0.0
 40
1.251733
 50
86.984476
 51
273.015524
  0
LINE
  8
0
 62
   249
 10
250.0
 20
155.0
 30
0.0
 11
252.5
 21
155.0
 31
0.0
  0
ARC
  8
0
 62
   249
 10
245.065849
 20
161.25
 30
0.0
 40
1.251733
 50
266.984476
 51
93.015524
  0
LINE
  8
0
 62
   249
 10
245.0
 20
162.5
 30
0.0
 11
243.480133
 21
162.5
 31
0.0
  0
LINE
  8
0
 62
   249
 10
245.0
 20
160.0
 30
0.0
 11
243.480133
 21
160.0
 31
0.0
  0
ARC
  8
0
 62
   249
 10
245.065849
 20
158.75
 30
0.0
 40
1.251733
 50
266.984476
 51
93.015524
  0
LINE
  8
0
 62
   249
 10
245.0
 20
157.5
 30
0.0
 11
243.480133
 21
157.5
 31
0.0
  0
LINE
  8
0
 62
   249
 10
252.5
 20
155.0
 30
0.0
 11
260.0
 21
155.0
 31
0.0
  0
LINE
  8
0
 62
   249
 10
252.5
 20
160.0
 30
0.0
 11
260.0
 21
160.0
 31
0.0
  0
LINE
  8
0
 62
   249
 10
252.5
 20
165.0
 30
0.0
 11
260.0
 21
165.0
 31
0.0
  0
TEXT
  8
0
  6
CONTINUOUS
 62
   249
 10
255.399534
 20
162.10337
 30
0.0
 40
2.0
  1
27
  7
ROMANS
  0
TEXT
  8
0
  6
CONTINUOUS
 62
   249
 10
255.399534
 20
157.205888
 30
0.0
 40
2.0
  1
26
  7
ROMANS
  0
TEXT
  8
0
  6
CONTINUOUS
 62
   249
 10
255.399534
 20
152.18724
 30
0.0
 40
2.0
  1
25
  7
ROMANS
  0
CIRCLE
  8
0
  6
CONTINUOUS
 62
   249
 10
211.450323
 20
168.483421
 30
0.0
 40
1.0
  0
LINE
  8
0
  6
CONTINUOUS
 62
   249
 10
65.0
 20
232.5
 30
0.0
 11
215.0
 21
232.5
 31
0.0
  0
LINE
  8
0
  6
CONTINUOUS
 62
   249
 10
215.0
 20
232.5
 30
0.0
 11
215.0
 21
164.043906
 31
0.0
  0
LINE
  8
0
  6
CONTINUOUS
 62
   249
 10
210.450615
 20
164.043906
 30
0.0
 11
215.0
 21
164.043906
 31
0.0
  0
LINE
  8
0
  6
CONTINUOUS
 62
   249
 10
212.450316
 20
168.479447
 30
0.0
 11
215.0
 21
168.479447
 31
0.0
  0
LINE
  8
0
  6
CONTINUOUS
 62
   249
 10
222.5
 20
180.0
 30
0.0
 11
222.5
 21
150.0
 31
0.0
  0
LINE
  8
0
  6
CONTINUOUS
 62
   249
 10
232.5
 20
200.0
 30
0.0
 11
217.5
 21
200.0
 31
0.0
  0
LINE
  8
0
  6
CONTINUOUS
 62
   249
 10
232.5
 20
95.0
 30
0.0
 11
227.5
 21
95.0
 31
0.0
  0
LINE
  8
0
  6
CONTINUOUS
 62
   249
 10
227.5
 20
95.0
 30
0.0
 11
227.5
 21
57.5
 31
0.0
  0
LINE
  8
0
  6
DASHED
 62
   249
 10
40.0
 20
235.0
 30
0.0
 11
32.5
 21
235.0
 31
0.0
  0
LINE
  8
0
  6
DASHED
 62
   249
 10
40.0
 20
230.0
 30
0.0
 11
32.5
 21
230.0
 31
0.0
  0
LINE
  8
0
  6
CONTINUOUS
 62
   249
 10
25.0
 20
235.0
 30
0.0
 11
26.0
 21
236.0
 31
0.0
  0
LINE
  8
0
  6
CONTINUOUS
 62
   249
 10
25.0
 20
229.999655
 30
0.0
 11
26.0
 21
228.999655
 31
0.0
  0
LINE
  8
0
  6
CONTINUOUS
 62
   249
 10
25.0
 20
235.0
 30
0.0
 11
25.0
 21
230.0
 31
0.0
  0
TEXT
  8
0
  6
CONTINUOUS
 62
   249
 10
19.940672
 20
213.067384
 30
0.0
 40
2.0
  1
3)
  7
ROMANS
  0
TEXT
  8
0
  6
CONTINUOUS
 62
   249
 10
17.993014
 20
119.173819
 30
0.0
 40
2.0
  1
5a)
  7
ROMANS
  0
TEXT
  8
0
  6
CONTINUOUS
 62
   249
 10
17.993014
 20
101.591145
 30
0.0
 40
2.0
  1
5b)
  7
ROMANS
  0
TEXT
  8
0
  6
CONTINUOUS
 62
   249
 10
17.993014
 20
71.445363
 30
0.0
 40
2.0
  1
5c)
  7
ROMANS
  0
TEXT
  8
0
  6
CONTINUOUS
 62
   249
 10
52.713192
 20
34.387285
 30
0.0
 40
2.014518
  1
f
  7
GREEKC
  0
TEXT
  8
0
  6
DASHED
 62
   249
 10
19.98632
 20
43.721695
 30
0.0
 40
2.0
  1
2) OPERATING CHARACTERISTICS
  7
ROMANS
  0
TEXT
  8
0
  6
DASHED
 62
   249
 10
21.313679
 20
40.388361
 30
0.0
 40
2.0
  1
  SIN  OR COS  /
  7
ROMANS
  0
TEXT
  8
0
  6
DASHED
 62
   249
 10
21.313679
 20
37.055028
 30
0.0
 40
2.0
  1
  FUNKTIONSKARAKTERISTIKEN
  7
ROMANS
  0
TEXT
  8
0
  6
DASHED
 62
   249
 10
21.313679
 20
33.721695
 30
0.0
 40
2.0
  1
  SIN  ELLER COS
  7
ROMANS
  0
TEXT
  8
0
  6
CONTINUOUS
 62
   249
 10
30.676688
 20
34.387285
 30
0.0
 40
2.014518
  1
f
  7
GREEKC
  0
TEXT
  8
0
  6
CONTINUOUS
 62
   249
 10
30.676688
 20
41.074201
 30
0.0
 40
2.014518
  1
f
  7
GREEKC
  0
TEXT
  8
0
  6
CONTINUOUS
 62
   249
 10
46.675472
 20
41.074201
 30
0.0
 40
2.014518
  1
f
  7
GREEKC
  0
TEXT
  8
0
  6
DASHED
 62
   249
 10
19.996249
 20
26.479261
 30
0.0
 40
2.0
  1
3) BLOCKING INPUT /
  7
ROMANS
  0
TEXT
  8
0
  6
DASHED
 62
   249
 10
21.323608
 20
23.145927
 30
0.0
 40
2.0
  1
  BLOCKERING IN
  7
ROMANS
  0
TEXT
  8
0
  6
DASHED
 62
   249
 10
20.043235
 20
16.343157
 30
0.0
 40
2.0
  1
4) TRIP 1 /
  7
ROMANS
  0
TEXT
  8
0
  6
DASHED
 62
   249
 10
21.323608
 20
13.009824
 30
0.0
 40
2.0
  1
  UTLÖSNING 1
  7
ROMANS
  0
TEXT
  8
0
  6
DASHED
 62
   249
 10
87.5
 20
35.0
 30
0.0
 40
2.0
  1
5a) TRIP 2 OR ALARM OUTPUT /
  7
ROMANS
  0
TEXT
  8
0
  6
DASHED
 62
   249
 10
88.839015
 20
31.666667
 30
0.0
 40
2.0
  1
   UTLÖSNING 2 ELLER SIGNALUTGÅNG
  7
ROMANS
  0
TEXT
  8
0
  6
DASHED
 62
   249
 10
87.5
 20
25.833333
 30
0.0
 40
2.0
  1
5b) ALARM OUTPUT /
  7
ROMANS
  0
TEXT
  8
0
  6
DASHED
 62
   249
 10
88.839015
 20
22.5
 30
0.0
 40
2.0
  1
   SIGNALUTGÅNG
  7
ROMANS
  0
TEXT
  8
0
  6
DASHED
 62
   249
 10
87.5
 20
16.309142
 30
0.0
 40
2.0
  1
5c) START, BLOCKING ETC.
  7
ROMANS
  0
TEXT
  8
0
  6
DASHED
 62
   249
 10
88.839015
 20
12.975808
 30
0.0
 40
2.0
  1
   START, BLOCKERING MM.
  7
ROMANS
  0
LINE
  8
0
  6
CONTINUOUS
 62
   249
 10
180.0
 20
190.0
 30
0.0
 11
210.450615
 21
190.0
 31
0.0
  0
LINE
  8
0
  6
CONTINUOUS
 62
   249
 10
200.0
 20
217.5
 30
0.0
 11
200.0
 21
160.0
 31
0.0
  0
LINE
  8
0
  6
CONTINUOUS
 62
   249
 10
217.5
 20
200.0
 30
0.0
 11
217.5
 21
57.5
 31
0.0
  0
LINE
  8
0
  6
CONTINUOUS
 62
   249
 10
240.0
 20
165.0
 30
0.0
 11
240.0
 21
135.0
 31
0.0
  0
LINE
  8
0
  6
HIDDEN
 62
   249
 10
180.0
 20
160.0
 30
0.0
 11
180.0
 21
57.5
 31
0.0
  0
LINE
  8
0
  6
HIDDEN
 62
   249
 10
210.450615
 20
160.0
 30
0.0
 11
210.450615
 21
57.5
 31
0.0
  0
LINE
  8
0
  6
CONTINUOUS
 62
   249
 10
240.0
 20
150.0
 30
0.0
 11
222.5
 21
150.0
 31
0.0
  0
LINE
  8
0
  6
CONTINUOUS
 62
   249
 10
210.450615
 20
180.0
 30
0.0
 11
222.5
 21
180.0
 31
0.0
  0
LINE
  8
0
  6
CONTINUOUS
 62
   249
 10
178.01273
 20
183.000813
 30
0.0
 11
167.5
 21
183.000813
 31
0.0
  0
LINE
  8
0
  6
CONTINUOUS
 62
   249
 10
178.01273
 20
179.971652
 30
0.0
 11
170.0
 21
179.971652
 31
0.0
  0
CIRCLE
  8
0
  6
CONTINUOUS
 62
   249
 10
179.012659
 20
179.965349
 30
0.0
 40
1.0
  0
CIRCLE
  8
0
  6
CONTINUOUS
 62
   249
 10
179.012659
 20
182.994509
 30
0.0
 40
1.0
  0
LINE
  8
0
  6
CONTINUOUS
 62
   249
 10
357.5
 20
212.5
 30
0.0
 11
377.5
 21
212.5
 31
0.0
  0
LINE
  8
0
  6
CONTINUOUS
 62
   249
 10
363.100275
 20
220.916526
 30
0.0
 11
363.100275
 21
219.128395
 31
0.0
  0
LINE
  8
0
  6
CONTINUOUS
 62
   249
 10
363.131307
 20
220.071248
 30
0.0
 11
370.919512
 21
220.071248
 31
0.0
  0
LINE
  8
0
  6
CONTINUOUS
 62
   249
 10
365.515452
 20
218.903645
 30
0.0
 11
368.391562
 21
221.732204
 31
0.0
  0
LINE
  8
0
  6
CONTINUOUS
 62
   249
 10
367.960859
 20
222.269411
 30
0.0
 11
368.861536
 21
221.145662
 31
0.0
  0
LINE
  8
0
  6
CONTINUOUS
 62
   249
 10
370.914971
 20
220.916526
 30
0.0
 11
370.914971
 21
219.128395
 31
0.0
  0
LINE
  8
0
  6
CONTINUOUS
 62
   249
 10
373.278811
 20
224.7421
 30
0.0
 11
370.933045
 21
223.55218
 31
0.0
  0
LINE
  8
0
  6
CONTINUOUS
 62
   249
 10
370.933045
 20
226.077453
 30
0.0
 11
373.278811
 21
224.7421
 31
0.0
  0
LINE
  8
0
  6
CONTINUOUS
 62
   249
 10
369.281282
 20
226.077453
 30
0.0
 11
371.627047
 21
224.7421
 31
0.0
  0
LINE
  8
0
  6
CONTINUOUS
 62
   249
 10
371.627047
 20
224.7421
 30
0.0
 11
369.281282
 21
223.55218
 31
0.0
  0
TEXT
  8
0
  6
DASHED
 62
   249
 10
363.594202
 20
223.668409
 30
0.0
 40
2.5
  1
I
  0
LINE
  8
0
  6
CONTINUOUS
 62
   249
 10
369.479016
 20
238.387588
 30
0.0
 11
371.824782
 21
237.052234
 31
0.0
  0
LINE
  8
0
  6
CONTINUOUS
 62
   249
 10
371.824782
 20
237.052234
 30
0.0
 11
369.479016
 21
235.862315
 31
0.0
  0
TEXT
  8
0
  6
DASHED
 62
   249
 10
363.563796
 20
235.964144
 30
0.0
 40
2.5
  1
I
  0
LINE
  8
0
  6
CONTINUOUS
 62
   249
 10
373.414971
 20
203.416526
 30
0.0
 11
373.414971
 21
201.628395
 31
0.0
  0
LINE
  8
0
  6
CONTINUOUS
 62
   249
 10
370.460859
 20
204.769411
 30
0.0
 11
371.361536
 21
203.645662
 31
0.0
  0
LINE
  8
0
  6
CONTINUOUS
 62
   249
 10
368.015452
 20
201.403645
 30
0.0
 11
370.891562
 21
204.232204
 31
0.0
  0
LINE
  8
0
  6
CONTINUOUS
 62
   249
 10
365.631307
 20
202.571248
 30
0.0
 11
373.419512
 21
202.571248
 31
0.0
  0
LINE
  8
0
  6
CONTINUOUS
 62
   249
 10
365.600275
 20
203.416526
 30
0.0
 11
365.600275
 21
201.628395
 31
0.0
  0
LINE
  8
0
  6
CONTINUOUS
 62
   249
 10
369.852417
 20
206.934714
 30
0.0
 11
368.603744
 21
206.301309
 31
0.0
  0
LINE
  8
0
  6
CONTINUOUS
 62
   249
 10
368.603744
 20
207.645536
 30
0.0
 11
369.852417
 21
206.934714
 31
0.0
  0
TEXT
  8
0
  6
CONTINUOUS
 62
   249
 10
370.005219
 20
206.013837
 30
0.0
 40
2.0
  1
I
  0
TEXT
  8
0
  6
CONTINUOUS
 62
   249
 10
363.482104
 20
206.018089
 30
0.0
 40
2.0
  1
O
  0
LINE
  8
0
  6
CONTINUOUS
 62
   249
 10
365.359268
 20
206.934714
 30
0.0
 11
369.852417
 21
206.934714
 31
0.0
  0
LINE
  8
0
  6
CONTINUOUS
 62
   249
 10
377.5
 20
240.0
 30
0.0
 11
377.5
 21
200.0
 31
0.0
  0
LINE
  8
0
  6
CONTINUOUS
 62
   249
 10
357.5
 20
200.0
 30
0.0
 11
357.5
 21
240.0
 31
0.0
  0
LINE
  8
0
  6
CONTINUOUS
 62
   249
 10
357.5
 20
240.0
 30
0.0
 11
377.5
 21
240.0
 31
0.0
  0
LINE
  8
0
  6
CONTINUOUS
 62
   249
 10
370.914971
 20
232.706143
 30
0.0
 11
370.914971
 21
230.918012
 31
0.0
  0
LINE
  8
0
  6
CONTINUOUS
 62
   249
 10
365.515452
 20
230.693262
 30
0.0
 11
368.391562
 21
233.521821
 31
0.0
  0
LINE
  8
0
  6
CONTINUOUS
 62
   249
 10
367.960859
 20
234.059027
 30
0.0
 11
368.861536
 21
232.935278
 31
0.0
  0
LINE
  8
0
  6
CONTINUOUS
 62
   249
 10
363.131307
 20
231.860865
 30
0.0
 11
370.919512
 21
231.860865
 31
0.0
  0
LINE
  8
0
  6
CONTINUOUS
 62
   249
 10
363.100275
 20
232.706143
 30
0.0
 11
363.100275
 21
230.918012
 31
0.0
  0
LINE
  8
0
  6
CONTINUOUS
 62
   249
 10
357.5
 20
200.0
 30
0.0
 11
377.5
 21
200.0
 31
0.0
  0
LINE
  8
0
  6
CONTINUOUS
 62
   249
 10
363.609312
 20
227.941307
 30
0.0
 11
371.152899
 21
227.941307
 31
0.0
  0
LINE
  8
0
  6
CONTINUOUS
 62
   249
 10
363.048135
 20
215.342536
 30
0.0
 11
370.591721
 21
215.342536
 31
0.0
  0
TEXT
  8
0
  6
CONTINUOUS
 62
   249
 10
361.117361
 20
201.401241
 30
0.0
 40
2.0
  1
n
  7
GREEKS
  0
TEXT
  8
0
  6
CONTINUOUS
 62
   249
 10
363.357858
 20
201.375209
 30
0.0
 40
2.0
  1
x
  7
GREEKS
  0
LINE
  8
0
  6
CONTINUOUS
 62
   249
 10
112.5
 20
138.914794
 30
0.0
 11
112.5
 21
151.055194
 31
0.0
  0
TEXT
  8
0
  6
CONTINUOUS
 62
   249
 10
370.239192
 20
11.970658
 30
0.0
 40
2.0
  1
1/2
  7
ROMANS
  0
LINE
  8
0
  6
CONTINUOUS
 62
   249
 10
265.0
 20
145.3468
 30
0.0
 11
265.0
 21
139.66187
 31
0.0
  0
LINE
  8
0
  6
CONTINUOUS
 62
   249
 10
265.0
 20
139.66187
 30
0.0
 11
264.0
 21
138.66187
 31
0.0
  0
LINE
  8
0
  6
CONTINUOUS
 62
   249
 10
265.0
 20
145.3468
 30
0.0
 11
264.0
 21
146.3468
 31
0.0
  0
LINE
  8
0
  6
CONTINUOUS
 62
   249
 10
265.0
 20
165.3468
 30
0.0
 11
264.0
 21
166.3468
 31
0.0
  0
LINE
  8
0
  6
CONTINUOUS
 62
   249
 10
265.0
 20
159.66187
 30
0.0
 11
264.0
 21
158.66187
 31
0.0
  0
LINE
  8
0
  6
CONTINUOUS
 62
   249
 10
265.0
 20
165.3468
 30
0.0
 11
265.0
 21
159.66187
 31
0.0
  0
LINE
  8
0
  6
CONTINUOUS
 62
   249
 10
265.0
 20
185.3468
 30
0.0
 11
265.0
 21
179.66187
 31
0.0
  0
LINE
  8
0
  6
CONTINUOUS
 62
   249
 10
265.0
 20
179.66187
 30
0.0
 11
264.0
 21
178.66187
 31
0.0
  0
LINE
  8
0
  6
CONTINUOUS
 62
   249
 10
265.0
 20
185.3468
 30
0.0
 11
264.0
 21
186.3468
 31
0.0
  0
LINE
  8
0
  6
CONTINUOUS
 62
   249
 10
265.0
 20
205.3468
 30
0.0
 11
264.0
 21
206.3468
 31
0.0
  0
LINE
  8
0
  6
CONTINUOUS
 62
   249
 10
265.0
 20
199.66187
 30
0.0
 11
264.0
 21
198.66187
 31
0.0
  0
LINE
  8
0
  6
CONTINUOUS
 62
   249
 10
265.0
 20
205.3468
 30
0.0
 11
265.0
 21
199.66187
 31
0.0
  0
LINE
  8
0
  6
CONTINUOUS
 62
   249
 10
265.0
 20
225.3468
 30
0.0
 11
265.0
 21
219.66187
 31
0.0
  0
LINE
  8
0
  6
CONTINUOUS
 62
   249
 10
265.0
 20
219.66187
 30
0.0
 11
264.0
 21
218.66187
 31
0.0
  0
LINE
  8
0
  6
CONTINUOUS
 62
   249
 10
265.0
 20
225.3468
 30
0.0
 11
264.0
 21
226.3468
 31
0.0
  0
LINE
  8
0
  6
DASHED
 62
   249
 10
295.0
 20
147.5
 30
0.0
 11
295.0
 21
122.5
 31
0.0
  0
LINE
  8
0
  6
DASHED
 62
   249
 10
317.5
 20
135.0
 30
0.0
 11
317.5
 21
225.0
 31
0.0
  0
LINE
  8
0
  6
DASHED
 62
   249
 10
325.0
 20
145.0
 30
0.0
 11
325.0
 21
212.5
 31
0.0
  0
LINE
  8
0
  6
DASHED
 62
   249
 10
265.0
 20
145.0
 30
0.0
 11
325.0
 21
145.0
 31
0.0
  0
LINE
  8
0
  6
CONTINUOUS
 62
   249
 10
322.5
 20
225.0
 30
0.0
 11
317.5
 21
232.5
 31
0.0
  0
LINE
  8
0
  6
CONTINUOUS
 62
   249
 10
325.0
 20
225.0
 30
0.0
 11
322.5
 21
225.0
 31
0.0
  0
LINE
  8
0
  6
CONTINUOUS
 62
   249
 10
316.506031
 20
230.098556
 30
0.0
 11
317.478167
 21
230.098556
 31
0.0
  0
LINE
  8
0
  6
CONTINUOUS
 62
   249
 10
316.496128
 20
232.499996
 30
0.0
 11
317.473936
 21
232.499996
 31
0.0
  0
LINE
  8
0
  6
CONTINUOUS
 62
   249
 10
316.500897
 20
227.68998
 30
0.0
 11
317.5
 21
227.68998
 31
0.0
  0
ARC
  8
0
  6
CONTINUOUS
 62
   249
 10
315.864862
 20
228.894238
 30
0.0
 40
1.204309
 50
90.0
 51
270.0
  0
LINE
  8
0
  6
CONTINUOUS
 62
   249
 10
315.859898
 20
227.689937
 30
0.0
 11
316.509496
 21
227.689937
 31
0.0
  0
LINE
  8
0
  6
CONTINUOUS
 62
   249
 10
315.858762
 20
232.499993
 30
0.0
 11
316.502261
 21
232.499993
 31
0.0
  0
LINE
  8
0
  6
CONTINUOUS
 62
   249
 10
315.858762
 20
230.098547
 30
0.0
 11
316.50836
 21
230.098547
 31
0.0
  0
ARC
  8
0
  6
CONTINUOUS
 62
   249
 10
315.864862
 20
231.296095
 30
0.0
 40
1.204309
 50
90.0
 51
265.706237
  0
LINE
  8
0
  6
CONTINUOUS
 62
   249
 10
324.006031
 20
230.098556
 30
0.0
 11
324.978167
 21
230.098556
 31
0.0
  0
LINE
  8
0
  6
CONTINUOUS
 62
   249
 10
323.996128
 20
232.499996
 30
0.0
 11
324.973936
 21
232.499996
 31
0.0
  0
LINE
  8
0
  6
CONTINUOUS
 62
   249
 10
324.000897
 20
227.68998
 30
0.0
 11
325.0
 21
227.68998
 31
0.0
  0
ARC
  8
0
  6
CONTINUOUS
 62
   249
 10
323.364862
 20
228.894238
 30
0.0
 40
1.204309
 50
90.0
 51
270.0
  0
LINE
  8
0
  6
CONTINUOUS
 62
   249
 10
323.359898
 20
227.689937
 30
0.0
 11
324.009496
 21
227.689937
 31
0.0
  0
LINE
  8
0
  6
CONTINUOUS
 62
   249
 10
323.358762
 20
232.499993
 30
0.0
 11
324.002261
 21
232.499993
 31
0.0
  0
LINE
  8
0
  6
CONTINUOUS
 62
   249
 10
323.358762
 20
230.098547
 30
0.0
 11
324.00836
 21
230.098547
 31
0.0
  0
ARC
  8
0
  6
CONTINUOUS
 62
   249
 10
323.364862
 20
231.296095
 30
0.0
 40
1.204309
 50
90.0
 51
265.706237
  0
LINE
  8
0
  6
CONTINUOUS
 62
   249
 10
325.0
 20
227.68998
 30
0.0
 11
325.0
 21
225.0
 31
0.0
  0
LINE
  8
0
  6
CONTINUOUS
 62
   249
 10
317.5
 20
227.68998
 30
0.0
 11
317.5
 21
225.0
 31
0.0
  0
LINE
  8
0
  6
DASHED
 62
   249
 10
325.0
 20
242.5
 30
0.0
 11
325.0
 21
255.0
 31
0.0
  0
LINE
  8
0
  6
DASHED
 62
   249
 10
317.5
 20
242.5
 30
0.0
 11
317.5
 21
260.0
 31
0.0
  0
LINE
  8
0
  6
DASHED
 62
   249
 10
300.0
 20
185.0
 30
0.0
 11
265.0
 21
185.0
 31
0.0
  0
LINE
  8
0
  6
DASHED
 62
   249
 10
295.0
 20
205.0
 30
0.0
 11
265.0
 21
205.0
 31
0.0
  0
LINE
  8
0
  6
DASHED
 62
   249
 10
290.0
 20
225.0
 30
0.0
 11
265.0
 21
225.0
 31
0.0
  0
LINE
  8
0
  6
DASHED
 62
   249
 10
292.5
 20
155.0
 30
0.0
 11
295.0
 21
155.0
 31
0.0
  0
LINE
  8
0
  6
DASHED
 62
   249
 10
295.0
 20
155.0
 30
0.0
 11
295.0
 21
155.0
 31
0.0
  0
LINE
  8
0
  6
DASHED
 62
   249
 10
282.5
 20
159.810016
 30
0.0
 11
295.0
 21
159.810016
 31
0.0
  0
LINE
  8
0
  6
CONTINUOUS
 62
   249
 10
292.5
 20
157.40144
 30
0.0
 11
295.0
 21
157.40144
 31
0.0
  0
LINE
  8
0
  6
DASHED
 62
   249
 10
282.5
 20
150.0
 30
0.0
 11
282.5
 21
155.0
 31
0.0
  0
LINE
  8
0
  6
DASHED
 62
   249
 10
292.5
 20
172.5
 30
0.0
 11
292.5
 21
150.0
 31
0.0
  0
LINE
  8
0
  6
CONTINUOUS
 62
   249
 10
295.0
 20
167.5
 30
0.0
 11
295.0
 21
147.5
 31
0.0
  0
LINE
  8
0
  6
CONTINUOUS
 62
   249
 10
295.0
 20
167.5
 30
0.0
 11
297.5
 21
172.5
 31
0.0
  0
LINE
  8
0
  6
CONTINUOUS
 62
   249
 10
292.5
 20
172.5
 30
0.0
 11
295.0
 21
167.5
 31
0.0
  0
LINE
  8
0
  6
CONTINUOUS
 62
   249
 10
290.0
 20
172.5
 30
0.0
 11
300.0
 21
172.5
 31
0.0
  0
LINE
  8
0
  6
DASHED
 62
   249
 10
285.0
 20
220.189992
 30
0.0
 11
285.0
 21
172.5
 31
0.0
  0
LINE
  8
0
  6
DASHED
 62
   249
 10
282.5
 20
165.0
 30
0.0
 11
282.5
 21
159.810016
 31
0.0
  0
LINE
  8
0
  6
DASHED
 62
   249
 10
265.0
 20
165.0
 30
0.0
 11
282.5
 21
165.0
 31
0.0
  0
LINE
  8
0
  6
DASHED
 62
   249
 10
270.0
 20
215.0
 30
0.0
 11
270.0
 21
175.0
 31
0.0
  0
LINE
  8
0
  6
DASHED
 62
   249
 10
300.006921
 20
180.189984
 30
0.0
 11
285.0
 21
180.189984
 31
0.0
  0
LINE
  8
0
  6
DASHED
 62
   249
 10
295.069797
 20
200.189984
 30
0.0
 11
285.0
 21
200.189984
 31
0.0
  0
LINE
  8
0
  6
DASHED
 62
   249
 10
290.0
 20
197.5
 30
0.0
 11
290.0
 21
172.5
 31
0.0
  0
LINE
  8
0
  6
DASHED
 62
   249
 10
295.0
 20
197.5
 30
0.0
 11
295.0
 21
172.5
 31
0.0
  0
LINE
  8
0
  6
DASHED
 62
   249
 10
300.0
 20
197.5
 30
0.0
 11
300.0
 21
172.5
 31
0.0
  0
LINE
  8
0
  6
DASHED
 62
   249
 10
290.0
 20
230.0
 30
0.0
 11
290.0
 21
197.5
 31
0.0
  0
LINE
  8
0
  6
DASHED
 62
   249
 10
290.0
 20
237.5
 30
0.0
 11
290.0
 21
250.0
 31
0.0
  0
LINE
  8
0
  6
DASHED
 62
   249
 10
295.0
 20
255.0
 30
0.0
 11
295.0
 21
237.5
 31
0.0
  0
LINE
  8
0
  6
DASHED
 62
   249
 10
295.0
 20
230.0
 30
0.0
 11
295.0
 21
197.5
 31
0.0
  0
LINE
  8
0
  6
DASHED
 62
   249
 10
300.0
 20
250.0
 30
0.0
 11
300.0
 21
237.5
 31
0.0
  0
LINE
  8
0
  6
DASHED
 62
   249
 10
300.0
 20
230.0
 30
0.0
 11
300.0
 21
197.5
 31
0.0
  0
LINE
  8
0
  6
DASHED
 62
   249
 10
295.0
 20
245.0
 30
0.0
 11
295.0
 21
252.5
 31
0.0
  0
LINE
  8
0
  6
DASHED
 62
   249
 10
290.0
 20
245.0
 30
0.0
 11
290.0
 21
260.0
 31
0.0
  0
LINE
  8
0
  6
CONTINUOUS
 62
   249
 10
290.0
 20
230.0
 30
0.0
 11
287.5
 21
237.5
 31
0.0
  0
LINE
  8
0
  6
CONTINUOUS
 62
   249
 10
295.0
 20
230.0
 30
0.0
 11
292.5
 21
237.5
 31
0.0
  0
LINE
  8
0
  6
CONTINUOUS
 62
   249
 10
300.0
 20
230.0
 30
0.0
 11
297.5
 21
237.5
 31
0.0
  0
LINE
  8
0
  6
CONTINUOUS
 62
   249
 10
290.0
 20
237.5
 30
0.0
 11
289.5
 21
238.0
 31
0.0
  0
LINE
  8
0
  6
CONTINUOUS
 62
   249
 10
290.0
 20
237.5
 30
0.0
 11
290.5
 21
237.0
 31
0.0
  0
LINE
  8
0
  6
CONTINUOUS
 62
   249
 10
290.0
 20
237.5
 30
0.0
 11
290.5
 21
238.0
 31
0.0
  0
LINE
  8
0
  6
CONTINUOUS
 62
   249
 10
290.0
 20
237.5
 30
0.0
 11
289.5
 21
237.0
 31
0.0
  0
LINE
  8
0
  6
CONTINUOUS
 62
   249
 10
295.0
 20
237.5
 30
0.0
 11
295.5
 21
238.0
 31
0.0
  0
LINE
  8
0
  6
CONTINUOUS
 62
   249
 10
295.0
 20
237.5
 30
0.0
 11
295.5
 21
237.0
 31
0.0
  0
LINE
  8
0
  6
CONTINUOUS
 62
   249
 10
295.0
 20
237.5
 30
0.0
 11
294.5
 21
237.0
 31
0.0
  0
LINE
  8
0
  6
CONTINUOUS
 62
   249
 10
295.0
 20
237.5
 30
0.0
 11
294.5
 21
238.0
 31
0.0
  0
LINE
  8
0
  6
CONTINUOUS
 62
   249
 10
300.0
 20
237.5
 30
0.0
 11
300.5
 21
237.0
 31
0.0
  0
LINE
  8
0
  6
CONTINUOUS
 62
   249
 10
300.0
 20
237.5
 30
0.0
 11
300.5
 21
238.0
 31
0.0
  0
LINE
  8
0
  6
CONTINUOUS
 62
   249
 10
300.0
 20
237.5
 30
0.0
 11
299.5
 21
238.0
 31
0.0
  0
LINE
  8
0
  6
CONTINUOUS
 62
   249
 10
300.0
 20
237.5
 30
0.0
 11
299.5
 21
237.0
 31
0.0
  0
LINE
  8
0
  6
DASHED
 62
   249
 10
290.0
 20
220.189992
 30
0.0
 11
285.0
 21
220.189992
 31
0.0
  0
TEXT
  8
0
  6
CONTINUOUS
 62
   249
 10
273.732328
 20
258.985054
 30
0.0
 40
2.0
  1
L1(R)
  7
ROMANS
 11
273.732328
 21
258.318387
 31
0.0
 73
     1
  0
TEXT
  8
0
  6
CONTINUOUS
 62
   249
 10
273.732328
 20
253.928359
 30
0.0
 40
2.0
  1
L2(S)
  7
ROMANS
 11
273.732328
 21
253.261693
 31
0.0
 73
     1
  0
TEXT
  8
0
  6
CONTINUOUS
 62
   249
 10
273.732328
 20
249.006967
 30
0.0
 40
2.0
  1
L3(T)
  7
ROMANS
 11
273.732328
 21
248.3403
 31
0.0
 73
     1
  0
LINE
  8
0
  6
DASHED
 62
   249
 10
260.0
 20
135.0
 30
0.0
 11
317.5
 21
135.0
 31
0.0
  0
LINE
  8
0
  6
CONTINUOUS
 62
   249
 10
260.0
 20
140.0
 30
0.0
 11
262.5
 21
140.0
 31
0.0
  0
LINE
  8
0
  6
CONTINUOUS
 62
   249
 10
260.0
 20
145.0
 30
0.0
 11
262.5
 21
145.0
 31
0.0
  0
LINE
  8
0
  6
DASHED
 62
   249
 10
260.0
 20
155.0
 30
0.0
 11
292.5
 21
155.0
 31
0.0
  0
LINE
  8
0
  6
CONTINUOUS
 62
   249
 10
260.0
 20
160.0
 30
0.0
 11
262.5
 21
160.0
 31
0.0
  0
LINE
  8
0
  6
CONTINUOUS
 62
   249
 10
260.0
 20
165.0
 30
0.0
 11
262.5
 21
165.0
 31
0.0
  0
LINE
  8
0
  6
DASHED
 62
   249
 10
260.0
 20
175.0
 30
0.0
 11
285.0
 21
175.0
 31
0.0
  0
LINE
  8
0
  6
CONTINUOUS
 62
   249
 10
260.0
 20
180.0
 30
0.0
 11
262.5
 21
180.0
 31
0.0
  0
LINE
  8
0
  6
CONTINUOUS
 62
   249
 10
260.0
 20
185.0
 30
0.0
 11
262.5
 21
185.0
 31
0.0
  0
LINE
  8
0
  6
DASHED
 62
   249
 10
260.0
 20
195.0
 30
0.0
 11
270.0
 21
195.0
 31
0.0
  0
LINE
  8
0
  6
CONTINUOUS
 62
   249
 10
260.0
 20
200.0
 30
0.0
 11
262.5
 21
200.0
 31
0.0
  0
LINE
  8
0
  6
CONTINUOUS
 62
   249
 10
260.0
 20
205.0
 30
0.0
 11
262.5
 21
205.0
 31
0.0
  0
LINE
  8
0
  6
DASHED
 62
   249
 10
260.0
 20
215.0
 30
0.0
 11
270.0
 21
215.0
 31
0.0
  0
LINE
  8
0
  6
CONTINUOUS
 62
   249
 10
260.0
 20
220.0
 30
0.0
 11
262.5
 21
220.0
 31
0.0
  0
LINE
  8
0
  6
CONTINUOUS
 62
   249
 10
260.0
 20
225.0
 30
0.0
 11
262.5
 21
225.0
 31
0.0
  0
LINE
  8
0
  6
DASHED
 62
   249
 10
342.5
 20
212.5
 30
0.0
 11
342.5
 21
232.5
 31
0.0
  0
LINE
  8
0
  6
DASHED
 62
   249
 10
325.0
 20
212.5
 30
0.0
 11
342.5
 21
212.5
 31
0.0
  0
LINE
  8
0
  6
DASHED
 62
   249
 10
337.5
 20
237.68998
 30
0.0
 11
346.663362
 21
237.68998
 31
0.0
  0
LINE
  8
0
  6
DASHED
 62
   249
 10
337.5
 20
232.5
 30
0.0
 11
346.84682
 21
232.5
 31
0.0
  0
LINE
  8
0
  6
CONTINUOUS
 62
   249
 10
332.5
 20
232.5
 30
0.0
 11
337.5
 21
232.5
 31
0.0
  0
LINE
  8
0
  6
CONTINUOUS
 62
   249
 10
330.0
 20
225.0
 30
0.0
 11
325.0
 21
232.5
 31
0.0
  0
LINE
  8
0
  6
CONTINUOUS
 62
   249
 10
332.5
 20
225.0
 30
0.0
 11
330.0
 21
225.0
 31
0.0
  0
LINE
  8
0
  6
CONTINUOUS
 62
   249
 10
331.506031
 20
230.098556
 30
0.0
 11
332.478167
 21
230.098556
 31
0.0
  0
LINE
  8
0
  6
CONTINUOUS
 62
   249
 10
331.496128
 20
232.499996
 30
0.0
 11
332.473936
 21
232.499996
 31
0.0
  0
LINE
  8
0
  6
CONTINUOUS
 62
   249
 10
331.500897
 20
227.68998
 30
0.0
 11
332.5
 21
227.68998
 31
0.0
  0
ARC
  8
0
  6
CONTINUOUS
 62
   249
 10
330.864862
 20
228.894238
 30
0.0
 40
1.204309
 50
90.0
 51
270.0
  0
LINE
  8
0
  6
CONTINUOUS
 62
   249
 10
330.859898
 20
227.689937
 30
0.0
 11
331.509496
 21
227.689937
 31
0.0
  0
LINE
  8
0
  6
CONTINUOUS
 62
   249
 10
330.858762
 20
232.499993
 30
0.0
 11
331.502261
 21
232.499993
 31
0.0
  0
LINE
  8
0
  6
CONTINUOUS
 62
   249
 10
330.858762
 20
230.098547
 30
0.0
 11
331.50836
 21
230.098547
 31
0.0
  0
ARC
  8
0
  6
CONTINUOUS
 62
   249
 10
330.864862
 20
231.296095
 30
0.0
 40
1.204309
 50
90.0
 51
265.706237
  0
LINE
  8
0
  6
CONTINUOUS
 62
   249
 10
332.5
 20
227.68998
 30
0.0
 11
332.5
 21
225.0
 31
0.0
  0
LINE
  8
0
  6
CONTINUOUS
 62
   249
 10
317.5
 20
237.68998
 30
0.0
 11
337.5
 21
237.68998
 31
0.0
  0
LINE
  8
0
  6
DASHED
 62
   249
 10
332.5
 20
242.5
 30
0.0
 11
332.5
 21
250.0
 31
0.0
  0
LINE
  8
0
  6
DASHED
 62
   249
 10
340.0
 20
250.0
 30
0.0
 11
282.5
 21
250.0
 31
0.0
  0
LINE
  8
0
  6
DASHED
 62
   249
 10
340.0
 20
255.0
 30
0.0
 11
282.5
 21
255.0
 31
0.0
  0
LINE
  8
0
  6
DASHED
 62
   249
 10
340.0
 20
260.0
 30
0.0
 11
282.5
 21
260.0
 31
0.0
  0
LINE
  8
0
  6
DASHED
 62
   249
 10
360.0
 20
95.0
 30
0.0
 11
360.0
 21
132.5
 31
0.0
  0
LINE
  8
0
  6
DASHED
 62
   249
 10
352.5
 20
102.5
 30
0.0
 11
352.5
 21
132.5
 31
0.0
  0
LINE
  8
0
  6
DASHED
 62
   249
 10
345.0
 20
132.5
 30
0.0
 11
345.0
 21
110.0
 31
0.0
  0
TEXT
  8
0
  6
DASHED
 62
   249
 10
330.0
 20
161.491307
 30
0.0
 40
2.0
  1
L3(T)
  7
ROMANS
  0
TEXT
  8
0
  6
DASHED
 62
   249
 10
330.0
 20
166.510757
 30
0.0
 40
2.0
  1
L2(S)
  7
ROMANS
  0
TEXT
  8
0
  6
DASHED
 62
   249
 10
330.0
 20
171.530207
 30
0.0
 40
2.0
  1
L1(R)
  7
ROMANS
  0
LINE
  8
0
  6
DASHED
 62
   249
 10
367.5
 20
162.5
 30
0.0
 11
340.0
 21
162.5
 31
0.0
  0
LINE
  8
0
  6
DASHED
 62
   249
 10
367.5
 20
167.5
 30
0.0
 11
340.0
 21
167.5
 31
0.0
  0
LINE
  8
0
  6
DASHED
 62
   249
 10
367.5
 20
172.5
 30
0.0
 11
340.0
 21
172.5
 31
0.0
  0
LINE
  8
0
  6
DASHED
 62
   249
 10
345.0
 20
150.0
 30
0.0
 11
345.0
 21
172.5
 31
0.0
  0
LINE
  8
0
  6
DASHED
 62
   249
 10
352.5
 20
150.0
 30
0.0
 11
352.5
 21
167.5
 31
0.0
  0
LINE
  8
0
  6
DASHED
 62
   249
 10
360.0
 20
150.0
 30
0.0
 11
360.0
 21
162.5
 31
0.0
  0
LINE
  8
0
  6
CONTINUOUS
 62
   249
 10
344.006031
 20
137.598556
 30
0.0
 11
344.978167
 21
137.598556
 31
0.0
  0
LINE
  8
0
  6
CONTINUOUS
 62
   249
 10
343.996128
 20
139.999996
 30
0.0
 11
344.973936
 21
139.999996
 31
0.0
  0
LINE
  8
0
  6
CONTINUOUS
 62
   249
 10
344.000897
 20
135.18998
 30
0.0
 11
345.0
 21
135.18998
 31
0.0
  0
ARC
  8
0
  6
CONTINUOUS
 62
   249
 10
343.364862
 20
136.394238
 30
0.0
 40
1.204309
 50
90.0
 51
270.0
  0
LINE
  8
0
  6
CONTINUOUS
 62
   249
 10
343.359898
 20
135.189937
 30
0.0
 11
344.009496
 21
135.189937
 31
0.0
  0
LINE
  8
0
  6
CONTINUOUS
 62
   249
 10
343.358762
 20
139.999993
 30
0.0
 11
344.002261
 21
139.999993
 31
0.0
  0
LINE
  8
0
  6
CONTINUOUS
 62
   249
 10
343.358762
 20
137.598547
 30
0.0
 11
344.00836
 21
137.598547
 31
0.0
  0
ARC
  8
0
  6
CONTINUOUS
 62
   249
 10
343.364862
 20
138.796095
 30
0.0
 40
1.204309
 50
90.0
 51
265.706237
  0
LINE
  8
0
  6
CONTINUOUS
 62
   249
 10
351.506031
 20
137.598556
 30
0.0
 11
352.478167
 21
137.598556
 31
0.0
  0
LINE
  8
0
  6
CONTINUOUS
 62
   249
 10
351.496128
 20
139.999996
 30
0.0
 11
352.473936
 21
139.999996
 31
0.0
  0
LINE
  8
0
  6
CONTINUOUS
 62
   249
 10
351.500897
 20
135.18998
 30
0.0
 11
352.5
 21
135.18998
 31
0.0
  0
ARC
  8
0
  6
CONTINUOUS
 62
   249
 10
350.864862
 20
136.394238
 30
0.0
 40
1.204309
 50
90.0
 51
270.0
  0
LINE
  8
0
  6
CONTINUOUS
 62
   249
 10
350.859898
 20
135.189937
 30
0.0
 11
351.509496
 21
135.189937
 31
0.0
  0
LINE
  8
0
  6
CONTINUOUS
 62
   249
 10
350.858762
 20
139.999993
 30
0.0
 11
351.502261
 21
139.999993
 31
0.0
  0
LINE
  8
0
  6
CONTINUOUS
 62
   249
 10
350.858762
 20
137.598547
 30
0.0
 11
351.50836
 21
137.598547
 31
0.0
  0
ARC
  8
0
  6
CONTINUOUS
 62
   249
 10
350.864862
 20
138.796095
 30
0.0
 40
1.204309
 50
90.0
 51
265.706237
  0
LINE
  8
0
  6
CONTINUOUS
 62
   249
 10
352.5
 20
135.18998
 30
0.0
 11
352.5
 21
132.5
 31
0.0
  0
LINE
  8
0
  6
CONTINUOUS
 62
   249
 10
345.0
 20
135.18998
 30
0.0
 11
345.0
 21
132.5
 31
0.0
  0
LINE
  8
0
  6
CONTINUOUS
 62
   249
 10
345.0
 20
140.0
 30
0.0
 11
365.0
 21
140.0
 31
0.0
  0
LINE
  8
0
  6
CONTINUOUS
 62
   249
 10
359.006031
 20
137.598556
 30
0.0
 11
359.978167
 21
137.598556
 31
0.0
  0
LINE
  8
0
  6
CONTINUOUS
 62
   249
 10
358.996128
 20
139.999996
 30
0.0
 11
359.973936
 21
139.999996
 31
0.0
  0
LINE
  8
0
  6
CONTINUOUS
 62
   249
 10
359.000897
 20
135.18998
 30
0.0
 11
360.0
 21
135.18998
 31
0.0
  0
ARC
  8
0
  6
CONTINUOUS
 62
   249
 10
358.364862
 20
136.394238
 30
0.0
 40
1.204309
 50
90.0
 51
270.0
  0
LINE
  8
0
  6
CONTINUOUS
 62
   249
 10
358.359898
 20
135.189937
 30
0.0
 11
359.009496
 21
135.189937
 31
0.0
  0
LINE
  8
0
  6
CONTINUOUS
 62
   249
 10
358.358762
 20
139.999993
 30
0.0
 11
359.002261
 21
139.999993
 31
0.0
  0
LINE
  8
0
  6
CONTINUOUS
 62
   249
 10
358.358762
 20
137.598547
 30
0.0
 11
359.00836
 21
137.598547
 31
0.0
  0
ARC
  8
0
  6
CONTINUOUS
 62
   249
 10
358.364862
 20
138.796095
 30
0.0
 40
1.204309
 50
90.0
 51
265.706237
  0
LINE
  8
0
  6
CONTINUOUS
 62
   249
 10
360.0
 20
135.18998
 30
0.0
 11
360.0
 21
132.5
 31
0.0
  0
LINE
  8
0
  6
CONTINUOUS
 62
   249
 10
345.0
 20
145.18998
 30
0.0
 11
365.0
 21
145.18998
 31
0.0
  0
LINE
  8
0
  6
DASHED
 62
   249
 10
292.5
 20
95.0
 30
0.0
 11
305.0
 21
95.0
 31
0.0
  0
LINE
  8
0
  6
DASHED
 62
   249
 10
287.5
 20
102.5
 30
0.0
 11
305.0
 21
102.5
 31
0.0
  0
LINE
  8
0
  6
DASHED
 62
   249
 10
260.0
 20
110.0
 30
0.0
 11
272.5
 21
110.0
 31
0.0
  0
LINE
  8
0
  6
DASHED
 62
   249
 10
292.5
 20
80.0
 30
0.0
 11
292.5
 21
95.0
 31
0.0
  0
LINE
  8
0
  6
DASHED
 62
   249
 10
287.5
 20
100.0
 30
0.0
 11
287.5
 21
102.5
 31
0.0
  0
LINE
  8
0
  6
DASHED
 62
   249
 10
265.0
 20
80.0
 30
0.0
 11
292.5
 21
80.0
 31
0.0
  0
LINE
  8
0
  6
DASHED
 62
   249
 10
277.5
 20
120.0
 30
0.0
 11
277.5
 21
70.0
 31
0.0
  0
LINE
  8
0
  6
DASHED
 62
   249
 10
265.0
 20
120.0
 30
0.0
 11
282.5
 21
120.0
 31
0.0
  0
LINE
  8
0
  6
DASHED
 62
   249
 10
272.5
 20
90.0
 30
0.0
 11
272.5
 21
80.0
 31
0.0
  0
LINE
  8
0
  6
DASHED
 62
   249
 10
265.0
 20
100.0
 30
0.0
 11
287.5
 21
100.0
 31
0.0
  0
LINE
  8
0
  6
CONTINUOUS
 62
   249
 10
265.0
 20
80.3468
 30
0.0
 11
265.0
 21
74.66187
 31
0.0
  0
LINE
  8
0
  6
CONTINUOUS
 62
   249
 10
265.0
 20
74.66187
 30
0.0
 11
264.0
 21
73.66187
 31
0.0
  0
LINE
  8
0
  6
CONTINUOUS
 62
   249
 10
265.0
 20
80.3468
 30
0.0
 11
264.0
 21
81.3468
 31
0.0
  0
LINE
  8
0
  6
CONTINUOUS
 62
   249
 10
265.0
 20
100.3468
 30
0.0
 11
264.0
 21
101.3468
 31
0.0
  0
LINE
  8
0
  6
CONTINUOUS
 62
   249
 10
265.0
 20
94.66187
 30
0.0
 11
264.0
 21
93.66187
 31
0.0
  0
LINE
  8
0
  6
CONTINUOUS
 62
   249
 10
265.0
 20
100.3468
 30
0.0
 11
265.0
 21
94.66187
 31
0.0
  0
LINE
  8
0
  6
CONTINUOUS
 62
   249
 10
265.0
 20
120.3468
 30
0.0
 11
265.0
 21
114.66187
 31
0.0
  0
LINE
  8
0
  6
CONTINUOUS
 62
   249
 10
265.0
 20
114.66187
 30
0.0
 11
264.0
 21
113.66187
 31
0.0
  0
LINE
  8
0
  6
CONTINUOUS
 62
   249
 10
265.0
 20
120.3468
 30
0.0
 11
264.0
 21
121.3468
 31
0.0
  0
LINE
  8
0
  6
CONTINUOUS
 62
   249
 10
260.0
 20
120.0
 30
0.0
 11
262.5
 21
120.0
 31
0.0
  0
LINE
  8
0
  6
CONTINUOUS
 62
   249
 10
260.0
 20
115.0
 30
0.0
 11
262.5
 21
115.0
 31
0.0
  0
LINE
  8
0
  6
CONTINUOUS
 62
   249
 10
260.0
 20
100.0
 30
0.0
 11
262.5
 21
100.0
 31
0.0
  0
LINE
  8
0
  6
CONTINUOUS
 62
   249
 10
260.0
 20
95.0
 30
0.0
 11
262.5
 21
95.0
 31
0.0
  0
LINE
  8
0
  6
DASHED
 62
   249
 10
260.0
 20
90.0
 30
0.0
 11
272.5
 21
90.0
 31
0.0
  0
LINE
  8
0
  6
CONTINUOUS
 62
   249
 10
260.0
 20
80.0
 30
0.0
 11
262.5
 21
80.0
 31
0.0
  0
LINE
  8
0
  6
CONTINUOUS
 62
   249
 10
260.0
 20
75.0
 30
0.0
 11
262.5
 21
75.0
 31
0.0
  0
LINE
  8
0
  6
DASHED
 62
   249
 10
260.0
 20
70.0
 30
0.0
 11
277.5
 21
70.0
 31
0.0
  0
LINE
  8
0
  6
DASHED
 62
   249
 10
305.0
 20
110.0
 30
0.0
 11
345.0
 21
110.0
 31
0.0
  0
LINE
  8
0
  6
DASHED
 62
   249
 10
305.0
 20
102.5
 30
0.0
 11
352.5
 21
102.5
 31
0.0
  0
LINE
  8
0
  6
DASHED
 62
   249
 10
305.0
 20
95.0
 30
0.0
 11
360.0
 21
95.0
 31
0.0
  0
TEXT
  8
0
  6
CONTINUOUS
 62
   249
 10
265.702618
 20
225.726736
 30
0.0
 40
2.0
  1
1)
  7
ROMANS
  0
TEXT
  8
0
  6
CONTINUOUS
 62
   249
 10
265.702618
 20
205.838142
 30
0.0
 40
2.0
  1
1)
  7
ROMANS
  0
TEXT
  8
0
  6
CONTINUOUS
 62
   249
 10
265.702618
 20
185.682742
 30
0.0
 40
2.0
  1
1)
  7
ROMANS
  0
TEXT
  8
0
  6
CONTINUOUS
 62
   249
 10
265.702618
 20
165.694453
 30
0.0
 40
2.0
  1
1)
  7
ROMANS
  0
TEXT
  8
0
  6
CONTINUOUS
 62
   249
 10
265.702618
 20
145.748415
 30
0.0
 40
2.0
  1
1)
  7
ROMANS
  0
TEXT
  8
0
  6
CONTINUOUS
 62
   249
 10
265.702618
 20
120.672773
 30
0.0
 40
2.0
  1
1)
  7
ROMANS
  0
TEXT
  8
0
  6
CONTINUOUS
 62
   249
 10
265.702618
 20
107.361753
 30
0.0
 40
2.0
  1
1)
  7
ROMANS
  0
TEXT
  8
0
  6
CONTINUOUS
 62
   249
 10
265.702618
 20
87.313645
 30
0.0
 40
2.0
  1
1)
  7
ROMANS
  0
TEXT
  8
0
  6
CONTINUOUS
 62
   249
 10
40.0
 20
52.5
 30
0.0
 40
2.0
  1
DIM. 185 X 220
  7
ROMANS
  0
LINE
  8
0
  6
CONTINUOUS
 62
   249
 10
217.5
 20
57.5
 30
0.0
 11
217.5
 21
50.0
 31
0.0
  0
LINE
  8
0
  6
HIDDEN
 62
   249
 10
210.450615
 20
57.5
 30
0.0
 11
210.450615
 21
50.0
 31
0.0
  0
LINE
  8
0
  6
HIDDEN
 62
   249
 10
180.0
 20
57.5
 30
0.0
 11
180.0
 21
50.0
 31
0.0
  0
TEXT
  8
0
  6
HIDDEN
 62
   249
 10
352.5
 20
195.0
 30
0.0
 40
2.0
  1
FEEDER TERMINAL /
  7
ROMANS
  0
TEXT
  8
0
  6
HIDDEN
 62
   249
 10
352.5
 20
191.666667
 30
0.0
 40
2.0
  1
LEDNINGSTERMINAL
  7
ROMANS
  0
TEXT
  8
0
  6
HIDDEN
 62
   249
 10
317.5
 20
27.5
 30
0.0
 40
2.0
  1
TERMINAL DIAGRAM / UTTAGSSCHEMA
  7
ROMANS
  0
TEXT
  8
0
  6
CONTINUOUS
 62
   249
 10
361.709087
 20
62.880136
 30
0.0
 40
2.0
  1
25-26
  7
ROMANS
  0
TEXT
  8
0
  6
CONTINUOUS
 62
   249
 10
346.264766
 20
62.880136
 30
0.0
 40
2.0
  1
25-27
  7
ROMANS
  0
TEXT
  8
0
  6
CONTINUOUS
 62
   249
 10
335.885331
 20
62.859156
 30
0.0
 40
2.5
  1
I
 11
335.885331
 21
62.025822
 31
0.0
 73
     1
  0
TEXT
  8
0
  6
CONTINUOUS
 62
   249
 10
324.123619
 20
89.846986
 30
0.0
 40
2.0
  1
1)
  7
ROMANS
  0
TEXT
  8
0
  6
CONTINUOUS
 62
   249
 10
362.378594
 20
40.740868
 30
0.0
 40
2.0
  1
19-21
  7
ROMANS
  0
TEXT
  8
0
  6
CONTINUOUS
 62
   249
 10
362.378594
 20
44.592159
 30
0.0
 40
2.0
  1
16-18
  7
ROMANS
  0
TEXT
  8
0
  6
CONTINUOUS
 62
   249
 10
362.378594
 20
48.663857
 30
0.0
 40
2.0
  1
13-15
  7
ROMANS
  0
TEXT
  8
0
  6
CONTINUOUS
 62
   249
 10
346.903841
 20
40.729848
 30
0.0
 40
2.0
  1
19-20
  7
ROMANS
  0
TEXT
  8
0
  6
CONTINUOUS
 62
   249
 10
346.903841
 20
44.603179
 30
0.0
 40
2.0
  1
16-17
  7
ROMANS
  0
TEXT
  8
0
  6
CONTINUOUS
 62
   249
 10
346.903841
 20
48.685898
 30
0.0
 40
2.0
  1
13-14
  7
ROMANS
  0
LINE
  8
0
  6
CONTINUOUS
 62
   249
 10
344.596837
 20
61.303873
 30
0.0
 11
374.58189
 21
61.303873
 31
0.0
  0
TEXT
  8
0
  6
HIDDEN
 62
   249
 10
335.92423
 20
40.705644
 30
0.0
 40
2.0
  1
U31
  7
ROMANS
  0
TEXT
  8
0
  6
HIDDEN
 62
   249
 10
335.92423
 20
44.615203
 30
0.0
 40
2.0
  1
U23
  7
ROMANS
  0
TEXT
  8
0
  6
HIDDEN
 62
   249
 10
335.92423
 20
48.687757
 30
0.0
 40
2.0
  1
U12
  7
ROMANS
  0
TEXT
  8
0
  6
HIDDEN
 62
   249
 10
335.954968
 20
52.776519
 30
0.0
 40
2.0
  1
Uo
  7
ROMANS
  0
LINE
  8
0
 62
   249
 10
374.596837
 20
91.234672
 30
0.0
 11
330.596837
 21
91.234672
 31
0.0
  0
TEXT
  8
0
  6
CONTINUOUS
 62
   249
 10
363.428504
 20
71.387513
 30
0.0
 40
2.0
  1
4-5
  7
ROMANS
  0
TEXT
  8
0
  6
CONTINUOUS
 62
   249
 10
348.334153
 20
71.387513
 30
0.0
 40
2.0
  1
4-6
  7
ROMANS
  0
TEXT
  8
0
  6
CONTINUOUS
 62
   249
 10
335.8874
 20
71.376493
 30
0.0
 40
2.0
  1
L2
  7
ROMANS
  0
TEXT
  8
0
  6
CONTINUOUS
 62
   249
 10
362.624788
 20
52.747958
 30
0.0
 40
2.0
  1
28-30
  7
ROMANS
  0
TEXT
  8
0
  6
CONTINUOUS
 62
   249
 10
347.057726
 20
52.747958
 30
0.0
 40
2.0
  1
28-29
  7
ROMANS
  0
TEXT
  8
0
  6
CONTINUOUS
 62
   249
 10
360.244541
 20
57.837603
 30
0.0
 40
2.0
  1
Un=110V
  7
ROMANS
  0
TEXT
  8
0
  6
CONTINUOUS
 62
   249
 10
345.294248
 20
57.837603
 30
0.0
 40
2.0
  1
Un=100V
  7
ROMANS
  0
TEXT
  8
0
  6
DASHED
 62
   249
 10
363.510942
 20
75.43199
 30
0.0
 40
2.0
  1
1-2
  7
ROMANS
  0
TEXT
  8
0
  6
DASHED
 62
   249
 10
348.210432
 20
75.43199
 30
0.0
 40
2.0
  1
1-3
  7
ROMANS
  0
TEXT
  8
0
  6
DASHED
 62
   249
 10
335.8874
 20
75.43199
 30
0.0
 40
2.0
  1
L1            
  7
ROMANS
  0
TEXT
  8
0
  6
DASHED
 62
   249
 10
362.165569
 20
81.38299
 30
0.0
 40
2.0
  1
In=5A
  7
ROMANS
  0
LINE
  8
0
 62
   249
 10
344.596837
 20
80.734672
 30
0.0
 11
374.596837
 21
80.734672
 31
0.0
  0
TEXT
  8
0
  6
CONTINUOUS
 62
   249
 10
363.458936
 20
67.128469
 30
0.0
 40
2.0
  1
7-8
  7
ROMANS
  0
TEXT
  8
0
  6
CONTINUOUS
 62
   249
 10
348.318937
 20
67.128469
 30
0.0
 40
2.0
  1
7-9
  7
ROMANS
  0
TEXT
  8
0
  6
CONTINUOUS
 62
   249
 10
335.8874
 20
67.20043
 30
0.0
 40
2.0
  1
L3
  7
ROMANS
  0
TEXT
  8
0
  6
CONTINUOUS
 62
   249
 10
347.162515
 20
81.38299
 30
0.0
 40
2.0
  1
In=1A
  7
ROMANS
  0
LINE
  8
0
  6
CONTINUOUS
 62
   249
 10
330.596837
 20
39.762475
 30
0.0
 11
374.596837
 21
39.762475
 31
0.0
  0
LINE
  8
0
 62
   249
 10
330.596837
 20
91.234672
 30
0.0
 11
330.596837
 21
39.762475
 31
0.0
  0
LINE
  8
0
 62
   249
 10
374.596837
 20
39.762475
 30
0.0
 11
374.596837
 21
91.234672
 31
0.0
  0
LINE
  8
0
 62
   249
 10
330.596837
 20
85.234672
 30
0.0
 11
374.596837
 21
85.234672
 31
0.0
  0
LINE
  8
0
 62
   249
 10
344.596837
 20
85.234672
 30
0.0
 11
344.596837
 21
39.762475
 31
0.0
  0
LINE
  8
0
 62
   249
 10
359.83184
 20
85.234672
 30
0.0
 11
359.83184
 21
39.762475
 31
0.0
  0
LINE
  8
0
 62
   249
 10
344.596837
 20
56.807753
 30
0.0
 11
374.596837
 21
56.807753
 31
0.0
  0
TEXT
  8
0
 62
   249
 10
336.535973
 20
86.515184
 30
0.0
 40
2.0
  1
TERMINALS / UTTAG
  7
ROMANS
 11
336.535973
 21
85.848517
 31
0.0
 73
     1
  0
TEXT
  8
0
  6
CONTINUOUS
 62
   249
 10
40.0
 20
49.166667
 30
0.0
 40
2.0
  1
RS 10107-AAF
  7
ROMANS
  0
TEXT
  8
0
  6
CONTINUOUS
 62
   249
 10
212.681477
 20
28.214467
 30
0.0
 40
2.0
  1
1992-08-27 JR / RITU
  7
ROMANS
  0
TEXT
  8
0
  6
CONTINUOUS
 62
   249
 10
317.5
 20
24.166667
 30
0.0
 40
2.0
  1
SPAC 635 C5
  7
ROMANS
  0
TEXT
  8
0
  6
CONTINUOUS
 62
   249
 10
327.5
 20
2.5
 30
0.0
 40
2.5
  1
RS 10107-AAF
  7
ROMANS
  0
TEXT
  8
0
  6
CONTINUOUS
 62
   249
 10
380.0
 20
2.5
 30
0.0
 40
2.5
  1
B
  7
ROMANS
  0
TEXT
  8
0
  6
CONTINUOUS
 62
   249
 10
65.0
 20
238.680122
 30
0.0
 40
2.0
  1
RS 10107-AB  SPAC 635 C1
  7
ROMANS
  0
TEXT
  8
0
  6
CONTINUOUS
 62
   249
 10
304.791732
 20
199.766059
 30
0.0
 40
2.0
  1
P/Q
  7
ROMANS
  0
LINE
  8
0
  6
DASHED
 62
   249
 10
272.5
 20
110.0
 30
0.0
 11
272.5
 21
100.0
 31
0.0
  0
LINE
  8
0
  6
DASHED
 62
   249
 10
282.5
 20
120.0
 30
0.0
 11
282.5
 21
110.0
 31
0.0
  0
LINE
  8
0
  6
DASHED
 62
   249
 10
282.5
 20
110.0
 30
0.0
 11
305.0
 21
110.0
 31
0.0
  0
TEXT
  8
0
  6
CONTINUOUS
 62
   249
 10
51.344758
 20
1.809232
 30
0.0
 40
2.0
  1
A CHANGE OF CONNECTION FOR THE VOLTAGE TRANSFORMER 1993-05-10  KM / RITU Power
  7
ROMANS
  0
TEXT
  8
0
  6
DASHED
 62
   249
 10
292.550935
 20
12.152587
 30
0.0
 40
3.0
  1
A3
  7
GREEKS
  0
TEXT
  8
0
  6
DASHED
 62
   249
 10
352.152317
 20
16.031757
 30
0.0
 40
1.4
  1
LEHTI SHEET
  7
GREEKS
  0
LINE
  8
0
 62
   249
 10
0.57084
 20
263.077227
 30
0.0
 11
392.57084
 21
263.077227
 31
0.0
  0
LINE
  8
0
 62
   249
 10
18.57084
 20
0.577227
 30
0.0
 11
0.57084
 21
0.577227
 31
0.0
  0
LINE
  8
0
 62
   249
 10
209.57084
 20
0.577227
 30
0.0
 11
392.57084
 21
0.577227
 31
0.0
  0
LINE
  8
0
 62
   249
 10
209.57084
 20
0.577227
 30
0.0
 11
209.57084
 21
35.577227
 31
0.0
  0
LINE
  8
0
 62
   249
 10
392.57084
 20
0.577227
 30
0.0
 11
392.57084
 21
35.577227
 31
0.0
  0
LINE
  8
0
 62
   249
 10
209.57084
 20
18.577227
 30
0.0
 11
392.57084
 21
18.577227
 31
0.0
  0
LINE
  8
0
 62
   249
 10
209.57084
 20
10.077227
 30
0.0
 11
392.57084
 21
10.077227
 31
0.0
  0
LINE
  8
0
 62
   249
 10
209.57084
 20
27.077227
 30
0.0
 11
307.57084
 21
27.077227
 31
0.0
  0
LINE
  8
0
 62
   249
 10
209.57084
 20
35.577227
 30
0.0
 11
392.57084
 21
35.577227
 31
0.0
  0
TEXT
  8
0
 62
   249
 10
210.57084
 20
24.31056
 30
0.0
 40
1.4
  1
TARKASTI  CHECKED
  7
ROMANS
  0
TEXT
  8
0
 62
   249
 10
210.313674
 20
16.043894
 30
0.0
 40
1.4
  1
HYVÄKSYI  APPROVED
  7
ROMANS
  0
LINE
  8
0
 62
   249
 10
307.57084
 20
0.577227
 30
0.0
 11
307.57084
 21
35.577227
 31
0.0
  0
TEXT
  8
0
 62
   249
 10
259.57084
 20
33.077227
 30
0.0
 40
1.4
  1
LIITTYY  CONCERNING
  7
ROMANS
  0
TEXT
  8
0
 62
   249
 10
259.57084
 20
24.077227
 30
0.0
 40
1.4
  1
TOLERANSSIT  TOLERANCES
  7
ROMANS
  0
TEXT
  8
0
 62
   249
 10
259.57084
 20
16.077227
 30
0.0
 40
1.4
  1
SUHDE  SCALE
  7
ROMANS
  0
TEXT
  8
0
 62
   249
 10
309.57084
 20
33.077227
 30
0.0
 40
1.4
  1
NIMITYS  NAME
  7
ROMANS
  0
TEXT
  8
0
 62
   249
 10
309.57084
 20
16.077227
 30
0.0
 40
1.4
  1
KOODI  CODE
  7
ROMANS
  0
TEXT
  8
0
 62
   249
 10
309.57084
 20
7.577227
 30
0.0
 40
1.4
  1
PIIRUSTUS NO  DRAWING NR
  7
ROMANS
  0
LINE
  8
0
 62
   249
 10
350.07084
 20
10.077227
 30
0.0
 11
350.07084
 21
18.577227
 31
0.0
  0
TEXT
  8
0
 62
   249
 10
371.57084
 20
7.577227
 30
0.0
 40
1.4
  1
PAINOS  REVISION
  7
ROMANS
  0
LINE
  8
0
 62
   249
 10
370.07084
 20
10.077227
 30
0.0
 11
370.07084
 21
0.577227
 31
0.0
  0
LINE
  8
0
 62
   249
 10
210.52084
 20
2.077227
 30
0.0
 11
212.27084
 21
2.077227
 31
0.0
  0
LINE
  8
0
 62
   249
 10
215.77084
 20
2.077227
 30
0.0
 11
217.52084
 21
2.077227
 31
0.0
  0
LINE
  8
0
 62
   249
 10
212.97084
 20
9.077227
 30
0.0
 11
211.793312
 21
5.712862
 31
0.0
  0
LINE
  8
0
 62
   249
 10
212.759626
 20
3.477227
 30
0.0
 11
213.88084
 21
3.477227
 31
0.0
  0
LINE
  8
0
 62
   249
 10
212.75963
 20
3.473769
 30
0.0
 11
212.27084
 21
2.077227
 31
0.0
  0
LINE
  8
0
 62
   249
 10
215.07084
 20
9.077227
 30
0.0
 11
216.247193
 21
5.716218
 31
0.0
  0
LINE
  8
0
 62
   249
 10
215.281937
 20
3.474091
 30
0.0
 11
215.77084
 21
2.077227
 31
0.0
  0
LINE
  8
0
 62
   249
 10
215.07084
 20
9.077227
 30
0.0
 11
214.16084
 21
9.077227
 31
0.0
  0
LINE
  8
0
 62
   249
 10
213.88084
 20
9.077227
 30
0.0
 11
213.88084
 21
5.717227
 31
0.0
  0
LINE
  8
0
 62
   249
 10
214.16084
 20
9.077227
 30
0.0
 11
214.16084
 21
5.717227
 31
0.0
  0
LINE
  8
0
 62
   249
 10
214.16084
 20
3.477227
 30
0.0
 11
215.280733
 21
3.477227
 31
0.0
  0
LINE
  8
0
 62
   249
 10
213.88084
 20
9.077227
 30
0.0
 11
212.97084
 21
9.077227
 31
0.0
  0
LINE
  8
0
 62
   249
 10
211.79278
 20
5.717227
 30
0.0
 11
213.88084
 21
5.717227
 31
0.0
  0
LINE
  8
0
 62
   249
 10
211.693822
 20
5.437227
 30
0.0
 11
213.88084
 21
5.437227
 31
0.0
  0
LINE
  8
0
 62
   249
 10
216.345332
 20
5.435821
 30
0.0
 11
217.52084
 21
2.077227
 31
0.0
  0
LINE
  8
0
 62
   249
 10
214.16084
 20
5.717227
 30
0.0
 11
216.245953
 21
5.717227
 31
0.0
  0
LINE
  8
0
 62
   249
 10
214.16084
 20
5.437227
 30
0.0
 11
216.344096
 21
5.437227
 31
0.0
  0
LINE
  8
0
 62
   249
 10
214.16084
 20
5.437227
 30
0.0
 11
214.16084
 21
3.477227
 31
0.0
  0
LINE
  8
0
 62
   249
 10
213.88084
 20
5.437227
 30
0.0
 11
213.88084
 21
3.477227
 31
0.0
  0
LINE
  8
0
 62
   249
 10
211.690728
 20
5.419766
 30
0.0
 11
210.52084
 21
2.077227
 31
0.0
  0
INSERT
  8
0
 62
   249
  2
*X22
 10
210.52084
 20
2.077227
 30
0.0
 41
0.7
 42
0.7
 43
0.7
  0
INSERT
  8
0
 62
   249
  2
*X23
 10
210.52084
 20
2.077227
 30
0.0
 41
0.7
 42
0.7
 43
0.7
  0
INSERT
  8
0
 62
   249
  2
*X24
 10
210.52084
 20
2.077227
 30
0.0
 41
0.7
 42
0.7
 43
0.7
  0
INSERT
  8
0
 62
   249
  2
*X25
 10
210.52084
 20
2.077227
 30
0.0
 41
0.7
 42
0.7
 43
0.7
  0
LINE
  8
0
 62
   249
 10
218.01084
 20
2.077227
 30
0.0
 11
218.01084
 21
5.437227
 31
0.0
  0
LINE
  8
0
 62
   249
 10
218.01084
 20
9.077227
 30
0.0
 11
219.97084
 21
9.077227
 31
0.0
  0
LINE
  8
0
 62
   249
 10
219.97084
 20
9.077227
 30
0.0
 11
219.97084
 21
5.717227
 31
0.0
  0
LINE
  8
0
 62
   249
 10
219.97084
 20
5.717227
 30
0.0
 11
218.01084
 21
5.717227
 31
0.0
  0
LINE
  8
0
 62
   249
 10
218.01084
 20
5.437227
 30
0.0
 11
219.97084
 21
5.437227
 31
0.0
  0
LINE
  8
0
 62
   249
 10
219.97084
 20
5.437227
 30
0.0
 11
219.97084
 21
2.077227
 31
0.0
  0
LINE
  8
0
 62
   249
 10
219.97084
 20
2.077227
 30
0.0
 11
218.01084
 21
2.077227
 31
0.0
  0
LINE
  8
0
 62
   249
 10
218.01084
 20
5.717227
 30
0.0
 11
218.01084
 21
9.077227
 31
0.0
  0
ARC
  8
0
 62
   249
 10
220.81084
 20
7.502227
 30
0.0
 40
1.575
 50
298.455859
 51
90.052437
  0
LINE
  8
0
 62
   249
 10
220.25084
 20
9.077227
 30
0.0
 11
220.809398
 21
9.077226
 31
0.0
  0
LINE
  8
0
 62
   249
 10
220.25084
 20
9.077227
 30
0.0
 11
220.25084
 21
5.717227
 31
0.0
  0
LINE
  8
0
 62
   249
 10
220.25084
 20
5.717227
 30
0.0
 11
222.235282
 21
5.717227
 31
0.0
  0
LINE
  8
0
 62
   249
 10
222.49084
 20
5.437227
 30
0.0
 11
220.25084
 21
5.437227
 31
0.0
  0
LINE
  8
0
 62
   249
 10
220.25084
 20
5.437227
 30
0.0
 11
220.25084
 21
2.077227
 31
0.0
  0
ARC
  8
0
 62
   249
 10
220.81084
 20
4.177227
 30
0.0
 40
2.1
 50
269.937724
 51
37.056553
  0
LINE
  8
0
 62
   249
 10
220.25084
 20
2.077227
 30
0.0
 11
220.808557
 21
2.077228
 31
0.0
  0
ARC
  8
0
 62
   249
 10
220.81084
 20
4.177227
 30
0.0
 40
2.1
 50
47.28622
 51
68.787999
  0
INSERT
  8
0
 62
   249
  2
*X26
 10
210.52084
 20
2.077227
 30
0.0
 41
0.7
 42
0.7
 43
0.7
  0
INSERT
  8
0
 62
   249
  2
*X27
 10
210.52084
 20
2.077227
 30
0.0
 41
0.7
 42
0.7
 43
0.7
  0
INSERT
  8
0
 62
   249
  2
*X28
 10
210.52084
 20
2.077227
 30
0.0
 41
0.7
 42
0.7
 43
0.7
  0
INSERT
  8
0
 62
   249
  2
*X29
 10
210.52084
 20
2.077227
 30
0.0
 41
0.7
 42
0.7
 43
0.7
  0
INSERT
  8
0
 62
   249
  2
*X29
 10
215.98084
 20
2.077227
 30
0.0
 41
0.7
 42
0.7
 43
0.7
  0
INSERT
  8
0
 62
   249
  2
*X28
 10
215.98084
 20
2.077227
 30
0.0
 41
0.7
 42
0.7
 43
0.7
  0
INSERT
  8
0
 62
   249
  2
*X27
 10
215.98084
 20
2.077227
 30
0.0
 41
0.7
 42
0.7
 43
0.7
  0
INSERT
  8
0
 62
   249
  2
*X26
 10
215.98084
 20
2.077227
 30
0.0
 41
0.7
 42
0.7
 43
0.7
  0
ARC
  8
0
 62
   249
 10
226.27084
 20
4.177227
 30
0.0
 40
2.1
 50
47.28622
 51
68.787999
  0
LINE
  8
0
 62
   249
 10
225.71084
 20
2.077227
 30
0.0
 11
226.268557
 21
2.077228
 31
0.0
  0
ARC
  8
0
 62
   249
 10
226.27084
 20
4.177227
 30
0.0
 40
2.1
 50
269.937724
 51
37.056553
  0
LINE
  8
0
 62
   249
 10
225.71084
 20
5.437227
 30
0.0
 11
225.71084
 21
2.077227
 31
0.0
  0
LINE
  8
0
 62
   249
 10
227.95084
 20
5.437227
 30
0.0
 11
225.71084
 21
5.437227
 31
0.0
  0
LINE
  8
0
 62
   249
 10
225.71084
 20
5.717227
 30
0.0
 11
227.695282
 21
5.717227
 31
0.0
  0
LINE
  8
0
 62
   249
 10
225.71084
 20
9.077227
 30
0.0
 11
225.71084
 21
5.717227
 31
0.0
  0
LINE
  8
0
 62
   249
 10
225.71084
 20
9.077227
 30
0.0
 11
226.269398
 21
9.077226
 31
0.0
  0
ARC
  8
0
 62
   249
 10
226.27084
 20
7.502227
 30
0.0
 40
1.575
 50
298.455859
 51
90.052437
  0
LINE
  8
0
 62
   249
 10
223.47084
 20
5.717227
 30
0.0
 11
223.47084
 21
9.077227
 31
0.0
  0
LINE
  8
0
 62
   249
 10
225.43084
 20
2.077227
 30
0.0
 11
223.47084
 21
2.077227
 31
0.0
  0
LINE
  8
0
 62
   249
 10
225.43084
 20
5.437227
 30
0.0
 11
225.43084
 21
2.077227
 31
0.0
  0
LINE
  8
0
 62
   249
 10
223.47084
 20
5.437227
 30
0.0
 11
225.43084
 21
5.437227
 31
0.0
  0
LINE
  8
0
 62
   249
 10
225.43084
 20
5.717227
 30
0.0
 11
223.47084
 21
5.717227
 31
0.0
  0
LINE
  8
0
 62
   249
 10
225.43084
 20
9.077227
 30
0.0
 11
225.43084
 21
5.717227
 31
0.0
  0
LINE
  8
0
 62
   249
 10
223.47084
 20
9.077227
 30
0.0
 11
225.43084
 21
9.077227
 31
0.0
  0
LINE
  8
0
 62
   249
 10
223.47084
 20
2.077227
 30
0.0
 11
223.47084
 21
5.437227
 31
0.0
  0
TEXT
  8
0
 62
   249
 10
230.07084
 20
2.077227
 30
0.0
 40
3.0
  1
ABB 
 41
0.8
  7
ROMANS
  0
TEXT
  8
0
 62
   249
 10
238.07084
 20
2.077227
 30
0.0
 40
3.0
  1
Strömberg
 41
0.8
  7
ROMANS
  0
LINE
  8
0
 62
   249
 10
282.57084
 20
10.077227
 30
0.0
 11
282.57084
 21
18.577227
 31
0.0
  0
TEXT
  8
0
 62
   249
 10
28.07084
 20
5.077227
 30
0.0
 40
1.4
  1
MUUTOS
  7
ROMANS
  0
TEXT
  8
0
 62
   249
 10
28.07084
 20
2.81056
 30
0.0
 40
1.4
  1
REVISION
  7
ROMANS
  0
LINE
  8
0
 62
   249
 10
47.07084
 20
9.577227
 30
0.0
 11
209.57084
 21
9.577227
 31
0.0
  0
LINE
  8
0
 62
   249
 10
47.07084
 20
0.577227
 30
0.0
 11
47.07084
 21
9.577227
 31
0.0
  0
LINE
  8
0
 62
   249
 10
41.07084
 20
5.077227
 30
0.0
 11
209.57084
 21
5.077227
 31
0.0
  0
LINE
  8
0
 62
   249
 10
257.57084
 20
10.077227
 30
0.0
 11
257.57084
 21
35.577227
 31
0.0
  0
LINE
  8
0
 62
   249
 10
271.57084
 20
10.077227
 30
0.0
 11
271.57084
 21
0.577227
 31
0.0
  0
TEXT
  8
0
 62
   249
 10
210.57084
 20
32.577227
 30
0.0
 40
1.4
  1
TEKI  PREPARED
  7
ROMANS
  0
TEXT
  8
0
 62
   249
 10
273.57084
 20
7.577227
 30
0.0
 40
1.4
  1
VAST.OSASTO RESP.DEPT.
  7
ROMANS
  0
TEXT
  8
0
 62
   249
 10
257.740747
 20
2.081011
 30
0.0
 40
3.0
  1
Power
 41
0.8
  7
ROMANS
  0
TEXT
  8
0
 62
   249
 10
42.57084
 20
1.53452
 30
0.0
 40
2.5
  1
B
  7
ROMANS
  0
TEXT
  8
0
 62
   249
 10
42.57084
 20
5.926736
 30
0.0
 40
2.5
  1
C
  7
ROMANS
  0
LINE
  8
0
 62
   249
 10
0.57084
 20
0.577227
 30
0.0
 11
392.57084
 21
0.577227
 31
0.0
  0
LINE
  8
0
 62
   249
 10
392.57084
 20
263.077227
 30
0.0
 11
392.57084
 21
0.577227
 31
0.0
  0
LINE
  8
0
 62
   249
 10
0.57084
 20
0.577227
 30
0.0
 11
0.57084
 21
263.077227
 31
0.0
  0
ARC
  8
0
  6
CONTINUOUS
 62
   249
 10
55.0
 20
151.055194
 30
0.0
 40
0.5
 50
180.0
 51
0.0
  0
ARC
  8
0
  6
CONTINUOUS
 62
   249
 10
55.0
 20
151.055194
 30
0.0
 40
0.5
 50
0.0
 51
180.0
  0
ARC
  8
0
  6
CONTINUOUS
 62
   249
 10
60.0
 20
138.608096
 30
0.0
 40
0.5
 50
180.0
 51
0.0
  0
ARC
  8
0
  6
CONTINUOUS
 62
   249
 10
60.0
 20
138.608096
 30
0.0
 40
0.5
 50
0.0
 51
180.0
  0
ARC
  8
0
  6
CONTINUOUS
 62
   249
 10
72.5
 20
170.0
 30
0.0
 40
0.5
 50
180.0
 51
0.0
  0
ARC
  8
0
  6
CONTINUOUS
 62
   249
 10
72.5
 20
170.0
 30
0.0
 40
0.5
 50
0.0
 51
180.0
  0
TEXT
  8
0
  6
CONTINUOUS
 62
   249
 10
29.344763
 20
206.50558
 30
0.0
 40
2.0
  1
-
  0
TEXT
  8
0
  6
CONTINUOUS
 62
   249
 10
29.353328
 20
211.513635
 30
0.0
 40
2.0
  1
+
  0
ARC
  8
0
  6
CONTINUOUS
 62
   249
 10
47.5
 20
207.5
 30
0.0
 40
0.5
 50
180.0
 51
0.0
  0
ARC
  8
0
  6
CONTINUOUS
 62
   249
 10
47.5
 20
207.5
 30
0.0
 40
0.5
 50
0.0
 51
180.0
  0
TEXT
  8
0
  6
CONTINUOUS
 62
   249
 10
29.353328
 20
219.013635
 30
0.0
 40
2.0
  1
+
  0
TEXT
  8
0
  6
CONTINUOUS
 62
   249
 10
29.344763
 20
229.00558
 30
0.0
 40
2.0
  1
-
  0
TEXT
  8
0
  6
CONTINUOUS
 62
   249
 10
29.353328
 20
234.013635
 30
0.0
 40
2.0
  1
+
  0
ARC
  8
0
  6
CONTINUOUS
 62
   249
 10
85.0
 20
162.5
 30
0.0
 40
0.5
 50
180.0
 51
0.0
  0
ARC
  8
0
  6
CONTINUOUS
 62
   249
 10
85.0
 20
162.5
 30
0.0
 40
0.5
 50
0.0
 51
180.0
  0
ARC
  8
0
  6
CONTINUOUS
 62
   249
 10
82.5
 20
177.5
 30
0.0
 40
0.5
 50
180.0
 51
0.0
  0
ARC
  8
0
  6
CONTINUOUS
 62
   249
 10
82.5
 20
177.5
 30
0.0
 40
0.5
 50
0.0
 51
180.0
  0
ARC
  8
0
  6
CONTINUOUS
 62
   249
 10
115.0
 20
177.5
 30
0.0
 40
0.5
 50
180.0
 51
0.0
  0
ARC
  8
0
  6
CONTINUOUS
 62
   249
 10
115.0
 20
177.5
 30
0.0
 40
0.5
 50
0.0
 51
180.0
  0
LINE
  8
0
  6
CONTINUOUS
 62
   249
 10
184.252948
 20
170.547247
 30
0.0
 11
185.139835
 21
170.547247
 31
0.0
  0
LINE
  8
0
  6
CONTINUOUS
 62
   249
 10
183.921844
 20
171.15888
 30
0.0
 11
185.506415
 21
171.15888
 31
0.0
  0
LINE
  8
0
  6
CONTINUOUS
 62
   249
 10
184.73778
 20
171.780942
 30
0.0
 11
185.932121
 21
171.780942
 31
0.0
  0
LINE
  8
0
  6
CONTINUOUS
 62
   249
 10
183.543439
 20
171.780942
 30
0.0
 11
184.73778
 21
171.780942
 31
0.0
  0
LINE
  8
0
  6
CONTINUOUS
 62
   249
 10
184.753666
 20
173.135212
 30
0.0
 11
184.753666
 21
171.780942
 31
0.0
  0
LINE
  8
0
  6
CONTINUOUS
 62
   249
 10
173.924362
 20
171.164635
 30
0.0
 11
171.578597
 21
172.499989
 31
0.0
  0
LINE
  8
0
  6
CONTINUOUS
 62
   249
 10
171.578597
 20
172.499989
 30
0.0
 11
173.924362
 21
173.689908
 31
0.0
  0
ARC
  8
0
  6
CONTINUOUS
 62
   249
 10
147.5
 20
162.5
 30
0.0
 40
0.5
 50
180.0
 51
0.0
  0
ARC
  8
0
  6
CONTINUOUS
 62
   249
 10
147.5
 20
162.5
 30
0.0
 40
0.5
 50
0.0
 51
180.0
  0
LINE
  8
0
  6
CONTINUOUS
 62
   249
 10
173.92602
 20
161.164646
 30
0.0
 11
171.580254
 21
162.5
 31
0.0
  0
LINE
  8
0
  6
CONTINUOUS
 62
   249
 10
171.580254
 20
162.5
 30
0.0
 11
173.92602
 21
163.689919
 31
0.0
  0
LINE
  8
0
  6
CONTINUOUS
 62
   249
 10
184.145119
 20
160.524885
 30
0.0
 11
185.032006
 21
160.524885
 31
0.0
  0
LINE
  8
0
  6
CONTINUOUS
 62
   249
 10
183.814014
 20
161.136518
 30
0.0
 11
185.398586
 21
161.136518
 31
0.0
  0
LINE
  8
0
  6
CONTINUOUS
 62
   249
 10
184.62995
 20
161.75858
 30
0.0
 11
185.824291
 21
161.75858
 31
0.0
  0
LINE
  8
0
  6
CONTINUOUS
 62
   249
 10
183.435609
 20
161.75858
 30
0.0
 11
184.62995
 21
161.75858
 31
0.0
  0
LINE
  8
0
  6
CONTINUOUS
 62
   249
 10
184.645837
 20
163.112851
 30
0.0
 11
184.645837
 21
161.75858
 31
0.0
  0
ARC
  8
0
  6
CONTINUOUS
 62
   249
 10
142.5
 20
177.5
 30
0.0
 40
0.5
 50
180.0
 51
0.0
  0
ARC
  8
0
  6
CONTINUOUS
 62
   249
 10
142.5
 20
177.5
 30
0.0
 40
0.5
 50
0.0
 51
180.0
  0
ARC
  8
0
  6
CONTINUOUS
 62
   249
 10
140.0
 20
187.5
 30
0.0
 40
0.5
 50
180.0
 51
0.0
  0
ARC
  8
0
  6
CONTINUOUS
 62
   249
 10
140.0
 20
187.5
 30
0.0
 40
0.5
 50
0.0
 51
180.0
  0
ARC
  8
0
  6
CONTINUOUS
 62
   249
 10
167.5
 20
183.000813
 30
0.0
 40
0.5
 50
180.0
 51
0.0
  0
ARC
  8
0
  6
CONTINUOUS
 62
   249
 10
167.5
 20
183.000813
 30
0.0
 40
0.5
 50
0.0
 51
180.0
  0
ARC
  8
0
  6
CONTINUOUS
 62
   249
 10
170.0
 20
179.971652
 30
0.0
 40
0.5
 50
180.0
 51
0.0
  0
ARC
  8
0
  6
CONTINUOUS
 62
   249
 10
170.0
 20
179.971652
 30
0.0
 40
0.5
 50
0.0
 51
180.0
  0
LINE
  8
0
  6
CONTINUOUS
 62
   249
 10
173.924362
 20
186.164635
 30
0.0
 11
171.578597
 21
187.499989
 31
0.0
  0
LINE
  8
0
  6
CONTINUOUS
 62
   249
 10
171.578597
 20
187.499989
 30
0.0
 11
173.924362
 21
188.689908
 31
0.0
  0
LINE
  8
0
  6
CONTINUOUS
 62
   249
 10
184.372759
 20
175.562766
 30
0.0
 11
185.259646
 21
175.562766
 31
0.0
  0
LINE
  8
0
  6
CONTINUOUS
 62
   249
 10
184.041654
 20
176.174399
 30
0.0
 11
185.626225
 21
176.174399
 31
0.0
  0
LINE
  8
0
  6
CONTINUOUS
 62
   249
 10
184.85759
 20
176.796462
 30
0.0
 11
186.051931
 21
176.796462
 31
0.0
  0
LINE
  8
0
  6
CONTINUOUS
 62
   249
 10
183.663249
 20
176.796462
 30
0.0
 11
184.85759
 21
176.796462
 31
0.0
  0
LINE
  8
0
  6
CONTINUOUS
 62
   249
 10
184.873477
 20
178.150732
 30
0.0
 11
184.873477
 21
176.796462
 31
0.0
  0
LINE
  8
0
  6
CONTINUOUS
 62
   249
 10
184.480588
 20
185.593805
 30
0.0
 11
185.367475
 21
185.593805
 31
0.0
  0
LINE
  8
0
  6
CONTINUOUS
 62
   249
 10
184.149484
 20
186.205438
 30
0.0
 11
185.734055
 21
186.205438
 31
0.0
  0
LINE
  8
0
  6
CONTINUOUS
 62
   249
 10
184.96542
 20
186.827501
 30
0.0
 11
186.159761
 21
186.827501
 31
0.0
  0
LINE
  8
0
  6
CONTINUOUS
 62
   249
 10
183.771079
 20
186.827501
 30
0.0
 11
184.96542
 21
186.827501
 31
0.0
  0
LINE
  8
0
  6
CONTINUOUS
 62
   249
 10
184.981306
 20
188.181771
 30
0.0
 11
184.981306
 21
186.827501
 31
0.0
  0
LINE
  8
0
  6
CONTINUOUS
 62
   249
 10
232.38991
 20
93.666103
 30
0.0
 11
230.044144
 21
95.001457
 31
0.0
  0
LINE
  8
0
  6
CONTINUOUS
 62
   249
 10
230.044144
 20
95.001457
 30
0.0
 11
232.38991
 21
96.191376
 31
0.0
  0
ARC
  8
0
  6
CONTINUOUS
 62
   249
 10
272.5
 20
80.0
 30
0.0
 40
0.5
 50
180.0
 51
0.0
  0
ARC
  8
0
  6
CONTINUOUS
 62
   249
 10
272.5
 20
80.0
 30
0.0
 40
0.5
 50
0.0
 51
180.0
  0
ARC
  8
0
  6
CONTINUOUS
 62
   249
 10
272.5
 20
100.0
 30
0.0
 40
0.5
 50
180.0
 51
0.0
  0
ARC
  8
0
  6
CONTINUOUS
 62
   249
 10
272.5
 20
100.0
 30
0.0
 40
0.5
 50
0.0
 51
180.0
  0
ARC
  8
0
  6
CONTINUOUS
 62
   249
 10
277.5
 20
120.0
 30
0.0
 40
0.5
 50
180.0
 51
0.0
  0
ARC
  8
0
  6
CONTINUOUS
 62
   249
 10
277.5
 20
120.0
 30
0.0
 40
0.5
 50
0.0
 51
180.0
  0
LINE
  8
0
  6
CONTINUOUS
 62
   249
 10
338.515403
 20
62.115218
 30
0.0
 11
339.40229
 21
62.115218
 31
0.0
  0
LINE
  8
0
  6
CONTINUOUS
 62
   249
 10
338.184298
 20
62.726851
 30
0.0
 11
339.76887
 21
62.726851
 31
0.0
  0
LINE
  8
0
  6
CONTINUOUS
 62
   249
 10
339.000234
 20
63.348913
 30
0.0
 11
340.194575
 21
63.348913
 31
0.0
  0
LINE
  8
0
  6
CONTINUOUS
 62
   249
 10
337.805893
 20
63.348913
 30
0.0
 11
339.000234
 21
63.348913
 31
0.0
  0
LINE
  8
0
  6
CONTINUOUS
 62
   249
 10
339.016121
 20
64.703183
 30
0.0
 11
339.016121
 21
63.348913
 31
0.0
  0
LINE
  8
0
  6
CONTINUOUS
 62
   249
 10
207.347595
 20
173.925586
 30
0.0
 11
208.596268
 21
173.214764
 31
0.0
  0
LINE
  8
0
  6
CONTINUOUS
 62
   249
 10
208.596268
 20
173.214764
 30
0.0
 11
207.347595
 21
172.581359
 31
0.0
  0
LINE
  8
0
  6
CONTINUOUS
 62
   249
 10
203.72323
 20
172.490627
 30
0.0
 11
202.474557
 21
173.201449
 31
0.0
  0
LINE
  8
0
  6
CONTINUOUS
 62
   249
 10
202.474557
 20
173.201449
 30
0.0
 11
203.72323
 21
173.834854
 31
0.0
  0
ARC
  8
0
  6
CONTINUOUS
 62
   249
 10
215.0
 20
168.479447
 30
0.0
 40
0.5
 50
180.0
 51
0.0
  0
ARC
  8
0
  6
CONTINUOUS
 62
   249
 10
215.0
 20
168.479447
 30
0.0
 40
0.5
 50
0.0
 51
180.0
  0
LINE
  8
0
  6
CONTINUOUS
 62
   249
 10
231.989729
 20
148.664635
 30
0.0
 11
229.643963
 21
149.999989
 31
0.0
  0
LINE
  8
0
  6
CONTINUOUS
 62
   249
 10
229.643963
 20
149.999989
 30
0.0
 11
231.989729
 21
151.189908
 31
0.0
  0
LINE
  8
0
  6
CONTINUOUS
 62
   249
 10
206.813251
 20
174.799158
 30
0.0
 11
207.700138
 21
174.799158
 31
0.0
  0
LINE
  8
0
  6
CONTINUOUS
 62
   249
 10
206.482147
 20
175.410791
 30
0.0
 11
208.066718
 21
175.410791
 31
0.0
  0
LINE
  8
0
  6
CONTINUOUS
 62
   249
 10
207.298083
 20
176.032853
 30
0.0
 11
208.492424
 21
176.032853
 31
0.0
  0
LINE
  8
0
  6
CONTINUOUS
 62
   249
 10
206.103742
 20
176.032853
 30
0.0
 11
207.298083
 21
176.032853
 31
0.0
  0
LINE
  8
0
  6
CONTINUOUS
 62
   249
 10
207.31397
 20
177.387123
 30
0.0
 11
207.31397
 21
176.032853
 31
0.0
  0
LINE
  8
0
  6
CONTINUOUS
 62
   249
 10
206.813251
 20
179.380809
 30
0.0
 11
207.700138
 21
179.380809
 31
0.0
  0
LINE
  8
0
  6
CONTINUOUS
 62
   249
 10
206.482147
 20
179.992442
 30
0.0
 11
208.066718
 21
179.992442
 31
0.0
  0
LINE
  8
0
  6
CONTINUOUS
 62
   249
 10
207.298083
 20
180.614504
 30
0.0
 11
208.492424
 21
180.614504
 31
0.0
  0
LINE
  8
0
  6
CONTINUOUS
 62
   249
 10
206.103742
 20
180.614504
 30
0.0
 11
207.298083
 21
180.614504
 31
0.0
  0
LINE
  8
0
  6
CONTINUOUS
 62
   249
 10
207.31397
 20
181.968774
 30
0.0
 11
207.31397
 21
180.614504
 31
0.0
  0
LINE
  8
0
  6
CONTINUOUS
 62
   249
 10
229.489729
 20
198.664635
 30
0.0
 11
227.143963
 21
199.999989
 31
0.0
  0
LINE
  8
0
  6
CONTINUOUS
 62
   249
 10
227.143963
 20
199.999989
 30
0.0
 11
229.489729
 21
201.189908
 31
0.0
  0
ARC
  8
0
  6
CONTINUOUS
 62
   249
 10
292.5
 20
172.5
 30
0.0
 40
0.5
 50
180.0
 51
0.0
  0
ARC
  8
0
  6
CONTINUOUS
 62
   249
 10
292.5
 20
172.5
 30
0.0
 40
0.5
 50
0.0
 51
180.0
  0
LINE
  8
0
  6
CONTINUOUS
 62
   249
 10
285.0
 20
173.490022
 30
0.0
 11
285.0
 21
170.844365
 31
0.0
  0
LINE
  8
0
  6
CONTINUOUS
 62
   249
 10
284.396305
 20
169.062812
 30
0.0
 11
285.603695
 21
169.062812
 31
0.0
  0
LINE
  8
0
  6
CONTINUOUS
 62
   249
 10
283.963807
 20
169.950325
 30
0.0
 11
286.027182
 21
169.950325
 31
0.0
  0
LINE
  8
0
  6
CONTINUOUS
 62
   249
 10
283.468237
 20
170.844365
 30
0.0
 11
286.531763
 21
170.844365
 31
0.0
  0
LINE
  8
0
  6
CONTINUOUS
 62
   249
 10
282.5
 20
150.990022
 30
0.0
 11
282.5
 21
148.344365
 31
0.0
  0
LINE
  8
0
  6
CONTINUOUS
 62
   249
 10
281.896305
 20
146.562812
 30
0.0
 11
283.103695
 21
146.562812
 31
0.0
  0
LINE
  8
0
  6
CONTINUOUS
 62
   249
 10
281.463807
 20
147.450325
 30
0.0
 11
283.527182
 21
147.450325
 31
0.0
  0
LINE
  8
0
  6
CONTINUOUS
 62
   249
 10
280.968237
 20
148.344365
 30
0.0
 11
284.031763
 21
148.344365
 31
0.0
  0
ARC
  8
0
  6
CONTINUOUS
 62
   249
 10
282.5
 20
155.0
 30
0.0
 40
0.5
 50
180.0
 51
0.0
  0
ARC
  8
0
  6
CONTINUOUS
 62
   249
 10
282.5
 20
155.0
 30
0.0
 40
0.5
 50
0.0
 51
180.0
  0
LINE
  8
0
  6
CONTINUOUS
 62
   249
 10
292.5
 20
150.990022
 30
0.0
 11
292.5
 21
148.344365
 31
0.0
  0
LINE
  8
0
  6
CONTINUOUS
 62
   249
 10
291.896305
 20
146.562812
 30
0.0
 11
293.103695
 21
146.562812
 31
0.0
  0
LINE
  8
0
  6
CONTINUOUS
 62
   249
 10
291.463807
 20
147.450325
 30
0.0
 11
293.527182
 21
147.450325
 31
0.0
  0
LINE
  8
0
  6
CONTINUOUS
 62
   249
 10
290.968237
 20
148.344365
 30
0.0
 11
294.031763
 21
148.344365
 31
0.0
  0
INSERT
  8
0
  6
CENTER
 62
   249
  2
BLC26
 10
296.41053
 20
157.390461
 30
0.0
 41
1.006225
 42
1.006225
 50
180.0
 43
1.006225
  0
ARC
  8
0
  6
CONTINUOUS
 62
   249
 10
270.0
 20
175.0
 30
0.0
 40
0.5
 50
180.0
 51
0.0
  0
ARC
  8
0
  6
CONTINUOUS
 62
   249
 10
270.0
 20
175.0
 30
0.0
 40
0.5
 50
0.0
 51
180.0
  0
ARC
  8
0
  6
CONTINUOUS
 62
   249
 10
285.0
 20
175.0
 30
0.0
 40
0.5
 50
180.0
 51
0.0
  0
ARC
  8
0
  6
CONTINUOUS
 62
   249
 10
285.0
 20
175.0
 30
0.0
 40
0.5
 50
0.0
 51
180.0
  0
ARC
  8
0
  6
CONTINUOUS
 62
   249
 10
285.0
 20
180.189984
 30
0.0
 40
0.5
 50
180.0
 51
0.0
  0
ARC
  8
0
  6
CONTINUOUS
 62
   249
 10
285.0
 20
180.189984
 30
0.0
 40
0.5
 50
0.0
 51
180.0
  0
ARC
  8
0
  6
CONTINUOUS
 62
   249
 10
270.0
 20
195.0
 30
0.0
 40
0.5
 50
180.0
 51
0.0
  0
ARC
  8
0
  6
CONTINUOUS
 62
   249
 10
270.0
 20
195.0
 30
0.0
 40
0.5
 50
0.0
 51
180.0
  0
ARC
  8
0
  6
CONTINUOUS
 62
   249
 10
285.0
 20
200.189984
 30
0.0
 40
0.5
 50
180.0
 51
0.0
  0
ARC
  8
0
  6
CONTINUOUS
 62
   249
 10
285.0
 20
200.189984
 30
0.0
 40
0.5
 50
0.0
 51
180.0
  0
LINE
  8
0
  6
CONTINUOUS
 62
   249
 10
307.998406
 20
197.970082
 30
0.0
 11
307.998406
 21
188.820254
 31
0.0
  0
INSERT
  8
0
  6
CONTINUOUS
 62
   249
  2
BLC29
 10
308.131152
 20
191.180819
 30
0.0
 50
270.0
  0
INSERT
  8
0
  6
CENTER
 62
   249
  2
BLC26
 10
301.410526
 20
182.580446
 30
0.0
 41
1.006225
 42
1.006225
 50
180.0
 43
1.006225
  0
INSERT
  8
0
  6
CENTER
 62
   249
  2
BLC26
 10
296.43164
 20
202.580445
 30
0.0
 41
1.006225
 42
1.006225
 50
180.0
 43
1.006225
  0
ARC
  8
0
  6
CONTINUOUS
 62
   249
 10
295.0
 20
255.0
 30
0.0
 40
0.5
 50
180.0
 51
0.0
  0
ARC
  8
0
  6
CONTINUOUS
 62
   249
 10
295.0
 20
255.0
 30
0.0
 40
0.5
 50
0.0
 51
180.0
  0
INSERT
  8
0
  6
CENTER
 62
   249
  2
BLC26
 10
291.410524
 20
222.580448
 30
0.0
 41
1.006225
 42
1.006225
 50
180.0
 43
1.006225
  0
ARC
  8
0
  6
CONTINUOUS
 62
   249
 10
300.0
 20
250.0
 30
0.0
 40
0.5
 50
180.0
 51
0.0
  0
ARC
  8
0
  6
CONTINUOUS
 62
   249
 10
300.0
 20
250.0
 30
0.0
 40
0.5
 50
0.0
 51
180.0
  0
INSERT
  8
0
  6
CENTER
 62
   249
  2
BLC26
 10
316.046562
 20
240.109534
 30
0.0
 41
1.006225
 42
1.006225
 43
1.006225
  0
ARC
  8
0
  6
CONTINUOUS
 62
   249
 10
290.0
 20
260.0
 30
0.0
 40
0.5
 50
180.0
 51
0.0
  0
ARC
  8
0
  6
CONTINUOUS
 62
   249
 10
290.0
 20
260.0
 30
0.0
 40
0.5
 50
0.0
 51
180.0
  0
ARC
  8
0
  6
CONTINUOUS
 62
   249
 10
317.5
 20
260.0
 30
0.0
 40
0.5
 50
180.0
 51
0.0
  0
ARC
  8
0
  6
CONTINUOUS
 62
   249
 10
317.5
 20
260.0
 30
0.0
 40
0.5
 50
0.0
 51
180.0
  0
ARC
  8
0
  6
CONTINUOUS
 62
   249
 10
345.0
 20
172.5
 30
0.0
 40
0.5
 50
180.0
 51
0.0
  0
ARC
  8
0
  6
CONTINUOUS
 62
   249
 10
345.0
 20
172.5
 30
0.0
 40
0.5
 50
0.0
 51
180.0
  0
INSERT
  8
0
  6
CENTER
 62
   249
  2
BLC26
 10
351.046562
 20
147.609534
 30
0.0
 41
1.006225
 42
1.006225
 43
1.006225
  0
INSERT
  8
0
  6
CENTER
 62
   249
  2
BLC26
 10
343.546562
 20
147.609534
 30
0.0
 41
1.006225
 42
1.006225
 43
1.006225
  0
INSERT
  8
0
  6
CENTER
 62
   249
  2
BLC26
 10
358.546562
 20
147.609534
 30
0.0
 41
1.006225
 42
1.006225
 43
1.006225
  0
LINE
  8
0
  6
CONTINUOUS
 62
   249
 10
366.509978
 20
140.0
 30
0.0
 11
369.155635
 21
140.0
 31
0.0
  0
LINE
  8
0
  6
CONTINUOUS
 62
   249
 10
370.937188
 20
139.396305
 30
0.0
 11
370.937188
 21
140.603695
 31
0.0
  0
LINE
  8
0
  6
CONTINUOUS
 62
   249
 10
370.049675
 20
138.963807
 30
0.0
 11
370.049675
 21
141.027182
 31
0.0
  0
LINE
  8
0
  6
CONTINUOUS
 62
   249
 10
369.155635
 20
138.468237
 30
0.0
 11
369.155635
 21
141.531763
 31
0.0
  0
LINE
  8
0
  6
CONTINUOUS
 62
   249
 10
366.509978
 20
145.18998
 30
0.0
 11
369.155635
 21
145.18998
 31
0.0
  0
LINE
  8
0
  6
CONTINUOUS
 62
   249
 10
370.937188
 20
144.586285
 30
0.0
 11
370.937188
 21
145.793675
 31
0.0
  0
LINE
  8
0
  6
CONTINUOUS
 62
   249
 10
370.049675
 20
144.153787
 30
0.0
 11
370.049675
 21
146.217163
 31
0.0
  0
LINE
  8
0
  6
CONTINUOUS
 62
   249
 10
369.155635
 20
143.658217
 30
0.0
 11
369.155635
 21
146.721743
 31
0.0
  0
ARC
  8
0
  6
CONTINUOUS
 62
   249
 10
360.0
 20
162.5
 30
0.0
 40
0.5
 50
180.0
 51
0.0
  0
ARC
  8
0
  6
CONTINUOUS
 62
   249
 10
360.0
 20
162.5
 30
0.0
 40
0.5
 50
0.0
 51
180.0
  0
ARC
  8
0
  6
CONTINUOUS
 62
   249
 10
352.5
 20
167.5
 30
0.0
 40
0.5
 50
180.0
 51
0.0
  0
ARC
  8
0
  6
CONTINUOUS
 62
   249
 10
352.5
 20
167.5
 30
0.0
 40
0.5
 50
0.0
 51
180.0
  0
ARC
  8
0
  6
CONTINUOUS
 62
   249
 10
325.0
 20
255.0
 30
0.0
 40
0.5
 50
180.0
 51
0.0
  0
ARC
  8
0
  6
CONTINUOUS
 62
   249
 10
325.0
 20
255.0
 30
0.0
 40
0.5
 50
0.0
 51
180.0
  0
LINE
  8
0
  6
CONTINUOUS
 62
   249
 10
346.509978
 20
232.5
 30
0.0
 11
349.155635
 21
232.5
 31
0.0
  0
LINE
  8
0
  6
CONTINUOUS
 62
   249
 10
350.937188
 20
231.896305
 30
0.0
 11
350.937188
 21
233.103695
 31
0.0
  0
LINE
  8
0
  6
CONTINUOUS
 62
   249
 10
350.049675
 20
231.463807
 30
0.0
 11
350.049675
 21
233.527182
 31
0.0
  0
LINE
  8
0
  6
CONTINUOUS
 62
   249
 10
349.155635
 20
230.968237
 30
0.0
 11
349.155635
 21
234.031763
 31
0.0
  0
LINE
  8
0
  6
CONTINUOUS
 62
   249
 10
346.509978
 20
237.68998
 30
0.0
 11
349.155635
 21
237.68998
 31
0.0
  0
LINE
  8
0
  6
CONTINUOUS
 62
   249
 10
350.937188
 20
237.086285
 30
0.0
 11
350.937188
 21
238.293675
 31
0.0
  0
LINE
  8
0
  6
CONTINUOUS
 62
   249
 10
350.049675
 20
236.653787
 30
0.0
 11
350.049675
 21
238.717163
 31
0.0
  0
LINE
  8
0
  6
CONTINUOUS
 62
   249
 10
349.155635
 20
236.158217
 30
0.0
 11
349.155635
 21
239.221743
 31
0.0
  0
ARC
  8
0
  6
CONTINUOUS
 62
   249
 10
342.5
 20
232.5
 30
0.0
 40
0.5
 50
180.0
 51
0.0
  0
ARC
  8
0
  6
CONTINUOUS
 62
   249
 10
342.5
 20
232.5
 30
0.0
 40
0.5
 50
0.0
 51
180.0
  0
INSERT
  8
0
  6
CENTER
 62
   249
  2
BLC26
 10
323.546562
 20
240.109534
 30
0.0
 41
1.006225
 42
1.006225
 43
1.006225
  0
INSERT
  8
0
  6
CENTER
 62
   249
  2
BLC26
 10
331.046562
 20
240.109534
 30
0.0
 41
1.006225
 42
1.006225
 43
1.006225
  0
ARC
  8
0
  6
CONTINUOUS
 62
   249
 10
332.5
 20
250.0
 30
0.0
 40
0.5
 50
180.0
 51
0.0
  0
ARC
  8
0
  6
CONTINUOUS
 62
   249
 10
332.5
 20
250.0
 30
0.0
 40
0.5
 50
0.0
 51
180.0
  0
LINE
  8
0
  6
CONTINUOUS
 62
   249
 10
365.024417
 20
214.631715
 30
0.0
 11
363.775743
 21
215.342536
 31
0.0
  0
LINE
  8
0
  6
CONTINUOUS
 62
   249
 10
363.775743
 20
215.342536
 30
0.0
 11
365.024417
 21
215.975942
 31
0.0
  0
LINE
  8
0
  6
CONTINUOUS
 62
   249
 10
366.198586
 20
223.00018
 30
0.0
 11
367.085472
 21
223.00018
 31
0.0
  0
LINE
  8
0
  6
CONTINUOUS
 62
   249
 10
365.867481
 20
223.611813
 30
0.0
 11
367.452052
 21
223.611813
 31
0.0
  0
LINE
  8
0
  6
CONTINUOUS
 62
   249
 10
366.683417
 20
224.233875
 30
0.0
 11
367.877758
 21
224.233875
 31
0.0
  0
LINE
  8
0
  6
CONTINUOUS
 62
   249
 10
365.489076
 20
224.233875
 30
0.0
 11
366.683417
 21
224.233875
 31
0.0
  0
LINE
  8
0
  6
CONTINUOUS
 62
   249
 10
366.699304
 20
225.588145
 30
0.0
 11
366.699304
 21
224.233875
 31
0.0
  0
LINE
  8
0
  6
CONTINUOUS
 62
   249
 10
368.671041
 20
216.053358
 30
0.0
 11
369.919714
 21
215.342536
 31
0.0
  0
LINE
  8
0
  6
CONTINUOUS
 62
   249
 10
369.919714
 20
215.342536
 30
0.0
 11
368.671041
 21
214.709131
 31
0.0
  0
LINE
  8
0
  6
CONTINUOUS
 62
   249
 10
367.273875
 20
228.652129
 30
0.0
 11
368.522548
 21
227.941307
 31
0.0
  0
LINE
  8
0
  6
CONTINUOUS
 62
   249
 10
368.522548
 20
227.941307
 30
0.0
 11
367.273875
 21
227.307902
 31
0.0
  0
LINE
  8
0
  6
CONTINUOUS
 62
   249
 10
366.198586
 20
235.210859
 30
0.0
 11
367.085472
 21
235.210859
 31
0.0
  0
LINE
  8
0
  6
CONTINUOUS
 62
   249
 10
365.867481
 20
235.822492
 30
0.0
 11
367.452052
 21
235.822492
 31
0.0
  0
LINE
  8
0
  6
CONTINUOUS
 62
   249
 10
366.683417
 20
236.444554
 30
0.0
 11
367.877758
 21
236.444554
 31
0.0
  0
LINE
  8
0
  6
CONTINUOUS
 62
   249
 10
365.489076
 20
236.444554
 30
0.0
 11
366.683417
 21
236.444554
 31
0.0
  0
LINE
  8
0
  6
CONTINUOUS
 62
   249
 10
366.699304
 20
237.798825
 30
0.0
 11
366.699304
 21
236.444554
 31
0.0
  0
ENDSEC
  0
EOF
