  0
SECTION
  2
HEADER
  9
$ACADVER
  1
AC1009
  9
$INSBASE
 10
0.0
 20
0.0
 30
0.0
  9
$EXTMIN
 10
0.577972
 20
0.580166
 30
0.0
  9
$EXTMAX
 10
392.577972
 20
263.080166
 30
0.0
  9
$LIMMIN
 10
0.0
 20
0.0
  9
$LIMMAX
 10
12.0
 20
9.0
  9
$ORTHOMODE
 70
     1
  9
$REGENMODE
 70
     1
  9
$FILLMODE
 70
     1
  9
$QTEXTMODE
 70
     0
  9
$MIRRTEXT
 70
     1
  9
$DRAGMODE
 70
     2
  9
$LTSCALE
 40
5.0
  9
$OSMODE
 70
     0
  9
$ATTMODE
 70
     1
  9
$TEXTSIZE
 40
2.0
  9
$TRACEWID
 40
0.05
  9
$TEXTSTYLE
  7
ROMANS
  9
$CLAYER
  8
0
  9
$CELTYPE
  6
CONTINUOUS
  9
$CECOLOR
 62
   256
  9
$DIMSCALE
 40
1.0
  9
$DIMASZ
 40
0.18
  9
$DIMEXO
 40
0.0625
  9
$DIMDLI
 40
0.38
  9
$DIMRND
 40
0.0
  9
$DIMDLE
 40
0.0
  9
$DIMEXE
 40
0.18
  9
$DIMTP
 40
0.0
  9
$DIMTM
 40
0.0
  9
$DIMTXT
 40
0.18
  9
$DIMCEN
 40
0.09
  9
$DIMTSZ
 40
0.0
  9
$DIMTOL
 70
     0
  9
$DIMLIM
 70
     0
  9
$DIMTIH
 70
     1
  9
$DIMTOH
 70
     1
  9
$DIMSE1
 70
     0
  9
$DIMSE2
 70
     0
  9
$DIMTAD
 70
     0
  9
$DIMZIN
 70
     0
  9
$DIMBLK
  1

  9
$DIMASO
 70
     1
  9
$DIMSHO
 70
     1
  9
$DIMPOST
  1

  9
$DIMAPOST
  1

  9
$DIMALT
 70
     0
  9
$DIMALTD
 70
     2
  9
$DIMALTF
 40
25.4
  9
$DIMLFAC
 40
1.0
  9
$DIMTOFL
 70
     0
  9
$DIMTVP
 40
0.0
  9
$DIMTIX
 70
     0
  9
$DIMSOXD
 70
     0
  9
$DIMSAH
 70
     0
  9
$DIMBLK1
  1

  9
$DIMBLK2
  1

  9
$DIMSTYLE
  2
*UNNAMED
  9
$DIMCLRD
 70
     0
  9
$DIMCLRE
 70
     0
  9
$DIMCLRT
 70
     0
  9
$DIMTFAC
 40
1.0
  9
$DIMGAP
 40
0.09
  9
$LUNITS
 70
     2
  9
$LUPREC
 70
     4
  9
$SKETCHINC
 40
0.1
  9
$FILLETRAD
 40
0.0
  9
$AUNITS
 70
     0
  9
$AUPREC
 70
     0
  9
$MENU
  1
acad
  9
$ELEVATION
 40
0.0
  9
$PELEVATION
 40
0.0
  9
$THICKNESS
 40
0.0
  9
$LIMCHECK
 70
     0
  9
$BLIPMODE
 70
     1
  9
$CHAMFERA
 40
0.0
  9
$CHAMFERB
 40
0.0
  9
$SKPOLY
 70
     0
  9
$TDCREATE
 40
2449531.472999305
  9
$TDUPDATE
 40
2449531.517298958
  9
$TDINDWG
 40
0.0100042824
  9
$TDUSRTIMER
 40
0.0100042824
  9
$USRTIMER
 70
     1
  9
$ANGBASE
 50
0.0
  9
$ANGDIR
 70
     0
  9
$PDMODE
 70
     0
  9
$PDSIZE
 40
0.0
  9
$PLINEWID
 40
0.0
  9
$COORDS
 70
     2
  9
$SPLFRAME
 70
     0
  9
$SPLINETYPE
 70
     6
  9
$SPLINESEGS
 70
     8
  9
$ATTDIA
 70
     0
  9
$ATTREQ
 70
     1
  9
$HANDLING
 70
     0
  9
$HANDSEED
  5
0
  9
$SURFTAB1
 70
   250
  9
$SURFTAB2
 70
   250
  9
$SURFTYPE
 70
     6
  9
$SURFU
 70
     6
  9
$SURFV
 70
     6
  9
$UCSNAME
  2

  9
$UCSORG
 10
0.0
 20
0.0
 30
0.0
  9
$UCSXDIR
 10
1.0
 20
0.0
 30
0.0
  9
$UCSYDIR
 10
0.0
 20
1.0
 30
0.0
  9
$PUCSNAME
  2

  9
$PUCSORG
 10
0.0
 20
0.0
 30
0.0
  9
$PUCSXDIR
 10
1.0
 20
0.0
 30
0.0
  9
$PUCSYDIR
 10
0.0
 20
1.0
 30
0.0
  9
$USERI1
 70
     0
  9
$USERI2
 70
     0
  9
$USERI3
 70
     0
  9
$USERI4
 70
     0
  9
$USERI5
 70
     0
  9
$USERR1
 40
0.0
  9
$USERR2
 40
0.0
  9
$USERR3
 40
0.0
  9
$USERR4
 40
0.0
  9
$USERR5
 40
0.0
  9
$WORLDVIEW
 70
     1
  9
$SHADEDGE
 70
     3
  9
$SHADEDIF
 70
    70
  9
$TILEMODE
 70
     1
  9
$MAXACTVP
 70
    16
  9
$PINSBASE
 10
0.0
 20
0.0
 30
0.0
  9
$PLIMCHECK
 70
     0
  9
$PEXTMIN
 10
1.000000E+20
 20
1.000000E+20
 30
1.000000E+20
  9
$PEXTMAX
 10
-1.000000E+20
 20
-1.000000E+20
 30
-1.000000E+20
  9
$PLIMMIN
 10
0.0
 20
0.0
  9
$PLIMMAX
 10
12.0
 20
9.0
  9
$UNITMODE
 70
     0
  9
$VISRETAIN
 70
     0
  9
$PLINEGEN
 70
     0
  9
$PSLTSCALE
 70
     0
  9
$TREEDEPTH
 70
  3020
  9
$DWGCODEPAGE
  3
undefined
  0
ENDSEC
  0
SECTION
  2
TABLES
  0
TABLE
  2
VPORT
 70
     2
  0
VPORT
  2
*ACTIVE
 70
     0
 10
0.0
 20
0.0
 11
1.0
 21
1.0
 12
222.716226
 22
142.163925
 13
0.0
 23
0.0
 14
2.5
 24
2.5
 15
0.0
 25
0.0
 16
0.0
 26
0.0
 36
1.0
 17
0.0
 27
0.0
 37
0.0
 40
284.32785
 41
1.566616
 42
50.0
 43
0.0
 44
0.0
 50
0.0
 51
0.0
 71
     0
 72
   100
 73
     1
 74
     1
 75
     1
 76
     0
 77
     0
 78
     0
  0
ENDTAB
  0
TABLE
  2
LTYPE
 70
     7
  0
LTYPE
  2
CONTINUOUS
 70
    64
  3
Solid line
 72
    65
 73
     0
 40
0.0
  0
LTYPE
  2
DASHED
 70
    64
  3
__ __ __ __ __ __ __ __ __ __ __ __ __ __ __ __
 72
    65
 73
     2
 40
0.75
 49
0.5
 49
-0.25
  0
LTYPE
  2
CENTER
 70
    64
  3
____ _ ____ _ ____ _ ____ _ ____ _ ____ _ ____ 
 72
    65
 73
     4
 40
2.0
 49
1.25
 49
-0.25
 49
0.25
 49
-0.25
  0
LTYPE
  2
HIDDEN
 70
    64
  3
__ __ __ __ __ __ __ __ __ __ __ __ __ __ __ __
 72
    65
 73
     2
 40
0.375
 49
0.25
 49
-0.125
  0
LTYPE
  2
DOT
 70
     0
  3
. . . . . . . . . . . . . . . . . . . . . . . .
 72
    65
 73
     2
 40
0.25
 49
0.0
 49
-0.25
  0
LTYPE
  2
DASHDOT
 70
     0
  3
__ . __ . __ . __ . __ . __ . __ . __ . __ . __
 72
    65
 73
     4
 40
1.0
 49
0.5
 49
-0.25
 49
0.0
 49
-0.25
  0
LTYPE
  2
PHANTOM
 70
     0
  3
______  __  __  ______  __  __  ______  __  __ 
 72
    65
 73
     6
 40
2.5
 49
1.25
 49
-0.25
 49
0.25
 49
-0.25
 49
0.25
 49
-0.25
  0
ENDTAB
  0
TABLE
  2
LAYER
 70
    14
  0
LAYER
  2
0
 70
    64
 62
     7
  6
CONTINUOUS
  0
LAYER
  2
RAAMI
 70
    64
 62
    -4
  6
CONTINUOUS
  0
LAYER
  2
PAKSU
 70
    64
 62
    -3
  6
CONTINUOUS
  0
LAYER
  2
OHUT
 70
    64
 62
    -6
  6
CONTINUOUS
  0
LAYER
  2
SWEDEN
 70
    64
 62
    -7
  6
CONTINUOUS
  0
LAYER
  2
SWEDEN2
 70
    64
 62
    -5
  6
CONTINUOUS
  0
LAYER
  2
BASE
 70
    64
 62
    -7
  6
CONTINUOUS
  0
LAYER
  2
21
 70
    64
 62
    -2
  6
CONTINUOUS
  0
LAYER
  2
HEL035
 70
    64
 62
    -7
  6
CONTINUOUS
  0
LAYER
  2
MUO
 70
    64
 62
    -7
  6
CONTINUOUS
  0
LAYER
  2
1
 70
    64
 62
    -2
  6
CONTINUOUS
  0
LAYER
  2
BASE1
 70
    64
 62
    -1
  6
CONTINUOUS
  0
LAYER
  2
TEKS
 70
    64
 62
    -5
  6
CONTINUOUS
  0
LAYER
  2
DEFPOINTS
 70
    64
 62
    -7
  6
CONTINUOUS
  0
ENDTAB
  0
TABLE
  2
STYLE
 70
     7
  0
STYLE
  2
STANDARD
 70
    64
 40
0.0
 41
1.0
 50
0.0
 71
     0
 42
2.5
  3
txt
  4

  0
STYLE
  2
ROMANS
 70
    64
 40
0.0
 41
1.0
 50
0.0
 71
     0
 42
2.0
  3
ROMANS
  4

  0
STYLE
  2
GREEKC
 70
    64
 40
0.0
 41
1.0
 50
0.0
 71
     0
 42
1.5
  3
GREEKC
  4

  0
STYLE
  2
GREEKS
 70
    64
 40
0.0
 41
1.0
 50
0.0
 71
     0
 42
2.0
  3
TXT
  4

  0
STYLE
  2
MONOTXT
 70
     0
 40
0.0
 41
1.0
 50
0.0
 71
     0
 42
2.0
  3
monotxt
  4

  0
STYLE
  2
ROMANT
 70
     0
 40
0.0
 41
1.0
 50
0.0
 71
     0
 42
2.5
  3
romant
  4

  0
STYLE
  2
STAND
 70
    64
 40
0.0
 41
1.0
 50
0.0
 71
     0
 42
2.0
  3
TXT
  4

  0
ENDTAB
  0
TABLE
  2
VIEW
 70
     0
  0
ENDTAB
  0
TABLE
  2
UCS
 70
     0
  0
ENDTAB
  0
TABLE
  2
APPID
 70
     1
  0
APPID
  2
ACAD
 70
    64
  0
ENDTAB
  0
TABLE
  2
DIMSTYLE
 70
     0
  0
ENDTAB
  0
ENDSEC
  0
SECTION
  2
BLOCKS
  0
BLOCK
  8
0
  2
1
 70
    64
 10
0.0
 20
0.0
 30
0.0
  3
1
  0
ENDBLK
  8
0
  0
BLOCK
  8
0
  2
BLC27
 70
    64
 10
0.0
 20
0.0
 30
0.0
  3
BLC27
  0
INSERT
  8
SWEDEN2
  6
CENTER
  2
BLC26
 10
0.08063
 20
0.037985
 30
0.0
 41
1.006225
 42
1.006225
 43
1.006225
  0
ENDBLK
  8
0
  0
BLOCK
  8
0
  2
BLC26
 70
    64
 10
0.0
 20
0.0
 30
0.0
  3
BLC26
  0
ARC
  8
0
  6
CONTINUOUS
 10
-0.180576
 20
1.17922
 30
0.0
 40
1.196859
 50
90.0
 51
265.706237
  0
LINE
  8
0
  6
CONTINUOUS
 10
-0.186638
 20
-0.01092
 30
0.0
 11
0.458942
 21
-0.01092
 31
0.0
  0
LINE
  8
0
  6
CONTINUOUS
 10
-0.186638
 20
2.375671
 30
0.0
 11
0.45288
 21
2.375671
 31
0.0
  0
LINE
  8
0
  6
CONTINUOUS
 10
-0.185509
 20
-2.404629
 30
0.0
 11
0.460071
 21
-2.404629
 31
0.0
  0
ARC
  8
0
  6
CONTINUOUS
 10
-0.180576
 20
-1.207779
 30
0.0
 40
1.196859
 50
90.0
 51
270.0
  0
LINE
  8
0
  6
CONTINUOUS
 10
0.451525
 20
-2.404586
 30
0.0
 11
1.401805
 21
-2.404586
 31
0.0
  0
LINE
  8
0
  6
CONTINUOUS
 10
0.446785
 20
2.375674
 30
0.0
 11
1.418544
 21
2.375674
 31
0.0
  0
LINE
  8
0
  6
CONTINUOUS
 10
0.456627
 20
-0.010911
 30
0.0
 11
1.422749
 21
-0.010911
 31
0.0
  0
ENDBLK
  8
0
  0
BLOCK
  8
0
  2
BLC29
 70
    64
 10
0.0
 20
0.0
 30
0.0
  3
BLC29
  0
LINE
  8
0
  6
CONTINUOUS
 10
0.004865
 20
1.206889
 30
0.0
 11
2.350631
 21
-0.128465
 31
0.0
  0
LINE
  8
0
  6
CONTINUOUS
 10
2.350631
 20
-0.128465
 30
0.0
 11
0.004865
 21
-1.318384
 31
0.0
  0
ENDBLK
  8
0
  0
BLOCK
  8
0
  2
BLC15
 70
    64
 10
0.0
 20
0.0
 30
0.0
  3
BLC15
  0
LINE
  8
0
  6
CONTINUOUS
 10
0.142084
 20
3.490022
 30
0.0
 11
0.142084
 21
0.844365
 31
0.0
  0
LINE
  8
0
  6
CONTINUOUS
 10
-0.461611
 20
-0.937188
 30
0.0
 11
0.745779
 21
-0.937188
 31
0.0
  0
LINE
  8
0
  6
CONTINUOUS
 10
-0.894108
 20
-0.049675
 30
0.0
 11
1.169267
 21
-0.049675
 31
0.0
  0
LINE
  8
0
  6
CONTINUOUS
 10
-1.389679
 20
0.844365
 30
0.0
 11
1.673848
 21
0.844365
 31
0.0
  0
ENDBLK
  8
0
  0
BLOCK
  8
0
  2
BLC43
 70
    64
 10
0.0
 20
0.0
 30
0.0
  3
BLC43
  0
TEXT
  8
SWEDEN2
  6
CONTINUOUS
 10
-0.646672
 20
-0.986365
 30
0.0
 40
2.0
  1
+
  0
ENDBLK
  8
0
  0
BLOCK
  8
0
  2
BLC42
 70
    64
 10
0.0
 20
0.0
 30
0.0
  3
BLC42
  0
TEXT
  8
SWEDEN2
  6
CONTINUOUS
 10
-0.655237
 20
-0.99442
 30
0.0
 40
2.0
  1
-
  0
ENDBLK
  8
0
  0
BLOCK
  8
0
  2
B155
 70
     0
 10
0.0
 20
0.0
 30
0.0
  3
B155
  0
LINE
  8
0
  6
CONTINUOUS
 10
0.0
 20
0.0
 30
0.0
 11
0.0
 21
-1.35427
 31
0.0
  0
LINE
  8
0
  6
CONTINUOUS
 10
-1.210228
 20
-1.35427
 30
0.0
 11
-0.015887
 21
-1.35427
 31
0.0
  0
LINE
  8
0
  6
CONTINUOUS
 10
-0.015887
 20
-1.35427
 30
0.0
 11
1.178454
 21
-1.35427
 31
0.0
  0
LINE
  8
0
  6
CONTINUOUS
 10
-0.831823
 20
-1.833881
 30
0.0
 11
0.752749
 21
-1.833881
 31
0.0
  0
LINE
  8
0
  6
CONTINUOUS
 10
-0.500718
 20
-2.322055
 30
0.0
 11
0.386169
 21
-2.322055
 31
0.0
  0
ENDBLK
  8
0
  0
BLOCK
  8
0
  2
ABBA3SX
 70
    64
 10
0.0
 20
0.0
 30
0.0
  3
ABBA3SX
  0
TEXT
  8
RAAMI
  6
DASHED
 10
354.190282
 20
15.793111
 30
0.0
 40
1.4
  1
LEHTI SHEET
  7
STAND
  0
LINE
  8
PAKSU
 10
0.236802
 20
0.237701
 30
0.0
 11
0.236802
 21
262.737701
 31
0.0
  0
LINE
  8
PAKSU
 10
392.236802
 20
262.737701
 30
0.0
 11
392.236802
 21
0.237701
 31
0.0
  0
LINE
  8
PAKSU
 10
0.236802
 20
0.237701
 30
0.0
 11
392.236802
 21
0.237701
 31
0.0
  0
TEXT
  8
RAAMI
 10
42.236802
 20
5.587211
 30
0.0
 40
2.5
  1
C
  7
ROMANS
  0
TEXT
  8
RAAMI
 10
42.236802
 20
1.194994
 30
0.0
 40
2.5
  1
B
  7
ROMANS
  0
TEXT
  8
RAAMI
 10
257.406709
 20
1.741485
 30
0.0
 40
3.0
  1
Power
 41
0.8
  7
ROMANS
  0
TEXT
  8
RAAMI
 10
273.236802
 20
7.237701
 30
0.0
 40
1.4
  1
VAST.OSASTO RESP.DEPT.
  7
ROMANS
  0
TEXT
  8
RAAMI
 10
210.236802
 20
32.237701
 30
0.0
 40
1.4
  1
TEKI  PREPARED
  7
ROMANS
  0
LINE
  8
OHUT
 10
271.236802
 20
9.737701
 30
0.0
 11
271.236802
 21
0.237701
 31
0.0
  0
LINE
  8
OHUT
 10
257.236802
 20
9.737701
 30
0.0
 11
257.236802
 21
35.237701
 31
0.0
  0
LINE
  8
OHUT
 10
40.736802
 20
4.737701
 30
0.0
 11
209.236802
 21
4.737701
 31
0.0
  0
LINE
  8
OHUT
 10
46.736802
 20
0.237701
 30
0.0
 11
46.736802
 21
9.237701
 31
0.0
  0
LINE
  8
OHUT
 10
46.736802
 20
9.237701
 30
0.0
 11
209.236802
 21
9.237701
 31
0.0
  0
TEXT
  8
RAAMI
 10
27.736802
 20
2.471035
 30
0.0
 40
1.4
  1
REVISION
  7
ROMANS
  0
TEXT
  8
RAAMI
 10
27.736802
 20
4.737701
 30
0.0
 40
1.4
  1
MUUTOS
  7
ROMANS
  0
LINE
  8
OHUT
 10
282.236802
 20
9.737701
 30
0.0
 11
282.236802
 21
18.237701
 31
0.0
  0
TEXT
  8
RAAMI
 10
237.736802
 20
1.737701
 30
0.0
 40
3.0
  1
Strömberg
 41
0.8
  7
ROMANS
  0
TEXT
  8
RAAMI
 10
229.736802
 20
1.737701
 30
0.0
 40
3.0
  1
ABB 
 41
0.8
  7
ROMANS
  0
LINE
  8
RAAMI
 10
223.136802
 20
1.737701
 30
0.0
 11
223.136802
 21
5.097701
 31
0.0
  0
LINE
  8
RAAMI
 10
223.136802
 20
8.737701
 30
0.0
 11
225.096802
 21
8.737701
 31
0.0
  0
LINE
  8
RAAMI
 10
225.096802
 20
8.737701
 30
0.0
 11
225.096802
 21
5.377701
 31
0.0
  0
LINE
  8
RAAMI
 10
225.096802
 20
5.377701
 30
0.0
 11
223.136802
 21
5.377701
 31
0.0
  0
LINE
  8
RAAMI
 10
223.136802
 20
5.097701
 30
0.0
 11
225.096802
 21
5.097701
 31
0.0
  0
LINE
  8
RAAMI
 10
225.096802
 20
5.097701
 30
0.0
 11
225.096802
 21
1.737701
 31
0.0
  0
LINE
  8
RAAMI
 10
225.096802
 20
1.737701
 30
0.0
 11
223.136802
 21
1.737701
 31
0.0
  0
LINE
  8
RAAMI
 10
223.136802
 20
5.377701
 30
0.0
 11
223.136802
 21
8.737701
 31
0.0
  0
ARC
  8
RAAMI
 10
225.936802
 20
7.162701
 30
0.0
 40
1.575
 50
298.455859
 51
90.052437
  0
LINE
  8
RAAMI
 10
225.376802
 20
8.737701
 30
0.0
 11
225.935361
 21
8.737701
 31
0.0
  0
LINE
  8
RAAMI
 10
225.376802
 20
8.737701
 30
0.0
 11
225.376802
 21
5.377701
 31
0.0
  0
LINE
  8
RAAMI
 10
225.376802
 20
5.377701
 30
0.0
 11
227.361245
 21
5.377701
 31
0.0
  0
LINE
  8
RAAMI
 10
227.616802
 20
5.097701
 30
0.0
 11
225.376802
 21
5.097701
 31
0.0
  0
LINE
  8
RAAMI
 10
225.376802
 20
5.097701
 30
0.0
 11
225.376802
 21
1.737701
 31
0.0
  0
ARC
  8
RAAMI
 10
225.936802
 20
3.837701
 30
0.0
 40
2.1
 50
269.937724
 51
37.056553
  0
LINE
  8
RAAMI
 10
225.376802
 20
1.737701
 30
0.0
 11
225.93452
 21
1.737703
 31
0.0
  0
ARC
  8
RAAMI
 10
225.936802
 20
3.837701
 30
0.0
 40
2.1
 50
47.28622
 51
68.787999
  0
INSERT
  8
RAAMI
  2
*X13
 10
215.646802
 20
1.737701
 30
0.0
 41
0.7
 42
0.7
 43
0.7
  0
INSERT
  8
RAAMI
  2
*X14
 10
215.646802
 20
1.737701
 30
0.0
 41
0.7
 42
0.7
 43
0.7
  0
INSERT
  8
RAAMI
  2
*X15
 10
215.646802
 20
1.737701
 30
0.0
 41
0.7
 42
0.7
 43
0.7
  0
INSERT
  8
RAAMI
  2
*X16
 10
215.646802
 20
1.737701
 30
0.0
 41
0.7
 42
0.7
 43
0.7
  0
INSERT
  8
RAAMI
  2
*X16
 10
210.186802
 20
1.737701
 30
0.0
 41
0.7
 42
0.7
 43
0.7
  0
INSERT
  8
RAAMI
  2
*X15
 10
210.186802
 20
1.737701
 30
0.0
 41
0.7
 42
0.7
 43
0.7
  0
INSERT
  8
RAAMI
  2
*X14
 10
210.186802
 20
1.737701
 30
0.0
 41
0.7
 42
0.7
 43
0.7
  0
INSERT
  8
RAAMI
  2
*X13
 10
210.186802
 20
1.737701
 30
0.0
 41
0.7
 42
0.7
 43
0.7
  0
ARC
  8
RAAMI
 10
220.476802
 20
3.837701
 30
0.0
 40
2.1
 50
47.28622
 51
68.787999
  0
LINE
  8
RAAMI
 10
219.916802
 20
1.737701
 30
0.0
 11
220.47452
 21
1.737703
 31
0.0
  0
ARC
  8
RAAMI
 10
220.476802
 20
3.837701
 30
0.0
 40
2.1
 50
269.937724
 51
37.056553
  0
LINE
  8
RAAMI
 10
219.916802
 20
5.097701
 30
0.0
 11
219.916802
 21
1.737701
 31
0.0
  0
LINE
  8
RAAMI
 10
222.156802
 20
5.097701
 30
0.0
 11
219.916802
 21
5.097701
 31
0.0
  0
LINE
  8
RAAMI
 10
219.916802
 20
5.377701
 30
0.0
 11
221.901245
 21
5.377701
 31
0.0
  0
LINE
  8
RAAMI
 10
219.916802
 20
8.737701
 30
0.0
 11
219.916802
 21
5.377701
 31
0.0
  0
LINE
  8
RAAMI
 10
219.916802
 20
8.737701
 30
0.0
 11
220.475361
 21
8.737701
 31
0.0
  0
ARC
  8
RAAMI
 10
220.476802
 20
7.162701
 30
0.0
 40
1.575
 50
298.455859
 51
90.052437
  0
LINE
  8
RAAMI
 10
217.676802
 20
5.377701
 30
0.0
 11
217.676802
 21
8.737701
 31
0.0
  0
LINE
  8
RAAMI
 10
219.636802
 20
1.737701
 30
0.0
 11
217.676802
 21
1.737701
 31
0.0
  0
LINE
  8
RAAMI
 10
219.636802
 20
5.097701
 30
0.0
 11
219.636802
 21
1.737701
 31
0.0
  0
LINE
  8
RAAMI
 10
217.676802
 20
5.097701
 30
0.0
 11
219.636802
 21
5.097701
 31
0.0
  0
LINE
  8
RAAMI
 10
219.636802
 20
5.377701
 30
0.0
 11
217.676802
 21
5.377701
 31
0.0
  0
LINE
  8
RAAMI
 10
219.636802
 20
8.737701
 30
0.0
 11
219.636802
 21
5.377701
 31
0.0
  0
LINE
  8
RAAMI
 10
217.676802
 20
8.737701
 30
0.0
 11
219.636802
 21
8.737701
 31
0.0
  0
LINE
  8
RAAMI
 10
217.676802
 20
1.737701
 30
0.0
 11
217.676802
 21
5.097701
 31
0.0
  0
INSERT
  8
RAAMI
  2
*X12
 10
210.186802
 20
1.737701
 30
0.0
 41
0.7
 42
0.7
 43
0.7
  0
INSERT
  8
RAAMI
  2
*X11
 10
210.186802
 20
1.737701
 30
0.0
 41
0.7
 42
0.7
 43
0.7
  0
INSERT
  8
RAAMI
  2
*X10
 10
210.186802
 20
1.737701
 30
0.0
 41
0.7
 42
0.7
 43
0.7
  0
INSERT
  8
RAAMI
  2
*X9
 10
210.186802
 20
1.737701
 30
0.0
 41
0.7
 42
0.7
 43
0.7
  0
LINE
  8
RAAMI
 10
211.356691
 20
5.08024
 30
0.0
 11
210.186802
 21
1.737701
 31
0.0
  0
LINE
  8
RAAMI
 10
213.546802
 20
5.097701
 30
0.0
 11
213.546802
 21
3.137701
 31
0.0
  0
LINE
  8
RAAMI
 10
213.826802
 20
5.097701
 30
0.0
 11
213.826802
 21
3.137701
 31
0.0
  0
LINE
  8
RAAMI
 10
213.826802
 20
5.097701
 30
0.0
 11
216.010059
 21
5.097701
 31
0.0
  0
LINE
  8
RAAMI
 10
213.826802
 20
5.377701
 30
0.0
 11
215.911916
 21
5.377701
 31
0.0
  0
LINE
  8
RAAMI
 10
216.011294
 20
5.096296
 30
0.0
 11
217.186802
 21
1.737701
 31
0.0
  0
LINE
  8
RAAMI
 10
211.359785
 20
5.097701
 30
0.0
 11
213.546802
 21
5.097701
 31
0.0
  0
LINE
  8
RAAMI
 10
211.458743
 20
5.377701
 30
0.0
 11
213.546802
 21
5.377701
 31
0.0
  0
LINE
  8
RAAMI
 10
213.546802
 20
8.737701
 30
0.0
 11
212.636802
 21
8.737701
 31
0.0
  0
LINE
  8
RAAMI
 10
213.826802
 20
3.137701
 30
0.0
 11
214.946696
 21
3.137701
 31
0.0
  0
LINE
  8
RAAMI
 10
213.826802
 20
8.737701
 30
0.0
 11
213.826802
 21
5.377701
 31
0.0
  0
LINE
  8
RAAMI
 10
213.546802
 20
8.737701
 30
0.0
 11
213.546802
 21
5.377701
 31
0.0
  0
LINE
  8
RAAMI
 10
214.736802
 20
8.737701
 30
0.0
 11
213.826802
 21
8.737701
 31
0.0
  0
LINE
  8
RAAMI
 10
214.9479
 20
3.134565
 30
0.0
 11
215.436802
 21
1.737701
 31
0.0
  0
LINE
  8
RAAMI
 10
214.736802
 20
8.737701
 30
0.0
 11
215.913155
 21
5.376693
 31
0.0
  0
LINE
  8
RAAMI
 10
212.425592
 20
3.134244
 30
0.0
 11
211.936802
 21
1.737701
 31
0.0
  0
LINE
  8
RAAMI
 10
212.425589
 20
3.137701
 30
0.0
 11
213.546802
 21
3.137701
 31
0.0
  0
LINE
  8
RAAMI
 10
212.636802
 20
8.737701
 30
0.0
 11
211.459274
 21
5.373336
 31
0.0
  0
LINE
  8
RAAMI
 10
215.436802
 20
1.737701
 30
0.0
 11
217.186802
 21
1.737701
 31
0.0
  0
LINE
  8
RAAMI
 10
210.186802
 20
1.737701
 30
0.0
 11
211.936802
 21
1.737701
 31
0.0
  0
LINE
  8
OHUT
 10
369.736802
 20
9.737701
 30
0.0
 11
369.736802
 21
0.237701
 31
0.0
  0
TEXT
  8
RAAMI
 10
371.236802
 20
7.237701
 30
0.0
 40
1.4
  1
PAINOS  REVISION
  7
ROMANS
  0
LINE
  8
OHUT
 10
349.736802
 20
9.737701
 30
0.0
 11
349.736802
 21
18.237701
 31
0.0
  0
TEXT
  8
RAAMI
 10
309.236802
 20
7.237701
 30
0.0
 40
1.4
  1
PIIRUSTUS NO  DRAWING NR
  7
ROMANS
  0
TEXT
  8
RAAMI
 10
309.236802
 20
15.737701
 30
0.0
 40
1.4
  1
KOODI  CODE
  7
ROMANS
  0
TEXT
  8
RAAMI
 10
309.236802
 20
32.737701
 30
0.0
 40
1.4
  1
NIMITYS  NAME
  7
ROMANS
  0
TEXT
  8
RAAMI
 10
259.236802
 20
15.737701
 30
0.0
 40
1.4
  1
SUHDE  SCALE
  7
ROMANS
  0
TEXT
  8
RAAMI
 10
259.236802
 20
23.737701
 30
0.0
 40
1.4
  1
TOLERANSSIT  TOLERANCES
  7
ROMANS
  0
TEXT
  8
RAAMI
 10
259.236802
 20
32.737701
 30
0.0
 40
1.4
  1
LIITTYY  CONCERNING
  7
ROMANS
  0
LINE
  8
OHUT
 10
307.236802
 20
0.237701
 30
0.0
 11
307.236802
 21
35.237701
 31
0.0
  0
TEXT
  8
RAAMI
 10
209.979637
 20
15.704368
 30
0.0
 40
1.4
  1
HYVÄKSYI  APPROVED
  7
ROMANS
  0
TEXT
  8
RAAMI
 10
210.236802
 20
23.971035
 30
0.0
 40
1.4
  1
TARKASTI  CHECKED
  7
ROMANS
  0
LINE
  8
PAKSU
 10
209.236802
 20
35.237701
 30
0.0
 11
392.236802
 21
35.237701
 31
0.0
  0
LINE
  8
OHUT
 10
209.236802
 20
26.737701
 30
0.0
 11
307.236802
 21
26.737701
 31
0.0
  0
LINE
  8
OHUT
 10
209.236802
 20
9.737701
 30
0.0
 11
392.236802
 21
9.737701
 31
0.0
  0
LINE
  8
OHUT
 10
209.236802
 20
18.237701
 30
0.0
 11
392.236802
 21
18.237701
 31
0.0
  0
LINE
  8
PAKSU
 10
392.236802
 20
0.237701
 30
0.0
 11
392.236802
 21
35.237701
 31
0.0
  0
LINE
  8
PAKSU
 10
209.236802
 20
0.237701
 30
0.0
 11
209.236802
 21
35.237701
 31
0.0
  0
LINE
  8
PAKSU
 10
209.236802
 20
0.237701
 30
0.0
 11
392.236802
 21
0.237701
 31
0.0
  0
LINE
  8
RAAMI
 10
18.236802
 20
0.237701
 30
0.0
 11
0.236802
 21
0.237701
 31
0.0
  0
LINE
  8
PAKSU
 10
0.236802
 20
262.737701
 30
0.0
 11
392.236802
 21
262.737701
 31
0.0
  0
TEXT
  8
RAAMI
  6
DASHED
 10
292.216898
 20
11.813061
 30
0.0
 40
3.0
  1
A3
  7
GREEKS
  0
ENDBLK
  8
0
  0
BLOCK
  8
0
  2
*X9
 70
    65
 10
0.0
 20
0.0
 30
0.0
  3
*X
  0
LINE
  8
0
 62
     0
 10
2.284499
 20
6.52714
 30
0.0
 11
4.8
 21
9.042641
 31
0.0
  0
LINE
  8
0
 62
     0
 10
2.379686
 20
6.799104
 30
0.0
 11
4.8
 21
9.219417
 31
0.0
  0
LINE
  8
0
 62
     0
 10
2.474874
 20
7.071068
 30
0.0
 11
4.8
 21
9.396194
 31
0.0
  0
LINE
  8
0
 62
     0
 10
2.570061
 20
7.343032
 30
0.0
 11
4.8
 21
9.572971
 31
0.0
  0
LINE
  8
0
 62
     0
 10
2.665249
 20
7.614996
 30
0.0
 11
4.8
 21
9.749747
 31
0.0
  0
LINE
  8
0
 62
     0
 10
2.760436
 20
7.88696
 30
0.0
 11
4.8
 21
9.926524
 31
0.0
  0
LINE
  8
0
 62
     0
 10
2.855624
 20
8.158924
 30
0.0
 11
4.696699
 21
10.0
 31
0.0
  0
LINE
  8
0
 62
     0
 10
2.950811
 20
8.430889
 30
0.0
 11
4.519922
 21
10.0
 31
0.0
  0
LINE
  8
0
 62
     0
 10
3.045998
 20
8.702853
 30
0.0
 11
4.343146
 21
10.0
 31
0.0
  0
LINE
  8
0
 62
     0
 10
3.141186
 20
8.974817
 30
0.0
 11
4.166369
 21
10.0
 31
0.0
  0
LINE
  8
0
 62
     0
 10
3.236373
 20
9.246781
 30
0.0
 11
3.989592
 21
10.0
 31
0.0
  0
LINE
  8
0
 62
     0
 10
3.331561
 20
9.518745
 30
0.0
 11
3.812816
 21
10.0
 31
0.0
  0
LINE
  8
0
 62
     0
 10
3.426748
 20
9.790709
 30
0.0
 11
3.636039
 21
10.0
 31
0.0
  0
LINE
  8
0
 62
     0
 10
2.189311
 20
6.255175
 30
0.0
 11
4.8
 21
8.865864
 31
0.0
  0
LINE
  8
0
 62
     0
 10
2.094124
 20
5.983211
 30
0.0
 11
4.8
 21
8.689087
 31
0.0
  0
LINE
  8
0
 62
     0
 10
1.998936
 20
5.711247
 30
0.0
 11
4.8
 21
8.512311
 31
0.0
  0
LINE
  8
0
 62
     0
 10
1.903749
 20
5.439283
 30
0.0
 11
4.8
 21
8.335534
 31
0.0
  0
LINE
  8
0
 62
     0
 10
1.841243
 20
5.2
 30
0.0
 11
4.8
 21
8.158757
 31
0.0
  0
LINE
  8
0
 62
     0
 10
2.018019
 20
5.2
 30
0.0
 11
4.8
 21
7.981981
 31
0.0
  0
LINE
  8
0
 62
     0
 10
2.194796
 20
5.2
 30
0.0
 11
4.8
 21
7.805204
 31
0.0
  0
LINE
  8
0
 62
     0
 10
2.371573
 20
5.2
 30
0.0
 11
4.8
 21
7.628427
 31
0.0
  0
LINE
  8
0
 62
     0
 10
2.54835
 20
5.2
 30
0.0
 11
4.8
 21
7.45165
 31
0.0
  0
LINE
  8
0
 62
     0
 10
2.725126
 20
5.2
 30
0.0
 11
4.8
 21
7.274874
 31
0.0
  0
LINE
  8
0
 62
     0
 10
2.901903
 20
5.2
 30
0.0
 11
4.8
 21
7.098097
 31
0.0
  0
LINE
  8
0
 62
     0
 10
3.07868
 20
5.2
 30
0.0
 11
4.8
 21
6.92132
 31
0.0
  0
LINE
  8
0
 62
     0
 10
3.255456
 20
5.2
 30
0.0
 11
4.8
 21
6.744544
 31
0.0
  0
LINE
  8
0
 62
     0
 10
3.432233
 20
5.2
 30
0.0
 11
4.8
 21
6.567767
 31
0.0
  0
LINE
  8
0
 62
     0
 10
3.60901
 20
5.2
 30
0.0
 11
4.8
 21
6.39099
 31
0.0
  0
LINE
  8
0
 62
     0
 10
3.785786
 20
5.2
 30
0.0
 11
4.8
 21
6.214214
 31
0.0
  0
LINE
  8
0
 62
     0
 10
3.962563
 20
5.2
 30
0.0
 11
4.8
 21
6.037437
 31
0.0
  0
LINE
  8
0
 62
     0
 10
4.13934
 20
5.2
 30
0.0
 11
4.8
 21
5.86066
 31
0.0
  0
LINE
  8
0
 62
     0
 10
4.316117
 20
5.2
 30
0.0
 11
4.8
 21
5.683883
 31
0.0
  0
LINE
  8
0
 62
     0
 10
4.492893
 20
5.2
 30
0.0
 11
4.8
 21
5.507107
 31
0.0
  0
LINE
  8
0
 62
     0
 10
4.66967
 20
5.2
 30
0.0
 11
4.8
 21
5.33033
 31
0.0
  0
ENDBLK
  8
0
  0
BLOCK
  8
0
  2
*X10
 70
    65
 10
0.0
 20
0.0
 30
0.0
  3
*X
  0
LINE
  8
0
 62
     0
 10
5.2
 20
6.083883
 30
0.0
 11
7.178252
 21
8.062136
 31
0.0
  0
LINE
  8
0
 62
     0
 10
5.2
 20
6.26066
 30
0.0
 11
7.132421
 21
8.193082
 31
0.0
  0
LINE
  8
0
 62
     0
 10
5.2
 20
6.437437
 30
0.0
 11
7.08659
 21
8.324027
 31
0.0
  0
LINE
  8
0
 62
     0
 10
5.2
 20
6.614214
 30
0.0
 11
7.040759
 21
8.454973
 31
0.0
  0
LINE
  8
0
 62
     0
 10
5.2
 20
6.79099
 30
0.0
 11
6.994928
 21
8.585919
 31
0.0
  0
LINE
  8
0
 62
     0
 10
5.2
 20
6.967767
 30
0.0
 11
6.949097
 21
8.716864
 31
0.0
  0
LINE
  8
0
 62
     0
 10
5.2
 20
7.144544
 30
0.0
 11
6.903266
 21
8.84781
 31
0.0
  0
LINE
  8
0
 62
     0
 10
5.2
 20
7.32132
 30
0.0
 11
6.857435
 21
8.978756
 31
0.0
  0
LINE
  8
0
 62
     0
 10
5.2
 20
7.498097
 30
0.0
 11
6.811604
 21
9.109702
 31
0.0
  0
LINE
  8
0
 62
     0
 10
5.2
 20
7.674874
 30
0.0
 11
6.765773
 21
9.240647
 31
0.0
  0
LINE
  8
0
 62
     0
 10
5.2
 20
7.85165
 30
0.0
 11
6.719942
 21
9.371593
 31
0.0
  0
LINE
  8
0
 62
     0
 10
5.2
 20
8.028427
 30
0.0
 11
6.674111
 21
9.502539
 31
0.0
  0
LINE
  8
0
 62
     0
 10
5.2
 20
8.205204
 30
0.0
 11
6.62828
 21
9.633484
 31
0.0
  0
LINE
  8
0
 62
     0
 10
5.2
 20
8.381981
 30
0.0
 11
6.582449
 21
9.76443
 31
0.0
  0
LINE
  8
0
 62
     0
 10
5.2
 20
8.558757
 30
0.0
 11
6.536619
 21
9.895376
 31
0.0
  0
LINE
  8
0
 62
     0
 10
5.2
 20
8.735534
 30
0.0
 11
6.464466
 21
10.0
 31
0.0
  0
LINE
  8
0
 62
     0
 10
5.2
 20
8.912311
 30
0.0
 11
6.287689
 21
10.0
 31
0.0
  0
LINE
  8
0
 62
     0
 10
5.2
 20
9.089087
 30
0.0
 11
6.110913
 21
10.0
 31
0.0
  0
LINE
  8
0
 62
     0
 10
5.2
 20
9.265864
 30
0.0
 11
5.934136
 21
10.0
 31
0.0
  0
LINE
  8
0
 62
     0
 10
5.2
 20
9.442641
 30
0.0
 11
5.757359
 21
10.0
 31
0.0
  0
LINE
  8
0
 62
     0
 10
5.2
 20
9.619417
 30
0.0
 11
5.580583
 21
10.0
 31
0.0
  0
LINE
  8
0
 62
     0
 10
5.2
 20
9.796194
 30
0.0
 11
5.403806
 21
10.0
 31
0.0
  0
LINE
  8
0
 62
     0
 10
5.2
 20
9.972971
 30
0.0
 11
5.227029
 21
10.0
 31
0.0
  0
LINE
  8
0
 62
     0
 10
5.2
 20
5.907107
 30
0.0
 11
7.224083
 21
7.93119
 31
0.0
  0
LINE
  8
0
 62
     0
 10
5.2
 20
5.73033
 30
0.0
 11
7.269914
 21
7.800245
 31
0.0
  0
LINE
  8
0
 62
     0
 10
5.2
 20
5.553553
 30
0.0
 11
7.315745
 21
7.669299
 31
0.0
  0
LINE
  8
0
 62
     0
 10
5.2
 20
5.376777
 30
0.0
 11
7.361576
 21
7.538353
 31
0.0
  0
LINE
  8
0
 62
     0
 10
5.2
 20
5.2
 30
0.0
 11
7.407407
 21
7.407407
 31
0.0
  0
LINE
  8
0
 62
     0
 10
5.376777
 20
5.2
 30
0.0
 11
7.453238
 21
7.276462
 31
0.0
  0
LINE
  8
0
 62
     0
 10
5.553553
 20
5.2
 30
0.0
 11
7.499069
 21
7.145516
 31
0.0
  0
LINE
  8
0
 62
     0
 10
5.73033
 20
5.2
 30
0.0
 11
7.5449
 21
7.01457
 31
0.0
  0
LINE
  8
0
 62
     0
 10
5.907107
 20
5.2
 30
0.0
 11
7.590731
 21
6.883625
 31
0.0
  0
LINE
  8
0
 62
     0
 10
6.083883
 20
5.2
 30
0.0
 11
7.636562
 21
6.752679
 31
0.0
  0
LINE
  8
0
 62
     0
 10
6.26066
 20
5.2
 30
0.0
 11
7.682393
 21
6.621733
 31
0.0
  0
LINE
  8
0
 62
     0
 10
6.437437
 20
5.2
 30
0.0
 11
7.728224
 21
6.490788
 31
0.0
  0
LINE
  8
0
 62
     0
 10
6.614214
 20
5.2
 30
0.0
 11
7.774055
 21
6.359842
 31
0.0
  0
LINE
  8
0
 62
     0
 10
6.79099
 20
5.2
 30
0.0
 11
7.819886
 21
6.228896
 31
0.0
  0
LINE
  8
0
 62
     0
 10
6.967767
 20
5.2
 30
0.0
 11
7.865717
 21
6.09795
 31
0.0
  0
LINE
  8
0
 62
     0
 10
7.144544
 20
5.2
 30
0.0
 11
7.911548
 21
5.967005
 31
0.0
  0
LINE
  8
0
 62
     0
 10
7.32132
 20
5.2
 30
0.0
 11
7.957379
 21
5.836059
 31
0.0
  0
LINE
  8
0
 62
     0
 10
7.498097
 20
5.2
 30
0.0
 11
8.00321
 21
5.705113
 31
0.0
  0
LINE
  8
0
 62
     0
 10
7.674874
 20
5.2
 30
0.0
 11
8.049041
 21
5.574168
 31
0.0
  0
LINE
  8
0
 62
     0
 10
7.85165
 20
5.2
 30
0.0
 11
8.094872
 21
5.443222
 31
0.0
  0
LINE
  8
0
 62
     0
 10
8.028427
 20
5.2
 30
0.0
 11
8.140703
 21
5.312276
 31
0.0
  0
ENDBLK
  8
0
  0
BLOCK
  8
0
  2
*X11
 70
    65
 10
0.0
 20
0.0
 30
0.0
  3
*X
  0
LINE
  8
0
 62
     0
 10
0.0
 20
0.0
 30
0.0
 11
4.8
 21
4.8
 31
0.0
  0
LINE
  8
0
 62
     0
 10
0.095187
 20
0.271964
 30
0.0
 11
4.623223
 21
4.8
 31
0.0
  0
LINE
  8
0
 62
     0
 10
0.190375
 20
0.543928
 30
0.0
 11
4.446447
 21
4.8
 31
0.0
  0
LINE
  8
0
 62
     0
 10
0.285562
 20
0.815892
 30
0.0
 11
4.26967
 21
4.8
 31
0.0
  0
LINE
  8
0
 62
     0
 10
0.38075
 20
1.087857
 30
0.0
 11
4.092893
 21
4.8
 31
0.0
  0
LINE
  8
0
 62
     0
 10
0.475937
 20
1.359821
 30
0.0
 11
3.916117
 21
4.8
 31
0.0
  0
LINE
  8
0
 62
     0
 10
0.571125
 20
1.631785
 30
0.0
 11
3.73934
 21
4.8
 31
0.0
  0
LINE
  8
0
 62
     0
 10
0.666312
 20
1.903749
 30
0.0
 11
3.562563
 21
4.8
 31
0.0
  0
LINE
  8
0
 62
     0
 10
0.7615
 20
2.175713
 30
0.0
 11
3.385786
 21
4.8
 31
0.0
  0
LINE
  8
0
 62
     0
 10
0.856687
 20
2.447677
 30
0.0
 11
3.20901
 21
4.8
 31
0.0
  0
LINE
  8
0
 62
     0
 10
0.951875
 20
2.719641
 30
0.0
 11
3.032233
 21
4.8
 31
0.0
  0
LINE
  8
0
 62
     0
 10
1.047062
 20
2.991606
 30
0.0
 11
2.855456
 21
4.8
 31
0.0
  0
LINE
  8
0
 62
     0
 10
1.142249
 20
3.26357
 30
0.0
 11
2.67868
 21
4.8
 31
0.0
  0
LINE
  8
0
 62
     0
 10
1.237437
 20
3.535534
 30
0.0
 11
2.501903
 21
4.8
 31
0.0
  0
LINE
  8
0
 62
     0
 10
1.332624
 20
3.807498
 30
0.0
 11
2.325126
 21
4.8
 31
0.0
  0
LINE
  8
0
 62
     0
 10
1.427812
 20
4.079462
 30
0.0
 11
2.14835
 21
4.8
 31
0.0
  0
LINE
  8
0
 62
     0
 10
1.522999
 20
4.351426
 30
0.0
 11
1.971573
 21
4.8
 31
0.0
  0
LINE
  8
0
 62
     0
 10
1.618187
 20
4.62339
 30
0.0
 11
1.794796
 21
4.8
 31
0.0
  0
LINE
  8
0
 62
     0
 10
0.176777
 20
0.0
 30
0.0
 11
4.8
 21
4.623223
 31
0.0
  0
LINE
  8
0
 62
     0
 10
0.353553
 20
0.0
 30
0.0
 11
4.8
 21
4.446447
 31
0.0
  0
LINE
  8
0
 62
     0
 10
0.53033
 20
0.0
 30
0.0
 11
4.8
 21
4.26967
 31
0.0
  0
LINE
  8
0
 62
     0
 10
0.707107
 20
0.0
 30
0.0
 11
4.8
 21
4.092893
 31
0.0
  0
LINE
  8
0
 62
     0
 10
0.883883
 20
0.0
 30
0.0
 11
4.8
 21
3.916117
 31
0.0
  0
LINE
  8
0
 62
     0
 10
1.06066
 20
0.0
 30
0.0
 11
4.8
 21
3.73934
 31
0.0
  0
LINE
  8
0
 62
     0
 10
1.237437
 20
0.0
 30
0.0
 11
3.179842
 21
1.942405
 31
0.0
  0
LINE
  8
0
 62
     0
 10
3.237437
 20
2.0
 30
0.0
 11
4.8
 21
3.562563
 31
0.0
  0
LINE
  8
0
 62
     0
 10
1.414214
 20
0.0
 30
0.0
 11
3.084654
 21
1.670441
 31
0.0
  0
LINE
  8
0
 62
     0
 10
3.414214
 20
2.0
 30
0.0
 11
4.8
 21
3.385786
 31
0.0
  0
LINE
  8
0
 62
     0
 10
1.59099
 20
0.0
 30
0.0
 11
2.989467
 21
1.398477
 31
0.0
  0
LINE
  8
0
 62
     0
 10
3.59099
 20
2.0
 30
0.0
 11
4.8
 21
3.20901
 31
0.0
  0
LINE
  8
0
 62
     0
 10
1.767767
 20
0.0
 30
0.0
 11
2.894279
 21
1.126512
 31
0.0
  0
LINE
  8
0
 62
     0
 10
3.767767
 20
2.0
 30
0.0
 11
4.8
 21
3.032233
 31
0.0
  0
LINE
  8
0
 62
     0
 10
1.944544
 20
0.0
 30
0.0
 11
2.799092
 21
0.854548
 31
0.0
  0
LINE
  8
0
 62
     0
 10
3.944544
 20
2.0
 30
0.0
 11
4.8
 21
2.855456
 31
0.0
  0
LINE
  8
0
 62
     0
 10
2.12132
 20
0.0
 30
0.0
 11
2.703904
 21
0.582584
 31
0.0
  0
LINE
  8
0
 62
     0
 10
4.12132
 20
2.0
 30
0.0
 11
4.8
 21
2.67868
 31
0.0
  0
LINE
  8
0
 62
     0
 10
2.298097
 20
0.0
 30
0.0
 11
2.608717
 21
0.31062
 31
0.0
  0
LINE
  8
0
 62
     0
 10
4.298097
 20
2.0
 30
0.0
 11
4.8
 21
2.501903
 31
0.0
  0
LINE
  8
0
 62
     0
 10
2.474874
 20
0.0
 30
0.0
 11
2.51353
 21
0.038656
 31
0.0
  0
LINE
  8
0
 62
     0
 10
4.474874
 20
2.0
 30
0.0
 11
4.8
 21
2.325126
 31
0.0
  0
LINE
  8
0
 62
     0
 10
4.65165
 20
2.0
 30
0.0
 11
4.8
 21
2.14835
 31
0.0
  0
ENDBLK
  8
0
  0
BLOCK
  8
0
  2
*X12
 70
    65
 10
0.0
 20
0.0
 30
0.0
  3
*X
  0
LINE
  8
0
 62
     0
 10
6.884654
 20
1.75813
 30
0.0
 11
8.736506
 21
3.609982
 31
0.0
  0
LINE
  8
0
 62
     0
 10
6.838823
 20
1.889076
 30
0.0
 11
8.690675
 21
3.740928
 31
0.0
  0
LINE
  8
0
 62
     0
 10
6.772971
 20
2.0
 30
0.0
 11
8.644844
 21
3.871874
 31
0.0
  0
LINE
  8
0
 62
     0
 10
6.596194
 20
2.0
 30
0.0
 11
8.599013
 21
4.002819
 31
0.0
  0
LINE
  8
0
 62
     0
 10
6.419417
 20
2.0
 30
0.0
 11
8.553182
 21
4.133765
 31
0.0
  0
LINE
  8
0
 62
     0
 10
6.242641
 20
2.0
 30
0.0
 11
8.507351
 21
4.264711
 31
0.0
  0
LINE
  8
0
 62
     0
 10
6.065864
 20
2.0
 30
0.0
 11
8.46152
 21
4.395656
 31
0.0
  0
LINE
  8
0
 62
     0
 10
5.889087
 20
2.0
 30
0.0
 11
8.415689
 21
4.526602
 31
0.0
  0
LINE
  8
0
 62
     0
 10
5.712311
 20
2.0
 30
0.0
 11
8.369858
 21
4.657548
 31
0.0
  0
LINE
  8
0
 62
     0
 10
5.535534
 20
2.0
 30
0.0
 11
8.324027
 21
4.788493
 31
0.0
  0
LINE
  8
0
 62
     0
 10
5.358757
 20
2.0
 30
0.0
 11
8.158757
 21
4.8
 31
0.0
  0
LINE
  8
0
 62
     0
 10
5.2
 20
2.018019
 30
0.0
 11
7.981981
 21
4.8
 31
0.0
  0
LINE
  8
0
 62
     0
 10
5.2
 20
2.194796
 30
0.0
 11
7.805204
 21
4.8
 31
0.0
  0
LINE
  8
0
 62
     0
 10
5.2
 20
2.371573
 30
0.0
 11
7.628427
 21
4.8
 31
0.0
  0
LINE
  8
0
 62
     0
 10
5.2
 20
2.54835
 30
0.0
 11
7.45165
 21
4.8
 31
0.0
  0
LINE
  8
0
 62
     0
 10
5.2
 20
2.725126
 30
0.0
 11
7.274874
 21
4.8
 31
0.0
  0
LINE
  8
0
 62
     0
 10
5.2
 20
2.901903
 30
0.0
 11
7.098097
 21
4.8
 31
0.0
  0
LINE
  8
0
 62
     0
 10
5.2
 20
3.07868
 30
0.0
 11
6.92132
 21
4.8
 31
0.0
  0
LINE
  8
0
 62
     0
 10
5.2
 20
3.255456
 30
0.0
 11
6.744544
 21
4.8
 31
0.0
  0
LINE
  8
0
 62
     0
 10
5.2
 20
3.432233
 30
0.0
 11
6.567767
 21
4.8
 31
0.0
  0
LINE
  8
0
 62
     0
 10
5.2
 20
3.60901
 30
0.0
 11
6.39099
 21
4.8
 31
0.0
  0
LINE
  8
0
 62
     0
 10
5.2
 20
3.785786
 30
0.0
 11
6.214214
 21
4.8
 31
0.0
  0
LINE
  8
0
 62
     0
 10
5.2
 20
3.962563
 30
0.0
 11
6.037437
 21
4.8
 31
0.0
  0
LINE
  8
0
 62
     0
 10
5.2
 20
4.13934
 30
0.0
 11
5.86066
 21
4.8
 31
0.0
  0
LINE
  8
0
 62
     0
 10
5.2
 20
4.316117
 30
0.0
 11
5.683883
 21
4.8
 31
0.0
  0
LINE
  8
0
 62
     0
 10
5.2
 20
4.492893
 30
0.0
 11
5.507107
 21
4.8
 31
0.0
  0
LINE
  8
0
 62
     0
 10
5.2
 20
4.66967
 30
0.0
 11
5.33033
 21
4.8
 31
0.0
  0
LINE
  8
0
 62
     0
 10
6.930485
 20
1.627185
 30
0.0
 11
8.782337
 21
3.479036
 31
0.0
  0
LINE
  8
0
 62
     0
 10
6.976316
 20
1.496239
 30
0.0
 11
8.828168
 21
3.348091
 31
0.0
  0
LINE
  8
0
 62
     0
 10
7.022147
 20
1.365293
 30
0.0
 11
8.873999
 21
3.217145
 31
0.0
  0
LINE
  8
0
 62
     0
 10
7.067978
 20
1.234347
 30
0.0
 11
8.91983
 21
3.086199
 31
0.0
  0
LINE
  8
0
 62
     0
 10
7.113809
 20
1.103402
 30
0.0
 11
8.965661
 21
2.955254
 31
0.0
  0
LINE
  8
0
 62
     0
 10
7.15964
 20
0.972456
 30
0.0
 11
9.011492
 21
2.824308
 31
0.0
  0
LINE
  8
0
 62
     0
 10
7.205471
 20
0.84151
 30
0.0
 11
9.057323
 21
2.693362
 31
0.0
  0
LINE
  8
0
 62
     0
 10
7.251302
 20
0.710565
 30
0.0
 11
9.103154
 21
2.562416
 31
0.0
  0
LINE
  8
0
 62
     0
 10
7.297133
 20
0.579619
 30
0.0
 11
9.148985
 21
2.431471
 31
0.0
  0
LINE
  8
0
 62
     0
 10
7.342964
 20
0.448673
 30
0.0
 11
9.194816
 21
2.300525
 31
0.0
  0
LINE
  8
0
 62
     0
 10
7.388795
 20
0.317728
 30
0.0
 11
9.240647
 21
2.169579
 31
0.0
  0
LINE
  8
0
 62
     0
 10
7.434626
 20
0.186782
 30
0.0
 11
9.286478
 21
2.038634
 31
0.0
  0
LINE
  8
0
 62
     0
 10
7.480457
 20
0.055836
 30
0.0
 11
9.332309
 21
1.907688
 31
0.0
  0
LINE
  8
0
 62
     0
 10
7.601398
 20
0.0
 30
0.0
 11
9.37814
 21
1.776742
 31
0.0
  0
LINE
  8
0
 62
     0
 10
7.778175
 20
0.0
 30
0.0
 11
9.423971
 21
1.645797
 31
0.0
  0
LINE
  8
0
 62
     0
 10
7.954951
 20
0.0
 30
0.0
 11
9.469802
 21
1.514851
 31
0.0
  0
LINE
  8
0
 62
     0
 10
8.131728
 20
0.0
 30
0.0
 11
9.515633
 21
1.383905
 31
0.0
  0
LINE
  8
0
 62
     0
 10
8.308505
 20
0.0
 30
0.0
 11
9.561464
 21
1.252959
 31
0.0
  0
LINE
  8
0
 62
     0
 10
8.485281
 20
0.0
 30
0.0
 11
9.607295
 21
1.122014
 31
0.0
  0
LINE
  8
0
 62
     0
 10
8.662058
 20
0.0
 30
0.0
 11
9.653126
 21
0.991068
 31
0.0
  0
LINE
  8
0
 62
     0
 10
8.838835
 20
0.0
 30
0.0
 11
9.698957
 21
0.860122
 31
0.0
  0
LINE
  8
0
 62
     0
 10
9.015611
 20
0.0
 30
0.0
 11
9.744788
 21
0.729177
 31
0.0
  0
LINE
  8
0
 62
     0
 10
9.192388
 20
0.0
 30
0.0
 11
9.790619
 21
0.598231
 31
0.0
  0
LINE
  8
0
 62
     0
 10
9.369165
 20
0.0
 30
0.0
 11
9.83645
 21
0.467285
 31
0.0
  0
LINE
  8
0
 62
     0
 10
9.545942
 20
0.0
 30
0.0
 11
9.882281
 21
0.33634
 31
0.0
  0
LINE
  8
0
 62
     0
 10
9.722718
 20
0.0
 30
0.0
 11
9.928112
 21
0.205394
 31
0.0
  0
LINE
  8
0
 62
     0
 10
9.899495
 20
0.0
 30
0.0
 11
9.973943
 21
0.074448
 31
0.0
  0
ENDBLK
  8
0
  0
BLOCK
  8
0
  2
*X13
 70
    65
 10
0.0
 20
0.0
 30
0.0
  3
*X
  0
LINE
  8
0
 62
     0
 10
10.7
 20
6.280583
 30
0.0
 11
13.5
 21
9.080583
 31
0.0
  0
LINE
  8
0
 62
     0
 10
10.7
 20
6.457359
 30
0.0
 11
13.5
 21
9.257359
 31
0.0
  0
LINE
  8
0
 62
     0
 10
10.7
 20
6.634136
 30
0.0
 11
13.5
 21
9.434136
 31
0.0
  0
LINE
  8
0
 62
     0
 10
10.7
 20
6.810913
 30
0.0
 11
13.5
 21
9.610913
 31
0.0
  0
LINE
  8
0
 62
     0
 10
10.7
 20
6.987689
 30
0.0
 11
13.5
 21
9.787689
 31
0.0
  0
LINE
  8
0
 62
     0
 10
10.7
 20
7.164466
 30
0.0
 11
13.5
 21
9.964466
 31
0.0
  0
LINE
  8
0
 62
     0
 10
10.7
 20
7.341243
 30
0.0
 11
13.358757
 21
10.0
 31
0.0
  0
LINE
  8
0
 62
     0
 10
10.7
 20
7.518019
 30
0.0
 11
13.181981
 21
10.0
 31
0.0
  0
LINE
  8
0
 62
     0
 10
10.7
 20
7.694796
 30
0.0
 11
13.005204
 21
10.0
 31
0.0
  0
LINE
  8
0
 62
     0
 10
10.7
 20
7.871573
 30
0.0
 11
12.828427
 21
10.0
 31
0.0
  0
LINE
  8
0
 62
     0
 10
10.7
 20
8.04835
 30
0.0
 11
12.65165
 21
10.0
 31
0.0
  0
LINE
  8
0
 62
     0
 10
10.7
 20
8.225126
 30
0.0
 11
12.474874
 21
10.0
 31
0.0
  0
LINE
  8
0
 62
     0
 10
10.7
 20
8.401903
 30
0.0
 11
12.298097
 21
10.0
 31
0.0
  0
LINE
  8
0
 62
     0
 10
10.7
 20
8.57868
 30
0.0
 11
12.12132
 21
10.0
 31
0.0
  0
LINE
  8
0
 62
     0
 10
10.7
 20
8.755456
 30
0.0
 11
11.944544
 21
10.0
 31
0.0
  0
LINE
  8
0
 62
     0
 10
10.7
 20
8.932233
 30
0.0
 11
11.767767
 21
10.0
 31
0.0
  0
LINE
  8
0
 62
     0
 10
10.7
 20
9.10901
 30
0.0
 11
11.59099
 21
10.0
 31
0.0
  0
LINE
  8
0
 62
     0
 10
10.7
 20
9.285786
 30
0.0
 11
11.414214
 21
10.0
 31
0.0
  0
LINE
  8
0
 62
     0
 10
10.7
 20
9.462563
 30
0.0
 11
11.237437
 21
10.0
 31
0.0
  0
LINE
  8
0
 62
     0
 10
10.7
 20
9.63934
 30
0.0
 11
11.06066
 21
10.0
 31
0.0
  0
LINE
  8
0
 62
     0
 10
10.7
 20
9.816117
 30
0.0
 11
10.883883
 21
10.0
 31
0.0
  0
LINE
  8
0
 62
     0
 10
10.7
 20
9.992893
 30
0.0
 11
10.707107
 21
10.0
 31
0.0
  0
LINE
  8
0
 62
     0
 10
10.7
 20
6.103806
 30
0.0
 11
13.5
 21
8.903806
 31
0.0
  0
LINE
  8
0
 62
     0
 10
10.7
 20
5.927029
 30
0.0
 11
13.5
 21
8.727029
 31
0.0
  0
LINE
  8
0
 62
     0
 10
10.7
 20
5.750253
 30
0.0
 11
13.5
 21
8.550253
 31
0.0
  0
LINE
  8
0
 62
     0
 10
10.7
 20
5.573476
 30
0.0
 11
13.5
 21
8.373476
 31
0.0
  0
LINE
  8
0
 62
     0
 10
10.7
 20
5.396699
 30
0.0
 11
13.5
 21
8.196699
 31
0.0
  0
LINE
  8
0
 62
     0
 10
10.7
 20
5.219922
 30
0.0
 11
13.5
 21
8.019922
 31
0.0
  0
LINE
  8
0
 62
     0
 10
10.856854
 20
5.2
 30
0.0
 11
13.5
 21
7.843146
 31
0.0
  0
LINE
  8
0
 62
     0
 10
11.033631
 20
5.2
 30
0.0
 11
13.5
 21
7.666369
 31
0.0
  0
LINE
  8
0
 62
     0
 10
11.210408
 20
5.2
 30
0.0
 11
13.5
 21
7.489592
 31
0.0
  0
LINE
  8
0
 62
     0
 10
11.387184
 20
5.2
 30
0.0
 11
13.5
 21
7.312816
 31
0.0
  0
LINE
  8
0
 62
     0
 10
11.563961
 20
5.2
 30
0.0
 11
13.5
 21
7.136039
 31
0.0
  0
LINE
  8
0
 62
     0
 10
11.740738
 20
5.2
 30
0.0
 11
13.5
 21
6.959262
 31
0.0
  0
LINE
  8
0
 62
     0
 10
11.917514
 20
5.2
 30
0.0
 11
13.5
 21
6.782486
 31
0.0
  0
LINE
  8
0
 62
     0
 10
12.094291
 20
5.2
 30
0.0
 11
13.5
 21
6.605709
 31
0.0
  0
LINE
  8
0
 62
     0
 10
12.271068
 20
5.2
 30
0.0
 11
13.5
 21
6.428932
 31
0.0
  0
LINE
  8
0
 62
     0
 10
12.447845
 20
5.2
 30
0.0
 11
13.5
 21
6.252155
 31
0.0
  0
LINE
  8
0
 62
     0
 10
12.624621
 20
5.2
 30
0.0
 11
13.5
 21
6.075379
 31
0.0
  0
LINE
  8
0
 62
     0
 10
12.801398
 20
5.2
 30
0.0
 11
13.5
 21
5.898602
 31
0.0
  0
LINE
  8
0
 62
     0
 10
12.978175
 20
5.2
 30
0.0
 11
13.5
 21
5.721825
 31
0.0
  0
LINE
  8
0
 62
     0
 10
13.154951
 20
5.2
 30
0.0
 11
13.5
 21
5.545049
 31
0.0
  0
LINE
  8
0
 62
     0
 10
13.331728
 20
5.2
 30
0.0
 11
13.5
 21
5.368272
 31
0.0
  0
ENDBLK
  8
0
  0
BLOCK
  8
0
  2
*X14
 70
    65
 10
0.0
 20
0.0
 30
0.0
  3
*X
  0
LINE
  8
0
 62
     0
 10
10.7
 20
1.154058
 30
0.0
 11
13.5
 21
3.954058
 31
0.0
  0
LINE
  8
0
 62
     0
 10
10.7
 20
1.330835
 30
0.0
 11
13.5
 21
4.130835
 31
0.0
  0
LINE
  8
0
 62
     0
 10
10.7
 20
1.507612
 30
0.0
 11
13.5
 21
4.307612
 31
0.0
  0
LINE
  8
0
 62
     0
 10
10.7
 20
1.684389
 30
0.0
 11
13.5
 21
4.484389
 31
0.0
  0
LINE
  8
0
 62
     0
 10
10.7
 20
1.861165
 30
0.0
 11
13.5
 21
4.661165
 31
0.0
  0
LINE
  8
0
 62
     0
 10
10.7
 20
2.037942
 30
0.0
 11
13.462058
 21
4.8
 31
0.0
  0
LINE
  8
0
 62
     0
 10
10.7
 20
2.214719
 30
0.0
 11
13.285281
 21
4.8
 31
0.0
  0
LINE
  8
0
 62
     0
 10
10.7
 20
2.391495
 30
0.0
 11
13.108505
 21
4.8
 31
0.0
  0
LINE
  8
0
 62
     0
 10
10.7
 20
2.568272
 30
0.0
 11
12.931728
 21
4.8
 31
0.0
  0
LINE
  8
0
 62
     0
 10
10.7
 20
2.745049
 30
0.0
 11
12.754951
 21
4.8
 31
0.0
  0
LINE
  8
0
 62
     0
 10
10.7
 20
2.921825
 30
0.0
 11
12.578175
 21
4.8
 31
0.0
  0
LINE
  8
0
 62
     0
 10
10.7
 20
3.098602
 30
0.0
 11
12.401398
 21
4.8
 31
0.0
  0
LINE
  8
0
 62
     0
 10
10.7
 20
3.275379
 30
0.0
 11
12.224621
 21
4.8
 31
0.0
  0
LINE
  8
0
 62
     0
 10
10.7
 20
3.452155
 30
0.0
 11
12.047845
 21
4.8
 31
0.0
  0
LINE
  8
0
 62
     0
 10
10.7
 20
3.628932
 30
0.0
 11
11.871068
 21
4.8
 31
0.0
  0
LINE
  8
0
 62
     0
 10
10.7
 20
3.805709
 30
0.0
 11
11.694291
 21
4.8
 31
0.0
  0
LINE
  8
0
 62
     0
 10
10.7
 20
3.982486
 30
0.0
 11
11.517514
 21
4.8
 31
0.0
  0
LINE
  8
0
 62
     0
 10
10.7
 20
4.159262
 30
0.0
 11
11.340738
 21
4.8
 31
0.0
  0
LINE
  8
0
 62
     0
 10
10.7
 20
4.336039
 30
0.0
 11
11.163961
 21
4.8
 31
0.0
  0
LINE
  8
0
 62
     0
 10
10.7
 20
4.512816
 30
0.0
 11
10.987184
 21
4.8
 31
0.0
  0
LINE
  8
0
 62
     0
 10
10.7
 20
4.689592
 30
0.0
 11
10.810408
 21
4.8
 31
0.0
  0
LINE
  8
0
 62
     0
 10
10.7
 20
0.977282
 30
0.0
 11
13.5
 21
3.777282
 31
0.0
  0
LINE
  8
0
 62
     0
 10
10.7
 20
0.800505
 30
0.0
 11
13.5
 21
3.600505
 31
0.0
  0
LINE
  8
0
 62
     0
 10
10.7
 20
0.623728
 30
0.0
 11
13.5
 21
3.423728
 31
0.0
  0
LINE
  8
0
 62
     0
 10
10.7
 20
0.446952
 30
0.0
 11
13.5
 21
3.246952
 31
0.0
  0
LINE
  8
0
 62
     0
 10
10.7
 20
0.270175
 30
0.0
 11
13.5
 21
3.070175
 31
0.0
  0
LINE
  8
0
 62
     0
 10
10.7
 20
0.093398
 30
0.0
 11
13.5
 21
2.893398
 31
0.0
  0
LINE
  8
0
 62
     0
 10
10.783378
 20
0.0
 30
0.0
 11
13.5
 21
2.716622
 31
0.0
  0
LINE
  8
0
 62
     0
 10
10.960155
 20
0.0
 30
0.0
 11
13.5
 21
2.539845
 31
0.0
  0
LINE
  8
0
 62
     0
 10
11.136932
 20
0.0
 30
0.0
 11
13.5
 21
2.363068
 31
0.0
  0
LINE
  8
0
 62
     0
 10
11.313708
 20
0.0
 30
0.0
 11
13.5
 21
2.186292
 31
0.0
  0
LINE
  8
0
 62
     0
 10
11.490485
 20
0.0
 30
0.0
 11
13.5
 21
2.009515
 31
0.0
  0
LINE
  8
0
 62
     0
 10
11.667262
 20
0.0
 30
0.0
 11
13.5
 21
1.832738
 31
0.0
  0
LINE
  8
0
 62
     0
 10
11.844039
 20
0.0
 30
0.0
 11
13.5
 21
1.655961
 31
0.0
  0
LINE
  8
0
 62
     0
 10
12.020815
 20
0.0
 30
0.0
 11
13.5
 21
1.479185
 31
0.0
  0
LINE
  8
0
 62
     0
 10
12.197592
 20
0.0
 30
0.0
 11
13.5
 21
1.302408
 31
0.0
  0
LINE
  8
0
 62
     0
 10
12.374369
 20
0.0
 30
0.0
 11
13.5
 21
1.125631
 31
0.0
  0
LINE
  8
0
 62
     0
 10
12.551145
 20
0.0
 30
0.0
 11
13.5
 21
0.948855
 31
0.0
  0
LINE
  8
0
 62
     0
 10
12.727922
 20
0.0
 30
0.0
 11
13.5
 21
0.772078
 31
0.0
  0
LINE
  8
0
 62
     0
 10
12.904699
 20
0.0
 30
0.0
 11
13.5
 21
0.595301
 31
0.0
  0
LINE
  8
0
 62
     0
 10
13.081475
 20
0.0
 30
0.0
 11
13.5
 21
0.418525
 31
0.0
  0
LINE
  8
0
 62
     0
 10
13.258252
 20
0.0
 30
0.0
 11
13.5
 21
0.241748
 31
0.0
  0
LINE
  8
0
 62
     0
 10
13.435029
 20
0.0
 30
0.0
 11
13.5
 21
0.064971
 31
0.0
  0
ENDBLK
  8
0
  0
BLOCK
  8
0
  2
*X15
 70
    65
 10
0.0
 20
0.0
 30
0.0
  3
*X
  0
LINE
  8
0
 62
     0
 10
13.9
 20
6.298602
 30
0.0
 11
16.582995
 21
8.981597
 31
0.0
  0
LINE
  8
0
 62
     0
 10
13.9
 20
6.475379
 30
0.0
 11
16.510503
 21
9.085882
 31
0.0
  0
LINE
  8
0
 62
     0
 10
13.9
 20
6.652155
 30
0.0
 11
16.432927
 21
9.185083
 31
0.0
  0
LINE
  8
0
 62
     0
 10
13.9
 20
6.828932
 30
0.0
 11
16.350372
 21
9.279304
 31
0.0
  0
LINE
  8
0
 62
     0
 10
13.9
 20
7.005709
 30
0.0
 11
16.262892
 21
9.368601
 31
0.0
  0
LINE
  8
0
 62
     0
 10
13.9
 20
7.182486
 30
0.0
 11
16.170495
 21
9.452981
 31
0.0
  0
LINE
  8
0
 62
     0
 10
13.9
 20
7.359262
 30
0.0
 11
16.073145
 21
9.532407
 31
0.0
  0
LINE
  8
0
 62
     0
 10
13.9
 20
7.536039
 30
0.0
 11
15.970755
 21
9.606794
 31
0.0
  0
LINE
  8
0
 62
     0
 10
13.9
 20
7.712816
 30
0.0
 11
15.863189
 21
9.676004
 31
0.0
  0
LINE
  8
0
 62
     0
 10
13.9
 20
7.889592
 30
0.0
 11
15.75025
 21
9.739843
 31
0.0
  0
LINE
  8
0
 62
     0
 10
13.9
 20
8.066369
 30
0.0
 11
15.631675
 21
9.798044
 31
0.0
  0
LINE
  8
0
 62
     0
 10
13.9
 20
8.243146
 30
0.0
 11
15.50711
 21
9.850256
 31
0.0
  0
LINE
  8
0
 62
     0
 10
13.9
 20
8.419922
 30
0.0
 11
15.376096
 21
9.896018
 31
0.0
  0
LINE
  8
0
 62
     0
 10
13.9
 20
8.596699
 30
0.0
 11
15.238027
 21
9.934726
 31
0.0
  0
LINE
  8
0
 62
     0
 10
13.9
 20
8.773476
 30
0.0
 11
15.092096
 21
9.965572
 31
0.0
  0
LINE
  8
0
 62
     0
 10
13.9
 20
8.950253
 30
0.0
 11
14.937209
 21
9.987461
 31
0.0
  0
LINE
  8
0
 62
     0
 10
13.9
 20
9.127029
 30
0.0
 11
14.771824
 21
9.998853
 31
0.0
  0
LINE
  8
0
 62
     0
 10
13.9
 20
9.303806
 30
0.0
 11
14.596193
 21
9.999999
 31
0.0
  0
LINE
  8
0
 62
     0
 10
13.9
 20
9.480583
 30
0.0
 11
14.419417
 21
9.999999
 31
0.0
  0
LINE
  8
0
 62
     0
 10
13.9
 20
9.657359
 30
0.0
 11
14.24264
 21
10.0
 31
0.0
  0
LINE
  8
0
 62
     0
 10
13.9
 20
9.834136
 30
0.0
 11
14.065864
 21
10.0
 31
0.0
  0
LINE
  8
0
 62
     0
 10
13.9
 20
6.121825
 30
0.0
 11
16.650245
 21
8.872071
 31
0.0
  0
LINE
  8
0
 62
     0
 10
13.9
 20
5.945049
 30
0.0
 11
16.712035
 21
8.757083
 31
0.0
  0
LINE
  8
0
 62
     0
 10
13.9
 20
5.768272
 30
0.0
 11
16.768067
 21
8.636339
 31
0.0
  0
LINE
  8
0
 62
     0
 10
13.9
 20
5.591495
 30
0.0
 11
16.817955
 21
8.509451
 31
0.0
  0
LINE
  8
0
 62
     0
 10
13.9
 20
5.414719
 30
0.0
 11
16.861189
 21
8.375908
 31
0.0
  0
LINE
  8
0
 62
     0
 10
13.9
 20
5.237942
 30
0.0
 11
16.897097
 21
8.235039
 31
0.0
  0
LINE
  8
0
 62
     0
 10
14.038835
 20
5.2
 30
0.0
 11
16.924779
 21
8.085944
 31
0.0
  0
LINE
  8
0
 62
     0
 10
14.215611
 20
5.2
 30
0.0
 11
16.942997
 21
7.927385
 31
0.0
  0
LINE
  8
0
 62
     0
 10
14.392388
 20
5.2
 30
0.0
 11
16.949987
 21
7.757599
 31
0.0
  0
LINE
  8
0
 62
     0
 10
14.569165
 20
5.2
 30
0.0
 11
16.943101
 21
7.573936
 31
0.0
  0
LINE
  8
0
 62
     0
 10
14.745942
 20
5.2
 30
0.0
 11
16.918037
 21
7.372095
 31
0.0
  0
LINE
  8
0
 62
     0
 10
14.922718
 20
5.2
 30
0.0
 11
16.866909
 21
7.144191
 31
0.0
  0
LINE
  8
0
 62
     0
 10
15.099495
 20
5.2
 30
0.0
 11
16.771715
 21
6.87222
 31
0.0
  0
LINE
  8
0
 62
     0
 10
15.276272
 20
5.2
 30
0.0
 11
15.847951
 21
5.77168
 31
0.0
  0
LINE
  8
0
 62
     0
 10
15.96673
 20
5.890458
 30
0.0
 11
16.559542
 21
6.48327
 31
0.0
  0
LINE
  8
0
 62
     0
 10
15.453048
 20
5.2
 30
0.0
 11
15.970661
 21
5.717613
 31
0.0
  0
LINE
  8
0
 62
     0
 10
15.629825
 20
5.2
 30
0.0
 11
16.088934
 21
5.659109
 31
0.0
  0
LINE
  8
0
 62
     0
 10
15.806602
 20
5.2
 30
0.0
 11
16.202964
 21
5.596363
 31
0.0
  0
LINE
  8
0
 62
     0
 10
15.983378
 20
5.2
 30
0.0
 11
16.312909
 21
5.529531
 31
0.0
  0
LINE
  8
0
 62
     0
 10
16.160155
 20
5.2
 30
0.0
 11
16.418895
 21
5.45874
 31
0.0
  0
LINE
  8
0
 62
     0
 10
16.336932
 20
5.2
 30
0.0
 11
16.521021
 21
5.384089
 31
0.0
  0
LINE
  8
0
 62
     0
 10
16.513708
 20
5.2
 30
0.0
 11
16.619363
 21
5.305655
 31
0.0
  0
LINE
  8
0
 62
     0
 10
16.690485
 20
5.2
 30
0.0
 11
16.713975
 21
5.22349
 31
0.0
  0
ENDBLK
  8
0
  0
BLOCK
  8
0
  2
*X16
 70
    65
 10
0.0
 20
0.0
 30
0.0
  3
*X
  0
LINE
  8
0
 62
     0
 10
13.9
 20
0.818525
 30
0.0
 11
17.39645
 21
4.314974
 31
0.0
  0
LINE
  8
0
 62
     0
 10
13.9
 20
0.995301
 30
0.0
 11
17.336354
 21
4.431655
 31
0.0
  0
LINE
  8
0
 62
     0
 10
13.9
 20
1.172078
 30
0.0
 11
17.272078
 21
4.544156
 31
0.0
  0
LINE
  8
0
 62
     0
 10
13.9
 20
1.348855
 30
0.0
 11
17.203766
 21
4.652621
 31
0.0
  0
LINE
  8
0
 62
     0
 10
13.9
 20
1.525631
 30
0.0
 11
17.131535
 21
4.757167
 31
0.0
  0
LINE
  8
0
 62
     0
 10
13.9
 20
1.702408
 30
0.0
 11
16.997592
 21
4.8
 31
0.0
  0
LINE
  8
0
 62
     0
 10
13.9
 20
1.879185
 30
0.0
 11
16.820815
 21
4.8
 31
0.0
  0
LINE
  8
0
 62
     0
 10
13.9
 20
2.055961
 30
0.0
 11
16.644039
 21
4.8
 31
0.0
  0
LINE
  8
0
 62
     0
 10
13.9
 20
2.232738
 30
0.0
 11
16.467262
 21
4.8
 31
0.0
  0
LINE
  8
0
 62
     0
 10
13.9
 20
2.409515
 30
0.0
 11
16.290485
 21
4.8
 31
0.0
  0
LINE
  8
0
 62
     0
 10
13.9
 20
2.586292
 30
0.0
 11
16.113708
 21
4.8
 31
0.0
  0
LINE
  8
0
 62
     0
 10
13.9
 20
2.763068
 30
0.0
 11
15.936932
 21
4.8
 31
0.0
  0
LINE
  8
0
 62
     0
 10
13.9
 20
2.939845
 30
0.0
 11
15.760155
 21
4.8
 31
0.0
  0
LINE
  8
0
 62
     0
 10
13.9
 20
3.116622
 30
0.0
 11
15.583378
 21
4.8
 31
0.0
  0
LINE
  8
0
 62
     0
 10
13.9
 20
3.293398
 30
0.0
 11
15.406602
 21
4.8
 31
0.0
  0
LINE
  8
0
 62
     0
 10
13.9
 20
3.470175
 30
0.0
 11
15.229825
 21
4.8
 31
0.0
  0
LINE
  8
0
 62
     0
 10
13.9
 20
3.646952
 30
0.0
 11
15.053048
 21
4.8
 31
0.0
  0
LINE
  8
0
 62
     0
 10
13.9
 20
3.823728
 30
0.0
 11
14.876272
 21
4.8
 31
0.0
  0
LINE
  8
0
 62
     0
 10
13.9
 20
4.000505
 30
0.0
 11
14.699495
 21
4.8
 31
0.0
  0
LINE
  8
0
 62
     0
 10
13.9
 20
4.177282
 30
0.0
 11
14.522718
 21
4.8
 31
0.0
  0
LINE
  8
0
 62
     0
 10
13.9
 20
4.354058
 30
0.0
 11
14.345942
 21
4.8
 31
0.0
  0
LINE
  8
0
 62
     0
 10
13.9
 20
4.530835
 30
0.0
 11
14.169165
 21
4.8
 31
0.0
  0
LINE
  8
0
 62
     0
 10
13.9
 20
4.707612
 30
0.0
 11
13.992388
 21
4.8
 31
0.0
  0
LINE
  8
0
 62
     0
 10
13.9
 20
0.641748
 30
0.0
 11
17.452185
 21
4.193933
 31
0.0
  0
LINE
  8
0
 62
     0
 10
13.9
 20
0.464971
 30
0.0
 11
17.503339
 21
4.068311
 31
0.0
  0
LINE
  8
0
 62
     0
 10
13.9
 20
0.288194
 30
0.0
 11
17.549642
 21
3.937837
 31
0.0
  0
LINE
  8
0
 62
     0
 10
13.9
 20
0.111418
 30
0.0
 11
17.590762
 21
3.80218
 31
0.0
  0
LINE
  8
0
 62
     0
 10
13.965359
 20
0.0
 30
0.0
 11
17.62629
 21
3.660931
 31
0.0
  0
LINE
  8
0
 62
     0
 10
14.142136
 20
0.000001
 30
0.0
 11
17.655713
 21
3.513577
 31
0.0
  0
LINE
  8
0
 62
     0
 10
14.318913
 20
0.000001
 30
0.0
 11
17.678385
 21
3.359473
 31
0.0
  0
LINE
  8
0
 62
     0
 10
14.49569
 20
0.000001
 30
0.0
 11
17.693473
 21
3.197784
 31
0.0
  0
LINE
  8
0
 62
     0
 10
14.672467
 20
0.000002
 30
0.0
 11
17.699875
 21
3.027409
 31
0.0
  0
LINE
  8
0
 62
     0
 10
14.853154
 20
0.003912
 30
0.0
 11
17.696088
 21
2.846846
 31
0.0
  0
LINE
  8
0
 62
     0
 10
15.046044
 20
0.020025
 30
0.0
 11
17.679975
 21
2.653956
 31
0.0
  0
LINE
  8
0
 62
     0
 10
15.254483
 20
0.051687
 30
0.0
 11
17.648313
 21
2.445517
 31
0.0
  0
LINE
  8
0
 62
     0
 10
15.483762
 20
0.10419
 30
0.0
 11
17.59581
 21
2.216238
 31
0.0
  0
LINE
  8
0
 62
     0
 10
15.743786
 20
0.187437
 30
0.0
 11
17.512563
 21
1.956214
 31
0.0
  0
LINE
  8
0
 62
     0
 10
16.058176
 20
0.32505
 30
0.0
 11
17.37495
 21
1.641824
 31
0.0
  0
LINE
  8
0
 62
     0
 10
16.54193
 20
0.632028
 30
0.0
 11
17.067972
 21
1.15807
 31
0.0
  0
ENDBLK
  8
0
  0
BLOCK
  8
0
  2
MAA
 70
    64
 10
0.0
 20
0.0
 30
0.0
  3
MAA
  0
LINE
  8
0
  6
CONTINUOUS
 10
-0.500718
 20
-2.587966
 30
0.0
 11
0.386169
 21
-2.587966
 31
0.0
  0
LINE
  8
0
  6
CONTINUOUS
 10
-0.831823
 20
-1.976333
 30
0.0
 11
0.752749
 21
-1.976333
 31
0.0
  0
LINE
  8
0
  6
CONTINUOUS
 10
-0.015887
 20
-1.35427
 30
0.0
 11
1.178454
 21
-1.35427
 31
0.0
  0
LINE
  8
0
  6
CONTINUOUS
 10
-1.210228
 20
-1.35427
 30
0.0
 11
-0.015887
 21
-1.35427
 31
0.0
  0
LINE
  8
0
  6
CONTINUOUS
 10
0.0
 20
0.0
 30
0.0
 11
0.0
 21
-1.35427
 31
0.0
  0
ENDBLK
  8
0
  0
BLOCK
  8
0
  2
B507
 70
    64
 10
0.0
 20
0.0
 30
0.0
  3
B507
  0
LINE
  8
0
  6
CONTINUOUS
 10
0.079622
 20
0.147754
 30
0.0
 11
0.079622
 21
-9.002074
 31
0.0
  0
INSERT
  8
0
  6
CONTINUOUS
  2
BLC29
 10
0.212369
 20
-6.641509
 30
0.0
 50
270.0
  0
ENDBLK
  8
0
  0
BLOCK
  8
0
  2
538HANSK
 70
     0
 10
0.0
 20
0.0
 30
0.0
  3
538HANSK
  0
INSERT
  8
0
  6
CONTINUOUS
  2
B231
 10
-246.410033
 20
-189.144031
 30
0.0
  0
INSERT
  8
0
  6
CONTINUOUS
  2
B231
 10
-246.242441
 20
-158.512948
 30
0.0
  0
INSERT
  8
0
  6
CONTINUOUS
  2
B231
 10
-246.074849
 20
-138.667335
 30
0.0
  0
POLYLINE
  8
0
  6
CONTINUOUS
 66
     1
 10
0.0
 20
0.0
 30
0.0
 70
     1
 40
0.5
 41
0.5
  0
VERTEX
  8
0
  6
CONTINUOUS
 10
33.901457
 20
-20.0
 30
0.0
 42
1.0
  0
VERTEX
  8
0
  6
CONTINUOUS
 10
34.901457
 20
-20.0
 30
0.0
 42
1.0
  0
SEQEND
  8
0
  6
CONTINUOUS
  0
LINE
  8
0
  6
CONTINUOUS
 10
0.0
 20
-142.5
 30
0.0
 11
5.0
 21
-142.5
 31
0.0
  0
CIRCLE
  8
BASE
  6
CONTINUOUS
 10
-8.241055
 20
-172.5
 30
0.0
 40
0.740939
  0
CIRCLE
  8
BASE
  6
CONTINUOUS
 10
-8.241055
 20
-152.5
 30
0.0
 40
0.740939
  0
CIRCLE
  8
BASE
  6
CONTINUOUS
 10
-8.241055
 20
-132.5
 30
0.0
 40
0.740939
  0
CIRCLE
  8
BASE
  6
CONTINUOUS
 10
-8.241055
 20
-105.0
 30
0.0
 40
0.740939
  0
TEXT
  8
BASE
  6
DASHED
 10
-257.5
 20
1.16032
 30
0.0
 40
2.0
  1
101:
  7
ROMANS
  0
LINE
  8
0
  6
DASHED
 10
-265.0
 20
-107.5
 30
0.0
 11
-270.0
 21
-107.5
 31
0.0
  0
INSERT
  8
0
  6
DASHED
  2
BLC42
 10
-273.3606
 20
-107.501096
 30
0.0
  0
INSERT
  8
0
  6
DASHED
  2
BLC43
 10
-273.478289
 20
-125.009688
 30
0.0
  0
INSERT
  8
0
  6
DASHED
  2
BLC43
 10
-273.478289
 20
-185.018768
 30
0.0
  0
INSERT
  8
0
  6
DASHED
  2
BLC43
 10
-273.478289
 20
-155.045156
 30
0.0
  0
INSERT
  8
0
  6
DASHED
  2
BLC43
 10
-273.478289
 20
-135.07453
 30
0.0
  0
TEXT
  8
BASE
  6
HIDDEN
 10
-20.708566
 20
-170.953204
 30
0.0
 40
2.0
  1
U3
  7
ROMANS
  0
TEXT
  8
BASE
  6
HIDDEN
 10
-20.708566
 20
-150.639412
 30
0.0
 40
2.0
  1
U2
  7
ROMANS
  0
TEXT
  8
BASE
  6
CONTINUOUS
 10
-24.326283
 20
-118.04577
 30
0.0
 40
2.0
  1
NU
  7
ROMANS
  0
TEXT
  8
BASE
  6
CONTINUOUS
 10
-24.326283
 20
-108.04577
 30
0.0
 40
2.0
  1
NU
  7
ROMANS
  0
LINE
  8
0
  6
DASHED
 10
38.798944
 20
-157.746983
 30
0.0
 11
38.798944
 21
-41.893727
 31
0.0
  0
LINE
  8
0
  6
CONTINUOUS
 10
0.0
 20
-182.5
 30
0.0
 11
5.0
 21
-182.5
 31
0.0
  0
LINE
  8
0
  6
CONTINUOUS
 10
0.0
 20
-172.5
 30
0.0
 11
5.0
 21
-172.5
 31
0.0
  0
LINE
  8
0
  6
CONTINUOUS
 10
0.0
 20
-162.5
 30
0.0
 11
5.0
 21
-162.5
 31
0.0
  0
LINE
  8
0
  6
CONTINUOUS
 10
0.0
 20
-152.5
 30
0.0
 11
5.0
 21
-152.5
 31
0.0
  0
LINE
  8
0
  6
CONTINUOUS
 10
0.0
 20
-132.5
 30
0.0
 11
5.0
 21
-132.5
 31
0.0
  0
LINE
  8
0
  6
CONTINUOUS
 10
0.0
 20
-115.0
 30
0.0
 11
5.0
 21
-115.0
 31
0.0
  0
LINE
  8
0
  6
CONTINUOUS
 10
0.0
 20
-105.0
 30
0.0
 11
5.0
 21
-105.0
 31
0.0
  0
LINE
  8
0
  6
CONTINUOUS
 10
0.0
 20
-90.0
 30
0.0
 11
5.0
 21
-90.0
 31
0.0
  0
LINE
  8
0
  6
CONTINUOUS
 10
0.0
 20
-80.0
 30
0.0
 11
5.0
 21
-80.0
 31
0.0
  0
LINE
  8
0
  6
CONTINUOUS
 10
0.0
 20
-70.0
 30
0.0
 11
5.0
 21
-70.0
 31
0.0
  0
LINE
  8
0
  6
CONTINUOUS
 10
0.0
 20
-60.0
 30
0.0
 11
5.0
 21
-60.0
 31
0.0
  0
LINE
  8
0
  6
CONTINUOUS
 10
0.0
 20
-50.0
 30
0.0
 11
5.0
 21
-50.0
 31
0.0
  0
LINE
  8
0
  6
CONTINUOUS
 10
0.0
 20
-40.0
 30
0.0
 11
5.0
 21
-40.0
 31
0.0
  0
LINE
  8
0
  6
CONTINUOUS
 10
0.0
 20
-30.0
 30
0.0
 11
5.0
 21
-30.0
 31
0.0
  0
LINE
  8
0
  6
CONTINUOUS
 10
0.0
 20
-20.0
 30
0.0
 11
5.0
 21
-20.0
 31
0.0
  0
TEXT
  8
BASE
  6
DASHED
 10
-7.474438
 20
-176.286737
 30
0.0
 40
2.0
  1
23A
  7
ROMANS
  0
TEXT
  8
BASE
  6
DASHED
 10
-20.660336
 20
-176.407961
 30
0.0
 40
2.0
  1
23B
  7
ROMANS
  0
LINE
  8
BASE
  6
CONTINUOUS
 10
-7.500117
 20
-172.5
 30
0.0
 11
0.0
 21
-172.5
 31
0.0
  0
LINE
  8
BASE
  6
CONTINUOUS
 10
-8.981965
 20
-172.506589
 30
0.0
 11
-15.662841
 21
-170.065196
 31
0.0
  0
LINE
  8
BASE
  6
CONTINUOUS
 10
-15.662841
 20
-170.065196
 30
0.0
 11
-16.107734
 21
-170.950894
 31
0.0
  0
LINE
  8
BASE
  6
CONTINUOUS
 10
-15.0
 20
-172.5
 30
0.0
 11
-15.0
 21
-169.734339
 31
0.0
  0
TEXT
  8
BASE
  6
DASHED
 10
-20.660336
 20
-156.102839
 30
0.0
 40
2.0
  1
22B
  7
ROMANS
  0
LINE
  8
BASE
  6
DASHED
 10
-26.5
 20
-152.5
 30
0.0
 11
-15.0
 21
-152.5
 31
0.0
  0
LINE
  8
BASE
  6
CONTINUOUS
 10
-15.662841
 20
-150.065196
 30
0.0
 11
-16.107734
 21
-150.950894
 31
0.0
  0
LINE
  8
BASE
  6
CONTINUOUS
 10
-15.0
 20
-152.5
 30
0.0
 11
-15.0
 21
-149.734339
 31
0.0
  0
LINE
  8
BASE
  6
CONTINUOUS
 10
-8.981965
 20
-152.506589
 30
0.0
 11
-15.662841
 21
-150.065196
 31
0.0
  0
TEXT
  8
BASE
  6
DASHED
 10
-7.474438
 20
-155.981615
 30
0.0
 40
2.0
  1
22A
  7
ROMANS
  0
LINE
  8
BASE
  6
CONTINUOUS
 10
-7.500117
 20
-152.5
 30
0.0
 11
0.0
 21
-152.5
 31
0.0
  0
LINE
  8
BASE
  6
DASHED
 10
-26.5
 20
-132.5
 30
0.0
 11
-15.0
 21
-132.5
 31
0.0
  0
TEXT
  8
BASE
  6
DASHED
 10
-20.660336
 20
-136.102839
 30
0.0
 40
2.0
  1
21B
  7
ROMANS
  0
TEXT
  8
BASE
  6
DASHED
 10
-7.474438
 20
-135.981615
 30
0.0
 40
2.0
  1
21A
  7
ROMANS
  0
LINE
  8
BASE
  6
CONTINUOUS
 10
-7.500117
 20
-132.5
 30
0.0
 11
0.0
 21
-132.5
 31
0.0
  0
LINE
  8
BASE
  6
CONTINUOUS
 10
-8.981965
 20
-132.506589
 30
0.0
 11
-15.662841
 21
-130.065196
 31
0.0
  0
LINE
  8
BASE
  6
CONTINUOUS
 10
-15.662841
 20
-130.065196
 30
0.0
 11
-16.107734
 21
-130.950894
 31
0.0
  0
LINE
  8
BASE
  6
CONTINUOUS
 10
-15.0
 20
-132.5
 30
0.0
 11
-15.0
 21
-129.734339
 31
0.0
  0
LINE
  8
BASE
  6
CONTINUOUS
 10
-7.500117
 20
-105.0
 30
0.0
 11
0.0
 21
-105.0
 31
0.0
  0
LINE
  8
BASE
  6
CONTINUOUS
 10
-15.662841
 20
-102.565196
 30
0.0
 11
-16.107734
 21
-103.450894
 31
0.0
  0
LINE
  8
BASE
  6
CONTINUOUS
 10
-15.0
 20
-105.0
 30
0.0
 11
-15.0
 21
-102.234339
 31
0.0
  0
LINE
  8
BASE
  6
CONTINUOUS
 10
-8.981965
 20
-105.006589
 30
0.0
 11
-15.662841
 21
-102.565196
 31
0.0
  0
TEXT
  8
BASE
  6
DASHED
 10
-18.302077
 20
-108.602839
 30
0.0
 40
2.0
  1
24B
  7
ROMANS
  0
TEXT
  8
BASE
  6
DASHED
 10
-7.115313
 20
-108.481615
 30
0.0
 40
2.0
  1
24A
  7
ROMANS
  0
CIRCLE
  8
0
  6
CONTINUOUS
 10
34.401457
 20
-30.530738
 30
0.0
 40
4.398585
  0
CIRCLE
  8
0
  6
CONTINUOUS
 10
30.0
 20
-37.522273
 30
0.0
 40
4.398585
  0
CIRCLE
  8
0
  6
CONTINUOUS
 10
38.821271
 20
-37.495199
 30
0.0
 40
4.398585
  0
LINE
  8
0
  6
CONTINUOUS
 10
32.198859
 20
-28.358465
 30
0.0
 11
34.53226
 21
-30.691867
 31
0.0
  0
LINE
  8
0
  6
CONTINUOUS
 10
34.53226
 20
-30.691867
 30
0.0
 11
36.865662
 21
-28.358465
 31
0.0
  0
LINE
  8
0
  6
CONTINUOUS
 10
34.53226
 20
-30.691867
 30
0.0
 11
34.53226
 21
-33.025268
 31
0.0
  0
LINE
  8
0
  6
CONTINUOUS
 10
30.11994
 20
-35.016096
 30
0.0
 11
27.786539
 21
-39.6829
 31
0.0
  0
LINE
  8
0
  6
CONTINUOUS
 10
27.786539
 20
-39.6829
 30
0.0
 11
32.453342
 21
-39.6829
 31
0.0
  0
LINE
  8
0
  6
CONTINUOUS
 10
32.453342
 20
-39.6829
 30
0.0
 11
30.11994
 21
-35.016096
 31
0.0
  0
LINE
  8
0
  6
CONTINUOUS
 10
38.780668
 20
-37.677235
 30
0.0
 11
38.780668
 21
-40.010636
 31
0.0
  0
LINE
  8
0
  6
CONTINUOUS
 10
36.807621
 20
-35.704188
 30
0.0
 11
38.780668
 21
-37.677235
 31
0.0
  0
LINE
  8
0
  6
CONTINUOUS
 10
38.780668
 20
-37.677235
 30
0.0
 11
41.11407
 21
-35.343833
 31
0.0
  0
LINE
  8
0
  6
DASHED
 10
34.401457
 20
-20.0
 30
0.0
 11
34.401457
 21
-26.132153
 31
0.0
  0
LINE
  8
0
  6
DASHED
 10
30.0
 20
-110.0
 30
0.0
 11
30.0
 21
-41.920858
 31
0.0
  0
LINE
  8
BASE
  6
CENTER
 10
0.0
 20
-35.0
 30
0.0
 11
0.0
 21
0.0
 31
0.0
  0
LINE
  8
BASE
  6
CENTER
 10
0.0
 20
-57.5
 30
0.0
 11
0.0
 21
-202.5
 31
0.0
  0
LINE
  8
BASE
  6
CENTER
 10
0.0
 20
-35.0
 30
0.0
 11
0.0
 21
-57.5
 31
0.0
  0
TEXT
  8
BASE
  6
CONTINUOUS
 10
-7.645559
 20
-92.74244
 30
0.0
 40
2.0
  1
20A
  7
ROMANS
  0
LINE
  8
BASE
  6
CONTINUOUS
 10
-8.050863
 20
-90.0
 30
0.0
 11
0.0
 21
-90.0
 31
0.0
  0
TEXT
  8
BASE
  6
CONTINUOUS
 10
-6.81957
 20
-82.948605
 30
0.0
 40
2.0
  1
19A
  7
ROMANS
  0
LINE
  8
BASE
  6
CONTINUOUS
 10
-8.050863
 20
-80.0
 30
0.0
 11
0.0
 21
-80.0
 31
0.0
  0
TEXT
  8
BASE
  6
DASHED
 10
-6.81957
 20
-72.954121
 30
0.0
 40
2.0
  1
18A
  7
ROMANS
 11
-6.81957
 21
-73.620787
 31
0.0
 73
     1
  0
LINE
  8
BASE
  6
CONTINUOUS
 10
-8.050863
 20
-70.0
 30
0.0
 11
0.0
 21
-70.0
 31
0.0
  0
TEXT
  8
BASE
  6
DASHED
 10
-6.81957
 20
-62.666667
 30
0.0
 40
2.0
  1
17A
  7
ROMANS
 11
-6.81957
 21
-63.333333
 31
0.0
 73
     1
  0
LINE
  8
BASE
  6
CONTINUOUS
 10
-8.050863
 20
-60.0
 30
0.0
 11
0.0
 21
-60.0
 31
0.0
  0
LINE
  8
BASE
  6
CONTINUOUS
 10
-8.050863
 20
-50.0
 30
0.0
 11
0.0
 21
-50.0
 31
0.0
  0
TEXT
  8
BASE
  6
DASHED
 10
-6.81957
 20
-52.713025
 30
0.0
 40
2.0
  1
16A
  7
ROMANS
 11
-6.81957
 21
-53.379691
 31
0.0
 73
     1
  0
TEXT
  8
BASE
  6
DASHED
 10
-6.81957
 20
-42.962785
 30
0.0
 40
2.0
  1
15A
  7
ROMANS
 11
-6.81957
 21
-43.629452
 31
0.0
 73
     1
  0
LINE
  8
BASE
  6
CONTINUOUS
 10
-8.050863
 20
-40.0
 30
0.0
 11
0.0
 21
-40.0
 31
0.0
  0
TEXT
  8
BASE
  6
DASHED
 10
-6.81957
 20
-32.666667
 30
0.0
 40
2.0
  1
14A
  7
ROMANS
 11
-6.81957
 21
-33.333333
 31
0.0
 73
     1
  0
LINE
  8
BASE
  6
CONTINUOUS
 10
-8.050863
 20
-30.0
 30
0.0
 11
0.0
 21
-30.0
 31
0.0
  0
LINE
  8
BASE
  6
CONTINUOUS
 10
-8.050863
 20
-20.0
 30
0.0
 11
0.0
 21
-20.0
 31
0.0
  0
TEXT
  8
BASE
  6
DASHED
 10
-6.81957
 20
-22.734467
 30
0.0
 40
2.0
  1
13A
  7
ROMANS
 11
-6.81957
 21
-23.401134
 31
0.0
 73
     1
  0
LINE
  8
BASE
  6
CONTINUOUS
 10
-32.5
 20
-25.0
 30
0.0
 11
-28.233529
 21
-25.0
 31
0.0
  0
LINE
  8
BASE
  6
CONTINUOUS
 10
-32.5
 20
-30.0
 30
0.0
 11
-28.233529
 21
-30.0
 31
0.0
  0
LINE
  8
BASE
  6
CONTINUOUS
 10
-32.5
 20
-35.0
 30
0.0
 11
-17.5
 21
-35.0
 31
0.0
  0
LINE
  8
BASE
  6
CONTINUOUS
 10
-32.5
 20
-45.0
 30
0.0
 11
-28.233529
 21
-45.0
 31
0.0
  0
LINE
  8
BASE
  6
CONTINUOUS
 10
-32.5
 20
-50.0
 30
0.0
 11
-28.233529
 21
-50.0
 31
0.0
  0
LINE
  8
BASE
  6
CONTINUOUS
 10
-17.5
 20
-55.0
 30
0.0
 11
-32.5
 21
-55.0
 31
0.0
  0
LINE
  8
BASE
  6
CONTINUOUS
 10
-32.5
 20
-65.0
 30
0.0
 11
-28.233529
 21
-65.0
 31
0.0
  0
LINE
  8
BASE
  6
CONTINUOUS
 10
-32.5
 20
-70.0
 30
0.0
 11
-28.233529
 21
-70.0
 31
0.0
  0
LINE
  8
BASE
  6
CONTINUOUS
 10
-17.5
 20
-75.0
 30
0.0
 11
-32.5
 21
-75.0
 31
0.0
  0
LINE
  8
BASE
  6
CONTINUOUS
 10
-32.5
 20
-85.0
 30
0.0
 11
-28.233529
 21
-85.0
 31
0.0
  0
LINE
  8
BASE
  6
CONTINUOUS
 10
-32.5
 20
-90.0
 30
0.0
 11
-28.233529
 21
-90.0
 31
0.0
  0
LINE
  8
BASE
  6
CONTINUOUS
 10
-17.5
 20
-95.0
 30
0.0
 11
-32.5
 21
-95.0
 31
0.0
  0
CIRCLE
  8
BASE
  6
CONTINUOUS
 10
-9.050449
 20
-20.028782
 30
0.0
 40
1.0
  0
LINE
  8
BASE
 10
-20.0
 20
-30.00155
 30
0.0
 11
-20.0
 21
-20.00155
 31
0.0
  0
LINE
  8
BASE
 10
-17.5
 20
-20.0
 30
0.0
 11
-15.0
 21
-20.0
 31
0.0
  0
LINE
  8
BASE
 10
-20.0
 20
-20.00155
 30
0.0
 11
-17.5
 21
-20.00155
 31
0.0
  0
LINE
  8
BASE
 10
-22.5
 20
-25.0
 30
0.0
 11
-17.5
 21
-25.0
 31
0.0
  0
LINE
  8
BASE
 10
-17.5
 20
-25.0
 30
0.0
 11
-15.0
 21
-25.0
 31
0.0
  0
LINE
  8
BASE
 10
-15.0
 20
-25.0
 30
0.0
 11
-15.0
 21
-22.1
 31
0.0
  0
LINE
  8
BASE
 10
-16.11905
 20
-23.055575
 30
0.0
 11
-15.439687
 21
-23.991319
 31
0.0
  0
LINE
  8
BASE
 10
-10.050448
 20
-20.030442
 30
0.0
 11
-15.8
 21
-23.5
 31
0.0
  0
LINE
  8
BASE
 10
-17.5
 20
-30.00155
 30
0.0
 11
-20.0
 21
-30.00155
 31
0.0
  0
LINE
  8
BASE
 10
-17.5
 20
-30.0
 30
0.0
 11
-15.0
 21
-30.0
 31
0.0
  0
LINE
  8
BASE
  6
CONTINUOUS
 10
-22.5
 20
-25.0
 30
0.0
 11
-26.5
 21
-25.0
 31
0.0
  0
LINE
  8
BASE
 10
-10.050448
 20
-30.030442
 30
0.0
 11
-15.8
 21
-33.5
 31
0.0
  0
LINE
  8
BASE
 10
-16.11905
 20
-33.055575
 30
0.0
 11
-15.439687
 21
-33.991319
 31
0.0
  0
LINE
  8
BASE
 10
-17.5
 20
-35.0
 30
0.0
 11
-15.0
 21
-35.0
 31
0.0
  0
LINE
  8
BASE
 10
-15.0
 20
-35.0
 30
0.0
 11
-15.0
 21
-32.1
 31
0.0
  0
CIRCLE
  8
BASE
  6
CONTINUOUS
 10
-9.050449
 20
-30.028782
 30
0.0
 40
1.0
  0
LINE
  8
BASE
 10
-10.050448
 20
-40.030442
 30
0.0
 11
-15.8
 21
-43.5
 31
0.0
  0
LINE
  8
BASE
 10
-16.11905
 20
-43.055575
 30
0.0
 11
-15.439687
 21
-43.991319
 31
0.0
  0
LINE
  8
BASE
 10
-15.0
 20
-45.0
 30
0.0
 11
-15.0
 21
-42.1
 31
0.0
  0
LINE
  8
BASE
 10
-17.5
 20
-45.0
 30
0.0
 11
-15.0
 21
-45.0
 31
0.0
  0
LINE
  8
BASE
 10
-22.5
 20
-45.0
 30
0.0
 11
-17.5
 21
-45.0
 31
0.0
  0
LINE
  8
BASE
 10
-20.0
 20
-40.00155
 30
0.0
 11
-17.5
 21
-40.00155
 31
0.0
  0
LINE
  8
BASE
 10
-17.5
 20
-40.0
 30
0.0
 11
-15.0
 21
-40.0
 31
0.0
  0
CIRCLE
  8
BASE
  6
CONTINUOUS
 10
-9.050449
 20
-40.028782
 30
0.0
 40
1.0
  0
LINE
  8
BASE
 10
-20.0
 20
-50.00155
 30
0.0
 11
-20.0
 21
-40.00155
 31
0.0
  0
LINE
  8
BASE
 10
-17.5
 20
-50.00155
 30
0.0
 11
-20.0
 21
-50.00155
 31
0.0
  0
LINE
  8
BASE
 10
-17.5
 20
-50.0
 30
0.0
 11
-15.0
 21
-50.0
 31
0.0
  0
LINE
  8
BASE
 10
-16.11905
 20
-53.055575
 30
0.0
 11
-15.439687
 21
-53.991319
 31
0.0
  0
LINE
  8
BASE
 10
-10.050448
 20
-50.030442
 30
0.0
 11
-15.8
 21
-53.5
 31
0.0
  0
LINE
  8
BASE
 10
-15.0
 20
-55.0
 30
0.0
 11
-15.0
 21
-52.1
 31
0.0
  0
LINE
  8
BASE
 10
-17.5
 20
-55.0
 30
0.0
 11
-15.0
 21
-55.0
 31
0.0
  0
CIRCLE
  8
BASE
  6
CONTINUOUS
 10
-9.050449
 20
-50.028782
 30
0.0
 40
1.0
  0
LINE
  8
BASE
 10
-17.5
 20
-60.0
 30
0.0
 11
-15.0
 21
-60.0
 31
0.0
  0
LINE
  8
BASE
 10
-20.0
 20
-60.00155
 30
0.0
 11
-17.5
 21
-60.00155
 31
0.0
  0
LINE
  8
BASE
 10
-22.5
 20
-65.0
 30
0.0
 11
-17.5
 21
-65.0
 31
0.0
  0
LINE
  8
BASE
 10
-17.5
 20
-65.0
 30
0.0
 11
-15.0
 21
-65.0
 31
0.0
  0
LINE
  8
BASE
 10
-15.0
 20
-65.0
 30
0.0
 11
-15.0
 21
-62.1
 31
0.0
  0
LINE
  8
BASE
 10
-16.11905
 20
-63.055575
 30
0.0
 11
-15.439687
 21
-63.991319
 31
0.0
  0
LINE
  8
BASE
 10
-10.050448
 20
-60.030442
 30
0.0
 11
-15.8
 21
-63.5
 31
0.0
  0
LINE
  8
BASE
 10
-20.0
 20
-70.00155
 30
0.0
 11
-20.0
 21
-60.00155
 31
0.0
  0
LINE
  8
BASE
 10
-17.5
 20
-70.00155
 30
0.0
 11
-20.0
 21
-70.00155
 31
0.0
  0
LINE
  8
BASE
 10
-17.5
 20
-70.001549
 30
0.0
 11
-15.0
 21
-70.001549
 31
0.0
  0
CIRCLE
  8
BASE
  6
CONTINUOUS
 10
-9.050449
 20
-60.028782
 30
0.0
 40
1.0
  0
LINE
  8
BASE
 10
-10.050448
 20
-70.030442
 30
0.0
 11
-15.8
 21
-73.5
 31
0.0
  0
LINE
  8
BASE
 10
-15.0
 20
-75.0
 30
0.0
 11
-15.0
 21
-72.1
 31
0.0
  0
CIRCLE
  8
BASE
  6
CONTINUOUS
 10
-9.050449
 20
-70.028782
 30
0.0
 40
1.0
  0
LINE
  8
BASE
 10
-17.5
 20
-75.0
 30
0.0
 11
-15.0
 21
-75.0
 31
0.0
  0
LINE
  8
BASE
 10
-16.11905
 20
-73.055575
 30
0.0
 11
-15.439687
 21
-73.991319
 31
0.0
  0
LINE
  8
BASE
  6
CONTINUOUS
 10
-26.5
 20
-23.5
 30
0.0
 11
-26.5
 21
-30.5
 31
0.0
  0
LINE
  8
BASE
  6
CONTINUOUS
 10
-26.5
 20
-30.5
 30
0.0
 11
-27.5
 21
-31.5
 31
0.0
  0
LINE
  8
BASE
  6
CONTINUOUS
 10
-26.5
 20
-23.5
 30
0.0
 11
-27.5
 21
-22.5
 31
0.0
  0
LINE
  8
BASE
  6
CONTINUOUS
 10
-26.5
 20
-43.5
 30
0.0
 11
-27.5
 21
-42.5
 31
0.0
  0
LINE
  8
BASE
  6
CONTINUOUS
 10
-26.5
 20
-43.5
 30
0.0
 11
-26.5
 21
-50.5
 31
0.0
  0
LINE
  8
BASE
  6
CONTINUOUS
 10
-26.5
 20
-50.5
 30
0.0
 11
-27.5
 21
-51.5
 31
0.0
  0
LINE
  8
BASE
  6
CONTINUOUS
 10
-22.5
 20
-65.0
 30
0.0
 11
-26.5
 21
-65.0
 31
0.0
  0
LINE
  8
BASE
  6
CONTINUOUS
 10
-22.5
 20
-45.0
 30
0.0
 11
-26.5
 21
-45.0
 31
0.0
  0
TEXT
  8
BASE
  6
DASHED
 10
-17.961637
 20
-28.365058
 30
0.0
 40
2.0
  1
13B
  7
ROMANS
 11
-17.961637
 21
-29.031725
 31
0.0
 73
     1
  0
TEXT
  8
BASE
  6
DASHED
 10
-17.961637
 20
-38.214285
 30
0.0
 40
2.0
  1
14B
  7
ROMANS
 11
-17.961637
 21
-38.880951
 31
0.0
 73
     1
  0
TEXT
  8
BASE
  6
DASHED
 10
-17.961637
 20
-48.228142
 30
0.0
 40
2.0
  1
15B
  7
ROMANS
 11
-17.961637
 21
-48.894808
 31
0.0
 73
     1
  0
TEXT
  8
BASE
  6
DASHED
 10
-17.961637
 20
-58.068703
 30
0.0
 40
2.0
  1
16B
  7
ROMANS
 11
-17.961637
 21
-58.73537
 31
0.0
 73
     1
  0
TEXT
  8
BASE
  6
DASHED
 10
-17.961637
 20
-68.091225
 30
0.0
 40
2.0
  1
17B
  7
ROMANS
 11
-17.961637
 21
-68.757892
 31
0.0
 73
     1
  0
TEXT
  8
BASE
  6
DASHED
 10
-17.782183
 20
-78.113746
 30
0.0
 40
2.0
  1
18B
  7
ROMANS
 11
-17.782183
 21
-78.780413
 31
0.0
 73
     1
  0
LINE
  8
BASE
  6
CONTINUOUS
 10
-26.5
 20
-70.5
 30
0.0
 11
-27.5
 21
-71.5
 31
0.0
  0
LINE
  8
BASE
  6
CONTINUOUS
 10
-26.5
 20
-63.5
 30
0.0
 11
-26.5
 21
-70.5
 31
0.0
  0
LINE
  8
BASE
  6
CONTINUOUS
 10
-26.5
 20
-63.5
 30
0.0
 11
-27.5
 21
-62.5
 31
0.0
  0
TEXT
  8
BASE
  6
CONTINUOUS
 10
-24.326283
 20
-27.784001
 30
0.0
 40
2.0
  1
RI
  7
ROMANS
  0
TEXT
  8
BASE
  6
CONTINUOUS
 10
-24.326283
 20
-77.926075
 30
0.0
 40
2.0
  1
TI
  7
ROMANS
  0
TEXT
  8
BASE
  6
CONTINUOUS
 10
-24.326283
 20
-67.744992
 30
0.0
 40
2.0
  1
TI
  7
ROMANS
  0
TEXT
  8
BASE
  6
CONTINUOUS
 10
-24.326283
 20
-37.635823
 30
0.0
 40
2.0
  1
RI
  7
ROMANS
  0
TEXT
  8
BASE
  6
CONTINUOUS
 10
-19.612617
 20
-15.913291
 30
0.0
 40
2.0
  1
101
  7
ROMANS
  0
LINE
  8
BASE
  6
CONTINUOUS
 10
-26.5
 20
-83.5
 30
0.0
 11
-27.5
 21
-82.5
 31
0.0
  0
LINE
  8
BASE
  6
CONTINUOUS
 10
-26.5
 20
-83.5
 30
0.0
 11
-26.5
 21
-90.5
 31
0.0
  0
LINE
  8
BASE
  6
CONTINUOUS
 10
-26.5
 20
-90.5
 30
0.0
 11
-27.5
 21
-91.5
 31
0.0
  0
TEXT
  8
BASE
  6
CONTINUOUS
 10
-24.326283
 20
-87.731978
 30
0.0
 40
2.0
  1
NI
  7
ROMANS
  0
LINE
  8
BASE
  6
CONTINUOUS
 10
-22.5
 20
-85.0
 30
0.0
 11
-26.5
 21
-85.0
 31
0.0
  0
LINE
  8
BASE
 10
-22.5
 20
-85.0
 30
0.0
 11
-17.5
 21
-85.0
 31
0.0
  0
LINE
  8
BASE
 10
-20.0
 20
-90.00155
 30
0.0
 11
-20.0
 21
-80.00155
 31
0.0
  0
LINE
  8
BASE
 10
-17.5
 20
-90.001549
 30
0.0
 11
-15.0
 21
-90.001549
 31
0.0
  0
LINE
  8
BASE
 10
-17.5
 20
-90.00155
 30
0.0
 11
-20.0
 21
-90.00155
 31
0.0
  0
LINE
  8
BASE
 10
-20.0
 20
-80.00155
 30
0.0
 11
-17.5
 21
-80.00155
 31
0.0
  0
LINE
  8
BASE
 10
-17.5
 20
-80.0
 30
0.0
 11
-15.0
 21
-80.0
 31
0.0
  0
LINE
  8
BASE
 10
-16.11905
 20
-83.055575
 30
0.0
 11
-15.439687
 21
-83.991319
 31
0.0
  0
LINE
  8
BASE
 10
-17.5
 20
-85.0
 30
0.0
 11
-15.0
 21
-85.0
 31
0.0
  0
LINE
  8
BASE
 10
-10.050448
 20
-80.030442
 30
0.0
 11
-15.8
 21
-83.5
 31
0.0
  0
LINE
  8
BASE
 10
-15.0
 20
-85.0
 30
0.0
 11
-15.0
 21
-82.1
 31
0.0
  0
CIRCLE
  8
BASE
  6
CONTINUOUS
 10
-9.050449
 20
-80.028782
 30
0.0
 40
1.0
  0
LINE
  8
BASE
 10
-16.11905
 20
-93.055575
 30
0.0
 11
-15.439687
 21
-93.991319
 31
0.0
  0
LINE
  8
BASE
 10
-17.5
 20
-95.0
 30
0.0
 11
-15.0
 21
-95.0
 31
0.0
  0
LINE
  8
BASE
 10
-15.0
 20
-95.0
 30
0.0
 11
-15.0
 21
-92.1
 31
0.0
  0
LINE
  8
BASE
 10
-10.050448
 20
-90.030442
 30
0.0
 11
-15.8
 21
-93.5
 31
0.0
  0
CIRCLE
  8
BASE
  6
CONTINUOUS
 10
-9.050449
 20
-90.028782
 30
0.0
 40
1.0
  0
TEXT
  8
BASE
  6
CONTINUOUS
 10
-17.764709
 20
-88.940088
 30
0.0
 40
2.0
  1
19B
  7
ROMANS
  0
TEXT
  8
BASE
  6
CONTINUOUS
 10
-17.764709
 20
-97.870666
 30
0.0
 40
2.0
  1
20B
  7
ROMANS
  0
TEXT
  8
BASE
  6
CONTINUOUS
 10
-24.326283
 20
-97.731978
 30
0.0
 40
2.0
  1
NI
  7
ROMANS
  0
TEXT
  8
BASE
  6
CONTINUOUS
 10
-24.365116
 20
-47.531619
 30
0.0
 40
2.0
  1
SI
  7
ROMANS
  0
TEXT
  8
BASE
  6
CONTINUOUS
 10
-24.365116
 20
-57.687464
 30
0.0
 40
2.0
  1
SI
  7
ROMANS
  0
TEXT
  8
BASE
  6
CONTINUOUS
 10
-25.723646
 20
-23.880245
 30
0.0
 40
2.0
  1
1)
  7
ROMANS
  0
TEXT
  8
BASE
  6
CONTINUOUS
 10
-25.723646
 20
-43.880245
 30
0.0
 40
2.0
  1
1)
  7
ROMANS
  0
TEXT
  8
BASE
  6
CONTINUOUS
 10
-25.723646
 20
-63.880245
 30
0.0
 40
2.0
  1
1)
  7
ROMANS
  0
TEXT
  8
BASE
  6
CONTINUOUS
 10
-25.723646
 20
-83.880245
 30
0.0
 40
2.0
  1
1)
  7
ROMANS
  0
LINE
  8
BASE
  6
DASHED
 10
-242.5
 20
-160.0
 30
0.0
 11
-265.0
 21
-160.0
 31
0.0
  0
LINE
  8
0
  6
DASHED
 10
-265.0
 20
-185.0
 30
0.0
 11
-270.0
 21
-185.0
 31
0.0
  0
LINE
  8
0
  6
DASHED
 10
-265.0
 20
-175.0
 30
0.0
 11
-270.0
 21
-175.0
 31
0.0
  0
LINE
  8
0
  6
DASHED
 10
-265.0
 20
-160.0
 30
0.0
 11
-270.0
 21
-160.0
 31
0.0
  0
LINE
  8
0
  6
DASHED
 10
-265.0
 20
-155.0
 30
0.0
 11
-270.0
 21
-155.0
 31
0.0
  0
LINE
  8
0
  6
DASHED
 10
-265.0
 20
-145.0
 30
0.0
 11
-270.0
 21
-145.0
 31
0.0
  0
LINE
  8
0
  6
DASHED
 10
-265.0
 20
-135.0
 30
0.0
 11
-270.0
 21
-135.0
 31
0.0
  0
LINE
  8
0
  6
DASHED
 10
-265.0
 20
-130.0
 30
0.0
 11
-270.0
 21
-130.0
 31
0.0
  0
LINE
  8
0
  6
DASHED
 10
-265.0
 20
-125.0
 30
0.0
 11
-270.0
 21
-125.0
 31
0.0
  0
LINE
  8
BASE
  6
CONTINUOUS
 10
-242.5
 20
-180.0
 30
0.0
 11
-245.0
 21
-180.0
 31
0.0
  0
LINE
  8
BASE
  6
CONTINUOUS
 10
-242.5
 20
-165.0
 30
0.0
 11
-245.0
 21
-165.0
 31
0.0
  0
LINE
  8
BASE
  6
CONTINUOUS
 10
-242.5
 20
-150.0
 30
0.0
 11
-245.0
 21
-150.0
 31
0.0
  0
LINE
  8
BASE
  6
DASHED
 10
-242.5
 20
-175.0
 30
0.0
 11
-265.0
 21
-175.0
 31
0.0
  0
LINE
  8
BASE
  6
DASHED
 10
-242.5
 20
-145.0
 30
0.0
 11
-265.0
 21
-145.0
 31
0.0
  0
LINE
  8
0
  6
DASHED
 10
-265.0
 20
-120.0
 30
0.0
 11
-270.0
 21
-120.0
 31
0.0
  0
LINE
  8
BASE
  6
DASHED
 10
-242.5
 20
-130.0
 30
0.0
 11
-265.0
 21
-130.0
 31
0.0
  0
LINE
  8
BASE
  6
CONTINUOUS
 10
-72.049385
 20
-195.0
 30
0.0
 11
-72.049385
 21
-202.5
 31
0.0
  0
LINE
  8
BASE
  6
CONTINUOUS
 10
-60.0
 20
-195.0
 30
0.0
 11
-60.0
 21
-202.5
 31
0.0
  0
LINE
  8
BASE
  6
CONTINUOUS
 10
-65.0
 20
-195.0
 30
0.0
 11
-65.0
 21
-202.5
 31
0.0
  0
LINE
  8
BASE
  6
CONTINUOUS
 10
-102.5
 20
-195.0
 30
0.0
 11
-102.5
 21
-202.5
 31
0.0
  0
LINE
  8
BASE
  6
CONTINUOUS
 10
-135.0
 20
-195.0
 30
0.0
 11
-135.0
 21
-202.5
 31
0.0
  0
LINE
  8
BASE
  6
CONTINUOUS
 10
-150.0
 20
-195.0
 30
0.0
 11
-150.0
 21
-202.5
 31
0.0
  0
LINE
  8
BASE
  6
CONTINUOUS
 10
-162.5
 20
-195.0
 30
0.0
 11
-162.5
 21
-202.5
 31
0.0
  0
LINE
  8
BASE
  6
CENTER
 10
-265.0
 20
-202.5
 30
0.0
 11
0.0
 21
-202.5
 31
0.0
  0
LINE
  8
BASE
  6
CENTER
 10
0.0
 20
0.0
 30
0.0
 11
-265.0
 21
0.0
 31
0.0
  0
POLYLINE
  8
BASE
  6
CONTINUOUS
 66
     1
 10
0.0
 20
0.0
 30
0.0
 70
     1
 40
0.5
 41
0.5
  0
VERTEX
  8
BASE
  6
CONTINUOUS
 10
-248.0
 20
-185.0
 30
0.0
 42
1.0
  0
VERTEX
  8
BASE
  6
CONTINUOUS
 10
-247.0
 20
-185.0
 30
0.0
 42
1.0
  0
SEQEND
  8
BASE
  6
CONTINUOUS
  0
CIRCLE
  8
BASE
  6
CONTINUOUS
 10
-244.597708
 20
-121.934976
 30
0.0
 40
1.191865
  0
CIRCLE
  8
BASE
  6
CONTINUOUS
 10
-244.597708
 20
-121.934976
 30
0.0
 40
0.705421
  0
LINE
  8
BASE
  6
CONTINUOUS
 10
-244.246804
 20
-107.5
 30
0.0
 11
-250.000117
 21
-107.5
 31
0.0
  0
LINE
  8
BASE
  6
CONTINUOUS
 10
-258.162841
 20
-122.565196
 30
0.0
 11
-258.607734
 21
-123.450894
 31
0.0
  0
LINE
  8
BASE
  6
CONTINUOUS
 10
-258.162841
 20
-105.065196
 30
0.0
 11
-258.607734
 21
-105.950894
 31
0.0
  0
CIRCLE
  8
BASE
  6
CONTINUOUS
 10
-250.741055
 20
-185.0
 30
0.0
 40
0.740939
  0
LINE
  8
BASE
  6
CONTINUOUS
 10
-258.162841
 20
-182.565196
 30
0.0
 11
-258.607734
 21
-183.450894
 31
0.0
  0
LINE
  8
BASE
  6
CONTINUOUS
 10
-257.5
 20
-185.0
 30
0.0
 11
-257.5
 21
-182.234339
 31
0.0
  0
LINE
  8
BASE
  6
CONTINUOUS
 10
-251.481965
 20
-185.006589
 30
0.0
 11
-258.162841
 21
-182.565196
 31
0.0
  0
TEXT
  8
BASE
  6
DASHED
 10
-263.160336
 20
-111.549496
 30
0.0
 40
2.0
  1
12A
  7
ROMANS
  0
TEXT
  8
BASE
  6
DASHED
 10
-251.304519
 20
-111.428272
 30
0.0
 40
2.0
  1
12B-
  7
ROMANS
  0
TEXT
  8
BASE
  6
DASHED
 10
-250.421207
 20
-122.958045
 30
0.0
 40
2.0
  1
2B
  7
ROMANS
  0
TEXT
  8
BASE
  6
DASHED
 10
-263.160336
 20
-123.079269
 30
0.0
 40
2.0
  1
2A
  7
ROMANS
  0
TEXT
  8
BASE
  6
DASHED
 10
-263.160336
 20
-128.602839
 30
0.0
 40
2.0
  1
1A
  7
ROMANS
  0
TEXT
  8
BASE
  6
DASHED
 10
-250.421207
 20
-128.481615
 30
0.0
 40
2.0
  1
1B+
  7
ROMANS
  0
CIRCLE
  8
BASE
  6
CONTINUOUS
 10
-250.741055
 20
-107.5
 30
0.0
 40
0.740939
  0
LINE
  8
BASE
  6
CONTINUOUS
 10
-257.5
 20
-107.5
 30
0.0
 11
-257.5
 21
-104.734339
 31
0.0
  0
LINE
  8
BASE
  6
CONTINUOUS
 10
-257.5
 20
-107.5
 30
0.0
 11
-265.0
 21
-107.5
 31
0.0
  0
LINE
  8
BASE
  6
CONTINUOUS
 10
-251.481965
 20
-107.506589
 30
0.0
 11
-258.162841
 21
-105.065196
 31
0.0
  0
LINE
  8
BASE
  6
CONTINUOUS
 10
-242.5
 20
-120.0
 30
0.0
 11
-250.000117
 21
-120.0
 31
0.0
  0
CIRCLE
  8
BASE
  6
CONTINUOUS
 10
-250.741055
 20
-120.0
 30
0.0
 40
0.740939
  0
LINE
  8
BASE
  6
CONTINUOUS
 10
-257.5
 20
-120.0
 30
0.0
 11
-265.0
 21
-120.0
 31
0.0
  0
LINE
  8
BASE
  6
CONTINUOUS
 10
-257.5
 20
-120.0
 30
0.0
 11
-257.5
 21
-117.234339
 31
0.0
  0
LINE
  8
BASE
  6
CONTINUOUS
 10
-251.481965
 20
-120.006589
 30
0.0
 11
-258.162841
 21
-117.565196
 31
0.0
  0
LINE
  8
BASE
  6
CONTINUOUS
 10
-242.5
 20
-125.0
 30
0.0
 11
-250.000117
 21
-125.0
 31
0.0
  0
CIRCLE
  8
BASE
  6
CONTINUOUS
 10
-250.741055
 20
-125.0
 30
0.0
 40
0.740939
  0
LINE
  8
BASE
  6
CONTINUOUS
 10
-257.5
 20
-125.0
 30
0.0
 11
-265.0
 21
-125.0
 31
0.0
  0
LINE
  8
BASE
  6
CONTINUOUS
 10
-257.5
 20
-125.0
 30
0.0
 11
-257.5
 21
-122.234339
 31
0.0
  0
LINE
  8
BASE
  6
CONTINUOUS
 10
-251.481965
 20
-125.006589
 30
0.0
 11
-258.162841
 21
-122.565196
 31
0.0
  0
TEXT
  8
BASE
  6
DASHED
 10
-250.923983
 20
-138.819745
 30
0.0
 40
2.0
  1
3B
  7
ROMANS
  0
TEXT
  8
BASE
  6
DASHED
 10
-263.160336
 20
-138.767569
 30
0.0
 40
2.0
  1
3A
  7
ROMANS
  0
LINE
  8
BASE
  6
CONTINUOUS
 10
-257.5
 20
-185.0
 30
0.0
 11
-265.0
 21
-185.0
 31
0.0
  0
LINE
  8
BASE
  6
CONTINUOUS
 10
-257.5
 20
-155.0
 30
0.0
 11
-265.0
 21
-155.0
 31
0.0
  0
LINE
  8
BASE
  6
CONTINUOUS
 10
-257.5
 20
-135.0
 30
0.0
 11
-265.0
 21
-135.0
 31
0.0
  0
CIRCLE
  8
BASE
  6
CONTINUOUS
 10
-250.741055
 20
-135.0
 30
0.0
 40
0.740939
  0
LINE
  8
BASE
  6
CONTINUOUS
 10
-257.5
 20
-135.0
 30
0.0
 11
-257.5
 21
-132.234339
 31
0.0
  0
LINE
  8
BASE
  6
CONTINUOUS
 10
-251.481965
 20
-135.006589
 30
0.0
 11
-258.162841
 21
-132.565196
 31
0.0
  0
CIRCLE
  8
BASE
  6
CONTINUOUS
 10
-250.741055
 20
-155.0
 30
0.0
 40
0.740939
  0
LINE
  8
BASE
  6
CONTINUOUS
 10
-257.5
 20
-155.0
 30
0.0
 11
-257.5
 21
-152.234339
 31
0.0
  0
LINE
  8
BASE
  6
CONTINUOUS
 10
-251.481965
 20
-155.006589
 30
0.0
 11
-258.162841
 21
-152.565196
 31
0.0
  0
LINE
  8
BASE
  6
CONTINUOUS
 10
-242.5
 20
-135.0
 30
0.0
 11
-250.000117
 21
-135.0
 31
0.0
  0
LINE
  8
BASE
  6
CONTINUOUS
 10
-242.5
 20
-155.0
 30
0.0
 11
-250.000117
 21
-155.0
 31
0.0
  0
TEXT
  8
BASE
  6
DASHED
 10
-263.160336
 20
-158.602839
 30
0.0
 40
2.0
  1
6A
  7
ROMANS
  0
TEXT
  8
BASE
  6
DASHED
 10
-251.075757
 20
-158.481615
 30
0.0
 40
2.0
  1
6B
  7
ROMANS
  0
LINE
  8
BASE
  6
CONTINUOUS
 10
-247.5
 20
-170.0
 30
0.0
 11
-247.5
 21
-185.0
 31
0.0
  0
LINE
  8
BASE
  6
CONTINUOUS
 10
-242.5
 20
-170.0
 30
0.0
 11
-247.5
 21
-170.0
 31
0.0
  0
TEXT
  8
BASE
  6
DASHED
 10
-262.825152
 20
-189.287769
 30
0.0
 40
2.0
  1
5A
  7
ROMANS
  0
TEXT
  8
BASE
  6
DASHED
 10
-251.39897
 20
-189.331274
 30
0.0
 40
2.0
  1
5B
  7
ROMANS
  0
LINE
  8
BASE
  6
CONTINUOUS
 10
-242.5
 20
-185.0
 30
0.0
 11
-250.000117
 21
-185.0
 31
0.0
  0
LINE
  8
0
  6
DASHED
 10
-265.0
 20
-15.0
 30
0.0
 11
-270.0
 21
-15.0
 31
0.0
  0
LINE
  8
0
  6
DASHED
 10
-265.0
 20
-20.0
 30
0.0
 11
-270.0
 21
-20.0
 31
0.0
  0
LINE
  8
0
  6
DASHED
 10
-265.0
 20
-32.5
 30
0.0
 11
-270.0
 21
-32.5
 31
0.0
  0
LINE
  8
0
  6
DASHED
 10
-265.0
 20
-40.0
 30
0.0
 11
-270.0
 21
-40.0
 31
0.0
  0
LINE
  8
0
  6
DASHED
 10
-265.0
 20
-45.0
 30
0.0
 11
-270.0
 21
-45.0
 31
0.0
  0
INSERT
  8
BASE
  6
CONTINUOUS
  2
B37
 10
-257.5
 20
-32.5
 30
0.0
 50
90.0
  0
TEXT
  8
BASE
  6
DASHED
 10
-263.160336
 20
-36.102839
 30
0.0
 40
2.0
  1
4A
  7
ROMANS
  0
TEXT
  8
BASE
  6
DASHED
 10
-257.5
 20
-29.097954
 30
0.0
 40
2.0
  1
101
  7
ROMANS
  0
LINE
  8
BASE
  6
CONTINUOUS
 10
-257.5
 20
-32.5
 30
0.0
 11
-265.0
 21
-32.5
 31
0.0
  0
TEXT
  8
BASE
  6
DASHED
 10
-251.279262
 20
-35.981615
 30
0.0
 40
2.0
  1
4B
  7
ROMANS
  0
LINE
  8
BASE
  6
CONTINUOUS
 10
-242.5
 20
-32.5
 30
0.0
 11
-250.000117
 21
-32.5
 31
0.0
  0
LINE
  8
BASE
  6
CONTINUOUS
 10
-243.999131
 20
-34.989829
 30
0.0
 11
-245.065556
 21
-36.056254
 31
0.0
  0
LINE
  8
BASE
  6
CONTINUOUS
 10
-245.065556
 20
-33.923405
 30
0.0
 11
-243.999131
 21
-34.989829
 31
0.0
  0
LINE
  8
BASE
  6
CONTINUOUS
 10
-246.131981
 20
-34.989829
 30
0.0
 11
-245.065556
 21
-33.923405
 31
0.0
  0
LINE
  8
BASE
  6
CONTINUOUS
 10
-245.065556
 20
-36.056254
 30
0.0
 11
-246.131981
 21
-34.989829
 31
0.0
  0
LINE
  8
BASE
  6
CENTER
 10
-265.0
 20
0.0
 30
0.0
 11
-265.0
 21
-202.5
 31
0.0
  0
POLYLINE
  8
0
  6
CONTINUOUS
 66
     1
 10
0.0
 20
0.0
 30
0.0
 70
     1
 40
0.5
 41
0.5
  0
VERTEX
  8
0
  6
CONTINUOUS
 10
17.0
 20
-20.0
 30
0.0
 42
1.0
  0
VERTEX
  8
0
  6
CONTINUOUS
 10
18.0
 20
-20.0
 30
0.0
 42
1.0
  0
SEQEND
  8
0
  6
CONTINUOUS
  0
TEXT
  8
0
  6
CONTINUOUS
 10
-282.125554
 20
-39.355473
 30
0.0
 40
2.0
  1
3)
  7
ROMANS
  0
LINE
  8
BASE
  6
DASHED
 10
-242.5
 20
-20.0
 30
0.0
 11
-265.0
 21
-20.0
 31
0.0
  0
INSERT
  8
0
  6
DASHED
  2
BLC42
 10
-272.635786
 20
-20.0
 30
0.0
  0
INSERT
  8
0
  6
DASHED
  2
BLC43
 10
-272.635786
 20
-15.0
 30
0.0
  0
LINE
  8
BASE
  6
DASHED
 10
-242.5
 20
-15.0
 30
0.0
 11
-265.0
 21
-15.0
 31
0.0
  0
LINE
  8
0
  6
CONTINUOUS
 10
-277.784634
 20
-20.000345
 30
0.0
 11
-276.784634
 21
-21.000345
 31
0.0
  0
LINE
  8
0
  6
CONTINUOUS
 10
-277.784634
 20
-15.0
 30
0.0
 11
-277.784634
 21
-20.000345
 31
0.0
  0
LINE
  8
0
  6
CONTINUOUS
 10
-277.784634
 20
-15.0
 30
0.0
 11
-276.784634
 21
-14.0
 31
0.0
  0
TEXT
  8
0
  6
CONTINUOUS
 10
43.097664
 20
-154.836636
 30
0.0
 40
2.0
  1
1)
  7
ROMANS
  0
LINE
  8
0
  6
CONTINUOUS
 10
45.354145
 20
-110.0
 30
0.0
 11
45.354145
 21
-92.5
 31
0.0
  0
LINE
  8
0
  6
DASHED
 10
38.798944
 20
-157.746983
 30
0.0
 11
7.5
 21
-157.746983
 31
0.0
  0
TEXT
  8
BASE
  6
HIDDEN
 10
-20.708566
 20
-130.880499
 30
0.0
 40
2.0
  1
U1
  7
ROMANS
  0
LINE
  8
BASE
  6
DASHED
 10
-32.5
 20
-132.5
 30
0.0
 11
-28.233529
 21
-132.5
 31
0.0
  0
LINE
  8
BASE
  6
DASHED
 10
-32.5
 20
-137.5
 30
0.0
 11
-28.233529
 21
-137.5
 31
0.0
  0
LINE
  8
BASE
  6
DASHED
 10
-32.5
 20
-142.5
 30
0.0
 11
0.0
 21
-142.5
 31
0.0
  0
LINE
  8
BASE
  6
DASHED
 10
-32.5
 20
-152.5
 30
0.0
 11
-28.233529
 21
-152.5
 31
0.0
  0
LINE
  8
BASE
  6
DASHED
 10
-32.5
 20
-157.5
 30
0.0
 11
-28.233529
 21
-157.5
 31
0.0
  0
LINE
  8
BASE
  6
DASHED
 10
-32.5
 20
-162.5
 30
0.0
 11
0.0
 21
-162.5
 31
0.0
  0
LINE
  8
BASE
  6
DASHED
 10
-32.5
 20
-172.5
 30
0.0
 11
-28.233529
 21
-172.5
 31
0.0
  0
LINE
  8
BASE
  6
DASHED
 10
-32.5
 20
-177.5
 30
0.0
 11
-28.233529
 21
-177.5
 31
0.0
  0
LINE
  8
BASE
  6
DASHED
 10
-32.5
 20
-182.5
 30
0.0
 11
0.0
 21
-182.5
 31
0.0
  0
LINE
  8
BASE
  6
CONTINUOUS
 10
-26.5
 20
-171.0
 30
0.0
 11
-27.5
 21
-170.0
 31
0.0
  0
LINE
  8
BASE
  6
CONTINUOUS
 10
-26.5
 20
-171.0
 30
0.0
 11
-26.5
 21
-178.0
 31
0.0
  0
LINE
  8
BASE
  6
CONTINUOUS
 10
-26.5
 20
-178.0
 30
0.0
 11
-27.5
 21
-179.0
 31
0.0
  0
LINE
  8
BASE
  6
CONTINUOUS
 10
-26.5
 20
-158.0
 30
0.0
 11
-27.5
 21
-159.0
 31
0.0
  0
LINE
  8
BASE
  6
CONTINUOUS
 10
-26.5
 20
-151.0
 30
0.0
 11
-26.5
 21
-158.0
 31
0.0
  0
LINE
  8
BASE
  6
CONTINUOUS
 10
-26.5
 20
-151.0
 30
0.0
 11
-27.5
 21
-150.0
 31
0.0
  0
LINE
  8
BASE
  6
CONTINUOUS
 10
-26.5
 20
-131.0
 30
0.0
 11
-27.5
 21
-130.0
 31
0.0
  0
LINE
  8
BASE
  6
CONTINUOUS
 10
-26.5
 20
-138.0
 30
0.0
 11
-27.5
 21
-139.0
 31
0.0
  0
LINE
  8
BASE
  6
CONTINUOUS
 10
-26.5
 20
-131.0
 30
0.0
 11
-26.5
 21
-138.0
 31
0.0
  0
LINE
  8
BASE
  6
DASHED
 10
-26.5
 20
-172.5
 30
0.0
 11
-15.0
 21
-172.5
 31
0.0
  0
LINE
  8
0
  6
CONTINUOUS
 10
7.5
 20
-182.5
 30
0.0
 11
6.5
 21
-183.5
 31
0.0
  0
LINE
  8
0
  6
CONTINUOUS
 10
7.5
 20
-182.5
 30
0.0
 11
7.5
 21
-152.5
 31
0.0
  0
LINE
  8
0
  6
CONTINUOUS
 10
7.5
 20
-152.5
 30
0.0
 11
7.5
 21
-132.5
 31
0.0
  0
LINE
  8
0
  6
CONTINUOUS
 10
7.5
 20
-132.5
 30
0.0
 11
6.5
 21
-131.5
 31
0.0
  0
TEXT
  8
BASE
  6
HIDDEN
 10
-25.18515
 20
-131.38097
 30
0.0
 40
2.0
  1
1)
  7
ROMANS
  0
TEXT
  8
BASE
  6
HIDDEN
 10
-25.18515
 20
-151.38097
 30
0.0
 40
2.0
  1
1)
  7
ROMANS
  0
TEXT
  8
BASE
  6
HIDDEN
 10
-25.18515
 20
-171.38097
 30
0.0
 40
2.0
  1
1)
  7
ROMANS
  0
TEXT
  8
BASE
  6
HIDDEN
 10
-25.18515
 20
-103.88097
 30
0.0
 40
2.0
  1
1)
  7
ROMANS
  0
LINE
  8
0
  6
CONTINUOUS
 10
-277.165049
 20
-130.0
 30
0.0
 11
-277.165049
 21
-135.0
 31
0.0
  0
LINE
  8
0
  6
CONTINUOUS
 10
-277.165049
 20
-135.000345
 30
0.0
 11
-276.165049
 21
-136.000345
 31
0.0
  0
LINE
  8
0
  6
CONTINUOUS
 10
-277.165049
 20
-130.0
 30
0.0
 11
-276.165049
 21
-129.0
 31
0.0
  0
TEXT
  8
0
  6
HIDDEN
 10
-282.110338
 20
-18.604114
 30
0.0
 40
2.0
  1
2)
  7
ROMANS
  0
LINE
  8
0
  6
DASHED
 10
7.5
 20
-55.0
 30
0.0
 11
15.0
 21
-55.0
 31
0.0
  0
CIRCLE
  8
0
  6
CONTINUOUS
 10
17.5
 20
-55.0
 30
0.0
 40
2.5
  0
LINE
  8
0
  6
DASHED
 10
30.0
 20
-110.0
 30
0.0
 11
7.5
 21
-110.0
 31
0.0
  0
LINE
  8
0
  6
DASHED
 10
17.5
 20
-20.0
 30
0.0
 11
17.5
 21
-80.0
 31
0.0
  0
LINE
  8
0
  6
CONTINUOUS
 10
7.5
 20
-105.0
 30
0.0
 11
7.5
 21
-115.0
 31
0.0
  0
LINE
  8
0
  6
CONTINUOUS
 10
7.5
 20
-105.0
 30
0.0
 11
6.5
 21
-104.0
 31
0.0
  0
LINE
  8
0
  6
CONTINUOUS
 10
7.5
 20
-115.0
 30
0.0
 11
6.5
 21
-116.0
 31
0.0
  0
LINE
  8
0
  6
CONTINUOUS
 10
7.5
 20
-20.0
 30
0.0
 11
6.5
 21
-19.0
 31
0.0
  0
LINE
  8
0
  6
CONTINUOUS
 10
7.5
 20
-40.0
 30
0.0
 11
7.5
 21
-20.0
 31
0.0
  0
LINE
  8
0
  6
CONTINUOUS
 10
7.5
 20
-90.0
 30
0.0
 11
7.5
 21
-40.0
 31
0.0
  0
LINE
  8
0
  6
CONTINUOUS
 10
7.5
 20
-90.0
 30
0.0
 11
6.5
 21
-91.0
 31
0.0
  0
LINE
  8
BASE
  6
DASHED
 10
-32.5
 20
-115.0
 30
0.0
 11
0.0
 21
-115.0
 31
0.0
  0
LINE
  8
BASE
  6
DASHED
 10
-26.5
 20
-105.0
 30
0.0
 11
-15.0
 21
-105.0
 31
0.0
  0
LINE
  8
0
  6
CONTINUOUS
 10
-277.165049
 20
-160.0
 30
0.0
 11
-277.165049
 21
-185.000345
 31
0.0
  0
LINE
  8
0
  6
CONTINUOUS
 10
-277.165049
 20
-185.000345
 30
0.0
 11
-276.165049
 21
-186.000345
 31
0.0
  0
LINE
  8
0
  6
CONTINUOUS
 10
-277.165049
 20
-160.0
 30
0.0
 11
-276.165049
 21
-159.0
 31
0.0
  0
LINE
  8
0
  6
CONTINUOUS
 10
-277.784634
 20
-32.5
 30
0.0
 11
-277.784634
 21
-45.000345
 31
0.0
  0
LINE
  8
0
  6
CONTINUOUS
 10
-277.784634
 20
-32.5
 30
0.0
 11
-276.784634
 21
-31.5
 31
0.0
  0
LINE
  8
0
  6
CONTINUOUS
 10
-277.784634
 20
-45.000345
 30
0.0
 11
-276.784634
 21
-46.000345
 31
0.0
  0
INSERT
  8
0
  6
DASHED
  2
BLC42
 10
-272.635786
 20
-45.0
 30
0.0
  0
INSERT
  8
0
  6
DASHED
  2
BLC43
 10
-272.635786
 20
-40.0
 30
0.0
  0
INSERT
  8
0
  6
DASHED
  2
BLC43
 10
-272.635786
 20
-32.5
 30
0.0
  0
LINE
  8
BASE
  6
DASHED
 10
-242.5
 20
-45.0
 30
0.0
 11
-265.0
 21
-45.0
 31
0.0
  0
LINE
  8
BASE
  6
DASHED
 10
-242.5
 20
-40.0
 30
0.0
 11
-265.0
 21
-40.0
 31
0.0
  0
LINE
  8
BASE
  6
DASHED
 10
-32.5
 20
-105.0
 30
0.0
 11
-28.233529
 21
-105.0
 31
0.0
  0
LINE
  8
BASE
  6
DASHED
 10
-32.5
 20
-110.0
 30
0.0
 11
-28.233529
 21
-110.0
 31
0.0
  0
LINE
  8
BASE
  6
CONTINUOUS
 10
-26.5
 20
-103.5
 30
0.0
 11
-27.5
 21
-102.5
 31
0.0
  0
LINE
  8
BASE
  6
CONTINUOUS
 10
-26.5
 20
-103.5
 30
0.0
 11
-26.5
 21
-110.5
 31
0.0
  0
LINE
  8
BASE
  6
CONTINUOUS
 10
-26.5
 20
-110.5
 30
0.0
 11
-27.5
 21
-111.5
 31
0.0
  0
TEXT
  8
0
  6
CONTINUOUS
 10
-281.827648
 20
-123.410156
 30
0.0
 40
2.0
  1
4)
  7
ROMANS
  0
LINE
  8
0
  6
CONTINUOUS
 10
-277.165049
 20
-155.000345
 30
0.0
 11
-276.165049
 21
-156.000345
 31
0.0
  0
LINE
  8
0
  6
CONTINUOUS
 10
-277.165049
 20
-145.0
 30
0.0
 11
-276.165049
 21
-144.0
 31
0.0
  0
LINE
  8
0
  6
CONTINUOUS
 10
-277.165049
 20
-145.0
 30
0.0
 11
-277.165049
 21
-155.000345
 31
0.0
  0
LINE
  8
0
  6
HIDDEN
 10
-72.049385
 20
-202.5
 30
0.0
 11
-72.049385
 21
-210.0
 31
0.0
  0
LINE
  8
0
  6
HIDDEN
 10
-102.5
 20
-202.5
 30
0.0
 11
-102.5
 21
-210.0
 31
0.0
  0
LINE
  8
0
  6
CONTINUOUS
 10
-60.0
 20
-202.5
 30
0.0
 11
-60.0
 21
-210.0
 31
0.0
  0
LINE
  8
0
  6
CONTINUOUS
 10
-65.0
 20
-202.5
 30
0.0
 11
-65.0
 21
-210.0
 31
0.0
  0
LINE
  8
0
  6
CONTINUOUS
 10
-135.0
 20
-202.5
 30
0.0
 11
-135.0
 21
-210.0
 31
0.0
  0
LINE
  8
0
  6
CONTINUOUS
 10
-150.0
 20
-202.5
 30
0.0
 11
-150.0
 21
-210.0
 31
0.0
  0
LINE
  8
0
  6
CONTINUOUS
 10
-162.5
 20
-202.5
 30
0.0
 11
-162.5
 21
-210.0
 31
0.0
  0
LINE
  8
0
  6
CONTINUOUS
 10
-162.5
 20
-213.144622
 30
0.0
 11
-163.5
 21
-212.144622
 31
0.0
  0
LINE
  8
0
  6
CONTINUOUS
 10
-59.999655
 20
-213.144622
 30
0.0
 11
-58.999655
 21
-212.144622
 31
0.0
  0
LINE
  8
0
  6
CONTINUOUS
 10
-162.5
 20
-213.144622
 30
0.0
 11
-59.999655
 21
-213.144622
 31
0.0
  0
TEXT
  8
0
  6
HIDDEN
 10
-114.015074
 20
-219.476806
 30
0.0
 40
2.0
  1
SHEET 2
  7
ROMANS
  0
LINE
  8
0
  6
DASHED
 10
10.700766
 20
-20.0
 30
0.0
 11
51.576691
 21
-20.0
 31
0.0
  0
TEXT
  8
0
  6
CONTINUOUS
 10
56.0915
 20
-146.455388
 30
0.0
 40
2.0
  1
RK 926 315-AC
  7
ROMANS
  0
TEXT
  8
0
  6
CONTINUOUS
 10
56.0915
 20
-143.412001
 30
0.0
 40
2.0
  1
RTXP 24
  7
ROMANS
  0
LINE
  8
0
  6
CONTINUOUS
 10
62.674162
 20
-165.978981
 30
0.0
 11
48.674162
 21
-165.978981
 31
0.0
  0
TEXT
  8
0
  6
DASHED
 10
75.224714
 20
-164.640816
 30
0.0
 40
2.0
  1
108:
  7
ROMANS
  0
LINE
  8
0
  6
CONTINUOUS
 10
62.674162
 20
-161.448457
 30
0.0
 11
94.431282
 21
-161.448457
 31
0.0
  0
TEXT
  8
0
  6
DASHED
 10
50.90314
 20
-169.438277
 30
0.0
 40
2.0
  1
101:
  7
ROMANS
  0
TEXT
  8
0
  6
CONTINUOUS
 10
50.90314
 20
-188.101807
 30
0.0
 40
2.0
  1
19B
  7
ROMANS
  0
TEXT
  8
0
  6
CONTINUOUS
 10
55.532561
 20
-135.206653
 30
0.0
 40
1.8
  1
(3U)
 50
90.0
  7
ROMANS
  0
LINE
  8
0
  6
CONTINUOUS
 10
56.811944
 20
-119.141775
 30
0.0
 11
68.864646
 21
-119.141775
 31
0.0
  0
LINE
  8
0
  6
CONTINUOUS
 10
68.864646
 20
-119.141775
 30
0.0
 11
68.864646
 21
-136.641775
 31
0.0
  0
LINE
  8
0
  6
CONTINUOUS
 10
68.864646
 20
-136.641775
 30
0.0
 11
56.811944
 21
-136.641775
 31
0.0
  0
LINE
  8
0
  6
CONTINUOUS
 10
56.811944
 20
-136.641775
 30
0.0
 11
56.811944
 21
-119.141775
 31
0.0
  0
TEXT
  8
0
  6
CONTINUOUS
 10
55.686036
 20
-140.083852
 30
0.0
 40
2.0
  1
18 X 5,08 = 91,44 mm
  7
ROMANS
  0
TEXT
  8
0
  6
CONTINUOUS
 10
52.158027
 20
-135.206653
 30
0.0
 40
1.8
  1
132,5 mm
 50
90.0
  7
ROMANS
  0
TEXT
  8
0
  6
CONTINUOUS
 10
60.177889
 20
-115.120528
 30
0.0
 40
2.0
  1
SPAC 531 C1
  7
ROMANS
  0
TEXT
  8
0
  6
CONTINUOUS
 10
84.77278
 20
-188.333517
 30
0.0
 40
2.0
  1
26
  7
ROMANS
  0
TEXT
  8
0
  6
CONTINUOUS
 10
67.462
 20
-188.333517
 30
0.0
 40
2.0
  1
27
  7
ROMANS
  0
TEXT
  8
0
  6
CONTINUOUS
 10
84.376353
 20
-210.472785
 30
0.0
 40
2.0
  1
21
  7
ROMANS
  0
TEXT
  8
0
  6
CONTINUOUS
 10
84.376353
 20
-206.621494
 30
0.0
 40
2.0
  1
18
  7
ROMANS
  0
TEXT
  8
0
  6
CONTINUOUS
 10
84.376353
 20
-202.549796
 30
0.0
 40
2.0
  1
15
  7
ROMANS
  0
TEXT
  8
0
  6
CONTINUOUS
 10
67.447836
 20
-210.483805
 30
0.0
 40
2.0
  1
20
  7
ROMANS
  0
TEXT
  8
0
  6
CONTINUOUS
 10
67.435602
 20
-206.610474
 30
0.0
 40
2.0
  1
17
  7
ROMANS
  0
TEXT
  8
0
  6
CONTINUOUS
 10
67.435602
 20
-202.527755
 30
0.0
 40
2.0
  1
14
  7
ROMANS
  0
LINE
  8
0
  6
CONTINUOUS
 10
62.674162
 20
-189.90978
 30
0.0
 11
94.431282
 21
-189.90978
 31
0.0
  0
TEXT
  8
0
  6
HIDDEN
 10
50.93997
 20
-210.508009
 30
0.0
 40
2.0
  1
23B
  7
ROMANS
  0
TEXT
  8
0
  6
HIDDEN
 10
50.93997
 20
-206.59845
 30
0.0
 40
2.0
  1
22B
  7
ROMANS
  0
TEXT
  8
0
  6
HIDDEN
 10
50.93997
 20
-202.525896
 30
0.0
 40
2.0
  1
21B
  7
ROMANS
  0
TEXT
  8
0
  6
HIDDEN
 10
50.970707
 20
-198.437134
 30
0.0
 40
2.0
  1
24B
  7
ROMANS
  0
LINE
  8
0
 10
94.431282
 20
-152.478981
 30
0.0
 11
48.674162
 21
-152.478981
 31
0.0
  0
TEXT
  8
0
  6
CONTINUOUS
 10
85.826723
 20
-179.82614
 30
0.0
 40
2.0
  1
5
  7
ROMANS
  0
TEXT
  8
0
  6
CONTINUOUS
 10
68.865913
 20
-179.82614
 30
0.0
 40
2.0
  1
6
  7
ROMANS
  0
TEXT
  8
0
  6
CONTINUOUS
 10
50.90314
 20
-179.83716
 30
0.0
 40
2.0
  1
15B
  7
ROMANS
  0
TEXT
  8
0
  6
CONTINUOUS
 10
102.026384
 20
-107.5
 30
0.0
 40
1.8
  1
132,5 mm
 50
90.0
  7
ROMANS
  0
TEXT
  8
0
  6
CONTINUOUS
 10
66.984574
 20
-90.763013
 30
0.0
 40
1.8
  1
482,6 mm
  7
ROMANS
  0
LINE
  8
0
  6
CONTINUOUS
 10
97.854145
 20
-110.0
 30
0.0
 11
45.354145
 21
-110.0
 31
0.0
  0
LINE
  8
0
  6
CONTINUOUS
 10
97.854145
 20
-92.5
 30
0.0
 11
97.854145
 21
-110.0
 31
0.0
  0
LINE
  8
0
  6
CONTINUOUS
 10
45.354145
 20
-92.5
 30
0.0
 11
97.854145
 21
-92.5
 31
0.0
  0
TEXT
  8
0
  6
CONTINUOUS
 10
84.534247
 20
-198.465695
 30
0.0
 40
2.0
  1
30
  7
ROMANS
  0
TEXT
  8
0
  6
CONTINUOUS
 10
67.646481
 20
-198.465695
 30
0.0
 40
2.0
  1
29
  7
ROMANS
  0
TEXT
  8
0
  6
CONTINUOUS
 10
80.078986
 20
-193.37605
 30
0.0
 40
2.0
  1
Un=110V
  7
ROMANS
  0
TEXT
  8
0
  6
CONTINUOUS
 10
64.180606
 20
-193.37605
 30
0.0
 40
2.0
  1
Un=100V
  7
ROMANS
  0
TEXT
  8
0
  6
DASHED
 10
86.025078
 20
-175.781663
 30
0.0
 40
2.0
  1
2
  7
ROMANS
  0
TEXT
  8
0
  6
DASHED
 10
69.003403
 20
-175.781663
 30
0.0
 40
2.0
  1
3
  7
ROMANS
  0
TEXT
  8
0
  6
DASHED
 10
50.90314
 20
-175.781663
 30
0.0
 40
2.0
  1
13B
  7
ROMANS
  0
TEXT
  8
0
  6
DASHED
 10
81.835679
 20
-169.510222
 30
0.0
 40
2.0
  1
In=5A
  7
ROMANS
  0
LINE
  8
0
 10
62.674162
 20
-170.478981
 30
0.0
 11
94.431282
 21
-170.478981
 31
0.0
  0
TEXT
  8
0
  6
CONTINUOUS
 10
85.857156
 20
-184.085184
 30
0.0
 40
2.0
  1
8
  7
ROMANS
  0
TEXT
  8
0
  6
CONTINUOUS
 10
68.850697
 20
-184.085184
 30
0.0
 40
2.0
  1
9
  7
ROMANS
  0
TEXT
  8
0
  6
CONTINUOUS
 10
50.90314
 20
-184.013223
 30
0.0
 40
2.0
  1
17B
  7
ROMANS
  0
TEXT
  8
0
  6
CONTINUOUS
 10
65.23984
 20
-169.830663
 30
0.0
 40
2.0
  1
In=1A
  7
ROMANS
  0
LINE
  8
0
  6
CONTINUOUS
 10
48.674162
 20
-211.451178
 30
0.0
 11
94.431282
 21
-211.451178
 31
0.0
  0
LINE
  8
0
 10
48.674162
 20
-152.478981
 30
0.0
 11
48.674162
 21
-211.451178
 31
0.0
  0
LINE
  8
0
 10
94.431282
 20
-211.451178
 30
0.0
 11
94.431282
 21
-152.478981
 31
0.0
  0
LINE
  8
0
 10
62.674162
 20
-165.978981
 30
0.0
 11
94.431282
 21
-165.978981
 31
0.0
  0
LINE
  8
0
 10
62.674162
 20
-152.478981
 30
0.0
 11
62.674162
 21
-211.451178
 31
0.0
  0
LINE
  8
0
 10
78.7971
 20
-165.978981
 30
0.0
 11
78.7971
 21
-211.451178
 31
0.0
  0
LINE
  8
0
 10
62.674162
 20
-194.4059
 30
0.0
 11
94.431282
 21
-194.4059
 31
0.0
  0
TEXT
  8
0
 10
63.082869
 20
-157.812315
 30
0.0
 40
2.0
  1
TERMINALS / UTTAG
  7
ROMANS
 11
63.082869
 21
-158.478981
 31
0.0
 73
     1
  0
TEXT
  8
0
  6
CONTINUOUS
 10
-283.84985
 20
-173.880491
 30
0.0
 40
2.0
  1
5c)
  7
ROMANS
  0
TEXT
  8
0
  6
CONTINUOUS
 10
-283.84985
 20
-150.611305
 30
0.0
 40
2.0
  1
5b)
  7
ROMANS
  0
TEXT
  8
0
  6
CONTINUOUS
 10
-283.84985
 20
-133.392304
 30
0.0
 40
2.0
  1
5a)
  7
ROMANS
  0
ENDBLK
  8
0
  0
BLOCK
  8
0
  2
B37
 70
    64
 10
0.0
 20
0.0
 30
0.0
  3
B37
  0
LINE
  8
BASE
  6
CONTINUOUS
 10
-0.006589
 20
-6.018035
 30
0.0
 11
2.434804
 21
0.662841
 31
0.0
  0
LINE
  8
BASE
  6
CONTINUOUS
 10
0.0
 20
0.0
 30
0.0
 11
2.765661
 21
0.0
 31
0.0
  0
LINE
  8
BASE
  6
CONTINUOUS
 10
2.434804
 20
0.662841
 30
0.0
 11
1.549106
 21
1.107734
 31
0.0
  0
CIRCLE
  8
BASE
  6
CONTINUOUS
 10
0.0
 20
-6.758945
 30
0.0
 40
0.740939
  0
ENDBLK
  8
0
  0
BLOCK
  8
0
  2
B231
 70
    64
 10
0.0
 20
0.0
 30
0.0
  3
B231
  0
LINE
  8
BASE
  6
CONTINUOUS
 10
1.735546
 20
-0.013541
 30
0.0
 11
0.068173
 21
-0.013541
 31
0.0
  0
LINE
  8
BASE
  6
CONTINUOUS
 10
1.735546
 20
1.673424
 30
0.0
 11
1.735546
 21
-0.013541
 31
0.0
  0
LINE
  8
BASE
  6
CONTINUOUS
 10
0.068173
 20
1.673424
 30
0.0
 11
1.735546
 21
1.673424
 31
0.0
  0
LINE
  8
BASE
  6
CONTINUOUS
 10
0.068173
 20
-0.013541
 30
0.0
 11
0.068173
 21
1.673424
 31
0.0
  0
ENDBLK
  8
0
  0
BLOCK
  8
0
  2
B1333
 70
     0
 10
0.0
 20
0.0
 30
0.0
  3
B1333
  0
INSERT
  8
0
  6
CONTINUOUS
  2
B507
 10
45.372369
 20
-28.028792
 30
0.0
  0
TEXT
  8
0
  6
CONTINUOUS
 10
42.568754
 20
-26.137091
 30
0.0
 40
2.0
  1
P/Q
  7
ROMANS
  0
POLYLINE
  8
0
  6
CONTINUOUS
 66
     1
 10
0.0
 20
0.0
 30
0.0
 70
     1
 40
0.5
 41
0.5
 71
     2
 72
   151
  0
VERTEX
  8
0
  6
CONTINUOUS
 10
79.5
 20
-72.5
 30
0.0
 42
1.0
  0
VERTEX
  8
0
  6
CONTINUOUS
 10
80.5
 20
-72.5
 30
0.0
 42
1.0
  0
SEQEND
  8
0
  6
CONTINUOUS
  0
POLYLINE
  8
0
  6
CONTINUOUS
 66
     1
 10
0.0
 20
0.0
 30
0.0
 70
     1
 40
0.5
 41
0.5
 71
     2
 72
   251
  0
VERTEX
  8
0
  6
CONTINUOUS
 10
24.5
 20
-44.810016
 30
0.0
 42
1.0
  0
VERTEX
  8
0
  6
CONTINUOUS
 10
25.5
 20
-44.810016
 30
0.0
 42
1.0
  0
SEQEND
  8
0
  6
CONTINUOUS
  0
POLYLINE
  8
0
  6
CONTINUOUS
 66
     1
 10
0.0
 20
0.0
 30
0.0
 70
     1
 40
0.5
 41
0.5
 71
     2
 72
   251
  0
VERTEX
  8
0
  6
CONTINUOUS
 10
24.5
 20
-24.810016
 30
0.0
 42
1.0
  0
VERTEX
  8
0
  6
CONTINUOUS
 10
25.5
 20
-24.810016
 30
0.0
 42
1.0
  0
SEQEND
  8
0
  6
CONTINUOUS
  0
POLYLINE
  8
0
  6
CONTINUOUS
 66
     1
 10
0.0
 20
0.0
 30
0.0
 70
     1
 40
0.5
 41
0.5
 71
     2
 72
   251
  0
VERTEX
  8
0
  6
CONTINUOUS
 10
22.0
 20
-70.0
 30
0.0
 42
1.0
  0
VERTEX
  8
0
  6
CONTINUOUS
 10
23.0
 20
-70.0
 30
0.0
 42
1.0
  0
SEQEND
  8
0
  6
CONTINUOUS
  0
POLYLINE
  8
0
  6
CONTINUOUS
 66
     1
 10
0.0
 20
0.0
 30
0.0
 70
     1
 40
0.5
 41
0.5
 71
     2
 72
   251
  0
VERTEX
  8
0
  6
CONTINUOUS
 10
32.0
 20
-52.5
 30
0.0
 42
1.0
  0
VERTEX
  8
0
  6
CONTINUOUS
 10
33.0
 20
-52.5
 30
0.0
 42
1.0
  0
SEQEND
  8
0
  6
CONTINUOUS
  0
POLYLINE
  8
0
  6
CONTINUOUS
 66
     1
 10
0.0
 20
0.0
 30
0.0
 70
     1
 40
0.5
 41
0.5
 71
     2
 72
   251
  0
VERTEX
  8
0
  6
CONTINUOUS
 10
24.5
 20
-50.0
 30
0.0
 42
1.0
  0
VERTEX
  8
0
  6
CONTINUOUS
 10
25.5
 20
-50.0
 30
0.0
 42
1.0
  0
SEQEND
  8
0
  6
CONTINUOUS
  0
POLYLINE
  8
0
  6
CONTINUOUS
 66
     1
 10
0.0
 20
0.0
 30
0.0
 70
     1
 40
0.5
 41
0.5
 71
     2
 72
   251
  0
VERTEX
  8
0
  6
CONTINUOUS
 10
9.5
 20
-50.0
 30
0.0
 42
1.0
  0
VERTEX
  8
0
  6
CONTINUOUS
 10
10.5
 20
-50.0
 30
0.0
 42
1.0
  0
SEQEND
  8
0
  6
CONTINUOUS
  0
POLYLINE
  8
0
  6
CONTINUOUS
 66
     1
 10
0.0
 20
0.0
 30
0.0
 70
     1
 40
0.5
 41
0.5
 71
     2
 72
   251
  0
VERTEX
  8
0
  6
CONTINUOUS
 10
9.5
 20
-30.0
 30
0.0
 42
1.0
  0
VERTEX
  8
0
  6
CONTINUOUS
 10
10.5
 20
-30.0
 30
0.0
 42
1.0
  0
SEQEND
  8
0
  6
CONTINUOUS
  0
POLYLINE
  8
0
  6
CONTINUOUS
 66
     1
 10
0.0
 20
0.0
 30
0.0
 70
     1
 40
0.5
 41
0.5
 71
     2
 72
   151
  0
VERTEX
  8
0
  6
CONTINUOUS
 10
82.0
 20
7.5
 30
0.0
 42
1.0
  0
VERTEX
  8
0
  6
CONTINUOUS
 10
83.0
 20
7.5
 30
0.0
 42
1.0
  0
SEQEND
  8
0
  6
CONTINUOUS
  0
POLYLINE
  8
0
  6
CONTINUOUS
 66
     1
 10
0.0
 20
0.0
 30
0.0
 70
     1
 40
0.5
 41
0.5
 71
     2
 72
   151
  0
VERTEX
  8
0
  6
CONTINUOUS
 10
72.0
 20
30.0
 30
0.0
 42
1.0
  0
VERTEX
  8
0
  6
CONTINUOUS
 10
73.0
 20
30.0
 30
0.0
 42
1.0
  0
SEQEND
  8
0
  6
CONTINUOUS
  0
POLYLINE
  8
0
  6
CONTINUOUS
 66
     1
 10
0.0
 20
0.0
 30
0.0
 70
     1
 40
0.5
 41
0.5
 71
     2
 72
   151
  0
VERTEX
  8
0
  6
CONTINUOUS
 10
64.5
 20
35.0
 30
0.0
 42
1.0
  0
VERTEX
  8
0
  6
CONTINUOUS
 10
65.5
 20
35.0
 30
0.0
 42
1.0
  0
SEQEND
  8
0
  6
CONTINUOUS
  0
POLYLINE
  8
0
  6
CONTINUOUS
 66
     1
 10
0.0
 20
0.0
 30
0.0
 70
     1
 40
0.5
 41
0.5
 71
     2
 72
   151
  0
VERTEX
  8
0
  6
CONTINUOUS
 10
57.0
 20
40.0
 30
0.0
 42
1.0
  0
VERTEX
  8
0
  6
CONTINUOUS
 10
58.0
 20
40.0
 30
0.0
 42
1.0
  0
SEQEND
  8
0
  6
CONTINUOUS
  0
POLYLINE
  8
0
  6
CONTINUOUS
 66
     1
 10
0.0
 20
0.0
 30
0.0
 70
     1
 40
0.5
 41
0.5
 71
     2
 72
   151
  0
VERTEX
  8
0
  6
CONTINUOUS
 10
39.5
 20
30.0
 30
0.0
 42
1.0
  0
VERTEX
  8
0
  6
CONTINUOUS
 10
40.5
 20
30.0
 30
0.0
 42
1.0
  0
SEQEND
  8
0
  6
CONTINUOUS
  0
POLYLINE
  8
0
  6
CONTINUOUS
 66
     1
 10
0.0
 20
0.0
 30
0.0
 70
     1
 40
0.5
 41
0.5
 71
     2
 72
   151
  0
VERTEX
  8
0
  6
CONTINUOUS
 10
34.5
 20
35.0
 30
0.0
 42
1.0
  0
VERTEX
  8
0
  6
CONTINUOUS
 10
35.5
 20
35.0
 30
0.0
 42
1.0
  0
SEQEND
  8
0
  6
CONTINUOUS
  0
POLYLINE
  8
0
  6
CONTINUOUS
 66
     1
 10
0.0
 20
0.0
 30
0.0
 70
     1
 40
0.5
 41
0.5
 71
     2
 72
   151
  0
VERTEX
  8
0
  6
CONTINUOUS
 10
29.5
 20
40.0
 30
0.0
 42
1.0
  0
VERTEX
  8
0
  6
CONTINUOUS
 10
30.5
 20
40.0
 30
0.0
 42
1.0
  0
SEQEND
  8
0
  6
CONTINUOUS
  0
TEXT
  8
0
  6
DASHED
 10
5.363959
 20
-59.205221
 30
0.0
 40
2.0
  1
1)
  7
ROMANS
  0
TEXT
  8
0
  6
DASHED
 10
5.363959
 20
-39.205221
 30
0.0
 40
2.0
  1
1)
  7
ROMANS
  0
TEXT
  8
0
  6
DASHED
 10
5.363959
 20
-19.205221
 30
0.0
 40
2.0
  1
1)
  7
ROMANS
  0
TEXT
  8
0
  6
DASHED
 10
5.363959
 20
0.794779
 30
0.0
 40
2.0
  1
1)
  7
ROMANS
  0
TEXT
  8
0
  6
DASHED
 10
17.5
 20
28.991307
 30
0.0
 40
2.0
  1
L3
  7
ROMANS
  0
TEXT
  8
0
  6
DASHED
 10
17.5
 20
34.043818
 30
0.0
 40
2.0
  1
L2
  7
ROMANS
  0
TEXT
  8
0
  6
DASHED
 10
17.5
 20
38.986126
 30
0.0
 40
2.0
  1
L1
  7
ROMANS
  0
LINE
  8
0
  6
DASHED
 10
77.5
 20
40.0
 30
0.0
 11
22.5
 21
40.0
 31
0.0
  0
LINE
  8
0
  6
DASHED
 10
77.5
 20
35.0
 30
0.0
 11
22.5
 21
35.0
 31
0.0
  0
LINE
  8
0
  6
DASHED
 10
77.5
 20
30.0
 30
0.0
 11
22.5
 21
30.0
 31
0.0
  0
INSERT
  8
0
  6
CONTINUOUS
  2
BLC27
 10
70.965932
 20
15.071549
 30
0.0
  0
LINE
  8
0
  6
DASHED
 10
72.5
 20
17.5
 30
0.0
 11
72.5
 21
30.0
 31
0.0
  0
LINE
  8
0
  6
CONTINUOUS
 10
57.5
 20
12.68998
 30
0.0
 11
77.5
 21
12.68998
 31
0.0
  0
LINE
  8
0
  6
CONTINUOUS
 10
72.5
 20
2.68998
 30
0.0
 11
72.5
 21
0.0
 31
0.0
  0
ARC
  8
0
  6
CONTINUOUS
 10
70.864862
 20
6.296095
 30
0.0
 40
1.204309
 50
90.0
 51
265.706237
  0
LINE
  8
0
  6
CONTINUOUS
 10
70.858762
 20
5.098547
 30
0.0
 11
71.50836
 21
5.098547
 31
0.0
  0
LINE
  8
0
  6
CONTINUOUS
 10
70.858762
 20
7.499993
 30
0.0
 11
71.502261
 21
7.499993
 31
0.0
  0
LINE
  8
0
  6
CONTINUOUS
 10
70.859898
 20
2.689937
 30
0.0
 11
71.509496
 21
2.689937
 31
0.0
  0
ARC
  8
0
  6
CONTINUOUS
 10
70.864862
 20
3.894238
 30
0.0
 40
1.204309
 50
90.0
 51
270.0
  0
LINE
  8
0
  6
CONTINUOUS
 10
71.500897
 20
2.68998
 30
0.0
 11
72.5
 21
2.68998
 31
0.0
  0
LINE
  8
0
  6
CONTINUOUS
 10
71.496128
 20
7.499996
 30
0.0
 11
72.473936
 21
7.499996
 31
0.0
  0
LINE
  8
0
  6
CONTINUOUS
 10
71.506031
 20
5.098556
 30
0.0
 11
72.478167
 21
5.098556
 31
0.0
  0
LINE
  8
0
  6
CONTINUOUS
 10
72.5
 20
0.0
 30
0.0
 11
70.0
 21
0.0
 31
0.0
  0
LINE
  8
0
  6
CONTINUOUS
 10
70.0
 20
0.0
 30
0.0
 11
65.0
 21
7.5
 31
0.0
  0
LINE
  8
0
  6
CONTINUOUS
 10
72.5
 20
7.5
 30
0.0
 11
77.5
 21
7.5
 31
0.0
  0
INSERT
  8
0
  6
CONTINUOUS
  2
BLC15
 10
90.0
 20
7.357916
 30
0.0
 50
90.0
  0
INSERT
  8
0
  6
CONTINUOUS
  2
BLC15
 10
90.0
 20
12.547896
 30
0.0
 50
90.0
  0
LINE
  8
0
  6
DASHED
 10
77.5
 20
7.5
 30
0.0
 11
86.84682
 21
7.5
 31
0.0
  0
LINE
  8
0
  6
DASHED
 10
77.5
 20
12.68998
 30
0.0
 11
86.663362
 21
12.68998
 31
0.0
  0
LINE
  8
0
  6
DASHED
 10
65.0
 20
-12.5
 30
0.0
 11
82.5
 21
-12.5
 31
0.0
  0
LINE
  8
0
  6
DASHED
 10
82.5
 20
-12.5
 30
0.0
 11
82.5
 21
7.5
 31
0.0
  0
LINE
  8
0
  6
CONTINUOUS
 10
0.0
 20
0.0
 30
0.0
 11
2.5
 21
0.0
 31
0.0
  0
LINE
  8
0
  6
CONTINUOUS
 10
0.0
 20
-5.0
 30
0.0
 11
2.5
 21
-5.0
 31
0.0
  0
LINE
  8
0
  6
DASHED
 10
0.0
 20
-10.0
 30
0.0
 11
10.0
 21
-10.0
 31
0.0
  0
LINE
  8
0
  6
CONTINUOUS
 10
0.0
 20
-20.0
 30
0.0
 11
2.5
 21
-20.0
 31
0.0
  0
LINE
  8
0
  6
CONTINUOUS
 10
0.0
 20
-25.0
 30
0.0
 11
2.5
 21
-25.0
 31
0.0
  0
LINE
  8
0
  6
DASHED
 10
0.0
 20
-30.0
 30
0.0
 11
10.0
 21
-30.0
 31
0.0
  0
LINE
  8
0
  6
CONTINUOUS
 10
0.0
 20
-40.0
 30
0.0
 11
2.5
 21
-40.0
 31
0.0
  0
LINE
  8
0
  6
CONTINUOUS
 10
0.0
 20
-45.0
 30
0.0
 11
2.5
 21
-45.0
 31
0.0
  0
LINE
  8
0
  6
DASHED
 10
0.0
 20
-50.0
 30
0.0
 11
25.0
 21
-50.0
 31
0.0
  0
LINE
  8
0
  6
CONTINUOUS
 10
0.0
 20
-60.0
 30
0.0
 11
2.5
 21
-60.0
 31
0.0
  0
LINE
  8
0
  6
CONTINUOUS
 10
0.0
 20
-65.0
 30
0.0
 11
2.5
 21
-65.0
 31
0.0
  0
LINE
  8
0
  6
DASHED
 10
0.0
 20
-70.0
 30
0.0
 11
32.5
 21
-70.0
 31
0.0
  0
LINE
  8
0
  6
DASHED
 10
30.0
 20
-4.810008
 30
0.0
 11
25.0
 21
-4.810008
 31
0.0
  0
INSERT
  8
0
  6
CONTINUOUS
  2
BLC27
 10
41.491155
 20
-42.381569
 30
0.0
 50
180.0
  0
LINE
  8
0
  6
CONTINUOUS
 10
40.0
 20
12.5
 30
0.0
 11
39.5
 21
12.0
 31
0.0
  0
LINE
  8
0
  6
CONTINUOUS
 10
40.0
 20
12.5
 30
0.0
 11
39.5
 21
13.0
 31
0.0
  0
LINE
  8
0
  6
CONTINUOUS
 10
40.0
 20
12.5
 30
0.0
 11
40.5
 21
13.0
 31
0.0
  0
LINE
  8
0
  6
CONTINUOUS
 10
40.0
 20
12.5
 30
0.0
 11
40.5
 21
12.0
 31
0.0
  0
LINE
  8
0
  6
CONTINUOUS
 10
35.0
 20
12.5
 30
0.0
 11
34.5
 21
13.0
 31
0.0
  0
LINE
  8
0
  6
CONTINUOUS
 10
35.0
 20
12.5
 30
0.0
 11
34.5
 21
12.0
 31
0.0
  0
LINE
  8
0
  6
CONTINUOUS
 10
35.0
 20
12.5
 30
0.0
 11
35.5
 21
12.0
 31
0.0
  0
LINE
  8
0
  6
CONTINUOUS
 10
35.0
 20
12.5
 30
0.0
 11
35.5
 21
13.0
 31
0.0
  0
LINE
  8
0
  6
CONTINUOUS
 10
30.0
 20
12.5
 30
0.0
 11
29.5
 21
12.0
 31
0.0
  0
LINE
  8
0
  6
CONTINUOUS
 10
30.0
 20
12.5
 30
0.0
 11
30.5
 21
13.0
 31
0.0
  0
LINE
  8
0
  6
CONTINUOUS
 10
30.0
 20
12.5
 30
0.0
 11
30.5
 21
12.0
 31
0.0
  0
LINE
  8
0
  6
CONTINUOUS
 10
30.0
 20
12.5
 30
0.0
 11
29.5
 21
13.0
 31
0.0
  0
LINE
  8
0
  6
CONTINUOUS
 10
40.0
 20
5.0
 30
0.0
 11
37.5
 21
12.5
 31
0.0
  0
LINE
  8
0
  6
CONTINUOUS
 10
35.0
 20
5.0
 30
0.0
 11
32.5
 21
12.5
 31
0.0
  0
LINE
  8
0
  6
CONTINUOUS
 10
30.0
 20
5.0
 30
0.0
 11
27.5
 21
12.5
 31
0.0
  0
INSERT
  8
0
  6
CONTINUOUS
  2
BLC27
 10
36.51227
 20
-22.38157
 30
0.0
 50
180.0
  0
LINE
  8
0
  6
DASHED
 10
30.0
 20
25.0
 30
0.0
 11
30.0
 21
40.0
 31
0.0
  0
LINE
  8
0
  6
DASHED
 10
35.0
 20
25.0
 30
0.0
 11
35.0
 21
32.5
 31
0.0
  0
LINE
  8
0
  6
DASHED
 10
40.0
 20
5.0
 30
0.0
 11
40.0
 21
-27.5
 31
0.0
  0
LINE
  8
0
  6
DASHED
 10
40.0
 20
30.0
 30
0.0
 11
40.0
 21
12.5
 31
0.0
  0
LINE
  8
0
  6
DASHED
 10
35.0
 20
5.0
 30
0.0
 11
35.0
 21
-27.5
 31
0.0
  0
LINE
  8
0
  6
DASHED
 10
35.0
 20
35.0
 30
0.0
 11
35.0
 21
12.5
 31
0.0
  0
LINE
  8
0
  6
DASHED
 10
30.0
 20
12.5
 30
0.0
 11
30.0
 21
25.0
 31
0.0
  0
LINE
  8
0
  6
DASHED
 10
30.0
 20
5.0
 30
0.0
 11
30.0
 21
-27.5
 31
0.0
  0
INSERT
  8
0
  6
CONTINUOUS
  2
BLC27
 10
31.491154
 20
-2.381567
 30
0.0
 50
180.0
  0
INSERT
  8
0
  6
CONTINUOUS
  2
BLC15
 10
24.857916
 20
-55.0
 30
0.0
  0
LINE
  8
0
  6
DASHED
 10
40.0
 20
-27.5
 30
0.0
 11
40.0
 21
-52.5
 31
0.0
  0
LINE
  8
0
  6
DASHED
 10
35.0
 20
-27.5
 30
0.0
 11
35.0
 21
-52.5
 31
0.0
  0
LINE
  8
0
  6
DASHED
 10
30.0
 20
-27.5
 30
0.0
 11
30.0
 21
-52.5
 31
0.0
  0
LINE
  8
0
  6
DASHED
 10
35.069797
 20
-24.810016
 30
0.0
 11
25.0
 21
-24.810016
 31
0.0
  0
LINE
  8
0
  6
DASHED
 10
40.006921
 20
-44.810016
 30
0.0
 11
25.0
 21
-44.810016
 31
0.0
  0
LINE
  8
0
  6
DASHED
 10
10.0
 20
-10.0
 30
0.0
 11
10.0
 21
-50.0
 31
0.0
  0
LINE
  8
0
  6
DASHED
 10
5.0
 20
-60.0
 30
0.0
 11
22.5
 21
-60.0
 31
0.0
  0
LINE
  8
0
  6
DASHED
 10
22.5
 20
-60.0
 30
0.0
 11
22.5
 21
-65.189984
 31
0.0
  0
LINE
  8
0
  6
DASHED
 10
25.0
 20
-4.810008
 30
0.0
 11
25.0
 21
-52.5
 31
0.0
  0
LINE
  8
0
  6
CONTINUOUS
 10
30.0
 20
-52.5
 30
0.0
 11
40.0
 21
-52.5
 31
0.0
  0
LINE
  8
0
  6
CONTINUOUS
 10
32.5
 20
-52.5
 30
0.0
 11
35.0
 21
-57.5
 31
0.0
  0
LINE
  8
0
  6
CONTINUOUS
 10
35.0
 20
-57.5
 30
0.0
 11
37.5
 21
-52.5
 31
0.0
  0
LINE
  8
0
  6
DASHED
 10
32.5
 20
-52.5
 30
0.0
 11
32.5
 21
-75.0
 31
0.0
  0
LINE
  8
0
  6
DASHED
 10
22.5
 20
-75.0
 30
0.0
 11
22.5
 21
-70.0
 31
0.0
  0
INSERT
  8
0
  6
CONTINUOUS
  2
BLC27
 10
36.49116
 20
-67.571554
 30
0.0
 50
180.0
  0
LINE
  8
0
  6
CONTINUOUS
 10
32.5
 20
-67.59856
 30
0.0
 11
35.0
 21
-67.59856
 31
0.0
  0
LINE
  8
0
  6
DASHED
 10
22.5
 20
-65.189984
 30
0.0
 11
35.0
 21
-65.189984
 31
0.0
  0
LINE
  8
0
  6
DASHED
 10
35.0
 20
-70.0
 30
0.0
 11
35.0
 21
-70.0
 31
0.0
  0
LINE
  8
0
  6
DASHED
 10
32.5
 20
-70.0
 30
0.0
 11
35.0
 21
-70.0
 31
0.0
  0
LINE
  8
0
  6
DASHED
 10
30.0
 20
0.0
 30
0.0
 11
5.0
 21
0.0
 31
0.0
  0
LINE
  8
0
  6
DASHED
 10
35.0
 20
-20.0
 30
0.0
 11
5.0
 21
-20.0
 31
0.0
  0
LINE
  8
0
  6
DASHED
 10
40.0
 20
-40.0
 30
0.0
 11
5.0
 21
-40.0
 31
0.0
  0
INSERT
  8
0
  6
CONTINUOUS
  2
BLC27
 10
55.965932
 20
15.071549
 30
0.0
  0
INSERT
  8
0
  6
CONTINUOUS
  2
BLC27
 10
63.465932
 20
15.071549
 30
0.0
  0
LINE
  8
0
  6
DASHED
 10
57.5
 20
17.5
 30
0.0
 11
57.5
 21
40.0
 31
0.0
  0
LINE
  8
0
  6
DASHED
 10
65.0
 20
17.5
 30
0.0
 11
65.0
 21
35.0
 31
0.0
  0
LINE
  8
0
  6
CONTINUOUS
 10
57.5
 20
2.68998
 30
0.0
 11
57.5
 21
0.0
 31
0.0
  0
LINE
  8
0
  6
CONTINUOUS
 10
65.0
 20
2.68998
 30
0.0
 11
65.0
 21
0.0
 31
0.0
  0
ARC
  8
0
  6
CONTINUOUS
 10
63.364862
 20
6.296095
 30
0.0
 40
1.204309
 50
90.0
 51
265.706237
  0
LINE
  8
0
  6
CONTINUOUS
 10
63.358762
 20
5.098547
 30
0.0
 11
64.00836
 21
5.098547
 31
0.0
  0
LINE
  8
0
  6
CONTINUOUS
 10
63.358762
 20
7.499993
 30
0.0
 11
64.002261
 21
7.499993
 31
0.0
  0
LINE
  8
0
  6
CONTINUOUS
 10
63.359898
 20
2.689937
 30
0.0
 11
64.009496
 21
2.689937
 31
0.0
  0
ARC
  8
0
  6
CONTINUOUS
 10
63.364862
 20
3.894238
 30
0.0
 40
1.204309
 50
90.0
 51
270.0
  0
LINE
  8
0
  6
CONTINUOUS
 10
64.000897
 20
2.68998
 30
0.0
 11
65.0
 21
2.68998
 31
0.0
  0
LINE
  8
0
  6
CONTINUOUS
 10
63.996128
 20
7.499996
 30
0.0
 11
64.973936
 21
7.499996
 31
0.0
  0
LINE
  8
0
  6
CONTINUOUS
 10
64.006031
 20
5.098556
 30
0.0
 11
64.978167
 21
5.098556
 31
0.0
  0
ARC
  8
0
  6
CONTINUOUS
 10
55.864862
 20
6.296095
 30
0.0
 40
1.204309
 50
90.0
 51
265.706237
  0
LINE
  8
0
  6
CONTINUOUS
 10
55.858762
 20
5.098547
 30
0.0
 11
56.50836
 21
5.098547
 31
0.0
  0
LINE
  8
0
  6
CONTINUOUS
 10
55.858762
 20
7.499993
 30
0.0
 11
56.502261
 21
7.499993
 31
0.0
  0
LINE
  8
0
  6
CONTINUOUS
 10
55.859898
 20
2.689937
 30
0.0
 11
56.509496
 21
2.689937
 31
0.0
  0
ARC
  8
0
  6
CONTINUOUS
 10
55.864862
 20
3.894238
 30
0.0
 40
1.204309
 50
90.0
 51
270.0
  0
LINE
  8
0
  6
CONTINUOUS
 10
56.500897
 20
2.68998
 30
0.0
 11
57.5
 21
2.68998
 31
0.0
  0
LINE
  8
0
  6
CONTINUOUS
 10
56.496128
 20
7.499996
 30
0.0
 11
57.473936
 21
7.499996
 31
0.0
  0
LINE
  8
0
  6
CONTINUOUS
 10
56.506031
 20
5.098556
 30
0.0
 11
57.478167
 21
5.098556
 31
0.0
  0
LINE
  8
0
  6
CONTINUOUS
 10
65.0
 20
0.0
 30
0.0
 11
62.5
 21
0.0
 31
0.0
  0
LINE
  8
0
  6
CONTINUOUS
 10
62.5
 20
0.0
 30
0.0
 11
57.5
 21
7.5
 31
0.0
  0
LINE
  8
0
  6
CONTINUOUS
 10
5.0
 20
0.3468
 30
0.0
 11
4.0
 21
1.3468
 31
0.0
  0
LINE
  8
0
  6
CONTINUOUS
 10
5.0
 20
-5.33813
 30
0.0
 11
4.0
 21
-6.33813
 31
0.0
  0
LINE
  8
0
  6
CONTINUOUS
 10
5.0
 20
0.3468
 30
0.0
 11
5.0
 21
-5.33813
 31
0.0
  0
LINE
  8
0
  6
CONTINUOUS
 10
5.0
 20
-19.6532
 30
0.0
 11
5.0
 21
-25.33813
 31
0.0
  0
LINE
  8
0
  6
CONTINUOUS
 10
5.0
 20
-25.33813
 30
0.0
 11
4.0
 21
-26.33813
 31
0.0
  0
LINE
  8
0
  6
CONTINUOUS
 10
5.0
 20
-19.6532
 30
0.0
 11
4.0
 21
-18.6532
 31
0.0
  0
LINE
  8
0
  6
CONTINUOUS
 10
5.0
 20
-39.6532
 30
0.0
 11
4.0
 21
-38.6532
 31
0.0
  0
LINE
  8
0
  6
CONTINUOUS
 10
5.0
 20
-45.33813
 30
0.0
 11
4.0
 21
-46.33813
 31
0.0
  0
LINE
  8
0
  6
CONTINUOUS
 10
5.0
 20
-39.6532
 30
0.0
 11
5.0
 21
-45.33813
 31
0.0
  0
LINE
  8
0
  6
CONTINUOUS
 10
5.0
 20
-59.6532
 30
0.0
 11
5.0
 21
-65.33813
 31
0.0
  0
LINE
  8
0
  6
CONTINUOUS
 10
5.0
 20
-65.33813
 30
0.0
 11
4.0
 21
-66.33813
 31
0.0
  0
LINE
  8
0
  6
CONTINUOUS
 10
5.0
 20
-59.6532
 30
0.0
 11
4.0
 21
-58.6532
 31
0.0
  0
LINE
  8
BASE
  6
CENTER
 10
0.0
 20
-7.5
 30
0.0
 11
0.0
 21
17.5
 31
0.0
  0
LINE
  8
BASE
  6
CENTER
 10
0.0
 20
-7.5
 30
0.0
 11
0.0
 21
-30.0
 31
0.0
  0
LINE
  8
0
  6
DASHED
 10
57.5
 20
-90.0
 30
0.0
 11
57.5
 21
0.0
 31
0.0
  0
LINE
  8
0
  6
DASHED
 10
65.0
 20
-80.0
 30
0.0
 11
65.0
 21
-12.5
 31
0.0
  0
POLYLINE
  8
0
  6
CONTINUOUS
 66
     1
 10
0.0
 20
0.0
 30
0.0
 70
     1
 40
0.5
 41
0.5
  0
VERTEX
  8
0
  6
CONTINUOUS
 10
14.5
 20
-150.0
 30
0.0
 42
1.0
  0
VERTEX
  8
0
  6
CONTINUOUS
 10
15.5
 20
-150.0
 30
0.0
 42
1.0
  0
SEQEND
  8
0
  6
CONTINUOUS
  0
POLYLINE
  8
0
  6
CONTINUOUS
 66
     1
 10
0.0
 20
0.0
 30
0.0
 70
     1
 40
0.5
 41
0.5
  0
VERTEX
  8
0
  6
CONTINUOUS
 10
14.5
 20
-130.0
 30
0.0
 42
1.0
  0
VERTEX
  8
0
  6
CONTINUOUS
 10
15.5
 20
-130.0
 30
0.0
 42
1.0
  0
SEQEND
  8
0
  6
CONTINUOUS
  0
POLYLINE
  8
0
  6
CONTINUOUS
 66
     1
 10
0.0
 20
0.0
 30
0.0
 70
     1
 40
0.5
 41
0.5
  0
VERTEX
  8
0
  6
CONTINUOUS
 10
22.0
 20
-110.0
 30
0.0
 42
1.0
  0
VERTEX
  8
0
  6
CONTINUOUS
 10
23.0
 20
-110.0
 30
0.0
 42
1.0
  0
SEQEND
  8
0
  6
CONTINUOUS
  0
LINE
  8
0
  6
DASHED
 10
15.0
 20
-140.0
 30
0.0
 11
15.0
 21
-150.0
 31
0.0
  0
TEXT
  8
0
  6
DASHED
 10
5.363959
 20
-149.205221
 30
0.0
 40
2.0
  1
1)
  7
ROMANS
  0
TEXT
  8
0
  6
DASHED
 10
5.363959
 20
-129.205221
 30
0.0
 40
2.0
  1
1)
  7
ROMANS
  0
TEXT
  8
0
  6
DASHED
 10
5.363959
 20
-109.205221
 30
0.0
 40
2.0
  1
1)
  7
ROMANS
  0
TEXT
  8
0
  6
DASHED
 10
5.363959
 20
-79.205221
 30
0.0
 40
2.0
  1
1)
  7
ROMANS
  0
LINE
  8
0
  6
DASHED
 10
22.5
 20
-110.0
 30
0.0
 11
22.5
 21
-160.0
 31
0.0
  0
LINE
  8
0
  6
DASHED
 10
5.0
 20
-130.0
 30
0.0
 11
42.5
 21
-130.0
 31
0.0
  0
LINE
  8
0
  6
DASHED
 10
15.0
 20
-120.0
 30
0.0
 11
15.0
 21
-130.0
 31
0.0
  0
LINE
  8
0
  6
DASHED
 10
5.0
 20
-110.0
 30
0.0
 11
37.5
 21
-110.0
 31
0.0
  0
LINE
  8
0
  6
DASHED
 10
47.5
 20
-150.0
 30
0.0
 11
5.0
 21
-150.0
 31
0.0
  0
LINE
  8
0
  6
DASHED
 10
15.0
 20
-120.0
 30
0.0
 11
0.0
 21
-120.0
 31
0.0
  0
LINE
  8
0
  6
DASHED
 10
37.5
 20
-105.0
 30
0.0
 11
37.5
 21
-110.0
 31
0.0
  0
LINE
  8
0
  6
DASHED
 10
15.0
 20
-140.0
 30
0.0
 11
0.0
 21
-140.0
 31
0.0
  0
LINE
  8
0
  6
DASHED
 10
42.5
 20
-110.0
 30
0.0
 11
42.5
 21
-130.0
 31
0.0
  0
LINE
  8
0
  6
DASHED
 10
47.5
 20
-115.0
 30
0.0
 11
47.5
 21
-150.0
 31
0.0
  0
LINE
  8
0
  6
CONTINUOUS
 10
5.0
 20
-155.33813
 30
0.0
 11
4.0
 21
-156.33813
 31
0.0
  0
LINE
  8
0
  6
CONTINUOUS
 10
5.0
 20
-149.6532
 30
0.0
 11
5.0
 21
-155.33813
 31
0.0
  0
LINE
  8
0
  6
CONTINUOUS
 10
5.0
 20
-149.6532
 30
0.0
 11
4.0
 21
-148.6532
 31
0.0
  0
LINE
  8
0
  6
CONTINUOUS
 10
0.0
 20
-150.0
 30
0.0
 11
2.5
 21
-150.0
 31
0.0
  0
LINE
  8
0
  6
CONTINUOUS
 10
0.0
 20
-155.0
 30
0.0
 11
2.5
 21
-155.0
 31
0.0
  0
LINE
  8
0
  6
DASHED
 10
0.0
 20
-160.0
 30
0.0
 11
22.5
 21
-160.0
 31
0.0
  0
LINE
  8
0
  6
CONTINUOUS
 10
5.0
 20
-135.33813
 30
0.0
 11
4.0
 21
-136.33813
 31
0.0
  0
LINE
  8
0
  6
CONTINUOUS
 10
5.0
 20
-129.6532
 30
0.0
 11
5.0
 21
-135.33813
 31
0.0
  0
LINE
  8
0
  6
CONTINUOUS
 10
5.0
 20
-129.6532
 30
0.0
 11
4.0
 21
-128.6532
 31
0.0
  0
LINE
  8
0
  6
CONTINUOUS
 10
0.0
 20
-130.0
 30
0.0
 11
2.5
 21
-130.0
 31
0.0
  0
LINE
  8
0
  6
CONTINUOUS
 10
0.0
 20
-135.0
 30
0.0
 11
2.5
 21
-135.0
 31
0.0
  0
LINE
  8
0
  6
CONTINUOUS
 10
0.0
 20
-115.0
 30
0.0
 11
2.5
 21
-115.0
 31
0.0
  0
LINE
  8
0
  6
CONTINUOUS
 10
0.0
 20
-110.0
 30
0.0
 11
2.5
 21
-110.0
 31
0.0
  0
LINE
  8
0
  6
CONTINUOUS
 10
5.0
 20
-109.6532
 30
0.0
 11
4.0
 21
-108.6532
 31
0.0
  0
LINE
  8
0
  6
CONTINUOUS
 10
5.0
 20
-109.6532
 30
0.0
 11
5.0
 21
-115.33813
 31
0.0
  0
LINE
  8
0
  6
CONTINUOUS
 10
5.0
 20
-115.33813
 30
0.0
 11
4.0
 21
-116.33813
 31
0.0
  0
LINE
  8
0
  6
CONTINUOUS
 10
0.0
 20
-80.0
 30
0.0
 11
2.5
 21
-80.0
 31
0.0
  0
LINE
  8
0
  6
CONTINUOUS
 10
0.0
 20
-85.0
 30
0.0
 11
2.5
 21
-85.0
 31
0.0
  0
LINE
  8
0
  6
DASHED
 10
0.0
 20
-90.0
 30
0.0
 11
57.5
 21
-90.0
 31
0.0
  0
INSERT
  8
0
  6
CONTINUOUS
  2
BLC15
 10
32.357916
 20
-77.5
 30
0.0
  0
LINE
  8
0
  6
CONTINUOUS
 10
35.0
 20
-57.5
 30
0.0
 11
35.0
 21
-77.5
 31
0.0
  0
INSERT
  8
0
  6
CONTINUOUS
  2
BLC15
 10
22.357916
 20
-77.5
 30
0.0
  0
LINE
  8
0
  6
DASHED
 10
5.0
 20
-80.0
 30
0.0
 11
65.0
 21
-80.0
 31
0.0
  0
LINE
  8
0
  6
DASHED
 10
35.0
 20
-77.5
 30
0.0
 11
35.0
 21
-87.5
 31
0.0
  0
LINE
  8
0
  6
CONTINUOUS
 10
5.0
 20
-79.6532
 30
0.0
 11
4.0
 21
-78.6532
 31
0.0
  0
LINE
  8
0
  6
CONTINUOUS
 10
5.0
 20
-85.33813
 30
0.0
 11
4.0
 21
-86.33813
 31
0.0
  0
LINE
  8
0
  6
CONTINUOUS
 10
5.0
 20
-79.6532
 30
0.0
 11
5.0
 21
-85.33813
 31
0.0
  0
LINE
  8
BASE
  6
CENTER
 10
0.0
 20
-137.5
 30
0.0
 11
0.0
 21
-167.5
 31
0.0
  0
POLYLINE
  8
0
  6
CONTINUOUS
 66
     1
 10
0.0
 20
0.0
 30
0.0
 70
     1
 40
0.5
 41
0.5
 71
     2
 72
   151
  0
VERTEX
  8
0
  6
CONTINUOUS
 10
87.0
 20
-77.5
 30
0.0
 42
1.0
  0
VERTEX
  8
0
  6
CONTINUOUS
 10
88.0
 20
-77.5
 30
0.0
 42
1.0
  0
SEQEND
  8
0
  6
CONTINUOUS
  0
POLYLINE
  8
0
  6
CONTINUOUS
 66
     1
 10
0.0
 20
0.0
 30
0.0
 70
     1
 40
0.5
 41
0.5
 71
     2
 72
   151
  0
VERTEX
  8
0
  6
CONTINUOUS
 10
94.5
 20
-82.5
 30
0.0
 42
1.0
  0
VERTEX
  8
0
  6
CONTINUOUS
 10
95.5
 20
-82.5
 30
0.0
 42
1.0
  0
SEQEND
  8
0
  6
CONTINUOUS
  0
LINE
  8
0
  6
DASHED
 10
80.0
 20
-105.0
 30
0.0
 11
37.5
 21
-105.0
 31
0.0
  0
LINE
  8
0
  6
DASHED
 10
87.5
 20
-110.0
 30
0.0
 11
42.5
 21
-110.0
 31
0.0
  0
LINE
  8
0
  6
DASHED
 10
87.5
 20
-105.0
 30
0.0
 11
87.5
 21
-110.0
 31
0.0
  0
LINE
  8
0
  6
DASHED
 10
95.0
 20
-115.0
 30
0.0
 11
47.5
 21
-115.0
 31
0.0
  0
LINE
  8
0
  6
DASHED
 10
95.0
 20
-105.0
 30
0.0
 11
95.0
 21
-115.0
 31
0.0
  0
TEXT
  8
0
  6
DASHED
 10
112.5
 20
-83.519713
 30
0.0
 40
2.0
  1
L3 (T)
  7
ROMANS
  0
TEXT
  8
0
  6
DASHED
 10
112.5
 20
-78.577406
 30
0.0
 40
2.0
  1
L2 (S)
  7
ROMANS
  0
TEXT
  8
0
  6
DASHED
 10
112.5
 20
-73.524895
 30
0.0
 40
2.0
  1
L1 (R)
  7
ROMANS
  0
LINE
  8
0
  6
DASHED
 10
77.5
 20
-72.5
 30
0.0
 11
110.0
 21
-72.5
 31
0.0
  0
LINE
  8
0
  6
DASHED
 10
77.5
 20
-77.5
 30
0.0
 11
110.0
 21
-77.5
 31
0.0
  0
LINE
  8
0
  6
DASHED
 10
77.5
 20
-82.5
 30
0.0
 11
110.0
 21
-82.5
 31
0.0
  0
LINE
  8
0
  6
CONTINUOUS
 10
79.006031
 20
-99.901444
 30
0.0
 11
79.978167
 21
-99.901444
 31
0.0
  0
LINE
  8
0
  6
CONTINUOUS
 10
78.996128
 20
-97.500004
 30
0.0
 11
95.0
 21
-97.500004
 31
0.0
  0
LINE
  8
0
  6
CONTINUOUS
 10
79.000897
 20
-102.31002
 30
0.0
 11
80.0
 21
-102.31002
 31
0.0
  0
ARC
  8
0
  6
CONTINUOUS
 10
78.364862
 20
-101.105762
 30
0.0
 40
1.204309
 50
90.0
 51
270.0
  0
LINE
  8
0
  6
CONTINUOUS
 10
78.359898
 20
-102.310063
 30
0.0
 11
79.009496
 21
-102.310063
 31
0.0
  0
LINE
  8
0
  6
CONTINUOUS
 10
78.358762
 20
-97.500007
 30
0.0
 11
79.002261
 21
-97.500007
 31
0.0
  0
LINE
  8
0
  6
CONTINUOUS
 10
78.358762
 20
-99.901453
 30
0.0
 11
79.00836
 21
-99.901453
 31
0.0
  0
ARC
  8
0
  6
CONTINUOUS
 10
78.364862
 20
-98.703905
 30
0.0
 40
1.204309
 50
90.0
 51
265.706237
  0
LINE
  8
0
  6
CONTINUOUS
 10
86.506031
 20
-99.901444
 30
0.0
 11
87.478167
 21
-99.901444
 31
0.0
  0
LINE
  8
0
  6
CONTINUOUS
 10
86.496128
 20
-97.500004
 30
0.0
 11
87.473936
 21
-97.500004
 31
0.0
  0
LINE
  8
0
  6
CONTINUOUS
 10
86.500897
 20
-102.31002
 30
0.0
 11
87.5
 21
-102.31002
 31
0.0
  0
ARC
  8
0
  6
CONTINUOUS
 10
85.864862
 20
-101.105762
 30
0.0
 40
1.204309
 50
90.0
 51
270.0
  0
LINE
  8
0
  6
CONTINUOUS
 10
85.859898
 20
-102.310063
 30
0.0
 11
86.509496
 21
-102.310063
 31
0.0
  0
LINE
  8
0
  6
CONTINUOUS
 10
85.858762
 20
-97.500007
 30
0.0
 11
86.502261
 21
-97.500007
 31
0.0
  0
LINE
  8
0
  6
CONTINUOUS
 10
85.858762
 20
-99.901453
 30
0.0
 11
86.50836
 21
-99.901453
 31
0.0
  0
ARC
  8
0
  6
CONTINUOUS
 10
85.864862
 20
-98.703905
 30
0.0
 40
1.204309
 50
90.0
 51
265.706237
  0
LINE
  8
0
  6
CONTINUOUS
 10
87.5
 20
-102.31002
 30
0.0
 11
87.5
 21
-105.0
 31
0.0
  0
LINE
  8
0
  6
CONTINUOUS
 10
80.0
 20
-102.31002
 30
0.0
 11
80.0
 21
-105.0
 31
0.0
  0
LINE
  8
0
  6
DASHED
 10
87.5
 20
-87.5
 30
0.0
 11
87.5
 21
-77.5
 31
0.0
  0
LINE
  8
0
  6
DASHED
 10
80.0
 20
-87.5
 30
0.0
 11
80.0
 21
-72.5
 31
0.0
  0
INSERT
  8
0
  6
CONTINUOUS
  2
BLC27
 10
85.965932
 20
-89.928451
 30
0.0
  0
INSERT
  8
0
  6
CONTINUOUS
  2
BLC27
 10
78.465932
 20
-89.928451
 30
0.0
  0
INSERT
  8
0
  6
CONTINUOUS
  2
BLC15
 10
105.0
 20
-92.452104
 30
0.0
 50
90.0
  0
INSERT
  8
0
  6
CONTINUOUS
  2
BLC15
 10
105.0
 20
-97.642084
 30
0.0
 50
90.0
  0
LINE
  8
0
  6
CONTINUOUS
 10
95.0
 20
-97.5
 30
0.0
 11
101.617732
 21
-97.5
 31
0.0
  0
LINE
  8
0
  6
CONTINUOUS
 10
94.006031
 20
-99.901444
 30
0.0
 11
94.978167
 21
-99.901444
 31
0.0
  0
LINE
  8
0
  6
CONTINUOUS
 10
93.996128
 20
-97.500004
 30
0.0
 11
94.973936
 21
-97.500004
 31
0.0
  0
LINE
  8
0
  6
CONTINUOUS
 10
94.000897
 20
-102.31002
 30
0.0
 11
95.0
 21
-102.31002
 31
0.0
  0
ARC
  8
0
  6
CONTINUOUS
 10
93.364862
 20
-101.105762
 30
0.0
 40
1.204309
 50
90.0
 51
270.0
  0
LINE
  8
0
  6
CONTINUOUS
 10
93.359898
 20
-102.310063
 30
0.0
 11
94.009496
 21
-102.310063
 31
0.0
  0
LINE
  8
0
  6
CONTINUOUS
 10
93.358762
 20
-97.500007
 30
0.0
 11
94.002261
 21
-97.500007
 31
0.0
  0
LINE
  8
0
  6
CONTINUOUS
 10
93.358762
 20
-99.901453
 30
0.0
 11
94.00836
 21
-99.901453
 31
0.0
  0
ARC
  8
0
  6
CONTINUOUS
 10
93.364862
 20
-98.703905
 30
0.0
 40
1.204309
 50
90.0
 51
265.706237
  0
LINE
  8
0
  6
CONTINUOUS
 10
95.0
 20
-102.31002
 30
0.0
 11
95.0
 21
-105.0
 31
0.0
  0
LINE
  8
0
  6
CONTINUOUS
 10
80.0
 20
-92.31002
 30
0.0
 11
101.617732
 21
-92.31002
 31
0.0
  0
LINE
  8
0
  6
DASHED
 10
95.0
 20
-87.5
 30
0.0
 11
95.0
 21
-82.5
 31
0.0
  0
INSERT
  8
0
  6
CONTINUOUS
  2
BLC27
 10
93.465932
 20
-89.928451
 30
0.0
  0
ENDBLK
  8
0
  0
ENDSEC
  0
SECTION
  2
ENTITIES
  0
INSERT
  8
0
  2
1
 10
65.405438
 20
98.713066
 30
0.0
  0
INSERT
  8
0
  2
1
 10
72.541652
 20
49.71056
 30
0.0
  0
INSERT
  8
0
  2
1
 10
85.390443
 20
73.497234
 30
0.0
  0
LINE
  8
0
  6
CONTINUOUS
 62
   249
 10
207.950615
 20
182.209828
 30
0.0
 11
207.950615
 21
105.0
 31
0.0
  0
LINE
  8
0
  6
CONTINUOUS
 62
   249
 10
207.950615
 20
210.0
 30
0.0
 11
207.950615
 21
182.18832
 31
0.0
  0
LINE
  8
0
  6
CONTINUOUS
 62
   249
 10
177.5
 20
195.0
 30
0.0
 11
177.5
 21
180.0
 31
0.0
  0
LINE
  8
0
  6
CONTINUOUS
 62
   249
 10
177.5
 20
195.0
 30
0.0
 11
177.5
 21
210.0
 31
0.0
  0
LINE
  8
0
  6
CONTINUOUS
 62
   249
 10
177.5
 20
180.0
 30
0.0
 11
177.5
 21
105.0
 31
0.0
  0
LINE
  8
0
  6
CONTINUOUS
 62
   249
 10
60.0
 20
127.5
 30
0.0
 11
54.256076
 21
124.285297
 31
0.0
  0
LINE
  8
0
  6
CONTINUOUS
 62
   249
 10
72.5
 20
117.5
 30
0.0
 11
66.756076
 21
114.285297
 31
0.0
  0
LINE
  8
0
  6
CONTINUOUS
 62
   249
 10
72.5
 20
117.5
 30
0.0
 11
75.0
 21
117.5
 31
0.0
  0
LINE
  8
0
  6
CONTINUOUS
 62
   249
 10
67.5
 20
117.5
 30
0.0
 11
20.0
 21
117.5
 31
0.0
  0
LINE
  8
0
  6
DASHED
 62
   249
 10
57.5
 20
132.5
 30
0.0
 11
57.5
 21
126.100824
 31
0.0
  0
LINE
  8
0
  6
DASHED
 62
   249
 10
70.0
 20
130.0
 30
0.0
 11
70.0
 21
116.100824
 31
0.0
  0
LINE
  8
0
  6
DASHED
 62
   249
 10
82.5
 20
130.0
 30
0.0
 11
82.5
 21
101.100824
 31
0.0
  0
LINE
  8
0
  6
DASHED
 62
   249
 10
105.0
 20
107.5
 30
0.0
 11
105.0
 21
71.100824
 31
0.0
  0
TEXT
  8
0
  6
DASHED
 62
   249
 10
53.197373
 20
128.403492
 30
0.0
 40
2.0
  1
A
  7
ROMANS
  0
TEXT
  8
0
  6
DASHED
 62
   249
 10
66.643373
 20
118.774588
 30
0.0
 40
2.0
  1
B
  7
ROMANS
  0
TEXT
  8
0
  6
DASHED
 62
   249
 10
78.555109
 20
103.134364
 30
0.0
 40
2.0
  1
C
  7
ROMANS
  0
TEXT
  8
0
  6
DASHED
 62
   249
 10
100.671573
 20
73.364654
 30
0.0
 40
2.0
  1
E
  7
ROMANS
  0
LINE
  8
0
  6
CONTINUOUS
 62
   249
 10
237.5
 20
172.5
 30
0.0
 11
238.5
 21
171.5
 31
0.0
  0
LINE
  8
0
  6
CONTINUOUS
 62
   249
 10
237.5
 20
217.5
 30
0.0
 11
238.5
 21
218.5
 31
0.0
  0
LINE
  8
0
  6
CONTINUOUS
 62
   249
 10
237.5
 20
217.5
 30
0.0
 11
237.5
 21
172.5
 31
0.0
  0
LINE
  8
0
  6
CONTINUOUS
 62
   249
 10
177.5
 20
142.5
 30
0.0
 11
207.950615
 21
142.5
 31
0.0
  0
LINE
  8
0
  6
CONTINUOUS
 62
   249
 10
105.0
 20
170.0
 30
0.0
 11
105.0
 21
107.5
 31
0.0
  0
LINE
  8
0
  6
HIDDEN
 62
   249
 10
177.5
 20
157.5
 30
0.0
 11
197.5
 21
157.5
 31
0.0
  0
LINE
  8
0
  6
HIDDEN
 62
   249
 10
177.5
 20
152.5
 30
0.0
 11
197.5
 21
152.5
 31
0.0
  0
LINE
  8
0
  6
HIDDEN
 62
   249
 10
177.5
 20
167.5
 30
0.0
 11
197.5
 21
167.5
 31
0.0
  0
LINE
  8
0
  6
CONTINUOUS
 62
   249
 10
184.441403
 20
171.177597
 30
0.0
 11
186.787169
 21
169.842244
 31
0.0
  0
LINE
  8
0
  6
CONTINUOUS
 62
   249
 10
186.787169
 20
169.842244
 30
0.0
 11
184.441403
 21
168.652325
 31
0.0
  0
LINE
  8
0
  6
CONTINUOUS
 62
   249
 10
177.5
 20
210.0
 30
0.0
 11
207.950615
 21
210.0
 31
0.0
  0
TEXT
  8
0
  6
CONTINUOUS
 62
   249
 10
202.5
 20
205.0
 30
0.0
 40
2.5
  1
U1
  7
ROMANS
  0
LINE
  8
0
  6
CONTINUOUS
 62
   249
 10
50.298812
 20
210.0
 30
0.0
 11
45.0
 21
210.0
 31
0.0
  0
LINE
  8
0
  6
CONTINUOUS
 62
   249
 10
50.298812
 20
215.0
 30
0.0
 11
38.500004
 21
215.0
 31
0.0
  0
LINE
  8
0
 62
   249
 10
50.298812
 20
216.589925
 30
0.0
 11
50.298812
 21
208.4
 31
0.0
  0
LINE
  8
0
 62
   249
 10
54.504853
 20
216.59384
 30
0.0
 11
52.59105
 21
214.315018
 31
0.0
  0
LINE
  8
0
 62
   249
 10
55.996971
 20
216.59384
 30
0.0
 11
54.142636
 21
214.315018
 31
0.0
  0
LINE
  8
0
 62
   249
 10
57.721556
 20
216.589925
 30
0.0
 11
50.298812
 21
216.589925
 31
0.0
  0
LINE
  8
0
 62
   249
 10
57.721556
 20
208.4
 30
0.0
 11
57.721556
 21
216.589925
 31
0.0
  0
LINE
  8
0
  6
CONTINUOUS
 62
   249
 10
57.721556
 20
212.5
 30
0.0
 11
62.5
 21
212.5
 31
0.0
  0
LINE
  8
0
  6
CONTINUOUS
 62
   249
 10
57.721556
 20
205.0
 30
0.0
 11
165.0
 21
205.0
 31
0.0
  0
LINE
  8
0
 62
   249
 10
57.721556
 20
201.204212
 30
0.0
 11
57.721556
 21
209.089925
 31
0.0
  0
LINE
  8
0
 62
   249
 10
57.721556
 20
208.704212
 30
0.0
 11
50.298812
 21
208.704212
 31
0.0
  0
LINE
  8
0
 62
   249
 10
55.996971
 20
208.708127
 30
0.0
 11
54.142636
 21
206.429305
 31
0.0
  0
LINE
  8
0
 62
   249
 10
54.504853
 20
208.708127
 30
0.0
 11
52.59105
 21
206.429305
 31
0.0
  0
LINE
  8
0
 62
   249
 10
50.298812
 20
209.089925
 30
0.0
 11
50.298812
 21
201.204212
 31
0.0
  0
LINE
  8
0
  6
CONTINUOUS
 62
   249
 10
50.298812
 20
207.5
 30
0.0
 11
20.0
 21
207.5
 31
0.0
  0
LINE
  8
0
 62
   249
 10
57.721556
 20
201.204212
 30
0.0
 11
50.298812
 21
201.204212
 31
0.0
  0
LINE
  8
0
  6
CONTINUOUS
 62
   249
 10
230.0
 20
85.0
 30
0.0
 11
237.5
 21
85.0
 31
0.0
  0
LINE
  8
0
  6
CONTINUOUS
 62
   249
 10
237.5
 20
145.0
 30
0.0
 11
230.0
 21
145.0
 31
0.0
  0
LINE
  8
0
  6
CONTINUOUS
 62
   249
 10
237.5
 20
195.0
 30
0.0
 11
230.0
 21
195.0
 31
0.0
  0
LINE
  8
0
  6
CONTINUOUS
 62
   249
 10
374.877518
 20
229.751653
 30
0.0
 11
379.370667
 21
229.751653
 31
0.0
  0
TEXT
  8
0
  6
CONTINUOUS
 62
   249
 10
373.000354
 20
228.835027
 30
0.0
 40
2.0
  1
O
  0
TEXT
  8
0
  6
CONTINUOUS
 62
   249
 10
379.523469
 20
228.830776
 30
0.0
 40
2.0
  1
I
  0
LINE
  8
0
  6
CONTINUOUS
 62
   249
 10
367.419678
 20
222.955472
 30
0.0
 11
367.419678
 21
260.455472
 31
0.0
  0
LINE
  8
0
  6
CONTINUOUS
 62
   249
 10
387.419678
 20
232.955472
 30
0.0
 11
367.419678
 21
232.955472
 31
0.0
  0
LINE
  8
0
  6
CONTINUOUS
 62
   249
 10
387.419678
 20
260.455472
 30
0.0
 11
387.419678
 21
222.955472
 31
0.0
  0
LINE
  8
0
  6
CONTINUOUS
 62
   249
 10
367.419678
 20
260.455472
 30
0.0
 11
387.419678
 21
260.455472
 31
0.0
  0
LINE
  8
0
  6
CONTINUOUS
 62
   249
 10
378.121994
 20
230.462474
 30
0.0
 11
379.370667
 21
229.751653
 31
0.0
  0
LINE
  8
0
  6
CONTINUOUS
 62
   249
 10
379.370667
 20
229.751653
 30
0.0
 11
378.121994
 21
229.118248
 31
0.0
  0
TEXT
  8
0
  6
CONTINUOUS
 62
   249
 10
201.037884
 20
162.744195
 30
0.0
 40
2.5
  1
U
  7
GREEKS
  0
LINE
  8
0
  6
CONTINUOUS
 62
   249
 10
45.0
 20
202.5
 30
0.0
 11
37.5
 21
202.5
 31
0.0
  0
LINE
  8
0
  6
CONTINUOUS
 62
   249
 10
45.0
 20
210.0
 30
0.0
 11
45.0
 21
202.5
 31
0.0
  0
LINE
  8
0
  6
CONTINUOUS
 62
   249
 10
177.5
 20
172.5
 30
0.0
 11
207.950615
 21
172.5
 31
0.0
  0
LINE
  8
0
  6
CONTINUOUS
 62
   249
 10
187.400936
 20
162.460055
 30
0.0
 11
189.900936
 21
162.460055
 31
0.0
  0
LINE
  8
0
  6
CONTINUOUS
 62
   249
 10
187.400936
 20
162.460055
 30
0.0
 11
185.176489
 21
161.899413
 31
0.0
  0
LINE
  8
0
  6
CONTINUOUS
 62
   249
 10
182.400936
 20
162.460055
 30
0.0
 11
184.900936
 21
162.460055
 31
0.0
  0
TEXT
  8
0
  6
HIDDEN
 62
   249
 10
178.580478
 20
161.726807
 30
0.0
 40
1.5
  1
EN
  0
TEXT
  8
0
  6
HIDDEN
 62
   249
 10
178.580478
 20
164.667847
 30
0.0
 40
1.5
  1
EN
  0
LINE
  8
0
  6
CONTINUOUS
 62
   249
 10
182.400936
 20
165.401095
 30
0.0
 11
184.900936
 21
165.401095
 31
0.0
  0
LINE
  8
0
  6
CONTINUOUS
 62
   249
 10
187.400936
 20
165.401095
 30
0.0
 11
185.176489
 21
164.840453
 31
0.0
  0
LINE
  8
0
  6
CONTINUOUS
 62
   249
 10
187.400936
 20
165.401095
 30
0.0
 11
189.900936
 21
165.401095
 31
0.0
  0
LINE
  8
0
  6
CONTINUOUS
 62
   249
 10
175.51273
 20
162.471652
 30
0.0
 11
167.5
 21
162.471652
 31
0.0
  0
LINE
  8
0
  6
CONTINUOUS
 62
   249
 10
175.51273
 20
165.500813
 30
0.0
 11
165.0
 21
165.500813
 31
0.0
  0
CIRCLE
  8
0
  6
CONTINUOUS
 62
   249
 10
176.512659
 20
165.494509
 30
0.0
 40
1.0
  0
CIRCLE
  8
0
  6
CONTINUOUS
 62
   249
 10
176.512659
 20
162.465349
 30
0.0
 40
1.0
  0
LINE
  8
0
  6
CONTINUOUS
 62
   249
 10
188.931134
 20
160.090902
 30
0.0
 11
188.931134
 21
158.30277
 31
0.0
  0
LINE
  8
0
  6
CONTINUOUS
 62
   249
 10
188.962165
 20
159.245623
 30
0.0
 11
196.75037
 21
159.245623
 31
0.0
  0
LINE
  8
0
  6
CONTINUOUS
 62
   249
 10
193.791717
 20
161.443786
 30
0.0
 11
194.692394
 21
160.320037
 31
0.0
  0
LINE
  8
0
  6
CONTINUOUS
 62
   249
 10
191.34631
 20
158.078021
 30
0.0
 11
194.22242
 21
160.906579
 31
0.0
  0
LINE
  8
0
  6
CONTINUOUS
 62
   249
 10
196.745829
 20
160.090902
 30
0.0
 11
196.745829
 21
158.30277
 31
0.0
  0
LINE
  8
0
  6
CONTINUOUS
 62
   249
 10
184.455194
 20
156.061795
 30
0.0
 11
186.800959
 21
154.726442
 31
0.0
  0
LINE
  8
0
  6
CONTINUOUS
 62
   249
 10
186.800959
 20
154.726442
 30
0.0
 11
184.455194
 21
153.536523
 31
0.0
  0
LINE
  8
0
  6
CONTINUOUS
 62
   249
 10
185.970034
 20
156.061795
 30
0.0
 11
188.315799
 21
154.726442
 31
0.0
  0
LINE
  8
0
  6
CONTINUOUS
 62
   249
 10
188.315799
 20
154.726442
 30
0.0
 11
185.970034
 21
153.536523
 31
0.0
  0
LINE
  8
0
  6
CONTINUOUS
 62
   249
 10
187.400936
 20
150.401095
 30
0.0
 11
189.900936
 21
150.401095
 31
0.0
  0
LINE
  8
0
  6
CONTINUOUS
 62
   249
 10
187.400936
 20
150.401095
 30
0.0
 11
185.176489
 21
149.840453
 31
0.0
  0
LINE
  8
0
  6
CONTINUOUS
 62
   249
 10
182.400936
 20
150.401095
 30
0.0
 11
184.900936
 21
150.401095
 31
0.0
  0
TEXT
  8
0
  6
HIDDEN
 62
   249
 10
178.580478
 20
149.667847
 30
0.0
 40
1.5
  1
EN
  0
TEXT
  8
0
  6
HIDDEN
 62
   249
 10
178.580478
 20
146.726807
 30
0.0
 40
1.5
  1
EN
  0
LINE
  8
0
  6
CONTINUOUS
 62
   249
 10
182.400936
 20
147.460055
 30
0.0
 11
184.900936
 21
147.460055
 31
0.0
  0
LINE
  8
0
  6
CONTINUOUS
 62
   249
 10
187.400936
 20
147.460055
 30
0.0
 11
185.176489
 21
146.899413
 31
0.0
  0
LINE
  8
0
  6
CONTINUOUS
 62
   249
 10
187.400936
 20
147.460055
 30
0.0
 11
189.900936
 21
147.460055
 31
0.0
  0
LINE
  8
0
  6
CONTINUOUS
 62
   249
 10
175.51273
 20
150.500813
 30
0.0
 11
165.0
 21
150.500813
 31
0.0
  0
CIRCLE
  8
0
  6
CONTINUOUS
 62
   249
 10
176.512659
 20
150.494509
 30
0.0
 40
1.0
  0
LINE
  8
0
  6
CONTINUOUS
 62
   249
 10
196.745829
 20
144.989158
 30
0.0
 11
196.745829
 21
143.201026
 31
0.0
  0
LINE
  8
0
  6
CONTINUOUS
 62
   249
 10
191.34631
 20
142.976276
 30
0.0
 11
194.22242
 21
145.804835
 31
0.0
  0
LINE
  8
0
  6
CONTINUOUS
 62
   249
 10
193.791717
 20
146.342042
 30
0.0
 11
194.692394
 21
145.218293
 31
0.0
  0
LINE
  8
0
  6
CONTINUOUS
 62
   249
 10
188.962165
 20
144.143879
 30
0.0
 11
196.75037
 21
144.143879
 31
0.0
  0
LINE
  8
0
  6
CONTINUOUS
 62
   249
 10
188.931134
 20
144.989158
 30
0.0
 11
188.931134
 21
143.201026
 31
0.0
  0
TEXT
  8
0
  6
CONTINUOUS
 62
   249
 10
202.5
 20
168.275586
 30
0.0
 40
2.5
  1
U2
  7
ROMANS
  0
TEXT
  8
0
  6
CONTINUOUS
 62
   249
 10
202.501359
 20
138.158649
 30
0.0
 40
2.5
  1
U3
  7
ROMANS
  0
LINE
  8
0
  6
CONTINUOUS
 62
   249
 10
237.5
 20
107.5
 30
0.0
 11
237.5
 21
62.5
 31
0.0
  0
LINE
  8
0
  6
CONTINUOUS
 62
   249
 10
237.5
 20
62.5
 30
0.0
 11
238.5
 21
61.5
 31
0.0
  0
LINE
  8
0
  6
CONTINUOUS
 62
   249
 10
237.5
 20
107.5
 30
0.0
 11
238.5
 21
108.5
 31
0.0
  0
LINE
  8
0
  6
CONTINUOUS
 62
   249
 10
237.5
 20
132.5
 30
0.0
 11
238.5
 21
131.5
 31
0.0
  0
LINE
  8
0
  6
CONTINUOUS
 62
   249
 10
237.5
 20
157.5
 30
0.0
 11
238.5
 21
158.5
 31
0.0
  0
LINE
  8
0
  6
CONTINUOUS
 62
   249
 10
237.5
 20
157.5
 30
0.0
 11
237.5
 21
132.5
 31
0.0
  0
TEXT
  8
0
  6
CONTINUOUS
 62
   249
 10
51.636438
 20
149.2654
 30
0.0
 40
2.0
  1
SGR
 50
90.0
  7
ROMANS
  0
LINE
  8
0
  6
CONTINUOUS
 62
   249
 10
55.0
 20
152.5
 30
0.0
 11
55.0
 21
162.5
 31
0.0
  0
LINE
  8
0
  6
CONTINUOUS
 62
   249
 10
55.0
 20
147.5
 30
0.0
 11
53.285914
 21
152.586297
 31
0.0
  0
LINE
  8
0
  6
CONTINUOUS
 62
   249
 10
55.0
 20
142.5
 30
0.0
 11
55.0
 21
147.5
 31
0.0
  0
TEXT
  8
0
  6
CONTINUOUS
 62
   249
 10
58.023509
 20
138.964455
 30
0.0
 40
2.5
  1
1
 11
58.023509
 21
138.131122
 31
0.0
 73
     1
  0
LINE
  8
0
  6
CONTINUOUS
 62
   249
 10
53.589647
 20
141.624549
 30
0.0
 11
55.935413
 21
140.289195
 31
0.0
  0
LINE
  8
0
  6
CONTINUOUS
 62
   249
 10
53.581606
 20
138.299262
 30
0.0
 11
55.965066
 21
139.487454
 31
0.0
  0
LINE
  8
0
  6
CONTINUOUS
 62
   249
 10
55.935413
 20
140.289195
 30
0.0
 11
53.589647
 21
139.099276
 31
0.0
  0
LINE
  8
0
  6
CONTINUOUS
 62
   249
 10
57.5
 20
137.5
 30
0.0
 11
57.5
 21
132.5
 31
0.0
  0
LINE
  8
0
  6
CONTINUOUS
 62
   249
 10
60.0
 20
142.5
 30
0.0
 11
52.5
 21
142.5
 31
0.0
  0
LINE
  8
0
  6
CONTINUOUS
 62
   249
 10
60.0
 20
142.5
 30
0.0
 11
60.0
 21
137.5
 31
0.0
  0
LINE
  8
0
  6
CONTINUOUS
 62
   249
 10
52.5
 20
137.5
 30
0.0
 11
60.0
 21
137.5
 31
0.0
  0
LINE
  8
0
  6
CONTINUOUS
 62
   249
 10
52.5
 20
142.5
 30
0.0
 11
52.5
 21
137.5
 31
0.0
  0
TEXT
  8
0
  6
CONTINUOUS
 62
   249
 10
83.795492
 20
138.964455
 30
0.0
 40
2.5
  1
1
 11
83.795492
 21
138.131122
 31
0.0
 73
     1
  0
LINE
  8
0
  6
CONTINUOUS
 62
   249
 10
79.36163
 20
141.624549
 30
0.0
 11
81.707396
 21
140.289195
 31
0.0
  0
LINE
  8
0
  6
CONTINUOUS
 62
   249
 10
79.353589
 20
138.299262
 30
0.0
 11
81.737049
 21
139.487454
 31
0.0
  0
LINE
  8
0
  6
CONTINUOUS
 62
   249
 10
81.707396
 20
140.289195
 30
0.0
 11
79.36163
 21
139.099276
 31
0.0
  0
LINE
  8
0
  6
CONTINUOUS
 62
   249
 10
77.5
 20
137.5
 30
0.0
 11
77.5
 21
142.5
 31
0.0
  0
LINE
  8
0
  6
CONTINUOUS
 62
   249
 10
87.5
 20
137.5
 30
0.0
 11
77.5
 21
137.5
 31
0.0
  0
LINE
  8
0
  6
CONTINUOUS
 62
   249
 10
87.5
 20
142.5
 30
0.0
 11
87.5
 21
137.5
 31
0.0
  0
LINE
  8
0
  6
CONTINUOUS
 62
   249
 10
77.5
 20
142.5
 30
0.0
 11
87.5
 21
142.5
 31
0.0
  0
LINE
  8
0
  6
CONTINUOUS
 62
   249
 10
85.0
 20
142.5
 30
0.0
 11
85.0
 21
147.5
 31
0.0
  0
LINE
  8
0
  6
CONTINUOUS
 62
   249
 10
85.0
 20
147.5
 30
0.0
 11
83.285914
 21
152.586297
 31
0.0
  0
LINE
  8
0
  6
CONTINUOUS
 62
   249
 10
85.0
 20
152.5
 30
0.0
 11
85.0
 21
165.0
 31
0.0
  0
LINE
  8
0
  6
CONTINUOUS
 62
   249
 10
70.0
 20
152.5
 30
0.0
 11
70.0
 21
165.0
 31
0.0
  0
LINE
  8
0
  6
CONTINUOUS
 62
   249
 10
70.0
 20
147.5
 30
0.0
 11
68.285914
 21
152.586297
 31
0.0
  0
LINE
  8
0
  6
CONTINUOUS
 62
   249
 10
70.0
 20
146.055194
 30
0.0
 11
70.0
 21
147.5
 31
0.0
  0
TEXT
  8
0
  6
CONTINUOUS
 62
   249
 10
54.411099
 20
150.0
 30
0.0
 40
2.0
  1
3
  7
ROMANS
  0
TEXT
  8
0
  6
CONTINUOUS
 62
   249
 10
69.561751
 20
150.0
 30
0.0
 40
2.0
  1
7
  7
ROMANS
  0
TEXT
  8
0
  6
CONTINUOUS
 62
   249
 10
84.61958
 20
150.0
 30
0.0
 40
2.0
  1
8
  7
ROMANS
  0
LINE
  8
0
  6
CONTINUOUS
 62
   249
 10
55.0
 20
127.5
 30
0.0
 11
37.5
 21
127.5
 31
0.0
  0
LINE
  8
0
  6
CONTINUOUS
 62
   249
 10
62.5
 20
127.5
 30
0.0
 11
62.5
 21
122.5
 31
0.0
  0
LINE
  8
0
  6
CONTINUOUS
 62
   249
 10
62.5
 20
122.5
 30
0.0
 11
37.5
 21
122.5
 31
0.0
  0
LINE
  8
0
  6
CONTINUOUS
 62
   249
 10
60.0
 20
127.5
 30
0.0
 11
62.5
 21
127.5
 31
0.0
  0
LINE
  8
0
  6
CONTINUOUS
 62
   249
 10
75.0
 20
117.5
 30
0.0
 11
75.0
 21
112.5
 31
0.0
  0
LINE
  8
0
  6
CONTINUOUS
 62
   249
 10
75.0
 20
112.5
 30
0.0
 11
37.5
 21
112.5
 31
0.0
  0
LINE
  8
0
  6
CONTINUOUS
 62
   249
 10
112.5
 20
87.5
 30
0.0
 11
112.5
 21
85.0
 31
0.0
  0
LINE
  8
0
  6
CONTINUOUS
 62
   249
 10
110.0
 20
80.0
 30
0.0
 11
110.0
 21
79.999975
 31
0.0
  0
LINE
  8
0
  6
CONTINUOUS
 62
   249
 10
115.0
 20
85.0
 30
0.0
 11
115.0
 21
80.0
 31
0.0
  0
LINE
  8
0
  6
CONTINUOUS
 62
   249
 10
115.0
 20
80.0
 30
0.0
 11
107.5
 21
80.0
 31
0.0
  0
LINE
  8
0
  6
CONTINUOUS
 62
   249
 10
107.5
 20
80.0
 30
0.0
 11
107.5
 21
85.0
 31
0.0
  0
LINE
  8
0
  6
CONTINUOUS
 62
   249
 10
107.5
 20
85.0
 30
0.0
 11
115.0
 21
85.0
 31
0.0
  0
TEXT
  8
0
  6
CONTINUOUS
 62
   249
 10
143.151854
 20
81.464455
 30
0.0
 40
2.5
  1
1
 11
143.151854
 21
80.631122
 31
0.0
 73
     1
  0
LINE
  8
0
  6
CONTINUOUS
 62
   249
 10
138.717992
 20
84.124549
 30
0.0
 11
141.063758
 21
82.789195
 31
0.0
  0
LINE
  8
0
  6
CONTINUOUS
 62
   249
 10
138.70995
 20
80.799262
 30
0.0
 11
141.093411
 21
81.987454
 31
0.0
  0
LINE
  8
0
  6
CONTINUOUS
 62
   249
 10
141.063758
 20
82.789195
 30
0.0
 11
138.717992
 21
81.599276
 31
0.0
  0
LINE
  8
0
  6
CONTINUOUS
 62
   249
 10
135.0
 20
80.0
 30
0.0
 11
135.0
 21
85.0
 31
0.0
  0
LINE
  8
0
  6
CONTINUOUS
 62
   249
 10
147.5
 20
80.0
 30
0.0
 11
135.0
 21
80.0
 31
0.0
  0
LINE
  8
0
  6
CONTINUOUS
 62
   249
 10
147.5
 20
85.0
 30
0.0
 11
147.5
 21
80.0
 31
0.0
  0
LINE
  8
0
  6
CONTINUOUS
 62
   249
 10
135.0
 20
85.0
 30
0.0
 11
147.5
 21
85.0
 31
0.0
  0
LINE
  8
0
  6
CONTINUOUS
 62
   249
 10
142.5
 20
85.0
 30
0.0
 11
142.5
 21
87.5
 31
0.0
  0
LINE
  8
0
  6
CONTINUOUS
 62
   249
 10
70.0
 20
130.0
 30
0.0
 11
70.0
 21
146.055194
 31
0.0
  0
LINE
  8
0
  6
CONTINUOUS
 62
   249
 10
82.5
 20
130.0
 30
0.0
 11
82.5
 21
137.5
 31
0.0
  0
LINE
  8
0
  6
CONTINUOUS
 62
   249
 10
112.5
 20
80.0
 30
0.0
 11
112.5
 21
50.0
 31
0.0
  0
LINE
  8
0
  6
CONTINUOUS
 62
   249
 10
142.5
 20
80.0
 30
0.0
 11
142.5
 21
50.0
 31
0.0
  0
TEXT
  8
0
  6
CONTINUOUS
 62
   249
 10
110.75176
 20
81.455036
 30
0.0
 40
2.5
  1
&
  7
GREEKS
  0
LINE
  8
0
  6
CONTINUOUS
 62
   249
 10
110.0
 20
122.5
 30
0.0
 11
110.0
 21
86.414794
 31
0.0
  0
CIRCLE
  8
0
  6
CONTINUOUS
 62
   249
 10
109.999507
 20
85.707385
 30
0.0
 40
0.707409
  0
LINE
  8
0
  6
CONTINUOUS
 62
   249
 10
62.5
 20
212.5
 30
0.0
 11
167.5
 21
212.5
 31
0.0
  0
LINE
  8
0
  6
CONTINUOUS
 62
   249
 10
167.5
 20
212.5
 30
0.0
 11
167.5
 21
147.519111
 31
0.0
  0
LINE
  8
0
  6
CONTINUOUS
 62
   249
 10
165.0
 20
205.0
 30
0.0
 11
165.0
 21
150.500813
 31
0.0
  0
LINE
  8
0
  6
CONTINUOUS
 62
   249
 10
142.5
 20
155.0
 30
0.0
 11
142.5
 21
85.0
 31
0.0
  0
LINE
  8
0
  6
CONTINUOUS
 62
   249
 10
110.0
 20
122.5
 30
0.0
 11
110.0
 21
146.055194
 31
0.0
  0
LINE
  8
0
  6
CONTINUOUS
 62
   249
 10
55.0
 20
146.055194
 30
0.0
 11
110.0
 21
146.055194
 31
0.0
  0
LINE
  8
0
  6
CONTINUOUS
 62
   249
 10
20.0
 20
102.5
 30
0.0
 11
80.0
 21
102.5
 31
0.0
  0
LINE
  8
0
  6
CONTINUOUS
 62
   249
 10
80.0
 20
97.5
 30
0.0
 11
20.0
 21
97.5
 31
0.0
  0
LINE
  8
0
  6
CONTINUOUS
 62
   249
 10
80.0
 20
97.5
 30
0.0
 11
80.0
 21
100.0
 31
0.0
  0
LINE
  8
0
  6
CONTINUOUS
 62
   249
 10
85.0
 20
102.5
 30
0.0
 11
87.5
 21
102.5
 31
0.0
  0
LINE
  8
0
  6
CONTINUOUS
 62
   249
 10
85.0
 20
102.5
 30
0.0
 11
79.256076
 21
99.285297
 31
0.0
  0
LINE
  8
0
  6
CONTINUOUS
 62
   249
 10
20.0
 20
72.5
 30
0.0
 11
102.5
 21
72.5
 31
0.0
  0
LINE
  8
0
  6
CONTINUOUS
 62
   249
 10
102.5
 20
67.5
 30
0.0
 11
20.0
 21
67.5
 31
0.0
  0
LINE
  8
0
  6
CONTINUOUS
 62
   249
 10
102.5
 20
67.5
 30
0.0
 11
102.5
 21
70.0
 31
0.0
  0
LINE
  8
0
  6
CONTINUOUS
 62
   249
 10
107.5
 20
72.5
 30
0.0
 11
110.0
 21
72.5
 31
0.0
  0
LINE
  8
0
  6
CONTINUOUS
 62
   249
 10
107.5
 20
72.5
 30
0.0
 11
101.756076
 21
69.285297
 31
0.0
  0
LINE
  8
0
  6
CONTINUOUS
 62
   249
 10
87.5
 20
102.5
 30
0.0
 11
87.5
 21
92.5
 31
0.0
  0
LINE
  8
0
  6
CONTINUOUS
 62
   249
 10
87.5
 20
92.5
 30
0.0
 11
37.5
 21
92.5
 31
0.0
  0
LINE
  8
0
  6
CONTINUOUS
 62
   249
 10
110.0
 20
72.5
 30
0.0
 11
110.0
 21
62.5
 31
0.0
  0
LINE
  8
0
  6
CONTINUOUS
 62
   249
 10
110.0
 20
62.5
 30
0.0
 11
37.5
 21
62.5
 31
0.0
  0
LINE
  8
0
  6
CONTINUOUS
 62
   249
 10
82.5
 20
157.5
 30
0.0
 11
82.5
 21
142.5
 31
0.0
  0
LINE
  8
0
  6
CONTINUOUS
 62
   249
 10
145.0
 20
85.0
 30
0.0
 11
145.0
 21
157.5
 31
0.0
  0
LINE
  8
0
  6
CONTINUOUS
 62
   249
 10
140.0
 20
85.0
 30
0.0
 11
140.0
 21
162.5
 31
0.0
  0
LINE
  8
0
  6
CONTINUOUS
 62
   249
 10
137.5
 20
85.0
 30
0.0
 11
137.5
 21
170.0
 31
0.0
  0
LINE
  8
0
  6
CONTINUOUS
 62
   249
 10
112.5
 20
85.0
 30
0.0
 11
112.5
 21
162.5
 31
0.0
  0
TEXT
  8
0
  6
HIDDEN
 62
   249
 10
21.295719
 20
204.715123
 30
0.0
 40
2.0
  1
108:X2:10
  7
ROMANS
  0
TEXT
  8
0
  6
HIDDEN
 62
   249
 10
21.295719
 20
199.574729
 30
0.0
 40
2.0
  1
108:X2:11
  7
ROMANS
  0
TEXT
  8
0
  6
HIDDEN
 62
   249
 10
39.479621
 20
114.61975
 30
0.0
 40
2.0
  1
108:X1:7
  7
ROMANS
  0
TEXT
  8
0
  6
HIDDEN
 62
   249
 10
39.420461
 20
99.642929
 30
0.0
 40
2.0
  1
108:X2:3
  7
ROMANS
  0
TEXT
  8
0
  6
HIDDEN
 62
   249
 10
39.420461
 20
94.712402
 30
0.0
 40
2.0
  1
108:X2:1
  7
ROMANS
  0
TEXT
  8
0
  6
HIDDEN
 62
   249
 10
39.743208
 20
69.760338
 30
0.0
 40
2.0
  1
108:X2:9
  7
ROMANS
  0
TEXT
  8
0
  6
HIDDEN
 62
   249
 10
39.743208
 20
64.686614
 30
0.0
 40
2.0
  1
108:X2:7
  7
ROMANS
  0
LINE
  8
0
  6
CONTINUOUS
 62
   249
 10
367.419678
 20
222.955472
 30
0.0
 11
387.419678
 21
222.955472
 31
0.0
  0
LINE
  8
0
  6
CONTINUOUS
 62
   249
 10
384.211012
 20
226.057697
 30
0.0
 11
384.211012
 21
224.269566
 31
0.0
  0
LINE
  8
0
  6
CONTINUOUS
 62
   249
 10
381.2569
 20
227.410581
 30
0.0
 11
382.157577
 21
226.286832
 31
0.0
  0
LINE
  8
0
  6
CONTINUOUS
 62
   249
 10
378.811493
 20
224.044816
 30
0.0
 11
381.687604
 21
226.873375
 31
0.0
  0
LINE
  8
0
  6
CONTINUOUS
 62
   249
 10
376.427349
 20
225.212419
 30
0.0
 11
384.215554
 21
225.212419
 31
0.0
  0
LINE
  8
0
  6
CONTINUOUS
 62
   249
 10
376.396317
 20
226.057697
 30
0.0
 11
376.396317
 21
224.269566
 31
0.0
  0
TEXT
  8
0
  6
CONTINUOUS
 62
   249
 10
370.28716
 20
224.567942
 30
0.0
 40
2.5
  1
n
  7
GREEKS
  0
TEXT
  8
0
  6
CONTINUOUS
 62
   249
 10
373.678732
 20
224.545912
 30
0.0
 40
2.0
  1
x
  7
GREEKS
  0
LINE
  8
0
 62
   249
 10
57.721556
 20
223.704212
 30
0.0
 11
50.298812
 21
223.704212
 31
0.0
  0
LINE
  8
0
  6
CONTINUOUS
 62
   249
 10
57.721556
 20
227.5
 30
0.0
 11
62.5
 21
227.5
 31
0.0
  0
LINE
  8
0
 62
   249
 10
57.721556
 20
223.704212
 30
0.0
 11
57.721556
 21
231.589925
 31
0.0
  0
LINE
  8
0
 62
   249
 10
57.721556
 20
231.589925
 30
0.0
 11
50.298812
 21
231.589925
 31
0.0
  0
LINE
  8
0
 62
   249
 10
55.996971
 20
231.567786
 30
0.0
 11
54.142636
 21
229.288964
 31
0.0
  0
LINE
  8
0
 62
   249
 10
54.504853
 20
231.567786
 30
0.0
 11
52.59105
 21
229.288964
 31
0.0
  0
LINE
  8
0
 62
   249
 10
50.298812
 20
231.589925
 30
0.0
 11
50.298812
 21
223.704212
 31
0.0
  0
LINE
  8
0
  6
CONTINUOUS
 62
   249
 10
50.298812
 20
225.0
 30
0.0
 11
20.0
 21
225.0
 31
0.0
  0
TEXT
  8
0
  6
CONTINUOUS
 62
   249
 10
21.262907
 20
227.018359
 30
0.0
 40
2.0
  1
108:X1:12
  7
ROMANS
  0
TEXT
  8
0
  6
CONTINUOUS
 62
   249
 10
21.262907
 20
222.166892
 30
0.0
 40
2.0
  1
108:X1:11
  7
ROMANS
  0
TEXT
  8
0
  6
CONTINUOUS
 62
   249
 10
179.505063
 20
153.846592
 30
0.0
 40
2.5
  1
I
 11
179.505063
 21
153.013259
 31
0.0
 73
     1
  0
TEXT
  8
0
  6
CONTINUOUS
 62
   249
 10
179.505063
 20
158.265761
 30
0.0
 40
2.5
  1
I
 11
179.505063
 21
157.432428
 31
0.0
 73
     1
  0
LINE
  8
0
  6
CONTINUOUS
 62
   249
 10
186.787169
 20
159.262687
 30
0.0
 11
184.441403
 21
158.072768
 31
0.0
  0
LINE
  8
0
  6
CONTINUOUS
 62
   249
 10
184.441403
 20
160.598041
 30
0.0
 11
186.787169
 21
159.262687
 31
0.0
  0
TEXT
  8
0
  6
CONTINUOUS
 62
   249
 10
179.505063
 20
168.768175
 30
0.0
 40
2.5
  1
I
 11
179.505063
 21
167.934842
 31
0.0
 73
     1
  0
CIRCLE
  8
0
  6
CONTINUOUS
 62
   249
 10
176.512659
 20
147.521725
 30
0.0
 40
1.0
  0
LINE
  8
0
  6
CONTINUOUS
 62
   249
 10
175.51273
 20
147.519111
 30
0.0
 11
167.5
 21
147.519111
 31
0.0
  0
TEXT
  8
0
  6
CONTINUOUS
 62
   249
 10
179.505063
 20
143.233974
 30
0.0
 40
2.5
  1
I
 11
179.505063
 21
142.400641
 31
0.0
 73
     1
  0
LINE
  8
0
  6
CONTINUOUS
 62
   249
 10
188.331015
 20
144.113824
 30
0.0
 11
185.98525
 21
142.923905
 31
0.0
  0
LINE
  8
0
  6
CONTINUOUS
 62
   249
 10
185.98525
 20
145.449178
 30
0.0
 11
188.331015
 21
144.113824
 31
0.0
  0
LINE
  8
0
  6
CONTINUOUS
 62
   249
 10
186.816175
 20
144.113824
 30
0.0
 11
184.47041
 21
142.923905
 31
0.0
  0
LINE
  8
0
  6
CONTINUOUS
 62
   249
 10
184.47041
 20
145.449178
 30
0.0
 11
186.816175
 21
144.113824
 31
0.0
  0
LINE
  8
0
  6
CONTINUOUS
 62
   249
 10
177.5
 20
105.0
 30
0.0
 11
207.950615
 21
105.0
 31
0.0
  0
LINE
  8
0
  6
CONTINUOUS
 62
   249
 10
199.224689
 20
155.714764
 30
0.0
 11
206.768276
 21
155.714764
 31
0.0
  0
TEXT
  8
0
  6
CONTINUOUS
 62
   249
 10
201.796619
 20
158.276781
 30
0.0
 40
2.5
  1
I
 11
201.796619
 21
157.443448
 31
0.0
 73
     1
  0
TEXT
  8
0
  6
CONTINUOUS
 62
   249
 10
202.22661
 20
150.525469
 30
0.0
 40
1.5
  1
f
  7
GREEKC
  0
TEXT
  8
0
  6
CONTINUOUS
 62
   249
 10
197.971568
 20
150.010459
 30
0.0
 40
1.5
  1
SIN
  7
GREEKS
  0
TEXT
  8
0
  6
CONTINUOUS
 62
   249
 10
197.971568
 20
145.857643
 30
0.0
 40
1.5
  1
COS
  7
GREEKS
  0
TEXT
  8
0
  6
CONTINUOUS
 62
   249
 10
202.22661
 20
146.364059
 30
0.0
 40
1.5
  1
f
  7
GREEKC
  0
TEXT
  8
0
  6
HIDDEN
 62
   249
 10
204.867691
 20
145.862921
 30
0.0
 40
1.5
  1
EN
  0
TEXT
  8
0
  6
HIDDEN
 62
   249
 10
204.867691
 20
149.999914
 30
0.0
 40
1.5
  1
EN
  0
LINE
  8
0
  6
CONTINUOUS
 62
   249
 10
55.0
 20
162.5
 30
0.0
 11
162.5
 21
162.5
 31
0.0
  0
LINE
  8
0
  6
CONTINUOUS
 62
   249
 10
162.5
 20
162.5
 30
0.0
 11
162.5
 21
158.898487
 31
0.0
  0
LINE
  8
0
  6
CONTINUOUS
 62
   249
 10
162.5
 20
158.898487
 30
0.0
 11
177.5
 21
158.898487
 31
0.0
  0
LINE
  8
0
  6
CONTINUOUS
 62
   249
 10
57.5
 20
142.5
 30
0.0
 11
57.5
 21
157.5
 31
0.0
  0
LINE
  8
0
  6
CONTINUOUS
 62
   249
 10
57.5
 20
157.5
 30
0.0
 11
145.0
 21
157.5
 31
0.0
  0
LINE
  8
0
  6
CONTINUOUS
 62
   249
 10
45.0
 20
133.608096
 30
0.0
 11
45.0
 21
165.0
 31
0.0
  0
LINE
  8
0
  6
CONTINUOUS
 62
   249
 10
45.0
 20
165.0
 30
0.0
 11
85.0
 21
165.0
 31
0.0
  0
LINE
  8
0
  6
CONTINUOUS
 62
   249
 10
57.5
 20
133.608096
 30
0.0
 11
45.0
 21
133.608096
 31
0.0
  0
LINE
  8
0
  6
CONTINUOUS
 62
   249
 10
80.0
 20
142.5
 30
0.0
 11
80.0
 21
162.5
 31
0.0
  0
LINE
  8
0
  6
CONTINUOUS
 62
   249
 10
177.5
 20
143.668039
 30
0.0
 11
145.0
 21
143.668039
 31
0.0
  0
LINE
  8
0
  6
CONTINUOUS
 62
   249
 10
177.5
 20
155.0
 30
0.0
 11
142.5
 21
155.0
 31
0.0
  0
LINE
  8
0
  6
CONTINUOUS
 62
   249
 10
142.5
 20
155.0
 30
0.0
 11
142.5
 21
152.5
 31
0.0
  0
LINE
  8
0
  6
CONTINUOUS
 62
   249
 10
177.5
 20
170.0
 30
0.0
 11
105.0
 21
170.0
 31
0.0
  0
TEXT
  8
0
  6
CONTINUOUS
 62
   249
 10
172.342601
 20
170.646044
 30
0.0
 40
1.5
  1
SS1
  7
ROMANS
  0
TEXT
  8
0
  6
CONTINUOUS
 62
   249
 10
172.342601
 20
159.568319
 30
0.0
 40
1.5
  1
TS1
  7
ROMANS
  0
TEXT
  8
0
  6
CONTINUOUS
 62
   249
 10
172.342601
 20
155.689156
 30
0.0
 40
1.5
  1
SS2
  7
ROMANS
  0
TEXT
  8
0
  6
CONTINUOUS
 62
   249
 10
172.342601
 20
144.434831
 30
0.0
 40
1.5
  1
TS2
  7
ROMANS
  0
LINE
  8
0
  6
CONTINUOUS
 62
   249
 10
207.950615
 20
162.060179
 30
0.0
 11
215.0
 21
162.060179
 31
0.0
  0
LINE
  8
0
  6
CONTINUOUS
 62
   249
 10
215.0
 20
162.060179
 30
0.0
 11
215.0
 21
145.0
 31
0.0
  0
LINE
  8
0
  6
CONTINUOUS
 62
   249
 10
215.0
 20
145.0
 30
0.0
 11
230.0
 21
145.0
 31
0.0
  0
CIRCLE
  8
0
  6
CONTINUOUS
 62
   249
 10
208.950323
 20
150.983421
 30
0.0
 40
1.0
  0
LINE
  8
0
  6
CONTINUOUS
 62
   249
 10
62.5
 20
227.5
 30
0.0
 11
212.5
 21
227.5
 31
0.0
  0
LINE
  8
0
  6
CONTINUOUS
 62
   249
 10
212.5
 20
227.5
 30
0.0
 11
212.5
 21
146.543906
 31
0.0
  0
LINE
  8
0
  6
CONTINUOUS
 62
   249
 10
207.950615
 20
146.543906
 30
0.0
 11
212.5
 21
146.543906
 31
0.0
  0
LINE
  8
0
  6
CONTINUOUS
 62
   249
 10
209.950316
 20
150.979447
 30
0.0
 11
212.5
 21
150.979447
 31
0.0
  0
LINE
  8
0
  6
CONTINUOUS
 62
   249
 10
230.0
 20
195.0
 30
0.0
 11
222.5
 21
195.0
 31
0.0
  0
LINE
  8
0
  6
CONTINUOUS
 62
   249
 10
222.5
 20
195.0
 30
0.0
 11
222.5
 21
50.0
 31
0.0
  0
LINE
  8
0
  6
CONTINUOUS
 62
   249
 10
230.0
 20
85.0
 30
0.0
 11
225.0
 21
85.0
 31
0.0
  0
LINE
  8
0
  6
CONTINUOUS
 62
   249
 10
225.0
 20
85.0
 30
0.0
 11
225.0
 21
50.0
 31
0.0
  0
TEXT
  8
0
  6
CONTINUOUS
 62
   249
 10
62.5
 20
225.0
 30
0.0
 40
1.5
  1
BACTRL
  7
ROMANS
  0
TEXT
  8
0
  6
CONTINUOUS
 62
   249
 10
62.5
 20
210.0
 30
0.0
 40
1.5
  1
BS1
  7
ROMANS
  0
TEXT
  8
0
  6
CONTINUOUS
 62
   249
 10
62.5
 20
202.5
 30
0.0
 40
1.5
  1
BS2
  7
ROMANS
  0
LINE
  8
0
  6
CONTINUOUS
 62
   249
 10
378.363966
 20
257.559105
 30
0.0
 11
380.709732
 21
256.223751
 31
0.0
  0
LINE
  8
0
  6
CONTINUOUS
 62
   249
 10
380.709732
 20
256.223751
 30
0.0
 11
378.363966
 21
255.033832
 31
0.0
  0
TEXT
  8
0
  6
CONTINUOUS
 62
   249
 10
373.839919
 20
255.343902
 30
0.0
 40
2.5
  1
I
 11
373.839919
 21
254.510568
 31
0.0
 73
     1
  0
LINE
  8
0
  6
CONTINUOUS
 62
   249
 10
373.019954
 20
252.69666
 30
0.0
 11
373.019954
 21
250.908529
 31
0.0
  0
LINE
  8
0
  6
CONTINUOUS
 62
   249
 10
373.050985
 20
251.851381
 30
0.0
 11
380.839191
 21
251.851381
 31
0.0
  0
LINE
  8
0
  6
CONTINUOUS
 62
   249
 10
375.43513
 20
250.683779
 30
0.0
 11
378.311241
 21
253.512337
 31
0.0
  0
LINE
  8
0
  6
CONTINUOUS
 62
   249
 10
377.880537
 20
254.049544
 30
0.0
 11
378.781214
 21
252.925795
 31
0.0
  0
LINE
  8
0
  6
CONTINUOUS
 62
   249
 10
380.834649
 20
252.69666
 30
0.0
 11
380.834649
 21
250.908529
 31
0.0
  0
LINE
  8
0
  6
CONTINUOUS
 62
   249
 10
372.913297
 20
248.049743
 30
0.0
 11
380.456883
 21
248.049743
 31
0.0
  0
TEXT
  8
0
  6
CONTINUOUS
 62
   249
 10
373.839919
 20
242.813739
 30
0.0
 40
2.5
  1
I
 11
373.839919
 21
241.980406
 31
0.0
 73
     1
  0
LINE
  8
0
  6
CONTINUOUS
 62
   249
 10
383.07288
 20
243.693589
 30
0.0
 11
380.727114
 21
242.50367
 31
0.0
  0
LINE
  8
0
  6
CONTINUOUS
 62
   249
 10
380.727114
 20
245.028943
 30
0.0
 11
383.07288
 21
243.693589
 31
0.0
  0
LINE
  8
0
  6
CONTINUOUS
 62
   249
 10
380.694517
 20
243.693589
 30
0.0
 11
378.348751
 21
242.50367
 31
0.0
  0
LINE
  8
0
  6
CONTINUOUS
 62
   249
 10
378.348751
 20
245.028943
 30
0.0
 11
380.694517
 21
243.693589
 31
0.0
  0
LINE
  8
0
  6
CONTINUOUS
 62
   249
 10
380.834649
 20
239.516296
 30
0.0
 11
380.834649
 21
237.728164
 31
0.0
  0
LINE
  8
0
  6
CONTINUOUS
 62
   249
 10
377.880537
 20
240.86918
 30
0.0
 11
378.781214
 21
239.745431
 31
0.0
  0
LINE
  8
0
  6
CONTINUOUS
 62
   249
 10
375.43513
 20
237.503414
 30
0.0
 11
378.311241
 21
240.331973
 31
0.0
  0
LINE
  8
0
  6
CONTINUOUS
 62
   249
 10
373.050985
 20
238.671017
 30
0.0
 11
380.839191
 21
238.671017
 31
0.0
  0
LINE
  8
0
  6
CONTINUOUS
 62
   249
 10
373.019954
 20
239.516296
 30
0.0
 11
373.019954
 21
237.728164
 31
0.0
  0
LINE
  8
0
  6
CONTINUOUS
 62
   249
 10
372.913297
 20
234.891419
 30
0.0
 11
380.456883
 21
234.891419
 31
0.0
  0
LINE
  8
0
  6
CONTINUOUS
 62
   249
 10
367.419678
 20
232.955472
 30
0.0
 11
387.419678
 21
232.955472
 31
0.0
  0
TEXT
  8
0
  6
DASHED
 62
   249
 10
363.312462
 20
216.956364
 30
0.0
 40
2.0
  1
FEEDER TERMINAL
  7
ROMANS
  0
TEXT
  8
0
  6
DASHED
 62
   249
 10
363.312462
 20
213.623031
 30
0.0
 40
2.0
  1
LEDNINGSTERMINAL
  7
ROMANS
  0
TEXT
  8
0
  6
CONTINUOUS
 62
   249
 10
52.713192
 20
29.395962
 30
0.0
 40
2.014518
  1
f
  7
GREEKC
  0
TEXT
  8
0
  6
DASHED
 62
   249
 10
19.98632
 20
38.730372
 30
0.0
 40
2.0
  1
2) OPERATING CHARACTERISTICS
  7
GREEKS
  0
TEXT
  8
0
  6
DASHED
 62
   249
 10
21.313679
 20
35.397039
 30
0.0
 40
2.0
  1
  SIN  OR COS  /
  7
GREEKS
  0
TEXT
  8
0
  6
DASHED
 62
   249
 10
21.313679
 20
32.063705
 30
0.0
 40
2.0
  1
  FUNKTIONSKARAKTERISTIKEN
  7
ROMANS
  0
TEXT
  8
0
  6
DASHED
 62
   249
 10
21.313679
 20
28.730372
 30
0.0
 40
2.0
  1
  SIN  ELLER COS
  7
ROMANS
  0
TEXT
  8
0
  6
CONTINUOUS
 62
   249
 10
30.676688
 20
29.395962
 30
0.0
 40
2.014518
  1
f
  7
GREEKC
  0
TEXT
  8
0
  6
CONTINUOUS
 62
   249
 10
30.676688
 20
36.082878
 30
0.0
 40
2.014518
  1
f
  7
GREEKC
  0
TEXT
  8
0
  6
CONTINUOUS
 62
   249
 10
46.675472
 20
36.082878
 30
0.0
 40
2.014518
  1
f
  7
GREEKC
  0
TEXT
  8
0
  6
DASHED
 62
   249
 10
19.996249
 20
23.987938
 30
0.0
 40
2.0
  1
3) BLOCKING INPUT /
  7
ROMANS
  0
TEXT
  8
0
  6
DASHED
 62
   249
 10
21.323608
 20
20.654605
 30
0.0
 40
2.0
  1
  BLOCKERING IN
  7
ROMANS
  0
TEXT
  8
0
  6
DASHED
 62
   249
 10
20.043235
 20
16.351835
 30
0.0
 40
2.0
  1
4) TRIP 1 /
  7
ROMANS
  0
TEXT
  8
0
  6
DASHED
 62
   249
 10
21.323608
 20
13.018501
 30
0.0
 40
2.0
  1
  UTLÖSNING 1
  7
ROMANS
  0
TEXT
  8
0
  6
DASHED
 62
   249
 10
87.5
 20
35.008677
 30
0.0
 40
2.0
  1
5a) TRIP 2 OR ALARM OUTPUT /
  7
ROMANS
  0
TEXT
  8
0
  6
DASHED
 62
   249
 10
88.839015
 20
31.675344
 30
0.0
 40
2.0
  1
   UTLÖSNING 2 ELLER SIGNALUTGÅNG
  7
ROMANS
  0
TEXT
  8
0
  6
DASHED
 62
   249
 10
87.5
 20
25.842011
 30
0.0
 40
2.0
  1
5b) ALARM OUTPUT /
  7
ROMANS
  0
TEXT
  8
0
  6
DASHED
 62
   249
 10
88.839015
 20
22.508677
 30
0.0
 40
2.0
  1
   SIGNALUTGÅNG
  7
ROMANS
  0
TEXT
  8
0
  6
DASHED
 62
   249
 10
87.5
 20
16.317819
 30
0.0
 40
2.0
  1
5c) START, BLOCKING ETC.
  7
ROMANS
  0
TEXT
  8
0
  6
DASHED
 62
   249
 10
88.839015
 20
12.984486
 30
0.0
 40
2.0
  1
   START, BLOCKERING MM.
  7
ROMANS
  0
TEXT
  8
0
  6
DASHED
 62
   249
 10
370.307098
 20
11.986662
 30
0.0
 40
2.0
  1
1/2
  7
ROMANS
  0
TEXT
  8
0
  6
CONTINUOUS
 62
   249
 10
115.721328
 20
53.945356
 30
0.0
 40
2.0
  1
ARINH
 50
90.0
  7
ROMANS
  0
TEXT
  8
0
  6
CONTINUOUS
 62
   249
 10
140.738586
 20
53.945356
 30
0.0
 40
2.0
  1
CH16
 50
90.0
  7
ROMANS
  0
TEXT
  8
0
  6
CONTINUOUS
 62
   249
 10
211.578058
 20
28.10378
 30
0.0
 40
2.0
  1
94-06-27 KM / AD-ELECT.
  7
ROMANS
  0
TEXT
  8
0
  6
CONTINUOUS
 62
   249
 10
380.0
 20
2.5
 30
0.0
 40
2.5
  1
A
  7
ROMANS
  0
TEXT
  8
0
  6
CONTINUOUS
 62
   249
 10
322.5
 20
2.5
 30
0.0
 40
2.5
  1
1MRS10213-AAF
  7
ROMANS
  0
LINE
  8
0
  6
DASHED
 62
   249
 10
20.0
 20
140.0
 30
0.0
 11
15.0
 21
140.0
 31
0.0
  0
TEXT
  8
0
  6
DASHED
 62
   249
 10
267.525562
 20
66.213263
 30
0.0
 40
2.0
  1
23A
  7
ROMANS
  0
LINE
  8
0
  6
CONTINUOUS
 62
   249
 10
266.000004
 20
70.0
 30
0.0
 11
275.0
 21
70.0
 31
0.0
  0
LINE
  8
0
  6
CONTINUOUS
 62
   249
 10
266.000004
 20
70.0
 30
0.0
 11
259.337159
 21
72.434804
 31
0.0
  0
LINE
  8
0
  6
CONTINUOUS
 62
   249
 10
259.337159
 20
72.434804
 30
0.0
 11
258.892266
 21
71.549106
 31
0.0
  0
LINE
  8
0
  6
CONTINUOUS
 62
   249
 10
260.0
 20
70.0
 30
0.0
 11
260.0
 21
72.765661
 31
0.0
  0
LINE
  8
0
  6
CONTINUOUS
 62
   249
 10
259.337159
 20
92.434804
 30
0.0
 11
258.892266
 21
91.549106
 31
0.0
  0
LINE
  8
0
  6
CONTINUOUS
 62
   249
 10
260.0
 20
90.0
 30
0.0
 11
260.0
 21
92.765661
 31
0.0
  0
LINE
  8
0
  6
CONTINUOUS
 62
   249
 10
266.000004
 20
90.0
 30
0.0
 11
259.337159
 21
92.434804
 31
0.0
  0
TEXT
  8
0
  6
DASHED
 62
   249
 10
267.525562
 20
86.518385
 30
0.0
 40
2.0
  1
22A
  7
ROMANS
  0
LINE
  8
0
  6
CONTINUOUS
 62
   249
 10
266.000004
 20
90.0
 30
0.0
 11
275.0
 21
90.0
 31
0.0
  0
LINE
  8
0
  6
CONTINUOUS
 62
   249
 10
242.5
 20
110.0
 30
0.0
 11
260.0
 21
110.0
 31
0.0
  0
TEXT
  8
0
  6
DASHED
 62
   249
 10
267.525562
 20
106.518385
 30
0.0
 40
2.0
  1
21A
  7
ROMANS
  0
LINE
  8
0
  6
CONTINUOUS
 62
   249
 10
266.000004
 20
110.0
 30
0.0
 11
275.0
 21
110.0
 31
0.0
  0
LINE
  8
0
  6
CONTINUOUS
 62
   249
 10
266.000004
 20
110.0
 30
0.0
 11
259.337159
 21
112.434804
 31
0.0
  0
LINE
  8
0
  6
CONTINUOUS
 62
   249
 10
259.337159
 20
112.434804
 30
0.0
 11
258.892266
 21
111.549106
 31
0.0
  0
LINE
  8
0
  6
CONTINUOUS
 62
   249
 10
260.0
 20
110.0
 30
0.0
 11
260.0
 21
112.765661
 31
0.0
  0
LINE
  8
0
  6
CONTINUOUS
 62
   249
 10
266.000004
 20
140.0
 30
0.0
 11
275.0
 21
140.0
 31
0.0
  0
LINE
  8
0
  6
CONTINUOUS
 62
   249
 10
259.337159
 20
142.434804
 30
0.0
 11
258.892266
 21
141.549106
 31
0.0
  0
LINE
  8
0
  6
CONTINUOUS
 62
   249
 10
260.0
 20
140.0
 30
0.0
 11
260.0
 21
142.765661
 31
0.0
  0
LINE
  8
0
  6
CONTINUOUS
 62
   249
 10
266.000004
 20
140.0
 30
0.0
 11
259.337159
 21
142.434804
 31
0.0
  0
TEXT
  8
0
  6
DASHED
 62
   249
 10
267.884687
 20
136.518385
 30
0.0
 40
2.0
  1
24A
  7
ROMANS
  0
LINE
  8
0
  6
CENTER
 62
   249
 10
275.0
 20
210.0
 30
0.0
 11
275.0
 21
245.0
 31
0.0
  0
LINE
  8
0
  6
CENTER
 62
   249
 10
275.0
 20
195.0
 30
0.0
 11
275.0
 21
50.0
 31
0.0
  0
TEXT
  8
0
  6
CONTINUOUS
 62
   249
 10
267.354441
 20
152.25756
 30
0.0
 40
2.0
  1
20A
  7
ROMANS
  0
LINE
  8
0
  6
CONTINUOUS
 62
   249
 10
265.0
 20
155.0
 30
0.0
 11
275.0
 21
155.0
 31
0.0
  0
TEXT
  8
0
  6
CONTINUOUS
 62
   249
 10
268.18043
 20
162.051395
 30
0.0
 40
2.0
  1
19A
  7
ROMANS
  0
LINE
  8
0
  6
CONTINUOUS
 62
   249
 10
265.0
 20
165.0
 30
0.0
 11
275.0
 21
165.0
 31
0.0
  0
TEXT
  8
0
  6
DASHED
 62
   249
 10
268.18043
 20
172.045879
 30
0.0
 40
2.0
  1
18A
  7
ROMANS
 11
268.18043
 21
171.379213
 31
0.0
 73
     1
  0
LINE
  8
0
  6
CONTINUOUS
 62
   249
 10
265.0
 20
175.0
 30
0.0
 11
275.0
 21
175.0
 31
0.0
  0
TEXT
  8
0
  6
DASHED
 62
   249
 10
268.18043
 20
182.333333
 30
0.0
 40
2.0
  1
17A
  7
ROMANS
 11
268.18043
 21
181.666667
 31
0.0
 73
     1
  0
LINE
  8
0
  6
CONTINUOUS
 62
   249
 10
265.0
 20
185.0
 30
0.0
 11
275.0
 21
185.0
 31
0.0
  0
LINE
  8
0
  6
CONTINUOUS
 62
   249
 10
265.0
 20
195.0
 30
0.0
 11
275.0
 21
195.0
 31
0.0
  0
TEXT
  8
0
  6
DASHED
 62
   249
 10
268.18043
 20
192.286975
 30
0.0
 40
2.0
  1
16A
  7
ROMANS
 11
268.18043
 21
191.620309
 31
0.0
 73
     1
  0
TEXT
  8
0
  6
DASHED
 62
   249
 10
268.18043
 20
202.037215
 30
0.0
 40
2.0
  1
15A
  7
ROMANS
 11
268.18043
 21
201.370548
 31
0.0
 73
     1
  0
LINE
  8
0
  6
CONTINUOUS
 62
   249
 10
265.0
 20
205.0
 30
0.0
 11
275.0
 21
205.0
 31
0.0
  0
TEXT
  8
0
  6
DASHED
 62
   249
 10
268.18043
 20
212.333333
 30
0.0
 40
2.0
  1
14A
  7
ROMANS
 11
268.18043
 21
211.666667
 31
0.0
 73
     1
  0
LINE
  8
0
  6
CONTINUOUS
 62
   249
 10
265.0
 20
215.0
 30
0.0
 11
275.0
 21
215.0
 31
0.0
  0
LINE
  8
0
  6
CONTINUOUS
 62
   249
 10
265.0
 20
225.0
 30
0.0
 11
275.0
 21
225.0
 31
0.0
  0
TEXT
  8
0
  6
DASHED
 62
   249
 10
268.18043
 20
222.265533
 30
0.0
 40
2.0
  1
13A
  7
ROMANS
 11
268.18043
 21
221.598866
 31
0.0
 73
     1
  0
LINE
  8
0
  6
CONTINUOUS
 62
   249
 10
242.5
 20
210.0
 30
0.0
 11
257.5
 21
210.0
 31
0.0
  0
LINE
  8
0
  6
CONTINUOUS
 62
   249
 10
257.5
 20
190.0
 30
0.0
 11
242.5
 21
190.0
 31
0.0
  0
LINE
  8
0
  6
CONTINUOUS
 62
   249
 10
257.5
 20
170.0
 30
0.0
 11
242.5
 21
170.0
 31
0.0
  0
LINE
  8
0
  6
CONTINUOUS
 62
   249
 10
257.5
 20
150.0
 30
0.0
 11
242.5
 21
150.0
 31
0.0
  0
LINE
  8
0
 62
   249
 10
255.0
 20
214.99845
 30
0.0
 11
255.0
 21
224.99845
 31
0.0
  0
LINE
  8
0
 62
   249
 10
257.5
 20
225.0
 30
0.0
 11
260.0
 21
225.0
 31
0.0
  0
LINE
  8
0
 62
   249
 10
255.0
 20
224.99845
 30
0.0
 11
257.5
 21
224.99845
 31
0.0
  0
LINE
  8
0
 62
   249
 10
252.5
 20
220.0
 30
0.0
 11
257.5
 21
220.0
 31
0.0
  0
LINE
  8
0
 62
   249
 10
257.5
 20
220.0
 30
0.0
 11
260.0
 21
220.0
 31
0.0
  0
LINE
  8
0
 62
   249
 10
260.0
 20
220.0
 30
0.0
 11
260.0
 21
222.9
 31
0.0
  0
LINE
  8
0
 62
   249
 10
258.88095
 20
221.944425
 30
0.0
 11
259.560313
 21
221.008681
 31
0.0
  0
LINE
  8
0
 62
   249
 10
265.0
 20
225.0
 30
0.0
 11
259.2
 21
221.5
 31
0.0
  0
LINE
  8
0
 62
   249
 10
257.5
 20
214.99845
 30
0.0
 11
255.0
 21
214.99845
 31
0.0
  0
LINE
  8
0
 62
   249
 10
257.5
 20
215.0
 30
0.0
 11
260.0
 21
215.0
 31
0.0
  0
LINE
  8
0
  6
CONTINUOUS
 62
   249
 10
252.5
 20
220.0
 30
0.0
 11
248.5
 21
220.0
 31
0.0
  0
LINE
  8
0
 62
   249
 10
265.0
 20
215.0
 30
0.0
 11
259.2
 21
211.5
 31
0.0
  0
LINE
  8
0
 62
   249
 10
258.88095
 20
211.944425
 30
0.0
 11
259.560313
 21
211.008681
 31
0.0
  0
LINE
  8
0
 62
   249
 10
257.5
 20
210.0
 30
0.0
 11
260.0
 21
210.0
 31
0.0
  0
LINE
  8
0
 62
   249
 10
260.0
 20
210.0
 30
0.0
 11
260.0
 21
212.9
 31
0.0
  0
LINE
  8
0
 62
   249
 10
265.0
 20
205.0
 30
0.0
 11
259.2
 21
201.5
 31
0.0
  0
LINE
  8
0
 62
   249
 10
258.88095
 20
201.944425
 30
0.0
 11
259.560313
 21
201.008681
 31
0.0
  0
LINE
  8
0
 62
   249
 10
260.0
 20
200.0
 30
0.0
 11
260.0
 21
202.9
 31
0.0
  0
LINE
  8
0
 62
   249
 10
257.5
 20
200.0
 30
0.0
 11
260.0
 21
200.0
 31
0.0
  0
LINE
  8
0
 62
   249
 10
252.5
 20
200.0
 30
0.0
 11
257.5
 21
200.0
 31
0.0
  0
LINE
  8
0
 62
   249
 10
255.0
 20
204.99845
 30
0.0
 11
257.5
 21
204.99845
 31
0.0
  0
LINE
  8
0
 62
   249
 10
257.5
 20
205.0
 30
0.0
 11
260.0
 21
205.0
 31
0.0
  0
LINE
  8
0
 62
   249
 10
255.0
 20
194.99845
 30
0.0
 11
255.0
 21
204.99845
 31
0.0
  0
LINE
  8
0
 62
   249
 10
257.5
 20
194.99845
 30
0.0
 11
255.0
 21
194.99845
 31
0.0
  0
LINE
  8
0
 62
   249
 10
257.5
 20
195.0
 30
0.0
 11
260.0
 21
195.0
 31
0.0
  0
LINE
  8
0
 62
   249
 10
258.88095
 20
191.944425
 30
0.0
 11
259.560313
 21
191.008681
 31
0.0
  0
LINE
  8
0
 62
   249
 10
265.0
 20
195.0
 30
0.0
 11
259.2
 21
191.5
 31
0.0
  0
LINE
  8
0
 62
   249
 10
260.0
 20
190.0
 30
0.0
 11
260.0
 21
192.9
 31
0.0
  0
LINE
  8
0
 62
   249
 10
257.5
 20
190.0
 30
0.0
 11
260.0
 21
190.0
 31
0.0
  0
LINE
  8
0
 62
   249
 10
257.5
 20
185.0
 30
0.0
 11
260.0
 21
185.0
 31
0.0
  0
LINE
  8
0
 62
   249
 10
255.0
 20
184.99845
 30
0.0
 11
257.5
 21
184.99845
 31
0.0
  0
LINE
  8
0
 62
   249
 10
252.5
 20
180.0
 30
0.0
 11
257.5
 21
180.0
 31
0.0
  0
LINE
  8
0
 62
   249
 10
257.5
 20
180.0
 30
0.0
 11
260.0
 21
180.0
 31
0.0
  0
LINE
  8
0
 62
   249
 10
260.0
 20
180.0
 30
0.0
 11
260.0
 21
182.9
 31
0.0
  0
LINE
  8
0
 62
   249
 10
258.88095
 20
181.944425
 30
0.0
 11
259.560313
 21
181.008681
 31
0.0
  0
LINE
  8
0
 62
   249
 10
265.0
 20
185.0
 30
0.0
 11
259.2
 21
181.5
 31
0.0
  0
LINE
  8
0
 62
   249
 10
255.0
 20
174.99845
 30
0.0
 11
255.0
 21
184.99845
 31
0.0
  0
LINE
  8
0
 62
   249
 10
257.5
 20
174.99845
 30
0.0
 11
255.0
 21
174.99845
 31
0.0
  0
LINE
  8
0
 62
   249
 10
257.5
 20
174.998451
 30
0.0
 11
260.0
 21
174.998451
 31
0.0
  0
LINE
  8
0
 62
   249
 10
265.0
 20
175.0
 30
0.0
 11
259.2
 21
171.5
 31
0.0
  0
LINE
  8
0
 62
   249
 10
260.0
 20
170.0
 30
0.0
 11
260.0
 21
172.9
 31
0.0
  0
LINE
  8
0
 62
   249
 10
257.5
 20
170.0
 30
0.0
 11
260.0
 21
170.0
 31
0.0
  0
LINE
  8
0
 62
   249
 10
258.88095
 20
171.944425
 30
0.0
 11
259.560313
 21
171.008681
 31
0.0
  0
LINE
  8
0
  6
CONTINUOUS
 62
   249
 10
252.5
 20
180.0
 30
0.0
 11
242.5
 21
180.0
 31
0.0
  0
LINE
  8
0
  6
CONTINUOUS
 62
   249
 10
252.5
 20
200.0
 30
0.0
 11
242.5
 21
200.0
 31
0.0
  0
TEXT
  8
0
  6
CONTINUOUS
 62
   249
 10
255.387383
 20
229.086709
 30
0.0
 40
2.0
  1
101
  7
ROMANS
  0
LINE
  8
0
  6
CONTINUOUS
 62
   249
 10
252.5
 20
160.0
 30
0.0
 11
242.5
 21
160.0
 31
0.0
  0
LINE
  8
0
 62
   249
 10
252.5
 20
160.0
 30
0.0
 11
257.5
 21
160.0
 31
0.0
  0
LINE
  8
0
 62
   249
 10
255.0
 20
154.99845
 30
0.0
 11
255.0
 21
164.99845
 31
0.0
  0
LINE
  8
0
 62
   249
 10
257.5
 20
154.998451
 30
0.0
 11
260.0
 21
154.998451
 31
0.0
  0
LINE
  8
0
 62
   249
 10
257.5
 20
154.99845
 30
0.0
 11
255.0
 21
154.99845
 31
0.0
  0
LINE
  8
0
 62
   249
 10
255.0
 20
164.99845
 30
0.0
 11
257.5
 21
164.99845
 31
0.0
  0
LINE
  8
0
 62
   249
 10
257.5
 20
165.0
 30
0.0
 11
260.0
 21
165.0
 31
0.0
  0
LINE
  8
0
 62
   249
 10
258.88095
 20
161.944425
 30
0.0
 11
259.560313
 21
161.008681
 31
0.0
  0
LINE
  8
0
 62
   249
 10
257.5
 20
160.0
 30
0.0
 11
260.0
 21
160.0
 31
0.0
  0
LINE
  8
0
 62
   249
 10
265.0
 20
165.0
 30
0.0
 11
259.2
 21
161.5
 31
0.0
  0
LINE
  8
0
 62
   249
 10
260.0
 20
160.0
 30
0.0
 11
260.0
 21
162.9
 31
0.0
  0
LINE
  8
0
 62
   249
 10
258.88095
 20
151.944425
 30
0.0
 11
259.560313
 21
151.008681
 31
0.0
  0
LINE
  8
0
 62
   249
 10
257.5
 20
150.0
 30
0.0
 11
260.0
 21
150.0
 31
0.0
  0
LINE
  8
0
 62
   249
 10
260.0
 20
150.0
 30
0.0
 11
260.0
 21
152.9
 31
0.0
  0
LINE
  8
0
 62
   249
 10
265.0
 20
155.0
 30
0.0
 11
259.2
 21
151.5
 31
0.0
  0
LINE
  8
0
  6
DASHED
 62
   249
 10
20.0
 20
62.5
 30
0.0
 11
15.0
 21
62.5
 31
0.0
  0
LINE
  8
0
  6
DASHED
 62
   249
 10
20.0
 20
92.5
 30
0.0
 11
15.0
 21
92.5
 31
0.0
  0
LINE
  8
0
  6
DASHED
 62
   249
 10
20.0
 20
112.5
 30
0.0
 11
15.0
 21
112.5
 31
0.0
  0
LINE
  8
0
  6
DASHED
 62
   249
 10
20.0
 20
122.5
 30
0.0
 11
15.0
 21
122.5
 31
0.0
  0
LINE
  8
0
  6
DASHED
 62
   249
 10
20.0
 20
127.5
 30
0.0
 11
15.0
 21
127.5
 31
0.0
  0
LINE
  8
0
  6
CENTER
 62
   249
 10
20.0
 20
50.0
 30
0.0
 11
275.0
 21
50.0
 31
0.0
  0
LINE
  8
0
  6
CENTER
 62
   249
 10
275.0
 20
245.0
 30
0.0
 11
20.0
 21
245.0
 31
0.0
  0
LINE
  8
0
  6
CONTINUOUS
 62
   249
 10
40.753196
 20
140.0
 30
0.0
 11
33.500004
 21
140.0
 31
0.0
  0
LINE
  8
0
  6
CONTINUOUS
 62
   249
 10
26.837159
 20
124.934804
 30
0.0
 11
26.392266
 21
124.049106
 31
0.0
  0
LINE
  8
0
  6
CONTINUOUS
 62
   249
 10
26.837159
 20
142.434804
 30
0.0
 11
26.392266
 21
141.549106
 31
0.0
  0
LINE
  8
0
  6
CONTINUOUS
 62
   249
 10
26.837159
 20
64.934804
 30
0.0
 11
26.392266
 21
64.049106
 31
0.0
  0
LINE
  8
0
  6
CONTINUOUS
 62
   249
 10
27.5
 20
62.5
 30
0.0
 11
27.5
 21
65.265661
 31
0.0
  0
LINE
  8
0
  6
CONTINUOUS
 62
   249
 10
33.500004
 20
62.5
 30
0.0
 11
26.837159
 21
64.934804
 31
0.0
  0
TEXT
  8
0
  6
DASHED
 62
   249
 10
21.839664
 20
135.950504
 30
0.0
 40
2.0
  1
101:12A
  7
ROMANS
  0
TEXT
  8
0
  6
DASHED
 62
   249
 10
39.367706
 20
124.420731
 30
0.0
 40
2.0
  1
101:2A
  7
ROMANS
  0
TEXT
  8
0
  6
DASHED
 62
   249
 10
39.367706
 20
119.435167
 30
0.0
 40
2.0
  1
101:1A
  7
ROMANS
  0
LINE
  8
0
  6
CONTINUOUS
 62
   249
 10
27.5
 20
140.0
 30
0.0
 11
27.5
 21
142.765661
 31
0.0
  0
LINE
  8
0
  6
CONTINUOUS
 62
   249
 10
27.5
 20
140.0
 30
0.0
 11
20.0
 21
140.0
 31
0.0
  0
LINE
  8
0
  6
CONTINUOUS
 62
   249
 10
33.500004
 20
140.0
 30
0.0
 11
26.837159
 21
142.434804
 31
0.0
  0
LINE
  8
0
  6
CONTINUOUS
 62
   249
 10
42.5
 20
127.5
 30
0.0
 11
33.500004
 21
127.5
 31
0.0
  0
LINE
  8
0
  6
CONTINUOUS
 62
   249
 10
27.5
 20
127.5
 30
0.0
 11
20.0
 21
127.5
 31
0.0
  0
LINE
  8
0
  6
CONTINUOUS
 62
   249
 10
27.5
 20
127.5
 30
0.0
 11
27.5
 21
130.265661
 31
0.0
  0
LINE
  8
0
  6
CONTINUOUS
 62
   249
 10
33.500004
 20
127.5
 30
0.0
 11
26.837159
 21
129.934804
 31
0.0
  0
LINE
  8
0
  6
CONTINUOUS
 62
   249
 10
42.5
 20
122.5
 30
0.0
 11
33.500004
 21
122.5
 31
0.0
  0
LINE
  8
0
  6
CONTINUOUS
 62
   249
 10
27.5
 20
122.5
 30
0.0
 11
20.0
 21
122.5
 31
0.0
  0
LINE
  8
0
  6
CONTINUOUS
 62
   249
 10
27.5
 20
122.5
 30
0.0
 11
27.5
 21
125.265661
 31
0.0
  0
LINE
  8
0
  6
CONTINUOUS
 62
   249
 10
33.500004
 20
122.5
 30
0.0
 11
26.837159
 21
124.934804
 31
0.0
  0
TEXT
  8
0
  6
DASHED
 62
   249
 10
39.367706
 20
109.279115
 30
0.0
 40
2.0
  1
101:3A
  7
ROMANS
  0
LINE
  8
0
  6
CONTINUOUS
 62
   249
 10
27.5
 20
62.5
 30
0.0
 11
20.0
 21
62.5
 31
0.0
  0
LINE
  8
0
  6
CONTINUOUS
 62
   249
 10
27.5
 20
92.5
 30
0.0
 11
20.0
 21
92.5
 31
0.0
  0
LINE
  8
0
  6
CONTINUOUS
 62
   249
 10
27.5
 20
112.5
 30
0.0
 11
20.0
 21
112.5
 31
0.0
  0
LINE
  8
0
  6
CONTINUOUS
 62
   249
 10
27.5
 20
112.5
 30
0.0
 11
27.5
 21
115.265661
 31
0.0
  0
LINE
  8
0
  6
CONTINUOUS
 62
   249
 10
33.500004
 20
112.5
 30
0.0
 11
26.837159
 21
114.934804
 31
0.0
  0
LINE
  8
0
  6
CONTINUOUS
 62
   249
 10
27.5
 20
92.5
 30
0.0
 11
27.5
 21
95.265661
 31
0.0
  0
LINE
  8
0
  6
CONTINUOUS
 62
   249
 10
33.500004
 20
92.5
 30
0.0
 11
26.837159
 21
94.934804
 31
0.0
  0
LINE
  8
0
  6
CONTINUOUS
 62
   249
 10
42.5
 20
112.5
 30
0.0
 11
33.500004
 21
112.5
 31
0.0
  0
LINE
  8
0
  6
CONTINUOUS
 62
   249
 10
42.5
 20
92.5
 30
0.0
 11
33.500004
 21
92.5
 31
0.0
  0
TEXT
  8
0
  6
DASHED
 62
   249
 10
39.367706
 20
89.556653
 30
0.0
 40
2.0
  1
101:6A
  7
ROMANS
  0
TEXT
  8
0
  6
DASHED
 62
   249
 10
39.70289
 20
59.47915
 30
0.0
 40
2.0
  1
101:5A
  7
ROMANS
  0
LINE
  8
0
  6
CONTINUOUS
 62
   249
 10
42.5
 20
62.5
 30
0.0
 11
33.500004
 21
62.5
 31
0.0
  0
LINE
  8
0
  6
DASHED
 62
   249
 10
20.0
 20
230.0
 30
0.0
 11
15.0
 21
230.0
 31
0.0
  0
LINE
  8
0
  6
DASHED
 62
   249
 10
20.0
 20
225.0
 30
0.0
 11
15.0
 21
225.0
 31
0.0
  0
LINE
  8
0
  6
DASHED
 62
   249
 10
20.0
 20
215.0
 30
0.0
 11
15.0
 21
215.0
 31
0.0
  0
LINE
  8
0
  6
DASHED
 62
   249
 10
20.0
 20
207.5
 30
0.0
 11
15.0
 21
207.5
 31
0.0
  0
LINE
  8
0
  6
DASHED
 62
   249
 10
20.0
 20
202.5
 30
0.0
 11
15.0
 21
202.5
 31
0.0
  0
TEXT
  8
0
  6
DASHED
 62
   249
 10
21.016772
 20
211.874425
 30
0.0
 40
2.0
  1
101:4A
  7
ROMANS
  0
LINE
  8
0
  6
CONTINUOUS
 62
   249
 10
32.5
 20
215.0
 30
0.0
 11
20.0
 21
215.0
 31
0.0
  0
LINE
  8
0
  6
CENTER
 62
   249
 10
20.0
 20
245.0
 30
0.0
 11
20.0
 21
50.0
 31
0.0
  0
TEXT
  8
0
  6
CONTINUOUS
 62
   249
 10
5.374446
 20
208.144527
 30
0.0
 40
2.0
  1
3)
  7
ROMANS
  0
LINE
  8
0
  6
CONTINUOUS
 62
   249
 10
50.298812
 20
230.0
 30
0.0
 11
20.0
 21
230.0
 31
0.0
  0
LINE
  8
0
  6
CONTINUOUS
 62
   249
 10
9.715366
 20
224.999655
 30
0.0
 11
10.715366
 21
223.999655
 31
0.0
  0
LINE
  8
0
  6
CONTINUOUS
 62
   249
 10
9.715366
 20
230.0
 30
0.0
 11
9.715366
 21
224.999655
 31
0.0
  0
LINE
  8
0
  6
CONTINUOUS
 62
   249
 10
9.715366
 20
230.0
 30
0.0
 11
10.715366
 21
231.0
 31
0.0
  0
LINE
  8
0
  6
CONTINUOUS
 62
   249
 10
242.5
 20
100.0
 30
0.0
 11
275.0
 21
100.0
 31
0.0
  0
LINE
  8
0
  6
CONTINUOUS
 62
   249
 10
242.5
 20
80.0
 30
0.0
 11
275.0
 21
80.0
 31
0.0
  0
LINE
  8
0
  6
CONTINUOUS
 62
   249
 10
242.5
 20
60.0
 30
0.0
 11
275.0
 21
60.0
 31
0.0
  0
LINE
  8
0
  6
CONTINUOUS
 62
   249
 10
9.508244
 20
117.5
 30
0.0
 11
9.508244
 21
112.5
 31
0.0
  0
LINE
  8
0
  6
CONTINUOUS
 62
   249
 10
9.508244
 20
112.499655
 30
0.0
 11
10.508244
 21
111.499655
 31
0.0
  0
LINE
  8
0
  6
CONTINUOUS
 62
   249
 10
9.508244
 20
117.5
 30
0.0
 11
10.508244
 21
118.5
 31
0.0
  0
TEXT
  8
0
  6
HIDDEN
 62
   249
 10
5.389662
 20
226.395886
 30
0.0
 40
2.0
  1
2)
  7
ROMANS
  0
LINE
  8
0
  6
CONTINUOUS
 62
   249
 10
242.5
 20
130.0
 30
0.0
 11
275.0
 21
130.0
 31
0.0
  0
LINE
  8
0
  6
CONTINUOUS
 62
   249
 10
242.5
 20
140.0
 30
0.0
 11
260.0
 21
140.0
 31
0.0
  0
LINE
  8
0
  6
CONTINUOUS
 62
   249
 10
9.508244
 20
72.84462
 30
0.0
 11
9.508244
 21
62.499655
 31
0.0
  0
LINE
  8
0
  6
CONTINUOUS
 62
   249
 10
9.508244
 20
62.499655
 30
0.0
 11
10.508244
 21
61.499655
 31
0.0
  0
LINE
  8
0
  6
CONTINUOUS
 62
   249
 10
9.508244
 20
72.84462
 30
0.0
 11
10.508244
 21
73.84462
 31
0.0
  0
LINE
  8
0
  6
CONTINUOUS
 62
   249
 10
9.715366
 20
215.0
 30
0.0
 11
9.715366
 21
202.499655
 31
0.0
  0
LINE
  8
0
  6
CONTINUOUS
 62
   249
 10
9.715366
 20
215.0
 30
0.0
 11
10.715366
 21
216.0
 31
0.0
  0
LINE
  8
0
  6
CONTINUOUS
 62
   249
 10
9.715366
 20
202.499655
 30
0.0
 11
10.715366
 21
201.499655
 31
0.0
  0
LINE
  8
0
  6
CONTINUOUS
 62
   249
 10
50.298812
 20
202.5
 30
0.0
 11
20.0
 21
202.5
 31
0.0
  0
TEXT
  8
0
  6
CONTINUOUS
 62
   249
 10
5.672352
 20
121.589844
 30
0.0
 40
2.0
  1
4)
  7
ROMANS
  0
LINE
  8
0
  6
CONTINUOUS
 62
   249
 10
9.508244
 20
92.499655
 30
0.0
 11
10.508244
 21
91.499655
 31
0.0
  0
LINE
  8
0
  6
CONTINUOUS
 62
   249
 10
9.508244
 20
102.5
 30
0.0
 11
10.508244
 21
103.5
 31
0.0
  0
LINE
  8
0
  6
CONTINUOUS
 62
   249
 10
9.508244
 20
102.5
 30
0.0
 11
9.508244
 21
92.499655
 31
0.0
  0
LINE
  8
0
  6
HIDDEN
 62
   249
 10
207.950615
 20
50.0
 30
0.0
 11
207.950615
 21
45.0
 31
0.0
  0
LINE
  8
0
  6
HIDDEN
 62
   249
 10
177.5
 20
50.0
 30
0.0
 11
177.5
 21
45.0
 31
0.0
  0
LINE
  8
0
  6
CONTINUOUS
 62
   249
 10
225.0
 20
50.0
 30
0.0
 11
225.0
 21
45.0
 31
0.0
  0
LINE
  8
0
  6
CONTINUOUS
 62
   249
 10
222.5
 20
50.0
 30
0.0
 11
222.5
 21
45.0
 31
0.0
  0
LINE
  8
0
  6
CONTINUOUS
 62
   249
 10
142.5
 20
50.0
 30
0.0
 11
142.5
 21
45.0
 31
0.0
  0
LINE
  8
0
  6
CONTINUOUS
 62
   249
 10
112.5
 20
50.0
 30
0.0
 11
112.5
 21
45.0
 31
0.0
  0
LINE
  8
0
  6
CONTINUOUS
 62
   249
 10
112.5
 20
43.079427
 30
0.0
 11
111.5
 21
44.079427
 31
0.0
  0
LINE
  8
0
  6
CONTINUOUS
 62
   249
 10
225.000345
 20
43.079427
 30
0.0
 11
226.000345
 21
44.079427
 31
0.0
  0
LINE
  8
0
  6
CONTINUOUS
 62
   249
 10
112.5
 20
43.079427
 30
0.0
 11
225.000345
 21
43.079427
 31
0.0
  0
TEXT
  8
0
  6
HIDDEN
 62
   249
 10
160.984926
 20
38.600566
 30
0.0
 40
2.0
  1
SHEET 2
  7
ROMANS
  0
TEXT
  8
0
  6
CONTINUOUS
 62
   249
 10
3.254027
 20
67.562092
 30
0.0
 40
2.0
  1
5c)
  7
ROMANS
  0
TEXT
  8
0
  6
CONTINUOUS
 62
   249
 10
3.254027
 20
96.888695
 30
0.0
 40
2.0
  1
5b)
  7
ROMANS
  0
TEXT
  8
0
  6
CONTINUOUS
 62
   249
 10
3.254027
 20
114.107696
 30
0.0
 40
2.0
  1
5a)
  7
ROMANS
  0
LINE
  8
0
  6
HIDDEN
 62
   249
 10
177.5
 20
105.0
 30
0.0
 11
177.5
 21
50.0
 31
0.0
  0
LINE
  8
0
  6
HIDDEN
 62
   249
 10
207.950615
 20
105.0
 30
0.0
 11
207.950615
 21
50.0
 31
0.0
  0
TEXT
  8
0
  6
CONTINUOUS
 62
   249
 10
317.5
 20
27.5
 30
0.0
 40
2.0
  1
TERMINAL DIAGRAM / UTTAGSSCHEMA
  7
ROMANS
  0
TEXT
  8
0
  6
CONTINUOUS
 62
   249
 10
317.5
 20
24.261905
 30
0.0
 40
2.0
  1
SPAC 538 C5 WITH TEST SWITCH
  7
ROMANS
  0
TEXT
  8
0
  6
CONTINUOUS
 62
   249
 10
317.5
 20
21.02381
 30
0.0
 40
2.0
  1
SPAC 538 C5 MED PROVDON
  7
ROMANS
  0
LINE
  8
0
  6
CONTINUOUS
 62
   249
 10
38.500004
 20
215.0
 30
0.0
 11
31.837159
 21
217.434804
 31
0.0
  0
LINE
  8
0
  6
CONTINUOUS
 62
   249
 10
32.5
 20
215.0
 30
0.0
 11
32.5
 21
217.765661
 31
0.0
  0
LINE
  8
0
  6
CONTINUOUS
 62
   249
 10
31.837159
 20
217.434804
 30
0.0
 11
31.392266
 21
216.549106
 31
0.0
  0
LINE
  8
0
  6
CONTINUOUS
 62
   249
 10
248.5
 20
220.0
 30
0.0
 11
242.5
 21
220.0
 31
0.0
  0
LINE
  8
0
  6
DASHED
 62
   249
 10
20.0
 20
117.5
 30
0.0
 11
15.0
 21
117.5
 31
0.0
  0
LINE
  8
0
  6
DASHED
 62
   249
 10
20.0
 20
102.5
 30
0.0
 11
15.0
 21
102.5
 31
0.0
  0
LINE
  8
0
  6
DASHED
 62
   249
 10
20.0
 20
97.5
 30
0.0
 11
15.0
 21
97.5
 31
0.0
  0
LINE
  8
0
  6
DASHED
 62
   249
 10
20.0
 20
72.5
 30
0.0
 11
15.0
 21
72.5
 31
0.0
  0
LINE
  8
0
  6
DASHED
 62
   249
 10
20.0
 20
67.5
 30
0.0
 11
15.0
 21
67.5
 31
0.0
  0
TEXT
  8
0
  6
CONTINUOUS
 62
   249
 10
312.568754
 20
198.862909
 30
0.0
 40
2.0
  1
P/Q
  7
ROMANS
  0
TEXT
  8
0
  6
DASHED
 62
   249
 10
287.5
 20
248.991307
 30
0.0
 40
2.0
  1
L3
  7
ROMANS
  0
TEXT
  8
0
  6
DASHED
 62
   249
 10
287.5
 20
254.043818
 30
0.0
 40
2.0
  1
L2
  7
ROMANS
  0
TEXT
  8
0
  6
DASHED
 62
   249
 10
287.5
 20
258.986126
 30
0.0
 40
2.0
  1
L1
  7
ROMANS
  0
LINE
  8
0
  6
DASHED
 62
   249
 10
347.5
 20
260.0
 30
0.0
 11
292.5
 21
260.0
 31
0.0
  0
LINE
  8
0
  6
DASHED
 62
   249
 10
347.5
 20
255.0
 30
0.0
 11
292.5
 21
255.0
 31
0.0
  0
LINE
  8
0
  6
DASHED
 62
   249
 10
347.5
 20
250.0
 30
0.0
 11
292.5
 21
250.0
 31
0.0
  0
LINE
  8
0
  6
CONTINUOUS
 62
   249
 10
327.5
 20
237.68998
 30
0.0
 11
347.5
 21
237.68998
 31
0.0
  0
LINE
  8
0
  6
CONTINUOUS
 62
   249
 10
342.5
 20
227.68998
 30
0.0
 11
342.5
 21
225.0
 31
0.0
  0
ARC
  8
0
  6
CONTINUOUS
 62
   249
 10
340.864862
 20
231.296095
 30
0.0
 40
1.204309
 50
90.0
 51
265.706237
  0
LINE
  8
0
  6
CONTINUOUS
 62
   249
 10
340.858762
 20
230.098547
 30
0.0
 11
341.50836
 21
230.098547
 31
0.0
  0
LINE
  8
0
  6
CONTINUOUS
 62
   249
 10
340.858762
 20
232.499993
 30
0.0
 11
341.502261
 21
232.499993
 31
0.0
  0
LINE
  8
0
  6
CONTINUOUS
 62
   249
 10
340.859898
 20
227.689937
 30
0.0
 11
341.509496
 21
227.689937
 31
0.0
  0
ARC
  8
0
  6
CONTINUOUS
 62
   249
 10
340.864862
 20
228.894238
 30
0.0
 40
1.204309
 50
90.0
 51
270.0
  0
LINE
  8
0
  6
CONTINUOUS
 62
   249
 10
341.500897
 20
227.68998
 30
0.0
 11
342.5
 21
227.68998
 31
0.0
  0
LINE
  8
0
  6
CONTINUOUS
 62
   249
 10
341.496128
 20
232.499996
 30
0.0
 11
342.473936
 21
232.499996
 31
0.0
  0
LINE
  8
0
  6
CONTINUOUS
 62
   249
 10
341.506031
 20
230.098556
 30
0.0
 11
342.478167
 21
230.098556
 31
0.0
  0
LINE
  8
0
  6
CONTINUOUS
 62
   249
 10
342.5
 20
225.0
 30
0.0
 11
340.0
 21
225.0
 31
0.0
  0
LINE
  8
0
  6
CONTINUOUS
 62
   249
 10
340.0
 20
225.0
 30
0.0
 11
335.0
 21
232.5
 31
0.0
  0
LINE
  8
0
  6
CONTINUOUS
 62
   249
 10
342.5
 20
232.5
 30
0.0
 11
347.5
 21
232.5
 31
0.0
  0
LINE
  8
0
  6
DASHED
 62
   249
 10
347.5
 20
232.5
 30
0.0
 11
356.84682
 21
232.5
 31
0.0
  0
LINE
  8
0
  6
DASHED
 62
   249
 10
347.5
 20
237.68998
 30
0.0
 11
356.663362
 21
237.68998
 31
0.0
  0
LINE
  8
0
  6
DASHED
 62
   249
 10
335.0
 20
212.5
 30
0.0
 11
352.5
 21
212.5
 31
0.0
  0
LINE
  8
0
  6
DASHED
 62
   249
 10
352.5
 20
212.5
 30
0.0
 11
352.5
 21
232.5
 31
0.0
  0
LINE
  8
0
  6
DASHED
 62
   249
 10
275.0
 20
215.0
 30
0.0
 11
280.0
 21
215.0
 31
0.0
  0
LINE
  8
0
  6
DASHED
 62
   249
 10
275.0
 20
195.0
 30
0.0
 11
280.0
 21
195.0
 31
0.0
  0
LINE
  8
0
  6
CONTINUOUS
 62
   249
 10
275.0
 20
185.0
 30
0.0
 11
277.5
 21
185.0
 31
0.0
  0
LINE
  8
0
  6
DASHED
 62
   249
 10
270.0
 20
175.0
 30
0.0
 11
295.0
 21
175.0
 31
0.0
  0
LINE
  8
0
  6
DASHED
 62
   249
 10
270.0
 20
155.0
 30
0.0
 11
302.5
 21
155.0
 31
0.0
  0
LINE
  8
0
  6
DASHED
 62
   249
 10
300.0
 20
220.189992
 30
0.0
 11
295.0
 21
220.189992
 31
0.0
  0
LINE
  8
0
  6
CONTINUOUS
 62
   249
 10
310.0
 20
237.5
 30
0.0
 11
309.5
 21
237.0
 31
0.0
  0
LINE
  8
0
  6
CONTINUOUS
 62
   249
 10
310.0
 20
237.5
 30
0.0
 11
309.5
 21
238.0
 31
0.0
  0
LINE
  8
0
  6
CONTINUOUS
 62
   249
 10
310.0
 20
237.5
 30
0.0
 11
310.5
 21
238.0
 31
0.0
  0
LINE
  8
0
  6
CONTINUOUS
 62
   249
 10
310.0
 20
237.5
 30
0.0
 11
310.5
 21
237.0
 31
0.0
  0
LINE
  8
0
  6
CONTINUOUS
 62
   249
 10
305.0
 20
237.5
 30
0.0
 11
304.5
 21
238.0
 31
0.0
  0
LINE
  8
0
  6
CONTINUOUS
 62
   249
 10
305.0
 20
237.5
 30
0.0
 11
304.5
 21
237.0
 31
0.0
  0
LINE
  8
0
  6
CONTINUOUS
 62
   249
 10
305.0
 20
237.5
 30
0.0
 11
305.5
 21
237.0
 31
0.0
  0
LINE
  8
0
  6
CONTINUOUS
 62
   249
 10
305.0
 20
237.5
 30
0.0
 11
305.5
 21
238.0
 31
0.0
  0
LINE
  8
0
  6
CONTINUOUS
 62
   249
 10
300.0
 20
237.5
 30
0.0
 11
299.5
 21
237.0
 31
0.0
  0
LINE
  8
0
  6
CONTINUOUS
 62
   249
 10
300.0
 20
237.5
 30
0.0
 11
300.5
 21
238.0
 31
0.0
  0
LINE
  8
0
  6
CONTINUOUS
 62
   249
 10
300.0
 20
237.5
 30
0.0
 11
300.5
 21
237.0
 31
0.0
  0
LINE
  8
0
  6
CONTINUOUS
 62
   249
 10
300.0
 20
237.5
 30
0.0
 11
299.5
 21
238.0
 31
0.0
  0
LINE
  8
0
  6
CONTINUOUS
 62
   249
 10
310.0
 20
230.0
 30
0.0
 11
307.5
 21
237.5
 31
0.0
  0
LINE
  8
0
  6
CONTINUOUS
 62
   249
 10
305.0
 20
230.0
 30
0.0
 11
302.5
 21
237.5
 31
0.0
  0
LINE
  8
0
  6
CONTINUOUS
 62
   249
 10
300.0
 20
230.0
 30
0.0
 11
297.5
 21
237.5
 31
0.0
  0
LINE
  8
0
  6
DASHED
 62
   249
 10
300.0
 20
237.5
 30
0.0
 11
300.0
 21
260.0
 31
0.0
  0
LINE
  8
0
  6
DASHED
 62
   249
 10
305.0
 20
237.5
 30
0.0
 11
305.0
 21
255.0
 31
0.0
  0
LINE
  8
0
  6
DASHED
 62
   249
 10
310.0
 20
230.0
 30
0.0
 11
310.0
 21
197.5
 31
0.0
  0
LINE
  8
0
  6
DASHED
 62
   249
 10
305.0
 20
230.0
 30
0.0
 11
305.0
 21
197.5
 31
0.0
  0
LINE
  8
0
  6
DASHED
 62
   249
 10
300.0
 20
230.0
 30
0.0
 11
300.0
 21
197.5
 31
0.0
  0
LINE
  8
0
  6
DASHED
 62
   249
 10
310.0
 20
197.5
 30
0.0
 11
310.0
 21
172.5
 31
0.0
  0
LINE
  8
0
  6
DASHED
 62
   249
 10
305.0
 20
197.5
 30
0.0
 11
305.0
 21
172.5
 31
0.0
  0
LINE
  8
0
  6
DASHED
 62
   249
 10
300.0
 20
197.5
 30
0.0
 11
300.0
 21
172.5
 31
0.0
  0
LINE
  8
0
  6
DASHED
 62
   249
 10
305.069797
 20
200.189984
 30
0.0
 11
295.0
 21
200.189984
 31
0.0
  0
LINE
  8
0
  6
DASHED
 62
   249
 10
310.006921
 20
180.189984
 30
0.0
 11
295.0
 21
180.189984
 31
0.0
  0
LINE
  8
0
  6
DASHED
 62
   249
 10
280.0
 20
215.0
 30
0.0
 11
280.0
 21
175.0
 31
0.0
  0
LINE
  8
0
  6
DASHED
 62
   249
 10
275.0
 20
165.0
 30
0.0
 11
292.5
 21
165.0
 31
0.0
  0
LINE
  8
0
  6
DASHED
 62
   249
 10
292.5
 20
165.0
 30
0.0
 11
292.5
 21
159.810016
 31
0.0
  0
LINE
  8
0
  6
DASHED
 62
   249
 10
295.0
 20
220.189992
 30
0.0
 11
295.0
 21
172.5
 31
0.0
  0
LINE
  8
0
  6
CONTINUOUS
 62
   249
 10
300.0
 20
172.5
 30
0.0
 11
310.0
 21
172.5
 31
0.0
  0
LINE
  8
0
  6
CONTINUOUS
 62
   249
 10
302.5
 20
172.5
 30
0.0
 11
305.0
 21
167.5
 31
0.0
  0
LINE
  8
0
  6
CONTINUOUS
 62
   249
 10
305.0
 20
167.5
 30
0.0
 11
307.5
 21
172.5
 31
0.0
  0
LINE
  8
0
  6
DASHED
 62
   249
 10
302.5
 20
172.5
 30
0.0
 11
302.5
 21
150.0
 31
0.0
  0
LINE
  8
0
  6
DASHED
 62
   249
 10
292.5
 20
150.0
 30
0.0
 11
292.5
 21
155.0
 31
0.0
  0
LINE
  8
0
  6
CONTINUOUS
 62
   249
 10
302.5
 20
157.40144
 30
0.0
 11
305.0
 21
157.40144
 31
0.0
  0
LINE
  8
0
  6
DASHED
 62
   249
 10
292.5
 20
159.810016
 30
0.0
 11
305.0
 21
159.810016
 31
0.0
  0
LINE
  8
0
  6
DASHED
 62
   249
 10
305.0
 20
155.0
 30
0.0
 11
305.0
 21
155.0
 31
0.0
  0
LINE
  8
0
  6
DASHED
 62
   249
 10
302.5
 20
155.0
 30
0.0
 11
305.0
 21
155.0
 31
0.0
  0
LINE
  8
0
  6
DASHED
 62
   249
 10
300.0
 20
225.0
 30
0.0
 11
275.0
 21
225.0
 31
0.0
  0
LINE
  8
0
  6
DASHED
 62
   249
 10
305.0
 20
205.0
 30
0.0
 11
275.0
 21
205.0
 31
0.0
  0
LINE
  8
0
  6
DASHED
 62
   249
 10
310.0
 20
185.0
 30
0.0
 11
275.0
 21
185.0
 31
0.0
  0
LINE
  8
0
  6
DASHED
 62
   249
 10
327.5
 20
242.5
 30
0.0
 11
327.5
 21
260.0
 31
0.0
  0
LINE
  8
0
  6
CONTINUOUS
 62
   249
 10
327.5
 20
227.68998
 30
0.0
 11
327.5
 21
225.0
 31
0.0
  0
LINE
  8
0
  6
CONTINUOUS
 62
   249
 10
335.0
 20
227.68998
 30
0.0
 11
335.0
 21
225.0
 31
0.0
  0
ARC
  8
0
  6
CONTINUOUS
 62
   249
 10
333.364862
 20
231.296095
 30
0.0
 40
1.204309
 50
90.0
 51
265.706237
  0
LINE
  8
0
  6
CONTINUOUS
 62
   249
 10
333.358762
 20
230.098547
 30
0.0
 11
334.00836
 21
230.098547
 31
0.0
  0
LINE
  8
0
  6
CONTINUOUS
 62
   249
 10
333.358762
 20
232.499993
 30
0.0
 11
334.002261
 21
232.499993
 31
0.0
  0
LINE
  8
0
  6
CONTINUOUS
 62
   249
 10
333.359898
 20
227.689937
 30
0.0
 11
334.009496
 21
227.689937
 31
0.0
  0
ARC
  8
0
  6
CONTINUOUS
 62
   249
 10
333.364862
 20
228.894238
 30
0.0
 40
1.204309
 50
90.0
 51
270.0
  0
LINE
  8
0
  6
CONTINUOUS
 62
   249
 10
334.000897
 20
227.68998
 30
0.0
 11
335.0
 21
227.68998
 31
0.0
  0
LINE
  8
0
  6
CONTINUOUS
 62
   249
 10
333.996128
 20
232.499996
 30
0.0
 11
334.973936
 21
232.499996
 31
0.0
  0
LINE
  8
0
  6
CONTINUOUS
 62
   249
 10
334.006031
 20
230.098556
 30
0.0
 11
334.978167
 21
230.098556
 31
0.0
  0
ARC
  8
0
  6
CONTINUOUS
 62
   249
 10
325.864862
 20
231.296095
 30
0.0
 40
1.204309
 50
90.0
 51
265.706237
  0
LINE
  8
0
  6
CONTINUOUS
 62
   249
 10
325.858762
 20
230.098547
 30
0.0
 11
326.50836
 21
230.098547
 31
0.0
  0
LINE
  8
0
  6
CONTINUOUS
 62
   249
 10
325.858762
 20
232.499993
 30
0.0
 11
326.502261
 21
232.499993
 31
0.0
  0
LINE
  8
0
  6
CONTINUOUS
 62
   249
 10
325.859898
 20
227.689937
 30
0.0
 11
326.509496
 21
227.689937
 31
0.0
  0
ARC
  8
0
  6
CONTINUOUS
 62
   249
 10
325.864862
 20
228.894238
 30
0.0
 40
1.204309
 50
90.0
 51
270.0
  0
LINE
  8
0
  6
CONTINUOUS
 62
   249
 10
326.500897
 20
227.68998
 30
0.0
 11
327.5
 21
227.68998
 31
0.0
  0
LINE
  8
0
  6
CONTINUOUS
 62
   249
 10
326.496128
 20
232.499996
 30
0.0
 11
327.473936
 21
232.499996
 31
0.0
  0
LINE
  8
0
  6
CONTINUOUS
 62
   249
 10
326.506031
 20
230.098556
 30
0.0
 11
327.478167
 21
230.098556
 31
0.0
  0
LINE
  8
0
  6
CONTINUOUS
 62
   249
 10
335.0
 20
225.0
 30
0.0
 11
332.5
 21
225.0
 31
0.0
  0
LINE
  8
0
  6
CONTINUOUS
 62
   249
 10
332.5
 20
225.0
 30
0.0
 11
327.5
 21
232.5
 31
0.0
  0
LINE
  8
0
  6
CENTER
 62
   249
 10
275.0
 20
217.5
 30
0.0
 11
275.0
 21
242.5
 31
0.0
  0
LINE
  8
0
  6
CENTER
 62
   249
 10
275.0
 20
217.5
 30
0.0
 11
275.0
 21
195.0
 31
0.0
  0
LINE
  8
0
  6
DASHED
 62
   249
 10
327.5
 20
130.0
 30
0.0
 11
327.5
 21
225.0
 31
0.0
  0
LINE
  8
0
  6
DASHED
 62
   249
 10
335.0
 20
140.0
 30
0.0
 11
335.0
 21
212.5
 31
0.0
  0
LINE
  8
0
  6
DASHED
 62
   249
 10
290.0
 20
80.0
 30
0.0
 11
290.0
 21
70.0
 31
0.0
  0
LINE
  8
0
  6
DASHED
 62
   249
 10
297.5
 20
110.0
 30
0.0
 11
297.5
 21
60.0
 31
0.0
  0
LINE
  8
0
  6
DASHED
 62
   249
 10
275.0
 20
90.0
 30
0.0
 11
317.5
 21
90.0
 31
0.0
  0
LINE
  8
0
  6
DASHED
 62
   249
 10
290.0
 20
100.0
 30
0.0
 11
290.0
 21
90.0
 31
0.0
  0
LINE
  8
0
  6
DASHED
 62
   249
 10
275.0
 20
110.0
 30
0.0
 11
312.5
 21
110.0
 31
0.0
  0
LINE
  8
0
  6
DASHED
 62
   249
 10
322.5
 20
70.0
 30
0.0
 11
275.0
 21
70.0
 31
0.0
  0
LINE
  8
0
  6
DASHED
 62
   249
 10
290.0
 20
100.0
 30
0.0
 11
275.0
 21
100.0
 31
0.0
  0
LINE
  8
0
  6
DASHED
 62
   249
 10
290.0
 20
80.0
 30
0.0
 11
275.0
 21
80.0
 31
0.0
  0
LINE
  8
0
  6
DASHED
 62
   249
 10
317.5
 20
105.0
 30
0.0
 11
317.5
 21
90.0
 31
0.0
  0
LINE
  8
0
  6
DASHED
 62
   249
 10
322.5
 20
100.0
 30
0.0
 11
322.5
 21
70.0
 31
0.0
  0
LINE
  8
0
  6
DASHED
 62
   249
 10
275.0
 20
60.0
 30
0.0
 11
297.5
 21
60.0
 31
0.0
  0
LINE
  8
0
  6
CONTINUOUS
 62
   249
 10
270.0
 20
140.0
 30
0.0
 11
272.5
 21
140.0
 31
0.0
  0
LINE
  8
0
  6
DASHED
 62
   249
 10
270.0
 20
130.0
 30
0.0
 11
327.5
 21
130.0
 31
0.0
  0
LINE
  8
0
  6
CONTINUOUS
 62
   249
 10
305.0
 20
167.5
 30
0.0
 11
305.0
 21
147.5
 31
0.0
  0
LINE
  8
0
  6
DASHED
 62
   249
 10
275.0
 20
140.0
 30
0.0
 11
335.0
 21
140.0
 31
0.0
  0
LINE
  8
0
  6
DASHED
 62
   249
 10
305.0
 20
147.5
 30
0.0
 11
305.0
 21
137.5
 31
0.0
  0
LINE
  8
0
  6
CENTER
 62
   249
 10
275.0
 20
87.5
 30
0.0
 11
275.0
 21
57.5
 31
0.0
  0
LINE
  8
0
  6
DASHED
 62
   249
 10
355.0
 20
110.0
 30
0.0
 11
312.5
 21
110.0
 31
0.0
  0
LINE
  8
0
  6
DASHED
 62
   249
 10
362.5
 20
105.0
 30
0.0
 11
317.5
 21
105.0
 31
0.0
  0
LINE
  8
0
  6
DASHED
 62
   249
 10
362.5
 20
110.0
 30
0.0
 11
362.5
 21
105.0
 31
0.0
  0
LINE
  8
0
  6
DASHED
 62
   249
 10
370.0
 20
100.0
 30
0.0
 11
322.5
 21
100.0
 31
0.0
  0
LINE
  8
0
  6
DASHED
 62
   249
 10
370.0
 20
110.0
 30
0.0
 11
370.0
 21
100.0
 31
0.0
  0
TEXT
  8
0
  6
DASHED
 62
   249
 10
341.430477
 20
131.480287
 30
0.0
 40
2.0
  1
L3 (T)
  7
ROMANS
  0
TEXT
  8
0
  6
DASHED
 62
   249
 10
341.430477
 20
136.422594
 30
0.0
 40
2.0
  1
L2 (S)
  7
ROMANS
  0
TEXT
  8
0
  6
DASHED
 62
   249
 10
341.430477
 20
141.475105
 30
0.0
 40
2.0
  1
L1 (R)
  7
ROMANS
  0
LINE
  8
0
  6
DASHED
 62
   249
 10
352.5
 20
142.5
 30
0.0
 11
385.0
 21
142.5
 31
0.0
  0
LINE
  8
0
  6
DASHED
 62
   249
 10
352.5
 20
137.5
 30
0.0
 11
385.0
 21
137.5
 31
0.0
  0
LINE
  8
0
  6
DASHED
 62
   249
 10
352.5
 20
132.5
 30
0.0
 11
385.0
 21
132.5
 31
0.0
  0
LINE
  8
0
  6
CONTINUOUS
 62
   249
 10
354.006031
 20
115.098556
 30
0.0
 11
354.978167
 21
115.098556
 31
0.0
  0
LINE
  8
0
  6
CONTINUOUS
 62
   249
 10
353.996128
 20
117.499996
 30
0.0
 11
370.0
 21
117.499996
 31
0.0
  0
LINE
  8
0
  6
CONTINUOUS
 62
   249
 10
354.000897
 20
112.68998
 30
0.0
 11
355.0
 21
112.68998
 31
0.0
  0
ARC
  8
0
  6
CONTINUOUS
 62
   249
 10
353.364862
 20
113.894238
 30
0.0
 40
1.204309
 50
90.0
 51
270.0
  0
LINE
  8
0
  6
CONTINUOUS
 62
   249
 10
353.359898
 20
112.689937
 30
0.0
 11
354.009496
 21
112.689937
 31
0.0
  0
LINE
  8
0
  6
CONTINUOUS
 62
   249
 10
353.358762
 20
117.499993
 30
0.0
 11
354.002261
 21
117.499993
 31
0.0
  0
LINE
  8
0
  6
CONTINUOUS
 62
   249
 10
353.358762
 20
115.098547
 30
0.0
 11
354.00836
 21
115.098547
 31
0.0
  0
ARC
  8
0
  6
CONTINUOUS
 62
   249
 10
353.364862
 20
116.296095
 30
0.0
 40
1.204309
 50
90.0
 51
265.706237
  0
LINE
  8
0
  6
CONTINUOUS
 62
   249
 10
361.506031
 20
115.098556
 30
0.0
 11
362.478167
 21
115.098556
 31
0.0
  0
LINE
  8
0
  6
CONTINUOUS
 62
   249
 10
361.496128
 20
117.499996
 30
0.0
 11
362.473936
 21
117.499996
 31
0.0
  0
LINE
  8
0
  6
CONTINUOUS
 62
   249
 10
361.500897
 20
112.68998
 30
0.0
 11
362.5
 21
112.68998
 31
0.0
  0
ARC
  8
0
  6
CONTINUOUS
 62
   249
 10
360.864862
 20
113.894238
 30
0.0
 40
1.204309
 50
90.0
 51
270.0
  0
LINE
  8
0
  6
CONTINUOUS
 62
   249
 10
360.859898
 20
112.689937
 30
0.0
 11
361.509496
 21
112.689937
 31
0.0
  0
LINE
  8
0
  6
CONTINUOUS
 62
   249
 10
360.858762
 20
117.499993
 30
0.0
 11
361.502261
 21
117.499993
 31
0.0
  0
LINE
  8
0
  6
CONTINUOUS
 62
   249
 10
360.858762
 20
115.098547
 30
0.0
 11
361.50836
 21
115.098547
 31
0.0
  0
ARC
  8
0
  6
CONTINUOUS
 62
   249
 10
360.864862
 20
116.296095
 30
0.0
 40
1.204309
 50
90.0
 51
265.706237
  0
LINE
  8
0
  6
CONTINUOUS
 62
   249
 10
362.5
 20
112.68998
 30
0.0
 11
362.5
 21
110.0
 31
0.0
  0
LINE
  8
0
  6
CONTINUOUS
 62
   249
 10
355.0
 20
112.68998
 30
0.0
 11
355.0
 21
110.0
 31
0.0
  0
LINE
  8
0
  6
DASHED
 62
   249
 10
362.5
 20
127.5
 30
0.0
 11
362.5
 21
137.5
 31
0.0
  0
LINE
  8
0
  6
DASHED
 62
   249
 10
355.0
 20
127.5
 30
0.0
 11
355.0
 21
142.5
 31
0.0
  0
LINE
  8
0
  6
CONTINUOUS
 62
   249
 10
370.0
 20
117.5
 30
0.0
 11
376.617732
 21
117.5
 31
0.0
  0
LINE
  8
0
  6
CONTINUOUS
 62
   249
 10
369.006031
 20
115.098556
 30
0.0
 11
369.978167
 21
115.098556
 31
0.0
  0
LINE
  8
0
  6
CONTINUOUS
 62
   249
 10
368.996128
 20
117.499996
 30
0.0
 11
369.973936
 21
117.499996
 31
0.0
  0
LINE
  8
0
  6
CONTINUOUS
 62
   249
 10
369.000897
 20
112.68998
 30
0.0
 11
370.0
 21
112.68998
 31
0.0
  0
ARC
  8
0
  6
CONTINUOUS
 62
   249
 10
368.364862
 20
113.894238
 30
0.0
 40
1.204309
 50
90.0
 51
270.0
  0
LINE
  8
0
  6
CONTINUOUS
 62
   249
 10
368.359898
 20
112.689937
 30
0.0
 11
369.009496
 21
112.689937
 31
0.0
  0
LINE
  8
0
  6
CONTINUOUS
 62
   249
 10
368.358762
 20
117.499993
 30
0.0
 11
369.002261
 21
117.499993
 31
0.0
  0
LINE
  8
0
  6
CONTINUOUS
 62
   249
 10
368.358762
 20
115.098547
 30
0.0
 11
369.00836
 21
115.098547
 31
0.0
  0
ARC
  8
0
  6
CONTINUOUS
 62
   249
 10
368.364862
 20
116.296095
 30
0.0
 40
1.204309
 50
90.0
 51
265.706237
  0
LINE
  8
0
  6
CONTINUOUS
 62
   249
 10
370.0
 20
112.68998
 30
0.0
 11
370.0
 21
110.0
 31
0.0
  0
LINE
  8
0
  6
CONTINUOUS
 62
   249
 10
355.0
 20
122.68998
 30
0.0
 11
376.617732
 21
122.68998
 31
0.0
  0
LINE
  8
0
  6
DASHED
 62
   249
 10
370.0
 20
127.5
 30
0.0
 11
370.0
 21
132.5
 31
0.0
  0
LINE
  8
0
  6
DASHED
 62
   249
 10
310.0
 20
237.5
 30
0.0
 11
310.0
 21
250.0
 31
0.0
  0
LINE
  8
0
  6
DASHED
 62
   249
 10
335.0
 20
242.5
 30
0.0
 11
335.0
 21
255.0
 31
0.0
  0
LINE
  8
0
  6
DASHED
 62
   249
 10
342.5
 20
242.5
 30
0.0
 11
342.5
 21
250.0
 31
0.0
  0
LINE
  8
0
  6
CONTINUOUS
 62
   249
 10
242.5
 20
90.0
 30
0.0
 11
260.0
 21
90.0
 31
0.0
  0
LINE
  8
0
  6
CONTINUOUS
 62
   249
 10
242.5
 20
70.0
 30
0.0
 11
260.0
 21
70.0
 31
0.0
  0
TEXT
  8
0
  6
DASHED
 62
   249
 10
19.70289
 20
46.432466
 30
0.0
 40
2.0
  1
DIM. 195 x 255
  7
ROMANS
  0
TEXT
  8
0
  6
DASHED
 62
   249
 10
19.70289
 20
43.395332
 30
0.0
 40
2.0
  1
1MRS 10213-AAF
  7
ROMANS
  0
TEXT
  8
0
  6
CONTINUOUS
 62
   249
 10
62.5
 20
238.701815
 30
0.0
 40
2.0
  1
1MRS 10213-AA SPAC 538 C
  7
ROMANS
  0
TEXT
  8
0
  6
DASHED
 62
   249
 10
354.531451
 20
16.135576
 30
0.0
 40
1.4
  1
LEHTI SHEET
  7
STAND
  0
LINE
  8
0
 62
   249
 10
0.577972
 20
0.580166
 30
0.0
 11
0.577972
 21
263.080166
 31
0.0
  0
LINE
  8
0
 62
   249
 10
392.577972
 20
263.080166
 30
0.0
 11
392.577972
 21
0.580166
 31
0.0
  0
LINE
  8
0
 62
   249
 10
0.577972
 20
0.580166
 30
0.0
 11
392.577972
 21
0.580166
 31
0.0
  0
TEXT
  8
0
 62
   249
 10
42.577972
 20
5.929675
 30
0.0
 40
2.5
  1
C
  7
ROMANS
  0
TEXT
  8
0
 62
   249
 10
42.577972
 20
1.537459
 30
0.0
 40
2.5
  1
B
  7
ROMANS
  0
TEXT
  8
0
 62
   249
 10
257.747879
 20
2.08395
 30
0.0
 40
3.0
  1
Power
 41
0.8
  7
ROMANS
  0
TEXT
  8
0
 62
   249
 10
273.577972
 20
7.580166
 30
0.0
 40
1.4
  1
VAST.OSASTO RESP.DEPT.
  7
ROMANS
  0
TEXT
  8
0
 62
   249
 10
210.577972
 20
32.580166
 30
0.0
 40
1.4
  1
TEKI  PREPARED
  7
ROMANS
  0
LINE
  8
0
 62
   249
 10
271.577972
 20
10.080166
 30
0.0
 11
271.577972
 21
0.580166
 31
0.0
  0
LINE
  8
0
 62
   249
 10
257.577972
 20
10.080166
 30
0.0
 11
257.577972
 21
35.580166
 31
0.0
  0
LINE
  8
0
 62
   249
 10
41.077972
 20
5.080166
 30
0.0
 11
209.577972
 21
5.080166
 31
0.0
  0
LINE
  8
0
 62
   249
 10
47.077972
 20
0.580166
 30
0.0
 11
47.077972
 21
9.580166
 31
0.0
  0
LINE
  8
0
 62
   249
 10
47.077972
 20
9.580166
 30
0.0
 11
209.577972
 21
9.580166
 31
0.0
  0
TEXT
  8
0
 62
   249
 10
28.077972
 20
2.813499
 30
0.0
 40
1.4
  1
REVISION
  7
ROMANS
  0
TEXT
  8
0
 62
   249
 10
28.077972
 20
5.080166
 30
0.0
 40
1.4
  1
MUUTOS
  7
ROMANS
  0
LINE
  8
0
 62
   249
 10
282.577972
 20
10.080166
 30
0.0
 11
282.577972
 21
18.580166
 31
0.0
  0
TEXT
  8
0
 62
   249
 10
238.077972
 20
2.080166
 30
0.0
 40
3.0
  1
Strömberg
 41
0.8
  7
ROMANS
  0
TEXT
  8
0
 62
   249
 10
230.077972
 20
2.080166
 30
0.0
 40
3.0
  1
ABB 
 41
0.8
  7
ROMANS
  0
LINE
  8
0
 62
   249
 10
223.477972
 20
2.080166
 30
0.0
 11
223.477972
 21
5.440166
 31
0.0
  0
LINE
  8
0
 62
   249
 10
223.477972
 20
9.080166
 30
0.0
 11
225.437972
 21
9.080166
 31
0.0
  0
LINE
  8
0
 62
   249
 10
225.437972
 20
9.080166
 30
0.0
 11
225.437972
 21
5.720166
 31
0.0
  0
LINE
  8
0
 62
   249
 10
225.437972
 20
5.720166
 30
0.0
 11
223.477972
 21
5.720166
 31
0.0
  0
LINE
  8
0
 62
   249
 10
223.477972
 20
5.440166
 30
0.0
 11
225.437972
 21
5.440166
 31
0.0
  0
LINE
  8
0
 62
   249
 10
225.437972
 20
5.440166
 30
0.0
 11
225.437972
 21
2.080166
 31
0.0
  0
LINE
  8
0
 62
   249
 10
225.437972
 20
2.080166
 30
0.0
 11
223.477972
 21
2.080166
 31
0.0
  0
LINE
  8
0
 62
   249
 10
223.477972
 20
5.720166
 30
0.0
 11
223.477972
 21
9.080166
 31
0.0
  0
ARC
  8
0
 62
   249
 10
226.277972
 20
7.505166
 30
0.0
 40
1.575
 50
298.455859
 51
90.052437
  0
LINE
  8
0
 62
   249
 10
225.717972
 20
9.080166
 30
0.0
 11
226.27653
 21
9.080165
 31
0.0
  0
LINE
  8
0
 62
   249
 10
225.717972
 20
9.080166
 30
0.0
 11
225.717972
 21
5.720166
 31
0.0
  0
LINE
  8
0
 62
   249
 10
225.717972
 20
5.720166
 30
0.0
 11
227.702415
 21
5.720166
 31
0.0
  0
LINE
  8
0
 62
   249
 10
227.957972
 20
5.440166
 30
0.0
 11
225.717972
 21
5.440166
 31
0.0
  0
LINE
  8
0
 62
   249
 10
225.717972
 20
5.440166
 30
0.0
 11
225.717972
 21
2.080166
 31
0.0
  0
ARC
  8
0
 62
   249
 10
226.277972
 20
4.180166
 30
0.0
 40
2.1
 50
269.937724
 51
37.056553
  0
LINE
  8
0
 62
   249
 10
225.717972
 20
2.080166
 30
0.0
 11
226.275689
 21
2.080167
 31
0.0
  0
ARC
  8
0
 62
   249
 10
226.277972
 20
4.180166
 30
0.0
 40
2.1
 50
47.28622
 51
68.787999
  0
INSERT
  8
0
 62
   249
  2
*X13
 10
215.987972
 20
2.080166
 30
0.0
 41
0.7
 42
0.7
 43
0.7
  0
INSERT
  8
0
 62
   249
  2
*X14
 10
215.987972
 20
2.080166
 30
0.0
 41
0.7
 42
0.7
 43
0.7
  0
INSERT
  8
0
 62
   249
  2
*X15
 10
215.987972
 20
2.080166
 30
0.0
 41
0.7
 42
0.7
 43
0.7
  0
INSERT
  8
0
 62
   249
  2
*X16
 10
215.987972
 20
2.080166
 30
0.0
 41
0.7
 42
0.7
 43
0.7
  0
INSERT
  8
0
 62
   249
  2
*X16
 10
210.527972
 20
2.080166
 30
0.0
 41
0.7
 42
0.7
 43
0.7
  0
INSERT
  8
0
 62
   249
  2
*X15
 10
210.527972
 20
2.080166
 30
0.0
 41
0.7
 42
0.7
 43
0.7
  0
INSERT
  8
0
 62
   249
  2
*X14
 10
210.527972
 20
2.080166
 30
0.0
 41
0.7
 42
0.7
 43
0.7
  0
INSERT
  8
0
 62
   249
  2
*X13
 10
210.527972
 20
2.080166
 30
0.0
 41
0.7
 42
0.7
 43
0.7
  0
ARC
  8
0
 62
   249
 10
220.817972
 20
4.180166
 30
0.0
 40
2.1
 50
47.28622
 51
68.787999
  0
LINE
  8
0
 62
   249
 10
220.257972
 20
2.080166
 30
0.0
 11
220.815689
 21
2.080167
 31
0.0
  0
ARC
  8
0
 62
   249
 10
220.817972
 20
4.180166
 30
0.0
 40
2.1
 50
269.937724
 51
37.056553
  0
LINE
  8
0
 62
   249
 10
220.257972
 20
5.440166
 30
0.0
 11
220.257972
 21
2.080166
 31
0.0
  0
LINE
  8
0
 62
   249
 10
222.497972
 20
5.440166
 30
0.0
 11
220.257972
 21
5.440166
 31
0.0
  0
LINE
  8
0
 62
   249
 10
220.257972
 20
5.720166
 30
0.0
 11
222.242415
 21
5.720166
 31
0.0
  0
LINE
  8
0
 62
   249
 10
220.257972
 20
9.080166
 30
0.0
 11
220.257972
 21
5.720166
 31
0.0
  0
LINE
  8
0
 62
   249
 10
220.257972
 20
9.080166
 30
0.0
 11
220.81653
 21
9.080165
 31
0.0
  0
ARC
  8
0
 62
   249
 10
220.817972
 20
7.505166
 30
0.0
 40
1.575
 50
298.455859
 51
90.052437
  0
LINE
  8
0
 62
   249
 10
218.017972
 20
5.720166
 30
0.0
 11
218.017972
 21
9.080166
 31
0.0
  0
LINE
  8
0
 62
   249
 10
219.977972
 20
2.080166
 30
0.0
 11
218.017972
 21
2.080166
 31
0.0
  0
LINE
  8
0
 62
   249
 10
219.977972
 20
5.440166
 30
0.0
 11
219.977972
 21
2.080166
 31
0.0
  0
LINE
  8
0
 62
   249
 10
218.017972
 20
5.440166
 30
0.0
 11
219.977972
 21
5.440166
 31
0.0
  0
LINE
  8
0
 62
   249
 10
219.977972
 20
5.720166
 30
0.0
 11
218.017972
 21
5.720166
 31
0.0
  0
LINE
  8
0
 62
   249
 10
219.977972
 20
9.080166
 30
0.0
 11
219.977972
 21
5.720166
 31
0.0
  0
LINE
  8
0
 62
   249
 10
218.017972
 20
9.080166
 30
0.0
 11
219.977972
 21
9.080166
 31
0.0
  0
LINE
  8
0
 62
   249
 10
218.017972
 20
2.080166
 30
0.0
 11
218.017972
 21
5.440166
 31
0.0
  0
INSERT
  8
0
 62
   249
  2
*X12
 10
210.527972
 20
2.080166
 30
0.0
 41
0.7
 42
0.7
 43
0.7
  0
INSERT
  8
0
 62
   249
  2
*X11
 10
210.527972
 20
2.080166
 30
0.0
 41
0.7
 42
0.7
 43
0.7
  0
INSERT
  8
0
 62
   249
  2
*X10
 10
210.527972
 20
2.080166
 30
0.0
 41
0.7
 42
0.7
 43
0.7
  0
INSERT
  8
0
 62
   249
  2
*X9
 10
210.527972
 20
2.080166
 30
0.0
 41
0.7
 42
0.7
 43
0.7
  0
LINE
  8
0
 62
   249
 10
211.69786
 20
5.422705
 30
0.0
 11
210.527972
 21
2.080166
 31
0.0
  0
LINE
  8
0
 62
   249
 10
213.887972
 20
5.440166
 30
0.0
 11
213.887972
 21
3.480166
 31
0.0
  0
LINE
  8
0
 62
   249
 10
214.167972
 20
5.440166
 30
0.0
 11
214.167972
 21
3.480166
 31
0.0
  0
LINE
  8
0
 62
   249
 10
214.167972
 20
5.440166
 30
0.0
 11
216.351228
 21
5.440166
 31
0.0
  0
LINE
  8
0
 62
   249
 10
214.167972
 20
5.720166
 30
0.0
 11
216.253085
 21
5.720166
 31
0.0
  0
LINE
  8
0
 62
   249
 10
216.352464
 20
5.438761
 30
0.0
 11
217.527972
 21
2.080166
 31
0.0
  0
LINE
  8
0
 62
   249
 10
211.700954
 20
5.440166
 30
0.0
 11
213.887972
 21
5.440166
 31
0.0
  0
LINE
  8
0
 62
   249
 10
211.799912
 20
5.720166
 30
0.0
 11
213.887972
 21
5.720166
 31
0.0
  0
LINE
  8
0
 62
   249
 10
213.887972
 20
9.080166
 30
0.0
 11
212.977972
 21
9.080166
 31
0.0
  0
LINE
  8
0
 62
   249
 10
214.167972
 20
3.480166
 30
0.0
 11
215.287865
 21
3.480166
 31
0.0
  0
LINE
  8
0
 62
   249
 10
214.167972
 20
9.080166
 30
0.0
 11
214.167972
 21
5.720166
 31
0.0
  0
LINE
  8
0
 62
   249
 10
213.887972
 20
9.080166
 30
0.0
 11
213.887972
 21
5.720166
 31
0.0
  0
LINE
  8
0
 62
   249
 10
215.077972
 20
9.080166
 30
0.0
 11
214.167972
 21
9.080166
 31
0.0
  0
LINE
  8
0
 62
   249
 10
215.289069
 20
3.47703
 30
0.0
 11
215.777972
 21
2.080166
 31
0.0
  0
LINE
  8
0
 62
   249
 10
215.077972
 20
9.080166
 30
0.0
 11
216.254325
 21
5.719158
 31
0.0
  0
LINE
  8
0
 62
   249
 10
212.766762
 20
3.476709
 30
0.0
 11
212.277972
 21
2.080166
 31
0.0
  0
LINE
  8
0
 62
   249
 10
212.766758
 20
3.480166
 30
0.0
 11
213.887972
 21
3.480166
 31
0.0
  0
LINE
  8
0
 62
   249
 10
212.977972
 20
9.080166
 30
0.0
 11
211.800444
 21
5.715801
 31
0.0
  0
LINE
  8
0
 62
   249
 10
215.777972
 20
2.080166
 30
0.0
 11
217.527972
 21
2.080166
 31
0.0
  0
LINE
  8
0
 62
   249
 10
210.527972
 20
2.080166
 30
0.0
 11
212.277972
 21
2.080166
 31
0.0
  0
LINE
  8
0
 62
   249
 10
370.077972
 20
10.080166
 30
0.0
 11
370.077972
 21
0.580166
 31
0.0
  0
TEXT
  8
0
 62
   249
 10
371.577972
 20
7.580166
 30
0.0
 40
1.4
  1
PAINOS  REVISION
  7
ROMANS
  0
LINE
  8
0
 62
   249
 10
350.077972
 20
10.080166
 30
0.0
 11
350.077972
 21
18.580166
 31
0.0
  0
TEXT
  8
0
 62
   249
 10
309.577972
 20
7.580166
 30
0.0
 40
1.4
  1
PIIRUSTUS NO  DRAWING NR
  7
ROMANS
  0
TEXT
  8
0
 62
   249
 10
309.577972
 20
16.080166
 30
0.0
 40
1.4
  1
KOODI  CODE
  7
ROMANS
  0
TEXT
  8
0
 62
   249
 10
309.577972
 20
33.080166
 30
0.0
 40
1.4
  1
NIMITYS  NAME
  7
ROMANS
  0
TEXT
  8
0
 62
   249
 10
259.577972
 20
16.080166
 30
0.0
 40
1.4
  1
SUHDE  SCALE
  7
ROMANS
  0
TEXT
  8
0
 62
   249
 10
259.577972
 20
24.080166
 30
0.0
 40
1.4
  1
TOLERANSSIT  TOLERANCES
  7
ROMANS
  0
TEXT
  8
0
 62
   249
 10
259.577972
 20
33.080166
 30
0.0
 40
1.4
  1
LIITTYY  CONCERNING
  7
ROMANS
  0
LINE
  8
0
 62
   249
 10
307.577972
 20
0.580166
 30
0.0
 11
307.577972
 21
35.580166
 31
0.0
  0
TEXT
  8
0
 62
   249
 10
210.320806
 20
16.046833
 30
0.0
 40
1.4
  1
HYVÄKSYI  APPROVED
  7
ROMANS
  0
TEXT
  8
0
 62
   249
 10
210.577972
 20
24.313499
 30
0.0
 40
1.4
  1
TARKASTI  CHECKED
  7
ROMANS
  0
LINE
  8
0
 62
   249
 10
209.577972
 20
35.580166
 30
0.0
 11
392.577972
 21
35.580166
 31
0.0
  0
LINE
  8
0
 62
   249
 10
209.577972
 20
27.080166
 30
0.0
 11
307.577972
 21
27.080166
 31
0.0
  0
LINE
  8
0
 62
   249
 10
209.577972
 20
10.080166
 30
0.0
 11
392.577972
 21
10.080166
 31
0.0
  0
LINE
  8
0
 62
   249
 10
209.577972
 20
18.580166
 30
0.0
 11
392.577972
 21
18.580166
 31
0.0
  0
LINE
  8
0
 62
   249
 10
392.577972
 20
0.580166
 30
0.0
 11
392.577972
 21
35.580166
 31
0.0
  0
LINE
  8
0
 62
   249
 10
209.577972
 20
0.580166
 30
0.0
 11
209.577972
 21
35.580166
 31
0.0
  0
LINE
  8
0
 62
   249
 10
209.577972
 20
0.580166
 30
0.0
 11
392.577972
 21
0.580166
 31
0.0
  0
LINE
  8
0
 62
   249
 10
18.577972
 20
0.580166
 30
0.0
 11
0.577972
 21
0.580166
 31
0.0
  0
LINE
  8
0
 62
   249
 10
0.577972
 20
263.080166
 30
0.0
 11
392.577972
 21
263.080166
 31
0.0
  0
TEXT
  8
0
  6
DASHED
 62
   249
 10
292.558067
 20
12.155526
 30
0.0
 40
3.0
  1
A3
  7
GREEKS
  0
TEXT
  8
0
  6
CONTINUOUS
 62
   249
 10
11.812111
 20
111.439106
 30
0.0
 40
2.0
  1
+
  0
TEXT
  8
0
  6
CONTINUOUS
 62
   249
 10
11.812111
 20
91.46848
 30
0.0
 40
2.0
  1
+
  0
TEXT
  8
0
  6
CONTINUOUS
 62
   249
 10
11.812111
 20
61.494867
 30
0.0
 40
2.0
  1
+
  0
TEXT
  8
0
  6
CONTINUOUS
 62
   249
 10
11.812111
 20
121.503948
 30
0.0
 40
2.0
  1
+
  0
TEXT
  8
0
  6
CONTINUOUS
 62
   249
 10
11.717542
 20
206.513635
 30
0.0
 40
2.0
  1
+
  0
TEXT
  8
0
  6
CONTINUOUS
 62
   249
 10
11.708977
 20
201.50558
 30
0.0
 40
2.0
  1
-
  0
TEXT
  8
0
  6
CONTINUOUS
 62
   249
 10
11.921234
 20
139.004484
 30
0.0
 40
2.0
  1
-
  0
ARC
  8
0
  6
CONTINUOUS
 62
   249
 10
57.5
 20
133.608096
 30
0.0
 40
0.5
 50
180.0
 51
0.0
  0
ARC
  8
0
  6
CONTINUOUS
 62
   249
 10
57.5
 20
133.608096
 30
0.0
 40
0.5
 50
0.0
 51
180.0
  0
ARC
  8
0
  6
CONTINUOUS
 62
   249
 10
55.0
 20
146.055194
 30
0.0
 40
0.5
 50
180.0
 51
0.0
  0
ARC
  8
0
  6
CONTINUOUS
 62
   249
 10
55.0
 20
146.055194
 30
0.0
 40
0.5
 50
0.0
 51
180.0
  0
ARC
  8
0
  6
CONTINUOUS
 62
   249
 10
70.0
 20
165.0
 30
0.0
 40
0.5
 50
180.0
 51
0.0
  0
ARC
  8
0
  6
CONTINUOUS
 62
   249
 10
70.0
 20
165.0
 30
0.0
 40
0.5
 50
0.0
 51
180.0
  0
ARC
  8
0
  6
CONTINUOUS
 62
   249
 10
45.0
 20
202.5
 30
0.0
 40
0.5
 50
180.0
 51
0.0
  0
ARC
  8
0
  6
CONTINUOUS
 62
   249
 10
45.0
 20
202.5
 30
0.0
 40
0.5
 50
0.0
 51
180.0
  0
TEXT
  8
0
  6
CONTINUOUS
 62
   249
 10
11.717542
 20
214.013635
 30
0.0
 40
2.0
  1
+
  0
TEXT
  8
0
  6
CONTINUOUS
 62
   249
 10
11.717542
 20
229.013635
 30
0.0
 40
2.0
  1
+
  0
TEXT
  8
0
  6
CONTINUOUS
 62
   249
 10
11.708977
 20
224.00558
 30
0.0
 40
2.0
  1
-
  0
ARC
  8
0
  6
CONTINUOUS
 62
   249
 10
80.0
 20
162.5
 30
0.0
 40
0.5
 50
180.0
 51
0.0
  0
ARC
  8
0
  6
CONTINUOUS
 62
   249
 10
80.0
 20
162.5
 30
0.0
 40
0.5
 50
0.0
 51
180.0
  0
ARC
  8
0
  6
CONTINUOUS
 62
   249
 10
82.5
 20
157.5
 30
0.0
 40
0.5
 50
180.0
 51
0.0
  0
ARC
  8
0
  6
CONTINUOUS
 62
   249
 10
82.5
 20
157.5
 30
0.0
 40
0.5
 50
0.0
 51
180.0
  0
ARC
  8
0
  6
CONTINUOUS
 62
   249
 10
112.5
 20
162.5
 30
0.0
 40
0.5
 50
180.0
 51
0.0
  0
ARC
  8
0
  6
CONTINUOUS
 62
   249
 10
112.5
 20
162.5
 30
0.0
 40
0.5
 50
0.0
 51
180.0
  0
ARC
  8
0
  6
CONTINUOUS
 62
   249
 10
165.0
 20
165.500813
 30
0.0
 40
0.5
 50
180.0
 51
0.0
  0
ARC
  8
0
  6
CONTINUOUS
 62
   249
 10
165.0
 20
165.500813
 30
0.0
 40
0.5
 50
0.0
 51
180.0
  0
ARC
  8
0
  6
CONTINUOUS
 62
   249
 10
145.0
 20
143.668039
 30
0.0
 40
0.5
 50
180.0
 51
0.0
  0
ARC
  8
0
  6
CONTINUOUS
 62
   249
 10
145.0
 20
143.668039
 30
0.0
 40
0.5
 50
0.0
 51
180.0
  0
ARC
  8
0
  6
CONTINUOUS
 62
   249
 10
140.0
 20
162.5
 30
0.0
 40
0.5
 50
180.0
 51
0.0
  0
ARC
  8
0
  6
CONTINUOUS
 62
   249
 10
140.0
 20
162.5
 30
0.0
 40
0.5
 50
0.0
 51
180.0
  0
ARC
  8
0
  6
CONTINUOUS
 62
   249
 10
137.5
 20
170.0
 30
0.0
 40
0.5
 50
180.0
 51
0.0
  0
ARC
  8
0
  6
CONTINUOUS
 62
   249
 10
137.5
 20
170.0
 30
0.0
 40
0.5
 50
0.0
 51
180.0
  0
LINE
  8
0
  6
CONTINUOUS
 62
   249
 10
181.492717
 20
143.201444
 30
0.0
 11
182.379604
 21
143.201444
 31
0.0
  0
LINE
  8
0
  6
CONTINUOUS
 62
   249
 10
181.161613
 20
143.813077
 30
0.0
 11
182.746184
 21
143.813077
 31
0.0
  0
LINE
  8
0
  6
CONTINUOUS
 62
   249
 10
181.977549
 20
144.435139
 30
0.0
 11
183.17189
 21
144.435139
 31
0.0
  0
LINE
  8
0
  6
CONTINUOUS
 62
   249
 10
180.783208
 20
144.435139
 30
0.0
 11
181.977549
 21
144.435139
 31
0.0
  0
LINE
  8
0
  6
CONTINUOUS
 62
   249
 10
181.993435
 20
145.789409
 30
0.0
 11
181.993435
 21
144.435139
 31
0.0
  0
LINE
  8
0
  6
CONTINUOUS
 62
   249
 10
171.424362
 20
142.332673
 30
0.0
 11
169.078597
 21
143.668027
 31
0.0
  0
LINE
  8
0
  6
CONTINUOUS
 62
   249
 10
169.078597
 20
143.668027
 30
0.0
 11
171.424362
 21
144.857946
 31
0.0
  0
ARC
  8
0
  6
CONTINUOUS
 62
   249
 10
167.5
 20
162.471652
 30
0.0
 40
0.5
 50
180.0
 51
0.0
  0
ARC
  8
0
  6
CONTINUOUS
 62
   249
 10
167.5
 20
162.471652
 30
0.0
 40
0.5
 50
0.0
 51
180.0
  0
LINE
  8
0
  6
CONTINUOUS
 62
   249
 10
171.424362
 20
153.664635
 30
0.0
 11
169.078597
 21
154.999989
 31
0.0
  0
LINE
  8
0
  6
CONTINUOUS
 62
   249
 10
169.078597
 20
154.999989
 30
0.0
 11
171.424362
 21
156.189908
 31
0.0
  0
LINE
  8
0
  6
CONTINUOUS
 62
   249
 10
171.424362
 20
157.563601
 30
0.0
 11
169.078597
 21
158.898954
 31
0.0
  0
LINE
  8
0
  6
CONTINUOUS
 62
   249
 10
169.078597
 20
158.898954
 30
0.0
 11
171.424362
 21
160.088874
 31
0.0
  0
LINE
  8
0
  6
CONTINUOUS
 62
   249
 10
171.424362
 20
168.664635
 30
0.0
 11
169.078597
 21
169.999989
 31
0.0
  0
LINE
  8
0
  6
CONTINUOUS
 62
   249
 10
169.078597
 20
169.999989
 30
0.0
 11
171.424362
 21
171.189908
 31
0.0
  0
LINE
  8
0
  6
CONTINUOUS
 62
   249
 10
181.70838
 20
153.137212
 30
0.0
 11
182.595267
 21
153.137212
 31
0.0
  0
LINE
  8
0
  6
CONTINUOUS
 62
   249
 10
181.377275
 20
153.748845
 30
0.0
 11
182.961846
 21
153.748845
 31
0.0
  0
LINE
  8
0
  6
CONTINUOUS
 62
   249
 10
182.193211
 20
154.370907
 30
0.0
 11
183.387552
 21
154.370907
 31
0.0
  0
LINE
  8
0
  6
CONTINUOUS
 62
   249
 10
180.99887
 20
154.370907
 30
0.0
 11
182.193211
 21
154.370907
 31
0.0
  0
LINE
  8
0
  6
CONTINUOUS
 62
   249
 10
182.209098
 20
155.725178
 30
0.0
 11
182.209098
 21
154.370907
 31
0.0
  0
LINE
  8
0
  6
CONTINUOUS
 62
   249
 10
181.70838
 20
158.066047
 30
0.0
 11
182.595267
 21
158.066047
 31
0.0
  0
LINE
  8
0
  6
CONTINUOUS
 62
   249
 10
181.377275
 20
158.677681
 30
0.0
 11
182.961846
 21
158.677681
 31
0.0
  0
LINE
  8
0
  6
CONTINUOUS
 62
   249
 10
182.193211
 20
159.299743
 30
0.0
 11
183.387552
 21
159.299743
 31
0.0
  0
LINE
  8
0
  6
CONTINUOUS
 62
   249
 10
180.99887
 20
159.299743
 30
0.0
 11
182.193211
 21
159.299743
 31
0.0
  0
LINE
  8
0
  6
CONTINUOUS
 62
   249
 10
182.209098
 20
160.654013
 30
0.0
 11
182.209098
 21
159.299743
 31
0.0
  0
LINE
  8
0
  6
CONTINUOUS
 62
   249
 10
181.780267
 20
167.941073
 30
0.0
 11
182.667154
 21
167.941073
 31
0.0
  0
LINE
  8
0
  6
CONTINUOUS
 62
   249
 10
181.449163
 20
168.552706
 30
0.0
 11
183.033734
 21
168.552706
 31
0.0
  0
LINE
  8
0
  6
CONTINUOUS
 62
   249
 10
182.265099
 20
169.174769
 30
0.0
 11
183.45944
 21
169.174769
 31
0.0
  0
LINE
  8
0
  6
CONTINUOUS
 62
   249
 10
181.070758
 20
169.174769
 30
0.0
 11
182.265099
 21
169.174769
 31
0.0
  0
LINE
  8
0
  6
CONTINUOUS
 62
   249
 10
182.280985
 20
170.529039
 30
0.0
 11
182.280985
 21
169.174769
 31
0.0
  0
LINE
  8
0
  6
CONTINUOUS
 62
   249
 10
229.88991
 20
83.666103
 30
0.0
 11
227.544144
 21
85.001457
 31
0.0
  0
LINE
  8
0
  6
CONTINUOUS
 62
   249
 10
227.544144
 20
85.001457
 30
0.0
 11
229.88991
 21
86.191376
 31
0.0
  0
ARC
  8
0
  6
CONTINUOUS
 62
   249
 10
290.0
 20
90.0
 30
0.0
 40
0.5
 50
180.0
 51
0.0
  0
ARC
  8
0
  6
CONTINUOUS
 62
   249
 10
290.0
 20
90.0
 30
0.0
 40
0.5
 50
0.0
 51
180.0
  0
ARC
  8
0
  6
CONTINUOUS
 62
   249
 10
290.0
 20
70.0
 30
0.0
 40
0.5
 50
180.0
 51
0.0
  0
ARC
  8
0
  6
CONTINUOUS
 62
   249
 10
290.0
 20
70.0
 30
0.0
 40
0.5
 50
0.0
 51
180.0
  0
ARC
  8
0
  6
CONTINUOUS
 62
   249
 10
297.5
 20
110.0
 30
0.0
 40
0.5
 50
180.0
 51
0.0
  0
ARC
  8
0
  6
CONTINUOUS
 62
   249
 10
297.5
 20
110.0
 30
0.0
 40
0.5
 50
0.0
 51
180.0
  0
LINE
  8
0
  6
CONTINUOUS
 62
   249
 10
376.509978
 20
117.5
 30
0.0
 11
379.155635
 21
117.5
 31
0.0
  0
LINE
  8
0
  6
CONTINUOUS
 62
   249
 10
380.937188
 20
116.896305
 30
0.0
 11
380.937188
 21
118.103695
 31
0.0
  0
LINE
  8
0
  6
CONTINUOUS
 62
   249
 10
380.049675
 20
116.463807
 30
0.0
 11
380.049675
 21
118.527182
 31
0.0
  0
LINE
  8
0
  6
CONTINUOUS
 62
   249
 10
379.155635
 20
115.968237
 30
0.0
 11
379.155635
 21
119.031763
 31
0.0
  0
LINE
  8
0
  6
CONTINUOUS
 62
   249
 10
376.509978
 20
122.68998
 30
0.0
 11
379.155635
 21
122.68998
 31
0.0
  0
LINE
  8
0
  6
CONTINUOUS
 62
   249
 10
380.937188
 20
122.086285
 30
0.0
 11
380.937188
 21
123.293675
 31
0.0
  0
LINE
  8
0
  6
CONTINUOUS
 62
   249
 10
380.049675
 20
121.653787
 30
0.0
 11
380.049675
 21
123.717163
 31
0.0
  0
LINE
  8
0
  6
CONTINUOUS
 62
   249
 10
379.155635
 20
121.158217
 30
0.0
 11
379.155635
 21
124.221743
 31
0.0
  0
INSERT
  8
0
  6
CENTER
 62
   249
  2
BLC26
 10
353.546562
 20
125.109534
 30
0.0
 41
1.006225
 42
1.006225
 43
1.006225
  0
INSERT
  8
0
  6
CENTER
 62
   249
  2
BLC26
 10
361.046562
 20
125.109534
 30
0.0
 41
1.006225
 42
1.006225
 43
1.006225
  0
INSERT
  8
0
  6
CENTER
 62
   249
  2
BLC26
 10
368.546562
 20
125.109534
 30
0.0
 41
1.006225
 42
1.006225
 43
1.006225
  0
ARC
  8
0
  6
CONTINUOUS
 62
   249
 10
212.5
 20
150.979447
 30
0.0
 40
0.5
 50
180.0
 51
0.0
  0
ARC
  8
0
  6
CONTINUOUS
 62
   249
 10
212.5
 20
150.979447
 30
0.0
 40
0.5
 50
0.0
 51
180.0
  0
LINE
  8
0
  6
CONTINUOUS
 62
   249
 10
204.113336
 20
162.014322
 30
0.0
 11
205.000223
 21
162.014322
 31
0.0
  0
LINE
  8
0
  6
CONTINUOUS
 62
   249
 10
203.782232
 20
162.625955
 30
0.0
 11
205.366803
 21
162.625955
 31
0.0
  0
LINE
  8
0
  6
CONTINUOUS
 62
   249
 10
204.598168
 20
163.248018
 30
0.0
 11
205.792509
 21
163.248018
 31
0.0
  0
LINE
  8
0
  6
CONTINUOUS
 62
   249
 10
203.403827
 20
163.248018
 30
0.0
 11
204.598168
 21
163.248018
 31
0.0
  0
LINE
  8
0
  6
CONTINUOUS
 62
   249
 10
204.614054
 20
164.602288
 30
0.0
 11
204.614054
 21
163.248018
 31
0.0
  0
LINE
  8
0
  6
CONTINUOUS
 62
   249
 10
204.113336
 20
157.432588
 30
0.0
 11
205.000223
 21
157.432588
 31
0.0
  0
LINE
  8
0
  6
CONTINUOUS
 62
   249
 10
203.782232
 20
158.044221
 30
0.0
 11
205.366803
 21
158.044221
 31
0.0
  0
LINE
  8
0
  6
CONTINUOUS
 62
   249
 10
204.598168
 20
158.666283
 30
0.0
 11
205.792509
 21
158.666283
 31
0.0
  0
LINE
  8
0
  6
CONTINUOUS
 62
   249
 10
203.403827
 20
158.666283
 30
0.0
 11
204.598168
 21
158.666283
 31
0.0
  0
LINE
  8
0
  6
CONTINUOUS
 62
   249
 10
204.614054
 20
160.020554
 30
0.0
 11
204.614054
 21
158.666283
 31
0.0
  0
LINE
  8
0
  6
CONTINUOUS
 62
   249
 10
201.22323
 20
154.990627
 30
0.0
 11
199.974557
 21
155.701449
 31
0.0
  0
LINE
  8
0
  6
CONTINUOUS
 62
   249
 10
199.974557
 20
155.701449
 30
0.0
 11
201.22323
 21
156.334854
 31
0.0
  0
LINE
  8
0
  6
CONTINUOUS
 62
   249
 10
204.847595
 20
156.425586
 30
0.0
 11
206.096268
 21
155.714764
 31
0.0
  0
LINE
  8
0
  6
CONTINUOUS
 62
   249
 10
206.096268
 20
155.714764
 30
0.0
 11
204.847595
 21
155.081359
 31
0.0
  0
LINE
  8
0
  6
CONTINUOUS
 62
   249
 10
229.489729
 20
143.664635
 30
0.0
 11
227.143963
 21
144.999989
 31
0.0
  0
LINE
  8
0
  6
CONTINUOUS
 62
   249
 10
227.143963
 20
144.999989
 30
0.0
 11
229.489729
 21
146.189908
 31
0.0
  0
LINE
  8
0
  6
CONTINUOUS
 62
   249
 10
229.489729
 20
193.664635
 30
0.0
 11
227.143963
 21
194.999989
 31
0.0
  0
LINE
  8
0
  6
CONTINUOUS
 62
   249
 10
227.143963
 20
194.999989
 30
0.0
 11
229.489729
 21
196.189908
 31
0.0
  0
LINE
  8
0
  6
CONTINUOUS
 62
   249
 10
295.0
 20
173.490022
 30
0.0
 11
295.0
 21
170.844365
 31
0.0
  0
LINE
  8
0
  6
CONTINUOUS
 62
   249
 10
294.396305
 20
169.062812
 30
0.0
 11
295.603695
 21
169.062812
 31
0.0
  0
LINE
  8
0
  6
CONTINUOUS
 62
   249
 10
293.963807
 20
169.950325
 30
0.0
 11
296.027182
 21
169.950325
 31
0.0
  0
LINE
  8
0
  6
CONTINUOUS
 62
   249
 10
293.468237
 20
170.844365
 30
0.0
 11
296.531763
 21
170.844365
 31
0.0
  0
ARC
  8
0
  6
CONTINUOUS
 62
   249
 10
302.5
 20
172.5
 30
0.0
 40
0.5
 50
180.0
 51
0.0
  0
ARC
  8
0
  6
CONTINUOUS
 62
   249
 10
302.5
 20
172.5
 30
0.0
 40
0.5
 50
0.0
 51
180.0
  0
LINE
  8
0
  6
CONTINUOUS
 62
   249
 10
302.5
 20
150.990022
 30
0.0
 11
302.5
 21
148.344365
 31
0.0
  0
LINE
  8
0
  6
CONTINUOUS
 62
   249
 10
301.896305
 20
146.562812
 30
0.0
 11
303.103695
 21
146.562812
 31
0.0
  0
LINE
  8
0
  6
CONTINUOUS
 62
   249
 10
301.463807
 20
147.450325
 30
0.0
 11
303.527182
 21
147.450325
 31
0.0
  0
LINE
  8
0
  6
CONTINUOUS
 62
   249
 10
300.968237
 20
148.344365
 30
0.0
 11
304.031763
 21
148.344365
 31
0.0
  0
LINE
  8
0
  6
CONTINUOUS
 62
   249
 10
292.5
 20
150.990022
 30
0.0
 11
292.5
 21
148.344365
 31
0.0
  0
LINE
  8
0
  6
CONTINUOUS
 62
   249
 10
291.896305
 20
146.562812
 30
0.0
 11
293.103695
 21
146.562812
 31
0.0
  0
LINE
  8
0
  6
CONTINUOUS
 62
   249
 10
291.463807
 20
147.450325
 30
0.0
 11
293.527182
 21
147.450325
 31
0.0
  0
LINE
  8
0
  6
CONTINUOUS
 62
   249
 10
290.968237
 20
148.344365
 30
0.0
 11
294.031763
 21
148.344365
 31
0.0
  0
ARC
  8
0
  6
CONTINUOUS
 62
   249
 10
292.5
 20
155.0
 30
0.0
 40
0.5
 50
180.0
 51
0.0
  0
ARC
  8
0
  6
CONTINUOUS
 62
   249
 10
292.5
 20
155.0
 30
0.0
 40
0.5
 50
0.0
 51
180.0
  0
INSERT
  8
0
  6
CENTER
 62
   249
  2
BLC26
 10
306.41053
 20
157.390461
 30
0.0
 41
1.006225
 42
1.006225
 50
180.0
 43
1.006225
  0
ARC
  8
0
  6
CONTINUOUS
 62
   249
 10
280.0
 20
175.0
 30
0.0
 40
0.5
 50
180.0
 51
0.0
  0
ARC
  8
0
  6
CONTINUOUS
 62
   249
 10
280.0
 20
175.0
 30
0.0
 40
0.5
 50
0.0
 51
180.0
  0
ARC
  8
0
  6
CONTINUOUS
 62
   249
 10
280.0
 20
195.0
 30
0.0
 40
0.5
 50
180.0
 51
0.0
  0
ARC
  8
0
  6
CONTINUOUS
 62
   249
 10
280.0
 20
195.0
 30
0.0
 40
0.5
 50
0.0
 51
180.0
  0
LINE
  8
0
  6
CONTINUOUS
 62
   249
 10
315.451992
 20
197.118962
 30
0.0
 11
315.451992
 21
187.969134
 31
0.0
  0
INSERT
  8
0
  6
CONTINUOUS
 62
   249
  2
BLC29
 10
315.584738
 20
190.329699
 30
0.0
 50
270.0
  0
ARC
  8
0
  6
CONTINUOUS
 62
   249
 10
295.0
 20
175.0
 30
0.0
 40
0.5
 50
180.0
 51
0.0
  0
ARC
  8
0
  6
CONTINUOUS
 62
   249
 10
295.0
 20
175.0
 30
0.0
 40
0.5
 50
0.0
 51
180.0
  0
ARC
  8
0
  6
CONTINUOUS
 62
   249
 10
295.0
 20
180.189984
 30
0.0
 40
0.5
 50
180.0
 51
0.0
  0
ARC
  8
0
  6
CONTINUOUS
 62
   249
 10
295.0
 20
180.189984
 30
0.0
 40
0.5
 50
0.0
 51
180.0
  0
INSERT
  8
0
  6
CENTER
 62
   249
  2
BLC26
 10
311.410526
 20
182.580446
 30
0.0
 41
1.006225
 42
1.006225
 50
180.0
 43
1.006225
  0
ARC
  8
0
  6
CONTINUOUS
 62
   249
 10
295.0
 20
200.189984
 30
0.0
 40
0.5
 50
180.0
 51
0.0
  0
ARC
  8
0
  6
CONTINUOUS
 62
   249
 10
295.0
 20
200.189984
 30
0.0
 40
0.5
 50
0.0
 51
180.0
  0
INSERT
  8
0
  6
CENTER
 62
   249
  2
BLC26
 10
306.43164
 20
202.580445
 30
0.0
 41
1.006225
 42
1.006225
 50
180.0
 43
1.006225
  0
ARC
  8
0
  6
CONTINUOUS
 62
   249
 10
305.0
 20
255.0
 30
0.0
 40
0.5
 50
180.0
 51
0.0
  0
ARC
  8
0
  6
CONTINUOUS
 62
   249
 10
305.0
 20
255.0
 30
0.0
 40
0.5
 50
0.0
 51
180.0
  0
INSERT
  8
0
  6
CENTER
 62
   249
  2
BLC26
 10
301.410524
 20
222.580448
 30
0.0
 41
1.006225
 42
1.006225
 50
180.0
 43
1.006225
  0
ARC
  8
0
  6
CONTINUOUS
 62
   249
 10
310.0
 20
250.0
 30
0.0
 40
0.5
 50
180.0
 51
0.0
  0
ARC
  8
0
  6
CONTINUOUS
 62
   249
 10
310.0
 20
250.0
 30
0.0
 40
0.5
 50
0.0
 51
180.0
  0
ARC
  8
0
  6
CONTINUOUS
 62
   249
 10
300.0
 20
260.0
 30
0.0
 40
0.5
 50
180.0
 51
0.0
  0
ARC
  8
0
  6
CONTINUOUS
 62
   249
 10
300.0
 20
260.0
 30
0.0
 40
0.5
 50
0.0
 51
180.0
  0
ARC
  8
0
  6
CONTINUOUS
 62
   249
 10
355.0
 20
142.5
 30
0.0
 40
0.5
 50
180.0
 51
0.0
  0
ARC
  8
0
  6
CONTINUOUS
 62
   249
 10
355.0
 20
142.5
 30
0.0
 40
0.5
 50
0.0
 51
180.0
  0
ARC
  8
0
  6
CONTINUOUS
 62
   249
 10
362.5
 20
137.5
 30
0.0
 40
0.5
 50
180.0
 51
0.0
  0
ARC
  8
0
  6
CONTINUOUS
 62
   249
 10
362.5
 20
137.5
 30
0.0
 40
0.5
 50
0.0
 51
180.0
  0
ARC
  8
0
  6
CONTINUOUS
 62
   249
 10
370.0
 20
132.5
 30
0.0
 40
0.5
 50
180.0
 51
0.0
  0
ARC
  8
0
  6
CONTINUOUS
 62
   249
 10
370.0
 20
132.5
 30
0.0
 40
0.5
 50
0.0
 51
180.0
  0
ARC
  8
0
  6
CONTINUOUS
 62
   249
 10
335.0
 20
255.0
 30
0.0
 40
0.5
 50
180.0
 51
0.0
  0
ARC
  8
0
  6
CONTINUOUS
 62
   249
 10
335.0
 20
255.0
 30
0.0
 40
0.5
 50
0.0
 51
180.0
  0
LINE
  8
0
  6
CONTINUOUS
 62
   249
 10
375.978275
 20
254.630866
 30
0.0
 11
376.865162
 21
254.630866
 31
0.0
  0
LINE
  8
0
  6
CONTINUOUS
 62
   249
 10
375.64717
 20
255.242499
 30
0.0
 11
377.231742
 21
255.242499
 31
0.0
  0
LINE
  8
0
  6
CONTINUOUS
 62
   249
 10
376.463106
 20
255.864561
 30
0.0
 11
377.657447
 21
255.864561
 31
0.0
  0
LINE
  8
0
  6
CONTINUOUS
 62
   249
 10
375.268765
 20
255.864561
 30
0.0
 11
376.463106
 21
255.864561
 31
0.0
  0
LINE
  8
0
  6
CONTINUOUS
 62
   249
 10
376.478993
 20
257.218832
 30
0.0
 11
376.478993
 21
255.864561
 31
0.0
  0
ARC
  8
0
  6
CONTINUOUS
 62
   249
 10
333.364862
 20
241.296095
 30
0.0
 40
1.204309
 50
90.0
 51
265.706237
  0
LINE
  8
0
  6
CONTINUOUS
 62
   249
 10
333.358762
 20
240.098547
 30
0.0
 11
334.00836
 21
240.098547
 31
0.0
  0
LINE
  8
0
  6
CONTINUOUS
 62
   249
 10
333.358762
 20
242.499993
 30
0.0
 11
334.002261
 21
242.499993
 31
0.0
  0
LINE
  8
0
  6
CONTINUOUS
 62
   249
 10
333.359898
 20
237.689937
 30
0.0
 11
334.009496
 21
237.689937
 31
0.0
  0
ARC
  8
0
  6
CONTINUOUS
 62
   249
 10
333.364862
 20
238.894238
 30
0.0
 40
1.204309
 50
90.0
 51
270.0
  0
LINE
  8
0
  6
CONTINUOUS
 62
   249
 10
334.000897
 20
237.68998
 30
0.0
 11
334.957092
 21
237.68998
 31
0.0
  0
LINE
  8
0
  6
CONTINUOUS
 62
   249
 10
333.996128
 20
242.499996
 30
0.0
 11
334.973936
 21
242.499996
 31
0.0
  0
LINE
  8
0
  6
CONTINUOUS
 62
   249
 10
334.006031
 20
240.098556
 30
0.0
 11
334.978167
 21
240.098556
 31
0.0
  0
INSERT
  8
0
  6
CENTER
 62
   249
  2
BLC26
 10
326.046562
 20
240.109534
 30
0.0
 41
1.006225
 42
1.006225
 43
1.006225
  0
ARC
  8
0
  6
CONTINUOUS
 62
   249
 10
340.864862
 20
241.296095
 30
0.0
 40
1.204309
 50
90.0
 51
265.706237
  0
LINE
  8
0
  6
CONTINUOUS
 62
   249
 10
340.858762
 20
240.098547
 30
0.0
 11
341.50836
 21
240.098547
 31
0.0
  0
LINE
  8
0
  6
CONTINUOUS
 62
   249
 10
340.858762
 20
242.499993
 30
0.0
 11
341.502261
 21
242.499993
 31
0.0
  0
LINE
  8
0
  6
CONTINUOUS
 62
   249
 10
340.859898
 20
237.689937
 30
0.0
 11
341.509496
 21
237.689937
 31
0.0
  0
ARC
  8
0
  6
CONTINUOUS
 62
   249
 10
340.864862
 20
238.894238
 30
0.0
 40
1.204309
 50
90.0
 51
270.0
  0
LINE
  8
0
  6
CONTINUOUS
 62
   249
 10
341.500897
 20
237.68998
 30
0.0
 11
342.457092
 21
237.68998
 31
0.0
  0
LINE
  8
0
  6
CONTINUOUS
 62
   249
 10
341.496128
 20
242.499996
 30
0.0
 11
342.473936
 21
242.499996
 31
0.0
  0
LINE
  8
0
  6
CONTINUOUS
 62
   249
 10
341.506031
 20
240.098556
 30
0.0
 11
342.478167
 21
240.098556
 31
0.0
  0
ARC
  8
0
  6
CONTINUOUS
 62
   249
 10
342.5
 20
250.0
 30
0.0
 40
0.5
 50
180.0
 51
0.0
  0
ARC
  8
0
  6
CONTINUOUS
 62
   249
 10
342.5
 20
250.0
 30
0.0
 40
0.5
 50
0.0
 51
180.0
  0
LINE
  8
0
  6
CONTINUOUS
 62
   249
 10
378.536203
 20
235.602241
 30
0.0
 11
379.784876
 21
234.891419
 31
0.0
  0
LINE
  8
0
  6
CONTINUOUS
 62
   249
 10
379.784876
 20
234.891419
 30
0.0
 11
378.536203
 21
234.258014
 31
0.0
  0
LINE
  8
0
  6
CONTINUOUS
 62
   249
 10
374.911837
 20
234.167282
 30
0.0
 11
373.663164
 21
234.878104
 31
0.0
  0
LINE
  8
0
  6
CONTINUOUS
 62
   249
 10
373.663164
 20
234.878104
 30
0.0
 11
374.911837
 21
235.511509
 31
0.0
  0
LINE
  8
0
  6
CONTINUOUS
 62
   249
 10
356.509978
 20
232.537105
 30
0.0
 11
359.155635
 21
232.537105
 31
0.0
  0
LINE
  8
0
  6
CONTINUOUS
 62
   249
 10
360.937188
 20
231.93341
 30
0.0
 11
360.937188
 21
233.1408
 31
0.0
  0
LINE
  8
0
  6
CONTINUOUS
 62
   249
 10
360.049675
 20
231.500912
 30
0.0
 11
360.049675
 21
233.564287
 31
0.0
  0
LINE
  8
0
  6
CONTINUOUS
 62
   249
 10
359.155635
 20
231.005342
 30
0.0
 11
359.155635
 21
234.068868
 31
0.0
  0
ARC
  8
0
  6
CONTINUOUS
 62
   249
 10
352.5
 20
232.5
 30
0.0
 40
0.5
 50
180.0
 51
0.0
  0
ARC
  8
0
  6
CONTINUOUS
 62
   249
 10
352.5
 20
232.5
 30
0.0
 40
0.5
 50
0.0
 51
180.0
  0
LINE
  8
0
  6
CONTINUOUS
 62
   249
 10
356.509978
 20
237.727085
 30
0.0
 11
359.155635
 21
237.727085
 31
0.0
  0
LINE
  8
0
  6
CONTINUOUS
 62
   249
 10
360.937188
 20
237.12339
 30
0.0
 11
360.937188
 21
238.33078
 31
0.0
  0
LINE
  8
0
  6
CONTINUOUS
 62
   249
 10
360.049675
 20
236.690892
 30
0.0
 11
360.049675
 21
238.754268
 31
0.0
  0
LINE
  8
0
  6
CONTINUOUS
 62
   249
 10
359.155635
 20
236.195322
 30
0.0
 11
359.155635
 21
239.258848
 31
0.0
  0
LINE
  8
0
  6
CONTINUOUS
 62
   249
 10
375.978275
 20
241.977725
 30
0.0
 11
376.865162
 21
241.977725
 31
0.0
  0
LINE
  8
0
  6
CONTINUOUS
 62
   249
 10
375.64717
 20
242.589358
 30
0.0
 11
377.231742
 21
242.589358
 31
0.0
  0
LINE
  8
0
  6
CONTINUOUS
 62
   249
 10
376.463106
 20
243.21142
 30
0.0
 11
377.657447
 21
243.21142
 31
0.0
  0
LINE
  8
0
  6
CONTINUOUS
 62
   249
 10
375.268765
 20
243.21142
 30
0.0
 11
376.463106
 21
243.21142
 31
0.0
  0
LINE
  8
0
  6
CONTINUOUS
 62
   249
 10
376.478993
 20
244.56569
 30
0.0
 11
376.478993
 21
243.21142
 31
0.0
  0
LINE
  8
0
  6
CONTINUOUS
 62
   249
 10
375.797308
 20
248.760564
 30
0.0
 11
377.045982
 21
248.049743
 31
0.0
  0
LINE
  8
0
  6
CONTINUOUS
 62
   249
 10
377.045982
 20
248.049743
 30
0.0
 11
375.797308
 21
247.416337
 31
0.0
  0
ARC
  8
0
  6
CONTINUOUS
 62
   249
 10
327.5
 20
260.0
 30
0.0
 40
0.5
 50
180.0
 51
0.0
  0
ARC
  8
0
  6
CONTINUOUS
 62
   249
 10
327.5
 20
260.0
 30
0.0
 40
0.5
 50
0.0
 51
180.0
  0
ENDSEC
  0
EOF
