ISO-10303-21;
HEADER;
/* Generated by software containing ST-Developer
 * from STEP Tools, Inc. (www.steptools.com) 
 */
/* OPTION: using custom schema-name function */

FILE_DESCRIPTION(
/* description */ (''),
/* implementation_level */ '2;1');

FILE_NAME(
/* name */ '1001204.stp',
/* time_stamp */ '2013-05-23T10:16:22+02:00',
/* author */ (''),
/* organization */ (''),
/* preprocessor_version */ 'ST-DEVELOPER v11',
/* originating_system */ 'SIEMENS PLM Software NX 7.5',
/* authorisation */ '');

FILE_SCHEMA (('CONFIG_CONTROL_DESIGN'));
ENDSEC;

DATA;
#10=SHAPE_REPRESENTATION_RELATIONSHIP('None',
'relationship between dbouC94B8r5l-None and dbouC94B8r5l-None',#94,#11);
#11=ADVANCED_BREP_SHAPE_REPRESENTATION('dbouC94B8r5l-None',(#95,#284),#447);
#12=CC_DESIGN_APPROVAL(#24,(#82));
#13=CC_DESIGN_APPROVAL(#25,(#84));
#14=CC_DESIGN_APPROVAL(#26,(#31));
#15=APPROVAL_PERSON_ORGANIZATION(#69,#24,#18);
#16=APPROVAL_PERSON_ORGANIZATION(#70,#25,#19);
#17=APPROVAL_PERSON_ORGANIZATION(#71,#26,#20);
#18=APPROVAL_ROLE('approver');
#19=APPROVAL_ROLE('approver');
#20=APPROVAL_ROLE('approver');
#21=APPROVAL_DATE_TIME(#39,#24);
#22=APPROVAL_DATE_TIME(#40,#25);
#23=APPROVAL_DATE_TIME(#41,#26);
#24=APPROVAL(#27,' ');
#25=APPROVAL(#28,' ');
#26=APPROVAL(#29,' ');
#27=APPROVAL_STATUS('not_yet_approved');
#28=APPROVAL_STATUS('not_yet_approved');
#29=APPROVAL_STATUS('not_yet_approved');
#30=CC_DESIGN_SECURITY_CLASSIFICATION(#31,(#84));
#31=SECURITY_CLASSIFICATION(' ',' ',#32);
#32=SECURITY_CLASSIFICATION_LEVEL('confidential');
#33=CC_DESIGN_DATE_AND_TIME_ASSIGNMENT(#37,#35,(#82));
#34=CC_DESIGN_DATE_AND_TIME_ASSIGNMENT(#38,#36,(#31));
#35=DATE_TIME_ROLE('creation_date');
#36=DATE_TIME_ROLE('classification_date');
#37=DATE_AND_TIME(#52,#42);
#38=DATE_AND_TIME(#53,#43);
#39=DATE_AND_TIME(#54,#44);
#40=DATE_AND_TIME(#55,#45);
#41=DATE_AND_TIME(#56,#46);
#42=LOCAL_TIME(0,0,0.,#47);
#43=LOCAL_TIME(0,0,0.,#48);
#44=LOCAL_TIME(0,0,0.,#49);
#45=LOCAL_TIME(0,0,0.,#50);
#46=LOCAL_TIME(0,0,0.,#51);
#47=COORDINATED_UNIVERSAL_TIME_OFFSET(0,0,.BEHIND.);
#48=COORDINATED_UNIVERSAL_TIME_OFFSET(0,0,.BEHIND.);
#49=COORDINATED_UNIVERSAL_TIME_OFFSET(0,0,.BEHIND.);
#50=COORDINATED_UNIVERSAL_TIME_OFFSET(0,0,.BEHIND.);
#51=COORDINATED_UNIVERSAL_TIME_OFFSET(0,0,.BEHIND.);
#52=CALENDAR_DATE(0,1,1);
#53=CALENDAR_DATE(0,1,1);
#54=CALENDAR_DATE(0,1,1);
#55=CALENDAR_DATE(0,1,1);
#56=CALENDAR_DATE(0,1,1);
#57=CC_DESIGN_PERSON_AND_ORGANIZATION_ASSIGNMENT(#65,#61,(#82,#84));
#58=CC_DESIGN_PERSON_AND_ORGANIZATION_ASSIGNMENT(#66,#62,(#86));
#59=CC_DESIGN_PERSON_AND_ORGANIZATION_ASSIGNMENT(#67,#63,(#84));
#60=CC_DESIGN_PERSON_AND_ORGANIZATION_ASSIGNMENT(#68,#64,(#31));
#61=PERSON_AND_ORGANIZATION_ROLE('creator');
#62=PERSON_AND_ORGANIZATION_ROLE('design_owner');
#63=PERSON_AND_ORGANIZATION_ROLE('design_supplier');
#64=PERSON_AND_ORGANIZATION_ROLE('classification_officer');
#65=PERSON_AND_ORGANIZATION(#79,#72);
#66=PERSON_AND_ORGANIZATION(#79,#73);
#67=PERSON_AND_ORGANIZATION(#79,#74);
#68=PERSON_AND_ORGANIZATION(#79,#75);
#69=PERSON_AND_ORGANIZATION(#79,#76);
#70=PERSON_AND_ORGANIZATION(#79,#77);
#71=PERSON_AND_ORGANIZATION(#79,#78);
#72=ORGANIZATION(' ',' ',' ');
#73=ORGANIZATION(' ',' ',' ');
#74=ORGANIZATION(' ',' ',' ');
#75=ORGANIZATION(' ',' ',' ');
#76=ORGANIZATION(' ',' ',' ');
#77=ORGANIZATION(' ',' ',' ');
#78=ORGANIZATION(' ',' ',' ');
#79=PERSON(' ',' ',' ',(' '),$,$);
#80=SHAPE_DEFINITION_REPRESENTATION(#81,#94);
#81=PRODUCT_DEFINITION_SHAPE('','',#82);
#82=PRODUCT_DEFINITION(' ','',#84,#83);
#83=DESIGN_CONTEXT('',#93,'design');
#84=PRODUCT_DEFINITION_FORMATION_WITH_SPECIFIED_SOURCE(' ',' ',#86,.NOT_KNOWN.);
#85=PRODUCT_RELATED_PRODUCT_CATEGORY('detail','',(#86));
#86=PRODUCT('dbouC94B8r5l','dbouC94B8r5l',' ',(#91));
#87=PRODUCT_CATEGORY_RELATIONSHIP(' ',' ',#89,#90);
#88=PRODUCT_CATEGORY_RELATIONSHIP('','',#90,#85);
#89=PRODUCT_CATEGORY('part',' ');
#90=PRODUCT_CATEGORY(' ','');
#91=MECHANICAL_CONTEXT(' ',#93,'mechanical');
#92=APPLICATION_PROTOCOL_DEFINITION('international standard',
'config_control_design',1994,#93);
#93=APPLICATION_CONTEXT(
'configuration controlled 3D designs of mechanical parts and assemblies');
#94=SHAPE_REPRESENTATION('dbouC94B8r5l-None',(#283),#447);
#95=BREP_WITH_VOIDS('',#100,(#96,#97));
#96=ORIENTED_CLOSED_SHELL('',*,#101,.F.);
#97=ORIENTED_CLOSED_SHELL('',*,#102,.F.);
#98=CONICAL_SURFACE('',#310,3.7125,30.);
#99=CONICAL_SURFACE('',#319,3.7125,30.);
#100=CLOSED_SHELL('',(#123,#124,#125,#126,#127,#128,#129,#130,#131));
#101=CLOSED_SHELL('',(#132,#133,#134,#135,#136));
#102=CLOSED_SHELL('',(#137,#138,#139,#140,#141));
#103=TOROIDAL_SURFACE('',#294,2.8875,1.3);
#104=TOROIDAL_SURFACE('',#301,2.8875,1.3);
#105=TOROIDAL_SURFACE('',#307,2.8875,1.);
#106=TOROIDAL_SURFACE('',#316,2.8875,1.);
#107=FACE_OUTER_BOUND('',#177,.T.);
#108=FACE_OUTER_BOUND('',#184,.T.);
#109=FACE_OUTER_BOUND('',#189,.F.);
#110=FACE_OUTER_BOUND('',#192,.F.);
#111=FACE_OUTER_BOUND('',#197,.F.);
#112=FACE_OUTER_BOUND('',#200,.F.);
#113=PLANE('',#289);
#114=PLANE('',#293);
#115=PLANE('',#296);
#116=PLANE('',#300);
#117=PLANE('',#304);
#118=PLANE('',#306);
#119=PLANE('',#309);
#120=PLANE('',#313);
#121=PLANE('',#315);
#122=PLANE('',#318);
#123=ADVANCED_FACE('',(#145,#146),#142,.T.);
#124=ADVANCED_FACE('',(#147,#148),#113,.F.);
#125=ADVANCED_FACE('',(#149,#150),#143,.T.);
#126=ADVANCED_FACE('',(#107),#114,.F.);
#127=ADVANCED_FACE('',(#151,#152),#103,.T.);
#128=ADVANCED_FACE('',(#153,#154),#115,.F.);
#129=ADVANCED_FACE('',(#155,#156),#144,.T.);
#130=ADVANCED_FACE('',(#108),#116,.F.);
#131=ADVANCED_FACE('',(#157,#158),#104,.T.);
#132=ADVANCED_FACE('',(#159,#160),#117,.F.);
#133=ADVANCED_FACE('',(#109),#118,.T.);
#134=ADVANCED_FACE('',(#161,#162),#105,.T.);
#135=ADVANCED_FACE('',(#110),#119,.F.);
#136=ADVANCED_FACE('',(#163,#164),#98,.F.);
#137=ADVANCED_FACE('',(#165,#166),#120,.F.);
#138=ADVANCED_FACE('',(#111),#121,.T.);
#139=ADVANCED_FACE('',(#167,#168),#106,.T.);
#140=ADVANCED_FACE('',(#112),#122,.F.);
#141=ADVANCED_FACE('',(#169,#170),#99,.F.);
#142=CYLINDRICAL_SURFACE('',#287,3.7125);
#143=CYLINDRICAL_SURFACE('',#291,4.1875);
#144=CYLINDRICAL_SURFACE('',#298,4.1875);
#145=FACE_BOUND('',#171,.T.);
#146=FACE_BOUND('',#172,.T.);
#147=FACE_BOUND('',#173,.T.);
#148=FACE_BOUND('',#174,.T.);
#149=FACE_BOUND('',#175,.T.);
#150=FACE_BOUND('',#176,.T.);
#151=FACE_BOUND('',#178,.T.);
#152=FACE_BOUND('',#179,.T.);
#153=FACE_BOUND('',#180,.T.);
#154=FACE_BOUND('',#181,.T.);
#155=FACE_BOUND('',#182,.T.);
#156=FACE_BOUND('',#183,.T.);
#157=FACE_BOUND('',#185,.T.);
#158=FACE_BOUND('',#186,.T.);
#159=FACE_BOUND('',#187,.F.);
#160=FACE_BOUND('',#188,.F.);
#161=FACE_BOUND('',#190,.F.);
#162=FACE_BOUND('',#191,.F.);
#163=FACE_BOUND('',#193,.F.);
#164=FACE_BOUND('',#194,.F.);
#165=FACE_BOUND('',#195,.F.);
#166=FACE_BOUND('',#196,.F.);
#167=FACE_BOUND('',#198,.F.);
#168=FACE_BOUND('',#199,.F.);
#169=FACE_BOUND('',#201,.F.);
#170=FACE_BOUND('',#202,.F.);
#171=EDGE_LOOP('',(#203));
#172=EDGE_LOOP('',(#204));
#173=EDGE_LOOP('',(#205));
#174=EDGE_LOOP('',(#206));
#175=EDGE_LOOP('',(#207));
#176=EDGE_LOOP('',(#208));
#177=EDGE_LOOP('',(#209));
#178=EDGE_LOOP('',(#210));
#179=EDGE_LOOP('',(#211));
#180=EDGE_LOOP('',(#212));
#181=EDGE_LOOP('',(#213));
#182=EDGE_LOOP('',(#214));
#183=EDGE_LOOP('',(#215));
#184=EDGE_LOOP('',(#216));
#185=EDGE_LOOP('',(#217));
#186=EDGE_LOOP('',(#218));
#187=EDGE_LOOP('',(#219));
#188=EDGE_LOOP('',(#220));
#189=EDGE_LOOP('',(#221));
#190=EDGE_LOOP('',(#222));
#191=EDGE_LOOP('',(#223));
#192=EDGE_LOOP('',(#224));
#193=EDGE_LOOP('',(#225));
#194=EDGE_LOOP('',(#226));
#195=EDGE_LOOP('',(#227));
#196=EDGE_LOOP('',(#228));
#197=EDGE_LOOP('',(#229));
#198=EDGE_LOOP('',(#230));
#199=EDGE_LOOP('',(#231));
#200=EDGE_LOOP('',(#232));
#201=EDGE_LOOP('',(#233));
#202=EDGE_LOOP('',(#234));
#203=ORIENTED_EDGE('',*,*,#251,.T.);
#204=ORIENTED_EDGE('',*,*,#252,.T.);
#205=ORIENTED_EDGE('',*,*,#251,.F.);
#206=ORIENTED_EDGE('',*,*,#253,.T.);
#207=ORIENTED_EDGE('',*,*,#254,.T.);
#208=ORIENTED_EDGE('',*,*,#253,.F.);
#209=ORIENTED_EDGE('',*,*,#255,.T.);
#210=ORIENTED_EDGE('',*,*,#255,.F.);
#211=ORIENTED_EDGE('',*,*,#254,.F.);
#212=ORIENTED_EDGE('',*,*,#252,.F.);
#213=ORIENTED_EDGE('',*,*,#256,.T.);
#214=ORIENTED_EDGE('',*,*,#257,.T.);
#215=ORIENTED_EDGE('',*,*,#256,.F.);
#216=ORIENTED_EDGE('',*,*,#258,.T.);
#217=ORIENTED_EDGE('',*,*,#258,.F.);
#218=ORIENTED_EDGE('',*,*,#257,.F.);
#219=ORIENTED_EDGE('',*,*,#259,.T.);
#220=ORIENTED_EDGE('',*,*,#260,.T.);
#221=ORIENTED_EDGE('',*,*,#261,.T.);
#222=ORIENTED_EDGE('',*,*,#260,.F.);
#223=ORIENTED_EDGE('',*,*,#261,.F.);
#224=ORIENTED_EDGE('',*,*,#262,.T.);
#225=ORIENTED_EDGE('',*,*,#259,.F.);
#226=ORIENTED_EDGE('',*,*,#262,.F.);
#227=ORIENTED_EDGE('',*,*,#263,.T.);
#228=ORIENTED_EDGE('',*,*,#264,.T.);
#229=ORIENTED_EDGE('',*,*,#265,.T.);
#230=ORIENTED_EDGE('',*,*,#264,.F.);
#231=ORIENTED_EDGE('',*,*,#265,.F.);
#232=ORIENTED_EDGE('',*,*,#266,.T.);
#233=ORIENTED_EDGE('',*,*,#263,.F.);
#234=ORIENTED_EDGE('',*,*,#266,.F.);
#235=VERTEX_POINT('',#397);
#236=VERTEX_POINT('',#399);
#237=VERTEX_POINT('',#402);
#238=VERTEX_POINT('',#405);
#239=VERTEX_POINT('',#408);
#240=VERTEX_POINT('',#412);
#241=VERTEX_POINT('',#415);
#242=VERTEX_POINT('',#418);
#243=VERTEX_POINT('',#422);
#244=VERTEX_POINT('',#424);
#245=VERTEX_POINT('',#427);
#246=VERTEX_POINT('',#431);
#247=VERTEX_POINT('',#435);
#248=VERTEX_POINT('',#437);
#249=VERTEX_POINT('',#440);
#250=VERTEX_POINT('',#444);
#251=EDGE_CURVE('',#235,#235,#267,.T.);
#252=EDGE_CURVE('',#236,#236,#268,.T.);
#253=EDGE_CURVE('',#237,#237,#269,.T.);
#254=EDGE_CURVE('',#238,#238,#270,.T.);
#255=EDGE_CURVE('',#239,#239,#271,.T.);
#256=EDGE_CURVE('',#240,#240,#272,.T.);
#257=EDGE_CURVE('',#241,#241,#273,.T.);
#258=EDGE_CURVE('',#242,#242,#274,.T.);
#259=EDGE_CURVE('',#243,#243,#275,.T.);
#260=EDGE_CURVE('',#244,#244,#276,.T.);
#261=EDGE_CURVE('',#245,#245,#277,.T.);
#262=EDGE_CURVE('',#246,#246,#278,.T.);
#263=EDGE_CURVE('',#247,#247,#279,.T.);
#264=EDGE_CURVE('',#248,#248,#280,.T.);
#265=EDGE_CURVE('',#249,#249,#281,.T.);
#266=EDGE_CURVE('',#250,#250,#282,.T.);
#267=CIRCLE('',#285,3.7125);
#268=CIRCLE('',#286,3.7125);
#269=CIRCLE('',#288,4.1875);
#270=CIRCLE('',#290,4.1875);
#271=CIRCLE('',#292,2.8875);
#272=CIRCLE('',#295,4.1875);
#273=CIRCLE('',#297,4.1875);
#274=CIRCLE('',#299,2.8875);
#275=CIRCLE('',#302,3.35165608175648);
#276=CIRCLE('',#303,3.8875);
#277=CIRCLE('',#305,2.8875);
#278=CIRCLE('',#308,2.96194465005349);
#279=CIRCLE('',#311,3.35165608175648);
#280=CIRCLE('',#312,3.8875);
#281=CIRCLE('',#314,2.8875);
#282=CIRCLE('',#317,2.96194465005349);
#283=AXIS2_PLACEMENT_3D('',#394,#320,#321);
#284=AXIS2_PLACEMENT_3D('',#395,#322,#323);
#285=AXIS2_PLACEMENT_3D('',#396,#324,#325);
#286=AXIS2_PLACEMENT_3D('',#398,#326,#327);
#287=AXIS2_PLACEMENT_3D('',#400,#328,#329);
#288=AXIS2_PLACEMENT_3D('',#401,#330,#331);
#289=AXIS2_PLACEMENT_3D('',#403,#332,#333);
#290=AXIS2_PLACEMENT_3D('',#404,#334,#335);
#291=AXIS2_PLACEMENT_3D('',#406,#336,#337);
#292=AXIS2_PLACEMENT_3D('',#407,#338,#339);
#293=AXIS2_PLACEMENT_3D('',#409,#340,#341);
#294=AXIS2_PLACEMENT_3D('',#410,#342,#343);
#295=AXIS2_PLACEMENT_3D('',#411,#344,#345);
#296=AXIS2_PLACEMENT_3D('',#413,#346,#347);
#297=AXIS2_PLACEMENT_3D('',#414,#348,#349);
#298=AXIS2_PLACEMENT_3D('',#416,#350,#351);
#299=AXIS2_PLACEMENT_3D('',#417,#352,#353);
#300=AXIS2_PLACEMENT_3D('',#419,#354,#355);
#301=AXIS2_PLACEMENT_3D('',#420,#356,#357);
#302=AXIS2_PLACEMENT_3D('',#421,#358,#359);
#303=AXIS2_PLACEMENT_3D('',#423,#360,#361);
#304=AXIS2_PLACEMENT_3D('',#425,#362,#363);
#305=AXIS2_PLACEMENT_3D('',#426,#364,#365);
#306=AXIS2_PLACEMENT_3D('',#428,#366,#367);
#307=AXIS2_PLACEMENT_3D('',#429,#368,#369);
#308=AXIS2_PLACEMENT_3D('',#430,#370,#371);
#309=AXIS2_PLACEMENT_3D('',#432,#372,#373);
#310=AXIS2_PLACEMENT_3D('',#433,#374,#375);
#311=AXIS2_PLACEMENT_3D('',#434,#376,#377);
#312=AXIS2_PLACEMENT_3D('',#436,#378,#379);
#313=AXIS2_PLACEMENT_3D('',#438,#380,#381);
#314=AXIS2_PLACEMENT_3D('',#439,#382,#383);
#315=AXIS2_PLACEMENT_3D('',#441,#384,#385);
#316=AXIS2_PLACEMENT_3D('',#442,#386,#387);
#317=AXIS2_PLACEMENT_3D('',#443,#388,#389);
#318=AXIS2_PLACEMENT_3D('',#445,#390,#391);
#319=AXIS2_PLACEMENT_3D('',#446,#392,#393);
#320=DIRECTION('',(0.,0.,1.));
#321=DIRECTION('',(1.,0.,0.));
#322=DIRECTION('',(0.,-1.,0.));
#323=DIRECTION('',(1.,0.,0.));
#324=DIRECTION('',(0.,0.,1.));
#325=DIRECTION('',(-1.,0.,0.));
#326=DIRECTION('',(0.,0.,-1.));
#327=DIRECTION('',(1.,0.,0.));
#328=DIRECTION('',(0.,0.,1.));
#329=DIRECTION('',(0.999998647423118,0.00164473460896289,0.));
#330=DIRECTION('',(0.,0.,1.));
#331=DIRECTION('',(-0.00164473239284503,-0.999998647426763,0.));
#332=DIRECTION('',(0.,0.,-1.));
#333=DIRECTION('',(0.00164473239284502,0.999998647426763,0.));
#334=DIRECTION('',(0.,0.,1.));
#335=DIRECTION('',(-0.00164473239284503,-0.999998647426763,0.));
#336=DIRECTION('',(0.,0.,1.));
#337=DIRECTION('',(-0.00164473239284503,-0.999998647426763,0.));
#338=DIRECTION('',(0.,0.,-1.));
#339=DIRECTION('',(-0.00164473239284502,-0.999998647426763,0.));
#340=DIRECTION('',(0.,0.,1.));
#341=DIRECTION('',(-0.00164473239284502,-0.999998647426763,0.));
#342=DIRECTION('',(0.,0.,1.));
#343=DIRECTION('',(-0.00164473239284503,-0.999998647426763,0.));
#344=DIRECTION('',(0.,0.,-1.));
#345=DIRECTION('',(0.,1.,0.));
#346=DIRECTION('',(0.,0.,1.));
#347=DIRECTION('',(0.,-1.,0.));
#348=DIRECTION('',(0.,0.,-1.));
#349=DIRECTION('',(0.,1.,0.));
#350=DIRECTION('',(0.,0.,-1.));
#351=DIRECTION('',(0.,1.,0.));
#352=DIRECTION('',(0.,0.,1.));
#353=DIRECTION('',(0.,1.,0.));
#354=DIRECTION('',(0.,0.,-1.));
#355=DIRECTION('',(0.,1.,0.));
#356=DIRECTION('',(0.,0.,-1.));
#357=DIRECTION('',(0.,1.,0.));
#358=DIRECTION('',(0.,0.,1.));
#359=DIRECTION('',(-1.,0.,0.));
#360=DIRECTION('',(0.,0.,-1.));
#361=DIRECTION('',(0.00164473239284502,0.999998647426763,0.));
#362=DIRECTION('',(0.,0.,-1.));
#363=DIRECTION('',(-1.,0.,0.));
#364=DIRECTION('',(0.,0.,1.));
#365=DIRECTION('',(0.00164473239284502,0.999998647426763,0.));
#366=DIRECTION('',(0.,0.,-1.));
#367=DIRECTION('',(0.00164473239284502,0.999998647426763,0.));
#368=DIRECTION('',(0.,0.,-1.));
#369=DIRECTION('',(0.00164473239284502,0.999998647426763,0.));
#370=DIRECTION('',(0.,0.,-1.));
#371=DIRECTION('',(-0.999998647423119,-0.00164473460896289,0.));
#372=DIRECTION('',(0.,0.,-1.));
#373=DIRECTION('',(-0.999998647423118,-0.00164473460896289,0.));
#374=DIRECTION('',(0.,0.,1.));
#375=DIRECTION('',(0.999998647423119,0.00164473460896289,1.49271607815807E-017));
#376=DIRECTION('',(0.,0.,-1.));
#377=DIRECTION('',(1.,0.,0.));
#378=DIRECTION('',(0.,0.,1.));
#379=DIRECTION('',(0.,-1.,0.));
#380=DIRECTION('',(0.,0.,1.));
#381=DIRECTION('',(1.,0.,0.));
#382=DIRECTION('',(0.,0.,-1.));
#383=DIRECTION('',(0.,-1.,0.));
#384=DIRECTION('',(0.,0.,1.));
#385=DIRECTION('',(0.,-1.,0.));
#386=DIRECTION('',(0.,0.,1.));
#387=DIRECTION('',(0.,-1.,0.));
#388=DIRECTION('',(0.,0.,1.));
#389=DIRECTION('',(0.999998647423118,0.00164473460896289,0.));
#390=DIRECTION('',(0.,0.,1.));
#391=DIRECTION('',(0.999998647423118,0.00164473460896289,0.));
#392=DIRECTION('',(0.,0.,-1.));
#393=DIRECTION('',(-0.999998647423119,-0.00164473460896289,-6.56795074389549E-017));
#394=CARTESIAN_POINT('',(0.,0.,0.));
#395=CARTESIAN_POINT('',(0.913533778168826,0.,11.8763849157939));
#396=CARTESIAN_POINT('',(0.935595588627182,-0.0271976284572117,2.35139047360475));
#397=CARTESIAN_POINT('',(-2.77690441137282,-0.0271976284572117,2.35139047360475));
#398=CARTESIAN_POINT('',(0.935595588627182,-0.0271976284572117,21.2513904736047));
#399=CARTESIAN_POINT('',(4.64809558862718,-0.0271976284572117,21.2513904736047));
#400=CARTESIAN_POINT('',(0.935595588627182,-0.0271976284572117,-3.32360952639525));
#401=CARTESIAN_POINT('',(0.935595588627182,-0.0271976284572117,2.35139047360475));
#402=CARTESIAN_POINT('',(0.928708271732143,-4.21469196455678,2.35139047360475));
#403=CARTESIAN_POINT('',(5.12308992472675,-0.0340849453522502,2.35139047360475));
#404=CARTESIAN_POINT('',(0.935595588627182,-0.0271976284572117,-2.64860952639525));
#405=CARTESIAN_POINT('',(0.928708271732143,-4.21469196455678,-2.64860952639525));
#406=CARTESIAN_POINT('',(0.935595588627182,-0.0271976284572117,-3.64860952639525));
#407=CARTESIAN_POINT('',(0.935595588627182,-0.0271976284572117,-3.94860952639525));
#408=CARTESIAN_POINT('',(0.930846423842842,-2.91469372290199,-3.94860952639525));
#409=CARTESIAN_POINT('',(0.935595588627182,-0.0271976284572117,-3.94860952639525));
#410=CARTESIAN_POINT('',(0.935595588627182,-0.0271976284572117,-2.64860952639525));
#411=CARTESIAN_POINT('',(0.935595588627182,-0.0271976284572117,21.2513904736047));
#412=CARTESIAN_POINT('',(0.935595588627182,4.16030237154279,21.2513904736047));
#413=CARTESIAN_POINT('',(5.12309558862718,-0.0271976284572117,21.2513904736047));
#414=CARTESIAN_POINT('',(0.935595588627182,-0.0271976284572117,26.2513904736047));
#415=CARTESIAN_POINT('',(0.935595588627182,4.16030237154279,26.2513904736047));
#416=CARTESIAN_POINT('',(0.935595588627182,-0.0271976284572117,27.2513904736048));
#417=CARTESIAN_POINT('',(0.935595588627182,-0.0271976284572117,27.5513904736047));
#418=CARTESIAN_POINT('',(0.935595588627182,2.86030237154279,27.5513904736047));
#419=CARTESIAN_POINT('',(0.935595588627182,-0.0271976284572117,27.5513904736047));
#420=CARTESIAN_POINT('',(0.935595588627182,-0.0271976284572117,26.2513904736047));
#421=CARTESIAN_POINT('',(0.935595588627182,-0.0271976284572117,-2.64860952639525));
#422=CARTESIAN_POINT('',(-2.4160604931293,-0.0271976284572117,-2.64860952639525));
#423=CARTESIAN_POINT('',(0.935595588627182,-0.0271976284572117,-2.64860952639525));
#424=CARTESIAN_POINT('',(0.941989485804366,3.86029711341433,-2.64860952639525));
#425=CARTESIAN_POINT('',(0.93175994093452,0.0467739554516107,-2.64860952639525));
#426=CARTESIAN_POINT('',(0.935595588627182,-0.0271976284572117,-3.64860952639525));
#427=CARTESIAN_POINT('',(0.940344753411521,2.86029846598757,-3.64860952639525));
#428=CARTESIAN_POINT('',(4.82309033049872,-0.0335915256343967,-3.64860952639525));
#429=CARTESIAN_POINT('',(0.935595588627182,-0.0271976284572117,-2.64860952639525));
#430=CARTESIAN_POINT('',(0.935595588627182,-0.0271976284572117,-3.32360952639525));
#431=CARTESIAN_POINT('',(-2.02634505516845,-0.0320692413329872,-3.32360952639525));
#432=CARTESIAN_POINT('',(0.935595588627182,-0.0271976284572117,-3.32360952639525));
#433=CARTESIAN_POINT('',(0.935595588627182,-0.0271976284572117,-2.02360952639525));
#434=CARTESIAN_POINT('',(0.935595588627182,-0.0271976284572117,26.2513904736047));
#435=CARTESIAN_POINT('',(4.28725167038367,-0.0271976284572117,26.2513904736047));
#436=CARTESIAN_POINT('',(0.935595588627182,-0.0271976284572117,26.2513904736047));
#437=CARTESIAN_POINT('',(0.935595588627182,-3.91469762845721,26.2513904736047));
#438=CARTESIAN_POINT('',(0.93163828266231,-0.101162803700042,26.2513904736047));
#439=CARTESIAN_POINT('',(0.935595588627182,-0.0271976284572117,27.2513904736048));
#440=CARTESIAN_POINT('',(0.935595588627182,-2.91469762845721,27.2513904736048));
#441=CARTESIAN_POINT('',(4.82309558862718,-0.0271976284572117,27.2513904736048));
#442=CARTESIAN_POINT('',(0.935595588627182,-0.0271976284572117,26.2513904736047));
#443=CARTESIAN_POINT('',(0.935595588627182,-0.0271976284572117,26.9263904736047));
#444=CARTESIAN_POINT('',(3.89753623242281,-0.0223260155814363,26.9263904736047));
#445=CARTESIAN_POINT('',(0.935595588627182,-0.0271976284572117,26.9263904736047));
#446=CARTESIAN_POINT('',(0.935595588627182,-0.0271976284572117,25.6263904736047));
#447=(
GEOMETRIC_REPRESENTATION_CONTEXT(3)
GLOBAL_UNCERTAINTY_ASSIGNED_CONTEXT((#448))
GLOBAL_UNIT_ASSIGNED_CONTEXT((#454,#450,#449))
REPRESENTATION_CONTEXT('1001204','TOP_LEVEL_ASSEMBLY_PART')
);
#448=UNCERTAINTY_MEASURE_WITH_UNIT(LENGTH_MEASURE(2.E-005),#454,
'DISTANCE_ACCURACY_VALUE','Maximum Tolerance applied to model');
#449=(
NAMED_UNIT(*)
SI_UNIT($,.STERADIAN.)
SOLID_ANGLE_UNIT()
);
#450=(
CONVERSION_BASED_UNIT('DEGREE',#452)
NAMED_UNIT(#451)
PLANE_ANGLE_UNIT()
);
#451=DIMENSIONAL_EXPONENTS(0.,0.,0.,0.,0.,0.,0.);
#452=PLANE_ANGLE_MEASURE_WITH_UNIT(PLANE_ANGLE_MEASURE(0.0174532925),#453);
#453=(
NAMED_UNIT(*)
PLANE_ANGLE_UNIT()
SI_UNIT($,.RADIAN.)
);
#454=(
LENGTH_UNIT()
NAMED_UNIT(*)
SI_UNIT(.MILLI.,.METRE.)
);
ENDSEC;
END-ISO-10303-21;
