  0
SECTION
  2
HEADER
  9
$ACADVER
  1
AC1009
999
I-DEAS Drafting Master Series 7m3 Not Encoded
  9
$EXTMIN
 10
0.0
 20
0.0
  9
$EXTMAX
 10
2.655E+002
 20
1.9455E+002
  9
$TEXTSIZE
 40
1.25E-001
  9
$LTSCALE
 40
1.0
  9
$CLAYER
  8
V1L0
  9
$CECOLOR
 62
2
  9
$DIMASZ
 40
1.25E-001
  9
$DIMEXO
 40
6.25E-002
  9
$DIMDLI
 40
2.5E-001
  9
$DIMEXE
 40
1.25E-001
  9
$DIMTP
 40
5.0E-003
  9
$DIMTM
 40
-5.0E-003
  9
$DIMTXT
 40
3.0
  9
$DIMLIM
 70
0
  9
$DIMTIH
 70
1
  9
$DIMTOH
 70
1
  9
$DIMSE1
 70
0
  9
$DIMSE2
 70
0
  9
$DIMTAD
 70
0
  9
$DIMASO
 70
1
  9
$DIMALT
 70
0
  9
$DIMALTD
 70
0
  9
$DIMTOFL
 70
1
  9
$DIMTIX
 70
0
  9
$DIMSAH
 70
0
  9
$DIMTFAC
 40
1.0
  9
$DIMGAP
 40
6.25E-002
  9
$LUNITS
 70
2
  9
$LUPREC
 70
3
  9
$FILLETRAD
 40
1.0E+001
  9
$AUNITS
 70
0
  9
$AUPREC
 70
1
  9
$CHAMFERA
 40
6.0
  9
$CHAMFERB
 40
6.0
  9
$ANGBASE
 50
0.0
  9
$ANGDIR
 70
0
  9
$PDMODE
 70
2
  9
$PDSIZE
 40
-1.0E-002
  9
$SPLINETYPE
 70
6
  0
ENDSEC
  0
SECTION
  2
TABLES
  0
TABLE
  2
LTYPE
 70
8
  0
LTYPE
  2
HIDDENNEW00
  3
_ 
 70
64
 72
65
 73
2
 40
4.5
 49
3.0
 49
-1.5
  0
LTYPE
  2
HIDDENNEW01
  3
_ 
 70
64
 72
65
 73
2
 40
4.5
 49
3.0
 49
-1.5
  0
LTYPE
  2
HIDDEN
  3
_ 
 70
64
 72
65
 73
2
 40
4.5
 49
3.0
 49
-1.5
  0
LTYPE
  2
CENTERLINE
  3
_ 
 70
64
 72
65
 73
4
 40
3.0E+001
 49
2.4E+001
 49
-1.5
 49
3.0
 49
-1.5
  0
LTYPE
  2
PHANTOM
  3
_ 
 70
64
 72
65
 73
6
 40
2.95E+001
 49
1.9E+001
 49
-1.5
 49
3.0
 49
-1.5
 49
3.0
 49
-1.5
  0
LTYPE
  2
SHORT_DASH
  3
_ 
 70
64
 72
65
 73
2
 40
3.0
 49
1.5
 49
-1.5
  0
LTYPE
  2
LONG_DASH
  3
_ 
 70
64
 72
65
 73
2
 40
9.0
 49
4.5
 49
-4.5
  0
LTYPE
  2
DASHED
  3
_ 
 70
64
 72
65
 73
2
 40
1.375
 49
1.125
 49
-2.5E-001
  0
ENDTAB
  0
TABLE
  2
LAYER
 70
258
  0
LAYER
  2
V1L0
 70
0
 62
7
  6
HIDDENNEW00
  0
LAYER
  2
Drafting_Hidden_Entities
 70
1
 62
7
  6
CONTINUOUS
  0
ENDTAB
  0
TABLE
  2
STYLE
 70
1
  0
STYLE
  2
STANDARD
 70
64
 40
0.0
 41
1.0
 50
0.0
 71
0
 42
1.0
  3
monotxt.shx
  4

  0
ENDTAB
  0
TABLE
  2
VIEW
 70
0
  0
ENDTAB
  0
TABLE
  2
DIMSTYLE
 70
0
  0
ENDTAB
  0
ENDSEC
  0
SECTION
  2
BLOCKS
  0
ENDSEC
  0
SECTION
  2
ENTITIES
  0
LINE
  8
V1L0
  6
CONTINUOUS
 62
40
 10
1.36E+002
 20
9.5E+001
 11
1.365E+002
 21
9.5E+001
  0
LINE
  8
V1L0
  6
CONTINUOUS
 62
40
 10
1.36E+002
 20
1.0
 11
1.365E+002
 21
1.0
  0
LINE
  8
V1L0
  6
CONTINUOUS
 62
40
 10
1.365E+002
 20
1.0
 11
1.365E+002
 21
9.5E+001
  0
LINE
  8
V1L0
  6
CONTINUOUS
 62
40
 10
1.36E+002
 20
1.0
 11
1.36E+002
 21
9.5E+001
  0
LINE
  8
V1L0
  6
CONTINUOUS
 62
40
 10
1.365E+002
 20
2.25E+001
 11
1.565E+002
 21
2.25E+001
  0
LINE
  8
V1L0
  6
CONTINUOUS
 62
40
 10
1.365E+002
 20
7.35E+001
 11
1.565E+002
 21
7.35E+001
  0
LINE
  8
V1L0
  6
CONTINUOUS
 62
40
 10
1.565E+002
 20
2.25E+001
 11
1.565E+002
 21
7.35E+001
  0
LINE
  8
V1L0
  6
CONTINUOUS
 62
40
 10
1.47E+002
 20
7.6E+001
 11
1.47E+002
 21
7.775E+001
  0
LINE
  8
V1L0
  6
CONTINUOUS
 62
40
 10
1.47E+002
 20
7.6E+001
 11
1.545E+002
 21
7.6E+001
  0
LINE
  8
V1L0
  6
CONTINUOUS
 62
40
 10
1.465E+002
 20
7.564E+001
 11
1.47E+002
 21
7.6E+001
  0
LINE
  8
V1L0
  6
CONTINUOUS
 62
40
 10
1.505E+002
 20
7.35E+001
 11
1.505E+002
 21
7.6E+001
  0
LINE
  8
V1L0
  6
CONTINUOUS
 62
40
 10
1.47E+002
 20
8.45E+001
 11
1.545E+002
 21
8.45E+001
  0
LINE
  8
V1L0
  6
CONTINUOUS
 62
40
 10
1.545E+002
 20
7.6E+001
 11
1.545E+002
 21
8.45E+001
  0
ARC
  8
V1L0
  6
CONTINUOUS
 62
40
 10
1.5075237E+002
 20
8.02484E+001
 40
3.5
 50
2.0179E+002
 51
5.1821E+002
  0
LINE
  8
V1L0
  6
CONTINUOUS
 62
40
 10
1.4842E+002
 20
7.764E+001
 11
1.5069E+002
 21
7.955E+001
  0
LINE
  8
V1L0
  6
CONTINUOUS
 62
40
 10
1.4777E+002
 20
7.841E+001
 11
1.5005E+002
 21
8.031E+001
  0
LINE
  8
V1L0
  6
CONTINUOUS
 62
40
 10
1.4876E+002
 20
8.184E+001
 11
1.5005E+002
 21
8.031E+001
  0
LINE
  8
V1L0
  6
CONTINUOUS
 62
40
 10
1.4953E+002
 20
8.249E+001
 11
1.5081E+002
 21
8.095E+001
  0
LINE
  8
V1L0
  6
CONTINUOUS
 62
40
 10
1.5197E+002
 20
7.801E+001
 11
1.5274E+002
 21
7.866E+001
  0
LINE
  8
V1L0
  6
CONTINUOUS
 62
40
 10
1.4876E+002
 20
8.184E+001
 11
1.4953E+002
 21
8.249E+001
  0
LINE
  8
V1L0
  6
CONTINUOUS
 62
40
 10
1.5081E+002
 20
8.095E+001
 11
1.5308E+002
 21
8.286E+001
  0
LINE
  8
V1L0
  6
CONTINUOUS
 62
40
 10
1.5145E+002
 20
8.019E+001
 11
1.5373E+002
 21
8.209E+001
  0
LINE
  8
V1L0
  6
CONTINUOUS
 62
40
 10
1.5069E+002
 20
7.955E+001
 11
1.5197E+002
 21
7.801E+001
  0
LINE
  8
V1L0
  6
CONTINUOUS
 62
40
 10
1.5145E+002
 20
8.019E+001
 11
1.5274E+002
 21
7.866E+001
  0
LINE
  8
V1L0
  6
CONTINUOUS
 62
40
 10
1.46E+002
 20
7.6E+001
 11
1.46E+002
 21
8.45E+001
  0
LINE
  8
V1L0
  6
CONTINUOUS
 62
40
 10
1.385E+002
 20
7.6E+001
 11
1.46E+002
 21
7.6E+001
  0
LINE
  8
V1L0
  6
CONTINUOUS
 62
40
 10
1.46E+002
 20
7.6E+001
 11
1.495E+002
 21
7.35E+001
  0
LINE
  8
V1L0
  6
CONTINUOUS
 62
40
 10
1.425E+002
 20
7.35E+001
 11
1.425E+002
 21
7.6E+001
  0
LINE
  8
V1L0
  6
CONTINUOUS
 62
40
 10
1.385E+002
 20
8.45E+001
 11
1.46E+002
 21
8.45E+001
  0
LINE
  8
V1L0
  6
CONTINUOUS
 62
40
 10
1.385E+002
 20
7.6E+001
 11
1.385E+002
 21
8.45E+001
  0
LINE
  8
V1L0
  6
CONTINUOUS
 62
40
 10
1.475E+002
 20
7.775E+001
 11
1.475E+002
 21
8.275E+001
  0
LINE
  8
V1L0
  6
CONTINUOUS
 62
40
 10
1.46E+002
 20
7.775E+001
 11
1.475E+002
 21
7.775E+001
  0
LINE
  8
V1L0
  6
CONTINUOUS
 62
40
 10
1.46E+002
 20
8.275E+001
 11
1.475E+002
 21
8.275E+001
  0
CIRCLE
  8
V1L0
  6
CONTINUOUS
 62
40
 10
1.4225237E+002
 20
8.02484E+001
 40
3.5
  0
LINE
  8
V1L0
  6
CONTINUOUS
 62
40
 10
1.4231E+002
 20
7.955E+001
 11
1.4458E+002
 21
7.764E+001
  0
LINE
  8
V1L0
  6
CONTINUOUS
 62
40
 10
1.4295E+002
 20
8.031E+001
 11
1.4523E+002
 21
7.841E+001
  0
LINE
  8
V1L0
  6
CONTINUOUS
 62
40
 10
1.4295E+002
 20
8.031E+001
 11
1.4424E+002
 21
8.184E+001
  0
LINE
  8
V1L0
  6
CONTINUOUS
 62
40
 10
1.4219E+002
 20
8.095E+001
 11
1.4347E+002
 21
8.249E+001
  0
LINE
  8
V1L0
  6
CONTINUOUS
 62
40
 10
1.4026E+002
 20
7.866E+001
 11
1.4103E+002
 21
7.801E+001
  0
LINE
  8
V1L0
  6
CONTINUOUS
 62
40
 10
1.4347E+002
 20
8.249E+001
 11
1.4424E+002
 21
8.184E+001
  0
LINE
  8
V1L0
  6
CONTINUOUS
 62
40
 10
1.3992E+002
 20
8.286E+001
 11
1.4219E+002
 21
8.095E+001
  0
LINE
  8
V1L0
  6
CONTINUOUS
 62
40
 10
1.3927E+002
 20
8.209E+001
 11
1.4155E+002
 21
8.019E+001
  0
LINE
  8
V1L0
  6
CONTINUOUS
 62
40
 10
1.4103E+002
 20
7.801E+001
 11
1.4231E+002
 21
7.955E+001
  0
LINE
  8
V1L0
  6
CONTINUOUS
 62
40
 10
1.4026E+002
 20
7.866E+001
 11
1.4155E+002
 21
8.019E+001
  0
LINE
  8
V1L0
  6
CONTINUOUS
 62
40
 10
1.47E+002
 20
8.275E+001
 11
1.47E+002
 21
8.45E+001
  0
LINE
  8
V1L0
  6
CONTINUOUS
 62
40
 10
1.46E+002
 20
1.825E+001
 11
1.46E+002
 21
2.0E+001
  0
LINE
  8
V1L0
  6
CONTINUOUS
 62
40
 10
1.385E+002
 20
2.0E+001
 11
1.46E+002
 21
2.0E+001
  0
LINE
  8
V1L0
  6
CONTINUOUS
 62
40
 10
1.46E+002
 20
2.0E+001
 11
1.465E+002
 21
2.036E+001
  0
LINE
  8
V1L0
  6
CONTINUOUS
 62
40
 10
1.425E+002
 20
2.0E+001
 11
1.425E+002
 21
2.25E+001
  0
LINE
  8
V1L0
  6
CONTINUOUS
 62
40
 10
1.385E+002
 20
1.15E+001
 11
1.46E+002
 21
1.15E+001
  0
LINE
  8
V1L0
  6
CONTINUOUS
 62
40
 10
1.385E+002
 20
1.15E+001
 11
1.385E+002
 21
2.0E+001
  0
ARC
  8
V1L0
  6
CONTINUOUS
 62
40
 10
1.4225237E+002
 20
1.57484E+001
 40
3.5
 50
2.179E+001
 51
3.3821E+002
  0
LINE
  8
V1L0
  6
CONTINUOUS
 62
40
 10
1.4231E+002
 20
1.645E+001
 11
1.4458E+002
 21
1.836E+001
  0
LINE
  8
V1L0
  6
CONTINUOUS
 62
40
 10
1.4295E+002
 20
1.569E+001
 11
1.4523E+002
 21
1.759E+001
  0
LINE
  8
V1L0
  6
CONTINUOUS
 62
40
 10
1.4295E+002
 20
1.569E+001
 11
1.4424E+002
 21
1.416E+001
  0
LINE
  8
V1L0
  6
CONTINUOUS
 62
40
 10
1.4219E+002
 20
1.505E+001
 11
1.4347E+002
 21
1.351E+001
  0
LINE
  8
V1L0
  6
CONTINUOUS
 62
40
 10
1.4026E+002
 20
1.734E+001
 11
1.4103E+002
 21
1.799E+001
  0
LINE
  8
V1L0
  6
CONTINUOUS
 62
40
 10
1.4347E+002
 20
1.351E+001
 11
1.4424E+002
 21
1.416E+001
  0
LINE
  8
V1L0
  6
CONTINUOUS
 62
40
 10
1.3992E+002
 20
1.314E+001
 11
1.4219E+002
 21
1.505E+001
  0
LINE
  8
V1L0
  6
CONTINUOUS
 62
40
 10
1.3927E+002
 20
1.391E+001
 11
1.4155E+002
 21
1.581E+001
  0
LINE
  8
V1L0
  6
CONTINUOUS
 62
40
 10
1.4103E+002
 20
1.799E+001
 11
1.4231E+002
 21
1.645E+001
  0
LINE
  8
V1L0
  6
CONTINUOUS
 62
40
 10
1.4026E+002
 20
1.734E+001
 11
1.4155E+002
 21
1.581E+001
  0
LINE
  8
V1L0
  6
CONTINUOUS
 62
40
 10
1.47E+002
 20
1.15E+001
 11
1.47E+002
 21
2.0E+001
  0
LINE
  8
V1L0
  6
CONTINUOUS
 62
40
 10
1.47E+002
 20
2.0E+001
 11
1.545E+002
 21
2.0E+001
  0
LINE
  8
V1L0
  6
CONTINUOUS
 62
40
 10
1.435E+002
 20
2.25E+001
 11
1.47E+002
 21
2.0E+001
  0
LINE
  8
V1L0
  6
CONTINUOUS
 62
40
 10
1.505E+002
 20
2.0E+001
 11
1.505E+002
 21
2.25E+001
  0
LINE
  8
V1L0
  6
CONTINUOUS
 62
40
 10
1.47E+002
 20
1.15E+001
 11
1.545E+002
 21
1.15E+001
  0
LINE
  8
V1L0
  6
CONTINUOUS
 62
40
 10
1.545E+002
 20
1.15E+001
 11
1.545E+002
 21
2.0E+001
  0
LINE
  8
V1L0
  6
CONTINUOUS
 62
40
 10
1.455E+002
 20
1.325E+001
 11
1.455E+002
 21
1.825E+001
  0
LINE
  8
V1L0
  6
CONTINUOUS
 62
40
 10
1.455E+002
 20
1.825E+001
 11
1.47E+002
 21
1.825E+001
  0
LINE
  8
V1L0
  6
CONTINUOUS
 62
40
 10
1.455E+002
 20
1.325E+001
 11
1.47E+002
 21
1.325E+001
  0
CIRCLE
  8
V1L0
  6
CONTINUOUS
 62
40
 10
1.5075237E+002
 20
1.57484E+001
 40
3.5
  0
LINE
  8
V1L0
  6
CONTINUOUS
 62
40
 10
1.4842E+002
 20
1.836E+001
 11
1.5069E+002
 21
1.645E+001
  0
LINE
  8
V1L0
  6
CONTINUOUS
 62
40
 10
1.4777E+002
 20
1.759E+001
 11
1.5005E+002
 21
1.569E+001
  0
LINE
  8
V1L0
  6
CONTINUOUS
 62
40
 10
1.4876E+002
 20
1.416E+001
 11
1.5005E+002
 21
1.569E+001
  0
LINE
  8
V1L0
  6
CONTINUOUS
 62
40
 10
1.4953E+002
 20
1.351E+001
 11
1.5081E+002
 21
1.505E+001
  0
LINE
  8
V1L0
  6
CONTINUOUS
 62
40
 10
1.5197E+002
 20
1.799E+001
 11
1.5274E+002
 21
1.734E+001
  0
LINE
  8
V1L0
  6
CONTINUOUS
 62
40
 10
1.4876E+002
 20
1.416E+001
 11
1.4953E+002
 21
1.351E+001
  0
LINE
  8
V1L0
  6
CONTINUOUS
 62
40
 10
1.5081E+002
 20
1.505E+001
 11
1.5308E+002
 21
1.314E+001
  0
LINE
  8
V1L0
  6
CONTINUOUS
 62
40
 10
1.5145E+002
 20
1.581E+001
 11
1.5373E+002
 21
1.391E+001
  0
LINE
  8
V1L0
  6
CONTINUOUS
 62
40
 10
1.5069E+002
 20
1.645E+001
 11
1.5197E+002
 21
1.799E+001
  0
LINE
  8
V1L0
  6
CONTINUOUS
 62
40
 10
1.5145E+002
 20
1.581E+001
 11
1.5274E+002
 21
1.734E+001
  0
LINE
  8
V1L0
  6
CONTINUOUS
 62
40
 10
1.46E+002
 20
1.15E+001
 11
1.46E+002
 21
1.325E+001
  0
LINE
  8
V1L0
  6
CONTINUOUS
 62
40
 10
3.4E+001
 20
2.25E+001
 11
3.4E+001
 21
7.35E+001
  0
LINE
  8
V1L0
  6
CONTINUOUS
 62
40
 10
5.9E+001
 20
4.8E+001
 11
5.9E+001
 21
7.35E+001
  0
LINE
  8
V1L0
  6
CONTINUOUS
 62
40
 10
1.0
 20
1.0
 11
1.0
 21
9.5E+001
  0
LINE
  8
V1L0
  6
CONTINUOUS
 62
40
 10
5.75E+001
 20
7.35E+001
 11
5.75E+001
 21
7.783E+001
  0
LINE
  8
V1L0
  6
CONTINUOUS
 62
40
 10
3.4E+001
 20
7.35E+001
 11
5.9E+001
 21
7.35E+001
  0
LINE
  8
V1L0
  6
CONTINUOUS
 62
40
 10
3.4E+001
 20
2.25E+001
 11
5.9E+001
 21
2.25E+001
  0
LINE
  8
V1L0
  6
CONTINUOUS
 62
40
 10
1.0
 20
9.5E+001
 11
5.75E+001
 21
9.5E+001
  0
LINE
  8
V1L0
  6
CONTINUOUS
 62
40
 10
1.0
 20
1.0
 11
5.75E+001
 21
1.0
  0
LINE
  8
V1L0
  6
CONTINUOUS
 62
40
 10
5.75E+001
 20
1.0
 11
5.75E+001
 21
1.506E+001
  0
LINE
  8
V1L0
  6
CONTINUOUS
 62
40
 10
5.9E+001
 20
2.25E+001
 11
5.9E+001
 21
4.8E+001
  0
CIRCLE
  8
V1L0
  6
CONTINUOUS
 62
40
 10
4.6502371E+001
 20
3.04984E+001
 40
2.75
  0
LINE
  8
V1L0
  6
CONTINUOUS
 62
40
 10
4.438E+001
 20
3.225E+001
 11
4.786E+001
 21
2.811E+001
  0
LINE
  8
V1L0
  6
CONTINUOUS
 62
40
 10
4.515E+001
 20
3.289E+001
 11
4.862E+001
 21
2.875E+001
  0
CIRCLE
  8
V1L0
  6
CONTINUOUS
 62
40
 10
4.6502371E+001
 20
6.54984E+001
 40
2.75
  0
LINE
  8
V1L0
  6
CONTINUOUS
 62
40
 10
4.515E+001
 20
6.789E+001
 11
4.862E+001
 21
6.375E+001
  0
LINE
  8
V1L0
  6
CONTINUOUS
 62
40
 10
4.438E+001
 20
6.725E+001
 11
4.786E+001
 21
6.311E+001
  0
LINE
  8
V1L0
  6
CONTINUOUS
 62
40
 10
5.25E+001
 20
7.35E+001
 11
5.345E+001
 21
7.696E+001
  0
LINE
  8
V1L0
  6
CONTINUOUS
 62
40
 10
5.55E+001
 20
8.45E+001
 11
5.695E+001
 21
8.411E+001
  0
LINE
  8
V1L0
  6
CONTINUOUS
 62
40
 10
5.406E+001
 20
7.35E+001
 11
5.695E+001
 21
8.411E+001
  0
LINE
  8
V1L0
  6
CONTINUOUS
 62
40
 10
5.029E+001
 20
7.679E+001
 11
5.261E+001
 21
8.529E+001
  0
LINE
  8
V1L0
  6
CONTINUOUS
 62
40
 10
4.822E+001
 20
7.868E+001
 11
4.986E+001
 21
8.471E+001
  0
LINE
  8
V1L0
  6
CONTINUOUS
 62
40
 10
5.029E+001
 20
7.679E+001
 11
5.29E+001
 21
7.608E+001
  0
LINE
  8
V1L0
  6
CONTINUOUS
 62
40
 10
5.048E+001
 20
8.507E+001
 11
5.24E+001
 21
8.454E+001
  0
LINE
  8
V1L0
  6
CONTINUOUS
 62
40
 10
4.857E+001
 20
7.807E+001
 11
5.05E+001
 21
7.754E+001
  0
ARC
  8
V1L0
  6
CONTINUOUS
 62
40
 10
5.0342371E+001
 20
8.45784E+001
 40
5.0E-001
 50
7.474E+001
 51
1.6474E+002
  0
ARC
  8
V1L0
  6
CONTINUOUS
 62
40
 10
4.8702371E+001
 20
7.85484E+001
 40
5.0E-001
 50
1.6474E+002
 51
2.5474E+002
  0
LINE
  8
V1L0
  6
CONTINUOUS
 62
40
 10
5.521E+001
 20
8.458E+001
 11
5.524E+001
 21
8.354E+001
  0
LINE
  8
V1L0
  6
CONTINUOUS
 62
40
 10
5.261E+001
 20
8.529E+001
 11
5.521E+001
 21
8.458E+001
  0
LINE
  8
V1L0
  6
CONTINUOUS
 62
40
 10
5.29E+001
 20
7.608E+001
 11
5.345E+001
 21
7.696E+001
  0
LINE
  8
V1L0
  6
CONTINUOUS
 62
40
 10
5.345E+001
 20
7.696E+001
 11
5.55E+001
 21
8.45E+001
  0
LINE
  8
V1L0
  6
CONTINUOUS
 62
40
 10
5.54E+001
 20
7.841E+001
 11
5.829E+001
 21
7.762E+001
  0
LINE
  8
V1L0
  6
CONTINUOUS
 62
40
 10
5.619E+001
 20
8.13E+001
 11
5.908E+001
 21
8.051E+001
  0
LINE
  8
V1L0
  6
CONTINUOUS
 62
40
 10
5.829E+001
 20
7.762E+001
 11
5.908E+001
 21
8.051E+001
  0
LINE
  8
V1L0
  6
CONTINUOUS
 62
40
 10
3.894E+001
 20
7.35E+001
 11
3.989E+001
 21
7.696E+001
  0
LINE
  8
V1L0
  6
CONTINUOUS
 62
40
 10
4.194E+001
 20
8.45E+001
 11
4.339E+001
 21
8.411E+001
  0
LINE
  8
V1L0
  6
CONTINUOUS
 62
40
 10
4.05E+001
 20
7.35E+001
 11
4.339E+001
 21
8.411E+001
  0
LINE
  8
V1L0
  6
CONTINUOUS
 62
40
 10
3.673E+001
 20
7.679E+001
 11
3.905E+001
 21
8.529E+001
  0
LINE
  8
V1L0
  6
CONTINUOUS
 62
40
 10
3.466E+001
 20
7.868E+001
 11
3.63E+001
 21
8.471E+001
  0
LINE
  8
V1L0
  6
CONTINUOUS
 62
40
 10
3.673E+001
 20
7.679E+001
 11
3.934E+001
 21
7.608E+001
  0
LINE
  8
V1L0
  6
CONTINUOUS
 62
40
 10
3.692E+001
 20
8.507E+001
 11
3.884E+001
 21
8.454E+001
  0
LINE
  8
V1L0
  6
CONTINUOUS
 62
40
 10
3.501E+001
 20
7.807E+001
 11
3.694E+001
 21
7.754E+001
  0
ARC
  8
V1L0
  6
CONTINUOUS
 62
40
 10
3.6782371E+001
 20
8.45784E+001
 40
5.0E-001
 50
7.474E+001
 51
1.6474E+002
  0
ARC
  8
V1L0
  6
CONTINUOUS
 62
40
 10
3.5142371E+001
 20
7.85484E+001
 40
5.0E-001
 50
1.6474E+002
 51
2.5474E+002
  0
LINE
  8
V1L0
  6
CONTINUOUS
 62
40
 10
4.165E+001
 20
8.458E+001
 11
4.168E+001
 21
8.354E+001
  0
LINE
  8
V1L0
  6
CONTINUOUS
 62
40
 10
3.905E+001
 20
8.529E+001
 11
4.165E+001
 21
8.458E+001
  0
LINE
  8
V1L0
  6
CONTINUOUS
 62
40
 10
3.934E+001
 20
7.608E+001
 11
3.989E+001
 21
7.696E+001
  0
LINE
  8
V1L0
  6
CONTINUOUS
 62
40
 10
3.989E+001
 20
7.696E+001
 11
4.013E+001
 21
7.784E+001
  0
LINE
  8
V1L0
  6
CONTINUOUS
 62
40
 10
3.771E+001
 20
7.85E+001
 11
3.903E+001
 21
8.332E+001
  0
LINE
  8
V1L0
  6
CONTINUOUS
 62
40
 10
3.771E+001
 20
7.85E+001
 11
4.157E+001
 21
7.744E+001
  0
LINE
  8
V1L0
  6
CONTINUOUS
 62
40
 10
3.903E+001
 20
8.332E+001
 11
4.289E+001
 21
8.227E+001
  0
LINE
  8
V1L0
  6
CONTINUOUS
 62
40
 10
4.184E+001
 20
7.841E+001
 11
4.473E+001
 21
7.762E+001
  0
LINE
  8
V1L0
  6
CONTINUOUS
 62
40
 10
4.263E+001
 20
8.13E+001
 11
4.552E+001
 21
8.051E+001
  0
LINE
  8
V1L0
  6
CONTINUOUS
 62
40
 10
4.473E+001
 20
7.762E+001
 11
4.552E+001
 21
8.051E+001
  0
LINE
  8
V1L0
  6
CONTINUOUS
 62
40
 10
4.144E+001
 20
8.266E+001
 11
4.194E+001
 21
8.45E+001
  0
LINE
  8
V1L0
  6
CONTINUOUS
 62
40
 10
5.75E+001
 20
8.094E+001
 11
5.75E+001
 21
9.5E+001
  0
LINE
  8
V1L0
  6
CONTINUOUS
 62
40
 10
5.25E+001
 20
2.25E+001
 11
5.345E+001
 21
1.904E+001
  0
LINE
  8
V1L0
  6
CONTINUOUS
 62
40
 10
5.55E+001
 20
1.15E+001
 11
5.695E+001
 21
1.189E+001
  0
LINE
  8
V1L0
  6
CONTINUOUS
 62
40
 10
5.406E+001
 20
2.25E+001
 11
5.695E+001
 21
1.189E+001
  0
LINE
  8
V1L0
  6
CONTINUOUS
 62
40
 10
5.029E+001
 20
1.921E+001
 11
5.261E+001
 21
1.071E+001
  0
LINE
  8
V1L0
  6
CONTINUOUS
 62
40
 10
4.822E+001
 20
1.732E+001
 11
4.986E+001
 21
1.129E+001
  0
LINE
  8
V1L0
  6
CONTINUOUS
 62
40
 10
5.029E+001
 20
1.921E+001
 11
5.29E+001
 21
1.992E+001
  0
LINE
  8
V1L0
  6
CONTINUOUS
 62
40
 10
5.048E+001
 20
1.093E+001
 11
5.24E+001
 21
1.146E+001
  0
LINE
  8
V1L0
  6
CONTINUOUS
 62
40
 10
4.857E+001
 20
1.793E+001
 11
5.05E+001
 21
1.846E+001
  0
ARC
  8
V1L0
  6
CONTINUOUS
 62
40
 10
5.0342371E+001
 20
1.14184E+001
 40
5.0E-001
 50
1.9526E+002
 51
2.8526E+002
  0
ARC
  8
V1L0
  6
CONTINUOUS
 62
40
 10
4.8702371E+001
 20
1.74484E+001
 40
5.0E-001
 50
1.0526E+002
 51
1.9526E+002
  0
LINE
  8
V1L0
  6
CONTINUOUS
 62
40
 10
5.521E+001
 20
1.142E+001
 11
5.524E+001
 21
1.246E+001
  0
LINE
  8
V1L0
  6
CONTINUOUS
 62
40
 10
5.261E+001
 20
1.071E+001
 11
5.521E+001
 21
1.142E+001
  0
LINE
  8
V1L0
  6
CONTINUOUS
 62
40
 10
5.29E+001
 20
1.992E+001
 11
5.345E+001
 21
1.904E+001
  0
LINE
  8
V1L0
  6
CONTINUOUS
 62
40
 10
5.5E+001
 20
1.334E+001
 11
5.55E+001
 21
1.15E+001
  0
LINE
  8
V1L0
  6
CONTINUOUS
 62
40
 10
5.54E+001
 20
1.759E+001
 11
5.829E+001
 21
1.838E+001
  0
LINE
  8
V1L0
  6
CONTINUOUS
 62
40
 10
5.619E+001
 20
1.47E+001
 11
5.908E+001
 21
1.549E+001
  0
LINE
  8
V1L0
  6
CONTINUOUS
 62
40
 10
3.894E+001
 20
2.25E+001
 11
3.989E+001
 21
1.904E+001
  0
LINE
  8
V1L0
  6
CONTINUOUS
 62
40
 10
4.194E+001
 20
1.15E+001
 11
4.339E+001
 21
1.189E+001
  0
LINE
  8
V1L0
  6
CONTINUOUS
 62
40
 10
4.05E+001
 20
2.25E+001
 11
4.339E+001
 21
1.189E+001
  0
LINE
  8
V1L0
  6
CONTINUOUS
 62
40
 10
3.673E+001
 20
1.921E+001
 11
3.905E+001
 21
1.071E+001
  0
LINE
  8
V1L0
  6
CONTINUOUS
 62
40
 10
3.466E+001
 20
1.732E+001
 11
3.63E+001
 21
1.129E+001
  0
LINE
  8
V1L0
  6
CONTINUOUS
 62
40
 10
3.673E+001
 20
1.921E+001
 11
3.934E+001
 21
1.992E+001
  0
LINE
  8
V1L0
  6
CONTINUOUS
 62
40
 10
3.692E+001
 20
1.093E+001
 11
3.884E+001
 21
1.146E+001
  0
LINE
  8
V1L0
  6
CONTINUOUS
 62
40
 10
3.501E+001
 20
1.793E+001
 11
3.694E+001
 21
1.846E+001
  0
ARC
  8
V1L0
  6
CONTINUOUS
 62
40
 10
3.6782371E+001
 20
1.14184E+001
 40
5.0E-001
 50
1.9526E+002
 51
2.8526E+002
  0
ARC
  8
V1L0
  6
CONTINUOUS
 62
40
 10
3.5142371E+001
 20
1.74484E+001
 40
5.0E-001
 50
1.0526E+002
 51
1.9526E+002
  0
LINE
  8
V1L0
  6
CONTINUOUS
 62
40
 10
4.165E+001
 20
1.142E+001
 11
4.168E+001
 21
1.246E+001
  0
LINE
  8
V1L0
  6
CONTINUOUS
 62
40
 10
3.905E+001
 20
1.071E+001
 11
4.165E+001
 21
1.142E+001
  0
LINE
  8
V1L0
  6
CONTINUOUS
 62
40
 10
3.934E+001
 20
1.992E+001
 11
3.989E+001
 21
1.904E+001
  0
LINE
  8
V1L0
  6
CONTINUOUS
 62
40
 10
3.989E+001
 20
1.904E+001
 11
4.194E+001
 21
1.15E+001
  0
LINE
  8
V1L0
  6
CONTINUOUS
 62
40
 10
5.127E+001
 20
1.75E+001
 11
5.259E+001
 21
1.268E+001
  0
LINE
  8
V1L0
  6
CONTINUOUS
 62
40
 10
5.127E+001
 20
1.75E+001
 11
5.513E+001
 21
1.856E+001
  0
LINE
  8
V1L0
  6
CONTINUOUS
 62
40
 10
5.259E+001
 20
1.268E+001
 11
5.645E+001
 21
1.373E+001
  0
LINE
  8
V1L0
  6
CONTINUOUS
 62
40
 10
4.184E+001
 20
1.759E+001
 11
4.473E+001
 21
1.838E+001
  0
LINE
  8
V1L0
  6
CONTINUOUS
 62
40
 10
4.263E+001
 20
1.47E+001
 11
4.552E+001
 21
1.549E+001
  0
LINE
  8
V1L0
  6
CONTINUOUS
 62
40
 10
4.473E+001
 20
1.838E+001
 11
4.552E+001
 21
1.549E+001
  0
LINE
  8
V1L0
  6
CONTINUOUS
 62
40
 10
5.829E+001
 20
1.838E+001
 11
5.908E+001
 21
1.549E+001
  0
LINE
  8
V1L0
  6
CONTINUOUS
 62
40
 10
5.75E+001
 20
1.817E+001
 11
5.75E+001
 21
2.25E+001
  0
LINE
  8
V1L0
  6
CONTINUOUS
 62
40
 10
5.345E+001
 20
1.904E+001
 11
5.369E+001
 21
1.816E+001
  0
LINE
  8
V1L0
  6
CONTINUOUS
 62
40
 10
1.565E+002
 20
1.3555E+002
 11
1.565E+002
 21
1.6055E+002
  0
LINE
  8
V1L0
  6
CONTINUOUS
 62
40
 10
1.365E+002
 20
1.3555E+002
 11
1.365E+002
 21
1.6055E+002
  0
LINE
  8
V1L0
  6
CONTINUOUS
 62
40
 10
1.365E+002
 20
1.6055E+002
 11
1.565E+002
 21
1.6055E+002
  0
LINE
  8
V1L0
  6
CONTINUOUS
 62
40
 10
1.365E+002
 20
1.3555E+002
 11
1.4132E+002
 21
1.3555E+002
  0
LINE
  8
V1L0
  6
CONTINUOUS
 62
40
 10
1.365E+002
 20
1.3705E+002
 11
1.365E+002
 21
1.9355E+002
  0
LINE
  8
V1L0
  6
CONTINUOUS
 62
40
 10
1.36E+002
 20
1.3705E+002
 11
1.365E+002
 21
1.3705E+002
  0
LINE
  8
V1L0
  6
CONTINUOUS
 62
40
 10
1.47E+002
 20
1.5261E+002
 11
1.47E+002
 21
1.5684E+002
  0
LINE
  8
V1L0
  6
CONTINUOUS
 62
40
 10
1.545E+002
 20
1.5117E+002
 11
1.545E+002
 21
1.5663E+002
  0
LINE
  8
V1L0
  6
CONTINUOUS
 62
40
 10
1.455E+002
 20
1.5117E+002
 11
1.455E+002
 21
1.5684E+002
  0
LINE
  8
V1L0
  6
CONTINUOUS
 62
40
 10
1.455E+002
 20
1.5117E+002
 11
1.545E+002
 21
1.5117E+002
  0
LINE
  8
V1L0
  6
CONTINUOUS
 62
40
 10
1.47E+002
 20
1.5261E+002
 11
1.545E+002
 21
1.5261E+002
  0
LINE
  8
V1L0
  6
CONTINUOUS
 62
40
 10
1.455E+002
 20
1.5553E+002
 11
1.47E+002
 21
1.5553E+002
  0
LINE
  8
V1L0
  6
CONTINUOUS
 62
40
 10
1.455E+002
 20
1.5684E+002
 11
1.47E+002
 21
1.5684E+002
  0
LINE
  8
V1L0
  6
CONTINUOUS
 62
40
 10
1.518E+002
 20
1.5362E+002
 11
1.5401E+002
 21
1.528E+002
  0
LINE
  8
V1L0
  6
CONTINUOUS
 62
40
 10
1.4749E+002
 20
1.528E+002
 11
1.497E+002
 21
1.5362E+002
  0
ARC
  8
V1L0
  6
CONTINUOUS
 62
40
 10
1.5075237E+002
 20
1.508084E+002
 40
3.0
 50
6.96E+001
 51
1.104E+002
  0
ARC
  8
V1L0
  6
CONTINUOUS
 62
40
 10
1.5075237E+002
 20
1.523084E+002
 40
3.0
 50
6.96E+001
 51
1.104E+002
  0
LINE
  8
V1L0
  6
CONTINUOUS
 62
40
 10
1.518E+002
 20
1.5512E+002
 11
1.545E+002
 21
1.5411E+002
  0
LINE
  8
V1L0
  6
CONTINUOUS
 62
40
 10
1.47E+002
 20
1.5411E+002
 11
1.497E+002
 21
1.5512E+002
  0
LINE
  8
V1L0
  6
CONTINUOUS
 62
40
 10
1.5416E+002
 20
1.5676E+002
 11
1.545E+002
 21
1.5663E+002
  0
LINE
  8
V1L0
  6
CONTINUOUS
 62
40
 10
1.47E+002
 20
1.5663E+002
 11
1.4734E+002
 21
1.5676E+002
  0
LINE
  8
V1L0
  6
CONTINUOUS
 62
40
 10
1.5401E+002
 20
1.528E+002
 11
1.545E+002
 21
1.5411E+002
  0
LINE
  8
V1L0
  6
CONTINUOUS
 62
40
 10
1.47E+002
 20
1.5411E+002
 11
1.4749E+002
 21
1.528E+002
  0
LINE
  8
V1L0
  6
CONTINUOUS
 62
40
 10
1.5391E+002
 20
1.5908E+002
 11
1.5416E+002
 21
1.5676E+002
  0
LINE
  8
V1L0
  6
CONTINUOUS
 62
40
 10
1.4734E+002
 20
1.5676E+002
 11
1.4759E+002
 21
1.5908E+002
  0
LINE
  8
V1L0
  6
CONTINUOUS
 62
40
 10
1.5091E+002
 20
1.5853E+002
 11
1.5132E+002
 21
1.5894E+002
  0
LINE
  8
V1L0
  6
CONTINUOUS
 62
40
 10
1.4954E+002
 20
1.5857E+002
 11
1.499E+002
 21
1.5894E+002
  0
LINE
  8
V1L0
  6
CONTINUOUS
 62
40
 10
1.4954E+002
 20
1.5811E+002
 11
1.4954E+002
 21
1.5857E+002
  0
LINE
  8
V1L0
  6
CONTINUOUS
 62
40
 10
1.5091E+002
 20
1.5806E+002
 11
1.5091E+002
 21
1.5853E+002
  0
LINE
  8
V1L0
  6
CONTINUOUS
 62
40
 10
1.5059E+002
 20
1.5916E+002
 11
1.5059E+002
 21
1.5963E+002
  0
LINE
  8
V1L0
  6
CONTINUOUS
 62
40
 10
1.4954E+002
 20
1.5811E+002
 11
1.5059E+002
 21
1.5916E+002
  0
LINE
  8
V1L0
  6
CONTINUOUS
 62
40
 10
1.4875E+002
 20
1.592E+002
 11
1.5016E+002
 21
1.592E+002
  0
LINE
  8
V1L0
  6
CONTINUOUS
 62
40
 10
1.5273E+002
 20
1.5894E+002
 11
1.5299E+002
 21
1.592E+002
  0
LINE
  8
V1L0
  6
CONTINUOUS
 62
40
 10
1.4849E+002
 20
1.5894E+002
 11
1.4875E+002
 21
1.592E+002
  0
LINE
  8
V1L0
  6
CONTINUOUS
 62
40
 10
1.4849E+002
 20
1.5894E+002
 11
1.499E+002
 21
1.5894E+002
  0
LINE
  8
V1L0
  6
CONTINUOUS
 62
40
 10
1.499E+002
 20
1.5847E+002
 11
1.499E+002
 21
1.5894E+002
  0
LINE
  8
V1L0
  6
CONTINUOUS
 62
40
 10
1.5016E+002
 20
1.5873E+002
 11
1.5016E+002
 21
1.592E+002
  0
LINE
  8
V1L0
  6
CONTINUOUS
 62
40
 10
1.5132E+002
 20
1.5894E+002
 11
1.5273E+002
 21
1.5894E+002
  0
LINE
  8
V1L0
  6
CONTINUOUS
 62
40
 10
1.5158E+002
 20
1.592E+002
 11
1.5299E+002
 21
1.592E+002
  0
LINE
  8
V1L0
  6
CONTINUOUS
 62
40
 10
1.5016E+002
 20
1.592E+002
 11
1.5059E+002
 21
1.5963E+002
  0
LINE
  8
V1L0
  6
CONTINUOUS
 62
40
 10
1.5158E+002
 20
1.592E+002
 11
1.5196E+002
 21
1.5959E+002
  0
LINE
  8
V1L0
  6
CONTINUOUS
 62
40
 10
1.499E+002
 20
1.5873E+002
 11
1.5016E+002
 21
1.5873E+002
  0
LINE
  8
V1L0
  6
CONTINUOUS
 62
40
 10
1.5158E+002
 20
1.5894E+002
 11
1.5158E+002
 21
1.592E+002
  0
LINE
  8
V1L0
  6
CONTINUOUS
 62
40
 10
1.3875E+002
 20
1.3761E+002
 11
1.4575E+002
 21
1.3761E+002
  0
LINE
  8
V1L0
  6
CONTINUOUS
 62
40
 10
1.46E+002
 20
1.3905E+002
 11
1.46E+002
 21
1.4328E+002
  0
LINE
  8
V1L0
  6
CONTINUOUS
 62
40
 10
1.385E+002
 20
1.3761E+002
 11
1.385E+002
 21
1.4307E+002
  0
LINE
  8
V1L0
  6
CONTINUOUS
 62
40
 10
1.475E+002
 20
1.3761E+002
 11
1.475E+002
 21
1.4328E+002
  0
LINE
  8
V1L0
  6
CONTINUOUS
 62
40
 10
1.385E+002
 20
1.3761E+002
 11
1.475E+002
 21
1.3761E+002
  0
LINE
  8
V1L0
  6
CONTINUOUS
 62
40
 10
1.385E+002
 20
1.3905E+002
 11
1.46E+002
 21
1.3905E+002
  0
LINE
  8
V1L0
  6
CONTINUOUS
 62
40
 10
1.46E+002
 20
1.4197E+002
 11
1.475E+002
 21
1.4197E+002
  0
LINE
  8
V1L0
  6
CONTINUOUS
 62
40
 10
1.46E+002
 20
1.4328E+002
 11
1.475E+002
 21
1.4328E+002
  0
LINE
  8
V1L0
  6
CONTINUOUS
 62
40
 10
1.3899E+002
 20
1.3924E+002
 11
1.412E+002
 21
1.4006E+002
  0
LINE
  8
V1L0
  6
CONTINUOUS
 62
40
 10
1.433E+002
 20
1.4006E+002
 11
1.4551E+002
 21
1.3924E+002
  0
ARC
  8
V1L0
  6
CONTINUOUS
 62
40
 10
1.4225237E+002
 20
1.372484E+002
 40
3.0
 50
6.96E+001
 51
1.104E+002
  0
ARC
  8
V1L0
  6
CONTINUOUS
 62
40
 10
1.4225237E+002
 20
1.387484E+002
 40
3.0
 50
6.96E+001
 51
1.104E+002
  0
LINE
  8
V1L0
  6
CONTINUOUS
 62
40
 10
1.385E+002
 20
1.4055E+002
 11
1.412E+002
 21
1.4156E+002
  0
LINE
  8
V1L0
  6
CONTINUOUS
 62
40
 10
1.433E+002
 20
1.4156E+002
 11
1.46E+002
 21
1.4055E+002
  0
LINE
  8
V1L0
  6
CONTINUOUS
 62
40
 10
1.385E+002
 20
1.4307E+002
 11
1.3884E+002
 21
1.432E+002
  0
LINE
  8
V1L0
  6
CONTINUOUS
 62
40
 10
1.4566E+002
 20
1.432E+002
 11
1.46E+002
 21
1.4307E+002
  0
LINE
  8
V1L0
  6
CONTINUOUS
 62
40
 10
1.385E+002
 20
1.4055E+002
 11
1.3899E+002
 21
1.3924E+002
  0
LINE
  8
V1L0
  6
CONTINUOUS
 62
40
 10
1.4551E+002
 20
1.3924E+002
 11
1.46E+002
 21
1.4055E+002
  0
LINE
  8
V1L0
  6
CONTINUOUS
 62
40
 10
1.3884E+002
 20
1.432E+002
 11
1.3909E+002
 21
1.4552E+002
  0
LINE
  8
V1L0
  6
CONTINUOUS
 62
40
 10
1.4541E+002
 20
1.4552E+002
 11
1.4566E+002
 21
1.432E+002
  0
LINE
  8
V1L0
  6
CONTINUOUS
 62
40
 10
1.4168E+002
 20
1.4538E+002
 11
1.4209E+002
 21
1.4497E+002
  0
LINE
  8
V1L0
  6
CONTINUOUS
 62
40
 10
1.431E+002
 20
1.4538E+002
 11
1.4346E+002
 21
1.4501E+002
  0
LINE
  8
V1L0
  6
CONTINUOUS
 62
40
 10
1.4346E+002
 20
1.4455E+002
 11
1.4346E+002
 21
1.4501E+002
  0
LINE
  8
V1L0
  6
CONTINUOUS
 62
40
 10
1.4209E+002
 20
1.445E+002
 11
1.4209E+002
 21
1.4497E+002
  0
LINE
  8
V1L0
  6
CONTINUOUS
 62
40
 10
1.4241E+002
 20
1.456E+002
 11
1.4241E+002
 21
1.4607E+002
  0
LINE
  8
V1L0
  6
CONTINUOUS
 62
40
 10
1.4241E+002
 20
1.456E+002
 11
1.4346E+002
 21
1.4455E+002
  0
LINE
  8
V1L0
  6
CONTINUOUS
 62
40
 10
1.4284E+002
 20
1.4564E+002
 11
1.4425E+002
 21
1.4564E+002
  0
LINE
  8
V1L0
  6
CONTINUOUS
 62
40
 10
1.4001E+002
 20
1.4564E+002
 11
1.4027E+002
 21
1.4538E+002
  0
LINE
  8
V1L0
  6
CONTINUOUS
 62
40
 10
1.4425E+002
 20
1.4564E+002
 11
1.4451E+002
 21
1.4538E+002
  0
LINE
  8
V1L0
  6
CONTINUOUS
 62
40
 10
1.431E+002
 20
1.4538E+002
 11
1.4451E+002
 21
1.4538E+002
  0
LINE
  8
V1L0
  6
CONTINUOUS
 62
40
 10
1.431E+002
 20
1.4491E+002
 11
1.431E+002
 21
1.4538E+002
  0
LINE
  8
V1L0
  6
CONTINUOUS
 62
40
 10
1.4284E+002
 20
1.4517E+002
 11
1.4284E+002
 21
1.4564E+002
  0
LINE
  8
V1L0
  6
CONTINUOUS
 62
40
 10
1.4027E+002
 20
1.4538E+002
 11
1.4168E+002
 21
1.4538E+002
  0
LINE
  8
V1L0
  6
CONTINUOUS
 62
40
 10
1.4001E+002
 20
1.4564E+002
 11
1.4142E+002
 21
1.4564E+002
  0
LINE
  8
V1L0
  6
CONTINUOUS
 62
40
 10
1.4241E+002
 20
1.4607E+002
 11
1.4284E+002
 21
1.4564E+002
  0
LINE
  8
V1L0
  6
CONTINUOUS
 62
40
 10
1.4104E+002
 20
1.4603E+002
 11
1.4142E+002
 21
1.4564E+002
  0
LINE
  8
V1L0
  6
CONTINUOUS
 62
40
 10
1.4284E+002
 20
1.4517E+002
 11
1.431E+002
 21
1.4517E+002
  0
LINE
  8
V1L0
  6
CONTINUOUS
 62
40
 10
1.4142E+002
 20
1.4538E+002
 11
1.4142E+002
 21
1.4564E+002
  0
LINE
  8
V1L0
  6
CONTINUOUS
 62
40
 10
1.4075E+002
 20
1.3568E+002
 11
1.4075E+002
 21
1.3761E+002
  0
LINE
  8
V1L0
  6
CONTINUOUS
 62
40
 10
1.4375E+002
 20
1.3568E+002
 11
1.4375E+002
 21
1.3761E+002
  0
LINE
  8
V1L0
  6
CONTINUOUS
 62
40
 10
1.4318E+002
 20
1.3555E+002
 11
1.565E+002
 21
1.3555E+002
  0
LINE
  8
V1L0
  6
CONTINUOUS
 62
40
 10
1.4925E+002
 20
1.4924E+002
 11
1.4925E+002
 21
1.5117E+002
  0
LINE
  8
V1L0
  6
CONTINUOUS
 62
40
 10
1.5225E+002
 20
1.4924E+002
 11
1.5225E+002
 21
1.5117E+002
  0
LINE
  8
V1L0
  6
CONTINUOUS
 62
40
 10
1.36E+002
 20
1.3705E+002
 11
1.36E+002
 21
1.9355E+002
  0
LINE
  8
V1L0
  6
CONTINUOUS
 62
40
 10
1.09E+002
 20
1.468E+002
 11
1.09E+002
 21
1.493E+002
  0
LINE
  8
V1L0
  6
CONTINUOUS
 62
40
 10
1.09E+002
 20
1.468E+002
 11
1.16E+002
 21
1.468E+002
  0
LINE
  8
V1L0
  6
CONTINUOUS
 62
40
 10
1.09E+002
 20
1.493E+002
 11
1.16E+002
 21
1.493E+002
  0
CIRCLE
  8
V1L0
  6
CONTINUOUS
 62
40
 10
7.4502371E+001
 20
4.79984E+001
 40
1.5E+001
  0
CIRCLE
  8
V1L0
  6
LONG_DASH
 62
40
 10
8.1502371E+001
 20
4.79984E+001
 40
4.0
  0
TEXT
  8
V1L0
  6
CONTINUOUS
 62
40
 10
1.5333E+002
 20
3.081E+001
 40
4.0
  1
OESA ZX17
 50
9.0E+001
  0
LINE
  8
V1L0
  6
CONTINUOUS
 62
40
 10
1.17E+002
 20
1.0505E+002
 11
1.52E+002
 21
1.0505E+002
  0
LINE
  8
V1L0
  6
LONG_DASH
 62
40
 10
1.17E+002
 20
1.0905E+002
 11
1.29E+002
 21
1.0905E+002
  0
LINE
  8
V1L0
  6
LONG_DASH
 62
40
 10
1.17E+002
 20
1.1705E+002
 11
1.29E+002
 21
1.1705E+002
  0
LINE
  8
V1L0
  6
CONTINUOUS
 62
40
 10
1.24E+002
 20
1.0205E+002
 11
1.28E+002
 21
1.0205E+002
  0
LINE
  8
V1L0
  6
CONTINUOUS
 62
40
 10
1.29E+002
 20
1.0305E+002
 11
1.29E+002
 21
1.0505E+002
  0
LINE
  8
V1L0
  6
CONTINUOUS
 62
40
 10
1.23E+002
 20
1.0305E+002
 11
1.23E+002
 21
1.0505E+002
  0
ARC
  8
V1L0
  6
CONTINUOUS
 62
40
 10
1.2400237E+002
 20
1.030484E+002
 40
1.0
 50
1.8E+002
 51
2.7E+002
  0
ARC
  8
V1L0
  6
CONTINUOUS
 62
40
 10
1.2800237E+002
 20
1.030484E+002
 40
1.0
 50
2.7E+002
 51
3.6E+002
  0
LINE
  8
V1L0
  6
CONTINUOUS
 62
40
 10
8.92E+001
 20
4.5E+001
 11
9.15E+001
 21
4.5E+001
  0
LINE
  8
V1L0
  6
CONTINUOUS
 62
40
 10
8.92E+001
 20
5.1E+001
 11
9.15E+001
 21
5.1E+001
  0
LINE
  8
V1L0
  6
CONTINUOUS
 62
40
 10
9.25E+001
 20
4.6E+001
 11
9.25E+001
 21
5.0E+001
  0
ARC
  8
V1L0
  6
CONTINUOUS
 62
40
 10
9.1502371E+001
 20
4.99984E+001
 40
1.0
 50
0.0
 51
9.0E+001
  0
ARC
  8
V1L0
  6
CONTINUOUS
 62
40
 10
9.1502371E+001
 20
4.59984E+001
 40
1.0
 50
2.7E+002
 51
3.6E+002
  0
LINE
  8
V1L0
  6
CONTINUOUS
 62
40
 10
1.17E+002
 20
1.3505E+002
 11
1.52E+002
 21
1.3505E+002
  0
LINE
  8
V1L0
  6
CONTINUOUS
 62
40
 10
2.08E+002
 20
9.5E+001
 11
2.645E+002
 21
9.5E+001
  0
LINE
  8
V1L0
  6
CONTINUOUS
 62
40
 10
2.08E+002
 20
1.0
 11
2.645E+002
 21
1.0
  0
LINE
  8
V1L0
  6
CONTINUOUS
 62
40
 10
2.08E+002
 20
1.0
 11
2.08E+002
 21
1.506E+001
  0
LINE
  8
V1L0
  6
CONTINUOUS
 62
40
 10
2.0721E+002
 20
7.762E+001
 11
2.101E+002
 21
7.841E+001
  0
LINE
  8
V1L0
  6
CONTINUOUS
 62
40
 10
2.0642E+002
 20
8.051E+001
 11
2.0931E+002
 21
8.13E+001
  0
LINE
  8
V1L0
  6
CONTINUOUS
 62
40
 10
2.0642E+002
 20
8.051E+001
 11
2.0721E+002
 21
7.762E+001
  0
LINE
  8
V1L0
  6
CONTINUOUS
 62
40
 10
2.0721E+002
 20
1.838E+001
 11
2.101E+002
 21
1.759E+001
  0
LINE
  8
V1L0
  6
CONTINUOUS
 62
40
 10
2.0642E+002
 20
1.549E+001
 11
2.0931E+002
 21
1.47E+001
  0
LINE
  8
V1L0
  6
CONTINUOUS
 62
40
 10
2.0642E+002
 20
1.549E+001
 11
2.0721E+002
 21
1.838E+001
  0
CIRCLE
  8
V1L0
  6
CONTINUOUS
 62
40
 10
1.9100237E+002
 20
4.79984E+001
 40
1.5E+001
  0
CIRCLE
  8
V1L0
  6
CONTINUOUS
 62
40
 10
1.8400237E+002
 20
4.79984E+001
 40
4.0
  0
LINE
  8
V1L0
  6
CONTINUOUS
 62
40
 10
1.74E+002
 20
4.5E+001
 11
1.763E+002
 21
4.5E+001
  0
LINE
  8
V1L0
  6
CONTINUOUS
 62
40
 10
1.74E+002
 20
5.1E+001
 11
1.763E+002
 21
5.1E+001
  0
LINE
  8
V1L0
  6
CONTINUOUS
 62
40
 10
1.73E+002
 20
4.6E+001
 11
1.73E+002
 21
5.0E+001
  0
ARC
  8
V1L0
  6
CONTINUOUS
 62
40
 10
1.7400237E+002
 20
4.99984E+001
 40
1.0
 50
9.0E+001
 51
1.8E+002
  0
ARC
  8
V1L0
  6
CONTINUOUS
 62
40
 10
1.7400237E+002
 20
4.59984E+001
 40
1.0
 50
1.8E+002
 51
2.7E+002
  0
LINE
  8
V1L0
  6
CONTINUOUS
 62
40
 10
2.07E+002
 20
7.35E+001
 11
2.08E+002
 21
7.35E+001
  0
ARC
  8
V1L0
  6
CONTINUOUS
 62
40
 10
2.0700237E+002
 20
7.29984E+001
 40
5.0E-001
 50
9.0E+001
 51
1.8E+002
  0
CIRCLE
  8
V1L0
  6
CONTINUOUS
 62
40
 10
2.1900237E+002
 20
3.04984E+001
 40
1.5
  0
CIRCLE
  8
V1L0
  6
CONTINUOUS
 62
40
 10
2.1900237E+002
 20
6.54984E+001
 40
1.5
  0
LINE
  8
V1L0
  6
CONTINUOUS
 62
40
 10
2.645E+002
 20
1.0
 11
2.645E+002
 21
9.5E+001
  0
LINE
  8
V1L0
  6
CONTINUOUS
 62
40
 10
6.5
 20
2.25E+001
 11
6.5
 21
7.35E+001
  0
LINE
  8
V1L0
  6
CONTINUOUS
 62
40
 10
6.5
 20
7.35E+001
 11
3.15E+001
 21
7.35E+001
  0
LINE
  8
V1L0
  6
CONTINUOUS
 62
40
 10
6.5
 20
2.25E+001
 11
3.15E+001
 21
2.25E+001
  0
CIRCLE
  8
V1L0
  6
CONTINUOUS
 62
40
 10
1.9002371E+001
 20
3.04984E+001
 40
2.75
  0
LINE
  8
V1L0
  6
CONTINUOUS
 62
40
 10
1.688E+001
 20
3.225E+001
 11
2.036E+001
 21
2.811E+001
  0
LINE
  8
V1L0
  6
CONTINUOUS
 62
40
 10
1.765E+001
 20
3.289E+001
 11
2.112E+001
 21
2.875E+001
  0
CIRCLE
  8
V1L0
  6
CONTINUOUS
 62
40
 10
1.9002371E+001
 20
6.54984E+001
 40
2.75
  0
LINE
  8
V1L0
  6
CONTINUOUS
 62
40
 10
1.765E+001
 20
6.789E+001
 11
2.112E+001
 21
6.375E+001
  0
LINE
  8
V1L0
  6
CONTINUOUS
 62
40
 10
1.688E+001
 20
6.725E+001
 11
2.036E+001
 21
6.311E+001
  0
LINE
  8
V1L0
  6
CONTINUOUS
 62
40
 10
2.5E+001
 20
7.35E+001
 11
2.595E+001
 21
7.696E+001
  0
LINE
  8
V1L0
  6
CONTINUOUS
 62
40
 10
2.8E+001
 20
8.45E+001
 11
2.945E+001
 21
8.411E+001
  0
LINE
  8
V1L0
  6
CONTINUOUS
 62
40
 10
2.656E+001
 20
7.35E+001
 11
2.945E+001
 21
8.411E+001
  0
LINE
  8
V1L0
  6
CONTINUOUS
 62
40
 10
2.279E+001
 20
7.679E+001
 11
2.511E+001
 21
8.529E+001
  0
LINE
  8
V1L0
  6
CONTINUOUS
 62
40
 10
2.072E+001
 20
7.868E+001
 11
2.236E+001
 21
8.471E+001
  0
LINE
  8
V1L0
  6
CONTINUOUS
 62
40
 10
2.279E+001
 20
7.679E+001
 11
2.54E+001
 21
7.608E+001
  0
LINE
  8
V1L0
  6
CONTINUOUS
 62
40
 10
2.298E+001
 20
8.507E+001
 11
2.49E+001
 21
8.454E+001
  0
LINE
  8
V1L0
  6
CONTINUOUS
 62
40
 10
2.107E+001
 20
7.807E+001
 11
2.3E+001
 21
7.754E+001
  0
ARC
  8
V1L0
  6
CONTINUOUS
 62
40
 10
2.2842371E+001
 20
8.45784E+001
 40
5.0E-001
 50
7.474E+001
 51
1.6474E+002
  0
ARC
  8
V1L0
  6
CONTINUOUS
 62
40
 10
2.1202371E+001
 20
7.85484E+001
 40
5.0E-001
 50
1.6474E+002
 51
2.5474E+002
  0
LINE
  8
V1L0
  6
CONTINUOUS
 62
40
 10
2.771E+001
 20
8.458E+001
 11
2.774E+001
 21
8.354E+001
  0
LINE
  8
V1L0
  6
CONTINUOUS
 62
40
 10
2.511E+001
 20
8.529E+001
 11
2.771E+001
 21
8.458E+001
  0
LINE
  8
V1L0
  6
CONTINUOUS
 62
40
 10
2.54E+001
 20
7.608E+001
 11
2.595E+001
 21
7.696E+001
  0
LINE
  8
V1L0
  6
CONTINUOUS
 62
40
 10
2.595E+001
 20
7.696E+001
 11
2.8E+001
 21
8.45E+001
  0
LINE
  8
V1L0
  6
CONTINUOUS
 62
40
 10
2.79E+001
 20
7.841E+001
 11
3.079E+001
 21
7.762E+001
  0
LINE
  8
V1L0
  6
CONTINUOUS
 62
40
 10
2.869E+001
 20
8.13E+001
 11
3.158E+001
 21
8.051E+001
  0
LINE
  8
V1L0
  6
CONTINUOUS
 62
40
 10
1.144E+001
 20
7.35E+001
 11
1.239E+001
 21
7.696E+001
  0
LINE
  8
V1L0
  6
CONTINUOUS
 62
40
 10
1.444E+001
 20
8.45E+001
 11
1.589E+001
 21
8.411E+001
  0
LINE
  8
V1L0
  6
CONTINUOUS
 62
40
 10
1.3E+001
 20
7.35E+001
 11
1.589E+001
 21
8.411E+001
  0
LINE
  8
V1L0
  6
CONTINUOUS
 62
40
 10
9.23
 20
7.679E+001
 11
1.155E+001
 21
8.529E+001
  0
LINE
  8
V1L0
  6
CONTINUOUS
 62
40
 10
7.16
 20
7.868E+001
 11
8.8
 21
8.471E+001
  0
LINE
  8
V1L0
  6
CONTINUOUS
 62
40
 10
9.23
 20
7.679E+001
 11
1.184E+001
 21
7.608E+001
  0
LINE
  8
V1L0
  6
CONTINUOUS
 62
40
 10
9.42
 20
8.507E+001
 11
1.134E+001
 21
8.454E+001
  0
LINE
  8
V1L0
  6
CONTINUOUS
 62
40
 10
7.51
 20
7.807E+001
 11
9.44
 21
7.754E+001
  0
ARC
  8
V1L0
  6
CONTINUOUS
 62
40
 10
9.2823707
 20
8.45784E+001
 40
5.0E-001
 50
7.474E+001
 51
1.6474E+002
  0
ARC
  8
V1L0
  6
CONTINUOUS
 62
40
 10
7.6423707
 20
7.85484E+001
 40
5.0E-001
 50
1.6474E+002
 51
2.5474E+002
  0
LINE
  8
V1L0
  6
CONTINUOUS
 62
40
 10
1.415E+001
 20
8.458E+001
 11
1.418E+001
 21
8.354E+001
  0
LINE
  8
V1L0
  6
CONTINUOUS
 62
40
 10
1.155E+001
 20
8.529E+001
 11
1.415E+001
 21
8.458E+001
  0
LINE
  8
V1L0
  6
CONTINUOUS
 62
40
 10
1.184E+001
 20
7.608E+001
 11
1.239E+001
 21
7.696E+001
  0
LINE
  8
V1L0
  6
CONTINUOUS
 62
40
 10
1.239E+001
 20
7.696E+001
 11
1.263E+001
 21
7.784E+001
  0
LINE
  8
V1L0
  6
CONTINUOUS
 62
40
 10
1.021E+001
 20
7.85E+001
 11
1.153E+001
 21
8.332E+001
  0
LINE
  8
V1L0
  6
CONTINUOUS
 62
40
 10
1.021E+001
 20
7.85E+001
 11
1.407E+001
 21
7.744E+001
  0
LINE
  8
V1L0
  6
CONTINUOUS
 62
40
 10
1.153E+001
 20
8.332E+001
 11
1.539E+001
 21
8.227E+001
  0
LINE
  8
V1L0
  6
CONTINUOUS
 62
40
 10
1.434E+001
 20
7.841E+001
 11
1.723E+001
 21
7.762E+001
  0
LINE
  8
V1L0
  6
CONTINUOUS
 62
40
 10
1.513E+001
 20
8.13E+001
 11
1.802E+001
 21
8.051E+001
  0
LINE
  8
V1L0
  6
CONTINUOUS
 62
40
 10
1.723E+001
 20
7.762E+001
 11
1.802E+001
 21
8.051E+001
  0
LINE
  8
V1L0
  6
CONTINUOUS
 62
40
 10
1.394E+001
 20
8.266E+001
 11
1.444E+001
 21
8.45E+001
  0
LINE
  8
V1L0
  6
CONTINUOUS
 62
40
 10
2.5E+001
 20
2.25E+001
 11
2.595E+001
 21
1.904E+001
  0
LINE
  8
V1L0
  6
CONTINUOUS
 62
40
 10
2.8E+001
 20
1.15E+001
 11
2.945E+001
 21
1.189E+001
  0
LINE
  8
V1L0
  6
CONTINUOUS
 62
40
 10
2.656E+001
 20
2.25E+001
 11
2.945E+001
 21
1.189E+001
  0
LINE
  8
V1L0
  6
CONTINUOUS
 62
40
 10
2.279E+001
 20
1.921E+001
 11
2.511E+001
 21
1.071E+001
  0
LINE
  8
V1L0
  6
CONTINUOUS
 62
40
 10
2.072E+001
 20
1.732E+001
 11
2.236E+001
 21
1.129E+001
  0
LINE
  8
V1L0
  6
CONTINUOUS
 62
40
 10
2.279E+001
 20
1.921E+001
 11
2.54E+001
 21
1.992E+001
  0
LINE
  8
V1L0
  6
CONTINUOUS
 62
40
 10
2.298E+001
 20
1.093E+001
 11
2.49E+001
 21
1.146E+001
  0
LINE
  8
V1L0
  6
CONTINUOUS
 62
40
 10
2.107E+001
 20
1.793E+001
 11
2.3E+001
 21
1.846E+001
  0
ARC
  8
V1L0
  6
CONTINUOUS
 62
40
 10
2.2842371E+001
 20
1.14184E+001
 40
5.0E-001
 50
1.9526E+002
 51
2.8526E+002
  0
ARC
  8
V1L0
  6
CONTINUOUS
 62
40
 10
2.1202371E+001
 20
1.74484E+001
 40
5.0E-001
 50
1.0526E+002
 51
1.9526E+002
  0
LINE
  8
V1L0
  6
CONTINUOUS
 62
40
 10
2.771E+001
 20
1.142E+001
 11
2.774E+001
 21
1.246E+001
  0
LINE
  8
V1L0
  6
CONTINUOUS
 62
40
 10
2.511E+001
 20
1.071E+001
 11
2.771E+001
 21
1.142E+001
  0
LINE
  8
V1L0
  6
CONTINUOUS
 62
40
 10
2.54E+001
 20
1.992E+001
 11
2.595E+001
 21
1.904E+001
  0
LINE
  8
V1L0
  6
CONTINUOUS
 62
40
 10
2.75E+001
 20
1.334E+001
 11
2.8E+001
 21
1.15E+001
  0
LINE
  8
V1L0
  6
CONTINUOUS
 62
40
 10
2.79E+001
 20
1.759E+001
 11
3.079E+001
 21
1.838E+001
  0
LINE
  8
V1L0
  6
CONTINUOUS
 62
40
 10
2.869E+001
 20
1.47E+001
 11
3.158E+001
 21
1.549E+001
  0
LINE
  8
V1L0
  6
CONTINUOUS
 62
40
 10
1.144E+001
 20
2.25E+001
 11
1.239E+001
 21
1.904E+001
  0
LINE
  8
V1L0
  6
CONTINUOUS
 62
40
 10
1.444E+001
 20
1.15E+001
 11
1.589E+001
 21
1.189E+001
  0
LINE
  8
V1L0
  6
CONTINUOUS
 62
40
 10
1.3E+001
 20
2.25E+001
 11
1.589E+001
 21
1.189E+001
  0
LINE
  8
V1L0
  6
CONTINUOUS
 62
40
 10
9.23
 20
1.921E+001
 11
1.155E+001
 21
1.071E+001
  0
LINE
  8
V1L0
  6
CONTINUOUS
 62
40
 10
7.16
 20
1.732E+001
 11
8.8
 21
1.129E+001
  0
LINE
  8
V1L0
  6
CONTINUOUS
 62
40
 10
9.23
 20
1.921E+001
 11
1.184E+001
 21
1.992E+001
  0
LINE
  8
V1L0
  6
CONTINUOUS
 62
40
 10
9.42
 20
1.093E+001
 11
1.134E+001
 21
1.146E+001
  0
LINE
  8
V1L0
  6
CONTINUOUS
 62
40
 10
7.51
 20
1.793E+001
 11
9.44
 21
1.846E+001
  0
ARC
  8
V1L0
  6
CONTINUOUS
 62
40
 10
9.2823707
 20
1.14184E+001
 40
5.0E-001
 50
1.9526E+002
 51
2.8526E+002
  0
ARC
  8
V1L0
  6
CONTINUOUS
 62
40
 10
7.6423707
 20
1.74484E+001
 40
5.0E-001
 50
1.0526E+002
 51
1.9526E+002
  0
LINE
  8
V1L0
  6
CONTINUOUS
 62
40
 10
1.415E+001
 20
1.142E+001
 11
1.418E+001
 21
1.246E+001
  0
LINE
  8
V1L0
  6
CONTINUOUS
 62
40
 10
1.155E+001
 20
1.071E+001
 11
1.415E+001
 21
1.142E+001
  0
LINE
  8
V1L0
  6
CONTINUOUS
 62
40
 10
1.184E+001
 20
1.992E+001
 11
1.239E+001
 21
1.904E+001
  0
LINE
  8
V1L0
  6
CONTINUOUS
 62
40
 10
1.239E+001
 20
1.904E+001
 11
1.444E+001
 21
1.15E+001
  0
LINE
  8
V1L0
  6
CONTINUOUS
 62
40
 10
2.377E+001
 20
1.75E+001
 11
2.509E+001
 21
1.268E+001
  0
LINE
  8
V1L0
  6
CONTINUOUS
 62
40
 10
2.377E+001
 20
1.75E+001
 11
2.763E+001
 21
1.856E+001
  0
LINE
  8
V1L0
  6
CONTINUOUS
 62
40
 10
2.509E+001
 20
1.268E+001
 11
2.895E+001
 21
1.373E+001
  0
LINE
  8
V1L0
  6
CONTINUOUS
 62
40
 10
1.434E+001
 20
1.759E+001
 11
1.723E+001
 21
1.838E+001
  0
LINE
  8
V1L0
  6
CONTINUOUS
 62
40
 10
1.513E+001
 20
1.47E+001
 11
1.802E+001
 21
1.549E+001
  0
LINE
  8
V1L0
  6
CONTINUOUS
 62
40
 10
1.723E+001
 20
1.838E+001
 11
1.802E+001
 21
1.549E+001
  0
LINE
  8
V1L0
  6
CONTINUOUS
 62
40
 10
2.595E+001
 20
1.904E+001
 11
2.619E+001
 21
1.816E+001
  0
LINE
  8
V1L0
  6
CONTINUOUS
 62
40
 10
3.15E+001
 20
2.25E+001
 11
3.15E+001
 21
7.35E+001
  0
LINE
  8
V1L0
  6
CONTINUOUS
 62
40
 10
3.079E+001
 20
7.762E+001
 11
3.158E+001
 21
8.051E+001
  0
LINE
  8
V1L0
  6
CONTINUOUS
 62
40
 10
3.079E+001
 20
1.838E+001
 11
3.158E+001
 21
1.549E+001
  0
LINE
  8
V1L0
  6
CONTINUOUS
 62
40
 10
1.565E+002
 20
1.6305E+002
 11
1.565E+002
 21
1.8805E+002
  0
LINE
  8
V1L0
  6
CONTINUOUS
 62
40
 10
1.365E+002
 20
1.8805E+002
 11
1.565E+002
 21
1.8805E+002
  0
LINE
  8
V1L0
  6
CONTINUOUS
 62
40
 10
1.365E+002
 20
1.6305E+002
 11
1.4132E+002
 21
1.6305E+002
  0
LINE
  8
V1L0
  6
CONTINUOUS
 62
40
 10
1.47E+002
 20
1.8011E+002
 11
1.47E+002
 21
1.8434E+002
  0
LINE
  8
V1L0
  6
CONTINUOUS
 62
40
 10
1.545E+002
 20
1.7867E+002
 11
1.545E+002
 21
1.8413E+002
  0
LINE
  8
V1L0
  6
CONTINUOUS
 62
40
 10
1.455E+002
 20
1.7867E+002
 11
1.455E+002
 21
1.8434E+002
  0
LINE
  8
V1L0
  6
CONTINUOUS
 62
40
 10
1.455E+002
 20
1.7867E+002
 11
1.545E+002
 21
1.7867E+002
  0
LINE
  8
V1L0
  6
CONTINUOUS
 62
40
 10
1.47E+002
 20
1.8011E+002
 11
1.545E+002
 21
1.8011E+002
  0
LINE
  8
V1L0
  6
CONTINUOUS
 62
40
 10
1.455E+002
 20
1.8303E+002
 11
1.47E+002
 21
1.8303E+002
  0
LINE
  8
V1L0
  6
CONTINUOUS
 62
40
 10
1.455E+002
 20
1.8434E+002
 11
1.47E+002
 21
1.8434E+002
  0
LINE
  8
V1L0
  6
CONTINUOUS
 62
40
 10
1.518E+002
 20
1.8112E+002
 11
1.5401E+002
 21
1.803E+002
  0
LINE
  8
V1L0
  6
CONTINUOUS
 62
40
 10
1.4749E+002
 20
1.803E+002
 11
1.497E+002
 21
1.8112E+002
  0
ARC
  8
V1L0
  6
CONTINUOUS
 62
40
 10
1.5075237E+002
 20
1.783084E+002
 40
3.0
 50
6.96E+001
 51
1.104E+002
  0
ARC
  8
V1L0
  6
CONTINUOUS
 62
40
 10
1.5075237E+002
 20
1.798084E+002
 40
3.0
 50
6.96E+001
 51
1.104E+002
  0
LINE
  8
V1L0
  6
CONTINUOUS
 62
40
 10
1.518E+002
 20
1.8262E+002
 11
1.545E+002
 21
1.8161E+002
  0
LINE
  8
V1L0
  6
CONTINUOUS
 62
40
 10
1.47E+002
 20
1.8161E+002
 11
1.497E+002
 21
1.8262E+002
  0
LINE
  8
V1L0
  6
CONTINUOUS
 62
40
 10
1.5416E+002
 20
1.8426E+002
 11
1.545E+002
 21
1.8413E+002
  0
LINE
  8
V1L0
  6
CONTINUOUS
 62
40
 10
1.47E+002
 20
1.8413E+002
 11
1.4734E+002
 21
1.8426E+002
  0
LINE
  8
V1L0
  6
CONTINUOUS
 62
40
 10
1.5401E+002
 20
1.803E+002
 11
1.545E+002
 21
1.8161E+002
  0
LINE
  8
V1L0
  6
CONTINUOUS
 62
40
 10
1.47E+002
 20
1.8161E+002
 11
1.4749E+002
 21
1.803E+002
  0
LINE
  8
V1L0
  6
CONTINUOUS
 62
40
 10
1.5391E+002
 20
1.8658E+002
 11
1.5416E+002
 21
1.8426E+002
  0
LINE
  8
V1L0
  6
CONTINUOUS
 62
40
 10
1.4734E+002
 20
1.8426E+002
 11
1.4759E+002
 21
1.8658E+002
  0
LINE
  8
V1L0
  6
CONTINUOUS
 62
40
 10
1.5091E+002
 20
1.8603E+002
 11
1.5132E+002
 21
1.8644E+002
  0
LINE
  8
V1L0
  6
CONTINUOUS
 62
40
 10
1.4954E+002
 20
1.8607E+002
 11
1.499E+002
 21
1.8644E+002
  0
LINE
  8
V1L0
  6
CONTINUOUS
 62
40
 10
1.4954E+002
 20
1.8561E+002
 11
1.4954E+002
 21
1.8607E+002
  0
LINE
  8
V1L0
  6
CONTINUOUS
 62
40
 10
1.5091E+002
 20
1.8556E+002
 11
1.5091E+002
 21
1.8603E+002
  0
LINE
  8
V1L0
  6
CONTINUOUS
 62
40
 10
1.5059E+002
 20
1.8666E+002
 11
1.5059E+002
 21
1.8713E+002
  0
LINE
  8
V1L0
  6
CONTINUOUS
 62
40
 10
1.4954E+002
 20
1.8561E+002
 11
1.5059E+002
 21
1.8666E+002
  0
LINE
  8
V1L0
  6
CONTINUOUS
 62
40
 10
1.4875E+002
 20
1.867E+002
 11
1.5016E+002
 21
1.867E+002
  0
LINE
  8
V1L0
  6
CONTINUOUS
 62
40
 10
1.5273E+002
 20
1.8644E+002
 11
1.5299E+002
 21
1.867E+002
  0
LINE
  8
V1L0
  6
CONTINUOUS
 62
40
 10
1.4849E+002
 20
1.8644E+002
 11
1.4875E+002
 21
1.867E+002
  0
LINE
  8
V1L0
  6
CONTINUOUS
 62
40
 10
1.4849E+002
 20
1.8644E+002
 11
1.499E+002
 21
1.8644E+002
  0
LINE
  8
V1L0
  6
CONTINUOUS
 62
40
 10
1.499E+002
 20
1.8597E+002
 11
1.499E+002
 21
1.8644E+002
  0
LINE
  8
V1L0
  6
CONTINUOUS
 62
40
 10
1.5016E+002
 20
1.8623E+002
 11
1.5016E+002
 21
1.867E+002
  0
LINE
  8
V1L0
  6
CONTINUOUS
 62
40
 10
1.5132E+002
 20
1.8644E+002
 11
1.5273E+002
 21
1.8644E+002
  0
LINE
  8
V1L0
  6
CONTINUOUS
 62
40
 10
1.5158E+002
 20
1.867E+002
 11
1.5299E+002
 21
1.867E+002
  0
LINE
  8
V1L0
  6
CONTINUOUS
 62
40
 10
1.5016E+002
 20
1.867E+002
 11
1.5059E+002
 21
1.8713E+002
  0
LINE
  8
V1L0
  6
CONTINUOUS
 62
40
 10
1.5158E+002
 20
1.867E+002
 11
1.5196E+002
 21
1.8709E+002
  0
LINE
  8
V1L0
  6
CONTINUOUS
 62
40
 10
1.499E+002
 20
1.8623E+002
 11
1.5016E+002
 21
1.8623E+002
  0
LINE
  8
V1L0
  6
CONTINUOUS
 62
40
 10
1.5158E+002
 20
1.8644E+002
 11
1.5158E+002
 21
1.867E+002
  0
LINE
  8
V1L0
  6
CONTINUOUS
 62
40
 10
1.3875E+002
 20
1.6511E+002
 11
1.4575E+002
 21
1.6511E+002
  0
LINE
  8
V1L0
  6
CONTINUOUS
 62
40
 10
1.46E+002
 20
1.6655E+002
 11
1.46E+002
 21
1.7078E+002
  0
LINE
  8
V1L0
  6
CONTINUOUS
 62
40
 10
1.385E+002
 20
1.6511E+002
 11
1.385E+002
 21
1.7057E+002
  0
LINE
  8
V1L0
  6
CONTINUOUS
 62
40
 10
1.475E+002
 20
1.6511E+002
 11
1.475E+002
 21
1.7078E+002
  0
LINE
  8
V1L0
  6
CONTINUOUS
 62
40
 10
1.385E+002
 20
1.6511E+002
 11
1.475E+002
 21
1.6511E+002
  0
LINE
  8
V1L0
  6
CONTINUOUS
 62
40
 10
1.385E+002
 20
1.6655E+002
 11
1.46E+002
 21
1.6655E+002
  0
LINE
  8
V1L0
  6
CONTINUOUS
 62
40
 10
1.46E+002
 20
1.6947E+002
 11
1.475E+002
 21
1.6947E+002
  0
LINE
  8
V1L0
  6
CONTINUOUS
 62
40
 10
1.46E+002
 20
1.7078E+002
 11
1.475E+002
 21
1.7078E+002
  0
LINE
  8
V1L0
  6
CONTINUOUS
 62
40
 10
1.3899E+002
 20
1.6674E+002
 11
1.412E+002
 21
1.6756E+002
  0
LINE
  8
V1L0
  6
CONTINUOUS
 62
40
 10
1.433E+002
 20
1.6756E+002
 11
1.4551E+002
 21
1.6674E+002
  0
ARC
  8
V1L0
  6
CONTINUOUS
 62
40
 10
1.4225237E+002
 20
1.647484E+002
 40
3.0
 50
6.96E+001
 51
1.104E+002
  0
ARC
  8
V1L0
  6
CONTINUOUS
 62
40
 10
1.4225237E+002
 20
1.662484E+002
 40
3.0
 50
6.96E+001
 51
1.104E+002
  0
LINE
  8
V1L0
  6
CONTINUOUS
 62
40
 10
1.385E+002
 20
1.6805E+002
 11
1.412E+002
 21
1.6906E+002
  0
LINE
  8
V1L0
  6
CONTINUOUS
 62
40
 10
1.433E+002
 20
1.6906E+002
 11
1.46E+002
 21
1.6805E+002
  0
LINE
  8
V1L0
  6
CONTINUOUS
 62
40
 10
1.385E+002
 20
1.7057E+002
 11
1.3884E+002
 21
1.707E+002
  0
LINE
  8
V1L0
  6
CONTINUOUS
 62
40
 10
1.4566E+002
 20
1.707E+002
 11
1.46E+002
 21
1.7057E+002
  0
LINE
  8
V1L0
  6
CONTINUOUS
 62
40
 10
1.385E+002
 20
1.6805E+002
 11
1.3899E+002
 21
1.6674E+002
  0
LINE
  8
V1L0
  6
CONTINUOUS
 62
40
 10
1.4551E+002
 20
1.6674E+002
 11
1.46E+002
 21
1.6805E+002
  0
LINE
  8
V1L0
  6
CONTINUOUS
 62
40
 10
1.3884E+002
 20
1.707E+002
 11
1.3909E+002
 21
1.7302E+002
  0
LINE
  8
V1L0
  6
CONTINUOUS
 62
40
 10
1.4541E+002
 20
1.7302E+002
 11
1.4566E+002
 21
1.707E+002
  0
LINE
  8
V1L0
  6
CONTINUOUS
 62
40
 10
1.4168E+002
 20
1.7288E+002
 11
1.4209E+002
 21
1.7247E+002
  0
LINE
  8
V1L0
  6
CONTINUOUS
 62
40
 10
1.431E+002
 20
1.7288E+002
 11
1.4346E+002
 21
1.7251E+002
  0
LINE
  8
V1L0
  6
CONTINUOUS
 62
40
 10
1.4346E+002
 20
1.7205E+002
 11
1.4346E+002
 21
1.7251E+002
  0
LINE
  8
V1L0
  6
CONTINUOUS
 62
40
 10
1.4209E+002
 20
1.72E+002
 11
1.4209E+002
 21
1.7247E+002
  0
LINE
  8
V1L0
  6
CONTINUOUS
 62
40
 10
1.4241E+002
 20
1.731E+002
 11
1.4241E+002
 21
1.7357E+002
  0
LINE
  8
V1L0
  6
CONTINUOUS
 62
40
 10
1.4241E+002
 20
1.731E+002
 11
1.4346E+002
 21
1.7205E+002
  0
LINE
  8
V1L0
  6
CONTINUOUS
 62
40
 10
1.4284E+002
 20
1.7314E+002
 11
1.4425E+002
 21
1.7314E+002
  0
LINE
  8
V1L0
  6
CONTINUOUS
 62
40
 10
1.4001E+002
 20
1.7314E+002
 11
1.4027E+002
 21
1.7288E+002
  0
LINE
  8
V1L0
  6
CONTINUOUS
 62
40
 10
1.4425E+002
 20
1.7314E+002
 11
1.4451E+002
 21
1.7288E+002
  0
LINE
  8
V1L0
  6
CONTINUOUS
 62
40
 10
1.431E+002
 20
1.7288E+002
 11
1.4451E+002
 21
1.7288E+002
  0
LINE
  8
V1L0
  6
CONTINUOUS
 62
40
 10
1.431E+002
 20
1.7241E+002
 11
1.431E+002
 21
1.7288E+002
  0
LINE
  8
V1L0
  6
CONTINUOUS
 62
40
 10
1.4284E+002
 20
1.7267E+002
 11
1.4284E+002
 21
1.7314E+002
  0
LINE
  8
V1L0
  6
CONTINUOUS
 62
40
 10
1.4027E+002
 20
1.7288E+002
 11
1.4168E+002
 21
1.7288E+002
  0
LINE
  8
V1L0
  6
CONTINUOUS
 62
40
 10
1.4001E+002
 20
1.7314E+002
 11
1.4142E+002
 21
1.7314E+002
  0
LINE
  8
V1L0
  6
CONTINUOUS
 62
40
 10
1.4241E+002
 20
1.7357E+002
 11
1.4284E+002
 21
1.7314E+002
  0
LINE
  8
V1L0
  6
CONTINUOUS
 62
40
 10
1.4104E+002
 20
1.7353E+002
 11
1.4142E+002
 21
1.7314E+002
  0
LINE
  8
V1L0
  6
CONTINUOUS
 62
40
 10
1.4284E+002
 20
1.7267E+002
 11
1.431E+002
 21
1.7267E+002
  0
LINE
  8
V1L0
  6
CONTINUOUS
 62
40
 10
1.4142E+002
 20
1.7288E+002
 11
1.4142E+002
 21
1.7314E+002
  0
LINE
  8
V1L0
  6
CONTINUOUS
 62
40
 10
1.4075E+002
 20
1.6318E+002
 11
1.4075E+002
 21
1.6511E+002
  0
LINE
  8
V1L0
  6
CONTINUOUS
 62
40
 10
1.4375E+002
 20
1.6318E+002
 11
1.4375E+002
 21
1.6511E+002
  0
LINE
  8
V1L0
  6
CONTINUOUS
 62
40
 10
1.4318E+002
 20
1.6305E+002
 11
1.565E+002
 21
1.6305E+002
  0
LINE
  8
V1L0
  6
CONTINUOUS
 62
40
 10
1.4925E+002
 20
1.7674E+002
 11
1.4925E+002
 21
1.7867E+002
  0
LINE
  8
V1L0
  6
CONTINUOUS
 62
40
 10
1.5225E+002
 20
1.7674E+002
 11
1.5225E+002
 21
1.7867E+002
  0
LINE
  8
V1L0
  6
CONTINUOUS
 62
40
 10
1.09E+002
 20
1.743E+002
 11
1.09E+002
 21
1.768E+002
  0
LINE
  8
V1L0
  6
CONTINUOUS
 62
40
 10
1.09E+002
 20
1.743E+002
 11
1.16E+002
 21
1.743E+002
  0
LINE
  8
V1L0
  6
CONTINUOUS
 62
40
 10
1.49E+002
 20
1.6055E+002
 11
1.49E+002
 21
1.6305E+002
  0
LINE
  8
V1L0
  6
CONTINUOUS
 62
40
 10
1.44E+002
 20
1.6055E+002
 11
1.44E+002
 21
1.6305E+002
  0
LINE
  8
V1L0
  6
CONTINUOUS
 62
40
 10
3.15E+001
 20
4.55E+001
 11
3.4E+001
 21
4.55E+001
  0
LINE
  8
V1L0
  6
CONTINUOUS
 62
40
 10
3.15E+001
 20
5.05E+001
 11
3.4E+001
 21
5.05E+001
  0
CIRCLE
  8
V1L0
  6
CONTINUOUS
 62
40
 10
2.4650237E+002
 20
6.54984E+001
 40
1.5
  0
CIRCLE
  8
V1L0
  6
CONTINUOUS
 62
40
 10
2.4650237E+002
 20
3.04984E+001
 40
1.5
  0
LINE
  8
V1L0
  6
CONTINUOUS
 62
40
 10
1.36E+002
 20
1.9355E+002
 11
1.365E+002
 21
1.9355E+002
  0
LINE
  8
V1L0
  6
CONTINUOUS
 62
40
 10
2.065E+002
 20
2.3E+001
 11
2.065E+002
 21
7.3E+001
  0
ARC
  8
V1L0
  6
CONTINUOUS
 62
40
 10
2.0700237E+002
 20
2.29984E+001
 40
5.0E-001
 50
1.8E+002
 51
2.7E+002
  0
LINE
  8
V1L0
  6
CONTINUOUS
 62
40
 10
2.07E+002
 20
2.25E+001
 11
2.08E+002
 21
2.25E+001
  0
LINE
  8
V1L0
  6
CONTINUOUS
 62
40
 10
1.17E+002
 20
1.0505E+002
 11
1.17E+002
 21
1.3505E+002
  0
LINE
  8
V1L0
  6
CONTINUOUS
 62
40
 10
1.52E+002
 20
1.0505E+002
 11
1.52E+002
 21
1.3505E+002
  0
LINE
  8
V1L0
  6
LONG_DASH
 62
40
 10
1.29E+002
 20
1.0905E+002
 11
1.29E+002
 21
1.1705E+002
  0
LINE
  8
V1L0
  6
CONTINUOUS
 62
40
 10
1.265E+002
 20
7.6E+001
 11
1.265E+002
 21
7.775E+001
  0
LINE
  8
V1L0
  6
CONTINUOUS
 62
40
 10
1.265E+002
 20
7.6E+001
 11
1.34E+002
 21
7.6E+001
  0
LINE
  8
V1L0
  6
CONTINUOUS
 62
40
 10
1.26E+002
 20
7.564E+001
 11
1.265E+002
 21
7.6E+001
  0
LINE
  8
V1L0
  6
CONTINUOUS
 62
40
 10
1.3E+002
 20
7.35E+001
 11
1.3E+002
 21
7.6E+001
  0
LINE
  8
V1L0
  6
CONTINUOUS
 62
40
 10
1.265E+002
 20
8.45E+001
 11
1.34E+002
 21
8.45E+001
  0
LINE
  8
V1L0
  6
CONTINUOUS
 62
40
 10
1.34E+002
 20
7.6E+001
 11
1.34E+002
 21
8.45E+001
  0
ARC
  8
V1L0
  6
CONTINUOUS
 62
40
 10
1.3025237E+002
 20
8.02484E+001
 40
3.5
 50
2.0179E+002
 51
5.1821E+002
  0
LINE
  8
V1L0
  6
CONTINUOUS
 62
40
 10
1.2792E+002
 20
7.764E+001
 11
1.3019E+002
 21
7.955E+001
  0
LINE
  8
V1L0
  6
CONTINUOUS
 62
40
 10
1.2727E+002
 20
7.841E+001
 11
1.2955E+002
 21
8.031E+001
  0
LINE
  8
V1L0
  6
CONTINUOUS
 62
40
 10
1.2826E+002
 20
8.184E+001
 11
1.2955E+002
 21
8.031E+001
  0
LINE
  8
V1L0
  6
CONTINUOUS
 62
40
 10
1.2903E+002
 20
8.249E+001
 11
1.3031E+002
 21
8.095E+001
  0
LINE
  8
V1L0
  6
CONTINUOUS
 62
40
 10
1.3147E+002
 20
7.801E+001
 11
1.3224E+002
 21
7.866E+001
  0
LINE
  8
V1L0
  6
CONTINUOUS
 62
40
 10
1.2826E+002
 20
8.184E+001
 11
1.2903E+002
 21
8.249E+001
  0
LINE
  8
V1L0
  6
CONTINUOUS
 62
40
 10
1.3031E+002
 20
8.095E+001
 11
1.3258E+002
 21
8.286E+001
  0
LINE
  8
V1L0
  6
CONTINUOUS
 62
40
 10
1.3095E+002
 20
8.019E+001
 11
1.3323E+002
 21
8.209E+001
  0
LINE
  8
V1L0
  6
CONTINUOUS
 62
40
 10
1.3019E+002
 20
7.955E+001
 11
1.3147E+002
 21
7.801E+001
  0
LINE
  8
V1L0
  6
CONTINUOUS
 62
40
 10
1.3095E+002
 20
8.019E+001
 11
1.3224E+002
 21
7.866E+001
  0
LINE
  8
V1L0
  6
CONTINUOUS
 62
40
 10
1.255E+002
 20
7.6E+001
 11
1.255E+002
 21
8.45E+001
  0
LINE
  8
V1L0
  6
CONTINUOUS
 62
40
 10
1.18E+002
 20
7.6E+001
 11
1.255E+002
 21
7.6E+001
  0
LINE
  8
V1L0
  6
CONTINUOUS
 62
40
 10
1.255E+002
 20
7.6E+001
 11
1.29E+002
 21
7.35E+001
  0
LINE
  8
V1L0
  6
CONTINUOUS
 62
40
 10
1.22E+002
 20
7.35E+001
 11
1.22E+002
 21
7.6E+001
  0
LINE
  8
V1L0
  6
CONTINUOUS
 62
40
 10
1.18E+002
 20
8.45E+001
 11
1.255E+002
 21
8.45E+001
  0
LINE
  8
V1L0
  6
CONTINUOUS
 62
40
 10
1.18E+002
 20
7.6E+001
 11
1.18E+002
 21
8.45E+001
  0
LINE
  8
V1L0
  6
CONTINUOUS
 62
40
 10
1.27E+002
 20
7.775E+001
 11
1.27E+002
 21
8.275E+001
  0
LINE
  8
V1L0
  6
CONTINUOUS
 62
40
 10
1.255E+002
 20
7.775E+001
 11
1.27E+002
 21
7.775E+001
  0
LINE
  8
V1L0
  6
CONTINUOUS
 62
40
 10
1.255E+002
 20
8.275E+001
 11
1.27E+002
 21
8.275E+001
  0
CIRCLE
  8
V1L0
  6
CONTINUOUS
 62
40
 10
1.2175237E+002
 20
8.02484E+001
 40
3.5
  0
LINE
  8
V1L0
  6
CONTINUOUS
 62
40
 10
1.2181E+002
 20
7.955E+001
 11
1.2408E+002
 21
7.764E+001
  0
LINE
  8
V1L0
  6
CONTINUOUS
 62
40
 10
1.2245E+002
 20
8.031E+001
 11
1.2473E+002
 21
7.841E+001
  0
LINE
  8
V1L0
  6
CONTINUOUS
 62
40
 10
1.2245E+002
 20
8.031E+001
 11
1.2374E+002
 21
8.184E+001
  0
LINE
  8
V1L0
  6
CONTINUOUS
 62
40
 10
1.2169E+002
 20
8.095E+001
 11
1.2297E+002
 21
8.249E+001
  0
LINE
  8
V1L0
  6
CONTINUOUS
 62
40
 10
1.1976E+002
 20
7.866E+001
 11
1.2053E+002
 21
7.801E+001
  0
LINE
  8
V1L0
  6
CONTINUOUS
 62
40
 10
1.2297E+002
 20
8.249E+001
 11
1.2374E+002
 21
8.184E+001
  0
LINE
  8
V1L0
  6
CONTINUOUS
 62
40
 10
1.1942E+002
 20
8.286E+001
 11
1.2169E+002
 21
8.095E+001
  0
LINE
  8
V1L0
  6
CONTINUOUS
 62
40
 10
1.1877E+002
 20
8.209E+001
 11
1.2105E+002
 21
8.019E+001
  0
LINE
  8
V1L0
  6
CONTINUOUS
 62
40
 10
1.2053E+002
 20
7.801E+001
 11
1.2181E+002
 21
7.955E+001
  0
LINE
  8
V1L0
  6
CONTINUOUS
 62
40
 10
1.1976E+002
 20
7.866E+001
 11
1.2105E+002
 21
8.019E+001
  0
LINE
  8
V1L0
  6
CONTINUOUS
 62
40
 10
1.265E+002
 20
8.275E+001
 11
1.265E+002
 21
8.45E+001
  0
LINE
  8
V1L0
  6
CONTINUOUS
 62
40
 10
1.255E+002
 20
1.825E+001
 11
1.255E+002
 21
2.0E+001
  0
LINE
  8
V1L0
  6
CONTINUOUS
 62
40
 10
1.18E+002
 20
2.0E+001
 11
1.255E+002
 21
2.0E+001
  0
LINE
  8
V1L0
  6
CONTINUOUS
 62
40
 10
1.255E+002
 20
2.0E+001
 11
1.26E+002
 21
2.036E+001
  0
LINE
  8
V1L0
  6
CONTINUOUS
 62
40
 10
1.22E+002
 20
2.0E+001
 11
1.22E+002
 21
2.25E+001
  0
LINE
  8
V1L0
  6
CONTINUOUS
 62
40
 10
1.18E+002
 20
1.15E+001
 11
1.255E+002
 21
1.15E+001
  0
LINE
  8
V1L0
  6
CONTINUOUS
 62
40
 10
1.18E+002
 20
1.15E+001
 11
1.18E+002
 21
2.0E+001
  0
ARC
  8
V1L0
  6
CONTINUOUS
 62
40
 10
1.2175237E+002
 20
1.57484E+001
 40
3.5
 50
2.179E+001
 51
3.3821E+002
  0
LINE
  8
V1L0
  6
CONTINUOUS
 62
40
 10
1.2181E+002
 20
1.645E+001
 11
1.2408E+002
 21
1.836E+001
  0
LINE
  8
V1L0
  6
CONTINUOUS
 62
40
 10
1.2245E+002
 20
1.569E+001
 11
1.2473E+002
 21
1.759E+001
  0
LINE
  8
V1L0
  6
CONTINUOUS
 62
40
 10
1.2245E+002
 20
1.569E+001
 11
1.2374E+002
 21
1.416E+001
  0
LINE
  8
V1L0
  6
CONTINUOUS
 62
40
 10
1.2169E+002
 20
1.505E+001
 11
1.2297E+002
 21
1.351E+001
  0
LINE
  8
V1L0
  6
CONTINUOUS
 62
40
 10
1.1976E+002
 20
1.734E+001
 11
1.2053E+002
 21
1.799E+001
  0
LINE
  8
V1L0
  6
CONTINUOUS
 62
40
 10
1.2297E+002
 20
1.351E+001
 11
1.2374E+002
 21
1.416E+001
  0
LINE
  8
V1L0
  6
CONTINUOUS
 62
40
 10
1.1942E+002
 20
1.314E+001
 11
1.2169E+002
 21
1.505E+001
  0
LINE
  8
V1L0
  6
CONTINUOUS
 62
40
 10
1.1877E+002
 20
1.391E+001
 11
1.2105E+002
 21
1.581E+001
  0
LINE
  8
V1L0
  6
CONTINUOUS
 62
40
 10
1.2053E+002
 20
1.799E+001
 11
1.2181E+002
 21
1.645E+001
  0
LINE
  8
V1L0
  6
CONTINUOUS
 62
40
 10
1.1976E+002
 20
1.734E+001
 11
1.2105E+002
 21
1.581E+001
  0
LINE
  8
V1L0
  6
CONTINUOUS
 62
40
 10
1.265E+002
 20
1.15E+001
 11
1.265E+002
 21
2.0E+001
  0
LINE
  8
V1L0
  6
CONTINUOUS
 62
40
 10
1.265E+002
 20
2.0E+001
 11
1.34E+002
 21
2.0E+001
  0
LINE
  8
V1L0
  6
CONTINUOUS
 62
40
 10
1.23E+002
 20
2.25E+001
 11
1.265E+002
 21
2.0E+001
  0
LINE
  8
V1L0
  6
CONTINUOUS
 62
40
 10
1.3E+002
 20
2.0E+001
 11
1.3E+002
 21
2.25E+001
  0
LINE
  8
V1L0
  6
CONTINUOUS
 62
40
 10
1.265E+002
 20
1.15E+001
 11
1.34E+002
 21
1.15E+001
  0
LINE
  8
V1L0
  6
CONTINUOUS
 62
40
 10
1.34E+002
 20
1.15E+001
 11
1.34E+002
 21
2.0E+001
  0
LINE
  8
V1L0
  6
CONTINUOUS
 62
40
 10
1.25E+002
 20
1.325E+001
 11
1.25E+002
 21
1.825E+001
  0
LINE
  8
V1L0
  6
CONTINUOUS
 62
40
 10
1.25E+002
 20
1.825E+001
 11
1.265E+002
 21
1.825E+001
  0
LINE
  8
V1L0
  6
CONTINUOUS
 62
40
 10
1.25E+002
 20
1.325E+001
 11
1.265E+002
 21
1.325E+001
  0
CIRCLE
  8
V1L0
  6
CONTINUOUS
 62
40
 10
1.3025237E+002
 20
1.57484E+001
 40
3.5
  0
LINE
  8
V1L0
  6
CONTINUOUS
 62
40
 10
1.2792E+002
 20
1.836E+001
 11
1.3019E+002
 21
1.645E+001
  0
LINE
  8
V1L0
  6
CONTINUOUS
 62
40
 10
1.2727E+002
 20
1.759E+001
 11
1.2955E+002
 21
1.569E+001
  0
LINE
  8
V1L0
  6
CONTINUOUS
 62
40
 10
1.2826E+002
 20
1.416E+001
 11
1.2955E+002
 21
1.569E+001
  0
LINE
  8
V1L0
  6
CONTINUOUS
 62
40
 10
1.2903E+002
 20
1.351E+001
 11
1.3031E+002
 21
1.505E+001
  0
LINE
  8
V1L0
  6
CONTINUOUS
 62
40
 10
1.3147E+002
 20
1.799E+001
 11
1.3224E+002
 21
1.734E+001
  0
LINE
  8
V1L0
  6
CONTINUOUS
 62
40
 10
1.2826E+002
 20
1.416E+001
 11
1.2903E+002
 21
1.351E+001
  0
LINE
  8
V1L0
  6
CONTINUOUS
 62
40
 10
1.3031E+002
 20
1.505E+001
 11
1.3258E+002
 21
1.314E+001
  0
LINE
  8
V1L0
  6
CONTINUOUS
 62
40
 10
1.3095E+002
 20
1.581E+001
 11
1.3323E+002
 21
1.391E+001
  0
LINE
  8
V1L0
  6
CONTINUOUS
 62
40
 10
1.3019E+002
 20
1.645E+001
 11
1.3147E+002
 21
1.799E+001
  0
LINE
  8
V1L0
  6
CONTINUOUS
 62
40
 10
1.3095E+002
 20
1.581E+001
 11
1.3224E+002
 21
1.734E+001
  0
LINE
  8
V1L0
  6
CONTINUOUS
 62
40
 10
1.255E+002
 20
1.15E+001
 11
1.255E+002
 21
1.325E+001
  0
LINE
  8
V1L0
  6
CONTINUOUS
 62
40
 10
1.16E+002
 20
7.35E+001
 11
1.36E+002
 21
7.35E+001
  0
LINE
  8
V1L0
  6
CONTINUOUS
 62
40
 10
1.36E+002
 20
2.25E+001
 11
1.36E+002
 21
7.35E+001
  0
LINE
  8
V1L0
  6
CONTINUOUS
 62
40
 10
1.16E+002
 20
2.25E+001
 11
1.36E+002
 21
2.25E+001
  0
LINE
  8
V1L0
  6
CONTINUOUS
 62
40
 10
1.09E+002
 20
3.2E+001
 11
1.16E+002
 21
3.2E+001
  0
LINE
  8
V1L0
  6
CONTINUOUS
 62
40
 10
1.09E+002
 20
2.9E+001
 11
1.09E+002
 21
3.2E+001
  0
LINE
  8
V1L0
  6
CONTINUOUS
 62
40
 10
1.09E+002
 20
2.9E+001
 11
1.16E+002
 21
2.9E+001
  0
LINE
  8
V1L0
  6
CONTINUOUS
 62
40
 10
1.09E+002
 20
6.7E+001
 11
1.16E+002
 21
6.7E+001
  0
LINE
  8
V1L0
  6
CONTINUOUS
 62
40
 10
1.09E+002
 20
6.4E+001
 11
1.09E+002
 21
6.7E+001
  0
LINE
  8
V1L0
  6
CONTINUOUS
 62
40
 10
1.09E+002
 20
6.4E+001
 11
1.16E+002
 21
6.4E+001
  0
LINE
  8
V1L0
  6
CONTINUOUS
 62
40
 10
1.16E+002
 20
2.25E+001
 11
1.16E+002
 21
7.35E+001
  0
LINE
  8
V1L0
  6
CONTINUOUS
 62
40
 10
1.36E+002
 20
1.3555E+002
 11
1.36E+002
 21
1.6055E+002
  0
LINE
  8
V1L0
  6
CONTINUOUS
 62
40
 10
1.16E+002
 20
1.3555E+002
 11
1.16E+002
 21
1.6055E+002
  0
LINE
  8
V1L0
  6
CONTINUOUS
 62
40
 10
1.16E+002
 20
1.6055E+002
 11
1.36E+002
 21
1.6055E+002
  0
LINE
  8
V1L0
  6
CONTINUOUS
 62
40
 10
1.16E+002
 20
1.3555E+002
 11
1.2082E+002
 21
1.3555E+002
  0
LINE
  8
V1L0
  6
CONTINUOUS
 62
40
 10
1.16E+002
 20
1.3705E+002
 11
1.16E+002
 21
1.8805E+002
  0
LINE
  8
V1L0
  6
CONTINUOUS
 62
40
 10
1.265E+002
 20
1.5261E+002
 11
1.265E+002
 21
1.5684E+002
  0
LINE
  8
V1L0
  6
CONTINUOUS
 62
40
 10
1.34E+002
 20
1.5117E+002
 11
1.34E+002
 21
1.5663E+002
  0
LINE
  8
V1L0
  6
CONTINUOUS
 62
40
 10
1.25E+002
 20
1.5117E+002
 11
1.25E+002
 21
1.5684E+002
  0
LINE
  8
V1L0
  6
CONTINUOUS
 62
40
 10
1.25E+002
 20
1.5117E+002
 11
1.34E+002
 21
1.5117E+002
  0
LINE
  8
V1L0
  6
CONTINUOUS
 62
40
 10
1.265E+002
 20
1.5261E+002
 11
1.34E+002
 21
1.5261E+002
  0
LINE
  8
V1L0
  6
CONTINUOUS
 62
40
 10
1.25E+002
 20
1.5553E+002
 11
1.265E+002
 21
1.5553E+002
  0
LINE
  8
V1L0
  6
CONTINUOUS
 62
40
 10
1.25E+002
 20
1.5684E+002
 11
1.265E+002
 21
1.5684E+002
  0
LINE
  8
V1L0
  6
CONTINUOUS
 62
40
 10
1.313E+002
 20
1.5362E+002
 11
1.3351E+002
 21
1.528E+002
  0
LINE
  8
V1L0
  6
CONTINUOUS
 62
40
 10
1.2699E+002
 20
1.528E+002
 11
1.292E+002
 21
1.5362E+002
  0
ARC
  8
V1L0
  6
CONTINUOUS
 62
40
 10
1.3025237E+002
 20
1.508084E+002
 40
3.0
 50
6.96E+001
 51
1.104E+002
  0
ARC
  8
V1L0
  6
CONTINUOUS
 62
40
 10
1.3025237E+002
 20
1.523084E+002
 40
3.0
 50
6.96E+001
 51
1.104E+002
  0
LINE
  8
V1L0
  6
CONTINUOUS
 62
40
 10
1.313E+002
 20
1.5512E+002
 11
1.34E+002
 21
1.5411E+002
  0
LINE
  8
V1L0
  6
CONTINUOUS
 62
40
 10
1.265E+002
 20
1.5411E+002
 11
1.292E+002
 21
1.5512E+002
  0
LINE
  8
V1L0
  6
CONTINUOUS
 62
40
 10
1.3366E+002
 20
1.5676E+002
 11
1.34E+002
 21
1.5663E+002
  0
LINE
  8
V1L0
  6
CONTINUOUS
 62
40
 10
1.265E+002
 20
1.5663E+002
 11
1.2684E+002
 21
1.5676E+002
  0
LINE
  8
V1L0
  6
CONTINUOUS
 62
40
 10
1.3351E+002
 20
1.528E+002
 11
1.34E+002
 21
1.5411E+002
  0
LINE
  8
V1L0
  6
CONTINUOUS
 62
40
 10
1.265E+002
 20
1.5411E+002
 11
1.2699E+002
 21
1.528E+002
  0
LINE
  8
V1L0
  6
CONTINUOUS
 62
40
 10
1.3341E+002
 20
1.5908E+002
 11
1.3366E+002
 21
1.5676E+002
  0
LINE
  8
V1L0
  6
CONTINUOUS
 62
40
 10
1.2684E+002
 20
1.5676E+002
 11
1.2709E+002
 21
1.5908E+002
  0
LINE
  8
V1L0
  6
CONTINUOUS
 62
40
 10
1.3041E+002
 20
1.5853E+002
 11
1.3082E+002
 21
1.5894E+002
  0
LINE
  8
V1L0
  6
CONTINUOUS
 62
40
 10
1.2904E+002
 20
1.5857E+002
 11
1.294E+002
 21
1.5894E+002
  0
LINE
  8
V1L0
  6
CONTINUOUS
 62
40
 10
1.2904E+002
 20
1.5811E+002
 11
1.2904E+002
 21
1.5857E+002
  0
LINE
  8
V1L0
  6
CONTINUOUS
 62
40
 10
1.3041E+002
 20
1.5806E+002
 11
1.3041E+002
 21
1.5853E+002
  0
LINE
  8
V1L0
  6
CONTINUOUS
 62
40
 10
1.3009E+002
 20
1.5916E+002
 11
1.3009E+002
 21
1.5963E+002
  0
LINE
  8
V1L0
  6
CONTINUOUS
 62
40
 10
1.2904E+002
 20
1.5811E+002
 11
1.3009E+002
 21
1.5916E+002
  0
LINE
  8
V1L0
  6
CONTINUOUS
 62
40
 10
1.2825E+002
 20
1.592E+002
 11
1.2966E+002
 21
1.592E+002
  0
LINE
  8
V1L0
  6
CONTINUOUS
 62
40
 10
1.3223E+002
 20
1.5894E+002
 11
1.3249E+002
 21
1.592E+002
  0
LINE
  8
V1L0
  6
CONTINUOUS
 62
40
 10
1.2799E+002
 20
1.5894E+002
 11
1.2825E+002
 21
1.592E+002
  0
LINE
  8
V1L0
  6
CONTINUOUS
 62
40
 10
1.2799E+002
 20
1.5894E+002
 11
1.294E+002
 21
1.5894E+002
  0
LINE
  8
V1L0
  6
CONTINUOUS
 62
40
 10
1.294E+002
 20
1.5847E+002
 11
1.294E+002
 21
1.5894E+002
  0
LINE
  8
V1L0
  6
CONTINUOUS
 62
40
 10
1.2966E+002
 20
1.5873E+002
 11
1.2966E+002
 21
1.592E+002
  0
LINE
  8
V1L0
  6
CONTINUOUS
 62
40
 10
1.3082E+002
 20
1.5894E+002
 11
1.3223E+002
 21
1.5894E+002
  0
LINE
  8
V1L0
  6
CONTINUOUS
 62
40
 10
1.3108E+002
 20
1.592E+002
 11
1.3249E+002
 21
1.592E+002
  0
LINE
  8
V1L0
  6
CONTINUOUS
 62
40
 10
1.2966E+002
 20
1.592E+002
 11
1.3009E+002
 21
1.5963E+002
  0
LINE
  8
V1L0
  6
CONTINUOUS
 62
40
 10
1.3108E+002
 20
1.592E+002
 11
1.3146E+002
 21
1.5959E+002
  0
LINE
  8
V1L0
  6
CONTINUOUS
 62
40
 10
1.294E+002
 20
1.5873E+002
 11
1.2966E+002
 21
1.5873E+002
  0
LINE
  8
V1L0
  6
CONTINUOUS
 62
40
 10
1.3108E+002
 20
1.5894E+002
 11
1.3108E+002
 21
1.592E+002
  0
LINE
  8
V1L0
  6
CONTINUOUS
 62
40
 10
1.1825E+002
 20
1.3761E+002
 11
1.2525E+002
 21
1.3761E+002
  0
LINE
  8
V1L0
  6
CONTINUOUS
 62
40
 10
1.255E+002
 20
1.3905E+002
 11
1.255E+002
 21
1.4328E+002
  0
LINE
  8
V1L0
  6
CONTINUOUS
 62
40
 10
1.18E+002
 20
1.3761E+002
 11
1.18E+002
 21
1.4307E+002
  0
LINE
  8
V1L0
  6
CONTINUOUS
 62
40
 10
1.27E+002
 20
1.3761E+002
 11
1.27E+002
 21
1.4328E+002
  0
LINE
  8
V1L0
  6
CONTINUOUS
 62
40
 10
1.18E+002
 20
1.3761E+002
 11
1.27E+002
 21
1.3761E+002
  0
LINE
  8
V1L0
  6
CONTINUOUS
 62
40
 10
1.18E+002
 20
1.3905E+002
 11
1.255E+002
 21
1.3905E+002
  0
LINE
  8
V1L0
  6
CONTINUOUS
 62
40
 10
1.255E+002
 20
1.4197E+002
 11
1.27E+002
 21
1.4197E+002
  0
LINE
  8
V1L0
  6
CONTINUOUS
 62
40
 10
1.255E+002
 20
1.4328E+002
 11
1.27E+002
 21
1.4328E+002
  0
LINE
  8
V1L0
  6
CONTINUOUS
 62
40
 10
1.1849E+002
 20
1.3924E+002
 11
1.207E+002
 21
1.4006E+002
  0
LINE
  8
V1L0
  6
CONTINUOUS
 62
40
 10
1.228E+002
 20
1.4006E+002
 11
1.2501E+002
 21
1.3924E+002
  0
ARC
  8
V1L0
  6
CONTINUOUS
 62
40
 10
1.2175237E+002
 20
1.372484E+002
 40
3.0
 50
6.96E+001
 51
1.104E+002
  0
ARC
  8
V1L0
  6
CONTINUOUS
 62
40
 10
1.2175237E+002
 20
1.387484E+002
 40
3.0
 50
6.96E+001
 51
1.104E+002
  0
LINE
  8
V1L0
  6
CONTINUOUS
 62
40
 10
1.18E+002
 20
1.4055E+002
 11
1.207E+002
 21
1.4156E+002
  0
LINE
  8
V1L0
  6
CONTINUOUS
 62
40
 10
1.228E+002
 20
1.4156E+002
 11
1.255E+002
 21
1.4055E+002
  0
LINE
  8
V1L0
  6
CONTINUOUS
 62
40
 10
1.18E+002
 20
1.4307E+002
 11
1.1834E+002
 21
1.432E+002
  0
LINE
  8
V1L0
  6
CONTINUOUS
 62
40
 10
1.2516E+002
 20
1.432E+002
 11
1.255E+002
 21
1.4307E+002
  0
LINE
  8
V1L0
  6
CONTINUOUS
 62
40
 10
1.18E+002
 20
1.4055E+002
 11
1.1849E+002
 21
1.3924E+002
  0
LINE
  8
V1L0
  6
CONTINUOUS
 62
40
 10
1.2501E+002
 20
1.3924E+002
 11
1.255E+002
 21
1.4055E+002
  0
LINE
  8
V1L0
  6
CONTINUOUS
 62
40
 10
1.1834E+002
 20
1.432E+002
 11
1.1859E+002
 21
1.4552E+002
  0
LINE
  8
V1L0
  6
CONTINUOUS
 62
40
 10
1.2491E+002
 20
1.4552E+002
 11
1.2516E+002
 21
1.432E+002
  0
LINE
  8
V1L0
  6
CONTINUOUS
 62
40
 10
1.2118E+002
 20
1.4538E+002
 11
1.2159E+002
 21
1.4497E+002
  0
LINE
  8
V1L0
  6
CONTINUOUS
 62
40
 10
1.226E+002
 20
1.4538E+002
 11
1.2296E+002
 21
1.4501E+002
  0
LINE
  8
V1L0
  6
CONTINUOUS
 62
40
 10
1.2296E+002
 20
1.4455E+002
 11
1.2296E+002
 21
1.4501E+002
  0
LINE
  8
V1L0
  6
CONTINUOUS
 62
40
 10
1.2159E+002
 20
1.445E+002
 11
1.2159E+002
 21
1.4497E+002
  0
LINE
  8
V1L0
  6
CONTINUOUS
 62
40
 10
1.2191E+002
 20
1.456E+002
 11
1.2191E+002
 21
1.4607E+002
  0
LINE
  8
V1L0
  6
CONTINUOUS
 62
40
 10
1.2191E+002
 20
1.456E+002
 11
1.2296E+002
 21
1.4455E+002
  0
LINE
  8
V1L0
  6
CONTINUOUS
 62
40
 10
1.2234E+002
 20
1.4564E+002
 11
1.2375E+002
 21
1.4564E+002
  0
LINE
  8
V1L0
  6
CONTINUOUS
 62
40
 10
1.1951E+002
 20
1.4564E+002
 11
1.1977E+002
 21
1.4538E+002
  0
LINE
  8
V1L0
  6
CONTINUOUS
 62
40
 10
1.2375E+002
 20
1.4564E+002
 11
1.2401E+002
 21
1.4538E+002
  0
LINE
  8
V1L0
  6
CONTINUOUS
 62
40
 10
1.226E+002
 20
1.4538E+002
 11
1.2401E+002
 21
1.4538E+002
  0
LINE
  8
V1L0
  6
CONTINUOUS
 62
40
 10
1.226E+002
 20
1.4491E+002
 11
1.226E+002
 21
1.4538E+002
  0
LINE
  8
V1L0
  6
CONTINUOUS
 62
40
 10
1.2234E+002
 20
1.4517E+002
 11
1.2234E+002
 21
1.4564E+002
  0
LINE
  8
V1L0
  6
CONTINUOUS
 62
40
 10
1.1977E+002
 20
1.4538E+002
 11
1.2118E+002
 21
1.4538E+002
  0
LINE
  8
V1L0
  6
CONTINUOUS
 62
40
 10
1.1951E+002
 20
1.4564E+002
 11
1.2092E+002
 21
1.4564E+002
  0
LINE
  8
V1L0
  6
CONTINUOUS
 62
40
 10
1.2191E+002
 20
1.4607E+002
 11
1.2234E+002
 21
1.4564E+002
  0
LINE
  8
V1L0
  6
CONTINUOUS
 62
40
 10
1.2054E+002
 20
1.4603E+002
 11
1.2092E+002
 21
1.4564E+002
  0
LINE
  8
V1L0
  6
CONTINUOUS
 62
40
 10
1.2234E+002
 20
1.4517E+002
 11
1.226E+002
 21
1.4517E+002
  0
LINE
  8
V1L0
  6
CONTINUOUS
 62
40
 10
1.2092E+002
 20
1.4538E+002
 11
1.2092E+002
 21
1.4564E+002
  0
LINE
  8
V1L0
  6
CONTINUOUS
 62
40
 10
1.2025E+002
 20
1.3568E+002
 11
1.2025E+002
 21
1.3761E+002
  0
LINE
  8
V1L0
  6
CONTINUOUS
 62
40
 10
1.2325E+002
 20
1.3568E+002
 11
1.2325E+002
 21
1.3761E+002
  0
LINE
  8
V1L0
  6
CONTINUOUS
 62
40
 10
1.2268E+002
 20
1.3555E+002
 11
1.36E+002
 21
1.3555E+002
  0
LINE
  8
V1L0
  6
CONTINUOUS
 62
40
 10
1.2875E+002
 20
1.4924E+002
 11
1.2875E+002
 21
1.5117E+002
  0
LINE
  8
V1L0
  6
CONTINUOUS
 62
40
 10
1.3175E+002
 20
1.4924E+002
 11
1.3175E+002
 21
1.5117E+002
  0
LINE
  8
V1L0
  6
CONTINUOUS
 62
40
 10
1.36E+002
 20
1.6305E+002
 11
1.36E+002
 21
1.8805E+002
  0
LINE
  8
V1L0
  6
CONTINUOUS
 62
40
 10
1.16E+002
 20
1.8805E+002
 11
1.36E+002
 21
1.8805E+002
  0
LINE
  8
V1L0
  6
CONTINUOUS
 62
40
 10
1.16E+002
 20
1.6305E+002
 11
1.2082E+002
 21
1.6305E+002
  0
LINE
  8
V1L0
  6
CONTINUOUS
 62
40
 10
1.265E+002
 20
1.8011E+002
 11
1.265E+002
 21
1.8434E+002
  0
LINE
  8
V1L0
  6
CONTINUOUS
 62
40
 10
1.34E+002
 20
1.7867E+002
 11
1.34E+002
 21
1.8413E+002
  0
LINE
  8
V1L0
  6
CONTINUOUS
 62
40
 10
1.25E+002
 20
1.7867E+002
 11
1.25E+002
 21
1.8434E+002
  0
LINE
  8
V1L0
  6
CONTINUOUS
 62
40
 10
1.25E+002
 20
1.7867E+002
 11
1.34E+002
 21
1.7867E+002
  0
LINE
  8
V1L0
  6
CONTINUOUS
 62
40
 10
1.265E+002
 20
1.8011E+002
 11
1.34E+002
 21
1.8011E+002
  0
LINE
  8
V1L0
  6
CONTINUOUS
 62
40
 10
1.25E+002
 20
1.8303E+002
 11
1.265E+002
 21
1.8303E+002
  0
LINE
  8
V1L0
  6
CONTINUOUS
 62
40
 10
1.25E+002
 20
1.8434E+002
 11
1.265E+002
 21
1.8434E+002
  0
LINE
  8
V1L0
  6
CONTINUOUS
 62
40
 10
1.313E+002
 20
1.8112E+002
 11
1.3351E+002
 21
1.803E+002
  0
LINE
  8
V1L0
  6
CONTINUOUS
 62
40
 10
1.2699E+002
 20
1.803E+002
 11
1.292E+002
 21
1.8112E+002
  0
ARC
  8
V1L0
  6
CONTINUOUS
 62
40
 10
1.3025237E+002
 20
1.783084E+002
 40
3.0
 50
6.96E+001
 51
1.104E+002
  0
ARC
  8
V1L0
  6
CONTINUOUS
 62
40
 10
1.3025237E+002
 20
1.798084E+002
 40
3.0
 50
6.96E+001
 51
1.104E+002
  0
LINE
  8
V1L0
  6
CONTINUOUS
 62
40
 10
1.313E+002
 20
1.8262E+002
 11
1.34E+002
 21
1.8161E+002
  0
LINE
  8
V1L0
  6
CONTINUOUS
 62
40
 10
1.265E+002
 20
1.8161E+002
 11
1.292E+002
 21
1.8262E+002
  0
LINE
  8
V1L0
  6
CONTINUOUS
 62
40
 10
1.3366E+002
 20
1.8426E+002
 11
1.34E+002
 21
1.8413E+002
  0
LINE
  8
V1L0
  6
CONTINUOUS
 62
40
 10
1.265E+002
 20
1.8413E+002
 11
1.2684E+002
 21
1.8426E+002
  0
LINE
  8
V1L0
  6
CONTINUOUS
 62
40
 10
1.3351E+002
 20
1.803E+002
 11
1.34E+002
 21
1.8161E+002
  0
LINE
  8
V1L0
  6
CONTINUOUS
 62
40
 10
1.265E+002
 20
1.8161E+002
 11
1.2699E+002
 21
1.803E+002
  0
LINE
  8
V1L0
  6
CONTINUOUS
 62
40
 10
1.3341E+002
 20
1.8658E+002
 11
1.3366E+002
 21
1.8426E+002
  0
LINE
  8
V1L0
  6
CONTINUOUS
 62
40
 10
1.2684E+002
 20
1.8426E+002
 11
1.2709E+002
 21
1.8658E+002
  0
LINE
  8
V1L0
  6
CONTINUOUS
 62
40
 10
1.3041E+002
 20
1.8603E+002
 11
1.3082E+002
 21
1.8644E+002
  0
LINE
  8
V1L0
  6
CONTINUOUS
 62
40
 10
1.2904E+002
 20
1.8607E+002
 11
1.294E+002
 21
1.8644E+002
  0
LINE
  8
V1L0
  6
CONTINUOUS
 62
40
 10
1.2904E+002
 20
1.8561E+002
 11
1.2904E+002
 21
1.8607E+002
  0
LINE
  8
V1L0
  6
CONTINUOUS
 62
40
 10
1.3041E+002
 20
1.8556E+002
 11
1.3041E+002
 21
1.8603E+002
  0
LINE
  8
V1L0
  6
CONTINUOUS
 62
40
 10
1.3009E+002
 20
1.8666E+002
 11
1.3009E+002
 21
1.8713E+002
  0
LINE
  8
V1L0
  6
CONTINUOUS
 62
40
 10
1.2904E+002
 20
1.8561E+002
 11
1.3009E+002
 21
1.8666E+002
  0
LINE
  8
V1L0
  6
CONTINUOUS
 62
40
 10
1.2825E+002
 20
1.867E+002
 11
1.2966E+002
 21
1.867E+002
  0
LINE
  8
V1L0
  6
CONTINUOUS
 62
40
 10
1.3223E+002
 20
1.8644E+002
 11
1.3249E+002
 21
1.867E+002
  0
LINE
  8
V1L0
  6
CONTINUOUS
 62
40
 10
1.2799E+002
 20
1.8644E+002
 11
1.2825E+002
 21
1.867E+002
  0
LINE
  8
V1L0
  6
CONTINUOUS
 62
40
 10
1.2799E+002
 20
1.8644E+002
 11
1.294E+002
 21
1.8644E+002
  0
LINE
  8
V1L0
  6
CONTINUOUS
 62
40
 10
1.294E+002
 20
1.8597E+002
 11
1.294E+002
 21
1.8644E+002
  0
LINE
  8
V1L0
  6
CONTINUOUS
 62
40
 10
1.2966E+002
 20
1.8623E+002
 11
1.2966E+002
 21
1.867E+002
  0
LINE
  8
V1L0
  6
CONTINUOUS
 62
40
 10
1.3082E+002
 20
1.8644E+002
 11
1.3223E+002
 21
1.8644E+002
  0
LINE
  8
V1L0
  6
CONTINUOUS
 62
40
 10
1.3108E+002
 20
1.867E+002
 11
1.3249E+002
 21
1.867E+002
  0
LINE
  8
V1L0
  6
CONTINUOUS
 62
40
 10
1.2966E+002
 20
1.867E+002
 11
1.3009E+002
 21
1.8713E+002
  0
LINE
  8
V1L0
  6
CONTINUOUS
 62
40
 10
1.3108E+002
 20
1.867E+002
 11
1.3146E+002
 21
1.8709E+002
  0
LINE
  8
V1L0
  6
CONTINUOUS
 62
40
 10
1.294E+002
 20
1.8623E+002
 11
1.2966E+002
 21
1.8623E+002
  0
LINE
  8
V1L0
  6
CONTINUOUS
 62
40
 10
1.3108E+002
 20
1.8644E+002
 11
1.3108E+002
 21
1.867E+002
  0
LINE
  8
V1L0
  6
CONTINUOUS
 62
40
 10
1.1825E+002
 20
1.6511E+002
 11
1.2525E+002
 21
1.6511E+002
  0
LINE
  8
V1L0
  6
CONTINUOUS
 62
40
 10
1.255E+002
 20
1.6655E+002
 11
1.255E+002
 21
1.7078E+002
  0
LINE
  8
V1L0
  6
CONTINUOUS
 62
40
 10
1.18E+002
 20
1.6511E+002
 11
1.18E+002
 21
1.7057E+002
  0
LINE
  8
V1L0
  6
CONTINUOUS
 62
40
 10
1.27E+002
 20
1.6511E+002
 11
1.27E+002
 21
1.7078E+002
  0
LINE
  8
V1L0
  6
CONTINUOUS
 62
40
 10
1.18E+002
 20
1.6511E+002
 11
1.27E+002
 21
1.6511E+002
  0
LINE
  8
V1L0
  6
CONTINUOUS
 62
40
 10
1.18E+002
 20
1.6655E+002
 11
1.255E+002
 21
1.6655E+002
  0
LINE
  8
V1L0
  6
CONTINUOUS
 62
40
 10
1.255E+002
 20
1.6947E+002
 11
1.27E+002
 21
1.6947E+002
  0
LINE
  8
V1L0
  6
CONTINUOUS
 62
40
 10
1.255E+002
 20
1.7078E+002
 11
1.27E+002
 21
1.7078E+002
  0
LINE
  8
V1L0
  6
CONTINUOUS
 62
40
 10
1.1849E+002
 20
1.6674E+002
 11
1.207E+002
 21
1.6756E+002
  0
LINE
  8
V1L0
  6
CONTINUOUS
 62
40
 10
1.228E+002
 20
1.6756E+002
 11
1.2501E+002
 21
1.6674E+002
  0
ARC
  8
V1L0
  6
CONTINUOUS
 62
40
 10
1.2175237E+002
 20
1.647484E+002
 40
3.0
 50
6.96E+001
 51
1.104E+002
  0
ARC
  8
V1L0
  6
CONTINUOUS
 62
40
 10
1.2175237E+002
 20
1.662484E+002
 40
3.0
 50
6.96E+001
 51
1.104E+002
  0
LINE
  8
V1L0
  6
CONTINUOUS
 62
40
 10
1.18E+002
 20
1.6805E+002
 11
1.207E+002
 21
1.6906E+002
  0
LINE
  8
V1L0
  6
CONTINUOUS
 62
40
 10
1.228E+002
 20
1.6906E+002
 11
1.255E+002
 21
1.6805E+002
  0
LINE
  8
V1L0
  6
CONTINUOUS
 62
40
 10
1.18E+002
 20
1.7057E+002
 11
1.1834E+002
 21
1.707E+002
  0
LINE
  8
V1L0
  6
CONTINUOUS
 62
40
 10
1.2516E+002
 20
1.707E+002
 11
1.255E+002
 21
1.7057E+002
  0
LINE
  8
V1L0
  6
CONTINUOUS
 62
40
 10
1.18E+002
 20
1.6805E+002
 11
1.1849E+002
 21
1.6674E+002
  0
LINE
  8
V1L0
  6
CONTINUOUS
 62
40
 10
1.2501E+002
 20
1.6674E+002
 11
1.255E+002
 21
1.6805E+002
  0
LINE
  8
V1L0
  6
CONTINUOUS
 62
40
 10
1.1834E+002
 20
1.707E+002
 11
1.1859E+002
 21
1.7302E+002
  0
LINE
  8
V1L0
  6
CONTINUOUS
 62
40
 10
1.2491E+002
 20
1.7302E+002
 11
1.2516E+002
 21
1.707E+002
  0
LINE
  8
V1L0
  6
CONTINUOUS
 62
40
 10
1.2118E+002
 20
1.7288E+002
 11
1.2159E+002
 21
1.7247E+002
  0
LINE
  8
V1L0
  6
CONTINUOUS
 62
40
 10
1.226E+002
 20
1.7288E+002
 11
1.2296E+002
 21
1.7251E+002
  0
LINE
  8
V1L0
  6
CONTINUOUS
 62
40
 10
1.2296E+002
 20
1.7205E+002
 11
1.2296E+002
 21
1.7251E+002
  0
LINE
  8
V1L0
  6
CONTINUOUS
 62
40
 10
1.2159E+002
 20
1.72E+002
 11
1.2159E+002
 21
1.7247E+002
  0
LINE
  8
V1L0
  6
CONTINUOUS
 62
40
 10
1.2191E+002
 20
1.731E+002
 11
1.2191E+002
 21
1.7357E+002
  0
LINE
  8
V1L0
  6
CONTINUOUS
 62
40
 10
1.2191E+002
 20
1.731E+002
 11
1.2296E+002
 21
1.7205E+002
  0
LINE
  8
V1L0
  6
CONTINUOUS
 62
40
 10
1.2234E+002
 20
1.7314E+002
 11
1.2375E+002
 21
1.7314E+002
  0
LINE
  8
V1L0
  6
CONTINUOUS
 62
40
 10
1.1951E+002
 20
1.7314E+002
 11
1.1977E+002
 21
1.7288E+002
  0
LINE
  8
V1L0
  6
CONTINUOUS
 62
40
 10
1.2375E+002
 20
1.7314E+002
 11
1.2401E+002
 21
1.7288E+002
  0
LINE
  8
V1L0
  6
CONTINUOUS
 62
40
 10
1.226E+002
 20
1.7288E+002
 11
1.2401E+002
 21
1.7288E+002
  0
LINE
  8
V1L0
  6
CONTINUOUS
 62
40
 10
1.226E+002
 20
1.7241E+002
 11
1.226E+002
 21
1.7288E+002
  0
LINE
  8
V1L0
  6
CONTINUOUS
 62
40
 10
1.2234E+002
 20
1.7267E+002
 11
1.2234E+002
 21
1.7314E+002
  0
LINE
  8
V1L0
  6
CONTINUOUS
 62
40
 10
1.1977E+002
 20
1.7288E+002
 11
1.2118E+002
 21
1.7288E+002
  0
LINE
  8
V1L0
  6
CONTINUOUS
 62
40
 10
1.1951E+002
 20
1.7314E+002
 11
1.2092E+002
 21
1.7314E+002
  0
LINE
  8
V1L0
  6
CONTINUOUS
 62
40
 10
1.2191E+002
 20
1.7357E+002
 11
1.2234E+002
 21
1.7314E+002
  0
LINE
  8
V1L0
  6
CONTINUOUS
 62
40
 10
1.2054E+002
 20
1.7353E+002
 11
1.2092E+002
 21
1.7314E+002
  0
LINE
  8
V1L0
  6
CONTINUOUS
 62
40
 10
1.2234E+002
 20
1.7267E+002
 11
1.226E+002
 21
1.7267E+002
  0
LINE
  8
V1L0
  6
CONTINUOUS
 62
40
 10
1.2092E+002
 20
1.7288E+002
 11
1.2092E+002
 21
1.7314E+002
  0
LINE
  8
V1L0
  6
CONTINUOUS
 62
40
 10
1.2025E+002
 20
1.6318E+002
 11
1.2025E+002
 21
1.6511E+002
  0
LINE
  8
V1L0
  6
CONTINUOUS
 62
40
 10
1.2325E+002
 20
1.6318E+002
 11
1.2325E+002
 21
1.6511E+002
  0
LINE
  8
V1L0
  6
CONTINUOUS
 62
40
 10
1.2268E+002
 20
1.6305E+002
 11
1.36E+002
 21
1.6305E+002
  0
LINE
  8
V1L0
  6
CONTINUOUS
 62
40
 10
1.2875E+002
 20
1.7674E+002
 11
1.2875E+002
 21
1.7867E+002
  0
LINE
  8
V1L0
  6
CONTINUOUS
 62
40
 10
1.3175E+002
 20
1.7674E+002
 11
1.3175E+002
 21
1.7867E+002
  0
LINE
  8
V1L0
  6
CONTINUOUS
 62
40
 10
1.285E+002
 20
1.6055E+002
 11
1.285E+002
 21
1.6305E+002
  0
LINE
  8
V1L0
  6
CONTINUOUS
 62
40
 10
1.235E+002
 20
1.6055E+002
 11
1.235E+002
 21
1.6305E+002
  0
LINE
  8
V1L0
  6
CONTINUOUS
 62
40
 10
1.09E+002
 20
1.768E+002
 11
1.16E+002
 21
1.768E+002
  0
LINE
  8
V1L0
  6
CONTINUOUS
 62
40
 10
2.315E+002
 20
2.25E+001
 11
2.315E+002
 21
7.35E+001
  0
LINE
  8
V1L0
  6
CONTINUOUS
 62
40
 10
2.07E+002
 20
7.35E+001
 11
2.315E+002
 21
7.35E+001
  0
LINE
  8
V1L0
  6
CONTINUOUS
 62
40
 10
2.07E+002
 20
2.25E+001
 11
2.315E+002
 21
2.25E+001
  0
LINE
  8
V1L0
  6
CONTINUOUS
 62
40
 10
2.1205E+002
 20
7.696E+001
 11
2.13E+002
 21
7.35E+001
  0
LINE
  8
V1L0
  6
CONTINUOUS
 62
40
 10
2.0855E+002
 20
8.411E+001
 11
2.1E+002
 21
8.45E+001
  0
LINE
  8
V1L0
  6
CONTINUOUS
 62
40
 10
2.0855E+002
 20
8.411E+001
 11
2.1144E+002
 21
7.35E+001
  0
LINE
  8
V1L0
  6
CONTINUOUS
 62
40
 10
2.1289E+002
 20
8.529E+001
 11
2.1521E+002
 21
7.679E+001
  0
LINE
  8
V1L0
  6
CONTINUOUS
 62
40
 10
2.1564E+002
 20
8.471E+001
 11
2.1728E+002
 21
7.868E+001
  0
LINE
  8
V1L0
  6
CONTINUOUS
 62
40
 10
2.126E+002
 20
7.608E+001
 11
2.1521E+002
 21
7.679E+001
  0
LINE
  8
V1L0
  6
CONTINUOUS
 62
40
 10
2.131E+002
 20
8.454E+001
 11
2.1502E+002
 21
8.507E+001
  0
LINE
  8
V1L0
  6
CONTINUOUS
 62
40
 10
2.15E+002
 20
7.754E+001
 11
2.1693E+002
 21
7.807E+001
  0
ARC
  8
V1L0
  6
CONTINUOUS
 62
40
 10
2.1516237E+002
 20
8.45784E+001
 40
5.0E-001
 50
1.526E+001
 51
1.0526E+002
  0
ARC
  8
V1L0
  6
CONTINUOUS
 62
40
 10
2.1680237E+002
 20
7.85484E+001
 40
5.0E-001
 50
2.8526E+002
 51
3.7526E+002
  0
LINE
  8
V1L0
  6
CONTINUOUS
 62
40
 10
2.1026E+002
 20
8.354E+001
 11
2.1029E+002
 21
8.458E+001
  0
LINE
  8
V1L0
  6
CONTINUOUS
 62
40
 10
2.1029E+002
 20
8.458E+001
 11
2.1289E+002
 21
8.529E+001
  0
LINE
  8
V1L0
  6
CONTINUOUS
 62
40
 10
2.1205E+002
 20
7.696E+001
 11
2.126E+002
 21
7.608E+001
  0
LINE
  8
V1L0
  6
CONTINUOUS
 62
40
 10
2.1E+002
 20
8.45E+001
 11
2.105E+002
 21
8.266E+001
  0
LINE
  8
V1L0
  6
CONTINUOUS
 62
40
 10
2.2561E+002
 20
7.696E+001
 11
2.2656E+002
 21
7.35E+001
  0
LINE
  8
V1L0
  6
CONTINUOUS
 62
40
 10
2.2211E+002
 20
8.411E+001
 11
2.2356E+002
 21
8.45E+001
  0
LINE
  8
V1L0
  6
CONTINUOUS
 62
40
 10
2.2211E+002
 20
8.411E+001
 11
2.25E+002
 21
7.35E+001
  0
LINE
  8
V1L0
  6
CONTINUOUS
 62
40
 10
2.2645E+002
 20
8.529E+001
 11
2.2877E+002
 21
7.679E+001
  0
LINE
  8
V1L0
  6
CONTINUOUS
 62
40
 10
2.292E+002
 20
8.471E+001
 11
2.3084E+002
 21
7.868E+001
  0
LINE
  8
V1L0
  6
CONTINUOUS
 62
40
 10
2.2616E+002
 20
7.608E+001
 11
2.2877E+002
 21
7.679E+001
  0
LINE
  8
V1L0
  6
CONTINUOUS
 62
40
 10
2.2666E+002
 20
8.454E+001
 11
2.2858E+002
 21
8.507E+001
  0
LINE
  8
V1L0
  6
CONTINUOUS
 62
40
 10
2.2856E+002
 20
7.754E+001
 11
2.3049E+002
 21
7.807E+001
  0
ARC
  8
V1L0
  6
CONTINUOUS
 62
40
 10
2.2872237E+002
 20
8.45784E+001
 40
5.0E-001
 50
1.526E+001
 51
1.0526E+002
  0
ARC
  8
V1L0
  6
CONTINUOUS
 62
40
 10
2.3036237E+002
 20
7.85484E+001
 40
5.0E-001
 50
2.8526E+002
 51
3.7526E+002
  0
LINE
  8
V1L0
  6
CONTINUOUS
 62
40
 10
2.2382E+002
 20
8.354E+001
 11
2.2385E+002
 21
8.458E+001
  0
LINE
  8
V1L0
  6
CONTINUOUS
 62
40
 10
2.2385E+002
 20
8.458E+001
 11
2.2645E+002
 21
8.529E+001
  0
LINE
  8
V1L0
  6
CONTINUOUS
 62
40
 10
2.2561E+002
 20
7.696E+001
 11
2.2616E+002
 21
7.608E+001
  0
LINE
  8
V1L0
  6
CONTINUOUS
 62
40
 10
2.2356E+002
 20
8.45E+001
 11
2.2561E+002
 21
7.696E+001
  0
LINE
  8
V1L0
  6
CONTINUOUS
 62
40
 10
2.1291E+002
 20
8.332E+001
 11
2.1423E+002
 21
7.85E+001
  0
LINE
  8
V1L0
  6
CONTINUOUS
 62
40
 10
2.1037E+002
 20
7.744E+001
 11
2.1423E+002
 21
7.85E+001
  0
LINE
  8
V1L0
  6
CONTINUOUS
 62
40
 10
2.0905E+002
 20
8.227E+001
 11
2.1291E+002
 21
8.332E+001
  0
LINE
  8
V1L0
  6
CONTINUOUS
 62
40
 10
2.2077E+002
 20
7.762E+001
 11
2.2366E+002
 21
7.841E+001
  0
LINE
  8
V1L0
  6
CONTINUOUS
 62
40
 10
2.1998E+002
 20
8.051E+001
 11
2.2287E+002
 21
8.13E+001
  0
LINE
  8
V1L0
  6
CONTINUOUS
 62
40
 10
2.1998E+002
 20
8.051E+001
 11
2.2077E+002
 21
7.762E+001
  0
LINE
  8
V1L0
  6
CONTINUOUS
 62
40
 10
2.1026E+002
 20
1.246E+001
 11
2.13E+002
 21
2.25E+001
  0
LINE
  8
V1L0
  6
CONTINUOUS
 62
40
 10
2.0855E+002
 20
1.189E+001
 11
2.1E+002
 21
1.15E+001
  0
LINE
  8
V1L0
  6
CONTINUOUS
 62
40
 10
2.0855E+002
 20
1.189E+001
 11
2.1144E+002
 21
2.25E+001
  0
LINE
  8
V1L0
  6
CONTINUOUS
 62
40
 10
2.1289E+002
 20
1.071E+001
 11
2.1521E+002
 21
1.921E+001
  0
LINE
  8
V1L0
  6
CONTINUOUS
 62
40
 10
2.1564E+002
 20
1.129E+001
 11
2.1728E+002
 21
1.732E+001
  0
LINE
  8
V1L0
  6
CONTINUOUS
 62
40
 10
2.126E+002
 20
1.992E+001
 11
2.1521E+002
 21
1.921E+001
  0
LINE
  8
V1L0
  6
CONTINUOUS
 62
40
 10
2.131E+002
 20
1.146E+001
 11
2.1502E+002
 21
1.093E+001
  0
LINE
  8
V1L0
  6
CONTINUOUS
 62
40
 10
2.15E+002
 20
1.846E+001
 11
2.1693E+002
 21
1.793E+001
  0
ARC
  8
V1L0
  6
CONTINUOUS
 62
40
 10
2.1516237E+002
 20
1.14184E+001
 40
5.0E-001
 50
2.5474E+002
 51
3.4474E+002
  0
ARC
  8
V1L0
  6
CONTINUOUS
 62
40
 10
2.1680237E+002
 20
1.74484E+001
 40
5.0E-001
 50
3.4474E+002
 51
4.3474E+002
  0
LINE
  8
V1L0
  6
CONTINUOUS
 62
40
 10
2.1026E+002
 20
1.246E+001
 11
2.1029E+002
 21
1.142E+001
  0
LINE
  8
V1L0
  6
CONTINUOUS
 62
40
 10
2.1029E+002
 20
1.142E+001
 11
2.1289E+002
 21
1.071E+001
  0
LINE
  8
V1L0
  6
CONTINUOUS
 62
40
 10
2.1205E+002
 20
1.904E+001
 11
2.126E+002
 21
1.992E+001
  0
LINE
  8
V1L0
  6
CONTINUOUS
 62
40
 10
2.1E+002
 20
1.15E+001
 11
2.1026E+002
 21
1.246E+001
  0
LINE
  8
V1L0
  6
CONTINUOUS
 62
40
 10
2.2561E+002
 20
1.904E+001
 11
2.2656E+002
 21
2.25E+001
  0
LINE
  8
V1L0
  6
CONTINUOUS
 62
40
 10
2.2211E+002
 20
1.189E+001
 11
2.2356E+002
 21
1.15E+001
  0
LINE
  8
V1L0
  6
CONTINUOUS
 62
40
 10
2.2211E+002
 20
1.189E+001
 11
2.25E+002
 21
2.25E+001
  0
LINE
  8
V1L0
  6
CONTINUOUS
 62
40
 10
2.2645E+002
 20
1.071E+001
 11
2.2877E+002
 21
1.921E+001
  0
LINE
  8
V1L0
  6
CONTINUOUS
 62
40
 10
2.292E+002
 20
1.129E+001
 11
2.3084E+002
 21
1.732E+001
  0
LINE
  8
V1L0
  6
CONTINUOUS
 62
40
 10
2.2616E+002
 20
1.992E+001
 11
2.2877E+002
 21
1.921E+001
  0
LINE
  8
V1L0
  6
CONTINUOUS
 62
40
 10
2.2666E+002
 20
1.146E+001
 11
2.2858E+002
 21
1.093E+001
  0
LINE
  8
V1L0
  6
CONTINUOUS
 62
40
 10
2.2856E+002
 20
1.846E+001
 11
2.3049E+002
 21
1.793E+001
  0
ARC
  8
V1L0
  6
CONTINUOUS
 62
40
 10
2.2872237E+002
 20
1.14184E+001
 40
5.0E-001
 50
2.5474E+002
 51
3.4474E+002
  0
ARC
  8
V1L0
  6
CONTINUOUS
 62
40
 10
2.3036237E+002
 20
1.74484E+001
 40
5.0E-001
 50
3.4474E+002
 51
4.3474E+002
  0
LINE
  8
V1L0
  6
CONTINUOUS
 62
40
 10
2.2382E+002
 20
1.246E+001
 11
2.2385E+002
 21
1.142E+001
  0
LINE
  8
V1L0
  6
CONTINUOUS
 62
40
 10
2.2385E+002
 20
1.142E+001
 11
2.2645E+002
 21
1.071E+001
  0
LINE
  8
V1L0
  6
CONTINUOUS
 62
40
 10
2.2561E+002
 20
1.904E+001
 11
2.2616E+002
 21
1.992E+001
  0
LINE
  8
V1L0
  6
CONTINUOUS
 62
40
 10
2.2356E+002
 20
1.15E+001
 11
2.2406E+002
 21
1.334E+001
  0
LINE
  8
V1L0
  6
CONTINUOUS
 62
40
 10
2.2647E+002
 20
1.268E+001
 11
2.2779E+002
 21
1.75E+001
  0
LINE
  8
V1L0
  6
CONTINUOUS
 62
40
 10
2.2393E+002
 20
1.856E+001
 11
2.2779E+002
 21
1.75E+001
  0
LINE
  8
V1L0
  6
CONTINUOUS
 62
40
 10
2.2261E+002
 20
1.373E+001
 11
2.2647E+002
 21
1.268E+001
  0
LINE
  8
V1L0
  6
CONTINUOUS
 62
40
 10
2.2077E+002
 20
1.838E+001
 11
2.2366E+002
 21
1.759E+001
  0
LINE
  8
V1L0
  6
CONTINUOUS
 62
40
 10
2.1998E+002
 20
1.549E+001
 11
2.2287E+002
 21
1.47E+001
  0
LINE
  8
V1L0
  6
CONTINUOUS
 62
40
 10
2.1998E+002
 20
1.549E+001
 11
2.2077E+002
 21
1.838E+001
  0
LINE
  8
V1L0
  6
CONTINUOUS
 62
40
 10
2.59E+002
 20
2.25E+001
 11
2.59E+002
 21
7.35E+001
  0
LINE
  8
V1L0
  6
CONTINUOUS
 62
40
 10
2.34E+002
 20
7.35E+001
 11
2.59E+002
 21
7.35E+001
  0
LINE
  8
V1L0
  6
CONTINUOUS
 62
40
 10
2.34E+002
 20
2.25E+001
 11
2.59E+002
 21
2.25E+001
  0
LINE
  8
V1L0
  6
CONTINUOUS
 62
40
 10
2.3955E+002
 20
7.696E+001
 11
2.405E+002
 21
7.35E+001
  0
LINE
  8
V1L0
  6
CONTINUOUS
 62
40
 10
2.3605E+002
 20
8.411E+001
 11
2.375E+002
 21
8.45E+001
  0
LINE
  8
V1L0
  6
CONTINUOUS
 62
40
 10
2.3605E+002
 20
8.411E+001
 11
2.3894E+002
 21
7.35E+001
  0
LINE
  8
V1L0
  6
CONTINUOUS
 62
40
 10
2.4039E+002
 20
8.529E+001
 11
2.4271E+002
 21
7.679E+001
  0
LINE
  8
V1L0
  6
CONTINUOUS
 62
40
 10
2.4314E+002
 20
8.471E+001
 11
2.4478E+002
 21
7.868E+001
  0
LINE
  8
V1L0
  6
CONTINUOUS
 62
40
 10
2.401E+002
 20
7.608E+001
 11
2.4271E+002
 21
7.679E+001
  0
LINE
  8
V1L0
  6
CONTINUOUS
 62
40
 10
2.406E+002
 20
8.454E+001
 11
2.4252E+002
 21
8.507E+001
  0
LINE
  8
V1L0
  6
CONTINUOUS
 62
40
 10
2.425E+002
 20
7.754E+001
 11
2.4443E+002
 21
7.807E+001
  0
ARC
  8
V1L0
  6
CONTINUOUS
 62
40
 10
2.4266237E+002
 20
8.45784E+001
 40
5.0E-001
 50
1.526E+001
 51
1.0526E+002
  0
ARC
  8
V1L0
  6
CONTINUOUS
 62
40
 10
2.4430237E+002
 20
7.85484E+001
 40
5.0E-001
 50
2.8526E+002
 51
3.7526E+002
  0
LINE
  8
V1L0
  6
CONTINUOUS
 62
40
 10
2.3776E+002
 20
8.354E+001
 11
2.3779E+002
 21
8.458E+001
  0
LINE
  8
V1L0
  6
CONTINUOUS
 62
40
 10
2.3779E+002
 20
8.458E+001
 11
2.4039E+002
 21
8.529E+001
  0
LINE
  8
V1L0
  6
CONTINUOUS
 62
40
 10
2.3955E+002
 20
7.696E+001
 11
2.401E+002
 21
7.608E+001
  0
LINE
  8
V1L0
  6
CONTINUOUS
 62
40
 10
2.375E+002
 20
8.45E+001
 11
2.38E+002
 21
8.266E+001
  0
LINE
  8
V1L0
  6
CONTINUOUS
 62
40
 10
2.3471E+002
 20
7.762E+001
 11
2.376E+002
 21
7.841E+001
  0
LINE
  8
V1L0
  6
CONTINUOUS
 62
40
 10
2.3392E+002
 20
8.051E+001
 11
2.3681E+002
 21
8.13E+001
  0
LINE
  8
V1L0
  6
CONTINUOUS
 62
40
 10
2.5311E+002
 20
7.696E+001
 11
2.5406E+002
 21
7.35E+001
  0
LINE
  8
V1L0
  6
CONTINUOUS
 62
40
 10
2.4961E+002
 20
8.411E+001
 11
2.5106E+002
 21
8.45E+001
  0
LINE
  8
V1L0
  6
CONTINUOUS
 62
40
 10
2.4961E+002
 20
8.411E+001
 11
2.525E+002
 21
7.35E+001
  0
LINE
  8
V1L0
  6
CONTINUOUS
 62
40
 10
2.5395E+002
 20
8.529E+001
 11
2.5627E+002
 21
7.679E+001
  0
LINE
  8
V1L0
  6
CONTINUOUS
 62
40
 10
2.567E+002
 20
8.471E+001
 11
2.5834E+002
 21
7.868E+001
  0
LINE
  8
V1L0
  6
CONTINUOUS
 62
40
 10
2.5366E+002
 20
7.608E+001
 11
2.5627E+002
 21
7.679E+001
  0
LINE
  8
V1L0
  6
CONTINUOUS
 62
40
 10
2.5416E+002
 20
8.454E+001
 11
2.5608E+002
 21
8.507E+001
  0
LINE
  8
V1L0
  6
CONTINUOUS
 62
40
 10
2.5606E+002
 20
7.754E+001
 11
2.5799E+002
 21
7.807E+001
  0
ARC
  8
V1L0
  6
CONTINUOUS
 62
40
 10
2.5622237E+002
 20
8.45784E+001
 40
5.0E-001
 50
1.526E+001
 51
1.0526E+002
  0
ARC
  8
V1L0
  6
CONTINUOUS
 62
40
 10
2.5786237E+002
 20
7.85484E+001
 40
5.0E-001
 50
2.8526E+002
 51
3.7526E+002
  0
LINE
  8
V1L0
  6
CONTINUOUS
 62
40
 10
2.5132E+002
 20
8.354E+001
 11
2.5135E+002
 21
8.458E+001
  0
LINE
  8
V1L0
  6
CONTINUOUS
 62
40
 10
2.5135E+002
 20
8.458E+001
 11
2.5395E+002
 21
8.529E+001
  0
LINE
  8
V1L0
  6
CONTINUOUS
 62
40
 10
2.5311E+002
 20
7.696E+001
 11
2.5366E+002
 21
7.608E+001
  0
LINE
  8
V1L0
  6
CONTINUOUS
 62
40
 10
2.5106E+002
 20
8.45E+001
 11
2.5311E+002
 21
7.696E+001
  0
LINE
  8
V1L0
  6
CONTINUOUS
 62
40
 10
2.4041E+002
 20
8.332E+001
 11
2.4173E+002
 21
7.85E+001
  0
LINE
  8
V1L0
  6
CONTINUOUS
 62
40
 10
2.3787E+002
 20
7.744E+001
 11
2.4173E+002
 21
7.85E+001
  0
LINE
  8
V1L0
  6
CONTINUOUS
 62
40
 10
2.3655E+002
 20
8.227E+001
 11
2.4041E+002
 21
8.332E+001
  0
LINE
  8
V1L0
  6
CONTINUOUS
 62
40
 10
2.4827E+002
 20
7.762E+001
 11
2.5116E+002
 21
7.841E+001
  0
LINE
  8
V1L0
  6
CONTINUOUS
 62
40
 10
2.4748E+002
 20
8.051E+001
 11
2.5037E+002
 21
8.13E+001
  0
LINE
  8
V1L0
  6
CONTINUOUS
 62
40
 10
2.4748E+002
 20
8.051E+001
 11
2.4827E+002
 21
7.762E+001
  0
LINE
  8
V1L0
  6
CONTINUOUS
 62
40
 10
2.3955E+002
 20
1.904E+001
 11
2.405E+002
 21
2.25E+001
  0
LINE
  8
V1L0
  6
CONTINUOUS
 62
40
 10
2.3605E+002
 20
1.189E+001
 11
2.375E+002
 21
1.15E+001
  0
LINE
  8
V1L0
  6
CONTINUOUS
 62
40
 10
2.3605E+002
 20
1.189E+001
 11
2.3894E+002
 21
2.25E+001
  0
LINE
  8
V1L0
  6
CONTINUOUS
 62
40
 10
2.4039E+002
 20
1.071E+001
 11
2.4271E+002
 21
1.921E+001
  0
LINE
  8
V1L0
  6
CONTINUOUS
 62
40
 10
2.4314E+002
 20
1.129E+001
 11
2.4478E+002
 21
1.732E+001
  0
LINE
  8
V1L0
  6
CONTINUOUS
 62
40
 10
2.401E+002
 20
1.992E+001
 11
2.4271E+002
 21
1.921E+001
  0
LINE
  8
V1L0
  6
CONTINUOUS
 62
40
 10
2.406E+002
 20
1.146E+001
 11
2.4252E+002
 21
1.093E+001
  0
LINE
  8
V1L0
  6
CONTINUOUS
 62
40
 10
2.425E+002
 20
1.846E+001
 11
2.4443E+002
 21
1.793E+001
  0
ARC
  8
V1L0
  6
CONTINUOUS
 62
40
 10
2.4266237E+002
 20
1.14184E+001
 40
5.0E-001
 50
2.5474E+002
 51
3.4474E+002
  0
ARC
  8
V1L0
  6
CONTINUOUS
 62
40
 10
2.4430237E+002
 20
1.74484E+001
 40
5.0E-001
 50
3.4474E+002
 51
4.3474E+002
  0
LINE
  8
V1L0
  6
CONTINUOUS
 62
40
 10
2.3776E+002
 20
1.246E+001
 11
2.3779E+002
 21
1.142E+001
  0
LINE
  8
V1L0
  6
CONTINUOUS
 62
40
 10
2.3779E+002
 20
1.142E+001
 11
2.4039E+002
 21
1.071E+001
  0
LINE
  8
V1L0
  6
CONTINUOUS
 62
40
 10
2.3955E+002
 20
1.904E+001
 11
2.401E+002
 21
1.992E+001
  0
LINE
  8
V1L0
  6
CONTINUOUS
 62
40
 10
2.375E+002
 20
1.15E+001
 11
2.3981E+002
 21
2.0E+001
  0
LINE
  8
V1L0
  6
CONTINUOUS
 62
40
 10
2.3471E+002
 20
1.838E+001
 11
2.376E+002
 21
1.759E+001
  0
LINE
  8
V1L0
  6
CONTINUOUS
 62
40
 10
2.3392E+002
 20
1.549E+001
 11
2.3681E+002
 21
1.47E+001
  0
LINE
  8
V1L0
  6
CONTINUOUS
 62
40
 10
2.5311E+002
 20
1.904E+001
 11
2.5406E+002
 21
2.25E+001
  0
LINE
  8
V1L0
  6
CONTINUOUS
 62
40
 10
2.4961E+002
 20
1.189E+001
 11
2.5106E+002
 21
1.15E+001
  0
LINE
  8
V1L0
  6
CONTINUOUS
 62
40
 10
2.4961E+002
 20
1.189E+001
 11
2.525E+002
 21
2.25E+001
  0
LINE
  8
V1L0
  6
CONTINUOUS
 62
40
 10
2.5395E+002
 20
1.071E+001
 11
2.5627E+002
 21
1.921E+001
  0
LINE
  8
V1L0
  6
CONTINUOUS
 62
40
 10
2.567E+002
 20
1.129E+001
 11
2.5834E+002
 21
1.732E+001
  0
LINE
  8
V1L0
  6
CONTINUOUS
 62
40
 10
2.5366E+002
 20
1.992E+001
 11
2.5627E+002
 21
1.921E+001
  0
LINE
  8
V1L0
  6
CONTINUOUS
 62
40
 10
2.5416E+002
 20
1.146E+001
 11
2.5608E+002
 21
1.093E+001
  0
LINE
  8
V1L0
  6
CONTINUOUS
 62
40
 10
2.5606E+002
 20
1.846E+001
 11
2.5799E+002
 21
1.793E+001
  0
ARC
  8
V1L0
  6
CONTINUOUS
 62
40
 10
2.5622237E+002
 20
1.14184E+001
 40
5.0E-001
 50
2.5474E+002
 51
3.4474E+002
  0
ARC
  8
V1L0
  6
CONTINUOUS
 62
40
 10
2.5786237E+002
 20
1.74484E+001
 40
5.0E-001
 50
3.4474E+002
 51
4.3474E+002
  0
LINE
  8
V1L0
  6
CONTINUOUS
 62
40
 10
2.5132E+002
 20
1.246E+001
 11
2.5135E+002
 21
1.142E+001
  0
LINE
  8
V1L0
  6
CONTINUOUS
 62
40
 10
2.5135E+002
 20
1.142E+001
 11
2.5395E+002
 21
1.071E+001
  0
LINE
  8
V1L0
  6
CONTINUOUS
 62
40
 10
2.5311E+002
 20
1.904E+001
 11
2.5366E+002
 21
1.992E+001
  0
LINE
  8
V1L0
  6
CONTINUOUS
 62
40
 10
2.5106E+002
 20
1.15E+001
 11
2.5156E+002
 21
1.334E+001
  0
LINE
  8
V1L0
  6
CONTINUOUS
 62
40
 10
2.5397E+002
 20
1.268E+001
 11
2.5529E+002
 21
1.75E+001
  0
LINE
  8
V1L0
  6
CONTINUOUS
 62
40
 10
2.5143E+002
 20
1.856E+001
 11
2.5529E+002
 21
1.75E+001
  0
LINE
  8
V1L0
  6
CONTINUOUS
 62
40
 10
2.5011E+002
 20
1.373E+001
 11
2.5397E+002
 21
1.268E+001
  0
LINE
  8
V1L0
  6
CONTINUOUS
 62
40
 10
2.4827E+002
 20
1.838E+001
 11
2.5116E+002
 21
1.759E+001
  0
LINE
  8
V1L0
  6
CONTINUOUS
 62
40
 10
2.4748E+002
 20
1.549E+001
 11
2.5037E+002
 21
1.47E+001
  0
LINE
  8
V1L0
  6
CONTINUOUS
 62
40
 10
2.4748E+002
 20
1.549E+001
 11
2.4827E+002
 21
1.838E+001
  0
LINE
  8
V1L0
  6
CONTINUOUS
 62
40
 10
2.34E+002
 20
2.25E+001
 11
2.34E+002
 21
7.35E+001
  0
LINE
  8
V1L0
  6
CONTINUOUS
 62
40
 10
2.3392E+002
 20
8.051E+001
 11
2.3471E+002
 21
7.762E+001
  0
LINE
  8
V1L0
  6
CONTINUOUS
 62
40
 10
2.3392E+002
 20
1.549E+001
 11
2.3471E+002
 21
1.838E+001
  0
LINE
  8
V1L0
  6
CONTINUOUS
 62
40
 10
2.315E+002
 20
4.55E+001
 11
2.34E+002
 21
4.55E+001
  0
LINE
  8
V1L0
  6
CONTINUOUS
 62
40
 10
2.315E+002
 20
5.05E+001
 11
2.34E+002
 21
5.05E+001
  0
LINE
  8
V1L0
  6
CONTINUOUS
 62
40
 10
2.08E+002
 20
7.35E+001
 11
2.08E+002
 21
7.783E+001
  0
LINE
  8
V1L0
  6
CONTINUOUS
 62
40
 10
2.08E+002
 20
8.094E+001
 11
2.08E+002
 21
9.5E+001
  0
LINE
  8
V1L0
  6
CONTINUOUS
 62
40
 10
2.08E+002
 20
1.817E+001
 11
2.08E+002
 21
2.25E+001
  0
LINE
  8
V1L0
  6
CONTINUOUS
 62
40
 10
2.3931E+002
 20
7.784E+001
 11
2.3955E+002
 21
7.696E+001
  0
LINE
  8
V1L0
  6
CONTINUOUS
 62
40
 10
2.1181E+002
 20
7.784E+001
 11
2.1205E+002
 21
7.696E+001
  0
LINE
  8
V1L0
  6
CONTINUOUS
 62
40
 10
2.2537E+002
 20
1.816E+001
 11
2.2561E+002
 21
1.904E+001
  0
LINE
  8
V1L0
  6
CONTINUOUS
 62
40
 10
2.5287E+002
 20
1.816E+001
 11
2.5311E+002
 21
1.904E+001
  0
ENDSEC
  0
EOF
