  0
SECTION
  2
HEADER
  9
$ACADVER
  1
AC1009
  9
$DWGCODEPAGE
  3
iso8859-1
  9
$INSBASE
 10
0.0
 20
0.0
 30
0.0
  9
$EXTMIN
 10
1.0E20
 20
1.0E20
  9
$EXTMAX
 10
-1.0E20
 20
-1.0E20
  9
$LIMMIN
 10
0.0
 20
0.0
  9
$LIMMAX
 10
12.0
 20
9.0
  9
$ORTHOMODE
 70
     0
  9
$REGENMODE
 70
     1
  9
$FILLMODE
 70
     1
  9
$QTEXTMODE
 70
     0
  9
$MIRRTEXT
 70
     1
  9
$DRAGMODE
 70
     2
  9
$LTSCALE
 40
15.0
  9
$OSMODE
 70
     0
  9
$ATTMODE
 70
     1
  9
$TEXTSIZE
 40
0.2
  9
$TRACEWID
 40
0.05
  9
$TEXTSTYLE
  7
STANDARD
  9
$CLAYER
  8
0
  9
$CELTYPE
  6
DASHED
  9
$CECOLOR
 62
   256
  9
$DIMSCALE
 40
1.0
  9
$DIMASZ
 40
0.18
  9
$DIMEXO
 40
0.0625
  9
$DIMDLI
 40
0.38
  9
$DIMRND
 40
0.0
  9
$DIMDLE
 40
0.0
  9
$DIMEXE
 40
0.18
  9
$DIMTP
 40
0.0
  9
$DIMTM
 40
0.0
  9
$DIMTXT
 40
0.18
  9
$DIMCEN
 40
0.09
  9
$DIMTSZ
 40
0.0
  9
$DIMTOL
 70
     0
  9
$DIMLIM
 70
     0
  9
$DIMTIH
 70
     1
  9
$DIMTOH
 70
     1
  9
$DIMSE1
 70
     0
  9
$DIMSE2
 70
     0
  9
$DIMTAD
 70
     0
  9
$DIMZIN
 70
     0
  9
$DIMBLK
  1

  9
$DIMASO
 70
     1
  9
$DIMSHO
 70
     1
  9
$DIMPOST
  1

  9
$DIMAPOST
  1

  9
$DIMALT
 70
     0
  9
$DIMALTD
 70
     2
  9
$DIMALTF
 40
25.4
  9
$DIMLFAC
 40
1.0
  9
$DIMTOFL
 70
     0
  9
$DIMTVP
 40
0.0
  9
$DIMTIX
 70
     0
  9
$DIMSOXD
 70
     0
  9
$DIMSAH
 70
     0
  9
$DIMBLK1
  1

  9
$DIMBLK2
  1

  9
$DIMSTYLE
  2
STANDARD
  9
$DIMCLRD
 70
     0
  9
$DIMCLRE
 70
     0
  9
$DIMCLRT
 70
     0
  9
$DIMTFAC
 40
1.0
  9
$DIMGAP
 40
0.09
  9
$LUNITS
 70
     2
  9
$LUPREC
 70
     4
  9
$AXISMODE
 70
     0
  9
$AXISUNIT
 10
0.0
 20
0.0
  9
$SKETCHINC
 40
0.1
  9
$FILLETRAD
 40
0.0
  9
$AUNITS
 70
     0
  9
$AUPREC
 70
     0
  9
$MENU
  1
acad
  9
$ELEVATION
 40
0.0
  9
$PELEVATION
 40
0.0
  9
$THICKNESS
 40
0.0
  9
$LIMCHECK
 70
     0
  9
$BLIPMODE
 70
     1
  9
$CHAMFERA
 40
0.0
  9
$CHAMFERB
 40
0.0
  9
$SKPOLY
 70
     0
  9
$TDCREATE
 40
0.000000000
  9
$TDUPDATE
 40
0.000000000
  9
$TDINDWG
 40
0.0
  9
$TDUSRTIMER
 40
0.0
  9
$USRTIMER
 70
     1
  9
$ANGBASE
 50
0.0
  9
$ANGDIR
 70
     0
  9
$PDMODE
 70
     0
  9
$PDSIZE
 40
0.0
  9
$PLINEWID
 40
0.0
  9
$COORDS
 70
     1
  9
$SPLFRAME
 70
     0
  9
$SPLINETYPE
 70
     6
  9
$SPLINESEGS
 70
     8
  9
$ATTDIA
 70
     0
  9
$ATTREQ
 70
     1
  9
$HANDLING
 70
     1
  9
$HANDSEED
  5
   661
  9
$SURFTAB1
 70
     6
  9
$SURFTAB2
 70
     6
  9
$SURFTYPE
 70
     6
  9
$SURFU
 70
     6
  9
$SURFV
 70
     6
  9
$UCSNAME
  2

  9
$UCSORG
 10
0.0
 20
0.0
 30
0.0
  9
$UCSXDIR
 10
1.0
 20
0.0
 30
0.0
  9
$UCSYDIR
 10
0.0
 20
1.0
 30
0.0
  9
$PUCSNAME
  2

  9
$PUCSORG
 10
0.0
 20
0.0
 30
0.0
  9
$PUCSXDIR
 10
1.0
 20
0.0
 30
0.0
  9
$PUCSYDIR
 10
0.0
 20
1.0
 30
0.0
  9
$USERI1
 70
     0
  9
$USERI2
 70
     0
  9
$USERI3
 70
     0
  9
$USERI4
 70
     0
  9
$USERI5
 70
     0
  9
$USERR1
 40
0.0
  9
$USERR2
 40
0.0
  9
$USERR3
 40
0.0
  9
$USERR4
 40
0.0
  9
$USERR5
 40
0.0
  9
$WORLDVIEW
 70
     1
  9
$SHADEDGE
 70
     3
  9
$SHADEDIF
 70
    70
  9
$TILEMODE
 70
     1
  9
$MAXACTVP
 70
    16
  9
$PINSBASE
 10
0.0
 20
0.0
 30
0.0
  9
$PLIMCHECK
 70
     0
  9
$PEXTMIN
 10
1.0E20
 20
1.0E20
 30
1.0E20
  9
$PEXTMAX
 10
-1.0E20
 20
-1.0E20
 30
-1.0E20
  9
$PLIMMIN
 10
0.0
 20
0.0
  9
$PLIMMAX
 10
12.0
 20
9.0
  9
$UNITMODE
 70
     0
  9
$VISRETAIN
 70
     0
  0
ENDSEC
  0
SECTION
  2
TABLES
  0
TABLE
  2
VPORT
 70
     1
  0
VPORT
  2
*ACTIVE
 70
     0
 10
0.0
 20
0.0
 11
1.0
 21
1.0
 12
6.801242
 22
4.5
 13
0.0
 23
0.0
 14
1.0
 24
1.0
 15
0.0
 25
0.0
 16
0.0
 26
0.0
 36
1.0
 17
0.0
 27
0.0
 37
0.0
 40
9.0
 41
1.511387
 42
50.0
 43
0.0
 44
0.0
 50
0.0
 51
0.0
 71
     0
 72
   100
 73
     1
 74
     1
 75
     0
 76
     0
 77
     0
 78
     0
  0
ENDTAB
  0
TABLE
  2
LTYPE
 70
    41
  0
LTYPE
  2
BYBLOCK
 70
     0
  3

 72
    65
 73
     0
 40
0.0
  0
LTYPE
  2
BYLAYER
 70
     0
  3

 72
    65
 73
     0
 40
0.0
  0
LTYPE
  2
CONTINUOUS
 70
     0
  3
Solid line
 72
    65
 73
     0
 40
0.0
  0
LTYPE
  2
BORDER
 70
    64
  3
__ __ . __ __ . __ __ . __ __ . __ __ . __ __ .
 72
    65
 73
     6
 40
1.75
 49
0.5
 49
-0.25
 49
0.5
 49
-0.25
 49
0.0
 49
-0.25
  0
LTYPE
  2
BORDER2
 70
    64
  3
__.__.__.__.__.__.__.__.__.__.__.__.__.__.__.__
 72
    65
 73
     6
 40
0.875
 49
0.25
 49
-0.125
 49
0.25
 49
-0.125
 49
0.0
 49
-0.125
  0
LTYPE
  2
BORDERX2
 70
    64
  3
____  ____  .  ____  ____  .  ____  ____  .  __
 72
    65
 73
     6
 40
3.5
 49
1.0
 49
-0.5
 49
1.0
 49
-0.5
 49
0.0
 49
-0.5
  0
LTYPE
  2
CENTER
 70
    64
  3
____ _ ____ _ ____ _ ____ _ ____ _ ____ _ ____
 72
    65
 73
     4
 40
2.0
 49
1.25
 49
-0.25
 49
0.25
 49
-0.25
  0
LTYPE
  2
CENTER2
 70
    64
  3
___ _ ___ _ ___ _ ___ _ ___ _ ___ _ ___ _ ___ _
 72
    65
 73
     4
 40
1.125
 49
0.75
 49
-0.125
 49
0.125
 49
-0.125
  0
LTYPE
  2
CENTERX2
 70
    64
  3
________  __  ________  __  ________  __  _____
 72
    65
 73
     4
 40
4.0
 49
2.5
 49
-0.5
 49
0.5
 49
-0.5
  0
LTYPE
  2
DASHDOT
 70
    64
  3
__ . __ . __ . __ . __ . __ . __ . __ . __ . __
 72
    65
 73
     4
 40
1.0
 49
0.5
 49
-0.25
 49
0.0
 49
-0.25
  0
LTYPE
  2
DASHDOT2
 70
    64
  3
_._._._._._._._._._._._._._._._._._._._._._._._
 72
    65
 73
     4
 40
0.5
 49
0.25
 49
-0.125
 49
0.0
 49
-0.125
  0
LTYPE
  2
DASHDOTX2
 70
    64
  3
____  .  ____  .  ____  .  ____  .  ____  .  __
 72
    65
 73
     4
 40
2.0
 49
1.0
 49
-0.5
 49
0.0
 49
-0.5
  0
LTYPE
  2
DASHED
 70
    64
  3
__ __ __ __ __ __ __ __ __ __ __ __ __ __ __ __
 72
    65
 73
     2
 40
0.75
 49
0.5
 49
-0.25
  0
LTYPE
  2
DASHED2
 70
    64
  3
_ _ _ _ _ _ _ _ _ _ _ _ _ _ _ _ _ _ _ _ _ _ _ _
 72
    65
 73
     2
 40
0.375
 49
0.25
 49
-0.125
  0
LTYPE
  2
DASHEDX2
 70
    64
  3
____  ____  ____  ____  ____  ____  ____  ____
 72
    65
 73
     2
 40
1.5
 49
1.0
 49
-0.5
  0
LTYPE
  2
DIVIDE
 70
    64
  3
____ . . ____ . . ____ . . ____ . . ____ . . __
 72
    65
 73
     6
 40
1.25
 49
0.5
 49
-0.25
 49
0.0
 49
-0.25
 49
0.0
 49
-0.25
  0
LTYPE
  2
DIVIDE2
 70
    64
  3
__..__..__..__..__..__..__..__..__..__..__..__.
 72
    65
 73
     6
 40
0.625
 49
0.25
 49
-0.125
 49
0.0
 49
-0.125
 49
0.0
 49
-0.125
  0
LTYPE
  2
DIVIDEX2
 70
    64
  3
________  .  .  ________  .  .  ________  .  .
 72
    65
 73
     6
 40
2.5
 49
1.0
 49
-0.5
 49
0.0
 49
-0.5
 49
0.0
 49
-0.5
  0
LTYPE
  2
DOT
 70
    64
  3
. . . . . . . . . . . . . . . . . . . . . . . .
 72
    65
 73
     2
 40
0.25
 49
0.0
 49
-0.25
  0
LTYPE
  2
DOT2
 70
    64
  3
...............................................
 72
    65
 73
     2
 40
0.125
 49
0.0
 49
-0.125
  0
LTYPE
  2
DOTX2
 70
    64
  3
.  .  .  .  .  .  .  .  .  .  .  .  .  .  .  .
 72
    65
 73
     2
 40
0.5
 49
0.0
 49
-0.5
  0
LTYPE
  2
HIDDEN
 70
    64
  3
__ __ __ __ __ __ __ __ __ __ __ __ __ __ __ __
 72
    65
 73
     2
 40
0.375
 49
0.25
 49
-0.125
  0
LTYPE
  2
HIDDEN2
 70
    64
  3
_ _ _ _ _ _ _ _ _ _ _ _ _ _ _ _ _ _ _ _ _ _ _ _
 72
    65
 73
     2
 40
0.1875
 49
0.125
 49
-0.0625
  0
LTYPE
  2
HIDDENX2
 70
    64
  3
____ ____ ____ ____ ____ ____ ____ ____ ____ __
 72
    65
 73
     2
 40
0.75
 49
0.5
 49
-0.25
  0
LTYPE
  2
PHANTOM
 70
    64
  3
______  __  __  ______  __  __  ______  __  __
 72
    65
 73
     6
 40
2.5
 49
1.25
 49
-0.25
 49
0.25
 49
-0.25
 49
0.25
 49
-0.25
  0
LTYPE
  2
PHANTOM2
 70
    64
  3
___ _ _ ___ _ _ ___ _ _ ___ _ _ ___ _ _ ___ _ _
 72
    65
 73
     6
 40
1.25
 49
0.625
 49
-0.125
 49
0.125
 49
-0.125
 49
0.125
 49
-0.125
  0
LTYPE
  2
PHANTOMX2
 70
    64
  3
____________    ____    ____    ____________
 72
    65
 73
     6
 40
5.0
 49
2.5
 49
-0.5
 49
0.5
 49
-0.5
 49
0.5
 49
-0.5
  0
LTYPE
  2
ACAD_ISO02W100
 70
    64
  3
__ __ __ __ __ __ __ __ __ __ __ __ __ __ __ __
 72
    65
 73
     2
 40
15.0
 49
12.0
 49
-3.0
  0
LTYPE
  2
ACAD_ISO03W100
 70
    64
  3
__    __    __    __    __    __    __    __
 72
    65
 73
     2
 40
30.0
 49
12.0
 49
-18.0
  0
LTYPE
  2
ACAD_ISO04W100
 70
    64
  3
____ . ____ . ____ . ____ . ____ . ____ . ____
 72
    65
 73
     4
 40
30.5
 49
24.0
 49
-3.0
 49
0.5
 49
-3.0
  0
LTYPE
  2
ACAD_ISO05W100
 70
    64
  3
____ .. ____ .. ____ .. ____ .. ____ .. ____ ..
 72
    65
 73
     6
 40
34.0
 49
24.0
 49
-3.0
 49
0.5
 49
-3.0
 49
0.5
 49
-3.0
  0
LTYPE
  2
ACAD_ISO06W100
 70
    64
  3
____ ... ____ ... ____ ... ____ ... ____ ... __
 72
    65
 73
     8
 40
37.5
 49
24.0
 49
-3.0
 49
0.5
 49
-3.0
 49
0.5
 49
-3.0
 49
0.5
 49
-3.0
  0
LTYPE
  2
ACAD_ISO07W100
 70
    64
  3
. . . . . . . . . . . . . . . . . . . . . . . .
 72
    65
 73
     2
 40
3.5
 49
0.5
 49
-3.0
  0
LTYPE
  2
ACAD_ISO08W100
 70
    64
  3
____ __ ____ __ ____ __ ____ ____ __ __ ____ __
 72
    65
 73
     4
 40
36.0
 49
24.0
 49
-3.0
 49
6.0
 49
-3.0
  0
LTYPE
  2
ACAD_ISO09W100
 70
    64
  3
____ __ __ ____ __ __ ____ __ __ ____ __ __ ___
 72
    65
 73
     6
 40
45.0
 49
24.0
 49
-3.0
 49
6.0
 49
-3.0
 49
6.0
 49
-3.0
  0
LTYPE
  2
ACAD_ISO10W100
 70
    64
  3
__ . __ . __ . __ . __ . __ . __ . __ . __ . __
 72
    65
 73
     4
 40
18.5
 49
12.0
 49
-3.0
 49
0.5
 49
-3.0
  0
LTYPE
  2
ACAD_ISO11W100
 70
    64
  3
__ __ . __ __ . __ __ . __ __ . __ __ . __ __ .
 72
    65
 73
     6
 40
33.5
 49
12.0
 49
-3.0
 49
12.0
 49
-3.0
 49
0.5
 49
-3.0
  0
LTYPE
  2
ACAD_ISO12W100
 70
    64
  3
__ . . __ . . __ . . __ . . __ . . __ . . __ .
 72
    65
 73
     6
 40
22.0
 49
12.0
 49
-3.0
 49
0.5
 49
-3.0
 49
0.5
 49
-3.0
  0
LTYPE
  2
ACAD_ISO13W100
 70
    64
  3
__ __ . . __ __ . . __ __ . . __ __ . . __ __ .
 72
    65
 73
     8
 40
37.0
 49
12.0
 49
-3.0
 49
12.0
 49
-3.0
 49
0.5
 49
-3.0
 49
0.5
 49
-3.0
  0
LTYPE
  2
ACAD_ISO14W100
 70
    64
  3
__ . . . __ . . . __ . . . __ . . . __ . . . __
 72
    65
 73
     8
 40
25.5
 49
12.0
 49
-3.0
 49
0.5
 49
-3.0
 49
0.5
 49
-3.0
 49
0.5
 49
-3.0
  0
LTYPE
  2
ACAD_ISO15W100
 70
    64
  3
__ __ . . . __ __ . . . __ __ . . . __ __ . . .
 72
    65
 73
    10
 40
40.5
 49
12.0
 49
-3.0
 49
12.0
 49
-3.0
 49
0.5
 49
-3.0
 49
0.5
 49
-3.0
 49
0.5
 49
-3.0
  0
ENDTAB
  0
TABLE
  2
STYLE
 70
     4
  0
STYLE
  2
STANDARD
 70
    64
 40
0.0
 41
1.0
 50
0.0
 71
     0
 42
0.2
  3
txt
  4

  0
STYLE
  2
TOLERANCE
 70
    64
 40
0.0
 41
1.0
 50
0.0
 71
     0
 42
0.2
  3
../igesfont/iges1003.shx
  4

  0
STYLE
  2
ROMANS
 70
    64
 40
0.0
 41
1.0
 50
0.0
 71
     0
 42
0.2
  3
romans.shx
  4

  0
STYLE
  2
ROMANC
 70
    64
 40
0.0
 41
1.0
 50
0.0
 71
     0
 42
0.2
  3
romanc.shx
  4

  0
ENDTAB
  0
TABLE
  2
DIMSTYLE
 70
     2
  0
DIMSTYLE
  2
UNNAMED
 70
     0
  3

  4

  5

  6

  7

 40
1.0
 41
0.18
 42
0.0625
 43
0.38
 44
0.18
 45
0.0
 46
0.0
 47
0.0
 48
0.0
140
0.18
141
0.09
142
0.0
143
25.4
144
1.0
145
0.0
146
1.0
147
0.09
 71
     0
 72
     0
 73
     1
 74
     1
 75
     0
 76
     0
 77
     0
 78
     0
170
     0
171
     2
172
     0
173
     0
174
     0
175
     0
176
     0
177
     0
178
     0
  0
DIMSTYLE
  2
STANDARD
 70
     0
  3

  4

  5

  6

  7

 40
1.0
 41
0.18
 42
0.0625
 43
0.38
 44
0.18
 45
0.0
 46
0.0
 47
0.0
 48
0.0
140
0.18
141
0.09
142
0.0
143
25.4
144
1.0
145
0.0
146
1.0
147
0.09
 71
     0
 72
     0
 73
     1
 74
     1
 75
     0
 76
     0
 77
     0
 78
     0
170
     0
171
     2
172
     0
173
     0
174
     0
175
     0
176
     0
177
     0
178
     0
  0
ENDTAB
  0
TABLE
  2
LAYER
 70
     2
  0
LAYER
  2
0
 70
     0
 62
     7
  6
CONTINUOUS
  0
LAYER
  2
255
 70
     0
 62
     7
  6
CONTINUOUS
  0
ENDTAB
  0
ENDSEC
  0
SECTION
  2
BLOCKS
  0
BLOCK
  5
     B
  8
0
  6
CONTINUOUS
 62
     5
  2
*UDIM1663
 70
    65
 10
0.0
 20
0.0
 30
0.0
  3
*UDIM1663
  0
TEXT
  5
     C
  8
0
  6
CONTINUOUS
 62
     5
 10
-535.884582994659
 20
-118.23870740981
 30
0.0
 40
3.00000002980232
  1
5,5
 50
365.67977395558
 41
0.933333333333333
 72
     1
 11
-532.152182455655
 21
-116.3600944738
 31
0.0
 73
     2
  0
TEXT
  5
     D
  8
0
  6
CONTINUOUS
 62
     5
 10
-539.019118295611
 20
-118.550458127003
 30
0.0
 40
3.00000002980232
  1
Ø
 50
365.67977395558
 41
0.933333333333334
 72
     1
 11
-538.072971377293
 21
-116.948956931967
 31
0.0
 73
     2
  0
TEXT
  5
     E
  8
0
  6
CONTINUOUS
 62
     5
 10
-527.575576657115
 20
-117.412320590124
 30
0.0
 40
3.00000002980232
  1
 - M5
 50
365.67977395558
 41
0.933333333333333
 72
     1
 11
-521.056922497426
 21
-115.25659591314
 31
0.0
 73
     2
  0
LINE
  5
     F
  8
0
  6
CONTINUOUS
 62
     5
 10
-514.142394419742
 20
-117.081233529027
 30
0.0
 11
-551.631268320704
 21
-120.809755307358
 31
0.0
  0
LINE
  5
    10
  8
0
  6
CONTINUOUS
 62
     5
 10
-547.374657127681
 20
-119.862891978389
 30
0.0
 11
-550.263018788671
 21
-120.67367364772
 31
0.0
  0
LINE
  5
    11
  8
0
  6
CONTINUOUS
 62
     5
 10
-550.263018788671
 20
-120.67367364772
 30
0.0
 11
-547.271542971162
 21
-120.899665756566
 31
0.0
  0
LINE
  5
    12
  8
0
  6
CONTINUOUS
 62
     5
 10
-554.519629981694
 20
-121.620536976689
 30
0.0
 11
-551.631268320704
 21
-120.809755307358
 31
0.0
  0
LINE
  5
    13
  8
0
  6
CONTINUOUS
 62
     5
 10
-551.631268320704
 20
-120.809755307358
 30
0.0
 11
-554.622744138213
 21
-120.583763198512
 31
0.0
  0
ENDBLK
  5
    14
  8
0
  6
CONTINUOUS
 62
     5
  0
BLOCK
  5
    15
  8
0
  6
CONTINUOUS
 62
     5
  2
*UDIM1664
 70
    65
 10
0.0
 20
0.0
 30
0.0
  3
*UDIM1664
  0
TEXT
  5
    16
  8
0
  6
CONTINUOUS
 62
     5
 10
-589.718467719452
 20
-107.541714524954
 30
0.0
 40
3.00000002980232
  1
139
 50
449.999999896069
 41
0.933333333333333
 72
     1
 11
-591.218467727304
 21
-103.6417144835
 31
0.0
 73
     2
  0
LINE
  5
    17
  8
0
  6
CONTINUOUS
 62
     5
 10
-571.384643554688
 20
-85.9917144775391
 30
0.0
 11
-590.718467712402
 21
-85.9917144775391
 31
0.0
  0
LINE
  5
    18
  8
0
  6
CONTINUOUS
 62
     5
 10
-571.384643554688
 20
-120.741714477539
 30
0.0
 11
-590.718467712402
 21
-120.741714477539
 31
0.0
  0
LINE
  5
    19
  8
0
  6
CONTINUOUS
 62
     5
 10
-588.718467712402
 20
-85.9917144775391
 30
0.0
 11
-588.718467712402
 21
-120.741714477539
 31
0.0
  0
LINE
  5
    1A
  8
0
  6
CONTINUOUS
 62
     5
 10
-588.197523282451
 20
-88.946137754746
 30
0.0
 11
-588.718467712402
 21
-85.9917144775391
 31
0.0
  0
LINE
  5
    1B
  8
0
  6
CONTINUOUS
 62
     5
 10
-588.718467712402
 20
-85.9917144775391
 30
0.0
 11
-589.239412142354
 21
-88.946137754746
 31
0.0
  0
LINE
  5
    1C
  8
0
  6
CONTINUOUS
 62
     5
 10
-589.239412142354
 20
-117.787291200332
 30
0.0
 11
-588.718467712402
 21
-120.741714477539
 31
0.0
  0
LINE
  5
    1D
  8
0
  6
CONTINUOUS
 62
     5
 10
-588.718467712402
 20
-120.741714477539
 30
0.0
 11
-588.197523282451
 21
-117.787291200332
 31
0.0
  0
ENDBLK
  5
    1E
  8
0
  6
CONTINUOUS
 62
     5
  0
BLOCK
  5
    1F
  8
0
  6
CONTINUOUS
 62
     5
  2
*UDIM1665
 70
    65
 10
0.0
 20
0.0
 30
0.0
  3
*UDIM1665
  0
TEXT
  5
    20
  8
0
  6
CONTINUOUS
 62
     5
 10
-533.444946301174
 20
-101.15545239223
 30
0.0
 40
3.00000002980232
  1
71,75
 50
449.999999896069
 41
0.933333333333333
 72
     1
 11
-534.944946303964
 21
-94.4554523229599
 31
0.0
 73
     2
  0
LINE
  5
    21
  8
0
  6
CONTINUOUS
 62
     5
 10
-565.509643554688
 20
-85.9917144775391
 30
0.0
 11
-530.444946289063
 21
-85.9917144775391
 31
0.0
  0
LINE
  5
    22
  8
0
  6
CONTINUOUS
 62
     5
 10
-532.444946289063
 20
-85.9917144775391
 30
0.0
 11
-532.444946289063
 21
-103.929214477539
 31
0.0
  0
LINE
  5
    23
  8
0
  6
CONTINUOUS
 62
     5
 10
-531.924001859111
 20
-88.946137754746
 30
0.0
 11
-532.444946289063
 21
-85.9917144775391
 31
0.0
  0
LINE
  5
    24
  8
0
  6
CONTINUOUS
 62
     5
 10
-532.444946289063
 20
-85.9917144775391
 30
0.0
 11
-532.965890719014
 21
-88.946137754746
 31
0.0
  0
LINE
  5
    25
  8
0
  6
CONTINUOUS
 62
     5
 10
-532.965890719014
 20
-100.974791200332
 30
0.0
 11
-532.444946289063
 21
-103.929214477539
 31
0.0
  0
LINE
  5
    26
  8
0
  6
CONTINUOUS
 62
     5
 10
-532.444946289063
 20
-103.929214477539
 30
0.0
 11
-531.924001859111
 21
-100.974791200332
 31
0.0
  0
ENDBLK
  5
    27
  8
0
  6
CONTINUOUS
 62
     5
  0
BLOCK
  5
    28
  8
0
  6
CONTINUOUS
 62
     7
  2
*UDIM1666
 70
    65
 10
0.0
 20
0.0
 30
0.0
  3
*UDIM1666
  0
TEXT
  5
    29
  8
0
  6
CONTINUOUS
 62
     7
 10
-548.022147043279
 20
-69.6230735682936
 30
0.0
 40
3.00000002980232
  1
17,5
 50
359.999999896069
 41
0.933333333333333
 72
     1
 11
-542.722146987915
 21
-68.1230735629797
 31
0.0
 73
     2
  0
LINE
  5
    2A
  8
0
  6
CONTINUOUS
 62
     7
 10
-550.947143554688
 20
-82.2468237680189
 30
0.0
 11
-550.947143554688
 21
-68.6230735778809
 31
0.0
  0
LINE
  5
    2B
  8
0
  6
CONTINUOUS
 62
     7
 10
-555.322143554688
 20
-73.7864709540498
 30
0.0
 11
-555.322143554688
 21
-68.6230735778809
 31
0.0
  0
LINE
  5
    2C
  8
0
  6
CONTINUOUS
 62
     7
 10
-537.422146935264
 20
-70.6230735778809
 30
0.0
 11
-555.322143554688
 21
-70.6230735778809
 31
0.0
  0
LINE
  5
    2D
  8
0
  6
CONTINUOUS
 62
     7
 10
-547.992720277481
 20
-70.1021291479292
 30
0.0
 11
-550.947143554688
 21
-70.6230735778809
 31
0.0
  0
LINE
  5
    2E
  8
0
  6
CONTINUOUS
 62
     7
 10
-550.947143554688
 20
-70.6230735778809
 30
0.0
 11
-547.992720277481
 21
-71.1440180078325
 31
0.0
  0
LINE
  5
    2F
  8
0
  6
CONTINUOUS
 62
     7
 10
-558.276566831895
 20
-71.1440180078325
 30
0.0
 11
-555.322143554688
 21
-70.6230735778809
 31
0.0
  0
LINE
  5
    30
  8
0
  6
CONTINUOUS
 62
     7
 10
-555.322143554688
 20
-70.6230735778809
 30
0.0
 11
-558.276566831895
 21
-70.1021291479292
 31
0.0
  0
ENDBLK
  5
    31
  8
0
  6
CONTINUOUS
 62
     7
  0
BLOCK
  5
    32
  8
0
  6
CONTINUOUS
 62
     7
  2
*UDIM1667
 70
    65
 10
0.0
 20
0.0
 30
0.0
  3
*UDIM1667
  0
TEXT
  5
    33
  8
0
  6
CONTINUOUS
 62
     7
 10
-552.397143228582
 20
-137.694236745784
 30
0.0
 40
3.00000002980232
  1
52,5
 50
359.999999896069
 41
0.933333333333333
 72
     1
 11
-547.097143173218
 21
-136.19423674047
 31
0.0
 73
     2
  0
LINE
  5
    34
  8
0
  6
CONTINUOUS
 62
     7
 10
-555.322143554688
 20
-136.507128129308
 30
0.0
 11
-555.322143554688
 21
-140.694236755371
 31
0.0
  0
LINE
  5
    35
  8
0
  6
CONTINUOUS
 62
     7
 10
-568.447143554688
 20
-126.460459162719
 30
0.0
 11
-568.447143554688
 21
-140.694236755371
 31
0.0
  0
LINE
  5
    36
  8
0
  6
CONTINUOUS
 62
     7
 10
-541.797143120567
 20
-138.694236755371
 30
0.0
 11
-568.447143554688
 21
-138.694236755371
 31
0.0
  0
LINE
  5
    37
  8
0
  6
CONTINUOUS
 62
     7
 10
-552.367720277481
 20
-138.173292325419
 30
0.0
 11
-555.322143554688
 21
-138.694236755371
 31
0.0
  0
LINE
  5
    38
  8
0
  6
CONTINUOUS
 62
     7
 10
-555.322143554688
 20
-138.694236755371
 30
0.0
 11
-552.367720277481
 21
-139.215181185323
 31
0.0
  0
LINE
  5
    39
  8
0
  6
CONTINUOUS
 62
     7
 10
-571.401566831894
 20
-139.215181185323
 30
0.0
 11
-568.447143554688
 21
-138.694236755371
 31
0.0
  0
LINE
  5
    3A
  8
0
  6
CONTINUOUS
 62
     7
 10
-568.447143554688
 20
-138.694236755371
 30
0.0
 11
-571.401566831894
 21
-138.173292325419
 31
0.0
  0
ENDBLK
  5
    3B
  8
0
  6
CONTINUOUS
 62
     7
  0
BLOCK
  5
    3C
  8
0
  6
CONTINUOUS
 62
     7
  2
MOSTRINA
 70
    64
 10
0.0
 20
0.0
 30
0.0
  3
MOSTRINA
  0
LINE
  5
    3D
  8
0
  6
CONTINUOUS
 62
     3
 10
173.338256835938
 20
30.7306251525879
 30
0.0
 11
173.338256835938
 21
189.230621337891
 31
0.0
  0
LINE
  5
    3E
  8
0
  6
CONTINUOUS
 62
     3
 10
57.5882568359375
 20
29.4806251525879
 30
0.0
 11
172.088256835938
 21
29.4806251525879
 31
0.0
  0
LINE
  5
    3F
  8
0
  6
CONTINUOUS
 62
     3
 10
56.3382568359375
 20
30.7306251525879
 30
0.0
 11
56.3382568359375
 21
189.230621337891
 31
0.0
  0
LINE
  5
    40
  8
0
  6
CONTINUOUS
 62
     3
 10
57.5882568359375
 20
190.480621337891
 30
0.0
 11
172.088256835938
 21
190.480621337891
 31
0.0
  0
LINE
  5
    41
  8
0
  6
CONTINUOUS
 62
     3
 10
167.838256835938
 20
56.9806251525879
 30
0.0
 11
167.838256835938
 21
162.980625152588
 31
0.0
  0
LINE
  5
    42
  8
0
  6
CONTINUOUS
 62
     3
 10
61.8382568359375
 20
56.9806251525879
 30
0.0
 11
167.838256835938
 21
56.9806251525879
 31
0.0
  0
LINE
  5
    43
  8
0
  6
CONTINUOUS
 62
     3
 10
61.8382568359375
 20
56.9806251525879
 30
0.0
 11
61.8382568359375
 21
162.980625152588
 31
0.0
  0
LINE
  5
    44
  8
0
  6
CONTINUOUS
 62
     3
 10
61.8382568359375
 20
162.980621337891
 30
0.0
 11
167.838256835938
 21
162.980621337891
 31
0.0
  0
LINE
  5
    45
  8
0
  6
CONTINUOUS
 62
     3
 10
168.838256835938
 20
48.4806251525879
 30
0.0
 11
168.838256835938
 21
49.4806251525879
 31
0.0
  0
LINE
  5
    46
  8
0
  6
CONTINUOUS
 62
     3
 10
61.8382568359375
 20
50.4806251525879
 30
0.0
 11
167.838256835938
 21
50.4806251525879
 31
0.0
  0
LINE
  5
    47
  8
0
  6
CONTINUOUS
 62
     3
 10
60.8382568359375
 20
48.4806251525879
 30
0.0
 11
60.8382568359375
 21
49.4806251525879
 31
0.0
  0
LINE
  5
    48
  8
0
  6
CONTINUOUS
 62
     3
 10
61.8382568359375
 20
49.4806251525879
 30
0.0
 11
167.838256835938
 21
49.4806251525879
 31
0.0
  0
LINE
  5
    49
  8
0
  6
CONTINUOUS
 62
     3
 10
60.8382568359375
 20
29.4806251525879
 30
0.0
 11
60.8382568359375
 21
48.4806251525879
 31
0.0
  0
LINE
  5
    4A
  8
0
  6
CONTINUOUS
 62
     3
 10
60.8382568359375
 20
49.4806213378906
 30
0.0
 11
60.8382568359375
 21
190.480621337891
 31
0.0
  0
LINE
  5
    4B
  8
0
  6
CONTINUOUS
 62
     3
 10
61.8382568359375
 20
29.4806251525879
 30
0.0
 11
61.8382568359375
 21
49.4806251525879
 31
0.0
  0
LINE
  5
    4C
  8
0
  6
CONTINUOUS
 62
     3
 10
61.8382568359375
 20
162.980621337891
 30
0.0
 11
61.8382568359375
 21
169.480621337891
 31
0.0
  0
LINE
  5
    4D
  8
0
  6
CONTINUOUS
 62
     3
 10
61.8382568359375
 20
50.4806251525879
 30
0.0
 11
61.8382568359375
 21
56.9806251525879
 31
0.0
  0
LINE
  5
    4E
  8
0
  6
CONTINUOUS
 62
     3
 10
168.838256835938
 20
29.4806251525879
 30
0.0
 11
168.838256835938
 21
48.4806251525879
 31
0.0
  0
LINE
  5
    4F
  8
0
  6
CONTINUOUS
 62
     3
 10
168.838256835938
 20
49.4806251525879
 30
0.0
 11
168.838256835938
 21
190.480621337891
 31
0.0
  0
LINE
  5
    50
  8
0
  6
CONTINUOUS
 62
     3
 10
167.838256835938
 20
50.4806251525879
 30
0.0
 11
167.838256835938
 21
56.9806251525879
 31
0.0
  0
LINE
  5
    51
  8
0
  6
CONTINUOUS
 62
     3
 10
167.838256835938
 20
162.980621337891
 30
0.0
 11
167.838256835938
 21
169.480621337891
 31
0.0
  0
LINE
  5
    52
  8
0
  6
CONTINUOUS
 62
     3
 10
167.838256835938
 20
29.4806251525879
 30
0.0
 11
167.838256835938
 21
49.4806251525879
 31
0.0
  0
LINE
  5
    53
  8
0
  6
CONTINUOUS
 62
     3
 10
60.8382568359375
 20
170.480621337891
 30
0.0
 11
168.838256835938
 21
170.480621337891
 31
0.0
  0
LINE
  5
    54
  8
0
  6
CONTINUOUS
 62
     3
 10
61.8382568359375
 20
169.480621337891
 30
0.0
 11
167.838256835938
 21
169.480621337891
 31
0.0
  0
ARC
  5
    55
  8
0
  6
CONTINUOUS
 62
     3
 10
57.5882568359375
 20
30.7306251525879
 30
0.0
 40
1.25
 50
180.0
 51
270.0
  0
ARC
  5
    56
  8
0
  6
CONTINUOUS
 62
     3
 10
172.088256835938
 20
30.7306251525879
 30
0.0
 40
1.25
 50
270.0
 51
360.0
  0
ARC
  5
    57
  8
0
  6
CONTINUOUS
 62
     3
 10
172.088256835938
 20
189.230621337891
 30
0.0
 40
1.25
 50
0.0
 51
90.0
  0
ARC
  5
    58
  8
0
  6
CONTINUOUS
 62
     3
 10
57.5882568359375
 20
189.230621337891
 30
0.0
 40
1.25
 50
90.0
 51
180.0
  0
LINE
  5
    59
  8
0
  6
DOT
 62
     3
 10
60.3382577409677
 20
179.7306252571
 30
0.0
 11
60.8382568359375
 21
179.7306252571
 31
0.0
  0
LINE
  5
    5A
  8
0
  6
DOT
 62
     3
 10
60.3382577409676
 20
181.2306252571
 30
0.0
 11
60.8382568359375
 21
181.2306252571
 31
0.0
  0
LINE
  5
    5B
  8
0
  6
CONTINUOUS
 62
     3
 10
168.338257745313
 20
179.730625257273
 30
0.0
 11
168.838256835938
 21
179.730625257273
 31
0.0
  0
LINE
  5
    5C
  8
0
  6
CONTINUOUS
 62
     3
 10
168.338257745314
 20
181.230625257273
 30
0.0
 11
168.838256835938
 21
181.230625257273
 31
0.0
  0
ARC
  5
    5D
  8
0
  6
DOT
 62
     3
 10
60.3382577401871
 20
180.480625257147
 30
0.0
 40
0.749999999345164
 50
90.0
 51
270.0
  0
ARC
  5
    5E
  8
0
  6
CONTINUOUS
 62
     3
 10
61.338257740822
 20
180.480625256974
 30
0.0
 40
0.750000000009701
 50
270.0
 51
450.0
  0
LINE
  5
    5F
  8
0
  6
CONTINUOUS
 62
     3
 10
60.8382568359375
 20
181.2306252571
 30
0.0
 11
61.3382577409688
 21
181.2306252571
 31
0.0
  0
LINE
  5
    60
  8
0
  6
CONTINUOUS
 62
     3
 10
60.8382568359375
 20
179.7306252571
 30
0.0
 11
61.3382577409689
 21
179.7306252571
 31
0.0
  0
ARC
  5
    61
  8
0
  6
CONTINUOUS
 62
     3
 10
168.338257745503
 20
180.480625256952
 30
0.0
 40
0.750000000048506
 50
90.0000000038822
 51
269.999999996024
  0
ARC
  5
    62
  8
0
  6
DOT
 62
     3
 10
169.338257745421
 20
180.480625256965
 30
0.0
 40
0.750000000029104
 50
270.000000002449
 51
449.999999997486
  0
LINE
  5
    63
  8
0
  6
DOT
 62
     3
 10
168.838256835938
 20
181.230625257273
 30
0.0
 11
169.338257745315
 21
181.230625257273
 31
0.0
  0
LINE
  5
    64
  8
0
  6
DOT
 62
     3
 10
168.838256835938
 20
179.730625257273
 30
0.0
 11
169.338257745315
 21
179.730625257273
 31
0.0
  0
POINT
  5
    65
  8
0
  6
CONTINUOUS
 62
     3
 10
114.838256835938
 20
109.980621337891
 30
0.0
  0
ENDBLK
  5
    66
  8
0
  6
CONTINUOUS
 62
     7
  0
BLOCK
  5
    67
  8
0
  6
CONTINUOUS
 62
     7
  2
*UDIM1668
 70
    65
 10
0.0
 20
0.0
 30
0.0
  3
*UDIM1668
  0
TEXT
  5
    68
  8
0
  6
CONTINUOUS
 62
     7
 10
-559.4971435827
 20
117.596657447049
 30
0.0
 40
3.00000002980232
  1
117
 50
359.999999948034
 41
0.933333333333333
 72
     1
 11
-555.597143542604
 21
119.096657458432
 31
0.0
 73
     2
  0
LINE
  5
    69
  8
0
  6
CONTINUOUS
 62
     7
 10
-526.072146725492
 20
60.1981201171856
 30
0.0
 11
-526.072146725492
 21
118.596657443531
 31
0.0
  0
LINE
  5
    6A
  8
0
  6
CONTINUOUS
 62
     7
 10
-584.572146725492
 20
60.1981201171856
 30
0.0
 11
-584.572146725492
 21
118.596657443531
 31
0.0
  0
LINE
  5
    6B
  8
0
  6
CONTINUOUS
 62
     7
 10
-526.072146725492
 20
116.596657443531
 30
0.0
 11
-584.572146725492
 21
116.596657443531
 31
0.0
  0
LINE
  5
    6C
  8
0
  6
CONTINUOUS
 62
     7
 10
-529.026570002699
 20
116.075713013579
 30
0.0
 11
-526.072146725492
 21
116.596657443531
 31
0.0
  0
LINE
  5
    6D
  8
0
  6
CONTINUOUS
 62
     7
 10
-526.072146725492
 20
116.596657443531
 30
0.0
 11
-529.026570002699
 21
117.117601873483
 31
0.0
  0
LINE
  5
    6E
  8
0
  6
CONTINUOUS
 62
     7
 10
-581.617723448285
 20
117.117601873483
 30
0.0
 11
-584.572146725492
 21
116.596657443531
 31
0.0
  0
LINE
  5
    6F
  8
0
  6
CONTINUOUS
 62
     7
 10
-584.572146725492
 20
116.596657443531
 30
0.0
 11
-581.617723448285
 21
116.075713013579
 31
0.0
  0
ENDBLK
  5
    70
  8
0
  6
CONTINUOUS
 62
     7
  0
BLOCK
  5
    71
  8
0
  6
CONTINUOUS
 62
     7
  2
*UDIM1669
 70
    65
 10
0.0
 20
0.0
 30
0.0
  3
*UDIM1669
  0
TEXT
  5
    72
  8
0
  6
CONTINUOUS
 62
     7
 10
-512.066764835075
 20
15.3981238858208
 30
0.0
 40
3.00000002980232
  1
161
 50
89.9999999480344
 41
0.933333333333333
 72
     1
 11
-513.566764846444
 21
19.2981239259224
 31
0.0
 73
     2
  0
LINE
  5
    73
  8
0
  6
CONTINUOUS
 62
     7
 10
-525.697146725492
 20
-20.6768779754658
 30
0.0
 11
-509.066764831543
 21
-20.6768779754658
 31
0.0
  0
LINE
  5
    74
  8
0
  6
CONTINUOUS
 62
     7
 10
-525.697146725492
 20
59.8231201171856
 30
0.0
 11
-509.066764831543
 21
59.8231201171856
 31
0.0
  0
LINE
  5
    75
  8
0
  6
CONTINUOUS
 62
     7
 10
-511.066764831543
 20
-20.6768779754658
 30
0.0
 11
-511.066764831543
 21
59.8231201171856
 31
0.0
  0
LINE
  5
    76
  8
0
  6
CONTINUOUS
 62
     7
 10
-511.587709261495
 20
-17.7224546982588
 30
0.0
 11
-511.066764831543
 21
-20.6768779754658
 31
0.0
  0
LINE
  5
    77
  8
0
  6
CONTINUOUS
 62
     7
 10
-511.066764831543
 20
-20.6768779754658
 30
0.0
 11
-510.545820401591
 21
-17.7224546982588
 31
0.0
  0
LINE
  5
    78
  8
0
  6
CONTINUOUS
 62
     7
 10
-510.545820401591
 20
56.8686968399786
 30
0.0
 11
-511.066764831543
 21
59.8231201171856
 31
0.0
  0
LINE
  5
    79
  8
0
  6
CONTINUOUS
 62
     7
 10
-511.066764831543
 20
59.8231201171856
 30
0.0
 11
-511.587709261495
 21
56.8686968399786
 31
0.0
  0
ENDBLK
  5
    7A
  8
0
  6
CONTINUOUS
 62
     7
  0
BLOCK
  5
    7B
  8
0
  6
CONTINUOUS
 62
     7
  2
*UDIM1670
 70
    65
 10
0.0
 20
0.0
 30
0.0
  3
*UDIM1670
  0
TEXT
  5
    7C
  8
0
  6
CONTINUOUS
 62
     7
 10
-609.745183028954
 20
80.0423263524059
 30
0.0
 40
3.00000002980232
  1
8,5
 50
344.716441400219
 41
0.933333333333333
 72
     1
 11
-605.587719522617
 21
80.4612506180861
 31
0.0
 73
     2
  0
TEXT
  5
    7D
  8
0
  6
CONTINUOUS
 62
     7
 10
-612.783777301329
 20
80.8726545468419
 30
0.0
 40
3.00000002980232
  1
Ø
 50
344.716441400219
 41
0.933333333333334
 72
     1
 11
-611.327286498603
 21
82.0296483282946
 31
0.0
 73
     2
  0
LINE
  5
    7E
  8
0
  6
CONTINUOUS
 62
     7
 10
-588.272318752308
 20
73.1379742666839
 30
0.0
 11
-613.047373552429
 21
79.9080214464402
 31
0.0
  0
LINE
  5
    7F
  8
0
  6
CONTINUOUS
 62
     7
 10
-585.285065271088
 20
72.8617196034813
 30
0.0
 11
-588.272318752308
 21
73.1379742666839
 31
0.0
  0
LINE
  5
    80
  8
0
  6
CONTINUOUS
 62
     7
 10
-588.272318752308
 20
73.1379742666839
 30
0.0
 11
-585.55970326971
 21
71.8566791236479
 31
0.0
  0
LINE
  5
    81
  8
0
  6
CONTINUOUS
 62
     7
 10
-595.359262904651
 20
74.5345130014991
 30
0.0
 11
-592.372009423431
 21
74.2582583382966
 31
0.0
  0
LINE
  5
    82
  8
0
  6
CONTINUOUS
 62
     7
 10
-592.372009423431
 20
74.2582583382966
 30
0.0
 11
-595.084624906029
 21
75.5395534813326
 31
0.0
  0
ENDBLK
  5
    83
  8
0
  6
CONTINUOUS
 62
     7
  0
BLOCK
  5
    84
  8
0
  6
CONTINUOUS
 62
     7
  2
*UDIM1671
 70
    65
 10
0.0
 20
0.0
 30
0.0
  3
*UDIM1671
  0
TEXT
  5
    85
  8
0
  6
CONTINUOUS
 62
     7
 10
-592.824516704055
 20
87.1759452842373
 30
0.0
 40
3.00000002980232
  1
20
 50
359.999999948034
 41
0.933333333333333
 72
     1
 11
-590.324516677866
 21
88.6759452968836
 31
0.0
 73
     2
  0
LINE
  5
    86
  8
0
  6
CONTINUOUS
 62
     7
 10
-585.32216170068
 20
80.4481163024902
 30
0.0
 11
-585.32216170068
 21
88.1759452819824
 31
0.0
  0
LINE
  5
    87
  8
0
  6
CONTINUOUS
 62
     7
 10
-595.32216170068
 20
80.4481163024902
 30
0.0
 11
-595.32216170068
 21
88.1759452819824
 31
0.0
  0
LINE
  5
    88
  8
0
  6
CONTINUOUS
 62
     7
 10
-585.32216170068
 20
86.1759452819824
 30
0.0
 11
-595.32216170068
 21
86.1759452819824
 31
0.0
  0
LINE
  5
    89
  8
0
  6
CONTINUOUS
 62
     7
 10
-588.276584977887
 20
85.6550008520307
 30
0.0
 11
-585.32216170068
 21
86.1759452819824
 31
0.0
  0
LINE
  5
    8A
  8
0
  6
CONTINUOUS
 62
     7
 10
-585.32216170068
 20
86.1759452819824
 30
0.0
 11
-588.276584977887
 21
86.6968897119341
 31
0.0
  0
LINE
  5
    8B
  8
0
  6
CONTINUOUS
 62
     7
 10
-592.367738423473
 20
86.6968897119341
 30
0.0
 11
-595.32216170068
 21
86.1759452819824
 31
0.0
  0
LINE
  5
    8C
  8
0
  6
CONTINUOUS
 62
     7
 10
-595.32216170068
 20
86.1759452819824
 30
0.0
 11
-592.367738423473
 21
85.6550008520307
 31
0.0
  0
ENDBLK
  5
    8D
  8
0
  6
CONTINUOUS
 62
     7
  0
BLOCK
  5
    8E
  8
0
  6
CONTINUOUS
 62
     7
  2
*UDIM1672
 70
    65
 10
0.0
 20
0.0
 30
0.0
  3
*UDIM1672
  0
TEXT
  5
    8F
  8
0
  6
CONTINUOUS
 62
     7
 10
-502.698196414665
 20
85.2731162564282
 30
0.0
 40
3.00000002980232
  1
100
 50
89.9999999480344
 41
0.933333333333333
 72
     1
 11
-504.198196426034
 21
89.1731162965298
 31
0.0
 73
     2
  0
LINE
  5
    90
  8
0
  6
CONTINUOUS
 62
     7
 10
-528.697155700952
 20
64.4481163024902
 30
0.0
 11
-499.698196411133
 21
64.4481163024902
 31
0.0
  0
LINE
  5
    91
  8
0
  6
CONTINUOUS
 62
     7
 10
-580.125289282575
 20
114.44811630249
 30
0.0
 11
-499.698196411133
 21
114.44811630249
 31
0.0
  0
LINE
  5
    92
  8
0
  6
CONTINUOUS
 62
     7
 10
-501.698196411133
 20
64.4481163024902
 30
0.0
 11
-501.698196411133
 21
114.44811630249
 31
0.0
  0
LINE
  5
    93
  8
0
  6
CONTINUOUS
 62
     7
 10
-502.219140841084
 20
67.4025395796972
 30
0.0
 11
-501.698196411133
 21
64.4481163024902
 31
0.0
  0
LINE
  5
    94
  8
0
  6
CONTINUOUS
 62
     7
 10
-501.698196411133
 20
64.4481163024902
 30
0.0
 11
-501.177251981181
 21
67.4025395796972
 31
0.0
  0
LINE
  5
    95
  8
0
  6
CONTINUOUS
 62
     7
 10
-501.177251981181
 20
111.493693025283
 30
0.0
 11
-501.698196411133
 21
114.44811630249
 31
0.0
  0
LINE
  5
    96
  8
0
  6
CONTINUOUS
 62
     7
 10
-501.698196411133
 20
114.44811630249
 30
0.0
 11
-502.219140841084
 21
111.493693025283
 31
0.0
  0
ENDBLK
  5
    97
  8
0
  6
CONTINUOUS
 62
     7
  0
BLOCK
  5
    98
  8
0
  6
CONTINUOUS
 62
     7
  2
*UDIM1673
 70
    65
 10
0.0
 20
0.0
 30
0.0
  3
*UDIM1673
  0
TEXT
  5
    99
  8
0
  6
CONTINUOUS
 62
     7
 10
-520.308593756068
 20
35.0356162286117
 30
0.0
 40
3.00000002980232
  1
89,75
 50
89.9999999480344
 41
0.933333333333333
 72
     1
 11
-521.808593764901
 21
41.7356162965288
 31
0.0
 73
     2
  0
LINE
  5
    9A
  8
0
  6
CONTINUOUS
 62
     7
 10
-521.191831326145
 20
19.5731201171856
 30
0.0
 11
-517.30859375
 21
19.5731201171856
 31
0.0
  0
LINE
  5
    9B
  8
0
  6
CONTINUOUS
 62
     7
 10
-528.697155700952
 20
64.4481163024902
 30
0.0
 11
-517.30859375
 21
64.4481163024902
 31
0.0
  0
LINE
  5
    9C
  8
0
  6
CONTINUOUS
 62
     7
 10
-519.30859375
 20
19.5731201171856
 30
0.0
 11
-519.30859375
 21
64.4481163024902
 31
0.0
  0
LINE
  5
    9D
  8
0
  6
CONTINUOUS
 62
     7
 10
-519.829538179952
 20
22.5275433943925
 30
0.0
 11
-519.30859375
 21
19.5731201171856
 31
0.0
  0
LINE
  5
    9E
  8
0
  6
CONTINUOUS
 62
     7
 10
-519.30859375
 20
19.5731201171856
 30
0.0
 11
-518.787649320048
 21
22.5275433943925
 31
0.0
  0
LINE
  5
    9F
  8
0
  6
CONTINUOUS
 62
     7
 10
-518.787649320048
 20
61.4936930252833
 30
0.0
 11
-519.30859375
 21
64.4481163024902
 31
0.0
  0
LINE
  5
    A0
  8
0
  6
CONTINUOUS
 62
     7
 10
-519.30859375
 20
64.4481163024902
 30
0.0
 11
-519.829538179952
 21
61.4936930252833
 31
0.0
  0
ENDBLK
  5
    A1
  8
0
  6
CONTINUOUS
 62
     7
  0
BLOCK
  5
    A2
  8
0
  6
CONTINUOUS
 62
     7
  2
*UDIM1674
 70
    65
 10
0.0
 20
0.0
 30
0.0
  3
*UDIM1674
  0
TEXT
  5
    A3
  8
0
  6
CONTINUOUS
 62
     7
 10
-502.426940921501
 20
16.5231162564282
 30
0.0
 40
3.00000002980232
  1
175
 50
89.9999999480344
 41
0.933333333333333
 72
     1
 11
-503.92694093287
 21
20.4231162965298
 31
0.0
 73
     2
  0
LINE
  5
    A4
  8
0
  6
CONTINUOUS
 62
     7
 10
-531.072146725492
 20
-23.0518836975097
 30
0.0
 11
-499.426940917969
 21
-23.0518836975097
 31
0.0
  0
LINE
  5
    A5
  8
0
  6
CONTINUOUS
 62
     7
 10
-528.697155700952
 20
64.4481163024902
 30
0.0
 11
-499.426940917969
 21
64.4481163024902
 31
0.0
  0
LINE
  5
    A6
  8
0
  6
CONTINUOUS
 62
     7
 10
-501.426940917969
 20
-23.0518836975097
 30
0.0
 11
-501.426940917969
 21
64.4481163024902
 31
0.0
  0
LINE
  5
    A7
  8
0
  6
CONTINUOUS
 62
     7
 10
-501.94788534792
 20
-20.0974604203027
 30
0.0
 11
-501.426940917969
 21
-23.0518836975097
 31
0.0
  0
LINE
  5
    A8
  8
0
  6
CONTINUOUS
 62
     7
 10
-501.426940917969
 20
-23.0518836975097
 30
0.0
 11
-500.905996488017
 21
-20.0974604203027
 31
0.0
  0
LINE
  5
    A9
  8
0
  6
CONTINUOUS
 62
     7
 10
-500.905996488017
 20
61.4936930252833
 30
0.0
 11
-501.426940917969
 21
64.4481163024902
 31
0.0
  0
LINE
  5
    AA
  8
0
  6
CONTINUOUS
 62
     7
 10
-501.426940917969
 20
64.4481163024902
 30
0.0
 11
-501.94788534792
 21
61.4936930252833
 31
0.0
  0
ENDBLK
  5
    AB
  8
0
  6
CONTINUOUS
 62
     7
  0
BLOCK
  5
    AC
  8
0
  6
CONTINUOUS
 62
     5
  2
*UDIM1675
 70
    65
 10
0.0
 20
0.0
 30
0.0
  3
*UDIM1675
  0
TEXT
  5
    AD
  8
0
  6
CONTINUOUS
 62
     5
 10
-611.441170221675
 20
34.4106162286117
 30
0.0
 40
3.00000002980232
  1
87,25
 50
89.9999999480344
 41
0.933333333333333
 72
     1
 11
-612.941170230508
 21
41.1106162965288
 31
0.0
 73
     2
  0
LINE
  5
    AE
  8
0
  6
CONTINUOUS
 62
     5
 10
-604.93165482394
 20
19.5731201171856
 30
0.0
 11
-612.441170215607
 21
19.5731201171856
 31
0.0
  0
LINE
  5
    AF
  8
0
  6
CONTINUOUS
 62
     5
 10
-581.697164282575
 20
63.1981163024902
 30
0.0
 11
-612.441170215607
 21
63.1981163024902
 31
0.0
  0
LINE
  5
    B0
  8
0
  6
CONTINUOUS
 62
     5
 10
-610.441170215607
 20
19.5731201171856
 30
0.0
 11
-610.441170215607
 21
63.1981163024902
 31
0.0
  0
LINE
  5
    B1
  8
0
  6
CONTINUOUS
 62
     5
 10
-610.962114645558
 20
22.5275433943925
 30
0.0
 11
-610.441170215607
 21
19.5731201171856
 31
0.0
  0
LINE
  5
    B2
  8
0
  6
CONTINUOUS
 62
     5
 10
-610.441170215607
 20
19.5731201171856
 30
0.0
 11
-609.920225785655
 21
22.5275433943925
 31
0.0
  0
LINE
  5
    B3
  8
0
  6
CONTINUOUS
 62
     5
 10
-609.920225785655
 20
60.2436930252833
 30
0.0
 11
-610.441170215607
 21
63.1981163024902
 31
0.0
  0
LINE
  5
    B4
  8
0
  6
CONTINUOUS
 62
     5
 10
-610.441170215607
 20
63.1981163024902
 30
0.0
 11
-610.962114645558
 21
60.2436930252833
 31
0.0
  0
ENDBLK
  5
    B5
  8
0
  6
CONTINUOUS
 62
     5
  0
BLOCK
  5
    B6
  8
0
  6
CONTINUOUS
 62
     7
  2
*UDIM1676
 70
    65
 10
0.0
 20
0.0
 30
0.0
  3
*UDIM1676
  0
TEXT
  5
    B7
  8
0
  6
CONTINUOUS
 62
     7
 10
-559.49714739739
 20
-44.9829349482646
 30
0.0
 40
3.00000002980232
  1
105
 50
359.999999948034
 41
0.933333333333333
 72
     1
 11
-555.597147357294
 21
-43.4829349368811
 31
0.0
 73
     2
  0
LINE
  5
    B8
  8
0
  6
CONTINUOUS
 62
     7
 10
-529.072154354886
 20
25.323112487791
 30
0.0
 11
-529.072154354886
 21
-47.9829349517822
 31
0.0
  0
LINE
  5
    B9
  8
0
  6
CONTINUOUS
 62
     7
 10
-581.572146725478
 20
25.323112487791
 30
0.0
 11
-581.572146725478
 21
-47.9829349517822
 31
0.0
  0
LINE
  5
    BA
  8
0
  6
CONTINUOUS
 62
     7
 10
-529.072154354886
 20
-45.9829349517822
 30
0.0
 11
-581.572146725478
 21
-45.9829349517822
 31
0.0
  0
LINE
  5
    BB
  8
0
  6
CONTINUOUS
 62
     7
 10
-532.026577632093
 20
-46.5038793817339
 30
0.0
 11
-529.072154354886
 21
-45.9829349517822
 31
0.0
  0
LINE
  5
    BC
  8
0
  6
CONTINUOUS
 62
     7
 10
-529.072154354886
 20
-45.9829349517822
 30
0.0
 11
-532.026577632093
 21
-45.4619905218306
 31
0.0
  0
LINE
  5
    BD
  8
0
  6
CONTINUOUS
 62
     7
 10
-578.617723448271
 20
-45.4619905218306
 30
0.0
 11
-581.572146725478
 21
-45.9829349517822
 31
0.0
  0
LINE
  5
    BE
  8
0
  6
CONTINUOUS
 62
     7
 10
-581.572146725478
 20
-45.9829349517822
 30
0.0
 11
-578.617723448271
 21
-46.5038793817339
 31
0.0
  0
ENDBLK
  5
    BF
  8
0
  6
CONTINUOUS
 62
     7
  0
BLOCK
  5
    C0
  8
0
  6
CONTINUOUS
 62
     7
  2
*UDIM1677
 70
    65
 10
0.0
 20
0.0
 30
0.0
  3
*UDIM1677
  0
TEXT
  5
    C1
  8
0
  6
CONTINUOUS
 62
     7
 10
-549.347155019005
 20
-31.3783514477116
 30
0.0
 40
3.00000002980232
  1
35
 50
359.999999948034
 41
0.933333333333333
 72
     1
 11
-546.847154992817
 21
-29.8783514350653
 31
0.0
 73
     2
  0
LINE
  5
    C2
  8
0
  6
CONTINUOUS
 62
     7
 10
-537.822152048178
 20
-23.0018780194133
 30
0.0
 11
-537.822157133782
 21
-34.3783514499662
 31
0.0
  0
LINE
  5
    C3
  8
0
  6
CONTINUOUS
 62
     7
 10
-537.822156239726
 20
-32.3783514499664
 30
0.0
 11
-555.322137938756
 21
-32.3783514499664
 31
0.0
  0
LINE
  5
    C4
  8
0
  6
CONTINUOUS
 62
     7
 10
-540.776579516933
 20
-32.8992958799181
 30
0.0
 11
-537.822156239726
 21
-32.3783514499664
 31
0.0
  0
LINE
  5
    C5
  8
0
  6
CONTINUOUS
 62
     7
 10
-537.822156239726
 20
-32.3783514499664
 30
0.0
 11
-540.776579516933
 21
-31.8574070200148
 31
0.0
  0
LINE
  5
    C6
  8
0
  6
CONTINUOUS
 62
     7
 10
-552.367714661549
 20
-31.8574070200148
 30
0.0
 11
-555.322137938756
 21
-32.3783514499664
 31
0.0
  0
LINE
  5
    C7
  8
0
  6
CONTINUOUS
 62
     7
 10
-555.322137938756
 20
-32.3783514499664
 30
0.0
 11
-552.367714661549
 21
-32.8992958799181
 31
0.0
  0
ENDBLK
  5
    C8
  8
0
  6
CONTINUOUS
 62
     7
  0
BLOCK
  5
    C9
  8
0
  6
CONTINUOUS
 62
     7
  2
*UDIM1678
 70
    65
 10
0.0
 20
0.0
 30
0.0
  3
*UDIM1678
  0
TEXT
  5
    CA
  8
0
  6
CONTINUOUS
 62
     7
 10
-566.847155017973
 20
-31.3783514477116
 30
0.0
 40
3.00000002980232
  1
35
 50
359.999999948034
 41
0.933333333333333
 72
     1
 11
-564.347154991785
 21
-29.8783514350653
 31
0.0
 73
     2
  0
LINE
  5
    CB
  8
0
  6
CONTINUOUS
 62
     7
 10
-572.822155692772
 20
-23.001883545169
 30
0.0
 11
-572.822162934854
 21
-34.378351449966
 31
0.0
  0
LINE
  5
    CC
  8
0
  6
CONTINUOUS
 62
     7
 10
-555.322137938756
 20
-32.3783514499664
 30
0.0
 11
-572.822161661685
 21
-32.3783514499664
 31
0.0
  0
LINE
  5
    CD
  8
0
  6
CONTINUOUS
 62
     7
 10
-558.276561215963
 20
-32.8992958799181
 30
0.0
 11
-555.322137938756
 21
-32.3783514499664
 31
0.0
  0
LINE
  5
    CE
  8
0
  6
CONTINUOUS
 62
     7
 10
-555.322137938756
 20
-32.3783514499664
 30
0.0
 11
-558.276561215963
 21
-31.8574070200148
 31
0.0
  0
LINE
  5
    CF
  8
0
  6
CONTINUOUS
 62
     7
 10
-569.867738384478
 20
-31.8574070200148
 30
0.0
 11
-572.822161661685
 21
-32.3783514499664
 31
0.0
  0
LINE
  5
    D0
  8
0
  6
CONTINUOUS
 62
     7
 10
-572.822161661685
 20
-32.3783514499664
 30
0.0
 11
-569.867738384478
 21
-32.8992958799181
 31
0.0
  0
ENDBLK
  5
    D1
  8
0
  6
CONTINUOUS
 62
     7
  0
BLOCK
  5
    D2
  8
0
  6
CONTINUOUS
 62
     7
  2
*UDIM1679
 70
    65
 10
0.0
 20
0.0
 30
0.0
  3
*UDIM1679
  0
TEXT
  5
    D3
  8
0
  6
CONTINUOUS
 62
     7
 10
-584.347155011569
 20
-31.3783514477116
 30
0.0
 40
3.00000002980232
  1
35
 50
359.999999948034
 41
0.933333333333333
 72
     1
 11
-581.847154985381
 21
-29.8783514350653
 31
0.0
 73
     2
  0
LINE
  5
    D4
  8
0
  6
CONTINUOUS
 62
     7
 10
-590.322154108468
 20
-20.8018804391402
 30
0.0
 11
-590.322164279402
 21
-34.3783514499659
 31
0.0
  0
LINE
  5
    D5
  8
0
  6
CONTINUOUS
 62
     7
 10
-572.822161661685
 20
-32.3783514499664
 30
0.0
 11
-590.322162781085
 21
-32.3783514499664
 31
0.0
  0
LINE
  5
    D6
  8
0
  6
CONTINUOUS
 62
     7
 10
-575.776584938892
 20
-32.8992958799181
 30
0.0
 11
-572.822161661685
 21
-32.3783514499664
 31
0.0
  0
LINE
  5
    D7
  8
0
  6
CONTINUOUS
 62
     7
 10
-572.822161661685
 20
-32.3783514499664
 30
0.0
 11
-575.776584938892
 21
-31.8574070200148
 31
0.0
  0
LINE
  5
    D8
  8
0
  6
CONTINUOUS
 62
     7
 10
-587.367739503878
 20
-31.8574070200148
 30
0.0
 11
-590.322162781085
 21
-32.3783514499664
 31
0.0
  0
LINE
  5
    D9
  8
0
  6
CONTINUOUS
 62
     7
 10
-590.322162781085
 20
-32.3783514499664
 30
0.0
 11
-587.367739503878
 21
-32.8992958799181
 31
0.0
  0
ENDBLK
  5
    DA
  8
0
  6
CONTINUOUS
 62
     7
  0
BLOCK
  5
    DB
  8
0
  6
CONTINUOUS
 62
     7
  2
*UDIM1680
 70
    65
 10
0.0
 20
0.0
 30
0.0
  3
*UDIM1680
  0
TEXT
  5
    DC
  8
0
  6
CONTINUOUS
 62
     7
 10
-547.772143600572
 20
-37.6947643709063
 30
0.0
 40
3.00000002980232
  1
52,5
 50
359.999999948034
 41
0.933333333333333
 72
     1
 11
-542.472143546568
 21
-36.1947643607855
 31
0.0
 73
     2
  0
LINE
  5
    DD
  8
0
  6
CONTINUOUS
 62
     7
 10
-529.072154764159
 20
25.3231124877911
 30
0.0
 11
-529.072181783467
 21
-40.6947643756865
 31
0.0
  0
LINE
  5
    DE
  8
0
  6
CONTINUOUS
 62
     7
 10
-555.322147039408
 20
33.537955904771
 30
0.0
 11
-555.322170342282
 21
-40.6947643756865
 31
0.0
  0
LINE
  5
    DF
  8
0
  6
CONTINUOUS
 62
     7
 10
-529.072180964922
 20
-38.6947643756866
 30
0.0
 11
-555.322169714449
 21
-38.6947643756866
 31
0.0
  0
LINE
  5
    E0
  8
0
  6
CONTINUOUS
 62
     7
 10
-532.026604242129
 20
-39.2157088056383
 30
0.0
 11
-529.072180964922
 21
-38.6947643756866
 31
0.0
  0
LINE
  5
    E1
  8
0
  6
CONTINUOUS
 62
     7
 10
-529.072180964922
 20
-38.6947643756866
 30
0.0
 11
-532.026604242129
 21
-38.173819945735
 31
0.0
  0
LINE
  5
    E2
  8
0
  6
CONTINUOUS
 62
     7
 10
-552.367746437242
 20
-38.173819945735
 30
0.0
 11
-555.322169714449
 21
-38.6947643756866
 31
0.0
  0
LINE
  5
    E3
  8
0
  6
CONTINUOUS
 62
     7
 10
-555.322169714449
 20
-38.6947643756866
 30
0.0
 11
-552.367746437242
 21
-39.2157088056383
 31
0.0
  0
ENDBLK
  5
    E4
  8
0
  6
CONTINUOUS
 62
     7
  0
BLOCK
  5
    E5
  8
0
  6
CONTINUOUS
 62
     7
  2
*UDIM1681
 70
    65
 10
0.0
 20
0.0
 30
0.0
  3
*UDIM1681
  0
TEXT
  5
    E6
  8
0
  6
CONTINUOUS
 62
     7
 10
-568.247158857992
 20
-53.4858131373516
 30
0.0
 40
3.00000002980232
  1
140
 50
359.999999948034
 41
0.933333333333333
 72
     1
 11
-564.347158817896
 21
-51.985813125968
 31
0.0
 73
     2
  0
LINE
  5
    E7
  8
0
  6
CONTINUOUS
 62
     7
 10
-529.072154745525
 20
25.3231124877911
 30
0.0
 11
-529.07218670327
 21
-56.485813140869
 31
0.0
  0
LINE
  5
    E8
  8
0
  6
CONTINUOUS
 62
     7
 10
-599.072167331075
 20
-21.4018837213515
 30
0.0
 11
-599.072178344499
 21
-56.485813140869
 31
0.0
  0
LINE
  5
    E9
  8
0
  6
CONTINUOUS
 62
     7
 10
-529.072185921992
 20
-54.4858131408691
 30
0.0
 11
-599.072177716666
 21
-54.4858131408691
 31
0.0
  0
LINE
  5
    EA
  8
0
  6
CONTINUOUS
 62
     7
 10
-532.026609199199
 20
-55.0067575708208
 30
0.0
 11
-529.072185921992
 21
-54.4858131408691
 31
0.0
  0
LINE
  5
    EB
  8
0
  6
CONTINUOUS
 62
     7
 10
-529.072185921992
 20
-54.4858131408691
 30
0.0
 11
-532.026609199199
 21
-53.9648687109175
 31
0.0
  0
LINE
  5
    EC
  8
0
  6
CONTINUOUS
 62
     7
 10
-596.117754439459
 20
-53.9648687109175
 30
0.0
 11
-599.072177716666
 21
-54.4858131408691
 31
0.0
  0
LINE
  5
    ED
  8
0
  6
CONTINUOUS
 62
     7
 10
-599.072177716666
 20
-54.4858131408691
 30
0.0
 11
-596.117754439459
 21
-55.0067575708208
 31
0.0
  0
ENDBLK
  5
    EE
  8
0
  6
CONTINUOUS
 62
     7
  0
BLOCK
  5
    EF
  8
0
  6
CONTINUOUS
 62
     7
  2
*UDIM1682
 70
    65
 10
0.0
 20
0.0
 30
0.0
  3
*UDIM1682
  0
TEXT
  5
    F0
  8
0
  6
CONTINUOUS
 62
     7
 10
-620.618716243461
 20
16.5231086270336
 30
0.0
 40
3.00000002980232
  1
170
 50
89.9999999480344
 41
0.933333333333333
 72
     1
 11
-622.11871625483
 21
20.4231086671352
 31
0.0
 73
     2
  0
LINE
  5
    F1
  8
0
  6
CONTINUOUS
 62
     7
 10
-598.32216139509
 20
-21.8018836975099
 30
0.0
 11
-621.618716239929
 21
-21.8018836975099
 31
0.0
  0
LINE
  5
    F2
  8
0
  6
CONTINUOUS
 62
     7
 10
-598.32216139509
 20
63.1981163024902
 30
0.0
 11
-621.618716239929
 21
63.1981163024902
 31
0.0
  0
LINE
  5
    F3
  8
0
  6
CONTINUOUS
 62
     7
 10
-619.618716239929
 20
-21.8018836975099
 30
0.0
 11
-619.618716239929
 21
63.1981163024902
 31
0.0
  0
LINE
  5
    F4
  8
0
  6
CONTINUOUS
 62
     7
 10
-620.139660669881
 20
-18.847460420303
 30
0.0
 11
-619.618716239929
 21
-21.8018836975099
 31
0.0
  0
LINE
  5
    F5
  8
0
  6
CONTINUOUS
 62
     7
 10
-619.618716239929
 20
-21.8018836975099
 30
0.0
 11
-619.097771809978
 21
-18.847460420303
 31
0.0
  0
LINE
  5
    F6
  8
0
  6
CONTINUOUS
 62
     7
 10
-619.097771809978
 20
60.2436930252833
 30
0.0
 11
-619.618716239929
 21
63.1981163024902
 31
0.0
  0
LINE
  5
    F7
  8
0
  6
CONTINUOUS
 62
     7
 10
-619.618716239929
 20
63.1981163024902
 30
0.0
 11
-620.139660669881
 21
60.2436930252833
 31
0.0
  0
ENDBLK
  5
    F8
  8
0
  6
CONTINUOUS
 62
     7
  0
BLOCK
  5
    F9
  8
0
  6
CONTINUOUS
 62
     7
  2
*UDIM1683
 70
    65
 10
0.0
 20
0.0
 30
0.0
  3
*UDIM1683
  0
TEXT
  5
    FA
  8
0
  6
CONTINUOUS
 62
     7
 10
-319.565751004992
 20
43.8003278227481
 30
0.0
 40
3.00000002980232
  1
7
 50
398.558282972087
 41
0.933333333333334
 72
     1
 11
-319.640544653039
 21
45.6589310560811
 31
0.0
 73
     2
  0
TEXT
  5
    FB
  8
0
  6
CONTINUOUS
 62
     7
 10
-322.028970719092
 20
41.8369000286449
 30
0.0
 40
3.00000002980232
  1
Ø
 50
398.558282972087
 41
0.933333333333334
 72
     1
 11
-322.103764367138
 21
43.6955032619779
 31
0.0
 73
     2
  0
LINE
  5
    FC
  8
0
  6
CONTINUOUS
 62
     7
 10
-307.134772547938
 20
52.4302232679094
 30
0.0
 11
-321.405660305184
 21
41.0549255189016
 31
0.0
  0
LINE
  5
    FD
  8
0
  6
CONTINUOUS
 62
     7
 10
-305.149198939196
 20
54.6791113140936
 30
0.0
 11
-307.134772547938
 21
52.4302232679094
 31
0.0
  0
LINE
  5
    FE
  8
0
  6
CONTINUOUS
 62
     7
 10
-307.134772547938
 20
52.4302232679094
 30
0.0
 11
-304.499778767943
 21
53.8643807834521
 31
0.0
  0
LINE
  5
    FF
  8
0
  6
CONTINUOUS
 62
     7
 10
-310.488801549085
 20
49.0905420062189
 30
0.0
 11
-308.503227940344
 21
51.3394300524031
 31
0.0
  0
LINE
  5
   100
  8
0
  6
CONTINUOUS
 62
     7
 10
-308.503227940344
 20
51.3394300524031
 30
0.0
 11
-311.138221720339
 21
49.9052725368604
 31
0.0
  0
ENDBLK
  5
   101
  8
0
  6
CONTINUOUS
 62
     7
  0
BLOCK
  5
   102
  8
0
  6
CONTINUOUS
 62
     7
  2
*UDIM1684
 70
    65
 10
0.0
 20
0.0
 30
0.0
  3
*UDIM1684
  0
TEXT
  5
   103
  8
0
  6
CONTINUOUS
 62
     7
 10
-330.113801966764
 20
65.4598266113808
 30
0.0
 40
3.00000002980232
  1
142
 50
449.999999844103
 41
0.933333333333333
 72
     1
 11
-331.613801971078
 21
69.3598266541958
 31
0.0
 73
     2
  0
LINE
  5
   104
  8
0
  6
CONTINUOUS
 62
     7
 10
-290.944000244141
 20
87.3848266601563
 30
0.0
 11
-331.113801956177
 21
87.3848266601563
 31
0.0
  0
LINE
  5
   105
  8
0
  6
CONTINUOUS
 62
     7
 10
-290.944000244141
 20
51.8848266601563
 30
0.0
 11
-331.113801956177
 21
51.8848266601563
 31
0.0
  0
LINE
  5
   106
  8
0
  6
CONTINUOUS
 62
     7
 10
-329.113801956177
 20
87.3848266601563
 30
0.0
 11
-329.113801956177
 21
51.8848266601563
 31
0.0
  0
LINE
  5
   107
  8
0
  6
CONTINUOUS
 62
     7
 10
-328.592857526225
 20
84.4304033829493
 30
0.0
 11
-329.113801956177
 21
87.3848266601563
 31
0.0
  0
LINE
  5
   108
  8
0
  6
CONTINUOUS
 62
     7
 10
-329.113801956177
 20
87.3848266601563
 30
0.0
 11
-329.634746386128
 21
84.4304033829493
 31
0.0
  0
LINE
  5
   109
  8
0
  6
CONTINUOUS
 62
     7
 10
-329.634746386128
 20
54.8392499373632
 30
0.0
 11
-329.113801956177
 21
51.8848266601563
 31
0.0
  0
LINE
  5
   10A
  8
0
  6
CONTINUOUS
 62
     7
 10
-329.113801956177
 20
51.8848266601563
 30
0.0
 11
-328.592857526225
 21
54.8392499373632
 31
0.0
  0
ENDBLK
  5
   10B
  8
0
  6
CONTINUOUS
 62
     7
  0
BLOCK
  5
   10C
  8
0
  6
CONTINUOUS
 62
     7
  2
*UDIM1685
 70
    65
 10
0.0
 20
0.0
 30
0.0
  3
*UDIM1685
  0
TEXT
  5
   10D
  8
0
  6
CONTINUOUS
 62
     7
 10
-322.530115138151
 20
65.4598266113808
 30
0.0
 40
3.00000002980232
  1
112
 50
449.999999844103
 41
0.933333333333333
 72
     1
 11
-324.030115142465
 21
69.3598266541958
 31
0.0
 73
     2
  0
LINE
  5
   10E
  8
0
  6
CONTINUOUS
 62
     7
 10
-312.819000244141
 20
83.6348266601563
 30
0.0
 11
-323.530115127563
 21
83.6348266601563
 31
0.0
  0
LINE
  5
   10F
  8
0
  6
CONTINUOUS
 62
     7
 10
-312.819000244141
 20
55.6348266601563
 30
0.0
 11
-323.530115127563
 21
55.6348266601563
 31
0.0
  0
LINE
  5
   110
  8
0
  6
CONTINUOUS
 62
     7
 10
-321.530115127564
 20
83.6348266601563
 30
0.0
 11
-321.530115127564
 21
55.6348266601563
 31
0.0
  0
LINE
  5
   111
  8
0
  6
CONTINUOUS
 62
     7
 10
-321.009170697612
 20
80.6804033829493
 30
0.0
 11
-321.530115127564
 21
83.6348266601563
 31
0.0
  0
LINE
  5
   112
  8
0
  6
CONTINUOUS
 62
     7
 10
-321.530115127564
 20
83.6348266601563
 30
0.0
 11
-322.051059557515
 21
80.6804033829493
 31
0.0
  0
LINE
  5
   113
  8
0
  6
CONTINUOUS
 62
     7
 10
-322.051059557515
 20
58.5892499373632
 30
0.0
 11
-321.530115127564
 21
55.6348266601563
 31
0.0
  0
LINE
  5
   114
  8
0
  6
CONTINUOUS
 62
     7
 10
-321.530115127564
 20
55.6348266601563
 30
0.0
 11
-321.009170697612
 21
58.5892499373632
 31
0.0
  0
ENDBLK
  5
   115
  8
0
  6
CONTINUOUS
 62
     7
  0
BLOCK
  5
   116
  8
0
  6
CONTINUOUS
 62
     7
  2
*UDIM1686
 70
    65
 10
0.0
 20
0.0
 30
0.0
  3
*UDIM1686
  0
TEXT
  5
   117
  8
0
  6
CONTINUOUS
 62
     7
 10
-301.994000292918
 20
103.046298991305
 30
0.0
 40
3.00000002980232
  1
112
 50
359.999999844103
 41
0.933333333333333
 72
     1
 11
-298.094000250101
 21
104.546298995614
 31
0.0
 73
     2
  0
LINE
  5
   118
  8
0
  6
CONTINUOUS
 62
     7
 10
-311.819000244141
 20
84.6348266601563
 30
0.0
 11
-311.819000244141
 21
104.046298980713
 31
0.0
  0
LINE
  5
   119
  8
0
  6
CONTINUOUS
 62
     7
 10
-283.819000244141
 20
84.6348266601563
 30
0.0
 11
-283.819000244141
 21
104.046298980713
 31
0.0
  0
LINE
  5
   11A
  8
0
  6
CONTINUOUS
 62
     7
 10
-311.819000244141
 20
102.046298980713
 30
0.0
 11
-283.819000244141
 21
102.046298980713
 31
0.0
  0
LINE
  5
   11B
  8
0
  6
CONTINUOUS
 62
     7
 10
-308.864576966934
 20
102.567243410665
 30
0.0
 11
-311.819000244141
 21
102.046298980713
 31
0.0
  0
LINE
  5
   11C
  8
0
  6
CONTINUOUS
 62
     7
 10
-311.819000244141
 20
102.046298980713
 30
0.0
 11
-308.864576966934
 21
101.525354550761
 31
0.0
  0
LINE
  5
   11D
  8
0
  6
CONTINUOUS
 62
     7
 10
-286.773423521348
 20
101.525354550761
 30
0.0
 11
-283.819000244141
 21
102.046298980713
 31
0.0
  0
LINE
  5
   11E
  8
0
  6
CONTINUOUS
 62
     7
 10
-283.819000244141
 20
102.046298980713
 30
0.0
 11
-286.773423521348
 21
102.567243410665
 31
0.0
  0
ENDBLK
  5
   11F
  8
0
  6
CONTINUOUS
 62
     7
  0
BLOCK
  5
   120
  8
0
  6
CONTINUOUS
 62
     7
  2
*UDIM1687
 70
    65
 10
0.0
 20
0.0
 30
0.0
  3
*UDIM1687
  0
TEXT
  5
   121
  8
0
  6
CONTINUOUS
 62
     7
 10
-300.59400027901
 20
96.3881282874294
 30
0.0
 40
3.00000002980232
  1
80
 50
359.999999844103
 41
0.933333333333333
 72
     1
 11
-298.094000250101
 21
97.8881282955408
 31
0.0
 73
     2
  0
LINE
  5
   122
  8
0
  6
CONTINUOUS
 62
     7
 10
-307.819000244141
 20
89.4473266601563
 30
0.0
 11
-307.819000244141
 21
97.3881282806397
 31
0.0
  0
LINE
  5
   123
  8
0
  6
CONTINUOUS
 62
     7
 10
-287.819000244141
 20
89.4473266601563
 30
0.0
 11
-287.819000244141
 21
97.3881282806397
 31
0.0
  0
LINE
  5
   124
  8
0
  6
CONTINUOUS
 62
     7
 10
-307.819000244141
 20
95.3881282806397
 30
0.0
 11
-287.819000244141
 21
95.3881282806397
 31
0.0
  0
LINE
  5
   125
  8
0
  6
CONTINUOUS
 62
     7
 10
-304.864576966934
 20
95.9090727105913
 30
0.0
 11
-307.819000244141
 21
95.3881282806397
 31
0.0
  0
LINE
  5
   126
  8
0
  6
CONTINUOUS
 62
     7
 10
-307.819000244141
 20
95.3881282806397
 30
0.0
 11
-304.864576966934
 21
94.867183850688
 31
0.0
  0
LINE
  5
   127
  8
0
  6
CONTINUOUS
 62
     7
 10
-290.773423521348
 20
94.867183850688
 30
0.0
 11
-287.819000244141
 21
95.3881282806397
 31
0.0
  0
LINE
  5
   128
  8
0
  6
CONTINUOUS
 62
     7
 10
-287.819000244141
 20
95.3881282806397
 30
0.0
 11
-290.773423521348
 21
95.9090727105913
 31
0.0
  0
ENDBLK
  5
   129
  8
0
  6
CONTINUOUS
 62
     7
  0
BLOCK
  5
   12A
  8
0
  6
CONTINUOUS
 62
     7
  2
*HATCH1139
 70
    65
 10
0.0
 20
0.0
 30
0.0
  3
*HATCH1139
  0
LINE
  5
   12B
  8
0
  6
CONTINUOUS
 62
   210
 10
9.1102123260498
 20
71.5
 30
0.0
 11
13.0000019073486
 21
67.6102066040039
 31
0.0
  0
ENDBLK
  5
   12C
  8
0
  6
CONTINUOUS
 62
     7
  0
BLOCK
  5
   12D
  8
0
  6
CONTINUOUS
 62
     7
  2
*HATCH1140
 70
    65
 10
0.0
 20
0.0
 30
0.0
  3
*HATCH1140
  0
LINE
  5
   12E
  8
0
  6
CONTINUOUS
 62
   210
 10
14.1969509124756
 20
-46.0167922973633
 30
0.0
 11
17.1801414489746
 21
-48.9999885559082
 31
0.0
  0
ENDBLK
  5
   12F
  8
0
  6
CONTINUOUS
 62
     7
  0
BLOCK
  5
   130
  8
0
  6
CONTINUOUS
 62
     7
  2
*HATCH1141
 70
    65
 10
0.0
 20
0.0
 30
0.0
  3
*HATCH1141
  0
LINE
  5
   131
  8
0
  6
CONTINUOUS
 62
   210
 10
20.7441368103027
 20
-45.0167922973633
 30
0.0
 11
18.0000019073486
 21
-47.7609252929688
 31
0.0
  0
LINE
  5
   132
  8
0
  6
CONTINUOUS
 62
   210
 10
21.0
 20
-49.0035667419434
 30
0.0
 11
18.0000019073486
 21
-52.0035667419434
 31
0.0
  0
LINE
  5
   133
  8
0
  6
CONTINUOUS
 62
   210
 10
21.0
 20
-53.246208190918
 30
0.0
 11
19.3462104797363
 21
-54.9000015258789
 31
0.0
  0
ENDBLK
  5
   134
  8
0
  6
CONTINUOUS
 62
     7
  0
BLOCK
  5
   135
  8
0
  6
CONTINUOUS
 62
     7
  2
*HATCH1142
 70
    65
 10
0.0
 20
0.0
 30
0.0
  3
*HATCH1142
  0
LINE
  5
   136
  8
0
  6
CONTINUOUS
 62
   210
 10
21.7528133392334
 20
-63.0999984741211
 30
0.0
 11
18.0000019073486
 21
-66.8528137207031
 31
0.0
  0
LINE
  5
   137
  8
0
  6
CONTINUOUS
 62
   210
 10
23.0
 20
-66.0954513549805
 30
0.0
 11
21.0954647064209
 21
-67.9999847412109
 31
0.0
  0
ENDBLK
  5
   138
  8
0
  6
CONTINUOUS
 62
     7
  0
BLOCK
  5
   139
  8
0
  6
CONTINUOUS
 62
     7
  2
*HATCH1143
 70
    65
 10
0.0
 20
0.0
 30
0.0
  3
*HATCH1143
  0
LINE
  5
   13A
  8
0
  6
CONTINUOUS
 62
   210
 10
23.0
 20
-47.0035705566406
 30
0.0
 11
21.0000019073486
 21
-49.0035705566406
 31
0.0
  0
LINE
  5
   13B
  8
0
  6
CONTINUOUS
 62
   210
 10
23.0
 20
-51.246208190918
 30
0.0
 11
21.0000019073486
 21
-53.246208190918
 31
0.0
  0
ENDBLK
  5
   13C
  8
0
  6
CONTINUOUS
 62
     7
  0
BLOCK
  5
   13D
  8
0
  6
CONTINUOUS
 62
     7
  2
*HATCH1144
 70
    65
 10
0.0
 20
0.0
 30
0.0
  3
*HATCH1144
  0
LINE
  5
   13E
  8
0
  6
CONTINUOUS
 62
   210
 10
23.5807666778564
 20
74.0
 30
0.0
 11
26.0807647705078
 21
71.5
 31
0.0
  0
LINE
  5
   13F
  8
0
  6
CONTINUOUS
 62
   210
 10
27.8234043121338
 20
74.0
 30
0.0
 11
30.3234024047852
 21
71.5
 31
0.0
  0
LINE
  5
   140
  8
0
  6
CONTINUOUS
 62
   210
 10
32.0660438537598
 20
74.0
 30
0.0
 11
34.5660400390625
 21
71.5
 31
0.0
  0
ENDBLK
  5
   141
  8
0
  6
CONTINUOUS
 62
     7
  0
BLOCK
  5
   142
  8
0
  6
CONTINUOUS
 62
     7
  2
*HATCH1145
 70
    65
 10
0.0
 20
0.0
 30
0.0
  3
*HATCH1145
  0
LINE
  5
   143
  8
0
  6
CONTINUOUS
 62
    52
 10
107.001167297363
 20
-64.8257827758789
 30
0.0
 11
105.001167297363
 21
-66.8257751464844
 31
0.0
  0
LINE
  5
   144
  8
0
  6
CONTINUOUS
 62
    52
 10
107.001167297363
 20
-69.0684280395508
 30
0.0
 11
105.001167297363
 21
-71.0684204101563
 31
0.0
  0
LINE
  5
   145
  8
0
  6
CONTINUOUS
 62
    52
 10
107.001167297363
 20
-73.3110733032227
 30
0.0
 11
105.001167297363
 21
-75.3110656738281
 31
0.0
  0
LINE
  5
   146
  8
0
  6
CONTINUOUS
 62
    52
 10
107.001167297363
 20
-77.5537185668945
 30
0.0
 11
105.001167297363
 21
-79.5537109375
 31
0.0
  0
LINE
  5
   147
  8
0
  6
CONTINUOUS
 62
    52
 10
107.001167297363
 20
-81.7963638305664
 30
0.0
 11
105.001167297363
 21
-83.7963562011719
 31
0.0
  0
LINE
  5
   148
  8
0
  6
CONTINUOUS
 62
    52
 10
107.001167297363
 20
-86.0390090942383
 30
0.0
 11
105.001167297363
 21
-88.0390014648438
 31
0.0
  0
LINE
  5
   149
  8
0
  6
CONTINUOUS
 62
    52
 10
107.001167297363
 20
-90.2816543579102
 30
0.0
 11
105.001167297363
 21
-92.2816467285156
 31
0.0
  0
LINE
  5
   14A
  8
0
  6
CONTINUOUS
 62
    52
 10
107.001167297363
 20
-94.524299621582
 30
0.0
 11
105.001167297363
 21
-96.5242919921875
 31
0.0
  0
LINE
  5
   14B
  8
0
  6
CONTINUOUS
 62
    52
 10
107.001167297363
 20
-98.7669448852539
 30
0.0
 11
105.001167297363
 21
-100.766937255859
 31
0.0
  0
LINE
  5
   14C
  8
0
  6
CONTINUOUS
 62
    52
 10
107.001167297363
 20
-103.009590148926
 30
0.0
 11
105.001167297363
 21
-105.009582519531
 31
0.0
  0
LINE
  5
   14D
  8
0
  6
CONTINUOUS
 62
    52
 10
107.001167297363
 20
-107.252235412598
 30
0.0
 11
105.001167297363
 21
-109.252227783203
 31
0.0
  0
LINE
  5
   14E
  8
0
  6
CONTINUOUS
 62
    52
 10
107.001167297363
 20
-111.49488067627
 30
0.0
 11
105.001167297363
 21
-113.494873046875
 31
0.0
  0
LINE
  5
   14F
  8
0
  6
CONTINUOUS
 62
    52
 10
107.001167297363
 20
-115.737464904785
 30
0.0
 11
105.269889831543
 21
-117.46875
 31
0.0
  0
ENDBLK
  5
   150
  8
0
  6
CONTINUOUS
 62
     7
  0
BLOCK
  5
   151
  8
0
  6
CONTINUOUS
 62
     7
  2
*HATCH1146
 70
    65
 10
0.0
 20
0.0
 30
0.0
  3
*HATCH1146
  0
LINE
  5
   152
  8
0
  6
CONTINUOUS
 62
    52
 10
107.001167297363
 20
-47.8552169799805
 30
0.0
 11
105.001167297363
 21
-49.8552169799805
 31
0.0
  0
LINE
  5
   153
  8
0
  6
CONTINUOUS
 62
    52
 10
107.001167297363
 20
-52.0978546142578
 30
0.0
 11
105.001167297363
 21
-54.0978546142578
 31
0.0
  0
LINE
  5
   154
  8
0
  6
CONTINUOUS
 62
    52
 10
107.001167297363
 20
-56.3404998779297
 30
0.0
 11
106.091667175293
 21
-57.25
 31
0.0
  0
ENDBLK
  5
   155
  8
0
  6
CONTINUOUS
 62
     7
  0
BLOCK
  5
   156
  8
0
  6
CONTINUOUS
 62
     7
  2
*HATCH1147
 70
    65
 10
0.0
 20
0.0
 30
0.0
  3
*HATCH1147
  0
LINE
  5
   157
  8
0
  6
CONTINUOUS
 62
    52
 10
107.001167297363
 20
77.3026809692383
 30
0.0
 11
105.001167297363
 21
75.3026809692383
 31
0.0
  0
LINE
  5
   158
  8
0
  6
CONTINUOUS
 62
    52
 10
107.001167297363
 20
73.0600357055664
 30
0.0
 11
105.001167297363
 21
71.0600357055664
 31
0.0
  0
LINE
  5
   159
  8
0
  6
CONTINUOUS
 62
    52
 10
107.001167297363
 20
68.8173904418945
 30
0.0
 11
105.001167297363
 21
66.8173904418945
 31
0.0
  0
ENDBLK
  5
   15A
  8
0
  6
CONTINUOUS
 62
     7
  0
BLOCK
  5
   15B
  8
0
  6
CONTINUOUS
 62
     7
  2
*HATCH1148
 70
    65
 10
0.0
 20
0.0
 30
0.0
  3
*HATCH1148
  0
LINE
  5
   15C
  8
0
  6
CONTINUOUS
 62
    52
 10
107.001167297363
 20
162.155487060547
 30
0.0
 11
105.001167297363
 21
160.155487060547
 31
0.0
  0
LINE
  5
   15D
  8
0
  6
CONTINUOUS
 62
    52
 10
107.001167297363
 20
157.912841796875
 30
0.0
 11
105.001167297363
 21
155.912841796875
 31
0.0
  0
LINE
  5
   15E
  8
0
  6
CONTINUOUS
 62
    52
 10
107.001167297363
 20
153.670196533203
 30
0.0
 11
105.001167297363
 21
151.670196533203
 31
0.0
  0
LINE
  5
   15F
  8
0
  6
CONTINUOUS
 62
    52
 10
107.001167297363
 20
149.427551269531
 30
0.0
 11
105.001167297363
 21
147.427551269531
 31
0.0
  0
LINE
  5
   160
  8
0
  6
CONTINUOUS
 62
    52
 10
107.001167297363
 20
145.184906005859
 30
0.0
 11
105.001167297363
 21
143.184906005859
 31
0.0
  0
LINE
  5
   161
  8
0
  6
CONTINUOUS
 62
    52
 10
107.001167297363
 20
140.942260742188
 30
0.0
 11
105.001167297363
 21
138.942260742188
 31
0.0
  0
LINE
  5
   162
  8
0
  6
CONTINUOUS
 62
    52
 10
107.001167297363
 20
136.699615478516
 30
0.0
 11
105.001167297363
 21
134.699615478516
 31
0.0
  0
LINE
  5
   163
  8
0
  6
CONTINUOUS
 62
    52
 10
107.001167297363
 20
132.456970214844
 30
0.0
 11
105.001167297363
 21
130.456970214844
 31
0.0
  0
LINE
  5
   164
  8
0
  6
CONTINUOUS
 62
    52
 10
107.001167297363
 20
128.214324951172
 30
0.0
 11
105.001167297363
 21
126.214324951172
 31
0.0
  0
LINE
  5
   165
  8
0
  6
CONTINUOUS
 62
    52
 10
107.001167297363
 20
123.9716796875
 30
0.0
 11
105.001167297363
 21
121.9716796875
 31
0.0
  0
LINE
  5
   166
  8
0
  6
CONTINUOUS
 62
    52
 10
107.001167297363
 20
119.729034423828
 30
0.0
 11
105.001167297363
 21
117.729034423828
 31
0.0
  0
LINE
  5
   167
  8
0
  6
CONTINUOUS
 62
    52
 10
107.001167297363
 20
115.486389160156
 30
0.0
 11
105.001167297363
 21
113.486389160156
 31
0.0
  0
LINE
  5
   168
  8
0
  6
CONTINUOUS
 62
    52
 10
107.001167297363
 20
111.243743896484
 30
0.0
 11
105.001167297363
 21
109.243743896484
 31
0.0
  0
LINE
  5
   169
  8
0
  6
CONTINUOUS
 62
    52
 10
107.001167297363
 20
107.001098632813
 30
0.0
 11
105.001167297363
 21
105.001098632813
 31
0.0
  0
LINE
  5
   16A
  8
0
  6
CONTINUOUS
 62
    52
 10
107.001167297363
 20
102.758453369141
 30
0.0
 11
105.001167297363
 21
100.758453369141
 31
0.0
  0
LINE
  5
   16B
  8
0
  6
CONTINUOUS
 62
    52
 10
107.001167297363
 20
98.5158081054688
 30
0.0
 11
105.001167297363
 21
96.5158081054688
 31
0.0
  0
LINE
  5
   16C
  8
0
  6
CONTINUOUS
 62
    52
 10
107.001167297363
 20
94.2731628417969
 30
0.0
 11
105.001167297363
 21
92.2731628417969
 31
0.0
  0
LINE
  5
   16D
  8
0
  6
CONTINUOUS
 62
    52
 10
107.001167297363
 20
90.030517578125
 30
0.0
 11
105.001167297363
 21
88.030517578125
 31
0.0
  0
LINE
  5
   16E
  8
0
  6
CONTINUOUS
 62
    52
 10
107.001167297363
 20
85.787956237793
 30
0.0
 11
105.963203430176
 21
84.7499923706055
 31
0.0
  0
ENDBLK
  5
   16F
  8
0
  6
CONTINUOUS
 62
     7
  0
BLOCK
  5
   170
  8
0
  6
CONTINUOUS
 62
     7
  2
*HATCH1149
 70
    65
 10
0.0
 20
0.0
 30
0.0
  3
*HATCH1149
  0
LINE
  5
   171
  8
0
  6
CONTINUOUS
 62
   210
 10
24.8035449981689
 20
-46.0167922973633
 30
0.0
 11
27.786735534668
 21
-48.9999885559082
 31
0.0
  0
LINE
  5
   172
  8
0
  6
CONTINUOUS
 62
   210
 10
29.0461826324463
 20
-46.0167922973633
 30
0.0
 11
32.0293731689453
 21
-48.9999885559082
 31
0.0
  0
LINE
  5
   173
  8
0
  6
CONTINUOUS
 62
   210
 10
33.2888221740723
 20
-46.0167922973633
 30
0.0
 11
36.2720108032227
 21
-48.9999885559082
 31
0.0
  0
LINE
  5
   174
  8
0
  6
CONTINUOUS
 62
   210
 10
37.5314598083496
 20
-46.0167922973633
 30
0.0
 11
40.5146484375
 21
-48.9999885559082
 31
0.0
  0
LINE
  5
   175
  8
0
  6
CONTINUOUS
 62
   210
 10
41.774097442627
 20
-46.0167922973633
 30
0.0
 11
44.7572860717773
 21
-48.9999885559082
 31
0.0
  0
LINE
  5
   176
  8
0
  6
CONTINUOUS
 62
   210
 10
46.0167350769043
 20
-46.0167922973633
 30
0.0
 11
46.9614868164062
 21
-46.9615440368652
 31
0.0
  0
ENDBLK
  5
   177
  8
0
  6
CONTINUOUS
 62
     7
  0
BLOCK
  5
   178
  8
0
  6
CONTINUOUS
 62
     2
  2
*HATCH1150
 70
    65
 10
0.0
 20
0.0
 30
0.0
  3
*HATCH1150
  0
LINE
  5
   179
  8
0
  6
CONTINUOUS
 62
   210
 10
20.8751125335693
 20
93.0
 30
0.0
 11
18.0000019073486
 21
90.124885559082
 31
0.0
  0
LINE
  5
   17A
  8
0
  6
CONTINUOUS
 62
   210
 10
22.0000019073486
 20
89.8822479248047
 30
0.0
 11
20.3177528381348
 21
88.1999969482422
 31
0.0
  0
ENDBLK
  5
   17B
  8
0
  6
CONTINUOUS
 62
     2
  0
BLOCK
  5
   17C
  8
0
  6
CONTINUOUS
 62
     2
  2
*HATCH1151
 70
    65
 10
0.0
 20
0.0
 30
0.0
  3
*HATCH1151
  0
LINE
  5
   17D
  8
0
  6
CONTINUOUS
 62
   210
 10
20.4030342102051
 20
79.8000030517578
 30
0.0
 11
18.0000019073486
 21
77.3969650268555
 31
0.0
  0
LINE
  5
   17E
  8
0
  6
CONTINUOUS
 62
   210
 10
22.0000019073486
 20
77.1543273925781
 30
0.0
 11
13.2129669189453
 21
68.3672943115234
 31
0.0
  0
LINE
  5
   17F
  8
0
  6
CONTINUOUS
 62
   210
 10
22.9864101409912
 20
73.8980941772461
 30
0.0
 11
16.5227603912354
 21
67.4344482421875
 31
0.0
  0
ENDBLK
  5
   180
  8
0
  6
CONTINUOUS
 62
     2
  0
BLOCK
  5
   181
  8
0
  6
CONTINUOUS
 62
     2
  2
*HATCH1152
 70
    65
 10
0.0
 20
0.0
 30
0.0
  3
*HATCH1152
  0
LINE
  5
   182
  8
0
  6
CONTINUOUS
 62
   210
 10
23.0000019073486
 20
76.7020874023438
 30
0.0
 11
25.7020854949951
 21
74.0
 31
0.0
  0
LINE
  5
   183
  8
0
  6
CONTINUOUS
 62
   210
 10
24.194730758667
 20
79.75
 30
0.0
 11
29.0000019073486
 21
74.9447250366211
 31
0.0
  0
LINE
  5
   184
  8
0
  6
CONTINUOUS
 62
   210
 10
28.4373683929443
 20
79.75
 30
0.0
 11
29.0000019073486
 21
79.187370300293
 31
0.0
  0
ENDBLK
  5
   185
  8
0
  6
CONTINUOUS
 62
     2
  0
BLOCK
  5
   186
  8
0
  6
CONTINUOUS
 62
     2
  2
*HATCH1153
 70
    65
 10
0.0
 20
0.0
 30
0.0
  3
*HATCH1153
  0
LINE
  5
   187
  8
0
  6
CONTINUOUS
 62
   210
 10
23.0000019073486
 20
91.5513381958008
 30
0.0
 11
26.3013362884521
 21
88.25
 31
0.0
  0
LINE
  5
   188
  8
0
  6
CONTINUOUS
 62
   210
 10
23.0000019073486
 20
95.7939834594727
 30
0.0
 11
29.0000019073486
 21
89.7939758300781
 31
0.0
  0
LINE
  5
   189
  8
0
  6
CONTINUOUS
 62
   210
 10
23.0000019073486
 20
100.036628723145
 30
0.0
 11
29.0000019073486
 21
94.03662109375
 31
0.0
  0
LINE
  5
   18A
  8
0
  6
CONTINUOUS
 62
   210
 10
23.0000019073486
 20
104.279273986816
 30
0.0
 11
29.0000019073486
 21
98.2792663574219
 31
0.0
  0
LINE
  5
   18B
  8
0
  6
CONTINUOUS
 62
   210
 10
23.0000019073486
 20
108.521919250488
 30
0.0
 11
29.0000019073486
 21
102.521911621094
 31
0.0
  0
LINE
  5
   18C
  8
0
  6
CONTINUOUS
 62
   210
 10
23.0000019073486
 20
112.76456451416
 30
0.0
 11
29.0000019073486
 21
106.764556884766
 31
0.0
  0
LINE
  5
   18D
  8
0
  6
CONTINUOUS
 62
   210
 10
26.7571964263916
 20
113.25
 30
0.0
 11
29.0000019073486
 21
111.007194519043
 31
0.0
  0
ENDBLK
  5
   18E
  8
0
  6
CONTINUOUS
 62
     2
  0
BLOCK
  5
   18F
  8
0
  6
CONTINUOUS
 62
     2
  2
*HATCH1154
 70
    65
 10
0.0
 20
0.0
 30
0.0
  3
*HATCH1154
  0
LINE
  5
   190
  8
0
  6
CONTINUOUS
 62
   210
 10
23.0000019073486
 20
125.492485046387
 30
0.0
 11
26.7424831390381
 21
121.75
 31
0.0
  0
LINE
  5
   191
  8
0
  6
CONTINUOUS
 62
   210
 10
23.0000019073486
 20
129.735122680664
 30
0.0
 11
29.0000019073486
 21
123.735122680664
 31
0.0
  0
LINE
  5
   192
  8
0
  6
CONTINUOUS
 62
   210
 10
26.9777698516846
 20
130.0
 30
0.0
 11
29.0000019073486
 21
127.977767944336
 31
0.0
  0
ENDBLK
  5
   193
  8
0
  6
CONTINUOUS
 62
     2
  0
BLOCK
  5
   194
  8
0
  6
CONTINUOUS
 62
     2
  2
*UDIM1688
 70
    65
 10
0.0
 20
0.0
 30
0.0
  3
*UDIM1688
  0
TEXT
  5
   195
  8
0
  6
CONTINUOUS
 62
     2
 10
-459.215291023253
 20
-22.8018799891056
 30
0.0
 40
3.00000002980232
  1
8
 50
90.0
 41
0.933333333333334
 72
     1
 11
-460.715291038156
 21
-21.7018799781799
 31
0.0
 73
     2
  0
TEXT
  5
   196
  8
0
  6
CONTINUOUS
 62
     2
 10
-459.215291023253
 20
-25.5518800228815
 30
0.0
 40
3.00000002980232
  1
M
 50
90.0
 41
0.933333333333334
 72
     1
 11
-460.715291038156
 21
-24.4518800119559
 31
0.0
 73
     2
  0
LINE
  5
   197
  8
0
  6
CONTINUOUS
 62
     2
 10
-435.852568626406
 20
-17.0518798828125
 30
0.0
 11
-460.215291023254
 21
-17.0518798828125
 31
0.0
  0
LINE
  5
   198
  8
0
  6
CONTINUOUS
 62
     2
 10
-435.852568626406
 20
-13.0518798828125
 30
0.0
 11
-460.215291023254
 21
-13.0518798828125
 31
0.0
  0
LINE
  5
   199
  8
0
  6
CONTINUOUS
 62
     2
 10
-458.215291023254
 20
-25.5518800228834
 30
0.0
 11
-458.215291023254
 21
-13.0518798828125
 31
0.0
  0
LINE
  5
   19A
  8
0
  6
CONTINUOUS
 62
     2
 10
-457.694346593303
 20
-20.0063031600195
 30
0.0
 11
-458.215291023254
 21
-17.0518798828125
 31
0.0
  0
LINE
  5
   19B
  8
0
  6
CONTINUOUS
 62
     2
 10
-458.215291023254
 20
-17.0518798828125
 30
0.0
 11
-458.736235453206
 21
-20.0063031600195
 31
0.0
  0
LINE
  5
   19C
  8
0
  6
CONTINUOUS
 62
     2
 10
-458.736235453206
 20
-10.0974566056055
 30
0.0
 11
-458.215291023254
 21
-13.0518798828125
 31
0.0
  0
LINE
  5
   19D
  8
0
  6
CONTINUOUS
 62
     2
 10
-458.215291023254
 20
-13.0518798828125
 30
0.0
 11
-457.694346593303
 21
-10.0974566056055
 31
0.0
  0
ENDBLK
  5
   19E
  8
0
  6
CONTINUOUS
 62
     2
  0
BLOCK
  5
   19F
  8
0
  6
CONTINUOUS
 62
     7
  2
*UDIM1689
 70
    65
 10
0.0
 20
0.0
 30
0.0
  3
*UDIM1689
  0
TEXT
  5
   1A0
  8
0
  6
CONTINUOUS
 62
     7
 10
-441.3775686572
 20
91.0974578857422
 30
0.0
 40
3.00000002980232
  1
25
 41
0.933333333333333
 72
     1
 11
-438.877568632364
 21
92.5974579006433
 31
0.0
 73
     2
  0
LINE
  5
   1A1
  8
0
  6
CONTINUOUS
 62
     7
 10
-444.852568626404
 20
69.2122726896239
 30
0.0
 11
-444.852568626404
 21
92.0974578857422
 31
0.0
  0
LINE
  5
   1A2
  8
0
  6
CONTINUOUS
 62
     7
 10
-432.352568626404
 20
80.4481201171875
 30
0.0
 11
-432.352568626404
 21
92.0974578857422
 31
0.0
  0
LINE
  5
   1A3
  8
0
  6
CONTINUOUS
 62
     7
 10
-444.852568626404
 20
90.0974578857422
 30
0.0
 11
-432.352568626404
 21
90.0974578857422
 31
0.0
  0
LINE
  5
   1A4
  8
0
  6
CONTINUOUS
 62
     7
 10
-441.898145349197
 20
90.6184023156939
 30
0.0
 11
-444.852568626404
 21
90.0974578857422
 31
0.0
  0
LINE
  5
   1A5
  8
0
  6
CONTINUOUS
 62
     7
 10
-444.852568626404
 20
90.0974578857422
 30
0.0
 11
-441.898145349197
 21
89.5765134557905
 31
0.0
  0
LINE
  5
   1A6
  8
0
  6
CONTINUOUS
 62
     7
 10
-435.306991903611
 20
89.5765134557905
 30
0.0
 11
-432.352568626404
 21
90.0974578857422
 31
0.0
  0
LINE
  5
   1A7
  8
0
  6
CONTINUOUS
 62
     7
 10
-432.352568626404
 20
90.0974578857422
 30
0.0
 11
-435.306991903611
 21
90.6184023156939
 31
0.0
  0
ENDBLK
  5
   1A8
  8
0
  6
CONTINUOUS
 62
     7
  0
BLOCK
  5
   1A9
  8
0
  6
CONTINUOUS
 62
     7
  2
*UDIM1690
 70
    65
 10
0.0
 20
0.0
 30
0.0
  3
*UDIM1690
  0
TEXT
  5
   1AA
  8
0
  6
CONTINUOUS
 62
     7
 10
-426.352569686373
 20
91.0974578857422
 30
0.0
 40
3.00000002980232
  1
6
 41
0.933333333333334
 72
     1
 11
-425.252569675446
 21
92.5974579006433
 31
0.0
 73
     2
  0
LINE
  5
   1AB
  8
0
  6
CONTINUOUS
 62
     7
 10
-429.352568626404
 20
80.4481201171875
 30
0.0
 11
-429.352568626404
 21
92.0974578857422
 31
0.0
  0
LINE
  5
   1AC
  8
0
  6
CONTINUOUS
 62
     7
 10
-432.352568626404
 20
90.0974578857422
 30
0.0
 11
-424.152569664518
 21
90.0974578857422
 31
0.0
  0
LINE
  5
   1AD
  8
0
  6
CONTINUOUS
 62
     7
 10
-435.306991903611
 20
89.5765134557905
 30
0.0
 11
-432.352568626404
 21
90.0974578857422
 31
0.0
  0
LINE
  5
   1AE
  8
0
  6
CONTINUOUS
 62
     7
 10
-432.352568626404
 20
90.0974578857422
 30
0.0
 11
-435.306991903611
 21
90.6184023156939
 31
0.0
  0
LINE
  5
   1AF
  8
0
  6
CONTINUOUS
 62
     7
 10
-426.398145349197
 20
90.6184023156939
 30
0.0
 11
-429.352568626404
 21
90.0974578857422
 31
0.0
  0
LINE
  5
   1B0
  8
0
  6
CONTINUOUS
 62
     7
 10
-429.352568626404
 20
90.0974578857422
 30
0.0
 11
-426.398145349197
 21
89.5765134557905
 31
0.0
  0
ENDBLK
  5
   1B1
  8
0
  6
CONTINUOUS
 62
     7
  0
BLOCK
  5
   1B2
  8
0
  6
CONTINUOUS
 62
     7
  2
*UDIM1691
 70
    65
 10
0.0
 20
0.0
 30
0.0
  3
*UDIM1691
  0
TEXT
  5
   1B3
  8
0
  6
CONTINUOUS
 62
     7
 10
-473.573143005364
 20
59.8473594079434
 30
0.0
 40
3.00000002980232
  1
33,5
 50
90.0
 41
0.933333333333333
 72
     1
 11
-475.073143020272
 21
65.1473594605923
 31
0.0
 73
     2
  0
LINE
  5
   1B4
  8
0
  6
CONTINUOUS
 62
     7
 10
-438.516082739388
 20
56.4481201171875
 30
0.0
 11
-474.573143005371
 21
56.4481201171875
 31
0.0
  0
LINE
  5
   1B5
  8
0
  6
CONTINUOUS
 62
     7
 10
-438.516082739388
 20
73.1981201171875
 30
0.0
 11
-474.573143005371
 21
73.1981201171875
 31
0.0
  0
LINE
  5
   1B6
  8
0
  6
CONTINUOUS
 62
     7
 10
-472.573143005371
 20
56.4481201171875
 30
0.0
 11
-472.573143005371
 21
73.1981201171875
 31
0.0
  0
LINE
  5
   1B7
  8
0
  6
CONTINUOUS
 62
     7
 10
-473.094087435323
 20
59.4025433943945
 30
0.0
 11
-472.573143005371
 21
56.4481201171875
 31
0.0
  0
LINE
  5
   1B8
  8
0
  6
CONTINUOUS
 62
     7
 10
-472.573143005371
 20
56.4481201171875
 30
0.0
 11
-472.05219857542
 21
59.4025433943945
 31
0.0
  0
LINE
  5
   1B9
  8
0
  6
CONTINUOUS
 62
     7
 10
-472.05219857542
 20
70.2436968399805
 30
0.0
 11
-472.573143005371
 21
73.1981201171875
 31
0.0
  0
LINE
  5
   1BA
  8
0
  6
CONTINUOUS
 62
     7
 10
-472.573143005371
 20
73.1981201171875
 30
0.0
 11
-473.094087435323
 21
70.2436968399805
 31
0.0
  0
ENDBLK
  5
   1BB
  8
0
  6
CONTINUOUS
 62
     7
  0
BLOCK
  5
   1BC
  8
0
  6
CONTINUOUS
 62
     7
  2
*UDIM1692
 70
    65
 10
0.0
 20
0.0
 30
0.0
  3
*UDIM1692
  0
TEXT
  5
   1BD
  8
0
  6
CONTINUOUS
 62
     7
 10
-473.573143005364
 20
82.3731204460083
 30
0.0
 40
3.00000002980232
  1
12,5
 50
90.0
 41
0.933333333333333
 72
     1
 11
-475.073143020272
 21
87.6731204986572
 31
0.0
 73
     2
  0
LINE
  5
   1BE
  8
0
  6
CONTINUOUS
 62
     7
 10
-433.352568626404
 20
79.4481201171875
 30
0.0
 11
-474.573143005371
 21
79.4481201171875
 31
0.0
  0
LINE
  5
   1BF
  8
0
  6
CONTINUOUS
 62
     7
 10
-472.573143005371
 20
73.1981201171875
 30
0.0
 11
-472.573143005371
 21
92.973120551308
 31
0.0
  0
LINE
  5
   1C0
  8
0
  6
CONTINUOUS
 62
     7
 10
-473.094087435323
 20
76.1525433943945
 30
0.0
 11
-472.573143005371
 21
73.1981201171875
 31
0.0
  0
LINE
  5
   1C1
  8
0
  6
CONTINUOUS
 62
     7
 10
-472.573143005371
 20
73.1981201171875
 30
0.0
 11
-472.05219857542
 21
76.1525433943945
 31
0.0
  0
LINE
  5
   1C2
  8
0
  6
CONTINUOUS
 62
     7
 10
-472.05219857542
 20
76.4936968399805
 30
0.0
 11
-472.573143005371
 21
79.4481201171875
 31
0.0
  0
LINE
  5
   1C3
  8
0
  6
CONTINUOUS
 62
     7
 10
-472.573143005371
 20
79.4481201171875
 30
0.0
 11
-473.094087435323
 21
76.4936968399805
 31
0.0
  0
ENDBLK
  5
   1C4
  8
0
  6
CONTINUOUS
 62
     7
  0
BLOCK
  5
   1C5
  8
0
  6
CONTINUOUS
 62
     7
  2
*UDIM1693
 70
    65
 10
0.0
 20
0.0
 30
0.0
  3
*UDIM1693
  0
TEXT
  5
   1C6
  8
0
  6
CONTINUOUS
 62
     7
 10
-440.602568494281
 20
-40.1050453186035
 30
0.0
 40
3.00000002980232
  1
5
 41
0.933333333333334
 72
     1
 11
-439.502568483354
 21
-38.6050453037024
 31
0.0
 73
     2
  0
LINE
  5
   1C7
  8
0
  6
CONTINUOUS
 62
     7
 10
-434.852568626406
 20
-20.5518736737858
 30
0.0
 11
-434.852568626406
 21
-43.1050453186035
 31
0.0
  0
LINE
  5
   1C8
  8
0
  6
CONTINUOUS
 62
     7
 10
-432.352569103241
 20
-20.5518736737859
 30
0.0
 11
-432.352569103241
 21
-43.1050453186035
 31
0.0
  0
LINE
  5
   1C9
  8
0
  6
CONTINUOUS
 62
     7
 10
-440.602568494281
 20
-41.1050453186035
 30
0.0
 11
-432.352569103241
 21
-41.1050453186035
 31
0.0
  0
LINE
  5
   1CA
  8
0
  6
CONTINUOUS
 62
     7
 10
-437.806991903613
 20
-41.6259897485552
 30
0.0
 11
-434.852568626406
 21
-41.1050453186035
 31
0.0
  0
LINE
  5
   1CB
  8
0
  6
CONTINUOUS
 62
     7
 10
-434.852568626406
 20
-41.1050453186035
 30
0.0
 11
-437.806991903613
 21
-40.5841008886519
 31
0.0
  0
LINE
  5
   1CC
  8
0
  6
CONTINUOUS
 62
     7
 10
-429.398145826034
 20
-40.5841008886519
 30
0.0
 11
-432.352569103241
 21
-41.1050453186035
 31
0.0
  0
LINE
  5
   1CD
  8
0
  6
CONTINUOUS
 62
     7
 10
-432.352569103241
 20
-41.1050453186035
 30
0.0
 11
-429.398145826034
 21
-41.6259897485552
 31
0.0
  0
ENDBLK
  5
   1CE
  8
0
  6
CONTINUOUS
 62
     7
  0
BLOCK
  5
   1CF
  8
0
  6
CONTINUOUS
 62
     7
  2
*UDIM1694
 70
    65
 10
0.0
 20
0.0
 30
0.0
  3
*UDIM1694
  0
TEXT
  5
   1D0
  8
0
  6
CONTINUOUS
 62
     7
 10
-414.447235928973
 20
-40.1050453186035
 30
0.0
 40
3.00000002980232
  1
5
 41
0.933333333333334
 72
     1
 11
-413.347235918045
 21
-38.6050453037024
 31
0.0
 73
     2
  0
TEXT
  5
   1D1
  8
0
  6
CONTINUOUS
 62
     7
 10
-425.597236046195
 20
-40.1050453186035
 30
0.0
 40
3.00000002980232
  1
min.
 41
0.933333333333333
 72
     1
 11
-420.297235993544
 21
-38.6050453037024
 31
0.0
 73
     2
  0
LINE
  5
   1D2
  8
0
  6
CONTINUOUS
 62
     7
 10
-429.852568626404
 20
-20.5518798828125
 30
0.0
 11
-429.852568626404
 21
-43.1050453186035
 31
0.0
  0
LINE
  5
   1D3
  8
0
  6
CONTINUOUS
 62
     7
 10
-432.352569103241
 20
-41.1050453186035
 30
0.0
 11
-412.247235907118
 21
-41.1050453186035
 31
0.0
  0
LINE
  5
   1D4
  8
0
  6
CONTINUOUS
 62
     7
 10
-435.306992380448
 20
-41.6259897485552
 30
0.0
 11
-432.352569103241
 21
-41.1050453186035
 31
0.0
  0
LINE
  5
   1D5
  8
0
  6
CONTINUOUS
 62
     7
 10
-432.352569103241
 20
-41.1050453186035
 30
0.0
 11
-435.306992380448
 21
-40.5841008886519
 31
0.0
  0
LINE
  5
   1D6
  8
0
  6
CONTINUOUS
 62
     7
 10
-426.898145349197
 20
-40.5841008886519
 30
0.0
 11
-429.852568626404
 21
-41.1050453186035
 31
0.0
  0
LINE
  5
   1D7
  8
0
  6
CONTINUOUS
 62
     7
 10
-429.852568626404
 20
-41.1050453186035
 30
0.0
 11
-426.898145349197
 21
-41.6259897485552
 31
0.0
  0
ENDBLK
  5
   1D8
  8
0
  6
CONTINUOUS
 62
     7
  0
BLOCK
  5
   1D9
  8
0
  6
CONTINUOUS
 62
     7
  2
*UDIM1695
 70
    65
 10
0.0
 20
0.0
 30
0.0
  3
*UDIM1695
  0
TEXT
  5
   1DA
  8
0
  6
CONTINUOUS
 62
     7
 10
-453.377568269771
 20
-34.0761299133301
 30
0.0
 40
3.00000002980232
  1
20
 41
0.933333333333333
 72
     1
 11
-450.877568244935
 21
-32.5761298984289
 31
0.0
 73
     2
  0
LINE
  5
   1DB
  8
0
  6
CONTINUOUS
 62
     7
 10
-444.852568626404
 20
-28.2166061992789
 30
0.0
 11
-444.852568626404
 21
-37.0761299133301
 31
0.0
  0
LINE
  5
   1DC
  8
0
  6
CONTINUOUS
 62
     7
 10
-434.852568626406
 20
-20.5518736737858
 30
0.0
 11
-434.852568626406
 21
-37.0761299133301
 31
0.0
  0
LINE
  5
   1DD
  8
0
  6
CONTINUOUS
 62
     7
 10
-453.377568269771
 20
-35.0761299133301
 30
0.0
 11
-434.852568626406
 21
-35.0761299133301
 31
0.0
  0
LINE
  5
   1DE
  8
0
  6
CONTINUOUS
 62
     7
 10
-441.898145349197
 20
-34.5551854833784
 30
0.0
 11
-444.852568626404
 21
-35.0761299133301
 31
0.0
  0
LINE
  5
   1DF
  8
0
  6
CONTINUOUS
 62
     7
 10
-444.852568626404
 20
-35.0761299133301
 30
0.0
 11
-441.898145349197
 21
-35.5970743432817
 31
0.0
  0
LINE
  5
   1E0
  8
0
  6
CONTINUOUS
 62
     7
 10
-437.806991903613
 20
-35.5970743432817
 30
0.0
 11
-434.852568626406
 21
-35.0761299133301
 31
0.0
  0
LINE
  5
   1E1
  8
0
  6
CONTINUOUS
 62
     7
 10
-434.852568626406
 20
-35.0761299133301
 30
0.0
 11
-437.806991903613
 21
-34.5551854833784
 31
0.0
  0
ENDBLK
  5
   1E2
  8
0
  6
CONTINUOUS
 62
     7
  0
BLOCK
  5
   1E3
  8
0
  6
CONTINUOUS
 62
     5
  2
*UDIM1696
 70
    65
 10
0.0
 20
0.0
 30
0.0
  3
*UDIM1696
  0
TEXT
  5
   1E4
  8
0
  6
CONTINUOUS
 62
     5
 10
-473.402887344352
 20
31.0356200446704
 30
0.0
 40
3.00000002980232
  1
73,75
 50
90.0
 41
0.933333333333333
 72
     1
 11
-474.902887359262
 21
37.735620111227
 31
0.0
 73
     2
  0
LINE
  5
   1E5
  8
0
  6
CONTINUOUS
 62
     5
 10
-456.191918552744
 20
19.5731201171875
 30
0.0
 11
-474.40288734436
 21
19.5731201171875
 31
0.0
  0
LINE
  5
   1E6
  8
0
  6
CONTINUOUS
 62
     5
 10
-438.516082739388
 20
56.4481201171875
 30
0.0
 11
-474.40288734436
 21
56.4481201171875
 31
0.0
  0
LINE
  5
   1E7
  8
0
  6
CONTINUOUS
 62
     5
 10
-472.40288734436
 20
19.5731201171875
 30
0.0
 11
-472.40288734436
 21
56.4481201171875
 31
0.0
  0
LINE
  5
   1E8
  8
0
  6
CONTINUOUS
 62
     5
 10
-472.923831774312
 20
22.5275433943945
 30
0.0
 11
-472.40288734436
 21
19.5731201171875
 31
0.0
  0
LINE
  5
   1E9
  8
0
  6
CONTINUOUS
 62
     5
 10
-472.40288734436
 20
19.5731201171875
 30
0.0
 11
-471.881942914409
 21
22.5275433943945
 31
0.0
  0
LINE
  5
   1EA
  8
0
  6
CONTINUOUS
 62
     5
 10
-471.881942914409
 20
53.4936968399805
 30
0.0
 11
-472.40288734436
 21
56.4481201171875
 31
0.0
  0
LINE
  5
   1EB
  8
0
  6
CONTINUOUS
 62
     5
 10
-472.40288734436
 20
56.4481201171875
 30
0.0
 11
-472.923831774312
 21
53.4936968399805
 31
0.0
  0
ENDBLK
  5
   1EC
  8
0
  6
CONTINUOUS
 62
     5
  0
BLOCK
  5
   1ED
  8
0
  6
CONTINUOUS
 62
     7
  2
*UDIM1697
 70
    65
 10
0.0
 20
0.0
 30
0.0
  3
*UDIM1697
  0
TEXT
  5
   1EE
  8
0
  6
CONTINUOUS
 62
     7
 10
-422.277275899314
 20
-64.0420608520508
 30
0.0
 40
3.00000002980232
  1
107
 41
0.933333333333333
 72
     1
 11
-418.377275860571
 21
-62.5420608371496
 31
0.0
 73
     2
  0
LINE
  5
   1EF
  8
0
  6
CONTINUOUS
 62
     7
 10
-444.852568626404
 20
-28.2166061992789
 30
0.0
 11
-444.852568626404
 21
-67.0420608520508
 31
0.0
  0
LINE
  5
   1F0
  8
0
  6
CONTINUOUS
 62
     7
 10
-391.35198439412
 20
-45.3829416675088
 30
0.0
 11
-391.35198439412
 21
-67.0420608520508
 31
0.0
  0
LINE
  5
   1F1
  8
0
  6
CONTINUOUS
 62
     7
 10
-444.852568626404
 20
-65.0420608520508
 30
0.0
 11
-391.35198439412
 21
-65.0420608520508
 31
0.0
  0
LINE
  5
   1F2
  8
0
  6
CONTINUOUS
 62
     7
 10
-441.898145349197
 20
-64.5211164220991
 30
0.0
 11
-444.852568626404
 21
-65.0420608520508
 31
0.0
  0
LINE
  5
   1F3
  8
0
  6
CONTINUOUS
 62
     7
 10
-444.852568626404
 20
-65.0420608520508
 30
0.0
 11
-441.898145349197
 21
-65.5630052820025
 31
0.0
  0
LINE
  5
   1F4
  8
0
  6
CONTINUOUS
 62
     7
 10
-394.306407671327
 20
-65.5630052820025
 30
0.0
 11
-391.35198439412
 21
-65.0420608520508
 31
0.0
  0
LINE
  5
   1F5
  8
0
  6
CONTINUOUS
 62
     7
 10
-391.35198439412
 20
-65.0420608520508
 30
0.0
 11
-394.306407671327
 21
-64.5211164220991
 31
0.0
  0
ENDBLK
  5
   1F6
  8
0
  6
CONTINUOUS
 62
     7
  0
BLOCK
  5
   1F7
  8
0
  6
CONTINUOUS
 62
     7
  2
*UDIM1698
 70
    65
 10
0.0
 20
0.0
 30
0.0
  3
*UDIM1698
  0
TEXT
  5
   1F8
  8
0
  6
CONTINUOUS
 62
     7
 10
-387.351985930927
 20
-64.0420608520508
 30
0.0
 40
3.00000002980232
  1
2
 41
0.933333333333334
 72
     1
 11
-386.251985919999
 21
-62.5420608371496
 31
0.0
 73
     2
  0
LINE
  5
   1F9
  8
0
  6
CONTINUOUS
 62
     7
 10
-390.35198439412
 20
-44.6633154992845
 30
0.0
 11
-390.35198439412
 21
-67.0420608520508
 31
0.0
  0
LINE
  5
   1FA
  8
0
  6
CONTINUOUS
 62
     7
 10
-391.35198439412
 20
-65.0420608520508
 30
0.0
 11
-385.151985909071
 21
-65.0420608520508
 31
0.0
  0
LINE
  5
   1FB
  8
0
  6
CONTINUOUS
 62
     7
 10
-394.306407671327
 20
-65.5630052820025
 30
0.0
 11
-391.35198439412
 21
-65.0420608520508
 31
0.0
  0
LINE
  5
   1FC
  8
0
  6
CONTINUOUS
 62
     7
 10
-391.35198439412
 20
-65.0420608520508
 30
0.0
 11
-394.306407671327
 21
-64.5211164220991
 31
0.0
  0
LINE
  5
   1FD
  8
0
  6
CONTINUOUS
 62
     7
 10
-387.397561116913
 20
-64.5211164220991
 30
0.0
 11
-390.35198439412
 21
-65.0420608520508
 31
0.0
  0
LINE
  5
   1FE
  8
0
  6
CONTINUOUS
 62
     7
 10
-390.35198439412
 20
-65.0420608520508
 30
0.0
 11
-387.397561116913
 21
-65.5630052820025
 31
0.0
  0
ENDBLK
  5
   1FF
  8
0
  6
CONTINUOUS
 62
     7
  0
BLOCK
  5
   200
  8
0
  6
CONTINUOUS
 62
     7
  2
*UDIM1699
 70
    65
 10
0.0
 20
0.0
 30
0.0
  3
*UDIM1699
  0
TEXT
  5
   201
  8
0
  6
CONTINUOUS
 62
     7
 10
-481.752780914302
 20
16.523120319692
 30
0.0
 40
3.00000002980232
  1
143
 50
90.0
 41
0.933333333333333
 72
     1
 11
-483.252780929208
 21
20.4231203584331
 31
0.0
 73
     2
  0
LINE
  5
   202
  8
0
  6
CONTINUOUS
 62
     7
 10
-438.516082739388
 20
-15.051879568896
 30
0.0
 11
-482.752780914307
 21
-15.0518656822674
 31
0.0
  0
LINE
  5
   203
  8
0
  6
CONTINUOUS
 62
     7
 10
-438.516082739388
 20
56.448120491582
 30
0.0
 11
-482.752780914307
 21
56.4481370535571
 31
0.0
  0
LINE
  5
   204
  8
0
  6
CONTINUOUS
 62
     7
 10
-480.752780914307
 20
-15.0518663101004
 30
0.0
 11
-480.752780914307
 21
56.4481363047681
 31
0.0
  0
LINE
  5
   205
  8
0
  6
CONTINUOUS
 62
     7
 10
-481.273725344258
 20
-12.0974430328934
 30
0.0
 11
-480.752780914307
 21
-15.0518663101004
 31
0.0
  0
LINE
  5
   206
  8
0
  6
CONTINUOUS
 62
     7
 10
-480.752780914307
 20
-15.0518663101004
 30
0.0
 11
-480.231836484355
 21
-12.0974430328934
 31
0.0
  0
LINE
  5
   207
  8
0
  6
CONTINUOUS
 62
     7
 10
-480.231836484355
 20
53.4937130275612
 30
0.0
 11
-480.752780914307
 21
56.4481363047681
 31
0.0
  0
LINE
  5
   208
  8
0
  6
CONTINUOUS
 62
     7
 10
-480.752780914307
 20
56.4481363047681
 30
0.0
 11
-481.273725344258
 21
53.4937130275612
 31
0.0
  0
ENDBLK
  5
   209
  8
0
  6
CONTINUOUS
 62
     7
  0
BLOCK
  5
   20A
  8
0
  6
CONTINUOUS
 62
     7
  2
*UDIM1700
 70
    65
 10
0.0
 20
0.0
 30
0.0
  3
*UDIM1700
  0
TEXT
  5
   20B
  8
0
  6
CONTINUOUS
 62
     7
 10
-369.114654541011
 20
15.3981242523892
 30
0.0
 40
3.00000002980232
  1
105
 50
90.0
 41
0.933333333333333
 72
     1
 11
-370.614654555917
 21
19.2981242911303
 31
0.0
 73
     2
  0
LINE
  5
   20C
  8
0
  6
CONTINUOUS
 62
     7
 10
-390.35198439412
 20
-6.67688019554898
 30
0.0
 11
-366.114654541016
 21
-6.67688780404627
 31
0.0
  0
LINE
  5
   20D
  8
0
  6
CONTINUOUS
 62
     7
 10
-390.35198439412
 20
45.823119803271
 30
0.0
 11
-366.114654541016
 21
45.8231121947737
 31
0.0
  0
LINE
  5
   20E
  8
0
  6
CONTINUOUS
 62
     7
 10
-368.114654541016
 20
-6.67688717621331
 30
0.0
 11
-368.114654541016
 21
45.8231128226067
 31
0.0
  0
LINE
  5
   20F
  8
0
  6
CONTINUOUS
 62
     7
 10
-368.635598970967
 20
-3.72246389900634
 30
0.0
 11
-368.114654541016
 21
-6.67688717621331
 31
0.0
  0
LINE
  5
   210
  8
0
  6
CONTINUOUS
 62
     7
 10
-368.114654541016
 20
-6.67688717621331
 30
0.0
 11
-367.593710111064
 21
-3.72246389900634
 31
0.0
  0
LINE
  5
   211
  8
0
  6
CONTINUOUS
 62
     7
 10
-367.593710111064
 20
42.8686895453997
 30
0.0
 11
-368.114654541016
 21
45.8231128226067
 31
0.0
  0
LINE
  5
   212
  8
0
  6
CONTINUOUS
 62
     7
 10
-368.114654541016
 20
45.8231128226067
 30
0.0
 11
-368.635598970967
 21
42.8686895453997
 31
0.0
  0
ENDBLK
  5
   213
  8
0
  6
CONTINUOUS
 62
     7
  0
BLOCK
  5
   214
  8
0
  6
CONTINUOUS
 62
     7
  2
*UDIM1701
 70
    65
 10
0.0
 20
0.0
 30
0.0
  3
*UDIM1701
  0
TEXT
  5
   215
  8
0
  6
CONTINUOUS
 62
     7
 10
-426.452571559648
 20
-47.2859802246094
 30
0.0
 40
3.00000002980232
  1
101,5
 41
0.933333333333333
 72
     1
 11
-419.752571493089
 21
-45.7859802097082
 31
0.0
 73
     2
  0
LINE
  5
   216
  8
0
  6
CONTINUOUS
 62
     7
 10
-444.852568626404
 20
-28.2166061992789
 30
0.0
 11
-444.852568626404
 21
-50.2859802246094
 31
0.0
  0
LINE
  5
   217
  8
0
  6
CONTINUOUS
 62
     7
 10
-394.102569102645
 20
44.8231201171875
 30
0.0
 11
-394.102569102645
 21
-50.2859802246094
 31
0.0
  0
LINE
  5
   218
  8
0
  6
CONTINUOUS
 62
     7
 10
-444.852568626404
 20
-48.2859802246094
 30
0.0
 11
-394.102569102645
 21
-48.2859802246094
 31
0.0
  0
LINE
  5
   219
  8
0
  6
CONTINUOUS
 62
     7
 10
-441.898145349197
 20
-47.7650357946577
 30
0.0
 11
-444.852568626404
 21
-48.2859802246094
 31
0.0
  0
LINE
  5
   21A
  8
0
  6
CONTINUOUS
 62
     7
 10
-444.852568626404
 20
-48.2859802246094
 30
0.0
 11
-441.898145349197
 21
-48.806924654561
 31
0.0
  0
LINE
  5
   21B
  8
0
  6
CONTINUOUS
 62
     7
 10
-397.056992379852
 20
-48.806924654561
 30
0.0
 11
-394.102569102645
 21
-48.2859802246094
 31
0.0
  0
LINE
  5
   21C
  8
0
  6
CONTINUOUS
 62
     7
 10
-394.102569102645
 20
-48.2859802246094
 30
0.0
 11
-397.056992379852
 21
-47.7650357946577
 31
0.0
  0
ENDBLK
  5
   21D
  8
0
  6
CONTINUOUS
 62
     7
  0
BLOCK
  5
   21E
  8
0
  6
CONTINUOUS
 62
     7
  2
*UDIM1702
 70
    65
 10
0.0
 20
0.0
 30
0.0
  3
*UDIM1702
  0
TEXT
  5
   21F
  8
0
  6
CONTINUOUS
 62
     7
 10
-425.952243487786
 20
-55.7932357788086
 30
0.0
 40
3.00000002980232
  1
103,5
 41
0.933333333333333
 72
     1
 11
-419.252243421227
 21
-54.2932357639074
 31
0.0
 73
     2
  0
LINE
  5
   220
  8
0
  6
CONTINUOUS
 62
     7
 10
-444.852568626404
 20
-28.2166061992789
 30
0.0
 11
-444.852568626404
 21
-58.7932357788086
 31
0.0
  0
LINE
  5
   221
  8
0
  6
CONTINUOUS
 62
     7
 10
-393.101913435758
 20
-7.67687988098501
 30
0.0
 11
-393.101913435758
 21
-58.7932357788086
 31
0.0
  0
LINE
  5
   222
  8
0
  6
CONTINUOUS
 62
     7
 10
-444.852568626404
 20
-56.7932357788086
 30
0.0
 11
-393.101913435758
 21
-56.7932357788086
 31
0.0
  0
LINE
  5
   223
  8
0
  6
CONTINUOUS
 62
     7
 10
-441.898145349197
 20
-56.2722913488569
 30
0.0
 11
-444.852568626404
 21
-56.7932357788086
 31
0.0
  0
LINE
  5
   224
  8
0
  6
CONTINUOUS
 62
     7
 10
-444.852568626404
 20
-56.7932357788086
 30
0.0
 11
-441.898145349197
 21
-57.3141802087603
 31
0.0
  0
LINE
  5
   225
  8
0
  6
CONTINUOUS
 62
     7
 10
-396.056336712965
 20
-57.3141802087603
 30
0.0
 11
-393.101913435758
 21
-56.7932357788086
 31
0.0
  0
LINE
  5
   226
  8
0
  6
CONTINUOUS
 62
     7
 10
-393.101913435758
 20
-56.7932357788086
 30
0.0
 11
-396.056336712965
 21
-56.2722913488569
 31
0.0
  0
ENDBLK
  5
   227
  8
0
  6
CONTINUOUS
 62
     7
  0
BLOCK
  5
   228
  8
0
  6
CONTINUOUS
 62
     7
  2
*UDIM1703
 70
    65
 10
0.0
 20
0.0
 30
0.0
  3
*UDIM1703
  0
TEXT
  5
   229
  8
0
  6
CONTINUOUS
 62
     7
 10
-452.102567779025
 20
-70.4901580810547
 30
0.0
 40
3.00000002980232
  1
3
 41
0.933333333333334
 72
     1
 11
-451.002567768097
 21
-68.9901580661535
 31
0.0
 73
     2
  0
TEXT
  5
   22A
  8
0
  6
CONTINUOUS
 62
     7
 10
-454.8525678128
 20
-70.4901580810547
 30
0.0
 40
3.00000002980232
  1
_
 41
0.933333333333334
 72
     1
 11
-453.752567801873
 21
-68.9901580661535
 31
0.0
 73
     2
  0
LINE
  5
   22B
  8
0
  6
CONTINUOUS
 62
     7
 10
-446.352568626404
 20
-28.2166061992789
 30
0.0
 11
-446.352568626404
 21
-73.4901580810547
 31
0.0
  0
LINE
  5
   22C
  8
0
  6
CONTINUOUS
 62
     7
 10
-444.852568626404
 20
-28.2166061992789
 30
0.0
 11
-444.852568626404
 21
-73.4901580810547
 31
0.0
  0
LINE
  5
   22D
  8
0
  6
CONTINUOUS
 62
     7
 10
-454.8525678128
 20
-71.4901580810547
 30
0.0
 11
-444.852568626404
 21
-71.4901580810547
 31
0.0
  0
LINE
  5
   22E
  8
0
  6
CONTINUOUS
 62
     7
 10
-449.306991903611
 20
-72.0111025110064
 30
0.0
 11
-446.352568626404
 21
-71.4901580810547
 31
0.0
  0
LINE
  5
   22F
  8
0
  6
CONTINUOUS
 62
     7
 10
-446.352568626404
 20
-71.4901580810547
 30
0.0
 11
-449.306991903611
 21
-70.969213651103
 31
0.0
  0
LINE
  5
   230
  8
0
  6
CONTINUOUS
 62
     7
 10
-441.898145349197
 20
-70.969213651103
 30
0.0
 11
-444.852568626404
 21
-71.4901580810547
 31
0.0
  0
LINE
  5
   231
  8
0
  6
CONTINUOUS
 62
     7
 10
-444.852568626404
 20
-71.4901580810547
 30
0.0
 11
-441.898145349197
 21
-72.0111025110064
 31
0.0
  0
ENDBLK
  5
   232
  8
0
  6
CONTINUOUS
 62
     7
  0
BLOCK
  5
   233
  8
0
  6
CONTINUOUS
 62
     7
  2
*UDIM1704
 70
    65
 10
0.0
 20
0.0
 30
0.0
  3
*UDIM1704
  0
TEXT
  5
   234
  8
0
  6
CONTINUOUS
 62
     7
 10
-415.266302901893
 20
-70.4901580810547
 30
0.0
 40
3.00000002980232
  1
135
 41
0.933333333333333
 72
     1
 11
-411.36630286315
 21
-68.9901580661535
 31
0.0
 73
     2
  0
LINE
  5
   235
  8
0
  6
CONTINUOUS
 62
     7
 10
-377.330034882602
 20
13.4481201171875
 30
0.0
 11
-377.330034882602
 21
-73.4901580810547
 31
0.0
  0
LINE
  5
   236
  8
0
  6
CONTINUOUS
 62
     7
 10
-444.852568626404
 20
-71.4901580810547
 30
0.0
 11
-377.330034882602
 21
-71.4901580810547
 31
0.0
  0
LINE
  5
   237
  8
0
  6
CONTINUOUS
 62
     7
 10
-441.898145349197
 20
-70.969213651103
 30
0.0
 11
-444.852568626404
 21
-71.4901580810547
 31
0.0
  0
LINE
  5
   238
  8
0
  6
CONTINUOUS
 62
     7
 10
-444.852568626404
 20
-71.4901580810547
 30
0.0
 11
-441.898145349197
 21
-72.0111025110064
 31
0.0
  0
LINE
  5
   239
  8
0
  6
CONTINUOUS
 62
     7
 10
-380.284458159809
 20
-72.0111025110064
 30
0.0
 11
-377.330034882602
 21
-71.4901580810547
 31
0.0
  0
LINE
  5
   23A
  8
0
  6
CONTINUOUS
 62
     7
 10
-377.330034882602
 20
-71.4901580810547
 30
0.0
 11
-380.284458159809
 21
-70.969213651103
 31
0.0
  0
ENDBLK
  5
   23B
  8
0
  6
CONTINUOUS
 62
     7
  0
BLOCK
  5
   23C
  8
0
  6
CONTINUOUS
 62
     7
  2
*UDIM1705
 70
    65
 10
0.0
 20
0.0
 30
0.0
  3
*UDIM1705
  0
TEXT
  5
   23D
  8
0
  6
CONTINUOUS
 62
     7
 10
-466.678405761716
 20
-23.5768795607511
 30
0.0
 40
3.00000002980232
  1
10
 50
90.0
 41
0.933333333333333
 72
     1
 11
-468.17840577662
 21
-21.0768795359178
 31
0.0
 73
     2
  0
LINE
  5
   23E
  8
0
  6
CONTINUOUS
 62
     7
 10
-438.516082739388
 20
-15.051879568896
 30
0.0
 11
-467.678405761719
 21
-15.0518704143622
 31
0.0
  0
LINE
  5
   23F
  8
0
  6
CONTINUOUS
 62
     7
 10
-444.852568626404
 20
-10.0518732304242
 30
0.0
 11
-467.678405761719
 21
-10.0518631103243
 31
0.0
  0
LINE
  5
   240
  8
0
  6
CONTINUOUS
 62
     7
 10
-465.678405761719
 20
-23.576879560753
 30
0.0
 11
-465.678405761719
 21
-10.0518639970476
 31
0.0
  0
LINE
  5
   241
  8
0
  6
CONTINUOUS
 62
     7
 10
-465.157461331767
 20
-18.0062943194021
 30
0.0
 11
-465.678405761719
 21
-15.0518710421952
 31
0.0
  0
LINE
  5
   242
  8
0
  6
CONTINUOUS
 62
     7
 10
-465.678405761719
 20
-15.0518710421952
 30
0.0
 11
-466.19935019167
 21
-18.0062943194021
 31
0.0
  0
LINE
  5
   243
  8
0
  6
CONTINUOUS
 62
     7
 10
-466.19935019167
 20
-7.09744071984059
 30
0.0
 11
-465.678405761719
 21
-10.0518639970476
 31
0.0
  0
LINE
  5
   244
  8
0
  6
CONTINUOUS
 62
     7
 10
-465.678405761719
 20
-10.0518639970476
 30
0.0
 11
-465.157461331767
 21
-7.09744071984059
 31
0.0
  0
ENDBLK
  5
   245
  8
0
  6
CONTINUOUS
 62
     7
  0
BLOCK
  5
   246
  8
0
  6
CONTINUOUS
 62
     7
  2
*UDIM1706
 70
    65
 10
0.0
 20
0.0
 30
0.0
  3
*UDIM1706
  0
TEXT
  5
   247
  8
0
  6
CONTINUOUS
 62
     7
 10
-379.989982604977
 20
51.0912147192266
 30
0.0
 40
3.00000002980232
  1
10
 50
90.0
 41
0.933333333333333
 72
     1
 11
-381.489982619882
 21
53.59121474406
 31
0.0
 73
     2
  0
LINE
  5
   248
  8
0
  6
CONTINUOUS
 62
     7
 10
-425.402922385204
 20
51.448119803271
 30
0.0
 11
-376.989982604981
 21
51.4481046056517
 31
0.0
  0
LINE
  5
   249
  8
0
  6
CONTINUOUS
 62
     7
 10
-428.18625917509
 20
56.448119803271
 30
0.0
 11
-376.989982604981
 21
56.4481037319164
 31
0.0
  0
LINE
  5
   24A
  8
0
  6
CONTINUOUS
 62
     7
 10
-378.98998260498
 20
51.0912147192248
 30
0.0
 11
-378.98998260498
 21
56.4481043597494
 31
0.0
  0
LINE
  5
   24B
  8
0
  6
CONTINUOUS
 62
     7
 10
-378.469038175029
 20
48.4936819562777
 30
0.0
 11
-378.98998260498
 21
51.4481052334846
 31
0.0
  0
LINE
  5
   24C
  8
0
  6
CONTINUOUS
 62
     7
 10
-378.98998260498
 20
51.4481052334846
 30
0.0
 11
-379.510927034932
 21
48.4936819562777
 31
0.0
  0
LINE
  5
   24D
  8
0
  6
CONTINUOUS
 62
     7
 10
-379.510927034932
 20
59.4025276369563
 30
0.0
 11
-378.98998260498
 21
56.4481043597494
 31
0.0
  0
LINE
  5
   24E
  8
0
  6
CONTINUOUS
 62
     7
 10
-378.98998260498
 20
56.4481043597494
 30
0.0
 11
-378.469038175029
 21
59.4025276369563
 31
0.0
  0
ENDBLK
  5
   24F
  8
0
  6
CONTINUOUS
 62
     7
  0
ENDSEC
  0
SECTION
  2
ENTITIES
  0
LINE
  5
   250
  8
0
  6
DASHDOT
 62
     7
 10
-555.322143554688
 20
-74.7864709540498
 30
0.0
 11
-555.322143554688
 21
-135.507128129308
 31
0.0
  0
LINE
  5
   251
  8
0
  6
DASHDOT
 62
     7
 10
-526.771108937016
 20
-103.929214477539
 30
0.0
 11
-582.115916928398
 21
-103.929214477539
 31
0.0
  0
LINE
  5
   252
  8
0
  6
DASHDOT
 62
     7
 10
-550.947143554688
 20
-83.2468237680189
 30
0.0
 11
-550.947143554688
 21
-125.196073137283
 31
0.0
  0
LINE
  5
   253
  8
0
  6
CONTINUOUS
 62
     3
 10
-543.447143554688
 20
-76.1965297563779
 30
0.0
 11
-543.447143554688
 21
-131.805723773196
 31
0.0
  0
LINE
  5
   254
  8
0
  6
CONTINUOUS
 62
     3
 10
-540.166667559134
 20
-128.804214477539
 30
0.0
 11
-577.32747800271
 21
-128.804214477539
 31
0.0
  0
LINE
  5
   255
  8
0
  6
DASHDOT
 62
     7
 10
-596.302155298013
 20
-103.929214477539
 30
0.0
 11
-605.479701022716
 21
-103.929214477539
 31
0.0
  0
LINE
  5
   256
  8
0
  6
DASHDOT
 62
     7
 10
-568.447143554688
 20
-83.599338468601
 30
0.0
 11
-568.447143554688
 21
-125.460459162719
 31
0.0
  0
LINE
  5
   257
  8
0
  6
CONTINUOUS
 62
     3
 10
-575.947143554688
 20
-76.1006750521824
 30
0.0
 11
-575.947143554688
 21
-131.780760403109
 31
0.0
  0
LINE
  5
   258
  8
0
  6
CONTINUOUS
 62
     3
 10
-542.494186785082
 20
-77.5365511787106
 30
0.0
 11
-577.593380989105
 21
-77.5365511787106
 31
0.0
  0
CIRCLE
  5
   259
  8
0
  6
CONTINUOUS
 62
     5
 10
-568.447143554688
 20
-85.9917144775391
 30
0.0
 40
0.6875
  0
CIRCLE
  5
   25A
  8
0
  6
CONTINUOUS
 62
     5
 10
-550.947143554688
 20
-85.9917144775391
 30
0.0
 40
0.6875
  0
CIRCLE
  5
   25B
  8
0
  6
CONTINUOUS
 62
     5
 10
-550.947143554688
 20
-120.741714477539
 30
0.0
 40
0.6875
  0
CIRCLE
  5
   25C
  8
0
  6
CONTINUOUS
 62
     5
 10
-568.447143554688
 20
-120.741714477539
 30
0.0
 40
0.6875
  0
LINE
  5
   25D
  8
0
  6
DASHDOT
 62
     5
 10
-550.947143554688
 20
-84.0542144775391
 30
0.0
 11
-550.947143554688
 21
-87.9292144775391
 31
0.0
  0
LINE
  5
   25E
  8
0
  6
DASHDOT
 62
     5
 10
-549.009643554688
 20
-85.9917144775391
 30
0.0
 11
-552.884643554688
 21
-85.9917144775391
 31
0.0
  0
LINE
  5
   25F
  8
0
  6
DASHDOT
 62
     5
 10
-568.447143554688
 20
-84.0542144775391
 30
0.0
 11
-568.447143554688
 21
-87.9292144775391
 31
0.0
  0
LINE
  5
   260
  8
0
  6
DASHDOT
 62
     5
 10
-566.509643554688
 20
-85.9917144775391
 30
0.0
 11
-570.384643554688
 21
-85.9917144775391
 31
0.0
  0
LINE
  5
   261
  8
0
  6
DASHDOT
 62
     5
 10
-568.447143554688
 20
-118.804214477539
 30
0.0
 11
-568.447143554688
 21
-122.679214477539
 31
0.0
  0
LINE
  5
   262
  8
0
  6
DASHDOT
 62
     5
 10
-566.509643554688
 20
-120.741714477539
 30
0.0
 11
-570.384643554688
 21
-120.741714477539
 31
0.0
  0
LINE
  5
   263
  8
0
  6
DASHDOT
 62
     5
 10
-550.947143554688
 20
-118.804214477539
 30
0.0
 11
-550.947143554688
 21
-122.679214477539
 31
0.0
  0
LINE
  5
   264
  8
0
  6
DASHDOT
 62
     5
 10
-549.009643554688
 20
-120.741714477539
 30
0.0
 11
-552.884643554688
 21
-120.741714477539
 31
0.0
  0
CIRCLE
  5
   265
  8
0
  6
CONTINUOUS
 62
     7
 10
-573.182844332032
 20
-81.1440618560883
 30
0.0
 40
0.0875
  0
INSERT
  5
   266
  8
0
  6
CONTINUOUS
 62
     5
  2
*UDIM1663
 10
0.0
 20
0.0
 30
0.0
  0
INSERT
  5
   267
  8
0
  6
CONTINUOUS
 62
     5
  2
*UDIM1664
 10
0.0
 20
0.0
 30
0.0
  0
INSERT
  5
   268
  8
0
  6
CONTINUOUS
 62
     5
  2
*UDIM1665
 10
0.0
 20
0.0
 30
0.0
  0
INSERT
  5
   269
  8
0
  6
CONTINUOUS
 62
     7
  2
*UDIM1666
 10
0.0
 20
0.0
 30
0.0
  0
INSERT
  5
   26A
  8
0
  6
CONTINUOUS
 62
     7
  2
*UDIM1667
 10
0.0
 20
0.0
 30
0.0
  0
TEXT
  5
   26B
  8
0
  6
CONTINUOUS
 62
     7
 10
-555.412928360434
 20
-145.028648404277
 30
0.0
 40
3.00000002980232
  1
Y
 50
359.999999896069
 41
0.916666604744064
 72
     2
 11
-553.212928491564
 21
-145.028648408257
 31
0.0
  0
TEXT
  5
   26C
  8
0
  6
CONTINUOUS
 62
     7
 10
-556.427503111692
 20
-66.0714302341114
 30
0.0
 40
3.00000002980232
  1
Y
 50
359.999999896069
 41
0.916666604744064
 72
     2
 11
-554.227503242822
 21
-66.071430238091
 31
0.0
  0
TEXT
  5
   26D
  8
0
  6
CONTINUOUS
 62
     7
 10
-609.207275393338
 20
-105.16433813969
 30
0.0
 40
3.00000002980232
  1
X
 50
359.999999896069
 41
0.916666604744064
 72
     2
 11
-607.007275524469
 21
-105.16433814367
 31
0.0
  0
TEXT
  5
   26E
  8
0
  6
CONTINUOUS
 62
     7
 10
-521.571517947049
 20
-106.340161828197
 30
0.0
 40
3.00000002980232
  1
X
 50
359.999999896069
 41
0.916666604744064
 72
     2
 11
-519.37151807818
 21
-106.340161832177
 31
0.0
  0
LINE
  5
   26F
  8
0
  6
CONTINUOUS
 62
     7
 10
-579.856242902716
 20
63.1981163024902
 30
0.0
 11
-580.697164282575
 21
63.1981163024902
 31
0.0
  0
LINE
  5
   270
  8
0
  6
CONTINUOUS
 62
     7
 10
-597.82216139509
 20
61.7981147766113
 30
0.0
 11
-597.82216139509
 21
62.6981163024902
 31
0.0
  0
LINE
  5
   271
  8
0
  6
CONTINUOUS
 62
     7
 10
-597.82216139509
 20
61.7981147766113
 30
0.0
 11
-599.07216139509
 21
61.7981147766113
 31
0.0
  0
LINE
  5
   272
  8
0
  6
CONTINUOUS
 62
     7
 10
-599.072167017159
 20
-20.4018837213516
 30
0.0
 11
-599.072167017159
 21
61.7981147766114
 31
0.0
  0
LINE
  5
   273
  8
0
  6
CONTINUOUS
 62
     7
 10
-597.82216139509
 20
-20.4018837213516
 30
0.0
 11
-599.07216139509
 21
-20.4018837213516
 31
0.0
  0
LINE
  5
   274
  8
0
  6
CONTINUOUS
 62
     7
 10
-597.82216139509
 20
-21.3018836975098
 30
0.0
 11
-597.82216139509
 21
-20.4018837213516
 31
0.0
  0
LINE
  5
   275
  8
0
  6
CONTINUOUS
 62
     7
 10
-564.947164282574
 20
-21.8018836975099
 30
0.0
 11
-580.697164282575
 21
-21.8018836975099
 31
0.0
  0
LINE
  5
   276
  8
0
  6
CONTINUOUS
 62
     7
 10
-547.447129168409
 20
-21.8018836975097
 30
0.0
 11
-563.197164282575
 21
-21.8018836975097
 31
0.0
  0
LINE
  5
   277
  8
0
  6
CONTINUOUS
 62
     7
 10
-530.82216139509
 20
-21.8018836975104
 30
0.0
 11
-545.697129168409
 21
-21.8018836975104
 31
0.0
  0
LINE
  5
   278
  8
0
  6
CONTINUOUS
 62
     7
 10
-530.32216139509
 20
-21.3018836975098
 30
0.0
 11
-530.32216139509
 21
-20.6768779754658
 31
0.0
  0
LINE
  5
   279
  8
0
  6
CONTINUOUS
 62
     7
 10
-594.44716139509
 20
51.0731163024902
 30
0.0
 11
-594.44716139509
 21
53.1981163024902
 31
0.0
  0
LINE
  5
   27A
  8
0
  6
CONTINUOUS
 62
     7
 10
-596.322161156671
 20
55.0731163024902
 30
0.0
 11
-597.822161633509
 21
55.0731163024902
 31
0.0
  0
LINE
  5
   27B
  8
0
  6
CONTINUOUS
 62
     7
 10
-597.822164358926
 20
55.0731163024903
 30
0.0
 11
-597.822164358926
 21
61.7981147766114
 31
0.0
  0
LINE
  5
   27C
  8
0
  6
CONTINUOUS
 62
     7
 10
-594.44716139509
 20
-11.8018836975098
 30
0.0
 11
-594.44716139509
 21
-9.80188369750977
 31
0.0
  0
LINE
  5
   27D
  8
0
  6
CONTINUOUS
 62
     7
 10
-584.572146725492
 20
-9.80188369750977
 30
0.0
 11
-594.44716139509
 21
-9.80188369750977
 31
0.0
  0
LINE
  5
   27E
  8
0
  6
CONTINUOUS
 62
     7
 10
-596.322160679834
 20
-13.6768836975098
 30
0.0
 11
-597.822161871927
 21
-13.6768836975098
 31
0.0
  0
LINE
  5
   27F
  8
0
  6
CONTINUOUS
 62
     7
 10
-597.822161295823
 20
-20.4018837213516
 30
0.0
 11
-597.822161295823
 21
-13.6768838167191
 31
0.0
  0
LINE
  5
   280
  8
0
  6
CONTINUOUS
 62
     7
 10
-538.07216139509
 20
-9.80188369750977
 30
0.0
 11
-538.07216139509
 21
-8.55188369750977
 31
0.0
  0
CIRCLE
  5
   281
  8
0
  6
CONTINUOUS
 62
     7
 10
-596.322158389914
 20
53.198119536616
 30
0.0
 40
0.875002904842779
  0
ARC
  5
   282
  8
0
  6
CONTINUOUS
 62
     7
 10
-596.322147348206
 20
53.1980728400765
 30
0.0
 40
1.87496000544276
 50
269.999551104867
 51
450.000408982336
  0
ARC
  5
   283
  8
0
  6
CONTINUOUS
 62
     7
 10
-597.322160119622
 20
62.6981168686552
 30
0.0
 40
0.500001995564727
 50
90.0000472185487
 51
180.000478784316
  0
CIRCLE
  5
   284
  8
0
  6
CONTINUOUS
 62
     7
 10
-596.322161311703
 20
-11.8018826917065
 30
0.0
 40
0.874999581588754
  0
CIRCLE
  5
   285
  8
0
  6
DOT
 62
     7
 10
-572.822153359309
 20
-15.5518819938262
 30
0.0
 40
2.74999844531425
  0
CIRCLE
  5
   286
  8
0
  6
DOT
 62
     7
 10
-564.07215535317
 20
-14.0518826279821
 30
0.0
 40
2.24999899340852
  0
CIRCLE
  5
   287
  8
0
  6
DOT
 62
     7
 10
-555.322157801832
 20
-15.5518843084081
 30
0.0
 40
2.7499985235645
  0
ARC
  5
   288
  8
0
  6
CONTINUOUS
 62
     7
 10
-597.322161274456
 20
-21.3018836456678
 30
0.0
 40
0.500000053060852
 50
180.000006024791
 51
269.999989483217
  0
CIRCLE
  5
   289
  8
0
  6
DOT
 62
     7
 10
-546.572153958068
 20
-14.0518953157161
 30
0.0
 40
2.24998966947475
  0
CIRCLE
  5
   28A
  8
0
  6
DOT
 62
     7
 10
-537.822125155643
 20
-15.5519441634643
 30
0.0
 40
2.7500660479039
  0
ARC
  5
   28B
  8
0
  6
CONTINUOUS
 62
     7
 10
-530.822157391399
 20
-21.3018881187997
 30
0.0
 40
0.49999520193586
 50
269.999767510228
 51
360.00047760375
  0
LINE
  5
   28C
  8
0
  6
DASHDOT
 62
     7
 10
-596.322147348206
 20
49.8231128346338
 30
0.0
 11
-596.322147348206
 21
56.5730328455193
 31
0.0
  0
LINE
  5
   28D
  8
0
  6
DASHDOT
 62
     7
 10
-592.947187342764
 20
53.1980728400765
 30
0.0
 11
-599.697107353649
 21
53.1980728400765
 31
0.0
  0
LINE
  5
   28E
  8
0
  6
DASHDOT
 62
     7
 10
-572.822153359309
 20
-19.8018804391404
 30
0.0
 11
-572.822153359309
 21
-11.3018835485119
 31
0.0
  0
LINE
  5
   28F
  8
0
  6
DASHDOT
 62
     7
 10
-568.572154913995
 20
-15.5518819938262
 30
0.0
 11
-577.072151804624
 21
-15.5518819938262
 31
0.0
  0
LINE
  5
   290
  8
0
  6
DASHDOT
 62
     7
 10
-564.07215535317
 20
-23.0154703479872
 30
0.0
 11
-564.07215535317
 21
-10.3018836345736
 31
0.0
  0
LINE
  5
   291
  8
0
  6
DASHDOT
 62
     7
 10
-560.322156359762
 20
-14.0518826279821
 30
0.0
 11
-567.822154346579
 21
-14.0518826279821
 31
0.0
  0
LINE
  5
   292
  8
0
  6
DASHDOT
 62
     7
 10
-551.072159278268
 20
-15.5518843084081
 30
0.0
 11
-559.572156325397
 21
-15.5518843084081
 31
0.0
  0
LINE
  5
   293
  8
0
  6
DASHDOT
 62
     7
 10
-537.822125155643
 20
-19.8020102113682
 30
0.0
 11
-537.822125155643
 21
-11.3018781155604
 31
0.0
  0
LINE
  5
   294
  8
0
  6
DASHDOT
 62
     7
 10
-533.572059107739
 20
-15.5519441634643
 30
0.0
 11
-542.072191203547
 21
-15.5519441634643
 31
0.0
  0
LINE
  5
   295
  8
0
  6
DASHDOT
 62
     7
 10
-537.82215160115
 20
-22.0018780194134
 30
0.0
 11
-537.82215160115
 21
-17.6018854971763
 31
0.0
  0
LINE
  5
   296
  8
0
  6
DASHDOT
 62
     7
 10
-572.822155056188
 20
-22.0018835451692
 30
0.0
 11
-572.822155056188
 21
-17.6018833435426
 31
0.0
  0
CIRCLE
  5
   297
  8
0
  6
CONTINUOUS
 62
     7
 10
-596.322162312394
 20
-11.8018849805823
 30
0.0
 40
1.87500067183884
  0
LINE
  5
   298
  8
0
  6
DASHDOT
 62
     7
 10
-596.322162312394
 20
-15.1768856524211
 30
0.0
 11
-596.322162312394
 21
-8.42688430874345
 31
0.0
  0
LINE
  5
   299
  8
0
  6
DASHDOT
 62
     7
 10
-592.947161640555
 20
-11.8018849805823
 30
0.0
 11
-599.697162984233
 21
-11.8018849805823
 31
0.0
  0
LINE
  5
   29A
  8
0
  6
CONTINUOUS
 62
     7
 10
-584.572146725492
 20
-9.4268722534199
 30
0.0
 11
-598.572146725492
 21
-9.4268722534199
 31
0.0
  0
LINE
  5
   29B
  8
0
  6
CONTINUOUS
 62
     3
 10
-529.322154354886
 20
45.8231201171856
 30
0.0
 11
-581.322146725492
 21
45.8231201171856
 31
0.0
  0
LINE
  5
   29C
  8
0
  6
CONTINUOUS
 62
     3
 10
-529.322154354886
 20
-6.67687225341963
 30
0.0
 11
-536.072154325084
 21
-6.67687225341963
 31
0.0
  0
LINE
  5
   29D
  8
0
  6
CONTINUOUS
 62
     3
 10
-541.822154354886
 20
-6.67687225342012
 30
0.0
 11
-554.097507303252
 21
-6.67687225342012
 31
0.0
  0
LINE
  5
   29E
  8
0
  6
CONTINUOUS
 62
     3
 10
-574.572146725492
 20
-6.67687225343341
 30
0.0
 11
-581.322146725492
 21
-6.67687225343341
 31
0.0
  0
LINE
  5
   29F
  8
0
  6
CONTINUOUS
 62
     7
 10
-598.572146725492
 20
-9.42687225341989
 30
0.0
 11
-598.572146725492
 21
-8.92687225341989
 31
0.0
  0
LINE
  5
   2A0
  8
0
  6
CONTINUOUS
 62
     7
 10
-584.572146725492
 20
-8.92687221674008
 30
0.0
 11
-599.072167017159
 21
-8.92687221674008
 31
0.0
  0
LINE
  5
   2A1
  8
0
  6
CONTINUOUS
 62
     3
 10
-568.822146725492
 20
-6.67687225342137
 30
0.0
 11
-574.572146725492
 21
-6.67687225342137
 31
0.0
  0
LINE
  5
   2A2
  8
0
  6
CONTINUOUS
 62
     3
 10
-536.072154354886
 20
-6.67687225341961
 30
0.0
 11
-541.822154354886
 21
-6.67687225341961
 31
0.0
  0
ARC
  5
   2A3
  8
0
  6
CONTINUOUS
 62
     3
 10
-581.322146725492
 20
-6.42687225343341
 30
0.0
 40
0.25
 50
179.999999948034
 51
269.999999948034
  0
ARC
  5
   2A4
  8
0
  6
CONTINUOUS
 62
     3
 10
-581.322146725492
 20
45.5731201171856
 30
0.0
 40
0.25
 50
449.999999948034
 51
539.999999948034
  0
ARC
  5
   2A5
  8
0
  6
CONTINUOUS
 62
     3
 10
-529.322154354886
 20
45.5731201171856
 30
0.0
 40
0.25
 50
359.999999948034
 51
449.999999948034
  0
ARC
  5
   2A6
  8
0
  6
CONTINUOUS
 62
     3
 10
-529.322154354886
 20
-6.42687225341963
 30
0.0
 40
0.25
 50
269.999999948034
 51
359.999999948034
  0
LINE
  5
   2A7
  8
0
  6
DASHDOT
 62
     7
 10
-555.322146725492
 20
38.7997811527209
 30
0.0
 11
-555.322146725492
 21
53.2549061876005
 31
0.0
  0
LINE
  5
   2A8
  8
0
  6
CONTINUOUS
 62
     3
 10
-556.546871851399
 20
-6.67687225342012
 30
0.0
 11
-568.822146725492
 21
-6.67687225342012
 31
0.0
  0
LINE
  5
   2A9
  8
0
  6
CONTINUOUS
 62
     7
 10
-569.072154354886
 20
-6.67687988281443
 30
0.0
 11
-574.072146725492
 21
-6.67687988281443
 31
0.0
  0
LINE
  5
   2AA
  8
0
  6
CONTINUOUS
 62
     7
 10
-536.572161984281
 20
-6.67687988281443
 30
0.0
 11
-541.572161984281
 21
-6.67687988281443
 31
0.0
  0
LINE
  5
   2AB
  8
0
  6
CONTINUOUS
 62
     7
 10
-529.072146725492
 20
-6.42687988281443
 30
0.0
 11
-529.072146725492
 21
2.57311248779104
 31
0.0
  0
LINE
  5
   2AC
  8
0
  6
CONTINUOUS
 62
     7
 10
-581.572146725492
 20
-6.42687988281443
 30
0.0
 11
-581.572146725492
 21
2.57311248779104
 31
0.0
  0
LINE
  5
   2AD
  8
0
  6
CONTINUOUS
 62
     7
 10
-529.322146725492
 20
45.8231201171856
 30
0.0
 11
-581.322146725478
 21
45.8231201171856
 31
0.0
  0
LINE
  5
   2AE
  8
0
  6
CONTINUOUS
 62
     7
 10
-574.072146725492
 20
-6.67687988281443
 30
0.0
 11
-581.322146725492
 21
-6.67687988281443
 31
0.0
  0
LINE
  5
   2AF
  8
0
  6
CONTINUOUS
 62
     7
 10
-541.572161984281
 20
-6.67687988281443
 30
0.0
 11
-569.072154354886
 21
-6.67687988281443
 31
0.0
  0
LINE
  5
   2B0
  8
0
  6
CONTINUOUS
 62
     7
 10
-529.322146725492
 20
-6.67687988281443
 30
0.0
 11
-536.572161984281
 21
-6.67687988281443
 31
0.0
  0
LINE
  5
   2B1
  8
0
  6
CONTINUOUS
 62
     7
 10
-549.947146725492
 20
4.44811248779104
 30
0.0
 11
-549.947146725492
 21
24.4481048583965
 31
0.0
  0
LINE
  5
   2B2
  8
0
  6
CONTINUOUS
 62
     7
 10
-560.697146725492
 20
4.44811248779104
 30
0.0
 11
-560.697146725492
 21
24.4481048583965
 31
0.0
  0
LINE
  5
   2B3
  8
0
  6
CONTINUOUS
 62
     7
 10
-529.072146725492
 20
39.8231048583965
 30
0.0
 11
-581.572146725492
 21
39.8231048583965
 31
0.0
  0
LINE
  5
   2B4
  8
0
  6
CONTINUOUS
 62
     7
 10
-529.072146725492
 20
44.8231048583965
 30
0.0
 11
-581.572146725492
 21
44.8231048583965
 31
0.0
  0
LINE
  5
   2B5
  8
0
  6
CONTINUOUS
 62
     7
 10
-549.947146725492
 20
24.3158721923809
 30
0.0
 11
-560.697146725492
 21
24.3158721923809
 31
0.0
  0
LINE
  5
   2B6
  8
0
  6
CONTINUOUS
 62
     7
 10
-549.947146725492
 20
24.4481048583965
 30
0.0
 11
-560.697146725492
 21
24.4481048583965
 31
0.0
  0
LINE
  5
   2B7
  8
0
  6
CONTINUOUS
 62
     7
 10
-549.947146725492
 20
4.44811248779104
 30
0.0
 11
-560.697146725492
 21
4.44811248779104
 31
0.0
  0
LINE
  5
   2B8
  8
0
  6
CONTINUOUS
 62
     7
 10
-549.947146725492
 20
4.58036041259572
 30
0.0
 11
-560.697146725492
 21
4.58036041259572
 31
0.0
  0
LINE
  5
   2B9
  8
0
  6
DASHDOT
 62
     7
 10
-555.322146725492
 20
-60.36903272673
 30
0.0
 11
-555.322146725492
 21
34.9243222610305
 31
0.0
  0
LINE
  5
   2BA
  8
0
  6
DASHDOT
 62
     7
 10
-555.322146725492
 20
34.537955904771
 30
0.0
 11
-555.322146725492
 21
109.043979469858
 31
0.0
  0
LINE
  5
   2BB
  8
0
  6
CONTINUOUS
 62
     7
 10
-529.072154354886
 20
3.07311248779104
 30
0.0
 11
-529.072154354886
 21
9.07310851117178
 31
0.0
  0
LINE
  5
   2BC
  8
0
  6
CONTINUOUS
 62
     7
 10
-529.072154354886
 20
26.323112487791
 30
0.0
 11
-529.072154354886
 21
46.0731201171856
 31
0.0
  0
LINE
  5
   2BD
  8
0
  6
CONTINUOUS
 62
     7
 10
-529.072154354886
 20
9.57310851117181
 30
0.0
 11
-529.072154354886
 21
19.323112487791
 31
0.0
  0
LINE
  5
   2BE
  8
0
  6
CONTINUOUS
 62
     7
 10
-529.072154354886
 20
19.823112487791
 30
0.0
 11
-529.072154354886
 21
25.823112487791
 31
0.0
  0
LINE
  5
   2BF
  8
0
  6
CONTINUOUS
 62
     7
 10
-581.572146725494
 20
3.07311248779104
 30
0.0
 11
-581.572146725494
 21
9.07311248779212
 31
0.0
  0
LINE
  5
   2C0
  8
0
  6
CONTINUOUS
 62
     7
 10
-581.572146725503
 20
9.57311248779215
 30
0.0
 11
-581.572146725503
 21
19.323112487791
 31
0.0
  0
LINE
  5
   2C1
  8
0
  6
CONTINUOUS
 62
     7
 10
-581.572146725489
 20
19.823112487791
 30
0.0
 11
-581.572146725489
 21
25.823112487791
 31
0.0
  0
LINE
  5
   2C2
  8
0
  6
CONTINUOUS
 62
     7
 10
-581.572146725478
 20
26.323112487791
 30
0.0
 11
-581.572146725478
 21
45.5731201171856
 31
0.0
  0
LINE
  5
   2C3
  8
0
  6
CONTINUOUS
 62
     7
 10
-560.697150712354
 20
9.07312210550316
 30
0.0
 11
-581.072146755294
 21
9.07312210550316
 31
0.0
  0
LINE
  5
   2C4
  8
0
  6
CONTINUOUS
 62
     7
 10
-529.072154354886
 20
9.07311812888003
 30
0.0
 11
-529.572154354886
 21
9.07311812888003
 31
0.0
  0
LINE
  5
   2C5
  8
0
  6
CONTINUOUS
 62
     7
 10
-560.697160491898
 20
9.5731221055061
 30
0.0
 11
-581.072146755294
 21
9.5731221055061
 31
0.0
  0
LINE
  5
   2C6
  8
0
  6
CONTINUOUS
 62
     7
 10
-529.072154354886
 20
9.57311812887998
 30
0.0
 11
-529.572154354886
 21
9.57311812887998
 31
0.0
  0
LINE
  5
   2C7
  8
0
  6
CONTINUOUS
 62
     7
 10
-581.072146755294
 20
9.07311248779104
 30
0.0
 11
-581.072146755294
 21
9.57311248779104
 31
0.0
  0
LINE
  5
   2C8
  8
0
  6
CONTINUOUS
 62
     7
 10
-529.572154354886
 20
9.07311248779104
 30
0.0
 11
-529.572154354886
 21
9.57311248779104
 31
0.0
  0
LINE
  5
   2C9
  8
0
  6
CONTINUOUS
 62
     7
 10
-529.072146725492
 20
2.57311248779104
 30
0.0
 11
-529.572154354886
 21
2.57311248779104
 31
0.0
  0
LINE
  5
   2CA
  8
0
  6
CONTINUOUS
 62
     7
 10
-529.072154354886
 20
3.07311248779104
 30
0.0
 11
-529.572154354886
 21
3.07311248779104
 31
0.0
  0
LINE
  5
   2CB
  8
0
  6
CONTINUOUS
 62
     7
 10
-581.072146755294
 20
2.57311248779104
 30
0.0
 11
-581.072146755294
 21
3.07311248779104
 31
0.0
  0
LINE
  5
   2CC
  8
0
  6
CONTINUOUS
 62
     7
 10
-529.572154354886
 20
2.57311248779104
 30
0.0
 11
-529.572154354886
 21
3.07311248779104
 31
0.0
  0
LINE
  5
   2CD
  8
0
  6
CONTINUOUS
 62
     7
 10
-529.072154354886
 20
25.823112487791
 30
0.0
 11
-529.572154354886
 21
25.823112487791
 31
0.0
  0
LINE
  5
   2CE
  8
0
  6
CONTINUOUS
 62
     7
 10
-529.072154354886
 20
26.323112487791
 30
0.0
 11
-529.572154354886
 21
26.323112487791
 31
0.0
  0
LINE
  5
   2CF
  8
0
  6
CONTINUOUS
 62
     7
 10
-581.072146755294
 20
25.823112487791
 30
0.0
 11
-581.072146755294
 21
26.323112487791
 31
0.0
  0
LINE
  5
   2D0
  8
0
  6
CONTINUOUS
 62
     7
 10
-529.572154354886
 20
25.823112487791
 30
0.0
 11
-529.572154354886
 21
26.323112487791
 31
0.0
  0
LINE
  5
   2D1
  8
0
  6
CONTINUOUS
 62
     7
 10
-560.697150689201
 20
19.323112487791
 30
0.0
 11
-581.072146755294
 21
19.323112487791
 31
0.0
  0
LINE
  5
   2D2
  8
0
  6
CONTINUOUS
 62
     7
 10
-529.072154354886
 20
19.323112487791
 30
0.0
 11
-529.572154354886
 21
19.323112487791
 31
0.0
  0
LINE
  5
   2D3
  8
0
  6
CONTINUOUS
 62
     7
 10
-560.697146725492
 20
19.823112487791
 30
0.0
 11
-581.072146755294
 21
19.823112487791
 31
0.0
  0
LINE
  5
   2D4
  8
0
  6
CONTINUOUS
 62
     7
 10
-529.072154354886
 20
19.823112487791
 30
0.0
 11
-529.572154354886
 21
19.823112487791
 31
0.0
  0
LINE
  5
   2D5
  8
0
  6
CONTINUOUS
 62
     7
 10
-581.072146755294
 20
19.323112487791
 30
0.0
 11
-581.072146755294
 21
19.823112487791
 31
0.0
  0
LINE
  5
   2D6
  8
0
  6
CONTINUOUS
 62
     7
 10
-529.572154354886
 20
19.323112487791
 30
0.0
 11
-529.572154354886
 21
19.823112487791
 31
0.0
  0
ARC
  5
   2D7
  8
0
  6
CONTINUOUS
 62
     7
 10
-581.322146725492
 20
-6.42687988281444
 30
0.0
 40
0.25
 50
179.999999948034
 51
269.999999948034
  0
ARC
  5
   2D8
  8
0
  6
CONTINUOUS
 62
     7
 10
-529.322146725492
 20
-6.42687988281443
 30
0.0
 40
0.25
 50
269.999999948034
 51
359.999999948034
  0
ARC
  5
   2D9
  8
0
  6
CONTINUOUS
 62
     7
 10
-529.322146725492
 20
45.5731201171856
 30
0.0
 40
0.25
 50
359.999999948034
 51
449.999999948034
  0
ARC
  5
   2DA
  8
0
  6
CONTINUOUS
 62
     7
 10
-581.322146725478
 20
45.5731201171856
 30
0.0
 40
0.25
 50
449.999999948034
 51
539.999999948034
  0
LINE
  5
   2DB
  8
0
  6
CONTINUOUS
 62
     7
 10
-566.572146725492
 20
25.073112487791
 30
0.0
 11
-567.322146725492
 21
25.073112487791
 31
0.0
  0
LINE
  5
   2DC
  8
0
  6
CONTINUOUS
 62
     7
 10
-566.572146725492
 20
20.573112487791
 30
0.0
 11
-567.322146725492
 21
20.573112487791
 31
0.0
  0
CIRCLE
  5
   2DD
  8
0
  6
CONTINUOUS
 62
     7
 10
-566.947146725492
 20
6.07311248779105
 30
0.0
 40
2.25
  0
CIRCLE
  5
   2DE
  8
0
  6
CONTINUOUS
 62
     7
 10
-566.947146725492
 20
6.07311248779105
 30
0.0
 40
1.5
  0
LINE
  5
   2DF
  8
0
  6
CONTINUOUS
 62
     7
 10
-567.322146725492
 20
20.573112487791
 30
0.0
 11
-567.322146725492
 21
25.073112487791
 31
0.0
  0
LINE
  5
   2E0
  8
0
  6
CONTINUOUS
 62
     7
 10
-566.572146725492
 20
20.573112487791
 30
0.0
 11
-566.572146725492
 21
25.073112487791
 31
0.0
  0
LINE
  5
   2E1
  8
0
  6
CONTINUOUS
 62
     7
 10
-562.072146725492
 20
3.07311248779104
 30
0.0
 11
-562.072146725492
 21
9.0731196323738
 31
0.0
  0
LINE
  5
   2E2
  8
0
  6
CONTINUOUS
 62
     7
 10
-548.572146725492
 20
3.07311248779104
 30
0.0
 11
-548.572146725492
 21
9.07311565575066
 31
0.0
  0
LINE
  5
   2E3
  8
0
  6
CONTINUOUS
 62
     7
 10
-548.572146725492
 20
19.823112487791
 30
0.0
 11
-548.572146725492
 21
25.823112487791
 31
0.0
  0
LINE
  5
   2E4
  8
0
  6
CONTINUOUS
 62
     7
 10
-562.072146725492
 20
19.823112487791
 30
0.0
 11
-562.072146725492
 21
25.823112487791
 31
0.0
  0
LINE
  5
   2E5
  8
0
  6
CONTINUOUS
 62
     7
 10
-542.547151608304
 20
7.99811248779105
 30
0.0
 11
-542.772151608304
 21
7.99811248779105
 31
0.0
  0
LINE
  5
   2E6
  8
0
  6
CONTINUOUS
 62
     7
 10
-543.022151608304
 20
4.14811248779105
 30
0.0
 11
-543.422151608304
 21
4.14811248779105
 31
0.0
  0
LINE
  5
   2E7
  8
0
  6
CONTINUOUS
 62
     7
 10
-546.622151608304
 20
5.44811248779107
 30
0.0
 11
-546.622151608304
 21
5.69811248779107
 31
0.0
  0
LINE
  5
   2E8
  8
0
  6
CONTINUOUS
 62
     7
 10
-544.022151608304
 20
5.44811248779107
 30
0.0
 11
-544.022151608304
 21
5.69811248779107
 31
0.0
  0
ARC
  5
   2E9
  8
0
  6
CONTINUOUS
 62
     7
 10
-545.322151608304
 20
5.69811248779104
 30
0.0
 40
1.3
 50
359.999999948034
 51
539.999999948034
  0
ARC
  5
   2EA
  8
0
  6
CONTINUOUS
 62
     7
 10
-545.322151608304
 20
5.44811248779105
 30
0.0
 40
1.3
 50
179.999999948034
 51
359.999999948034
  0
ARC
  5
   2EB
  8
0
  6
CONTINUOUS
 62
     7
 10
-545.322151608304
 20
5.69811248779104
 30
0.0
 40
0.900000000000001
 50
359.999999948034
 51
539.999999948034
  0
ARC
  5
   2EC
  8
0
  6
CONTINUOUS
 62
     7
 10
-545.322151608304
 20
5.44811248779105
 30
0.0
 40
0.899999999999999
 50
179.999999948034
 51
359.999999948034
  0
LINE
  5
   2ED
  8
0
  6
CONTINUOUS
 62
     7
 10
-546.222151608304
 20
5.44811248779106
 30
0.0
 11
-546.222151608304
 21
5.69811248779106
 31
0.0
  0
LINE
  5
   2EE
  8
0
  6
CONTINUOUS
 62
     7
 10
-544.422151608304
 20
5.44811248779107
 30
0.0
 11
-544.422151608304
 21
5.69811248779107
 31
0.0
  0
LINE
  5
   2EF
  8
0
  6
CONTINUOUS
 62
     7
 10
-543.897151608304
 20
6.39811248779107
 30
0.0
 11
-543.897151608304
 21
6.79811248779107
 31
0.0
  0
LINE
  5
   2F0
  8
0
  6
CONTINUOUS
 62
     7
 10
-543.422151608304
 20
6.39811248779105
 30
0.0
 11
-543.897151608304
 21
6.39811248779105
 31
0.0
  0
LINE
  5
   2F1
  8
0
  6
CONTINUOUS
 62
     7
 10
-542.547151608304
 20
6.39811248779107
 30
0.0
 11
-542.547151608304
 21
6.79811248779107
 31
0.0
  0
LINE
  5
   2F2
  8
0
  6
CONTINUOUS
 62
     7
 10
-543.422151608304
 20
6.79811248779104
 30
0.0
 11
-543.897151608304
 21
6.79811248779104
 31
0.0
  0
LINE
  5
   2F3
  8
0
  6
CONTINUOUS
 62
     7
 10
-543.422151608304
 20
4.14811248779107
 30
0.0
 11
-543.422151608304
 21
6.39811248779107
 31
0.0
  0
LINE
  5
   2F4
  8
0
  6
CONTINUOUS
 62
     7
 10
-543.022151608304
 20
4.14811248779107
 30
0.0
 11
-543.022151608304
 21
6.39811248779107
 31
0.0
  0
LINE
  5
   2F5
  8
0
  6
CONTINUOUS
 62
     7
 10
-542.547151608304
 20
6.39811248779105
 30
0.0
 11
-543.022151608304
 21
6.39811248779105
 31
0.0
  0
LINE
  5
   2F6
  8
0
  6
CONTINUOUS
 62
     7
 10
-542.547151608304
 20
6.79811248779104
 30
0.0
 11
-543.022151608304
 21
6.79811248779104
 31
0.0
  0
LINE
  5
   2F7
  8
0
  6
CONTINUOUS
 62
     7
 10
-543.422151608304
 20
6.79811248779107
 30
0.0
 11
-543.422151608304
 21
7.34811248779107
 31
0.0
  0
LINE
  5
   2F8
  8
0
  6
CONTINUOUS
 62
     7
 10
-543.022151608304
 20
6.79811248779107
 30
0.0
 11
-543.022151608304
 21
7.34811248779107
 31
0.0
  0
ARC
  5
   2F9
  8
0
  6
CONTINUOUS
 62
     7
 10
-542.772151608304
 20
7.34811248779104
 30
0.0
 40
0.65
 50
449.999999948034
 51
539.999999948034
  0
ARC
  5
   2FA
  8
0
  6
CONTINUOUS
 62
     7
 10
-542.772151608304
 20
7.34811248779104
 30
0.0
 40
0.25
 50
449.999999948034
 51
539.999999948034
  0
LINE
  5
   2FB
  8
0
  6
CONTINUOUS
 62
     7
 10
-542.547151608304
 20
7.59811248779107
 30
0.0
 11
-542.547151608304
 21
7.99811248779107
 31
0.0
  0
LINE
  5
   2FC
  8
0
  6
CONTINUOUS
 62
     7
 10
-542.547151608304
 20
7.59811248779104
 30
0.0
 11
-542.772151608304
 21
7.59811248779104
 31
0.0
  0
LINE
  5
   2FD
  8
0
  6
CONTINUOUS
 62
     7
 10
-540.947151608304
 20
7.99811248779105
 30
0.0
 11
-541.172151608304
 21
7.99811248779105
 31
0.0
  0
LINE
  5
   2FE
  8
0
  6
CONTINUOUS
 62
     7
 10
-541.422151608304
 20
4.14811248779105
 30
0.0
 11
-541.822151608304
 21
4.14811248779105
 31
0.0
  0
LINE
  5
   2FF
  8
0
  6
CONTINUOUS
 62
     7
 10
-542.297151608304
 20
6.39811248779107
 30
0.0
 11
-542.297151608304
 21
6.79811248779107
 31
0.0
  0
LINE
  5
   300
  8
0
  6
CONTINUOUS
 62
     7
 10
-541.822151608304
 20
6.39811248779105
 30
0.0
 11
-542.297151608304
 21
6.39811248779105
 31
0.0
  0
LINE
  5
   301
  8
0
  6
CONTINUOUS
 62
     7
 10
-540.947151608304
 20
6.39811248779107
 30
0.0
 11
-540.947151608304
 21
6.79811248779107
 31
0.0
  0
LINE
  5
   302
  8
0
  6
CONTINUOUS
 62
     7
 10
-541.822151608304
 20
6.79811248779104
 30
0.0
 11
-542.297151608304
 21
6.79811248779104
 31
0.0
  0
LINE
  5
   303
  8
0
  6
CONTINUOUS
 62
     7
 10
-541.822151608304
 20
4.14811248779107
 30
0.0
 11
-541.822151608304
 21
6.39811248779107
 31
0.0
  0
LINE
  5
   304
  8
0
  6
CONTINUOUS
 62
     7
 10
-541.422151608304
 20
4.14811248779107
 30
0.0
 11
-541.422151608304
 21
6.39811248779107
 31
0.0
  0
LINE
  5
   305
  8
0
  6
CONTINUOUS
 62
     7
 10
-540.947151608304
 20
6.39811248779105
 30
0.0
 11
-541.422151608304
 21
6.39811248779105
 31
0.0
  0
LINE
  5
   306
  8
0
  6
CONTINUOUS
 62
     7
 10
-540.947151608304
 20
6.79811248779104
 30
0.0
 11
-541.422151608304
 21
6.79811248779104
 31
0.0
  0
LINE
  5
   307
  8
0
  6
CONTINUOUS
 62
     7
 10
-541.822151608304
 20
6.79811248779107
 30
0.0
 11
-541.822151608304
 21
7.34811248779107
 31
0.0
  0
LINE
  5
   308
  8
0
  6
CONTINUOUS
 62
     7
 10
-541.422151608304
 20
6.79811248779107
 30
0.0
 11
-541.422151608304
 21
7.34811248779107
 31
0.0
  0
ARC
  5
   309
  8
0
  6
CONTINUOUS
 62
     7
 10
-541.172151608304
 20
7.34811248779103
 30
0.0
 40
0.65
 50
449.999999948034
 51
539.999999948034
  0
ARC
  5
   30A
  8
0
  6
CONTINUOUS
 62
     7
 10
-541.172151608304
 20
7.34811248779103
 30
0.0
 40
0.25
 50
449.999999948034
 51
539.999999948034
  0
LINE
  5
   30B
  8
0
  6
CONTINUOUS
 62
     7
 10
-540.947151608304
 20
7.59811248779107
 30
0.0
 11
-540.947151608304
 21
7.99811248779107
 31
0.0
  0
LINE
  5
   30C
  8
0
  6
CONTINUOUS
 62
     7
 10
-540.947151608304
 20
7.59811248779104
 30
0.0
 11
-541.172151608304
 21
7.59811248779104
 31
0.0
  0
LINE
  5
   30D
  8
0
  6
CONTINUOUS
 62
     7
 10
-543.222151608304
 20
21.398112487791
 30
0.0
 11
-543.622151608304
 21
21.398112487791
 31
0.0
  0
ARC
  5
   30E
  8
0
  6
CONTINUOUS
 62
     7
 10
-545.322151608304
 20
22.948112487791
 30
0.0
 40
1.3
 50
359.999999948034
 51
539.999999948034
  0
ARC
  5
   30F
  8
0
  6
CONTINUOUS
 62
     7
 10
-545.322151608304
 20
22.948112487791
 30
0.0
 40
0.900000000000001
 50
359.999999948034
 51
539.999999948034
  0
ARC
  5
   310
  8
0
  6
CONTINUOUS
 62
     7
 10
-545.322151608304
 20
22.698112487791
 30
0.0
 40
1.3
 50
179.999999948034
 51
359.999999948034
  0
ARC
  5
   311
  8
0
  6
CONTINUOUS
 62
     7
 10
-545.322151608304
 20
22.698112487791
 30
0.0
 40
0.899999999999999
 50
179.999999948034
 51
359.999999948034
  0
LINE
  5
   312
  8
0
  6
CONTINUOUS
 62
     7
 10
-544.422151608304
 20
22.6981124877911
 30
0.0
 11
-544.422151608304
 21
22.9481124877911
 31
0.0
  0
LINE
  5
   313
  8
0
  6
CONTINUOUS
 62
     7
 10
-544.022151608304
 20
22.6981124877911
 30
0.0
 11
-544.022151608304
 21
22.9481124877911
 31
0.0
  0
LINE
  5
   314
  8
0
  6
CONTINUOUS
 62
     7
 10
-546.222151608304
 20
22.6981124877911
 30
0.0
 11
-546.222151608304
 21
22.9481124877911
 31
0.0
  0
LINE
  5
   315
  8
0
  6
CONTINUOUS
 62
     7
 10
-546.622151608304
 20
22.6981124877911
 30
0.0
 11
-546.622151608304
 21
22.9481124877911
 31
0.0
  0
LINE
  5
   316
  8
0
  6
CONTINUOUS
 62
     7
 10
-543.622151608304
 20
21.3981124877911
 30
0.0
 11
-543.622151608304
 21
24.2481124877911
 31
0.0
  0
LINE
  5
   317
  8
0
  6
CONTINUOUS
 62
     7
 10
-543.222151608304
 20
21.3981124877911
 30
0.0
 11
-543.222151608304
 21
23.1481124877911
 31
0.0
  0
LINE
  5
   318
  8
0
  6
CONTINUOUS
 62
     7
 10
-541.822151608304
 20
21.3981124877911
 30
0.0
 11
-541.822151608304
 21
23.1481124877911
 31
0.0
  0
LINE
  5
   319
  8
0
  6
CONTINUOUS
 62
     7
 10
-541.422151608304
 20
21.3981124877911
 30
0.0
 11
-541.422151608304
 21
23.2481124877911
 31
0.0
  0
LINE
  5
   31A
  8
0
  6
CONTINUOUS
 62
     7
 10
-543.222151608304
 20
24.248112487791
 30
0.0
 11
-543.622151608304
 21
24.248112487791
 31
0.0
  0
ARC
  5
   31B
  8
0
  6
CONTINUOUS
 62
     7
 10
-542.522151608304
 20
23.148112487791
 30
0.0
 40
0.699999999999999
 50
359.999999948034
 51
539.999999948034
  0
LINE
  5
   31C
  8
0
  6
CONTINUOUS
 62
     7
 10
-543.222151608304
 20
23.8481124877911
 30
0.0
 11
-543.222151608304
 21
24.2481124877911
 31
0.0
  0
ARC
  5
   31D
  8
0
  6
CONTINUOUS
 62
     7
 10
-542.422151608304
 20
23.248112487791
 30
0.0
 40
1.0
 50
359.999999948034
 51
503.13010230219
  0
LINE
  5
   31E
  8
0
  6
CONTINUOUS
 62
     7
 10
-541.422151608304
 20
21.398112487791
 30
0.0
 11
-541.822151608304
 21
21.398112487791
 31
0.0
  0
LINE
  5
   31F
  8
0
  6
CONTINUOUS
 62
     7
 10
-545.697129168409
 20
-21.8018836975098
 30
0.0
 11
-545.697129168409
 21
-20.6768779754658
 31
0.0
  0
LINE
  5
   320
  8
0
  6
CONTINUOUS
 62
     7
 10
-547.447129168409
 20
-21.8018836975098
 30
0.0
 11
-547.447129168409
 21
-20.6768779754658
 31
0.0
  0
LINE
  5
   321
  8
0
  6
CONTINUOUS
 62
     7
 10
-563.197164282575
 20
-21.8018836975098
 30
0.0
 11
-563.197164282575
 21
-20.6768779754658
 31
0.0
  0
LINE
  5
   322
  8
0
  6
CONTINUOUS
 62
     7
 10
-564.947164282574
 20
-21.8018836975098
 30
0.0
 11
-564.947164282574
 21
-20.6768779754658
 31
0.0
  0
LINE
  5
   323
  8
0
  6
CONTINUOUS
 62
     7
 10
-581.072146755294
 20
26.323112487791
 30
0.0
 11
-581.572146725478
 21
26.323112487791
 31
0.0
  0
LINE
  5
   324
  8
0
  6
CONTINUOUS
 62
     7
 10
-581.072146755294
 20
25.823112487791
 30
0.0
 11
-581.572146725489
 21
25.823112487791
 31
0.0
  0
LINE
  5
   325
  8
0
  6
CONTINUOUS
 62
     7
 10
-581.072146755294
 20
19.823112487791
 30
0.0
 11
-581.572146725489
 21
19.823112487791
 31
0.0
  0
LINE
  5
   326
  8
0
  6
CONTINUOUS
 62
     7
 10
-581.072146755294
 20
19.323112487791
 30
0.0
 11
-581.572146725503
 21
19.323112487791
 31
0.0
  0
LINE
  5
   327
  8
0
  6
CONTINUOUS
 62
     7
 10
-581.072146755294
 20
9.5731221055061
 30
0.0
 11
-581.572146725503
 21
9.5731221055061
 31
0.0
  0
LINE
  5
   328
  8
0
  6
CONTINUOUS
 62
     7
 10
-581.072146755294
 20
9.07312210550316
 30
0.0
 11
-581.572146725494
 21
9.07312210550316
 31
0.0
  0
LINE
  5
   329
  8
0
  6
CONTINUOUS
 62
     7
 10
-581.072146755294
 20
3.07311248779104
 30
0.0
 11
-581.572146725494
 21
3.07311248779104
 31
0.0
  0
LINE
  5
   32A
  8
0
  6
CONTINUOUS
 62
     7
 10
-581.072146755294
 20
2.57311248779104
 30
0.0
 11
-581.572146725492
 21
2.57311248779104
 31
0.0
  0
LINE
  5
   32B
  8
0
  6
CONTINUOUS
 62
     7
 10
-529.572154354886
 20
26.323112487791
 30
0.0
 11
-581.072146755294
 21
26.323112487791
 31
0.0
  0
LINE
  5
   32C
  8
0
  6
CONTINUOUS
 62
     7
 10
-529.572154354886
 20
25.823112487791
 30
0.0
 11
-581.072146755294
 21
25.823112487791
 31
0.0
  0
LINE
  5
   32D
  8
0
  6
CONTINUOUS
 62
     7
 10
-529.572154354886
 20
19.823112487791
 30
0.0
 11
-549.947146725492
 21
19.823112487791
 31
0.0
  0
LINE
  5
   32E
  8
0
  6
CONTINUOUS
 62
     7
 10
-529.572154354886
 20
19.323112487791
 30
0.0
 11
-549.947146725492
 21
19.323112487791
 31
0.0
  0
LINE
  5
   32F
  8
0
  6
CONTINUOUS
 62
     7
 10
-529.572154354886
 20
9.57311812887998
 30
0.0
 11
-549.947148217871
 21
9.57311812887998
 31
0.0
  0
LINE
  5
   330
  8
0
  6
CONTINUOUS
 62
     7
 10
-529.572154354886
 20
9.07311812888003
 30
0.0
 11
-549.947148401066
 21
9.07311812888003
 31
0.0
  0
LINE
  5
   331
  8
0
  6
CONTINUOUS
 62
     7
 10
-529.572154354886
 20
3.07311248779104
 30
0.0
 11
-581.072146755294
 21
3.07311248779104
 31
0.0
  0
LINE
  5
   332
  8
0
  6
CONTINUOUS
 62
     7
 10
-529.572154354886
 20
2.57311248779104
 30
0.0
 11
-581.072146755294
 21
2.57311248779104
 31
0.0
  0
LINE
  5
   333
  8
0
  6
CONTINUOUS
 62
     7
 10
-549.947146725492
 20
11.5107728425007
 30
0.0
 11
-560.697146725492
 21
11.5107728425007
 31
0.0
  0
LINE
  5
   334
  8
0
  6
CONTINUOUS
 62
     7
 10
-549.947146725492
 20
8.45254008969226
 30
0.0
 11
-560.697146725492
 21
8.45254008969226
 31
0.0
  0
LINE
  5
   335
  8
0
  6
CONTINUOUS
 62
     7
 10
-549.947146725492
 20
5.47863077658644
 30
0.0
 11
-560.697146725492
 21
5.47863077658644
 31
0.0
  0
LINE
  5
   336
  8
0
  6
CONTINUOUS
 62
     7
 10
-549.947146725492
 20
5.07725721272729
 30
0.0
 11
-560.697146725492
 21
5.07725721272729
 31
0.0
  0
ARC
  5
   337
  8
0
  6
CONTINUOUS
 62
     7
 10
-596.322114512556
 20
53.1980877301802
 30
0.0
 40
1.87505277579048
 50
90.0014244293144
 51
269.998569947076
  0
LINE
  5
   338
  8
0
  6
CONTINUOUS
 62
     7
 10
-582.447164282575
 20
63.1981163024902
 30
0.0
 11
-597.32216139509
 21
63.1981163024902
 31
0.0
  0
LINE
  5
   339
  8
0
  6
CONTINUOUS
 62
     7
 10
-581.372540479541
 20
59.9481163024902
 30
0.0
 11
-582.822164282575
 21
59.9481163024902
 31
0.0
  0
CIRCLE
  5
   33A
  8
0
  6
CONTINUOUS
 62
     7
 10
-590.32216170068
 20
56.9481117517061
 30
0.0
 40
2.75000069115123
  0
CIRCLE
  5
   33B
  8
0
  6
CONTINUOUS
 62
     7
 10
-590.322164087869
 20
61.1981209608584
 30
0.0
 40
0.700002264523652
  0
LINE
  5
   33C
  8
0
  6
CONTINUOUS
 62
     7
 10
-582.447164282575
 20
61.6981163024902
 30
0.0
 11
-582.447164282575
 21
63.1981163024902
 31
0.0
  0
LINE
  5
   33D
  8
0
  6
CONTINUOUS
 62
     7
 10
-580.697164282575
 20
61.6981163024902
 30
0.0
 11
-580.697164282575
 21
63.1981163024902
 31
0.0
  0
LINE
  5
   33E
  8
0
  6
CONTINUOUS
 62
     7
 10
-582.822164282575
 20
59.9481163024902
 30
0.0
 11
-582.822164282575
 21
61.6981163024902
 31
0.0
  0
LINE
  5
   33F
  8
0
  6
CONTINUOUS
 62
     7
 10
-580.322164282575
 20
61.0346419744606
 30
0.0
 11
-580.322164282575
 21
61.6981163024902
 31
0.0
  0
LINE
  5
   340
  8
0
  6
CONTINUOUS
 62
     7
 10
-580.322164282575
 20
61.6981163024902
 30
0.0
 11
-580.697164282575
 21
61.6981163024902
 31
0.0
  0
LINE
  5
   341
  8
0
  6
CONTINUOUS
 62
     7
 10
-582.447164282575
 20
61.6981163024902
 30
0.0
 11
-582.822164282575
 21
61.6981163024902
 31
0.0
  0
LINE
  5
   342
  8
0
  6
CONTINUOUS
 62
     7
 10
-582.447164282575
 20
-21.8018836975099
 30
0.0
 11
-597.32216139509
 21
-21.8018836975099
 31
0.0
  0
CIRCLE
  5
   343
  8
0
  6
CONTINUOUS
 62
     7
 10
-590.322153359309
 20
-15.5518819938262
 30
0.0
 40
2.74999844531425
  0
CIRCLE
  5
   344
  8
0
  6
CONTINUOUS
 62
     7
 10
-590.322155056188
 20
-19.8018834443559
 30
0.0
 40
0.700000100813335
  0
CIRCLE
  5
   345
  8
0
  6
DOT
 62
     7
 10
-581.57215535317
 20
-14.0518826279821
 30
0.0
 40
2.24999899340852
  0
LINE
  5
   346
  8
0
  6
DASHDOT
 62
     7
 10
-590.322153359309
 20
-19.8018804391404
 30
0.0
 11
-590.322153359309
 21
-11.3018835485119
 31
0.0
  0
LINE
  5
   347
  8
0
  6
DASHDOT
 62
     7
 10
-590.322155056188
 20
-22.0018835451692
 30
0.0
 11
-590.322155056188
 21
-17.6018833435426
 31
0.0
  0
LINE
  5
   348
  8
0
  6
CONTINUOUS
 62
     7
 10
-580.697164282575
 20
-21.8018836975098
 30
0.0
 11
-580.697164282575
 21
-20.6768779754658
 31
0.0
  0
LINE
  5
   349
  8
0
  6
CONTINUOUS
 62
     7
 10
-582.447164282575
 20
-21.8018836975098
 30
0.0
 11
-582.447164282575
 21
-20.6768779754658
 31
0.0
  0
LINE
  5
   34A
  8
0
  6
DASHDOT
 62
     7
 10
-590.322164087869
 20
55.4981186963347
 30
0.0
 11
-590.322164087869
 21
66.898123225382
 31
0.0
  0
LINE
  5
   34B
  8
0
  6
DASHDOT
 62
     7
 10
-584.622161823346
 20
61.1981209608584
 30
0.0
 11
-596.022166352393
 21
61.1981209608584
 31
0.0
  0
LINE
  5
   34C
  8
0
  6
DASHDOT
 62
     7
 10
-590.32216170068
 20
51.9108722295768
 30
0.0
 11
-590.32216170068
 21
64.6981124428573
 31
0.0
  0
LINE
  5
   34D
  8
0
  6
DASHDOT
 62
     7
 10
-585.147840211856
 20
56.9481117517061
 30
0.0
 11
-594.912849888483
 21
56.9481117517061
 31
0.0
  0
LINE
  5
   34E
  8
0
  6
DASHDOT
 62
     7
 10
-582.572154913995
 20
-15.5518819938262
 30
0.0
 11
-598.072151804624
 21
-15.5518819938262
 31
0.0
  0
LINE
  5
   34F
  8
0
  6
DASHDOT
 62
     7
 10
-584.622154955374
 20
-19.8018834443559
 30
0.0
 11
-596.022155157001
 21
-19.8018834443559
 31
0.0
  0
LINE
  5
   350
  8
0
  6
DASHDOT
 62
     7
 10
-574.322156359762
 20
-14.0518826279821
 30
0.0
 11
-588.822154346579
 21
-14.0518826279821
 31
0.0
  0
LINE
  5
   351
  8
0
  6
CONTINUOUS
 62
     7
 10
-585.172146725478
 20
-8.92687221674008
 30
0.0
 11
-585.172146725478
 21
51.0731163024902
 31
0.0
  0
LINE
  5
   352
  8
0
  6
CONTINUOUS
 62
     7
 10
-586.972146725478
 20
-8.92687221674008
 30
0.0
 11
-586.972146725478
 21
51.0731163024902
 31
0.0
  0
LINE
  5
   353
  8
0
  6
CONTINUOUS
 62
     7
 10
-588.772146725478
 20
-8.92687221674008
 30
0.0
 11
-588.772146725478
 21
51.0731163024902
 31
0.0
  0
LINE
  5
   354
  8
0
  6
CONTINUOUS
 62
     7
 10
-590.572146725478
 20
-8.92687221674008
 30
0.0
 11
-590.572146725478
 21
51.0731163024902
 31
0.0
  0
LINE
  5
   355
  8
0
  6
CONTINUOUS
 62
     7
 10
-592.372146725478
 20
-8.92687221674008
 30
0.0
 11
-592.372146725478
 21
51.0731163024902
 31
0.0
  0
LINE
  5
   356
  8
0
  6
CONTINUOUS
 62
     7
 10
-594.172146725478
 20
-8.92687221674008
 30
0.0
 11
-594.172146725478
 21
51.0731163024902
 31
0.0
  0
LINE
  5
   357
  8
0
  6
CONTINUOUS
 62
     7
 10
-595.972146725478
 20
-8.92687221674008
 30
0.0
 11
-595.972146725478
 21
51.0731163024902
 31
0.0
  0
LINE
  5
   358
  8
0
  6
CONTINUOUS
 62
     7
 10
-597.772146725478
 20
-8.92687221674008
 30
0.0
 11
-597.772146725478
 21
51.0731163024902
 31
0.0
  0
LINE
  5
   359
  8
0
  6
CONTINUOUS
 62
     7
 10
-581.322146725478
 20
45.8231201171856
 30
0.0
 11
-599.072167017159
 21
45.8231201171856
 31
0.0
  0
LINE
  5
   35A
  8
0
  6
CONTINUOUS
 62
     7
 10
-584.572146725492
 20
-6.67687988281444
 30
0.0
 11
-599.072167017159
 21
-6.67687988281444
 31
0.0
  0
LINE
  5
   35B
  8
0
  6
DASHDOT
 62
     5
 10
-522.191831326145
 20
19.5731201171856
 30
0.0
 11
-603.931654823939
 21
19.5731201171856
 31
0.0
  0
LINE
  5
   35C
  8
0
  6
CONTINUOUS
 62
     7
 10
-595.32216170068
 20
63.1981163024902
 30
0.0
 11
-595.32216170068
 21
79.4481163024902
 31
0.0
  0
LINE
  5
   35D
  8
0
  6
CONTINUOUS
 62
     7
 10
-585.32216170068
 20
63.1981163024902
 30
0.0
 11
-585.32216170068
 21
79.4481163024902
 31
0.0
  0
LINE
  5
   35E
  8
0
  6
CONTINUOUS
 62
     7
 10
-532.072146725492
 20
-23.0518836975097
 30
0.0
 11
-532.072146725492
 21
-21.8018836975104
 31
0.0
  0
LINE
  5
   35F
  8
0
  6
CONTINUOUS
 62
     7
 10
-596.072167017159
 20
-23.0518836975097
 30
0.0
 11
-596.072167017159
 21
-21.8018836975099
 31
0.0
  0
LINE
  5
   360
  8
0
  6
CONTINUOUS
 62
     7
 10
-585.32216170068
 20
79.4481163024902
 30
0.0
 11
-595.32216170068
 21
79.4481163024902
 31
0.0
  0
CIRCLE
  5
   361
  8
0
  6
CONTINUOUS
 62
     7
 10
-590.322164087869
 20
73.6981163024902
 30
0.0
 40
2.125
  0
LINE
  5
   362
  8
0
  6
CONTINUOUS
 62
     7
 10
-532.072146725492
 20
-23.0518836975097
 30
0.0
 11
-596.072167017159
 21
-23.0518836975097
 31
0.0
  0
LINE
  5
   363
  8
0
  6
DASHDOT
 62
     7
 10
-590.322164087869
 20
71.0731163024902
 30
0.0
 11
-590.322164087869
 21
76.3231163024902
 31
0.0
  0
LINE
  5
   364
  8
0
  6
DASHDOT
 62
     7
 10
-587.697164087869
 20
73.6981163024902
 30
0.0
 11
-592.947164087869
 21
73.6981163024902
 31
0.0
  0
LINE
  5
   365
  8
0
  6
CONTINUOUS
 62
     7
 10
-567.82216170068
 20
79.4481163024902
 30
0.0
 11
-577.82216170068
 21
79.4481163024902
 31
0.0
  0
LINE
  5
   366
  8
0
  6
CONTINUOUS
 62
     7
 10
-550.32216170068
 20
79.4481163024902
 30
0.0
 11
-560.32216170068
 21
79.4481163024902
 31
0.0
  0
LINE
  5
   367
  8
0
  6
CONTINUOUS
 62
     7
 10
-532.82216170068
 20
79.4481163024902
 30
0.0
 11
-542.82216170068
 21
79.4481163024902
 31
0.0
  0
LINE
  5
   368
  8
0
  6
CONTINUOUS
 62
     7
 10
-567.82216170068
 20
64.4481163024902
 30
0.0
 11
-567.82216170068
 21
79.4481163024902
 31
0.0
  0
LINE
  5
   369
  8
0
  6
CONTINUOUS
 62
     7
 10
-550.32216170068
 20
64.4481163024902
 30
0.0
 11
-550.32216170068
 21
79.4481163024902
 31
0.0
  0
LINE
  5
   36A
  8
0
  6
CONTINUOUS
 62
     7
 10
-532.82216170068
 20
64.4481163024902
 30
0.0
 11
-532.82216170068
 21
79.4481163024902
 31
0.0
  0
LINE
  5
   36B
  8
0
  6
CONTINUOUS
 62
     7
 10
-577.82216170068
 20
64.4481163024902
 30
0.0
 11
-577.82216170068
 21
79.4481163024902
 31
0.0
  0
LINE
  5
   36C
  8
0
  6
CONTINUOUS
 62
     7
 10
-560.32216170068
 20
64.4481163024902
 30
0.0
 11
-560.32216170068
 21
79.4481163024902
 31
0.0
  0
LINE
  5
   36D
  8
0
  6
CONTINUOUS
 62
     7
 10
-542.82216170068
 20
64.4481163024902
 30
0.0
 11
-542.82216170068
 21
79.4481163024902
 31
0.0
  0
CIRCLE
  5
   36E
  8
0
  6
CONTINUOUS
 62
     7
 10
-572.822164087869
 20
73.6981163024902
 30
0.0
 40
2.125
  0
CIRCLE
  5
   36F
  8
0
  6
CONTINUOUS
 62
     7
 10
-555.322164087869
 20
73.6981163024902
 30
0.0
 40
2.125
  0
CIRCLE
  5
   370
  8
0
  6
CONTINUOUS
 62
     7
 10
-537.822164087869
 20
73.6981163024902
 30
0.0
 40
2.125
  0
LINE
  5
   371
  8
0
  6
DASHDOT
 62
     7
 10
-572.822164087869
 20
71.0731163024902
 30
0.0
 11
-572.822164087869
 21
76.3231163024902
 31
0.0
  0
LINE
  5
   372
  8
0
  6
DASHDOT
 62
     7
 10
-570.197164087869
 20
73.6981163024902
 30
0.0
 11
-575.447164087869
 21
73.6981163024902
 31
0.0
  0
LINE
  5
   373
  8
0
  6
DASHDOT
 62
     7
 10
-555.322164087869
 20
71.0731163024902
 30
0.0
 11
-555.322164087869
 21
76.3231163024902
 31
0.0
  0
LINE
  5
   374
  8
0
  6
DASHDOT
 62
     7
 10
-552.697164087869
 20
73.6981163024902
 30
0.0
 11
-557.947164087869
 21
73.6981163024902
 31
0.0
  0
LINE
  5
   375
  8
0
  6
DASHDOT
 62
     7
 10
-537.822164087869
 20
71.0731163024902
 30
0.0
 11
-537.822164087869
 21
76.3231163024902
 31
0.0
  0
LINE
  5
   376
  8
0
  6
DASHDOT
 62
     7
 10
-535.197164087869
 20
73.6981163024902
 30
0.0
 11
-540.447164087869
 21
73.6981163024902
 31
0.0
  0
LINE
  5
   377
  8
0
  6
CONTINUOUS
 62
     1
 10
-543.822164282575
 20
64.4481163024902
 30
0.0
 11
-543.822164282575
 21
65.9481163024902
 31
0.0
  0
LINE
  5
   378
  8
0
  6
CONTINUOUS
 62
     1
 10
-547.322164282575
 20
65.9481163024902
 30
0.0
 11
-549.322164282574
 21
65.9481163024902
 31
0.0
  0
LINE
  5
   379
  8
0
  6
CONTINUOUS
 62
     1
 10
-543.822164282575
 20
65.9481163024902
 30
0.0
 11
-545.822164282575
 21
65.9481163024902
 31
0.0
  0
LINE
  5
   37A
  8
0
  6
CONTINUOUS
 62
     1
 10
-549.322164282574
 20
64.4481163024902
 30
0.0
 11
-549.322164282574
 21
65.9481163024902
 31
0.0
  0
LINE
  5
   37B
  8
0
  6
CONTINUOUS
 62
     1
 10
-543.822164282575
 20
64.9481163024902
 30
0.0
 11
-549.322164282574
 21
64.9481163024902
 31
0.0
  0
LINE
  5
   37C
  8
0
  6
CONTINUOUS
 62
     1
 10
-546.125289282575
 20
114.44811630249
 30
0.0
 11
-547.019039282575
 21
114.44811630249
 31
0.0
  0
LINE
  5
   37D
  8
0
  6
CONTINUOUS
 62
     1
 10
-545.822164282575
 20
65.9481163024902
 30
0.0
 11
-546.125289282574
 21
114.44811630249
 31
0.0
  0
LINE
  5
   37E
  8
0
  6
CONTINUOUS
 62
     1
 10
-547.322164282575
 20
65.9481163024902
 30
0.0
 11
-547.019039282575
 21
114.44811630249
 31
0.0
  0
LINE
  5
   37F
  8
0
  6
CONTINUOUS
 62
     1
 10
-561.322164282575
 20
64.4481163024902
 30
0.0
 11
-561.322164282575
 21
65.9481163024902
 31
0.0
  0
LINE
  5
   380
  8
0
  6
CONTINUOUS
 62
     1
 10
-564.822164282575
 20
65.9481163024902
 30
0.0
 11
-566.822164282575
 21
65.9481163024902
 31
0.0
  0
LINE
  5
   381
  8
0
  6
CONTINUOUS
 62
     1
 10
-561.322164282575
 20
65.9481163024902
 30
0.0
 11
-563.322164282575
 21
65.9481163024902
 31
0.0
  0
LINE
  5
   382
  8
0
  6
CONTINUOUS
 62
     1
 10
-566.822164282575
 20
64.4481163024902
 30
0.0
 11
-566.822164282575
 21
65.9481163024902
 31
0.0
  0
LINE
  5
   383
  8
0
  6
CONTINUOUS
 62
     1
 10
-561.322164282575
 20
64.9481163024902
 30
0.0
 11
-566.822164282575
 21
64.9481163024902
 31
0.0
  0
LINE
  5
   384
  8
0
  6
CONTINUOUS
 62
     1
 10
-563.625289282575
 20
114.44811630249
 30
0.0
 11
-564.519039282575
 21
114.44811630249
 31
0.0
  0
LINE
  5
   385
  8
0
  6
CONTINUOUS
 62
     1
 10
-563.322164282575
 20
65.9481163024902
 30
0.0
 11
-563.625289282575
 21
114.44811630249
 31
0.0
  0
LINE
  5
   386
  8
0
  6
CONTINUOUS
 62
     1
 10
-564.822164282575
 20
65.9481163024902
 30
0.0
 11
-564.519039282575
 21
114.44811630249
 31
0.0
  0
LINE
  5
   387
  8
0
  6
CONTINUOUS
 62
     1
 10
-578.822164282575
 20
64.4481163024902
 30
0.0
 11
-578.822164282575
 21
65.9481163024902
 31
0.0
  0
LINE
  5
   388
  8
0
  6
CONTINUOUS
 62
     1
 10
-582.322164282575
 20
65.9481163024902
 30
0.0
 11
-584.322164282575
 21
65.9481163024902
 31
0.0
  0
LINE
  5
   389
  8
0
  6
CONTINUOUS
 62
     1
 10
-578.822164282575
 20
65.9481163024902
 30
0.0
 11
-580.822164282575
 21
65.9481163024902
 31
0.0
  0
LINE
  5
   38A
  8
0
  6
CONTINUOUS
 62
     1
 10
-584.322164282575
 20
63.1981163024902
 30
0.0
 11
-584.322164282575
 21
65.9481163024902
 31
0.0
  0
LINE
  5
   38B
  8
0
  6
CONTINUOUS
 62
     1
 10
-579.424263934634
 20
64.4481163024902
 30
0.0
 11
-584.322164282575
 21
64.4481163024902
 31
0.0
  0
LINE
  5
   38C
  8
0
  6
CONTINUOUS
 62
     1
 10
-582.322164282575
 20
61.7981160879135
 30
0.0
 11
-582.697164282575
 21
61.7981160879135
 31
0.0
  0
LINE
  5
   38D
  8
0
  6
CONTINUOUS
 62
     1
 10
-582.697164282575
 20
60.1981160640716
 30
0.0
 11
-582.697164282575
 21
61.7981160879135
 31
0.0
  0
LINE
  5
   38E
  8
0
  6
CONTINUOUS
 62
     1
 10
-580.447164282575
 20
60.1981160640716
 30
0.0
 11
-582.697164282575
 21
60.1981160640716
 31
0.0
  0
LINE
  5
   38F
  8
0
  6
CONTINUOUS
 62
     1
 10
-580.447164282575
 20
60.1981160640716
 30
0.0
 11
-580.447164282575
 21
61.7981160879135
 31
0.0
  0
LINE
  5
   390
  8
0
  6
CONTINUOUS
 62
     1
 10
-580.447164282575
 20
61.7981160879135
 30
0.0
 11
-580.822164282575
 21
61.7981160879135
 31
0.0
  0
LINE
  5
   391
  8
0
  6
CONTINUOUS
 62
     1
 10
-580.822164282575
 20
61.7981159687042
 30
0.0
 11
-580.822164282575
 21
64.4481160640716
 31
0.0
  0
LINE
  5
   392
  8
0
  6
CONTINUOUS
 62
     1
 10
-582.322164282575
 20
61.7981160879135
 30
0.0
 11
-582.322164282575
 21
64.4481160640716
 31
0.0
  0
LINE
  5
   393
  8
0
  6
CONTINUOUS
 62
     1
 10
-582.322164282575
 20
61.2981160879135
 30
0.0
 11
-582.322164282575
 21
61.7981160879135
 31
0.0
  0
LINE
  5
   394
  8
0
  6
CONTINUOUS
 62
     1
 10
-580.822164282575
 20
61.2981160879135
 30
0.0
 11
-580.822164282575
 21
61.7981160879135
 31
0.0
  0
LINE
  5
   395
  8
0
  6
CONTINUOUS
 62
     1
 10
-582.322164282575
 20
61.2981160879135
 30
0.0
 11
-582.697164282575
 21
61.2981160879135
 31
0.0
  0
LINE
  5
   396
  8
0
  6
CONTINUOUS
 62
     1
 10
-580.447164282575
 20
61.2981160879135
 30
0.0
 11
-580.822164282575
 21
61.2981160879135
 31
0.0
  0
LINE
  5
   397
  8
0
  6
CONTINUOUS
 62
     1
 10
-578.822164282575
 20
64.9481163024902
 30
0.0
 11
-584.322164282575
 21
64.9481163024902
 31
0.0
  0
LINE
  5
   398
  8
0
  6
CONTINUOUS
 62
     1
 10
-579.856242902716
 20
63.1981163024902
 30
0.0
 11
-580.822164282575
 21
63.1981163024902
 31
0.0
  0
LINE
  5
   399
  8
0
  6
CONTINUOUS
 62
     1
 10
-582.322164282575
 20
63.1981163024902
 30
0.0
 11
-584.322164282575
 21
63.1981163024902
 31
0.0
  0
LINE
  5
   39A
  8
0
  6
CONTINUOUS
 62
     1
 10
-581.125289282575
 20
114.44811630249
 30
0.0
 11
-582.019039282575
 21
114.44811630249
 31
0.0
  0
LINE
  5
   39B
  8
0
  6
CONTINUOUS
 62
     1
 10
-580.822164282575
 20
65.9481163024902
 30
0.0
 11
-581.125289282575
 21
114.44811630249
 31
0.0
  0
LINE
  5
   39C
  8
0
  6
CONTINUOUS
 62
     1
 10
-582.322164282575
 20
65.9481163024902
 30
0.0
 11
-582.019039282575
 21
114.44811630249
 31
0.0
  0
CIRCLE
  5
   39D
  8
0
  6
CONTINUOUS
 62
     7
 10
-546.932300606053
 20
90.4500762901769
 30
0.0
 40
0.25
  0
CIRCLE
  5
   39E
  8
0
  6
CONTINUOUS
 62
     7
 10
-564.028123093394
 20
93.3511706277856
 30
0.0
 40
0.25
  0
CIRCLE
  5
   39F
  8
0
  6
CONTINUOUS
 62
     7
 10
-581.83058603855
 20
96.4030214183838
 30
0.0
 40
0.25
  0
INSERT
  5
   3A0
  8
255
  6
CONTINUOUS
 62
     7
  2
MOSTRINA
 10
-612.741275143461
 20
-35.4171905517597
 30
0.0
 41
0.5
 42
0.5
 50
3.50835464724173E-15
 43
0.5
  0
LINE
  5
   3A1
  8
0
  6
CONTINUOUS
 62
     3
 10
-529.697155700952
 20
64.4481163024902
 30
0.0
 11
-579.424263934634
 21
64.4481163024902
 31
0.0
  0
LINE
  5
   3A2
  8
0
  6
CONTINUOUS
 62
     3
 10
-529.072128762113
 20
59.8231201171856
 30
0.0
 11
-529.072128762113
 21
63.8231163024975
 31
0.0
  0
LINE
  5
   3A3
  8
0
  6
CONTINUOUS
 62
     3
 10
-529.255212648758
 20
64.2650599169337
 30
0.0
 11
-529.69715295922
 21
64.4481196125983
 31
0.0
  0
LINE
  5
   3A4
  8
0
  6
CONTINUOUS
 62
     3
 10
-529.072154467081
 20
63.8231220829753
 30
0.0
 11
-529.255214162746
 21
64.2650623934376
 31
0.0
  0
LINE
  5
   3A5
  8
0
  6
CONTINUOUS
 62
     3
 10
-531.147152649194
 20
59.8231201171856
 30
0.0
 11
-531.147152649194
 21
64.2927894592285
 31
0.0
  0
LINE
  5
   3A6
  8
0
  6
CONTINUOUS
 62
     3
 10
-532.947155700952
 20
59.8231201171856
 30
0.0
 11
-532.947155700952
 21
64.2927894592285
 31
0.0
  0
LINE
  5
   3A7
  8
0
  6
CONTINUOUS
 62
     3
 10
-534.747154938012
 20
59.8231201171856
 30
0.0
 11
-534.747154938012
 21
64.2927894592285
 31
0.0
  0
LINE
  5
   3A8
  8
0
  6
CONTINUOUS
 62
     3
 10
-536.547154175073
 20
59.8231201171856
 30
0.0
 11
-536.547154175073
 21
64.2927894592285
 31
0.0
  0
LINE
  5
   3A9
  8
0
  6
CONTINUOUS
 62
     3
 10
-538.347153412133
 20
59.8231201171856
 30
0.0
 11
-538.347153412133
 21
64.2927894592285
 31
0.0
  0
LINE
  5
   3AA
  8
0
  6
CONTINUOUS
 62
     3
 10
-540.147152649194
 20
59.8231201171856
 30
0.0
 11
-540.147152649194
 21
64.2927894592285
 31
0.0
  0
LINE
  5
   3AB
  8
0
  6
CONTINUOUS
 62
     3
 10
-541.947155700952
 20
59.8231201171856
 30
0.0
 11
-541.947155700952
 21
64.2927894592285
 31
0.0
  0
LINE
  5
   3AC
  8
0
  6
CONTINUOUS
 62
     3
 10
-543.747154938012
 20
59.8231201171856
 30
0.0
 11
-543.747154938012
 21
64.2927894592285
 31
0.0
  0
LINE
  5
   3AD
  8
0
  6
CONTINUOUS
 62
     3
 10
-545.547154175073
 20
59.8231201171856
 30
0.0
 11
-545.547154175073
 21
64.2927894592285
 31
0.0
  0
LINE
  5
   3AE
  8
0
  6
CONTINUOUS
 62
     3
 10
-547.347153412133
 20
59.8231201171856
 30
0.0
 11
-547.347153412133
 21
64.2927894592285
 31
0.0
  0
LINE
  5
   3AF
  8
0
  6
CONTINUOUS
 62
     3
 10
-549.147152649194
 20
59.8231201171856
 30
0.0
 11
-549.147152649194
 21
64.2927894592285
 31
0.0
  0
LINE
  5
   3B0
  8
0
  6
CONTINUOUS
 62
     3
 10
-550.947153793603
 20
59.8231201171856
 30
0.0
 11
-550.947153793603
 21
64.2927894592285
 31
0.0
  0
LINE
  5
   3B1
  8
0
  6
CONTINUOUS
 62
     3
 10
-552.747153030663
 20
59.8231201171856
 30
0.0
 11
-552.747153030663
 21
64.2927894592285
 31
0.0
  0
LINE
  5
   3B2
  8
0
  6
CONTINUOUS
 62
     3
 10
-554.547154175073
 20
59.8231201171856
 30
0.0
 11
-554.547154175073
 21
64.2927894592285
 31
0.0
  0
LINE
  5
   3B3
  8
0
  6
CONTINUOUS
 62
     3
 10
-556.347153412133
 20
59.8231201171856
 30
0.0
 11
-556.347153412133
 21
64.2927894592285
 31
0.0
  0
LINE
  5
   3B4
  8
0
  6
CONTINUOUS
 62
     3
 10
-558.147154556542
 20
59.8231201171856
 30
0.0
 11
-558.147154556542
 21
64.2927894592285
 31
0.0
  0
LINE
  5
   3B5
  8
0
  6
CONTINUOUS
 62
     3
 10
-559.947153793603
 20
59.8231201171856
 30
0.0
 11
-559.947153793603
 21
64.2927894592285
 31
0.0
  0
LINE
  5
   3B6
  8
0
  6
CONTINUOUS
 62
     3
 10
-570.847153412133
 20
59.8231201171856
 30
0.0
 11
-570.847153412133
 21
64.2927894592285
 31
0.0
  0
LINE
  5
   3B7
  8
0
  6
CONTINUOUS
 62
     3
 10
-585.347153412133
 20
51.6981163024902
 30
0.0
 11
-585.347153412133
 21
54.3439390400885
 31
0.0
  0
LINE
  5
   3B8
  8
0
  6
CONTINUOUS
 62
     3
 10
-587.147153602868
 20
51.6981163024902
 30
0.0
 11
-587.147153602868
 21
53.1024726212531
 31
0.0
  0
LINE
  5
   3B9
  8
0
  6
CONTINUOUS
 62
     3
 10
-569.047154175073
 20
59.8231201171856
 30
0.0
 11
-569.047154175073
 21
64.2927894592285
 31
0.0
  0
LINE
  5
   3BA
  8
0
  6
CONTINUOUS
 62
     3
 10
-567.247153030663
 20
59.8231201171856
 30
0.0
 11
-567.247153030663
 21
64.2927894592285
 31
0.0
  0
LINE
  5
   3BB
  8
0
  6
CONTINUOUS
 62
     3
 10
-565.447153793603
 20
59.8231201171856
 30
0.0
 11
-565.447153793603
 21
64.2927894592285
 31
0.0
  0
LINE
  5
   3BC
  8
0
  6
CONTINUOUS
 62
     3
 10
-563.647153793603
 20
59.8231201171856
 30
0.0
 11
-563.647153793603
 21
64.2927894592285
 31
0.0
  0
LINE
  5
   3BD
  8
0
  6
CONTINUOUS
 62
     3
 10
-561.847153793603
 20
59.8231201171856
 30
0.0
 11
-561.847153793603
 21
64.2927894592285
 31
0.0
  0
LINE
  5
   3BE
  8
0
  6
CONTINUOUS
 62
     3
 10
-572.647153412133
 20
59.8231201171856
 30
0.0
 11
-572.647153412133
 21
64.2927894592285
 31
0.0
  0
LINE
  5
   3BF
  8
0
  6
CONTINUOUS
 62
     3
 10
-574.447153412133
 20
59.8231201171856
 30
0.0
 11
-574.447153412133
 21
64.2927894592285
 31
0.0
  0
LINE
  5
   3C0
  8
0
  6
CONTINUOUS
 62
     3
 10
-576.247153412133
 20
59.8231201171856
 30
0.0
 11
-576.247153412133
 21
64.2927894592285
 31
0.0
  0
LINE
  5
   3C1
  8
0
  6
CONTINUOUS
 62
     3
 10
-578.047153412133
 20
59.8231201171856
 30
0.0
 11
-578.047153412133
 21
64.2927894592285
 31
0.0
  0
LINE
  5
   3C2
  8
0
  6
CONTINUOUS
 62
     3
 10
-579.847153412133
 20
59.8231201171856
 30
0.0
 11
-579.847153412133
 21
61.4215805463192
 31
0.0
  0
POLYLINE
  5
   3C3
  8
0
  6
CONTINUOUS
 62
     3
 66
     1
 10
0.0
 20
0.0
 30
0.0
  0
VERTEX
  5
   3C4
  8
0
  6
CONTINUOUS
 10
-578.760540345815
 20
64.8754011328269
 30
0.0
 40
0.0
 41
0.0
  0
VERTEX
  5
   3C5
  8
0
  6
CONTINUOUS
 10
-578.808232890544
 20
64.8553455634123
 30
0.0
 40
0.0
 41
0.0
  0
VERTEX
  5
   3C6
  8
0
  6
CONTINUOUS
 10
-578.855645872314
 20
64.8341173062588
 30
0.0
 40
0.0
 41
0.0
  0
VERTEX
  5
   3C7
  8
0
  6
CONTINUOUS
 10
-578.902774684622
 20
64.8117157575186
 30
0.0
 40
0.0
 41
0.0
  0
VERTEX
  5
   3C8
  8
0
  6
CONTINUOUS
 10
-578.949607350559
 20
64.7881393471873
 30
0.0
 40
0.0
 41
0.0
  0
VERTEX
  5
   3C9
  8
0
  6
CONTINUOUS
 10
-578.99612083761
 20
64.7633850560255
 30
0.0
 40
0.0
 41
0.0
  0
VERTEX
  5
   3CA
  8
0
  6
CONTINUOUS
 10
-579.042277372451
 20
64.7374479324809
 30
0.0
 40
0.0
 41
0.0
  0
VERTEX
  5
   3CB
  8
0
  6
CONTINUOUS
 10
-579.088020755745
 20
64.7103206096095
 30
0.0
 40
0.0
 41
0.0
  0
VERTEX
  5
   3CC
  8
0
  6
CONTINUOUS
 10
-579.133272676939
 20
64.6819928219979
 30
0.0
 40
0.0
 41
0.0
  0
VERTEX
  5
   3CD
  8
0
  6
CONTINUOUS
 10
-579.177929029064
 20
64.6524509226844
 30
0.0
 40
0.0
 41
0.0
  0
VERTEX
  5
   3CE
  8
0
  6
CONTINUOUS
 10
-579.221856223534
 20
64.6216774000813
 30
0.0
 40
0.0
 41
0.0
  0
VERTEX
  5
   3CF
  8
0
  6
CONTINUOUS
 10
-579.259351427306
 20
64.5938853546407
 30
0.0
 40
0.0
 41
0.0
  0
VERTEX
  5
   3D0
  8
0
  6
CONTINUOUS
 10
-579.296039323383
 20
64.5651277467904
 30
0.0
 40
0.0
 41
0.0
  0
VERTEX
  5
   3D1
  8
0
  6
CONTINUOUS
 10
-579.331777687529
 20
64.5353867053909
 30
0.0
 40
0.0
 41
0.0
  0
VERTEX
  5
   3D2
  8
0
  6
CONTINUOUS
 10
-579.366420439956
 20
64.5046450898316
 30
0.0
 40
0.0
 41
0.0
  0
VERTEX
  5
   3D3
  8
0
  6
CONTINUOUS
 10
-579.399826274285
 20
64.472888239135
 30
0.0
 40
0.0
 41
0.0
  0
VERTEX
  5
   3D4
  8
0
  6
CONTINUOUS
 10
-579.431867286497
 20
64.4401057210589
 30
0.0
 40
0.0
 41
0.0
  0
VERTEX
  5
   3D5
  8
0
  6
CONTINUOUS
 10
-579.46243760389
 20
64.4062930812011
 30
0.0
 40
0.0
 41
0.0
  0
VERTEX
  5
   3D6
  8
0
  6
CONTINUOUS
 10
-579.491462014034
 20
64.3714535921021
 30
0.0
 40
0.0
 41
0.0
  0
VERTEX
  5
   3D7
  8
0
  6
CONTINUOUS
 10
-579.518904593725
 20
64.3356000023486
 30
0.0
 40
0.0
 41
0.0
  0
VERTEX
  5
   3D8
  8
0
  6
CONTINUOUS
 10
-579.544777337938
 20
64.2987562856775
 30
0.0
 40
0.0
 41
0.0
  0
VERTEX
  5
   3D9
  8
0
  6
CONTINUOUS
 10
-579.569445312658
 20
64.2604792574731
 30
0.0
 40
0.0
 41
0.0
  0
VERTEX
  5
   3DA
  8
0
  6
CONTINUOUS
 10
-579.592706711111
 20
64.2212775940086
 30
0.0
 40
0.0
 41
0.0
  0
VERTEX
  5
   3DB
  8
0
  6
CONTINUOUS
 10
-579.614744476038
 20
64.1812165468728
 30
0.0
 40
0.0
 41
0.0
  0
VERTEX
  5
   3DC
  8
0
  6
CONTINUOUS
 10
-579.635773953059
 20
64.1403712319548
 30
0.0
 40
0.0
 41
0.0
  0
VERTEX
  5
   3DD
  8
0
  6
CONTINUOUS
 10
-579.675723121134
 20
64.0566607477621
 30
0.0
 40
0.0
 41
0.0
  0
VERTEX
  5
   3DE
  8
0
  6
CONTINUOUS
 10
-579.752369482911
 20
63.8835719957303
 30
0.0
 40
0.0
 41
0.0
  0
VERTEX
  5
   3DF
  8
0
  6
CONTINUOUS
 10
-579.793328717535
 20
63.78731628829
 30
0.0
 40
0.0
 41
0.0
  0
VERTEX
  5
   3E0
  8
0
  6
CONTINUOUS
 10
-579.812931851053
 20
63.7389575814648
 30
0.0
 40
0.0
 41
0.0
  0
VERTEX
  5
   3E1
  8
0
  6
CONTINUOUS
 10
-579.831397889726
 20
63.6905048439584
 30
0.0
 40
0.0
 41
0.0
  0
VERTEX
  5
   3E2
  8
0
  6
CONTINUOUS
 10
-579.848231409273
 20
63.6419896139028
 30
0.0
 40
0.0
 41
0.0
  0
VERTEX
  5
   3E3
  8
0
  6
CONTINUOUS
 10
-579.862912768222
 20
63.5934358131915
 30
0.0
 40
0.0
 41
0.0
  0
VERTEX
  5
   3E4
  8
0
  6
CONTINUOUS
 10
-579.874931823611
 20
63.5448623108868
 30
0.0
 40
0.0
 41
0.0
  0
VERTEX
  5
   3E5
  8
0
  6
CONTINUOUS
 10
-579.883821646691
 20
63.4962854866273
 30
0.0
 40
0.0
 41
0.0
  0
VERTEX
  5
   3E6
  8
0
  6
CONTINUOUS
 10
-579.889192238633
 20
63.4477217940355
 30
0.0
 40
0.0
 41
0.0
  0
VERTEX
  5
   3E7
  8
0
  6
CONTINUOUS
 10
-579.890764246227
 20
63.3991903241248
 30
0.0
 40
0.0
 41
0.0
  0
VERTEX
  5
   3E8
  8
0
  6
CONTINUOUS
 10
-579.890058356475
 20
63.3745636813449
 30
0.0
 40
0.0
 41
0.0
  0
VERTEX
  5
   3E9
  8
0
  6
CONTINUOUS
 10
-579.888333711177
 20
63.3499553281322
 30
0.0
 40
0.0
 41
0.0
  0
VERTEX
  5
   3EA
  8
0
  6
CONTINUOUS
 10
-579.881876449423
 20
63.3008107886559
 30
0.0
 40
0.0
 41
0.0
  0
VERTEX
  5
   3EB
  8
0
  6
CONTINUOUS
 10
-579.871584740498
 20
63.2517937120273
 30
0.0
 40
0.0
 41
0.0
  0
VERTEX
  5
   3EC
  8
0
  6
CONTINUOUS
 10
-579.857784356166
 20
63.2029425871228
 30
0.0
 40
0.0
 41
0.0
  0
VERTEX
  5
   3ED
  8
0
  6
CONTINUOUS
 10
-579.840906546855
 20
63.1542939950897
 30
0.0
 40
0.0
 41
0.0
  0
VERTEX
  5
   3EE
  8
0
  6
CONTINUOUS
 10
-579.821460028107
 20
63.1058792190717
 30
0.0
 40
0.0
 41
0.0
  0
VERTEX
  5
   3EF
  8
0
  6
CONTINUOUS
 10
-579.800002967012
 20
63.0577208539342
 30
0.0
 40
0.0
 41
0.0
  0
VERTEX
  5
   3F0
  8
0
  6
CONTINUOUS
 10
-579.777114968648
 20
63.0098294159898
 30
0.0
 40
0.0
 41
0.0
  0
VERTEX
  5
   3F1
  8
0
  6
CONTINUOUS
 10
-579.673161140121
 20
62.8022160107975
 30
0.0
 40
0.0
 41
0.0
  0
VERTEX
  5
   3F2
  8
0
  6
CONTINUOUS
 10
-579.646908015057
 20
62.7459888074079
 30
0.0
 40
0.0
 41
0.0
  0
VERTEX
  5
   3F3
  8
0
  6
CONTINUOUS
 10
-579.622399145326
 20
62.689574793979
 30
0.0
 40
0.0
 41
0.0
  0
VERTEX
  5
   3F4
  8
0
  6
CONTINUOUS
 10
-579.599889933264
 20
62.632787236605
 30
0.0
 40
0.0
 41
0.0
  0
VERTEX
  5
   3F5
  8
0
  6
CONTINUOUS
 10
-579.579550653075
 20
62.5754479957477
 30
0.0
 40
0.0
 41
0.0
  0
VERTEX
  5
   3F6
  8
0
  6
CONTINUOUS
 10
-579.561491320355
 20
62.5174027333046
 30
0.0
 40
0.0
 41
0.0
  0
VERTEX
  5
   3F7
  8
0
  6
CONTINUOUS
 10
-579.545786561625
 20
62.458536119675
 30
0.0
 40
0.0
 41
0.0
  0
VERTEX
  5
   3F8
  8
0
  6
CONTINUOUS
 10
-579.532500483867
 20
62.3987870408283
 30
0.0
 40
0.0
 41
0.0
  0
VERTEX
  5
   3F9
  8
0
  6
CONTINUOUS
 10
-579.521711544052
 20
62.3381638053703
 30
0.0
 40
0.0
 41
0.0
  0
VERTEX
  5
   3FA
  8
0
  6
CONTINUOUS
 10
-579.51356968877
 20
62.2770544211557
 30
0.0
 40
0.0
 41
0.0
  0
VERTEX
  5
   3FB
  8
0
  6
CONTINUOUS
 10
-579.508185967569
 20
62.2153521919251
 30
0.0
 40
0.0
 41
0.0
  0
VERTEX
  5
   3FC
  8
0
  6
CONTINUOUS
 10
-579.505773339703
 20
62.1533158779311
 30
0.0
 40
0.0
 41
0.0
  0
VERTEX
  5
   3FD
  8
0
  6
CONTINUOUS
 10
-579.506571153077
 20
62.0912618299855
 30
0.0
 40
0.0
 41
0.0
  0
VERTEX
  5
   3FE
  8
0
  6
CONTINUOUS
 10
-579.510826902872
 20
62.0295438147729
 30
0.0
 40
0.0
 41
0.0
  0
VERTEX
  5
   3FF
  8
0
  6
CONTINUOUS
 10
-579.51877799017
 20
61.9685328401648
 30
0.0
 40
0.0
 41
0.0
  0
VERTEX
  5
   400
  8
0
  6
CONTINUOUS
 10
-579.524206224029
 20
61.9384081825702
 30
0.0
 40
0.0
 41
0.0
  0
VERTEX
  5
   401
  8
0
  6
CONTINUOUS
 10
-579.530633480584
 20
61.9085969805338
 30
0.0
 40
0.0
 41
0.0
  0
VERTEX
  5
   402
  8
0
  6
CONTINUOUS
 10
-579.538078472894
 20
61.8791414750833
 30
0.0
 40
0.0
 41
0.0
  0
VERTEX
  5
   403
  8
0
  6
CONTINUOUS
 10
-579.546555862879
 20
61.8500812020672
 30
0.0
 40
0.0
 41
0.0
  0
VERTEX
  5
   404
  8
0
  6
CONTINUOUS
 10
-579.556075691278
 20
61.8214523616957
 30
0.0
 40
0.0
 41
0.0
  0
VERTEX
  5
   405
  8
0
  6
CONTINUOUS
 10
-579.566642807603
 20
61.7932871880814
 30
0.0
 40
0.0
 41
0.0
  0
VERTEX
  5
   406
  8
0
  6
CONTINUOUS
 10
-579.578256300102
 20
61.7656133187809
 30
0.0
 40
0.0
 41
0.0
  0
VERTEX
  5
   407
  8
0
  6
CONTINUOUS
 10
-579.59090892571
 20
61.7384531643354
 30
0.0
 40
0.0
 41
0.0
  0
VERTEX
  5
   408
  8
0
  6
CONTINUOUS
 10
-579.606026083204
 20
61.7091601630329
 30
0.0
 40
0.0
 41
0.0
  0
VERTEX
  5
   409
  8
0
  6
CONTINUOUS
 10
-579.622356951664
 20
61.6805233540143
 30
0.0
 40
0.0
 41
0.0
  0
VERTEX
  5
   40A
  8
0
  6
CONTINUOUS
 10
-579.639862658548
 20
61.6525472937747
 30
0.0
 40
0.0
 41
0.0
  0
VERTEX
  5
   40B
  8
0
  6
CONTINUOUS
 10
-579.65849540339
 20
61.6252284152872
 30
0.0
 40
0.0
 41
0.0
  0
VERTEX
  5
   40C
  8
0
  6
CONTINUOUS
 10
-579.678199485802
 20
61.5985557352964
 30
0.0
 40
0.0
 41
0.0
  0
VERTEX
  5
   40D
  8
0
  6
CONTINUOUS
 10
-579.69891233347
 20
61.5725115616119
 30
0.0
 40
0.0
 41
0.0
  0
VERTEX
  5
   40E
  8
0
  6
CONTINUOUS
 10
-579.720565530165
 20
61.547072200402
 30
0.0
 40
0.0
 41
0.0
  0
VERTEX
  5
   40F
  8
0
  6
CONTINUOUS
 10
-579.743085843734
 20
61.5222086634876
 30
0.0
 40
0.0
 41
0.0
  0
VERTEX
  5
   410
  8
0
  6
CONTINUOUS
 10
-579.790416981319
 20
61.4740708818531
 30
0.0
 40
0.0
 41
0.0
  0
VERTEX
  5
   411
  8
0
  6
CONTINUOUS
 10
-579.840262634723
 20
61.427787301484
 30
0.0
 40
0.0
 41
0.0
  0
VERTEX
  5
   412
  8
0
  6
CONTINUOUS
 10
-579.891968429865
 20
61.3830075643902
 30
0.0
 40
0.0
 41
0.0
  0
VERTEX
  5
   413
  8
0
  6
CONTINUOUS
 10
-579.944901626144
 20
61.339364503214
 30
0.0
 40
0.0
 41
0.0
  0
VERTEX
  5
   414
  8
0
  6
CONTINUOUS
 10
-580.1377840362
 20
61.1863375264273
 30
0.0
 40
0.0
 41
0.0
  0
VERTEX
  5
   415
  8
0
  6
CONTINUOUS
 10
-580.222034977658
 20
61.1182219359374
 30
0.0
 40
0.0
 41
0.0
  0
VERTEX
  5
   416
  8
0
  6
CONTINUOUS
 10
-580.304861506397
 20
61.0492679592752
 30
0.0
 40
0.0
 41
0.0
  0
VERTEX
  5
   417
  8
0
  6
CONTINUOUS
 10
-580.386536068468
 20
60.9792569642137
 30
0.0
 40
0.0
 41
0.0
  0
VERTEX
  5
   418
  8
0
  6
CONTINUOUS
 10
-580.467409093376
 20
60.9080845844403
 30
0.0
 40
0.0
 41
0.0
  0
VERTEX
  5
   419
  8
0
  6
CONTINUOUS
 10
-580.559357188363
 20
60.8248385093871
 30
0.0
 40
0.0
 41
0.0
  0
VERTEX
  5
   41A
  8
0
  6
CONTINUOUS
 10
-580.649930621285
 20
60.7396160497975
 30
0.0
 40
0.0
 41
0.0
  0
VERTEX
  5
   41B
  8
0
  6
CONTINUOUS
 10
-580.73825295933
 20
60.6520904196507
 30
0.0
 40
0.0
 41
0.0
  0
VERTEX
  5
   41C
  8
0
  6
CONTINUOUS
 10
-580.781309173767
 20
60.6074009651548
 30
0.0
 40
0.0
 41
0.0
  0
VERTEX
  5
   41D
  8
0
  6
CONTINUOUS
 10
-580.82354772457
 20
60.5620977999928
 30
0.0
 40
0.0
 41
0.0
  0
VERTEX
  5
   41E
  8
0
  6
CONTINUOUS
 10
-580.90565917721
 20
60.4698345006071
 30
0.0
 40
0.0
 41
0.0
  0
VERTEX
  5
   41F
  8
0
  6
CONTINUOUS
 10
-581.040229516581
 20
60.3114227256865
 30
0.0
 40
0.0
 41
0.0
  0
VERTEX
  5
   420
  8
0
  6
CONTINUOUS
 10
-581.108512538014
 20
60.2325267977277
 30
0.0
 40
0.0
 41
0.0
  0
VERTEX
  5
   421
  8
0
  6
CONTINUOUS
 10
-581.178994580176
 20
60.1546457316396
 30
0.0
 40
0.0
 41
0.0
  0
VERTEX
  5
   422
  8
0
  6
CONTINUOUS
 10
-581.298254886653
 20
60.0289046594692
 30
0.0
 40
0.0
 41
0.0
  0
VERTEX
  5
   423
  8
0
  6
CONTINUOUS
 10
-581.344226044701
 20
59.9796261926776
 30
0.0
 40
0.0
 41
0.0
  0
VERTEX
  5
   424
  8
0
  6
CONTINUOUS
 10
-581.388475474463
 20
59.9292880478508
 30
0.0
 40
0.0
 41
0.0
  0
VERTEX
  5
   425
  8
0
  6
CONTINUOUS
 10
-581.429851887537
 20
59.8772692014964
 30
0.0
 40
0.0
 41
0.0
  0
VERTEX
  5
   426
  8
0
  6
CONTINUOUS
 10
-581.449123426338
 20
59.8504494030855
 30
0.0
 40
0.0
 41
0.0
  0
VERTEX
  5
   427
  8
0
  6
CONTINUOUS
 10
-581.467294728162
 20
59.8230085100653
 30
0.0
 40
0.0
 41
0.0
  0
SEQEND
  5
   428
  8
0
  6
CONTINUOUS
 62
     3
  0
POLYLINE
  5
   429
  8
0
  6
CONTINUOUS
 62
     3
 66
     1
 10
0.0
 20
0.0
 30
0.0
  0
VERTEX
  5
   42A
  8
0
  6
CONTINUOUS
 10
-584.572145141696
 20
57.5882656734898
 30
0.0
 40
0.0
 41
0.0
  0
VERTEX
  5
   42B
  8
0
  6
CONTINUOUS
 10
-584.590077941355
 20
57.5565285434848
 30
0.0
 40
0.0
 41
0.0
  0
VERTEX
  5
   42C
  8
0
  6
CONTINUOUS
 10
-584.605963270128
 20
57.5258482898318
 30
0.0
 40
0.0
 41
0.0
  0
VERTEX
  5
   42D
  8
0
  6
CONTINUOUS
 10
-584.620817893543
 20
57.4945908678099
 30
0.0
 40
0.0
 41
0.0
  0
VERTEX
  5
   42E
  8
0
  6
CONTINUOUS
 10
-584.634701104764
 20
57.4627854156963
 30
0.0
 40
0.0
 41
0.0
  0
VERTEX
  5
   42F
  8
0
  6
CONTINUOUS
 10
-584.65986460287
 20
57.3976798190088
 30
0.0
 40
0.0
 41
0.0
  0
VERTEX
  5
   430
  8
0
  6
CONTINUOUS
 10
-584.682190098566
 20
57.3308819214743
 30
0.0
 40
0.0
 41
0.0
  0
VERTEX
  5
   431
  8
0
  6
CONTINUOUS
 10
-584.702540550099
 20
57.2628022451832
 30
0.0
 40
0.0
 41
0.0
  0
VERTEX
  5
   432
  8
0
  6
CONTINUOUS
 10
-584.76061124596
 20
57.0552042303989
 30
0.0
 40
0.0
 41
0.0
  0
VERTEX
  5
   433
  8
0
  6
CONTINUOUS
 10
-584.781458022265
 20
56.9861796009288
 30
0.0
 40
0.0
 41
0.0
  0
VERTEX
  5
   434
  8
0
  6
CONTINUOUS
 10
-584.803778343938
 20
56.9177022421678
 30
0.0
 40
0.0
 41
0.0
  0
VERTEX
  5
   435
  8
0
  6
CONTINUOUS
 10
-584.838377141425
 20
56.8201501656
 30
0.0
 40
0.0
 41
0.0
  0
VERTEX
  5
   436
  8
0
  6
CONTINUOUS
 10
-584.909490955728
 20
56.6276113191488
 30
0.0
 40
0.0
 41
0.0
  0
VERTEX
  5
   437
  8
0
  6
CONTINUOUS
 10
-584.925707367318
 20
56.5794607862513
 30
0.0
 40
0.0
 41
0.0
  0
VERTEX
  5
   438
  8
0
  6
CONTINUOUS
 10
-584.940590731749
 20
56.5310880373651
 30
0.0
 40
0.0
 41
0.0
  0
VERTEX
  5
   439
  8
0
  6
CONTINUOUS
 10
-584.953843847863
 20
56.482398989437
 30
0.0
 40
0.0
 41
0.0
  0
VERTEX
  5
   43A
  8
0
  6
CONTINUOUS
 10
-584.96523890114
 20
56.4333205705626
 30
0.0
 40
0.0
 41
0.0
  0
VERTEX
  5
   43B
  8
0
  6
CONTINUOUS
 10
-584.974990073602
 20
56.38172256618
 30
0.0
 40
0.0
 41
0.0
  0
VERTEX
  5
   43C
  8
0
  6
CONTINUOUS
 10
-584.982546365926
 20
56.3296437739167
 30
0.0
 40
0.0
 41
0.0
  0
VERTEX
  5
   43D
  8
0
  6
CONTINUOUS
 10
-584.98799105439
 20
56.2771097568847
 30
0.0
 40
0.0
 41
0.0
  0
VERTEX
  5
   43E
  8
0
  6
CONTINUOUS
 10
-584.991501099526
 20
56.2241746048748
 30
0.0
 40
0.0
 41
0.0
  0
VERTEX
  5
   43F
  8
0
  6
CONTINUOUS
 10
-584.993325943053
 20
56.1709131727018
 30
0.0
 40
0.0
 41
0.0
  0
VERTEX
  5
   440
  8
0
  6
CONTINUOUS
 10
-584.993766304829
 20
56.1174133185512
 30
0.0
 40
0.0
 41
0.0
  0
VERTEX
  5
   441
  8
0
  6
CONTINUOUS
 10
-584.991825634878
 20
56.0100682239819
 30
0.0
 40
0.0
 41
0.0
  0
VERTEX
  5
   442
  8
0
  6
CONTINUOUS
 10
-584.985731951924
 20
55.8148445373342
 30
0.0
 40
0.0
 41
0.0
  0
VERTEX
  5
   443
  8
0
  6
CONTINUOUS
 10
-584.984213962855
 20
55.7272034515281
 30
0.0
 40
0.0
 41
0.0
  0
VERTEX
  5
   444
  8
0
  6
CONTINUOUS
 10
-584.984061757735
 20
55.6397336426816
 30
0.0
 40
0.0
 41
0.0
  0
VERTEX
  5
   445
  8
0
  6
CONTINUOUS
 10
-584.985391225032
 20
55.5522351771918
 30
0.0
 40
0.0
 41
0.0
  0
VERTEX
  5
   446
  8
0
  6
CONTINUOUS
 10
-584.988304695026
 20
55.4645572273519
 30
0.0
 40
0.0
 41
0.0
  0
VERTEX
  5
   447
  8
0
  6
CONTINUOUS
 10
-584.994838205656
 20
55.3516210411373
 30
0.0
 40
0.0
 41
0.0
  0
VERTEX
  5
   448
  8
0
  6
CONTINUOUS
 10
-584.999618681306
 20
55.2951766381975
 30
0.0
 40
0.0
 41
0.0
  0
VERTEX
  5
   449
  8
0
  6
CONTINUOUS
 10
-585.005674980156
 20
55.2388771649675
 30
0.0
 40
0.0
 41
0.0
  0
VERTEX
  5
   44A
  8
0
  6
CONTINUOUS
 10
-585.013230422969
 20
55.182842706778
 30
0.0
 40
0.0
 41
0.0
  0
VERTEX
  5
   44B
  8
0
  6
CONTINUOUS
 10
-585.022509420958
 20
55.1272018939571
 30
0.0
 40
0.0
 41
0.0
  0
VERTEX
  5
   44C
  8
0
  6
CONTINUOUS
 10
-585.033722842142
 20
55.0720835339061
 30
0.0
 40
0.0
 41
0.0
  0
VERTEX
  5
   44D
  8
0
  6
CONTINUOUS
 10
-585.0470533777
 20
55.0176082431762
 30
0.0
 40
0.0
 41
0.0
  0
VERTEX
  5
   44E
  8
0
  6
CONTINUOUS
 10
-585.062640908323
 20
54.9638800795442
 30
0.0
 40
0.0
 41
0.0
  0
VERTEX
  5
   44F
  8
0
  6
CONTINUOUS
 10
-585.08056787057
 20
54.9109781740888
 30
0.0
 40
0.0
 41
0.0
  0
VERTEX
  5
   450
  8
0
  6
CONTINUOUS
 10
-585.097560863893
 20
54.8669283983647
 30
0.0
 40
0.0
 41
0.0
  0
VERTEX
  5
   451
  8
0
  6
CONTINUOUS
 10
-585.116197189565
 20
54.823509517132
 30
0.0
 40
0.0
 41
0.0
  0
VERTEX
  5
   452
  8
0
  6
CONTINUOUS
 10
-585.136402050811
 20
54.780710930469
 30
0.0
 40
0.0
 41
0.0
  0
VERTEX
  5
   453
  8
0
  6
CONTINUOUS
 10
-585.158071394116
 20
54.7385086821347
 30
0.0
 40
0.0
 41
0.0
  0
VERTEX
  5
   454
  8
0
  6
CONTINUOUS
 10
-585.1810794393
 20
54.6968694279526
 30
0.0
 40
0.0
 41
0.0
  0
VERTEX
  5
   455
  8
0
  6
CONTINUOUS
 10
-585.205286209588
 20
54.6557544041957
 30
0.0
 40
0.0
 41
0.0
  0
VERTEX
  5
   456
  8
0
  6
CONTINUOUS
 10
-585.230545061681
 20
54.6151233959709
 30
0.0
 40
0.0
 41
0.0
  0
VERTEX
  5
   457
  8
0
  6
CONTINUOUS
 10
-585.256710215827
 20
54.5749387056035
 30
0.0
 40
0.0
 41
0.0
  0
VERTEX
  5
   458
  8
0
  6
CONTINUOUS
 10
-585.31122580943
 20
54.4957938841414
 30
0.0
 40
0.0
 41
0.0
  0
VERTEX
  5
   459
  8
0
  6
CONTINUOUS
 10
-585.367900873957
 20
54.4183044525401
 30
0.0
 40
0.0
 41
0.0
  0
VERTEX
  5
   45A
  8
0
  6
CONTINUOUS
 10
-585.42632881085
 20
54.3424961086857
 30
0.0
 40
0.0
 41
0.0
  0
VERTEX
  5
   45B
  8
0
  6
CONTINUOUS
 10
-585.486354111444
 20
54.268587814302
 30
0.0
 40
0.0
 41
0.0
  0
VERTEX
  5
   45C
  8
0
  6
CONTINUOUS
 10
-585.54795819476
 20
54.1967149705482
 30
0.0
 40
0.0
 41
0.0
  0
VERTEX
  5
   45D
  8
0
  6
CONTINUOUS
 10
-585.611081129947
 20
54.1267411819657
 30
0.0
 40
0.0
 41
0.0
  0
VERTEX
  5
   45E
  8
0
  6
CONTINUOUS
 10
-585.791194774055
 20
53.9357995592081
 30
0.0
 40
0.0
 41
0.0
  0
VERTEX
  5
   45F
  8
0
  6
CONTINUOUS
 10
-585.851232180788
 20
53.8704841928979
 30
0.0
 40
0.0
 41
0.0
  0
VERTEX
  5
   460
  8
0
  6
CONTINUOUS
 10
-585.966585940699
 20
53.7414605039324
 30
0.0
 40
0.0
 41
0.0
  0
VERTEX
  5
   461
  8
0
  6
CONTINUOUS
 10
-586.02325378635
 20
53.6804625184989
 30
0.0
 40
0.0
 41
0.0
  0
VERTEX
  5
   462
  8
0
  6
CONTINUOUS
 10
-586.052331228637
 20
53.6511546103056
 30
0.0
 40
0.0
 41
0.0
  0
VERTEX
  5
   463
  8
0
  6
CONTINUOUS
 10
-586.082108401331
 20
53.6230223332965
 30
0.0
 40
0.0
 41
0.0
  0
VERTEX
  5
   464
  8
0
  6
CONTINUOUS
 10
-586.112729864325
 20
53.5963347448258
 30
0.0
 40
0.0
 41
0.0
  0
VERTEX
  5
   465
  8
0
  6
CONTINUOUS
 10
-586.144322790721
 20
53.5713274703302
 30
0.0
 40
0.0
 41
0.0
  0
VERTEX
  5
   466
  8
0
  6
CONTINUOUS
 10
-586.176988129966
 20
53.5481862592469
 30
0.0
 40
0.0
 41
0.0
  0
VERTEX
  5
   467
  8
0
  6
CONTINUOUS
 10
-586.210791770982
 20
53.5270305409306
 30
0.0
 40
0.0
 41
0.0
  0
VERTEX
  5
   468
  8
0
  6
CONTINUOUS
 10
-586.254645281654
 20
53.5034405768446
 30
0.0
 40
0.0
 41
0.0
  0
VERTEX
  5
   469
  8
0
  6
CONTINUOUS
 10
-586.300242459756
 20
53.4828712609973
 30
0.0
 40
0.0
 41
0.0
  0
VERTEX
  5
   46A
  8
0
  6
CONTINUOUS
 10
-586.347413807944
 20
53.4649959571766
 30
0.0
 40
0.0
 41
0.0
  0
VERTEX
  5
   46B
  8
0
  6
CONTINUOUS
 10
-586.395905137877
 20
53.4493311004751
 30
0.0
 40
0.0
 41
0.0
  0
VERTEX
  5
   46C
  8
0
  6
CONTINUOUS
 10
-586.445399420693
 20
53.4352785039737
 30
0.0
 40
0.0
 41
0.0
  0
VERTEX
  5
   46D
  8
0
  6
CONTINUOUS
 10
-586.596245950223
 20
53.3959815166803
 30
0.0
 40
0.0
 41
0.0
  0
VERTEX
  5
   46E
  8
0
  6
CONTINUOUS
 10
-586.646089712536
 20
53.3815843855124
 30
0.0
 40
0.0
 41
0.0
  0
VERTEX
  5
   46F
  8
0
  6
CONTINUOUS
 10
-586.695173442588
 20
53.3655699837288
 30
0.0
 40
0.0
 41
0.0
  0
VERTEX
  5
   470
  8
0
  6
CONTINUOUS
 10
-586.741167855723
 20
53.3483802544766
 30
0.0
 40
0.0
 41
0.0
  0
VERTEX
  5
   471
  8
0
  6
CONTINUOUS
 10
-586.786116872281
 20
53.329141969934
 30
0.0
 40
0.0
 41
0.0
  0
VERTEX
  5
   472
  8
0
  6
CONTINUOUS
 10
-586.829952505538
 20
53.3077817612508
 30
0.0
 40
0.0
 41
0.0
  0
VERTEX
  5
   473
  8
0
  6
CONTINUOUS
 10
-586.872666067299
 20
53.2843401443987
 30
0.0
 40
0.0
 41
0.0
  0
VERTEX
  5
   474
  8
0
  6
CONTINUOUS
 10
-586.914300186626
 20
53.2589526590495
 30
0.0
 40
0.0
 41
0.0
  0
VERTEX
  5
   475
  8
0
  6
CONTINUOUS
 10
-586.954940828577
 20
53.2318310074528
 30
0.0
 40
0.0
 41
0.0
  0
VERTEX
  5
   476
  8
0
  6
CONTINUOUS
 10
-586.994709312934
 20
53.2032441933145
 30
0.0
 40
0.0
 41
0.0
  0
VERTEX
  5
   477
  8
0
  6
CONTINUOUS
 10
-587.033754332936
 20
53.173499660674
 30
0.0
 40
0.0
 41
0.0
  0
VERTEX
  5
   478
  8
0
  6
CONTINUOUS
 10
-587.110357732535
 20
53.1118462509833
 30
0.0
 40
0.0
 41
0.0
  0
VERTEX
  5
   479
  8
0
  6
CONTINUOUS
 10
-587.227813685816
 20
53.0156569925586
 30
0.0
 40
0.0
 41
0.0
  0
VERTEX
  5
   47A
  8
0
  6
CONTINUOUS
 10
-587.287380885214
 20
52.9690641161262
 30
0.0
 40
0.0
 41
0.0
  0
VERTEX
  5
   47B
  8
0
  6
CONTINUOUS
 10
-587.348110692958
 20
52.9241861421347
 30
0.0
 40
0.0
 41
0.0
  0
VERTEX
  5
   47C
  8
0
  6
CONTINUOUS
 10
-587.410213053053
 20
52.8811883121237
 30
0.0
 40
0.0
 41
0.0
  0
VERTEX
  5
   47D
  8
0
  6
CONTINUOUS
 10
-587.458921641578
 20
52.8492834755095
 30
0.0
 40
0.0
 41
0.0
  0
VERTEX
  5
   47E
  8
0
  6
CONTINUOUS
 10
-587.508273936848
 20
52.8181904351714
 30
0.0
 40
0.0
 41
0.0
  0
VERTEX
  5
   47F
  8
0
  6
CONTINUOUS
 10
-587.607942569324
 20
52.7571656825016
 30
0.0
 40
0.0
 41
0.0
  0
VERTEX
  5
   480
  8
0
  6
CONTINUOUS
 10
-587.706902831749
 20
52.6951741477073
 30
0.0
 40
0.0
 41
0.0
  0
VERTEX
  5
   481
  8
0
  6
CONTINUOUS
 10
-587.755380160693
 20
52.6629032759896
 30
0.0
 40
0.0
 41
0.0
  0
VERTEX
  5
   482
  8
0
  6
CONTINUOUS
 10
-587.802883389342
 20
52.629406681826
 30
0.0
 40
0.0
 41
0.0
  0
VERTEX
  5
   483
  8
0
  6
CONTINUOUS
 10
-587.849289330379
 20
52.5945312180093
 30
0.0
 40
0.0
 41
0.0
  0
VERTEX
  5
   484
  8
0
  6
CONTINUOUS
 10
-587.894594724658
 20
52.55826719772
 30
0.0
 40
0.0
 41
0.0
  0
VERTEX
  5
   485
  8
0
  6
CONTINUOUS
 10
-587.954241138084
 20
52.5074789070711
 30
0.0
 40
0.0
 41
0.0
  0
VERTEX
  5
   486
  8
0
  6
CONTINUOUS
 10
-588.071846818327
 20
52.4033736968611
 30
0.0
 40
0.0
 41
0.0
  0
VERTEX
  5
   487
  8
0
  6
CONTINUOUS
 10
-588.132044045274
 20
52.3527158571185
 30
0.0
 40
0.0
 41
0.0
  0
VERTEX
  5
   488
  8
0
  6
CONTINUOUS
 10
-588.194450045176
 20
52.3045434649743
 30
0.0
 40
0.0
 41
0.0
  0
VERTEX
  5
   489
  8
0
  6
CONTINUOUS
 10
-588.245167959212
 20
52.2689054950842
 30
0.0
 40
0.0
 41
0.0
  0
VERTEX
  5
   48A
  8
0
  6
CONTINUOUS
 10
-588.297387299331
 20
52.2350568332709
 30
0.0
 40
0.0
 41
0.0
  0
VERTEX
  5
   48B
  8
0
  6
CONTINUOUS
 10
-588.350758561371
 20
52.2026466912131
 30
0.0
 40
0.0
 41
0.0
  0
VERTEX
  5
   48C
  8
0
  6
CONTINUOUS
 10
-588.458678011014
 20
52.1397525650115
 30
0.0
 40
0.0
 41
0.0
  0
VERTEX
  5
   48D
  8
0
  6
CONTINUOUS
 10
-588.511812641597
 20
52.1077720553656
 30
0.0
 40
0.0
 41
0.0
  0
VERTEX
  5
   48E
  8
0
  6
CONTINUOUS
 10
-588.563382929967
 20
52.0743645472759
 30
0.0
 40
0.0
 41
0.0
  0
VERTEX
  5
   48F
  8
0
  6
CONTINUOUS
 10
-588.612657372985
 20
52.0387669019769
 30
0.0
 40
0.0
 41
0.0
  0
VERTEX
  5
   490
  8
0
  6
CONTINUOUS
 10
-588.636228117441
 20
52.0199363113593
 30
0.0
 40
0.0
 41
0.0
  0
VERTEX
  5
   491
  8
0
  6
CONTINUOUS
 10
-588.658994342572
 20
52.0003248098218
 30
0.0
 40
0.0
 41
0.0
  0
VERTEX
  5
   492
  8
0
  6
CONTINUOUS
 10
-588.680898981002
 20
51.9798780748838
 30
0.0
 40
0.0
 41
0.0
  0
VERTEX
  5
   493
  8
0
  6
CONTINUOUS
 10
-588.701897510667
 20
51.9585565566848
 30
0.0
 40
0.0
 41
0.0
  0
VERTEX
  5
   494
  8
0
  6
CONTINUOUS
 10
-588.726181086022
 20
51.9314044040475
 30
0.0
 40
0.0
 41
0.0
  0
VERTEX
  5
   495
  8
0
  6
CONTINUOUS
 10
-588.749055162361
 20
51.9029189009923
 30
0.0
 40
0.0
 41
0.0
  0
VERTEX
  5
   496
  8
0
  6
CONTINUOUS
 10
-588.770525954962
 20
51.8731299329645
 30
0.0
 40
0.0
 41
0.0
  0
VERTEX
  5
   497
  8
0
  6
CONTINUOUS
 10
-588.790625846249
 20
51.8420977238866
 30
0.0
 40
0.0
 41
0.0
  0
VERTEX
  5
   498
  8
0
  6
CONTINUOUS
 10
-588.809408929917
 20
51.8099074545989
 30
0.0
 40
0.0
 41
0.0
  0
VERTEX
  5
   499
  8
0
  6
CONTINUOUS
 10
-588.826946555052
 20
51.776663881301
 30
0.0
 40
0.0
 41
0.0
  0
VERTEX
  5
   49A
  8
0
  6
CONTINUOUS
 10
-588.843322870259
 20
51.7424859539931
 30
0.0
 40
0.0
 41
0.0
  0
VERTEX
  5
   49B
  8
0
  6
CONTINUOUS
 10
-588.858630367786
 20
51.7075014349169
 30
0.0
 40
0.0
 41
0.0
  0
VERTEX
  5
   49C
  8
0
  6
CONTINUOUS
 10
-588.872965427649
 20
51.671841516997
 30
0.0
 40
0.0
 41
0.0
  0
VERTEX
  5
   49D
  8
0
  6
CONTINUOUS
 10
-588.886423861755
 20
51.6356354422815
 30
0.0
 40
0.0
 41
0.0
  0
VERTEX
  5
   49E
  8
0
  6
CONTINUOUS
 10
-588.909181809398
 20
51.5680304440661
 30
0.0
 40
0.0
 41
0.0
  0
VERTEX
  5
   49F
  8
0
  6
CONTINUOUS
 10
-588.929766581701
 20
51.4996401601639
 30
0.0
 40
0.0
 41
0.0
  0
VERTEX
  5
   4A0
  8
0
  6
CONTINUOUS
 10
-588.94857112235
 20
51.4309915903377
 30
0.0
 40
0.0
 41
0.0
  0
VERTEX
  5
   4A1
  8
0
  6
CONTINUOUS
 10
-588.965901656425
 20
51.3624954309545
 30
0.0
 40
0.0
 41
0.0
  0
VERTEX
  5
   4A2
  8
0
  6
CONTINUOUS
 10
-588.996997051093
 20
51.2271088395517
 30
0.0
 40
0.0
 41
0.0
  0
VERTEX
  5
   4A3
  8
0
  6
CONTINUOUS
 10
-589.024180107593
 20
51.094992330103
 30
0.0
 40
0.0
 41
0.0
  0
VERTEX
  5
   4A4
  8
0
  6
CONTINUOUS
 10
-589.047884418957
 20
50.9667274195882
 30
0.0
 40
0.0
 41
0.0
  0
SEQEND
  5
   4A5
  8
0
  6
CONTINUOUS
 62
     3
  0
LINE
  5
   4A6
  8
0
  6
CONTINUOUS
 62
     3
 10
-584.572146725492
 20
51.6981163024902
 30
0.0
 11
-588.862604149501
 21
51.6981163024902
 31
0.0
  0
LINE
  5
   4A7
  8
0
  6
CONTINUOUS
 62
     3
 10
-584.572146725492
 20
51.0731163024902
 30
0.0
 11
-599.072167017159
 21
51.0731163024902
 31
0.0
  0
LINE
  5
   4A8
  8
0
  6
DASHDOT
 62
     7
 10
-546.572153958068
 20
-17.8018849851908
 30
0.0
 11
-546.572153958068
 21
-10.3019056462413
 31
0.0
  0
LINE
  5
   4A9
  8
0
  6
DASHDOT
 62
     7
 10
-542.822164288593
 20
-14.0518953157161
 30
0.0
 11
-550.322143627543
 21
-14.0518953157161
 31
0.0
  0
CIRCLE
  5
   4AA
  8
0
  6
CONTINUOUS
 62
     7
 10
-527.611579218524
 20
57.2431691344243
 30
0.0
 40
0.1
  0
INSERT
  5
   4AB
  8
0
  6
CONTINUOUS
 62
     7
  2
*UDIM1668
 10
0.0
 20
0.0
 30
0.0
  0
TEXT
  5
   4AC
  8
0
  6
CONTINUOUS
 62
     7
 10
-556.492208813289
 20
110.571412721912
 30
0.0
 40
3.00000002980232
  1
Y
 50
359.999999948034
 41
0.916666604744064
 72
     2
 11
-554.292208944419
 21
110.571412719928
 31
0.0
  0
INSERT
  5
   4AD
  8
0
  6
CONTINUOUS
 62
     7
  2
*UDIM1669
 10
0.0
 20
0.0
 30
0.0
  0
INSERT
  5
   4AE
  8
0
  6
CONTINUOUS
 62
     7
  2
*UDIM1670
 10
0.0
 20
0.0
 30
0.0
  0
INSERT
  5
   4AF
  8
0
  6
CONTINUOUS
 62
     7
  2
*UDIM1671
 10
0.0
 20
0.0
 30
0.0
  0
INSERT
  5
   4B0
  8
0
  6
CONTINUOUS
 62
     7
  2
*UDIM1672
 10
0.0
 20
0.0
 30
0.0
  0
INSERT
  5
   4B1
  8
0
  6
CONTINUOUS
 62
     7
  2
*UDIM1673
 10
0.0
 20
0.0
 30
0.0
  0
INSERT
  5
   4B2
  8
0
  6
CONTINUOUS
 62
     7
  2
*UDIM1674
 10
0.0
 20
0.0
 30
0.0
  0
TEXT
  5
   4B3
  8
0
  6
CONTINUOUS
 62
     7
 10
-497.50424950854
 20
18.4718742563329
 30
0.0
 40
3.00000002980232
  1
X
 50
359.999999948034
 41
0.916666604744064
 72
     2
 11
-495.30424963967
 21
18.4718742543486
 31
0.0
  0
INSERT
  5
   4B4
  8
0
  6
CONTINUOUS
 62
     5
  2
*UDIM1675
 10
0.0
 20
0.0
 30
0.0
  0
TEXT
  5
   4B5
  8
0
  6
CONTINUOUS
 62
     7
 10
-573.169324796259
 20
-48.8982040555742
 30
0.0
 40
3.00000002980232
  1
=          =
 50
359.999999948034
 41
0.916666604744064
 72
     2
 11
-540.719326670329
 21
-48.8982040848423
 31
0.0
  0
INSERT
  5
   4B6
  8
0
  6
CONTINUOUS
 62
     7
  2
*UDIM1676
 10
0.0
 20
0.0
 30
0.0
  0
INSERT
  5
   4B7
  8
0
  6
CONTINUOUS
 62
     7
  2
*UDIM1677
 10
0.0
 20
0.0
 30
0.0
  0
INSERT
  5
   4B8
  8
0
  6
CONTINUOUS
 62
     7
  2
*UDIM1678
 10
0.0
 20
0.0
 30
0.0
  0
INSERT
  5
   4B9
  8
0
  6
CONTINUOUS
 62
     7
  2
*UDIM1679
 10
0.0
 20
0.0
 30
0.0
  0
INSERT
  5
   4BA
  8
0
  6
CONTINUOUS
 62
     7
  2
*UDIM1680
 10
0.0
 20
0.0
 30
0.0
  0
INSERT
  5
   4BB
  8
0
  6
CONTINUOUS
 62
     7
  2
*UDIM1681
 10
0.0
 20
0.0
 30
0.0
  0
INSERT
  5
   4BC
  8
0
  6
CONTINUOUS
 62
     7
  2
*UDIM1682
 10
0.0
 20
0.0
 30
0.0
  0
TEXT
  5
   4BD
  8
0
  6
CONTINUOUS
 62
     7
 10
-630.852159817385
 20
18.9634147934033
 30
0.0
 40
3.00000002980232
  1
X
 50
359.999999948034
 41
0.916666604744064
 72
     2
 11
-628.652159948515
 21
18.963414791419
 31
0.0
  0
LINE
  5
   4BE
  8
0
  6
CONTINUOUS
 62
     7
 10
-311.819000244141
 20
83.6348266601563
 30
0.0
 11
-311.819000244141
 21
55.6348266601563
 31
0.0
  0
LINE
  5
   4BF
  8
0
  6
CONTINUOUS
 62
     7
 10
-283.819000244141
 20
83.6348266601563
 30
0.0
 11
-283.819000244141
 21
55.6348266601563
 31
0.0
  0
LINE
  5
   4C0
  8
0
  6
DASHDOT
 62
     7
 10
-318.798516483659
 20
69.6348266601563
 30
0.0
 11
-265.407530883592
 21
69.6348266601563
 31
0.0
  0
LINE
  5
   4C1
  8
0
  6
DASHDOT
 62
     7
 10
-297.819000244141
 20
101.54379432891
 30
0.0
 11
-297.819000244141
 21
44.7005735484129
 31
0.0
  0
LINE
  5
   4C2
  8
0
  6
CONTINUOUS
 62
     3
 10
-315.783495913555
 20
89.1721269574475
 30
0.0
 11
-279.98012664357
 21
89.1721269574475
 31
0.0
  0
LINE
  5
   4C3
  8
0
  6
CONTINUOUS
 62
     3
 10
-315.783495913555
 20
47.9668458326923
 30
0.0
 11
-279.98012664357
 21
47.9668458326923
 31
0.0
  0
LINE
  5
   4C4
  8
0
  6
CONTINUOUS
 62
     3
 10
-279.98012664357
 20
89.1721269574475
 30
0.0
 11
-279.98012664357
 21
47.9668458326923
 31
0.0
  0
LINE
  5
   4C5
  8
0
  6
CONTINUOUS
 62
     3
 10
-315.783495913555
 20
89.1721269574475
 30
0.0
 11
-315.783495913555
 21
47.9668458326923
 31
0.0
  0
LINE
  5
   4C6
  8
0
  6
DASHDOT
 62
     7
 10
-287.819000244141
 20
88.4473266601563
 30
0.0
 11
-287.819000244141
 21
85.1973266601563
 31
0.0
  0
LINE
  5
   4C7
  8
0
  6
DASHDOT
 62
     7
 10
-307.819000244141
 20
88.4473266601563
 30
0.0
 11
-307.819000244141
 21
85.1973266601563
 31
0.0
  0
CIRCLE
  5
   4C8
  8
0
  6
CONTINUOUS
 62
     7
 10
-314.150363433608
 20
87.8505759063539
 30
0.0
 40
0.0625
  0
LINE
  5
   4C9
  8
0
  6
CONTINUOUS
 62
     5
 10
-311.819000244141
 20
83.6348266601563
 30
0.0
 11
-283.819000244141
 21
83.6348266601563
 31
0.0
  0
LINE
  5
   4CA
  8
0
  6
CONTINUOUS
 62
     5
 10
-311.819000244141
 20
55.6348266601563
 30
0.0
 11
-283.819000244141
 21
55.6348266601563
 31
0.0
  0
CIRCLE
  5
   4CB
  8
0
  6
CONTINUOUS
 62
     5
 10
-287.819000244141
 20
87.3848266601563
 30
0.0
 40
0.875
  0
CIRCLE
  5
   4CC
  8
0
  6
CONTINUOUS
 62
     5
 10
-307.819000244141
 20
87.3848266601563
 30
0.0
 40
0.875
  0
CIRCLE
  5
   4CD
  8
0
  6
CONTINUOUS
 62
     5
 10
-287.819000244141
 20
51.8848266601563
 30
0.0
 40
0.875
  0
CIRCLE
  5
   4CE
  8
0
  6
CONTINUOUS
 62
     5
 10
-307.819000244141
 20
51.8848266601563
 30
0.0
 40
0.875
  0
LINE
  5
   4CF
  8
0
  6
DASHDOT
 62
     5
 10
-287.819000244141
 20
89.5098266601562
 30
0.0
 11
-287.819000244141
 21
85.2598266601563
 31
0.0
  0
LINE
  5
   4D0
  8
0
  6
DASHDOT
 62
     5
 10
-289.944000244141
 20
87.3848266601563
 30
0.0
 11
-285.694000244141
 21
87.3848266601563
 31
0.0
  0
LINE
  5
   4D1
  8
0
  6
DASHDOT
 62
     5
 10
-307.819000244141
 20
89.5098266601562
 30
0.0
 11
-307.819000244141
 21
85.2598266601563
 31
0.0
  0
LINE
  5
   4D2
  8
0
  6
DASHDOT
 62
     5
 10
-309.944000244141
 20
87.3848266601563
 30
0.0
 11
-305.694000244141
 21
87.3848266601563
 31
0.0
  0
LINE
  5
   4D3
  8
0
  6
DASHDOT
 62
     5
 10
-307.819000244141
 20
54.0098266601563
 30
0.0
 11
-307.819000244141
 21
49.7598266601563
 31
0.0
  0
LINE
  5
   4D4
  8
0
  6
DASHDOT
 62
     5
 10
-309.944000244141
 20
51.8848266601563
 30
0.0
 11
-305.694000244141
 21
51.8848266601563
 31
0.0
  0
LINE
  5
   4D5
  8
0
  6
DASHDOT
 62
     5
 10
-287.819000244141
 20
54.0098266601563
 30
0.0
 11
-287.819000244141
 21
49.7598266601563
 31
0.0
  0
LINE
  5
   4D6
  8
0
  6
DASHDOT
 62
     5
 10
-289.944000244141
 20
51.8848266601563
 30
0.0
 11
-285.694000244141
 21
51.8848266601563
 31
0.0
  0
INSERT
  5
   4D7
  8
0
  6
CONTINUOUS
 62
     7
  2
*UDIM1683
 10
0.0
 20
0.0
 30
0.0
  0
TEXT
  5
   4D8
  8
0
  6
CONTINUOUS
 62
     5
 10
-317.596882881261
 20
58.3728518331101
 30
0.0
 40
3.00000002980232
  1
=      =
 50
449.999999844103
 41
0.916666604744064
 72
     2
 11
-317.596882823032
 21
79.8228505928368
 31
0.0
  0
TEXT
  5
   4D9
  8
0
  6
CONTINUOUS
 62
     5
 10
-325.30910593424
 20
58.3728518331101
 30
0.0
 40
3.00000002980232
  1
=      =
 50
449.999999844103
 41
0.916666604744064
 72
     2
 11
-325.309105876011
 21
79.8228505928368
 31
0.0
  0
INSERT
  5
   4DA
  8
0
  6
CONTINUOUS
 62
     7
  2
*UDIM1684
 10
0.0
 20
0.0
 30
0.0
  0
INSERT
  5
   4DB
  8
0
  6
CONTINUOUS
 62
     7
  2
*UDIM1685
 10
0.0
 20
0.0
 30
0.0
  0
INSERT
  5
   4DC
  8
0
  6
CONTINUOUS
 62
     7
  2
*UDIM1686
 10
0.0
 20
0.0
 30
0.0
  0
INSERT
  5
   4DD
  8
0
  6
CONTINUOUS
 62
     7
  2
*UDIM1687
 10
0.0
 20
0.0
 30
0.0
  0
TEXT
  5
   4DE
  8
0
  6
CONTINUOUS
 62
     7
 10
-298.307736526035
 20
28.0526694560102
 30
0.0
 40
3.00000002980232
  1
Y
 50
359.999999844103
 41
0.916666604744064
 72
     2
 11
-296.107736657165
 21
28.0526694500352
 31
0.0
  0
TEXT
  5
   4DF
  8
0
  6
CONTINUOUS
 62
     7
 10
-299.061491618656
 20
110.086353232866
 30
0.0
 40
3.00000002980232
  1
Y
 50
359.999999844103
 41
0.916666604744064
 72
     2
 11
-296.861491749786
 21
110.086353226891
 31
0.0
  0
TEXT
  5
   4E0
  8
0
  6
CONTINUOUS
 62
     7
 10
-256.474326978229
 20
68.3785679841092
 30
0.0
 40
3.00000002980232
  1
X
 50
359.999999844103
 41
0.916666604744064
 72
     2
 11
-254.27432710936
 21
68.3785679781343
 31
0.0
  0
TEXT
  5
   4E1
  8
0
  6
CONTINUOUS
 62
     7
 10
-342.025535474323
 20
68.1273162865689
 30
0.0
 40
3.00000002980232
  1
X
 50
359.999999844103
 41
0.916666604744064
 72
     2
 11
-339.825535605453
 21
68.127316280594
 31
0.0
  0
LINE
  5
   4E2
  8
0
  6
CONTINUOUS
 62
     3
 10
-418.996517038895
 20
-20.4018726348877
 30
0.0
 11
-407.852568626404
 21
-20.4018726348877
 31
0.0
  0
LINE
  5
   4E3
  8
0
  6
CONTINUOUS
 62
     7
 10
-443.852568626404
 20
-21.8018736737854
 30
0.0
 11
-443.852568626404
 21
-1.65476368843385
 31
0.0
  0
LINE
  5
   4E4
  8
0
  6
CONTINUOUS
 62
     7
 10
-443.852568626404
 20
-1.65477752685547
 30
0.0
 11
-443.852568626404
 21
63.1981124765733
 31
0.0
  0
LINE
  5
   4E5
  8
0
  6
DASHDOT
 62
     7
 10
-444.852568626404
 20
-27.2166061992789
 30
0.0
 11
-444.852568626404
 21
68.2122726896239
 31
0.0
  0
LINE
  5
   4E6
  8
0
  6
CONTINUOUS
 62
     7
 10
-444.852568626404
 20
57.862922668457
 30
0.0
 11
-444.852568626404
 21
57.9481048583984
 31
0.0
  0
LINE
  5
   4E7
  8
0
  6
CONTINUOUS
 62
     7
 10
-409.60258007037
 20
31.8231189450663
 30
0.0
 11
-409.602570386881
 21
27.698107091644
 31
0.0
  0
LINE
  5
   4E8
  8
0
  6
CONTINUOUS
 62
     7
 10
-408.352598237572
 20
54.9481166331499
 30
0.0
 11
-407.999036845147
 21
55.0945628385631
 31
0.0
  0
LINE
  5
   4E9
  8
0
  6
CONTINUOUS
 62
     7
 10
-407.99903047359
 20
55.0945522755238
 30
0.0
 11
-407.852584256712
 21
55.4481060247488
 31
0.0
  0
LINE
  5
   4EA
  8
0
  6
CONTINUOUS
 62
     7
 10
-409.602576800699
 20
51.4481195746429
 30
0.0
 11
-409.602569171305
 21
54.9481195749229
 31
0.0
  0
LINE
  5
   4EB
  8
0
  6
CONTINUOUS
 62
     7
 10
-409.602568626404
 20
54.9481201171875
 30
0.0
 11
-408.352583885193
 21
54.9481201171875
 31
0.0
  0
LINE
  5
   4EC
  8
0
  6
CONTINUOUS
 62
     7
 10
-409.602576255798
 20
31.8231201171875
 30
0.0
 11
-409.602576255798
 21
51.4481201171875
 31
0.0
  0
LINE
  5
   4ED
  8
0
  6
CONTINUOUS
 62
     7
 10
-411.852568626404
 20
6.4481201171875
 30
0.0
 11
-411.852568626404
 21
26.6981201171875
 31
0.0
  0
LINE
  5
   4EE
  8
0
  6
CONTINUOUS
 62
     7
 10
-411.852553645299
 20
26.69814765576
 30
0.0
 11
-411.718581488035
 21
27.1981476420661
 31
0.0
  0
LINE
  5
   4EF
  8
0
  6
CONTINUOUS
 62
     7
 10
-411.718564454288
 20
27.1981666696035
 30
0.0
 11
-411.352544270281
 21
27.5641944744248
 31
0.0
  0
LINE
  5
   4F0
  8
0
  6
CONTINUOUS
 62
     7
 10
-411.352596018904
 20
27.5641349344385
 30
0.0
 11
-410.852588416325
 21
27.698107091644
 31
0.0
  0
LINE
  5
   4F1
  8
0
  6
CONTINUOUS
 62
     7
 10
-411.852568626404
 20
6.4481201171875
 30
0.0
 11
-407.852568626404
 21
6.4481201171875
 31
0.0
  0
LINE
  5
   4F2
  8
0
  6
CONTINUOUS
 62
     7
 10
-408.352628096487
 20
-0.551886276636781
 30
0.0
 11
-407.852589969977
 21
-1.05188625879346
 31
0.0
  0
LINE
  5
   4F3
  8
0
  6
CONTINUOUS
 62
     7
 10
-408.35261633563
 20
4.9481254203071
 30
0.0
 11
-407.85257058022
 21
5.44812540215301
 31
0.0
  0
LINE
  5
   4F4
  8
0
  6
CONTINUOUS
 62
     7
 10
-439.7365261436
 20
4.94810734581073
 30
0.0
 11
-408.352622640182
 21
4.94812260459887
 31
0.0
  0
LINE
  5
   4F5
  8
0
  6
CONTINUOUS
 62
     7
 10
-439.736549377441
 20
-0.551879882812502
 30
0.0
 11
-408.352615356445
 21
-0.551879882812502
 31
0.0
  0
LINE
  5
   4F6
  8
0
  6
CONTINUOUS
 62
     7
 10
-441.602570886465
 20
5.44810579484382
 30
0.0
 11
-439.736528378161
 21
4.94809816626243
 31
0.0
  0
LINE
  5
   4F7
  8
0
  6
CONTINUOUS
 62
     7
 10
-443.352570908539
 20
5.91701819566246
 30
0.0
 11
-441.602554714724
 21
5.44810040353429
 31
0.0
  0
LINE
  5
   4F8
  8
0
  6
CONTINUOUS
 62
     7
 10
-443.852568070725
 20
-1.65476194614645
 30
0.0
 11
-439.736548368732
 21
-0.551879577876392
 31
0.0
  0
LINE
  5
   4F9
  8
0
  6
CONTINUOUS
 62
     7
 10
-443.852562125902
 20
7.09527191426458
 30
0.0
 11
-443.352563583073
 21
7.22924407153321
 31
0.0
  0
LINE
  5
   4FA
  8
0
  6
CONTINUOUS
 62
     7
 10
-443.852568626404
 20
-4.80188751220703
 30
0.0
 11
-441.852569103241
 21
-4.80188751220703
 31
0.0
  0
LINE
  5
   4FB
  8
0
  6
CONTINUOUS
 62
     7
 10
-441.852569103241
 20
-8.56027649308994
 30
0.0
 11
-441.852569103241
 21
-4.80188751220703
 31
0.0
  0
LINE
  5
   4FC
  8
0
  6
CONTINUOUS
 62
     7
 10
-443.352568626404
 20
-1.52079772949219
 30
0.0
 11
-443.352568626404
 21
20.698112487793
 31
0.0
  0
LINE
  5
   4FD
  8
0
  6
CONTINUOUS
 62
     7
 10
-441.602568626404
 20
5.4481201171875
 30
0.0
 11
-441.602568626404
 21
17.9481201171875
 31
0.0
  0
LINE
  5
   4FE
  8
0
  6
CONTINUOUS
 62
     7
 10
-443.852569103241
 20
20.698112487793
 30
0.0
 11
-442.352569580078
 21
20.698112487793
 31
0.0
  0
LINE
  5
   4FF
  8
0
  6
CONTINUOUS
 62
     7
 10
-442.352564428933
 20
20.6981075312301
 30
0.0
 11
-441.977563495437
 21
20.5976284132869
 31
0.0
  0
LINE
  5
   500
  8
0
  6
CONTINUOUS
 62
     7
 10
-442.352564428933
 20
20.6981075312301
 30
0.0
 11
-441.977563495437
 21
20.5976284132869
 31
0.0
  0
LINE
  5
   501
  8
0
  6
CONTINUOUS
 62
     7
 10
-441.977567009489
 20
20.5976258879086
 30
0.0
 11
-441.703048047646
 21
20.3231050285609
 31
0.0
  0
LINE
  5
   502
  8
0
  6
CONTINUOUS
 62
     7
 10
-441.703056675128
 20
20.3230984299367
 30
0.0
 11
-441.602576122489
 21
19.948098431128
 31
0.0
  0
LINE
  5
   503
  8
0
  6
CONTINUOUS
 62
     7
 10
-441.602559566498
 20
17.9481132626585
 30
0.0
 11
-441.602559566498
 21
19.9481056332639
 31
0.0
  0
LINE
  5
   504
  8
0
  6
CONTINUOUS
 62
     7
 10
-441.703045730228
 20
17.5731093140884
 30
0.0
 11
-441.655434500698
 21
17.7507979100309
 31
0.0
  0
LINE
  5
   505
  8
0
  6
CONTINUOUS
 62
     7
 10
-441.655435417857
 20
17.7507930670892
 30
0.0
 11
-441.602566099195
 21
17.9481120945918
 31
0.0
  0
LINE
  5
   506
  8
0
  6
CONTINUOUS
 62
     7
 10
-441.977568780895
 20
17.2985736077853
 30
0.0
 11
-441.703049355842
 21
17.5730944675382
 31
0.0
  0
LINE
  5
   507
  8
0
  6
CONTINUOUS
 62
     7
 10
-442.352575052535
 20
17.1981020991727
 30
0.0
 11
-441.977575057712
 21
17.2985812094068
 31
0.0
  0
LINE
  5
   508
  8
0
  6
CONTINUOUS
 62
     7
 10
-443.352568626404
 20
17.198112487793
 30
0.0
 11
-442.352569103241
 21
17.198112487793
 31
0.0
  0
LINE
  5
   509
  8
0
  6
CONTINUOUS
 62
     7
 10
-444.852568626404
 20
-16.5518870353699
 30
0.0
 11
-443.852568626404
 21
-16.5518870353699
 31
0.0
  0
LINE
  5
   50A
  8
0
  6
CONTINUOUS
 62
     7
 10
-444.852568626404
 20
57.9481048583984
 30
0.0
 11
-443.852568626404
 21
57.9481048583984
 31
0.0
  0
LINE
  5
   50B
  8
0
  6
CONTINUOUS
 62
     7
 10
-444.852568626404
 20
53.0139312744141
 30
0.0
 11
-443.852568626404
 21
53.0139312744141
 31
0.0
  0
LINE
  5
   50C
  8
0
  6
CONTINUOUS
 62
     7
 10
-441.602580391035
 20
-0.301885579437906
 30
0.0
 11
-440.20306195325
 21
-0.676885550418886
 31
0.0
  0
LINE
  5
   50D
  8
0
  6
CONTINUOUS
 62
     7
 10
-441.602585315704
 20
-0.301880812640041
 30
0.0
 11
-441.602585315704
 21
4.69811918735996
 31
0.0
  0
LINE
  5
   50E
  8
0
  6
CONTINUOUS
 62
     7
 10
-441.602585169438
 20
4.69811250023373
 30
0.0
 11
-440.203054813899
 21
5.07311249688503
 31
0.0
  0
LINE
  5
   50F
  8
0
  6
CONTINUOUS
 62
     7
 10
-444.852568626404
 20
-11.6595764160156
 30
0.0
 11
-443.852568626404
 21
-11.6595764160156
 31
0.0
  0
LINE
  5
   510
  8
0
  6
CONTINUOUS
 62
     7
 10
-444.852568626404
 20
-11.551887512207
 30
0.0
 11
-443.852568626404
 21
-11.551887512207
 31
0.0
  0
LINE
  5
   511
  8
0
  6
CONTINUOUS
 62
     7
 10
-441.703044036516
 20
17.3084631852729
 30
0.0
 11
-441.602563966987
 21
17.7508002066593
 31
0.0
  0
LINE
  5
   512
  8
0
  6
CONTINUOUS
 62
     7
 10
-441.655438423157
 20
17.7508010864258
 30
0.0
 11
-441.602569580078
 21
17.7508010864258
 31
0.0
  0
LINE
  5
   513
  8
0
  6
CONTINUOUS
 62
     7
 10
-441.669557014517
 20
10.6981073352527
 30
0.0
 11
-441.602570935412
 21
10.7478357268326
 31
0.0
  0
LINE
  5
   514
  8
0
  6
CONTINUOUS
 62
     7
 10
-441.703047030453
 20
10.7229539733498
 30
0.0
 11
-441.669552560384
 21
10.6980897784528
 31
0.0
  0
LINE
  5
   515
  8
0
  6
CONTINUOUS
 62
     7
 10
-441.703049659729
 20
15.6981201171875
 30
0.0
 11
-441.602569103241
 21
15.6981201171875
 31
0.0
  0
LINE
  5
   516
  8
0
  6
CONTINUOUS
 62
     7
 10
-441.703052393173
 20
12.6732268018765
 30
0.0
 11
-441.669557923104
 21
12.6980909967735
 31
0.0
  0
LINE
  5
   517
  8
0
  6
CONTINUOUS
 62
     7
 10
-441.669553082559
 20
12.6981038531691
 30
0.0
 11
-441.602567003455
 21
12.6483754615892
 31
0.0
  0
LINE
  5
   518
  8
0
  6
CONTINUOUS
 62
     7
 10
-441.703052487954
 20
16.8640420438779
 30
0.0
 11
-441.648465618424
 21
16.5591561831068
 31
0.0
  0
LINE
  5
   519
  8
0
  6
CONTINUOUS
 62
     7
 10
-441.648463171473
 20
16.5591597170176
 30
0.0
 11
-441.60256950338
 21
15.6981215418474
 31
0.0
  0
LINE
  5
   51A
  8
0
  6
CONTINUOUS
 62
     7
 10
-441.960731768308
 20
10.7742229975703
 30
0.0
 11
-441.703051834815
 21
10.7229687307159
 31
0.0
  0
LINE
  5
   51B
  8
0
  6
CONTINUOUS
 62
     7
 10
-441.97756988936
 20
10.7854793718271
 30
0.0
 11
-441.960730385224
 21
10.7742260156365
 31
0.0
  0
LINE
  5
   51C
  8
0
  6
CONTINUOUS
 62
     7
 10
-441.977577300919
 20
12.6107329907338
 30
0.0
 11
-441.960736843688
 21
12.6219863471567
 31
0.0
  0
LINE
  5
   51D
  8
0
  6
CONTINUOUS
 62
     7
 10
-441.960733546562
 20
12.6219839512338
 30
0.0
 11
-441.70305456617
 21
12.6732382101119
 31
0.0
  0
LINE
  5
   51E
  8
0
  6
CONTINUOUS
 62
     7
 10
-441.977569103241
 20
15.6981201171875
 30
0.0
 11
-441.703049659729
 21
15.6981201171875
 31
0.0
  0
LINE
  5
   51F
  8
0
  6
CONTINUOUS
 62
     7
 10
-442.352571337606
 20
10.8526111316266
 30
0.0
 11
-441.97757134631
 21
10.7854724752209
 31
0.0
  0
LINE
  5
   520
  8
0
  6
CONTINUOUS
 62
     7
 10
-442.352571917895
 20
12.5435959554037
 30
0.0
 11
-441.977571926598
 21
12.6107346118094
 31
0.0
  0
LINE
  5
   521
  8
0
  6
CONTINUOUS
 62
     7
 10
-442.352569103241
 20
15.6981201171875
 30
0.0
 11
-441.977569103241
 21
15.6981201171875
 31
0.0
  0
LINE
  5
   522
  8
0
  6
CONTINUOUS
 62
     7
 10
-443.352568626404
 20
12.5436019897461
 30
0.0
 11
-442.352569103241
 21
12.5436019897461
 31
0.0
  0
LINE
  5
   523
  8
0
  6
CONTINUOUS
 62
     7
 10
-443.352568626404
 20
15.6981201171875
 30
0.0
 11
-442.352569103241
 21
15.6981201171875
 31
0.0
  0
LINE
  5
   524
  8
0
  6
CONTINUOUS
 62
     7
 10
-443.352568626404
 20
10.8526229858398
 30
0.0
 11
-442.352569103241
 21
10.8526229858398
 31
0.0
  0
LINE
  5
   525
  8
0
  6
CONTINUOUS
 62
     3
 10
-429.227568626404
 20
63.1981201171875
 30
0.0
 11
-395.352568625808
 21
63.1981201171875
 31
0.0
  0
LINE
  5
   526
  8
0
  6
CONTINUOUS
 62
     3
 10
-411.193010062192
 20
61.7981262207031
 30
0.0
 11
-396.752570151686
 21
61.7981262207031
 31
0.0
  0
LINE
  5
   527
  8
0
  6
CONTINUOUS
 62
     3
 10
-407.852568625808
 20
-20.4018726348877
 30
0.0
 11
-396.752570151686
 21
-20.4018726348877
 31
0.0
  0
LINE
  5
   528
  8
0
  6
CONTINUOUS
 62
     3
 10
-407.852568625808
 20
-21.801872253418
 30
0.0
 11
-395.352568625808
 21
-21.801872253418
 31
0.0
  0
LINE
  5
   529
  8
0
  6
CONTINUOUS
 62
     3
 10
-407.852568625808
 20
-21.801872253418
 30
0.0
 11
-407.852568625808
 21
-0.676879882812505
 31
0.0
  0
LINE
  5
   52A
  8
0
  6
CONTINUOUS
 62
     3
 10
-407.852568625806
 20
5.07311248779296
 30
0.0
 11
-407.852568625806
 21
6.44815063476562
 31
0.0
  0
LINE
  5
   52B
  8
0
  6
CONTINUOUS
 62
     3
 10
-407.852568626404
 20
55.4481437597897
 30
0.0
 11
-407.852568626404
 21
63.1981201171875
 31
0.0
  0
LINE
  5
   52C
  8
0
  6
CONTINUOUS
 62
     3
 10
-393.102568625808
 20
27.1725540161133
 30
0.0
 11
-393.102568625808
 21
31.9479598999023
 31
0.0
  0
LINE
  5
   52D
  8
0
  6
CONTINUOUS
 62
     3
 10
-393.10259569025
 20
1.72333152731049
 30
0.0
 11
-393.102572802068
 21
-1.55202810334249
 31
0.0
  0
LINE
  5
   52E
  8
0
  6
CONTINUOUS
 62
     3
 10
-395.352568625808
 20
51.0731201171875
 30
0.0
 11
-395.352568625808
 21
63.1981201171875
 31
0.0
  0
LINE
  5
   52F
  8
0
  6
CONTINUOUS
 62
     3
 10
-396.752570151686
 20
55.073127746582
 30
0.0
 11
-395.352568625808
 21
55.073127746582
 31
0.0
  0
LINE
  5
   530
  8
0
  6
CONTINUOUS
 62
     3
 10
-395.352568625808
 20
-21.801872253418
 30
0.0
 11
-395.352568625808
 21
-9.42687136786336
 31
0.0
  0
LINE
  5
   531
  8
0
  6
CONTINUOUS
 62
     3
 10
-396.752570151686
 20
-13.676872253418
 30
0.0
 11
-395.352568625808
 21
-13.676872253418
 31
0.0
  0
LINE
  5
   532
  8
0
  6
CONTINUOUS
 62
     3
 10
-396.752570151686
 20
-20.4018707275391
 30
0.0
 11
-396.752570151686
 21
-9.42687098639316
 31
0.0
  0
LINE
  5
   533
  8
0
  6
CONTINUOUS
 62
     3
 10
-407.852570155214
 20
5.0731201171875
 30
0.0
 11
-396.752571681093
 21
5.0731201171875
 31
0.0
  0
LINE
  5
   534
  8
0
  6
CONTINUOUS
 62
     3
 10
-407.85256981001
 20
-0.676879882812504
 30
0.0
 11
-396.752571335889
 21
-0.676879882812504
 31
0.0
  0
LINE
  5
   535
  8
0
  6
CONTINUOUS
 62
     1
 10
-396.752570151686
 20
51.0731201171875
 30
0.0
 11
-394.102569102645
 21
51.0731201171875
 31
0.0
  0
LINE
  5
   536
  8
0
  6
CONTINUOUS
 62
     1
 10
-395.602568625808
 20
-9.42687177658081
 30
0.0
 11
-395.352568625808
 21
-9.42687177658081
 31
0.0
  0
LINE
  5
   537
  8
0
  6
CONTINUOUS
 62
     1
 10
-396.752570151686
 20
-9.42687098639317
 30
0.0
 11
-394.102569102645
 21
-9.42687170846126
 31
0.0
  0
LINE
  5
   538
  8
0
  6
CONTINUOUS
 62
     2
 10
-388.60191346556
 20
-6.42687940597534
 30
0.0
 11
-388.60191346556
 21
-5.42688083648682
 31
0.0
  0
LINE
  5
   539
  8
0
  6
CONTINUOUS
 62
     2
 10
-393.101913435758
 20
-6.67687988098501
 30
0.0
 11
-393.101913435758
 21
45.823120119015
 31
0.0
  0
LINE
  5
   53A
  8
0
  6
CONTINUOUS
 62
     2
 10
-394.102569102645
 20
45.8231201171875
 30
0.0
 11
-391.35198439412
 21
45.8231201171875
 31
0.0
  0
LINE
  5
   53B
  8
0
  6
CONTINUOUS
 62
     2
 10
-394.102569102645
 20
-6.6768798816325
 30
0.0
 11
-391.35198439412
 21
-6.6768798816325
 31
0.0
  0
LINE
  5
   53C
  8
0
  6
CONTINUOUS
 62
     2
 10
-388.601941903575
 20
2.57311208040276
 30
0.0
 11
-388.601913770183
 21
-6.42688029014901
 31
0.0
  0
LINE
  5
   53D
  8
0
  6
CONTINUOUS
 62
     2
 10
-388.60201079956
 20
9.07311230941796
 30
0.0
 11
-388.60194356552
 21
3.07311230951133
 31
0.0
  0
LINE
  5
   53E
  8
0
  6
CONTINUOUS
 62
     2
 10
-388.601914896072
 20
9.57311988488213
 30
0.0
 11
-388.601914896072
 21
19.3231122554876
 31
0.0
  0
LINE
  5
   53F
  8
0
  6
CONTINUOUS
 62
     2
 10
-388.602014396113
 20
9.57310710575322
 30
0.0
 11
-388.601987693233
 21
19.3231071063741
 31
0.0
  0
LINE
  5
   540
  8
0
  6
CONTINUOUS
 62
     2
 10
-388.602092675671
 20
25.8231108653132
 30
0.0
 11
-388.601988725228
 21
19.8231108653736
 31
0.0
  0
LINE
  5
   541
  8
0
  6
CONTINUOUS
 62
     7
 10
-410.852588416325
 20
27.698107091644
 30
0.0
 11
-409.602572440976
 21
27.698107091644
 31
0.0
  0
LINE
  5
   542
  8
0
  6
CONTINUOUS
 62
     7
 10
-394.102569102645
 20
45.8231201171875
 30
0.0
 11
-394.102569102645
 21
51.0731201171875
 31
0.0
  0
LINE
  5
   543
  8
0
  6
CONTINUOUS
 62
     7
 10
-394.102569102645
 20
-9.42687170846125
 30
0.0
 11
-394.102569102645
 21
-6.6768798816325
 31
0.0
  0
LINE
  5
   544
  8
0
  6
CONTINUOUS
 62
     3
 10
-396.752570151686
 20
51.0731201171875
 30
0.0
 11
-396.752570151686
 21
61.7981262207031
 31
0.0
  0
LINE
  5
   545
  8
0
  6
CONTINUOUS
 62
     3
 10
-396.752570151686
 20
-9.42687098639316
 30
0.0
 11
-396.752570151686
 21
51.0731201171875
 31
0.0
  0
ARC
  5
   546
  8
0
  6
CONTINUOUS
 62
     7
 10
-378.264548721731
 20
8.55117929190145
 30
0.0
 40
0.499999897877905
 50
348.623601768641
 51
436.688817106542
  0
ARC
  5
   547
  8
0
  6
CONTINUOUS
 62
     7
 10
-378.862919450278
 20
5.57727001185253
 30
0.0
 40
0.50000037262337
 50
260.594020595617
 51
348.623601768641
  0
LINE
  5
   548
  8
0
  6
DASHDOT
 62
     7
 10
-395.922600613787
 20
10.5387600854109
 30
0.0
 11
-370.864254884797
 21
5.49685231537068
 31
0.0
  0
LINE
  5
   549
  8
0
  6
CONTINUOUS
 62
     7
 10
-388.602009089283
 20
11.5107852690026
 30
0.0
 11
-378.149428990117
 21
9.03774581855679
 31
0.0
  0
LINE
  5
   54A
  8
0
  6
CONTINUOUS
 62
     7
 10
-378.372742956601
 20
5.4786432030883
 30
0.0
 11
-377.774372392347
 21
8.45255251619413
 31
0.0
  0
LINE
  5
   54B
  8
0
  6
CONTINUOUS
 62
     7
 10
-388.601984025613
 20
6.68379167020173
 30
0.0
 11
-378.944633944818
 21
5.08399224855203
 31
0.0
  0
LINE
  5
   54C
  8
0
  6
DASHDOT
 62
     7
 10
-446.352568626404
 20
-27.2166061992789
 30
0.0
 11
-446.352568626404
 21
68.2122726896239
 31
0.0
  0
LINE
  5
   54D
  8
0
  6
CONTINUOUS
 62
     7
 10
-432.852568626404
 20
51.4481201171875
 30
0.0
 11
-426.402922385204
 21
51.4481201171875
 31
0.0
  0
LINE
  5
   54E
  8
0
  6
CONTINUOUS
 62
     7
 10
-432.6875045934
 20
50.1981201171875
 30
0.0
 11
-426.110812401008
 21
50.1981201171875
 31
0.0
  0
LINE
  5
   54F
  8
0
  6
CONTINUOUS
 62
     7
 10
-439.352568626404
 20
48.1653427359839
 30
0.0
 11
-439.352568626404
 21
50.1981201171875
 31
0.0
  0
LINE
  5
   550
  8
0
  6
CONTINUOUS
 62
     7
 10
-437.352568626404
 20
48.1653427359839
 30
0.0
 11
-437.352568626404
 21
50.1981201171875
 31
0.0
  0
LINE
  5
   551
  8
0
  6
CONTINUOUS
 62
     7
 10
-432.352568626404
 20
50.1981201171875
 30
0.0
 11
-432.352568626404
 21
51.4481201171875
 31
0.0
  0
LINE
  5
   552
  8
0
  6
CONTINUOUS
 62
     7
 10
-439.352568626404
 20
50.1981201171875
 30
0.0
 11
-436.12834520995
 21
50.1981201171875
 31
0.0
  0
LINE
  5
   553
  8
0
  6
CONTINUOUS
 62
     3
 10
-447.466989189385
 20
48.1653427359839
 30
0.0
 11
-426.110812401008
 21
48.1653427359839
 31
0.0
  0
LINE
  5
   554
  8
0
  6
CONTINUOUS
 62
     7
 10
-434.852568626404
 20
60.9481201171875
 30
0.0
 11
-432.352568626404
 21
60.9481201171875
 31
0.0
  0
LINE
  5
   555
  8
0
  6
CONTINUOUS
 62
     7
 10
-435.141177286489
 20
47.6653427359839
 30
0.0
 11
-433.102933590496
 21
49.6624044400127
 31
0.0
  0
LINE
  5
   556
  8
0
  6
CONTINUOUS
 62
     7
 10
-436.602204122912
 20
49.7338352774441
 30
0.0
 11
-434.852568705861
 21
51.4481202196386
 31
0.0
  0
LINE
  5
   557
  8
0
  6
CONTINUOUS
 62
     7
 10
-434.852568626404
 20
51.4481201171875
 30
0.0
 11
-434.852568626404
 21
54.3481201171875
 31
0.0
  0
ARC
  5
   558
  8
0
  6
CONTINUOUS
 62
     7
 10
-434.852569028637
 20
47.9481209158233
 30
0.0
 40
2.49999952145068
 50
134.415297555408
 51
180.0
  0
ARC
  5
   559
  8
0
  6
CONTINUOUS
 62
     7
 10
-434.852568626404
 20
51.4481192103844
 30
0.0
 40
2.5
 50
314.415292725986
 51
360.0
  0
LINE
  5
   55A
  8
0
  6
DASHDOT
 62
     7
 10
-437.516082739388
 20
56.4481201171875
 30
0.0
 11
-429.18625917509
 21
56.4481201171875
 31
0.0
  0
INSERT
  5
   55B
  8
0
  6
CONTINUOUS
 62
     7
  2
*HATCH1139
 10
-443.852569580078
 20
14.4481201171875
 30
0.0
 41
0.5
 42
0.5
 43
0.5
  0
LINE
  5
   55C
  8
0
  6
CONTINUOUS
 62
     7
 10
-443.852568626404
 20
-10.0518736737858
 30
0.0
 11
-434.852568626404
 21
-10.0518736737858
 31
0.0
  0
LINE
  5
   55D
  8
0
  6
CONTINUOUS
 62
     7
 10
-436.852568626404
 20
-10.0518736737858
 30
0.0
 11
-436.852568626404
 21
-8.56027649308994
 31
0.0
  0
LINE
  5
   55E
  8
0
  6
CONTINUOUS
 62
     7
 10
-434.852568626404
 20
-10.0518736737858
 30
0.0
 11
-434.852568626404
 21
-8.56027649308994
 31
0.0
  0
LINE
  5
   55F
  8
0
  6
CONTINUOUS
 62
     7
 10
-431.852568626404
 20
-10.0518736737858
 30
0.0
 11
-431.852568626404
 21
-8.56027649308994
 31
0.0
  0
LINE
  5
   560
  8
0
  6
CONTINUOUS
 62
     7
 10
-431.852568626404
 20
-10.0518736737858
 30
0.0
 11
-420.248533042254
 21
-10.0518736737858
 31
0.0
  0
LINE
  5
   561
  8
0
  6
CONTINUOUS
 62
     3
 10
-444.546479882488
 20
-8.56027649308994
 30
0.0
 11
-420.42896818508
 21
-8.56027649308994
 31
0.0
  0
LINE
  5
   562
  8
0
  6
CONTINUOUS
 62
     7
 10
-434.852568626404
 20
-19.5518736737858
 30
0.0
 11
-433.352569103241
 21
-19.5518736737858
 31
0.0
  0
LINE
  5
   563
  8
0
  6
CONTINUOUS
 62
     7
 10
-433.352569103241
 20
-19.551873673786
 30
0.0
 11
-433.352569103241
 21
-17.0518798828125
 31
0.0
  0
LINE
  5
   564
  8
0
  6
CONTINUOUS
 62
     7
 10
-434.852568626406
 20
-19.5518736737858
 30
0.0
 11
-434.852568626406
 21
-8.56027649308994
 31
0.0
  0
LINE
  5
   565
  8
0
  6
CONTINUOUS
 62
     7
 10
-433.352569103241
 20
-19.5518736737859
 30
0.0
 11
-432.352569103241
 21
-19.5518736737859
 31
0.0
  0
LINE
  5
   566
  8
0
  6
CONTINUOUS
 62
     7
 10
-433.352569103241
 20
-9.05187367378595
 30
0.0
 11
-432.352569103241
 21
-9.05187367378595
 31
0.0
  0
LINE
  5
   567
  8
0
  6
DASHDOT
 62
     7
 10
-437.516082739388
 20
-15.0518798828125
 30
0.0
 11
-426.806496552572
 21
-15.0518798828125
 31
0.0
  0
INSERT
  5
   568
  8
0
  6
CONTINUOUS
 62
     7
  2
*HATCH1140
 10
-443.852569580078
 20
14.4481201171875
 30
0.0
 41
0.5
 42
0.5
 43
0.5
  0
LINE
  5
   569
  8
0
  6
CONTINUOUS
 62
     7
 10
-434.852568626406
 20
-13.0018798828125
 30
0.0
 11
-432.352569103241
 21
-13.0018798828125
 31
0.0
  0
LINE
  5
   56A
  8
0
  6
CONTINUOUS
 62
     7
 10
-434.852568626406
 20
-17.1018798828125
 30
0.0
 11
-432.352569103241
 21
-17.1018798828125
 31
0.0
  0
INSERT
  5
   56B
  8
0
  6
CONTINUOUS
 62
     7
  2
*HATCH1141
 10
-443.852569580078
 20
14.4481201171875
 30
0.0
 41
0.5
 42
0.5
 43
0.5
  0
INSERT
  5
   56C
  8
0
  6
CONTINUOUS
 62
     7
  2
*HATCH1142
 10
-443.852569580078
 20
14.4481201171875
 30
0.0
 41
0.5
 42
0.5
 43
0.5
  0
INSERT
  5
   56D
  8
0
  6
CONTINUOUS
 62
     7
  2
*HATCH1143
 10
-443.852569580078
 20
14.4481201171875
 30
0.0
 41
0.5
 42
0.5
 43
0.5
  0
ARC
  5
   56E
  8
0
  6
DASHDOT
 62
     7
 10
-415.352169682356
 20
14.4481201171875
 30
0.0
 40
38.0221347997541
 50
337.492314756863
 51
360.0
  0
LINE
  5
   56F
  8
0
  6
DASHDOT
 62
     7
 10
-377.330034882602
 20
14.4481201171875
 30
0.0
 11
-377.330034882602
 21
17.3232199345562
 31
0.0
  0
LINE
  5
   570
  8
0
  6
CONTINUOUS
 62
     7
 10
-434.852568626404
 20
58.5481201171875
 30
0.0
 11
-432.852568626404
 21
58.5481201171875
 31
0.0
  0
LINE
  5
   571
  8
0
  6
CONTINUOUS
 62
     7
 10
-434.852568626404
 20
54.3481201171875
 30
0.0
 11
-432.852568626404
 21
54.3481201171875
 31
0.0
  0
INSERT
  5
   572
  8
0
  6
CONTINUOUS
 62
     7
  2
*HATCH1144
 10
-443.852569580078
 20
14.4481201171875
 30
0.0
 41
0.5
 42
0.5
 43
0.5
  0
LINE
  5
   573
  8
0
  6
CONTINUOUS
 62
     7
 10
-443.852568626404
 20
63.1981124765733
 30
0.0
 11
-443.102568626404
 21
63.1981124765733
 31
0.0
  0
LINE
  5
   574
  8
0
  6
CONTINUOUS
 62
     1
 10
-391.35198439412
 20
-7.9268798828125
 30
0.0
 11
-391.35198439412
 21
-6.9268798828125
 31
0.0
  0
LINE
  5
   575
  8
0
  6
CONTINUOUS
 62
     1
 10
-391.35198439412
 20
-7.9268798828125
 30
0.0
 11
-390.35198439412
 21
-7.9268798828125
 31
0.0
  0
LINE
  5
   576
  8
0
  6
CONTINUOUS
 62
     1
 10
-391.35198439412
 20
46.0731182098389
 30
0.0
 11
-391.35198439412
 21
47.0731182098389
 31
0.0
  0
LINE
  5
   577
  8
0
  6
CONTINUOUS
 62
     1
 10
-391.35198439412
 20
47.0731182098389
 30
0.0
 11
-390.35198439412
 21
47.0731182098389
 31
0.0
  0
LINE
  5
   578
  8
0
  6
CONTINUOUS
 62
     1
 10
-391.35198439412
 20
-6.9268798828125
 30
0.0
 11
-391.35198439412
 21
46.0731201171875
 31
0.0
  0
LINE
  5
   579
  8
0
  6
CONTINUOUS
 62
     1
 10
-393.601984304713
 20
53.8617916107178
 30
0.0
 11
-393.601984304713
 21
56.28444480896
 31
0.0
  0
LINE
  5
   57A
  8
0
  6
CONTINUOUS
 62
     1
 10
-393.601984304713
 20
-17.138204574585
 30
0.0
 11
-393.601984304713
 21
-14.71555519104
 31
0.0
  0
LINE
  5
   57B
  8
0
  6
CONTINUOUS
 62
     1
 10
-390.35198439412
 20
-21.1768817901611
 30
0.0
 11
-390.35198439412
 21
60.3231182098389
 31
0.0
  0
LINE
  5
   57C
  8
0
  6
CONTINUOUS
 62
     1
 10
-390.35198439412
 20
-21.1768798828125
 30
0.0
 11
-388.60198439412
 21
-21.1768798828125
 31
0.0
  0
LINE
  5
   57D
  8
0
  6
CONTINUOUS
 62
     1
 10
-388.60198439412
 20
-21.1768798828125
 30
0.0
 11
-388.60198439412
 21
60.3231201171875
 31
0.0
  0
LINE
  5
   57E
  8
0
  6
CONTINUOUS
 62
     1
 10
-390.35198439412
 20
60.3231182098389
 30
0.0
 11
-389.60198439412
 21
60.3231182098389
 31
0.0
  0
LINE
  5
   57F
  8
0
  6
CONTINUOUS
 62
     1
 10
-389.10198439412
 20
60.3231182098389
 30
0.0
 11
-388.60198439412
 21
60.3231182098389
 31
0.0
  0
LINE
  5
   580
  8
0
  6
CONTINUOUS
 62
     1
 10
-393.101984345269
 20
53.5731182098389
 30
0.0
 11
-390.35198439412
 21
53.5731182098389
 31
0.0
  0
LINE
  5
   581
  8
0
  6
CONTINUOUS
 62
     1
 10
-393.101984287109
 20
56.5731182098389
 30
0.0
 11
-390.35198439412
 21
56.5731182098389
 31
0.0
  0
LINE
  5
   582
  8
0
  6
CONTINUOUS
 62
     1
 10
-393.601983924166
 20
53.8617904658063
 30
0.0
 11
-393.101983907703
 21
53.5731170613081
 31
0.0
  0
LINE
  5
   583
  8
0
  6
CONTINUOUS
 62
     1
 10
-393.101984440244
 20
53.5731182098389
 30
0.0
 11
-393.101984440244
 21
53.6872997283936
 31
0.0
  0
LINE
  5
   584
  8
0
  6
CONTINUOUS
 62
     1
 10
-393.101984345269
 20
53.5731182098389
 30
0.0
 11
-393.101984345269
 21
54.0124568939209
 31
0.0
  0
LINE
  5
   585
  8
0
  6
CONTINUOUS
 62
     1
 10
-393.101984322963
 20
54.0124568939209
 30
0.0
 11
-393.101984322963
 21
54.4990978240967
 31
0.0
  0
LINE
  5
   586
  8
0
  6
CONTINUOUS
 62
     1
 10
-393.101984310563
 20
54.4990978240967
 30
0.0
 11
-393.101984310563
 21
55.0731182098389
 31
0.0
  0
LINE
  5
   587
  8
0
  6
CONTINUOUS
 62
     1
 10
-393.101984299667
 20
55.0731182098389
 30
0.0
 11
-393.101984299667
 21
55.6471462249756
 31
0.0
  0
LINE
  5
   588
  8
0
  6
CONTINUOUS
 62
     1
 10
-393.101984287109
 20
55.6471462249756
 30
0.0
 11
-393.101984287109
 21
56.5731182098389
 31
0.0
  0
LINE
  5
   589
  8
0
  6
CONTINUOUS
 62
     1
 10
-393.101984264274
 20
56.1337795257568
 30
0.0
 11
-393.101984264274
 21
56.4589366912842
 31
0.0
  0
LINE
  5
   58A
  8
0
  6
CONTINUOUS
 62
     1
 10
-393.601984733303
 20
56.2844436180909
 30
0.0
 11
-393.10198471684
 21
56.5731170225892
 31
0.0
  0
LINE
  5
   58B
  8
0
  6
CONTINUOUS
 62
     1
 10
-393.101984166345
 20
56.4589366912841
 30
0.0
 11
-393.101984166345
 21
56.5731182098388
 31
0.0
  0
LINE
  5
   58C
  8
0
  6
CONTINUOUS
 62
     1
 10
-393.10198330301
 20
-14.4268798828125
 30
0.0
 11
-390.35198439412
 21
-14.4268798828125
 31
0.0
  0
LINE
  5
   58D
  8
0
  6
CONTINUOUS
 62
     1
 10
-393.101985144789
 20
-17.4268798828125
 30
0.0
 11
-390.35198439412
 21
-17.4268798828125
 31
0.0
  0
LINE
  5
   58E
  8
0
  6
CONTINUOUS
 62
     1
 10
-393.101984257141
 20
-14.5410614013672
 30
0.0
 11
-393.101984257141
 21
-14.4268798828125
 31
0.0
  0
LINE
  5
   58F
  8
0
  6
CONTINUOUS
 62
     1
 10
-393.601984559791
 20
-14.7155558911659
 30
0.0
 11
-393.101984543326
 21
-14.4268805989094
 31
0.0
  0
LINE
  5
   590
  8
0
  6
CONTINUOUS
 62
     1
 10
-393.101984279405
 20
-14.8662204742432
 30
0.0
 11
-393.101984279405
 21
-14.5410614013672
 31
0.0
  0
LINE
  5
   591
  8
0
  6
CONTINUOUS
 62
     1
 10
-393.10198428444
 20
-15.3528537750244
 30
0.0
 11
-393.10198428444
 21
-14.8662204742432
 31
0.0
  0
LINE
  5
   592
  8
0
  6
CONTINUOUS
 62
     1
 10
-393.101984287253
 20
-15.9268798828125
 30
0.0
 11
-393.101984287253
 21
-15.3528537750244
 31
0.0
  0
LINE
  5
   593
  8
0
  6
CONTINUOUS
 62
     1
 10
-393.101984289662
 20
-16.500904083252
 30
0.0
 11
-393.101984289662
 21
-15.9268798828125
 31
0.0
  0
LINE
  5
   594
  8
0
  6
CONTINUOUS
 62
     1
 10
-393.101984292238
 20
-16.9875392913818
 30
0.0
 11
-393.101984292238
 21
-16.500904083252
 31
0.0
  0
LINE
  5
   595
  8
0
  6
CONTINUOUS
 62
     1
 10
-393.101984296847
 20
-17.3126983642578
 30
0.0
 11
-393.101984296847
 21
-16.9875392913818
 31
0.0
  0
LINE
  5
   596
  8
0
  6
CONTINUOUS
 62
     1
 10
-393.101984316134
 20
-17.4268798828125
 30
0.0
 11
-393.101984316134
 21
-17.3126983642578
 31
0.0
  0
LINE
  5
   597
  8
0
  6
CONTINUOUS
 62
     1
 10
-393.601984098209
 20
-17.1382052043055
 30
0.0
 11
-393.101984081744
 21
-17.426880496562
 31
0.0
  0
LINE
  5
   598
  8
0
  6
CONTINUOUS
 62
     1
 10
-389.60198439412
 20
60.3231182098389
 30
0.0
 11
-389.10198439412
 21
60.3231182098389
 31
0.0
  0
LINE
  5
   599
  8
0
  6
CONTINUOUS
 62
     7
 10
-390.35198439412
 20
60.3231182098389
 30
0.0
 11
-390.35198439412
 21
95.7274138270629
 31
0.0
  0
LINE
  5
   59A
  8
0
  6
CONTINUOUS
 62
     7
 10
-391.35198439412
 20
46.0731201171875
 30
0.0
 11
-391.35198439412
 21
53.5731182098389
 31
0.0
  0
LINE
  5
   59B
  8
0
  6
CONTINUOUS
 62
     7
 10
-390.35198439412
 20
-43.6633154992845
 30
0.0
 11
-390.35198439412
 21
-21.1768798828125
 31
0.0
  0
LINE
  5
   59C
  8
0
  6
CONTINUOUS
 62
     7
 10
-391.35198439412
 20
-44.3829416675089
 30
0.0
 11
-391.35198439412
 21
-17.4268798828125
 31
0.0
  0
LINE
  5
   59D
  8
0
  6
CONTINUOUS
 62
     3
 10
-393.237065346917
 20
-45.7394952503624
 30
0.0
 11
-388.375105079149
 21
-42.24070141281
 31
0.0
  0
LINE
  5
   59E
  8
0
  6
CONTINUOUS
 62
     3
 10
-393.736893037995
 20
97.3475410412254
 30
0.0
 11
-388.420543960156
 21
94.8029637048237
 31
0.0
  0
LINE
  5
   59F
  8
0
  6
CONTINUOUS
 62
     7
 10
-391.35198439412
 20
56.8231182098389
 30
0.0
 11
-390.35198439412
 21
56.8231182098389
 31
0.0
  0
LINE
  5
   5A0
  8
0
  6
CONTINUOUS
 62
     7
 10
-391.35198439412
 20
53.3231182098389
 30
0.0
 11
-390.35198439412
 21
53.3231182098389
 31
0.0
  0
LINE
  5
   5A1
  8
0
  6
CONTINUOUS
 62
     7
 10
-391.35198439412
 20
47.5731182098389
 30
0.0
 11
-390.35198439412
 21
47.5731182098389
 31
0.0
  0
LINE
  5
   5A2
  8
0
  6
CONTINUOUS
 62
     7
 10
-391.35198439412
 20
-8.4268798828125
 30
0.0
 11
-390.35198439412
 21
-8.4268798828125
 31
0.0
  0
LINE
  5
   5A3
  8
0
  6
CONTINUOUS
 62
     7
 10
-391.35198439412
 20
-14.1768798828125
 30
0.0
 11
-390.35198439412
 21
-14.1768798828125
 31
0.0
  0
LINE
  5
   5A4
  8
0
  6
CONTINUOUS
 62
     7
 10
-391.35198439412
 20
-17.6768798828125
 30
0.0
 11
-390.35198439412
 21
-17.6768798828125
 31
0.0
  0
LINE
  5
   5A5
  8
0
  6
CONTINUOUS
 62
     7
 10
-391.35198439412
 20
-14.4268798828125
 30
0.0
 11
-391.35198439412
 21
-7.9268798828125
 31
0.0
  0
LINE
  5
   5A6
  8
0
  6
CONTINUOUS
 62
     7
 10
-391.35198439412
 20
56.5731182098389
 30
0.0
 11
-391.35198439412
 21
96.2060463056953
 31
0.0
  0
INSERT
  5
   5A7
  8
0
  6
CONTINUOUS
 62
     7
  2
*HATCH1145
 10
-443.852569580078
 20
14.4481201171875
 30
0.0
 41
0.5
 42
0.5
 43
0.5
  0
INSERT
  5
   5A8
  8
0
  6
CONTINUOUS
 62
     7
  2
*HATCH1146
 10
-443.852569580078
 20
14.4481201171875
 30
0.0
 41
0.5
 42
0.5
 43
0.5
  0
INSERT
  5
   5A9
  8
0
  6
CONTINUOUS
 62
     7
  2
*HATCH1147
 10
-443.852569580078
 20
14.4481201171875
 30
0.0
 41
0.5
 42
0.5
 43
0.5
  0
INSERT
  5
   5AA
  8
0
  6
CONTINUOUS
 62
     7
  2
*HATCH1148
 10
-443.852569580078
 20
14.4481201171875
 30
0.0
 41
0.5
 42
0.5
 43
0.5
  0
LINE
  5
   5AB
  8
0
  6
DASHDOT
 62
     7
 10
-455.191918552744
 20
19.5731201171875
 30
0.0
 11
-374.249244420765
 21
19.5731201171875
 31
0.0
  0
LINE
  5
   5AC
  8
0
  6
DASHDOT
 62
     7
 10
-492.583415858064
 20
19.5731201171875
 30
0.0
 11
-485.86493190802
 21
19.5731201171875
 31
0.0
  0
LINE
  5
   5AD
  8
0
  6
CONTINUOUS
 62
     3
 10
-420.42896818508
 20
-8.56027649308994
 30
0.0
 11
-418.650180060825
 21
-23.2649249869352
 31
0.0
  0
INSERT
  5
   5AE
  8
0
  6
CONTINUOUS
 62
     7
  2
*HATCH1149
 10
-443.852569580078
 20
14.4481201171875
 30
0.0
 41
0.5
 42
0.5
 43
0.5
  0
LINE
  5
   5AF
  8
0
  6
CONTINUOUS
 62
     7
 10
-443.852568626404
 20
-21.8018736737858
 30
0.0
 11
-443.102568626406
 21
-21.8018736737858
 31
0.0
  0
LINE
  5
   5B0
  8
0
  6
CONTINUOUS
 62
     3
 10
-411.771832893455
 20
51.0773207373023
 30
0.0
 11
-411.035034126577
 21
64.7241152890383
 31
0.0
  0
LINE
  5
   5B1
  8
0
  6
CONTINUOUS
 62
     3
 10
-426.110812401008
 20
51.0773207373023
 30
0.0
 11
-411.771832893455
 21
51.0773207373023
 31
0.0
  0
LINE
  5
   5B2
  8
0
  6
CONTINUOUS
 62
     3
 10
-426.110812401008
 20
48.1653427359839
 30
0.0
 11
-426.110812401008
 21
51.0773207373023
 31
0.0
  0
LINE
  5
   5B3
  8
0
  6
CONTINUOUS
 62
     7
 10
-432.352569103241
 20
-19.5518736737859
 30
0.0
 11
-432.352569103241
 21
-17.0518798828125
 31
0.0
  0
LINE
  5
   5B4
  8
0
  6
CONTINUOUS
 62
     2
 10
-429.352568626404
 20
51.4481201171875
 30
0.0
 11
-429.352568626404
 21
79.4481201171875
 31
0.0
  0
LINE
  5
   5B5
  8
0
  6
CONTINUOUS
 62
     2
 10
-432.852568626404
 20
51.4481192103844
 30
0.0
 11
-432.852568626404
 21
54.4481201171875
 31
0.0
  0
LINE
  5
   5B6
  8
0
  6
DASHDOT
 62
     7
 10
-437.516082739388
 20
73.1981201171875
 30
0.0
 11
-427.058130605944
 21
73.1981201171875
 31
0.0
  0
LINE
  5
   5B7
  8
0
  6
CONTINUOUS
 62
     2
 10
-432.352568626404
 20
79.4481201171875
 30
0.0
 11
-429.352568626404
 21
79.4481201171875
 31
0.0
  0
LINE
  5
   5B8
  8
0
  6
CONTINUOUS
 62
     2
 10
-432.352568626404
 20
75.3231201171875
 30
0.0
 11
-429.352568626404
 21
75.3231201171875
 31
0.0
  0
LINE
  5
   5B9
  8
0
  6
CONTINUOUS
 62
     2
 10
-432.352568626404
 20
71.0731201171875
 30
0.0
 11
-429.352568626404
 21
71.0731201171875
 31
0.0
  0
LINE
  5
   5BA
  8
0
  6
CONTINUOUS
 62
     2
 10
-432.852568626404
 20
58.5731201171875
 30
0.0
 11
-429.352568626404
 21
58.5731201171875
 31
0.0
  0
LINE
  5
   5BB
  8
0
  6
CONTINUOUS
 62
     2
 10
-432.852568626404
 20
54.3231201171875
 30
0.0
 11
-429.352568626404
 21
54.3231201171875
 31
0.0
  0
LINE
  5
   5BC
  8
0
  6
CONTINUOUS
 62
     7
 10
-434.852568626404
 20
59.6981198787689
 30
0.0
 11
-434.852568626404
 21
60.9481201171875
 31
0.0
  0
LINE
  5
   5BD
  8
0
  6
CONTINUOUS
 62
     2
 10
-433.852568626404
 20
63.1981194400726
 30
0.0
 11
-433.852568626404
 21
63.9481194400726
 31
0.0
  0
LINE
  5
   5BE
  8
0
  6
CONTINUOUS
 62
     2
 10
-435.352568626404
 20
63.1981194400249
 30
0.0
 11
-433.852568626404
 21
63.1981194400249
 31
0.0
  0
LINE
  5
   5BF
  8
0
  6
CONTINUOUS
 62
     2
 10
-435.352568626404
 20
64.4481194019318
 30
0.0
 11
-434.352568626404
 21
64.4481194019318
 31
0.0
  0
LINE
  5
   5C0
  8
0
  6
CONTINUOUS
 62
     2
 10
-443.102568626404
 20
51.4481191635132
 30
0.0
 11
-442.352568626404
 21
51.4481191635132
 31
0.0
  0
LINE
  5
   5C1
  8
0
  6
CONTINUOUS
 62
     2
 10
-443.102568626404
 20
64.4481194019318
 30
0.0
 11
-435.352568626404
 21
64.4481194019318
 31
0.0
  0
LINE
  5
   5C2
  8
0
  6
CONTINUOUS
 62
     2
 10
-443.102568626404
 20
51.4481194019318
 30
0.0
 11
-443.102568626404
 21
64.4481194019318
 31
0.0
  0
LINE
  5
   5C3
  8
0
  6
CONTINUOUS
 62
     2
 10
-435.352568626404
 20
63.1981194400561
 30
0.0
 11
-435.352568626404
 21
64.4481194400561
 31
0.0
  0
LINE
  5
   5C4
  8
0
  6
CONTINUOUS
 62
     2
 10
-435.645462036133
 20
61.5981194972992
 30
0.0
 11
-435.352568626404
 21
61.5981194972992
 31
0.0
  0
LINE
  5
   5C5
  8
0
  6
CONTINUOUS
 62
     2
 10
-435.352568626404
 20
60.6981198787689
 30
0.0
 11
-435.352568626404
 21
63.1981194019318
 31
0.0
  0
LINE
  5
   5C6
  8
0
  6
CONTINUOUS
 62
     2
 10
-436.186611175537
 20
61.7981194257736
 30
0.0
 11
-435.845461845398
 21
61.7981194257736
 31
0.0
  0
LINE
  5
   5C7
  8
0
  6
CONTINUOUS
 62
     2
 10
-435.845461496872
 20
61.7981192539593
 30
0.0
 11
-435.645461689164
 21
61.59811932824
 31
0.0
  0
LINE
  5
   5C8
  8
0
  6
CONTINUOUS
 62
     2
 10
-442.352568605877
 20
51.4481193153173
 30
0.0
 11
-435.352568668323
 21
63.1981190358089
 31
0.0
  0
LINE
  5
   5C9
  8
0
  6
CONTINUOUS
 62
     2
 10
-435.102568626404
 20
52.1981201171875
 30
0.0
 11
-435.102568626404
 21
60.6981201171875
 31
0.0
  0
LINE
  5
   5CA
  8
0
  6
CONTINUOUS
 62
     2
 10
-434.352568266561
 20
64.4481193237049
 30
0.0
 11
-433.852568283675
 21
63.9481193829661
 31
0.0
  0
LINE
  5
   5CB
  8
0
  6
CONTINUOUS
 62
   210
 10
-434.852568626404
 20
53.1981201171875
 30
0.0
 11
-434.852568626404
 21
59.6981201171875
 31
0.0
  0
LINE
  5
   5CC
  8
0
  6
CONTINUOUS
 62
     1
 10
-394.102568625808
 20
64.9481196403503
 30
0.0
 11
-394.102568625808
 21
65.9481196403503
 31
0.0
  0
LINE
  5
   5CD
  8
0
  6
CONTINUOUS
 62
     1
 10
-444.602568164468
 20
65.9481196403503
 30
0.0
 11
-432.352568626404
 21
65.9481196403503
 31
0.0
  0
LINE
  5
   5CE
  8
0
  6
CONTINUOUS
 62
     1
 10
-444.602568164468
 20
64.9481196403503
 30
0.0
 11
-444.602568164468
 21
65.9481196403503
 31
0.0
  0
LINE
  5
   5CF
  8
0
  6
CONTINUOUS
 62
     1
 10
-444.102568149567
 20
64.4481196403503
 30
0.0
 11
-443.102568626404
 21
64.4481196403503
 31
0.0
  0
LINE
  5
   5D0
  8
0
  6
CONTINUOUS
 62
     1
 10
-434.352568626404
 20
64.4481196403503
 30
0.0
 11
-432.352568626404
 21
64.4481196403503
 31
0.0
  0
LINE
  5
   5D1
  8
0
  6
CONTINUOUS
 62
     1
 10
-434.477568626404
 20
61.7981194257736
 30
0.0
 11
-432.352568626404
 21
61.7981194257736
 31
0.0
  0
LINE
  5
   5D2
  8
0
  6
CONTINUOUS
 62
     1
 10
-434.977568626404
 20
60.1981194019318
 30
0.0
 11
-434.852568626404
 21
60.1981194019318
 31
0.0
  0
LINE
  5
   5D3
  8
0
  6
CONTINUOUS
 62
     1
 10
-429.227568626404
 20
60.9481201171875
 30
0.0
 11
-429.227568626404
 21
64.4481194019318
 31
0.0
  0
LINE
  5
   5D4
  8
0
  6
CONTINUOUS
 62
     1
 10
-434.977568626404
 20
60.1981194764376
 30
0.0
 11
-434.977568626404
 21
63.1981194764376
 31
0.0
  0
LINE
  5
   5D5
  8
0
  6
CONTINUOUS
 62
     1
 10
-444.602568164468
 20
65.9481196403503
 30
0.0
 11
-444.602568164468
 21
114.44811964035
 31
0.0
  0
LINE
  5
   5D6
  8
0
  6
CONTINUOUS
 62
     1
 10
-394.102568625808
 20
65.9481196403503
 30
0.0
 11
-394.102568625808
 21
114.44811964035
 31
0.0
  0
LINE
  5
   5D7
  8
0
  6
CONTINUOUS
 62
     1
 10
-429.352568626404
 20
61.4231191994374
 30
0.0
 11
-429.227569030942
 21
61.298119603976
 31
0.0
  0
LINE
  5
   5D8
  8
0
  6
CONTINUOUS
 62
     1
 10
-434.977568850815
 20
61.2981193943262
 30
0.0
 11
-434.477568867929
 21
61.7981193772119
 31
0.0
  0
LINE
  5
   5D9
  8
0
  6
CONTINUOUS
 62
     1
 10
-394.602569259036
 20
64.4481194007506
 30
0.0
 11
-394.10256927615
 21
64.9481193836363
 31
0.0
  0
LINE
  5
   5DA
  8
0
  6
CONTINUOUS
 62
     1
 10
-444.602568143075
 20
64.9481195932861
 30
0.0
 11
-444.102568160189
 21
64.4481196104004
 31
0.0
  0
LINE
  5
   5DB
  8
0
  6
CONTINUOUS
 62
     2
 10
-443.102568626404
 20
63.9481194615364
 30
0.0
 11
-435.352568626404
 21
63.9481194615364
 31
0.0
  0
LINE
  5
   5DC
  8
0
  6
CONTINUOUS
 62
     2
 10
-443.102568626404
 20
51.9481191635132
 30
0.0
 11
-442.054696321487
 21
51.9481191635132
 31
0.0
  0
LINE
  5
   5DD
  8
0
  6
CONTINUOUS
 62
     2
 10
-441.905759572983
 20
52.1981201171875
 30
0.0
 11
-435.102568387985
 21
52.1981201171875
 31
0.0
  0
LINE
  5
   5DE
  8
0
  6
CONTINUOUS
 62
     2
 10
-436.841930389404
 20
60.6981198787689
 30
0.0
 11
-435.102568626404
 21
60.6981198787689
 31
0.0
  0
LINE
  5
   5DF
  8
0
  6
CONTINUOUS
 62
   210
 10
-435.102568626404
 20
59.6981198787689
 30
0.0
 11
-434.852568626404
 21
59.6981198787689
 31
0.0
  0
LINE
  5
   5E0
  8
0
  6
CONTINUOUS
 62
   210
 10
-435.102568626404
 20
53.1981201171875
 30
0.0
 11
-434.852568626404
 21
53.1981201171875
 31
0.0
  0
LINE
  5
   5E1
  8
0
  6
CONTINUOUS
 62
     1
 10
-444.602568164468
 20
114.44811964035
 30
0.0
 11
-394.102568625808
 21
114.44811964035
 31
0.0
  0
INSERT
  5
   5E2
  8
0
  6
CONTINUOUS
 62
     2
  2
*HATCH1150
 10
-443.852569580078
 20
14.4481201171875
 30
0.0
 41
0.5
 42
0.5
 43
0.5
  0
INSERT
  5
   5E3
  8
0
  6
CONTINUOUS
 62
     2
  2
*HATCH1151
 10
-443.852569580078
 20
14.4481201171875
 30
0.0
 41
0.5
 42
0.5
 43
0.5
  0
INSERT
  5
   5E4
  8
0
  6
CONTINUOUS
 62
     2
  2
*HATCH1152
 10
-443.852569580078
 20
14.4481201171875
 30
0.0
 41
0.5
 42
0.5
 43
0.5
  0
INSERT
  5
   5E5
  8
0
  6
CONTINUOUS
 62
     2
  2
*HATCH1153
 10
-443.852569580078
 20
14.4481201171875
 30
0.0
 41
0.5
 42
0.5
 43
0.5
  0
INSERT
  5
   5E6
  8
0
  6
CONTINUOUS
 62
     2
  2
*HATCH1154
 10
-443.852569580078
 20
14.4481201171875
 30
0.0
 41
0.5
 42
0.5
 43
0.5
  0
LINE
  5
   5E7
  8
0
  6
CONTINUOUS
 62
     1
 10
-429.352568626404
 20
65.9481196403503
 30
0.0
 11
-394.102568163872
 21
65.9481196403503
 31
0.0
  0
LINE
  5
   5E8
  8
0
  6
CONTINUOUS
 62
     1
 10
-429.352568626404
 20
64.4481196403503
 30
0.0
 11
-394.602568625808
 21
64.4481196403503
 31
0.0
  0
LINE
  5
   5E9
  8
0
  6
CONTINUOUS
 62
     2
 10
-394.102568625808
 20
51.5731201171875
 30
0.0
 11
-394.102568625808
 21
63.8231201171875
 31
0.0
  0
LINE
  5
   5EA
  8
0
  6
CONTINUOUS
 62
     2
 10
-420.102568543195
 20
64.4481201171875
 30
0.0
 11
-394.727568625808
 21
64.4481201171875
 31
0.0
  0
ARC
  5
   5EB
  8
0
  6
CONTINUOUS
 62
     2
 10
-394.727568625808
 20
63.8231201171875
 30
0.0
 40
0.625
 50
0.0
 51
90.0
  0
LINE
  5
   5EC
  8
0
  6
CONTINUOUS
 62
     2
 10
-394.602568625807
 20
51.5731201171875
 30
0.0
 11
-394.102568625808
 21
51.5731201171875
 31
0.0
  0
LINE
  5
   5ED
  8
0
  6
CONTINUOUS
 62
     2
 10
-394.602568625807
 20
51.0731201171875
 30
0.0
 11
-394.602568625807
 21
51.5731201171875
 31
0.0
  0
LINE
  5
   5EE
  8
0
  6
CONTINUOUS
 62
     7
 10
-428.852568626404
 20
51.9481201171875
 30
0.0
 11
-428.852568626404
 21
60.9481201171875
 31
0.0
  0
LINE
  5
   5EF
  8
0
  6
CONTINUOUS
 62
     7
 10
-429.352568626404
 20
60.9481201171875
 30
0.0
 11
-428.852568626404
 21
60.9481201171875
 31
0.0
  0
LINE
  5
   5F0
  8
0
  6
CONTINUOUS
 62
     7
 10
-429.352568626404
 20
51.9481201171875
 30
0.0
 11
-428.852568626404
 21
51.9481201171875
 31
0.0
  0
LINE
  5
   5F1
  8
0
  6
CONTINUOUS
 62
     2
 10
-432.352568626404
 20
58.4481201171875
 30
0.0
 11
-432.352568626404
 21
79.4481201171875
 31
0.0
  0
LINE
  5
   5F2
  8
0
  6
CONTINUOUS
 62
     2
 10
-433.852568626406
 20
-22.5518792056976
 30
0.0
 11
-433.852568626406
 21
-21.8018792056976
 31
0.0
  0
LINE
  5
   5F3
  8
0
  6
CONTINUOUS
 62
     2
 10
-435.352568626406
 20
-21.8018792056499
 30
0.0
 11
-433.852568626406
 21
-21.8018792056499
 31
0.0
  0
LINE
  5
   5F4
  8
0
  6
CONTINUOUS
 62
     2
 10
-435.352568626406
 20
-23.0518791675568
 30
0.0
 11
-434.352568626406
 21
-23.0518791675568
 31
0.0
  0
LINE
  5
   5F5
  8
0
  6
CONTINUOUS
 62
     2
 10
-443.102568626406
 20
-10.0518789291382
 30
0.0
 11
-442.352568626406
 21
-10.0518789291382
 31
0.0
  0
LINE
  5
   5F6
  8
0
  6
CONTINUOUS
 62
     2
 10
-443.102568626406
 20
-23.0518791675568
 30
0.0
 11
-435.352568626406
 21
-23.0518791675568
 31
0.0
  0
LINE
  5
   5F7
  8
0
  6
CONTINUOUS
 62
     2
 10
-443.102568626406
 20
-23.0518791675568
 30
0.0
 11
-443.102568626406
 21
-10.0518791675568
 31
0.0
  0
LINE
  5
   5F8
  8
0
  6
CONTINUOUS
 62
     2
 10
-435.352568626406
 20
-23.0518792056811
 30
0.0
 11
-435.352568626406
 21
-21.8018792056811
 31
0.0
  0
LINE
  5
   5F9
  8
0
  6
CONTINUOUS
 62
     2
 10
-435.645462036135
 20
-20.2018792629242
 30
0.0
 11
-435.352568626406
 21
-20.2018792629242
 31
0.0
  0
LINE
  5
   5FA
  8
0
  6
CONTINUOUS
 62
     2
 10
-435.352568626406
 20
-21.8018791675568
 30
0.0
 11
-435.352568626406
 21
-19.3018796443939
 31
0.0
  0
LINE
  5
   5FB
  8
0
  6
CONTINUOUS
 62
     2
 10
-436.18661117554
 20
-20.4018791913986
 30
0.0
 11
-435.8454618454
 21
-20.4018791913986
 31
0.0
  0
LINE
  5
   5FC
  8
0
  6
CONTINUOUS
 62
     2
 10
-435.845461496875
 20
-20.4018790195843
 30
0.0
 11
-435.645461689167
 21
-20.201879093865
 31
0.0
  0
LINE
  5
   5FD
  8
0
  6
CONTINUOUS
 62
     2
 10
-442.35256860588
 20
-10.0518790809423
 30
0.0
 11
-435.352568668325
 21
-21.8018788014339
 31
0.0
  0
LINE
  5
   5FE
  8
0
  6
CONTINUOUS
 62
     2
 10
-435.102568626406
 20
-19.3018798828125
 30
0.0
 11
-435.102568626406
 21
-10.8018798828125
 31
0.0
  0
LINE
  5
   5FF
  8
0
  6
CONTINUOUS
 62
     2
 10
-434.352568266563
 20
-23.0518790893299
 30
0.0
 11
-433.852568283677
 21
-22.5518791485911
 31
0.0
  0
LINE
  5
   600
  8
0
  6
CONTINUOUS
 62
   210
 10
-434.852568626406
 20
-18.3018798828125
 30
0.0
 11
-434.852568626406
 21
-11.8018798828125
 31
0.0
  0
LINE
  5
   601
  8
0
  6
CONTINUOUS
 62
     2
 10
-443.102568626406
 20
-22.5518792271614
 30
0.0
 11
-435.352568626406
 21
-22.5518792271614
 31
0.0
  0
LINE
  5
   602
  8
0
  6
CONTINUOUS
 62
     2
 10
-443.102568626406
 20
-10.5518789291382
 30
0.0
 11
-442.05469632149
 21
-10.5518789291382
 31
0.0
  0
LINE
  5
   603
  8
0
  6
CONTINUOUS
 62
     2
 10
-441.905759572985
 20
-10.8018798828125
 30
0.0
 11
-435.102568387988
 21
-10.8018798828125
 31
0.0
  0
LINE
  5
   604
  8
0
  6
CONTINUOUS
 62
     2
 10
-436.841930389407
 20
-19.3018796443939
 30
0.0
 11
-435.102568626406
 21
-19.3018796443939
 31
0.0
  0
LINE
  5
   605
  8
0
  6
CONTINUOUS
 62
   210
 10
-435.102568626406
 20
-18.3018796443939
 30
0.0
 11
-434.852568626406
 21
-18.3018796443939
 31
0.0
  0
LINE
  5
   606
  8
0
  6
CONTINUOUS
 62
   210
 10
-435.102568626406
 20
-11.8018798828125
 30
0.0
 11
-434.852568626406
 21
-11.8018798828125
 31
0.0
  0
LINE
  5
   607
  8
0
  6
CONTINUOUS
 62
     7
 10
-435.352568626406
 20
-21.8018736737858
 30
0.0
 11
-407.852568626404
 21
-21.8018736737858
 31
0.0
  0
LINE
  5
   608
  8
0
  6
CONTINUOUS
 62
     7
 10
-429.852568626404
 20
-19.5518798828125
 30
0.0
 11
-429.352568626404
 21
-19.5518798828125
 31
0.0
  0
LINE
  5
   609
  8
0
  6
CONTINUOUS
 62
     7
 10
-429.352568626404
 20
-19.5518798828125
 30
0.0
 11
-429.352568626404
 21
-10.5518798828125
 31
0.0
  0
LINE
  5
   60A
  8
0
  6
CONTINUOUS
 62
     7
 10
-429.852568626404
 20
-10.5518798828125
 30
0.0
 11
-429.352568626404
 21
-10.5518798828125
 31
0.0
  0
LINE
  5
   60B
  8
0
  6
CONTINUOUS
 62
     7
 10
-429.852568626404
 20
-19.5518798828125
 30
0.0
 11
-429.852568626404
 21
-10.5518798828125
 31
0.0
  0
LINE
  5
   60C
  8
0
  6
CONTINUOUS
 62
     7
 10
-432.352569103241
 20
-13.0518798828125
 30
0.0
 11
-432.352569103241
 21
-9.05187367378595
 31
0.0
  0
LINE
  5
   60D
  8
0
  6
CONTINUOUS
 62
     7
 10
-433.352569103241
 20
-13.0518798828125
 30
0.0
 11
-433.352569103241
 21
-8.56027649308994
 31
0.0
  0
LINE
  5
   60E
  8
0
  6
CONTINUOUS
 62
     1
 10
-429.152568626404
 20
-18.6468798828125
 30
0.0
 11
-429.152568626404
 21
-11.4568798828125
 31
0.0
  0
ARC
  5
   60F
  8
0
  6
CONTINUOUS
 62
     1
 10
-427.975736436848
 20
-17.7481298828125
 30
0.0
 40
1.37316781044413
 50
319.1176078909
 51
400.8823921091
  0
ARC
  5
   610
  8
0
  6
CONTINUOUS
 62
     1
 10
-427.975736436848
 20
-12.3556298828125
 30
0.0
 40
1.37316781044413
 50
319.1176078909
 51
400.8823921091
  0
LINE
  5
   611
  8
0
  6
CONTINUOUS
 62
     1
 10
-429.152568626404
 20
-16.8493798828125
 30
0.0
 11
-426.910970869673
 21
-16.8493798828125
 31
0.0
  0
ARC
  5
   612
  8
0
  6
CONTINUOUS
 62
     1
 10
-431.995068626404
 20
-15.0518798828125
 30
0.0
 40
5.3925
 50
340.528779365509
 51
379.471220634491
  0
LINE
  5
   613
  8
0
  6
CONTINUOUS
 62
     1
 10
-429.152568626404
 20
-13.2543798828125
 30
0.0
 11
-426.910970869673
 21
-13.2543798828125
 31
0.0
  0
LINE
  5
   614
  8
0
  6
CONTINUOUS
 62
     1
 10
-429.152568626404
 20
-18.6468798828125
 30
0.0
 11
-426.937546534595
 21
-18.6468798828125
 31
0.0
  0
LINE
  5
   615
  8
0
  6
CONTINUOUS
 62
     1
 10
-429.152568626404
 20
-11.4568798828125
 30
0.0
 11
-426.937546534595
 21
-11.4568798828125
 31
0.0
  0
LINE
  5
   616
  8
0
  6
CONTINUOUS
 62
     1
 10
-429.352568626404
 20
-18.1018798828125
 30
0.0
 11
-429.152568626404
 21
-18.1018798828125
 31
0.0
  0
LINE
  5
   617
  8
0
  6
CONTINUOUS
 62
     1
 10
-429.352568626404
 20
-12.0018798828125
 30
0.0
 11
-429.152568626404
 21
-12.0018798828125
 31
0.0
  0
LINE
  5
   618
  8
0
  6
CONTINUOUS
 62
     7
 10
-434.852568626406
 20
-16.6684861328125
 30
0.0
 11
-430.602568626404
 21
-16.6684861328125
 31
0.0
  0
LINE
  5
   619
  8
0
  6
CONTINUOUS
 62
     7
 10
-434.852568626406
 20
-13.4352736328125
 30
0.0
 11
-430.602568626404
 21
-13.4352736328125
 31
0.0
  0
LINE
  5
   61A
  8
0
  6
CONTINUOUS
 62
     1
 10
-434.852568626406
 20
-13.0518798828125
 30
0.0
 11
-429.852568626404
 21
-13.0518798828125
 31
0.0
  0
LINE
  5
   61B
  8
0
  6
CONTINUOUS
 62
     1
 10
-434.852568626406
 20
-17.0518798828125
 30
0.0
 11
-429.852568626404
 21
-17.0518798828125
 31
0.0
  0
LINE
  5
   61C
  8
0
  6
CONTINUOUS
 62
     1
 10
-430.602568626404
 20
-17.0518798828125
 30
0.0
 11
-430.602568626404
 21
-13.0518798828125
 31
0.0
  0
LINE
  5
   61D
  8
0
  6
CONTINUOUS
 62
     1
 10
-429.352568626404
 20
-18.1018798828125
 30
0.0
 11
-429.352568626404
 21
-12.0018798828125
 31
0.0
  0
LINE
  5
   61E
  8
0
  6
CONTINUOUS
 62
     1
 10
-426.602568626404
 20
-17.7481298828125
 30
0.0
 11
-426.602568626404
 21
-12.3556298828125
 31
0.0
  0
LINE
  5
   61F
  8
0
  6
DASHDOT
 62
     7
 10
-436.352568626404
 20
-15.0518798828125
 30
0.0
 11
-424.602568626404
 21
-15.0518798828125
 31
0.0
  0
LINE
  5
   620
  8
0
  6
CONTINUOUS
 62
     1
 10
-428.652568626404
 20
52.8531201171875
 30
0.0
 11
-428.652568626404
 21
60.0431201171875
 31
0.0
  0
ARC
  5
   621
  8
0
  6
CONTINUOUS
 62
     1
 10
-427.475736436848
 20
53.7518701171875
 30
0.0
 40
1.37316781044413
 50
319.1176078909
 51
400.8823921091
  0
ARC
  5
   622
  8
0
  6
CONTINUOUS
 62
     1
 10
-427.475736436848
 20
59.1443701171875
 30
0.0
 40
1.37316781044413
 50
319.1176078909
 51
400.8823921091
  0
LINE
  5
   623
  8
0
  6
CONTINUOUS
 62
     1
 10
-428.652568626404
 20
54.6506201171875
 30
0.0
 11
-426.410970869673
 21
54.6506201171875
 31
0.0
  0
ARC
  5
   624
  8
0
  6
CONTINUOUS
 62
     1
 10
-431.495068626404
 20
56.4481201171875
 30
0.0
 40
5.3925
 50
340.528779365509
 51
379.471220634491
  0
LINE
  5
   625
  8
0
  6
CONTINUOUS
 62
     1
 10
-428.652568626404
 20
58.2456201171875
 30
0.0
 11
-426.410970869673
 21
58.2456201171875
 31
0.0
  0
LINE
  5
   626
  8
0
  6
CONTINUOUS
 62
     1
 10
-428.652568626404
 20
52.8531201171875
 30
0.0
 11
-426.437546534595
 21
52.8531201171875
 31
0.0
  0
LINE
  5
   627
  8
0
  6
CONTINUOUS
 62
     1
 10
-428.652568626404
 20
60.0431201171875
 30
0.0
 11
-426.437546534595
 21
60.0431201171875
 31
0.0
  0
LINE
  5
   628
  8
0
  6
CONTINUOUS
 62
     1
 10
-428.852568626404
 20
53.3981201171875
 30
0.0
 11
-428.652568626404
 21
53.3981201171875
 31
0.0
  0
LINE
  5
   629
  8
0
  6
CONTINUOUS
 62
     1
 10
-428.852568626404
 20
59.4981201171875
 30
0.0
 11
-428.652568626404
 21
59.4981201171875
 31
0.0
  0
LINE
  5
   62A
  8
0
  6
CONTINUOUS
 62
     7
 10
-434.852568626404
 20
54.8315138671875
 30
0.0
 11
-430.602568626404
 21
54.8315138671875
 31
0.0
  0
LINE
  5
   62B
  8
0
  6
CONTINUOUS
 62
     7
 10
-434.852568626404
 20
58.0647263671875
 30
0.0
 11
-430.602568626404
 21
58.0647263671875
 31
0.0
  0
LINE
  5
   62C
  8
0
  6
CONTINUOUS
 62
     1
 10
-434.852568626404
 20
58.4481201171875
 30
0.0
 11
-429.352568626404
 21
58.4481201171875
 31
0.0
  0
LINE
  5
   62D
  8
0
  6
CONTINUOUS
 62
     1
 10
-434.852568626404
 20
54.4481201171875
 30
0.0
 11
-429.352568626404
 21
54.4481201171875
 31
0.0
  0
LINE
  5
   62E
  8
0
  6
CONTINUOUS
 62
     1
 10
-430.602568626404
 20
54.4481201171875
 30
0.0
 11
-430.602568626404
 21
58.4481201171875
 31
0.0
  0
LINE
  5
   62F
  8
0
  6
CONTINUOUS
 62
     1
 10
-428.852568626404
 20
53.3981201171875
 30
0.0
 11
-428.852568626404
 21
59.4981201171875
 31
0.0
  0
LINE
  5
   630
  8
0
  6
CONTINUOUS
 62
     1
 10
-426.102568626404
 20
53.7518701171875
 30
0.0
 11
-426.102568626404
 21
59.1443701171875
 31
0.0
  0
CIRCLE
  5
   631
  8
0
  6
CONTINUOUS
 62
     2
 10
-431.44464181369
 20
77.3327311583402
 30
0.0
 40
0.15
  0
CIRCLE
  5
   632
  8
0
  6
CONTINUOUS
 62
     2
 10
-434.152414984348
 20
-10.2497251891397
 30
0.0
 40
0.15
  0
LINE
  5
   633
  8
0
  6
CONTINUOUS
 62
     7
 10
-432.852568626404
 20
58.4481201171875
 30
0.0
 11
-432.852568626404
 21
60.9481201171875
 31
0.0
  0
LINE
  5
   634
  8
0
  6
CONTINUOUS
 62
     7
 10
-432.352568626404
 20
51.4481201171875
 30
0.0
 11
-432.352568626404
 21
54.4481201171875
 31
0.0
  0
LINE
  5
   635
  8
0
  6
DASHDOT
 62
     7
 10
-454.7385592325
 20
55.4481201171875
 30
0.0
 11
-441.385607426181
 21
55.4481201171875
 31
0.0
  0
LINE
  5
   636
  8
0
  6
CONTINUOUS
 62
     7
 10
-448.352568626404
 20
53.4481201171875
 30
0.0
 11
-448.352568626404
 21
57.4481201171875
 31
0.0
  0
LINE
  5
   637
  8
0
  6
CONTINUOUS
 62
     7
 10
-450.352568626404
 20
54.1981201171875
 30
0.0
 11
-450.352568626404
 21
56.6981201171875
 31
0.0
  0
LINE
  5
   638
  8
0
  6
CONTINUOUS
 62
     7
 10
-448.352568626404
 20
53.4481201171875
 30
0.0
 11
-446.352568626404
 21
53.4481201171875
 31
0.0
  0
LINE
  5
   639
  8
0
  6
CONTINUOUS
 62
     7
 10
-448.352568626404
 20
57.4481201171875
 30
0.0
 11
-446.352568626404
 21
57.4481201171875
 31
0.0
  0
LINE
  5
   63A
  8
0
  6
CONTINUOUS
 62
     7
 10
-450.352568626404
 20
56.6981201171875
 30
0.0
 11
-446.352568626404
 21
56.6981201171875
 31
0.0
  0
LINE
  5
   63B
  8
0
  6
CONTINUOUS
 62
     7
 10
-450.352568626404
 20
54.1981201171875
 30
0.0
 11
-446.352568626404
 21
54.1981201171875
 31
0.0
  0
LINE
  5
   63C
  8
0
  6
CONTINUOUS
 62
     7
 10
-448.352568626404
 20
-12.0518798828125
 30
0.0
 11
-446.352568626404
 21
-12.0518798828125
 31
0.0
  0
LINE
  5
   63D
  8
0
  6
CONTINUOUS
 62
     7
 10
-450.352568626404
 20
-12.8018798828125
 30
0.0
 11
-446.352568626404
 21
-12.8018798828125
 31
0.0
  0
LINE
  5
   63E
  8
0
  6
DASHDOT
 62
     7
 10
-454.7385592325
 20
-14.0518798828125
 30
0.0
 11
-441.385607426181
 21
-14.0518798828125
 31
0.0
  0
LINE
  5
   63F
  8
0
  6
CONTINUOUS
 62
     7
 10
-450.352568626404
 20
-15.3018798828125
 30
0.0
 11
-446.352568626404
 21
-15.3018798828125
 31
0.0
  0
LINE
  5
   640
  8
0
  6
CONTINUOUS
 62
     7
 10
-448.352568626404
 20
-16.0518798828125
 30
0.0
 11
-446.352568626404
 21
-16.0518798828125
 31
0.0
  0
LINE
  5
   641
  8
0
  6
CONTINUOUS
 62
     7
 10
-448.352568626404
 20
-16.0518798828125
 30
0.0
 11
-448.352568626404
 21
-12.0518798828125
 31
0.0
  0
LINE
  5
   642
  8
0
  6
CONTINUOUS
 62
     7
 10
-450.352568626404
 20
-15.3018798828125
 30
0.0
 11
-450.352568626404
 21
-12.8018798828125
 31
0.0
  0
CIRCLE
  5
   643
  8
0
  6
CONTINUOUS
 62
     7
 10
-447.777977971759
 20
-14.2803555835155
 30
0.0
 40
0.1
  0
TEXT
  5
   644
  8
0
  6
CONTINUOUS
 62
     1
 10
-400.633267098665
 20
-138.398864655496
 30
0.0
 40
2.00000008940697
  1
M 3076 95-01-16
 41
0.749999861419206
 72
     2
 11
-378.433270215988
 21
-138.398864655496
 31
0.0
  0
TEXT
  5
   645
  8
0
  6
CONTINUOUS
 62
     7
 10
-364.083366141603
 20
14.311660401523
 30
0.0
 40
3.00000002980232
  1
=  =
 50
90.0
 41
0.916666604744064
 72
     2
 11
-364.083366141616
 21
24.7616597950458
 31
0.0
  0
INSERT
  5
   646
  8
0
  6
CONTINUOUS
 62
     2
  2
*UDIM1688
 10
0.0
 20
0.0
 30
0.0
  0
INSERT
  5
   647
  8
0
  6
CONTINUOUS
 62
     7
  2
*UDIM1689
 10
0.0
 20
0.0
 30
0.0
  0
INSERT
  5
   648
  8
0
  6
CONTINUOUS
 62
     7
  2
*UDIM1690
 10
0.0
 20
0.0
 30
0.0
  0
INSERT
  5
   649
  8
0
  6
CONTINUOUS
 62
     7
  2
*UDIM1691
 10
0.0
 20
0.0
 30
0.0
  0
INSERT
  5
   64A
  8
0
  6
CONTINUOUS
 62
     7
  2
*UDIM1692
 10
0.0
 20
0.0
 30
0.0
  0
INSERT
  5
   64B
  8
0
  6
CONTINUOUS
 62
     7
  2
*UDIM1693
 10
0.0
 20
0.0
 30
0.0
  0
INSERT
  5
   64C
  8
0
  6
CONTINUOUS
 62
     7
  2
*UDIM1694
 10
0.0
 20
0.0
 30
0.0
  0
INSERT
  5
   64D
  8
0
  6
CONTINUOUS
 62
     7
  2
*UDIM1695
 10
0.0
 20
0.0
 30
0.0
  0
INSERT
  5
   64E
  8
0
  6
CONTINUOUS
 62
     5
  2
*UDIM1696
 10
0.0
 20
0.0
 30
0.0
  0
INSERT
  5
   64F
  8
0
  6
CONTINUOUS
 62
     7
  2
*UDIM1697
 10
0.0
 20
0.0
 30
0.0
  0
INSERT
  5
   650
  8
0
  6
CONTINUOUS
 62
     7
  2
*UDIM1698
 10
0.0
 20
0.0
 30
0.0
  0
INSERT
  5
   651
  8
0
  6
CONTINUOUS
 62
     7
  2
*UDIM1699
 10
0.0
 20
0.0
 30
0.0
  0
TEXT
  5
   652
  8
0
  6
CONTINUOUS
 62
     7
 10
-361.151519596577
 20
18.1695581140128
 30
0.0
 40
3.00000002980232
  1
X
 41
0.916666604744064
 72
     2
 11
-358.951519727707
 21
18.1695581140128
 31
0.0
  0
INSERT
  5
   653
  8
0
  6
CONTINUOUS
 62
     7
  2
*UDIM1700
 10
0.0
 20
0.0
 30
0.0
  0
INSERT
  5
   654
  8
0
  6
CONTINUOUS
 62
     7
  2
*UDIM1701
 10
0.0
 20
0.0
 30
0.0
  0
INSERT
  5
   655
  8
0
  6
CONTINUOUS
 62
     7
  2
*UDIM1702
 10
0.0
 20
0.0
 30
0.0
  0
INSERT
  5
   656
  8
0
  6
CONTINUOUS
 62
     7
  2
*UDIM1703
 10
0.0
 20
0.0
 30
0.0
  0
INSERT
  5
   657
  8
0
  6
CONTINUOUS
 62
     7
  2
*UDIM1704
 10
0.0
 20
0.0
 30
0.0
  0
INSERT
  5
   658
  8
0
  6
CONTINUOUS
 62
     7
  2
*UDIM1705
 10
0.0
 20
0.0
 30
0.0
  0
INSERT
  5
   659
  8
0
  6
CONTINUOUS
 62
     7
  2
*UDIM1706
 10
0.0
 20
0.0
 30
0.0
  0
TEXT
  5
   65A
  8
0
  6
CONTINUOUS
 62
     1
 10
-406.690109165507
 20
-123.287322051494
 30
0.0
 40
2.00000008940697
  1
93-04-05 ROTA S.
 41
0.749999861419206
 72
     2
 11
-382.990112492936
 21
-123.287322051494
 31
0.0
  0
TEXT
  5
   65B
  8
0
  6
CONTINUOUS
 62
     1
 10
-305.69555646578
 20
-149.360411170077
 30
0.0
 40
4.00000017881393
  1
601812/071
 41
0.937499973922969
 72
     2
 11
-268.945555866008
 21
-149.360411170077
 31
0.0
  0
TEXT
  5
   65C
  8
0
  6
CONTINUOUS
 62
     1
 10
-287.609863150116
 20
-140.378829769486
 30
0.0
 40
3.00000002980232
  1
S3
 41
0.916666604744064
 72
     2
 11
-282.659863439695
 21
-140.378829769486
 31
0.0
  0
TEXT
  5
   65D
  8
0
  6
CONTINUOUS
 62
     1
 10
-316.144283136729
 20
-122.068557797075
 30
0.0
 40
2.00000008940697
  1
4POLE LOW VOLTAGE M.C.C.B SERIES ISOMAX
 41
0.749999861419206
 72
     1
 11
-287.044287216667
 21
-121.068557752371
 31
0.0
 73
     2
  0
TEXT
  5
   65E
  8
0
  6
CONTINUOUS
 62
     1
 10
-319.894282349195
 20
-125.068557797075
 30
0.0
 40
2.00000008940697
  1
FIXED VERSION FRONT+EXTENDED FRONT TERMINALS
 41
0.749999861419206
 72
     1
 11
-287.044286954399
 21
-124.068557752371
 31
0.0
 73
     2
  0
TEXT
  5
   65F
  8
0
  6
CONTINUOUS
 62
     1
 10
-312.941891504083
 20
-130.138824520708
 30
0.0
 40
2.00000008940697
  1
INTERR.AUTOMATICO SERIE ISOMAX
 41
0.749999861419206
 72
     1
 11
-290.591894638542
 21
-129.138824476004
 31
0.0
 73
     2
  0
TEXT
  5
   660
  8
0
  6
CONTINUOUS
 62
     1
 10
-327.191889245804
 20
-133.138824520708
 30
0.0
 40
2.00000008940697
  1
TETRAP.ESECUZIONE FISSA TERMINALI ANT.E ANT.PROL.
 41
0.749999861419206
 72
     1
 11
-290.591894376274
 21
-132.138824476004
 31
0.0
 73
     2
  0
ENDSEC
  0
EOF
