  0
SECTION
  2
HEADER
  9
$ACADVER
  1
AC1009
999
I-DEAS Drafting Master Series 7m3 Not Encoded
  9
$EXTMIN
 10
0.0
 20
0.0
  9
$EXTMAX
 10
1.835364E+002
 20
2.5060825E+002
  9
$TEXTSIZE
 40
1.25E-001
  9
$LTSCALE
 40
1.0
  9
$CLAYER
  8
AUTOCAD0
  9
$CECOLOR
 62
1
  9
$DIMASZ
 40
1.25E-001
  9
$DIMEXO
 40
6.25E-002
  9
$DIMDLI
 40
2.5E-001
  9
$DIMEXE
 40
1.25E-001
  9
$DIMTP
 40
5.0E-003
  9
$DIMTM
 40
-5.0E-003
  9
$DIMTXT
 40
1.25E-001
  9
$DIMLIM
 70
0
  9
$DIMTIH
 70
1
  9
$DIMTOH
 70
1
  9
$DIMSE1
 70
0
  9
$DIMSE2
 70
0
  9
$DIMTAD
 70
0
  9
$DIMASO
 70
1
  9
$DIMALT
 70
0
  9
$DIMALTD
 70
0
  9
$DIMTOFL
 70
1
  9
$DIMTIX
 70
0
  9
$DIMSAH
 70
0
  9
$DIMTFAC
 40
1.0
  9
$DIMGAP
 40
6.25E-002
  9
$LUNITS
 70
2
  9
$LUPREC
 70
3
  9
$FILLETRAD
 40
2.5E-001
  9
$AUNITS
 70
0
  9
$AUPREC
 70
1
  9
$CHAMFERA
 40
2.5E-001
  9
$CHAMFERB
 40
2.5E-001
  9
$ANGBASE
 50
0.0
  9
$ANGDIR
 70
0
  9
$PDMODE
 70
2
  9
$PDSIZE
 40
-1.0E-002
  9
$SPLINETYPE
 70
6
  0
ENDSEC
  0
SECTION
  2
TABLES
  0
TABLE
  2
LTYPE
 70
8
  0
LTYPE
  2
HIDDENNEW00
  3
_ 
 70
64
 72
65
 73
2
 40
1.875E-001
 49
1.25E-001
 49
-6.25E-002
  0
LTYPE
  2
HIDDENNEW01
  3
_ 
 70
64
 72
65
 73
2
 40
1.875E-001
 49
1.25E-001
 49
-6.25E-002
  0
LTYPE
  2
HIDDEN
  3
_ 
 70
64
 72
65
 73
2
 40
1.875E-001
 49
1.25E-001
 49
-6.25E-002
  0
LTYPE
  2
CENTERLINE
  3
_ 
 70
64
 72
65
 73
4
 40
1.25
 49
1.0
 49
-6.25E-002
 49
1.25E-001
 49
-6.25E-002
  0
LTYPE
  2
PHANTOM
  3
_ 
 70
64
 72
65
 73
6
 40
1.1875
 49
7.5E-001
 49
-6.25E-002
 49
1.25E-001
 49
-6.25E-002
 49
1.25E-001
 49
-6.25E-002
  0
LTYPE
  2
SHORT_DASH
  3
_ 
 70
64
 72
65
 73
2
 40
1.25E-001
 49
6.25E-002
 49
-6.25E-002
  0
LTYPE
  2
LONG_DASH
  3
_ 
 70
64
 72
65
 73
2
 40
3.75E-001
 49
1.875E-001
 49
-1.875E-001
  0
LTYPE
  2
PKV1
  3
_ 
 70
64
 72
65
 73
4
 40
8.06
 49
6.0
 49
-1.0
 49
6.0E-002
 49
-1.0
  0
ENDTAB
  0
TABLE
  2
LAYER
 70
258
  0
LAYER
  2
AUTOCAD0
 70
0
 62
7
  6
HIDDENNEW00
  0
LAYER
  2
Drafting_Hidden_Entities
 70
1
 62
7
  6
CONTINUOUS
  0
ENDTAB
  0
TABLE
  2
STYLE
 70
1
  0
STYLE
  2
STANDARD
 70
64
 40
0.0
 41
1.0
 50
0.0
 71
0
 42
1.0
  3
monotxt.shx
  4

  0
ENDTAB
  0
TABLE
  2
VIEW
 70
0
  0
ENDTAB
  0
TABLE
  2
DIMSTYLE
 70
0
  0
ENDTAB
  0
ENDSEC
  0
SECTION
  2
BLOCKS
  0
ENDSEC
  0
SECTION
  2
ENTITIES
  0
LINE
  8
AUTOCAD0
  6
PKV1
 62
40
 10
1.540364E+002
 20
2.5060825E+002
 11
1.540364E+002
 21
1.3820064E+002
  0
LINE
  8
AUTOCAD0
  6
CONTINUOUS
 62
40
 10
1.800364E+002
 20
2.4378116E+002
 11
1.800364E+002
 21
1.4378116E+002
  0
LINE
  8
AUTOCAD0
  6
CONTINUOUS
 62
40
 10
1.280364E+002
 20
2.4378116E+002
 11
1.280364E+002
 21
1.4378116E+002
  0
LINE
  8
AUTOCAD0
  6
CONTINUOUS
 62
40
 10
1.245364E+002
 20
1.4378116E+002
 11
1.380364E+002
 21
1.4378116E+002
  0
LINE
  8
AUTOCAD0
  6
CONTINUOUS
 62
40
 10
1.245364E+002
 20
2.4378116E+002
 11
1.835364E+002
 21
2.4378116E+002
  0
LINE
  8
AUTOCAD0
  6
CONTINUOUS
 62
40
 10
1.835364E+002
 20
2.4378116E+002
 11
1.835364E+002
 21
1.4378116E+002
  0
LINE
  8
AUTOCAD0
  6
CONTINUOUS
 62
40
 10
1.245364E+002
 20
2.4378116E+002
 11
1.245364E+002
 21
1.4378116E+002
  0
ARC
  8
AUTOCAD0
  6
CONTINUOUS
 62
40
 10
1.540364E+002
 20
1.9978116E+002
 40
1.6E+001
 50
0.0
 51
1.8E+002
  0
LINE
  8
AUTOCAD0
  6
CONTINUOUS
 62
40
 10
1.700364E+002
 20
1.9978116E+002
 11
1.700364E+002
 21
1.4378116E+002
  0
LINE
  8
AUTOCAD0
  6
CONTINUOUS
 62
40
 10
1.380364E+002
 20
1.9978116E+002
 11
1.380364E+002
 21
1.4378116E+002
  0
LINE
  8
AUTOCAD0
  6
CONTINUOUS
 62
40
 10
1.700364E+002
 20
1.4378116E+002
 11
1.835364E+002
 21
1.4378116E+002
  0
LINE
  8
AUTOCAD0
  6
CONTINUOUS
 62
40
 10
1.770364E+002
 20
4.7416138E+001
 11
1.310364E+002
 21
4.7416138E+001
  0
LINE
  8
AUTOCAD0
  6
CONTINUOUS
 62
40
 10
1.785364E+002
 20
1.2241614E+002
 11
1.765364E+002
 21
1.2241614E+002
  0
LINE
  8
AUTOCAD0
  6
CONTINUOUS
 62
40
 10
1.800364E+002
 20
5.0416138E+001
 11
1.800364E+002
 21
1.0958771E+002
  0
LINE
  8
AUTOCAD0
  6
CONTINUOUS
 62
40
 10
1.8116139E+002
 20
1.1154113E+002
 11
1.8062219E+002
 21
1.1100193E+002
  0
LINE
  8
AUTOCAD0
  6
CONTINUOUS
 62
40
 10
1.8351203E+002
 20
1.2028614E+002
 11
1.8226445E+002
 21
1.136324E+002
  0
LINE
  8
AUTOCAD0
  6
CONTINUOUS
 62
40
 10
1.765364E+002
 20
1.1385764E+002
 11
1.765364E+002
 21
1.2241614E+002
  0
LINE
  8
AUTOCAD0
  6
CONTINUOUS
 62
40
 10
1.785364E+002
 20
1.1382242E+002
 11
1.785364E+002
 21
1.1891614E+002
  0
LINE
  8
AUTOCAD0
  6
CONTINUOUS
 62
40
 10
1.785364E+002
 20
1.0241614E+002
 11
1.785364E+002
 21
1.0959295E+002
  0
ARC
  8
AUTOCAD0
  6
CONTINUOUS
 62
40
 10
1.798975E+002
 20
1.137705E+002
 40
1.362088
 50
1.7781538E+002
 51
3.4235479E+002
  0
LINE
  8
AUTOCAD0
  6
CONTINUOUS
 62
40
 10
1.8281873E+002
 20
1.2041614E+002
 11
1.8119551E+002
 21
1.1335762E+002
  0
LINE
  8
AUTOCAD0
  6
CONTINUOUS
 62
40
 10
1.8281873E+002
 20
1.2041614E+002
 11
1.8351203E+002
 21
1.2028614E+002
  0
ARC
  8
AUTOCAD0
  6
CONTINUOUS
 62
40
 10
1.7833296E+002
 20
1.1436955E+002
 40
4.0
 50
3.15E+002
 51
3.4938034E+002
  0
ARC
  8
AUTOCAD0
  6
CONTINUOUS
 62
40
 10
1.820364E+002
 20
1.0958771E+002
 40
2.0
 50
1.35E+002
 51
1.8E+002
  0
ARC
  8
AUTOCAD0
  6
CONTINUOUS
 62
40
 10
1.7656145E+002
 20
1.0962554E+002
 40
1.975319
 50
3.5890271E+002
 51
4.1437117E+002
  0
ARC
  8
AUTOCAD0
  6
CONTINUOUS
 62
40
 10
1.7984227E+002
 20
1.1376104E+002
 40
3.307278
 50
1.7832621E+002
 51
2.2990359E+002
  0
LINE
  8
AUTOCAD0
  6
CONTINUOUS
 62
40
 10
1.795364E+002
 20
1.1941614E+002
 11
1.785364E+002
 21
1.2241614E+002
  0
LINE
  8
AUTOCAD0
  6
CONTINUOUS
 62
40
 10
1.795364E+002
 20
1.1941614E+002
 11
1.785364E+002
 21
1.1891614E+002
  0
LINE
  8
AUTOCAD0
  6
CONTINUOUS
 62
40
 10
1.740364E+002
 20
1.1041614E+002
 11
1.340364E+002
 21
1.1041614E+002
  0
LINE
  8
AUTOCAD0
  6
CONTINUOUS
 62
40
 10
1.755364E+002
 20
1.0241614E+002
 11
1.755364E+002
 21
1.0891614E+002
  0
ARC
  8
AUTOCAD0
  6
CONTINUOUS
 62
40
 10
1.770364E+002
 20
1.0241614E+002
 40
1.5
 50
2.7E+002
 51
3.6E+002
  0
ARC
  8
AUTOCAD0
  6
CONTINUOUS
 62
40
 10
1.770364E+002
 20
1.0241614E+002
 40
1.5
 50
1.8E+002
 51
2.7E+002
  0
ARC
  8
AUTOCAD0
  6
CONTINUOUS
 62
40
 10
1.740364E+002
 20
1.0891614E+002
 40
1.5
 50
0.0
 51
9.0E+001
  0
ARC
  8
AUTOCAD0
  6
CONTINUOUS
 62
40
 10
1.770364E+002
 20
5.0416138E+001
 40
3.0
 50
2.7E+002
 51
3.6E+002
  0
ARC
  8
AUTOCAD0
  6
CONTINUOUS
 62
40
 10
1.310364E+002
 20
5.0416138E+001
 40
3.0
 50
1.8E+002
 51
2.7E+002
  0
ARC
  8
AUTOCAD0
  6
CONTINUOUS
 62
40
 10
1.340364E+002
 20
1.0891614E+002
 40
1.5
 50
9.0E+001
 51
1.8E+002
  0
ARC
  8
AUTOCAD0
  6
CONTINUOUS
 62
40
 10
1.310364E+002
 20
1.0241614E+002
 40
1.5
 50
2.7E+002
 51
3.6E+002
  0
ARC
  8
AUTOCAD0
  6
CONTINUOUS
 62
40
 10
1.310364E+002
 20
1.0241614E+002
 40
1.5
 50
1.8E+002
 51
2.7E+002
  0
LINE
  8
AUTOCAD0
  6
CONTINUOUS
 62
40
 10
1.325364E+002
 20
1.0241614E+002
 11
1.325364E+002
 21
1.0891614E+002
  0
LINE
  8
AUTOCAD0
  6
CONTINUOUS
 62
40
 10
1.285364E+002
 20
1.1941614E+002
 11
1.295364E+002
 21
1.1891614E+002
  0
LINE
  8
AUTOCAD0
  6
CONTINUOUS
 62
40
 10
1.285364E+002
 20
1.1941614E+002
 11
1.295364E+002
 21
1.2241614E+002
  0
ARC
  8
AUTOCAD0
  6
CONTINUOUS
 62
40
 10
1.2823054E+002
 20
1.1376104E+002
 40
3.307278
 50
3.1009641E+002
 51
3.6167379E+002
  0
ARC
  8
AUTOCAD0
  6
CONTINUOUS
 62
40
 10
1.3151136E+002
 20
1.0962554E+002
 40
1.975319
 50
1.2562883E+002
 51
1.8109729E+002
  0
ARC
  8
AUTOCAD0
  6
CONTINUOUS
 62
40
 10
1.260364E+002
 20
1.0958771E+002
 40
2.0
 50
0.0
 51
4.5E+001
  0
ARC
  8
AUTOCAD0
  6
CONTINUOUS
 62
40
 10
1.2973984E+002
 20
1.1436955E+002
 40
4.0
 50
1.9061965E+002
 51
2.25E+002
  0
LINE
  8
AUTOCAD0
  6
CONTINUOUS
 62
40
 10
1.2525408E+002
 20
1.2041614E+002
 11
1.2456078E+002
 21
1.2028614E+002
  0
LINE
  8
AUTOCAD0
  6
CONTINUOUS
 62
40
 10
1.2525408E+002
 20
1.2041614E+002
 11
1.268773E+002
 21
1.1335762E+002
  0
ARC
  8
AUTOCAD0
  6
CONTINUOUS
 62
40
 10
1.2817531E+002
 20
1.137705E+002
 40
1.362088
 50
1.9764521E+002
 51
3.6218462E+002
  0
LINE
  8
AUTOCAD0
  6
CONTINUOUS
 62
40
 10
1.295364E+002
 20
1.0241614E+002
 11
1.295364E+002
 21
1.0959295E+002
  0
LINE
  8
AUTOCAD0
  6
CONTINUOUS
 62
40
 10
1.295364E+002
 20
1.1382242E+002
 11
1.295364E+002
 21
1.1891614E+002
  0
LINE
  8
AUTOCAD0
  6
CONTINUOUS
 62
40
 10
1.315364E+002
 20
1.1385764E+002
 11
1.315364E+002
 21
1.2241614E+002
  0
LINE
  8
AUTOCAD0
  6
CONTINUOUS
 62
40
 10
1.2456078E+002
 20
1.2028614E+002
 11
1.2580835E+002
 21
1.136324E+002
  0
LINE
  8
AUTOCAD0
  6
CONTINUOUS
 62
40
 10
1.2691142E+002
 20
1.1154113E+002
 11
1.2745062E+002
 21
1.1100193E+002
  0
LINE
  8
AUTOCAD0
  6
CONTINUOUS
 62
40
 10
1.280364E+002
 20
5.0416138E+001
 11
1.280364E+002
 21
1.0958771E+002
  0
LINE
  8
AUTOCAD0
  6
CONTINUOUS
 62
40
 10
1.295364E+002
 20
1.2241614E+002
 11
1.315364E+002
 21
1.2241614E+002
  0
CIRCLE
  8
AUTOCAD0
  6
CONTINUOUS
 62
40
 10
1.540364E+002
 20
1.0041614E+002
 40
4.0
  0
LINE
  8
AUTOCAD0
  6
PKV1
 62
40
 10
1.540364E+002
 20
4.3051556E+001
 11
1.540364E+002
 21
1.1814574E+002
  0
TEXT
  8
AUTOCAD0
  6
CONTINUOUS
 62
40
 10
1.3365107E+002
 20
1.0682466E+002
 40
2.0
  1
OESAZX 119
 41
8.93E-001
  0
LINE
  8
AUTOCAD0
  6
CONTINUOUS
 62
40
 10
1.0062132E+002
 20
1.2241614E+002
 11
1.0062132E+002
 21
4.7416138E+001
  0
LINE
  8
AUTOCAD0
  6
CONTINUOUS
 62
40
 10
6.2132E-001
 20
1.2241614E+002
 11
6.2132E-001
 21
5.0416138E+001
  0
LINE
  8
AUTOCAD0
  6
CONTINUOUS
 62
40
 10
1.0062132E+002
 20
4.7416138E+001
 11
3.62132
 21
4.7416138E+001
  0
LINE
  8
AUTOCAD0
  6
CONTINUOUS
 62
40
 10
1.0062132E+002
 20
1.2241614E+002
 11
6.2132E-001
 21
1.2241614E+002
  0
LINE
  8
AUTOCAD0
  6
CONTINUOUS
 62
40
 10
1.0062132E+002
 20
1.2028614E+002
 11
6.2132E-001
 21
1.2028614E+002
  0
ARC
  8
AUTOCAD0
  6
CONTINUOUS
 62
40
 10
3.62132
 20
5.0416138E+001
 40
3.0
 50
1.8E+002
 51
2.7E+002
  0
ENDSEC
  0
EOF
