  0
SECTION
  2
HEADER
  9
$ACADVER
  1
AC1009
  9
$INSBASE
 10
0.0
 20
0.0
 30
0.0
  9
$EXTMIN
 10
-525.11619589815734
 20
323.22666047356802
 30
-0.0000610304997082
  9
$EXTMAX
 10
722.5079100742837
 20
1162.924708506009
 30
0.000091555062788
  9
$LIMMIN
 10
0.0
 20
0.0
  9
$LIMMAX
 10
420.0
 20
297.0
  9
$ORTHOMODE
 70
     0
  9
$REGENMODE
 70
     1
  9
$FILLMODE
 70
     1
  9
$QTEXTMODE
 70
     0
  9
$MIRRTEXT
 70
     1
  9
$DRAGMODE
 70
     2
  9
$LTSCALE
 40
1.0
  9
$OSMODE
 70
    47
  9
$ATTMODE
 70
     1
  9
$TEXTSIZE
 40
0.0
  9
$TRACEWID
 40
1.0
  9
$TEXTSTYLE
  7
STANDARD
  9
$CLAYER
  8
0
  9
$CELTYPE
  6
BYLAYER
  9
$CECOLOR
 62
   256
  9
$DIMSCALE
 40
1.0
  9
$DIMASZ
 40
2.5
  9
$DIMEXO
 40
0.625
  9
$DIMDLI
 40
3.75
  9
$DIMRND
 40
0.0
  9
$DIMDLE
 40
0.0
  9
$DIMEXE
 40
1.25
  9
$DIMTP
 40
0.0
  9
$DIMTM
 40
0.0
  9
$DIMTXT
 40
2.5
  9
$DIMCEN
 40
2.5
  9
$DIMTSZ
 40
0.0
  9
$DIMTOL
 70
     0
  9
$DIMLIM
 70
     0
  9
$DIMTIH
 70
     0
  9
$DIMTOH
 70
     0
  9
$DIMSE1
 70
     0
  9
$DIMSE2
 70
     0
  9
$DIMTAD
 70
     1
  9
$DIMZIN
 70
     8
  9
$DIMBLK
  1

  9
$DIMASO
 70
     1
  9
$DIMSHO
 70
     1
  9
$DIMPOST
  1

  9
$DIMAPOST
  1

  9
$DIMALT
 70
     0
  9
$DIMALTD
 70
     3
  9
$DIMALTF
 40
0.03937
  9
$DIMLFAC
 40
1.0
  9
$DIMTOFL
 70
     1
  9
$DIMTVP
 40
0.0
  9
$DIMTIX
 70
     0
  9
$DIMSOXD
 70
     0
  9
$DIMSAH
 70
     0
  9
$DIMBLK1
  1

  9
$DIMBLK2
  1

  9
$DIMSTYLE
  2
STANDARD
  9
$DIMCLRD
 70
     0
  9
$DIMCLRE
 70
     0
  9
$DIMCLRT
 70
     0
  9
$DIMTFAC
 40
1.0
  9
$DIMGAP
 40
0.625
  9
$LUNITS
 70
     2
  9
$LUPREC
 70
     4
  9
$SKETCHINC
 40
1.0
  9
$FILLETRAD
 40
2.5
  9
$AUNITS
 70
     0
  9
$AUPREC
 70
     0
  9
$MENU
  1
.
  9
$ELEVATION
 40
0.0
  9
$PELEVATION
 40
0.0
  9
$THICKNESS
 40
0.0
  9
$LIMCHECK
 70
     0
  9
$BLIPMODE
 70
     0
  9
$CHAMFERA
 40
2.5
  9
$CHAMFERB
 40
2.5
  9
$SKPOLY
 70
     0
  9
$TDCREATE
 40
2311942.6599061568
  9
$TDUPDATE
 40
2454455.398315208
  9
$TDINDWG
 40
0.0006542245
  9
$TDUSRTIMER
 40
0.0006540509
  9
$USRTIMER
 70
     1
  9
$ANGBASE
 50
0.0
  9
$ANGDIR
 70
     0
  9
$PDMODE
 70
     0
  9
$PDSIZE
 40
0.0
  9
$PLINEWID
 40
0.0
  9
$COORDS
 70
     1
  9
$SPLFRAME
 70
     0
  9
$SPLINETYPE
 70
     6
  9
$SPLINESEGS
 70
     8
  9
$ATTDIA
 70
     0
  9
$ATTREQ
 70
     1
  9
$HANDLING
 70
 22529
  9
$HANDSEED
  5
C0E
  9
$SURFTAB1
 70
     6
  9
$SURFTAB2
 70
     6
  9
$SURFTYPE
 70
     6
  9
$SURFU
 70
     6
  9
$SURFV
 70
     6
  9
$UCSNAME
  2

  9
$UCSORG
 10
0.0
 20
0.0
 30
0.0
  9
$UCSXDIR
 10
1.0
 20
0.0
 30
0.0
  9
$UCSYDIR
 10
0.0
 20
1.0
 30
0.0
  9
$PUCSNAME
  2

  9
$PUCSORG
 10
0.0
 20
0.0
 30
0.0
  9
$PUCSXDIR
 10
1.0
 20
0.0
 30
0.0
  9
$PUCSYDIR
 10
0.0
 20
1.0
 30
0.0
  9
$USERI1
 70
     0
  9
$USERI2
 70
     0
  9
$USERI3
 70
     0
  9
$USERI4
 70
     0
  9
$USERI5
 70
     0
  9
$USERR1
 40
0.0
  9
$USERR2
 40
0.0
  9
$USERR3
 40
0.0
  9
$USERR4
 40
0.0
  9
$USERR5
 40
0.0
  9
$WORLDVIEW
 70
     1
  9
$SHADEDGE
 70
     3
  9
$SHADEDIF
 70
    70
  9
$TILEMODE
 70
     1
  9
$MAXACTVP
 70
    48
  9
$PLIMCHECK
 70
     0
  9
$PEXTMIN
 10
0.0
 20
0.0
 30
0.0
  9
$PEXTMAX
 10
1004.290283
 20
1011.217406999999
 30
2.0
  9
$PLIMMIN
 10
0.0
 20
0.0
  9
$PLIMMAX
 10
420.0
 20
297.0
  9
$UNITMODE
 70
     0
  9
$VISRETAIN
 70
     0
  9
$PLINEGEN
 70
     0
  9
$PSLTSCALE
 70
     1
  0
ENDSEC
  0
SECTION
  2
TABLES
  0
TABLE
  2
VPORT
 70
     2
  0
VPORT
  2
*ACTIVE
 70
     0
 10
0.0
 20
0.0
 11
1.0
 21
1.0
 12
98.69585708806305
 22
743.07568448978896
 13
0.0
 23
0.0
 14
1.0
 24
1.0
 15
0.0
 25
0.0
 16
0.0
 26
0.0
 36
1.0
 17
0.0
 27
0.0
 37
0.0
 40
846.32724314848736
 41
1.550724637681159
 42
50.0
 43
0.0
 44
0.0
 50
0.0
 51
0.0
 71
     0
 72
   100
 73
     1
 74
     1
 75
     0
 76
     0
 77
     0
 78
     0
  0
ENDTAB
  0
TABLE
  2
LTYPE
 70
     8
  0
LTYPE
  2
CONTINUOUS
 70
     0
  3
Solid line
 72
    65
 73
     0
 40
0.0
  0
LTYPE
  2
DASHED
 70
     0
  3
__ __ __ __ __ __ __ __ __ __ __ __ __ __ __ __
 72
    65
 73
     2
 40
15.0
 49
12.0
 49
-3.0
  0
LTYPE
  2
DASHDOT
 70
     0
  3
 __ . __ . __ . __ . __ . __ . __ . 
 72
    65
 73
     4
 40
18.5
 49
12.0
 49
-3.0
 49
0.5
 49
-3.0
  0
LTYPE
  2
DOT
 70
     0
  3
 . . . . . . . . . . . . . . . .
 72
    65
 73
     2
 40
3.5
 49
0.5
 49
-3.0
  0
LTYPE
  2
DASHSPACE
 70
     0
  3
__    __    __    __    __   
 72
    65
 73
     2
 40
30.0
 49
12.0
 49
-18.0
  0
LTYPE
  2
DASHDOT2
 70
     0
  3
__ . . __ . . __ . . __ 
 72
    65
 73
     6
 40
22.0
 49
12.0
 49
-3.0
 49
0.5
 49
-3.0
 49
0.5
 49
-3.0
  0
LTYPE
  2
PHANTOM
 70
     0
  3
____________    ____    ____   _
 72
    65
 73
     6
 40
20.0
 49
10.0
 49
-2.0
 49
2.0
 49
-2.0
 49
2.0
 49
-2.0
  0
LTYPE
  2
AXES
 70
     0
  3
________  __  ________  __  _____
 72
    65
 73
     4
 40
24.0
 49
15.0
 49
-3.0
 49
3.0
 49
-3.0
  0
ENDTAB
  0
TABLE
  2
LAYER
 70
     1
  0
LAYER
  2
0
 70
     0
 62
     7
  6
CONTINUOUS
  0
ENDTAB
  0
TABLE
  2
STYLE
 70
     2
  0
STYLE
  2
STANDARD
 70
     0
 40
0.0
 41
1.0
 50
0.0
 71
     0
 42
0.0
  3
isocp.shx
  4

  0
STYLE
  2
GDT
 70
     0
 40
0.0
 41
1.0
 50
0.0
 71
     0
 42
0.0
  3
amgdt.shx
  4

  0
ENDTAB
  0
TABLE
  2
VIEW
 70
     0
  0
ENDTAB
  0
TABLE
  2
UCS
 70
     0
  0
ENDTAB
  0
TABLE
  2
APPID
 70
     1
  0
APPID
  2
ACAD
 70
     0
  0
ENDTAB
  0
TABLE
  2
DIMSTYLE
 70
     1
  0
DIMSTYLE
  2
STANDARD
 70
     0
  3

  4

  5

  6

  7

 40
1.0
 41
2.5
 42
0.625
 43
3.75
 44
1.25
 45
0.0
 46
0.0
 47
0.0
 48
0.0
140
2.5
141
2.5
142
0.0
143
0.03937
144
1.0
145
0.0
146
1.0
147
0.625
 71
     0
 72
     0
 73
     0
 74
     0
 75
     0
 76
     0
 77
     1
 78
     8
170
     0
171
     3
172
     1
173
     0
174
     0
175
     0
176
     0
177
     0
178
     0
  0
ENDTAB
  0
ENDSEC
  0
SECTION
  2
BLOCKS
  0
BLOCK
  8
0
  2
$MODEL_SPACE
 70
     0
 10
0.0
 20
0.0
 30
0.0
  3
$MODEL_SPACE
  1

  0
ENDBLK
  5
E
  8
0
  0
BLOCK
 67
     1
  8
0
  2
$PAPER_SPACE
 70
     0
 10
0.0
 20
0.0
 30
0.0
  3
$PAPER_SPACE
  1

  0
ENDBLK
  5
10
 67
     1
  8
0
  0
BLOCK
  8
0
  2
BLOCK0
 70
     0
 10
0.0
 20
0.0
 30
0.0
  3
BLOCK0
  1

  0
TEXT
  5
838
  8
0
 62
     7
 10
27.603934999999989
 20
1006.917419
 30
0.0
 40
3.0
  1
180
 41
1.4660036189191219
 72
     5
 11
35.303916999999998
 21
1006.917419
 31
0.0
  0
ENDBLK
  5
839
  8
0
  0
BLOCK
  8
0
  2
BLOCK1
 70
     0
 10
0.0
 20
0.0
 30
0.0
  3
BLOCK1
  1

  0
TEXT
  5
83B
  8
0
 62
     7
 10
-0.9931029999999999
 20
294.81146200000001
 30
0.0
 40
3.0
  1
35
 41
1.277659424398945
 72
     5
 11
3.956887
 21
294.81146200000001
 31
0.0
  0
ENDBLK
  5
83C
  8
0
  0
BLOCK
  8
0
  2
BLOCK2
 70
     0
 10
0.0
 20
0.0
 30
0.0
  3
BLOCK2
  1

  0
TEXT
  5
83E
  8
0
 62
     7
 10
32.793621000000002
 20
294.81146200000001
 30
0.0
 40
3.0
  1
35
 41
1.2776591662854071
 72
     5
 11
37.74360999999999
 21
294.81146200000001
 31
0.0
  0
ENDBLK
  5
83F
  8
0
  0
BLOCK
  8
0
  2
BLOCK3
 70
     0
 10
0.0
 20
0.0
 30
0.0
  3
BLOCK3
  1

  0
TEXT
  5
841
  8
0
 62
     7
 10
68.611237000000003
 20
294.81146200000001
 30
0.0
 40
3.0
  1
35
 41
1.2776591662854091
 72
     5
 11
73.561226000000005
 21
294.81146200000001
 31
0.0
  0
ENDBLK
  5
842
  8
0
  0
BLOCK
  8
0
  2
BLOCK4
 70
     0
 10
0.0
 20
0.0
 30
0.0
  3
BLOCK4
  1

  0
TEXT
  5
844
  8
0
 62
     7
 10
-83.090279000000024
 20
550.26324499999998
 30
0.0
 40
3.0
  1
157,5
 50
89.999965275156214
 41
1.5485150264704399
 72
     5
 11
-83.090270999999987
 21
563.46319600000004
 31
0.0
  0
ENDBLK
  5
845
  8
0
  0
BLOCK
  8
0
  2
BLOCK5
 70
     0
 10
0.0
 20
0.0
 30
0.0
  3
BLOCK5
  1

  0
TEXT
  5
847
  8
0
 62
     7
 10
-83.090285999999992
 20
705.26324499999987
 30
0.0
 40
3.0
  1
152,5
 50
89.999969615761785
 41
1.548515026470374
 72
     5
 11
-83.090279000000024
 21
718.46319600000004
 31
0.0
  0
ENDBLK
  5
848
  8
0
  0
BLOCK
  8
0
  2
BLOCK6
 70
     0
 10
0.0
 20
0.0
 30
0.0
  3
BLOCK6
  1

  0
TEXT
  5
84A
  8
0
 62
     7
 10
-128.32388299999991
 20
639.91326900000001
 30
0.0
 40
3.0
  1
578
 50
90.0
 41
1.3162309401709491
 72
     5
 11
-128.32388299999991
 21
647.61322000000007
 31
0.0
  0
ENDBLK
  5
84B
  8
0
  0
BLOCK
  8
0
  2
BLOCK7
 70
     0
 10
0.0
 20
0.0
 30
0.0
  3
BLOCK7
  1

  0
TEXT
  5
84D
  8
0
 62
     7
 10
166.52528399999991
 20
830.76324499999987
 30
0.0
 40
3.0
  1
87,5
 50
90.0
 41
1.4876933580198259
 72
     5
 11
166.52528399999991
 21
841.21319599999993
 31
0.0
  0
ENDBLK
  5
84E
  8
0
  0
BLOCK
  8
0
  2
BLOCK8
 70
     0
 10
0.0
 20
0.0
 30
0.0
  3
BLOCK8
  1

  0
TEXT
  5
850
  8
0
 62
     7
 10
165.2328949999999
 20
520.76330599999994
 30
0.0
 40
3.0
  1
87,5
 50
90.0
 41
1.4876933580198259
 72
     5
 11
165.2328949999999
 21
531.213257
 31
0.0
  0
ENDBLK
  5
851
  8
0
  0
BLOCK
  8
0
  2
BLOCK9
 70
     0
 10
0.0
 20
0.0
 30
0.0
  3
BLOCK9
  1

  0
TEXT
  5
853
  8
0
 62
     7
 10
204.18917799999991
 20
794.9132689999999
 30
0.0
 40
3.0
  1
170
 50
90.0
 41
1.4659977168128431
 72
     5
 11
204.18917799999991
 21
802.61322000000007
 31
0.0
  0
ENDBLK
  5
854
  8
0
  0
BLOCK
  8
0
  2
BLOCK10
 70
     0
 10
0.0
 20
0.0
 30
0.0
  3
BLOCK10
  1

  0
TEXT
  5
856
  8
0
 62
     7
 10
204.00454699999989
 20
484.91326900000001
 30
0.0
 40
3.0
  1
170
 50
90.0
 41
1.466003618919117
 72
     5
 11
204.00454699999989
 21
492.61325099999999
 31
0.0
  0
ENDBLK
  5
857
  8
0
  0
BLOCK
  8
0
  2
BLOCK11
 70
     0
 10
0.0
 20
0.0
 30
0.0
  3
BLOCK11
  1

  0
TEXT
  5
859
  8
0
 62
     7
 10
35.0
 20
968.0
 30
0.0
 40
3.0
  1
Y
 41
0.9777782222222223
 72
     5
 11
37.200001
 21
968.0
 31
0.0
  0
ENDBLK
  5
85A
  8
0
  0
BLOCK
  8
0
  2
BLOCK12
 70
     0
 10
0.0
 20
0.0
 30
0.0
  3
BLOCK12
  1

  0
TEXT
  5
85C
  8
0
 62
     7
 10
37.0
 20
341.0
 30
0.0
 40
3.0
  1
Y
 41
0.9777782222222223
 72
     5
 11
39.200001
 21
341.0
 31
0.0
  0
ENDBLK
  5
85D
  8
0
  0
BLOCK
  8
0
  2
BLOCK13
 70
     0
 10
0.0
 20
0.0
 30
0.0
  3
BLOCK13
  1

  0
TEXT
  5
85F
  8
0
 62
     7
 10
201.0
 20
664.0
 30
0.0
 40
3.0
  1
X
 41
0.9777764444444425
 72
     5
 11
203.199997
 21
664.0
 31
0.0
  0
ENDBLK
  5
860
  8
0
  0
BLOCK
  8
0
  2
BLOCK14
 70
     0
 10
0.0
 20
0.0
 30
0.0
  3
BLOCK14
  1

  0
TEXT
  5
862
  8
0
 62
     7
 10
168.125137
 20
330.91372699999988
 30
0.0
 40
3.0
  1
11,5
 41
1.7942124321143731
 72
     5
 11
178.57510400000001
 21
330.91372699999988
 31
0.0
  0
ENDBLK
  5
863
  8
0
  0
BLOCK
  8
0
  2
BLOCK15
 70
     0
 10
0.0
 20
0.0
 30
0.0
  3
BLOCK15
  1

  0
TEXT
  5
865
  8
0
 62
     7
 10
999.99029499999995
 20
-18.5
 30
0.0
 40
3.0
  1
65
 50
270.0
 41
1.2776591662854091
 72
     5
 11
999.99029499999995
 21
-23.449988999999999
 31
0.0
  0
ENDBLK
  5
866
  8
0
  0
BLOCK
  8
0
  2
BLOCK16
 70
     0
 10
0.0
 20
0.0
 30
0.0
  3
BLOCK16
  1

  0
TEXT
  5
868
  8
0
 62
     7
 10
999.99029499999995
 20
82.249999999999986
 30
0.0
 40
3.0
  1
103,5
 50
270.0
 41
1.5485159649675879
 72
     5
 11
999.99029499999995
 21
69.050041000000007
 31
0.0
  0
ENDBLK
  5
869
  8
0
  0
BLOCK
  8
0
  2
BLOCK17
 70
     0
 10
0.0
 20
0.0
 30
0.0
  3
BLOCK17
  1

  0
TEXT
  5
86B
  8
0
 62
     7
 10
285.85345499999988
 20
122.71521
 30
0.0
 40
3.0
  1
275
 50
270.0
 41
1.2888586629984951
 72
     5
 11
285.85345499999988
 21
115.01522799999999
 31
0.0
  0
ENDBLK
  5
86C
  8
0
  0
BLOCK
  8
0
  2
BLOCK18
 70
     0
 10
0.0
 20
0.0
 30
0.0
  3
BLOCK18
  1

  0
TEXT
  5
86E
  8
0
 62
     7
 10
474.813019
 20
284.75408900000002
 30
0.0
 40
3.0
  1
105
 41
1.432750773232002
 72
     5
 11
482.51299999999998
 21
284.75408900000002
 31
0.0
  0
ENDBLK
  5
86F
  8
0
  0
BLOCK
  8
0
  2
BLOCK19
 70
     0
 10
0.0
 20
0.0
 30
0.0
  3
BLOCK19
  1

  0
TEXT
  5
871
  8
0
 62
     7
 10
784.81298800000002
 20
167.64898700000001
 30
0.0
 40
3.0
  1
105
 41
1.432745191072351
 72
     5
 11
792.51293899999985
 21
167.64898700000001
 31
0.0
  0
ENDBLK
  5
872
  8
0
  0
BLOCK
  8
0
  2
BLOCK20
 70
     0
 10
0.0
 20
0.0
 30
0.0
  3
BLOCK20
  1

  0
TEXT
  5
874
  8
0
 62
     7
 10
658.0
 20
97.0
 30
0.0
 40
3.0
  1
X
 50
270.0
 41
0.9777764444444425
 72
     5
 11
658.0
 21
94.800003000000004
 31
0.0
  0
ENDBLK
  5
875
  8
0
  0
BLOCK
  8
0
  2
BLOCK21
 70
     0
 10
0.0
 20
0.0
 30
0.0
  3
BLOCK21
  1

  0
TEXT
  5
877
  8
0
 62
     7
 10
664.0
 20
-84.0
 30
0.0
 40
3.0
  1
X
 50
270.0
 41
0.9777764444444425
 72
     5
 11
664.0
 21
-86.199996999999996
 31
0.0
  0
ENDBLK
  5
878
  8
0
  0
BLOCK
  8
0
  2
BLOCK22
 70
     0
 10
0.0
 20
0.0
 30
0.0
  3
BLOCK22
  1

  0
TEXT
  5
87A
  8
0
 62
     7
 10
285.85345499999988
 20
300.4174799999999
 30
0.0
 40
3.0
  1
27,5
 50
270.0
 41
1.487697628929856
 72
     5
 11
285.85345499999988
 21
289.96749899999998
 31
0.0
  0
ENDBLK
  5
87B
  8
0
  0
BLOCK
  8
0
  2
BLOCK23
 70
     0
 10
0.0
 20
0.0
 30
0.0
  3
BLOCK23
  1

  0
TEXT
  5
87D
  8
0
 62
     7
 10
240.21610999999999
 20
269.7523799999999
 30
0.0
 40
3.0
  1
ISOLATING DISTANCE
 50
270.0
 41
1.331968136054422
 72
     5
 11
240.21610999999999
 21
220.80255099999991
 31
0.0
  0
ENDBLK
  5
87E
  8
0
  0
BLOCK
  8
0
  2
BLOCK24
 70
     0
 10
0.0
 20
0.0
 30
0.0
  3
BLOCK24
  1

  0
TEXT
  5
880
  8
0
 62
     7
 10
224.21610999999999
 20
286.2523799999999
 30
0.0
 40
3.0
  1
CORSA DI SEZIONAMENTO
 50
270.0
 41
1.2839460830527489
 72
     5
 11
224.21610999999999
 21
229.05258199999989
 31
0.0
  0
ENDBLK
  5
881
  8
0
  0
BLOCK
  8
0
  2
BLOCK25
 70
     0
 10
0.0
 20
0.0
 30
0.0
  3
BLOCK25
  1

  0
TEXT
  5
883
  8
0
 62
     7
 10
321.0
 20
-246.0
 30
0.0
 40
3.0
  1
X
 50
270.0
 41
0.9777764444444551
 72
     5
 11
321.0
 21
-248.199997
 31
0.0
  0
ENDBLK
  5
884
  8
0
  0
BLOCK
  8
0
  2
BLOCK26
 70
     0
 10
0.0
 20
0.0
 30
0.0
  3
BLOCK26
  1

  0
TEXT
  5
886
  8
0
 62
     7
 10
709.12884499999996
 20
-104.83828699999989
 30
0.0
 40
3.0
  1
157,5
 50
270.0
 41
1.548515964967589
 72
     5
 11
709.12884499999996
 21
-118.038246
 31
0.0
  0
ENDBLK
  5
887
  8
0
  0
BLOCK
  8
0
  2
BLOCK27
 70
     0
 10
0.0
 20
0.0
 30
0.0
  3
BLOCK27
  1

  0
TEXT
  5
889
  8
0
 62
     7
 10
648.0
 20
-123.0
 30
0.0
 40
3.0
  1
Y
 50
270.0
 41
0.9777764444444427
 72
     5
 11
648.0
 21
-125.1999969999999
 31
0.0
  0
ENDBLK
  5
88A
  8
0
  0
BLOCK
  8
0
  2
BLOCK28
 70
     0
 10
0.0
 20
0.0
 30
0.0
  3
BLOCK28
  1

  0
TEXT
  5
88C
  8
0
 62
     7
 10
-31.0
 20
-124.0
 30
0.0
 40
3.0
  1
Y
 50
270.0
 41
0.9777764444444427
 72
     5
 11
-31.0
 21
-126.1999969999999
 31
0.0
  0
ENDBLK
  5
88D
  8
0
  0
BLOCK
  8
0
  2
BLOCK29
 70
     0
 10
0.0
 20
0.0
 30
0.0
  3
BLOCK29
  1

  0
TEXT
  5
88F
  8
0
 62
     7
 10
-93.634247000000016
 20
-51.704864999999998
 30
0.0
 40
3.0
  1
%%c7 (N%%d8 FORI)
 50
270.00001302181158
 41
1.5140503332656361
 72
     5
 11
-93.634238999999994
 21
-86.904747000000015
 31
0.0
  0
ENDBLK
  5
890
  8
0
  0
BLOCK
  8
0
  2
BLOCK30
 70
     0
 10
0.0
 20
0.0
 30
0.0
  3
BLOCK30
  1

  0
POLYLINE
  5
892
  8
0
 62
     7
 66
     1
 10
0.0
 20
0.0
 30
0.0
 40
1.5
 41
1.5
  0
VERTEX
  5
B92
  8
0
 62
     7
 10
494.98706099999998
 20
-275.34979199999998
 30
0.0
 42
1.0
  0
VERTEX
  5
B93
  8
0
 62
     7
 10
493.48706099999998
 20
-275.34979199999998
 30
0.0
  0
SEQEND
  5
B94
  8
0
 62
     7
  0
POLYLINE
  5
896
  8
0
 62
     7
 66
     1
 10
0.0
 20
0.0
 30
0.0
 40
1.5
 41
1.5
  0
VERTEX
  5
B95
  8
0
 62
     7
 10
493.48706099999998
 20
-275.34979199999998
 30
0.0
 42
1.0
  0
VERTEX
  5
B96
  8
0
 62
     7
 10
494.98706099999998
 20
-275.34979199999998
 30
0.0
  0
SEQEND
  5
B97
  8
0
 62
     7
  0
TEXT
  5
89A
  8
0
 62
     7
 10
519.88775599999985
 20
-273.34979199999998
 30
0.0
 40
3.0
  1
14
 41
1.4492753623188399
 72
     5
 11
524.88775599999985
 21
-273.34979199999998
 31
0.0
  0
LINE
  5
89B
  8
0
 62
     7
 10
480.23706099999998
 20
-225.657974
 30
0.0
 11
480.23706099999998
 21
-277.34979199999998
 31
0.0
  0
LINE
  5
89C
  8
0
 62
     7
 10
494.23706099999998
 20
-195.838303
 30
0.0
 11
494.23706099999998
 21
-277.34979199999998
 31
0.0
  0
POLYLINE
  5
89D
  8
0
 62
     7
 66
     1
 10
0.0
 20
0.0
 30
0.0
  0
VERTEX
  5
B98
  8
0
 62
     7
 10
482.16891500000003
 20
-274.83215300000001
 30
0.0
  0
VERTEX
  5
B99
  8
0
 62
     7
 10
480.23706099999998
 20
-275.34979199999998
 30
0.0
  0
VERTEX
  5
B9A
  8
0
 62
     7
 10
482.16891500000003
 20
-275.86743200000001
 30
0.0
  0
SEQEND
  5
B9B
  8
0
 62
     7
  0
LINE
  5
8A2
  8
0
 62
     7
 10
480.23706099999998
 20
-275.34979199999998
 30
0.0
 11
492.73706099999998
 21
-275.34979199999998
 31
0.0
  0
LINE
  5
8A3
  8
0
 62
     7
 10
495.73706099999998
 20
-275.34979199999998
 30
0.0
 11
524.88775599999985
 21
-275.34979199999998
 31
0.0
  0
CIRCLE
  5
8A4
  8
0
 62
     7
 10
494.23706099999998
 20
-275.34979199999998
 30
0.0
 40
1.5
  0
ENDBLK
  5
8A5
  8
0
  0
BLOCK
  8
0
  2
BLOCK31
 70
     0
 10
0.0
 20
0.0
 30
0.0
  3
BLOCK31
  1

  0
POLYLINE
  5
8A7
  8
0
 62
     7
 66
     1
 10
0.0
 20
0.0
 30
0.0
 40
1.5
 41
1.5
  0
VERTEX
  5
B9C
  8
0
 62
     7
 10
130.98706100000001
 20
-275.34979199999998
 30
0.0
 42
1.0
  0
VERTEX
  5
B9D
  8
0
 62
     7
 10
129.48706100000001
 20
-275.34979199999998
 30
0.0
  0
SEQEND
  5
B9E
  8
0
 62
     7
  0
POLYLINE
  5
8AB
  8
0
 62
     7
 66
     1
 10
0.0
 20
0.0
 30
0.0
 40
1.5
 41
1.5
  0
VERTEX
  5
B9F
  8
0
 62
     7
 10
129.48706100000001
 20
-275.34979199999998
 30
0.0
 42
1.0
  0
VERTEX
  5
BA0
  8
0
 62
     7
 10
130.98706100000001
 20
-275.34979199999998
 30
0.0
  0
SEQEND
  5
BA1
  8
0
 62
     7
  0
POLYLINE
  5
8AF
  8
0
 62
     7
 66
     1
 10
0.0
 20
0.0
 30
0.0
 40
1.5
 41
1.5
  0
VERTEX
  5
BA2
  8
0
 62
     7
 10
480.98706099999998
 20
-275.34979199999998
 30
0.0
 42
1.0
  0
VERTEX
  5
BA3
  8
0
 62
     7
 10
479.48706099999998
 20
-275.34979199999998
 30
0.0
  0
SEQEND
  5
BA4
  8
0
 62
     7
  0
POLYLINE
  5
8B3
  8
0
 62
     7
 66
     1
 10
0.0
 20
0.0
 30
0.0
 40
1.5
 41
1.5
  0
VERTEX
  5
BA5
  8
0
 62
     7
 10
479.48706099999998
 20
-275.34979199999998
 30
0.0
 42
1.0
  0
VERTEX
  5
BA6
  8
0
 62
     7
 10
480.98706099999998
 20
-275.34979199999998
 30
0.0
  0
SEQEND
  5
BA7
  8
0
 62
     7
  0
TEXT
  5
8B7
  8
0
 62
     7
 10
301.33706699999999
 20
-273.34979199999998
 30
0.0
 40
3.0
  1
350
 41
1.3327929350824059
 72
     5
 11
309.13705399999992
 21
-273.34979199999998
 31
0.0
  0
LINE
  5
8B8
  8
0
 62
     7
 10
130.23706100000001
 20
-225.93879699999999
 30
0.0
 11
130.23706100000001
 21
-277.34979199999998
 31
0.0
  0
LINE
  5
8B9
  8
0
 62
     7
 10
480.23706099999998
 20
-225.657974
 30
0.0
 11
480.23706099999998
 21
-277.34979199999998
 31
0.0
  0
LINE
  5
8BA
  8
0
 62
     7
 10
131.73706100000001
 20
-275.34979199999998
 30
0.0
 11
478.73706099999998
 21
-275.34979199999998
 31
0.0
  0
CIRCLE
  5
8BB
  8
0
 62
     7
 10
130.23706100000001
 20
-275.34979199999998
 30
0.0
 40
1.5
  0
CIRCLE
  5
8BC
  8
0
 62
     7
 10
480.23706099999998
 20
-275.34979199999998
 30
0.0
 40
1.5
  0
ENDBLK
  5
8BD
  8
0
  0
BLOCK
  8
0
  2
BLOCK32
 70
     0
 10
0.0
 20
0.0
 30
0.0
  3
BLOCK32
  1

  0
POLYLINE
  5
8BF
  8
0
 62
     7
 66
     1
 10
0.0
 20
0.0
 30
0.0
 40
1.5
 41
1.5
  0
VERTEX
  5
BA8
  8
0
 62
     7
 10
130.98706100000001
 20
-275.34979199999998
 30
0.0
 42
1.0
  0
VERTEX
  5
BA9
  8
0
 62
     7
 10
129.48706100000001
 20
-275.34979199999998
 30
0.0
  0
SEQEND
  5
BAA
  8
0
 62
     7
  0
POLYLINE
  5
8C3
  8
0
 62
     7
 66
     1
 10
0.0
 20
0.0
 30
0.0
 40
1.5
 41
1.5
  0
VERTEX
  5
BAB
  8
0
 62
     7
 10
129.48706100000001
 20
-275.34979199999998
 30
0.0
 42
1.0
  0
VERTEX
  5
BAC
  8
0
 62
     7
 10
130.98706100000001
 20
-275.34979199999998
 30
0.0
  0
SEQEND
  5
BAD
  8
0
 62
     7
  0
TEXT
  5
8C7
  8
0
 62
     7
 10
80.143676999999997
 20
-273.34979199999998
 30
0.0
 40
3.0
  1
14
 41
1.4492753623188399
 72
     5
 11
85.143676999999997
 21
-273.34979199999998
 31
0.0
  0
LINE
  5
8C8
  8
0
 62
     7
 10
116.237053
 20
-195.838303
 30
0.0
 11
116.237053
 21
-277.34979199999998
 31
0.0
  0
LINE
  5
8C9
  8
0
 62
     7
 10
130.23706100000001
 20
-225.93879699999999
 30
0.0
 11
130.23706100000001
 21
-277.34979199999998
 31
0.0
  0
POLYLINE
  5
8CA
  8
0
 62
     7
 66
     1
 10
0.0
 20
0.0
 30
0.0
  0
VERTEX
  5
BAE
  8
0
 62
     7
 10
118.168907
 20
-274.83215300000001
 30
0.0
  0
VERTEX
  5
BAF
  8
0
 62
     7
 10
116.237053
 20
-275.34979199999998
 30
0.0
  0
VERTEX
  5
BB0
  8
0
 62
     7
 10
118.168907
 20
-275.86743200000001
 30
0.0
  0
SEQEND
  5
BB1
  8
0
 62
     7
  0
LINE
  5
8CF
  8
0
 62
     7
 10
80.143676999999997
 20
-275.34979199999998
 30
0.0
 11
128.73706100000001
 21
-275.34979199999998
 31
0.0
  0
CIRCLE
  5
8D0
  8
0
 62
     7
 10
130.23706100000001
 20
-275.34979199999998
 30
0.0
 40
1.5
  0
ENDBLK
  5
8D1
  8
0
  0
BLOCK
  8
0
  2
BLOCK33
 70
     0
 10
0.0
 20
0.0
 30
0.0
  3
BLOCK33
  1

  0
TEXT
  5
8D3
  8
0
 62
     7
 10
529.23706100000004
 20
-13.056827999999999
 30
0.0
 40
3.0
  1
75
 41
1.2905676823578891
 72
     5
 11
534.23706100000004
 21
-13.056827999999999
 31
0.0
  0
LINE
  5
8D4
  8
0
 62
     7
 10
494.23706099999998
 20
-68.838302999999996
 30
0.0
 11
494.23706099999998
 21
-13.056827999999999
 31
0.0
  0
LINE
  5
8D5
  8
0
 62
     7
 10
569.23706100000004
 20
-68.838302999999996
 30
0.0
 11
569.23706100000004
 21
-13.056827999999999
 31
0.0
  0
POLYLINE
  5
8D6
  8
0
 62
     7
 66
     1
 10
0.0
 20
0.0
 30
0.0
  0
VERTEX
  5
BB2
  8
0
 62
     7
 10
567.30517599999985
 20
-15.574467
 30
0.0
  0
VERTEX
  5
BB3
  8
0
 62
     7
 10
569.23706100000004
 20
-15.056827999999991
 30
0.0
  0
VERTEX
  5
BB4
  8
0
 62
     7
 10
567.30517599999985
 20
-14.539189999999991
 30
0.0
  0
SEQEND
  5
BB5
  8
0
 62
     7
  0
POLYLINE
  5
8DB
  8
0
 62
     7
 66
     1
 10
0.0
 20
0.0
 30
0.0
  0
VERTEX
  5
BB6
  8
0
 62
     7
 10
496.16891500000003
 20
-14.539189999999991
 30
0.0
  0
VERTEX
  5
BB7
  8
0
 62
     7
 10
494.23706099999998
 20
-15.056827999999991
 30
0.0
  0
VERTEX
  5
BB8
  8
0
 62
     7
 10
496.16891500000003
 20
-15.574467
 30
0.0
  0
SEQEND
  5
BB9
  8
0
 62
     7
  0
LINE
  5
8E0
  8
0
 62
     7
 10
494.23706099999998
 20
-15.056827999999991
 30
0.0
 11
569.23706100000004
 21
-15.056827999999991
 31
0.0
  0
ENDBLK
  5
8E1
  8
0
  0
BLOCK
  8
0
  2
BLOCK34
 70
     0
 10
0.0
 20
0.0
 30
0.0
  3
BLOCK34
  1

  0
TEXT
  5
8E3
  8
0
 62
     7
 10
457.73706099999998
 20
-13.056827999999999
 30
0.0
 40
3.0
  1
68
 41
1.333333333333333
 72
     5
 11
462.73706099999998
 21
-13.056827999999999
 31
0.0
  0
LINE
  5
8E4
  8
0
 62
     7
 10
426.23706099999998
 20
-68.838302999999996
 30
0.0
 11
426.23706099999998
 21
-13.056827999999999
 31
0.0
  0
LINE
  5
8E5
  8
0
 62
     7
 10
494.23706099999998
 20
-68.838302999999996
 30
0.0
 11
494.23706099999998
 21
-13.056827999999999
 31
0.0
  0
POLYLINE
  5
8E6
  8
0
 62
     7
 66
     1
 10
0.0
 20
0.0
 30
0.0
  0
VERTEX
  5
BBA
  8
0
 62
     7
 10
428.16891500000003
 20
-14.539189999999991
 30
0.0
  0
VERTEX
  5
BBB
  8
0
 62
     7
 10
426.23706099999998
 20
-15.056827999999991
 30
0.0
  0
VERTEX
  5
BBC
  8
0
 62
     7
 10
428.16891500000003
 20
-15.574467
 30
0.0
  0
SEQEND
  5
BBD
  8
0
 62
     7
  0
POLYLINE
  5
8EB
  8
0
 62
     7
 66
     1
 10
0.0
 20
0.0
 30
0.0
  0
VERTEX
  5
BBE
  8
0
 62
     7
 10
492.30520599999988
 20
-15.574467
 30
0.0
  0
VERTEX
  5
BBF
  8
0
 62
     7
 10
494.23706099999998
 20
-15.056827999999991
 30
0.0
  0
VERTEX
  5
BC0
  8
0
 62
     7
 10
492.30520599999988
 20
-14.539189999999991
 30
0.0
  0
SEQEND
  5
BC1
  8
0
 62
     7
  0
LINE
  5
8F0
  8
0
 62
     7
 10
426.23706099999998
 20
-15.056827999999991
 30
0.0
 11
494.23706099999998
 21
-15.056827999999991
 31
0.0
  0
ENDBLK
  5
8F1
  8
0
  0
BLOCK
  8
0
  2
BLOCK35
 70
     0
 10
0.0
 20
0.0
 30
0.0
  3
BLOCK35
  1

  0
TEXT
  5
8F3
  8
0
 62
     7
 10
386.23706099999993
 20
-13.056827999999999
 30
0.0
 40
3.0
  1
75
 41
1.2905676823578891
 72
     5
 11
391.23706099999993
 21
-13.056827999999999
 31
0.0
  0
LINE
  5
8F4
  8
0
 62
     7
 10
351.23706099999998
 20
-68.838302999999996
 30
0.0
 11
351.23706099999998
 21
-13.056827999999999
 31
0.0
  0
LINE
  5
8F5
  8
0
 62
     7
 10
426.23706099999998
 20
-68.838302999999996
 30
0.0
 11
426.23706099999998
 21
-13.056827999999999
 31
0.0
  0
POLYLINE
  5
8F6
  8
0
 62
     7
 66
     1
 10
0.0
 20
0.0
 30
0.0
  0
VERTEX
  5
BC2
  8
0
 62
     7
 10
353.16891499999991
 20
-14.539189999999991
 30
0.0
  0
VERTEX
  5
BC3
  8
0
 62
     7
 10
351.23706099999998
 20
-15.056827999999991
 30
0.0
  0
VERTEX
  5
BC4
  8
0
 62
     7
 10
353.16891499999991
 20
-15.574467
 30
0.0
  0
SEQEND
  5
BC5
  8
0
 62
     7
  0
POLYLINE
  5
8FB
  8
0
 62
     7
 66
     1
 10
0.0
 20
0.0
 30
0.0
  0
VERTEX
  5
BC6
  8
0
 62
     7
 10
424.30520599999988
 20
-15.574467
 30
0.0
  0
VERTEX
  5
BC7
  8
0
 62
     7
 10
426.23706099999998
 20
-15.056827999999991
 30
0.0
  0
VERTEX
  5
BC8
  8
0
 62
     7
 10
424.30520599999988
 20
-14.539189999999991
 30
0.0
  0
SEQEND
  5
BC9
  8
0
 62
     7
  0
LINE
  5
900
  8
0
 62
     7
 10
351.23706099999998
 20
-15.056827999999991
 30
0.0
 11
426.23706099999998
 21
-15.056827999999991
 31
0.0
  0
ENDBLK
  5
901
  8
0
  0
BLOCK
  8
0
  2
BLOCK36
 70
     0
 10
0.0
 20
0.0
 30
0.0
  3
BLOCK36
  1

  0
TEXT
  5
903
  8
0
 62
     7
 10
302.73706099999993
 20
-13.056827999999999
 30
0.0
 40
3.0
  1
92
 41
1.26882293854365
 72
     5
 11
307.73706099999998
 21
-13.056827999999999
 31
0.0
  0
LINE
  5
904
  8
0
 62
     7
 10
259.23706099999993
 20
-68.838302999999996
 30
0.0
 11
259.23706099999993
 21
-13.056827999999999
 31
0.0
  0
LINE
  5
905
  8
0
 62
     7
 10
351.23706099999998
 20
-68.838302999999996
 30
0.0
 11
351.23706099999998
 21
-13.056827999999999
 31
0.0
  0
POLYLINE
  5
906
  8
0
 62
     7
 66
     1
 10
0.0
 20
0.0
 30
0.0
  0
VERTEX
  5
BCA
  8
0
 62
     7
 10
261.16891499999991
 20
-14.539189999999991
 30
0.0
  0
VERTEX
  5
BCB
  8
0
 62
     7
 10
259.23706099999993
 20
-15.056827999999991
 30
0.0
  0
VERTEX
  5
BCC
  8
0
 62
     7
 10
261.16891499999991
 20
-15.574467
 30
0.0
  0
SEQEND
  5
BCD
  8
0
 62
     7
  0
POLYLINE
  5
90B
  8
0
 62
     7
 66
     1
 10
0.0
 20
0.0
 30
0.0
  0
VERTEX
  5
BCE
  8
0
 62
     7
 10
349.305206
 20
-15.574467
 30
0.0
  0
VERTEX
  5
BCF
  8
0
 62
     7
 10
351.23706099999998
 20
-15.056827999999991
 30
0.0
  0
VERTEX
  5
BD0
  8
0
 62
     7
 10
349.305206
 20
-14.539189999999991
 30
0.0
  0
SEQEND
  5
BD1
  8
0
 62
     7
  0
LINE
  5
910
  8
0
 62
     7
 10
259.23706099999993
 20
-15.056827999999991
 30
0.0
 11
351.23706099999998
 21
-15.056827999999991
 31
0.0
  0
ENDBLK
  5
911
  8
0
  0
BLOCK
  8
0
  2
BLOCK37
 70
     0
 10
0.0
 20
0.0
 30
0.0
  3
BLOCK37
  1

  0
TEXT
  5
913
  8
0
 62
     7
 10
219.2370609999999
 20
-13.056827999999999
 30
0.0
 40
3.0
  1
75
 41
1.2905676823578891
 72
     5
 11
224.23706100000001
 21
-13.056827999999999
 31
0.0
  0
LINE
  5
914
  8
0
 62
     7
 10
184.23706100000001
 20
-68.838302999999996
 30
0.0
 11
184.23706100000001
 21
-13.056827999999999
 31
0.0
  0
LINE
  5
915
  8
0
 62
     7
 10
259.23706099999993
 20
-68.838302999999996
 30
0.0
 11
259.23706099999993
 21
-13.056827999999999
 31
0.0
  0
POLYLINE
  5
916
  8
0
 62
     7
 66
     1
 10
0.0
 20
0.0
 30
0.0
  0
VERTEX
  5
BD2
  8
0
 62
     7
 10
186.16890000000001
 20
-14.539189999999991
 30
0.0
  0
VERTEX
  5
BD3
  8
0
 62
     7
 10
184.23706100000001
 20
-15.056827999999991
 30
0.0
  0
VERTEX
  5
BD4
  8
0
 62
     7
 10
186.16890000000001
 20
-15.574467
 30
0.0
  0
SEQEND
  5
BD5
  8
0
 62
     7
  0
POLYLINE
  5
91B
  8
0
 62
     7
 66
     1
 10
0.0
 20
0.0
 30
0.0
  0
VERTEX
  5
BD6
  8
0
 62
     7
 10
257.305206
 20
-15.574467
 30
0.0
  0
VERTEX
  5
BD7
  8
0
 62
     7
 10
259.23706099999993
 20
-15.056827999999991
 30
0.0
  0
VERTEX
  5
BD8
  8
0
 62
     7
 10
257.305206
 20
-14.539189999999991
 30
0.0
  0
SEQEND
  5
BD9
  8
0
 62
     7
  0
LINE
  5
920
  8
0
 62
     7
 10
184.23706100000001
 20
-15.056827999999991
 30
0.0
 11
259.23706099999993
 21
-15.056827999999991
 31
0.0
  0
ENDBLK
  5
921
  8
0
  0
BLOCK
  8
0
  2
BLOCK38
 70
     0
 10
0.0
 20
0.0
 30
0.0
  3
BLOCK38
  1

  0
TEXT
  5
923
  8
0
 62
     7
 10
147.73706100000001
 20
-13.056827999999999
 30
0.0
 40
3.0
  1
68
 41
1.333333333333333
 72
     5
 11
152.73706100000001
 21
-13.056827999999999
 31
0.0
  0
LINE
  5
924
  8
0
 62
     7
 10
116.237053
 20
-68.838302999999996
 30
0.0
 11
116.237053
 21
-13.056827999999999
 31
0.0
  0
LINE
  5
925
  8
0
 62
     7
 10
184.23706100000001
 20
-68.838302999999996
 30
0.0
 11
184.23706100000001
 21
-13.056827999999999
 31
0.0
  0
POLYLINE
  5
926
  8
0
 62
     7
 66
     1
 10
0.0
 20
0.0
 30
0.0
  0
VERTEX
  5
BDA
  8
0
 62
     7
 10
118.168907
 20
-14.539189999999991
 30
0.0
  0
VERTEX
  5
BDB
  8
0
 62
     7
 10
116.237053
 20
-15.056827999999991
 30
0.0
  0
VERTEX
  5
BDC
  8
0
 62
     7
 10
118.168907
 20
-15.574467
 30
0.0
  0
SEQEND
  5
BDD
  8
0
 62
     7
  0
POLYLINE
  5
92B
  8
0
 62
     7
 66
     1
 10
0.0
 20
0.0
 30
0.0
  0
VERTEX
  5
BDE
  8
0
 62
     7
 10
182.305206
 20
-15.574467
 30
0.0
  0
VERTEX
  5
BDF
  8
0
 62
     7
 10
184.23706100000001
 20
-15.056827999999991
 30
0.0
  0
VERTEX
  5
BE0
  8
0
 62
     7
 10
182.305206
 20
-14.539189999999991
 30
0.0
  0
SEQEND
  5
BE1
  8
0
 62
     7
  0
LINE
  5
930
  8
0
 62
     7
 10
116.237053
 20
-15.056827999999991
 30
0.0
 11
184.23706100000001
 21
-15.056827999999991
 31
0.0
  0
ENDBLK
  5
931
  8
0
  0
BLOCK
  8
0
  2
BLOCK39
 70
     0
 10
0.0
 20
0.0
 30
0.0
  3
BLOCK39
  1

  0
TEXT
  5
933
  8
0
 62
     7
 10
76.237053000000003
 20
-13.056827999999999
 30
0.0
 40
3.0
  1
75
 41
1.2905676823578891
 72
     5
 11
81.237053000000003
 21
-13.056827999999999
 31
0.0
  0
LINE
  5
934
  8
0
 62
     7
 10
41.237053000000003
 20
-68.838302999999996
 30
0.0
 11
41.237053000000003
 21
-13.056827999999999
 31
0.0
  0
LINE
  5
935
  8
0
 62
     7
 10
116.237053
 20
-68.838302999999996
 30
0.0
 11
116.237053
 21
-13.056827999999999
 31
0.0
  0
POLYLINE
  5
936
  8
0
 62
     7
 66
     1
 10
0.0
 20
0.0
 30
0.0
  0
VERTEX
  5
BE2
  8
0
 62
     7
 10
43.168902999999993
 20
-14.539189999999991
 30
0.0
  0
VERTEX
  5
BE3
  8
0
 62
     7
 10
41.237053000000003
 20
-15.056827999999991
 30
0.0
  0
VERTEX
  5
BE4
  8
0
 62
     7
 10
43.168902999999993
 20
-15.574467
 30
0.0
  0
SEQEND
  5
BE5
  8
0
 62
     7
  0
POLYLINE
  5
93B
  8
0
 62
     7
 66
     1
 10
0.0
 20
0.0
 30
0.0
  0
VERTEX
  5
BE6
  8
0
 62
     7
 10
114.305199
 20
-15.574467
 30
0.0
  0
VERTEX
  5
BE7
  8
0
 62
     7
 10
116.237053
 20
-15.056827999999991
 30
0.0
  0
VERTEX
  5
BE8
  8
0
 62
     7
 10
114.305199
 20
-14.539189999999991
 30
0.0
  0
SEQEND
  5
BE9
  8
0
 62
     7
  0
LINE
  5
940
  8
0
 62
     7
 10
41.237053000000003
 20
-15.056827999999991
 30
0.0
 11
116.237053
 21
-15.056827999999991
 31
0.0
  0
ENDBLK
  5
941
  8
0
  0
BLOCK
  8
0
  2
BLOCK40
 70
     0
 10
0.0
 20
0.0
 30
0.0
  3
BLOCK40
  1

  0
POLYLINE
  5
943
  8
0
 62
     6
 66
     1
 10
0.0
 20
0.0
 30
0.0
 40
1.5
 41
1.5
  0
VERTEX
  5
BEA
  8
0
 62
     6
 10
664.38885500000004
 20
-53.58830300000001
 30
0.0
 42
1.0
  0
VERTEX
  5
BEB
  8
0
 62
     6
 10
662.88885500000004
 20
-53.58830300000001
 30
0.0
  0
SEQEND
  5
BEC
  8
0
 62
     6
  0
POLYLINE
  5
947
  8
0
 62
     6
 66
     1
 10
0.0
 20
0.0
 30
0.0
 40
1.5
 41
1.5
  0
VERTEX
  5
BED
  8
0
 62
     6
 10
662.88885500000004
 20
-53.58830300000001
 30
0.0
 42
1.0
  0
VERTEX
  5
BEE
  8
0
 62
     6
 10
664.38885500000004
 20
-53.58830300000001
 30
0.0
  0
SEQEND
  5
BEF
  8
0
 62
     6
  0
TEXT
  5
94B
  8
0
 62
     6
 10
665.63885500000004
 20
-25.949847999999999
 30
0.0
 40
3.0
  1
=
 50
270.0
 41
1.333333939393939
 72
     5
 11
665.63885500000004
 21
-28.149849
 31
0.0
  0
LINE
  5
94C
  8
0
 62
     6
 10
555.23706100000004
 20
-54.83830300000001
 30
0.0
 11
665.63885500000004
 21
-54.83830300000001
 31
0.0
  0
LINE
  5
94D
  8
0
 62
     6
 10
621.60314900000003
 20
-53.58830300000001
 30
0.0
 11
665.63885500000004
 21
-53.58830300000001
 31
0.0
  0
POLYLINE
  5
94E
  8
0
 62
     6
 66
     1
 10
0.0
 20
0.0
 30
0.0
  0
VERTEX
  5
BF0
  8
0
 62
     6
 10
664.15649400000007
 20
-56.770153000000001
 30
0.0
  0
VERTEX
  5
BF1
  8
0
 62
     6
 10
663.63885500000004
 20
-54.83830300000001
 30
0.0
  0
VERTEX
  5
BF2
  8
0
 62
     6
 10
663.121216
 20
-56.770153000000001
 30
0.0
  0
SEQEND
  5
BF3
  8
0
 62
     6
  0
LINE
  5
953
  8
0
 62
     6
 10
663.63885500000004
 20
-59.83830300000001
 30
0.0
 11
663.63885500000004
 21
-55.088303000000003
 31
0.0
  0
LINE
  5
954
  8
0
 62
     6
 10
663.63885500000004
 20
-52.088303000000003
 30
0.0
 11
663.63885500000004
 21
-25.949847999999999
 31
0.0
  0
CIRCLE
  5
955
  8
0
 62
     6
 10
663.63885500000004
 20
-53.58830300000001
 30
0.0
 40
1.5
  0
ENDBLK
  5
956
  8
0
  0
BLOCK
  8
0
  2
BLOCK41
 70
     0
 10
0.0
 20
0.0
 30
0.0
  3
BLOCK41
  1

  0
POLYLINE
  5
958
  8
0
 62
     7
 66
     1
 10
0.0
 20
0.0
 30
0.0
 40
1.5
 41
1.5
  0
VERTEX
  5
BF4
  8
0
 62
     7
 10
664.38885500000004
 20
-209.83830299999991
 30
0.0
 42
1.0
  0
VERTEX
  5
BF5
  8
0
 62
     7
 10
662.88885500000004
 20
-209.83830299999991
 30
0.0
  0
SEQEND
  5
BF6
  8
0
 62
     7
  0
POLYLINE
  5
95C
  8
0
 62
     7
 66
     1
 10
0.0
 20
0.0
 30
0.0
 40
1.5
 41
1.5
  0
VERTEX
  5
BF7
  8
0
 62
     7
 10
662.88885500000004
 20
-209.83830299999991
 30
0.0
 42
1.0
  0
VERTEX
  5
BF8
  8
0
 62
     7
 10
664.38885500000004
 20
-209.83830299999991
 30
0.0
  0
SEQEND
  5
BF9
  8
0
 62
     7
  0
POLYLINE
  5
960
  8
0
 62
     7
 66
     1
 10
0.0
 20
0.0
 30
0.0
 40
1.5
 41
1.5
  0
VERTEX
  5
BFA
  8
0
 62
     7
 10
664.38885500000004
 20
-54.83830300000001
 30
0.0
 42
1.0
  0
VERTEX
  5
BFB
  8
0
 62
     7
 10
662.88885500000004
 20
-54.83830300000001
 30
0.0
  0
SEQEND
  5
BFC
  8
0
 62
     7
  0
POLYLINE
  5
964
  8
0
 62
     7
 66
     1
 10
0.0
 20
0.0
 30
0.0
 40
1.5
 41
1.5
  0
VERTEX
  5
BFD
  8
0
 62
     7
 10
662.88885500000004
 20
-54.83830300000001
 30
0.0
 42
1.0
  0
VERTEX
  5
BFE
  8
0
 62
     7
 10
664.38885500000004
 20
-54.83830300000001
 30
0.0
  0
SEQEND
  5
BFF
  8
0
 62
     7
  0
TEXT
  5
968
  8
0
 62
     7
 10
665.63885500000004
 20
-128.438309
 30
0.0
 40
3.0
  1
155
 50
270.0
 41
1.451359274548903
 72
     5
 11
665.63885500000004
 21
-136.2382969999999
 31
0.0
  0
LINE
  5
969
  8
0
 62
     7
 10
555.23706100000004
 20
-209.83830299999991
 30
0.0
 11
665.63885500000004
 21
-209.83830299999991
 31
0.0
  0
LINE
  5
96A
  8
0
 62
     7
 10
555.23706100000004
 20
-54.83830300000001
 30
0.0
 11
665.63885500000004
 21
-54.83830300000001
 31
0.0
  0
LINE
  5
96B
  8
0
 62
     7
 10
663.63885500000004
 20
-208.33830299999991
 30
0.0
 11
663.63885500000004
 21
-56.338303000000003
 31
0.0
  0
CIRCLE
  5
96C
  8
0
 62
     7
 10
663.63885500000004
 20
-209.83830299999991
 30
0.0
 40
1.5
  0
CIRCLE
  5
96D
  8
0
 62
     7
 10
663.63885500000004
 20
-54.83830300000001
 30
0.0
 40
1.5
  0
ENDBLK
  5
96E
  8
0
  0
BLOCK
  8
0
  2
BLOCK42
 70
     0
 10
0.0
 20
0.0
 30
0.0
  3
BLOCK42
  1

  0
POLYLINE
  5
970
  8
0
 62
     6
 66
     1
 10
0.0
 20
0.0
 30
0.0
 40
1.5
 41
1.5
  0
VERTEX
  5
C00
  8
0
 62
     6
 10
664.38885500000004
 20
-209.83830299999991
 30
0.0
 42
1.0
  0
VERTEX
  5
C01
  8
0
 62
     6
 10
662.88885500000004
 20
-209.83830299999991
 30
0.0
  0
SEQEND
  5
C02
  8
0
 62
     6
  0
POLYLINE
  5
974
  8
0
 62
     6
 66
     1
 10
0.0
 20
0.0
 30
0.0
 40
1.5
 41
1.5
  0
VERTEX
  5
C03
  8
0
 62
     6
 10
662.88885500000004
 20
-209.83830299999991
 30
0.0
 42
1.0
  0
VERTEX
  5
C04
  8
0
 62
     6
 10
664.38885500000004
 20
-209.83830299999991
 30
0.0
  0
SEQEND
  5
C05
  8
0
 62
     6
  0
TEXT
  5
978
  8
0
 62
     6
 10
665.63885500000004
 20
-240.71374499999999
 30
0.0
 40
3.0
  1
=
 50
270.0
 41
1.3333406060605799
 72
     5
 11
665.63885500000004
 21
-242.91375699999989
 31
0.0
  0
LINE
  5
979
  8
0
 62
     6
 10
620.39129600000001
 20
-211.08830299999991
 30
0.0
 11
665.63885500000004
 21
-211.08830299999991
 31
0.0
  0
LINE
  5
97A
  8
0
 62
     6
 10
555.23706100000004
 20
-209.83830299999991
 30
0.0
 11
665.63885500000004
 21
-209.83830299999991
 31
0.0
  0
POLYLINE
  5
97B
  8
0
 62
     6
 66
     1
 10
0.0
 20
0.0
 30
0.0
  0
VERTEX
  5
C06
  8
0
 62
     6
 10
664.15649400000007
 20
-213.0201569999999
 30
0.0
  0
VERTEX
  5
C07
  8
0
 62
     6
 10
663.63885500000004
 20
-211.08830299999991
 30
0.0
  0
VERTEX
  5
C08
  8
0
 62
     6
 10
663.121216
 20
-213.0201569999999
 30
0.0
  0
SEQEND
  5
C09
  8
0
 62
     6
  0
LINE
  5
980
  8
0
 62
     6
 10
663.63885500000004
 20
-242.9137419999999
 30
0.0
 11
663.63885500000004
 21
-211.33830299999991
 31
0.0
  0
LINE
  5
981
  8
0
 62
     6
 10
663.63885500000004
 20
-208.33830299999991
 30
0.0
 11
663.63885500000004
 21
-204.838303
 31
0.0
  0
CIRCLE
  5
982
  8
0
 62
     6
 10
663.63885500000004
 20
-209.83830299999991
 30
0.0
 40
1.5
  0
ENDBLK
  5
983
  8
0
  0
BLOCK
  8
0
  2
BLOCK43
 70
     0
 10
0.0
 20
0.0
 30
0.0
  3
BLOCK43
  1

  0
TEXT
  5
985
  8
0
 62
     7
 10
558.64611799999989
 20
-187.672562
 30
0.0
 40
3.0
  1
15
 50
270.0
 41
1.5270607058785459
 72
     5
 11
558.64611799999989
 21
-192.672562
 31
0.0
  0
TEXT
  5
986
  8
0
 62
     7
 10
558.64611799999989
 20
-184.47256499999989
 30
0.0
 40
3.0
  1
R
 50
270.0
 41
1.128211282051272
 72
     5
 11
558.64611799999989
 21
-186.67257699999999
 31
0.0
  0
POLYLINE
  5
987
  8
0
 62
     7
 66
     1
 10
0.0
 20
0.0
 30
0.0
  0
VERTEX
  5
C0A
  8
0
 62
     7
 10
563.95495599999981
 20
-203.590836
 30
0.0
  0
VERTEX
  5
C0B
  8
0
 62
     7
 10
565.77142300000003
 20
-204.42782600000001
 30
0.0
  0
VERTEX
  5
C0C
  8
0
 62
     7
 10
564.61682099999985
 20
-202.7947539999999
 30
0.0
  0
SEQEND
  5
C0D
  8
0
 62
     7
  0
LINE
  5
98C
  8
0
 62
     7
 10
565.77142300000003
 20
-204.42782600000001
 30
0.0
 11
557.64611799999989
 21
-197.672562
 31
0.0
  0
LINE
  5
98D
  8
0
 62
     7
 10
557.64611799999989
 20
-197.672562
 30
0.0
 11
557.64611799999989
 21
-184.47256499999989
 31
0.0
  0
ENDBLK
  5
98E
  8
0
  0
BLOCK
  8
0
  2
BLOCK44
 70
     0
 10
0.0
 20
0.0
 30
0.0
  3
BLOCK44
  1

  0
TEXT
  5
990
  8
0
 62
     1
 10
-356.34497099999987
 20
-21.450124999999989
 30
0.0
 40
2.5
  1
Ts3
 50
180.0
 41
1.4008822209402789
 72
     5
 11
-363.67831399999989
 21
-21.450124999999989
 31
0.0
  0
ENDBLK
  5
991
  8
0
  0
BLOCK
  8
0
  2
BLOCK45
 70
     0
 10
0.0
 20
0.0
 30
0.0
  3
BLOCK45
  1

  0
TEXT
  5
993
  8
0
 62
     1
 10
-304.15212999999989
 20
-26.000001999999999
 30
0.0
 40
2.0
  1
N0204 2007-09-17
 50
179.9999903280877
 41
1.101769307340638
 72
     5
 11
-327.84786999999989
 21
-25.999998000000001
 31
0.0
  0
ENDBLK
  5
994
  8
0
  0
BLOCK
  8
0
  2
BLOCK46
 70
     0
 10
0.0
 20
0.0
 30
0.0
  3
BLOCK46
  1

  0
TEXT
  5
996
  8
0
 62
     1
 10
-335.62203999999991
 20
-12.48337199999999
 30
0.0
 40
3.5
  1
1SDH000637R0.125
 50
180.0000051115023
 41
1.4977543245067839
 72
     5
 11
-391.66796899999991
 21
-12.483377000000001
 31
0.0
  0
ENDBLK
  5
997
  8
0
  0
BLOCK
  8
0
  2
BLOCK47
 70
     0
 10
0.0
 20
0.0
 30
0.0
  3
BLOCK47
  1

  0
TEXT
  5
999
  8
0
 62
     1
 10
-349.90679899999998
 20
-31.878264999999999
 30
0.0
 40
2.0
  1
APPLICAZIONE INTERBLOCCO TRA
 50
179.99999505466579
 41
0.8889380306905401
 72
     5
 11
-384.66427599999992
 21
-31.878261999999989
 31
0.0
  0
ENDBLK
  5
99A
  8
0
  0
BLOCK
  8
0
  2
BLOCK48
 70
     0
 10
0.0
 20
0.0
 30
0.0
  3
BLOCK48
  1

  0
TEXT
  5
99C
  8
0
 62
     1
 10
-341.78179899999998
 20
-28.878264999999999
 30
0.0
 40
2.0
  1
DUE INTERRUTTORI SOVRAPPOSTI SERIE ISOMAX
 50
179.99999663038381
 41
0.8902435602094264
 72
     5
 11
-392.792755
 21
-28.878261999999999
 31
0.0
  0
ENDBLK
  5
99D
  8
0
  0
BLOCK
  8
0
  2
BLOCK49
 70
     0
 10
0.0
 20
0.0
 30
0.0
  3
BLOCK49
  1

  0
TEXT
  5
99F
  8
0
 62
     1
 10
-349.829407
 20
-39.948532
 30
0.0
 40
2.0
  1
INTERLOCK APPLICATION BETWEEN
 50
179.99999363517259
 41
0.8801699095575711
 72
     5
 11
-385.83715799999999
 21
-39.948528000000003
 31
0.0
  0
ENDBLK
  5
9A0
  8
0
  0
BLOCK
  8
0
  2
BLOCK50
 70
     0
 10
0.0
 20
0.0
 30
0.0
  3
BLOCK50
  1

  0
TEXT
  5
9A2
  8
0
 62
     1
 10
-346.07940699999989
 20
-36.948532
 30
0.0
 40
2.0
  1
 TWO DOWNSTREAM MCCBS ISOMAX SERIES
 50
179.99999473255329
 41
0.8501369167477008
 72
     5
 11
-389.58874500000002
 21
-36.948528000000003
 31
0.0
  0
ENDBLK
  5
9A3
  8
0
  0
ENDSEC
  0
SECTION
  2
ENTITIES
  0
LINE
  5
25
  8
0
  6
DASHSPACE
 62
     7
 10
64.211833999999996
 20
907.52082300000006
 30
0.0
 11
81.211833999999996
 21
907.52082300000006
 31
0.0
  0
LINE
  5
26
  8
0
  6
DASHSPACE
 62
     7
 10
227.21183400000001
 20
907.52082300000006
 30
0.0
 11
244.2118419999999
 21
907.52082300000006
 31
0.0
  0
LINE
  5
27
  8
0
 62
     7
 10
64.211833999999996
 20
1044.0208230000001
 30
0.0
 11
244.2118419999999
 21
1044.0208230000001
 31
0.0
  0
LINE
  5
28
  8
0
 62
     7
 10
64.211833999999996
 20
466.02082300000012
 30
0.0
 11
244.2118419999999
 21
466.02082300000012
 31
0.0
  0
LINE
  5
29
  8
0
  6
DASHSPACE
 62
     7
 10
64.211833999999996
 20
602.52082299999995
 30
0.0
 11
81.211833999999996
 21
602.52082299999995
 31
0.0
  0
LINE
  5
2A
  8
0
  6
DASHSPACE
 62
     7
 10
227.21183400000001
 20
602.52082299999995
 30
0.0
 11
244.2118419999999
 21
602.52082299999995
 31
0.0
  0
LINE
  5
2B
  8
0
 62
     7
 10
64.211833999999996
 20
466.02082300000012
 30
0.0
 11
64.211833999999996
 21
1044.0208230000001
 31
0.0
  0
LINE
  5
2C
  8
0
 62
     7
 10
244.2118419999999
 20
466.02082300000012
 30
0.0
 11
244.2118419999999
 21
1044.0208230000001
 31
0.0
  0
LINE
  5
2D
  8
0
 62
     7
 10
124.411835
 20
817.52082299999995
 30
0.0
 11
124.411835
 21
825.02082299999995
 31
0.0
  0
LINE
  5
2E
  8
0
 62
     7
 10
149.01183700000001
 20
817.52082299999995
 30
0.0
 11
149.01183700000001
 21
825.02082299999995
 31
0.0
  0
LINE
  5
2F
  8
0
 62
     7
 10
89.411834999999996
 20
817.52082299999995
 30
0.0
 11
89.411834999999996
 21
825.02082299999995
 31
0.0
  0
LINE
  5
30
  8
0
 62
     7
 10
114.011833
 20
817.52082299999995
 30
0.0
 11
114.011833
 21
825.02082299999995
 31
0.0
  0
LINE
  5
31
  8
0
 62
     7
 10
194.41183100000001
 20
817.52082299999995
 30
0.0
 11
194.41183100000001
 21
825.02082299999995
 31
0.0
  0
LINE
  5
32
  8
0
 62
     7
 10
219.0118369999999
 20
817.52082299999995
 30
0.0
 11
219.0118369999999
 21
825.02082299999995
 31
0.0
  0
LINE
  5
33
  8
0
 62
     7
 10
159.41183099999989
 20
817.52082299999995
 30
0.0
 11
159.41183099999989
 21
825.02082299999995
 31
0.0
  0
LINE
  5
34
  8
0
 62
     7
 10
184.01183700000001
 20
817.52082299999995
 30
0.0
 11
184.01183700000001
 21
825.02082299999995
 31
0.0
  0
LINE
  5
35
  8
0
 62
     7
 10
124.411835
 20
995.02082300000006
 30
0.0
 11
124.411835
 21
1002.520823
 31
0.0
  0
LINE
  5
36
  8
0
 62
     7
 10
149.01183700000001
 20
995.02082300000006
 30
0.0
 11
149.01183700000001
 21
1002.520823
 31
0.0
  0
LINE
  5
37
  8
0
 62
     7
 10
89.411834999999996
 20
995.02082300000006
 30
0.0
 11
89.411834999999996
 21
1002.520823
 31
0.0
  0
LINE
  5
38
  8
0
 62
     7
 10
114.011833
 20
995.02082300000006
 30
0.0
 11
114.011833
 21
1002.520823
 31
0.0
  0
LINE
  5
39
  8
0
 62
     7
 10
194.41183100000001
 20
995.02082300000006
 30
0.0
 11
194.41183100000001
 21
1002.520823
 31
0.0
  0
LINE
  5
3A
  8
0
 62
     7
 10
219.0118369999999
 20
995.02082300000006
 30
0.0
 11
219.0118369999999
 21
1002.520823
 31
0.0
  0
LINE
  5
3B
  8
0
 62
     7
 10
159.41183099999989
 20
995.02082300000006
 30
0.0
 11
159.41183099999989
 21
1002.520823
 31
0.0
  0
LINE
  5
3C
  8
0
 62
     7
 10
184.01183700000001
 20
995.02082300000006
 30
0.0
 11
184.01183700000001
 21
1002.520823
 31
0.0
  0
LINE
  5
3D
  8
0
 62
     7
 10
124.411835
 20
507.52082300000001
 30
0.0
 11
124.411835
 21
515.02082299999995
 31
0.0
  0
LINE
  5
3E
  8
0
 62
     7
 10
149.01183700000001
 20
507.52082300000001
 30
0.0
 11
149.01183700000001
 21
515.02082299999995
 31
0.0
  0
LINE
  5
3F
  8
0
 62
     7
 10
89.411834999999996
 20
507.52082300000001
 30
0.0
 11
89.411834999999996
 21
515.02082299999995
 31
0.0
  0
LINE
  5
40
  8
0
 62
     7
 10
114.011833
 20
507.52082300000001
 30
0.0
 11
114.011833
 21
515.02082299999995
 31
0.0
  0
LINE
  5
41
  8
0
 62
     7
 10
194.41183100000001
 20
507.52082300000001
 30
0.0
 11
194.41183100000001
 21
527.77079200000003
 31
0.0
  0
LINE
  5
42
  8
0
 62
     7
 10
219.0118369999999
 20
507.52082300000001
 30
0.0
 11
219.0118369999999
 21
527.77079200000003
 31
0.0
  0
LINE
  5
43
  8
0
 62
     7
 10
159.41183099999989
 20
507.52082300000001
 30
0.0
 11
159.41183099999989
 21
515.02082299999995
 31
0.0
  0
LINE
  5
44
  8
0
 62
     7
 10
184.01183700000001
 20
507.52082300000001
 30
0.0
 11
184.01183700000001
 21
515.02082299999995
 31
0.0
  0
LINE
  5
45
  8
0
 62
     7
 10
124.411835
 20
685.02082299999995
 30
0.0
 11
124.411835
 21
692.52082299999995
 31
0.0
  0
LINE
  5
46
  8
0
 62
     7
 10
149.01183700000001
 20
685.02082299999995
 30
0.0
 11
149.01183700000001
 21
692.52082299999995
 31
0.0
  0
LINE
  5
47
  8
0
 62
     7
 10
89.411834999999996
 20
685.02082299999995
 30
0.0
 11
89.411834999999996
 21
692.52082299999995
 31
0.0
  0
LINE
  5
48
  8
0
 62
     7
 10
114.011833
 20
685.02082299999995
 30
0.0
 11
114.011833
 21
692.52082299999995
 31
0.0
  0
LINE
  5
49
  8
0
 62
     7
 10
194.41183100000001
 20
672.52082299999995
 30
0.0
 11
194.41183100000001
 21
692.52082299999995
 31
0.0
  0
LINE
  5
4A
  8
0
 62
     7
 10
219.0118369999999
 20
672.52082299999995
 30
0.0
 11
219.0118369999999
 21
692.52082299999995
 31
0.0
  0
LINE
  5
4B
  8
0
 62
     7
 10
159.41183099999989
 20
685.02082299999995
 30
0.0
 11
159.41183099999989
 21
692.52082299999995
 31
0.0
  0
LINE
  5
4C
  8
0
 62
     7
 10
184.01183700000001
 20
685.02082299999995
 30
0.0
 11
184.01183700000001
 21
692.52082299999995
 31
0.0
  0
ARC
  5
4D
  8
0
 62
     7
 10
206.71155200000001
 20
507.520487
 30
0.0
 40
12.29957299999999
 50
179.99846099999999
 51
0.00155
  0
ARC
  5
4E
  8
0
 62
     7
 10
171.71182999999991
 20
507.52082300000001
 30
0.0
 40
12.300006
 50
180.00000499999999
 51
360.0
  0
CIRCLE
  5
4F
  8
0
  6
DASHSPACE
 62
     7
 10
232.961849
 20
580.02082299999995
 30
0.0
 40
1.6500009999999989
  0
ARC
  5
50
  8
0
 62
     7
 10
136.71182999999999
 20
507.52079199999991
 30
0.0
 40
12.299994
 50
179.99996399999989
 51
0.000058
  0
ARC
  5
51
  8
0
 62
     7
 10
101.7118369999999
 20
507.52079199999991
 30
0.0
 40
12.299996
 50
179.99999099999991
 51
360.0
  0
CIRCLE
  5
52
  8
0
  6
DASHSPACE
 62
     7
 10
75.461844999999997
 20
580.02082299999995
 30
0.0
 40
1.6500019999999991
  0
ARC
  5
53
  8
0
 62
     7
 10
101.71187999999989
 20
692.52082299999995
 30
0.0
 40
12.300029999999991
 50
0.000065
 51
179.99993699999999
  0
ARC
  5
54
  8
0
 62
     7
 10
136.7118679999999
 20
692.52076199999999
 30
0.0
 40
12.300049
 50
0.000171
 51
179.99973199999991
  0
ARC
  5
55
  8
0
 62
     7
 10
171.71171599999991
 20
692.52106700000002
 30
0.0
 40
12.299723
 50
359.998808
 51
180.001193
  0
ARC
  5
56
  8
0
 62
     7
 10
206.7121929999999
 20
692.52015199999994
 30
0.0
 40
12.300739999999999
 50
0.003012
 51
179.99698599999999
  0
ARC
  5
57
  8
0
 62
     7
 10
206.71165799999989
 20
817.52149399999996
 30
0.0
 40
12.300596000000001
 50
180.00332399999991
 51
359.99667699999992
  0
ARC
  5
58
  8
0
 62
     7
 10
171.71191399999989
 20
817.52070100000014
 30
0.0
 40
12.29987
 50
179.99948599999999
 51
0.000507
  0
ARC
  5
59
  8
0
 62
     7
 10
136.71165500000001
 20
817.52131100000008
 30
0.0
 40
12.30045099999999
 50
180.00235499999991
 51
359.99766
  0
ARC
  5
5A
  8
0
 62
     7
 10
101.71165499999999
 20
817.52118899999994
 30
0.0
 40
12.300381
 50
180.0018629999999
 51
359.99812500000002
  0
CIRCLE
  5
5B
  8
0
  6
DASHSPACE
 62
     7
 10
75.461792000000003
 20
930.02076199999976
 30
0.0
 40
1.6500119999999989
  0
ARC
  5
5C
  8
0
 62
     7
 10
101.7118339999999
 20
1002.521372
 30
0.0
 40
12.299421000000001
 50
359.99730499999998
 51
180.00271000000001
  0
ARC
  5
5D
  8
0
 62
     7
 10
136.71199799999999
 20
1002.520396
 30
0.0
 40
12.300423
 50
0.002083
 51
179.99795599999999
  0
ARC
  5
5E
  8
0
 62
     7
 10
171.71157500000001
 20
1002.520762
 30
0.0
 40
12.300182
 50
0.000278
 51
179.999718
  0
CIRCLE
  5
5F
  8
0
  6
DASHSPACE
 62
     7
 10
232.96180299999989
 20
930.02076199999976
 30
0.0
 40
1.650018
  0
ARC
  5
60
  8
0
 62
     7
 10
206.71152900000001
 20
1002.520762
 30
0.0
 40
12.299429
 50
0.0
 51
180.00000499999999
  0
LINE
  5
61
  8
0
  6
DASHDOT
 62
     7
 10
228.311848
 20
580.02082299999995
 30
0.0
 11
237.61185099999989
 21
580.02082299999995
 31
0.0
  0
LINE
  5
62
  8
0
  6
DASHDOT
 62
     7
 10
232.961849
 20
575.37079900000003
 30
0.0
 11
232.961849
 21
584.67081699999994
 31
0.0
  0
LINE
  5
63
  8
0
  6
DASHDOT
 62
     7
 10
206.7118339999999
 20
513.22077400000001
 30
0.0
 11
206.7118339999999
 21
543.82081100000005
 31
0.0
  0
LINE
  5
64
  8
0
  6
DASHDOT
 62
     7
 10
191.41197600000001
 20
507.520487
 30
0.0
 11
222.01112000000001
 21
507.520487
 31
0.0
  0
LINE
  5
65
  8
0
  6
DASHDOT
 62
     7
 10
206.71155200000001
 20
492.22089599999993
 30
0.0
 11
206.71155200000001
 21
522.82004800000004
 31
0.0
  0
LINE
  5
66
  8
0
  6
DASHDOT
 62
     7
 10
156.411823
 20
507.52082300000001
 30
0.0
 11
187.01183700000001
 21
507.52082300000001
 31
0.0
  0
LINE
  5
67
  8
0
  6
DASHDOT
 62
     7
 10
171.71182999999991
 20
492.22080499999998
 30
0.0
 11
171.71182999999991
 21
522.82081100000005
 31
0.0
  0
LINE
  5
68
  8
0
  6
DASHDOT
 62
     7
 10
171.71181100000001
 20
513.221812
 30
0.0
 11
171.71181100000001
 21
543.82093299999985
 31
0.0
  0
LINE
  5
69
  8
0
  6
DASHDOT
 62
     7
 10
136.71181100000001
 20
513.22141500000009
 30
0.0
 11
136.71181100000001
 21
543.82087200000001
 31
0.0
  0
LINE
  5
6A
  8
0
  6
DASHDOT
 62
     7
 10
121.4118379999999
 20
507.52079199999991
 30
0.0
 11
152.01182600000001
 21
507.52079199999991
 31
0.0
  0
LINE
  5
6B
  8
0
  6
DASHDOT
 62
     7
 10
136.71182999999999
 20
492.22080499999998
 30
0.0
 11
136.71182999999999
 21
522.8207799999999
 31
0.0
  0
LINE
  5
6C
  8
0
  6
DASHDOT
 62
     7
 10
101.7118119999999
 20
513.22104899999999
 30
0.0
 11
101.7118119999999
 21
543.82084099999986
 31
0.0
  0
LINE
  5
6D
  8
0
  6
DASHDOT
 62
     7
 10
86.411839999999998
 20
507.52079199999991
 30
0.0
 11
117.01183399999999
 21
507.52079199999991
 31
0.0
  0
LINE
  5
6E
  8
0
  6
DASHDOT
 62
     7
 10
101.7118369999999
 20
492.22080499999998
 30
0.0
 11
101.7118369999999
 21
522.82081100000005
 31
0.0
  0
LINE
  5
6F
  8
0
  6
DASHDOT
 62
     7
 10
70.811843999999994
 20
580.02082299999995
 30
0.0
 11
80.111845000000002
 21
580.02082299999995
 31
0.0
  0
LINE
  5
70
  8
0
  6
DASHSPACE
 62
     7
 10
75.461844999999997
 20
575.37079900000003
 30
0.0
 11
75.461844999999997
 21
584.67081699999994
 31
0.0
  0
LINE
  5
71
  8
0
  6
DASHDOT
 62
     7
 10
101.7117419999999
 20
656.22083499999985
 30
0.0
 11
101.7117419999999
 21
686.82068900000002
 31
0.0
  0
LINE
  5
72
  8
0
  6
DASHDOT
 62
     7
 10
86.411850000000001
 20
692.52082299999995
 30
0.0
 11
117.01191
 21
692.52082299999995
 31
0.0
  0
LINE
  5
73
  8
0
  6
DASHDOT
 62
     7
 10
101.71187999999989
 20
677.22077399999989
 30
0.0
 11
101.71187999999989
 21
707.82081100000005
 31
0.0
  0
LINE
  5
74
  8
0
  6
DASHDOT
 62
     7
 10
136.71186399999991
 20
656.22077399999989
 30
0.0
 11
136.71186399999991
 21
686.82087200000001
 31
0.0
  0
LINE
  5
75
  8
0
  6
DASHDOT
 62
     7
 10
171.71218500000001
 20
656.22065199999997
 30
0.0
 11
171.71218500000001
 21
686.82148199999995
 31
0.0
  0
LINE
  5
76
  8
0
  6
DASHDOT
 62
     7
 10
206.7118419999999
 20
656.22077399999989
 30
0.0
 11
206.7118419999999
 21
686.82081100000005
 31
0.0
  0
LINE
  5
77
  8
0
  6
DASHDOT
 62
     7
 10
191.411449
 20
692.52015199999994
 30
0.0
 11
222.01292799999999
 21
692.52015199999994
 31
0.0
  0
LINE
  5
78
  8
0
  6
DASHDOT
 62
     7
 10
206.7121929999999
 20
677.21943099999987
 30
0.0
 11
206.7121929999999
 21
707.82087200000001
 31
0.0
  0
LINE
  5
79
  8
0
  6
DASHDOT
 62
     7
 10
156.41199499999999
 20
692.52106700000002
 30
0.0
 11
187.01143999999999
 21
692.52106700000002
 31
0.0
  0
LINE
  5
7A
  8
0
  6
DASHDOT
 62
     7
 10
171.71171599999991
 20
677.2213230000001
 30
0.0
 11
171.71171599999991
 21
707.82074999999986
 31
0.0
  0
LINE
  5
7B
  8
0
  6
DASHDOT
 62
     7
 10
121.41181899999989
 20
692.52076199999999
 30
0.0
 11
152.0119169999999
 21
692.52076199999999
 31
0.0
  0
LINE
  5
7C
  8
0
  6
DASHDOT
 62
     7
 10
136.7118679999999
 20
677.22071299999993
 30
0.0
 11
136.7118679999999
 21
707.82081100000005
 31
0.0
  0
LINE
  5
7D
  8
0
  6
DASHDOT
 62
     7
 10
191.41105999999999
 20
817.52149399999996
 30
0.0
 11
222.012249
 21
817.52149399999996
 31
0.0
  0
LINE
  5
7E
  8
0
  6
DASHDOT
 62
     7
 10
206.71165799999989
 20
802.22089600000004
 30
0.0
 11
206.71165799999989
 21
832.822093
 31
0.0
  0
LINE
  5
7F
  8
0
  6
DASHDOT
 62
     7
 10
156.41204500000001
 20
817.52070100000014
 30
0.0
 11
187.01178399999989
 21
817.52070100000014
 31
0.0
  0
LINE
  5
80
  8
0
  6
DASHDOT
 62
     7
 10
171.71191399999989
 20
802.22083499999985
 30
0.0
 11
171.71191399999989
 21
832.82056699999987
 31
0.0
  0
LINE
  5
81
  8
0
  6
DASHDOT
 62
     7
 10
121.411203
 20
817.52131100000008
 30
0.0
 11
152.01210800000001
 21
817.52131100000008
 31
0.0
  0
LINE
  5
82
  8
0
  6
DASHDOT
 62
     7
 10
136.71165500000001
 20
802.22083499999985
 30
0.0
 11
136.71165500000001
 21
832.82172600000001
 31
0.0
  0
LINE
  5
83
  8
0
  6
DASHDOT
 62
     7
 10
86.411274000000006
 20
817.52118899999994
 30
0.0
 11
117.012035
 21
817.52118899999994
 31
0.0
  0
LINE
  5
84
  8
0
  6
DASHDOT
 62
     7
 10
101.71165499999999
 20
802.22083499999985
 30
0.0
 11
101.71165499999999
 21
832.82160399999987
 31
0.0
  0
LINE
  5
85
  8
0
  6
DASHDOT
 62
     7
 10
101.7116569999999
 20
823.22089600000015
 30
0.0
 11
101.7116569999999
 21
853.82087200000012
 31
0.0
  0
LINE
  5
86
  8
0
  6
DASHDOT
 62
     7
 10
136.71195199999991
 20
823.22016399999995
 30
0.0
 11
136.71195199999991
 21
853.82081099999994
 31
0.0
  0
LINE
  5
87
  8
0
  6
DASHDOT
 62
     7
 10
171.71215100000001
 20
823.21857699999987
 30
0.0
 11
171.71215100000001
 21
853.82087200000012
 31
0.0
  0
LINE
  5
88
  8
0
  6
DASHDOT
 62
     7
 10
206.711803
 20
823.22107899999992
 30
0.0
 11
206.711803
 21
853.82081099999994
 31
0.0
  0
LINE
  5
89
  8
0
  6
DASHDOT
 62
     7
 10
228.31178700000001
 20
930.02076199999976
 30
0.0
 11
237.61181999999999
 21
930.02076199999976
 31
0.0
  0
LINE
  5
8A
  8
0
  6
DASHDOT
 62
     7
 10
232.96180299999989
 20
925.37073800000007
 30
0.0
 11
232.96180299999989
 21
934.67078599999979
 31
0.0
  0
LINE
  5
8B
  8
0
  6
DASHDOT
 62
     7
 10
70.811779000000001
 20
930.02076199999976
 30
0.0
 11
80.111803000000009
 21
930.02076199999976
 31
0.0
  0
LINE
  5
8C
  8
0
  6
DASHDOT
 62
     7
 10
75.461792000000003
 20
925.37079900000003
 30
0.0
 11
75.461792000000003
 21
934.67078599999979
 31
0.0
  0
LINE
  5
8D
  8
0
  6
DASHDOT
 62
     7
 10
101.71182399999989
 20
966.22077399999989
 30
0.0
 11
101.71182399999989
 21
996.82068900000013
 31
0.0
  0
LINE
  5
8E
  8
0
  6
DASHDOT
 62
     7
 10
136.71184
 20
966.22083499999997
 30
0.0
 11
136.71184
 21
996.82068900000013
 31
0.0
  0
LINE
  5
8F
  8
0
  6
DASHDOT
 62
     7
 10
171.71184199999999
 20
854.9125469999999
 30
0.0
 11
171.71184199999999
 21
996.82068900000013
 31
0.0
  0
LINE
  5
90
  8
0
  6
DASHDOT
 62
     7
 10
206.71152900000001
 20
966.22089600000004
 30
0.0
 11
206.71152900000001
 21
996.81977299999994
 31
0.0
  0
LINE
  5
91
  8
0
  6
DASHDOT
 62
     7
 10
191.41210599999999
 20
1002.520762
 30
0.0
 11
222.01096000000001
 21
1002.520762
 31
0.0
  0
LINE
  5
92
  8
0
  6
DASHDOT
 62
     7
 10
206.71152900000001
 20
987.2213230000001
 30
0.0
 11
206.71152900000001
 21
1017.8202
 31
0.0
  0
LINE
  5
93
  8
0
  6
DASHDOT
 62
     7
 10
156.41139200000001
 20
1002.520762
 30
0.0
 11
187.01176100000001
 21
1002.520762
 31
0.0
  0
LINE
  5
94
  8
0
  6
DASHDOT
 62
     7
 10
171.71157500000001
 20
987.2205909999999
 30
0.0
 11
171.71157500000001
 21
1020.661753
 31
0.0
  0
LINE
  5
95
  8
0
  6
DASHDOT
 62
     7
 10
121.411576
 20
1002.520396
 30
0.0
 11
152.0124209999999
 21
1002.520396
 31
0.0
  0
LINE
  5
96
  8
0
  6
DASHDOT
 62
     7
 10
136.71199799999999
 20
987.21998100000008
 30
0.0
 11
136.71199799999999
 21
1017.820810999999
 31
0.0
  0
LINE
  5
97
  8
0
  6
DASHDOT
 62
     7
 10
86.412413000000001
 20
1002.521372
 30
0.0
 11
117.0112559999999
 21
1002.521372
 31
0.0
  0
LINE
  5
98
  8
0
  6
DASHDOT
 62
     7
 10
101.7118339999999
 20
987.22199499999988
 30
0.0
 11
101.7118339999999
 21
1017.820810999999
 31
0.0
  0
LINE
  5
99
  8
0
  6
DASHDOT
 62
     7
 10
-9.4324300000000001
 20
755.02082299999995
 30
0.0
 11
320.78274900000002
 21
755.02082299999995
 31
0.0
  0
LINE
  5
9A
  8
0
 62
     7
 10
82.711833999999996
 20
586.02082299999995
 30
0.0
 11
82.711833999999996
 21
614.02082299999995
 31
0.0
  0
LINE
  5
9B
  8
0
 62
     7
 10
82.711833999999996
 20
896.02082299999995
 30
0.0
 11
82.711833999999996
 21
924.02082299999995
 31
0.0
  0
ARC
  5
9C
  8
0
 62
     7
 10
85.711833999999996
 20
614.02082299999995
 30
0.0
 40
3.0
 50
120.0004129999999
 51
180.00000499999999
  0
ARC
  5
9D
  8
0
 62
     7
 10
85.711833999999996
 20
896.02082299999995
 30
0.0
 40
3.0
 50
180.00000499999999
 51
239.99997999999991
  0
ARC
  5
9E
  8
0
 62
     7
 10
85.711833999999996
 20
924.02082299999995
 30
0.0
 40
3.0
 50
120.0000159999999
 51
180.00000499999999
  0
ARC
  5
9F
  8
0
 62
     7
 10
85.711833999999996
 20
586.02082299999995
 30
0.0
 40
3.0
 50
180.00000499999999
 51
239.99959699999999
  0
LINE
  5
A0
  8
0
  6
DASHDOT
 62
     7
 10
154.21183400000001
 20
415.26679499999989
 30
0.0
 11
154.21183400000001
 21
1093.955271
 31
0.0
  0
LINE
  5
A1
  8
0
  6
DASHDOT
 62
     7
 10
55.381659999999997
 20
907.72077400000001
 30
0.0
 11
252.71232999999989
 21
907.72077400000001
 31
0.0
  0
LINE
  5
A2
  8
0
  6
DASHDOT
 62
     7
 10
119.211821
 20
664.42090800000005
 30
0.0
 11
119.211821
 21
674.62073799999985
 31
0.0
  0
LINE
  5
A3
  8
0
  6
DASHDOT
 62
     7
 10
114.1118949999999
 20
669.52082299999995
 30
0.0
 11
124.311747
 21
669.52082299999995
 31
0.0
  0
LINE
  5
A4
  8
0
  6
DASHDOT
 62
     7
 10
119.2119399999999
 20
525.42078600000002
 30
0.0
 11
119.2119399999999
 21
535.62095099999999
 31
0.0
  0
LINE
  5
A5
  8
0
  6
DASHDOT
 62
     7
 10
114.111856
 20
530.52088400000002
 30
0.0
 11
124.31202399999989
 21
530.52088400000002
 31
0.0
  0
LINE
  5
A6
  8
0
  6
DASHDOT
 62
     7
 10
154.21196
 20
664.42066399999999
 30
0.0
 11
154.21196
 21
674.62079900000003
 31
0.0
  0
LINE
  5
A7
  8
0
  6
DASHDOT
 62
     7
 10
149.111897
 20
669.52076199999988
 30
0.0
 11
159.31202300000001
 21
669.52076199999988
 31
0.0
  0
LINE
  5
A8
  8
0
 62
     7
 10
189.211826
 20
583.02082300000006
 30
0.0
 11
200.71182599999989
 21
583.02082300000006
 31
0.0
  0
LINE
  5
A9
  8
0
 62
     7
 10
189.211826
 20
554.52082299999995
 30
0.0
 11
200.71182599999989
 21
554.52082299999995
 31
0.0
  0
LINE
  5
AA
  8
0
 62
     7
 10
200.71182599999989
 20
554.52082299999995
 30
0.0
 11
200.71182599999989
 21
583.02082300000006
 31
0.0
  0
LINE
  5
AB
  8
0
 62
     7
 10
189.21188699999999
 20
538.52076199999999
 30
0.0
 11
193.211735
 21
538.52076199999999
 31
0.0
  0
LINE
  5
AC
  8
0
 62
     7
 10
204.9618419999999
 20
640.02082299999995
 30
0.0
 11
204.9618419999999
 21
640.52082299999995
 31
0.0
  0
LINE
  5
AD
  8
0
 62
     7
 10
193.2115969999999
 20
536.52066999999988
 30
0.0
 11
193.21190300000001
 21
541.02079200000003
 31
0.0
  0
LINE
  5
AE
  8
0
 62
     7
 10
197.21188699999999
 20
536.52079200000003
 30
0.0
 11
197.21188699999999
 21
541.02079200000003
 31
0.0
  0
LINE
  5
AF
  8
0
 62
     7
 10
193.21190300000001
 20
541.02079200000003
 30
0.0
 11
197.21188699999999
 21
541.02079200000003
 31
0.0
  0
LINE
  5
B0
  8
0
 62
     7
 10
200.21190300000001
 20
547.52082299999995
 30
0.0
 11
202.711918
 21
547.52082299999995
 31
0.0
  0
LINE
  5
B1
  8
0
 62
     7
 10
200.21181100000001
 20
543.52079200000003
 30
0.0
 11
200.21190300000001
 21
547.52082299999995
 31
0.0
  0
LINE
  5
B2
  8
0
 62
     7
 10
200.21188699999999
 20
543.52082299999995
 30
0.0
 11
200.21190300000001
 21
547.52082299999995
 31
0.0
  0
LINE
  5
B3
  8
0
 62
     7
 10
193.21190300000001
 20
547.52082299999995
 30
0.0
 11
200.21190300000001
 21
547.52082299999995
 31
0.0
  0
LINE
  5
B4
  8
0
 62
     7
 10
193.2115969999999
 20
536.52060900000004
 30
0.0
 11
200.211918
 21
536.52066999999988
 31
0.0
  0
LINE
  5
B5
  8
0
 62
     7
 10
193.21158199999991
 20
532.52073099999996
 30
0.0
 11
199.19188299999999
 21
532.52076199999988
 31
0.0
  0
LINE
  5
B6
  8
0
 62
     7
 10
193.21190300000001
 20
541.02079200000003
 30
0.0
 11
193.21190300000001
 21
547.52082299999995
 31
0.0
  0
LINE
  5
B7
  8
0
 62
     7
 10
189.211872
 20
672.52082299999995
 30
0.0
 11
190.21190300000001
 21
672.52082299999995
 31
0.0
  0
LINE
  5
B8
  8
0
 62
     7
 10
189.211872
 20
668.52082299999995
 30
0.0
 11
190.21190300000001
 21
668.52082299999995
 31
0.0
  0
LINE
  5
B9
  8
0
 62
     7
 10
189.211872
 20
536.52054800000008
 30
0.0
 11
190.211308
 21
536.52054800000008
 31
0.0
  0
LINE
  5
BA
  8
0
 62
     7
 10
189.211872
 20
532.52054800000008
 30
0.0
 11
190.211277
 21
532.52054800000008
 31
0.0
  0
LINE
  5
BB
  8
0
 62
     7
 10
189.211872
 20
547.52082299999995
 30
0.0
 11
193.21190300000001
 21
547.52082299999995
 31
0.0
  0
LINE
  5
BC
  8
0
 62
     7
 10
189.211872
 20
543.52079200000003
 30
0.0
 11
193.21190300000001
 21
543.52079200000003
 31
0.0
  0
LINE
  5
BD
  8
0
 62
     7
 10
218.71190299999989
 20
640.52082299999995
 30
0.0
 11
219.71188699999999
 21
640.52082299999995
 31
0.0
  0
LINE
  5
BE
  8
0
 62
     7
 10
218.71190299999989
 20
672.52082299999995
 30
0.0
 11
219.71188699999999
 21
672.52082299999995
 31
0.0
  0
LINE
  5
BF
  8
0
 62
     7
 10
215.71190300000001
 20
672.52082299999995
 30
0.0
 11
218.71190299999989
 21
672.52082299999995
 31
0.0
  0
LINE
  5
C0
  8
0
 62
     7
 10
215.71190300000001
 20
640.52082299999995
 30
0.0
 11
218.71190299999989
 21
640.52082299999995
 31
0.0
  0
LINE
  5
C1
  8
0
 62
     7
 10
197.21179599999999
 20
616.52082300000006
 30
0.0
 11
197.21179599999999
 21
640.52082299999995
 31
0.0
  0
LINE
  5
C2
  8
0
 62
     7
 10
198.94188299999999
 20
528.52079200000003
 30
0.0
 11
199.19188299999999
 21
528.52079200000003
 31
0.0
  0
LINE
  5
C3
  8
0
 62
     7
 10
199.19188299999999
 20
527.77079200000003
 30
0.0
 11
219.71190299999989
 21
527.77079200000003
 31
0.0
  0
LINE
  5
C4
  8
0
 62
     7
 10
219.71190299999989
 20
527.77079200000003
 30
0.0
 11
219.71190299999989
 21
532.52079200000003
 31
0.0
  0
LINE
  5
C5
  8
0
 62
     7
 10
199.19188299999999
 20
527.77079200000003
 30
0.0
 11
199.19188299999999
 21
532.52079200000003
 31
0.0
  0
LINE
  5
C6
  8
0
 62
     7
 10
190.21185700000001
 20
530.27079200000003
 30
0.0
 11
198.941822
 21
530.27079200000003
 31
0.0
  0
LINE
  5
C7
  8
0
 62
     7
 10
190.21179599999991
 20
527.77079200000003
 30
0.0
 11
199.19188299999999
 21
527.77079200000003
 31
0.0
  0
LINE
  5
C8
  8
0
 62
     7
 10
190.21179599999991
 20
527.77079200000003
 30
0.0
 11
190.21190300000001
 21
532.52024299999994
 31
0.0
  0
LINE
  5
C9
  8
0
 62
     7
 10
190.21190300000001
 20
646.02082299999995
 30
0.0
 11
190.21190300000001
 21
659.27082299999995
 31
0.0
  0
LINE
  5
CA
  8
0
 62
     7
 10
197.21190300000001
 20
652.02082299999995
 30
0.0
 11
197.21190300000001
 21
659.27082299999995
 31
0.0
  0
LINE
  5
CB
  8
0
 62
     7
 10
197.21190300000001
 20
652.02082299999995
 30
0.0
 11
201.21190300000001
 21
652.02082299999995
 31
0.0
  0
LINE
  5
CC
  8
0
 62
     7
 10
201.21192599999989
 20
652.02082299999995
 30
0.0
 11
202.71192600000001
 21
653.52082300000006
 31
0.0
  0
LINE
  5
CD
  8
0
 62
     7
 10
201.96192600000001
 20
652.77082299999995
 30
0.0
 11
202.71197100000001
 21
653.52082300000006
 31
0.0
  0
LINE
  5
CE
  8
0
 62
     7
 10
202.71194800000001
 20
659.27082299999995
 30
0.0
 11
202.71196399999999
 21
653.52082300000006
 31
0.0
  0
LINE
  5
CF
  8
0
 62
     7
 10
202.71190300000001
 20
653.52082300000006
 30
0.0
 11
202.71190300000001
 21
659.27082299999995
 31
0.0
  0
LINE
  5
D0
  8
0
 62
     7
 10
194.21190300000001
 20
640.52082299999995
 30
0.0
 11
194.21190300000001
 21
643.52082299999995
 31
0.0
  0
LINE
  5
D1
  8
0
 62
     7
 10
194.21190300000001
 20
640.52082299999995
 30
0.0
 11
196.21190300000001
 21
640.52082299999995
 31
0.0
  0
LINE
  5
D2
  8
0
 62
     7
 10
194.21190300000001
 20
643.52082299999995
 30
0.0
 11
196.21190300000001
 21
643.52082299999995
 31
0.0
  0
LINE
  5
D3
  8
0
 62
     7
 10
194.21190300000001
 20
644.52082299999995
 30
0.0
 11
194.21190300000001
 21
649.02082299999995
 31
0.0
  0
LINE
  5
D4
  8
0
 62
     7
 10
196.21190300000001
 20
640.52082299999995
 30
0.0
 11
215.71190300000001
 21
640.52082299999995
 31
0.0
  0
LINE
  5
D5
  8
0
 62
     7
 10
190.21190300000001
 20
672.52082299999995
 30
0.0
 11
215.71190300000001
 21
672.52082299999995
 31
0.0
  0
LINE
  5
D6
  8
0
 62
     7
 10
190.21190300000001
 20
659.27082299999995
 30
0.0
 11
190.21190300000001
 21
672.52082299999995
 31
0.0
  0
LINE
  5
D7
  8
0
 62
     7
 10
190.21190300000001
 20
659.27082299999995
 30
0.0
 11
205.71190299999989
 21
659.27082299999995
 31
0.0
  0
LINE
  5
D8
  8
0
 62
     7
 10
205.71190299999989
 20
649.02082299999995
 30
0.0
 11
205.71190299999989
 21
659.27082299999995
 31
0.0
  0
LINE
  5
D9
  8
0
 62
     7
 10
194.21190300000001
 20
649.02082299999995
 30
0.0
 11
205.71190299999989
 21
649.02082299999995
 31
0.0
  0
LINE
  5
DA
  8
0
 62
     7
 10
194.21190300000001
 20
643.52082299999995
 30
0.0
 11
194.21190300000001
 21
644.52082299999995
 31
0.0
  0
LINE
  5
DB
  8
0
 62
     7
 10
190.21190300000001
 20
646.02082299999995
 30
0.0
 11
194.21190300000001
 21
646.02082299999995
 31
0.0
  0
LINE
  5
DC
  8
0
 62
     7
 10
202.71190300000001
 20
575.27076199999988
 30
0.0
 11
202.71190300000001
 21
610.52079200000003
 31
0.0
  0
LINE
  5
DD
  8
0
 62
     7
 10
202.71197100000001
 20
547.52082299999995
 30
0.0
 11
202.71197100000001
 21
564.77076199999999
 31
0.0
  0
LINE
  5
DE
  8
0
 62
     7
 10
197.21190300000001
 20
610.52079200000003
 30
0.0
 11
202.71190300000001
 21
610.52079200000003
 31
0.0
  0
LINE
  5
DF
  8
0
 62
     7
 10
202.71190300000001
 20
610.52079200000003
 30
0.0
 11
219.71188699999999
 21
610.52079200000003
 31
0.0
  0
LINE
  5
E0
  8
0
 62
     7
 10
207.71190299999989
 20
640.02082299999995
 30
0.0
 11
207.71190299999989
 21
640.52082299999995
 31
0.0
  0
LINE
  5
E1
  8
0
 62
     7
 10
200.7120929999999
 20
575.27076199999988
 30
0.0
 11
202.71188699999999
 21
575.27076199999988
 31
0.0
  0
LINE
  5
E2
  8
0
 62
     7
 10
202.71190300000001
 20
575.27076199999988
 30
0.0
 11
206.21190300000001
 21
575.27076199999988
 31
0.0
  0
LINE
  5
E3
  8
0
 62
     7
 10
200.7120929999999
 20
564.77076199999999
 30
0.0
 11
202.71188699999999
 21
564.77076199999999
 31
0.0
  0
LINE
  5
E4
  8
0
 62
     7
 10
202.71190300000001
 20
564.77076199999999
 30
0.0
 11
206.21190300000001
 21
564.77076199999999
 31
0.0
  0
LINE
  5
E5
  8
0
 62
     7
 10
197.21190999999999
 20
550.52082299999995
 30
0.0
 11
200.21190999999999
 21
547.52082299999995
 31
0.0
  0
LINE
  5
E6
  8
0
 62
     7
 10
209.46190300000001
 20
640.02082299999995
 30
0.0
 11
209.46190300000001
 21
640.52082299999995
 31
0.0
  0
LINE
  5
E7
  8
0
 62
     7
 10
211.96190299999989
 20
640.02082299999995
 30
0.0
 11
211.96190299999989
 21
640.52082299999995
 31
0.0
  0
LINE
  5
E8
  8
0
 62
     7
 10
219.71190999999999
 20
532.52079200000003
 30
0.0
 11
219.71190999999999
 21
672.52082299999995
 31
0.0
  0
LINE
  5
E9
  8
0
 62
     7
 10
220.71188699999999
 20
585.52076199999988
 30
0.0
 11
220.71188699999999
 21
605.52076199999999
 31
0.0
  0
LINE
  5
EA
  8
0
 62
     7
 10
196.21190300000001
 20
610.52079200000003
 30
0.0
 11
197.21190300000001
 21
610.52079200000003
 31
0.0
  0
LINE
  5
EB
  8
0
 62
     7
 10
196.21189499999991
 20
551.52082299999995
 30
0.0
 11
197.211895
 21
550.52082299999995
 31
0.0
  0
LINE
  5
EC
  8
0
 62
     7
 10
196.21190300000001
 20
551.52082299999995
 30
0.0
 11
196.21190300000001
 21
554.01426200000003
 31
0.0
  0
LINE
  5
ED
  8
0
 62
     7
 10
200.21188699999999
 20
543.52082299999995
 30
0.0
 11
200.211918
 21
536.52063999999996
 31
0.0
  0
LINE
  5
EE
  8
0
 62
     7
 10
200.211781
 20
536.52079200000003
 30
0.0
 11
200.21179599999999
 21
543.52079200000003
 31
0.0
  0
LINE
  5
EF
  8
0
 62
     7
 10
190.211308
 20
536.52054800000008
 30
0.0
 11
193.2115969999999
 21
536.52060900000004
 31
0.0
  0
LINE
  5
F0
  8
0
 62
     7
 10
190.211277
 20
532.52066999999988
 30
0.0
 11
190.211308
 21
536.52054800000008
 31
0.0
  0
LINE
  5
F1
  8
0
 62
     7
 10
190.211277
 20
532.52066999999988
 30
0.0
 11
193.21158199999991
 21
532.52073099999996
 31
0.0
  0
LINE
  5
F2
  8
0
 62
     7
 10
190.21179599999991
 20
532.52024299999994
 30
0.0
 11
193.2118419999999
 21
532.520579
 31
0.0
  0
LINE
  5
F3
  8
0
 62
     7
 10
190.21187199999989
 20
536.52054800000008
 30
0.0
 11
193.2118419999999
 21
536.52066999999988
 31
0.0
  0
LINE
  5
F4
  8
0
 62
     7
 10
189.211872
 20
644.52082299999995
 30
0.0
 11
194.21190300000001
 21
644.52082299999995
 31
0.0
  0
LINE
  5
F5
  8
0
 62
     7
 10
189.211872
 20
660.52082299999995
 30
0.0
 11
190.21190300000001
 21
660.52082299999995
 31
0.0
  0
LINE
  5
F6
  8
0
 62
     7
 10
196.21190300000001
 20
640.52082299999995
 30
0.0
 11
196.21190300000001
 21
643.52082299999995
 31
0.0
  0
LINE
  5
F7
  8
0
 62
     7
 10
196.13577699999999
 20
643.90351299999986
 30
0.0
 11
196.21190300000001
 21
643.52082299999995
 31
0.0
  0
LINE
  5
F8
  8
0
 62
     7
 10
195.919003
 20
644.22791500000005
 30
0.0
 11
196.1357689999999
 21
643.90351299999986
 31
0.0
  0
LINE
  5
F9
  8
0
 62
     7
 10
195.594585
 20
644.44471199999987
 30
0.0
 11
195.919003
 21
644.22791500000005
 31
0.0
  0
LINE
  5
FA
  8
0
 62
     7
 10
195.21190999999999
 20
644.52082299999995
 30
0.0
 11
195.59460100000001
 21
644.44471199999987
 31
0.0
  0
LINE
  5
FB
  8
0
 62
     7
 10
194.21190300000001
 20
644.52082299999995
 30
0.0
 11
195.21190300000001
 21
644.52082299999995
 31
0.0
  0
LINE
  5
FC
  8
0
 62
     7
 10
202.71190300000001
 20
640.02082299999995
 30
0.0
 11
209.21190300000001
 21
640.02082299999995
 31
0.0
  0
LINE
  5
FD
  8
0
 62
     7
 10
202.71190300000001
 20
610.52079200000003
 30
0.0
 11
202.71190300000001
 21
640.02082299999995
 31
0.0
  0
LINE
  5
FE
  8
0
 62
     7
 10
212.21190299999989
 20
640.02082299999995
 30
0.0
 11
218.71190299999989
 21
640.02082299999995
 31
0.0
  0
LINE
  5
FF
  8
0
 62
     7
 10
218.71190299999989
 20
610.52079200000003
 30
0.0
 11
218.71190299999989
 21
640.02082299999995
 31
0.0
  0
LINE
  5
100
  8
0
 62
     7
 10
209.21190300000001
 20
610.52082299999995
 30
0.0
 11
212.21190299999989
 21
610.52082299999995
 31
0.0
  0
LINE
  5
101
  8
0
 62
     7
 10
209.21190300000001
 20
640.02082299999995
 30
0.0
 11
212.21190299999989
 21
640.02082299999995
 31
0.0
  0
LINE
  5
102
  8
0
 62
     7
 10
196.21190300000001
 20
616.52076199999999
 30
0.0
 11
202.71190300000001
 21
616.52076199999999
 31
0.0
  0
LINE
  5
103
  8
0
 62
     7
 10
196.21190300000001
 20
610.52079200000003
 30
0.0
 11
196.21190300000001
 21
616.52076199999999
 31
0.0
  0
LINE
  5
104
  8
0
 62
     7
 10
189.211872
 20
651.52082299999995
 30
0.0
 11
190.21190300000001
 21
651.52082299999995
 31
0.0
  0
LINE
  5
105
  8
0
 62
     7
 10
189.211872
 20
647.52082299999995
 30
0.0
 11
190.21190300000001
 21
647.52082299999995
 31
0.0
  0
LINE
  5
106
  8
0
 62
     7
 10
194.21188699999999
 20
536.52079200000003
 30
0.0
 11
194.21188699999999
 21
541.02079200000003
 31
0.0
  0
LINE
  5
107
  8
0
 62
     7
 10
198.94188299999999
 20
528.52079200000003
 30
0.0
 11
198.94188299999999
 21
532.52079200000003
 31
0.0
  0
LINE
  5
108
  8
0
 62
     7
 10
199.71190300000001
 20
655.02082299999995
 30
0.0
 11
199.71190300000001
 21
659.27082299999995
 31
0.0
  0
LINE
  5
109
  8
0
 62
     7
 10
199.71189499999991
 20
655.02082299999995
 30
0.0
 11
201.96189499999991
 21
652.77082299999995
 31
0.0
  0
LINE
  5
10A
  8
0
 62
     7
 10
197.21190300000001
 20
655.02082299999995
 30
0.0
 11
199.71190300000001
 21
655.02082299999995
 31
0.0
  0
LINE
  5
10B
  8
0
 62
     7
 10
190.21190300000001
 20
662.27082299999995
 30
0.0
 11
208.71190300000001
 21
662.27082299999995
 31
0.0
  0
LINE
  5
10C
  8
0
 62
     7
 10
194.21190300000001
 20
646.02082299999995
 30
0.0
 11
208.71190300000001
 21
646.02082299999995
 31
0.0
  0
LINE
  5
10D
  8
0
 62
     7
 10
205.71191799999991
 20
649.02082299999995
 30
0.0
 11
208.711918
 21
646.02082299999995
 31
0.0
  0
LINE
  5
10E
  8
0
 62
     7
 10
208.71190300000001
 20
646.02082299999995
 30
0.0
 11
208.71190300000001
 21
662.27082299999995
 31
0.0
  0
LINE
  5
10F
  8
0
 62
     7
 10
205.71192599999989
 20
659.27088400000002
 30
0.0
 11
208.71192600000001
 21
662.27088400000002
 31
0.0
  0
LINE
  5
110
  8
0
 62
     7
 10
219.71190299999989
 20
605.52076199999999
 30
0.0
 11
220.71188699999999
 21
605.52076199999999
 31
0.0
  0
LINE
  5
111
  8
0
 62
     7
 10
219.71188699999999
 20
585.52076199999988
 30
0.0
 11
220.71188699999999
 21
585.52076199999988
 31
0.0
  0
LINE
  5
112
  8
0
 62
     7
 10
202.71193299999999
 20
536.52076199999988
 30
0.0
 11
202.71194800000001
 21
533.52088399999991
 31
0.0
  0
LINE
  5
113
  8
0
 62
     7
 10
202.71188699999999
 20
543.52079200000003
 30
0.0
 11
202.71193299999999
 21
536.52076199999988
 31
0.0
  0
LINE
  5
114
  8
0
 62
     7
 10
202.71188699999999
 20
543.52079200000003
 30
0.0
 11
202.711918
 21
547.52082299999995
 31
0.0
  0
LINE
  5
115
  8
0
 62
     7
 10
190.21129199999999
 20
533.52079200000003
 30
0.0
 11
193.21158199999991
 21
533.52082299999995
 31
0.0
  0
LINE
  5
116
  8
0
 62
     7
 10
193.21158199999991
 20
533.52082299999995
 30
0.0
 11
202.71194800000001
 21
533.52088399999991
 31
0.0
  0
LINE
  5
117
  8
0
 62
     7
 10
200.211918
 20
536.52063999999996
 30
0.0
 11
202.71194800000001
 21
533.52088399999991
 31
0.0
  0
LINE
  5
118
  8
0
 62
     7
 10
202.71190300000001
 20
562.27076199999988
 30
0.0
 11
206.21190300000001
 21
562.27076199999988
 31
0.0
  0
LINE
  5
119
  8
0
 62
     7
 10
202.71190300000001
 20
577.77076199999999
 30
0.0
 11
206.21190300000001
 21
577.77076199999999
 31
0.0
  0
LINE
  5
11A
  8
0
 62
     7
 10
206.21190300000001
 20
562.27076199999988
 30
0.0
 11
206.21190300000001
 21
564.77076199999999
 31
0.0
  0
LINE
  5
11B
  8
0
 62
     7
 10
206.21190300000001
 20
575.27076199999988
 30
0.0
 11
206.21190300000001
 21
577.77076199999999
 31
0.0
  0
LINE
  5
11C
  8
0
 62
     7
 10
196.21190300000001
 20
611.02076199999988
 30
0.0
 11
202.71190300000001
 21
611.02076199999988
 31
0.0
  0
CIRCLE
  5
11D
  8
0
 62
     7
 10
206.21218500000001
 20
570.02066999999988
 30
0.0
 40
5.2498189999999996
  0
ARC
  5
11E
  8
0
 62
     7
 10
206.21189499999991
 20
570.02079200000003
 30
0.0
 40
7.749992999999999
 50
0.0
 51
90.000003000000007
  0
ARC
  5
11F
  8
0
 62
     7
 10
206.21189499999991
 20
570.02079200000003
 30
0.0
 40
7.749992999999999
 50
270.000001
 51
360.0
  0
LINE
  5
120
  8
0
  6
DASHDOT
 62
     7
 10
206.21218500000001
 20
561.77085399999987
 30
0.0
 11
206.21218500000001
 21
578.27048699999989
 31
0.0
  0
LINE
  5
121
  8
0
  6
DASHDOT
 62
     7
 10
197.96236799999991
 20
570.02066999999988
 30
0.0
 11
214.46200200000001
 21
570.02066999999988
 31
0.0
  0
LINE
  5
122
  8
0
 62
     7
 10
196.21190300000001
 20
582.51426200000003
 30
0.0
 11
196.21190300000001
 21
610.52079200000003
 31
0.0
  0
LINE
  5
123
  8
0
 62
     7
 10
84.711856999999995
 20
650.27082299999995
 30
0.0
 11
188.71185700000001
 21
650.27082299999995
 31
0.0
  0
LINE
  5
124
  8
0
 62
     7
 10
84.711856999999995
 20
545.27082299999995
 30
0.0
 11
188.71185700000001
 21
545.27082299999995
 31
0.0
  0
ARC
  5
125
  8
0
 62
     7
 10
84.711856999999995
 20
649.77082299999995
 30
0.0
 40
0.5
 50
90.000003000000007
 51
180.00000499999999
  0
ARC
  5
126
  8
0
 62
     7
 10
188.71185700000001
 20
649.77082299999995
 30
0.0
 40
0.5
 50
0.0
 51
90.000003000000007
  0
ARC
  5
127
  8
0
 62
     7
 10
188.71185700000001
 20
545.77082299999995
 30
0.0
 40
0.5
 50
270.000001
 51
360.0
  0
ARC
  5
128
  8
0
 62
     7
 10
84.711856999999995
 20
545.77082299999995
 30
0.0
 40
0.5
 50
180.00000499999999
 51
270.000001
  0
LINE
  5
129
  8
0
 62
     7
 10
84.961856999999995
 20
649.52082300000006
 30
0.0
 11
188.46185700000001
 21
649.52082300000006
 31
0.0
  0
LINE
  5
12A
  8
0
 62
     7
 10
84.961856999999995
 20
546.02082299999995
 30
0.0
 11
188.46185700000001
 21
546.02082299999995
 31
0.0
  0
LINE
  5
12B
  8
0
 62
     7
 10
84.961856999999995
 20
546.02082299999995
 30
0.0
 11
84.961856999999995
 21
649.52082300000006
 31
0.0
  0
LINE
  5
12C
  8
0
 62
     7
 10
188.46185700000001
 20
546.02082299999995
 30
0.0
 11
188.46185700000001
 21
649.52082300000006
 31
0.0
  0
LINE
  5
12D
  8
0
 62
     7
 10
84.961856999999995
 20
638.27082299999995
 30
0.0
 11
188.46185700000001
 21
638.27082299999995
 31
0.0
  0
LINE
  5
12E
  8
0
 62
     7
 10
84.961856999999995
 20
648.27082299999995
 30
0.0
 11
188.46185700000001
 21
648.27082299999995
 31
0.0
  0
LINE
  5
12F
  8
0
 62
     7
 10
154.71185700000001
 20
546.02082299999995
 30
0.0
 11
154.71185700000001
 21
638.27082299999995
 31
0.0
  0
LINE
  5
130
  8
0
 62
     7
 10
184.71185700000001
 20
546.02082299999995
 30
0.0
 11
184.71185700000001
 21
638.27082299999995
 31
0.0
  0
LINE
  5
131
  8
0
 62
     7
 10
153.71185700000001
 20
546.02082299999995
 30
0.0
 11
153.71185700000001
 21
638.27082299999995
 31
0.0
  0
LINE
  5
132
  8
0
 62
     7
 10
185.71185700000001
 20
546.02082299999995
 30
0.0
 11
185.71185700000001
 21
638.27082299999995
 31
0.0
  0
CIRCLE
  5
133
  8
0
 62
     7
 10
169.71185700000001
 20
619.77082299999995
 30
0.0
 40
10.749999999999989
  0
CIRCLE
  5
134
  8
0
 62
     7
 10
169.71185700000001
 20
570.47083499999985
 30
0.0
 40
10.749999999999989
  0
LINE
  5
135
  8
0
  6
DASHDOT
 62
     7
 10
169.71185700000001
 20
606.02082299999995
 30
0.0
 11
169.71185700000001
 21
633.52082299999995
 31
0.0
  0
LINE
  5
136
  8
0
  6
DASHDOT
 62
     7
 10
155.96185700000001
 20
619.77082299999995
 30
0.0
 11
183.46185700000001
 21
619.77082299999995
 31
0.0
  0
LINE
  5
137
  8
0
  6
DASHDOT
 62
     7
 10
169.71185700000001
 20
556.72083499999985
 30
0.0
 11
169.71185700000001
 21
584.22083499999985
 31
0.0
  0
LINE
  5
138
  8
0
  6
DASHDOT
 62
     7
 10
155.96185700000001
 20
570.47083499999985
 30
0.0
 11
183.46185700000001
 21
570.47083499999985
 31
0.0
  0
LINE
  5
139
  8
0
  6
DASHDOT
 62
     7
 10
133.78480500000001
 20
555.27082299999995
 30
0.0
 11
139.31226699999991
 21
555.27082299999995
 31
0.0
  0
LINE
  5
13A
  8
0
  6
DASHDOT
 62
     7
 10
136.71185700000001
 20
552.44553600000006
 30
0.0
 11
136.71185700000001
 21
557.71470099999999
 31
0.0
  0
ARC
  5
13B
  8
0
 62
     7
 10
116.461856
 20
574.77082299999995
 30
0.0
 40
5.25
 50
0.0
 51
180.00000499999999
  0
ARC
  5
13C
  8
0
 62
     7
 10
116.461856
 20
564.77082299999995
 30
0.0
 40
5.25
 50
1.56166
 51
360.0
  0
LINE
  5
13D
  8
0
 62
     7
 10
121.711856
 20
564.77082299999995
 30
0.0
 11
121.711856
 21
574.77082299999995
 31
0.0
  0
LINE
  5
13E
  8
0
 62
     7
 10
111.211856
 20
564.77082299999995
 30
0.0
 11
111.211856
 21
574.77082299999995
 31
0.0
  0
LINE
  5
13F
  8
0
  6
DASHDOT
 62
     7
 10
116.461856
 20
556.52082299999995
 30
0.0
 11
116.461856
 21
573.02082299999995
 31
0.0
  0
LINE
  5
140
  8
0
  6
DASHDOT
 62
     7
 10
108.211856
 20
564.77082299999995
 30
0.0
 11
124.711856
 21
564.77082299999995
 31
0.0
  0
LINE
  5
141
  8
0
 62
     7
 10
111.307974
 20
565.77082299999995
 30
0.0
 11
121.61573799999999
 21
565.77082299999995
 31
0.0
  0
LINE
  5
142
  8
0
 62
     7
 10
111.307974
 20
563.77082299999995
 30
0.0
 11
121.61573799999999
 21
563.77082299999995
 31
0.0
  0
LINE
  5
143
  8
0
 62
     7
 10
176.96185700000001
 20
606.52082299999995
 30
0.0
 11
179.46185700000001
 21
606.52082299999995
 31
0.0
  0
LINE
  5
144
  8
0
 62
     7
 10
176.96185700000001
 20
589.02082299999995
 30
0.0
 11
179.46185700000001
 21
589.02082299999995
 31
0.0
  0
LINE
  5
145
  8
0
 62
     7
 10
176.96185700000001
 20
589.02082299999995
 30
0.0
 11
176.96185700000001
 21
606.52082299999995
 31
0.0
  0
LINE
  5
146
  8
0
 62
     7
 10
179.46185700000001
 20
589.02082299999995
 30
0.0
 11
179.46185700000001
 21
606.52082299999995
 31
0.0
  0
LINE
  5
147
  8
0
 62
     1
 10
104.461856
 20
629.77082299999995
 30
0.0
 11
104.461856
 21
636.13086900000008
 31
0.0
  0
LINE
  5
148
  8
0
 62
     1
 10
104.461856
 20
629.77082299999995
 30
0.0
 11
110.961856
 21
629.77082299999995
 31
0.0
  0
LINE
  5
149
  8
0
 62
     1
 10
110.961856
 20
590.89615900000001
 30
0.0
 11
110.961856
 21
629.77082299999995
 31
0.0
  0
ARC
  5
14A
  8
0
 62
     1
 10
116.461856
 20
614.77082299999995
 30
0.0
 40
23.0
 50
146.0000039999999
 51
256.16476899999998
  0
ARC
  5
14B
  8
0
 62
     1
 10
116.461856
 20
614.77082299999995
 30
0.0
 40
24.5
 50
119.327175
 51
257.02712200000002
  0
LINE
  5
14C
  8
0
 62
     1
 10
96.150435000000002
 20
628.47107900000003
 30
0.0
 11
97.393992000000011
 21
627.63227300000005
 31
0.0
  0
LINE
  5
14D
  8
0
 62
     1
 10
97.461856000000026
 20
614.77082299999995
 30
0.0
 11
104.961856
 21
622.27082300000006
 31
0.0
  0
LINE
  5
14E
  8
0
 62
     1
 10
97.461856000000026
 20
614.77082299999995
 30
0.0
 11
104.961856
 21
607.27082299999995
 31
0.0
  0
LINE
  5
14F
  8
0
 62
     1
 10
104.961856
 20
607.27082299999995
 30
0.0
 11
104.961856
 21
622.27082300000006
 31
0.0
  0
ARC
  5
150
  8
0
 62
     1
 10
116.461856
 20
614.77082299999995
 30
0.0
 40
22.5
 50
284.14901099999992
 51
75.850992000000005
  0
LINE
  5
151
  8
0
 62
     1
 10
121.961856
 20
592.95340999999985
 30
0.0
 11
121.961856
 21
636.58826699999986
 31
0.0
  0
LINE
  5
152
  8
0
 62
     1
 10
121.961856
 20
622.77082300000006
 30
0.0
 11
137.4915959999999
 21
622.77082300000006
 31
0.0
  0
LINE
  5
153
  8
0
 62
     1
 10
121.961856
 20
606.77082299999995
 30
0.0
 11
137.4915959999999
 21
606.77082299999995
 31
0.0
  0
LINE
  5
154
  8
0
 62
     1
 10
121.461856
 20
592.83341499999995
 30
0.0
 11
121.461856
 21
636.70826199999988
 31
0.0
  0
LINE
  5
155
  8
0
 62
     1
 10
112.461856
 20
586.77082299999995
 30
0.0
 11
112.461856
 21
636.06049599999994
 31
0.0
  0
ARC
  5
156
  8
0
 62
     1
 10
116.461856
 20
614.77082299999995
 30
0.0
 40
22.5
 50
77.160415
 51
87.452683999999977
  0
LINE
  5
157
  8
0
 62
     1
 10
117.461856
 20
592.29307000000006
 30
0.0
 11
117.461856
 21
637.24860599999988
 31
0.0
  0
LINE
  5
158
  8
0
 62
     1
 10
115.461856
 20
586.77082299999995
 30
0.0
 11
115.461856
 21
637.24860599999988
 31
0.0
  0
ARC
  5
159
  8
0
 62
     1
 10
116.461856
 20
614.77082299999995
 30
0.0
 40
22.5
 50
92.547320999999997
 51
116.3878039999999
  0
ARC
  5
15A
  8
0
 62
     1
 10
116.461856
 20
614.77082299999995
 30
0.0
 40
22.5
 50
259.75966199999999
 51
267.45269500000001
  0
LINE
  5
15B
  8
0
 62
     1
 10
115.461856
 20
633.27082299999995
 30
0.0
 11
117.461856
 21
633.27082299999995
 31
0.0
  0
LINE
  5
15C
  8
0
 62
     1
 10
115.461856
 20
596.27082299999995
 30
0.0
 11
117.461856
 21
596.27082299999995
 31
0.0
  0
LINE
  5
15D
  8
0
 62
     1
 10
106.461856
 20
631.77082299999995
 30
0.0
 11
106.461856
 21
634.92646300000001
 31
0.0
  0
LINE
  5
15E
  8
0
 62
     1
 10
107.461856
 20
630.77082300000006
 30
0.0
 11
112.461856
 21
630.77082300000006
 31
0.0
  0
ARC
  5
15F
  8
0
 62
     1
 10
107.461856
 20
631.77082299999995
 30
0.0
 40
1.0
 50
180.00000499999999
 51
270.000001
  0
ARC
  5
160
  8
0
 62
     1
 10
113.461856
 20
636.06049599999994
 30
0.0
 40
1.0
 50
98.020932000000016
 51
180.00000499999999
  0
LINE
  5
161
  8
0
 62
     1
 10
112.461856
 20
586.77082299999995
 30
0.0
 11
115.461856
 21
586.77082299999995
 31
0.0
  0
ARC
  5
162
  8
0
 62
     1
 10
116.461856
 20
614.77082299999995
 30
0.0
 40
22.5
 50
272.54730599999999
 51
282.8395809999999
  0
CIRCLE
  5
163
  8
0
 62
     7
 10
89.211856999999995
 20
614.77082299999995
 30
0.0
 40
2.5
  0
CIRCLE
  5
164
  8
0
 62
     7
 10
89.211856999999995
 20
614.77082299999995
 30
0.0
 40
1.5
  0
LINE
  5
165
  8
0
 62
     7
 10
115.461856
 20
583.52082299999995
 30
0.0
 11
115.461856
 21
591.52082300000006
 31
0.0
  0
LINE
  5
166
  8
0
 62
     7
 10
117.461856
 20
583.52082299999995
 30
0.0
 11
117.461856
 21
591.52082300000006
 31
0.0
  0
LINE
  5
167
  8
0
 62
     7
 10
115.461856
 20
591.52082300000006
 30
0.0
 11
117.461856
 21
591.52082300000006
 31
0.0
  0
LINE
  5
168
  8
0
 62
     7
 10
115.461856
 20
583.52082299999995
 30
0.0
 11
117.461856
 21
583.52082299999995
 31
0.0
  0
LINE
  5
169
  8
0
 62
     7
 10
186.71182599999989
 20
682.22083499999985
 30
0.0
 11
189.211826
 21
682.22083499999985
 31
0.0
  0
LINE
  5
16A
  8
0
 62
     7
 10
186.71182599999989
 20
682.22083499999985
 30
0.0
 11
186.71182599999989
 21
684.02082299999995
 31
0.0
  0
LINE
  5
16B
  8
0
 62
     7
 10
87.711826000000016
 20
685.02082299999995
 30
0.0
 11
117.4618209999999
 21
685.02082299999995
 31
0.0
  0
LINE
  5
16C
  8
0
 62
     7
 10
120.961821
 20
685.02082299999995
 30
0.0
 11
152.46189099999989
 21
685.02082299999995
 31
0.0
  0
LINE
  5
16D
  8
0
 62
     7
 10
155.96189099999989
 20
685.02082299999995
 30
0.0
 11
185.711826
 21
685.02082299999995
 31
0.0
  0
LINE
  5
16E
  8
0
 62
     7
 10
86.711825999999988
 20
682.22083499999985
 30
0.0
 11
86.711825999999988
 21
684.02082299999995
 31
0.0
  0
LINE
  5
16F
  8
0
 62
     7
 10
84.211825999999988
 20
682.22083499999985
 30
0.0
 11
86.711825999999988
 21
682.22083499999985
 31
0.0
  0
LINE
  5
170
  8
0
 62
     7
 10
84.211815000000016
 20
517.82081100000005
 30
0.0
 11
84.211815000000016
 21
682.22083499999985
 31
0.0
  0
LINE
  5
171
  8
0
 62
     7
 10
84.211825999999988
 20
517.82081100000005
 30
0.0
 11
86.711825999999988
 21
517.82081100000005
 31
0.0
  0
LINE
  5
172
  8
0
 62
     7
 10
86.711825999999988
 20
516.02082300000006
 30
0.0
 11
86.711825999999988
 21
517.82081100000005
 31
0.0
  0
LINE
  5
173
  8
0
 62
     7
 10
116.7118209999999
 20
678.52082300000006
 30
0.0
 11
121.7118209999999
 21
678.52082300000006
 31
0.0
  0
LINE
  5
174
  8
0
 62
     7
 10
179.96181100000001
 20
661.02082299999995
 30
0.0
 11
179.96181899999991
 21
665.02082299999995
 31
0.0
  0
LINE
  5
175
  8
0
 62
     7
 10
93.461826000000002
 20
661.02082299999995
 30
0.0
 11
179.96181100000001
 21
661.02082299999995
 31
0.0
  0
LINE
  5
176
  8
0
 62
     7
 10
93.461826000000002
 20
661.02082299999995
 30
0.0
 11
93.461826000000002
 21
665.02082299999995
 31
0.0
  0
LINE
  5
177
  8
0
 62
     7
 10
183.711826
 20
668.77082300000006
 30
0.0
 11
186.71182599999989
 21
668.77082300000006
 31
0.0
  0
LINE
  5
178
  8
0
 62
     7
 10
186.71182599999989
 20
668.77082300000006
 30
0.0
 11
186.71182599999989
 21
682.22083499999985
 31
0.0
  0
LINE
  5
179
  8
0
 62
     7
 10
86.711825999999988
 20
668.77082300000006
 30
0.0
 11
89.711827999999997
 21
668.77082300000006
 31
0.0
  0
LINE
  5
17A
  8
0
 62
     7
 10
86.711821000000015
 20
668.77082300000006
 30
0.0
 11
86.711821000000015
 21
682.22083499999985
 31
0.0
  0
LINE
  5
17B
  8
0
 62
     7
 10
93.461826000000002
 20
535.02082299999995
 30
0.0
 11
93.461826000000002
 21
539.02082299999995
 31
0.0
  0
LINE
  5
17C
  8
0
 62
     7
 10
93.461826000000002
 20
539.02082299999995
 30
0.0
 11
179.961826
 21
539.02082299999995
 31
0.0
  0
LINE
  5
17D
  8
0
 62
     7
 10
86.711825999999988
 20
531.27082300000006
 30
0.0
 11
89.711827999999997
 21
531.27082300000006
 31
0.0
  0
LINE
  5
17E
  8
0
 62
     7
 10
86.711825999999988
 20
517.82081100000005
 30
0.0
 11
86.711825999999988
 21
531.27082300000006
 31
0.0
  0
LINE
  5
17F
  8
0
 62
     7
 10
157.961826
 20
661.52082299999995
 30
0.0
 11
157.961826
 21
667.18891399999995
 31
0.0
  0
LINE
  5
180
  8
0
 62
     7
 10
88.276763999999986
 20
668.48536200000001
 30
0.0
 11
89.711827999999997
 21
668.77082300000006
 31
0.0
  0
LINE
  5
181
  8
0
 62
     7
 10
87.060182999999995
 20
667.67249500000003
 30
0.0
 11
88.276769999999985
 21
668.48536200000001
 31
0.0
  0
LINE
  5
182
  8
0
 62
     7
 10
86.247274000000004
 20
666.45588199999986
 30
0.0
 11
87.060172999999992
 21
667.67249500000003
 31
0.0
  0
LINE
  5
183
  8
0
 62
     7
 10
85.961826000000002
 20
665.02082299999995
 30
0.0
 11
86.247277999999994
 21
666.45588199999986
 31
0.0
  0
LINE
  5
184
  8
0
 62
     7
 10
85.961826000000002
 20
665.02082299999995
 30
0.0
 11
86.247277999999994
 21
663.58576399999993
 31
0.0
  0
LINE
  5
185
  8
0
 62
     7
 10
86.247281999999984
 20
663.58576399999993
 30
0.0
 11
87.060179000000005
 21
662.36915099999999
 31
0.0
  0
LINE
  5
186
  8
0
 62
     7
 10
87.060170999999997
 20
662.36915099999999
 30
0.0
 11
88.276759999999996
 21
661.55628399999989
 31
0.0
  0
LINE
  5
187
  8
0
 62
     7
 10
88.276763999999986
 20
661.55628399999989
 30
0.0
 11
89.711826000000002
 21
661.27082299999995
 31
0.0
  0
LINE
  5
188
  8
0
 62
     7
 10
189.211826
 20
517.82081100000005
 30
0.0
 11
189.211826
 21
682.22083499999985
 31
0.0
  0
CIRCLE
  5
189
  8
0
 62
     7
 10
101.7118259999999
 20
672.52082299999995
 30
0.0
 40
5.5000010000000001
  0
CIRCLE
  5
18A
  8
0
 62
     7
 10
101.7118219999999
 20
681.02082299999995
 30
0.0
 40
1.4000049999999991
  0
CIRCLE
  5
18B
  8
0
 62
     7
 10
119.211821
 20
669.52082299999995
 30
0.0
 40
4.499992999999999
  0
CIRCLE
  5
18C
  8
0
 62
     7
 10
136.71185700000001
 20
672.52082299999995
 30
0.0
 40
5.500030999999999
  0
CIRCLE
  5
18D
  8
0
 62
     7
 10
136.711826
 20
681.02082299999995
 30
0.0
 40
1.4000019999999991
  0
ARC
  5
18E
  8
0
 62
     7
 10
119.2118419999999
 20
661.52082299999995
 30
0.0
 40
1.7499919999999991
 50
343.39767899999998
 51
196.60232400000001
  0
ARC
  5
18F
  8
0
 62
     7
 10
119.211817
 20
661.52082299999995
 30
0.0
 40
3.7500239999999989
 50
180.000032
 51
187.6625479999999
  0
ARC
  5
190
  8
0
 62
     7
 10
154.2118229999999
 20
661.52082299999995
 30
0.0
 40
3.7500070000000001
 50
180.00012799999999
 51
187.66230200000001
  0
ARC
  5
191
  8
0
 62
     7
 10
154.21182999999999
 20
661.52082299999995
 30
0.0
 40
1.749997
 50
343.39857999999992
 51
196.60143600000001
  0
CIRCLE
  5
192
  8
0
 62
     7
 10
154.21182999999999
 20
669.52082299999995
 30
0.0
 40
4.5
  0
CIRCLE
  5
193
  8
0
 62
     7
 10
171.71183400000001
 20
672.52088400000002
 30
0.0
 40
5.4999719999999996
  0
CIRCLE
  5
194
  8
0
 62
     7
 10
171.711838
 20
681.02082299999995
 30
0.0
 40
1.3999909999999991
  0
CIRCLE
  5
195
  8
0
 62
     7
 10
183.71181100000001
 20
665.02082299999995
 30
0.0
 40
1.7500180000000001
  0
ARC
  5
196
  8
0
 62
     7
 10
185.71183400000001
 20
684.02082299999995
 30
0.0
 40
0.999995
 50
359.99979100000002
 51
90.000228000000007
  0
CIRCLE
  5
197
  8
0
 62
     7
 10
89.711832000000001
 20
665.02082299999995
 30
0.0
 40
1.750006
  0
ARC
  5
198
  8
0
 62
     7
 10
89.711855
 20
665.02076199999988
 30
0.0
 40
3.749919999999999
 50
269.99956400000002
 51
90.000411999999997
  0
ARC
  5
199
  8
0
 62
     7
 10
87.711830000000006
 20
684.02082299999995
 30
0.0
 40
1.0000039999999999
 50
90.000049999999987
 51
180.00048299999989
  0
CIRCLE
  5
19A
  8
0
 62
     7
 10
89.711826000000002
 20
535.02082299999995
 30
0.0
 40
1.7499990000000001
  0
CIRCLE
  5
19B
  8
0
 62
     7
 10
101.711843
 20
527.52082299999995
 30
0.0
 40
5.4999969999999996
  0
CIRCLE
  5
19C
  8
0
 62
     7
 10
101.71184
 20
519.02082299999995
 30
0.0
 40
1.399999999999999
  0
ARC
  5
19D
  8
0
 62
     7
 10
87.711826000000016
 20
516.02082300000006
 30
0.0
 40
1.0
 50
180.00000499999999
 51
270.000001
  0
LINE
  5
19E
  8
0
  6
DASHDOT
 62
     7
 10
97.311817000000005
 20
681.02082299999995
 30
0.0
 11
106.11182599999999
 21
681.02082299999995
 31
0.0
  0
LINE
  5
19F
  8
0
  6
DASHDOT
 62
     7
 10
93.211823999999993
 20
672.52082299999995
 30
0.0
 11
110.211828
 21
672.52082299999995
 31
0.0
  0
LINE
  5
1A0
  8
0
  6
DASHDOT
 62
     7
 10
132.311823
 20
681.02082299999995
 30
0.0
 11
141.11182799999989
 21
681.02082299999995
 31
0.0
  0
LINE
  5
1A1
  8
0
  6
DASHDOT
 62
     7
 10
128.21182400000001
 20
672.52082299999995
 30
0.0
 11
145.21188699999999
 21
672.52082299999995
 31
0.0
  0
LINE
  5
1A2
  8
0
  6
DASHDOT
 62
     7
 10
114.146078
 20
661.52082299999995
 30
0.0
 11
124.12260499999999
 21
661.52082299999995
 31
0.0
  0
LINE
  5
1A3
  8
0
  6
DASHDOT
 62
     7
 10
149.3248669999999
 20
661.52082299999995
 30
0.0
 11
158.96182599999989
 21
661.52082299999995
 31
0.0
  0
LINE
  5
1A4
  8
0
  6
DASHDOT
 62
     7
 10
167.311848
 20
681.02082299999995
 30
0.0
 11
176.11182799999989
 21
681.02082299999995
 31
0.0
  0
LINE
  5
1A5
  8
0
  6
DASHDOT
 62
     7
 10
163.211861
 20
672.52088400000002
 30
0.0
 11
180.211803
 21
672.52088400000002
 31
0.0
  0
LINE
  5
1A6
  8
0
  6
DASHDOT
 62
     7
 10
89.711855
 20
658.27082299999995
 30
0.0
 11
89.711855
 21
671.77063999999996
 31
0.0
  0
LINE
  5
1A7
  8
0
  6
DASHDOT
 62
     7
 10
82.961934999999997
 20
665.02076199999988
 30
0.0
 11
96.461775000000003
 21
665.02076199999988
 31
0.0
  0
LINE
  5
1A8
  8
0
  6
DASHDOT
 62
     7
 10
93.211844999999997
 20
527.52082299999995
 30
0.0
 11
110.2118399999999
 21
527.52082299999995
 31
0.0
  0
LINE
  5
1A9
  8
0
  6
DASHDOT
 62
     7
 10
97.311839000000006
 20
519.02082299999995
 30
0.0
 11
106.1118399999999
 21
519.02082299999995
 31
0.0
  0
LINE
  5
1AA
  8
0
  6
DASHDOT
 62
     7
 10
183.71181100000001
 20
660.27082300000006
 30
0.0
 11
183.71181100000001
 21
669.77088400000002
 31
0.0
  0
LINE
  5
1AB
  8
0
  6
DASHDOT
 62
     7
 10
178.96179599999991
 20
665.02082299999995
 30
0.0
 11
188.46183400000001
 21
665.02082299999995
 31
0.0
  0
CIRCLE
  5
1AC
  8
0
 62
     7
 10
183.71181100000001
 20
665.02082299999995
 30
0.0
 40
3.7499370000000001
  0
CIRCLE
  5
1AD
  8
0
 62
     7
 10
89.711823999999993
 20
535.02082299999995
 30
0.0
 40
3.7500010000000001
  0
LINE
  5
1AE
  8
0
  6
DASHDOT
 62
     7
 10
89.711823999999993
 20
528.27082299999995
 30
0.0
 11
89.711823999999993
 21
541.77082299999995
 31
0.0
  0
LINE
  5
1AF
  8
0
  6
DASHDOT
 62
     7
 10
82.961823999999993
 20
535.02082299999995
 30
0.0
 11
96.461826000000016
 21
535.02082299999995
 31
0.0
  0
LINE
  5
1B0
  8
0
 62
     7
 10
150.46181899999991
 20
661.52082299999995
 30
0.0
 11
150.46181899999991
 21
667.03339600000004
 31
0.0
  0
LINE
  5
1B1
  8
0
 62
     7
 10
122.96184100000001
 20
661.52082299999995
 30
0.0
 11
122.96184100000001
 21
667.03339600000004
 31
0.0
  0
LINE
  5
1B2
  8
0
 62
     7
 10
115.461793
 20
661.52082299999995
 30
0.0
 11
115.461793
 21
667.03339600000004
 31
0.0
  0
ARC
  5
1B3
  8
0
 62
     7
 10
119.211817
 20
661.52082299999995
 30
0.0
 40
3.7500239999999989
 50
352.33743900000002
 51
360.0
  0
ARC
  5
1B4
  8
0
 62
     7
 10
154.2118229999999
 20
661.52082299999995
 30
0.0
 40
3.7500070000000001
 50
352.33768500000002
 51
360.0
  0
LINE
  5
1B5
  8
0
 62
     7
 10
85.211856999999995
 20
539.77085399999987
 30
0.0
 11
188.2118419999999
 21
539.77085399999987
 31
0.0
  0
LINE
  5
1B6
  8
0
 62
     7
 10
84.21186999999999
 20
660.77082299999995
 30
0.0
 11
189.21185700000001
 21
660.77082299999995
 31
0.0
  0
LINE
  5
1B7
  8
0
 62
     7
 10
84.211856999999995
 20
540.77085399999987
 30
0.0
 11
85.211856999999995
 21
540.77085399999987
 31
0.0
  0
LINE
  5
1B8
  8
0
 62
     7
 10
85.211856999999995
 20
539.77085399999987
 30
0.0
 11
85.211856999999995
 21
540.77085399999987
 31
0.0
  0
LINE
  5
1B9
  8
0
 62
     7
 10
188.2118419999999
 20
540.77085399999987
 30
0.0
 11
189.2118419999999
 21
540.77085399999987
 31
0.0
  0
LINE
  5
1BA
  8
0
 62
     7
 10
188.2118419999999
 20
539.77085399999987
 30
0.0
 11
188.2118419999999
 21
540.77085399999987
 31
0.0
  0
LINE
  5
1BB
  8
0
 62
     7
 10
137.46185700000001
 20
540.77085399999987
 30
0.0
 11
188.2118419999999
 21
540.77085399999987
 31
0.0
  0
LINE
  5
1BC
  8
0
 62
     7
 10
85.211856999999995
 20
540.77085399999987
 30
0.0
 11
135.96185700000001
 21
540.77085399999987
 31
0.0
  0
LINE
  5
1BD
  8
0
 62
     7
 10
85.711856999999995
 20
650.27082299999995
 30
0.0
 11
85.711856999999995
 21
660.77082299999995
 31
0.0
  0
LINE
  5
1BE
  8
0
 62
     7
 10
187.71184199999999
 20
650.27082299999995
 30
0.0
 11
187.71184199999999
 21
660.77082299999995
 31
0.0
  0
LINE
  5
1BF
  8
0
 62
     7
 10
137.46185700000001
 20
540.52085399999999
 30
0.0
 11
137.46185700000001
 21
540.77085399999987
 31
0.0
  0
LINE
  5
1C0
  8
0
 62
     7
 10
135.96185700000001
 20
540.52085399999999
 30
0.0
 11
135.96185700000001
 21
540.77085399999987
 31
0.0
  0
ARC
  5
1C1
  8
0
 62
     7
 10
136.711771
 20
544.02103699999986
 30
0.0
 40
2.7497989999999999
 50
152.96715399999999
 51
27.032851000000001
  0
ARC
  5
1C2
  8
0
 62
     7
 10
136.71181699999991
 20
540.52082299999995
 30
0.0
 40
0.7499430000000001
 50
179.99828400000001
 51
0.003191
  0
LINE
  5
1C3
  8
0
  6
DASHDOT
 62
     7
 10
133.0700379999999
 20
544.02103699999986
 30
0.0
 11
140.72571600000001
 21
544.02103699999986
 31
0.0
  0
LINE
  5
1C4
  8
0
  6
DASHDOT
 62
     7
 10
135.33194399999991
 20
540.52082299999995
 30
0.0
 11
138.25502
 21
540.52082299999995
 31
0.0
  0
LINE
  5
1C5
  8
0
 62
     7
 10
117.4618209999999
 20
682.02082299999995
 30
0.0
 11
117.4618209999999
 21
685.02082299999995
 31
0.0
  0
LINE
  5
1C6
  8
0
 62
     7
 10
120.961821
 20
682.02082299999995
 30
0.0
 11
120.961821
 21
685.02082299999995
 31
0.0
  0
LINE
  5
1C7
  8
0
 62
     7
 10
116.7118209999999
 20
678.52082300000006
 30
0.0
 11
116.7118209999999
 21
682.02082299999995
 31
0.0
  0
LINE
  5
1C8
  8
0
 62
     7
 10
121.7118209999999
 20
678.52082300000006
 30
0.0
 11
121.7118209999999
 21
682.02082299999995
 31
0.0
  0
LINE
  5
1C9
  8
0
 62
     7
 10
120.961821
 20
682.02082299999995
 30
0.0
 11
121.7118209999999
 21
682.02082299999995
 31
0.0
  0
LINE
  5
1CA
  8
0
 62
     7
 10
116.7118209999999
 20
682.02082299999995
 30
0.0
 11
117.4618209999999
 21
682.02082299999995
 31
0.0
  0
LINE
  5
1CB
  8
0
 62
     7
 10
152.46189099999989
 20
682.02082299999995
 30
0.0
 11
152.46189099999989
 21
685.02082299999995
 31
0.0
  0
LINE
  5
1CC
  8
0
 62
     7
 10
155.96189099999989
 20
682.02082299999995
 30
0.0
 11
155.96189099999989
 21
685.02082299999995
 31
0.0
  0
LINE
  5
1CD
  8
0
 62
     7
 10
156.71189099999989
 20
678.52082300000006
 30
0.0
 11
156.71189099999989
 21
682.02082299999995
 31
0.0
  0
LINE
  5
1CE
  8
0
 62
     7
 10
151.71189099999989
 20
678.52082300000006
 30
0.0
 11
156.71189099999989
 21
678.52082300000006
 31
0.0
  0
LINE
  5
1CF
  8
0
 62
     7
 10
151.71189099999989
 20
678.52082300000006
 30
0.0
 11
151.71189099999989
 21
682.02082299999995
 31
0.0
  0
LINE
  5
1D0
  8
0
 62
     7
 10
155.96189099999989
 20
682.02082299999995
 30
0.0
 11
156.71189099999989
 21
682.02082299999995
 31
0.0
  0
LINE
  5
1D1
  8
0
 62
     7
 10
151.71189099999989
 20
682.02082299999995
 30
0.0
 11
152.46189099999989
 21
682.02082299999995
 31
0.0
  0
LINE
  5
1D2
  8
0
 62
     7
 10
186.71188699999999
 20
517.82081100000005
 30
0.0
 11
189.21188699999999
 21
517.82081100000005
 31
0.0
  0
LINE
  5
1D3
  8
0
 62
     7
 10
186.71188699999999
 20
516.02082300000006
 30
0.0
 11
186.71188699999999
 21
517.82081100000005
 31
0.0
  0
ARC
  5
1D4
  8
0
 62
     7
 10
185.71188699999999
 20
516.02082300000006
 30
0.0
 40
1.0
 50
270.000001
 51
360.0
  0
LINE
  5
1D5
  8
0
 62
     7
 10
186.71188699999999
 20
517.82081100000005
 30
0.0
 11
186.71188699999999
 21
531.27082300000006
 31
0.0
  0
LINE
  5
1D6
  8
0
 62
     7
 10
183.71188699999999
 20
531.27082300000006
 30
0.0
 11
186.71188699999999
 21
531.27082300000006
 31
0.0
  0
CIRCLE
  5
1D7
  8
0
 62
     7
 10
183.71188699999999
 20
535.02082299999995
 30
0.0
 40
3.7500010000000001
  0
CIRCLE
  5
1D8
  8
0
 62
     7
 10
183.71188699999999
 20
535.02082299999995
 30
0.0
 40
1.7499990000000001
  0
LINE
  5
1D9
  8
0
  6
DASHDOT
 62
     7
 10
176.96188699999999
 20
535.02082299999995
 30
0.0
 11
190.46188699999999
 21
535.02082299999995
 31
0.0
  0
LINE
  5
1DA
  8
0
 62
     7
 10
179.96188699999999
 20
535.02082299999995
 30
0.0
 11
179.96188699999999
 21
539.02082299999995
 31
0.0
  0
LINE
  5
1DB
  8
0
  6
DASHDOT
 62
     7
 10
183.71188699999999
 20
528.27082299999995
 30
0.0
 11
183.71188699999999
 21
541.77082299999995
 31
0.0
  0
LINE
  5
1DC
  8
0
  6
DASHDOT
 62
     7
 10
163.211872
 20
527.52082299999995
 30
0.0
 11
180.21186399999991
 21
527.52082299999995
 31
0.0
  0
CIRCLE
  5
1DD
  8
0
 62
     7
 10
171.7118679999999
 20
527.52082299999995
 30
0.0
 40
5.4999969999999996
  0
CIRCLE
  5
1DE
  8
0
 62
     7
 10
171.711872
 20
519.02082299999995
 30
0.0
 40
1.399999999999999
  0
LINE
  5
1DF
  8
0
  6
DASHDOT
 62
     7
 10
167.3118739999999
 20
519.02082299999995
 30
0.0
 11
176.111874
 21
519.02082299999995
 31
0.0
  0
LINE
  5
1E0
  8
0
  6
DASHDOT
 62
     7
 10
128.2118449999999
 20
527.52082299999995
 30
0.0
 11
145.2118419999999
 21
527.52082299999995
 31
0.0
  0
CIRCLE
  5
1E1
  8
0
 62
     7
 10
136.7118429999999
 20
527.52082299999995
 30
0.0
 40
5.4999969999999996
  0
LINE
  5
1E2
  8
0
  6
DASHDOT
 62
     7
 10
132.31183999999999
 20
519.02082299999995
 30
0.0
 11
141.111839
 21
519.02082299999995
 31
0.0
  0
CIRCLE
  5
1E3
  8
0
 62
     7
 10
136.71184
 20
519.02082299999995
 30
0.0
 40
1.399999999999999
  0
CIRCLE
  5
1E4
  8
0
 62
     7
 10
119.211821
 20
530.52082299999995
 30
0.0
 40
4.499992999999999
  0
CIRCLE
  5
1E5
  8
0
 62
     7
 10
154.21182999999999
 20
530.52082299999995
 30
0.0
 40
4.5
  0
LINE
  5
1E6
  8
0
  6
DASHDOT
 62
     7
 10
154.21182999999999
 20
662.02082300000006
 30
0.0
 11
154.21182999999999
 21
677.02082299999995
 31
0.0
  0
LINE
  5
1E7
  8
0
  6
DASHDOT
 62
     7
 10
146.71182999999991
 20
669.52082299999995
 30
0.0
 11
161.71182999999999
 21
669.52082299999995
 31
0.0
  0
LINE
  5
1E8
  8
0
  6
DASHDOT
 62
     7
 10
119.211821
 20
662.02082300000006
 30
0.0
 11
119.211821
 21
677.02082299999995
 31
0.0
  0
LINE
  5
1E9
  8
0
  6
DASHDOT
 62
     7
 10
111.7118279999999
 20
669.52082299999995
 30
0.0
 11
126.7118149999999
 21
669.52082299999995
 31
0.0
  0
LINE
  5
1EA
  8
0
  6
DASHDOT
 62
     7
 10
119.211821
 20
523.02082299999995
 30
0.0
 11
119.211821
 21
538.02082299999995
 31
0.0
  0
LINE
  5
1EB
  8
0
  6
DASHDOT
 62
     7
 10
111.7118279999999
 20
530.52082299999995
 30
0.0
 11
126.7118149999999
 21
530.52082299999995
 31
0.0
  0
LINE
  5
1EC
  8
0
  6
DASHDOT
 62
     7
 10
154.21182999999999
 20
523.02082299999995
 30
0.0
 11
154.21182999999999
 21
538.02082299999995
 31
0.0
  0
LINE
  5
1ED
  8
0
  6
DASHDOT
 62
     7
 10
146.71182999999991
 20
530.52082299999995
 30
0.0
 11
161.71182999999999
 21
530.52082299999995
 31
0.0
  0
LINE
  5
1EE
  8
0
 62
     7
 10
155.96189099999989
 20
515.02082299999995
 30
0.0
 11
185.711826
 21
515.02082299999995
 31
0.0
  0
LINE
  5
1EF
  8
0
 62
     7
 10
155.96189099999989
 20
515.02082299999995
 30
0.0
 11
155.96189099999989
 21
518.02082299999995
 31
0.0
  0
LINE
  5
1F0
  8
0
 62
     7
 10
155.96189099999989
 20
518.02082299999995
 30
0.0
 11
156.71189099999989
 21
518.02082299999995
 31
0.0
  0
LINE
  5
1F1
  8
0
 62
     7
 10
156.71189099999989
 20
518.02082299999995
 30
0.0
 11
156.71189099999989
 21
521.52082299999995
 31
0.0
  0
LINE
  5
1F2
  8
0
 62
     7
 10
151.71189099999989
 20
521.52082299999995
 30
0.0
 11
156.71189099999989
 21
521.52082299999995
 31
0.0
  0
LINE
  5
1F3
  8
0
 62
     7
 10
151.71189099999989
 20
518.02082299999995
 30
0.0
 11
151.71189099999989
 21
521.52082299999995
 31
0.0
  0
LINE
  5
1F4
  8
0
 62
     7
 10
151.71189099999989
 20
518.02082299999995
 30
0.0
 11
152.46189099999989
 21
518.02082299999995
 31
0.0
  0
LINE
  5
1F5
  8
0
 62
     7
 10
152.46189099999989
 20
515.02082299999995
 30
0.0
 11
152.46189099999989
 21
518.02082299999995
 31
0.0
  0
LINE
  5
1F6
  8
0
 62
     7
 10
120.961821
 20
515.02082299999995
 30
0.0
 11
152.46189099999989
 21
515.02082299999995
 31
0.0
  0
LINE
  5
1F7
  8
0
 62
     7
 10
120.961821
 20
515.02082299999995
 30
0.0
 11
120.961821
 21
518.02082299999995
 31
0.0
  0
LINE
  5
1F8
  8
0
 62
     7
 10
120.961821
 20
518.02082299999995
 30
0.0
 11
121.7118209999999
 21
518.02082299999995
 31
0.0
  0
LINE
  5
1F9
  8
0
 62
     7
 10
121.7118209999999
 20
518.02082299999995
 30
0.0
 11
121.7118209999999
 21
521.52082299999995
 31
0.0
  0
LINE
  5
1FA
  8
0
 62
     7
 10
116.7118209999999
 20
521.52082299999995
 30
0.0
 11
121.7118209999999
 21
521.52082299999995
 31
0.0
  0
LINE
  5
1FB
  8
0
 62
     7
 10
116.7118209999999
 20
518.02082299999995
 30
0.0
 11
116.7118209999999
 21
521.52082299999995
 31
0.0
  0
LINE
  5
1FC
  8
0
 62
     7
 10
116.7118209999999
 20
518.02082299999995
 30
0.0
 11
117.4618209999999
 21
518.02082299999995
 31
0.0
  0
LINE
  5
1FD
  8
0
 62
     7
 10
117.4618209999999
 20
515.02082299999995
 30
0.0
 11
117.4618209999999
 21
518.02082299999995
 31
0.0
  0
LINE
  5
1FE
  8
0
 62
     7
 10
87.711826000000016
 20
515.02082299999995
 30
0.0
 11
117.4618209999999
 21
515.02082299999995
 31
0.0
  0
LINE
  5
1FF
  8
0
  6
DASHDOT
 62
     7
 10
189.211849
 20
974.42072499999995
 30
0.0
 11
189.211849
 21
984.62092100000007
 31
0.0
  0
LINE
  5
200
  8
0
  6
DASHDOT
 62
     7
 10
184.11175899999989
 20
979.52082299999995
 30
0.0
 11
194.31193899999991
 21
979.52082299999995
 31
0.0
  0
LINE
  5
201
  8
0
 62
     7
 10
221.7118419999999
 20
992.22077400000012
 30
0.0
 11
224.21184199999999
 21
992.22077400000012
 31
0.0
  0
LINE
  5
202
  8
0
 62
     7
 10
221.7118419999999
 20
992.22077400000012
 30
0.0
 11
221.7118419999999
 21
994.02082300000006
 31
0.0
  0
LINE
  5
203
  8
0
 62
     7
 10
120.9618389999999
 20
995.02082300000006
 30
0.0
 11
152.46183799999989
 21
995.02082300000006
 31
0.0
  0
LINE
  5
204
  8
0
 62
     7
 10
155.961838
 20
995.02082300000006
 30
0.0
 11
187.46190999999999
 21
995.02082300000006
 31
0.0
  0
LINE
  5
205
  8
0
 62
     7
 10
190.96190999999999
 20
995.02082300000006
 30
0.0
 11
220.71184199999999
 21
995.02082300000006
 31
0.0
  0
LINE
  5
206
  8
0
 62
     7
 10
86.711844999999997
 20
992.22077400000012
 30
0.0
 11
86.711844999999997
 21
994.02082300000006
 31
0.0
  0
LINE
  5
207
  8
0
 62
     7
 10
84.211844999999997
 20
992.22077400000012
 30
0.0
 11
86.711844999999997
 21
992.22077400000012
 31
0.0
  0
LINE
  5
208
  8
0
 62
     7
 10
84.211833999999996
 20
827.82081100000005
 30
0.0
 11
84.211833999999996
 21
992.22077400000012
 31
0.0
  0
LINE
  5
209
  8
0
 62
     7
 10
84.211844999999997
 20
827.82081100000005
 30
0.0
 11
86.711844999999997
 21
827.82081100000005
 31
0.0
  0
LINE
  5
20A
  8
0
 62
     7
 10
86.711844999999997
 20
826.02082299999995
 30
0.0
 11
86.711844999999997
 21
827.82081100000005
 31
0.0
  0
LINE
  5
20B
  8
0
 62
     7
 10
151.711838
 20
988.52082300000006
 30
0.0
 11
156.711838
 21
988.52082300000006
 31
0.0
  0
LINE
  5
20C
  8
0
 62
     7
 10
214.961826
 20
971.02082299999995
 30
0.0
 11
214.9618339999999
 21
975.02082299999995
 31
0.0
  0
LINE
  5
20D
  8
0
 62
     7
 10
93.461844999999997
 20
971.02082299999995
 30
0.0
 11
214.961826
 21
971.02082299999995
 31
0.0
  0
LINE
  5
20E
  8
0
 62
     7
 10
93.461844999999997
 20
971.02082299999995
 30
0.0
 11
93.461844999999997
 21
975.02082299999995
 31
0.0
  0
LINE
  5
20F
  8
0
 62
     7
 10
218.71184199999999
 20
978.77082300000006
 30
0.0
 11
221.7118419999999
 21
978.77082300000006
 31
0.0
  0
LINE
  5
210
  8
0
 62
     7
 10
221.7118419999999
 20
978.77082300000006
 30
0.0
 11
221.7118419999999
 21
992.22077400000012
 31
0.0
  0
LINE
  5
211
  8
0
 62
     7
 10
86.711843000000002
 20
978.77082300000006
 30
0.0
 11
89.711844999999997
 21
978.77082300000006
 31
0.0
  0
LINE
  5
212
  8
0
 62
     7
 10
86.711837999999986
 20
978.77082300000006
 30
0.0
 11
86.711837999999986
 21
992.22077400000012
 31
0.0
  0
LINE
  5
213
  8
0
 62
     7
 10
93.461844999999997
 20
845.02082300000006
 30
0.0
 11
93.461844999999997
 21
849.02082299999995
 31
0.0
  0
LINE
  5
214
  8
0
 62
     7
 10
86.711843000000002
 20
841.27082300000006
 30
0.0
 11
89.711844999999997
 21
841.27082300000006
 31
0.0
  0
LINE
  5
215
  8
0
 62
     7
 10
86.711844999999997
 20
827.82081100000005
 30
0.0
 11
86.711844999999997
 21
841.27082300000006
 31
0.0
  0
LINE
  5
216
  8
0
 62
     7
 10
192.9618419999999
 20
971.52082299999995
 30
0.0
 11
192.9618419999999
 21
977.18891399999995
 31
0.0
  0
CIRCLE
  5
217
  8
0
 62
     7
 10
136.7118429999999
 20
982.52076199999976
 30
0.0
 40
5.5000010000000001
  0
CIRCLE
  5
218
  8
0
 62
     7
 10
136.71184
 20
991.02082299999995
 30
0.0
 40
1.4000049999999991
  0
CIRCLE
  5
219
  8
0
 62
     7
 10
154.21183799999989
 20
979.52082299999995
 30
0.0
 40
4.499992999999999
  0
CIRCLE
  5
21A
  8
0
 62
     7
 10
171.711872
 20
982.52076199999976
 30
0.0
 40
5.500030999999999
  0
CIRCLE
  5
21B
  8
0
 62
     7
 10
171.71184199999999
 20
991.02082299999995
 30
0.0
 40
1.4000019999999991
  0
ARC
  5
21C
  8
0
 62
     7
 10
154.21186099999991
 20
971.52082299999995
 30
0.0
 40
1.7499919999999991
 50
343.39767899999998
 51
196.60232400000001
  0
ARC
  5
21D
  8
0
 62
     7
 10
154.21183400000001
 20
971.52082299999995
 30
0.0
 40
3.7500239999999989
 50
180.000032
 51
187.6625479999999
  0
ARC
  5
21E
  8
0
 62
     7
 10
189.2118419999999
 20
971.52082299999995
 30
0.0
 40
3.7500070000000001
 50
180.00012799999999
 51
187.66230200000001
  0
ARC
  5
21F
  8
0
 62
     7
 10
189.211849
 20
971.52082299999995
 30
0.0
 40
1.749997
 50
343.39857999999992
 51
196.60143600000001
  0
CIRCLE
  5
220
  8
0
 62
     7
 10
189.211849
 20
979.52082299999995
 30
0.0
 40
4.5
  0
CIRCLE
  5
221
  8
0
 62
     7
 10
206.71184899999989
 20
982.52082300000006
 30
0.0
 40
5.4999719999999996
  0
CIRCLE
  5
222
  8
0
 62
     7
 10
206.71185700000001
 20
991.02082299999995
 30
0.0
 40
1.3999909999999991
  0
CIRCLE
  5
223
  8
0
 62
     7
 10
218.71183400000001
 20
975.02082299999995
 30
0.0
 40
1.7500180000000001
  0
ARC
  5
224
  8
0
 62
     7
 10
220.711849
 20
994.02082300000006
 30
0.0
 40
0.999995
 50
359.99979100000002
 51
90.000228000000007
  0
CIRCLE
  5
225
  8
0
 62
     7
 10
89.711850999999996
 20
975.02082299999995
 30
0.0
 40
1.750006
  0
ARC
  5
226
  8
0
 62
     7
 10
89.711872000000014
 20
975.02070100000003
 30
0.0
 40
3.749919999999999
 50
269.99956400000002
 51
90.000411999999997
  0
ARC
  5
227
  8
0
 62
     7
 10
87.711846999999992
 20
994.02082300000006
 30
0.0
 40
1.0000039999999999
 50
90.000049999999987
 51
180.00048299999989
  0
CIRCLE
  5
228
  8
0
 62
     7
 10
89.711844999999997
 20
845.02082300000006
 30
0.0
 40
1.7499990000000001
  0
ARC
  5
229
  8
0
 62
     7
 10
87.711844999999997
 20
826.02082299999995
 30
0.0
 40
1.0
 50
180.00000499999999
 51
270.000001
  0
LINE
  5
22A
  8
0
  6
DASHDOT
 62
     7
 10
132.311834
 20
991.02082299999995
 30
0.0
 11
141.11184299999991
 21
991.02082299999995
 31
0.0
  0
LINE
  5
22B
  8
0
  6
DASHDOT
 62
     7
 10
128.2118429999999
 20
982.52076199999976
 30
0.0
 11
145.2118449999999
 21
982.52076199999976
 31
0.0
  0
LINE
  5
22C
  8
0
  6
DASHDOT
 62
     7
 10
167.3118399999999
 20
991.02082299999995
 30
0.0
 11
176.11184299999991
 21
991.02082299999995
 31
0.0
  0
LINE
  5
22D
  8
0
  6
DASHDOT
 62
     7
 10
163.2118419999999
 20
982.52076199999976
 30
0.0
 11
180.21190300000001
 21
982.52076199999976
 31
0.0
  0
LINE
  5
22E
  8
0
  6
DASHDOT
 62
     7
 10
154.21183799999989
 20
972.02082299999995
 30
0.0
 11
154.21183799999989
 21
997.38440900000001
 31
0.0
  0
LINE
  5
22F
  8
0
  6
DASHDOT
 62
     7
 10
146.7118449999999
 20
979.52082299999995
 30
0.0
 11
161.71182999999999
 21
979.52082299999995
 31
0.0
  0
LINE
  5
230
  8
0
  6
DASHDOT
 62
     7
 10
149.146095
 20
971.52082299999995
 30
0.0
 11
159.122623
 21
971.52082299999995
 31
0.0
  0
LINE
  5
231
  8
0
  6
DASHDOT
 62
     7
 10
184.32488599999999
 20
971.52082299999995
 30
0.0
 11
193.96184199999999
 21
971.52082299999995
 31
0.0
  0
LINE
  5
232
  8
0
  6
DASHDOT
 62
     7
 10
202.3118629999999
 20
991.02082299999995
 30
0.0
 11
211.11185099999989
 21
991.02082299999995
 31
0.0
  0
LINE
  5
233
  8
0
  6
DASHDOT
 62
     7
 10
198.21188000000001
 20
982.52082300000006
 30
0.0
 11
215.21182599999989
 21
982.52082300000006
 31
0.0
  0
LINE
  5
234
  8
0
  6
DASHDOT
 62
     7
 10
89.711872000000014
 20
968.27076199999976
 30
0.0
 11
89.711872000000014
 21
981.77063999999996
 31
0.0
  0
LINE
  5
235
  8
0
  6
DASHDOT
 62
     7
 10
82.961951999999997
 20
975.02070100000003
 30
0.0
 11
96.461793
 21
975.02070100000003
 31
0.0
  0
LINE
  5
236
  8
0
  6
DASHDOT
 62
     7
 10
218.71183400000001
 20
970.27082299999995
 30
0.0
 11
218.71183400000001
 21
979.77082300000006
 31
0.0
  0
LINE
  5
237
  8
0
  6
DASHDOT
 62
     7
 10
213.9618109999999
 20
975.02082299999995
 30
0.0
 11
223.461849
 21
975.02082299999995
 31
0.0
  0
CIRCLE
  5
238
  8
0
 62
     7
 10
218.71183400000001
 20
975.02082299999995
 30
0.0
 40
3.7499370000000001
  0
CIRCLE
  5
239
  8
0
 62
     7
 10
89.711843000000002
 20
845.02082300000006
 30
0.0
 40
3.7500010000000001
  0
LINE
  5
23A
  8
0
  6
DASHDOT
 62
     7
 10
89.711843000000002
 20
838.27082299999995
 30
0.0
 11
89.711843000000002
 21
851.77082299999995
 31
0.0
  0
LINE
  5
23B
  8
0
  6
DASHDOT
 62
     7
 10
82.961842000000004
 20
845.02082300000006
 30
0.0
 11
96.461843999999999
 21
845.02082300000006
 31
0.0
  0
LINE
  5
23C
  8
0
 62
     7
 10
185.46183400000001
 20
971.52082299999995
 30
0.0
 11
185.46183400000001
 21
977.03333499999985
 31
0.0
  0
LINE
  5
23D
  8
0
 62
     7
 10
157.96185700000001
 20
971.52082299999995
 30
0.0
 11
157.96185700000001
 21
977.03339600000004
 31
0.0
  0
LINE
  5
23E
  8
0
 62
     7
 10
150.46181100000001
 20
971.52082299999995
 30
0.0
 11
150.46181100000001
 21
977.03339600000004
 31
0.0
  0
ARC
  5
23F
  8
0
 62
     7
 10
154.21183400000001
 20
971.52082299999995
 30
0.0
 40
3.7500239999999989
 50
352.33743900000002
 51
360.0
  0
ARC
  5
240
  8
0
 62
     7
 10
189.2118419999999
 20
971.52082299999995
 30
0.0
 40
3.7500070000000001
 50
352.33768500000002
 51
360.0
  0
LINE
  5
241
  8
0
 62
     7
 10
85.211873999999995
 20
849.77082299999995
 30
0.0
 11
223.2118569999999
 21
849.77082299999995
 31
0.0
  0
LINE
  5
242
  8
0
 62
     7
 10
84.211833999999996
 20
970.77082300000006
 30
0.0
 11
224.211872
 21
970.77082300000006
 31
0.0
  0
LINE
  5
243
  8
0
 62
     3
 10
119.71187399999999
 20
960.27082300000006
 30
0.0
 11
223.7118569999999
 21
960.27082300000006
 31
0.0
  0
LINE
  5
244
  8
0
 62
     3
 10
210.21185700000001
 20
855.27082299999995
 30
0.0
 11
223.7118569999999
 21
855.27082299999995
 31
0.0
  0
LINE
  5
245
  8
0
 62
     3
 10
174.16115199999999
 20
855.27082299999995
 30
0.0
 11
198.7118569999999
 21
855.27082299999995
 31
0.0
  0
LINE
  5
246
  8
0
 62
     3
 10
119.71187399999999
 20
855.27082299999995
 30
0.0
 11
133.21187399999999
 21
855.27082299999995
 31
0.0
  0
LINE
  5
247
  8
0
 62
     7
 10
119.2118739999999
 20
850.77082299999995
 30
0.0
 11
120.2118739999999
 21
850.77082299999995
 31
0.0
  0
LINE
  5
248
  8
0
 62
     7
 10
85.211873999999995
 20
849.77082299999995
 30
0.0
 11
85.211873999999995
 21
850.77082299999995
 31
0.0
  0
LINE
  5
249
  8
0
 62
     7
 10
223.2118569999999
 20
850.77082299999995
 30
0.0
 11
224.2118569999999
 21
850.77082299999995
 31
0.0
  0
LINE
  5
24A
  8
0
 62
     7
 10
223.2118569999999
 20
849.77082299999995
 30
0.0
 11
223.2118569999999
 21
850.77082299999995
 31
0.0
  0
LINE
  5
24B
  8
0
 62
     7
 10
172.461872
 20
850.77082299999995
 30
0.0
 11
223.2118569999999
 21
850.77082299999995
 31
0.0
  0
LINE
  5
24C
  8
0
 62
     7
 10
84.211833999999996
 20
850.77082299999995
 30
0.0
 11
170.96187199999989
 21
850.77082299999995
 31
0.0
  0
LINE
  5
24D
  8
0
 62
     7
 10
222.71185700000001
 20
960.27082300000006
 30
0.0
 11
222.71185700000001
 21
970.77082300000006
 31
0.0
  0
LINE
  5
24E
  8
0
 62
     3
 10
133.21187399999999
 20
855.27082299999995
 30
0.0
 11
144.71187199999989
 21
855.27082299999995
 31
0.0
  0
LINE
  5
24F
  8
0
 62
     3
 10
198.7118569999999
 20
855.27082299999995
 30
0.0
 11
210.21185700000001
 21
855.27082299999995
 31
0.0
  0
ARC
  5
250
  8
0
 62
     3
 10
119.71187399999999
 20
855.77082300000006
 30
0.0
 40
0.5
 50
180.00000499999999
 51
270.000001
  0
ARC
  5
251
  8
0
 62
     3
 10
119.71187399999999
 20
959.77082299999995
 30
0.0
 40
0.5
 50
90.000003000000007
 51
180.00000499999999
  0
ARC
  5
252
  8
0
 62
     3
 10
223.7118569999999
 20
959.77082299999995
 30
0.0
 40
0.5
 50
0.0
 51
90.000003000000007
  0
ARC
  5
253
  8
0
 62
     3
 10
223.7118569999999
 20
855.77082300000006
 30
0.0
 40
0.5
 50
270.000001
 51
360.0
  0
LINE
  5
254
  8
0
 62
     7
 10
172.461872
 20
850.52082299999995
 30
0.0
 11
172.461872
 21
850.77082299999995
 31
0.0
  0
LINE
  5
255
  8
0
 62
     7
 10
170.96187199999989
 20
850.52082299999995
 30
0.0
 11
170.96187199999989
 21
850.77082299999995
 31
0.0
  0
ARC
  5
256
  8
0
 62
     7
 10
171.7117879999999
 20
854.02100600000006
 30
0.0
 40
2.7497989999999999
 50
152.96715399999999
 51
27.032851000000001
  0
ARC
  5
257
  8
0
 62
     7
 10
171.71183400000001
 20
850.52076199999976
 30
0.0
 40
0.7499430000000001
 50
179.99828400000001
 51
0.003191
  0
LINE
  5
258
  8
0
 62
     3
 10
144.71187199999989
 20
855.27082299999995
 30
0.0
 11
169.26242400000001
 21
855.27082299999995
 31
0.0
  0
LINE
  5
259
  8
0
  6
DASHDOT
 62
     7
 10
168.07005699999999
 20
854.02100600000006
 30
0.0
 11
175.72573499999999
 21
854.02100600000006
 31
0.0
  0
LINE
  5
25A
  8
0
  6
DASHDOT
 62
     7
 10
170.33195900000001
 20
850.52076199999976
 30
0.0
 11
173.2550389999999
 21
850.52076199999976
 31
0.0
  0
LINE
  5
25B
  8
0
 62
     7
 10
134.21187399999991
 20
855.27082299999995
 30
0.0
 11
144.21185700000001
 21
855.27082299999995
 31
0.0
  0
LINE
  5
25C
  8
0
 62
     7
 10
199.2118419999999
 20
855.27082299999995
 30
0.0
 11
209.2118419999999
 21
855.27082299999995
 31
0.0
  0
LINE
  5
25D
  8
0
 62
     7
 10
224.211872
 20
827.82081100000005
 30
0.0
 11
224.211872
 21
873.77076199999976
 31
0.0
  0
LINE
  5
25E
  8
0
 62
     7
 10
119.2118739999999
 20
855.77082300000006
 30
0.0
 11
119.2118739999999
 21
873.77076199999976
 31
0.0
  0
LINE
  5
25F
  8
0
 62
     7
 10
119.71187399999999
 20
960.27082300000006
 30
0.0
 11
223.711872
 21
960.27082300000006
 31
0.0
  0
LINE
  5
260
  8
0
 62
     7
 10
119.71187399999999
 20
855.27082299999995
 30
0.0
 11
134.21187399999991
 21
855.27082299999995
 31
0.0
  0
LINE
  5
261
  8
0
 62
     7
 10
144.21185700000001
 20
855.27082299999995
 30
0.0
 11
199.2118419999999
 21
855.27082299999995
 31
0.0
  0
LINE
  5
262
  8
0
 62
     7
 10
209.2118419999999
 20
855.27082299999995
 30
0.0
 11
223.711872
 21
855.27082299999995
 31
0.0
  0
LINE
  5
263
  8
0
 62
     7
 10
182.461872
 20
877.52076199999988
 30
0.0
 11
182.461872
 21
917.52076199999976
 31
0.0
  0
LINE
  5
264
  8
0
 62
     7
 10
160.961872
 20
877.52076199999988
 30
0.0
 11
160.961872
 21
917.52076199999976
 31
0.0
  0
LINE
  5
265
  8
0
 62
     7
 10
119.2118739999999
 20
948.27076199999988
 30
0.0
 11
224.211872
 21
948.27076199999988
 31
0.0
  0
LINE
  5
266
  8
0
 62
     7
 10
119.2118739999999
 20
958.27076199999976
 30
0.0
 11
224.211872
 21
958.27076199999976
 31
0.0
  0
LINE
  5
267
  8
0
 62
     7
 10
160.961872
 20
917.2562969999999
 30
0.0
 11
182.461872
 21
917.2562969999999
 31
0.0
  0
LINE
  5
268
  8
0
 62
     7
 10
160.961872
 20
917.52076199999976
 30
0.0
 11
182.461872
 21
917.52076199999976
 31
0.0
  0
LINE
  5
269
  8
0
 62
     7
 10
160.961872
 20
877.52076199999988
 30
0.0
 11
182.461872
 21
877.52076199999988
 31
0.0
  0
LINE
  5
26A
  8
0
 62
     7
 10
160.961872
 20
877.78528800000015
 30
0.0
 11
182.461872
 21
877.78528800000015
 31
0.0
  0
LINE
  5
26B
  8
0
 62
     7
 10
224.2118569999999
 20
874.77076199999976
 30
0.0
 11
224.2118569999999
 21
886.77076199999988
 31
0.0
  0
LINE
  5
26C
  8
0
 62
     7
 10
224.2118569999999
 20
863.13495899999987
 30
0.0
 11
224.2118569999999
 21
992.22077400000012
 31
0.0
  0
LINE
  5
26D
  8
0
 62
     7
 10
224.2118569999999
 20
887.77076199999976
 30
0.0
 11
224.2118569999999
 21
907.27076199999988
 31
0.0
  0
LINE
  5
26E
  8
0
 62
     7
 10
224.2118569999999
 20
908.27076199999976
 30
0.0
 11
224.2118569999999
 21
920.27076199999976
 31
0.0
  0
LINE
  5
26F
  8
0
 62
     7
 10
119.2118739999999
 20
874.77076199999976
 30
0.0
 11
119.2118739999999
 21
886.77076199999988
 31
0.0
  0
LINE
  5
270
  8
0
 62
     7
 10
119.2118739999999
 20
887.77076199999976
 30
0.0
 11
119.2118739999999
 21
907.27076199999988
 31
0.0
  0
LINE
  5
271
  8
0
 62
     7
 10
119.2118739999999
 20
908.27076199999976
 30
0.0
 11
119.2118739999999
 21
920.27076199999976
 31
0.0
  0
LINE
  5
272
  8
0
 62
     7
 10
119.2118739999999
 20
867.9970800000001
 30
0.0
 11
119.2118739999999
 21
959.77082299999995
 31
0.0
  0
ARC
  5
273
  8
0
 62
     7
 10
119.71187399999999
 20
855.77082300000006
 30
0.0
 40
0.5
 50
180.00000499999999
 51
270.000001
  0
ARC
  5
274
  8
0
 62
     7
 10
223.711872
 20
855.77082300000006
 30
0.0
 40
0.5
 50
270.000001
 51
360.0
  0
ARC
  5
275
  8
0
 62
     7
 10
223.711872
 20
959.77082299999995
 30
0.0
 40
0.5
 50
0.0
 51
90.000003000000007
  0
ARC
  5
276
  8
0
 62
     7
 10
119.71187399999999
 20
959.77082299999995
 30
0.0
 40
0.5
 50
90.000003000000007
 51
180.00000499999999
  0
LINE
  5
277
  8
0
 62
     7
 10
152.46183799999989
 20
992.02082299999995
 30
0.0
 11
152.46183799999989
 21
995.02082300000006
 31
0.0
  0
LINE
  5
278
  8
0
 62
     7
 10
155.961838
 20
992.02082299999995
 30
0.0
 11
155.961838
 21
995.02082300000006
 31
0.0
  0
LINE
  5
279
  8
0
 62
     7
 10
151.711838
 20
988.52082300000006
 30
0.0
 11
151.711838
 21
992.02082299999995
 31
0.0
  0
LINE
  5
27A
  8
0
 62
     7
 10
156.711838
 20
988.52082300000006
 30
0.0
 11
156.711838
 21
992.02082299999995
 31
0.0
  0
LINE
  5
27B
  8
0
 62
     7
 10
155.961838
 20
992.02082299999995
 30
0.0
 11
156.711838
 21
992.02082299999995
 31
0.0
  0
LINE
  5
27C
  8
0
 62
     7
 10
151.711838
 20
992.02082299999995
 30
0.0
 11
152.46183799999989
 21
992.02082299999995
 31
0.0
  0
LINE
  5
27D
  8
0
 62
     7
 10
187.46190999999999
 20
992.02082299999995
 30
0.0
 11
187.46190999999999
 21
995.02082300000006
 31
0.0
  0
LINE
  5
27E
  8
0
 62
     7
 10
190.96190999999999
 20
992.02082299999995
 30
0.0
 11
190.96190999999999
 21
995.02082300000006
 31
0.0
  0
LINE
  5
27F
  8
0
 62
     7
 10
191.71190999999999
 20
988.52082300000006
 30
0.0
 11
191.71190999999999
 21
992.02082299999995
 31
0.0
  0
LINE
  5
280
  8
0
 62
     7
 10
186.71190999999999
 20
988.52082300000006
 30
0.0
 11
191.71190999999999
 21
988.52082300000006
 31
0.0
  0
LINE
  5
281
  8
0
 62
     7
 10
186.71190999999999
 20
988.52082300000006
 30
0.0
 11
186.71190999999999
 21
992.02082299999995
 31
0.0
  0
LINE
  5
282
  8
0
 62
     7
 10
190.96190999999999
 20
992.02082299999995
 30
0.0
 11
191.71190999999999
 21
992.02082299999995
 31
0.0
  0
LINE
  5
283
  8
0
 62
     7
 10
186.71190999999999
 20
992.02082299999995
 30
0.0
 11
187.46190999999999
 21
992.02082299999995
 31
0.0
  0
LINE
  5
284
  8
0
 62
     7
 10
160.961872
 20
891.64612799999998
 30
0.0
 11
182.461872
 21
891.64612799999998
 31
0.0
  0
LINE
  5
285
  8
0
 62
     7
 10
160.961872
 20
885.529673
 30
0.0
 11
182.461872
 21
885.529673
 31
0.0
  0
LINE
  5
286
  8
0
 62
     7
 10
160.961872
 20
879.58179699999994
 30
0.0
 11
182.461872
 21
879.58179699999994
 31
0.0
  0
LINE
  5
287
  8
0
 62
     7
 10
160.961872
 20
878.77906300000006
 30
0.0
 11
182.461872
 21
878.77906300000006
 31
0.0
  0
ARC
  5
288
  8
0
 62
     7
 10
89.711939000000015
 20
975.02076199999988
 30
0.0
 40
3.7501059999999988
 50
90.001423000000003
 51
269.99858
  0
LINE
  5
289
  8
0
 62
     7
 10
87.711844999999997
 20
995.02082300000006
 30
0.0
 11
117.4618389999999
 21
995.02082300000006
 31
0.0
  0
LINE
  5
28A
  8
0
 62
     7
 10
116.7118389999999
 20
988.52082300000006
 30
0.0
 11
121.7118389999999
 21
988.52082300000006
 31
0.0
  0
CIRCLE
  5
28B
  8
0
 62
     7
 10
101.711843
 20
982.52076199999976
 30
0.0
 40
5.5000010000000001
  0
CIRCLE
  5
28C
  8
0
 62
     7
 10
101.711839
 20
991.02082299999995
 30
0.0
 40
1.4000049999999991
  0
CIRCLE
  5
28D
  8
0
 62
     7
 10
119.2118389999999
 20
979.52082299999995
 30
0.0
 40
4.499992999999999
  0
ARC
  5
28E
  8
0
 62
     7
 10
119.21186
 20
971.52082299999995
 30
0.0
 40
1.7499919999999991
 50
343.39767899999998
 51
196.60232400000001
  0
LINE
  5
28F
  8
0
 62
     7
 10
122.96185800000001
 20
971.02082299999995
 30
0.0
 11
122.96185800000001
 21
977.03339600000004
 31
0.0
  0
LINE
  5
290
  8
0
 62
     7
 10
115.461811
 20
971.02082299999995
 30
0.0
 11
115.461811
 21
977.03339600000004
 31
0.0
  0
LINE
  5
291
  8
0
 62
     7
 10
117.4618389999999
 20
992.02082299999995
 30
0.0
 11
117.4618389999999
 21
995.02082300000006
 31
0.0
  0
LINE
  5
292
  8
0
 62
     7
 10
120.9618389999999
 20
992.02082299999995
 30
0.0
 11
120.9618389999999
 21
995.02082300000006
 31
0.0
  0
LINE
  5
293
  8
0
 62
     7
 10
116.7118389999999
 20
988.52082300000006
 30
0.0
 11
116.7118389999999
 21
992.02082299999995
 31
0.0
  0
LINE
  5
294
  8
0
 62
     7
 10
121.7118389999999
 20
988.52082300000006
 30
0.0
 11
121.7118389999999
 21
992.02082299999995
 31
0.0
  0
LINE
  5
295
  8
0
 62
     7
 10
120.9618389999999
 20
992.02082299999995
 30
0.0
 11
121.7118389999999
 21
992.02082299999995
 31
0.0
  0
LINE
  5
296
  8
0
 62
     7
 10
116.7118389999999
 20
992.02082299999995
 30
0.0
 11
117.4618389999999
 21
992.02082299999995
 31
0.0
  0
LINE
  5
297
  8
0
  6
DASHDOT
 62
     7
 10
114.1460949999999
 20
971.52082299999995
 30
0.0
 11
124.12262199999989
 21
971.52082299999995
 31
0.0
  0
LINE
  5
298
  8
0
 62
     7
 10
87.711844999999997
 20
825.02082299999995
 30
0.0
 11
117.4618389999999
 21
825.02082299999995
 31
0.0
  0
LINE
  5
299
  8
0
 62
     7
 10
116.7118389999999
 20
831.52082300000006
 30
0.0
 11
121.71187500000001
 21
831.52082300000006
 31
0.0
  0
CIRCLE
  5
29A
  8
0
 62
     7
 10
101.711861
 20
837.52082299999995
 30
0.0
 40
5.4999969999999996
  0
CIRCLE
  5
29B
  8
0
 62
     7
 10
101.71185699999999
 20
829.02082300000006
 30
0.0
 40
1.399999999999999
  0
CIRCLE
  5
29C
  8
0
 62
     7
 10
119.21185699999999
 20
840.52082300000006
 30
0.0
 40
4.4999979999999997
  0
LINE
  5
29D
  8
0
 62
     7
 10
120.9618389999999
 20
825.02082299999995
 30
0.0
 11
120.9618389999999
 21
828.02082300000006
 31
0.0
  0
LINE
  5
29E
  8
0
 62
     7
 10
117.4618389999999
 20
825.02082299999995
 30
0.0
 11
117.4618389999999
 21
828.02082300000006
 31
0.0
  0
LINE
  5
29F
  8
0
 62
     7
 10
116.7118389999999
 20
828.02082300000006
 30
0.0
 11
117.4618389999999
 21
828.02082300000006
 31
0.0
  0
LINE
  5
2A0
  8
0
 62
     7
 10
120.9618389999999
 20
828.02082300000006
 30
0.0
 11
121.71187500000001
 21
828.02082300000006
 31
0.0
  0
LINE
  5
2A1
  8
0
 62
     7
 10
116.7118389999999
 20
828.02082300000006
 30
0.0
 11
116.7118389999999
 21
831.52082300000006
 31
0.0
  0
LINE
  5
2A2
  8
0
  6
DASHDOT
 62
     7
 10
90.31183399999999
 20
991.02082299999995
 30
0.0
 11
113.11184399999991
 21
991.02082299999995
 31
0.0
  0
LINE
  5
2A3
  8
0
  6
DASHDOT
 62
     7
 10
86.211843000000016
 20
982.52076199999976
 30
0.0
 11
117.2118449999999
 21
982.52076199999976
 31
0.0
  0
LINE
  5
2A4
  8
0
  6
DASHDOT
 62
     7
 10
119.2118389999999
 20
965.02082299999995
 30
0.0
 11
119.2118389999999
 21
994.02082300000006
 31
0.0
  0
LINE
  5
2A5
  8
0
  6
DASHDOT
 62
     7
 10
104.71184599999989
 20
979.52082299999995
 30
0.0
 11
133.71183199999999
 21
979.52082299999995
 31
0.0
  0
LINE
  5
2A6
  8
0
  6
DASHDOT
 62
     7
 10
86.211864000000006
 20
837.52082299999995
 30
0.0
 11
117.21185699999999
 21
837.52082299999995
 31
0.0
  0
LINE
  5
2A7
  8
0
  6
DASHDOT
 62
     7
 10
90.311856999999989
 20
829.02082300000006
 30
0.0
 11
113.1118569999999
 21
829.02082300000006
 31
0.0
  0
LINE
  5
2A8
  8
0
 62
     7
 10
115.6118739999999
 20
850.77082299999995
 30
0.0
 11
115.6118739999999
 21
970.77082300000006
 31
0.0
  0
LINE
  5
2A9
  8
0
 62
     7
 10
112.01187400000001
 20
850.77082299999995
 30
0.0
 11
112.01187400000001
 21
970.77082300000006
 31
0.0
  0
LINE
  5
2AA
  8
0
 62
     7
 10
108.411874
 20
850.77082299999995
 30
0.0
 11
108.411874
 21
970.77082300000006
 31
0.0
  0
LINE
  5
2AB
  8
0
 62
     7
 10
104.811874
 20
850.77082299999995
 30
0.0
 11
104.811874
 21
970.77082300000006
 31
0.0
  0
LINE
  5
2AC
  8
0
 62
     7
 10
101.21187399999999
 20
850.77082299999995
 30
0.0
 11
101.21187399999999
 21
970.77082300000006
 31
0.0
  0
LINE
  5
2AD
  8
0
 62
     7
 10
97.611874
 20
850.77082299999995
 30
0.0
 11
97.611874
 21
970.77082300000006
 31
0.0
  0
LINE
  5
2AE
  8
0
 62
     7
 10
94.011872999999994
 20
850.77082299999995
 30
0.0
 11
94.011872999999994
 21
970.77082300000006
 31
0.0
  0
LINE
  5
2AF
  8
0
 62
     7
 10
90.411874999999995
 20
850.77082299999995
 30
0.0
 11
90.411874999999995
 21
970.77082300000006
 31
0.0
  0
LINE
  5
2B0
  8
0
 62
     7
 10
86.811874000000003
 20
850.77082299999995
 30
0.0
 11
86.811874000000003
 21
970.77082300000006
 31
0.0
  0
LINE
  5
2B1
  8
0
 62
     7
 10
84.211833999999996
 20
960.27082300000006
 30
0.0
 11
119.71187399999999
 21
960.27082300000006
 31
0.0
  0
LINE
  5
2B2
  8
0
 62
     7
 10
84.211833999999996
 20
855.27082299999995
 30
0.0
 11
119.71187399999999
 21
855.27082299999995
 31
0.0
  0
LINE
  5
2B3
  8
0
  6
DASHDOT
 62
     7
 10
189.211849
 20
972.02082299999995
 30
0.0
 11
189.211849
 21
987.02082300000006
 31
0.0
  0
LINE
  5
2B4
  8
0
  6
DASHDOT
 62
     7
 10
181.711849
 20
979.52082299999995
 30
0.0
 11
196.711849
 21
979.52082299999995
 31
0.0
  0
LINE
  5
2B5
  8
0
  6
DASHDOT
 62
     7
 10
119.21185699999999
 20
833.02082299999995
 30
0.0
 11
119.21185699999999
 21
848.02082299999995
 31
0.0
  0
LINE
  5
2B6
  8
0
  6
DASHDOT
 62
     7
 10
111.711859
 20
840.52082300000006
 30
0.0
 11
126.7118549999999
 21
840.52082300000006
 31
0.0
  0
LINE
  5
2B7
  8
0
 62
     7
 10
121.71187500000001
 20
828.02082300000006
 30
0.0
 11
121.71187500000001
 21
831.52082300000006
 31
0.0
  0
LINE
  5
2B8
  8
0
 62
     7
 10
214.96186399999999
 20
845.02082300000006
 30
0.0
 11
214.96186399999999
 21
849.02082299999995
 31
0.0
  0
CIRCLE
  5
2B9
  8
0
 62
     7
 10
218.71186399999999
 20
845.02082300000006
 30
0.0
 40
3.7500010000000001
  0
CIRCLE
  5
2BA
  8
0
 62
     7
 10
218.71186399999999
 20
845.02082300000006
 30
0.0
 40
1.7499990000000001
  0
LINE
  5
2BB
  8
0
  6
DASHDOT
 62
     7
 10
211.96186399999999
 20
845.02082300000006
 30
0.0
 11
225.46186399999999
 21
845.02082300000006
 31
0.0
  0
LINE
  5
2BC
  8
0
  6
DASHDOT
 62
     7
 10
218.71186399999999
 20
838.27082299999995
 30
0.0
 11
218.71186399999999
 21
851.77082299999995
 31
0.0
  0
LINE
  5
2BD
  8
0
 62
     7
 10
218.71186399999999
 20
841.27082300000006
 30
0.0
 11
221.71186399999999
 21
841.27082300000006
 31
0.0
  0
LINE
  5
2BE
  8
0
 62
     7
 10
221.71186399999999
 20
827.82081100000005
 30
0.0
 11
221.71186399999999
 21
841.27082300000006
 31
0.0
  0
LINE
  5
2BF
  8
0
 62
     7
 10
221.71186399999999
 20
827.82081100000005
 30
0.0
 11
224.21186399999999
 21
827.82081100000005
 31
0.0
  0
LINE
  5
2C0
  8
0
 62
     7
 10
221.71186399999999
 20
826.02082299999995
 30
0.0
 11
221.71186399999999
 21
827.82081100000005
 31
0.0
  0
ARC
  5
2C1
  8
0
 62
     7
 10
220.71186399999999
 20
826.02082299999995
 30
0.0
 40
1.0
 50
270.000001
 51
360.0
  0
LINE
  5
2C2
  8
0
 62
     7
 10
190.961872
 20
825.02082299999995
 30
0.0
 11
220.71186399999999
 21
825.02082299999995
 31
0.0
  0
LINE
  5
2C3
  8
0
 62
     7
 10
190.961872
 20
825.02082299999995
 30
0.0
 11
190.961872
 21
828.02082300000006
 31
0.0
  0
LINE
  5
2C4
  8
0
 62
     7
 10
187.46187199999989
 20
825.02082299999995
 30
0.0
 11
187.46187199999989
 21
828.02082300000006
 31
0.0
  0
LINE
  5
2C5
  8
0
 62
     7
 10
186.71183400000001
 20
828.02082300000006
 30
0.0
 11
187.46187199999989
 21
828.02082300000006
 31
0.0
  0
LINE
  5
2C6
  8
0
 62
     7
 10
190.961872
 20
828.02082300000006
 30
0.0
 11
191.71187199999989
 21
828.02082300000006
 31
0.0
  0
LINE
  5
2C7
  8
0
 62
     7
 10
191.71187199999989
 20
828.02082300000006
 30
0.0
 11
191.71187199999989
 21
831.52082300000006
 31
0.0
  0
LINE
  5
2C8
  8
0
 62
     7
 10
186.71183400000001
 20
831.52082300000006
 30
0.0
 11
191.71187199999989
 21
831.52082300000006
 31
0.0
  0
LINE
  5
2C9
  8
0
 62
     7
 10
186.71183400000001
 20
828.02082300000006
 30
0.0
 11
186.71183400000001
 21
831.52082300000006
 31
0.0
  0
CIRCLE
  5
2CA
  8
0
 62
     7
 10
206.71184899999989
 20
837.52082299999995
 30
0.0
 40
5.4999969999999996
  0
LINE
  5
2CB
  8
0
  6
DASHDOT
 62
     7
 10
191.211849
 20
837.52082299999995
 30
0.0
 11
222.21184199999999
 21
837.52082299999995
 31
0.0
  0
LINE
  5
2CC
  8
0
  6
DASHDOT
 62
     7
 10
195.311848
 20
829.02082300000006
 30
0.0
 11
218.11185099999989
 21
829.02082300000006
 31
0.0
  0
CIRCLE
  5
2CD
  8
0
 62
     7
 10
206.71184899999989
 20
829.02082300000006
 30
0.0
 40
1.399999999999999
  0
LINE
  5
2CE
  8
0
  6
DASHDOT
 62
     7
 10
181.711849
 20
840.52082300000006
 30
0.0
 11
196.711849
 21
840.52082300000006
 31
0.0
  0
LINE
  5
2CF
  8
0
  6
DASHDOT
 62
     7
 10
189.211849
 20
833.02082299999995
 30
0.0
 11
189.211849
 21
848.02082299999995
 31
0.0
  0
CIRCLE
  5
2D0
  8
0
 62
     7
 10
189.211849
 20
840.52082300000006
 30
0.0
 40
4.4999979999999997
  0
LINE
  5
2D1
  8
0
  6
DASHDOT
 62
     7
 10
154.21185700000001
 20
833.02082299999995
 30
0.0
 11
154.21185700000001
 21
848.02082299999995
 31
0.0
  0
LINE
  5
2D2
  8
0
  6
DASHDOT
 62
     7
 10
146.71185700000001
 20
840.52082300000006
 30
0.0
 11
161.71185299999991
 21
840.52082300000006
 31
0.0
  0
CIRCLE
  5
2D3
  8
0
 62
     7
 10
154.21185700000001
 20
840.52082300000006
 30
0.0
 40
4.4999979999999997
  0
CIRCLE
  5
2D4
  8
0
 62
     7
 10
136.711861
 20
837.52082299999995
 30
0.0
 40
5.4999969999999996
  0
LINE
  5
2D5
  8
0
  6
DASHDOT
 62
     7
 10
121.21186399999991
 20
837.52082299999995
 30
0.0
 11
152.21185700000001
 21
837.52082299999995
 31
0.0
  0
CIRCLE
  5
2D6
  8
0
 62
     7
 10
136.71185700000001
 20
829.02082300000006
 30
0.0
 40
1.399999999999999
  0
LINE
  5
2D7
  8
0
  6
DASHDOT
 62
     7
 10
125.311857
 20
829.02082300000006
 30
0.0
 11
148.11185800000001
 21
829.02082300000006
 31
0.0
  0
CIRCLE
  5
2D8
  8
0
 62
     7
 10
171.71186099999991
 20
837.52082299999995
 30
0.0
 40
5.4999969999999996
  0
LINE
  5
2D9
  8
0
  6
DASHDOT
 62
     7
 10
156.21186399999999
 20
837.52082299999995
 30
0.0
 11
187.2118569999999
 21
837.52082299999995
 31
0.0
  0
LINE
  5
2DA
  8
0
  6
DASHDOT
 62
     7
 10
160.31185500000001
 20
829.02082300000006
 30
0.0
 11
183.11185800000001
 21
829.02082300000006
 31
0.0
  0
CIRCLE
  5
2DB
  8
0
 62
     7
 10
171.71185700000001
 20
829.02082300000006
 30
0.0
 40
1.399999999999999
  0
LINE
  5
2DC
  8
0
 62
     7
 10
120.9618389999999
 20
825.02082299999995
 30
0.0
 11
152.46183799999989
 21
825.02082299999995
 31
0.0
  0
LINE
  5
2DD
  8
0
 62
     7
 10
155.961838
 20
825.02082299999995
 30
0.0
 11
155.961838
 21
828.02082300000006
 31
0.0
  0
LINE
  5
2DE
  8
0
 62
     7
 10
152.46183799999989
 20
825.02082299999995
 30
0.0
 11
152.46183799999989
 21
828.02082300000006
 31
0.0
  0
LINE
  5
2DF
  8
0
 62
     7
 10
151.711838
 20
828.02082300000006
 30
0.0
 11
152.46183799999989
 21
828.02082300000006
 31
0.0
  0
LINE
  5
2E0
  8
0
 62
     7
 10
155.961838
 20
828.02082300000006
 30
0.0
 11
156.7118759999999
 21
828.02082300000006
 31
0.0
  0
LINE
  5
2E1
  8
0
 62
     7
 10
156.7118759999999
 20
828.02082300000006
 30
0.0
 11
156.7118759999999
 21
831.52082300000006
 31
0.0
  0
LINE
  5
2E2
  8
0
 62
     7
 10
151.711838
 20
828.02082300000006
 30
0.0
 11
151.711838
 21
831.52082300000006
 31
0.0
  0
LINE
  5
2E3
  8
0
 62
     7
 10
151.711838
 20
831.52082300000006
 30
0.0
 11
156.7118759999999
 21
831.52082300000006
 31
0.0
  0
LINE
  5
2E4
  8
0
 62
     7
 10
155.961838
 20
825.02082299999995
 30
0.0
 11
187.46184199999999
 21
825.02082299999995
 31
0.0
  0
LINE
  5
2E5
  8
0
  6
DASHDOT
 62
     7
 10
55.381659999999997
 20
597.72083499999985
 30
0.0
 11
252.71232999999989
 21
597.72083499999985
 31
0.0
  0
LINE
  5
2E6
  8
0
  6
DASHSPACE
 62
     7
 10
225.21190299999989
 20
672.52082299999995
 30
0.0
 11
254.71190299999989
 21
672.52082299999995
 31
0.0
  0
LINE
  5
2E7
  8
0
  6
DASHSPACE
 62
     7
 10
254.71190299999989
 20
527.77079200000003
 30
0.0
 11
254.71190299999989
 21
672.52082299999995
 31
0.0
  0
LINE
  5
2E8
  8
0
  6
DASHSPACE
 62
     7
 10
234.19188299999999
 20
527.77079200000003
 30
0.0
 11
254.71190299999989
 21
527.77079200000003
 31
0.0
  0
LINE
  5
2E9
  8
0
  6
DASHSPACE
 62
     7
 10
255.71188699999999
 20
585.52076199999988
 30
0.0
 11
255.71188699999999
 21
605.52076199999999
 31
0.0
  0
LINE
  5
2EA
  8
0
  6
DASHSPACE
 62
     7
 10
254.71190299999989
 20
605.52076199999999
 30
0.0
 11
255.71188699999999
 21
605.52076199999999
 31
0.0
  0
LINE
  5
2EB
  8
0
  6
DASHSPACE
 62
     7
 10
254.71188699999999
 20
585.52076199999988
 30
0.0
 11
255.71188699999999
 21
585.52076199999988
 31
0.0
  0
LINE
  5
2EC
  8
0
 62
     7
 10
255.89317700000001
 20
425.60590599999989
 30
0.0
 11
351.20796599999989
 21
425.60590599999989
 31
0.0
  0
LINE
  5
2ED
  8
0
  6
DASHSPACE
 62
     7
 10
64.211833999999996
 20
957.52082300000006
 30
0.0
 11
81.211833999999996
 21
957.52082300000006
 31
0.0
  0
LINE
  5
2EE
  8
0
  6
DASHSPACE
 62
     7
 10
227.21183400000001
 20
957.52082300000006
 30
0.0
 11
244.2118419999999
 21
957.52082300000006
 31
0.0
  0
LINE
  5
2EF
  8
0
  6
DASHSPACE
 62
     7
 10
64.211833999999996
 20
552.52082299999995
 30
0.0
 11
81.211833999999996
 21
552.52082299999995
 31
0.0
  0
LINE
  5
2F0
  8
0
  6
DASHSPACE
 62
     7
 10
227.21183400000001
 20
552.52082299999995
 30
0.0
 11
244.2118419999999
 21
552.52082299999995
 31
0.0
  0
LINE
  5
2F1
  8
0
  6
DASHSPACE
 62
     7
 10
224.2118339999999
 20
555.52082299999995
 30
0.0
 11
224.2118339999999
 21
599.52082300000006
 31
0.0
  0
LINE
  5
2F2
  8
0
 62
     7
 10
84.211833999999996
 20
583.42274000000009
 30
0.0
 11
84.211833999999996
 21
599.52082300000006
 31
0.0
  0
ARC
  5
2F3
  8
0
 62
     7
 10
81.211833999999996
 20
599.52082300000006
 30
0.0
 40
3.0
 50
0.0
 51
60.000002999999992
  0
ARC
  5
2F4
  8
0
  6
DASHSPACE
 62
     7
 10
81.211833999999996
 20
555.52082299999995
 30
0.0
 40
3.0
 50
270.000001
 51
360.0
  0
ARC
  5
2F5
  8
0
  6
DASHSPACE
 62
     7
 10
227.21183400000001
 20
599.52082300000006
 30
0.0
 40
3.0
 50
90.000003000000007
 51
180.00000499999999
  0
ARC
  5
2F6
  8
0
  6
DASHSPACE
 62
     7
 10
227.21183400000001
 20
555.52082299999995
 30
0.0
 40
3.0
 50
180.00000499999999
 51
270.000001
  0
ARC
  5
2F7
  8
0
  6
DASHSPACE
 62
     7
 10
227.21183400000001
 20
954.52082299999995
 30
0.0
 40
3.0
 50
90.000003000000007
 51
180.00000499999999
  0
ARC
  5
2F8
  8
0
  6
DASHSPACE
 62
     7
 10
227.21183400000001
 20
910.52082299999995
 30
0.0
 40
3.0
 50
180.00000499999999
 51
270.000001
  0
ARC
  5
2F9
  8
0
  6
DASHSPACE
 62
     7
 10
81.211833999999996
 20
910.52082299999995
 30
0.0
 40
3.0
 50
270.000001
 51
299.99999400000002
  0
ARC
  5
2FA
  8
0
  6
DASHSPACE
 62
     7
 10
81.211833999999996
 20
954.52082299999995
 30
0.0
 40
3.0
 50
0.0
 51
90.000003000000007
  0
ARC
  5
2FB
  8
0
  6
DASHSPACE
 62
     7
 10
81.211833999999996
 20
599.52082300000006
 30
0.0
 40
3.0
 50
60.000002999999992
 51
90.000003000000007
  0
ARC
  5
2FC
  8
0
 62
     7
 10
81.211833999999996
 20
910.52082299999995
 30
0.0
 40
3.0
 50
299.99999400000002
 51
360.0
  0
LINE
  5
2FD
  8
0
 62
     7
 10
84.211833999999996
 20
910.52082299999995
 30
0.0
 11
84.211833999999996
 21
926.61890600000004
 31
0.0
  0
LINE
  5
2FE
  8
0
 62
     7
 10
64.211833999999996
 20
1101.524973
 30
0.0
 11
76.029530000000008
 21
1099.4411720000001
 31
0.0
  0
LINE
  5
2FF
  8
0
 62
     7
 10
64.211833999999996
 20
1101.524973
 30
0.0
 11
76.029530000000008
 21
1103.6087749999999
 31
0.0
  0
LINE
  5
300
  8
0
 62
     7
 10
244.2118419999999
 20
1101.524973
 30
0.0
 11
232.39414599999989
 21
1103.6087749999999
 31
0.0
  0
LINE
  5
301
  8
0
 62
     7
 10
244.2118419999999
 20
1101.524973
 30
0.0
 11
232.39414599999989
 21
1099.4411720000001
 31
0.0
  0
LINE
  5
302
  8
0
 62
     7
 10
64.211833999999996
 20
1101.524973
 30
0.0
 11
244.2118419999999
 21
1101.524973
 31
0.0
  0
LINE
  5
303
  8
0
 62
     7
 10
64.211833999999996
 20
1109.524973
 30
0.0
 11
64.211833999999996
 21
1044.0208230000001
 31
0.0
  0
LINE
  5
304
  8
0
 62
     7
 10
244.2118419999999
 20
1109.524973
 30
0.0
 11
244.2118419999999
 21
1044.0208230000001
 31
0.0
  0
LINE
  5
305
  8
0
 62
     7
 10
101.711838
 20
389.41901599999989
 30
0.0
 11
89.894142000000002
 21
391.50278700000001
 31
0.0
  0
LINE
  5
306
  8
0
 62
     7
 10
101.711838
 20
389.41901599999989
 30
0.0
 11
89.894142000000002
 21
387.33524599999993
 31
0.0
  0
POLYLINE
  5
307
  8
0
 62
     7
 66
     1
 10
0.0
 20
0.0
 30
0.0
 70
     1
  0
VERTEX
  5
9EA
  8
0
 62
     7
 10
138.11183
 20
389.41901599999989
 30
0.0
  0
VERTEX
  5
9EB
  8
0
 62
     7
 10
137.5847169999999
 20
390.51358999999991
 30
0.0
  0
VERTEX
  5
9EC
  8
0
 62
     7
 10
136.40030100000001
 20
390.78391499999998
 30
0.0
  0
VERTEX
  5
9ED
  8
0
 62
     7
 10
135.4504739999999
 20
390.02646900000002
 30
0.0
  0
VERTEX
  5
9EE
  8
0
 62
     7
 10
135.4504739999999
 20
388.81156399999998
 30
0.0
  0
VERTEX
  5
9EF
  8
0
 62
     7
 10
136.40030100000001
 20
388.05411800000002
 30
0.0
  0
VERTEX
  5
9F0
  8
0
 62
     7
 10
137.5847169999999
 20
388.32444199999998
 30
0.0
  0
SEQEND
  5
9F1
  8
0
 62
     7
  0
POLYLINE
  5
310
  8
0
 62
     7
 66
     1
 10
0.0
 20
0.0
 30
0.0
 70
     1
  0
VERTEX
  5
9F2
  8
0
 62
     7
 10
173.11183199999999
 20
389.41901599999989
 30
0.0
  0
VERTEX
  5
9F3
  8
0
 62
     7
 10
172.58471299999999
 20
390.51358999999991
 30
0.0
  0
VERTEX
  5
9F4
  8
0
 62
     7
 10
171.40030300000001
 20
390.78391499999998
 30
0.0
  0
VERTEX
  5
9F5
  8
0
 62
     7
 10
170.4504739999999
 20
390.02646900000002
 30
0.0
  0
VERTEX
  5
9F6
  8
0
 62
     7
 10
170.4504739999999
 20
388.81156399999998
 30
0.0
  0
VERTEX
  5
9F7
  8
0
 62
     7
 10
171.40030300000001
 20
388.05411800000002
 30
0.0
  0
VERTEX
  5
9F8
  8
0
 62
     7
 10
172.5847169999999
 20
388.32444199999998
 30
0.0
  0
SEQEND
  5
9F9
  8
0
 62
     7
  0
LINE
  5
319
  8
0
 62
     7
 10
206.71155200000001
 20
389.41901599999989
 30
0.0
 11
218.529247
 21
387.33524599999993
 31
0.0
  0
LINE
  5
31A
  8
0
 62
     7
 10
206.71155200000001
 20
389.41901599999989
 30
0.0
 11
218.529247
 21
391.50278700000001
 31
0.0
  0
LINE
  5
31B
  8
0
 62
     7
 10
101.711838
 20
389.41901599999989
 30
0.0
 11
206.71155200000001
 21
389.41901599999989
 31
0.0
  0
LINE
  5
31C
  8
0
 62
     7
 10
101.711838
 20
381.41901599999989
 30
0.0
 11
101.7118339999999
 21
492.22080499999998
 31
0.0
  0
LINE
  5
31D
  8
0
 62
     7
 10
136.71182999999999
 20
381.41901599999989
 30
0.0
 11
136.711826
 21
492.22080499999998
 31
0.0
  0
LINE
  5
31E
  8
0
 62
     7
 10
171.71182999999991
 20
381.41901599999989
 30
0.0
 11
171.711826
 21
492.22080499999998
 31
0.0
  0
LINE
  5
31F
  8
0
 62
     7
 10
206.71155200000001
 20
381.41901599999989
 30
0.0
 11
206.71155200000001
 21
492.22080499999998
 31
0.0
  0
LINE
  5
320
  8
0
 62
     7
 10
31.017620000000001
 20
597.72083499999985
 30
0.0
 11
33.101397999999989
 21
609.53852300000005
 31
0.0
  0
LINE
  5
321
  8
0
 62
     7
 10
31.017620000000001
 20
597.72083499999985
 30
0.0
 11
28.933841999999991
 21
609.53852300000005
 31
0.0
  0
LINE
  5
322
  8
0
 62
     7
 10
31.017612
 20
755.02082299999995
 30
0.0
 11
28.933834000000001
 21
743.20313499999986
 31
0.0
  0
LINE
  5
323
  8
0
 62
     7
 10
31.017612
 20
755.02082299999995
 30
0.0
 11
33.101391
 21
743.20313499999986
 31
0.0
  0
LINE
  5
324
  8
0
 62
     7
 10
31.017612
 20
755.02082299999995
 30
0.0
 11
33.101391
 21
766.83851100000004
 31
0.0
  0
LINE
  5
325
  8
0
 62
     7
 10
31.017612
 20
755.02082299999995
 30
0.0
 11
28.933834000000001
 21
766.83851100000004
 31
0.0
  0
LINE
  5
326
  8
0
 62
     7
 10
31.017605
 20
907.72083499999985
 30
0.0
 11
28.933826
 21
895.9031470000001
 31
0.0
  0
LINE
  5
327
  8
0
 62
     7
 10
31.017605
 20
907.72083499999985
 30
0.0
 11
33.101382999999998
 21
895.9031470000001
 31
0.0
  0
LINE
  5
328
  8
0
 62
     7
 10
31.017620000000001
 20
597.72083499999985
 30
0.0
 11
31.017605
 21
907.72083499999985
 31
0.0
  0
LINE
  5
329
  8
0
 62
     7
 10
23.017620000000001
 20
597.72083499999985
 30
0.0
 11
55.381656999999997
 21
597.72083499999985
 31
0.0
  0
LINE
  5
32A
  8
0
 62
     7
 10
23.017604999999989
 20
907.72083499999985
 30
0.0
 11
55.381641000000002
 21
907.72083499999985
 31
0.0
  0
LINE
  5
32B
  8
0
 62
     7
 10
-14.215968999999991
 20
466.02082300000012
 30
0.0
 11
-12.132198000000001
 21
477.83851099999998
 31
0.0
  0
LINE
  5
32C
  8
0
 62
     7
 10
-14.215968999999991
 20
466.02082300000012
 30
0.0
 11
-16.29975499999999
 21
477.83851099999998
 31
0.0
  0
LINE
  5
32D
  8
0
 62
     7
 10
-14.21599999999999
 20
1044.0208230000001
 30
0.0
 11
-16.299769999999999
 21
1032.203135
 31
0.0
  0
LINE
  5
32E
  8
0
 62
     7
 10
-14.21599999999999
 20
1044.0208230000001
 30
0.0
 11
-12.132213999999999
 21
1032.203135
 31
0.0
  0
LINE
  5
32F
  8
0
 62
     7
 10
-14.215968999999991
 20
466.02082300000012
 30
0.0
 11
-14.21599999999999
 21
1044.0208230000001
 31
0.0
  0
LINE
  5
330
  8
0
 62
     7
 10
-22.215969000000001
 20
466.02082300000012
 30
0.0
 11
64.211833999999996
 21
466.02082300000012
 31
0.0
  0
LINE
  5
331
  8
0
 62
     7
 10
-22.216000000000001
 20
1044.0208230000001
 30
0.0
 11
64.211810999999997
 21
1044.0208230000001
 31
0.0
  0
LINE
  5
332
  8
0
 62
     7
 10
280.63318299999997
 20
907.72077400000001
 30
0.0
 11
282.71695299999988
 21
919.53846199999975
 31
0.0
  0
LINE
  5
333
  8
0
 62
     7
 10
280.63318299999997
 20
907.72077400000001
 30
0.0
 11
278.549397
 21
919.53846199999975
 31
0.0
  0
LINE
  5
334
  8
0
 62
     7
 10
280.63318299999997
 20
995.02076199999976
 30
0.0
 11
278.54941200000002
 21
983.20307400000002
 31
0.0
  0
LINE
  5
335
  8
0
 62
     7
 10
280.63318299999997
 20
995.02076199999976
 30
0.0
 11
282.71696900000001
 21
983.20307400000002
 31
0.0
  0
LINE
  5
336
  8
0
 62
     7
 10
280.63318299999997
 20
907.72077400000001
 30
0.0
 11
280.63318299999997
 21
995.02076199999976
 31
0.0
  0
LINE
  5
337
  8
0
 62
     7
 10
288.63318299999997
 20
907.72077400000001
 30
0.0
 11
252.71232999999989
 21
907.72077400000001
 31
0.0
  0
LINE
  5
338
  8
0
 62
     7
 10
288.63318299999997
 20
995.02076199999976
 30
0.0
 11
220.71184199999999
 21
995.02076199999976
 31
0.0
  0
LINE
  5
339
  8
0
 62
     7
 10
279.34079400000002
 20
597.72083499999985
 30
0.0
 11
281.42456399999998
 21
609.53852300000005
 31
0.0
  0
LINE
  5
33A
  8
0
 62
     7
 10
279.34079400000002
 20
597.72083499999985
 30
0.0
 11
277.25700799999993
 21
609.53852300000005
 31
0.0
  0
LINE
  5
33B
  8
0
 62
     7
 10
279.34079400000002
 20
685.02082299999995
 30
0.0
 11
277.25702299999989
 21
673.20313499999986
 31
0.0
  0
LINE
  5
33C
  8
0
 62
     7
 10
279.34079400000002
 20
685.02082299999995
 30
0.0
 11
281.42457999999999
 21
673.20313499999986
 31
0.0
  0
LINE
  5
33D
  8
0
 62
     7
 10
279.34079400000002
 20
597.72083499999985
 30
0.0
 11
279.34079400000002
 21
685.02082299999995
 31
0.0
  0
LINE
  5
33E
  8
0
 62
     7
 10
287.34079400000002
 20
597.72083499999985
 30
0.0
 11
252.71232999999989
 21
597.72083499999985
 31
0.0
  0
LINE
  5
33F
  8
0
 62
     7
 10
287.34079400000002
 20
685.02082299999995
 30
0.0
 11
185.711826
 21
685.02082299999995
 31
0.0
  0
LINE
  5
340
  8
0
 62
     7
 10
318.297077
 20
825.02082299999995
 30
0.0
 11
320.38084800000001
 21
836.83851100000004
 31
0.0
  0
LINE
  5
341
  8
0
 62
     7
 10
318.297077
 20
825.02082299999995
 30
0.0
 11
316.21329100000003
 21
836.83851100000004
 31
0.0
  0
LINE
  5
342
  8
0
 62
     7
 10
318.297077
 20
995.02082300000006
 30
0.0
 11
316.21330599999987
 21
983.20313499999986
 31
0.0
  0
LINE
  5
343
  8
0
 62
     7
 10
318.297077
 20
995.02082300000006
 30
0.0
 11
320.38086299999992
 21
983.20313499999986
 31
0.0
  0
LINE
  5
344
  8
0
 62
     7
 10
318.297077
 20
825.02082299999995
 30
0.0
 11
318.297077
 21
995.02082300000006
 31
0.0
  0
LINE
  5
345
  8
0
 62
     7
 10
326.29707699999989
 20
825.02082299999995
 30
0.0
 11
220.711872
 21
825.02082299999995
 31
0.0
  0
LINE
  5
346
  8
0
 62
     7
 10
326.29707699999989
 20
995.02082300000006
 30
0.0
 11
220.711872
 21
995.02082300000006
 31
0.0
  0
LINE
  5
347
  8
0
 62
     7
 10
318.11244599999992
 20
515.02082299999995
 30
0.0
 11
320.19621699999988
 21
526.83851100000004
 31
0.0
  0
LINE
  5
348
  8
0
 62
     7
 10
318.11244599999992
 20
515.02082299999995
 30
0.0
 11
316.02866
 21
526.83851100000004
 31
0.0
  0
LINE
  5
349
  8
0
 62
     7
 10
318.11244599999992
 20
685.02082299999995
 30
0.0
 11
316.02867500000002
 21
673.20313499999986
 31
0.0
  0
LINE
  5
34A
  8
0
 62
     7
 10
318.11244599999992
 20
685.02082299999995
 30
0.0
 11
320.19623200000001
 21
673.20313499999986
 31
0.0
  0
LINE
  5
34B
  8
0
 62
     7
 10
318.11244599999992
 20
515.02082299999995
 30
0.0
 11
318.11244599999992
 21
685.02082299999995
 31
0.0
  0
LINE
  5
34C
  8
0
 62
     7
 10
326.11244599999998
 20
515.02082299999995
 30
0.0
 11
185.711826
 21
515.02082299999995
 31
0.0
  0
LINE
  5
34D
  8
0
 62
     7
 10
326.11244599999998
 20
685.02082299999995
 30
0.0
 11
185.711826
 21
685.02082299999995
 31
0.0
  0
LINE
  5
34E
  8
0
 62
     7
 10
244.2118419999999
 20
425.52128099999987
 30
0.0
 11
232.39414599999989
 21
427.60505199999989
 31
0.0
  0
LINE
  5
34F
  8
0
 62
     7
 10
244.2118419999999
 20
425.52128099999987
 30
0.0
 11
232.39414599999989
 21
423.43750999999992
 31
0.0
  0
LINE
  5
350
  8
0
 62
     7
 10
255.71188699999999
 20
425.52128099999987
 30
0.0
 11
267.52959099999998
 21
423.43750999999992
 31
0.0
  0
LINE
  5
351
  8
0
 62
     7
 10
255.71188699999999
 20
425.52128099999987
 30
0.0
 11
267.52959099999998
 21
427.60505199999989
 31
0.0
  0
LINE
  5
352
  8
0
 62
     7
 10
244.2118419999999
 20
425.52128099999987
 30
0.0
 11
322.23303599999991
 21
425.52128099999987
 31
0.0
  0
LINE
  5
353
  8
0
 62
     7
 10
244.2118419999999
 20
417.52128099999987
 30
0.0
 11
244.2118419999999
 21
466.02082300000012
 31
0.0
  0
LINE
  5
354
  8
0
 62
     7
 10
255.71188699999999
 20
417.52128099999987
 30
0.0
 11
255.711872
 21
585.52076199999988
 31
0.0
  0
LINE
  5
355
  8
0
 62
     7
 10
-186.9034879999999
 20
894.12520999999992
 30
0.0
 11
-186.9034879999999
 21
904.52077899999995
 31
0.0
  0
LINE
  5
356
  8
0
 62
     7
 10
-186.90349599999999
 20
904.52077899999995
 30
0.0
 11
-186.67513299999999
 21
905.66878899999995
 31
0.0
  0
LINE
  5
357
  8
0
 62
     7
 10
-186.67512500000001
 20
905.66884999999991
 30
0.0
 11
-186.02480700000001
 21
906.64211699999987
 31
0.0
  0
LINE
  5
358
  8
0
 62
     7
 10
-186.02480299999991
 20
906.64211699999987
 30
0.0
 11
-185.05153300000001
 21
907.29244600000015
 31
0.0
  0
LINE
  5
359
  8
0
 62
     7
 10
-185.05152499999991
 20
907.29244600000015
 30
0.0
 11
-183.9034769999999
 21
907.52084000000013
 31
0.0
  0
LINE
  5
35A
  8
0
 62
     7
 10
-185.05152499999991
 20
907.29244600000015
 30
0.0
 11
-183.9034769999999
 21
907.52084000000013
 31
0.0
  0
LINE
  5
35B
  8
0
 62
     7
 10
-161.9034879999999
 20
907.52077899999995
 30
0.0
 11
-183.9034879999999
 21
907.52077899999995
 31
0.0
  0
LINE
  5
35C
  8
0
 62
     7
 10
-161.9034879999999
 20
907.52077899999995
 30
0.0
 11
-161.9034879999999
 21
957.52077899999995
 31
0.0
  0
LINE
  5
35D
  8
0
 62
     7
 10
-186.9034879999999
 20
960.52077899999995
 30
0.0
 11
-186.9034879999999
 21
1041.020778999999
 31
0.0
  0
LINE
  5
35E
  8
0
 62
     7
 10
-186.9034879999999
 20
1041.020778999999
 30
0.0
 11
-187.13185100000001
 21
1042.16885
 31
0.0
  0
LINE
  5
35F
  8
0
 62
     7
 10
-187.13185100000001
 20
1042.16885
 30
0.0
 11
-187.7821689999999
 21
1043.1421170000001
 31
0.0
  0
LINE
  5
360
  8
0
 62
     7
 10
-187.78217299999989
 20
1043.1421779999989
 30
0.0
 11
-188.7554439999999
 21
1043.7925079999991
 31
0.0
  0
LINE
  5
361
  8
0
 62
     7
 10
-188.75543999999991
 20
1043.7924459999999
 30
0.0
 11
-189.9034879999999
 21
1044.0207789999999
 31
0.0
  0
LINE
  5
362
  8
0
 62
     7
 10
-189.90360999999999
 20
1044.0207789999999
 30
0.0
 11
-226.9034879999999
 21
1044.0207789999999
 31
0.0
  0
LINE
  5
363
  8
0
 62
     7
 10
-226.9034879999999
 20
466.02080999999998
 30
0.0
 11
-226.9034879999999
 21
1044.0207789999999
 31
0.0
  0
LINE
  5
364
  8
0
 62
     7
 10
-189.9034879999999
 20
466.02080999999998
 30
0.0
 11
-226.9034879999999
 21
466.02080999999998
 31
0.0
  0
LINE
  5
365
  8
0
 62
     7
 10
-189.903492
 20
466.02080999999998
 30
0.0
 11
-188.7554439999999
 21
466.24917299999998
 31
0.0
  0
LINE
  5
366
  8
0
 62
     7
 10
-188.755436
 20
466.24917299999998
 30
0.0
 11
-187.78216599999999
 21
466.89950199999993
 31
0.0
  0
LINE
  5
367
  8
0
 62
     7
 10
-187.7821689999999
 20
466.89950199999993
 30
0.0
 11
-187.13185100000001
 21
467.87276900000001
 31
0.0
  0
LINE
  5
368
  8
0
 62
     7
 10
-187.13185100000001
 20
467.87276900000001
 30
0.0
 11
-186.9034879999999
 21
469.02080999999993
 31
0.0
  0
LINE
  5
369
  8
0
 62
     7
 10
-186.9034879999999
 20
469.02080999999993
 30
0.0
 11
-186.9034879999999
 21
549.52080999999998
 31
0.0
  0
LINE
  5
36A
  8
0
 62
     7
 10
-161.9034879999999
 20
552.52080999999987
 30
0.0
 11
-161.9034879999999
 21
602.52080999999998
 31
0.0
  0
LINE
  5
36B
  8
0
 62
     7
 10
-161.9034879999999
 20
602.52080999999998
 30
0.0
 11
-183.9034879999999
 21
602.52080999999998
 31
0.0
  0
LINE
  5
36C
  8
0
 62
     7
 10
-183.90348399999999
 20
602.52080999999998
 30
0.0
 11
-185.05153300000001
 21
602.74917300000004
 31
0.0
  0
LINE
  5
36D
  8
0
 62
     7
 10
-185.051537
 20
602.74917300000004
 30
0.0
 11
-186.02480700000001
 21
603.39947199999995
 31
0.0
  0
LINE
  5
36E
  8
0
 62
     7
 10
-186.02480700000001
 20
603.39947199999995
 30
0.0
 11
-186.67512500000001
 21
604.37273799999991
 31
0.0
  0
LINE
  5
36F
  8
0
 62
     7
 10
-186.67512500000001
 20
604.37276899999995
 30
0.0
 11
-186.9034879999999
 21
605.52080999999987
 31
0.0
  0
LINE
  5
370
  8
0
 62
     7
 10
-186.9034879999999
 20
605.52084000000002
 30
0.0
 11
-186.9034879999999
 21
606.25274300000001
 31
0.0
  0
LINE
  5
371
  8
0
 62
     7
 10
-223.9034879999999
 20
466.02080999999998
 30
0.0
 11
-223.9034879999999
 21
1044.0207789999999
 31
0.0
  0
LINE
  5
372
  8
0
  6
DASHDOT
 62
     7
 10
-208.9034879999999
 20
878.52077899999995
 30
0.0
 11
-220.9034879999999
 21
878.52077899999995
 31
0.0
  0
LINE
  5
373
  8
0
  6
DASHDOT
 62
     7
 10
-214.9034879999999
 20
872.52077899999983
 30
0.0
 11
-214.9034879999999
 21
884.52077899999995
 31
0.0
  0
LINE
  5
374
  8
0
  6
DASHDOT
 62
     7
 10
-208.9034879999999
 20
628.52077899999995
 30
0.0
 11
-220.9034879999999
 21
628.52077899999995
 31
0.0
  0
LINE
  5
375
  8
0
  6
DASHDOT
 62
     7
 10
-214.9034879999999
 20
622.52077899999995
 30
0.0
 11
-214.9034879999999
 21
634.52077899999995
 31
0.0
  0
LINE
  5
376
  8
0
 62
     7
 10
-164.9034879999999
 20
552.52080999999987
 30
0.0
 11
-164.9034879999999
 21
602.52080999999998
 31
0.0
  0
LINE
  5
377
  8
0
 62
     7
 10
-164.9034879999999
 20
907.52077899999995
 30
0.0
 11
-164.9034879999999
 21
957.52077899999995
 31
0.0
  0
LINE
  5
378
  8
0
 62
     7
 10
-223.9034879999999
 20
617.02080999999987
 30
0.0
 11
-226.9034879999999
 21
617.02080999999987
 31
0.0
  0
LINE
  5
379
  8
0
 62
     7
 10
-223.9034879999999
 20
583.02080999999998
 30
0.0
 11
-226.9034879999999
 21
583.02080999999998
 31
0.0
  0
LINE
  5
37A
  8
0
  6
DASHDOT
 62
     7
 10
-144.2803879999999
 20
755.02077899999995
 30
0.0
 11
-325.58981299999988
 21
755.02077899999995
 31
0.0
  0
LINE
  5
37B
  8
0
 62
     7
 10
-223.9034879999999
 20
893.02077899999983
 30
0.0
 11
-226.9034879999999
 21
893.02077899999983
 31
0.0
  0
LINE
  5
37C
  8
0
 62
     7
 10
-223.9034879999999
 20
927.02077899999983
 30
0.0
 11
-226.9034879999999
 21
927.02077899999983
 31
0.0
  0
LINE
  5
37D
  8
0
 62
     7
 10
-228.90217799999999
 20
827.82082799999989
 30
0.0
 11
-300.90217599999988
 21
827.82082799999989
 31
0.0
  0
LINE
  5
37E
  8
0
 62
     7
 10
-228.90217799999999
 20
825.02083999999991
 30
0.0
 11
-228.90217799999999
 21
995.02077899999995
 31
0.0
  0
LINE
  5
37F
  8
0
 62
     7
 10
-297.40217599999988
 20
924.02077899999995
 30
0.0
 11
-297.40215299999988
 21
932.27077899999995
 31
0.0
  0
LINE
  5
380
  8
0
 62
     7
 10
-299.90211499999992
 20
978.52077899999995
 30
0.0
 11
-300.609238
 21
978.81368699999996
 31
0.0
  0
LINE
  5
381
  8
0
 62
     7
 10
-300.60925299999991
 20
978.81368699999996
 30
0.0
 11
-300.90214500000002
 21
979.52077899999995
 31
0.0
  0
LINE
  5
382
  8
0
 62
     7
 10
-297.40216099999992
 20
971.52077899999995
 30
0.0
 11
-297.40217599999988
 21
978.52077899999995
 31
0.0
  0
LINE
  5
383
  8
0
 62
     7
 10
-297.40217599999988
 20
978.52077899999995
 30
0.0
 11
-299.90214500000002
 21
978.52077899999995
 31
0.0
  0
LINE
  5
384
  8
0
 62
     7
 10
-297.40216099999992
 20
932.27077899999995
 30
0.0
 11
-297.40216099999992
 21
971.52077899999995
 31
0.0
  0
LINE
  5
385
  8
0
 62
     7
 10
-292.90217599999988
 20
881.52077899999995
 30
0.0
 11
-292.90217599999988
 21
922.02077899999995
 31
0.0
  0
LINE
  5
386
  8
0
 62
     7
 10
-292.90220599999992
 20
922.02084000000002
 30
0.0
 11
-293.17015099999992
 21
923.02084000000002
 31
0.0
  0
LINE
  5
387
  8
0
 62
     7
 10
-293.17018899999988
 20
923.02090099999987
 30
0.0
 11
-293.90222899999998
 21
923.75295700000015
 31
0.0
  0
LINE
  5
388
  8
0
 62
     7
 10
-293.90212200000002
 20
923.75283499999989
 30
0.0
 11
-294.90213799999992
 21
924.02077899999995
 31
0.0
  0
LINE
  5
389
  8
0
 62
     7
 10
-292.90217599999988
 20
881.52077899999995
 30
0.0
 11
-300.90217599999988
 21
881.52077899999995
 31
0.0
  0
LINE
  5
38A
  8
0
 62
     7
 10
-300.90213799999998
 20
866.52077899999995
 30
0.0
 11
-299.902061
 21
867.52077899999995
 31
0.0
  0
LINE
  5
38B
  8
0
 62
     7
 10
-299.902084
 20
878.52084000000002
 30
0.0
 11
-300.90217599999988
 21
879.52083999999991
 31
0.0
  0
LINE
  5
38C
  8
0
 62
     7
 10
-237.134263
 20
878.52077899999995
 30
0.0
 11
-299.90206899999998
 21
878.52077899999995
 31
0.0
  0
LINE
  5
38D
  8
0
 62
     7
 10
-237.13421600000001
 20
867.52077899999995
 30
0.0
 11
-299.902084
 21
867.52077899999995
 31
0.0
  0
LINE
  5
38E
  8
0
 62
     7
 10
-237.13425799999999
 20
878.52077899999995
 30
0.0
 11
-233.40217299999989
 21
879.52077899999995
 31
0.0
  0
LINE
  5
38F
  8
0
 62
     7
 10
-233.4022049999999
 20
879.52077899999995
 30
0.0
 11
-229.902173
 21
880.45858399999986
 31
0.0
  0
LINE
  5
390
  8
0
 62
     7
 10
-228.90217899999999
 20
865.31502899999987
 30
0.0
 11
-237.134218
 21
867.52084000000002
 31
0.0
  0
LINE
  5
391
  8
0
 62
     7
 10
-228.90219099999999
 20
882.81509100000005
 30
0.0
 11
-229.902188
 21
883.08303499999988
 31
0.0
  0
LINE
  5
392
  8
0
 62
     7
 10
-228.90217799999999
 20
859.02077899999995
 30
0.0
 11
-232.90217699999999
 21
859.02077899999995
 31
0.0
  0
LINE
  5
393
  8
0
 62
     7
 10
-232.90217699999999
 20
825.02083999999991
 30
0.0
 11
-232.90217699999999
 21
859.02077899999995
 31
0.0
  0
LINE
  5
394
  8
0
 62
     7
 10
-229.90217799999991
 20
865.58297399999992
 30
0.0
 11
-229.90217799999991
 21
910.02077899999983
 31
0.0
  0
LINE
  5
395
  8
0
 62
     7
 10
-233.40217799999999
 20
879.52077899999995
 30
0.0
 11
-233.40217799999999
 21
904.52077899999995
 31
0.0
  0
LINE
  5
396
  8
0
 62
     7
 10
-228.90217699999999
 20
910.02077899999983
 30
0.0
 11
-231.90217599999991
 21
910.02077899999983
 31
0.0
  0
LINE
  5
397
  8
0
 62
     7
 10
-232.652188
 20
909.81985099999986
 30
0.0
 11
-231.90218599999989
 21
910.02077899999983
 31
0.0
  0
LINE
  5
398
  8
0
 62
     7
 10
-232.652188
 20
909.81985099999986
 30
0.0
 11
-231.90218599999989
 21
910.02077899999983
 31
0.0
  0
LINE
  5
399
  8
0
 62
     7
 10
-233.2012189999999
 20
909.27077899999995
 30
0.0
 11
-232.65218100000001
 21
909.81985099999986
 31
0.0
  0
LINE
  5
39A
  8
0
 62
     7
 10
-233.402163
 20
908.52077899999995
 30
0.0
 11
-233.20120099999991
 21
909.27077899999995
 31
0.0
  0
LINE
  5
39B
  8
0
 62
     7
 10
-233.402196
 20
904.52077899999995
 30
0.0
 11
-233.402196
 21
908.52077899999995
 31
0.0
  0
LINE
  5
39C
  8
0
 62
     7
 10
-233.201223
 20
903.77077899999983
 30
0.0
 11
-233.29644599999989
 21
904.12618699999985
 31
0.0
  0
LINE
  5
39D
  8
0
 62
     7
 10
-233.29644400000001
 20
904.126126
 30
0.0
 11
-233.40218300000001
 21
904.52077899999995
 31
0.0
  0
LINE
  5
39E
  8
0
 62
     7
 10
-232.65217799999991
 20
903.22170699999992
 30
0.0
 11
-233.20121700000001
 21
903.77077899999983
 31
0.0
  0
LINE
  5
39F
  8
0
 62
     7
 10
-231.90216499999991
 20
903.02077899999995
 30
0.0
 11
-232.652164
 21
903.22170699999992
 31
0.0
  0
LINE
  5
3A0
  8
0
 62
     7
 10
-229.90217799999991
 20
903.02077899999995
 30
0.0
 11
-231.90217699999991
 21
903.02077899999995
 31
0.0
  0
LINE
  5
3A1
  8
0
 62
     7
 10
-236.20119099999999
 20
867.27077899999995
 30
0.0
 11
-233.402154
 21
868.02077899999983
 31
0.0
  0
LINE
  5
3A2
  8
0
 62
     7
 10
-233.40214399999991
 20
868.02077899999983
 30
0.0
 11
-233.40214399999991
 21
878.02077899999995
 31
0.0
  0
LINE
  5
3A3
  8
0
 62
     7
 10
-233.40214399999991
 20
878.02077899999995
 30
0.0
 11
-236.20120499999999
 21
878.77077899999983
 31
0.0
  0
LINE
  5
3A4
  8
0
 62
     7
 10
-233.2012269999999
 20
903.24148199999991
 30
0.0
 11
-233.40218699999991
 21
904.12618699999985
 31
0.0
  0
LINE
  5
3A5
  8
0
 62
     7
 10
-233.29643799999991
 20
904.12618699999985
 30
0.0
 11
-233.40217599999991
 21
904.12618699999985
 31
0.0
  0
LINE
  5
3A6
  8
0
 62
     7
 10
-233.26820099999989
 20
890.02077899999995
 30
0.0
 11
-233.40217299999989
 21
890.12026600000002
 31
0.0
  0
LINE
  5
3A7
  8
0
 62
     7
 10
-233.26820900000001
 20
890.02077899999995
 30
0.0
 11
-233.201221
 21
890.07046199999991
 31
0.0
  0
LINE
  5
3A8
  8
0
 62
     7
 10
-233.20121599999999
 20
900.02077899999995
 30
0.0
 11
-233.40217699999999
 21
900.02077899999995
 31
0.0
  0
LINE
  5
3A9
  8
0
 62
     7
 10
-233.20121
 20
893.9710349999998
 30
0.0
 11
-233.26819900000001
 21
894.02077899999995
 31
0.0
  0
LINE
  5
3AA
  8
0
 62
     7
 10
-233.40218100000001
 20
893.92129200000011
 30
0.0
 11
-233.26820900000001
 21
894.02077899999995
 31
0.0
  0
LINE
  5
3AB
  8
0
 62
     7
 10
-233.310384
 20
901.74288599999977
 30
0.0
 11
-233.20121
 21
902.35262699999987
 31
0.0
  0
LINE
  5
3AC
  8
0
 62
     7
 10
-233.40217599999991
 20
900.02083999999991
 30
0.0
 11
-233.31038899999999
 21
901.74288599999977
 31
0.0
  0
LINE
  5
3AD
  8
0
 62
     7
 10
-233.20121099999989
 20
890.07052300000009
 30
0.0
 11
-232.68585100000001
 21
890.17300099999989
 31
0.0
  0
LINE
  5
3AE
  8
0
 62
     7
 10
-232.68585399999989
 20
890.17300099999989
 30
0.0
 11
-232.65217499999989
 21
890.19552299999998
 31
0.0
  0
LINE
  5
3AF
  8
0
 62
     7
 10
-232.65216099999989
 20
893.84603499999992
 30
0.0
 11
-232.68584199999989
 21
893.86855700000001
 31
0.0
  0
LINE
  5
3B0
  8
0
 62
     7
 10
-232.68584799999991
 20
893.86855700000001
 30
0.0
 11
-233.20120600000001
 21
893.9710349999998
 31
0.0
  0
LINE
  5
3B1
  8
0
 62
     7
 10
-232.65217699999991
 20
900.02077899999995
 30
0.0
 11
-233.20121599999999
 21
900.02077899999995
 31
0.0
  0
LINE
  5
3B2
  8
0
 62
     7
 10
-232.65217200000001
 20
890.19552299999998
 30
0.0
 11
-231.902173
 21
890.32979999999986
 31
0.0
  0
LINE
  5
3B3
  8
0
 62
     7
 10
-231.90217100000001
 20
893.71175800000003
 30
0.0
 11
-232.65217100000001
 21
893.84603499999992
 31
0.0
  0
LINE
  5
3B4
  8
0
 62
     7
 10
-231.90217699999991
 20
900.02077899999995
 30
0.0
 11
-232.65217699999991
 21
900.02077899999995
 31
0.0
  0
LINE
  5
3B5
  8
0
 62
     7
 10
-229.90217799999991
 20
893.71175800000003
 30
0.0
 11
-231.90217699999991
 21
893.71175800000003
 31
0.0
  0
LINE
  5
3B6
  8
0
 62
     7
 10
-229.90217799999991
 20
900.02077899999995
 30
0.0
 11
-231.90217699999991
 21
900.02077899999995
 31
0.0
  0
LINE
  5
3B7
  8
0
 62
     7
 10
-229.90217799999991
 20
890.32979999999986
 30
0.0
 11
-231.90217699999991
 21
890.32979999999986
 31
0.0
  0
LINE
  5
3B8
  8
0
 62
     7
 10
-228.90217799999999
 20
995.02077899999995
 30
0.0
 11
-325.90217599999988
 21
995.02077899999995
 31
0.0
  0
LINE
  5
3B9
  8
0
 62
     7
 10
-228.90217799999999
 20
992.22079099999985
 30
0.0
 11
-323.10217299999999
 21
992.22079099999985
 31
0.0
  0
LINE
  5
3BA
  8
0
 62
     7
 10
-300.90217599999988
 20
827.82082799999989
 30
0.0
 11
-323.10217299999999
 21
827.82082799999989
 31
0.0
  0
LINE
  5
3BB
  8
0
 62
     7
 10
-300.90217599999988
 20
825.02083999999991
 30
0.0
 11
-325.90217599999988
 21
825.02083999999991
 31
0.0
  0
LINE
  5
3BC
  8
0
 62
     7
 10
-300.90217599999988
 20
825.02083999999991
 30
0.0
 11
-300.90217599999988
 21
867.27077899999995
 31
0.0
  0
LINE
  5
3BD
  8
0
 62
     7
 10
-300.90217599999988
 20
878.77077899999983
 30
0.0
 11
-300.90217599999988
 21
881.52084000000013
 31
0.0
  0
LINE
  5
3BE
  8
0
 62
     7
 10
-300.90217599999988
 20
979.52083999999991
 30
0.0
 11
-300.90217599999988
 21
995.02077899999995
 31
0.0
  0
LINE
  5
3BF
  8
0
 62
     7
 10
-330.40217599999988
 20
922.96969300000012
 30
0.0
 11
-330.40217599999988
 21
932.52047400000004
 31
0.0
  0
LINE
  5
3C0
  8
0
 62
     7
 10
-330.40216800000002
 20
865.52053500000011
 30
0.0
 11
-330.40212200000002
 21
872.07125499999995
 31
0.0
  0
LINE
  5
3C1
  8
0
 62
     7
 10
-325.90217599999988
 20
970.77077899999983
 30
0.0
 11
-325.90217599999988
 21
995.02077899999995
 31
0.0
  0
LINE
  5
3C2
  8
0
 62
     7
 10
-323.10217299999999
 20
978.77083999999991
 30
0.0
 11
-325.90217599999988
 21
978.77083999999991
 31
0.0
  0
LINE
  5
3C3
  8
0
 62
     7
 10
-325.90217599999988
 20
825.02083999999991
 30
0.0
 11
-325.90217599999988
 21
849.77084000000002
 31
0.0
  0
LINE
  5
3C4
  8
0
 62
     7
 10
-323.10217299999999
 20
841.27083999999991
 30
0.0
 11
-325.90217599999988
 21
841.27083999999991
 31
0.0
  0
LINE
  5
3C5
  8
0
 62
     7
 10
-323.10217299999999
 20
827.82082799999989
 30
0.0
 11
-323.10217299999999
 21
849.77084000000002
 31
0.0
  0
LINE
  5
3C6
  8
0
 62
     7
 10
-300.90217599999988
 20
878.77077899999983
 30
0.0
 11
-323.10217299999999
 21
878.77077899999983
 31
0.0
  0
LINE
  5
3C7
  8
0
 62
     7
 10
-300.90217599999988
 20
867.27077899999995
 30
0.0
 11
-323.10217299999999
 21
867.27077899999995
 31
0.0
  0
LINE
  5
3C8
  8
0
 62
     7
 10
-323.10217299999999
 20
970.77077899999983
 30
0.0
 11
-328.40217599999988
 21
970.77077899999983
 31
0.0
  0
LINE
  5
3C9
  8
0
 62
     7
 10
-325.402176
 20
849.77084000000002
 30
0.0
 11
-325.90217599999988
 21
849.77084000000002
 31
0.0
  0
LINE
  5
3CA
  8
0
 62
     7
 10
-323.10217299999999
 20
849.77084000000002
 30
0.0
 11
-328.40217599999988
 21
849.77084000000002
 31
0.0
  0
LINE
  5
3CB
  8
0
 62
     7
 10
-339.40348799999992
 20
855.77084000000002
 30
0.0
 11
-339.40348799999992
 21
857.77077899999995
 31
0.0
  0
LINE
  5
3CC
  8
0
 62
     7
 10
-330.40348799999992
 20
855.27077899999995
 30
0.0
 11
-330.40348799999992
 21
960.27077899999995
 31
0.0
  0
LINE
  5
3CD
  8
0
 62
     7
 10
-328.40217599999988
 20
960.27077899999995
 30
0.0
 11
-339.40334300000001
 21
960.27077899999995
 31
0.0
  0
LINE
  5
3CE
  8
0
 62
     7
 10
-328.40217599999988
 20
855.27077899999995
 30
0.0
 11
-339.40334300000001
 21
855.27077899999995
 31
0.0
  0
LINE
  5
3CF
  8
0
 62
     7
 10
-339.40348799999992
 20
855.77077899999995
 30
0.0
 11
-339.403435
 21
873.77077899999995
 31
0.0
  0
LINE
  5
3D0
  8
0
 62
     7
 10
-339.40342700000002
 20
874.77077899999995
 30
0.0
 11
-339.40328999999991
 21
886.77077899999983
 31
0.0
  0
LINE
  5
3D1
  8
0
 62
     7
 10
-339.40348799999992
 20
887.77077899999995
 30
0.0
 11
-339.40348799999992
 21
907.27077899999995
 31
0.0
  0
LINE
  5
3D2
  8
0
 62
     7
 10
-339.40328999999991
 20
887.77077899999995
 30
0.0
 11
-339.40334300000001
 21
907.27077899999995
 31
0.0
  0
LINE
  5
3D3
  8
0
 62
     7
 10
-339.40333599999991
 20
908.27077899999983
 30
0.0
 11
-339.40312999999992
 21
920.27077899999995
 31
0.0
  0
LINE
  5
3D4
  8
0
 62
     7
 10
-294.90213799999992
 20
924.02077899999995
 30
0.0
 11
-297.40216800000002
 21
924.02077899999995
 31
0.0
  0
LINE
  5
3D5
  8
0
 62
     7
 10
-328.40217599999988
 20
960.27077899999995
 30
0.0
 11
-328.40217599999988
 21
970.77077899999983
 31
0.0
  0
LINE
  5
3D6
  8
0
 62
     7
 10
-328.40217599999988
 20
849.77084000000002
 30
0.0
 11
-328.40217599999988
 21
855.27077899999995
 31
0.0
  0
LINE
  5
3D7
  8
0
 62
     7
 10
-323.10217299999999
 20
970.77077899999983
 30
0.0
 11
-323.10217299999999
 21
992.22079099999985
 31
0.0
  0
LINE
  5
3D8
  8
0
 62
     7
 10
-323.10217299999999
 20
849.77084000000002
 30
0.0
 11
-323.10217299999999
 21
970.77077899999983
 31
0.0
  0
ARC
  5
3D9
  8
0
 62
     7
 10
-360.078217
 20
885.72695599999997
 30
0.0
 40
1.0
 50
103.3111819999999
 51
191.37639999999999
  0
ARC
  5
3DA
  8
0
 62
     7
 10
-358.88146999999998
 20
879.77907999999991
 30
0.0
 40
1.000000999999999
 50
191.37639999999999
 51
279.40598199999999
  0
LINE
  5
3DB
  8
0
 62
     7
 10
-360.30845599999992
 20
886.70003900000006
 30
0.0
 11
-339.40329700000001
 21
891.64614499999993
 31
0.0
  0
LINE
  5
3DC
  8
0
 62
     7
 10
-359.86183199999988
 20
879.58187499999997
 30
0.0
 11
-361.05856299999999
 21
885.52968999999996
 31
0.0
  0
LINE
  5
3DD
  8
0
 62
     7
 10
-358.71804800000001
 20
878.79256899999984
 30
0.0
 11
-339.40334300000001
 21
881.99215300000003
 31
0.0
  0
LINE
  5
3DE
  8
0
 62
     7
 10
-339.40334300000001
 20
855.27077899999995
 30
0.0
 11
-339.40334300000001
 21
960.27077899999995
 31
0.0
  0
LINE
  5
3DF
  8
0
  6
DASHDOT
 62
     7
 10
-95.861312999999996
 20
907.77077899999995
 30
0.0
 11
-368.10882599999991
 21
907.77077899999995
 31
0.0
  0
LINE
  5
3E0
  8
0
 62
     7
 10
-228.90217799999999
 20
825.02083999999991
 30
0.0
 11
-300.90217599999988
 21
825.02083999999991
 31
0.0
  0
LINE
  5
3E1
  8
0
  6
DASHDOT
 62
     7
 10
-209.91983599999989
 20
979.52077899999995
 30
0.0
 11
-238.85455699999989
 21
979.52077899999995
 31
0.0
  0
LINE
  5
3E2
  8
0
  6
DASHDOT
 62
     7
 10
-216.56765899999991
 20
840.52077899999995
 30
0.0
 11
-238.85455699999989
 21
840.52077899999995
 31
0.0
  0
LINE
  5
3E3
  8
0
 62
     7
 10
-226.9034879999999
 20
835.52077899999995
 30
0.0
 11
-226.9034879999999
 21
845.52077899999995
 31
0.0
  0
LINE
  5
3E4
  8
0
 62
     7
 10
-226.9034879999999
 20
984.52077899999995
 30
0.0
 11
-228.90217799999999
 21
984.52077899999995
 31
0.0
  0
LINE
  5
3E5
  8
0
 62
     7
 10
-226.9034879999999
 20
974.52077899999995
 30
0.0
 11
-228.90217799999999
 21
974.52077899999995
 31
0.0
  0
LINE
  5
3E6
  8
0
 62
     7
 10
-226.9034879999999
 20
845.52077899999995
 30
0.0
 11
-228.90217799999999
 21
845.52077899999995
 31
0.0
  0
LINE
  5
3E7
  8
0
 62
     7
 10
-226.9034879999999
 20
835.52077899999995
 30
0.0
 11
-228.90217799999999
 21
835.52077899999995
 31
0.0
  0
LINE
  5
3E8
  8
0
 62
     7
 10
-226.9034879999999
 20
974.52077899999995
 30
0.0
 11
-226.9034879999999
 21
984.52077899999995
 31
0.0
  0
LINE
  5
3E9
  8
0
  6
DASHDOT
 62
     7
 10
-99.845161000000004
 20
597.720822
 30
0.0
 11
-462.078644
 21
597.720822
 31
0.0
  0
LINE
  5
3EA
  8
0
 62
     7
 10
-278.40354200000002
 20
517.82082799999989
 30
0.0
 11
-350.40354200000002
 21
517.82082799999989
 31
0.0
  0
LINE
  5
3EB
  8
0
 62
     7
 10
-278.40354200000002
 20
515.02080999999987
 30
0.0
 11
-278.40354200000002
 21
528.27077899999995
 31
0.0
  0
LINE
  5
3EC
  8
0
 62
     7
 10
-276.40354200000002
 20
525.52080999999987
 30
0.0
 11
-278.40354200000002
 21
525.52080999999987
 31
0.0
  0
LINE
  5
3ED
  8
0
 62
     7
 10
-276.40354200000002
 20
674.52077899999995
 30
0.0
 11
-278.40354200000002
 21
674.52077899999995
 31
0.0
  0
LINE
  5
3EE
  8
0
 62
     7
 10
-282.18721799999997
 20
580.17303099999992
 30
0.0
 11
-282.15353799999991
 21
580.19552299999998
 31
0.0
  0
LINE
  5
3EF
  8
0
 62
     7
 10
-278.40354200000002
 20
682.22079099999985
 30
0.0
 11
-372.60353099999998
 21
682.22079099999985
 31
0.0
  0
LINE
  5
3F0
  8
0
 62
     7
 10
-350.40354200000002
 20
517.82082799999989
 30
0.0
 11
-372.60353099999998
 21
517.82082799999989
 31
0.0
  0
LINE
  5
3F1
  8
0
 62
     7
 10
-372.60353099999998
 20
517.82082799999989
 30
0.0
 11
-372.60353099999998
 21
529.02077899999995
 31
0.0
  0
LINE
  5
3F2
  8
0
 62
     7
 10
-372.60353099999998
 20
673.02077899999995
 30
0.0
 11
-372.60353099999998
 21
682.22079099999985
 31
0.0
  0
LINE
  5
3F3
  8
0
 62
     7
 10
-228.903502
 20
570.02077899999995
 30
0.0
 11
-230.90348299999991
 21
570.02077899999995
 31
0.0
  0
LINE
  5
3F4
  8
0
 62
     7
 10
-228.9034979999999
 20
563.02077899999995
 30
0.0
 11
-230.90348199999991
 21
563.02077899999995
 31
0.0
  0
LINE
  5
3F5
  8
0
 62
     7
 10
-228.40349499999999
 20
516.02080999999998
 30
0.0
 11
-228.40349499999999
 21
541.02080999999998
 31
0.0
  0
LINE
  5
3F6
  8
0
 62
     7
 10
-228.40349499999999
 20
659.02077899999995
 30
0.0
 11
-228.40349499999999
 21
684.02077899999995
 31
0.0
  0
LINE
  5
3F7
  8
0
 62
     7
 10
-239.4034959999999
 20
517.82079699999986
 30
0.0
 11
-276.40354200000002
 21
517.82079699999986
 31
0.0
  0
LINE
  5
3F8
  8
0
 62
     7
 10
-239.4034959999999
 20
515.02080999999987
 30
0.0
 11
-276.40354200000002
 21
515.02080999999987
 31
0.0
  0
LINE
  5
3F9
  8
0
 62
     7
 10
-239.4034959999999
 20
685.02077899999995
 30
0.0
 11
-276.40354200000002
 21
685.02077899999995
 31
0.0
  0
LINE
  5
3FA
  8
0
 62
     7
 10
-239.4034959999999
 20
682.22079099999985
 30
0.0
 11
-276.40354200000002
 21
682.22079099999985
 31
0.0
  0
LINE
  5
3FB
  8
0
 62
     7
 10
-276.40354200000002
 20
515.02080999999987
 30
0.0
 11
-276.40354200000002
 21
528.27077899999995
 31
0.0
  0
LINE
  5
3FC
  8
0
 62
     7
 10
-239.4034959999999
 20
515.02080999999987
 30
0.0
 11
-239.4034959999999
 21
516.02080999999998
 31
0.0
  0
LINE
  5
3FD
  8
0
 62
     7
 10
-226.90348499999999
 20
543.52080999999987
 30
0.0
 11
-226.90350000000001
 21
556.52080999999987
 31
0.0
  0
LINE
  5
3FE
  8
0
 62
     7
 10
-226.9034959999999
 20
643.52077899999995
 30
0.0
 11
-226.90348099999991
 21
656.52077899999995
 31
0.0
  0
LINE
  5
3FF
  8
0
 62
     7
 10
-227.4034959999999
 20
657.02077899999995
 30
0.0
 11
-228.90349499999999
 21
657.02077899999995
 31
0.0
  0
LINE
  5
400
  8
0
 62
     7
 10
-227.4034959999999
 20
543.02080999999987
 30
0.0
 11
-228.90349499999999
 21
543.02080999999987
 31
0.0
  0
LINE
  5
401
  8
0
 62
     7
 10
-228.90349499999999
 20
656.52077899999995
 30
0.0
 11
-228.90349499999999
 21
657.02077899999995
 31
0.0
  0
LINE
  5
402
  8
0
 62
     7
 10
-228.90349499999999
 20
556.52090099999998
 30
0.0
 11
-228.90349499999999
 21
643.52077899999995
 31
0.0
  0
LINE
  5
403
  8
0
 62
     7
 10
-228.90349499999999
 20
543.02080999999987
 30
0.0
 11
-228.90349499999999
 21
543.52087099999994
 31
0.0
  0
LINE
  5
404
  8
0
 62
     7
 10
-227.4034959999999
 20
543.02080999999987
 30
0.0
 11
-227.4034959999999
 21
543.52077899999995
 31
0.0
  0
LINE
  5
405
  8
0
 62
     7
 10
-227.4034959999999
 20
556.52077899999995
 30
0.0
 11
-227.4034959999999
 21
643.52071799999987
 31
0.0
  0
LINE
  5
406
  8
0
 62
     7
 10
-227.4034959999999
 20
656.52071799999987
 30
0.0
 11
-227.4034959999999
 21
657.02077899999995
 31
0.0
  0
LINE
  5
407
  8
0
 62
     7
 10
-228.40349499999999
 20
541.02080999999998
 30
0.0
 11
-230.90348399999991
 21
541.02080999999998
 31
0.0
  0
LINE
  5
408
  8
0
 62
     7
 10
-228.40349499999999
 20
516.02080999999998
 30
0.0
 11
-239.4034959999999
 21
516.02080999999998
 31
0.0
  0
LINE
  5
409
  8
0
 62
     7
 10
-228.40349499999999
 20
659.02077899999995
 30
0.0
 11
-230.90349399999999
 21
659.02077899999995
 31
0.0
  0
LINE
  5
40A
  8
0
 62
     7
 10
-228.40349499999999
 20
684.02077899999995
 30
0.0
 11
-235.4035109999999
 21
684.02077899999995
 31
0.0
  0
LINE
  5
40B
  8
0
 62
     7
 10
-226.90347999999989
 20
543.52080999999987
 30
0.0
 11
-230.90347999999989
 21
543.52080999999987
 31
0.0
  0
LINE
  5
40C
  8
0
 62
     7
 10
-226.9034959999999
 20
556.52080999999987
 30
0.0
 11
-230.90348099999991
 21
556.52080999999987
 31
0.0
  0
LINE
  5
40D
  8
0
 62
     7
 10
-226.90347999999989
 20
656.52077899999995
 30
0.0
 11
-230.903493
 21
656.52077899999995
 31
0.0
  0
LINE
  5
40E
  8
0
 62
     7
 10
-226.9034959999999
 20
643.52077899999995
 30
0.0
 11
-230.903492
 21
643.52077899999995
 31
0.0
  0
LINE
  5
40F
  8
0
 62
     7
 10
-228.90349499999999
 20
640.02077899999995
 30
0.0
 11
-230.903491
 21
640.02077899999995
 31
0.0
  0
LINE
  5
410
  8
0
 62
     7
 10
-228.90349499999999
 20
632.02077899999995
 30
0.0
 11
-230.903491
 21
632.02077899999995
 31
0.0
  0
LINE
  5
411
  8
0
 62
     7
 10
-235.4035109999999
 20
516.02080999999998
 30
0.0
 11
-239.4034959999999
 21
516.02080999999998
 31
0.0
  0
LINE
  5
412
  8
0
 62
     7
 10
-239.4034959999999
 20
516.02080999999998
 30
0.0
 11
-239.4034959999999
 21
533.02056500000003
 31
0.0
  0
LINE
  5
413
  8
0
 62
     7
 10
-239.4034959999999
 20
684.02077899999995
 30
0.0
 11
-239.4034959999999
 21
685.02077899999995
 31
0.0
  0
LINE
  5
414
  8
0
 62
     7
 10
-239.4034959999999
 20
673.02077899999995
 30
0.0
 11
-239.4034959999999
 21
684.02077899999995
 31
0.0
  0
LINE
  5
415
  8
0
 62
     7
 10
-235.4035109999999
 20
684.02077899999995
 30
0.0
 11
-239.4034959999999
 21
684.02077899999995
 31
0.0
  0
LINE
  5
416
  8
0
  6
DASHDOT
 62
     7
 10
-215.19224700000001
 20
650.02077899999995
 30
0.0
 11
-236.84462199999999
 21
650.02077899999995
 31
0.0
  0
LINE
  5
417
  8
0
  6
DASHDOT
 62
     7
 10
-217.026129
 20
550.02080999999998
 30
0.0
 11
-235.672652
 21
550.02080999999998
 31
0.0
  0
LINE
  5
418
  8
0
 62
     7
 10
-405.90341199999989
 20
544.02077899999995
 30
0.0
 11
-405.903458
 21
548.02077899999995
 31
0.0
  0
LINE
  5
419
  8
0
 62
     7
 10
-392.20475800000003
 20
537.02074800000003
 30
0.0
 11
-391.90347300000002
 21
537.02077899999995
 31
0.0
  0
LINE
  5
41A
  8
0
 62
     7
 10
-405.903458
 20
533.02077899999995
 30
0.0
 11
-405.90341199999989
 21
537.02074800000003
 31
0.0
  0
LINE
  5
41B
  8
0
 62
     7
 10
-274.40352599999989
 20
533.02065700000003
 30
0.0
 11
-276.40352599999989
 21
533.02077899999995
 31
0.0
  0
LINE
  5
41C
  8
0
 62
     7
 10
-281.40354200000002
 20
533.02077899999995
 30
0.0
 11
-400.90345799999989
 21
533.02077899999995
 31
0.0
  0
LINE
  5
41D
  8
0
 62
     7
 10
-230.90349499999999
 20
673.02077899999995
 30
0.0
 11
-274.40354200000002
 21
673.02077899999995
 31
0.0
  0
LINE
  5
41E
  8
0
 62
     7
 10
-230.90349499999999
 20
533.02053499999988
 30
0.0
 11
-274.40352599999989
 21
533.02065700000003
 31
0.0
  0
LINE
  5
41F
  8
0
 62
     7
 10
-230.90349499999999
 20
533.02053499999988
 30
0.0
 11
-230.90347999999989
 21
544.02074800000003
 31
0.0
  0
LINE
  5
420
  8
0
 62
     7
 10
-315.403481
 20
641.02077899999995
 30
0.0
 11
-405.903458
 21
641.02077899999995
 31
0.0
  0
LINE
  5
421
  8
0
 62
     7
 10
-315.403481
 20
611.02074800000003
 30
0.0
 11
-349.90349600000002
 21
611.02074800000003
 31
0.0
  0
LINE
  5
422
  8
0
 62
     7
 10
-405.90342700000002
 20
537.02074800000003
 30
0.0
 11
-405.90342700000002
 21
544.02077899999995
 31
0.0
  0
LINE
  5
423
  8
0
 62
     7
 10
-274.40354200000002
 20
673.02077899999995
 30
0.0
 11
-405.903458
 21
673.02077899999995
 31
0.0
  0
LINE
  5
424
  8
0
 62
     7
 10
-405.903458
 20
641.02077899999995
 30
0.0
 11
-405.903458
 21
673.02077899999995
 31
0.0
  0
LINE
  5
425
  8
0
 62
     7
 10
-303.65354200000002
 20
537.02080999999998
 30
0.0
 11
-278.403526
 21
537.02087099999994
 31
0.0
  0
LINE
  5
426
  8
0
 62
     7
 10
-307.65354200000002
 20
537.02077899999995
 30
0.0
 11
-344.52848099999989
 21
537.02077899999995
 31
0.0
  0
LINE
  5
427
  8
0
 62
     7
 10
-348.528481
 20
537.02077899999995
 30
0.0
 11
-401.90335099999987
 21
537.02077899999995
 31
0.0
  0
LINE
  5
428
  8
0
 62
     7
 10
-348.52847300000002
 20
541.52077899999995
 30
0.0
 11
-401.90335099999987
 21
541.52077899999995
 31
0.0
  0
LINE
  5
429
  8
0
 62
     7
 10
-307.65353399999992
 20
541.52077899999995
 30
0.0
 11
-344.52847300000002
 21
541.52077899999995
 31
0.0
  0
LINE
  5
42A
  8
0
 62
     7
 10
-278.403526
 20
541.52077899999995
 30
0.0
 11
-303.65353399999992
 21
541.52077899999995
 31
0.0
  0
LINE
  5
42B
  8
0
 62
     7
 10
-401.90335099999987
 20
537.02074800000003
 30
0.0
 11
-401.90335099999987
 21
541.52077899999995
 31
0.0
  0
LINE
  5
42C
  8
0
 62
     7
 10
-278.403526
 20
537.02087099999994
 30
0.0
 11
-278.403526
 21
541.52084000000002
 31
0.0
  0
LINE
  5
42D
  8
0
 62
     7
 10
-303.65354200000002
 20
537.02080999999998
 30
0.0
 11
-303.65353399999992
 21
541.52084000000002
 31
0.0
  0
LINE
  5
42E
  8
0
 62
     7
 10
-307.65354200000002
 20
537.02080999999998
 30
0.0
 11
-307.65353399999992
 21
541.52084000000002
 31
0.0
  0
LINE
  5
42F
  8
0
 62
     7
 10
-344.52851900000002
 20
537.02077899999995
 30
0.0
 11
-344.52851900000002
 21
541.52080999999998
 31
0.0
  0
LINE
  5
430
  8
0
 62
     7
 10
-348.52851900000002
 20
537.02077899999995
 30
0.0
 11
-348.52851900000002
 21
541.52080999999998
 31
0.0
  0
LINE
  5
431
  8
0
 62
     7
 10
-373.90347300000002
 20
529.02077899999995
 30
0.0
 11
-373.90347300000002
 21
533.02077899999995
 31
0.0
  0
LINE
  5
432
  8
0
 62
     7
 10
-369.90347300000002
 20
529.02077899999995
 30
0.0
 11
-369.90347300000002
 21
533.02077899999995
 31
0.0
  0
LINE
  5
433
  8
0
 62
     7
 10
-369.90347300000002
 20
529.02077899999995
 30
0.0
 11
-373.90347300000002
 21
529.02077899999995
 31
0.0
  0
LINE
  5
434
  8
0
 62
     7
 10
-290.15346499999993
 20
529.02084000000002
 30
0.0
 11
-290.15346499999993
 21
533.02074800000003
 31
0.0
  0
LINE
  5
435
  8
0
 62
     7
 10
-286.15346499999993
 20
529.02084000000002
 30
0.0
 11
-286.15346499999993
 21
533.02074800000003
 31
0.0
  0
LINE
  5
436
  8
0
 62
     7
 10
-286.15346499999993
 20
529.02084000000002
 30
0.0
 11
-290.15346499999993
 21
529.02084000000002
 31
0.0
  0
LINE
  5
437
  8
0
 62
     7
 10
-400.90345799999989
 20
528.27077899999995
 30
0.0
 11
-400.90345799999989
 21
530.77077899999995
 31
0.0
  0
LINE
  5
438
  8
0
 62
     7
 10
-405.903458
 20
528.27077899999995
 30
0.0
 11
-405.903458
 21
533.02077899999995
 31
0.0
  0
LINE
  5
439
  8
0
 62
     7
 10
-400.90345799999989
 20
528.27077899999995
 30
0.0
 11
-405.903458
 21
528.27077899999995
 31
0.0
  0
LINE
  5
43A
  8
0
 62
     7
 10
-400.90345799999989
 20
530.77077899999995
 30
0.0
 11
-400.90345799999989
 21
533.02077899999995
 31
0.0
  0
LINE
  5
43B
  8
0
 62
     7
 10
-281.40355699999992
 20
528.27077899999995
 30
0.0
 11
-281.40355699999992
 21
530.77077899999995
 31
0.0
  0
LINE
  5
43C
  8
0
 62
     7
 10
-276.40355699999992
 20
528.27077899999995
 30
0.0
 11
-281.40355699999992
 21
528.27077899999995
 31
0.0
  0
LINE
  5
43D
  8
0
 62
     7
 10
-276.40355699999992
 20
528.27077899999995
 30
0.0
 11
-276.40352599999989
 21
533.02077899999995
 31
0.0
  0
LINE
  5
43E
  8
0
 62
     7
 10
-281.40355699999992
 20
530.77077899999995
 30
0.0
 11
-281.40354200000002
 21
533.02074800000003
 31
0.0
  0
LINE
  5
43F
  8
0
 62
     7
 10
-398.90347300000002
 20
652.52084000000002
 30
0.0
 11
-401.90347300000002
 21
655.52084000000002
 31
0.0
  0
LINE
  5
440
  8
0
 62
     7
 10
-405.903458
 20
548.02077899999995
 30
0.0
 11
-405.903458
 21
611.02077899999995
 31
0.0
  0
LINE
  5
441
  8
0
 62
     7
 10
-349.90350299999989
 20
611.02077899999995
 30
0.0
 11
-405.903458
 21
611.02077899999995
 31
0.0
  0
LINE
  5
442
  8
0
 62
     7
 10
-315.403481
 20
611.02074800000003
 30
0.0
 11
-315.403481
 21
641.02077899999995
 31
0.0
  0
LINE
  5
443
  8
0
 62
     7
 10
-390.40347300000002
 20
640.52077899999995
 30
0.0
 11
-390.40347300000002
 21
641.02077899999995
 31
0.0
  0
LINE
  5
444
  8
0
 62
     7
 10
-278.403526
 20
659.77071799999999
 30
0.0
 11
-303.65354200000002
 21
659.77071799999999
 31
0.0
  0
LINE
  5
445
  8
0
 62
     7
 10
-303.65354200000002
 20
652.52077899999995
 30
0.0
 11
-303.65354200000002
 21
659.77077899999995
 31
0.0
  0
LINE
  5
446
  8
0
 62
     7
 10
-278.403526
 20
652.52071799999987
 30
0.0
 11
-303.65354200000002
 21
652.52071799999987
 31
0.0
  0
LINE
  5
447
  8
0
 62
     7
 10
-278.403526
 20
652.52077899999995
 30
0.0
 11
-278.403526
 21
659.77077899999995
 31
0.0
  0
LINE
  5
448
  8
0
 62
     7
 10
-348.528481
 20
652.52077899999995
 30
0.0
 11
-348.528481
 21
659.77077899999995
 31
0.0
  0
LINE
  5
449
  8
0
 62
     7
 10
-307.65354200000002
 20
652.52077899999995
 30
0.0
 11
-348.528481
 21
652.52077899999995
 31
0.0
  0
LINE
  5
44A
  8
0
 62
     7
 10
-307.65354200000002
 20
652.52077899999995
 30
0.0
 11
-307.65354200000002
 21
659.77077899999995
 31
0.0
  0
LINE
  5
44B
  8
0
 62
     7
 10
-307.65354200000002
 20
659.77077899999995
 30
0.0
 11
-348.528481
 21
659.77077899999995
 31
0.0
  0
LINE
  5
44C
  8
0
 62
     7
 10
-352.52847300000002
 20
652.52077899999995
 30
0.0
 11
-401.903458
 21
652.52077899999995
 31
0.0
  0
LINE
  5
44D
  8
0
 62
     7
 10
-352.52847300000002
 20
652.52077899999995
 30
0.0
 11
-352.52847300000002
 21
659.77077899999995
 31
0.0
  0
LINE
  5
44E
  8
0
 62
     7
 10
-352.52847300000002
 20
659.77077899999995
 30
0.0
 11
-401.903458
 21
659.77077899999995
 31
0.0
  0
LINE
  5
44F
  8
0
 62
     7
 10
-401.903458
 20
652.52077899999995
 30
0.0
 11
-401.903458
 21
659.77077899999995
 31
0.0
  0
LINE
  5
450
  8
0
 62
     7
 10
-391.90347300000002
 20
537.02077899999995
 30
0.0
 11
-391.90347300000002
 21
541.52077899999995
 31
0.0
  0
LINE
  5
451
  8
0
 62
     7
 10
-387.90345799999989
 20
537.02077899999995
 30
0.0
 11
-387.90345799999989
 21
541.52077899999995
 31
0.0
  0
LINE
  5
452
  8
0
 62
     7
 10
-401.90309100000002
 20
537.02071799999999
 30
0.0
 11
-401.90309100000002
 21
541.52077899999995
 31
0.0
  0
LINE
  5
453
  8
0
 62
     7
 10
-405.903458
 20
533.02071799999999
 30
0.0
 11
-405.903458
 21
534.02077899999995
 31
0.0
  0
LINE
  5
454
  8
0
 62
     7
 10
-274.40353399999992
 20
533.02065700000003
 30
0.0
 11
-276.40352599999989
 21
533.02068699999995
 31
0.0
  0
LINE
  5
455
  8
0
 62
     7
 10
-230.90347299999999
 20
544.02074800000003
 30
0.0
 11
-230.90347299999999
 21
673.02077899999995
 31
0.0
  0
LINE
  5
456
  8
0
 62
     7
 10
-303.60147899999993
 20
537.02080999999998
 30
0.0
 11
-303.60147899999993
 21
541.52084000000002
 31
0.0
  0
LINE
  5
457
  8
0
 62
     7
 10
-307.65475499999991
 20
537.02074800000003
 30
0.0
 11
-307.65475499999991
 21
541.52084000000002
 31
0.0
  0
LINE
  5
458
  8
0
 62
     7
 10
-329.90346499999993
 20
640.52077899999995
 30
0.0
 11
-405.903458
 21
640.52077899999995
 31
0.0
  0
LINE
  5
459
  8
0
 62
     7
 10
-329.90346499999993
 20
611.02074800000003
 30
0.0
 11
-329.90346499999993
 21
640.52077899999995
 31
0.0
  0
LINE
  5
45A
  8
0
 62
     7
 10
-405.903458
 20
611.02077899999995
 30
0.0
 11
-405.903458
 21
640.52077899999995
 31
0.0
  0
LINE
  5
45B
  8
0
 62
     7
 10
-398.90332000000001
 20
537.02077899999995
 30
0.0
 11
-398.90332000000001
 21
541.52077899999995
 31
0.0
  0
LINE
  5
45C
  8
0
 62
     7
 10
-278.403526
 20
654.02077899999995
 30
0.0
 11
-303.65352599999989
 21
654.02077899999995
 31
0.0
  0
LINE
  5
45D
  8
0
 62
     7
 10
-307.65353399999992
 20
654.02077899999995
 30
0.0
 11
-348.52846499999998
 21
654.02077899999995
 31
0.0
  0
LINE
  5
45E
  8
0
 62
     7
 10
-352.52847300000002
 20
654.02077899999995
 30
0.0
 11
-398.903458
 21
654.02077899999995
 31
0.0
  0
LINE
  5
45F
  8
0
 62
     7
 10
-399.653458
 20
653.27084000000002
 30
0.0
 11
-398.903458
 21
654.02084000000002
 31
0.0
  0
LINE
  5
460
  8
0
 62
     7
 10
-398.903458
 20
654.02077899999995
 30
0.0
 11
-398.903458
 21
659.77077899999995
 31
0.0
  0
LINE
  5
461
  8
0
 62
     7
 10
-276.40354200000002
 20
673.02077899999995
 30
0.0
 11
-276.40354200000002
 21
685.02077899999995
 31
0.0
  0
LINE
  5
462
  8
0
 62
     7
 10
-278.40354200000002
 20
673.02077899999995
 30
0.0
 11
-278.40354200000002
 21
685.02077899999995
 31
0.0
  0
LINE
  5
463
  8
0
 62
     7
 10
-350.40354200000002
 20
673.02077899999995
 30
0.0
 11
-350.40354200000002
 21
682.22079099999985
 31
0.0
  0
CIRCLE
  5
464
  8
0
 62
     7
 10
-251.40352599999991
 20
650.02077899999995
 30
0.0
 40
5.9999960000000003
  0
CIRCLE
  5
465
  8
0
 62
     7
 10
-251.40355099999991
 20
650.02077899999995
 30
0.0
 40
3.2500040000000001
  0
CIRCLE
  5
466
  8
0
 62
     7
 10
-251.40352599999991
 20
550.02077899999995
 30
0.0
 40
6.0000099999999987
  0
CIRCLE
  5
467
  8
0
 62
     7
 10
-251.4035209999999
 20
550.02077899999995
 30
0.0
 40
3.2500009999999988
  0
CIRCLE
  5
468
  8
0
 62
     7
 10
-393.903549
 20
596.02071799999999
 30
0.0
 40
10.00001799999999
  0
CIRCLE
  5
469
  8
0
 62
     7
 10
-393.903549
 20
596.02074800000003
 30
0.0
 40
2.749997
  0
LINE
  5
46A
  8
0
 62
     7
 10
-393.903549
 20
583.02071799999999
 30
0.0
 11
-393.903549
 21
609.02074800000003
 31
0.0
  0
LINE
  5
46B
  8
0
 62
     7
 10
-380.90353399999992
 20
596.02071799999999
 30
0.0
 11
-406.90356400000002
 21
596.02071799999999
 31
0.0
  0
LINE
  5
46C
  8
0
 62
     7
 10
-251.40352599999991
 20
641.02084000000002
 30
0.0
 11
-251.40352599999991
 21
659.02077899999995
 31
0.0
  0
LINE
  5
46D
  8
0
 62
     7
 10
-242.4035299999999
 20
650.02077899999995
 30
0.0
 11
-260.40352200000001
 21
650.02077899999995
 31
0.0
  0
LINE
  5
46E
  8
0
 62
     7
 10
-251.40352599999991
 20
541.02077899999995
 30
0.0
 11
-251.40352599999991
 21
559.02077899999995
 31
0.0
  0
LINE
  5
46F
  8
0
 62
     7
 10
-242.40351499999991
 20
550.02077899999995
 30
0.0
 11
-260.40353399999992
 21
550.02077899999995
 31
0.0
  0
LINE
  5
470
  8
0
  6
DASHSPACE
 62
     7
 10
-455.33389299999988
 20
650.27077899999995
 30
0.0
 11
-482.83387800000003
 21
650.27077899999995
 31
0.0
  0
LINE
  5
471
  8
0
  6
DASHSPACE
 62
     7
 10
-455.33389299999988
 20
545.27080999999987
 30
0.0
 11
-482.83387800000003
 21
545.27080999999987
 31
0.0
  0
LINE
  5
472
  8
0
 62
     7
 10
-278.40354200000002
 20
685.02077899999995
 30
0.0
 11
-375.10353099999998
 21
685.02077899999995
 31
0.0
  0
LINE
  5
473
  8
0
 62
     7
 10
-278.40354200000002
 20
515.02080999999987
 30
0.0
 11
-375.10353099999998
 21
515.02080999999987
 31
0.0
  0
LINE
  5
474
  8
0
 62
     7
 10
-375.10353099999998
 20
673.02077899999995
 30
0.0
 11
-375.10353099999998
 21
685.02077899999995
 31
0.0
  0
LINE
  5
475
  8
0
 62
     7
 10
-375.10353099999998
 20
515.02080999999987
 30
0.0
 11
-375.10353099999998
 21
533.02077899999995
 31
0.0
  0
POLYLINE
  5
476
  8
0
 62
     7
 66
     1
 10
0.0
 20
0.0
 30
0.0
  0
VERTEX
  5
9FA
  8
0
 62
     7
 10
-415.1067809999999
 20
539.25079000000005
 30
0.0
  0
VERTEX
  5
9FB
  8
0
 62
     7
 10
-415.1067809999999
 20
555.25079000000005
 30
0.0
  0
VERTEX
  5
9FC
  8
0
 62
     7
 10
-417.10678100000001
 20
556.25079000000005
 30
0.0
  0
VERTEX
  5
9FD
  8
0
 62
     7
 10
-413.10678100000001
 20
557.25079000000005
 30
0.0
  0
VERTEX
  5
9FE
  8
0
 62
     7
 10
-415.1067809999999
 20
558.25079000000005
 30
0.0
  0
VERTEX
  5
9FF
  8
0
 62
     7
 10
-415.1067809999999
 20
574.25079000000005
 30
0.0
  0
VERTEX
  5
A00
  8
0
 62
     7
 10
-417.10678100000001
 20
575.25079000000005
 30
0.0
  0
VERTEX
  5
A01
  8
0
 62
     7
 10
-413.10678100000001
 20
576.25079000000005
 30
0.0
  0
VERTEX
  5
A02
  8
0
 62
     7
 10
-415.1067809999999
 20
577.25079000000005
 30
0.0
  0
VERTEX
  5
A03
  8
0
 62
     7
 10
-415.1067809999999
 20
593.25079000000005
 30
0.0
  0
VERTEX
  5
A04
  8
0
 62
     7
 10
-417.10678100000001
 20
594.25079000000005
 30
0.0
  0
VERTEX
  5
A05
  8
0
 62
     7
 10
-413.10678100000001
 20
595.25079000000005
 30
0.0
  0
VERTEX
  5
A06
  8
0
 62
     7
 10
-415.1067809999999
 20
596.25079000000005
 30
0.0
  0
VERTEX
  5
A07
  8
0
 62
     7
 10
-415.1067809999999
 20
612.25079000000005
 30
0.0
  0
VERTEX
  5
A08
  8
0
 62
     7
 10
-417.10678100000001
 20
613.25079000000005
 30
0.0
  0
VERTEX
  5
A09
  8
0
 62
     7
 10
-413.10678100000001
 20
614.25079000000005
 30
0.0
  0
VERTEX
  5
A0A
  8
0
 62
     7
 10
-415.1067809999999
 20
615.25079000000005
 30
0.0
  0
VERTEX
  5
A0B
  8
0
 62
     7
 10
-415.1067809999999
 20
631.25075900000002
 30
0.0
  0
VERTEX
  5
A0C
  8
0
 62
     7
 10
-417.10678100000001
 20
632.25075900000002
 30
0.0
  0
VERTEX
  5
A0D
  8
0
 62
     7
 10
-413.10678100000001
 20
633.25075900000002
 30
0.0
  0
VERTEX
  5
A0E
  8
0
 62
     7
 10
-415.1067809999999
 20
634.25075900000002
 30
0.0
  0
VERTEX
  5
A0F
  8
0
 62
     7
 10
-415.1067809999999
 20
650.25075900000002
 30
0.0
  0
VERTEX
  5
A10
  8
0
 62
     7
 10
-417.10678100000001
 20
651.25075900000002
 30
0.0
  0
VERTEX
  5
A11
  8
0
 62
     7
 10
-413.10678100000001
 20
652.25075900000002
 30
0.0
  0
VERTEX
  5
A12
  8
0
 62
     7
 10
-415.1067809999999
 20
653.25075900000002
 30
0.0
  0
VERTEX
  5
A13
  8
0
 62
     7
 10
-415.1067809999999
 20
655.33871099999999
 30
0.0
  0
SEQEND
  5
A14
  8
0
 62
     7
  0
POLYLINE
  5
492
  8
0
 62
     7
 66
     1
 10
0.0
 20
0.0
 30
0.0
  0
VERTEX
  5
A15
  8
0
 62
     7
 10
-425.267944
 20
536.81487699999991
 30
0.0
  0
VERTEX
  5
A16
  8
0
 62
     7
 10
-425.267944
 20
552.81487699999991
 30
0.0
  0
VERTEX
  5
A17
  8
0
 62
     7
 10
-427.267944
 20
553.81487699999991
 30
0.0
  0
VERTEX
  5
A18
  8
0
 62
     7
 10
-423.267944
 20
554.81487699999991
 30
0.0
  0
VERTEX
  5
A19
  8
0
 62
     7
 10
-425.267944
 20
555.8148769999998
 30
0.0
  0
VERTEX
  5
A1A
  8
0
 62
     7
 10
-425.267944
 20
571.81487699999991
 30
0.0
  0
VERTEX
  5
A1B
  8
0
 62
     7
 10
-427.267944
 20
572.8148769999998
 30
0.0
  0
VERTEX
  5
A1C
  8
0
 62
     7
 10
-423.267944
 20
573.81487699999991
 30
0.0
  0
VERTEX
  5
A1D
  8
0
 62
     7
 10
-425.267944
 20
574.81487699999991
 30
0.0
  0
VERTEX
  5
A1E
  8
0
 62
     7
 10
-425.267944
 20
590.81487699999991
 30
0.0
  0
VERTEX
  5
A1F
  8
0
 62
     7
 10
-427.267944
 20
591.81487699999991
 30
0.0
  0
VERTEX
  5
A20
  8
0
 62
     7
 10
-423.267944
 20
592.81487699999991
 30
0.0
  0
VERTEX
  5
A21
  8
0
 62
     7
 10
-425.267944
 20
593.8148769999998
 30
0.0
  0
VERTEX
  5
A22
  8
0
 62
     7
 10
-425.267944
 20
609.8148769999998
 30
0.0
  0
VERTEX
  5
A23
  8
0
 62
     7
 10
-427.267944
 20
610.81487699999991
 30
0.0
  0
VERTEX
  5
A24
  8
0
 62
     7
 10
-423.267944
 20
611.81487699999991
 30
0.0
  0
VERTEX
  5
A25
  8
0
 62
     7
 10
-425.267944
 20
612.81487699999991
 30
0.0
  0
VERTEX
  5
A26
  8
0
 62
     7
 10
-425.267944
 20
628.81484599999999
 30
0.0
  0
VERTEX
  5
A27
  8
0
 62
     7
 10
-427.267944
 20
629.81484599999999
 30
0.0
  0
VERTEX
  5
A28
  8
0
 62
     7
 10
-423.267944
 20
630.81484599999987
 30
0.0
  0
VERTEX
  5
A29
  8
0
 62
     7
 10
-425.267944
 20
631.81484599999987
 30
0.0
  0
VERTEX
  5
A2A
  8
0
 62
     7
 10
-425.267944
 20
647.81484599999987
 30
0.0
  0
VERTEX
  5
A2B
  8
0
 62
     7
 10
-427.267944
 20
648.81484599999987
 30
0.0
  0
VERTEX
  5
A2C
  8
0
 62
     7
 10
-423.267944
 20
649.81484599999999
 30
0.0
  0
VERTEX
  5
A2D
  8
0
 62
     7
 10
-425.267944
 20
650.81484599999999
 30
0.0
  0
VERTEX
  5
A2E
  8
0
 62
     7
 10
-425.267944
 20
655.19949000000008
 30
0.0
  0
SEQEND
  5
A2F
  8
0
 62
     7
  0
LINE
  5
4AE
  8
0
 62
     7
 10
-455.33389299999988
 20
545.27080999999987
 30
0.0
 11
-455.33389299999988
 21
650.27077899999995
 31
0.0
  0
ARC
  5
4AF
  8
0
 62
     7
 10
-454.08389299999988
 20
649.02077899999995
 30
0.0
 40
1.25
 50
90.0
 51
180.00000299999991
  0
ARC
  5
4B0
  8
0
 62
     7
 10
-454.08389299999988
 20
546.52080999999987
 30
0.0
 40
1.25
 50
180.00000299999991
 51
270.00000499999987
  0
LINE
  5
4B1
  8
0
 62
     7
 10
-405.903458
 20
650.27077899999995
 30
0.0
 11
-415.1067809999999
 21
650.27077899999995
 31
0.0
  0
LINE
  5
4B2
  8
0
 62
     7
 10
-405.903458
 20
545.27080999999987
 30
0.0
 11
-415.1067809999999
 21
545.27080999999987
 31
0.0
  0
LINE
  5
4B3
  8
0
 62
     7
 10
-211.59208199999989
 20
875.33486600000003
 30
0.0
 11
-213.038927
 21
876.17019299999993
 31
0.0
  0
LINE
  5
4B4
  8
0
 62
     7
 10
-215.543983
 20
874.88906500000007
 30
0.0
 11
-215.42466400000001
 21
875.56576199999995
 31
0.0
  0
LINE
  5
4B5
  8
0
 62
     7
 10
-218.54396600000001
 20
877.81228299999987
 30
0.0
 11
-217.857958
 21
877.99605999999994
 31
0.0
  0
LINE
  5
4B6
  8
0
 62
     7
 10
-217.85784100000001
 20
879.04574200000002
 30
0.0
 11
-218.54397399999999
 21
879.22958000000006
 31
0.0
  0
LINE
  5
4B7
  8
0
 62
     7
 10
-215.4245479999999
 20
881.47542999999996
 30
0.0
 11
-215.54397800000001
 21
882.15273699999977
 31
0.0
  0
LINE
  5
4B8
  8
0
 62
     7
 10
-213.03939099999999
 20
880.87136500000008
 30
0.0
 11
-211.5920669999999
 21
881.70699700000023
 31
0.0
  0
LINE
  5
4B9
  8
0
 62
     7
 10
-211.591983
 20
625.33474399999989
 30
0.0
 11
-213.08530699999989
 21
626.19692599999985
 31
0.0
  0
LINE
  5
4BA
  8
0
 62
     7
 10
-215.54387600000001
 20
624.889004
 30
0.0
 11
-215.41454999999991
 21
625.62246399999992
 31
0.0
  0
LINE
  5
4BB
  8
0
 62
     7
 10
-218.54386599999989
 20
627.81209999999987
 30
0.0
 11
-217.8020599999999
 21
628.01089100000002
 31
0.0
  0
LINE
  5
4BC
  8
0
 62
     7
 10
-217.80206299999989
 20
629.03072799999995
 30
0.0
 11
-218.543869
 21
629.22945800000002
 31
0.0
  0
LINE
  5
4BD
  8
0
 62
     7
 10
-215.41454999999991
 20
631.41915499999993
 30
0.0
 11
-215.54387600000001
 21
632.15261500000008
 31
0.0
  0
LINE
  5
4BE
  8
0
 62
     7
 10
-213.08530999999999
 20
630.84469300000001
 30
0.0
 11
-211.59198599999991
 21
631.70681399999989
 31
0.0
  0
LINE
  5
4BF
  8
0
 62
     7
 10
-203.01976199999999
 20
635.08028799999988
 30
0.0
 11
-213.898798
 21
636.45748600000002
 31
0.0
  0
LINE
  5
4C0
  8
0
 62
     7
 10
-201.50832199999999
 20
634.889004
 30
0.0
 11
-203.019766
 21
635.08028799999988
 31
0.0
  0
LINE
  5
4C1
  8
0
 62
     7
 10
-184.136337
 20
632.68990699999995
 30
0.0
 11
-201.50833299999991
 21
634.889004
 31
0.0
  0
LINE
  5
4C2
  8
0
 62
     7
 10
-204.4403669999999
 20
593.32815199999993
 30
0.0
 11
-179.39450099999991
 21
619.18746599999986
 31
0.0
  0
LINE
  5
4C3
  8
0
 62
     7
 10
-209.5037759999999
 20
591.54995399999984
 30
0.0
 11
-212.54878099999999
 21
591.93542100000002
 31
0.0
  0
LINE
  5
4C4
  8
0
 62
     7
 10
-214.279167
 20
593.64864800000009
 30
0.0
 11
-214.69494599999999
 21
596.68969400000003
 31
0.0
  0
LINE
  5
4C5
  8
0
 62
     7
 10
-210.88403500000001
 20
604.53432899999984
 30
0.0
 11
-210.470629
 21
607.80004500000007
 31
0.0
  0
LINE
  5
4C6
  8
0
 62
     7
 10
-210.4706259999999
 20
607.80004500000007
 30
0.0
 11
-209.34035399999991
 21
616.72881700000005
 31
0.0
  0
LINE
  5
4C7
  8
0
 62
     7
 10
-211.93985599999999
 20
620.08181399999989
 30
0.0
 11
-212.33118200000001
 21
620.13131399999986
 31
0.0
  0
LINE
  5
4C8
  8
0
 62
     7
 10
-212.33116399999989
 20
620.13131399999986
 30
0.0
 11
-215.90817499999989
 21
620.58413299999995
 31
0.0
  0
LINE
  5
4C9
  8
0
 62
     7
 10
-202.46619200000001
 20
602.55325000000005
 30
0.0
 11
-189.90838600000001
 21
615.51891699999987
 31
0.0
  0
LINE
  5
4CA
  8
0
 62
     7
 10
-205.886988
 20
604.19585800000004
 30
0.0
 11
-204.93841
 21
611.68926699999986
 31
0.0
  0
LINE
  5
4CB
  8
0
 62
     7
 10
-200.4465099999999
 20
627.4777489999999
 30
0.0
 11
-200.43438
 21
627.57497799999987
 31
0.0
  0
LINE
  5
4CC
  8
0
 62
     7
 10
-194.63534899999991
 20
628.97903099999985
 30
0.0
 11
-198.18745799999999
 21
629.42867699999999
 31
0.0
  0
LINE
  5
4CD
  8
0
 62
     7
 10
-207.9716249999999
 20
607.4837
 30
0.0
 11
-210.4706259999999
 21
607.80004500000007
 31
0.0
  0
LINE
  5
4CE
  8
0
 62
     7
 10
-205.8100529999999
 20
608.87597300000004
 30
0.0
 11
-201.05304099999989
 21
624.22951899999998
 31
0.0
  0
LINE
  5
4CF
  8
0
 62
     7
 10
-205.68052900000001
 20
868.561734
 30
0.0
 11
-216.44178199999999
 21
870.67013199999997
 31
0.0
  0
LINE
  5
4D0
  8
0
 62
     7
 10
-204.18544999999989
 20
868.26876500000003
 30
0.0
 11
-205.68052900000001
 21
868.561734
 31
0.0
  0
LINE
  5
4D1
  8
0
 62
     7
 10
-204.18544999999989
 20
868.26876500000003
 30
0.0
 11
-205.68052900000001
 21
868.561734
 31
0.0
  0
LINE
  5
4D2
  8
0
 62
     7
 10
-187.00153700000001
 20
864.90200500000003
 30
0.0
 11
-204.185452
 21
868.26876500000003
 31
0.0
  0
LINE
  5
4D3
  8
0
 62
     7
 10
-178.25986099999989
 20
876.23263200000008
 30
0.0
 11
-193.91940700000001
 21
908.64834199999996
 31
0.0
  0
LINE
  5
4D4
  8
0
 62
     7
 10
-198.16839400000001
 20
911.92648000000008
 30
0.0
 11
-201.18043299999991
 21
912.51662899999985
 31
0.0
  0
LINE
  5
4D5
  8
0
 62
     7
 10
-204.71087299999999
 20
908.67666300000008
 30
0.0
 11
-203.36126299999989
 21
911.43331599999988
 31
0.0
  0
LINE
  5
4D6
  8
0
 62
     7
 10
-204.188772
 20
896.80184600000007
 30
0.0
 11
-203.55585300000001
 21
900.03219300000001
 31
0.0
  0
LINE
  5
4D7
  8
0
 62
     7
 10
-205.91921600000001
 20
887.96975399999997
 30
0.0
 11
-204.18877000000001
 21
896.80184600000007
 31
0.0
  0
LINE
  5
4D8
  8
0
 62
     7
 10
-209.44006099999999
 20
885.60256600000002
 30
0.0
 11
-209.82714599999991
 21
885.67837200000008
 31
0.0
  0
LINE
  5
4D9
  8
0
 62
     7
 10
-209.827136
 20
885.67843299999993
 30
0.0
 11
-213.36541399999999
 21
886.37166999999988
 31
0.0
  0
LINE
  5
4DA
  8
0
 62
     7
 10
-187.09010699999999
 20
883.01699499999995
 30
0.0
 11
-194.94168500000001
 21
899.26998600000002
 31
0.0
  0
LINE
  5
4DB
  8
0
 62
     7
 10
-200.157524
 20
891.37215800000001
 30
0.0
 11
-198.70525599999999
 21
898.78445099999999
 31
0.0
  0
LINE
  5
4DC
  8
0
 62
     7
 10
-200.869257
 20
874.87569800000006
 30
0.0
 11
-200.85022900000001
 21
874.97182899999996
 31
0.0
  0
LINE
  5
4DD
  8
0
 62
     7
 10
-195.80438000000001
 20
871.72182899999984
 30
0.0
 11
-199.318037
 21
872.41024399999992
 31
0.0
  0
LINE
  5
4DE
  8
0
 62
     7
 10
-201.71681799999999
 20
896.31753200000014
 30
0.0
 11
-204.188772
 21
896.80184600000007
 31
0.0
  0
LINE
  5
4DF
  8
0
 62
     7
 10
-200.40620200000001
 20
878.24624299999982
 30
0.0
 11
-200.10171299999999
 21
894.31698300000005
 31
0.0
  0
LINE
  5
4E0
  8
0
 62
     7
 10
-183.5991019999999
 20
875.10317599999996
 30
0.0
 11
-182.15181000000001
 21
875.93880899999988
 31
0.0
  0
LINE
  5
4E1
  8
0
 62
     7
 10
-185.98428000000001
 20
875.70718000000022
 30
0.0
 11
-186.10372899999999
 21
876.38454899999988
 31
0.0
  0
LINE
  5
4E2
  8
0
 62
     7
 10
-188.41690099999991
 20
873.27743199999998
 30
0.0
 11
-189.103725
 21
873.46145299999989
 31
0.0
  0
LINE
  5
4E3
  8
0
 62
     7
 10
-189.1037179999999
 20
872.04409399999986
 30
0.0
 11
-188.41682800000001
 21
872.228115
 31
0.0
  0
LINE
  5
4E4
  8
0
 62
     7
 10
-186.10373300000001
 20
869.12093800000014
 30
0.0
 11
-185.98421099999999
 21
869.79873299999997
 31
0.0
  0
LINE
  5
4E5
  8
0
 62
     7
 10
-182.15182899999999
 20
869.5666769999998
 30
0.0
 11
-183.59944899999999
 21
870.40249299999994
 31
0.0
  0
LINE
  5
4E6
  8
0
 62
     7
 10
-183.32281499999999
 20
627.07711399999994
 30
0.0
 11
-181.82948300000001
 21
627.93923600000005
 31
0.0
  0
LINE
  5
4E7
  8
0
 62
     7
 10
-185.66196099999999
 20
627.70766900000001
 30
0.0
 11
-185.7813909999999
 21
628.38503700000001
 31
0.0
  0
LINE
  5
4E8
  8
0
 62
     7
 10
-188.09482199999999
 20
625.27791999999988
 30
0.0
 11
-188.78138399999989
 21
625.46187999999995
 31
0.0
  0
LINE
  5
4E9
  8
0
 62
     7
 10
-188.78138399999989
 20
624.04452200000003
 30
0.0
 11
-188.09483700000001
 21
624.22848199999999
 31
0.0
  0
LINE
  5
4EA
  8
0
 62
     7
 10
-185.781387
 20
621.12142599999993
 30
0.0
 11
-185.66197199999991
 21
621.79873299999986
 31
0.0
  0
LINE
  5
4EB
  8
0
 62
     7
 10
-181.829498
 20
621.56716600000004
 30
0.0
 11
-183.32283000000001
 21
622.429348
 31
0.0
  0
LINE
  5
4EC
  8
0
 62
     7
 10
-229.75025099999999
 20
605.5200769999999
 30
0.0
 11
-230.90350299999989
 21
605.5200769999999
 31
0.0
  0
LINE
  5
4ED
  8
0
 62
     7
 10
-229.75025099999999
 20
605.5200769999999
 30
0.0
 11
-229.75025099999999
 21
606.2700769999999
 31
0.0
  0
LINE
  5
4EE
  8
0
 62
     7
 10
-226.9034959999999
 20
606.2700769999999
 30
0.0
 11
-229.75025099999999
 21
606.2700769999999
 31
0.0
  0
LINE
  5
4EF
  8
0
 62
     7
 10
-214.7502519999999
 20
606.2700769999999
 30
0.0
 11
-223.90349599999999
 21
606.2700769999999
 31
0.0
  0
LINE
  5
4F0
  8
0
 62
     7
 10
-214.7502519999999
 20
591.27007699999979
 30
0.0
 11
-214.7502519999999
 21
606.2700769999999
 31
0.0
  0
LINE
  5
4F1
  8
0
 62
     7
 10
-214.7502519999999
 20
591.27007699999979
 30
0.0
 11
-223.90349599999999
 21
591.27007699999979
 31
0.0
  0
LINE
  5
4F2
  8
0
 62
     7
 10
-226.9034959999999
 20
591.27007699999979
 30
0.0
 11
-228.90349499999999
 21
591.27007699999979
 31
0.0
  0
LINE
  5
4F3
  8
0
 62
     7
 10
-229.75025099999999
 20
592.55004499999995
 30
0.0
 11
-229.75025099999999
 21
595.77007699999979
 31
0.0
  0
LINE
  5
4F4
  8
0
 62
     7
 10
-229.75025099999999
 20
601.7700769999999
 30
0.0
 11
-229.75025099999999
 21
605.5200769999999
 31
0.0
  0
LINE
  5
4F5
  8
0
 62
     7
 10
-219.25025099999999
 20
602.7700769999999
 30
0.0
 11
-223.90349599999999
 21
602.7700769999999
 31
0.0
  0
LINE
  5
4F6
  8
0
 62
     7
 10
-226.9034959999999
 20
602.7700769999999
 30
0.0
 11
-229.68326499999989
 21
602.7700769999999
 31
0.0
  0
LINE
  5
4F7
  8
0
 62
     7
 10
-218.54314199999999
 20
602.47720000000004
 30
0.0
 11
-219.25024999999991
 21
602.7700769999999
 31
0.0
  0
LINE
  5
4F8
  8
0
 62
     7
 10
-218.25024999999999
 20
601.7700769999999
 30
0.0
 11
-218.54314299999999
 21
602.47720000000004
 31
0.0
  0
LINE
  5
4F9
  8
0
 62
     7
 10
-218.25025099999991
 20
595.77007699999979
 30
0.0
 11
-218.25025099999991
 21
601.7700769999999
 31
0.0
  0
LINE
  5
4FA
  8
0
 62
     7
 10
-218.543147
 20
595.06298499999991
 30
0.0
 11
-218.2502549999999
 21
595.77007699999979
 31
0.0
  0
LINE
  5
4FB
  8
0
 62
     7
 10
-219.25024799999991
 20
594.7700769999999
 30
0.0
 11
-218.54314099999999
 21
595.06298499999991
 31
0.0
  0
LINE
  5
4FC
  8
0
 62
     7
 10
-226.9034959999999
 20
594.7700769999999
 30
0.0
 11
-229.68326499999989
 21
594.7700769999999
 31
0.0
  0
LINE
  5
4FD
  8
0
 62
     7
 10
-219.25025099999999
 20
594.7700769999999
 30
0.0
 11
-223.90349599999999
 21
594.7700769999999
 31
0.0
  0
LINE
  5
4FE
  8
0
 62
     7
 10
-227.75025199999999
 20
591.27007699999979
 30
0.0
 11
-227.75025199999999
 21
594.7700769999999
 31
0.0
  0
LINE
  5
4FF
  8
0
 62
     7
 10
-227.75025199999999
 20
602.7700769999999
 30
0.0
 11
-227.75025199999999
 21
606.2700769999999
 31
0.0
  0
LINE
  5
500
  8
0
 62
     7
 10
-229.75025099999999
 20
593.7700769999999
 30
0.0
 11
-230.90350299999989
 21
593.7700769999999
 31
0.0
  0
LINE
  5
501
  8
0
 62
     7
 10
-219.25025099999999
 20
601.7700769999999
 30
0.0
 11
-223.90349599999999
 21
601.7700769999999
 31
0.0
  0
LINE
  5
502
  8
0
 62
     7
 10
-226.9034959999999
 20
601.7700769999999
 30
0.0
 11
-229.75025099999999
 21
601.7700769999999
 31
0.0
  0
LINE
  5
503
  8
0
 62
     7
 10
-229.75024999999991
 20
602.66653099999985
 30
0.0
 11
-229.68326400000001
 21
602.7700769999999
 31
0.0
  0
LINE
  5
504
  8
0
 62
     7
 10
-219.25025099999999
 20
595.77007699999979
 30
0.0
 11
-223.90349599999999
 21
595.77007699999979
 31
0.0
  0
LINE
  5
505
  8
0
 62
     7
 10
-226.9034959999999
 20
595.77007699999979
 30
0.0
 11
-229.75025099999999
 21
595.77007699999979
 31
0.0
  0
LINE
  5
506
  8
0
 62
     7
 10
-219.2502549999999
 20
601.7700769999999
 30
0.0
 11
-218.543148
 21
602.477169
 31
0.0
  0
LINE
  5
507
  8
0
 62
     7
 10
-219.25025099999999
 20
595.77007699999979
 30
0.0
 11
-219.25025099999999
 21
601.7700769999999
 31
0.0
  0
LINE
  5
508
  8
0
 62
     7
 10
-218.54313599999989
 20
595.06298499999991
 30
0.0
 11
-219.2502439999999
 21
595.77007699999979
 31
0.0
  0
LINE
  5
509
  8
0
 62
     7
 10
-216.8220189999999
 20
902.27084000000002
 30
0.0
 11
-216.8220189999999
 21
906.02084000000002
 31
0.0
  0
LINE
  5
50A
  8
0
 62
     7
 10
-216.8220189999999
 20
916.02084000000002
 30
0.0
 11
-216.8220189999999
 21
920.27084000000002
 31
0.0
  0
LINE
  5
50B
  8
0
 62
     7
 10
-205.32202000000001
 20
924.27083999999991
 30
0.0
 11
-209.36558199999999
 21
924.27083999999991
 31
0.0
  0
LINE
  5
50C
  8
0
 62
     7
 10
-205.32234800000001
 20
912.27084000000002
 30
0.0
 11
-205.32234800000001
 21
924.27083999999991
 31
0.0
  0
LINE
  5
50D
  8
0
 62
     7
 10
-216.8220189999999
 20
916.02084000000002
 30
0.0
 11
-223.90359799999999
 21
916.02084000000002
 31
0.0
  0
LINE
  5
50E
  8
0
 62
     7
 10
-216.8220189999999
 20
904.59426499999995
 30
0.0
 11
-223.90359799999999
 21
904.59426499999995
 31
0.0
  0
LINE
  5
50F
  8
0
  6
DASHSPACE
 62
     7
 10
-267.32202100000001
 20
904.59426499999995
 30
0.0
 11
-267.32202100000001
 21
916.02084000000002
 31
0.0
  0
LINE
  5
510
  8
0
 62
     7
 10
-209.36558199999999
 20
924.27083999999991
 30
0.0
 11
-216.82202699999991
 21
924.27083999999991
 31
0.0
  0
LINE
  5
511
  8
0
 62
     7
 10
-216.82202699999991
 20
920.27084000000002
 30
0.0
 11
-216.82202699999991
 21
924.27083999999991
 31
0.0
  0
LINE
  5
512
  8
0
 62
     7
 10
-212.32202599999991
 20
920.27084000000002
 30
0.0
 11
-216.82202699999991
 21
920.27084000000002
 31
0.0
  0
LINE
  5
513
  8
0
 62
     7
 10
-214.80123900000001
 20
912.27084000000002
 30
0.0
 11
-214.09291099999999
 21
912.56496800000002
 31
0.0
  0
LINE
  5
514
  8
0
 62
     7
 10
-214.80122900000001
 20
912.27084000000002
 30
0.0
 11
-216.82202699999991
 21
912.27084000000002
 31
0.0
  0
LINE
  5
515
  8
0
 62
     7
 10
-216.82202699999991
 20
908.27083999999991
 30
0.0
 11
-216.82202699999991
 21
912.27084000000002
 31
0.0
  0
LINE
  5
516
  8
0
 62
     7
 10
-211.82202599999991
 20
908.27083999999991
 30
0.0
 11
-216.82202699999991
 21
908.27083999999991
 31
0.0
  0
LINE
  5
517
  8
0
 62
     7
 10
-210.82202599999991
 20
903.27084000000002
 30
0.0
 11
-210.82202599999991
 21
907.27083999999991
 31
0.0
  0
LINE
  5
518
  8
0
 62
     7
 10
-211.82202599999991
 20
902.27084000000002
 30
0.0
 11
-216.82202699999991
 21
902.27084000000002
 31
0.0
  0
LINE
  5
519
  8
0
 62
     7
 10
-216.82202699999991
 20
898.27083999999991
 30
0.0
 11
-216.82202699999991
 21
902.27084000000002
 31
0.0
  0
LINE
  5
51A
  8
0
 62
     7
 10
-207.32202699999991
 20
898.27083999999991
 30
0.0
 11
-216.82202699999991
 21
898.27083999999991
 31
0.0
  0
LINE
  5
51B
  8
0
 62
     7
 10
-205.32202699999991
 20
900.27084000000013
 30
0.0
 11
-205.32202699999991
 21
912.27084000000002
 31
0.0
  0
LINE
  5
51C
  8
0
 62
     7
 10
-205.32202699999991
 20
912.27084000000002
 30
0.0
 11
-208.72864199999989
 21
912.27084000000002
 31
0.0
  0
LINE
  5
51D
  8
0
 62
     7
 10
-205.589979
 20
899.27083999999991
 30
0.0
 11
-205.32202699999991
 21
900.27084000000013
 31
0.0
  0
LINE
  5
51E
  8
0
 62
     7
 10
-206.322048
 20
898.538723
 30
0.0
 11
-205.59
 21
899.27077899999983
 31
0.0
  0
LINE
  5
51F
  8
0
 62
     7
 10
-207.32200800000001
 20
898.27090099999998
 30
0.0
 11
-206.32200800000001
 21
898.53884500000004
 31
0.0
  0
LINE
  5
520
  8
0
  6
DASHSPACE
 62
     7
 10
-275.750271
 20
593.27074800000003
 30
0.0
 11
-275.750271
 21
597.02074800000003
 31
0.0
  0
LINE
  5
521
  8
0
  6
DASHSPACE
 62
     7
 10
-275.750271
 20
607.02074800000003
 30
0.0
 11
-275.750271
 21
611.27074800000003
 31
0.0
  0
LINE
  5
522
  8
0
  6
DASHSPACE
 62
     7
 10
-264.25027499999987
 20
615.27074800000003
 30
0.0
 11
-268.293835
 21
615.27074800000003
 31
0.0
  0
LINE
  5
523
  8
0
  6
DASHSPACE
 62
     7
 10
-264.2503549999999
 20
603.27074800000003
 30
0.0
 11
-264.2503549999999
 21
615.27074800000003
 31
0.0
  0
LINE
  5
524
  8
0
  6
DASHSPACE
 62
     7
 10
-275.750271
 20
607.02074800000003
 30
0.0
 11
-326.25026699999989
 21
607.02074800000003
 31
0.0
  0
LINE
  5
525
  8
0
  6
DASHSPACE
 62
     7
 10
-275.750271
 20
595.59417399999995
 30
0.0
 11
-326.25026699999989
 21
595.59417399999995
 31
0.0
  0
LINE
  5
526
  8
0
  6
DASHSPACE
 62
     7
 10
-326.25027499999987
 20
595.59417399999995
 30
0.0
 11
-326.25027499999987
 21
607.02074800000003
 31
0.0
  0
LINE
  5
527
  8
0
  6
DASHSPACE
 62
     7
 10
-268.29383899999988
 20
615.27074800000003
 30
0.0
 11
-275.75027799999992
 21
615.27074800000003
 31
0.0
  0
LINE
  5
528
  8
0
  6
DASHSPACE
 62
     7
 10
-275.75027799999992
 20
611.27074800000003
 30
0.0
 11
-275.75027799999992
 21
615.27074800000003
 31
0.0
  0
LINE
  5
529
  8
0
  6
DASHSPACE
 62
     7
 10
-271.25027799999992
 20
611.27074800000003
 30
0.0
 11
-275.75027799999992
 21
611.27074800000003
 31
0.0
  0
LINE
  5
52A
  8
0
  6
DASHSPACE
 62
     7
 10
-273.72947699999992
 20
603.27074800000003
 30
0.0
 11
-273.02114899999998
 21
603.5648769999998
 31
0.0
  0
LINE
  5
52B
  8
0
  6
DASHSPACE
 62
     7
 10
-273.72948100000002
 20
603.27074800000003
 30
0.0
 11
-275.75027799999992
 21
603.27074800000003
 31
0.0
  0
LINE
  5
52C
  8
0
  6
DASHSPACE
 62
     7
 10
-275.75027799999992
 20
599.27074799999991
 30
0.0
 11
-275.75027799999992
 21
603.27074800000003
 31
0.0
  0
LINE
  5
52D
  8
0
  6
DASHSPACE
 62
     7
 10
-270.75027799999992
 20
599.27074799999991
 30
0.0
 11
-275.75027799999992
 21
599.27074799999991
 31
0.0
  0
LINE
  5
52E
  8
0
  6
DASHSPACE
 62
     7
 10
-270.04317099999992
 20
598.97787100000005
 30
0.0
 11
-270.75027799999992
 21
599.27074799999991
 31
0.0
  0
LINE
  5
52F
  8
0
  6
DASHSPACE
 62
     7
 10
-269.75027799999992
 20
598.27074800000003
 30
0.0
 11
-270.04317099999992
 21
598.97787100000005
 31
0.0
  0
LINE
  5
530
  8
0
  6
DASHSPACE
 62
     7
 10
-269.75027799999992
 20
594.27074800000003
 30
0.0
 11
-269.75027799999992
 21
598.27074800000003
 31
0.0
  0
LINE
  5
531
  8
0
  6
DASHSPACE
 62
     7
 10
-270.04317099999992
 20
593.56365599999981
 30
0.0
 11
-269.75027799999992
 21
594.27074800000003
 31
0.0
  0
LINE
  5
532
  8
0
  6
DASHSPACE
 62
     7
 10
-270.75027799999992
 20
593.27074800000003
 30
0.0
 11
-270.04317099999992
 21
593.56365599999981
 31
0.0
  0
LINE
  5
533
  8
0
  6
DASHSPACE
 62
     7
 10
-270.75027799999992
 20
593.27074800000003
 30
0.0
 11
-275.75027799999992
 21
593.27074800000003
 31
0.0
  0
LINE
  5
534
  8
0
  6
DASHSPACE
 62
     7
 10
-275.75027799999992
 20
589.27074800000003
 30
0.0
 11
-275.75027799999992
 21
593.27074800000003
 31
0.0
  0
LINE
  5
535
  8
0
  6
DASHSPACE
 62
     7
 10
-266.25027799999998
 20
589.27074800000003
 30
0.0
 11
-275.75027799999992
 21
589.27074800000003
 31
0.0
  0
LINE
  5
536
  8
0
  6
DASHSPACE
 62
     7
 10
-264.25027499999987
 20
591.27074800000003
 30
0.0
 11
-264.25027499999987
 21
603.27074800000003
 31
0.0
  0
LINE
  5
537
  8
0
  6
DASHSPACE
 62
     7
 10
-264.25027499999987
 20
603.27074800000003
 30
0.0
 11
-267.65689099999997
 21
603.27074800000003
 31
0.0
  0
LINE
  5
538
  8
0
  6
DASHSPACE
 62
     7
 10
-264.51822700000002
 20
590.27074800000003
 30
0.0
 11
-264.25027499999987
 21
591.27074800000003
 31
0.0
  0
LINE
  5
539
  8
0
  6
DASHSPACE
 62
     7
 10
-265.25027799999992
 20
589.53869299999985
 30
0.0
 11
-264.5182299999999
 21
590.27074800000003
 31
0.0
  0
LINE
  5
53A
  8
0
  6
DASHSPACE
 62
     7
 10
-266.25027799999998
 20
589.27074800000003
 30
0.0
 11
-265.25027499999999
 21
589.53869299999985
 31
0.0
  0
LINE
  5
53B
  8
0
  6
DASHSPACE
 62
     7
 10
-229.75025099999999
 20
591.27007699999979
 30
0.0
 11
-229.75025099999999
 21
592.0200769999999
 31
0.0
  0
LINE
  5
53C
  8
0
 62
     7
 10
-229.75025099999999
 20
592.0200769999999
 30
0.0
 11
-229.75025099999999
 21
592.55004499999995
 31
0.0
  0
LINE
  5
53D
  8
0
  6
DASHSPACE
 62
     7
 10
-229.75025099999999
 20
592.10574000000008
 30
0.0
 11
-264.25027499999987
 21
592.10574000000008
 31
0.0
  0
LINE
  5
53E
  8
0
  6
DASHSPACE
 62
     7
 10
-223.90359799999999
 20
916.02084000000002
 30
0.0
 11
-226.9035979999999
 21
916.02084000000002
 31
0.0
  0
LINE
  5
53F
  8
0
  6
DASHSPACE
 62
     7
 10
-223.90359799999999
 20
904.59426499999995
 30
0.0
 11
-226.9035979999999
 21
904.59426499999995
 31
0.0
  0
LINE
  5
540
  8
0
  6
DASHSPACE
 62
     7
 10
-223.90349599999999
 20
606.2700769999999
 30
0.0
 11
-226.9034959999999
 21
606.2700769999999
 31
0.0
  0
LINE
  5
541
  8
0
  6
DASHSPACE
 62
     7
 10
-223.90349599999999
 20
602.7700769999999
 30
0.0
 11
-226.9034959999999
 21
602.7700769999999
 31
0.0
  0
LINE
  5
542
  8
0
  6
DASHSPACE
 62
     7
 10
-223.90349599999999
 20
601.7700769999999
 30
0.0
 11
-226.9034959999999
 21
601.7700769999999
 31
0.0
  0
LINE
  5
543
  8
0
  6
DASHSPACE
 62
     7
 10
-223.90349599999999
 20
595.77007699999979
 30
0.0
 11
-226.9034959999999
 21
595.77007699999979
 31
0.0
  0
LINE
  5
544
  8
0
  6
DASHSPACE
 62
     7
 10
-223.90349599999999
 20
594.7700769999999
 30
0.0
 11
-226.9034959999999
 21
594.7700769999999
 31
0.0
  0
LINE
  5
545
  8
0
  6
DASHSPACE
 62
     7
 10
-223.90349599999999
 20
591.27007699999979
 30
0.0
 11
-226.9034959999999
 21
591.27007699999979
 31
0.0
  0
LINE
  5
546
  8
0
  6
DASHSPACE
 62
     7
 10
-228.903739
 20
591.27007699999979
 30
0.0
 11
-229.75025099999999
 21
591.27007699999979
 31
0.0
  0
LINE
  5
547
  8
0
  6
DASHSPACE
 62
     7
 10
-230.90350299999989
 20
605.5200769999999
 30
0.0
 11
-264.25025199999988
 21
605.5200769999999
 31
0.0
  0
LINE
  5
548
  8
0
  6
DASHSPACE
 62
     7
 10
-230.90350299999989
 20
593.7700769999999
 30
0.0
 11
-264.25027499999987
 21
593.7700769999999
 31
0.0
  0
ARC
  5
549
  8
0
 62
     7
 10
-214.9034879999999
 20
628.52077899999995
 30
0.0
 40
7.9999989999999999
 50
82.785336000000015
 51
262.7853439999999
  0
ARC
  5
54A
  8
0
 62
     7
 10
-214.903492
 20
628.52077899999995
 30
0.0
 40
5.649951999999999
 50
53.108792000000008
 51
306.89256199999988
  0
CIRCLE
  5
54B
  8
0
 62
     7
 10
-214.90349900000001
 20
628.52077899999995
 30
0.0
 40
2.4999689999999992
  0
CIRCLE
  5
54C
  8
0
 62
     7
 10
-214.903492
 20
628.52084000000002
 30
0.0
 40
3.000027999999999
  0
ARC
  5
54D
  8
0
 62
     7
 10
-215.83931699999999
 20
632.10049100000003
 30
0.0
 40
0.299996
 50
9.9999990000000007
 51
104.650868
  0
ARC
  5
54E
  8
0
 62
     7
 10
-218.46622500000001
 20
629.51925300000005
 30
0.0
 40
0.300004
 50
164.3440139999999
 51
255.00039100000001
  0
ARC
  5
54F
  8
0
 62
     7
 10
-218.46623700000001
 20
627.52236600000003
 30
0.0
 40
0.299989
 50
104.9996169999999
 51
195.654776
  0
ARC
  5
550
  8
0
 62
     7
 10
-215.8393209999999
 20
624.94112800000005
 30
0.0
 40
0.299995
 50
255.34881200000001
 51
350.00000299999988
  0
ARC
  5
551
  8
0
 62
     7
 10
-211.9920589999999
 20
632.39968499999998
 30
0.0
 40
0.8000669999999999
 50
299.99988999999988
 51
53.108792000000008
  0
ARC
  5
552
  8
0
 62
     7
 10
-211.992062
 20
624.64193399999999
 30
0.0
 40
0.8000709999999999
 50
306.89161799999988
 51
60.000099000000013
  0
ARC
  5
553
  8
0
 62
     7
 10
-214.903471
 20
628.52077899999995
 30
0.0
 40
4.0000400000000003
 50
195.654776
 51
255.34881200000001
  0
ARC
  5
554
  8
0
 62
     7
 10
-214.903471
 20
628.52077899999995
 30
0.0
 40
4.0000400000000003
 50
104.650868
 51
164.3440139999999
  0
ARC
  5
555
  8
0
 62
     7
 10
-212.31657699999991
 20
617.1055869999999
 30
0.0
 40
2.9999669999999989
 50
352.78497199999998
 51
82.786045999999985
  0
ARC
  5
556
  8
0
 62
     7
 10
-185.14096499999991
 20
624.75320099999999
 30
0.0
 40
5.6500479999999991
 50
53.108766000000003
 51
306.89202699999998
  0
CIRCLE
  5
557
  8
0
 62
     7
 10
-185.141018
 20
624.75320099999999
 30
0.0
 40
2.4999980000000002
  0
CIRCLE
  5
558
  8
0
 62
     7
 10
-185.141029
 20
624.75320099999999
 30
0.0
 40
3.000043999999999
  0
ARC
  5
559
  8
0
 62
     7
 10
-182.22955300000001
 20
628.63210700000002
 30
0.0
 40
0.8000529999999999
 50
299.99976800000002
 51
53.108766000000003
  0
ARC
  5
55A
  8
0
 62
     7
 10
-182.22948099999991
 20
620.87435599999992
 30
0.0
 40
0.7999830000000001
 50
306.89202699999998
 51
59.999799000000003
  0
ARC
  5
55B
  8
0
 62
     7
 10
-186.07685099999989
 20
621.17354999999986
 30
0.0
 40
0.300012
 50
255.34758199999999
 51
0.000001
  0
ARC
  5
55C
  8
0
 62
     7
 10
-188.703754
 20
623.75478799999996
 30
0.0
 40
0.29999
 50
104.9996169999999
 51
195.65344999999999
  0
ARC
  5
55D
  8
0
 62
     7
 10
-188.703743
 20
625.75167499999986
 30
0.0
 40
0.300002
 50
164.343118
 51
255.00039100000001
  0
ARC
  5
55E
  8
0
 62
     7
 10
-186.07684699999999
 20
628.33291299999985
 30
0.0
 40
0.300008
 50
9.9993979999999993
 51
104.651618
  0
ARC
  5
55F
  8
0
 62
     7
 10
-185.14093799999989
 20
624.75314000000003
 30
0.0
 40
4.000119999999999
 50
104.651618
 51
164.343118
  0
ARC
  5
560
  8
0
 62
     7
 10
-185.14093799999989
 20
624.75314000000003
 30
0.0
 40
4.000119999999999
 50
195.65344999999999
 51
255.34758199999999
  0
ARC
  5
561
  8
0
 62
     7
 10
-203.270927
 20
633.09615699999995
 30
0.0
 40
1.99997
 50
21.471028
 51
82.785444999999996
  0
ARC
  5
562
  8
0
 62
     7
 10
-198.43866299999991
 20
627.44460700000002
 30
0.0
 40
1.9999299999999991
 50
82.785554000000005
 51
176.260276
  0
ARC
  5
563
  8
0
 62
     7
 10
-194.88648399999991
 20
626.99490000000003
 30
0.0
 40
1.999941999999999
 50
347.04512599999993
 51
82.785554000000005
  0
ARC
  5
564
  8
0
 62
     7
 10
-185.14123499999999
 20
624.75314000000003
 30
0.0
 40
7.9997789999999993
 50
167.0451149999999
 51
231.65588099999999
  0
ARC
  5
565
  8
0
 62
     7
 10
-191.34492099999991
 20
616.91033600000003
 30
0.0
 40
1.9999180000000001
 50
315.91548699999998
 51
51.655875999999999
  0
ARC
  5
566
  8
0
 62
     7
 10
-214.90345899999991
 20
628.52077899999995
 30
0.0
 40
14.499959
 50
342.78538199999991
 51
21.471028
  0
ARC
  5
567
  8
0
 62
     7
 10
-207.72047399999991
 20
609.46789199999989
 30
0.0
 40
2.000016
 50
262.785372
 51
342.78538199999991
  0
ARC
  5
568
  8
0
 62
     7
 10
-203.902805
 20
603.94469900000001
 30
0.0
 40
2.000017999999999
 50
172.7853969999999
 51
315.91550099999989
  0
ARC
  5
569
  8
0
 62
     7
 10
-208.75021599999999
 20
597.50243799999987
 30
0.0
 40
6.0000359999999988
 50
262.785304
 51
315.91550099999989
  0
ARC
  5
56A
  8
0
 62
     7
 10
-213.8602709999999
 20
604.91103799999996
 30
0.0
 40
2.9999750000000001
 50
304.5958
 51
352.78535399999993
  0
ARC
  5
56B
  8
0
 62
     7
 10
-212.29759899999999
 20
593.91958299999999
 30
0.0
 40
2.0000070000000001
 50
187.78540100000001
 51
262.785304
  0
ARC
  5
56C
  8
0
 62
     7
 10
-208.75021599999999
 20
597.50243799999987
 30
0.0
 40
6.0000359999999988
 50
124.595805
 51
187.78540100000001
  0
ARC
  5
56D
  8
0
 62
     7
 10
-185.14115100000001
 20
624.75326200000006
 30
0.0
 40
8.0001289999999994
 50
315.91548699999998
 51
82.785391000000004
  0
ARC
  5
56E
  8
0
 62
     7
 10
-211.9921029999999
 20
882.39974600000005
 30
0.0
 40
0.800022
 50
300.00045
 51
71.57817
  0
CIRCLE
  5
56F
  8
0
 62
     7
 10
-214.90381099999991
 20
878.52059599999995
 30
0.0
 40
3.000351999999999
  0
CIRCLE
  5
570
  8
0
 62
     7
 10
-214.90366299999991
 20
878.52077899999995
 30
0.0
 40
2.5001189999999989
  0
ARC
  5
571
  8
0
 62
     7
 10
-215.83940699999991
 20
882.10061299999995
 30
0.0
 40
0.299983
 50
10.000189999999989
 51
104.649841
  0
ARC
  5
572
  8
0
 62
     7
 10
-218.46631199999999
 20
879.51937499999985
 30
0.0
 40
0.30003
 50
164.34397799999999
 51
255.00272599999991
  0
ARC
  5
573
  8
0
 62
     7
 10
-214.90356600000001
 20
878.52090099999998
 30
0.0
 40
5.6500329999999996
 50
55.158639999999998
 51
306.8921519999999
  0
ARC
  5
574
  8
0
 62
     7
 10
-218.466374
 20
877.52248800000007
 30
0.0
 40
0.299961
 50
104.9996169999999
 51
195.65476200000001
  0
ARC
  5
575
  8
0
 62
     7
 10
-215.8394439999999
 20
874.94118900000012
 30
0.0
 40
0.300022
 50
255.34952199999989
 51
350.00022100000001
  0
ARC
  5
576
  8
0
 62
     7
 10
-211.99207000000001
 20
874.64199499999995
 30
0.0
 40
0.799991
 50
306.89209599999992
 51
59.999662000000008
  0
ARC
  5
577
  8
0
 62
     7
 10
-214.9034879999999
 20
878.52077899999995
 30
0.0
 40
8.0001410000000011
 50
78.915459999999996
 51
258.91367899999989
  0
ARC
  5
578
  8
0
 62
     7
 10
-205.296007
 20
870.52444100000002
 30
0.0
 40
2.000062999999999
 50
258.91458
 51
320.22999599999991
  0
ARC
  5
579
  8
0
 62
     7
 10
-214.904168
 20
878.52114500000005
 30
0.0
 40
14.500622
 50
320.22999599999991
 51
358.91454700000003
  0
ARC
  5
57A
  8
0
 62
     7
 10
-208.86322599999991
 20
888.54659700000002
 30
0.0
 40
2.9999869999999991
 50
258.91445699999991
 51
348.91556000000003
  0
ARC
  5
57B
  8
0
 62
     7
 10
-198.93347700000001
 20
874.37289099999987
 30
0.0
 40
2.0000230000000001
 50
165.43950799999999
 51
258.91470399999997
  0
ARC
  5
57C
  8
0
 62
     7
 10
-195.41979799999999
 20
873.68435299999987
 30
0.0
 40
1.9998919999999989
 50
258.91470399999997
 51
354.65433899999999
  0
ARC
  5
57D
  8
0
 62
     7
 10
-185.46345500000001
 20
872.75277400000004
 30
0.0
 40
7.9998990000000001
 50
110.045405
 51
174.65434799999991
  0
ARC
  5
57E
  8
0
 62
     7
 10
-188.89111699999989
 20
882.14699999999993
 30
0.0
 40
2.0001319999999989
 50
290.04539399999987
 51
25.784485
  0
ARC
  5
57F
  8
0
 62
     7
 10
-185.46345500000001
 20
872.75277400000004
 30
0.0
 40
7.9998990000000001
 50
258.91463499999998
 51
25.784485
  0
ARC
  5
580
  8
0
 62
     7
 10
-185.46324199999989
 20
872.75259100000005
 30
0.0
 40
4.0001689999999996
 50
104.65149099999999
 51
164.341499
  0
CIRCLE
  5
581
  8
0
 62
     7
 10
-185.46329899999989
 20
872.75295699999992
 30
0.0
 40
2.9997979999999989
  0
CIRCLE
  5
582
  8
0
 62
     7
 10
-185.463345
 20
872.752835
 30
0.0
 40
2.4999129999999998
  0
ARC
  5
583
  8
0
 62
     7
 10
-182.5518229999999
 20
876.63161899999989
 30
0.0
 40
0.799998
 50
300.00045
 51
53.108356000000008
  0
ARC
  5
584
  8
0
 62
     7
 10
-186.39916199999999
 20
876.33242400000006
 30
0.0
 40
0.299984
 50
10.00076399999999
 51
104.65149099999999
  0
ARC
  5
585
  8
0
 62
     7
 10
-189.026016
 20
873.75124800000015
 30
0.0
 40
0.300063
 50
164.341499
 51
255.00039100000001
  0
ARC
  5
586
  8
0
 62
     7
 10
-189.02608499999999
 20
871.75429899999995
 30
0.0
 40
0.299994
 50
104.9996169999999
 51
195.65254200000001
  0
ARC
  5
587
  8
0
 62
     7
 10
-186.3991969999999
 20
869.17306199999985
 30
0.0
 40
0.300023
 50
255.3467629999999
 51
349.99964699999998
  0
ARC
  5
588
  8
0
 62
     7
 10
-182.551815
 20
868.87386700000013
 30
0.0
 40
0.799991
 50
306.890964
 51
60.000043999999988
  0
ARC
  5
589
  8
0
 62
     7
 10
-185.463348
 20
872.75295699999992
 30
0.0
 40
5.6501779999999986
 50
53.106306999999987
 51
306.89111500000001
  0
ARC
  5
58A
  8
0
 62
     7
 10
-185.46324199999989
 20
872.75259100000005
 30
0.0
 40
4.0001689999999996
 50
195.65254200000001
 51
255.3467629999999
  0
ARC
  5
58B
  8
0
 62
     7
 10
-206.49984599999991
 20
900.60903599999995
 30
0.0
 40
2.9999689999999992
 50
348.914604
 51
37.104154999999992
  0
ARC
  5
58C
  8
0
 62
     7
 10
-199.3219619999999
 20
906.03841799999987
 30
0.0
 40
6.0000619999999998
 50
25.784485
 51
78.915023000000005
  0
ARC
  5
58D
  8
0
 62
     7
 10
-201.56506899999999
 20
910.55404299999987
 30
0.0
 40
1.9998779999999989
 50
78.915023000000005
 51
153.91443100000001
  0
ARC
  5
58E
  8
0
 62
     7
 10
-196.74253100000001
 20
898.39992899999993
 30
0.0
 40
2.0000429999999998
 50
25.784485
 51
168.91462000000001
  0
ARC
  5
58F
  8
0
 62
     7
 10
-202.10148199999989
 20
894.35470199999997
 30
0.0
 40
2.0001439999999988
 50
358.91454700000003
 51
78.91483199999999
  0
ARC
  5
590
  8
0
 62
     7
 10
-199.3219619999999
 20
906.03841799999987
 30
0.0
 40
6.0000619999999998
 50
153.91443100000001
 51
217.10415
  0
ARC
  5
591
  8
0
  6
DASHSPACE
 62
     7
 10
-279.75036599999999
 20
610.27074800000003
 30
0.0
 40
12.500086
 50
333.61238500000002
 51
23.578060000000001
  0
ARC
  5
592
  8
0
  6
DASHSPACE
 62
     7
 10
-267.65689500000002
 20
604.27074800000003
 30
0.0
 40
0.9999969999999999
 50
153.61238700000001
 51
270.00000499999987
  0
ARC
  5
593
  8
0
  6
DASHSPACE
 62
     7
 10
-279.750317
 20
610.27077899999995
 30
0.0
 40
9.5000400000000003
 50
315.09937500000001
 51
0.000001
  0
ARC
  5
594
  8
0
  6
DASHSPACE
 62
     7
 10
-271.25027499999999
 20
610.27074800000003
 30
0.0
 40
0.9999959999999997
 50
359.99980899999991
 51
90.000212000000005
  0
ARC
  5
595
  8
0
 62
     7
 10
-220.82213300000001
 20
919.27084000000002
 30
0.0
 40
12.500107
 50
333.61238500000002
 51
23.577950000000001
  0
ARC
  5
596
  8
0
 62
     7
 10
-220.8222549999999
 20
919.27090099999987
 30
0.0
 40
9.5002329999999997
 50
315.10036099999991
 51
0.000001
  0
ARC
  5
597
  8
0
 62
     7
 10
-212.322056
 20
919.27084000000002
 30
0.0
 40
1.000035
 50
359.998471
 51
89.998397999999995
  0
ARC
  5
598
  8
0
 62
     7
 10
-208.72864300000001
 20
913.27084000000002
 30
0.0
 40
0.9999979999999998
 50
153.612393
 51
270.00000499999987
  0
ARC
  5
599
  8
0
 62
     7
 10
-211.821956
 20
903.27077899999995
 30
0.0
 40
0.9999159999999999
 50
269.99635799999987
 51
0.001203
  0
ARC
  5
59A
  8
0
 62
     7
 10
-211.82189
 20
907.27102300000001
 30
0.0
 40
0.9998559999999999
 50
0.000001
 51
90.0
  0
ARC
  5
59B
  8
0
 62
     7
 10
-214.90363500000001
 20
878.52090099999998
 30
0.0
 40
3.9999729999999998
 50
104.649841
 51
164.34397799999999
  0
ARC
  5
59C
  8
0
 62
     7
 10
-214.90363500000001
 20
878.52090099999998
 30
0.0
 40
3.9999729999999998
 50
195.65476200000001
 51
255.34952199999989
  0
LINE
  5
59D
  8
0
  6
DASHDOT
 62
     7
 10
-214.9034879999999
 20
867.52065700000003
 30
0.0
 11
-214.9034879999999
 21
889.52096199999994
 31
0.0
  0
LINE
  5
59E
  8
0
  6
DASHDOT
 62
     7
 10
-203.903347
 20
878.52077899999995
 30
0.0
 11
-225.903629
 21
878.52077899999995
 31
0.0
  0
LINE
  5
59F
  8
0
  6
DASHDOT
 62
     7
 10
-185.46345500000001
 20
861.752835
 30
0.0
 11
-185.46345500000001
 21
883.75265200000001
 31
0.0
  0
LINE
  5
5A0
  8
0
  6
DASHDOT
 62
     7
 10
-174.46355800000001
 20
872.75277400000004
 30
0.0
 11
-196.463356
 21
872.75277400000004
 31
0.0
  0
LINE
  5
5A1
  8
0
  6
DASHDOT
 62
     7
 10
-185.14115100000001
 20
613.75310899999999
 30
0.0
 11
-185.14115100000001
 21
635.75338399999998
 31
0.0
  0
LINE
  5
5A2
  8
0
  6
DASHDOT
 62
     7
 10
-174.14102199999991
 20
624.75326200000006
 30
0.0
 11
-196.14128099999991
 21
624.75326200000006
 31
0.0
  0
LINE
  5
5A3
  8
0
 62
     7
 10
-218.40348800000001
 20
838.52077899999995
 30
0.0
 11
-218.40348800000001
 21
842.52077899999995
 31
0.0
  0
LINE
  5
5A4
  8
0
 62
     7
 10
-218.9034879999999
 20
982.02077899999995
 30
0.0
 11
-223.9034879999999
 21
982.02077899999995
 31
0.0
  0
LINE
  5
5A5
  8
0
 62
     7
 10
-218.9034879999999
 20
977.02077899999983
 30
0.0
 11
-223.9034879999999
 21
977.02077899999983
 31
0.0
  0
LINE
  5
5A6
  8
0
 62
     7
 10
-218.9034879999999
 20
838.02077899999995
 30
0.0
 11
-218.9034879999999
 21
843.02077899999983
 31
0.0
  0
LINE
  5
5A7
  8
0
 62
     7
 10
-218.40348800000001
 20
981.52077899999995
 30
0.0
 11
-223.9034879999999
 21
981.52077899999995
 31
0.0
  0
LINE
  5
5A8
  8
0
 62
     7
 10
-218.40348800000001
 20
977.52077899999995
 30
0.0
 11
-223.9034879999999
 21
977.52077899999995
 31
0.0
  0
LINE
  5
5A9
  8
0
 62
     7
 10
-218.9034879999999
 20
843.02077899999983
 30
0.0
 11
-223.9034879999999
 21
843.02077899999983
 31
0.0
  0
LINE
  5
5AA
  8
0
 62
     7
 10
-218.9034879999999
 20
838.02077899999995
 30
0.0
 11
-223.9034879999999
 21
838.02077899999995
 31
0.0
  0
LINE
  5
5AB
  8
0
 62
     7
 10
-218.40348800000001
 20
842.52077899999995
 30
0.0
 11
-223.9034879999999
 21
842.52077899999995
 31
0.0
  0
LINE
  5
5AC
  8
0
 62
     7
 10
-218.40348800000001
 20
838.52077899999995
 30
0.0
 11
-223.9034879999999
 21
838.52077899999995
 31
0.0
  0
LINE
  5
5AD
  8
0
 62
     7
 10
-218.40348800000001
 20
977.52077899999995
 30
0.0
 11
-218.40348800000001
 21
981.52077899999995
 31
0.0
  0
LINE
  5
5AE
  8
0
 62
     7
 10
-218.9034879999999
 20
977.02077899999983
 30
0.0
 11
-218.9034879999999
 21
982.02077899999995
 31
0.0
  0
LINE
  5
5AF
  8
0
 62
     7
 10
-218.40348800000001
 20
842.52077899999995
 30
0.0
 11
-218.9034879999999
 21
843.02077899999983
 31
0.0
  0
LINE
  5
5B0
  8
0
 62
     7
 10
-218.9034879999999
 20
838.02077899999995
 30
0.0
 11
-218.40348800000001
 21
838.52077899999995
 31
0.0
  0
LINE
  5
5B1
  8
0
 62
     7
 10
-218.40348800000001
 20
981.52077899999995
 30
0.0
 11
-218.9034879999999
 21
982.02077899999995
 31
0.0
  0
LINE
  5
5B2
  8
0
 62
     7
 10
-218.9034879999999
 20
977.02077899999983
 30
0.0
 11
-218.40348800000001
 21
977.52077899999995
 31
0.0
  0
LINE
  5
5B3
  8
0
 62
     7
 10
-218.40348800000001
 20
548.52080999999998
 30
0.0
 11
-218.40348800000001
 21
551.52080999999987
 31
0.0
  0
LINE
  5
5B4
  8
0
 62
     7
 10
-223.4034879999999
 20
546.17080299999986
 30
0.0
 11
-223.4034879999999
 21
553.87081599999988
 31
0.0
  0
LINE
  5
5B5
  8
0
 62
     7
 10
-220.20348799999991
 20
546.17080299999986
 30
0.0
 11
-220.20348799999991
 21
553.87081599999988
 31
0.0
  0
LINE
  5
5B6
  8
0
 62
     7
 10
-220.20348799999991
 20
553.87081599999988
 30
0.0
 11
-223.9034879999999
 21
553.87081599999988
 31
0.0
  0
LINE
  5
5B7
  8
0
 62
     7
 10
-220.20348799999991
 20
546.17080299999986
 30
0.0
 11
-223.9034879999999
 21
546.17080299999986
 31
0.0
  0
LINE
  5
5B8
  8
0
 62
     7
 10
-218.9034879999999
 20
552.02080999999987
 30
0.0
 11
-220.20348799999991
 21
552.02080999999987
 31
0.0
  0
LINE
  5
5B9
  8
0
 62
     7
 10
-218.9034879999999
 20
548.02080999999987
 30
0.0
 11
-220.20348799999991
 21
548.02080999999987
 31
0.0
  0
LINE
  5
5BA
  8
0
 62
     7
 10
-218.9034879999999
 20
548.02080999999987
 30
0.0
 11
-218.9034879999999
 21
552.02080999999987
 31
0.0
  0
LINE
  5
5BB
  8
0
 62
     7
 10
-218.9034879999999
 20
548.02080999999987
 30
0.0
 11
-218.40348800000001
 21
548.52080999999998
 31
0.0
  0
LINE
  5
5BC
  8
0
 62
     7
 10
-218.40348800000001
 20
551.52080999999987
 30
0.0
 11
-218.9034879999999
 21
552.02080999999987
 31
0.0
  0
LINE
  5
5BD
  8
0
 62
     7
 10
-218.9034879999999
 20
551.62081599999988
 30
0.0
 11
-223.4034879999999
 21
551.62081599999988
 31
0.0
  0
LINE
  5
5BE
  8
0
 62
     7
 10
-218.9034879999999
 20
548.42080299999986
 30
0.0
 11
-223.4034879999999
 21
548.42080299999986
 31
0.0
  0
LINE
  5
5BF
  8
0
 62
     7
 10
-218.40348800000001
 20
648.52077899999995
 30
0.0
 11
-218.40348800000001
 21
651.52077899999995
 31
0.0
  0
LINE
  5
5C0
  8
0
 62
     7
 10
-223.4034879999999
 20
646.17080299999986
 30
0.0
 11
-223.4034879999999
 21
653.87081599999988
 31
0.0
  0
LINE
  5
5C1
  8
0
 62
     7
 10
-220.20348799999991
 20
646.17080299999986
 30
0.0
 11
-220.20348799999991
 21
653.87081599999988
 31
0.0
  0
LINE
  5
5C2
  8
0
 62
     7
 10
-220.20348799999991
 20
653.87081599999988
 30
0.0
 11
-223.9034879999999
 21
653.87081599999988
 31
0.0
  0
LINE
  5
5C3
  8
0
 62
     7
 10
-220.20348799999991
 20
646.17080299999986
 30
0.0
 11
-223.9034879999999
 21
646.17080299999986
 31
0.0
  0
LINE
  5
5C4
  8
0
 62
     7
 10
-218.9034879999999
 20
652.02077899999995
 30
0.0
 11
-220.20348799999991
 21
652.02077899999995
 31
0.0
  0
LINE
  5
5C5
  8
0
 62
     7
 10
-218.9034879999999
 20
648.02077899999995
 30
0.0
 11
-220.20348799999991
 21
648.02077899999995
 31
0.0
  0
LINE
  5
5C6
  8
0
 62
     7
 10
-218.9034879999999
 20
648.02077899999995
 30
0.0
 11
-218.9034879999999
 21
652.02077899999995
 31
0.0
  0
LINE
  5
5C7
  8
0
 62
     7
 10
-218.9034879999999
 20
648.02077899999995
 30
0.0
 11
-218.40348800000001
 21
648.52077899999995
 31
0.0
  0
LINE
  5
5C8
  8
0
 62
     7
 10
-218.40348800000001
 20
651.52077899999995
 30
0.0
 11
-218.9034879999999
 21
652.02077899999995
 31
0.0
  0
LINE
  5
5C9
  8
0
 62
     7
 10
-218.9034879999999
 20
651.62081599999988
 30
0.0
 11
-223.4034879999999
 21
651.62081599999988
 31
0.0
  0
LINE
  5
5CA
  8
0
 62
     7
 10
-218.9034879999999
 20
648.42080299999986
 30
0.0
 11
-223.4034879999999
 21
648.42080299999986
 31
0.0
  0
LINE
  5
5CB
  8
0
 62
     7
 10
-226.9035979999999
 20
916.02084000000002
 30
0.0
 11
-228.40361399999989
 21
916.02084000000002
 31
0.0
  0
LINE
  5
5CC
  8
0
 62
     7
 10
-226.9035979999999
 20
904.59426499999995
 30
0.0
 11
-228.40361399999989
 21
904.59426499999995
 31
0.0
  0
LINE
  5
5CD
  8
0
  6
DASHSPACE
 62
     7
 10
-228.40361399999989
 20
904.59426499999995
 30
0.0
 11
-267.32201800000001
 21
904.59426499999995
 31
0.0
  0
LINE
  5
5CE
  8
0
  6
DASHSPACE
 62
     7
 10
-228.40361399999989
 20
916.02084000000002
 30
0.0
 11
-267.32201800000001
 21
916.02084000000002
 31
0.0
  0
LINE
  5
5CF
  8
0
 62
     7
 10
-196.463459
 20
634.25033199999996
 30
0.0
 11
-196.463459
 21
866.75582499999985
 31
0.0
  0
LINE
  5
5D0
  8
0
 62
     7
 10
-180.96345899999989
 20
606.25274300000001
 30
0.0
 11
-189.96345899999989
 21
606.25274300000001
 31
0.0
  0
LINE
  5
5D1
  8
0
 62
     7
 10
-174.46345899999989
 20
612.75274300000001
 30
0.0
 11
-174.46345899999989
 21
880.75277400000004
 31
0.0
  0
LINE
  5
5D2
  8
0
 62
     7
 10
-180.96345899999989
 20
887.25277400000004
 30
0.0
 11
-183.58351099999999
 21
887.25277400000004
 31
0.0
  0
LINE
  5
5D3
  8
0
 62
     7
 10
-187.463459
 20
787.75277400000004
 30
0.0
 11
-187.463459
 21
857.75277400000004
 31
0.0
  0
LINE
  5
5D4
  8
0
 62
     7
 10
-187.463459
 20
857.75277400000004
 30
0.0
 11
-192.463459
 21
857.75277400000004
 31
0.0
  0
LINE
  5
5D5
  8
0
 62
     7
 10
-192.463459
 20
787.75277400000004
 30
0.0
 11
-192.463459
 21
857.75277400000004
 31
0.0
  0
LINE
  5
5D6
  8
0
 62
     7
 10
-187.463459
 20
787.75277400000004
 30
0.0
 11
-192.463459
 21
787.75277400000004
 31
0.0
  0
LINE
  5
5D7
  8
0
 62
     7
 10
-178.463459
 20
787.75277400000004
 30
0.0
 11
-178.463459
 21
857.75277400000004
 31
0.0
  0
LINE
  5
5D8
  8
0
 62
     7
 10
-178.463459
 20
857.75277400000004
 30
0.0
 11
-183.463459
 21
857.75277400000004
 31
0.0
  0
LINE
  5
5D9
  8
0
 62
     7
 10
-183.463459
 20
787.75277400000004
 30
0.0
 11
-183.463459
 21
857.75277400000004
 31
0.0
  0
LINE
  5
5DA
  8
0
 62
     7
 10
-178.463459
 20
787.75277400000004
 30
0.0
 11
-183.463459
 21
787.75277400000004
 31
0.0
  0
LINE
  5
5DB
  8
0
 62
     7
 10
-187.463459
 20
713.75277400000004
 30
0.0
 11
-187.463459
 21
783.75277400000004
 31
0.0
  0
LINE
  5
5DC
  8
0
 62
     7
 10
-187.463459
 20
783.75277400000004
 30
0.0
 11
-192.463459
 21
783.75277400000004
 31
0.0
  0
LINE
  5
5DD
  8
0
 62
     7
 10
-192.463459
 20
713.75277400000004
 30
0.0
 11
-192.463459
 21
783.75277400000004
 31
0.0
  0
LINE
  5
5DE
  8
0
 62
     7
 10
-187.463459
 20
713.75277400000004
 30
0.0
 11
-192.463459
 21
713.75277400000004
 31
0.0
  0
LINE
  5
5DF
  8
0
 62
     7
 10
-178.463459
 20
713.75277400000004
 30
0.0
 11
-178.463459
 21
783.75277400000004
 31
0.0
  0
LINE
  5
5E0
  8
0
 62
     7
 10
-178.463459
 20
783.75277400000004
 30
0.0
 11
-183.463459
 21
783.75277400000004
 31
0.0
  0
LINE
  5
5E1
  8
0
 62
     7
 10
-183.463459
 20
713.75277400000004
 30
0.0
 11
-183.463459
 21
783.75277400000004
 31
0.0
  0
LINE
  5
5E2
  8
0
 62
     7
 10
-178.463459
 20
713.75277400000004
 30
0.0
 11
-183.463459
 21
713.75277400000004
 31
0.0
  0
LINE
  5
5E3
  8
0
 62
     7
 10
-178.463459
 20
639.75277400000004
 30
0.0
 11
-183.463459
 21
639.75277400000004
 31
0.0
  0
LINE
  5
5E4
  8
0
 62
     7
 10
-178.463459
 20
639.75277400000004
 30
0.0
 11
-178.463459
 21
709.75277400000004
 31
0.0
  0
LINE
  5
5E5
  8
0
 62
     7
 10
-178.463459
 20
709.75277400000004
 30
0.0
 11
-183.463459
 21
709.75277400000004
 31
0.0
  0
LINE
  5
5E6
  8
0
 62
     7
 10
-183.463459
 20
639.75277400000004
 30
0.0
 11
-183.463459
 21
709.75277400000004
 31
0.0
  0
LINE
  5
5E7
  8
0
 62
     7
 10
-187.463459
 20
638.75277400000004
 30
0.0
 11
-187.463459
 21
709.75277400000004
 31
0.0
  0
LINE
  5
5E8
  8
0
 62
     7
 10
-187.463459
 20
709.75277400000004
 30
0.0
 11
-192.463459
 21
709.75277400000004
 31
0.0
  0
LINE
  5
5E9
  8
0
 62
     7
 10
-192.463459
 20
638.75277400000004
 30
0.0
 11
-192.463459
 21
709.75277400000004
 31
0.0
  0
LINE
  5
5EA
  8
0
 62
     7
 10
-187.463459
 20
638.75277400000004
 30
0.0
 11
-192.463459
 21
638.75277400000004
 31
0.0
  0
LINE
  5
5EB
  8
0
 62
     7
 10
-176.463459
 20
625.25277400000004
 30
0.0
 11
-177.156631
 21
625.25277400000004
 31
0.0
  0
LINE
  5
5EC
  8
0
 62
     7
 10
-176.463459
 20
620.25277400000004
 30
0.0
 11
-178.526951
 21
620.25277400000004
 31
0.0
  0
LINE
  5
5ED
  8
0
 62
     7
 10
-176.463459
 20
875.25277400000004
 30
0.0
 11
-177.8642199999999
 21
875.25277400000004
 31
0.0
  0
LINE
  5
5EE
  8
0
 62
     7
 10
-176.463459
 20
870.25277400000004
 30
0.0
 11
-177.8642199999999
 21
870.25277400000004
 31
0.0
  0
ARC
  5
5EF
  8
0
 62
     7
 10
-189.96345899999989
 20
631.75277400000004
 30
0.0
 40
3.0000019999999989
 50
26.415894000000002
 51
139.15487699999991
  0
ARC
  5
5F0
  8
0
 62
     7
 10
-180.96347399999991
 20
632.75271299999986
 30
0.0
 40
2.9999889999999989
 50
303.19263599999988
 51
180.00000299999991
  0
CIRCLE
  5
5F1
  8
0
 62
     7
 10
-180.96346699999989
 20
612.75274300000001
 30
0.0
 40
2.999992999999999
  0
ARC
  5
5F2
  8
0
 62
     7
 10
-189.96348599999999
 20
612.75277400000004
 30
0.0
 40
6.499992999999999
 50
254.55183799999989
 51
270.00022399999989
  0
ARC
  5
5F3
  8
0
 62
     7
 10
-180.963348
 20
612.75268200000005
 30
0.0
 40
6.4998709999999988
 50
269.99902099999991
 51
0.000793
  0
ARC
  5
5F4
  8
0
 62
     7
 10
-176.46333300000001
 20
618.25292599999989
 30
0.0
 40
1.999809999999999
 50
359.99532900000003
 51
90.003502000000012
  0
ARC
  5
5F5
  8
0
 62
     7
 10
-176.46355399999999
 20
627.25283499999989
 30
0.0
 40
2.0001319999999989
 50
270.00253199999992
 51
359.99696799999998
  0
ARC
  5
5F6
  8
0
 62
     7
 10
-180.96345899999989
 20
880.75277400000004
 30
0.0
 40
6.5
 50
0.000001
 51
90.0
  0
ARC
  5
5F7
  8
0
 62
     7
 10
-180.96345500000001
 20
880.75277400000004
 30
0.0
 40
3.0000029999999991
 50
304.76364699999999
 51
106.805333
  0
ARC
  5
5F8
  8
0
 62
     7
 10
-176.463459
 20
868.25277400000004
 30
0.0
 40
2.0000019999999989
 50
0.000083
 51
90.0
  0
ARC
  5
5F9
  8
0
 62
     7
 10
-176.4634629999999
 20
877.25277400000004
 30
0.0
 40
2.0000040000000001
 50
270.00007299999987
 51
359.99989099999999
  0
ARC
  5
5FA
  8
0
 62
     7
 10
-180.9634629999999
 20
864.75277400000004
 30
0.0
 40
2.9999950000000002
 50
177.27494799999991
 51
61.440528999999998
  0
ARC
  5
5FB
  8
0
 62
     7
 10
-189.96345500000001
 20
864.75277400000004
 30
0.0
 40
2.999995999999999
 50
155.10770600000001
 51
2.7215849999999988
  0
LINE
  5
5FC
  8
0
  6
DASHDOT
 62
     7
 10
-189.96345500000001
 20
858.75277400000004
 30
0.0
 11
-189.96345500000001
 21
870.75277400000004
 31
0.0
  0
LINE
  5
5FD
  8
0
  6
DASHDOT
 62
     7
 10
-183.963459
 20
864.75277400000004
 30
0.0
 11
-192.87985199999989
 21
864.75277400000004
 31
0.0
  0
LINE
  5
5FE
  8
0
  6
DASHDOT
 62
     7
 10
-185.46345500000001
 20
879.55050299999994
 30
0.0
 11
-185.46345500000001
 21
890.26229499999988
 31
0.0
  0
LINE
  5
5FF
  8
0
  6
DASHDOT
 62
     7
 10
-180.96345500000001
 20
874.75277400000004
 30
0.0
 11
-180.96345500000001
 21
886.75277399999993
 31
0.0
  0
LINE
  5
600
  8
0
  6
DASHDOT
 62
     7
 10
-174.96345500000001
 20
880.75277400000004
 30
0.0
 11
-186.963459
 21
880.75277400000004
 31
0.0
  0
LINE
  5
601
  8
0
  6
DASHDOT
 62
     7
 10
-180.9634629999999
 20
858.75277400000004
 30
0.0
 11
-180.9634629999999
 21
870.75277400000004
 31
0.0
  0
LINE
  5
602
  8
0
  6
DASHDOT
 62
     7
 10
-177.56882499999989
 20
864.75277400000004
 30
0.0
 11
-186.96345500000001
 21
864.75277400000004
 31
0.0
  0
LINE
  5
603
  8
0
  6
DASHDOT
 62
     7
 10
-180.96347399999991
 20
626.75277400000004
 30
0.0
 11
-180.96347399999991
 21
638.75271299999986
 31
0.0
  0
LINE
  5
604
  8
0
  6
DASHDOT
 62
     7
 10
-174.96348199999991
 20
632.75271299999986
 30
0.0
 11
-185.4186629999999
 21
632.75271299999986
 31
0.0
  0
LINE
  5
605
  8
0
  6
DASHDOT
 62
     7
 10
-189.96345899999989
 20
625.75277400000004
 30
0.0
 11
-189.96345899999989
 21
637.75277400000004
 31
0.0
  0
LINE
  5
606
  8
0
  6
DASHDOT
 62
     7
 10
-185.4703899999999
 20
631.75277400000004
 30
0.0
 11
-195.963459
 21
631.75277400000004
 31
0.0
  0
LINE
  5
607
  8
0
  6
DASHDOT
 62
     7
 10
-180.96346699999989
 20
606.75274300000001
 30
0.0
 11
-180.96346699999989
 21
618.75271299999986
 31
0.0
  0
LINE
  5
608
  8
0
  6
DASHDOT
 62
     7
 10
-174.96347399999991
 20
612.75274300000001
 30
0.0
 11
-185.45745799999989
 21
612.75274300000001
 31
0.0
  0
LINE
  5
609
  8
0
  6
DASHSPACE
 62
     7
 10
-161.9034879999999
 20
443.69933700000001
 30
0.0
 11
-161.9034879999999
 21
1066.6304589999991
 31
0.0
  0
LINE
  5
60A
  8
0
  6
DASHSPACE
 62
     7
 10
-158.9034879999999
 20
443.69933700000001
 30
0.0
 11
-158.9034879999999
 21
1066.6304589999991
 31
0.0
  0
POLYLINE
  5
60B
  8
0
 62
     7
 66
     1
 10
0.0
 20
0.0
 30
0.0
  0
VERTEX
  5
A30
  8
0
 62
     7
 10
-149.368706
 20
1066.6304589999991
 30
0.0
  0
VERTEX
  5
A31
  8
0
 62
     7
 10
-165.368706
 20
1066.6304589999991
 30
0.0
  0
VERTEX
  5
A32
  8
0
 62
     7
 10
-166.36870599999989
 20
1064.6304589999991
 30
0.0
  0
VERTEX
  5
A33
  8
0
 62
     7
 10
-167.36870599999989
 20
1068.630459
 30
0.0
  0
VERTEX
  5
A34
  8
0
 62
     7
 10
-168.368706
 20
1066.6304589999991
 30
0.0
  0
VERTEX
  5
A35
  8
0
 62
     7
 10
-168.5699009999999
 20
1066.6304589999991
 30
0.0
  0
SEQEND
  5
A36
  8
0
 62
     7
  0
POLYLINE
  5
613
  8
0
 62
     7
 66
     1
 10
0.0
 20
0.0
 30
0.0
  0
VERTEX
  5
A37
  8
0
 62
     7
 10
-148.91958600000001
 20
443.69933700000001
 30
0.0
  0
VERTEX
  5
A38
  8
0
 62
     7
 10
-164.91958600000001
 20
443.69933700000001
 30
0.0
  0
VERTEX
  5
A39
  8
0
 62
     7
 10
-165.91958600000001
 20
441.69933700000001
 30
0.0
  0
VERTEX
  5
A3A
  8
0
 62
     7
 10
-166.91958600000001
 20
445.69933700000001
 30
0.0
  0
VERTEX
  5
A3B
  8
0
 62
     7
 10
-167.91958600000001
 20
443.69933700000001
 30
0.0
  0
VERTEX
  5
A3C
  8
0
 62
     7
 10
-174.49303399999991
 20
443.69933700000001
 30
0.0
  0
SEQEND
  5
A3D
  8
0
 62
     7
  0
CIRCLE
  5
61B
  8
0
 62
     7
 10
-186.12453099999999
 20
784.889859
 30
0.0
 40
1.5
  0
LINE
  5
61C
  8
0
  6
DASHDOT
 62
     7
 10
-133.798012
 20
930.02077899999995
 30
0.0
 11
-190.28290200000001
 21
930.02077899999995
 31
0.0
  0
LINE
  5
61D
  8
0
 62
     7
 10
-161.9034879999999
 20
957.52077899999995
 30
0.0
 11
-183.9034879999999
 21
957.52077899999995
 31
0.0
  0
LINE
  5
61E
  8
0
 62
     7
 10
-161.9034879999999
 20
552.52080999999987
 30
0.0
 11
-183.9034879999999
 21
552.52080999999987
 31
0.0
  0
ARC
  5
61F
  8
0
 62
     7
 10
-183.9034879999999
 20
549.52080999999998
 30
0.0
 40
3.0
 50
90.0
 51
180.00000299999991
  0
ARC
  5
620
  8
0
 62
     7
 10
-183.9034879999999
 20
960.52077899999995
 30
0.0
 40
3.0
 50
180.00000299999991
 51
270.00000499999987
  0
LINE
  5
621
  8
0
 62
     7
 10
-171.9034879999999
 20
926.02077899999995
 30
0.0
 11
-171.9034879999999
 21
934.02077899999995
 31
0.0
  0
LINE
  5
622
  8
0
 62
     7
 10
-166.9034879999999
 20
925.52077899999995
 30
0.0
 11
-166.9034879999999
 21
934.52077899999995
 31
0.0
  0
LINE
  5
623
  8
0
 62
     7
 10
-166.9034879999999
 20
934.52077899999995
 30
0.0
 11
-171.4034879999999
 21
934.52077899999995
 31
0.0
  0
LINE
  5
624
  8
0
 62
     7
 10
-166.9034879999999
 20
925.52077899999995
 30
0.0
 11
-171.4034879999999
 21
925.52077899999995
 31
0.0
  0
ARC
  5
625
  8
0
 62
     7
 10
-165.9034879999999
 20
934.52077899999995
 30
0.0
 40
1.0
 50
0.000001
 51
180.00000299999991
  0
ARC
  5
626
  8
0
 62
     7
 10
-165.9034879999999
 20
925.52077899999995
 30
0.0
 40
1.0
 50
180.00000299999991
 51
0.000001
  0
LINE
  5
627
  8
0
 62
     7
 10
-171.9034879999999
 20
934.02077899999995
 30
0.0
 11
-171.4034879999999
 21
934.52077899999995
 31
0.0
  0
LINE
  5
628
  8
0
 62
     7
 10
-171.4034879999999
 20
925.52077899999995
 30
0.0
 11
-171.9034879999999
 21
926.02077899999995
 31
0.0
  0
LINE
  5
629
  8
0
 62
     7
 10
-171.4034879999999
 20
925.52077899999995
 30
0.0
 11
-171.4034879999999
 21
934.52077899999995
 31
0.0
  0
LINE
  5
62A
  8
0
  6
DASHDOT
 62
     7
 10
-144.21353099999999
 20
580.02080999999987
 30
0.0
 11
-190.28290200000001
 21
580.02080999999987
 31
0.0
  0
LINE
  5
62B
  8
0
 62
     7
 10
-171.9034879999999
 20
576.02080999999987
 30
0.0
 11
-171.9034879999999
 21
584.02080999999987
 31
0.0
  0
LINE
  5
62C
  8
0
 62
     7
 10
-166.9034879999999
 20
575.52080999999987
 30
0.0
 11
-166.9034879999999
 21
584.52080999999987
 31
0.0
  0
LINE
  5
62D
  8
0
 62
     7
 10
-166.9034879999999
 20
575.52080999999987
 30
0.0
 11
-171.4034879999999
 21
575.52080999999987
 31
0.0
  0
LINE
  5
62E
  8
0
 62
     7
 10
-166.9034879999999
 20
584.52080999999987
 30
0.0
 11
-171.4034879999999
 21
584.52080999999987
 31
0.0
  0
ARC
  5
62F
  8
0
 62
     7
 10
-165.9034879999999
 20
575.52080999999987
 30
0.0
 40
1.0
 50
180.00000299999991
 51
0.000001
  0
ARC
  5
630
  8
0
 62
     7
 10
-165.9034879999999
 20
584.52080999999987
 30
0.0
 40
1.0
 50
0.000001
 51
180.00000299999991
  0
LINE
  5
631
  8
0
 62
     7
 10
-171.4034879999999
 20
575.52080999999987
 30
0.0
 11
-171.9034879999999
 21
576.02080999999987
 31
0.0
  0
LINE
  5
632
  8
0
 62
     7
 10
-171.9034879999999
 20
584.02080999999987
 30
0.0
 11
-171.4034879999999
 21
584.52080999999987
 31
0.0
  0
LINE
  5
633
  8
0
 62
     7
 10
-171.4034879999999
 20
575.52080999999987
 30
0.0
 11
-171.4034879999999
 21
584.52080999999987
 31
0.0
  0
LINE
  5
634
  8
0
 62
     7
 10
-153.9034879999999
 20
585.52080999999987
 30
0.0
 11
-158.9034879999999
 21
585.52080999999987
 31
0.0
  0
LINE
  5
635
  8
0
 62
     7
 10
-153.9034879999999
 20
574.52080999999998
 30
0.0
 11
-158.9034879999999
 21
574.52080999999998
 31
0.0
  0
LINE
  5
636
  8
0
 62
     7
 10
-153.9034879999999
 20
582.52080999999998
 30
0.0
 11
-158.9034879999999
 21
582.52080999999998
 31
0.0
  0
LINE
  5
637
  8
0
 62
     7
 10
-153.9034879999999
 20
577.52080999999987
 30
0.0
 11
-158.9034879999999
 21
577.52080999999987
 31
0.0
  0
LINE
  5
638
  8
0
 62
     7
 10
-153.9034879999999
 20
574.52080999999998
 30
0.0
 11
-153.9034879999999
 21
585.52080999999987
 31
0.0
  0
LINE
  5
639
  8
0
 62
     7
 10
-153.9034879999999
 20
935.52077899999995
 30
0.0
 11
-158.9034879999999
 21
935.52077899999995
 31
0.0
  0
LINE
  5
63A
  8
0
 62
     7
 10
-153.9034879999999
 20
932.52077899999995
 30
0.0
 11
-158.9034879999999
 21
932.52077899999995
 31
0.0
  0
LINE
  5
63B
  8
0
 62
     7
 10
-153.9034879999999
 20
927.52077899999995
 30
0.0
 11
-158.9034879999999
 21
927.52077899999995
 31
0.0
  0
LINE
  5
63C
  8
0
 62
     7
 10
-153.9034879999999
 20
924.52077899999995
 30
0.0
 11
-158.9034879999999
 21
924.52077899999995
 31
0.0
  0
LINE
  5
63D
  8
0
 62
     7
 10
-153.9034879999999
 20
924.52077899999995
 30
0.0
 11
-153.9034879999999
 21
935.52077899999995
 31
0.0
  0
CIRCLE
  5
63E
  8
0
 62
     7
 10
-155.3234249999999
 20
929.65389700000003
 30
0.0
 40
0.2
  0
LINE
  5
63F
  8
0
  6
DASHSPACE
 62
     7
 10
-482.83387800000003
 20
545.27080999999987
 30
0.0
 11
-482.83387800000003
 21
650.27077899999995
 31
0.0
  0
LINE
  5
640
  8
0
 62
     7
 10
-425.267944
 20
545.27080999999987
 30
0.0
 11
-455.33389299999988
 21
545.27080999999987
 31
0.0
  0
LINE
  5
641
  8
0
 62
     7
 10
-425.267944
 20
650.27077899999995
 30
0.0
 11
-455.33389299999988
 21
650.27077899999995
 31
0.0
  0
LINE
  5
642
  8
0
 62
     7
 10
-525.10041799999988
 20
323.25764099999998
 30
0.0
 11
-525.10041799999988
 21
388.47170699999992
 31
0.0
  0
LINE
  5
643
  8
0
 62
     7
 10
-267.89984099999998
 20
323.25764099999998
 30
0.0
 11
-525.10041799999988
 21
323.25764099999998
 31
0.0
  0
LINE
  5
644
  8
0
 62
     7
 10
-161.9034879999999
 20
1102.448085999999
 30
0.0
 11
-173.72117600000001
 21
1104.5318870000001
 31
0.0
  0
LINE
  5
645
  8
0
 62
     7
 10
-161.9034879999999
 20
1102.448085999999
 30
0.0
 11
-173.72117600000001
 21
1100.3643460000001
 31
0.0
  0
LINE
  5
646
  8
0
 62
     7
 10
-226.9034879999999
 20
1102.448085999999
 30
0.0
 11
-215.08579999999989
 21
1100.3643460000001
 31
0.0
  0
LINE
  5
647
  8
0
 62
     7
 10
-226.9034879999999
 20
1102.448085999999
 30
0.0
 11
-215.08579999999989
 21
1104.5318870000001
 31
0.0
  0
LINE
  5
648
  8
0
 62
     7
 10
-226.9034879999999
 20
1102.448085999999
 30
0.0
 11
-238.72117600000001
 21
1104.5318870000001
 31
0.0
  0
LINE
  5
649
  8
0
 62
     7
 10
-226.9034879999999
 20
1102.448085999999
 30
0.0
 11
-238.72117600000001
 21
1100.3643460000001
 31
0.0
  0
LINE
  5
64A
  8
0
 62
     7
 10
-330.40348799999992
 20
1102.448085999999
 30
0.0
 11
-318.58580000000001
 21
1100.3643460000001
 31
0.0
  0
LINE
  5
64B
  8
0
 62
     7
 10
-330.40348799999992
 20
1102.448085999999
 30
0.0
 11
-318.58580000000001
 21
1104.5318870000001
 31
0.0
  0
LINE
  5
64C
  8
0
 62
     7
 10
-161.9034879999999
 20
1102.448085999999
 30
0.0
 11
-330.40348799999992
 21
1102.448085999999
 31
0.0
  0
LINE
  5
64D
  8
0
 62
     7
 10
-161.9034879999999
 20
1110.448085999999
 30
0.0
 11
-161.9034879999999
 21
1066.6305199999999
 31
0.0
  0
LINE
  5
64E
  8
0
 62
     7
 10
-226.9034879999999
 20
1110.448085999999
 30
0.0
 11
-226.9034879999999
 21
1044.0208399999999
 31
0.0
  0
LINE
  5
64F
  8
0
 62
     7
 10
-330.40348799999992
 20
1110.448085999999
 30
0.0
 11
-330.40348799999992
 21
960.27084000000002
 31
0.0
  0
LINE
  5
650
  8
0
 62
     7
 10
-226.9034879999999
 20
388.31127599999991
 30
0.0
 11
-238.72117600000001
 21
390.39504699999998
 31
0.0
  0
LINE
  5
651
  8
0
 62
     7
 10
-226.9034879999999
 20
388.31127599999991
 30
0.0
 11
-238.72117600000001
 21
386.22747500000003
 31
0.0
  0
LINE
  5
652
  8
0
 62
     7
 10
-455.33390799999989
 20
388.31127599999991
 30
0.0
 11
-443.51621999999998
 21
386.22747500000003
 31
0.0
  0
LINE
  5
653
  8
0
 62
     7
 10
-455.33390799999989
 20
388.31127599999991
 30
0.0
 11
-443.51621999999998
 21
390.39504699999998
 31
0.0
  0
LINE
  5
654
  8
0
 62
     7
 10
-226.9034879999999
 20
388.31127599999991
 30
0.0
 11
-455.33390799999989
 21
388.31124499999999
 31
0.0
  0
LINE
  5
655
  8
0
 62
     7
 10
-226.9034879999999
 20
380.31127599999991
 30
0.0
 11
-226.9034879999999
 21
466.02080999999998
 31
0.0
  0
LINE
  5
656
  8
0
 62
     7
 10
-455.33390799999989
 20
380.31127599999991
 30
0.0
 11
-455.33390799999989
 21
545.27080999999987
 31
0.0
  0
LINE
  5
657
  8
0
 62
     7
 10
-504.657578
 20
545.27080999999987
 30
0.0
 11
-502.57383700000003
 21
557.08849699999985
 31
0.0
  0
LINE
  5
658
  8
0
 62
     7
 10
-504.657578
 20
545.27080999999987
 30
0.0
 11
-506.74137899999988
 21
557.08849699999985
 31
0.0
  0
LINE
  5
659
  8
0
 62
     7
 10
-504.657578
 20
650.27077899999995
 30
0.0
 11
-506.74137899999988
 21
638.45309099999986
 31
0.0
  0
LINE
  5
65A
  8
0
 62
     7
 10
-504.657578
 20
650.27077899999995
 30
0.0
 11
-502.57383700000003
 21
638.45309099999986
 31
0.0
  0
LINE
  5
65B
  8
0
 62
     7
 10
-504.657578
 20
545.27080999999987
 30
0.0
 11
-504.657578
 21
650.27077899999995
 31
0.0
  0
LINE
  5
65C
  8
0
 62
     7
 10
-512.65757799999994
 20
545.27080999999987
 30
0.0
 11
-482.83384699999999
 21
545.27080999999987
 31
0.0
  0
LINE
  5
65D
  8
0
 62
     7
 10
-512.65757799999994
 20
650.27077899999995
 30
0.0
 11
-482.83384699999999
 21
650.27077899999995
 31
0.0
  0
LINE
  5
65E
  8
0
 62
     7
 10
-387.55247500000002
 20
855.27077899999995
 30
0.0
 11
-385.46870399999989
 21
867.08846700000015
 31
0.0
  0
LINE
  5
65F
  8
0
 62
     7
 10
-387.55247500000002
 20
855.27077899999995
 30
0.0
 11
-389.63624599999991
 21
867.08846700000015
 31
0.0
  0
LINE
  5
660
  8
0
 62
     7
 10
-387.55247500000002
 20
960.27077899999995
 30
0.0
 11
-389.63624599999991
 21
948.45309099999997
 31
0.0
  0
LINE
  5
661
  8
0
 62
     7
 10
-387.55247500000002
 20
960.27077899999995
 30
0.0
 11
-385.46870399999989
 21
948.45309099999997
 31
0.0
  0
LINE
  5
662
  8
0
 62
     7
 10
-387.55247500000002
 20
855.27077899999995
 30
0.0
 11
-387.55247500000002
 21
960.27077899999995
 31
0.0
  0
LINE
  5
663
  8
0
 62
     7
 10
-395.55247500000002
 20
855.27077899999995
 30
0.0
 11
-339.40336600000001
 21
855.27077899999995
 31
0.0
  0
LINE
  5
664
  8
0
 62
     7
 10
-395.55247500000002
 20
960.27077899999995
 30
0.0
 11
-339.40336600000001
 21
960.27077899999995
 31
0.0
  0
LINE
  5
665
  8
0
 62
     7
 10
-455.33390799999989
 20
388.31127599999991
 30
0.0
 11
-443.51621999999998
 21
386.22747500000003
 31
0.0
  0
LINE
  5
666
  8
0
 62
     7
 10
-455.33390799999989
 20
388.31127599999991
 30
0.0
 11
-443.51621999999998
 21
390.39504699999998
 31
0.0
  0
LINE
  5
667
  8
0
 62
     7
 10
-482.83390800000001
 20
388.31127599999991
 30
0.0
 11
-494.65159599999998
 21
390.39504699999998
 31
0.0
  0
LINE
  5
668
  8
0
 62
     7
 10
-482.83390800000001
 20
388.31127599999991
 30
0.0
 11
-494.65159599999998
 21
386.22747500000003
 31
0.0
  0
LINE
  5
669
  8
0
 62
     7
 10
-455.33390799999989
 20
388.31127599999991
 30
0.0
 11
-524.32096899999988
 21
388.31124499999999
 31
0.0
  0
LINE
  5
66A
  8
0
 62
     7
 10
-455.33390799999989
 20
380.31127599999991
 30
0.0
 11
-455.33390799999989
 21
545.27080999999987
 31
0.0
  0
LINE
  5
66B
  8
0
 62
     7
 10
-482.83390800000001
 20
380.31127599999991
 30
0.0
 11
-482.83390800000001
 21
545.27080999999987
 31
0.0
  0
POINT
  5
66C
  8
0
 62
     7
 10
652.24516299999993
 20
580.02081699999985
 30
0.0
  0
POINT
  5
66D
  8
0
 62
     7
 10
660.24516299999993
 20
580.02081699999985
 30
0.0
  0
POLYLINE
  5
66E
  8
0
 62
     7
 66
     1
 10
0.0
 20
0.0
 30
0.0
  0
VERTEX
  5
A3E
  8
0
 62
     7
 10
487.49516299999988
 20
441.294961
 30
0.0
  0
VERTEX
  5
A3F
  8
0
 62
     7
 10
487.49516299999988
 20
457.29496100000011
 30
0.0
  0
VERTEX
  5
A40
  8
0
 62
     7
 10
485.49516299999999
 20
458.294961
 30
0.0
  0
VERTEX
  5
A41
  8
0
 62
     7
 10
489.49516299999999
 20
459.294961
 30
0.0
  0
VERTEX
  5
A42
  8
0
 62
     7
 10
487.49516299999988
 20
460.294961
 30
0.0
  0
VERTEX
  5
A43
  8
0
 62
     7
 10
487.49516299999988
 20
476.29495999999989
 30
0.0
  0
VERTEX
  5
A44
  8
0
 62
     7
 10
485.49516299999999
 20
477.29495999999989
 30
0.0
  0
VERTEX
  5
A45
  8
0
 62
     7
 10
489.49516299999999
 20
478.29495999999989
 30
0.0
  0
VERTEX
  5
A46
  8
0
 62
     7
 10
487.49516299999988
 20
479.29495999999989
 30
0.0
  0
VERTEX
  5
A47
  8
0
 62
     7
 10
487.49516299999988
 20
495.29495999999989
 30
0.0
  0
VERTEX
  5
A48
  8
0
 62
     7
 10
485.49516299999999
 20
496.29495999999989
 30
0.0
  0
VERTEX
  5
A49
  8
0
 62
     7
 10
489.49516299999999
 20
497.29495999999989
 30
0.0
  0
VERTEX
  5
A4A
  8
0
 62
     7
 10
487.49516299999988
 20
498.29495999999989
 30
0.0
  0
VERTEX
  5
A4B
  8
0
 62
     7
 10
487.49516299999988
 20
514.29496399999994
 30
0.0
  0
VERTEX
  5
A4C
  8
0
 62
     7
 10
485.49516299999999
 20
515.29496399999994
 30
0.0
  0
VERTEX
  5
A4D
  8
0
 62
     7
 10
489.49516299999999
 20
516.29496399999994
 30
0.0
  0
VERTEX
  5
A4E
  8
0
 62
     7
 10
487.49516299999988
 20
517.29496399999994
 30
0.0
  0
VERTEX
  5
A4F
  8
0
 62
     7
 10
487.49516299999988
 20
533.29496399999994
 30
0.0
  0
VERTEX
  5
A50
  8
0
 62
     7
 10
485.49516299999999
 20
534.29496399999994
 30
0.0
  0
VERTEX
  5
A51
  8
0
 62
     7
 10
489.49516299999999
 20
535.29496399999994
 30
0.0
  0
VERTEX
  5
A52
  8
0
 62
     7
 10
487.49516299999988
 20
536.29496399999994
 30
0.0
  0
VERTEX
  5
A53
  8
0
 62
     7
 10
487.49516299999988
 20
552.29496399999994
 30
0.0
  0
VERTEX
  5
A54
  8
0
 62
     7
 10
485.49516299999999
 20
553.29496399999994
 30
0.0
  0
VERTEX
  5
A55
  8
0
 62
     7
 10
489.49516299999999
 20
554.29496399999994
 30
0.0
  0
VERTEX
  5
A56
  8
0
 62
     7
 10
487.49516299999988
 20
555.29496399999994
 30
0.0
  0
VERTEX
  5
A57
  8
0
 62
     7
 10
487.49516299999988
 20
571.29496399999994
 30
0.0
  0
VERTEX
  5
A58
  8
0
 62
     7
 10
485.49516299999999
 20
572.29496399999994
 30
0.0
  0
VERTEX
  5
A59
  8
0
 62
     7
 10
489.49516299999999
 20
573.29496399999994
 30
0.0
  0
VERTEX
  5
A5A
  8
0
 62
     7
 10
487.49516299999988
 20
574.29496399999994
 30
0.0
  0
VERTEX
  5
A5B
  8
0
 62
     7
 10
487.49516299999988
 20
590.29495599999996
 30
0.0
  0
VERTEX
  5
A5C
  8
0
 62
     7
 10
485.49516299999999
 20
591.29495599999996
 30
0.0
  0
VERTEX
  5
A5D
  8
0
 62
     7
 10
489.49516299999999
 20
592.29495599999996
 30
0.0
  0
VERTEX
  5
A5E
  8
0
 62
     7
 10
487.49516299999988
 20
593.29495599999996
 30
0.0
  0
VERTEX
  5
A5F
  8
0
 62
     7
 10
487.49516299999988
 20
609.29495599999996
 30
0.0
  0
VERTEX
  5
A60
  8
0
 62
     7
 10
485.49516299999999
 20
610.29495599999996
 30
0.0
  0
VERTEX
  5
A61
  8
0
 62
     7
 10
489.49516299999999
 20
611.29495599999996
 30
0.0
  0
VERTEX
  5
A62
  8
0
 62
     7
 10
487.49516299999988
 20
612.29495599999996
 30
0.0
  0
VERTEX
  5
A63
  8
0
 62
     7
 10
487.49516299999988
 20
628.29495599999996
 30
0.0
  0
VERTEX
  5
A64
  8
0
 62
     7
 10
485.49516299999999
 20
629.29495599999996
 30
0.0
  0
VERTEX
  5
A65
  8
0
 62
     7
 10
489.49516299999999
 20
630.29495599999996
 30
0.0
  0
VERTEX
  5
A66
  8
0
 62
     7
 10
487.49516299999988
 20
631.29495599999996
 30
0.0
  0
VERTEX
  5
A67
  8
0
 62
     7
 10
487.49516299999988
 20
647.29495599999996
 30
0.0
  0
VERTEX
  5
A68
  8
0
 62
     7
 10
485.49516299999999
 20
648.29495599999996
 30
0.0
  0
VERTEX
  5
A69
  8
0
 62
     7
 10
489.49516299999999
 20
649.29495599999996
 30
0.0
  0
VERTEX
  5
A6A
  8
0
 62
     7
 10
487.49516299999988
 20
650.29495599999996
 30
0.0
  0
VERTEX
  5
A6B
  8
0
 62
     7
 10
487.49516299999988
 20
666.29495599999996
 30
0.0
  0
VERTEX
  5
A6C
  8
0
 62
     7
 10
485.49516299999999
 20
667.29495599999996
 30
0.0
  0
VERTEX
  5
A6D
  8
0
 62
     7
 10
489.49516299999999
 20
668.29495599999996
 30
0.0
  0
VERTEX
  5
A6E
  8
0
 62
     7
 10
487.49516299999988
 20
669.29495599999996
 30
0.0
  0
VERTEX
  5
A6F
  8
0
 62
     7
 10
487.49516299999988
 20
685.29495599999996
 30
0.0
  0
VERTEX
  5
A70
  8
0
 62
     7
 10
485.49516299999999
 20
686.29495599999996
 30
0.0
  0
VERTEX
  5
A71
  8
0
 62
     7
 10
489.49516299999999
 20
687.29495599999996
 30
0.0
  0
VERTEX
  5
A72
  8
0
 62
     7
 10
487.49516299999988
 20
688.29495599999996
 30
0.0
  0
VERTEX
  5
A73
  8
0
 62
     7
 10
487.49516299999988
 20
704.29495599999996
 30
0.0
  0
VERTEX
  5
A74
  8
0
 62
     7
 10
485.49516299999999
 20
705.29495599999996
 30
0.0
  0
VERTEX
  5
A75
  8
0
 62
     7
 10
489.49516299999999
 20
706.29495599999996
 30
0.0
  0
VERTEX
  5
A76
  8
0
 62
     7
 10
487.49516299999988
 20
707.29495599999996
 30
0.0
  0
VERTEX
  5
A77
  8
0
 62
     7
 10
487.49516299999988
 20
723.29495599999996
 30
0.0
  0
VERTEX
  5
A78
  8
0
 62
     7
 10
485.49516299999999
 20
724.29495599999996
 30
0.0
  0
VERTEX
  5
A79
  8
0
 62
     7
 10
489.49516299999999
 20
725.29495599999996
 30
0.0
  0
VERTEX
  5
A7A
  8
0
 62
     7
 10
487.49516299999988
 20
726.29495599999996
 30
0.0
  0
VERTEX
  5
A7B
  8
0
 62
     7
 10
487.49516299999988
 20
742.29495599999996
 30
0.0
  0
VERTEX
  5
A7C
  8
0
 62
     7
 10
485.49516299999999
 20
743.29495599999996
 30
0.0
  0
VERTEX
  5
A7D
  8
0
 62
     7
 10
489.49516299999999
 20
744.29495599999996
 30
0.0
  0
VERTEX
  5
A7E
  8
0
 62
     7
 10
487.49516299999988
 20
745.29495599999996
 30
0.0
  0
VERTEX
  5
A7F
  8
0
 62
     7
 10
487.49516299999988
 20
761.29495599999996
 30
0.0
  0
VERTEX
  5
A80
  8
0
 62
     7
 10
485.49516299999999
 20
762.29495599999996
 30
0.0
  0
VERTEX
  5
A81
  8
0
 62
     7
 10
489.49516299999999
 20
763.29495599999996
 30
0.0
  0
VERTEX
  5
A82
  8
0
 62
     7
 10
487.49516299999988
 20
764.29495599999996
 30
0.0
  0
VERTEX
  5
A83
  8
0
 62
     7
 10
487.49516299999988
 20
780.29495599999996
 30
0.0
  0
VERTEX
  5
A84
  8
0
 62
     7
 10
485.49516299999999
 20
781.29495599999996
 30
0.0
  0
VERTEX
  5
A85
  8
0
 62
     7
 10
489.49516299999999
 20
782.29495599999996
 30
0.0
  0
VERTEX
  5
A86
  8
0
 62
     7
 10
487.49516299999988
 20
783.29495599999996
 30
0.0
  0
VERTEX
  5
A87
  8
0
 62
     7
 10
487.49516299999988
 20
799.29495599999996
 30
0.0
  0
VERTEX
  5
A88
  8
0
 62
     7
 10
485.49516299999999
 20
800.29495599999996
 30
0.0
  0
VERTEX
  5
A89
  8
0
 62
     7
 10
489.49516299999999
 20
801.29495599999996
 30
0.0
  0
VERTEX
  5
A8A
  8
0
 62
     7
 10
487.49516299999988
 20
802.29495599999984
 30
0.0
  0
VERTEX
  5
A8B
  8
0
 62
     7
 10
487.49516299999988
 20
818.29495599999996
 30
0.0
  0
VERTEX
  5
A8C
  8
0
 62
     7
 10
485.49516299999999
 20
819.29495599999984
 30
0.0
  0
VERTEX
  5
A8D
  8
0
 62
     7
 10
489.49516299999999
 20
820.29495599999996
 30
0.0
  0
VERTEX
  5
A8E
  8
0
 62
     7
 10
487.49516299999988
 20
821.29495599999996
 30
0.0
  0
VERTEX
  5
A8F
  8
0
 62
     7
 10
487.49516299999988
 20
837.29495599999996
 30
0.0
  0
VERTEX
  5
A90
  8
0
 62
     7
 10
485.49516299999999
 20
838.29495599999996
 30
0.0
  0
VERTEX
  5
A91
  8
0
 62
     7
 10
489.49516299999999
 20
839.29495600000007
 30
0.0
  0
VERTEX
  5
A92
  8
0
 62
     7
 10
487.49516299999988
 20
840.29495600000007
 30
0.0
  0
VERTEX
  5
A93
  8
0
 62
     7
 10
487.49516299999988
 20
856.29495600000007
 30
0.0
  0
VERTEX
  5
A94
  8
0
 62
     7
 10
485.49516299999999
 20
857.29495600000007
 30
0.0
  0
VERTEX
  5
A95
  8
0
 62
     7
 10
489.49516299999999
 20
858.29495600000007
 30
0.0
  0
VERTEX
  5
A96
  8
0
 62
     7
 10
487.49516299999988
 20
859.29495599999996
 30
0.0
  0
VERTEX
  5
A97
  8
0
 62
     7
 10
487.49516299999988
 20
875.29495600000007
 30
0.0
  0
VERTEX
  5
A98
  8
0
 62
     7
 10
485.49516299999999
 20
876.29495599999996
 30
0.0
  0
VERTEX
  5
A99
  8
0
 62
     7
 10
489.49516299999999
 20
877.29495599999996
 30
0.0
  0
VERTEX
  5
A9A
  8
0
 62
     7
 10
487.49516299999988
 20
878.29495599999996
 30
0.0
  0
VERTEX
  5
A9B
  8
0
 62
     7
 10
487.49516299999988
 20
894.29495599999996
 30
0.0
  0
VERTEX
  5
A9C
  8
0
 62
     7
 10
485.49516299999999
 20
895.29495599999996
 30
0.0
  0
VERTEX
  5
A9D
  8
0
 62
     7
 10
489.49516299999999
 20
896.29495599999996
 30
0.0
  0
VERTEX
  5
A9E
  8
0
 62
     7
 10
487.49516299999988
 20
897.29495600000007
 30
0.0
  0
VERTEX
  5
A9F
  8
0
 62
     7
 10
487.49516299999988
 20
913.29495599999996
 30
0.0
  0
VERTEX
  5
AA0
  8
0
 62
     7
 10
485.49516299999999
 20
914.29495600000007
 30
0.0
  0
VERTEX
  5
AA1
  8
0
 62
     7
 10
489.49516299999999
 20
915.29495600000007
 30
0.0
  0
VERTEX
  5
AA2
  8
0
 62
     7
 10
487.49516299999988
 20
916.29495600000007
 30
0.0
  0
VERTEX
  5
AA3
  8
0
 62
     7
 10
487.49516299999988
 20
932.29495600000007
 30
0.0
  0
VERTEX
  5
AA4
  8
0
 62
     7
 10
485.49516299999999
 20
933.29495600000007
 30
0.0
  0
VERTEX
  5
AA5
  8
0
 62
     7
 10
489.49516299999999
 20
934.29495599999996
 30
0.0
  0
VERTEX
  5
AA6
  8
0
 62
     7
 10
487.49516299999988
 20
935.29495599999996
 30
0.0
  0
VERTEX
  5
AA7
  8
0
 62
     7
 10
487.49516299999988
 20
951.29495599999996
 30
0.0
  0
VERTEX
  5
AA8
  8
0
 62
     7
 10
485.49516299999999
 20
952.29495599999996
 30
0.0
  0
VERTEX
  5
AA9
  8
0
 62
     7
 10
489.49516299999999
 20
953.29495599999996
 30
0.0
  0
VERTEX
  5
AAA
  8
0
 62
     7
 10
487.49516299999988
 20
954.29495599999996
 30
0.0
  0
VERTEX
  5
AAB
  8
0
 62
     7
 10
487.49516299999988
 20
970.29498699999988
 30
0.0
  0
VERTEX
  5
AAC
  8
0
 62
     7
 10
485.49516299999999
 20
971.29498699999988
 30
0.0
  0
VERTEX
  5
AAD
  8
0
 62
     7
 10
489.49516299999999
 20
972.29498699999976
 30
0.0
  0
VERTEX
  5
AAE
  8
0
 62
     7
 10
487.49516299999988
 20
973.29498699999976
 30
0.0
  0
VERTEX
  5
AAF
  8
0
 62
     7
 10
487.49516299999988
 20
989.29498699999976
 30
0.0
  0
VERTEX
  5
AB0
  8
0
 62
     7
 10
485.49516299999999
 20
990.29498699999976
 30
0.0
  0
VERTEX
  5
AB1
  8
0
 62
     7
 10
489.49516299999999
 20
991.29498699999976
 30
0.0
  0
VERTEX
  5
AB2
  8
0
 62
     7
 10
487.49516299999988
 20
992.29498699999976
 30
0.0
  0
VERTEX
  5
AB3
  8
0
 62
     7
 10
487.49516299999988
 20
1008.294986999999
 30
0.0
  0
VERTEX
  5
AB4
  8
0
 62
     7
 10
485.49516299999999
 20
1009.294986999999
 30
0.0
  0
VERTEX
  5
AB5
  8
0
 62
     7
 10
489.49516299999999
 20
1010.294986999999
 30
0.0
  0
VERTEX
  5
AB6
  8
0
 62
     7
 10
487.49516299999988
 20
1011.294987
 30
0.0
  0
VERTEX
  5
AB7
  8
0
 62
     7
 10
487.49516299999988
 20
1027.294987
 30
0.0
  0
VERTEX
  5
AB8
  8
0
 62
     7
 10
485.49516299999999
 20
1028.2949869999991
 30
0.0
  0
VERTEX
  5
AB9
  8
0
 62
     7
 10
489.49516299999999
 20
1029.2949869999991
 30
0.0
  0
VERTEX
  5
ABA
  8
0
 62
     7
 10
487.49516299999988
 20
1030.294987
 30
0.0
  0
VERTEX
  5
ABB
  8
0
 62
     7
 10
487.49516299999988
 20
1046.294987
 30
0.0
  0
VERTEX
  5
ABC
  8
0
 62
     7
 10
485.49516299999999
 20
1047.294987
 30
0.0
  0
VERTEX
  5
ABD
  8
0
 62
     7
 10
489.49516299999999
 20
1048.294987
 30
0.0
  0
VERTEX
  5
ABE
  8
0
 62
     7
 10
487.49516299999988
 20
1049.294987
 30
0.0
  0
VERTEX
  5
ABF
  8
0
 62
     7
 10
487.49516299999988
 20
1064.642094
 30
0.0
  0
SEQEND
  5
AC0
  8
0
 62
     7
  0
POLYLINE
  5
6F2
  8
0
 62
     7
 66
     1
 10
0.0
 20
0.0
 30
0.0
  0
VERTEX
  5
AC1
  8
0
 62
     7
 10
667.49516299999993
 20
441.294961
 30
0.0
  0
VERTEX
  5
AC2
  8
0
 62
     7
 10
667.49516299999993
 20
457.29496100000011
 30
0.0
  0
VERTEX
  5
AC3
  8
0
 62
     7
 10
665.49516299999993
 20
458.294961
 30
0.0
  0
VERTEX
  5
AC4
  8
0
 62
     7
 10
669.49516299999993
 20
459.294961
 30
0.0
  0
VERTEX
  5
AC5
  8
0
 62
     7
 10
667.49516299999993
 20
460.294961
 30
0.0
  0
VERTEX
  5
AC6
  8
0
 62
     7
 10
667.49516299999993
 20
476.29495999999989
 30
0.0
  0
VERTEX
  5
AC7
  8
0
 62
     7
 10
665.49516299999993
 20
477.29495999999989
 30
0.0
  0
VERTEX
  5
AC8
  8
0
 62
     7
 10
669.49516299999993
 20
478.29495999999989
 30
0.0
  0
VERTEX
  5
AC9
  8
0
 62
     7
 10
667.49516299999993
 20
479.29495999999989
 30
0.0
  0
VERTEX
  5
ACA
  8
0
 62
     7
 10
667.49516299999993
 20
495.29495999999989
 30
0.0
  0
VERTEX
  5
ACB
  8
0
 62
     7
 10
665.49516299999993
 20
496.29495999999989
 30
0.0
  0
VERTEX
  5
ACC
  8
0
 62
     7
 10
669.49516299999993
 20
497.29495999999989
 30
0.0
  0
VERTEX
  5
ACD
  8
0
 62
     7
 10
667.49516299999993
 20
498.29495999999989
 30
0.0
  0
VERTEX
  5
ACE
  8
0
 62
     7
 10
667.49516299999993
 20
514.29496399999994
 30
0.0
  0
VERTEX
  5
ACF
  8
0
 62
     7
 10
665.49516299999993
 20
515.29496399999994
 30
0.0
  0
VERTEX
  5
AD0
  8
0
 62
     7
 10
669.49516299999993
 20
516.29496399999994
 30
0.0
  0
VERTEX
  5
AD1
  8
0
 62
     7
 10
667.49516299999993
 20
517.29496399999994
 30
0.0
  0
VERTEX
  5
AD2
  8
0
 62
     7
 10
667.49516299999993
 20
533.29496399999994
 30
0.0
  0
VERTEX
  5
AD3
  8
0
 62
     7
 10
665.49516299999993
 20
534.29496399999994
 30
0.0
  0
VERTEX
  5
AD4
  8
0
 62
     7
 10
669.49516299999993
 20
535.29496399999994
 30
0.0
  0
VERTEX
  5
AD5
  8
0
 62
     7
 10
667.49516299999993
 20
536.29496399999994
 30
0.0
  0
VERTEX
  5
AD6
  8
0
 62
     7
 10
667.49516299999993
 20
552.29496399999994
 30
0.0
  0
VERTEX
  5
AD7
  8
0
 62
     7
 10
665.49516299999993
 20
553.29496399999994
 30
0.0
  0
VERTEX
  5
AD8
  8
0
 62
     7
 10
669.49516299999993
 20
554.29496399999994
 30
0.0
  0
VERTEX
  5
AD9
  8
0
 62
     7
 10
667.49516299999993
 20
555.29496399999994
 30
0.0
  0
VERTEX
  5
ADA
  8
0
 62
     7
 10
667.49516299999993
 20
571.29496399999994
 30
0.0
  0
VERTEX
  5
ADB
  8
0
 62
     7
 10
665.49516299999993
 20
572.29496399999994
 30
0.0
  0
VERTEX
  5
ADC
  8
0
 62
     7
 10
669.49516299999993
 20
573.29496399999994
 30
0.0
  0
VERTEX
  5
ADD
  8
0
 62
     7
 10
667.49516299999993
 20
574.29496399999994
 30
0.0
  0
VERTEX
  5
ADE
  8
0
 62
     7
 10
667.49516299999993
 20
590.29495599999996
 30
0.0
  0
VERTEX
  5
ADF
  8
0
 62
     7
 10
665.49516299999993
 20
591.29495599999996
 30
0.0
  0
VERTEX
  5
AE0
  8
0
 62
     7
 10
669.49516299999993
 20
592.29495599999996
 30
0.0
  0
VERTEX
  5
AE1
  8
0
 62
     7
 10
667.49516299999993
 20
593.29495599999996
 30
0.0
  0
VERTEX
  5
AE2
  8
0
 62
     7
 10
667.49516299999993
 20
609.29495599999996
 30
0.0
  0
VERTEX
  5
AE3
  8
0
 62
     7
 10
665.49516299999993
 20
610.29495599999996
 30
0.0
  0
VERTEX
  5
AE4
  8
0
 62
     7
 10
669.49516299999993
 20
611.29495599999996
 30
0.0
  0
VERTEX
  5
AE5
  8
0
 62
     7
 10
667.49516299999993
 20
612.29495599999996
 30
0.0
  0
VERTEX
  5
AE6
  8
0
 62
     7
 10
667.49516299999993
 20
628.29495599999996
 30
0.0
  0
VERTEX
  5
AE7
  8
0
 62
     7
 10
665.49516299999993
 20
629.29495599999996
 30
0.0
  0
VERTEX
  5
AE8
  8
0
 62
     7
 10
669.49516299999993
 20
630.29495599999996
 30
0.0
  0
VERTEX
  5
AE9
  8
0
 62
     7
 10
667.49516299999993
 20
631.29495599999996
 30
0.0
  0
VERTEX
  5
AEA
  8
0
 62
     7
 10
667.49516299999993
 20
647.29495599999996
 30
0.0
  0
VERTEX
  5
AEB
  8
0
 62
     7
 10
665.49516299999993
 20
648.29495599999996
 30
0.0
  0
VERTEX
  5
AEC
  8
0
 62
     7
 10
669.49516299999993
 20
649.29495599999996
 30
0.0
  0
VERTEX
  5
AED
  8
0
 62
     7
 10
667.49516299999993
 20
650.29495599999996
 30
0.0
  0
VERTEX
  5
AEE
  8
0
 62
     7
 10
667.49516299999993
 20
666.29495599999996
 30
0.0
  0
VERTEX
  5
AEF
  8
0
 62
     7
 10
665.49516299999993
 20
667.29495599999996
 30
0.0
  0
VERTEX
  5
AF0
  8
0
 62
     7
 10
669.49516299999993
 20
668.29495599999996
 30
0.0
  0
VERTEX
  5
AF1
  8
0
 62
     7
 10
667.49516299999993
 20
669.29495599999996
 30
0.0
  0
VERTEX
  5
AF2
  8
0
 62
     7
 10
667.49516299999993
 20
685.29495599999996
 30
0.0
  0
VERTEX
  5
AF3
  8
0
 62
     7
 10
665.49516299999993
 20
686.29495599999996
 30
0.0
  0
VERTEX
  5
AF4
  8
0
 62
     7
 10
669.49516299999993
 20
687.29495599999996
 30
0.0
  0
VERTEX
  5
AF5
  8
0
 62
     7
 10
667.49516299999993
 20
688.29495599999996
 30
0.0
  0
VERTEX
  5
AF6
  8
0
 62
     7
 10
667.49516299999993
 20
704.29495599999996
 30
0.0
  0
VERTEX
  5
AF7
  8
0
 62
     7
 10
665.49516299999993
 20
705.29495599999996
 30
0.0
  0
VERTEX
  5
AF8
  8
0
 62
     7
 10
669.49516299999993
 20
706.29495599999996
 30
0.0
  0
VERTEX
  5
AF9
  8
0
 62
     7
 10
667.49516299999993
 20
707.29495599999996
 30
0.0
  0
VERTEX
  5
AFA
  8
0
 62
     7
 10
667.49516299999993
 20
723.29495599999996
 30
0.0
  0
VERTEX
  5
AFB
  8
0
 62
     7
 10
665.49516299999993
 20
724.29495599999996
 30
0.0
  0
VERTEX
  5
AFC
  8
0
 62
     7
 10
669.49516299999993
 20
725.29495599999996
 30
0.0
  0
VERTEX
  5
AFD
  8
0
 62
     7
 10
667.49516299999993
 20
726.29495599999996
 30
0.0
  0
VERTEX
  5
AFE
  8
0
 62
     7
 10
667.49516299999993
 20
742.29495599999996
 30
0.0
  0
VERTEX
  5
AFF
  8
0
 62
     7
 10
665.49516299999993
 20
743.29495599999996
 30
0.0
  0
VERTEX
  5
B00
  8
0
 62
     7
 10
669.49516299999993
 20
744.29495599999996
 30
0.0
  0
VERTEX
  5
B01
  8
0
 62
     7
 10
667.49516299999993
 20
745.29495599999996
 30
0.0
  0
VERTEX
  5
B02
  8
0
 62
     7
 10
667.49516299999993
 20
761.29495599999996
 30
0.0
  0
VERTEX
  5
B03
  8
0
 62
     7
 10
665.49516299999993
 20
762.29495599999996
 30
0.0
  0
VERTEX
  5
B04
  8
0
 62
     7
 10
669.49516299999993
 20
763.29495599999996
 30
0.0
  0
VERTEX
  5
B05
  8
0
 62
     7
 10
667.49516299999993
 20
764.29495599999996
 30
0.0
  0
VERTEX
  5
B06
  8
0
 62
     7
 10
667.49516299999993
 20
780.29495599999996
 30
0.0
  0
VERTEX
  5
B07
  8
0
 62
     7
 10
665.49516299999993
 20
781.29495599999996
 30
0.0
  0
VERTEX
  5
B08
  8
0
 62
     7
 10
669.49516299999993
 20
782.29495599999996
 30
0.0
  0
VERTEX
  5
B09
  8
0
 62
     7
 10
667.49516299999993
 20
783.29495599999996
 30
0.0
  0
VERTEX
  5
B0A
  8
0
 62
     7
 10
667.49516299999993
 20
799.29495599999996
 30
0.0
  0
VERTEX
  5
B0B
  8
0
 62
     7
 10
665.49516299999993
 20
800.29495599999996
 30
0.0
  0
VERTEX
  5
B0C
  8
0
 62
     7
 10
669.49516299999993
 20
801.29495599999996
 30
0.0
  0
VERTEX
  5
B0D
  8
0
 62
     7
 10
667.49516299999993
 20
802.29495599999984
 30
0.0
  0
VERTEX
  5
B0E
  8
0
 62
     7
 10
667.49516299999993
 20
818.29495599999996
 30
0.0
  0
VERTEX
  5
B0F
  8
0
 62
     7
 10
665.49516299999993
 20
819.29495599999984
 30
0.0
  0
VERTEX
  5
B10
  8
0
 62
     7
 10
669.49516299999993
 20
820.29495599999996
 30
0.0
  0
VERTEX
  5
B11
  8
0
 62
     7
 10
667.49516299999993
 20
821.29495599999996
 30
0.0
  0
VERTEX
  5
B12
  8
0
 62
     7
 10
667.49516299999993
 20
837.29495599999996
 30
0.0
  0
VERTEX
  5
B13
  8
0
 62
     7
 10
665.49516299999993
 20
838.29495599999996
 30
0.0
  0
VERTEX
  5
B14
  8
0
 62
     7
 10
669.49516299999993
 20
839.29495600000007
 30
0.0
  0
VERTEX
  5
B15
  8
0
 62
     7
 10
667.49516299999993
 20
840.29495600000007
 30
0.0
  0
VERTEX
  5
B16
  8
0
 62
     7
 10
667.49516299999993
 20
856.29495600000007
 30
0.0
  0
VERTEX
  5
B17
  8
0
 62
     7
 10
665.49516299999993
 20
857.29495600000007
 30
0.0
  0
VERTEX
  5
B18
  8
0
 62
     7
 10
669.49516299999993
 20
858.29495600000007
 30
0.0
  0
VERTEX
  5
B19
  8
0
 62
     7
 10
667.49516299999993
 20
859.29495599999996
 30
0.0
  0
VERTEX
  5
B1A
  8
0
 62
     7
 10
667.49516299999993
 20
875.29495600000007
 30
0.0
  0
VERTEX
  5
B1B
  8
0
 62
     7
 10
665.49516299999993
 20
876.29495599999996
 30
0.0
  0
VERTEX
  5
B1C
  8
0
 62
     7
 10
669.49516299999993
 20
877.29495599999996
 30
0.0
  0
VERTEX
  5
B1D
  8
0
 62
     7
 10
667.49516299999993
 20
878.29495599999996
 30
0.0
  0
VERTEX
  5
B1E
  8
0
 62
     7
 10
667.49516299999993
 20
894.29495599999996
 30
0.0
  0
VERTEX
  5
B1F
  8
0
 62
     7
 10
665.49516299999993
 20
895.29495599999996
 30
0.0
  0
VERTEX
  5
B20
  8
0
 62
     7
 10
669.49516299999993
 20
896.29495599999996
 30
0.0
  0
VERTEX
  5
B21
  8
0
 62
     7
 10
667.49516299999993
 20
897.29495600000007
 30
0.0
  0
VERTEX
  5
B22
  8
0
 62
     7
 10
667.49516299999993
 20
913.29495599999996
 30
0.0
  0
VERTEX
  5
B23
  8
0
 62
     7
 10
665.49516299999993
 20
914.29495600000007
 30
0.0
  0
VERTEX
  5
B24
  8
0
 62
     7
 10
669.49516299999993
 20
915.29495600000007
 30
0.0
  0
VERTEX
  5
B25
  8
0
 62
     7
 10
667.49516299999993
 20
916.29495600000007
 30
0.0
  0
VERTEX
  5
B26
  8
0
 62
     7
 10
667.49516299999993
 20
932.29495600000007
 30
0.0
  0
VERTEX
  5
B27
  8
0
 62
     7
 10
665.49516299999993
 20
933.29495600000007
 30
0.0
  0
VERTEX
  5
B28
  8
0
 62
     7
 10
669.49516299999993
 20
934.29495599999996
 30
0.0
  0
VERTEX
  5
B29
  8
0
 62
     7
 10
667.49516299999993
 20
935.29495599999996
 30
0.0
  0
VERTEX
  5
B2A
  8
0
 62
     7
 10
667.49516299999993
 20
951.29495599999996
 30
0.0
  0
VERTEX
  5
B2B
  8
0
 62
     7
 10
665.49516299999993
 20
952.29495599999996
 30
0.0
  0
VERTEX
  5
B2C
  8
0
 62
     7
 10
669.49516299999993
 20
953.29495599999996
 30
0.0
  0
VERTEX
  5
B2D
  8
0
 62
     7
 10
667.49516299999993
 20
954.29495599999996
 30
0.0
  0
VERTEX
  5
B2E
  8
0
 62
     7
 10
667.49516299999993
 20
970.29498699999988
 30
0.0
  0
VERTEX
  5
B2F
  8
0
 62
     7
 10
665.49516299999993
 20
971.29498699999988
 30
0.0
  0
VERTEX
  5
B30
  8
0
 62
     7
 10
669.49516299999993
 20
972.29498699999976
 30
0.0
  0
VERTEX
  5
B31
  8
0
 62
     7
 10
667.49516299999993
 20
973.29498699999976
 30
0.0
  0
VERTEX
  5
B32
  8
0
 62
     7
 10
667.49516299999993
 20
989.29498699999976
 30
0.0
  0
VERTEX
  5
B33
  8
0
 62
     7
 10
665.49516299999993
 20
990.29498699999976
 30
0.0
  0
VERTEX
  5
B34
  8
0
 62
     7
 10
669.49516299999993
 20
991.29498699999976
 30
0.0
  0
VERTEX
  5
B35
  8
0
 62
     7
 10
667.49516299999993
 20
992.29498699999976
 30
0.0
  0
VERTEX
  5
B36
  8
0
 62
     7
 10
667.49516299999993
 20
1008.294986999999
 30
0.0
  0
VERTEX
  5
B37
  8
0
 62
     7
 10
665.49516299999993
 20
1009.294986999999
 30
0.0
  0
VERTEX
  5
B38
  8
0
 62
     7
 10
669.49516299999993
 20
1010.294986999999
 30
0.0
  0
VERTEX
  5
B39
  8
0
 62
     7
 10
667.49516299999993
 20
1011.294987
 30
0.0
  0
VERTEX
  5
B3A
  8
0
 62
     7
 10
667.49516299999993
 20
1027.294987
 30
0.0
  0
VERTEX
  5
B3B
  8
0
 62
     7
 10
665.49516299999993
 20
1028.2949869999991
 30
0.0
  0
VERTEX
  5
B3C
  8
0
 62
     7
 10
669.49516299999993
 20
1029.2949869999991
 30
0.0
  0
VERTEX
  5
B3D
  8
0
 62
     7
 10
667.49516299999993
 20
1030.294987
 30
0.0
  0
VERTEX
  5
B3E
  8
0
 62
     7
 10
667.49516299999993
 20
1046.294987
 30
0.0
  0
VERTEX
  5
B3F
  8
0
 62
     7
 10
665.49516299999993
 20
1047.294987
 30
0.0
  0
VERTEX
  5
B40
  8
0
 62
     7
 10
669.49516299999993
 20
1048.294987
 30
0.0
  0
VERTEX
  5
B41
  8
0
 62
     7
 10
667.49516299999993
 20
1049.294987
 30
0.0
  0
VERTEX
  5
B42
  8
0
 62
     7
 10
667.49516299999993
 20
1064.642094
 30
0.0
  0
SEQEND
  5
B43
  8
0
 62
     7
  0
LINE
  5
776
  8
0
  6
DASHDOT
 62
     7
 10
577.49473599999988
 20
1051.8714640000001
 30
0.0
 11
577.49473599999988
 21
1066.1708410000001
 31
0.0
  0
LINE
  5
777
  8
0
  6
DASHDOT
 62
     7
 10
577.49514800000009
 20
443.870812
 30
0.0
 11
577.49514800000009
 21
458.17073599999998
 31
0.0
  0
LINE
  5
778
  8
0
  6
DASHDOT
 62
     7
 10
577.49465899999996
 20
657.87071600000002
 30
0.0
 11
577.49465899999996
 21
672.17099400000006
 31
0.0
  0
LINE
  5
779
  8
0
  6
DASHDOT
 62
     7
 10
680.48652600000003
 20
755.02081699999985
 30
0.0
 11
474.06306599999988
 21
755.02081699999985
 31
0.0
  0
LINE
  5
77A
  8
0
  6
DASHDOT
 62
     7
 10
577.49516299999993
 20
427.23224099999999
 30
0.0
 11
577.49516299999993
 21
1096.289921
 31
0.0
  0
LINE
  5
77B
  8
0
  6
DASHDOT
 62
     7
 10
498.74516299999988
 20
471.17854299999988
 30
0.0
 11
498.74516299999988
 21
1070.386906
 31
0.0
  0
LINE
  5
77C
  8
0
  6
DASHDOT
 62
     7
 10
669.81483500000002
 20
930.02081699999985
 30
0.0
 11
482.21765499999998
 21
930.02081699999985
 31
0.0
  0
LINE
  5
77D
  8
0
  6
DASHDOT
 62
     7
 10
656.24516299999993
 20
472.86354799999998
 30
0.0
 11
656.24516299999993
 21
1069.1750529999999
 31
0.0
  0
LINE
  5
77E
  8
0
  6
DASHDOT
 62
     7
 10
670.09565699999996
 20
580.02081699999985
 30
0.0
 11
483.90265999999991
 21
580.02081699999985
 31
0.0
  0
LINE
  5
77F
  8
0
 62
     6
 10
612.49481199999991
 20
559.26428599999997
 30
0.0
 11
612.49481199999991
 21
560.26428600000008
 31
0.0
  0
CIRCLE
  5
780
  8
0
 62
     7
 10
498.74516299999988
 20
930.02081699999985
 30
0.0
 40
4.0
  0
CIRCLE
  5
781
  8
0
 62
     7
 10
656.24516299999993
 20
930.02081699999985
 30
0.0
 40
4.0
  0
CIRCLE
  5
782
  8
0
 62
     7
 10
498.74516299999988
 20
580.02081699999985
 30
0.0
 40
4.0
  0
CIRCLE
  5
783
  8
0
 62
     7
 10
656.24516299999993
 20
580.02081699999985
 30
0.0
 40
4.0
  0
POLYLINE
  5
784
  8
0
 62
     7
 66
     1
 10
0.0
 20
0.0
 30
0.0
  0
VERTEX
  5
B44
  8
0
 62
     7
 10
667.49516299999993
 20
1064.642094
 30
0.0
  0
VERTEX
  5
B45
  8
0
 62
     7
 10
651.49516299999993
 20
1064.642094
 30
0.0
  0
VERTEX
  5
B46
  8
0
 62
     7
 10
650.49516299999993
 20
1062.642094
 30
0.0
  0
VERTEX
  5
B47
  8
0
 62
     7
 10
649.49516299999993
 20
1066.642094
 30
0.0
  0
VERTEX
  5
B48
  8
0
 62
     7
 10
648.49516299999993
 20
1064.642094
 30
0.0
  0
VERTEX
  5
B49
  8
0
 62
     7
 10
632.49516299999993
 20
1064.642094
 30
0.0
  0
VERTEX
  5
B4A
  8
0
 62
     7
 10
631.49516299999993
 20
1062.642094
 30
0.0
  0
VERTEX
  5
B4B
  8
0
 62
     7
 10
630.49516299999993
 20
1066.642094
 30
0.0
  0
VERTEX
  5
B4C
  8
0
 62
     7
 10
629.49516299999993
 20
1064.642094
 30
0.0
  0
VERTEX
  5
B4D
  8
0
 62
     7
 10
613.49516299999993
 20
1064.642094
 30
0.0
  0
VERTEX
  5
B4E
  8
0
 62
     7
 10
612.49516299999993
 20
1062.642094
 30
0.0
  0
VERTEX
  5
B4F
  8
0
 62
     7
 10
611.49516299999993
 20
1066.642094
 30
0.0
  0
VERTEX
  5
B50
  8
0
 62
     7
 10
610.49516299999993
 20
1064.642094
 30
0.0
  0
VERTEX
  5
B51
  8
0
 62
     7
 10
594.49516299999993
 20
1064.642094
 30
0.0
  0
VERTEX
  5
B52
  8
0
 62
     7
 10
593.49516299999993
 20
1062.642094
 30
0.0
  0
VERTEX
  5
B53
  8
0
 62
     7
 10
592.49516299999993
 20
1066.642094
 30
0.0
  0
VERTEX
  5
B54
  8
0
 62
     7
 10
591.49516299999993
 20
1064.642094
 30
0.0
  0
VERTEX
  5
B55
  8
0
 62
     7
 10
575.49516299999993
 20
1064.642094
 30
0.0
  0
VERTEX
  5
B56
  8
0
 62
     7
 10
574.49516299999993
 20
1062.642094
 30
0.0
  0
VERTEX
  5
B57
  8
0
 62
     7
 10
573.49516299999993
 20
1066.642094
 30
0.0
  0
VERTEX
  5
B58
  8
0
 62
     7
 10
572.49516299999993
 20
1064.642094
 30
0.0
  0
VERTEX
  5
B59
  8
0
 62
     7
 10
556.49516299999993
 20
1064.642094
 30
0.0
  0
VERTEX
  5
B5A
  8
0
 62
     7
 10
555.49516299999993
 20
1062.642094
 30
0.0
  0
VERTEX
  5
B5B
  8
0
 62
     7
 10
554.49516299999993
 20
1066.642094
 30
0.0
  0
VERTEX
  5
B5C
  8
0
 62
     7
 10
553.49516299999993
 20
1064.642094
 30
0.0
  0
VERTEX
  5
B5D
  8
0
 62
     7
 10
537.49516299999993
 20
1064.642094
 30
0.0
  0
VERTEX
  5
B5E
  8
0
 62
     7
 10
536.49516299999993
 20
1062.642094
 30
0.0
  0
VERTEX
  5
B5F
  8
0
 62
     7
 10
535.49516299999993
 20
1066.642094
 30
0.0
  0
VERTEX
  5
B60
  8
0
 62
     7
 10
534.49516299999993
 20
1064.642094
 30
0.0
  0
VERTEX
  5
B61
  8
0
 62
     7
 10
518.49516299999993
 20
1064.642094
 30
0.0
  0
VERTEX
  5
B62
  8
0
 62
     7
 10
517.49516299999993
 20
1062.642094
 30
0.0
  0
VERTEX
  5
B63
  8
0
 62
     7
 10
516.49516299999993
 20
1066.642094
 30
0.0
  0
VERTEX
  5
B64
  8
0
 62
     7
 10
515.49516299999993
 20
1064.642094
 30
0.0
  0
VERTEX
  5
B65
  8
0
 62
     7
 10
499.49516299999999
 20
1064.642094
 30
0.0
  0
VERTEX
  5
B66
  8
0
 62
     7
 10
498.49516299999999
 20
1062.642094
 30
0.0
  0
VERTEX
  5
B67
  8
0
 62
     7
 10
497.49516299999988
 20
1066.642094
 30
0.0
  0
VERTEX
  5
B68
  8
0
 62
     7
 10
496.49516299999988
 20
1064.642094
 30
0.0
  0
VERTEX
  5
B69
  8
0
 62
     7
 10
487.49516299999988
 20
1064.642094
 30
0.0
  0
SEQEND
  5
B6A
  8
0
 62
     7
  0
POLYLINE
  5
7AC
  8
0
 62
     7
 66
     1
 10
0.0
 20
0.0
 30
0.0
  0
VERTEX
  5
B6B
  8
0
 62
     7
 10
667.49516299999993
 20
441.294961
 30
0.0
  0
VERTEX
  5
B6C
  8
0
 62
     7
 10
651.49516299999993
 20
441.294961
 30
0.0
  0
VERTEX
  5
B6D
  8
0
 62
     7
 10
650.49516299999993
 20
439.294961
 30
0.0
  0
VERTEX
  5
B6E
  8
0
 62
     7
 10
649.49516299999993
 20
443.294961
 30
0.0
  0
VERTEX
  5
B6F
  8
0
 62
     7
 10
648.49516299999993
 20
441.294961
 30
0.0
  0
VERTEX
  5
B70
  8
0
 62
     7
 10
632.49516299999993
 20
441.294961
 30
0.0
  0
VERTEX
  5
B71
  8
0
 62
     7
 10
631.49516299999993
 20
439.294961
 30
0.0
  0
VERTEX
  5
B72
  8
0
 62
     7
 10
630.49516299999993
 20
443.294961
 30
0.0
  0
VERTEX
  5
B73
  8
0
 62
     7
 10
629.49516299999993
 20
441.294961
 30
0.0
  0
VERTEX
  5
B74
  8
0
 62
     7
 10
613.49516299999993
 20
441.294961
 30
0.0
  0
VERTEX
  5
B75
  8
0
 62
     7
 10
612.49516299999993
 20
439.294961
 30
0.0
  0
VERTEX
  5
B76
  8
0
 62
     7
 10
611.49516299999993
 20
443.294961
 30
0.0
  0
VERTEX
  5
B77
  8
0
 62
     7
 10
610.49516299999993
 20
441.294961
 30
0.0
  0
VERTEX
  5
B78
  8
0
 62
     7
 10
594.49516299999993
 20
441.294961
 30
0.0
  0
VERTEX
  5
B79
  8
0
 62
     7
 10
593.49516299999993
 20
439.294961
 30
0.0
  0
VERTEX
  5
B7A
  8
0
 62
     7
 10
592.49516299999993
 20
443.294961
 30
0.0
  0
VERTEX
  5
B7B
  8
0
 62
     7
 10
591.49516299999993
 20
441.294961
 30
0.0
  0
VERTEX
  5
B7C
  8
0
 62
     7
 10
575.49516299999993
 20
441.294961
 30
0.0
  0
VERTEX
  5
B7D
  8
0
 62
     7
 10
574.49516299999993
 20
439.294961
 30
0.0
  0
VERTEX
  5
B7E
  8
0
 62
     7
 10
573.49516299999993
 20
443.294961
 30
0.0
  0
VERTEX
  5
B7F
  8
0
 62
     7
 10
572.49516299999993
 20
441.294961
 30
0.0
  0
VERTEX
  5
B80
  8
0
 62
     7
 10
556.49516299999993
 20
441.294961
 30
0.0
  0
VERTEX
  5
B81
  8
0
 62
     7
 10
555.49516299999993
 20
439.294961
 30
0.0
  0
VERTEX
  5
B82
  8
0
 62
     7
 10
554.49516299999993
 20
443.294961
 30
0.0
  0
VERTEX
  5
B83
  8
0
 62
     7
 10
553.49516299999993
 20
441.294961
 30
0.0
  0
VERTEX
  5
B84
  8
0
 62
     7
 10
537.49516299999993
 20
441.294961
 30
0.0
  0
VERTEX
  5
B85
  8
0
 62
     7
 10
536.49516299999993
 20
439.294961
 30
0.0
  0
VERTEX
  5
B86
  8
0
 62
     7
 10
535.49516299999993
 20
443.294961
 30
0.0
  0
VERTEX
  5
B87
  8
0
 62
     7
 10
534.49516299999993
 20
441.294961
 30
0.0
  0
VERTEX
  5
B88
  8
0
 62
     7
 10
518.49516299999993
 20
441.294961
 30
0.0
  0
VERTEX
  5
B89
  8
0
 62
     7
 10
517.49516299999993
 20
439.294961
 30
0.0
  0
VERTEX
  5
B8A
  8
0
 62
     7
 10
516.49516299999993
 20
443.294961
 30
0.0
  0
VERTEX
  5
B8B
  8
0
 62
     7
 10
515.49516299999993
 20
441.294961
 30
0.0
  0
VERTEX
  5
B8C
  8
0
 62
     7
 10
499.49516299999999
 20
441.294961
 30
0.0
  0
VERTEX
  5
B8D
  8
0
 62
     7
 10
498.49516299999999
 20
439.294961
 30
0.0
  0
VERTEX
  5
B8E
  8
0
 62
     7
 10
497.49516299999988
 20
443.294961
 30
0.0
  0
VERTEX
  5
B8F
  8
0
 62
     7
 10
496.49516299999988
 20
441.294961
 30
0.0
  0
VERTEX
  5
B90
  8
0
 62
     7
 10
487.49516299999988
 20
441.294961
 30
0.0
  0
SEQEND
  5
B91
  8
0
 62
     7
  0
LINE
  5
7D4
  8
0
  6
DASHDOT
 62
     7
 10
672.00535600000001
 20
486.26437799999991
 30
0.0
 11
484.629707
 21
486.26437799999991
 31
0.0
  0
LINE
  5
7D5
  8
0
 62
     7
 10
499.99516299999988
 20
506.02080899999987
 30
0.0
 11
499.99516299999988
 21
551.02080899999987
 31
0.0
  0
LINE
  5
7D6
  8
0
 62
     7
 10
654.99516299999993
 20
506.02080899999987
 30
0.0
 11
654.99516299999993
 21
551.02080899999987
 31
0.0
  0
LINE
  5
7D7
  8
0
 62
     7
 10
639.99516299999993
 20
1019.020817
 30
0.0
 11
514.99516299999993
 21
1019.020817
 31
0.0
  0
LINE
  5
7D8
  8
0
 62
     7
 10
639.99516299999993
 20
944.02081699999997
 30
0.0
 11
514.99516299999993
 21
944.02081699999997
 31
0.0
  0
LINE
  5
7D9
  8
0
 62
     7
 10
639.99516299999993
 20
876.02081699999997
 30
0.0
 11
514.99516299999993
 21
876.02081699999997
 31
0.0
  0
LINE
  5
7DA
  8
0
 62
     7
 10
639.99516299999993
 20
801.02081699999997
 30
0.0
 11
514.99516299999993
 21
801.02081699999997
 31
0.0
  0
LINE
  5
7DB
  8
0
 62
     7
 10
639.99516299999993
 20
709.02081699999985
 30
0.0
 11
514.99516299999993
 21
709.02081699999985
 31
0.0
  0
LINE
  5
7DC
  8
0
 62
     7
 10
639.99516299999993
 20
634.02081699999985
 30
0.0
 11
514.99516299999993
 21
634.02081699999985
 31
0.0
  0
LINE
  5
7DD
  8
0
 62
     7
 10
639.99516299999993
 20
566.02080899999999
 30
0.0
 11
514.99516299999993
 21
566.02080899999999
 31
0.0
  0
LINE
  5
7DE
  8
0
 62
     7
 10
639.99516299999993
 20
491.02080899999999
 30
0.0
 11
514.99516299999993
 21
491.02080899999999
 31
0.0
  0
LINE
  5
7DF
  8
0
 62
     7
 10
654.99516299999993
 20
959.02081699999997
 30
0.0
 11
654.99516299999993
 21
1004.020817
 31
0.0
  0
LINE
  5
7E0
  8
0
 62
     7
 10
499.99516299999988
 20
959.02081699999997
 30
0.0
 11
499.99516299999988
 21
1004.020817
 31
0.0
  0
LINE
  5
7E1
  8
0
 62
     7
 10
654.99516299999993
 20
816.02081699999997
 30
0.0
 11
654.99516299999993
 21
861.02081699999985
 31
0.0
  0
LINE
  5
7E2
  8
0
 62
     7
 10
499.99516299999988
 20
816.02081699999997
 30
0.0
 11
499.99516299999988
 21
861.02081699999985
 31
0.0
  0
LINE
  5
7E3
  8
0
 62
     7
 10
654.99516299999993
 20
649.02081699999985
 30
0.0
 11
654.99516299999993
 21
694.02081699999997
 31
0.0
  0
LINE
  5
7E4
  8
0
 62
     7
 10
499.99516299999988
 20
649.02081699999985
 30
0.0
 11
499.99516299999988
 21
694.02081699999997
 31
0.0
  0
ARC
  5
7E5
  8
0
 62
     7
 10
514.99516299999993
 20
551.02080899999987
 30
0.0
 40
15.0
 50
90.0
 51
180.00000299999991
  0
ARC
  5
7E6
  8
0
 62
     7
 10
514.99516299999993
 20
506.02080899999987
 30
0.0
 40
15.0
 50
180.00000299999991
 51
270.00000499999987
  0
ARC
  5
7E7
  8
0
 62
     7
 10
639.99516299999993
 20
551.02080899999987
 30
0.0
 40
15.0
 50
0.000001
 51
90.0
  0
ARC
  5
7E8
  8
0
 62
     7
 10
639.99516299999993
 20
506.02080899999987
 30
0.0
 40
15.0
 50
270.00000499999987
 51
0.000001
  0
ARC
  5
7E9
  8
0
 62
     7
 10
639.99516299999993
 20
649.02081699999985
 30
0.0
 40
15.0
 50
270.00000499999987
 51
0.000001
  0
ARC
  5
7EA
  8
0
 62
     7
 10
639.99516299999993
 20
694.02081699999997
 30
0.0
 40
15.0
 50
0.000001
 51
90.0
  0
ARC
  5
7EB
  8
0
 62
     7
 10
514.99516299999993
 20
694.02081699999997
 30
0.0
 40
15.0
 50
90.0
 51
180.00000299999991
  0
ARC
  5
7EC
  8
0
 62
     7
 10
514.99516299999993
 20
649.02081699999985
 30
0.0
 40
15.0
 50
180.00000299999991
 51
270.00000499999987
  0
ARC
  5
7ED
  8
0
 62
     7
 10
514.99516299999993
 20
816.02081699999997
 30
0.0
 40
15.0
 50
180.00000299999991
 51
270.00000499999987
  0
ARC
  5
7EE
  8
0
 62
     7
 10
639.99516299999993
 20
816.02081699999997
 30
0.0
 40
15.0
 50
270.00000499999987
 51
0.000001
  0
ARC
  5
7EF
  8
0
 62
     7
 10
639.99516299999993
 20
861.02081699999985
 30
0.0
 40
15.0
 50
0.000001
 51
90.0
  0
ARC
  5
7F0
  8
0
 62
     7
 10
514.99516299999993
 20
861.02081699999985
 30
0.0
 40
15.0
 50
90.0
 51
180.00000299999991
  0
ARC
  5
7F1
  8
0
 62
     7
 10
514.99516299999993
 20
959.02081699999997
 30
0.0
 40
15.0
 50
180.00000299999991
 51
270.00000499999987
  0
ARC
  5
7F2
  8
0
 62
     7
 10
639.99516299999993
 20
959.02081699999997
 30
0.0
 40
15.0
 50
270.00000499999987
 51
0.000001
  0
ARC
  5
7F3
  8
0
 62
     7
 10
639.99516299999993
 20
1004.020817
 30
0.0
 40
15.0
 50
0.000001
 51
90.0
  0
ARC
  5
7F4
  8
0
 62
     7
 10
514.99516299999993
 20
1004.020817
 30
0.0
 40
15.0
 50
90.0
 51
180.00000299999991
  0
LINE
  5
7F5
  8
0
 62
     7
 10
656.2451779999999
 20
1154.9126020000001
 30
0.0
 11
644.42745999999988
 21
1156.9963419999999
 31
0.0
  0
LINE
  5
7F6
  8
0
 62
     7
 10
656.2451779999999
 20
1154.9126020000001
 30
0.0
 11
644.42745999999988
 21
1152.828861
 31
0.0
  0
LINE
  5
7F7
  8
0
 62
     7
 10
498.7451779999999
 20
1154.9126020000001
 30
0.0
 11
510.56286599999999
 21
1152.828861
 31
0.0
  0
LINE
  5
7F8
  8
0
 62
     7
 10
498.7451779999999
 20
1154.9126020000001
 30
0.0
 11
510.56286599999999
 21
1156.9963419999999
 31
0.0
  0
LINE
  5
7F9
  8
0
 62
     7
 10
656.2451779999999
 20
1154.9126020000001
 30
0.0
 11
498.7451779999999
 21
1154.9126020000001
 31
0.0
  0
LINE
  5
7FA
  8
0
 62
     7
 10
656.24514799999997
 20
1162.9126020000001
 30
0.0
 11
656.2451779999999
 21
1069.1750529999999
 31
0.0
  0
LINE
  5
7FB
  8
0
 62
     7
 10
498.74514799999997
 20
1162.9126020000001
 30
0.0
 11
498.7451779999999
 21
1070.386906
 31
0.0
  0
LINE
  5
7FC
  8
0
 62
     7
 10
660.2451779999999
 20
352.14952499999998
 30
0.0
 11
672.06286599999999
 21
350.06575400000003
 31
0.0
  0
LINE
  5
7FD
  8
0
 62
     7
 10
660.2451779999999
 20
352.14952499999998
 30
0.0
 11
672.06286599999999
 21
354.23331100000001
 31
0.0
  0
LINE
  5
7FE
  8
0
 62
     7
 10
652.2451779999999
 20
352.14952499999998
 30
0.0
 11
640.42745999999988
 21
354.233295
 31
0.0
  0
LINE
  5
7FF
  8
0
 62
     7
 10
652.2451779999999
 20
352.14952499999998
 30
0.0
 11
640.42745999999988
 21
350.06573900000001
 31
0.0
  0
LINE
  5
800
  8
0
 62
     7
 10
660.2451779999999
 20
352.14952499999998
 30
0.0
 11
496.8617549999999
 21
352.14952499999998
 31
0.0
  0
LINE
  5
801
  8
0
 62
     7
 10
660.2451779999999
 20
344.14952499999998
 30
0.0
 11
660.24514799999997
 21
580.02081699999985
 31
0.0
  0
LINE
  5
802
  8
0
 62
     7
 10
652.2451779999999
 20
344.14952499999998
 30
0.0
 11
652.24514799999997
 21
580.02081699999985
 31
0.0
  0
INSERT
  5
9A4
  8
0
  2
BLOCK0
 10
110.1078989999999
 20
98.607554000000022
 30
0.0
  0
INSERT
  5
9A5
  8
0
  2
BLOCK1
 10
110.1078989999999
 20
98.607554000000022
 30
0.0
  0
INSERT
  5
9A6
  8
0
  2
BLOCK2
 10
110.1078989999999
 20
98.607554000000022
 30
0.0
  0
INSERT
  5
9A7
  8
0
  2
BLOCK3
 10
110.1078989999999
 20
98.607554000000022
 30
0.0
  0
INSERT
  5
9A8
  8
0
  2
BLOCK4
 10
110.1078989999999
 20
98.607554000000022
 30
0.0
  0
INSERT
  5
9A9
  8
0
  2
BLOCK5
 10
110.1078989999999
 20
98.607554000000022
 30
0.0
  0
INSERT
  5
9AA
  8
0
  2
BLOCK6
 10
110.1078989999999
 20
98.607554000000022
 30
0.0
  0
INSERT
  5
9AB
  8
0
  2
BLOCK7
 10
110.1078989999999
 20
98.607554000000022
 30
0.0
  0
INSERT
  5
9AC
  8
0
  2
BLOCK8
 10
110.1078989999999
 20
98.607554000000022
 30
0.0
  0
INSERT
  5
9AD
  8
0
  2
BLOCK9
 10
110.1078989999999
 20
98.607554000000022
 30
0.0
  0
INSERT
  5
9AE
  8
0
  2
BLOCK10
 10
110.1078989999999
 20
98.607554000000022
 30
0.0
  0
INSERT
  5
9AF
  8
0
  2
BLOCK11
 10
110.1078989999999
 20
98.607554000000022
 30
0.0
  0
INSERT
  5
9B0
  8
0
  2
BLOCK12
 10
110.1078989999999
 20
98.607554000000022
 30
0.0
  0
INSERT
  5
9B1
  8
0
  2
BLOCK13
 10
110.1078989999999
 20
98.607554000000022
 30
0.0
  0
INSERT
  5
9B2
  8
0
  2
BLOCK14
 10
110.1078989999999
 20
98.607554000000022
 30
0.0
  0
INSERT
  5
9B3
  8
0
  2
BLOCK15
 10
-223.9034879999999
 20
106.4577909999999
 30
0.0
 50
90.0
  0
INSERT
  5
9B4
  8
0
  2
BLOCK16
 10
-223.9034879999999
 20
106.4577909999999
 30
0.0
 50
90.0
  0
INSERT
  5
9B5
  8
0
  2
BLOCK17
 10
-223.9034879999999
 20
106.4577909999999
 30
0.0
 50
90.0
  0
INSERT
  5
9B6
  8
0
  2
BLOCK18
 10
-223.9034879999999
 20
106.4577909999999
 30
0.0
 50
90.0
  0
INSERT
  5
9B7
  8
0
  2
BLOCK19
 10
-223.9034879999999
 20
106.4577909999999
 30
0.0
 50
90.0
  0
INSERT
  5
9B8
  8
0
  2
BLOCK20
 10
-223.9034879999999
 20
106.4577909999999
 30
0.0
 50
90.0
  0
INSERT
  5
9B9
  8
0
  2
BLOCK21
 10
-223.9034879999999
 20
106.4577909999999
 30
0.0
 50
90.0
  0
INSERT
  5
9BA
  8
0
  2
BLOCK22
 10
-223.9034879999999
 20
106.4577909999999
 30
0.0
 50
90.0
  0
INSERT
  5
9BB
  8
0
  2
BLOCK23
 10
-223.9034879999999
 20
106.4577909999999
 30
0.0
 50
90.0
  0
INSERT
  5
9BC
  8
0
  2
BLOCK24
 10
-223.9034879999999
 20
106.4577909999999
 30
0.0
 50
90.0
  0
INSERT
  5
9BD
  8
0
  2
BLOCK25
 10
445.15685999999988
 20
449.78375599999993
 30
0.0
 50
90.0
  0
INSERT
  5
9BE
  8
0
  2
BLOCK26
 10
445.15685999999988
 20
449.78375599999993
 30
0.0
 50
90.0
  0
INSERT
  5
9BF
  8
0
  2
BLOCK27
 10
445.15685999999988
 20
449.78375599999993
 30
0.0
 50
90.0
  0
INSERT
  5
9C0
  8
0
  2
BLOCK28
 10
445.15685999999988
 20
449.78375599999993
 30
0.0
 50
90.0
  0
INSERT
  5
9C1
  8
0
  2
BLOCK29
 10
445.15685999999988
 20
449.78375599999993
 30
0.0
 50
90.0
  0
INSERT
  5
9C2
  8
0
  2
BLOCK30
 10
445.15685999999988
 20
449.78375599999993
 30
0.0
 50
90.0
  0
INSERT
  5
9C3
  8
0
  2
BLOCK31
 10
445.15685999999988
 20
449.78375599999993
 30
0.0
 50
90.0
  0
INSERT
  5
9C4
  8
0
  2
BLOCK32
 10
445.15685999999988
 20
449.78375599999993
 30
0.0
 50
90.0
  0
INSERT
  5
9C5
  8
0
  2
BLOCK33
 10
445.15685999999988
 20
449.78375599999993
 30
0.0
 50
90.0
  0
INSERT
  5
9C6
  8
0
  2
BLOCK34
 10
445.15685999999988
 20
449.78375599999993
 30
0.0
 50
90.0
  0
INSERT
  5
9C7
  8
0
  2
BLOCK35
 10
445.15685999999988
 20
449.78375599999993
 30
0.0
 50
90.0
  0
INSERT
  5
9C8
  8
0
  2
BLOCK36
 10
445.15685999999988
 20
449.78375599999993
 30
0.0
 50
90.0
  0
INSERT
  5
9C9
  8
0
  2
BLOCK37
 10
445.15685999999988
 20
449.78375599999993
 30
0.0
 50
90.0
  0
INSERT
  5
9CA
  8
0
  2
BLOCK38
 10
445.15685999999988
 20
449.78375599999993
 30
0.0
 50
90.0
  0
INSERT
  5
9CB
  8
0
  2
BLOCK39
 10
445.15685999999988
 20
449.78375599999993
 30
0.0
 50
90.0
  0
INSERT
  5
9CC
  8
0
  2
BLOCK40
 10
445.15685999999988
 20
449.78375599999993
 30
0.0
 50
90.0
  0
INSERT
  5
9CD
  8
0
  2
BLOCK41
 10
445.15685999999988
 20
449.78375599999993
 30
0.0
 50
90.0
  0
INSERT
  5
9CE
  8
0
  2
BLOCK42
 10
445.15685999999988
 20
449.78375599999993
 30
0.0
 50
90.0
  0
INSERT
  5
9CF
  8
0
  2
BLOCK43
 10
445.15685999999988
 20
449.78375599999993
 30
0.0
 50
90.0
  0
INSERT
  5
9D0
  8
0
  2
BLOCK44
 10
-7.1571959999999999
 20
314.91682099999991
 30
0.0
 50
180.0
  0
INSERT
  5
9D1
  8
0
  2
BLOCK45
 10
-7.1571959999999999
 20
314.91682099999991
 30
0.0
 50
180.0
  0
INSERT
  5
9D2
  8
0
  2
BLOCK46
 10
-7.1571959999999999
 20
314.91682099999991
 30
0.0
 50
180.0
  0
INSERT
  5
9D3
  8
0
  2
BLOCK47
 10
-7.1571959999999999
 20
314.91682099999991
 30
0.0
 50
180.0
  0
INSERT
  5
9D4
  8
0
  2
BLOCK48
 10
-7.1571959999999999
 20
314.91682099999991
 30
0.0
 50
180.0
  0
INSERT
  5
9D5
  8
0
  2
BLOCK49
 10
-7.1571959999999999
 20
314.91682099999991
 30
0.0
 50
180.0
  0
INSERT
  5
9D6
  8
0
  2
BLOCK50
 10
-7.1571959999999999
 20
314.91682099999991
 30
0.0
 50
180.0
  0
VIEWPORT
  5
803
 67
     1
  8
0
 62
     0
 10
0.0
 20
0.0
 30
0.0
 40
1000.0
 41
1000.0
 68
     1
 69
     1
1001
ACAD
1000
MVIEW
1002
{
1070
    16
1010
0.0
1020
0.0
1030
0.0
1010
0.0
1020
0.0
1030
1.0
1040
0.0
1040
1000.0
1040
0.0
1040
0.0
1040
50.0
1040
0.0
1040
0.0
1070
     0
1070
   100
1070
     1
1070
     1
1070
     0
1070
     0
1070
     0
1070
     0
1040
0.0
1040
0.0
1040
0.0
1040
1.0
1040
1.0
1040
1.0
1040
1.0
1070
     0
1002
{
1002
}
1002
}
  0
ENDSEC
  0
EOF
