  0
SECTION
  2
HEADER
  9
$ACADVER
  1
AC1009
  9
$INSBASE
 10
0.0
 20
0.0
 30
0.0
  9
$EXTMIN
 10
-372.56205460000001
 20
349.49522619685018
 30
0.0
  9
$EXTMAX
 10
1014.474679999999
 20
827.6130619999999
 30
0.0
  9
$LIMMIN
 10
0.0
 20
0.0
  9
$LIMMAX
 10
420.0
 20
297.0
  9
$ORTHOMODE
 70
     0
  9
$REGENMODE
 70
     1
  9
$FILLMODE
 70
     1
  9
$QTEXTMODE
 70
     0
  9
$MIRRTEXT
 70
     1
  9
$DRAGMODE
 70
     2
  9
$LTSCALE
 40
1.0
  9
$OSMODE
 70
    47
  9
$ATTMODE
 70
     1
  9
$TEXTSIZE
 40
0.0
  9
$TRACEWID
 40
1.0
  9
$TEXTSTYLE
  7
STANDARD
  9
$CLAYER
  8
0
  9
$CELTYPE
  6
BYLAYER
  9
$CECOLOR
 62
   256
  9
$DIMSCALE
 40
1.0
  9
$DIMASZ
 40
2.5
  9
$DIMEXO
 40
0.625
  9
$DIMDLI
 40
3.75
  9
$DIMRND
 40
0.0
  9
$DIMDLE
 40
0.0
  9
$DIMEXE
 40
1.25
  9
$DIMTP
 40
0.0
  9
$DIMTM
 40
0.0
  9
$DIMTXT
 40
2.5
  9
$DIMCEN
 40
2.5
  9
$DIMTSZ
 40
0.0
  9
$DIMTOL
 70
     0
  9
$DIMLIM
 70
     0
  9
$DIMTIH
 70
     0
  9
$DIMTOH
 70
     0
  9
$DIMSE1
 70
     0
  9
$DIMSE2
 70
     0
  9
$DIMTAD
 70
     1
  9
$DIMZIN
 70
     8
  9
$DIMBLK
  1

  9
$DIMASO
 70
     1
  9
$DIMSHO
 70
     1
  9
$DIMPOST
  1

  9
$DIMAPOST
  1

  9
$DIMALT
 70
     0
  9
$DIMALTD
 70
     3
  9
$DIMALTF
 40
0.03937
  9
$DIMLFAC
 40
1.0
  9
$DIMTOFL
 70
     1
  9
$DIMTVP
 40
0.0
  9
$DIMTIX
 70
     0
  9
$DIMSOXD
 70
     0
  9
$DIMSAH
 70
     0
  9
$DIMBLK1
  1

  9
$DIMBLK2
  1

  9
$DIMSTYLE
  2
STANDARD
  9
$DIMCLRD
 70
     0
  9
$DIMCLRE
 70
     0
  9
$DIMCLRT
 70
     0
  9
$DIMTFAC
 40
1.0
  9
$DIMGAP
 40
0.625
  9
$LUNITS
 70
     2
  9
$LUPREC
 70
     4
  9
$SKETCHINC
 40
1.0
  9
$FILLETRAD
 40
2.5
  9
$AUNITS
 70
     0
  9
$AUPREC
 70
     0
  9
$MENU
  1
.
  9
$ELEVATION
 40
0.0
  9
$PELEVATION
 40
0.0
  9
$THICKNESS
 40
0.0
  9
$LIMCHECK
 70
     0
  9
$BLIPMODE
 70
     0
  9
$CHAMFERA
 40
2.5
  9
$CHAMFERB
 40
2.5
  9
$SKPOLY
 70
     0
  9
$TDCREATE
 40
2311942.6599061568
  9
$TDUPDATE
 40
2454455.3898188998
  9
$TDINDWG
 40
0.0004171644
  9
$TDUSRTIMER
 40
0.0004171644
  9
$USRTIMER
 70
     1
  9
$ANGBASE
 50
0.0
  9
$ANGDIR
 70
     0
  9
$PDMODE
 70
     0
  9
$PDSIZE
 40
0.0
  9
$PLINEWID
 40
0.0
  9
$COORDS
 70
     1
  9
$SPLFRAME
 70
     0
  9
$SPLINETYPE
 70
     6
  9
$SPLINESEGS
 70
     8
  9
$ATTDIA
 70
     0
  9
$ATTREQ
 70
     1
  9
$HANDLING
 70
 22529
  9
$HANDSEED
  5
93B
  9
$SURFTAB1
 70
     6
  9
$SURFTAB2
 70
     6
  9
$SURFTYPE
 70
     6
  9
$SURFU
 70
     6
  9
$SURFV
 70
     6
  9
$UCSNAME
  2

  9
$UCSORG
 10
0.0
 20
0.0
 30
0.0
  9
$UCSXDIR
 10
1.0
 20
0.0
 30
0.0
  9
$UCSYDIR
 10
0.0
 20
1.0
 30
0.0
  9
$PUCSNAME
  2

  9
$PUCSORG
 10
0.0
 20
0.0
 30
0.0
  9
$PUCSXDIR
 10
1.0
 20
0.0
 30
0.0
  9
$PUCSYDIR
 10
0.0
 20
1.0
 30
0.0
  9
$USERI1
 70
     0
  9
$USERI2
 70
     0
  9
$USERI3
 70
     0
  9
$USERI4
 70
     0
  9
$USERI5
 70
     0
  9
$USERR1
 40
0.0
  9
$USERR2
 40
0.0
  9
$USERR3
 40
0.0
  9
$USERR4
 40
0.0
  9
$USERR5
 40
0.0
  9
$WORLDVIEW
 70
     1
  9
$SHADEDGE
 70
     3
  9
$SHADEDIF
 70
    70
  9
$TILEMODE
 70
     1
  9
$MAXACTVP
 70
    48
  9
$PLIMCHECK
 70
     0
  9
$PEXTMIN
 10
0.0
 20
0.0
 30
0.0
  9
$PEXTMAX
 10
296.25787400000002
 20
213.624573
 30
2.0
  9
$PLIMMIN
 10
0.0
 20
0.0
  9
$PLIMMAX
 10
420.0
 20
297.0
  9
$UNITMODE
 70
     0
  9
$VISRETAIN
 70
     0
  9
$PLINEGEN
 70
     0
  9
$PSLTSCALE
 70
     1
  0
ENDSEC
  0
SECTION
  2
TABLES
  0
TABLE
  2
VPORT
 70
     2
  0
VPORT
  2
*ACTIVE
 70
     0
 10
0.0
 20
0.0
 11
1.0
 21
1.0
 12
320.95631270000001
 22
588.55414409842513
 13
0.0
 23
0.0
 14
1.0
 24
1.0
 15
0.0
 25
0.0
 16
0.0
 26
0.0
 36
1.0
 17
0.0
 27
0.0
 37
0.0
 40
898.99786376883662
 41
1.550724637681159
 42
50.0
 43
0.0
 44
0.0
 50
0.0
 51
0.0
 71
     0
 72
   100
 73
     1
 74
     1
 75
     0
 76
     0
 77
     0
 78
     0
  0
ENDTAB
  0
TABLE
  2
LTYPE
 70
     8
  0
LTYPE
  2
CONTINUOUS
 70
     0
  3
Solid line
 72
    65
 73
     0
 40
0.0
  0
LTYPE
  2
DASHED
 70
     0
  3
__ __ __ __ __ __ __ __ __ __ __ __ __ __ __ __
 72
    65
 73
     2
 40
15.0
 49
12.0
 49
-3.0
  0
LTYPE
  2
DASHDOT
 70
     0
  3
 __ . __ . __ . __ . __ . __ . __ . 
 72
    65
 73
     4
 40
18.5
 49
12.0
 49
-3.0
 49
0.5
 49
-3.0
  0
LTYPE
  2
DOT
 70
     0
  3
 . . . . . . . . . . . . . . . .
 72
    65
 73
     2
 40
3.5
 49
0.5
 49
-3.0
  0
LTYPE
  2
DASHSPACE
 70
     0
  3
__    __    __    __    __   
 72
    65
 73
     2
 40
30.0
 49
12.0
 49
-18.0
  0
LTYPE
  2
DASHDOT2
 70
     0
  3
__ . . __ . . __ . . __ 
 72
    65
 73
     6
 40
22.0
 49
12.0
 49
-3.0
 49
0.5
 49
-3.0
 49
0.5
 49
-3.0
  0
LTYPE
  2
PHANTOM
 70
     0
  3
____________    ____    ____   _
 72
    65
 73
     6
 40
20.0
 49
10.0
 49
-2.0
 49
2.0
 49
-2.0
 49
2.0
 49
-2.0
  0
LTYPE
  2
AXES
 70
     0
  3
________  __  ________  __  _____
 72
    65
 73
     4
 40
24.0
 49
15.0
 49
-3.0
 49
3.0
 49
-3.0
  0
ENDTAB
  0
TABLE
  2
LAYER
 70
     1
  0
LAYER
  2
0
 70
     0
 62
     7
  6
CONTINUOUS
  0
ENDTAB
  0
TABLE
  2
STYLE
 70
     2
  0
STYLE
  2
STANDARD
 70
     0
 40
0.0
 41
1.0
 50
0.0
 71
     0
 42
0.0
  3
isocp.shx
  4

  0
STYLE
  2
GDT
 70
     0
 40
0.0
 41
1.0
 50
0.0
 71
     0
 42
0.0
  3
amgdt.shx
  4

  0
ENDTAB
  0
TABLE
  2
VIEW
 70
     0
  0
ENDTAB
  0
TABLE
  2
UCS
 70
     0
  0
ENDTAB
  0
TABLE
  2
APPID
 70
     1
  0
APPID
  2
ACAD
 70
     0
  0
ENDTAB
  0
TABLE
  2
DIMSTYLE
 70
     1
  0
DIMSTYLE
  2
STANDARD
 70
     0
  3

  4

  5

  6

  7

 40
1.0
 41
2.5
 42
0.625
 43
3.75
 44
1.25
 45
0.0
 46
0.0
 47
0.0
 48
0.0
140
2.5
141
2.5
142
0.0
143
0.03937
144
1.0
145
0.0
146
1.0
147
0.625
 71
     0
 72
     0
 73
     0
 74
     0
 75
     0
 76
     0
 77
     1
 78
     8
170
     0
171
     3
172
     1
173
     0
174
     0
175
     0
176
     0
177
     0
178
     0
  0
ENDTAB
  0
ENDSEC
  0
SECTION
  2
BLOCKS
  0
BLOCK
  8
0
  2
$MODEL_SPACE
 70
     0
 10
0.0
 20
0.0
 30
0.0
  3
$MODEL_SPACE
  1

  0
ENDBLK
  5
E
  8
0
  0
BLOCK
 67
     1
  8
0
  2
$PAPER_SPACE
 70
     0
 10
0.0
 20
0.0
 30
0.0
  3
$PAPER_SPACE
  1

  0
ENDBLK
  5
10
 67
     1
  8
0
  0
BLOCK
  8
0
  2
BLOCK0
 70
     0
 10
0.0
 20
0.0
 30
0.0
  3
BLOCK0
  1

  0
TEXT
  5
5B7
  8
0
 62
     1
 10
-544.0
 20
-42.0
 30
0.0
 40
3.0
  1
Ts3
 50
180.0
 41
1.225762527177944
 72
     5
 11
-551.69995099999994
 21
-42.0
 31
0.0
  0
ENDBLK
  5
5B8
  8
0
  0
BLOCK
  8
0
  2
BLOCK1
 70
     0
 10
0.0
 20
0.0
 30
0.0
  3
BLOCK1
  1

  0
TEXT
  5
5BA
  8
0
 62
     1
 10
-463.15213
 20
-41.0
 30
0.0
 40
2.0
  1
N0204 2007-09-17
 50
180.0
 41
1.1017693073406229
 72
     5
 11
-486.84786999999989
 21
-41.0
 31
0.0
  0
ENDBLK
  5
5BB
  8
0
  0
BLOCK
  8
0
  2
BLOCK2
 70
     0
 10
0.0
 20
0.0
 30
0.0
  3
BLOCK2
  1

  0
TEXT
  5
5BD
  8
0
 62
     1
 10
-516.0
 20
-29.0
 30
0.0
 40
4.0
  1
1SDH000637R0.112
 50
180.0
 41
1.409668982096266
 72
     5
 11
-575.26281700000004
 21
-29.0
 31
0.0
  0
ENDBLK
  5
5BE
  8
0
  0
BLOCK
  8
0
  2
BLOCK3
 70
     0
 10
0.0
 20
0.0
 30
0.0
  3
BLOCK3
  1

  0
TEXT
  5
5C0
  8
0
 62
     1
 10
-519.0
 20
-57.0
 30
0.0
 40
2.0
  1
INTERR.AUTOMATICO SERIE ISOMAX
 50
179.99999487194501
 41
1.0769160722891591
 72
     5
 11
-563.69201699999985
 21
-56.999995999999989
 31
0.0
  0
ENDBLK
  5
5C1
  8
0
  0
BLOCK
  8
0
  2
BLOCK4
 70
     0
 10
0.0
 20
0.0
 30
0.0
  3
BLOCK4
  1

  0
TEXT
  5
5C3
  8
0
 62
     1
 10
-508.0
 20
-54.0
 30
0.0
 40
2.0
  1
TETRAP.ESECUZIONE ESTRAIBILE TERMIN.ANTERIORI
 50
179.99999317785429
 41
1.103251034482768
 72
     5
 11
-575.18798800000002
 21
-53.999991999999999
 31
0.0
  0
ENDBLK
  5
5C4
  8
0
  0
BLOCK
  8
0
  2
BLOCK5
 70
     0
 10
0.0
 20
0.0
 30
0.0
  3
BLOCK5
  1

  0
TEXT
  5
5C6
  8
0
 62
     1
 10
-516.0
 20
-65.0
 30
0.0
 40
2.0
  1
4POLE LOW VOLTAGE M.C.C.B SERIES ISOMAX
 50
179.9999921228804
 41
1.095848870056507
 72
     5
 11
-574.18957499999999
 21
-64.999992000000006
 31
0.0
  0
ENDBLK
  5
5C7
  8
0
  0
BLOCK
  8
0
  2
BLOCK6
 70
     0
 10
0.0
 20
0.0
 30
0.0
  3
BLOCK6
  1

  0
TEXT
  5
5C9
  8
0
 62
     1
 10
-518.0
 20
-62.0
 30
0.0
 40
2.0
  1
WITHDRAWABLE VERSION FRONT TERMINALS
 50
179.99999573139229
 41
1.013423310137987
 72
     5
 11
-571.69036900000003
 21
-61.999995999999989
 31
0.0
  0
ENDBLK
  5
5CA
  8
0
  0
BLOCK
  8
0
  2
BLOCK7
 70
     0
 10
0.0
 20
0.0
 30
0.0
  3
BLOCK7
  1

  0
TEXT
  5
5CC
  8
0
 62
     7
 10
-128.0
 20
5.0
 30
0.0
 40
3.0
  1
X
 50
180.0
 41
0.9777764444444425
 72
     5
 11
-130.199997
 21
5.0
 31
0.0
  0
ENDBLK
  5
5CD
  8
0
  0
BLOCK
  8
0
  2
BLOCK8
 70
     0
 10
0.0
 20
0.0
 30
0.0
  3
BLOCK8
  1

  0
TEXT
  5
5CF
  8
0
 62
     7
 10
175.0
 20
-1.0
 30
0.0
 40
3.0
  1
X
 50
180.0
 41
0.9777764444444425
 72
     5
 11
172.800003
 21
-1.0
 31
0.0
  0
ENDBLK
  5
5D0
  8
0
  0
BLOCK
  8
0
  2
BLOCK9
 70
     0
 10
0.0
 20
0.0
 30
0.0
  3
BLOCK9
  1

  0
TEXT
  5
5D2
  8
0
 62
     7
 10
2.0
 20
-124.0
 30
0.0
 40
3.0
  1
Y
 50
180.0
 41
0.9777777777777778
 72
     5
 11
-0.2
 21
-124.0
 31
0.0
  0
ENDBLK
  5
5D3
  8
0
  0
BLOCK
  8
0
  2
BLOCK10
 70
     0
 10
0.0
 20
0.0
 30
0.0
  3
BLOCK10
  1

  0
TEXT
  5
5D5
  8
0
 62
     7
 10
2.0
 20
165.0
 30
0.0
 40
3.0
  1
Y
 50
180.0
 41
0.9777777777777778
 72
     5
 11
-0.2
 21
165.0
 31
0.0
  0
ENDBLK
  5
5D6
  8
0
  0
BLOCK
  8
0
  2
BLOCK11
 70
     0
 10
0.0
 20
0.0
 30
0.0
  3
BLOCK11
  1

  0
TEXT
  5
5D8
  8
0
 62
     7
 10
126.198486
 20
16.500031
 30
0.0
 40
3.0
  1
100
 50
269.99994791279232
 41
1.4660032381386761
 72
     5
 11
126.19847900000001
 21
8.8000509999999998
 31
0.0
  0
ENDBLK
  5
5D9
  8
0
  0
BLOCK
  8
0
  2
BLOCK12
 70
     0
 10
0.0
 20
0.0
 30
0.0
  3
BLOCK12
  1

  0
TEXT
  5
5DB
  8
0
 62
     7
 10
-37.0
 20
138.13629199999991
 30
0.0
 40
3.0
  1
25
 50
180.0
 41
1.2776591662854091
 72
     5
 11
-41.949989000000002
 21
138.13629199999991
 31
0.0
  0
ENDBLK
  5
5DC
  8
0
  0
BLOCK
  8
0
  2
BLOCK13
 70
     0
 10
0.0
 20
0.0
 30
0.0
  3
BLOCK13
  1

  0
TEXT
  5
5DE
  8
0
 62
     7
 10
51.0
 20
138.13629199999991
 30
0.0
 40
3.0
  1
80
 50
180.0
 41
1.319166095897597
 72
     5
 11
46.050010999999991
 21
138.13629199999991
 31
0.0
  0
ENDBLK
  5
5DF
  8
0
  0
BLOCK
  8
0
  2
BLOCK14
 70
     0
 10
0.0
 20
0.0
 30
0.0
  3
BLOCK14
  1

  0
TEXT
  5
5E1
  8
0
 62
     7
 10
219.566666
 20
134.860489
 30
0.0
 40
3.0
  1
 5
 50
212.70408315676451
 41
1.664275729172219
 72
     5
 11
215.4013819999999
 21
132.18600499999991
 31
0.0
  0
ENDBLK
  5
5E2
  8
0
  0
BLOCK
  8
0
  2
BLOCK15
 70
     0
 10
0.0
 20
0.0
 30
0.0
  3
BLOCK15
  1

  0
TEXT
  5
5E4
  8
0
 62
     7
 10
220.9128419999999
 20
135.72497599999991
 30
0.0
 40
3.0
  1
%%c
 50
212.7040272305745
 41
0.977778741228206
 72
     5
 11
219.06159999999991
 21
134.536316
 31
0.0
  0
ENDBLK
  5
5E5
  8
0
  0
BLOCK
  8
0
  2
BLOCK16
 70
     0
 10
0.0
 20
0.0
 30
0.0
  3
BLOCK16
  1

  0
TEXT
  5
5E7
  8
0
 62
     7
 10
201.05419900000001
 20
122.9738769999999
 30
0.0
 40
3.0
  1
 (M4)
 50
212.7040437984592
 41
1.600224341829795
 72
     5
 11
189.9467929999999
 21
115.8419419999999
 31
0.0
  0
ENDBLK
  5
5E8
  8
0
  0
BLOCK
  8
0
  2
BLOCK17
 70
     0
 10
0.0
 20
0.0
 30
0.0
  3
BLOCK17
  1

  0
TEXT
  5
5EA
  8
0
 62
     7
 10
-104.47436500000001
 20
80.851836999999989
 30
0.0
 40
3.0
  1
52,25
 50
270.00003038421988
 41
1.446687524670172
 72
     5
 11
-104.474358
 21
67.651877999999996
 31
0.0
  0
ENDBLK
  5
5EB
  8
0
  0
BLOCK
  8
0
  2
BLOCK18
 70
     0
 10
0.0
 20
0.0
 30
0.0
  3
BLOCK18
  1

  0
LINE
  5
5ED
  8
0
 62
     2
 10
75.237106000000011
 20
-175.338257
 30
0.0
 11
75.237106000000011
 21
-210.83825699999991
 31
0.0
  0
LINE
  5
5EE
  8
0
 62
     2
 10
90.237106000000011
 20
-175.338257
 30
0.0
 11
90.237106000000011
 21
-210.83825699999991
 31
0.0
  0
LINE
  5
5EF
  8
0
 62
     2
 10
74.237106000000011
 20
-210.83825699999991
 30
0.0
 11
91.237105999999997
 21
-210.83825699999991
 31
0.0
  0
LINE
  5
5F0
  8
0
 62
     2
 10
75.237106000000011
 20
-175.338257
 30
0.0
 11
90.237106000000011
 21
-175.338257
 31
0.0
  0
LINE
  5
5F1
  8
0
 62
     2
 10
91.237105999999997
 20
-210.83825699999991
 30
0.0
 11
189.23080399999989
 21
-210.83825699999991
 31
0.0
  0
LINE
  5
5F2
  8
0
 62
     2
 10
30.737106000000001
 20
-210.83825699999991
 30
0.0
 11
74.237099000000001
 21
-210.83825699999991
 31
0.0
  0
LINE
  5
5F3
  8
0
 62
     2
 10
29.487106000000001
 20
-37.588248999999998
 30
0.0
 11
29.487106000000001
 21
-209.588257
 31
0.0
  0
LINE
  5
5F4
  8
0
 62
     2
 10
30.737106000000001
 20
-36.338248999999998
 30
0.0
 11
189.23080399999989
 21
-36.338248999999998
 31
0.0
  0
LINE
  5
5F5
  8
0
 62
     2
 10
169.48710600000001
 20
-175.338257
 30
0.0
 11
170.48710600000001
 21
-175.338257
 31
0.0
  0
LINE
  5
5F6
  8
0
 62
     2
 10
169.48710600000001
 20
-45.33824899999999
 30
0.0
 11
170.48710600000001
 21
-45.33824899999999
 31
0.0
  0
LINE
  5
5F7
  8
0
 62
     2
 10
49.487105999999997
 20
-175.338257
 30
0.0
 11
50.48710599999999
 21
-175.338257
 31
0.0
  0
LINE
  5
5F8
  8
0
 62
     2
 10
49.487105999999997
 20
-46.33824899999999
 30
0.0
 11
49.487105999999997
 21
-174.338257
 31
0.0
  0
LINE
  5
5F9
  8
0
 62
     2
 10
49.487105999999997
 20
-45.33824899999999
 30
0.0
 11
50.48710599999999
 21
-45.33824899999999
 31
0.0
  0
LINE
  5
5FA
  8
0
 62
     2
 10
29.487106000000001
 20
-174.338257
 30
0.0
 11
49.487105999999997
 21
-174.338257
 31
0.0
  0
LINE
  5
5FB
  8
0
 62
     2
 10
170.48710600000001
 20
-175.338257
 30
0.0
 11
190.4871059999999
 21
-175.338257
 31
0.0
  0
LINE
  5
5FC
  8
0
 62
     2
 10
50.48710599999999
 20
-175.338257
 30
0.0
 11
74.237106000000011
 21
-175.338257
 31
0.0
  0
LINE
  5
5FD
  8
0
 62
     2
 10
91.237105999999997
 20
-175.338257
 30
0.0
 11
169.48710600000001
 21
-175.338257
 31
0.0
  0
LINE
  5
5FE
  8
0
 62
     2
 10
29.487106000000001
 20
-175.338257
 30
0.0
 11
49.487105999999997
 21
-175.338257
 31
0.0
  0
LINE
  5
5FF
  8
0
 62
     2
 10
170.48710600000001
 20
-45.33824899999999
 30
0.0
 11
190.4871059999999
 21
-45.33824899999999
 31
0.0
  0
LINE
  5
600
  8
0
 62
     2
 10
50.48710599999999
 20
-45.33824899999999
 30
0.0
 11
169.48710600000001
 21
-45.33824899999999
 31
0.0
  0
LINE
  5
601
  8
0
 62
     2
 10
29.487106000000001
 20
-45.33824899999999
 30
0.0
 11
49.487105999999997
 21
-45.33824899999999
 31
0.0
  0
LINE
  5
602
  8
0
 62
     2
 10
29.487106000000001
 20
-46.33824899999999
 30
0.0
 11
49.487105999999997
 21
-46.33824899999999
 31
0.0
  0
LINE
  5
603
  8
0
 62
     2
 10
74.237106000000011
 20
-175.338257
 30
0.0
 11
74.237106000000011
 21
-210.83825699999991
 31
0.0
  0
LINE
  5
604
  8
0
 62
     2
 10
91.237105999999997
 20
-175.338257
 30
0.0
 11
91.237105999999997
 21
-210.83825699999991
 31
0.0
  0
LINE
  5
605
  8
0
 62
     2
 10
90.237106000000011
 20
-175.38826
 30
0.0
 11
91.237105999999997
 21
-175.38826
 31
0.0
  0
LINE
  5
606
  8
0
 62
     2
 10
74.237106000000011
 20
-175.38826
 30
0.0
 11
75.237106000000011
 21
-175.38826
 31
0.0
  0
LINE
  5
607
  8
0
 62
     2
 10
169.48710600000001
 20
-46.33824899999999
 30
0.0
 11
169.48710600000001
 21
-174.338257
 31
0.0
  0
LINE
  5
608
  8
0
 62
     2
 10
50.48710599999999
 20
-46.33824899999999
 30
0.0
 11
50.48710599999999
 21
-174.338257
 31
0.0
  0
LINE
  5
609
  8
0
 62
     2
 10
50.48710599999999
 20
-174.338257
 30
0.0
 11
169.48710600000001
 21
-174.338257
 31
0.0
  0
LINE
  5
60A
  8
0
 62
     2
 10
50.48710599999999
 20
-46.33824899999999
 30
0.0
 11
169.48710600000001
 21
-46.33824899999999
 31
0.0
  0
LINE
  5
60B
  8
0
 62
     2
 10
162.48710600000001
 20
-167.338257
 30
0.0
 11
169.48710600000001
 21
-174.338257
 31
0.0
  0
LINE
  5
60C
  8
0
 62
     2
 10
169.48710600000001
 20
-46.33824899999999
 30
0.0
 11
161.95770300000001
 21
-62.338253000000002
 31
0.0
  0
LINE
  5
60D
  8
0
 62
     2
 10
57.487121999999992
 20
-167.338257
 30
0.0
 11
50.487102999999998
 21
-174.3382719999999
 31
0.0
  0
LINE
  5
60E
  8
0
 62
     2
 10
50.48710599999999
 20
-46.338253000000002
 30
0.0
 11
58.016518000000012
 21
-62.338253000000002
 31
0.0
  0
LINE
  5
60F
  8
0
 62
     2
 10
170.48080400000001
 20
-174.3381959999999
 30
0.0
 11
190.48080399999989
 21
-174.3381959999999
 31
0.0
  0
LINE
  5
610
  8
0
 62
     2
 10
170.48080400000001
 20
-45.33824899999999
 30
0.0
 11
170.48080400000001
 21
-175.338257
 31
0.0
  0
LINE
  5
611
  8
0
 62
     2
 10
190.48080399999989
 20
-37.588248999999998
 30
0.0
 11
190.48080399999989
 21
-45.33824899999999
 31
0.0
  0
LINE
  5
612
  8
0
 62
     2
 10
190.48080399999989
 20
-115.3435129999999
 30
0.0
 11
190.48080399999989
 21
-175.338257
 31
0.0
  0
ARC
  5
613
  8
0
 62
     2
 10
194.62799099999989
 20
-110.338219
 30
0.0
 40
6.5001670000000003
 50
129.64374699999991
 51
230.3562529999999
  0
LINE
  5
614
  8
0
 62
     2
 10
190.48080399999989
 20
-105.332916
 30
0.0
 11
190.48080399999989
 21
-115.3435129999999
 31
0.0
  0
LINE
  5
615
  8
0
 62
     2
 10
170.48710600000001
 20
-46.33824899999999
 30
0.0
 11
190.4871059999999
 21
-46.33824899999999
 31
0.0
  0
LINE
  5
616
  8
0
 62
     2
 10
190.48080399999989
 20
-45.33824899999999
 30
0.0
 11
190.48080399999989
 21
-105.332916
 31
0.0
  0
LINE
  5
617
  8
0
 62
     2
 10
190.48080399999989
 20
-175.338257
 30
0.0
 11
190.48080399999989
 21
-209.588257
 31
0.0
  0
POINT
  5
618
  8
0
 62
     2
 10
109.987106
 20
-114.838249
 30
0.0
  0
ARC
  5
619
  8
0
 62
     2
 10
189.23080399999989
 20
-37.588248999999998
 30
0.0
 40
1.25
 50
0.000003
 51
90.000005000000002
  0
ARC
  5
61A
  8
0
 62
     2
 10
30.737106000000001
 20
-37.588248999999998
 30
0.0
 40
1.25
 50
90.000005000000002
 51
180.00000099999991
  0
ARC
  5
61B
  8
0
 62
     2
 10
30.737106000000001
 20
-209.588257
 30
0.0
 40
1.25
 50
180.00000099999991
 51
270.0
  0
ARC
  5
61C
  8
0
 62
     2
 10
189.23080399999989
 20
-209.588257
 30
0.0
 40
1.25
 50
270.0
 51
0.000003
  0
ENDBLK
  5
61D
  8
0
  0
BLOCK
  8
0
  2
BLOCK19
 70
     0
 10
0.0
 20
0.0
 30
0.0
  3
BLOCK19
  1

  0
TEXT
  5
61F
  8
0
 62
     7
 10
291.95788599999992
 20
-112.4526979999999
 30
0.0
 40
3.0
  1
Y
 50
270.0
 41
0.9777764444444427
 72
     5
 11
291.95788599999992
 21
-114.65269499999989
 31
0.0
  0
ENDBLK
  5
620
  8
0
  0
BLOCK
  8
0
  2
BLOCK20
 70
     0
 10
0.0
 20
0.0
 30
0.0
  3
BLOCK20
  1

  0
TEXT
  5
622
  8
0
 62
     7
 10
88.658553999999995
 20
22.014708999999989
 30
0.0
 40
3.0
  1
175
 50
359.99999255897228
 41
1.432750959304004
 72
     5
 11
96.358536000000001
 21
22.014707999999999
 31
0.0
  0
ENDBLK
  5
623
  8
0
  0
BLOCK
  8
0
  2
BLOCK21
 70
     0
 10
0.0
 20
0.0
 30
0.0
  3
BLOCK21
  1

  0
TEXT
  5
625
  8
0
 62
     7
 10
-3.9215390000000001
 20
50.600341999999998
 30
0.0
 40
3.0
  1
10
 41
1.570247858124141
 72
     5
 11
1.028451
 21
50.600341999999998
 31
0.0
  0
ENDBLK
  5
626
  8
0
  0
BLOCK
  8
0
  2
BLOCK22
 70
     0
 10
0.0
 20
0.0
 30
0.0
  3
BLOCK22
  1

  0
TEXT
  5
628
  8
0
 62
     7
 10
103.9870379999999
 20
50.600341999999998
 30
0.0
 40
3.0
  1
210
 50
359.9999702358852
 41
1.466003428528792
 72
     5
 11
111.68701899999991
 21
50.600338000000001
 31
0.0
  0
ENDBLK
  5
629
  8
0
  0
BLOCK
  8
0
  2
BLOCK23
 70
     0
 10
0.0
 20
0.0
 30
0.0
  3
BLOCK23
  1

  0
TEXT
  5
62B
  8
0
 62
     7
 10
216.48550399999991
 20
50.600341999999998
 30
0.0
 40
3.0
  1
10
 41
1.5702500786811531
 72
     5
 11
221.4355009999999
 21
50.600341999999998
 31
0.0
  0
ENDBLK
  5
62C
  8
0
  0
BLOCK
  8
0
  2
BLOCK24
 70
     0
 10
0.0
 20
0.0
 30
0.0
  3
BLOCK24
  1

  0
TEXT
  5
62E
  8
0
 62
     7
 10
-34.893813999999999
 20
-126.8383179999999
 30
0.0
 40
3.0
  1
35
 50
269.99995370035219
 41
1.2776612311941169
 72
     5
 11
-34.893817999999989
 21
-131.7883149999999
 31
0.0
  0
ENDBLK
  5
62F
  8
0
  0
BLOCK
  8
0
  2
BLOCK25
 70
     0
 10
0.0
 20
0.0
 30
0.0
  3
BLOCK25
  1

  0
TEXT
  5
631
  8
0
 62
     7
 10
-34.893805999999998
 20
-91.838318000000001
 30
0.0
 40
3.0
  1
35
 50
269.99995370027727
 41
1.277659166285823
 72
     5
 11
-34.893809999999988
 21
-96.788306999999975
 31
0.0
  0
ENDBLK
  5
632
  8
0
  0
BLOCK
  8
0
  2
BLOCK26
 70
     0
 10
0.0
 20
0.0
 30
0.0
  3
BLOCK26
  1

  0
TEXT
  5
634
  8
0
 62
     7
 10
-34.893791
 20
-56.838318000000001
 30
0.0
 40
3.0
  1
35
 50
269.99995370027722
 41
1.277659166285823
 72
     5
 11
-34.893794999999997
 21
-61.788306999999989
 31
0.0
  0
ENDBLK
  5
635
  8
0
  0
BLOCK
  8
0
  2
BLOCK27
 70
     0
 10
0.0
 20
0.0
 30
0.0
  3
BLOCK27
  1

  0
TEXT
  5
637
  8
0
 62
     7
 10
267.46487400000001
 20
-89.088256999999984
 30
0.0
 40
3.0
  1
140
 50
270.0
 41
1.3867938934978381
 72
     5
 11
267.46487400000001
 21
-96.788239000000004
 31
0.0
  0
ENDBLK
  5
638
  8
0
  0
BLOCK
  8
0
  2
BLOCK28
 70
     0
 10
0.0
 20
0.0
 30
0.0
  3
BLOCK28
  1

  0
TEXT
  5
63A
  8
0
 62
     7
 10
-50.06008099999999
 20
-130.08825699999991
 30
0.0
 40
3.0
  1
52,5
 50
269.9999780685298
 41
1.48769549347495
 72
     5
 11
-50.060085000000001
 21
-140.5382229999999
 31
0.0
  0
ENDBLK
  5
63B
  8
0
  0
BLOCK
  8
0
  2
BLOCK29
 70
     0
 10
0.0
 20
0.0
 30
0.0
  3
BLOCK29
  1

  0
TEXT
  5
63D
  8
0
 62
     7
 10
-19.727547000000001
 20
-95.838256999999999
 30
0.0
 40
3.0
  1
20
 50
269.99997685013858
 41
1.3191660958977049
 72
     5
 11
-19.727548999999989
 21
-100.788246
 31
0.0
  0
ENDBLK
  5
63E
  8
0
  0
BLOCK
  8
0
  2
BLOCK30
 70
     0
 10
0.0
 20
0.0
 30
0.0
  3
BLOCK30
  1

  0
TEXT
  5
640
  8
0
 62
     7
 10
-24.132736000000001
 20
-171.07862900000001
 30
0.0
 40
3.0
  1
 8,2
 50
211.07553615724839
 41
1.690884949975203
 72
     5
 11
-33.083003999999988
 21
-176.472565
 31
0.0
  0
ENDBLK
  5
641
  8
0
  0
BLOCK
  8
0
  2
BLOCK31
 70
     0
 10
0.0
 20
0.0
 30
0.0
  3
BLOCK31
  1

  0
TEXT
  5
643
  8
0
 62
     7
 10
-23.447551999999991
 20
-170.665649
 30
0.0
 40
3.0
  1
%%c
 50
211.0756941719396
 41
0.9777785638447323
 72
     5
 11
-25.331822999999989
 21
-171.80122399999999
 31
0.0
  0
ENDBLK
  5
644
  8
0
  0
BLOCK
  8
0
  2
BLOCK32
 70
     0
 10
0.0
 20
0.0
 30
0.0
  3
BLOCK32
  1

  0
TEXT
  5
646
  8
0
 62
     7
 10
-66.469809999999995
 20
-151.338257
 30
0.0
 40
3.0
  1
84
 50
270.0
 41
1.22222148148148
 72
     5
 11
-66.469809999999995
 21
-156.28825399999991
 31
0.0
  0
ENDBLK
  5
647
  8
0
  0
BLOCK
  8
0
  2
BLOCK33
 70
     0
 10
0.0
 20
0.0
 30
0.0
  3
BLOCK33
  1

  0
TEXT
  5
649
  8
0
 62
     7
 10
253.3887629999999
 20
-106.588196
 30
0.0
 40
3.0
  1
105
 50
270.0
 41
1.4327507732320071
 72
     5
 11
253.3887629999999
 21
-114.288177
 31
0.0
  0
ENDBLK
  5
64A
  8
0
  0
BLOCK
  8
0
  2
BLOCK34
 70
     0
 10
0.0
 20
0.0
 30
0.0
  3
BLOCK34
  1

  0
TEXT
  5
64C
  8
0
 62
     7
 10
141.112076
 20
4.810363999999999
 30
0.0
 40
3.0
  1
89,75
 50
359.99997829699731
 41
1.4450280793784249
 72
     5
 11
154.31204199999991
 21
4.8103590000000001
 31
0.0
  0
ENDBLK
  5
64D
  8
0
  0
BLOCK
  8
0
  2
BLOCK35
 70
     0
 10
0.0
 20
0.0
 30
0.0
  3
BLOCK35
  1

  0
TEXT
  5
64F
  8
0
 62
     7
 10
147.11206100000001
 20
35.778137000000001
 30
0.0
 40
3.0
  1
107,25
 50
359.99998563110819
 41
1.5012758433755911
 72
     5
 11
163.06201200000001
 21
35.778132999999997
 31
0.0
  0
ENDBLK
  5
650
  8
0
  0
BLOCK
  8
0
  2
BLOCK36
 70
     0
 10
0.0
 20
0.0
 30
0.0
  3
BLOCK36
  1

  0
TEXT
  5
652
  8
0
 62
     7
 10
284.47155800000002
 20
-157.33825699999991
 30
0.0
 40
3.0
  1
96
 50
270.0
 41
1.2662099629029859
 72
     5
 11
284.47155800000002
 21
-162.28825399999991
 31
0.0
  0
ENDBLK
  5
653
  8
0
  0
BLOCK
  8
0
  2
BLOCK37
 70
     0
 10
0.0
 20
0.0
 30
0.0
  3
BLOCK37
  1

  0
TEXT
  5
655
  8
0
 62
     7
 10
284.47155800000002
 20
-64.588256999999999
 30
0.0
 40
3.0
  1
78,5
 50
270.0
 41
1.487695493474843
 72
     5
 11
284.47155800000002
 21
-75.038223000000002
 31
0.0
  0
ENDBLK
  5
656
  8
0
  0
BLOCK
  8
0
  2
BLOCK38
 70
     0
 10
0.0
 20
0.0
 30
0.0
  3
BLOCK38
  1

  0
TEXT
  5
658
  8
0
 62
     7
 10
101.73395499999999
 20
-10.166382
 30
0.0
 40
3.0
  1
161
 50
359.99997767691679
 41
1.655910107527008
 72
     5
 11
109.433937
 21
-10.166385
 31
0.0
  0
ENDBLK
  5
659
  8
0
  0
BLOCK
  8
0
  2
BLOCK39
 70
     0
 10
0.0
 20
0.0
 30
0.0
  3
BLOCK39
  1

  0
TEXT
  5
65B
  8
0
 62
     7
 10
108.659386
 20
-177.16290299999989
 30
0.0
 40
3.0
  1
X
 50
270.0
 41
0.9777764444444425
 72
     5
 11
108.659386
 21
-179.36289999999991
 31
0.0
  0
ENDBLK
  5
65C
  8
0
  0
BLOCK
  8
0
  2
BLOCK40
 70
     0
 10
0.0
 20
0.0
 30
0.0
  3
BLOCK40
  1

  0
TEXT
  5
65E
  8
0
 62
     7
 10
108.229935
 20
106.84435999999999
 30
0.0
 40
3.0
  1
X
 50
270.0
 41
0.9777764444444489
 72
     5
 11
108.229935
 21
104.6443629999999
 31
0.0
  0
ENDBLK
  5
65F
  8
0
  0
BLOCK
  8
0
  2
BLOCK41
 70
     0
 10
0.0
 20
0.0
 30
0.0
  3
BLOCK41
  1

  0
TEXT
  5
661
  8
0
 62
     7
 10
259.03808599999991
 20
-104.999878
 30
0.0
 40
3.0
  1
5
 50
270.0
 41
1.2399490238209789
 72
     5
 11
259.03808599999991
 21
-107.19987500000001
 31
0.0
  0
ENDBLK
  5
662
  8
0
  0
BLOCK
  8
0
  2
BLOCK42
 70
     0
 10
0.0
 20
0.0
 30
0.0
  3
BLOCK42
  1

  0
TEXT
  5
664
  8
0
 62
     7
 10
259.03808599999991
 20
-131.4999389999999
 30
0.0
 40
3.0
  1
31
 50
270.0
 41
1.571427619047626
 72
     5
 11
259.03808599999991
 21
-136.44993600000001
 31
0.0
  0
ENDBLK
  5
665
  8
0
  0
BLOCK
  8
0
  2
BLOCK43
 70
     0
 10
0.0
 20
0.0
 30
0.0
  3
BLOCK43
  1

  0
TEXT
  5
667
  8
0
 62
     7
 10
259.03808599999991
 20
-161.5
 30
0.0
 40
3.0
  1
3
 50
270.0
 41
1.2399490238209789
 72
     5
 11
259.03808599999991
 21
-163.69999699999991
 31
0.0
  0
ENDBLK
  5
668
  8
0
  0
BLOCK
  8
0
  2
BLOCK44
 70
     0
 10
0.0
 20
0.0
 30
0.0
  3
BLOCK44
  1

  0
TEXT
  5
66A
  8
0
 62
     7
 10
259.03808599999991
 20
-156.0
 30
0.0
 40
3.0
  1
\U+2265
 50
270.0
 41
1.2422315693532049
 72
     5
 11
259.03808599999991
 21
-158.199997
 31
0.0
  0
ENDBLK
  5
66B
  8
0
  0
BLOCK
  8
0
  2
BLOCK45
 70
     0
 10
0.0
 20
0.0
 30
0.0
  3
BLOCK45
  1

  0
TEXT
  5
66D
  8
0
 62
     7
 10
-20.183364999999991
 20
-60.75
 30
0.0
 40
3.0
  1
167
 50
270.00001488205538
 41
1.4666632380952851
 72
     5
 11
-20.183363
 21
-68.449981999999991
 31
0.0
  0
ENDBLK
  5
66E
  8
0
  0
BLOCK
  8
0
  2
BLOCK46
 70
     0
 10
0.0
 20
0.0
 30
0.0
  3
BLOCK46
  1

  0
TEXT
  5
670
  8
0
 62
     7
 10
-34.439216999999999
 20
-49.25
 30
0.0
 40
3.0
  1
190
 50
270.00002976411082
 41
1.463083505771775
 72
     5
 11
-34.439213000000002
 21
-56.949981999999991
 31
0.0
  0
ENDBLK
  5
671
  8
0
  0
BLOCK
  8
0
  2
BLOCK47
 70
     0
 10
0.0
 20
0.0
 30
0.0
  3
BLOCK47
  1

  0
TEXT
  5
673
  8
0
 62
     7
 10
-34.439223999999989
 20
31.223389000000001
 30
0.0
 40
3.0
  1
2
 50
270.0
 41
1.202069964398266
 72
     5
 11
-34.439223999999989
 21
29.023388000000001
 31
0.0
  0
ENDBLK
  5
674
  8
0
  0
BLOCK
  8
0
  2
BLOCK48
 70
     0
 10
0.0
 20
0.0
 30
0.0
  3
BLOCK48
  1

  0
TEXT
  5
676
  8
0
 62
     7
 10
-51.426338000000001
 20
-41.0
 30
0.0
 40
3.0
  1
195,5
 50
270.00001736241131
 41
1.546613966049907
 72
     5
 11
-51.426334000000011
 21
-54.199958999999993
 31
0.0
  0
ENDBLK
  5
677
  8
0
  0
BLOCK
  8
0
  2
BLOCK49
 70
     0
 10
0.0
 20
0.0
 30
0.0
  3
BLOCK49
  1

  0
TEXT
  5
679
  8
0
 62
     7
 10
90.160697999999996
 20
89.662475999999998
 30
0.0
 40
3.0
  1
105
 41
1.4327509593039951
 72
     5
 11
97.860680000000002
 21
89.662475999999998
 31
0.0
  0
ENDBLK
  5
67A
  8
0
  0
BLOCK
  8
0
  2
BLOCK50
 70
     0
 10
0.0
 20
0.0
 30
0.0
  3
BLOCK50
  1

  0
TEXT
  5
67C
  8
0
 62
     7
 10
80.236999999999995
 20
-47.883178999999998
 30
0.0
 40
3.0
  1
1,75
 50
359.9999780685298
 41
1.6266401704897531
 72
     5
 11
90.686965999999998
 21
-47.883183000000002
 31
0.0
  0
ENDBLK
  5
67D
  8
0
  0
BLOCK
  8
0
  2
BLOCK51
 70
     0
 10
0.0
 20
0.0
 30
0.0
  3
BLOCK51
  1

  0
TEXT
  5
67F
  8
0
 62
     7
 10
272.278839
 20
97.494872999999998
 30
0.0
 40
3.0
  1
27,5
 50
270.0
 41
1.487695493474843
 72
     5
 11
272.278839
 21
87.044906999999995
 31
0.0
  0
ENDBLK
  5
680
  8
0
  0
BLOCK
  8
0
  2
BLOCK52
 70
     0
 10
0.0
 20
0.0
 30
0.0
  3
BLOCK52
  1

  0
TEXT
  5
682
  8
0
 62
     7
 10
272.278839
 20
75.494872999999998
 30
0.0
 40
3.0
  1
       CORSA DI SEZIONAMENTO
 50
270.0000232331646
 41
1.4438098205855761
 72
     5
 11
272.27886999999998
 21
-0.9548569999999998
 31
0.0
  0
ENDBLK
  5
683
  8
0
  0
BLOCK
  8
0
  2
BLOCK53
 70
     0
 10
0.0
 20
0.0
 30
0.0
  3
BLOCK53
  1

  0
TEXT
  5
685
  8
0
 62
     7
 10
98.363608999999997
 20
2.077758999999999
 30
0.0
 40
3.0
  1
 5,5
 50
224.2810199717
 41
1.706322366337923
 72
     5
 11
90.882225000000005
 21
-5.2181809999999986
 31
0.0
  0
ENDBLK
  5
686
  8
0
  0
BLOCK
  8
0
  2
BLOCK54
 70
     0
 10
0.0
 20
0.0
 30
0.0
  3
BLOCK54
  1

  0
TEXT
  5
688
  8
0
 62
     7
 10
98.936340000000001
 20
2.636352
 30
0.0
 40
3.0
  1
%%c
 50
224.2809828752217
 41
0.9777784520491611
 72
     5
 11
97.361305000000016
 21
1.10036
 31
0.0
  0
ENDBLK
  5
689
  8
0
  0
BLOCK
  8
0
  2
BLOCK55
 70
     0
 10
0.0
 20
0.0
 30
0.0
  3
BLOCK55
  1

  0
TEXT
  5
68B
  8
0
 62
     7
 10
287.89434799999992
 20
39.559447999999989
 30
0.0
 40
3.0
  1
ISOLATING DISTANCE
 50
270.0
 41
1.331968027210884
 72
     5
 11
287.89434799999992
 21
-9.3903770000000009
 31
0.0
  0
ENDBLK
  5
68C
  8
0
  0
BLOCK
  8
0
  2
BLOCK56
 70
     0
 10
0.0
 20
0.0
 30
0.0
  3
BLOCK56
  1

  0
LINE
  5
68E
  8
0
 62
     2
 10
172.98692299999999
 20
39.145102999999999
 30
0.0
 11
174.632034
 21
37.499996000000003
 31
0.0
  0
LINE
  5
68F
  8
0
 62
     2
 10
174.75335699999991
 20
39.499996000000003
 30
0.0
 11
176.753342
 21
37.499996000000003
 31
0.0
  0
LINE
  5
690
  8
0
 62
     2
 10
176.87466399999991
 20
39.499996000000003
 30
0.0
 11
177.48692299999999
 21
38.887740999999998
 31
0.0
  0
ENDBLK
  5
691
  8
0
  0
BLOCK
  8
0
  2
BLOCK57
 70
     0
 10
0.0
 20
0.0
 30
0.0
  3
BLOCK57
  1

  0
LINE
  5
693
  8
0
 62
     2
 10
184.48692299999999
 20
38.251700999999997
 30
0.0
 11
185.23863199999991
 21
37.499996000000003
 31
0.0
  0
LINE
  5
694
  8
0
 62
     2
 10
185.35995500000001
 20
39.499996000000003
 30
0.0
 11
187.35995500000001
 21
37.499996000000003
 31
0.0
  0
LINE
  5
695
  8
0
 62
     2
 10
187.48127700000001
 20
39.499996000000003
 30
0.0
 11
189.48127700000001
 21
37.499996000000003
 31
0.0
  0
LINE
  5
696
  8
0
 62
     2
 10
189.602585
 20
39.499996000000003
 30
0.0
 11
191.602585
 21
37.499996000000003
 31
0.0
  0
LINE
  5
697
  8
0
 62
     2
 10
191.72390699999991
 20
39.499996000000003
 30
0.0
 11
193.723907
 21
37.499996000000003
 31
0.0
  0
LINE
  5
698
  8
0
 62
     2
 10
193.84522999999999
 20
39.499996000000003
 30
0.0
 11
195.84522999999999
 21
37.499996000000003
 31
0.0
  0
LINE
  5
699
  8
0
 62
     2
 10
195.966553
 20
39.499996000000003
 30
0.0
 11
197.966553
 21
37.499996000000003
 31
0.0
  0
LINE
  5
69A
  8
0
 62
     2
 10
198.087875
 20
39.499996000000003
 30
0.0
 11
200.087875
 21
37.499996000000003
 31
0.0
  0
LINE
  5
69B
  8
0
 62
     2
 10
200.2091979999999
 20
39.499996000000003
 30
0.0
 11
202.2091979999999
 21
37.499996000000003
 31
0.0
  0
LINE
  5
69C
  8
0
 62
     2
 10
202.33050499999999
 20
39.499996000000003
 30
0.0
 11
204.33050499999999
 21
37.499996000000003
 31
0.0
  0
LINE
  5
69D
  8
0
 62
     2
 10
204.45182800000001
 20
39.499996000000003
 30
0.0
 11
206.45182800000001
 21
37.499996000000003
 31
0.0
  0
LINE
  5
69E
  8
0
 62
     2
 10
206.57315099999991
 20
39.499996000000003
 30
0.0
 11
208.573151
 21
37.499996000000003
 31
0.0
  0
LINE
  5
69F
  8
0
 62
     2
 10
208.6944729999999
 20
39.499996000000003
 30
0.0
 11
210.6944729999999
 21
37.499996000000003
 31
0.0
  0
LINE
  5
6A0
  8
0
 62
     2
 10
210.81579600000001
 20
39.499996000000003
 30
0.0
 11
212.81579600000001
 21
37.499996000000003
 31
0.0
  0
LINE
  5
6A1
  8
0
 62
     2
 10
212.937119
 20
39.499996000000003
 30
0.0
 11
214.937119
 21
37.499996000000003
 31
0.0
  0
LINE
  5
6A2
  8
0
 62
     2
 10
215.05842599999991
 20
39.499996000000003
 30
0.0
 11
217.05842599999991
 21
37.499996000000003
 31
0.0
  0
LINE
  5
6A3
  8
0
 62
     2
 10
217.17974899999999
 20
39.499996000000003
 30
0.0
 11
219.17974899999999
 21
37.499996000000003
 31
0.0
  0
LINE
  5
6A4
  8
0
 62
     2
 10
219.30107100000001
 20
39.499996000000003
 30
0.0
 11
221.30107100000001
 21
37.499996000000003
 31
0.0
  0
LINE
  5
6A5
  8
0
 62
     2
 10
221.422394
 20
39.499996000000003
 30
0.0
 11
223.422394
 21
37.499996000000003
 31
0.0
  0
LINE
  5
6A6
  8
0
 62
     2
 10
223.54371599999999
 20
39.499996000000003
 30
0.0
 11
225.54371599999999
 21
37.499996000000003
 31
0.0
  0
LINE
  5
6A7
  8
0
 62
     2
 10
225.66503900000001
 20
39.499996000000003
 30
0.0
 11
227.66503899999989
 21
37.499996000000003
 31
0.0
  0
LINE
  5
6A8
  8
0
 62
     2
 10
227.786362
 20
39.499996000000003
 30
0.0
 11
229.786362
 21
37.499996000000003
 31
0.0
  0
LINE
  5
6A9
  8
0
 62
     2
 10
229.907669
 20
39.499996000000003
 30
0.0
 11
231.907669
 21
37.499996000000003
 31
0.0
  0
LINE
  5
6AA
  8
0
 62
     2
 10
232.02899199999999
 20
39.499996000000003
 30
0.0
 11
234.02899199999999
 21
37.499996000000003
 31
0.0
  0
LINE
  5
6AB
  8
0
 62
     2
 10
234.1503139999999
 20
39.499996000000003
 30
0.0
 11
236.1503139999999
 21
37.499996000000003
 31
0.0
  0
LINE
  5
6AC
  8
0
 62
     2
 10
236.271637
 20
39.499996000000003
 30
0.0
 11
238.271637
 21
37.499996000000003
 31
0.0
  0
LINE
  5
6AD
  8
0
 62
     2
 10
238.39295999999999
 20
39.499996000000003
 30
0.0
 11
240.39295999999999
 21
37.499996000000003
 31
0.0
  0
LINE
  5
6AE
  8
0
 62
     2
 10
240.51428200000001
 20
39.499996000000003
 30
0.0
 11
242.51428200000001
 21
37.499996000000003
 31
0.0
  0
LINE
  5
6AF
  8
0
 62
     2
 10
242.63558999999989
 20
39.499996000000003
 30
0.0
 11
243.53034999999991
 21
38.605240000000002
 31
0.0
  0
ENDBLK
  5
6B0
  8
0
  0
BLOCK
  8
0
  2
BLOCK58
 70
     0
 10
0.0
 20
0.0
 30
0.0
  3
BLOCK58
  1

  0
LINE
  5
6B2
  8
0
 62
     2
 10
42.486927000000001
 20
38.123244999999997
 30
0.0
 11
43.110176000000003
 21
37.499996000000003
 31
0.0
  0
LINE
  5
6B3
  8
0
 62
     2
 10
43.231498999999992
 20
39.499996000000003
 30
0.0
 11
45.231495000000002
 21
37.499996000000003
 31
0.0
  0
LINE
  5
6B4
  8
0
 62
     2
 10
45.352817999999992
 20
39.499996000000003
 30
0.0
 11
46.986927000000001
 21
37.865887000000001
 31
0.0
  0
ENDBLK
  5
6B5
  8
0
  0
BLOCK
  8
0
  2
BLOCK59
 70
     0
 10
0.0
 20
0.0
 30
0.0
  3
BLOCK59
  1

  0
LINE
  5
6B7
  8
0
 62
     2
 10
-20.811654999999998
 20
37.782218999999998
 30
0.0
 11
-20.529429999999991
 21
37.499996000000003
 31
0.0
  0
LINE
  5
6B8
  8
0
 62
     2
 10
-20.408110000000001
 20
39.499996000000003
 30
0.0
 11
-18.408110000000001
 21
37.499996000000003
 31
0.0
  0
LINE
  5
6B9
  8
0
 62
     2
 10
-18.286788999999999
 20
39.499996000000003
 30
0.0
 11
-16.286788999999999
 21
37.499996000000003
 31
0.0
  0
LINE
  5
6BA
  8
0
 62
     2
 10
-16.165468000000001
 20
39.499996000000003
 30
0.0
 11
-14.165469
 21
37.499996000000003
 31
0.0
  0
LINE
  5
6BB
  8
0
 62
     2
 10
-14.044148
 20
39.499996000000003
 30
0.0
 11
-12.044148
 21
37.499996000000003
 31
0.0
  0
LINE
  5
6BC
  8
0
 62
     2
 10
-11.922829
 20
39.499996000000003
 30
0.0
 11
-9.9228290000000001
 21
37.499996000000003
 31
0.0
  0
LINE
  5
6BD
  8
0
 62
     2
 10
-9.8015080000000001
 20
39.499996000000003
 30
0.0
 11
-7.8015080000000001
 21
37.499996000000003
 31
0.0
  0
LINE
  5
6BE
  8
0
 62
     2
 10
-7.6801880000000002
 20
39.499996000000003
 30
0.0
 11
-5.6801879999999993
 21
37.499996000000003
 31
0.0
  0
LINE
  5
6BF
  8
0
 62
     2
 10
-5.5588670000000002
 20
39.499996000000003
 30
0.0
 11
-3.558867999999999
 21
37.499996000000003
 31
0.0
  0
LINE
  5
6C0
  8
0
 62
     2
 10
-3.437546999999999
 20
39.499996000000003
 30
0.0
 11
-1.437548
 21
37.499996000000003
 31
0.0
  0
LINE
  5
6C1
  8
0
 62
     2
 10
-1.316227
 20
39.499996000000003
 30
0.0
 11
0.6837720000000001
 21
37.499996000000003
 31
0.0
  0
LINE
  5
6C2
  8
0
 62
     2
 10
0.8050930000000001
 20
39.499996000000003
 30
0.0
 11
2.8050929999999989
 21
37.499996000000003
 31
0.0
  0
LINE
  5
6C3
  8
0
 62
     2
 10
2.9264130000000002
 20
39.499996000000003
 30
0.0
 11
4.9264130000000002
 21
37.499996000000003
 31
0.0
  0
LINE
  5
6C4
  8
0
 62
     2
 10
5.047733
 20
39.499996000000003
 30
0.0
 11
7.047733
 21
37.499996000000003
 31
0.0
  0
LINE
  5
6C5
  8
0
 62
     2
 10
7.1690539999999991
 20
39.499996000000003
 30
0.0
 11
9.1690529999999981
 21
37.499996000000003
 31
0.0
  0
LINE
  5
6C6
  8
0
 62
     2
 10
9.2903739999999981
 20
39.499996000000003
 30
0.0
 11
11.290374
 21
37.499996000000003
 31
0.0
  0
LINE
  5
6C7
  8
0
 62
     2
 10
11.411694000000001
 20
39.499996000000003
 30
0.0
 11
13.411694000000001
 21
37.499996000000003
 31
0.0
  0
LINE
  5
6C8
  8
0
 62
     2
 10
13.533014
 20
39.499996000000003
 30
0.0
 11
15.533014
 21
37.499996000000003
 31
0.0
  0
LINE
  5
6C9
  8
0
 62
     2
 10
15.654334
 20
39.499996000000003
 30
0.0
 11
17.654335
 21
37.499996000000003
 31
0.0
  0
LINE
  5
6CA
  8
0
 62
     2
 10
17.775653999999999
 20
39.499996000000003
 30
0.0
 11
19.775653999999989
 21
37.499996000000003
 31
0.0
  0
LINE
  5
6CB
  8
0
 62
     2
 10
19.896975000000001
 20
39.499996000000003
 30
0.0
 11
21.896975000000001
 21
37.499996000000003
 31
0.0
  0
LINE
  5
6CC
  8
0
 62
     2
 10
22.018294999999998
 20
39.499996000000003
 30
0.0
 11
24.018294999999998
 21
37.499996000000003
 31
0.0
  0
LINE
  5
6CD
  8
0
 62
     2
 10
24.139616
 20
39.499996000000003
 30
0.0
 11
26.139614000000002
 21
37.499996000000003
 31
0.0
  0
LINE
  5
6CE
  8
0
 62
     2
 10
26.260934999999989
 20
39.499996000000003
 30
0.0
 11
28.260934999999989
 21
37.499996000000003
 31
0.0
  0
LINE
  5
6CF
  8
0
 62
     2
 10
28.382255999999991
 20
39.499996000000003
 30
0.0
 11
30.382256000000002
 21
37.499996000000003
 31
0.0
  0
LINE
  5
6D0
  8
0
 62
     2
 10
30.503575999999999
 20
39.499996000000003
 30
0.0
 11
32.503574
 21
37.499996000000003
 31
0.0
  0
LINE
  5
6D1
  8
0
 62
     2
 10
32.62489699999999
 20
39.499996000000003
 30
0.0
 11
34.62489699999999
 21
37.499996000000003
 31
0.0
  0
LINE
  5
6D2
  8
0
 62
     2
 10
34.74621599999999
 20
39.499996000000003
 30
0.0
 11
35.486927000000001
 21
38.759284999999998
 31
0.0
  0
ENDBLK
  5
6D3
  8
0
  0
BLOCK
  8
0
  2
BLOCK60
 70
     0
 10
0.0
 20
0.0
 30
0.0
  3
BLOCK60
  1

  0
LINE
  5
6D5
  8
0
 62
     2
 10
163.98710600000001
 20
29.053035999999992
 30
0.0
 11
165.04014599999991
 21
27.999998000000001
 31
0.0
  0
LINE
  5
6D6
  8
0
 62
     2
 10
164.66145299999991
 20
30.500004000000001
 30
0.0
 11
167.16146900000001
 21
27.999998000000001
 31
0.0
  0
LINE
  5
6D7
  8
0
 62
     2
 10
166.78277600000001
 20
30.500004000000001
 30
0.0
 11
169.282791
 21
27.999998000000001
 31
0.0
  0
LINE
  5
6D8
  8
0
 62
     2
 10
168.904099
 20
30.500004000000001
 30
0.0
 11
171.40409899999989
 21
27.999998000000001
 31
0.0
  0
LINE
  5
6D9
  8
0
 62
     2
 10
171.02542099999991
 20
30.500004000000001
 30
0.0
 11
172.98710600000001
 21
28.538316999999999
 31
0.0
  0
ENDBLK
  5
6DA
  8
0
  0
BLOCK
  8
0
  2
BLOCK61
 70
     0
 10
0.0
 20
0.0
 30
0.0
  3
BLOCK61
  1

  0
TEXT
  5
6DC
  8
0
 62
     7
 10
0.0
 20
-172.0
 30
0.0
 40
3.0
  1
X
 50
90.0
 41
0.9777764444444425
 72
     5
 11
0.0
 21
-169.800003
 31
0.0
  0
ENDBLK
  5
6DD
  8
0
  0
BLOCK
  8
0
  2
BLOCK62
 70
     0
 10
0.0
 20
0.0
 30
0.0
  3
BLOCK62
  1

  0
TEXT
  5
6DF
  8
0
 62
     7
 10
5.0672909999999991
 20
210.00744599999999
 30
0.0
 40
3.0
  1
X
 50
90.0
 41
0.9777764444444551
 72
     5
 11
5.0672909999999991
 21
212.20744300000001
 31
0.0
  0
ENDBLK
  5
6E0
  8
0
  0
BLOCK
  8
0
  2
BLOCK63
 70
     0
 10
0.0
 20
0.0
 30
0.0
  3
BLOCK63
  1

  0
TEXT
  5
6E2
  8
0
 62
     7
 10
-162.0
 20
-3.0
 30
0.0
 40
3.0
  1
Y
 50
90.0
 41
0.9777777777777778
 72
     5
 11
-162.0
 21
-0.8
 31
0.0
  0
ENDBLK
  5
6E3
  8
0
  0
BLOCK
  8
0
  2
BLOCK64
 70
     0
 10
0.0
 20
0.0
 30
0.0
  3
BLOCK64
  1

  0
TEXT
  5
6E5
  8
0
 62
     7
 10
187.0
 20
-1.0
 30
0.0
 40
3.0
  1
Y
 50
90.0
 41
0.9777777777777778
 72
     5
 11
187.0
 21
1.1999999999999991
 31
0.0
  0
ENDBLK
  5
6E6
  8
0
  0
BLOCK
  8
0
  2
BLOCK65
 70
     0
 10
0.0
 20
0.0
 30
0.0
  3
BLOCK65
  1

  0
TEXT
  5
6E8
  8
0
 62
     7
 10
-142.934662
 20
20.5
 30
0.0
 40
3.0
  1
63
 50
90.0
 41
1.2776591662854091
 72
     5
 11
-142.934662
 21
25.449988999999999
 31
0.0
  0
ENDBLK
  5
6E9
  8
0
  0
BLOCK
  8
0
  2
BLOCK66
 70
     0
 10
0.0
 20
0.0
 30
0.0
  3
BLOCK66
  1

  0
TEXT
  5
6EB
  8
0
 62
     7
 10
-175.88305700000001
 20
-21.0
 30
0.0
 40
3.0
  1
135
 50
90.0
 41
1.432750587160017
 72
     5
 11
-175.88305700000001
 21
-13.30002
 31
0.0
  0
ENDBLK
  5
6EC
  8
0
  0
BLOCK
  8
0
  2
BLOCK67
 70
     0
 10
0.0
 20
0.0
 30
0.0
  3
BLOCK67
  1

  0
TEXT
  5
6EE
  8
0
 62
     7
 10
98.069710000000001
 20
29.5
 30
0.0
 40
3.0
  1
81
 50
90.0
 41
1.571425079365079
 72
     5
 11
98.069710000000001
 21
34.449989000000002
 31
0.0
  0
ENDBLK
  5
6EF
  8
0
  0
BLOCK
  8
0
  2
BLOCK68
 70
     0
 10
0.0
 20
0.0
 30
0.0
  3
BLOCK68
  1

  0
TEXT
  5
6F1
  8
0
 62
     7
 10
126.482727
 20
2.0
 30
0.0
 40
3.0
  1
125
 50
90.0
 41
1.432750587160017
 72
     5
 11
126.482727
 21
9.69998
 31
0.0
  0
ENDBLK
  5
6F2
  8
0
  0
BLOCK
  8
0
  2
BLOCK69
 70
     0
 10
0.0
 20
0.0
 30
0.0
  3
BLOCK69
  1

  0
TEXT
  5
6F4
  8
0
 62
     7
 10
-15.944328000000001
 20
36.0
 30
0.0
 40
3.0
  1
94
 50
89.999976850138637
 41
1.2190640892680471
 72
     5
 11
-15.944326
 21
40.949989000000002
 31
0.0
  0
ENDBLK
  5
6F5
  8
0
  0
BLOCK
  8
0
  2
BLOCK70
 70
     0
 10
0.0
 20
0.0
 30
0.0
  3
BLOCK70
  1

  0
TEXT
  5
6F7
  8
0
 62
     7
 10
40.158951000000002
 20
28.069824000000001
 30
0.0
 40
3.0
  1
16
 50
179.9999537002866
 41
1.5005340255405331
 72
     5
 11
35.208960999999988
 21
28.069828000000001
 31
0.0
  0
ENDBLK
  5
6F8
  8
0
  0
BLOCK
  8
0
  2
BLOCK71
 70
     0
 10
0.0
 20
0.0
 30
0.0
  3
BLOCK71
  1

  0
TEXT
  5
6FA
  8
0
 62
     7
 10
18.75
 20
201.624573
 30
0.0
 40
3.0
  1
142
 50
180.0
 41
1.3437594995413831
 72
     5
 11
11.05002
 21
201.624573
 31
0.0
  0
ENDBLK
  5
6FB
  8
0
  0
BLOCK
  8
0
  2
BLOCK72
 70
     0
 10
0.0
 20
0.0
 30
0.0
  3
BLOCK72
  1

  0
TEXT
  5
6FD
  8
0
 62
     7
 10
18.75
 20
-120.5733639999999
 30
0.0
 40
3.0
  1
126
 50
179.99994791279249
 41
1.4262341719542091
 72
     5
 11
11.05002
 21
-120.573357
 31
0.0
  0
ENDBLK
  5
6FE
  8
0
  0
BLOCK
  8
0
  2
BLOCK73
 70
     0
 10
0.0
 20
0.0
 30
0.0
  3
BLOCK73
  1

  0
TEXT
  5
700
  8
0
 62
     7
 10
-33.25
 20
174.83654799999991
 30
0.0
 40
3.0
  1
=
 50
180.0
 41
1.333333939393939
 72
     5
 11
-35.450001
 21
174.83654799999991
 31
0.0
  0
ENDBLK
  5
701
  8
0
  0
BLOCK
  8
0
  2
BLOCK74
 70
     0
 10
0.0
 20
0.0
 30
0.0
  3
BLOCK74
  1

  0
TEXT
  5
703
  8
0
 62
     7
 10
37.75
 20
174.83654799999991
 30
0.0
 40
3.0
  1
=
 50
180.0
 41
1.333333939393939
 72
     5
 11
35.549999
 21
174.83654799999991
 31
0.0
  0
ENDBLK
  5
704
  8
0
  0
BLOCK
  8
0
  2
BLOCK75
 70
     0
 10
0.0
 20
0.0
 30
0.0
  3
BLOCK75
  1

  0
TEXT
  5
706
  8
0
 62
     7
 10
-9.75
 20
151.16186499999989
 30
0.0
 40
3.0
  1
27,25
 50
179.99993489096721
 41
1.446687743866663
 72
     5
 11
-22.949960999999998
 21
151.16187999999991
 31
0.0
  0
ENDBLK
  5
707
  8
0
  0
BLOCK
  8
0
  2
BLOCK76
 70
     0
 10
0.0
 20
0.0
 30
0.0
  3
BLOCK76
  1

  0
TEXT
  5
709
  8
0
 62
     7
 10
-113.1802219999999
 20
-56.5
 30
0.0
 40
3.0
  1
45
 50
90.0
 41
1.185835136090813
 72
     5
 11
-113.1802219999999
 21
-51.550010999999991
 31
0.0
  0
ENDBLK
  5
70A
  8
0
  0
BLOCK
  8
0
  2
BLOCK77
 70
     0
 10
0.0
 20
0.0
 30
0.0
  3
BLOCK77
  1

  0
TEXT
  5
70C
  8
0
 62
     7
 10
-12.0
 20
-150.1596679999999
 30
0.0
 40
3.0
  1
72,5
 50
179.99991775701821
 41
1.4876960629310481
 72
     5
 11
-22.44997
 21
-150.15965299999999
 31
0.0
  0
ENDBLK
  5
70D
  8
0
  0
BLOCK
  8
0
  2
BLOCK78
 70
     0
 10
0.0
 20
0.0
 30
0.0
  3
BLOCK78
  1

  0
TEXT
  5
70F
  8
0
 62
     7
 10
160.72511299999991
 20
7.1459960000000002
 30
0.0
 40
3.0
  1
R min.200
 50
90.0
 41
1.5075614848061221
 72
     5
 11
160.72511299999991
 21
31.345918999999999
 31
0.0
  0
ENDBLK
  5
710
  8
0
  0
BLOCK
  8
0
  2
BLOCK79
 70
     0
 10
0.0
 20
0.0
 30
0.0
  3
BLOCK79
  1

  0
TEXT
  5
712
  8
0
 62
     7
 10
-161.41625999999999
 20
168.32591199999999
 30
0.0
 40
3.0
  1
8
 50
136.2494211711759
 41
1.3333221349127371
 72
     5
 11
-163.00543200000001
 21
169.8472439999999
 31
0.0
  0
TEXT
  5
713
  8
0
 62
     7
 10
-159.1047209999999
 20
166.11305200000001
 30
0.0
 40
3.0
  1
%%c
 50
136.2494211711759
 41
0.9777695656026917
 72
     5
 11
-160.693893
 21
167.63438400000001
 31
0.0
  0
TEXT
  5
714
  8
0
 62
     7
 10
-146.680161
 20
154.218918
 30
0.0
 40
3.0
  1
3 fori
 50
136.2495453454593
 41
1.7142859646969479
 72
     5
 11
-158.38237000000001
 21
165.42152400000001
 31
0.0
  0
POLYLINE
  5
715
  8
0
 62
     7
 66
     1
 10
0.0
 20
0.0
 30
0.0
  0
VERTEX
  5
923
  8
0
 62
     7
 10
-67.614013999999997
 20
79.195914999999999
 30
0.0
  0
VERTEX
  5
924
  8
0
 62
     7
 10
-65.860573000000002
 20
78.233924999999999
 30
0.0
  0
VERTEX
  5
925
  8
0
 62
     7
 10
-66.898102000000009
 20
79.943756000000008
 30
0.0
  0
SEQEND
  5
926
  8
0
 62
     7
  0
POLYLINE
  5
71A
  8
0
 62
     7
 66
     1
 10
0.0
 20
0.0
 30
0.0
  0
VERTEX
  5
927
  8
0
 62
     7
 10
-69.885986000000003
 20
82.804085000000001
 30
0.0
  0
VERTEX
  5
928
  8
0
 62
     7
 10
-71.639426999999984
 20
83.766075000000001
 30
0.0
  0
VERTEX
  5
929
  8
0
 62
     7
 10
-70.601897999999991
 20
82.056243999999992
 30
0.0
  0
SEQEND
  5
92A
  8
0
 62
     7
  0
LINE
  5
71F
  8
0
 62
     7
 10
-162.313919
 20
170.56961100000001
 30
0.0
 11
-65.860573000000002
 21
78.233924999999999
 31
0.0
  0
ENDBLK
  5
720
  8
0
  0
BLOCK
  8
0
  2
BLOCK80
 70
     0
 10
0.0
 20
0.0
 30
0.0
  3
BLOCK80
  1

  0
TEXT
  5
722
  8
0
 62
     7
 10
108.001457
 20
130.093491
 30
0.0
 40
3.0
  1
7
 50
53.754011310903323
 41
1.33332717080146
 72
     5
 11
109.30220799999999
 21
131.867752
 31
0.0
  0
TEXT
  5
723
  8
0
 62
     7
 10
105.63645200000001
 20
126.8675379999999
 30
0.0
 40
3.0
  1
%%c
 50
53.754114403487947
 41
1.333335431760502
 72
     5
 11
107.41021000000001
 21
129.287003
 31
0.0
  0
POLYLINE
  5
724
  8
0
 62
     7
 66
     1
 10
0.0
 20
0.0
 30
0.0
  0
VERTEX
  5
92B
  8
0
 62
     7
 10
76.04412099999999
 20
85.686774999999983
 30
0.0
  0
VERTEX
  5
92C
  8
0
 62
     7
 10
75.31938199999999
 20
83.822707999999977
 30
0.0
  0
VERTEX
  5
92D
  8
0
 62
     7
 10
76.879058999999998
 20
85.074661000000006
 30
0.0
  0
SEQEND
  5
92E
  8
0
 62
     7
  0
POLYLINE
  5
729
  8
0
 62
     7
 66
     1
 10
0.0
 20
0.0
 30
0.0
  0
VERTEX
  5
92F
  8
0
 62
     7
 10
70.45587900000001
 20
76.313225000000003
 30
0.0
  0
VERTEX
  5
930
  8
0
 62
     7
 10
71.18061800000001
 20
78.177292000000008
 30
0.0
  0
VERTEX
  5
931
  8
0
 62
     7
 10
69.620941000000002
 20
76.925338999999994
 30
0.0
  0
SEQEND
  5
932
  8
0
 62
     7
  0
LINE
  5
72E
  8
0
 62
     7
 10
68.224357999999995
 20
74.144858999999997
 30
0.0
 11
110.1086959999999
 21
131.27648899999991
 31
0.0
  0
ENDBLK
  5
72F
  8
0
  0
BLOCK
  8
0
  2
BLOCK81
 70
     0
 10
0.0
 20
0.0
 30
0.0
  3
BLOCK81
  1

  0
TEXT
  5
731
  8
0
 62
     7
 10
-100.824791
 20
-100.57004499999989
 30
0.0
 40
3.0
  1
7
 50
61.328128820293941
 41
1.3333305687932739
 72
     5
 11
-99.769249000000002
 21
-98.639809000000014
 31
0.0
  0
TEXT
  5
732
  8
0
 62
     7
 10
-102.74395800000001
 20
-104.07957500000001
 30
0.0
 40
3.0
  1
%%c
 50
61.328121250211971
 41
1.333331678242903
 72
     5
 11
-101.3045809999999
 21
-101.4474329999999
 31
0.0
  0
POLYLINE
  5
733
  8
0
 62
     7
 66
     1
 10
0.0
 20
0.0
 30
0.0
  0
VERTEX
  5
933
  8
0
 62
     7
 10
-67.543448999999995
 20
-42.872494000000003
 30
0.0
  0
VERTEX
  5
934
  8
0
 62
     7
 10
-67.070723999999998
 20
-40.929161000000001
 30
0.0
  0
VERTEX
  5
935
  8
0
 62
     7
 10
-68.451781999999994
 20
-42.375774
 30
0.0
  0
SEQEND
  5
936
  8
0
 62
     7
  0
POLYLINE
  5
738
  8
0
 62
     7
 66
     1
 10
0.0
 20
0.0
 30
0.0
  0
VERTEX
  5
937
  8
0
 62
     7
 10
-69.956551000000005
 20
-45.12750599999999
 30
0.0
  0
VERTEX
  5
938
  8
0
 62
     7
 10
-70.429276000000002
 20
-47.070838999999992
 30
0.0
  0
VERTEX
  5
939
  8
0
 62
     7
 10
-69.048218000000006
 20
-45.624226
 30
0.0
  0
SEQEND
  5
93A
  8
0
 62
     7
  0
LINE
  5
73D
  8
0
 62
     7
 10
-101.86657700000001
 20
-104.559364
 30
0.0
 11
-67.070723999999998
 21
-40.929161000000001
 31
0.0
  0
ENDBLK
  5
73E
  8
0
  0
BLOCK
  8
0
  2
BLOCK82
 70
     0
 10
0.0
 20
0.0
 30
0.0
  3
BLOCK82
  1

  0
TEXT
  5
740
  8
0
 62
     7
 10
-5.9100650000000003
 20
-21.445678999999998
 30
0.0
 40
3.0
  1
%%c4
 50
179.9999537002866
 41
1.0645139784949711
 72
     5
 11
-10.860054999999999
 21
-21.445675000000001
 31
0.0
  0
ENDBLK
  5
741
  8
0
  0
BLOCK
  8
0
  2
BLOCK83
 70
     0
 10
0.0
 20
0.0
 30
0.0
  3
BLOCK83
  1

  0
TEXT
  5
743
  8
0
 62
     7
 10
4.125
 20
18.878112999999999
 30
0.0
 40
3.0
  1
80%%d
 50
179.999955353822
 41
1.3873837837842049
 72
     5
 11
-3.57498
 21
18.878119000000002
 31
0.0
  0
ENDBLK
  5
744
  8
0
  0
BLOCK
  8
0
  2
BLOCK84
 70
     0
 10
0.0
 20
0.0
 30
0.0
  3
BLOCK84
  1

  0
LINE
  5
746
  8
0
 62
     2
 10
-3.2426400000000002
 20
-1.0
 30
0.0
 11
-5.2426399999999989
 21
1.0
 31
0.0
  0
LINE
  5
747
  8
0
 62
     2
 10
-5.3639609999999989
 20
-1.0
 30
0.0
 11
-7.3639599999999996
 21
1.0
 31
0.0
  0
LINE
  5
748
  8
0
 62
     2
 10
-7.4852809999999987
 20
-1.0
 30
0.0
 11
-9.4852810000000005
 21
1.0
 31
0.0
  0
LINE
  5
749
  8
0
 62
     2
 10
-9.6066009999999995
 20
-1.0
 30
0.0
 11
-11.606601
 21
1.0
 31
0.0
  0
LINE
  5
74A
  8
0
 62
     2
 10
-11.727921
 20
-1.0
 30
0.0
 11
-11.976111
 21
-0.7518100000000001
 31
0.0
  0
ENDBLK
  5
74B
  8
0
  0
BLOCK
  8
0
  2
BLOCK85
 70
     0
 10
0.0
 20
0.0
 30
0.0
  3
BLOCK85
  1

  0
LINE
  5
74D
  8
0
 62
     2
 10
9.4852810000000005
 20
-1.0
 30
0.0
 11
7.4852809999999987
 21
1.0
 31
0.0
  0
LINE
  5
74E
  8
0
 62
     2
 10
7.3639599999999996
 20
-1.0
 30
0.0
 11
5.3639609999999989
 21
1.0
 31
0.0
  0
LINE
  5
74F
  8
0
 62
     2
 10
5.2426399999999989
 20
-1.0
 30
0.0
 11
3.479473
 21
0.7631670000000002
 31
0.0
  0
LINE
  5
750
  8
0
 62
     2
 10
3.121319999999999
 20
-1.0
 30
0.0
 11
2.5116089999999991
 21
-0.390289
 31
0.0
  0
ENDBLK
  5
751
  8
0
  0
ENDSEC
  0
SECTION
  2
ENTITIES
  0
LINE
  5
25
  8
0
  6
DASHDOT
 62
     7
 10
884.27468299999987
 20
761.61325799999986
 30
0.0
 11
884.27468299999987
 21
518.73062900000002
 31
0.0
  0
POLYLINE
  5
26
  8
0
 62
     3
 66
     1
 10
0.0
 20
0.0
 30
0.0
  0
VERTEX
  5
7BB
  8
0
 62
     3
 10
951.77468299999998
 20
750.61293799999987
 30
0.0
  0
VERTEX
  5
7BC
  8
0
 62
     3
 10
951.77468299999998
 20
734.61293799999987
 30
0.0
  0
VERTEX
  5
7BD
  8
0
 62
     3
 10
953.77468299999987
 20
733.61293799999999
 30
0.0
  0
VERTEX
  5
7BE
  8
0
 62
     3
 10
949.77468299999998
 20
732.61293799999999
 30
0.0
  0
VERTEX
  5
7BF
  8
0
 62
     3
 10
951.77468299999998
 20
731.61293799999987
 30
0.0
  0
VERTEX
  5
7C0
  8
0
 62
     3
 10
951.77468299999998
 20
715.61293799999999
 30
0.0
  0
VERTEX
  5
7C1
  8
0
 62
     3
 10
953.77468299999987
 20
714.61293799999987
 30
0.0
  0
VERTEX
  5
7C2
  8
0
 62
     3
 10
949.77468299999998
 20
713.61293799999987
 30
0.0
  0
VERTEX
  5
7C3
  8
0
 62
     3
 10
951.77468299999998
 20
712.61293799999999
 30
0.0
  0
VERTEX
  5
7C4
  8
0
 62
     3
 10
951.77468299999998
 20
696.61293799999987
 30
0.0
  0
VERTEX
  5
7C5
  8
0
 62
     3
 10
953.77468299999987
 20
695.61293799999999
 30
0.0
  0
VERTEX
  5
7C6
  8
0
 62
     3
 10
949.77468299999998
 20
694.61293799999999
 30
0.0
  0
VERTEX
  5
7C7
  8
0
 62
     3
 10
951.77468299999998
 20
693.61293799999987
 30
0.0
  0
VERTEX
  5
7C8
  8
0
 62
     3
 10
951.77468299999998
 20
677.61293799999999
 30
0.0
  0
VERTEX
  5
7C9
  8
0
 62
     3
 10
953.77468299999987
 20
676.61293799999987
 30
0.0
  0
VERTEX
  5
7CA
  8
0
 62
     3
 10
949.77468299999998
 20
675.61293799999987
 30
0.0
  0
VERTEX
  5
7CB
  8
0
 62
     3
 10
951.77468299999998
 20
674.61293799999999
 30
0.0
  0
VERTEX
  5
7CC
  8
0
 62
     3
 10
951.77468299999998
 20
658.61293799999999
 30
0.0
  0
VERTEX
  5
7CD
  8
0
 62
     3
 10
953.77468299999987
 20
657.61293799999999
 30
0.0
  0
VERTEX
  5
7CE
  8
0
 62
     3
 10
949.77468299999998
 20
656.61293799999987
 30
0.0
  0
VERTEX
  5
7CF
  8
0
 62
     3
 10
951.77468299999998
 20
655.61293799999987
 30
0.0
  0
VERTEX
  5
7D0
  8
0
 62
     3
 10
951.77468299999998
 20
639.61293799999987
 30
0.0
  0
VERTEX
  5
7D1
  8
0
 62
     3
 10
953.77468299999987
 20
638.61293799999987
 30
0.0
  0
VERTEX
  5
7D2
  8
0
 62
     3
 10
949.77468299999998
 20
637.61293799999999
 30
0.0
  0
VERTEX
  5
7D3
  8
0
 62
     3
 10
951.77468299999998
 20
636.61293799999999
 30
0.0
  0
VERTEX
  5
7D4
  8
0
 62
     3
 10
951.77468299999998
 20
620.61293799999999
 30
0.0
  0
VERTEX
  5
7D5
  8
0
 62
     3
 10
953.77468299999987
 20
619.61293799999999
 30
0.0
  0
VERTEX
  5
7D6
  8
0
 62
     3
 10
949.77468299999998
 20
618.61293799999987
 30
0.0
  0
VERTEX
  5
7D7
  8
0
 62
     3
 10
951.77468299999998
 20
617.61293799999987
 30
0.0
  0
VERTEX
  5
7D8
  8
0
 62
     3
 10
951.77468299999998
 20
601.61293799999987
 30
0.0
  0
VERTEX
  5
7D9
  8
0
 62
     3
 10
953.77468299999987
 20
600.61293799999987
 30
0.0
  0
VERTEX
  5
7DA
  8
0
 62
     3
 10
949.77468299999998
 20
599.61293799999999
 30
0.0
  0
VERTEX
  5
7DB
  8
0
 62
     3
 10
951.77468299999998
 20
598.61293799999999
 30
0.0
  0
VERTEX
  5
7DC
  8
0
 62
     3
 10
951.77468299999998
 20
582.61293799999999
 30
0.0
  0
VERTEX
  5
7DD
  8
0
 62
     3
 10
953.77468299999987
 20
581.61293799999987
 30
0.0
  0
VERTEX
  5
7DE
  8
0
 62
     3
 10
949.77468299999998
 20
580.61293799999987
 30
0.0
  0
VERTEX
  5
7DF
  8
0
 62
     3
 10
951.77468299999998
 20
579.61293799999987
 30
0.0
  0
VERTEX
  5
7E0
  8
0
 62
     3
 10
951.77468299999998
 20
563.61293799999987
 30
0.0
  0
VERTEX
  5
7E1
  8
0
 62
     3
 10
953.77468299999987
 20
562.61293799999999
 30
0.0
  0
VERTEX
  5
7E2
  8
0
 62
     3
 10
949.77468299999998
 20
561.61293799999999
 30
0.0
  0
VERTEX
  5
7E3
  8
0
 62
     3
 10
951.77468299999998
 20
560.61293799999987
 30
0.0
  0
VERTEX
  5
7E4
  8
0
 62
     3
 10
951.77468299999998
 20
545.54228199999989
 30
0.0
  0
SEQEND
  5
7E5
  8
0
 62
     3
  0
POLYLINE
  5
52
  8
0
 62
     3
 66
     1
 10
0.0
 20
0.0
 30
0.0
  0
VERTEX
  5
7E6
  8
0
 62
     3
 10
951.77468299999998
 20
545.54228199999989
 30
0.0
  0
VERTEX
  5
7E7
  8
0
 62
     3
 10
935.77468299999987
 20
545.54228199999989
 30
0.0
  0
VERTEX
  5
7E8
  8
0
 62
     3
 10
934.77468299999998
 20
543.542282
 30
0.0
  0
VERTEX
  5
7E9
  8
0
 62
     3
 10
933.77468299999998
 20
547.542282
 30
0.0
  0
VERTEX
  5
7EA
  8
0
 62
     3
 10
932.77468299999998
 20
545.54228199999989
 30
0.0
  0
VERTEX
  5
7EB
  8
0
 62
     3
 10
916.77468299999998
 20
545.54228199999989
 30
0.0
  0
VERTEX
  5
7EC
  8
0
 62
     3
 10
915.77468299999998
 20
543.542282
 30
0.0
  0
VERTEX
  5
7ED
  8
0
 62
     3
 10
914.77468299999998
 20
547.542282
 30
0.0
  0
VERTEX
  5
7EE
  8
0
 62
     3
 10
913.77468299999987
 20
545.54228199999989
 30
0.0
  0
VERTEX
  5
7EF
  8
0
 62
     3
 10
897.77468299999987
 20
545.54228199999989
 30
0.0
  0
VERTEX
  5
7F0
  8
0
 62
     3
 10
896.77468299999987
 20
543.542282
 30
0.0
  0
VERTEX
  5
7F1
  8
0
 62
     3
 10
895.77468299999987
 20
547.542282
 30
0.0
  0
VERTEX
  5
7F2
  8
0
 62
     3
 10
894.77468299999987
 20
545.54228199999989
 30
0.0
  0
VERTEX
  5
7F3
  8
0
 62
     3
 10
878.77468299999987
 20
545.54228199999989
 30
0.0
  0
VERTEX
  5
7F4
  8
0
 62
     3
 10
877.77468299999987
 20
543.542282
 30
0.0
  0
VERTEX
  5
7F5
  8
0
 62
     3
 10
876.77468299999998
 20
547.542282
 30
0.0
  0
VERTEX
  5
7F6
  8
0
 62
     3
 10
875.77468299999998
 20
545.54228199999989
 30
0.0
  0
VERTEX
  5
7F7
  8
0
 62
     3
 10
859.77468299999998
 20
545.54228199999989
 30
0.0
  0
VERTEX
  5
7F8
  8
0
 62
     3
 10
858.77468299999998
 20
543.542282
 30
0.0
  0
VERTEX
  5
7F9
  8
0
 62
     3
 10
857.77468299999998
 20
547.542282
 30
0.0
  0
VERTEX
  5
7FA
  8
0
 62
     3
 10
856.77468299999998
 20
545.54228199999989
 30
0.0
  0
VERTEX
  5
7FB
  8
0
 62
     3
 10
840.77468299999998
 20
545.54228199999989
 30
0.0
  0
VERTEX
  5
7FC
  8
0
 62
     3
 10
839.77468299999987
 20
543.542282
 30
0.0
  0
VERTEX
  5
7FD
  8
0
 62
     3
 10
838.77468299999987
 20
547.542282
 30
0.0
  0
VERTEX
  5
7FE
  8
0
 62
     3
 10
837.77468299999987
 20
545.54228199999989
 30
0.0
  0
VERTEX
  5
7FF
  8
0
 62
     3
 10
821.77468299999987
 20
545.54228199999989
 30
0.0
  0
VERTEX
  5
800
  8
0
 62
     3
 10
820.77468299999987
 20
543.542282
 30
0.0
  0
VERTEX
  5
801
  8
0
 62
     3
 10
819.77468299999987
 20
547.542282
 30
0.0
  0
VERTEX
  5
802
  8
0
 62
     3
 10
818.77468299999998
 20
545.54228199999989
 30
0.0
  0
VERTEX
  5
803
  8
0
 62
     3
 10
802.77468299999987
 20
545.54228199999989
 30
0.0
  0
VERTEX
  5
804
  8
0
 62
     3
 10
801.77468299999998
 20
543.542282
 30
0.0
  0
VERTEX
  5
805
  8
0
 62
     3
 10
800.77468299999998
 20
547.542282
 30
0.0
  0
VERTEX
  5
806
  8
0
 62
     3
 10
799.77468299999987
 20
545.54228199999989
 30
0.0
  0
VERTEX
  5
807
  8
0
 62
     3
 10
784.27468299999998
 20
545.54228199999989
 30
0.0
  0
SEQEND
  5
808
  8
0
 62
     3
  0
POLYLINE
  5
76
  8
0
 62
     3
 66
     1
 10
0.0
 20
0.0
 30
0.0
  0
VERTEX
  5
809
  8
0
 62
     3
 10
784.27468299999998
 20
750.61293799999987
 30
0.0
  0
VERTEX
  5
80A
  8
0
 62
     3
 10
784.27468299999998
 20
734.61293799999987
 30
0.0
  0
VERTEX
  5
80B
  8
0
 62
     3
 10
786.27468299999987
 20
733.61293799999999
 30
0.0
  0
VERTEX
  5
80C
  8
0
 62
     3
 10
782.27468299999987
 20
732.61293799999999
 30
0.0
  0
VERTEX
  5
80D
  8
0
 62
     3
 10
784.27468299999998
 20
731.61293799999987
 30
0.0
  0
VERTEX
  5
80E
  8
0
 62
     3
 10
784.27468299999998
 20
715.61293799999999
 30
0.0
  0
VERTEX
  5
80F
  8
0
 62
     3
 10
786.27468299999987
 20
714.61293799999987
 30
0.0
  0
VERTEX
  5
810
  8
0
 62
     3
 10
782.27468299999987
 20
713.61293799999987
 30
0.0
  0
VERTEX
  5
811
  8
0
 62
     3
 10
784.27468299999998
 20
712.61293799999999
 30
0.0
  0
VERTEX
  5
812
  8
0
 62
     3
 10
784.27468299999998
 20
696.61293799999987
 30
0.0
  0
VERTEX
  5
813
  8
0
 62
     3
 10
786.27468299999987
 20
695.61293799999999
 30
0.0
  0
VERTEX
  5
814
  8
0
 62
     3
 10
782.27468299999987
 20
694.61293799999999
 30
0.0
  0
VERTEX
  5
815
  8
0
 62
     3
 10
784.27468299999998
 20
693.61293799999987
 30
0.0
  0
VERTEX
  5
816
  8
0
 62
     3
 10
784.27468299999998
 20
677.61293799999999
 30
0.0
  0
VERTEX
  5
817
  8
0
 62
     3
 10
786.27468299999987
 20
676.61293799999987
 30
0.0
  0
VERTEX
  5
818
  8
0
 62
     3
 10
782.27468299999987
 20
675.61293799999987
 30
0.0
  0
VERTEX
  5
819
  8
0
 62
     3
 10
784.27468299999998
 20
674.61293799999999
 30
0.0
  0
VERTEX
  5
81A
  8
0
 62
     3
 10
784.27468299999998
 20
658.61293799999999
 30
0.0
  0
VERTEX
  5
81B
  8
0
 62
     3
 10
786.27468299999987
 20
657.61293799999999
 30
0.0
  0
VERTEX
  5
81C
  8
0
 62
     3
 10
782.27468299999987
 20
656.61293799999987
 30
0.0
  0
VERTEX
  5
81D
  8
0
 62
     3
 10
784.27468299999998
 20
655.61293799999987
 30
0.0
  0
VERTEX
  5
81E
  8
0
 62
     3
 10
784.27468299999998
 20
639.61293799999987
 30
0.0
  0
VERTEX
  5
81F
  8
0
 62
     3
 10
786.27468299999987
 20
638.61293799999987
 30
0.0
  0
VERTEX
  5
820
  8
0
 62
     3
 10
782.27468299999987
 20
637.61293799999999
 30
0.0
  0
VERTEX
  5
821
  8
0
 62
     3
 10
784.27468299999998
 20
636.61293799999999
 30
0.0
  0
VERTEX
  5
822
  8
0
 62
     3
 10
784.27468299999998
 20
620.61293799999999
 30
0.0
  0
VERTEX
  5
823
  8
0
 62
     3
 10
786.27468299999987
 20
619.61293799999999
 30
0.0
  0
VERTEX
  5
824
  8
0
 62
     3
 10
782.27468299999987
 20
618.61293799999987
 30
0.0
  0
VERTEX
  5
825
  8
0
 62
     3
 10
784.27468299999998
 20
617.61293799999987
 30
0.0
  0
VERTEX
  5
826
  8
0
 62
     3
 10
784.27468299999998
 20
601.61293799999987
 30
0.0
  0
VERTEX
  5
827
  8
0
 62
     3
 10
786.27468299999987
 20
600.61293799999987
 30
0.0
  0
VERTEX
  5
828
  8
0
 62
     3
 10
782.27468299999987
 20
599.61293799999999
 30
0.0
  0
VERTEX
  5
829
  8
0
 62
     3
 10
784.27468299999998
 20
598.61293799999999
 30
0.0
  0
VERTEX
  5
82A
  8
0
 62
     3
 10
784.27468299999998
 20
582.61293799999999
 30
0.0
  0
VERTEX
  5
82B
  8
0
 62
     3
 10
786.27468299999987
 20
581.61293799999987
 30
0.0
  0
VERTEX
  5
82C
  8
0
 62
     3
 10
782.27468299999987
 20
580.61293799999987
 30
0.0
  0
VERTEX
  5
82D
  8
0
 62
     3
 10
784.27468299999998
 20
579.61293799999987
 30
0.0
  0
VERTEX
  5
82E
  8
0
 62
     3
 10
784.27468299999998
 20
563.61293799999987
 30
0.0
  0
VERTEX
  5
82F
  8
0
 62
     3
 10
786.27468299999987
 20
562.61293799999999
 30
0.0
  0
VERTEX
  5
830
  8
0
 62
     3
 10
782.27468299999987
 20
561.61293799999999
 30
0.0
  0
VERTEX
  5
831
  8
0
 62
     3
 10
784.27468299999998
 20
560.61293799999987
 30
0.0
  0
VERTEX
  5
832
  8
0
 62
     3
 10
784.27468299999998
 20
545.54228199999989
 30
0.0
  0
SEQEND
  5
833
  8
0
 62
     3
  0
POLYLINE
  5
A2
  8
0
 62
     3
 66
     1
 10
0.0
 20
0.0
 30
0.0
  0
VERTEX
  5
834
  8
0
 62
     3
 10
951.77468299999998
 20
750.61293799999987
 30
0.0
  0
VERTEX
  5
835
  8
0
 62
     3
 10
935.77468299999987
 20
750.61293799999987
 30
0.0
  0
VERTEX
  5
836
  8
0
 62
     3
 10
934.77468299999998
 20
748.61293799999999
 30
0.0
  0
VERTEX
  5
837
  8
0
 62
     3
 10
933.77468299999998
 20
752.61293799999999
 30
0.0
  0
VERTEX
  5
838
  8
0
 62
     3
 10
932.77468299999998
 20
750.61293799999987
 30
0.0
  0
VERTEX
  5
839
  8
0
 62
     3
 10
916.77468299999998
 20
750.61293799999987
 30
0.0
  0
VERTEX
  5
83A
  8
0
 62
     3
 10
915.77468299999998
 20
748.61293799999999
 30
0.0
  0
VERTEX
  5
83B
  8
0
 62
     3
 10
914.77468299999998
 20
752.61293799999999
 30
0.0
  0
VERTEX
  5
83C
  8
0
 62
     3
 10
913.77468299999987
 20
750.61293799999987
 30
0.0
  0
VERTEX
  5
83D
  8
0
 62
     3
 10
897.77468299999987
 20
750.61293799999987
 30
0.0
  0
VERTEX
  5
83E
  8
0
 62
     3
 10
896.77468299999987
 20
748.61293799999999
 30
0.0
  0
VERTEX
  5
83F
  8
0
 62
     3
 10
895.77468299999987
 20
752.61293799999999
 30
0.0
  0
VERTEX
  5
840
  8
0
 62
     3
 10
894.77468299999987
 20
750.61293799999987
 30
0.0
  0
VERTEX
  5
841
  8
0
 62
     3
 10
878.77468299999987
 20
750.61293799999987
 30
0.0
  0
VERTEX
  5
842
  8
0
 62
     3
 10
877.77468299999987
 20
748.61293799999999
 30
0.0
  0
VERTEX
  5
843
  8
0
 62
     3
 10
876.77468299999998
 20
752.61293799999999
 30
0.0
  0
VERTEX
  5
844
  8
0
 62
     3
 10
875.77468299999998
 20
750.61293799999987
 30
0.0
  0
VERTEX
  5
845
  8
0
 62
     3
 10
859.77468299999998
 20
750.61293799999987
 30
0.0
  0
VERTEX
  5
846
  8
0
 62
     3
 10
858.77468299999998
 20
748.61293799999999
 30
0.0
  0
VERTEX
  5
847
  8
0
 62
     3
 10
857.77468299999998
 20
752.61293799999999
 30
0.0
  0
VERTEX
  5
848
  8
0
 62
     3
 10
856.77468299999998
 20
750.61293799999987
 30
0.0
  0
VERTEX
  5
849
  8
0
 62
     3
 10
840.77468299999998
 20
750.61293799999987
 30
0.0
  0
VERTEX
  5
84A
  8
0
 62
     3
 10
839.77468299999987
 20
748.61293799999999
 30
0.0
  0
VERTEX
  5
84B
  8
0
 62
     3
 10
838.77468299999987
 20
752.61293799999999
 30
0.0
  0
VERTEX
  5
84C
  8
0
 62
     3
 10
837.77468299999987
 20
750.61293799999987
 30
0.0
  0
VERTEX
  5
84D
  8
0
 62
     3
 10
821.77468299999987
 20
750.61293799999987
 30
0.0
  0
VERTEX
  5
84E
  8
0
 62
     3
 10
820.77468299999987
 20
748.61293799999999
 30
0.0
  0
VERTEX
  5
84F
  8
0
 62
     3
 10
819.77468299999987
 20
752.61293799999999
 30
0.0
  0
VERTEX
  5
850
  8
0
 62
     3
 10
818.77468299999998
 20
750.61293799999987
 30
0.0
  0
VERTEX
  5
851
  8
0
 62
     3
 10
802.77468299999987
 20
750.61293799999987
 30
0.0
  0
VERTEX
  5
852
  8
0
 62
     3
 10
801.77468299999998
 20
748.61293799999999
 30
0.0
  0
VERTEX
  5
853
  8
0
 62
     3
 10
800.77468299999998
 20
752.61293799999999
 30
0.0
  0
VERTEX
  5
854
  8
0
 62
     3
 10
799.77468299999987
 20
750.61293799999987
 30
0.0
  0
VERTEX
  5
855
  8
0
 62
     3
 10
784.27468299999998
 20
750.61293799999987
 30
0.0
  0
SEQEND
  5
856
  8
0
 62
     3
  0
LINE
  5
C6
  8
0
  6
DASHDOT
 62
     7
 10
909.27468299999987
 20
711.15878299999986
 30
0.0
 11
909.27468299999987
 21
575.88346100000001
 31
0.0
  0
LINE
  5
C7
  8
0
  6
DASHDOT
 62
     7
 10
804.27468299999998
 20
712.34540599999991
 30
0.0
 11
804.27468299999998
 21
575.29014600000005
 31
0.0
  0
LINE
  5
C8
  8
0
  6
DASHDOT
 62
     7
 10
938.88348599999995
 20
695.042282
 30
0.0
 11
808.94797699999981
 21
695.042282
 31
0.0
  0
LINE
  5
C9
  8
0
  6
DASHDOT
 62
     7
 10
940.66342399999996
 20
595.042282
 30
0.0
 11
807.16803900000002
 21
595.042282
 31
0.0
  0
CIRCLE
  5
CA
  8
0
 62
     7
 10
804.27468299999998
 20
695.042282
 30
0.0
 40
2.5
  0
CIRCLE
  5
CB
  8
0
 62
     7
 10
909.27468299999987
 20
695.042282
 30
0.0
 40
2.5
  0
CIRCLE
  5
CC
  8
0
 62
     7
 10
804.27468299999998
 20
595.042282
 30
0.0
 40
2.5
  0
CIRCLE
  5
CD
  8
0
 62
     7
 10
909.27468299999987
 20
595.042282
 30
0.0
 40
2.5
  0
CIRCLE
  5
CE
  8
0
 62
     7
 10
925.69218999999998
 20
724.20474999999988
 30
0.0
 40
0.25
  0
LINE
  5
CF
  8
0
  6
DASHDOT
 62
     7
 10
987.281656
 20
642.792282
 30
0.0
 11
776.28827100000001
 21
642.792282
 31
0.0
  0
LINE
  5
D0
  8
0
 62
     7
 10
762.07619699999998
 20
695.04225199999996
 30
0.0
 11
759.99245599999995
 21
683.22456399999999
 31
0.0
  0
LINE
  5
D1
  8
0
 62
     7
 10
762.07619699999998
 20
695.04225199999996
 30
0.0
 11
764.16018099999997
 21
683.22456399999999
 31
0.0
  0
LINE
  5
D2
  8
0
 62
     7
 10
762.07619699999998
 20
595.042282
 30
0.0
 11
764.15993700000001
 21
606.85996999999998
 31
0.0
  0
LINE
  5
D3
  8
0
 62
     7
 10
762.07619699999998
 20
595.042282
 30
0.0
 11
759.99245599999995
 21
606.85996999999998
 31
0.0
  0
LINE
  5
D4
  8
0
 62
     7
 10
762.07619699999998
 20
695.04225199999996
 30
0.0
 11
762.07619699999998
 21
595.042282
 31
0.0
  0
LINE
  5
D5
  8
0
 62
     7
 10
754.07619699999998
 20
695.04225199999996
 30
0.0
 11
808.94802300000015
 21
695.04225199999996
 31
0.0
  0
LINE
  5
D6
  8
0
 62
     7
 10
754.07619699999998
 20
595.042282
 30
0.0
 11
807.16799400000002
 21
595.04225199999996
 31
0.0
  0
LINE
  5
D7
  8
0
 62
     7
 10
909.27468299999987
 20
502.90599099999991
 30
0.0
 11
921.09231
 21
500.82218899999992
 31
0.0
  0
LINE
  5
D8
  8
0
 62
     7
 10
909.27468299999987
 20
502.90599099999991
 30
0.0
 11
921.09231
 21
504.98979199999991
 31
0.0
  0
LINE
  5
D9
  8
0
 62
     7
 10
884.27468299999987
 20
502.90599099999991
 30
0.0
 11
872.45705600000008
 21
504.98979199999991
 31
0.0
  0
LINE
  5
DA
  8
0
 62
     7
 10
884.27468299999987
 20
502.90599099999991
 30
0.0
 11
872.45705600000008
 21
500.82218899999992
 31
0.0
  0
LINE
  5
DB
  8
0
 62
     7
 10
804.27468299999998
 20
502.90599099999991
 30
0.0
 11
816.09230999999988
 21
500.82218899999992
 31
0.0
  0
LINE
  5
DC
  8
0
 62
     7
 10
804.27468299999998
 20
502.90599099999991
 30
0.0
 11
816.09230999999988
 21
504.98979199999991
 31
0.0
  0
LINE
  5
DD
  8
0
 62
     7
 10
943.27468299999987
 20
502.90599099999991
 30
0.0
 11
804.27468299999998
 21
502.90599099999991
 31
0.0
  0
LINE
  5
DE
  8
0
 62
     7
 10
909.27468299999987
 20
494.90599099999997
 30
0.0
 11
909.27468299999987
 21
575.88346899999988
 31
0.0
  0
LINE
  5
DF
  8
0
 62
     7
 10
884.27468299999987
 20
494.90599099999997
 30
0.0
 11
884.27468299999987
 21
518.73063699999989
 31
0.0
  0
LINE
  5
E0
  8
0
 62
     7
 10
804.27468299999998
 20
494.90599099999997
 30
0.0
 11
804.27468299999998
 21
575.29014600000005
 31
0.0
  0
LINE
  5
E1
  8
0
 62
     7
 10
802.17092300000002
 20
593.69154399999991
 30
0.0
 11
791.10085500000002
 21
589.05985999999984
 31
0.0
  0
LINE
  5
E2
  8
0
 62
     7
 10
802.17092300000002
 20
593.69154399999991
 30
0.0
 11
793.35256399999992
 21
585.55299400000001
 31
0.0
  0
LINE
  5
E3
  8
0
 62
     7
 10
806.37844299999995
 20
596.39302099999998
 30
0.0
 11
817.44851100000005
 21
601.02467300000001
 31
0.0
  0
LINE
  5
E4
  8
0
 62
     7
 10
806.37844299999995
 20
596.39302099999998
 30
0.0
 11
815.19680199999993
 21
604.53156999999987
 31
0.0
  0
LINE
  5
E5
  8
0
 62
     7
 10
806.58864799999992
 20
596.52812199999994
 30
0.0
 11
664.55520100000001
 21
505.33006299999988
 31
0.0
  0
LINE
  5
E6
  8
0
 62
     7
 10
992.74904800000013
 20
695.042282
 30
0.0
 11
990.66530799999987
 21
683.22459399999991
 31
0.0
  0
LINE
  5
E7
  8
0
 62
     7
 10
992.74904800000013
 20
695.042282
 30
0.0
 11
994.83278800000005
 21
683.22459399999991
 31
0.0
  0
LINE
  5
E8
  8
0
 62
     7
 10
992.74904800000013
 20
642.792282
 30
0.0
 11
994.83278800000005
 21
654.60996999999998
 31
0.0
  0
LINE
  5
E9
  8
0
 62
     7
 10
992.74904800000013
 20
642.792282
 30
0.0
 11
990.66530799999987
 21
654.60996999999998
 31
0.0
  0
LINE
  5
EA
  8
0
 62
     7
 10
992.74904800000013
 20
695.042282
 30
0.0
 11
992.74904800000013
 21
564.19044500000007
 31
0.0
  0
LINE
  5
EB
  8
0
 62
     7
 10
1000.749048
 20
695.042282
 30
0.0
 11
938.88356999999985
 21
695.042282
 31
0.0
  0
LINE
  5
EC
  8
0
 62
     7
 10
1000.749048
 20
642.792282
 30
0.0
 11
987.28176299999996
 21
642.792282
 31
0.0
  0
LINE
  5
ED
  8
0
 62
     7
 10
48.514682999999998
 20
562.84222
 30
0.0
 11
48.514682999999998
 21
727.24221799999987
 31
0.0
  0
LINE
  5
EE
  8
0
  6
DASHDOT
 62
     7
 10
136.014723
 20
483.50313199999999
 30
0.0
 11
136.014723
 21
783.74722300000008
 31
0.0
  0
LINE
  5
EF
  8
0
 62
     7
 10
146.764723
 20
612.54221299999995
 30
0.0
 11
146.764723
 21
652.54219799999998
 31
0.0
  0
LINE
  5
F0
  8
0
 62
     7
 10
125.264723
 20
612.54221299999995
 30
0.0
 11
125.264723
 21
652.54219799999998
 31
0.0
  0
LINE
  5
F1
  8
0
 62
     7
 10
146.764723
 20
652.27773300000001
 30
0.0
 11
125.264723
 21
652.27773300000001
 31
0.0
  0
LINE
  5
F2
  8
0
 62
     7
 10
146.764723
 20
652.54219799999998
 30
0.0
 11
125.264723
 21
652.54219799999998
 31
0.0
  0
LINE
  5
F3
  8
0
 62
     7
 10
146.764723
 20
612.54221299999995
 30
0.0
 11
125.264723
 21
612.54221299999995
 31
0.0
  0
LINE
  5
F4
  8
0
 62
     7
 10
146.764723
 20
612.80670899999996
 30
0.0
 11
125.264723
 21
612.80670899999996
 31
0.0
  0
LINE
  5
F5
  8
0
 62
     7
 10
146.764723
 20
626.66753399999993
 30
0.0
 11
125.264723
 21
626.66753399999993
 31
0.0
  0
LINE
  5
F6
  8
0
 62
     7
 10
146.764723
 20
620.55107099999987
 30
0.0
 11
125.264723
 21
620.55107099999987
 31
0.0
  0
LINE
  5
F7
  8
0
 62
     7
 10
146.764723
 20
614.60324900000001
 30
0.0
 11
125.264723
 21
614.60324900000001
 31
0.0
  0
LINE
  5
F8
  8
0
 62
     7
 10
146.764723
 20
613.80050700000004
 30
0.0
 11
125.264723
 21
613.80050700000004
 31
0.0
  0
LINE
  5
F9
  8
0
 62
     7
 10
57.514722999999989
 20
695.29222100000004
 30
0.0
 11
48.514682999999998
 21
695.29222100000004
 31
0.0
  0
LINE
  5
FA
  8
0
 62
     7
 10
57.514722999999989
 20
590.29222900000002
 30
0.0
 11
48.514682999999998
 21
590.29222900000002
 31
0.0
  0
LINE
  5
FB
  8
0
 62
     3
 10
161.01471499999991
 20
550.04220599999996
 30
0.0
 11
161.01471499999991
 21
557.54222100000004
 31
0.0
  0
LINE
  5
FC
  8
0
 62
     3
 10
162.26471499999991
 20
550.04220599999996
 30
0.0
 11
161.01471499999991
 21
550.04220599999996
 31
0.0
  0
LINE
  5
FD
  8
0
 62
     3
 10
162.26471499999991
 20
530.04220699999996
 30
0.0
 11
162.26471499999991
 21
550.042191
 31
0.0
  0
LINE
  5
FE
  8
0
 62
     3
 10
179.76471499999991
 20
530.04220699999996
 30
0.0
 11
162.26471499999991
 21
530.04220699999996
 31
0.0
  0
LINE
  5
FF
  8
0
 62
     3
 10
179.76471499999991
 20
530.04220699999996
 30
0.0
 11
179.76471499999991
 21
550.042191
 31
0.0
  0
LINE
  5
100
  8
0
 62
     3
 10
181.01471499999991
 20
550.04220599999996
 30
0.0
 11
179.76471499999991
 21
550.04220599999996
 31
0.0
  0
LINE
  5
101
  8
0
 62
     3
 10
181.01471499999991
 20
550.04220599999996
 30
0.0
 11
181.01471499999991
 21
557.54222100000004
 31
0.0
  0
LINE
  5
102
  8
0
 62
     7
 10
126.0147149999999
 20
550.04220599999996
 30
0.0
 11
126.0147149999999
 21
557.54222100000004
 31
0.0
  0
LINE
  5
103
  8
0
 62
     7
 10
146.014715
 20
550.04220599999996
 30
0.0
 11
146.014715
 21
557.54222100000004
 31
0.0
  0
LINE
  5
104
  8
0
 62
     7
 10
144.76471499999991
 20
530.04220699999996
 30
0.0
 11
144.76471499999991
 21
550.042191
 31
0.0
  0
LINE
  5
105
  8
0
 62
     7
 10
127.264715
 20
530.04220699999996
 30
0.0
 11
127.264715
 21
550.042191
 31
0.0
  0
LINE
  5
106
  8
0
 62
     7
 10
144.76471499999991
 20
530.04220699999996
 30
0.0
 11
127.264715
 21
530.04220699999996
 31
0.0
  0
CIRCLE
  5
107
  8
0
 62
     3
 10
171.01477600000001
 20
540.04223300000001
 30
0.0
 40
4.0999970000000001
  0
CIRCLE
  5
108
  8
0
 62
     3
 10
136.014769
 20
540.04223300000001
 30
0.0
 40
4.0999970000000001
  0
LINE
  5
109
  8
0
 62
     3
 10
127.264715
 20
550.04220599999996
 30
0.0
 11
126.0147149999999
 21
550.04220599999996
 31
0.0
  0
LINE
  5
10A
  8
0
 62
     3
 10
146.014715
 20
550.04220599999996
 30
0.0
 11
144.76471499999991
 21
550.04220599999996
 31
0.0
  0
CIRCLE
  5
10B
  8
0
 62
     3
 10
101.0147689999999
 20
540.04223300000001
 30
0.0
 40
4.0999970000000001
  0
LINE
  5
10C
  8
0
 62
     3
 10
92.264714999999995
 20
530.04220699999996
 30
0.0
 11
92.264714999999995
 21
550.042191
 31
0.0
  0
LINE
  5
10D
  8
0
 62
     3
 10
109.764715
 20
530.04220699999996
 30
0.0
 11
109.764715
 21
550.042191
 31
0.0
  0
LINE
  5
10E
  8
0
 62
     3
 10
91.014714999999995
 20
550.04220599999996
 30
0.0
 11
91.014714999999995
 21
557.54222100000004
 31
0.0
  0
LINE
  5
10F
  8
0
 62
     3
 10
111.0147149999999
 20
550.04220599999996
 30
0.0
 11
111.0147149999999
 21
557.54222100000004
 31
0.0
  0
LINE
  5
110
  8
0
 62
     3
 10
109.764715
 20
530.04220699999996
 30
0.0
 11
92.264714999999995
 21
530.04220699999996
 31
0.0
  0
LINE
  5
111
  8
0
 62
     3
 10
92.264714999999995
 20
550.04220599999996
 30
0.0
 11
91.014714999999995
 21
550.04220599999996
 31
0.0
  0
LINE
  5
112
  8
0
 62
     3
 10
111.0147149999999
 20
550.04220599999996
 30
0.0
 11
109.764715
 21
550.04220599999996
 31
0.0
  0
LINE
  5
113
  8
0
 62
     3
 10
56.014715000000002
 20
550.04220599999996
 30
0.0
 11
56.014715000000002
 21
557.54222100000004
 31
0.0
  0
LINE
  5
114
  8
0
 62
     3
 10
76.014714999999995
 20
550.04220599999996
 30
0.0
 11
76.014714999999995
 21
557.54222100000004
 31
0.0
  0
LINE
  5
115
  8
0
 62
     3
 10
74.764714999999995
 20
530.04220699999996
 30
0.0
 11
74.764714999999995
 21
550.042191
 31
0.0
  0
LINE
  5
116
  8
0
 62
     3
 10
57.264715000000002
 20
530.04220699999996
 30
0.0
 11
57.264715000000002
 21
550.042191
 31
0.0
  0
CIRCLE
  5
117
  8
0
 62
     3
 10
66.014771999999994
 20
540.04223300000001
 30
0.0
 40
4.0999970000000001
  0
LINE
  5
118
  8
0
 62
     3
 10
74.764714999999995
 20
530.04220699999996
 30
0.0
 11
57.264715000000002
 21
530.04220699999996
 31
0.0
  0
LINE
  5
119
  8
0
 62
     3
 10
57.264715000000002
 20
550.04220599999996
 30
0.0
 11
56.014715000000002
 21
550.04220599999996
 31
0.0
  0
LINE
  5
11A
  8
0
 62
     3
 10
76.014714999999995
 20
550.04220599999996
 30
0.0
 11
74.764714999999995
 21
550.04220599999996
 31
0.0
  0
CIRCLE
  5
11B
  8
0
 62
     3
 10
66.014771999999994
 20
750.04220599999996
 30
0.0
 40
4.0999970000000001
  0
CIRCLE
  5
11C
  8
0
 62
     3
 10
101.0147689999999
 20
750.04220599999996
 30
0.0
 40
4.0999970000000001
  0
CIRCLE
  5
11D
  8
0
 62
     3
 10
136.014769
 20
750.04220599999996
 30
0.0
 40
4.0999970000000001
  0
CIRCLE
  5
11E
  8
0
 62
     3
 10
171.01477600000001
 20
750.04220599999996
 30
0.0
 40
4.0999970000000001
  0
LINE
  5
11F
  8
0
 62
     3
 10
179.76471499999991
 20
760.042236
 30
0.0
 11
162.26471499999991
 21
760.042236
 31
0.0
  0
LINE
  5
120
  8
0
 62
     3
 10
144.76471499999991
 20
760.042236
 30
0.0
 11
127.264715
 21
760.042236
 31
0.0
  0
LINE
  5
121
  8
0
 62
     3
 10
109.764715
 20
760.042236
 30
0.0
 11
92.264714999999995
 21
760.042236
 31
0.0
  0
LINE
  5
122
  8
0
 62
     3
 10
74.764714999999995
 20
760.042236
 30
0.0
 11
57.264715000000002
 21
760.042236
 31
0.0
  0
LINE
  5
123
  8
0
 62
     3
 10
57.264715000000002
 20
740.04225199999985
 30
0.0
 11
57.264715000000002
 21
760.042236
 31
0.0
  0
LINE
  5
124
  8
0
 62
     3
 10
74.764714999999995
 20
740.04225199999985
 30
0.0
 11
74.764714999999995
 21
760.042236
 31
0.0
  0
LINE
  5
125
  8
0
 62
     3
 10
92.264714999999995
 20
740.04225199999985
 30
0.0
 11
92.264714999999995
 21
760.042236
 31
0.0
  0
LINE
  5
126
  8
0
 62
     3
 10
109.764715
 20
740.04225199999985
 30
0.0
 11
109.764715
 21
760.042236
 31
0.0
  0
LINE
  5
127
  8
0
 62
     3
 10
127.264715
 20
740.04225199999985
 30
0.0
 11
127.264715
 21
760.042236
 31
0.0
  0
LINE
  5
128
  8
0
 62
     3
 10
144.76471499999991
 20
740.04225199999985
 30
0.0
 11
144.76471499999991
 21
760.042236
 31
0.0
  0
LINE
  5
129
  8
0
 62
     3
 10
162.26471499999991
 20
740.04225199999985
 30
0.0
 11
162.26471499999991
 21
760.042236
 31
0.0
  0
LINE
  5
12A
  8
0
 62
     3
 10
179.76471499999991
 20
740.04225199999985
 30
0.0
 11
179.76471499999991
 21
760.042236
 31
0.0
  0
LINE
  5
12B
  8
0
 62
     3
 10
181.01471499999991
 20
732.54222100000004
 30
0.0
 11
181.01471499999991
 21
740.042236
 31
0.0
  0
LINE
  5
12C
  8
0
 62
     3
 10
161.01471499999991
 20
732.54222100000004
 30
0.0
 11
161.01471499999991
 21
740.042236
 31
0.0
  0
LINE
  5
12D
  8
0
 62
     3
 10
146.014715
 20
732.54222100000004
 30
0.0
 11
146.014715
 21
740.042236
 31
0.0
  0
LINE
  5
12E
  8
0
 62
     3
 10
126.0147149999999
 20
732.54222100000004
 30
0.0
 11
126.0147149999999
 21
740.042236
 31
0.0
  0
LINE
  5
12F
  8
0
 62
     3
 10
111.0147149999999
 20
732.54222100000004
 30
0.0
 11
111.0147149999999
 21
740.042236
 31
0.0
  0
LINE
  5
130
  8
0
 62
     3
 10
91.014714999999995
 20
732.54222100000004
 30
0.0
 11
91.014714999999995
 21
740.042236
 31
0.0
  0
LINE
  5
131
  8
0
 62
     3
 10
76.014714999999995
 20
732.54222100000004
 30
0.0
 11
76.014714999999995
 21
740.042236
 31
0.0
  0
LINE
  5
132
  8
0
 62
     3
 10
56.014715000000002
 20
732.54222100000004
 30
0.0
 11
56.014715000000002
 21
740.042236
 31
0.0
  0
LINE
  5
133
  8
0
 62
     3
 10
57.264715000000002
 20
740.042236
 30
0.0
 11
56.014715000000002
 21
740.042236
 31
0.0
  0
LINE
  5
134
  8
0
 62
     3
 10
76.014714999999995
 20
740.042236
 30
0.0
 11
74.764714999999995
 21
740.042236
 31
0.0
  0
LINE
  5
135
  8
0
 62
     3
 10
92.264714999999995
 20
740.042236
 30
0.0
 11
91.014714999999995
 21
740.042236
 31
0.0
  0
LINE
  5
136
  8
0
 62
     3
 10
111.0147149999999
 20
740.042236
 30
0.0
 11
109.764715
 21
740.042236
 31
0.0
  0
LINE
  5
137
  8
0
 62
     3
 10
127.264715
 20
740.042236
 30
0.0
 11
126.0147149999999
 21
740.042236
 31
0.0
  0
LINE
  5
138
  8
0
 62
     3
 10
146.014715
 20
740.042236
 30
0.0
 11
144.76471499999991
 21
740.042236
 31
0.0
  0
LINE
  5
139
  8
0
 62
     3
 10
162.26471499999991
 20
740.042236
 30
0.0
 11
161.01471499999991
 21
740.042236
 31
0.0
  0
LINE
  5
13A
  8
0
 62
     3
 10
181.01471499999991
 20
740.042236
 30
0.0
 11
179.76471499999991
 21
740.042236
 31
0.0
  0
LINE
  5
13B
  8
0
 62
     3
 10
188.5147
 20
656.29221299999995
 30
0.0
 11
188.5147
 21
695.292282
 31
0.0
  0
LINE
  5
13C
  8
0
 62
     7
 10
187.26468499999999
 20
732.54222100000004
 30
0.0
 11
49.764707999999999
 21
732.54222100000004
 31
0.0
  0
LINE
  5
13D
  8
0
 62
     7
 10
57.514722999999989
 20
703.542236
 30
0.0
 11
49.514707999999999
 21
703.542236
 31
0.0
  0
LINE
  5
13E
  8
0
 62
     7
 10
188.5147
 20
723.28597999999988
 30
0.0
 11
188.5147
 21
731.29222100000004
 31
0.0
  0
LINE
  5
13F
  8
0
 62
     7
 10
48.514707999999999
 20
704.54223599999989
 30
0.0
 11
48.514707999999999
 21
731.29222100000004
 31
0.0
  0
LINE
  5
140
  8
0
 62
     7
 10
57.514722999999989
 20
704.54223599999989
 30
0.0
 11
48.764707999999992
 21
704.54223599999989
 31
0.0
  0
LINE
  5
141
  8
0
 62
     7
 10
49.514707999999999
 20
703.542236
 30
0.0
 11
49.514707999999999
 21
704.54223599999989
 31
0.0
  0
LINE
  5
142
  8
0
 62
     7
 10
48.764707999999992
 20
704.54223599999989
 30
0.0
 11
48.514707999999999
 21
704.54223599999989
 31
0.0
  0
LINE
  5
143
  8
0
 62
     7
 10
52.564706999999991
 20
557.54222100000004
 30
0.0
 11
52.564706999999991
 21
732.54222100000004
 31
0.0
  0
LINE
  5
144
  8
0
 62
     7
 10
59.764707999999999
 20
557.54222100000004
 30
0.0
 11
59.764707999999999
 21
562.292282
 31
0.0
  0
LINE
  5
145
  8
0
 62
     7
 10
66.964705000000009
 20
557.54222100000004
 30
0.0
 11
66.964705000000009
 21
562.292282
 31
0.0
  0
LINE
  5
146
  8
0
 62
     7
 10
77.764707999999999
 20
557.54222100000004
 30
0.0
 11
77.764707999999999
 21
562.292282
 31
0.0
  0
LINE
  5
147
  8
0
 62
     7
 10
81.364698000000004
 20
557.54222100000004
 30
0.0
 11
81.364698000000004
 21
562.292282
 31
0.0
  0
LINE
  5
148
  8
0
 62
     7
 10
84.964704999999995
 20
723.28597999999988
 30
0.0
 11
84.964704999999995
 21
732.54222100000004
 31
0.0
  0
LINE
  5
149
  8
0
 62
     7
 10
88.564695000000015
 20
723.28597999999988
 30
0.0
 11
88.564695000000015
 21
732.54222100000004
 31
0.0
  0
LINE
  5
14A
  8
0
 62
     7
 10
92.164700999999994
 20
723.28597999999988
 30
0.0
 11
92.164700999999994
 21
732.54222100000004
 31
0.0
  0
LINE
  5
14B
  8
0
 62
     7
 10
95.764707999999999
 20
723.28597999999988
 30
0.0
 11
95.764707999999999
 21
732.54222100000004
 31
0.0
  0
LINE
  5
14C
  8
0
 62
     7
 10
99.364698000000004
 20
723.28597999999988
 30
0.0
 11
99.364698000000004
 21
732.54222100000004
 31
0.0
  0
LINE
  5
14D
  8
0
 62
     7
 10
102.964705
 20
723.28597999999988
 30
0.0
 11
102.964705
 21
732.54222100000004
 31
0.0
  0
LINE
  5
14E
  8
0
 62
     7
 10
106.564695
 20
723.28597999999988
 30
0.0
 11
106.564695
 21
732.54222100000004
 31
0.0
  0
LINE
  5
14F
  8
0
 62
     7
 10
110.16470099999999
 20
723.28597999999988
 30
0.0
 11
110.16470099999999
 21
732.54222100000004
 31
0.0
  0
LINE
  5
150
  8
0
 62
     7
 10
113.764708
 20
723.28597999999988
 30
0.0
 11
113.764708
 21
732.54222100000004
 31
0.0
  0
LINE
  5
151
  8
0
 62
     7
 10
117.364698
 20
723.28597999999988
 30
0.0
 11
117.364698
 21
732.54222100000004
 31
0.0
  0
LINE
  5
152
  8
0
 62
     7
 10
120.964705
 20
723.28597999999988
 30
0.0
 11
120.964705
 21
732.54222100000004
 31
0.0
  0
LINE
  5
153
  8
0
 62
     7
 10
124.564695
 20
723.28597999999988
 30
0.0
 11
124.564695
 21
732.54222100000004
 31
0.0
  0
LINE
  5
154
  8
0
 62
     7
 10
128.16470100000001
 20
723.28597999999988
 30
0.0
 11
128.16470100000001
 21
732.54222100000004
 31
0.0
  0
LINE
  5
155
  8
0
 62
     7
 10
131.76470800000001
 20
723.28597999999988
 30
0.0
 11
131.76470800000001
 21
732.54222100000004
 31
0.0
  0
LINE
  5
156
  8
0
 62
     7
 10
135.364698
 20
723.28597999999988
 30
0.0
 11
135.364698
 21
732.54222100000004
 31
0.0
  0
LINE
  5
157
  8
0
 62
     7
 10
138.96470500000001
 20
723.28597999999988
 30
0.0
 11
138.96470500000001
 21
732.54222100000004
 31
0.0
  0
LINE
  5
158
  8
0
 62
     7
 10
142.56469499999989
 20
723.28597999999988
 30
0.0
 11
142.56469499999989
 21
732.54222100000004
 31
0.0
  0
LINE
  5
159
  8
0
 62
     7
 10
146.16470100000001
 20
723.28597999999988
 30
0.0
 11
146.16470100000001
 21
732.54222100000004
 31
0.0
  0
LINE
  5
15A
  8
0
 62
     7
 10
149.7647
 20
723.28597999999988
 30
0.0
 11
149.7647
 21
732.54222100000004
 31
0.0
  0
LINE
  5
15B
  8
0
 62
     7
 10
153.36469099999991
 20
723.28597999999988
 30
0.0
 11
153.36469099999991
 21
732.54222100000004
 31
0.0
  0
LINE
  5
15C
  8
0
 62
     7
 10
156.96469699999989
 20
723.28597999999988
 30
0.0
 11
156.96469699999989
 21
732.54222100000004
 31
0.0
  0
LINE
  5
15D
  8
0
 62
     7
 10
160.5646879999999
 20
723.28597999999988
 30
0.0
 11
160.5646879999999
 21
732.54222100000004
 31
0.0
  0
LINE
  5
15E
  8
0
 62
     7
 10
164.164694
 20
723.28597999999988
 30
0.0
 11
164.164694
 21
732.54222100000004
 31
0.0
  0
LINE
  5
15F
  8
0
 62
     7
 10
167.7647
 20
723.28597999999988
 30
0.0
 11
167.7647
 21
732.54222100000004
 31
0.0
  0
LINE
  5
160
  8
0
 62
     7
 10
171.36469099999999
 20
723.28597999999988
 30
0.0
 11
171.36469099999999
 21
732.54222100000004
 31
0.0
  0
LINE
  5
161
  8
0
 62
     7
 10
174.964697
 20
723.28597999999988
 30
0.0
 11
174.964697
 21
732.54222100000004
 31
0.0
  0
LINE
  5
162
  8
0
 62
     7
 10
178.5646879999999
 20
723.28597999999988
 30
0.0
 11
178.5646879999999
 21
732.54222100000004
 31
0.0
  0
LINE
  5
163
  8
0
 62
     7
 10
182.16469399999991
 20
723.28597999999988
 30
0.0
 11
182.16469399999991
 21
732.54222100000004
 31
0.0
  0
LINE
  5
164
  8
0
 62
     7
 10
185.7647
 20
723.28597999999988
 30
0.0
 11
185.7647
 21
732.54222100000004
 31
0.0
  0
ARC
  5
165
  8
0
 62
     7
 10
49.764707999999999
 20
731.29222100000004
 30
0.0
 40
1.25
 50
90.0
 51
180.00000299999991
  0
ARC
  5
166
  8
0
 62
     7
 10
187.26468499999999
 20
731.29222100000004
 30
0.0
 40
1.25
 50
0.000028
 51
90.0
  0
LINE
  5
167
  8
0
 62
     7
 10
187.26468499999999
 20
557.54222100000004
 30
0.0
 11
49.764707999999999
 21
557.54222100000004
 31
0.0
  0
LINE
  5
168
  8
0
 62
     7
 10
188.5147
 20
558.79222100000004
 30
0.0
 11
188.5147
 21
562.292282
 31
0.0
  0
LINE
  5
169
  8
0
 62
     7
 10
48.514707999999999
 20
558.79222100000004
 30
0.0
 11
48.514707999999999
 21
585.54220599999985
 31
0.0
  0
LINE
  5
16A
  8
0
 62
     7
 10
57.514722999999989
 20
585.54220599999985
 30
0.0
 11
48.764707999999992
 21
585.54220599999985
 31
0.0
  0
LINE
  5
16B
  8
0
 62
     7
 10
49.514707999999999
 20
585.54220599999985
 30
0.0
 11
49.514707999999999
 21
586.54220599999985
 31
0.0
  0
LINE
  5
16C
  8
0
 62
     7
 10
48.764707999999992
 20
585.54220599999985
 30
0.0
 11
48.514707999999999
 21
585.54220599999985
 31
0.0
  0
LINE
  5
16D
  8
0
 62
     7
 10
56.164708999999988
 20
557.54222100000004
 30
0.0
 11
56.164708999999988
 21
732.54222100000004
 31
0.0
  0
LINE
  5
16E
  8
0
 62
     7
 10
63.364706000000012
 20
557.54222100000004
 30
0.0
 11
63.364706000000012
 21
562.292282
 31
0.0
  0
LINE
  5
16F
  8
0
 62
     7
 10
70.564695
 20
557.54222100000004
 30
0.0
 11
70.564695
 21
562.292282
 31
0.0
  0
LINE
  5
170
  8
0
 62
     7
 10
74.164701000000008
 20
557.54222100000004
 30
0.0
 11
74.164701000000008
 21
562.292282
 31
0.0
  0
LINE
  5
171
  8
0
 62
     7
 10
84.964704999999995
 20
557.54222100000004
 30
0.0
 11
84.964704999999995
 21
562.292282
 31
0.0
  0
LINE
  5
172
  8
0
 62
     7
 10
88.564695000000015
 20
557.54222100000004
 30
0.0
 11
88.564695000000015
 21
562.292282
 31
0.0
  0
LINE
  5
173
  8
0
 62
     7
 10
92.164700999999994
 20
557.54222100000004
 30
0.0
 11
92.164700999999994
 21
562.292282
 31
0.0
  0
LINE
  5
174
  8
0
 62
     7
 10
95.764707999999999
 20
557.54222100000004
 30
0.0
 11
95.764707999999999
 21
562.292282
 31
0.0
  0
LINE
  5
175
  8
0
 62
     7
 10
99.364698000000004
 20
557.54222100000004
 30
0.0
 11
99.364698000000004
 21
562.292282
 31
0.0
  0
LINE
  5
176
  8
0
 62
     7
 10
102.964705
 20
557.54222100000004
 30
0.0
 11
102.964705
 21
562.292282
 31
0.0
  0
LINE
  5
177
  8
0
 62
     7
 10
106.564695
 20
557.54222100000004
 30
0.0
 11
106.564695
 21
562.292282
 31
0.0
  0
LINE
  5
178
  8
0
 62
     7
 10
110.16470099999999
 20
557.54222100000004
 30
0.0
 11
110.16470099999999
 21
562.292282
 31
0.0
  0
LINE
  5
179
  8
0
 62
     7
 10
113.764708
 20
557.54222100000004
 30
0.0
 11
113.764708
 21
562.292282
 31
0.0
  0
LINE
  5
17A
  8
0
 62
     7
 10
117.364698
 20
557.54222100000004
 30
0.0
 11
117.364698
 21
562.292282
 31
0.0
  0
LINE
  5
17B
  8
0
 62
     7
 10
120.964705
 20
557.54222100000004
 30
0.0
 11
120.964705
 21
562.292282
 31
0.0
  0
LINE
  5
17C
  8
0
 62
     7
 10
124.564695
 20
557.54222100000004
 30
0.0
 11
124.564695
 21
562.292282
 31
0.0
  0
LINE
  5
17D
  8
0
 62
     7
 10
128.16470100000001
 20
557.54222100000004
 30
0.0
 11
128.16470100000001
 21
562.292282
 31
0.0
  0
LINE
  5
17E
  8
0
 62
     7
 10
131.76470800000001
 20
557.54222100000004
 30
0.0
 11
131.76470800000001
 21
562.292282
 31
0.0
  0
LINE
  5
17F
  8
0
 62
     7
 10
135.364698
 20
557.54222100000004
 30
0.0
 11
135.364698
 21
562.292282
 31
0.0
  0
LINE
  5
180
  8
0
 62
     7
 10
138.96470500000001
 20
557.54222100000004
 30
0.0
 11
138.96470500000001
 21
562.292282
 31
0.0
  0
LINE
  5
181
  8
0
 62
     7
 10
142.56469499999989
 20
557.54222100000004
 30
0.0
 11
142.56469499999989
 21
562.292282
 31
0.0
  0
LINE
  5
182
  8
0
 62
     7
 10
146.16470100000001
 20
557.54222100000004
 30
0.0
 11
146.16470100000001
 21
562.292282
 31
0.0
  0
LINE
  5
183
  8
0
 62
     7
 10
149.7647
 20
557.54222100000004
 30
0.0
 11
149.7647
 21
562.292282
 31
0.0
  0
LINE
  5
184
  8
0
 62
     7
 10
153.36469099999991
 20
557.54222100000004
 30
0.0
 11
153.36469099999991
 21
562.292282
 31
0.0
  0
LINE
  5
185
  8
0
 62
     7
 10
156.96469699999989
 20
557.54222100000004
 30
0.0
 11
156.96469699999989
 21
562.292282
 31
0.0
  0
LINE
  5
186
  8
0
 62
     7
 10
160.5646879999999
 20
557.54222100000004
 30
0.0
 11
160.5646879999999
 21
562.292282
 31
0.0
  0
LINE
  5
187
  8
0
 62
     7
 10
164.164694
 20
557.54222100000004
 30
0.0
 11
164.164694
 21
562.292282
 31
0.0
  0
LINE
  5
188
  8
0
 62
     7
 10
167.7647
 20
557.54222100000004
 30
0.0
 11
167.7647
 21
562.292282
 31
0.0
  0
LINE
  5
189
  8
0
 62
     7
 10
171.36469099999999
 20
557.54222100000004
 30
0.0
 11
171.36469099999999
 21
562.292282
 31
0.0
  0
LINE
  5
18A
  8
0
 62
     7
 10
174.964697
 20
557.54222100000004
 30
0.0
 11
174.964697
 21
562.292282
 31
0.0
  0
LINE
  5
18B
  8
0
 62
     7
 10
178.5646879999999
 20
557.54222100000004
 30
0.0
 11
178.5646879999999
 21
562.292282
 31
0.0
  0
LINE
  5
18C
  8
0
 62
     7
 10
182.16469399999991
 20
557.54222100000004
 30
0.0
 11
182.16469399999991
 21
562.292282
 31
0.0
  0
LINE
  5
18D
  8
0
 62
     7
 10
185.7647
 20
557.54222100000004
 30
0.0
 11
185.7647
 21
562.292282
 31
0.0
  0
ARC
  5
18E
  8
0
 62
     7
 10
49.764707999999999
 20
558.79222100000004
 30
0.0
 40
1.25
 50
180.00000299999991
 51
270.00000499999987
  0
ARC
  5
18F
  8
0
 62
     7
 10
187.26468499999999
 20
558.79222100000004
 30
0.0
 40
1.25
 50
270.00000499999987
 51
359.99997300000001
  0
LINE
  5
190
  8
0
  6
DASHDOT
 62
     7
 10
66.014771999999994
 20
533.94223699999998
 30
0.0
 11
66.014771999999994
 21
546.14222999999993
 31
0.0
  0
LINE
  5
191
  8
0
  6
DASHDOT
 62
     7
 10
72.114767000000001
 20
540.04223300000001
 30
0.0
 11
59.914774000000001
 21
540.04223300000001
 31
0.0
  0
LINE
  5
192
  8
0
  6
DASHDOT
 62
     7
 10
101.0147689999999
 20
533.94223699999998
 30
0.0
 11
101.0147689999999
 21
546.14222999999993
 31
0.0
  0
LINE
  5
193
  8
0
  6
DASHDOT
 62
     7
 10
107.1147669999999
 20
540.04223300000001
 30
0.0
 11
94.914777999999998
 21
540.04223300000001
 31
0.0
  0
LINE
  5
194
  8
0
  6
DASHDOT
 62
     7
 10
136.014769
 20
533.94223699999998
 30
0.0
 11
136.014769
 21
546.14222999999993
 31
0.0
  0
LINE
  5
195
  8
0
  6
DASHDOT
 62
     7
 10
142.114767
 20
540.04223300000001
 30
0.0
 11
129.91477800000001
 21
540.04223300000001
 31
0.0
  0
LINE
  5
196
  8
0
  6
DASHDOT
 62
     7
 10
171.01477600000001
 20
533.94223699999998
 30
0.0
 11
171.01477600000001
 21
546.14222999999993
 31
0.0
  0
LINE
  5
197
  8
0
  6
DASHDOT
 62
     7
 10
177.11476699999989
 20
540.04223300000001
 30
0.0
 11
164.91477
 21
540.04223300000001
 31
0.0
  0
LINE
  5
198
  8
0
  6
DASHDOT
 62
     7
 10
171.01477600000001
 20
743.94221500000003
 30
0.0
 11
171.01477600000001
 21
756.14221199999986
 31
0.0
  0
LINE
  5
199
  8
0
  6
DASHDOT
 62
     7
 10
177.11476699999989
 20
750.04220599999996
 30
0.0
 11
164.91477
 21
750.04220599999996
 31
0.0
  0
LINE
  5
19A
  8
0
  6
DASHDOT
 62
     7
 10
136.014769
 20
743.94221500000003
 30
0.0
 11
136.014769
 21
756.14221199999986
 31
0.0
  0
LINE
  5
19B
  8
0
  6
DASHDOT
 62
     7
 10
142.114767
 20
750.04220599999996
 30
0.0
 11
129.91477800000001
 21
750.04220599999996
 31
0.0
  0
LINE
  5
19C
  8
0
  6
DASHDOT
 62
     7
 10
101.0147689999999
 20
743.94221500000003
 30
0.0
 11
101.0147689999999
 21
756.14221199999986
 31
0.0
  0
LINE
  5
19D
  8
0
  6
DASHDOT
 62
     7
 10
107.1147669999999
 20
750.04220599999996
 30
0.0
 11
94.914777999999998
 21
750.04220599999996
 31
0.0
  0
LINE
  5
19E
  8
0
  6
DASHDOT
 62
     7
 10
66.014771999999994
 20
743.94221500000003
 30
0.0
 11
66.014771999999994
 21
756.14221199999986
 31
0.0
  0
LINE
  5
19F
  8
0
  6
DASHDOT
 62
     7
 10
72.114767000000001
 20
750.04220599999996
 30
0.0
 11
59.914774000000001
 21
750.04220599999996
 31
0.0
  0
LINE
  5
1A0
  8
0
 62
   150
 10
83.661164999999997
 20
695.14585899999986
 30
0.0
 11
84.014727000000008
 21
695.292328
 31
0.0
  0
LINE
  5
1A1
  8
0
 62
   150
 10
83.514714999999995
 20
694.79231300000004
 30
0.0
 11
83.661160999999993
 21
695.14587400000005
 31
0.0
  0
LINE
  5
1A2
  8
0
 62
   150
 10
83.514692000000025
 20
590.79223999999999
 30
0.0
 11
83.514692000000025
 21
591.29227100000003
 31
0.0
  0
LINE
  5
1A3
  8
0
 62
   150
 10
83.514707999999985
 20
683.29220599999985
 30
0.0
 11
83.514707999999985
 21
694.792282
 31
0.0
  0
LINE
  5
1A4
  8
0
 62
   150
 10
83.66115400000001
 20
590.43868599999996
 30
0.0
 11
83.514692000000025
 21
590.79223999999999
 31
0.0
  0
LINE
  5
1A5
  8
0
 62
   150
 10
84.014692000000011
 20
590.29230099999995
 30
0.0
 11
83.661158000000015
 21
590.43868599999996
 31
0.0
  0
LINE
  5
1A6
  8
0
 62
   150
 10
188.5147
 20
590.29222900000002
 30
0.0
 11
157.51476099999999
 21
590.29225199999985
 31
0.0
  0
LINE
  5
1A7
  8
0
 62
   150
 10
84.514707999999999
 20
590.29230099999995
 30
0.0
 11
84.014688000000007
 21
590.29230099999995
 31
0.0
  0
LINE
  5
1A8
  8
0
 62
   150
 10
188.01476099999999
 20
590.2922329999999
 30
0.0
 11
188.36832199999989
 21
590.43868299999986
 31
0.0
  0
LINE
  5
1A9
  8
0
 62
   150
 10
188.36832199999989
 20
590.43868299999986
 30
0.0
 11
188.51477600000001
 21
590.79223599999989
 31
0.0
  0
LINE
  5
1AA
  8
0
 62
   150
 10
188.51477600000001
 20
590.79223599999989
 30
0.0
 11
188.51476099999999
 21
694.792282
 31
0.0
  0
LINE
  5
1AB
  8
0
 62
   150
 10
188.51476099999999
 20
694.79229699999985
 30
0.0
 11
188.36827700000001
 21
695.14585899999986
 31
0.0
  0
LINE
  5
1AC
  8
0
 62
   150
 10
188.36827700000001
 20
695.14584400000001
 30
0.0
 11
188.01471499999991
 21
695.292282
 31
0.0
  0
LINE
  5
1AD
  8
0
 62
   150
 10
188.5147
 20
695.292282
 30
0.0
 11
84.014714999999995
 21
695.29231300000004
 31
0.0
  0
LINE
  5
1AE
  8
0
 62
     7
 10
161.21469699999989
 20
600.72277799999995
 30
0.0
 11
161.21469699999989
 21
608.86157199999991
 31
0.0
  0
LINE
  5
1AF
  8
0
 62
     7
 10
162.61255499999999
 20
599.11604299999988
 30
0.0
 11
161.21468200000001
 21
600.72277799999995
 31
0.0
  0
LINE
  5
1B0
  8
0
 62
     7
 10
164.40581299999991
 20
597.966949
 30
0.0
 11
162.612585
 21
599.11604299999988
 31
0.0
  0
LINE
  5
1B1
  8
0
 62
     7
 10
166.4497429999999
 20
597.36825599999997
 30
0.0
 11
164.405798
 21
597.966949
 31
0.0
  0
LINE
  5
1B2
  8
0
 62
     7
 10
168.57955000000001
 20
597.36825599999997
 30
0.0
 11
166.4497429999999
 21
597.36825599999997
 31
0.0
  0
LINE
  5
1B3
  8
0
 62
     7
 10
168.57955000000001
 20
597.36825599999997
 30
0.0
 11
170.62349499999991
 21
597.96694200000002
 31
0.0
  0
LINE
  5
1B4
  8
0
 62
     7
 10
170.62351000000001
 20
597.966949
 30
0.0
 11
172.416754
 21
599.11604299999988
 31
0.0
  0
LINE
  5
1B5
  8
0
 62
     7
 10
172.41672299999991
 20
599.11602800000003
 30
0.0
 11
173.81464199999991
 21
600.72286199999985
 31
0.0
  0
LINE
  5
1B6
  8
0
 62
     7
 10
173.81465700000001
 20
600.72286999999994
 30
0.0
 11
173.81470300000001
 21
608.86161800000002
 31
0.0
  0
LINE
  5
1B7
  8
0
 62
     7
 10
173.81470300000001
 20
608.86161800000002
 30
0.0
 11
172.41678399999989
 21
610.46841399999994
 31
0.0
  0
LINE
  5
1B8
  8
0
 62
     7
 10
172.41679999999991
 20
610.46841399999994
 30
0.0
 11
170.62355600000001
 21
611.61750800000004
 31
0.0
  0
LINE
  5
1B9
  8
0
 62
     7
 10
170.6235409999999
 20
611.61750800000004
 30
0.0
 11
168.579611
 21
612.21619399999997
 31
0.0
  0
LINE
  5
1BA
  8
0
 62
     7
 10
168.579611
 20
612.21619399999997
 30
0.0
 11
166.4497889999999
 21
612.21619399999997
 31
0.0
  0
LINE
  5
1BB
  8
0
 62
     7
 10
164.40585899999999
 20
611.61750800000004
 30
0.0
 11
166.4497889999999
 21
612.21619399999997
 31
0.0
  0
LINE
  5
1BC
  8
0
 62
     7
 10
162.61263099999999
 20
610.46843000000001
 30
0.0
 11
164.40587400000001
 21
611.61752300000001
 31
0.0
  0
LINE
  5
1BD
  8
0
 62
     7
 10
161.21468200000001
 20
608.86156500000004
 30
0.0
 11
162.61259999999999
 21
610.46840700000007
 31
0.0
  0
LINE
  5
1BE
  8
0
 62
     7
 10
157.51476099999999
 20
683.29222100000004
 30
0.0
 11
188.51476099999999
 21
683.292282
 31
0.0
  0
LINE
  5
1BF
  8
0
 62
     7
 10
188.51476099999999
 20
693.29228199999989
 30
0.0
 11
83.514700000000005
 21
693.29228199999989
 31
0.0
  0
LINE
  5
1C0
  8
0
 62
     7
 10
177.01917099999989
 20
676.04215999999985
 30
0.0
 11
176.90498899999989
 21
676.61619599999995
 31
0.0
  0
LINE
  5
1C1
  8
0
 62
     7
 10
176.90498899999989
 20
676.61619599999995
 30
0.0
 11
176.5798399999999
 21
677.10282900000004
 31
0.0
  0
LINE
  5
1C2
  8
0
 62
     7
 10
176.5798399999999
 20
677.10282900000004
 30
0.0
 11
176.09319099999999
 21
677.42797900000005
 31
0.0
  0
LINE
  5
1C3
  8
0
 62
     7
 10
176.093176
 20
677.42797900000005
 30
0.0
 11
175.51915600000001
 21
677.54215999999985
 31
0.0
  0
LINE
  5
1C4
  8
0
 62
     7
 10
174.94513499999999
 20
677.42796299999986
 30
0.0
 11
175.51915600000001
 21
677.542145
 31
0.0
  0
LINE
  5
1C5
  8
0
 62
     7
 10
174.458517
 20
677.10282900000004
 30
0.0
 11
174.94515000000001
 21
677.42797900000005
 31
0.0
  0
LINE
  5
1C6
  8
0
 62
     7
 10
174.13335199999989
 20
676.61619599999995
 30
0.0
 11
174.458517
 21
677.10282900000004
 31
0.0
  0
LINE
  5
1C7
  8
0
 62
     7
 10
174.01917099999989
 20
676.04214499999989
 30
0.0
 11
174.13335199999989
 21
676.61617999999987
 31
0.0
  0
LINE
  5
1C8
  8
0
 62
     7
 10
174.01917099999989
 20
673.04215999999985
 30
0.0
 11
174.01917099999989
 21
676.04215999999985
 31
0.0
  0
LINE
  5
1C9
  8
0
 62
     7
 10
174.13335199999989
 20
672.46812399999988
 30
0.0
 11
174.01917099999989
 21
673.042145
 31
0.0
  0
LINE
  5
1CA
  8
0
 62
     7
 10
174.458517
 20
671.98150599999997
 30
0.0
 11
174.13335199999989
 21
672.46813999999995
 31
0.0
  0
LINE
  5
1CB
  8
0
 62
     7
 10
174.94515000000001
 20
671.65634199999988
 30
0.0
 11
174.458517
 21
671.98150599999997
 31
0.0
  0
LINE
  5
1CC
  8
0
 62
     7
 10
175.51915600000001
 20
671.54215999999985
 30
0.0
 11
174.94513499999999
 21
671.65634199999988
 31
0.0
  0
LINE
  5
1CD
  8
0
 62
     7
 10
175.51915600000001
 20
671.542145
 30
0.0
 11
176.093176
 21
671.65632599999992
 31
0.0
  0
LINE
  5
1CE
  8
0
 62
     7
 10
176.09319099999999
 20
671.65634199999988
 30
0.0
 11
176.5798399999999
 21
671.98150599999997
 31
0.0
  0
LINE
  5
1CF
  8
0
 62
     7
 10
176.5798399999999
 20
671.98150599999997
 30
0.0
 11
176.90498899999989
 21
672.46813999999995
 31
0.0
  0
LINE
  5
1D0
  8
0
 62
     7
 10
176.9049739999999
 20
672.46812399999988
 30
0.0
 11
177.01915600000001
 21
673.042145
 31
0.0
  0
LINE
  5
1D1
  8
0
 62
     7
 10
177.01917099999989
 20
673.04215999999985
 30
0.0
 11
177.01917099999989
 21
676.04215999999985
 31
0.0
  0
LINE
  5
1D2
  8
0
 62
     7
 10
177.01476099999999
 20
651.54218300000002
 30
0.0
 11
174.01476099999999
 21
651.54218300000002
 31
0.0
  0
LINE
  5
1D3
  8
0
 62
     7
 10
174.01476099999999
 20
624.54218300000002
 30
0.0
 11
174.01476099999999
 21
651.54218300000002
 31
0.0
  0
LINE
  5
1D4
  8
0
 62
     7
 10
177.01476099999999
 20
624.54218300000002
 30
0.0
 11
174.01476099999999
 21
624.54218300000002
 31
0.0
  0
LINE
  5
1D5
  8
0
 62
     7
 10
177.01476099999999
 20
624.54218300000002
 30
0.0
 11
177.01476099999999
 21
651.54218300000002
 31
0.0
  0
LINE
  5
1D6
  8
0
 62
   150
 10
155.51476099999999
 20
593.79220999999995
 30
0.0
 11
155.51476099999999
 21
680.29220599999996
 31
0.0
  0
LINE
  5
1D7
  8
0
 62
     7
 10
157.51476099999999
 20
683.29220599999985
 30
0.0
 11
87.014677000000006
 21
683.29220599999985
 31
0.0
  0
LINE
  5
1D8
  8
0
 62
   150
 10
154.51476099999999
 20
681.29220599999996
 30
0.0
 11
87.014677000000006
 21
681.29220599999996
 31
0.0
  0
LINE
  5
1D9
  8
0
 62
   150
 10
155.51476099999999
 20
680.29220599999996
 30
0.0
 11
154.51476099999999
 21
681.29220599999996
 31
0.0
  0
LINE
  5
1DA
  8
0
 62
   150
 10
86.014677000000006
 20
680.29220599999996
 30
0.0
 11
86.307569999999998
 21
680.99931300000003
 31
0.0
  0
LINE
  5
1DB
  8
0
 62
   150
 10
86.307569999999998
 20
680.99931300000003
 30
0.0
 11
87.014677000000006
 21
681.29220599999996
 31
0.0
  0
LINE
  5
1DC
  8
0
 62
     7
 10
87.014677000000006
 20
683.29220599999985
 30
0.0
 11
83.514704000000009
 21
683.29222100000004
 31
0.0
  0
LINE
  5
1DD
  8
0
 62
   150
 10
83.514700000000005
 20
591.29227100000003
 30
0.0
 11
83.514704000000009
 21
683.29222100000004
 31
0.0
  0
LINE
  5
1DE
  8
0
 62
   150
 10
156.51476099999999
 20
590.29198799999995
 30
0.0
 11
84.514700000000005
 21
590.2922779999999
 31
0.0
  0
LINE
  5
1DF
  8
0
 62
   150
 10
157.51476099999999
 20
590.29197299999998
 30
0.0
 11
156.51476099999999
 21
590.29198799999995
 31
0.0
  0
LINE
  5
1E0
  8
0
 62
   150
 10
155.221869
 20
593.08510200000001
 30
0.0
 11
155.51476099999999
 21
593.79220999999995
 31
0.0
  0
LINE
  5
1E1
  8
0
 62
   150
 10
154.51476099999999
 20
592.79220999999995
 30
0.0
 11
155.221869
 21
593.08510200000001
 31
0.0
  0
LINE
  5
1E2
  8
0
 62
   150
 10
154.51476099999999
 20
592.79220999999995
 30
0.0
 11
87.014677000000006
 21
592.79220999999995
 31
0.0
  0
LINE
  5
1E3
  8
0
 62
   150
 10
87.014677000000006
 20
592.79220999999995
 30
0.0
 11
86.307569999999998
 21
593.08510200000001
 31
0.0
  0
LINE
  5
1E4
  8
0
 62
   150
 10
86.307569999999998
 20
593.08510200000001
 30
0.0
 11
86.014677000000006
 21
593.79220999999995
 31
0.0
  0
LINE
  5
1E5
  8
0
 62
   150
 10
86.014677000000006
 20
593.79220999999995
 30
0.0
 11
86.014677000000006
 21
680.29220599999996
 31
0.0
  0
LINE
  5
1E6
  8
0
 62
   150
 10
125.26473799999989
 20
611.4703669999999
 30
0.0
 11
125.26473799999989
 21
653.24749000000008
 31
0.0
  0
LINE
  5
1E7
  8
0
 62
   150
 10
146.76473799999999
 20
611.4703669999999
 30
0.0
 11
146.76473799999999
 21
653.24749000000008
 31
0.0
  0
LINE
  5
1E8
  8
0
 62
     7
 10
183.51477600000001
 20
617.21260099999995
 30
0.0
 11
181.51477600000001
 21
617.21260099999995
 31
0.0
  0
LINE
  5
1E9
  8
0
 62
     7
 10
181.16124500000001
 20
617.06616199999985
 30
0.0
 11
181.51480699999999
 21
617.21260800000005
 31
0.0
  0
LINE
  5
1EA
  8
0
 62
     7
 10
181.01477600000001
 20
616.71260099999995
 30
0.0
 11
181.161215
 21
617.06615399999998
 31
0.0
  0
LINE
  5
1EB
  8
0
 62
     7
 10
181.01477600000001
 20
605.71260099999995
 30
0.0
 11
181.01477600000001
 21
616.71260099999995
 31
0.0
  0
LINE
  5
1EC
  8
0
 62
     7
 10
181.161215
 20
605.35904699999992
 30
0.0
 11
181.01477600000001
 21
605.71260099999995
 31
0.0
  0
LINE
  5
1ED
  8
0
 62
     7
 10
181.514791
 20
605.21260099999995
 30
0.0
 11
181.16122999999999
 21
605.35904699999992
 31
0.0
  0
LINE
  5
1EE
  8
0
 62
     7
 10
183.51477600000001
 20
605.21260099999995
 30
0.0
 11
181.51477600000001
 21
605.21260099999995
 31
0.0
  0
LINE
  5
1EF
  8
0
 62
     7
 10
185.01477600000001
 20
605.21260099999995
 30
0.0
 11
183.51477600000001
 21
605.21260099999995
 31
0.0
  0
LINE
  5
1F0
  8
0
 62
     7
 10
185.01476099999999
 20
605.21259299999986
 30
0.0
 11
185.36830699999999
 21
605.35903899999994
 31
0.0
  0
LINE
  5
1F1
  8
0
 62
     7
 10
185.36832200000001
 20
605.35905500000001
 30
0.0
 11
185.51477600000001
 21
605.71260800000005
 31
0.0
  0
LINE
  5
1F2
  8
0
 62
     7
 10
185.51477600000001
 20
605.71260099999995
 30
0.0
 11
185.51477600000001
 21
616.71260099999995
 31
0.0
  0
LINE
  5
1F3
  8
0
 62
     7
 10
185.51477600000001
 20
616.71260099999995
 30
0.0
 11
185.36832200000001
 21
617.06615399999998
 31
0.0
  0
LINE
  5
1F4
  8
0
 62
     7
 10
185.36830699999999
 20
617.06615399999998
 30
0.0
 11
185.01476099999999
 21
617.21260099999995
 31
0.0
  0
LINE
  5
1F5
  8
0
 62
     7
 10
185.01477600000001
 20
617.21260099999995
 30
0.0
 11
183.51477600000001
 21
617.21260099999995
 31
0.0
  0
LINE
  5
1F6
  8
0
 62
   150
 10
155.51471499999991
 20
656.29222900000002
 30
0.0
 11
155.51471499999991
 21
657.29222900000002
 31
0.0
  0
LINE
  5
1F7
  8
0
 62
   150
 10
155.51471499999991
 20
607.29222900000002
 30
0.0
 11
155.51471499999991
 21
608.29222899999991
 31
0.0
  0
LINE
  5
1F8
  8
0
 62
   150
 10
155.51471499999991
 20
643.29222900000002
 30
0.0
 11
155.51471499999991
 21
644.29222900000002
 31
0.0
  0
LINE
  5
1F9
  8
0
 62
   150
 10
155.51471499999991
 20
620.29222900000002
 30
0.0
 11
155.51471499999991
 21
621.29222900000002
 31
0.0
  0
LINE
  5
1FA
  8
0
 62
     7
 10
196.51476099999999
 20
582.04220999999995
 30
0.0
 11
196.51476099999999
 21
586.54221299999995
 31
0.0
  0
LINE
  5
1FB
  8
0
 62
     4
 10
189.51477600000001
 20
718.042236
 30
0.0
 11
188.51474599999989
 21
718.042236
 31
0.0
  0
LINE
  5
1FC
  8
0
 62
     4
 10
196.514669
 20
610.29217500000004
 30
0.0
 11
196.514669
 21
620.79217500000004
 31
0.0
  0
LINE
  5
1FD
  8
0
 62
     4
 10
196.514669
 20
662.042191
 30
0.0
 11
196.514669
 21
686.042236
 31
0.0
  0
LINE
  5
1FE
  8
0
  6
DASHSPACE
 62
     4
 10
219.0147759999999
 20
573.29220599999985
 30
0.0
 11
198.49475699999991
 21
573.29220599999985
 31
0.0
  0
LINE
  5
1FF
  8
0
  6
DASHSPACE
 62
     4
 10
219.0147759999999
 20
573.29220599999985
 30
0.0
 11
219.0147759999999
 21
578.04219799999998
 31
0.0
  0
LINE
  5
200
  8
0
  6
DASHSPACE
 62
     4
 10
198.49475699999991
 20
573.29220599999985
 30
0.0
 11
189.51466899999991
 21
573.29220599999985
 31
0.0
  0
LINE
  5
201
  8
0
 62
     7
 10
196.51477600000001
 20
697.542236
 30
0.0
 11
196.51477600000001
 21
704.792236
 31
0.0
  0
LINE
  5
202
  8
0
  6
DASHSPACE
 62
     4
 10
219.01476099999991
 20
718.04222100000004
 30
0.0
 11
189.51477600000001
 21
718.04222100000004
 31
0.0
  0
LINE
  5
203
  8
0
  6
DASHSPACE
 62
     4
 10
219.0147759999999
 20
578.042191
 30
0.0
 11
219.01476099999991
 21
718.04222100000004
 31
0.0
  0
LINE
  5
204
  8
0
  6
DASHSPACE
 62
     4
 10
220.01476099999999
 20
631.04217500000004
 30
0.0
 11
220.01476099999999
 21
651.04217500000004
 31
0.0
  0
LINE
  5
205
  8
0
 62
     4
 10
195.51477600000001
 20
620.79217500000004
 30
0.0
 11
195.51477600000001
 21
656.042191
 31
0.0
  0
LINE
  5
206
  8
0
 62
     7
 10
195.51477600000001
 20
597.04222100000004
 30
0.0
 11
195.51477600000001
 21
602.04218300000002
 31
0.0
  0
LINE
  5
207
  8
0
 62
   150
 10
83.879334999999998
 20
590.3483389999999
 30
0.0
 11
83.880812000000006
 21
590.34981500000004
 31
0.0
  0
LINE
  5
208
  8
0
 62
   150
 10
83.88081600000001
 20
695.23507699999993
 30
0.0
 11
83.879568000000006
 21
695.23632800000007
 31
0.0
  0
LINE
  5
209
  8
0
 62
   150
 10
146.76473799999999
 20
652.80667100000005
 30
0.0
 11
125.26473799999989
 21
652.80667100000005
 31
0.0
  0
LINE
  5
20A
  8
0
 62
   150
 10
146.76473799999999
 20
653.24749000000008
 30
0.0
 11
125.26473799999989
 21
653.24749000000008
 31
0.0
  0
LINE
  5
20B
  8
0
 62
   150
 10
146.76473799999999
 20
611.4703669999999
 30
0.0
 11
125.26473799999989
 21
611.4703669999999
 31
0.0
  0
LINE
  5
20C
  8
0
 62
   150
 10
146.76473799999999
 20
612.14024400000005
 30
0.0
 11
125.26473799999989
 21
612.14024400000005
 31
0.0
  0
LINE
  5
20D
  8
0
  6
DASHSPACE
 62
     4
 10
220.01476099999999
 20
651.04217500000004
 30
0.0
 11
219.0147759999999
 21
651.04217500000004
 31
0.0
  0
LINE
  5
20E
  8
0
  6
DASHSPACE
 62
     4
 10
220.01476099999999
 20
631.04217500000004
 30
0.0
 11
219.01476099999991
 21
631.04217500000004
 31
0.0
  0
LINE
  5
20F
  8
0
 62
     4
 10
195.51477600000001
 20
602.04218300000002
 30
0.0
 11
195.51477600000001
 21
610.29217500000004
 31
0.0
  0
CIRCLE
  5
210
  8
0
 62
     4
 10
205.514791
 20
615.54208399999993
 30
0.0
 40
5.250087999999999
  0
LINE
  5
211
  8
0
  6
DASHDOT
 62
     7
 10
205.514791
 20
607.2919999999998
 30
0.0
 11
205.514791
 21
623.79217500000004
 31
0.0
  0
LINE
  5
212
  8
0
  6
DASHDOT
 62
     7
 10
213.76488299999991
 20
615.54208399999993
 30
0.0
 11
197.2647
 21
615.54208399999993
 31
0.0
  0
LINE
  5
213
  8
0
  6
DASHDOT
 62
     7
 10
236.75978699999999
 20
642.792282
 30
0.0
 11
32.476434999999988
 21
642.792282
 31
0.0
  0
LINE
  5
214
  8
0
 62
     7
 10
63.364706000000012
 20
723.28597999999988
 30
0.0
 11
63.364706000000012
 21
732.54222100000004
 31
0.0
  0
LINE
  5
215
  8
0
 62
     7
 10
66.964705000000009
 20
723.28597999999988
 30
0.0
 11
66.964705000000009
 21
732.54222100000004
 31
0.0
  0
LINE
  5
216
  8
0
 62
     7
 10
70.564695
 20
723.28597999999988
 30
0.0
 11
70.564695
 21
732.54222100000004
 31
0.0
  0
LINE
  5
217
  8
0
 62
     7
 10
74.164701000000008
 20
723.28597999999988
 30
0.0
 11
74.164701000000008
 21
732.54222100000004
 31
0.0
  0
LINE
  5
218
  8
0
 62
     7
 10
77.764707999999999
 20
723.28597999999988
 30
0.0
 11
77.764707999999999
 21
732.54222100000004
 31
0.0
  0
LINE
  5
219
  8
0
 62
     7
 10
81.364698000000004
 20
723.28597999999988
 30
0.0
 11
81.364698000000004
 21
732.54222100000004
 31
0.0
  0
LINE
  5
21A
  8
0
  6
DASHSPACE
 62
     4
 10
188.5147
 20
562.292282
 30
0.0
 11
188.5147
 21
590.29222900000002
 31
0.0
  0
LINE
  5
21B
  8
0
  6
DASHSPACE
 62
     4
 10
188.5147
 20
695.292282
 30
0.0
 11
188.5147
 21
723.28597999999988
 31
0.0
  0
CIRCLE
  5
21C
  8
0
 62
     7
 10
226.27361099999999
 20
715.62403899999993
 30
0.0
 40
0.2
  0
LINE
  5
21D
  8
0
 62
     7
 10
59.764707999999999
 20
723.28597999999988
 30
0.0
 11
59.764707999999999
 21
732.54222100000004
 31
0.0
  0
LINE
  5
21E
  8
0
 62
     7
 10
1.161764
 20
557.54222100000004
 30
0.0
 11
2.2036950000000002
 21
563.45106699999997
 31
0.0
  0
LINE
  5
21F
  8
0
 62
     7
 10
1.161764
 20
557.54222100000004
 30
0.0
 11
0.119894
 21
563.45106699999997
 31
0.0
  0
LINE
  5
220
  8
0
 62
     7
 10
1.161764
 20
732.54222100000004
 30
0.0
 11
0.119894
 21
726.633377
 31
0.0
  0
LINE
  5
221
  8
0
 62
     7
 10
1.161764
 20
732.54222100000004
 30
0.0
 11
2.2036950000000002
 21
726.633377
 31
0.0
  0
LINE
  5
222
  8
0
 62
     7
 10
1.161764
 20
557.54222100000004
 30
0.0
 11
1.161764
 21
732.54222100000004
 31
0.0
  0
LINE
  5
223
  8
0
 62
     7
 10
-2.8382360000000002
 20
557.54222100000004
 30
0.0
 11
49.76473
 21
557.54222300000004
 31
0.0
  0
LINE
  5
224
  8
0
 62
     7
 10
-2.8382360000000002
 20
732.54222100000004
 30
0.0
 11
49.76473
 21
732.54222100000004
 31
0.0
  0
LINE
  5
225
  8
0
 62
     7
 10
-27.423867999999999
 20
530.04220599999985
 30
0.0
 11
-28.465738000000002
 21
524.13336200000003
 31
0.0
  0
LINE
  5
226
  8
0
 62
     7
 10
-27.423867999999999
 20
530.04220599999985
 30
0.0
 11
-26.381937000000001
 21
524.13336200000003
 31
0.0
  0
LINE
  5
227
  8
0
 62
     7
 10
-27.423867999999999
 20
540.04223300000001
 30
0.0
 11
-26.381937000000001
 21
545.95107999999993
 31
0.0
  0
LINE
  5
228
  8
0
 62
     7
 10
-27.423867999999999
 20
540.04223300000001
 30
0.0
 11
-28.465738000000002
 21
545.95107999999993
 31
0.0
  0
LINE
  5
229
  8
0
 62
     7
 10
-27.423867999999999
 20
750.04220599999996
 30
0.0
 11
-28.465738000000002
 21
744.13336200000003
 31
0.0
  0
LINE
  5
22A
  8
0
 62
     7
 10
-27.423867999999999
 20
750.04220599999996
 30
0.0
 11
-26.381937000000001
 21
744.13336200000003
 31
0.0
  0
LINE
  5
22B
  8
0
 62
     7
 10
-27.423867999999999
 20
760.042236
 30
0.0
 11
-26.381937000000001
 21
765.95107999999993
 31
0.0
  0
LINE
  5
22C
  8
0
 62
     7
 10
-27.423867999999999
 20
760.042236
 30
0.0
 11
-28.465738000000002
 21
765.95107999999993
 31
0.0
  0
LINE
  5
22D
  8
0
 62
     7
 10
-27.423867999999999
 20
528.88363600000002
 30
0.0
 11
-27.423867999999999
 21
760.29067999999995
 31
0.0
  0
LINE
  5
22E
  8
0
 62
     7
 10
-31.423867999999999
 20
530.04220599999985
 30
0.0
 11
162.26472999999999
 21
530.04221299999995
 31
0.0
  0
LINE
  5
22F
  8
0
 62
     7
 10
-31.423867999999999
 20
540.04223300000001
 30
0.0
 11
164.91475500000001
 21
540.04223999999999
 31
0.0
  0
LINE
  5
230
  8
0
 62
     7
 10
-31.423867999999999
 20
750.04220599999996
 30
0.0
 11
164.91475500000001
 21
750.04222100000004
 31
0.0
  0
LINE
  5
231
  8
0
 62
     7
 10
-31.423867999999999
 20
760.042236
 30
0.0
 11
162.26472999999999
 21
760.04225199999985
 31
0.0
  0
LINE
  5
232
  8
0
 62
     7
 10
171.01472999999999
 20
495.91135400000002
 30
0.0
 11
165.10591700000001
 21
496.95323899999988
 31
0.0
  0
LINE
  5
233
  8
0
 62
     7
 10
171.01472999999999
 20
495.91135400000002
 30
0.0
 11
165.10591700000001
 21
494.869461
 31
0.0
  0
LINE
  5
234
  8
0
 62
     7
 10
136.01472999999999
 20
495.911362
 30
0.0
 11
141.92360500000001
 21
494.86947599999991
 31
0.0
  0
LINE
  5
235
  8
0
 62
     7
 10
136.01472999999999
 20
495.911362
 30
0.0
 11
141.92360500000001
 21
496.9532549999999
 31
0.0
  0
LINE
  5
236
  8
0
 62
     7
 10
136.01472999999999
 20
495.911362
 30
0.0
 11
130.10591700000001
 21
496.9532549999999
 31
0.0
  0
LINE
  5
237
  8
0
 62
     7
 10
136.01472999999999
 20
495.911362
 30
0.0
 11
130.10591700000001
 21
494.86947599999991
 31
0.0
  0
LINE
  5
238
  8
0
 62
     7
 10
101.014791
 20
495.91137700000002
 30
0.0
 11
106.92360499999999
 21
494.86948399999989
 31
0.0
  0
LINE
  5
239
  8
0
 62
     7
 10
101.014791
 20
495.91137700000002
 30
0.0
 11
106.92360499999999
 21
496.95326199999988
 31
0.0
  0
LINE
  5
23A
  8
0
 62
     7
 10
101.014791
 20
495.91137700000002
 30
0.0
 11
95.105917000000005
 21
496.95326199999988
 31
0.0
  0
LINE
  5
23B
  8
0
 62
     7
 10
101.014791
 20
495.91137700000002
 30
0.0
 11
95.105917000000005
 21
494.86948399999989
 31
0.0
  0
LINE
  5
23C
  8
0
 62
     7
 10
66.014791000000002
 20
495.91139199999998
 30
0.0
 11
71.923665999999983
 21
494.86949899999991
 31
0.0
  0
LINE
  5
23D
  8
0
 62
     7
 10
66.014791000000002
 20
495.91139199999998
 30
0.0
 11
71.923665999999983
 21
496.95327800000001
 31
0.0
  0
LINE
  5
23E
  8
0
 62
     7
 10
171.01472999999999
 20
495.91135400000002
 30
0.0
 11
66.014791000000002
 21
495.91138499999988
 31
0.0
  0
LINE
  5
23F
  8
0
 62
     7
 10
171.01472999999999
 20
491.91135400000002
 30
0.0
 11
171.014791
 21
533.94224499999996
 31
0.0
  0
LINE
  5
240
  8
0
 62
     7
 10
136.01472999999999
 20
491.911362
 30
0.0
 11
136.014791
 21
533.94225700000004
 31
0.0
  0
LINE
  5
241
  8
0
 62
     7
 10
101.014791
 20
491.91137700000002
 30
0.0
 11
101.014791
 21
533.94226800000001
 31
0.0
  0
LINE
  5
242
  8
0
 62
     7
 10
66.014791000000002
 20
491.91139199999998
 30
0.0
 11
66.014791000000002
 21
533.94227999999998
 31
0.0
  0
LINE
  5
243
  8
0
 62
     7
 10
188.51472999999999
 20
798.27002000000005
 30
0.0
 11
182.60585599999999
 21
799.31191999999987
 31
0.0
  0
LINE
  5
244
  8
0
 62
     7
 10
188.51472999999999
 20
798.27002000000005
 30
0.0
 11
182.60585599999999
 21
797.22814900000003
 31
0.0
  0
LINE
  5
245
  8
0
 62
     7
 10
48.51473
 20
798.27004999999986
 30
0.0
 11
54.423543999999993
 21
797.22814900000003
 31
0.0
  0
LINE
  5
246
  8
0
 62
     7
 10
48.51473
 20
798.27004999999986
 30
0.0
 11
54.423543999999993
 21
799.31195100000002
 31
0.0
  0
LINE
  5
247
  8
0
 62
     7
 10
188.51472999999999
 20
798.27002000000005
 30
0.0
 11
48.51473
 21
798.27008099999989
 31
0.0
  0
LINE
  5
248
  8
0
 62
     7
 10
188.51472999999999
 20
802.27002000000005
 30
0.0
 11
188.514669
 21
731.29222100000004
 31
0.0
  0
LINE
  5
249
  8
0
 62
     7
 10
48.51473
 20
802.27004999999986
 30
0.0
 11
48.514668999999998
 21
731.29225199999985
 31
0.0
  0
LINE
  5
24A
  8
0
 62
     7
 10
188.51472999999999
 20
480.74507899999992
 30
0.0
 11
182.60585599999999
 21
481.7869639999999
 31
0.0
  0
LINE
  5
24B
  8
0
 62
     7
 10
188.51472999999999
 20
480.74507899999992
 30
0.0
 11
182.60585599999999
 21
479.70318600000002
 31
0.0
  0
LINE
  5
24C
  8
0
 62
     7
 10
136.01472999999999
 20
480.74509399999999
 30
0.0
 11
141.92354399999999
 21
479.70320099999992
 31
0.0
  0
LINE
  5
24D
  8
0
 62
     7
 10
136.01472999999999
 20
480.74509399999999
 30
0.0
 11
141.92354399999999
 21
481.78697999999991
 31
0.0
  0
LINE
  5
24E
  8
0
 62
     7
 10
188.51472999999999
 20
480.74507899999992
 30
0.0
 11
136.01472999999999
 21
480.74509399999999
 31
0.0
  0
LINE
  5
24F
  8
0
 62
     7
 10
188.514669
 20
476.74507899999992
 30
0.0
 11
188.51472999999999
 21
656.29221299999995
 31
0.0
  0
LINE
  5
250
  8
0
 62
     7
 10
136.01472999999999
 20
476.74509399999999
 30
0.0
 11
136.01472999999999
 21
483.503151
 31
0.0
  0
LINE
  5
251
  8
0
 62
     7
 10
111.0147299999999
 20
511.077629
 30
0.0
 11
105.1058559999999
 21
512.11951399999998
 31
0.0
  0
LINE
  5
252
  8
0
 62
     7
 10
111.0147299999999
 20
511.077629
 30
0.0
 11
105.1058559999999
 21
510.03573599999999
 31
0.0
  0
LINE
  5
253
  8
0
 62
     7
 10
91.01473
 20
511.07763699999998
 30
0.0
 11
96.923543999999993
 21
510.03574400000002
 31
0.0
  0
LINE
  5
254
  8
0
 62
     7
 10
91.01473
 20
511.07763699999998
 30
0.0
 11
96.923543999999993
 21
512.11952199999985
 31
0.0
  0
LINE
  5
255
  8
0
 62
     7
 10
128.01472999999999
 20
511.07762100000002
 30
0.0
 11
91.01473
 21
511.07763699999998
 31
0.0
  0
LINE
  5
256
  8
0
 62
     7
 10
111.0147299999999
 20
507.077629
 30
0.0
 11
111.0147299999999
 21
550.04220599999996
 31
0.0
  0
LINE
  5
257
  8
0
 62
     7
 10
91.01473
 20
507.07763699999998
 30
0.0
 11
91.01473
 21
550.04221299999995
 31
0.0
  0
LINE
  5
258
  8
0
 62
     7
 10
173.1310629999999
 20
536.53063599999996
 30
0.0
 11
175.288656
 21
530.93199500000003
 31
0.0
  0
LINE
  5
259
  8
0
 62
     7
 10
173.1310629999999
 20
536.53063599999996
 30
0.0
 11
177.073385
 21
532.00757199999998
 31
0.0
  0
LINE
  5
25A
  8
0
 62
     7
 10
168.89845800000001
 20
543.55382899999995
 30
0.0
 11
166.7408659999999
 21
549.15246999999999
 31
0.0
  0
LINE
  5
25B
  8
0
 62
     7
 10
168.89845800000001
 20
543.55382899999995
 30
0.0
 11
164.95613700000001
 21
548.07688899999994
 31
0.0
  0
LINE
  5
25C
  8
0
 62
     7
 10
168.89845800000001
 20
543.55382899999995
 30
0.0
 11
203.31728199999989
 21
486.44203199999998
 31
0.0
  0
LINE
  5
25D
  8
0
 62
     7
 10
220.0147299999999
 20
464.33536500000002
 30
0.0
 11
214.10591700000001
 21
465.377251
 31
0.0
  0
LINE
  5
25E
  8
0
 62
     7
 10
220.0147299999999
 20
464.33536500000002
 30
0.0
 11
214.10591700000001
 21
463.29347199999989
 31
0.0
  0
LINE
  5
25F
  8
0
 62
     7
 10
136.01472999999999
 20
464.33536500000002
 30
0.0
 11
141.92354399999999
 21
463.29347999999999
 31
0.0
  0
LINE
  5
260
  8
0
 62
     7
 10
136.01472999999999
 20
464.33536500000002
 30
0.0
 11
141.92354399999999
 21
465.37725799999998
 31
0.0
  0
LINE
  5
261
  8
0
 62
     7
 10
220.0147299999999
 20
464.33536500000002
 30
0.0
 11
136.01472999999999
 21
464.33536500000002
 31
0.0
  0
LINE
  5
262
  8
0
 62
     7
 10
220.014791
 20
460.33535799999999
 30
0.0
 11
220.0147299999999
 21
631.04218300000002
 31
0.0
  0
LINE
  5
263
  8
0
 62
     7
 10
136.01472999999999
 20
460.33535799999999
 30
0.0
 11
136.01472999999999
 21
483.50312799999989
 31
0.0
  0
LINE
  5
264
  8
0
 62
     7
 10
188.51472999999999
 20
784.193939
 30
0.0
 11
182.60585599999999
 21
785.23582499999986
 31
0.0
  0
LINE
  5
265
  8
0
 62
     7
 10
188.51472999999999
 20
784.193939
 30
0.0
 11
182.60585599999999
 21
783.15205400000002
 31
0.0
  0
LINE
  5
266
  8
0
 62
     7
 10
83.51473
 20
784.193939
 30
0.0
 11
89.423543999999993
 21
783.15205400000002
 31
0.0
  0
LINE
  5
267
  8
0
 62
     7
 10
83.51473
 20
784.193939
 30
0.0
 11
89.423543999999993
 21
785.23582499999986
 31
0.0
  0
LINE
  5
268
  8
0
 62
     7
 10
188.51472999999999
 20
784.193939
 30
0.0
 11
83.51473
 21
784.193939
 31
0.0
  0
LINE
  5
269
  8
0
 62
     7
 10
188.514669
 20
788.193939
 30
0.0
 11
188.51472999999999
 21
695.292282
 31
0.0
  0
LINE
  5
26A
  8
0
 62
     7
 10
83.514668999999998
 20
788.193939
 30
0.0
 11
83.51473
 21
683.292236
 31
0.0
  0
LINE
  5
26B
  8
0
 62
     7
 10
18.366109999999988
 20
642.792282
 30
0.0
 11
19.407979999999998
 21
648.70112599999993
 31
0.0
  0
LINE
  5
26C
  8
0
 62
     7
 10
18.366109999999988
 20
642.792282
 30
0.0
 11
17.324179000000001
 21
648.70112599999993
 31
0.0
  0
LINE
  5
26D
  8
0
 62
     7
 10
18.366109999999988
 20
732.54222100000004
 30
0.0
 11
17.324179000000001
 21
726.633377
 31
0.0
  0
LINE
  5
26E
  8
0
 62
     7
 10
18.366109999999988
 20
732.54222100000004
 30
0.0
 11
19.407979999999998
 21
726.633377
 31
0.0
  0
LINE
  5
26F
  8
0
 62
     7
 10
18.366109999999988
 20
642.792282
 30
0.0
 11
18.366109999999988
 21
732.54222100000004
 31
0.0
  0
LINE
  5
270
  8
0
 62
     7
 10
14.366110000000001
 20
642.792282
 30
0.0
 11
32.476461
 21
642.792282
 31
0.0
  0
LINE
  5
271
  8
0
 62
     7
 10
14.366110000000001
 20
732.54222100000004
 30
0.0
 11
49.76473
 21
732.54222100000004
 31
0.0
  0
LINE
  5
272
  8
0
 62
     7
 10
-12.601664
 20
642.792282
 30
0.0
 11
-11.559793000000001
 21
648.70112599999993
 31
0.0
  0
LINE
  5
273
  8
0
 62
     7
 10
-12.601664
 20
642.792282
 30
0.0
 11
-13.64353399999999
 21
648.70112599999993
 31
0.0
  0
LINE
  5
274
  8
0
 62
     7
 10
-12.601664
 20
750.04220599999996
 30
0.0
 11
-13.64353399999999
 21
744.13336200000003
 31
0.0
  0
LINE
  5
275
  8
0
 62
     7
 10
-12.601664
 20
750.04220599999996
 30
0.0
 11
-11.559793000000001
 21
744.13336200000003
 31
0.0
  0
LINE
  5
276
  8
0
 62
     7
 10
-12.601664
 20
642.792282
 30
0.0
 11
-12.601664
 21
750.04220599999996
 31
0.0
  0
LINE
  5
277
  8
0
 62
     7
 10
-16.601664
 20
642.792282
 30
0.0
 11
32.476461
 21
642.792282
 31
0.0
  0
LINE
  5
278
  8
0
 62
     7
 10
-16.601664
 20
750.04220599999996
 30
0.0
 11
59.914755
 21
750.04220599999996
 31
0.0
  0
LINE
  5
279
  8
0
 62
     7
 10
232.0147299999999
 20
815.27673299999992
 30
0.0
 11
226.10585599999999
 21
816.31863399999986
 31
0.0
  0
LINE
  5
27A
  8
0
 62
     7
 10
232.0147299999999
 20
815.27673299999992
 30
0.0
 11
226.10585599999999
 21
814.23486300000002
 31
0.0
  0
LINE
  5
27B
  8
0
 62
     7
 10
136.01472999999999
 20
815.27673299999992
 30
0.0
 11
141.92360500000001
 21
814.23486300000002
 31
0.0
  0
LINE
  5
27C
  8
0
 62
     7
 10
136.01472999999999
 20
815.27673299999992
 30
0.0
 11
141.92360500000001
 21
816.31863399999986
 31
0.0
  0
LINE
  5
27D
  8
0
 62
     7
 10
136.01472999999999
 20
815.27673299999992
 30
0.0
 11
130.10585599999999
 21
816.31863399999986
 31
0.0
  0
LINE
  5
27E
  8
0
 62
     7
 10
136.01472999999999
 20
815.27673299999992
 30
0.0
 11
130.10585599999999
 21
814.23486300000002
 31
0.0
  0
LINE
  5
27F
  8
0
 62
     7
 10
57.51473
 20
815.27673299999992
 30
0.0
 11
63.423605000000002
 21
814.23486300000002
 31
0.0
  0
LINE
  5
280
  8
0
 62
     7
 10
57.51473
 20
815.27673299999992
 30
0.0
 11
63.423605000000002
 21
816.31860400000005
 31
0.0
  0
LINE
  5
281
  8
0
 62
     7
 10
232.0147299999999
 20
815.27673299999992
 30
0.0
 11
57.51473
 21
815.27673299999992
 31
0.0
  0
LINE
  5
282
  8
0
 62
     7
 10
232.0147299999999
 20
819.27673300000004
 30
0.0
 11
232.0147299999999
 21
722.03597999999988
 31
0.0
  0
LINE
  5
283
  8
0
 62
     7
 10
136.01472999999999
 20
819.27673300000004
 30
0.0
 11
136.01472999999999
 21
783.74722300000008
 31
0.0
  0
LINE
  5
284
  8
0
 62
     7
 10
57.51473
 20
819.27673300000004
 30
0.0
 11
57.51473
 21
722.03597999999988
 31
0.0
  0
LINE
  5
285
  8
0
 62
     7
 10
33.342855
 20
562.292282
 30
0.0
 11
34.384726000000001
 21
568.20113000000003
 31
0.0
  0
LINE
  5
286
  8
0
 62
     7
 10
33.342855
 20
562.292282
 30
0.0
 11
32.30098499999999
 21
568.20112599999993
 31
0.0
  0
LINE
  5
287
  8
0
 62
     7
 10
33.342855
 20
723.28597999999988
 30
0.0
 11
32.30098499999999
 21
717.37713599999995
 31
0.0
  0
LINE
  5
288
  8
0
 62
     7
 10
33.342855
 20
723.28597999999988
 30
0.0
 11
34.384726000000001
 21
717.37713599999995
 31
0.0
  0
LINE
  5
289
  8
0
 62
     7
 10
33.342855
 20
562.292282
 30
0.0
 11
33.342855
 21
723.28597999999988
 31
0.0
  0
LINE
  5
28A
  8
0
 62
     7
 10
29.342855
 20
562.292282
 30
0.0
 11
58.76473
 21
562.292284
 31
0.0
  0
LINE
  5
28B
  8
0
 62
     7
 10
29.342855
 20
723.28597999999988
 30
0.0
 11
66.51473
 21
723.28597999999988
 31
0.0
  0
LINE
  5
28C
  8
0
 62
     7
 10
-165.15775500000001
 20
562.842266
 30
0.0
 11
-237.15775500000001
 21
562.842266
 31
0.0
  0
LINE
  5
28D
  8
0
 62
     7
 10
-165.15775500000001
 20
557.54226700000004
 30
0.0
 11
-165.15775500000001
 21
573.29220599999985
 31
0.0
  0
LINE
  5
28E
  8
0
 62
     7
 10
-165.15775500000001
 20
718.04222100000004
 30
0.0
 11
-165.15775500000001
 21
732.54225199999996
 31
0.0
  0
LINE
  5
28F
  8
0
 62
     7
 10
-163.15775500000001
 20
719.37185699999986
 30
0.0
 11
-163.15775500000001
 21
719.54222100000004
 31
0.0
  0
LINE
  5
290
  8
0
 62
     7
 10
-163.15775500000001
 20
570.542236
 30
0.0
 11
-165.15775500000001
 21
570.542236
 31
0.0
  0
LINE
  5
291
  8
0
 62
     7
 10
-163.15775500000001
 20
719.54222100000004
 30
0.0
 11
-165.15775500000001
 21
719.54222100000004
 31
0.0
  0
LINE
  5
292
  8
0
 62
     7
 10
-165.15775500000001
 20
727.24226399999998
 30
0.0
 11
-259.357752
 21
727.24226399999998
 31
0.0
  0
LINE
  5
293
  8
0
 62
     7
 10
-237.15775500000001
 20
562.842266
 30
0.0
 11
-259.357752
 21
562.842266
 31
0.0
  0
LINE
  5
294
  8
0
 62
     3
 10
-237.15775500000001
 20
718.04222100000004
 30
0.0
 11
-237.15775500000001
 21
727.24226399999998
 31
0.0
  0
LINE
  5
295
  8
0
 62
     7
 10
-259.357752
 20
562.84226999999987
 30
0.0
 11
-259.357752
 21
574.04220599999985
 31
0.0
  0
LINE
  5
296
  8
0
 62
     7
 10
-259.357752
 20
718.04222100000004
 30
0.0
 11
-259.357752
 21
727.24226399999998
 31
0.0
  0
LINE
  5
297
  8
0
 62
     6
 10
-115.657725
 20
615.04221299999995
 30
0.0
 11
-117.65769399999991
 21
615.04222100000004
 31
0.0
  0
LINE
  5
298
  8
0
 62
     6
 10
-115.657725
 20
608.04221299999995
 30
0.0
 11
-117.65769399999991
 21
608.04222100000004
 31
0.0
  0
LINE
  5
299
  8
0
 62
     3
 10
-115.157725
 20
561.042236
 30
0.0
 11
-115.157725
 21
586.042236
 31
0.0
  0
LINE
  5
29A
  8
0
 62
     3
 10
-115.157709
 20
704.04223599999989
 30
0.0
 11
-115.157709
 21
729.04223599999989
 31
0.0
  0
LINE
  5
29B
  8
0
 62
     3
 10
-126.157709
 20
562.84223899999995
 30
0.0
 11
-163.15775500000001
 21
562.84223899999995
 31
0.0
  0
LINE
  5
29C
  8
0
 62
     6
 10
-126.157709
 20
560.042236
 30
0.0
 11
-163.15775500000001
 21
560.042236
 31
0.0
  0
LINE
  5
29D
  8
0
 62
     6
 10
-126.157709
 20
730.04223599999989
 30
0.0
 11
-163.15775500000001
 21
730.04223599999989
 31
0.0
  0
LINE
  5
29E
  8
0
 62
     3
 10
-126.157709
 20
727.24224900000002
 30
0.0
 11
-163.15775500000001
 21
727.24224900000002
 31
0.0
  0
LINE
  5
29F
  8
0
 62
     6
 10
-163.15775500000001
 20
718.04222100000004
 30
0.0
 11
-163.15775500000001
 21
730.04223599999989
 31
0.0
  0
LINE
  5
2A0
  8
0
 62
     6
 10
-126.1577249999999
 20
560.0422309999999
 30
0.0
 11
-126.1577249999999
 21
561.042236
 31
0.0
  0
LINE
  5
2A1
  8
0
 62
     3
 10
-163.157771
 20
601.54222100000004
 30
0.0
 11
-162.15780100000001
 21
602.542236
 31
0.0
  0
LINE
  5
2A2
  8
0
 62
     6
 10
-113.657709
 20
588.5422329999999
 30
0.0
 11
-113.6577249999999
 21
601.54222900000002
 31
0.0
  0
LINE
  5
2A3
  8
0
 62
     6
 10
-113.6577249999999
 20
688.54222100000004
 30
0.0
 11
-113.657709
 21
701.54222100000004
 31
0.0
  0
LINE
  5
2A4
  8
0
 62
     2
 10
-114.157725
 20
702.042236
 30
0.0
 11
-115.657725
 21
702.042236
 31
0.0
  0
LINE
  5
2A5
  8
0
 62
     2
 10
-114.157725
 20
588.04223599999989
 30
0.0
 11
-115.657725
 21
588.04223599999989
 31
0.0
  0
LINE
  5
2A6
  8
0
 62
     2
 10
-115.657725
 20
701.542236
 30
0.0
 11
-115.657725
 21
702.042236
 31
0.0
  0
LINE
  5
2A7
  8
0
 62
     2
 10
-115.657725
 20
601.54234299999985
 30
0.0
 11
-115.657725
 21
688.54223599999989
 31
0.0
  0
LINE
  5
2A8
  8
0
 62
     2
 10
-115.657725
 20
588.04223599999989
 30
0.0
 11
-115.657725
 21
588.54231300000004
 31
0.0
  0
LINE
  5
2A9
  8
0
 62
     2
 10
-114.157725
 20
588.04223599999989
 30
0.0
 11
-114.157725
 21
588.54222100000004
 31
0.0
  0
LINE
  5
2AA
  8
0
 62
     2
 10
-114.157725
 20
601.54222100000004
 30
0.0
 11
-114.157725
 21
688.54215999999985
 31
0.0
  0
LINE
  5
2AB
  8
0
 62
     2
 10
-114.157725
 20
701.54215999999985
 30
0.0
 11
-114.157725
 21
702.042236
 31
0.0
  0
LINE
  5
2AC
  8
0
 62
     4
 10
-114.15796899999989
 20
560.5421849999999
 30
0.0
 11
-114.15790800000001
 21
586.54218300000002
 31
0.0
  0
LINE
  5
2AD
  8
0
 62
     4
 10
-122.157954
 20
559.54222100000004
 30
0.0
 11
-122.157954
 21
561.04226700000004
 31
0.0
  0
LINE
  5
2AE
  8
0
 62
     3
 10
-114.157725
 20
703.542236
 30
0.0
 11
-114.157725
 21
729.54223599999989
 31
0.0
  0
LINE
  5
2AF
  8
0
 62
     3
 10
-122.1577399999999
 20
729.04223599999989
 30
0.0
 11
-122.1577399999999
 21
730.542236
 31
0.0
  0
LINE
  5
2B0
  8
0
 62
     3
 10
-144.65775500000001
 20
550.04222100000004
 30
0.0
 11
-149.65775500000001
 21
550.04222100000004
 31
0.0
  0
LINE
  5
2B1
  8
0
 62
     3
 10
-144.65775500000001
 20
530.04222199999992
 30
0.0
 11
-149.65775500000001
 21
530.04222199999992
 31
0.0
  0
LINE
  5
2B2
  8
0
 62
     3
 10
-149.65775500000001
 20
530.04223599999989
 30
0.0
 11
-149.65775500000001
 21
560.04226700000004
 31
0.0
  0
LINE
  5
2B3
  8
0
 62
     3
 10
-144.65775500000001
 20
530.04222199999992
 30
0.0
 11
-144.65775500000001
 21
560.042191
 31
0.0
  0
LINE
  5
2B4
  8
0
 62
     6
 10
-122.157954
 20
561.042236
 30
0.0
 11
-126.1577249999999
 21
561.042236
 31
0.0
  0
LINE
  5
2B5
  8
0
 62
     6
 10
-122.1577399999999
 20
729.04223599999989
 30
0.0
 11
-126.157709
 21
729.04223599999989
 31
0.0
  0
LINE
  5
2B6
  8
0
 62
     6
 10
-113.657709
 20
588.54223599999989
 30
0.0
 11
-117.65769399999991
 21
588.54223599999989
 31
0.0
  0
LINE
  5
2B7
  8
0
 62
     6
 10
-113.6577249999999
 20
601.542236
 30
0.0
 11
-117.65769399999991
 21
601.542236
 31
0.0
  0
LINE
  5
2B8
  8
0
 62
     6
 10
-113.657709
 20
701.542236
 30
0.0
 11
-117.657709
 21
701.542236
 31
0.0
  0
LINE
  5
2B9
  8
0
 62
     6
 10
-113.6577249999999
 20
688.54223599999989
 30
0.0
 11
-117.657709
 21
688.54223599999989
 31
0.0
  0
LINE
  5
2BA
  8
0
 62
     6
 10
-115.657725
 20
685.042236
 30
0.0
 11
-117.657709
 21
685.042236
 31
0.0
  0
LINE
  5
2BB
  8
0
 62
     6
 10
-115.657725
 20
677.042236
 30
0.0
 11
-117.657709
 21
677.042236
 31
0.0
  0
LINE
  5
2BC
  8
0
 62
     4
 10
-115.1579539999999
 20
559.54220599999985
 30
0.0
 11
-114.157954
 21
560.542191
 31
0.0
  0
LINE
  5
2BD
  8
0
 62
     4
 10
-114.157847
 20
586.54218700000001
 30
0.0
 11
-115.157832
 21
587.54220199999997
 31
0.0
  0
LINE
  5
2BE
  8
0
 62
     4
 10
-115.1579539999999
 20
559.54219599999999
 30
0.0
 11
-122.157954
 21
559.54221200000006
 31
0.0
  0
LINE
  5
2BF
  8
0
 62
     4
 10
-115.1578769999999
 20
587.5421980000001
 30
0.0
 11
-117.65769399999991
 21
587.54220199999997
 31
0.0
  0
LINE
  5
2C0
  8
0
 62
     3
 10
-114.157709
 20
729.54226700000004
 30
0.0
 11
-115.157709
 21
730.54226700000004
 31
0.0
  0
LINE
  5
2C1
  8
0
 62
     3
 10
-115.1576639999999
 20
702.54229699999996
 30
0.0
 11
-114.1576639999999
 21
703.54229699999985
 31
0.0
  0
LINE
  5
2C2
  8
0
 62
     3
 10
-115.157725
 20
730.542236
 30
0.0
 11
-122.1577399999999
 21
730.542236
 31
0.0
  0
LINE
  5
2C3
  8
0
 62
     3
 10
-115.157725
 20
702.542236
 30
0.0
 11
-117.657709
 21
702.542236
 31
0.0
  0
LINE
  5
2C4
  8
0
 62
     7
 10
-149.65775500000001
 20
730.04223599999989
 30
0.0
 11
-149.65775500000001
 21
760.04226700000004
 31
0.0
  0
LINE
  5
2C5
  8
0
 62
     7
 10
-144.65775500000001
 20
730.04231300000004
 30
0.0
 11
-144.65775500000001
 21
760.042282
 31
0.0
  0
LINE
  5
2C6
  8
0
 62
     7
 10
-144.65775500000001
 20
760.042282
 30
0.0
 11
-149.65775500000001
 21
760.042282
 31
0.0
  0
LINE
  5
2C7
  8
0
 62
     7
 10
-144.65775500000001
 20
740.042282
 30
0.0
 11
-149.65775500000001
 21
740.042282
 31
0.0
  0
LINE
  5
2C8
  8
0
  6
DASHDOT
 62
     7
 10
-136.8512979999999
 20
750.04228199999989
 30
0.0
 11
-159.16141699999989
 21
750.04228199999989
 31
0.0
  0
LINE
  5
2C9
  8
0
  6
DASHDOT
 62
     7
 10
-100.437083
 20
695.04225199999996
 30
0.0
 11
-138.902804
 21
695.04225199999996
 31
0.0
  0
LINE
  5
2CA
  8
0
  6
DASHDOT
 62
     7
 10
-136.8512979999999
 20
540.04222199999992
 30
0.0
 11
-159.16141699999989
 21
540.04222199999992
 31
0.0
  0
LINE
  5
2CB
  8
0
  6
DASHDOT
 62
     7
 10
-100.437083
 20
595.04225199999996
 30
0.0
 11
-138.902804
 21
595.04225199999996
 31
0.0
  0
LINE
  5
2CC
  8
0
 62
     3
 10
-115.157709
 20
729.04223599999989
 30
0.0
 11
-122.1577399999999
 21
729.04223599999989
 31
0.0
  0
LINE
  5
2CD
  8
0
 62
     3
 10
-115.157709
 20
704.04223599999989
 30
0.0
 11
-117.657709
 21
704.04223599999989
 31
0.0
  0
LINE
  5
2CE
  8
0
 62
     6
 10
-126.157709
 20
729.04223599999989
 30
0.0
 11
-126.157709
 21
730.04223599999989
 31
0.0
  0
LINE
  5
2CF
  8
0
 62
     3
 10
-126.157709
 20
718.04222100000004
 30
0.0
 11
-126.157709
 21
729.04223599999989
 31
0.0
  0
LINE
  5
2D0
  8
0
 62
     3
 10
-126.1577249999999
 20
561.042236
 30
0.0
 11
-126.1577249999999
 21
578.04197699999986
 31
0.0
  0
LINE
  5
2D1
  8
0
 62
     3
 10
-115.157725
 20
561.042236
 30
0.0
 11
-122.157954
 21
561.042236
 31
0.0
  0
LINE
  5
2D2
  8
0
 62
     3
 10
-115.157725
 20
586.042236
 30
0.0
 11
-117.65769399999991
 21
586.042236
 31
0.0
  0
LINE
  5
2D3
  8
0
  6
DASHDOT
 62
     7
 10
-113.657709
 20
701.542236
 30
0.0
 11
-113.657709
 21
762.72051999999985
 31
0.0
  0
LINE
  5
2D4
  8
0
 62
     7
 10
-113.6577249999999
 20
601.542236
 30
0.0
 11
-113.6577249999999
 21
688.54223599999989
 31
0.0
  0
LINE
  5
2D5
  8
0
  6
DASHDOT
 62
     7
 10
-113.657709
 20
525.10925699999996
 30
0.0
 11
-113.657709
 21
588.54223599999989
 31
0.0
  0
LINE
  5
2D6
  8
0
  6
DASHDOT
 62
     7
 10
-110.657709
 20
524.05593799999986
 30
0.0
 11
-110.657709
 21
763.77384900000004
 31
0.0
  0
POLYLINE
  5
2D7
  8
0
 62
     3
 66
     1
 10
0.0
 20
0.0
 30
0.0
  0
VERTEX
  5
857
  8
0
 62
     3
 10
-104.95431000000001
 20
521.94929999999988
 30
0.0
  0
VERTEX
  5
858
  8
0
 62
     3
 10
-117.0579169999999
 20
526.3635579999999
 30
0.0
  0
VERTEX
  5
859
  8
0
 62
     3
 10
-118.6826579999999
 20
524.82724800000005
 30
0.0
  0
VERTEX
  5
85A
  8
0
 62
     3
 10
-118.251597
 20
528.92775900000004
 30
0.0
  0
VERTEX
  5
85B
  8
0
 62
     3
 10
-119.876322
 20
527.39144899999997
 30
0.0
  0
SEQEND
  5
85C
  8
0
 62
     3
  0
POLYLINE
  5
2DE
  8
0
 62
     3
 66
     1
 10
0.0
 20
0.0
 30
0.0
  0
VERTEX
  5
85D
  8
0
 62
     3
 10
-118.64745600000001
 20
755.96173099999999
 30
0.0
  0
VERTEX
  5
85E
  8
0
 62
     3
 10
-106.8779399999999
 20
765.17265300000008
 30
0.0
  0
VERTEX
  5
85F
  8
0
 62
     3
 10
-107.3230539999999
 20
767.36398299999985
 30
0.0
  0
VERTEX
  5
860
  8
0
 62
     3
 10
-104.0703069999999
 20
764.83026099999995
 30
0.0
  0
VERTEX
  5
861
  8
0
 62
     3
 10
-104.5154209999999
 20
767.02159099999994
 30
0.0
  0
SEQEND
  5
862
  8
0
 62
     3
  0
CIRCLE
  5
2E5
  8
0
 62
     7
 10
-131.36408499999999
 20
705.67448400000001
 30
0.0
 40
0.25
  0
CIRCLE
  5
2E6
  8
0
 62
     7
 10
-147.4133929999999
 20
734.32981900000004
 30
0.0
 40
0.25
  0
LINE
  5
2E7
  8
0
 62
     1
 10
-295.65768999999989
 20
609.04230499999994
 30
0.0
 11
-295.65768999999989
 21
622.04210699999999
 31
0.0
  0
LINE
  5
2E8
  8
0
 62
     1
 10
-305.65769
 20
562.29210299999988
 30
0.0
 11
-305.65769
 21
723.29209900000001
 31
0.0
  0
LINE
  5
2E9
  8
0
 62
     1
 10
-305.65769
 20
562.29210299999988
 30
0.0
 11
-309.15769
 21
562.29210299999988
 31
0.0
  0
LINE
  5
2EA
  8
0
 62
     1
 10
-309.15769
 20
562.29210299999988
 30
0.0
 11
-309.15769
 21
607.04210699999999
 31
0.0
  0
LINE
  5
2EB
  8
0
 62
     1
 10
-309.15769
 20
624.04210699999999
 30
0.0
 11
-309.15769
 21
723.29209900000001
 31
0.0
  0
LINE
  5
2EC
  8
0
 62
     1
 10
-305.65769
 20
723.29209900000001
 30
0.0
 11
-309.15769
 21
723.29209900000001
 31
0.0
  0
LINE
  5
2ED
  8
0
 62
     1
 10
-303.65769
 20
645.79210699999999
 30
0.0
 11
-303.65769
 21
704.79209900000001
 31
0.0
  0
LINE
  5
2EE
  8
0
 62
     1
 10
-303.65769
 20
622.04211399999997
 30
0.0
 11
-303.65769
 21
639.79211399999997
 31
0.0
  0
LINE
  5
2EF
  8
0
 62
     1
 10
-303.65769
 20
580.792103
 30
0.0
 11
-303.65769
 21
609.04211399999997
 31
0.0
  0
LINE
  5
2F0
  8
0
 62
     1
 10
-303.65769
 20
580.792103
 30
0.0
 11
-305.65769
 21
580.792103
 31
0.0
  0
LINE
  5
2F1
  8
0
 62
     1
 10
-303.65769
 20
704.79209900000001
 30
0.0
 11
-305.65769
 21
704.79209900000001
 31
0.0
  0
LINE
  5
2F2
  8
0
 62
     1
 10
-299.15769
 20
569.36945300000002
 30
0.0
 11
-299.15769
 21
574.21475199999986
 31
0.0
  0
LINE
  5
2F3
  8
0
 62
     1
 10
-299.15769
 20
711.36944600000004
 30
0.0
 11
-299.15769
 21
716.21475199999986
 31
0.0
  0
LINE
  5
2F4
  8
0
 62
     1
 10
-299.15769
 20
640.36945300000002
 30
0.0
 11
-299.15769
 21
645.21475199999986
 31
0.0
  0
LINE
  5
2F5
  8
0
 62
     3
 10
-308.15768999999989
 20
607.04210699999999
 30
0.0
 11
-309.15769
 21
607.04210699999999
 31
0.0
  0
LINE
  5
2F6
  8
0
 62
     3
 10
-308.15768999999989
 20
607.04210699999999
 30
0.0
 11
-308.15768999999989
 21
624.04210699999999
 31
0.0
  0
LINE
  5
2F7
  8
0
 62
     3
 10
-308.15768999999989
 20
624.04210699999999
 30
0.0
 11
-309.15769
 21
624.04210699999999
 31
0.0
  0
LINE
  5
2F8
  8
0
 62
     3
 10
-308.15768999999989
 20
604.04210699999987
 30
0.0
 11
-308.15768999999989
 21
607.04210699999999
 31
0.0
  0
LINE
  5
2F9
  8
0
 62
     3
 10
-308.15768999999989
 20
624.04210699999999
 30
0.0
 11
-308.15768999999989
 21
627.04210699999999
 31
0.0
  0
LINE
  5
2FA
  8
0
 62
     3
 10
-307.15769
 20
604.04210699999987
 30
0.0
 11
-308.15768999999989
 21
604.04210699999987
 31
0.0
  0
LINE
  5
2FB
  8
0
 62
     3
 10
-307.15769
 20
604.04210699999987
 30
0.0
 11
-307.15769
 21
627.04210699999999
 31
0.0
  0
LINE
  5
2FC
  8
0
 62
     3
 10
-307.15769
 20
627.04210699999999
 30
0.0
 11
-308.15768999999989
 21
627.04210699999999
 31
0.0
  0
LINE
  5
2FD
  8
0
 62
     4
 10
-292.65762699999988
 20
589.04219399999999
 30
0.0
 11
-292.65767899999997
 21
593.04222100000004
 31
0.0
  0
LINE
  5
2FE
  8
0
 62
     3
 10
-278.95897899999989
 20
582.042191
 30
0.0
 11
-278.65767999999991
 21
582.04219399999999
 31
0.0
  0
LINE
  5
2FF
  8
0
 62
     4
 10
-292.65767899999997
 20
578.04219799999998
 30
0.0
 11
-292.65762899999987
 21
582.04218299999991
 31
0.0
  0
LINE
  5
300
  8
0
 62
     4
 10
-161.1577399999999
 20
578.04207999999994
 30
0.0
 11
-163.1577399999999
 21
578.04220599999985
 31
0.0
  0
LINE
  5
301
  8
0
 62
     4
 10
-287.65767899999997
 20
578.04219799999998
 30
0.0
 11
-168.15775500000001
 21
578.04220599999985
 31
0.0
  0
LINE
  5
302
  8
0
 62
     4
 10
-117.657709
 20
718.04222100000004
 30
0.0
 11
-161.1577549999999
 21
718.04222100000004
 31
0.0
  0
LINE
  5
303
  8
0
 62
     4
 10
-117.657709
 20
578.04195400000003
 30
0.0
 11
-161.1577399999999
 21
578.04207999999994
 31
0.0
  0
LINE
  5
304
  8
0
 62
     4
 10
-117.657709
 20
578.04195400000003
 30
0.0
 11
-117.65769399999991
 21
589.04217100000005
 31
0.0
  0
LINE
  5
305
  8
0
 62
     3
 10
-202.15769399999999
 20
686.042236
 30
0.0
 11
-292.65767899999997
 21
686.042236
 31
0.0
  0
LINE
  5
306
  8
0
 62
     3
 10
-202.15769399999999
 20
656.042191
 30
0.0
 11
-236.657713
 21
656.042191
 31
0.0
  0
LINE
  5
307
  8
0
 62
     4
 10
-292.65762899999987
 20
582.04218299999991
 30
0.0
 11
-292.65762699999988
 21
589.04219399999999
 31
0.0
  0
LINE
  5
308
  8
0
 62
     4
 10
-161.1577549999999
 20
718.04222100000004
 30
0.0
 11
-292.65767899999997
 21
718.04222100000004
 31
0.0
  0
LINE
  5
309
  8
0
 62
     4
 10
-292.65767899999997
 20
686.042236
 30
0.0
 11
-292.65767899999997
 21
718.04222100000004
 31
0.0
  0
LINE
  5
30A
  8
0
 62
     3
 10
-190.40775500000001
 20
582.04224399999998
 30
0.0
 11
-165.1577399999999
 21
582.04229000000009
 31
0.0
  0
LINE
  5
30B
  8
0
 62
     3
 10
-231.28269399999991
 20
582.04222100000004
 30
0.0
 11
-194.40775500000001
 21
582.04224399999998
 31
0.0
  0
LINE
  5
30C
  8
0
 62
     3
 10
-288.65757000000002
 20
582.04218299999991
 30
0.0
 11
-235.282692
 21
582.04221699999994
 31
0.0
  0
LINE
  5
30D
  8
0
 62
     3
 10
-288.65756099999987
 20
586.54219399999999
 30
0.0
 11
-235.28269
 21
586.54222900000002
 31
0.0
  0
LINE
  5
30E
  8
0
 62
     3
 10
-231.28269
 20
586.54223300000001
 30
0.0
 11
-194.40774799999991
 21
586.54225499999995
 31
0.0
  0
LINE
  5
30F
  8
0
 62
     3
 10
-190.40774799999991
 20
586.54225899999994
 30
0.0
 11
-165.1577399999999
 21
586.54227400000002
 31
0.0
  0
LINE
  5
310
  8
0
 62
     3
 10
-288.65757000000002
 20
582.04218299999991
 30
0.0
 11
-288.65756299999993
 21
586.54219399999999
 31
0.0
  0
LINE
  5
311
  8
0
 62
     3
 10
-165.1577399999999
 20
582.04229000000009
 30
0.0
 11
-165.1577399999999
 21
586.54227400000002
 31
0.0
  0
LINE
  5
312
  8
0
 62
     3
 10
-190.40775500000001
 20
582.04224399999998
 30
0.0
 11
-190.40774799999991
 21
586.54227800000001
 31
0.0
  0
LINE
  5
313
  8
0
 62
     3
 10
-194.40775500000001
 20
582.04224399999998
 30
0.0
 11
-194.40774799999991
 21
586.54227400000002
 31
0.0
  0
LINE
  5
314
  8
0
 62
     3
 10
-231.28269399999991
 20
582.04222100000004
 30
0.0
 11
-231.28269
 21
586.54225199999996
 31
0.0
  0
LINE
  5
315
  8
0
 62
     3
 10
-235.282692
 20
582.04221699999994
 30
0.0
 11
-235.28268799999989
 21
586.54225199999996
 31
0.0
  0
LINE
  5
316
  8
0
 62
     4
 10
-260.65767999999991
 20
574.04220599999985
 30
0.0
 11
-260.65767999999991
 21
578.04220599999985
 31
0.0
  0
LINE
  5
317
  8
0
 62
     4
 10
-256.65767999999991
 20
574.04220599999985
 30
0.0
 11
-256.65767999999991
 21
578.04220599999985
 31
0.0
  0
LINE
  5
318
  8
0
 62
     4
 10
-256.65767999999991
 20
574.04220599999985
 30
0.0
 11
-260.65767999999991
 21
574.04220599999985
 31
0.0
  0
LINE
  5
319
  8
0
 62
     4
 10
-176.90767899999989
 20
574.04225899999994
 30
0.0
 11
-176.90767899999989
 21
578.042191
 31
0.0
  0
LINE
  5
31A
  8
0
 62
     4
 10
-172.907679
 20
574.04225899999994
 30
0.0
 11
-172.907679
 21
578.042191
 31
0.0
  0
LINE
  5
31B
  8
0
 62
     4
 10
-172.907679
 20
574.04225899999994
 30
0.0
 11
-176.90767899999989
 21
574.04225899999994
 31
0.0
  0
LINE
  5
31C
  8
0
 62
     4
 10
-287.65767899999997
 20
573.29220599999985
 30
0.0
 11
-287.65767899999997
 21
575.79220599999985
 31
0.0
  0
LINE
  5
31D
  8
0
 62
     4
 10
-292.65767899999997
 20
573.29220599999985
 30
0.0
 11
-292.65767899999997
 21
578.04219799999998
 31
0.0
  0
LINE
  5
31E
  8
0
 62
     4
 10
-287.65767899999997
 20
573.29220599999985
 30
0.0
 11
-292.65767899999997
 21
573.29220599999985
 31
0.0
  0
LINE
  5
31F
  8
0
 62
     4
 10
-287.65767899999997
 20
575.79220599999985
 30
0.0
 11
-287.65767899999997
 21
578.04220599999985
 31
0.0
  0
LINE
  5
320
  8
0
 62
     4
 10
-168.157771
 20
573.29220599999985
 30
0.0
 11
-168.157771
 21
575.79220599999985
 31
0.0
  0
LINE
  5
321
  8
0
 62
     4
 10
-163.157771
 20
573.29220599999985
 30
0.0
 11
-168.157771
 21
573.29220599999985
 31
0.0
  0
LINE
  5
322
  8
0
 62
     4
 10
-163.157771
 20
573.29220599999985
 30
0.0
 11
-163.1577399999999
 21
578.04220599999985
 31
0.0
  0
LINE
  5
323
  8
0
 62
     4
 10
-168.157771
 20
575.79220599999985
 30
0.0
 11
-168.15775500000001
 21
578.042191
 31
0.0
  0
LINE
  5
324
  8
0
 62
     3
 10
-285.6576869999999
 20
697.54225199999985
 30
0.0
 11
-288.65768700000001
 21
700.54225199999985
 31
0.0
  0
LINE
  5
325
  8
0
 62
     4
 10
-292.65767899999997
 20
593.04222100000004
 30
0.0
 11
-292.65767899999997
 21
656.04221299999995
 31
0.0
  0
LINE
  5
326
  8
0
 62
     3
 10
-236.65771699999991
 20
656.04220599999985
 30
0.0
 11
-292.65767899999997
 21
656.04221299999995
 31
0.0
  0
LINE
  5
327
  8
0
 62
     3
 10
-202.15769399999999
 20
656.042191
 30
0.0
 11
-202.15769399999999
 21
686.042236
 31
0.0
  0
LINE
  5
328
  8
0
 62
     3
 10
-277.15767999999991
 20
685.542236
 30
0.0
 11
-277.15767999999991
 21
686.042236
 31
0.0
  0
LINE
  5
329
  8
0
 62
     3
 10
-190.40775500000001
 20
704.79222100000004
 30
0.0
 11
-165.1577399999999
 21
704.792236
 31
0.0
  0
LINE
  5
32A
  8
0
 62
     3
 10
-190.40775500000001
 20
697.54222100000004
 30
0.0
 11
-190.40775500000001
 21
704.79222100000004
 31
0.0
  0
LINE
  5
32B
  8
0
 62
     3
 10
-190.40775500000001
 20
697.54222100000004
 30
0.0
 11
-165.1577399999999
 21
697.542236
 31
0.0
  0
LINE
  5
32C
  8
0
 62
     3
 10
-165.1577399999999
 20
697.542236
 30
0.0
 11
-165.1577399999999
 21
704.792236
 31
0.0
  0
LINE
  5
32D
  8
0
 62
     3
 10
-235.282692
 20
697.542236
 30
0.0
 11
-235.282692
 21
704.792236
 31
0.0
  0
LINE
  5
32E
  8
0
 62
     3
 10
-194.40775500000001
 20
697.542236
 30
0.0
 11
-235.28269399999991
 21
697.542236
 31
0.0
  0
LINE
  5
32F
  8
0
 62
     3
 10
-194.40775500000001
 20
697.542236
 30
0.0
 11
-194.40775500000001
 21
704.792236
 31
0.0
  0
LINE
  5
330
  8
0
 62
     3
 10
-194.40775500000001
 20
704.792236
 30
0.0
 11
-235.28269399999991
 21
704.792236
 31
0.0
  0
LINE
  5
331
  8
0
 62
     3
 10
-239.282692
 20
697.542236
 30
0.0
 11
-288.65767699999992
 21
697.542236
 31
0.0
  0
LINE
  5
332
  8
0
 62
     3
 10
-239.282692
 20
697.542236
 30
0.0
 11
-239.282692
 21
704.792236
 31
0.0
  0
LINE
  5
333
  8
0
 62
     3
 10
-239.282692
 20
704.792236
 30
0.0
 11
-288.65767699999992
 21
704.792236
 31
0.0
  0
LINE
  5
334
  8
0
 62
     3
 10
-288.65767899999997
 20
697.542236
 30
0.0
 11
-288.65767899999997
 21
704.792236
 31
0.0
  0
LINE
  5
335
  8
0
 62
     3
 10
-278.65767999999991
 20
582.04219399999999
 30
0.0
 11
-278.65767999999991
 21
586.54221699999994
 31
0.0
  0
LINE
  5
336
  8
0
 62
     3
 10
-274.65767699999992
 20
582.04219399999999
 30
0.0
 11
-274.65767699999992
 21
586.54222100000004
 31
0.0
  0
LINE
  5
337
  8
0
 62
     3
 10
-288.65728799999999
 20
582.04215599999986
 30
0.0
 11
-288.657286
 21
586.54219399999999
 31
0.0
  0
LINE
  5
338
  8
0
 62
     4
 10
-292.65767899999997
 20
578.042145
 30
0.0
 11
-292.65767499999993
 21
579.04221699999994
 31
0.0
  0
LINE
  5
339
  8
0
 62
     4
 10
-161.157748
 20
578.04207999999994
 30
0.0
 11
-163.1577399999999
 21
578.04210999999987
 31
0.0
  0
LINE
  5
33A
  8
0
 62
     4
 10
-117.65769399999991
 20
589.04217100000005
 30
0.0
 11
-117.657709
 21
718.04222100000004
 31
0.0
  0
LINE
  5
33B
  8
0
 62
     3
 10
-190.35569199999989
 20
582.04222500000003
 30
0.0
 11
-190.35569199999989
 21
586.54225899999994
 31
0.0
  0
LINE
  5
33C
  8
0
 62
     3
 10
-194.4089679999999
 20
582.04217900000003
 30
0.0
 11
-194.4089679999999
 21
586.54225499999995
 31
0.0
  0
LINE
  5
33D
  8
0
 62
     3
 10
-216.657679
 20
685.542236
 30
0.0
 11
-292.65767899999997
 21
685.542236
 31
0.0
  0
LINE
  5
33E
  8
0
 62
     3
 10
-216.657679
 20
656.042191
 30
0.0
 11
-216.657679
 21
685.542236
 31
0.0
  0
LINE
  5
33F
  8
0
 62
     7
 10
-292.65767899999997
 20
656.04221299999995
 30
0.0
 11
-292.65767899999997
 21
685.542236
 31
0.0
  0
LINE
  5
340
  8
0
 62
   150
 10
-292.65764300000001
 20
590.29222900000002
 30
0.0
 11
-303.65769
 21
590.29222900000002
 31
0.0
  0
LINE
  5
341
  8
0
 62
   150
 10
-292.65767899999997
 20
695.292282
 30
0.0
 11
-303.65769
 21
695.292282
 31
0.0
  0
LINE
  5
342
  8
0
 62
   150
 10
-309.15798000000001
 20
590.79167900000004
 30
0.0
 11
-309.15769399999988
 21
590.79372799999987
 31
0.0
  0
LINE
  5
343
  8
0
 62
     1
 10
-295.65768999999989
 20
609.04230499999994
 30
0.0
 11
-305.65769
 21
609.04230499999994
 31
0.0
  0
LINE
  5
344
  8
0
 62
     1
 10
-295.65768999999989
 20
622.04210699999999
 30
0.0
 11
-305.65769
 21
622.04210699999999
 31
0.0
  0
LINE
  5
345
  8
0
 62
     1
 10
-309.15769
 20
607.04210699999999
 30
0.0
 11
-309.15769
 21
624.04210699999999
 31
0.0
  0
LINE
  5
346
  8
0
 62
     1
 10
-300.15768999999989
 20
568.792103
 30
0.0
 11
-305.65769
 21
568.792103
 31
0.0
  0
LINE
  5
347
  8
0
 62
     1
 10
-300.15768999999989
 20
574.79210299999988
 30
0.0
 11
-305.65769
 21
574.79210299999988
 31
0.0
  0
LINE
  5
348
  8
0
 62
     1
 10
-300.15768999999989
 20
574.56374000000005
 30
0.0
 11
-300.15768999999989
 21
574.79210299999988
 31
0.0
  0
LINE
  5
349
  8
0
 62
     1
 10
-300.15768999999989
 20
573.91342199999985
 30
0.0
 11
-300.15768999999989
 21
574.56374000000005
 31
0.0
  0
LINE
  5
34A
  8
0
 62
     1
 10
-300.15768999999989
 20
572.940155
 30
0.0
 11
-300.15768999999989
 21
573.91342199999985
 31
0.0
  0
LINE
  5
34B
  8
0
 62
     1
 10
-300.15768999999989
 20
571.792103
 30
0.0
 11
-300.15768999999989
 21
572.940155
 31
0.0
  0
LINE
  5
34C
  8
0
 62
     1
 10
-300.15768999999989
 20
570.64405399999998
 30
0.0
 11
-300.15768999999989
 21
571.792103
 31
0.0
  0
LINE
  5
34D
  8
0
 62
     1
 10
-300.15768999999989
 20
569.67078400000003
 30
0.0
 11
-300.15768999999989
 21
570.64405399999998
 31
0.0
  0
LINE
  5
34E
  8
0
 62
     1
 10
-300.15768999999989
 20
569.02046600000006
 30
0.0
 11
-300.15768999999989
 21
569.67078400000003
 31
0.0
  0
LINE
  5
34F
  8
0
 62
     1
 10
-300.15768999999989
 20
568.792103
 30
0.0
 11
-300.15768999999989
 21
569.02046600000006
 31
0.0
  0
LINE
  5
350
  8
0
 62
     1
 10
-300.15768999999989
 20
568.792103
 30
0.0
 11
-299.15769
 21
569.36945300000002
 31
0.0
  0
LINE
  5
351
  8
0
 62
     1
 10
-299.15768700000001
 20
574.21475199999986
 30
0.0
 11
-300.15768700000001
 21
574.79210299999988
 31
0.0
  0
LINE
  5
352
  8
0
 62
     1
 10
-300.15768999999989
 20
710.79209900000001
 30
0.0
 11
-305.65769
 21
710.79209900000001
 31
0.0
  0
LINE
  5
353
  8
0
 62
     1
 10
-300.15768999999989
 20
716.79209899999989
 30
0.0
 11
-305.65769
 21
716.79209899999989
 31
0.0
  0
LINE
  5
354
  8
0
 62
     1
 10
-300.15768999999989
 20
716.56373599999995
 30
0.0
 11
-300.15768999999989
 21
716.79209899999989
 31
0.0
  0
LINE
  5
355
  8
0
 62
     1
 10
-300.15768999999989
 20
715.91342199999985
 30
0.0
 11
-300.15768999999989
 21
716.56373599999995
 31
0.0
  0
LINE
  5
356
  8
0
 62
     1
 10
-300.15768999999989
 20
714.940155
 30
0.0
 11
-300.15768999999989
 21
715.91342199999985
 31
0.0
  0
LINE
  5
357
  8
0
 62
     1
 10
-300.15768999999989
 20
713.79209900000001
 30
0.0
 11
-300.15768999999989
 21
714.940155
 31
0.0
  0
LINE
  5
358
  8
0
 62
     1
 10
-300.15768999999989
 20
712.64405799999986
 30
0.0
 11
-300.15768999999989
 21
713.79209900000001
 31
0.0
  0
LINE
  5
359
  8
0
 62
     1
 10
-300.15768999999989
 20
711.67077599999993
 30
0.0
 11
-300.15768999999989
 21
712.64405799999986
 31
0.0
  0
LINE
  5
35A
  8
0
 62
     1
 10
-300.15768999999989
 20
711.02046200000007
 30
0.0
 11
-300.15768999999989
 21
711.67077599999993
 31
0.0
  0
LINE
  5
35B
  8
0
 62
     1
 10
-300.15768999999989
 20
710.79209900000001
 30
0.0
 11
-300.15768999999989
 21
711.02046200000007
 31
0.0
  0
LINE
  5
35C
  8
0
 62
     1
 10
-300.15768999999989
 20
710.79209900000001
 30
0.0
 11
-299.15769
 21
711.36944600000004
 31
0.0
  0
LINE
  5
35D
  8
0
 62
     1
 10
-299.15769
 20
716.21475199999986
 30
0.0
 11
-300.15768999999989
 21
716.79209899999989
 31
0.0
  0
LINE
  5
35E
  8
0
 62
     1
 10
-300.15768999999989
 20
639.79210699999987
 30
0.0
 11
-305.65769
 21
639.79210699999987
 31
0.0
  0
LINE
  5
35F
  8
0
 62
     1
 10
-300.15768999999989
 20
645.79210699999999
 30
0.0
 11
-305.65769
 21
645.79210699999999
 31
0.0
  0
LINE
  5
360
  8
0
 62
     1
 10
-300.15768999999989
 20
645.56374400000004
 30
0.0
 11
-300.15768999999989
 21
645.79210699999999
 31
0.0
  0
LINE
  5
361
  8
0
 62
     1
 10
-300.15768999999989
 20
644.91342199999985
 30
0.0
 11
-300.15768999999989
 21
645.56374400000004
 31
0.0
  0
LINE
  5
362
  8
0
 62
     1
 10
-300.15768999999989
 20
643.940155
 30
0.0
 11
-300.15768999999989
 21
644.91342199999985
 31
0.0
  0
LINE
  5
363
  8
0
 62
     1
 10
-300.15768999999989
 20
642.79210699999999
 30
0.0
 11
-300.15768999999989
 21
643.940155
 31
0.0
  0
LINE
  5
364
  8
0
 62
     1
 10
-300.15768999999989
 20
641.64405099999999
 30
0.0
 11
-300.15768999999989
 21
642.79210699999999
 31
0.0
  0
LINE
  5
365
  8
0
 62
     1
 10
-300.15768999999989
 20
640.67078400000003
 30
0.0
 11
-300.15768999999989
 21
641.64405099999999
 31
0.0
  0
LINE
  5
366
  8
0
 62
     1
 10
-300.15768999999989
 20
640.02046200000007
 30
0.0
 11
-300.15768999999989
 21
640.67078400000003
 31
0.0
  0
LINE
  5
367
  8
0
 62
     1
 10
-300.15768999999989
 20
639.79210699999987
 30
0.0
 11
-300.15768999999989
 21
640.02046200000007
 31
0.0
  0
LINE
  5
368
  8
0
 62
     1
 10
-300.15768999999989
 20
639.79210699999987
 30
0.0
 11
-299.15769
 21
640.36945300000002
 31
0.0
  0
LINE
  5
369
  8
0
 62
     1
 10
-299.15769
 20
645.21475199999986
 30
0.0
 11
-300.15768999999989
 21
645.79210699999999
 31
0.0
  0
LINE
  5
36A
  8
0
 62
     3
 10
-285.65756099999987
 20
582.04220999999995
 30
0.0
 11
-285.65756299999998
 21
586.54221299999995
 31
0.0
  0
LINE
  5
36B
  8
0
 62
     3
 10
-165.1577399999999
 20
699.042236
 30
0.0
 11
-190.40773999999999
 21
699.042236
 31
0.0
  0
LINE
  5
36C
  8
0
 62
     3
 10
-194.40774799999991
 20
699.042236
 30
0.0
 11
-235.28268299999999
 21
699.042236
 31
0.0
  0
LINE
  5
36D
  8
0
 62
     3
 10
-239.28268299999999
 20
699.042236
 30
0.0
 11
-285.65767899999997
 21
699.042236
 31
0.0
  0
LINE
  5
36E
  8
0
 62
     3
 10
-286.40767499999993
 20
698.29225199999985
 30
0.0
 11
-285.65767499999993
 21
699.04225199999996
 31
0.0
  0
LINE
  5
36F
  8
0
 62
     3
 10
-285.65767899999997
 20
699.042236
 30
0.0
 11
-285.65767899999997
 21
704.792236
 31
0.0
  0
CIRCLE
  5
370
  8
0
 62
     4
 10
-280.65775600000001
 20
641.04217500000004
 30
0.0
 40
2.7500009999999988
  0
CIRCLE
  5
371
  8
0
 62
     4
 10
-280.65776
 20
641.04217500000004
 30
0.0
 40
10.0
  0
CIRCLE
  5
372
  8
0
 62
     4
 10
-138.157725
 20
695.04215999999985
 30
0.0
 40
6.0000609999999988
  0
CIRCLE
  5
373
  8
0
 62
     4
 10
-138.15770900000001
 20
695.04225199999996
 30
0.0
 40
3.25
  0
CIRCLE
  5
374
  8
0
 62
     4
 10
-138.15771699999991
 20
595.04219799999998
 30
0.0
 40
6.0000080000000002
  0
CIRCLE
  5
375
  8
0
 62
     4
 10
-138.157748
 20
595.04221699999994
 30
0.0
 40
3.249997
  0
LINE
  5
376
  8
0
  6
DASHDOT
 62
     7
 10
-138.15771699999991
 20
586.042191
 30
0.0
 11
-138.15771699999991
 21
604.04220599999996
 31
0.0
  0
LINE
  5
377
  8
0
  6
DASHDOT
 62
     7
 10
-129.15770900000001
 20
595.04219799999998
 30
0.0
 11
-147.15772499999991
 21
595.04219799999998
 31
0.0
  0
LINE
  5
378
  8
0
  6
DASHDOT
 62
     7
 10
-138.157725
 20
686.04209900000001
 30
0.0
 11
-138.157725
 21
704.04222100000004
 31
0.0
  0
LINE
  5
379
  8
0
  6
DASHDOT
 62
     7
 10
-129.1576639999999
 20
695.04215999999985
 30
0.0
 11
-147.15778599999999
 21
695.04215999999985
 31
0.0
  0
LINE
  5
37A
  8
0
 62
     7
 10
-163.15775500000001
 20
560.042236
 30
0.0
 11
-163.15775500000001
 21
573.29220599999985
 31
0.0
  0
LINE
  5
37B
  8
0
 62
     7
 10
-305.65769
 20
723.29209900000001
 30
0.0
 11
-305.65769
 21
776.31112699999994
 31
0.0
  0
LINE
  5
37C
  8
0
 62
     7
 10
-303.65769
 20
704.79209900000001
 30
0.0
 11
-303.65769
 21
710.79209900000001
 31
0.0
  0
LINE
  5
37D
  8
0
 62
     7
 10
-305.65769
 20
511.47255699999999
 30
0.0
 11
-305.65769
 21
562.29210299999988
 31
0.0
  0
LINE
  5
37E
  8
0
 62
     7
 10
-303.65769
 20
512.079115
 30
0.0
 11
-303.65769
 21
568.792103
 31
0.0
  0
POLYLINE
  5
37F
  8
0
 62
     3
 66
     1
 10
0.0
 20
0.0
 30
0.0
  0
VERTEX
  5
863
  8
0
 62
     3
 10
-313.08681699999988
 20
509.21946099999991
 30
0.0
  0
VERTEX
  5
864
  8
0
 62
     3
 10
-297.77548300000001
 20
513.86306400000001
 30
0.0
  0
VERTEX
  5
865
  8
0
 62
     3
 10
-297.39897400000001
 20
516.06720499999994
 30
0.0
  0
VERTEX
  5
866
  8
0
 62
     3
 10
-295.281115
 20
512.52959599999986
 30
0.0
  0
VERTEX
  5
867
  8
0
 62
     3
 10
-294.904608
 20
514.73373800000002
 30
0.0
  0
VERTEX
  5
868
  8
0
 62
     3
 10
-293.61634700000002
 20
515.12443899999994
 30
0.0
  0
SEQEND
  5
869
  8
0
 62
     3
  0
POLYLINE
  5
387
  8
0
 62
     3
 66
     1
 10
0.0
 20
0.0
 30
0.0
  0
VERTEX
  5
86A
  8
0
 62
     3
 10
-314.84234800000002
 20
776.06063800000004
 30
0.0
  0
VERTEX
  5
86B
  8
0
 62
     3
 10
-300.28589099999999
 20
776.457626
 30
0.0
  0
VERTEX
  5
86C
  8
0
 62
     3
 10
-299.34078799999992
 20
778.4841459999999
 30
0.0
  0
VERTEX
  5
86D
  8
0
 62
     3
 10
-298.23211099999992
 20
774.51290900000004
 30
0.0
  0
VERTEX
  5
86E
  8
0
 62
     3
 10
-297.2870069999999
 20
776.53941299999985
 30
0.0
  0
SEQEND
  5
86F
  8
0
 62
     3
  0
LINE
  5
38E
  8
0
 62
     7
 10
-303.65769
 20
575.292103
 30
0.0
 11
-305.65769
 21
575.292103
 31
0.0
  0
LINE
  5
38F
  8
0
 62
     7
 10
-303.65769
 20
568.292103
 30
0.0
 11
-305.65769
 21
568.292103
 31
0.0
  0
LINE
  5
390
  8
0
 62
     7
 10
-303.65769
 20
710.29209900000001
 30
0.0
 11
-305.65769
 21
710.29209900000001
 31
0.0
  0
LINE
  5
391
  8
0
 62
     7
 10
-303.65769
 20
717.29209900000001
 30
0.0
 11
-305.65769
 21
717.29209900000001
 31
0.0
  0
LINE
  5
392
  8
0
 62
     7
 10
-303.65769
 20
716.79209899999989
 30
0.0
 11
-303.65769
 21
776.36567699999989
 31
0.0
  0
LINE
  5
393
  8
0
 62
     7
 10
-303.65769
 20
574.79210299999988
 30
0.0
 11
-303.65769
 21
580.792103
 31
0.0
  0
LINE
  5
394
  8
0
 62
     7
 10
-303.65769
 20
579.792103
 30
0.0
 11
-305.65769
 21
579.792103
 31
0.0
  0
LINE
  5
395
  8
0
 62
     7
 10
-303.65769
 20
705.79209900000001
 30
0.0
 11
-305.65769
 21
705.79209900000001
 31
0.0
  0
LINE
  5
396
  8
0
  6
DASHDOT
 62
     7
 10
-280.65776
 20
628.04217500000004
 30
0.0
 11
-280.65776
 21
654.04217500000004
 31
0.0
  0
LINE
  5
397
  8
0
  6
DASHDOT
 62
     7
 10
-267.65775999999988
 20
641.04217500000004
 30
0.0
 11
-293.657759
 21
641.04217500000004
 31
0.0
  0
CIRCLE
  5
398
  8
0
 62
     7
 10
-249.44654299999999
 20
723.06073000000004
 30
0.0
 40
0.25
  0
LINE
  5
399
  8
0
  6
DASHDOT
 62
     7
 10
-100.39184
 20
642.792282
 30
0.0
 11
-364.12688700000001
 21
642.792282
 31
0.0
  0
LINE
  5
39A
  8
0
 62
     7
 10
-165.15775500000001
 20
732.54225199999996
 30
0.0
 11
-263.65775500000001
 21
732.54225199999996
 31
0.0
  0
LINE
  5
39B
  8
0
 62
     7
 10
-264.6577549999999
 20
718.04222100000004
 30
0.0
 11
-264.6577549999999
 21
731.54225199999985
 31
0.0
  0
LINE
  5
39C
  8
0
 62
     7
 10
-165.15775500000001
 20
557.54226700000004
 30
0.0
 11
-263.65775500000001
 21
557.54226700000004
 31
0.0
  0
LINE
  5
39D
  8
0
 62
     7
 10
-264.6577549999999
 20
558.54226700000004
 30
0.0
 11
-264.6577549999999
 21
578.04219799999998
 31
0.0
  0
ARC
  5
39E
  8
0
 62
     7
 10
-263.65775500000001
 20
558.54226700000004
 30
0.0
 40
1.0
 50
180.00000299999991
 51
270.00000499999987
  0
ARC
  5
39F
  8
0
 62
     7
 10
-263.65775500000001
 20
731.54225199999985
 30
0.0
 40
1.0
 50
90.0
 51
180.00000299999991
  0
LINE
  5
3A0
  8
0
 62
     7
 10
-294.157692
 20
696.792282
 30
0.0
 11
-296.65769799999993
 21
696.792282
 31
0.0
  0
LINE
  5
3A1
  8
0
 62
     7
 10
-294.157692
 20
696.792282
 30
0.0
 11
-294.157692
 21
707.292282
 31
0.0
  0
LINE
  5
3A2
  8
0
 62
     7
 10
-297.65769799999993
 20
710.79228199999989
 30
0.0
 11
-300.15769799999993
 21
710.79228199999989
 31
0.0
  0
LINE
  5
3A3
  8
0
 62
     7
 10
-301.15769799999998
 20
716.79209899999989
 30
0.0
 11
-301.15769799999998
 21
719.792282
 31
0.0
  0
LINE
  5
3A4
  8
0
 62
     7
 10
-301.15769799999998
 20
719.792282
 30
0.0
 11
-303.65769
 21
719.792282
 31
0.0
  0
LINE
  5
3A5
  8
0
 62
     7
 10
-297.65769799999993
 20
708.292282
 30
0.0
 11
-300.15769799999993
 21
708.292282
 31
0.0
  0
LINE
  5
3A6
  8
0
 62
     7
 10
-296.65769799999993
 20
696.792282
 30
0.0
 11
-296.65769799999993
 21
707.292282
 31
0.0
  0
ARC
  5
3A7
  8
0
 62
     7
 10
-297.65771299999989
 20
707.29226700000004
 30
0.0
 40
3.500017999999999
 50
0.000329
 51
89.999818999999988
  0
ARC
  5
3A8
  8
0
 62
     7
 10
-297.65765399999992
 20
707.292328
 30
0.0
 40
0.9999499999999999
 50
359.99882599999989
 51
90.002235999999996
  0
ARC
  5
3A9
  8
0
 62
     7
 10
-300.15771699999999
 20
711.79225199999985
 30
0.0
 40
3.4999709999999991
 50
196.60427499999989
 51
270.00034699999998
  0
LINE
  5
3AA
  8
0
 62
     7
 10
-294.157692
 20
705.79228199999989
 30
0.0
 11
-296.65769799999993
 21
705.79228199999989
 31
0.0
  0
LINE
  5
3AB
  8
0
 62
     7
 10
-300.15768999999989
 20
695.292282
 30
0.0
 11
-300.15768999999989
 21
702.29228199999989
 31
0.0
  0
LINE
  5
3AC
  8
0
 62
     7
 10
-298.15768999999989
 20
695.292282
 30
0.0
 11
-298.15768999999989
 21
702.29228199999989
 31
0.0
  0
LINE
  5
3AD
  8
0
 62
     7
 10
-298.15768999999989
 20
702.29228199999989
 30
0.0
 11
-300.15768999999989
 21
702.29228199999989
 31
0.0
  0
LINE
  5
3AE
  8
0
  6
DASHSPACE
 62
     7
 10
-336.65769399999988
 20
590.29222900000002
 30
0.0
 11
-336.65769399999988
 21
695.292282
 31
0.0
  0
LINE
  5
3AF
  8
0
  6
DASHSPACE
 62
     7
 10
-325.04724700000003
 20
695.292282
 30
0.0
 11
-336.65769399999988
 21
695.292282
 31
0.0
  0
LINE
  5
3B0
  8
0
  6
DASHSPACE
 62
     7
 10
-324.04520599999989
 20
590.29222900000002
 30
0.0
 11
-336.65769399999988
 21
590.29222900000002
 31
0.0
  0
LINE
  5
3B1
  8
0
 62
     7
 10
-107.4577129999999
 20
691.14225799999986
 30
0.0
 11
-107.4577129999999
 21
698.94224500000007
 31
0.0
  0
LINE
  5
3B2
  8
0
 62
     7
 10
-104.257716
 20
693.04225199999985
 30
0.0
 11
-104.257716
 21
697.04225199999985
 31
0.0
  0
LINE
  5
3B3
  8
0
 62
     7
 10
-107.4577129999999
 20
698.94224500000007
 30
0.0
 11
-110.657709
 21
698.94224500000007
 31
0.0
  0
LINE
  5
3B4
  8
0
 62
     7
 10
-107.4577129999999
 20
691.14225799999986
 30
0.0
 11
-110.657709
 21
691.14225799999986
 31
0.0
  0
LINE
  5
3B5
  8
0
 62
     7
 10
-104.257716
 20
697.04225199999985
 30
0.0
 11
-110.657709
 21
697.04225199999985
 31
0.0
  0
LINE
  5
3B6
  8
0
 62
     7
 10
-104.257716
 20
693.04225199999985
 30
0.0
 11
-110.657709
 21
693.04225199999985
 31
0.0
  0
LINE
  5
3B7
  8
0
 62
     7
 10
-107.4577129999999
 20
598.94225300000005
 30
0.0
 11
-110.657709
 21
598.94225300000005
 31
0.0
  0
LINE
  5
3B8
  8
0
 62
     7
 10
-104.257716
 20
597.04225199999985
 30
0.0
 11
-110.657709
 21
597.04225199999985
 31
0.0
  0
LINE
  5
3B9
  8
0
 62
     7
 10
-104.257716
 20
593.04225199999985
 30
0.0
 11
-110.657709
 21
593.04225199999985
 31
0.0
  0
LINE
  5
3BA
  8
0
 62
     7
 10
-107.4577129999999
 20
591.14224999999988
 30
0.0
 11
-110.657709
 21
591.14224999999988
 31
0.0
  0
LINE
  5
3BB
  8
0
 62
     7
 10
-107.4577129999999
 20
591.14224999999988
 30
0.0
 11
-107.4577129999999
 21
598.94225300000005
 31
0.0
  0
LINE
  5
3BC
  8
0
 62
     7
 10
-104.257716
 20
593.04225199999985
 30
0.0
 11
-104.257716
 21
597.04225199999985
 31
0.0
  0
CIRCLE
  5
3BD
  8
0
 62
     7
 10
-108.436762
 20
595.061508
 30
0.0
 40
0.2
  0
LINE
  5
3BE
  8
0
 62
     7
 10
-149.657816
 20
789.84326199999998
 30
0.0
 11
-155.56663
 21
790.88516200000004
 31
0.0
  0
LINE
  5
3BF
  8
0
 62
     7
 10
-149.657816
 20
789.84326199999998
 30
0.0
 11
-155.56663
 21
788.801376
 31
0.0
  0
LINE
  5
3C0
  8
0
 62
     7
 10
-144.657816
 20
789.84326199999998
 30
0.0
 11
-138.74888100000001
 21
788.801376
 31
0.0
  0
LINE
  5
3C1
  8
0
 62
     7
 10
-144.657816
 20
789.84326199999998
 30
0.0
 11
-138.74888100000001
 21
790.88516200000004
 31
0.0
  0
LINE
  5
3C2
  8
0
 62
     7
 10
-113.65769399999991
 20
789.84326199999998
 30
0.0
 11
-119.566569
 21
790.88516200000004
 31
0.0
  0
LINE
  5
3C3
  8
0
 62
     7
 10
-113.65769399999991
 20
789.84326199999998
 30
0.0
 11
-119.566569
 21
788.801376
 31
0.0
  0
LINE
  5
3C4
  8
0
 62
     7
 10
-110.65769399999991
 20
789.84326199999998
 30
0.0
 11
-104.748881
 21
788.801376
 31
0.0
  0
LINE
  5
3C5
  8
0
 62
     7
 10
-110.65769399999991
 20
789.84326199999998
 30
0.0
 11
-104.748881
 21
790.88516200000004
 31
0.0
  0
LINE
  5
3C6
  8
0
 62
     7
 10
-161.157816
 20
789.84326199999998
 30
0.0
 11
-99.157694000000006
 21
789.84326199999998
 31
0.0
  0
LINE
  5
3C7
  8
0
 62
     7
 10
-149.65769399999991
 20
793.84326199999998
 30
0.0
 11
-149.657816
 21
760.04226700000004
 31
0.0
  0
LINE
  5
3C8
  8
0
 62
     7
 10
-144.65769399999991
 20
793.84326199999998
 30
0.0
 11
-144.657816
 21
760.04226700000004
 31
0.0
  0
LINE
  5
3C9
  8
0
 62
     7
 10
-113.65769399999991
 20
793.84326199999998
 30
0.0
 11
-113.65769399999991
 21
762.72051999999985
 31
0.0
  0
LINE
  5
3CA
  8
0
 62
     7
 10
-110.65769399999991
 20
793.84326199999998
 30
0.0
 11
-110.65769399999991
 21
763.77383399999985
 31
0.0
  0
LINE
  5
3CB
  8
0
 62
     7
 10
-113.65769399999991
 20
510.6218189999999
 30
0.0
 11
-119.566569
 21
511.66370399999988
 31
0.0
  0
LINE
  5
3CC
  8
0
 62
     7
 10
-113.65769399999991
 20
510.6218189999999
 30
0.0
 11
-119.566569
 21
509.57992599999989
 31
0.0
  0
LINE
  5
3CD
  8
0
 62
     7
 10
-280.65781600000003
 20
510.62181099999998
 30
0.0
 11
-274.74888099999993
 21
509.57992599999989
 31
0.0
  0
LINE
  5
3CE
  8
0
 62
     7
 10
-280.65781600000003
 20
510.62181099999998
 30
0.0
 11
-274.74888099999993
 21
511.66370399999988
 31
0.0
  0
LINE
  5
3CF
  8
0
 62
     7
 10
-113.65769399999991
 20
510.6218189999999
 30
0.0
 11
-280.65781600000003
 21
510.62181099999998
 31
0.0
  0
LINE
  5
3D0
  8
0
 62
     7
 10
-113.65769399999991
 20
506.6218189999999
 30
0.0
 11
-113.65769399999991
 21
525.10926099999995
 31
0.0
  0
LINE
  5
3D1
  8
0
 62
     7
 10
-280.65769399999988
 20
506.62181099999998
 30
0.0
 11
-280.65781600000003
 21
628.04216799999995
 31
0.0
  0
LINE
  5
3D2
  8
0
 62
     7
 10
-113.65769399999991
 20
496.36596700000001
 30
0.0
 11
-119.566569
 21
497.40785199999988
 31
0.0
  0
LINE
  5
3D3
  8
0
 62
     7
 10
-113.65769399999991
 20
496.36596700000001
 30
0.0
 11
-119.566569
 21
495.324074
 31
0.0
  0
LINE
  5
3D4
  8
0
 62
     7
 10
-303.65769399999988
 20
496.36595199999988
 30
0.0
 11
-297.74888099999998
 21
495.32406600000002
 31
0.0
  0
LINE
  5
3D5
  8
0
 62
     7
 10
-303.65769399999988
 20
496.36595199999988
 30
0.0
 11
-297.74888099999998
 21
497.40784500000001
 31
0.0
  0
LINE
  5
3D6
  8
0
 62
     7
 10
-305.65769399999988
 20
496.36595199999988
 30
0.0
 11
-311.56650799999989
 21
497.40784500000001
 31
0.0
  0
LINE
  5
3D7
  8
0
 62
     7
 10
-305.65769399999988
 20
496.36595199999988
 30
0.0
 11
-311.56650799999989
 21
495.32406600000002
 31
0.0
  0
LINE
  5
3D8
  8
0
 62
     7
 10
-113.65769399999991
 20
496.36596700000001
 30
0.0
 11
-305.65769399999988
 21
496.36595199999988
 31
0.0
  0
LINE
  5
3D9
  8
0
 62
     7
 10
-113.65769399999991
 20
492.36596700000001
 30
0.0
 11
-113.65769399999991
 21
525.10926099999995
 31
0.0
  0
LINE
  5
3DA
  8
0
 62
     7
 10
-303.65769399999988
 20
492.36595199999988
 30
0.0
 11
-303.65769399999988
 21
512.0791089999999
 31
0.0
  0
LINE
  5
3DB
  8
0
 62
     7
 10
-305.65769399999988
 20
492.36595199999988
 30
0.0
 11
-305.65769399999988
 21
511.47254900000001
 31
0.0
  0
LINE
  5
3DC
  8
0
 62
     7
 10
-113.65769399999991
 20
479.37884500000001
 30
0.0
 11
-119.566569
 21
480.42073099999988
 31
0.0
  0
LINE
  5
3DD
  8
0
 62
     7
 10
-113.65769399999991
 20
479.37884500000001
 30
0.0
 11
-119.566569
 21
478.33695199999988
 31
0.0
  0
LINE
  5
3DE
  8
0
 62
     7
 10
-309.15769399999988
 20
479.37882999999999
 30
0.0
 11
-303.24888099999993
 21
478.33694500000001
 31
0.0
  0
LINE
  5
3DF
  8
0
 62
     7
 10
-309.15769399999988
 20
479.37882999999999
 30
0.0
 11
-303.24888099999993
 21
480.42072300000012
 31
0.0
  0
LINE
  5
3E0
  8
0
 62
     7
 10
-113.65769399999991
 20
479.37884500000001
 30
0.0
 11
-309.15769399999988
 21
479.37882999999999
 31
0.0
  0
LINE
  5
3E1
  8
0
 62
     7
 10
-113.65769399999991
 20
475.37884500000001
 30
0.0
 11
-113.65769399999991
 21
525.10925300000008
 31
0.0
  0
LINE
  5
3E2
  8
0
 62
     7
 10
-309.15769399999988
 20
475.37882999999999
 30
0.0
 11
-309.15769399999988
 21
562.29209500000002
 31
0.0
  0
LINE
  5
3E3
  8
0
 62
     7
 10
-353.82017000000002
 20
590.29222900000002
 30
0.0
 11
-352.77829999999989
 21
596.20107699999994
 31
0.0
  0
LINE
  5
3E4
  8
0
 62
     7
 10
-353.82017000000002
 20
590.29222900000002
 30
0.0
 11
-354.86203999999992
 21
596.20107699999994
 31
0.0
  0
LINE
  5
3E5
  8
0
 62
     7
 10
-353.82017000000002
 20
695.292282
 30
0.0
 11
-354.86203999999992
 21
689.38343799999996
 31
0.0
  0
LINE
  5
3E6
  8
0
 62
     7
 10
-353.82017000000002
 20
695.292282
 30
0.0
 11
-352.77829999999989
 21
689.38343799999996
 31
0.0
  0
LINE
  5
3E7
  8
0
 62
     7
 10
-353.82017000000002
 20
590.29222900000002
 30
0.0
 11
-353.82017000000002
 21
695.292282
 31
0.0
  0
LINE
  5
3E8
  8
0
 62
     7
 10
-357.82017000000002
 20
590.29222900000002
 30
0.0
 11
-303.65769399999988
 21
590.2922329999999
 31
0.0
  0
LINE
  5
3E9
  8
0
 62
     7
 10
-357.82017000000002
 20
695.292282
 30
0.0
 11
-303.65769399999988
 21
695.292282
 31
0.0
  0
LINE
  5
3EA
  8
0
 62
     7
 10
-216.27451600000001
 20
641.04217500000004
 30
0.0
 11
-217.31638599999991
 21
635.133331
 31
0.0
  0
LINE
  5
3EB
  8
0
 62
     7
 10
-216.27451600000001
 20
641.04217500000004
 30
0.0
 11
-215.23264499999999
 21
635.133331
 31
0.0
  0
LINE
  5
3EC
  8
0
 62
     7
 10
-216.27451600000001
 20
642.792282
 30
0.0
 11
-215.23264499999999
 21
648.70113400000002
 31
0.0
  0
LINE
  5
3ED
  8
0
 62
     7
 10
-216.27451600000001
 20
642.792282
 30
0.0
 11
-217.31638599999991
 21
648.70112599999993
 31
0.0
  0
LINE
  5
3EE
  8
0
 62
     7
 10
-216.27451600000001
 20
613.04217500000004
 30
0.0
 11
-216.27451600000001
 21
642.792282
 31
0.0
  0
LINE
  5
3EF
  8
0
 62
     7
 10
-212.27451600000001
 20
641.04217500000004
 30
0.0
 11
-267.65781600000003
 21
641.04217500000004
 31
0.0
  0
LINE
  5
3F0
  8
0
 62
     7
 10
-212.27451600000001
 20
642.792282
 30
0.0
 11
-241.95395899999991
 21
642.792282
 31
0.0
  0
LINE
  5
3F1
  8
0
 62
     7
 10
-309.15769399999988
 20
803.08401499999991
 30
0.0
 11
-303.24888099999993
 21
802.04211399999986
 31
0.0
  0
LINE
  5
3F2
  8
0
 62
     7
 10
-309.15769399999988
 20
803.08401499999991
 30
0.0
 11
-303.24888099999993
 21
804.12591599999985
 31
0.0
  0
LINE
  5
3F3
  8
0
 62
     7
 10
-336.65769399999988
 20
803.08401499999991
 30
0.0
 11
-342.56650799999989
 21
804.12591599999985
 31
0.0
  0
LINE
  5
3F4
  8
0
 62
     7
 10
-336.65769399999988
 20
803.08401499999991
 30
0.0
 11
-342.56650799999989
 21
802.04211399999986
 31
0.0
  0
LINE
  5
3F5
  8
0
 62
     7
 10
-187.652567
 20
803.08401499999991
 30
0.0
 11
-363.65256699999992
 21
803.08401499999991
 31
0.0
  0
LINE
  5
3F6
  8
0
 62
     7
 10
-309.15769399999988
 20
807.08401500000002
 30
0.0
 11
-309.15769399999988
 21
723.29211399999997
 31
0.0
  0
LINE
  5
3F7
  8
0
 62
     7
 10
-336.65769399999988
 20
807.08401500000002
 30
0.0
 11
-336.65769399999988
 21
695.292282
 31
0.0
  0
LINE
  5
3F8
  8
0
 62
     7
 10
-278.73777200000001
 20
639.07338700000003
 30
0.0
 11
-275.35825599999993
 21
634.11567700000001
 31
0.0
  0
LINE
  5
3F9
  8
0
 62
     7
 10
-278.73777200000001
 20
639.07338700000003
 30
0.0
 11
-273.86643399999991
 21
635.57052599999986
 31
0.0
  0
LINE
  5
3FA
  8
0
 62
     7
 10
-282.57773800000001
 20
643.01096299999995
 30
0.0
 11
-285.95725499999992
 21
647.96867399999996
 31
0.0
  0
LINE
  5
3FB
  8
0
 62
     7
 10
-282.57773800000001
 20
643.01096299999995
 30
0.0
 11
-287.44907599999999
 21
646.51382399999989
 31
0.0
  0
LINE
  5
3FC
  8
0
 62
     7
 10
-282.57773800000001
 20
643.01096299999995
 30
0.0
 11
-252.38743099999999
 21
612.05330700000002
 31
0.0
  0
POINT
  5
3FD
  8
0
 62
     7
 10
544.61798099999999
 20
615.042282
 30
0.0
  0
LINE
  5
3FE
  8
0
 62
     7
 10
378.61798099999999
 20
579.792282
 30
0.0
 11
513.61798099999987
 21
579.792282
 31
0.0
  0
LINE
  5
3FF
  8
0
 62
     7
 10
378.61798099999999
 20
705.79228199999989
 30
0.0
 11
513.61798099999987
 21
705.79228199999989
 31
0.0
  0
LINE
  5
400
  8
0
 62
     7
 10
513.61798099999987
 20
705.79228199999989
 30
0.0
 11
513.61798099999987
 21
623.542282
 31
0.0
  0
LINE
  5
401
  8
0
 62
     7
 10
378.61798099999999
 20
705.79228199999989
 30
0.0
 11
378.61798099999999
 21
579.792282
 31
0.0
  0
LINE
  5
402
  8
0
  6
DASHDOT
 62
     7
 10
495.71803699999998
 20
615.542282
 30
0.0
 11
551.63920599999994
 21
615.542282
 31
0.0
  0
LINE
  5
403
  8
0
 62
     7
 10
513.61798099999987
 20
623.542282
 30
0.0
 11
536.61798099999999
 21
623.542282
 31
0.0
  0
LINE
  5
404
  8
0
 62
     7
 10
513.61798099999987
 20
607.542282
 30
0.0
 11
536.61798099999999
 21
607.542282
 31
0.0
  0
ARC
  5
405
  8
0
 62
     7
 10
536.61798099999999
 20
615.542282
 30
0.0
 40
8.0
 50
270.0
 51
90.000005000000002
  0
LINE
  5
406
  8
0
 62
     7
 10
513.61798099999987
 20
607.542282
 30
0.0
 11
513.61798099999987
 21
579.792282
 31
0.0
  0
LINE
  5
407
  8
0
  6
DASHDOT
 62
     7
 10
450.61798099999987
 20
745.30224599999985
 30
0.0
 11
450.61798099999987
 21
550.21155499999998
 31
0.0
  0
CIRCLE
  5
408
  8
0
 62
     7
 10
406.61798099999987
 20
713.792282
 30
0.0
 40
3.5
  0
CIRCLE
  5
409
  8
0
 62
     7
 10
531.61798099999999
 20
713.792282
 30
0.0
 40
4.0
  0
CIRCLE
  5
40A
  8
0
 62
     7
 10
531.61798099999999
 20
642.792282
 30
0.0
 40
3.5
  0
CIRCLE
  5
40B
  8
0
 62
     7
 10
531.61798099999999
 20
571.792282
 30
0.0
 40
3.5
  0
CIRCLE
  5
40C
  8
0
 62
     7
 10
406.61798099999987
 20
571.792282
 30
0.0
 40
4.0
  0
LINE
  5
40D
  8
0
  6
DASHDOT
 62
     7
 10
406.61798099999987
 20
720.292282
 30
0.0
 11
406.61798099999987
 21
707.292282
 31
0.0
  0
LINE
  5
40E
  8
0
  6
DASHDOT
 62
     7
 10
400.11798099999999
 20
713.792282
 30
0.0
 11
413.11798099999987
 21
713.792282
 31
0.0
  0
LINE
  5
40F
  8
0
  6
DASHDOT
 62
     7
 10
531.61798099999999
 20
720.292282
 30
0.0
 11
531.61798099999999
 21
707.292282
 31
0.0
  0
LINE
  5
410
  8
0
  6
DASHDOT
 62
     7
 10
525.11798099999999
 20
713.792282
 30
0.0
 11
538.11798099999987
 21
713.792282
 31
0.0
  0
LINE
  5
411
  8
0
  6
DASHDOT
 62
     7
 10
531.61798099999999
 20
649.292282
 30
0.0
 11
531.61798099999999
 21
636.292282
 31
0.0
  0
LINE
  5
412
  8
0
  6
DASHDOT
 62
     7
 10
525.11798099999999
 20
642.792282
 30
0.0
 11
538.11798099999987
 21
642.792282
 31
0.0
  0
LINE
  5
413
  8
0
  6
DASHDOT
 62
     7
 10
531.61798099999999
 20
578.292282
 30
0.0
 11
531.61798099999999
 21
565.29228199999989
 31
0.0
  0
LINE
  5
414
  8
0
  6
DASHDOT
 62
     7
 10
525.11798099999999
 20
571.792282
 30
0.0
 11
538.11798099999987
 21
571.792282
 31
0.0
  0
LINE
  5
415
  8
0
  6
DASHDOT
 62
     7
 10
406.61798099999987
 20
578.292282
 30
0.0
 11
406.61798099999987
 21
565.29228199999989
 31
0.0
  0
LINE
  5
416
  8
0
  6
DASHDOT
 62
     7
 10
400.11798099999999
 20
571.792282
 30
0.0
 11
413.11798099999987
 21
571.792282
 31
0.0
  0
POLYLINE
  5
417
  8
0
 62
     7
 66
     1
 10
0.0
 20
0.0
 30
0.0
  0
VERTEX
  5
870
  8
0
 62
     7
 10
354.91974599999992
 20
725.792282
 30
0.0
  0
VERTEX
  5
871
  8
0
 62
     7
 10
370.91974599999992
 20
725.792282
 30
0.0
  0
VERTEX
  5
872
  8
0
 62
     7
 10
371.91974599999992
 20
727.792282
 30
0.0
  0
VERTEX
  5
873
  8
0
 62
     7
 10
372.91974599999992
 20
723.792282
 30
0.0
  0
VERTEX
  5
874
  8
0
 62
     7
 10
373.91974599999992
 20
725.792282
 30
0.0
  0
VERTEX
  5
875
  8
0
 62
     7
 10
389.91974599999992
 20
725.792282
 30
0.0
  0
VERTEX
  5
876
  8
0
 62
     7
 10
390.91974599999992
 20
727.792282
 30
0.0
  0
VERTEX
  5
877
  8
0
 62
     7
 10
391.91974599999992
 20
723.792282
 30
0.0
  0
VERTEX
  5
878
  8
0
 62
     7
 10
392.91974599999992
 20
725.792282
 30
0.0
  0
VERTEX
  5
879
  8
0
 62
     7
 10
408.91974599999992
 20
725.792282
 30
0.0
  0
VERTEX
  5
87A
  8
0
 62
     7
 10
409.91974599999998
 20
727.792282
 30
0.0
  0
VERTEX
  5
87B
  8
0
 62
     7
 10
410.91974599999992
 20
723.792282
 30
0.0
  0
VERTEX
  5
87C
  8
0
 62
     7
 10
411.91974599999992
 20
725.792282
 30
0.0
  0
VERTEX
  5
87D
  8
0
 62
     7
 10
427.91974599999992
 20
725.792282
 30
0.0
  0
VERTEX
  5
87E
  8
0
 62
     7
 10
428.91974599999992
 20
727.792282
 30
0.0
  0
VERTEX
  5
87F
  8
0
 62
     7
 10
429.91974599999998
 20
723.792282
 30
0.0
  0
VERTEX
  5
880
  8
0
 62
     7
 10
430.91974599999998
 20
725.792282
 30
0.0
  0
VERTEX
  5
881
  8
0
 62
     7
 10
446.91974599999998
 20
725.792282
 30
0.0
  0
VERTEX
  5
882
  8
0
 62
     7
 10
447.91974599999992
 20
727.792282
 30
0.0
  0
VERTEX
  5
883
  8
0
 62
     7
 10
448.91974599999992
 20
723.792282
 30
0.0
  0
VERTEX
  5
884
  8
0
 62
     7
 10
449.91974599999992
 20
725.792282
 30
0.0
  0
VERTEX
  5
885
  8
0
 62
     7
 10
465.91974599999992
 20
725.792282
 30
0.0
  0
VERTEX
  5
886
  8
0
 62
     7
 10
466.91974599999992
 20
727.792282
 30
0.0
  0
VERTEX
  5
887
  8
0
 62
     7
 10
467.91974599999998
 20
723.792282
 30
0.0
  0
VERTEX
  5
888
  8
0
 62
     7
 10
468.91974599999992
 20
725.792282
 30
0.0
  0
VERTEX
  5
889
  8
0
 62
     7
 10
484.91974599999998
 20
725.792282
 30
0.0
  0
VERTEX
  5
88A
  8
0
 62
     7
 10
485.91974599999992
 20
727.792282
 30
0.0
  0
VERTEX
  5
88B
  8
0
 62
     7
 10
486.91974599999992
 20
723.792282
 30
0.0
  0
VERTEX
  5
88C
  8
0
 62
     7
 10
487.91974599999992
 20
725.792282
 30
0.0
  0
VERTEX
  5
88D
  8
0
 62
     7
 10
503.91974599999992
 20
725.792282
 30
0.0
  0
VERTEX
  5
88E
  8
0
 62
     7
 10
504.91974599999998
 20
727.792282
 30
0.0
  0
VERTEX
  5
88F
  8
0
 62
     7
 10
505.91974599999998
 20
723.792282
 30
0.0
  0
VERTEX
  5
890
  8
0
 62
     7
 10
506.91974599999992
 20
725.792282
 30
0.0
  0
VERTEX
  5
891
  8
0
 62
     7
 10
522.91974600000003
 20
725.792282
 30
0.0
  0
VERTEX
  5
892
  8
0
 62
     7
 10
523.91974600000003
 20
727.792282
 30
0.0
  0
VERTEX
  5
893
  8
0
 62
     7
 10
524.91974600000003
 20
723.792282
 30
0.0
  0
VERTEX
  5
894
  8
0
 62
     7
 10
525.91974600000003
 20
725.792282
 30
0.0
  0
VERTEX
  5
895
  8
0
 62
     7
 10
541.91974600000003
 20
725.792282
 30
0.0
  0
VERTEX
  5
896
  8
0
 62
     7
 10
542.91974600000003
 20
727.792282
 30
0.0
  0
VERTEX
  5
897
  8
0
 62
     7
 10
543.91974600000003
 20
723.792282
 30
0.0
  0
VERTEX
  5
898
  8
0
 62
     7
 10
544.91974600000003
 20
725.792282
 30
0.0
  0
VERTEX
  5
899
  8
0
 62
     7
 10
553.26797499999986
 20
725.792282
 30
0.0
  0
SEQEND
  5
89A
  8
0
 62
     7
  0
POLYLINE
  5
443
  8
0
 62
     7
 66
     1
 10
0.0
 20
0.0
 30
0.0
  0
VERTEX
  5
89B
  8
0
 62
     7
 10
352.386101
 20
559.79228199999989
 30
0.0
  0
VERTEX
  5
89C
  8
0
 62
     7
 10
368.386101
 20
559.79228199999989
 30
0.0
  0
VERTEX
  5
89D
  8
0
 62
     7
 10
369.386101
 20
561.792282
 30
0.0
  0
VERTEX
  5
89E
  8
0
 62
     7
 10
370.386101
 20
557.792282
 30
0.0
  0
VERTEX
  5
89F
  8
0
 62
     7
 10
371.386101
 20
559.79228199999989
 30
0.0
  0
VERTEX
  5
8A0
  8
0
 62
     7
 10
387.386101
 20
559.79228199999989
 30
0.0
  0
VERTEX
  5
8A1
  8
0
 62
     7
 10
388.386101
 20
561.792282
 30
0.0
  0
VERTEX
  5
8A2
  8
0
 62
     7
 10
389.386101
 20
557.792282
 30
0.0
  0
VERTEX
  5
8A3
  8
0
 62
     7
 10
390.38610099999988
 20
559.79228199999989
 30
0.0
  0
VERTEX
  5
8A4
  8
0
 62
     7
 10
406.386101
 20
559.79228199999989
 30
0.0
  0
VERTEX
  5
8A5
  8
0
 62
     7
 10
407.38610099999988
 20
561.792282
 30
0.0
  0
VERTEX
  5
8A6
  8
0
 62
     7
 10
408.38610099999988
 20
557.792282
 30
0.0
  0
VERTEX
  5
8A7
  8
0
 62
     7
 10
409.386101
 20
559.79228199999989
 30
0.0
  0
VERTEX
  5
8A8
  8
0
 62
     7
 10
425.38610099999988
 20
559.79228199999989
 30
0.0
  0
VERTEX
  5
8A9
  8
0
 62
     7
 10
426.386101
 20
561.792282
 30
0.0
  0
VERTEX
  5
8AA
  8
0
 62
     7
 10
427.386101
 20
557.792282
 30
0.0
  0
VERTEX
  5
8AB
  8
0
 62
     7
 10
428.38610099999988
 20
559.79228199999989
 30
0.0
  0
VERTEX
  5
8AC
  8
0
 62
     7
 10
444.386101
 20
559.79228199999989
 30
0.0
  0
VERTEX
  5
8AD
  8
0
 62
     7
 10
445.38610099999988
 20
561.792282
 30
0.0
  0
VERTEX
  5
8AE
  8
0
 62
     7
 10
446.386101
 20
557.792282
 30
0.0
  0
VERTEX
  5
8AF
  8
0
 62
     7
 10
447.386101
 20
559.79228199999989
 30
0.0
  0
VERTEX
  5
8B0
  8
0
 62
     7
 10
463.386101
 20
559.79228199999989
 30
0.0
  0
VERTEX
  5
8B1
  8
0
 62
     7
 10
464.386101
 20
561.792282
 30
0.0
  0
VERTEX
  5
8B2
  8
0
 62
     7
 10
465.38610099999988
 20
557.792282
 30
0.0
  0
VERTEX
  5
8B3
  8
0
 62
     7
 10
466.38610099999988
 20
559.79228199999989
 30
0.0
  0
VERTEX
  5
8B4
  8
0
 62
     7
 10
482.38610099999988
 20
559.79228199999989
 30
0.0
  0
VERTEX
  5
8B5
  8
0
 62
     7
 10
483.38610099999988
 20
561.792282
 30
0.0
  0
VERTEX
  5
8B6
  8
0
 62
     7
 10
484.386101
 20
557.792282
 30
0.0
  0
VERTEX
  5
8B7
  8
0
 62
     7
 10
485.386101
 20
559.79228199999989
 30
0.0
  0
VERTEX
  5
8B8
  8
0
 62
     7
 10
501.386101
 20
559.79228199999989
 30
0.0
  0
VERTEX
  5
8B9
  8
0
 62
     7
 10
502.386101
 20
561.792282
 30
0.0
  0
VERTEX
  5
8BA
  8
0
 62
     7
 10
503.38610099999988
 20
557.792282
 30
0.0
  0
VERTEX
  5
8BB
  8
0
 62
     7
 10
504.38610099999988
 20
559.79228199999989
 30
0.0
  0
VERTEX
  5
8BC
  8
0
 62
     7
 10
520.38610099999994
 20
559.79228199999989
 30
0.0
  0
VERTEX
  5
8BD
  8
0
 62
     7
 10
521.38610099999994
 20
561.792282
 30
0.0
  0
VERTEX
  5
8BE
  8
0
 62
     7
 10
522.38610099999994
 20
557.792282
 30
0.0
  0
VERTEX
  5
8BF
  8
0
 62
     7
 10
523.38610099999994
 20
559.79228199999989
 30
0.0
  0
VERTEX
  5
8C0
  8
0
 62
     7
 10
539.38610099999994
 20
559.79228199999989
 30
0.0
  0
VERTEX
  5
8C1
  8
0
 62
     7
 10
540.38610099999994
 20
561.792282
 30
0.0
  0
VERTEX
  5
8C2
  8
0
 62
     7
 10
541.38610099999994
 20
557.792282
 30
0.0
  0
VERTEX
  5
8C3
  8
0
 62
     7
 10
542.38610099999994
 20
559.79228199999989
 30
0.0
  0
VERTEX
  5
8C4
  8
0
 62
     7
 10
555.07772799999998
 20
559.79228199999989
 30
0.0
  0
SEQEND
  5
8C5
  8
0
 62
     7
  0
POLYLINE
  5
46F
  8
0
 62
     7
 66
     1
 10
0.0
 20
0.0
 30
0.0
  0
VERTEX
  5
8C6
  8
0
 62
     7
 10
551.61798099999987
 20
729.11246500000004
 30
0.0
  0
VERTEX
  5
8C7
  8
0
 62
     7
 10
551.61798099999987
 20
713.11246500000004
 30
0.0
  0
VERTEX
  5
8C8
  8
0
 62
     7
 10
553.61798099999999
 20
712.11246500000004
 30
0.0
  0
VERTEX
  5
8C9
  8
0
 62
     7
 10
549.61798099999999
 20
711.11246500000004
 30
0.0
  0
VERTEX
  5
8CA
  8
0
 62
     7
 10
551.61798099999987
 20
710.11246500000004
 30
0.0
  0
VERTEX
  5
8CB
  8
0
 62
     7
 10
551.61798099999987
 20
694.11246500000004
 30
0.0
  0
VERTEX
  5
8CC
  8
0
 62
     7
 10
553.61798099999999
 20
693.11246500000004
 30
0.0
  0
VERTEX
  5
8CD
  8
0
 62
     7
 10
549.61798099999999
 20
692.11246500000004
 30
0.0
  0
VERTEX
  5
8CE
  8
0
 62
     7
 10
551.61798099999987
 20
691.11246500000004
 30
0.0
  0
VERTEX
  5
8CF
  8
0
 62
     7
 10
551.61798099999987
 20
675.11246500000004
 30
0.0
  0
VERTEX
  5
8D0
  8
0
 62
     7
 10
553.61798099999999
 20
674.11246500000004
 30
0.0
  0
VERTEX
  5
8D1
  8
0
 62
     7
 10
549.61798099999999
 20
673.11246500000004
 30
0.0
  0
VERTEX
  5
8D2
  8
0
 62
     7
 10
551.61798099999987
 20
672.11246500000004
 30
0.0
  0
VERTEX
  5
8D3
  8
0
 62
     7
 10
551.61798099999987
 20
656.11246500000004
 30
0.0
  0
VERTEX
  5
8D4
  8
0
 62
     7
 10
553.61798099999999
 20
655.11246500000004
 30
0.0
  0
VERTEX
  5
8D5
  8
0
 62
     7
 10
549.61798099999999
 20
654.11246500000004
 30
0.0
  0
VERTEX
  5
8D6
  8
0
 62
     7
 10
551.61798099999987
 20
653.11246500000004
 30
0.0
  0
VERTEX
  5
8D7
  8
0
 62
     7
 10
551.61798099999987
 20
637.11246500000004
 30
0.0
  0
VERTEX
  5
8D8
  8
0
 62
     7
 10
553.61798099999999
 20
636.11246500000004
 30
0.0
  0
VERTEX
  5
8D9
  8
0
 62
     7
 10
549.61798099999999
 20
635.11246500000004
 30
0.0
  0
VERTEX
  5
8DA
  8
0
 62
     7
 10
551.61798099999987
 20
634.11246500000004
 30
0.0
  0
VERTEX
  5
8DB
  8
0
 62
     7
 10
551.61798099999987
 20
618.11246500000004
 30
0.0
  0
VERTEX
  5
8DC
  8
0
 62
     7
 10
553.61798099999999
 20
617.11246500000004
 30
0.0
  0
VERTEX
  5
8DD
  8
0
 62
     7
 10
549.61798099999999
 20
616.11246500000004
 30
0.0
  0
VERTEX
  5
8DE
  8
0
 62
     7
 10
551.61798099999987
 20
615.11246500000004
 30
0.0
  0
VERTEX
  5
8DF
  8
0
 62
     7
 10
551.61798099999987
 20
599.11246500000004
 30
0.0
  0
VERTEX
  5
8E0
  8
0
 62
     7
 10
553.61798099999999
 20
598.11246500000004
 30
0.0
  0
VERTEX
  5
8E1
  8
0
 62
     7
 10
549.61798099999999
 20
597.11246500000004
 30
0.0
  0
VERTEX
  5
8E2
  8
0
 62
     7
 10
551.61798099999987
 20
596.11246500000004
 30
0.0
  0
VERTEX
  5
8E3
  8
0
 62
     7
 10
551.61798099999987
 20
580.11246500000004
 30
0.0
  0
VERTEX
  5
8E4
  8
0
 62
     7
 10
553.61798099999999
 20
579.11246500000004
 30
0.0
  0
VERTEX
  5
8E5
  8
0
 62
     7
 10
549.61798099999999
 20
578.11246500000004
 30
0.0
  0
VERTEX
  5
8E6
  8
0
 62
     7
 10
551.61798099999987
 20
577.11246500000004
 30
0.0
  0
VERTEX
  5
8E7
  8
0
 62
     7
 10
551.61798099999987
 20
561.11246500000004
 30
0.0
  0
VERTEX
  5
8E8
  8
0
 62
     7
 10
553.61798099999999
 20
560.11246500000004
 30
0.0
  0
VERTEX
  5
8E9
  8
0
 62
     7
 10
549.61798099999999
 20
559.11246500000004
 30
0.0
  0
VERTEX
  5
8EA
  8
0
 62
     7
 10
551.61798099999987
 20
558.11246500000004
 30
0.0
  0
VERTEX
  5
8EB
  8
0
 62
     7
 10
551.61798099999987
 20
556.100685
 30
0.0
  0
SEQEND
  5
8EC
  8
0
 62
     7
  0
POLYLINE
  5
497
  8
0
 62
     7
 66
     1
 10
0.0
 20
0.0
 30
0.0
  0
VERTEX
  5
8ED
  8
0
 62
     7
 10
358.61798099999987
 20
729.11246500000004
 30
0.0
  0
VERTEX
  5
8EE
  8
0
 62
     7
 10
358.61798099999987
 20
713.11246500000004
 30
0.0
  0
VERTEX
  5
8EF
  8
0
 62
     7
 10
360.61798099999987
 20
712.11246500000004
 30
0.0
  0
VERTEX
  5
8F0
  8
0
 62
     7
 10
356.61798099999987
 20
711.11246500000004
 30
0.0
  0
VERTEX
  5
8F1
  8
0
 62
     7
 10
358.61798099999987
 20
710.11246500000004
 30
0.0
  0
VERTEX
  5
8F2
  8
0
 62
     7
 10
358.61798099999987
 20
694.11246500000004
 30
0.0
  0
VERTEX
  5
8F3
  8
0
 62
     7
 10
360.61798099999987
 20
693.11246500000004
 30
0.0
  0
VERTEX
  5
8F4
  8
0
 62
     7
 10
356.61798099999987
 20
692.11246500000004
 30
0.0
  0
VERTEX
  5
8F5
  8
0
 62
     7
 10
358.61798099999987
 20
691.11246500000004
 30
0.0
  0
VERTEX
  5
8F6
  8
0
 62
     7
 10
358.61798099999987
 20
675.11246500000004
 30
0.0
  0
VERTEX
  5
8F7
  8
0
 62
     7
 10
360.61798099999987
 20
674.11246500000004
 30
0.0
  0
VERTEX
  5
8F8
  8
0
 62
     7
 10
356.61798099999987
 20
673.11246500000004
 30
0.0
  0
VERTEX
  5
8F9
  8
0
 62
     7
 10
358.61798099999987
 20
672.11246500000004
 30
0.0
  0
VERTEX
  5
8FA
  8
0
 62
     7
 10
358.61798099999987
 20
656.11246500000004
 30
0.0
  0
VERTEX
  5
8FB
  8
0
 62
     7
 10
360.61798099999987
 20
655.11246500000004
 30
0.0
  0
VERTEX
  5
8FC
  8
0
 62
     7
 10
356.61798099999987
 20
654.11246500000004
 30
0.0
  0
VERTEX
  5
8FD
  8
0
 62
     7
 10
358.61798099999987
 20
653.11246500000004
 30
0.0
  0
VERTEX
  5
8FE
  8
0
 62
     7
 10
358.61798099999987
 20
637.11246500000004
 30
0.0
  0
VERTEX
  5
8FF
  8
0
 62
     7
 10
360.61798099999987
 20
636.11246500000004
 30
0.0
  0
VERTEX
  5
900
  8
0
 62
     7
 10
356.61798099999987
 20
635.11246500000004
 30
0.0
  0
VERTEX
  5
901
  8
0
 62
     7
 10
358.61798099999987
 20
634.11246500000004
 30
0.0
  0
VERTEX
  5
902
  8
0
 62
     7
 10
358.61798099999987
 20
618.11246500000004
 30
0.0
  0
VERTEX
  5
903
  8
0
 62
     7
 10
360.61798099999987
 20
617.11246500000004
 30
0.0
  0
VERTEX
  5
904
  8
0
 62
     7
 10
356.61798099999987
 20
616.11246500000004
 30
0.0
  0
VERTEX
  5
905
  8
0
 62
     7
 10
358.61798099999987
 20
615.11246500000004
 30
0.0
  0
VERTEX
  5
906
  8
0
 62
     7
 10
358.61798099999987
 20
599.11246500000004
 30
0.0
  0
VERTEX
  5
907
  8
0
 62
     7
 10
360.61798099999987
 20
598.11246500000004
 30
0.0
  0
VERTEX
  5
908
  8
0
 62
     7
 10
356.61798099999987
 20
597.11246500000004
 30
0.0
  0
VERTEX
  5
909
  8
0
 62
     7
 10
358.61798099999987
 20
596.11246500000004
 30
0.0
  0
VERTEX
  5
90A
  8
0
 62
     7
 10
358.61798099999987
 20
580.11246500000004
 30
0.0
  0
VERTEX
  5
90B
  8
0
 62
     7
 10
360.61798099999987
 20
579.11246500000004
 30
0.0
  0
VERTEX
  5
90C
  8
0
 62
     7
 10
356.61798099999987
 20
578.11246500000004
 30
0.0
  0
VERTEX
  5
90D
  8
0
 62
     7
 10
358.61798099999987
 20
577.11246500000004
 30
0.0
  0
VERTEX
  5
90E
  8
0
 62
     7
 10
358.61798099999987
 20
561.11246500000004
 30
0.0
  0
VERTEX
  5
90F
  8
0
 62
     7
 10
360.61798099999987
 20
560.11246500000004
 30
0.0
  0
VERTEX
  5
910
  8
0
 62
     7
 10
356.61798099999987
 20
559.11246500000004
 30
0.0
  0
VERTEX
  5
911
  8
0
 62
     7
 10
358.61798099999987
 20
558.11246500000004
 30
0.0
  0
VERTEX
  5
912
  8
0
 62
     7
 10
358.61798099999987
 20
553.74800900000002
 30
0.0
  0
SEQEND
  5
913
  8
0
 62
     7
  0
LINE
  5
4BF
  8
0
  6
DASHDOT
 62
     7
 10
340.77508499999988
 20
642.792282
 30
0.0
 11
562.58889799999997
 21
642.792282
 31
0.0
  0
CIRCLE
  5
4C0
  8
0
 62
     7
 10
473.11798099999987
 20
715.292282
 30
0.0
 40
2.0
  0
CIRCLE
  5
4C1
  8
0
 62
     7
 10
428.11798099999999
 20
715.292282
 30
0.0
 40
2.0
  0
CIRCLE
  5
4C2
  8
0
 62
     7
 10
473.11798099999987
 20
715.292282
 30
0.0
 40
3.6800000000000002
  0
CIRCLE
  5
4C3
  8
0
 62
     7
 10
428.11798099999999
 20
715.292282
 30
0.0
 40
3.6800000000000002
  0
LINE
  5
4C4
  8
0
  6
DASHDOT
 62
     7
 10
473.11798099999987
 20
721.97228200000006
 30
0.0
 11
473.11798099999987
 21
708.61228200000005
 31
0.0
  0
LINE
  5
4C5
  8
0
  6
DASHDOT
 62
     7
 10
466.43798099999992
 20
715.292282
 30
0.0
 11
479.79798099999988
 21
715.292282
 31
0.0
  0
LINE
  5
4C6
  8
0
  6
DASHDOT
 62
     7
 10
428.11798099999999
 20
721.97228200000006
 30
0.0
 11
428.11798099999999
 21
708.61228200000005
 31
0.0
  0
LINE
  5
4C7
  8
0
  6
DASHDOT
 62
     7
 10
421.43798099999992
 20
715.292282
 30
0.0
 11
434.79798099999988
 21
715.292282
 31
0.0
  0
LINE
  5
4C8
  8
0
 62
     7
 10
556.25037400000008
 20
707.92384299999992
 30
0.0
 11
556.25037400000008
 21
681.58445400000005
 31
0.0
  0
LINE
  5
4C9
  8
0
 62
     7
 10
566.84338400000001
 20
707.92384299999992
 30
0.0
 11
566.84338400000001
 21
681.58445400000005
 31
0.0
  0
LINE
  5
4CA
  8
0
 62
     7
 10
556.25037400000008
 20
707.92384299999992
 30
0.0
 11
566.84338400000001
 21
707.92384299999992
 31
0.0
  0
LINE
  5
4CB
  8
0
 62
     7
 10
556.25037400000008
 20
681.58445400000005
 30
0.0
 11
566.84338400000001
 21
681.58445400000005
 31
0.0
  0
LINE
  5
4CC
  8
0
 62
     7
 10
566.84338400000001
 20
604.00011099999995
 30
0.0
 11
566.84338400000001
 21
577.66072099999985
 31
0.0
  0
LINE
  5
4CD
  8
0
 62
     7
 10
556.25037400000008
 20
577.66072099999985
 30
0.0
 11
566.84338400000001
 21
577.66072099999985
 31
0.0
  0
LINE
  5
4CE
  8
0
 62
     7
 10
556.25037400000008
 20
604.00011099999995
 30
0.0
 11
556.25037400000008
 21
577.66072099999985
 31
0.0
  0
LINE
  5
4CF
  8
0
 62
     7
 10
556.25037400000008
 20
604.00011099999995
 30
0.0
 11
566.84338400000001
 21
604.00011099999995
 31
0.0
  0
LINE
  5
4D0
  8
0
  6
DASHDOT
 62
     7
 10
561.54688299999998
 20
722.52503200000001
 30
0.0
 11
561.54688299999998
 21
493.48686199999997
 31
0.0
  0
LINE
  5
4D1
  8
0
 62
     7
 10
450.61798099999987
 20
783.976944
 30
0.0
 11
462.43572999999992
 21
781.89317300000005
 31
0.0
  0
LINE
  5
4D2
  8
0
 62
     7
 10
450.61798099999987
 20
783.976944
 30
0.0
 11
462.43572999999992
 21
786.06073000000004
 31
0.0
  0
LINE
  5
4D3
  8
0
 62
     7
 10
513.61798099999987
 20
783.976944
 30
0.0
 11
501.80023199999999
 21
786.06071499999996
 31
0.0
  0
LINE
  5
4D4
  8
0
 62
     7
 10
513.61798099999987
 20
783.976944
 30
0.0
 11
501.80023199999999
 21
781.89315799999997
 31
0.0
  0
LINE
  5
4D5
  8
0
 62
     7
 10
450.61798099999987
 20
783.976944
 30
0.0
 11
513.61798099999987
 21
783.976944
 31
0.0
  0
LINE
  5
4D6
  8
0
 62
     7
 10
450.61798099999987
 20
791.976944
 30
0.0
 11
450.61798099999987
 21
745.30224599999985
 31
0.0
  0
LINE
  5
4D7
  8
0
 62
     7
 10
513.61798099999987
 20
791.976944
 30
0.0
 11
513.61798099999987
 21
705.79228199999989
 31
0.0
  0
LINE
  5
4D8
  8
0
 62
     7
 10
378.61798099999999
 20
816.92533899999989
 30
0.0
 11
390.43572999999998
 21
814.84156799999994
 31
0.0
  0
LINE
  5
4D9
  8
0
 62
     7
 10
378.61798099999999
 20
816.92533899999989
 30
0.0
 11
390.43572999999998
 21
819.00912500000004
 31
0.0
  0
LINE
  5
4DA
  8
0
 62
     7
 10
513.61798099999987
 20
816.92533899999989
 30
0.0
 11
501.80023199999999
 21
819.00910899999985
 31
0.0
  0
LINE
  5
4DB
  8
0
 62
     7
 10
513.61798099999987
 20
816.92533899999989
 30
0.0
 11
501.80023199999999
 21
814.84155299999986
 31
0.0
  0
LINE
  5
4DC
  8
0
 62
     7
 10
378.61798099999999
 20
816.92533899999989
 30
0.0
 11
513.61798099999987
 21
816.92533899999989
 31
0.0
  0
LINE
  5
4DD
  8
0
 62
     7
 10
378.61798099999999
 20
824.92533899999989
 30
0.0
 11
378.61798099999999
 21
705.79229000000009
 31
0.0
  0
LINE
  5
4DE
  8
0
 62
     7
 10
513.61798099999987
 20
824.92533899999989
 30
0.0
 11
513.61798099999987
 21
705.79229000000009
 31
0.0
  0
LINE
  5
4DF
  8
0
 62
     7
 10
450.61798099999987
 20
542.97257200000001
 30
0.0
 11
462.43572999999992
 21
540.88879399999996
 31
0.0
  0
LINE
  5
4E0
  8
0
 62
     7
 10
450.61798099999987
 20
542.97257200000001
 30
0.0
 11
462.43572999999992
 21
545.05635099999995
 31
0.0
  0
LINE
  5
4E1
  8
0
 62
     7
 10
531.61798099999999
 20
542.97257200000001
 30
0.0
 11
519.80023200000005
 21
545.05634299999986
 31
0.0
  0
LINE
  5
4E2
  8
0
 62
     7
 10
531.61798099999999
 20
542.97257200000001
 30
0.0
 11
519.80023200000005
 21
540.88879399999996
 31
0.0
  0
LINE
  5
4E3
  8
0
 62
     7
 10
450.61798099999987
 20
542.97257200000001
 30
0.0
 11
531.61798099999999
 21
542.97257200000001
 31
0.0
  0
LINE
  5
4E4
  8
0
 62
     7
 10
450.61798099999987
 20
534.97257200000001
 30
0.0
 11
450.61798099999987
 21
550.21155499999998
 31
0.0
  0
LINE
  5
4E5
  8
0
 62
     7
 10
531.61798099999999
 20
534.97257200000001
 30
0.0
 11
531.61798099999999
 21
565.29228199999989
 31
0.0
  0
LINE
  5
4E6
  8
0
 62
     7
 10
406.61798099999987
 20
514.55955499999993
 30
0.0
 11
418.43572999999998
 21
512.47578399999998
 31
0.0
  0
LINE
  5
4E7
  8
0
 62
     7
 10
406.61798099999987
 20
514.55955499999993
 30
0.0
 11
418.43572999999998
 21
516.64332599999989
 31
0.0
  0
LINE
  5
4E8
  8
0
 62
     7
 10
531.61798099999999
 20
514.55955499999993
 30
0.0
 11
519.80023200000005
 21
516.64332599999989
 31
0.0
  0
LINE
  5
4E9
  8
0
 62
     7
 10
531.61798099999999
 20
514.55955499999993
 30
0.0
 11
519.80023200000005
 21
512.47576900000001
 31
0.0
  0
LINE
  5
4EA
  8
0
 62
     7
 10
406.61798099999987
 20
514.55955499999993
 30
0.0
 11
531.61798099999999
 21
514.55955499999993
 31
0.0
  0
LINE
  5
4EB
  8
0
 62
     7
 10
406.61798099999987
 20
506.55955499999999
 30
0.0
 11
406.61798099999987
 21
565.29228199999989
 31
0.0
  0
LINE
  5
4EC
  8
0
 62
     7
 10
531.61798099999999
 20
506.55955499999999
 30
0.0
 11
531.61798099999999
 21
565.29228199999989
 31
0.0
  0
LINE
  5
4ED
  8
0
 62
     7
 10
450.61798099999987
 20
656.98660999999993
 30
0.0
 11
462.43572999999992
 21
654.90283199999988
 31
0.0
  0
LINE
  5
4EE
  8
0
 62
     7
 10
450.61798099999987
 20
656.98660999999993
 30
0.0
 11
462.43572999999992
 21
659.07038899999998
 31
0.0
  0
LINE
  5
4EF
  8
0
 62
     7
 10
544.61798099999999
 20
656.98660999999993
 30
0.0
 11
532.80023200000005
 21
659.07038899999998
 31
0.0
  0
LINE
  5
4F0
  8
0
 62
     7
 10
544.61798099999999
 20
656.98660999999993
 30
0.0
 11
532.80023200000005
 21
654.90283199999988
 31
0.0
  0
LINE
  5
4F1
  8
0
 62
     7
 10
450.61798099999987
 20
656.98660999999993
 30
0.0
 11
544.61798099999999
 21
656.98660999999993
 31
0.0
  0
LINE
  5
4F2
  8
0
 62
     7
 10
544.61798099999999
 20
664.98660999999993
 30
0.0
 11
544.61798099999999
 21
615.04228599999988
 31
0.0
  0
LINE
  5
4F3
  8
0
 62
     7
 10
482.68780499999991
 20
623.542282
 30
0.0
 11
484.77166699999992
 21
635.35997399999985
 31
0.0
  0
LINE
  5
4F4
  8
0
 62
     7
 10
482.68780499999991
 20
623.542282
 30
0.0
 11
480.60406499999999
 21
635.35997399999985
 31
0.0
  0
LINE
  5
4F5
  8
0
 62
     7
 10
482.68780499999991
 20
607.542282
 30
0.0
 11
480.60406499999999
 21
595.72458600000004
 31
0.0
  0
LINE
  5
4F6
  8
0
 62
     7
 10
482.68780499999991
 20
607.542282
 30
0.0
 11
484.77166699999992
 21
595.72459000000003
 31
0.0
  0
LINE
  5
4F7
  8
0
 62
     7
 10
482.68780499999991
 20
626.88333499999999
 30
0.0
 11
482.68780499999991
 21
604.883331
 31
0.0
  0
LINE
  5
4F8
  8
0
 62
     7
 10
474.68780499999991
 20
623.542282
 30
0.0
 11
513.61798099999987
 21
623.542282
 31
0.0
  0
LINE
  5
4F9
  8
0
 62
     7
 10
474.68780499999991
 20
607.542282
 30
0.0
 11
513.61798099999987
 21
607.542282
 31
0.0
  0
LINE
  5
4FA
  8
0
 62
     7
 10
656.24255400000004
 20
713.792282
 30
0.0
 11
654.15881300000001
 21
701.97458600000004
 31
0.0
  0
LINE
  5
4FB
  8
0
 62
     7
 10
656.24255400000004
 20
713.792282
 30
0.0
 11
658.32635500000004
 21
701.97458600000004
 31
0.0
  0
LINE
  5
4FC
  8
0
 62
     7
 10
656.24255400000004
 20
571.792282
 30
0.0
 11
658.32635500000004
 21
583.60997399999985
 31
0.0
  0
LINE
  5
4FD
  8
0
 62
     7
 10
656.24255400000004
 20
571.792282
 30
0.0
 11
654.15881300000001
 21
583.60997399999985
 31
0.0
  0
LINE
  5
4FE
  8
0
 62
     7
 10
656.24255400000004
 20
713.792282
 30
0.0
 11
656.24255400000004
 21
571.792282
 31
0.0
  0
LINE
  5
4FF
  8
0
 62
     7
 10
664.24255400000004
 20
713.792282
 30
0.0
 11
413.11798099999987
 21
713.79226700000004
 31
0.0
  0
LINE
  5
500
  8
0
 62
     7
 10
664.24255400000004
 20
571.792282
 30
0.0
 11
538.11798099999987
 21
571.79227400000002
 31
0.0
  0
LINE
  5
501
  8
0
 62
     7
 10
334.04461700000002
 20
705.79228199999989
 30
0.0
 11
331.96087599999993
 21
693.97458600000004
 31
0.0
  0
LINE
  5
502
  8
0
 62
     7
 10
334.04461700000002
 20
705.79228199999989
 30
0.0
 11
336.12835699999988
 21
693.97458600000004
 31
0.0
  0
LINE
  5
503
  8
0
 62
     7
 10
334.04461700000002
 20
579.792282
 30
0.0
 11
336.12835699999988
 21
591.60997799999996
 31
0.0
  0
LINE
  5
504
  8
0
 62
     7
 10
334.04461700000002
 20
579.792282
 30
0.0
 11
331.96087599999993
 21
591.60997399999985
 31
0.0
  0
LINE
  5
505
  8
0
 62
     7
 10
334.04461700000002
 20
705.79228199999989
 30
0.0
 11
334.04461700000002
 21
579.792282
 31
0.0
  0
LINE
  5
506
  8
0
 62
     7
 10
326.04461700000002
 20
705.79228199999989
 30
0.0
 11
378.61798099999999
 21
705.79228199999989
 31
0.0
  0
LINE
  5
507
  8
0
 62
     7
 10
326.04461700000002
 20
579.792282
 30
0.0
 11
378.61798099999999
 21
579.792282
 31
0.0
  0
LINE
  5
508
  8
0
 62
     7
 10
629.45452899999998
 20
713.792282
 30
0.0
 11
627.37072799999987
 21
701.97458600000004
 31
0.0
  0
LINE
  5
509
  8
0
 62
     7
 10
629.45452899999998
 20
713.792282
 30
0.0
 11
631.5382689999999
 21
701.97458600000004
 31
0.0
  0
LINE
  5
50A
  8
0
 62
     7
 10
629.45452899999998
 20
642.792282
 30
0.0
 11
631.5382689999999
 21
654.60997799999996
 31
0.0
  0
LINE
  5
50B
  8
0
 62
     7
 10
629.45452899999998
 20
642.792282
 30
0.0
 11
627.37072799999987
 21
654.60997799999996
 31
0.0
  0
LINE
  5
50C
  8
0
 62
     7
 10
629.45452899999998
 20
642.792282
 30
0.0
 11
627.37072799999987
 21
630.97459000000003
 31
0.0
  0
LINE
  5
50D
  8
0
 62
     7
 10
629.45452899999998
 20
642.792282
 30
0.0
 11
631.5382689999999
 21
630.97459000000003
 31
0.0
  0
LINE
  5
50E
  8
0
 62
     7
 10
629.45452899999998
 20
571.792282
 30
0.0
 11
631.5382689999999
 21
583.60997399999985
 31
0.0
  0
LINE
  5
50F
  8
0
 62
     7
 10
629.45452899999998
 20
571.792282
 30
0.0
 11
627.37072799999987
 21
583.60997399999985
 31
0.0
  0
LINE
  5
510
  8
0
 62
     7
 10
629.45452899999998
 20
713.792282
 30
0.0
 11
629.45452899999998
 21
571.792282
 31
0.0
  0
LINE
  5
511
  8
0
 62
     7
 10
637.45452899999998
 20
713.792282
 30
0.0
 11
538.11798099999987
 21
713.792282
 31
0.0
  0
LINE
  5
512
  8
0
 62
     7
 10
637.45452899999998
 20
642.792282
 30
0.0
 11
538.11798099999987
 21
642.79227800000001
 31
0.0
  0
LINE
  5
513
  8
0
 62
     7
 10
637.45452899999998
 20
571.792282
 30
0.0
 11
538.11798099999987
 21
571.79227400000002
 31
0.0
  0
LINE
  5
514
  8
0
 62
     7
 10
605.77984600000002
 20
642.792282
 30
0.0
 11
607.86370799999997
 21
654.60997799999996
 31
0.0
  0
LINE
  5
515
  8
0
 62
     7
 10
605.77984600000002
 20
642.792282
 30
0.0
 11
603.69610599999999
 21
654.60997799999996
 31
0.0
  0
LINE
  5
516
  8
0
 62
     7
 10
605.77984600000002
 20
615.542282
 30
0.0
 11
603.69610599999999
 21
603.72458600000004
 31
0.0
  0
LINE
  5
517
  8
0
 62
     7
 10
605.77984600000002
 20
615.542282
 30
0.0
 11
607.86370799999997
 21
603.72459000000003
 31
0.0
  0
LINE
  5
518
  8
0
 62
     7
 10
605.77984600000002
 20
709.79228199999989
 30
0.0
 11
605.77984600000002
 21
615.542282
 31
0.0
  0
LINE
  5
519
  8
0
 62
     7
 10
613.77984599999991
 20
642.792282
 30
0.0
 11
562.5889279999999
 21
642.792282
 31
0.0
  0
LINE
  5
51A
  8
0
 62
     7
 10
613.77984599999991
 20
615.542282
 30
0.0
 11
551.63922100000002
 21
615.54227800000001
 31
0.0
  0
LINE
  5
51B
  8
0
 62
     7
 10
428.11798099999999
 20
754.22250399999984
 30
0.0
 11
416.30023199999999
 21
756.30628999999999
 31
0.0
  0
LINE
  5
51C
  8
0
 62
     7
 10
428.11798099999999
 20
754.22250399999984
 30
0.0
 11
416.30023199999999
 21
752.138733
 31
0.0
  0
LINE
  5
51D
  8
0
 62
     7
 10
473.11798099999987
 20
754.22250399999984
 30
0.0
 11
484.93572999999998
 21
752.138733
 31
0.0
  0
LINE
  5
51E
  8
0
 62
     7
 10
473.11798099999987
 20
754.22250399999984
 30
0.0
 11
484.93572999999998
 21
756.30628999999999
 31
0.0
  0
LINE
  5
51F
  8
0
 62
     7
 10
394.11798099999987
 20
754.22250399999984
 30
0.0
 11
473.11798099999987
 21
754.22251900000003
 31
0.0
  0
LINE
  5
520
  8
0
 62
     7
 10
428.11798099999999
 20
762.22250399999996
 30
0.0
 11
428.11798099999999
 21
721.97229000000004
 31
0.0
  0
LINE
  5
521
  8
0
 62
     7
 10
473.11798099999987
 20
762.22250399999996
 30
0.0
 11
473.11798099999987
 21
721.97229000000004
 31
0.0
  0
LINE
  5
522
  8
0
 62
     7
 10
304.45831299999992
 20
715.292282
 30
0.0
 11
302.37457299999988
 21
703.47458600000004
 31
0.0
  0
LINE
  5
523
  8
0
 62
     7
 10
304.45831299999992
 20
715.292282
 30
0.0
 11
306.5420529999999
 21
703.47458600000004
 31
0.0
  0
LINE
  5
524
  8
0
 62
     7
 10
304.45831299999992
 20
642.792282
 30
0.0
 11
306.5420529999999
 21
654.60997799999996
 31
0.0
  0
LINE
  5
525
  8
0
 62
     7
 10
304.45831299999992
 20
642.792282
 30
0.0
 11
302.37457299999988
 21
654.60997799999996
 31
0.0
  0
LINE
  5
526
  8
0
 62
     7
 10
304.45831299999992
 20
715.292282
 30
0.0
 11
304.45831299999992
 21
642.792282
 31
0.0
  0
LINE
  5
527
  8
0
 62
     7
 10
296.45831299999992
 20
715.292282
 30
0.0
 11
421.43792699999989
 21
715.292282
 31
0.0
  0
LINE
  5
528
  8
0
 62
     7
 10
296.45831299999992
 20
642.792282
 30
0.0
 11
340.77508499999988
 21
642.792282
 31
0.0
  0
LINE
  5
529
  8
0
 62
     7
 10
450.61798099999987
 20
480.31716899999998
 30
0.0
 11
438.80023199999999
 21
482.4009549999999
 31
0.0
  0
LINE
  5
52A
  8
0
 62
     7
 10
450.61798099999987
 20
480.31716899999998
 30
0.0
 11
438.80023199999999
 21
478.23338299999989
 31
0.0
  0
LINE
  5
52B
  8
0
 62
     7
 10
561.54693599999996
 20
480.31716899999998
 30
0.0
 11
573.36456299999986
 21
478.23338299999989
 31
0.0
  0
LINE
  5
52C
  8
0
 62
     7
 10
561.54693599999996
 20
480.31716899999998
 30
0.0
 11
573.36456299999986
 21
482.40093999999999
 31
0.0
  0
LINE
  5
52D
  8
0
 62
     7
 10
450.61798099999987
 20
480.31716899999998
 30
0.0
 11
561.54693599999996
 21
480.31716899999998
 31
0.0
  0
LINE
  5
52E
  8
0
 62
     7
 10
450.61798099999987
 20
472.31716899999998
 30
0.0
 11
450.61798099999987
 21
550.21156299999996
 31
0.0
  0
LINE
  5
52F
  8
0
 62
     7
 10
561.54693599999996
 20
472.31716899999998
 30
0.0
 11
561.54693599999996
 21
493.48686199999997
 31
0.0
  0
POINT
  5
530
  8
0
 62
     7
 10
341.802277
 20
796.48191799999995
 30
0.0
  0
POINT
  5
531
  8
0
 62
     7
 10
341.802277
 20
792.48191799999995
 30
0.0
  0
LINE
  5
532
  8
0
 62
     7
 10
343.80227699999989
 20
806.44017900000006
 30
0.0
 11
343.80227699999989
 21
782.52365799999995
 31
0.0
  0
LINE
  5
533
  8
0
 62
     7
 10
341.802277
 20
806.44017900000006
 30
0.0
 11
341.802277
 21
782.52365799999995
 31
0.0
  0
LINE
  5
534
  8
0
  6
DASHDOT
 62
     7
 10
338.599673
 20
794.48191799999995
 30
0.0
 11
347.02589299999988
 21
794.48191799999995
 31
0.0
  0
LINE
  5
535
  8
0
 62
     7
 10
343.80227699999989
 20
798.16011800000001
 30
0.0
 11
341.802277
 21
796.48191799999995
 31
0.0
  0
LINE
  5
536
  8
0
 62
     7
 10
341.802277
 20
792.48191799999995
 30
0.0
 11
343.80227699999989
 21
790.80371899999989
 31
0.0
  0
LINE
  5
537
  8
0
 62
     7
 10
341.802277
 20
784.98191799999995
 30
0.0
 11
343.80227699999989
 21
784.98191799999995
 31
0.0
  0
CIRCLE
  5
538
  8
0
 62
     7
 10
342.802277
 20
794.48191799999995
 30
0.0
 40
12.0
  0
LINE
  5
539
  8
0
 62
     7
 10
335.80228399999987
 20
789.98191799999995
 30
0.0
 11
338.30228399999987
 21
789.98191799999995
 31
0.0
  0
LINE
  5
53A
  8
0
 62
     7
 10
339.30228399999987
 20
798.98191799999995
 30
0.0
 11
339.30228399999987
 21
790.98191799999995
 31
0.0
  0
LINE
  5
53B
  8
0
 62
     7
 10
339.30228399999987
 20
798.98191799999995
 30
0.0
 11
341.802277
 21
798.98191799999995
 31
0.0
  0
LINE
  5
53C
  8
0
 62
     7
 10
335.80228399999987
 20
787.48191799999995
 30
0.0
 11
338.30228399999987
 21
787.48191799999995
 31
0.0
  0
LINE
  5
53D
  8
0
 62
     7
 10
334.80228399999999
 20
786.48191799999995
 30
0.0
 11
334.80228399999999
 21
785.5376399999999
 31
0.0
  0
ARC
  5
53E
  8
0
 62
     7
 10
338.30228899999997
 20
790.98191799999995
 30
0.0
 40
0.9999969999999999
 50
269.99984599999988
 51
360.00025499999992
  0
ARC
  5
53F
  8
0
 62
     7
 10
335.802299
 20
786.48190599999998
 30
0.0
 40
3.500017999999999
 50
90.000182999999979
 51
153.40876399999991
  0
ARC
  5
540
  8
0
 62
     7
 10
335.80223999999993
 20
786.48195899999985
 30
0.0
 40
0.9999499999999999
 50
449.9977649999999
 51
180.0011749999999
  0
ARC
  5
541
  8
0
 62
     7
 10
338.30230399999988
 20
790.98188600000003
 30
0.0
 40
3.4999709999999991
 50
269.9996549999999
 51
360.00041900000002
  0
LINE
  5
542
  8
0
 62
     7
 10
322.35659800000002
 20
796.48191799999995
 30
0.0
 11
322.87756300000001
 21
799.43634000000009
 31
0.0
  0
LINE
  5
543
  8
0
 62
     7
 10
322.35659800000002
 20
796.48191799999995
 30
0.0
 11
321.83566300000001
 21
799.43634000000009
 31
0.0
  0
LINE
  5
544
  8
0
 62
     7
 10
322.35659800000002
 20
792.48191799999995
 30
0.0
 11
321.83566300000001
 21
789.52749600000004
 31
0.0
  0
LINE
  5
545
  8
0
 62
     7
 10
322.35659800000002
 20
792.48191799999995
 30
0.0
 11
322.87756300000001
 21
789.52749600000004
 31
0.0
  0
LINE
  5
546
  8
0
 62
     7
 10
322.35659800000002
 20
805.89198299999998
 30
0.0
 11
322.35659800000002
 21
792.48191799999995
 31
0.0
  0
LINE
  5
547
  8
0
 62
     7
 10
320.35659800000002
 20
796.48191799999995
 30
0.0
 11
341.802277
 21
796.48191799999995
 31
0.0
  0
LINE
  5
548
  8
0
 62
     7
 10
320.35659800000002
 20
792.48191799999995
 30
0.0
 11
341.802277
 21
792.48191799999995
 31
0.0
  0
LINE
  5
549
  8
0
 62
     7
 10
357.23818999999992
 20
779.52963999999997
 30
0.0
 11
359.53634599999992
 21
781.45800000000008
 31
0.0
  0
LINE
  5
54A
  8
0
 62
     7
 10
357.23818999999992
 20
779.52963999999997
 30
0.0
 11
358.73818999999997
 21
782.12771599999996
 31
0.0
  0
LINE
  5
54B
  8
0
 62
     7
 10
357.23818999999992
 20
809.43419600000016
 30
0.0
 11
358.73818999999997
 21
806.83612100000005
 31
0.0
  0
LINE
  5
54C
  8
0
 62
     7
 10
357.23818999999992
 20
809.43419600000016
 30
0.0
 11
359.53634599999992
 21
807.50583599999993
 31
0.0
  0
POLYLINE
  5
54D
  8
0
 62
     7
 66
     1
 10
0.0
 20
0.0
 30
0.0
  0
VERTEX
  5
914
  8
0
 62
     7
 10
357.23818999999992
 20
779.52963999999997
 30
0.0
  0
VERTEX
  5
915
  8
0
 62
     7
 10
358.73837300000002
 20
781.52601600000003
 30
0.0
  0
VERTEX
  5
916
  8
0
 62
     7
 10
360.01589999999999
 20
783.67170699999997
 30
0.0
  0
VERTEX
  5
917
  8
0
 62
     7
 10
361.056061
 20
785.94197799999995
 30
0.0
  0
VERTEX
  5
918
  8
0
 62
     7
 10
361.84683200000001
 20
788.31067699999994
 30
0.0
  0
VERTEX
  5
919
  8
0
 62
     7
 10
362.37914999999992
 20
790.75049599999988
 30
0.0
  0
VERTEX
  5
91A
  8
0
 62
     7
 10
362.64685099999991
 20
793.23331499999995
 30
0.0
  0
VERTEX
  5
91B
  8
0
 62
     7
 10
362.64685099999991
 20
795.73052199999995
 30
0.0
  0
VERTEX
  5
91C
  8
0
 62
     7
 10
362.37914999999992
 20
798.21334799999988
 30
0.0
  0
VERTEX
  5
91D
  8
0
 62
     7
 10
361.84683200000001
 20
800.65315999999984
 30
0.0
  0
VERTEX
  5
91E
  8
0
 62
     7
 10
361.056061
 20
803.02185799999995
 30
0.0
  0
VERTEX
  5
91F
  8
0
 62
     7
 10
360.01589999999999
 20
805.29213699999991
 30
0.0
  0
VERTEX
  5
920
  8
0
 62
     7
 10
358.73837300000002
 20
807.43782800000008
 30
0.0
  0
VERTEX
  5
921
  8
0
 62
     7
 10
357.23818999999992
 20
809.43420400000002
 30
0.0
  0
SEQEND
  5
922
  8
0
 62
     7
  0
LINE
  5
55D
  8
0
 62
     7
 10
358.77029399999992
 20
778.24406399999987
 30
0.0
 11
344.02285799999993
 21
790.61863700000004
 31
0.0
  0
LINE
  5
55E
  8
0
 62
     7
 10
358.77029399999992
 20
810.71977199999981
 30
0.0
 11
344.02285799999993
 21
798.34519999999986
 31
0.0
  0
INSERT
  5
752
  8
0
  2
BLOCK0
 10
-316.57241800000003
 20
320.2968009999999
 30
0.0
 50
180.0
  0
INSERT
  5
753
  8
0
  2
BLOCK1
 10
-316.57241800000003
 20
320.2968009999999
 30
0.0
 50
180.0
  0
INSERT
  5
754
  8
0
  2
BLOCK2
 10
-316.57241800000003
 20
320.2968009999999
 30
0.0
 50
180.0
  0
INSERT
  5
755
  8
0
  2
BLOCK3
 10
-316.57241800000003
 20
320.2968009999999
 30
0.0
 50
180.0
  0
INSERT
  5
756
  8
0
  2
BLOCK4
 10
-316.57241800000003
 20
320.2968009999999
 30
0.0
 50
180.0
  0
INSERT
  5
757
  8
0
  2
BLOCK5
 10
-316.57241800000003
 20
320.2968009999999
 30
0.0
 50
180.0
  0
INSERT
  5
758
  8
0
  2
BLOCK6
 10
-316.57241800000003
 20
320.2968009999999
 30
0.0
 50
180.0
  0
INSERT
  5
759
  8
0
  2
BLOCK7
 10
884.27468299999987
 20
645.042282
 30
0.0
 50
180.0
  0
INSERT
  5
75A
  8
0
  2
BLOCK8
 10
884.27468299999987
 20
645.042282
 30
0.0
 50
180.0
  0
INSERT
  5
75B
  8
0
  2
BLOCK9
 10
884.27468299999987
 20
645.042282
 30
0.0
 50
180.0
  0
INSERT
  5
75C
  8
0
  2
BLOCK10
 10
884.27468299999987
 20
645.042282
 30
0.0
 50
180.0
  0
INSERT
  5
75D
  8
0
  2
BLOCK11
 10
884.27468299999987
 20
645.042282
 30
0.0
 50
180.0
  0
INSERT
  5
75E
  8
0
  2
BLOCK12
 10
884.27468299999987
 20
645.042282
 30
0.0
 50
180.0
  0
INSERT
  5
75F
  8
0
  2
BLOCK13
 10
884.27468299999987
 20
645.042282
 30
0.0
 50
180.0
  0
INSERT
  5
760
  8
0
  2
BLOCK14
 10
884.27468299999987
 20
645.042282
 30
0.0
 50
180.0
  0
INSERT
  5
761
  8
0
  2
BLOCK15
 10
884.27468299999987
 20
645.042282
 30
0.0
 50
180.0
  0
INSERT
  5
762
  8
0
  2
BLOCK16
 10
884.27468299999987
 20
645.042282
 30
0.0
 50
180.0
  0
INSERT
  5
763
  8
0
  2
BLOCK17
 10
884.27468299999987
 20
645.042282
 30
0.0
 50
180.0
  0
INSERT
  5
764
  8
0
  2
BLOCK18
 10
21.176473999999999
 20
532.80517599999996
 30
0.0
 50
90.0
  0
INSERT
  5
765
  8
0
  2
BLOCK19
 10
21.176473999999999
 20
532.80517599999996
 30
0.0
 50
90.0
  0
INSERT
  5
766
  8
0
  2
BLOCK20
 10
21.176473999999999
 20
532.80517599999996
 30
0.0
 50
90.0
  0
INSERT
  5
767
  8
0
  2
BLOCK21
 10
21.176473999999999
 20
532.80517599999996
 30
0.0
 50
90.0
  0
INSERT
  5
768
  8
0
  2
BLOCK22
 10
21.176473999999999
 20
532.80517599999996
 30
0.0
 50
90.0
  0
INSERT
  5
769
  8
0
  2
BLOCK23
 10
21.176473999999999
 20
532.80517599999996
 30
0.0
 50
90.0
  0
INSERT
  5
76A
  8
0
  2
BLOCK24
 10
21.176473999999999
 20
532.80517599999996
 30
0.0
 50
90.0
  0
INSERT
  5
76B
  8
0
  2
BLOCK25
 10
21.176473999999999
 20
532.80517599999996
 30
0.0
 50
90.0
  0
INSERT
  5
76C
  8
0
  2
BLOCK26
 10
21.176473999999999
 20
532.80517599999996
 30
0.0
 50
90.0
  0
INSERT
  5
76D
  8
0
  2
BLOCK27
 10
21.176473999999999
 20
532.80517599999996
 30
0.0
 50
90.0
  0
INSERT
  5
76E
  8
0
  2
BLOCK28
 10
21.176473999999999
 20
532.80517599999996
 30
0.0
 50
90.0
  0
INSERT
  5
76F
  8
0
  2
BLOCK29
 10
21.176473999999999
 20
532.80517599999996
 30
0.0
 50
90.0
  0
INSERT
  5
770
  8
0
  2
BLOCK30
 10
21.176473999999999
 20
532.80517599999996
 30
0.0
 50
90.0
  0
INSERT
  5
771
  8
0
  2
BLOCK31
 10
21.176473999999999
 20
532.80517599999996
 30
0.0
 50
90.0
  0
INSERT
  5
772
  8
0
  2
BLOCK32
 10
21.176473999999999
 20
532.80517599999996
 30
0.0
 50
90.0
  0
INSERT
  5
773
  8
0
  2
BLOCK33
 10
21.176473999999999
 20
532.80517599999996
 30
0.0
 50
90.0
  0
INSERT
  5
774
  8
0
  2
BLOCK34
 10
21.176473999999999
 20
532.80517599999996
 30
0.0
 50
90.0
  0
INSERT
  5
775
  8
0
  2
BLOCK35
 10
21.176473999999999
 20
532.80517599999996
 30
0.0
 50
90.0
  0
INSERT
  5
776
  8
0
  2
BLOCK36
 10
21.176473999999999
 20
532.80517599999996
 30
0.0
 50
90.0
  0
INSERT
  5
777
  8
0
  2
BLOCK37
 10
21.176473999999999
 20
532.80517599999996
 30
0.0
 50
90.0
  0
INSERT
  5
778
  8
0
  2
BLOCK38
 10
21.176473999999999
 20
532.80517599999996
 30
0.0
 50
90.0
  0
INSERT
  5
779
  8
0
  2
BLOCK39
 10
-266.15769399999988
 20
532.80517599999996
 30
0.0
 50
90.0
  0
INSERT
  5
77A
  8
0
  2
BLOCK40
 10
-266.15769399999988
 20
532.80517599999996
 30
0.0
 50
90.0
  0
INSERT
  5
77B
  8
0
  2
BLOCK41
 10
-266.15769399999988
 20
532.80517599999996
 30
0.0
 50
90.0
  0
INSERT
  5
77C
  8
0
  2
BLOCK42
 10
-266.15769399999988
 20
532.80517599999996
 30
0.0
 50
90.0
  0
INSERT
  5
77D
  8
0
  2
BLOCK43
 10
-266.15769399999988
 20
532.80517599999996
 30
0.0
 50
90.0
  0
INSERT
  5
77E
  8
0
  2
BLOCK44
 10
-266.15769399999988
 20
532.80517599999996
 30
0.0
 50
90.0
  0
INSERT
  5
77F
  8
0
  2
BLOCK45
 10
-266.15769399999988
 20
532.80517599999996
 30
0.0
 50
90.0
  0
INSERT
  5
780
  8
0
  2
BLOCK46
 10
-266.15769399999988
 20
532.80517599999996
 30
0.0
 50
90.0
  0
INSERT
  5
781
  8
0
  2
BLOCK47
 10
-266.15769399999988
 20
532.80517599999996
 30
0.0
 50
90.0
  0
INSERT
  5
782
  8
0
  2
BLOCK48
 10
-266.15769399999988
 20
532.80517599999996
 30
0.0
 50
90.0
  0
INSERT
  5
783
  8
0
  2
BLOCK49
 10
-266.15769399999988
 20
532.80517599999996
 30
0.0
 50
90.0
  0
INSERT
  5
784
  8
0
  2
BLOCK50
 10
-266.15769399999988
 20
532.80517599999996
 30
0.0
 50
90.0
  0
INSERT
  5
785
  8
0
  2
BLOCK51
 10
-266.15769399999988
 20
532.80517599999996
 30
0.0
 50
90.0
  0
INSERT
  5
786
  8
0
  2
BLOCK52
 10
-266.15769399999988
 20
532.80517599999996
 30
0.0
 50
90.0
  0
INSERT
  5
787
  8
0
  2
BLOCK53
 10
-266.15769399999988
 20
532.80517599999996
 30
0.0
 50
90.0
  0
INSERT
  5
788
  8
0
  2
BLOCK54
 10
-266.15769399999988
 20
532.80517599999996
 30
0.0
 50
90.0
  0
INSERT
  5
789
  8
0
  2
BLOCK55
 10
-266.15769399999988
 20
532.80517599999996
 30
0.0
 50
90.0
  0
INSERT
  5
78A
  8
0
  2
BLOCK56
 10
-266.15769399999988
 20
532.80517599999996
 30
0.0
 50
90.0
  0
INSERT
  5
78B
  8
0
  2
BLOCK57
 10
-266.15769399999988
 20
532.80517599999996
 30
0.0
 50
90.0
  0
INSERT
  5
78C
  8
0
  2
BLOCK58
 10
-266.15769399999988
 20
532.80517599999996
 30
0.0
 50
90.0
  0
INSERT
  5
78D
  8
0
  2
BLOCK59
 10
-266.15769399999988
 20
532.80517599999996
 30
0.0
 50
90.0
  0
INSERT
  5
78E
  8
0
  2
BLOCK60
 10
-266.15769399999988
 20
532.80517599999996
 30
0.0
 50
90.0
  0
INSERT
  5
78F
  8
0
  2
BLOCK61
 10
450.61798099999987
 20
645.042282
 30
0.0
 50
270.0
  0
INSERT
  5
790
  8
0
  2
BLOCK62
 10
450.61798099999987
 20
645.042282
 30
0.0
 50
270.0
  0
INSERT
  5
791
  8
0
  2
BLOCK63
 10
450.61798099999987
 20
645.042282
 30
0.0
 50
270.0
  0
INSERT
  5
792
  8
0
  2
BLOCK64
 10
450.61798099999987
 20
645.042282
 30
0.0
 50
270.0
  0
INSERT
  5
793
  8
0
  2
BLOCK65
 10
450.61798099999987
 20
645.042282
 30
0.0
 50
270.0
  0
INSERT
  5
794
  8
0
  2
BLOCK66
 10
450.61798099999987
 20
645.042282
 30
0.0
 50
270.0
  0
INSERT
  5
795
  8
0
  2
BLOCK67
 10
450.61798099999987
 20
645.042282
 30
0.0
 50
270.0
  0
INSERT
  5
796
  8
0
  2
BLOCK68
 10
450.61798099999987
 20
645.042282
 30
0.0
 50
270.0
  0
INSERT
  5
797
  8
0
  2
BLOCK69
 10
450.61798099999987
 20
645.042282
 30
0.0
 50
270.0
  0
INSERT
  5
798
  8
0
  2
BLOCK70
 10
450.61798099999987
 20
645.042282
 30
0.0
 50
270.0
  0
INSERT
  5
799
  8
0
  2
BLOCK71
 10
450.61798099999987
 20
645.042282
 30
0.0
 50
270.0
  0
INSERT
  5
79A
  8
0
  2
BLOCK72
 10
450.61798099999987
 20
645.042282
 30
0.0
 50
270.0
  0
INSERT
  5
79B
  8
0
  2
BLOCK73
 10
450.61798099999987
 20
645.042282
 30
0.0
 50
270.0
  0
INSERT
  5
79C
  8
0
  2
BLOCK74
 10
450.61798099999987
 20
645.042282
 30
0.0
 50
270.0
  0
INSERT
  5
79D
  8
0
  2
BLOCK75
 10
450.61798099999987
 20
645.042282
 30
0.0
 50
270.0
  0
INSERT
  5
79E
  8
0
  2
BLOCK76
 10
450.61798099999987
 20
645.042282
 30
0.0
 50
270.0
  0
INSERT
  5
79F
  8
0
  2
BLOCK77
 10
450.61798099999987
 20
645.042282
 30
0.0
 50
270.0
  0
INSERT
  5
7A0
  8
0
  2
BLOCK78
 10
450.61798099999987
 20
645.042282
 30
0.0
 50
270.0
  0
INSERT
  5
7A1
  8
0
  2
BLOCK79
 10
450.61798099999987
 20
645.042282
 30
0.0
 50
270.0
  0
INSERT
  5
7A2
  8
0
  2
BLOCK80
 10
450.61798099999987
 20
645.042282
 30
0.0
 50
270.0
  0
INSERT
  5
7A3
  8
0
  2
BLOCK81
 10
450.61798099999987
 20
645.042282
 30
0.0
 50
270.0
  0
INSERT
  5
7A4
  8
0
  2
BLOCK82
 10
342.802277
 20
794.48191799999995
 30
0.0
 50
270.0
  0
INSERT
  5
7A5
  8
0
  2
BLOCK83
 10
342.802277
 20
794.48191799999995
 30
0.0
 50
270.0
  0
INSERT
  5
7A6
  8
0
  2
BLOCK84
 10
342.802277
 20
794.48191799999995
 30
0.0
 50
270.0
  0
INSERT
  5
7A7
  8
0
  2
BLOCK85
 10
342.802277
 20
794.48191799999995
 30
0.0
 50
270.0
  0
VIEWPORT
  5
55F
 67
     1
  8
0
 62
     0
 10
0.0
 20
0.0
 30
0.0
 40
1000.0
 41
1000.0
 68
     1
 69
     1
1001
ACAD
1000
MVIEW
1002
{
1070
    16
1010
0.0
1020
0.0
1030
0.0
1010
0.0
1020
0.0
1030
1.0
1040
0.0
1040
1000.0
1040
0.0
1040
0.0
1040
50.0
1040
0.0
1040
0.0
1070
     0
1070
   100
1070
     1
1070
     1
1070
     0
1070
     0
1070
     0
1070
     0
1040
0.0
1040
0.0
1040
0.0
1040
1.0
1040
1.0
1040
1.0
1040
1.0
1070
     0
1002
{
1002
}
1002
}
  0
ENDSEC
  0
EOF
