  0
SECTION
  2
HEADER
  9
$ACADVER
  1
AC1009
  9
$DWGCODEPAGE
  3
iso8859-1
  9
$INSBASE
 10
0.0
 20
0.0
 30
0.0
  9
$EXTMIN
 10
1.0E20
 20
1.0E20
 30
1.0E20
  9
$EXTMAX
 10
-1.0E20
 20
-1.0E20
 30
-1.0E20
  9
$LIMMIN
 10
0.0
 20
0.0
  9
$LIMMAX
 10
12.0
 20
9.0
  9
$ORTHOMODE
 70
     0
  9
$REGENMODE
 70
     1
  9
$FILLMODE
 70
     1
  9
$QTEXTMODE
 70
     0
  9
$MIRRTEXT
 70
     1
  9
$DRAGMODE
 70
     2
  9
$LTSCALE
 40
15.0
  9
$OSMODE
 70
     0
  9
$ATTMODE
 70
     1
  9
$TEXTSIZE
 40
0.2
  9
$TRACEWID
 40
0.05
  9
$TEXTSTYLE
  7
STANDARD
  9
$CLAYER
  8
0
  9
$CELTYPE
  6
DASHED
  9
$CECOLOR
 62
   256
  9
$DIMSCALE
 40
1.0
  9
$DIMASZ
 40
0.18
  9
$DIMEXO
 40
0.0625
  9
$DIMDLI
 40
0.38
  9
$DIMRND
 40
0.0
  9
$DIMDLE
 40
0.0
  9
$DIMEXE
 40
0.18
  9
$DIMTP
 40
0.0
  9
$DIMTM
 40
0.0
  9
$DIMTXT
 40
0.18
  9
$DIMCEN
 40
0.09
  9
$DIMTSZ
 40
0.0
  9
$DIMTOL
 70
     0
  9
$DIMLIM
 70
     0
  9
$DIMTIH
 70
     1
  9
$DIMTOH
 70
     1
  9
$DIMSE1
 70
     0
  9
$DIMSE2
 70
     0
  9
$DIMTAD
 70
     0
  9
$DIMZIN
 70
     0
  9
$DIMBLK
  1

  9
$DIMASO
 70
     1
  9
$DIMSHO
 70
     1
  9
$DIMPOST
  1

  9
$DIMAPOST
  1

  9
$DIMALT
 70
     0
  9
$DIMALTD
 70
     2
  9
$DIMALTF
 40
25.4
  9
$DIMLFAC
 40
1.0
  9
$DIMTOFL
 70
     0
  9
$DIMTVP
 40
0.0
  9
$DIMTIX
 70
     0
  9
$DIMSOXD
 70
     0
  9
$DIMSAH
 70
     0
  9
$DIMBLK1
  1

  9
$DIMBLK2
  1

  9
$DIMSTYLE
  2
STANDARD
  9
$DIMCLRD
 70
     0
  9
$DIMCLRE
 70
     0
  9
$DIMCLRT
 70
     0
  9
$DIMTFAC
 40
1.0
  9
$DIMGAP
 40
0.09
  9
$LUNITS
 70
     2
  9
$LUPREC
 70
     4
  9
$AXISMODE
 70
     0
  9
$AXISUNIT
 10
0.0
 20
0.0
  9
$SKETCHINC
 40
0.1
  9
$FILLETRAD
 40
0.0
  9
$AUNITS
 70
     0
  9
$AUPREC
 70
     0
  9
$MENU
  1
acad
  9
$ELEVATION
 40
0.0
  9
$PELEVATION
 40
0.0
  9
$THICKNESS
 40
0.0
  9
$LIMCHECK
 70
     0
  9
$BLIPMODE
 70
     1
  9
$CHAMFERA
 40
0.0
  9
$CHAMFERB
 40
0.0
  9
$SKPOLY
 70
     0
  9
$TDCREATE
 40
2450267.486451955
  9
$TDUPDATE
 40
2450267.486451955
  9
$TDINDWG
 40
0.0
  9
$TDUSRTIMER
 40
0.0
  9
$USRTIMER
 70
     1
  9
$ANGBASE
 50
0.0
  9
$ANGDIR
 70
     0
  9
$PDMODE
 70
     0
  9
$PDSIZE
 40
0.0
  9
$PLINEWID
 40
0.0
  9
$COORDS
 70
     1
  9
$SPLFRAME
 70
     0
  9
$SPLINETYPE
 70
     6
  9
$SPLINESEGS
 70
     8
  9
$ATTDIA
 70
     0
  9
$ATTREQ
 70
     1
  9
$HANDLING
 70
     1
  9
$HANDSEED
  5
   A32
  9
$SURFTAB1
 70
     6
  9
$SURFTAB2
 70
     6
  9
$SURFTYPE
 70
     6
  9
$SURFU
 70
     6
  9
$SURFV
 70
     6
  9
$UCSNAME
  2

  9
$UCSORG
 10
0.0
 20
0.0
 30
0.0
  9
$UCSXDIR
 10
1.0
 20
0.0
 30
0.0
  9
$UCSYDIR
 10
0.0
 20
1.0
 30
0.0
  9
$PUCSNAME
  2

  9
$PUCSORG
 10
0.0
 20
0.0
 30
0.0
  9
$PUCSXDIR
 10
1.0
 20
0.0
 30
0.0
  9
$PUCSYDIR
 10
0.0
 20
1.0
 30
0.0
  9
$USERI1
 70
     0
  9
$USERI2
 70
     0
  9
$USERI3
 70
     0
  9
$USERI4
 70
     0
  9
$USERI5
 70
     0
  9
$USERR1
 40
0.0
  9
$USERR2
 40
0.0
  9
$USERR3
 40
0.0
  9
$USERR4
 40
0.0
  9
$USERR5
 40
0.0
  9
$WORLDVIEW
 70
     1
  9
$SHADEDGE
 70
     3
  9
$SHADEDIF
 70
    70
  9
$TILEMODE
 70
     1
  9
$MAXACTVP
 70
    16
  9
$PINSBASE
 10
0.0
 20
0.0
 30
0.0
  9
$PLIMCHECK
 70
     0
  9
$PEXTMIN
 10
1.0E20
 20
1.0E20
 30
1.0E20
  9
$PEXTMAX
 10
-1.0E20
 20
-1.0E20
 30
-1.0E20
  9
$PLIMMIN
 10
0.0
 20
0.0
  9
$PLIMMAX
 10
12.0
 20
9.0
  9
$UNITMODE
 70
     0
  9
$VISRETAIN
 70
     0
  0
ENDSEC
  0
SECTION
  2
TABLES
  0
TABLE
  2
VPORT
 70
     1
  0
VPORT
  2
*ACTIVE
 70
     0
 10
0.0
 20
0.0
 11
1.0
 21
1.0
 12
6.801242
 22
4.5
 13
0.0
 23
0.0
 14
1.0
 24
1.0
 15
0.0
 25
0.0
 16
0.0
 26
0.0
 36
1.0
 17
0.0
 27
0.0
 37
0.0
 40
9.0
 41
1.511387
 42
50.0
 43
0.0
 44
0.0
 50
0.0
 51
0.0
 71
     0
 72
   100
 73
     1
 74
     1
 75
     0
 76
     0
 77
     0
 78
     0
  0
ENDTAB
  0
TABLE
  2
LTYPE
 70
    41
  0
LTYPE
  2
BYBLOCK
 70
     0
  3

 72
    65
 73
     0
 40
0.0
  0
LTYPE
  2
BYLAYER
 70
     0
  3

 72
    65
 73
     0
 40
0.0
  0
LTYPE
  2
CONTINUOUS
 70
     0
  3
Solid line
 72
    65
 73
     0
 40
0.0
  0
LTYPE
  2
BORDER
 70
    64
  3
__ __ . __ __ . __ __ . __ __ . __ __ . __ __ .
 72
    65
 73
     6
 40
1.75
 49
0.5
 49
-0.25
 49
0.5
 49
-0.25
 49
0.0
 49
-0.25
  0
LTYPE
  2
BORDER2
 70
    64
  3
__.__.__.__.__.__.__.__.__.__.__.__.__.__.__.__
 72
    65
 73
     6
 40
0.875
 49
0.25
 49
-0.125
 49
0.25
 49
-0.125
 49
0.0
 49
-0.125
  0
LTYPE
  2
BORDERX2
 70
    64
  3
____  ____  .  ____  ____  .  ____  ____  .  __
 72
    65
 73
     6
 40
3.5
 49
1.0
 49
-0.5
 49
1.0
 49
-0.5
 49
0.0
 49
-0.5
  0
LTYPE
  2
CENTER
 70
    64
  3
____ _ ____ _ ____ _ ____ _ ____ _ ____ _ ____
 72
    65
 73
     4
 40
2.0
 49
1.25
 49
-0.25
 49
0.25
 49
-0.25
  0
LTYPE
  2
CENTER2
 70
    64
  3
___ _ ___ _ ___ _ ___ _ ___ _ ___ _ ___ _ ___ _
 72
    65
 73
     4
 40
1.125
 49
0.75
 49
-0.125
 49
0.125
 49
-0.125
  0
LTYPE
  2
CENTERX2
 70
    64
  3
________  __  ________  __  ________  __  _____
 72
    65
 73
     4
 40
4.0
 49
2.5
 49
-0.5
 49
0.5
 49
-0.5
  0
LTYPE
  2
DASHDOT
 70
    64
  3
__ . __ . __ . __ . __ . __ . __ . __ . __ . __
 72
    65
 73
     4
 40
1.0
 49
0.5
 49
-0.25
 49
0.0
 49
-0.25
  0
LTYPE
  2
DASHDOT2
 70
    64
  3
_._._._._._._._._._._._._._._._._._._._._._._._
 72
    65
 73
     4
 40
0.5
 49
0.25
 49
-0.125
 49
0.0
 49
-0.125
  0
LTYPE
  2
DASHDOTX2
 70
    64
  3
____  .  ____  .  ____  .  ____  .  ____  .  __
 72
    65
 73
     4
 40
2.0
 49
1.0
 49
-0.5
 49
0.0
 49
-0.5
  0
LTYPE
  2
DASHED
 70
    64
  3
__ __ __ __ __ __ __ __ __ __ __ __ __ __ __ __
 72
    65
 73
     2
 40
0.75
 49
0.5
 49
-0.25
  0
LTYPE
  2
DASHED2
 70
    64
  3
_ _ _ _ _ _ _ _ _ _ _ _ _ _ _ _ _ _ _ _ _ _ _ _
 72
    65
 73
     2
 40
0.375
 49
0.25
 49
-0.125
  0
LTYPE
  2
DASHEDX2
 70
    64
  3
____  ____  ____  ____  ____  ____  ____  ____
 72
    65
 73
     2
 40
1.5
 49
1.0
 49
-0.5
  0
LTYPE
  2
DIVIDE
 70
    64
  3
____ . . ____ . . ____ . . ____ . . ____ . . __
 72
    65
 73
     6
 40
1.25
 49
0.5
 49
-0.25
 49
0.0
 49
-0.25
 49
0.0
 49
-0.25
  0
LTYPE
  2
DIVIDE2
 70
    64
  3
__..__..__..__..__..__..__..__..__..__..__..__.
 72
    65
 73
     6
 40
0.625
 49
0.25
 49
-0.125
 49
0.0
 49
-0.125
 49
0.0
 49
-0.125
  0
LTYPE
  2
DIVIDEX2
 70
    64
  3
________  .  .  ________  .  .  ________  .  .
 72
    65
 73
     6
 40
2.5
 49
1.0
 49
-0.5
 49
0.0
 49
-0.5
 49
0.0
 49
-0.5
  0
LTYPE
  2
DOT
 70
    64
  3
. . . . . . . . . . . . . . . . . . . . . . . .
 72
    65
 73
     2
 40
0.25
 49
0.0
 49
-0.25
  0
LTYPE
  2
DOT2
 70
    64
  3
...............................................
 72
    65
 73
     2
 40
0.125
 49
0.0
 49
-0.125
  0
LTYPE
  2
DOTX2
 70
    64
  3
.  .  .  .  .  .  .  .  .  .  .  .  .  .  .  .
 72
    65
 73
     2
 40
0.5
 49
0.0
 49
-0.5
  0
LTYPE
  2
HIDDEN
 70
    64
  3
__ __ __ __ __ __ __ __ __ __ __ __ __ __ __ __
 72
    65
 73
     2
 40
0.375
 49
0.25
 49
-0.125
  0
LTYPE
  2
HIDDEN2
 70
    64
  3
_ _ _ _ _ _ _ _ _ _ _ _ _ _ _ _ _ _ _ _ _ _ _ _
 72
    65
 73
     2
 40
0.1875
 49
0.125
 49
-0.0625
  0
LTYPE
  2
HIDDENX2
 70
    64
  3
____ ____ ____ ____ ____ ____ ____ ____ ____ __
 72
    65
 73
     2
 40
0.75
 49
0.5
 49
-0.25
  0
LTYPE
  2
PHANTOM
 70
    64
  3
______  __  __  ______  __  __  ______  __  __
 72
    65
 73
     6
 40
2.5
 49
1.25
 49
-0.25
 49
0.25
 49
-0.25
 49
0.25
 49
-0.25
  0
LTYPE
  2
PHANTOM2
 70
    64
  3
___ _ _ ___ _ _ ___ _ _ ___ _ _ ___ _ _ ___ _ _
 72
    65
 73
     6
 40
1.25
 49
0.625
 49
-0.125
 49
0.125
 49
-0.125
 49
0.125
 49
-0.125
  0
LTYPE
  2
PHANTOMX2
 70
    64
  3
____________    ____    ____    ____________
 72
    65
 73
     6
 40
5.0
 49
2.5
 49
-0.5
 49
0.5
 49
-0.5
 49
0.5
 49
-0.5
  0
LTYPE
  2
ACAD_ISO02W100
 70
    64
  3
__ __ __ __ __ __ __ __ __ __ __ __ __ __ __ __
 72
    65
 73
     2
 40
15.0
 49
12.0
 49
-3.0
  0
LTYPE
  2
ACAD_ISO03W100
 70
    64
  3
__    __    __    __    __    __    __    __
 72
    65
 73
     2
 40
30.0
 49
12.0
 49
-18.0
  0
LTYPE
  2
ACAD_ISO04W100
 70
    64
  3
____ . ____ . ____ . ____ . ____ . ____ . ____
 72
    65
 73
     4
 40
30.5
 49
24.0
 49
-3.0
 49
0.5
 49
-3.0
  0
LTYPE
  2
ACAD_ISO05W100
 70
    64
  3
____ .. ____ .. ____ .. ____ .. ____ .. ____ ..
 72
    65
 73
     6
 40
34.0
 49
24.0
 49
-3.0
 49
0.5
 49
-3.0
 49
0.5
 49
-3.0
  0
LTYPE
  2
ACAD_ISO06W100
 70
    64
  3
____ ... ____ ... ____ ... ____ ... ____ ... __
 72
    65
 73
     8
 40
37.5
 49
24.0
 49
-3.0
 49
0.5
 49
-3.0
 49
0.5
 49
-3.0
 49
0.5
 49
-3.0
  0
LTYPE
  2
ACAD_ISO07W100
 70
    64
  3
. . . . . . . . . . . . . . . . . . . . . . . .
 72
    65
 73
     2
 40
3.5
 49
0.5
 49
-3.0
  0
LTYPE
  2
ACAD_ISO08W100
 70
    64
  3
____ __ ____ __ ____ __ ____ ____ __ __ ____ __
 72
    65
 73
     4
 40
36.0
 49
24.0
 49
-3.0
 49
6.0
 49
-3.0
  0
LTYPE
  2
ACAD_ISO09W100
 70
    64
  3
____ __ __ ____ __ __ ____ __ __ ____ __ __ ___
 72
    65
 73
     6
 40
45.0
 49
24.0
 49
-3.0
 49
6.0
 49
-3.0
 49
6.0
 49
-3.0
  0
LTYPE
  2
ACAD_ISO10W100
 70
    64
  3
__ . __ . __ . __ . __ . __ . __ . __ . __ . __
 72
    65
 73
     4
 40
18.5
 49
12.0
 49
-3.0
 49
0.5
 49
-3.0
  0
LTYPE
  2
ACAD_ISO11W100
 70
    64
  3
__ __ . __ __ . __ __ . __ __ . __ __ . __ __ .
 72
    65
 73
     6
 40
33.5
 49
12.0
 49
-3.0
 49
12.0
 49
-3.0
 49
0.5
 49
-3.0
  0
LTYPE
  2
ACAD_ISO12W100
 70
    64
  3
__ . . __ . . __ . . __ . . __ . . __ . . __ .
 72
    65
 73
     6
 40
22.0
 49
12.0
 49
-3.0
 49
0.5
 49
-3.0
 49
0.5
 49
-3.0
  0
LTYPE
  2
ACAD_ISO13W100
 70
    64
  3
__ __ . . __ __ . . __ __ . . __ __ . . __ __ .
 72
    65
 73
     8
 40
37.0
 49
12.0
 49
-3.0
 49
12.0
 49
-3.0
 49
0.5
 49
-3.0
 49
0.5
 49
-3.0
  0
LTYPE
  2
ACAD_ISO14W100
 70
    64
  3
__ . . . __ . . . __ . . . __ . . . __ . . . __
 72
    65
 73
     8
 40
25.5
 49
12.0
 49
-3.0
 49
0.5
 49
-3.0
 49
0.5
 49
-3.0
 49
0.5
 49
-3.0
  0
LTYPE
  2
ACAD_ISO15W100
 70
    64
  3
__ __ . . . __ __ . . . __ __ . . . __ __ . . .
 72
    65
 73
    10
 40
40.5
 49
12.0
 49
-3.0
 49
12.0
 49
-3.0
 49
0.5
 49
-3.0
 49
0.5
 49
-3.0
 49
0.5
 49
-3.0
  0
ENDTAB
  0
TABLE
  2
STYLE
 70
     4
  0
STYLE
  2
STANDARD
 70
    64
 40
0.0
 41
1.0
 50
0.0
 71
     0
 42
0.2
  3
txt
  4

  0
STYLE
  2
TOLERANCE
 70
    64
 40
0.0
 41
1.0
 50
0.0
 71
     0
 42
0.2
  3
iges1003.shx
  4

  0
STYLE
  2
ROMANS
 70
    64
 40
0.0
 41
1.0
 50
0.0
 71
     0
 42
0.2
  3
romans.shx
  4

  0
STYLE
  2
ROMANC
 70
    64
 40
0.0
 41
1.0
 50
0.0
 71
     0
 42
0.2
  3
romanc.shx
  4

  0
ENDTAB
  0
TABLE
  2
DIMSTYLE
 70
     2
  0
DIMSTYLE
  2
UNNAMED
 70
     0
  3

  4

  5

  6

  7

 40
1.0
 41
0.18
 42
0.0625
 43
0.38
 44
0.18
 45
0.0
 46
0.0
 47
0.0
 48
0.0
140
0.18
141
0.09
142
0.0
143
25.4
144
1.0
145
0.0
146
1.0
147
0.09
 71
     0
 72
     0
 73
     1
 74
     1
 75
     0
 76
     0
 77
     0
 78
     0
170
     0
171
     2
172
     0
173
     0
174
     0
175
     0
176
     0
177
     0
178
     0
  0
DIMSTYLE
  2
STANDARD
 70
     0
  3

  4

  5

  6

  7

 40
1.0
 41
0.18
 42
0.0625
 43
0.38
 44
0.18
 45
0.0
 46
0.0
 47
0.0
 48
0.0
140
0.18
141
0.09
142
0.0
143
25.4
144
1.0
145
0.0
146
1.0
147
0.09
 71
     0
 72
     0
 73
     1
 74
     1
 75
     0
 76
     0
 77
     0
 78
     0
170
     0
171
     2
172
     0
173
     0
174
     0
175
     0
176
     0
177
     0
178
     0
  0
ENDTAB
  0
TABLE
  2
LAYER
 70
     2
  0
LAYER
  2
0
 70
     0
 62
     7
  6
CONTINUOUS
  0
LAYER
  2
255
 70
     0
 62
     7
  6
CONTINUOUS
  0
ENDTAB
  0
ENDSEC
  0
SECTION
  2
BLOCKS
  0
BLOCK
  5
     B
  8
0
  6
CONTINUOUS
 62
     7
  2
$1TAB
 70
    64
 10
0.0
 20
0.0
 30
0.0
  3
$1TAB
  0
LINE
  5
     C
  8
0
  6
CONTINUOUS
 62
     7
 10
2.0
 20
0.0
 30
0.0
 11
105.0
 21
0.0
 31
0.0
  0
LINE
  5
     D
  8
0
  6
CONTINUOUS
 62
     7
 10
2.0
 20
0.0
 30
0.0
 11
2.0
 21
48.0
 31
0.0
  0
LINE
  5
     E
  8
0
  6
CONTINUOUS
 62
     7
 10
2.0
 20
24.0
 30
0.0
 11
105.0
 21
24.0
 31
0.0
  0
TEXT
  5
     F
  8
0
  6
CONTINUOUS
 62
     7
 10
16.7999999334415
 20
36.9500000327826
 30
0.0
 40
3.00000002980232
  1
3POLE
 41
0.933333333333333
 72
     1
 11
23.5
 21
38.4500000476837
 31
0.0
 73
     2
  0
TEXT
  5
    10
  8
0
  6
CONTINUOUS
 62
     7
 10
11.1999998778105
 20
32.0499999374151
 30
0.0
 40
3.00000002980232
  1
TRIPOLARE
 41
0.933333333333333
 72
     1
 11
23.5
 21
33.5499999523163
 31
0.0
 73
     2
  0
LINE
  5
    11
  8
0
  6
CONTINUOUS
 62
     7
 10
2.0
 20
48.0
 30
0.0
 11
105.0
 21
48.0
 31
0.0
  0
LINE
  5
    12
  8
0
  6
CONTINUOUS
 62
     7
 10
45.0
 20
0.0
 30
0.0
 11
45.0
 21
60.0
 31
0.0
  0
TEXT
  5
    13
  8
0
  6
CONTINUOUS
 62
     7
 10
16.7999999334415
 20
12.9500000327826
 30
0.0
 40
3.00000002980232
  1
4POLE
 41
0.933333333333333
 72
     1
 11
23.5
 21
14.4500000476837
 31
0.0
 73
     2
  0
TEXT
  5
    14
  8
0
  6
CONTINUOUS
 62
     7
 10
8.39999984999498
 20
8.04999993741512
 30
0.0
 40
3.00000002980232
  1
TETRAPOLARE
 41
0.933333333333333
 72
     1
 11
23.5
 21
9.54999995231628
 31
0.0
 73
     2
  0
LINE
  5
    15
  8
0
  6
CONTINUOUS
 62
     7
 10
45.0
 20
12.0
 30
0.0
 11
105.0
 21
12.0
 31
0.0
  0
TEXT
  5
    16
  8
0
  6
CONTINUOUS
 62
     7
 10
54.9999999751647
 20
4.49999998509884
 30
0.0
 40
3.00000002980232
  1
71
 41
0.933333333333333
 72
     1
 11
57.5
 21
6.0
 31
0.0
 73
     2
  0
TEXT
  5
    17
  8
0
  6
CONTINUOUS
 62
     7
 10
54.9999999751647
 20
28.4999999850988
 30
0.0
 40
3.00000002980232
  1
71
 41
0.933333333333333
 72
     1
 11
57.5
 21
30.0
 31
0.0
 73
     2
  0
LINE
  5
    18
  8
0
  6
CONTINUOUS
 62
     7
 10
45.0
 20
36.0
 30
0.0
 11
105.0
 21
36.0
 31
0.0
  0
LINE
  5
    19
  8
0
  6
CONTINUOUS
 62
     7
 10
45.0
 20
60.0
 30
0.0
 11
105.0
 21
60.0
 31
0.0
  0
TEXT
  5
    1A
  8
0
  6
CONTINUOUS
 62
     7
 10
56.3999999890725
 20
52.4999999850988
 30
0.0
 40
3.00000002980232
  1
A
 41
0.933333333333334
 72
     1
 11
57.5
 21
54.0
 31
0.0
 73
     2
  0
TEXT
  5
    1B
  8
0
  6
CONTINUOUS
 62
     7
 10
54.9999999751647
 20
40.4999999850988
 30
0.0
 40
3.00000002980232
  1
79
 41
0.933333333333333
 72
     1
 11
57.5
 21
42.0
 31
0.0
 73
     2
  0
TEXT
  5
    1C
  8
0
  6
CONTINUOUS
 62
     7
 10
54.9999999751647
 20
16.4999999850988
 30
0.0
 40
3.00000002980232
  1
79
 41
0.933333333333333
 72
     1
 11
57.5
 21
18.0
 31
0.0
 73
     2
  0
LINE
  5
    1D
  8
0
  6
CONTINUOUS
 62
     7
 10
70.0
 20
0.0
 30
0.0
 11
70.0
 21
60.0
 31
0.0
  0
TEXT
  5
    1E
  8
0
  6
CONTINUOUS
 62
     7
 10
80.7999999334415
 20
16.4999999850988
 30
0.0
 40
3.00000002980232
  1
161.3
 41
0.933333333333333
 72
     1
 11
87.5
 21
18.0
 31
0.0
 73
     2
  0
TEXT
  5
    1F
  8
0
  6
CONTINUOUS
 62
     7
 10
80.7999999334415
 20
4.49999998509884
 30
0.0
 40
3.00000002980232
  1
198.2
 41
0.933333333333333
 72
     1
 11
87.5
 21
6.0
 31
0.0
 73
     2
  0
TEXT
  5
    20
  8
0
  6
CONTINUOUS
 62
     7
 10
80.7999999334415
 20
28.4999999850988
 30
0.0
 40
3.00000002980232
  1
161.3
 41
0.933333333333333
 72
     1
 11
87.5
 21
30.0
 31
0.0
 73
     2
  0
TEXT
  5
    21
  8
0
  6
CONTINUOUS
 62
     7
 10
80.7999999334415
 20
40.4999999850988
 30
0.0
 40
3.00000002980232
  1
161.3
 41
0.933333333333333
 72
     1
 11
87.5
 21
42.0
 31
0.0
 73
     2
  0
TEXT
  5
    22
  8
0
  6
CONTINUOUS
 62
     7
 10
86.3999999890725
 20
52.4999999850988
 30
0.0
 40
3.00000002980232
  1
B
 41
0.933333333333334
 72
     1
 11
87.5
 21
54.0
 31
0.0
 73
     2
  0
LINE
  5
    23
  8
0
  6
CONTINUOUS
 62
     7
 10
105.0
 20
0.0
 30
0.0
 11
105.0
 21
60.0
 31
0.0
  0
ENDBLK
  5
    24
  8
0
  6
CONTINUOUS
 62
     7
  0
BLOCK
  5
    25
  8
0
  6
CONTINUOUS
 62
     7
  2
*HATCH1154
 70
    65
 10
0.0
 20
0.0
 30
0.0
  3
*HATCH1154
  0
LINE
  5
    26
  8
0
  6
CONTINUOUS
 62
    52
 10
123.061586380005
 20
505.565490722656
 30
0.0
 11
123.061577796936
 21
492.060011863709
 31
0.0
  0
LINE
  5
    27
  8
0
  6
CONTINUOUS
 62
    52
 10
124.524084091187
 20
505.565490722656
 30
0.0
 11
124.524078369141
 21
491.690490722656
 31
0.0
  0
LINE
  5
    28
  8
0
  6
CONTINUOUS
 62
    52
 10
125.986584663391
 20
505.565490722656
 30
0.0
 11
125.986578941345
 21
491.690490722656
 31
0.0
  0
LINE
  5
    29
  8
0
  6
CONTINUOUS
 62
    52
 10
127.449085235596
 20
505.565490722656
 30
0.0
 11
127.44907951355
 21
491.690490722656
 31
0.0
  0
LINE
  5
    2A
  8
0
  6
CONTINUOUS
 62
    52
 10
128.9115858078
 20
505.565490722656
 30
0.0
 11
128.911580085754
 21
491.690490722656
 31
0.0
  0
LINE
  5
    2B
  8
0
  6
CONTINUOUS
 62
    52
 10
130.374086380005
 20
505.565490722656
 30
0.0
 11
130.374080657959
 21
491.690490722656
 31
0.0
  0
LINE
  5
    2C
  8
0
  6
CONTINUOUS
 62
    52
 10
131.83658695221
 20
505.565490722656
 30
0.0
 11
131.836581230164
 21
491.690490722656
 31
0.0
  0
LINE
  5
    2D
  8
0
  6
CONTINUOUS
 62
    52
 10
133.299087524414
 20
505.565490722656
 30
0.0
 11
133.299081802368
 21
491.690490722656
 31
0.0
  0
LINE
  5
    2E
  8
0
  6
CONTINUOUS
 62
    52
 10
134.761588096619
 20
505.565490722656
 30
0.0
 11
134.761582374573
 21
491.690490722656
 31
0.0
  0
LINE
  5
    2F
  8
0
  6
CONTINUOUS
 62
    52
 10
136.224088668823
 20
505.565490722656
 30
0.0
 11
136.224082946777
 21
491.690490722656
 31
0.0
  0
LINE
  5
    30
  8
0
  6
CONTINUOUS
 62
    52
 10
137.686589241028
 20
505.565490722656
 30
0.0
 11
137.686583518982
 21
491.690490722656
 31
0.0
  0
LINE
  5
    31
  8
0
  6
CONTINUOUS
 62
    52
 10
139.149089813232
 20
505.565490722656
 30
0.0
 11
139.149084091187
 21
491.690490722656
 31
0.0
  0
LINE
  5
    32
  8
0
  6
CONTINUOUS
 62
    52
 10
140.611590385437
 20
505.565490722656
 30
0.0
 11
140.611584663391
 21
491.690490722656
 31
0.0
  0
LINE
  5
    33
  8
0
  6
CONTINUOUS
 62
    52
 10
142.074090957642
 20
505.565490722656
 30
0.0
 11
142.074085235596
 21
491.690490722656
 31
0.0
  0
LINE
  5
    34
  8
0
  6
CONTINUOUS
 62
    52
 10
143.536591529846
 20
505.565490722656
 30
0.0
 11
143.5365858078
 21
491.690490722656
 31
0.0
  0
LINE
  5
    35
  8
0
  6
CONTINUOUS
 62
    52
 10
144.999091386795
 20
505.565490722656
 30
0.0
 11
144.999085664749
 21
491.690490722656
 31
0.0
  0
LINE
  5
    36
  8
0
  6
CONTINUOUS
 62
    52
 10
146.461591243744
 20
505.565490722656
 30
0.0
 11
146.461585521698
 21
491.690490722656
 31
0.0
  0
LINE
  5
    37
  8
0
  6
CONTINUOUS
 62
    52
 10
147.924091100693
 20
505.565490722656
 30
0.0
 11
147.924085378647
 21
491.690490722656
 31
0.0
  0
LINE
  5
    38
  8
0
  6
CONTINUOUS
 62
    52
 10
149.386590957642
 20
505.565490722656
 30
0.0
 11
149.386585235596
 21
491.690490722656
 31
0.0
  0
LINE
  5
    39
  8
0
  6
CONTINUOUS
 62
    52
 10
150.84909081459
 20
505.565490722656
 30
0.0
 11
150.849085092545
 21
491.690490722656
 31
0.0
  0
LINE
  5
    3A
  8
0
  6
CONTINUOUS
 62
    52
 10
152.311590671539
 20
505.565490722656
 30
0.0
 11
152.311584949493
 21
491.690490722656
 31
0.0
  0
LINE
  5
    3B
  8
0
  6
CONTINUOUS
 62
    52
 10
153.774090528488
 20
505.565490722656
 30
0.0
 11
153.774084806442
 21
491.690490722656
 31
0.0
  0
LINE
  5
    3C
  8
0
  6
CONTINUOUS
 62
    52
 10
155.236590474844
 20
505.565490722656
 30
0.0
 11
155.236584752798
 21
491.690490722656
 31
0.0
  0
LINE
  5
    3D
  8
0
  6
CONTINUOUS
 62
    52
 10
156.6990904212
 20
505.565490722656
 30
0.0
 11
156.699084699154
 21
491.690490722656
 31
0.0
  0
LINE
  5
    3E
  8
0
  6
CONTINUOUS
 62
    52
 10
158.161590367556
 20
505.565490722656
 30
0.0
 11
158.16158464551
 21
491.690490722656
 31
0.0
  0
LINE
  5
    3F
  8
0
  6
CONTINUOUS
 62
    52
 10
159.624090313911
 20
505.565490722656
 30
0.0
 11
159.624084591866
 21
491.690490722656
 31
0.0
  0
LINE
  5
    40
  8
0
  6
CONTINUOUS
 62
    52
 10
161.08659017086
 20
505.565490722656
 30
0.0
 11
161.086584448814
 21
491.690490722656
 31
0.0
  0
LINE
  5
    41
  8
0
  6
CONTINUOUS
 62
    52
 10
162.549090027809
 20
505.565490722656
 30
0.0
 11
162.549084305763
 21
491.690490722656
 31
0.0
  0
LINE
  5
    42
  8
0
  6
CONTINUOUS
 62
    52
 10
164.011590242386
 20
505.565490722656
 30
0.0
 11
164.01158452034
 21
491.690490722656
 31
0.0
  0
LINE
  5
    43
  8
0
  6
CONTINUOUS
 62
    52
 10
165.474090099335
 20
505.565490722656
 30
0.0
 11
165.474084377289
 21
491.690490722656
 31
0.0
  0
LINE
  5
    44
  8
0
  6
CONTINUOUS
 62
    52
 10
166.936589956284
 20
505.565490722656
 30
0.0
 11
166.936584234238
 21
491.690490722656
 31
0.0
  0
LINE
  5
    45
  8
0
  6
CONTINUOUS
 62
    52
 10
168.399089813232
 20
505.565490722656
 30
0.0
 11
168.399084091187
 21
491.690490722656
 31
0.0
  0
LINE
  5
    46
  8
0
  6
CONTINUOUS
 62
    52
 10
169.861590385437
 20
505.565490722656
 30
0.0
 11
169.861584663391
 21
491.690490722656
 31
0.0
  0
LINE
  5
    47
  8
0
  6
CONTINUOUS
 62
    52
 10
171.324090957642
 20
505.565490722656
 30
0.0
 11
171.324085235596
 21
491.690490722656
 31
0.0
  0
LINE
  5
    48
  8
0
  6
CONTINUOUS
 62
    52
 10
172.786591529846
 20
505.565490722656
 30
0.0
 11
172.7865858078
 21
491.690490722656
 31
0.0
  0
LINE
  5
    49
  8
0
  6
CONTINUOUS
 62
    52
 10
174.249092102051
 20
505.565490722656
 30
0.0
 11
174.249086380005
 21
491.690490722656
 31
0.0
  0
LINE
  5
    4A
  8
0
  6
CONTINUOUS
 62
    52
 10
175.711592674255
 20
505.565490722656
 30
0.0
 11
175.711586952209
 21
491.690490722656
 31
0.0
  0
LINE
  5
    4B
  8
0
  6
CONTINUOUS
 62
    52
 10
177.17409324646
 20
505.565490722656
 30
0.0
 11
177.174087524414
 21
491.690490722656
 31
0.0
  0
LINE
  5
    4C
  8
0
  6
CONTINUOUS
 62
    52
 10
178.636593818665
 20
505.565490722656
 30
0.0
 11
178.636588096619
 21
491.690490722656
 31
0.0
  0
LINE
  5
    4D
  8
0
  6
CONTINUOUS
 62
    52
 10
180.099094390869
 20
505.565490722656
 30
0.0
 11
180.099088668823
 21
491.690490722656
 31
0.0
  0
LINE
  5
    4E
  8
0
  6
CONTINUOUS
 62
    52
 10
181.561594963074
 20
505.565490722656
 30
0.0
 11
181.561589241028
 21
491.690490722656
 31
0.0
  0
LINE
  5
    4F
  8
0
  6
CONTINUOUS
 62
    52
 10
183.024095535278
 20
505.565490722656
 30
0.0
 11
183.024089813232
 21
491.690490722656
 31
0.0
  0
LINE
  5
    50
  8
0
  6
CONTINUOUS
 62
    52
 10
184.486596107483
 20
505.565490722656
 30
0.0
 11
184.486590385437
 21
491.690490722656
 31
0.0
  0
LINE
  5
    51
  8
0
  6
CONTINUOUS
 62
    52
 10
185.949096679688
 20
505.565490722656
 30
0.0
 11
185.949090957642
 21
491.690490722656
 31
0.0
  0
LINE
  5
    52
  8
0
  6
CONTINUOUS
 62
    52
 10
187.411597251892
 20
505.565490722656
 30
0.0
 11
187.411591529846
 21
491.690490722656
 31
0.0
  0
LINE
  5
    53
  8
0
  6
CONTINUOUS
 62
    52
 10
188.874097824097
 20
505.565490722656
 30
0.0
 11
188.874092102051
 21
491.690490722656
 31
0.0
  0
LINE
  5
    54
  8
0
  6
CONTINUOUS
 62
    52
 10
190.336584091187
 20
505.565490722656
 30
0.0
 11
190.336575508118
 21
492.059914588928
 31
0.0
  0
LINE
  5
    55
  8
0
  6
CONTINUOUS
 62
    52
 10
191.799081802368
 20
505.565490722656
 30
0.0
 11
191.799076080322
 21
491.690482139587
 31
0.0
  0
LINE
  5
    56
  8
0
  6
CONTINUOUS
 62
    52
 10
193.261582374573
 20
505.565490722656
 30
0.0
 11
193.261576652527
 21
491.690482139587
 31
0.0
  0
LINE
  5
    57
  8
0
  6
CONTINUOUS
 62
    52
 10
194.724082946777
 20
505.565490722656
 30
0.0
 11
194.724077224731
 21
491.690482139587
 31
0.0
  0
LINE
  5
    58
  8
0
  6
CONTINUOUS
 62
    52
 10
196.186583518982
 20
505.565490722656
 30
0.0
 11
196.186577796936
 21
491.690482139587
 31
0.0
  0
LINE
  5
    59
  8
0
  6
CONTINUOUS
 62
    52
 10
197.649084091187
 20
505.565490722656
 30
0.0
 11
197.649078369141
 21
491.690482139587
 31
0.0
  0
LINE
  5
    5A
  8
0
  6
CONTINUOUS
 62
    52
 10
199.111584663391
 20
505.565490722656
 30
0.0
 11
199.111578941345
 21
491.690482139587
 31
0.0
  0
LINE
  5
    5B
  8
0
  6
CONTINUOUS
 62
    52
 10
200.574085235596
 20
505.565490722656
 30
0.0
 11
200.57407951355
 21
491.690482139587
 31
0.0
  0
LINE
  5
    5C
  8
0
  6
CONTINUOUS
 62
    52
 10
202.0365858078
 20
505.565490722656
 30
0.0
 11
202.036580085754
 21
491.690482139587
 31
0.0
  0
LINE
  5
    5D
  8
0
  6
CONTINUOUS
 62
    52
 10
203.499086380005
 20
505.565490722656
 30
0.0
 11
203.499080657959
 21
491.690482139587
 31
0.0
  0
LINE
  5
    5E
  8
0
  6
CONTINUOUS
 62
    52
 10
204.961584091187
 20
505.565490722656
 30
0.0
 11
204.961578369141
 21
491.690482139587
 31
0.0
  0
LINE
  5
    5F
  8
0
  6
CONTINUOUS
 62
    52
 10
206.424081802368
 20
505.565490722656
 30
0.0
 11
206.424076080322
 21
491.690482139587
 31
0.0
  0
LINE
  5
    60
  8
0
  6
CONTINUOUS
 62
    52
 10
207.88657951355
 20
505.565490722656
 30
0.0
 11
207.886573791504
 21
491.690482139587
 31
0.0
  0
LINE
  5
    61
  8
0
  6
CONTINUOUS
 62
    52
 10
209.349077224731
 20
505.565490722656
 30
0.0
 11
209.349071502686
 21
491.690482139587
 31
0.0
  0
LINE
  5
    62
  8
0
  6
CONTINUOUS
 62
    52
 10
210.811574935913
 20
505.565490722656
 30
0.0
 11
210.811569213867
 21
491.690482139587
 31
0.0
  0
LINE
  5
    63
  8
0
  6
CONTINUOUS
 62
    52
 10
212.274072647095
 20
505.565490722656
 30
0.0
 11
212.274066925049
 21
491.690482139587
 31
0.0
  0
LINE
  5
    64
  8
0
  6
CONTINUOUS
 62
    52
 10
213.736570358276
 20
505.565490722656
 30
0.0
 11
213.73656463623
 21
491.690482139587
 31
0.0
  0
LINE
  5
    65
  8
0
  6
CONTINUOUS
 62
    52
 10
215.199068069458
 20
505.565490722656
 30
0.0
 11
215.199062347412
 21
491.690482139587
 31
0.0
  0
LINE
  5
    66
  8
0
  6
CONTINUOUS
 62
    52
 10
216.66156578064
 20
505.565490722656
 30
0.0
 11
216.661560058594
 21
491.690482139587
 31
0.0
  0
LINE
  5
    67
  8
0
  6
CONTINUOUS
 62
    52
 10
218.124063491821
 20
505.565490722656
 30
0.0
 11
218.124057769775
 21
491.690482139587
 31
0.0
  0
LINE
  5
    68
  8
0
  6
CONTINUOUS
 62
    52
 10
219.586561203003
 20
505.565490722656
 30
0.0
 11
219.586555480957
 21
491.690482139587
 31
0.0
  0
LINE
  5
    69
  8
0
  6
CONTINUOUS
 62
    52
 10
221.049058914185
 20
505.565490722656
 30
0.0
 11
221.049053192139
 21
491.690482139587
 31
0.0
  0
LINE
  5
    6A
  8
0
  6
CONTINUOUS
 62
    52
 10
222.511556625366
 20
505.565490722656
 30
0.0
 11
222.51155090332
 21
491.690482139587
 31
0.0
  0
LINE
  5
    6B
  8
0
  6
CONTINUOUS
 62
    52
 10
223.974054336548
 20
505.565490722656
 30
0.0
 11
223.974048614502
 21
491.690482139587
 31
0.0
  0
LINE
  5
    6C
  8
0
  6
CONTINUOUS
 62
    52
 10
225.436552047729
 20
505.565490722656
 30
0.0
 11
225.436546325684
 21
491.690482139587
 31
0.0
  0
LINE
  5
    6D
  8
0
  6
CONTINUOUS
 62
    52
 10
226.899049758911
 20
505.565490722656
 30
0.0
 11
226.899044036865
 21
491.690482139587
 31
0.0
  0
LINE
  5
    6E
  8
0
  6
CONTINUOUS
 62
    52
 10
228.361547470093
 20
505.565490722656
 30
0.0
 11
228.361541748047
 21
491.690482139587
 31
0.0
  0
LINE
  5
    6F
  8
0
  6
CONTINUOUS
 62
    52
 10
229.824045181274
 20
505.565490722656
 30
0.0
 11
229.824039459229
 21
491.690482139587
 31
0.0
  0
LINE
  5
    70
  8
0
  6
CONTINUOUS
 62
    52
 10
231.286542892456
 20
505.565490722656
 30
0.0
 11
231.28653717041
 21
491.690482139587
 31
0.0
  0
LINE
  5
    71
  8
0
  6
CONTINUOUS
 62
    52
 10
232.749040603638
 20
505.565490722656
 30
0.0
 11
232.749034881592
 21
491.690482139587
 31
0.0
  0
LINE
  5
    72
  8
0
  6
CONTINUOUS
 62
    52
 10
234.211538314819
 20
505.565490722656
 30
0.0
 11
234.211532592773
 21
491.690482139587
 31
0.0
  0
LINE
  5
    73
  8
0
  6
CONTINUOUS
 62
    52
 10
235.674036026001
 20
505.565490722656
 30
0.0
 11
235.674030303955
 21
491.690482139587
 31
0.0
  0
LINE
  5
    74
  8
0
  6
CONTINUOUS
 62
    52
 10
237.136533737183
 20
505.565490722656
 30
0.0
 11
237.136528015137
 21
491.690482139587
 31
0.0
  0
LINE
  5
    75
  8
0
  6
CONTINUOUS
 62
    52
 10
238.599031448364
 20
505.565490722656
 30
0.0
 11
238.599025726318
 21
491.690482139587
 31
0.0
  0
LINE
  5
    76
  8
0
  6
CONTINUOUS
 62
    52
 10
240.061529159546
 20
505.565490722656
 30
0.0
 11
240.0615234375
 21
491.690482139587
 31
0.0
  0
LINE
  5
    77
  8
0
  6
CONTINUOUS
 62
    52
 10
241.524026870728
 20
505.565490722656
 30
0.0
 11
241.524021148682
 21
491.690482139587
 31
0.0
  0
LINE
  5
    78
  8
0
  6
CONTINUOUS
 62
    52
 10
242.986524581909
 20
505.565490722656
 30
0.0
 11
242.986518859863
 21
491.690482139587
 31
0.0
  0
LINE
  5
    79
  8
0
  6
CONTINUOUS
 62
    52
 10
244.449022293091
 20
505.565490722656
 30
0.0
 11
244.449016571045
 21
491.690482139587
 31
0.0
  0
LINE
  5
    7A
  8
0
  6
CONTINUOUS
 62
    52
 10
245.911520004272
 20
505.565490722656
 30
0.0
 11
245.911514282227
 21
491.690482139587
 31
0.0
  0
LINE
  5
    7B
  8
0
  6
CONTINUOUS
 62
    52
 10
247.374080657959
 20
505.565490722656
 30
0.0
 11
247.374074935913
 21
491.917867660522
 31
0.0
  0
ENDBLK
  5
    7C
  8
0
  6
CONTINUOUS
 62
     7
  0
BLOCK
  5
    7D
  8
0
  6
CONTINUOUS
 62
     7
  2
*HATCH1155
 70
    65
 10
0.0
 20
0.0
 30
0.0
  3
*HATCH1155
  0
LINE
  5
    7E
  8
0
  6
CONTINUOUS
 62
    52
 10
185.949093818665
 20
528.065490722656
 30
0.0
 11
185.949082374573
 21
506.090491294861
 31
0.0
  0
LINE
  5
    7F
  8
0
  6
CONTINUOUS
 62
    52
 10
187.411594390869
 20
528.065490722656
 30
0.0
 11
187.411582946777
 21
506.090491294861
 31
0.0
  0
LINE
  5
    80
  8
0
  6
CONTINUOUS
 62
    52
 10
188.874094963074
 20
528.065490722656
 30
0.0
 11
188.874083518982
 21
506.090491294861
 31
0.0
  0
LINE
  5
    81
  8
0
  6
CONTINUOUS
 62
    52
 10
190.336592674255
 20
528.022766709328
 30
0.0
 11
190.336584091187
 21
506.090491294861
 31
0.0
  0
ENDBLK
  5
    82
  8
0
  6
CONTINUOUS
 62
     7
  0
BLOCK
  5
    83
  8
0
  6
CONTINUOUS
 62
     7
  2
*HATCH1156
 70
    65
 10
0.0
 20
0.0
 30
0.0
  3
*HATCH1156
  0
LINE
  5
    84
  8
0
  6
CONTINUOUS
 62
    52
 10
123.061617851257
 20
577.790490150452
 30
0.0
 11
123.061586380005
 21
506.090491294861
 31
0.0
  0
LINE
  5
    85
  8
0
  6
CONTINUOUS
 62
    52
 10
124.524118423462
 20
577.790490150452
 30
0.0
 11
124.524086952209
 21
506.090491294861
 31
0.0
  0
LINE
  5
    86
  8
0
  6
CONTINUOUS
 62
    52
 10
125.986618995667
 20
577.790490150452
 30
0.0
 11
125.986587524414
 21
506.090491294861
 31
0.0
  0
LINE
  5
    87
  8
0
  6
CONTINUOUS
 62
    52
 10
127.449119567871
 20
577.790490150452
 30
0.0
 11
127.449088096619
 21
506.090491294861
 31
0.0
  0
ENDBLK
  5
    88
  8
0
  6
CONTINUOUS
 62
     7
  0
BLOCK
  5
    89
  8
0
  6
CONTINUOUS
 62
     7
  2
*HATCH1157
 70
    65
 10
0.0
 20
0.0
 30
0.0
  3
*HATCH1157
  0
LINE
  5
    8A
  8
0
  6
CONTINUOUS
 62
    52
 10
185.949116706848
 20
577.790490150452
 30
0.0
 11
185.949102401733
 21
548.315490722656
 31
0.0
  0
LINE
  5
    8B
  8
0
  6
CONTINUOUS
 62
    52
 10
187.411617279053
 20
577.790490150452
 30
0.0
 11
187.411602973938
 21
548.315490722656
 31
0.0
  0
LINE
  5
    8C
  8
0
  6
CONTINUOUS
 62
    52
 10
188.874117851257
 20
577.790490150452
 30
0.0
 11
188.874103546143
 21
548.315490722656
 31
0.0
  0
LINE
  5
    8D
  8
0
  6
CONTINUOUS
 62
    52
 10
190.336615562439
 20
577.790490150452
 30
0.0
 11
190.336604118347
 21
548.358222961426
 31
0.0
  0
ENDBLK
  5
    8E
  8
0
  6
CONTINUOUS
 62
     7
  0
BLOCK
  5
    8F
  8
0
  6
CONTINUOUS
 62
     7
  2
*HATCH1158
 70
    65
 10
0.0
 20
0.0
 30
0.0
  3
*HATCH1158
  0
LINE
  5
    90
  8
0
  6
CONTINUOUS
 62
    52
 10
123.061626434326
 20
591.821058273316
 30
0.0
 11
123.061617851257
 21
578.315487861633
 31
0.0
  0
LINE
  5
    91
  8
0
  6
CONTINUOUS
 62
    52
 10
124.524127006531
 20
592.19048500061
 30
0.0
 11
124.524118423462
 21
578.315487861633
 31
0.0
  0
LINE
  5
    92
  8
0
  6
CONTINUOUS
 62
    52
 10
125.986627578735
 20
592.19048500061
 30
0.0
 11
125.986618995667
 21
578.315487861633
 31
0.0
  0
LINE
  5
    93
  8
0
  6
CONTINUOUS
 62
    52
 10
127.44912815094
 20
592.19048500061
 30
0.0
 11
127.449119567871
 21
578.315487861633
 31
0.0
  0
LINE
  5
    94
  8
0
  6
CONTINUOUS
 62
    52
 10
128.911628723145
 20
592.19048500061
 30
0.0
 11
128.911620140076
 21
578.315487861633
 31
0.0
  0
LINE
  5
    95
  8
0
  6
CONTINUOUS
 62
    52
 10
130.374129295349
 20
592.19048500061
 30
0.0
 11
130.37412071228
 21
578.315487861633
 31
0.0
  0
LINE
  5
    96
  8
0
  6
CONTINUOUS
 62
    52
 10
131.836629867554
 20
592.19048500061
 30
0.0
 11
131.836621284485
 21
578.315487861633
 31
0.0
  0
LINE
  5
    97
  8
0
  6
CONTINUOUS
 62
    52
 10
133.299130439758
 20
592.19048500061
 30
0.0
 11
133.299121856689
 21
578.315487861633
 31
0.0
  0
LINE
  5
    98
  8
0
  6
CONTINUOUS
 62
    52
 10
134.761631011963
 20
592.19048500061
 30
0.0
 11
134.761622428894
 21
578.315487861633
 31
0.0
  0
LINE
  5
    99
  8
0
  6
CONTINUOUS
 62
    52
 10
136.224131584167
 20
592.19048500061
 30
0.0
 11
136.224123001099
 21
578.315487861633
 31
0.0
  0
LINE
  5
    9A
  8
0
  6
CONTINUOUS
 62
    52
 10
137.686632156372
 20
592.19048500061
 30
0.0
 11
137.686623573303
 21
578.315487861633
 31
0.0
  0
LINE
  5
    9B
  8
0
  6
CONTINUOUS
 62
    52
 10
139.149132728577
 20
592.19048500061
 30
0.0
 11
139.149124145508
 21
578.315487861633
 31
0.0
  0
LINE
  5
    9C
  8
0
  6
CONTINUOUS
 62
    52
 10
140.611633300781
 20
592.19048500061
 30
0.0
 11
140.611624717712
 21
578.315487861633
 31
0.0
  0
LINE
  5
    9D
  8
0
  6
CONTINUOUS
 62
    52
 10
142.074133872986
 20
592.19048500061
 30
0.0
 11
142.074125289917
 21
578.315487861633
 31
0.0
  0
LINE
  5
    9E
  8
0
  6
CONTINUOUS
 62
    52
 10
143.53663444519
 20
592.19048500061
 30
0.0
 11
143.536625862122
 21
578.315487861633
 31
0.0
  0
LINE
  5
    9F
  8
0
  6
CONTINUOUS
 62
    52
 10
144.999134302139
 20
592.19048500061
 30
0.0
 11
144.99912571907
 21
578.315487861633
 31
0.0
  0
LINE
  5
    A0
  8
0
  6
CONTINUOUS
 62
    52
 10
146.461634159088
 20
592.19048500061
 30
0.0
 11
146.461625576019
 21
578.315487861633
 31
0.0
  0
LINE
  5
    A1
  8
0
  6
CONTINUOUS
 62
    52
 10
147.924134016037
 20
592.19048500061
 30
0.0
 11
147.924125432968
 21
578.315487861633
 31
0.0
  0
LINE
  5
    A2
  8
0
  6
CONTINUOUS
 62
    52
 10
149.386633872986
 20
592.19048500061
 30
0.0
 11
149.386625289917
 21
578.315487861633
 31
0.0
  0
LINE
  5
    A3
  8
0
  6
CONTINUOUS
 62
    52
 10
150.849133729935
 20
592.19048500061
 30
0.0
 11
150.849125146866
 21
578.315487861633
 31
0.0
  0
LINE
  5
    A4
  8
0
  6
CONTINUOUS
 62
    52
 10
152.311633586884
 20
592.19048500061
 30
0.0
 11
152.311625003815
 21
578.315487861633
 31
0.0
  0
LINE
  5
    A5
  8
0
  6
CONTINUOUS
 62
    52
 10
153.774133443832
 20
592.19048500061
 30
0.0
 11
153.774124860764
 21
578.315487861633
 31
0.0
  0
LINE
  5
    A6
  8
0
  6
CONTINUOUS
 62
    52
 10
155.236633390188
 20
592.19048500061
 30
0.0
 11
155.236624807119
 21
578.315487861633
 31
0.0
  0
LINE
  5
    A7
  8
0
  6
CONTINUOUS
 62
    52
 10
156.699133336544
 20
592.19048500061
 30
0.0
 11
156.699124753475
 21
578.315487861633
 31
0.0
  0
LINE
  5
    A8
  8
0
  6
CONTINUOUS
 62
    52
 10
158.1616332829
 20
592.19048500061
 30
0.0
 11
158.161624699831
 21
578.315487861633
 31
0.0
  0
LINE
  5
    A9
  8
0
  6
CONTINUOUS
 62
    52
 10
159.624133229256
 20
592.19048500061
 30
0.0
 11
159.624124646187
 21
578.315487861633
 31
0.0
  0
LINE
  5
    AA
  8
0
  6
CONTINUOUS
 62
    52
 10
161.086633086205
 20
592.19048500061
 30
0.0
 11
161.086624503136
 21
578.315487861633
 31
0.0
  0
LINE
  5
    AB
  8
0
  6
CONTINUOUS
 62
    52
 10
162.549132943153
 20
592.19048500061
 30
0.0
 11
162.549124360085
 21
578.315487861633
 31
0.0
  0
LINE
  5
    AC
  8
0
  6
CONTINUOUS
 62
    52
 10
164.01163315773
 20
592.19048500061
 30
0.0
 11
164.011624574661
 21
578.315487861633
 31
0.0
  0
LINE
  5
    AD
  8
0
  6
CONTINUOUS
 62
    52
 10
165.474133014679
 20
592.19048500061
 30
0.0
 11
165.47412443161
 21
578.315487861633
 31
0.0
  0
LINE
  5
    AE
  8
0
  6
CONTINUOUS
 62
    52
 10
166.936632871628
 20
592.19048500061
 30
0.0
 11
166.936624288559
 21
578.315487861633
 31
0.0
  0
LINE
  5
    AF
  8
0
  6
CONTINUOUS
 62
    52
 10
168.399132728577
 20
592.19048500061
 30
0.0
 11
168.399124145508
 21
578.315487861633
 31
0.0
  0
LINE
  5
    B0
  8
0
  6
CONTINUOUS
 62
    52
 10
169.861633300781
 20
592.19048500061
 30
0.0
 11
169.861624717712
 21
578.315487861633
 31
0.0
  0
LINE
  5
    B1
  8
0
  6
CONTINUOUS
 62
    52
 10
171.324133872986
 20
592.19048500061
 30
0.0
 11
171.324125289917
 21
578.315487861633
 31
0.0
  0
LINE
  5
    B2
  8
0
  6
CONTINUOUS
 62
    52
 10
172.78663444519
 20
592.19048500061
 30
0.0
 11
172.786625862122
 21
578.315487861633
 31
0.0
  0
LINE
  5
    B3
  8
0
  6
CONTINUOUS
 62
    52
 10
174.249135017395
 20
592.19048500061
 30
0.0
 11
174.249126434326
 21
578.315487861633
 31
0.0
  0
LINE
  5
    B4
  8
0
  6
CONTINUOUS
 62
    52
 10
175.7116355896
 20
592.19048500061
 30
0.0
 11
175.711627006531
 21
578.315487861633
 31
0.0
  0
LINE
  5
    B5
  8
0
  6
CONTINUOUS
 62
    52
 10
177.174136161804
 20
592.19048500061
 30
0.0
 11
177.174127578735
 21
578.315487861633
 31
0.0
  0
LINE
  5
    B6
  8
0
  6
CONTINUOUS
 62
    52
 10
178.636636734009
 20
592.19048500061
 30
0.0
 11
178.63662815094
 21
578.315487861633
 31
0.0
  0
LINE
  5
    B7
  8
0
  6
CONTINUOUS
 62
    52
 10
180.099137306213
 20
592.19048500061
 30
0.0
 11
180.099128723145
 21
578.315487861633
 31
0.0
  0
LINE
  5
    B8
  8
0
  6
CONTINUOUS
 62
    52
 10
181.561637878418
 20
592.19048500061
 30
0.0
 11
181.561629295349
 21
578.315487861633
 31
0.0
  0
LINE
  5
    B9
  8
0
  6
CONTINUOUS
 62
    52
 10
183.024138450623
 20
592.19048500061
 30
0.0
 11
183.024129867554
 21
578.315487861633
 31
0.0
  0
LINE
  5
    BA
  8
0
  6
CONTINUOUS
 62
    52
 10
184.486639022827
 20
592.19048500061
 30
0.0
 11
184.486630439758
 21
578.315487861633
 31
0.0
  0
LINE
  5
    BB
  8
0
  6
CONTINUOUS
 62
    52
 10
185.949139595032
 20
592.19048500061
 30
0.0
 11
185.949131011963
 21
578.315487861633
 31
0.0
  0
LINE
  5
    BC
  8
0
  6
CONTINUOUS
 62
    52
 10
187.411640167236
 20
592.19048500061
 30
0.0
 11
187.411631584168
 21
578.315487861633
 31
0.0
  0
LINE
  5
    BD
  8
0
  6
CONTINUOUS
 62
    52
 10
188.874140739441
 20
592.19048500061
 30
0.0
 11
188.874132156372
 21
578.315487861633
 31
0.0
  0
LINE
  5
    BE
  8
0
  6
CONTINUOUS
 62
    52
 10
190.336624145508
 20
591.820972442627
 30
0.0
 11
190.336615562439
 21
578.31548500061
 31
0.0
  0
LINE
  5
    BF
  8
0
  6
CONTINUOUS
 62
    52
 10
191.799121856689
 20
592.190490722656
 30
0.0
 11
191.799116134644
 21
578.31548500061
 31
0.0
  0
LINE
  5
    C0
  8
0
  6
CONTINUOUS
 62
    52
 10
193.261622428894
 20
592.190490722656
 30
0.0
 11
193.261616706848
 21
578.31548500061
 31
0.0
  0
LINE
  5
    C1
  8
0
  6
CONTINUOUS
 62
    52
 10
194.724123001099
 20
592.190490722656
 30
0.0
 11
194.724117279053
 21
578.31548500061
 31
0.0
  0
LINE
  5
    C2
  8
0
  6
CONTINUOUS
 62
    52
 10
196.186623573303
 20
592.190490722656
 30
0.0
 11
196.186617851257
 21
578.31548500061
 31
0.0
  0
LINE
  5
    C3
  8
0
  6
CONTINUOUS
 62
    52
 10
197.649124145508
 20
592.190490722656
 30
0.0
 11
197.649118423462
 21
578.31548500061
 31
0.0
  0
LINE
  5
    C4
  8
0
  6
CONTINUOUS
 62
    52
 10
199.111624717712
 20
592.190490722656
 30
0.0
 11
199.111618995667
 21
578.31548500061
 31
0.0
  0
LINE
  5
    C5
  8
0
  6
CONTINUOUS
 62
    52
 10
200.574125289917
 20
592.190490722656
 30
0.0
 11
200.574119567871
 21
578.31548500061
 31
0.0
  0
LINE
  5
    C6
  8
0
  6
CONTINUOUS
 62
    52
 10
202.036625862122
 20
592.190490722656
 30
0.0
 11
202.036620140076
 21
578.31548500061
 31
0.0
  0
LINE
  5
    C7
  8
0
  6
CONTINUOUS
 62
    52
 10
203.499126434326
 20
592.190490722656
 30
0.0
 11
203.49912071228
 21
578.31548500061
 31
0.0
  0
LINE
  5
    C8
  8
0
  6
CONTINUOUS
 62
    52
 10
204.961624145508
 20
592.190490722656
 30
0.0
 11
204.961618423462
 21
578.31548500061
 31
0.0
  0
LINE
  5
    C9
  8
0
  6
CONTINUOUS
 62
    52
 10
206.424121856689
 20
592.190490722656
 30
0.0
 11
206.424116134644
 21
578.31548500061
 31
0.0
  0
LINE
  5
    CA
  8
0
  6
CONTINUOUS
 62
    52
 10
207.886619567871
 20
592.190490722656
 30
0.0
 11
207.886613845825
 21
578.31548500061
 31
0.0
  0
LINE
  5
    CB
  8
0
  6
CONTINUOUS
 62
    52
 10
209.349117279053
 20
592.190490722656
 30
0.0
 11
209.349111557007
 21
578.31548500061
 31
0.0
  0
LINE
  5
    CC
  8
0
  6
CONTINUOUS
 62
    52
 10
210.811614990234
 20
592.190490722656
 30
0.0
 11
210.811609268189
 21
578.31548500061
 31
0.0
  0
LINE
  5
    CD
  8
0
  6
CONTINUOUS
 62
    52
 10
212.274112701416
 20
592.190490722656
 30
0.0
 11
212.27410697937
 21
578.31548500061
 31
0.0
  0
LINE
  5
    CE
  8
0
  6
CONTINUOUS
 62
    52
 10
213.736610412598
 20
592.190490722656
 30
0.0
 11
213.736604690552
 21
578.31548500061
 31
0.0
  0
LINE
  5
    CF
  8
0
  6
CONTINUOUS
 62
    52
 10
215.199108123779
 20
592.190490722656
 30
0.0
 11
215.199102401733
 21
578.31548500061
 31
0.0
  0
LINE
  5
    D0
  8
0
  6
CONTINUOUS
 62
    52
 10
216.661605834961
 20
592.190490722656
 30
0.0
 11
216.661600112915
 21
578.31548500061
 31
0.0
  0
LINE
  5
    D1
  8
0
  6
CONTINUOUS
 62
    52
 10
218.124103546143
 20
592.190490722656
 30
0.0
 11
218.124097824097
 21
578.31548500061
 31
0.0
  0
LINE
  5
    D2
  8
0
  6
CONTINUOUS
 62
    52
 10
219.586601257324
 20
592.190490722656
 30
0.0
 11
219.586595535278
 21
578.31548500061
 31
0.0
  0
LINE
  5
    D3
  8
0
  6
CONTINUOUS
 62
    52
 10
221.049098968506
 20
592.190490722656
 30
0.0
 11
221.04909324646
 21
578.31548500061
 31
0.0
  0
LINE
  5
    D4
  8
0
  6
CONTINUOUS
 62
    52
 10
222.511596679688
 20
592.190490722656
 30
0.0
 11
222.511590957642
 21
578.31548500061
 31
0.0
  0
LINE
  5
    D5
  8
0
  6
CONTINUOUS
 62
    52
 10
223.974094390869
 20
592.190490722656
 30
0.0
 11
223.974088668823
 21
578.31548500061
 31
0.0
  0
LINE
  5
    D6
  8
0
  6
CONTINUOUS
 62
    52
 10
225.436592102051
 20
592.190490722656
 30
0.0
 11
225.436586380005
 21
578.31548500061
 31
0.0
  0
LINE
  5
    D7
  8
0
  6
CONTINUOUS
 62
    52
 10
226.899089813232
 20
592.190490722656
 30
0.0
 11
226.899084091187
 21
578.31548500061
 31
0.0
  0
LINE
  5
    D8
  8
0
  6
CONTINUOUS
 62
    52
 10
228.361587524414
 20
592.190490722656
 30
0.0
 11
228.361581802368
 21
578.31548500061
 31
0.0
  0
LINE
  5
    D9
  8
0
  6
CONTINUOUS
 62
    52
 10
229.824085235596
 20
592.190490722656
 30
0.0
 11
229.82407951355
 21
578.31548500061
 31
0.0
  0
LINE
  5
    DA
  8
0
  6
CONTINUOUS
 62
    52
 10
231.286582946777
 20
592.190490722656
 30
0.0
 11
231.286577224731
 21
578.31548500061
 31
0.0
  0
LINE
  5
    DB
  8
0
  6
CONTINUOUS
 62
    52
 10
232.749080657959
 20
592.190490722656
 30
0.0
 11
232.749074935913
 21
578.31548500061
 31
0.0
  0
LINE
  5
    DC
  8
0
  6
CONTINUOUS
 62
    52
 10
234.211578369141
 20
592.190490722656
 30
0.0
 11
234.211572647095
 21
578.31548500061
 31
0.0
  0
LINE
  5
    DD
  8
0
  6
CONTINUOUS
 62
    52
 10
235.674076080322
 20
592.190490722656
 30
0.0
 11
235.674070358276
 21
578.31548500061
 31
0.0
  0
LINE
  5
    DE
  8
0
  6
CONTINUOUS
 62
    52
 10
237.136573791504
 20
592.190490722656
 30
0.0
 11
237.136568069458
 21
578.31548500061
 31
0.0
  0
LINE
  5
    DF
  8
0
  6
CONTINUOUS
 62
    52
 10
238.599071502686
 20
592.190490722656
 30
0.0
 11
238.59906578064
 21
578.31548500061
 31
0.0
  0
LINE
  5
    E0
  8
0
  6
CONTINUOUS
 62
    52
 10
240.061569213867
 20
592.190490722656
 30
0.0
 11
240.061563491821
 21
578.31548500061
 31
0.0
  0
LINE
  5
    E1
  8
0
  6
CONTINUOUS
 62
    52
 10
241.524066925049
 20
592.190490722656
 30
0.0
 11
241.524061203003
 21
578.31548500061
 31
0.0
  0
LINE
  5
    E2
  8
0
  6
CONTINUOUS
 62
    52
 10
242.98656463623
 20
592.190490722656
 30
0.0
 11
242.986558914185
 21
578.31548500061
 31
0.0
  0
LINE
  5
    E3
  8
0
  6
CONTINUOUS
 62
    52
 10
244.449062347412
 20
592.190490722656
 30
0.0
 11
244.449056625366
 21
578.31548500061
 31
0.0
  0
LINE
  5
    E4
  8
0
  6
CONTINUOUS
 62
    52
 10
245.911560058594
 20
592.190490722656
 30
0.0
 11
245.911554336548
 21
578.31548500061
 31
0.0
  0
LINE
  5
    E5
  8
0
  6
CONTINUOUS
 62
    52
 10
247.37412071228
 20
591.963085174561
 30
0.0
 11
247.374114990234
 21
578.315490722656
 31
0.0
  0
ENDBLK
  5
    E6
  8
0
  6
CONTINUOUS
 62
     7
  0
BLOCK
  5
    E7
  8
0
  6
CONTINUOUS
 62
     7
  2
*UDIM1337
 70
    65
 10
0.0
 20
0.0
 30
0.0
  3
*UDIM1337
  0
LINE
  5
    E8
  8
0
  6
CONTINUOUS
 62
     7
 10
190.449096679732
 20
578.790490150452
 30
0.0
 11
190.449096679732
 21
622.989632340943
 31
0.0
  0
LINE
  5
    E9
  8
0
  6
CONTINUOUS
 62
     7
 10
247.599096679687
 20
578.790490150452
 30
0.0
 11
247.599096679687
 21
622.989632340943
 31
0.0
  0
LINE
  5
    EA
  8
0
  6
CONTINUOUS
 62
     7
 10
190.449096679732
 20
620.989632340943
 30
0.0
 11
247.599096679687
 21
620.989632340943
 31
0.0
  0
LINE
  5
    EB
  8
0
  6
CONTINUOUS
 62
     7
 10
193.346874152942
 20
621.766089497361
 30
0.0
 11
190.449096679732
 21
620.989632340943
 31
0.0
  0
LINE
  5
    EC
  8
0
  6
CONTINUOUS
 62
     7
 10
190.449096679732
 20
620.989632340943
 30
0.0
 11
193.346874152942
 21
620.213175184524
 31
0.0
  0
LINE
  5
    ED
  8
0
  6
CONTINUOUS
 62
     7
 10
244.701319206477
 20
620.213175184524
 30
0.0
 11
247.599096679687
 21
620.989632340943
 31
0.0
  0
LINE
  5
    EE
  8
0
  6
CONTINUOUS
 62
     7
 10
247.599096679687
 20
620.989632340943
 30
0.0
 11
244.701319206477
 21
621.766089497361
 31
0.0
  0
TEXT
  5
    EF
  8
0
  6
CONTINUOUS
 62
     7
 10
213.724096442781
 20
621.989632340943
 30
0.0
 40
3.00000013411045
  1
76,2
 41
0.933333333333333
 72
     1
 11
219.024096679709
 21
623.489632407998
 31
0.0
 73
     2
  0
ENDBLK
  5
    F0
  8
0
  6
CONTINUOUS
 62
     7
  0
BLOCK
  5
    F1
  8
0
  6
CONTINUOUS
 62
     7
  2
*HATCH1159
 70
    65
 10
0.0
 20
0.0
 30
0.0
  3
*HATCH1159
  0
LINE
  5
    F2
  8
0
  6
CONTINUOUS
 62
    52
 10
101.574085235596
 20
505.565490722656
 30
0.0
 11
101.57407951355
 21
491.690490722656
 31
0.0
  0
LINE
  5
    F3
  8
0
  6
CONTINUOUS
 62
    52
 10
102.699085235596
 20
505.565490722656
 30
0.0
 11
102.69907951355
 21
491.690490722656
 31
0.0
  0
LINE
  5
    F4
  8
0
  6
CONTINUOUS
 62
    52
 10
103.824085235596
 20
505.565490722656
 30
0.0
 11
103.82407951355
 21
491.690490722656
 31
0.0
  0
LINE
  5
    F5
  8
0
  6
CONTINUOUS
 62
    52
 10
104.949085235596
 20
505.565490722656
 30
0.0
 11
104.94907951355
 21
491.690490722656
 31
0.0
  0
LINE
  5
    F6
  8
0
  6
CONTINUOUS
 62
    52
 10
106.074085235596
 20
505.565490722656
 30
0.0
 11
106.07407951355
 21
491.690490722656
 31
0.0
  0
LINE
  5
    F7
  8
0
  6
CONTINUOUS
 62
    52
 10
107.199085235596
 20
505.565490722656
 30
0.0
 11
107.19907951355
 21
491.690490722656
 31
0.0
  0
LINE
  5
    F8
  8
0
  6
CONTINUOUS
 62
    52
 10
108.324085235596
 20
505.565490722656
 30
0.0
 11
108.32407951355
 21
491.690490722656
 31
0.0
  0
LINE
  5
    F9
  8
0
  6
CONTINUOUS
 62
    52
 10
109.449085235596
 20
505.565490722656
 30
0.0
 11
109.44907951355
 21
491.690490722656
 31
0.0
  0
LINE
  5
    FA
  8
0
  6
CONTINUOUS
 62
    52
 10
110.574085235596
 20
505.565490722656
 30
0.0
 11
110.57407951355
 21
491.690490722656
 31
0.0
  0
LINE
  5
    FB
  8
0
  6
CONTINUOUS
 62
    52
 10
111.699085235596
 20
505.565490722656
 30
0.0
 11
111.69907951355
 21
491.690490722656
 31
0.0
  0
LINE
  5
    FC
  8
0
  6
CONTINUOUS
 62
    52
 10
112.824085235596
 20
505.565490722656
 30
0.0
 11
112.82407951355
 21
491.690490722656
 31
0.0
  0
LINE
  5
    FD
  8
0
  6
CONTINUOUS
 62
    52
 10
113.949085235596
 20
505.565490722656
 30
0.0
 11
113.94907951355
 21
491.690490722656
 31
0.0
  0
LINE
  5
    FE
  8
0
  6
CONTINUOUS
 62
    52
 10
115.074085235596
 20
505.565490722656
 30
0.0
 11
115.07407951355
 21
491.690490722656
 31
0.0
  0
LINE
  5
    FF
  8
0
  6
CONTINUOUS
 62
    52
 10
116.199085235596
 20
505.565490722656
 30
0.0
 11
116.19907951355
 21
491.690490722656
 31
0.0
  0
LINE
  5
   100
  8
0
  6
CONTINUOUS
 62
    52
 10
117.324085235596
 20
505.565490722656
 30
0.0
 11
117.32407951355
 21
491.690490722656
 31
0.0
  0
LINE
  5
   101
  8
0
  6
CONTINUOUS
 62
    52
 10
118.449085235596
 20
505.565490722656
 30
0.0
 11
118.44907951355
 21
491.690490722656
 31
0.0
  0
ENDBLK
  5
   102
  8
0
  6
CONTINUOUS
 62
     7
  0
BLOCK
  5
   103
  8
0
  6
CONTINUOUS
 62
     7
  2
*HATCH1160
 70
    65
 10
0.0
 20
0.0
 30
0.0
  3
*HATCH1160
  0
LINE
  5
   104
  8
0
  6
CONTINUOUS
 62
    52
 10
100.449119567871
 20
577.790490150452
 30
0.0
 11
100.449096679688
 21
532.565598529527
 31
0.0
  0
LINE
  5
   105
  8
0
  6
CONTINUOUS
 62
    52
 10
101.574119567871
 20
577.790490150452
 30
0.0
 11
101.574085235596
 21
506.090491294861
 31
0.0
  0
LINE
  5
   106
  8
0
  6
CONTINUOUS
 62
    52
 10
102.699119567871
 20
577.790490150452
 30
0.0
 11
102.699085235596
 21
506.090491294861
 31
0.0
  0
LINE
  5
   107
  8
0
  6
CONTINUOUS
 62
    52
 10
103.824119567871
 20
577.790490150452
 30
0.0
 11
103.824085235596
 21
506.090491294861
 31
0.0
  0
LINE
  5
   108
  8
0
  6
CONTINUOUS
 62
    52
 10
104.949119567871
 20
577.790490150452
 30
0.0
 11
104.949085235596
 21
506.090491294861
 31
0.0
  0
LINE
  5
   109
  8
0
  6
CONTINUOUS
 62
    52
 10
106.074119567871
 20
577.790490150452
 30
0.0
 11
106.074085235596
 21
506.090491294861
 31
0.0
  0
LINE
  5
   10A
  8
0
  6
CONTINUOUS
 62
    52
 10
107.199119567871
 20
577.790490150452
 30
0.0
 11
107.199085235596
 21
506.090491294861
 31
0.0
  0
LINE
  5
   10B
  8
0
  6
CONTINUOUS
 62
    52
 10
108.324119567871
 20
577.790490150452
 30
0.0
 11
108.324085235596
 21
506.090491294861
 31
0.0
  0
LINE
  5
   10C
  8
0
  6
CONTINUOUS
 62
    52
 10
109.449119567871
 20
577.790490150452
 30
0.0
 11
109.449085235596
 21
506.090491294861
 31
0.0
  0
LINE
  5
   10D
  8
0
  6
CONTINUOUS
 62
    52
 10
110.574119567871
 20
577.790490150452
 30
0.0
 11
110.574085235596
 21
506.090491294861
 31
0.0
  0
LINE
  5
   10E
  8
0
  6
CONTINUOUS
 62
    52
 10
111.699119567871
 20
577.790490150452
 30
0.0
 11
111.699085235596
 21
506.090491294861
 31
0.0
  0
LINE
  5
   10F
  8
0
  6
CONTINUOUS
 62
    52
 10
112.824119567871
 20
577.790490150452
 30
0.0
 11
112.824085235596
 21
506.090491294861
 31
0.0
  0
LINE
  5
   110
  8
0
  6
CONTINUOUS
 62
    52
 10
113.949119567871
 20
577.790490150452
 30
0.0
 11
113.949085235596
 21
506.090491294861
 31
0.0
  0
LINE
  5
   111
  8
0
  6
CONTINUOUS
 62
    52
 10
115.074119567871
 20
577.790490150452
 30
0.0
 11
115.074085235596
 21
506.090491294861
 31
0.0
  0
LINE
  5
   112
  8
0
  6
CONTINUOUS
 62
    52
 10
116.199119567871
 20
577.790490150452
 30
0.0
 11
116.199085235596
 21
506.090491294861
 31
0.0
  0
LINE
  5
   113
  8
0
  6
CONTINUOUS
 62
    52
 10
117.324119567871
 20
577.790490150452
 30
0.0
 11
117.324085235596
 21
506.090491294861
 31
0.0
  0
LINE
  5
   114
  8
0
  6
CONTINUOUS
 62
    52
 10
118.449119567871
 20
577.790490150452
 30
0.0
 11
118.449085235596
 21
506.090491294861
 31
0.0
  0
ENDBLK
  5
   115
  8
0
  6
CONTINUOUS
 62
     7
  0
BLOCK
  5
   116
  8
0
  6
CONTINUOUS
 62
     7
  2
*HATCH1161
 70
    65
 10
0.0
 20
0.0
 30
0.0
  3
*HATCH1161
  0
LINE
  5
   117
  8
0
  6
CONTINUOUS
 62
    52
 10
100.449125289917
 20
591.440656661987
 30
0.0
 11
100.449119567871
 21
578.315487861633
 31
0.0
  0
LINE
  5
   118
  8
0
  6
CONTINUOUS
 62
    52
 10
101.574125289917
 20
592.19048500061
 30
0.0
 11
101.574119567871
 21
578.315487861633
 31
0.0
  0
LINE
  5
   119
  8
0
  6
CONTINUOUS
 62
    52
 10
102.699125289917
 20
592.19048500061
 30
0.0
 11
102.699119567871
 21
578.315487861633
 31
0.0
  0
LINE
  5
   11A
  8
0
  6
CONTINUOUS
 62
    52
 10
103.824125289917
 20
592.19048500061
 30
0.0
 11
103.824119567871
 21
578.315487861633
 31
0.0
  0
LINE
  5
   11B
  8
0
  6
CONTINUOUS
 62
    52
 10
104.949125289917
 20
592.19048500061
 30
0.0
 11
104.949119567871
 21
578.315487861633
 31
0.0
  0
LINE
  5
   11C
  8
0
  6
CONTINUOUS
 62
    52
 10
106.074125289917
 20
592.19048500061
 30
0.0
 11
106.074119567871
 21
578.315487861633
 31
0.0
  0
LINE
  5
   11D
  8
0
  6
CONTINUOUS
 62
    52
 10
107.199125289917
 20
592.19048500061
 30
0.0
 11
107.199119567871
 21
578.315487861633
 31
0.0
  0
LINE
  5
   11E
  8
0
  6
CONTINUOUS
 62
    52
 10
108.324125289917
 20
592.19048500061
 30
0.0
 11
108.324119567871
 21
578.315487861633
 31
0.0
  0
LINE
  5
   11F
  8
0
  6
CONTINUOUS
 62
    52
 10
109.449125289917
 20
592.19048500061
 30
0.0
 11
109.449119567871
 21
578.315487861633
 31
0.0
  0
LINE
  5
   120
  8
0
  6
CONTINUOUS
 62
    52
 10
110.574125289917
 20
592.19048500061
 30
0.0
 11
110.574119567871
 21
578.315487861633
 31
0.0
  0
LINE
  5
   121
  8
0
  6
CONTINUOUS
 62
    52
 10
111.699125289917
 20
592.19048500061
 30
0.0
 11
111.699119567871
 21
578.315487861633
 31
0.0
  0
LINE
  5
   122
  8
0
  6
CONTINUOUS
 62
    52
 10
112.824125289917
 20
592.19048500061
 30
0.0
 11
112.824119567871
 21
578.315487861633
 31
0.0
  0
LINE
  5
   123
  8
0
  6
CONTINUOUS
 62
    52
 10
113.949125289917
 20
592.19048500061
 30
0.0
 11
113.949119567871
 21
578.315487861633
 31
0.0
  0
LINE
  5
   124
  8
0
  6
CONTINUOUS
 62
    52
 10
115.074125289917
 20
592.19048500061
 30
0.0
 11
115.074119567871
 21
578.315487861633
 31
0.0
  0
LINE
  5
   125
  8
0
  6
CONTINUOUS
 62
    52
 10
116.199125289917
 20
592.19048500061
 30
0.0
 11
116.199119567871
 21
578.315487861633
 31
0.0
  0
LINE
  5
   126
  8
0
  6
CONTINUOUS
 62
    52
 10
117.324125289917
 20
592.19048500061
 30
0.0
 11
117.324119567871
 21
578.315487861633
 31
0.0
  0
LINE
  5
   127
  8
0
  6
CONTINUOUS
 62
    52
 10
118.449125289917
 20
592.19048500061
 30
0.0
 11
118.449119567871
 21
578.315487861633
 31
0.0
  0
ENDBLK
  5
   128
  8
0
  6
CONTINUOUS
 62
     7
  0
BLOCK
  5
   129
  8
0
  6
CONTINUOUS
 62
     7
  2
*UDIM1338
 70
    65
 10
0.0
 20
0.0
 30
0.0
  3
*UDIM1338
  0
LINE
  5
   12A
  8
0
  6
CONTINUOUS
 62
     7
 10
128.124096679692
 20
555.690490722656
 30
0.0
 11
128.124096679692
 21
567.548059769095
 31
0.0
  0
LINE
  5
   12B
  8
0
  6
CONTINUOUS
 62
     7
 10
185.274096679688
 20
555.690490722656
 30
0.0
 11
185.274096679688
 21
567.548059769095
 31
0.0
  0
LINE
  5
   12C
  8
0
  6
CONTINUOUS
 62
     7
 10
128.124096679692
 20
565.548059769095
 30
0.0
 11
185.274096679688
 21
565.548059769095
 31
0.0
  0
LINE
  5
   12D
  8
0
  6
CONTINUOUS
 62
     7
 10
131.021874152903
 20
566.324516925513
 30
0.0
 11
128.124096679692
 21
565.548059769095
 31
0.0
  0
LINE
  5
   12E
  8
0
  6
CONTINUOUS
 62
     7
 10
128.124096679692
 20
565.548059769095
 30
0.0
 11
131.021874152903
 21
564.771602612676
 31
0.0
  0
LINE
  5
   12F
  8
0
  6
CONTINUOUS
 62
     7
 10
182.376319206477
 20
564.771602612676
 30
0.0
 11
185.274096679688
 21
565.548059769095
 31
0.0
  0
LINE
  5
   130
  8
0
  6
CONTINUOUS
 62
     7
 10
185.274096679688
 20
565.548059769095
 30
0.0
 11
182.376319206477
 21
566.324516925513
 31
0.0
  0
TEXT
  5
   131
  8
0
  6
CONTINUOUS
 62
     7
 10
151.399096442761
 20
566.548059769095
 30
0.0
 40
3.00000013411045
  1
76,2
 41
0.933333333333333
 72
     1
 11
156.69909667969
 21
568.04805983615
 31
0.0
 73
     2
  0
TEXT
  5
   132
  8
0
  6
CONTINUOUS
 62
     7
 10
152.799096505346
 20
562.548059634984
 30
0.0
 40
3.00000013411045
  1
= =
 41
0.933333333333333
 72
     1
 11
156.69909667969
 21
564.048059702039
 31
0.0
 73
     2
  0
ENDBLK
  5
   133
  8
0
  6
CONTINUOUS
 62
     7
  0
BLOCK
  5
   134
  8
0
  6
CONTINUOUS
 62
     7
  2
*UDIM1339
 70
    65
 10
0.0
 20
0.0
 30
0.0
  3
*UDIM1339
  0
LINE
  5
   135
  8
0
  6
CONTINUOUS
 62
     7
 10
156.699096679688
 20
603.145025801508
 30
0.0
 11
156.699096679688
 21
606.016723453417
 31
0.0
  0
LINE
  5
   136
  8
0
  6
CONTINUOUS
 62
     7
 10
179.199096679688
 20
585.802990729925
 30
0.0
 11
179.199096679688
 21
606.016723453417
 31
0.0
  0
LINE
  5
   137
  8
0
  6
CONTINUOUS
 62
     7
 10
156.699096679688
 20
604.016723453417
 30
0.0
 11
179.199096679688
 21
604.016723453417
 31
0.0
  0
LINE
  5
   138
  8
0
  6
CONTINUOUS
 62
     7
 10
159.596874152898
 20
604.793180609836
 30
0.0
 11
156.699096679688
 21
604.016723453417
 31
0.0
  0
LINE
  5
   139
  8
0
  6
CONTINUOUS
 62
     7
 10
156.699096679688
 20
604.016723453417
 30
0.0
 11
159.596874152898
 21
603.240266296999
 31
0.0
  0
LINE
  5
   13A
  8
0
  6
CONTINUOUS
 62
     7
 10
176.301319206477
 20
603.240266296999
 30
0.0
 11
179.199096679688
 21
604.016723453417
 31
0.0
  0
LINE
  5
   13B
  8
0
  6
CONTINUOUS
 62
     7
 10
179.199096679688
 20
604.016723453417
 30
0.0
 11
176.301319206477
 21
604.793180609836
 31
0.0
  0
TEXT
  5
   13C
  8
0
  6
CONTINUOUS
 62
     7
 10
165.449096567929
 20
605.016723453417
 30
0.0
 40
3.00000013411045
  1
30
 41
0.933333333333333
 72
     1
 11
167.949096679688
 21
606.516723520472
 31
0.0
 73
     2
  0
ENDBLK
  5
   13D
  8
0
  6
CONTINUOUS
 62
     7
  0
BLOCK
  5
   13E
  8
0
  6
CONTINUOUS
 62
     7
  2
*UDIM1340
 70
    65
 10
0.0
 20
0.0
 30
0.0
  3
*UDIM1340
  0
LINE
  5
   13F
  8
0
  6
CONTINUOUS
 62
     7
 10
134.199096679687
 20
585.802990729925
 30
0.0
 11
134.199096679687
 21
606.016723453417
 31
0.0
  0
LINE
  5
   140
  8
0
  6
CONTINUOUS
 62
     7
 10
156.699096679688
 20
603.145025801508
 30
0.0
 11
156.699096679688
 21
606.016723453417
 31
0.0
  0
LINE
  5
   141
  8
0
  6
CONTINUOUS
 62
     7
 10
134.199096679687
 20
604.016723453417
 30
0.0
 11
156.699096679688
 21
604.016723453417
 31
0.0
  0
LINE
  5
   142
  8
0
  6
CONTINUOUS
 62
     7
 10
137.096874152898
 20
604.793180609836
 30
0.0
 11
134.199096679687
 21
604.016723453417
 31
0.0
  0
LINE
  5
   143
  8
0
  6
CONTINUOUS
 62
     7
 10
134.199096679687
 20
604.016723453417
 30
0.0
 11
137.096874152898
 21
603.240266296999
 31
0.0
  0
LINE
  5
   144
  8
0
  6
CONTINUOUS
 62
     7
 10
153.801319206477
 20
603.240266296999
 30
0.0
 11
156.699096679688
 21
604.016723453417
 31
0.0
  0
LINE
  5
   145
  8
0
  6
CONTINUOUS
 62
     7
 10
156.699096679688
 20
604.016723453417
 30
0.0
 11
153.801319206477
 21
604.793180609836
 31
0.0
  0
TEXT
  5
   146
  8
0
  6
CONTINUOUS
 62
     7
 10
142.949096567929
 20
605.016723453417
 30
0.0
 40
3.00000013411045
  1
30
 41
0.933333333333333
 72
     1
 11
145.449096679687
 21
606.516723520472
 31
0.0
 73
     2
  0
ENDBLK
  5
   147
  8
0
  6
CONTINUOUS
 62
     7
  0
BLOCK
  5
   148
  8
0
  6
CONTINUOUS
 62
     7
  2
*UDIM1341
 70
    65
 10
0.0
 20
0.0
 30
0.0
  3
*UDIM1341
  0
LINE
  5
   149
  8
0
  6
CONTINUOUS
 62
     7
 10
111.699096679687
 20
585.802990729925
 30
0.0
 11
111.699096679687
 21
606.016723453417
 31
0.0
  0
LINE
  5
   14A
  8
0
  6
CONTINUOUS
 62
     7
 10
134.199096679687
 20
585.802990729925
 30
0.0
 11
134.199096679687
 21
606.016723453417
 31
0.0
  0
LINE
  5
   14B
  8
0
  6
CONTINUOUS
 62
     7
 10
111.699096679687
 20
604.016723453417
 30
0.0
 11
134.199096679687
 21
604.016723453417
 31
0.0
  0
LINE
  5
   14C
  8
0
  6
CONTINUOUS
 62
     7
 10
114.596874152898
 20
604.793180609836
 30
0.0
 11
111.699096679687
 21
604.016723453417
 31
0.0
  0
LINE
  5
   14D
  8
0
  6
CONTINUOUS
 62
     7
 10
111.699096679687
 20
604.016723453417
 30
0.0
 11
114.596874152898
 21
603.240266296999
 31
0.0
  0
LINE
  5
   14E
  8
0
  6
CONTINUOUS
 62
     7
 10
131.301319206477
 20
603.240266296999
 30
0.0
 11
134.199096679687
 21
604.016723453417
 31
0.0
  0
LINE
  5
   14F
  8
0
  6
CONTINUOUS
 62
     7
 10
134.199096679687
 20
604.016723453417
 30
0.0
 11
131.301319206477
 21
604.793180609836
 31
0.0
  0
TEXT
  5
   150
  8
0
  6
CONTINUOUS
 62
     7
 10
120.449096567929
 20
605.016723453417
 30
0.0
 40
3.00000013411045
  1
30
 41
0.933333333333333
 72
     1
 11
122.949096679687
 21
606.516723520472
 31
0.0
 73
     2
  0
ENDBLK
  5
   151
  8
0
  6
CONTINUOUS
 62
     7
  0
BLOCK
  5
   152
  8
0
  6
CONTINUOUS
 62
     7
  2
*UDIM1342
 70
    65
 10
0.0
 20
0.0
 30
0.0
  3
*UDIM1342
  0
LINE
  5
   153
  8
0
  6
CONTINUOUS
 62
     7
 10
122.949096679732
 20
578.790490150452
 30
0.0
 11
122.949096679732
 21
614.594412347828
 31
0.0
  0
LINE
  5
   154
  8
0
  6
CONTINUOUS
 62
     7
 10
190.449096679732
 20
578.790490150452
 30
0.0
 11
190.449096679732
 21
614.594412347828
 31
0.0
  0
LINE
  5
   155
  8
0
  6
CONTINUOUS
 62
     7
 10
122.949096679732
 20
612.594412347828
 30
0.0
 11
190.449096679732
 21
612.594412347828
 31
0.0
  0
LINE
  5
   156
  8
0
  6
CONTINUOUS
 62
     7
 10
125.846874152942
 20
613.370869504247
 30
0.0
 11
122.949096679732
 21
612.594412347828
 31
0.0
  0
LINE
  5
   157
  8
0
  6
CONTINUOUS
 62
     7
 10
122.949096679732
 20
612.594412347828
 30
0.0
 11
125.846874152942
 21
611.81795519141
 31
0.0
  0
LINE
  5
   158
  8
0
  6
CONTINUOUS
 62
     7
 10
187.551319206521
 20
611.81795519141
 30
0.0
 11
190.449096679732
 21
612.594412347828
 31
0.0
  0
LINE
  5
   159
  8
0
  6
CONTINUOUS
 62
     7
 10
190.449096679732
 20
612.594412347828
 30
0.0
 11
187.551319206521
 21
613.370869504247
 31
0.0
  0
TEXT
  5
   15A
  8
0
  6
CONTINUOUS
 62
     7
 10
154.199096567973
 20
613.594412347828
 30
0.0
 40
3.00000013411045
  1
90
 41
0.933333333333333
 72
     1
 11
156.699096679732
 21
615.094412414884
 31
0.0
 73
     2
  0
ENDBLK
  5
   15B
  8
0
  6
CONTINUOUS
 62
     7
  0
BLOCK
  5
   15C
  8
0
  6
CONTINUOUS
 62
     7
  2
*UDIM1343
 70
    65
 10
0.0
 20
0.0
 30
0.0
  3
*UDIM1343
  0
LINE
  5
   15D
  8
0
  6
CONTINUOUS
 62
     7
 10
100.449096679732
 20
578.790490150452
 30
0.0
 11
100.449096679732
 21
622.989632340943
 31
0.0
  0
LINE
  5
   15E
  8
0
  6
CONTINUOUS
 62
     7
 10
190.449096679732
 20
578.790490150452
 30
0.0
 11
190.449096679732
 21
622.989632340943
 31
0.0
  0
LINE
  5
   15F
  8
0
  6
CONTINUOUS
 62
     7
 10
100.449096679732
 20
620.989632340943
 30
0.0
 11
190.449096679732
 21
620.989632340943
 31
0.0
  0
LINE
  5
   160
  8
0
  6
CONTINUOUS
 62
     7
 10
103.346874152942
 20
621.766089497361
 30
0.0
 11
100.449096679732
 21
620.989632340943
 31
0.0
  0
LINE
  5
   161
  8
0
  6
CONTINUOUS
 62
     7
 10
100.449096679732
 20
620.989632340943
 30
0.0
 11
103.346874152942
 21
620.213175184524
 31
0.0
  0
LINE
  5
   162
  8
0
  6
CONTINUOUS
 62
     7
 10
187.551319206521
 20
620.213175184524
 30
0.0
 11
190.449096679732
 21
620.989632340943
 31
0.0
  0
LINE
  5
   163
  8
0
  6
CONTINUOUS
 62
     7
 10
190.449096679732
 20
620.989632340943
 30
0.0
 11
187.551319206521
 21
621.766089497361
 31
0.0
  0
TEXT
  5
   164
  8
0
  6
CONTINUOUS
 62
     7
 10
141.549096505388
 20
621.989632340943
 30
0.0
 40
3.00000013411045
  1
120
 41
0.933333333333333
 72
     1
 11
145.449096679732
 21
623.489632407998
 31
0.0
 73
     2
  0
ENDBLK
  5
   165
  8
0
  6
CONTINUOUS
 62
     7
  0
BLOCK
  5
   166
  8
0
  6
CONTINUOUS
 62
     7
  2
*UDIM1344
 70
    65
 10
0.0
 20
0.0
 30
0.0
  3
*UDIM1344
  0
LINE
  5
   167
  8
0
  6
CONTINUOUS
 62
     7
 10
90.9589292612397
 20
541.940490722656
 30
0.0
 11
85.8723817688631
 21
541.940490722656
 31
0.0
  0
LINE
  5
   168
  8
0
  6
CONTINUOUS
 62
     7
 10
100.199096679688
 20
592.190486770467
 30
0.0
 11
85.8723817688631
 21
592.190485866289
 31
0.0
  0
LINE
  5
   169
  8
0
  6
CONTINUOUS
 62
     7
 10
87.8723817688631
 20
541.940490722656
 30
0.0
 11
87.8723817688631
 21
592.190485992512
 31
0.0
  0
LINE
  5
   16A
  8
0
  6
CONTINUOUS
 62
     7
 10
87.0959246124445
 20
544.838268195867
 30
0.0
 11
87.8723817688631
 21
541.940490722656
 31
0.0
  0
LINE
  5
   16B
  8
0
  6
CONTINUOUS
 62
     7
 10
87.8723817688631
 20
541.940490722656
 30
0.0
 11
88.6488389252816
 21
544.838268195867
 31
0.0
  0
LINE
  5
   16C
  8
0
  6
CONTINUOUS
 62
     7
 10
88.6488389252816
 20
589.292708519301
 30
0.0
 11
87.8723817688631
 21
592.190485992512
 31
0.0
  0
LINE
  5
   16D
  8
0
  6
CONTINUOUS
 62
     7
 10
87.8723817688631
 20
592.190485992512
 30
0.0
 11
87.0959246124445
 21
589.292708519301
 31
0.0
  0
TEXT
  5
   16E
  8
0
  6
CONTINUOUS
 62
     7
 10
86.8723817688662
 20
564.565488245827
 30
0.0
 40
3.00000013411045
  1
67
 50
90.0
 41
0.933333333333333
 72
     1
 11
85.3723817018079
 21
567.065488357584
 31
0.0
 73
     2
  0
ENDBLK
  5
   16F
  8
0
  6
CONTINUOUS
 62
     7
  0
BLOCK
  5
   170
  8
0
  6
CONTINUOUS
 62
     7
  2
*UDIM1345
 70
    65
 10
0.0
 20
0.0
 30
0.0
  3
*UDIM1345
  0
LINE
  5
   171
  8
0
  6
CONTINUOUS
 62
     7
 10
100.199096679688
 20
491.690490729771
 30
0.0
 11
76.558934589002
 21
491.690490897976
 31
0.0
  0
LINE
  5
   172
  8
0
  6
CONTINUOUS
 62
     7
 10
100.199096679688
 20
592.19048683612
 30
0.0
 11
76.558934589002
 21
592.190486896193
 31
0.0
  0
LINE
  5
   173
  8
0
  6
CONTINUOUS
 62
     7
 10
78.558934589002
 20
491.690490883745
 30
0.0
 11
78.558934589002
 21
592.19048689111
 31
0.0
  0
LINE
  5
   174
  8
0
  6
CONTINUOUS
 62
     7
 10
77.7824774325834
 20
494.588268356956
 30
0.0
 11
78.558934589002
 21
491.690490883745
 31
0.0
  0
LINE
  5
   175
  8
0
  6
CONTINUOUS
 62
     7
 10
78.558934589002
 20
491.690490883745
 30
0.0
 11
79.3353917454205
 21
494.588268356956
 31
0.0
  0
LINE
  5
   176
  8
0
  6
CONTINUOUS
 62
     7
 10
79.3353917454205
 20
589.2927094179
 30
0.0
 11
78.558934589002
 21
592.19048689111
 31
0.0
  0
LINE
  5
   177
  8
0
  6
CONTINUOUS
 62
     7
 10
78.558934589002
 20
592.19048689111
 30
0.0
 11
77.7824774325834
 21
589.2927094179
 31
0.0
  0
TEXT
  5
   178
  8
0
  6
CONTINUOUS
 62
     7
 10
77.5589345890069
 20
538.040488713086
 30
0.0
 40
3.00000013411045
  1
134
 50
90.0
 41
0.933333333333333
 72
     1
 11
76.0589345219467
 21
541.940488887428
 31
0.0
 73
     2
  0
ENDBLK
  5
   179
  8
0
  6
CONTINUOUS
 62
     7
  0
BLOCK
  5
   17A
  8
0
  6
CONTINUOUS
 62
     7
  2
*UDIM1346
 70
    65
 10
0.0
 20
0.0
 30
0.0
  3
*UDIM1346
  0
LINE
  5
   17B
  8
0
  6
CONTINUOUS
 62
     7
 10
332.699464866979
 20
499.543052266684
 30
0.0
 11
332.699464866979
 21
475.564442782846
 31
0.0
  0
LINE
  5
   17C
  8
0
  6
CONTINUOUS
 62
     7
 10
334.199464866979
 20
499.021313136249
 30
0.0
 11
334.199464866979
 21
475.564442782846
 31
0.0
  0
LINE
  5
   17D
  8
0
  6
CONTINUOUS
 62
     7
 10
327.699464866979
 20
477.564442782846
 30
0.0
 11
343.679218028945
 21
477.564442782846
 31
0.0
  0
LINE
  5
   17E
  8
0
  6
CONTINUOUS
 62
     7
 10
329.801687393768
 20
476.787985626428
 30
0.0
 11
332.699464866979
 21
477.564442782846
 31
0.0
  0
LINE
  5
   17F
  8
0
  6
CONTINUOUS
 62
     7
 10
332.699464866979
 20
477.564442782846
 30
0.0
 11
329.801687393768
 21
478.340899939265
 31
0.0
  0
LINE
  5
   180
  8
0
  6
CONTINUOUS
 62
     7
 10
337.097242340189
 20
478.340899939265
 30
0.0
 11
334.199464866979
 21
477.564442782846
 31
0.0
  0
LINE
  5
   181
  8
0
  6
CONTINUOUS
 62
     7
 10
334.199464866979
 20
477.564442782846
 30
0.0
 11
337.097242340189
 21
476.787985626428
 31
0.0
  0
TEXT
  5
   182
  8
0
  6
CONTINUOUS
 62
     7
 10
341.479217930598
 20
478.564442782846
 30
0.0
 40
3.00000013411045
  1
2
 41
0.933333333333333
 72
     1
 11
342.579217979772
 21
480.064442849902
 31
0.0
 73
     2
  0
TEXT
  5
   183
  8
0
  6
CONTINUOUS
 62
     7
 10
338.27921783225
 20
478.564442782846
 30
0.0
 40
3.00000013411045
  1
_
 41
0.933333333333333
 72
     1
 11
339.379217881424
 21
480.064442849902
 31
0.0
 73
     2
  0
ENDBLK
  5
   184
  8
0
  6
CONTINUOUS
 62
     7
  0
BLOCK
  5
   185
  8
0
  6
CONTINUOUS
 62
     7
  2
$3DADO
 70
    64
 10
0.0
 20
0.0
 30
0.0
  3
$3DADO
  0
POINT
  5
   186
  8
0
  6
CONTINUOUS
 62
     7
 10
0.0
 20
0.0
 30
0.0
  0
ARC
  5
   187
  8
0
  6
CONTINUOUS
 62
     7
 10
-5.0899999999997
 20
-1.4210854715202E-14
 30
0.0
 40
5.08999999999974
 50
334.391467869424
 51
385.608532130576
  0
ARC
  5
   188
  8
0
  6
CONTINUOUS
 62
     7
 10
-5.0899999999997
 20
-1.4210854715202E-14
 30
0.0
 40
5.08999999999974
 50
334.391467869424
 51
385.608532130576
  0
ARC
  5
   189
  8
0
  6
CONTINUOUS
 62
     7
 10
-0.94722499999996
 20
3.03499999999998
 30
0.0
 40
0.947225000000001
 50
298.173448635746
 51
421.826551364258
  0
LINE
  5
   18A
  8
0
  6
CONTINUOUS
 62
     7
 10
-3.50000000000001
 20
3.87
 30
0.0
 11
-0.499999999999954
 21
3.87
 31
0.0
  0
ARC
  5
   18B
  8
0
  6
CONTINUOUS
 62
     7
 10
-3.05277500000004
 20
3.03499999999998
 30
0.0
 40
0.947225000000001
 50
118.173448635742
 51
241.826551364254
  0
ARC
  5
   18C
  8
0
  6
CONTINUOUS
 62
     7
 10
1.0899999999997
 20
-1.4210854715202E-14
 30
0.0
 40
5.08999999999974
 50
154.391467869424
 51
205.608532130576
  0
LINE
  5
   18D
  8
0
  6
CONTINUOUS
 62
     7
 10
-8.0
 20
1.5
 30
0.0
 11
-4.0
 21
1.5
 31
0.0
  0
LINE
  5
   18E
  8
0
  6
CONTINUOUS
 62
     7
 10
-7.49999999999999
 20
2.0
 30
0.0
 11
-4.0
 21
2.0
 31
0.0
  0
LINE
  5
   18F
  8
0
  6
CONTINUOUS
 62
     7
 10
-8.0
 20
-1.5
 30
0.0
 11
-8.0
 21
1.5
 31
0.0
  0
LINE
  5
   190
  8
0
  6
DASHDOT
 62
     7
 10
-9.54698811797346
 20
0.0
 30
0.0
 11
0.0
 21
0.0
 31
0.0
  0
LINE
  5
   191
  8
0
  6
CONTINUOUS
 62
     7
 10
-7.99999999999999
 20
1.5
 30
0.0
 11
-7.49999999999999
 21
2.00000000000001
 31
0.0
  0
LINE
  5
   192
  8
0
  6
CONTINUOUS
 62
     7
 10
-7.5
 20
-2.0
 30
0.0
 11
-7.5
 21
2.0
 31
0.0
  0
LINE
  5
   193
  8
0
  6
CONTINUOUS
 62
     7
 10
-8.0
 20
-1.49999999999999
 30
0.0
 11
-7.49999999999999
 21
-2.0
 31
0.0
  0
LINE
  5
   194
  8
0
  6
CONTINUOUS
 62
     7
 10
-7.5
 20
-2.0
 30
0.0
 11
-4.0
 21
-2.0
 31
0.0
  0
ARC
  5
   195
  8
0
  6
CONTINUOUS
 62
     7
 10
-3.05277499999966
 20
-3.035
 30
0.0
 40
0.947225000000154
 50
118.173448635768
 51
241.826551364238
  0
LINE
  5
   196
  8
0
  6
CONTINUOUS
 62
     7
 10
-4.0
 20
-3.035
 30
0.0
 11
-4.0
 21
3.03499999999998
 31
0.0
  0
LINE
  5
   197
  8
0
  6
CONTINUOUS
 62
     7
 10
-3.50000000000001
 20
-2.2
 30
0.0
 11
-0.499999999999972
 21
-2.2
 31
0.0
  0
ARC
  5
   198
  8
0
  6
CONTINUOUS
 62
     7
 10
-0.947225000000337
 20
-3.035
 30
0.0
 40
0.947225000000154
 50
298.173448635762
 51
421.826551364232
  0
ARC
  5
   199
  8
0
  6
CONTINUOUS
 62
     7
 10
-0.947225000000337
 20
-3.035
 30
0.0
 40
0.947225000000154
 50
298.173448635762
 51
421.826551364232
  0
LINE
  5
   19A
  8
0
  6
CONTINUOUS
 62
     7
 10
-3.50000000000011
 20
-3.87
 30
0.0
 11
-0.499999999999968
 21
-3.87
 31
0.0
  0
LINE
  5
   19B
  8
0
  6
CONTINUOUS
 62
     7
 10
-3.50000000000009
 20
2.2
 30
0.0
 11
-0.499999999999876
 21
2.2
 31
0.0
  0
LINE
  5
   19C
  8
0
  6
CONTINUOUS
 62
     7
 10
0.0
 20
-3.035
 30
0.0
 11
0.0
 21
3.03499999999998
 31
0.0
  0
LINE
  5
   19D
  8
0
  6
CONTINUOUS
 62
     7
 10
-8.0
 20
-1.5
 30
0.0
 11
-4.0
 21
-1.5
 31
0.0
  0
ENDBLK
  5
   19E
  8
0
  6
CONTINUOUS
 62
     7
  0
BLOCK
  5
   19F
  8
0
  6
CONTINUOUS
 62
     7
  2
*UDIM1347
 70
    65
 10
0.0
 20
0.0
 30
0.0
  3
*UDIM1347
  0
LINE
  5
   1A0
  8
0
  6
CONTINUOUS
 62
     7
 10
271.576568603516
 20
488.783524820807
 30
0.0
 11
271.576568603516
 21
475.564442782846
 31
0.0
  0
LINE
  5
   1A1
  8
0
  6
CONTINUOUS
 62
     7
 10
273.826568603516
 20
488.0648936421
 30
0.0
 11
273.826568603516
 21
475.564442782846
 31
0.0
  0
LINE
  5
   1A2
  8
0
  6
CONTINUOUS
 62
     7
 10
260.612640185654
 20
477.564442782846
 30
0.0
 11
278.826568603516
 21
477.564442782846
 31
0.0
  0
LINE
  5
   1A3
  8
0
  6
CONTINUOUS
 62
     7
 10
268.678791130305
 20
476.787985626428
 30
0.0
 11
271.576568603516
 21
477.564442782846
 31
0.0
  0
LINE
  5
   1A4
  8
0
  6
CONTINUOUS
 62
     7
 10
271.576568603516
 20
477.564442782846
 30
0.0
 11
268.678791130305
 21
478.340899939265
 31
0.0
  0
LINE
  5
   1A5
  8
0
  6
CONTINUOUS
 62
     7
 10
276.724346076726
 20
478.340899939265
 30
0.0
 11
273.826568603516
 21
477.564442782846
 31
0.0
  0
LINE
  5
   1A6
  8
0
  6
CONTINUOUS
 62
     7
 10
273.826568603516
 20
477.564442782846
 30
0.0
 11
276.724346076726
 21
476.787985626428
 31
0.0
  0
TEXT
  5
   1A7
  8
0
  6
CONTINUOUS
 62
     7
 10
263.812640284002
 20
478.564442782846
 30
0.0
 40
3.00000013411045
  1
3
 41
0.933333333333333
 72
     1
 11
264.912640333176
 21
480.064442849902
 31
0.0
 73
     2
  0
TEXT
  5
   1A8
  8
0
  6
CONTINUOUS
 62
     7
 10
260.612640185654
 20
478.564442782846
 30
0.0
 40
3.00000013411045
  1
_
 41
0.933333333333333
 72
     1
 11
261.712640234828
 21
480.064442849902
 31
0.0
 73
     2
  0
ENDBLK
  5
   1A9
  8
0
  6
CONTINUOUS
 62
     7
  0
BLOCK
  5
   1AA
  8
0
  6
CONTINUOUS
 62
     7
  2
*UDIM1348
 70
    65
 10
0.0
 20
0.0
 30
0.0
  3
*UDIM1348
  0
LINE
  5
   1AB
  8
0
  6
CONTINUOUS
 62
     7
 10
273.826568603516
 20
596.702417664083
 30
0.0
 11
273.826568603516
 21
622.510699788366
 31
0.0
  0
LINE
  5
   1AC
  8
0
  6
CONTINUOUS
 62
     7
 10
352.574465751648
 20
553.815490722656
 30
0.0
 11
352.574465751648
 21
622.510699788366
 31
0.0
  0
LINE
  5
   1AD
  8
0
  6
CONTINUOUS
 62
     7
 10
273.826568603516
 20
620.510699788366
 30
0.0
 11
352.574465751648
 21
620.510699788366
 31
0.0
  0
LINE
  5
   1AE
  8
0
  6
CONTINUOUS
 62
     7
 10
276.724346076726
 20
621.287156944785
 30
0.0
 11
273.826568603516
 21
620.510699788366
 31
0.0
  0
LINE
  5
   1AF
  8
0
  6
CONTINUOUS
 62
     7
 10
273.826568603516
 20
620.510699788366
 30
0.0
 11
276.724346076726
 21
619.734242631947
 31
0.0
  0
LINE
  5
   1B0
  8
0
  6
CONTINUOUS
 62
     7
 10
349.676688278437
 20
619.734242631947
 30
0.0
 11
352.574465751648
 21
620.510699788366
 31
0.0
  0
LINE
  5
   1B1
  8
0
  6
CONTINUOUS
 62
     7
 10
352.574465751648
 20
620.510699788366
 30
0.0
 11
349.676688278437
 21
621.287156944785
 31
0.0
  0
TEXT
  5
   1B2
  8
0
  6
CONTINUOUS
 62
     7
 10
309.300517003238
 20
621.510699788366
 30
0.0
 40
3.00000013411045
  1
105
 41
0.933333333333333
 72
     1
 11
313.200517177582
 21
623.010699855421
 31
0.0
 73
     2
  0
ENDBLK
  5
   1B3
  8
0
  6
CONTINUOUS
 62
     7
  0
BLOCK
  5
   1B4
  8
0
  6
CONTINUOUS
 62
     7
  2
*UDIM1349
 70
    65
 10
0.0
 20
0.0
 30
0.0
  3
*UDIM1349
  0
LINE
  5
   1B5
  8
0
  6
CONTINUOUS
 62
     7
 10
273.826568603516
 20
596.702417664083
 30
0.0
 11
273.826568603516
 21
613.436919570203
 31
0.0
  0
LINE
  5
   1B6
  8
0
  6
CONTINUOUS
 62
     7
 10
326.324465867371
 20
578.790490150452
 30
0.0
 11
326.324465867371
 21
613.436919570203
 31
0.0
  0
LINE
  5
   1B7
  8
0
  6
CONTINUOUS
 62
     7
 10
273.826568603516
 20
611.436919570203
 30
0.0
 11
326.324465867371
 21
611.436919570203
 31
0.0
  0
LINE
  5
   1B8
  8
0
  6
CONTINUOUS
 62
     7
 10
276.724346076726
 20
612.213376726622
 30
0.0
 11
273.826568603516
 21
611.436919570203
 31
0.0
  0
LINE
  5
   1B9
  8
0
  6
CONTINUOUS
 62
     7
 10
273.826568603516
 20
611.436919570203
 30
0.0
 11
276.724346076726
 21
610.660462413785
 31
0.0
  0
LINE
  5
   1BA
  8
0
  6
CONTINUOUS
 62
     7
 10
323.426688394161
 20
610.660462413785
 30
0.0
 11
326.324465867371
 21
611.436919570203
 31
0.0
  0
LINE
  5
   1BB
  8
0
  6
CONTINUOUS
 62
     7
 10
326.324465867371
 20
611.436919570203
 30
0.0
 11
323.426688394161
 21
612.213376726622
 31
0.0
  0
TEXT
  5
   1BC
  8
0
  6
CONTINUOUS
 62
     7
 10
297.575517123685
 20
612.436919570203
 30
0.0
 40
3.00000013411045
  1
70
 41
0.933333333333333
 72
     1
 11
300.075517235443
 21
613.936919637258
 31
0.0
 73
     2
  0
ENDBLK
  5
   1BD
  8
0
  6
CONTINUOUS
 62
     7
  0
BLOCK
  5
   1BE
  8
0
  6
CONTINUOUS
 62
     7
  2
*UDIM1350
 70
    65
 10
0.0
 20
0.0
 30
0.0
  3
*UDIM1350
  0
LINE
  5
   1BF
  8
0
  6
CONTINUOUS
 62
     7
 10
359.207584426329
 20
541.940490722656
 30
0.0
 11
364.76469813325
 21
541.940490722656
 31
0.0
  0
LINE
  5
   1C0
  8
0
  6
CONTINUOUS
 62
     7
 10
331.824465751648
 20
554.690490722657
 30
0.0
 11
364.76469813325
 21
554.690490722657
 31
0.0
  0
LINE
  5
   1C1
  8
0
  6
CONTINUOUS
 62
     7
 10
362.764698133251
 20
536.940490722656
 30
0.0
 11
362.764698133251
 21
559.690490722657
 31
0.0
  0
LINE
  5
   1C2
  8
0
  6
CONTINUOUS
 62
     7
 10
363.541155289669
 20
539.042713249446
 30
0.0
 11
362.764698133251
 21
541.940490722656
 31
0.0
  0
LINE
  5
   1C3
  8
0
  6
CONTINUOUS
 62
     7
 10
362.764698133251
 20
541.940490722656
 30
0.0
 11
361.988240976832
 21
539.042713249446
 31
0.0
  0
LINE
  5
   1C4
  8
0
  6
CONTINUOUS
 62
     7
 10
361.988240976832
 20
557.588268195867
 30
0.0
 11
362.764698133251
 21
554.690490722657
 31
0.0
  0
LINE
  5
   1C5
  8
0
  6
CONTINUOUS
 62
     7
 10
362.764698133251
 20
554.690490722657
 30
0.0
 11
363.541155289669
 21
557.588268195867
 31
0.0
  0
TEXT
  5
   1C6
  8
0
  6
CONTINUOUS
 62
     7
 10
361.764698133254
 20
545.8154906109
 30
0.0
 40
3.00000013411045
  1
17
 50
90.0
 41
0.933333333333333
 72
     1
 11
360.264698066195
 21
548.315490722657
 31
0.0
 73
     2
  0
ENDBLK
  5
   1C7
  8
0
  6
CONTINUOUS
 62
     7
  0
BLOCK
  5
   1C8
  8
0
  6
CONTINUOUS
 62
     7
  2
*UDIM1351
 70
    65
 10
0.0
 20
0.0
 30
0.0
  3
*UDIM1351
  0
LINE
  5
   1C9
  8
0
  6
CONTINUOUS
 62
     7
 10
273.826568603516
 20
488.0648936421
 30
0.0
 11
273.826568603516
 21
475.564442782846
 31
0.0
  0
LINE
  5
   1CA
  8
0
  6
CONTINUOUS
 62
     7
 10
332.699464866979
 20
499.543052266684
 30
0.0
 11
332.699464866979
 21
475.564442782846
 31
0.0
  0
LINE
  5
   1CB
  8
0
  6
CONTINUOUS
 62
     7
 10
273.826568603516
 20
477.564442782846
 30
0.0
 11
332.699464866979
 21
477.564442782846
 31
0.0
  0
LINE
  5
   1CC
  8
0
  6
CONTINUOUS
 62
     7
 10
276.724346076726
 20
478.340899939265
 30
0.0
 11
273.826568603516
 21
477.564442782846
 31
0.0
  0
LINE
  5
   1CD
  8
0
  6
CONTINUOUS
 62
     7
 10
273.826568603516
 20
477.564442782846
 30
0.0
 11
276.724346076726
 21
476.787985626428
 31
0.0
  0
LINE
  5
   1CE
  8
0
  6
CONTINUOUS
 62
     7
 10
329.801687393768
 20
476.787985626428
 30
0.0
 11
332.699464866979
 21
477.564442782846
 31
0.0
  0
LINE
  5
   1CF
  8
0
  6
CONTINUOUS
 62
     7
 10
332.699464866979
 20
477.564442782846
 30
0.0
 11
329.801687393768
 21
478.340899939265
 31
0.0
  0
TEXT
  5
   1D0
  8
0
  6
CONTINUOUS
 62
     7
 10
312.669589886299
 20
478.564442782846
 30
0.0
 40
3.00000013411045
  1
A
 41
0.933333333333333
 72
     1
 11
313.769589935473
 21
480.064442849902
 31
0.0
 73
     2
  0
ENDBLK
  5
   1D1
  8
0
  6
CONTINUOUS
 62
     7
  0
BLOCK
  5
   1D2
  8
0
  6
CONTINUOUS
 62
     7
  2
*UDIM1352
 70
    65
 10
0.0
 20
0.0
 30
0.0
  3
*UDIM1352
  0
LINE
  5
   1D3
  8
0
  6
CONTINUOUS
 62
     7
 10
331.824465751648
 20
520.940490722656
 30
0.0
 11
373.42226583333
 21
520.940490722656
 31
0.0
  0
LINE
  5
   1D4
  8
0
  6
CONTINUOUS
 62
     7
 10
331.824465751648
 20
554.690490722657
 30
0.0
 11
373.42226583333
 21
554.690490722657
 31
0.0
  0
LINE
  5
   1D5
  8
0
  6
CONTINUOUS
 62
     7
 10
371.42226583333
 20
520.940490722656
 30
0.0
 11
371.42226583333
 21
554.690490722657
 31
0.0
  0
LINE
  5
   1D6
  8
0
  6
CONTINUOUS
 62
     7
 10
370.645808676912
 20
523.838268195867
 30
0.0
 11
371.42226583333
 21
520.940490722656
 31
0.0
  0
LINE
  5
   1D7
  8
0
  6
CONTINUOUS
 62
     7
 10
371.42226583333
 20
520.940490722656
 30
0.0
 11
372.198722989749
 21
523.838268195867
 31
0.0
  0
LINE
  5
   1D8
  8
0
  6
CONTINUOUS
 62
     7
 10
372.198722989749
 20
551.792713249447
 30
0.0
 11
371.42226583333
 21
554.690490722657
 31
0.0
  0
LINE
  5
   1D9
  8
0
  6
CONTINUOUS
 62
     7
 10
371.42226583333
 20
554.690490722657
 30
0.0
 11
370.645808676912
 21
551.792713249447
 31
0.0
  0
TEXT
  5
   1DA
  8
0
  6
CONTINUOUS
 62
     7
 10
370.422265833333
 20
535.3154906109
 30
0.0
 40
3.00000013411045
  1
45
 50
90.0
 41
0.933333333333333
 72
     1
 11
368.922265766275
 21
537.815490722657
 31
0.0
 73
     2
  0
ENDBLK
  5
   1DB
  8
0
  6
CONTINUOUS
 62
     7
  0
BLOCK
  5
   1DC
  8
0
  6
CONTINUOUS
 62
     7
  2
*UDIM1353
 70
    65
 10
0.0
 20
0.0
 30
0.0
  3
*UDIM1353
  0
LINE
  5
   1DD
  8
0
  6
CONTINUOUS
 62
     7
 10
367.187694332326
 20
493.627039119601
 30
0.0
 11
356.966870712488
 21
493.627039119601
 31
0.0
  0
LINE
  5
   1DE
  8
0
  6
CONTINUOUS
 62
     7
 10
373.67300669244
 20
500.82703922689
 30
0.0
 11
356.966870712488
 21
500.82703922689
 31
0.0
  0
LINE
  5
   1DF
  8
0
  6
CONTINUOUS
 62
     7
 10
358.966870712488
 20
488.627039119601
 30
0.0
 11
358.966870712488
 21
510.603466752814
 31
0.0
  0
LINE
  5
   1E0
  8
0
  6
CONTINUOUS
 62
     7
 10
359.743327868907
 20
490.729261646391
 30
0.0
 11
358.966870712488
 21
493.627039119601
 31
0.0
  0
LINE
  5
   1E1
  8
0
  6
CONTINUOUS
 62
     7
 10
358.966870712488
 20
493.627039119601
 30
0.0
 11
358.19041355607
 21
490.729261646391
 31
0.0
  0
LINE
  5
   1E2
  8
0
  6
CONTINUOUS
 62
     7
 10
358.19041355607
 20
503.7248167001
 30
0.0
 11
358.966870712488
 21
500.82703922689
 31
0.0
  0
LINE
  5
   1E3
  8
0
  6
CONTINUOUS
 62
     7
 10
358.966870712488
 20
500.82703922689
 30
0.0
 11
359.743327868907
 21
503.7248167001
 31
0.0
  0
TEXT
  5
   1E4
  8
0
  6
CONTINUOUS
 62
     7
 10
357.966870712492
 20
505.603466837255
 30
0.0
 40
2.99999994933605
  1
18
 50
90.0
 41
0.933333333333333
 72
     1
 11
356.466870737821
 21
508.103466795034
 31
0.0
 73
     2
  0
ENDBLK
  5
   1E5
  8
0
  6
CONTINUOUS
 62
     7
  0
BLOCK
  5
   1E6
  8
0
  6
CONTINUOUS
 62
     7
  2
*UDIM1354
 70
    65
 10
0.0
 20
0.0
 30
0.0
  3
*UDIM1354
  0
LINE
  5
   1E7
  8
0
  6
CONTINUOUS
 62
     7
 10
391.273006329451
 20
517.739042877833
 30
0.0
 11
391.273006329451
 21
522.385164817052
 31
0.0
  0
LINE
  5
   1E8
  8
0
  6
CONTINUOUS
 62
     7
 10
440.153007057819
 20
501.82703922689
 30
0.0
 11
440.153007057819
 21
522.385164817052
 31
0.0
  0
LINE
  5
   1E9
  8
0
  6
CONTINUOUS
 62
     7
 10
391.273006329451
 20
520.385164817052
 30
0.0
 11
440.153007057819
 21
520.385164817052
 31
0.0
  0
LINE
  5
   1EA
  8
0
  6
CONTINUOUS
 62
     7
 10
394.170783802661
 20
521.161621973471
 30
0.0
 11
391.273006329451
 21
520.385164817052
 31
0.0
  0
LINE
  5
   1EB
  8
0
  6
CONTINUOUS
 62
     7
 10
391.273006329451
 20
520.385164817052
 30
0.0
 11
394.170783802661
 21
519.608707660634
 31
0.0
  0
LINE
  5
   1EC
  8
0
  6
CONTINUOUS
 62
     7
 10
437.255229584609
 20
519.608707660634
 30
0.0
 11
440.153007057819
 21
520.385164817052
 31
0.0
  0
LINE
  5
   1ED
  8
0
  6
CONTINUOUS
 62
     7
 10
440.153007057819
 20
520.385164817052
 30
0.0
 11
437.255229584609
 21
521.161621973471
 31
0.0
  0
TEXT
  5
   1EE
  8
0
  6
CONTINUOUS
 62
     7
 10
409.013006806784
 20
521.385164817052
 30
0.0
 40
2.99999994933605
  1
122,2
 41
0.933333333333333
 72
     1
 11
415.713006693635
 21
522.88516479172
 31
0.0
 73
     2
  0
ENDBLK
  5
   1EF
  8
0
  6
CONTINUOUS
 62
     7
  0
BLOCK
  5
   1F0
  8
0
  6
CONTINUOUS
 62
     7
  2
*UDIM1355
 70
    65
 10
0.0
 20
0.0
 30
0.0
  3
*UDIM1355
  0
LINE
  5
   1F1
  8
0
  6
CONTINUOUS
 62
     7
 10
374.673006082091
 20
501.82703922689
 30
0.0
 11
374.673006082091
 21
531.293541155341
 31
0.0
  0
LINE
  5
   1F2
  8
0
  6
CONTINUOUS
 62
     7
 10
440.153007057819
 20
501.82703922689
 30
0.0
 11
440.153007057819
 21
531.293541155341
 31
0.0
  0
LINE
  5
   1F3
  8
0
  6
CONTINUOUS
 62
     7
 10
374.673006082091
 20
529.293541155341
 30
0.0
 11
440.153007057819
 21
529.293541155341
 31
0.0
  0
LINE
  5
   1F4
  8
0
  6
CONTINUOUS
 62
     7
 10
377.570783555302
 20
530.069998311759
 30
0.0
 11
374.673006082091
 21
529.293541155341
 31
0.0
  0
LINE
  5
   1F5
  8
0
  6
CONTINUOUS
 62
     7
 10
374.673006082091
 20
529.293541155341
 30
0.0
 11
377.570783555302
 21
528.517083998922
 31
0.0
  0
LINE
  5
   1F6
  8
0
  6
CONTINUOUS
 62
     7
 10
437.255229584609
 20
528.517083998922
 30
0.0
 11
440.153007057819
 21
529.293541155341
 31
0.0
  0
LINE
  5
   1F7
  8
0
  6
CONTINUOUS
 62
     7
 10
440.153007057819
 20
529.293541155341
 30
0.0
 11
437.255229584609
 21
530.069998311759
 31
0.0
  0
TEXT
  5
   1F8
  8
0
  6
CONTINUOUS
 62
     7
 10
406.313006588532
 20
530.293541155341
 30
0.0
 40
2.99999994933605
  1
B
 41
0.933333333333333
 72
     1
 11
407.413006569955
 21
531.793541130009
 31
0.0
 73
     2
  0
ENDBLK
  5
   1F9
  8
0
  6
CONTINUOUS
 62
     7
  0
BLOCK
  5
   1FA
  8
0
  6
CONTINUOUS
 62
     7
  2
*UDIM1356
 70
    65
 10
0.0
 20
0.0
 30
0.0
  3
*UDIM1356
  0
LINE
  5
   1FB
  8
0
  6
CONTINUOUS
 62
     7
 10
373.67300669244
 20
482.027038946748
 30
0.0
 11
348.964705938198
 21
482.027038946748
 31
0.0
  0
LINE
  5
   1FC
  8
0
  6
CONTINUOUS
 62
     7
 10
373.67300669244
 20
500.82703922689
 30
0.0
 11
348.964705938198
 21
500.82703922689
 31
0.0
  0
LINE
  5
   1FD
  8
0
  6
CONTINUOUS
 62
     7
 10
350.964705938198
 20
482.027038946748
 30
0.0
 11
350.964705938198
 21
500.82703922689
 31
0.0
  0
LINE
  5
   1FE
  8
0
  6
CONTINUOUS
 62
     7
 10
350.18824878178
 20
484.924816419958
 30
0.0
 11
350.964705938198
 21
482.027038946748
 31
0.0
  0
LINE
  5
   1FF
  8
0
  6
CONTINUOUS
 62
     7
 10
350.964705938198
 20
482.027038946748
 30
0.0
 11
351.741163094617
 21
484.924816419958
 31
0.0
  0
LINE
  5
   200
  8
0
  6
CONTINUOUS
 62
     7
 10
351.741163094617
 20
497.929261753679
 30
0.0
 11
350.964705938198
 21
500.82703922689
 31
0.0
  0
LINE
  5
   201
  8
0
  6
CONTINUOUS
 62
     7
 10
350.964705938198
 20
500.82703922689
 30
0.0
 11
350.18824878178
 21
497.929261753679
 31
0.0
  0
TEXT
  5
   202
  8
0
  6
CONTINUOUS
 62
     7
 10
349.964705938201
 20
488.927039129041
 30
0.0
 40
2.99999994933605
  1
47
 50
90.0
 41
0.933333333333333
 72
     1
 11
348.46470596353
 21
491.427039086819
 31
0.0
 73
     2
  0
ENDBLK
  5
   203
  8
0
  6
CONTINUOUS
 62
     7
  0
BLOCK
  5
   204
  8
0
  6
CONTINUOUS
 62
     7
  2
*UDIM1357
 70
    65
 10
0.0
 20
0.0
 30
0.0
  3
*UDIM1357
  0
LINE
  5
   205
  8
0
  6
CONTINUOUS
 62
     7
 10
242.370666399598
 20
452.706341544344
 30
0.0
 11
242.370666399598
 21
466.172817075406
 31
0.0
  0
LINE
  5
   206
  8
0
  6
CONTINUOUS
 62
     7
 10
254.370666578412
 20
410.311086420357
 30
0.0
 11
254.370666578412
 21
466.172817075406
 31
0.0
  0
LINE
  5
   207
  8
0
  6
CONTINUOUS
 62
     7
 10
237.370666399598
 20
464.172817075406
 30
0.0
 11
254.370666578412
 21
464.172817075406
 31
0.0
  0
LINE
  5
   208
  8
0
  6
CONTINUOUS
 62
     7
 10
239.472888926388
 20
463.396359918987
 30
0.0
 11
242.370666399598
 21
464.172817075406
 31
0.0
  0
LINE
  5
   209
  8
0
  6
CONTINUOUS
 62
     7
 10
242.370666399598
 20
464.172817075406
 30
0.0
 11
239.472888926388
 21
464.949274231824
 31
0.0
  0
LINE
  5
   20A
  8
0
  6
CONTINUOUS
 62
     7
 10
255.431326750192
 20
465.233477247186
 30
0.0
 11
253.310006406632
 21
463.112156903626
 31
0.0
  0
TEXT
  5
   20B
  8
0
  6
CONTINUOUS
 62
     7
 10
245.870666531225
 20
465.172817075406
 30
0.0
 40
2.99999994933605
  1
30
 41
0.933333333333333
 72
     1
 11
248.370666489005
 21
466.672817050074
 31
0.0
 73
     2
  0
TEXT
  5
   20C
  8
0
  6
CONTINUOUS
 62
     7
 10
244.470666554868
 20
461.17281712607
 30
0.0
 40
2.99999994933605
  1
= =
 41
0.933333333333333
 72
     1
 11
248.370666489005
 21
462.672817100738
 31
0.0
 73
     2
  0
ENDBLK
  5
   20D
  8
0
  6
CONTINUOUS
 62
     7
  0
BLOCK
  5
   20E
  8
0
  6
CONTINUOUS
 62
     7
  2
*UDIM1358
 70
    65
 10
0.0
 20
0.0
 30
0.0
  3
*UDIM1358
  0
LINE
  5
   20F
  8
0
  6
CONTINUOUS
 62
     7
 10
251.362908829089
 20
406.91933569513
 30
0.0
 11
216.678776178771
 21
406.91933569513
 31
0.0
  0
LINE
  5
   210
  8
0
  6
CONTINUOUS
 62
     7
 10
239.690666370392
 20
449.7193363329
 30
0.0
 11
216.678776178771
 21
449.7193363329
 31
0.0
  0
LINE
  5
   211
  8
0
  6
CONTINUOUS
 62
     7
 10
218.678776178771
 20
406.91933569513
 30
0.0
 11
218.678776178771
 21
449.7193363329
 31
0.0
  0
LINE
  5
   212
  8
0
  6
CONTINUOUS
 62
     7
 10
217.902319022352
 20
409.817113168341
 30
0.0
 11
218.678776178771
 21
406.91933569513
 31
0.0
  0
LINE
  5
   213
  8
0
  6
CONTINUOUS
 62
     7
 10
218.678776178771
 20
406.91933569513
 30
0.0
 11
219.455233335189
 21
409.817113168341
 31
0.0
  0
LINE
  5
   214
  8
0
  6
CONTINUOUS
 62
     7
 10
219.455233335189
 20
446.821558859689
 30
0.0
 11
218.678776178771
 21
449.7193363329
 31
0.0
  0
LINE
  5
   215
  8
0
  6
CONTINUOUS
 62
     7
 10
218.678776178771
 20
449.7193363329
 30
0.0
 11
217.902319022352
 21
446.821558859689
 31
0.0
  0
TEXT
  5
   216
  8
0
  6
CONTINUOUS
 62
     7
 10
217.678776178776
 20
424.41933607988
 30
0.0
 40
2.99999994933605
  1
107
 50
90.0
 41
0.933333333333333
 72
     1
 11
216.178776204103
 21
428.319336014015
 31
0.0
 73
     2
  0
ENDBLK
  5
   217
  8
0
  6
CONTINUOUS
 62
     7
  0
BLOCK
  5
   218
  8
0
  6
CONTINUOUS
 62
     7
  2
*UDIM1359
 70
    65
 10
0.0
 20
0.0
 30
0.0
  3
*UDIM1359
  0
LINE
  5
   219
  8
0
  6
CONTINUOUS
 62
     7
 10
228.703139780805
 20
428.319336014015
 30
0.0
 11
224.926216590093
 21
428.319336014015
 31
0.0
  0
LINE
  5
   21A
  8
0
  6
CONTINUOUS
 62
     7
 10
239.690666370392
 20
449.7193363329
 30
0.0
 11
224.926216590093
 21
449.7193363329
 31
0.0
  0
LINE
  5
   21B
  8
0
  6
CONTINUOUS
 62
     7
 10
226.926216590093
 20
428.319336014015
 30
0.0
 11
226.926216590093
 21
449.7193363329
 31
0.0
  0
LINE
  5
   21C
  8
0
  6
CONTINUOUS
 62
     7
 10
226.149759433675
 20
431.217113487226
 30
0.0
 11
226.926216590093
 21
428.319336014015
 31
0.0
  0
LINE
  5
   21D
  8
0
  6
CONTINUOUS
 62
     7
 10
226.926216590093
 20
428.319336014015
 30
0.0
 11
227.702673746512
 21
431.217113487226
 31
0.0
  0
LINE
  5
   21E
  8
0
  6
CONTINUOUS
 62
     7
 10
227.702673746512
 20
446.821558859689
 30
0.0
 11
226.926216590093
 21
449.7193363329
 31
0.0
  0
LINE
  5
   21F
  8
0
  6
CONTINUOUS
 62
     7
 10
226.926216590093
 20
449.7193363329
 30
0.0
 11
226.149759433675
 21
446.821558859689
 31
0.0
  0
TEXT
  5
   220
  8
0
  6
CONTINUOUS
 62
     7
 10
225.9262165901
 20
433.719336262966
 30
0.0
 40
2.99999994933605
  1
53,5
 50
90.0
 41
0.933333333333333
 72
     1
 11
224.426216615425
 21
439.019336173457
 31
0.0
 73
     2
  0
ENDBLK
  5
   221
  8
0
  6
CONTINUOUS
 62
     7
  0
BLOCK
  5
   222
  8
0
  6
CONTINUOUS
 62
     7
  2
*UDIM1360
 70
    65
 10
0.0
 20
0.0
 30
0.0
  3
*UDIM1360
  0
LINE
  5
   223
  8
0
  6
CONTINUOUS
 62
     7
 10
308.686048197503
 20
428.319336014015
 30
0.0
 11
315.94978465817
 21
428.319336014015
 31
0.0
  0
LINE
  5
   224
  8
0
  6
CONTINUOUS
 62
     7
 10
296.610667192936
 20
444.915802829135
 30
0.0
 11
315.94978465817
 21
444.915802829135
 31
0.0
  0
LINE
  5
   225
  8
0
  6
CONTINUOUS
 62
     7
 10
313.94978465817
 20
423.319336014015
 30
0.0
 11
313.94978465817
 21
449.915802829135
 31
0.0
  0
LINE
  5
   226
  8
0
  6
CONTINUOUS
 62
     7
 10
314.726241814589
 20
425.421558540805
 30
0.0
 11
313.94978465817
 21
428.319336014015
 31
0.0
  0
LINE
  5
   227
  8
0
  6
CONTINUOUS
 62
     7
 10
313.94978465817
 20
428.319336014015
 30
0.0
 11
313.173327501752
 21
425.421558540805
 31
0.0
  0
LINE
  5
   228
  8
0
  6
CONTINUOUS
 62
     7
 10
313.173327501752
 20
447.813580302345
 30
0.0
 11
313.94978465817
 21
444.915802829135
 31
0.0
  0
LINE
  5
   229
  8
0
  6
CONTINUOUS
 62
     7
 10
313.94978465817
 20
444.915802829135
 30
0.0
 11
314.726241814589
 21
447.813580302345
 31
0.0
  0
TEXT
  5
   22A
  8
0
  6
CONTINUOUS
 62
     7
 10
312.949784658177
 20
431.317569511083
 30
0.0
 40
2.99999994933605
  1
41,5
 50
90.0
 41
0.933333333333333
 72
     1
 11
311.449784683502
 21
436.617569421575
 31
0.0
 73
     2
  0
ENDBLK
  5
   22B
  8
0
  6
CONTINUOUS
 62
     7
  0
BLOCK
  5
   22C
  8
0
  6
CONTINUOUS
 62
     7
  2
*UDIM1361
 70
    65
 10
0.0
 20
0.0
 30
0.0
  3
*UDIM1361
  0
LINE
  5
   22D
  8
0
  6
CONTINUOUS
 62
     7
 10
272.084952900885
 20
411.715802334416
 30
0.0
 11
324.58886932099
 21
411.715802334416
 31
0.0
  0
LINE
  5
   22E
  8
0
  6
CONTINUOUS
 62
     7
 10
296.610667192936
 20
444.915802829135
 30
0.0
 11
324.58886932099
 21
444.915802829135
 31
0.0
  0
LINE
  5
   22F
  8
0
  6
CONTINUOUS
 62
     7
 10
322.58886932099
 20
411.715802334416
 30
0.0
 11
322.58886932099
 21
444.915802829135
 31
0.0
  0
LINE
  5
   230
  8
0
  6
CONTINUOUS
 62
     7
 10
321.812412164571
 20
414.613579807627
 30
0.0
 11
322.58886932099
 21
411.715802334416
 31
0.0
  0
LINE
  5
   231
  8
0
  6
CONTINUOUS
 62
     7
 10
322.58886932099
 20
411.715802334416
 30
0.0
 11
323.365326477409
 21
414.613579807627
 31
0.0
  0
LINE
  5
   232
  8
0
  6
CONTINUOUS
 62
     7
 10
323.365326477409
 20
442.018025355924
 30
0.0
 11
322.58886932099
 21
444.915802829135
 31
0.0
  0
LINE
  5
   233
  8
0
  6
CONTINUOUS
 62
     7
 10
322.58886932099
 20
444.915802829135
 30
0.0
 11
321.812412164571
 21
442.018025355924
 31
0.0
  0
TEXT
  5
   234
  8
0
  6
CONTINUOUS
 62
     7
 10
321.588869320993
 20
425.815802623997
 30
0.0
 40
2.99999994933605
  1
83
 50
90.0
 41
0.933333333333333
 72
     1
 11
320.088869346322
 21
428.315802581776
 31
0.0
 73
     2
  0
ENDBLK
  5
   235
  8
0
  6
CONTINUOUS
 62
     7
  0
BLOCK
  5
   236
  8
0
  6
CONTINUOUS
 62
     7
  2
*UDIM1362
 70
    65
 10
0.0
 20
0.0
 30
0.0
  3
*UDIM1362
  0
LINE
  5
   237
  8
0
  6
CONTINUOUS
 62
     7
 10
238.63433336247
 20
456.740979472853
 30
0.0
 11
245.142201903234
 21
444.510824922685
 31
0.0
  0
LINE
  5
   238
  8
0
  6
CONTINUOUS
 62
     7
 10
238.63433336247
 20
456.740979472853
 30
0.0
 11
209.730026370178
 21
456.740979472853
 31
0.0
  0
LINE
  5
   239
  8
0
  6
CONTINUOUS
 62
     7
 10
239.901198422528
 20
452.707266630593
 30
0.0
 11
241.94788979201
 21
450.513855032627
 31
0.0
  0
LINE
  5
   23A
  8
0
  6
CONTINUOUS
 62
     7
 10
241.94788979201
 20
450.513855032627
 30
0.0
 11
241.272108913903
 21
453.436750892008
 31
0.0
  0
LINE
  5
   23B
  8
0
  6
CONTINUOUS
 62
     7
 10
244.840134376668
 20
446.731406035207
 30
0.0
 11
242.793443007187
 21
448.924817633173
 31
0.0
  0
LINE
  5
   23C
  8
0
  6
CONTINUOUS
 62
     7
 10
242.793443007187
 20
448.924817633173
 30
0.0
 11
243.469223885293
 21
446.001921773792
 31
0.0
  0
TEXT
  5
   23D
  8
0
  6
CONTINUOUS
 62
     7
 10
213.730026319514
 20
457.740979472853
 30
0.0
 40
2.99999994933605
  1
4,5
 41
0.933333333333333
 72
     1
 11
217.630026253651
 21
459.240979447521
 31
0.0
 73
     2
  0
TEXT
  5
   23E
  8
0
  6
CONTINUOUS
 62
     7
 10
209.730026370178
 20
457.740979472853
 30
0.0
 40
2.99999994933605
  1
Ø
 41
1.2
 72
     1
 11
211.230026344846
 21
459.240979447521
 31
0.0
 73
     2
  0
TEXT
  5
   23F
  8
0
  6
CONTINUOUS
 62
     7
 10
222.530026187787
 20
457.740979472853
 30
0.0
 40
2.99999994933605
  1
 - M4
 41
0.933333333333333
 72
     1
 11
229.230026074638
 21
459.240979447521
 31
0.0
 73
     2
  0
ENDBLK
  5
   240
  8
0
  6
CONTINUOUS
 62
     7
  0
BLOCK
  5
   241
  8
0
  6
CONTINUOUS
 62
     7
  2
*UDIM1363
 70
    65
 10
0.0
 20
0.0
 30
0.0
  3
*UDIM1363
  0
LINE
  5
   242
  8
0
  6
CONTINUOUS
 62
     7
 10
254.370666578412
 20
409.959335726577
 30
0.0
 11
254.370666578412
 21
466.172817075406
 31
0.0
  0
LINE
  5
   243
  8
0
  6
CONTINUOUS
 62
     7
 10
268.610666790605
 20
414.297357600433
 30
0.0
 11
268.610666790605
 21
466.172817075406
 31
0.0
  0
LINE
  5
   244
  8
0
  6
CONTINUOUS
 62
     7
 10
254.370666578412
 20
464.172817075406
 30
0.0
 11
268.610666790605
 21
464.172817075406
 31
0.0
  0
TEXT
  5
   245
  8
0
  6
CONTINUOUS
 62
     7
 10
256.190666774015
 20
465.172817075406
 30
0.0
 40
2.99999994933605
  1
35,6
 41
0.933333333333333
 72
     1
 11
261.490666684508
 21
466.672817050074
 31
0.0
 73
     2
  0
ENDBLK
  5
   246
  8
0
  6
CONTINUOUS
 62
     7
  0
BLOCK
  5
   247
  8
0
  6
CONTINUOUS
 62
     7
  2
*UDIM1364
 70
    65
 10
0.0
 20
0.0
 30
0.0
  3
*UDIM1364
  0
LINE
  5
   248
  8
0
  6
CONTINUOUS
 62
     7
 10
268.610666790605
 20
414.297357600433
 30
0.0
 11
268.610666790605
 21
466.172817075406
 31
0.0
  0
LINE
  5
   249
  8
0
  6
CONTINUOUS
 62
     7
 10
294.610667178035
 20
448.283437641355
 30
0.0
 11
294.610667178035
 21
466.172817075406
 31
0.0
  0
LINE
  5
   24A
  8
0
  6
CONTINUOUS
 62
     7
 10
268.610666790605
 20
464.172817075406
 30
0.0
 11
294.610667178035
 21
464.172817075406
 31
0.0
  0
LINE
  5
   24B
  8
0
  6
CONTINUOUS
 62
     7
 10
269.671326962384
 20
465.233477247186
 30
0.0
 11
267.550006618825
 21
463.112156903626
 31
0.0
  0
LINE
  5
   24C
  8
0
  6
CONTINUOUS
 62
     7
 10
291.712889704824
 20
463.396359918987
 30
0.0
 11
294.610667178035
 21
464.172817075406
 31
0.0
  0
LINE
  5
   24D
  8
0
  6
CONTINUOUS
 62
     7
 10
294.610667178035
 20
464.172817075406
 30
0.0
 11
291.712889704824
 21
464.949274231824
 31
0.0
  0
TEXT
  5
   24E
  8
0
  6
CONTINUOUS
 62
     7
 10
279.11066702654
 20
465.172817075406
 30
0.0
 40
2.99999994933605
  1
65
 41
0.933333333333333
 72
     1
 11
281.61066698432
 21
466.672817050074
 31
0.0
 73
     2
  0
ENDBLK
  5
   24F
  8
0
  6
CONTINUOUS
 62
     7
  0
BLOCK
  5
   250
  8
0
  6
CONTINUOUS
 62
     7
  2
*UDIM1365
 70
    65
 10
0.0
 20
0.0
 30
0.0
  3
*UDIM1365
  0
LINE
  5
   251
  8
0
  6
CONTINUOUS
 62
     7
 10
147.054468789697
 20
414.297357600433
 30
0.0
 11
147.054468789697
 21
467.065463306236
 31
0.0
  0
LINE
  5
   252
  8
0
  6
CONTINUOUS
 62
     7
 10
173.054469177127
 20
445.915802829135
 30
0.0
 11
173.054469177127
 21
467.065463306236
 31
0.0
  0
LINE
  5
   253
  8
0
  6
CONTINUOUS
 62
     7
 10
147.054468789697
 20
465.065463306236
 30
0.0
 11
178.054469177127
 21
465.065463306236
 31
0.0
  0
LINE
  5
   254
  8
0
  6
CONTINUOUS
 62
     7
 10
175.952246650337
 20
465.841920462655
 30
0.0
 11
173.054469177127
 21
465.065463306236
 31
0.0
  0
LINE
  5
   255
  8
0
  6
CONTINUOUS
 62
     7
 10
173.054469177127
 20
465.065463306236
 30
0.0
 11
175.952246650337
 21
464.289006149817
 31
0.0
  0
TEXT
  5
   256
  8
0
  6
CONTINUOUS
 62
     7
 10
157.554469025632
 20
466.065463306236
 30
0.0
 40
2.99999994933605
  1
65
 41
0.933333333333333
 72
     1
 11
160.054468983412
 21
467.565463280904
 31
0.0
 73
     2
  0
ENDBLK
  5
   257
  8
0
  6
CONTINUOUS
 62
     7
  0
BLOCK
  5
   258
  8
0
  6
CONTINUOUS
 62
     7
  2
*UDIM1366
 70
    65
 10
0.0
 20
0.0
 30
0.0
  3
*UDIM1366
  0
LINE
  5
   259
  8
0
  6
CONTINUOUS
 62
     7
 10
149.528754885076
 20
411.715802334416
 30
0.0
 11
202.032671305181
 21
411.715802334416
 31
0.0
  0
LINE
  5
   25A
  8
0
  6
CONTINUOUS
 62
     7
 10
174.054469177127
 20
444.915802829135
 30
0.0
 11
202.032671305181
 21
444.915802829135
 31
0.0
  0
LINE
  5
   25B
  8
0
  6
CONTINUOUS
 62
     7
 10
200.032671305181
 20
411.715802334416
 30
0.0
 11
200.032671305181
 21
444.915802829135
 31
0.0
  0
LINE
  5
   25C
  8
0
  6
CONTINUOUS
 62
     7
 10
199.256214148762
 20
414.613579807627
 30
0.0
 11
200.032671305181
 21
411.715802334416
 31
0.0
  0
LINE
  5
   25D
  8
0
  6
CONTINUOUS
 62
     7
 10
200.032671305181
 20
411.715802334416
 30
0.0
 11
200.809128461599
 21
414.613579807627
 31
0.0
  0
LINE
  5
   25E
  8
0
  6
CONTINUOUS
 62
     7
 10
200.809128461599
 20
442.018025355924
 30
0.0
 11
200.032671305181
 21
444.915802829135
 31
0.0
  0
LINE
  5
   25F
  8
0
  6
CONTINUOUS
 62
     7
 10
200.032671305181
 20
444.915802829135
 30
0.0
 11
199.256214148762
 21
442.018025355924
 31
0.0
  0
TEXT
  5
   260
  8
0
  6
CONTINUOUS
 62
     7
 10
199.032671305184
 20
425.815802623997
 30
0.0
 40
2.99999994933605
  1
83
 50
90.0
 41
0.933333333333333
 72
     1
 11
197.532671330513
 21
428.315802581776
 31
0.0
 73
     2
  0
ENDBLK
  5
   261
  8
0
  6
CONTINUOUS
 62
     7
  0
BLOCK
  5
   262
  8
0
  6
CONTINUOUS
 62
     7
  2
*UDIM1367
 70
    65
 10
0.0
 20
0.0
 30
0.0
  3
*UDIM1367
  0
LINE
  5
   263
  8
0
  6
CONTINUOUS
 62
     7
 10
186.129850181694
 20
428.319336014015
 30
0.0
 11
193.393586642361
 21
428.319336014015
 31
0.0
  0
LINE
  5
   264
  8
0
  6
CONTINUOUS
 62
     7
 10
174.054469177127
 20
444.915802829135
 30
0.0
 11
193.393586642361
 21
444.915802829135
 31
0.0
  0
LINE
  5
   265
  8
0
  6
CONTINUOUS
 62
     7
 10
191.393586642361
 20
423.319336014015
 30
0.0
 11
191.393586642361
 21
449.915802829135
 31
0.0
  0
LINE
  5
   266
  8
0
  6
CONTINUOUS
 62
     7
 10
192.17004379878
 20
425.421558540805
 30
0.0
 11
191.393586642361
 21
428.319336014015
 31
0.0
  0
LINE
  5
   267
  8
0
  6
CONTINUOUS
 62
     7
 10
191.393586642361
 20
428.319336014015
 30
0.0
 11
190.617129485943
 21
425.421558540805
 31
0.0
  0
LINE
  5
   268
  8
0
  6
CONTINUOUS
 62
     7
 10
190.617129485943
 20
447.813580302345
 30
0.0
 11
191.393586642361
 21
444.915802829135
 31
0.0
  0
LINE
  5
   269
  8
0
  6
CONTINUOUS
 62
     7
 10
191.393586642361
 20
444.915802829135
 30
0.0
 11
192.17004379878
 21
447.813580302345
 31
0.0
  0
TEXT
  5
   26A
  8
0
  6
CONTINUOUS
 62
     7
 10
190.393586642368
 20
431.317569511083
 30
0.0
 40
2.99999994933605
  1
41,5
 50
90.0
 41
0.933333333333333
 72
     1
 11
188.893586667693
 21
436.617569421575
 31
0.0
 73
     2
  0
ENDBLK
  5
   26B
  8
0
  6
CONTINUOUS
 62
     7
  0
BLOCK
  5
   26C
  8
0
  6
CONTINUOUS
 62
     7
  2
*UDIM1368
 70
    65
 10
0.0
 20
0.0
 30
0.0
  3
*UDIM1368
  0
LINE
  5
   26D
  8
0
  6
CONTINUOUS
 62
     7
 10
96.9060145877376
 20
428.319336014015
 30
0.0
 11
91.3030385110495
 21
428.319336014015
 31
0.0
  0
LINE
  5
   26E
  8
0
  6
CONTINUOUS
 62
     7
 10
118.134468369484
 20
449.7193363329
 30
0.0
 11
91.3030385110495
 21
449.7193363329
 31
0.0
  0
LINE
  5
   26F
  8
0
  6
CONTINUOUS
 62
     7
 10
93.3030385110495
 20
428.319336014015
 30
0.0
 11
93.3030385110495
 21
449.7193363329
 31
0.0
  0
LINE
  5
   270
  8
0
  6
CONTINUOUS
 62
     7
 10
92.526581354631
 20
431.217113487226
 30
0.0
 11
93.3030385110495
 21
428.319336014015
 31
0.0
  0
LINE
  5
   271
  8
0
  6
CONTINUOUS
 62
     7
 10
93.3030385110495
 20
428.319336014015
 30
0.0
 11
94.079495667468
 21
431.217113487226
 31
0.0
  0
LINE
  5
   272
  8
0
  6
CONTINUOUS
 62
     7
 10
94.079495667468
 20
446.821558859689
 30
0.0
 11
93.3030385110495
 21
449.7193363329
 31
0.0
  0
LINE
  5
   273
  8
0
  6
CONTINUOUS
 62
     7
 10
93.3030385110495
 20
449.7193363329
 30
0.0
 11
92.526581354631
 21
446.821558859689
 31
0.0
  0
TEXT
  5
   274
  8
0
  6
CONTINUOUS
 62
     7
 10
92.3030385110562
 20
433.719336262966
 30
0.0
 40
2.99999994933605
  1
53,5
 50
90.0
 41
0.933333333333333
 72
     1
 11
90.8030385363815
 21
439.019336173458
 31
0.0
 73
     2
  0
ENDBLK
  5
   275
  8
0
  6
CONTINUOUS
 62
     7
  0
BLOCK
  5
   276
  8
0
  6
CONTINUOUS
 62
     7
  2
*UDIM1369
 70
    65
 10
0.0
 20
0.0
 30
0.0
  3
*UDIM1369
  0
LINE
  5
   277
  8
0
  6
CONTINUOUS
 62
     7
 10
129.806710828181
 20
406.91933569513
 30
0.0
 11
81.7660709415759
 21
406.91933569513
 31
0.0
  0
LINE
  5
   278
  8
0
  6
CONTINUOUS
 62
     7
 10
118.134468369484
 20
449.7193363329
 30
0.0
 11
81.7660709415759
 21
449.7193363329
 31
0.0
  0
LINE
  5
   279
  8
0
  6
CONTINUOUS
 62
     7
 10
83.766070941576
 20
406.91933569513
 30
0.0
 11
83.766070941576
 21
449.7193363329
 31
0.0
  0
LINE
  5
   27A
  8
0
  6
CONTINUOUS
 62
     7
 10
82.9896137851574
 20
409.817113168341
 30
0.0
 11
83.766070941576
 21
406.91933569513
 31
0.0
  0
LINE
  5
   27B
  8
0
  6
CONTINUOUS
 62
     7
 10
83.766070941576
 20
406.91933569513
 30
0.0
 11
84.5425280979945
 21
409.817113168341
 31
0.0
  0
LINE
  5
   27C
  8
0
  6
CONTINUOUS
 62
     7
 10
84.5425280979945
 20
446.821558859689
 30
0.0
 11
83.766070941576
 21
449.7193363329
 31
0.0
  0
LINE
  5
   27D
  8
0
  6
CONTINUOUS
 62
     7
 10
83.766070941576
 20
449.7193363329
 30
0.0
 11
82.9896137851574
 21
446.821558859689
 31
0.0
  0
TEXT
  5
   27E
  8
0
  6
CONTINUOUS
 62
     7
 10
82.7660709415809
 20
424.41933607988
 30
0.0
 40
2.99999994933605
  1
107
 50
90.0
 41
0.933333333333333
 72
     1
 11
81.2660709669079
 21
428.319336014015
 31
0.0
 73
     2
  0
ENDBLK
  5
   27F
  8
0
  6
CONTINUOUS
 62
     7
  0
BLOCK
  5
   280
  8
0
  6
CONTINUOUS
 62
     7
  2
*UDIM1370
 70
    65
 10
0.0
 20
0.0
 30
0.0
  3
*UDIM1370
  0
LINE
  5
   281
  8
0
  6
CONTINUOUS
 62
     7
 10
120.81446839869
 20
452.706341544344
 30
0.0
 11
120.81446839869
 21
467.065463306236
 31
0.0
  0
LINE
  5
   282
  8
0
  6
CONTINUOUS
 62
     7
 10
132.814468577504
 20
410.311086420357
 30
0.0
 11
132.814468577504
 21
467.065463306236
 31
0.0
  0
LINE
  5
   283
  8
0
  6
CONTINUOUS
 62
     7
 10
120.81446839869
 20
465.065463306236
 30
0.0
 11
132.814468577504
 21
465.065463306236
 31
0.0
  0
LINE
  5
   284
  8
0
  6
CONTINUOUS
 62
     7
 10
133.875128749284
 20
466.126123478016
 30
0.0
 11
131.753808405724
 21
464.004803134456
 31
0.0
  0
TEXT
  5
   285
  8
0
  6
CONTINUOUS
 62
     7
 10
124.314468530317
 20
466.065463306236
 30
0.0
 40
2.99999994933605
  1
30
 41
0.933333333333333
 72
     1
 11
126.814468488097
 21
467.565463280904
 31
0.0
 73
     2
  0
TEXT
  5
   286
  8
0
  6
CONTINUOUS
 62
     7
 10
122.91446855396
 20
462.0654633569
 30
0.0
 40
2.99999994933605
  1
= =
 41
0.933333333333333
 72
     1
 11
126.814468488097
 21
463.565463331568
 31
0.0
 73
     2
  0
ENDBLK
  5
   287
  8
0
  6
CONTINUOUS
 62
     7
  0
BLOCK
  5
   288
  8
0
  6
CONTINUOUS
 62
     7
  2
*UDIM1371
 70
    65
 10
0.0
 20
0.0
 30
0.0
  3
*UDIM1371
  0
LINE
  5
   289
  8
0
  6
CONTINUOUS
 62
     7
 10
108.814468219876
 20
410.311086420357
 30
0.0
 11
108.814468219876
 21
467.065463306236
 31
0.0
  0
LINE
  5
   28A
  8
0
  6
CONTINUOUS
 62
     7
 10
120.81446839869
 20
452.706341544344
 30
0.0
 11
120.81446839869
 21
467.065463306236
 31
0.0
  0
LINE
  5
   28B
  8
0
  6
CONTINUOUS
 62
     7
 10
103.814468219876
 20
465.065463306236
 30
0.0
 11
120.81446839869
 21
465.065463306236
 31
0.0
  0
LINE
  5
   28C
  8
0
  6
CONTINUOUS
 62
     7
 10
105.916690746666
 20
464.289006149817
 30
0.0
 11
108.814468219876
 21
465.065463306236
 31
0.0
  0
LINE
  5
   28D
  8
0
  6
CONTINUOUS
 62
     7
 10
108.814468219876
 20
465.065463306236
 30
0.0
 11
105.916690746666
 21
465.841920462655
 31
0.0
  0
LINE
  5
   28E
  8
0
  6
CONTINUOUS
 62
     7
 10
121.87512857047
 20
466.126123478016
 30
0.0
 11
119.75380822691
 21
464.004803134456
 31
0.0
  0
TEXT
  5
   28F
  8
0
  6
CONTINUOUS
 62
     7
 10
112.314468351503
 20
466.065463306236
 30
0.0
 40
2.99999994933605
  1
30
 41
0.933333333333333
 72
     1
 11
114.814468309283
 21
467.565463280904
 31
0.0
 73
     2
  0
ENDBLK
  5
   290
  8
0
  6
CONTINUOUS
 62
     7
  0
BLOCK
  5
   291
  8
0
  6
CONTINUOUS
 62
     7
  2
*UDIM1372
 70
    65
 10
0.0
 20
0.0
 30
0.0
  3
*UDIM1372
  0
LINE
  5
   292
  8
0
  6
CONTINUOUS
 62
     7
 10
131.029952731131
 20
412.542991388031
 30
0.0
 11
137.071447829428
 21
393.504052410702
 31
0.0
  0
LINE
  5
   293
  8
0
  6
CONTINUOUS
 62
     7
 10
137.071447829428
 20
393.504052410702
 30
0.0
 11
168.271447420739
 21
393.504052410702
 31
0.0
  0
LINE
  5
   294
  8
0
  6
CONTINUOUS
 62
     7
 10
130.925702172669
 20
410.304385328682
 30
0.0
 11
132.542254292417
 21
407.777181489626
 31
0.0
  0
LINE
  5
   295
  8
0
  6
CONTINUOUS
 62
     7
 10
132.542254292417
 20
407.777181489626
 30
0.0
 11
132.405881053367
 21
410.774080276651
 31
0.0
  0
LINE
  5
   296
  8
0
  6
CONTINUOUS
 62
     7
 10
134.70323498234
 20
403.534286061579
 30
0.0
 11
133.086682862592
 21
406.061489900635
 31
0.0
  0
LINE
  5
   297
  8
0
  6
CONTINUOUS
 62
     7
 10
133.086682862592
 20
406.061489900635
 30
0.0
 11
133.223056101641
 21
403.06459111361
 31
0.0
  0
TEXT
  5
   298
  8
0
  6
CONTINUOUS
 62
     7
 10
146.071447778764
 20
394.504052410702
 30
0.0
 40
2.99999994933605
  1
4,5
 41
0.933333333333333
 72
     1
 11
149.971447712901
 21
396.00405238537
 31
0.0
 73
     2
  0
TEXT
  5
   299
  8
0
  6
CONTINUOUS
 62
     7
 10
142.071447829428
 20
394.504052410702
 30
0.0
 40
2.99999994933605
  1
Ø
 41
1.2
 72
     1
 11
143.571447804096
 21
396.00405238537
 31
0.0
 73
     2
  0
TEXT
  5
   29A
  8
0
  6
CONTINUOUS
 62
     7
 10
154.871447647038
 20
394.504052410702
 30
0.0
 40
2.99999994933605
  1
 - M4
 41
0.933333333333333
 72
     1
 11
161.571447533888
 21
396.00405238537
 31
0.0
 73
     2
  0
ENDBLK
  5
   29B
  8
0
  6
CONTINUOUS
 62
     7
  0
BLOCK
  5
   29C
  8
0
  6
CONTINUOUS
 62
     7
  2
*UDIM1373
 70
    65
 10
0.0
 20
0.0
 30
0.0
  3
*UDIM1373
  0
LINE
  5
   29D
  8
0
  6
CONTINUOUS
 62
     7
 10
132.814468577504
 20
407.919335691112
 30
0.0
 11
132.814468577504
 21
467.065463306236
 31
0.0
  0
LINE
  5
   29E
  8
0
  6
CONTINUOUS
 62
     7
 10
147.054468789697
 20
414.297357600433
 30
0.0
 11
147.054468789697
 21
467.065463306236
 31
0.0
  0
LINE
  5
   29F
  8
0
  6
CONTINUOUS
 62
     7
 10
127.814468577504
 20
465.065463306236
 30
0.0
 11
152.054468789697
 21
465.065463306236
 31
0.0
  0
LINE
  5
   2A0
  8
0
  6
CONTINUOUS
 62
     7
 10
131.753808405724
 20
464.004803134456
 30
0.0
 11
133.875128749284
 21
466.126123478016
 31
0.0
  0
LINE
  5
   2A1
  8
0
  6
CONTINUOUS
 62
     7
 10
148.115128961477
 20
466.126123478016
 30
0.0
 11
145.993808617917
 21
464.004803134456
 31
0.0
  0
TEXT
  5
   2A2
  8
0
  6
CONTINUOUS
 62
     7
 10
134.634468773107
 20
466.065463306236
 30
0.0
 40
2.99999994933605
  1
35,6
 41
0.933333333333333
 72
     1
 11
139.9344686836
 21
467.565463280904
 31
0.0
 73
     2
  0
ENDBLK
  5
   2A3
  8
0
  6
CONTINUOUS
 62
     7
  0
ENDSEC
  0
SECTION
  2
ENTITIES
  0
TEXT
  5
   2A4
  8
0
  6
CONTINUOUS
 62
     1
 10
384.65442328528
 20
385.545589389205
 30
0.0
 40
2.00000008940697
  1
FIXED VER. - SIDE BY SIDE REMOTE CONTROL
 41
0.749999861419206
 72
     1
 11
414.504419100289
 21
386.545589433908
 31
0.0
 73
     2
  0
TEXT
  5
   2A5
  8
0
  6
CONTINUOUS
 62
     1
 10
386.154422812905
 20
388.545589389205
 30
0.0
 40
2.00000008940697
  1
3-4POLE LOW VOLTAGE M.C.C.B SERIES "T"
 41
0.749999861419206
 72
     1
 11
414.50441883802
 21
389.545589433908
 31
0.0
 73
     2
  0
TEXT
  5
   2A6
  8
0
  6
CONTINUOUS
 62
     1
 10
374.10681670383
 20
377.475337924361
 30
0.0
 40
2.00000008940697
  1
TRI-TETR ESE.FIS. - COMANDO SOLENOIDE AFFIANCATO
 41
0.749999861419206
 72
     1
 11
409.956811678414
 21
378.475337969064
 31
0.0
 73
     2
  0
TEXT
  5
   2A7
  8
0
  6
CONTINUOUS
 62
     1
 10
389.856814235445
 20
380.475337924361
 30
0.0
 40
2.00000008940697
  1
INTERR.AUTOMATICO SERIE "T"
 41
0.749999861419206
 72
     1
 11
409.956811416145
 21
381.475337969064
 31
0.0
 73
     2
  0
TEXT
  5
   2A8
  8
0
  6
CONTINUOUS
 62
     1
 10
299.852034528119
 20
372.382097900459
 30
0.0
 40
2.00000008940697
  1
N0030 00-02-14
 41
0.799999960511924
  0
TEXT
  5
   2A9
  8
0
  6
CONTINUOUS
 62
     1
 10
394.853149588908
 20
361.253751274992
 30
0.0
 40
4.00000017881393
  1
RH0012.135
 41
0.937499973922969
 72
     2
 11
431.60315018868
 21
361.253751274992
 31
0.0
  0
TEXT
  5
   2AA
  8
0
  6
CONTINUOUS
 62
     1
 10
412.938842904572
 20
370.235347934372
 30
0.0
 40
3.00000002980232
  1
T2
 41
0.916666604744064
 72
     2
 11
417.888842614992
 21
370.235347934372
 31
0.0
  0
INSERT
  5
   2AB
  8
255
  6
CONTINUOUS
 62
     7
  2
$1TAB
 10
363.455660848349
 20
569.88329159331
 30
0.0
 41
0.75
 42
0.75
 43
0.75
  0
POINT
  5
   2AC
  8
0
  6
CONTINUOUS
 62
     3
 10
179.199096679687
 20
502.002986657018
 30
0.0
  0
POINT
  5
   2AD
  8
0
  6
CONTINUOUS
 62
     3
 10
156.699096679688
 20
502.002986657018
 30
0.0
  0
POINT
  5
   2AE
  8
0
  6
CONTINUOUS
 62
     3
 10
134.199096679688
 20
502.002986657018
 30
0.0
  0
POINT
  5
   2AF
  8
0
  6
CONTINUOUS
 62
     3
 10
179.199096679687
 20
581.877990722656
 30
0.0
  0
POINT
  5
   2B0
  8
0
  6
CONTINUOUS
 62
     3
 10
156.699096679688
 20
581.877990722656
 30
0.0
  0
POINT
  5
   2B1
  8
0
  6
CONTINUOUS
 62
     3
 10
134.199096679688
 20
581.877990722656
 30
0.0
  0
TEXT
  5
   2B2
  8
0
  6
CONTINUOUS
 62
     7
 10
253.01291900886
 20
542.423043129485
 30
0.0
 40
3.00000013411045
  1
X
 41
0.933333333333333
 72
     1
 11
254.112919058034
 21
543.92304319654
 31
0.0
 73
     2
  0
TEXT
  5
   2B3
  8
0
  6
CONTINUOUS
 62
     7
 10
94.6864189879099
 20
542.538458831999
 30
0.0
 40
3.00000013411045
  1
X
 41
0.933333333333333
 72
     1
 11
95.7864190370838
 21
544.038458899054
 31
0.0
 73
     2
  0
TEXT
  5
   2B4
  8
0
  6
CONTINUOUS
 62
     7
 10
153.426141311932
 20
594.654912573619
 30
0.0
 40
3.00000013411045
  1
Y
 41
0.933333333333333
 72
     1
 11
154.526141361106
 21
596.154912640675
 31
0.0
 73
     2
  0
TEXT
  5
   2B5
  8
0
  6
CONTINUOUS
 62
     7
 10
153.541557014446
 20
486.561843112725
 30
0.0
 40
3.00000013411045
  1
Y
 41
0.933333333333333
 72
     1
 11
154.64155706362
 21
488.06184317978
 31
0.0
 73
     2
  0
LINE
  5
   2B6
  8
0
  6
CONTINUOUS
 62
     1
 10
242.010778427124
 20
571.07342338562
 30
0.0
 11
245.376331329346
 21
574.438976287842
 31
0.0
  0
LINE
  5
   2B7
  8
0
  6
CONTINUOUS
 62
     1
 10
241.480447769165
 20
571.603754043579
 30
0.0
 11
244.846000671387
 21
574.969306945801
 31
0.0
  0
LINE
  5
   2B8
  8
0
  6
CONTINUOUS
 62
     1
 10
193.20219039917
 20
508.823424816132
 30
0.0
 11
196.567743301392
 21
512.188976287842
 31
0.0
  0
LINE
  5
   2B9
  8
0
  6
CONTINUOUS
 62
     1
 10
192.671862602234
 20
509.353754043579
 30
0.0
 11
196.037412643433
 21
512.719306945801
 31
0.0
  0
LINE
  5
   2BA
  8
0
  6
CONTINUOUS
 62
     2
 10
243.211596224784
 20
525.475741412163
 30
0.0
 11
243.399096224784
 21
525.663241412163
 31
0.0
  0
LINE
  5
   2BB
  8
0
  6
CONTINUOUS
 62
   130
 10
246.502579368983
 20
572.444239616394
 30
0.0
 11
246.502579368983
 21
572.489844322205
 31
0.0
  0
LINE
  5
   2BC
  8
0
  6
CONTINUOUS
 62
   130
 10
246.502579368983
 20
573.672782897949
 30
0.0
 11
246.502579368983
 21
573.712782859802
 31
0.0
  0
LINE
  5
   2BD
  8
0
  6
CONTINUOUS
 62
   130
 10
191.545613995366
 20
511.423997402191
 30
0.0
 11
191.545613995366
 21
511.464237689972
 31
0.0
  0
LINE
  5
   2BE
  8
0
  6
CONTINUOUS
 62
     2
 10
240.182301498694
 20
525.199729204178
 30
0.0
 11
240.182301498694
 21
526.291640043259
 31
0.0
  0
LINE
  5
   2BF
  8
0
  6
CONTINUOUS
 62
     2
 10
240.182298660278
 20
526.291640263305
 30
0.0
 11
240.211595535278
 21
526.291640263305
 31
0.0
  0
LINE
  5
   2C0
  8
0
  6
CONTINUOUS
 62
     2
 10
243.211595535278
 20
526.291640263305
 30
0.0
 11
243.399095535278
 21
526.291640263305
 31
0.0
  0
LINE
  5
   2C1
  8
0
  6
CONTINUOUS
 62
   253
 10
243.211595535278
 20
526.938240722657
 30
0.0
 11
243.399095535278
 21
526.938240722657
 31
0.0
  0
LINE
  5
   2C2
  8
0
  6
CONTINUOUS
 62
   253
 10
240.182298660278
 20
526.938240722657
 30
0.0
 11
240.211595535278
 21
526.938240722657
 31
0.0
  0
LINE
  5
   2C3
  8
0
  6
CONTINUOUS
 62
   253
 10
240.182301498694
 20
526.291640043259
 30
0.0
 11
240.182301498694
 21
526.938240885735
 31
0.0
  0
LINE
  5
   2C4
  8
0
  6
CONTINUOUS
 62
     2
 10
240.174095535278
 20
523.565493583679
 30
0.0
 11
240.174095535278
 21
525.199729204178
 31
0.0
  0
LINE
  5
   2C5
  8
0
  6
CONTINUOUS
 62
   253
 10
240.182301498694
 20
525.199729204178
 30
0.0
 11
240.182301498694
 21
526.938240885735
 31
0.0
  0
LINE
  5
   2C6
  8
0
  6
CONTINUOUS
 62
     2
 10
242.807301498694
 20
523.565493583679
 30
0.0
 11
242.807301498694
 21
523.750043869019
 31
0.0
  0
LINE
  5
   2C7
  8
0
  6
CONTINUOUS
 62
     2
 10
240.17409324646
 20
525.063240722656
 30
0.0
 11
240.211595535278
 21
525.063240722656
 31
0.0
  0
LINE
  5
   2C8
  8
0
  6
CONTINUOUS
 62
     7
 10
182.248778343201
 20
526.377990722661
 30
0.0
 11
182.431394577026
 21
526.377990722661
 31
0.0
  0
LINE
  5
   2C9
  8
0
  6
CONTINUOUS
 62
     7
 10
175.985160827637
 20
526.377990722661
 30
0.0
 11
176.125356674194
 21
526.377990722661
 31
0.0
  0
LINE
  5
   2CA
  8
0
  6
CONTINUOUS
 62
     7
 10
182.578176498413
 20
524.877990722661
 30
0.0
 11
182.638109207153
 21
524.877990722661
 31
0.0
  0
ARC
  5
   2CB
  8
0
  6
CONTINUOUS
 62
     3
 10
189.699104595516
 20
591.440493420422
 30
0.0
 40
0.749999999999344
 50
359.999356767253
 51
450.000604731576
  0
ARC
  5
   2CC
  8
0
  6
CONTINUOUS
 62
     3
 10
123.699097249848
 20
591.440486832983
 30
0.0
 40
0.749999999999648
 50
90.0000435571815
 51
180.000139982427
  0
LINE
  5
   2CD
  8
0
  6
CONTINUOUS
 62
     3
 10
190.449097098231
 20
578.31548500061
 30
0.0
 11
190.449097098231
 21
591.44048500061
 31
0.0
  0
LINE
  5
   2CE
  8
0
  6
CONTINUOUS
 62
     3
 10
122.949097098231
 20
578.315487861633
 30
0.0
 11
122.949097098231
 21
591.44048500061
 31
0.0
  0
LINE
  5
   2CF
  8
0
  6
CONTINUOUS
 62
     3
 10
188.199096679688
 20
592.190486091418
 30
0.0
 11
189.699096679688
 21
592.190486074159
 31
0.0
  0
LINE
  5
   2D0
  8
0
  6
CONTINUOUS
 62
     3
 10
172.348616123199
 20
592.1904862738
 30
0.0
 11
172.690690040588
 21
592.190486269864
 31
0.0
  0
LINE
  5
   2D1
  8
0
  6
CONTINUOUS
 62
     3
 10
125.199096679688
 20
592.190486816319
 30
0.0
 11
188.199096679688
 21
592.190486091418
 31
0.0
  0
LINE
  5
   2D2
  8
0
  6
CONTINUOUS
 62
     3
 10
123.699096679688
 20
592.190486833579
 30
0.0
 11
125.199096679688
 21
592.190486816319
 31
0.0
  0
LINE
  5
   2D3
  8
0
  6
CONTINUOUS
 62
     3
 10
188.236596107483
 20
578.315486090987
 30
0.0
 11
188.611596107483
 21
578.315486086672
 31
0.0
  0
LINE
  5
   2D4
  8
0
  6
CONTINUOUS
 62
     3
 10
186.886596679688
 20
578.31548610652
 30
0.0
 11
187.261596679688
 21
578.315486102206
 31
0.0
  0
LINE
  5
   2D5
  8
0
  6
CONTINUOUS
 62
     3
 10
185.536597251892
 20
578.315486122054
 30
0.0
 11
185.911597251892
 21
578.315486117739
 31
0.0
  0
LINE
  5
   2D6
  8
0
  6
CONTINUOUS
 62
     3
 10
184.186597824097
 20
578.315486137588
 30
0.0
 11
184.561597824097
 21
578.315486133273
 31
0.0
  0
LINE
  5
   2D7
  8
0
  6
CONTINUOUS
 62
     3
 10
182.836598396301
 20
578.315486153121
 30
0.0
 11
183.211598396301
 21
578.315486148806
 31
0.0
  0
LINE
  5
   2D8
  8
0
  6
CONTINUOUS
 62
     3
 10
181.486596107483
 20
578.315486168655
 30
0.0
 11
181.861596107483
 21
578.31548616434
 31
0.0
  0
LINE
  5
   2D9
  8
0
  6
CONTINUOUS
 62
     3
 10
180.136596679688
 20
578.315486184188
 30
0.0
 11
180.511596679688
 21
578.315486179874
 31
0.0
  0
LINE
  5
   2DA
  8
0
  6
CONTINUOUS
 62
     3
 10
178.786597251892
 20
578.315486199722
 30
0.0
 11
179.161597251892
 21
578.315486195407
 31
0.0
  0
LINE
  5
   2DB
  8
0
  6
CONTINUOUS
 62
     3
 10
177.436596393585
 20
578.315486215256
 30
0.0
 11
177.811596393585
 21
578.315486210941
 31
0.0
  0
LINE
  5
   2DC
  8
0
  6
CONTINUOUS
 62
     3
 10
176.08659696579
 20
578.315486230789
 30
0.0
 11
176.46159696579
 21
578.315486226474
 31
0.0
  0
LINE
  5
   2DD
  8
0
  6
CONTINUOUS
 62
     3
 10
174.736597537994
 20
578.315486246323
 30
0.0
 11
175.111597537994
 21
578.315486242008
 31
0.0
  0
LINE
  5
   2DE
  8
0
  6
CONTINUOUS
 62
     3
 10
173.386596679688
 20
578.315486261856
 30
0.0
 11
173.761596679688
 21
578.315486257541
 31
0.0
  0
LINE
  5
   2DF
  8
0
  6
CONTINUOUS
 62
     3
 10
172.036597251892
 20
578.31548627739
 30
0.0
 11
172.411597251892
 21
578.315486273075
 31
0.0
  0
LINE
  5
   2E0
  8
0
  6
CONTINUOUS
 62
     3
 10
170.686596393585
 20
578.315486292923
 30
0.0
 11
171.061596393585
 21
578.315486288609
 31
0.0
  0
LINE
  5
   2E1
  8
0
  6
CONTINUOUS
 62
     3
 10
169.33659696579
 20
578.315486308457
 30
0.0
 11
169.71159696579
 21
578.315486304142
 31
0.0
  0
LINE
  5
   2E2
  8
0
  6
CONTINUOUS
 62
     3
 10
167.986596822739
 20
578.315486323991
 30
0.0
 11
168.361596822739
 21
578.315486319676
 31
0.0
  0
LINE
  5
   2E3
  8
0
  6
CONTINUOUS
 62
     3
 10
166.636597394943
 20
578.315486339524
 30
0.0
 11
167.011597394943
 21
578.315486335209
 31
0.0
  0
LINE
  5
   2E4
  8
0
  6
CONTINUOUS
 62
     3
 10
165.286597251892
 20
578.315486355058
 30
0.0
 11
165.661597251892
 21
578.315486350743
 31
0.0
  0
LINE
  5
   2E5
  8
0
  6
CONTINUOUS
 62
     3
 10
163.936597108841
 20
578.315486370591
 30
0.0
 11
164.311597108841
 21
578.315486366276
 31
0.0
  0
LINE
  5
   2E6
  8
0
  6
CONTINUOUS
 62
     3
 10
162.58659696579
 20
578.315486386125
 30
0.0
 11
162.96159696579
 21
578.31548638181
 31
0.0
  0
LINE
  5
   2E7
  8
0
  6
CONTINUOUS
 62
     3
 10
161.236597180367
 20
578.315486401659
 30
0.0
 11
161.611597180367
 21
578.315486397344
 31
0.0
  0
LINE
  5
   2E8
  8
0
  6
CONTINUOUS
 62
     3
 10
159.886597037315
 20
578.315486417192
 30
0.0
 11
160.261597037315
 21
578.315486412877
 31
0.0
  0
LINE
  5
   2E9
  8
0
  6
CONTINUOUS
 62
     3
 10
158.536597073078
 20
578.315486432726
 30
0.0
 11
158.911597073078
 21
578.315486428411
 31
0.0
  0
LINE
  5
   2EA
  8
0
  6
CONTINUOUS
 62
     3
 10
157.186597108841
 20
578.315486448259
 30
0.0
 11
157.561597108841
 21
578.315486443944
 31
0.0
  0
LINE
  5
   2EB
  8
0
  6
CONTINUOUS
 62
     3
 10
155.836597055197
 20
578.315486463793
 30
0.0
 11
156.2115970999
 21
578.315486459478
 31
0.0
  0
LINE
  5
   2EC
  8
0
  6
CONTINUOUS
 62
     3
 10
154.486597180367
 20
578.315486479326
 30
0.0
 11
154.861597180366
 21
578.315486475012
 31
0.0
  0
LINE
  5
   2ED
  8
0
  6
CONTINUOUS
 62
     3
 10
153.136597037315
 20
578.31548649486
 30
0.0
 11
153.511597037315
 21
578.315486490545
 31
0.0
  0
LINE
  5
   2EE
  8
0
  6
CONTINUOUS
 62
     3
 10
151.786597251892
 20
578.315486510394
 30
0.0
 11
152.161597251892
 21
578.315486506079
 31
0.0
  0
LINE
  5
   2EF
  8
0
  6
CONTINUOUS
 62
     3
 10
150.436597108841
 20
578.315486525927
 30
0.0
 11
150.811597108841
 21
578.315486521612
 31
0.0
  0
LINE
  5
   2F0
  8
0
  6
CONTINUOUS
 62
     3
 10
149.08659696579
 20
578.315486541461
 30
0.0
 11
149.46159696579
 21
578.315486537146
 31
0.0
  0
LINE
  5
   2F1
  8
0
  6
CONTINUOUS
 62
     3
 10
147.736596822739
 20
578.315486556994
 30
0.0
 11
148.111596822739
 21
578.31548655268
 31
0.0
  0
LINE
  5
   2F2
  8
0
  6
CONTINUOUS
 62
     3
 10
146.386597394943
 20
578.315486572528
 30
0.0
 11
146.761597394943
 21
578.315486568213
 31
0.0
  0
LINE
  5
   2F3
  8
0
  6
CONTINUOUS
 62
     3
 10
145.036597251892
 20
578.315486588062
 30
0.0
 11
145.411597251892
 21
578.315486583747
 31
0.0
  0
LINE
  5
   2F4
  8
0
  6
CONTINUOUS
 62
     3
 10
143.686596393585
 20
578.315486603595
 30
0.0
 11
144.061596393585
 21
578.31548659928
 31
0.0
  0
LINE
  5
   2F5
  8
0
  6
CONTINUOUS
 62
     3
 10
142.33659696579
 20
578.315486619129
 30
0.0
 11
142.71159696579
 21
578.315486614814
 31
0.0
  0
LINE
  5
   2F6
  8
0
  6
CONTINUOUS
 62
     3
 10
140.986597537994
 20
578.315486634662
 30
0.0
 11
141.361597537994
 21
578.315486630347
 31
0.0
  0
LINE
  5
   2F7
  8
0
  6
CONTINUOUS
 62
     3
 10
139.636596679688
 20
578.315486650196
 30
0.0
 11
140.011596679688
 21
578.315486645881
 31
0.0
  0
LINE
  5
   2F8
  8
0
  6
CONTINUOUS
 62
     3
 10
138.286597251892
 20
578.31548666573
 30
0.0
 11
138.661597251892
 21
578.315486661415
 31
0.0
  0
LINE
  5
   2F9
  8
0
  6
CONTINUOUS
 62
     3
 10
136.936596393585
 20
578.315486681263
 30
0.0
 11
137.311596393585
 21
578.315486676948
 31
0.0
  0
LINE
  5
   2FA
  8
0
  6
CONTINUOUS
 62
     3
 10
135.58659696579
 20
578.315486696797
 30
0.0
 11
135.96159696579
 21
578.315486692482
 31
0.0
  0
LINE
  5
   2FB
  8
0
  6
CONTINUOUS
 62
     3
 10
134.236597537994
 20
578.31548671233
 30
0.0
 11
134.611597537994
 21
578.315486708015
 31
0.0
  0
LINE
  5
   2FC
  8
0
  6
CONTINUOUS
 62
     3
 10
132.886596679688
 20
578.315486727864
 30
0.0
 11
133.261596679688
 21
578.315486723549
 31
0.0
  0
LINE
  5
   2FD
  8
0
  6
CONTINUOUS
 62
     3
 10
131.536597251892
 20
578.315486743397
 30
0.0
 11
131.911597251892
 21
578.315486739083
 31
0.0
  0
LINE
  5
   2FE
  8
0
  6
CONTINUOUS
 62
     3
 10
130.186597824097
 20
578.315486758931
 30
0.0
 11
130.561597824097
 21
578.315486754616
 31
0.0
  0
LINE
  5
   2FF
  8
0
  6
CONTINUOUS
 62
     3
 10
128.836598396301
 20
578.315486774465
 30
0.0
 11
129.211598396301
 21
578.31548677015
 31
0.0
  0
LINE
  5
   300
  8
0
  6
CONTINUOUS
 62
     3
 10
127.486596107483
 20
578.315486789998
 30
0.0
 11
127.861596107483
 21
578.315486785683
 31
0.0
  0
LINE
  5
   301
  8
0
  6
CONTINUOUS
 62
     3
 10
126.136596679688
 20
578.315486805532
 30
0.0
 11
126.511596679687
 21
578.315486801217
 31
0.0
  0
LINE
  5
   302
  8
0
  6
CONTINUOUS
 62
     3
 10
188.611596107483
 20
578.315486086672
 30
0.0
 11
190.449096679688
 21
578.315486065529
 31
0.0
  0
LINE
  5
   303
  8
0
  6
CONTINUOUS
 62
     3
 10
122.949096679687
 20
578.315486842208
 30
0.0
 11
124.786597251892
 21
578.315486821066
 31
0.0
  0
LINE
  5
   304
  8
0
  6
CONTINUOUS
 62
     3
 10
124.786597251892
 20
578.315486821066
 30
0.0
 11
125.161597251892
 21
578.315486816751
 31
0.0
  0
LINE
  5
   305
  8
0
  6
CONTINUOUS
 62
     3
 10
183.211598396301
 20
578.315486148806
 30
0.0
 11
184.186597824097
 21
578.315486137588
 31
0.0
  0
LINE
  5
   306
  8
0
  6
CONTINUOUS
 62
     3
 10
181.861596107483
 20
578.31548616434
 30
0.0
 11
182.836598396301
 21
578.315486153121
 31
0.0
  0
LINE
  5
   307
  8
0
  6
CONTINUOUS
 62
     3
 10
184.561597824097
 20
578.315486133273
 30
0.0
 11
185.536597251892
 21
578.315486122054
 31
0.0
  0
LINE
  5
   308
  8
0
  6
CONTINUOUS
 62
     3
 10
187.261596679688
 20
578.315486102206
 30
0.0
 11
188.236596107483
 21
578.315486090987
 31
0.0
  0
LINE
  5
   309
  8
0
  6
CONTINUOUS
 62
     3
 10
185.911597251892
 20
578.315486117739
 30
0.0
 11
186.886596679688
 21
578.31548610652
 31
0.0
  0
LINE
  5
   30A
  8
0
  6
CONTINUOUS
 62
     3
 10
125.161597251892
 20
578.315486816751
 30
0.0
 11
126.136596679688
 21
578.315486805532
 31
0.0
  0
LINE
  5
   30B
  8
0
  6
CONTINUOUS
 62
     3
 10
145.411597251892
 20
578.315486583747
 30
0.0
 11
146.386597394943
 21
578.315486572528
 31
0.0
  0
LINE
  5
   30C
  8
0
  6
CONTINUOUS
 62
     3
 10
165.661597251892
 20
578.315486350743
 30
0.0
 11
166.636597394943
 21
578.315486339524
 31
0.0
  0
LINE
  5
   30D
  8
0
  6
CONTINUOUS
 62
     3
 10
144.061596393585
 20
578.31548659928
 30
0.0
 11
145.036597251892
 21
578.315486588062
 31
0.0
  0
LINE
  5
   30E
  8
0
  6
CONTINUOUS
 62
     3
 10
142.71159696579
 20
578.315486614814
 30
0.0
 11
143.686596393585
 21
578.315486603595
 31
0.0
  0
LINE
  5
   30F
  8
0
  6
CONTINUOUS
 62
     3
 10
141.361597537994
 20
578.315486630347
 30
0.0
 11
142.33659696579
 21
578.315486619129
 31
0.0
  0
LINE
  5
   310
  8
0
  6
CONTINUOUS
 62
     3
 10
140.011596679688
 20
578.315486645881
 30
0.0
 11
140.986597537994
 21
578.315486634662
 31
0.0
  0
LINE
  5
   311
  8
0
  6
CONTINUOUS
 62
     3
 10
138.661597251892
 20
578.315486661415
 30
0.0
 11
139.636596679688
 21
578.315486650196
 31
0.0
  0
LINE
  5
   312
  8
0
  6
CONTINUOUS
 62
     3
 10
137.311596393585
 20
578.315486676948
 30
0.0
 11
138.286597251892
 21
578.31548666573
 31
0.0
  0
LINE
  5
   313
  8
0
  6
CONTINUOUS
 62
     3
 10
180.511596679688
 20
578.315486179874
 30
0.0
 11
181.486596107483
 21
578.315486168655
 31
0.0
  0
LINE
  5
   314
  8
0
  6
CONTINUOUS
 62
     3
 10
135.96159696579
 20
578.315486692482
 30
0.0
 11
136.936596393585
 21
578.315486681263
 31
0.0
  0
LINE
  5
   315
  8
0
  6
CONTINUOUS
 62
     3
 10
134.611597537994
 20
578.315486708015
 30
0.0
 11
135.58659696579
 21
578.315486696797
 31
0.0
  0
LINE
  5
   316
  8
0
  6
CONTINUOUS
 62
     3
 10
133.261596679688
 20
578.315486723549
 30
0.0
 11
134.236597537994
 21
578.31548671233
 31
0.0
  0
LINE
  5
   317
  8
0
  6
CONTINUOUS
 62
     3
 10
131.911597251892
 20
578.315486739083
 30
0.0
 11
132.886596679687
 21
578.315486727864
 31
0.0
  0
LINE
  5
   318
  8
0
  6
CONTINUOUS
 62
     3
 10
130.561597824097
 20
578.315486754616
 30
0.0
 11
131.536597251892
 21
578.315486743397
 31
0.0
  0
LINE
  5
   319
  8
0
  6
CONTINUOUS
 62
     3
 10
129.211598396301
 20
578.31548677015
 30
0.0
 11
130.186597824097
 21
578.315486758931
 31
0.0
  0
LINE
  5
   31A
  8
0
  6
CONTINUOUS
 62
     3
 10
127.861596107483
 20
578.315486785683
 30
0.0
 11
128.836598396301
 21
578.315486774465
 31
0.0
  0
LINE
  5
   31B
  8
0
  6
CONTINUOUS
 62
     3
 10
126.511596679687
 20
578.315486801217
 30
0.0
 11
127.486596107483
 21
578.315486789998
 31
0.0
  0
LINE
  5
   31C
  8
0
  6
CONTINUOUS
 62
     3
 10
169.71159696579
 20
578.315486304142
 30
0.0
 11
170.686596393585
 21
578.315486292923
 31
0.0
  0
LINE
  5
   31D
  8
0
  6
CONTINUOUS
 62
     3
 10
164.311597108841
 20
578.315486366276
 30
0.0
 11
165.286597251892
 21
578.315486355058
 31
0.0
  0
LINE
  5
   31E
  8
0
  6
CONTINUOUS
 62
     3
 10
167.011597394943
 20
578.315486335209
 30
0.0
 11
167.986596822739
 21
578.315486323991
 31
0.0
  0
LINE
  5
   31F
  8
0
  6
CONTINUOUS
 62
     3
 10
168.361596822739
 20
578.315486319676
 30
0.0
 11
169.33659696579
 21
578.315486308457
 31
0.0
  0
LINE
  5
   320
  8
0
  6
CONTINUOUS
 62
     3
 10
161.611597180367
 20
578.315486397344
 30
0.0
 11
162.58659696579
 21
578.315486386125
 31
0.0
  0
LINE
  5
   321
  8
0
  6
CONTINUOUS
 62
     3
 10
160.261597037315
 20
578.315486412877
 30
0.0
 11
161.236597180367
 21
578.315486401659
 31
0.0
  0
LINE
  5
   322
  8
0
  6
CONTINUOUS
 62
     3
 10
158.911597073078
 20
578.315486428411
 30
0.0
 11
159.886597037315
 21
578.315486417192
 31
0.0
  0
LINE
  5
   323
  8
0
  6
CONTINUOUS
 62
     3
 10
157.561597108841
 20
578.315486443944
 30
0.0
 11
158.536597073078
 21
578.315486432726
 31
0.0
  0
LINE
  5
   324
  8
0
  6
CONTINUOUS
 62
     3
 10
156.2115970999
 20
578.315486459478
 30
0.0
 11
157.186597108841
 21
578.315486448259
 31
0.0
  0
LINE
  5
   325
  8
0
  6
CONTINUOUS
 62
     3
 10
154.861597180366
 20
578.315486475012
 30
0.0
 11
155.836597055197
 21
578.315486463793
 31
0.0
  0
LINE
  5
   326
  8
0
  6
CONTINUOUS
 62
     3
 10
153.511597037315
 20
578.315486490545
 30
0.0
 11
154.486597180367
 21
578.315486479326
 31
0.0
  0
LINE
  5
   327
  8
0
  6
CONTINUOUS
 62
     3
 10
152.161597251892
 20
578.315486506079
 30
0.0
 11
153.136597037315
 21
578.31548649486
 31
0.0
  0
LINE
  5
   328
  8
0
  6
CONTINUOUS
 62
     3
 10
150.811597108841
 20
578.315486521612
 30
0.0
 11
151.786597251892
 21
578.315486510394
 31
0.0
  0
LINE
  5
   329
  8
0
  6
CONTINUOUS
 62
     3
 10
149.46159696579
 20
578.315486537146
 30
0.0
 11
150.436597108841
 21
578.315486525927
 31
0.0
  0
LINE
  5
   32A
  8
0
  6
CONTINUOUS
 62
     3
 10
148.111596822739
 20
578.31548655268
 30
0.0
 11
149.08659696579
 21
578.315486541461
 31
0.0
  0
LINE
  5
   32B
  8
0
  6
CONTINUOUS
 62
     3
 10
146.761597394943
 20
578.315486568213
 30
0.0
 11
147.736596822739
 21
578.315486556994
 31
0.0
  0
LINE
  5
   32C
  8
0
  6
CONTINUOUS
 62
     3
 10
162.96159696579
 20
578.31548638181
 30
0.0
 11
163.936597108841
 21
578.315486370591
 31
0.0
  0
LINE
  5
   32D
  8
0
  6
CONTINUOUS
 62
     3
 10
179.161597251892
 20
578.315486195407
 30
0.0
 11
180.136596679688
 21
578.315486184188
 31
0.0
  0
LINE
  5
   32E
  8
0
  6
CONTINUOUS
 62
     3
 10
177.811596393585
 20
578.315486210941
 30
0.0
 11
178.786597251892
 21
578.315486199722
 31
0.0
  0
LINE
  5
   32F
  8
0
  6
CONTINUOUS
 62
     3
 10
176.46159696579
 20
578.315486226474
 30
0.0
 11
177.436596393585
 21
578.315486215256
 31
0.0
  0
LINE
  5
   330
  8
0
  6
CONTINUOUS
 62
     3
 10
175.111597537994
 20
578.315486242008
 30
0.0
 11
176.08659696579
 21
578.315486230789
 31
0.0
  0
LINE
  5
   331
  8
0
  6
CONTINUOUS
 62
     3
 10
173.761596679688
 20
578.315486257541
 30
0.0
 11
174.736597537994
 21
578.315486246323
 31
0.0
  0
LINE
  5
   332
  8
0
  6
CONTINUOUS
 62
     3
 10
172.411597251892
 20
578.315486273075
 30
0.0
 11
173.386596679688
 21
578.315486261856
 31
0.0
  0
LINE
  5
   333
  8
0
  6
CONTINUOUS
 62
     3
 10
171.061596393585
 20
578.315486288609
 30
0.0
 11
172.036597251892
 21
578.31548627739
 31
0.0
  0
ARC
  5
   334
  8
0
  6
CONTINUOUS
 62
     3
 10
189.699104025951
 20
492.440483376393
 30
0.0
 40
0.74999999999977
 50
269.999438781277
 51
360.00056121835
  0
ARC
  5
   335
  8
0
  6
CONTINUOUS
 62
     3
 10
123.699096680284
 20
492.440490723253
 30
0.0
 40
0.750000000000455
 50
180.0
 51
269.999999954432
  0
LINE
  5
   336
  8
0
  6
CONTINUOUS
 62
     3
 10
190.449096679688
 20
492.440490722656
 30
0.0
 11
190.449096679688
 21
505.565490722656
 31
0.0
  0
LINE
  5
   337
  8
0
  6
CONTINUOUS
 62
     3
 10
122.949096679688
 20
492.440490722656
 30
0.0
 11
122.949096679688
 21
505.565490722656
 31
0.0
  0
LINE
  5
   338
  8
0
  6
CONTINUOUS
 62
     3
 10
188.199096679688
 20
491.690490722656
 30
0.0
 11
189.699096679688
 21
491.690490722656
 31
0.0
  0
LINE
  5
   339
  8
0
  6
CONTINUOUS
 62
     3
 10
125.199096679688
 20
491.690490722656
 30
0.0
 11
188.199096679688
 21
491.690490722656
 31
0.0
  0
LINE
  5
   33A
  8
0
  6
CONTINUOUS
 62
     3
 10
123.699096679688
 20
491.690490722656
 30
0.0
 11
125.199096679688
 21
491.690490722656
 31
0.0
  0
LINE
  5
   33B
  8
0
  6
CONTINUOUS
 62
     3
 10
188.236596107483
 20
505.565490722656
 30
0.0
 11
188.611596107483
 21
505.565490722656
 31
0.0
  0
LINE
  5
   33C
  8
0
  6
CONTINUOUS
 62
     3
 10
186.886596679688
 20
505.565490722656
 30
0.0
 11
187.261596679688
 21
505.565490722656
 31
0.0
  0
LINE
  5
   33D
  8
0
  6
CONTINUOUS
 62
     3
 10
185.536597251892
 20
505.565490722656
 30
0.0
 11
185.911597251892
 21
505.565490722656
 31
0.0
  0
LINE
  5
   33E
  8
0
  6
CONTINUOUS
 62
     3
 10
184.186597824097
 20
505.565490722656
 30
0.0
 11
184.561597824097
 21
505.565490722656
 31
0.0
  0
LINE
  5
   33F
  8
0
  6
CONTINUOUS
 62
     3
 10
182.836595535278
 20
505.565490722656
 30
0.0
 11
183.211595535278
 21
505.565490722656
 31
0.0
  0
LINE
  5
   340
  8
0
  6
CONTINUOUS
 62
     3
 10
181.486596107483
 20
505.565490722656
 30
0.0
 11
181.861596107483
 21
505.565490722656
 31
0.0
  0
LINE
  5
   341
  8
0
  6
CONTINUOUS
 62
     3
 10
180.136596679688
 20
505.565490722656
 30
0.0
 11
180.511596679688
 21
505.565490722656
 31
0.0
  0
LINE
  5
   342
  8
0
  6
CONTINUOUS
 62
     3
 10
178.786597251892
 20
505.565490722656
 30
0.0
 11
179.161597251892
 21
505.565490722656
 31
0.0
  0
LINE
  5
   343
  8
0
  6
CONTINUOUS
 62
     3
 10
177.436596393585
 20
505.565490722656
 30
0.0
 11
177.811596393585
 21
505.565490722656
 31
0.0
  0
LINE
  5
   344
  8
0
  6
CONTINUOUS
 62
     3
 10
176.08659696579
 20
505.565490722656
 30
0.0
 11
176.46159696579
 21
505.565490722656
 31
0.0
  0
LINE
  5
   345
  8
0
  6
CONTINUOUS
 62
     3
 10
174.736596107483
 20
505.565490722656
 30
0.0
 11
175.111596107483
 21
505.565490722656
 31
0.0
  0
LINE
  5
   346
  8
0
  6
CONTINUOUS
 62
     3
 10
173.386596679688
 20
505.565490722656
 30
0.0
 11
173.761596679688
 21
505.565490722656
 31
0.0
  0
LINE
  5
   347
  8
0
  6
CONTINUOUS
 62
     3
 10
172.036597251892
 20
505.565490722656
 30
0.0
 11
172.411597251892
 21
505.565490722656
 31
0.0
  0
LINE
  5
   348
  8
0
  6
CONTINUOUS
 62
     3
 10
170.686596393585
 20
505.565490722656
 30
0.0
 11
171.061596393585
 21
505.565490722656
 31
0.0
  0
LINE
  5
   349
  8
0
  6
CONTINUOUS
 62
     3
 10
169.33659696579
 20
505.565490722656
 30
0.0
 11
169.71159696579
 21
505.565490722656
 31
0.0
  0
LINE
  5
   34A
  8
0
  6
CONTINUOUS
 62
     3
 10
167.986596822739
 20
505.565490722656
 30
0.0
 11
168.361596822739
 21
505.565490722656
 31
0.0
  0
LINE
  5
   34B
  8
0
  6
CONTINUOUS
 62
     3
 10
166.636596679688
 20
505.565490722656
 30
0.0
 11
167.011596679688
 21
505.565490722656
 31
0.0
  0
LINE
  5
   34C
  8
0
  6
CONTINUOUS
 62
     3
 10
165.286596536636
 20
505.565490722656
 30
0.0
 11
165.661596536636
 21
505.565490722656
 31
0.0
  0
LINE
  5
   34D
  8
0
  6
CONTINUOUS
 62
     3
 10
163.936596393585
 20
505.565490722656
 30
0.0
 11
164.311596393585
 21
505.565490722656
 31
0.0
  0
LINE
  5
   34E
  8
0
  6
CONTINUOUS
 62
     3
 10
162.586596608162
 20
505.565490722656
 30
0.0
 11
162.96159696579
 21
505.565490722656
 31
0.0
  0
LINE
  5
   34F
  8
0
  6
CONTINUOUS
 62
     3
 10
161.236596822739
 20
505.565490722656
 30
0.0
 11
161.611596822739
 21
505.565490722656
 31
0.0
  0
LINE
  5
   350
  8
0
  6
CONTINUOUS
 62
     3
 10
159.886596679688
 20
505.565490722656
 30
0.0
 11
160.261596679688
 21
505.565490722656
 31
0.0
  0
LINE
  5
   351
  8
0
  6
CONTINUOUS
 62
     3
 10
158.53659671545
 20
505.565490722656
 30
0.0
 11
158.91159671545
 21
505.565490722656
 31
0.0
  0
LINE
  5
   352
  8
0
  6
CONTINUOUS
 62
     3
 10
157.186596661806
 20
505.565490722656
 30
0.0
 11
157.561596661806
 21
505.565490722656
 31
0.0
  0
LINE
  5
   353
  8
0
  6
CONTINUOUS
 62
     3
 10
155.836596697569
 20
505.565490722656
 30
0.0
 11
156.211596697569
 21
505.565490722656
 31
0.0
  0
LINE
  5
   354
  8
0
  6
CONTINUOUS
 62
     3
 10
154.486596643925
 20
505.565490722656
 30
0.0
 11
154.861596643925
 21
505.565490722656
 31
0.0
  0
LINE
  5
   355
  8
0
  6
CONTINUOUS
 62
     3
 10
153.136596679688
 20
505.565490722656
 30
0.0
 11
153.511596679688
 21
505.565490722656
 31
0.0
  0
LINE
  5
   356
  8
0
  6
CONTINUOUS
 62
     3
 10
151.786596536636
 20
505.565490722656
 30
0.0
 11
152.161596536636
 21
505.565490722656
 31
0.0
  0
LINE
  5
   357
  8
0
  6
CONTINUOUS
 62
     3
 10
150.436596393585
 20
505.565490722656
 30
0.0
 11
150.811596751213
 21
505.565490722656
 31
0.0
  0
LINE
  5
   358
  8
0
  6
CONTINUOUS
 62
     3
 10
149.08659696579
 20
505.565490722656
 30
0.0
 11
149.46159696579
 21
505.565490722656
 31
0.0
  0
LINE
  5
   359
  8
0
  6
CONTINUOUS
 62
     3
 10
147.736596822739
 20
505.565490722656
 30
0.0
 11
148.111596822739
 21
505.565490722656
 31
0.0
  0
LINE
  5
   35A
  8
0
  6
CONTINUOUS
 62
     3
 10
146.386596679688
 20
505.565490722656
 30
0.0
 11
146.761596679688
 21
505.565490722656
 31
0.0
  0
LINE
  5
   35B
  8
0
  6
CONTINUOUS
 62
     3
 10
145.036596536636
 20
505.565490722656
 30
0.0
 11
145.411596536636
 21
505.565490722656
 31
0.0
  0
LINE
  5
   35C
  8
0
  6
CONTINUOUS
 62
     3
 10
143.686596393585
 20
505.565490722656
 30
0.0
 11
144.061596393585
 21
505.565490722656
 31
0.0
  0
LINE
  5
   35D
  8
0
  6
CONTINUOUS
 62
     3
 10
142.33659696579
 20
505.565490722656
 30
0.0
 11
142.71159696579
 21
505.565490722656
 31
0.0
  0
LINE
  5
   35E
  8
0
  6
CONTINUOUS
 62
     3
 10
140.986596107483
 20
505.565490722656
 30
0.0
 11
141.361596107483
 21
505.565490722656
 31
0.0
  0
LINE
  5
   35F
  8
0
  6
CONTINUOUS
 62
     3
 10
139.636596679688
 20
505.565490722656
 30
0.0
 11
140.011596679688
 21
505.565490722656
 31
0.0
  0
LINE
  5
   360
  8
0
  6
CONTINUOUS
 62
     3
 10
138.286597251892
 20
505.565490722656
 30
0.0
 11
138.661597251892
 21
505.565490722656
 31
0.0
  0
LINE
  5
   361
  8
0
  6
CONTINUOUS
 62
     3
 10
136.936596393585
 20
505.565490722656
 30
0.0
 11
137.311596393585
 21
505.565490722656
 31
0.0
  0
LINE
  5
   362
  8
0
  6
CONTINUOUS
 62
     3
 10
135.58659696579
 20
505.565490722656
 30
0.0
 11
135.96159696579
 21
505.565490722656
 31
0.0
  0
LINE
  5
   363
  8
0
  6
CONTINUOUS
 62
     3
 10
134.236596107483
 20
505.565490722656
 30
0.0
 11
134.611596107483
 21
505.565490722656
 31
0.0
  0
LINE
  5
   364
  8
0
  6
CONTINUOUS
 62
     3
 10
132.886596679688
 20
505.565490722656
 30
0.0
 11
133.261596679688
 21
505.565490722656
 31
0.0
  0
LINE
  5
   365
  8
0
  6
CONTINUOUS
 62
     3
 10
131.536597251892
 20
505.565490722656
 30
0.0
 11
131.911597251892
 21
505.565490722656
 31
0.0
  0
LINE
  5
   366
  8
0
  6
CONTINUOUS
 62
     3
 10
130.186597824097
 20
505.565490722656
 30
0.0
 11
130.561597824097
 21
505.565490722656
 31
0.0
  0
LINE
  5
   367
  8
0
  6
CONTINUOUS
 62
     3
 10
128.836595535278
 20
505.565490722656
 30
0.0
 11
129.211595535278
 21
505.565490722656
 31
0.0
  0
LINE
  5
   368
  8
0
  6
CONTINUOUS
 62
     3
 10
127.486596107483
 20
505.565490722656
 30
0.0
 11
127.861596107483
 21
505.565490722656
 31
0.0
  0
LINE
  5
   369
  8
0
  6
CONTINUOUS
 62
     3
 10
126.136596679688
 20
505.565490722656
 30
0.0
 11
126.511596679688
 21
505.565490722656
 31
0.0
  0
LINE
  5
   36A
  8
0
  6
CONTINUOUS
 62
     3
 10
188.611596107483
 20
505.565490722656
 30
0.0
 11
190.449096679688
 21
505.565490722656
 31
0.0
  0
LINE
  5
   36B
  8
0
  6
CONTINUOUS
 62
     3
 10
122.949096679688
 20
505.565490722656
 30
0.0
 11
124.786597251892
 21
505.565490722656
 31
0.0
  0
LINE
  5
   36C
  8
0
  6
CONTINUOUS
 62
     3
 10
124.786597251892
 20
505.565490722656
 30
0.0
 11
125.161597251892
 21
505.565490722656
 31
0.0
  0
LINE
  5
   36D
  8
0
  6
CONTINUOUS
 62
     3
 10
180.511596679688
 20
505.565490722656
 30
0.0
 11
181.486596107483
 21
505.565490722656
 31
0.0
  0
LINE
  5
   36E
  8
0
  6
CONTINUOUS
 62
     3
 10
183.211595535278
 20
505.565490722656
 30
0.0
 11
184.186597824097
 21
505.565490722656
 31
0.0
  0
LINE
  5
   36F
  8
0
  6
CONTINUOUS
 62
     3
 10
134.611596107483
 20
505.565490722656
 30
0.0
 11
135.58659696579
 21
505.565490722656
 31
0.0
  0
LINE
  5
   370
  8
0
  6
CONTINUOUS
 62
     3
 10
179.161597251892
 20
505.565490722656
 30
0.0
 11
180.136596679688
 21
505.565490722656
 31
0.0
  0
LINE
  5
   371
  8
0
  6
CONTINUOUS
 62
     3
 10
133.261596679688
 20
505.565490722656
 30
0.0
 11
134.236596107483
 21
505.565490722656
 31
0.0
  0
LINE
  5
   372
  8
0
  6
CONTINUOUS
 62
     3
 10
131.911597251892
 20
505.565490722656
 30
0.0
 11
132.886596679688
 21
505.565490722656
 31
0.0
  0
LINE
  5
   373
  8
0
  6
CONTINUOUS
 62
     3
 10
130.561597824097
 20
505.565490722656
 30
0.0
 11
131.536597251892
 21
505.565490722656
 31
0.0
  0
LINE
  5
   374
  8
0
  6
CONTINUOUS
 62
     3
 10
129.211595535278
 20
505.565490722656
 30
0.0
 11
130.186597824097
 21
505.565490722656
 31
0.0
  0
LINE
  5
   375
  8
0
  6
CONTINUOUS
 62
     3
 10
127.861596107483
 20
505.565490722656
 30
0.0
 11
128.836595535278
 21
505.565490722656
 31
0.0
  0
LINE
  5
   376
  8
0
  6
CONTINUOUS
 62
     3
 10
126.511596679688
 20
505.565490722656
 30
0.0
 11
127.486596107483
 21
505.565490722656
 31
0.0
  0
LINE
  5
   377
  8
0
  6
CONTINUOUS
 62
     3
 10
177.811596393585
 20
505.565490722656
 30
0.0
 11
178.786597251892
 21
505.565490722656
 31
0.0
  0
LINE
  5
   378
  8
0
  6
CONTINUOUS
 62
     3
 10
135.96159696579
 20
505.565490722656
 30
0.0
 11
136.936596393585
 21
505.565490722656
 31
0.0
  0
LINE
  5
   379
  8
0
  6
CONTINUOUS
 62
     3
 10
181.861596107483
 20
505.565490722656
 30
0.0
 11
182.836595535278
 21
505.565490722656
 31
0.0
  0
LINE
  5
   37A
  8
0
  6
CONTINUOUS
 62
     3
 10
184.561597824097
 20
505.565490722656
 30
0.0
 11
185.536597251892
 21
505.565490722656
 31
0.0
  0
LINE
  5
   37B
  8
0
  6
CONTINUOUS
 62
     3
 10
176.46159696579
 20
505.565490722656
 30
0.0
 11
177.436596393585
 21
505.565490722656
 31
0.0
  0
LINE
  5
   37C
  8
0
  6
CONTINUOUS
 62
     3
 10
144.061596393585
 20
505.565490722656
 30
0.0
 11
145.036596536636
 21
505.565490722656
 31
0.0
  0
LINE
  5
   37D
  8
0
  6
CONTINUOUS
 62
     3
 10
142.71159696579
 20
505.565490722656
 30
0.0
 11
143.686596393585
 21
505.565490722656
 31
0.0
  0
LINE
  5
   37E
  8
0
  6
CONTINUOUS
 62
     3
 10
141.361596107483
 20
505.565490722656
 30
0.0
 11
142.33659696579
 21
505.565490722656
 31
0.0
  0
LINE
  5
   37F
  8
0
  6
CONTINUOUS
 62
     3
 10
140.011596679688
 20
505.565490722656
 30
0.0
 11
140.986596107483
 21
505.565490722656
 31
0.0
  0
LINE
  5
   380
  8
0
  6
CONTINUOUS
 62
     3
 10
138.661597251892
 20
505.565490722656
 30
0.0
 11
139.636596679688
 21
505.565490722656
 31
0.0
  0
LINE
  5
   381
  8
0
  6
CONTINUOUS
 62
     3
 10
137.311596393585
 20
505.565490722656
 30
0.0
 11
138.286597251892
 21
505.565490722656
 31
0.0
  0
LINE
  5
   382
  8
0
  6
CONTINUOUS
 62
     3
 10
125.161597251892
 20
505.565490722656
 30
0.0
 11
126.136596679688
 21
505.565490722656
 31
0.0
  0
LINE
  5
   383
  8
0
  6
CONTINUOUS
 62
     3
 10
185.911597251892
 20
505.565490722656
 30
0.0
 11
186.886596679688
 21
505.565490722656
 31
0.0
  0
LINE
  5
   384
  8
0
  6
CONTINUOUS
 62
     3
 10
187.261596679688
 20
505.565490722656
 30
0.0
 11
188.236596107483
 21
505.565490722656
 31
0.0
  0
LINE
  5
   385
  8
0
  6
CONTINUOUS
 62
     3
 10
145.411596536636
 20
505.565490722656
 30
0.0
 11
146.386596679688
 21
505.565490722656
 31
0.0
  0
LINE
  5
   386
  8
0
  6
CONTINUOUS
 62
     3
 10
175.111596107483
 20
505.565490722656
 30
0.0
 11
176.08659696579
 21
505.565490722656
 31
0.0
  0
LINE
  5
   387
  8
0
  6
CONTINUOUS
 62
     3
 10
173.761596679688
 20
505.565490722656
 30
0.0
 11
174.736596107483
 21
505.565490722656
 31
0.0
  0
LINE
  5
   388
  8
0
  6
CONTINUOUS
 62
     3
 10
172.411597251892
 20
505.565490722656
 30
0.0
 11
173.386596679688
 21
505.565490722656
 31
0.0
  0
LINE
  5
   389
  8
0
  6
CONTINUOUS
 62
     3
 10
171.061596393585
 20
505.565490722656
 30
0.0
 11
172.036597251892
 21
505.565490722656
 31
0.0
  0
LINE
  5
   38A
  8
0
  6
CONTINUOUS
 62
     3
 10
169.71159696579
 20
505.565490722656
 30
0.0
 11
170.686596393585
 21
505.565490722656
 31
0.0
  0
LINE
  5
   38B
  8
0
  6
CONTINUOUS
 62
     3
 10
168.361596822739
 20
505.565490722656
 30
0.0
 11
169.33659696579
 21
505.565490722656
 31
0.0
  0
LINE
  5
   38C
  8
0
  6
CONTINUOUS
 62
     3
 10
167.011596679688
 20
505.565490722656
 30
0.0
 11
167.986596822739
 21
505.565490722656
 31
0.0
  0
LINE
  5
   38D
  8
0
  6
CONTINUOUS
 62
     3
 10
165.661596536636
 20
505.565490722656
 30
0.0
 11
166.636596679688
 21
505.565490722656
 31
0.0
  0
LINE
  5
   38E
  8
0
  6
CONTINUOUS
 62
     3
 10
164.311596393585
 20
505.565490722656
 30
0.0
 11
165.286596536636
 21
505.565490722656
 31
0.0
  0
LINE
  5
   38F
  8
0
  6
CONTINUOUS
 62
     3
 10
162.96159696579
 20
505.565490722656
 30
0.0
 11
163.936596393585
 21
505.565490722656
 31
0.0
  0
LINE
  5
   390
  8
0
  6
CONTINUOUS
 62
     3
 10
161.611596822739
 20
505.565490722656
 30
0.0
 11
162.586596608162
 21
505.565490722656
 31
0.0
  0
LINE
  5
   391
  8
0
  6
CONTINUOUS
 62
     3
 10
160.261596679688
 20
505.565490722656
 30
0.0
 11
161.236596822739
 21
505.565490722656
 31
0.0
  0
LINE
  5
   392
  8
0
  6
CONTINUOUS
 62
     3
 10
158.91159671545
 20
505.565490722656
 30
0.0
 11
159.886596679688
 21
505.565490722656
 31
0.0
  0
LINE
  5
   393
  8
0
  6
CONTINUOUS
 62
     3
 10
157.561596661806
 20
505.565490722656
 30
0.0
 11
158.53659671545
 21
505.565490722656
 31
0.0
  0
LINE
  5
   394
  8
0
  6
CONTINUOUS
 62
     3
 10
156.211596697569
 20
505.565490722656
 30
0.0
 11
157.186596661806
 21
505.565490722656
 31
0.0
  0
LINE
  5
   395
  8
0
  6
CONTINUOUS
 62
     3
 10
154.861596643925
 20
505.565490722656
 30
0.0
 11
155.836596697569
 21
505.565490722656
 31
0.0
  0
LINE
  5
   396
  8
0
  6
CONTINUOUS
 62
     3
 10
153.511596679688
 20
505.565490722656
 30
0.0
 11
154.486596643925
 21
505.565490722656
 31
0.0
  0
LINE
  5
   397
  8
0
  6
CONTINUOUS
 62
     3
 10
152.161596536636
 20
505.565490722656
 30
0.0
 11
153.136596679688
 21
505.565490722656
 31
0.0
  0
LINE
  5
   398
  8
0
  6
CONTINUOUS
 62
     3
 10
150.811596751213
 20
505.565490722656
 30
0.0
 11
151.786596536636
 21
505.565490722656
 31
0.0
  0
LINE
  5
   399
  8
0
  6
CONTINUOUS
 62
     3
 10
149.46159696579
 20
505.565490722656
 30
0.0
 11
150.436596393585
 21
505.565490722656
 31
0.0
  0
LINE
  5
   39A
  8
0
  6
CONTINUOUS
 62
     3
 10
148.111596822739
 20
505.565490722656
 30
0.0
 11
149.08659696579
 21
505.565490722656
 31
0.0
  0
LINE
  5
   39B
  8
0
  6
CONTINUOUS
 62
     3
 10
146.761596679688
 20
505.565490722656
 30
0.0
 11
147.736596822739
 21
505.565490722656
 31
0.0
  0
ARC
  5
   39C
  8
0
  6
CONTINUOUS
 62
     2
 10
242.836600352818
 20
541.375047486418
 30
0.0
 40
0.375000000000878
 50
359.99944729513
 51
450.000736072945
  0
ARC
  5
   39D
  8
0
  6
CONTINUOUS
 62
     2
 10
240.586593006556
 20
524.125040140163
 30
0.0
 40
0.375000000000492
 50
179.999430269995
 51
270.000386364089
  0
ARC
  5
   39E
  8
0
  6
CONTINUOUS
 62
     2
 10
240.586596679983
 20
541.375043812996
 30
0.0
 40
0.374999999997768
 50
90.0001748979207
 51
179.999991462264
  0
ARC
  5
   39F
  8
0
  6
CONTINUOUS
 62
     2
 10
242.83659667939
 20
524.125043813591
 30
0.0
 40
0.37500000000004
 50
269.999825192617
 51
360.002631269445
  0
ARC
  5
   3A0
  8
0
  6
CONTINUOUS
 62
     2
 10
239.086596678785
 20
539.911111005058
 30
0.0
 40
1.12500000000768
 50
334.226740848636
 51
360.000017827319
  0
ARC
  5
   3A1
  8
0
  6
CONTINUOUS
 62
     2
 10
239.086596678795
 20
536.161111003269
 30
0.0
 40
1.12499999999832
 50
0.0
 51
25.7732584613797
  0
LINE
  5
   3A2
  8
0
  6
CONTINUOUS
 62
    98
 10
240.586595535278
 20
541.750043813292
 30
0.0
 11
242.836595535278
 21
541.750043813292
 31
0.0
  0
LINE
  5
   3A3
  8
0
  6
CONTINUOUS
 62
    98
 10
240.586595535278
 20
523.750043813292
 30
0.0
 11
242.836595535278
 21
523.750043813292
 31
0.0
  0
LINE
  5
   3A4
  8
0
  6
CONTINUOUS
 62
     2
 10
243.211596679688
 20
541.375043869015
 30
0.0
 11
243.211596679688
 21
541.940493583676
 31
0.0
  0
LINE
  5
   3A5
  8
0
  6
CONTINUOUS
 62
     2
 10
243.211596679687
 20
539.504556417462
 30
0.0
 11
243.211596679687
 21
541.375043869016
 31
0.0
  0
LINE
  5
   3A6
  8
0
  6
CONTINUOUS
 62
     2
 10
243.211596679688
 20
526.000043869019
 30
0.0
 11
243.211596679688
 21
539.504556417465
 31
0.0
  0
LINE
  5
   3A7
  8
0
  6
CONTINUOUS
 62
     2
 10
243.211596679688
 20
524.12506103515
 30
0.0
 11
243.211596679688
 21
526.000043869013
 31
0.0
  0
LINE
  5
   3A8
  8
0
  6
CONTINUOUS
 62
     2
 10
240.211596679687
 20
524.125043869014
 30
0.0
 11
240.211596679687
 21
525.995530605312
 31
0.0
  0
LINE
  5
   3A9
  8
0
  6
CONTINUOUS
 62
     2
 10
240.211596679688
 20
525.995530605316
 30
0.0
 11
240.211596679688
 21
539.500043869019
 31
0.0
  0
LINE
  5
   3AA
  8
0
  6
CONTINUOUS
 62
     2
 10
240.211596679687
 20
539.500043869017
 30
0.0
 11
240.211596679687
 21
541.375043869017
 31
0.0
  0
LINE
  5
   3AB
  8
0
  6
CONTINUOUS
 62
     2
 10
240.211596679688
 20
541.375043869017
 30
0.0
 11
240.211596679688
 21
541.940493583678
 31
0.0
  0
LINE
  5
   3AC
  8
0
  6
CONTINUOUS
 62
    98
 10
240.211596679688
 20
539.732037782669
 30
0.0
 11
240.211596679688
 21
539.736463069916
 31
0.0
  0
LINE
  5
   3AD
  8
0
  6
CONTINUOUS
 62
     7
 10
231.399095535278
 20
536.902210110469
 30
0.0
 11
234.774095535278
 21
536.902210110469
 31
0.0
  0
LINE
  5
   3AE
  8
0
  6
CONTINUOUS
 62
     7
 10
231.399095535278
 20
539.39705538325
 30
0.0
 11
234.774095535278
 21
539.39705538325
 31
0.0
  0
LINE
  5
   3AF
  8
0
  6
CONTINUOUS
 62
     7
 10
234.774096679687
 20
538.325714826584
 30
0.0
 11
234.774096679687
 21
539.397055625916
 31
0.0
  0
LINE
  5
   3B0
  8
0
  6
CONTINUOUS
 62
     7
 10
234.774096679687
 20
537.8624522686
 30
0.0
 11
234.774096679687
 21
538.325714826584
 31
0.0
  0
LINE
  5
   3B1
  8
0
  6
CONTINUOUS
 62
     7
 10
234.774096679687
 20
537.129131674767
 30
0.0
 11
234.774096679687
 21
537.8624522686
 31
0.0
  0
LINE
  5
   3B2
  8
0
  6
CONTINUOUS
 62
     7
 10
234.774096679687
 20
536.902209997177
 30
0.0
 11
234.774096679687
 21
537.129131674767
 31
0.0
  0
LINE
  5
   3B3
  8
0
  6
CONTINUOUS
 62
     7
 10
231.399096679688
 20
538.325714826584
 30
0.0
 11
231.399096679688
 21
539.397055625916
 31
0.0
  0
LINE
  5
   3B4
  8
0
  6
CONTINUOUS
 62
     7
 10
231.399096679688
 20
537.8624522686
 30
0.0
 11
231.399096679688
 21
538.325714826584
 31
0.0
  0
LINE
  5
   3B5
  8
0
  6
CONTINUOUS
 62
     7
 10
231.399096679688
 20
537.129131674767
 30
0.0
 11
231.399096679688
 21
537.8624522686
 31
0.0
  0
LINE
  5
   3B6
  8
0
  6
CONTINUOUS
 62
     7
 10
231.399096679688
 20
536.902209997177
 30
0.0
 11
231.399096679688
 21
537.129131674767
 31
0.0
  0
LINE
  5
   3B7
  8
0
  6
CONTINUOUS
 62
     3
 10
166.083939340198
 20
542.301786405404
 30
0.0
 11
167.376504186686
 21
544.264573490106
 31
0.0
  0
LINE
  5
   3B8
  8
0
  6
CONTINUOUS
 62
     3
 10
167.376504186686
 20
544.264573490106
 30
0.0
 11
167.758205926034
 21
544.844195662438
 31
0.0
  0
ARC
  5
   3B9
  8
0
  6
CONTINUOUS
 62
     3
 10
164.20480401951
 20
543.539263858348
 30
0.0
 40
2.24999999999997
 50
234.63367722314
 51
326.633674504555
  0
LINE
  5
   3BA
  8
0
  6
CONTINUOUS
 62
     3
 10
159.318011989831
 20
544.248653412274
 30
0.0
 11
162.902499614526
 21
541.704460534621
 31
0.0
  0
LINE
  5
   3BB
  8
0
  6
CONTINUOUS
 62
     3
 10
157.916549946779
 20
545.243381284585
 30
0.0
 11
159.318011989831
 21
544.248653412274
 31
0.0
  0
ARC
  5
   3BC
  8
0
  6
CONTINUOUS
 62
     3
 10
157.048347189447
 20
544.020178941486
 30
0.0
 40
1.49999999999988
 50
54.6336856228404
 51
79.633680067895
  0
LINE
  5
   3BD
  8
0
  6
CONTINUOUS
 62
     3
 10
155.063219446695
 20
545.908202122184
 30
0.0
 11
157.318258604201
 21
545.495695064131
 31
0.0
  0
ARC
  5
   3BE
  8
0
  6
CONTINUOUS
 62
     3
 10
154.860785878798
 20
544.80156503145
 30
0.0
 40
1.12499999999957
 50
79.6336797142039
 51
99.2172984467829
  0
ARC
  5
   3BF
  8
0
  6
CONTINUOUS
 62
     3
 10
154.860785878798
 20
544.801565031449
 30
0.0
 40
1.12500000000006
 50
99.2172984467778
 51
169.261305379223
  0
LINE
  5
   3C0
  8
0
  6
CONTINUOUS
 62
     3
 10
153.655665363743
 20
544.465622409474
 30
0.0
 11
153.755464454219
 21
545.011190909488
 31
0.0
  0
ARC
  5
   3C1
  8
0
  6
CONTINUOUS
 62
     3
 10
154.762302502061
 20
544.263189101703
 30
0.0
 40
1.12500000000001
 50
169.633693182114
 51
234.633682764676
  0
LINE
  5
   3C2
  8
0
  6
CONTINUOUS
 62
     3
 10
154.111150388298
 20
543.345787376862
 30
0.0
 11
154.199656604388
 21
543.282967552056
 31
0.0
  0
LINE
  5
   3C3
  8
0
  6
CONTINUOUS
 62
     3
 10
154.199656604388
 20
543.282967552056
 30
0.0
 11
158.573476034735
 21
540.178523791065
 31
0.0
  0
LINE
  5
   3C4
  8
0
  6
CONTINUOUS
 62
     3
 10
158.573476034735
 20
540.178523791065
 30
0.0
 11
161.708511146895
 21
537.953342722339
 31
0.0
  0
ARC
  5
   3C5
  8
0
  6
CONTINUOUS
 62
     3
 10
165.181322751373
 20
542.846151686512
 30
0.0
 40
6.00000000000982
 50
278.136602259106
 51
279.633680352244
  0
ARC
  5
   3C6
  8
0
  6
CONTINUOUS
 62
     3
 10
165.181322751374
 20
542.846151686502
 30
0.0
 40
6.0
 50
234.633678887706
 51
278.136602259105
  0
LINE
  5
   3C7
  8
0
  6
CONTINUOUS
 62
     3
 10
166.185412664878
 20
536.930764679248
 30
0.0
 11
169.161324958993
 21
537.435902110712
 31
0.0
  0
ARC
  5
   3C8
  8
0
  6
CONTINUOUS
 62
     3
 10
178.303585925155
 20
552.600930447002
 30
0.0
 40
5.99999999999999
 50
203.401733490289
 51
239.424938410654
  0
ARC
  5
   3C9
  8
0
  6
CONTINUOUS
 62
     3
 10
165.475450894553
 20
547.049238373234
 30
0.0
 40
7.97792306622473
 50
23.4017436112207
 51
62.3437194257871
  0
ARC
  5
   3CA
  8
0
  6
CONTINUOUS
 62
     3
 10
165.475450894553
 20
547.049238373234
 30
0.0
 40
7.97792306622486
 50
62.3437194257867
 51
94.6336790741272
  0
LINE
  5
   3CB
  8
0
  6
CONTINUOUS
 62
     3
 10
161.231554217744
 20
554.709355519632
 30
0.0
 11
164.830955753744
 21
555.001086112224
 31
0.0
  0
LINE
  5
   3CC
  8
0
  6
CONTINUOUS
 62
     3
 10
159.716222410175
 20
554.586538256324
 30
0.0
 11
161.231554217744
 21
554.709355519632
 31
0.0
  0
ARC
  5
   3CD
  8
0
  6
CONTINUOUS
 62
     3
 10
159.788928928471
 20
553.689479862351
 30
0.0
 40
0.899999999999956
 50
94.6336901435344
 51
229.912716251704
  0
ARC
  5
   3CE
  8
0
  6
CONTINUOUS
 62
     3
 10
164.044893725068
 20
550.046390103506
 30
0.0
 40
2.25000000000038
 50
54.6336828309614
 51
85.9982420910015
  0
LINE
  5
   3CF
  8
0
  6
CONTINUOUS
 62
     3
 10
165.347197950471
 20
551.881193554696
 30
0.0
 11
166.604543455891
 21
550.988756527545
 31
0.0
  0
ARC
  5
   3D0
  8
0
  6
CONTINUOUS
 62
     3
 10
163.999934772342
 20
547.319149790362
 30
0.0
 40
4.49999999999995
 50
326.633686364794
 51
380.28967885429
  0
ARC
  5
   3D1
  8
0
  6
CONTINUOUS
 62
     3
 10
163.999934772342
 20
547.319149790362
 30
0.0
 40
4.49999999999992
 50
20.2896788542902
 51
54.6336791970057
  0
CIRCLE
  5
   3D2
  8
0
  6
CONTINUOUS
 62
     1
 10
243.428390264512
 20
573.021365270457
 30
0.0
 40
2.62499929558335
  0
LINE
  5
   3D3
  8
0
  6
CONTINUOUS
 62
     1
 10
241.984166580897
 20
571.036856046021
 30
0.0
 11
242.010778427124
 21
571.07342338562
 31
0.0
  0
ARC
  5
   3D4
  8
0
  6
CONTINUOUS
 62
     1
 10
243.428390797536
 20
573.021366778453
 30
0.0
 40
2.45439736698578
 50
233.95481057577
 51
396.045174446195
  0
LINE
  5
   3D5
  8
0
  6
CONTINUOUS
 62
     1
 10
245.376331329346
 20
574.438976287842
 30
0.0
 11
245.412901907512
 21
574.465590476309
 31
0.0
  0
LINE
  5
   3D6
  8
0
  6
CONTINUOUS
 62
     1
 10
241.443882239261
 20
571.57714350642
 30
0.0
 11
241.480447769165
 21
571.603754043579
 31
0.0
  0
ARC
  5
   3D7
  8
0
  6
CONTINUOUS
 62
     1
 10
243.428387597282
 20
573.021369978705
 30
0.0
 40
2.45439434876749
 50
53.9547091542504
 51
216.045305823764
  0
LINE
  5
   3D8
  8
0
  6
CONTINUOUS
 62
     1
 10
244.846000671387
 20
574.969306945801
 30
0.0
 11
244.872613550786
 21
575.005875714269
 31
0.0
  0
LINE
  5
   3D9
  8
0
  6
CONTINUOUS
 62
     1
 10
244.846000671387
 20
574.969306945801
 30
0.0
 11
244.901681900024
 21
575.024985313416
 31
0.0
  0
LINE
  5
   3DA
  8
0
  6
CONTINUOUS
 62
     1
 10
241.424772262573
 20
571.548075675964
 30
0.0
 11
241.480447769165
 21
571.603754043579
 31
0.0
  0
LINE
  5
   3DB
  8
0
  6
CONTINUOUS
 62
     1
 10
244.901681900024
 20
575.024985313416
 30
0.0
 11
245.21958732605
 21
574.812562942505
 31
0.0
  0
LINE
  5
   3DC
  8
0
  6
CONTINUOUS
 62
     1
 10
245.21958732605
 20
574.812562942505
 30
0.0
 11
245.432006835938
 21
574.494654655457
 31
0.0
  0
LINE
  5
   3DD
  8
0
  6
CONTINUOUS
 62
     1
 10
241.637191772461
 20
571.230167388916
 30
0.0
 11
241.955102920532
 21
571.017747879028
 31
0.0
  0
LINE
  5
   3DE
  8
0
  6
CONTINUOUS
 62
     1
 10
241.424772262573
 20
571.548075675964
 30
0.0
 11
241.637191772461
 21
571.230167388916
 31
0.0
  0
LINE
  5
   3DF
  8
0
  6
CONTINUOUS
 62
     1
 10
241.955102920532
 20
571.017747879028
 30
0.0
 11
242.010778427124
 21
571.07342338562
 31
0.0
  0
LINE
  5
   3E0
  8
0
  6
CONTINUOUS
 62
     1
 10
245.376331329346
 20
574.438976287842
 30
0.0
 11
245.432006835938
 21
574.494654655457
 31
0.0
  0
ARC
  5
   3E1
  8
0
  6
CONTINUOUS
 62
     2
 10
243.428390716271
 20
573.021365541073
 30
0.0
 40
3.1875
 50
89.9999695499691
 51
209.973539048597
  0
ARC
  5
   3E2
  8
0
  6
CONTINUOUS
 62
     2
 10
243.428390716273
 20
573.021365541075
 30
0.0
 40
3.18749999999777
 50
28.6498888332407
 51
89.9999695499947
  0
ARC
  5
   3E3
  8
0
  6
CONTINUOUS
 62
     2
 10
243.42839071548
 20
573.021365541453
 30
0.0
 40
3.18750000087787
 50
333.705937352025
 51
335.436439345672
  0
ARC
  5
   3E4
  8
0
  6
CONTINUOUS
 62
     2
 10
243.428390716075
 20
573.021365541073
 30
0.0
 40
3.1875000001964
 50
0.505353083035557
 51
2.79508895475532
  0
ARC
  5
   3E5
  8
0
  6
CONTINUOUS
 62
     2
 10
243.428390715159
 20
573.02136554113
 30
0.0
 40
3.18750000111393
 50
356.061369221767
 51
358.34651322387
  0
CIRCLE
  5
   3E6
  8
0
  6
CONTINUOUS
 62
     1
 10
194.619802594185
 20
510.771365649779
 30
0.0
 40
2.62500030737049
  0
LINE
  5
   3E7
  8
0
  6
CONTINUOUS
 62
     1
 10
192.635291917973
 20
509.327139783175
 30
0.0
 11
192.671862602234
 21
509.353754043579
 31
0.0
  0
ARC
  5
   3E8
  8
0
  6
CONTINUOUS
 62
     1
 10
194.619803687591
 20
510.771364191515
 30
0.0
 40
2.45439831840618
 50
53.9548674827492
 51
216.045178795571
  0
LINE
  5
   3E9
  8
0
  6
CONTINUOUS
 62
     1
 10
196.037412643433
 20
512.719306945801
 30
0.0
 11
196.064026493022
 21
512.755877127645
 31
0.0
  0
LINE
  5
   3EA
  8
0
  6
CONTINUOUS
 62
     1
 10
193.175577198932
 20
508.786855619698
 30
0.0
 11
193.20219039917
 21
508.823424816132
 31
0.0
  0
ARC
  5
   3EB
  8
0
  6
CONTINUOUS
 62
     1
 10
194.619802762063
 20
510.77136559388
 30
0.0
 40
2.45439754620734
 50
233.954774745282
 51
396.045196498788
  0
LINE
  5
   3EC
  8
0
  6
CONTINUOUS
 62
     1
 10
196.567743301392
 20
512.188976287842
 30
0.0
 11
196.604313461081
 21
512.215590161013
 31
0.0
  0
LINE
  5
   3ED
  8
0
  6
CONTINUOUS
 62
     1
 10
192.616184234619
 20
509.298077106476
 30
0.0
 11
192.671862602234
 21
509.353754043579
 31
0.0
  0
LINE
  5
   3EE
  8
0
  6
CONTINUOUS
 62
     1
 10
196.037412643433
 20
512.719306945801
 30
0.0
 11
196.093091011047
 21
512.774983882904
 31
0.0
  0
LINE
  5
   3EF
  8
0
  6
CONTINUOUS
 62
     1
 10
196.093091011047
 20
512.774983882904
 30
0.0
 11
196.411002159119
 21
512.562564373016
 31
0.0
  0
LINE
  5
   3F0
  8
0
  6
CONTINUOUS
 62
     1
 10
192.616184234619
 20
509.298077106476
 30
0.0
 11
192.828603744507
 21
508.980167388916
 31
0.0
  0
LINE
  5
   3F1
  8
0
  6
CONTINUOUS
 62
     1
 10
196.411002159119
 20
512.562564373016
 30
0.0
 11
196.623421669006
 21
512.244654655457
 31
0.0
  0
LINE
  5
   3F2
  8
0
  6
CONTINUOUS
 62
     1
 10
192.828603744507
 20
508.980167388916
 30
0.0
 11
193.146514892578
 21
508.767746448517
 31
0.0
  0
LINE
  5
   3F3
  8
0
  6
CONTINUOUS
 62
     1
 10
193.146514892578
 20
508.767746448517
 30
0.0
 11
193.20219039917
 21
508.823424816132
 31
0.0
  0
LINE
  5
   3F4
  8
0
  6
CONTINUOUS
 62
     1
 10
196.567743301392
 20
512.188976287842
 30
0.0
 11
196.623421669006
 21
512.244654655457
 31
0.0
  0
ARC
  5
   3F5
  8
0
  6
CONTINUOUS
 62
     2
 10
194.619802643104
 20
510.771365541073
 30
0.0
 40
3.1875000000002
 50
90.0000201645671
 51
151.392389852061
  0
ARC
  5
   3F6
  8
0
  6
CONTINUOUS
 62
     2
 10
194.619802643117
 20
510.771365541073
 30
0.0
 40
3.18750000001345
 50
177.142164162553
 51
179.435107220237
  0
ARC
  5
   3F7
  8
0
  6
CONTINUOUS
 62
     2
 10
194.619802643134
 20
510.771365541088
 30
0.0
 40
3.1875000000341
 50
205.077043566872
 51
207.109148747972
  0
ARC
  5
   3F8
  8
0
  6
CONTINUOUS
 62
     2
 10
194.619802643104
 20
510.771365541073
 30
0.0
 40
3.1875
 50
330.345029034102
 51
450.000020164566
  0
POLYLINE
  5
   3F9
  8
0
  6
CONTINUOUS
 62
   252
 66
     1
 10
0.0
 20
0.0
 30
0.0
  0
VERTEX
  5
   3FA
  8
0
  6
CONTINUOUS
 10
190.449096679688
 20
527.795003576244
 30
0.0
 40
0.0
 41
0.0
  0
VERTEX
  5
   3FB
  8
0
  6
CONTINUOUS
 10
190.315615117774
 20
528.040644886014
 30
0.0
 40
0.0
 41
0.0
  0
VERTEX
  5
   3FC
  8
0
  6
CONTINUOUS
 10
190.207420362125
 20
528.065490722645
 30
0.0
 40
0.0
 41
0.0
  0
SEQEND
  5
   3FD
  8
0
  6
CONTINUOUS
 62
   252
  0
ARC
  5
   3FE
  8
0
  6
CONTINUOUS
 62
   252
 10
191.199089333424
 20
492.440483376393
 30
0.0
 40
0.749999999999713
 50
179.99943878165
 51
270.000561218678
  0
ARC
  5
   3FF
  8
0
  6
CONTINUOUS
 62
   252
 10
246.849096679092
 20
492.440490723252
 30
0.0
 40
0.749999999999398
 50
269.999825192651
 51
360.0
  0
ARC
  5
   400
  8
0
  6
CONTINUOUS
 62
   252
 10
246.849104025948
 20
591.440498068917
 30
0.0
 40
0.750000000002328
 50
359.999438780348
 51
450.000736073045
  0
ARC
  5
   401
  8
0
  6
CONTINUOUS
 62
   252
 10
191.199096680283
 20
591.440490722061
 30
0.0
 40
0.749999999998749
 50
90.0000000454575
 51
180.0
  0
POLYLINE
  5
   402
  8
0
  6
CONTINUOUS
 62
   252
 66
     1
 10
0.0
 20
0.0
 30
0.0
  0
VERTEX
  5
   403
  8
0
  6
CONTINUOUS
 10
190.449096679688
 20
548.585977869383
 30
0.0
 40
0.0
 41
0.0
  0
VERTEX
  5
   404
  8
0
  6
CONTINUOUS
 10
190.315615118217
 20
548.340336559391
 30
0.0
 40
0.0
 41
0.0
  0
VERTEX
  5
   405
  8
0
  6
CONTINUOUS
 10
190.207420361852
 20
548.315490722775
 30
0.0
 40
0.0
 41
0.0
  0
SEQEND
  5
   406
  8
0
  6
CONTINUOUS
 62
   252
  0
LINE
  5
   407
  8
0
  6
CONTINUOUS
 62
   252
 10
184.901000976563
 20
548.315490722656
 30
0.0
 11
187.901000976563
 21
548.315490722656
 31
0.0
  0
LINE
  5
   408
  8
0
  6
CONTINUOUS
 62
   252
 10
179.199092388153
 20
548.315490722656
 30
0.0
 11
184.901000976563
 21
548.315490722656
 31
0.0
  0
LINE
  5
   409
  8
0
  6
CONTINUOUS
 62
   252
 10
187.901000976563
 20
548.315490722656
 30
0.0
 11
212.537092208862
 21
548.315490722656
 31
0.0
  0
ARC
  5
   40A
  8
0
  6
CONTINUOUS
 62
   252
 10
179.199067618488
 20
538.190479067357
 30
0.0
 40
10.1250070622718
 50
89.9998598325296
 51
270.000164452938
  0
LINE
  5
   40B
  8
0
  6
CONTINUOUS
 62
   252
 10
179.199096679687
 20
528.065490722656
 30
0.0
 11
184.901000976563
 21
528.065490722656
 31
0.0
  0
LINE
  5
   40C
  8
0
  6
CONTINUOUS
 62
   252
 10
184.901000976563
 20
528.065490722656
 30
0.0
 11
187.901000976563
 21
528.065490722656
 31
0.0
  0
LINE
  5
   40D
  8
0
  6
CONTINUOUS
 62
   252
 10
187.901000976563
 20
528.065490722656
 30
0.0
 11
212.537092208862
 21
528.065490722656
 31
0.0
  0
LINE
  5
   40E
  8
0
  6
CONTINUOUS
 62
   252
 10
231.024095535278
 20
546.378075561191
 30
0.0
 11
235.149095535278
 21
546.378075561191
 31
0.0
  0
LINE
  5
   40F
  8
0
  6
CONTINUOUS
 62
   252
 10
231.024095535278
 20
537.06166532111
 30
0.0
 11
231.399095535278
 21
537.06166532111
 31
0.0
  0
LINE
  5
   410
  8
0
  6
CONTINUOUS
 62
   252
 10
234.774095535278
 20
537.06166532111
 30
0.0
 11
235.149095535278
 21
537.06166532111
 31
0.0
  0
LINE
  5
   411
  8
0
  6
CONTINUOUS
 62
   252
 10
240.024096679688
 20
523.565493583679
 30
0.0
 11
240.024096679688
 21
541.940493583679
 31
0.0
  0
LINE
  5
   412
  8
0
  6
CONTINUOUS
 62
   252
 10
240.024095535278
 20
541.940493583679
 30
0.0
 11
243.399095535278
 21
541.940493583679
 31
0.0
  0
LINE
  5
   413
  8
0
  6
CONTINUOUS
 62
   252
 10
243.399096679688
 20
523.565493583679
 30
0.0
 11
243.399096679688
 21
541.940493583679
 31
0.0
  0
LINE
  5
   414
  8
0
  6
CONTINUOUS
 62
   252
 10
240.024095535278
 20
523.565493583679
 30
0.0
 11
243.399095535278
 21
523.565493583679
 31
0.0
  0
LINE
  5
   415
  8
0
  6
CONTINUOUS
 62
   252
 10
191.199096679688
 20
491.690490722656
 30
0.0
 11
192.699096679688
 21
491.690490722656
 31
0.0
  0
LINE
  5
   416
  8
0
  6
CONTINUOUS
 62
   252
 10
192.699096679688
 20
491.690490722656
 30
0.0
 11
245.349094390869
 21
491.690490722656
 31
0.0
  0
LINE
  5
   417
  8
0
  6
CONTINUOUS
 62
   252
 10
245.349094390869
 20
491.690490722656
 30
0.0
 11
246.849094390869
 21
491.690490722656
 31
0.0
  0
LINE
  5
   418
  8
0
  6
CONTINUOUS
 62
   252
 10
245.349094390869
 20
592.190490722656
 30
0.0
 11
246.849094390869
 21
592.190490722656
 31
0.0
  0
LINE
  5
   419
  8
0
  6
CONTINUOUS
 62
   252
 10
192.699096679688
 20
592.190490722656
 30
0.0
 11
245.349094390869
 21
592.190490722656
 31
0.0
  0
LINE
  5
   41A
  8
0
  6
CONTINUOUS
 62
   252
 10
191.199096679688
 20
592.190490722656
 30
0.0
 11
192.699096679688
 21
592.190490722656
 31
0.0
  0
LINE
  5
   41B
  8
0
  6
CONTINUOUS
 62
   252
 10
190.974096679687
 20
577.790490150452
 30
0.0
 11
190.974096679687
 21
578.315490722656
 31
0.0
  0
ARC
  5
   41C
  8
0
  6
CONTINUOUS
 62
   252
 10
194.649096679669
 20
510.808865541091
 30
0.0
 40
3.18749999997489
 50
119.992815885632
 51
150.176345992268
  0
ARC
  5
   41D
  8
0
  6
CONTINUOUS
 62
   252
 10
243.399096679709
 20
573.058865541094
 30
0.0
 40
3.18749999997127
 50
29.8086693517158
 51
59.3821869294242
  0
LINE
  5
   41E
  8
0
  6
CONTINUOUS
 62
   252
 10
247.074096679688
 20
577.790490150452
 30
0.0
 11
247.074096679688
 21
578.315490722656
 31
0.0
  0
LINE
  5
   41F
  8
0
  6
CONTINUOUS
 62
   252
 10
231.024095535278
 20
545.838078952293
 30
0.0
 11
235.149095535278
 21
545.838078952293
 31
0.0
  0
LINE
  5
   420
  8
0
  6
CONTINUOUS
 62
   252
 10
231.024095535278
 20
537.601661929997
 30
0.0
 11
231.399095535278
 21
537.601661929997
 31
0.0
  0
LINE
  5
   421
  8
0
  6
CONTINUOUS
 62
   252
 10
234.774095535278
 20
537.601661929997
 30
0.0
 11
235.149095535278
 21
537.601661929997
 31
0.0
  0
LINE
  5
   422
  8
0
  6
CONTINUOUS
 62
   252
 10
231.024096679688
 20
537.061665177345
 30
0.0
 11
231.024096679688
 21
546.378076076508
 31
0.0
  0
LINE
  5
   423
  8
0
  6
CONTINUOUS
 62
   252
 10
235.149096679688
 20
537.061665177345
 30
0.0
 11
235.149096679688
 21
546.378076076508
 31
0.0
  0
LINE
  5
   424
  8
0
  6
CONTINUOUS
 62
   252
 10
190.449096679688
 20
577.790490722656
 30
0.0
 11
192.699096679688
 21
577.790490722656
 31
0.0
  0
LINE
  5
   425
  8
0
  6
CONTINUOUS
 62
   252
 10
190.449096679688
 20
578.315490722656
 30
0.0
 11
192.511596679688
 21
578.315490722656
 31
0.0
  0
LINE
  5
   426
  8
0
  6
CONTINUOUS
 62
   252
 10
245.349094390869
 20
577.790490722656
 30
0.0
 11
247.599094390869
 21
577.790490722656
 31
0.0
  0
ARC
  5
   427
  8
0
  6
CONTINUOUS
 62
   252
 10
243.398817060663
 20
573.058863551843
 30
0.0
 40
3.18772549290859
 50
307.721164434291
 51
412.278858475947
  0
LINE
  5
   428
  8
0
  6
CONTINUOUS
 62
   252
 10
245.536594390869
 20
578.315490722656
 30
0.0
 11
247.599094390869
 21
578.315490722656
 31
0.0
  0
ARC
  5
   429
  8
0
  6
CONTINUOUS
 62
   252
 10
194.649371672517
 20
510.808864890616
 30
0.0
 40
3.18772192464112
 50
127.721107283449
 51
232.278883519907
  0
ARC
  5
   42A
  8
0
  6
CONTINUOUS
 62
   252
 10
194.649096679687
 20
510.808865541073
 30
0.0
 40
3.18749999999967
 50
232.282800604576
 51
269.999979429086
  0
ARC
  5
   42B
  8
0
  6
CONTINUOUS
 62
   252
 10
194.649096679688
 20
510.808865541073
 30
0.0
 40
3.18750000000003
 50
269.999979429084
 51
450.000020570919
  0
ARC
  5
   42C
  8
0
  6
CONTINUOUS
 62
   252
 10
194.649096679688
 20
510.808865541073
 30
0.0
 40
3.18749999999986
 50
90.0000205709194
 51
127.717204504674
  0
LINE
  5
   42D
  8
0
  6
CONTINUOUS
 62
   252
 10
192.699096679688
 20
577.790490722656
 30
0.0
 11
245.349094390869
 21
577.790490722656
 31
0.0
  0
ARC
  5
   42E
  8
0
  6
CONTINUOUS
 62
   252
 10
243.399096679688
 20
573.058865541075
 30
0.0
 40
3.18749999999834
 50
52.2828123094667
 51
90.0000205709393
  0
ARC
  5
   42F
  8
0
  6
CONTINUOUS
 62
   252
 10
243.399096679688
 20
573.058865541072
 30
0.0
 40
3.18749999999952
 50
269.999979429081
 51
307.717166850579
  0
ARC
  5
   430
  8
0
  6
CONTINUOUS
 62
   252
 10
243.399096679688
 20
573.058865541073
 30
0.0
 40
3.18749999999986
 50
90.0000205709296
 51
269.999979429083
  0
LINE
  5
   431
  8
0
  6
CONTINUOUS
 62
   252
 10
198.286597251892
 20
578.315490722656
 30
0.0
 11
199.261596679688
 21
578.315490722656
 31
0.0
  0
LINE
  5
   432
  8
0
  6
CONTINUOUS
 62
   252
 10
194.236596107483
 20
578.315490722656
 30
0.0
 11
195.211595535278
 21
578.315490722656
 31
0.0
  0
LINE
  5
   433
  8
0
  6
CONTINUOUS
 62
   252
 10
195.586595535278
 20
578.315490722656
 30
0.0
 11
196.561597824097
 21
578.315490722656
 31
0.0
  0
LINE
  5
   434
  8
0
  6
CONTINUOUS
 62
   252
 10
196.936597824097
 20
578.315490722656
 30
0.0
 11
197.911597251892
 21
578.315490722656
 31
0.0
  0
LINE
  5
   435
  8
0
  6
CONTINUOUS
 62
   252
 10
199.636596679688
 20
578.315490722656
 30
0.0
 11
200.611596107483
 21
578.315490722656
 31
0.0
  0
LINE
  5
   436
  8
0
  6
CONTINUOUS
 62
   252
 10
200.986596107483
 20
578.315490722656
 30
0.0
 11
201.961595535278
 21
578.315490722656
 31
0.0
  0
LINE
  5
   437
  8
0
  6
CONTINUOUS
 62
   252
 10
202.336595535278
 20
578.315490722656
 30
0.0
 11
203.311597824097
 21
578.315490722656
 31
0.0
  0
LINE
  5
   438
  8
0
  6
CONTINUOUS
 62
   252
 10
244.186597824097
 20
578.315490722656
 30
0.0
 11
245.161594390869
 21
578.315490722656
 31
0.0
  0
LINE
  5
   439
  8
0
  6
CONTINUOUS
 62
   252
 10
242.836595535278
 20
578.315490722656
 30
0.0
 11
243.811597824097
 21
578.315490722656
 31
0.0
  0
LINE
  5
   43A
  8
0
  6
CONTINUOUS
 62
   252
 10
205.036594390869
 20
578.315490722656
 30
0.0
 11
206.011596679688
 21
578.315490722656
 31
0.0
  0
LINE
  5
   43B
  8
0
  6
CONTINUOUS
 62
   252
 10
203.686597824097
 20
578.315490722656
 30
0.0
 11
204.661597251892
 21
578.315490722656
 31
0.0
  0
LINE
  5
   43C
  8
0
  6
CONTINUOUS
 62
   252
 10
225.286594390869
 20
578.315490722656
 30
0.0
 11
226.261596679688
 21
578.315490722656
 31
0.0
  0
LINE
  5
   43D
  8
0
  6
CONTINUOUS
 62
   252
 10
206.386596679688
 20
578.315490722656
 30
0.0
 11
207.361598968506
 21
578.315490722656
 31
0.0
  0
LINE
  5
   43E
  8
0
  6
CONTINUOUS
 62
   252
 10
223.936597824097
 20
578.315490722656
 30
0.0
 11
224.911594390869
 21
578.315490722656
 31
0.0
  0
LINE
  5
   43F
  8
0
  6
CONTINUOUS
 62
   252
 10
222.586595535278
 20
578.315490722656
 30
0.0
 11
223.561597824097
 21
578.315490722656
 31
0.0
  0
LINE
  5
   440
  8
0
  6
CONTINUOUS
 62
   252
 10
221.236598968506
 20
578.315490722656
 30
0.0
 11
222.211595535278
 21
578.315490722656
 31
0.0
  0
LINE
  5
   441
  8
0
  6
CONTINUOUS
 62
   252
 10
219.886596679688
 20
578.315490722656
 30
0.0
 11
220.861598968506
 21
578.315490722656
 31
0.0
  0
LINE
  5
   442
  8
0
  6
CONTINUOUS
 62
   252
 10
218.536594390869
 20
578.315490722656
 30
0.0
 11
219.511596679688
 21
578.315490722656
 31
0.0
  0
LINE
  5
   443
  8
0
  6
CONTINUOUS
 62
   252
 10
217.186597824097
 20
578.315490722656
 30
0.0
 11
218.161594390869
 21
578.315490722656
 31
0.0
  0
LINE
  5
   444
  8
0
  6
CONTINUOUS
 62
   252
 10
215.836595535278
 20
578.315490722656
 30
0.0
 11
216.811597824097
 21
578.315490722656
 31
0.0
  0
LINE
  5
   445
  8
0
  6
CONTINUOUS
 62
   252
 10
214.486598968506
 20
578.315490722656
 30
0.0
 11
215.461595535278
 21
578.315490722656
 31
0.0
  0
LINE
  5
   446
  8
0
  6
CONTINUOUS
 62
   252
 10
213.136596679688
 20
578.315490722656
 30
0.0
 11
214.111598968506
 21
578.315490722656
 31
0.0
  0
LINE
  5
   447
  8
0
  6
CONTINUOUS
 62
   252
 10
211.786594390869
 20
578.315490722656
 30
0.0
 11
212.761596679688
 21
578.315490722656
 31
0.0
  0
LINE
  5
   448
  8
0
  6
CONTINUOUS
 62
   252
 10
210.436597824097
 20
578.315490722656
 30
0.0
 11
211.411594390869
 21
578.315490722656
 31
0.0
  0
LINE
  5
   449
  8
0
  6
CONTINUOUS
 62
   252
 10
209.086595535278
 20
578.315490722656
 30
0.0
 11
210.061597824097
 21
578.315490722656
 31
0.0
  0
LINE
  5
   44A
  8
0
  6
CONTINUOUS
 62
   252
 10
207.736598968506
 20
578.315490722656
 30
0.0
 11
208.711595535278
 21
578.315490722656
 31
0.0
  0
LINE
  5
   44B
  8
0
  6
CONTINUOUS
 62
   252
 10
226.636596679688
 20
578.315490722656
 30
0.0
 11
227.611598968506
 21
578.315490722656
 31
0.0
  0
LINE
  5
   44C
  8
0
  6
CONTINUOUS
 62
   252
 10
241.486598968506
 20
578.315490722656
 30
0.0
 11
242.461595535278
 21
578.315490722656
 31
0.0
  0
LINE
  5
   44D
  8
0
  6
CONTINUOUS
 62
   252
 10
240.136596679688
 20
578.315490722656
 30
0.0
 11
241.111598968506
 21
578.315490722656
 31
0.0
  0
LINE
  5
   44E
  8
0
  6
CONTINUOUS
 62
   252
 10
238.786594390869
 20
578.315490722656
 30
0.0
 11
239.761596679688
 21
578.315490722656
 31
0.0
  0
LINE
  5
   44F
  8
0
  6
CONTINUOUS
 62
   252
 10
237.436597824097
 20
578.315490722656
 30
0.0
 11
238.411594390869
 21
578.315490722656
 31
0.0
  0
LINE
  5
   450
  8
0
  6
CONTINUOUS
 62
   252
 10
236.086595535278
 20
578.315490722656
 30
0.0
 11
237.061597824097
 21
578.315490722656
 31
0.0
  0
LINE
  5
   451
  8
0
  6
CONTINUOUS
 62
   252
 10
234.736598968506
 20
578.315490722656
 30
0.0
 11
235.711595535278
 21
578.315490722656
 31
0.0
  0
LINE
  5
   452
  8
0
  6
CONTINUOUS
 62
   252
 10
233.386596679688
 20
578.315490722656
 30
0.0
 11
234.361598968506
 21
578.315490722656
 31
0.0
  0
LINE
  5
   453
  8
0
  6
CONTINUOUS
 62
   252
 10
232.036594390869
 20
578.315490722656
 30
0.0
 11
233.011596679688
 21
578.315490722656
 31
0.0
  0
LINE
  5
   454
  8
0
  6
CONTINUOUS
 62
   252
 10
230.686597824097
 20
578.315490722656
 30
0.0
 11
231.661594390869
 21
578.315490722656
 31
0.0
  0
LINE
  5
   455
  8
0
  6
CONTINUOUS
 62
   252
 10
229.336595535278
 20
578.315490722656
 30
0.0
 11
230.311597824097
 21
578.315490722656
 31
0.0
  0
LINE
  5
   456
  8
0
  6
CONTINUOUS
 62
   252
 10
227.986598968506
 20
578.315490722656
 30
0.0
 11
228.961595535278
 21
578.315490722656
 31
0.0
  0
LINE
  5
   457
  8
0
  6
CONTINUOUS
 62
   252
 10
192.886596679688
 20
578.315490722656
 30
0.0
 11
193.861596107483
 21
578.315490722656
 31
0.0
  0
LINE
  5
   458
  8
0
  6
CONTINUOUS
 62
   252
 10
245.349094390869
 20
554.690490722656
 30
0.0
 11
247.599094390869
 21
554.690490722656
 31
0.0
  0
LINE
  5
   459
  8
0
  6
CONTINUOUS
 62
   252
 10
190.449096679688
 20
554.690490722656
 30
0.0
 11
192.699096679688
 21
554.690490722656
 31
0.0
  0
LINE
  5
   45A
  8
0
  6
CONTINUOUS
 62
   252
 10
192.699096679688
 20
554.690490722656
 30
0.0
 11
245.349094390869
 21
554.690490722656
 31
0.0
  0
LINE
  5
   45B
  8
0
  6
CONTINUOUS
 62
   252
 10
245.349094390869
 20
520.940490722656
 30
0.0
 11
247.599094390869
 21
520.940490722656
 31
0.0
  0
LINE
  5
   45C
  8
0
  6
CONTINUOUS
 62
   252
 10
190.449096679688
 20
520.940490722656
 30
0.0
 11
192.699096679688
 21
520.940490722656
 31
0.0
  0
LINE
  5
   45D
  8
0
  6
CONTINUOUS
 62
   252
 10
192.699096679688
 20
520.940490722656
 30
0.0
 11
245.349094390869
 21
520.940490722656
 31
0.0
  0
LINE
  5
   45E
  8
0
  6
CONTINUOUS
 62
   252
 10
247.599096679688
 20
577.790490150452
 30
0.0
 11
247.599096679688
 21
578.315490722656
 31
0.0
  0
LINE
  5
   45F
  8
0
  6
CONTINUOUS
 62
   252
 10
247.599096679687
 20
520.940490722656
 30
0.0
 11
247.599096679687
 21
554.690490722656
 31
0.0
  0
LINE
  5
   460
  8
0
  6
CONTINUOUS
 62
   252
 10
247.599096679687
 20
578.315490722656
 30
0.0
 11
247.599096679687
 21
591.440490722656
 31
0.0
  0
LINE
  5
   461
  8
0
  6
CONTINUOUS
 62
   252
 10
247.599096679687
 20
554.690490722656
 30
0.0
 11
247.599096679687
 21
577.790490150452
 31
0.0
  0
LINE
  5
   462
  8
0
  6
CONTINUOUS
 62
   252
 10
247.599096679687
 20
506.090491294861
 30
0.0
 11
247.599096679687
 21
520.940490722656
 31
0.0
  0
LINE
  5
   463
  8
0
  6
CONTINUOUS
 62
   252
 10
247.599096679687
 20
492.440490722656
 30
0.0
 11
247.599096679687
 21
505.565490722656
 31
0.0
  0
LINE
  5
   464
  8
0
  6
CONTINUOUS
 62
   252
 10
190.449096679688
 20
527.315490722656
 30
0.0
 11
190.449096679688
 21
527.794761776924
 31
0.0
  0
LINE
  5
   465
  8
0
  6
CONTINUOUS
 62
   252
 10
190.449096679688
 20
548.586090564728
 30
0.0
 11
190.449096679688
 21
549.065490722656
 31
0.0
  0
LINE
  5
   466
  8
0
  6
CONTINUOUS
 62
   252
 10
190.449096679688
 20
577.790490150452
 30
0.0
 11
190.449096679688
 21
578.31548500061
 31
0.0
  0
LINE
  5
   467
  8
0
  6
CONTINUOUS
 62
   252
 10
190.449096679688
 20
549.065490722656
 30
0.0
 11
190.449096679688
 21
554.690490722656
 31
0.0
  0
LINE
  5
   468
  8
0
  6
CONTINUOUS
 62
   252
 10
190.449096679688
 20
578.315490722656
 30
0.0
 11
190.449096679688
 21
591.44048500061
 31
0.0
  0
LINE
  5
   469
  8
0
  6
CONTINUOUS
 62
   252
 10
190.449096679688
 20
554.690490722656
 30
0.0
 11
190.449096679688
 21
577.790490150452
 31
0.0
  0
LINE
  5
   46A
  8
0
  6
CONTINUOUS
 62
   252
 10
190.449096679688
 20
520.940490722656
 30
0.0
 11
190.449096679688
 21
527.315490722656
 31
0.0
  0
LINE
  5
   46B
  8
0
  6
CONTINUOUS
 62
   252
 10
190.449096679688
 20
506.090491294861
 30
0.0
 11
190.449096679688
 21
520.940490722656
 31
0.0
  0
LINE
  5
   46C
  8
0
  6
CONTINUOUS
 62
   252
 10
190.449096679688
 20
492.440490722656
 30
0.0
 11
190.449096679688
 21
505.565490722656
 31
0.0
  0
LINE
  5
   46D
  8
0
  6
CONTINUOUS
 62
   252
 10
190.449096679688
 20
505.565490722656
 30
0.0
 11
190.449096679688
 21
506.090491294861
 31
0.0
  0
LINE
  5
   46E
  8
0
  6
CONTINUOUS
 62
   252
 10
247.599096679688
 20
505.565490722656
 30
0.0
 11
247.599096679688
 21
506.090491294861
 31
0.0
  0
LINE
  5
   46F
  8
0
  6
CONTINUOUS
 62
   252
 10
190.974096679687
 20
505.565490722656
 30
0.0
 11
190.974096679687
 21
506.090491294861
 31
0.0
  0
LINE
  5
   470
  8
0
  6
CONTINUOUS
 62
   252
 10
192.511596679688
 20
505.565490722656
 30
0.0
 11
192.886596679688
 21
505.565490722656
 31
0.0
  0
LINE
  5
   471
  8
0
  6
CONTINUOUS
 62
   252
 10
193.861596107483
 20
505.565490722656
 30
0.0
 11
194.236596107483
 21
505.565490722656
 31
0.0
  0
LINE
  5
   472
  8
0
  6
CONTINUOUS
 62
   252
 10
195.211595535278
 20
505.565490722656
 30
0.0
 11
195.586595535278
 21
505.565490722656
 31
0.0
  0
LINE
  5
   473
  8
0
  6
CONTINUOUS
 62
   252
 10
196.561597824097
 20
505.565490722656
 30
0.0
 11
196.936597824097
 21
505.565490722656
 31
0.0
  0
LINE
  5
   474
  8
0
  6
CONTINUOUS
 62
   252
 10
197.911597251892
 20
505.565490722656
 30
0.0
 11
198.286597251892
 21
505.565490722656
 31
0.0
  0
LINE
  5
   475
  8
0
  6
CONTINUOUS
 62
   252
 10
199.261596679688
 20
505.565490722656
 30
0.0
 11
199.636596679688
 21
505.565490722656
 31
0.0
  0
LINE
  5
   476
  8
0
  6
CONTINUOUS
 62
   252
 10
200.611596107483
 20
505.565490722656
 30
0.0
 11
200.986596107483
 21
505.565490722656
 31
0.0
  0
LINE
  5
   477
  8
0
  6
CONTINUOUS
 62
   252
 10
201.961595535278
 20
505.565490722656
 30
0.0
 11
202.336595535278
 21
505.565490722656
 31
0.0
  0
LINE
  5
   478
  8
0
  6
CONTINUOUS
 62
   252
 10
203.311597824097
 20
505.565490722656
 30
0.0
 11
203.686597824097
 21
505.565490722656
 31
0.0
  0
LINE
  5
   479
  8
0
  6
CONTINUOUS
 62
   252
 10
204.661597251892
 20
505.565490722656
 30
0.0
 11
205.036594390869
 21
505.565490722656
 31
0.0
  0
LINE
  5
   47A
  8
0
  6
CONTINUOUS
 62
   252
 10
206.011596679688
 20
505.565490722656
 30
0.0
 11
206.386596679688
 21
505.565490722656
 31
0.0
  0
LINE
  5
   47B
  8
0
  6
CONTINUOUS
 62
   252
 10
207.361598968506
 20
505.565490722656
 30
0.0
 11
207.736598968506
 21
505.565490722656
 31
0.0
  0
LINE
  5
   47C
  8
0
  6
CONTINUOUS
 62
   252
 10
208.711595535278
 20
505.565490722656
 30
0.0
 11
209.086595535278
 21
505.565490722656
 31
0.0
  0
LINE
  5
   47D
  8
0
  6
CONTINUOUS
 62
   252
 10
210.061597824097
 20
505.565490722656
 30
0.0
 11
210.436597824097
 21
505.565490722656
 31
0.0
  0
LINE
  5
   47E
  8
0
  6
CONTINUOUS
 62
   252
 10
211.411594390869
 20
505.565490722656
 30
0.0
 11
211.786594390869
 21
505.565490722656
 31
0.0
  0
LINE
  5
   47F
  8
0
  6
CONTINUOUS
 62
   252
 10
212.761596679688
 20
505.565490722656
 30
0.0
 11
213.136596679688
 21
505.565490722656
 31
0.0
  0
LINE
  5
   480
  8
0
  6
CONTINUOUS
 62
   252
 10
214.111598968506
 20
505.565490722656
 30
0.0
 11
214.486598968506
 21
505.565490722656
 31
0.0
  0
LINE
  5
   481
  8
0
  6
CONTINUOUS
 62
   252
 10
215.461595535278
 20
505.565490722656
 30
0.0
 11
215.836595535278
 21
505.565490722656
 31
0.0
  0
LINE
  5
   482
  8
0
  6
CONTINUOUS
 62
   252
 10
216.811597824097
 20
505.565490722656
 30
0.0
 11
217.186597824097
 21
505.565490722656
 31
0.0
  0
LINE
  5
   483
  8
0
  6
CONTINUOUS
 62
   252
 10
218.161594390869
 20
505.565490722656
 30
0.0
 11
218.536594390869
 21
505.565490722656
 31
0.0
  0
LINE
  5
   484
  8
0
  6
CONTINUOUS
 62
   252
 10
219.511596679688
 20
505.565490722656
 30
0.0
 11
219.886596679688
 21
505.565490722656
 31
0.0
  0
LINE
  5
   485
  8
0
  6
CONTINUOUS
 62
   252
 10
220.861598968506
 20
505.565490722656
 30
0.0
 11
221.236598968506
 21
505.565490722656
 31
0.0
  0
LINE
  5
   486
  8
0
  6
CONTINUOUS
 62
   252
 10
222.211595535278
 20
505.565490722656
 30
0.0
 11
222.586595535278
 21
505.565490722656
 31
0.0
  0
LINE
  5
   487
  8
0
  6
CONTINUOUS
 62
   252
 10
223.561597824097
 20
505.565490722656
 30
0.0
 11
223.936597824097
 21
505.565490722656
 31
0.0
  0
LINE
  5
   488
  8
0
  6
CONTINUOUS
 62
   252
 10
224.911594390869
 20
505.565490722656
 30
0.0
 11
225.286594390869
 21
505.565490722656
 31
0.0
  0
LINE
  5
   489
  8
0
  6
CONTINUOUS
 62
   252
 10
226.261596679688
 20
505.565490722656
 30
0.0
 11
226.636596679688
 21
505.565490722656
 31
0.0
  0
LINE
  5
   48A
  8
0
  6
CONTINUOUS
 62
   252
 10
227.611598968506
 20
505.565490722656
 30
0.0
 11
227.986598968506
 21
505.565490722656
 31
0.0
  0
LINE
  5
   48B
  8
0
  6
CONTINUOUS
 62
   252
 10
228.961595535278
 20
505.565490722656
 30
0.0
 11
229.336595535278
 21
505.565490722656
 31
0.0
  0
LINE
  5
   48C
  8
0
  6
CONTINUOUS
 62
   252
 10
230.311597824097
 20
505.565490722656
 30
0.0
 11
230.686597824097
 21
505.565490722656
 31
0.0
  0
LINE
  5
   48D
  8
0
  6
CONTINUOUS
 62
   252
 10
231.661594390869
 20
505.565490722656
 30
0.0
 11
232.036594390869
 21
505.565490722656
 31
0.0
  0
LINE
  5
   48E
  8
0
  6
CONTINUOUS
 62
   252
 10
233.011596679688
 20
505.565490722656
 30
0.0
 11
233.386596679688
 21
505.565490722656
 31
0.0
  0
LINE
  5
   48F
  8
0
  6
CONTINUOUS
 62
   252
 10
234.361598968506
 20
505.565490722656
 30
0.0
 11
234.736598968506
 21
505.565490722656
 31
0.0
  0
LINE
  5
   490
  8
0
  6
CONTINUOUS
 62
   252
 10
235.711595535278
 20
505.565490722656
 30
0.0
 11
236.086595535278
 21
505.565490722656
 31
0.0
  0
LINE
  5
   491
  8
0
  6
CONTINUOUS
 62
   252
 10
237.061597824097
 20
505.565490722656
 30
0.0
 11
237.436597824097
 21
505.565490722656
 31
0.0
  0
LINE
  5
   492
  8
0
  6
CONTINUOUS
 62
   252
 10
238.411594390869
 20
505.565490722656
 30
0.0
 11
238.786594390869
 21
505.565490722656
 31
0.0
  0
LINE
  5
   493
  8
0
  6
CONTINUOUS
 62
   252
 10
239.761596679688
 20
505.565490722656
 30
0.0
 11
240.136596679688
 21
505.565490722656
 31
0.0
  0
LINE
  5
   494
  8
0
  6
CONTINUOUS
 62
   252
 10
241.111598968506
 20
505.565490722656
 30
0.0
 11
241.486598968506
 21
505.565490722656
 31
0.0
  0
LINE
  5
   495
  8
0
  6
CONTINUOUS
 62
   252
 10
242.461595535278
 20
505.565490722656
 30
0.0
 11
242.836595535278
 21
505.565490722656
 31
0.0
  0
LINE
  5
   496
  8
0
  6
CONTINUOUS
 62
   252
 10
243.811597824097
 20
505.565490722656
 30
0.0
 11
244.186597824097
 21
505.565490722656
 31
0.0
  0
LINE
  5
   497
  8
0
  6
CONTINUOUS
 62
   252
 10
245.161594390869
 20
505.565490722656
 30
0.0
 11
245.536594390869
 21
505.565490722656
 31
0.0
  0
LINE
  5
   498
  8
0
  6
CONTINUOUS
 62
   252
 10
245.536594390869
 20
505.565490722656
 30
0.0
 11
247.599094390869
 21
505.565490722656
 31
0.0
  0
LINE
  5
   499
  8
0
  6
CONTINUOUS
 62
   252
 10
190.449096679688
 20
505.565490722656
 30
0.0
 11
192.511596679688
 21
505.565490722656
 31
0.0
  0
LINE
  5
   49A
  8
0
  6
CONTINUOUS
 62
   252
 10
232.036594390869
 20
505.565490722656
 30
0.0
 11
233.011596679688
 21
505.565490722656
 31
0.0
  0
LINE
  5
   49B
  8
0
  6
CONTINUOUS
 62
   252
 10
233.386596679688
 20
505.565490722656
 30
0.0
 11
234.361598968506
 21
505.565490722656
 31
0.0
  0
LINE
  5
   49C
  8
0
  6
CONTINUOUS
 62
   252
 10
227.986598968506
 20
505.565490722656
 30
0.0
 11
228.961595535278
 21
505.565490722656
 31
0.0
  0
LINE
  5
   49D
  8
0
  6
CONTINUOUS
 62
   252
 10
226.636596679688
 20
505.565490722656
 30
0.0
 11
227.611598968506
 21
505.565490722656
 31
0.0
  0
LINE
  5
   49E
  8
0
  6
CONTINUOUS
 62
   252
 10
230.686597824097
 20
505.565490722656
 30
0.0
 11
231.661594390869
 21
505.565490722656
 31
0.0
  0
LINE
  5
   49F
  8
0
  6
CONTINUOUS
 62
   252
 10
229.336595535278
 20
505.565490722656
 30
0.0
 11
230.311597824097
 21
505.565490722656
 31
0.0
  0
LINE
  5
   4A0
  8
0
  6
CONTINUOUS
 62
   252
 10
223.936597824097
 20
505.565490722656
 30
0.0
 11
224.911594390869
 21
505.565490722656
 31
0.0
  0
LINE
  5
   4A1
  8
0
  6
CONTINUOUS
 62
   252
 10
234.736598968506
 20
505.565490722656
 30
0.0
 11
235.711595535278
 21
505.565490722656
 31
0.0
  0
LINE
  5
   4A2
  8
0
  6
CONTINUOUS
 62
   252
 10
221.236598968506
 20
505.565490722656
 30
0.0
 11
222.211595535278
 21
505.565490722656
 31
0.0
  0
LINE
  5
   4A3
  8
0
  6
CONTINUOUS
 62
   252
 10
222.586595535278
 20
505.565490722656
 30
0.0
 11
223.561597824097
 21
505.565490722656
 31
0.0
  0
LINE
  5
   4A4
  8
0
  6
CONTINUOUS
 62
   252
 10
225.286594390869
 20
505.565490722656
 30
0.0
 11
226.261596679688
 21
505.565490722656
 31
0.0
  0
LINE
  5
   4A5
  8
0
  6
CONTINUOUS
 62
   252
 10
236.086595535278
 20
505.565490722656
 30
0.0
 11
237.061597824097
 21
505.565490722656
 31
0.0
  0
LINE
  5
   4A6
  8
0
  6
CONTINUOUS
 62
   252
 10
237.436597824097
 20
505.565490722656
 30
0.0
 11
238.411594390869
 21
505.565490722656
 31
0.0
  0
LINE
  5
   4A7
  8
0
  6
CONTINUOUS
 62
   252
 10
244.186597824097
 20
505.565490722656
 30
0.0
 11
245.161594390869
 21
505.565490722656
 31
0.0
  0
LINE
  5
   4A8
  8
0
  6
CONTINUOUS
 62
   252
 10
242.836595535278
 20
505.565490722656
 30
0.0
 11
243.811597824097
 21
505.565490722656
 31
0.0
  0
LINE
  5
   4A9
  8
0
  6
CONTINUOUS
 62
   252
 10
241.486598968506
 20
505.565490722656
 30
0.0
 11
242.461595535278
 21
505.565490722656
 31
0.0
  0
LINE
  5
   4AA
  8
0
  6
CONTINUOUS
 62
   252
 10
240.136596679688
 20
505.565490722656
 30
0.0
 11
241.111598968506
 21
505.565490722656
 31
0.0
  0
LINE
  5
   4AB
  8
0
  6
CONTINUOUS
 62
   252
 10
219.886596679688
 20
505.565490722656
 30
0.0
 11
220.861598968506
 21
505.565490722656
 31
0.0
  0
LINE
  5
   4AC
  8
0
  6
CONTINUOUS
 62
   252
 10
238.786594390869
 20
505.565490722656
 30
0.0
 11
239.761596679688
 21
505.565490722656
 31
0.0
  0
LINE
  5
   4AD
  8
0
  6
CONTINUOUS
 62
   252
 10
192.886596679688
 20
505.565490722656
 30
0.0
 11
193.861596107483
 21
505.565490722656
 31
0.0
  0
LINE
  5
   4AE
  8
0
  6
CONTINUOUS
 62
   252
 10
194.236596107483
 20
505.565490722656
 30
0.0
 11
195.211595535278
 21
505.565490722656
 31
0.0
  0
LINE
  5
   4AF
  8
0
  6
CONTINUOUS
 62
   252
 10
195.586595535278
 20
505.565490722656
 30
0.0
 11
196.561597824097
 21
505.565490722656
 31
0.0
  0
LINE
  5
   4B0
  8
0
  6
CONTINUOUS
 62
   252
 10
196.936597824097
 20
505.565490722656
 30
0.0
 11
197.911597251892
 21
505.565490722656
 31
0.0
  0
LINE
  5
   4B1
  8
0
  6
CONTINUOUS
 62
   252
 10
198.286597251892
 20
505.565490722656
 30
0.0
 11
199.261596679688
 21
505.565490722656
 31
0.0
  0
LINE
  5
   4B2
  8
0
  6
CONTINUOUS
 62
   252
 10
199.636596679688
 20
505.565490722656
 30
0.0
 11
200.611596107483
 21
505.565490722656
 31
0.0
  0
LINE
  5
   4B3
  8
0
  6
CONTINUOUS
 62
   252
 10
200.986596107483
 20
505.565490722656
 30
0.0
 11
201.961595535278
 21
505.565490722656
 31
0.0
  0
LINE
  5
   4B4
  8
0
  6
CONTINUOUS
 62
   252
 10
202.336595535278
 20
505.565490722656
 30
0.0
 11
203.311597824097
 21
505.565490722656
 31
0.0
  0
LINE
  5
   4B5
  8
0
  6
CONTINUOUS
 62
   252
 10
203.686597824097
 20
505.565490722656
 30
0.0
 11
204.661597251892
 21
505.565490722656
 31
0.0
  0
LINE
  5
   4B6
  8
0
  6
CONTINUOUS
 62
   252
 10
205.036594390869
 20
505.565490722656
 30
0.0
 11
206.011596679688
 21
505.565490722656
 31
0.0
  0
LINE
  5
   4B7
  8
0
  6
CONTINUOUS
 62
   252
 10
206.386596679688
 20
505.565490722656
 30
0.0
 11
207.361598968506
 21
505.565490722656
 31
0.0
  0
LINE
  5
   4B8
  8
0
  6
CONTINUOUS
 62
   252
 10
207.736598968506
 20
505.565490722656
 30
0.0
 11
208.711595535278
 21
505.565490722656
 31
0.0
  0
LINE
  5
   4B9
  8
0
  6
CONTINUOUS
 62
   252
 10
209.086595535278
 20
505.565490722656
 30
0.0
 11
210.061597824097
 21
505.565490722656
 31
0.0
  0
LINE
  5
   4BA
  8
0
  6
CONTINUOUS
 62
   252
 10
210.436597824097
 20
505.565490722656
 30
0.0
 11
211.411594390869
 21
505.565490722656
 31
0.0
  0
LINE
  5
   4BB
  8
0
  6
CONTINUOUS
 62
   252
 10
211.786594390869
 20
505.565490722656
 30
0.0
 11
212.761596679688
 21
505.565490722656
 31
0.0
  0
LINE
  5
   4BC
  8
0
  6
CONTINUOUS
 62
   252
 10
213.136596679688
 20
505.565490722656
 30
0.0
 11
214.111598968506
 21
505.565490722656
 31
0.0
  0
LINE
  5
   4BD
  8
0
  6
CONTINUOUS
 62
   252
 10
214.486598968506
 20
505.565490722656
 30
0.0
 11
215.461595535278
 21
505.565490722656
 31
0.0
  0
LINE
  5
   4BE
  8
0
  6
CONTINUOUS
 62
   252
 10
215.836595535278
 20
505.565490722656
 30
0.0
 11
216.811597824097
 21
505.565490722656
 31
0.0
  0
LINE
  5
   4BF
  8
0
  6
CONTINUOUS
 62
   252
 10
217.186597824097
 20
505.565490722656
 30
0.0
 11
218.161594390869
 21
505.565490722656
 31
0.0
  0
LINE
  5
   4C0
  8
0
  6
CONTINUOUS
 62
   252
 10
218.536594390869
 20
505.565490722656
 30
0.0
 11
219.511596679688
 21
505.565490722656
 31
0.0
  0
LINE
  5
   4C1
  8
0
  6
CONTINUOUS
 62
   252
 10
247.074096679688
 20
505.565490722656
 30
0.0
 11
247.074096679688
 21
506.090491294861
 31
0.0
  0
LINE
  5
   4C2
  8
0
  6
CONTINUOUS
 62
   252
 10
245.349094390869
 20
506.090490722656
 30
0.0
 11
247.599094390869
 21
506.090490722656
 31
0.0
  0
LINE
  5
   4C3
  8
0
  6
CONTINUOUS
 62
   252
 10
190.449096679688
 20
506.090490722656
 30
0.0
 11
192.699096679688
 21
506.090490722656
 31
0.0
  0
LINE
  5
   4C4
  8
0
  6
CONTINUOUS
 62
   252
 10
192.699096679688
 20
506.090490722656
 30
0.0
 11
245.349094390869
 21
506.090490722656
 31
0.0
  0
LINE
  5
   4C5
  8
0
  6
CONTINUOUS
 62
   252
 10
192.511596679688
 20
578.315490722656
 30
0.0
 11
192.886596679688
 21
578.315490722656
 31
0.0
  0
LINE
  5
   4C6
  8
0
  6
CONTINUOUS
 62
   252
 10
193.861596107483
 20
578.315490722656
 30
0.0
 11
194.236596107483
 21
578.315490722656
 31
0.0
  0
LINE
  5
   4C7
  8
0
  6
CONTINUOUS
 62
   252
 10
195.211595535278
 20
578.315490722656
 30
0.0
 11
195.586595535278
 21
578.315490722656
 31
0.0
  0
LINE
  5
   4C8
  8
0
  6
CONTINUOUS
 62
   252
 10
196.561597824097
 20
578.315490722656
 30
0.0
 11
196.936597824097
 21
578.315490722656
 31
0.0
  0
LINE
  5
   4C9
  8
0
  6
CONTINUOUS
 62
   252
 10
197.911597251892
 20
578.315490722656
 30
0.0
 11
198.286597251892
 21
578.315490722656
 31
0.0
  0
LINE
  5
   4CA
  8
0
  6
CONTINUOUS
 62
   252
 10
199.261596679688
 20
578.315490722656
 30
0.0
 11
199.636596679688
 21
578.315490722656
 31
0.0
  0
LINE
  5
   4CB
  8
0
  6
CONTINUOUS
 62
   252
 10
200.611596107483
 20
578.315490722656
 30
0.0
 11
200.986596107483
 21
578.315490722656
 31
0.0
  0
LINE
  5
   4CC
  8
0
  6
CONTINUOUS
 62
   252
 10
201.961595535278
 20
578.315490722656
 30
0.0
 11
202.336595535278
 21
578.315490722656
 31
0.0
  0
LINE
  5
   4CD
  8
0
  6
CONTINUOUS
 62
   252
 10
203.311597824097
 20
578.315490722656
 30
0.0
 11
203.686597824097
 21
578.315490722656
 31
0.0
  0
LINE
  5
   4CE
  8
0
  6
CONTINUOUS
 62
   252
 10
204.661597251892
 20
578.315490722656
 30
0.0
 11
205.036594390869
 21
578.315490722656
 31
0.0
  0
LINE
  5
   4CF
  8
0
  6
CONTINUOUS
 62
   252
 10
206.011596679688
 20
578.315490722656
 30
0.0
 11
206.386596679688
 21
578.315490722656
 31
0.0
  0
LINE
  5
   4D0
  8
0
  6
CONTINUOUS
 62
   252
 10
207.361598968506
 20
578.315490722656
 30
0.0
 11
207.736598968506
 21
578.315490722656
 31
0.0
  0
LINE
  5
   4D1
  8
0
  6
CONTINUOUS
 62
   252
 10
208.711595535278
 20
578.315490722656
 30
0.0
 11
209.086595535278
 21
578.315490722656
 31
0.0
  0
LINE
  5
   4D2
  8
0
  6
CONTINUOUS
 62
   252
 10
210.061597824097
 20
578.315490722656
 30
0.0
 11
210.436597824097
 21
578.315490722656
 31
0.0
  0
LINE
  5
   4D3
  8
0
  6
CONTINUOUS
 62
   252
 10
211.411594390869
 20
578.315490722656
 30
0.0
 11
211.786594390869
 21
578.315490722656
 31
0.0
  0
LINE
  5
   4D4
  8
0
  6
CONTINUOUS
 62
   252
 10
212.761596679688
 20
578.315490722656
 30
0.0
 11
213.136596679688
 21
578.315490722656
 31
0.0
  0
LINE
  5
   4D5
  8
0
  6
CONTINUOUS
 62
   252
 10
214.111598968506
 20
578.315490722656
 30
0.0
 11
214.486598968506
 21
578.315490722656
 31
0.0
  0
LINE
  5
   4D6
  8
0
  6
CONTINUOUS
 62
   252
 10
215.461595535278
 20
578.315490722656
 30
0.0
 11
215.836595535278
 21
578.315490722656
 31
0.0
  0
LINE
  5
   4D7
  8
0
  6
CONTINUOUS
 62
   252
 10
216.811597824097
 20
578.315490722656
 30
0.0
 11
217.186597824097
 21
578.315490722656
 31
0.0
  0
LINE
  5
   4D8
  8
0
  6
CONTINUOUS
 62
   252
 10
218.161594390869
 20
578.315490722656
 30
0.0
 11
218.536594390869
 21
578.315490722656
 31
0.0
  0
LINE
  5
   4D9
  8
0
  6
CONTINUOUS
 62
   252
 10
219.511596679688
 20
578.315490722656
 30
0.0
 11
219.886596679688
 21
578.315490722656
 31
0.0
  0
LINE
  5
   4DA
  8
0
  6
CONTINUOUS
 62
   252
 10
220.861598968506
 20
578.315490722656
 30
0.0
 11
221.236598968506
 21
578.315490722656
 31
0.0
  0
LINE
  5
   4DB
  8
0
  6
CONTINUOUS
 62
   252
 10
222.211595535278
 20
578.315490722656
 30
0.0
 11
222.586595535278
 21
578.315490722656
 31
0.0
  0
LINE
  5
   4DC
  8
0
  6
CONTINUOUS
 62
   252
 10
223.561597824097
 20
578.315490722656
 30
0.0
 11
223.936597824097
 21
578.315490722656
 31
0.0
  0
LINE
  5
   4DD
  8
0
  6
CONTINUOUS
 62
   252
 10
224.911594390869
 20
578.315490722656
 30
0.0
 11
225.286594390869
 21
578.315490722656
 31
0.0
  0
LINE
  5
   4DE
  8
0
  6
CONTINUOUS
 62
   252
 10
226.261596679688
 20
578.315490722656
 30
0.0
 11
226.636596679688
 21
578.315490722656
 31
0.0
  0
LINE
  5
   4DF
  8
0
  6
CONTINUOUS
 62
   252
 10
227.611598968506
 20
578.315490722656
 30
0.0
 11
227.986598968506
 21
578.315490722656
 31
0.0
  0
LINE
  5
   4E0
  8
0
  6
CONTINUOUS
 62
   252
 10
228.961595535278
 20
578.315490722656
 30
0.0
 11
229.336595535278
 21
578.315490722656
 31
0.0
  0
LINE
  5
   4E1
  8
0
  6
CONTINUOUS
 62
   252
 10
230.311597824097
 20
578.315490722656
 30
0.0
 11
230.686597824097
 21
578.315490722656
 31
0.0
  0
LINE
  5
   4E2
  8
0
  6
CONTINUOUS
 62
   252
 10
231.661594390869
 20
578.315490722656
 30
0.0
 11
232.036594390869
 21
578.315490722656
 31
0.0
  0
LINE
  5
   4E3
  8
0
  6
CONTINUOUS
 62
   252
 10
233.011596679688
 20
578.315490722656
 30
0.0
 11
233.386596679688
 21
578.315490722656
 31
0.0
  0
LINE
  5
   4E4
  8
0
  6
CONTINUOUS
 62
   252
 10
234.361598968506
 20
578.315490722656
 30
0.0
 11
234.736598968506
 21
578.315490722656
 31
0.0
  0
LINE
  5
   4E5
  8
0
  6
CONTINUOUS
 62
   252
 10
235.711595535278
 20
578.315490722656
 30
0.0
 11
236.086595535278
 21
578.315490722656
 31
0.0
  0
LINE
  5
   4E6
  8
0
  6
CONTINUOUS
 62
   252
 10
237.061597824097
 20
578.315490722656
 30
0.0
 11
237.436597824097
 21
578.315490722656
 31
0.0
  0
LINE
  5
   4E7
  8
0
  6
CONTINUOUS
 62
   252
 10
238.411594390869
 20
578.315490722656
 30
0.0
 11
238.786594390869
 21
578.315490722656
 31
0.0
  0
LINE
  5
   4E8
  8
0
  6
CONTINUOUS
 62
   252
 10
239.761596679688
 20
578.315490722656
 30
0.0
 11
240.136596679688
 21
578.315490722656
 31
0.0
  0
LINE
  5
   4E9
  8
0
  6
CONTINUOUS
 62
   252
 10
241.111598968506
 20
578.315490722656
 30
0.0
 11
241.486598968506
 21
578.315490722656
 31
0.0
  0
LINE
  5
   4EA
  8
0
  6
CONTINUOUS
 62
   252
 10
242.461595535278
 20
578.315490722656
 30
0.0
 11
242.836595535278
 21
578.315490722656
 31
0.0
  0
LINE
  5
   4EB
  8
0
  6
CONTINUOUS
 62
   252
 10
243.811597824097
 20
578.315490722656
 30
0.0
 11
244.186597824097
 21
578.315490722656
 31
0.0
  0
LINE
  5
   4EC
  8
0
  6
CONTINUOUS
 62
   252
 10
245.161594390869
 20
578.315490722656
 30
0.0
 11
245.536594390869
 21
578.315490722656
 31
0.0
  0
LINE
  5
   4ED
  8
0
  6
CONTINUOUS
 62
     7
 10
123.474096679732
 20
577.790490150452
 30
0.0
 11
123.474096679732
 21
578.315487861633
 31
0.0
  0
LINE
  5
   4EE
  8
0
  6
CONTINUOUS
 62
     7
 10
190.449096679732
 20
554.690490722656
 30
0.0
 11
190.449096679732
 21
577.790490150452
 31
0.0
  0
LINE
  5
   4EF
  8
0
  6
CONTINUOUS
 62
     7
 10
190.449096679732
 20
506.090491294861
 30
0.0
 11
190.449096679732
 21
520.940490722656
 31
0.0
  0
LINE
  5
   4F0
  8
0
  6
CONTINUOUS
 62
     1
 10
164.199096679688
 20
549.951880350324
 30
0.0
 11
164.574096679688
 21
549.951880350324
 31
0.0
  0
LINE
  5
   4F1
  8
0
  6
CONTINUOUS
 62
     1
 10
148.824096679688
 20
549.951880350324
 30
0.0
 11
149.199096679688
 21
549.951880350324
 31
0.0
  0
LINE
  5
   4F2
  8
0
  6
CONTINUOUS
 62
     7
 10
148.824096679688
 20
528.269926071053
 30
0.0
 11
164.574096679688
 21
528.269926071053
 31
0.0
  0
LINE
  5
   4F3
  8
0
  6
CONTINUOUS
 62
     7
 10
164.424096822739
 20
527.900463515118
 30
0.0
 11
164.574096679688
 21
527.900463515118
 31
0.0
  0
LINE
  5
   4F4
  8
0
  6
CONTINUOUS
 62
     7
 10
148.824096679688
 20
527.900463515118
 30
0.0
 11
148.974096536636
 21
527.900463515118
 31
0.0
  0
CIRCLE
  5
   4F5
  8
0
  6
CONTINUOUS
 62
     7
 10
134.199084790929
 20
518.315486657018
 30
0.0
 40
2.4375
  0
LINE
  5
   4F6
  8
0
  6
CONTINUOUS
 62
     7
 10
164.189384222031
 20
527.710978150368
 30
0.0
 11
164.424096822739
 21
527.756107211113
 31
0.0
  0
LINE
  5
   4F7
  8
0
  6
CONTINUOUS
 62
     7
 10
164.106116294861
 20
527.702470183373
 30
0.0
 11
164.189384222031
 21
527.710978150368
 31
0.0
  0
LINE
  5
   4F8
  8
0
  6
CONTINUOUS
 62
     7
 10
164.424096679688
 20
527.802038788796
 30
0.0
 11
164.424096679688
 21
527.900463342667
 31
0.0
  0
LINE
  5
   4F9
  8
0
  6
CONTINUOUS
 62
     7
 10
148.974096679688
 20
527.802038788796
 30
0.0
 11
148.974096679688
 21
527.900463342667
 31
0.0
  0
LINE
  5
   4FA
  8
0
  6
CONTINUOUS
 62
     7
 10
178.449096107418
 20
527.089475631714
 30
0.0
 11
178.449096107418
 21
527.200420022011
 31
0.0
  0
LINE
  5
   4FB
  8
0
  6
CONTINUOUS
 62
     7
 10
183.999096679687
 20
522.065490722656
 30
0.0
 11
183.999096679687
 21
522.140491008759
 31
0.0
  0
LINE
  5
   4FC
  8
0
  6
CONTINUOUS
 62
     7
 10
183.999096679687
 20
553.490490436554
 30
0.0
 11
183.999096679687
 21
553.565490722656
 31
0.0
  0
LINE
  5
   4FD
  8
0
  6
CONTINUOUS
 62
     7
 10
185.274096679688
 20
553.565490722656
 30
0.0
 11
185.274096679688
 21
554.690490722656
 31
0.0
  0
LINE
  5
   4FE
  8
0
  6
CONTINUOUS
 62
     7
 10
185.274096679688
 20
520.940490722656
 30
0.0
 11
185.274096679688
 21
522.065490722656
 31
0.0
  0
LINE
  5
   4FF
  8
0
  6
CONTINUOUS
 62
     7
 10
148.974096536636
 20
527.756107211113
 30
0.0
 11
149.208807706833
 21
527.710978150368
 31
0.0
  0
LINE
  5
   500
  8
0
  6
CONTINUOUS
 62
     7
 10
149.208807706833
 20
527.710978150368
 30
0.0
 11
149.292062759399
 21
527.702471256256
 31
0.0
  0
POLYLINE
  5
   501
  8
0
  6
CONTINUOUS
 62
     7
 66
     1
 10
0.0
 20
0.0
 30
0.0
  0
VERTEX
  5
   502
  8
0
  6
CONTINUOUS
 10
163.674097407268
 20
524.840490722656
 30
0.0
 40
0.0
 41
0.0
  0
VERTEX
  5
   503
  8
0
  6
CONTINUOUS
 10
164.124096678906
 20
524.690490722656
 30
0.0
 40
0.0
 41
0.0
  0
SEQEND
  5
   504
  8
0
  6
CONTINUOUS
 62
     7
  0
POLYLINE
  5
   505
  8
0
  6
CONTINUOUS
 62
     7
 66
     1
 10
0.0
 20
0.0
 30
0.0
  0
VERTEX
  5
   506
  8
0
  6
CONTINUOUS
 10
149.724095938162
 20
524.840490722656
 30
0.0
 40
0.0
 41
0.0
  0
VERTEX
  5
   507
  8
0
  6
CONTINUOUS
 10
149.274096679479
 20
524.690490722656
 30
0.0
 40
0.0
 41
0.0
  0
SEQEND
  5
   508
  8
0
  6
CONTINUOUS
 62
     7
  0
LINE
  5
   509
  8
0
  6
CONTINUOUS
 62
     7
 10
164.124097108841
 20
524.690490722656
 30
0.0
 11
164.349096536636
 21
524.690490722656
 31
0.0
  0
LINE
  5
   50A
  8
0
  6
CONTINUOUS
 62
     7
 10
149.049096822739
 20
524.690490722656
 30
0.0
 11
149.274096250534
 21
524.690490722656
 31
0.0
  0
LINE
  5
   50B
  8
0
  6
CONTINUOUS
 62
     7
 10
149.274096250534
 20
524.690490722656
 30
0.0
 11
164.124097108841
 21
524.690490722656
 31
0.0
  0
POLYLINE
  5
   50C
  8
0
  6
CONTINUOUS
 62
     7
 66
     1
 10
0.0
 20
0.0
 30
0.0
  0
VERTEX
  5
   50D
  8
0
  6
CONTINUOUS
 10
164.106116416336
 20
527.702470251267
 30
0.0
 40
0.0
 41
0.0
  0
VERTEX
  5
   50E
  8
0
  6
CONTINUOUS
 10
163.674096679688
 20
527.553041046552
 30
0.0
 40
0.0
 41
0.0
  0
SEQEND
  5
   50F
  8
0
  6
CONTINUOUS
 62
     7
  0
POLYLINE
  5
   510
  8
0
  6
CONTINUOUS
 62
     7
 66
     1
 10
0.0
 20
0.0
 30
0.0
  0
VERTEX
  5
   511
  8
0
  6
CONTINUOUS
 10
149.292076941863
 20
527.702470251267
 30
0.0
 40
0.0
 41
0.0
  0
VERTEX
  5
   512
  8
0
  6
CONTINUOUS
 10
149.724096618411
 20
527.553041046552
 30
0.0
 40
0.0
 41
0.0
  0
SEQEND
  5
   513
  8
0
  6
CONTINUOUS
 62
     7
  0
LINE
  5
   514
  8
0
  6
CONTINUOUS
 62
     7
 10
122.949096679688
 20
577.790490722656
 30
0.0
 11
124.786597251892
 21
577.790490722656
 31
0.0
  0
LINE
  5
   515
  8
0
  6
CONTINUOUS
 62
     7
 10
188.611596107483
 20
577.790490722656
 30
0.0
 11
190.449096679688
 21
577.790490722656
 31
0.0
  0
LINE
  5
   516
  8
0
  6
CONTINUOUS
 62
     7
 10
188.236596107483
 20
577.790490722656
 30
0.0
 11
188.611596107483
 21
577.790490722656
 31
0.0
  0
LINE
  5
   517
  8
0
  6
CONTINUOUS
 62
     7
 10
124.786597251892
 20
577.790490722656
 30
0.0
 11
125.161597251892
 21
577.790490722656
 31
0.0
  0
LINE
  5
   518
  8
0
  6
CONTINUOUS
 62
     7
 10
125.161597251892
 20
577.790490722656
 30
0.0
 11
126.136596679688
 21
577.790490722656
 31
0.0
  0
LINE
  5
   519
  8
0
  6
CONTINUOUS
 62
     7
 10
185.911597251892
 20
577.790490722656
 30
0.0
 11
186.886596679688
 21
577.790490722656
 31
0.0
  0
LINE
  5
   51A
  8
0
  6
CONTINUOUS
 62
     7
 10
127.861596107483
 20
577.790490722656
 30
0.0
 11
185.536597251892
 21
577.790490722656
 31
0.0
  0
LINE
  5
   51B
  8
0
  6
CONTINUOUS
 62
     7
 10
126.511596679688
 20
577.790490722656
 30
0.0
 11
127.486596107483
 21
577.790490722656
 31
0.0
  0
LINE
  5
   51C
  8
0
  6
CONTINUOUS
 62
     7
 10
187.261596679688
 20
577.790490722656
 30
0.0
 11
188.236596107483
 21
577.790490722656
 31
0.0
  0
LINE
  5
   51D
  8
0
  6
CONTINUOUS
 62
     7
 10
186.886596679688
 20
577.790490722656
 30
0.0
 11
187.261596679688
 21
577.790490722656
 31
0.0
  0
LINE
  5
   51E
  8
0
  6
CONTINUOUS
 62
     7
 10
185.536597251892
 20
577.790490722656
 30
0.0
 11
185.911597251892
 21
577.790490722656
 31
0.0
  0
LINE
  5
   51F
  8
0
  6
CONTINUOUS
 62
     7
 10
126.136596679688
 20
577.790490722656
 30
0.0
 11
126.511596679688
 21
577.790490722656
 31
0.0
  0
LINE
  5
   520
  8
0
  6
CONTINUOUS
 62
     7
 10
127.486596107483
 20
577.790490722656
 30
0.0
 11
127.861596107483
 21
577.790490722656
 31
0.0
  0
LINE
  5
   521
  8
0
  6
CONTINUOUS
 62
     7
 10
122.949096679688
 20
506.090490722656
 30
0.0
 11
124.786597251892
 21
506.090490722656
 31
0.0
  0
LINE
  5
   522
  8
0
  6
CONTINUOUS
 62
     7
 10
188.611596107483
 20
506.090490722656
 30
0.0
 11
190.449096679688
 21
506.090490722656
 31
0.0
  0
LINE
  5
   523
  8
0
  6
CONTINUOUS
 62
     7
 10
124.786597251892
 20
506.090490722656
 30
0.0
 11
125.161597251892
 21
506.090490722656
 31
0.0
  0
LINE
  5
   524
  8
0
  6
CONTINUOUS
 62
     7
 10
188.236596107483
 20
506.090490722656
 30
0.0
 11
188.611596107483
 21
506.090490722656
 31
0.0
  0
LINE
  5
   525
  8
0
  6
CONTINUOUS
 62
     7
 10
126.511596679688
 20
506.090490722656
 30
0.0
 11
127.486596107483
 21
506.090490722656
 31
0.0
  0
LINE
  5
   526
  8
0
  6
CONTINUOUS
 62
     7
 10
125.161597251892
 20
506.090490722656
 30
0.0
 11
126.136596679688
 21
506.090490722656
 31
0.0
  0
LINE
  5
   527
  8
0
  6
CONTINUOUS
 62
     7
 10
127.861596107483
 20
506.090490722656
 30
0.0
 11
185.536597251892
 21
506.090490722656
 31
0.0
  0
LINE
  5
   528
  8
0
  6
CONTINUOUS
 62
     7
 10
187.261596679688
 20
506.090490722656
 30
0.0
 11
188.236596107483
 21
506.090490722656
 31
0.0
  0
LINE
  5
   529
  8
0
  6
CONTINUOUS
 62
     7
 10
185.911597251892
 20
506.090490722656
 30
0.0
 11
186.886596679688
 21
506.090490722656
 31
0.0
  0
LINE
  5
   52A
  8
0
  6
CONTINUOUS
 62
     7
 10
126.136596679688
 20
506.090490722656
 30
0.0
 11
126.511596679688
 21
506.090490722656
 31
0.0
  0
LINE
  5
   52B
  8
0
  6
CONTINUOUS
 62
     7
 10
127.486596107483
 20
506.090490722656
 30
0.0
 11
127.861596107483
 21
506.090490722656
 31
0.0
  0
LINE
  5
   52C
  8
0
  6
CONTINUOUS
 62
     7
 10
186.886596679688
 20
506.090490722656
 30
0.0
 11
187.261596679688
 21
506.090490722656
 31
0.0
  0
LINE
  5
   52D
  8
0
  6
CONTINUOUS
 62
     7
 10
185.536597251892
 20
506.090490722656
 30
0.0
 11
185.911597251892
 21
506.090490722656
 31
0.0
  0
POLYLINE
  5
   52E
  8
0
  6
CONTINUOUS
 62
     7
 66
     1
 10
0.0
 20
0.0
 30
0.0
  0
VERTEX
  5
   52F
  8
0
  6
CONTINUOUS
 10
175.449096679691
 20
525.440490722659
 30
0.0
 40
0.0
 41
0.0
  0
VERTEX
  5
   530
  8
0
  6
CONTINUOUS
 10
175.660999285279
 20
526.061355175042
 30
0.0
 40
0.0
 41
0.0
  0
VERTEX
  5
   531
  8
0
  6
CONTINUOUS
 10
176.435148377046
 20
526.707949226077
 30
0.0
 40
0.0
 41
0.0
  0
SEQEND
  5
   532
  8
0
  6
CONTINUOUS
 62
     7
  0
POLYLINE
  5
   533
  8
0
  6
CONTINUOUS
 62
     7
 66
     1
 10
0.0
 20
0.0
 30
0.0
  0
VERTEX
  5
   534
  8
0
  6
CONTINUOUS
 10
176.519448213546
 20
526.752389779741
 30
0.0
 40
0.0
 41
0.0
  0
VERTEX
  5
   535
  8
0
  6
CONTINUOUS
 10
177.698814134752
 20
527.158985503902
 30
0.0
 40
0.0
 41
0.0
  0
VERTEX
  5
   536
  8
0
  6
CONTINUOUS
 10
178.970750122432
 20
527.311907717978
 30
0.0
 40
0.0
 41
0.0
  0
VERTEX
  5
   537
  8
0
  6
CONTINUOUS
 10
179.825675109804
 20
527.289199436003
 30
0.0
 40
0.0
 41
0.0
  0
SEQEND
  5
   538
  8
0
  6
CONTINUOUS
 62
     7
  0
POLYLINE
  5
   539
  8
0
  6
CONTINUOUS
 62
     7
 66
     1
 10
0.0
 20
0.0
 30
0.0
  0
VERTEX
  5
   53A
  8
0
  6
CONTINUOUS
 10
179.976185893034
 20
527.27489820154
 30
0.0
 40
0.0
 41
0.0
  0
VERTEX
  5
   53B
  8
0
  6
CONTINUOUS
 10
181.289442574661
 20
526.997142312767
 30
0.0
 40
0.0
 41
0.0
  0
VERTEX
  5
   53C
  8
0
  6
CONTINUOUS
 10
181.756514348095
 20
526.811926775198
 30
0.0
 40
0.0
 41
0.0
  0
SEQEND
  5
   53D
  8
0
  6
CONTINUOUS
 62
     7
  0
POLYLINE
  5
   53E
  8
0
  6
CONTINUOUS
 62
     7
 66
     1
 10
0.0
 20
0.0
 30
0.0
  0
VERTEX
  5
   53F
  8
0
  6
CONTINUOUS
 10
182.427586740791
 20
526.394186712929
 30
0.0
 40
0.0
 41
0.0
  0
VERTEX
  5
   540
  8
0
  6
CONTINUOUS
 10
182.657940641911
 20
526.164874691586
 30
0.0
 40
0.0
 41
0.0
  0
SEQEND
  5
   541
  8
0
  6
CONTINUOUS
 62
     7
  0
POLYLINE
  5
   542
  8
0
  6
CONTINUOUS
 62
     7
 66
     1
 10
0.0
 20
0.0
 30
0.0
  0
VERTEX
  5
   543
  8
0
  6
CONTINUOUS
 10
181.959772557357
 20
526.709529549391
 30
0.0
 40
0.0
 41
0.0
  0
VERTEX
  5
   544
  8
0
  6
CONTINUOUS
 10
182.345179575068
 20
526.460726621425
 30
0.0
 40
0.0
 41
0.0
  0
SEQEND
  5
   545
  8
0
  6
CONTINUOUS
 62
     7
  0
POLYLINE
  5
   546
  8
0
  6
CONTINUOUS
 62
     7
 66
     1
 10
0.0
 20
0.0
 30
0.0
  0
VERTEX
  5
   547
  8
0
  6
CONTINUOUS
 10
182.848766407807
 20
525.871860714485
 30
0.0
 40
0.0
 41
0.0
  0
VERTEX
  5
   548
  8
0
  6
CONTINUOUS
 10
182.949096679684
 20
525.440490722659
 30
0.0
 40
0.0
 41
0.0
  0
SEQEND
  5
   549
  8
0
  6
CONTINUOUS
 62
     7
  0
POLYLINE
  5
   54A
  8
0
  6
CONTINUOUS
 62
     7
 66
     1
 10
0.0
 20
0.0
 30
0.0
  0
VERTEX
  5
   54B
  8
0
  6
CONTINUOUS
 10
178.422003132629
 20
523.606083701873
 30
0.0
 40
0.0
 41
0.0
  0
VERTEX
  5
   54C
  8
0
  6
CONTINUOUS
 10
177.108753303968
 20
523.883838287923
 30
0.0
 40
0.0
 41
0.0
  0
VERTEX
  5
   54D
  8
0
  6
CONTINUOUS
 10
176.641683038951
 20
524.069052792156
 30
0.0
 40
0.0
 41
0.0
  0
SEQEND
  5
   54E
  8
0
  6
CONTINUOUS
 62
     7
  0
POLYLINE
  5
   54F
  8
0
  6
CONTINUOUS
 62
     7
 66
     1
 10
0.0
 20
0.0
 30
0.0
  0
VERTEX
  5
   550
  8
0
  6
CONTINUOUS
 10
175.970094476059
 20
524.487228257278
 30
0.0
 40
0.0
 41
0.0
  0
VERTEX
  5
   551
  8
0
  6
CONTINUOUS
 10
175.736328550941
 20
524.720802129233
 30
0.0
 40
0.0
 41
0.0
  0
SEQEND
  5
   552
  8
0
  6
CONTINUOUS
 62
     7
  0
POLYLINE
  5
   553
  8
0
  6
CONTINUOUS
 62
     7
 66
     1
 10
0.0
 20
0.0
 30
0.0
  0
VERTEX
  5
   554
  8
0
  6
CONTINUOUS
 10
175.549424191445
 20
525.009126566275
 30
0.0
 40
0.0
 41
0.0
  0
VERTEX
  5
   555
  8
0
  6
CONTINUOUS
 10
175.449096679691
 20
525.440490722653
 30
0.0
 40
0.0
 41
0.0
  0
SEQEND
  5
   556
  8
0
  6
CONTINUOUS
 62
     7
  0
POLYLINE
  5
   557
  8
0
  6
CONTINUOUS
 62
     7
 66
     1
 10
0.0
 20
0.0
 30
0.0
  0
VERTEX
  5
   558
  8
0
  6
CONTINUOUS
 10
182.949096679684
 20
525.440490722653
 30
0.0
 40
0.0
 41
0.0
  0
VERTEX
  5
   559
  8
0
  6
CONTINUOUS
 10
182.778352630042
 20
524.881688338401
 30
0.0
 40
0.0
 41
0.0
  0
VERTEX
  5
   55A
  8
0
  6
CONTINUOUS
 10
182.37837879995
 20
524.446092858182
 30
0.0
 40
0.0
 41
0.0
  0
VERTEX
  5
   55B
  8
0
  6
CONTINUOUS
 10
181.295586642583
 20
523.886118150983
 30
0.0
 40
0.0
 41
0.0
  0
VERTEX
  5
   55C
  8
0
  6
CONTINUOUS
 10
179.860261075711
 20
523.594858375868
 30
0.0
 40
0.0
 41
0.0
  0
VERTEX
  5
   55D
  8
0
  6
CONTINUOUS
 10
178.586646600555
 20
523.590603129632
 30
0.0
 40
0.0
 41
0.0
  0
SEQEND
  5
   55E
  8
0
  6
CONTINUOUS
 62
     7
  0
POLYLINE
  5
   55F
  8
0
  6
CONTINUOUS
 62
     7
 66
     1
 10
0.0
 20
0.0
 30
0.0
  0
VERTEX
  5
   560
  8
0
  6
CONTINUOUS
 10
176.486798157813
 20
524.145615628889
 30
0.0
 40
0.0
 41
0.0
  0
VERTEX
  5
   561
  8
0
  6
CONTINUOUS
 10
176.07993341285
 20
524.399787658124
 30
0.0
 40
0.0
 41
0.0
  0
SEQEND
  5
   562
  8
0
  6
CONTINUOUS
 62
     7
  0
LINE
  5
   563
  8
0
  6
CONTINUOUS
 62
     7
 10
181.449096679688
 20
553.490490436554
 30
0.0
 11
181.449096679688
 21
553.565490722656
 31
0.0
  0
LINE
  5
   564
  8
0
  6
CONTINUOUS
 62
     7
 10
176.949096679688
 20
553.490490436554
 30
0.0
 11
176.949096679688
 21
553.565490722656
 31
0.0
  0
LINE
  5
   565
  8
0
  6
CONTINUOUS
 62
     7
 10
136.449096679688
 20
553.490490436554
 30
0.0
 11
136.449096679688
 21
553.565490722656
 31
0.0
  0
LINE
  5
   566
  8
0
  6
CONTINUOUS
 62
     7
 10
131.949096679688
 20
553.490490436554
 30
0.0
 11
131.949096679688
 21
553.565490722656
 31
0.0
  0
LINE
  5
   567
  8
0
  6
CONTINUOUS
 62
     7
 10
131.949096679688
 20
522.065490722656
 30
0.0
 11
131.949096679688
 21
522.140491008759
 31
0.0
  0
LINE
  5
   568
  8
0
  6
CONTINUOUS
 62
     7
 10
136.449096679688
 20
522.065490722656
 30
0.0
 11
136.449096679688
 21
522.140491008759
 31
0.0
  0
LINE
  5
   569
  8
0
  6
CONTINUOUS
 62
     7
 10
182.199096679688
 20
522.065490722656
 30
0.0
 11
182.199096679688
 21
522.140491008759
 31
0.0
  0
LINE
  5
   56A
  8
0
  6
CONTINUOUS
 62
     7
 10
176.199096679688
 20
522.065490722656
 30
0.0
 11
176.199096679688
 21
522.140491008759
 31
0.0
  0
LINE
  5
   56B
  8
0
  6
CONTINUOUS
 62
     7
 10
129.399096679687
 20
553.490490436554
 30
0.0
 11
129.399096679687
 21
553.565490722656
 31
0.0
  0
LINE
  5
   56C
  8
0
  6
CONTINUOUS
 62
     7
 10
129.399096679687
 20
522.065490722656
 30
0.0
 11
129.399096679687
 21
522.140491008759
 31
0.0
  0
LINE
  5
   56D
  8
0
  6
CONTINUOUS
 62
     7
 10
128.124096679692
 20
553.565490722656
 30
0.0
 11
128.124096679692
 21
554.690490722656
 31
0.0
  0
LINE
  5
   56E
  8
0
  6
CONTINUOUS
 62
     7
 10
146.574096679688
 20
553.565490722656
 30
0.0
 11
158.920711755753
 21
553.565490722656
 31
0.0
  0
LINE
  5
   56F
  8
0
  6
CONTINUOUS
 62
     7
 10
176.949096679688
 20
553.565490722657
 30
0.0
 11
181.449096679688
 21
553.565490722657
 31
0.0
  0
LINE
  5
   570
  8
0
  6
CONTINUOUS
 62
     7
 10
169.962522983551
 20
553.565490722656
 30
0.0
 11
176.949096679688
 21
553.565490722656
 31
0.0
  0
LINE
  5
   571
  8
0
  6
CONTINUOUS
 62
     7
 10
181.449096679688
 20
553.565490722656
 30
0.0
 11
183.024095535278
 21
553.565490722656
 31
0.0
  0
LINE
  5
   572
  8
0
  6
CONTINUOUS
 62
     7
 10
183.024095535278
 20
553.565490722656
 30
0.0
 11
185.274095535278
 21
553.565490722656
 31
0.0
  0
LINE
  5
   573
  8
0
  6
CONTINUOUS
 62
     7
 10
128.124097824097
 20
553.565490722656
 30
0.0
 11
130.374097824097
 21
553.565490722656
 31
0.0
  0
LINE
  5
   574
  8
0
  6
CONTINUOUS
 62
     7
 10
131.949096679688
 20
553.565490722657
 30
0.0
 11
136.449096679688
 21
553.565490722657
 31
0.0
  0
LINE
  5
   575
  8
0
  6
CONTINUOUS
 62
     7
 10
130.374097824097
 20
553.565490722656
 30
0.0
 11
131.949096679688
 21
553.565490722656
 31
0.0
  0
LINE
  5
   576
  8
0
  6
CONTINUOUS
 62
     7
 10
136.449096679688
 20
553.565490722656
 30
0.0
 11
146.574096679688
 21
553.565490722656
 31
0.0
  0
LINE
  5
   577
  8
0
  6
CONTINUOUS
 62
     7
 10
146.574096679688
 20
554.690490722656
 30
0.0
 11
160.99879860878
 21
554.690490722656
 31
0.0
  0
LINE
  5
   578
  8
0
  6
CONTINUOUS
 62
     7
 10
167.586311817169
 20
554.690490722656
 30
0.0
 11
183.024095535278
 21
554.690490722656
 31
0.0
  0
LINE
  5
   579
  8
0
  6
CONTINUOUS
 62
     7
 10
183.024095535278
 20
554.690490722656
 30
0.0
 11
185.274095535278
 21
554.690490722656
 31
0.0
  0
LINE
  5
   57A
  8
0
  6
CONTINUOUS
 62
     7
 10
128.124097824097
 20
554.690490722656
 30
0.0
 11
130.374097824097
 21
554.690490722656
 31
0.0
  0
LINE
  5
   57B
  8
0
  6
CONTINUOUS
 62
     7
 10
130.374097824097
 20
554.690490722656
 30
0.0
 11
146.574096679688
 21
554.690490722656
 31
0.0
  0
LINE
  5
   57C
  8
0
  6
CONTINUOUS
 62
     7
 10
128.124096679692
 20
520.940490722656
 30
0.0
 11
128.124096679692
 21
522.065490722656
 31
0.0
  0
LINE
  5
   57D
  8
0
  6
CONTINUOUS
 62
     7
 10
146.574096679688
 20
520.940490722656
 30
0.0
 11
166.824096679688
 21
520.940490722656
 31
0.0
  0
LINE
  5
   57E
  8
0
  6
CONTINUOUS
 62
     7
 10
166.824096679688
 20
520.940490722656
 30
0.0
 11
183.024095535278
 21
520.940490722656
 31
0.0
  0
LINE
  5
   57F
  8
0
  6
CONTINUOUS
 62
     7
 10
183.024095535278
 20
520.940490722656
 30
0.0
 11
185.274095535278
 21
520.940490722656
 31
0.0
  0
LINE
  5
   580
  8
0
  6
CONTINUOUS
 62
     7
 10
128.124097824097
 20
520.940490722656
 30
0.0
 11
130.374097824097
 21
520.940490722656
 31
0.0
  0
LINE
  5
   581
  8
0
  6
CONTINUOUS
 62
     7
 10
130.374097824097
 20
520.940490722656
 30
0.0
 11
146.574096679688
 21
520.940490722656
 31
0.0
  0
LINE
  5
   582
  8
0
  6
CONTINUOUS
 62
     7
 10
146.574096679688
 20
522.065490722656
 30
0.0
 11
166.824096679688
 21
522.065490722656
 31
0.0
  0
LINE
  5
   583
  8
0
  6
CONTINUOUS
 62
     7
 10
166.824096679688
 20
522.065490722656
 30
0.0
 11
183.024095535278
 21
522.065490722656
 31
0.0
  0
LINE
  5
   584
  8
0
  6
CONTINUOUS
 62
     7
 10
183.024095535278
 20
522.065490722656
 30
0.0
 11
185.274095535278
 21
522.065490722656
 31
0.0
  0
LINE
  5
   585
  8
0
  6
CONTINUOUS
 62
     7
 10
128.124097824097
 20
522.065490722656
 30
0.0
 11
130.374097824097
 21
522.065490722656
 31
0.0
  0
LINE
  5
   586
  8
0
  6
CONTINUOUS
 62
     7
 10
130.374097824097
 20
522.065490722656
 30
0.0
 11
146.574096679688
 21
522.065490722656
 31
0.0
  0
LINE
  5
   587
  8
0
  6
CONTINUOUS
 62
     7
 10
122.949096679688
 20
554.690490722656
 30
0.0
 11
124.786597251892
 21
554.690490722656
 31
0.0
  0
LINE
  5
   588
  8
0
  6
CONTINUOUS
 62
     7
 10
188.611596107483
 20
554.690490722656
 30
0.0
 11
190.449096679688
 21
554.690490722656
 31
0.0
  0
LINE
  5
   589
  8
0
  6
CONTINUOUS
 62
     7
 10
124.786597251892
 20
554.690490722656
 30
0.0
 11
125.161597251892
 21
554.690490722656
 31
0.0
  0
LINE
  5
   58A
  8
0
  6
CONTINUOUS
 62
     7
 10
188.236596107483
 20
554.690490722656
 30
0.0
 11
188.611596107483
 21
554.690490722656
 31
0.0
  0
LINE
  5
   58B
  8
0
  6
CONTINUOUS
 62
     7
 10
186.886596679688
 20
554.690490722656
 30
0.0
 11
187.261596679688
 21
554.690490722656
 31
0.0
  0
LINE
  5
   58C
  8
0
  6
CONTINUOUS
 62
     7
 10
185.536597251892
 20
554.690490722656
 30
0.0
 11
185.911597251892
 21
554.690490722656
 31
0.0
  0
LINE
  5
   58D
  8
0
  6
CONTINUOUS
 62
     7
 10
126.136596679688
 20
554.690490722656
 30
0.0
 11
126.511596679688
 21
554.690490722656
 31
0.0
  0
LINE
  5
   58E
  8
0
  6
CONTINUOUS
 62
     7
 10
127.486596107483
 20
554.690490722656
 30
0.0
 11
127.861596107483
 21
554.690490722656
 31
0.0
  0
LINE
  5
   58F
  8
0
  6
CONTINUOUS
 62
     7
 10
122.949096679688
 20
520.940490722656
 30
0.0
 11
124.786597251892
 21
520.940490722656
 31
0.0
  0
LINE
  5
   590
  8
0
  6
CONTINUOUS
 62
     7
 10
188.611596107483
 20
520.940490722656
 30
0.0
 11
190.449096679688
 21
520.940490722656
 31
0.0
  0
LINE
  5
   591
  8
0
  6
CONTINUOUS
 62
     7
 10
124.786597251892
 20
520.940490722656
 30
0.0
 11
125.161597251892
 21
520.940490722656
 31
0.0
  0
LINE
  5
   592
  8
0
  6
CONTINUOUS
 62
     7
 10
188.236596107483
 20
520.940490722656
 30
0.0
 11
188.611596107483
 21
520.940490722656
 31
0.0
  0
LINE
  5
   593
  8
0
  6
CONTINUOUS
 62
     7
 10
186.886596679688
 20
520.940490722656
 30
0.0
 11
187.261596679688
 21
520.940490722656
 31
0.0
  0
LINE
  5
   594
  8
0
  6
CONTINUOUS
 62
     7
 10
185.536597251892
 20
520.940490722656
 30
0.0
 11
185.911597251892
 21
520.940490722656
 31
0.0
  0
LINE
  5
   595
  8
0
  6
CONTINUOUS
 62
     7
 10
126.136596679688
 20
520.940490722656
 30
0.0
 11
126.511596679688
 21
520.940490722656
 31
0.0
  0
LINE
  5
   596
  8
0
  6
CONTINUOUS
 62
     7
 10
127.486596107483
 20
520.940490722656
 30
0.0
 11
127.861596107483
 21
520.940490722656
 31
0.0
  0
LINE
  5
   597
  8
0
  6
CONTINUOUS
 62
     7
 10
164.424096679688
 20
527.756107211113
 30
0.0
 11
164.424096679688
 21
527.802038788796
 31
0.0
  0
LINE
  5
   598
  8
0
  6
CONTINUOUS
 62
     7
 10
164.424096679688
 20
524.765491008759
 30
0.0
 11
164.424096679688
 21
527.756107211113
 31
0.0
  0
LINE
  5
   599
  8
0
  6
CONTINUOUS
 62
     7
 10
148.974096679688
 20
527.756107211113
 30
0.0
 11
148.974096679688
 21
527.802038788796
 31
0.0
  0
LINE
  5
   59A
  8
0
  6
CONTINUOUS
 62
     7
 10
148.974096679688
 20
524.765491008759
 30
0.0
 11
148.974096679688
 21
527.756107211113
 31
0.0
  0
LINE
  5
   59B
  8
0
  6
CONTINUOUS
 62
     7
 10
189.924096679732
 20
505.565490722656
 30
0.0
 11
189.924096679732
 21
506.090491294861
 31
0.0
  0
LINE
  5
   59C
  8
0
  6
CONTINUOUS
 62
     7
 10
189.924096679732
 20
577.790490150452
 30
0.0
 11
189.924096679732
 21
578.31548500061
 31
0.0
  0
LINE
  5
   59D
  8
0
  6
CONTINUOUS
 62
     7
 10
185.911597251892
 20
554.690490722656
 30
0.0
 11
186.886596679688
 21
554.690490722656
 31
0.0
  0
LINE
  5
   59E
  8
0
  6
CONTINUOUS
 62
     7
 10
126.511596679688
 20
554.690490722656
 30
0.0
 11
127.486596107483
 21
554.690490722656
 31
0.0
  0
LINE
  5
   59F
  8
0
  6
CONTINUOUS
 62
     7
 10
185.274095535278
 20
554.690490722656
 30
0.0
 11
185.536597251892
 21
554.690490722656
 31
0.0
  0
LINE
  5
   5A0
  8
0
  6
CONTINUOUS
 62
     7
 10
127.861596107483
 20
554.690490722656
 30
0.0
 11
128.124097824097
 21
554.690490722656
 31
0.0
  0
LINE
  5
   5A1
  8
0
  6
CONTINUOUS
 62
     7
 10
122.949096679732
 20
520.940490722656
 30
0.0
 11
122.949096679732
 21
554.690490722656
 31
0.0
  0
LINE
  5
   5A2
  8
0
  6
CONTINUOUS
 62
     7
 10
122.949096679732
 20
506.090491294861
 30
0.0
 11
122.949096679732
 21
520.940490722656
 31
0.0
  0
LINE
  5
   5A3
  8
0
  6
CONTINUOUS
 62
     7
 10
122.949096679732
 20
554.690490722656
 30
0.0
 11
122.949096679732
 21
577.790490150452
 31
0.0
  0
LINE
  5
   5A4
  8
0
  6
CONTINUOUS
 62
     7
 10
185.911597251892
 20
520.940490722656
 30
0.0
 11
186.886596679688
 21
520.940490722656
 31
0.0
  0
LINE
  5
   5A5
  8
0
  6
CONTINUOUS
 62
     7
 10
127.861596107483
 20
520.940490722656
 30
0.0
 11
128.124097824097
 21
520.940490722656
 31
0.0
  0
LINE
  5
   5A6
  8
0
  6
CONTINUOUS
 62
     7
 10
185.274095535278
 20
520.940490722656
 30
0.0
 11
185.536597251892
 21
520.940490722656
 31
0.0
  0
LINE
  5
   5A7
  8
0
  6
CONTINUOUS
 62
     7
 10
126.511596679688
 20
520.940490722656
 30
0.0
 11
127.486596107483
 21
520.940490722656
 31
0.0
  0
LINE
  5
   5A8
  8
0
  6
CONTINUOUS
 62
     7
 10
125.161597251892
 20
554.690490722656
 30
0.0
 11
126.136596679688
 21
554.690490722656
 31
0.0
  0
LINE
  5
   5A9
  8
0
  6
CONTINUOUS
 62
     7
 10
125.161597251892
 20
520.940490722656
 30
0.0
 11
126.136596679688
 21
520.940490722656
 31
0.0
  0
LINE
  5
   5AA
  8
0
  6
CONTINUOUS
 62
     7
 10
187.261596679688
 20
554.690490722656
 30
0.0
 11
188.236596107483
 21
554.690490722656
 31
0.0
  0
LINE
  5
   5AB
  8
0
  6
CONTINUOUS
 62
     7
 10
187.261596679688
 20
520.940490722656
 30
0.0
 11
188.236596107483
 21
520.940490722656
 31
0.0
  0
LINE
  5
   5AC
  8
0
  6
CONTINUOUS
 62
     7
 10
123.474096679732
 20
505.565490722656
 30
0.0
 11
123.474096679732
 21
506.090491294861
 31
0.0
  0
LINE
  5
   5AD
  8
0
  6
CONTINUOUS
 62
     3
 10
180.392662181866
 20
524.615490779865
 30
0.0
 11
180.586595907223
 21
524.809424505222
 31
0.0
  0
LINE
  5
   5AE
  8
0
  6
CONTINUOUS
 62
     3
 10
180.586596107482
 20
524.809424877167
 30
0.0
 11
180.586596107482
 21
525.321556568146
 31
0.0
  0
LINE
  5
   5AF
  8
0
  6
CONTINUOUS
 62
     3
 10
180.392662181869
 20
525.515490665451
 30
0.0
 11
180.586595907226
 21
525.321556940094
 31
0.0
  0
LINE
  5
   5B0
  8
0
  6
CONTINUOUS
 62
     3
 10
179.530162811279
 20
525.51549072266
 30
0.0
 11
180.392662525177
 21
525.51549072266
 31
0.0
  0
LINE
  5
   5B1
  8
0
  6
CONTINUOUS
 62
     3
 10
179.424095978752
 20
525.621556868568
 30
0.0
 11
179.53016232492
 21
525.515490522399
 31
0.0
  0
LINE
  5
   5B2
  8
0
  6
CONTINUOUS
 62
     3
 10
179.424096107482
 20
525.621556997299
 30
0.0
 11
179.424096107482
 21
526.009424448013
 31
0.0
  0
LINE
  5
   5B3
  8
0
  6
CONTINUOUS
 62
     3
 10
179.424095978748
 20
526.009424576748
 30
0.0
 11
179.530162324917
 21
526.115490922917
 31
0.0
  0
LINE
  5
   5B4
  8
0
  6
CONTINUOUS
 62
     3
 10
179.530162811279
 20
526.11549072266
 30
0.0
 11
180.330529689789
 21
526.11549072266
 31
0.0
  0
LINE
  5
   5B5
  8
0
  6
CONTINUOUS
 62
     3
 10
180.330530033099
 20
526.115490779864
 30
0.0
 11
180.480530247676
 21
525.965490565288
 31
0.0
  0
LINE
  5
   5B6
  8
0
  6
CONTINUOUS
 62
     3
 10
180.480530104621
 20
525.965490736977
 30
0.0
 11
180.586595735534
 21
526.07155636789
 31
0.0
  0
LINE
  5
   5B7
  8
0
  6
CONTINUOUS
 62
     3
 10
180.392662181869
 20
526.26549066545
 30
0.0
 11
180.586595907226
 21
526.071556940093
 31
0.0
  0
LINE
  5
   5B8
  8
0
  6
CONTINUOUS
 62
     3
 10
179.468029975891
 20
526.26549072266
 30
0.0
 11
180.392662525177
 21
526.26549072266
 31
0.0
  0
LINE
  5
   5B9
  8
0
  6
CONTINUOUS
 62
     3
 10
179.274095735534
 20
526.07155636789
 30
0.0
 11
179.468030176147
 21
526.265490808503
 31
0.0
  0
LINE
  5
   5BA
  8
0
  6
CONTINUOUS
 62
     3
 10
179.274096107482
 20
525.559424877167
 30
0.0
 11
179.274096107482
 21
526.071556568146
 31
0.0
  0
LINE
  5
   5BB
  8
0
  6
CONTINUOUS
 62
     3
 10
179.274095735538
 20
525.559425077426
 30
0.0
 11
179.46803017615
 21
525.365490636813
 31
0.0
  0
LINE
  5
   5BC
  8
0
  6
CONTINUOUS
 62
     3
 10
179.468029975891
 20
525.36549072266
 30
0.0
 11
180.330529689789
 21
525.36549072266
 31
0.0
  0
LINE
  5
   5BD
  8
0
  6
CONTINUOUS
 62
     3
 10
180.330530033099
 20
525.365490779864
 30
0.0
 11
180.436596379268
 21
525.259424433696
 31
0.0
  0
LINE
  5
   5BE
  8
0
  6
CONTINUOUS
 62
     3
 10
180.436596107482
 20
524.871556997299
 30
0.0
 11
180.436596107482
 21
525.259424448013
 31
0.0
  0
LINE
  5
   5BF
  8
0
  6
CONTINUOUS
 62
     3
 10
180.330530033096
 20
524.765490665452
 30
0.0
 11
180.436596379264
 21
524.87155701162
 31
0.0
  0
LINE
  5
   5C0
  8
0
  6
CONTINUOUS
 62
     3
 10
179.530162811279
 20
524.76549072266
 30
0.0
 11
180.330529689789
 21
524.76549072266
 31
0.0
  0
LINE
  5
   5C1
  8
0
  6
CONTINUOUS
 62
     3
 10
179.380162110343
 20
524.915490736976
 30
0.0
 11
179.53016232492
 21
524.765490522399
 31
0.0
  0
LINE
  5
   5C2
  8
0
  6
CONTINUOUS
 62
     3
 10
179.274095907223
 20
524.809424505222
 30
0.0
 11
179.380162253391
 21
524.915490851391
 31
0.0
  0
LINE
  5
   5C3
  8
0
  6
CONTINUOUS
 62
     3
 10
179.274095735538
 20
524.809425077426
 30
0.0
 11
179.46803017615
 21
524.615490636813
 31
0.0
  0
LINE
  5
   5C4
  8
0
  6
CONTINUOUS
 62
     3
 10
179.468029975891
 20
524.61549072266
 30
0.0
 11
180.392662525177
 21
524.61549072266
 31
0.0
  0
LINE
  5
   5C5
  8
0
  6
CONTINUOUS
 62
     3
 10
181.524096107482
 20
524.615490436554
 30
0.0
 11
181.524096107482
 21
526.115490436554
 31
0.0
  0
LINE
  5
   5C6
  8
0
  6
CONTINUOUS
 62
     3
 10
181.374094963074
 20
524.61549072266
 30
0.0
 11
181.524095535278
 21
524.61549072266
 31
0.0
  0
LINE
  5
   5C7
  8
0
  6
CONTINUOUS
 62
     3
 10
181.374096107482
 20
524.615490436554
 30
0.0
 11
181.374096107482
 21
526.115490436554
 31
0.0
  0
LINE
  5
   5C8
  8
0
  6
CONTINUOUS
 62
     3
 10
180.811594963074
 20
526.11549072266
 30
0.0
 11
181.374094963074
 21
526.11549072266
 31
0.0
  0
LINE
  5
   5C9
  8
0
  6
CONTINUOUS
 62
     3
 10
180.811596107482
 20
526.115490436554
 30
0.0
 11
180.811596107482
 21
526.265491008759
 31
0.0
  0
LINE
  5
   5CA
  8
0
  6
CONTINUOUS
 62
     3
 10
180.811594963074
 20
526.26549072266
 30
0.0
 11
182.086595535278
 21
526.26549072266
 31
0.0
  0
LINE
  5
   5CB
  8
0
  6
CONTINUOUS
 62
     3
 10
182.086596107482
 20
526.115490436554
 30
0.0
 11
182.086596107482
 21
526.265491008759
 31
0.0
  0
LINE
  5
   5CC
  8
0
  6
CONTINUOUS
 62
     3
 10
181.524095535278
 20
526.11549072266
 30
0.0
 11
182.086595535278
 21
526.11549072266
 31
0.0
  0
LINE
  5
   5CD
  8
0
  6
CONTINUOUS
 62
     3
 10
177.024096107482
 20
524.615490436554
 30
0.0
 11
177.024096107482
 21
526.115490436554
 31
0.0
  0
LINE
  5
   5CE
  8
0
  6
CONTINUOUS
 62
     3
 10
177.024095535278
 20
526.11549072266
 30
0.0
 11
177.586595535278
 21
526.11549072266
 31
0.0
  0
LINE
  5
   5CF
  8
0
  6
CONTINUOUS
 62
     3
 10
177.586596107482
 20
526.115490436554
 30
0.0
 11
177.586596107482
 21
526.265491008759
 31
0.0
  0
LINE
  5
   5D0
  8
0
  6
CONTINUOUS
 62
     3
 10
176.311596393585
 20
526.26549072266
 30
0.0
 11
177.586595535278
 21
526.26549072266
 31
0.0
  0
LINE
  5
   5D1
  8
0
  6
CONTINUOUS
 62
     3
 10
176.311596107482
 20
526.115490436554
 30
0.0
 11
176.311596107482
 21
526.265491008759
 31
0.0
  0
LINE
  5
   5D2
  8
0
  6
CONTINUOUS
 62
     3
 10
176.311596393585
 20
526.11549072266
 30
0.0
 11
176.874096393585
 21
526.11549072266
 31
0.0
  0
LINE
  5
   5D3
  8
0
  6
CONTINUOUS
 62
     3
 10
176.874096107482
 20
524.615490436554
 30
0.0
 11
176.874096107482
 21
526.115490436554
 31
0.0
  0
LINE
  5
   5D4
  8
0
  6
CONTINUOUS
 62
     3
 10
176.874096393585
 20
524.61549072266
 30
0.0
 11
177.024095535278
 21
524.61549072266
 31
0.0
  0
LINE
  5
   5D5
  8
0
  6
CONTINUOUS
 62
     3
 10
178.824096107482
 20
525.365490436554
 30
0.0
 11
178.824096107482
 21
525.515491008759
 31
0.0
  0
LINE
  5
   5D6
  8
0
  6
CONTINUOUS
 62
     3
 10
177.961595535278
 20
525.51549072266
 30
0.0
 11
178.824096679688
 21
525.51549072266
 31
0.0
  0
LINE
  5
   5D7
  8
0
  6
CONTINUOUS
 62
     3
 10
177.961596107482
 20
525.515491008759
 30
0.0
 11
177.961596107482
 21
526.115490436554
 31
0.0
  0
LINE
  5
   5D8
  8
0
  6
CONTINUOUS
 62
     3
 10
177.961595535278
 20
526.11549072266
 30
0.0
 11
179.086595535278
 21
526.11549072266
 31
0.0
  0
LINE
  5
   5D9
  8
0
  6
CONTINUOUS
 62
     3
 10
179.086596107482
 20
526.115490436554
 30
0.0
 11
179.086596107482
 21
526.265491008759
 31
0.0
  0
LINE
  5
   5DA
  8
0
  6
CONTINUOUS
 62
     3
 10
177.811596393585
 20
526.26549072266
 30
0.0
 11
179.086595535278
 21
526.26549072266
 31
0.0
  0
LINE
  5
   5DB
  8
0
  6
CONTINUOUS
 62
     3
 10
177.811596107482
 20
524.615490436554
 30
0.0
 11
177.811596107482
 21
526.265491008759
 31
0.0
  0
LINE
  5
   5DC
  8
0
  6
CONTINUOUS
 62
     3
 10
177.811596393585
 20
524.61549072266
 30
0.0
 11
179.086595535278
 21
524.61549072266
 31
0.0
  0
LINE
  5
   5DD
  8
0
  6
CONTINUOUS
 62
     3
 10
179.086596107482
 20
524.615490436554
 30
0.0
 11
179.086596107482
 21
524.765491008759
 31
0.0
  0
LINE
  5
   5DE
  8
0
  6
CONTINUOUS
 62
     3
 10
177.961595535278
 20
524.76549072266
 30
0.0
 11
179.086595535278
 21
524.76549072266
 31
0.0
  0
LINE
  5
   5DF
  8
0
  6
CONTINUOUS
 62
     3
 10
177.961596107482
 20
524.765491008759
 30
0.0
 11
177.961596107482
 21
525.365490436554
 31
0.0
  0
LINE
  5
   5E0
  8
0
  6
CONTINUOUS
 62
     3
 10
177.961595535278
 20
525.36549072266
 30
0.0
 11
178.824096679688
 21
525.36549072266
 31
0.0
  0
POLYLINE
  5
   5E1
  8
0
  6
CONTINUOUS
 62
     1
 66
     1
 10
0.0
 20
0.0
 30
0.0
  0
VERTEX
  5
   5E2
  8
0
  6
CONTINUOUS
 10
175.524096679689
 20
525.440490722653
 30
0.0
 40
0.0
 41
0.0
  0
VERTEX
  5
   5E3
  8
0
  6
CONTINUOUS
 10
175.659641372806
 20
524.960329752092
 30
0.0
 40
0.0
 41
0.0
  0
VERTEX
  5
   5E4
  8
0
  6
CONTINUOUS
 10
176.190680821891
 20
524.411203759424
 30
0.0
 40
0.0
 41
0.0
  0
VERTEX
  5
   5E5
  8
0
  6
CONTINUOUS
 10
177.325734932343
 20
523.894431060245
 30
0.0
 40
0.0
 41
0.0
  0
VERTEX
  5
   5E6
  8
0
  6
CONTINUOUS
 10
178.554502254361
 20
523.668686393751
 30
0.0
 40
0.0
 41
0.0
  0
VERTEX
  5
   5E7
  8
0
  6
CONTINUOUS
 10
180.063835719435
 20
523.691371933161
 30
0.0
 40
0.0
 41
0.0
  0
VERTEX
  5
   5E8
  8
0
  6
CONTINUOUS
 10
181.521145670102
 20
524.049753521362
 30
0.0
 40
0.0
 41
0.0
  0
VERTEX
  5
   5E9
  8
0
  6
CONTINUOUS
 10
182.406816414378
 20
524.567118225712
 30
0.0
 40
0.0
 41
0.0
  0
VERTEX
  5
   5EA
  8
0
  6
CONTINUOUS
 10
182.732430391475
 20
524.949822517693
 30
0.0
 40
0.0
 41
0.0
  0
VERTEX
  5
   5EB
  8
0
  6
CONTINUOUS
 10
182.874095535275
 20
525.440490722653
 30
0.0
 40
0.0
 41
0.0
  0
SEQEND
  5
   5EC
  8
0
  6
CONTINUOUS
 62
     1
  0
POLYLINE
  5
   5ED
  8
0
  6
CONTINUOUS
 62
     1
 66
     1
 10
0.0
 20
0.0
 30
0.0
  0
VERTEX
  5
   5EE
  8
0
  6
CONTINUOUS
 10
182.874095535275
 20
525.44049072266
 30
0.0
 40
0.0
 41
0.0
  0
VERTEX
  5
   5EF
  8
0
  6
CONTINUOUS
 10
182.738550842158
 20
525.92065169322
 30
0.0
 40
0.0
 41
0.0
  0
VERTEX
  5
   5F0
  8
0
  6
CONTINUOUS
 10
182.207511393073
 20
526.469777685888
 30
0.0
 40
0.0
 41
0.0
  0
VERTEX
  5
   5F1
  8
0
  6
CONTINUOUS
 10
181.07245728262
 20
526.986550385068
 30
0.0
 40
0.0
 41
0.0
  0
VERTEX
  5
   5F2
  8
0
  6
CONTINUOUS
 10
179.843689960603
 20
527.212295051562
 30
0.0
 40
0.0
 41
0.0
  0
VERTEX
  5
   5F3
  8
0
  6
CONTINUOUS
 10
178.334356495528
 20
527.189609512151
 30
0.0
 40
0.0
 41
0.0
  0
VERTEX
  5
   5F4
  8
0
  6
CONTINUOUS
 10
176.877046544863
 20
526.831227923951
 30
0.0
 40
0.0
 41
0.0
  0
VERTEX
  5
   5F5
  8
0
  6
CONTINUOUS
 10
175.991375800585
 20
526.313863219601
 30
0.0
 40
0.0
 41
0.0
  0
VERTEX
  5
   5F6
  8
0
  6
CONTINUOUS
 10
175.665761823488
 20
525.931158927619
 30
0.0
 40
0.0
 41
0.0
  0
VERTEX
  5
   5F7
  8
0
  6
CONTINUOUS
 10
175.524096679689
 20
525.44049072266
 30
0.0
 40
0.0
 41
0.0
  0
SEQEND
  5
   5F8
  8
0
  6
CONTINUOUS
 62
     1
  0
ARC
  5
   5F9
  8
0
  6
CONTINUOUS
 62
     1
 10
164.199091984316
 20
524.915495417775
 30
0.0
 40
0.37501001547043
 50
270.000717391244
 51
359.999304504013
  0
ARC
  5
   5FA
  8
0
  6
CONTINUOUS
 62
     1
 10
149.199111813613
 20
524.915505856831
 30
0.0
 40
0.375020408823404
 50
180.002290382404
 51
269.997687798967
  0
ARC
  5
   5FB
  8
0
  6
CONTINUOUS
 62
     1
 10
149.199101374806
 20
551.090486027284
 30
0.0
 40
0.375010015470427
 50
90.0007173512587
 51
179.999195183485
  0
ARC
  5
   5FC
  8
0
  6
CONTINUOUS
 62
     1
 10
164.199081545513
 20
551.090475588731
 30
0.0
 40
0.375020408823252
 50
2.39962314763181E-3
 51
89.9976877653575
  0
LINE
  5
   5FD
  8
0
  6
CONTINUOUS
 62
     2
 10
132.324096679688
 20
553.490490436554
 30
0.0
 11
132.324096679688
 21
553.565490722656
 31
0.0
  0
LINE
  5
   5FE
  8
0
  6
CONTINUOUS
 62
     2
 10
136.074096679688
 20
553.490490436554
 30
0.0
 11
136.074096679688
 21
553.565490722656
 31
0.0
  0
LINE
  5
   5FF
  8
0
  6
CONTINUOUS
 62
     2
 10
181.074096679688
 20
553.490490436554
 30
0.0
 11
181.074096679688
 21
553.565490722656
 31
0.0
  0
LINE
  5
   600
  8
0
  6
CONTINUOUS
 62
     2
 10
177.324096679687
 20
553.490490436554
 30
0.0
 11
177.324096679687
 21
553.565490722656
 31
0.0
  0
LINE
  5
   601
  8
0
  6
CONTINUOUS
 62
     2
 10
181.074096679688
 20
522.065490722656
 30
0.0
 11
181.074096679688
 21
522.140491008759
 31
0.0
  0
LINE
  5
   602
  8
0
  6
CONTINUOUS
 62
     2
 10
177.324096679687
 20
522.065490722656
 30
0.0
 11
177.324096679687
 21
522.140491008759
 31
0.0
  0
LINE
  5
   603
  8
0
  6
CONTINUOUS
 62
     2
 10
132.324096679688
 20
522.065490722656
 30
0.0
 11
132.324096679688
 21
522.140491008759
 31
0.0
  0
LINE
  5
   604
  8
0
  6
CONTINUOUS
 62
     2
 10
136.074096679688
 20
522.065490722656
 30
0.0
 11
136.074096679688
 21
522.140491008759
 31
0.0
  0
POLYLINE
  5
   605
  8
0
  6
CONTINUOUS
 62
     1
 66
     1
 10
0.0
 20
0.0
 30
0.0
  0
VERTEX
  5
   606
  8
0
  6
CONTINUOUS
 10
185.123522758483
 20
522.140490722659
 30
0.0
 40
0.0
 41
0.0
  0
VERTEX
  5
   607
  8
0
  6
CONTINUOUS
 10
185.274096679687
 20
522.290490865709
 30
0.0
 40
0.0
 41
0.0
  0
SEQEND
  5
   608
  8
0
  6
CONTINUOUS
 62
     1
  0
POLYLINE
  5
   609
  8
0
  6
CONTINUOUS
 62
     1
 66
     1
 10
0.0
 20
0.0
 30
0.0
  0
VERTEX
  5
   60A
  8
0
  6
CONTINUOUS
 10
185.274096679686
 20
553.340491294865
 30
0.0
 40
0.0
 41
0.0
  0
VERTEX
  5
   60B
  8
0
  6
CONTINUOUS
 10
185.123522758482
 20
553.490490722653
 30
0.0
 40
0.0
 41
0.0
  0
SEQEND
  5
   60C
  8
0
  6
CONTINUOUS
 62
     1
  0
POLYLINE
  5
   60D
  8
0
  6
CONTINUOUS
 62
     1
 66
     1
 10
0.0
 20
0.0
 30
0.0
  0
VERTEX
  5
   60E
  8
0
  6
CONTINUOUS
 10
128.274670600893
 20
553.490490722653
 30
0.0
 40
0.0
 41
0.0
  0
VERTEX
  5
   60F
  8
0
  6
CONTINUOUS
 10
128.124096679689
 20
553.340491294865
 30
0.0
 40
0.0
 41
0.0
  0
SEQEND
  5
   610
  8
0
  6
CONTINUOUS
 62
     1
  0
POLYLINE
  5
   611
  8
0
  6
CONTINUOUS
 62
     1
 66
     1
 10
0.0
 20
0.0
 30
0.0
  0
VERTEX
  5
   612
  8
0
  6
CONTINUOUS
 10
128.124096679688
 20
522.290490865707
 30
0.0
 40
0.0
 41
0.0
  0
VERTEX
  5
   613
  8
0
  6
CONTINUOUS
 10
128.274670600894
 20
522.140490722659
 30
0.0
 40
0.0
 41
0.0
  0
SEQEND
  5
   614
  8
0
  6
CONTINUOUS
 62
     1
  0
LINE
  5
   615
  8
0
  6
CONTINUOUS
 62
     1
 10
149.199096679688
 20
524.540490722656
 30
0.0
 11
164.199096679688
 21
524.540490722656
 31
0.0
  0
LINE
  5
   616
  8
0
  6
CONTINUOUS
 62
     1
 10
164.574096679688
 20
524.915490865707
 30
0.0
 11
164.574096679688
 21
536.978179454804
 31
0.0
  0
LINE
  5
   617
  8
0
  6
CONTINUOUS
 62
     1
 10
164.574096679688
 20
541.413694143295
 30
0.0
 11
164.574096679688
 21
551.090491294861
 31
0.0
  0
LINE
  5
   618
  8
0
  6
CONTINUOUS
 62
     1
 10
148.824096679688
 20
524.915490865707
 30
0.0
 11
148.824096679688
 21
551.090491294861
 31
0.0
  0
LINE
  5
   619
  8
0
  6
CONTINUOUS
 62
     2
 10
185.274096679688
 20
548.315490722656
 30
0.0
 11
185.274096679688
 21
553.340491294861
 31
0.0
  0
LINE
  5
   61A
  8
0
  6
CONTINUOUS
 62
     2
 10
185.274096679688
 20
522.290490865707
 30
0.0
 11
185.274096679688
 21
528.065490722656
 31
0.0
  0
LINE
  5
   61B
  8
0
  6
CONTINUOUS
 62
     2
 10
128.124096679687
 20
522.290490865707
 30
0.0
 11
128.124096679687
 21
553.340491294861
 31
0.0
  0
LINE
  5
   61C
  8
0
  6
CONTINUOUS
 62
     1
 10
182.889495849609
 20
522.140490722656
 30
0.0
 11
184.976277351379
 21
522.140490722656
 31
0.0
  0
LINE
  5
   61D
  8
0
  6
CONTINUOUS
 62
     1
 10
128.421916007996
 20
522.140490722656
 30
0.0
 11
130.513924598694
 21
522.140490722656
 31
0.0
  0
LINE
  5
   61E
  8
0
  6
CONTINUOUS
 62
     1
 10
184.976277351379
 20
522.140490722656
 30
0.0
 11
185.123522758484
 21
522.140490722656
 31
0.0
  0
LINE
  5
   61F
  8
0
  6
CONTINUOUS
 62
     1
 10
130.513924598694
 20
522.140490722656
 30
0.0
 11
182.889495849609
 21
522.140490722656
 31
0.0
  0
LINE
  5
   620
  8
0
  6
CONTINUOUS
 62
     1
 10
128.274670600891
 20
522.140490722656
 30
0.0
 11
128.421916007996
 21
522.140490722656
 31
0.0
  0
LINE
  5
   621
  8
0
  6
CONTINUOUS
 62
     2
 10
177.324096679687
 20
527.064288258553
 30
0.0
 11
177.996149539948
 21
527.19609773159
 31
0.0
  0
POLYLINE
  5
   622
  8
0
  6
CONTINUOUS
 62
     1
 66
     1
 10
0.0
 20
0.0
 30
0.0
  0
VERTEX
  5
   623
  8
0
  6
CONTINUOUS
 10
182.705055237864
 20
524.77514366747
 30
0.0
 40
0.0
 41
0.0
  0
VERTEX
  5
   624
  8
0
  6
CONTINUOUS
 10
182.935794049428
 20
525.282553606762
 30
0.0
 40
0.0
 41
0.0
  0
VERTEX
  5
   625
  8
0
  6
CONTINUOUS
 10
182.949095535275
 20
525.440490722653
 30
0.0
 40
0.0
 41
0.0
  0
SEQEND
  5
   626
  8
0
  6
CONTINUOUS
 62
     1
  0
POLYLINE
  5
   627
  8
0
  6
CONTINUOUS
 62
     1
 66
     1
 10
0.0
 20
0.0
 30
0.0
  0
VERTEX
  5
   628
  8
0
  6
CONTINUOUS
 10
182.949095535275
 20
525.440490722659
 30
0.0
 40
0.0
 41
0.0
  0
VERTEX
  5
   629
  8
0
  6
CONTINUOUS
 10
182.80401294435
 20
525.957023810496
 30
0.0
 40
0.0
 41
0.0
  0
VERTEX
  5
   62A
  8
0
  6
CONTINUOUS
 10
182.705055237864
 20
526.105837777843
 30
0.0
 40
0.0
 41
0.0
  0
SEQEND
  5
   62B
  8
0
  6
CONTINUOUS
 62
     1
  0
POLYLINE
  5
   62C
  8
0
  6
CONTINUOUS
 62
     1
 66
     1
 10
0.0
 20
0.0
 30
0.0
  0
VERTEX
  5
   62D
  8
0
  6
CONTINUOUS
 10
177.324110183975
 20
527.064241474751
 30
0.0
 40
0.0
 41
0.0
  0
VERTEX
  5
   62E
  8
0
  6
CONTINUOUS
 10
176.326235226897
 20
526.645657463753
 30
0.0
 40
0.0
 41
0.0
  0
VERTEX
  5
   62F
  8
0
  6
CONTINUOUS
 10
175.675403456211
 20
526.08173829443
 30
0.0
 40
0.0
 41
0.0
  0
VERTEX
  5
   630
  8
0
  6
CONTINUOUS
 10
175.449096679689
 20
525.440490722659
 30
0.0
 40
0.0
 41
0.0
  0
SEQEND
  5
   631
  8
0
  6
CONTINUOUS
 62
     1
  0
POLYLINE
  5
   632
  8
0
  6
CONTINUOUS
 62
     1
 66
     1
 10
0.0
 20
0.0
 30
0.0
  0
VERTEX
  5
   633
  8
0
  6
CONTINUOUS
 10
182.701722703344
 20
526.110011257282
 30
0.0
 40
0.0
 41
0.0
  0
VERTEX
  5
   634
  8
0
  6
CONTINUOUS
 10
182.254489841686
 20
526.527657703856
 30
0.0
 40
0.0
 41
0.0
  0
VERTEX
  5
   635
  8
0
  6
CONTINUOUS
 10
181.611721809738
 20
526.875898011464
 30
0.0
 40
0.0
 41
0.0
  0
VERTEX
  5
   636
  8
0
  6
CONTINUOUS
 10
179.91510784672
 20
527.280978791671
 30
0.0
 40
0.0
 41
0.0
  0
VERTEX
  5
   637
  8
0
  6
CONTINUOUS
 10
178.039140485821
 20
527.223499779904
 30
0.0
 40
0.0
 41
0.0
  0
SEQEND
  5
   638
  8
0
  6
CONTINUOUS
 62
     1
  0
POLYLINE
  5
   639
  8
0
  6
CONTINUOUS
 62
     1
 66
     1
 10
0.0
 20
0.0
 30
0.0
  0
VERTEX
  5
   63A
  8
0
  6
CONTINUOUS
 10
175.705101098894
 20
524.759772676996
 30
0.0
 40
0.0
 41
0.0
  0
VERTEX
  5
   63B
  8
0
  6
CONTINUOUS
 10
176.512996088188
 20
524.132091319336
 30
0.0
 40
0.0
 41
0.0
  0
VERTEX
  5
   63C
  8
0
  6
CONTINUOUS
 10
177.74710505761
 20
523.71179428185
 30
0.0
 40
0.0
 41
0.0
  0
VERTEX
  5
   63D
  8
0
  6
CONTINUOUS
 10
179.210748424196
 20
523.565499953647
 30
0.0
 40
0.0
 41
0.0
  0
VERTEX
  5
   63E
  8
0
  6
CONTINUOUS
 10
180.672553199004
 20
523.716341593912
 30
0.0
 40
0.0
 41
0.0
  0
VERTEX
  5
   63F
  8
0
  6
CONTINUOUS
 10
181.90141756531
 20
524.140466320757
 30
0.0
 40
0.0
 41
0.0
  0
VERTEX
  5
   640
  8
0
  6
CONTINUOUS
 10
182.701475456796
 20
524.770646443734
 30
0.0
 40
0.0
 41
0.0
  0
SEQEND
  5
   641
  8
0
  6
CONTINUOUS
 62
     1
  0
POLYLINE
  5
   642
  8
0
  6
CONTINUOUS
 62
     1
 66
     1
 10
0.0
 20
0.0
 30
0.0
  0
VERTEX
  5
   643
  8
0
  6
CONTINUOUS
 10
175.449096679689
 20
525.440490722653
 30
0.0
 40
0.0
 41
0.0
  0
VERTEX
  5
   644
  8
0
  6
CONTINUOUS
 10
175.592284942497
 20
524.927878898707
 30
0.0
 40
0.0
 41
0.0
  0
SEQEND
  5
   645
  8
0
  6
CONTINUOUS
 62
     1
  0
POLYLINE
  5
   646
  8
0
  6
CONTINUOUS
 62
     1
 66
     1
 10
0.0
 20
0.0
 30
0.0
  0
VERTEX
  5
   647
  8
0
  6
CONTINUOUS
 10
177.992791985061
 20
527.215835902294
 30
0.0
 40
0.0
 41
0.0
  0
VERTEX
  5
   648
  8
0
  6
CONTINUOUS
 10
179.789078586606
 20
527.29215717463
 30
0.0
 40
0.0
 41
0.0
  0
VERTEX
  5
   649
  8
0
  6
CONTINUOUS
 10
180.384694170639
 20
527.219324341361
 30
0.0
 40
0.0
 41
0.0
  0
SEQEND
  5
   64A
  8
0
  6
CONTINUOUS
 62
     1
  0
LINE
  5
   64B
  8
0
  6
CONTINUOUS
 62
     1
 10
128.421916007996
 20
553.490490722656
 30
0.0
 11
130.508697509766
 21
553.490490722656
 31
0.0
  0
LINE
  5
   64C
  8
0
  6
CONTINUOUS
 62
     1
 10
182.884268760681
 20
553.490490722656
 30
0.0
 11
184.976277351379
 21
553.490490722656
 31
0.0
  0
LINE
  5
   64D
  8
0
  6
CONTINUOUS
 62
     1
 10
128.274670600891
 20
553.490490722656
 30
0.0
 11
128.421916007996
 21
553.490490722656
 31
0.0
  0
LINE
  5
   64E
  8
0
  6
CONTINUOUS
 62
     1
 10
130.508697509766
 20
553.490490722656
 30
0.0
 11
158.963416814804
 21
553.490490722656
 31
0.0
  0
LINE
  5
   64F
  8
0
  6
CONTINUOUS
 62
     1
 10
170.052183151245
 20
553.490490722656
 30
0.0
 11
182.884268760681
 21
553.490490722656
 31
0.0
  0
LINE
  5
   650
  8
0
  6
CONTINUOUS
 62
     1
 10
184.976277351379
 20
553.490490722656
 30
0.0
 11
185.123522758484
 21
553.490490722656
 31
0.0
  0
LINE
  5
   651
  8
0
  6
CONTINUOUS
 62
   212
 10
149.199096679688
 20
552.283404827118
 30
0.0
 11
149.263211488724
 21
552.534094810486
 31
0.0
  0
POLYLINE
  5
   652
  8
0
  6
CONTINUOUS
 62
   212
 66
     1
 10
0.0
 20
0.0
 30
0.0
  0
VERTEX
  5
   653
  8
0
  6
CONTINUOUS
 10
149.949096679688
 20
546.13216636567
 30
0.0
 40
0.0
 41
0.0
  0
VERTEX
  5
   654
  8
0
  6
CONTINUOUS
 10
149.418670557459
 20
546.343092176383
 30
0.0
 40
0.0
 41
0.0
  0
VERTEX
  5
   655
  8
0
  6
CONTINUOUS
 10
149.199096679688
 20
546.851966295687
 30
0.0
 40
0.0
 41
0.0
  0
SEQEND
  5
   656
  8
0
  6
CONTINUOUS
 62
   212
  0
LINE
  5
   657
  8
0
  6
CONTINUOUS
 62
   212
 10
164.134981870651
 20
552.534094810486
 30
0.0
 11
164.199096679688
 21
552.283404827118
 31
0.0
  0
POLYLINE
  5
   658
  8
0
  6
CONTINUOUS
 62
   212
 66
     1
 10
0.0
 20
0.0
 30
0.0
  0
VERTEX
  5
   659
  8
0
  6
CONTINUOUS
 10
163.449096679688
 20
546.13216636567
 30
0.0
 40
0.0
 41
0.0
  0
VERTEX
  5
   65A
  8
0
  6
CONTINUOUS
 10
163.979522800274
 20
546.343092182536
 30
0.0
 40
0.0
 41
0.0
  0
VERTEX
  5
   65B
  8
0
  6
CONTINUOUS
 10
164.199096679688
 20
546.85196630017
 30
0.0
 40
0.0
 41
0.0
  0
SEQEND
  5
   65C
  8
0
  6
CONTINUOUS
 62
   212
  0
ARC
  5
   65D
  8
0
  6
CONTINUOUS
 62
   212
 10
149.944121185292
 20
552.278346537386
 30
0.0
 40
0.745451159640411
 50
89.6177778246144
 51
148.670753481325
  0
ARC
  5
   65E
  8
0
  6
CONTINUOUS
 62
   212
 10
163.454051534458
 20
552.278325675984
 30
0.0
 40
0.745471821119796
 50
31.3298293180093
 51
90.3806260205019
  0
LINE
  5
   65F
  8
0
  6
CONTINUOUS
 62
   212
 10
149.949096679688
 20
553.024171312591
 30
0.0
 11
163.449096679688
 21
553.024171312591
 31
0.0
  0
LINE
  5
   660
  8
0
  6
CONTINUOUS
 62
   212
 10
149.949096679688
 20
546.13216636567
 30
0.0
 11
163.449096679688
 21
546.13216636567
 31
0.0
  0
LINE
  5
   661
  8
0
  6
CONTINUOUS
 62
   212
 10
149.199096679688
 20
543.90193939209
 30
0.0
 11
149.199096679688
 21
544.933103561401
 31
0.0
  0
LINE
  5
   662
  8
0
  6
CONTINUOUS
 62
   212
 10
149.199096679688
 20
544.933103561401
 30
0.0
 11
149.199096679688
 21
546.851965904236
 31
0.0
  0
LINE
  5
   663
  8
0
  6
CONTINUOUS
 62
   212
 10
149.199096679688
 20
546.851965904236
 30
0.0
 11
149.199096679688
 21
549.068647861481
 31
0.0
  0
LINE
  5
   664
  8
0
  6
CONTINUOUS
 62
   212
 10
149.199096679688
 20
549.068647861481
 30
0.0
 11
149.199096679688
 21
552.283404827118
 31
0.0
  0
LINE
  5
   665
  8
0
  6
CONTINUOUS
 62
   212
 10
164.199096679688
 20
543.902146816254
 30
0.0
 11
164.199096679688
 21
544.933103561401
 31
0.0
  0
LINE
  5
   666
  8
0
  6
CONTINUOUS
 62
   212
 10
164.199096679688
 20
546.851965904236
 30
0.0
 11
164.199096679688
 21
549.068647861481
 31
0.0
  0
LINE
  5
   667
  8
0
  6
CONTINUOUS
 62
   212
 10
164.199096679688
 20
544.933103561401
 30
0.0
 11
164.199096679688
 21
546.851965904236
 31
0.0
  0
LINE
  5
   668
  8
0
  6
CONTINUOUS
 62
   212
 10
164.199096679688
 20
549.068647861481
 30
0.0
 11
164.199096679688
 21
552.283404827118
 31
0.0
  0
INSERT
  5
   669
  8
0
  6
CONTINUOUS
 62
     7
  2
*HATCH1154
 10
0.0
 20
0.0
 30
0.0
  0
INSERT
  5
   66A
  8
0
  6
CONTINUOUS
 62
     7
  2
*HATCH1155
 10
0.0
 20
0.0
 30
0.0
  0
INSERT
  5
   66B
  8
0
  6
CONTINUOUS
 62
     7
  2
*HATCH1156
 10
0.0
 20
0.0
 30
0.0
  0
INSERT
  5
   66C
  8
0
  6
CONTINUOUS
 62
     7
  2
*HATCH1157
 10
0.0
 20
0.0
 30
0.0
  0
INSERT
  5
   66D
  8
0
  6
CONTINUOUS
 62
     7
  2
*HATCH1158
 10
0.0
 20
0.0
 30
0.0
  0
INSERT
  5
   66E
  8
0
  6
CONTINUOUS
 62
     7
  2
*UDIM1337
 10
0.0
 20
0.0
 30
0.0
  0
LINE
  5
   66F
  8
0
  6
CONTINUOUS
 62
     7
 10
100.974096679732
 20
505.565490722656
 30
0.0
 11
100.974096679732
 21
506.090491294861
 31
0.0
  0
LINE
  5
   670
  8
0
  6
CONTINUOUS
 62
     7
 10
102.661597251892
 20
520.940490722656
 30
0.0
 11
103.636596679688
 21
520.940490722656
 31
0.0
  0
LINE
  5
   671
  8
0
  6
CONTINUOUS
 62
     7
 10
102.661597251892
 20
554.690490722656
 30
0.0
 11
103.636596679688
 21
554.690490722656
 31
0.0
  0
LINE
  5
   672
  8
0
  6
CONTINUOUS
 62
     7
 10
104.011596679688
 20
520.940490722656
 30
0.0
 11
104.986596107483
 21
520.940490722656
 31
0.0
  0
LINE
  5
   673
  8
0
  6
CONTINUOUS
 62
     7
 10
105.361596107483
 20
520.940490722656
 30
0.0
 11
105.624097824097
 21
520.940490722656
 31
0.0
  0
LINE
  5
   674
  8
0
  6
CONTINUOUS
 62
     7
 10
100.449096679732
 20
554.690490722656
 30
0.0
 11
100.449096679732
 21
577.790490150452
 31
0.0
  0
LINE
  5
   675
  8
0
  6
CONTINUOUS
 62
     7
 10
100.449096679732
 20
506.090491294861
 30
0.0
 11
100.449096679732
 21
520.940490722656
 31
0.0
  0
LINE
  5
   676
  8
0
  6
CONTINUOUS
 62
     7
 10
100.449096679732
 20
520.940490722656
 30
0.0
 11
100.449096679732
 21
554.690490722656
 31
0.0
  0
LINE
  5
   677
  8
0
  6
CONTINUOUS
 62
     7
 10
105.361596107483
 20
554.690490722656
 30
0.0
 11
105.624097824097
 21
554.690490722656
 31
0.0
  0
LINE
  5
   678
  8
0
  6
CONTINUOUS
 62
     7
 10
104.011596679688
 20
554.690490722656
 30
0.0
 11
104.986596107483
 21
554.690490722656
 31
0.0
  0
LINE
  5
   679
  8
0
  6
CONTINUOUS
 62
     7
 10
104.986596107483
 20
520.940490722656
 30
0.0
 11
105.361596107483
 21
520.940490722656
 31
0.0
  0
LINE
  5
   67A
  8
0
  6
CONTINUOUS
 62
     7
 10
103.636596679688
 20
520.940490722656
 30
0.0
 11
104.011596679688
 21
520.940490722656
 31
0.0
  0
LINE
  5
   67B
  8
0
  6
CONTINUOUS
 62
     7
 10
102.286597251892
 20
520.940490722656
 30
0.0
 11
102.661597251892
 21
520.940490722656
 31
0.0
  0
LINE
  5
   67C
  8
0
  6
CONTINUOUS
 62
     7
 10
100.449096679688
 20
520.940490722656
 30
0.0
 11
102.286597251892
 21
520.940490722656
 31
0.0
  0
LINE
  5
   67D
  8
0
  6
CONTINUOUS
 62
     7
 10
104.986596107483
 20
554.690490722656
 30
0.0
 11
105.361596107483
 21
554.690490722656
 31
0.0
  0
LINE
  5
   67E
  8
0
  6
CONTINUOUS
 62
     7
 10
103.636596679688
 20
554.690490722656
 30
0.0
 11
104.011596679688
 21
554.690490722656
 31
0.0
  0
LINE
  5
   67F
  8
0
  6
CONTINUOUS
 62
     7
 10
102.286597251892
 20
554.690490722656
 30
0.0
 11
102.661597251892
 21
554.690490722656
 31
0.0
  0
LINE
  5
   680
  8
0
  6
CONTINUOUS
 62
     7
 10
100.449096679688
 20
554.690490722656
 30
0.0
 11
102.286597251892
 21
554.690490722656
 31
0.0
  0
LINE
  5
   681
  8
0
  6
CONTINUOUS
 62
     7
 10
105.624097824097
 20
520.940490722656
 30
0.0
 11
119.199096679732
 21
520.940490722656
 31
0.0
  0
LINE
  5
   682
  8
0
  6
CONTINUOUS
 62
     7
 10
105.624097824097
 20
554.690490722656
 30
0.0
 11
119.199096679732
 21
554.690490722656
 31
0.0
  0
LINE
  5
   683
  8
0
  6
CONTINUOUS
 62
     7
 10
104.986596107483
 20
506.090490722656
 30
0.0
 11
119.199096679732
 21
506.090490722656
 31
0.0
  0
LINE
  5
   684
  8
0
  6
CONTINUOUS
 62
     7
 10
103.636596679688
 20
506.090490722656
 30
0.0
 11
104.011596679688
 21
506.090490722656
 31
0.0
  0
LINE
  5
   685
  8
0
  6
CONTINUOUS
 62
     7
 10
102.661597251892
 20
506.090490722656
 30
0.0
 11
103.636596679688
 21
506.090490722656
 31
0.0
  0
LINE
  5
   686
  8
0
  6
CONTINUOUS
 62
     7
 10
104.011596679688
 20
506.090490722656
 30
0.0
 11
104.986596107483
 21
506.090490722656
 31
0.0
  0
LINE
  5
   687
  8
0
  6
CONTINUOUS
 62
     7
 10
102.286597251892
 20
506.090490722656
 30
0.0
 11
102.661597251892
 21
506.090490722656
 31
0.0
  0
LINE
  5
   688
  8
0
  6
CONTINUOUS
 62
     7
 10
100.449096679688
 20
506.090490722656
 30
0.0
 11
102.286597251892
 21
506.090490722656
 31
0.0
  0
LINE
  5
   689
  8
0
  6
CONTINUOUS
 62
     7
 10
104.986596107483
 20
577.790490722656
 30
0.0
 11
105.361596107483
 21
577.790490722656
 31
0.0
  0
LINE
  5
   68A
  8
0
  6
CONTINUOUS
 62
     7
 10
103.636596679688
 20
577.790490722656
 30
0.0
 11
104.011596679688
 21
577.790490722656
 31
0.0
  0
LINE
  5
   68B
  8
0
  6
CONTINUOUS
 62
     7
 10
104.011596679688
 20
577.790490722656
 30
0.0
 11
104.986596107483
 21
577.790490722656
 31
0.0
  0
LINE
  5
   68C
  8
0
  6
CONTINUOUS
 62
     7
 10
102.661597251892
 20
577.790490722656
 30
0.0
 11
119.199096679732
 21
577.790490722656
 31
0.0
  0
LINE
  5
   68D
  8
0
  6
CONTINUOUS
 62
     7
 10
102.286597251892
 20
577.790490722656
 30
0.0
 11
102.661597251892
 21
577.790490722656
 31
0.0
  0
LINE
  5
   68E
  8
0
  6
CONTINUOUS
 62
     7
 10
100.449096679688
 20
577.790490722656
 30
0.0
 11
102.286597251892
 21
577.790490722656
 31
0.0
  0
LINE
  5
   68F
  8
0
  6
CONTINUOUS
 62
     7
 10
100.974096679732
 20
577.790490150452
 30
0.0
 11
100.974096679732
 21
578.315487861633
 31
0.0
  0
LINE
  5
   690
  8
0
  6
CONTINUOUS
 62
     3
 10
102.661597251892
 20
505.565490722656
 30
0.0
 11
103.636596679688
 21
505.565490722656
 31
0.0
  0
LINE
  5
   691
  8
0
  6
CONTINUOUS
 62
     3
 10
114.811596393585
 20
505.565490722656
 30
0.0
 11
115.786597251892
 21
505.565490722656
 31
0.0
  0
LINE
  5
   692
  8
0
  6
CONTINUOUS
 62
     3
 10
116.161597251892
 20
505.565490722656
 30
0.0
 11
117.136596679687
 21
505.565490722656
 31
0.0
  0
LINE
  5
   693
  8
0
  6
CONTINUOUS
 62
     3
 10
117.511596679688
 20
505.565490722656
 30
0.0
 11
118.486596107483
 21
505.565490722656
 31
0.0
  0
LINE
  5
   694
  8
0
  6
CONTINUOUS
 62
     3
 10
113.46159696579
 20
505.565490722656
 30
0.0
 11
114.436596393585
 21
505.565490722656
 31
0.0
  0
LINE
  5
   695
  8
0
  6
CONTINUOUS
 62
     3
 10
104.011596679688
 20
505.565490722656
 30
0.0
 11
104.986596107483
 21
505.565490722656
 31
0.0
  0
LINE
  5
   696
  8
0
  6
CONTINUOUS
 62
     3
 10
105.361596107483
 20
505.565490722656
 30
0.0
 11
106.336595535278
 21
505.565490722656
 31
0.0
  0
LINE
  5
   697
  8
0
  6
CONTINUOUS
 62
     3
 10
106.711595535278
 20
505.565490722656
 30
0.0
 11
107.686597824097
 21
505.565490722656
 31
0.0
  0
LINE
  5
   698
  8
0
  6
CONTINUOUS
 62
     3
 10
108.061597824097
 20
505.565490722656
 30
0.0
 11
109.036597251892
 21
505.565490722656
 31
0.0
  0
LINE
  5
   699
  8
0
  6
CONTINUOUS
 62
     3
 10
109.411597251892
 20
505.565490722656
 30
0.0
 11
110.386596679688
 21
505.565490722656
 31
0.0
  0
LINE
  5
   69A
  8
0
  6
CONTINUOUS
 62
     3
 10
110.761596679688
 20
505.565490722656
 30
0.0
 11
111.736596107483
 21
505.565490722656
 31
0.0
  0
LINE
  5
   69B
  8
0
  6
CONTINUOUS
 62
     3
 10
112.111596107483
 20
505.565490722656
 30
0.0
 11
113.08659696579
 21
505.565490722656
 31
0.0
  0
LINE
  5
   69C
  8
0
  6
CONTINUOUS
 62
     3
 10
102.286597251892
 20
505.565490722656
 30
0.0
 11
102.661597251892
 21
505.565490722656
 31
0.0
  0
LINE
  5
   69D
  8
0
  6
CONTINUOUS
 62
     3
 10
100.449096679688
 20
505.565490722656
 30
0.0
 11
102.286597251892
 21
505.565490722656
 31
0.0
  0
LINE
  5
   69E
  8
0
  6
CONTINUOUS
 62
     3
 10
103.636596679688
 20
505.565490722656
 30
0.0
 11
104.011596679688
 21
505.565490722656
 31
0.0
  0
LINE
  5
   69F
  8
0
  6
CONTINUOUS
 62
     3
 10
104.986596107483
 20
505.565490722656
 30
0.0
 11
105.361596107483
 21
505.565490722656
 31
0.0
  0
LINE
  5
   6A0
  8
0
  6
CONTINUOUS
 62
     3
 10
106.336595535278
 20
505.565490722656
 30
0.0
 11
106.711595535278
 21
505.565490722656
 31
0.0
  0
LINE
  5
   6A1
  8
0
  6
CONTINUOUS
 62
     3
 10
107.686597824097
 20
505.565490722656
 30
0.0
 11
108.061597824097
 21
505.565490722656
 31
0.0
  0
LINE
  5
   6A2
  8
0
  6
CONTINUOUS
 62
     3
 10
109.036597251892
 20
505.565490722656
 30
0.0
 11
109.411597251892
 21
505.565490722656
 31
0.0
  0
LINE
  5
   6A3
  8
0
  6
CONTINUOUS
 62
     3
 10
110.386596679688
 20
505.565490722656
 30
0.0
 11
110.761596679688
 21
505.565490722656
 31
0.0
  0
LINE
  5
   6A4
  8
0
  6
CONTINUOUS
 62
     3
 10
111.736596107483
 20
505.565490722656
 30
0.0
 11
112.111596107483
 21
505.565490722656
 31
0.0
  0
LINE
  5
   6A5
  8
0
  6
CONTINUOUS
 62
     3
 10
113.08659696579
 20
505.565490722656
 30
0.0
 11
113.46159696579
 21
505.565490722656
 31
0.0
  0
LINE
  5
   6A6
  8
0
  6
CONTINUOUS
 62
     3
 10
114.436596393585
 20
505.565490722656
 30
0.0
 11
114.811596393585
 21
505.565490722656
 31
0.0
  0
LINE
  5
   6A7
  8
0
  6
CONTINUOUS
 62
     3
 10
115.786597251892
 20
505.565490722656
 30
0.0
 11
116.161597251892
 21
505.565490722656
 31
0.0
  0
LINE
  5
   6A8
  8
0
  6
CONTINUOUS
 62
     3
 10
117.136596679687
 20
505.565490722656
 30
0.0
 11
117.511596679688
 21
505.565490722656
 31
0.0
  0
LINE
  5
   6A9
  8
0
  6
CONTINUOUS
 62
     3
 10
118.486596107483
 20
505.565490722656
 30
0.0
 11
119.199096679732
 21
505.565490722656
 31
0.0
  0
LINE
  5
   6AA
  8
0
  6
CONTINUOUS
 62
     3
 10
101.199096679688
 20
491.690490722656
 30
0.0
 11
119.199096679732
 21
491.690490722656
 31
0.0
  0
LINE
  5
   6AB
  8
0
  6
CONTINUOUS
 62
     3
 10
100.449096679688
 20
492.440490722656
 30
0.0
 11
100.449096679688
 21
505.565490722656
 31
0.0
  0
ARC
  5
   6AC
  8
0
  6
CONTINUOUS
 62
     3
 10
101.199096680284
 20
492.440490723253
 30
0.0
 40
0.750000000000441
 50
180.0
 51
269.999999954432
  0
LINE
  5
   6AD
  8
0
  6
CONTINUOUS
 62
     3
 10
104.011596679688
 20
578.315486801217
 30
0.0
 11
104.986596107483
 21
578.315486789998
 31
0.0
  0
LINE
  5
   6AE
  8
0
  6
CONTINUOUS
 62
     3
 10
105.361596107483
 20
578.315486785683
 30
0.0
 11
106.336598396301
 21
578.315486774465
 31
0.0
  0
LINE
  5
   6AF
  8
0
  6
CONTINUOUS
 62
     3
 10
106.711598396301
 20
578.31548677015
 30
0.0
 11
107.686597824097
 21
578.315486758931
 31
0.0
  0
LINE
  5
   6B0
  8
0
  6
CONTINUOUS
 62
     3
 10
108.061597824097
 20
578.315486754616
 30
0.0
 11
109.036597251892
 21
578.315486743397
 31
0.0
  0
LINE
  5
   6B1
  8
0
  6
CONTINUOUS
 62
     3
 10
109.411597251892
 20
578.315486739083
 30
0.0
 11
110.386596679688
 21
578.315486727864
 31
0.0
  0
LINE
  5
   6B2
  8
0
  6
CONTINUOUS
 62
     3
 10
110.761596679688
 20
578.315486723549
 30
0.0
 11
111.736597537994
 21
578.31548671233
 31
0.0
  0
LINE
  5
   6B3
  8
0
  6
CONTINUOUS
 62
     3
 10
112.111597537994
 20
578.315486708015
 30
0.0
 11
113.08659696579
 21
578.315486696797
 31
0.0
  0
LINE
  5
   6B4
  8
0
  6
CONTINUOUS
 62
     3
 10
113.46159696579
 20
578.315486692482
 30
0.0
 11
114.436596393585
 21
578.315486681263
 31
0.0
  0
LINE
  5
   6B5
  8
0
  6
CONTINUOUS
 62
     3
 10
114.811596393585
 20
578.315486676948
 30
0.0
 11
115.786597251892
 21
578.31548666573
 31
0.0
  0
LINE
  5
   6B6
  8
0
  6
CONTINUOUS
 62
     3
 10
116.161597251892
 20
578.315486661415
 30
0.0
 11
117.136596679687
 21
578.315486650196
 31
0.0
  0
LINE
  5
   6B7
  8
0
  6
CONTINUOUS
 62
     3
 10
117.511596679688
 20
578.315486645881
 30
0.0
 11
118.486597537994
 21
578.315486634662
 31
0.0
  0
LINE
  5
   6B8
  8
0
  6
CONTINUOUS
 62
     3
 10
102.661597251892
 20
578.315486816751
 30
0.0
 11
103.636596679688
 21
578.315486805532
 31
0.0
  0
LINE
  5
   6B9
  8
0
  6
CONTINUOUS
 62
     3
 10
102.286597251892
 20
578.315486821066
 30
0.0
 11
102.661597251892
 21
578.315486816751
 31
0.0
  0
LINE
  5
   6BA
  8
0
  6
CONTINUOUS
 62
     3
 10
100.449096679688
 20
578.315486842208
 30
0.0
 11
102.286597251892
 21
578.315486821066
 31
0.0
  0
LINE
  5
   6BB
  8
0
  6
CONTINUOUS
 62
     3
 10
103.636596679688
 20
578.315486805532
 30
0.0
 11
104.011596679688
 21
578.315486801217
 31
0.0
  0
LINE
  5
   6BC
  8
0
  6
CONTINUOUS
 62
     3
 10
104.986596107483
 20
578.315486789998
 30
0.0
 11
105.361596107483
 21
578.315486785683
 31
0.0
  0
LINE
  5
   6BD
  8
0
  6
CONTINUOUS
 62
     3
 10
106.336598396301
 20
578.315486774465
 30
0.0
 11
106.711598396301
 21
578.31548677015
 31
0.0
  0
LINE
  5
   6BE
  8
0
  6
CONTINUOUS
 62
     3
 10
107.686597824097
 20
578.315486758931
 30
0.0
 11
108.061597824097
 21
578.315486754616
 31
0.0
  0
LINE
  5
   6BF
  8
0
  6
CONTINUOUS
 62
     3
 10
109.036597251892
 20
578.315486743397
 30
0.0
 11
109.411597251892
 21
578.315486739083
 31
0.0
  0
LINE
  5
   6C0
  8
0
  6
CONTINUOUS
 62
     3
 10
110.386596679688
 20
578.315486727864
 30
0.0
 11
110.761596679688
 21
578.315486723549
 31
0.0
  0
LINE
  5
   6C1
  8
0
  6
CONTINUOUS
 62
     3
 10
111.736597537994
 20
578.31548671233
 30
0.0
 11
112.111597537994
 21
578.315486708015
 31
0.0
  0
LINE
  5
   6C2
  8
0
  6
CONTINUOUS
 62
     3
 10
113.08659696579
 20
578.315486696797
 30
0.0
 11
113.46159696579
 21
578.315486692482
 31
0.0
  0
LINE
  5
   6C3
  8
0
  6
CONTINUOUS
 62
     3
 10
114.436596393585
 20
578.315486681263
 30
0.0
 11
114.811596393585
 21
578.315486676948
 31
0.0
  0
LINE
  5
   6C4
  8
0
  6
CONTINUOUS
 62
     3
 10
115.786597251892
 20
578.31548666573
 30
0.0
 11
116.161597251892
 21
578.315486661415
 31
0.0
  0
LINE
  5
   6C5
  8
0
  6
CONTINUOUS
 62
     3
 10
117.136596679687
 20
578.315486650196
 30
0.0
 11
119.199096679732
 21
578.315486626464
 31
0.0
  0
LINE
  5
   6C6
  8
0
  6
CONTINUOUS
 62
     3
 10
118.486597537994
 20
578.315486634662
 30
0.0
 11
118.861597537994
 21
578.315486630347
 31
0.0
  0
LINE
  5
   6C7
  8
0
  6
CONTINUOUS
 62
     3
 10
101.199096679688
 20
592.190486833579
 30
0.0
 11
119.199096679732
 21
592.190486626464
 31
0.0
  0
LINE
  5
   6C8
  8
0
  6
CONTINUOUS
 62
     3
 10
100.449097098231
 20
578.315487861633
 30
0.0
 11
100.449097098231
 21
591.44048500061
 31
0.0
  0
ARC
  5
   6C9
  8
0
  6
CONTINUOUS
 62
     3
 10
101.199097249848
 20
591.440486832983
 30
0.0
 40
0.749999999999648
 50
90.0000435571815
 51
180.000139982427
  0
ARC
  5
   6CA
  8
0
  6
DOT
 62
     3
 10
188.574096679092
 20
589.940490722065
 30
0.0
 40
0.749999999999659
 50
0.0
 51
89.9999999544731
  0
ARC
  5
   6CB
  8
0
  6
DOT
 62
     3
 10
124.824089333424
 20
589.940498068925
 30
0.0
 40
0.749999999999827
 50
89.999438781328
 51
180.000561219001
  0
LINE
  5
   6CC
  8
0
  6
DOT
 62
     3
 10
147.699096679688
 20
589.940490722656
 30
0.0
 11
147.699096679688
 21
590.690490722656
 31
0.0
  0
LINE
  5
   6CD
  8
0
  6
DOT
 62
     3
 10
147.699096679688
 20
589.190490722656
 30
0.0
 11
147.699096679688
 21
589.940490722656
 31
0.0
  0
LINE
  5
   6CE
  8
0
  6
DOT
 62
     3
 10
143.199096679688
 20
589.940490722656
 30
0.0
 11
143.199096679688
 21
590.690490722656
 31
0.0
  0
LINE
  5
   6CF
  8
0
  6
DOT
 62
     3
 10
143.199096679688
 20
589.190490722656
 30
0.0
 11
143.199096679688
 21
589.940490722656
 31
0.0
  0
LINE
  5
   6D0
  8
0
  6
DOT
 62
     3
 10
170.199096679688
 20
589.940490722656
 30
0.0
 11
170.199096679688
 21
590.690490722656
 31
0.0
  0
LINE
  5
   6D1
  8
0
  6
DOT
 62
     3
 10
170.199096679688
 20
589.190490722656
 30
0.0
 11
170.199096679688
 21
589.940490722656
 31
0.0
  0
LINE
  5
   6D2
  8
0
  6
DOT
 62
     3
 10
165.699096679688
 20
589.940490722656
 30
0.0
 11
165.699096679688
 21
590.690490722656
 31
0.0
  0
LINE
  5
   6D3
  8
0
  6
DOT
 62
     3
 10
165.699096679688
 20
589.190490722656
 30
0.0
 11
165.699096679688
 21
589.940490722656
 31
0.0
  0
POLYLINE
  5
   6D4
  8
0
  6
DOT
 62
     3
 66
     1
 10
0.0
 20
0.0
 30
0.0
  0
VERTEX
  5
   6D5
  8
0
  6
CONTINUOUS
 10
156.070666283364
 20
589.031240463245
 30
0.0
 40
0.0
 41
0.0
  0
VERTEX
  5
   6D6
  8
0
  6
CONTINUOUS
 10
155.858674473232
 20
588.414821539651
 30
0.0
 40
0.0
 41
0.0
  0
VERTEX
  5
   6D7
  8
0
  6
CONTINUOUS
 10
156.101066619166
 20
587.846673965444
 30
0.0
 40
0.0
 41
0.0
  0
SEQEND
  5
   6D8
  8
0
  6
DOT
 62
     3
  0
POLYLINE
  5
   6D9
  8
0
  6
DOT
 62
     3
 66
     1
 10
0.0
 20
0.0
 30
0.0
  0
VERTEX
  5
   6DA
  8
0
  6
CONTINUOUS
 10
157.32752707601
 20
587.849740982063
 30
0.0
 40
0.0
 41
0.0
  0
VERTEX
  5
   6DB
  8
0
  6
CONTINUOUS
 10
157.539518886145
 20
588.466159905659
 30
0.0
 40
0.0
 41
0.0
  0
VERTEX
  5
   6DC
  8
0
  6
CONTINUOUS
 10
157.297126740213
 20
589.034307479868
 30
0.0
 40
0.0
 41
0.0
  0
SEQEND
  5
   6DD
  8
0
  6
DOT
 62
     3
  0
ARC
  5
   6DE
  8
0
  6
DOT
 62
     3
 10
156.698985941783
 20
588.440490722661
 30
0.0
 40
0.862591254623925
 50
270.00735629695
 51
449.99264370305
  0
CIRCLE
  5
   6DF
  8
0
  6
DOT
 62
     3
 10
156.699096679688
 20
588.440490722661
 30
0.0
 40
0.862500000000068
  0
LINE
  5
   6E0
  8
0
  6
DOT
 62
     3
 10
190.449096679688
 20
580.565490722656
 30
0.0
 11
190.449096679688
 21
583.940490722656
 31
0.0
  0
LINE
  5
   6E1
  8
0
  6
DOT
 62
     3
 10
190.449096679688
 20
577.790490150452
 30
0.0
 11
190.449096679688
 21
579.702989578247
 31
0.0
  0
LINE
  5
   6E2
  8
0
  6
DOT
 62
     3
 10
190.449096679688
 20
579.702989578247
 30
0.0
 11
190.449096679688
 21
580.565490722656
 31
0.0
  0
LINE
  5
   6E3
  8
0
  6
DOT
 62
     3
 10
190.449096679688
 20
583.940490722656
 30
0.0
 11
190.449096679688
 21
586.190490722656
 31
0.0
  0
LINE
  5
   6E4
  8
0
  6
DOT
 62
     3
 10
122.949096679688
 20
579.702989578247
 30
0.0
 11
122.949096679688
 21
586.190490722656
 31
0.0
  0
LINE
  5
   6E5
  8
0
  6
DOT
 62
     3
 10
170.199096679688
 20
590.690490722661
 30
0.0
 11
188.574096679687
 21
590.690490722661
 31
0.0
  0
LINE
  5
   6E6
  8
0
  6
DOT
 62
     3
 10
147.699096679688
 20
590.690490722661
 30
0.0
 11
165.699096679688
 21
590.690490722661
 31
0.0
  0
LINE
  5
   6E7
  8
0
  6
DOT
 62
     3
 10
124.824096679688
 20
590.690490722661
 30
0.0
 11
143.199096679688
 21
590.690490722661
 31
0.0
  0
LINE
  5
   6E8
  8
0
  6
DOT
 62
     3
 10
146.574096679688
 20
590.690490722661
 30
0.0
 11
147.699096679688
 21
590.690490722661
 31
0.0
  0
LINE
  5
   6E9
  8
0
  6
DOT
 62
     3
 10
143.199096679688
 20
590.690490722661
 30
0.0
 11
144.324096679688
 21
590.690490722661
 31
0.0
  0
LINE
  5
   6EA
  8
0
  6
DOT
 62
     3
 10
169.074096679688
 20
590.690490722661
 30
0.0
 11
170.199096679688
 21
590.690490722661
 31
0.0
  0
LINE
  5
   6EB
  8
0
  6
DOT
 62
     3
 10
165.699096679688
 20
590.690490722661
 30
0.0
 11
166.824096679688
 21
590.690490722661
 31
0.0
  0
LINE
  5
   6EC
  8
0
  6
DOT
 62
     3
 10
143.199096679688
 20
587.690490722661
 30
0.0
 11
147.699096679688
 21
587.690490722661
 31
0.0
  0
LINE
  5
   6ED
  8
0
  6
DOT
 62
     3
 10
165.699096679688
 20
587.690490722661
 30
0.0
 11
170.199096679688
 21
587.690490722661
 31
0.0
  0
LINE
  5
   6EE
  8
0
  6
DOT
 62
     3
 10
124.074096679688
 20
589.190490722661
 30
0.0
 11
124.824096679688
 21
589.190490722661
 31
0.0
  0
LINE
  5
   6EF
  8
0
  6
DOT
 62
     3
 10
124.824096679688
 20
589.190490722661
 30
0.0
 11
125.199096679688
 21
589.190490722661
 31
0.0
  0
LINE
  5
   6F0
  8
0
  6
DOT
 62
     3
 10
125.199096679688
 20
586.940490722656
 30
0.0
 11
125.199096679688
 21
589.190490722656
 31
0.0
  0
LINE
  5
   6F1
  8
0
  6
DOT
 62
     3
 10
124.074096679688
 20
586.940490722661
 30
0.0
 11
124.824096679688
 21
586.940490722661
 31
0.0
  0
LINE
  5
   6F2
  8
0
  6
DOT
 62
     3
 10
124.824096679688
 20
586.940490722661
 30
0.0
 11
125.199096679688
 21
586.940490722661
 31
0.0
  0
LINE
  5
   6F3
  8
0
  6
DOT
 62
     3
 10
143.199096679688
 20
587.690490722656
 30
0.0
 11
143.199096679688
 21
589.190490722656
 31
0.0
  0
LINE
  5
   6F4
  8
0
  6
DOT
 62
     3
 10
143.199096679688
 20
589.190490722661
 30
0.0
 11
144.324096679688
 21
589.190490722661
 31
0.0
  0
LINE
  5
   6F5
  8
0
  6
DOT
 62
     3
 10
144.324096679688
 20
589.190490722656
 30
0.0
 11
144.324096679688
 21
590.690490722656
 31
0.0
  0
LINE
  5
   6F6
  8
0
  6
DOT
 62
     3
 10
146.574096679688
 20
589.190490722656
 30
0.0
 11
146.574096679688
 21
590.690490722656
 31
0.0
  0
LINE
  5
   6F7
  8
0
  6
DOT
 62
     3
 10
146.574096679688
 20
589.190490722661
 30
0.0
 11
147.699096679688
 21
589.190490722661
 31
0.0
  0
LINE
  5
   6F8
  8
0
  6
DOT
 62
     3
 10
147.699096679688
 20
587.690490722656
 30
0.0
 11
147.699096679688
 21
589.190490722656
 31
0.0
  0
LINE
  5
   6F9
  8
0
  6
DOT
 62
     3
 10
188.199096679688
 20
586.940490722656
 30
0.0
 11
188.199096679688
 21
589.190490722656
 31
0.0
  0
LINE
  5
   6FA
  8
0
  6
DOT
 62
     3
 10
188.574096679687
 20
589.190490722661
 30
0.0
 11
189.324096679688
 21
589.190490722661
 31
0.0
  0
LINE
  5
   6FB
  8
0
  6
DOT
 62
     3
 10
188.199096679688
 20
589.190490722661
 30
0.0
 11
188.574096679687
 21
589.190490722661
 31
0.0
  0
LINE
  5
   6FC
  8
0
  6
DOT
 62
     3
 10
188.574096679687
 20
586.940490722661
 30
0.0
 11
189.324096679688
 21
586.940490722661
 31
0.0
  0
LINE
  5
   6FD
  8
0
  6
DOT
 62
     3
 10
188.199096679688
 20
586.940490722661
 30
0.0
 11
188.574096679687
 21
586.940490722661
 31
0.0
  0
LINE
  5
   6FE
  8
0
  6
DOT
 62
     3
 10
165.699096679688
 20
587.690490722656
 30
0.0
 11
165.699096679688
 21
589.190490722656
 31
0.0
  0
LINE
  5
   6FF
  8
0
  6
DOT
 62
     3
 10
165.699096679688
 20
589.190490722661
 30
0.0
 11
166.824096679688
 21
589.190490722661
 31
0.0
  0
LINE
  5
   700
  8
0
  6
DOT
 62
     3
 10
166.824096679688
 20
589.190490722656
 30
0.0
 11
166.824096679688
 21
590.690490722656
 31
0.0
  0
LINE
  5
   701
  8
0
  6
DOT
 62
     3
 10
169.074096679688
 20
589.190490722656
 30
0.0
 11
169.074096679688
 21
590.690490722656
 31
0.0
  0
LINE
  5
   702
  8
0
  6
DOT
 62
     3
 10
169.074096679688
 20
589.190490722661
 30
0.0
 11
170.199096679688
 21
589.190490722661
 31
0.0
  0
LINE
  5
   703
  8
0
  6
DOT
 62
     3
 10
170.199096679688
 20
587.690490722656
 30
0.0
 11
170.199096679688
 21
589.190490722656
 31
0.0
  0
LINE
  5
   704
  8
0
  6
DOT
 62
     3
 10
189.324096679688
 20
586.190490722661
 30
0.0
 11
190.449096679688
 21
586.190490722661
 31
0.0
  0
LINE
  5
   705
  8
0
  6
DOT
 62
     3
 10
122.949096679688
 20
586.190490722661
 30
0.0
 11
124.074096679688
 21
586.190490722661
 31
0.0
  0
CIRCLE
  5
   706
  8
0
  6
DOT
 62
     3
 10
145.449096679688
 20
582.065490722661
 30
0.0
 40
1.57500000000002
  0
CIRCLE
  5
   707
  8
0
  6
DOT
 62
     3
 10
167.949096679688
 20
582.065490722661
 30
0.0
 40
1.57500000000005
  0
LINE
  5
   708
  8
0
  6
DOT
 62
     3
 10
189.088903427124
 20
586.190490722661
 30
0.0
 11
189.324096679688
 21
586.190490722661
 31
0.0
  0
LINE
  5
   709
  8
0
  6
DOT
 62
     3
 10
188.574096679687
 20
586.190490722661
 30
0.0
 11
189.087736129761
 21
586.190490722661
 31
0.0
  0
LINE
  5
   70A
  8
0
  6
DOT
 62
     3
 10
124.074096679688
 20
586.190490722661
 30
0.0
 11
124.824096679688
 21
586.190490722661
 31
0.0
  0
LINE
  5
   70B
  8
0
  6
DOT
 62
     3
 10
124.824096679688
 20
586.190490722661
 30
0.0
 11
188.574096679687
 21
586.190490722661
 31
0.0
  0
ARC
  5
   70C
  8
0
  6
DOT
 62
     3
 10
145.449096679688
 20
582.065490722661
 30
0.0
 40
3.18750000000083
 50
179.974308650493
 51
194.431647155145
  0
ARC
  5
   70D
  8
0
  6
DOT
 62
     3
 10
145.449096679691
 20
582.065490722664
 30
0.0
 40
3.18750000000423
 50
209.967083278846
 51
246.677064342243
  0
ARC
  5
   70E
  8
0
  6
DOT
 62
     3
 10
145.449096679689
 20
582.06549072266
 30
0.0
 40
3.18750000000206
 50
119.968093564554
 51
148.694384037001
  0
ARC
  5
   70F
  8
0
  6
DOT
 62
     3
 10
145.449096679691
 20
582.065490722659
 30
0.0
 40
3.18750000000407
 50
149.95240814021
 51
161.763692140559
  0
ARC
  5
   710
  8
0
  6
DOT
 62
     3
 10
145.44909667969
 20
582.065490722664
 30
0.0
 40
3.18749999999637
 50
21.9533121878827
 51
60.1353119424635
  0
ARC
  5
   711
  8
0
  6
DOT
 62
     3
 10
145.449096679697
 20
582.065490722666
 30
0.0
 40
3.18749999998953
 50
25.6503975439542
 51
30.025503153485
  0
ARC
  5
   712
  8
0
  6
DOT
 62
     3
 10
145.44909669659
 20
582.065490722661
 30
0.0
 40
3.18749998309721
 50
359.87583731412
 51
360.035739285514
  0
LINE
  5
   713
  8
0
  6
DOT
 62
     3
 10
189.324096679688
 20
586.190490722656
 30
0.0
 11
189.324096679688
 21
586.940490722656
 31
0.0
  0
LINE
  5
   714
  8
0
  6
DOT
 62
     3
 10
189.324096679688
 20
589.190490722656
 30
0.0
 11
189.324096679688
 21
589.940490722656
 31
0.0
  0
LINE
  5
   715
  8
0
  6
DOT
 62
     3
 10
124.074096679688
 20
586.190490722656
 30
0.0
 11
124.074096679688
 21
586.940490722656
 31
0.0
  0
LINE
  5
   716
  8
0
  6
DOT
 62
     3
 10
124.074096679688
 20
589.190490722656
 30
0.0
 11
124.074096679688
 21
589.940490722656
 31
0.0
  0
LINE
  5
   717
  8
0
  6
DOT
 62
     3
 10
156.0723772645
 20
587.877990722656
 30
0.0
 11
156.07787874341
 21
587.877990722656
 31
0.0
  0
LINE
  5
   718
  8
0
  6
DOT
 62
     3
 10
157.344905599952
 20
587.877990722656
 30
0.0
 11
157.348516568542
 21
587.877990722656
 31
0.0
  0
ARC
  5
   719
  8
0
  6
DOT
 62
     3
 10
167.949084790928
 20
501.815486657018
 30
0.0
 40
1.57500000000056
 50
270.000198314903
 51
314.925562368277
  0
ARC
  5
   71A
  8
0
  6
DOT
 62
     3
 10
167.949084790928
 20
501.815486657017
 30
0.0
 40
1.57500000000034
 50
45.3154137710572
 51
89.9998277048568
  0
ARC
  5
   71B
  8
0
  6
DOT
 62
     3
 10
167.949084790929
 20
501.815486657017
 30
0.0
 40
1.57499999999962
 50
328.814107395691
 51
359.915109578659
  0
ARC
  5
   71C
  8
0
  6
DOT
 62
     3
 10
167.949084790929
 20
501.815486657018
 30
0.0
 40
1.57499999999926
 50
21.8791064867564
 51
44.8998814087798
  0
ARC
  5
   71D
  8
0
  6
DOT
 62
     3
 10
167.949084790929
 20
501.815486657018
 30
0.0
 40
1.575
 50
90.000660341329
 51
199.846896196838
  0
ARC
  5
   71E
  8
0
  6
DOT
 62
     3
 10
145.449084790929
 20
501.815486657018
 30
0.0
 40
1.57499999999994
 50
90.001831253867
 51
174.648993209785
  0
ARC
  5
   71F
  8
0
  6
DOT
 62
     3
 10
145.449084790929
 20
501.815486657018
 30
0.0
 40
1.57499999999987
 50
326.739109344248
 51
404.766349366482
  0
ARC
  5
   720
  8
0
  6
DOT
 62
     3
 10
145.449084790928
 20
501.815486657017
 30
0.0
 40
1.57500000000032
 50
45.5612170473851
 51
89.9998277048578
  0
ARC
  5
   721
  8
0
  6
DOT
 62
     3
 10
145.449084790982
 20
501.815486579301
 30
0.0
 40
1.57499992228332
 50
270.000380452305
 51
270.077886930859
  0
ARC
  5
   722
  8
0
  6
DOT
 62
     3
 10
124.824089452079
 20
493.940479299964
 30
0.0
 40
0.749999999999785
 50
179.999345930253
 51
270.000552154896
  0
ARC
  5
   723
  8
0
  6
DOT
 62
     3
 10
188.574096402939
 20
493.940486280061
 30
0.0
 40
0.749999999999539
 50
270.000021142012
 51
359.999902258763
  0
LINE
  5
   724
  8
0
  6
DOT
 62
     3
 10
165.699084786614
 20
493.19048500061
 30
0.0
 11
165.699084786614
 21
493.94048500061
 31
0.0
  0
LINE
  5
   725
  8
0
  6
DOT
 62
     3
 10
143.199084786614
 20
493.190487861633
 30
0.0
 11
143.199084786614
 21
493.940487861633
 31
0.0
  0
LINE
  5
   726
  8
0
  6
DOT
 62
     3
 10
124.074096679688
 20
494.69048664623
 30
0.0
 11
124.824096679688
 21
494.69048664623
 31
0.0
  0
LINE
  5
   727
  8
0
  6
DOT
 62
     3
 10
124.074096679688
 20
496.94048664623
 30
0.0
 11
124.824096679688
 21
496.94048664623
 31
0.0
  0
LINE
  5
   728
  8
0
  6
DOT
 62
     3
 10
188.574096679687
 20
494.690486462848
 30
0.0
 11
189.324096679688
 21
494.690486462848
 31
0.0
  0
LINE
  5
   729
  8
0
  6
DOT
 62
     3
 10
188.574096679687
 20
496.940486462848
 30
0.0
 11
189.324096679688
 21
496.940486462848
 31
0.0
  0
LINE
  5
   72A
  8
0
  6
DOT
 62
     3
 10
189.324096679688
 20
497.690486653782
 30
0.0
 11
190.449085235596
 21
497.690486653782
 31
0.0
  0
ARC
  5
   72B
  8
0
  6
DOT
 62
     3
 10
167.949096448841
 20
501.815486398124
 30
0.0
 40
1.57500000000006
 50
270.000008397794
 51
421.563640359905
  0
ARC
  5
   72C
  8
0
  6
DOT
 62
     3
 10
167.949096448841
 20
501.815486398124
 30
0.0
 40
1.57499999999999
 50
118.437370607964
 51
270.000008397793
  0
LINE
  5
   72D
  8
0
  6
DOT
 62
     3
 10
170.199084786614
 20
493.19048500061
 30
0.0
 11
170.199084786614
 21
493.94048500061
 31
0.0
  0
POLYLINE
  5
   72E
  8
0
  6
DOT
 62
     3
 66
     1
 10
0.0
 20
0.0
 30
0.0
  0
VERTEX
  5
   72F
  8
0
  6
CONTINUOUS
 10
156.101066350928
 20
496.034304618821
 30
0.0
 40
0.0
 41
0.0
  0
VERTEX
  5
   730
  8
0
  6
CONTINUOUS
 10
155.858152655468
 20
495.490095295522
 30
0.0
 40
0.0
 41
0.0
  0
VERTEX
  5
   731
  8
0
  6
CONTINUOUS
 10
156.070666015155
 20
494.849738121014
 30
0.0
 40
0.0
 41
0.0
  0
SEQEND
  5
   732
  8
0
  6
DOT
 62
     3
  0
POLYLINE
  5
   733
  8
0
  6
DOT
 62
     3
 66
     1
 10
0.0
 20
0.0
 30
0.0
  0
VERTEX
  5
   734
  8
0
  6
CONTINUOUS
 10
157.297126472003
 20
494.846668243419
 30
0.0
 40
0.0
 41
0.0
  0
VERTEX
  5
   735
  8
0
  6
CONTINUOUS
 10
157.540040167466
 20
495.390877566718
 30
0.0
 40
0.0
 41
0.0
  0
VERTEX
  5
   736
  8
0
  6
CONTINUOUS
 10
157.327526807782
 20
496.031234741225
 30
0.0
 40
0.0
 41
0.0
  0
SEQEND
  5
   737
  8
0
  6
DOT
 62
     3
  0
ARC
  5
   738
  8
0
  6
DOT
 62
     3
 10
156.699084630958
 20
495.440486462848
 30
0.0
 40
0.862507505853519
 50
270.000782294843
 51
449.999217045835
  0
CIRCLE
  5
   739
  8
0
  6
DOT
 62
     3
 10
156.699096412165
 20
495.440486462848
 30
0.0
 40
0.862499999999983
  0
ARC
  5
   73A
  8
0
  6
DOT
 62
     3
 10
145.449096448841
 20
501.815486527571
 30
0.0
 40
1.57499999999999
 50
270.007684674219
 51
406.533418368853
  0
ARC
  5
   73B
  8
0
  6
DOT
 62
     3
 10
145.449096448841
 20
501.815486527571
 30
0.0
 40
1.57499999999998
 50
133.693872912883
 51
269.990120152525
  0
LINE
  5
   73C
  8
0
  6
DOT
 62
     3
 10
147.699084786614
 20
493.190487861633
 30
0.0
 11
147.699084786614
 21
493.940487861633
 31
0.0
  0
LINE
  5
   73D
  8
0
  6
DOT
 62
     3
 10
170.199085235596
 20
493.190486462848
 30
0.0
 11
188.574096679687
 21
493.190486462848
 31
0.0
  0
LINE
  5
   73E
  8
0
  6
DOT
 62
     3
 10
147.69908452034
 20
493.190486462848
 30
0.0
 11
165.69908452034
 21
493.190486462848
 31
0.0
  0
LINE
  5
   73F
  8
0
  6
DOT
 62
     3
 10
124.824096679688
 20
493.190486462848
 30
0.0
 11
143.199085235596
 21
493.190486462848
 31
0.0
  0
LINE
  5
   740
  8
0
  6
DOT
 62
     3
 10
169.074085235596
 20
493.190486462848
 30
0.0
 11
170.199085235596
 21
493.190486462848
 31
0.0
  0
LINE
  5
   741
  8
0
  6
DOT
 62
     3
 10
165.69908452034
 20
493.190486462848
 30
0.0
 11
166.82408452034
 21
493.190486462848
 31
0.0
  0
LINE
  5
   742
  8
0
  6
DOT
 62
     3
 10
143.199085235596
 20
493.190486462848
 30
0.0
 11
144.324085235596
 21
493.190486462848
 31
0.0
  0
LINE
  5
   743
  8
0
  6
DOT
 62
     3
 10
146.57408452034
 20
493.190486462848
 30
0.0
 11
147.69908452034
 21
493.190486462848
 31
0.0
  0
LINE
  5
   744
  8
0
  6
DOT
 62
     3
 10
122.949085235596
 20
497.690486653782
 30
0.0
 11
124.074096679688
 21
497.690486653782
 31
0.0
  0
ARC
  5
   745
  8
0
  6
DOT
 62
     3
 10
167.94907100172
 20
501.815489434111
 30
0.0
 40
3.18751797851537
 50
299.965695540825
 51
329.806612807725
  0
ARC
  5
   746
  8
0
  6
DOT
 62
     3
 10
167.94907100172
 20
501.815489434111
 30
0.0
 40
3.18751797851503
 50
329.946883491209
 51
418.304612045572
  0
ARC
  5
   747
  8
0
  6
DOT
 62
     3
 10
167.949121892961
 20
501.815489434396
 30
0.0
 40
3.18751797677792
 50
148.707007243685
 51
230.736581822986
  0
LINE
  5
   748
  8
0
  6
DOT
 62
     3
 10
124.074096798347
 20
493.940487861633
 30
0.0
 11
124.074096798347
 21
494.690487861633
 31
0.0
  0
LINE
  5
   749
  8
0
  6
DOT
 62
     3
 10
124.074096798347
 20
496.940487861633
 30
0.0
 11
124.074096798347
 21
497.690487861633
 31
0.0
  0
LINE
  5
   74A
  8
0
  6
DOT
 62
     3
 10
189.324096420794
 20
496.94048500061
 30
0.0
 11
189.324096420794
 21
497.690487861633
 31
0.0
  0
LINE
  5
   74B
  8
0
  6
DOT
 62
     3
 10
189.324096403535
 20
493.94048500061
 30
0.0
 11
189.324096403535
 21
494.69048500061
 31
0.0
  0
LINE
  5
   74C
  8
0
  6
DOT
 62
     3
 10
188.574096679687
 20
497.690486837164
 30
0.0
 11
189.324096679688
 21
497.690486837164
 31
0.0
  0
LINE
  5
   74D
  8
0
  6
DOT
 62
     3
 10
124.074096679688
 20
497.690486653782
 30
0.0
 11
124.824096679688
 21
497.690486653782
 31
0.0
  0
LINE
  5
   74E
  8
0
  6
DOT
 62
     3
 10
125.199085235596
 20
497.690486653782
 30
0.0
 11
125.435445785522
 21
497.690486653782
 31
0.0
  0
LINE
  5
   74F
  8
0
  6
DOT
 62
     3
 10
165.699096679688
 20
496.190486462848
 30
0.0
 11
170.199096679688
 21
496.190486462848
 31
0.0
  0
LINE
  5
   750
  8
0
  6
DOT
 62
     3
 10
143.199096679688
 20
496.190486462848
 30
0.0
 11
147.699096679688
 21
496.190486462848
 31
0.0
  0
LINE
  5
   751
  8
0
  6
DOT
 62
     3
 10
165.699084790929
 20
493.94048500061
 30
0.0
 11
165.699084790929
 21
494.690487861633
 31
0.0
  0
LINE
  5
   752
  8
0
  6
DOT
 62
     3
 10
143.199084790929
 20
493.940487861633
 30
0.0
 11
143.199084790929
 21
494.690487861633
 31
0.0
  0
LINE
  5
   753
  8
0
  6
DOT
 62
     3
 10
125.19909640785
 20
494.690487861633
 30
0.0
 11
125.19909640785
 21
496.940487861633
 31
0.0
  0
LINE
  5
   754
  8
0
  6
DOT
 62
     3
 10
124.824096679688
 20
494.690486462848
 30
0.0
 11
125.199096679688
 21
494.690486462848
 31
0.0
  0
LINE
  5
   755
  8
0
  6
DOT
 62
     3
 10
124.824096679688
 20
496.940486462848
 30
0.0
 11
125.199096679688
 21
496.940486462848
 31
0.0
  0
LINE
  5
   756
  8
0
  6
DOT
 62
     3
 10
188.199096679688
 20
494.690486462848
 30
0.0
 11
188.574096679687
 21
494.690486462848
 31
0.0
  0
LINE
  5
   757
  8
0
  6
DOT
 62
     3
 10
188.19909640785
 20
494.69048500061
 30
0.0
 11
188.19909640785
 21
496.94048500061
 31
0.0
  0
LINE
  5
   758
  8
0
  6
DOT
 62
     3
 10
188.199096679688
 20
496.940486462848
 30
0.0
 11
188.574096679687
 21
496.940486462848
 31
0.0
  0
LINE
  5
   759
  8
0
  6
DOT
 62
     3
 10
170.199084790929
 20
493.94048500061
 30
0.0
 11
170.199084790929
 21
494.69048500061
 31
0.0
  0
LINE
  5
   75A
  8
0
  6
DOT
 62
     3
 10
147.699084790929
 20
493.940487861633
 30
0.0
 11
147.699084790929
 21
494.690487861633
 31
0.0
  0
LINE
  5
   75B
  8
0
  6
DOT
 62
     3
 10
124.824096679688
 20
497.690486653782
 30
0.0
 11
188.574096679687
 21
497.690486653782
 31
0.0
  0
LINE
  5
   75C
  8
0
  6
DOT
 62
     3
 10
144.324084790929
 20
493.190487861633
 30
0.0
 11
144.324084790929
 21
494.690487861633
 31
0.0
  0
LINE
  5
   75D
  8
0
  6
DOT
 62
     3
 10
146.574084790929
 20
493.190487861633
 30
0.0
 11
146.574084790929
 21
494.690487861633
 31
0.0
  0
LINE
  5
   75E
  8
0
  6
DOT
 62
     3
 10
146.57408452034
 20
494.690486462848
 30
0.0
 11
147.69908452034
 21
494.690486462848
 31
0.0
  0
LINE
  5
   75F
  8
0
  6
DOT
 62
     3
 10
147.699084790929
 20
494.690487861633
 30
0.0
 11
147.699084790929
 21
496.190487861633
 31
0.0
  0
LINE
  5
   760
  8
0
  6
DOT
 62
     3
 10
143.199084790929
 20
494.690487861633
 30
0.0
 11
143.199084790929
 21
496.190487861633
 31
0.0
  0
LINE
  5
   761
  8
0
  6
DOT
 62
     3
 10
143.199086666107
 20
494.690486462848
 30
0.0
 11
144.324085235596
 21
494.690486462848
 31
0.0
  0
LINE
  5
   762
  8
0
  6
DOT
 62
     3
 10
166.824084790929
 20
493.19048500061
 30
0.0
 11
166.824084790929
 21
494.69048500061
 31
0.0
  0
LINE
  5
   763
  8
0
  6
DOT
 62
     3
 10
169.074084790929
 20
493.19048500061
 30
0.0
 11
169.074084790929
 21
494.69048500061
 31
0.0
  0
LINE
  5
   764
  8
0
  6
DOT
 62
     3
 10
169.074085235596
 20
494.690486462848
 30
0.0
 11
170.199085235596
 21
494.690486462848
 31
0.0
  0
LINE
  5
   765
  8
0
  6
DOT
 62
     3
 10
170.199084790929
 20
494.69048500061
 30
0.0
 11
170.199084790929
 21
496.19048500061
 31
0.0
  0
LINE
  5
   766
  8
0
  6
DOT
 62
     3
 10
165.699084790929
 20
494.690487861633
 30
0.0
 11
165.699084790929
 21
496.19048500061
 31
0.0
  0
LINE
  5
   767
  8
0
  6
DOT
 62
     3
 10
165.699091672897
 20
494.690486462848
 30
0.0
 11
166.82408452034
 21
494.690486462848
 31
0.0
  0
LINE
  5
   768
  8
0
  6
DOT
 62
     3
 10
190.449084790929
 20
499.94048500061
 30
0.0
 11
190.449084790929
 21
503.31548500061
 31
0.0
  0
LINE
  5
   769
  8
0
  6
DOT
 62
     3
 10
190.449108184814
 20
503.31548500061
 30
0.0
 11
190.449108184814
 21
506.090491294861
 31
0.0
  0
LINE
  5
   76A
  8
0
  6
DOT
 62
     3
 10
190.449108184814
 20
497.690487861633
 30
0.0
 11
190.449108184814
 21
499.94048500061
 31
0.0
  0
ARC
  5
   76B
  8
0
  6
DOT
 62
     3
 10
145.449096448841
 20
501.815486527571
 30
0.0
 40
1.57499999999978
 50
89.9999916022043
 51
134.97280637214
  0
ARC
  5
   76C
  8
0
  6
DOT
 62
     3
 10
145.449096448841
 20
501.815486527571
 30
0.0
 40
1.57500000000005
 50
45.5621574403341
 51
89.9999916022084
  0
ARC
  5
   76D
  8
0
  6
DOT
 62
     3
 10
167.949096448841
 20
501.815486398125
 30
0.0
 40
1.57499999999959
 50
45.316354484402
 51
89.9999916022126
  0
ARC
  5
   76E
  8
0
  6
DOT
 62
     3
 10
167.949096448841
 20
501.815486398124
 30
0.0
 40
1.57500000000012
 50
89.9999916022115
 51
134.97280300329
  0
LINE
  5
   76F
  8
0
  6
DOT
 62
     3
 10
123.474096679732
 20
577.790490150452
 30
0.0
 11
123.474096679732
 21
578.315490722656
 31
0.0
  0
LINE
  5
   770
  8
0
  6
DOT
 62
     3
 10
123.474097251892
 20
578.315490722656
 30
0.0
 11
125.724097251892
 21
578.315490722656
 31
0.0
  0
LINE
  5
   771
  8
0
  6
DOT
 62
     3
 10
187.674096107483
 20
578.315490722656
 30
0.0
 11
189.924096107483
 21
578.315490722656
 31
0.0
  0
LINE
  5
   772
  8
0
  6
DOT
 62
     3
 10
125.724097251892
 20
578.315490722656
 30
0.0
 11
187.674096107483
 21
578.315490722656
 31
0.0
  0
LINE
  5
   773
  8
0
  6
DOT
 62
     3
 10
123.474097251892
 20
505.565490722656
 30
0.0
 11
125.724097251892
 21
505.565490722656
 31
0.0
  0
LINE
  5
   774
  8
0
  6
DOT
 62
     3
 10
187.674096107483
 20
505.565490722656
 30
0.0
 11
189.924096107483
 21
505.565490722656
 31
0.0
  0
LINE
  5
   775
  8
0
  6
DOT
 62
     3
 10
125.724097251892
 20
505.565490722656
 30
0.0
 11
187.674096107483
 21
505.565490722656
 31
0.0
  0
CIRCLE
  5
   776
  8
0
  6
DOT
 62
     3
 10
145.449096679687
 20
501.815490722656
 30
0.0
 40
1.57499999999999
  0
CIRCLE
  5
   777
  8
0
  6
DOT
 62
     3
 10
145.449096679688
 20
501.815490722656
 30
0.0
 40
3.37500000000001
  0
CIRCLE
  5
   778
  8
0
  6
DOT
 62
     3
 10
167.949096679687
 20
582.065490722656
 30
0.0
 40
1.57499999999999
  0
CIRCLE
  5
   779
  8
0
  6
DOT
 62
     3
 10
167.949096679688
 20
582.065490722656
 30
0.0
 40
3.375
  0
ARC
  5
   77A
  8
0
  6
DOT
 62
     3
 10
134.199063384973
 20
581.877990722661
 30
0.0
 40
2.43752121219499
 50
17.999724912524
 51
89.9989819969239
  0
CIRCLE
  5
   77B
  8
0
  6
DOT
 62
     3
 10
134.199129974402
 20
581.877990722661
 30
0.0
 40
2.43752121219467
  0
ARC
  5
   77C
  8
0
  6
DOT
 62
     3
 10
134.199096679687
 20
581.877990722662
 30
0.0
 40
2.43750000000112
 50
305.987326377815
 51
342.016110303983
  0
ARC
  5
   77D
  8
0
  6
DOT
 62
     3
 10
134.199096679687
 20
581.877990722661
 30
0.0
 40
2.43749999999983
 50
125.987366199816
 51
162.016120780897
  0
CIRCLE
  5
   77E
  8
0
  6
DOT
 62
     3
 10
134.199129974402
 20
502.002990722651
 30
0.0
 40
2.43752121219464
  0
ARC
  5
   77F
  8
0
  6
DOT
 62
     3
 10
145.449053140446
 20
582.065490722661
 30
0.0
 40
3.18752773902405
 50
60.005256091146
 51
89.9992173757552
  0
ARC
  5
   780
  8
0
  6
DOT
 62
     3
 10
145.449140218929
 20
582.065490722661
 30
0.0
 40
3.18752773902413
 50
240.005244942341
 51
305.426793421634
  0
ARC
  5
   781
  8
0
  6
DOT
 62
     3
 10
145.449096679688
 20
582.065490722661
 30
0.0
 40
3.18749999999999
 50
80.8971084868757
 51
210.015757359144
  0
ARC
  5
   782
  8
0
  6
DOT
 62
     3
 10
145.449096679687
 20
582.065490722661
 30
0.0
 40
3.18750000000005
 50
299.989118587865
 51
390.01571259671
  0
LINE
  5
   783
  8
0
  6
DOT
 62
     3
 10
167.949096679687
 20
498.627990722656
 30
0.0
 11
169.534594058991
 21
499.065735816956
 31
0.0
  0
LINE
  5
   784
  8
0
  6
DOT
 62
     3
 10
165.188640832901
 20
500.221740722656
 30
0.0
 11
166.363874673843
 21
499.067667007446
 31
0.0
  0
LINE
  5
   785
  8
0
  6
DOT
 62
     3
 10
166.363874673843
 20
499.067667007446
 30
0.0
 11
167.949096679687
 21
498.627990722656
 31
0.0
  0
ARC
  5
   786
  8
0
  6
DOT
 62
     3
 10
167.949140218929
 20
501.815490722651
 30
0.0
 40
3.18752773902374
 50
90.0007826242437
 51
120.000659630725
  0
ARC
  5
   787
  8
0
  6
DOT
 62
     3
 10
167.949140218929
 20
501.815490722651
 30
0.0
 40
3.18752773902412
 50
180.0
 51
209.999609840798
  0
ARC
  5
   788
  8
0
  6
DOT
 62
     3
 10
167.949053140446
 20
501.815490722651
 30
0.0
 40
3.18752773902381
 50
29.9996034126981
 51
89.9992173757552
  0
ARC
  5
   789
  8
0
  6
DOT
 62
     3
 10
167.949096679688
 20
501.815490722651
 30
0.0
 40
3.18749999999997
 50
116.277183981812
 51
202.824225932055
  0
ARC
  5
   78A
  8
0
  6
DOT
 62
     3
 10
167.949096679687
 20
501.815490722651
 30
0.0
 40
3.18750000000001
 50
299.967572386953
 51
418.469147554207
  0
CIRCLE
  5
   78B
  8
0
  6
DOT
 62
     3
 10
156.699129974402
 20
502.002990722651
 30
0.0
 40
2.43752121219465
  0
CIRCLE
  5
   78C
  8
0
  6
DOT
 62
     3
 10
179.199129974402
 20
502.002990722651
 30
0.0
 40
2.43752121219471
  0
CIRCLE
  5
   78D
  8
0
  6
DOT
 62
     3
 10
156.699063384974
 20
581.877990722661
 30
0.0
 40
2.4375212121943
  0
ARC
  5
   78E
  8
0
  6
DOT
 62
     3
 10
156.699129974402
 20
581.877990722661
 30
0.0
 40
2.4375212121948
 50
197.99972101627
 51
269.998976445698
  0
CIRCLE
  5
   78F
  8
0
  6
DOT
 62
     3
 10
179.199129974402
 20
581.877990722661
 30
0.0
 40
2.43752121219473
  0
LINE
  5
   790
  8
0
  6
DOT
 62
     3
 10
122.949096679688
 20
577.790490722656
 30
0.0
 11
124.786597251892
 21
577.790490722656
 31
0.0
  0
LINE
  5
   791
  8
0
  6
DOT
 62
     3
 10
188.611596107483
 20
577.790490722656
 30
0.0
 11
190.449096679688
 21
577.790490722656
 31
0.0
  0
LINE
  5
   792
  8
0
  6
DOT
 62
     3
 10
188.236596107483
 20
577.790490722656
 30
0.0
 11
188.611596107483
 21
577.790490722656
 31
0.0
  0
LINE
  5
   793
  8
0
  6
DOT
 62
     3
 10
124.786597251892
 20
577.790490722656
 30
0.0
 11
125.161597251892
 21
577.790490722656
 31
0.0
  0
LINE
  5
   794
  8
0
  6
DOT
 62
     3
 10
187.261596679688
 20
577.790490722656
 30
0.0
 11
188.236596107483
 21
577.790490722656
 31
0.0
  0
LINE
  5
   795
  8
0
  6
DOT
 62
     3
 10
127.861596107483
 20
577.790490722656
 30
0.0
 11
185.536597251892
 21
577.790490722656
 31
0.0
  0
LINE
  5
   796
  8
0
  6
DOT
 62
     3
 10
126.511596679688
 20
577.790490722656
 30
0.0
 11
127.486596107483
 21
577.790490722656
 31
0.0
  0
LINE
  5
   797
  8
0
  6
DOT
 62
     3
 10
185.911597251892
 20
577.790490722656
 30
0.0
 11
186.886596679688
 21
577.790490722656
 31
0.0
  0
LINE
  5
   798
  8
0
  6
DOT
 62
     3
 10
125.161597251892
 20
577.790490722656
 30
0.0
 11
126.136596679688
 21
577.790490722656
 31
0.0
  0
LINE
  5
   799
  8
0
  6
DOT
 62
     3
 10
186.886596679688
 20
577.790490722656
 30
0.0
 11
187.261596679688
 21
577.790490722656
 31
0.0
  0
LINE
  5
   79A
  8
0
  6
DOT
 62
     3
 10
185.536597251892
 20
577.790490722656
 30
0.0
 11
185.911597251892
 21
577.790490722656
 31
0.0
  0
LINE
  5
   79B
  8
0
  6
DOT
 62
     3
 10
126.136596679688
 20
577.790490722656
 30
0.0
 11
126.511596679688
 21
577.790490722656
 31
0.0
  0
LINE
  5
   79C
  8
0
  6
DOT
 62
     3
 10
127.486596107483
 20
577.790490722656
 30
0.0
 11
127.861596107483
 21
577.790490722656
 31
0.0
  0
LINE
  5
   79D
  8
0
  6
DOT
 62
     3
 10
122.949096679688
 20
506.090490722656
 30
0.0
 11
124.786597251892
 21
506.090490722656
 31
0.0
  0
LINE
  5
   79E
  8
0
  6
DOT
 62
     3
 10
188.611596107483
 20
506.090490722656
 30
0.0
 11
190.449096679688
 21
506.090490722656
 31
0.0
  0
LINE
  5
   79F
  8
0
  6
DOT
 62
     3
 10
124.786597251892
 20
506.090490722656
 30
0.0
 11
125.161597251892
 21
506.090490722656
 31
0.0
  0
LINE
  5
   7A0
  8
0
  6
DOT
 62
     3
 10
188.236596107483
 20
506.090490722656
 30
0.0
 11
188.611596107483
 21
506.090490722656
 31
0.0
  0
LINE
  5
   7A1
  8
0
  6
DOT
 62
     3
 10
185.911597251892
 20
506.090490722656
 30
0.0
 11
186.886596679688
 21
506.090490722656
 31
0.0
  0
LINE
  5
   7A2
  8
0
  6
DOT
 62
     3
 10
127.861596107483
 20
506.090490722656
 30
0.0
 11
185.536597251892
 21
506.090490722656
 31
0.0
  0
LINE
  5
   7A3
  8
0
  6
DOT
 62
     3
 10
125.161597251892
 20
506.090490722656
 30
0.0
 11
126.136596679688
 21
506.090490722656
 31
0.0
  0
LINE
  5
   7A4
  8
0
  6
DOT
 62
     3
 10
126.511596679688
 20
506.090490722656
 30
0.0
 11
127.486596107483
 21
506.090490722656
 31
0.0
  0
LINE
  5
   7A5
  8
0
  6
DOT
 62
     3
 10
187.261596679688
 20
506.090490722656
 30
0.0
 11
188.236596107483
 21
506.090490722656
 31
0.0
  0
LINE
  5
   7A6
  8
0
  6
DOT
 62
     3
 10
126.136596679688
 20
506.090490722656
 30
0.0
 11
126.511596679688
 21
506.090490722656
 31
0.0
  0
LINE
  5
   7A7
  8
0
  6
DOT
 62
     3
 10
127.486596107483
 20
506.090490722656
 30
0.0
 11
127.861596107483
 21
506.090490722656
 31
0.0
  0
LINE
  5
   7A8
  8
0
  6
DOT
 62
     3
 10
186.886596679688
 20
506.090490722656
 30
0.0
 11
187.261596679688
 21
506.090490722656
 31
0.0
  0
LINE
  5
   7A9
  8
0
  6
DOT
 62
     3
 10
185.536597251892
 20
506.090490722656
 30
0.0
 11
185.911597251892
 21
506.090490722656
 31
0.0
  0
LINE
  5
   7AA
  8
0
  6
DOT
 62
     3
 10
124.824096679688
 20
497.690490722656
 30
0.0
 11
188.574096679687
 21
497.690490722656
 31
0.0
  0
LINE
  5
   7AB
  8
0
  6
DOT
 62
     3
 10
124.074096679688
 20
497.690490722656
 30
0.0
 11
124.824096679688
 21
497.690490722656
 31
0.0
  0
LINE
  5
   7AC
  8
0
  6
DOT
 62
     3
 10
188.574096679687
 20
497.690490722656
 30
0.0
 11
189.324096679688
 21
497.690490722656
 31
0.0
  0
LINE
  5
   7AD
  8
0
  6
DOT
 62
     3
 10
124.824096679688
 20
586.190490722661
 30
0.0
 11
188.574096679687
 21
586.190490722661
 31
0.0
  0
LINE
  5
   7AE
  8
0
  6
DOT
 62
     3
 10
124.074096679688
 20
586.190490722661
 30
0.0
 11
124.824096679688
 21
586.190490722661
 31
0.0
  0
LINE
  5
   7AF
  8
0
  6
DOT
 62
     3
 10
188.574096679687
 20
586.190490722656
 30
0.0
 11
189.324096679688
 21
586.190490722656
 31
0.0
  0
LINE
  5
   7B0
  8
0
  6
DOT
 62
     3
 10
189.924096679732
 20
505.565490722656
 30
0.0
 11
189.924096679732
 21
506.090491294861
 31
0.0
  0
LINE
  5
   7B1
  8
0
  6
DOT
 62
     3
 10
189.924096679732
 20
577.790490150452
 30
0.0
 11
189.924096679732
 21
578.315490722656
 31
0.0
  0
LINE
  5
   7B2
  8
0
  6
DOT
 62
     3
 10
189.324096679732
 20
497.690490722656
 30
0.0
 11
189.324096679732
 21
505.565490722656
 31
0.0
  0
LINE
  5
   7B3
  8
0
  6
DOT
 62
     3
 10
124.074096679732
 20
497.690490722656
 30
0.0
 11
124.074096679732
 21
505.565490722656
 31
0.0
  0
LINE
  5
   7B4
  8
0
  6
DOT
 62
     3
 10
189.324096679732
 20
578.315490722656
 30
0.0
 11
189.324096679732
 21
586.190490722656
 31
0.0
  0
LINE
  5
   7B5
  8
0
  6
DOT
 62
     3
 10
124.074096679732
 20
578.315490722656
 30
0.0
 11
124.074096679732
 21
586.190490722656
 31
0.0
  0
LINE
  5
   7B6
  8
0
  6
DOT
 62
     3
 10
123.474096679732
 20
505.565490722656
 30
0.0
 11
123.474096679732
 21
506.090491294861
 31
0.0
  0
LINE
  5
   7B7
  8
0
  6
CONTINUOUS
 62
   252
 10
215.398361206055
 20
529.565490722656
 30
0.0
 11
215.412946425407
 21
529.564655859063
 31
0.0
  0
LINE
  5
   7B8
  8
0
  6
CONTINUOUS
 62
   252
 10
215.398361206055
 20
529.565490722656
 30
0.0
 11
215.398361206055
 21
546.815490722656
 31
0.0
  0
LINE
  5
   7B9
  8
0
  6
CONTINUOUS
 62
   252
 10
215.398361206055
 20
546.815490722656
 30
0.0
 11
215.410297969349
 21
546.816026971619
 31
0.0
  0
LINE
  5
   7BA
  8
0
  6
CONTINUOUS
 62
     1
 10
184.946013450623
 20
522.290490865707
 30
0.0
 11
184.946013450623
 21
528.065490722656
 31
0.0
  0
LINE
  5
   7BB
  8
0
  6
CONTINUOUS
 62
     1
 10
184.946013450623
 20
548.315490722656
 30
0.0
 11
184.946013450623
 21
553.340491294861
 31
0.0
  0
LINE
  5
   7BC
  8
0
  6
CONTINUOUS
 62
     1
 10
128.452179908752
 20
522.290490865707
 30
0.0
 11
128.452179908752
 21
553.340491294861
 31
0.0
  0
LINE
  5
   7BD
  8
0
  6
CONTINUOUS
 62
   212
 10
149.949096679688
 20
548.583255290985
 30
0.0
 11
163.449096679688
 21
548.583255290985
 31
0.0
  0
LINE
  5
   7BE
  8
0
  6
CONTINUOUS
 62
   212
 10
160.267093777657
 20
543.575015306473
 30
0.0
 11
163.449096679688
 21
543.575015306473
 31
0.0
  0
LINE
  5
   7BF
  8
0
  6
CONTINUOUS
 62
   212
 10
149.949096679688
 20
543.575015306473
 30
0.0
 11
153.941964447498
 21
543.575015306473
 31
0.0
  0
LINE
  5
   7C0
  8
0
  6
DASHDOT
 62
     7
 10
240.483114371447
 20
573.021369978705
 30
0.0
 11
246.422748711556
 21
573.021369978705
 31
0.0
  0
LINE
  5
   7C1
  8
0
  6
DASHDOT
 62
     7
 10
243.428387597282
 20
570.076096752869
 30
0.0
 11
243.428387597282
 21
575.966643204541
 31
0.0
  0
LINE
  5
   7C2
  8
0
  6
DASHDOT
 62
     7
 10
240.278391101989
 20
573.021365270457
 30
0.0
 11
246.630889414511
 21
573.021365270457
 31
0.0
  0
LINE
  5
   7C3
  8
0
  6
DASHDOT
 62
     7
 10
243.428390264512
 20
569.871366107934
 30
0.0
 11
243.428390264512
 21
576.171364432981
 31
0.0
  0
LINE
  5
   7C4
  8
0
  6
DASHDOT
 62
     7
 10
240.483114371447
 20
573.021369978705
 30
0.0
 11
246.422748711556
 21
573.021369978705
 31
0.0
  0
LINE
  5
   7C5
  8
0
  6
DASHDOT
 62
     7
 10
243.428387597282
 20
570.076096752869
 30
0.0
 11
243.428387597282
 21
575.966643204541
 31
0.0
  0
LINE
  5
   7C6
  8
0
  6
DASHDOT
 62
     7
 10
239.603390704322
 20
573.02136554113
 30
0.0
 11
247.317140727917
 21
573.02136554113
 31
0.0
  0
LINE
  5
   7C7
  8
0
  6
DASHDOT
 62
     7
 10
243.428390715159
 20
569.196365530294
 30
0.0
 11
243.428390715159
 21
576.846365551967
 31
0.0
  0
LINE
  5
   7C8
  8
0
  6
DASHDOT
 62
     7
 10
191.674525699299
 20
510.77136559388
 30
0.0
 11
197.614167777213
 21
510.77136559388
 31
0.0
  0
LINE
  5
   7C9
  8
0
  6
DASHDOT
 62
     7
 10
194.619802762063
 20
507.826088531116
 30
0.0
 11
194.619802762063
 21
513.716642656643
 31
0.0
  0
LINE
  5
   7CA
  8
0
  6
DASHDOT
 62
     7
 10
191.469802217517
 20
510.771365649779
 30
0.0
 11
197.822302978565
 21
510.771365649779
 31
0.0
  0
LINE
  5
   7CB
  8
0
  6
DASHDOT
 62
     7
 10
194.619802594185
 20
507.621365273111
 30
0.0
 11
194.619802594185
 21
513.921366026447
 31
0.0
  0
LINE
  5
   7CC
  8
0
  6
DASHDOT
 62
     7
 10
191.674525699299
 20
510.77136559388
 30
0.0
 11
197.614167777213
 21
510.77136559388
 31
0.0
  0
LINE
  5
   7CD
  8
0
  6
DASHDOT
 62
     7
 10
194.619802762063
 20
507.826088531116
 30
0.0
 11
194.619802762063
 21
513.716642656643
 31
0.0
  0
LINE
  5
   7CE
  8
0
  6
DASHDOT
 62
     7
 10
190.794802633604
 20
510.771365541073
 30
0.0
 11
198.508552654503
 21
510.771365541073
 31
0.0
  0
LINE
  5
   7CF
  8
0
  6
DASHDOT
 62
     7
 10
194.619802643104
 20
506.946365531574
 30
0.0
 11
194.619802643104
 21
514.596365550573
 31
0.0
  0
LINE
  5
   7D0
  8
0
  6
DASHDOT
 62
     7
 10
190.824096670188
 20
510.808865541073
 30
0.0
 11
198.537846691087
 21
510.808865541073
 31
0.0
  0
LINE
  5
   7D1
  8
0
  6
DASHDOT
 62
     7
 10
194.649096679688
 20
506.983865531573
 30
0.0
 11
194.649096679688
 21
514.633865550573
 31
0.0
  0
LINE
  5
   7D2
  8
0
  6
DASHDOT
 62
     7
 10
239.574096670189
 20
573.058865541072
 30
0.0
 11
247.287846691086
 21
573.058865541072
 31
0.0
  0
LINE
  5
   7D3
  8
0
  6
DASHDOT
 62
     7
 10
243.399096679688
 20
569.233865531574
 30
0.0
 11
243.399096679688
 21
576.883865550571
 31
0.0
  0
LINE
  5
   7D4
  8
0
  6
DASHDOT
 62
     7
 10
131.274084783664
 20
518.315486657018
 30
0.0
 11
137.172834799646
 21
518.315486657018
 31
0.0
  0
LINE
  5
   7D5
  8
0
  6
DASHDOT
 62
     7
 10
134.199084790929
 20
515.390486649753
 30
0.0
 11
134.199084790929
 21
521.240486664282
 31
0.0
  0
LINE
  5
   7D6
  8
0
  6
DASHDOT
 62
     7
 10
156.699096679688
 20
484.370607486886
 30
0.0
 11
156.699096679688
 21
602.145025801508
 31
0.0
  0
LINE
  5
   7D7
  8
0
  6
DASHDOT
 62
     7
 10
91.9589292612397
 20
541.940490722656
 30
0.0
 11
256.630942365285
 21
541.940490722656
 31
0.0
  0
LINE
  5
   7D8
  8
0
  6
DASHDOT
 62
     7
 10
155.664096677117
 20
588.440490722661
 30
0.0
 11
157.751346682772
 21
588.440490722661
 31
0.0
  0
LINE
  5
   7D9
  8
0
  6
DASHDOT
 62
     7
 10
156.699096679688
 20
587.405490720091
 30
0.0
 11
156.699096679688
 21
589.475490725232
 31
0.0
  0
LINE
  5
   7DA
  8
0
  6
DASHDOT
 62
     7
 10
143.559096674994
 20
582.065490722661
 30
0.0
 11
147.37059668532
 21
582.065490722661
 31
0.0
  0
LINE
  5
   7DB
  8
0
  6
DASHDOT
 62
     7
 10
145.449096679688
 20
580.175490717967
 30
0.0
 11
145.449096679688
 21
583.955490727355
 31
0.0
  0
LINE
  5
   7DC
  8
0
  6
DASHDOT
 62
     7
 10
166.059096674994
 20
582.065490722661
 30
0.0
 11
169.87059668532
 21
582.065490722661
 31
0.0
  0
LINE
  5
   7DD
  8
0
  6
DASHDOT
 62
     7
 10
167.949096679688
 20
580.175490717967
 30
0.0
 11
167.949096679688
 21
583.955490727355
 31
0.0
  0
LINE
  5
   7DE
  8
0
  6
DASHDOT
 62
     7
 10
166.059084786236
 20
501.815486657018
 30
0.0
 11
169.870584796561
 21
501.815486657018
 31
0.0
  0
LINE
  5
   7DF
  8
0
  6
DASHDOT
 62
     7
 10
167.949084790929
 20
499.925486652325
 30
0.0
 11
167.949084790929
 21
503.705486661711
 31
0.0
  0
LINE
  5
   7E0
  8
0
  6
DASHDOT
 62
     7
 10
143.559084879548
 20
501.815486579301
 30
0.0
 11
147.3705847018
 21
501.815486579301
 31
0.0
  0
LINE
  5
   7E1
  8
0
  6
DASHDOT
 62
     7
 10
145.449084790982
 20
499.925486667867
 30
0.0
 11
145.449084790982
 21
503.705486490735
 31
0.0
  0
LINE
  5
   7E2
  8
0
  6
DASHDOT
 62
     7
 10
166.059096444147
 20
501.815486398124
 30
0.0
 11
169.870596454474
 21
501.815486398124
 31
0.0
  0
LINE
  5
   7E3
  8
0
  6
DASHDOT
 62
     7
 10
167.949096448841
 20
499.92548639343
 30
0.0
 11
167.949096448841
 21
503.705486402818
 31
0.0
  0
LINE
  5
   7E4
  8
0
  6
DASHDOT
 62
     7
 10
155.664096409594
 20
495.440486462848
 30
0.0
 11
157.751346415249
 21
495.440486462848
 31
0.0
  0
LINE
  5
   7E5
  8
0
  6
DASHDOT
 62
     7
 10
156.699096412165
 20
494.405486460277
 30
0.0
 11
156.699096412165
 21
496.475486465418
 31
0.0
  0
LINE
  5
   7E6
  8
0
  6
DASHDOT
 62
     7
 10
143.559096444147
 20
501.815486527571
 30
0.0
 11
147.370596454474
 21
501.815486527571
 31
0.0
  0
LINE
  5
   7E7
  8
0
  6
DASHDOT
 62
     7
 10
145.449096448841
 20
499.925486522877
 30
0.0
 11
145.449096448841
 21
503.705486532265
 31
0.0
  0
LINE
  5
   7E8
  8
0
  6
DASHDOT
 62
     7
 10
164.124100311328
 20
501.815489434396
 30
0.0
 11
171.83789383603
 21
501.815489434396
 31
0.0
  0
LINE
  5
   7E9
  8
0
  6
DASHDOT
 62
     7
 10
167.949121892961
 20
497.990467852763
 30
0.0
 11
167.949121892961
 21
505.640511016029
 31
0.0
  0
LINE
  5
   7EA
  8
0
  6
DASHDOT
 62
     7
 10
143.559096674994
 20
501.815490722656
 30
0.0
 11
147.37059668532
 21
501.815490722656
 31
0.0
  0
LINE
  5
   7EB
  8
0
  6
DASHDOT
 62
     7
 10
145.449096679687
 20
499.925490717962
 30
0.0
 11
145.449096679687
 21
503.70549072735
 31
0.0
  0
LINE
  5
   7EC
  8
0
  6
DASHDOT
 62
     7
 10
143.559096674994
 20
501.815490722656
 30
0.0
 11
147.37059668532
 21
501.815490722656
 31
0.0
  0
LINE
  5
   7ED
  8
0
  6
DASHDOT
 62
     7
 10
145.449096679687
 20
499.925490717962
 30
0.0
 11
145.449096679687
 21
503.70549072735
 31
0.0
  0
LINE
  5
   7EE
  8
0
  6
DASHDOT
 62
     7
 10
141.399096669629
 20
501.815490722656
 30
0.0
 11
149.566596691757
 21
501.815490722656
 31
0.0
  0
LINE
  5
   7EF
  8
0
  6
DASHDOT
 62
     7
 10
145.449096679688
 20
497.765490712598
 30
0.0
 11
145.449096679688
 21
505.865490732714
 31
0.0
  0
LINE
  5
   7F0
  8
0
  6
DASHDOT
 62
     7
 10
166.059096674994
 20
582.065490722656
 30
0.0
 11
169.87059668532
 21
582.065490722656
 31
0.0
  0
LINE
  5
   7F1
  8
0
  6
DASHDOT
 62
     7
 10
167.949096679687
 20
580.175490717963
 30
0.0
 11
167.949096679687
 21
583.95549072735
 31
0.0
  0
LINE
  5
   7F2
  8
0
  6
DASHDOT
 62
     7
 10
166.059096674994
 20
582.065490722656
 30
0.0
 11
169.87059668532
 21
582.065490722656
 31
0.0
  0
LINE
  5
   7F3
  8
0
  6
DASHDOT
 62
     7
 10
167.949096679687
 20
580.175490717963
 30
0.0
 11
167.949096679687
 21
583.95549072735
 31
0.0
  0
LINE
  5
   7F4
  8
0
  6
DASHDOT
 62
     7
 10
163.899096669629
 20
582.065490722656
 30
0.0
 11
172.066596691757
 21
582.065490722656
 31
0.0
  0
LINE
  5
   7F5
  8
0
  6
DASHDOT
 62
     7
 10
167.949096679688
 20
578.015490712598
 30
0.0
 11
167.949096679688
 21
586.115490732715
 31
0.0
  0
LINE
  5
   7F6
  8
0
  6
DASHDOT
 62
     7
 10
131.274096672423
 20
581.877990722661
 30
0.0
 11
137.172846688404
 21
581.877990722661
 31
0.0
  0
LINE
  5
   7F7
  8
0
  6
DASHDOT
 62
     7
 10
134.199096679687
 20
578.952990715397
 30
0.0
 11
134.199096679687
 21
584.802990729925
 31
0.0
  0
LINE
  5
   7F8
  8
0
  6
DASHDOT
 62
     7
 10
131.274096672423
 20
502.002990722651
 30
0.0
 11
137.172846688405
 21
502.002990722651
 31
0.0
  0
LINE
  5
   7F9
  8
0
  6
DASHDOT
 62
     7
 10
134.199096679688
 20
499.077990715387
 30
0.0
 11
134.199096679688
 21
504.927990729915
 31
0.0
  0
LINE
  5
   7FA
  8
0
  6
DASHDOT
 62
     7
 10
141.624096670188
 20
582.065490722661
 30
0.0
 11
149.337846691087
 21
582.065490722661
 31
0.0
  0
LINE
  5
   7FB
  8
0
  6
DASHDOT
 62
     7
 10
145.449096679687
 20
578.240490713162
 30
0.0
 11
145.449096679687
 21
585.890490732161
 31
0.0
  0
LINE
  5
   7FC
  8
0
  6
DASHDOT
 62
     7
 10
164.124096670188
 20
501.815490722651
 30
0.0
 11
171.837846691087
 21
501.815490722651
 31
0.0
  0
LINE
  5
   7FD
  8
0
  6
DASHDOT
 62
     7
 10
167.949096679687
 20
497.990490713152
 30
0.0
 11
167.949096679687
 21
505.640490732151
 31
0.0
  0
LINE
  5
   7FE
  8
0
  6
DASHDOT
 62
     7
 10
153.774096672423
 20
502.002990722651
 30
0.0
 11
159.672846688405
 21
502.002990722651
 31
0.0
  0
LINE
  5
   7FF
  8
0
  6
DASHDOT
 62
     7
 10
156.699096679687
 20
499.077990715387
 30
0.0
 11
156.699096679687
 21
504.927990729916
 31
0.0
  0
LINE
  5
   800
  8
0
  6
DASHDOT
 62
     7
 10
176.274096672423
 20
502.002990722651
 30
0.0
 11
182.172846688405
 21
502.002990722651
 31
0.0
  0
LINE
  5
   801
  8
0
  6
DASHDOT
 62
     7
 10
179.199096679688
 20
499.077990715387
 30
0.0
 11
179.199096679688
 21
504.927990729915
 31
0.0
  0
LINE
  5
   802
  8
0
  6
DASHDOT
 62
     7
 10
153.774096672423
 20
581.877990722661
 30
0.0
 11
159.672846688405
 21
581.877990722661
 31
0.0
  0
LINE
  5
   803
  8
0
  6
DASHDOT
 62
     7
 10
156.699096679688
 20
578.952990715397
 30
0.0
 11
156.699096679688
 21
584.802990729925
 31
0.0
  0
LINE
  5
   804
  8
0
  6
DASHDOT
 62
     7
 10
176.274096672424
 20
581.877990722661
 30
0.0
 11
182.172846688405
 21
581.877990722661
 31
0.0
  0
LINE
  5
   805
  8
0
  6
DASHDOT
 62
     7
 10
179.199096679688
 20
578.952990715397
 30
0.0
 11
179.199096679688
 21
584.802990729925
 31
0.0
  0
LINE
  5
   806
  8
0
  6
CONTINUOUS
 62
     7
 10
119.199096679732
 20
488.633742137001
 30
0.0
 11
119.199096679732
 21
595.410446424423
 31
0.0
  0
ARC
  5
   807
  8
0
  6
DOT
 62
     3
 10
102.324089333424
 20
589.940498068925
 30
0.0
 40
0.749999999999827
 50
89.999438781328
 51
180.000561219001
  0
LINE
  5
   808
  8
0
  6
DOT
 62
     3
 10
100.449096679688
 20
579.702989578247
 30
0.0
 11
100.449096679688
 21
586.190490722656
 31
0.0
  0
LINE
  5
   809
  8
0
  6
DOT
 62
     3
 10
102.324096679688
 20
590.690490722661
 30
0.0
 11
119.199096679732
 21
590.690490722661
 31
0.0
  0
LINE
  5
   80A
  8
0
  6
DOT
 62
     3
 10
101.574096679688
 20
589.190490722661
 30
0.0
 11
102.324096679688
 21
589.190490722661
 31
0.0
  0
LINE
  5
   80B
  8
0
  6
DOT
 62
     3
 10
102.324096679688
 20
589.190490722661
 30
0.0
 11
102.699096679688
 21
589.190490722661
 31
0.0
  0
LINE
  5
   80C
  8
0
  6
DOT
 62
     3
 10
102.699096679688
 20
586.940490722656
 30
0.0
 11
102.699096679688
 21
589.190490722656
 31
0.0
  0
LINE
  5
   80D
  8
0
  6
DOT
 62
     3
 10
101.574096679688
 20
586.940490722661
 30
0.0
 11
102.324096679688
 21
586.940490722661
 31
0.0
  0
LINE
  5
   80E
  8
0
  6
DOT
 62
     3
 10
102.324096679688
 20
586.940490722661
 30
0.0
 11
102.699096679688
 21
586.940490722661
 31
0.0
  0
LINE
  5
   80F
  8
0
  6
DOT
 62
     3
 10
100.449096679688
 20
586.190490722661
 30
0.0
 11
101.574096679688
 21
586.190490722661
 31
0.0
  0
LINE
  5
   810
  8
0
  6
DOT
 62
     3
 10
101.574096679688
 20
586.190490722661
 30
0.0
 11
102.324096679688
 21
586.190490722661
 31
0.0
  0
LINE
  5
   811
  8
0
  6
DOT
 62
     3
 10
101.574096679688
 20
586.190490722656
 30
0.0
 11
101.574096679688
 21
586.940490722656
 31
0.0
  0
LINE
  5
   812
  8
0
  6
DOT
 62
     3
 10
101.574096679688
 20
589.190490722656
 30
0.0
 11
101.574096679688
 21
589.940490722656
 31
0.0
  0
ARC
  5
   813
  8
0
  6
DOT
 62
     3
 10
102.324089452079
 20
493.940479299964
 30
0.0
 40
0.749999999999785
 50
179.999345930253
 51
270.000552154895
  0
LINE
  5
   814
  8
0
  6
DOT
 62
     3
 10
101.574096679688
 20
494.69048664623
 30
0.0
 11
102.324096679688
 21
494.69048664623
 31
0.0
  0
LINE
  5
   815
  8
0
  6
DOT
 62
     3
 10
101.574096679688
 20
496.94048664623
 30
0.0
 11
102.324096679688
 21
496.94048664623
 31
0.0
  0
LINE
  5
   816
  8
0
  6
DOT
 62
     3
 10
102.324096679688
 20
493.190486462848
 30
0.0
 11
119.199096679732
 21
493.190486462848
 31
0.0
  0
LINE
  5
   817
  8
0
  6
DOT
 62
     3
 10
100.449085235596
 20
497.690486653782
 30
0.0
 11
101.574096679688
 21
497.690486653782
 31
0.0
  0
LINE
  5
   818
  8
0
  6
DOT
 62
     3
 10
101.574096798347
 20
493.940487861633
 30
0.0
 11
101.574096798347
 21
494.690487861633
 31
0.0
  0
LINE
  5
   819
  8
0
  6
DOT
 62
     3
 10
101.574096798347
 20
496.940487861633
 30
0.0
 11
101.574096798347
 21
497.690487861633
 31
0.0
  0
LINE
  5
   81A
  8
0
  6
DOT
 62
     3
 10
101.574096679688
 20
497.690486653782
 30
0.0
 11
102.324096679688
 21
497.690486653782
 31
0.0
  0
LINE
  5
   81B
  8
0
  6
DOT
 62
     3
 10
102.699085235596
 20
497.690486653782
 30
0.0
 11
102.935445785522
 21
497.690486653782
 31
0.0
  0
LINE
  5
   81C
  8
0
  6
DOT
 62
     3
 10
102.69909640785
 20
494.690487861633
 30
0.0
 11
102.69909640785
 21
496.940487861633
 31
0.0
  0
LINE
  5
   81D
  8
0
  6
DOT
 62
     3
 10
102.324096679688
 20
494.690486462848
 30
0.0
 11
102.699096679688
 21
494.690486462848
 31
0.0
  0
LINE
  5
   81E
  8
0
  6
DOT
 62
     3
 10
102.324096679688
 20
496.940486462848
 30
0.0
 11
102.699096679688
 21
496.940486462848
 31
0.0
  0
LINE
  5
   81F
  8
0
  6
DOT
 62
     3
 10
100.974096679732
 20
577.790490150452
 30
0.0
 11
100.974096679732
 21
578.315490722656
 31
0.0
  0
LINE
  5
   820
  8
0
  6
DOT
 62
     3
 10
100.974097251892
 20
578.315490722656
 30
0.0
 11
103.224097251892
 21
578.315490722656
 31
0.0
  0
LINE
  5
   821
  8
0
  6
DOT
 62
     3
 10
103.224097251892
 20
578.315490722656
 30
0.0
 11
114.416129024748
 21
578.315490722656
 31
0.0
  0
LINE
  5
   822
  8
0
  6
DOT
 62
     3
 10
100.974097251892
 20
505.565490722656
 30
0.0
 11
103.224097251892
 21
505.565490722656
 31
0.0
  0
LINE
  5
   823
  8
0
  6
DOT
 62
     3
 10
103.224097251892
 20
505.565490722656
 30
0.0
 11
114.990304866976
 21
505.565490722656
 31
0.0
  0
ARC
  5
   824
  8
0
  6
DOT
 62
     3
 10
111.699063384973
 20
581.877990722661
 30
0.0
 40
2.43752121219497
 50
17.9997249125241
 51
89.9989819969239
  0
CIRCLE
  5
   825
  8
0
  6
DOT
 62
     3
 10
111.699129974402
 20
581.877990722661
 30
0.0
 40
2.43752121219467
  0
ARC
  5
   826
  8
0
  6
DOT
 62
     3
 10
111.699096679687
 20
581.877990722662
 30
0.0
 40
2.43750000000111
 50
305.987326377815
 51
342.016110303983
  0
ARC
  5
   827
  8
0
  6
DOT
 62
     3
 10
111.699096679687
 20
581.877990722661
 30
0.0
 40
2.43749999999984
 50
125.987366199816
 51
162.016120780897
  0
CIRCLE
  5
   828
  8
0
  6
DOT
 62
     3
 10
111.699129974402
 20
502.002990722651
 30
0.0
 40
2.43752121219464
  0
LINE
  5
   829
  8
0
  6
DOT
 62
     3
 10
100.449096679688
 20
577.790490722656
 30
0.0
 11
102.286597251892
 21
577.790490722656
 31
0.0
  0
LINE
  5
   82A
  8
0
  6
DOT
 62
     3
 10
102.286597251892
 20
577.790490722656
 30
0.0
 11
102.661597251892
 21
577.790490722656
 31
0.0
  0
LINE
  5
   82B
  8
0
  6
DOT
 62
     3
 10
104.011596679688
 20
577.790490722656
 30
0.0
 11
104.986596107483
 21
577.790490722656
 31
0.0
  0
LINE
  5
   82C
  8
0
  6
DOT
 62
     3
 10
102.661597251892
 20
577.790490722656
 30
0.0
 11
103.636596679688
 21
577.790490722656
 31
0.0
  0
LINE
  5
   82D
  8
0
  6
DOT
 62
     3
 10
103.636596679688
 20
577.790490722656
 30
0.0
 11
104.011596679688
 21
577.790490722656
 31
0.0
  0
LINE
  5
   82E
  8
0
  6
DOT
 62
     3
 10
104.986596107483
 20
577.790490722656
 30
0.0
 11
105.361596107483
 21
577.790490722656
 31
0.0
  0
LINE
  5
   82F
  8
0
  6
DOT
 62
     3
 10
100.449096679688
 20
506.090490722656
 30
0.0
 11
102.286597251892
 21
506.090490722656
 31
0.0
  0
LINE
  5
   830
  8
0
  6
DOT
 62
     3
 10
102.286597251892
 20
506.090490722656
 30
0.0
 11
102.661597251892
 21
506.090490722656
 31
0.0
  0
LINE
  5
   831
  8
0
  6
DOT
 62
     3
 10
104.011596679688
 20
506.090490722656
 30
0.0
 11
104.986596107483
 21
506.090490722656
 31
0.0
  0
LINE
  5
   832
  8
0
  6
DOT
 62
     3
 10
104.986596107483
 20
506.090490722656
 30
0.0
 11
105.361596107483
 21
506.090490722656
 31
0.0
  0
LINE
  5
   833
  8
0
  6
DOT
 62
     3
 10
102.324096679688
 20
497.690490722656
 30
0.0
 11
119.199096679732
 21
497.690490722656
 31
0.0
  0
LINE
  5
   834
  8
0
  6
DOT
 62
     3
 10
101.574096679688
 20
497.690490722656
 30
0.0
 11
102.324096679688
 21
497.690490722656
 31
0.0
  0
LINE
  5
   835
  8
0
  6
DOT
 62
     3
 10
102.324096679688
 20
586.190490722661
 30
0.0
 11
119.199096679732
 21
586.190490722661
 31
0.0
  0
LINE
  5
   836
  8
0
  6
DOT
 62
     3
 10
101.574096679688
 20
586.190490722661
 30
0.0
 11
102.324096679688
 21
586.190490722661
 31
0.0
  0
LINE
  5
   837
  8
0
  6
DOT
 62
     3
 10
101.574096679732
 20
497.690490722656
 30
0.0
 11
101.574096679732
 21
505.565490722656
 31
0.0
  0
LINE
  5
   838
  8
0
  6
DOT
 62
     3
 10
101.574096679732
 20
578.315490722656
 30
0.0
 11
101.574096679732
 21
586.190490722656
 31
0.0
  0
LINE
  5
   839
  8
0
  6
DOT
 62
     3
 10
100.974096679732
 20
505.565490722656
 30
0.0
 11
100.974096679732
 21
506.090491294861
 31
0.0
  0
LINE
  5
   83A
  8
0
  6
DASHDOT
 62
     7
 10
108.774096672423
 20
581.877990722661
 30
0.0
 11
114.672846688404
 21
581.877990722661
 31
0.0
  0
LINE
  5
   83B
  8
0
  6
DASHDOT
 62
     7
 10
111.699096679687
 20
578.952990715397
 30
0.0
 11
111.699096679687
 21
584.802990729925
 31
0.0
  0
LINE
  5
   83C
  8
0
  6
DASHDOT
 62
     7
 10
108.774096672423
 20
502.002990722651
 30
0.0
 11
114.672846688405
 21
502.002990722651
 31
0.0
  0
LINE
  5
   83D
  8
0
  6
DASHDOT
 62
     7
 10
111.699096679688
 20
499.077990715387
 30
0.0
 11
111.699096679688
 21
504.927990729915
 31
0.0
  0
INSERT
  5
   83E
  8
0
  6
CONTINUOUS
 62
     7
  2
*HATCH1159
 10
0.0
 20
0.0
 30
0.0
  0
INSERT
  5
   83F
  8
0
  6
CONTINUOUS
 62
     7
  2
*HATCH1160
 10
0.0
 20
0.0
 30
0.0
  0
INSERT
  5
   840
  8
0
  6
CONTINUOUS
 62
     7
  2
*HATCH1161
 10
0.0
 20
0.0
 30
0.0
  0
INSERT
  5
   841
  8
0
  6
CONTINUOUS
 62
     7
  2
*UDIM1338
 10
0.0
 20
0.0
 30
0.0
  0
INSERT
  5
   842
  8
0
  6
CONTINUOUS
 62
     7
  2
*UDIM1339
 10
0.0
 20
0.0
 30
0.0
  0
INSERT
  5
   843
  8
0
  6
CONTINUOUS
 62
     7
  2
*UDIM1340
 10
0.0
 20
0.0
 30
0.0
  0
INSERT
  5
   844
  8
0
  6
CONTINUOUS
 62
     7
  2
*UDIM1341
 10
0.0
 20
0.0
 30
0.0
  0
INSERT
  5
   845
  8
0
  6
CONTINUOUS
 62
     7
  2
*UDIM1342
 10
0.0
 20
0.0
 30
0.0
  0
INSERT
  5
   846
  8
0
  6
CONTINUOUS
 62
     7
  2
*UDIM1343
 10
0.0
 20
0.0
 30
0.0
  0
INSERT
  5
   847
  8
0
  6
CONTINUOUS
 62
     7
  2
*UDIM1344
 10
0.0
 20
0.0
 30
0.0
  0
INSERT
  5
   848
  8
0
  6
CONTINUOUS
 62
     7
  2
*UDIM1345
 10
0.0
 20
0.0
 30
0.0
  0
LINE
  5
   849
  8
0
  6
DASHDOT
 62
     7
 10
263.994844304895
 20
541.940490722656
 30
0.0
 11
358.207584426329
 21
541.940490722656
 31
0.0
  0
LINE
  5
   84A
  8
0
  6
CONTINUOUS
 62
     3
 10
338.322360038757
 20
536.906550884247
 30
0.0
 11
340.572357177734
 21
536.906550884247
 31
0.0
  0
LINE
  5
   84B
  8
0
  6
CONTINUOUS
 62
   253
 10
348.057806015015
 20
529.190490722656
 30
0.0
 11
348.059185028076
 21
547.190490722656
 31
0.0
  0
LINE
  5
   84C
  8
0
  6
CONTINUOUS
 62
     3
 10
338.322360038757
 20
531.091000050306
 30
0.0
 11
340.572357177734
 21
531.097821444273
 31
0.0
  0
LINE
  5
   84D
  8
0
  6
CONTINUOUS
 62
     2
 10
325.949465751648
 20
592.09001159668
 30
0.0
 11
326.104796409607
 21
591.970821380615
 31
0.0
  0
LINE
  5
   84E
  8
0
  6
CONTINUOUS
 62
     2
 10
325.949465751648
 20
491.790972709656
 30
0.0
 11
326.104796409607
 21
491.910160064697
 31
0.0
  0
LINE
  5
   84F
  8
0
  6
CONTINUOUS
 62
     2
 10
326.104796409607
 20
491.910160064697
 30
0.0
 11
326.322975158691
 21
492.429633140564
 31
0.0
  0
LINE
  5
   850
  8
0
  6
CONTINUOUS
 62
    98
 10
325.925164222717
 20
505.565490722656
 30
0.0
 11
325.925164222717
 21
506.090491294861
 31
0.0
  0
LINE
  5
   851
  8
0
  6
CONTINUOUS
 62
    98
 10
335.733772277832
 20
553.490490436554
 30
0.0
 11
335.733772277832
 21
553.565490722656
 31
0.0
  0
LINE
  5
   852
  8
0
  6
CONTINUOUS
 62
    98
 10
325.925164222717
 20
577.790490150452
 30
0.0
 11
325.925164222717
 21
578.315490722656
 31
0.0
  0
LINE
  5
   853
  8
0
  6
CONTINUOUS
 62
    98
 10
335.733946800232
 20
522.065490722656
 30
0.0
 11
335.733946800232
 21
522.140491008759
 31
0.0
  0
ARC
  5
   854
  8
0
  6
CONTINUOUS
 62
     1
 10
335.924466336233
 20
522.290489253402
 30
0.0
 40
0.149999999998754
 50
269.999558133837
 51
360.000615857327
  0
ARC
  5
   855
  8
0
  6
CONTINUOUS
 62
     1
 10
335.92446486686
 20
553.340490722538
 30
0.0
 40
0.149999999999193
 50
2.18611050606637E-4
 51
90.0075304280138
  0
LINE
  5
   856
  8
0
  6
CONTINUOUS
 62
     2
 10
335.65616373992
 20
522.065490970566
 30
0.0
 11
335.699465212032
 21
522.140491320306
 31
0.0
  0
LINE
  5
   857
  8
0
  6
CONTINUOUS
 62
     2
 10
332.324464866978
 20
522.290490865707
 30
0.0
 11
332.324464866978
 21
553.340491294861
 31
0.0
  0
LINE
  5
   858
  8
0
  6
CONTINUOUS
 62
     1
 10
334.199464866979
 20
553.490490722656
 30
0.0
 11
335.924445152283
 21
553.490490722656
 31
0.0
  0
LINE
  5
   859
  8
0
  6
CONTINUOUS
 62
     1
 10
332.324465751648
 20
553.490490722656
 30
0.0
 11
332.699464866979
 21
553.490490722656
 31
0.0
  0
LINE
  5
   85A
  8
0
  6
CONTINUOUS
 62
     1
 10
336.074464866978
 20
522.290490865707
 30
0.0
 11
336.074464866978
 21
553.340491294861
 31
0.0
  0
LINE
  5
   85B
  8
0
  6
CONTINUOUS
 62
     2
 10
334.949464866978
 20
522.065490722656
 30
0.0
 11
334.949464866978
 21
522.140491008759
 31
0.0
  0
LINE
  5
   85C
  8
0
  6
CONTINUOUS
 62
     2
 10
324.074465751648
 20
577.790490722656
 30
0.0
 11
326.324465751648
 21
577.790490722656
 31
0.0
  0
LINE
  5
   85D
  8
0
  6
CONTINUOUS
 62
     2
 10
326.324465867371
 20
554.690490722656
 30
0.0
 11
326.324465867371
 21
577.790490150452
 31
0.0
  0
LINE
  5
   85E
  8
0
  6
CONTINUOUS
 62
     2
 10
325.799465867371
 20
577.790490150452
 30
0.0
 11
325.799465867371
 21
578.315490722656
 31
0.0
  0
LINE
  5
   85F
  8
0
  6
CONTINUOUS
 62
     2
 10
324.074465751648
 20
506.090490722656
 30
0.0
 11
326.324465751648
 21
506.090490722656
 31
0.0
  0
LINE
  5
   860
  8
0
  6
CONTINUOUS
 62
     2
 10
326.324465867371
 20
506.090491294861
 30
0.0
 11
326.324465867371
 21
520.940490722656
 31
0.0
  0
LINE
  5
   861
  8
0
  6
CONTINUOUS
 62
     2
 10
325.799465867371
 20
505.565490722656
 30
0.0
 11
325.799465867371
 21
506.090491294861
 31
0.0
  0
LINE
  5
   862
  8
0
  6
CONTINUOUS
 62
     2
 10
336.074464866978
 20
520.940490722656
 30
0.0
 11
336.074464866978
 21
522.065490722656
 31
0.0
  0
LINE
  5
   863
  8
0
  6
CONTINUOUS
 62
     2
 10
334.199464866979
 20
520.940490722657
 30
0.0
 11
336.074465751648
 21
520.940490722657
 31
0.0
  0
LINE
  5
   864
  8
0
  6
CONTINUOUS
 62
     2
 10
334.199464866979
 20
522.065490722657
 30
0.0
 11
336.074465751648
 21
522.065490722657
 31
0.0
  0
LINE
  5
   865
  8
0
  6
CONTINUOUS
 62
     2
 10
336.074464866978
 20
553.565490722656
 30
0.0
 11
336.074464866978
 21
554.690490722656
 31
0.0
  0
LINE
  5
   866
  8
0
  6
CONTINUOUS
 62
     2
 10
334.199464866979
 20
553.565490722657
 30
0.0
 11
336.074465751648
 21
553.565490722657
 31
0.0
  0
LINE
  5
   867
  8
0
  6
CONTINUOUS
 62
     2
 10
334.199464866979
 20
554.690490722656
 30
0.0
 11
336.074465751648
 21
554.690490722656
 31
0.0
  0
LINE
  5
   868
  8
0
  6
CONTINUOUS
 62
     2
 10
334.799464866976
 20
553.490490436554
 30
0.0
 11
334.799464866976
 21
553.565490722656
 31
0.0
  0
LINE
  5
   869
  8
0
  6
CONTINUOUS
 62
     2
 10
334.799464866976
 20
522.065490722656
 30
0.0
 11
334.799464866976
 21
522.140491008759
 31
0.0
  0
LINE
  5
   86A
  8
0
  6
CONTINUOUS
 62
     2
 10
320.849466323853
 20
506.090490722656
 30
0.0
 11
324.074465751648
 21
506.090490722656
 31
0.0
  0
LINE
  5
   86B
  8
0
  6
CONTINUOUS
 62
     2
 10
320.849466323853
 20
577.790490722656
 30
0.0
 11
324.074465751648
 21
577.790490722656
 31
0.0
  0
LINE
  5
   86C
  8
0
  6
CONTINUOUS
 62
     2
 10
320.849465867371
 20
572.690490722656
 30
0.0
 11
320.849465867371
 21
576.440490722656
 31
0.0
  0
LINE
  5
   86D
  8
0
  6
CONTINUOUS
 62
     2
 10
324.074465751648
 20
554.690490722657
 30
0.0
 11
330.824465751648
 21
554.690490722657
 31
0.0
  0
LINE
  5
   86E
  8
0
  6
CONTINUOUS
 62
     2
 10
330.824465751648
 20
554.690490722657
 30
0.0
 11
332.324465751648
 21
554.690490722657
 31
0.0
  0
LINE
  5
   86F
  8
0
  6
CONTINUOUS
 62
     2
 10
324.074465751648
 20
520.940490722656
 30
0.0
 11
330.824465751648
 21
520.940490722656
 31
0.0
  0
LINE
  5
   870
  8
0
  6
CONTINUOUS
 62
     2
 10
330.824465751648
 20
520.940490722657
 30
0.0
 11
332.324465751648
 21
520.940490722657
 31
0.0
  0
LINE
  5
   871
  8
0
  6
CONTINUOUS
 62
     2
 10
332.324465751648
 20
520.940490722657
 30
0.0
 11
332.699464866979
 21
520.940490722657
 31
0.0
  0
LINE
  5
   872
  8
0
  6
CONTINUOUS
 62
     2
 10
332.324465751648
 20
522.065490722657
 30
0.0
 11
332.699464866979
 21
522.065490722657
 31
0.0
  0
LINE
  5
   873
  8
0
  6
CONTINUOUS
 62
     2
 10
332.324465751648
 20
553.565490722657
 30
0.0
 11
332.699464866979
 21
553.565490722657
 31
0.0
  0
LINE
  5
   874
  8
0
  6
CONTINUOUS
 62
     2
 10
332.324465751648
 20
554.690490722657
 30
0.0
 11
332.699464866979
 21
554.690490722657
 31
0.0
  0
LINE
  5
   875
  8
0
  6
CONTINUOUS
 62
     2
 10
332.324464866978
 20
522.065490722656
 30
0.0
 11
332.324464866978
 21
553.565490722656
 31
0.0
  0
LINE
  5
   876
  8
0
  6
CONTINUOUS
 62
     2
 10
320.326568603516
 20
578.315490722656
 30
0.0
 11
320.849466323853
 21
578.315490722656
 31
0.0
  0
LINE
  5
   877
  8
0
  6
CONTINUOUS
 62
     2
 10
320.326568603516
 20
505.565490722656
 30
0.0
 11
320.849466323853
 21
505.565490722656
 31
0.0
  0
LINE
  5
   878
  8
0
  6
CONTINUOUS
 62
     2
 10
320.849465867371
 20
506.090491294861
 30
0.0
 11
320.849465867371
 21
572.690490722656
 31
0.0
  0
LINE
  5
   879
  8
0
  6
CONTINUOUS
 62
     2
 10
320.849465867371
 20
576.440490722656
 30
0.0
 11
320.849465867371
 21
577.790490150452
 31
0.0
  0
LINE
  5
   87A
  8
0
  6
CONTINUOUS
 62
     2
 10
320.324465867371
 20
534.440490722656
 30
0.0
 11
320.324465867371
 21
543.815490722656
 31
0.0
  0
LINE
  5
   87B
  8
0
  6
CONTINUOUS
 62
     7
 10
339.858563545948
 20
545.634780482156
 30
0.0
 11
346.401027581501
 21
547.635012470165
 31
0.0
  0
LINE
  5
   87C
  8
0
  6
CONTINUOUS
 62
     7
 10
336.074465700239
 20
550.964489225017
 30
0.0
 11
338.611094395174
 21
551.503666298646
 31
0.0
  0
LINE
  5
   87D
  8
0
  6
CONTINUOUS
 62
     7
 10
336.074465771923
 20
544.830445671063
 30
0.0
 11
339.858563509986
 21
545.63478047529
 31
0.0
  0
LINE
  5
   87E
  8
0
  6
CONTINUOUS
 62
     7
 10
339.670599913637
 20
546.36158227305
 30
0.0
 11
339.858557693107
 21
545.634779401946
 31
0.0
  0
ARC
  5
   87F
  8
0
  6
CONTINUOUS
 62
     7
 10
345.492908033191
 20
551.5930232307
 30
0.0
 40
0.750000000000003
 50
11.9993863701995
 51
97.0005011880964
  0
ARC
  5
   880
  8
0
  6
CONTINUOUS
 62
     7
 10
346.18174851634
 20
548.352240949857
 30
0.0
 40
0.749999999999424
 50
287.000022888759
 51
372.000008871018
  0
LINE
  5
   881
  8
0
  6
CONTINUOUS
 62
     7
 10
338.611094439006
 20
551.503666215531
 30
0.0
 11
345.401500593528
 21
552.337423253566
 31
0.0
  0
LINE
  5
   882
  8
0
  6
CONTINUOUS
 62
     7
 10
338.611089530476
 20
551.503665096652
 30
0.0
 11
338.734996730527
 21
550.76324747903
 31
0.0
  0
LINE
  5
   883
  8
0
  6
CONTINUOUS
 62
     7
 10
346.226511739935
 20
551.748947300496
 30
0.0
 11
346.915359193074
 21
548.508174831624
 31
0.0
  0
LINE
  5
   884
  8
0
  6
CONTINUOUS
 62
     3
 10
320.326568603516
 20
555.065490722656
 30
0.0
 11
320.849466323853
 21
555.065490722656
 31
0.0
  0
LINE
  5
   885
  8
0
  6
CONTINUOUS
 62
   253
 10
320.326568603516
 20
576.440490722656
 30
0.0
 11
320.849466323853
 21
576.440490722656
 31
0.0
  0
LINE
  5
   886
  8
0
  6
CONTINUOUS
 62
     3
 10
320.326568603517
 20
555.065490722656
 30
0.0
 11
320.326568603517
 21
566.315490722656
 31
0.0
  0
LINE
  5
   887
  8
0
  6
CONTINUOUS
 62
     1
 10
320.326568603517
 20
533.690490722656
 30
0.0
 11
320.326568603517
 21
534.440490722656
 31
0.0
  0
LINE
  5
   888
  8
0
  6
CONTINUOUS
 62
   253
 10
320.326568603516
 20
524.090490579605
 30
0.0
 11
320.326568603516
 21
533.690490722656
 31
0.0
  0
LINE
  5
   889
  8
0
  6
CONTINUOUS
 62
   253
 10
320.326568603516
 20
544.490490436554
 30
0.0
 11
320.326568603516
 21
555.065490722656
 31
0.0
  0
LINE
  5
   88A
  8
0
  6
CONTINUOUS
 62
   253
 10
320.326568603516
 20
576.440490722656
 30
0.0
 11
320.326568603516
 21
586.190490722656
 31
0.0
  0
LINE
  5
   88B
  8
0
  6
CONTINUOUS
 62
   253
 10
320.326568603516
 20
543.815490722656
 30
0.0
 11
320.326568603516
 21
544.490490436554
 31
0.0
  0
LINE
  5
   88C
  8
0
  6
CONTINUOUS
 62
   253
 10
320.326568603516
 20
566.315490722656
 30
0.0
 11
320.326568603516
 21
572.690490722656
 31
0.0
  0
LINE
  5
   88D
  8
0
  6
CONTINUOUS
 62
   253
 10
320.326568603516
 20
497.690490722656
 30
0.0
 11
320.326568603516
 21
524.090490579605
 31
0.0
  0
LINE
  5
   88E
  8
0
  6
CONTINUOUS
 62
   253
 10
320.326568603516
 20
572.690490722656
 30
0.0
 11
320.326568603516
 21
576.440490722656
 31
0.0
  0
LINE
  5
   88F
  8
0
  6
CONTINUOUS
 62
   253
 10
310.951568603516
 20
586.190490722656
 30
0.0
 11
320.326568603516
 21
586.190490722656
 31
0.0
  0
LINE
  5
   890
  8
0
  6
CONTINUOUS
 62
   253
 10
310.951568603516
 20
497.690490722656
 30
0.0
 11
320.326568603516
 21
497.690490722656
 31
0.0
  0
LINE
  5
   891
  8
0
  6
CONTINUOUS
 62
   253
 10
310.426568031311
 20
497.690490722656
 30
0.0
 11
310.951568603516
 21
497.690490722656
 31
0.0
  0
LINE
  5
   892
  8
0
  6
CONTINUOUS
 62
   253
 10
273.826568603516
 20
497.690490722656
 30
0.0
 11
310.426568031311
 21
497.690490722656
 31
0.0
  0
LINE
  5
   893
  8
0
  6
CONTINUOUS
 62
   253
 10
310.426568031311
 20
586.190490722656
 30
0.0
 11
310.951568603516
 21
586.190490722656
 31
0.0
  0
LINE
  5
   894
  8
0
  6
CONTINUOUS
 62
   253
 10
273.826568603516
 20
586.190490722656
 30
0.0
 11
310.426568031311
 21
586.190490722656
 31
0.0
  0
LINE
  5
   895
  8
0
  6
CONTINUOUS
 62
     3
 10
273.826568603516
 20
535.190490722656
 30
0.0
 11
273.826568603516
 21
543.065490722656
 31
0.0
  0
LINE
  5
   896
  8
0
  6
CONTINUOUS
 62
   253
 10
273.826568603516
 20
543.065490722656
 30
0.0
 11
273.826568603516
 21
586.190490722656
 31
0.0
  0
LINE
  5
   897
  8
0
  6
CONTINUOUS
 62
   253
 10
273.826568603516
 20
497.690490722656
 30
0.0
 11
273.826568603516
 21
535.190490722656
 31
0.0
  0
ARC
  5
   898
  8
0
  6
CONTINUOUS
 62
     1
 10
325.57446500847
 20
591.440490722073
 30
0.0
 40
0.7499999999869
 50
60.0002389820184
 51
89.99994322539
  0
POLYLINE
  5
   899
  8
0
  6
CONTINUOUS
 62
     1
 66
     1
 10
0.0
 20
0.0
 30
0.0
  0
VERTEX
  5
   89A
  8
0
  6
CONTINUOUS
 10
325.949461378898
 20
592.084308475234
 30
0.0
 40
0.0
 41
0.0
  0
VERTEX
  5
   89B
  8
0
  6
CONTINUOUS
 10
326.247654339266
 20
591.753887434629
 30
0.0
 40
0.0
 41
0.0
  0
VERTEX
  5
   89C
  8
0
  6
CONTINUOUS
 10
326.316607621456
 20
591.440490722604
 30
0.0
 40
0.0
 41
0.0
  0
SEQEND
  5
   89D
  8
0
  6
CONTINUOUS
 62
     1
  0
LINE
  5
   89E
  8
0
  6
CONTINUOUS
 62
     1
 10
326.324465009063
 20
578.315490722656
 30
0.0
 11
326.324465009063
 21
591.440490722656
 31
0.0
  0
ARC
  5
   89F
  8
0
  6
CONTINUOUS
 62
     1
 10
325.574465009066
 20
591.440490722658
 30
0.0
 40
0.74999999999676
 50
0.0
 51
42.656453855954
  0
ARC
  5
   8A0
  8
0
  6
CONTINUOUS
 62
     1
 10
325.574465009183
 20
591.440490722841
 30
0.0
 40
0.749999999779979
 50
53.4176582658435
 51
60.0000204359518
  0
LINE
  5
   8A1
  8
0
  6
CONTINUOUS
 62
     1
 10
325.949465009063
 20
592.084592819214
 30
0.0
 11
325.949465009063
 21
592.090017318726
 31
0.0
  0
LINE
  5
   8A2
  8
0
  6
CONTINUOUS
 62
     1
 10
324.074465751648
 20
578.315490722656
 30
0.0
 11
326.320551872253
 21
578.315490722656
 31
0.0
  0
LINE
  5
   8A3
  8
0
  6
CONTINUOUS
 62
     1
 10
326.320551872253
 20
578.315490722656
 30
0.0
 11
326.324465751648
 21
578.315490722656
 31
0.0
  0
LINE
  5
   8A4
  8
0
  6
CONTINUOUS
 62
     1
 10
320.326568603516
 20
578.315490722656
 30
0.0
 11
320.849466323853
 21
578.315490722656
 31
0.0
  0
LINE
  5
   8A5
  8
0
  6
CONTINUOUS
 62
     1
 10
273.824464321136
 20
586.190490722656
 30
0.0
 11
273.826568603516
 21
586.190490722656
 31
0.0
  0
LINE
  5
   8A6
  8
0
  6
CONTINUOUS
 62
     1
 10
273.824465009063
 20
591.440490722656
 30
0.0
 11
273.824465009063
 21
592.190490722656
 31
0.0
  0
LINE
  5
   8A7
  8
0
  6
CONTINUOUS
 62
     1
 10
273.824465009063
 20
586.190490722656
 30
0.0
 11
273.824465009063
 21
586.715488433838
 31
0.0
  0
LINE
  5
   8A8
  8
0
  6
CONTINUOUS
 62
     1
 10
273.824464321136
 20
592.190490722656
 30
0.0
 11
324.074465751648
 21
592.190490722656
 31
0.0
  0
LINE
  5
   8A9
  8
0
  6
CONTINUOUS
 62
     1
 10
324.074465751648
 20
592.190490722656
 30
0.0
 11
325.574465751648
 21
592.190490722656
 31
0.0
  0
LINE
  5
   8AA
  8
0
  6
CONTINUOUS
 62
     1
 10
303.067937612534
 20
592.190490722656
 30
0.0
 11
303.543587684631
 21
592.190490722656
 31
0.0
  0
LINE
  5
   8AB
  8
0
  6
CONTINUOUS
 62
     1
 10
303.543587684631
 20
592.190490722656
 30
0.0
 11
304.574332714081
 21
592.190490722656
 31
0.0
  0
LINE
  5
   8AC
  8
0
  6
CONTINUOUS
 62
     1
 10
326.324465009063
 20
578.315490722656
 30
0.0
 11
326.324465009063
 21
591.440490722656
 31
0.0
  0
LINE
  5
   8AD
  8
0
  6
CONTINUOUS
 62
     1
 10
320.849465009063
 20
586.190490722656
 30
0.0
 11
320.849465009063
 21
586.715488433838
 31
0.0
  0
LINE
  5
   8AE
  8
0
  6
CONTINUOUS
 62
     1
 10
273.824464321136
 20
586.715490722656
 30
0.0
 11
320.849466323853
 21
586.715490722656
 31
0.0
  0
LINE
  5
   8AF
  8
0
  6
CONTINUOUS
 62
     1
 10
320.849465009063
 20
578.315490722656
 30
0.0
 11
320.849465009063
 21
586.190490722656
 31
0.0
  0
LINE
  5
   8B0
  8
0
  6
CONTINUOUS
 62
     1
 10
320.849466323853
 20
578.315490722656
 30
0.0
 11
324.074465751648
 21
578.315490722656
 31
0.0
  0
LINE
  5
   8B1
  8
0
  6
CONTINUOUS
 62
     1
 10
273.824465009063
 20
586.715488433838
 30
0.0
 11
273.824465009063
 21
591.440490722656
 31
0.0
  0
ARC
  5
   8B2
  8
0
  6
CONTINUOUS
 62
     1
 10
325.574465008466
 20
492.440490723256
 30
0.0
 40
0.750000000003722
 50
270.000056774957
 51
299.999542456621
  0
POLYLINE
  5
   8B3
  8
0
  6
CONTINUOUS
 62
     1
 66
     1
 10
0.0
 20
0.0
 30
0.0
  0
VERTEX
  5
   8B4
  8
0
  6
CONTINUOUS
 10
325.949461378898
 20
491.796672970079
 30
0.0
 40
0.0
 41
0.0
  0
VERTEX
  5
   8B5
  8
0
  6
CONTINUOUS
 10
326.247654339266
 20
492.127094010684
 30
0.0
 40
0.0
 41
0.0
  0
VERTEX
  5
   8B6
  8
0
  6
CONTINUOUS
 10
326.316607621456
 20
492.440490722709
 30
0.0
 40
0.0
 41
0.0
  0
SEQEND
  5
   8B7
  8
0
  6
CONTINUOUS
 62
     1
  0
LINE
  5
   8B8
  8
0
  6
CONTINUOUS
 62
     1
 10
326.324465009063
 20
492.440490722656
 30
0.0
 11
326.324465009063
 21
505.565490722656
 31
0.0
  0
ARC
  5
   8B9
  8
0
  6
CONTINUOUS
 62
     1
 10
325.574465009039
 20
492.440490722696
 30
0.0
 40
0.750000000046596
 50
300.000088848051
 51
306.765703678636
  0
ARC
  5
   8BA
  8
0
  6
CONTINUOUS
 62
     1
 10
325.574465009064
 20
492.440490722656
 30
0.0
 40
0.749999999999163
 50
317.334043648021
 51
360.0
  0
LINE
  5
   8BB
  8
0
  6
CONTINUOUS
 62
     1
 10
325.949465009063
 20
491.790958404541
 30
0.0
 11
325.949465009063
 21
491.796671867371
 31
0.0
  0
LINE
  5
   8BC
  8
0
  6
CONTINUOUS
 62
     1
 10
324.074465751648
 20
505.565490722656
 30
0.0
 11
326.320551872253
 21
505.565490722656
 31
0.0
  0
LINE
  5
   8BD
  8
0
  6
CONTINUOUS
 62
     1
 10
326.320551872253
 20
505.565490722656
 30
0.0
 11
326.324465751648
 21
505.565490722656
 31
0.0
  0
LINE
  5
   8BE
  8
0
  6
CONTINUOUS
 62
     1
 10
320.326568603516
 20
505.565490722656
 30
0.0
 11
320.849466323853
 21
505.565490722656
 31
0.0
  0
LINE
  5
   8BF
  8
0
  6
CONTINUOUS
 62
     1
 10
273.824464321136
 20
497.690490722656
 30
0.0
 11
273.826568603516
 21
497.690490722656
 31
0.0
  0
LINE
  5
   8C0
  8
0
  6
CONTINUOUS
 62
     1
 10
273.824465009063
 20
491.690490722656
 30
0.0
 11
273.824465009063
 21
492.440490722656
 31
0.0
  0
LINE
  5
   8C1
  8
0
  6
CONTINUOUS
 62
     1
 10
273.824465009063
 20
497.165490150452
 30
0.0
 11
273.824465009063
 21
497.690490722656
 31
0.0
  0
LINE
  5
   8C2
  8
0
  6
CONTINUOUS
 62
     1
 10
273.824464321136
 20
491.690490722656
 30
0.0
 11
324.074465751648
 21
491.690490722656
 31
0.0
  0
LINE
  5
   8C3
  8
0
  6
CONTINUOUS
 62
     1
 10
324.074465751648
 20
491.690490722656
 30
0.0
 11
325.574465751648
 21
491.690490722656
 31
0.0
  0
LINE
  5
   8C4
  8
0
  6
CONTINUOUS
 62
     1
 10
326.324465009063
 20
492.440490722656
 30
0.0
 11
326.324465009063
 21
505.565490722656
 31
0.0
  0
LINE
  5
   8C5
  8
0
  6
CONTINUOUS
 62
     1
 10
320.849465009063
 20
497.165490150452
 30
0.0
 11
320.849465009063
 21
497.690490722656
 31
0.0
  0
LINE
  5
   8C6
  8
0
  6
CONTINUOUS
 62
     1
 10
273.824464321136
 20
497.165490722656
 30
0.0
 11
320.849466323853
 21
497.165490722656
 31
0.0
  0
LINE
  5
   8C7
  8
0
  6
CONTINUOUS
 62
     1
 10
320.849465009063
 20
497.690490722656
 30
0.0
 11
320.849465009063
 21
505.565490722656
 31
0.0
  0
LINE
  5
   8C8
  8
0
  6
CONTINUOUS
 62
     1
 10
320.849466323853
 20
505.565490722656
 30
0.0
 11
324.074465751648
 21
505.565490722656
 31
0.0
  0
LINE
  5
   8C9
  8
0
  6
CONTINUOUS
 62
     1
 10
273.824465009063
 20
492.440490722656
 30
0.0
 11
273.824465009063
 21
497.165490150452
 31
0.0
  0
LINE
  5
   8CA
  8
0
  6
CONTINUOUS
 62
     2
 10
273.824465751648
 20
571.940487861633
 30
0.0
 11
273.824465751648
 21
572.690487861633
 31
0.0
  0
LINE
  5
   8CB
  8
0
  6
CONTINUOUS
 62
     2
 10
273.824465751648
 20
572.690487861633
 30
0.0
 11
273.824465751648
 21
579.440490722656
 31
0.0
  0
LINE
  5
   8CC
  8
0
  6
CONTINUOUS
 62
     2
 10
273.824465751648
 20
571.940487861633
 30
0.0
 11
273.826568603516
 21
571.940487861633
 31
0.0
  0
LINE
  5
   8CD
  8
0
  6
CONTINUOUS
 62
   253
 10
273.824465751648
 20
555.440490722656
 30
0.0
 11
273.824465751648
 21
571.940487861633
 31
0.0
  0
LINE
  5
   8CE
  8
0
  6
CONTINUOUS
 62
   253
 10
273.824465751648
 20
504.440490722656
 30
0.0
 11
273.824465751648
 21
520.190490722656
 31
0.0
  0
LINE
  5
   8CF
  8
0
  6
CONTINUOUS
 62
   253
 10
273.824465751648
 20
555.440490722656
 30
0.0
 11
273.826568786312
 21
555.439276535027
 31
0.0
  0
LINE
  5
   8D0
  8
0
  6
CONTINUOUS
 62
   253
 10
273.824465751648
 20
520.190490722656
 30
0.0
 11
273.826568786312
 21
520.191704910286
 31
0.0
  0
LINE
  5
   8D1
  8
0
  6
CONTINUOUS
 62
     2
 10
336.074465751648
 20
523.750043813292
 30
0.0
 11
336.299465179443
 21
523.750043813292
 31
0.0
  0
LINE
  5
   8D2
  8
0
  6
CONTINUOUS
 62
     3
 10
340.572360038757
 20
541.306560993195
 30
0.0
 11
340.572360038757
 21
541.532071113587
 31
0.0
  0
LINE
  5
   8D3
  8
0
  6
CONTINUOUS
 62
     3
 10
340.572360038757
 20
545.011190891266
 30
0.0
 11
340.572360038757
 21
545.853009700775
 31
0.0
  0
LINE
  5
   8D4
  8
0
  6
CONTINUOUS
 62
     3
 10
340.572360038757
 20
544.465622425079
 30
0.0
 11
340.572360038757
 21
545.011190891266
 31
0.0
  0
LINE
  5
   8D5
  8
0
  6
CONTINUOUS
 62
     3
 10
340.572360038757
 20
543.345787286759
 30
0.0
 11
340.572360038757
 21
544.465622425079
 31
0.0
  0
LINE
  5
   8D6
  8
0
  6
CONTINUOUS
 62
     3
 10
340.572360038757
 20
543.282967805862
 30
0.0
 11
340.572360038757
 21
543.345787286759
 31
0.0
  0
LINE
  5
   8D7
  8
0
  6
CONTINUOUS
 62
     3
 10
340.572360038757
 20
540.178524017334
 30
0.0
 11
340.572360038757
 21
543.282967805862
 31
0.0
  0
LINE
  5
   8D8
  8
0
  6
CONTINUOUS
 62
     3
 10
340.572360038757
 20
537.953342676163
 30
0.0
 11
340.572360038757
 21
540.178524017334
 31
0.0
  0
LINE
  5
   8D9
  8
0
  6
CONTINUOUS
 62
     3
 10
340.572360038757
 20
536.906550884247
 30
0.0
 11
340.572360038757
 21
537.953342676163
 31
0.0
  0
LINE
  5
   8DA
  8
0
  6
CONTINUOUS
 62
     3
 10
340.572360038757
 20
536.798857331276
 30
0.0
 11
340.572360038757
 21
536.906550884247
 31
0.0
  0
LINE
  5
   8DB
  8
0
  6
CONTINUOUS
 62
     3
 10
340.572360038757
 20
531.991516590119
 30
0.0
 11
340.572360038757
 21
536.798857331276
 31
0.0
  0
LINE
  5
   8DC
  8
0
  6
CONTINUOUS
 62
     3
 10
340.572360038757
 20
531.097821444273
 30
0.0
 11
340.572360038757
 21
531.991516590119
 31
0.0
  0
LINE
  5
   8DD
  8
0
  6
CONTINUOUS
 62
     3
 10
340.572360038757
 20
554.709354877472
 30
0.0
 11
340.572360038757
 21
555.001086235047
 31
0.0
  0
LINE
  5
   8DE
  8
0
  6
CONTINUOUS
 62
     3
 10
340.572360038757
 20
554.586538314819
 30
0.0
 11
340.572360038757
 21
554.709354877472
 31
0.0
  0
LINE
  5
   8DF
  8
0
  6
CONTINUOUS
 62
     3
 10
338.322360038757
 20
555.001086103094
 30
0.0
 11
340.572357177734
 21
555.001086103094
 31
0.0
  0
LINE
  5
   8E0
  8
0
  6
CONTINUOUS
 62
     3
 10
340.572360038757
 20
552.955557823181
 30
0.0
 11
340.572360038757
 21
554.586538314819
 31
0.0
  0
LINE
  5
   8E1
  8
0
  6
CONTINUOUS
 62
     3
 10
340.572360038757
 20
552.339081764221
 30
0.0
 11
340.572360038757
 21
552.955557823181
 31
0.0
  0
LINE
  5
   8E2
  8
0
  6
CONTINUOUS
 62
     3
 10
340.572360038757
 20
552.067187309265
 30
0.0
 11
340.572360038757
 21
552.083857059479
 31
0.0
  0
LINE
  5
   8E3
  8
0
  6
CONTINUOUS
 62
     3
 10
340.572360038757
 20
552.083857059479
 30
0.0
 11
340.572360038757
 21
552.339081764221
 31
0.0
  0
LINE
  5
   8E4
  8
0
  6
CONTINUOUS
 62
     3
 10
338.322360038757
 20
552.067187276048
 30
0.0
 11
340.57236289978
 21
552.067187276048
 31
0.0
  0
LINE
  5
   8E5
  8
0
  6
CONTINUOUS
 62
     3
 10
340.572360038757
 20
551.881193637848
 30
0.0
 11
340.572360038757
 21
552.067187309265
 31
0.0
  0
LINE
  5
   8E6
  8
0
  6
CONTINUOUS
 62
     3
 10
340.572360038757
 20
551.74447965622
 30
0.0
 11
340.572360038757
 21
551.881193637848
 31
0.0
  0
LINE
  5
   8E7
  8
0
  6
CONTINUOUS
 62
     3
 10
340.486692428589
 20
531.065490722656
 30
0.0
 11
340.508682250977
 21
531.097628325224
 31
0.0
  0
POLYLINE
  5
   8E8
  8
0
  6
CONTINUOUS
 62
     3
 66
     1
 10
0.0
 20
0.0
 30
0.0
  0
VERTEX
  5
   8E9
  8
0
  6
CONTINUOUS
 10
338.154626752304
 20
531.037286924044
 30
0.0
 40
0.0
 41
0.0
  0
VERTEX
  5
   8EA
  8
0
  6
CONTINUOUS
 10
338.322360038757
 20
531.19067701698
 30
0.0
 40
0.0
 41
0.0
  0
SEQEND
  5
   8EB
  8
0
  6
CONTINUOUS
 62
     3
  0
LINE
  5
   8EC
  8
0
  6
CONTINUOUS
 62
     3
 10
338.322360038757
 20
536.798857331276
 30
0.0
 11
338.322360038757
 21
536.906550884247
 31
0.0
  0
LINE
  5
   8ED
  8
0
  6
CONTINUOUS
 62
     3
 10
338.322360038757
 20
531.991516590119
 30
0.0
 11
338.322360038757
 21
536.798857331276
 31
0.0
  0
LINE
  5
   8EE
  8
0
  6
CONTINUOUS
 62
     3
 10
338.322360038757
 20
531.091000050306
 30
0.0
 11
338.322360038757
 21
531.991516590119
 31
0.0
  0
LINE
  5
   8EF
  8
0
  6
CONTINUOUS
 62
     3
 10
338.322360038757
 20
541.313639163971
 30
0.0
 11
338.322360038757
 21
541.524829149246
 31
0.0
  0
LINE
  5
   8F0
  8
0
  6
CONTINUOUS
 62
     3
 10
338.322360038757
 20
537.953342676163
 30
0.0
 11
338.322360038757
 21
540.178524017334
 31
0.0
  0
LINE
  5
   8F1
  8
0
  6
CONTINUOUS
 62
     3
 10
338.322360038757
 20
536.906550884247
 30
0.0
 11
338.322360038757
 21
537.953342676163
 31
0.0
  0
LINE
  5
   8F2
  8
0
  6
CONTINUOUS
 62
     3
 10
338.322360038757
 20
554.709354877472
 30
0.0
 11
338.322360038757
 21
555.001086235047
 31
0.0
  0
LINE
  5
   8F3
  8
0
  6
CONTINUOUS
 62
     3
 10
338.322360038757
 20
552.067187309265
 30
0.0
 11
338.322360038757
 21
552.083857059479
 31
0.0
  0
LINE
  5
   8F4
  8
0
  6
CONTINUOUS
 62
     3
 10
338.322360038757
 20
551.881193637848
 30
0.0
 11
338.322360038757
 21
552.067187309265
 31
0.0
  0
LINE
  5
   8F5
  8
0
  6
CONTINUOUS
 62
     3
 10
338.322360038757
 20
551.442294120789
 30
0.0
 11
338.322360038757
 21
551.881193637848
 31
0.0
  0
LINE
  5
   8F6
  8
0
  6
CONTINUOUS
 62
     3
 10
338.322360038757
 20
540.178524017334
 30
0.0
 11
338.322360038757
 21
543.282967805862
 31
0.0
  0
LINE
  5
   8F7
  8
0
  6
CONTINUOUS
 62
     3
 10
338.322360038757
 20
554.586538314819
 30
0.0
 11
338.322360038757
 21
554.709354877472
 31
0.0
  0
LINE
  5
   8F8
  8
0
  6
CONTINUOUS
 62
     3
 10
338.322360038757
 20
552.955557823181
 30
0.0
 11
338.322360038757
 21
554.586538314819
 31
0.0
  0
LINE
  5
   8F9
  8
0
  6
CONTINUOUS
 62
     3
 10
338.322360038757
 20
552.339081764221
 30
0.0
 11
338.322360038757
 21
552.955557823181
 31
0.0
  0
LINE
  5
   8FA
  8
0
  6
CONTINUOUS
 62
     3
 10
338.322360038757
 20
552.083857059479
 30
0.0
 11
338.322360038757
 21
552.339081764221
 31
0.0
  0
LINE
  5
   8FB
  8
0
  6
CONTINUOUS
 62
     3
 10
338.322360038757
 20
545.003998279572
 30
0.0
 11
338.322360038757
 21
545.308250904083
 31
0.0
  0
LINE
  5
   8FC
  8
0
  6
CONTINUOUS
 62
     3
 10
338.322360038757
 20
544.465622425079
 30
0.0
 11
338.322360038757
 21
545.003998279572
 31
0.0
  0
LINE
  5
   8FD
  8
0
  6
CONTINUOUS
 62
     3
 10
338.322360038757
 20
543.345787286759
 30
0.0
 11
338.322360038757
 21
544.465622425079
 31
0.0
  0
LINE
  5
   8FE
  8
0
  6
CONTINUOUS
 62
     3
 10
338.322360038757
 20
543.282967805862
 30
0.0
 11
338.322360038757
 21
543.345787286759
 31
0.0
  0
ARC
  5
   8FF
  8
0
  6
CONTINUOUS
 62
     2
 10
336.674462078519
 20
553.190487049526
 30
0.0
 40
0.375000000001448
 50
179.999438782944
 51
270.000473790943
  0
ARC
  5
   900
  8
0
  6
CONTINUOUS
 62
     2
 10
342.674465751648
 20
553.190490722656
 30
0.0
 40
0.374999999999773
 50
180.0
 51
269.99991257361
  0
LINE
  5
   901
  8
0
  6
CONTINUOUS
 62
     5
 10
352.373550415039
 20
522.167711496353
 30
0.0
 11
352.574462890625
 21
522.815490722656
 31
0.0
  0
LINE
  5
   902
  8
0
  6
CONTINUOUS
 62
     5
 10
352.135124206543
 20
521.75483083725
 30
0.0
 11
352.373550415039
 21
522.167711496353
 31
0.0
  0
ARC
  5
   903
  8
0
  6
CONTINUOUS
 62
     5
 10
350.324465751052
 20
528.440490723253
 30
0.0
 40
0.749999999999998
 50
269.999781479482
 51
360.0
  0
ARC
  5
   904
  8
0
  6
CONTINUOUS
 62
     2
 10
350.324465751648
 20
552.065490722656
 30
0.0
 40
0.749999999999943
 50
0.0
 51
90.0002185660447
  0
LINE
  5
   905
  8
0
  6
CONTINUOUS
 62
     5
 10
336.299465751648
 20
524.343156814575
 30
0.0
 11
336.299465751648
 21
524.685397386551
 31
0.0
  0
LINE
  5
   906
  8
0
  6
CONTINUOUS
 62
     2
 10
336.299465751648
 20
551.012313842774
 30
0.0
 11
336.299465751648
 21
552.838808059692
 31
0.0
  0
LINE
  5
   907
  8
0
  6
CONTINUOUS
 62
     2
 10
336.299465751648
 20
552.838808059692
 30
0.0
 11
336.299465751648
 21
553.190490722656
 31
0.0
  0
LINE
  5
   908
  8
0
  6
CONTINUOUS
 62
     5
 10
336.299465751648
 20
523.986730575562
 30
0.0
 11
336.299465751648
 21
527.690490722656
 31
0.0
  0
LINE
  5
   909
  8
0
  6
CONTINUOUS
 62
     5
 10
336.299465751649
 20
553.190490722656
 30
0.0
 11
336.299465751649
 21
554.315490722656
 31
0.0
  0
LINE
  5
   90A
  8
0
  6
CONTINUOUS
 62
     5
 10
336.299465751649
 20
521.315490722656
 30
0.0
 11
336.299465751649
 21
522.815490722656
 31
0.0
  0
ARC
  5
   90B
  8
0
  6
CONTINUOUS
 62
     5
 10
350.324465751648
 20
523.565490722656
 30
0.0
 40
0.749999999999659
 50
270.000218566027
 51
360.0
  0
ARC
  5
   90C
  8
0
  6
CONTINUOUS
 62
     5
 10
351.074465751648
 20
522.815490722656
 30
0.0
 40
1.49999999999989
 50
269.999890716969
 51
360.0
  0
ARC
  5
   90D
  8
0
  6
CONTINUOUS
 62
     5
 10
351.074465751648
 20
552.815490722656
 30
0.0
 40
1.50000000000023
 50
0.0
 51
90.000109283018
  0
LINE
  5
   90E
  8
0
  6
CONTINUOUS
 62
     5
 10
342.299465751648
 20
553.190490722656
 30
0.0
 11
342.299465751648
 21
554.315490722656
 31
0.0
  0
LINE
  5
   90F
  8
0
  6
CONTINUOUS
 62
     5
 10
342.299465751648
 20
521.315490722656
 30
0.0
 11
342.299465751648
 21
522.815490722656
 31
0.0
  0
LINE
  5
   910
  8
0
  6
CONTINUOUS
 62
     5
 10
336.299465179443
 20
522.815490722656
 30
0.0
 11
337.049465179443
 21
522.815490722656
 31
0.0
  0
LINE
  5
   911
  8
0
  6
CONTINUOUS
 62
     5
 10
337.049465179443
 20
522.815490722656
 30
0.0
 11
340.049465179443
 21
522.815490722656
 31
0.0
  0
LINE
  5
   912
  8
0
  6
CONTINUOUS
 62
     5
 10
340.049465179443
 20
522.815490722656
 30
0.0
 11
342.299465179443
 21
522.815490722656
 31
0.0
  0
LINE
  5
   913
  8
0
  6
CONTINUOUS
 62
     5
 10
342.299465179443
 20
522.815490722656
 30
0.0
 11
350.324468612671
 21
522.815490722656
 31
0.0
  0
LINE
  5
   914
  8
0
  6
CONTINUOUS
 62
     5
 10
336.299465751648
 20
522.815490722656
 30
0.0
 11
336.299465751648
 21
523.116933822632
 31
0.0
  0
LINE
  5
   915
  8
0
  6
CONTINUOUS
 62
     5
 10
336.299465751648
 20
523.116933822632
 30
0.0
 11
336.299465751648
 21
523.986730575562
 31
0.0
  0
LINE
  5
   916
  8
0
  6
CONTINUOUS
 62
     5
 10
346.542058944702
 20
527.690490722656
 30
0.0
 11
350.324462890625
 21
527.690490722656
 31
0.0
  0
LINE
  5
   917
  8
0
  6
CONTINUOUS
 62
     5
 10
336.299465179443
 20
521.315490722656
 30
0.0
 11
337.049465179443
 21
521.315490722656
 31
0.0
  0
LINE
  5
   918
  8
0
  6
CONTINUOUS
 62
     5
 10
337.049465179443
 20
521.315490722656
 30
0.0
 11
340.049465179443
 21
521.315490722656
 31
0.0
  0
LINE
  5
   919
  8
0
  6
CONTINUOUS
 62
     5
 10
340.049465179443
 20
521.315490722656
 30
0.0
 11
342.299465179443
 21
521.315490722656
 31
0.0
  0
LINE
  5
   91A
  8
0
  6
CONTINUOUS
 62
     5
 10
342.299465179443
 20
521.315490722656
 30
0.0
 11
351.074462890625
 21
521.315490722656
 31
0.0
  0
LINE
  5
   91B
  8
0
  6
CONTINUOUS
 62
     2
 10
342.674465179443
 20
552.815490722656
 30
0.0
 11
350.324462890625
 21
552.815490722656
 31
0.0
  0
LINE
  5
   91C
  8
0
  6
CONTINUOUS
 62
     2
 10
336.674465179443
 20
552.815490722657
 30
0.0
 11
337.049465179443
 21
552.815490722657
 31
0.0
  0
LINE
  5
   91D
  8
0
  6
CONTINUOUS
 62
     2
 10
337.049465179443
 20
552.815490722656
 30
0.0
 11
338.322360038757
 21
552.815490722656
 31
0.0
  0
LINE
  5
   91E
  8
0
  6
CONTINUOUS
 62
     2
 10
340.57236289978
 20
552.815490722656
 30
0.0
 11
342.674465179443
 21
552.815490722656
 31
0.0
  0
LINE
  5
   91F
  8
0
  6
CONTINUOUS
 62
     5
 10
351.074465751648
 20
523.565490722656
 30
0.0
 11
351.074465751648
 21
552.065490722656
 31
0.0
  0
LINE
  5
   920
  8
0
  6
CONTINUOUS
 62
     5
 10
352.574465751648
 20
522.815490722656
 30
0.0
 11
352.574465751648
 21
552.815490722656
 31
0.0
  0
LINE
  5
   921
  8
0
  6
CONTINUOUS
 62
     5
 10
336.299465179443
 20
554.315490722656
 30
0.0
 11
337.049465179443
 21
554.315490722656
 31
0.0
  0
LINE
  5
   922
  8
0
  6
CONTINUOUS
 62
     5
 10
337.049465179443
 20
554.315490722656
 30
0.0
 11
338.322360038757
 21
554.315490722656
 31
0.0
  0
LINE
  5
   923
  8
0
  6
CONTINUOUS
 62
     5
 10
340.572357177734
 20
554.315490722656
 30
0.0
 11
342.299465179443
 21
554.315490722656
 31
0.0
  0
LINE
  5
   924
  8
0
  6
CONTINUOUS
 62
     5
 10
342.299465179443
 20
554.315490722656
 30
0.0
 11
351.074462890625
 21
554.315490722656
 31
0.0
  0
ARC
  5
   925
  8
0
  6
CONTINUOUS
 62
   253
 10
325.574465751696
 20
492.440490722651
 30
0.0
 40
0.74999999995197
 50
351.574187381413
 51
358.595557326838
  0
ARC
  5
   926
  8
0
  6
CONTINUOUS
 62
   253
 10
325.574465749617
 20
492.440490723907
 30
0.0
 40
0.750000002385183
 50
327.878480310622
 51
329.246255031621
  0
LINE
  5
   927
  8
0
  6
CONTINUOUS
 62
   253
 10
346.542058944702
 20
527.690490722656
 30
0.0
 11
347.314363479614
 21
527.891411066055
 31
0.0
  0
LINE
  5
   928
  8
0
  6
CONTINUOUS
 62
   253
 10
347.863290786743
 20
528.440494298935
 30
0.0
 11
348.057806015015
 21
529.190490722656
 31
0.0
  0
LINE
  5
   929
  8
0
  6
CONTINUOUS
 62
   253
 10
347.314363479614
 20
527.891411066055
 30
0.0
 11
347.863290786743
 21
528.440494298935
 31
0.0
  0
LINE
  5
   92A
  8
0
  6
CONTINUOUS
 62
   253
 10
346.895709991455
 20
548.60061454773
 30
0.0
 11
347.314363479614
 21
548.489569664002
 31
0.0
  0
LINE
  5
   92B
  8
0
  6
CONTINUOUS
 62
   253
 10
347.863290786743
 20
547.940487861633
 30
0.0
 11
348.059185028076
 21
547.190490722656
 31
0.0
  0
LINE
  5
   92C
  8
0
  6
CONTINUOUS
 62
   253
 10
347.314363479614
 20
548.489569664002
 30
0.0
 11
347.863290786743
 21
547.940487861633
 31
0.0
  0
LINE
  5
   92D
  8
0
  6
CONTINUOUS
 62
   253
 10
346.120098114014
 20
527.690490722656
 30
0.0
 11
346.542058944702
 21
527.690490722656
 31
0.0
  0
LINE
  5
   92E
  8
0
  6
CONTINUOUS
 62
   253
 10
336.074465751648
 20
527.690490722656
 30
0.0
 11
346.120098114014
 21
527.690490722656
 31
0.0
  0
LINE
  5
   92F
  8
0
  6
CONTINUOUS
 62
   253
 10
336.074465751648
 20
527.690490722656
 30
0.0
 11
341.324462890625
 21
527.690490722656
 31
0.0
  0
LINE
  5
   930
  8
0
  6
CONTINUOUS
 62
   253
 10
336.074465751648
 20
527.690490722656
 30
0.0
 11
336.074465751648
 21
527.694453954697
 31
0.0
  0
LINE
  5
   931
  8
0
  6
CONTINUOUS
 62
   253
 10
326.324465751648
 20
492.422102928162
 30
0.0
 11
326.324465751648
 21
492.440490722656
 31
0.0
  0
LINE
  5
   932
  8
0
  6
CONTINUOUS
 62
     2
 10
325.956721305847
 20
592.082933425903
 30
0.0
 11
326.104796409607
 21
591.970821380615
 31
0.0
  0
LINE
  5
   933
  8
0
  6
CONTINUOUS
 62
     2
 10
326.09067440033
 20
491.919790267944
 30
0.0
 11
326.324465751648
 21
492.440490722656
 31
0.0
  0
LINE
  5
   934
  8
0
  6
CONTINUOUS
 62
     2
 10
325.956581115723
 20
491.797910690308
 30
0.0
 11
326.104796409607
 21
491.910160064697
 31
0.0
  0
LINE
  5
   935
  8
0
  6
CONTINUOUS
 62
     2
 10
326.322975158691
 20
591.440490722656
 30
0.0
 11
326.324465751648
 21
591.440490722656
 31
0.0
  0
LINE
  5
   936
  8
0
  6
CONTINUOUS
 62
     2
 10
326.322975158691
 20
492.440490722656
 30
0.0
 11
326.324465751648
 21
492.440490722656
 31
0.0
  0
LINE
  5
   937
  8
0
  6
CONTINUOUS
 62
    98
 10
326.324465751648
 20
577.790490150452
 30
0.0
 11
326.324465751648
 21
578.315490722656
 31
0.0
  0
LINE
  5
   938
  8
0
  6
CONTINUOUS
 62
    98
 10
326.324465751648
 20
505.565490722656
 30
0.0
 11
326.324465751648
 21
506.090491294861
 31
0.0
  0
LINE
  5
   939
  8
0
  6
CONTINUOUS
 62
    98
 10
336.074465751648
 20
522.065490722656
 30
0.0
 11
336.074465751648
 21
522.290490865707
 31
0.0
  0
LINE
  5
   93A
  8
0
  6
CONTINUOUS
 62
    98
 10
336.074465751648
 20
553.340491294861
 30
0.0
 11
336.074465751648
 21
553.565490722656
 31
0.0
  0
POLYLINE
  5
   93B
  8
0
  6
CONTINUOUS
 62
    98
 66
     1
 10
0.0
 20
0.0
 30
0.0
  0
VERTEX
  5
   93C
  8
0
  6
CONTINUOUS
 10
325.973467035094
 20
592.073484155593
 30
0.0
 40
0.0
 41
0.0
  0
VERTEX
  5
   93D
  8
0
  6
CONTINUOUS
 10
326.249232885873
 20
591.763912615637
 30
0.0
 40
0.0
 41
0.0
  0
VERTEX
  5
   93E
  8
0
  6
CONTINUOUS
 10
326.322296994143
 20
591.451323636425
 30
0.0
 40
0.0
 41
0.0
  0
SEQEND
  5
   93F
  8
0
  6
CONTINUOUS
 62
    98
  0
LINE
  5
   940
  8
0
  6
CONTINUOUS
 62
    98
 10
326.324465751648
 20
591.443758010864
 30
0.0
 11
326.324465751648
 21
591.451345443726
 31
0.0
  0
LINE
  5
   941
  8
0
  6
CONTINUOUS
 62
    98
 10
326.324465751648
 20
577.790490150452
 30
0.0
 11
326.324465751648
 21
578.315490722656
 31
0.0
  0
LINE
  5
   942
  8
0
  6
CONTINUOUS
 62
    98
 10
326.255374553773
 20
577.790490150452
 30
0.0
 11
326.255374553773
 21
578.315490722656
 31
0.0
  0
LINE
  5
   943
  8
0
  6
CONTINUOUS
 62
    98
 10
336.074465751648
 20
522.065490722656
 30
0.0
 11
336.074465751648
 21
522.289473056793
 31
0.0
  0
LINE
  5
   944
  8
0
  6
CONTINUOUS
 62
    98
 10
336.074465751648
 20
553.341482639313
 30
0.0
 11
336.074465751648
 21
553.565490722656
 31
0.0
  0
LINE
  5
   945
  8
0
  6
CONTINUOUS
 62
    98
 10
336.005374553773
 20
522.065490722656
 30
0.0
 11
336.005374553773
 21
522.221394300461
 31
0.0
  0
LINE
  5
   946
  8
0
  6
CONTINUOUS
 62
    98
 10
336.005374553773
 20
553.40957069397
 30
0.0
 11
336.005374553773
 21
553.565490722656
 31
0.0
  0
LINE
  5
   947
  8
0
  6
CONTINUOUS
 62
    98
 10
326.324465751648
 20
505.565490722656
 30
0.0
 11
326.324465751648
 21
506.090491294861
 31
0.0
  0
LINE
  5
   948
  8
0
  6
CONTINUOUS
 62
    98
 10
326.255374553773
 20
505.565490722656
 30
0.0
 11
326.255374553773
 21
506.090491294861
 31
0.0
  0
LINE
  5
   949
  8
0
  6
CONTINUOUS
 62
    98
 10
273.824465751648
 20
579.440490722656
 30
0.0
 11
273.824465751648
 21
586.190490722656
 31
0.0
  0
ARC
  5
   94A
  8
0
  6
CONTINUOUS
 62
    98
 10
274.574465756595
 20
579.440490722689
 30
0.0
 40
0.750000004946855
 50
180.0
 51
180.350903741483
  0
ARC
  5
   94B
  8
0
  6
CONTINUOUS
 62
    98
 10
274.574465743956
 20
504.440490722687
 30
0.0
 40
0.749999992308243
 50
179.648219568024
 51
180.0
  0
LINE
  5
   94C
  8
0
  6
CONTINUOUS
 62
    98
 10
273.824465751648
 20
497.690490722656
 30
0.0
 11
273.824465751648
 21
504.440490722656
 31
0.0
  0
POINT
  5
   94D
  8
0
  6
CONTINUOUS
 62
     7
 10
273.826568603516
 20
541.940490722656
 30
0.0
  0
INSERT
  5
   94E
  8
0
  6
CONTINUOUS
 62
     7
  2
*UDIM1346
 10
0.0
 20
0.0
 30
0.0
  0
LINE
  5
   94F
  8
0
  6
CONTINUOUS
 62
     7
 10
331.526479687383
 20
500.951047111761
 30
0.0
 11
335.773778946623
 21
499.473725630286
 31
0.0
  0
LINE
  5
   950
  8
0
  6
CONTINUOUS
 62
     3
 10
332.699464866979
 20
500.543052266684
 30
0.0
 11
332.699464866979
 21
581.940400077136
 31
0.0
  0
LINE
  5
   951
  8
0
  6
CONTINUOUS
 62
     3
 10
334.199464866979
 20
500.021313136249
 30
0.0
 11
334.199464866979
 21
581.190400077136
 31
0.0
  0
LINE
  5
   952
  8
0
  6
CONTINUOUS
 62
     7
 10
270.352699361636
 20
490.174418418974
 30
0.0
 11
275.080203614664
 21
488.66449310622
 31
0.0
  0
LINE
  5
   953
  8
0
  6
DASHDOT
 62
     7
 10
273.826568603516
 20
489.0648936421
 30
0.0
 11
273.826568603516
 21
595.702417664083
 31
0.0
  0
LINE
  5
   954
  8
0
  6
DASHDOT
 62
     7
 10
271.576568603516
 20
489.783524820807
 30
0.0
 11
271.576568603516
 21
596.048050194203
 31
0.0
  0
LINE
  5
   955
  8
0
  6
CONTINUOUS
 62
     7
 10
270.109416688745
 20
596.273425940147
 30
0.0
 11
275.450764938572
 21
595.452917624662
 31
0.0
  0
TEXT
  5
   956
  8
0
  6
CONTINUOUS
 62
     7
 10
265.658687826496
 20
542.613949124366
 30
0.0
 40
3.00000013411045
  1
X
 41
0.933333333333333
 72
     1
 11
266.75868787567
 21
544.113949191421
 31
0.0
 73
     2
  0
LINE
  5
   957
  8
0
  6
CONTINUOUS
 62
     7
 10
330.880151539238
 20
582.850056741007
 30
0.0
 11
335.496781168846
 21
580.541741926203
 31
0.0
  0
INSERT
  5
   958
  8
255
  6
CONTINUOUS
 62
     7
  2
$3DADO
 10
271.576568603516
 20
582.065490722656
 30
0.0
 41
0.75
 42
0.75
 43
0.75
  0
INSERT
  5
   959
  8
255
  6
CONTINUOUS
 62
     7
  2
$3DADO
 10
271.576568603516
 20
501.815490718889
 30
0.0
 41
0.75
 42
0.75
 43
0.75
  0
INSERT
  5
   95A
  8
0
  6
CONTINUOUS
 62
     7
  2
*UDIM1347
 10
0.0
 20
0.0
 30
0.0
  0
INSERT
  5
   95B
  8
0
  6
CONTINUOUS
 62
     7
  2
*UDIM1348
 10
0.0
 20
0.0
 30
0.0
  0
INSERT
  5
   95C
  8
0
  6
CONTINUOUS
 62
     7
  2
*UDIM1349
 10
0.0
 20
0.0
 30
0.0
  0
INSERT
  5
   95D
  8
0
  6
CONTINUOUS
 62
     7
  2
*UDIM1350
 10
0.0
 20
0.0
 30
0.0
  0
INSERT
  5
   95E
  8
0
  6
CONTINUOUS
 62
     7
  2
*UDIM1351
 10
0.0
 20
0.0
 30
0.0
  0
LINE
  5
   95F
  8
0
  6
CONTINUOUS
 62
    98
 10
317.774464607239
 20
531.812543813292
 30
0.0
 11
320.324465751648
 21
531.812543813292
 31
0.0
  0
LINE
  5
   960
  8
0
  6
CONTINUOUS
 62
   252
 10
319.72446346283
 20
531.065490722656
 30
0.0
 11
320.324465751648
 21
531.065490722656
 31
0.0
  0
LINE
  5
   961
  8
0
  6
CONTINUOUS
 62
   210
 10
298.949464866977
 20
538.940490722656
 30
0.0
 11
298.949464866977
 21
549.453953266144
 31
0.0
  0
LINE
  5
   962
  8
0
  6
CONTINUOUS
 62
   210
 10
298.949464866977
 20
524.840490579605
 30
0.0
 11
298.949464866977
 21
531.065490722656
 31
0.0
  0
LINE
  5
   963
  8
0
  6
CONTINUOUS
 62
   210
 10
298.949465190422
 20
549.453953177215
 30
0.0
 11
306.449465297793
 21
562.444334419953
 31
0.0
  0
LINE
  5
   964
  8
0
  6
CONTINUOUS
 62
   210
 10
306.449464866983
 20
562.444334983826
 30
0.0
 11
306.449464866983
 21
575.690490722656
 31
0.0
  0
LINE
  5
   965
  8
0
  6
CONTINUOUS
 62
   210
 10
306.449464866983
 20
579.815490722656
 30
0.0
 11
306.449464866983
 21
586.190490722656
 31
0.0
  0
LINE
  5
   966
  8
0
  6
CONTINUOUS
 62
   210
 10
306.449464866898
 20
575.690490722656
 30
0.0
 11
306.449464866898
 21
579.815490722656
 31
0.0
  0
LINE
  5
   967
  8
0
  6
CONTINUOUS
 62
   210
 10
298.949465036392
 20
524.840490722661
 30
0.0
 11
299.699465036392
 21
524.840490722661
 31
0.0
  0
LINE
  5
   968
  8
0
  6
CONTINUOUS
 62
     7
 10
317.774464866983
 20
531.065490722656
 30
0.0
 11
317.774464866983
 21
538.940490722656
 31
0.0
  0
LINE
  5
   969
  8
0
  6
CONTINUOUS
 62
     7
 10
298.949465036392
 20
531.065490720777
 30
0.0
 11
299.699465036392
 21
531.065490720777
 31
0.0
  0
LINE
  5
   96A
  8
0
  6
CONTINUOUS
 62
     7
 10
298.949465036392
 20
538.940490720777
 30
0.0
 11
299.699465036392
 21
538.940490720777
 31
0.0
  0
LINE
  5
   96B
  8
0
  6
CONTINUOUS
 62
     7
 10
319.72446346283
 20
539.690490720777
 30
0.0
 11
320.324465751648
 21
539.690490720777
 31
0.0
  0
LINE
  5
   96C
  8
0
  6
CONTINUOUS
 62
     7
 10
319.724464866983
 20
538.940490722656
 30
0.0
 11
319.724464866983
 21
539.690490722656
 31
0.0
  0
LINE
  5
   96D
  8
0
  6
CONTINUOUS
 62
     7
 10
299.699465036392
 20
531.065490720777
 30
0.0
 11
319.72446346283
 21
531.065490720777
 31
0.0
  0
LINE
  5
   96E
  8
0
  6
CONTINUOUS
 62
     7
 10
299.699465036392
 20
538.940490720777
 30
0.0
 11
319.72446346283
 21
538.940490720777
 31
0.0
  0
LINE
  5
   96F
  8
0
  6
CONTINUOUS
 62
     7
 10
319.72446346283
 20
530.315490720777
 30
0.0
 11
320.324465751648
 21
530.315490720777
 31
0.0
  0
LINE
  5
   970
  8
0
  6
CONTINUOUS
 62
     7
 10
319.724464866983
 20
530.315490722656
 30
0.0
 11
319.724464866983
 21
531.065490722656
 31
0.0
  0
LINE
  5
   971
  8
0
  6
CONTINUOUS
 62
     7
 10
299.699465036392
 20
524.840490722661
 30
0.0
 11
320.324465751648
 21
524.840490722661
 31
0.0
  0
LINE
  5
   972
  8
0
  6
CONTINUOUS
 62
     7
 10
307.049465179443
 20
524.315490722661
 30
0.0
 11
307.574464321137
 21
524.315490722661
 31
0.0
  0
LINE
  5
   973
  8
0
  6
CONTINUOUS
 62
     7
 10
299.699464866983
 20
531.065490722656
 30
0.0
 11
299.699464866983
 21
538.940490722656
 31
0.0
  0
LINE
  5
   974
  8
0
  6
CONTINUOUS
 62
     7
 10
299.699464866983
 20
524.315490722656
 30
0.0
 11
299.699464866983
 21
524.840490579605
 31
0.0
  0
LINE
  5
   975
  8
0
  6
CONTINUOUS
 62
     7
 10
306.449464866813
 20
578.61222743988
 30
0.0
 11
306.449464866813
 21
579.815490722656
 31
0.0
  0
LINE
  5
   976
  8
0
  6
CONTINUOUS
 62
     7
 10
306.449464866813
 20
575.690490722656
 30
0.0
 11
306.449464866813
 21
576.893754005432
 31
0.0
  0
LINE
  5
   977
  8
0
  6
CONTINUOUS
 62
     7
 10
306.449464866813
 20
576.893754005432
 30
0.0
 11
306.449464866813
 21
577.124609947205
 31
0.0
  0
LINE
  5
   978
  8
0
  6
CONTINUOUS
 62
     7
 10
306.449464866813
 20
578.382533073425
 30
0.0
 11
306.449464866813
 21
578.61222743988
 31
0.0
  0
LINE
  5
   979
  8
0
  6
CONTINUOUS
 62
   253
 10
305.924465179443
 20
579.815490722656
 30
0.0
 11
306.449464321136
 21
579.815490722656
 31
0.0
  0
LINE
  5
   97A
  8
0
  6
CONTINUOUS
 62
   253
 10
305.924465179443
 20
575.690490722656
 30
0.0
 11
306.449464321136
 21
575.690490722656
 31
0.0
  0
LINE
  5
   97B
  8
0
  6
CONTINUOUS
 62
   253
 10
305.925069869821
 20
562.584844907437
 30
0.0
 11
306.448989101623
 21
562.444461159852
 31
0.0
  0
LINE
  5
   97C
  8
0
  6
CONTINUOUS
 62
   253
 10
298.425098070387
 20
549.594456260708
 30
0.0
 11
298.949938360857
 21
549.453825740044
 31
0.0
  0
POLYLINE
  5
   97D
  8
0
  6
CONTINUOUS
 62
   253
 66
     1
 10
0.0
 20
0.0
 30
0.0
  0
VERTEX
  5
   97E
  8
0
  6
CONTINUOUS
 10
298.553198222924
 20
539.050325677827
 30
0.0
 40
0.0
 41
0.0
  0
VERTEX
  5
   97F
  8
0
  6
CONTINUOUS
 10
298.456466869125
 20
538.940595134666
 30
0.0
 40
0.0
 41
0.0
  0
SEQEND
  5
   980
  8
0
  6
CONTINUOUS
 62
   253
  0
ARC
  5
   981
  8
0
  6
CONTINUOUS
 62
   253
 10
299.549464866978
 20
538.527757240288
 30
0.0
 40
1.12500000000012
 50
124.210136268468
 51
152.321817821868
  0
LINE
  5
   982
  8
0
  6
CONTINUOUS
 62
   253
 10
299.699464866979
 20
531.065490722656
 30
0.0
 11
299.699464866979
 21
538.940490722656
 31
0.0
  0
ARC
  5
   983
  8
0
  6
CONTINUOUS
 62
   253
 10
299.549464866979
 20
531.478224201257
 30
0.0
 40
1.12500000000002
 50
207.678198137836
 51
235.789858220204
  0
POLYLINE
  5
   984
  8
0
  6
CONTINUOUS
 62
   253
 66
     1
 10
0.0
 20
0.0
 30
0.0
  0
VERTEX
  5
   985
  8
0
  6
CONTINUOUS
 10
298.45430803287
 20
531.065490720773
 30
0.0
 40
0.0
 41
0.0
  0
VERTEX
  5
   986
  8
0
  6
CONTINUOUS
 10
298.55319822291
 20
530.955655763745
 30
0.0
 40
0.0
 41
0.0
  0
SEQEND
  5
   987
  8
0
  6
CONTINUOUS
 62
   253
  0
LINE
  5
   988
  8
0
  6
CONTINUOUS
 62
   253
 10
298.746283091959
 20
524.315490722656
 30
0.0
 11
298.746283091959
 21
524.840490579605
 31
0.0
  0
LINE
  5
   989
  8
0
  6
CONTINUOUS
 62
   253
 10
298.424782752991
 20
524.840490722656
 30
0.0
 11
298.746283054352
 21
524.840490722656
 31
0.0
  0
LINE
  5
   98A
  8
0
  6
CONTINUOUS
 62
   253
 10
274.949464866979
 20
531.065490722656
 30
0.0
 11
274.949464866979
 21
535.752990722656
 31
0.0
  0
LINE
  5
   98B
  8
0
  6
CONTINUOUS
 62
   253
 10
273.824464321136
 20
535.752990722656
 30
0.0
 11
274.949464321137
 21
535.752990722656
 31
0.0
  0
LINE
  5
   98C
  8
0
  6
CONTINUOUS
 62
   253
 10
305.924781322479
 20
586.190490722656
 30
0.0
 11
306.120513916016
 21
586.190490722656
 31
0.0
  0
LINE
  5
   98D
  8
0
  6
CONTINUOUS
 62
   253
 10
305.924464866979
 20
575.690490722656
 30
0.0
 11
305.924464866979
 21
579.815490722656
 31
0.0
  0
LINE
  5
   98E
  8
0
  6
CONTINUOUS
 62
   253
 10
305.924464866979
 20
579.815490722656
 30
0.0
 11
305.924464866979
 21
586.190490722656
 31
0.0
  0
LINE
  5
   98F
  8
0
  6
CONTINUOUS
 62
   253
 10
305.925097851965
 20
562.584739685059
 30
0.0
 11
305.925097851965
 21
575.690490722656
 31
0.0
  0
LINE
  5
   990
  8
0
  6
CONTINUOUS
 62
   253
 10
298.425098080303
 20
549.594456730673
 30
0.0
 11
305.925041499542
 21
562.584739786687
 31
0.0
  0
LINE
  5
   991
  8
0
  6
CONTINUOUS
 62
   253
 10
298.424464866983
 20
524.840490579605
 30
0.0
 11
298.424464866983
 21
531.065490722656
 31
0.0
  0
LINE
  5
   992
  8
0
  6
CONTINUOUS
 62
   253
 10
298.425097851965
 20
538.940490722656
 30
0.0
 11
298.425097851965
 21
549.594456672668
 31
0.0
  0
LINE
  5
   993
  8
0
  6
CONTINUOUS
 62
   253
 10
273.824464321136
 20
538.940490722656
 30
0.0
 11
298.424782752991
 21
538.940490722656
 31
0.0
  0
LINE
  5
   994
  8
0
  6
CONTINUOUS
 62
   253
 10
273.824464321136
 20
531.065490720773
 30
0.0
 11
298.424781322479
 21
531.065490720773
 31
0.0
  0
LINE
  5
   995
  8
0
  6
CONTINUOUS
 62
   253
 10
287.699465036392
 20
528.815490722656
 30
0.0
 11
288.224464893341
 21
528.815490722656
 31
0.0
  0
LINE
  5
   996
  8
0
  6
CONTINUOUS
 62
   253
 10
288.224464866979
 20
524.840490579605
 30
0.0
 11
288.224464866979
 21
528.815490722656
 31
0.0
  0
LINE
  5
   997
  8
0
  6
CONTINUOUS
 62
   253
 10
288.224464893341
 20
524.840490722656
 30
0.0
 11
298.424782752991
 21
524.840490722656
 31
0.0
  0
LINE
  5
   998
  8
0
  6
CONTINUOUS
 62
   253
 10
273.824464321136
 20
528.815490722656
 30
0.0
 11
287.699465036392
 21
528.815490722656
 31
0.0
  0
LINE
  5
   999
  8
0
  6
CONTINUOUS
 62
     3
 10
306.120496749878
 20
586.190486836168
 30
0.0
 11
306.449464321136
 21
586.190486836168
 31
0.0
  0
LINE
  5
   99A
  8
0
  6
CONTINUOUS
 62
     3
 10
307.049465179443
 20
497.690490722656
 30
0.0
 11
307.574464321137
 21
497.690490722656
 31
0.0
  0
LINE
  5
   99B
  8
0
  6
CONTINUOUS
 62
     7
 10
307.574464866979
 20
497.690487861633
 30
0.0
 11
307.574464866979
 21
524.315486431122
 31
0.0
  0
LINE
  5
   99C
  8
0
  6
CONTINUOUS
 62
     7
 10
307.574464321137
 20
524.315486657018
 30
0.0
 11
308.324464321137
 21
524.315486657018
 31
0.0
  0
LINE
  5
   99D
  8
0
  6
CONTINUOUS
 62
     7
 10
308.324464321137
 20
524.315488655661
 30
0.0
 11
320.324465751648
 21
524.315487202102
 31
0.0
  0
LINE
  5
   99E
  8
0
  6
CONTINUOUS
 62
     7
 10
320.324464866978
 20
524.315486431122
 30
0.0
 11
320.324464866978
 21
524.840490579605
 31
0.0
  0
LINE
  5
   99F
  8
0
  6
CONTINUOUS
 62
     7
 10
320.324464866978
 20
530.315490722656
 30
0.0
 11
320.324464866978
 21
539.690490722656
 31
0.0
  0
LINE
  5
   9A0
  8
0
  6
CONTINUOUS
 62
   212
 10
274.949465607365
 20
531.065490722656
 30
0.0
 11
274.949465607365
 21
535.752985715866
 31
0.0
  0
LINE
  5
   9A1
  8
0
  6
CONTINUOUS
 62
   212
 10
273.824464321136
 20
535.752985825138
 30
0.0
 11
274.949465751648
 21
535.752985825138
 31
0.0
  0
LINE
  5
   9A2
  8
0
  6
CONTINUOUS
 62
     7
 10
287.699464866979
 20
524.315490722656
 30
0.0
 11
287.699464866979
 21
528.290490865707
 31
0.0
  0
LINE
  5
   9A3
  8
0
  6
CONTINUOUS
 62
     7
 10
287.699465036392
 20
524.315489336769
 30
0.0
 11
307.049465179443
 21
524.315488175285
 31
0.0
  0
LINE
  5
   9A4
  8
0
  6
CONTINUOUS
 62
     7
 10
287.699464866979
 20
528.290490865707
 30
0.0
 11
287.699464866979
 21
528.81548678875
 31
0.0
  0
LINE
  5
   9A5
  8
0
  6
CONTINUOUS
 62
     7
 10
273.824464321136
 20
528.290490722656
 30
0.0
 11
287.699465036392
 21
528.290490722656
 31
0.0
  0
LINE
  5
   9A6
  8
0
  6
CONTINUOUS
 62
     7
 10
307.049465179443
 20
524.315486657018
 30
0.0
 11
307.574464321137
 21
524.315486657018
 31
0.0
  0
LINE
  5
   9A7
  8
0
  6
CONTINUOUS
 62
     7
 10
307.049464866979
 20
516.815486431122
 30
0.0
 11
307.049464866979
 21
524.315490722656
 31
0.0
  0
LINE
  5
   9A8
  8
0
  6
CONTINUOUS
 62
     7
 10
307.049464866979
 20
497.690487861633
 30
0.0
 11
307.049464866979
 21
516.815486431122
 31
0.0
  0
INSERT
  5
   9A9
  8
0
  6
CONTINUOUS
 62
     7
  2
*UDIM1352
 10
0.0
 20
0.0
 30
0.0
  0
LINE
  5
   9AA
  8
0
  6
CONTINUOUS
 62
     3
 10
374.67300669244
 20
500.82703922689
 30
0.0
 11
440.153007057819
 21
500.82703922689
 31
0.0
  0
LINE
  5
   9AB
  8
0
  6
CONTINUOUS
 62
     3
 10
374.673006082091
 20
482.027038946748
 30
0.0
 11
374.673006082091
 21
500.82703922689
 31
0.0
  0
LINE
  5
   9AC
  8
0
  6
CONTINUOUS
 62
     3
 10
374.67300669244
 20
482.027038946748
 30
0.0
 11
440.153007057819
 21
482.027038946748
 31
0.0
  0
LINE
  5
   9AD
  8
0
  6
CONTINUOUS
 62
     3
 10
440.153007057819
 20
482.027038946748
 30
0.0
 11
440.153007057819
 21
500.82703922689
 31
0.0
  0
LINE
  5
   9AE
  8
0
  6
CONTINUOUS
 62
     7
 10
370.673006022487
 20
507.027039319277
 30
0.0
 11
444.153007117424
 21
507.027039319277
 31
0.0
  0
LINE
  5
   9AF
  8
0
  6
CONTINUOUS
 62
     7
 10
444.153007117424
 20
476.027038857341
 30
0.0
 11
444.153007117424
 21
507.027039319277
 31
0.0
  0
LINE
  5
   9B0
  8
0
  6
CONTINUOUS
 62
     7
 10
370.673006022487
 20
476.027038857341
 30
0.0
 11
370.673006022487
 21
507.027039319277
 31
0.0
  0
LINE
  5
   9B1
  8
0
  6
CONTINUOUS
 62
     7
 10
370.673006022487
 20
476.027038857341
 30
0.0
 11
444.153007117424
 21
476.027038857341
 31
0.0
  0
LINE
  5
   9B2
  8
0
  6
DASHDOT
 62
     7
 10
368.187694332326
 20
493.627039119601
 30
0.0
 11
452.252104864338
 21
493.627039119601
 31
0.0
  0
LINE
  5
   9B3
  8
0
  6
DASHDOT
 62
     7
 10
391.273006329451
 20
467.023942152576
 30
0.0
 11
391.273006329451
 21
516.739042877833
 31
0.0
  0
TEXT
  5
   9B4
  8
0
  6
CONTINUOUS
 62
     7
 10
448.06257173156
 20
494.153272004084
 30
0.0
 40
2.99999994933605
  1
X
 41
0.933333333333333
 72
     1
 11
449.162571712983
 21
495.653271978752
 31
0.0
 73
     2
  0
TEXT
  5
   9B5
  8
0
  6
CONTINUOUS
 62
     7
 10
388.303482486968
 20
467.301170087792
 30
0.0
 40
2.99999994933605
  1
Y
 41
0.933333333333333
 72
     1
 11
389.403482468391
 21
468.80117006246
 31
0.0
 73
     2
  0
TEXT
  5
   9B6
  8
0
  6
CONTINUOUS
 62
     7
 10
366.090439708837
 20
494.153272004084
 30
0.0
 40
2.99999994933605
  1
X
 41
0.933333333333333
 72
     1
 11
367.19043969026
 21
495.653271978752
 31
0.0
 73
     2
  0
TEXT
  5
   9B7
  8
0
  6
CONTINUOUS
 62
     7
 10
388.639810324405
 20
510.786912674209
 30
0.0
 40
2.99999994933605
  1
Y
 41
0.933333333333333
 72
     1
 11
389.739810305828
 21
512.286912648877
 31
0.0
 73
     2
  0
INSERT
  5
   9B8
  8
0
  6
CONTINUOUS
 62
     7
  2
*UDIM1353
 10
0.0
 20
0.0
 30
0.0
  0
INSERT
  5
   9B9
  8
0
  6
CONTINUOUS
 62
     7
  2
*UDIM1354
 10
0.0
 20
0.0
 30
0.0
  0
INSERT
  5
   9BA
  8
0
  6
CONTINUOUS
 62
     7
  2
*UDIM1355
 10
0.0
 20
0.0
 30
0.0
  0
INSERT
  5
   9BB
  8
0
  6
CONTINUOUS
 62
     7
  2
*UDIM1356
 10
0.0
 20
0.0
 30
0.0
  0
LINE
  5
   9BC
  8
0
  6
DASHDOT
 62
     7
 10
253.506666471839
 20
406.919335693121
 30
0.0
 11
255.249066687155
 21
406.919335693121
 31
0.0
  0
LINE
  5
   9BD
  8
0
  6
DASHDOT
 62
     7
 10
254.370666578412
 20
406.055335586548
 30
0.0
 11
254.370666578412
 21
407.783335799694
 31
0.0
  0
LINE
  5
   9BE
  8
0
  6
DASHDOT
 62
     7
 10
253.506666471839
 20
406.919335693121
 30
0.0
 11
255.249066687155
 21
406.919335693121
 31
0.0
  0
LINE
  5
   9BF
  8
0
  6
DASHDOT
 62
     7
 10
254.370666578412
 20
406.055335586548
 30
0.0
 11
254.370666578412
 21
407.783335799694
 31
0.0
  0
LINE
  5
   9C0
  8
0
  6
DASHDOT
 62
     7
 10
243.506666322827
 20
449.7193363329
 30
0.0
 11
245.249066538143
 21
449.7193363329
 31
0.0
  0
LINE
  5
   9C1
  8
0
  6
DASHDOT
 62
     7
 10
242.370666399598
 20
448.855336226327
 30
0.0
 11
242.370666399598
 21
450.583336439473
 31
0.0
  0
LINE
  5
   9C2
  8
0
  6
DASHDOT
 62
     7
 10
243.506666322827
 20
449.7193363329
 30
0.0
 11
245.249066538143
 21
449.7193363329
 31
0.0
  0
LINE
  5
   9C3
  8
0
  6
DASHDOT
 62
     7
 10
242.370666399598
 20
448.855336226327
 30
0.0
 11
242.370666399598
 21
450.583336439473
 31
0.0
  0
LINE
  5
   9C4
  8
0
  6
DASHDOT
 62
     7
 10
252.362908829089
 20
406.91933569513
 30
0.0
 11
257.144564223256
 21
406.91933569513
 31
0.0
  0
LINE
  5
   9C5
  8
0
  6
DASHDOT
 62
     7
 10
254.370666578412
 20
404.712938860191
 30
0.0
 11
254.370666578412
 21
409.311086420357
 31
0.0
  0
LINE
  5
   9C6
  8
0
  6
DASHDOT
 62
     7
 10
240.690666370392
 20
449.7193363329
 30
0.0
 11
244.078666430056
 21
449.7193363329
 31
0.0
  0
LINE
  5
   9C7
  8
0
  6
DASHDOT
 62
     7
 10
240.978666375399
 20
449.7193363329
 30
0.0
 11
243.785866424835
 21
449.7193363329
 31
0.0
  0
LINE
  5
   9C8
  8
0
  6
DASHDOT
 62
     7
 10
241.362666382074
 20
449.7193363329
 30
0.0
 11
243.395466417873
 21
449.7193363329
 31
0.0
  0
LINE
  5
   9C9
  8
0
  6
DASHDOT
 62
     7
 10
242.370666399598
 20
448.711336315376
 30
0.0
 11
242.370666399598
 21
450.727336350424
 31
0.0
  0
LINE
  5
   9CA
  8
0
  6
DASHDOT
 62
     7
 10
242.370666399598
 20
447.425941024136
 30
0.0
 11
242.370666399598
 21
451.706341544344
 31
0.0
  0
LINE
  5
   9CB
  8
0
  6
CONTINUOUS
 62
     7
 10
238.370666339994
 20
453.719336392505
 30
0.0
 11
299.610667252541
 21
453.719336392505
 31
0.0
  0
LINE
  5
   9CC
  8
0
  6
CONTINUOUS
 62
     7
 10
238.370666339994
 20
402.919335635526
 30
0.0
 11
238.370666339994
 21
453.719336392505
 31
0.0
  0
LINE
  5
   9CD
  8
0
  6
CONTINUOUS
 62
     7
 10
238.370666339994
 20
402.919335635526
 30
0.0
 11
299.610667252541
 21
402.919335635526
 31
0.0
  0
LINE
  5
   9CE
  8
0
  6
CONTINUOUS
 62
     7
 10
299.610667252541
 20
402.919335635526
 30
0.0
 11
299.610667252541
 21
453.719336392505
 31
0.0
  0
CIRCLE
  5
   9CF
  8
0
  6
CONTINUOUS
 62
     7
 10
242.370666399598
 20
449.7193363329
 30
0.0
 40
0.900000013411045
  0
CIRCLE
  5
   9D0
  8
0
  6
CONTINUOUS
 62
     7
 10
254.370666578412
 20
406.91933569513
 30
0.0
 40
0.900000013411046
  0
LINE
  5
   9D1
  8
0
  6
DASHDOT
 62
     7
 10
229.703139780805
 20
428.319336014015
 30
0.0
 11
306.686048182602
 21
428.319336014015
 31
0.0
  0
TEXT
  5
   9D2
  8
0
  6
CONTINUOUS
 62
     7
 10
245.759196650357
 20
456.508246740349
 30
0.0
 40
2.99999994933605
  1
Y
 41
0.933333333333333
 72
     1
 11
246.859196631781
 21
458.008246715017
 31
0.0
 73
     2
  0
TEXT
  5
   9D3
  8
0
  6
CONTINUOUS
 62
     7
 10
245.570341716597
 20
396.38268544784
 30
0.0
 40
2.99999994933605
  1
Y
 41
0.933333333333333
 72
     1
 11
246.67034169802
 21
397.882685422508
 31
0.0
 73
     2
  0
TEXT
  5
   9D4
  8
0
  6
CONTINUOUS
 62
     7
 10
303.594181912031
 20
428.865734054703
 30
0.0
 40
2.99999994933605
  1
X
 41
0.933333333333333
 72
     1
 11
304.694181893454
 21
430.365734029371
 31
0.0
 73
     2
  0
TEXT
  5
   9D5
  8
0
  6
CONTINUOUS
 62
     7
 10
233.239045676046
 20
428.708354943235
 30
0.0
 40
2.99999994933605
  1
X
 41
0.933333333333333
 72
     1
 11
234.339045657469
 21
430.208354917903
 31
0.0
 73
     2
  0
INSERT
  5
   9D6
  8
0
  6
CONTINUOUS
 62
     7
  2
*UDIM1357
 10
0.0
 20
0.0
 30
0.0
  0
INSERT
  5
   9D7
  8
0
  6
CONTINUOUS
 62
     7
  2
*UDIM1358
 10
0.0
 20
0.0
 30
0.0
  0
INSERT
  5
   9D8
  8
0
  6
CONTINUOUS
 62
     7
  2
*UDIM1359
 10
0.0
 20
0.0
 30
0.0
  0
LINE
  5
   9D9
  8
0
  6
DASHDOT
 62
     7
 10
240.330666364133
 20
449.7193363329
 30
0.0
 11
244.444666436583
 21
449.7193363329
 31
0.0
  0
LINE
  5
   9DA
  8
0
  6
DASHDOT
 62
     7
 10
242.370666399598
 20
447.679336297435
 30
0.0
 11
242.370666399598
 21
451.759336368365
 31
0.0
  0
LINE
  5
   9DB
  8
0
  6
DASHDOT
 62
     7
 10
252.330666542947
 20
406.919335691112
 30
0.0
 11
256.444666615397
 21
406.919335691112
 31
0.0
  0
LINE
  5
   9DC
  8
0
  6
DASHDOT
 62
     7
 10
254.370666578412
 20
404.879335655647
 30
0.0
 11
254.370666578412
 21
408.959335726577
 31
0.0
  0
LINE
  5
   9DD
  8
0
  6
DASHDOT
 62
     7
 10
248.370666489005
 20
395.956024041627
 30
0.0
 11
248.370666489005
 21
464.185094460298
 31
0.0
  0
LINE
  5
   9DE
  8
0
  6
DASHDOT
 62
     7
 10
293.69866716218
 20
444.915802829135
 30
0.0
 11
295.537867194571
 21
444.915802829135
 31
0.0
  0
LINE
  5
   9DF
  8
0
  6
DASHDOT
 62
     7
 10
294.610667178036
 20
444.00380281328
 30
0.0
 11
294.610667178036
 21
445.827802844991
 31
0.0
  0
LINE
  5
   9E0
  8
0
  6
DASHDOT
 62
     7
 10
293.69866716218
 20
444.915802829135
 30
0.0
 11
295.537867194571
 21
444.915802829135
 31
0.0
  0
LINE
  5
   9E1
  8
0
  6
DASHDOT
 62
     7
 10
294.610667178036
 20
444.00380281328
 30
0.0
 11
294.610667178036
 21
445.827802844991
 31
0.0
  0
LINE
  5
   9E2
  8
0
  6
DASHDOT
 62
     7
 10
293.554667159677
 20
444.915802829135
 30
0.0
 11
295.68426719718
 21
444.915802829135
 31
0.0
  0
LINE
  5
   9E3
  8
0
  6
DASHDOT
 62
     7
 10
294.610667178035
 20
442.342046133667
 30
0.0
 11
294.610667178035
 21
447.283437641355
 31
0.0
  0
LINE
  5
   9E4
  8
0
  6
DASHDOT
 62
     7
 10
292.57066714257
 20
444.915802829135
 30
0.0
 11
296.68466721502
 21
444.915802829135
 31
0.0
  0
POINT
  5
   9E5
  8
0
  6
CONTINUOUS
 62
     7
 10
268.610666790605
 20
411.715802334416
 30
0.0
  0
POINT
  5
   9E6
  8
0
  6
CONTINUOUS
 62
     7
 10
294.610667178035
 20
444.915802829135
 30
0.0
  0
POINT
  5
   9E7
  8
0
  6
CONTINUOUS
 62
     7
 10
254.370666578412
 20
406.919335691112
 30
0.0
  0
POINT
  5
   9E8
  8
0
  6
CONTINUOUS
 62
     7
 10
242.370666399598
 20
449.7193363329
 30
0.0
  0
CIRCLE
  5
   9E9
  8
0
  6
CONTINUOUS
 62
     7
 10
294.610667178035
 20
444.915802829135
 30
0.0
 40
0.900000013411046
  0
CIRCLE
  5
   9EA
  8
0
  6
CONTINUOUS
 62
     7
 10
268.610666790605
 20
411.715802334416
 30
0.0
 40
0.900000013411046
  0
INSERT
  5
   9EB
  8
0
  6
CONTINUOUS
 62
     7
  2
*UDIM1360
 10
0.0
 20
0.0
 30
0.0
  0
LINE
  5
   9EC
  8
0
  6
DASHDOT
 62
     7
 10
268.610666790605
 20
410.30468351367
 30
0.0
 11
268.610666790605
 21
413.297357600433
 31
0.0
  0
LINE
  5
   9ED
  8
0
  6
DASHDOT
 62
     7
 10
267.161875871006
 20
411.715802334416
 30
0.0
 11
271.148883451982
 21
411.715802334416
 31
0.0
  0
INSERT
  5
   9EE
  8
0
  6
CONTINUOUS
 62
     7
  2
*UDIM1361
 10
0.0
 20
0.0
 30
0.0
  0
INSERT
  5
   9EF
  8
0
  6
CONTINUOUS
 62
     7
  2
*UDIM1362
 10
0.0
 20
0.0
 30
0.0
  0
INSERT
  5
   9F0
  8
0
  6
CONTINUOUS
 62
     7
  2
*UDIM1363
 10
0.0
 20
0.0
 30
0.0
  0
INSERT
  5
   9F1
  8
0
  6
CONTINUOUS
 62
     7
  2
*UDIM1364
 10
0.0
 20
0.0
 30
0.0
  0
TEXT
  5
   9F2
  8
0
  6
CONTINUOUS
 62
     7
 10
203.885626346675
 20
392.332697097397
 30
0.0
 40
2.99999994933605
  1
3POLE C.BREAKER
 41
0.933333333333333
 72
     1
 11
224.585625997093
 21
393.832697072065
 31
0.0
 73
     2
  0
TEXT
  5
   9F3
  8
0
  6
CONTINUOUS
 62
     7
 10
203.885626346675
 20
387.432697002029
 30
0.0
 40
2.99999994933605
  1
INTERRUTTORE TRIPOLARE
 41
0.933333333333333
 72
     1
 11
234.385625831591
 21
388.932696976697
 31
0.0
 73
     2
  0
INSERT
  5
   9F4
  8
0
  6
CONTINUOUS
 62
     7
  2
*UDIM1365
 10
0.0
 20
0.0
 30
0.0
  0
INSERT
  5
   9F5
  8
0
  6
CONTINUOUS
 62
     7
  2
*UDIM1366
 10
0.0
 20
0.0
 30
0.0
  0
LINE
  5
   9F6
  8
0
  6
DASHDOT
 62
     7
 10
145.605677870098
 20
411.715802334416
 30
0.0
 11
148.528754885076
 21
411.715802334416
 31
0.0
  0
LINE
  5
   9F7
  8
0
  6
DASHDOT
 62
     7
 10
147.054468789697
 20
410.30468351367
 30
0.0
 11
147.054468789697
 21
413.297357600433
 31
0.0
  0
INSERT
  5
   9F8
  8
0
  6
CONTINUOUS
 62
     7
  2
*UDIM1367
 10
0.0
 20
0.0
 30
0.0
  0
CIRCLE
  5
   9F9
  8
0
  6
CONTINUOUS
 62
     7
 10
147.054468789697
 20
411.715802334416
 30
0.0
 40
0.900000013411045
  0
CIRCLE
  5
   9FA
  8
0
  6
CONTINUOUS
 62
     7
 10
173.054469177127
 20
444.915802829135
 30
0.0
 40
0.900000013411045
  0
POINT
  5
   9FB
  8
0
  6
CONTINUOUS
 62
     7
 10
120.81446839869
 20
449.7193363329
 30
0.0
  0
POINT
  5
   9FC
  8
0
  6
CONTINUOUS
 62
     7
 10
132.814468577504
 20
406.919335691112
 30
0.0
  0
POINT
  5
   9FD
  8
0
  6
CONTINUOUS
 62
     7
 10
173.054469177127
 20
444.915802829135
 30
0.0
  0
POINT
  5
   9FE
  8
0
  6
CONTINUOUS
 62
     7
 10
147.054468789697
 20
411.715802334416
 30
0.0
  0
LINE
  5
   9FF
  8
0
  6
DASHDOT
 62
     7
 10
171.014469141662
 20
444.915802829135
 30
0.0
 11
175.128469214112
 21
444.915802829135
 31
0.0
  0
LINE
  5
   A00
  8
0
  6
DASHDOT
 62
     7
 10
173.054469177127
 20
442.342046133667
 30
0.0
 11
173.054469177127
 21
447.283437641355
 31
0.0
  0
LINE
  5
   A01
  8
0
  6
DASHDOT
 62
     7
 10
171.998469158769
 20
444.915802829135
 30
0.0
 11
174.128069196272
 21
444.915802829135
 31
0.0
  0
LINE
  5
   A02
  8
0
  6
DASHDOT
 62
     7
 10
173.054469177128
 20
444.00380281328
 30
0.0
 11
173.054469177128
 21
445.827802844991
 31
0.0
  0
LINE
  5
   A03
  8
0
  6
DASHDOT
 62
     7
 10
172.142469161272
 20
444.915802829135
 30
0.0
 11
173.981669193663
 21
444.915802829135
 31
0.0
  0
LINE
  5
   A04
  8
0
  6
DASHDOT
 62
     7
 10
173.054469177128
 20
444.00380281328
 30
0.0
 11
173.054469177128
 21
445.827802844991
 31
0.0
  0
LINE
  5
   A05
  8
0
  6
DASHDOT
 62
     7
 10
172.142469161272
 20
444.915802829135
 30
0.0
 11
173.981669193663
 21
444.915802829135
 31
0.0
  0
LINE
  5
   A06
  8
0
  6
DASHDOT
 62
     7
 10
126.814468488097
 20
395.155237088415
 30
0.0
 11
126.814468488097
 21
464.897774002248
 31
0.0
  0
LINE
  5
   A07
  8
0
  6
DASHDOT
 62
     7
 10
132.814468577504
 20
404.879335655647
 30
0.0
 11
132.814468577504
 21
408.959335726577
 31
0.0
  0
LINE
  5
   A08
  8
0
  6
DASHDOT
 62
     7
 10
130.774468542039
 20
406.919335691112
 30
0.0
 11
134.888468614489
 21
406.919335691112
 31
0.0
  0
LINE
  5
   A09
  8
0
  6
DASHDOT
 62
     7
 10
120.81446839869
 20
447.679336297435
 30
0.0
 11
120.81446839869
 21
451.759336368365
 31
0.0
  0
LINE
  5
   A0A
  8
0
  6
DASHDOT
 62
     7
 10
118.774468363225
 20
449.7193363329
 30
0.0
 11
122.888468435675
 21
449.7193363329
 31
0.0
  0
INSERT
  5
   A0B
  8
0
  6
CONTINUOUS
 62
     7
  2
*UDIM1368
 10
0.0
 20
0.0
 30
0.0
  0
INSERT
  5
   A0C
  8
0
  6
CONTINUOUS
 62
     7
  2
*UDIM1369
 10
0.0
 20
0.0
 30
0.0
  0
INSERT
  5
   A0D
  8
0
  6
CONTINUOUS
 62
     7
  2
*UDIM1370
 10
0.0
 20
0.0
 30
0.0
  0
TEXT
  5
   A0E
  8
0
  6
CONTINUOUS
 62
     7
 10
99.6828474963238
 20
428.708354943235
 30
0.0
 40
2.99999994933605
  1
X
 41
0.933333333333333
 72
     1
 11
100.782847477747
 21
430.208354917903
 31
0.0
 73
     2
  0
TEXT
  5
   A0F
  8
0
  6
CONTINUOUS
 62
     7
 10
181.037983896222
 20
428.865734054702
 30
0.0
 40
2.99999994933605
  1
X
 41
0.933333333333333
 72
     1
 11
182.137983877645
 21
430.365734029371
 31
0.0
 73
     2
  0
TEXT
  5
   A10
  8
0
  6
CONTINUOUS
 62
     7
 10
124.014143715689
 20
396.38268544784
 30
0.0
 40
2.99999994933605
  1
Y
 41
0.933333333333333
 72
     1
 11
125.114143697112
 21
397.882685422508
 31
0.0
 73
     2
  0
TEXT
  5
   A11
  8
0
  6
CONTINUOUS
 62
     7
 10
124.202998649449
 20
456.508246740349
 30
0.0
 40
2.99999994933605
  1
Y
 41
0.933333333333333
 72
     1
 11
125.302998630873
 21
458.008246715017
 31
0.0
 73
     2
  0
CIRCLE
  5
   A12
  8
0
  6
CONTINUOUS
 62
     7
 10
132.814468577504
 20
406.91933569513
 30
0.0
 40
0.900000013411045
  0
LINE
  5
   A13
  8
0
  6
CONTINUOUS
 62
     7
 10
177.054469236732
 20
402.919335635526
 30
0.0
 11
177.054469236732
 21
453.719336392505
 31
0.0
  0
LINE
  5
   A14
  8
0
  6
CONTINUOUS
 62
     7
 10
104.814468160272
 20
402.919335635526
 30
0.0
 11
177.054469236732
 21
402.919335635526
 31
0.0
  0
LINE
  5
   A15
  8
0
  6
CONTINUOUS
 62
     7
 10
104.814468160272
 20
402.919335635526
 30
0.0
 11
104.814468160272
 21
453.719336392505
 31
0.0
  0
LINE
  5
   A16
  8
0
  6
CONTINUOUS
 62
     7
 10
104.814468160272
 20
453.719336392505
 30
0.0
 11
177.054469236732
 21
453.719336392505
 31
0.0
  0
LINE
  5
   A17
  8
0
  6
DASHDOT
 62
     7
 10
120.81446839869
 20
448.711336315376
 30
0.0
 11
120.81446839869
 21
450.727336350424
 31
0.0
  0
LINE
  5
   A18
  8
0
  6
DASHDOT
 62
     7
 10
119.806468381166
 20
449.7193363329
 30
0.0
 11
121.839268416965
 21
449.7193363329
 31
0.0
  0
LINE
  5
   A19
  8
0
  6
DASHDOT
 62
     7
 10
119.422468374491
 20
449.7193363329
 30
0.0
 11
122.229668423927
 21
449.7193363329
 31
0.0
  0
LINE
  5
   A1A
  8
0
  6
DASHDOT
 62
     7
 10
120.81446839869
 20
448.855336226327
 30
0.0
 11
120.81446839869
 21
450.583336439473
 31
0.0
  0
LINE
  5
   A1B
  8
0
  6
DASHDOT
 62
     7
 10
121.950468321919
 20
449.7193363329
 30
0.0
 11
123.692868537235
 21
449.7193363329
 31
0.0
  0
LINE
  5
   A1C
  8
0
  6
DASHDOT
 62
     7
 10
120.81446839869
 20
448.855336226327
 30
0.0
 11
120.81446839869
 21
450.583336439473
 31
0.0
  0
LINE
  5
   A1D
  8
0
  6
DASHDOT
 62
     7
 10
121.950468321919
 20
449.7193363329
 30
0.0
 11
123.692868537235
 21
449.7193363329
 31
0.0
  0
LINE
  5
   A1E
  8
0
  6
DASHDOT
 62
     7
 10
132.814468577504
 20
406.055335586548
 30
0.0
 11
132.814468577504
 21
407.783335799694
 31
0.0
  0
LINE
  5
   A1F
  8
0
  6
DASHDOT
 62
     7
 10
131.950468470931
 20
406.919335693121
 30
0.0
 11
133.692868686247
 21
406.919335693121
 31
0.0
  0
LINE
  5
   A20
  8
0
  6
DASHDOT
 62
     7
 10
132.814468577504
 20
406.055335586548
 30
0.0
 11
132.814468577504
 21
407.783335799694
 31
0.0
  0
LINE
  5
   A21
  8
0
  6
DASHDOT
 62
     7
 10
131.950468470931
 20
406.919335693121
 30
0.0
 11
133.692868686247
 21
406.919335693121
 31
0.0
  0
LINE
  5
   A22
  8
0
  6
DASHDOT
 62
     7
 10
97.9060145877376
 20
428.319336014015
 30
0.0
 11
185.434262202768
 21
428.319336014015
 31
0.0
  0
CIRCLE
  5
   A23
  8
0
  6
CONTINUOUS
 62
     7
 10
120.81446839869
 20
449.7193363329
 30
0.0
 40
0.900000013411045
  0
LINE
  5
   A24
  8
0
  6
DASHDOT
 62
     7
 10
120.81446839869
 20
447.425941024136
 30
0.0
 11
120.81446839869
 21
451.706341544344
 31
0.0
  0
LINE
  5
   A25
  8
0
  6
DASHDOT
 62
     7
 10
119.134468369484
 20
449.7193363329
 30
0.0
 11
122.522468429148
 21
449.7193363329
 31
0.0
  0
LINE
  5
   A26
  8
0
  6
DASHDOT
 62
     7
 10
132.814468577504
 20
404.712938860191
 30
0.0
 11
132.814468577504
 21
409.311086420357
 31
0.0
  0
LINE
  5
   A27
  8
0
  6
DASHDOT
 62
     7
 10
130.806710828181
 20
406.91933569513
 30
0.0
 11
135.588366222348
 21
406.91933569513
 31
0.0
  0
CIRCLE
  5
   A28
  8
0
  6
CONTINUOUS
 62
     7
 10
108.814468219876
 20
406.91933569513
 30
0.0
 40
0.900000013411045
  0
LINE
  5
   A29
  8
0
  6
DASHDOT
 62
     7
 10
108.814468219876
 20
404.712938860191
 30
0.0
 11
108.814468219876
 21
409.311086420357
 31
0.0
  0
LINE
  5
   A2A
  8
0
  6
DASHDOT
 62
     7
 10
106.806710470553
 20
406.91933569513
 30
0.0
 11
111.58836586472
 21
406.91933569513
 31
0.0
  0
INSERT
  5
   A2B
  8
0
  6
CONTINUOUS
 62
     7
  2
*UDIM1371
 10
0.0
 20
0.0
 30
0.0
  0
INSERT
  5
   A2C
  8
0
  6
CONTINUOUS
 62
     7
  2
*UDIM1372
 10
0.0
 20
0.0
 30
0.0
  0
INSERT
  5
   A2D
  8
0
  6
CONTINUOUS
 62
     7
  2
*UDIM1373
 10
0.0
 20
0.0
 30
0.0
  0
TEXT
  5
   A2E
  8
0
  6
CONTINUOUS
 62
     7
 10
104.331546105805
 20
382.864407894886
 30
0.0
 40
2.99999994933605
  1
4POLE C.BREAKER
 41
0.933333333333333
 72
     1
 11
125.031545756223
 21
384.364407869554
 31
0.0
 73
     2
  0
TEXT
  5
   A2F
  8
0
  6
CONTINUOUS
 62
     7
 10
104.331546105805
 20
377.964407799519
 30
0.0
 40
2.99999994933605
  1
INTERRUTTORE TETRAPOLARE
 41
0.933333333333333
 72
     1
 11
137.631545543435
 21
379.464407774187
 31
0.0
 73
     2
  0
TEXT
  5
   A30
  8
0
  6
CONTINUOUS
 62
     7
 10
285.848123870589
 20
478.03805257111
 30
0.0
 40
1.40000456571571
  1
PROFONDITA' QUADRO
 41
0.933333333333333
 11
285.848123870589
 21
478.738054853968
 31
0.0
 73
     2
  0
TEXT
  5
   A31
  8
0
  6
CONTINUOUS
 62
     7
 10
285.848123870589
 20
480.208052534155
 30
0.0
 40
1.40000456571571
  1
COMPARTMENT DEPTH
 41
0.933333333333333
 11
285.848123870589
 21
480.908054817013
 31
0.0
 73
     2
  0
ENDSEC
  0
EOF
