  0
SECTION
  2
HEADER
  9
$ACADVER
  1
AC1009
  9
$DWGCODEPAGE
  3
iso8859-1
  9
$INSBASE
 10
0.0
 20
0.0
 30
0.0
  9
$EXTMIN
 10
1.0E20
 20
1.0E20
  9
$EXTMAX
 10
-1.0E20
 20
-1.0E20
  9
$LIMMIN
 10
0.0
 20
0.0
  9
$LIMMAX
 10
12.0
 20
9.0
  9
$ORTHOMODE
 70
     0
  9
$REGENMODE
 70
     1
  9
$FILLMODE
 70
     1
  9
$QTEXTMODE
 70
     0
  9
$MIRRTEXT
 70
     1
  9
$DRAGMODE
 70
     2
  9
$LTSCALE
 40
15.0
  9
$OSMODE
 70
     0
  9
$ATTMODE
 70
     1
  9
$TEXTSIZE
 40
0.2
  9
$TRACEWID
 40
0.05
  9
$TEXTSTYLE
  7
STANDARD
  9
$CLAYER
  8
0
  9
$CELTYPE
  6
DASHED
  9
$CECOLOR
 62
   256
  9
$DIMSCALE
 40
1.0
  9
$DIMASZ
 40
0.18
  9
$DIMEXO
 40
0.0625
  9
$DIMDLI
 40
0.38
  9
$DIMRND
 40
0.0
  9
$DIMDLE
 40
0.0
  9
$DIMEXE
 40
0.18
  9
$DIMTP
 40
0.0
  9
$DIMTM
 40
0.0
  9
$DIMTXT
 40
0.18
  9
$DIMCEN
 40
0.09
  9
$DIMTSZ
 40
0.0
  9
$DIMTOL
 70
     0
  9
$DIMLIM
 70
     0
  9
$DIMTIH
 70
     1
  9
$DIMTOH
 70
     1
  9
$DIMSE1
 70
     0
  9
$DIMSE2
 70
     0
  9
$DIMTAD
 70
     0
  9
$DIMZIN
 70
     0
  9
$DIMBLK
  1

  9
$DIMASO
 70
     1
  9
$DIMSHO
 70
     1
  9
$DIMPOST
  1

  9
$DIMAPOST
  1

  9
$DIMALT
 70
     0
  9
$DIMALTD
 70
     2
  9
$DIMALTF
 40
25.4
  9
$DIMLFAC
 40
1.0
  9
$DIMTOFL
 70
     0
  9
$DIMTVP
 40
0.0
  9
$DIMTIX
 70
     0
  9
$DIMSOXD
 70
     0
  9
$DIMSAH
 70
     0
  9
$DIMBLK1
  1

  9
$DIMBLK2
  1

  9
$DIMSTYLE
  2
STANDARD
  9
$DIMCLRD
 70
     0
  9
$DIMCLRE
 70
     0
  9
$DIMCLRT
 70
     0
  9
$DIMTFAC
 40
1.0
  9
$DIMGAP
 40
0.09
  9
$LUNITS
 70
     2
  9
$LUPREC
 70
     4
  9
$AXISMODE
 70
     0
  9
$AXISUNIT
 10
0.0
 20
0.0
  9
$SKETCHINC
 40
0.1
  9
$FILLETRAD
 40
0.0
  9
$AUNITS
 70
     0
  9
$AUPREC
 70
     0
  9
$MENU
  1
acad
  9
$ELEVATION
 40
0.0
  9
$PELEVATION
 40
0.0
  9
$THICKNESS
 40
0.0
  9
$LIMCHECK
 70
     0
  9
$BLIPMODE
 70
     1
  9
$CHAMFERA
 40
0.0
  9
$CHAMFERB
 40
0.0
  9
$SKPOLY
 70
     0
  9
$TDCREATE
 40
0.000000000
  9
$TDUPDATE
 40
0.000000000
  9
$TDINDWG
 40
0.0
  9
$TDUSRTIMER
 40
0.0
  9
$USRTIMER
 70
     1
  9
$ANGBASE
 50
0.0
  9
$ANGDIR
 70
     0
  9
$PDMODE
 70
     0
  9
$PDSIZE
 40
0.0
  9
$PLINEWID
 40
0.0
  9
$COORDS
 70
     1
  9
$SPLFRAME
 70
     0
  9
$SPLINETYPE
 70
     6
  9
$SPLINESEGS
 70
     8
  9
$ATTDIA
 70
     0
  9
$ATTREQ
 70
     1
  9
$HANDLING
 70
     1
  9
$HANDSEED
  5
   678
  9
$SURFTAB1
 70
     6
  9
$SURFTAB2
 70
     6
  9
$SURFTYPE
 70
     6
  9
$SURFU
 70
     6
  9
$SURFV
 70
     6
  9
$UCSNAME
  2

  9
$UCSORG
 10
0.0
 20
0.0
 30
0.0
  9
$UCSXDIR
 10
1.0
 20
0.0
 30
0.0
  9
$UCSYDIR
 10
0.0
 20
1.0
 30
0.0
  9
$PUCSNAME
  2

  9
$PUCSORG
 10
0.0
 20
0.0
 30
0.0
  9
$PUCSXDIR
 10
1.0
 20
0.0
 30
0.0
  9
$PUCSYDIR
 10
0.0
 20
1.0
 30
0.0
  9
$USERI1
 70
     0
  9
$USERI2
 70
     0
  9
$USERI3
 70
     0
  9
$USERI4
 70
     0
  9
$USERI5
 70
     0
  9
$USERR1
 40
0.0
  9
$USERR2
 40
0.0
  9
$USERR3
 40
0.0
  9
$USERR4
 40
0.0
  9
$USERR5
 40
0.0
  9
$WORLDVIEW
 70
     1
  9
$SHADEDGE
 70
     3
  9
$SHADEDIF
 70
    70
  9
$TILEMODE
 70
     1
  9
$MAXACTVP
 70
    16
  9
$PINSBASE
 10
0.0
 20
0.0
 30
0.0
  9
$PLIMCHECK
 70
     0
  9
$PEXTMIN
 10
1.0E20
 20
1.0E20
 30
1.0E20
  9
$PEXTMAX
 10
-1.0E20
 20
-1.0E20
 30
-1.0E20
  9
$PLIMMIN
 10
0.0
 20
0.0
  9
$PLIMMAX
 10
12.0
 20
9.0
  9
$UNITMODE
 70
     0
  9
$VISRETAIN
 70
     0
  0
ENDSEC
  0
SECTION
  2
TABLES
  0
TABLE
  2
VPORT
 70
     1
  0
VPORT
  2
*ACTIVE
 70
     0
 10
0.0
 20
0.0
 11
1.0
 21
1.0
 12
6.801242
 22
4.5
 13
0.0
 23
0.0
 14
1.0
 24
1.0
 15
0.0
 25
0.0
 16
0.0
 26
0.0
 36
1.0
 17
0.0
 27
0.0
 37
0.0
 40
9.0
 41
1.511387
 42
50.0
 43
0.0
 44
0.0
 50
0.0
 51
0.0
 71
     0
 72
   100
 73
     1
 74
     1
 75
     0
 76
     0
 77
     0
 78
     0
  0
ENDTAB
  0
TABLE
  2
LTYPE
 70
    41
  0
LTYPE
  2
BYBLOCK
 70
     0
  3

 72
    65
 73
     0
 40
0.0
  0
LTYPE
  2
BYLAYER
 70
     0
  3

 72
    65
 73
     0
 40
0.0
  0
LTYPE
  2
CONTINUOUS
 70
     0
  3
Solid line
 72
    65
 73
     0
 40
0.0
  0
LTYPE
  2
BORDER
 70
    64
  3
__ __ . __ __ . __ __ . __ __ . __ __ . __ __ .
 72
    65
 73
     6
 40
1.75
 49
0.5
 49
-0.25
 49
0.5
 49
-0.25
 49
0.0
 49
-0.25
  0
LTYPE
  2
BORDER2
 70
    64
  3
__.__.__.__.__.__.__.__.__.__.__.__.__.__.__.__
 72
    65
 73
     6
 40
0.875
 49
0.25
 49
-0.125
 49
0.25
 49
-0.125
 49
0.0
 49
-0.125
  0
LTYPE
  2
BORDERX2
 70
    64
  3
____  ____  .  ____  ____  .  ____  ____  .  __
 72
    65
 73
     6
 40
3.5
 49
1.0
 49
-0.5
 49
1.0
 49
-0.5
 49
0.0
 49
-0.5
  0
LTYPE
  2
CENTER
 70
    64
  3
____ _ ____ _ ____ _ ____ _ ____ _ ____ _ ____
 72
    65
 73
     4
 40
2.0
 49
1.25
 49
-0.25
 49
0.25
 49
-0.25
  0
LTYPE
  2
CENTER2
 70
    64
  3
___ _ ___ _ ___ _ ___ _ ___ _ ___ _ ___ _ ___ _
 72
    65
 73
     4
 40
1.125
 49
0.75
 49
-0.125
 49
0.125
 49
-0.125
  0
LTYPE
  2
CENTERX2
 70
    64
  3
________  __  ________  __  ________  __  _____
 72
    65
 73
     4
 40
4.0
 49
2.5
 49
-0.5
 49
0.5
 49
-0.5
  0
LTYPE
  2
DASHDOT
 70
    64
  3
__ . __ . __ . __ . __ . __ . __ . __ . __ . __
 72
    65
 73
     4
 40
1.0
 49
0.5
 49
-0.25
 49
0.0
 49
-0.25
  0
LTYPE
  2
DASHDOT2
 70
    64
  3
_._._._._._._._._._._._._._._._._._._._._._._._
 72
    65
 73
     4
 40
0.5
 49
0.25
 49
-0.125
 49
0.0
 49
-0.125
  0
LTYPE
  2
DASHDOTX2
 70
    64
  3
____  .  ____  .  ____  .  ____  .  ____  .  __
 72
    65
 73
     4
 40
2.0
 49
1.0
 49
-0.5
 49
0.0
 49
-0.5
  0
LTYPE
  2
DASHED
 70
    64
  3
__ __ __ __ __ __ __ __ __ __ __ __ __ __ __ __
 72
    65
 73
     2
 40
0.75
 49
0.5
 49
-0.25
  0
LTYPE
  2
DASHED2
 70
    64
  3
_ _ _ _ _ _ _ _ _ _ _ _ _ _ _ _ _ _ _ _ _ _ _ _
 72
    65
 73
     2
 40
0.375
 49
0.25
 49
-0.125
  0
LTYPE
  2
DASHEDX2
 70
    64
  3
____  ____  ____  ____  ____  ____  ____  ____
 72
    65
 73
     2
 40
1.5
 49
1.0
 49
-0.5
  0
LTYPE
  2
DIVIDE
 70
    64
  3
____ . . ____ . . ____ . . ____ . . ____ . . __
 72
    65
 73
     6
 40
1.25
 49
0.5
 49
-0.25
 49
0.0
 49
-0.25
 49
0.0
 49
-0.25
  0
LTYPE
  2
DIVIDE2
 70
    64
  3
__..__..__..__..__..__..__..__..__..__..__..__.
 72
    65
 73
     6
 40
0.625
 49
0.25
 49
-0.125
 49
0.0
 49
-0.125
 49
0.0
 49
-0.125
  0
LTYPE
  2
DIVIDEX2
 70
    64
  3
________  .  .  ________  .  .  ________  .  .
 72
    65
 73
     6
 40
2.5
 49
1.0
 49
-0.5
 49
0.0
 49
-0.5
 49
0.0
 49
-0.5
  0
LTYPE
  2
DOT
 70
    64
  3
. . . . . . . . . . . . . . . . . . . . . . . .
 72
    65
 73
     2
 40
0.25
 49
0.0
 49
-0.25
  0
LTYPE
  2
DOT2
 70
    64
  3
...............................................
 72
    65
 73
     2
 40
0.125
 49
0.0
 49
-0.125
  0
LTYPE
  2
DOTX2
 70
    64
  3
.  .  .  .  .  .  .  .  .  .  .  .  .  .  .  .
 72
    65
 73
     2
 40
0.5
 49
0.0
 49
-0.5
  0
LTYPE
  2
HIDDEN
 70
    64
  3
__ __ __ __ __ __ __ __ __ __ __ __ __ __ __ __
 72
    65
 73
     2
 40
0.375
 49
0.25
 49
-0.125
  0
LTYPE
  2
HIDDEN2
 70
    64
  3
_ _ _ _ _ _ _ _ _ _ _ _ _ _ _ _ _ _ _ _ _ _ _ _
 72
    65
 73
     2
 40
0.1875
 49
0.125
 49
-0.0625
  0
LTYPE
  2
HIDDENX2
 70
    64
  3
____ ____ ____ ____ ____ ____ ____ ____ ____ __
 72
    65
 73
     2
 40
0.75
 49
0.5
 49
-0.25
  0
LTYPE
  2
PHANTOM
 70
    64
  3
______  __  __  ______  __  __  ______  __  __
 72
    65
 73
     6
 40
2.5
 49
1.25
 49
-0.25
 49
0.25
 49
-0.25
 49
0.25
 49
-0.25
  0
LTYPE
  2
PHANTOM2
 70
    64
  3
___ _ _ ___ _ _ ___ _ _ ___ _ _ ___ _ _ ___ _ _
 72
    65
 73
     6
 40
1.25
 49
0.625
 49
-0.125
 49
0.125
 49
-0.125
 49
0.125
 49
-0.125
  0
LTYPE
  2
PHANTOMX2
 70
    64
  3
____________    ____    ____    ____________
 72
    65
 73
     6
 40
5.0
 49
2.5
 49
-0.5
 49
0.5
 49
-0.5
 49
0.5
 49
-0.5
  0
LTYPE
  2
ACAD_ISO02W100
 70
    64
  3
__ __ __ __ __ __ __ __ __ __ __ __ __ __ __ __
 72
    65
 73
     2
 40
15.0
 49
12.0
 49
-3.0
  0
LTYPE
  2
ACAD_ISO03W100
 70
    64
  3
__    __    __    __    __    __    __    __
 72
    65
 73
     2
 40
30.0
 49
12.0
 49
-18.0
  0
LTYPE
  2
ACAD_ISO04W100
 70
    64
  3
____ . ____ . ____ . ____ . ____ . ____ . ____
 72
    65
 73
     4
 40
30.5
 49
24.0
 49
-3.0
 49
0.5
 49
-3.0
  0
LTYPE
  2
ACAD_ISO05W100
 70
    64
  3
____ .. ____ .. ____ .. ____ .. ____ .. ____ ..
 72
    65
 73
     6
 40
34.0
 49
24.0
 49
-3.0
 49
0.5
 49
-3.0
 49
0.5
 49
-3.0
  0
LTYPE
  2
ACAD_ISO06W100
 70
    64
  3
____ ... ____ ... ____ ... ____ ... ____ ... __
 72
    65
 73
     8
 40
37.5
 49
24.0
 49
-3.0
 49
0.5
 49
-3.0
 49
0.5
 49
-3.0
 49
0.5
 49
-3.0
  0
LTYPE
  2
ACAD_ISO07W100
 70
    64
  3
. . . . . . . . . . . . . . . . . . . . . . . .
 72
    65
 73
     2
 40
3.5
 49
0.5
 49
-3.0
  0
LTYPE
  2
ACAD_ISO08W100
 70
    64
  3
____ __ ____ __ ____ __ ____ ____ __ __ ____ __
 72
    65
 73
     4
 40
36.0
 49
24.0
 49
-3.0
 49
6.0
 49
-3.0
  0
LTYPE
  2
ACAD_ISO09W100
 70
    64
  3
____ __ __ ____ __ __ ____ __ __ ____ __ __ ___
 72
    65
 73
     6
 40
45.0
 49
24.0
 49
-3.0
 49
6.0
 49
-3.0
 49
6.0
 49
-3.0
  0
LTYPE
  2
ACAD_ISO10W100
 70
    64
  3
__ . __ . __ . __ . __ . __ . __ . __ . __ . __
 72
    65
 73
     4
 40
18.5
 49
12.0
 49
-3.0
 49
0.5
 49
-3.0
  0
LTYPE
  2
ACAD_ISO11W100
 70
    64
  3
__ __ . __ __ . __ __ . __ __ . __ __ . __ __ .
 72
    65
 73
     6
 40
33.5
 49
12.0
 49
-3.0
 49
12.0
 49
-3.0
 49
0.5
 49
-3.0
  0
LTYPE
  2
ACAD_ISO12W100
 70
    64
  3
__ . . __ . . __ . . __ . . __ . . __ . . __ .
 72
    65
 73
     6
 40
22.0
 49
12.0
 49
-3.0
 49
0.5
 49
-3.0
 49
0.5
 49
-3.0
  0
LTYPE
  2
ACAD_ISO13W100
 70
    64
  3
__ __ . . __ __ . . __ __ . . __ __ . . __ __ .
 72
    65
 73
     8
 40
37.0
 49
12.0
 49
-3.0
 49
12.0
 49
-3.0
 49
0.5
 49
-3.0
 49
0.5
 49
-3.0
  0
LTYPE
  2
ACAD_ISO14W100
 70
    64
  3
__ . . . __ . . . __ . . . __ . . . __ . . . __
 72
    65
 73
     8
 40
25.5
 49
12.0
 49
-3.0
 49
0.5
 49
-3.0
 49
0.5
 49
-3.0
 49
0.5
 49
-3.0
  0
LTYPE
  2
ACAD_ISO15W100
 70
    64
  3
__ __ . . . __ __ . . . __ __ . . . __ __ . . .
 72
    65
 73
    10
 40
40.5
 49
12.0
 49
-3.0
 49
12.0
 49
-3.0
 49
0.5
 49
-3.0
 49
0.5
 49
-3.0
 49
0.5
 49
-3.0
  0
ENDTAB
  0
TABLE
  2
STYLE
 70
     4
  0
STYLE
  2
STANDARD
 70
    64
 40
0.0
 41
1.0
 50
0.0
 71
     0
 42
0.2
  3
txt
  4

  0
STYLE
  2
TOLERANCE
 70
    64
 40
0.0
 41
1.0
 50
0.0
 71
     0
 42
0.2
  3
../igesfont/iges1003.shx
  4

  0
STYLE
  2
ROMANS
 70
    64
 40
0.0
 41
1.0
 50
0.0
 71
     0
 42
0.2
  3
romans.shx
  4

  0
STYLE
  2
ROMANC
 70
    64
 40
0.0
 41
1.0
 50
0.0
 71
     0
 42
0.2
  3
romanc.shx
  4

  0
ENDTAB
  0
TABLE
  2
DIMSTYLE
 70
     2
  0
DIMSTYLE
  2
UNNAMED
 70
     0
  3

  4

  5

  6

  7

 40
1.0
 41
0.18
 42
0.0625
 43
0.38
 44
0.18
 45
0.0
 46
0.0
 47
0.0
 48
0.0
140
0.18
141
0.09
142
0.0
143
25.4
144
1.0
145
0.0
146
1.0
147
0.09
 71
     0
 72
     0
 73
     1
 74
     1
 75
     0
 76
     0
 77
     0
 78
     0
170
     0
171
     2
172
     0
173
     0
174
     0
175
     0
176
     0
177
     0
178
     0
  0
DIMSTYLE
  2
STANDARD
 70
     0
  3

  4

  5

  6

  7

 40
1.0
 41
0.18
 42
0.0625
 43
0.38
 44
0.18
 45
0.0
 46
0.0
 47
0.0
 48
0.0
140
0.18
141
0.09
142
0.0
143
25.4
144
1.0
145
0.0
146
1.0
147
0.09
 71
     0
 72
     0
 73
     1
 74
     1
 75
     0
 76
     0
 77
     0
 78
     0
170
     0
171
     2
172
     0
173
     0
174
     0
175
     0
176
     0
177
     0
178
     0
  0
ENDTAB
  0
TABLE
  2
LAYER
 70
     1
  0
LAYER
  2
0
 70
     0
 62
     7
  6
CONTINUOUS
  0
ENDTAB
  0
ENDSEC
  0
SECTION
  2
BLOCKS
  0
BLOCK
  5
     B
  8
0
  6
CONTINUOUS
 62
     7
  2
*UDIM712
 70
    65
 10
0.0
 20
0.0
 30
0.0
  3
*UDIM712
  0
TEXT
  5
     C
  8
0
  6
CONTINUOUS
 62
     7
 10
-300.358959124447
 20
-1.59467946599328
 30
0.0
 40
3.00000002980232
  1
=
 50
449.999999844103
 41
0.933333333333334
 72
     1
 11
-301.858959136362
 21
-0.494679450993814
 31
0.0
 73
     2
  0
LINE
  5
     D
  8
0
  6
CONTINUOUS
 62
     3
 10
-309.387264251709
 20
10.7553205490062
 30
0.0
 11
-297.358959121461
 21
10.7553205490062
 31
0.0
  0
LINE
  5
     E
  8
0
  6
CONTINUOUS
 62
     3
 10
-299.358959121461
 20
10.7553205490062
 30
0.0
 11
-299.358959121461
 21
-11.7446794509938
 31
0.0
  0
LINE
  5
     F
  8
0
  6
CONTINUOUS
 62
     3
 10
-298.838014691509
 20
7.80089727179922
 30
0.0
 11
-299.358959121461
 21
10.7553205490062
 31
0.0
  0
LINE
  5
    10
  8
0
  6
CONTINUOUS
 62
     3
 10
-299.358959121461
 20
10.7553205490062
 30
0.0
 11
-299.879903551412
 21
7.80089727179922
 31
0.0
  0
LINE
  5
    11
  8
0
  6
CONTINUOUS
 62
     3
 10
-299.879903551412
 20
-8.79025617378685
 30
0.0
 11
-299.358959121461
 21
-11.7446794509938
 31
0.0
  0
LINE
  5
    12
  8
0
  6
CONTINUOUS
 62
     3
 10
-299.358959121461
 20
-11.7446794509938
 30
0.0
 11
-298.838014691509
 21
-8.79025617378685
 31
0.0
  0
ENDBLK
  5
    13
  8
0
  6
CONTINUOUS
 62
     7
  0
BLOCK
  5
    14
  8
0
  6
CONTINUOUS
 62
     7
  2
*UDIM713
 70
    65
 10
0.0
 20
0.0
 30
0.0
  3
*UDIM713
  0
TEXT
  5
    15
  8
0
  6
CONTINUOUS
 62
     7
 10
-300.358959124447
 20
-24.0946794659873
 30
0.0
 40
3.00000002980232
  1
=
 50
449.999999844103
 41
0.933333333333334
 72
     1
 11
-301.858959136362
 21
-22.9946794509879
 31
0.0
 73
     2
  0
LINE
  5
    16
  8
0
  6
CONTINUOUS
 62
     3
 10
-309.387271118162
 20
-34.2446794509819
 30
0.0
 11
-297.358959121461
 21
-34.2446794509819
 31
0.0
  0
LINE
  5
    17
  8
0
  6
CONTINUOUS
 62
     3
 10
-299.358959121461
 20
-11.7446794509938
 30
0.0
 11
-299.358959121461
 21
-34.2446794509819
 31
0.0
  0
LINE
  5
    18
  8
0
  6
CONTINUOUS
 62
     3
 10
-298.838014691509
 20
-14.6991027282008
 30
0.0
 11
-299.358959121461
 21
-11.7446794509938
 31
0.0
  0
LINE
  5
    19
  8
0
  6
CONTINUOUS
 62
     3
 10
-299.358959121461
 20
-11.7446794509938
 30
0.0
 11
-299.879903551412
 21
-14.6991027282008
 31
0.0
  0
LINE
  5
    1A
  8
0
  6
CONTINUOUS
 62
     3
 10
-299.879903551412
 20
-31.290256173775
 30
0.0
 11
-299.358959121461
 21
-34.2446794509819
 31
0.0
  0
LINE
  5
    1B
  8
0
  6
CONTINUOUS
 62
     3
 10
-299.358959121461
 20
-34.2446794509819
 30
0.0
 11
-298.838014691509
 21
-31.290256173775
 31
0.0
  0
ENDBLK
  5
    1C
  8
0
  6
CONTINUOUS
 62
     7
  0
BLOCK
  5
    1D
  8
0
  6
CONTINUOUS
 62
     3
  2
*UDIM714
 70
    65
 10
0.0
 20
0.0
 30
0.0
  3
*UDIM714
  0
TEXT
  5
    1E
  8
0
  6
CONTINUOUS
 62
     3
 10
-292.400059156801
 20
-39.5196871152526
 30
0.0
 40
3.00000002980232
  1
50
 50
449.999999844103
 41
0.933333333333333
 72
     1
 11
-293.900059164916
 21
-37.0196870863454
 31
0.0
 73
     2
  0
LINE
  5
    1F
  8
0
  6
CONTINUOUS
 62
     3
 10
-296.389887479614
 20
-11.7446794509938
 30
0.0
 11
-289.400059150015
 21
-11.7446794509938
 31
0.0
  0
LINE
  5
    20
  8
0
  6
CONTINUOUS
 62
     3
 10
-311.387275161743
 20
-61.744694709776
 30
0.0
 11
-289.400059150015
 21
-61.744694709776
 31
0.0
  0
LINE
  5
    21
  8
0
  6
CONTINUOUS
 62
     3
 10
-291.400059150015
 20
-11.7446794509938
 30
0.0
 11
-291.400059150015
 21
-61.744694709776
 31
0.0
  0
LINE
  5
    22
  8
0
  6
CONTINUOUS
 62
     3
 10
-290.879114720063
 20
-14.6991027282008
 30
0.0
 11
-291.400059150015
 21
-11.7446794509938
 31
0.0
  0
LINE
  5
    23
  8
0
  6
CONTINUOUS
 62
     3
 10
-291.400059150015
 20
-11.7446794509938
 30
0.0
 11
-291.921003579966
 21
-14.6991027282008
 31
0.0
  0
LINE
  5
    24
  8
0
  6
CONTINUOUS
 62
     3
 10
-291.921003579966
 20
-58.790271432569
 30
0.0
 11
-291.400059150015
 21
-61.744694709776
 31
0.0
  0
LINE
  5
    25
  8
0
  6
CONTINUOUS
 62
     3
 10
-291.400059150015
 20
-61.744694709776
 30
0.0
 11
-290.879114720063
 21
-58.790271432569
 31
0.0
  0
ENDBLK
  5
    26
  8
0
  6
CONTINUOUS
 62
     3
  0
BLOCK
  5
    27
  8
0
  6
CONTINUOUS
 62
     3
  2
*UDIM715
 70
    65
 10
0.0
 20
0.0
 30
0.0
  3
*UDIM715
  0
TEXT
  5
    28
  8
0
  6
CONTINUOUS
 62
     3
 10
-332.38723588213
 20
79.7538201532421
 30
0.0
 40
3.00000002980232
  1
39
 50
359.999999844103
 41
0.933333333333333
 72
     1
 11
-329.887235853221
 21
81.2538201613536
 31
0.0
 73
     2
  0
LINE
  5
    29
  8
0
  6
CONTINUOUS
 62
     3
 10
-349.387207753009
 20
66.0275641159907
 30
0.0
 11
-349.387207753009
 21
80.7538201464524
 31
0.0
  0
LINE
  5
    2A
  8
0
  6
CONTINUOUS
 62
     3
 10
-310.387256969342
 20
62.2552898788482
 30
0.0
 11
-310.387264800065
 21
80.7538201464522
 31
0.0
  0
LINE
  5
    2B
  8
0
  6
CONTINUOUS
 62
     3
 10
-349.387207753009
 20
78.7538201464524
 30
0.0
 11
-310.387263953433
 21
78.7538201464524
 31
0.0
  0
LINE
  5
    2C
  8
0
  6
CONTINUOUS
 62
     3
 10
-346.489430279798
 20
79.5302773028709
 30
0.0
 11
-349.387207753009
 21
78.7538201464524
 31
0.0
  0
LINE
  5
    2D
  8
0
  6
CONTINUOUS
 62
     3
 10
-349.387207753009
 20
78.7538201464524
 30
0.0
 11
-346.489430279798
 21
77.9773629900339
 31
0.0
  0
LINE
  5
    2E
  8
0
  6
CONTINUOUS
 62
     3
 10
-313.285041426644
 20
77.9773629900339
 30
0.0
 11
-310.387263953433
 21
78.7538201464524
 31
0.0
  0
LINE
  5
    2F
  8
0
  6
CONTINUOUS
 62
     3
 10
-310.387263953433
 20
78.7538201464524
 30
0.0
 11
-313.285041426644
 21
79.5302773028709
 31
0.0
  0
ENDBLK
  5
    30
  8
0
  6
CONTINUOUS
 62
     3
  0
BLOCK
  5
    31
  8
0
  6
CONTINUOUS
 62
     3
  2
*UDIM716
 70
    65
 10
0.0
 20
0.0
 30
0.0
  3
*UDIM716
  0
TEXT
  5
    32
  8
0
  6
CONTINUOUS
 62
     3
 10
-365.78723873602
 20
88.449335117577
 30
0.0
 40
3.00000002980232
  1
103
 50
359.999999844103
 41
0.933333333333333
 72
     1
 11
-361.887238693203
 21
89.9493351218862
 31
0.0
 73
     2
  0
LINE
  5
    33
  8
0
  6
CONTINUOUS
 62
     3
 10
-413.387218522505
 20
62.2552898788483
 30
0.0
 11
-413.387217730437
 21
89.449335106985
 31
0.0
  0
LINE
  5
    34
  8
0
  6
CONTINUOUS
 62
     3
 10
-310.38725666253
 20
62.2552898788483
 30
0.0
 11
-310.387259830722
 21
89.449335106985
 31
0.0
  0
LINE
  5
    35
  8
0
  6
CONTINUOUS
 62
     3
 10
-413.38721778869
 20
87.449335106985
 30
0.0
 11
-310.387259597715
 21
87.449335106985
 31
0.0
  0
LINE
  5
    36
  8
0
  6
CONTINUOUS
 62
     3
 10
-410.489440315479
 20
88.2257922634036
 30
0.0
 11
-413.38721778869
 21
87.449335106985
 31
0.0
  0
LINE
  5
    37
  8
0
  6
CONTINUOUS
 62
     3
 10
-413.38721778869
 20
87.449335106985
 30
0.0
 11
-410.489440315479
 21
86.6728779505665
 31
0.0
  0
LINE
  5
    38
  8
0
  6
CONTINUOUS
 62
     3
 10
-313.285037070926
 20
86.6728779505665
 30
0.0
 11
-310.387259597715
 21
87.449335106985
 31
0.0
  0
LINE
  5
    39
  8
0
  6
CONTINUOUS
 62
     3
 10
-310.387259597715
 20
87.449335106985
 30
0.0
 11
-313.285037070926
 21
88.2257922634036
 31
0.0
  0
ENDBLK
  5
    3A
  8
0
  6
CONTINUOUS
 62
     3
  0
BLOCK
  5
    3B
  8
0
  6
CONTINUOUS
 62
     3
  2
*UDIM717
 70
    65
 10
0.0
 20
0.0
 30
0.0
  3
*UDIM717
  0
TEXT
  5
    3C
  8
0
  6
CONTINUOUS
 62
     3
 10
-365.787329144379
 20
96.931898691321
 30
0.0
 40
3.00000002980232
  1
116
 50
359.999999844103
 41
0.933333333333333
 72
     1
 11
-361.887329101562
 21
98.4318986956302
 31
0.0
 73
     2
  0
LINE
  5
    3D
  8
0
  6
CONTINUOUS
 62
     3
 10
-419.887329101562
 20
36.0057525634766
 30
0.0
 11
-419.887329101562
 21
97.9318986807291
 31
0.0
  0
LINE
  5
    3E
  8
0
  6
CONTINUOUS
 62
     3
 10
-303.887329101562
 20
36.0057525634766
 30
0.0
 11
-303.887329101562
 21
97.9318986807291
 31
0.0
  0
LINE
  5
    3F
  8
0
  6
CONTINUOUS
 62
     3
 10
-419.887329101562
 20
95.931898680729
 30
0.0
 11
-303.887329101562
 21
95.931898680729
 31
0.0
  0
LINE
  5
    40
  8
0
  6
CONTINUOUS
 62
     3
 10
-416.989551628352
 20
96.7083558371476
 30
0.0
 11
-419.887329101562
 21
95.931898680729
 31
0.0
  0
LINE
  5
    41
  8
0
  6
CONTINUOUS
 62
     3
 10
-419.887329101562
 20
95.931898680729
 30
0.0
 11
-416.989551628352
 21
95.1554415243105
 31
0.0
  0
LINE
  5
    42
  8
0
  6
CONTINUOUS
 62
     3
 10
-306.785106574773
 20
95.1554415243105
 30
0.0
 11
-303.887329101562
 21
95.931898680729
 31
0.0
  0
LINE
  5
    43
  8
0
  6
CONTINUOUS
 62
     3
 10
-303.887329101562
 20
95.931898680729
 30
0.0
 11
-306.785106574773
 21
96.7083558371476
 31
0.0
  0
ENDBLK
  5
    44
  8
0
  6
CONTINUOUS
 62
     3
  0
BLOCK
  5
    45
  8
0
  6
CONTINUOUS
 62
     3
  2
*UDIM718
 70
    65
 10
0.0
 20
0.0
 30
0.0
  3
*UDIM718
  0
TEXT
  5
    46
  8
0
  6
CONTINUOUS
 62
     3
 10
-429.382302568016
 20
-14.2442474654307
 30
0.0
 40
3.00000002980232
  1
96
 50
449.999999844103
 41
0.933333333333333
 72
     1
 11
-430.882302576131
 21
-11.7442474365234
 31
0.0
 73
     2
  0
LINE
  5
    47
  8
0
  6
CONTINUOUS
 62
     3
 10
-419.637329101562
 20
36.2557525634766
 30
0.0
 11
-430.38230256123
 21
36.2557525634766
 31
0.0
  0
LINE
  5
    48
  8
0
  6
CONTINUOUS
 62
     3
 10
-419.637329101562
 20
-59.7442474365234
 30
0.0
 11
-430.38230256123
 21
-59.7442474365234
 31
0.0
  0
LINE
  5
    49
  8
0
  6
CONTINUOUS
 62
     3
 10
-428.38230256123
 20
36.2557525634766
 30
0.0
 11
-428.38230256123
 21
-59.7442474365234
 31
0.0
  0
LINE
  5
    4A
  8
0
  6
CONTINUOUS
 62
     3
 10
-427.605845404811
 20
33.357975090266
 30
0.0
 11
-428.38230256123
 21
36.2557525634766
 31
0.0
  0
LINE
  5
    4B
  8
0
  6
CONTINUOUS
 62
     3
 10
-428.38230256123
 20
36.2557525634766
 30
0.0
 11
-429.158759717648
 21
33.357975090266
 31
0.0
  0
LINE
  5
    4C
  8
0
  6
CONTINUOUS
 62
     3
 10
-429.158759717648
 20
-56.8464699633129
 30
0.0
 11
-428.38230256123
 21
-59.7442474365234
 31
0.0
  0
LINE
  5
    4D
  8
0
  6
CONTINUOUS
 62
     3
 10
-428.38230256123
 20
-59.7442474365234
 30
0.0
 11
-427.605845404811
 21
-56.8464699633129
 31
0.0
  0
ENDBLK
  5
    4E
  8
0
  6
CONTINUOUS
 62
     3
  0
BLOCK
  5
    4F
  8
0
  6
CONTINUOUS
 62
     3
  2
*UDIM719
 70
    65
 10
0.0
 20
0.0
 30
0.0
  3
*UDIM719
  0
TEXT
  5
    50
  8
0
  6
CONTINUOUS
 62
     3
 10
-436.220408214249
 20
-3.91970238794537
 30
0.0
 40
3.00000002980232
  1
124
 50
449.999999844103
 41
0.933333333333333
 72
     1
 11
-437.720408218563
 21
-1.97023451304013E-2
 31
0.0
 73
     2
  0
LINE
  5
    51
  8
0
  6
CONTINUOUS
 62
     3
 10
-412.387218551632
 20
62.2552900314361
 30
0.0
 11
-437.220408203662
 21
62.2552900314361
 31
0.0
  0
LINE
  5
    52
  8
0
  6
CONTINUOUS
 62
     3
 10
-412.387199935915
 20
-61.744694709776
 30
0.0
 11
-437.220408203662
 21
-61.744694709776
 31
0.0
  0
LINE
  5
    53
  8
0
  6
CONTINUOUS
 62
     3
 10
-435.220408203662
 20
62.2552900314361
 30
0.0
 11
-435.220408203662
 21
-61.744694709776
 31
0.0
  0
LINE
  5
    54
  8
0
  6
CONTINUOUS
 62
     3
 10
-434.69946377371
 20
59.3008667542292
 30
0.0
 11
-435.220408203662
 21
62.2552900314361
 31
0.0
  0
LINE
  5
    55
  8
0
  6
CONTINUOUS
 62
     3
 10
-435.220408203662
 20
62.2552900314361
 30
0.0
 11
-435.741352633614
 21
59.3008667542292
 31
0.0
  0
LINE
  5
    56
  8
0
  6
CONTINUOUS
 62
     3
 10
-435.741352633614
 20
-58.790271432569
 30
0.0
 11
-435.220408203662
 21
-61.744694709776
 31
0.0
  0
LINE
  5
    57
  8
0
  6
CONTINUOUS
 62
     3
 10
-435.220408203662
 20
-61.744694709776
 30
0.0
 11
-434.69946377371
 21
-58.790271432569
 31
0.0
  0
ENDBLK
  5
    58
  8
0
  6
CONTINUOUS
 62
     3
  0
BLOCK
  5
    59
  8
0
  6
CONTINUOUS
 62
     7
  2
*UDIM720
 70
    65
 10
0.0
 20
0.0
 30
0.0
  3
*UDIM720
  0
TEXT
  5
    5A
  8
0
  6
CONTINUOUS
 62
     7
 10
-389.662207072622
 20
72.5394086905666
 30
0.0
 40
3.00000002980232
  1
25
 50
359.999999844103
 41
0.933333333333333
 72
     1
 11
-387.162207043713
 21
74.039408698678
 31
0.0
 73
     2
  0
TEXT
  5
    5B
  8
0
  6
CONTINUOUS
 62
     7
 10
-401.262207177924
 20
72.539408698171
 30
0.0
 40
3.00000002980232
  1
M4 o
 50
359.999999844103
 41
0.933333333333333
 72
     1
 11
-395.962207121199
 21
74.039408698678
 31
0.0
 73
     2
  0
LINE
  5
    5C
  8
0
  6
CONTINUOUS
 62
     3
 10
-399.387207753009
 20
70.4121311756326
 30
0.0
 11
-399.387207753009
 21
73.5394086837769
 31
0.0
  0
LINE
  5
    5D
  8
0
  6
CONTINUOUS
 62
     3
 10
-374.387207753009
 20
71.1856870708089
 30
0.0
 11
-374.387207753009
 21
73.5394086837769
 31
0.0
  0
LINE
  5
    5E
  8
0
  6
CONTINUOUS
 62
     3
 10
-401.26220717385
 20
71.5394086837769
 30
0.0
 11
-374.387207753009
 21
71.5394086837769
 31
0.0
  0
LINE
  5
    5F
  8
0
  6
CONTINUOUS
 62
     3
 10
-396.432784475802
 20
72.0603531137285
 30
0.0
 11
-399.387207753009
 21
71.5394086837769
 31
0.0
  0
LINE
  5
    60
  8
0
  6
CONTINUOUS
 62
     3
 10
-399.387207753009
 20
71.5394086837769
 30
0.0
 11
-396.432784475802
 21
71.0184642538252
 31
0.0
  0
LINE
  5
    61
  8
0
  6
CONTINUOUS
 62
     3
 10
-377.341631030216
 20
71.0184642538252
 30
0.0
 11
-374.387207753009
 21
71.5394086837769
 31
0.0
  0
LINE
  5
    62
  8
0
  6
CONTINUOUS
 62
     3
 10
-374.387207753009
 20
71.5394086837769
 30
0.0
 11
-377.341631030216
 21
72.0603531137285
 31
0.0
  0
ENDBLK
  5
    63
  8
0
  6
CONTINUOUS
 62
     7
  0
BLOCK
  5
    64
  8
0
  6
CONTINUOUS
 62
     7
  2
*UDIM721
 70
    65
 10
0.0
 20
0.0
 30
0.0
  3
*UDIM721
  0
TEXT
  5
    65
  8
0
  6
CONTINUOUS
 62
     7
 10
-364.662207072622
 20
72.5394086905666
 30
0.0
 40
3.00000002980232
  1
25
 50
359.999999844103
 41
0.933333333333333
 72
     1
 11
-362.162207043713
 21
74.039408698678
 31
0.0
 73
     2
  0
TEXT
  5
    66
  8
0
  6
CONTINUOUS
 62
     7
 10
-376.262207177924
 20
72.539408698171
 30
0.0
 40
3.00000002980232
  1
M4 o
 50
359.999999844103
 41
0.933333333333333
 72
     1
 11
-370.962207121199
 21
74.039408698678
 31
0.0
 73
     2
  0
LINE
  5
    67
  8
0
  6
CONTINUOUS
 62
     3
 10
-349.387207753009
 20
66.0275641159907
 30
0.0
 11
-349.387207753009
 21
73.5394086837769
 31
0.0
  0
LINE
  5
    68
  8
0
  6
CONTINUOUS
 62
     3
 10
-376.26220717385
 20
71.5394086837769
 30
0.0
 11
-349.387207753009
 21
71.5394086837769
 31
0.0
  0
LINE
  5
    69
  8
0
  6
CONTINUOUS
 62
     3
 10
-371.432784475802
 20
72.0603531137285
 30
0.0
 11
-374.387207753009
 21
71.5394086837769
 31
0.0
  0
LINE
  5
    6A
  8
0
  6
CONTINUOUS
 62
     3
 10
-374.387207753009
 20
71.5394086837769
 30
0.0
 11
-371.432784475802
 21
71.0184642538252
 31
0.0
  0
LINE
  5
    6B
  8
0
  6
CONTINUOUS
 62
     3
 10
-352.341631030216
 20
71.0184642538252
 30
0.0
 11
-349.387207753009
 21
71.5394086837769
 31
0.0
  0
LINE
  5
    6C
  8
0
  6
CONTINUOUS
 62
     3
 10
-349.387207753009
 20
71.5394086837769
 30
0.0
 11
-352.341631030216
 21
72.0603531137285
 31
0.0
  0
ENDBLK
  5
    6D
  8
0
  6
CONTINUOUS
 62
     7
  0
BLOCK
  5
    6E
  8
0
  6
CONTINUOUS
 62
     7
  2
*UDIM722
 70
    65
 10
0.0
 20
0.0
 30
0.0
  3
*UDIM722
  0
TEXT
  5
    6F
  8
0
  6
CONTINUOUS
 62
     7
 10
-339.662207072622
 20
72.5394086905666
 30
0.0
 40
3.00000002980232
  1
25
 50
359.999999844103
 41
0.933333333333333
 72
     1
 11
-337.162207043713
 21
74.039408698678
 31
0.0
 73
     2
  0
TEXT
  5
    70
  8
0
  6
CONTINUOUS
 62
     7
 10
-351.262207177924
 20
72.539408698171
 30
0.0
 40
3.00000002980232
  1
M4 o
 50
359.999999844103
 41
0.933333333333333
 72
     1
 11
-345.962207121199
 21
74.039408698678
 31
0.0
 73
     2
  0
LINE
  5
    71
  8
0
  6
CONTINUOUS
 62
     3
 10
-324.387207753009
 20
71.1856870708089
 30
0.0
 11
-324.387207753009
 21
73.5394086837769
 31
0.0
  0
LINE
  5
    72
  8
0
  6
CONTINUOUS
 62
     3
 10
-351.26220717385
 20
71.5394086837769
 30
0.0
 11
-324.387207753009
 21
71.5394086837769
 31
0.0
  0
LINE
  5
    73
  8
0
  6
CONTINUOUS
 62
     3
 10
-346.432784475802
 20
72.0603531137285
 30
0.0
 11
-349.387207753009
 21
71.5394086837769
 31
0.0
  0
LINE
  5
    74
  8
0
  6
CONTINUOUS
 62
     3
 10
-349.387207753009
 20
71.5394086837769
 30
0.0
 11
-346.432784475802
 21
71.0184642538252
 31
0.0
  0
LINE
  5
    75
  8
0
  6
CONTINUOUS
 62
     3
 10
-327.341631030216
 20
71.0184642538252
 30
0.0
 11
-324.387207753009
 21
71.5394086837769
 31
0.0
  0
LINE
  5
    76
  8
0
  6
CONTINUOUS
 62
     3
 10
-324.387207753009
 20
71.5394086837769
 30
0.0
 11
-327.341631030216
 21
72.0603531137285
 31
0.0
  0
ENDBLK
  5
    77
  8
0
  6
CONTINUOUS
 62
     7
  0
BLOCK
  5
    78
  8
0
  6
CONTINUOUS
 62
     3
  2
*UDIM723
 70
    65
 10
0.0
 20
0.0
 30
0.0
  3
*UDIM723
  0
TEXT
  5
    79
  8
0
  6
CONTINUOUS
 62
     3
 10
-386.685260213886
 20
-115.291261156498
 30
0.0
 40
3.00000002980232
  1
62
 50
449.999999844103
 41
0.933333333333333
 72
     1
 11
-388.185260222
 21
-112.791261127591
 31
0.0
 73
     2
  0
LINE
  5
    7A
  8
0
  6
CONTINUOUS
 62
     3
 10
-361.087207779288
 20
-98.7836788207292
 30
0.0
 11
-387.685260207099
 21
-98.7836788207292
 31
0.0
  0
LINE
  5
    7B
  8
0
  6
CONTINUOUS
 62
     3
 10
-367.786532581822
 20
-129.783678820729
 30
0.0
 11
-387.685260207099
 21
-129.783678820729
 31
0.0
  0
LINE
  5
    7C
  8
0
  6
CONTINUOUS
 62
     3
 10
-385.685260207099
 20
-98.7836788207292
 30
0.0
 11
-385.685260207099
 21
-129.783678820729
 31
0.0
  0
LINE
  5
    7D
  8
0
  6
CONTINUOUS
 62
     3
 10
-385.164315777147
 20
-101.738102097936
 30
0.0
 11
-385.685260207099
 21
-98.7836788207292
 31
0.0
  0
LINE
  5
    7E
  8
0
  6
CONTINUOUS
 62
     3
 10
-385.685260207099
 20
-98.7836788207292
 30
0.0
 11
-386.206204637051
 21
-101.738102097936
 31
0.0
  0
LINE
  5
    7F
  8
0
  6
CONTINUOUS
 62
     3
 10
-386.206204637051
 20
-126.829255543522
 30
0.0
 11
-385.685260207099
 21
-129.783678820729
 31
0.0
  0
LINE
  5
    80
  8
0
  6
CONTINUOUS
 62
     3
 10
-385.685260207099
 20
-129.783678820729
 30
0.0
 11
-385.164315777147
 21
-126.829255543522
 31
0.0
  0
ENDBLK
  5
    81
  8
0
  6
CONTINUOUS
 62
     3
  0
BLOCK
  5
    82
  8
0
  6
CONTINUOUS
 62
     3
  2
*UDIM724
 70
    65
 10
0.0
 20
0.0
 30
0.0
  3
*UDIM724
  0
TEXT
  5
    83
  8
0
  6
CONTINUOUS
 62
     3
 10
-352.162208019794
 20
-82.1101722649388
 30
0.0
 40
3.00000002980232
  1
25
 50
359.999999844103
 41
0.933333333333333
 72
     1
 11
-349.662207990885
 21
-80.6101722568274
 31
0.0
 73
     2
  0
TEXT
  5
    84
  8
0
  6
CONTINUOUS
 62
     3
 10
-353.562208033702
 20
-86.1101722909389
 30
0.0
 40
3.00000002980232
  1
= =
 50
359.999999844103
 41
0.933333333333333
 72
     1
 11
-349.662207990885
 21
-84.6101722866297
 31
0.0
 73
     2
  0
LINE
  5
    85
  8
0
  6
CONTINUOUS
 62
     3
 10
-355.637207850814
 20
-94.5836788922548
 30
0.0
 11
-355.637207850814
 21
-81.1101722717285
 31
0.0
  0
LINE
  5
    86
  8
0
  6
CONTINUOUS
 62
     3
 10
-343.137207999825
 20
-144.583667615056
 30
0.0
 11
-343.137207999825
 21
-81.1101722717285
 31
0.0
  0
LINE
  5
    87
  8
0
  6
CONTINUOUS
 62
     3
 10
-355.637207850814
 20
-83.1101722717285
 30
0.0
 11
-343.137207999825
 21
-83.1101722717285
 31
0.0
  0
LINE
  5
    88
  8
0
  6
CONTINUOUS
 62
     3
 10
-352.682784573607
 20
-82.5892278417768
 30
0.0
 11
-355.637207850814
 21
-83.1101722717285
 31
0.0
  0
LINE
  5
    89
  8
0
  6
CONTINUOUS
 62
     3
 10
-355.637207850814
 20
-83.1101722717285
 30
0.0
 11
-352.682784573607
 21
-83.6311167016802
 31
0.0
  0
LINE
  5
    8A
  8
0
  6
CONTINUOUS
 62
     3
 10
-346.091631277032
 20
-83.6311167016802
 30
0.0
 11
-343.137207999825
 21
-83.1101722717285
 31
0.0
  0
LINE
  5
    8B
  8
0
  6
CONTINUOUS
 62
     3
 10
-343.137207999825
 20
-83.1101722717285
 30
0.0
 11
-346.091631277032
 21
-82.5892278417768
 31
0.0
  0
ENDBLK
  5
    8C
  8
0
  6
CONTINUOUS
 62
     3
  0
BLOCK
  5
    8D
  8
0
  6
CONTINUOUS
 62
     7
  2
*UDIM725
 70
    65
 10
0.0
 20
0.0
 30
0.0
  3
*UDIM725
  0
TEXT
  5
    8E
  8
0
  6
CONTINUOUS
 62
     7
 10
-370.090586437489
 20
-111.596055876167
 30
0.0
 40
3.00000002980232
  1
4.5
 50
404.523545362301
 41
0.933333333333333
 72
     1
 11
-368.361836704879
 21
-107.791923293186
 31
0.0
 73
     2
  0
TEXT
  5
    8F
  8
0
  6
CONTINUOUS
 62
     7
 10
-372.94243586419
 20
-114.400865154148
 30
0.0
 40
3.00000002980232
  1
Ø
 50
404.523545362301
 41
1.2
 72
     1
 11
-372.92479579916
 21
-112.279618134701
 31
0.0
 73
     2
  0
TEXT
  5
    90
  8
0
  6
CONTINUOUS
 62
     7
 10
-381.212799235564
 20
-122.534812052697
 30
0.0
 40
3.00000002980232
  1
M4 o
 50
404.523545362301
 41
0.933333333333333
 72
     1
 11
-378.485902196865
 21
-117.748996224321
 31
0.0
 73
     2
  0
LINE
  5
    91
  8
0
  6
CONTINUOUS
 62
     7
 10
-380.51159690946
 20
-123.247774412607
 30
0.0
 11
-354.211283145803
 21
-97.3812741945105
 31
0.0
  0
LINE
  5
    92
  8
0
  6
CONTINUOUS
 62
     3
 10
-357.657834179295
 20
-101.860033419498
 30
0.0
 11
-356.136281489069
 21
-99.2745204315468
 31
0.0
  0
LINE
  5
    93
  8
0
  6
CONTINUOUS
 62
     3
 10
-356.136281489069
 20
-99.2745204315468
 30
0.0
 11
-358.746741287517
 21
-100.752863977778
 31
0.0
  0
ENDBLK
  5
    94
  8
0
  6
CONTINUOUS
 62
     7
  0
BLOCK
  5
    95
  8
0
  6
CONTINUOUS
 62
     3
  2
*UDIM726
 70
    65
 10
0.0
 20
0.0
 30
0.0
  3
*UDIM726
  0
TEXT
  5
    96
  8
0
  6
CONTINUOUS
 62
     3
 10
-400.36283112631
 20
-127.958672366638
 30
0.0
 40
3.00000002980232
  1
100
 50
449.999999844103
 41
0.933333333333333
 72
     1
 11
-401.862831130624
 21
-124.058672323823
 31
0.0
 73
     2
  0
LINE
  5
    97
  8
0
  6
CONTINUOUS
 62
     3
 10
-362.087207779288
 20
-98.7836788207292
 30
0.0
 11
-401.362831115723
 21
-98.7836788207292
 31
0.0
  0
LINE
  5
    98
  8
0
  6
CONTINUOUS
 62
     3
 10
-351.4622079283
 20
-148.783667543531
 30
0.0
 11
-401.362831115723
 21
-148.783667543531
 31
0.0
  0
LINE
  5
    99
  8
0
  6
CONTINUOUS
 62
     3
 10
-399.362831115723
 20
-98.7836788207292
 30
0.0
 11
-399.362831115723
 21
-148.783667543531
 31
0.0
  0
LINE
  5
    9A
  8
0
  6
CONTINUOUS
 62
     3
 10
-398.841886685771
 20
-101.738102097936
 30
0.0
 11
-399.362831115723
 21
-98.7836788207292
 31
0.0
  0
LINE
  5
    9B
  8
0
  6
CONTINUOUS
 62
     3
 10
-399.362831115723
 20
-98.7836788207292
 30
0.0
 11
-399.883775545674
 21
-101.738102097936
 31
0.0
  0
LINE
  5
    9C
  8
0
  6
CONTINUOUS
 62
     3
 10
-399.883775545674
 20
-145.829244266324
 30
0.0
 11
-399.362831115723
 21
-148.783667543531
 31
0.0
  0
LINE
  5
    9D
  8
0
  6
CONTINUOUS
 62
     3
 10
-399.362831115723
 20
-148.783667543531
 30
0.0
 11
-398.841886685771
 21
-145.829244266324
 31
0.0
  0
ENDBLK
  5
    9E
  8
0
  6
CONTINUOUS
 62
     3
  0
BLOCK
  5
    9F
  8
0
  6
CONTINUOUS
 62
     3
  2
*HATCH286
 70
    65
 10
0.0
 20
0.0
 30
0.0
  3
*HATCH286
  0
LINE
  5
    A0
  8
0
  6
CONTINUOUS
 62
     7
 10
-35.4171371459961
 20
-125.803260803223
 30
0.0
 11
-35.3765678405762
 21
-125.84383392334
 31
0.0
  0
ENDBLK
  5
    A1
  8
0
  6
CONTINUOUS
 62
     3
  0
BLOCK
  5
    A2
  8
0
  6
CONTINUOUS
 62
     7
  2
*HATCH287
 70
    65
 10
0.0
 20
0.0
 30
0.0
  3
*HATCH287
  0
LINE
  5
    A3
  8
0
  6
CONTINUOUS
 62
     7
 10
-53.5225372314453
 20
-125.647422790527
 30
0.0
 11
-53.9999885559082
 21
-126.124870300293
 31
0.0
  0
LINE
  5
    A4
  8
0
  6
CONTINUOUS
 62
     7
 10
-49.2798957824707
 20
-125.647422790527
 30
0.0
 11
-50.479850769043
 21
-126.847373962402
 31
0.0
  0
LINE
  5
    A5
  8
0
  6
CONTINUOUS
 62
     7
 10
-45.0372543334961
 20
-125.647422790527
 30
0.0
 11
-46.2372093200684
 21
-126.847373962402
 31
0.0
  0
LINE
  5
    A6
  8
0
  6
CONTINUOUS
 62
     7
 10
-40.7946128845215
 20
-125.647422790527
 30
0.0
 11
-41.9945678710938
 21
-126.847373962402
 31
0.0
  0
ENDBLK
  5
    A7
  8
0
  6
CONTINUOUS
 62
     7
  0
BLOCK
  5
    A8
  8
0
  6
CONTINUOUS
 62
     7
  2
*HATCH288
 70
    65
 10
0.0
 20
0.0
 30
0.0
  3
*HATCH288
  0
LINE
  5
    A9
  8
0
  6
CONTINUOUS
 62
     7
 10
-28.1726608276367
 20
-125.753387451172
 30
0.0
 11
-29.2666473388672
 21
-126.847373962402
 31
0.0
  0
ENDBLK
  5
    AA
  8
0
  6
CONTINUOUS
 62
     7
  0
BLOCK
  5
    AB
  8
0
  6
CONTINUOUS
 62
     7
  2
*HATCH289
 70
    65
 10
0.0
 20
0.0
 30
0.0
  3
*HATCH289
  0
LINE
  5
    AC
  8
0
  6
CONTINUOUS
 62
     7
 10
-23.8240509033203
 20
-125.647422790527
 30
0.0
 11
-23.9999923706055
 21
-125.823364257813
 31
0.0
  0
LINE
  5
    AD
  8
0
  6
CONTINUOUS
 62
     7
 10
-19.5813617706299
 20
-125.64737701416
 30
0.0
 11
-20.7813663482666
 21
-126.847373962402
 31
0.0
  0
LINE
  5
    AE
  8
0
  6
CONTINUOUS
 62
     7
 10
-16.5611629486084
 20
-126.869819641113
 30
0.0
 11
-17.4396076202393
 21
-127.748260498047
 31
0.0
  0
ENDBLK
  5
    AF
  8
0
  6
CONTINUOUS
 62
     7
  0
BLOCK
  5
    B0
  8
0
  6
CONTINUOUS
 62
     3
  2
*HATCH290
 70
    65
 10
0.0
 20
0.0
 30
0.0
  3
*HATCH290
  0
LINE
  5
    B1
  8
0
  6
CONTINUOUS
 62
     7
 10
-35.4171371459961
 20
-125.803260803223
 30
0.0
 11
-35.3765678405762
 21
-125.84383392334
 31
0.0
  0
ENDBLK
  5
    B2
  8
0
  6
CONTINUOUS
 62
     3
  0
BLOCK
  5
    B3
  8
0
  6
CONTINUOUS
 62
     3
  2
*HATCH291
 70
    65
 10
0.0
 20
0.0
 30
0.0
  3
*HATCH291
  0
LINE
  5
    B4
  8
0
  6
CONTINUOUS
 62
   210
 10
-30.7072048187256
 20
-124.149238586426
 30
0.0
 11
-30.5318412780762
 21
-124.324600219727
 31
0.0
  0
ENDBLK
  5
    B5
  8
0
  6
CONTINUOUS
 62
     3
  0
BLOCK
  5
    B6
  8
0
  6
CONTINUOUS
 62
     3
  2
*HATCH292
 70
    65
 10
0.0
 20
0.0
 30
0.0
  3
*HATCH292
  0
LINE
  5
    B7
  8
0
  6
CONTINUOUS
 62
   210
 10
-35.4136276245117
 20
-123.685455322266
 30
0.0
 11
-34.9064331054688
 21
-124.192649841309
 31
0.0
  0
ENDBLK
  5
    B8
  8
0
  6
CONTINUOUS
 62
     3
  0
BLOCK
  5
    B9
  8
0
  6
CONTINUOUS
 62
     3
  2
*HATCH293
 70
    65
 10
0.0
 20
0.0
 30
0.0
  3
*HATCH293
  0
LINE
  5
    BA
  8
0
  6
CONTINUOUS
 62
   210
 10
-37.1537094116211
 20
-124.066688537598
 30
0.0
 11
-36.8765678405762
 21
-124.34383392334
 31
0.0
  0
ENDBLK
  5
    BB
  8
0
  6
CONTINUOUS
 62
     3
  0
BLOCK
  5
    BC
  8
0
  6
CONTINUOUS
 62
     3
  2
*HATCH294
 70
    65
 10
0.0
 20
0.0
 30
0.0
  3
*HATCH294
  0
LINE
  5
    BD
  8
0
  6
CONTINUOUS
 62
   210
 10
-41.8004341125488
 20
-123.662605285645
 30
0.0
 11
-41.2932434082031
 21
-124.169792175293
 31
0.0
  0
ENDBLK
  5
    BE
  8
0
  6
CONTINUOUS
 62
     3
  0
BLOCK
  5
    BF
  8
0
  6
CONTINUOUS
 62
     3
  2
*HATCH295
 70
    65
 10
0.0
 20
0.0
 30
0.0
  3
*HATCH295
  0
LINE
  5
    C0
  8
0
  6
CONTINUOUS
 62
   210
 10
-43.591236114502
 20
-123.993118286133
 30
0.0
 11
-43.2405242919922
 21
-124.34383392334
 31
0.0
  0
ENDBLK
  5
    C1
  8
0
  6
CONTINUOUS
 62
     3
  0
BLOCK
  5
    C2
  8
0
  6
CONTINUOUS
 62
     3
  2
*HATCH296
 70
    65
 10
0.0
 20
0.0
 30
0.0
  3
*HATCH296
  0
LINE
  5
    C3
  8
0
  6
CONTINUOUS
 62
   210
 10
-45.4999885559082
 20
-128.448333740234
 30
0.0
 11
-45.2529640197754
 21
-128.695358276367
 31
0.0
  0
ENDBLK
  5
    C4
  8
0
  6
CONTINUOUS
 62
     3
  0
BLOCK
  5
    C5
  8
0
  6
CONTINUOUS
 62
     3
  2
*HATCH297
 70
    65
 10
0.0
 20
0.0
 30
0.0
  3
*HATCH297
  0
LINE
  5
    C6
  8
0
  6
CONTINUOUS
 62
   210
 10
-41.1738166809082
 20
-128.531860351563
 30
0.0
 11
-40.8618469238281
 21
-128.843826293945
 31
0.0
  0
ENDBLK
  5
    C7
  8
0
  6
CONTINUOUS
 62
     3
  0
BLOCK
  5
    C8
  8
0
  6
CONTINUOUS
 62
     3
  2
*HATCH298
 70
    65
 10
0.0
 20
0.0
 30
0.0
  3
*HATCH298
  0
LINE
  5
    C9
  8
0
  6
CONTINUOUS
 62
   210
 10
-39.4082412719727
 20
-128.176116943359
 30
0.0
 11
-38.9010467529297
 21
-128.683319091797
 31
0.0
  0
ENDBLK
  5
    CA
  8
0
  6
CONTINUOUS
 62
     3
  0
BLOCK
  5
    CB
  8
0
  6
CONTINUOUS
 62
     3
  2
*HATCH299
 70
    65
 10
0.0
 20
0.0
 30
0.0
  3
*HATCH299
  0
LINE
  5
    CC
  8
0
  6
CONTINUOUS
 62
   210
 10
-34.7245826721191
 20
-128.617141723633
 30
0.0
 11
-34.4978904724121
 21
-128.843826293945
 31
0.0
  0
ENDBLK
  5
    CD
  8
0
  6
CONTINUOUS
 62
     3
  0
BLOCK
  5
    CE
  8
0
  6
CONTINUOUS
 62
     3
  2
*HATCH300
 70
    65
 10
0.0
 20
0.0
 30
0.0
  3
*HATCH300
  0
LINE
  5
    CF
  8
0
  6
CONTINUOUS
 62
   210
 10
-33.0214233398438
 20
-128.198974609375
 30
0.0
 11
-32.5142364501953
 21
-128.706176757813
 31
0.0
  0
ENDBLK
  5
    D0
  8
0
  6
CONTINUOUS
 62
     3
  0
BLOCK
  5
    D1
  8
0
  6
CONTINUOUS
 62
     7
  2
*HATCH301
 70
    65
 10
0.0
 20
0.0
 30
0.0
  3
*HATCH301
  0
LINE
  5
    D2
  8
0
  6
CONTINUOUS
 62
     7
 10
-57.9999885559082
 20
-124.433601379395
 30
0.0
 11
-57.9861831665039
 21
-124.447410583496
 31
0.0
  0
LINE
  5
    D3
  8
0
  6
CONTINUOUS
 62
     7
 10
-54.9435577392578
 20
-123.24739074707
 30
0.0
 11
-53.7435455322266
 21
-124.447410583496
 31
0.0
  0
LINE
  5
    D4
  8
0
  6
CONTINUOUS
 62
     7
 10
-50.7009201049805
 20
-123.24739074707
 30
0.0
 11
-49.5009078979492
 21
-124.447410583496
 31
0.0
  0
ENDBLK
  5
    D5
  8
0
  6
CONTINUOUS
 62
     7
  0
BLOCK
  5
    D6
  8
0
  6
CONTINUOUS
 62
     7
  2
*HATCH302
 70
    65
 10
0.0
 20
0.0
 30
0.0
  3
*HATCH302
  0
LINE
  5
    D7
  8
0
  6
CONTINUOUS
 62
     7
 10
-46.6999702453613
 20
-127.248344421387
 30
0.0
 11
-45.4999885559082
 21
-128.448333740234
 31
0.0
  0
ENDBLK
  5
    D8
  8
0
  6
CONTINUOUS
 62
     7
  0
BLOCK
  5
    D9
  8
0
  6
CONTINUOUS
 62
     7
  2
*HATCH303
 70
    65
 10
0.0
 20
0.0
 30
0.0
  3
*HATCH303
  0
LINE
  5
    DA
  8
0
  6
CONTINUOUS
 62
     7
 10
-25.4999885559082
 20
-127.235137939453
 30
0.0
 11
-24.299991607666
 21
-128.435134887695
 31
0.0
  0
ENDBLK
  5
    DB
  8
0
  6
CONTINUOUS
 62
     7
  0
BLOCK
  5
    DC
  8
0
  6
CONTINUOUS
 62
     7
  2
*HATCH304
 70
    65
 10
0.0
 20
0.0
 30
0.0
  3
*HATCH304
  0
LINE
  5
    DD
  8
0
  6
CONTINUOUS
 62
     7
 10
-24.6751708984375
 20
-123.817314147949
 30
0.0
 11
-23.8555488586426
 21
-124.636940002441
 31
0.0
  0
LINE
  5
    DE
  8
0
  6
CONTINUOUS
 62
     7
 10
-21.0024528503418
 20
-123.24739074707
 30
0.0
 11
-19.8024406433105
 21
-124.447410583496
 31
0.0
  0
LINE
  5
    DF
  8
0
  6
CONTINUOUS
 62
     7
 10
-16.7598114013672
 20
-123.24739074707
 30
0.0
 11
-15.5598030090332
 21
-124.447410583496
 31
0.0
  0
LINE
  5
    E0
  8
0
  6
CONTINUOUS
 62
     7
 10
-12.5171699523926
 20
-123.24739074707
 30
0.0
 11
-11.3171653747559
 21
-124.447410583496
 31
0.0
  0
LINE
  5
    E1
  8
0
  6
CONTINUOUS
 62
     7
 10
-8.27452850341797
 20
-123.24739074707
 30
0.0
 11
-7.07452726364136
 21
-124.447410583496
 31
0.0
  0
LINE
  5
    E2
  8
0
  6
CONTINUOUS
 62
     7
 10
-4.03188753128052
 20
-123.24739074707
 30
0.0
 11
-2.83188915252686
 21
-124.447410583496
 31
0.0
  0
ENDBLK
  5
    E3
  8
0
  6
CONTINUOUS
 62
     7
  0
BLOCK
  5
    E4
  8
0
  6
CONTINUOUS
 62
     3
  2
*HATCH305
 70
    65
 10
0.0
 20
0.0
 30
0.0
  3
*HATCH305
  0
LINE
  5
    E5
  8
0
  6
CONTINUOUS
 62
     7
 10
-35.4171371459961
 20
-125.803260803223
 30
0.0
 11
-35.3765678405762
 21
-125.84383392334
 31
0.0
  0
ENDBLK
  5
    E6
  8
0
  6
CONTINUOUS
 62
     3
  0
BLOCK
  5
    E7
  8
0
  6
CONTINUOUS
 62
     3
  2
*HATCH306
 70
    65
 10
0.0
 20
0.0
 30
0.0
  3
*HATCH306
  0
LINE
  5
    E8
  8
0
  6
CONTINUOUS
 62
   210
 10
-30.7072048187256
 20
-124.149238586426
 30
0.0
 11
-30.5318412780762
 21
-124.324600219727
 31
0.0
  0
ENDBLK
  5
    E9
  8
0
  6
CONTINUOUS
 62
     3
  0
BLOCK
  5
    EA
  8
0
  6
CONTINUOUS
 62
     3
  2
*HATCH307
 70
    65
 10
0.0
 20
0.0
 30
0.0
  3
*HATCH307
  0
LINE
  5
    EB
  8
0
  6
CONTINUOUS
 62
   210
 10
-35.4136276245117
 20
-123.685455322266
 30
0.0
 11
-34.9064331054688
 21
-124.192649841309
 31
0.0
  0
ENDBLK
  5
    EC
  8
0
  6
CONTINUOUS
 62
     3
  0
BLOCK
  5
    ED
  8
0
  6
CONTINUOUS
 62
     3
  2
*HATCH308
 70
    65
 10
0.0
 20
0.0
 30
0.0
  3
*HATCH308
  0
LINE
  5
    EE
  8
0
  6
CONTINUOUS
 62
   210
 10
-37.1537094116211
 20
-124.066688537598
 30
0.0
 11
-36.8765678405762
 21
-124.34383392334
 31
0.0
  0
ENDBLK
  5
    EF
  8
0
  6
CONTINUOUS
 62
     3
  0
BLOCK
  5
    F0
  8
0
  6
CONTINUOUS
 62
     3
  2
*HATCH309
 70
    65
 10
0.0
 20
0.0
 30
0.0
  3
*HATCH309
  0
LINE
  5
    F1
  8
0
  6
CONTINUOUS
 62
   210
 10
-41.8004341125488
 20
-123.662605285645
 30
0.0
 11
-41.2932434082031
 21
-124.169792175293
 31
0.0
  0
ENDBLK
  5
    F2
  8
0
  6
CONTINUOUS
 62
     3
  0
BLOCK
  5
    F3
  8
0
  6
CONTINUOUS
 62
     3
  2
*HATCH310
 70
    65
 10
0.0
 20
0.0
 30
0.0
  3
*HATCH310
  0
LINE
  5
    F4
  8
0
  6
CONTINUOUS
 62
   210
 10
-43.591236114502
 20
-123.993118286133
 30
0.0
 11
-43.2405242919922
 21
-124.34383392334
 31
0.0
  0
ENDBLK
  5
    F5
  8
0
  6
CONTINUOUS
 62
     3
  0
BLOCK
  5
    F6
  8
0
  6
CONTINUOUS
 62
     3
  2
*HATCH311
 70
    65
 10
0.0
 20
0.0
 30
0.0
  3
*HATCH311
  0
LINE
  5
    F7
  8
0
  6
CONTINUOUS
 62
   210
 10
-45.4999885559082
 20
-128.448333740234
 30
0.0
 11
-45.2529640197754
 21
-128.695358276367
 31
0.0
  0
ENDBLK
  5
    F8
  8
0
  6
CONTINUOUS
 62
     3
  0
BLOCK
  5
    F9
  8
0
  6
CONTINUOUS
 62
     3
  2
*HATCH312
 70
    65
 10
0.0
 20
0.0
 30
0.0
  3
*HATCH312
  0
LINE
  5
    FA
  8
0
  6
CONTINUOUS
 62
   210
 10
-41.1738166809082
 20
-128.531860351563
 30
0.0
 11
-40.8618469238281
 21
-128.843826293945
 31
0.0
  0
ENDBLK
  5
    FB
  8
0
  6
CONTINUOUS
 62
     3
  0
BLOCK
  5
    FC
  8
0
  6
CONTINUOUS
 62
     3
  2
*HATCH313
 70
    65
 10
0.0
 20
0.0
 30
0.0
  3
*HATCH313
  0
LINE
  5
    FD
  8
0
  6
CONTINUOUS
 62
   210
 10
-39.4082412719727
 20
-128.176116943359
 30
0.0
 11
-38.9010467529297
 21
-128.683319091797
 31
0.0
  0
ENDBLK
  5
    FE
  8
0
  6
CONTINUOUS
 62
     3
  0
BLOCK
  5
    FF
  8
0
  6
CONTINUOUS
 62
     3
  2
*HATCH314
 70
    65
 10
0.0
 20
0.0
 30
0.0
  3
*HATCH314
  0
LINE
  5
   100
  8
0
  6
CONTINUOUS
 62
   210
 10
-34.7245826721191
 20
-128.617141723633
 30
0.0
 11
-34.4978904724121
 21
-128.843826293945
 31
0.0
  0
ENDBLK
  5
   101
  8
0
  6
CONTINUOUS
 62
     3
  0
BLOCK
  5
   102
  8
0
  6
CONTINUOUS
 62
     3
  2
*HATCH315
 70
    65
 10
0.0
 20
0.0
 30
0.0
  3
*HATCH315
  0
LINE
  5
   103
  8
0
  6
CONTINUOUS
 62
   210
 10
-33.0214233398438
 20
-128.198974609375
 30
0.0
 11
-32.5142364501953
 21
-128.706176757813
 31
0.0
  0
ENDBLK
  5
   104
  8
0
  6
CONTINUOUS
 62
     3
  0
BLOCK
  5
   105
  8
0
  6
CONTINUOUS
 62
     7
  2
*HATCH316
 70
    65
 10
0.0
 20
0.0
 30
0.0
  3
*HATCH316
  0
LINE
  5
   106
  8
0
  6
CONTINUOUS
 62
     7
 10
31.3043460845947
 20
-91.7322311401367
 30
0.0
 11
30.5
 21
-92.5365753173828
 31
0.0
  0
LINE
  5
   107
  8
0
  6
CONTINUOUS
 62
     7
 10
33.4999885559082
 20
-93.7792282104492
 30
0.0
 11
31.5469875335693
 21
-95.7322311401367
 31
0.0
  0
ENDBLK
  5
   108
  8
0
  6
CONTINUOUS
 62
     7
  0
BLOCK
  5
   109
  8
0
  6
CONTINUOUS
 62
     7
  2
*HATCH317
 70
    65
 10
0.0
 20
0.0
 30
0.0
  3
*HATCH317
  0
LINE
  5
   10A
  8
0
  6
CONTINUOUS
 62
     7
 10
39.7896270751953
 20
-91.7322311401367
 30
0.0
 11
39.4999885559082
 21
-92.0218734741211
 31
0.0
  0
LINE
  5
   10B
  8
0
  6
CONTINUOUS
 62
     7
 10
42.5
 20
-93.2645034790039
 30
0.0
 11
40.0322685241699
 21
-95.7322311401367
 31
0.0
  0
ENDBLK
  5
   10C
  8
0
  6
CONTINUOUS
 62
     7
  0
BLOCK
  5
   10D
  8
0
  6
CONTINUOUS
 62
     7
  2
*HATCH318
 70
    65
 10
0.0
 20
0.0
 30
0.0
  3
*HATCH318
  0
LINE
  5
   10E
  8
0
  6
CONTINUOUS
 62
     7
 10
30.5
 20
-111.110260009766
 30
0.0
 11
30.6219692230225
 21
-111.232231140137
 31
0.0
  0
LINE
  5
   10F
  8
0
  6
CONTINUOUS
 62
     7
 10
32.8646087646484
 20
-109.232231140137
 30
0.0
 11
34.8646087646484
 21
-111.232231140137
 31
0.0
  0
LINE
  5
   110
  8
0
  6
CONTINUOUS
 62
     7
 10
37.1072463989258
 20
-109.232231140137
 30
0.0
 11
39.1072463989258
 21
-111.232231140137
 31
0.0
  0
LINE
  5
   111
  8
0
  6
CONTINUOUS
 62
     7
 10
41.3498878479004
 20
-109.232231140137
 30
0.0
 11
42.5
 21
-110.382347106934
 31
0.0
  0
ENDBLK
  5
   112
  8
0
  6
CONTINUOUS
 62
     7
  0
BLOCK
  5
   113
  8
0
  6
CONTINUOUS
 62
     7
  2
*HATCH319
 70
    65
 10
0.0
 20
0.0
 30
0.0
  3
*HATCH319
  0
LINE
  5
   114
  8
0
  6
CONTINUOUS
 62
    52
 10
-50.3687210083008
 20
-48.2473983764648
 30
0.0
 11
-50.5000152587891
 21
-48.3786926269531
 31
0.0
  0
LINE
  5
   115
  8
0
  6
CONTINUOUS
 62
    52
 10
-48.2474021911621
 20
-48.2473983764648
 30
0.0
 11
-50.5000152587891
 21
-50.5000114440918
 31
0.0
  0
LINE
  5
   116
  8
0
  6
CONTINUOUS
 62
    52
 10
-46.1260833740234
 20
-48.2473983764648
 30
0.0
 11
-49.1260833740234
 21
-51.2473983764648
 31
0.0
  0
LINE
  5
   117
  8
0
  6
CONTINUOUS
 62
    52
 10
-44.0047645568848
 20
-48.2473983764648
 30
0.0
 11
-47.0047645568848
 21
-51.2473983764648
 31
0.0
  0
LINE
  5
   118
  8
0
  6
CONTINUOUS
 62
    52
 10
-41.8834457397461
 20
-48.2473983764648
 30
0.0
 11
-44.8834457397461
 21
-51.2473983764648
 31
0.0
  0
LINE
  5
   119
  8
0
  6
CONTINUOUS
 62
    52
 10
-39.7621269226074
 20
-48.2473983764648
 30
0.0
 11
-42.7621269226074
 21
-51.2473983764648
 31
0.0
  0
LINE
  5
   11A
  8
0
  6
CONTINUOUS
 62
    52
 10
-37.6408081054688
 20
-48.2473983764648
 30
0.0
 11
-40.6408081054688
 21
-51.2473983764648
 31
0.0
  0
LINE
  5
   11B
  8
0
  6
CONTINUOUS
 62
    52
 10
-35.5194892883301
 20
-48.2473983764648
 30
0.0
 11
-38.5194892883301
 21
-51.2473983764648
 31
0.0
  0
LINE
  5
   11C
  8
0
  6
CONTINUOUS
 62
    52
 10
-33.3981704711914
 20
-48.2473983764648
 30
0.0
 11
-36.3981704711914
 21
-51.2473983764648
 31
0.0
  0
LINE
  5
   11D
  8
0
  6
CONTINUOUS
 62
    52
 10
-31.2768497467041
 20
-48.2473983764648
 30
0.0
 11
-34.2768516540527
 21
-51.2473983764648
 31
0.0
  0
LINE
  5
   11E
  8
0
  6
CONTINUOUS
 62
    52
 10
-29.1555290222168
 20
-48.2473983764648
 30
0.0
 11
-32.1555328369141
 21
-51.2473983764648
 31
0.0
  0
LINE
  5
   11F
  8
0
  6
CONTINUOUS
 62
    52
 10
-27.0342082977295
 20
-48.2473983764648
 30
0.0
 11
-30.0342121124268
 21
-51.2473983764648
 31
0.0
  0
LINE
  5
   120
  8
0
  6
CONTINUOUS
 62
    52
 10
-26.0000152587891
 20
-49.3345375061035
 30
0.0
 11
-27.912878036499
 21
-51.2473983764648
 31
0.0
  0
LINE
  5
   121
  8
0
  6
CONTINUOUS
 62
    52
 10
-26.0000152587891
 20
-51.4558563232422
 30
0.0
 11
-27.2915573120117
 21
-52.7473983764648
 31
0.0
  0
ENDBLK
  5
   122
  8
0
  6
CONTINUOUS
 62
     7
  0
BLOCK
  5
   123
  8
0
  6
CONTINUOUS
 62
     7
  2
*HATCH320
 70
    65
 10
0.0
 20
0.0
 30
0.0
  3
*HATCH320
  0
LINE
  5
   124
  8
0
  6
CONTINUOUS
 62
    52
 10
21.7561721801758
 20
-48.2473983764648
 30
0.0
 11
20.9999847412109
 21
-49.0035858154297
 31
0.0
  0
LINE
  5
   125
  8
0
  6
CONTINUOUS
 62
    52
 10
23.8774929046631
 20
-48.2473983764648
 30
0.0
 11
20.9999847412109
 21
-51.1249046325684
 31
0.0
  0
LINE
  5
   126
  8
0
  6
CONTINUOUS
 62
    52
 10
25.9988136291504
 20
-48.2473983764648
 30
0.0
 11
22.9988117218018
 21
-51.2473983764648
 31
0.0
  0
LINE
  5
   127
  8
0
  6
CONTINUOUS
 62
    52
 10
22.4999847412109
 20
-51.7462272644043
 30
0.0
 11
21.4988117218018
 21
-52.7473983764648
 31
0.0
  0
LINE
  5
   128
  8
0
  6
CONTINUOUS
 62
    52
 10
28.1201324462891
 20
-48.2473983764648
 30
0.0
 11
25.1201324462891
 21
-51.2473983764648
 31
0.0
  0
LINE
  5
   129
  8
0
  6
CONTINUOUS
 62
    52
 10
30.2414531707764
 20
-48.2473983764648
 30
0.0
 11
27.2414531707764
 21
-51.2473983764648
 31
0.0
  0
LINE
  5
   12A
  8
0
  6
CONTINUOUS
 62
    52
 10
32.3627738952637
 20
-48.2473983764648
 30
0.0
 11
29.3627738952637
 21
-51.2473983764648
 31
0.0
  0
LINE
  5
   12B
  8
0
  6
CONTINUOUS
 62
    52
 10
34.4840927124023
 20
-48.2473983764648
 30
0.0
 11
31.484094619751
 21
-51.2473983764648
 31
0.0
  0
LINE
  5
   12C
  8
0
  6
CONTINUOUS
 62
    52
 10
36.605411529541
 20
-48.2473983764648
 30
0.0
 11
33.6054153442383
 21
-51.2473983764648
 31
0.0
  0
LINE
  5
   12D
  8
0
  6
CONTINUOUS
 62
    52
 10
38.7267303466797
 20
-48.2473983764648
 30
0.0
 11
35.726734161377
 21
-51.2473983764648
 31
0.0
  0
LINE
  5
   12E
  8
0
  6
CONTINUOUS
 62
    52
 10
40.8480491638184
 20
-48.2473983764648
 30
0.0
 11
37.8480529785156
 21
-51.2473983764648
 31
0.0
  0
LINE
  5
   12F
  8
0
  6
CONTINUOUS
 62
    52
 10
42.969367980957
 20
-48.2473983764648
 30
0.0
 11
39.9693717956543
 21
-51.2473983764648
 31
0.0
  0
LINE
  5
   130
  8
0
  6
CONTINUOUS
 62
    52
 10
45.0906867980957
 20
-48.2473983764648
 30
0.0
 11
42.090690612793
 21
-51.2473983764648
 31
0.0
  0
LINE
  5
   131
  8
0
  6
CONTINUOUS
 62
    52
 10
45.4999847412109
 20
-49.9594306945801
 30
0.0
 11
44.2120170593262
 21
-51.2473983764648
 31
0.0
  0
ENDBLK
  5
   132
  8
0
  6
CONTINUOUS
 62
     7
  0
BLOCK
  5
   133
  8
0
  6
CONTINUOUS
 62
     7
  2
*HATCH321
 70
    65
 10
0.0
 20
0.0
 30
0.0
  3
*HATCH321
  0
LINE
  5
   134
  8
0
  6
CONTINUOUS
 62
     7
 10
-118.511177062988
 20
-96.8737030029297
 30
0.0
 11
-118.897529602051
 21
-97.2600555419922
 31
0.0
  0
LINE
  5
   135
  8
0
  6
CONTINUOUS
 62
     7
 10
-117.790054321289
 20
-96.5768508911133
 30
0.0
 11
-119.10173034668
 21
-97.8885192871094
 31
0.0
  0
LINE
  5
   136
  8
0
  6
CONTINUOUS
 62
     7
 10
-117.365791320801
 20
-96.5768508911133
 30
0.0
 11
-119.054046630859
 21
-98.2650985717773
 31
0.0
  0
LINE
  5
   137
  8
0
  6
CONTINUOUS
 62
     7
 10
-117.040000915527
 20
-96.6753234863281
 30
0.0
 11
-118.949996948242
 21
-98.585319519043
 31
0.0
  0
LINE
  5
   138
  8
0
  6
CONTINUOUS
 62
     7
 10
-116.794273376465
 20
-96.8538589477539
 30
0.0
 11
-118.8369140625
 21
-98.8964996337891
 31
0.0
  0
LINE
  5
   139
  8
0
  6
CONTINUOUS
 62
     7
 10
-116.548545837402
 20
-97.0323944091797
 30
0.0
 11
-118.591186523438
 21
-99.0750350952148
 31
0.0
  0
LINE
  5
   13A
  8
0
  6
CONTINUOUS
 62
     7
 10
-116.373573303223
 20
-97.2816848754883
 30
0.0
 11
-118.345458984375
 21
-99.2535705566406
 31
0.0
  0
LINE
  5
   13B
  8
0
  6
CONTINUOUS
 62
     7
 10
-116.26953125
 20
-97.6019058227539
 30
0.0
 11
-118.097640991211
 21
-99.4300155639649
 31
0.0
  0
LINE
  5
   13C
  8
0
  6
CONTINUOUS
 62
     7
 10
-116.165489196777
 20
-97.9221267700195
 30
0.0
 11
-117.673377990723
 21
-99.4300155639649
 31
0.0
  0
LINE
  5
   13D
  8
0
  6
CONTINUOUS
 62
     7
 10
-116.291412353516
 20
-98.4723205566406
 30
0.0
 11
-117.249114990234
 21
-99.4300155639649
 31
0.0
  0
ENDBLK
  5
   13E
  8
0
  6
CONTINUOUS
 62
     7
  0
BLOCK
  5
   13F
  8
0
  6
CONTINUOUS
 62
     7
  2
*HATCH322
 70
    65
 10
0.0
 20
0.0
 30
0.0
  3
*HATCH322
  0
LINE
  5
   140
  8
0
  6
CONTINUOUS
 62
     7
 10
-107.309104919434
 20
-92.4598541259766
 30
0.0
 11
-107.80534362793
 21
-92.9560928344727
 31
0.0
  0
LINE
  5
   141
  8
0
  6
CONTINUOUS
 62
     7
 10
-106.658538818359
 20
-92.2335510253906
 30
0.0
 11
-108.009536743164
 21
-93.5845565795898
 31
0.0
  0
LINE
  5
   142
  8
0
  6
CONTINUOUS
 62
     7
 10
-106.234268188477
 20
-92.2335510253906
 30
0.0
 11
-107.942565917969
 21
-93.9418487548828
 31
0.0
  0
LINE
  5
   143
  8
0
  6
CONTINUOUS
 62
     7
 10
-105.919654846191
 20
-92.3432006835938
 30
0.0
 11
-107.838516235352
 21
-94.2620620727539
 31
0.0
  0
LINE
  5
   144
  8
0
  6
CONTINUOUS
 62
     7
 10
-105.673927307129
 20
-92.5217361450195
 30
0.0
 11
-107.716567993164
 21
-94.5643768310547
 31
0.0
  0
LINE
  5
   145
  8
0
  6
CONTINUOUS
 62
     7
 10
-105.428199768066
 20
-92.7002716064453
 30
0.0
 11
-107.470840454102
 21
-94.7429122924805
 31
0.0
  0
LINE
  5
   146
  8
0
  6
CONTINUOUS
 62
     7
 10
-105.262092590332
 20
-92.9584350585938
 30
0.0
 11
-107.225105285645
 21
-94.9214477539063
 31
0.0
  0
LINE
  5
   147
  8
0
  6
CONTINUOUS
 62
     7
 10
-105.158050537109
 20
-93.2786483764649
 30
0.0
 11
-106.966117858887
 21
-95.0867233276367
 31
0.0
  0
LINE
  5
   148
  8
0
  6
CONTINUOUS
 62
     7
 10
-105.054008483887
 20
-93.5988693237305
 30
0.0
 11
-106.541854858398
 21
-95.0867233276367
 31
0.0
  0
LINE
  5
   149
  8
0
  6
CONTINUOUS
 62
     7
 10
-105.199226379395
 20
-94.1683578491211
 30
0.0
 11
-106.11759185791
 21
-95.0867233276367
 31
0.0
  0
ENDBLK
  5
   14A
  8
0
  6
CONTINUOUS
 62
     7
  0
BLOCK
  5
   14B
  8
0
  6
CONTINUOUS
 62
     3
  2
*UDIM727
 70
    65
 10
0.0
 20
0.0
 30
0.0
  3
*UDIM727
  0
TEXT
  5
   14C
  8
0
  6
CONTINUOUS
 62
     3
 10
-216.292997776569
 20
-112.456838001875
 30
0.0
 40
3.00000002980232
  1
75
 50
359.999999844103
 41
0.933333333333333
 72
     1
 11
-213.79299774766
 21
-110.956837993763
 31
0.0
 73
     2
  0
LINE
  5
   14D
  8
0
  6
CONTINUOUS
 62
     3
 10
-251.017992019653
 20
-56.7446917294292
 30
0.0
 11
-251.017992019653
 21
-115.456838008664
 31
0.0
  0
LINE
  5
   14E
  8
0
  6
CONTINUOUS
 62
     3
 10
-176.018005132675
 20
-34.2446765899658
 30
0.0
 11
-176.018005132675
 21
-115.456838008664
 31
0.0
  0
LINE
  5
   14F
  8
0
  6
CONTINUOUS
 62
     3
 10
-251.017992019653
 20
-113.456838008664
 30
0.0
 11
-176.018005132675
 21
-113.456838008664
 31
0.0
  0
LINE
  5
   150
  8
0
  6
CONTINUOUS
 62
     3
 10
-248.063568742446
 20
-112.935893578713
 30
0.0
 11
-251.017992019653
 21
-113.456838008664
 31
0.0
  0
LINE
  5
   151
  8
0
  6
CONTINUOUS
 62
     3
 10
-251.017992019653
 20
-113.456838008664
 30
0.0
 11
-248.063568742446
 21
-113.977782438616
 31
0.0
  0
LINE
  5
   152
  8
0
  6
CONTINUOUS
 62
     3
 10
-178.972428409882
 20
-113.977782438616
 30
0.0
 11
-176.018005132675
 21
-113.456838008664
 31
0.0
  0
LINE
  5
   153
  8
0
  6
CONTINUOUS
 62
     3
 10
-176.018005132675
 20
-113.456838008664
 30
0.0
 11
-178.972428409882
 21
-112.935893578713
 31
0.0
  0
ENDBLK
  5
   154
  8
0
  6
CONTINUOUS
 62
     3
  0
BLOCK
  5
   155
  8
0
  6
CONTINUOUS
 62
     3
  2
*UDIM728
 70
    65
 10
0.0
 20
0.0
 30
0.0
  3
*UDIM728
  0
TEXT
  5
   156
  8
0
  6
CONTINUOUS
 62
     3
 10
-243.835406556826
 20
-100.87383390531
 30
0.0
 40
3.00000002980232
  1
25,5
 50
359.999999844103
 41
0.933333333333333
 72
     1
 11
-238.535406500101
 21
-99.373833904803
 31
0.0
 73
     2
  0
LINE
  5
   157
  8
0
  6
CONTINUOUS
 62
     3
 10
-251.017992019653
 20
-56.7446917294292
 30
0.0
 11
-251.017992019653
 21
-103.873833919704
 31
0.0
  0
LINE
  5
   158
  8
0
  6
CONTINUOUS
 62
     3
 10
-225.502830505371
 20
-55.7188106413783
 30
0.0
 11
-225.502830505371
 21
-103.873833919704
 31
0.0
  0
LINE
  5
   159
  8
0
  6
CONTINUOUS
 62
     3
 10
-251.017992019653
 20
-101.873833919704
 30
0.0
 11
-225.502830505371
 21
-101.873833919704
 31
0.0
  0
LINE
  5
   15A
  8
0
  6
CONTINUOUS
 62
     3
 10
-248.063568742446
 20
-101.352889489752
 30
0.0
 11
-251.017992019653
 21
-101.873833919704
 31
0.0
  0
LINE
  5
   15B
  8
0
  6
CONTINUOUS
 62
     3
 10
-251.017992019653
 20
-101.873833919704
 30
0.0
 11
-248.063568742446
 21
-102.394778349656
 31
0.0
  0
LINE
  5
   15C
  8
0
  6
CONTINUOUS
 62
     3
 10
-228.457253782578
 20
-102.394778349656
 30
0.0
 11
-225.502830505371
 21
-101.873833919704
 31
0.0
  0
LINE
  5
   15D
  8
0
  6
CONTINUOUS
 62
     3
 10
-225.502830505371
 20
-101.873833919704
 30
0.0
 11
-228.457253782578
 21
-101.352889489752
 31
0.0
  0
ENDBLK
  5
   15E
  8
0
  6
CONTINUOUS
 62
     3
  0
BLOCK
  5
   15F
  8
0
  6
CONTINUOUS
 62
     3
  2
*UDIM729
 70
    65
 10
0.0
 20
0.0
 30
0.0
  3
*UDIM729
  0
TEXT
  5
   160
  8
0
  6
CONTINUOUS
 62
     3
 10
-259.768005481463
 20
-100.873833916717
 30
0.0
 40
3.00000002980232
  1
3
 50
359.999999844103
 41
0.933333333333334
 72
     1
 11
-258.668005466461
 21
-99.373833904803
 31
0.0
 73
     2
  0
LINE
  5
   161
  8
0
  6
CONTINUOUS
 62
     3
 10
-254.018006324768
 20
-30.244703173521
 30
0.0
 11
-254.018006324768
 21
-103.873833919704
 31
0.0
  0
LINE
  5
   162
  8
0
  6
CONTINUOUS
 62
     3
 10
-251.017992019653
 20
-56.7446917294292
 30
0.0
 11
-251.017992019653
 21
-103.873833919704
 31
0.0
  0
LINE
  5
   163
  8
0
  6
CONTINUOUS
 62
     3
 10
-259.768005477389
 20
-101.873833919704
 30
0.0
 11
-251.017992019653
 21
-101.873833919704
 31
0.0
  0
LINE
  5
   164
  8
0
  6
CONTINUOUS
 62
     3
 10
-256.972429601975
 20
-102.394778349656
 30
0.0
 11
-254.018006324768
 21
-101.873833919704
 31
0.0
  0
LINE
  5
   165
  8
0
  6
CONTINUOUS
 62
     3
 10
-254.018006324768
 20
-101.873833919704
 30
0.0
 11
-256.972429601975
 21
-101.352889489752
 31
0.0
  0
LINE
  5
   166
  8
0
  6
CONTINUOUS
 62
     3
 10
-248.063568742446
 20
-101.352889489752
 30
0.0
 11
-251.017992019653
 21
-101.873833919704
 31
0.0
  0
LINE
  5
   167
  8
0
  6
CONTINUOUS
 62
     3
 10
-251.017992019653
 20
-101.873833919704
 30
0.0
 11
-248.063568742446
 21
-102.394778349656
 31
0.0
  0
ENDBLK
  5
   168
  8
0
  6
CONTINUOUS
 62
     3
  0
BLOCK
  5
   169
  8
0
  6
CONTINUOUS
 62
     7
  2
*UDIM730
 70
    65
 10
0.0
 20
0.0
 30
0.0
  3
*UDIM730
  0
TEXT
  5
   16A
  8
0
  6
CONTINUOUS
 62
     7
 10
-268.153177844642
 20
-4.34468989674284
 30
0.0
 40
3.00000002980232
  1
=
 50
449.999999844103
 41
0.933333333333334
 72
     1
 11
-269.653177856557
 21
-3.24468988174337
 31
0.0
 73
     2
  0
LINE
  5
   16B
  8
0
  6
CONTINUOUS
 62
     3
 10
-255.018006324768
 20
5.25529682647903
 30
0.0
 11
-269.153177841656
 21
5.25529682647903
 31
0.0
  0
LINE
  5
   16C
  8
0
  6
CONTINUOUS
 62
     3
 10
-260.688798112219
 20
-11.7446765899658
 30
0.0
 11
-269.153177841656
 21
-11.7446765899658
 31
0.0
  0
LINE
  5
   16D
  8
0
  6
CONTINUOUS
 62
     3
 10
-267.153177841656
 20
5.25529682647903
 30
0.0
 11
-267.153177841656
 21
-11.7446765899658
 31
0.0
  0
LINE
  5
   16E
  8
0
  6
CONTINUOUS
 62
     3
 10
-266.632233411704
 20
2.30087354927206
 30
0.0
 11
-267.153177841656
 21
5.25529682647903
 31
0.0
  0
LINE
  5
   16F
  8
0
  6
CONTINUOUS
 62
     3
 10
-267.153177841656
 20
5.25529682647903
 30
0.0
 11
-267.674122271608
 21
2.30087354927206
 31
0.0
  0
LINE
  5
   170
  8
0
  6
CONTINUOUS
 62
     3
 10
-267.674122271608
 20
-8.79025331275881
 30
0.0
 11
-267.153177841656
 21
-11.7446765899658
 31
0.0
  0
LINE
  5
   171
  8
0
  6
CONTINUOUS
 62
     3
 10
-267.153177841656
 20
-11.7446765899658
 30
0.0
 11
-266.632233411704
 21
-8.79025331275881
 31
0.0
  0
ENDBLK
  5
   172
  8
0
  6
CONTINUOUS
 62
     7
  0
BLOCK
  5
   173
  8
0
  6
CONTINUOUS
 62
     7
  2
*UDIM731
 70
    65
 10
0.0
 20
0.0
 30
0.0
  3
*UDIM731
  0
TEXT
  5
   174
  8
0
  6
CONTINUOUS
 62
     7
 10
-268.153177844642
 20
-22.0946898967428
 30
0.0
 40
3.00000002980232
  1
=
 50
449.999999844103
 41
0.933333333333334
 72
     1
 11
-269.653177856557
 21
-20.9946898817434
 31
0.0
 73
     2
  0
LINE
  5
   175
  8
0
  6
CONTINUOUS
 62
     3
 10
-255.018006324768
 20
-30.244703173521
 30
0.0
 11
-269.153177841656
 21
-30.244703173521
 31
0.0
  0
LINE
  5
   176
  8
0
  6
CONTINUOUS
 62
     3
 10
-267.153177841656
 20
-11.7446765899658
 30
0.0
 11
-267.153177841656
 21
-30.244703173521
 31
0.0
  0
LINE
  5
   177
  8
0
  6
CONTINUOUS
 62
     3
 10
-266.632233411704
 20
-14.6990998671727
 30
0.0
 11
-267.153177841656
 21
-11.7446765899658
 31
0.0
  0
LINE
  5
   178
  8
0
  6
CONTINUOUS
 62
     3
 10
-267.153177841656
 20
-11.7446765899658
 30
0.0
 11
-267.674122271608
 21
-14.6990998671727
 31
0.0
  0
LINE
  5
   179
  8
0
  6
CONTINUOUS
 62
     3
 10
-267.674122271608
 20
-27.290279896314
 30
0.0
 11
-267.153177841656
 21
-30.244703173521
 31
0.0
  0
LINE
  5
   17A
  8
0
  6
CONTINUOUS
 62
     3
 10
-267.153177841656
 20
-30.244703173521
 30
0.0
 11
-266.632233411704
 21
-27.290279896314
 31
0.0
  0
ENDBLK
  5
   17B
  8
0
  6
CONTINUOUS
 62
     7
  0
BLOCK
  5
   17C
  8
0
  6
CONTINUOUS
 62
     7
  2
*UDIM732
 70
    65
 10
0.0
 20
0.0
 30
0.0
  3
*UDIM732
  0
TEXT
  5
   17D
  8
0
  6
CONTINUOUS
 62
     7
 10
-225.371789798241
 20
-89.9875518668135
 30
0.0
 40
3.00000002980232
  1
10.5
 50
359.999999844103
 41
0.933333333333333
 72
     1
 11
-220.071789741516
 21
-88.4875518663065
 31
0.0
 73
     2
  0
TEXT
  5
   17E
  8
0
  6
CONTINUOUS
 62
     7
 10
-213.771789692939
 20
-89.9875518706157
 30
0.0
 40
3.00000002980232
  1
x11
 50
359.999999844103
 41
0.933333333333333
 72
     1
 11
-209.871789650122
 21
-88.4875518663065
 31
0.0
 73
     2
  0
LINE
  5
   17F
  8
0
  6
CONTINUOUS
 62
     7
 10
-237.002830505371
 20
-57.7446918487549
 30
0.0
 11
-237.002830505371
 21
-92.9875518812077
 31
0.0
  0
LINE
  5
   180
  8
0
  6
CONTINUOUS
 62
     7
 10
-225.502830505371
 20
-58.2455525956746
 30
0.0
 11
-225.502830505371
 21
-92.9875518812077
 31
0.0
  0
LINE
  5
   181
  8
0
  6
CONTINUOUS
 62
     7
 10
-237.002830505371
 20
-90.9875518812077
 30
0.0
 11
-205.971789611379
 21
-90.9875518812077
 31
0.0
  0
LINE
  5
   182
  8
0
  6
CONTINUOUS
 62
     3
 10
-234.105053032161
 20
-90.2110947247891
 30
0.0
 11
-237.002830505371
 21
-90.9875518812077
 31
0.0
  0
LINE
  5
   183
  8
0
  6
CONTINUOUS
 62
     3
 10
-237.002830505371
 20
-90.9875518812077
 30
0.0
 11
-234.105053032161
 21
-91.7640090376262
 31
0.0
  0
LINE
  5
   184
  8
0
  6
CONTINUOUS
 62
     3
 10
-228.400607978582
 20
-91.7640090376262
 30
0.0
 11
-225.502830505371
 21
-90.9875518812077
 31
0.0
  0
LINE
  5
   185
  8
0
  6
CONTINUOUS
 62
     3
 10
-225.502830505371
 20
-90.9875518812077
 30
0.0
 11
-228.400607978582
 21
-90.2110947247891
 31
0.0
  0
ENDBLK
  5
   186
  8
0
  6
CONTINUOUS
 62
     7
  0
BLOCK
  5
   187
  8
0
  6
CONTINUOUS
 62
     7
  2
*UDIM733
 70
    65
 10
0.0
 20
0.0
 30
0.0
  3
*UDIM733
  0
TEXT
  5
   188
  8
0
  6
CONTINUOUS
 62
     7
 10
-208.054164209524
 20
-123.952751834527
 30
0.0
 40
3.00000002980232
  1
91
 50
359.999999844103
 41
0.933333333333333
 72
     1
 11
-205.554164180615
 21
-122.452751826415
 31
0.0
 73
     2
  0
LINE
  5
   189
  8
0
  6
CONTINUOUS
 62
     7
 10
-251.017991574605
 20
-62.7446918487549
 30
0.0
 11
-251.017991574605
 21
-126.952751841317
 31
0.0
  0
LINE
  5
   18A
  8
0
  6
CONTINUOUS
 62
     7
 10
-160.090336786625
 20
-30.9816946811597
 30
0.0
 11
-160.090336786625
 21
-126.952751841317
 31
0.0
  0
LINE
  5
   18B
  8
0
  6
CONTINUOUS
 62
     7
 10
-251.017991574605
 20
-124.952751841317
 30
0.0
 11
-160.090336786625
 21
-124.952751841317
 31
0.0
  0
LINE
  5
   18C
  8
0
  6
CONTINUOUS
 62
     3
 10
-248.120214101395
 20
-124.176294684898
 30
0.0
 11
-251.017991574605
 21
-124.952751841317
 31
0.0
  0
LINE
  5
   18D
  8
0
  6
CONTINUOUS
 62
     3
 10
-251.017991574605
 20
-124.952751841317
 30
0.0
 11
-248.120214101395
 21
-125.729208997735
 31
0.0
  0
LINE
  5
   18E
  8
0
  6
CONTINUOUS
 62
     3
 10
-162.988114259836
 20
-125.729208997735
 30
0.0
 11
-160.090336786625
 21
-124.952751841317
 31
0.0
  0
LINE
  5
   18F
  8
0
  6
CONTINUOUS
 62
     3
 10
-160.090336786625
 20
-124.952751841317
 30
0.0
 11
-162.988114259836
 21
-124.176294684898
 31
0.0
  0
ENDBLK
  5
   190
  8
0
  6
CONTINUOUS
 62
     7
  0
BLOCK
  5
   191
  8
0
  6
CONTINUOUS
 62
     3
  2
*UDIM734
 70
    65
 10
0.0
 20
0.0
 30
0.0
  3
*UDIM734
  0
TEXT
  5
   192
  8
0
  6
CONTINUOUS
 62
     3
 10
-218.431539952855
 20
90.8998088904567
 30
0.0
 40
3.00000002980232
  1
71
 50
359.999999844103
 41
0.933333333333333
 72
     1
 11
-215.931539923946
 21
92.3998088985681
 31
0.0
 73
     2
  0
LINE
  5
   193
  8
0
  6
CONTINUOUS
 62
     3
 10
-251.017991574605
 20
63.2553081512451
 30
0.0
 11
-251.017991574605
 21
91.899808883667
 31
0.0
  0
LINE
  5
   194
  8
0
  6
CONTINUOUS
 62
     3
 10
-180.517997741699
 20
72.8966619658505
 30
0.0
 11
-180.517997741699
 21
91.899808883667
 31
0.0
  0
LINE
  5
   195
  8
0
  6
CONTINUOUS
 62
     3
 10
-251.017991574605
 20
89.899808883667
 30
0.0
 11
-180.517997741699
 21
89.899808883667
 31
0.0
  0
LINE
  5
   196
  8
0
  6
CONTINUOUS
 62
     3
 10
-248.063568297398
 20
90.4207533136187
 30
0.0
 11
-251.017991574605
 21
89.899808883667
 31
0.0
  0
LINE
  5
   197
  8
0
  6
CONTINUOUS
 62
     3
 10
-251.017991574605
 20
89.899808883667
 30
0.0
 11
-248.063568297398
 21
89.3788644537153
 31
0.0
  0
LINE
  5
   198
  8
0
  6
CONTINUOUS
 62
     3
 10
-183.472421018906
 20
89.3788644537153
 30
0.0
 11
-180.517997741699
 21
89.899808883667
 31
0.0
  0
LINE
  5
   199
  8
0
  6
CONTINUOUS
 62
     3
 10
-180.517997741699
 20
89.899808883667
 30
0.0
 11
-183.472421018906
 21
90.4207533136187
 31
0.0
  0
ENDBLK
  5
   19A
  8
0
  6
CONTINUOUS
 62
     3
  0
BLOCK
  5
   19B
  8
0
  6
CONTINUOUS
 62
     3
  2
*UDIM735
 70
    65
 10
0.0
 20
0.0
 30
0.0
  3
*UDIM735
  0
TEXT
  5
   19C
  8
0
  6
CONTINUOUS
 62
     3
 10
-176.975655817092
 20
90.8998089018634
 30
0.0
 40
3.00000002980232
  1
1.5-2
 50
359.999999844103
 41
0.933333333333333
 72
     1
 11
-170.27565574646
 21
92.3998088985681
 31
0.0
 73
     2
  0
LINE
  5
   19D
  8
0
  6
CONTINUOUS
 62
     3
 10
-180.517997741699
 20
72.8966619658505
 30
0.0
 11
-180.517997741699
 21
91.899808883667
 31
0.0
  0
LINE
  5
   19E
  8
0
  6
CONTINUOUS
 62
     3
 10
-179.017997741699
 20
72.8966619658505
 30
0.0
 11
-179.017997741699
 21
91.899808883667
 31
0.0
  0
LINE
  5
   19F
  8
0
  6
CONTINUOUS
 62
     3
 10
-180.517997741699
 20
89.899808883667
 30
0.0
 11
-163.575655679901
 21
89.899808883667
 31
0.0
  0
LINE
  5
   1A0
  8
0
  6
CONTINUOUS
 62
     3
 10
-183.472421018906
 20
89.3788644537153
 30
0.0
 11
-180.517997741699
 21
89.899808883667
 31
0.0
  0
LINE
  5
   1A1
  8
0
  6
CONTINUOUS
 62
     3
 10
-180.517997741699
 20
89.899808883667
 30
0.0
 11
-183.472421018906
 21
90.4207533136187
 31
0.0
  0
LINE
  5
   1A2
  8
0
  6
CONTINUOUS
 62
     3
 10
-176.063574464492
 20
90.4207533136187
 30
0.0
 11
-179.017997741699
 21
89.899808883667
 31
0.0
  0
LINE
  5
   1A3
  8
0
  6
CONTINUOUS
 62
     3
 10
-179.017997741699
 20
89.899808883667
 30
0.0
 11
-176.063574464492
 21
89.3788644537153
 31
0.0
  0
ENDBLK
  5
   1A4
  8
0
  6
CONTINUOUS
 62
     3
  0
BLOCK
  5
   1A5
  8
0
  6
CONTINUOUS
 62
     3
  2
*UDIM736
 70
    65
 10
0.0
 20
0.0
 30
0.0
  3
*UDIM736
  0
TEXT
  5
   1A6
  8
0
  6
CONTINUOUS
 62
     3
 10
-148.088150031201
 20
-14.5196766248334
 30
0.0
 40
3.00000002980232
  1
45
 50
449.999999844103
 41
0.933333333333333
 72
     1
 11
-149.588150039315
 21
-12.0196765959262
 31
0.0
 73
     2
  0
LINE
  5
   1A7
  8
0
  6
CONTINUOUS
 62
     3
 10
-175.018005132675
 20
10.7553234100342
 30
0.0
 11
-145.088150024414
 21
10.7553234100342
 31
0.0
  0
LINE
  5
   1A8
  8
0
  6
CONTINUOUS
 62
     3
 10
-175.018005132675
 20
-34.2446765899658
 30
0.0
 11
-145.088150024414
 21
-34.2446765899658
 31
0.0
  0
LINE
  5
   1A9
  8
0
  6
CONTINUOUS
 62
     3
 10
-147.088150024414
 20
10.7553234100342
 30
0.0
 11
-147.088150024414
 21
-34.2446765899658
 31
0.0
  0
LINE
  5
   1AA
  8
0
  6
CONTINUOUS
 62
     3
 10
-146.567205594462
 20
7.80090013282727
 30
0.0
 11
-147.088150024414
 21
10.7553234100342
 31
0.0
  0
LINE
  5
   1AB
  8
0
  6
CONTINUOUS
 62
     3
 10
-147.088150024414
 20
10.7553234100342
 30
0.0
 11
-147.609094454366
 21
7.80090013282727
 31
0.0
  0
LINE
  5
   1AC
  8
0
  6
CONTINUOUS
 62
     3
 10
-147.609094454366
 20
-31.2902533127588
 30
0.0
 11
-147.088150024414
 21
-34.2446765899658
 31
0.0
  0
LINE
  5
   1AD
  8
0
  6
CONTINUOUS
 62
     3
 10
-147.088150024414
 20
-34.2446765899658
 30
0.0
 11
-146.567205594462
 21
-31.2902533127588
 31
0.0
  0
ENDBLK
  5
   1AE
  8
0
  6
CONTINUOUS
 62
     3
  0
BLOCK
  5
   1AF
  8
0
  6
CONTINUOUS
 62
     3
  2
*UDIM737
 70
    65
 10
0.0
 20
0.0
 30
0.0
  3
*UDIM737
  0
TEXT
  5
   1B0
  8
0
  6
CONTINUOUS
 62
     3
 10
-56.4834567473795
 20
54.1609244951616
 30
0.0
 40
3.00000002980232
  1
53
 50
449.999999844103
 41
0.933333333333333
 72
     1
 11
-57.9834567554941
 21
56.6609245240688
 31
0.0
 73
     2
  0
LINE
  5
   1B1
  8
0
  6
CONTINUOUS
 62
     3
 10
-77.8042907714844
 20
70.1859245300293
 30
0.0
 11
-53.4834567405929
 21
70.1859245300293
 31
0.0
  0
LINE
  5
   1B2
  8
0
  6
CONTINUOUS
 62
     3
 10
-77.8042907714844
 20
43.6859245300293
 30
0.0
 11
-53.4834567405929
 21
43.6859245300293
 31
0.0
  0
LINE
  5
   1B3
  8
0
  6
CONTINUOUS
 62
     3
 10
-55.4834567405929
 20
70.1859245300293
 30
0.0
 11
-55.4834567405929
 21
43.6859245300293
 31
0.0
  0
LINE
  5
   1B4
  8
0
  6
CONTINUOUS
 62
     3
 10
-54.9625123106412
 20
67.2315012528223
 30
0.0
 11
-55.4834567405929
 21
70.1859245300293
 31
0.0
  0
LINE
  5
   1B5
  8
0
  6
CONTINUOUS
 62
     3
 10
-55.4834567405929
 20
70.1859245300293
 30
0.0
 11
-56.0044011705446
 21
67.2315012528223
 31
0.0
  0
LINE
  5
   1B6
  8
0
  6
CONTINUOUS
 62
     3
 10
-56.0044011705446
 20
46.6403478072363
 30
0.0
 11
-55.4834567405929
 21
43.6859245300293
 31
0.0
  0
LINE
  5
   1B7
  8
0
  6
CONTINUOUS
 62
     3
 10
-55.4834567405929
 20
43.6859245300293
 30
0.0
 11
-54.9625123106412
 21
46.6403478072363
 31
0.0
  0
ENDBLK
  5
   1B8
  8
0
  6
CONTINUOUS
 62
     3
  0
BLOCK
  5
   1B9
  8
0
  6
CONTINUOUS
 62
     3
  2
*UDIM738
 70
    65
 10
0.0
 20
0.0
 30
0.0
  3
*UDIM738
  0
TEXT
  5
   1BA
  8
0
  6
CONTINUOUS
 62
     3
 10
-90.5792908063539
 20
87.403346995073
 30
0.0
 40
3.00000002980232
  1
43
 50
359.999999844103
 41
0.933333333333333
 72
     1
 11
-88.0792907774448
 21
88.9033470031844
 31
0.0
 73
     2
  0
LINE
  5
   1BB
  8
0
  6
CONTINUOUS
 62
     3
 10
-98.5542907714844
 20
77.5901791063164
 30
0.0
 11
-98.5542907714844
 21
88.4033469882833
 31
0.0
  0
LINE
  5
   1BC
  8
0
  6
CONTINUOUS
 62
     3
 10
-77.0542907714844
 20
69.4359245300293
 30
0.0
 11
-77.0542907714844
 21
88.4033469882833
 31
0.0
  0
LINE
  5
   1BD
  8
0
  6
CONTINUOUS
 62
     3
 10
-98.5542907714844
 20
86.4033469882833
 30
0.0
 11
-77.0542907714844
 21
86.4033469882833
 31
0.0
  0
LINE
  5
   1BE
  8
0
  6
CONTINUOUS
 62
     3
 10
-95.5998674942774
 20
86.9242914182349
 30
0.0
 11
-98.5542907714844
 21
86.4033469882833
 31
0.0
  0
LINE
  5
   1BF
  8
0
  6
CONTINUOUS
 62
     3
 10
-98.5542907714844
 20
86.4033469882833
 30
0.0
 11
-95.5998674942774
 21
85.8824025583316
 31
0.0
  0
LINE
  5
   1C0
  8
0
  6
CONTINUOUS
 62
     3
 10
-80.0087140486913
 20
85.8824025583316
 30
0.0
 11
-77.0542907714844
 21
86.4033469882833
 31
0.0
  0
LINE
  5
   1C1
  8
0
  6
CONTINUOUS
 62
     3
 10
-77.0542907714844
 20
86.4033469882833
 30
0.0
 11
-80.0087140486913
 21
86.9242914182349
 31
0.0
  0
ENDBLK
  5
   1C2
  8
0
  6
CONTINUOUS
 62
     3
  0
BLOCK
  5
   1C3
  8
0
  6
CONTINUOUS
 62
     3
  2
*UDIM739
 70
    65
 10
0.0
 20
0.0
 30
0.0
  3
*UDIM739
  0
TEXT
  5
   1C4
  8
0
  6
CONTINUOUS
 62
     3
 10
-111.779290848077
 20
15.4030658694445
 30
0.0
 40
3.00000002980232
  1
108,5
 50
359.999999844103
 41
0.933333333333333
 72
     1
 11
-105.079290777445
 21
16.9030658661492
 31
0.0
 73
     2
  0
LINE
  5
   1C5
  8
0
  6
CONTINUOUS
 62
     3
 10
-131.929290771484
 20
72.9359245300293
 30
0.0
 11
-131.929290771484
 21
12.4030658512481
 31
0.0
  0
LINE
  5
   1C6
  8
0
  6
CONTINUOUS
 62
     3
 10
-77.6792907714844
 20
72.9359245300293
 30
0.0
 11
-77.6792907714844
 21
12.4030658512481
 31
0.0
  0
LINE
  5
   1C7
  8
0
  6
CONTINUOUS
 62
     3
 10
-131.929290771484
 20
14.4030658512481
 30
0.0
 11
-77.6792907714844
 21
14.4030658512481
 31
0.0
  0
LINE
  5
   1C8
  8
0
  6
CONTINUOUS
 62
     3
 10
-128.974867494277
 20
14.9240102811997
 30
0.0
 11
-131.929290771484
 21
14.4030658512481
 31
0.0
  0
LINE
  5
   1C9
  8
0
  6
CONTINUOUS
 62
     3
 10
-131.929290771484
 20
14.4030658512481
 30
0.0
 11
-128.974867494277
 21
13.8821214212964
 31
0.0
  0
LINE
  5
   1CA
  8
0
  6
CONTINUOUS
 62
     3
 10
-80.6337140486913
 20
13.8821214212964
 30
0.0
 11
-77.6792907714844
 21
14.4030658512481
 31
0.0
  0
LINE
  5
   1CB
  8
0
  6
CONTINUOUS
 62
     3
 10
-77.6792907714844
 20
14.4030658512481
 30
0.0
 11
-80.6337140486913
 21
14.9240102811997
 31
0.0
  0
ENDBLK
  5
   1CC
  8
0
  6
CONTINUOUS
 62
     3
  0
BLOCK
  5
   1CD
  8
0
  6
CONTINUOUS
 62
     3
  2
*UDIM740
 70
    65
 10
0.0
 20
0.0
 30
0.0
  3
*UDIM740
  0
TEXT
  5
   1CE
  8
0
  6
CONTINUOUS
 62
     3
 10
-108.979290820262
 20
99.5161323653283
 30
0.0
 40
3.00000002980232
  1
111
 50
359.999999844103
 41
0.933333333333333
 72
     1
 11
-105.079290777445
 21
101.016132369638
 31
0.0
 73
     2
  0
LINE
  5
   1CF
  8
0
  6
CONTINUOUS
 62
     3
 10
-132.554290771484
 20
70.4359245300293
 30
0.0
 11
-132.554290771484
 21
100.516132354736
 31
0.0
  0
LINE
  5
   1D0
  8
0
  6
CONTINUOUS
 62
     3
 10
-77.0542907714844
 20
70.4359245300293
 30
0.0
 11
-77.0542907714844
 21
100.516132354736
 31
0.0
  0
LINE
  5
   1D1
  8
0
  6
CONTINUOUS
 62
     3
 10
-132.554290771484
 20
98.5161323547363
 30
0.0
 11
-77.0542907714844
 21
98.5161323547363
 31
0.0
  0
LINE
  5
   1D2
  8
0
  6
CONTINUOUS
 62
     3
 10
-129.599867494277
 20
99.037076784688
 30
0.0
 11
-132.554290771484
 21
98.5161323547363
 31
0.0
  0
LINE
  5
   1D3
  8
0
  6
CONTINUOUS
 62
     3
 10
-132.554290771484
 20
98.5161323547363
 30
0.0
 11
-129.599867494277
 21
97.9951879247847
 31
0.0
  0
LINE
  5
   1D4
  8
0
  6
CONTINUOUS
 62
     3
 10
-80.0087140486913
 20
97.9951879247847
 30
0.0
 11
-77.0542907714844
 21
98.5161323547363
 31
0.0
  0
LINE
  5
   1D5
  8
0
  6
CONTINUOUS
 62
     3
 10
-77.0542907714844
 20
98.5161323547363
 30
0.0
 11
-80.0087140486913
 21
99.037076784688
 31
0.0
  0
ENDBLK
  5
   1D6
  8
0
  6
CONTINUOUS
 62
     3
  0
BLOCK
  5
   1D7
  8
0
  6
CONTINUOUS
 62
     3
  2
*UDIM741
 70
    65
 10
0.0
 20
0.0
 30
0.0
  3
*UDIM741
  0
TEXT
  5
   1D8
  8
0
  6
CONTINUOUS
 62
     3
 10
-89.538026242555
 20
29.6969585486598
 30
0.0
 40
3.00000002980232
  1
42
 50
359.999999844103
 41
0.933333333333333
 72
     1
 11
-87.0380262136459
 21
31.1969585567713
 31
0.0
 73
     2
  0
LINE
  5
   1D9
  8
0
  6
CONTINUOUS
 62
     3
 10
-98.5542907714844
 20
35.658706626403
 30
0.0
 11
-98.5542907714844
 21
26.6969585418701
 31
0.0
  0
LINE
  5
   1DA
  8
0
  6
CONTINUOUS
 62
     3
 10
-77.6792907714844
 20
38.4359245300293
 30
0.0
 11
-77.6792907714844
 21
26.6969585418701
 31
0.0
  0
LINE
  5
   1DB
  8
0
  6
CONTINUOUS
 62
     3
 10
-98.5542907714844
 20
28.6969585418701
 30
0.0
 11
-77.6792907714844
 21
28.6969585418701
 31
0.0
  0
LINE
  5
   1DC
  8
0
  6
CONTINUOUS
 62
     3
 10
-95.5998674942774
 20
29.2179029718218
 30
0.0
 11
-98.5542907714844
 21
28.6969585418701
 31
0.0
  0
LINE
  5
   1DD
  8
0
  6
CONTINUOUS
 62
     3
 10
-98.5542907714844
 20
28.6969585418701
 30
0.0
 11
-95.5998674942774
 21
28.1760141119185
 31
0.0
  0
LINE
  5
   1DE
  8
0
  6
CONTINUOUS
 62
     3
 10
-80.6337140486913
 20
28.1760141119185
 30
0.0
 11
-77.6792907714844
 21
28.6969585418701
 31
0.0
  0
LINE
  5
   1DF
  8
0
  6
CONTINUOUS
 62
     3
 10
-77.6792907714844
 20
28.6969585418701
 30
0.0
 11
-80.6337140486913
 21
29.2179029718218
 31
0.0
  0
ENDBLK
  5
   1E0
  8
0
  6
CONTINUOUS
 62
     3
  0
BLOCK
  5
   1E1
  8
0
  6
CONTINUOUS
 62
     3
  2
*UDIM742
 70
    65
 10
0.0
 20
0.0
 30
0.0
  3
*UDIM742
  0
TEXT
  5
   1E2
  8
0
  6
CONTINUOUS
 62
     3
 10
-86.3909309413961
 20
61.57600702151
 30
0.0
 40
3.00000002980232
  1
1,5
 50
407.397966829164
 41
0.933333333333333
 72
     1
 11
-84.8551223760082
 21
65.4620451578875
 31
0.0
 73
     2
  0
TEXT
  5
   1E3
  8
0
  6
CONTINUOUS
 62
     3
 10
-88.2524117007882
 20
59.5518060512057
 30
0.0
 40
3.00000002980232
  1
R
 50
407.397966829164
 41
0.933333333333334
 72
     1
 11
-88.6119290063523
 21
61.3768395784989
 31
0.0
 73
     2
  0
LINE
  5
   1E4
  8
0
  6
CONTINUOUS
 62
     3
 10
-77.2966142054503
 20
69.9879793319283
 30
0.0
 11
-87.5163386266341
 21
58.8749039641364
 31
0.0
  0
LINE
  5
   1E5
  8
0
  6
CONTINUOUS
 62
     3
 10
-78.9130163253255
 20
67.4606795501725
 30
0.0
 11
-77.2966142054503
 21
69.9879793319283
 31
0.0
  0
LINE
  5
   1E6
  8
0
  6
CONTINUOUS
 62
     3
 10
-77.2966142054503
 20
69.9879793319283
 30
0.0
 11
-79.6799226561985
 21
68.1659362949525
 31
0.0
  0
ENDBLK
  5
   1E7
  8
0
  6
CONTINUOUS
 62
     3
  0
BLOCK
  5
   1E8
  8
0
  6
CONTINUOUS
 62
     3
  2
*UDIM743
 70
    65
 10
0.0
 20
0.0
 30
0.0
  3
*UDIM743
  0
TEXT
  5
   1E9
  8
0
  6
CONTINUOUS
 62
     3
 10
-125.384991068854
 20
80.8485463475666
 30
0.0
 40
3.00000002980232
  1
4
 50
404.818094863318
 41
0.933333333333334
 72
     1
 11
-125.661995489553
 21
82.6879127111977
 31
0.0
 73
     2
  0
TEXT
  5
   1EA
  8
0
  6
CONTINUOUS
 62
     3
 10
-127.619437796356
 20
78.628242790721
 30
0.0
 40
3.00000002980232
  1
Ø
 50
404.818094863318
 41
0.933333333333334
 72
     1
 11
-127.896442217055
 21
80.4676091543521
 31
0.0
 73
     2
  0
LINE
  5
   1EB
  8
0
  6
CONTINUOUS
 62
     3
 10
-123.119566815073
 20
81.6898863920411
 30
0.0
 11
-132.638638936708
 21
72.2310662602377
 31
0.0
  0
LINE
  5
   1EC
  8
0
  6
CONTINUOUS
 62
     3
 10
-129.491419864833
 20
76.0927634547948
 30
0.0
 11
-131.219942606261
 21
73.6407827998209
 31
0.0
  0
LINE
  5
   1ED
  8
0
  6
CONTINUOUS
 62
     3
 10
-131.219942606261
 20
73.6407827998209
 30
0.0
 11
-128.757035885726
 21
75.3537015036552
 31
0.0
  0
LINE
  5
   1EE
  8
0
  6
CONTINUOUS
 62
     3
 10
-134.367161678136
 20
69.7790856052638
 30
0.0
 11
-132.638638936708
 21
72.2310662602377
 31
0.0
  0
LINE
  5
   1EF
  8
0
  6
CONTINUOUS
 62
     3
 10
-132.638638936708
 20
72.2310662602377
 30
0.0
 11
-135.101545657243
 21
70.5181475564034
 31
0.0
  0
ENDBLK
  5
   1F0
  8
0
  6
CONTINUOUS
 62
     3
  0
BLOCK
  5
   1F1
  8
0
  6
CONTINUOUS
 62
     3
  2
*UDIM744
 70
    65
 10
0.0
 20
0.0
 30
0.0
  3
*UDIM744
  0
TEXT
  5
   1F2
  8
0
  6
CONTINUOUS
 62
     3
 10
-149.956844336621
 20
54.1609244951616
 30
0.0
 40
3.00000002980232
  1
64
 50
449.999999844103
 41
0.933333333333333
 72
     1
 11
-151.456844344735
 21
56.6609245240688
 31
0.0
 73
     2
  0
LINE
  5
   1F3
  8
0
  6
CONTINUOUS
 62
     3
 10
-132.929290771484
 20
72.9359245300293
 30
0.0
 11
-150.956844329834
 21
72.9359245300293
 31
0.0
  0
LINE
  5
   1F4
  8
0
  6
CONTINUOUS
 62
     3
 10
-132.929290771484
 20
40.9359245300293
 30
0.0
 11
-150.956844329834
 21
40.9359245300293
 31
0.0
  0
LINE
  5
   1F5
  8
0
  6
CONTINUOUS
 62
     3
 10
-148.956844329834
 20
72.9359245300293
 30
0.0
 11
-148.956844329834
 21
40.9359245300293
 31
0.0
  0
LINE
  5
   1F6
  8
0
  6
CONTINUOUS
 62
     3
 10
-148.435899899882
 20
69.9815012528223
 30
0.0
 11
-148.956844329834
 21
72.9359245300293
 31
0.0
  0
LINE
  5
   1F7
  8
0
  6
CONTINUOUS
 62
     3
 10
-148.956844329834
 20
72.9359245300293
 30
0.0
 11
-149.477788759786
 21
69.9815012528223
 31
0.0
  0
LINE
  5
   1F8
  8
0
  6
CONTINUOUS
 62
     3
 10
-149.477788759786
 20
43.8903478072363
 30
0.0
 11
-148.956844329834
 21
40.9359245300293
 31
0.0
  0
LINE
  5
   1F9
  8
0
  6
CONTINUOUS
 62
     3
 10
-148.956844329834
 20
40.9359245300293
 30
0.0
 11
-148.435899899882
 21
43.8903478072363
 31
0.0
  0
ENDBLK
  5
   1FA
  8
0
  6
CONTINUOUS
 62
     3
  0
ENDSEC
  0
SECTION
  2
ENTITIES
  0
LINE
  5
   1FB
  8
0
  6
CONTINUOUS
 62
     7
 10
-303.887329101562
 20
35.0057525634766
 30
0.0
 11
-303.887329101562
 21
-30.5361896935912
 31
0.0
  0
LINE
  5
   1FC
  8
0
  6
CONTINUOUS
 62
     7
 10
-418.637329101562
 20
-59.7442474365234
 30
0.0
 11
-353.970781544519
 21
-59.7442474365234
 31
0.0
  0
LINE
  5
   1FD
  8
0
  6
CONTINUOUS
 62
     7
 10
-419.887329101562
 20
35.0057525634766
 30
0.0
 11
-419.887329101562
 21
-58.4942474365234
 31
0.0
  0
LINE
  5
   1FE
  8
0
  6
CONTINUOUS
 62
     7
 10
-418.637329101562
 20
36.2557525634766
 30
0.0
 11
-305.137329101562
 21
36.2557525634766
 31
0.0
  0
LINE
  5
   1FF
  8
0
  6
CONTINUOUS
 62
     7
 10
-414.887329101562
 20
-35.7442474365234
 30
0.0
 11
-353.970781544519
 21
-35.7442474365234
 31
0.0
  0
LINE
  5
   200
  8
0
  6
CONTINUOUS
 62
     7
 10
-414.887329101562
 20
12.2557525634766
 30
0.0
 11
-308.887329101562
 21
12.2557525634766
 31
0.0
  0
LINE
  5
   201
  8
0
  6
CONTINUOUS
 62
     7
 10
-415.387329101562
 20
36.2557525634766
 30
0.0
 11
-415.387329101562
 21
-59.7442474365234
 31
0.0
  0
LINE
  5
   202
  8
0
  6
CONTINUOUS
 62
     7
 10
-414.387329101563
 20
22.7557525634766
 30
0.0
 11
-414.387329101563
 21
12.2557525634766
 31
0.0
  0
LINE
  5
   203
  8
0
  6
CONTINUOUS
 62
     7
 10
-414.387329101563
 20
-35.7442474365234
 30
0.0
 11
-414.387329101563
 21
-46.2442474365234
 31
0.0
  0
LINE
  5
   204
  8
0
  6
CONTINUOUS
 62
     7
 10
-414.387329101563
 20
-47.2442474365234
 30
0.0
 11
-414.387329101563
 21
-59.7442474365234
 31
0.0
  0
LINE
  5
   205
  8
0
  6
CONTINUOUS
 62
     7
 10
-308.387329101562
 20
36.2557525634766
 30
0.0
 11
-308.387329101562
 21
-30.5361896935912
 31
0.0
  0
LINE
  5
   206
  8
0
  6
CONTINUOUS
 62
     7
 10
-309.387329101562
 20
22.7557525634766
 30
0.0
 11
-309.387329101562
 21
12.2557525634766
 31
0.0
  0
LINE
  5
   207
  8
0
  6
CONTINUOUS
 62
     7
 10
-415.387329101562
 20
23.7557525634766
 30
0.0
 11
-308.387329101562
 21
23.7557525634766
 31
0.0
  0
LINE
  5
   208
  8
0
  6
CONTINUOUS
 62
     7
 10
-414.387329101563
 20
22.7557525634766
 30
0.0
 11
-309.387329101562
 21
22.7557525634766
 31
0.0
  0
LINE
  5
   209
  8
0
  6
CONTINUOUS
 62
     7
 10
-414.387329101563
 20
-47.2442474365234
 30
0.0
 11
-353.970781544519
 21
-47.2442474365234
 31
0.0
  0
LINE
  5
   20A
  8
0
  6
CONTINUOUS
 62
     7
 10
-414.387329101563
 20
-46.2442474365234
 30
0.0
 11
-353.970781544519
 21
-46.2442474365234
 31
0.0
  0
LINE
  5
   20B
  8
0
  6
CONTINUOUS
 62
     7
 10
-415.387329101562
 20
30.7557525634766
 30
0.0
 11
-415.087326049805
 21
30.7557525634766
 31
0.0
  0
LINE
  5
   20C
  8
0
  6
CONTINUOUS
 62
     7
 10
-415.387329101562
 20
29.2557525634766
 30
0.0
 11
-415.087326049805
 21
29.2557525634766
 31
0.0
  0
LINE
  5
   20D
  8
0
  6
CONTINUOUS
 62
     7
 10
-308.687329292297
 20
30.7557525634766
 30
0.0
 11
-308.387329101562
 21
30.7557525634766
 31
0.0
  0
LINE
  5
   20E
  8
0
  6
CONTINUOUS
 62
     7
 10
-308.687329292297
 20
29.2557525634766
 30
0.0
 11
-308.387329101562
 21
29.2557525634766
 31
0.0
  0
ARC
  5
   20F
  8
0
  6
CONTINUOUS
 62
     7
 10
-415.087365992481
 20
30.0057276455221
 30
0.0
 40
0.750043449440929
 50
270.002994716444
 51
449.997011754257
  0
ARC
  5
   210
  8
0
  6
CONTINUOUS
 62
     7
 10
-308.68731442918
 20
30.0057470533462
 30
0.0
 40
0.750014940188872
 50
450.001135501493
 51
629.998857587167
  0
ARC
  5
   211
  8
0
  6
CONTINUOUS
 62
     7
 10
-305.137329101562
 20
35.0057525634766
 30
0.0
 40
1.25
 50
359.999999844103
 51
449.999999844103
  0
ARC
  5
   212
  8
0
  6
CONTINUOUS
 62
     7
 10
-418.637329101562
 20
35.0057525634766
 30
0.0
 40
1.25
 50
449.999999844103
 51
539.999999844103
  0
ARC
  5
   213
  8
0
  6
CONTINUOUS
 62
     7
 10
-418.637329101562
 20
-58.4942474365234
 30
0.0
 40
1.25
 50
539.999999844103
 51
629.999999844103
  0
LINE
  5
   214
  8
0
  6
CONTINUOUS
 62
     7
 10
-308.887329101562
 20
12.2557525634766
 30
0.0
 11
-308.887329101562
 21
-30.5361896935912
 31
0.0
  0
LINE
  5
   215
  8
0
  6
CONTINUOUS
 62
     7
 10
-414.887329101562
 20
12.2557525634766
 30
0.0
 11
-414.887329101562
 21
-35.7442474365234
 31
0.0
  0
LINE
  5
   216
  8
0
  6
CONTINUOUS
 62
   130
 10
-291.474395751953
 20
-14.2447099685669
 30
0.0
 11
-291.474395751953
 21
-14.2447099685669
 31
0.0
  0
LINE
  5
   217
  8
0
  6
CONTINUOUS
 62
   130
 10
-291.474395751953
 20
-14.2447099685669
 30
0.0
 11
-291.474395751953
 21
-14.2447099685669
 31
0.0
  0
LINE
  5
   218
  8
0
  6
CONTINUOUS
 62
   130
 10
-291.474395751953
 20
-14.2447099685669
 30
0.0
 11
-291.474395751953
 21
-14.2447099685669
 31
0.0
  0
LINE
  5
   219
  8
0
  6
CONTINUOUS
 62
   130
 10
-291.474395751953
 20
-14.2447099685669
 30
0.0
 11
-291.474395751953
 21
-14.2447099685669
 31
0.0
  0
LINE
  5
   21A
  8
0
  6
CONTINUOUS
 62
   130
 10
-291.474395751953
 20
-14.2447099685669
 30
0.0
 11
-291.474395751953
 21
-14.2447099685669
 31
0.0
  0
LINE
  5
   21B
  8
0
  6
CONTINUOUS
 62
   130
 10
-291.474395751953
 20
-14.2447099685669
 30
0.0
 11
-291.474395751953
 21
-14.2447099685669
 31
0.0
  0
LINE
  5
   21C
  8
0
  6
CONTINUOUS
 62
   130
 10
-291.474395751953
 20
-14.2447099685669
 30
0.0
 11
-291.474395751953
 21
-14.2447099685669
 31
0.0
  0
LINE
  5
   21D
  8
0
  6
CONTINUOUS
 62
   130
 10
-291.474395751953
 20
-14.2447099685669
 30
0.0
 11
-291.474395751953
 21
-14.2447099685669
 31
0.0
  0
LINE
  5
   21E
  8
0
  6
CONTINUOUS
 62
   130
 10
-413.387218551632
 20
61.2552898788483
 30
0.0
 11
-413.387214737006
 21
36.2557525634766
 31
0.0
  0
LINE
  5
   21F
  8
0
  6
CONTINUOUS
 62
   130
 10
-413.387203979496
 20
-34.2446794509819
 30
0.0
 11
-349.387234497073
 21
-34.2446794509819
 31
0.0
  0
LINE
  5
   220
  8
0
  6
CONTINUOUS
 62
   130
 10
-413.387210845949
 20
10.7553205490062
 30
0.0
 11
-349.387241363527
 21
10.7553205490062
 31
0.0
  0
LINE
  5
   221
  8
0
  6
CONTINUOUS
 62
   130
 10
-356.887252488557
 20
2.39132399022147
 30
0.0
 11
-342.742806943167
 21
2.39132399022147
 31
0.0
  0
LINE
  5
   222
  8
0
  6
CONTINUOUS
 62
   130
 10
-356.887252559663
 20
4.25532054900618
 30
0.0
 11
-356.887251533057
 21
-22.6565302456229
 31
0.0
  0
LINE
  5
   223
  8
0
  6
CONTINUOUS
 62
   130
 10
-356.887251533057
 20
-22.6565302456229
 30
0.0
 11
-355.887251533057
 21
-22.6565302456229
 31
0.0
  0
LINE
  5
   224
  8
0
  6
CONTINUOUS
 62
   130
 10
-356.887251547408
 20
-22.2803267604291
 30
0.0
 11
-355.887251547408
 21
-22.2803267604291
 31
0.0
  0
LINE
  5
   225
  8
0
  6
CONTINUOUS
 62
   130
 10
-388.387265472413
 20
2.75532054900619
 30
0.0
 11
-356.887252502442
 21
2.75532054900619
 31
0.0
  0
LINE
  5
   226
  8
0
  6
CONTINUOUS
 62
   130
 10
-388.387270126342
 20
-27.7446794509819
 30
0.0
 11
-374.98723526001
 21
-27.7446794509819
 31
0.0
  0
LINE
  5
   227
  8
0
  6
CONTINUOUS
 62
   130
 10
-388.38726989746
 20
-26.2446794509819
 30
0.0
 11
-355.88725139618
 21
-26.2446794509819
 31
0.0
  0
LINE
  5
   228
  8
0
  6
CONTINUOUS
 62
   130
 10
-364.98723526001
 20
-27.7446794509819
 30
0.0
 11
-310.387270126341
 21
-27.7446794509819
 31
0.0
  0
LINE
  5
   229
  8
0
  6
CONTINUOUS
 62
   130
 10
-355.887251731123
 20
-17.4643351954221
 30
0.0
 11
-355.887251410192
 21
-25.8773463916933
 31
0.0
  0
LINE
  5
   22A
  8
0
  6
CONTINUOUS
 62
   130
 10
-291.474395751953
 20
-14.2447099685669
 30
0.0
 11
-291.474395751953
 21
-14.2447099685669
 31
0.0
  0
LINE
  5
   22B
  8
0
  6
CONTINUOUS
 62
   130
 10
-291.474395751953
 20
-14.2447099685669
 30
0.0
 11
-291.474395751953
 21
-14.2447099685669
 31
0.0
  0
LINE
  5
   22C
  8
0
  6
CONTINUOUS
 62
   130
 10
-291.474395751953
 20
-14.2447099685669
 30
0.0
 11
-291.474395751953
 21
-14.2447099685669
 31
0.0
  0
LINE
  5
   22D
  8
0
  6
CONTINUOUS
 62
   130
 10
-291.474395751953
 20
-14.2447099685669
 30
0.0
 11
-291.474395751953
 21
-14.2447099685669
 31
0.0
  0
LINE
  5
   22E
  8
0
  6
CONTINUOUS
 62
   130
 10
-291.474395751953
 20
-14.2447099685669
 30
0.0
 11
-291.474395751953
 21
-14.2447099685669
 31
0.0
  0
LINE
  5
   22F
  8
0
  6
CONTINUOUS
 62
   130
 10
-291.474395751953
 20
-14.2447099685669
 30
0.0
 11
-291.474395751953
 21
-14.2447099685669
 31
0.0
  0
LINE
  5
   230
  8
0
  6
CONTINUOUS
 62
   130
 10
-291.474395751953
 20
-14.2447099685669
 30
0.0
 11
-291.474395751953
 21
-14.2447099685669
 31
0.0
  0
LINE
  5
   231
  8
0
  6
CONTINUOUS
 62
   130
 10
-412.387246704096
 20
45.7552782659186
 30
0.0
 11
-412.387246475214
 21
44.2552782659186
 31
0.0
  0
LINE
  5
   232
  8
0
  6
CONTINUOUS
 62
   130
 10
-412.387246704096
 20
45.7552782659186
 30
0.0
 11
-349.387267344649
 21
45.7552782659186
 31
0.0
  0
LINE
  5
   233
  8
0
  6
CONTINUOUS
 62
   130
 10
-413.387215957636
 20
44.2552782659186
 30
0.0
 11
-349.387237548828
 21
44.2552782659186
 31
0.0
  0
LINE
  5
   234
  8
0
  6
CONTINUOUS
 62
   130
 10
-291.474395751953
 20
-14.2447099685669
 30
0.0
 11
-291.474395751953
 21
-14.2447099685669
 31
0.0
  0
LINE
  5
   235
  8
0
  6
CONTINUOUS
 62
   130
 10
-291.474395751953
 20
-14.2447099685669
 30
0.0
 11
-291.474395751953
 21
-14.2447099685669
 31
0.0
  0
LINE
  5
   236
  8
0
  6
CONTINUOUS
 62
   130
 10
-291.474395751953
 20
-14.2447099685669
 30
0.0
 11
-291.474395751953
 21
-14.2447099685669
 31
0.0
  0
LINE
  5
   237
  8
0
  6
CONTINUOUS
 62
   130
 10
-291.474395751953
 20
-14.2447099685669
 30
0.0
 11
-291.474395751953
 21
-14.2447099685669
 31
0.0
  0
LINE
  5
   238
  8
0
  6
CONTINUOUS
 62
   130
 10
-291.474395751953
 20
-14.2447099685669
 30
0.0
 11
-291.474395751953
 21
-14.2447099685669
 31
0.0
  0
LINE
  5
   239
  8
0
  6
CONTINUOUS
 62
   130
 10
-291.474395751953
 20
-14.2447099685669
 30
0.0
 11
-291.474395751953
 21
-14.2447099685669
 31
0.0
  0
LINE
  5
   23A
  8
0
  6
CONTINUOUS
 62
   130
 10
-291.474395751953
 20
-14.2447099685669
 30
0.0
 11
-291.474395751953
 21
-14.2447099685669
 31
0.0
  0
LINE
  5
   23B
  8
0
  6
CONTINUOUS
 62
   130
 10
-291.474395751953
 20
-14.2447099685669
 30
0.0
 11
-291.474395751953
 21
-14.2447099685669
 31
0.0
  0
LINE
  5
   23C
  8
0
  6
CONTINUOUS
 62
   130
 10
-412.387199935915
 20
-61.744694709776
 30
0.0
 11
-311.387275161743
 21
-61.744694709776
 31
0.0
  0
LINE
  5
   23D
  8
0
  6
CONTINUOUS
 62
   130
 10
-310.387256546027
 20
61.2552898788483
 30
0.0
 11
-310.387260360652
 21
36.2557525634766
 31
0.0
  0
LINE
  5
   23E
  8
0
  6
CONTINUOUS
 62
   130
 10
-342.887222609101
 20
2.39132399022147
 30
0.0
 11
-341.887222609101
 21
2.39132399022147
 31
0.0
  0
LINE
  5
   23F
  8
0
  6
CONTINUOUS
 62
   130
 10
-341.887222537995
 20
4.25532054900618
 30
0.0
 11
-341.887223564601
 21
-22.6565302456229
 31
0.0
  0
LINE
  5
   240
  8
0
  6
CONTINUOUS
 62
   130
 10
-342.887223564601
 20
-22.6565302456229
 30
0.0
 11
-341.887223564601
 21
-22.6565302456229
 31
0.0
  0
LINE
  5
   241
  8
0
  6
CONTINUOUS
 62
   130
 10
-342.88722355025
 20
-22.2803267604291
 30
0.0
 11
-341.88722355025
 21
-22.2803267604291
 31
0.0
  0
LINE
  5
   242
  8
0
  6
CONTINUOUS
 62
   130
 10
-388.387265243531
 20
4.25532054900619
 30
0.0
 11
-310.38726524353
 21
4.25532054900619
 31
0.0
  0
LINE
  5
   243
  8
0
  6
CONTINUOUS
 62
   130
 10
-341.887222595216
 20
2.75532054900619
 30
0.0
 11
-310.387265472412
 21
2.75532054900619
 31
0.0
  0
LINE
  5
   244
  8
0
  6
CONTINUOUS
 62
   130
 10
-342.887223366535
 20
-17.4643351954221
 30
0.0
 11
-342.887223687466
 21
-25.8773463916933
 31
0.0
  0
LINE
  5
   245
  8
0
  6
CONTINUOUS
 62
   130
 10
-291.474395751953
 20
-14.2447099685669
 30
0.0
 11
-291.474395751953
 21
-14.2447099685669
 31
0.0
  0
LINE
  5
   246
  8
0
  6
CONTINUOUS
 62
   130
 10
-291.474395751953
 20
-14.2447099685669
 30
0.0
 11
-291.474395751953
 21
-14.2447099685669
 31
0.0
  0
LINE
  5
   247
  8
0
  6
CONTINUOUS
 62
   130
 10
-291.474395751953
 20
-14.2447099685669
 30
0.0
 11
-291.474395751953
 21
-14.2447099685669
 31
0.0
  0
LINE
  5
   248
  8
0
  6
CONTINUOUS
 62
   130
 10
-291.474395751953
 20
-14.2447099685669
 30
0.0
 11
-291.474395751953
 21
-14.2447099685669
 31
0.0
  0
LINE
  5
   249
  8
0
  6
CONTINUOUS
 62
   130
 10
-291.474395751953
 20
-14.2447099685669
 30
0.0
 11
-291.474395751953
 21
-14.2447099685669
 31
0.0
  0
LINE
  5
   24A
  8
0
  6
CONTINUOUS
 62
   130
 10
-291.474395751953
 20
-14.2447099685669
 30
0.0
 11
-291.474395751953
 21
-14.2447099685669
 31
0.0
  0
LINE
  5
   24B
  8
0
  6
CONTINUOUS
 62
   130
 10
-291.474395751953
 20
-14.2447099685669
 30
0.0
 11
-291.474395751953
 21
-14.2447099685669
 31
0.0
  0
LINE
  5
   24C
  8
0
  6
CONTINUOUS
 62
   130
 10
-311.387228622444
 20
-43.7446912165033
 30
0.0
 11
-311.387228393563
 21
-45.2446912165033
 31
0.0
  0
LINE
  5
   24D
  8
0
  6
CONTINUOUS
 62
   130
 10
-311.387228393563
 20
45.7552782659186
 30
0.0
 11
-311.387228622444
 21
44.2552782659186
 31
0.0
  0
LINE
  5
   24E
  8
0
  6
CONTINUOUS
 62
   130
 10
-349.387207753009
 20
45.7552782659186
 30
0.0
 11
-311.387228393563
 21
45.7552782659186
 31
0.0
  0
LINE
  5
   24F
  8
0
  6
CONTINUOUS
 62
   130
 10
-349.38723754883
 20
44.2552782659186
 30
0.0
 11
-310.387259140022
 21
44.2552782659186
 31
0.0
  0
LINE
  5
   250
  8
0
  6
DASHDOT
 62
   130
 10
-349.387207753009
 20
65.0275641159907
 30
0.0
 11
-349.387207753009
 21
-39.6073514640475
 31
0.0
  0
LINE
  5
   251
  8
0
  6
DASHDOT
 62
   130
 10
-397.927577770856
 20
-11.7446794509938
 30
0.0
 11
-298.389887479614
 21
-11.7446794509938
 31
0.0
  0
LINE
  5
   252
  8
0
  6
CONTINUOUS
 62
   130
 10
-355.887251731123
 20
-17.4643351954221
 30
0.0
 11
-342.887223366535
 21
-17.4643351954221
 31
0.0
  0
LINE
  5
   253
  8
0
  6
CONTINUOUS
 62
   130
 10
-355.387251502402
 20
-22.9601313521887
 30
0.0
 11
-343.387223595256
 21
-22.9601313521887
 31
0.0
  0
LINE
  5
   254
  8
0
  6
CONTINUOUS
 62
   130
 10
-355.387251410192
 20
-26.3773463726198
 30
0.0
 11
-343.387223687466
 21
-26.3773463726198
 31
0.0
  0
LINE
  5
   255
  8
0
  6
CONTINUOUS
 62
   130
 10
-342.887223701478
 20
-26.2446794509819
 30
0.0
 11
-310.38726989746
 21
-26.2446794509819
 31
0.0
  0
ARC
  5
   256
  8
0
  6
CONTINUOUS
 62
   130
 10
-355.387251410192
 20
-25.8773463726198
 30
0.0
 40
0.5
 50
540.000002029765
 51
629.999999844103
  0
ARC
  5
   257
  8
0
  6
CONTINUOUS
 62
   130
 10
-343.387223687466
 20
-25.8773463726198
 30
0.0
 40
0.5
 50
269.999999844103
 51
359.999997658442
  0
ARC
  5
   258
  8
0
  6
CONTINUOUS
 62
   130
 10
-343.387223595256
 20
-23.4601313521887
 30
0.0
 40
0.5
 50
359.999997658442
 51
449.999999844103
  0
ARC
  5
   259
  8
0
  6
CONTINUOUS
 62
   130
 10
-355.387251502402
 20
-23.4601313521887
 30
0.0
 40
0.5
 50
449.999999844103
 51
540.000002029765
  0
LINE
  5
   25A
  8
0
  6
CONTINUOUS
 62
   130
 10
-349.387240600585
 20
-34.2446794509819
 30
0.0
 11
-310.387271118162
 21
-34.2446794509819
 31
0.0
  0
LINE
  5
   25B
  8
0
  6
CONTINUOUS
 62
   130
 10
-349.387233734131
 20
10.7553205490062
 30
0.0
 11
-310.387264251709
 21
10.7553205490062
 31
0.0
  0
LINE
  5
   25C
  8
0
  6
DASHDOT
 62
   130
 10
-422.171220446563
 20
-11.7446794509938
 30
0.0
 11
-296.389887479614
 21
-11.7446794509938
 31
0.0
  0
LINE
  5
   25D
  8
0
  6
CONTINUOUS
 62
   130
 10
-363.155944824219
 20
0.611467390184014
 30
0.0
 11
-362.405944824219
 21
0.611467390184014
 31
0.0
  0
LINE
  5
   25E
  8
0
  6
CONTINUOUS
 62
   130
 10
-363.155944824219
 20
-3.88853260981599
 30
0.0
 11
-362.405944824219
 21
-3.88853260981599
 31
0.0
  0
CIRCLE
  5
   25F
  8
0
  6
CONTINUOUS
 62
   130
 10
-362.780944824219
 20
-18.388532609816
 30
0.0
 40
2.25
  0
CIRCLE
  5
   260
  8
0
  6
CONTINUOUS
 62
   130
 10
-362.780944824219
 20
-18.388532609816
 30
0.0
 40
1.5
  0
LINE
  5
   261
  8
0
  6
CONTINUOUS
 62
   130
 10
-363.155944824219
 20
0.611467390184014
 30
0.0
 11
-363.155944824219
 21
-3.88853260981599
 31
0.0
  0
LINE
  5
   262
  8
0
  6
CONTINUOUS
 62
   130
 10
-362.405944824219
 20
0.611467390184014
 30
0.0
 11
-362.405944824219
 21
-3.88853260981599
 31
0.0
  0
LINE
  5
   263
  8
0
  6
CONTINUOUS
 62
   130
 10
-334.605949707031
 20
-16.463532609816
 30
0.0
 11
-334.380949707031
 21
-16.463532609816
 31
0.0
  0
LINE
  5
   264
  8
0
  6
CONTINUOUS
 62
   130
 10
-335.255949707031
 20
-20.313532609816
 30
0.0
 11
-334.855949707031
 21
-20.313532609816
 31
0.0
  0
LINE
  5
   265
  8
0
  6
CONTINUOUS
 62
   130
 10
-335.855949707031
 20
-18.763532609816
 30
0.0
 11
-335.855949707031
 21
-19.0135326098159
 31
0.0
  0
ARC
  5
   266
  8
0
  6
CONTINUOUS
 62
   130
 10
-337.155949707031
 20
-18.763532609816
 30
0.0
 40
1.3
 50
359.999999844103
 51
539.999999844103
  0
ARC
  5
   267
  8
0
  6
CONTINUOUS
 62
   130
 10
-337.155949707031
 20
-19.013532609816
 30
0.0
 40
1.3
 50
539.999999844103
 51
719.999999844103
  0
ARC
  5
   268
  8
0
  6
CONTINUOUS
 62
   130
 10
-337.155949707031
 20
-18.763532609816
 30
0.0
 40
0.900000000000001
 50
359.999999844103
 51
539.999999844103
  0
ARC
  5
   269
  8
0
  6
CONTINUOUS
 62
   130
 10
-337.155949707031
 20
-19.013532609816
 30
0.0
 40
0.899999999999999
 50
539.999999844103
 51
719.999999844103
  0
LINE
  5
   26A
  8
0
  6
CONTINUOUS
 62
   130
 10
-336.255949707031
 20
-18.763532609816
 30
0.0
 11
-336.255949707031
 21
-19.0135326098159
 31
0.0
  0
LINE
  5
   26B
  8
0
  6
CONTINUOUS
 62
   130
 10
-335.730949707031
 20
-17.663532609816
 30
0.0
 11
-335.730949707031
 21
-18.0635326098159
 31
0.0
  0
LINE
  5
   26C
  8
0
  6
CONTINUOUS
 62
   130
 10
-335.730949707031
 20
-18.063532609816
 30
0.0
 11
-335.255949707031
 21
-18.063532609816
 31
0.0
  0
LINE
  5
   26D
  8
0
  6
CONTINUOUS
 62
   130
 10
-334.380949707031
 20
-17.663532609816
 30
0.0
 11
-334.380949707031
 21
-18.0635326098159
 31
0.0
  0
LINE
  5
   26E
  8
0
  6
CONTINUOUS
 62
   130
 10
-335.730949707031
 20
-17.663532609816
 30
0.0
 11
-335.255949707031
 21
-17.663532609816
 31
0.0
  0
LINE
  5
   26F
  8
0
  6
CONTINUOUS
 62
   130
 10
-335.255949707031
 20
-18.0635326098159
 30
0.0
 11
-335.255949707031
 21
-20.3135326098159
 31
0.0
  0
LINE
  5
   270
  8
0
  6
CONTINUOUS
 62
   130
 10
-334.855949707031
 20
-18.063532609816
 30
0.0
 11
-334.855949707031
 21
-20.313532609816
 31
0.0
  0
LINE
  5
   271
  8
0
  6
CONTINUOUS
 62
   130
 10
-334.855949707031
 20
-18.063532609816
 30
0.0
 11
-334.380949707031
 21
-18.063532609816
 31
0.0
  0
LINE
  5
   272
  8
0
  6
CONTINUOUS
 62
   130
 10
-334.855949707031
 20
-17.663532609816
 30
0.0
 11
-334.380949707031
 21
-17.663532609816
 31
0.0
  0
LINE
  5
   273
  8
0
  6
CONTINUOUS
 62
   130
 10
-335.255949707031
 20
-17.1135326098159
 30
0.0
 11
-335.255949707031
 21
-17.663532609816
 31
0.0
  0
LINE
  5
   274
  8
0
  6
CONTINUOUS
 62
   130
 10
-334.855949707031
 20
-17.1135326098159
 30
0.0
 11
-334.855949707031
 21
-17.663532609816
 31
0.0
  0
ARC
  5
   275
  8
0
  6
CONTINUOUS
 62
   130
 10
-334.605949707031
 20
-17.113532609816
 30
0.0
 40
0.65
 50
449.999999844103
 51
539.999999844103
  0
ARC
  5
   276
  8
0
  6
CONTINUOUS
 62
   130
 10
-334.605949707031
 20
-17.113532609816
 30
0.0
 40
0.25
 50
449.999999844103
 51
539.999999844103
  0
LINE
  5
   277
  8
0
  6
CONTINUOUS
 62
   130
 10
-334.380949707031
 20
-16.4635326098159
 30
0.0
 11
-334.380949707031
 21
-16.8635326098159
 31
0.0
  0
LINE
  5
   278
  8
0
  6
CONTINUOUS
 62
   130
 10
-334.605949707031
 20
-16.863532609816
 30
0.0
 11
-334.380949707031
 21
-16.863532609816
 31
0.0
  0
LINE
  5
   279
  8
0
  6
CONTINUOUS
 62
   130
 10
-333.655949707031
 20
-20.313532609816
 30
0.0
 11
-333.255949707031
 21
-20.313532609816
 31
0.0
  0
LINE
  5
   27A
  8
0
  6
CONTINUOUS
 62
   130
 10
-334.130949707031
 20
-17.663532609816
 30
0.0
 11
-334.130949707031
 21
-18.063532609816
 31
0.0
  0
LINE
  5
   27B
  8
0
  6
CONTINUOUS
 62
   130
 10
-334.130949707031
 20
-18.063532609816
 30
0.0
 11
-333.655949707031
 21
-18.063532609816
 31
0.0
  0
LINE
  5
   27C
  8
0
  6
CONTINUOUS
 62
   130
 10
-332.780949707031
 20
-17.663532609816
 30
0.0
 11
-332.780949707031
 21
-18.063532609816
 31
0.0
  0
LINE
  5
   27D
  8
0
  6
CONTINUOUS
 62
   130
 10
-334.130949707031
 20
-17.663532609816
 30
0.0
 11
-333.655949707031
 21
-17.663532609816
 31
0.0
  0
LINE
  5
   27E
  8
0
  6
CONTINUOUS
 62
   130
 10
-333.655949707031
 20
-18.0635326098159
 30
0.0
 11
-333.655949707031
 21
-20.3135326098159
 31
0.0
  0
LINE
  5
   27F
  8
0
  6
CONTINUOUS
 62
   130
 10
-333.255949707031
 20
-18.0635326098159
 30
0.0
 11
-333.255949707031
 21
-20.3135326098159
 31
0.0
  0
LINE
  5
   280
  8
0
  6
CONTINUOUS
 62
   130
 10
-333.255949707031
 20
-18.063532609816
 30
0.0
 11
-332.780949707031
 21
-18.063532609816
 31
0.0
  0
LINE
  5
   281
  8
0
  6
CONTINUOUS
 62
   130
 10
-333.255949707031
 20
-17.663532609816
 30
0.0
 11
-332.780949707031
 21
-17.663532609816
 31
0.0
  0
LINE
  5
   282
  8
0
  6
CONTINUOUS
 62
   130
 10
-333.655949707031
 20
-17.1135326098159
 30
0.0
 11
-333.655949707031
 21
-17.663532609816
 31
0.0
  0
LINE
  5
   283
  8
0
  6
CONTINUOUS
 62
   130
 10
-333.255949707031
 20
-17.1135326098159
 30
0.0
 11
-333.255949707031
 21
-17.663532609816
 31
0.0
  0
ARC
  5
   284
  8
0
  6
CONTINUOUS
 62
   130
 10
-333.005949707031
 20
-17.113532609816
 30
0.0
 40
0.65
 50
449.999999844103
 51
539.999999844103
  0
ARC
  5
   285
  8
0
  6
CONTINUOUS
 62
   130
 10
-333.005949707031
 20
-17.113532609816
 30
0.0
 40
0.25
 50
449.999999844103
 51
539.999999844103
  0
LINE
  5
   286
  8
0
  6
CONTINUOUS
 62
   130
 10
-332.780949707031
 20
-16.4635326098159
 30
0.0
 11
-332.780949707031
 21
-16.863532609816
 31
0.0
  0
LINE
  5
   287
  8
0
  6
CONTINUOUS
 62
   130
 10
-335.455949707031
 20
-3.06353260981598
 30
0.0
 11
-335.055949707031
 21
-3.06353260981598
 31
0.0
  0
ARC
  5
   288
  8
0
  6
CONTINUOUS
 62
   130
 10
-337.155949707031
 20
-1.51353260981599
 30
0.0
 40
1.3
 50
359.999999844103
 51
539.999999844103
  0
ARC
  5
   289
  8
0
  6
CONTINUOUS
 62
   130
 10
-337.155949707031
 20
-1.51353260981599
 30
0.0
 40
0.900000000000001
 50
359.999999844103
 51
539.999999844103
  0
ARC
  5
   28A
  8
0
  6
CONTINUOUS
 62
   130
 10
-337.155949707031
 20
-1.76353260981599
 30
0.0
 40
1.3
 50
539.999999844103
 51
719.999999844103
  0
ARC
  5
   28B
  8
0
  6
CONTINUOUS
 62
   130
 10
-337.155949707031
 20
-1.76353260981599
 30
0.0
 40
0.899999999999999
 50
539.999999844103
 51
719.999999844103
  0
LINE
  5
   28C
  8
0
  6
CONTINUOUS
 62
   130
 10
-335.455949707031
 20
-0.213532609815962
 30
0.0
 11
-335.455949707031
 21
-3.06353260981596
 31
0.0
  0
LINE
  5
   28D
  8
0
  6
CONTINUOUS
 62
   130
 10
-335.055949707031
 20
-1.31353260981596
 30
0.0
 11
-335.055949707031
 21
-3.06353260981596
 31
0.0
  0
LINE
  5
   28E
  8
0
  6
CONTINUOUS
 62
   130
 10
-333.655949707031
 20
-1.31353260981596
 30
0.0
 11
-333.655949707031
 21
-3.06353260981596
 31
0.0
  0
LINE
  5
   28F
  8
0
  6
CONTINUOUS
 62
   130
 10
-333.255949707031
 20
-1.21353260981596
 30
0.0
 11
-333.255949707031
 21
-3.06353260981596
 31
0.0
  0
LINE
  5
   290
  8
0
  6
CONTINUOUS
 62
   130
 10
-335.455949707031
 20
-0.213532609815985
 30
0.0
 11
-335.055949707031
 21
-0.213532609815985
 31
0.0
  0
ARC
  5
   291
  8
0
  6
CONTINUOUS
 62
   130
 10
-334.355949707031
 20
-1.31353260981599
 30
0.0
 40
0.699999999999999
 50
359.999999844103
 51
539.999999844103
  0
LINE
  5
   292
  8
0
  6
CONTINUOUS
 62
   130
 10
-335.055949707031
 20
-0.213532609815962
 30
0.0
 11
-335.055949707031
 21
-0.613532609815953
 31
0.0
  0
ARC
  5
   293
  8
0
  6
CONTINUOUS
 62
   130
 10
-334.255949707031
 20
-1.21353260981599
 30
0.0
 40
1.0
 50
359.999999844103
 51
503.130102198259
  0
LINE
  5
   294
  8
0
  6
CONTINUOUS
 62
   130
 10
-333.655949707031
 20
-3.06353260981598
 30
0.0
 11
-333.255949707031
 21
-3.06353260981598
 31
0.0
  0
LINE
  5
   295
  8
0
  6
CONTINUOUS
 62
   130
 10
-334.987624912933
 20
9.41442982189914
 30
0.0
 11
-335.22165660698
 21
9.37316433859296
 31
0.0
  0
LINE
  5
   296
  8
0
  6
CONTINUOUS
 62
   130
 10
-335.22164215209
 20
9.37317219419089
 30
0.0
 11
-335.427445052405
 21
9.25435345101786
 31
0.0
  0
LINE
  5
   297
  8
0
  6
CONTINUOUS
 62
   130
 10
-335.427453518109
 20
9.25434477507654
 30
0.0
 11
-335.580201643102
 21
9.07230406387457
 31
0.0
  0
LINE
  5
   298
  8
0
  6
CONTINUOUS
 62
   130
 10
-335.580198792328
 20
9.07230517833565
 30
0.0
 11
-335.661474727812
 21
8.84899900409358
 31
0.0
  0
LINE
  5
   299
  8
0
  6
CONTINUOUS
 62
   130
 10
-335.661481993889
 20
8.84899941035869
 30
0.0
 11
-335.661481993889
 21
8.61136189052226
 31
0.0
  0
LINE
  5
   29A
  8
0
  6
CONTINUOUS
 62
   130
 10
-335.661475390091
 20
8.61136431184251
 30
0.0
 11
-335.580199454607
 21
8.38805813760042
 31
0.0
  0
LINE
  5
   29B
  8
0
  6
CONTINUOUS
 62
   130
 10
-335.580203014524
 20
8.38805718444703
 30
0.0
 11
-335.427454889531
 21
8.20601647324504
 31
0.0
  0
LINE
  5
   29C
  8
0
  6
CONTINUOUS
 62
   130
 10
-335.427441716932
 20
8.20601187285803
 30
0.0
 11
-335.221638816616
 21
8.08719312968499
 31
0.0
  0
LINE
  5
   29D
  8
0
  6
CONTINUOUS
 62
   130
 10
-335.221654980312
 20
8.08719605729956
 30
0.0
 11
-334.987623286265
 21
8.04593057399337
 31
0.0
  0
LINE
  5
   29E
  8
0
  6
CONTINUOUS
 62
   130
 10
-334.987623351311
 20
8.04593077251079
 30
0.0
 11
-334.758199828362
 21
8.04593077251079
 31
0.0
  0
LINE
  5
   29F
  8
0
  6
CONTINUOUS
 62
   130
 10
-334.758187621516
 20
8.04593563883722
 30
0.0
 11
-334.67065559303
 21
8.01749326122458
 31
0.0
  0
LINE
  5
   2A0
  8
0
  6
CONTINUOUS
 62
   130
 10
-334.670656558274
 20
8.01749303187745
 30
0.0
 11
-334.616556530884
 21
7.94303062753382
 31
0.0
  0
LINE
  5
   2A1
  8
0
  6
CONTINUOUS
 62
   130
 10
-334.616567748284
 20
7.94302597591044
 30
0.0
 11
-334.616567748284
 21
7.8509854371226
 31
0.0
  0
LINE
  5
   2A2
  8
0
  6
CONTINUOUS
 62
   130
 10
-334.616560529446
 20
7.85098871854154
 30
0.0
 11
-334.670660556836
 21
7.77652631419792
 31
0.0
  0
LINE
  5
   2A3
  8
0
  6
CONTINUOUS
 62
   130
 10
-334.670658055534
 20
7.77652631630098
 30
0.0
 11
-334.75819008402
 21
7.74808393868833
 31
0.0
  0
LINE
  5
   2A4
  8
0
  6
CONTINUOUS
 62
   130
 10
-335.591375487541
 20
7.74808064052226
 30
0.0
 11
-334.758199828362
 21
7.74808064052226
 31
0.0
  0
LINE
  5
   2A5
  8
0
  6
CONTINUOUS
 62
   130
 10
-335.591375487541
 20
7.74808064052226
 30
0.0
 11
-335.591375487541
 21
7.20068111964824
 31
0.0
  0
LINE
  5
   2A6
  8
0
  6
CONTINUOUS
 62
   130
 10
-335.591375487541
 20
7.20068111964824
 30
0.0
 11
-334.758199828362
 21
7.20068111964824
 31
0.0
  0
LINE
  5
   2A7
  8
0
  6
CONTINUOUS
 62
   130
 10
-334.520043055127
 20
7.2426754811133
 30
0.0
 11
-334.758194591865
 21
7.20068234412809
 31
0.0
  0
LINE
  5
   2A8
  8
0
  6
CONTINUOUS
 62
   130
 10
-334.310610597285
 20
7.36359242201708
 30
0.0
 11
-334.520045136197
 21
7.24267651353502
 31
0.0
  0
LINE
  5
   2A9
  8
0
  6
CONTINUOUS
 62
   130
 10
-334.155153110617
 20
7.54884690768102
 30
0.0
 11
-334.310602023404
 21
7.36359377685979
 31
0.0
  0
LINE
  5
   2AA
  8
0
  6
CONTINUOUS
 62
   130
 10
-334.072450416661
 20
7.77608758930043
 30
0.0
 11
-334.155160686027
 21
7.54884079636371
 31
0.0
  0
LINE
  5
   2AB
  8
0
  6
CONTINUOUS
 62
   130
 10
-334.072454589104
 20
8.01792135783793
 30
0.0
 11
-334.072454589104
 21
7.77609005519511
 31
0.0
  0
LINE
  5
   2AC
  8
0
  6
CONTINUOUS
 62
   130
 10
-334.155160875814
 20
8.24516956241109
 30
0.0
 11
-334.072450606447
 21
8.01792276947437
 31
0.0
  0
LINE
  5
   2AD
  8
0
  6
CONTINUOUS
 62
   130
 10
-334.310607154889
 20
8.43042762542941
 30
0.0
 11
-334.155158231677
 21
8.24517399112077
 31
0.0
  0
LINE
  5
   2AE
  8
0
  6
CONTINUOUS
 62
   130
 10
-334.520049478239
 20
8.55133811647903
 30
0.0
 11
-334.31061494869
 21
8.43042269027139
 31
0.0
  0
LINE
  5
   2AF
  8
0
  6
CONTINUOUS
 62
   130
 10
-334.758187544514
 20
8.59332936572643
 30
0.0
 11
-334.520036011208
 21
8.55133575285096
 31
0.0
  0
LINE
  5
   2B0
  8
0
  6
CONTINUOUS
 62
   130
 10
-334.987623351311
 20
8.59333077022197
 30
0.0
 11
-334.758199828362
 21
8.59333077022197
 31
0.0
  0
LINE
  5
   2B1
  8
0
  6
CONTINUOUS
 62
   130
 10
-335.068059255276
 20
8.61946905196188
 30
0.0
 11
-334.987614920503
 21
8.59333313153031
 31
0.0
  0
LINE
  5
   2B2
  8
0
  6
CONTINUOUS
 62
   130
 10
-335.117777882406
 20
8.68789048630251
 30
0.0
 11
-335.068064747614
 21
8.61946530534091
 31
0.0
  0
LINE
  5
   2B3
  8
0
  6
CONTINUOUS
 62
   130
 10
-335.117780822014
 20
8.77246943065288
 30
0.0
 11
-335.117780822014
 21
8.68789187022807
 31
0.0
  0
LINE
  5
   2B4
  8
0
  6
CONTINUOUS
 62
   130
 10
-335.068057363678
 20
8.84089230315924
 30
0.0
 11
-335.11777049847
 21
8.77246712219764
 31
0.0
  0
LINE
  5
   2B5
  8
0
  6
CONTINUOUS
 62
   130
 10
-334.98761181521
 20
8.86703426974873
 30
0.0
 11
-335.068056149983
 21
8.84089834931715
 31
0.0
  0
LINE
  5
   2B6
  8
0
  6
CONTINUOUS
 62
   130
 10
-334.987623351311
 20
8.86703053065898
 30
0.0
 11
-334.142377989983
 21
8.86703053065898
 31
0.0
  0
LINE
  5
   2B7
  8
0
  6
CONTINUOUS
 62
   130
 10
-334.142377989983
 20
9.41443052837016
 30
0.0
 11
-334.142377989983
 21
8.86703053065898
 31
0.0
  0
LINE
  5
   2B8
  8
0
  6
CONTINUOUS
 62
   130
 10
-334.987623351311
 20
9.41443052837016
 30
0.0
 11
-334.142377989983
 21
9.41443052837016
 31
0.0
  0
LINE
  5
   2B9
  8
0
  6
CONTINUOUS
 62
   130
 10
-334.061880248284
 20
7.20068111964824
 30
0.0
 11
-333.491781371331
 21
7.20068111964824
 31
0.0
  0
LINE
  5
   2BA
  8
0
  6
CONTINUOUS
 62
   130
 10
-333.362975991443
 20
7.64343219947548
 30
0.0
 11
-333.491775425992
 21
7.20068270374427
 31
0.0
  0
LINE
  5
   2BB
  8
0
  6
CONTINUOUS
 62
   130
 10
-333.362981932854
 20
7.6434306199229
 30
0.0
 11
-332.748266356682
 21
7.6434306199229
 31
0.0
  0
LINE
  5
   2BC
  8
0
  6
CONTINUOUS
 62
   130
 10
-332.748261642297
 20
7.64343180030764
 30
0.0
 11
-332.619462207748
 21
7.2006823045764
 31
0.0
  0
LINE
  5
   2BD
  8
0
  6
CONTINUOUS
 62
   130
 10
-332.619466918205
 20
7.20068111964824
 30
0.0
 11
-332.049375670647
 21
7.20068111964824
 31
0.0
  0
LINE
  5
   2BE
  8
0
  6
CONTINUOUS
 62
   130
 10
-332.693375054588
 20
9.414430866696
 30
0.0
 11
-332.049370063869
 21
7.20068089715751
 31
0.0
  0
LINE
  5
   2BF
  8
0
  6
CONTINUOUS
 62
   130
 10
-333.417875426506
 20
9.41443052837016
 30
0.0
 11
-332.693380492424
 21
9.41443052837016
 31
0.0
  0
LINE
  5
   2C0
  8
0
  6
CONTINUOUS
 62
   130
 10
-333.417872359859
 20
9.41442209536306
 30
0.0
 11
-334.061877350579
 21
7.20067212582459
 31
0.0
  0
LINE
  5
   2C1
  8
0
  6
CONTINUOUS
 62
   130
 10
-333.055619762821
 20
8.69997285529201
 30
0.0
 11
-332.907510251336
 21
8.1908306840085
 31
0.0
  0
LINE
  5
   2C2
  8
0
  6
CONTINUOUS
 62
   130
 10
-333.203741210198
 20
8.19083061763408
 30
0.0
 11
-332.907514708733
 21
8.19083061763408
 31
0.0
  0
LINE
  5
   2C3
  8
0
  6
CONTINUOUS
 62
   130
 10
-333.055615222106
 20
8.69997335376374
 30
0.0
 11
-333.203732276422
 21
8.19083146264026
 31
0.0
  0
LINE
  5
   2C4
  8
0
  6
CONTINUOUS
 62
   130
 10
-330.182005284408
 20
9.11181475880024
 30
0.0
 11
-329.986219768844
 21
8.86498142577791
 31
0.0
  0
LINE
  5
   2C5
  8
0
  6
CONTINUOUS
 62
   130
 10
-330.43938744068
 20
9.29348824749498
 30
0.0
 11
-330.18200220265
 21
9.11181044310471
 31
0.0
  0
LINE
  5
   2C6
  8
0
  6
CONTINUOUS
 62
   130
 10
-330.737540228136
 20
9.39528754360883
 30
0.0
 11
-330.439391121799
 21
9.29348425120005
 31
0.0
  0
LINE
  5
   2C7
  8
0
  6
CONTINUOUS
 62
   130
 10
-331.052290254088
 20
9.40897081956177
 30
0.0
 11
-330.737539574302
 21
9.39528893058922
 31
0.0
  0
LINE
  5
   2C8
  8
0
  6
CONTINUOUS
 62
   130
 10
-331.052295844579
 20
9.40897139410576
 30
0.0
 11
-331.358158271093
 21
9.33342322616089
 31
0.0
  0
LINE
  5
   2C9
  8
0
  6
CONTINUOUS
 62
   130
 10
-331.358153473581
 20
9.33342676380544
 30
0.0
 11
-331.630332107455
 21
9.17476873830831
 31
0.0
  0
LINE
  5
   2CA
  8
0
  6
CONTINUOUS
 62
   130
 10
-331.630336353207
 20
9.17476392448097
 30
0.0
 11
-331.846797532559
 21
8.94584966577815
 31
0.0
  0
LINE
  5
   2CB
  8
0
  6
CONTINUOUS
 62
   130
 10
-331.846792273245
 20
8.94585416126004
 30
0.0
 11
-331.989988362835
 21
8.66522929924239
 31
0.0
  0
LINE
  5
   2CC
  8
0
  6
CONTINUOUS
 62
   130
 10
-331.989990856173
 20
8.66522465961236
 30
0.0
 11
-332.048325206739
 21
8.35562334469112
 31
0.0
  0
LINE
  5
   2CD
  8
0
  6
CONTINUOUS
 62
   130
 10
-332.048324584895
 20
8.35562523265272
 30
0.0
 11
-332.017074599848
 21
8.04212960104412
 31
0.0
  0
LINE
  5
   2CE
  8
0
  6
CONTINUOUS
 62
   130
 10
-332.01707702801
 20
8.04213033687165
 30
0.0
 11
-331.898768021547
 21
7.7501381644755
 31
0.0
  0
LINE
  5
   2CF
  8
0
  6
CONTINUOUS
 62
   130
 10
-331.89876743853
 20
7.75014070674909
 30
0.0
 11
-331.722734412985
 21
7.52244380175803
 31
0.0
  0
LINE
  5
   2D0
  8
0
  6
CONTINUOUS
 62
   130
 10
-331.722731393374
 20
7.52243858305385
 30
0.0
 11
-331.493941111843
 21
7.3478241480874
 31
0.0
  0
LINE
  5
   2D1
  8
0
  6
CONTINUOUS
 62
   130
 10
-331.493945778418
 20
7.34782667646962
 30
0.0
 11
-331.22787064904
 21
7.23810072646112
 31
0.0
  0
LINE
  5
   2D2
  8
0
  6
CONTINUOUS
 62
   130
 10
-331.227867807042
 20
7.23809939585402
 30
0.0
 11
-330.942497939869
 21
7.20068103193449
 31
0.0
  0
LINE
  5
   2D3
  8
0
  6
CONTINUOUS
 62
   130
 10
-330.657123959646
 20
7.23810046521713
 30
0.0
 11
-330.942493826819
 21
7.20068210129759
 31
0.0
  0
LINE
  5
   2D4
  8
0
  6
CONTINUOUS
 62
   130
 10
-330.391057906338
 20
7.34782551024147
 30
0.0
 11
-330.657133035717
 21
7.23809956023297
 31
0.0
  0
LINE
  5
   2D5
  8
0
  6
CONTINUOUS
 62
   130
 10
-330.16225995618
 20
7.52244570940353
 30
0.0
 11
-330.391050237711
 21
7.34783127443708
 31
0.0
  0
LINE
  5
   2D6
  8
0
  6
CONTINUOUS
 62
   130
 10
-329.986221196548
 20
7.75013741768396
 30
0.0
 11
-330.162261844082
 21
7.52244052796444
 31
0.0
  0
LINE
  5
   2D7
  8
0
  6
CONTINUOUS
 62
   130
 10
-330.459142884392
 20
8.02580815490192
 30
0.0
 11
-329.986219657435
 21
7.75013909476628
 31
0.0
  0
LINE
  5
   2D8
  8
0
  6
CONTINUOUS
 62
   130
 10
-330.459151402291
 20
8.02580270324225
 30
0.0
 11
-330.58406748718
 21
7.87797458899215
 31
0.0
  0
LINE
  5
   2D9
  8
0
  6
CONTINUOUS
 62
   130
 10
-330.584065136902
 20
7.87797862670337
 30
0.0
 11
-330.751881331537
 21
7.78155736702645
 31
0.0
  0
LINE
  5
   2DA
  8
0
  6
CONTINUOUS
 62
   130
 10
-330.751876743237
 20
7.78155663627065
 30
0.0
 11
-330.942497189259
 21
7.74808076112337
 31
0.0
  0
LINE
  5
   2DB
  8
0
  6
CONTINUOUS
 62
   130
 10
-331.133127126698
 20
7.78155685045772
 30
0.0
 11
-330.942506680676
 21
7.74808097531044
 31
0.0
  0
LINE
  5
   2DC
  8
0
  6
CONTINUOUS
 62
   130
 10
-331.300939738507
 20
7.87797994354437
 30
0.0
 11
-331.133123543872
 21
7.78155868386744
 31
0.0
  0
LINE
  5
   2DD
  8
0
  6
CONTINUOUS
 62
   130
 10
-331.425855184989
 20
8.02580899733061
 30
0.0
 11
-331.3009391001
 21
7.8779808830805
 31
0.0
  0
LINE
  5
   2DE
  8
0
  6
CONTINUOUS
 62
   130
 10
-331.496878493779
 20
8.2322253357428
 30
0.0
 11
-331.425848830798
 21
8.02580776871372
 31
0.0
  0
LINE
  5
   2DF
  8
0
  6
CONTINUOUS
 62
   130
 10
-331.483501850368
 20
8.45010755428737
 30
0.0
 11
-331.496876180545
 21
8.23222108389606
 31
0.0
  0
LINE
  5
   2E0
  8
0
  6
CONTINUOUS
 62
   130
 10
-331.387768516801
 20
8.64629568276269
 30
0.0
 11
-331.483502164087
 21
8.4501119916256
 31
0.0
  0
LINE
  5
   2E1
  8
0
  6
CONTINUOUS
 62
   130
 10
-331.224247448117
 20
8.79091004499182
 30
0.0
 11
-331.387775903346
 21
8.64629580357354
 31
0.0
  0
LINE
  5
   2E2
  8
0
  6
CONTINUOUS
 62
   130
 10
-331.017832622117
 20
8.86193661739055
 30
0.0
 11
-331.224245891149
 21
8.79090886848848
 31
0.0
  0
LINE
  5
   2E3
  8
0
  6
CONTINUOUS
 62
   130
 10
-331.017836232778
 20
8.86193457491754
 30
0.0
 11
-330.799948287612
 21
8.84856358085952
 31
0.0
  0
LINE
  5
   2E4
  8
0
  6
CONTINUOUS
 62
   130
 10
-330.799942293226
 20
8.84856173320675
 30
0.0
 11
-330.60376001784
 21
8.75282664625783
 31
0.0
  0
LINE
  5
   2E5
  8
0
  6
CONTINUOUS
 62
   130
 10
-330.60375739209
 20
8.75283830205924
 30
0.0
 11
-330.459142207714
 21
8.58931462317232
 31
0.0
  0
LINE
  5
   2E6
  8
0
  6
CONTINUOUS
 62
   130
 10
-329.986216119436
 20
8.86498156063832
 30
0.0
 11
-330.459139346392
 21
8.58931250050267
 31
0.0
  0
LINE
  5
   2E7
  8
0
  6
CONTINUOUS
 62
   130
 10
-329.784979003166
 20
9.414430051533
 30
0.0
 11
-329.784979003166
 21
7.20068111964824
 31
0.0
  0
LINE
  5
   2E8
  8
0
  6
CONTINUOUS
 62
   130
 10
-329.784979003166
 20
7.20068111964824
 30
0.0
 11
-328.335981505608
 21
7.20068111964824
 31
0.0
  0
LINE
  5
   2E9
  8
0
  6
CONTINUOUS
 62
   130
 10
-328.335981505608
 20
7.74808064052226
 30
0.0
 11
-328.335981505608
 21
7.20068111964824
 31
0.0
  0
LINE
  5
   2EA
  8
0
  6
CONTINUOUS
 62
   130
 10
-329.237577574944
 20
7.74808064052226
 30
0.0
 11
-328.335981505608
 21
7.74808064052226
 31
0.0
  0
LINE
  5
   2EB
  8
0
  6
CONTINUOUS
 62
   130
 10
-329.237577574944
 20
8.03385582515361
 30
0.0
 11
-329.237577574944
 21
7.74808064052226
 31
0.0
  0
LINE
  5
   2EC
  8
0
  6
CONTINUOUS
 62
   130
 10
-329.237577574944
 20
8.03385582515361
 30
0.0
 11
-328.456731932854
 21
8.03385582515361
 31
0.0
  0
LINE
  5
   2ED
  8
0
  6
CONTINUOUS
 62
   130
 10
-328.456731932854
 20
8.58125582286479
 30
0.0
 11
-328.456731932854
 21
8.03385582515361
 31
0.0
  0
LINE
  5
   2EE
  8
0
  6
CONTINUOUS
 62
   130
 10
-329.237577574944
 20
8.58125582286479
 30
0.0
 11
-328.456731932854
 21
8.58125582286479
 31
0.0
  0
LINE
  5
   2EF
  8
0
  6
CONTINUOUS
 62
   130
 10
-329.237577574944
 20
8.86703050085666
 30
0.0
 11
-329.237577574944
 21
8.58125582286479
 31
0.0
  0
LINE
  5
   2F0
  8
0
  6
CONTINUOUS
 62
   130
 10
-329.237577574944
 20
8.86703053065898
 30
0.0
 11
-328.335981505608
 21
8.86703053065898
 31
0.0
  0
LINE
  5
   2F1
  8
0
  6
CONTINUOUS
 62
   130
 10
-328.335981505608
 20
9.41443052837016
 30
0.0
 11
-328.335981505608
 21
8.86703053065898
 31
0.0
  0
LINE
  5
   2F2
  8
0
  6
CONTINUOUS
 62
   130
 10
-329.784979003166
 20
9.41443052837016
 30
0.0
 11
-328.335981505608
 21
9.41443052837016
 31
0.0
  0
LINE
  5
   2F3
  8
0
  6
CONTINUOUS
 62
   130
 10
-384.758469875897
 20
9.61920661029177
 30
0.0
 11
-385.212327188615
 21
8.32245397686982
 31
0.0
  0
LINE
  5
   2F4
  8
0
  6
CONTINUOUS
 62
   130
 10
-385.212334909857
 20
8.32245780527592
 30
0.0
 11
-384.392724314154
 21
8.32245780527592
 31
0.0
  0
LINE
  5
   2F5
  8
0
  6
CONTINUOUS
 62
   130
 10
-384.758477487982
 20
9.61921073496342
 30
0.0
 11
-384.392724314154
 21
9.61921073496342
 31
0.0
  0
LINE
  5
   2F6
  8
0
  6
CONTINUOUS
 62
   130
 10
-385.689477243841
 20
6.95921422541142
 30
0.0
 11
-385.024476328314
 21
6.95921422541142
 31
0.0
  0
LINE
  5
   2F7
  8
0
  6
CONTINUOUS
 62
   130
 10
-384.838267718207
 20
7.49121233603104
 30
0.0
 11
-385.024470713867
 21
6.95921272309183
 31
0.0
  0
LINE
  5
   2F8
  8
0
  6
CONTINUOUS
 62
   130
 10
-384.838273325384
 20
7.49121381342411
 30
0.0
 11
-384.392724314154
 21
7.49121381342411
 31
0.0
  0
LINE
  5
   2F9
  8
0
  6
CONTINUOUS
 62
   130
 10
-385.235612192571
 20
8.25596000254154
 30
0.0
 11
-384.392724314154
 21
8.25596000254154
 31
0.0
  0
LINE
  5
   2FA
  8
0
  6
CONTINUOUS
 62
   130
 10
-385.23560688587
 20
8.25595730494829
 30
0.0
 11
-385.68947180151
 21
6.95921179746468
 31
0.0
  0
LINE
  5
   2FB
  8
0
  6
CONTINUOUS
 62
   130
 10
-383.483324416883
 20
8.25595712622653
 30
0.0
 11
-383.029459501242
 21
6.95921161874291
 31
0.0
  0
LINE
  5
   2FC
  8
0
  6
CONTINUOUS
 62
   130
 10
-384.326226511419
 20
8.25596000254154
 30
0.0
 11
-383.483338633001
 21
8.25596000254154
 31
0.0
  0
LINE
  5
   2FD
  8
0
  6
CONTINUOUS
 62
   130
 10
-384.326226511419
 20
8.25596000254154
 30
0.0
 11
-384.326226511419
 21
7.49121381342411
 31
0.0
  0
LINE
  5
   2FE
  8
0
  6
CONTINUOUS
 62
   130
 10
-384.326226511419
 20
7.49121381342411
 30
0.0
 11
-383.880677500189
 21
7.49121381342411
 31
0.0
  0
LINE
  5
   2FF
  8
0
  6
CONTINUOUS
 62
   130
 10
-383.880665917213
 20
7.49121465329208
 30
0.0
 11
-383.694462921553
 21
6.95921504035286
 31
0.0
  0
LINE
  5
   300
  8
0
  6
CONTINUOUS
 62
   130
 10
-383.694474497259
 20
6.95921422541142
 30
0.0
 11
-383.029473581732
 21
6.95921422541142
 31
0.0
  0
LINE
  5
   301
  8
0
  6
CONTINUOUS
 62
   130
 10
-384.326226511419
 20
9.61921073496342
 30
0.0
 11
-383.960473337591
 21
9.61921073496342
 31
0.0
  0
LINE
  5
   302
  8
0
  6
CONTINUOUS
 62
   130
 10
-384.326226511419
 20
9.61921073496342
 30
0.0
 11
-384.326226511419
 21
8.32245780527592
 31
0.0
  0
LINE
  5
   303
  8
0
  6
CONTINUOUS
 62
   130
 10
-384.326226511419
 20
8.32245780527592
 30
0.0
 11
-383.506608286322
 21
8.32245780527592
 31
0.0
  0
LINE
  5
   304
  8
0
  6
CONTINUOUS
 62
   130
 10
-383.960465700642
 20
9.61920810408945
 30
0.0
 11
-383.506600751111
 21
8.32245528181675
 31
0.0
  0
LINE
  5
   305
  8
0
  6
CONTINUOUS
 62
   130
 10
-382.863221445501
 20
8.32245780527592
 30
0.0
 11
-382.098473825872
 21
8.32245780527592
 31
0.0
  0
LINE
  5
   306
  8
0
  6
CONTINUOUS
 62
   130
 10
-382.098473825872
 20
9.61921073496342
 30
0.0
 11
-382.098473825872
 21
8.32245780527592
 31
0.0
  0
LINE
  5
   307
  8
0
  6
CONTINUOUS
 62
   130
 10
-382.863221445501
 20
9.61921073496342
 30
0.0
 11
-382.098473825872
 21
9.61921073496342
 31
0.0
  0
LINE
  5
   308
  8
0
  6
CONTINUOUS
 62
   130
 10
-382.863221445501
 20
6.95921422541142
 30
0.0
 11
-382.098473825872
 21
6.95921422541142
 31
0.0
  0
LINE
  5
   309
  8
0
  6
CONTINUOUS
 62
   130
 10
-382.098473825872
 20
8.25596000254154
 30
0.0
 11
-382.098473825872
 21
6.95921422541142
 31
0.0
  0
LINE
  5
   30A
  8
0
  6
CONTINUOUS
 62
   130
 10
-382.863221445501
 20
8.25596000254154
 30
0.0
 11
-382.098473825872
 21
8.25596000254154
 31
0.0
  0
LINE
  5
   30B
  8
0
  6
CONTINUOUS
 62
   130
 10
-380.801728525579
 20
9.61921073496342
 30
0.0
 11
-380.801728525579
 21
8.32245780527592
 31
0.0
  0
LINE
  5
   30C
  8
0
  6
CONTINUOUS
 62
   130
 10
-380.801728525579
 20
8.32245780527592
 30
0.0
 11
-380.036973276556
 21
8.32245780527592
 31
0.0
  0
LINE
  5
   30D
  8
0
  6
CONTINUOUS
 62
   130
 10
-380.036973276556
 20
9.61921073496342
 30
0.0
 11
-380.036973276556
 21
8.32245780527592
 31
0.0
  0
LINE
  5
   30E
  8
0
  6
CONTINUOUS
 62
   130
 10
-380.801728525579
 20
9.61921073496342
 30
0.0
 11
-380.036973276556
 21
9.61921073496342
 31
0.0
  0
LINE
  5
   30F
  8
0
  6
CONTINUOUS
 62
   130
 10
-380.801728525579
 20
6.95921422541142
 30
0.0
 11
-380.036973276556
 21
6.95921422541142
 31
0.0
  0
LINE
  5
   310
  8
0
  6
CONTINUOUS
 62
   130
 10
-380.036973276556
 20
8.25596000254154
 30
0.0
 11
-380.036973276556
 21
6.95921422541142
 31
0.0
  0
LINE
  5
   311
  8
0
  6
CONTINUOUS
 62
   130
 10
-380.801728525579
 20
8.25596000254154
 30
0.0
 11
-380.036973276556
 21
8.25596000254154
 31
0.0
  0
LINE
  5
   312
  8
0
  6
CONTINUOUS
 62
   130
 10
-380.801728525579
 20
8.25596000254154
 30
0.0
 11
-380.801728525579
 21
6.95921422541142
 31
0.0
  0
LINE
  5
   313
  8
0
  6
CONTINUOUS
 62
   130
 10
-379.970475473821
 20
9.61921073496342
 30
0.0
 11
-379.756737986028
 21
9.61921073496342
 31
0.0
  0
LINE
  5
   314
  8
0
  6
CONTINUOUS
 62
   130
 10
-379.970475473821
 20
9.61921073496342
 30
0.0
 11
-379.970475473821
 21
8.32245780527592
 31
0.0
  0
LINE
  5
   315
  8
0
  6
CONTINUOUS
 62
   130
 10
-379.970475473821
 20
8.32245780527592
 30
0.0
 11
-379.196297922552
 21
8.32245780527592
 31
0.0
  0
LINE
  5
   316
  8
0
  6
CONTINUOUS
 62
   130
 10
-379.310513025164
 20
8.40859602718999
 30
0.0
 11
-379.196300973409
 21
8.32246014999417
 31
0.0
  0
LINE
  5
   317
  8
0
  6
CONTINUOUS
 62
   130
 10
-379.43847550903
 20
8.47252046186963
 30
0.0
 11
-379.310507655838
 21
8.40859375922413
 31
0.0
  0
LINE
  5
   318
  8
0
  6
CONTINUOUS
 62
   130
 10
-379.286153101397
 20
8.60185010015842
 30
0.0
 11
-379.438473948971
 21
8.47251662260329
 31
0.0
  0
LINE
  5
   319
  8
0
  6
CONTINUOUS
 62
   130
 10
-379.183105964271
 20
8.77305225549308
 30
0.0
 11
-379.286148555375
 21
8.6018486479257
 31
0.0
  0
LINE
  5
   31A
  8
0
  6
CONTINUOUS
 62
   130
 10
-379.140131945649
 20
8.96818986960548
 30
0.0
 11
-379.18310831991
 21
8.77305286898343
 31
0.0
  0
LINE
  5
   31B
  8
0
  6
CONTINUOUS
 62
   130
 10
-379.161717072708
 20
9.16684659861958
 30
0.0
 11
-379.140133521974
 21
8.96819238189578
 31
0.0
  0
LINE
  5
   31C
  8
0
  6
CONTINUOUS
 62
   130
 10
-379.245607724761
 20
9.34820171495978
 30
0.0
 11
-379.161722518777
 21
9.16685098495017
 31
0.0
  0
LINE
  5
   31D
  8
0
  6
CONTINUOUS
 62
   130
 10
-379.383016082415
 20
9.49328391272722
 30
0.0
 11
-379.245610673865
 21
9.34820333721736
 31
0.0
  0
LINE
  5
   31E
  8
0
  6
CONTINUOUS
 62
   130
 10
-379.5595451863
 20
9.58686843502117
 30
0.0
 11
-379.383008618739
 21
9.49327101524184
 31
0.0
  0
LINE
  5
   31F
  8
0
  6
CONTINUOUS
 62
   130
 10
-379.970475473821
 20
8.25596000254154
 30
0.0
 11
-379.131318369329
 21
8.25596000254154
 31
0.0
  0
LINE
  5
   320
  8
0
  6
CONTINUOUS
 62
   130
 10
-379.970475473821
 20
8.25596000254154
 30
0.0
 11
-379.970475473821
 21
6.95921422541142
 31
0.0
  0
LINE
  5
   321
  8
0
  6
CONTINUOUS
 62
   130
 10
-379.970475473821
 20
6.95921422541142
 30
0.0
 11
-379.723161020696
 21
6.95921422541142
 31
0.0
  0
LINE
  5
   322
  8
0
  6
CONTINUOUS
 62
   130
 10
-379.50239361746
 20
6.99096010479273
 30
0.0
 11
-379.723157801438
 21
6.95921276635299
 31
0.0
  0
LINE
  5
   323
  8
0
  6
CONTINUOUS
 62
   130
 10
-379.299521590344
 20
7.08362961250665
 30
0.0
 11
-379.502394832947
 21
6.99096060084088
 31
0.0
  0
LINE
  5
   324
  8
0
  6
CONTINUOUS
 62
   130
 10
-379.130990140087
 20
7.22970948593113
 30
0.0
 11
-379.299523480876
 21
7.08362898726494
 31
0.0
  0
LINE
  5
   325
  8
0
  6
CONTINUOUS
 62
   130
 10
-379.010444385418
 20
7.41736267593302
 30
0.0
 11
-379.130988818438
 21
7.22971009028163
 31
0.0
  0
LINE
  5
   326
  8
0
  6
CONTINUOUS
 62
   130
 10
-378.947661284197
 20
7.63137559732
 30
0.0
 11
-379.010435940681
 21
7.41736012407145
 31
0.0
  0
LINE
  5
   327
  8
0
  6
CONTINUOUS
 62
   130
 10
-378.947736535224
 20
7.8544134071271
 30
0.0
 11
-378.947667870676
 21
7.6313799683652
 31
0.0
  0
LINE
  5
   328
  8
0
  6
CONTINUOUS
 62
   130
 10
-379.010647061369
 20
8.06839084066753
 30
0.0
 11
-378.947735078762
 21
7.85441492343848
 31
0.0
  0
LINE
  5
   329
  8
0
  6
CONTINUOUS
 62
   130
 10
-379.131316533706
 20
8.25595720311943
 30
0.0
 11
-379.010650031094
 21
8.06838568051028
 31
0.0
  0
LINE
  5
   32A
  8
0
  6
CONTINUOUS
 62
   130
 10
-382.031976023138
 20
9.61921073496342
 30
0.0
 11
-381.81823090595
 21
9.61921073496342
 31
0.0
  0
LINE
  5
   32B
  8
0
  6
CONTINUOUS
 62
   130
 10
-382.031976023138
 20
9.61921073496342
 30
0.0
 11
-382.031976023138
 21
8.32245780527592
 31
0.0
  0
LINE
  5
   32C
  8
0
  6
CONTINUOUS
 62
   130
 10
-382.031976023138
 20
8.32245780527592
 30
0.0
 11
-381.257798471868
 21
8.32245780527592
 31
0.0
  0
LINE
  5
   32D
  8
0
  6
CONTINUOUS
 62
   130
 10
-381.372008614457
 20
8.40859214543543
 30
0.0
 11
-381.257796562703
 21
8.32245626823961
 31
0.0
  0
LINE
  5
   32E
  8
0
  6
CONTINUOUS
 62
   130
 10
-381.499977536705
 20
8.47252061064409
 30
0.0
 11
-381.372009683513
 21
8.4085939079986
 31
0.0
  0
LINE
  5
   32F
  8
0
  6
CONTINUOUS
 62
   130
 10
-381.347654780585
 20
8.60185408875086
 30
0.0
 11
-381.499975628159
 21
8.47252061119571
 31
0.0
  0
LINE
  5
   330
  8
0
  6
CONTINUOUS
 62
   130
 10
-381.244609606405
 20
8.77305453329838
 30
0.0
 11
-381.347652197509
 21
8.601850925731
 31
0.0
  0
LINE
  5
   331
  8
0
  6
CONTINUOUS
 62
   130
 10
-381.201626119108
 20
8.96819070841613
 30
0.0
 11
-381.244610124314
 21
8.77305369640594
 31
0.0
  0
LINE
  5
   332
  8
0
  6
CONTINUOUS
 62
   130
 10
-381.223209115567
 20
9.16684989859007
 30
0.0
 11
-381.201625564834
 21
8.96819568186626
 31
0.0
  0
LINE
  5
   333
  8
0
  6
CONTINUOUS
 62
   130
 10
-381.307105240337
 20
9.3481956495889
 30
0.0
 11
-381.223212412114
 21
9.16684492821399
 31
0.0
  0
LINE
  5
   334
  8
0
  6
CONTINUOUS
 62
   130
 10
-381.444513542788
 20
9.49328739019189
 30
0.0
 11
-381.307108134239
 21
9.34820681468204
 31
0.0
  0
LINE
  5
   335
  8
0
  6
CONTINUOUS
 62
   130
 10
-381.621050718872
 20
9.58687084836437
 30
0.0
 11
-381.444514151312
 21
9.49327342858505
 31
0.0
  0
LINE
  5
   336
  8
0
  6
CONTINUOUS
 62
   130
 10
-381.818231531155
 20
9.61921123563191
 30
0.0
 11
-381.621049787783
 21
9.58687786263394
 31
0.0
  0
LINE
  5
   337
  8
0
  6
CONTINUOUS
 62
   130
 10
-382.031976023138
 20
8.25596000254154
 30
0.0
 11
-381.192818918646
 21
8.25596000254154
 31
0.0
  0
LINE
  5
   338
  8
0
  6
CONTINUOUS
 62
   130
 10
-382.031976023138
 20
8.25596000254154
 30
0.0
 11
-382.031976023138
 21
6.95921422541142
 31
0.0
  0
LINE
  5
   339
  8
0
  6
CONTINUOUS
 62
   130
 10
-382.031976023138
 20
6.95921422541142
 30
0.0
 11
-381.784661570013
 21
6.95921422541142
 31
0.0
  0
LINE
  5
   33A
  8
0
  6
CONTINUOUS
 62
   130
 10
-381.563896751977
 20
6.99095519870488
 30
0.0
 11
-381.784660935956
 21
6.95920786026514
 31
0.0
  0
LINE
  5
   33B
  8
0
  6
CONTINUOUS
 62
   130
 10
-381.361021925208
 20
7.08362830516084
 30
0.0
 11
-381.563895167811
 21
6.99095929349508
 31
0.0
  0
LINE
  5
   33C
  8
0
  6
CONTINUOUS
 62
   130
 10
-381.192490113668
 20
7.2297085115615
 30
0.0
 11
-381.361023454458
 21
7.08362801289532
 31
0.0
  0
LINE
  5
   33D
  8
0
  6
CONTINUOUS
 62
   130
 10
-381.071945968353
 20
7.4173629323097
 30
0.0
 11
-381.192490401373
 21
7.2297103466583
 31
0.0
  0
LINE
  5
   33E
  8
0
  6
CONTINUOUS
 62
   130
 10
-381.009158446551
 20
7.63137842683392
 30
0.0
 11
-381.071940738863
 21
7.41736293050422
 31
0.0
  0
LINE
  5
   33F
  8
0
  6
CONTINUOUS
 62
   130
 10
-381.009239429882
 20
7.8544136388727
 30
0.0
 11
-381.009163135974
 21
7.63138019763148
 31
0.0
  0
LINE
  5
   340
  8
0
  6
CONTINUOUS
 62
   130
 10
-381.072145747761
 20
8.06839073861392
 30
0.0
 11
-381.009233765154
 21
7.85441482138486
 31
0.0
  0
LINE
  5
   341
  8
0
  6
CONTINUOUS
 62
   130
 10
-381.192815085713
 20
8.25595771314975
 30
0.0
 11
-381.072148583101
 21
8.06838619054061
 31
0.0
  0
LINE
  5
   342
  8
0
  6
CONTINUOUS
 62
   130
 10
-382.863221445501
 20
9.61921073496342
 30
0.0
 11
-382.863221445501
 21
6.95921422541142
 31
0.0
  0
LINE
  5
   343
  8
0
  6
CONTINUOUS
 62
   130
 10
-388.387265090943
 20
5.25532054900619
 30
0.0
 11
-360.38725259781
 21
5.25532054900619
 31
0.0
  0
LINE
  5
   344
  8
0
  6
CONTINUOUS
 62
   130
 10
-359.887252674104
 20
7.25532054900619
 30
0.0
 11
-359.887252559663
 21
4.25532054900619
 31
0.0
  0
LINE
  5
   345
  8
0
  6
CONTINUOUS
 62
   130
 10
-338.887222423554
 20
7.25532054900619
 30
0.0
 11
-338.887222537995
 21
4.25532054900619
 31
0.0
  0
LINE
  5
   346
  8
0
  6
CONTINUOUS
 62
   130
 10
-359.887252674104
 20
7.25532054900619
 30
0.0
 11
-338.887222423554
 21
7.25532054900619
 31
0.0
  0
LINE
  5
   347
  8
0
  6
CONTINUOUS
 62
   130
 10
-338.387222499848
 20
5.25532054900618
 30
0.0
 11
-310.387265090942
 21
5.25532054900618
 31
0.0
  0
LINE
  5
   348
  8
0
  6
CONTINUOUS
 62
   130
 10
-360.387252693177
 20
7.75532054900619
 30
0.0
 11
-338.387222404481
 21
7.75532054900619
 31
0.0
  0
LINE
  5
   349
  8
0
  6
CONTINUOUS
 62
   130
 10
-338.387222404481
 20
7.75532054900619
 30
0.0
 11
-338.387222537995
 21
4.25532054900619
 31
0.0
  0
LINE
  5
   34A
  8
0
  6
CONTINUOUS
 62
   130
 10
-360.387252693177
 20
7.75532054900619
 30
0.0
 11
-360.387252559663
 21
4.25532054900619
 31
0.0
  0
LINE
  5
   34B
  8
0
  6
CONTINUOUS
 62
   130
 10
-338.887223526454
 20
-21.6565302456229
 30
0.0
 11
-338.887223640895
 21
-24.6565302456229
 31
0.0
  0
LINE
  5
   34C
  8
0
  6
CONTINUOUS
 62
   130
 10
-359.887251571204
 20
-21.6565302456229
 30
0.0
 11
-359.887251456763
 21
-24.6565302456229
 31
0.0
  0
LINE
  5
   34D
  8
0
  6
CONTINUOUS
 62
   130
 10
-359.887251571204
 20
-21.6565302456229
 30
0.0
 11
-356.887251571204
 21
-21.6565302456229
 31
0.0
  0
LINE
  5
   34E
  8
0
  6
CONTINUOUS
 62
   130
 10
-341.887223526454
 20
-21.6565302456229
 30
0.0
 11
-338.887223526454
 21
-21.6565302456229
 31
0.0
  0
LINE
  5
   34F
  8
0
  6
CONTINUOUS
 62
   130
 10
-359.887251456763
 20
-24.6565302456229
 30
0.0
 11
-355.887251456763
 21
-24.6565302456229
 31
0.0
  0
LINE
  5
   350
  8
0
  6
CONTINUOUS
 62
   130
 10
-342.887223640895
 20
-24.6565302456229
 30
0.0
 11
-338.887223640895
 21
-24.6565302456229
 31
0.0
  0
LINE
  5
   351
  8
0
  6
CONTINUOUS
 62
   130
 10
-374.98723526001
 20
-26.994694709776
 30
0.0
 11
-374.98723526001
 21
-31.494694709776
 31
0.0
  0
LINE
  5
   352
  8
0
  6
CONTINUOUS
 62
   130
 10
-364.98723526001
 20
-26.994694709776
 30
0.0
 11
-364.98723526001
 21
-31.494694709776
 31
0.0
  0
LINE
  5
   353
  8
0
  6
CONTINUOUS
 62
   130
 10
-374.98723526001
 20
-26.994694709776
 30
0.0
 11
-364.98723526001
 21
-26.994694709776
 31
0.0
  0
LINE
  5
   354
  8
0
  6
CONTINUOUS
 62
   130
 10
-374.98723526001
 20
-31.494694709776
 30
0.0
 11
-364.98723526001
 21
-31.494694709776
 31
0.0
  0
LINE
  5
   355
  8
0
  6
CONTINUOUS
 62
   130
 10
-388.387265243531
 20
4.25532054900618
 30
0.0
 11
-388.387265472413
 21
2.75532054900618
 31
0.0
  0
LINE
  5
   356
  8
0
  6
CONTINUOUS
 62
   130
 10
-388.38726989746
 20
-26.2446794509819
 30
0.0
 11
-388.387270126342
 21
-27.7446794509819
 31
0.0
  0
LINE
  5
   357
  8
0
  6
CONTINUOUS
 62
   130
 10
-389.687259140023
 20
44.2552782659186
 30
0.0
 11
-389.687260360653
 21
36.2557525634766
 31
0.0
  0
LINE
  5
   358
  8
0
  6
CONTINUOUS
 62
   130
 10
-390.187259140023
 20
44.2552782659186
 30
0.0
 11
-390.187260360653
 21
36.2557525634766
 31
0.0
  0
LINE
  5
   359
  8
0
  6
CONTINUOUS
 62
   130
 10
-391.487259140023
 20
44.2552782659186
 30
0.0
 11
-391.487260360653
 21
36.2557525634766
 31
0.0
  0
LINE
  5
   35A
  8
0
  6
CONTINUOUS
 62
   130
 10
-391.987259140023
 20
44.2552782659186
 30
0.0
 11
-391.987260360653
 21
36.2557525634766
 31
0.0
  0
LINE
  5
   35B
  8
0
  6
CONTINUOUS
 62
   130
 10
-393.287259140023
 20
44.2552782659186
 30
0.0
 11
-393.287260360653
 21
36.2557525634766
 31
0.0
  0
LINE
  5
   35C
  8
0
  6
CONTINUOUS
 62
   130
 10
-393.787259140023
 20
44.2552782659186
 30
0.0
 11
-393.787260360653
 21
36.2557525634766
 31
0.0
  0
LINE
  5
   35D
  8
0
  6
CONTINUOUS
 62
   130
 10
-395.087259140023
 20
44.2552782659186
 30
0.0
 11
-395.087260360653
 21
36.2557525634766
 31
0.0
  0
LINE
  5
   35E
  8
0
  6
CONTINUOUS
 62
   130
 10
-395.587259140023
 20
44.2552782659186
 30
0.0
 11
-395.587260360653
 21
36.2557525634766
 31
0.0
  0
LINE
  5
   35F
  8
0
  6
CONTINUOUS
 62
   130
 10
-396.887259140023
 20
44.2552782659186
 30
0.0
 11
-396.887260360653
 21
36.2557525634766
 31
0.0
  0
LINE
  5
   360
  8
0
  6
CONTINUOUS
 62
   130
 10
-397.387259140023
 20
44.2552782659186
 30
0.0
 11
-397.387260360653
 21
36.2557525634766
 31
0.0
  0
LINE
  5
   361
  8
0
  6
CONTINUOUS
 62
   130
 10
-398.687259140023
 20
44.2552782659186
 30
0.0
 11
-398.687260360653
 21
36.2557525634766
 31
0.0
  0
LINE
  5
   362
  8
0
  6
CONTINUOUS
 62
   130
 10
-399.187259140023
 20
44.2552782659186
 30
0.0
 11
-399.187260360653
 21
36.2557525634766
 31
0.0
  0
LINE
  5
   363
  8
0
  6
CONTINUOUS
 62
   130
 10
-400.487259140023
 20
44.2552782659186
 30
0.0
 11
-400.487260360654
 21
36.2557525634766
 31
0.0
  0
LINE
  5
   364
  8
0
  6
CONTINUOUS
 62
   130
 10
-400.987259140023
 20
44.2552782659186
 30
0.0
 11
-400.987260360653
 21
36.2557525634766
 31
0.0
  0
LINE
  5
   365
  8
0
  6
CONTINUOUS
 62
   130
 10
-402.287259140023
 20
44.2552782659186
 30
0.0
 11
-402.287260360653
 21
36.2557525634766
 31
0.0
  0
LINE
  5
   366
  8
0
  6
CONTINUOUS
 62
   130
 10
-402.787259140023
 20
44.2552782659186
 30
0.0
 11
-402.787260360653
 21
36.2557525634766
 31
0.0
  0
LINE
  5
   367
  8
0
  6
CONTINUOUS
 62
   130
 10
-404.587259140023
 20
44.2552782659186
 30
0.0
 11
-404.587260360653
 21
36.2557525634766
 31
0.0
  0
LINE
  5
   368
  8
0
  6
CONTINUOUS
 62
   130
 10
-404.087259140023
 20
44.2552782659186
 30
0.0
 11
-404.087260360653
 21
36.2557525634766
 31
0.0
  0
LINE
  5
   369
  8
0
  6
CONTINUOUS
 62
   130
 10
-405.887259140023
 20
44.2552782659186
 30
0.0
 11
-405.887260360653
 21
36.2557525634766
 31
0.0
  0
LINE
  5
   36A
  8
0
  6
CONTINUOUS
 62
   130
 10
-406.387259140023
 20
44.2552782659186
 30
0.0
 11
-406.387260360653
 21
36.2557525634766
 31
0.0
  0
LINE
  5
   36B
  8
0
  6
CONTINUOUS
 62
   130
 10
-407.687259140023
 20
44.2552782659186
 30
0.0
 11
-407.687260360653
 21
36.2557525634766
 31
0.0
  0
LINE
  5
   36C
  8
0
  6
CONTINUOUS
 62
   130
 10
-408.187259140023
 20
44.2552782659186
 30
0.0
 11
-408.187260360653
 21
36.2557525634766
 31
0.0
  0
LINE
  5
   36D
  8
0
  6
CONTINUOUS
 62
   130
 10
-409.487259140023
 20
44.2552782659186
 30
0.0
 11
-409.487260360654
 21
36.2557525634766
 31
0.0
  0
LINE
  5
   36E
  8
0
  6
CONTINUOUS
 62
   130
 10
-409.487259140023
 20
44.2552782659186
 30
0.0
 11
-409.487260360654
 21
36.2557525634766
 31
0.0
  0
LINE
  5
   36F
  8
0
  6
CONTINUOUS
 62
   130
 10
-409.987259140023
 20
44.2552782659186
 30
0.0
 11
-409.987260360653
 21
36.2557525634766
 31
0.0
  0
LINE
  5
   370
  8
0
  6
CONTINUOUS
 62
   130
 10
-411.287259140023
 20
44.2552782659186
 30
0.0
 11
-411.287260360654
 21
36.2557525634766
 31
0.0
  0
LINE
  5
   371
  8
0
  6
CONTINUOUS
 62
   130
 10
-411.787259140023
 20
44.2552782659186
 30
0.0
 11
-411.787260360653
 21
36.2557525634766
 31
0.0
  0
LINE
  5
   372
  8
0
  6
CONTINUOUS
 62
   130
 10
-412.387218551632
 20
62.2552900314361
 30
0.0
 11
-311.387256546027
 21
62.2552900314361
 31
0.0
  0
ARC
  5
   373
  8
0
  6
CONTINUOUS
 62
   130
 10
-311.387256546027
 20
61.2552900314361
 30
0.0
 40
1.0
 50
359.999991101463
 51
449.999999844103
  0
ARC
  5
   374
  8
0
  6
CONTINUOUS
 62
   130
 10
-412.387218551632
 20
61.2552900314361
 30
0.0
 40
1.0
 50
449.999999844103
 51
540.000008586744
  0
LINE
  5
   375
  8
0
  6
CONTINUOUS
 62
   130
 10
-411.367611905262
 20
61.2552901870157
 30
0.0
 11
-411.367609540149
 21
45.7552782659186
 31
0.0
  0
LINE
  5
   376
  8
0
  6
CONTINUOUS
 62
   130
 10
-409.348005258893
 20
61.2552904951832
 30
0.0
 11
-409.348002893779
 21
45.7552782659186
 31
0.0
  0
LINE
  5
   377
  8
0
  6
CONTINUOUS
 62
   130
 10
-407.328398612524
 20
61.2552908033506
 30
0.0
 11
-407.32839624741
 21
45.7552782659186
 31
0.0
  0
LINE
  5
   378
  8
0
  6
CONTINUOUS
 62
   130
 10
-405.308791966154
 20
61.2552911115181
 30
0.0
 11
-405.308789601041
 21
45.7552782659186
 31
0.0
  0
LINE
  5
   379
  8
0
  6
CONTINUOUS
 62
   130
 10
-403.289185319785
 20
61.2552914196856
 30
0.0
 11
-403.289182954671
 21
45.7552782659186
 31
0.0
  0
LINE
  5
   37A
  8
0
  6
CONTINUOUS
 62
   130
 10
-401.269578673416
 20
61.255291727853
 30
0.0
 11
-401.269576308302
 21
45.7552782659186
 31
0.0
  0
LINE
  5
   37B
  8
0
  6
CONTINUOUS
 62
   130
 10
-399.249972027046
 20
61.2552920360205
 30
0.0
 11
-399.249969661932
 21
45.7552782659186
 31
0.0
  0
LINE
  5
   37C
  8
0
  6
CONTINUOUS
 62
   130
 10
-397.230365380677
 20
61.2552923441879
 30
0.0
 11
-397.230363015563
 21
45.7552782659186
 31
0.0
  0
LINE
  5
   37D
  8
0
  6
CONTINUOUS
 62
   130
 10
-395.210758734308
 20
61.2552926523554
 30
0.0
 11
-395.210756369194
 21
45.7552782659186
 31
0.0
  0
LINE
  5
   37E
  8
0
  6
CONTINUOUS
 62
   130
 10
-393.191152087938
 20
61.2552929605228
 30
0.0
 11
-393.191149722824
 21
45.7552782659186
 31
0.0
  0
LINE
  5
   37F
  8
0
  6
CONTINUOUS
 62
   130
 10
-391.171545441569
 20
61.2552932686903
 30
0.0
 11
-391.171543076455
 21
45.7552782659186
 31
0.0
  0
LINE
  5
   380
  8
0
  6
CONTINUOUS
 62
   130
 10
-389.1519387952
 20
61.2552935768578
 30
0.0
 11
-389.151936430085
 21
45.7552782659186
 31
0.0
  0
LINE
  5
   381
  8
0
  6
CONTINUOUS
 62
   130
 10
-387.13233214883
 20
61.2552938850252
 30
0.0
 11
-387.132329783716
 21
45.7552782659186
 31
0.0
  0
LINE
  5
   382
  8
0
  6
CONTINUOUS
 62
   130
 10
-385.112725502461
 20
61.2552941931927
 30
0.0
 11
-385.112723137347
 21
45.7552782659186
 31
0.0
  0
LINE
  5
   383
  8
0
  6
CONTINUOUS
 62
   130
 10
-383.093118856092
 20
61.2552945013602
 30
0.0
 11
-383.093116490977
 21
45.7552782659186
 31
0.0
  0
LINE
  5
   384
  8
0
  6
CONTINUOUS
 62
   130
 10
-381.073512209722
 20
61.2552948095276
 30
0.0
 11
-381.073509844608
 21
45.7552782659186
 31
0.0
  0
LINE
  5
   385
  8
0
  6
CONTINUOUS
 62
   130
 10
-379.053905563353
 20
61.255295117695
 30
0.0
 11
-379.053903198238
 21
45.7552782659186
 31
0.0
  0
LINE
  5
   386
  8
0
  6
CONTINUOUS
 62
   130
 10
-377.034298916984
 20
61.2552954258625
 30
0.0
 11
-377.034296551869
 21
45.7552782659186
 31
0.0
  0
LINE
  5
   387
  8
0
  6
CONTINUOUS
 62
   130
 10
-375.014692270614
 20
61.25529573403
 30
0.0
 11
-375.0146899055
 21
45.7552782659186
 31
0.0
  0
LINE
  5
   388
  8
0
  6
CONTINUOUS
 62
   130
 10
-372.995085624245
 20
61.2552960421974
 30
0.0
 11
-372.99508325913
 21
45.7552782659186
 31
0.0
  0
LINE
  5
   389
  8
0
  6
CONTINUOUS
 62
   130
 10
-370.975478977876
 20
61.2552963503649
 30
0.0
 11
-370.975476612761
 21
45.7552782659186
 31
0.0
  0
LINE
  5
   38A
  8
0
  6
CONTINUOUS
 62
   130
 10
-368.955872331506
 20
61.2552966585323
 30
0.0
 11
-368.955869966392
 21
45.7552782659186
 31
0.0
  0
LINE
  5
   38B
  8
0
  6
CONTINUOUS
 62
   130
 10
-366.936265685137
 20
61.2552969666998
 30
0.0
 11
-366.936263320022
 21
45.7552782659186
 31
0.0
  0
LINE
  5
   38C
  8
0
  6
CONTINUOUS
 62
   130
 10
-364.916659038768
 20
61.2552972748673
 30
0.0
 11
-364.916656673653
 21
45.7552782659186
 31
0.0
  0
LINE
  5
   38D
  8
0
  6
CONTINUOUS
 62
   130
 10
-362.897052392398
 20
61.2552975830347
 30
0.0
 11
-362.897050027283
 21
45.7552782659186
 31
0.0
  0
LINE
  5
   38E
  8
0
  6
CONTINUOUS
 62
   130
 10
-360.877445746029
 20
61.2552978912022
 30
0.0
 11
-360.877443380914
 21
45.7552782659186
 31
0.0
  0
LINE
  5
   38F
  8
0
  6
CONTINUOUS
 62
   130
 10
-358.85783909966
 20
61.2552981993697
 30
0.0
 11
-358.857836734545
 21
45.7552782659186
 31
0.0
  0
LINE
  5
   390
  8
0
  6
CONTINUOUS
 62
   130
 10
-356.83823245329
 20
61.2552985075371
 30
0.0
 11
-356.838230088175
 21
45.7552782659186
 31
0.0
  0
LINE
  5
   391
  8
0
  6
CONTINUOUS
 62
   130
 10
-354.818625806921
 20
61.2552988157046
 30
0.0
 11
-354.818623441806
 21
45.7552782659186
 31
0.0
  0
LINE
  5
   392
  8
0
  6
CONTINUOUS
 62
   130
 10
-352.799019160552
 20
61.255299123872
 30
0.0
 11
-352.799016795437
 21
45.7552782659186
 31
0.0
  0
LINE
  5
   393
  8
0
  6
CONTINUOUS
 62
   130
 10
-350.779412514182
 20
61.2552994320395
 30
0.0
 11
-350.779410149067
 21
45.7552782659186
 31
0.0
  0
LINE
  5
   394
  8
0
  6
CONTINUOUS
 62
   130
 10
-336.642165989597
 20
61.2553015892116
 30
0.0
 11
-336.642163624482
 21
45.7552782659186
 31
0.0
  0
LINE
  5
   395
  8
0
  6
CONTINUOUS
 62
   130
 10
-324.524526111381
 20
61.2553034382164
 30
0.0
 11
-324.524523746265
 21
45.7552782659186
 31
0.0
  0
LINE
  5
   396
  8
0
  6
CONTINUOUS
 62
   130
 10
-322.504919465012
 20
61.2553037463839
 30
0.0
 11
-322.504917099896
 21
45.7552782659186
 31
0.0
  0
LINE
  5
   397
  8
0
  6
CONTINUOUS
 62
   130
 10
-320.485312818642
 20
61.2553040545513
 30
0.0
 11
-320.485310453526
 21
45.7552782659186
 31
0.0
  0
LINE
  5
   398
  8
0
  6
CONTINUOUS
 62
   130
 10
-318.465706172273
 20
61.2553043627188
 30
0.0
 11
-318.465703807157
 21
45.7552782659186
 31
0.0
  0
LINE
  5
   399
  8
0
  6
CONTINUOUS
 62
   130
 10
-316.446099525904
 20
61.2553046708862
 30
0.0
 11
-316.446097160788
 21
45.7552782659186
 31
0.0
  0
LINE
  5
   39A
  8
0
  6
CONTINUOUS
 62
   130
 10
-314.426492879534
 20
61.2553049790537
 30
0.0
 11
-314.426490514418
 21
45.7552782659186
 31
0.0
  0
LINE
  5
   39B
  8
0
  6
CONTINUOUS
 62
   130
 10
-312.406886233165
 20
61.2553052872212
 30
0.0
 11
-312.406883868049
 21
45.7552782659186
 31
0.0
  0
LINE
  5
   39C
  8
0
  6
CONTINUOUS
 62
   130
 10
-413.387216186518
 20
45.7552782659186
 30
0.0
 11
-310.38725891114
 21
45.7552782659186
 31
0.0
  0
ARC
  5
   39D
  8
0
  6
CONTINUOUS
 62
   130
 10
-311.387275161743
 20
-60.744694709776
 30
0.0
 40
1.0
 50
269.999999844103
 51
359.999991101463
  0
ARC
  5
   39E
  8
0
  6
CONTINUOUS
 62
   130
 10
-412.387199935915
 20
-60.744694709776
 30
0.0
 40
1.0
 50
540.000008586744
 51
629.999999844103
  0
LINE
  5
   39F
  8
0
  6
DASHDOT
 62
   130
 10
-349.387207753009
 20
40.1179467857077
 30
0.0
 11
-349.387207753009
 21
-64.5169687943305
 31
0.0
  0
LINE
  5
   3A0
  8
0
  6
DASHDOT
 62
   130
 10
-349.387207753009
 20
65.0275641159907
 30
0.0
 11
-349.387207753009
 21
-39.6073514640475
 31
0.0
  0
LINE
  5
   3A1
  8
0
  6
CONTINUOUS
 62
   130
 10
-411.367611905262
 20
61.2552901870157
 30
0.0
 11
-411.367609540149
 21
45.7552782659186
 31
0.0
  0
LINE
  5
   3A2
  8
0
  6
CONTINUOUS
 62
   130
 10
-409.348005258893
 20
61.2552904951832
 30
0.0
 11
-409.348002893779
 21
45.7552782659186
 31
0.0
  0
LINE
  5
   3A3
  8
0
  6
CONTINUOUS
 62
   130
 10
-407.328398612524
 20
61.2552908033506
 30
0.0
 11
-407.32839624741
 21
45.7552782659186
 31
0.0
  0
LINE
  5
   3A4
  8
0
  6
CONTINUOUS
 62
   130
 10
-405.308791966154
 20
61.2552911115181
 30
0.0
 11
-405.308789601041
 21
45.7552782659186
 31
0.0
  0
LINE
  5
   3A5
  8
0
  6
CONTINUOUS
 62
   130
 10
-403.289185319785
 20
61.2552914196856
 30
0.0
 11
-403.289182954671
 21
45.7552782659186
 31
0.0
  0
LINE
  5
   3A6
  8
0
  6
CONTINUOUS
 62
   130
 10
-401.269578673416
 20
61.255291727853
 30
0.0
 11
-401.269576308302
 21
45.7552782659186
 31
0.0
  0
LINE
  5
   3A7
  8
0
  6
CONTINUOUS
 62
   130
 10
-399.249972027046
 20
61.2552920360205
 30
0.0
 11
-399.249969661932
 21
45.7552782659186
 31
0.0
  0
LINE
  5
   3A8
  8
0
  6
CONTINUOUS
 62
   130
 10
-397.230365380677
 20
61.2552923441879
 30
0.0
 11
-397.230363015563
 21
45.7552782659186
 31
0.0
  0
LINE
  5
   3A9
  8
0
  6
CONTINUOUS
 62
   130
 10
-395.210758734308
 20
61.2552926523554
 30
0.0
 11
-395.210756369194
 21
45.7552782659186
 31
0.0
  0
LINE
  5
   3AA
  8
0
  6
CONTINUOUS
 62
   130
 10
-393.191152087938
 20
61.2552929605228
 30
0.0
 11
-393.191149722824
 21
45.7552782659186
 31
0.0
  0
LINE
  5
   3AB
  8
0
  6
CONTINUOUS
 62
   130
 10
-391.171545441569
 20
61.2552932686903
 30
0.0
 11
-391.171543076455
 21
45.7552782659186
 31
0.0
  0
LINE
  5
   3AC
  8
0
  6
CONTINUOUS
 62
   130
 10
-389.1519387952
 20
61.2552935768578
 30
0.0
 11
-389.151936430085
 21
45.7552782659186
 31
0.0
  0
LINE
  5
   3AD
  8
0
  6
CONTINUOUS
 62
   130
 10
-387.13233214883
 20
61.2552938850252
 30
0.0
 11
-387.132329783716
 21
45.7552782659186
 31
0.0
  0
LINE
  5
   3AE
  8
0
  6
CONTINUOUS
 62
   130
 10
-385.112725502461
 20
61.2552941931927
 30
0.0
 11
-385.112723137347
 21
45.7552782659186
 31
0.0
  0
LINE
  5
   3AF
  8
0
  6
CONTINUOUS
 62
   130
 10
-383.093118856092
 20
61.2552945013602
 30
0.0
 11
-383.093116490977
 21
45.7552782659186
 31
0.0
  0
LINE
  5
   3B0
  8
0
  6
CONTINUOUS
 62
   130
 10
-381.073512209722
 20
61.2552948095276
 30
0.0
 11
-381.073509844608
 21
45.7552782659186
 31
0.0
  0
LINE
  5
   3B1
  8
0
  6
CONTINUOUS
 62
   130
 10
-379.053905563353
 20
61.255295117695
 30
0.0
 11
-379.053903198239
 21
45.7552782659186
 31
0.0
  0
LINE
  5
   3B2
  8
0
  6
CONTINUOUS
 62
   130
 10
-377.034298916984
 20
61.2552954258625
 30
0.0
 11
-377.034296551869
 21
45.7552782659186
 31
0.0
  0
LINE
  5
   3B3
  8
0
  6
CONTINUOUS
 62
   130
 10
-375.014692270614
 20
61.25529573403
 30
0.0
 11
-375.0146899055
 21
45.7552782659186
 31
0.0
  0
LINE
  5
   3B4
  8
0
  6
CONTINUOUS
 62
   130
 10
-372.995085624245
 20
61.2552960421974
 30
0.0
 11
-372.99508325913
 21
45.7552782659186
 31
0.0
  0
LINE
  5
   3B5
  8
0
  6
CONTINUOUS
 62
   130
 10
-370.975478977876
 20
61.2552963503649
 30
0.0
 11
-370.975476612761
 21
45.7552782659186
 31
0.0
  0
LINE
  5
   3B6
  8
0
  6
CONTINUOUS
 62
   130
 10
-368.955872331506
 20
61.2552966585323
 30
0.0
 11
-368.955869966392
 21
45.7552782659186
 31
0.0
  0
LINE
  5
   3B7
  8
0
  6
CONTINUOUS
 62
   130
 10
-366.936265685137
 20
61.2552969666998
 30
0.0
 11
-366.936263320022
 21
45.7552782659186
 31
0.0
  0
LINE
  5
   3B8
  8
0
  6
CONTINUOUS
 62
   130
 10
-364.916659038768
 20
61.2552972748673
 30
0.0
 11
-364.916656673653
 21
45.7552782659186
 31
0.0
  0
LINE
  5
   3B9
  8
0
  6
CONTINUOUS
 62
   130
 10
-362.897052392398
 20
61.2552975830347
 30
0.0
 11
-362.897050027284
 21
45.7552782659186
 31
0.0
  0
LINE
  5
   3BA
  8
0
  6
CONTINUOUS
 62
   130
 10
-360.877445746029
 20
61.2552978912022
 30
0.0
 11
-360.877443380914
 21
45.7552782659186
 31
0.0
  0
LINE
  5
   3BB
  8
0
  6
CONTINUOUS
 62
   130
 10
-358.85783909966
 20
61.2552981993697
 30
0.0
 11
-358.857836734545
 21
45.7552782659186
 31
0.0
  0
LINE
  5
   3BC
  8
0
  6
CONTINUOUS
 62
   130
 10
-356.83823245329
 20
61.2552985075371
 30
0.0
 11
-356.838230088175
 21
45.7552782659186
 31
0.0
  0
LINE
  5
   3BD
  8
0
  6
CONTINUOUS
 62
   130
 10
-354.818625806921
 20
61.2552988157046
 30
0.0
 11
-354.818623441806
 21
45.7552782659186
 31
0.0
  0
LINE
  5
   3BE
  8
0
  6
CONTINUOUS
 62
   130
 10
-352.799019160552
 20
61.255299123872
 30
0.0
 11
-352.799016795437
 21
45.7552782659186
 31
0.0
  0
LINE
  5
   3BF
  8
0
  6
CONTINUOUS
 62
   130
 10
-350.77941189216
 20
57.1788104059808
 30
0.0
 11
-350.779410149067
 21
45.7552782659186
 31
0.0
  0
LINE
  5
   3C0
  8
0
  6
CONTINUOUS
 62
   130
 10
-348.759805867813
 20
61.2552997402069
 30
0.0
 11
-348.759803502698
 21
45.7552782659186
 31
0.0
  0
LINE
  5
   3C1
  8
0
  6
CONTINUOUS
 62
   130
 10
-346.740199221444
 20
61.2553000483744
 30
0.0
 11
-346.740196856328
 21
45.7552782659186
 31
0.0
  0
LINE
  5
   3C2
  8
0
  6
CONTINUOUS
 62
   130
 10
-344.720592575074
 20
61.2553003565418
 30
0.0
 11
-344.720590209959
 21
45.7552782659186
 31
0.0
  0
LINE
  5
   3C3
  8
0
  6
CONTINUOUS
 62
   130
 10
-342.700985928705
 20
61.2553006647093
 30
0.0
 11
-342.70098356359
 21
45.7552782659186
 31
0.0
  0
LINE
  5
   3C4
  8
0
  6
CONTINUOUS
 62
   130
 10
-340.681379282336
 20
61.2553009728768
 30
0.0
 11
-340.68137691722
 21
45.7552782659186
 31
0.0
  0
LINE
  5
   3C5
  8
0
  6
CONTINUOUS
 62
   130
 10
-338.661772635966
 20
61.2553012810442
 30
0.0
 11
-338.661770270851
 21
45.7552782659186
 31
0.0
  0
LINE
  5
   3C6
  8
0
  6
CONTINUOUS
 62
   130
 10
-334.622559343228
 20
61.2553018973791
 30
0.0
 11
-334.622556978112
 21
45.7552782659186
 31
0.0
  0
LINE
  5
   3C7
  8
0
  6
CONTINUOUS
 62
   130
 10
-332.602952696858
 20
61.2553022055466
 30
0.0
 11
-332.602950331743
 21
45.7552782659186
 31
0.0
  0
LINE
  5
   3C8
  8
0
  6
CONTINUOUS
 62
   130
 10
-330.583346050489
 20
61.2553025137141
 30
0.0
 11
-330.583343685373
 21
45.7552782659186
 31
0.0
  0
LINE
  5
   3C9
  8
0
  6
CONTINUOUS
 62
   130
 10
-328.56373940412
 20
61.2553028218815
 30
0.0
 11
-328.563737039004
 21
45.7552782659186
 31
0.0
  0
LINE
  5
   3CA
  8
0
  6
CONTINUOUS
 62
   130
 10
-326.54413275775
 20
61.255303130049
 30
0.0
 11
-326.544130392635
 21
45.7552782659186
 31
0.0
  0
LINE
  5
   3CB
  8
0
  6
CONTINUOUS
 62
   130
 10
-322.504918908782
 20
57.6099971374801
 30
0.0
 11
-322.504917099896
 21
45.7552782659186
 31
0.0
  0
LINE
  5
   3CC
  8
0
  6
CONTINUOUS
 62
   130
 10
-320.485312818642
 20
61.2553040545513
 30
0.0
 11
-320.485310453527
 21
45.7552782659186
 31
0.0
  0
LINE
  5
   3CD
  8
0
  6
CONTINUOUS
 62
   130
 10
-318.465706172273
 20
61.2553043627188
 30
0.0
 11
-318.465703807157
 21
45.7552782659186
 31
0.0
  0
LINE
  5
   3CE
  8
0
  6
CONTINUOUS
 62
   130
 10
-316.446099525904
 20
61.2553046708862
 30
0.0
 11
-316.446097160788
 21
45.7552782659186
 31
0.0
  0
LINE
  5
   3CF
  8
0
  6
CONTINUOUS
 62
   130
 10
-314.426492879534
 20
61.2553049790537
 30
0.0
 11
-314.426490514418
 21
45.7552782659186
 31
0.0
  0
LINE
  5
   3D0
  8
0
  6
CONTINUOUS
 62
   130
 10
-312.406886233165
 20
61.2553052872212
 30
0.0
 11
-312.406883868049
 21
45.7552782659186
 31
0.0
  0
LINE
  5
   3D1
  8
0
  6
DASHDOT
 62
   130
 10
-324.387207753009
 20
70.1856870708089
 30
0.0
 11
-324.387207753009
 21
52.5872904555495
 31
0.0
  0
LINE
  5
   3D2
  8
0
  6
DASHDOT
 62
   130
 10
-374.387207753009
 20
70.1856870708089
 30
0.0
 11
-374.387207753009
 21
54.7145691672841
 31
0.0
  0
LINE
  5
   3D3
  8
0
  6
DASHDOT
 62
   130
 10
-399.387207753009
 20
69.4121311756326
 30
0.0
 11
-399.387207753009
 21
50.846789691403
 31
0.0
  0
CIRCLE
  5
   3D4
  8
0
  6
CONTINUOUS
 62
   130
 10
-324.387207753009
 20
59.2552900314361
 30
0.0
 40
2.5
  0
LINE
  5
   3D5
  8
0
  6
DASHDOT
 62
   130
 10
-324.387207753009
 20
71.7552900314361
 30
0.0
 11
-324.387207753009
 21
46.7552900314361
 31
0.0
  0
LINE
  5
   3D6
  8
0
  6
DASHDOT
 62
   130
 10
-336.887207753009
 20
59.2552900314361
 30
0.0
 11
-311.887207753009
 21
59.2552900314361
 31
0.0
  0
LINE
  5
   3D7
  8
0
  6
CONTINUOUS
 62
   130
 10
-326.836697495792
 20
59.7552900314361
 30
0.0
 11
-321.937718010225
 21
59.7552900314361
 31
0.0
  0
LINE
  5
   3D8
  8
0
  6
CONTINUOUS
 62
   130
 10
-326.836697495792
 20
58.7552900314361
 30
0.0
 11
-321.937718010225
 21
58.7552900314361
 31
0.0
  0
LINE
  5
   3D9
  8
0
  6
DOT
 62
   130
 10
-323.887207753009
 20
61.7047797742193
 30
0.0
 11
-323.887207753009
 21
56.805800288653
 31
0.0
  0
LINE
  5
   3DA
  8
0
  6
DOT
 62
   130
 10
-324.887207753009
 20
61.7047797742193
 30
0.0
 11
-324.887207753009
 21
56.805800288653
 31
0.0
  0
LINE
  5
   3DB
  8
0
  6
DASHDOT
 62
   130
 10
-349.387207753009
 20
71.7552900314361
 30
0.0
 11
-349.387207753009
 21
46.7552900314361
 31
0.0
  0
LINE
  5
   3DC
  8
0
  6
DASHDOT
 62
   130
 10
-361.887207753009
 20
59.2552900314361
 30
0.0
 11
-336.887207753009
 21
59.2552900314361
 31
0.0
  0
LINE
  5
   3DD
  8
0
  6
DASHDOT
 62
   130
 10
-349.387207753009
 20
40.1179467857077
 30
0.0
 11
-349.387207753009
 21
-64.5169687943305
 31
0.0
  0
LINE
  5
   3DE
  8
0
  6
CONTINUOUS
 62
   130
 10
-352.799016795437
 20
-45.2446829442585
 30
0.0
 11
-352.799019160552
 21
-60.7447038022119
 31
0.0
  0
LINE
  5
   3DF
  8
0
  6
CONTINUOUS
 62
   130
 10
-350.779410149067
 20
-45.2446829442585
 30
0.0
 11
-350.779412514182
 21
-60.7447041103793
 31
0.0
  0
LINE
  5
   3E0
  8
0
  6
CONTINUOUS
 62
   130
 10
-336.642163624482
 20
-45.2446829442585
 30
0.0
 11
-336.642165989597
 21
-60.7447062675515
 31
0.0
  0
LINE
  5
   3E1
  8
0
  6
CONTINUOUS
 62
   130
 10
-324.524523746265
 20
-45.2446829442585
 30
0.0
 11
-324.524526111381
 21
-60.7447081165563
 31
0.0
  0
LINE
  5
   3E2
  8
0
  6
CONTINUOUS
 62
   130
 10
-322.504917099896
 20
-45.2446829442585
 30
0.0
 11
-322.504919465012
 21
-60.7447084247237
 31
0.0
  0
LINE
  5
   3E3
  8
0
  6
CONTINUOUS
 62
   130
 10
-320.485310453527
 20
-45.2446829442585
 30
0.0
 11
-320.485312818642
 21
-60.7447087328912
 31
0.0
  0
LINE
  5
   3E4
  8
0
  6
CONTINUOUS
 62
   130
 10
-318.465703807157
 20
-45.2446829442585
 30
0.0
 11
-318.465706172273
 21
-60.7447090410587
 31
0.0
  0
LINE
  5
   3E5
  8
0
  6
CONTINUOUS
 62
   130
 10
-316.446097160788
 20
-45.2446829442585
 30
0.0
 11
-316.446099525904
 21
-60.7447093492261
 31
0.0
  0
LINE
  5
   3E6
  8
0
  6
CONTINUOUS
 62
   130
 10
-314.426490514418
 20
-45.2446829442585
 30
0.0
 11
-314.426492879534
 21
-60.7447096573936
 31
0.0
  0
LINE
  5
   3E7
  8
0
  6
CONTINUOUS
 62
   130
 10
-312.406883868049
 20
-45.2446829442585
 30
0.0
 11
-312.406886233165
 21
-60.744709965561
 31
0.0
  0
LINE
  5
   3E8
  8
0
  6
DASHDOT
 62
   130
 10
-349.387207753009
 20
40.1179467857077
 30
0.0
 11
-349.387207753009
 21
-64.5169687943305
 31
0.0
  0
LINE
  5
   3E9
  8
0
  6
CONTINUOUS
 62
   130
 10
-352.799016795437
 20
-45.2446829442585
 30
0.0
 11
-352.799019160552
 21
-60.7447038022119
 31
0.0
  0
LINE
  5
   3EA
  8
0
  6
CONTINUOUS
 62
   130
 10
-350.779410149067
 20
-45.2446829442585
 30
0.0
 11
-350.77941189216
 21
-56.6682150843207
 31
0.0
  0
LINE
  5
   3EB
  8
0
  6
CONTINUOUS
 62
   130
 10
-348.759803502698
 20
-45.2446829442585
 30
0.0
 11
-348.759805867813
 21
-60.7447044185468
 31
0.0
  0
LINE
  5
   3EC
  8
0
  6
CONTINUOUS
 62
   130
 10
-346.740196856328
 20
-45.2446829442585
 30
0.0
 11
-346.740199221444
 21
-60.7447047267142
 31
0.0
  0
LINE
  5
   3ED
  8
0
  6
CONTINUOUS
 62
   130
 10
-344.720590209959
 20
-45.2446829442585
 30
0.0
 11
-344.720592575074
 21
-60.7447050348817
 31
0.0
  0
LINE
  5
   3EE
  8
0
  6
CONTINUOUS
 62
   130
 10
-342.70098356359
 20
-45.2446829442585
 30
0.0
 11
-342.700985928705
 21
-60.7447053430492
 31
0.0
  0
LINE
  5
   3EF
  8
0
  6
CONTINUOUS
 62
   130
 10
-340.68137691722
 20
-45.2446829442585
 30
0.0
 11
-340.681379282336
 21
-60.7447056512166
 31
0.0
  0
LINE
  5
   3F0
  8
0
  6
CONTINUOUS
 62
   130
 10
-338.661770270851
 20
-45.2446829442585
 30
0.0
 11
-338.661772635966
 21
-60.7447059593841
 31
0.0
  0
LINE
  5
   3F1
  8
0
  6
CONTINUOUS
 62
   130
 10
-334.622556978112
 20
-45.2446829442585
 30
0.0
 11
-334.622559343228
 21
-60.744706575719
 31
0.0
  0
LINE
  5
   3F2
  8
0
  6
CONTINUOUS
 62
   130
 10
-332.602950331743
 20
-45.2446829442585
 30
0.0
 11
-332.602952696858
 21
-60.7447068838865
 31
0.0
  0
LINE
  5
   3F3
  8
0
  6
CONTINUOUS
 62
   130
 10
-330.583343685373
 20
-45.2446829442585
 30
0.0
 11
-330.583346050489
 21
-60.7447071920539
 31
0.0
  0
LINE
  5
   3F4
  8
0
  6
CONTINUOUS
 62
   130
 10
-328.563737039004
 20
-45.2446829442585
 30
0.0
 11
-328.56373940412
 21
-60.7447075002214
 31
0.0
  0
LINE
  5
   3F5
  8
0
  6
CONTINUOUS
 62
   130
 10
-326.544130392635
 20
-45.2446829442585
 30
0.0
 11
-326.54413275775
 21
-60.7447078083888
 31
0.0
  0
LINE
  5
   3F6
  8
0
  6
CONTINUOUS
 62
   130
 10
-322.504917099896
 20
-45.2446829442585
 30
0.0
 11
-322.504918908782
 21
-57.0994018158199
 31
0.0
  0
LINE
  5
   3F7
  8
0
  6
CONTINUOUS
 62
   130
 10
-320.485310453527
 20
-45.2446829442585
 30
0.0
 11
-320.485312818642
 21
-60.7447087328912
 31
0.0
  0
LINE
  5
   3F8
  8
0
  6
CONTINUOUS
 62
   130
 10
-318.465703807157
 20
-45.2446829442585
 30
0.0
 11
-318.465706172273
 21
-60.7447090410587
 31
0.0
  0
LINE
  5
   3F9
  8
0
  6
CONTINUOUS
 62
   130
 10
-316.446097160788
 20
-45.2446829442585
 30
0.0
 11
-316.446099525904
 21
-60.7447093492261
 31
0.0
  0
LINE
  5
   3FA
  8
0
  6
CONTINUOUS
 62
   130
 10
-314.426490514418
 20
-45.2446829442585
 30
0.0
 11
-314.426492879534
 21
-60.7447096573936
 31
0.0
  0
LINE
  5
   3FB
  8
0
  6
CONTINUOUS
 62
   130
 10
-312.406883868049
 20
-45.2446829442585
 30
0.0
 11
-312.406886233165
 21
-60.744709965561
 31
0.0
  0
LINE
  5
   3FC
  8
0
  6
DASHDOT
 62
   130
 10
-324.387207753009
 20
-52.0766951338894
 30
0.0
 11
-324.387207753009
 21
-69.6750917491487
 31
0.0
  0
LINE
  5
   3FD
  8
0
  6
DASHDOT
 62
   130
 10
-374.387207753009
 20
-54.203973845624
 30
0.0
 11
-374.387207753009
 21
-69.6750917491487
 31
0.0
  0
LINE
  5
   3FE
  8
0
  6
DASHDOT
 62
   130
 10
-399.387207753009
 20
-50.3361943697428
 30
0.0
 11
-399.387207753009
 21
-68.9015358539725
 31
0.0
  0
CIRCLE
  5
   3FF
  8
0
  6
CONTINUOUS
 62
   130
 10
-324.387207753009
 20
-58.744694709776
 30
0.0
 40
2.5
  0
LINE
  5
   400
  8
0
  6
DASHDOT
 62
   130
 10
-324.387207753009
 20
-46.244694709776
 30
0.0
 11
-324.387207753009
 21
-71.244694709776
 31
0.0
  0
LINE
  5
   401
  8
0
  6
DASHDOT
 62
   130
 10
-336.887207753009
 20
-58.744694709776
 30
0.0
 11
-311.887207753009
 21
-58.744694709776
 31
0.0
  0
LINE
  5
   402
  8
0
  6
CONTINUOUS
 62
   130
 10
-326.836697495792
 20
-59.244694709776
 30
0.0
 11
-321.937718010225
 21
-59.244694709776
 31
0.0
  0
LINE
  5
   403
  8
0
  6
CONTINUOUS
 62
   130
 10
-326.836697495792
 20
-58.244694709776
 30
0.0
 11
-321.937718010225
 21
-58.244694709776
 31
0.0
  0
LINE
  5
   404
  8
0
  6
DOT
 62
   130
 10
-323.887207753009
 20
-56.2952049669928
 30
0.0
 11
-323.887207753009
 21
-61.1941844525592
 31
0.0
  0
LINE
  5
   405
  8
0
  6
DOT
 62
   130
 10
-324.887207753009
 20
-56.2952049669928
 30
0.0
 11
-324.887207753009
 21
-61.1941844525592
 31
0.0
  0
LINE
  5
   406
  8
0
  6
DASHDOT
 62
   130
 10
-349.387207753009
 20
-46.244694709776
 30
0.0
 11
-349.387207753009
 21
-71.244694709776
 31
0.0
  0
LINE
  5
   407
  8
0
  6
DASHDOT
 62
   130
 10
-361.887207753009
 20
-58.744694709776
 30
0.0
 11
-336.887207753009
 21
-58.744694709776
 31
0.0
  0
INSERT
  5
   408
  8
0
  6
CONTINUOUS
 62
     7
  2
*UDIM712
 10
0.0
 20
0.0
 30
0.0
  0
INSERT
  5
   409
  8
0
  6
CONTINUOUS
 62
     7
  2
*UDIM713
 10
0.0
 20
0.0
 30
0.0
  0
INSERT
  5
   40A
  8
0
  6
CONTINUOUS
 62
     3
  2
*UDIM714
 10
0.0
 20
0.0
 30
0.0
  0
TEXT
  5
   40B
  8
0
  6
CONTINUOUS
 62
     2
 10
-288.364571723119
 20
-13.305776809252
 30
0.0
 40
3.00000002980232
  1
X
 50
359.999999844103
 41
0.916666604744064
 11
-288.364571719045
 21
-11.8057767943508
 31
0.0
 73
     2
  0
LINE
  5
   40C
  8
0
  6
CONTINUOUS
 62
     7
 10
-353.970781544519
 20
-35.053561261331
 30
0.0
 11
-353.970781544519
 21
-60.7678301853882
 31
0.0
  0
LINE
  5
   40D
  8
0
  6
CONTINUOUS
 62
     7
 10
-309.839536228907
 20
-30.5361896935912
 30
0.0
 11
-303.468884017992
 21
-30.5361896935912
 31
0.0
  0
LINE
  5
   40E
  8
0
  6
CONTINUOUS
 62
   130
 10
-353.970781544519
 20
-43.7446912165033
 30
0.0
 11
-310.387272567749
 21
-43.7446912165033
 31
0.0
  0
LINE
  5
   40F
  8
0
  6
CONTINUOUS
 62
   130
 10
-353.970781544519
 20
-45.2446912165033
 30
0.0
 11
-310.387272796631
 21
-45.2446912165033
 31
0.0
  0
LINE
  5
   410
  8
0
  6
CONTINUOUS
 62
   130
 10
-411.367611752606
 20
-59.7442474365234
 30
0.0
 11
-411.367611905262
 21
-60.7446948653556
 31
0.0
  0
LINE
  5
   411
  8
0
  6
CONTINUOUS
 62
   130
 10
-409.348005106237
 20
-59.7442474365234
 30
0.0
 11
-409.348005258893
 21
-60.744695173523
 31
0.0
  0
LINE
  5
   412
  8
0
  6
CONTINUOUS
 62
   130
 10
-407.328398459867
 20
-59.7442474365234
 30
0.0
 11
-407.328398612524
 21
-60.7446954816905
 31
0.0
  0
LINE
  5
   413
  8
0
  6
CONTINUOUS
 62
   130
 10
-405.308791813498
 20
-59.7442474365234
 30
0.0
 11
-405.308791966154
 21
-60.744695789858
 31
0.0
  0
LINE
  5
   414
  8
0
  6
CONTINUOUS
 62
   130
 10
-403.289185167129
 20
-59.7442474365234
 30
0.0
 11
-403.289185319785
 21
-60.7446960980254
 31
0.0
  0
LINE
  5
   415
  8
0
  6
CONTINUOUS
 62
   130
 10
-401.269578520759
 20
-59.7442474365234
 30
0.0
 11
-401.269578673416
 21
-60.7446964061929
 31
0.0
  0
LINE
  5
   416
  8
0
  6
CONTINUOUS
 62
   130
 10
-411.367611752606
 20
-59.7442474365234
 30
0.0
 11
-411.367611905262
 21
-60.7446948653556
 31
0.0
  0
LINE
  5
   417
  8
0
  6
CONTINUOUS
 62
   130
 10
-409.348005106237
 20
-59.7442474365234
 30
0.0
 11
-409.348005258893
 21
-60.744695173523
 31
0.0
  0
LINE
  5
   418
  8
0
  6
CONTINUOUS
 62
   130
 10
-407.328398459867
 20
-59.7442474365234
 30
0.0
 11
-407.328398612524
 21
-60.7446954816905
 31
0.0
  0
LINE
  5
   419
  8
0
  6
CONTINUOUS
 62
   130
 10
-405.308791813498
 20
-59.7442474365234
 30
0.0
 11
-405.308791966154
 21
-60.744695789858
 31
0.0
  0
LINE
  5
   41A
  8
0
  6
CONTINUOUS
 62
   130
 10
-403.289185167129
 20
-59.7442474365234
 30
0.0
 11
-403.289185319785
 21
-60.7446960980254
 31
0.0
  0
LINE
  5
   41B
  8
0
  6
CONTINUOUS
 62
   130
 10
-401.269578520759
 20
-59.7442474365234
 30
0.0
 11
-401.269578673416
 21
-60.7446964061929
 31
0.0
  0
LINE
  5
   41C
  8
0
  6
CONTINUOUS
 62
   130
 10
-413.387200088571
 20
-59.7442474365234
 30
0.0
 11
-413.387199935915
 21
-60.7446948623639
 31
0.0
  0
LINE
  5
   41D
  8
0
  6
CONTINUOUS
 62
   130
 10
-399.24997187439
 20
-59.7442474365234
 30
0.0
 11
-399.249972027046
 21
-60.7446967143603
 31
0.0
  0
LINE
  5
   41E
  8
0
  6
CONTINUOUS
 62
   130
 10
-397.230365228021
 20
-59.7442474365234
 30
0.0
 11
-397.230365380677
 21
-60.7446970225278
 31
0.0
  0
LINE
  5
   41F
  8
0
  6
CONTINUOUS
 62
   130
 10
-395.210758581651
 20
-59.7442474365234
 30
0.0
 11
-395.210758734308
 21
-60.7446973306953
 31
0.0
  0
LINE
  5
   420
  8
0
  6
CONTINUOUS
 62
   130
 10
-393.191151935282
 20
-59.7442474365234
 30
0.0
 11
-393.191152087938
 21
-60.7446976388627
 31
0.0
  0
LINE
  5
   421
  8
0
  6
CONTINUOUS
 62
   130
 10
-391.171545288912
 20
-59.7442474365235
 30
0.0
 11
-391.171545441569
 21
-60.7446979470302
 31
0.0
  0
LINE
  5
   422
  8
0
  6
CONTINUOUS
 62
   130
 10
-389.151938642543
 20
-59.7442474365234
 30
0.0
 11
-389.1519387952
 21
-60.7446982551976
 31
0.0
  0
LINE
  5
   423
  8
0
  6
CONTINUOUS
 62
   130
 10
-387.132331996174
 20
-59.7442474365234
 30
0.0
 11
-387.13233214883
 21
-60.7446985633651
 31
0.0
  0
LINE
  5
   424
  8
0
  6
CONTINUOUS
 62
   130
 10
-385.112725349804
 20
-59.7442474365234
 30
0.0
 11
-385.112725502461
 21
-60.7446988715326
 31
0.0
  0
LINE
  5
   425
  8
0
  6
CONTINUOUS
 62
   130
 10
-383.093118703435
 20
-59.7442474365235
 30
0.0
 11
-383.093118856092
 21
-60.7446991797
 31
0.0
  0
LINE
  5
   426
  8
0
  6
CONTINUOUS
 62
   130
 10
-381.073512057065
 20
-59.7442474365234
 30
0.0
 11
-381.073512209722
 21
-60.7446994878675
 31
0.0
  0
LINE
  5
   427
  8
0
  6
CONTINUOUS
 62
   130
 10
-379.053905410696
 20
-59.7442474365234
 30
0.0
 11
-379.053905563353
 21
-60.7446997960349
 31
0.0
  0
LINE
  5
   428
  8
0
  6
CONTINUOUS
 62
   130
 10
-377.034298764327
 20
-59.7442474365234
 30
0.0
 11
-377.034298916984
 21
-60.7447001042024
 31
0.0
  0
LINE
  5
   429
  8
0
  6
CONTINUOUS
 62
   130
 10
-375.014692117957
 20
-59.7442474365234
 30
0.0
 11
-375.014692270614
 21
-60.7447004123698
 31
0.0
  0
LINE
  5
   42A
  8
0
  6
CONTINUOUS
 62
   130
 10
-399.24997187439
 20
-59.7442474365234
 30
0.0
 11
-399.249972027046
 21
-60.7446967143603
 31
0.0
  0
LINE
  5
   42B
  8
0
  6
CONTINUOUS
 62
   130
 10
-397.23036522802
 20
-59.7442474365234
 30
0.0
 11
-397.230365380677
 21
-60.7446970225278
 31
0.0
  0
LINE
  5
   42C
  8
0
  6
CONTINUOUS
 62
   130
 10
-395.210758581651
 20
-59.7442474365234
 30
0.0
 11
-395.210758734308
 21
-60.7446973306953
 31
0.0
  0
LINE
  5
   42D
  8
0
  6
CONTINUOUS
 62
   130
 10
-393.191151935282
 20
-59.7442474365234
 30
0.0
 11
-393.191152087938
 21
-60.7446976388627
 31
0.0
  0
LINE
  5
   42E
  8
0
  6
CONTINUOUS
 62
   130
 10
-391.171545288912
 20
-59.7442474365235
 30
0.0
 11
-391.171545441569
 21
-60.7446979470302
 31
0.0
  0
LINE
  5
   42F
  8
0
  6
CONTINUOUS
 62
   130
 10
-389.151938642543
 20
-59.7442474365234
 30
0.0
 11
-389.1519387952
 21
-60.7446982551976
 31
0.0
  0
LINE
  5
   430
  8
0
  6
CONTINUOUS
 62
   130
 10
-387.132331996174
 20
-59.7442474365234
 30
0.0
 11
-387.13233214883
 21
-60.7446985633651
 31
0.0
  0
LINE
  5
   431
  8
0
  6
CONTINUOUS
 62
   130
 10
-385.112725349804
 20
-59.7442474365234
 30
0.0
 11
-385.112725502461
 21
-60.7446988715326
 31
0.0
  0
LINE
  5
   432
  8
0
  6
CONTINUOUS
 62
   130
 10
-383.093118703435
 20
-59.7442474365235
 30
0.0
 11
-383.093118856092
 21
-60.7446991797
 31
0.0
  0
LINE
  5
   433
  8
0
  6
CONTINUOUS
 62
   130
 10
-381.073512057065
 20
-59.7442474365234
 30
0.0
 11
-381.073512209722
 21
-60.7446994878675
 31
0.0
  0
LINE
  5
   434
  8
0
  6
CONTINUOUS
 62
   130
 10
-379.053905410696
 20
-59.7442474365234
 30
0.0
 11
-379.053905563353
 21
-60.7446997960349
 31
0.0
  0
LINE
  5
   435
  8
0
  6
CONTINUOUS
 62
   130
 10
-377.034298764327
 20
-59.7442474365234
 30
0.0
 11
-377.034298916984
 21
-60.7447001042024
 31
0.0
  0
LINE
  5
   436
  8
0
  6
CONTINUOUS
 62
   130
 10
-375.014692117957
 20
-59.7442474365234
 30
0.0
 11
-375.014692270614
 21
-60.7447004123698
 31
0.0
  0
LINE
  5
   437
  8
0
  6
CONTINUOUS
 62
   130
 10
-372.995085471588
 20
-59.7442474365234
 30
0.0
 11
-372.995085624245
 21
-60.7447007205373
 31
0.0
  0
LINE
  5
   438
  8
0
  6
CONTINUOUS
 62
   130
 10
-370.975478825219
 20
-59.7442474365234
 30
0.0
 11
-370.975478977876
 21
-60.7447010287048
 31
0.0
  0
LINE
  5
   439
  8
0
  6
CONTINUOUS
 62
   130
 10
-368.955872178849
 20
-59.7442474365235
 30
0.0
 11
-368.955872331506
 21
-60.7447013368722
 31
0.0
  0
LINE
  5
   43A
  8
0
  6
CONTINUOUS
 62
   130
 10
-366.93626553248
 20
-59.7442474365234
 30
0.0
 11
-366.936265685137
 21
-60.7447016450397
 31
0.0
  0
LINE
  5
   43B
  8
0
  6
CONTINUOUS
 62
   130
 10
-364.916658886111
 20
-59.7442474365234
 30
0.0
 11
-364.916659038768
 21
-60.7447019532071
 31
0.0
  0
LINE
  5
   43C
  8
0
  6
CONTINUOUS
 62
   130
 10
-362.897052239741
 20
-59.7442474365234
 30
0.0
 11
-362.897052392398
 21
-60.7447022613746
 31
0.0
  0
LINE
  5
   43D
  8
0
  6
CONTINUOUS
 62
   130
 10
-360.877445593372
 20
-59.7442474365234
 30
0.0
 11
-360.877445746029
 21
-60.744702569542
 31
0.0
  0
LINE
  5
   43E
  8
0
  6
CONTINUOUS
 62
   130
 10
-358.857838947002
 20
-59.7442474365234
 30
0.0
 11
-358.85783909966
 21
-60.7447028777095
 31
0.0
  0
LINE
  5
   43F
  8
0
  6
CONTINUOUS
 62
   130
 10
-356.838232300633
 20
-59.7442474365234
 30
0.0
 11
-356.83823245329
 21
-60.7447031858769
 31
0.0
  0
LINE
  5
   440
  8
0
  6
CONTINUOUS
 62
   130
 10
-354.818625654264
 20
-59.7442474365234
 30
0.0
 11
-354.818625806921
 21
-60.7447034940444
 31
0.0
  0
LINE
  5
   441
  8
0
  6
CONTINUOUS
 62
   130
 10
-372.995085471588
 20
-59.7442474365234
 30
0.0
 11
-372.995085624245
 21
-60.7447007205373
 31
0.0
  0
LINE
  5
   442
  8
0
  6
CONTINUOUS
 62
   130
 10
-370.975478825219
 20
-59.7442474365234
 30
0.0
 11
-370.975478977876
 21
-60.7447010287048
 31
0.0
  0
LINE
  5
   443
  8
0
  6
CONTINUOUS
 62
   130
 10
-368.955872178849
 20
-59.7442474365235
 30
0.0
 11
-368.955872331506
 21
-60.7447013368722
 31
0.0
  0
LINE
  5
   444
  8
0
  6
CONTINUOUS
 62
   130
 10
-366.93626553248
 20
-59.7442474365234
 30
0.0
 11
-366.936265685137
 21
-60.7447016450397
 31
0.0
  0
LINE
  5
   445
  8
0
  6
CONTINUOUS
 62
   130
 10
-364.916658886111
 20
-59.7442474365234
 30
0.0
 11
-364.916659038768
 21
-60.7447019532071
 31
0.0
  0
LINE
  5
   446
  8
0
  6
CONTINUOUS
 62
   130
 10
-362.897052239741
 20
-59.7442474365234
 30
0.0
 11
-362.897052392398
 21
-60.7447022613746
 31
0.0
  0
LINE
  5
   447
  8
0
  6
CONTINUOUS
 62
   130
 10
-360.877445593372
 20
-59.7442474365234
 30
0.0
 11
-360.877445746029
 21
-60.744702569542
 31
0.0
  0
LINE
  5
   448
  8
0
  6
CONTINUOUS
 62
   130
 10
-358.857838947002
 20
-59.7442474365234
 30
0.0
 11
-358.85783909966
 21
-60.7447028777095
 31
0.0
  0
LINE
  5
   449
  8
0
  6
CONTINUOUS
 62
   130
 10
-356.838232300633
 20
-59.7442474365234
 30
0.0
 11
-356.83823245329
 21
-60.7447031858769
 31
0.0
  0
LINE
  5
   44A
  8
0
  6
CONTINUOUS
 62
   130
 10
-354.818625654264
 20
-59.7442474365234
 30
0.0
 11
-354.818625806921
 21
-60.7447034940444
 31
0.0
  0
LINE
  5
   44B
  8
0
  6
CONTINUOUS
 62
   130
 10
-310.387264022761
 20
12.2557525634766
 30
0.0
 11
-310.387275161743
 21
-60.7446948623639
 31
0.0
  0
LINE
  5
   44C
  8
0
  6
CONTINUOUS
 62
   130
 10
-413.387211074897
 20
12.2557525634766
 30
0.0
 11
-413.38720375068
 21
-35.7442474365234
 31
0.0
  0
LINE
  5
   44D
  8
0
  6
CONTINUOUS
 62
   130
 10
-389.687264022762
 20
12.2557525634766
 30
0.0
 11
-389.687271346979
 21
-35.7442474365234
 31
0.0
  0
LINE
  5
   44E
  8
0
  6
CONTINUOUS
 62
   130
 10
-390.187264022762
 20
12.2557525634766
 30
0.0
 11
-390.187271346979
 21
-35.7442474365234
 31
0.0
  0
LINE
  5
   44F
  8
0
  6
CONTINUOUS
 62
   130
 10
-391.487264022762
 20
12.2557525634766
 30
0.0
 11
-391.487271346979
 21
-35.7442474365234
 31
0.0
  0
LINE
  5
   450
  8
0
  6
CONTINUOUS
 62
   130
 10
-391.987264022762
 20
12.2557525634766
 30
0.0
 11
-391.987271346979
 21
-35.7442474365234
 31
0.0
  0
LINE
  5
   451
  8
0
  6
CONTINUOUS
 62
   130
 10
-393.287264022762
 20
12.2557525634766
 30
0.0
 11
-393.287271346979
 21
-35.7442474365234
 31
0.0
  0
LINE
  5
   452
  8
0
  6
CONTINUOUS
 62
   130
 10
-393.787264022762
 20
12.2557525634766
 30
0.0
 11
-393.787271346979
 21
-35.7442474365234
 31
0.0
  0
LINE
  5
   453
  8
0
  6
CONTINUOUS
 62
   130
 10
-395.087264022762
 20
12.2557525634766
 30
0.0
 11
-395.087271346979
 21
-35.7442474365234
 31
0.0
  0
LINE
  5
   454
  8
0
  6
CONTINUOUS
 62
   130
 10
-395.587264022762
 20
12.2557525634766
 30
0.0
 11
-395.587271346979
 21
-35.7442474365234
 31
0.0
  0
LINE
  5
   455
  8
0
  6
CONTINUOUS
 62
   130
 10
-396.887264022762
 20
12.2557525634766
 30
0.0
 11
-396.887271346979
 21
-35.7442474365234
 31
0.0
  0
LINE
  5
   456
  8
0
  6
CONTINUOUS
 62
   130
 10
-397.387264022762
 20
12.2557525634766
 30
0.0
 11
-397.387271346979
 21
-35.7442474365234
 31
0.0
  0
LINE
  5
   457
  8
0
  6
CONTINUOUS
 62
   130
 10
-398.687264022762
 20
12.2557525634766
 30
0.0
 11
-398.687271346979
 21
-35.7442474365234
 31
0.0
  0
LINE
  5
   458
  8
0
  6
CONTINUOUS
 62
   130
 10
-399.187264022762
 20
12.2557525634766
 30
0.0
 11
-399.187271346979
 21
-35.7442474365234
 31
0.0
  0
LINE
  5
   459
  8
0
  6
CONTINUOUS
 62
   130
 10
-400.487264022762
 20
12.2557525634766
 30
0.0
 11
-400.487271346979
 21
-35.7442474365234
 31
0.0
  0
LINE
  5
   45A
  8
0
  6
CONTINUOUS
 62
   130
 10
-400.987264022762
 20
12.2557525634766
 30
0.0
 11
-400.987271346979
 21
-35.7442474365234
 31
0.0
  0
LINE
  5
   45B
  8
0
  6
CONTINUOUS
 62
   130
 10
-402.287264022762
 20
12.2557525634766
 30
0.0
 11
-402.287271346979
 21
-35.7442474365234
 31
0.0
  0
LINE
  5
   45C
  8
0
  6
CONTINUOUS
 62
   130
 10
-402.787264022762
 20
12.2557525634766
 30
0.0
 11
-402.787271346979
 21
-35.7442474365234
 31
0.0
  0
LINE
  5
   45D
  8
0
  6
CONTINUOUS
 62
   130
 10
-404.587264022762
 20
12.2557525634766
 30
0.0
 11
-404.587271346979
 21
-35.7442474365234
 31
0.0
  0
LINE
  5
   45E
  8
0
  6
CONTINUOUS
 62
   130
 10
-404.087264022762
 20
12.2557525634766
 30
0.0
 11
-404.087271346979
 21
-35.7442474365234
 31
0.0
  0
LINE
  5
   45F
  8
0
  6
CONTINUOUS
 62
   130
 10
-405.887264022762
 20
12.2557525634766
 30
0.0
 11
-405.887271346979
 21
-35.7442474365234
 31
0.0
  0
LINE
  5
   460
  8
0
  6
CONTINUOUS
 62
   130
 10
-406.387264022762
 20
12.2557525634766
 30
0.0
 11
-406.387271346979
 21
-35.7442474365234
 31
0.0
  0
LINE
  5
   461
  8
0
  6
CONTINUOUS
 62
   130
 10
-407.687264022762
 20
12.2557525634766
 30
0.0
 11
-407.687271346979
 21
-35.7442474365234
 31
0.0
  0
LINE
  5
   462
  8
0
  6
CONTINUOUS
 62
   130
 10
-408.187264022762
 20
12.2557525634766
 30
0.0
 11
-408.187271346979
 21
-35.7442474365234
 31
0.0
  0
LINE
  5
   463
  8
0
  6
CONTINUOUS
 62
   130
 10
-409.487264022762
 20
12.2557525634766
 30
0.0
 11
-409.487271346979
 21
-35.7442474365234
 31
0.0
  0
LINE
  5
   464
  8
0
  6
CONTINUOUS
 62
   130
 10
-409.487264022762
 20
12.2557525634766
 30
0.0
 11
-409.487271346979
 21
-35.7442474365234
 31
0.0
  0
LINE
  5
   465
  8
0
  6
CONTINUOUS
 62
   130
 10
-409.987264022762
 20
12.2557525634766
 30
0.0
 11
-409.987271346979
 21
-35.7442474365234
 31
0.0
  0
LINE
  5
   466
  8
0
  6
CONTINUOUS
 62
   130
 10
-411.287264022762
 20
12.2557525634766
 30
0.0
 11
-411.287271346979
 21
-35.7442474365234
 31
0.0
  0
LINE
  5
   467
  8
0
  6
CONTINUOUS
 62
   130
 10
-411.787264022762
 20
12.2557525634766
 30
0.0
 11
-411.787271346979
 21
-35.7442474365234
 31
0.0
  0
INSERT
  5
   468
  8
0
  6
CONTINUOUS
 62
     3
  2
*UDIM715
 10
0.0
 20
0.0
 30
0.0
  0
INSERT
  5
   469
  8
0
  6
CONTINUOUS
 62
     3
  2
*UDIM716
 10
0.0
 20
0.0
 30
0.0
  0
INSERT
  5
   46A
  8
0
  6
CONTINUOUS
 62
     3
  2
*UDIM717
 10
0.0
 20
0.0
 30
0.0
  0
INSERT
  5
   46B
  8
0
  6
CONTINUOUS
 62
     3
  2
*UDIM718
 10
0.0
 20
0.0
 30
0.0
  0
INSERT
  5
   46C
  8
0
  6
CONTINUOUS
 62
     3
  2
*UDIM719
 10
0.0
 20
0.0
 30
0.0
  0
TEXT
  5
   46D
  8
0
  6
CONTINUOUS
 62
     2
 10
-425.364993457854
 20
-13.2741805638778
 30
0.0
 40
3.00000002980232
  1
X
 50
359.999999844103
 41
0.916666604744064
 72
     2
 11
-423.16499358491
 21
-11.7741805549516
 31
0.0
 73
     2
  0
TEXT
  5
   46E
  8
0
  6
CONTINUOUS
 62
     2
 10
-350.099072967073
 20
81.8167447924686
 30
0.0
 40
3.00000002980232
  1
Y
 50
359.999999844103
 41
0.916666604744064
 72
     1
 11
-348.999073028564
 21
83.3167448043823
 31
0.0
 73
     2
  0
TEXT
  5
   46F
  8
0
  6
CONTINUOUS
 62
     2
 10
-350.437966857454
 20
-72.1646967053341
 30
0.0
 40
3.00000002980232
  1
Y
 50
359.999999844103
 41
0.916666604744064
 72
     1
 11
-349.337966918945
 21
-70.6646966934204
 31
0.0
 73
     2
  0
LINE
  5
   470
  8
0
  6
DOT
 62
   130
 10
-399.887207753009
 20
61.7047797742193
 30
0.0
 11
-399.887207753009
 21
56.805800288653
 31
0.0
  0
LINE
  5
   471
  8
0
  6
DOT
 62
   130
 10
-398.887207753009
 20
61.7047797742193
 30
0.0
 11
-398.887207753009
 21
56.805800288653
 31
0.0
  0
LINE
  5
   472
  8
0
  6
CONTINUOUS
 62
   130
 10
-401.836697495792
 20
59.7552900314361
 30
0.0
 11
-396.937718010225
 21
59.7552900314361
 31
0.0
  0
LINE
  5
   473
  8
0
  6
CONTINUOUS
 62
   130
 10
-401.836697495792
 20
58.7552900314361
 30
0.0
 11
-396.937718010225
 21
58.7552900314361
 31
0.0
  0
CIRCLE
  5
   474
  8
0
  6
CONTINUOUS
 62
   130
 10
-399.387207753009
 20
59.2552900314361
 30
0.0
 40
2.5
  0
LINE
  5
   475
  8
0
  6
DOT
 62
   130
 10
-399.887207753009
 20
-59.7442474365234
 30
0.0
 11
-399.887207753009
 21
-61.1941844525592
 31
0.0
  0
LINE
  5
   476
  8
0
  6
DOT
 62
   130
 10
-398.887207753009
 20
-59.7442474365234
 30
0.0
 11
-398.887207753009
 21
-61.1941844525592
 31
0.0
  0
ARC
  5
   477
  8
0
  6
CONTINUOUS
 62
   130
 10
-399.387207753009
 20
-58.744694709776
 30
0.0
 40
2.5
 50
563.566994315765
 51
696.433005372442
  0
INSERT
  5
   478
  8
0
  6
CONTINUOUS
 62
     7
  2
*UDIM720
 10
0.0
 20
0.0
 30
0.0
  0
INSERT
  5
   479
  8
0
  6
CONTINUOUS
 62
     7
  2
*UDIM721
 10
0.0
 20
0.0
 30
0.0
  0
INSERT
  5
   47A
  8
0
  6
CONTINUOUS
 62
     7
  2
*UDIM722
 10
0.0
 20
0.0
 30
0.0
  0
LINE
  5
   47B
  8
0
  6
CONTINUOUS
 62
   130
 10
-363.037207692862
 20
-96.9287334184431
 30
0.0
 11
-363.037207692862
 21
-150.580229909751
 31
0.0
  0
LINE
  5
   47C
  8
0
  6
CONTINUOUS
 62
   130
 10
-335.737213498354
 20
-96.9287334184431
 30
0.0
 11
-335.737213498354
 21
-150.580229909751
 31
0.0
  0
CIRCLE
  5
   47D
  8
0
  6
CONTINUOUS
 62
   130
 10
-355.637207850814
 20
-98.7836788207292
 30
0.0
 40
0.559999990463257
  0
CIRCLE
  5
   47E
  8
0
  6
CONTINUOUS
 62
   130
 10
-343.137207999825
 20
-148.783667543531
 30
0.0
 40
0.559999990463257
  0
ARC
  5
   47F
  8
0
  6
CONTINUOUS
 62
   130
 10
-355.637207850814
 20
-98.7836788207292
 30
0.0
 40
0.699999988079071
 50
540.290583474834
 51
809.999999844103
  0
CIRCLE
  5
   480
  8
0
  6
CONTINUOUS
 62
   130
 10
-343.137207999825
 20
-148.783667543531
 30
0.0
 40
0.55514766872928
  0
ARC
  5
   481
  8
0
  6
CONTINUOUS
 62
   130
 10
-343.137207999825
 20
-148.783667543531
 30
0.0
 40
0.699999988079071
 50
449.999999844103
 51
719.712644462792
  0
LINE
  5
   482
  8
0
  6
DASHDOT
 62
   130
 10
-355.637207850814
 20
-94.5836788922548
 30
0.0
 11
-355.637207850814
 21
-102.983678749204
 31
0.0
  0
LINE
  5
   483
  8
0
  6
DASHDOT
 62
   130
 10
-361.087207779288
 20
-98.7836788207292
 30
0.0
 11
-352.687207922339
 21
-98.7836788207292
 31
0.0
  0
LINE
  5
   484
  8
0
  6
CONTINUOUS
 62
   130
 10
-343.137207999825
 20
-144.583667615056
 30
0.0
 11
-343.137207999825
 21
-152.983667472005
 31
0.0
  0
LINE
  5
   485
  8
0
  6
DASHDOT
 62
   130
 10
-350.4622079283
 20
-148.783667543531
 30
0.0
 11
-342.062208071351
 21
-148.783667543531
 31
0.0
  0
LINE
  5
   486
  8
0
  6
DASHDOT
 62
   130
 10
-349.387213265896
 20
-91.9065484054192
 30
0.0
 11
-349.387213265896
 21
-153.706138859085
 31
0.0
  0
LINE
  5
   487
  8
0
  6
CONTINUOUS
 62
   130
 10
-363.037207692862
 20
-96.9287334184431
 30
0.0
 11
-335.737213498354
 21
-96.9287334184431
 31
0.0
  0
LINE
  5
   488
  8
0
  6
CONTINUOUS
 62
   130
 10
-363.037207692862
 20
-150.580229909751
 30
0.0
 11
-335.737213498354
 21
-150.580229909751
 31
0.0
  0
LINE
  5
   489
  8
0
  6
DASHDOT
 62
   130
 10
-367.786532581822
 20
-129.783678820729
 30
0.0
 11
-328.563451616274
 21
-129.783678820729
 31
0.0
  0
INSERT
  5
   48A
  8
0
  6
CONTINUOUS
 62
     3
  2
*UDIM723
 10
0.0
 20
0.0
 30
0.0
  0
TEXT
  5
   48B
  8
0
  6
CONTINUOUS
 62
     2
 10
-391.624092368268
 20
-131.282586786438
 30
0.0
 40
3.00000002980232
  1
X
 50
359.999999844103
 41
0.916666674282816
 72
     2
 11
-389.424092286708
 21
-129.782586777512
 31
0.0
 73
     2
  0
TEXT
  5
   48C
  8
0
  6
CONTINUOUS
 62
     2
 10
-328.85064697673
 20
-131.437431692671
 30
0.0
 40
3.00000002980232
  1
X
 50
359.999999844103
 41
0.916666674282816
 11
-328.850646972656
 21
-129.93743167777
 31
0.0
 73
     2
  0
TEXT
  5
   48D
  8
0
  6
CONTINUOUS
 62
     2
 10
-350.495663646957
 20
-157.972572683882
 30
0.0
 40
3.00000002980232
  1
Y
 50
359.999999844103
 41
0.916666674282816
 11
-350.495663642883
 21
-156.472572668981
 31
0.0
 73
     2
  0
TEXT
  5
   48E
  8
0
  6
CONTINUOUS
 62
     2
 10
-350.448060546419
 20
-90.9433174252438
 30
0.0
 40
3.00000002980232
  1
Y
 50
359.999999844103
 41
0.916666604744064
 72
     1
 11
-349.34806060791
 21
-89.4433174133301
 31
0.0
 73
     2
  0
INSERT
  5
   48F
  8
0
  6
CONTINUOUS
 62
     3
  2
*UDIM724
 10
0.0
 20
0.0
 30
0.0
  0
INSERT
  5
   490
  8
0
  6
CONTINUOUS
 62
     7
  2
*UDIM725
 10
0.0
 20
0.0
 30
0.0
  0
INSERT
  5
   491
  8
0
  6
CONTINUOUS
 62
     3
  2
*UDIM726
 10
0.0
 20
0.0
 30
0.0
  0
LINE
  5
   492
  8
0
  6
DOT
 62
   130
 10
-223.018005943298
 20
48.7552962066853
 30
0.0
 11
-222.518005943298
 21
48.2552962066853
 31
0.0
  0
LINE
  5
   493
  8
0
  6
DOT
 62
   130
 10
-222.518005943298
 20
54.2552962066853
 30
0.0
 11
-222.518005943298
 21
48.2552962066853
 31
0.0
  0
LINE
  5
   494
  8
0
  6
DOT
 62
   130
 10
-208.518005943298
 20
54.2552962066852
 30
0.0
 11
-208.518005943298
 21
48.2552962066852
 31
0.0
  0
LINE
  5
   495
  8
0
  6
DOT
 62
   130
 10
-203.018005943298
 20
56.7970672747707
 30
0.0
 11
-203.018005943298
 21
45.7135251385998
 31
0.0
  0
LINE
  5
   496
  8
0
  6
DOT
 62
   130
 10
-222.518005943298
 20
48.2552962066853
 30
0.0
 11
-206.018005943298
 21
48.2552962066853
 31
0.0
  0
LINE
  5
   497
  8
0
  6
DOT
 62
   130
 10
-222.518005943298
 20
54.2552962066853
 30
0.0
 11
-206.018005943298
 21
54.2552962066853
 31
0.0
  0
ARC
  5
   498
  8
0
  6
DOT
 62
   130
 10
-213.418005943298
 20
51.2552962066853
 30
0.0
 40
12.0
 50
332.615940118948
 51
358.089786672393
  0
LINE
  5
   499
  8
0
  6
DOT
 62
   130
 10
-202.762685346258
 20
45.7358629953598
 30
0.0
 11
-206.018005943299
 21
45.4510568103229
 31
0.0
  0
LINE
  5
   49A
  8
0
  6
DOT
 62
   130
 10
-206.018005943298
 20
57.0595356030476
 30
0.0
 11
-202.762685346258
 21
56.7747294180108
 31
0.0
  0
LINE
  5
   49B
  8
0
  6
DOT
 62
   130
 10
-206.018005943298
 20
57.0595356030476
 30
0.0
 11
-206.018005943298
 21
45.4510568103229
 31
0.0
  0
LINE
  5
   49C
  8
0
  6
DOT
 62
   130
 10
-223.017993736266
 20
48.8687262066853
 30
0.0
 11
-208.518005943298
 21
48.8687262066853
 31
0.0
  0
LINE
  5
   49D
  8
0
  6
DOT
 62
   130
 10
-223.017993736266
 20
53.6418662066853
 30
0.0
 11
-208.518005943298
 21
53.6418662066853
 31
0.0
  0
LINE
  5
   49E
  8
0
  6
DOT
 62
   130
 10
-202.218005943298
 20
51.6552962066853
 30
0.0
 11
-202.218005943298
 21
50.8552962066852
 31
0.0
  0
LINE
  5
   49F
  8
0
  6
DOT
 62
   130
 10
-202.218005943298
 20
50.8552962066853
 30
0.0
 11
-201.424674462846
 21
50.8552962066853
 31
0.0
  0
LINE
  5
   4A0
  8
0
  6
DOT
 62
   130
 10
-202.218005943298
 20
51.6552962066853
 30
0.0
 11
-201.424674462846
 21
51.6552962066853
 31
0.0
  0
ARC
  5
   4A1
  8
0
  6
DOT
 62
   130
 10
-213.418005943298
 20
51.2552962066853
 30
0.0
 40
12.0
 50
361.910213015813
 51
387.384059569259
  0
LINE
  5
   4A2
  8
0
  6
DOT
 62
   130
 10
-238.518005943298
 20
45.255292892449
 30
0.0
 11
-226.018005347252
 21
45.255292892449
 31
0.0
  0
LINE
  5
   4A3
  8
0
  6
CONTINUOUS
 62
   130
 10
-251.017991574605
 20
62.2553081512451
 30
0.0
 11
-251.017991574605
 21
38.7553081512451
 31
0.0
  0
LINE
  5
   4A4
  8
0
  6
CONTINUOUS
 62
   130
 10
-225.502830505371
 20
-44.2446765899658
 30
0.0
 11
-225.502830505371
 21
-55.7188106413783
 31
0.0
  0
LINE
  5
   4A5
  8
0
  6
CONTINUOUS
 62
   130
 10
-223.502830505371
 20
-44.2446765899658
 30
0.0
 11
-223.502830505371
 21
-56.7446918487549
 31
0.0
  0
LINE
  5
   4A6
  8
0
  6
CONTINUOUS
 62
   130
 10
-225.502830505371
 20
-55.7188106413783
 30
0.0
 11
-223.502830505371
 21
-55.7188106413783
 31
0.0
  0
LINE
  5
   4A7
  8
0
  6
DASHDOT
 62
   130
 10
-227.548252486331
 20
51.2552962066853
 30
0.0
 11
-202.517241009198
 21
51.2552962066853
 31
0.0
  0
LINE
  5
   4A8
  8
0
  6
DASHDOT
 62
   130
 10
-225.162828447043
 20
-50.7446765899541
 30
0.0
 11
-201.926075490611
 21
-50.7446765899541
 31
0.0
  0
LINE
  5
   4A9
  8
0
  6
CONTINUOUS
 62
   130
 10
-176.018005132675
 20
-18.068698281979
 30
0.0
 11
-160.653272650533
 21
-22.7116588349192
 31
0.0
  0
LINE
  5
   4AA
  8
0
  6
CONTINUOUS
 62
   130
 10
-160.653272650533
 20
-22.7116588349192
 30
0.0
 11
-160.484243415183
 21
-23.0089520782989
 31
0.0
  0
LINE
  5
   4AB
  8
0
  6
CONTINUOUS
 62
   130
 10
-160.484222784978
 20
-23.0089647031977
 30
0.0
 11
-160.481697188545
 21
-23.2597050834824
 31
0.0
  0
LINE
  5
   4AC
  8
0
  6
CONTINUOUS
 62
   130
 10
-160.481706449579
 20
-23.259696710031
 30
0.0
 11
-161.210629591837
 21
-26.1949636241626
 31
0.0
  0
LINE
  5
   4AD
  8
0
  6
CONTINUOUS
 62
   130
 10
-161.210623428653
 20
-26.1949587873533
 30
0.0
 11
-161.335886883315
 21
-26.4214454606467
 31
0.0
  0
LINE
  5
   4AE
  8
0
  6
CONTINUOUS
 62
   130
 10
-161.335880473073
 20
-26.4214533467943
 30
0.0
 11
-161.55760720531
 21
-26.5549636705165
 31
0.0
  0
LINE
  5
   4AF
  8
0
  6
CONTINUOUS
 62
   130
 10
-161.557584039221
 20
-26.5549636858046
 30
0.0
 11
-161.816359337894
 21
-26.5597244895309
 31
0.0
  0
LINE
  5
   4B0
  8
0
  6
CONTINUOUS
 62
   130
 10
-176.018005132675
 20
-23.0330709267229
 30
0.0
 11
-161.816384960944
 21
-26.559723399031
 31
0.0
  0
LINE
  5
   4B1
  8
0
  6
DOT
 62
   130
 10
-219.018005943298
 20
57.2552962066853
 30
0.0
 11
-219.018005943298
 21
54.2552962066853
 31
0.0
  0
LINE
  5
   4B2
  8
0
  6
DOT
 62
   130
 10
-236.518005943298
 20
57.2552962066853
 30
0.0
 11
-236.518005943298
 21
45.2552962066853
 31
0.0
  0
LINE
  5
   4B3
  8
0
  6
DOT
 62
   130
 10
-238.518005943298
 20
57.2552962066853
 30
0.0
 11
-238.518005943298
 21
45.2552962066853
 31
0.0
  0
LINE
  5
   4B4
  8
0
  6
DOT
 62
   130
 10
-238.518005943298
 20
57.2552962066853
 30
0.0
 11
-219.018005943298
 21
57.2552962066853
 31
0.0
  0
LINE
  5
   4B5
  8
0
  6
DOT
 62
   130
 10
-223.018005943298
 20
45.2552962066853
 30
0.0
 11
-219.018005943298
 21
45.2552962066853
 31
0.0
  0
LINE
  5
   4B6
  8
0
  6
DOT
 62
   130
 10
-222.518005943298
 20
54.2552962066853
 30
0.0
 11
-223.018005943298
 21
53.7552962066853
 31
0.0
  0
LINE
  5
   4B7
  8
0
  6
DOT
 62
   130
 10
-208.518005943298
 20
54.2552962066853
 30
0.0
 11
-208.518005943298
 21
48.2552962066853
 31
0.0
  0
LINE
  5
   4B8
  8
0
  6
DOT
 62
   130
 10
-219.018005943298
 20
48.2552962066853
 30
0.0
 11
-219.018005943298
 21
45.2552962066853
 31
0.0
  0
LINE
  5
   4B9
  8
0
  6
CONTINUOUS
 62
   130
 10
-219.502830505371
 20
-44.7446918487549
 30
0.0
 11
-219.502830505371
 21
-47.744679904195
 31
0.0
  0
LINE
  5
   4BA
  8
0
  6
CONTINUOUS
 62
   130
 10
-237.002830505371
 20
-44.7446918487549
 30
0.0
 11
-237.002830505371
 21
-56.7446918487549
 31
0.0
  0
LINE
  5
   4BB
  8
0
  6
CONTINUOUS
 62
   130
 10
-239.002830505371
 20
-44.7446918487549
 30
0.0
 11
-239.002830505371
 21
-56.7446918487549
 31
0.0
  0
LINE
  5
   4BC
  8
0
  6
CONTINUOUS
 62
   130
 10
-239.002830505371
 20
-44.7446918487549
 30
0.0
 11
-223.502830505371
 21
-44.7446918487549
 31
0.0
  0
LINE
  5
   4BD
  8
0
  6
CONTINUOUS
 62
   130
 10
-239.002830505371
 20
-56.7446918487549
 30
0.0
 11
-219.502830505371
 21
-56.7446918487549
 31
0.0
  0
LINE
  5
   4BE
  8
0
  6
CONTINUOUS
 62
   130
 10
-223.502830505371
 20
-44.7446918487549
 30
0.0
 11
-219.502830505371
 21
-44.7446918487549
 31
0.0
  0
LINE
  5
   4BF
  8
0
  6
CONTINUOUS
 62
   130
 10
-251.017991574605
 20
-18.9446918487549
 30
0.0
 11
-251.017991574605
 21
-61.7446918487549
 31
0.0
  0
INSERT
  5
   4C0
  8
0
  6
CONTINUOUS
 62
     3
  2
*HATCH286
 10
-127.770599365234
 20
-14.2446918487549
 30
0.0
 50
269.999999844103
  0
LINE
  5
   4C1
  8
0
  6
DOT
 62
   130
 10
-226.017993140219
 20
56.505291506992
 30
0.0
 11
-226.017993140219
 21
44.8053005218506
 31
0.0
  0
LINE
  5
   4C2
  8
0
  6
DOT
 62
   130
 10
-223.017993736266
 20
56.5052852630615
 30
0.0
 11
-223.017993736266
 21
44.3053005218506
 31
0.0
  0
LINE
  5
   4C3
  8
0
  6
DOT
 62
   130
 10
-226.017993139507
 20
56.5052984428086
 30
0.0
 11
-223.01799373574
 21
56.505277635363
 31
0.0
  0
LINE
  5
   4C4
  8
0
  6
CONTINUOUS
 62
   130
 10
-252.218007087708
 20
43.755296826479
 30
0.0
 11
-251.017992019653
 21
43.755296826479
 31
0.0
  0
LINE
  5
   4C5
  8
0
  6
CONTINUOUS
 62
   130
 10
-252.218007087708
 20
55.255296826479
 30
0.0
 11
-251.017992019653
 21
55.255296826479
 31
0.0
  0
LINE
  5
   4C6
  8
0
  6
CONTINUOUS
 62
   130
 10
-252.218007087708
 20
-56.7446917294292
 30
0.0
 11
-251.017992019653
 21
-56.7446917294292
 31
0.0
  0
LINE
  5
   4C7
  8
0
  6
DOT
 62
   130
 10
-251.285941243172
 20
11.755296826479
 30
0.0
 11
-251.017992019653
 21
11.755296826479
 31
0.0
  0
LINE
  5
   4C8
  8
0
  6
CONTINUOUS
 62
   130
 10
-252.218007087708
 20
55.255296826479
 30
0.0
 11
-252.218007087708
 21
33.4552189513803
 31
0.0
  0
LINE
  5
   4C9
  8
0
  6
CONTINUOUS
 62
   130
 10
-252.218007087708
 20
-36.2446726559429
 30
0.0
 11
-252.218007087708
 21
-56.7446879147319
 31
0.0
  0
LINE
  5
   4CA
  8
0
  6
CONTINUOUS
 62
   130
 10
-251.017992019653
 20
55.2552930117818
 30
0.0
 11
-251.017992019653
 21
-56.7446917294292
 31
0.0
  0
LINE
  5
   4CB
  8
0
  6
CONTINUOUS
 62
   130
 10
-253.418022727966
 20
32.4552785159322
 30
0.0
 11
-253.218007087708
 21
32.4552785159322
 31
0.0
  0
LINE
  5
   4CC
  8
0
  6
CONTINUOUS
 62
   130
 10
-253.418022727966
 20
31.255296826479
 30
0.0
 11
-253.218007278442
 21
31.255296826479
 31
0.0
  0
LINE
  5
   4CD
  8
0
  6
CONTINUOUS
 62
   130
 10
-259.018006324768
 20
32.4552785159322
 30
0.0
 11
-259.018006324768
 21
31.255296826479
 31
0.0
  0
LINE
  5
   4CE
  8
0
  6
CONTINUOUS
 62
   130
 10
-259.018006324768
 20
11.255296826479
 30
0.0
 11
-259.018006324768
 21
10.0552998782368
 31
0.0
  0
LINE
  5
   4CF
  8
0
  6
CONTINUOUS
 62
   130
 10
-259.018006324768
 20
-27.744703173521
 30
0.0
 11
-259.018006324768
 21
-32.744703173521
 31
0.0
  0
LINE
  5
   4D0
  8
0
  6
CONTINUOUS
 62
   130
 10
-259.018006324768
 20
-27.744703173521
 30
0.0
 11
-255.687864303589
 21
-27.744703173521
 31
0.0
  0
LINE
  5
   4D1
  8
0
  6
CONTINUOUS
 62
   130
 10
-255.687893745699
 20
-27.7447054558945
 30
0.0
 11
-255.018021207954
 21
-30.2447029374644
 31
0.0
  0
LINE
  5
   4D2
  8
0
  6
CONTINUOUS
 62
   130
 10
-255.018006324768
 20
-30.244703173521
 30
0.0
 11
-254.018006324768
 21
-30.244703173521
 31
0.0
  0
LINE
  5
   4D3
  8
0
  6
CONTINUOUS
 62
   130
 10
-254.018006324768
 20
5.25529682647903
 30
0.0
 11
-254.018006324768
 21
-30.244703173521
 31
0.0
  0
LINE
  5
   4D4
  8
0
  6
CONTINUOUS
 62
   130
 10
-255.018006324768
 20
5.25529682647903
 30
0.0
 11
-254.018006324768
 21
5.25529682647903
 31
0.0
  0
LINE
  5
   4D5
  8
0
  6
CONTINUOUS
 62
   130
 10
-259.018021921162
 20
6.32711325670601
 30
0.0
 11
-256.027390484367
 21
5.52576783846676
 31
0.0
  0
LINE
  5
   4D6
  8
0
  6
CONTINUOUS
 62
   130
 10
-259.018006324768
 20
8.25529682647903
 30
0.0
 11
-259.018006324768
 21
6.32710468780715
 31
0.0
  0
LINE
  5
   4D7
  8
0
  6
DOT
 62
   130
 10
-252.218007087708
 20
11.755296826479
 30
0.0
 11
-251.285941183567
 21
11.755296826479
 31
0.0
  0
LINE
  5
   4D8
  8
0
  6
CONTINUOUS
 62
   130
 10
-255.517992019653
 20
-36.2446926831035
 30
0.0
 11
-251.017992019653
 21
-36.2446926831035
 31
0.0
  0
LINE
  5
   4D9
  8
0
  6
CONTINUOUS
 62
   130
 10
-254.617976760864
 20
59.755296826479
 30
0.0
 11
-253.418022727966
 21
59.755296826479
 31
0.0
  0
LINE
  5
   4DA
  8
0
  6
CONTINUOUS
 62
   130
 10
-253.418022727966
 20
5.25528156768996
 30
0.0
 11
-253.418022727966
 21
4.43376362335403
 31
0.0
  0
LINE
  5
   4DB
  8
0
  6
CONTINUOUS
 62
   130
 10
-253.418022727966
 20
31.2552663089009
 30
0.0
 11
-253.418022727966
 21
5.25529682647903
 31
0.0
  0
LINE
  5
   4DC
  8
0
  6
CONTINUOUS
 62
   130
 10
-253.418022727966
 20
59.755296826479
 30
0.0
 11
-253.418022727966
 21
31.255296826479
 31
0.0
  0
LINE
  5
   4DD
  8
0
  6
CONTINUOUS
 62
   130
 10
-253.417953265828
 20
4.43376399308748
 30
0.0
 11
-255.578723369281
 21
0.69119379740382
 31
0.0
  0
LINE
  5
   4DE
  8
0
  6
CONTINUOUS
 62
   130
 10
-256.617993924683
 20
1.29117489874159
 30
0.0
 11
-255.578803015291
 21
0.691191612186323
 31
0.0
  0
LINE
  5
   4DF
  8
0
  6
CONTINUOUS
 62
   130
 10
-254.618006688309
 20
4.75528199886443
 30
0.0
 11
-256.618006638001
 21
1.29118609307255
 31
0.0
  0
LINE
  5
   4E0
  8
0
  6
CONTINUOUS
 62
   130
 10
-254.617976760864
 20
59.755296826479
 30
0.0
 11
-254.617976760864
 21
31.255296826479
 31
0.0
  0
LINE
  5
   4E1
  8
0
  6
CONTINUOUS
 62
   130
 10
-254.617976760864
 20
31.255296826479
 30
0.0
 11
-254.617976760864
 21
14.8263646383445
 31
0.0
  0
LINE
  5
   4E2
  8
0
  6
CONTINUOUS
 62
   130
 10
-254.617976760864
 20
5.55008137237746
 30
0.0
 11
-254.617976760864
 21
4.75529682647903
 31
0.0
  0
LINE
  5
   4E3
  8
0
  6
CONTINUOUS
 62
   130
 10
-253.418022155762
 20
-53.2446917294292
 30
0.0
 11
-253.218007087708
 21
-53.2446917294292
 31
0.0
  0
LINE
  5
   4E4
  8
0
  6
CONTINUOUS
 62
   130
 10
-253.418022155762
 20
-48.2446926831035
 30
0.0
 11
-253.218007087708
 21
-48.2446926831035
 31
0.0
  0
ARC
  5
   4E5
  8
0
  6
CONTINUOUS
 62
   130
 10
-255.51805523694
 20
8.25530451022751
 30
0.0
 40
3.49996037873244
 50
509.049876306511
 51
539.99994520259
  0
LINE
  5
   4E6
  8
0
  6
CONTINUOUS
 62
   130
 10
-254.718007278442
 20
32.4552785159322
 30
0.0
 11
-254.718007278442
 21
31.255296826479
 31
0.0
  0
LINE
  5
   4E7
  8
0
  6
CONTINUOUS
 62
   130
 10
-254.718007278442
 20
11.255296826479
 30
0.0
 11
-254.718007278442
 21
10.0552998782368
 31
0.0
  0
LINE
  5
   4E8
  8
0
  6
CONTINUOUS
 62
   130
 10
-253.317992210388
 20
32.4552785159322
 30
0.0
 11
-253.317992210388
 21
31.255296826479
 31
0.0
  0
LINE
  5
   4E9
  8
0
  6
CONTINUOUS
 62
   130
 10
-253.317992210388
 20
11.255296826479
 30
0.0
 11
-253.317992210388
 21
10.0552998782368
 31
0.0
  0
LINE
  5
   4EA
  8
0
  6
CONTINUOUS
 62
   130
 10
-259.018005371094
 20
32.4552785159322
 30
0.0
 11
-254.718007278442
 21
32.4552785159322
 31
0.0
  0
LINE
  5
   4EB
  8
0
  6
CONTINUOUS
 62
   130
 10
-259.018005371094
 20
31.255296826479
 30
0.0
 11
-254.718007278442
 21
31.255296826479
 31
0.0
  0
LINE
  5
   4EC
  8
0
  6
CONTINUOUS
 62
   130
 10
-259.018006324768
 20
11.255296826479
 30
0.0
 11
-254.718007278442
 21
11.255296826479
 31
0.0
  0
LINE
  5
   4ED
  8
0
  6
CONTINUOUS
 62
   130
 10
-259.018006324768
 20
10.0552998782368
 30
0.0
 11
-254.718007278442
 21
10.0552998782368
 31
0.0
  0
LINE
  5
   4EE
  8
0
  6
CONTINUOUS
 62
   130
 10
-254.628027727279
 20
14.6849368083511
 30
0.0
 11
-255.093733559871
 21
11.4249959802078
 31
0.0
  0
LINE
  5
   4EF
  8
0
  6
CONTINUOUS
 62
   130
 10
-253.428027918014
 20
14.5996540989685
 30
0.0
 11
-253.905794167477
 21
11.255290352723
 31
0.0
  0
LINE
  5
   4F0
  8
0
  6
CONTINUOUS
 62
   130
 10
-255.093733559871
 20
11.4249959802078
 30
0.0
 11
-253.905794167477
 21
11.255290352723
 31
0.0
  0
ARC
  5
   4F1
  8
0
  6
CONTINUOUS
 62
   130
 10
-255.617976760864
 20
14.8263646383445
 30
0.0
 40
1.0
 50
351.869897489947
 51
359.999999844103
  0
ARC
  5
   4F2
  8
0
  6
CONTINUOUS
 62
   130
 10
-254.418022727966
 20
14.7410819289619
 30
0.0
 40
1.0
 50
351.869897489947
 51
359.999999844103
  0
LINE
  5
   4F3
  8
0
  6
CONTINUOUS
 62
   130
 10
-253.418022727966
 20
11.255296826479
 30
0.0
 11
-253.218007278442
 21
11.255296826479
 31
0.0
  0
LINE
  5
   4F4
  8
0
  6
CONTINUOUS
 62
   130
 10
-253.418022727966
 20
10.0552998782368
 30
0.0
 11
-253.218007087708
 21
10.0552998782368
 31
0.0
  0
LINE
  5
   4F5
  8
0
  6
DOT
 62
   130
 10
-254.617976760864
 20
14.8263646383445
 30
0.0
 11
-254.617976760864
 21
11.3570372626879
 31
0.0
  0
LINE
  5
   4F6
  8
0
  6
CONTINUOUS
 62
   130
 10
-254.617976760864
 20
11.3570372626879
 30
0.0
 11
-254.617976760864
 21
5.55005265549163
 31
0.0
  0
LINE
  5
   4F7
  8
0
  6
CONTINUOUS
 62
   130
 10
-254.617976760864
 20
57.755296826479
 30
0.0
 11
-253.418022727966
 21
57.755296826479
 31
0.0
  0
LINE
  5
   4F8
  8
0
  6
CONTINUOUS
 62
   130
 10
-254.617976760864
 20
39.755296826479
 30
0.0
 11
-253.418022727966
 21
39.755296826479
 31
0.0
  0
LINE
  5
   4F9
  8
0
  6
CONTINUOUS
 62
   130
 10
-254.617976760864
 20
24.255296826479
 30
0.0
 11
-253.418022727966
 21
24.255296826479
 31
0.0
  0
LINE
  5
   4FA
  8
0
  6
CONTINUOUS
 62
   130
 10
-254.617976760864
 20
17.255296826479
 30
0.0
 11
-253.418022727966
 21
17.255296826479
 31
0.0
  0
LINE
  5
   4FB
  8
0
  6
CONTINUOUS
 62
   130
 10
-254.617976760864
 20
9.75529987823684
 30
0.0
 11
-253.418022727966
 21
9.75529987823684
 31
0.0
  0
INSERT
  5
   4FC
  8
0
  6
CONTINUOUS
 62
     7
  2
*HATCH287
 10
-127.770599365234
 20
-14.2446918487549
 30
0.0
 50
269.999999844103
  0
INSERT
  5
   4FD
  8
0
  6
CONTINUOUS
 62
     7
  2
*HATCH288
 10
-127.770599365234
 20
-14.2446918487549
 30
0.0
 50
269.999999844103
  0
INSERT
  5
   4FE
  8
0
  6
CONTINUOUS
 62
     7
  2
*HATCH289
 10
-127.770599365234
 20
-14.2446918487549
 30
0.0
 50
269.999999844103
  0
ARC
  5
   4FF
  8
0
  6
CONTINUOUS
 62
   130
 10
-253.218007087708
 20
9.05529987823684
 30
0.0
 40
1.0
 50
359.999999844103
 51
449.999999844103
  0
ARC
  5
   500
  8
0
  6
CONTINUOUS
 62
   130
 10
-253.218007278442
 20
9.05529682647902
 30
0.0
 40
2.19999904632568
 50
359.999999844103
 51
449.999999844103
  0
LINE
  5
   501
  8
0
  6
CONTINUOUS
 62
   130
 10
-253.418022727966
 20
11.755296826479
 30
0.0
 11
-252.218007087708
 21
11.755296826479
 31
0.0
  0
ARC
  5
   502
  8
0
  6
CONTINUOUS
 62
   130
 10
-255.51805523694
 20
8.25530451022751
 30
0.0
 40
3.49996037873244
 50
467.486019062348
 51
481.001855151888
  0
ARC
  5
   503
  8
0
  6
DOT
 62
   130
 10
-255.51805523694
 20
8.25530451022751
 30
0.0
 40
3.49996037873244
 50
481.001855151888
 51
509.049876306511
  0
ARC
  5
   504
  8
0
  6
CONTINUOUS
 62
   130
 10
-255.51805523694
 20
8.25530451022751
 30
0.0
 40
3.49996037873244
 50
449.999999844103
 51
467.486019062348
  0
LINE
  5
   505
  8
0
  6
CONTINUOUS
 62
   130
 10
-255.518004477024
 20
11.755296826479
 30
0.0
 11
-255.046563448225
 21
11.755296826479
 31
0.0
  0
LINE
  5
   506
  8
0
  6
CONTINUOUS
 62
   130
 10
-256.027390484367
 20
5.52576783846676
 30
0.0
 11
-255.018020387839
 21
5.25530518893763
 31
0.0
  0
ARC
  5
   507
  8
0
  6
CONTINUOUS
 62
   130
 10
-255.518060819978
 20
-32.7447212960424
 30
0.0
 40
3.49994520846391
 50
540.000159625357
 51
630.000829476908
  0
ARC
  5
   508
  8
0
  6
CONTINUOUS
 62
   130
 10
-253.218007278442
 20
33.45528156769
 30
0.0
 40
2.19999904632568
 50
269.999999844103
 51
359.999999844103
  0
LINE
  5
   509
  8
0
  6
DOT
 62
   130
 10
-252.218007087708
 20
11.0148885233716
 30
0.0
 11
-252.218007087708
 21
9.05529987823684
 31
0.0
  0
LINE
  5
   50A
  8
0
  6
CONTINUOUS
 62
   130
 10
-252.218007087708
 20
9.05529987823684
 30
0.0
 11
-252.218007087708
 21
-12.1435851610675
 31
0.0
  0
LINE
  5
   50B
  8
0
  6
CONTINUOUS
 62
   130
 10
-252.218007087708
 20
31.4957051295863
 30
0.0
 11
-252.218007087708
 21
11.0148885233716
 31
0.0
  0
LINE
  5
   50C
  8
0
  6
DOT
 62
   130
 10
-252.218007087708
 20
33.4552189513803
 30
0.0
 11
-252.218007087708
 21
31.4957051295863
 31
0.0
  0
LINE
  5
   50D
  8
0
  6
CONTINUOUS
 62
   130
 10
-252.218007087708
 20
-45.2446917294292
 30
0.0
 11
-251.017992019653
 21
-45.2446917294292
 31
0.0
  0
ARC
  5
   50E
  8
0
  6
CONTINUOUS
 62
   130
 10
-253.218007536877
 20
33.4553063495221
 30
0.0
 40
1.00003107655773
 50
270.00070276675
 51
359.997118270512
  0
ARC
  5
   50F
  8
0
  6
CONTINUOUS
 62
   130
 10
-253.218007135319
 20
-47.2446938268192
 30
0.0
 40
0.999999854264095
 50
270.000056701202
 51
359.999980612941
  0
ARC
  5
   510
  8
0
  6
CONTINUOUS
 62
   130
 10
-253.218005977797
 20
-54.2446901756531
 30
0.0
 40
0.999999781581745
 50
359.999963768781
 51
449.999994616734
  0
LINE
  5
   511
  8
0
  6
DASHDOT
 62
   130
 10
-254.72948101495
 20
-50.7446917294292
 30
0.0
 11
-249.765864850811
 21
-50.7446917294292
 31
0.0
  0
LINE
  5
   512
  8
0
  6
DOT
 62
   130
 10
-253.418022155762
 20
-49.2446917294292
 30
0.0
 11
-251.017992019653
 21
-49.2446917294292
 31
0.0
  0
LINE
  5
   513
  8
0
  6
DOT
 62
   130
 10
-253.418022155762
 20
-52.2446917294292
 30
0.0
 11
-251.017992019653
 21
-52.2446917294292
 31
0.0
  0
LINE
  5
   514
  8
0
  6
DOT
 62
   130
 10
-253.418022155762
 20
-48.7446917294292
 30
0.0
 11
-251.017992019653
 21
-48.7446917294292
 31
0.0
  0
LINE
  5
   515
  8
0
  6
DOT
 62
   130
 10
-253.418022155762
 20
-52.7446917294292
 30
0.0
 11
-251.017992019653
 21
-52.7446917294292
 31
0.0
  0
LINE
  5
   516
  8
0
  6
CONTINUOUS
 62
   130
 10
-253.418022155762
 20
-48.2446926831035
 30
0.0
 11
-253.418022155762
 21
-53.2446917294292
 31
0.0
  0
ARC
  5
   517
  8
0
  6
CONTINUOUS
 62
   130
 10
-253.218005977797
 20
52.7552914580057
 30
0.0
 40
0.999999781581745
 50
270.000005071472
 51
360.000035919426
  0
LINE
  5
   518
  8
0
  6
CONTINUOUS
 62
   130
 10
-253.418022155762
 20
51.7552930117818
 30
0.0
 11
-253.218007087708
 21
51.7552930117818
 31
0.0
  0
LINE
  5
   519
  8
0
  6
CONTINUOUS
 62
   130
 10
-253.418022155762
 20
51.7552930117818
 30
0.0
 11
-253.418022155762
 21
46.7552939654561
 31
0.0
  0
LINE
  5
   51A
  8
0
  6
CONTINUOUS
 62
   130
 10
-253.418022155762
 20
46.7552939654561
 30
0.0
 11
-253.218007087708
 21
46.7552939654561
 31
0.0
  0
ARC
  5
   51B
  8
0
  6
CONTINUOUS
 62
   130
 10
-253.218007135319
 20
45.7552951091718
 30
0.0
 40
0.999999854264095
 50
360.000019075265
 51
449.999888345491
  0
LINE
  5
   51C
  8
0
  6
DOT
 62
   130
 10
-253.418022155762
 20
47.2552930117818
 30
0.0
 11
-251.017992019653
 21
47.2552930117818
 31
0.0
  0
LINE
  5
   51D
  8
0
  6
DOT
 62
   130
 10
-253.418022155762
 20
47.7552930117818
 30
0.0
 11
-251.017992019653
 21
47.7552930117818
 31
0.0
  0
LINE
  5
   51E
  8
0
  6
DASHDOT
 62
   130
 10
-254.72948101495
 20
49.2552930117818
 30
0.0
 11
-249.765864850811
 21
49.2552930117818
 31
0.0
  0
LINE
  5
   51F
  8
0
  6
DOT
 62
   130
 10
-253.418022155762
 20
50.7552930117818
 30
0.0
 11
-251.017992019653
 21
50.7552930117818
 31
0.0
  0
LINE
  5
   520
  8
0
  6
DOT
 62
   130
 10
-253.418022155762
 20
51.2552930117818
 30
0.0
 11
-251.017992019653
 21
51.2552930117818
 31
0.0
  0
LINE
  5
   521
  8
0
  6
CONTINUOUS
 62
   130
 10
-253.418022727966
 20
15.755296826479
 30
0.0
 11
-251.697446476601
 21
15.755296826479
 31
0.0
  0
LINE
  5
   522
  8
0
  6
DASHDOT
 62
   130
 10
-256.267992115021
 20
33.8552090791503
 30
0.0
 11
-256.267992115021
 21
13.689675335532
 31
0.0
  0
LINE
  5
   523
  8
0
  6
DASHDOT
 62
   130
 10
-251.767992115021
 20
33.9817065065263
 30
0.0
 11
-251.767992115021
 21
14.1751309917469
 31
0.0
  0
CIRCLE
  5
   524
  8
0
  6
CONTINUOUS
 62
   130
 10
-256.267992115021
 20
16.949026826479
 30
0.0
 40
0.39999988079071
  0
CIRCLE
  5
   525
  8
0
  6
CONTINUOUS
 62
   130
 10
-256.267992115021
 20
18.549026826479
 30
0.0
 40
0.39999988079071
  0
CIRCLE
  5
   526
  8
0
  6
CONTINUOUS
 62
   130
 10
-256.267992115021
 20
20.149026826479
 30
0.0
 40
0.39999988079071
  0
CIRCLE
  5
   527
  8
0
  6
CONTINUOUS
 62
   130
 10
-256.267992115021
 20
21.7490115676899
 30
0.0
 40
0.39999988079071
  0
CIRCLE
  5
   528
  8
0
  6
CONTINUOUS
 62
   130
 10
-256.267992115021
 20
23.34901156769
 30
0.0
 40
0.39999988079071
  0
CIRCLE
  5
   529
  8
0
  6
CONTINUOUS
 62
   130
 10
-256.267992115021
 20
24.949026826479
 30
0.0
 40
0.39999988079071
  0
CIRCLE
  5
   52A
  8
0
  6
CONTINUOUS
 62
   130
 10
-256.267992115021
 20
26.549026826479
 30
0.0
 40
0.39999988079071
  0
CIRCLE
  5
   52B
  8
0
  6
CONTINUOUS
 62
   130
 10
-256.267992115021
 20
28.149026826479
 30
0.0
 40
0.39999988079071
  0
CIRCLE
  5
   52C
  8
0
  6
CONTINUOUS
 62
   130
 10
-256.267992115021
 20
29.7490115676899
 30
0.0
 40
0.39999988079071
  0
ARC
  5
   52D
  8
0
  6
CONTINUOUS
 62
   130
 10
-256.267992115021
 20
31.3490115676899
 30
0.0
 40
0.39999988079071
 50
553.551673104685
 51
629.99994520259
  0
CIRCLE
  5
   52E
  8
0
  6
CONTINUOUS
 62
   130
 10
-251.767992115021
 20
17.74901156769
 30
0.0
 40
0.39999988079071
  0
ARC
  5
   52F
  8
0
  6
CONTINUOUS
 62
   130
 10
-251.767992115021
 20
16.149026826479
 30
0.0
 40
0.39999988079071
 50
280.158049687986
 51
619.841895358707
  0
CIRCLE
  5
   530
  8
0
  6
CONTINUOUS
 62
   130
 10
-251.767992115021
 20
19.34901156769
 30
0.0
 40
0.39999988079071
  0
CIRCLE
  5
   531
  8
0
  6
CONTINUOUS
 62
   130
 10
-251.767992115021
 20
20.949026826479
 30
0.0
 40
0.39999988079071
  0
CIRCLE
  5
   532
  8
0
  6
CONTINUOUS
 62
   130
 10
-251.767992115021
 20
22.549026826479
 30
0.0
 40
0.39999988079071
  0
CIRCLE
  5
   533
  8
0
  6
CONTINUOUS
 62
   130
 10
-251.767992115021
 20
24.149026826479
 30
0.0
 40
0.39999988079071
  0
CIRCLE
  5
   534
  8
0
  6
CONTINUOUS
 62
   130
 10
-251.767992115021
 20
25.7490115676899
 30
0.0
 40
0.39999988079071
  0
CIRCLE
  5
   535
  8
0
  6
CONTINUOUS
 62
   130
 10
-251.767992115021
 20
27.3490115676899
 30
0.0
 40
0.39999988079071
  0
LINE
  5
   536
  8
0
  6
CONTINUOUS
 62
   130
 10
-251.837988225994
 20
16.5428448187519
 30
0.0
 11
-253.418005033938
 21
16.2619529417842
 31
0.0
  0
LINE
  5
   537
  8
0
  6
CONTINUOUS
 62
   130
 10
-251.697976581452
 20
17.3551921417265
 30
0.0
 11
-253.41802005717
 21
17.0494066349322
 31
0.0
  0
LINE
  5
   538
  8
0
  6
CONTINUOUS
 62
   130
 10
-251.838005920022
 20
18.1428571711868
 30
0.0
 11
-253.417977658271
 21
17.8619733066093
 31
0.0
  0
LINE
  5
   539
  8
0
  6
CONTINUOUS
 62
   130
 10
-251.698009298712
 20
18.9552018233646
 30
0.0
 11
-253.417992681503
 21
18.6494269997573
 31
0.0
  0
LINE
  5
   53A
  8
0
  6
CONTINUOUS
 62
   130
 10
-251.838033295689
 20
19.7428368063618
 30
0.0
 11
-253.417990010706
 21
19.4619556125809
 31
0.0
  0
LINE
  5
   53B
  8
0
  6
CONTINUOUS
 62
   130
 10
-251.697976581452
 20
20.5551921417265
 30
0.0
 11
-253.418005033938
 21
20.249409305729
 31
0.0
  0
LINE
  5
   53C
  8
0
  6
CONTINUOUS
 62
   130
 10
-251.838003249226
 20
21.3428421479552
 30
0.0
 11
-253.418020057169
 21
21.0619502709874
 31
0.0
  0
LINE
  5
   53D
  8
0
  6
CONTINUOUS
 62
   130
 10
-251.69799427548
 20
22.1552044941614
 30
0.0
 11
-253.417977658271
 21
21.849429670554
 31
0.0
  0
LINE
  5
   53E
  8
0
  6
CONTINUOUS
 62
   130
 10
-251.838020943254
 20
22.9428545003901
 30
0.0
 11
-253.417992681503
 21
22.6619706358125
 31
0.0
  0
LINE
  5
   53F
  8
0
  6
CONTINUOUS
 62
   130
 10
-251.697964229017
 20
23.7552098357548
 30
0.0
 11
-253.417992681503
 21
23.4494269997573
 31
0.0
  0
LINE
  5
   540
  8
0
  6
CONTINUOUS
 62
   130
 10
-251.837988225994
 20
24.5428448187519
 30
0.0
 11
-253.418005033938
 21
24.2619529417842
 31
0.0
  0
LINE
  5
   541
  8
0
  6
CONTINUOUS
 62
   130
 10
-251.697976581452
 20
25.3551921417265
 30
0.0
 11
-253.418020057169
 21
25.0494066349322
 31
0.0
  0
LINE
  5
   542
  8
0
  6
CONTINUOUS
 62
   130
 10
-251.838005920022
 20
26.1428571711868
 30
0.0
 11
-253.417977658271
 21
25.8619733066092
 31
0.0
  0
LINE
  5
   543
  8
0
  6
CONTINUOUS
 62
   130
 10
-251.698009298712
 20
26.9552018233646
 30
0.0
 11
-253.417992681503
 21
26.6494269997573
 31
0.0
  0
LINE
  5
   544
  8
0
  6
CONTINUOUS
 62
   130
 10
-251.838033295689
 20
27.7428368063617
 30
0.0
 11
-253.417990010706
 21
27.4619556125809
 31
0.0
  0
LINE
  5
   545
  8
0
  6
CONTINUOUS
 62
   130
 10
-251.69796155822
 20
28.5551948125232
 30
0.0
 11
-253.418005033938
 21
28.249409305729
 31
0.0
  0
LINE
  5
   546
  8
0
  6
CONTINUOUS
 62
   130
 10
-251.837990896791
 20
29.3428598419835
 30
0.0
 11
-253.418022727966
 21
29.061965294219
 31
0.0
  0
LINE
  5
   547
  8
0
  6
CONTINUOUS
 62
   130
 10
-251.69799427548
 20
30.1552044941614
 30
0.0
 11
-253.417977658271
 21
29.849429670554
 31
0.0
  0
LINE
  5
   548
  8
0
  6
CONTINUOUS
 62
   130
 10
-251.838018272457
 20
30.9428394771585
 30
0.0
 11
-253.417974987475
 21
30.6619582833776
 31
0.0
  0
LINE
  5
   549
  8
0
  6
CONTINUOUS
 62
   130
 10
-254.617989819971
 20
31.2360786771008
 30
0.0
 11
-256.19796155822
 21
30.9551948125232
 31
0.0
  0
CIRCLE
  5
   54A
  8
0
  6
CONTINUOUS
 62
   130
 10
-251.767992115021
 20
28.949026826479
 30
0.0
 40
0.39999988079071
  0
CIRCLE
  5
   54B
  8
0
  6
CONTINUOUS
 62
   130
 10
-251.767992115021
 20
30.549026826479
 30
0.0
 40
0.39999988079071
  0
ARC
  5
   54C
  8
0
  6
CONTINUOUS
 62
   130
 10
-256.267992115021
 20
31.3490115676899
 30
0.0
 40
0.39999988079071
 50
269.999999844103
 51
346.448162658981
  0
LINE
  5
   54D
  8
0
  6
CONTINUOUS
 62
   130
 10
-254.61797479674
 20
30.4486249839527
 30
0.0
 11
-256.338018272457
 21
30.1428394771585
 31
0.0
  0
LINE
  5
   54E
  8
0
  6
CONTINUOUS
 62
   130
 10
-254.617977467536
 20
29.6360963711291
 30
0.0
 11
-256.19799427548
 21
29.3552044941614
 31
0.0
  0
LINE
  5
   54F
  8
0
  6
CONTINUOUS
 62
   130
 10
-254.618022537231
 20
28.8486319947941
 30
0.0
 11
-256.337990896791
 21
28.5428598419836
 31
0.0
  0
LINE
  5
   550
  8
0
  6
CONTINUOUS
 62
   130
 10
-254.618004843203
 20
28.036076006304
 30
0.0
 11
-256.19796155822
 21
27.7551948125232
 31
0.0
  0
LINE
  5
   551
  8
0
  6
CONTINUOUS
 62
   130
 10
-254.617989819971
 20
27.248622313156
 30
0.0
 11
-256.338033295689
 21
26.9428368063617
 31
0.0
  0
LINE
  5
   552
  8
0
  6
CONTINUOUS
 62
   130
 10
-254.617977467536
 20
26.4360963711291
 30
0.0
 11
-256.198009298712
 21
26.1552018233646
 31
0.0
  0
LINE
  5
   553
  8
0
  6
CONTINUOUS
 62
   130
 10
-254.618022537231
 20
25.6486319947941
 30
0.0
 11
-256.338005920022
 21
25.3428571711868
 31
0.0
  0
LINE
  5
   554
  8
0
  6
CONTINUOUS
 62
   130
 10
-254.618019866435
 20
24.8360733355073
 30
0.0
 11
-256.197976581452
 21
24.5551921417265
 31
0.0
  0
LINE
  5
   555
  8
0
  6
CONTINUOUS
 62
   130
 10
-254.618004843203
 20
24.0486196423593
 30
0.0
 11
-256.337988225994
 21
23.7428448187519
 31
0.0
  0
LINE
  5
   556
  8
0
  6
CONTINUOUS
 62
   130
 10
-254.617992490768
 20
23.2360937003324
 30
0.0
 11
-256.197964229017
 21
22.9552098357548
 31
0.0
  0
LINE
  5
   557
  8
0
  6
CONTINUOUS
 62
   130
 10
-254.617977467536
 20
22.4486400071844
 30
0.0
 11
-256.338020943254
 21
22.1428545003901
 31
0.0
  0
LINE
  5
   558
  8
0
  6
CONTINUOUS
 62
   130
 10
-254.617977467536
 20
21.6360963711291
 30
0.0
 11
-256.19799427548
 21
21.3552044941614
 31
0.0
  0
LINE
  5
   559
  8
0
  6
CONTINUOUS
 62
   130
 10
-254.618019866435
 20
20.8486169715625
 30
0.0
 11
-256.337988225994
 21
20.5428448187519
 31
0.0
  0
LINE
  5
   55A
  8
0
  6
CONTINUOUS
 62
   130
 10
-254.618004843203
 20
20.0360760063041
 30
0.0
 11
-256.19796155822
 21
19.7551948125232
 31
0.0
  0
LINE
  5
   55B
  8
0
  6
CONTINUOUS
 62
   130
 10
-254.617989819971
 20
19.248622313156
 30
0.0
 11
-256.338033295689
 21
18.9428368063618
 31
0.0
  0
LINE
  5
   55C
  8
0
  6
CONTINUOUS
 62
   130
 10
-254.617977467536
 20
18.4360963711292
 30
0.0
 11
-256.198009298712
 21
18.1552018233647
 31
0.0
  0
LINE
  5
   55D
  8
0
  6
CONTINUOUS
 62
   130
 10
-254.617977467536
 20
17.6486400071844
 30
0.0
 11
-256.338005920022
 21
17.3428571711868
 31
0.0
  0
LINE
  5
   55E
  8
0
  6
CONTINUOUS
 62
   130
 10
-254.618019866435
 20
16.8360733355073
 30
0.0
 11
-256.197976581452
 21
16.5551921417265
 31
0.0
  0
LINE
  5
   55F
  8
0
  6
CONTINUOUS
 62
   130
 10
-254.618004843203
 20
16.0486196423593
 30
0.0
 11
-256.268030188207
 21
15.7552818032474
 31
0.0
  0
LINE
  5
   560
  8
0
  6
CONTINUOUS
 62
   130
 10
-256.268002341426
 20
15.755296826479
 30
0.0
 11
-254.617976760864
 21
15.755296826479
 31
0.0
  0
INSERT
  5
   561
  8
0
  6
CONTINUOUS
 62
     3
  2
*HATCH290
 10
-127.770599365234
 20
-14.2446918487549
 30
0.0
 50
269.999999844103
  0
INSERT
  5
   562
  8
0
  6
CONTINUOUS
 62
     3
  2
*HATCH291
 10
-127.770599365234
 20
-14.2446918487549
 30
0.0
 50
269.999999844103
  0
INSERT
  5
   563
  8
0
  6
CONTINUOUS
 62
     3
  2
*HATCH292
 10
-127.770599365234
 20
-14.2446918487549
 30
0.0
 50
269.999999844103
  0
INSERT
  5
   564
  8
0
  6
CONTINUOUS
 62
     3
  2
*HATCH293
 10
-127.770599365234
 20
-14.2446918487549
 30
0.0
 50
269.999999844103
  0
INSERT
  5
   565
  8
0
  6
CONTINUOUS
 62
     3
  2
*HATCH294
 10
-127.770599365234
 20
-14.2446918487549
 30
0.0
 50
269.999999844103
  0
INSERT
  5
   566
  8
0
  6
CONTINUOUS
 62
     3
  2
*HATCH295
 10
-127.770599365234
 20
-14.2446918487549
 30
0.0
 50
269.999999844103
  0
INSERT
  5
   567
  8
0
  6
CONTINUOUS
 62
     3
  2
*HATCH296
 10
-127.770599365234
 20
-14.2446918487549
 30
0.0
 50
269.999999844103
  0
INSERT
  5
   568
  8
0
  6
CONTINUOUS
 62
     3
  2
*HATCH297
 10
-127.770599365234
 20
-14.2446918487549
 30
0.0
 50
269.999999844103
  0
INSERT
  5
   569
  8
0
  6
CONTINUOUS
 62
     3
  2
*HATCH298
 10
-127.770599365234
 20
-14.2446918487549
 30
0.0
 50
269.999999844103
  0
INSERT
  5
   56A
  8
0
  6
CONTINUOUS
 62
     3
  2
*HATCH299
 10
-127.770599365234
 20
-14.2446918487549
 30
0.0
 50
269.999999844103
  0
INSERT
  5
   56B
  8
0
  6
CONTINUOUS
 62
     3
  2
*HATCH300
 10
-127.770599365234
 20
-14.2446918487549
 30
0.0
 50
269.999999844103
  0
POLYLINE
  5
   56C
  8
0
  6
CONTINUOUS
 62
   130
 66
     1
 10
0.0
 20
0.0
 30
0.0
  0
VERTEX
  5
   56D
  8
0
  6
CONTINUOUS
 10
-251.01791805757
 20
-11.8373167305633
 30
0.0
 40
0.0
 41
0.0
  0
VERTEX
  5
   56E
  8
0
  6
CONTINUOUS
 10
-251.119018009477
 20
-11.8213068819626
 30
0.0
 40
0.0
 41
0.0
  0
VERTEX
  5
   56F
  8
0
  6
CONTINUOUS
 10
-251.218996203582
 20
-11.8086513562661
 30
0.0
 40
0.0
 41
0.0
  0
VERTEX
  5
   570
  8
0
  6
CONTINUOUS
 10
-251.268531654702
 20
-11.8039532214572
 30
0.0
 40
0.0
 41
0.0
  0
VERTEX
  5
   571
  8
0
  6
CONTINUOUS
 10
-251.367174212123
 20
-11.7985638449322
 30
0.0
 40
0.0
 41
0.0
  0
VERTEX
  5
   572
  8
0
  6
CONTINUOUS
 10
-251.464568962246
 20
-11.7996236590907
 30
0.0
 40
0.0
 41
0.0
  0
VERTEX
  5
   573
  8
0
  6
CONTINUOUS
 10
-251.512819116349
 20
-11.8029484720718
 30
0.0
 40
0.0
 41
0.0
  0
VERTEX
  5
   574
  8
0
  6
CONTINUOUS
 10
-251.560788366329
 20
-11.8083249256794
 30
0.0
 40
0.0
 41
0.0
  0
VERTEX
  5
   575
  8
0
  6
CONTINUOUS
 10
-251.60849255435
 20
-11.8158824386896
 30
0.0
 40
0.0
 41
0.0
  0
VERTEX
  5
   576
  8
0
  6
CONTINUOUS
 10
-251.655949188702
 20
-11.8257381290262
 30
0.0
 40
0.0
 41
0.0
  0
VERTEX
  5
   577
  8
0
  6
CONTINUOUS
 10
-251.703176892404
 20
-11.8379944688786
 30
0.0
 40
0.0
 41
0.0
  0
VERTEX
  5
   578
  8
0
  6
CONTINUOUS
 10
-251.750194851797
 20
-11.8527369398203
 30
0.0
 40
0.0
 41
0.0
  0
VERTEX
  5
   579
  8
0
  6
CONTINUOUS
 10
-251.797022265135
 20
-11.8700316879269
 30
0.0
 40
0.0
 41
0.0
  0
VERTEX
  5
   57A
  8
0
  6
CONTINUOUS
 10
-251.843677791184
 20
-11.8899231788939
 30
0.0
 40
0.0
 41
0.0
  0
VERTEX
  5
   57B
  8
0
  6
CONTINUOUS
 10
-251.890178997816
 20
-11.9124318531555
 30
0.0
 40
0.0
 41
0.0
  0
VERTEX
  5
   57C
  8
0
  6
CONTINUOUS
 10
-251.9365418106
 20
-11.9375517810023
 30
0.0
 40
0.0
 41
0.0
  0
VERTEX
  5
   57D
  8
0
  6
CONTINUOUS
 10
-251.982779961404
 20
-11.9652483176996
 30
0.0
 40
0.0
 41
0.0
  0
VERTEX
  5
   57E
  8
0
  6
CONTINUOUS
 10
-252.028904436981
 20
-11.9954557586053
 30
0.0
 40
0.0
 41
0.0
  0
VERTEX
  5
   57F
  8
0
  6
CONTINUOUS
 10
-252.120839275494
 20
-12.0629711656474
 30
0.0
 40
0.0
 41
0.0
  0
VERTEX
  5
   580
  8
0
  6
CONTINUOUS
 10
-252.212358364565
 20
-12.1388620613393
 30
0.0
 40
0.0
 41
0.0
  0
VERTEX
  5
   581
  8
0
  6
CONTINUOUS
 10
-252.317642697158
 20
-12.234614921287
 30
0.0
 40
0.0
 41
0.0
  0
VERTEX
  5
   582
  8
0
  6
CONTINUOUS
 10
-252.525208497275
 20
-12.4352449374836
 30
0.0
 40
0.0
 41
0.0
  0
VERTEX
  5
   583
  8
0
  6
CONTINUOUS
 10
-252.626724633914
 20
-12.5298543017303
 30
0.0
 40
0.0
 41
0.0
  0
VERTEX
  5
   584
  8
0
  6
CONTINUOUS
 10
-252.676737044364
 20
-12.573342121498
 30
0.0
 40
0.0
 41
0.0
  0
VERTEX
  5
   585
  8
0
  6
CONTINUOUS
 10
-252.726190215784
 20
-12.6133925390875
 30
0.0
 40
0.0
 41
0.0
  0
VERTEX
  5
   586
  8
0
  6
CONTINUOUS
 10
-252.775044581018
 20
-12.6493724303159
 30
0.0
 40
0.0
 41
0.0
  0
VERTEX
  5
   587
  8
0
  6
CONTINUOUS
 10
-252.823268439447
 20
-12.6806928774787
 30
0.0
 40
0.0
 41
0.0
  0
VERTEX
  5
   588
  8
0
  6
CONTINUOUS
 10
-252.870839823657
 20
-12.7068216772335
 30
0.0
 40
0.0
 41
0.0
  0
VERTEX
  5
   589
  8
0
  6
CONTINUOUS
 10
-252.917748366099
 20
-12.7272958484829
 30
0.0
 40
0.0
 41
0.0
  0
VERTEX
  5
   58A
  8
0
  6
CONTINUOUS
 10
-252.963997165757
 20
-12.7417341402586
 30
0.0
 40
0.0
 41
0.0
  0
VERTEX
  5
   58B
  8
0
  6
CONTINUOUS
 10
-253.009604654806
 20
-12.7498495396044
 30
0.0
 40
0.0
 41
0.0
  0
VERTEX
  5
   58C
  8
0
  6
CONTINUOUS
 10
-253.054606465283
 20
-12.7514617794596
 30
0.0
 40
0.0
 41
0.0
  0
VERTEX
  5
   58D
  8
0
  6
CONTINUOUS
 10
-253.099057295743
 20
-12.7465098465426
 30
0.0
 40
0.0
 41
0.0
  0
VERTEX
  5
   58E
  8
0
  6
CONTINUOUS
 10
-253.143032777931
 20
-12.7350644892346
 30
0.0
 40
0.0
 41
0.0
  0
VERTEX
  5
   58F
  8
0
  6
CONTINUOUS
 10
-253.186631343436
 20
-12.7173407254622
 30
0.0
 40
0.0
 41
0.0
  0
VERTEX
  5
   590
  8
0
  6
CONTINUOUS
 10
-253.215001094564
 20
-12.7025237932163
 30
0.0
 40
0.0
 41
0.0
  0
VERTEX
  5
   591
  8
0
  6
CONTINUOUS
 10
-253.271575387261
 20
-12.6658936407317
 30
0.0
 40
0.0
 41
0.0
  0
VERTEX
  5
   592
  8
0
  6
CONTINUOUS
 10
-253.299872061461
 20
-12.644443666738
 30
0.0
 40
0.0
 41
0.0
  0
VERTEX
  5
   593
  8
0
  6
CONTINUOUS
 10
-253.356735058722
 20
-12.5963476136272
 30
0.0
 40
0.0
 41
0.0
  0
VERTEX
  5
   594
  8
0
  6
CONTINUOUS
 10
-253.414308963466
 20
-12.5429532369268
 30
0.0
 40
0.0
 41
0.0
  0
VERTEX
  5
   595
  8
0
  6
CONTINUOUS
 10
-253.5332615029
 20
-12.428812522058
 30
0.0
 40
0.0
 41
0.0
  0
VERTEX
  5
   596
  8
0
  6
CONTINUOUS
 10
-253.59540077601
 20
-12.3724579223664
 30
0.0
 40
0.0
 41
0.0
  0
VERTEX
  5
   597
  8
0
  6
CONTINUOUS
 10
-253.659723319556
 20
-12.3193850542788
 30
0.0
 40
0.0
 41
0.0
  0
VERTEX
  5
   598
  8
0
  6
CONTINUOUS
 10
-253.726424031174
 20
-12.2714523219009
 30
0.0
 40
0.0
 41
0.0
  0
VERTEX
  5
   599
  8
0
  6
CONTINUOUS
 10
-253.795579617374
 20
-12.2302000637015
 30
0.0
 40
0.0
 41
0.0
  0
VERTEX
  5
   59A
  8
0
  6
CONTINUOUS
 10
-253.838569543523
 20
-12.2089879615971
 30
0.0
 40
0.0
 41
0.0
  0
VERTEX
  5
   59B
  8
0
  6
CONTINUOUS
 10
-253.882392780285
 20
-12.190801250879
 30
0.0
 40
0.0
 41
0.0
  0
VERTEX
  5
   59C
  8
0
  6
CONTINUOUS
 10
-253.926987338311
 20
-12.175739236717
 30
0.0
 40
0.0
 41
0.0
  0
VERTEX
  5
   59D
  8
0
  6
CONTINUOUS
 10
-253.972274004834
 20
-12.163844520899
 30
0.0
 40
0.0
 41
0.0
  0
VERTEX
  5
   59E
  8
0
  6
CONTINUOUS
 10
-254.018158923799
 20
-12.1551095195016
 30
0.0
 40
0.0
 41
0.0
  0
SEQEND
  5
   59F
  8
0
  6
CONTINUOUS
 62
   130
  0
LINE
  5
   5A0
  8
0
  6
DOT
 62
   130
 10
-252.218007087708
 20
-12.1435851610675
 30
0.0
 11
-252.218007087708
 21
-36.2446926831035
 31
0.0
  0
LINE
  5
   5A1
  8
0
  6
CONTINUOUS
 62
   130
 10
-254.918022155762
 20
32.4552785159322
 30
0.0
 11
-254.617976760864
 21
32.4552785159322
 31
0.0
  0
LINE
  5
   5A2
  8
0
  6
CONTINUOUS
 62
   130
 10
-254.918022155762
 20
31.255296826479
 30
0.0
 11
-254.617976760864
 21
31.255296826479
 31
0.0
  0
LINE
  5
   5A3
  8
0
  6
CONTINUOUS
 62
   130
 10
-254.718007278442
 20
11.255296826479
 30
0.0
 11
-254.617976760864
 21
11.255296826479
 31
0.0
  0
LINE
  5
   5A4
  8
0
  6
CONTINUOUS
 62
   130
 10
-254.718007278442
 20
10.0552998782368
 30
0.0
 11
-254.617976760864
 21
10.0552998782368
 31
0.0
  0
LINE
  5
   5A5
  8
0
  6
CONTINUOUS
 62
   130
 10
-255.046563448225
 20
11.755296826479
 30
0.0
 11
-254.617976760864
 21
11.755296826479
 31
0.0
  0
LINE
  5
   5A6
  8
0
  6
DOT
 62
   130
 10
-254.617976760864
 20
11.755296826479
 30
0.0
 11
-253.418022727966
 21
11.755296826479
 31
0.0
  0
INSERT
  5
   5A7
  8
0
  6
CONTINUOUS
 62
     7
  2
*HATCH301
 10
-127.770599365234
 20
-14.2446918487549
 30
0.0
 50
269.999999844103
  0
INSERT
  5
   5A8
  8
0
  6
CONTINUOUS
 62
     7
  2
*HATCH302
 10
-127.770599365234
 20
-14.2446918487549
 30
0.0
 50
269.999999844103
  0
INSERT
  5
   5A9
  8
0
  6
CONTINUOUS
 62
     7
  2
*HATCH303
 10
-127.770599365234
 20
-14.2446918487549
 30
0.0
 50
269.999999844103
  0
INSERT
  5
   5AA
  8
0
  6
CONTINUOUS
 62
     7
  2
*HATCH304
 10
-127.770599365234
 20
-14.2446918487549
 30
0.0
 50
269.999999844103
  0
INSERT
  5
   5AB
  8
0
  6
CONTINUOUS
 62
     3
  2
*HATCH305
 10
-127.770599365234
 20
-14.2446918487549
 30
0.0
 50
269.999999844103
  0
INSERT
  5
   5AC
  8
0
  6
CONTINUOUS
 62
     3
  2
*HATCH306
 10
-127.770599365234
 20
-14.2446918487549
 30
0.0
 50
269.999999844103
  0
INSERT
  5
   5AD
  8
0
  6
CONTINUOUS
 62
     3
  2
*HATCH307
 10
-127.770599365234
 20
-14.2446918487549
 30
0.0
 50
269.999999844103
  0
INSERT
  5
   5AE
  8
0
  6
CONTINUOUS
 62
     3
  2
*HATCH308
 10
-127.770599365234
 20
-14.2446918487549
 30
0.0
 50
269.999999844103
  0
INSERT
  5
   5AF
  8
0
  6
CONTINUOUS
 62
     3
  2
*HATCH309
 10
-127.770599365234
 20
-14.2446918487549
 30
0.0
 50
269.999999844103
  0
INSERT
  5
   5B0
  8
0
  6
CONTINUOUS
 62
     3
  2
*HATCH310
 10
-127.770599365234
 20
-14.2446918487549
 30
0.0
 50
269.999999844103
  0
INSERT
  5
   5B1
  8
0
  6
CONTINUOUS
 62
     3
  2
*HATCH311
 10
-127.770599365234
 20
-14.2446918487549
 30
0.0
 50
269.999999844103
  0
INSERT
  5
   5B2
  8
0
  6
CONTINUOUS
 62
     3
  2
*HATCH312
 10
-127.770599365234
 20
-14.2446918487549
 30
0.0
 50
269.999999844103
  0
INSERT
  5
   5B3
  8
0
  6
CONTINUOUS
 62
     3
  2
*HATCH313
 10
-127.770599365234
 20
-14.2446918487549
 30
0.0
 50
269.999999844103
  0
INSERT
  5
   5B4
  8
0
  6
CONTINUOUS
 62
     3
  2
*HATCH314
 10
-127.770599365234
 20
-14.2446918487549
 30
0.0
 50
269.999999844103
  0
INSERT
  5
   5B5
  8
0
  6
CONTINUOUS
 62
     3
  2
*HATCH315
 10
-127.770599365234
 20
-14.2446918487549
 30
0.0
 50
269.999999844103
  0
LINE
  5
   5B6
  8
0
  6
CONTINUOUS
 62
   130
 10
-181.018020391464
 20
-34.2446765899658
 30
0.0
 11
-181.018020391464
 21
-42.7446918487549
 31
0.0
  0
LINE
  5
   5B7
  8
0
  6
CONTINUOUS
 62
   130
 10
-181.01802071612
 20
-34.2446765899658
 30
0.0
 11
-176.018005132675
 21
-34.2446765899658
 31
0.0
  0
LINE
  5
   5B8
  8
0
  6
DASHDOT
 62
   130
 10
-207.718172773509
 20
51.2553137586898
 30
0.0
 11
-180.850031174535
 21
51.2553137586898
 31
0.0
  0
LINE
  5
   5B9
  8
0
  6
CONTINUOUS
 62
   130
 10
-181.01800545733
 20
10.7553234100342
 30
0.0
 11
-176.018005132675
 21
10.7553234100342
 31
0.0
  0
LINE
  5
   5BA
  8
0
  6
CONTINUOUS
 62
   130
 10
-181.018005132675
 20
43.2553081512451
 30
0.0
 11
-181.018005132675
 21
10.7553234100342
 31
0.0
  0
LINE
  5
   5BB
  8
0
  6
CONTINUOUS
 62
   130
 10
-176.018005132675
 20
10.7553234100342
 30
0.0
 11
-176.018005132675
 21
-34.2446765899658
 31
0.0
  0
LINE
  5
   5BC
  8
0
  6
CONTINUOUS
 62
   130
 10
-182.018020391464
 20
-43.7446918487549
 30
0.0
 11
-182.018020391464
 21
-45.2446918487549
 31
0.0
  0
LINE
  5
   5BD
  8
0
  6
CONTINUOUS
 62
   130
 10
-187.518020391464
 20
-45.2446918487549
 30
0.0
 11
-183.518020391464
 21
-45.2446918487549
 31
0.0
  0
LINE
  5
   5BE
  8
0
  6
CONTINUOUS
 62
   130
 10
-187.518020391464
 20
-43.7446918487549
 30
0.0
 11
-182.018020391464
 21
-43.7446918487549
 31
0.0
  0
LINE
  5
   5BF
  8
0
  6
CONTINUOUS
 62
   130
 10
-187.518020391464
 20
44.2553081512451
 30
0.0
 11
-182.018005132675
 21
44.2553081512451
 31
0.0
  0
LINE
  5
   5C0
  8
0
  6
CONTINUOUS
 62
   130
 10
-182.018020391464
 20
45.7553081512451
 30
0.0
 11
-182.018020391464
 21
44.2553081512451
 31
0.0
  0
LINE
  5
   5C1
  8
0
  6
CONTINUOUS
 62
   130
 10
-187.518020391464
 20
45.7553081512451
 30
0.0
 11
-183.518020391464
 21
45.7553081512451
 31
0.0
  0
LINE
  5
   5C2
  8
0
  6
CONTINUOUS
 62
   130
 10
-223.502830505371
 20
-53.744679904195
 30
0.0
 11
-209.002830505371
 21
-53.744679904195
 31
0.0
  0
LINE
  5
   5C3
  8
0
  6
CONTINUOUS
 62
   130
 10
-223.502830505371
 20
-53.244679904195
 30
0.0
 11
-209.002830505371
 21
-53.244679904195
 31
0.0
  0
LINE
  5
   5C4
  8
0
  6
CONTINUOUS
 62
   130
 10
-223.502830505371
 20
-48.244679904195
 30
0.0
 11
-209.002830505371
 21
-48.244679904195
 31
0.0
  0
LINE
  5
   5C5
  8
0
  6
CONTINUOUS
 62
   130
 10
-223.502830505371
 20
-47.744679904195
 30
0.0
 11
-209.002830505371
 21
-47.744679904195
 31
0.0
  0
LINE
  5
   5C6
  8
0
  6
CONTINUOUS
 62
   130
 10
-223.002830505371
 20
-47.744679904195
 30
0.0
 11
-223.002830505371
 21
-53.744679904195
 31
0.0
  0
LINE
  5
   5C7
  8
0
  6
CONTINUOUS
 62
   130
 10
-223.502830505371
 20
-53.244679904195
 30
0.0
 11
-223.002830505371
 21
-53.744679904195
 31
0.0
  0
LINE
  5
   5C8
  8
0
  6
CONTINUOUS
 62
   130
 10
-223.002830505371
 20
-47.744679904195
 30
0.0
 11
-223.502830505371
 21
-48.244679904195
 31
0.0
  0
LINE
  5
   5C9
  8
0
  6
DOT
 62
   130
 10
-223.502830505371
 20
-48.244679904195
 30
0.0
 11
-223.502830505371
 21
-53.244679904195
 31
0.0
  0
LINE
  5
   5CA
  8
0
  6
CONTINUOUS
 62
   130
 10
-219.502830505371
 20
-53.744679904195
 30
0.0
 11
-219.502830505371
 21
-56.7446918487549
 31
0.0
  0
LINE
  5
   5CB
  8
0
  6
CONTINUOUS
 62
   130
 10
-187.518020391464
 20
55.2553064717022
 30
0.0
 11
-187.518020391464
 21
44.2553081512451
 31
0.0
  0
LINE
  5
   5CC
  8
0
  6
CONTINUOUS
 62
   130
 10
-251.017991574605
 20
56.2553064717022
 30
0.0
 11
-188.518020391464
 21
56.2553064717022
 31
0.0
  0
ARC
  5
   5CD
  8
0
  6
CONTINUOUS
 62
   130
 10
-188.518020391464
 20
55.2553064717022
 30
0.0
 40
1.0
 50
359.999999844103
 51
449.999999844103
  0
ARC
  5
   5CE
  8
0
  6
CONTINUOUS
 62
   130
 10
-182.018005132675
 20
43.2553081512451
 30
0.0
 40
1.0
 50
359.999999844103
 51
449.999999844103
  0
ARC
  5
   5CF
  8
0
  6
CONTINUOUS
 62
   130
 10
-188.518020391464
 20
-54.7446901692119
 30
0.0
 40
1.0
 50
269.999999844103
 51
359.999999844103
  0
LINE
  5
   5D0
  8
0
  6
CONTINUOUS
 62
   130
 10
-187.518020391464
 20
-43.7446918487549
 30
0.0
 11
-187.518020391464
 21
-54.7446901692119
 31
0.0
  0
ARC
  5
   5D1
  8
0
  6
CONTINUOUS
 62
   130
 10
-182.018020391464
 20
-42.7446918487549
 30
0.0
 40
1.0
 50
269.999999844103
 51
359.999999844103
  0
ARC
  5
   5D2
  8
0
  6
CONTINUOUS
 62
   130
 10
-212.518005132675
 20
-14.2446765899511
 30
0.0
 40
52.4276683460498
 50
340.405499850824
 51
359.999999844103
  0
LINE
  5
   5D3
  8
0
  6
CONTINUOUS
 62
   130
 10
-160.090336786625
 20
-14.2446765899511
 30
0.0
 11
-160.090336786625
 21
-29.9816946811597
 31
0.0
  0
LINE
  5
   5D4
  8
0
  6
DASHDOT
 62
   130
 10
-259.688798112219
 20
-11.7446765899658
 30
0.0
 11
-167.204201456054
 21
-11.7446765899658
 31
0.0
  0
POINT
  5
   5D5
  8
0
  6
CONTINUOUS
 62
   130
 10
-254.018006324768
 20
5.25529682647903
 30
0.0
  0
POINT
  5
   5D6
  8
0
  6
CONTINUOUS
 62
   130
 10
-254.018006324768
 20
-30.244703173521
 30
0.0
  0
LINE
  5
   5D7
  8
0
  6
CONTINUOUS
 62
   130
 10
-225.502830505371
 20
-44.7446918487549
 30
0.0
 11
-225.502830505371
 21
-55.7446901692119
 31
0.0
  0
LINE
  5
   5D8
  8
0
  6
CONTINUOUS
 62
   130
 10
-239.002830505371
 20
-57.2455525956746
 30
0.0
 11
-223.502830505371
 21
-57.2455525956746
 31
0.0
  0
LINE
  5
   5D9
  8
0
  6
CONTINUOUS
 62
   130
 10
-239.002830505371
 20
-57.2455525956746
 30
0.0
 11
-239.002830505371
 21
-75.8675950718036
 31
0.0
  0
LINE
  5
   5DA
  8
0
  6
CONTINUOUS
 62
   130
 10
-223.502830505371
 20
-57.2455525956746
 30
0.0
 11
-223.502830505371
 21
-75.8675950718036
 31
0.0
  0
LINE
  5
   5DB
  8
0
  6
CONTINUOUS
 62
   130
 10
-240.537135611564
 20
-75.8675950718036
 30
0.0
 11
-222.139120328733
 21
-75.8675950718036
 31
0.0
  0
LINE
  5
   5DC
  8
0
  6
CONTINUOUS
 62
   130
 10
-225.502830505371
 20
-44.7446918487549
 30
0.0
 11
-225.502830505371
 21
-57.2455525956746
 31
0.0
  0
LINE
  5
   5DD
  8
0
  6
CONTINUOUS
 62
   130
 10
-235.453686769239
 20
-44.7446918487549
 30
0.0
 11
-237.002830505371
 21
-48.3144578494076
 31
0.0
  0
LINE
  5
   5DE
  8
0
  6
CONTINUOUS
 62
   130
 10
-233.273481965366
 20
-44.7446918487549
 30
0.0
 11
-237.002830505371
 21
-53.3384080496353
 31
0.0
  0
LINE
  5
   5DF
  8
0
  6
CONTINUOUS
 62
   130
 10
-231.093277161494
 20
-44.7446918487549
 30
0.0
 11
-236.518178995063
 21
-57.2455525956746
 31
0.0
  0
LINE
  5
   5E0
  8
0
  6
CONTINUOUS
 62
   130
 10
-228.913072357622
 20
-44.7446918487549
 30
0.0
 11
-234.337974191191
 21
-57.2455525956746
 31
0.0
  0
LINE
  5
   5E1
  8
0
  6
CONTINUOUS
 62
   130
 10
-226.732867553749
 20
-44.7446918487549
 30
0.0
 11
-232.157769387318
 21
-57.2455525956746
 31
0.0
  0
LINE
  5
   5E2
  8
0
  6
CONTINUOUS
 62
   130
 10
-225.502830505371
 20
-46.9342088505456
 30
0.0
 11
-229.977564583446
 21
-57.2455525956746
 31
0.0
  0
LINE
  5
   5E3
  8
0
  6
CONTINUOUS
 62
   130
 10
-225.502830505371
 20
-51.9581590507732
 30
0.0
 11
-227.797359779574
 21
-57.2455525956746
 31
0.0
  0
LINE
  5
   5E4
  8
0
  6
CONTINUOUS
 62
   130
 10
-235.002830505371
 20
-56.7446918487549
 30
0.0
 11
-235.002830505371
 21
-57.2455525956746
 31
0.0
  0
LINE
  5
   5E5
  8
0
  6
CONTINUOUS
 62
   130
 10
-240.260627742751
 20
-43.7690744879496
 30
0.0
 11
-209.002830505371
 21
-43.7690744879496
 31
0.0
  0
LINE
  5
   5E6
  8
0
  6
CONTINUOUS
 62
   130
 10
-240.260627742751
 20
-43.7690744879496
 30
0.0
 11
-240.260627742751
 21
-57.7446918487549
 31
0.0
  0
LINE
  5
   5E7
  8
0
  6
CONTINUOUS
 62
   130
 10
-209.002830505371
 20
-55.7446901692119
 30
0.0
 11
-188.518020391464
 21
-55.7446901692119
 31
0.0
  0
LINE
  5
   5E8
  8
0
  6
CONTINUOUS
 62
   130
 10
-251.017992019653
 20
-55.744690169212
 30
0.0
 11
-240.260627742751
 21
-55.744690169212
 31
0.0
  0
LINE
  5
   5E9
  8
0
  6
CONTINUOUS
 62
   130
 10
-236.518005943298
 20
47.707869726252
 30
0.0
 11
-235.453686769239
 21
45.2553081512451
 31
0.0
  0
LINE
  5
   5EA
  8
0
  6
CONTINUOUS
 62
   130
 10
-236.518005943298
 20
52.7318199264796
 30
0.0
 11
-233.273481965366
 21
45.2553081512451
 31
0.0
  0
LINE
  5
   5EB
  8
0
  6
CONTINUOUS
 62
   130
 10
-236.518178995063
 20
57.7561688981648
 30
0.0
 11
-231.093277161494
 21
45.2553081512451
 31
0.0
  0
LINE
  5
   5EC
  8
0
  6
CONTINUOUS
 62
   130
 10
-234.337974191191
 20
57.7561688981648
 30
0.0
 11
-228.913072357622
 21
45.2553081512451
 31
0.0
  0
LINE
  5
   5ED
  8
0
  6
CONTINUOUS
 62
   130
 10
-232.157769387318
 20
57.7561688981648
 30
0.0
 11
-226.732867553749
 21
45.2553081512451
 31
0.0
  0
LINE
  5
   5EE
  8
0
  6
CONTINUOUS
 62
   130
 10
-229.977564583446
 20
57.7561688981648
 30
0.0
 11
-226.017993140219
 21
48.6319390507289
 31
0.0
  0
LINE
  5
   5EF
  8
0
  6
CONTINUOUS
 62
   130
 10
-227.797359779574
 20
57.7561688981648
 30
0.0
 11
-226.017993140219
 21
53.6558892509565
 31
0.0
  0
LINE
  5
   5F0
  8
0
  6
CONTINUOUS
 62
   130
 10
-239.002830505371
 20
57.7561688981648
 30
0.0
 11
-223.502830505371
 21
57.7561688981648
 31
0.0
  0
LINE
  5
   5F1
  8
0
  6
CONTINUOUS
 62
   130
 10
-239.002830505371
 20
75.6699275215909
 30
0.0
 11
-239.002830505371
 21
57.7561688981648
 31
0.0
  0
LINE
  5
   5F2
  8
0
  6
CONTINUOUS
 62
   130
 10
-223.502830505371
 20
75.6699275215909
 30
0.0
 11
-223.502830505371
 21
57.7561688981648
 31
0.0
  0
LINE
  5
   5F3
  8
0
  6
CONTINUOUS
 62
   130
 10
-239.750342337311
 20
75.6699275215909
 30
0.0
 11
-222.941922869872
 21
75.6699275215909
 31
0.0
  0
LINE
  5
   5F4
  8
0
  6
CONTINUOUS
 62
   130
 10
-185.018005132675
 20
45.7553081512451
 30
0.0
 11
-181.018005132675
 21
45.7553081512451
 31
0.0
  0
LINE
  5
   5F5
  8
0
  6
CONTINUOUS
 62
   130
 10
-185.018005132675
 20
-45.2446918487549
 30
0.0
 11
-181.018005132675
 21
-45.2446918487549
 31
0.0
  0
LINE
  5
   5F6
  8
0
  6
CONTINUOUS
 62
   130
 10
-207.517992019653
 20
58.2553081512451
 30
0.0
 11
-207.517992019653
 21
-57.7446918487549
 31
0.0
  0
INSERT
  5
   5F7
  8
0
  6
CONTINUOUS
 62
     7
  2
*HATCH316
 10
-127.770599365234
 20
-14.2446918487549
 30
0.0
 50
269.999999844103
  0
INSERT
  5
   5F8
  8
0
  6
CONTINUOUS
 62
     7
  2
*HATCH317
 10
-127.770599365234
 20
-14.2446918487549
 30
0.0
 50
269.999999844103
  0
INSERT
  5
   5F9
  8
0
  6
CONTINUOUS
 62
     7
  2
*HATCH318
 10
-127.770599365234
 20
-14.2446918487549
 30
0.0
 50
269.999999844103
  0
LINE
  5
   5FA
  8
0
  6
CONTINUOUS
 62
   130
 10
-248.517991574605
 20
2.15530815124511
 30
0.0
 11
-248.517991574605
 21
-16.4446918487549
 31
0.0
  0
LINE
  5
   5FB
  8
0
  6
CONTINUOUS
 62
   130
 10
-248.517991574605
 20
-16.4446918487549
 30
0.0
 11
-251.017991574605
 21
-18.9446918487549
 31
0.0
  0
LINE
  5
   5FC
  8
0
  6
CONTINUOUS
 62
   130
 10
-251.017992019653
 20
4.65530859629325
 30
0.0
 11
-248.517991574605
 21
2.15530815124511
 31
0.0
  0
LINE
  5
   5FD
  8
0
  6
CONTINUOUS
 62
   130
 10
-179.017997741699
 20
11.7553234100342
 30
0.0
 11
-179.017997741699
 21
10.7553234100342
 31
0.0
  0
LINE
  5
   5FE
  8
0
  6
CONTINUOUS
 62
   130
 10
-179.017997741699
 20
-34.2446765899658
 30
0.0
 11
-179.017997741699
 21
-35.2446765899658
 31
0.0
  0
LINE
  5
   5FF
  8
0
  6
CONTINUOUS
 62
   130
 10
-179.017997741699
 20
36.2553234100342
 30
0.0
 11
-179.017997741699
 21
13.2553234100342
 31
0.0
  0
LINE
  5
   600
  8
0
  6
DASHDOT
 62
   130
 10
-179.017997741699
 20
71.8966619658505
 30
0.0
 11
-179.017997741699
 21
-80.247572864363
 31
0.0
  0
LINE
  5
   601
  8
0
  6
CONTINUOUS
 62
   130
 10
-176.017997741699
 20
-34.2446765899658
 30
0.0
 11
-176.017997741699
 21
-59.7446765899658
 31
0.0
  0
LINE
  5
   602
  8
0
  6
CONTINUOUS
 62
   130
 10
-180.517997741699
 20
11.7553234100342
 30
0.0
 11
-179.017997741699
 21
11.7553234100342
 31
0.0
  0
LINE
  5
   603
  8
0
  6
CONTINUOUS
 62
   130
 10
-180.517997741699
 20
13.2553234100342
 30
0.0
 11
-179.017997741699
 21
13.2553234100342
 31
0.0
  0
LINE
  5
   604
  8
0
  6
CONTINUOUS
 62
   130
 10
-180.517997741699
 20
13.2553234100342
 30
0.0
 11
-180.517997741699
 21
11.7553234100342
 31
0.0
  0
LINE
  5
   605
  8
0
  6
CONTINUOUS
 62
   130
 10
-179.017997741699
 20
36.2553234100342
 30
0.0
 11
-176.017997741699
 21
36.2553234100342
 31
0.0
  0
LINE
  5
   606
  8
0
  6
CONTINUOUS
 62
   130
 10
-179.017997741699
 20
-59.7446765899658
 30
0.0
 11
-176.017997741699
 21
-59.7446765899658
 31
0.0
  0
LINE
  5
   607
  8
0
  6
CONTINUOUS
 62
   130
 10
-179.017997741699
 20
-36.7446765899658
 30
0.0
 11
-179.017997741699
 21
-59.7446765899658
 31
0.0
  0
LINE
  5
   608
  8
0
  6
CONTINUOUS
 62
   130
 10
-180.517997741699
 20
-36.7446765899658
 30
0.0
 11
-179.017997741699
 21
-36.7446765899658
 31
0.0
  0
LINE
  5
   609
  8
0
  6
CONTINUOUS
 62
   130
 10
-180.517997741699
 20
-35.2446765899658
 30
0.0
 11
-180.517997741699
 21
-36.7446765899658
 31
0.0
  0
LINE
  5
   60A
  8
0
  6
DOT
 62
   130
 10
-179.017997741699
 20
10.7553234100342
 30
0.0
 11
-179.017997741699
 21
-34.2446765899658
 31
0.0
  0
LINE
  5
   60B
  8
0
  6
CONTINUOUS
 62
   130
 10
-176.017997741699
 20
36.2553234100342
 30
0.0
 11
-176.017997741699
 21
10.7553234100342
 31
0.0
  0
LINE
  5
   60C
  8
0
  6
CONTINUOUS
 62
   130
 10
-181.017997741699
 20
21.7553234100342
 30
0.0
 11
-179.017997741699
 21
21.7553234100342
 31
0.0
  0
LINE
  5
   60D
  8
0
  6
CONTINUOUS
 62
   130
 10
-181.017997741699
 20
18.7553234100342
 30
0.0
 11
-179.017997741699
 21
18.7553234100342
 31
0.0
  0
LINE
  5
   60E
  8
0
  6
CONTINUOUS
 62
   130
 10
-181.017997741699
 20
22.5053234100342
 30
0.0
 11
-181.017997741699
 21
18.0053234100342
 31
0.0
  0
LINE
  5
   60F
  8
0
  6
DOT
 62
   130
 10
-181.017997741699
 20
22.5053234100343
 30
0.0
 11
-183.017997741699
 21
21.1563063763494
 31
0.0
  0
LINE
  5
   610
  8
0
  6
DOT
 62
   130
 10
-183.017997741699
 20
19.3543404437191
 30
0.0
 11
-181.017997741699
 21
18.0053234100343
 31
0.0
  0
LINE
  5
   611
  8
0
  6
DOT
 62
   130
 10
-183.017997741699
 20
21.1563063763494
 30
0.0
 11
-183.017997741699
 21
19.3543404437191
 31
0.0
  0
LINE
  5
   612
  8
0
  6
DOT
 62
   130
 10
-183.017997741699
 20
-44.6456595562809
 30
0.0
 11
-181.017997741699
 21
-45.9946765899658
 31
0.0
  0
LINE
  5
   613
  8
0
  6
DOT
 62
   130
 10
-183.017997741699
 20
-42.8436936236506
 30
0.0
 11
-183.017997741699
 21
-44.6456595562809
 31
0.0
  0
LINE
  5
   614
  8
0
  6
DOT
 62
   130
 10
-181.017997741699
 20
-41.4946765899658
 30
0.0
 11
-183.017997741699
 21
-42.8436936236506
 31
0.0
  0
LINE
  5
   615
  8
0
  6
CONTINUOUS
 62
   130
 10
-181.017997741699
 20
-45.2446765899658
 30
0.0
 11
-179.017997741699
 21
-45.2446765899658
 31
0.0
  0
LINE
  5
   616
  8
0
  6
CONTINUOUS
 62
   130
 10
-181.017997741699
 20
-42.2446765899658
 30
0.0
 11
-179.017997741699
 21
-42.2446765899658
 31
0.0
  0
LINE
  5
   617
  8
0
  6
CONTINUOUS
 62
   130
 10
-179.017997741699
 20
11.7553234100342
 30
0.0
 11
-176.017997741699
 21
11.7553234100342
 31
0.0
  0
LINE
  5
   618
  8
0
  6
CONTINUOUS
 62
   130
 10
-180.517997741699
 20
-35.2446765899658
 30
0.0
 11
-176.017997741699
 21
-35.2446765899658
 31
0.0
  0
LINE
  5
   619
  8
0
  6
DASHDOT
 62
   130
 10
-180.517997741699
 20
71.8966619658505
 30
0.0
 11
-180.517997741699
 21
-80.7798446914604
 31
0.0
  0
INSERT
  5
   61A
  8
0
  6
CONTINUOUS
 62
     7
  2
*HATCH319
 10
-127.770599365234
 20
-14.2446918487549
 30
0.0
 50
269.999999844103
  0
INSERT
  5
   61B
  8
0
  6
CONTINUOUS
 62
     7
  2
*HATCH320
 10
-127.770599365234
 20
-14.2446918487549
 30
0.0
 50
269.999999844103
  0
CIRCLE
  5
   61C
  8
0
  6
CONTINUOUS
 62
   130
 10
-167.818721431394
 20
92.7718093316083
 30
0.0
 40
0.23
  0
CIRCLE
  5
   61D
  8
0
  6
CONTINUOUS
 62
   130
 10
-167.818721431394
 20
91.3479226451142
 30
0.0
 40
0.23
  0
LINE
  5
   61E
  8
0
  6
CONTINUOUS
 62
   130
 10
-181.018005132675
 20
61.2553081512451
 30
0.0
 11
-181.018005132675
 21
45.7553081512451
 31
0.0
  0
LINE
  5
   61F
  8
0
  6
CONTINUOUS
 62
   130
 10
-251.017991574605
 20
62.2553081512451
 30
0.0
 11
-182.018005132675
 21
62.2553081512451
 31
0.0
  0
ARC
  5
   620
  8
0
  6
CONTINUOUS
 62
   130
 10
-182.018005132675
 20
61.2553081512451
 30
0.0
 40
1.0
 50
359.999999844103
 51
449.999999844103
  0
LINE
  5
   621
  8
0
  6
CONTINUOUS
 62
   130
 10
-251.017991574605
 20
58.2553081512451
 30
0.0
 11
-185.018005132675
 21
58.2553081512451
 31
0.0
  0
LINE
  5
   622
  8
0
  6
CONTINUOUS
 62
   130
 10
-185.018005132675
 20
58.2553081512451
 30
0.0
 11
-185.018005132675
 21
45.7553081512451
 31
0.0
  0
LINE
  5
   623
  8
0
  6
CONTINUOUS
 62
   130
 10
-251.017991574605
 20
-61.7446918487549
 30
0.0
 11
-182.018005132675
 21
-61.7446918487549
 31
0.0
  0
ARC
  5
   624
  8
0
  6
CONTINUOUS
 62
   130
 10
-182.018005132675
 20
-60.7446918487549
 30
0.0
 40
1.0
 50
269.999999844103
 51
359.999999844103
  0
LINE
  5
   625
  8
0
  6
CONTINUOUS
 62
   130
 10
-181.018005132675
 20
-45.2446918487549
 30
0.0
 11
-181.018005132675
 21
-60.7446918487549
 31
0.0
  0
LINE
  5
   626
  8
0
  6
CONTINUOUS
 62
   130
 10
-251.017991574605
 20
-57.7446918487549
 30
0.0
 11
-185.018005132675
 21
-57.7446918487549
 31
0.0
  0
LINE
  5
   627
  8
0
  6
CONTINUOUS
 62
   130
 10
-185.018005132675
 20
-45.2446918487549
 30
0.0
 11
-185.018005132675
 21
-57.7446918487549
 31
0.0
  0
LINE
  5
   628
  8
0
  6
CONTINUOUS
 62
   130
 10
-209.002830505371
 20
-43.7690744879496
 30
0.0
 11
-209.002830505371
 21
-57.6697549485206
 31
0.0
  0
LINE
  5
   629
  8
0
  6
CONTINUOUS
 62
   130
 10
-181.018005132675
 20
61.7553081512451
 30
0.0
 11
-177.518005132675
 21
61.7553081512451
 31
0.0
  0
LINE
  5
   62A
  8
0
  6
CONTINUOUS
 62
   130
 10
-181.018005132675
 20
56.7553081512451
 30
0.0
 11
-177.518005132675
 21
56.7553081512451
 31
0.0
  0
LINE
  5
   62B
  8
0
  6
CONTINUOUS
 62
   130
 10
-177.018005132675
 20
61.2553081512451
 30
0.0
 11
-177.018005132675
 21
57.2553081512451
 31
0.0
  0
CIRCLE
  5
   62C
  8
0
  6
CONTINUOUS
 62
   130
 10
-179.018005132675
 20
59.2553081512451
 30
0.0
 40
0.75
  0
LINE
  5
   62D
  8
0
  6
CONTINUOUS
 62
   130
 10
-177.518005132675
 20
61.7553081512451
 30
0.0
 11
-177.018005132675
 21
61.2553081512451
 31
0.0
  0
LINE
  5
   62E
  8
0
  6
CONTINUOUS
 62
   130
 10
-177.018005132675
 20
57.2553081512451
 30
0.0
 11
-177.518005132675
 21
56.7553081512451
 31
0.0
  0
LINE
  5
   62F
  8
0
  6
CONTINUOUS
 62
   130
 10
-177.518005132675
 20
61.7553081512451
 30
0.0
 11
-177.518005132675
 21
56.7553081512451
 31
0.0
  0
LINE
  5
   630
  8
0
  6
CONTINUOUS
 62
   130
 10
-181.018005132675
 20
-61.2446918487549
 30
0.0
 11
-177.518005132675
 21
-61.2446918487549
 31
0.0
  0
LINE
  5
   631
  8
0
  6
CONTINUOUS
 62
   130
 10
-177.518005132675
 20
-56.2446918487549
 30
0.0
 11
-177.518005132675
 21
-61.2446918487549
 31
0.0
  0
LINE
  5
   632
  8
0
  6
CONTINUOUS
 62
   130
 10
-181.018005132675
 20
-56.2446918487549
 30
0.0
 11
-177.518005132675
 21
-56.2446918487549
 31
0.0
  0
LINE
  5
   633
  8
0
  6
CONTINUOUS
 62
   130
 10
-177.018005132675
 20
-60.7446918487549
 30
0.0
 11
-177.518005132675
 21
-61.2446918487549
 31
0.0
  0
LINE
  5
   634
  8
0
  6
CONTINUOUS
 62
   130
 10
-177.018005132675
 20
-56.7446918487549
 30
0.0
 11
-177.018005132675
 21
-60.7446918487549
 31
0.0
  0
LINE
  5
   635
  8
0
  6
CONTINUOUS
 62
   130
 10
-177.518005132675
 20
-56.2446918487549
 30
0.0
 11
-177.018005132675
 21
-56.7446918487549
 31
0.0
  0
CIRCLE
  5
   636
  8
0
  6
CONTINUOUS
 62
   130
 10
-179.018005132675
 20
-58.7446918487549
 30
0.0
 40
0.75
  0
CIRCLE
  5
   637
  8
0
  6
CONTINUOUS
 62
   130
 10
-225.774033251944
 20
103.39437315101
 30
0.0
 40
1.5
  0
INSERT
  5
   638
  8
0
  6
CONTINUOUS
 62
     7
  2
*HATCH321
 10
-127.770599365234
 20
-14.2446918487549
 30
0.0
 50
269.999999844103
  0
CIRCLE
  5
   639
  8
0
  6
CONTINUOUS
 62
   130
 10
-221.430735749142
 20
92.2894058322743
 30
0.0
 40
1.5
  0
INSERT
  5
   63A
  8
0
  6
CONTINUOUS
 62
     7
  2
*HATCH322
 10
-127.770599365234
 20
-14.2446918487549
 30
0.0
 50
269.999999844103
  0
TEXT
  5
   63B
  8
0
  6
CONTINUOUS
 62
     2
 10
-208.34817886692
 20
-150.185488266418
 30
0.0
 40
2.50000005960464
  1
M3727 95-01-18
 50
359.999999844103
 41
0.64999958527089
 11
-208.348178863525
 21
-148.935488236615
 31
0.0
 73
     2
  0
INSERT
  5
   63C
  8
0
  6
CONTINUOUS
 62
     3
  2
*UDIM727
 10
0.0
 20
0.0
 30
0.0
  0
INSERT
  5
   63D
  8
0
  6
CONTINUOUS
 62
     3
  2
*UDIM728
 10
0.0
 20
0.0
 30
0.0
  0
INSERT
  5
   63E
  8
0
  6
CONTINUOUS
 62
     3
  2
*UDIM729
 10
0.0
 20
0.0
 30
0.0
  0
TEXT
  5
   63F
  8
0
  6
CONTINUOUS
 62
     2
 10
-165.686457744643
 20
-13.305776809252
 30
0.0
 40
3.00000002980232
  1
X
 50
359.999999844103
 41
0.916666604744064
 11
-165.686457740569
 21
-11.8057767943508
 31
0.0
 73
     2
  0
INSERT
  5
   640
  8
0
  6
CONTINUOUS
 62
     7
  2
*UDIM730
 10
0.0
 20
0.0
 30
0.0
  0
INSERT
  5
   641
  8
0
  6
CONTINUOUS
 62
     7
  2
*UDIM731
 10
0.0
 20
0.0
 30
0.0
  0
TEXT
  5
   642
  8
0
  6
CONTINUOUS
 62
     2
 10
-273.425173048828
 20
-13.1947224872108
 30
0.0
 40
3.00000002980232
  1
X
 50
359.999999844103
 41
0.916666604744064
 72
     2
 11
-271.225173175884
 21
-11.6947224782846
 31
0.0
 73
     2
  0
TEXT
  5
   643
  8
0
  6
CONTINUOUS
 62
     2
 10
-118.816987236327
 20
-133.858355557313
 30
0.0
 40
2.00000008940697
  1
4POLE LOW VOLTAGE M.C.C.B SERIES ISOMAX
 50
359.999999844103
 41
0.625
 72
     1
 11
-94.5669861495515
 21
-132.85835557847
 31
0.0
 73
     2
  0
TEXT
  5
   644
  8
0
  6
CONTINUOUS
 62
     2
 10
-112.566986825796
 20
-136.858355574287
 30
0.0
 40
2.00000008940697
  1
FIXED VERSION FRONT TERMINALS
 50
359.999999844103
 41
0.625
 72
     1
 11
-94.5669860184173
 21
-135.85835557847
 31
0.0
 73
     2
  0
TEXT
  5
   645
  8
0
  6
CONTINUOUS
 62
     2
 10
-221.712860175705
 20
103.700972278313
 30
0.0
 40
2.00000008940697
  1
75mm.CON VITI SIGILLABILI
 50
359.999999844103
 41
0.625
 11
-221.712860172989
 21
104.700972323016
 31
0.0
 73
     2
  0
TEXT
  5
   646
  8
0
  6
CONTINUOUS
 62
     2
 10
-221.712860044571
 20
100.700972249296
 30
0.0
 40
2.00000008940697
  1
75mm.WITH SCREWS TO SEAL
 50
359.999999844103
 41
0.625
 11
-221.712860041855
 21
101.700972293999
 31
0.0
 73
     2
  0
TEXT
  5
   647
  8
0
  6
CONTINUOUS
 62
     2
 10
-219.814914706085
 20
-133.250094317459
 30
0.0
 40
2.00000008940697
  1
3/11/92
 50
359.999999844103
 41
0.625
 11
-219.814914703369
 21
-132.250094272756
 31
0.0
 73
     2
  0
TEXT
  5
   648
  8
0
  6
CONTINUOUS
 62
     2
 10
-219.814914706085
 20
-137.250094317459
 30
0.0
 40
2.00000008940697
  1
MOSTOSI
 50
359.999999844103
 41
0.625
 11
-219.814914703369
 21
-136.250094272756
 31
0.0
 73
     2
  0
TEXT
  5
   649
  8
0
  6
CONTINUOUS
 62
     2
 10
-58.5060282795403
 20
-163.074267464429
 30
0.0
 40
2.50000005960464
  1
1/1
 50
359.999999844103
 41
0.954999929332734
 72
     1
 11
-55.1635284423828
 21
-161.824267443704
 31
0.0
 73
     2
  0
TEXT
  5
   64A
  8
0
  6
CONTINUOUS
 62
     2
 10
-96.9636168026436
 20
-152.628130977274
 30
0.0
 40
3.00000002980232
  1
S1
 50
359.999999844103
 41
0.916666604744064
 72
     1
 11
-94.4886169433594
 21
-151.128130969095
 31
0.0
 73
     2
  0
TEXT
  5
   64B
  8
0
  6
CONTINUOUS
 62
     2
 10
-116.876512051458
 20
-162.018923814385
 30
0.0
 40
5.00000011920929
  1
601855/181
 50
359.999999844103
 41
0.916666496197386
 72
     1
 11
-94.4181823730469
 21
-159.518923815775
 31
0.0
 73
     2
  0
INSERT
  5
   64C
  8
0
  6
CONTINUOUS
 62
     7
  2
*UDIM732
 10
0.0
 20
0.0
 30
0.0
  0
INSERT
  5
   64D
  8
0
  6
CONTINUOUS
 62
     7
  2
*UDIM733
 10
0.0
 20
0.0
 30
0.0
  0
INSERT
  5
   64E
  8
0
  6
CONTINUOUS
 62
     3
  2
*UDIM734
 10
0.0
 20
0.0
 30
0.0
  0
INSERT
  5
   64F
  8
0
  6
CONTINUOUS
 62
     3
  2
*UDIM735
 10
0.0
 20
0.0
 30
0.0
  0
INSERT
  5
   650
  8
0
  6
CONTINUOUS
 62
     3
  2
*UDIM736
 10
0.0
 20
0.0
 30
0.0
  0
TEXT
  5
   651
  8
0
  6
CONTINUOUS
 62
     2
 10
-116.059708542487
 20
-142.399965285839
 30
0.0
 40
2.00000008940697
  1
INTERR.AUTOMATICO SERIE ISOMAX
 50
359.999999844103
 41
0.625
 72
     1
 11
-97.4347077071687
 21
-141.399965291719
 31
0.0
 73
     2
  0
TEXT
  5
   652
  8
0
  6
CONTINUOUS
 62
     2
 10
-132.309709137784
 20
-145.399965241706
 30
0.0
 40
2.00000008940697
  1
TETRAP.ESECUZIONE FISSA TERMINALI ANTERIORI E COPRITERM.
 50
359.999999844103
 41
0.625
 72
     1
 11
-97.4347075760345
 21
-144.399965291719
 31
0.0
 73
     2
  0
LINE
  5
   653
  8
0
  6
DASHDOT
 62
   130
 10
-141.217467595798
 20
56.9359245300293
 30
0.0
 11
-69.1431501799585
 21
56.9359245300293
 31
0.0
  0
LINE
  5
   654
  8
0
  6
DASHDOT
 62
   130
 10
-98.5542907714844
 20
77.5901791063164
 30
0.0
 11
-98.5542907714844
 21
36.658706626403
 31
0.0
  0
POINT
  5
   655
  8
0
  6
CONTINUOUS
 62
   130
 10
-131.929290771484
 20
72.9359245300293
 30
0.0
  0
POINT
  5
   656
  8
0
  6
CONTINUOUS
 62
   130
 10
-77.6792907714844
 20
72.9359245300293
 30
0.0
  0
POINT
  5
   657
  8
0
  6
CONTINUOUS
 62
   130
 10
-131.929290771484
 20
40.9359245300293
 30
0.0
  0
CIRCLE
  5
   658
  8
0
  6
CONTINUOUS
 62
   130
 10
-77.6792907714844
 20
72.9359245300293
 30
0.0
 40
1.0
  0
CIRCLE
  5
   659
  8
0
  6
CONTINUOUS
 62
   130
 10
-131.929290771484
 20
72.9359245300293
 30
0.0
 40
1.0
  0
CIRCLE
  5
   65A
  8
0
  6
CONTINUOUS
 62
   130
 10
-131.929290771484
 20
40.9359245300293
 30
0.0
 40
1.0
  0
CIRCLE
  5
   65B
  8
0
  6
CONTINUOUS
 62
   130
 10
-77.6792907714844
 20
40.9359245300293
 30
0.0
 40
1.0
  0
LINE
  5
   65C
  8
0
  6
CONTINUOUS
 62
   130
 10
-77.0542907714844
 20
69.4359245300293
 30
0.0
 11
-77.0542907714844
 21
44.4359245300293
 31
0.0
  0
LINE
  5
   65D
  8
0
  6
CONTINUOUS
 62
   130
 10
-132.554290771484
 20
69.4359245300293
 30
0.0
 11
-132.554290771484
 21
44.4359245300293
 31
0.0
  0
LINE
  5
   65E
  8
0
  6
CONTINUOUS
 62
   130
 10
-131.804290771484
 20
70.1859245300293
 30
0.0
 11
-77.8042907714844
 21
70.1859245300293
 31
0.0
  0
LINE
  5
   65F
  8
0
  6
CONTINUOUS
 62
   130
 10
-131.804290771484
 20
43.6859245300293
 30
0.0
 11
-77.8042907714844
 21
43.6859245300293
 31
0.0
  0
ARC
  5
   660
  8
0
  6
CONTINUOUS
 62
   130
 10
-77.8042907714844
 20
69.4359245300293
 30
0.0
 40
0.75
 50
359.999999844103
 51
449.999999844103
  0
ARC
  5
   661
  8
0
  6
CONTINUOUS
 62
   130
 10
-77.8042907714844
 20
44.4359245300293
 30
0.0
 40
0.75
 50
269.999999844103
 51
359.999999844103
  0
ARC
  5
   662
  8
0
  6
CONTINUOUS
 62
   130
 10
-131.804290771484
 20
44.4359245300293
 30
0.0
 40
0.75
 50
539.999999844103
 51
629.999999844103
  0
ARC
  5
   663
  8
0
  6
CONTINUOUS
 62
   130
 10
-131.804290771484
 20
69.4359245300293
 30
0.0
 40
0.75
 50
449.999999844103
 51
539.999999844103
  0
LINE
  5
   664
  8
0
  6
DASHDOT
 62
   130
 10
-77.6792907714844
 20
74.4359245300293
 30
0.0
 11
-77.6792907714844
 21
71.4359245300293
 31
0.0
  0
LINE
  5
   665
  8
0
  6
DASHDOT
 62
   130
 10
-134.176256337607
 20
72.9359245300293
 30
0.0
 11
-76.1792907714844
 21
72.9359245300293
 31
0.0
  0
LINE
  5
   666
  8
0
  6
DASHDOT
 62
   130
 10
-77.6792907714844
 20
42.4359245300293
 30
0.0
 11
-77.6792907714844
 21
39.4359245300293
 31
0.0
  0
LINE
  5
   667
  8
0
  6
DASHDOT
 62
   130
 10
-134.465865812701
 20
40.9359245300293
 30
0.0
 11
-76.1792907714844
 21
40.9359245300293
 31
0.0
  0
LINE
  5
   668
  8
0
  6
CONTINUOUS
 62
   130
 10
-137.332200919136
 20
78.5771771504133
 30
0.0
 11
-72.798320994929
 21
78.5771771504133
 31
0.0
  0
LINE
  5
   669
  8
0
  6
CONTINUOUS
 62
   130
 10
-137.332200919136
 20
36.7738541225869
 30
0.0
 11
-72.798320994929
 21
36.7738541225869
 31
0.0
  0
LINE
  5
   66A
  8
0
  6
CONTINUOUS
 62
   130
 10
-137.332200919136
 20
78.5771771504133
 30
0.0
 11
-137.332200919136
 21
36.7738541225869
 31
0.0
  0
LINE
  5
   66B
  8
0
  6
CONTINUOUS
 62
   130
 10
-72.798320994929
 20
78.5771771504133
 30
0.0
 11
-72.798320994929
 21
36.7738541225869
 31
0.0
  0
INSERT
  5
   66C
  8
0
  6
CONTINUOUS
 62
     3
  2
*UDIM737
 10
0.0
 20
0.0
 30
0.0
  0
INSERT
  5
   66D
  8
0
  6
CONTINUOUS
 62
     3
  2
*UDIM738
 10
0.0
 20
0.0
 30
0.0
  0
INSERT
  5
   66E
  8
0
  6
CONTINUOUS
 62
     3
  2
*UDIM739
 10
0.0
 20
0.0
 30
0.0
  0
TEXT
  5
   66F
  8
0
  6
CONTINUOUS
 62
     2
 10
-68.6989325112074
 20
55.3998899209986
 30
0.0
 40
3.00000002980232
  1
X
 50
359.999999844103
 41
0.916666674282816
 11
-68.6989325071336
 21
56.8998899358998
 31
0.0
 73
     2
  0
TEXT
  5
   670
  8
0
  6
CONTINUOUS
 62
     2
 10
-144.602048138224
 20
55.3998898248336
 30
0.0
 40
3.00000002980232
  1
X
 50
359.999999844103
 41
0.916666674282816
 72
     2
 11
-142.402048056664
 21
56.8998898337598
 31
0.0
 73
     2
  0
TEXT
  5
   671
  8
0
  6
CONTINUOUS
 62
     2
 10
-99.7836254000638
 20
22.9897434572826
 30
0.0
 40
3.00000002980232
  1
Y
 50
359.999999844103
 41
0.916666674282816
 72
     1
 11
-98.6836253531731
 21
25.9897434840974
 31
0.0
 73
     3
  0
TEXT
  5
   672
  8
0
  6
CONTINUOUS
 62
     2
 10
-99.6725711129917
 20
89.3647981434367
 30
0.0
 40
3.00000002980232
  1
Y
 50
359.999999844103
 41
0.916666674282816
 72
     1
 11
-98.5725710742487
 21
89.3647981404493
 31
0.0
  0
INSERT
  5
   673
  8
0
  6
CONTINUOUS
 62
     3
  2
*UDIM740
 10
0.0
 20
0.0
 30
0.0
  0
INSERT
  5
   674
  8
0
  6
CONTINUOUS
 62
     3
  2
*UDIM741
 10
0.0
 20
0.0
 30
0.0
  0
INSERT
  5
   675
  8
0
  6
CONTINUOUS
 62
     3
  2
*UDIM742
 10
0.0
 20
0.0
 30
0.0
  0
INSERT
  5
   676
  8
0
  6
CONTINUOUS
 62
     3
  2
*UDIM743
 10
0.0
 20
0.0
 30
0.0
  0
INSERT
  5
   677
  8
0
  6
CONTINUOUS
 62
     3
  2
*UDIM744
 10
0.0
 20
0.0
 30
0.0
  0
ENDSEC
  0
EOF
