  0
SECTION
  2
HEADER
  9
$ACADVER
  1
AC1009
  9
$DWGCODEPAGE
  3
iso8859-1
  9
$INSBASE
 10
0.0
 20
0.0
 30
0.0
  9
$EXTMIN
 10
1.0E20
 20
1.0E20
  9
$EXTMAX
 10
-1.0E20
 20
-1.0E20
  9
$LIMMIN
 10
0.0
 20
0.0
  9
$LIMMAX
 10
12.0
 20
9.0
  9
$ORTHOMODE
 70
     0
  9
$REGENMODE
 70
     1
  9
$FILLMODE
 70
     1
  9
$QTEXTMODE
 70
     0
  9
$MIRRTEXT
 70
     1
  9
$DRAGMODE
 70
     2
  9
$LTSCALE
 40
15.0
  9
$OSMODE
 70
     0
  9
$ATTMODE
 70
     1
  9
$TEXTSIZE
 40
0.2
  9
$TRACEWID
 40
0.05
  9
$TEXTSTYLE
  7
STANDARD
  9
$CLAYER
  8
0
  9
$CELTYPE
  6
DASHED
  9
$CECOLOR
 62
   256
  9
$DIMSCALE
 40
1.0
  9
$DIMASZ
 40
0.18
  9
$DIMEXO
 40
0.0625
  9
$DIMDLI
 40
0.38
  9
$DIMRND
 40
0.0
  9
$DIMDLE
 40
0.0
  9
$DIMEXE
 40
0.18
  9
$DIMTP
 40
0.0
  9
$DIMTM
 40
0.0
  9
$DIMTXT
 40
0.18
  9
$DIMCEN
 40
0.09
  9
$DIMTSZ
 40
0.0
  9
$DIMTOL
 70
     0
  9
$DIMLIM
 70
     0
  9
$DIMTIH
 70
     1
  9
$DIMTOH
 70
     1
  9
$DIMSE1
 70
     0
  9
$DIMSE2
 70
     0
  9
$DIMTAD
 70
     0
  9
$DIMZIN
 70
     0
  9
$DIMBLK
  1

  9
$DIMASO
 70
     1
  9
$DIMSHO
 70
     1
  9
$DIMPOST
  1

  9
$DIMAPOST
  1

  9
$DIMALT
 70
     0
  9
$DIMALTD
 70
     2
  9
$DIMALTF
 40
25.4
  9
$DIMLFAC
 40
1.0
  9
$DIMTOFL
 70
     0
  9
$DIMTVP
 40
0.0
  9
$DIMTIX
 70
     0
  9
$DIMSOXD
 70
     0
  9
$DIMSAH
 70
     0
  9
$DIMBLK1
  1

  9
$DIMBLK2
  1

  9
$DIMSTYLE
  2
STANDARD
  9
$DIMCLRD
 70
     0
  9
$DIMCLRE
 70
     0
  9
$DIMCLRT
 70
     0
  9
$DIMTFAC
 40
1.0
  9
$DIMGAP
 40
0.09
  9
$LUNITS
 70
     2
  9
$LUPREC
 70
     4
  9
$AXISMODE
 70
     0
  9
$AXISUNIT
 10
0.0
 20
0.0
  9
$SKETCHINC
 40
0.1
  9
$FILLETRAD
 40
0.0
  9
$AUNITS
 70
     0
  9
$AUPREC
 70
     0
  9
$MENU
  1
acad
  9
$ELEVATION
 40
0.0
  9
$PELEVATION
 40
0.0
  9
$THICKNESS
 40
0.0
  9
$LIMCHECK
 70
     0
  9
$BLIPMODE
 70
     1
  9
$CHAMFERA
 40
0.0
  9
$CHAMFERB
 40
0.0
  9
$SKPOLY
 70
     0
  9
$TDCREATE
 40
0.000000000
  9
$TDUPDATE
 40
0.000000000
  9
$TDINDWG
 40
0.0
  9
$TDUSRTIMER
 40
0.0
  9
$USRTIMER
 70
     1
  9
$ANGBASE
 50
0.0
  9
$ANGDIR
 70
     0
  9
$PDMODE
 70
     0
  9
$PDSIZE
 40
0.0
  9
$PLINEWID
 40
0.0
  9
$COORDS
 70
     1
  9
$SPLFRAME
 70
     0
  9
$SPLINETYPE
 70
     6
  9
$SPLINESEGS
 70
     8
  9
$ATTDIA
 70
     0
  9
$ATTREQ
 70
     1
  9
$HANDLING
 70
     1
  9
$HANDSEED
  5
   586
  9
$SURFTAB1
 70
     6
  9
$SURFTAB2
 70
     6
  9
$SURFTYPE
 70
     6
  9
$SURFU
 70
     6
  9
$SURFV
 70
     6
  9
$UCSNAME
  2

  9
$UCSORG
 10
0.0
 20
0.0
 30
0.0
  9
$UCSXDIR
 10
1.0
 20
0.0
 30
0.0
  9
$UCSYDIR
 10
0.0
 20
1.0
 30
0.0
  9
$PUCSNAME
  2

  9
$PUCSORG
 10
0.0
 20
0.0
 30
0.0
  9
$PUCSXDIR
 10
1.0
 20
0.0
 30
0.0
  9
$PUCSYDIR
 10
0.0
 20
1.0
 30
0.0
  9
$USERI1
 70
     0
  9
$USERI2
 70
     0
  9
$USERI3
 70
     0
  9
$USERI4
 70
     0
  9
$USERI5
 70
     0
  9
$USERR1
 40
0.0
  9
$USERR2
 40
0.0
  9
$USERR3
 40
0.0
  9
$USERR4
 40
0.0
  9
$USERR5
 40
0.0
  9
$WORLDVIEW
 70
     1
  9
$SHADEDGE
 70
     3
  9
$SHADEDIF
 70
    70
  9
$TILEMODE
 70
     1
  9
$MAXACTVP
 70
    16
  9
$PINSBASE
 10
0.0
 20
0.0
 30
0.0
  9
$PLIMCHECK
 70
     0
  9
$PEXTMIN
 10
1.0E20
 20
1.0E20
 30
1.0E20
  9
$PEXTMAX
 10
-1.0E20
 20
-1.0E20
 30
-1.0E20
  9
$PLIMMIN
 10
0.0
 20
0.0
  9
$PLIMMAX
 10
12.0
 20
9.0
  9
$UNITMODE
 70
     0
  9
$VISRETAIN
 70
     0
  0
ENDSEC
  0
SECTION
  2
TABLES
  0
TABLE
  2
VPORT
 70
     1
  0
VPORT
  2
*ACTIVE
 70
     0
 10
0.0
 20
0.0
 11
1.0
 21
1.0
 12
6.801242
 22
4.5
 13
0.0
 23
0.0
 14
1.0
 24
1.0
 15
0.0
 25
0.0
 16
0.0
 26
0.0
 36
1.0
 17
0.0
 27
0.0
 37
0.0
 40
9.0
 41
1.511387
 42
50.0
 43
0.0
 44
0.0
 50
0.0
 51
0.0
 71
     0
 72
   100
 73
     1
 74
     1
 75
     0
 76
     0
 77
     0
 78
     0
  0
ENDTAB
  0
TABLE
  2
LTYPE
 70
    41
  0
LTYPE
  2
BYBLOCK
 70
     0
  3

 72
    65
 73
     0
 40
0.0
  0
LTYPE
  2
BYLAYER
 70
     0
  3

 72
    65
 73
     0
 40
0.0
  0
LTYPE
  2
CONTINUOUS
 70
     0
  3
Solid line
 72
    65
 73
     0
 40
0.0
  0
LTYPE
  2
BORDER
 70
    64
  3
__ __ . __ __ . __ __ . __ __ . __ __ . __ __ .
 72
    65
 73
     6
 40
1.75
 49
0.5
 49
-0.25
 49
0.5
 49
-0.25
 49
0.0
 49
-0.25
  0
LTYPE
  2
BORDER2
 70
    64
  3
__.__.__.__.__.__.__.__.__.__.__.__.__.__.__.__
 72
    65
 73
     6
 40
0.875
 49
0.25
 49
-0.125
 49
0.25
 49
-0.125
 49
0.0
 49
-0.125
  0
LTYPE
  2
BORDERX2
 70
    64
  3
____  ____  .  ____  ____  .  ____  ____  .  __
 72
    65
 73
     6
 40
3.5
 49
1.0
 49
-0.5
 49
1.0
 49
-0.5
 49
0.0
 49
-0.5
  0
LTYPE
  2
CENTER
 70
    64
  3
____ _ ____ _ ____ _ ____ _ ____ _ ____ _ ____
 72
    65
 73
     4
 40
2.0
 49
1.25
 49
-0.25
 49
0.25
 49
-0.25
  0
LTYPE
  2
CENTER2
 70
    64
  3
___ _ ___ _ ___ _ ___ _ ___ _ ___ _ ___ _ ___ _
 72
    65
 73
     4
 40
1.125
 49
0.75
 49
-0.125
 49
0.125
 49
-0.125
  0
LTYPE
  2
CENTERX2
 70
    64
  3
________  __  ________  __  ________  __  _____
 72
    65
 73
     4
 40
4.0
 49
2.5
 49
-0.5
 49
0.5
 49
-0.5
  0
LTYPE
  2
DASHDOT
 70
    64
  3
__ . __ . __ . __ . __ . __ . __ . __ . __ . __
 72
    65
 73
     4
 40
1.0
 49
0.5
 49
-0.25
 49
0.0
 49
-0.25
  0
LTYPE
  2
DASHDOT2
 70
    64
  3
_._._._._._._._._._._._._._._._._._._._._._._._
 72
    65
 73
     4
 40
0.5
 49
0.25
 49
-0.125
 49
0.0
 49
-0.125
  0
LTYPE
  2
DASHDOTX2
 70
    64
  3
____  .  ____  .  ____  .  ____  .  ____  .  __
 72
    65
 73
     4
 40
2.0
 49
1.0
 49
-0.5
 49
0.0
 49
-0.5
  0
LTYPE
  2
DASHED
 70
    64
  3
__ __ __ __ __ __ __ __ __ __ __ __ __ __ __ __
 72
    65
 73
     2
 40
0.75
 49
0.5
 49
-0.25
  0
LTYPE
  2
DASHED2
 70
    64
  3
_ _ _ _ _ _ _ _ _ _ _ _ _ _ _ _ _ _ _ _ _ _ _ _
 72
    65
 73
     2
 40
0.375
 49
0.25
 49
-0.125
  0
LTYPE
  2
DASHEDX2
 70
    64
  3
____  ____  ____  ____  ____  ____  ____  ____
 72
    65
 73
     2
 40
1.5
 49
1.0
 49
-0.5
  0
LTYPE
  2
DIVIDE
 70
    64
  3
____ . . ____ . . ____ . . ____ . . ____ . . __
 72
    65
 73
     6
 40
1.25
 49
0.5
 49
-0.25
 49
0.0
 49
-0.25
 49
0.0
 49
-0.25
  0
LTYPE
  2
DIVIDE2
 70
    64
  3
__..__..__..__..__..__..__..__..__..__..__..__.
 72
    65
 73
     6
 40
0.625
 49
0.25
 49
-0.125
 49
0.0
 49
-0.125
 49
0.0
 49
-0.125
  0
LTYPE
  2
DIVIDEX2
 70
    64
  3
________  .  .  ________  .  .  ________  .  .
 72
    65
 73
     6
 40
2.5
 49
1.0
 49
-0.5
 49
0.0
 49
-0.5
 49
0.0
 49
-0.5
  0
LTYPE
  2
DOT
 70
    64
  3
. . . . . . . . . . . . . . . . . . . . . . . .
 72
    65
 73
     2
 40
0.25
 49
0.0
 49
-0.25
  0
LTYPE
  2
DOT2
 70
    64
  3
...............................................
 72
    65
 73
     2
 40
0.125
 49
0.0
 49
-0.125
  0
LTYPE
  2
DOTX2
 70
    64
  3
.  .  .  .  .  .  .  .  .  .  .  .  .  .  .  .
 72
    65
 73
     2
 40
0.5
 49
0.0
 49
-0.5
  0
LTYPE
  2
HIDDEN
 70
    64
  3
__ __ __ __ __ __ __ __ __ __ __ __ __ __ __ __
 72
    65
 73
     2
 40
0.375
 49
0.25
 49
-0.125
  0
LTYPE
  2
HIDDEN2
 70
    64
  3
_ _ _ _ _ _ _ _ _ _ _ _ _ _ _ _ _ _ _ _ _ _ _ _
 72
    65
 73
     2
 40
0.1875
 49
0.125
 49
-0.0625
  0
LTYPE
  2
HIDDENX2
 70
    64
  3
____ ____ ____ ____ ____ ____ ____ ____ ____ __
 72
    65
 73
     2
 40
0.75
 49
0.5
 49
-0.25
  0
LTYPE
  2
PHANTOM
 70
    64
  3
______  __  __  ______  __  __  ______  __  __
 72
    65
 73
     6
 40
2.5
 49
1.25
 49
-0.25
 49
0.25
 49
-0.25
 49
0.25
 49
-0.25
  0
LTYPE
  2
PHANTOM2
 70
    64
  3
___ _ _ ___ _ _ ___ _ _ ___ _ _ ___ _ _ ___ _ _
 72
    65
 73
     6
 40
1.25
 49
0.625
 49
-0.125
 49
0.125
 49
-0.125
 49
0.125
 49
-0.125
  0
LTYPE
  2
PHANTOMX2
 70
    64
  3
____________    ____    ____    ____________
 72
    65
 73
     6
 40
5.0
 49
2.5
 49
-0.5
 49
0.5
 49
-0.5
 49
0.5
 49
-0.5
  0
LTYPE
  2
ACAD_ISO02W100
 70
    64
  3
__ __ __ __ __ __ __ __ __ __ __ __ __ __ __ __
 72
    65
 73
     2
 40
15.0
 49
12.0
 49
-3.0
  0
LTYPE
  2
ACAD_ISO03W100
 70
    64
  3
__    __    __    __    __    __    __    __
 72
    65
 73
     2
 40
30.0
 49
12.0
 49
-18.0
  0
LTYPE
  2
ACAD_ISO04W100
 70
    64
  3
____ . ____ . ____ . ____ . ____ . ____ . ____
 72
    65
 73
     4
 40
30.5
 49
24.0
 49
-3.0
 49
0.5
 49
-3.0
  0
LTYPE
  2
ACAD_ISO05W100
 70
    64
  3
____ .. ____ .. ____ .. ____ .. ____ .. ____ ..
 72
    65
 73
     6
 40
34.0
 49
24.0
 49
-3.0
 49
0.5
 49
-3.0
 49
0.5
 49
-3.0
  0
LTYPE
  2
ACAD_ISO06W100
 70
    64
  3
____ ... ____ ... ____ ... ____ ... ____ ... __
 72
    65
 73
     8
 40
37.5
 49
24.0
 49
-3.0
 49
0.5
 49
-3.0
 49
0.5
 49
-3.0
 49
0.5
 49
-3.0
  0
LTYPE
  2
ACAD_ISO07W100
 70
    64
  3
. . . . . . . . . . . . . . . . . . . . . . . .
 72
    65
 73
     2
 40
3.5
 49
0.5
 49
-3.0
  0
LTYPE
  2
ACAD_ISO08W100
 70
    64
  3
____ __ ____ __ ____ __ ____ ____ __ __ ____ __
 72
    65
 73
     4
 40
36.0
 49
24.0
 49
-3.0
 49
6.0
 49
-3.0
  0
LTYPE
  2
ACAD_ISO09W100
 70
    64
  3
____ __ __ ____ __ __ ____ __ __ ____ __ __ ___
 72
    65
 73
     6
 40
45.0
 49
24.0
 49
-3.0
 49
6.0
 49
-3.0
 49
6.0
 49
-3.0
  0
LTYPE
  2
ACAD_ISO10W100
 70
    64
  3
__ . __ . __ . __ . __ . __ . __ . __ . __ . __
 72
    65
 73
     4
 40
18.5
 49
12.0
 49
-3.0
 49
0.5
 49
-3.0
  0
LTYPE
  2
ACAD_ISO11W100
 70
    64
  3
__ __ . __ __ . __ __ . __ __ . __ __ . __ __ .
 72
    65
 73
     6
 40
33.5
 49
12.0
 49
-3.0
 49
12.0
 49
-3.0
 49
0.5
 49
-3.0
  0
LTYPE
  2
ACAD_ISO12W100
 70
    64
  3
__ . . __ . . __ . . __ . . __ . . __ . . __ .
 72
    65
 73
     6
 40
22.0
 49
12.0
 49
-3.0
 49
0.5
 49
-3.0
 49
0.5
 49
-3.0
  0
LTYPE
  2
ACAD_ISO13W100
 70
    64
  3
__ __ . . __ __ . . __ __ . . __ __ . . __ __ .
 72
    65
 73
     8
 40
37.0
 49
12.0
 49
-3.0
 49
12.0
 49
-3.0
 49
0.5
 49
-3.0
 49
0.5
 49
-3.0
  0
LTYPE
  2
ACAD_ISO14W100
 70
    64
  3
__ . . . __ . . . __ . . . __ . . . __ . . . __
 72
    65
 73
     8
 40
25.5
 49
12.0
 49
-3.0
 49
0.5
 49
-3.0
 49
0.5
 49
-3.0
 49
0.5
 49
-3.0
  0
LTYPE
  2
ACAD_ISO15W100
 70
    64
  3
__ __ . . . __ __ . . . __ __ . . . __ __ . . .
 72
    65
 73
    10
 40
40.5
 49
12.0
 49
-3.0
 49
12.0
 49
-3.0
 49
0.5
 49
-3.0
 49
0.5
 49
-3.0
 49
0.5
 49
-3.0
  0
ENDTAB
  0
TABLE
  2
STYLE
 70
     4
  0
STYLE
  2
STANDARD
 70
    64
 40
0.0
 41
1.0
 50
0.0
 71
     0
 42
0.2
  3
txt
  4

  0
STYLE
  2
TOLERANCE
 70
    64
 40
0.0
 41
1.0
 50
0.0
 71
     0
 42
0.2
  3
../igesfont/iges1003.shx
  4

  0
STYLE
  2
ROMANS
 70
    64
 40
0.0
 41
1.0
 50
0.0
 71
     0
 42
0.2
  3
romans.shx
  4

  0
STYLE
  2
ROMANC
 70
    64
 40
0.0
 41
1.0
 50
0.0
 71
     0
 42
0.2
  3
romanc.shx
  4

  0
ENDTAB
  0
TABLE
  2
DIMSTYLE
 70
     2
  0
DIMSTYLE
  2
UNNAMED
 70
     0
  3

  4

  5

  6

  7

 40
1.0
 41
0.18
 42
0.0625
 43
0.38
 44
0.18
 45
0.0
 46
0.0
 47
0.0
 48
0.0
140
0.18
141
0.09
142
0.0
143
25.4
144
1.0
145
0.0
146
1.0
147
0.09
 71
     0
 72
     0
 73
     1
 74
     1
 75
     0
 76
     0
 77
     0
 78
     0
170
     0
171
     2
172
     0
173
     0
174
     0
175
     0
176
     0
177
     0
178
     0
  0
DIMSTYLE
  2
STANDARD
 70
     0
  3

  4

  5

  6

  7

 40
1.0
 41
0.18
 42
0.0625
 43
0.38
 44
0.18
 45
0.0
 46
0.0
 47
0.0
 48
0.0
140
0.18
141
0.09
142
0.0
143
25.4
144
1.0
145
0.0
146
1.0
147
0.09
 71
     0
 72
     0
 73
     1
 74
     1
 75
     0
 76
     0
 77
     0
 78
     0
170
     0
171
     2
172
     0
173
     0
174
     0
175
     0
176
     0
177
     0
178
     0
  0
ENDTAB
  0
TABLE
  2
LAYER
 70
     2
  0
LAYER
  2
0
 70
     0
 62
     7
  6
CONTINUOUS
  0
LAYER
  2
255
 70
     0
 62
     7
  6
CONTINUOUS
  0
ENDTAB
  0
ENDSEC
  0
SECTION
  2
BLOCKS
  0
BLOCK
  5
     B
  8
0
  6
CONTINUOUS
 62
    18
  2
*HATCH404
 70
    65
 10
0.0
 20
0.0
 30
0.0
  3
*HATCH404
  0
LINE
  5
     C
  8
0
  6
DOT2
 62
    10
 10
18.2260398864746
 20
-21.75
 30
0.0
 11
36.2260398864746
 21
-21.75
 31
0.0
  0
LINE
  5
     D
  8
0
  6
DOT2
 62
    10
 10
18.2260398864746
 20
-19.75
 30
0.0
 11
21.1800842285156
 21
-19.75
 31
0.0
  0
LINE
  5
     E
  8
0
  6
DOT2
 62
    10
 10
18.2260398864746
 20
-17.75
 30
0.0
 11
21.1800842285156
 21
-17.75
 31
0.0
  0
LINE
  5
     F
  8
0
  6
DOT2
 62
    10
 10
18.2260398864746
 20
-15.75
 30
0.0
 11
21.1800842285156
 21
-15.75
 31
0.0
  0
LINE
  5
    10
  8
0
  6
DOT2
 62
    10
 10
18.2260398864746
 20
-13.75
 30
0.0
 11
21.1800842285156
 21
-13.75
 31
0.0
  0
LINE
  5
    11
  8
0
  6
DOT2
 62
    10
 10
18.2260398864746
 20
-11.75
 30
0.0
 11
21.1800842285156
 21
-11.75
 31
0.0
  0
LINE
  5
    12
  8
0
  6
DOT2
 62
    10
 10
18.2260398864746
 20
-9.74999999999999
 30
0.0
 11
21.1800842285156
 21
-9.74999999999999
 31
0.0
  0
LINE
  5
    13
  8
0
  6
DOT2
 62
    10
 10
18.2260398864746
 20
-7.74999999999999
 30
0.0
 11
21.1800842285156
 21
-7.74999999999999
 31
0.0
  0
LINE
  5
    14
  8
0
  6
DOT2
 62
    10
 10
18.2260398864746
 20
-5.74999999999999
 30
0.0
 11
21.1800842285156
 21
-5.74999999999999
 31
0.0
  0
LINE
  5
    15
  8
0
  6
DOT2
 62
    10
 10
18.2260398864746
 20
-3.74999999999999
 30
0.0
 11
21.1800842285156
 21
-3.74999999999999
 31
0.0
  0
LINE
  5
    16
  8
0
  6
DOT2
 62
    10
 10
18.2260398864746
 20
-1.74999999999999
 30
0.0
 11
21.1800842285156
 21
-1.74999999999999
 31
0.0
  0
LINE
  5
    17
  8
0
  6
DOT2
 62
    10
 10
18.2260398864746
 20
0.250000000000011
 30
0.0
 11
21.1800842285156
 21
0.250000000000011
 31
0.0
  0
LINE
  5
    18
  8
0
  6
DOT2
 62
    10
 10
18.2260398864746
 20
2.25000000000001
 30
0.0
 11
21.1800842285156
 21
2.25000000000001
 31
0.0
  0
LINE
  5
    19
  8
0
  6
DOT2
 62
    10
 10
18.2260398864746
 20
4.25000000000001
 30
0.0
 11
21.1800842285156
 21
4.25000000000001
 31
0.0
  0
LINE
  5
    1A
  8
0
  6
DOT2
 62
    10
 10
18.2260398864746
 20
6.25000000000001
 30
0.0
 11
21.1800842285156
 21
6.25000000000001
 31
0.0
  0
LINE
  5
    1B
  8
0
  6
DOT2
 62
    10
 10
18.2260398864746
 20
8.25000000000001
 30
0.0
 11
21.1800842285156
 21
8.25000000000001
 31
0.0
  0
LINE
  5
    1C
  8
0
  6
DOT2
 62
    10
 10
18.2260398864746
 20
10.25
 30
0.0
 11
21.1800842285156
 21
10.25
 31
0.0
  0
LINE
  5
    1D
  8
0
  6
DOT2
 62
    10
 10
18.2260398864746
 20
12.25
 30
0.0
 11
21.1800842285156
 21
12.25
 31
0.0
  0
LINE
  5
    1E
  8
0
  6
DOT2
 62
    10
 10
18.2260398864746
 20
14.25
 30
0.0
 11
21.1800842285156
 21
14.25
 31
0.0
  0
LINE
  5
    1F
  8
0
  6
DOT2
 62
    10
 10
18.2260398864746
 20
16.25
 30
0.0
 11
21.1800842285156
 21
16.25
 31
0.0
  0
LINE
  5
    20
  8
0
  6
DOT2
 62
    10
 10
18.2260398864746
 20
18.25
 30
0.0
 11
21.1800842285156
 21
18.25
 31
0.0
  0
LINE
  5
    21
  8
0
  6
DOT2
 62
    10
 10
18.2260398864746
 20
20.25
 30
0.0
 11
21.1800842285156
 21
20.25
 31
0.0
  0
LINE
  5
    22
  8
0
  6
DOT2
 62
    10
 10
18.2260398864746
 20
22.25
 30
0.0
 11
36.2260398864746
 21
22.25
 31
0.0
  0
ENDBLK
  5
    23
  8
0
  6
CONTINUOUS
 62
    18
  0
BLOCK
  5
    24
  8
0
  6
CONTINUOUS
 62
     7
  2
*HATCH405
 70
    65
 10
0.0
 20
0.0
 30
0.0
  3
*HATCH405
  0
LINE
  5
    25
  8
0
  6
DOT2
 62
    10
 10
85.0557632446289
 20
-21.75
 30
0.0
 11
103.055763244629
 21
-21.75
 31
0.0
  0
LINE
  5
    26
  8
0
  6
DOT2
 62
    10
 10
100.319770812988
 20
-19.75
 30
0.0
 11
103.055763244629
 21
-19.75
 31
0.0
  0
LINE
  5
    27
  8
0
  6
DOT2
 62
    10
 10
100.319770812988
 20
-17.75
 30
0.0
 11
103.055763244629
 21
-17.75
 31
0.0
  0
LINE
  5
    28
  8
0
  6
DOT2
 62
    10
 10
100.319770812988
 20
-15.75
 30
0.0
 11
103.055763244629
 21
-15.75
 31
0.0
  0
LINE
  5
    29
  8
0
  6
DOT2
 62
    10
 10
100.319770812988
 20
-13.75
 30
0.0
 11
103.055763244629
 21
-13.75
 31
0.0
  0
LINE
  5
    2A
  8
0
  6
DOT2
 62
    10
 10
100.319770812988
 20
-11.75
 30
0.0
 11
103.055763244629
 21
-11.75
 31
0.0
  0
LINE
  5
    2B
  8
0
  6
DOT2
 62
    10
 10
100.319770812988
 20
-9.74999999999999
 30
0.0
 11
103.055763244629
 21
-9.74999999999999
 31
0.0
  0
LINE
  5
    2C
  8
0
  6
DOT2
 62
    10
 10
100.319770812988
 20
-7.74999999999999
 30
0.0
 11
103.055763244629
 21
-7.74999999999999
 31
0.0
  0
LINE
  5
    2D
  8
0
  6
DOT2
 62
    10
 10
100.319770812988
 20
-5.74999999999999
 30
0.0
 11
103.055763244629
 21
-5.74999999999999
 31
0.0
  0
LINE
  5
    2E
  8
0
  6
DOT2
 62
    10
 10
100.319770812988
 20
-3.74999999999999
 30
0.0
 11
103.055763244629
 21
-3.74999999999999
 31
0.0
  0
LINE
  5
    2F
  8
0
  6
DOT2
 62
    10
 10
100.319770812988
 20
-1.74999999999999
 30
0.0
 11
103.055763244629
 21
-1.74999999999999
 31
0.0
  0
LINE
  5
    30
  8
0
  6
DOT2
 62
    10
 10
100.319770812988
 20
0.250000000000014
 30
0.0
 11
103.055763244629
 21
0.250000000000014
 31
0.0
  0
LINE
  5
    31
  8
0
  6
DOT2
 62
    10
 10
100.319770812988
 20
2.25000000000001
 30
0.0
 11
103.055763244629
 21
2.25000000000001
 31
0.0
  0
LINE
  5
    32
  8
0
  6
DOT2
 62
    10
 10
100.319770812988
 20
4.25000000000001
 30
0.0
 11
103.055763244629
 21
4.25000000000001
 31
0.0
  0
LINE
  5
    33
  8
0
  6
DOT2
 62
    10
 10
100.319770812988
 20
6.25000000000001
 30
0.0
 11
103.055763244629
 21
6.25000000000001
 31
0.0
  0
LINE
  5
    34
  8
0
  6
DOT2
 62
    10
 10
100.319770812988
 20
8.25000000000001
 30
0.0
 11
103.055763244629
 21
8.25000000000001
 31
0.0
  0
LINE
  5
    35
  8
0
  6
DOT2
 62
    10
 10
100.319770812988
 20
10.25
 30
0.0
 11
103.055763244629
 21
10.25
 31
0.0
  0
LINE
  5
    36
  8
0
  6
DOT2
 62
    10
 10
100.319770812988
 20
12.25
 30
0.0
 11
103.055763244629
 21
12.25
 31
0.0
  0
LINE
  5
    37
  8
0
  6
DOT2
 62
    10
 10
100.319770812988
 20
14.25
 30
0.0
 11
103.055763244629
 21
14.25
 31
0.0
  0
LINE
  5
    38
  8
0
  6
DOT2
 62
    10
 10
100.319770812988
 20
16.25
 30
0.0
 11
103.055763244629
 21
16.25
 31
0.0
  0
LINE
  5
    39
  8
0
  6
DOT2
 62
    10
 10
100.319770812988
 20
18.25
 30
0.0
 11
103.055763244629
 21
18.25
 31
0.0
  0
LINE
  5
    3A
  8
0
  6
DOT2
 62
    10
 10
100.319770812988
 20
20.25
 30
0.0
 11
103.055763244629
 21
20.25
 31
0.0
  0
LINE
  5
    3B
  8
0
  6
DOT2
 62
    10
 10
85.0557632446289
 20
22.25
 30
0.0
 11
103.055763244629
 21
22.25
 31
0.0
  0
ENDBLK
  5
    3C
  8
0
  6
CONTINUOUS
 62
     7
  0
BLOCK
  5
    3D
  8
0
  6
CONTINUOUS
 62
     7
  2
MOSTRA
 70
    64
 10
0.0
 20
0.0
 30
0.0
  3
MOSTRA
  0
LINE
  5
    3E
  8
0
  6
CONTINUOUS
 62
     3
 10
75.9999847412109
 20
-24.000020980835
 30
0.0
 11
75.9999847412109
 21
169.499979019165
 31
0.0
  0
LINE
  5
    3F
  8
0
  6
CONTINUOUS
 62
     3
 10
-71.5000076293913
 20
170.749954223637
 30
0.0
 11
71.4999923706087
 21
170.749984741215
 31
0.0
  0
LINE
  5
    40
  8
0
  6
CONTINUOUS
 62
     3
 10
71.4999923722532
 20
170.749969484304
 30
0.0
 11
74.7499847428587
 21
170.749984743093
 31
0.0
  0
LINE
  5
    41
  8
0
  6
CONTINUOUS
 62
     3
 10
-74.7500152650933
 20
170.749938972373
 30
0.0
 11
-71.5000076356988
 21
170.74996948995
 31
0.0
  0
LINE
  5
    42
  8
0
  6
CONTINUOUS
 62
     3
 10
-76.0000152587891
 20
-24.0000553131103
 30
0.0
 11
-76.0000152587891
 21
169.49994468689
 31
0.0
  0
LINE
  5
    43
  8
0
  6
CONTINUOUS
 62
     3
 10
-74.7500152587851
 20
-25.250055313111
 30
0.0
 11
74.7499847412149
 21
-25.2500209808356
 31
0.0
  0
LINE
  5
    44
  8
0
  6
CONTINUOUS
 62
     3
 10
-70.50000762559
 20
2.24997818470003
 30
0.0
 11
70.49999237441
 21
2.24997818470002
 31
0.0
  0
LINE
  5
    45
  8
0
  6
CONTINUOUS
 62
     3
 10
-70.5000074412761
 20
2.24997806549074
 30
0.0
 11
-70.5000074412761
 21
93.0689001568776
 31
0.0
  0
LINE
  5
    46
  8
0
  6
CONTINUOUS
 62
     3
 10
-70.5000152587891
 20
108.431043142038
 30
0.0
 11
-70.5000152587891
 21
143.249984741211
 31
0.0
  0
LINE
  5
    47
  8
0
  6
CONTINUOUS
 62
     3
 10
-70.500015258789
 20
143.249984741211
 30
0.0
 11
70.4999694824219
 21
143.249984741211
 31
0.0
  0
LINE
  5
    48
  8
0
  6
CONTINUOUS
 62
     3
 10
70.499992735838
 20
2.24997854232794
 30
0.0
 11
70.499992735838
 21
143.249978542328
 31
0.0
  0
LINE
  5
    49
  8
0
  6
CONTINUOUS
 62
     3
 10
-71.5000076293945
 20
150.749984741211
 30
0.0
 11
-71.5000076293945
 21
170.749969482422
 31
0.0
  0
LINE
  5
    4A
  8
0
  6
CONTINUOUS
 62
     3
 10
71.4999923706055
 20
150.749984741211
 30
0.0
 11
71.4999923706055
 21
170.749969482422
 31
0.0
  0
LINE
  5
    4B
  8
0
  6
CONTINUOUS
 62
     3
 10
-71.5000076293945
 20
150.749984741211
 30
0.0
 11
71.4999923706055
 21
150.749984741211
 31
0.0
  0
LINE
  5
    4C
  8
0
  6
CONTINUOUS
 62
     3
 10
-70.5000152587891
 20
-4.25005340576171
 30
0.0
 11
70.4999847412109
 21
-4.25005340576172
 31
0.0
  0
LINE
  5
    4D
  8
0
  6
CONTINUOUS
 62
     3
 10
-70.5000152587891
 20
-5.25005340576171
 30
0.0
 11
70.4999847412109
 21
-5.25005340576172
 31
0.0
  0
LINE
  5
    4E
  8
0
  6
CONTINUOUS
 62
     3
 10
-70.5000305175649
 20
149.74993896486
 30
0.0
 11
70.4999694824351
 21
149.750000000014
 31
0.0
  0
LINE
  5
    4F
  8
0
  6
CONTINUOUS
 62
     3
 10
71.4999858357699
 20
-25.2500247955323
 30
0.0
 11
71.4999858357699
 21
150.749990463257
 31
0.0
  0
LINE
  5
    50
  8
0
  6
CONTINUOUS
 62
     3
 10
70.4999847412109
 20
-25.2500247955322
 30
0.0
 11
70.4999847412109
 21
-5.25005340576172
 31
0.0
  0
LINE
  5
    51
  8
0
  6
CONTINUOUS
 62
     3
 10
70.4999847412595
 20
-4.25005341252316
 30
0.0
 11
70.4999923706543
 21
2.24997805388479
 31
0.0
  0
LINE
  5
    52
  8
0
  6
CONTINUOUS
 62
     3
 10
70.4999694824219
 20
143.249984741211
 30
0.0
 11
70.4999694824219
 21
149.75
 31
0.0
  0
LINE
  5
    53
  8
0
  6
CONTINUOUS
 62
     3
 10
-71.5000141642294
 20
-25.2500457763669
 30
0.0
 11
-71.5000141642294
 21
150.749984741211
 31
0.0
  0
LINE
  5
    54
  8
0
  6
CONTINUOUS
 62
     3
 10
-70.5000152587891
 20
-25.2500419616699
 30
0.0
 11
-70.5000152587891
 21
-5.25005340576171
 31
0.0
  0
LINE
  5
    55
  8
0
  6
CONTINUOUS
 62
     3
 10
-70.5000152588376
 20
-4.25005339719544
 30
0.0
 11
-70.5000076294428
 21
2.24997808131977
 31
0.0
  0
LINE
  5
    56
  8
0
  6
CONTINUOUS
 62
     3
 10
-70.5000305177719
 20
149.749938959778
 30
0.0
 11
-70.5000152589833
 21
143.249984736586
 31
0.0
  0
LINE
  5
    57
  8
0
  6
CONTINUOUS
 62
     3
 10
-71.5000076293945
 20
159.999984741211
 30
0.0
 11
-71.0
 21
159.999984741211
 31
0.0
  0
LINE
  5
    58
  8
0
  6
CONTINUOUS
 62
     3
 10
-71.5000076293945
 20
161.499984741211
 30
0.0
 11
-71.0
 21
161.499984741211
 31
0.0
  0
LINE
  5
    59
  8
0
  6
CONTINUOUS
 62
     3
 10
70.9999923706055
 20
159.999984741211
 30
0.0
 11
71.4999923706055
 21
159.999984741211
 31
0.0
  0
LINE
  5
    5A
  8
0
  6
CONTINUOUS
 62
     3
 10
70.9999923706055
 20
161.499984741211
 30
0.0
 11
71.4999923706055
 21
161.499984741211
 31
0.0
  0
ARC
  5
    5B
  8
0
  6
CONTINUOUS
 62
     3
 10
-74.7500446175772
 20
169.499966747805
 30
0.0
 40
1.2499712385188
 50
89.9986335430652
 51
180.000984426699
  0
ARC
  5
    5C
  8
0
  6
CONTINUOUS
 62
     3
 10
-71.0000555065448
 20
160.749933035418
 30
0.0
 40
0.750060676953542
 50
270.004052802733
 51
449.996390805965
  0
ARC
  5
    5D
  8
0
  6
CONTINUOUS
 62
     3
 10
71.0004519501049
 20
160.749941254871
 30
0.0
 40
0.750296104915764
 50
90.0
 51
270.0
  0
ARC
  5
    5E
  8
0
  6
CONTINUOUS
 62
     3
 10
74.7499844400411
 20
169.499990278414
 30
0.0
 40
1.25000142315613
 50
2.89360398659739E-4
 51
89.9998353051498
  0
ARC
  5
    5F
  8
0
  6
CONTINUOUS
 62
     3
 10
74.7499756668578
 20
-24.0000128113076
 30
0.0
 40
1.25000813012569
 50
270.000329889624
 51
359.999635393882
  0
ARC
  5
    60
  8
0
  6
CONTINUOUS
 62
     3
 10
-74.7500061806411
 20
-24.0000471426785
 30
0.0
 40
1.25000813391971
 50
180.000364647548
 51
269.999670038333
  0
ARC
  5
    61
  8
0
  6
CONTINUOUS
 62
     3
 10
-41.5002621522514
 20
100.749971717654
 30
0.0
 40
29.9997423066705
 50
165.164904903841
 51
194.835095365634
  0
ARC
  5
    62
  8
0
  6
DOT
 62
     3
 10
-71.9999597522443
 20
160.749933035418
 30
0.0
 40
0.750060676953542
 50
90.003609194035
 51
269.995947197267
  0
LINE
  5
    63
  8
0
  6
DOT
 62
     3
 10
-72.0000152587891
 20
161.499984741211
 30
0.0
 11
-71.5000076293945
 21
161.499984741211
 31
0.0
  0
LINE
  5
    64
  8
0
  6
DOT
 62
     3
 10
-72.0000152587891
 20
159.999984741211
 30
0.0
 11
-71.5000076293945
 21
159.999984741211
 31
0.0
  0
LINE
  5
    65
  8
0
  6
DOT
 62
     3
 10
71.4999923706055
 20
161.499984741211
 30
0.0
 11
71.9999923706055
 21
161.499984741211
 31
0.0
  0
LINE
  5
    66
  8
0
  6
DOT
 62
     3
 10
71.4999923706055
 20
159.999984741211
 30
0.0
 11
71.9999923706055
 21
159.999984741211
 31
0.0
  0
ARC
  5
    67
  8
0
  6
DOT
 62
     3
 10
71.999532791106
 20
160.749941254871
 30
0.0
 40
0.750296104915764
 50
270.0
 51
450.0
  0
POINT
  5
    68
  8
0
  6
CONTINUOUS
 62
     3
 10
-2.28881835892954E-5
 20
72.7499785423279
 30
0.0
  0
ENDBLK
  5
    69
  8
0
  6
CONTINUOUS
 62
     7
  0
BLOCK
  5
    6A
  8
0
  6
CONTINUOUS
 62
     7
  2
*UDIM1081
 70
    65
 10
0.0
 20
0.0
 30
0.0
  3
*UDIM1081
  0
TEXT
  5
    6B
  8
0
  6
CONTINUOUS
 62
     7
 10
-14.8457240841124
 20
-99.6513094063934
 30
0.0
 40
3.00000001532688
  1
152
 50
359.999999948034
 41
0.933333333333334
 72
     1
 11
-10.9457240628345
 21
-98.1513094022475
 31
0.0
 73
     2
  0
LINE
  5
    6C
  8
0
  6
CONTINUOUS
 62
     7
 10
15.9292750835416
 20
-74.7321965455988
 30
0.0
 11
15.9292750835416
 21
-102.651309409911
 31
0.0
  0
LINE
  5
    6D
  8
0
  6
CONTINUOUS
 62
     7
 10
-37.2707194805148
 20
-74.7322085618939
 30
0.0
 11
-37.2707194805148
 21
-102.651309409911
 31
0.0
  0
LINE
  5
    6E
  8
0
  6
CONTINUOUS
 62
     7
 10
15.9292750835416
 20
-100.651309409911
 30
0.0
 11
-37.2707194805148
 21
-100.651309409911
 31
0.0
  0
LINE
  5
    6F
  8
0
  6
CONTINUOUS
 62
     7
 10
12.9748518063347
 20
-101.172253839863
 30
0.0
 11
15.9292750835416
 21
-100.651309409911
 31
0.0
  0
LINE
  5
    70
  8
0
  6
CONTINUOUS
 62
     7
 10
15.9292750835416
 20
-100.651309409911
 30
0.0
 11
12.9748518063347
 21
-100.130364979959
 31
0.0
  0
LINE
  5
    71
  8
0
  6
CONTINUOUS
 62
     7
 10
-34.3162962033078
 20
-100.130364979959
 30
0.0
 11
-37.2707194805148
 21
-100.651309409911
 31
0.0
  0
LINE
  5
    72
  8
0
  6
CONTINUOUS
 62
     7
 10
-37.2707194805148
 20
-100.651309409911
 30
0.0
 11
-34.3162962033078
 21
-101.172253839863
 31
0.0
  0
ENDBLK
  5
    73
  8
0
  6
CONTINUOUS
 62
     7
  0
BLOCK
  5
    74
  8
0
  6
CONTINUOUS
 62
     7
  2
*UDIM1082
 70
    65
 10
0.0
 20
0.0
 30
0.0
  3
*UDIM1082
  0
TEXT
  5
    75
  8
0
  6
CONTINUOUS
 62
     7
 10
33.0751010914803
 20
-44.0447047284603
 30
0.0
 40
3.00000001532688
  1
196
 50
89.9999999480344
 41
0.933333333333334
 72
     1
 11
31.5751010873491
 21
-40.1447047071768
 31
0.0
 73
     2
  0
LINE
  5
    76
  8
0
  6
CONTINUOUS
 62
     7
 10
16.4917751282465
 20
-74.1697025090414
 30
0.0
 11
36.0751010950126
 21
-74.1697025090414
 31
0.0
  0
LINE
  5
    77
  8
0
  6
CONTINUOUS
 62
     7
 10
15.3542779147631
 20
-5.56970684826197
 30
0.0
 11
36.0751010950126
 21
-5.56970684826197
 31
0.0
  0
LINE
  5
    78
  8
0
  6
CONTINUOUS
 62
     7
 10
34.0751010950125
 20
-74.1697025090414
 30
0.0
 11
34.0751010950125
 21
-5.56970684826197
 31
0.0
  0
LINE
  5
    79
  8
0
  6
CONTINUOUS
 62
     7
 10
33.5541566650609
 20
-71.2152792318344
 30
0.0
 11
34.0751010950125
 21
-74.1697025090414
 31
0.0
  0
LINE
  5
    7A
  8
0
  6
CONTINUOUS
 62
     7
 10
34.0751010950125
 20
-74.1697025090414
 30
0.0
 11
34.5960455249642
 21
-71.2152792318344
 31
0.0
  0
LINE
  5
    7B
  8
0
  6
CONTINUOUS
 62
     7
 10
34.5960455249642
 20
-8.52413012546894
 30
0.0
 11
34.0751010950125
 21
-5.56970684826197
 31
0.0
  0
LINE
  5
    7C
  8
0
  6
CONTINUOUS
 62
     7
 10
34.0751010950125
 20
-5.56970684826197
 30
0.0
 11
33.5541566650609
 21
-8.52413012546894
 31
0.0
  0
ENDBLK
  5
    7D
  8
0
  6
CONTINUOUS
 62
     7
  0
BLOCK
  5
    7E
  8
0
  6
CONTINUOUS
 62
     7
  2
*UDIM1083
 70
    65
 10
0.0
 20
0.0
 30
0.0
  3
*UDIM1083
  0
TEXT
  5
    7F
  8
0
  6
CONTINUOUS
 62
     7
 10
48.4454379608898
 20
-49.119693530165
 30
0.0
 40
3.00000001532688
  1
268
 50
89.9999999480344
 41
0.933333333333334
 72
     1
 11
46.9454379567587
 21
-45.2196935088815
 31
0.0
 73
     2
  0
LINE
  5
    80
  8
0
  6
CONTINUOUS
 62
     7
 10
25.8542671355821
 20
-91.8446950314926
 30
0.0
 11
51.4454379644221
 21
-91.8446950314926
 31
0.0
  0
LINE
  5
    81
  8
0
  6
CONTINUOUS
 62
     7
 10
25.8542671355821
 20
1.95530089438125
 30
0.0
 11
51.4454379644221
 21
1.95530089438125
 31
0.0
  0
LINE
  5
    82
  8
0
  6
CONTINUOUS
 62
     7
 10
49.4454379644221
 20
-91.8446950314926
 30
0.0
 11
49.4454379644221
 21
1.95530089438125
 31
0.0
  0
LINE
  5
    83
  8
0
  6
CONTINUOUS
 62
     7
 10
48.9244935344705
 20
-88.8902717542856
 30
0.0
 11
49.4454379644221
 21
-91.8446950314926
 31
0.0
  0
LINE
  5
    84
  8
0
  6
CONTINUOUS
 62
     7
 10
49.4454379644221
 20
-91.8446950314926
 30
0.0
 11
49.9663823943738
 21
-88.8902717542856
 31
0.0
  0
LINE
  5
    85
  8
0
  6
CONTINUOUS
 62
     7
 10
49.9663823943738
 20
-0.999122382825718
 30
0.0
 11
49.4454379644221
 21
1.95530089438125
 31
0.0
  0
LINE
  5
    86
  8
0
  6
CONTINUOUS
 62
     7
 10
49.4454379644221
 20
1.95530089438125
 30
0.0
 11
48.9244935344705
 21
-0.999122382825718
 31
0.0
  0
ENDBLK
  5
    87
  8
0
  6
CONTINUOUS
 62
     7
  0
BLOCK
  5
    88
  8
0
  6
CONTINUOUS
 62
     7
  2
*UDIM1084
 70
    65
 10
0.0
 20
0.0
 30
0.0
  3
*UDIM1084
  0
TEXT
  5
    89
  8
0
  6
CONTINUOUS
 62
     7
 10
-29.8957134082811
 20
28.8490337587685
 30
0.0
 40
3.00000001532688
  1
279,5
 50
359.999999948034
 41
0.933333333333333
 72
     1
 11
-23.1957133726981
 21
30.349033760389
 31
0.0
 73
     2
  0
LINE
  5
    8A
  8
0
  6
CONTINUOUS
 62
     7
 10
25.9917791754443
 20
-5.61970373973498
 30
0.0
 11
25.9917791754443
 21
29.8490337527255
 31
0.0
  0
LINE
  5
    8B
  8
0
  6
CONTINUOUS
 62
     7
 10
-71.8332108288568
 20
1.90529566109605
 30
0.0
 11
-71.8332108288568
 21
29.8490337527255
 31
0.0
  0
LINE
  5
    8C
  8
0
  6
CONTINUOUS
 62
     7
 10
25.9917791754443
 20
27.8490337527255
 30
0.0
 11
-71.8332108288568
 21
27.8490337527255
 31
0.0
  0
LINE
  5
    8D
  8
0
  6
CONTINUOUS
 62
     7
 10
23.0373558982373
 20
27.3280893227738
 30
0.0
 11
25.9917791754443
 21
27.8490337527255
 31
0.0
  0
LINE
  5
    8E
  8
0
  6
CONTINUOUS
 62
     7
 10
25.9917791754443
 20
27.8490337527255
 30
0.0
 11
23.0373558982373
 21
28.3699781826772
 31
0.0
  0
LINE
  5
    8F
  8
0
  6
CONTINUOUS
 62
     7
 10
-68.8787875516498
 20
28.3699781826772
 30
0.0
 11
-71.8332108288568
 21
27.8490337527255
 31
0.0
  0
LINE
  5
    90
  8
0
  6
CONTINUOUS
 62
     7
 10
-71.8332108288568
 20
27.8490337527255
 30
0.0
 11
-68.8787875516498
 21
27.3280893227738
 31
0.0
  0
ENDBLK
  5
    91
  8
0
  6
CONTINUOUS
 62
     7
  0
BLOCK
  5
    92
  8
0
  6
CONTINUOUS
 62
     7
  2
*UDIM1085
 70
    65
 10
0.0
 20
0.0
 30
0.0
  3
*UDIM1085
  0
TEXT
  5
    93
  8
0
  6
CONTINUOUS
 62
     7
 10
-0.714472500693136
 20
21.5330272749104
 30
0.0
 40
3.00000001532688
  1
104,75
 50
359.999999948034
 41
0.933333333333333
 72
     1
 11
7.38552754204235
 21
23.0330272752681
 31
0.0
 73
     2
  0
LINE
  5
    94
  8
0
  6
CONTINUOUS
 62
     7
 10
25.9917791754443
 20
-5.61970373973498
 30
0.0
 11
25.9917791754443
 21
22.5330272676047
 31
0.0
  0
LINE
  5
    95
  8
0
  6
CONTINUOUS
 62
     7
 10
25.9917791754443
 20
20.5330272676047
 30
0.0
 11
-10.6707248687744
 21
20.5330272676047
 31
0.0
  0
LINE
  5
    96
  8
0
  6
CONTINUOUS
 62
     7
 10
23.0373558982373
 20
20.012082837653
 30
0.0
 11
25.9917791754443
 21
20.5330272676047
 31
0.0
  0
LINE
  5
    97
  8
0
  6
CONTINUOUS
 62
     7
 10
25.9917791754443
 20
20.5330272676047
 30
0.0
 11
23.0373558982373
 21
21.0539716975563
 31
0.0
  0
LINE
  5
    98
  8
0
  6
CONTINUOUS
 62
     7
 10
-7.71630159156743
 20
21.0539716975563
 30
0.0
 11
-10.6707248687744
 21
20.5330272676047
 31
0.0
  0
LINE
  5
    99
  8
0
  6
CONTINUOUS
 62
     7
 10
-10.6707248687744
 20
20.5330272676047
 30
0.0
 11
-7.71630159156743
 21
20.012082837653
 31
0.0
  0
ENDBLK
  5
    9A
  8
0
  6
CONTINUOUS
 62
     7
  0
BLOCK
  5
    9B
  8
0
  6
CONTINUOUS
 62
     7
  2
*UDIM1086
 70
    65
 10
0.0
 20
0.0
 30
0.0
  3
*UDIM1086
  0
TEXT
  5
    9C
  8
0
  6
CONTINUOUS
 62
     7
 10
40.8791667588147
 20
-25.9322001204262
 30
0.0
 40
3.00000001532688
  1
119,5
 50
89.9999999480344
 41
0.933333333333333
 72
     1
 11
39.3791667572195
 21
-19.2322000848376
 31
0.0
 73
     2
  0
LINE
  5
    9D
  8
0
  6
CONTINUOUS
 62
     7
 10
25.8542671355821
 20
1.95530089438125
 30
0.0
 11
43.8791667648829
 21
1.95530089438125
 31
0.0
  0
LINE
  5
    9E
  8
0
  6
CONTINUOUS
 62
     7
 10
41.8791667648829
 20
-39.8697001725413
 30
0.0
 11
41.8791667648829
 21
1.95530089438125
 31
0.0
  0
LINE
  5
    9F
  8
0
  6
CONTINUOUS
 62
     7
 10
41.3582223349313
 20
-36.9152768953344
 30
0.0
 11
41.8791667648829
 21
-39.8697001725413
 31
0.0
  0
LINE
  5
    A0
  8
0
  6
CONTINUOUS
 62
     7
 10
41.8791667648829
 20
-39.8697001725413
 30
0.0
 11
42.4001111948346
 21
-36.9152768953344
 31
0.0
  0
LINE
  5
    A1
  8
0
  6
CONTINUOUS
 62
     7
 10
42.4001111948346
 20
-0.999122382825718
 30
0.0
 11
41.8791667648829
 21
1.95530089438125
 31
0.0
  0
LINE
  5
    A2
  8
0
  6
CONTINUOUS
 62
     7
 10
41.8791667648829
 20
1.95530089438125
 30
0.0
 11
41.3582223349313
 21
-0.999122382825718
 31
0.0
  0
ENDBLK
  5
    A3
  8
0
  6
CONTINUOUS
 62
     7
  0
BLOCK
  5
    A4
  8
0
  6
CONTINUOUS
 62
     7
  2
*UDIM1087
 70
    65
 10
0.0
 20
0.0
 30
0.0
  3
*UDIM1087
  0
TEXT
  5
    A5
  8
0
  6
CONTINUOUS
 62
     7
 10
-76.8878423844861
 20
-44.0447033933167
 30
0.0
 40
3.00000001532688
  1
140
 50
89.9999999480344
 41
0.933333333333334
 72
     1
 11
-78.3878423886172
 21
-40.1447033720332
 31
0.0
 73
     2
  0
LINE
  5
    A6
  8
0
  6
CONTINUOUS
 62
     7
 10
-35.9957223832607
 20
-64.3696999222016
 30
0.0
 11
-77.8878423809538
 21
-64.3696999222016
 31
0.0
  0
LINE
  5
    A7
  8
0
  6
CONTINUOUS
 62
     7
 10
-35.9957223832607
 20
-15.3697026759364
 30
0.0
 11
-77.8878423809538
 21
-15.3697026759364
 31
0.0
  0
LINE
  5
    A8
  8
0
  6
CONTINUOUS
 62
     7
 10
-75.8878423809538
 20
-64.3696999222016
 30
0.0
 11
-75.8878423809538
 21
-15.3697026759364
 31
0.0
  0
LINE
  5
    A9
  8
0
  6
CONTINUOUS
 62
     7
 10
-76.4087868109054
 20
-61.4152766449946
 30
0.0
 11
-75.8878423809538
 21
-64.3696999222016
 31
0.0
  0
LINE
  5
    AA
  8
0
  6
CONTINUOUS
 62
     7
 10
-75.8878423809538
 20
-64.3696999222016
 30
0.0
 11
-75.3668979510021
 21
-61.4152766449946
 31
0.0
  0
LINE
  5
    AB
  8
0
  6
CONTINUOUS
 62
     7
 10
-75.3668979510021
 20
-18.3241259531434
 30
0.0
 11
-75.8878423809538
 21
-15.3697026759364
 31
0.0
  0
LINE
  5
    AC
  8
0
  6
CONTINUOUS
 62
     7
 10
-75.8878423809538
 20
-15.3697026759364
 30
0.0
 11
-76.4087868109054
 21
-18.3241259531434
 31
0.0
  0
ENDBLK
  5
    AD
  8
0
  6
CONTINUOUS
 62
     7
  0
BLOCK
  5
    AE
  8
0
  6
CONTINUOUS
 62
     7
  2
*UDIM1088
 70
    65
 10
0.0
 20
0.0
 30
0.0
  3
*UDIM1088
  0
TEXT
  5
    AF
  8
0
  6
CONTINUOUS
 62
     7
 10
-14.8457214138246
 20
12.3720868924844
 30
0.0
 40
3.00000001532688
  1
140
 50
359.999999948034
 41
0.933333333333334
 72
     1
 11
-10.9457213925467
 21
13.8720868966303
 31
0.0
 73
     2
  0
LINE
  5
    B0
  8
0
  6
CONTINUOUS
 62
     7
 10
13.8292726278305
 20
-14.544702658055
 30
0.0
 11
13.8292726278305
 21
13.3720868889668
 31
0.0
  0
LINE
  5
    B1
  8
0
  6
CONTINUOUS
 62
     7
 10
-35.1707223653793
 20
-14.544702658055
 30
0.0
 11
-35.1707223653793
 21
13.3720868889668
 31
0.0
  0
LINE
  5
    B2
  8
0
  6
CONTINUOUS
 62
     7
 10
13.8292726278305
 20
11.3720868889668
 30
0.0
 11
-35.1707223653793
 21
11.3720868889668
 31
0.0
  0
LINE
  5
    B3
  8
0
  6
CONTINUOUS
 62
     7
 10
10.8748493506235
 20
10.8511424590151
 30
0.0
 11
13.8292726278305
 21
11.3720868889668
 31
0.0
  0
LINE
  5
    B4
  8
0
  6
CONTINUOUS
 62
     7
 10
13.8292726278305
 20
11.3720868889668
 30
0.0
 11
10.8748493506235
 21
11.8930313189185
 31
0.0
  0
LINE
  5
    B5
  8
0
  6
CONTINUOUS
 62
     7
 10
-32.2162990881724
 20
11.8930313189185
 30
0.0
 11
-35.1707223653793
 21
11.3720868889668
 31
0.0
  0
LINE
  5
    B6
  8
0
  6
CONTINUOUS
 62
     7
 10
-35.1707223653793
 20
11.3720868889668
 30
0.0
 11
-32.2162990881724
 21
10.8511424590151
 31
0.0
  0
ENDBLK
  5
    B7
  8
0
  6
CONTINUOUS
 62
     7
  0
BLOCK
  5
    B8
  8
0
  6
CONTINUOUS
 62
     7
  2
*HATCH406
 70
    65
 10
0.0
 20
0.0
 30
0.0
  3
*HATCH406
  0
LINE
  5
    B9
  8
0
  6
CONTINUOUS
 62
    52
 10
179.222381591797
 20
234.376708984375
 30
0.0
 11
177.499420166016
 21
232.653732299805
 31
0.0
  0
LINE
  5
    BA
  8
0
  6
CONTINUOUS
 62
    52
 10
179.499420166016
 20
230.411087036133
 30
0.0
 11
177.499420166016
 21
228.411087036133
 31
0.0
  0
LINE
  5
    BB
  8
0
  6
CONTINUOUS
 62
    52
 10
179.499420166016
 20
226.168441772461
 30
0.0
 11
177.499420166016
 21
224.168441772461
 31
0.0
  0
LINE
  5
    BC
  8
0
  6
CONTINUOUS
 62
    52
 10
179.499420166016
 20
221.925796508789
 30
0.0
 11
177.499420166016
 21
219.925796508789
 31
0.0
  0
LINE
  5
    BD
  8
0
  6
CONTINUOUS
 62
    52
 10
179.499420166016
 20
217.683151245117
 30
0.0
 11
177.499420166016
 21
215.683151245117
 31
0.0
  0
LINE
  5
    BE
  8
0
  6
CONTINUOUS
 62
    52
 10
179.499420166016
 20
213.440505981445
 30
0.0
 11
177.499420166016
 21
211.440505981445
 31
0.0
  0
LINE
  5
    BF
  8
0
  6
CONTINUOUS
 62
    52
 10
179.499420166016
 20
209.197860717773
 30
0.0
 11
177.499420166016
 21
207.197860717773
 31
0.0
  0
LINE
  5
    C0
  8
0
  6
CONTINUOUS
 62
    52
 10
179.499420166016
 20
204.955215454102
 30
0.0
 11
177.499420166016
 21
202.955215454102
 31
0.0
  0
LINE
  5
    C1
  8
0
  6
CONTINUOUS
 62
    52
 10
179.499420166016
 20
200.71257019043
 30
0.0
 11
177.499420166016
 21
198.71257019043
 31
0.0
  0
LINE
  5
    C2
  8
0
  6
CONTINUOUS
 62
    52
 10
179.499420166016
 20
196.469924926758
 30
0.0
 11
177.499420166016
 21
194.469924926758
 31
0.0
  0
LINE
  5
    C3
  8
0
  6
CONTINUOUS
 62
    52
 10
179.499420166016
 20
192.227279663086
 30
0.0
 11
177.499420166016
 21
190.227279663086
 31
0.0
  0
LINE
  5
    C4
  8
0
  6
CONTINUOUS
 62
    52
 10
179.499420166016
 20
187.984634399414
 30
0.0
 11
177.499420166016
 21
185.984634399414
 31
0.0
  0
LINE
  5
    C5
  8
0
  6
CONTINUOUS
 62
    52
 10
179.499420166016
 20
183.741989135742
 30
0.0
 11
177.499420166016
 21
181.741989135742
 31
0.0
  0
LINE
  5
    C6
  8
0
  6
CONTINUOUS
 62
    52
 10
179.499420166016
 20
179.49934387207
 30
0.0
 11
177.499420166016
 21
177.49934387207
 31
0.0
  0
LINE
  5
    C7
  8
0
  6
CONTINUOUS
 62
    52
 10
179.499420166016
 20
175.256698608398
 30
0.0
 11
177.499420166016
 21
173.256698608398
 31
0.0
  0
LINE
  5
    C8
  8
0
  6
CONTINUOUS
 62
    52
 10
179.499420166016
 20
171.014053344727
 30
0.0
 11
177.499420166016
 21
169.014053344727
 31
0.0
  0
LINE
  5
    C9
  8
0
  6
CONTINUOUS
 62
    52
 10
179.499420166016
 20
166.771408081055
 30
0.0
 11
177.499420166016
 21
164.771408081055
 31
0.0
  0
LINE
  5
    CA
  8
0
  6
CONTINUOUS
 62
    52
 10
179.499420166016
 20
162.528762817383
 30
0.0
 11
177.499420166016
 21
160.528762817383
 31
0.0
  0
LINE
  5
    CB
  8
0
  6
CONTINUOUS
 62
    52
 10
179.499420166016
 20
158.286117553711
 30
0.0
 11
177.499420166016
 21
156.286117553711
 31
0.0
  0
LINE
  5
    CC
  8
0
  6
CONTINUOUS
 62
    52
 10
179.499420166016
 20
154.043563842773
 30
0.0
 11
179.205703735352
 21
153.749847412109
 31
0.0
  0
ENDBLK
  5
    CD
  8
0
  6
CONTINUOUS
 62
     7
  0
BLOCK
  5
    CE
  8
0
  6
CONTINUOUS
 62
     7
  2
*HATCH407
 70
    65
 10
0.0
 20
0.0
 30
0.0
  3
*HATCH407
  0
LINE
  5
    CF
  8
0
  6
CONTINUOUS
 62
    52
 10
179.499420166016
 20
-9.29809856414795
 30
0.0
 11
177.499420166016
 21
-11.2980985641479
 31
0.0
  0
LINE
  5
    D0
  8
0
  6
CONTINUOUS
 62
    52
 10
179.499420166016
 20
-13.5407390594482
 30
0.0
 11
177.499420166016
 21
-15.5407390594482
 31
0.0
  0
LINE
  5
    D1
  8
0
  6
CONTINUOUS
 62
    52
 10
179.499420166016
 20
-17.7833805084229
 30
0.0
 11
177.499420166016
 21
-19.7833805084229
 31
0.0
  0
LINE
  5
    D2
  8
0
  6
CONTINUOUS
 62
    52
 10
179.499420166016
 20
-22.0260219573975
 30
0.0
 11
177.499420166016
 21
-24.0260219573975
 31
0.0
  0
LINE
  5
    D3
  8
0
  6
CONTINUOUS
 62
    52
 10
179.499420166016
 20
-26.2686634063721
 30
0.0
 11
177.499420166016
 21
-28.2686634063721
 31
0.0
  0
LINE
  5
    D4
  8
0
  6
CONTINUOUS
 62
    52
 10
179.499420166016
 20
-30.5113048553467
 30
0.0
 11
177.499420166016
 21
-32.511302947998
 31
0.0
  0
LINE
  5
    D5
  8
0
  6
CONTINUOUS
 62
    52
 10
179.499420166016
 20
-34.7539443969727
 30
0.0
 11
177.499420166016
 21
-36.7539405822754
 31
0.0
  0
LINE
  5
    D6
  8
0
  6
CONTINUOUS
 62
    52
 10
179.499420166016
 20
-38.99658203125
 30
0.0
 11
177.499420166016
 21
-40.9965782165527
 31
0.0
  0
LINE
  5
    D7
  8
0
  6
CONTINUOUS
 62
    52
 10
179.499420166016
 20
-43.2392196655273
 30
0.0
 11
177.499420166016
 21
-45.2392158508301
 31
0.0
  0
LINE
  5
    D8
  8
0
  6
CONTINUOUS
 62
    52
 10
179.499420166016
 20
-47.4818572998047
 30
0.0
 11
177.499420166016
 21
-49.4818534851074
 31
0.0
  0
LINE
  5
    D9
  8
0
  6
CONTINUOUS
 62
    52
 10
179.499420166016
 20
-51.724494934082
 30
0.0
 11
177.499420166016
 21
-53.7244911193848
 31
0.0
  0
LINE
  5
    DA
  8
0
  6
CONTINUOUS
 62
    52
 10
179.499420166016
 20
-55.9671325683594
 30
0.0
 11
177.499420166016
 21
-57.9671287536621
 31
0.0
  0
LINE
  5
    DB
  8
0
  6
CONTINUOUS
 62
    52
 10
179.499420166016
 20
-60.2097702026367
 30
0.0
 11
177.499420166016
 21
-62.2097663879395
 31
0.0
  0
LINE
  5
    DC
  8
0
  6
CONTINUOUS
 62
    52
 10
179.499420166016
 20
-64.4524078369141
 30
0.0
 11
177.499420166016
 21
-66.4524078369141
 31
0.0
  0
LINE
  5
    DD
  8
0
  6
CONTINUOUS
 62
    52
 10
179.499420166016
 20
-68.6950531005859
 30
0.0
 11
177.499420166016
 21
-70.6950531005859
 31
0.0
  0
LINE
  5
    DE
  8
0
  6
CONTINUOUS
 62
    52
 10
179.499420166016
 20
-72.9376983642578
 30
0.0
 11
177.499420166016
 21
-74.9376983642578
 31
0.0
  0
LINE
  5
    DF
  8
0
  6
CONTINUOUS
 62
    52
 10
179.499420166016
 20
-77.1803436279297
 30
0.0
 11
177.499420166016
 21
-79.1803436279297
 31
0.0
  0
LINE
  5
    E0
  8
0
  6
CONTINUOUS
 62
    52
 10
179.499420166016
 20
-81.4229888916016
 30
0.0
 11
177.499420166016
 21
-83.4229888916016
 31
0.0
  0
LINE
  5
    E1
  8
0
  6
CONTINUOUS
 62
    52
 10
179.499420166016
 20
-85.6656341552734
 30
0.0
 11
177.499420166016
 21
-87.6656341552734
 31
0.0
  0
LINE
  5
    E2
  8
0
  6
CONTINUOUS
 62
    52
 10
179.499420166016
 20
-89.9082794189453
 30
0.0
 11
177.499420166016
 21
-91.9082794189453
 31
0.0
  0
LINE
  5
    E3
  8
0
  6
CONTINUOUS
 62
    52
 10
179.499420166016
 20
-94.1509246826172
 30
0.0
 11
177.499420166016
 21
-96.1509246826172
 31
0.0
  0
ENDBLK
  5
    E4
  8
0
  6
CONTINUOUS
 62
     7
  0
BLOCK
  5
    E5
  8
0
  6
CONTINUOUS
 62
     7
  2
*HATCH408
 70
    65
 10
0.0
 20
0.0
 30
0.0
  3
*HATCH408
  0
LINE
  5
    E6
  8
0
  6
CONTINUOUS
 62
    52
 10
170.220428466797
 20
153.249862670898
 30
0.0
 11
167.999420166016
 21
151.028839111328
 31
0.0
  0
LINE
  5
    E7
  8
0
  6
CONTINUOUS
 62
    52
 10
170.499420166016
 20
149.286209106445
 30
0.0
 11
167.999420166016
 21
146.786209106445
 31
0.0
  0
LINE
  5
    E8
  8
0
  6
CONTINUOUS
 62
    52
 10
170.499420166016
 20
145.043563842773
 30
0.0
 11
169.705718994141
 21
144.249862670898
 31
0.0
  0
ENDBLK
  5
    E9
  8
0
  6
CONTINUOUS
 62
     7
  0
BLOCK
  5
    EA
  8
0
  6
CONTINUOUS
 62
     7
  2
*UDIM1089
 70
    65
 10
0.0
 20
0.0
 30
0.0
  3
*UDIM1089
  0
TEXT
  5
    EB
  8
0
  6
CONTINUOUS
 62
     7
 10
84.3524591146199
 20
42.5537564734641
 30
0.0
 40
3.00000001532688
  1
103,5
 41
0.933333333333333
 72
     1
 11
91.0524591488499
 21
44.0537564811275
 31
0.0
 73
     2
  0
LINE
  5
    EC
  8
0
  6
CONTINUOUS
 62
     7
 10
73.2149721264836
 20
9.19431378052498
 30
0.0
 11
73.2149721264836
 21
43.5537564734641
 31
0.0
  0
LINE
  5
    ED
  8
0
  6
CONTINUOUS
 62
     7
 10
109.439947062731
 20
-22.5948521345827
 30
0.0
 11
109.439947062731
 21
43.5537564734641
 31
0.0
  0
LINE
  5
    EE
  8
0
  6
CONTINUOUS
 62
     7
 10
73.2149721264836
 20
41.5537564734641
 30
0.0
 11
109.439947062731
 21
41.5537564734641
 31
0.0
  0
LINE
  5
    EF
  8
0
  6
CONTINUOUS
 62
     7
 10
76.1693954036905
 20
42.0747009034158
 30
0.0
 11
73.2149721264836
 21
41.5537564734641
 31
0.0
  0
LINE
  5
    F0
  8
0
  6
CONTINUOUS
 62
     7
 10
73.2149721264836
 20
41.5537564734641
 30
0.0
 11
76.1693954036905
 21
41.0328120435124
 31
0.0
  0
LINE
  5
    F1
  8
0
  6
CONTINUOUS
 62
     7
 10
106.485523785524
 20
41.0328120435124
 30
0.0
 11
109.439947062731
 21
41.5537564734641
 31
0.0
  0
LINE
  5
    F2
  8
0
  6
CONTINUOUS
 62
     7
 10
109.439947062731
 20
41.5537564734641
 30
0.0
 11
106.485523785524
 21
42.0747009034158
 31
0.0
  0
ENDBLK
  5
    F3
  8
0
  6
CONTINUOUS
 62
     7
  0
BLOCK
  5
    F4
  8
0
  6
CONTINUOUS
 62
     7
  2
*UDIM1090
 70
    65
 10
0.0
 20
0.0
 30
0.0
  3
*UDIM1090
  0
TEXT
  5
    F5
  8
0
  6
CONTINUOUS
 62
     7
 10
113.139843664233
 20
42.5537564734641
 30
0.0
 40
3.00000001532688
  1
37
 41
0.933333333333333
 72
     1
 11
115.639843677006
 21
44.0537564811275
 31
0.0
 73
     2
  0
LINE
  5
    F6
  8
0
  6
CONTINUOUS
 62
     7
 10
122.389747441282
 20
18.0839550111111
 30
0.0
 11
122.389747441282
 21
43.5537564734641
 31
0.0
  0
LINE
  5
    F7
  8
0
  6
CONTINUOUS
 62
     7
 10
109.439947062731
 20
41.5537564734641
 30
0.0
 11
122.389747441282
 21
41.5537564734641
 31
0.0
  0
LINE
  5
    F8
  8
0
  6
CONTINUOUS
 62
     7
 10
112.394370339938
 20
42.0747009034158
 30
0.0
 11
109.439947062731
 21
41.5537564734641
 31
0.0
  0
LINE
  5
    F9
  8
0
  6
CONTINUOUS
 62
     7
 10
109.439947062731
 20
41.5537564734641
 30
0.0
 11
112.394370339938
 21
41.0328120435124
 31
0.0
  0
LINE
  5
    FA
  8
0
  6
CONTINUOUS
 62
     7
 10
119.435324164075
 20
41.0328120435124
 30
0.0
 11
122.389747441282
 21
41.5537564734641
 31
0.0
  0
LINE
  5
    FB
  8
0
  6
CONTINUOUS
 62
     7
 10
122.389747441282
 20
41.5537564734641
 30
0.0
 11
119.435324164075
 21
42.0747009034158
 31
0.0
  0
ENDBLK
  5
    FC
  8
0
  6
CONTINUOUS
 62
     7
  0
BLOCK
  5
    FD
  8
0
  6
CONTINUOUS
 62
     7
  2
*UDIM1091
 70
    65
 10
0.0
 20
0.0
 30
0.0
  3
*UDIM1091
  0
TEXT
  5
    FE
  8
0
  6
CONTINUOUS
 62
     7
 10
126.089746992885
 20
42.5537564734641
 30
0.0
 40
3.00000001532688
  1
2
 41
0.933333333333333
 72
     1
 11
127.189746998505
 21
44.0537564811275
 31
0.0
 73
     2
  0
LINE
  5
    FF
  8
0
  6
CONTINUOUS
 62
     7
 10
123.089747369757
 20
17.6377050567086
 30
0.0
 11
123.089747369757
 21
43.5537564734641
 31
0.0
  0
LINE
  5
   100
  8
0
  6
CONTINUOUS
 62
     7
 10
122.389747441282
 20
41.5537564734641
 30
0.0
 11
128.289747004125
 21
41.5537564734641
 31
0.0
  0
LINE
  5
   101
  8
0
  6
CONTINUOUS
 62
     7
 10
119.435324164075
 20
41.0328120435124
 30
0.0
 11
122.389747441282
 21
41.5537564734641
 31
0.0
  0
LINE
  5
   102
  8
0
  6
CONTINUOUS
 62
     7
 10
122.389747441282
 20
41.5537564734641
 30
0.0
 11
119.435324164075
 21
42.0747009034158
 31
0.0
  0
LINE
  5
   103
  8
0
  6
CONTINUOUS
 62
     7
 10
126.044170646964
 20
42.0747009034158
 30
0.0
 11
123.089747369757
 21
41.5537564734641
 31
0.0
  0
LINE
  5
   104
  8
0
  6
CONTINUOUS
 62
     7
 10
123.089747369757
 20
41.5537564734641
 30
0.0
 11
126.044170646964
 21
41.0328120435124
 31
0.0
  0
ENDBLK
  5
   105
  8
0
  6
CONTINUOUS
 62
     7
  0
BLOCK
  5
   106
  8
0
  6
CONTINUOUS
 62
     7
  2
*UDIM1092
 70
    65
 10
0.0
 20
0.0
 30
0.0
  3
*UDIM1092
  0
TEXT
  5
   107
  8
0
  6
CONTINUOUS
 62
     7
 10
95.3649483467536
 20
-128.075263567351
 30
0.0
 40
3.00000001532688
  1
42,5
 41
0.933333333333333
 72
     1
 11
100.664948373831
 21
-126.575263559687
 31
0.0
 73
     2
  0
LINE
  5
   108
  8
0
  6
CONTINUOUS
 62
     7
 10
109.439947062731
 20
-61.1698270350689
 30
0.0
 11
109.439947062731
 21
-131.075263567351
 31
0.0
  0
LINE
  5
   109
  8
0
  6
CONTINUOUS
 62
     7
 10
124.314747244587
 20
-77.7948695171247
 30
0.0
 11
124.314747244587
 21
-131.075263567351
 31
0.0
  0
LINE
  5
   10A
  8
0
  6
CONTINUOUS
 62
     7
 10
95.3649483467536
 20
-129.075263567351
 30
0.0
 11
124.314747244587
 21
-129.075263567351
 31
0.0
  0
LINE
  5
   10B
  8
0
  6
CONTINUOUS
 62
     7
 10
112.394370339938
 20
-128.554319137399
 30
0.0
 11
109.439947062731
 21
-129.075263567351
 31
0.0
  0
LINE
  5
   10C
  8
0
  6
CONTINUOUS
 62
     7
 10
109.439947062731
 20
-129.075263567351
 30
0.0
 11
112.394370339938
 21
-129.596207997302
 31
0.0
  0
LINE
  5
   10D
  8
0
  6
CONTINUOUS
 62
     7
 10
121.36032396738
 20
-129.596207997302
 30
0.0
 11
124.314747244587
 21
-129.075263567351
 31
0.0
  0
LINE
  5
   10E
  8
0
  6
CONTINUOUS
 62
     7
 10
124.314747244587
 20
-129.075263567351
 30
0.0
 11
121.36032396738
 21
-128.554319137399
 31
0.0
  0
ENDBLK
  5
   10F
  8
0
  6
CONTINUOUS
 62
     7
  0
BLOCK
  5
   110
  8
0
  6
CONTINUOUS
 62
     7
  2
*UDIM1093
 70
    65
 10
0.0
 20
0.0
 30
0.0
  3
*UDIM1093
  0
TEXT
  5
   111
  8
0
  6
CONTINUOUS
 62
     7
 10
196.805239811439
 20
-32.3547153328958
 30
0.0
 40
3.00000002980232
  1
2,75
 50
359.999999844103
 41
0.933333333333333
 72
     1
 11
202.105239868164
 21
-30.8547153323889
 31
0.0
 73
     2
  0
LINE
  5
   112
  8
0
  6
CONTINUOUS
 62
     7
 10
209.870330810547
 20
-20.0398387145996
 30
0.0
 11
209.870330810547
 21
-35.35471534729
 31
0.0
  0
LINE
  5
   113
  8
0
  6
CONTINUOUS
 62
     7
 10
196.805239815513
 20
-33.35471534729
 30
0.0
 11
210.557830810547
 21
-33.35471534729
 31
0.0
  0
LINE
  5
   114
  8
0
  6
CONTINUOUS
 62
     7
 10
206.91590753334
 20
-33.8756597772417
 30
0.0
 11
209.870330810547
 21
-33.35471534729
 31
0.0
  0
LINE
  5
   115
  8
0
  6
CONTINUOUS
 62
     7
 10
209.870330810547
 20
-33.35471534729
 30
0.0
 11
206.91590753334
 21
-32.8337709173384
 31
0.0
  0
LINE
  5
   116
  8
0
  6
CONTINUOUS
 62
     7
 10
213.512254087754
 20
-32.8337709173384
 30
0.0
 11
210.557830810547
 21
-33.35471534729
 31
0.0
  0
LINE
  5
   117
  8
0
  6
CONTINUOUS
 62
     7
 10
210.557830810547
 20
-33.35471534729
 30
0.0
 11
213.512254087754
 21
-33.8756597772417
 31
0.0
  0
ENDBLK
  5
   118
  8
0
  6
CONTINUOUS
 62
     7
  0
BLOCK
  5
   119
  8
0
  6
CONTINUOUS
 62
     7
  2
*UDIM1094
 70
    65
 10
0.0
 20
0.0
 30
0.0
  3
*UDIM1094
  0
TEXT
  5
   11A
  8
0
  6
CONTINUOUS
 62
     7
 10
241.869567864307
 20
-31.3948387494673
 30
0.0
 40
3.00000002980232
  1
90
 50
449.999999844103
 41
0.933333333333333
 72
     1
 11
240.369567856193
 21
-28.8948387205601
 31
0.0
 73
     2
  0
LINE
  5
   11B
  8
0
  6
CONTINUOUS
 62
     7
 10
223.790330810547
 20
-17.3698387145996
 30
0.0
 11
244.869567871094
 21
-17.3698387145996
 31
0.0
  0
LINE
  5
   11C
  8
0
  6
CONTINUOUS
 62
     7
 10
239.188124109918
 20
-39.8698387145996
 30
0.0
 11
244.869567871094
 21
-39.8698387145996
 31
0.0
  0
LINE
  5
   11D
  8
0
  6
CONTINUOUS
 62
     7
 10
242.869567871094
 20
-17.3698387145996
 30
0.0
 11
242.869567871094
 21
-39.8698387145996
 31
0.0
  0
LINE
  5
   11E
  8
0
  6
CONTINUOUS
 62
     7
 10
243.390512301045
 20
-20.3242619918066
 30
0.0
 11
242.869567871094
 21
-17.3698387145996
 31
0.0
  0
LINE
  5
   11F
  8
0
  6
CONTINUOUS
 62
     7
 10
242.869567871094
 20
-17.3698387145996
 30
0.0
 11
242.348623441142
 21
-20.3242619918066
 31
0.0
  0
LINE
  5
   120
  8
0
  6
CONTINUOUS
 62
     7
 10
242.348623441142
 20
-36.9154154373926
 30
0.0
 11
242.869567871094
 21
-39.8698387145996
 31
0.0
  0
LINE
  5
   121
  8
0
  6
CONTINUOUS
 62
     7
 10
242.869567871094
 20
-39.8698387145996
 30
0.0
 11
243.390512301045
 21
-36.9154154373926
 31
0.0
  0
ENDBLK
  5
   122
  8
0
  6
CONTINUOUS
 62
     7
  0
BLOCK
  5
   123
  8
0
  6
CONTINUOUS
 62
     7
  2
*UDIM1095
 70
    65
 10
0.0
 20
0.0
 30
0.0
  3
*UDIM1095
  0
TEXT
  5
   124
  8
0
  6
CONTINUOUS
 62
     7
 10
212.920858451127
 20
-7.50918387687728
 30
0.0
 40
3.00000002980232
  1
45
 50
359.999999844103
 41
0.933333333333333
 72
     1
 11
215.420858480036
 21
-6.00918386876583
 31
0.0
 73
     2
  0
LINE
  5
   125
  8
0
  6
CONTINUOUS
 62
     7
 10
209.870330810547
 20
-14.6998387145996
 30
0.0
 11
209.870330810547
 21
-6.50918388366699
 31
0.0
  0
LINE
  5
   126
  8
0
  6
CONTINUOUS
 62
     7
 10
221.120330810547
 20
-14.6998387145996
 30
0.0
 11
221.120330810547
 21
-6.50918388366699
 31
0.0
  0
LINE
  5
   127
  8
0
  6
CONTINUOUS
 62
     7
 10
209.870330810547
 20
-8.50918388366699
 30
0.0
 11
221.120330810547
 21
-8.50918388366699
 31
0.0
  0
LINE
  5
   128
  8
0
  6
CONTINUOUS
 62
     7
 10
206.91590753334
 20
-9.03012831361865
 30
0.0
 11
209.870330810547
 21
-8.50918388366699
 31
0.0
  0
LINE
  5
   129
  8
0
  6
CONTINUOUS
 62
     7
 10
209.870330810547
 20
-8.50918388366699
 30
0.0
 11
206.91590753334
 21
-7.98823945371533
 31
0.0
  0
LINE
  5
   12A
  8
0
  6
CONTINUOUS
 62
     7
 10
224.074754087754
 20
-7.98823945371533
 30
0.0
 11
221.120330810547
 21
-8.50918388366699
 31
0.0
  0
LINE
  5
   12B
  8
0
  6
CONTINUOUS
 62
     7
 10
221.120330810547
 20
-8.50918388366699
 30
0.0
 11
224.074754087754
 21
-9.03012831361865
 31
0.0
  0
ENDBLK
  5
   12C
  8
0
  6
CONTINUOUS
 62
     7
  0
BLOCK
  5
   12D
  8
0
  6
CONTINUOUS
 62
     7
  2
*UDIM1096
 70
    65
 10
0.0
 20
0.0
 30
0.0
  3
*UDIM1096
  0
TEXT
  5
   12E
  8
0
  6
CONTINUOUS
 62
     7
 10
180.555465384182
 20
-72.6048985569016
 30
0.0
 40
3.00000002980232
  1
7
 50
397.208926617964
 41
0.933333333333334
 72
     1
 11
180.524459858626
 21
-70.7450494430945
 31
0.0
 73
     2
  0
TEXT
  5
   12F
  8
0
  6
CONTINUOUS
 62
     7
 10
178.046692887092
 20
-74.5097766685999
 30
0.0
 40
3.00000002980232
  1
Ø
 50
397.208926617964
 41
0.933333333333334
 72
     1
 11
178.015687361536
 21
-72.6499275547928
 31
0.0
 73
     2
  0
LINE
  5
   130
  8
0
  6
CONTINUOUS
 62
     7
 10
196.879712057541
 20
-61.4657059074633
 30
0.0
 11
178.651416100298
 21
-75.3062123793661
 31
0.0
  0
LINE
  5
   131
  8
0
  6
CONTINUOUS
 62
     7
 10
198.917693073525
 20
-59.2641988376383
 30
0.0
 11
196.879712057541
 21
-61.4657059074633
 31
0.0
  0
LINE
  5
   132
  8
0
  6
CONTINUOUS
 62
     7
 10
196.879712057541
 20
-61.4657059074633
 30
0.0
 11
199.547747447427
 21
-60.0939963324024
 31
0.0
  0
LINE
  5
   133
  8
0
  6
CONTINUOUS
 62
     7
 10
193.447968547569
 20
-64.7254785915609
 30
0.0
 11
195.485949563553
 21
-62.5239715217359
 31
0.0
  0
LINE
  5
   134
  8
0
  6
CONTINUOUS
 62
     7
 10
195.485949563553
 20
-62.5239715217359
 30
0.0
 11
192.817914173667
 21
-63.8956810967968
 31
0.0
  0
ENDBLK
  5
   135
  8
0
  6
CONTINUOUS
 62
     7
  0
BLOCK
  5
   136
  8
0
  6
CONTINUOUS
 62
     7
  2
*UDIM1097
 70
    65
 10
0.0
 20
0.0
 30
0.0
  3
*UDIM1097
  0
TEXT
  5
   137
  8
0
  6
CONTINUOUS
 62
     7
 10
206.38283076177
 20
-86.2494430436073
 30
0.0
 40
3.00000002980232
  1
147
 50
359.999999844103
 41
0.933333333333333
 72
     1
 11
210.282830804586
 21
-84.7494430392981
 31
0.0
 73
     2
  0
LINE
  5
   138
  8
0
  6
CONTINUOUS
 62
     7
 10
192.182830810547
 20
-59.2448387145996
 30
0.0
 11
192.182830810547
 21
-89.2494430541992
 31
0.0
  0
LINE
  5
   139
  8
0
  6
CONTINUOUS
 62
     7
 10
228.932830810547
 20
-59.2448387145996
 30
0.0
 11
228.932830810547
 21
-89.2494430541992
 31
0.0
  0
LINE
  5
   13A
  8
0
  6
CONTINUOUS
 62
     7
 10
192.182830810547
 20
-87.2494430541992
 30
0.0
 11
228.932830810547
 21
-87.2494430541992
 31
0.0
  0
LINE
  5
   13B
  8
0
  6
CONTINUOUS
 62
     7
 10
195.137254087754
 20
-86.7284986242475
 30
0.0
 11
192.182830810547
 21
-87.2494430541992
 31
0.0
  0
LINE
  5
   13C
  8
0
  6
CONTINUOUS
 62
     7
 10
192.182830810547
 20
-87.2494430541992
 30
0.0
 11
195.137254087754
 21
-87.7703874841509
 31
0.0
  0
LINE
  5
   13D
  8
0
  6
CONTINUOUS
 62
     7
 10
225.97840753334
 20
-87.7703874841509
 30
0.0
 11
228.932830810547
 21
-87.2494430541992
 31
0.0
  0
LINE
  5
   13E
  8
0
  6
CONTINUOUS
 62
     7
 10
228.932830810547
 20
-87.2494430541992
 30
0.0
 11
225.97840753334
 21
-86.7284986242475
 31
0.0
  0
ENDBLK
  5
   13F
  8
0
  6
CONTINUOUS
 62
     7
  0
BLOCK
  5
   140
  8
0
  6
CONTINUOUS
 62
     7
  2
*UDIM1098
 70
    65
 10
0.0
 20
0.0
 30
0.0
  3
*UDIM1098
  0
TEXT
  5
   141
  8
0
  6
CONTINUOUS
 62
     7
 10
206.38283076177
 20
-74.8305358780799
 30
0.0
 40
3.00000002980232
  1
115
 50
359.999999844103
 41
0.933333333333333
 72
     1
 11
210.282830804586
 21
-73.3305358737707
 31
0.0
 73
     2
  0
LINE
  5
   142
  8
0
  6
CONTINUOUS
 62
     7
 10
196.182830810547
 20
-20.3698387145996
 30
0.0
 11
196.182830810547
 21
-77.8305358886719
 31
0.0
  0
LINE
  5
   143
  8
0
  6
CONTINUOUS
 62
     7
 10
224.932830810547
 20
-20.3698387145996
 30
0.0
 11
224.932830810547
 21
-77.8305358886719
 31
0.0
  0
LINE
  5
   144
  8
0
  6
CONTINUOUS
 62
     7
 10
196.182830810547
 20
-75.8305358886719
 30
0.0
 11
224.932830810547
 21
-75.8305358886719
 31
0.0
  0
LINE
  5
   145
  8
0
  6
CONTINUOUS
 62
     7
 10
199.137254087754
 20
-75.3095914587202
 30
0.0
 11
196.182830810547
 21
-75.8305358886719
 31
0.0
  0
LINE
  5
   146
  8
0
  6
CONTINUOUS
 62
     7
 10
196.182830810547
 20
-75.8305358886719
 30
0.0
 11
199.137254087754
 21
-76.3514803186235
 31
0.0
  0
LINE
  5
   147
  8
0
  6
CONTINUOUS
 62
     7
 10
221.97840753334
 20
-76.3514803186235
 30
0.0
 11
224.932830810547
 21
-75.8305358886719
 31
0.0
  0
LINE
  5
   148
  8
0
  6
CONTINUOUS
 62
     7
 10
224.932830810547
 20
-75.8305358886719
 30
0.0
 11
221.97840753334
 21
-75.3095914587202
 31
0.0
  0
ENDBLK
  5
   149
  8
0
  6
CONTINUOUS
 62
     7
  0
BLOCK
  5
   14A
  8
0
  6
CONTINUOUS
 62
     7
  2
*UDIM1099
 70
    65
 10
0.0
 20
0.0
 30
0.0
  3
*UDIM1099
  0
TEXT
  5
   14B
  8
0
  6
CONTINUOUS
 62
     7
 10
169.537090290927
 20
-44.044838763375
 30
0.0
 40
3.00000002980232
  1
177
 50
449.999999844103
 41
0.933333333333333
 72
     1
 11
168.037090286613
 21
-40.1448387205601
 31
0.0
 73
     2
  0
LINE
  5
   14C
  8
0
  6
CONTINUOUS
 62
     7
 10
193.557830810547
 20
-17.7448387145996
 30
0.0
 11
168.537090301514
 21
-17.7448387145996
 31
0.0
  0
LINE
  5
   14D
  8
0
  6
CONTINUOUS
 62
     7
 10
193.557830810547
 20
-61.9948387145996
 30
0.0
 11
168.537090301514
 21
-61.9948387145996
 31
0.0
  0
LINE
  5
   14E
  8
0
  6
CONTINUOUS
 62
     7
 10
170.537090301514
 20
-17.7448387145996
 30
0.0
 11
170.537090301514
 21
-61.9948387145996
 31
0.0
  0
LINE
  5
   14F
  8
0
  6
CONTINUOUS
 62
     7
 10
171.058034731465
 20
-20.6992619918066
 30
0.0
 11
170.537090301514
 21
-17.7448387145996
 31
0.0
  0
LINE
  5
   150
  8
0
  6
CONTINUOUS
 62
     7
 10
170.537090301514
 20
-17.7448387145996
 30
0.0
 11
170.016145871562
 21
-20.6992619918066
 31
0.0
  0
LINE
  5
   151
  8
0
  6
CONTINUOUS
 62
     7
 10
170.016145871562
 20
-59.0404154373926
 30
0.0
 11
170.537090301514
 21
-61.9948387145996
 31
0.0
  0
LINE
  5
   152
  8
0
  6
CONTINUOUS
 62
     7
 10
170.537090301514
 20
-61.9948387145996
 30
0.0
 11
171.058034731465
 21
-59.0404154373926
 31
0.0
  0
ENDBLK
  5
   153
  8
0
  6
CONTINUOUS
 62
     7
  0
BLOCK
  5
   154
  8
0
  6
CONTINUOUS
 62
     7
  2
*UDIM1100
 70
    65
 10
0.0
 20
0.0
 30
0.0
  3
*UDIM1100
  0
TEXT
  5
   155
  8
0
  6
CONTINUOUS
 62
     7
 10
178.909399022006
 20
-44.044838763375
 30
0.0
 40
3.00000002980232
  1
147
 50
449.999999844103
 41
0.933333333333333
 72
     1
 11
177.409399017692
 21
-40.1448387205601
 31
0.0
 73
     2
  0
LINE
  5
   156
  8
0
  6
CONTINUOUS
 62
     7
 10
191.182830810547
 20
-21.4948387145996
 30
0.0
 11
177.909399032593
 21
-21.4948387145996
 31
0.0
  0
LINE
  5
   157
  8
0
  6
CONTINUOUS
 62
     7
 10
191.182830810547
 20
-58.2448387145996
 30
0.0
 11
177.909399032593
 21
-58.2448387145996
 31
0.0
  0
LINE
  5
   158
  8
0
  6
CONTINUOUS
 62
     7
 10
179.909399032593
 20
-21.4948387145996
 30
0.0
 11
179.909399032593
 21
-58.2448387145996
 31
0.0
  0
LINE
  5
   159
  8
0
  6
CONTINUOUS
 62
     7
 10
180.430343462544
 20
-24.4492619918066
 30
0.0
 11
179.909399032593
 21
-21.4948387145996
 31
0.0
  0
LINE
  5
   15A
  8
0
  6
CONTINUOUS
 62
     7
 10
179.909399032593
 20
-21.4948387145996
 30
0.0
 11
179.388454602641
 21
-24.4492619918066
 31
0.0
  0
LINE
  5
   15B
  8
0
  6
CONTINUOUS
 62
     7
 10
179.388454602641
 20
-55.2904154373926
 30
0.0
 11
179.909399032593
 21
-58.2448387145996
 31
0.0
  0
LINE
  5
   15C
  8
0
  6
CONTINUOUS
 62
     7
 10
179.909399032593
 20
-58.2448387145996
 30
0.0
 11
180.430343462544
 21
-55.2904154373926
 31
0.0
  0
ENDBLK
  5
   15D
  8
0
  6
CONTINUOUS
 62
     7
  0
BLOCK
  5
   15E
  8
0
  6
CONTINUOUS
 62
     7
  2
*HATCH409
 70
    65
 10
0.0
 20
0.0
 30
0.0
  3
*HATCH409
  0
LINE
  5
   15F
  8
0
  6
CONTINUOUS
 62
    52
 10
-11.7279224395752
 20
1.0
 30
0.0
 11
-11.9763488769531
 21
0.75157368183136
 31
0.0
  0
LINE
  5
   160
  8
0
  6
CONTINUOUS
 62
    52
 10
-9.60660171508789
 20
1.0
 30
0.0
 11
-11.6066026687622
 21
-1.0
 31
0.0
  0
LINE
  5
   161
  8
0
  6
CONTINUOUS
 62
    52
 10
-7.48528146743774
 20
1.0
 30
0.0
 11
-9.48528289794922
 21
-1.0
 31
0.0
  0
LINE
  5
   162
  8
0
  6
CONTINUOUS
 62
    52
 10
-5.3639612197876
 20
1.0
 30
0.0
 11
-7.36396265029907
 21
-1.0
 31
0.0
  0
LINE
  5
   163
  8
0
  6
CONTINUOUS
 62
    52
 10
-3.47947335243225
 20
0.763167560100555
 30
0.0
 11
-5.24264097213745
 21
-1.0
 31
0.0
  0
LINE
  5
   164
  8
0
  6
CONTINUOUS
 62
    52
 10
-2.51160907745361
 20
-0.390288293361664
 30
0.0
 11
-3.1213207244873
 21
-1.0
 31
0.0
  0
ENDBLK
  5
   165
  8
0
  6
CONTINUOUS
 62
     7
  0
BLOCK
  5
   166
  8
0
  6
CONTINUOUS
 62
     7
  2
*HATCH410
 70
    65
 10
0.0
 20
0.0
 30
0.0
  3
*HATCH410
  0
LINE
  5
   167
  8
0
  6
CONTINUOUS
 62
    52
 10
5.24264097213745
 20
1.0
 30
0.0
 11
3.24264073371887
 21
-1.0
 31
0.0
  0
LINE
  5
   168
  8
0
  6
CONTINUOUS
 62
    52
 10
7.3639612197876
 20
1.0
 30
0.0
 11
5.3639612197876
 21
-1.0
 31
0.0
  0
LINE
  5
   169
  8
0
  6
CONTINUOUS
 62
    52
 10
9.48528099060059
 20
1.0
 30
0.0
 11
7.4852819442749
 21
-1.0
 31
0.0
  0
ENDBLK
  5
   16A
  8
0
  6
CONTINUOUS
 62
     7
  0
BLOCK
  5
   16B
  8
0
  6
CONTINUOUS
 62
     7
  2
*UDIM1101
 70
    65
 10
0.0
 20
0.0
 30
0.0
  3
*UDIM1101
  0
TEXT
  5
   16C
  8
0
  6
CONTINUOUS
 62
     7
 10
233.039243463443
 20
19.9768485295074
 30
0.0
 40
3.00000002980232
  1
80
 50
449.241125536518
 41
0.933333333333333
 72
     1
 11
231.572486193508
 21
22.4964959810317
 31
0.0
 73
     2
  0
TEXT
  5
   16D
  8
0
  6
CONTINUOUS
 62
     7
 10
232.505518429181
 20
24.9843567009535
 30
0.0
 40
3.00000002980232
  1
°
 50
449.241125536518
 41
0.933333333333334
 72
     1
 11
231.02021890002
 21
26.1041269351604
 31
0.0
 73
     2
  0
LINE
  5
   16E
  8
0
  6
CONTINUOUS
 62
     7
 10
215.976814096439
 20
19.5503891655566
 30
0.0
 11
230.17878126267
 21
7.6335237543807
 31
0.0
  0
LINE
  5
   16F
  8
0
  6
CONTINUOUS
 62
     7
 10
215.976814096439
 20
28.1923629096388
 30
0.0
 11
230.17878126267
 21
40.1092283208146
 31
0.0
  0
ARC
  5
   170
  8
0
  6
CONTINUOUS
 62
     7
 10
210.827262468132
 20
23.8713760375977
 30
0.0
 40
23.2616136940404
 50
319.999999815233
 51
399.999999769042
  0
LINE
  5
   171
  8
0
  6
CONTINUOUS
 62
     7
 10
230.146692467052
 20
11.5171751327877
 30
0.0
 11
228.646692376432
 21
8.91909897375378
 31
0.0
  0
LINE
  5
   172
  8
0
  6
CONTINUOUS
 62
     7
 10
228.646692376432
 20
8.91909897375378
 30
0.0
 11
230.944825638528
 21
10.8474618829714
 31
0.0
  0
LINE
  5
   173
  8
0
  6
CONTINUOUS
 62
     7
 10
230.944825638528
 20
36.8952901922239
 30
0.0
 11
228.646692376432
 21
38.8236531014415
 31
0.0
  0
LINE
  5
   174
  8
0
  6
CONTINUOUS
 62
     7
 10
228.646692376432
 20
38.8236531014415
 30
0.0
 11
230.146692467052
 21
36.2255769424076
 31
0.0
  0
ENDBLK
  5
   175
  8
0
  6
CONTINUOUS
 62
     7
  0
BLOCK
  5
   176
  8
0
  6
CONTINUOUS
 62
     7
  2
*UDIM1102
 70
    65
 10
0.0
 20
0.0
 30
0.0
  3
*UDIM1102
  0
TEXT
  5
   177
  8
0
  6
CONTINUOUS
 62
     7
 10
192.765102379688
 20
29.7564429947744
 30
0.0
 40
3.00000002980232
  1
Ø4
 50
449.999999844103
 41
0.933333333333333
 72
     1
 11
191.265102371573
 21
32.2564430236816
 31
0.0
 73
     2
  0
LINE
  5
   178
  8
0
  6
CONTINUOUS
 62
     7
 10
212.21076965332
 20
25.8713760375977
 30
0.0
 11
191.765102386475
 21
25.8713760375977
 31
0.0
  0
LINE
  5
   179
  8
0
  6
CONTINUOUS
 62
     7
 10
212.21076965332
 20
21.8713760375977
 30
0.0
 11
191.765102386475
 21
21.8713760375977
 31
0.0
  0
LINE
  5
   17A
  8
0
  6
CONTINUOUS
 62
     7
 10
193.765102386475
 20
34.7564430485169
 30
0.0
 11
193.765102386475
 21
21.8713760375977
 31
0.0
  0
LINE
  5
   17B
  8
0
  6
CONTINUOUS
 62
     7
 10
193.244157956523
 20
28.8257993148046
 30
0.0
 11
193.765102386475
 21
25.8713760375977
 31
0.0
  0
LINE
  5
   17C
  8
0
  6
CONTINUOUS
 62
     7
 10
193.765102386475
 20
25.8713760375977
 30
0.0
 11
194.286046816426
 21
28.8257993148046
 31
0.0
  0
LINE
  5
   17D
  8
0
  6
CONTINUOUS
 62
     7
 10
194.286046816426
 20
18.9169527603907
 30
0.0
 11
193.765102386475
 21
21.8713760375977
 31
0.0
  0
LINE
  5
   17E
  8
0
  6
CONTINUOUS
 62
     7
 10
193.765102386475
 20
21.8713760375977
 30
0.0
 11
193.244157956523
 21
18.9169527603907
 31
0.0
  0
ENDBLK
  5
   17F
  8
0
  6
CONTINUOUS
 62
     7
  0
BLOCK
  5
   180
  8
0
  6
CONTINUOUS
 62
     7
  2
*UDIM1103
 70
    65
 10
0.0
 20
0.0
 30
0.0
  3
*UDIM1103
  0
TEXT
  5
   181
  8
0
  6
CONTINUOUS
 62
     7
 10
19.2467835245142
 20
-192.050992234746
 30
0.0
 40
2.99999994933605
  1
8
 50
449.999999896069
 41
0.933333333333333
 72
     1
 11
17.7467835518346
 21
-190.950992250611
 31
0.0
 73
     2
  0
LINE
  5
   182
  8
0
  6
CONTINUOUS
 62
     7
 10
4.32927533984184
 20
-182.739694520831
 30
0.0
 11
22.2467835265027
 21
-182.739694520831
 31
0.0
  0
LINE
  5
   183
  8
0
  6
CONTINUOUS
 62
     7
 10
0.829275287687777
 20
-184.339694544673
 30
0.0
 11
22.2467835265027
 21
-184.339694544673
 31
0.0
  0
LINE
  5
   184
  8
0
  6
CONTINUOUS
 62
     7
 10
20.2467835265027
 20
-182.739694520831
 30
0.0
 11
20.2467835265027
 21
-192.050992232034
 31
0.0
  0
LINE
  5
   185
  8
0
  6
CONTINUOUS
 62
     7
 10
19.725839096551
 20
-179.785271243624
 30
0.0
 11
20.2467835265027
 21
-182.739694520831
 31
0.0
  0
LINE
  5
   186
  8
0
  6
CONTINUOUS
 62
     7
 10
20.2467835265027
 20
-182.739694520831
 30
0.0
 11
20.7677279564543
 21
-179.785271243624
 31
0.0
  0
LINE
  5
   187
  8
0
  6
CONTINUOUS
 62
     7
 10
20.7677279564543
 20
-187.29411782188
 30
0.0
 11
20.2467835265027
 21
-184.339694544673
 31
0.0
  0
LINE
  5
   188
  8
0
  6
CONTINUOUS
 62
     7
 10
20.2467835265027
 20
-184.339694544673
 30
0.0
 11
19.725839096551
 21
-187.29411782188
 31
0.0
  0
ENDBLK
  5
   189
  8
0
  6
CONTINUOUS
 62
     7
  0
BLOCK
  5
   18A
  8
0
  6
CONTINUOUS
 62
     7
  2
*UDIM1104
 70
    65
 10
0.0
 20
0.0
 30
0.0
  3
*UDIM1104
  0
TEXT
  5
   18B
  8
0
  6
CONTINUOUS
 62
     7
 10
16.059325511012
 20
-174.934673946415
 30
0.0
 40
2.99999994933605
  1
35
 50
398.239640554382
 41
0.933333333333333
 72
     1
 11
17.0944697057938
 21
-172.209150839026
 31
0.0
 73
     2
  0
TEXT
  5
   18C
  8
0
  6
CONTINUOUS
 62
     7
 10
13.5852246638877
 20
-176.884372561353
 30
0.0
 40
2.99999994933605
  1
Ø
 50
398.239640554382
 41
0.933333333333333
 72
     1
 11
13.5207684813455
 21
-175.025382167707
 31
0.0
 73
     2
  0
LINE
  5
   18D
  8
0
  6
CONTINUOUS
 62
     7
 10
20.6054216653345
 20
-172.625343102334
 30
0.0
 11
0.580274313060965
 21
-188.406026431181
 31
0.0
  0
LINE
  5
   18E
  8
0
  6
CONTINUOUS
 62
     7
 10
4.08022665135796
 20
-186.311173550255
 30
0.0
 11
6.07827636662272
 21
-184.073362714789
 31
0.0
  0
LINE
  5
   18F
  8
0
  6
CONTINUOUS
 62
     7
 10
6.07827636662272
 20
-184.073362714789
 30
0.0
 11
3.43534750956502
 21
-185.492843977973
 31
0.0
  0
LINE
  5
   190
  8
0
  6
CONTINUOUS
 62
     7
 10
2.57832402832573
 20
-186.168215595715
 30
0.0
 11
0.580274313060965
 21
-188.406026431181
 31
0.0
  0
LINE
  5
   191
  8
0
  6
CONTINUOUS
 62
     7
 10
0.580274313060965
 20
-188.406026431181
 30
0.0
 11
3.22320317011867
 21
-186.986545167997
 31
0.0
  0
ENDBLK
  5
   192
  8
0
  6
CONTINUOUS
 62
     7
  0
BLOCK
  5
   193
  8
0
  6
CONTINUOUS
 62
     1
  2
*UDIM1105
 70
    65
 10
0.0
 20
0.0
 30
0.0
  3
*UDIM1105
  0
TEXT
  5
   194
  8
0
  6
CONTINUOUS
 62
     1
 10
11.4943450397801
 20
-113.730831153169
 30
0.0
 40
2.00000007748604
  1
FORATURA DA ESEGUIRE SOLO PER ESECUZ.TERM.POST.
 50
359.999999896069
 41
0.93749995827675
 72
     2
 11
99.2443445211122
 21
-111.730831234415
 31
0.0
 73
     3
  0
TEXT
  5
   195
  8
0
  6
CONTINUOUS
 62
     1
 10
13.3693450289767
 20
-116.730831154865
 30
0.0
 40
2.00000007748604
  1
REAR TERMINAL EXECUTION ONLY DRILLING TEMPLATE
 50
359.999999896069
 41
0.93749995827675
 72
     2
 11
99.2443445211122
 21
-114.730831232719
 31
0.0
 73
     3
  0
LINE
  5
   196
  8
0
  6
CONTINUOUS
 62
     1
 10
3.03067151459152
 20
-135.768093479103
 30
0.0
 11
11.4193450386088
 21
-117.730831232535
 31
0.0
  0
LINE
  5
   197
  8
0
  6
CONTINUOUS
 62
     1
 10
11.4193450386088
 20
-117.730831232535
 30
0.0
 11
99.2443445193033
 21
-117.730831232535
 31
0.0
  0
LINE
  5
   198
  8
0
  6
CONTINUOUS
 62
     1
 10
3.80419215382408
 20
-132.869530762741
 30
0.0
 11
3.03067151459152
 21
-135.768093479103
 31
0.0
  0
LINE
  5
   199
  8
0
  6
CONTINUOUS
 62
     1
 10
3.03067151459152
 20
-135.768093479103
 30
0.0
 11
4.74890981544062
 21
-133.308895003685
 31
0.0
  0
ENDBLK
  5
   19A
  8
0
  6
CONTINUOUS
 62
     1
  0
BLOCK
  5
   19B
  8
0
  6
CONTINUOUS
 62
     7
  2
*UDIM1106
 70
    65
 10
0.0
 20
0.0
 30
0.0
  3
*UDIM1106
  0
TEXT
  5
   19C
  8
0
  6
CONTINUOUS
 62
     7
 10
-0.695724643375844
 20
-152.439823779414
 30
0.0
 40
2.99999994933605
  1
35
 50
359.999999896069
 41
0.933333333333333
 72
     1
 11
1.80427531711757
 21
-150.939823809268
 31
0.0
 73
     2
  0
LINE
  5
   19D
  8
0
  6
CONTINUOUS
 62
     7
 10
4.30427527489761
 20
-153.439823783936
 30
0.0
 11
-10.6707248687744
 21
-153.439823783936
 31
0.0
  0
LINE
  5
   19E
  8
0
  6
CONTINUOUS
 62
     7
 10
-6.62514804167325
 20
-153.960768213888
 30
0.0
 11
-3.67072476446629
 21
-153.439823783936
 31
0.0
  0
LINE
  5
   19F
  8
0
  6
CONTINUOUS
 62
     7
 10
-3.67072476446629
 20
-153.439823783936
 30
0.0
 11
-6.62514804167325
 21
-152.918879353984
 31
0.0
  0
LINE
  5
   1A0
  8
0
  6
CONTINUOUS
 62
     7
 10
-7.71630159156745
 20
-152.918879353984
 30
0.0
 11
-10.6707248687744
 21
-153.439823783936
 31
0.0
  0
LINE
  5
   1A1
  8
0
  6
CONTINUOUS
 62
     7
 10
-10.6707248687744
 20
-153.439823783936
 30
0.0
 11
-7.71630159156745
 21
-153.960768213888
 31
0.0
  0
ENDBLK
  5
   1A2
  8
0
  6
CONTINUOUS
 62
     7
  0
BLOCK
  5
   1A3
  8
0
  6
CONTINUOUS
 62
     7
  2
*UDIM1107
 70
    65
 10
0.0
 20
0.0
 30
0.0
  3
*UDIM1107
  0
TEXT
  5
   1A4
  8
0
  6
CONTINUOUS
 62
     7
 10
-25.3457250138684
 20
-152.439823776881
 30
0.0
 40
2.99999994933605
  1
105
 50
359.999999896069
 41
0.933333333333333
 72
     1
 11
-21.4457250770181
 21
-150.939823809268
 31
0.0
 73
     2
  0
LINE
  5
   1A5
  8
0
  6
CONTINUOUS
 62
     7
 10
-10.6707248687744
 20
-153.439823783936
 30
0.0
 11
-31.6707251816988
 21
-153.439823783936
 31
0.0
  0
LINE
  5
   1A6
  8
0
  6
CONTINUOUS
 62
     7
 10
-13.6251481459814
 20
-153.960768213888
 30
0.0
 11
-10.6707248687744
 21
-153.439823783936
 31
0.0
  0
LINE
  5
   1A7
  8
0
  6
CONTINUOUS
 62
     7
 10
-10.6707248687744
 20
-153.439823783936
 30
0.0
 11
-13.6251481459814
 21
-152.918879353984
 31
0.0
  0
LINE
  5
   1A8
  8
0
  6
CONTINUOUS
 62
     7
 10
-28.7163019044918
 20
-152.918879353984
 30
0.0
 11
-31.6707251816988
 21
-153.439823783936
 31
0.0
  0
LINE
  5
   1A9
  8
0
  6
CONTINUOUS
 62
     7
 10
-31.6707251816988
 20
-153.439823783936
 30
0.0
 11
-28.7163019044918
 21
-153.960768213888
 31
0.0
  0
ENDBLK
  5
   1AA
  8
0
  6
CONTINUOUS
 62
     7
  0
BLOCK
  5
   1AB
  8
0
  6
CONTINUOUS
 62
     7
  2
*UDIM1108
 70
    65
 10
0.0
 20
0.0
 30
0.0
  3
*UDIM1108
  0
TEXT
  5
   1AC
  8
0
  6
CONTINUOUS
 62
     7
 10
-67.5409262633601
 20
-195.36123243556
 30
0.0
 40
2.99999994933605
  1
5,5
 50
376.410037752177
 41
0.933333333333333
 72
     1
 11
-64.2235590600861
 21
-192.820548620342
 31
0.0
 73
     2
  0
TEXT
  5
   1AD
  8
0
  6
CONTINUOUS
 62
     7
 10
-70.5626093753358
 20
-196.251137408932
 30
0.0
 40
2.99999994933605
  1
Ø
 50
376.410037752177
 41
0.933333333333333
 72
     1
 11
-69.9311827152273
 21
-194.501480226499
 31
0.0
 73
     2
  0
TEXT
  5
   1AE
  8
0
  6
CONTINUOUS
 62
     7
 10
-59.5310678432006
 20
-193.002277987452
 30
0.0
 40
2.99999994933605
  1
 - M5
 50
376.410037752177
 41
0.933333333333333
 72
     1
 11
-53.5277600967611
 21
-189.670567539448
 31
0.0
 73
     2
  0
LINE
  5
   1AF
  8
0
  6
CONTINUOUS
 62
     7
 10
-31.1431297013719
 20
-185.684314329691
 30
0.0
 11
-70.280099853956
 21
-197.210401905465
 31
0.0
  0
LINE
  5
   1B0
  8
0
  6
CONTINUOUS
 62
     7
 10
-28.4562281071129
 20
-184.349938137319
 30
0.0
 11
-31.1431297013719
 21
-185.684314329691
 31
0.0
  0
LINE
  5
   1B1
  8
0
  6
CONTINUOUS
 62
     7
 10
-31.1431297013719
 20
-185.684314329691
 30
0.0
 11
-28.1618845872679
 21
-185.349385128768
 31
0.0
  0
LINE
  5
   1B2
  8
0
  6
CONTINUOUS
 62
     7
 10
-34.8852222562847
 20
-187.32945099673
 30
0.0
 11
-32.1983206620257
 21
-185.995074804358
 31
0.0
  0
LINE
  5
   1B3
  8
0
  6
CONTINUOUS
 62
     7
 10
-32.1983206620257
 20
-185.995074804358
 30
0.0
 11
-35.1795657761297
 21
-186.330004005281
 31
0.0
  0
ENDBLK
  5
   1B4
  8
0
  6
CONTINUOUS
 62
     7
  0
BLOCK
  5
   1B5
  8
0
  6
CONTINUOUS
 62
     7
  2
*UDIM1109
 70
    65
 10
0.0
 20
0.0
 30
0.0
  3
*UDIM1109
  0
TEXT
  5
   1B6
  8
0
  6
CONTINUOUS
 62
     7
 10
-6.44572477674124
 20
-174.012907596972
 30
0.0
 40
2.99999994933605
  1
70
 50
359.999999896069
 41
0.933333333333333
 72
     1
 11
-3.94572481624782
 21
-172.512907626826
 31
0.0
 73
     2
  0
LINE
  5
   1B7
  8
0
  6
CONTINUOUS
 62
     7
 10
3.32927533984184
 20
-180.039694495499
 30
0.0
 11
3.32927533984184
 21
-173.012907601494
 31
0.0
  0
LINE
  5
   1B8
  8
0
  6
CONTINUOUS
 62
     7
 10
-10.6707248687744
 20
-180.039694495499
 30
0.0
 11
-10.6707248687744
 21
-173.012907601494
 31
0.0
  0
LINE
  5
   1B9
  8
0
  6
CONTINUOUS
 62
     7
 10
3.32927533984184
 20
-175.012907601494
 30
0.0
 11
-10.6707248687744
 21
-175.012907601494
 31
0.0
  0
LINE
  5
   1BA
  8
0
  6
CONTINUOUS
 62
     7
 10
0.374852062634879
 20
-175.533852031445
 30
0.0
 11
3.32927533984184
 21
-175.012907601494
 31
0.0
  0
LINE
  5
   1BB
  8
0
  6
CONTINUOUS
 62
     7
 10
3.32927533984184
 20
-175.012907601494
 30
0.0
 11
0.374852062634879
 21
-174.491963171542
 31
0.0
  0
LINE
  5
   1BC
  8
0
  6
CONTINUOUS
 62
     7
 10
-7.71630159156745
 20
-174.491963171542
 30
0.0
 11
-10.6707248687744
 21
-175.012907601494
 31
0.0
  0
LINE
  5
   1BD
  8
0
  6
CONTINUOUS
 62
     7
 10
-10.6707248687744
 20
-175.012907601494
 30
0.0
 11
-7.71630159156745
 21
-175.533852031445
 31
0.0
  0
ENDBLK
  5
   1BE
  8
0
  6
CONTINUOUS
 62
     7
  0
BLOCK
  5
   1BF
  8
0
  6
CONTINUOUS
 62
     7
  2
*UDIM1110
 70
    65
 10
0.0
 20
0.0
 30
0.0
  3
*UDIM1110
  0
TEXT
  5
   1C0
  8
0
  6
CONTINUOUS
 62
     7
 10
-20.4457249853575
 20
-174.012907596972
 30
0.0
 40
2.99999994933605
  1
70
 50
359.999999896069
 41
0.933333333333333
 72
     1
 11
-17.9457250248641
 21
-172.512907626826
 31
0.0
 73
     2
  0
LINE
  5
   1C1
  8
0
  6
CONTINUOUS
 62
     7
 10
-24.6707250773907
 20
-180.039694495499
 30
0.0
 11
-24.6707250773907
 21
-173.012907601494
 31
0.0
  0
LINE
  5
   1C2
  8
0
  6
CONTINUOUS
 62
     7
 10
-10.6707248687744
 20
-175.012907601494
 30
0.0
 11
-24.6707250773907
 21
-175.012907601494
 31
0.0
  0
LINE
  5
   1C3
  8
0
  6
CONTINUOUS
 62
     7
 10
-13.6251481459814
 20
-175.533852031445
 30
0.0
 11
-10.6707248687744
 21
-175.012907601494
 31
0.0
  0
LINE
  5
   1C4
  8
0
  6
CONTINUOUS
 62
     7
 10
-10.6707248687744
 20
-175.012907601494
 30
0.0
 11
-13.6251481459814
 21
-174.491963171542
 31
0.0
  0
LINE
  5
   1C5
  8
0
  6
CONTINUOUS
 62
     7
 10
-21.7163018001837
 20
-174.491963171542
 30
0.0
 11
-24.6707250773907
 21
-175.012907601494
 31
0.0
  0
LINE
  5
   1C6
  8
0
  6
CONTINUOUS
 62
     7
 10
-24.6707250773907
 20
-175.012907601494
 30
0.0
 11
-21.7163018001837
 21
-175.533852031445
 31
0.0
  0
ENDBLK
  5
   1C7
  8
0
  6
CONTINUOUS
 62
     7
  0
BLOCK
  5
   1C8
  8
0
  6
CONTINUOUS
 62
     7
  2
*UDIM1111
 70
    65
 10
0.0
 20
0.0
 30
0.0
  3
*UDIM1111
  0
TEXT
  5
   1C9
  8
0
  6
CONTINUOUS
 62
     7
 10
-34.4457251939738
 20
-174.012907596972
 30
0.0
 40
2.99999994933605
  1
70
 50
359.999999896069
 41
0.933333333333333
 72
     1
 11
-31.9457252334803
 21
-172.512907626826
 31
0.0
 73
     2
  0
LINE
  5
   1CA
  8
0
  6
CONTINUOUS
 62
     7
 10
-38.6707252860069
 20
-180.039694495499
 30
0.0
 11
-38.6707252860069
 21
-173.012907601494
 31
0.0
  0
LINE
  5
   1CB
  8
0
  6
CONTINUOUS
 62
     7
 10
-24.6707250773907
 20
-175.012907601494
 30
0.0
 11
-38.6707252860069
 21
-175.012907601494
 31
0.0
  0
LINE
  5
   1CC
  8
0
  6
CONTINUOUS
 62
     7
 10
-27.6251483545976
 20
-175.533852031445
 30
0.0
 11
-24.6707250773907
 21
-175.012907601494
 31
0.0
  0
LINE
  5
   1CD
  8
0
  6
CONTINUOUS
 62
     7
 10
-24.6707250773907
 20
-175.012907601494
 30
0.0
 11
-27.6251483545976
 21
-174.491963171542
 31
0.0
  0
LINE
  5
   1CE
  8
0
  6
CONTINUOUS
 62
     7
 10
-35.7163020088
 20
-174.491963171542
 30
0.0
 11
-38.6707252860069
 21
-175.012907601494
 31
0.0
  0
LINE
  5
   1CF
  8
0
  6
CONTINUOUS
 62
     7
 10
-38.6707252860069
 20
-175.012907601494
 30
0.0
 11
-35.7163020088
 21
-175.533852031445
 31
0.0
  0
ENDBLK
  5
   1D0
  8
0
  6
CONTINUOUS
 62
     7
  0
BLOCK
  5
   1D1
  8
0
  6
CONTINUOUS
 62
     7
  2
*UDIM1112
 70
    65
 10
0.0
 20
0.0
 30
0.0
  3
*UDIM1112
  0
TEXT
  5
   1D2
  8
0
  6
CONTINUOUS
 62
     7
 10
27.0919374449485
 20
-166.314694202497
 30
0.0
 40
2.99999994933605
  1
241
 50
449.999999896069
 41
0.933333333333333
 72
     1
 11
25.5919374773303
 21
-162.414694265649
 31
0.0
 73
     2
  0
LINE
  5
   1D3
  8
0
  6
CONTINUOUS
 62
     7
 10
9.52927541732788
 20
-138.039693854749
 30
0.0
 11
30.0919374519983
 21
-138.039693854749
 31
0.0
  0
LINE
  5
   1D4
  8
0
  6
CONTINUOUS
 62
     7
 10
9.52927541732788
 20
-186.239694572985
 30
0.0
 11
30.0919374519983
 21
-186.239694572985
 31
0.0
  0
LINE
  5
   1D5
  8
0
  6
CONTINUOUS
 62
     7
 10
28.0919374519983
 20
-138.039693854749
 30
0.0
 11
28.0919374519983
 21
-186.239694572985
 31
0.0
  0
LINE
  5
   1D6
  8
0
  6
CONTINUOUS
 62
     7
 10
28.61288188195
 20
-140.994117131956
 30
0.0
 11
28.0919374519983
 21
-138.039693854749
 31
0.0
  0
LINE
  5
   1D7
  8
0
  6
CONTINUOUS
 62
     7
 10
28.0919374519983
 20
-138.039693854749
 30
0.0
 11
27.5709930220467
 21
-140.994117131956
 31
0.0
  0
LINE
  5
   1D8
  8
0
  6
CONTINUOUS
 62
     7
 10
27.5709930220467
 20
-183.285271295778
 30
0.0
 11
28.0919374519983
 21
-186.239694572985
 31
0.0
  0
LINE
  5
   1D9
  8
0
  6
CONTINUOUS
 62
     7
 10
28.0919374519983
 20
-186.239694572985
 30
0.0
 11
28.61288188195
 21
-183.285271295778
 31
0.0
  0
ENDBLK
  5
   1DA
  8
0
  6
CONTINUOUS
 62
     7
  0
BLOCK
  5
   1DB
  8
0
  6
CONTINUOUS
 62
     7
  2
*UDIM1113
 70
    65
 10
0.0
 20
0.0
 30
0.0
  3
*UDIM1113
  0
TEXT
  5
   1DC
  8
0
  6
CONTINUOUS
 62
     7
 10
19.2877716792433
 20
-152.641683756768
 30
0.0
 40
2.99999994933605
  1
106
 50
449.999999896069
 41
0.933333333333333
 72
     1
 11
17.7877717116251
 21
-148.74168381992
 31
0.0
 73
     2
  0
LINE
  5
   1DD
  8
0
  6
CONTINUOUS
 62
     7
 10
9.52927541732788
 20
-138.039693854749
 30
0.0
 11
22.2877716862931
 21
-138.039693854749
 31
0.0
  0
LINE
  5
   1DE
  8
0
  6
CONTINUOUS
 62
     7
 10
8.54289041560364
 20
-159.239694170654
 30
0.0
 11
22.2877716862931
 21
-159.239694170654
 31
0.0
  0
LINE
  5
   1DF
  8
0
  6
CONTINUOUS
 62
     7
 10
20.2877716862931
 20
-138.039693854749
 30
0.0
 11
20.2877716862931
 21
-159.239694170654
 31
0.0
  0
LINE
  5
   1E0
  8
0
  6
CONTINUOUS
 62
     7
 10
20.8087161162448
 20
-140.994117131956
 30
0.0
 11
20.2877716862931
 21
-138.039693854749
 31
0.0
  0
LINE
  5
   1E1
  8
0
  6
CONTINUOUS
 62
     7
 10
20.2877716862931
 20
-138.039693854749
 30
0.0
 11
19.7668272563415
 21
-140.994117131956
 31
0.0
  0
LINE
  5
   1E2
  8
0
  6
CONTINUOUS
 62
     7
 10
19.7668272563415
 20
-156.285270893447
 30
0.0
 11
20.2877716862931
 21
-159.239694170654
 31
0.0
  0
LINE
  5
   1E3
  8
0
  6
CONTINUOUS
 62
     7
 10
20.2877716862931
 20
-159.239694170654
 30
0.0
 11
20.8087161162448
 21
-156.285270893447
 31
0.0
  0
ENDBLK
  5
   1E4
  8
0
  6
CONTINUOUS
 62
     7
  0
BLOCK
  5
   1E5
  8
0
  6
CONTINUOUS
 62
     7
  2
*UDIM1114
 70
    65
 10
0.0
 20
0.0
 30
0.0
  3
*UDIM1114
  0
TEXT
  5
   1E6
  8
0
  6
CONTINUOUS
 62
     7
 10
-54.4013041258408
 20
-152.641682229539
 30
0.0
 40
2.99999994933605
  1
104
 50
449.999999896069
 41
0.933333333333333
 72
     1
 11
-55.9013040934589
 21
-148.741682292691
 31
0.0
 73
     2
  0
LINE
  5
   1E7
  8
0
  6
CONTINUOUS
 62
     7
 10
-21.2352357253244
 20
-138.439693546793
 30
0.0
 11
-55.4013041187908
 21
-138.439682821502
 31
0.0
  0
LINE
  5
   1E8
  8
0
  6
CONTINUOUS
 62
     7
 10
-37.399937709691
 20
-159.239693045369
 30
0.0
 11
-55.4013041187896
 21
-159.239672788696
 31
0.0
  0
LINE
  5
   1E9
  8
0
  6
CONTINUOUS
 62
     7
 10
-53.4013041187909
 20
-138.439683449334
 30
0.0
 11
-53.4013041187909
 21
-159.239675039267
 31
0.0
  0
LINE
  5
   1EA
  8
0
  6
CONTINUOUS
 62
     7
 10
-52.8803596888392
 20
-141.394106726541
 30
0.0
 11
-53.4013041187909
 21
-138.439683449334
 31
0.0
  0
LINE
  5
   1EB
  8
0
  6
CONTINUOUS
 62
     7
 10
-53.4013041187909
 20
-138.439683449334
 30
0.0
 11
-53.9222485487426
 21
-141.394106726541
 31
0.0
  0
LINE
  5
   1EC
  8
0
  6
CONTINUOUS
 62
     7
 10
-53.9222485487426
 20
-156.28525176206
 30
0.0
 11
-53.4013041187909
 21
-159.239675039267
 31
0.0
  0
LINE
  5
   1ED
  8
0
  6
CONTINUOUS
 62
     7
 10
-53.4013041187909
 20
-159.239675039267
 30
0.0
 11
-52.8803596888392
 21
-156.28525176206
 31
0.0
  0
ENDBLK
  5
   1EE
  8
0
  6
CONTINUOUS
 62
     7
  0
BLOCK
  5
   1EF
  8
0
  6
CONTINUOUS
 62
     7
  2
*UDIM1115
 70
    65
 10
0.0
 20
0.0
 30
0.0
  3
*UDIM1115
  0
TEXT
  5
   1F0
  8
0
  6
CONTINUOUS
 62
     7
 10
-62.6541759529197
 20
-171.159893801505
 30
0.0
 40
2.99999994933605
  1
237
 50
449.999999896069
 41
0.933333333333333
 72
     1
 11
-64.1541759205379
 21
-167.259893864656
 31
0.0
 73
     2
  0
LINE
  5
   1F1
  8
0
  6
CONTINUOUS
 62
     7
 10
-21.2352357253244
 20
-138.439693546793
 30
0.0
 11
-63.6541759458697
 21
-138.439680230789
 31
0.0
  0
LINE
  5
   1F2
  8
0
  6
CONTINUOUS
 62
     7
 10
-21.3731576201424
 20
-185.839694253108
 30
0.0
 11
-63.6541759458697
 21
-185.8396809804
 31
0.0
  0
LINE
  5
   1F3
  8
0
  6
CONTINUOUS
 62
     7
 10
-61.6541759458698
 20
-138.439680858622
 30
0.0
 11
-61.6541759458698
 21
-185.839681608233
 31
0.0
  0
LINE
  5
   1F4
  8
0
  6
CONTINUOUS
 62
     7
 10
-61.1332315159182
 20
-141.394104135829
 30
0.0
 11
-61.6541759458698
 21
-138.439680858622
 31
0.0
  0
LINE
  5
   1F5
  8
0
  6
CONTINUOUS
 62
     7
 10
-61.6541759458698
 20
-138.439680858622
 30
0.0
 11
-62.1751203758215
 21
-141.394104135829
 31
0.0
  0
LINE
  5
   1F6
  8
0
  6
CONTINUOUS
 62
     7
 10
-62.1751203758215
 20
-182.885258331026
 30
0.0
 11
-61.6541759458698
 21
-185.839681608233
 31
0.0
  0
LINE
  5
   1F7
  8
0
  6
CONTINUOUS
 62
     7
 10
-61.6541759458698
 20
-185.839681608233
 30
0.0
 11
-61.1332315159182
 21
-182.885258331026
 31
0.0
  0
ENDBLK
  5
   1F8
  8
0
  6
CONTINUOUS
 62
     7
  0
ENDSEC
  0
SECTION
  2
ENTITIES
  0
LINE
  5
   1F9
  8
0
  6
DASHDOT
 62
     7
 10
-10.6707248687744
 20
-95.7440421308196
 30
0.0
 11
-10.6707248687744
 21
6.27138423664317
 31
0.0
  0
LINE
  5
   1FA
  8
0
  6
CONTINUOUS
 62
     7
 10
1.40426855683381
 20
-62.5322005271887
 30
0.0
 11
1.40426855683381
 21
-25.2572043359255
 31
0.0
  0
LINE
  5
   1FB
  8
0
  6
CONTINUOUS
 62
     7
 10
1.40426855683381
 20
-29.2626627584373
 30
0.0
 11
-33.9457251608369
 21
-29.2626627584373
 31
0.0
  0
LINE
  5
   1FC
  8
0
  6
CONTINUOUS
 62
     7
 10
1.40426855683381
 20
-28.9126627942001
 30
0.0
 11
-33.9457251608369
 21
-28.9126627942001
 31
0.0
  0
LINE
  5
   1FD
  8
0
  6
CONTINUOUS
 62
     7
 10
-18.0207241177559
 20
-57.9191474859745
 30
0.0
 11
-18.0207241177559
 21
-30.2202600116648
 31
0.0
  0
LINE
  5
   1FE
  8
0
  6
CONTINUOUS
 62
     7
 10
-3.32072561979294
 20
-57.9191474859745
 30
0.0
 11
-3.32072561979294
 21
-30.2202600116648
 31
0.0
  0
LINE
  5
   1FF
  8
0
  6
CONTINUOUS
 62
     7
 10
-18.0207241177559
 20
-35.9126620789443
 30
0.0
 11
-33.9457251608369
 21
-35.9126620789443
 31
0.0
  0
LINE
  5
   200
  8
0
  6
CONTINUOUS
 62
     7
 10
1.40426855683381
 20
-35.9126620789443
 30
0.0
 11
-3.32072561979294
 21
-35.9126620789443
 31
0.0
  0
LINE
  5
   201
  8
0
  6
CONTINUOUS
 62
     7
 10
-2.3582257181406
 20
-35.5626621147071
 30
0.0
 11
-3.32072561979294
 21
-35.5626621147071
 31
0.0
  0
LINE
  5
   202
  8
0
  6
CONTINUOUS
 62
     7
 10
-18.0207241177559
 20
-35.5626621147071
 30
0.0
 11
-33.9457251608369
 21
-35.5626621147071
 31
0.0
  0
LINE
  5
   203
  8
0
  6
CONTINUOUS
 62
     7
 10
1.40426855683381
 20
-52.3030635795369
 30
0.0
 11
-3.32072561979294
 21
-52.3030635795369
 31
0.0
  0
LINE
  5
   204
  8
0
  6
CONTINUOUS
 62
     7
 10
-18.0207241177559
 20
-52.3030635795369
 30
0.0
 11
-33.9457251608369
 21
-52.3030635795369
 31
0.0
  0
LINE
  5
   205
  8
0
  6
CONTINUOUS
 62
     7
 10
-18.0207241177559
 20
-52.6530635437741
 30
0.0
 11
-33.9457251608369
 21
-52.6530635437741
 31
0.0
  0
LINE
  5
   206
  8
0
  6
CONTINUOUS
 62
     7
 10
1.40426855683381
 20
-52.6530635437741
 30
0.0
 11
-3.32072561979294
 21
-52.6530635437741
 31
0.0
  0
LINE
  5
   207
  8
0
  6
CONTINUOUS
 62
     7
 10
1.40426855683381
 20
-58.953062900044
 30
0.0
 11
-33.9457251608369
 21
-58.953062900044
 31
0.0
  0
LINE
  5
   208
  8
0
  6
CONTINUOUS
 62
     7
 10
1.40426855683381
 20
-59.3030628642812
 30
0.0
 11
-33.9457251608369
 21
-59.3030628642812
 31
0.0
  0
LINE
  5
   209
  8
0
  6
CONTINUOUS
 62
     7
 10
-3.32072561979294
 20
-30.6024289331863
 30
0.0
 11
-18.0207241177559
 21
-30.6024289331863
 31
0.0
  0
LINE
  5
   20A
  8
0
  6
CONTINUOUS
 62
     7
 10
-3.32072561979294
 20
-30.2202600116648
 30
0.0
 11
-18.0207241177559
 21
-30.2202600116648
 31
0.0
  0
LINE
  5
   20B
  8
0
  6
CONTINUOUS
 62
     7
 10
-3.32072561979294
 20
-57.9191474859745
 30
0.0
 11
-18.0207241177559
 21
-57.9191474859745
 31
0.0
  0
LINE
  5
   20C
  8
0
  6
CONTINUOUS
 62
     7
 10
-3.32072561979294
 20
-57.5369792320249
 30
0.0
 11
-18.0207241177559
 21
-57.5369792320249
 31
0.0
  0
LINE
  5
   20D
  8
0
  6
CONTINUOUS
 62
     7
 10
-21.6957250773905
 20
-30.8376625975047
 30
0.0
 11
-22.2207250237464
 21
-30.8376625975047
 31
0.0
  0
LINE
  5
   20E
  8
0
  6
CONTINUOUS
 62
     7
 10
-21.6957250773905
 20
-33.9876622756397
 30
0.0
 11
-22.2207250237464
 21
-33.9876622756397
 31
0.0
  0
LINE
  5
   20F
  8
0
  6
CONTINUOUS
 62
     7
 10
-21.6957250773905
 20
-33.9876622756397
 30
0.0
 11
-21.6957250773905
 21
-30.8376625975047
 31
0.0
  0
LINE
  5
   210
  8
0
  6
CONTINUOUS
 62
     7
 10
-22.2207250237464
 20
-33.9876622756397
 30
0.0
 11
-22.2207250237464
 21
-30.8376625975047
 31
0.0
  0
CIRCLE
  5
   211
  8
0
  6
CONTINUOUS
 62
     7
 10
-21.9582250505685
 20
-55.803063221909
 30
0.0
 40
1.13749988377094
  0
CIRCLE
  5
   212
  8
0
  6
CONTINUOUS
 62
     7
 10
-21.9582250505685
 20
-55.803063221909
 30
0.0
 40
1.66249983012676
  0
LINE
  5
   213
  8
0
  6
CONTINUOUS
 62
     7
 10
-2.35822571814061
 20
-35.5626621147071
 30
0.0
 11
-2.35822571814061
 21
-29.2626627584373
 31
0.0
  0
LINE
  5
   214
  8
0
  6
CONTINUOUS
 62
     7
 10
-18.9832240194082
 20
-35.5626621147071
 30
0.0
 11
-18.9832240194082
 21
-29.2626627584373
 31
0.0
  0
LINE
  5
   215
  8
0
  6
CONTINUOUS
 62
     7
 10
1.40426855683381
 20
-35.5626621147071
 30
0.0
 11
-2.3582257181406
 21
-35.5626621147071
 31
0.0
  0
LINE
  5
   216
  8
0
  6
CONTINUOUS
 62
     7
 10
-2.35822571814061
 20
-58.953062900044
 30
0.0
 11
-2.35822571814061
 21
-52.6530635437741
 31
0.0
  0
LINE
  5
   217
  8
0
  6
CONTINUOUS
 62
     7
 10
-18.9832240194082
 20
-58.953062900044
 30
0.0
 11
-18.9832240194082
 21
-52.6530635437741
 31
0.0
  0
INSERT
  5
   218
  8
0
  6
CONTINUOUS
 62
    18
  2
*HATCH404
 10
-10.6707248687744
 20
-65.3321762084961
 30
0.0
 41
0.349999964237213
 42
0.349999964237213
 50
89.9999999480344
  0
LINE
  5
   219
  8
0
  6
CONTINUOUS
 62
     7
 10
13.6542726457119
 20
-15.3697026759364
 30
0.0
 11
-34.9957223832607
 21
-15.3697026759364
 31
0.0
  0
LINE
  5
   21A
  8
0
  6
CONTINUOUS
 62
     7
 10
13.6542726457119
 20
-64.3696999222016
 30
0.0
 11
-34.9957223832607
 21
-64.3696999222016
 31
0.0
  0
LINE
  5
   21B
  8
0
  6
CONTINUOUS
 62
     7
 10
10.6792729496956
 20
-22.9822045683836
 30
0.0
 11
10.6792729496956
 21
-21.932204675672
 31
0.0
  0
LINE
  5
   21C
  8
0
  6
CONTINUOUS
 62
     7
 10
11.7292728424072
 20
-22.9822045683836
 30
0.0
 11
11.7292728424072
 21
-21.932204675672
 31
0.0
  0
LINE
  5
   21D
  8
0
  6
DOT
 62
     7
 10
4.97426311850654
 20
-60.7189896528912
 30
0.0
 11
4.97426311850654
 21
-57.8704113955258
 31
0.0
  0
LINE
  5
   21E
  8
0
  6
DOT
 62
     7
 10
9.38426213383787
 20
-60.7189896528912
 30
0.0
 11
9.38426213383787
 21
-57.8704113955258
 31
0.0
  0
LINE
  5
   21F
  8
0
  6
CONTINUOUS
 62
     7
 10
11.729262161256
 20
-52.7321534633661
 30
0.0
 11
10.6792622685443
 21
-52.7321534633661
 31
0.0
  0
LINE
  5
   220
  8
0
  6
CONTINUOUS
 62
     7
 10
10.5042622864257
 20
-53.7821533560777
 30
0.0
 11
10.5042622864257
 21
-52.9071534454847
 31
0.0
  0
LINE
  5
   221
  8
0
  6
CONTINUOUS
 62
     7
 10
10.5042622864257
 20
-54.4821539521241
 30
0.0
 11
10.5042622864257
 21
-53.7821533560777
 31
0.0
  0
LINE
  5
   222
  8
0
  6
CONTINUOUS
 62
     7
 10
10.5042622864257
 20
-55.1821538805986
 30
0.0
 11
10.5042622864257
 21
-54.4821539521241
 31
0.0
  0
LINE
  5
   223
  8
0
  6
CONTINUOUS
 62
     7
 10
10.5042622864257
 20
-55.882153809073
 30
0.0
 11
10.5042622864257
 21
-55.1821538805986
 31
0.0
  0
LINE
  5
   224
  8
0
  6
CONTINUOUS
 62
     7
 10
10.5042622864257
 20
-56.757153719666
 30
0.0
 11
10.5042622864257
 21
-55.882153809073
 31
0.0
  0
LINE
  5
   225
  8
0
  6
CONTINUOUS
 62
     7
 10
11.729262161256
 20
-56.9321537017846
 30
0.0
 11
10.6792622685443
 21
-56.9321537017846
 31
0.0
  0
LINE
  5
   226
  8
0
  6
CONTINUOUS
 62
     7
 10
11.9042621433746
 20
-56.757153719666
 30
0.0
 11
11.9042621433746
 21
-55.882153809073
 31
0.0
  0
LINE
  5
   227
  8
0
  6
CONTINUOUS
 62
     7
 10
11.9042621433746
 20
-55.882153809073
 30
0.0
 11
11.9042621433746
 21
-55.1821538805986
 31
0.0
  0
LINE
  5
   228
  8
0
  6
CONTINUOUS
 62
     7
 10
11.9042621433746
 20
-55.1821538805986
 30
0.0
 11
11.9042621433746
 21
-54.4821539521241
 31
0.0
  0
LINE
  5
   229
  8
0
  6
CONTINUOUS
 62
     7
 10
11.9042621433746
 20
-54.4821539521241
 30
0.0
 11
11.9042621433746
 21
-53.7821546912217
 31
0.0
  0
LINE
  5
   22A
  8
0
  6
CONTINUOUS
 62
     7
 10
11.9042621433746
 20
-53.7821546912217
 30
0.0
 11
11.9042621433746
 21
-52.9071534454847
 31
0.0
  0
ARC
  5
   22B
  8
0
  6
CONTINUOUS
 62
     7
 10
11.2042727006855
 20
-21.9322053359758
 30
0.0
 40
0.524999302322405
 50
359.999973013555
 51
540.000043615088
  0
ARC
  5
   22C
  8
0
  6
CONTINUOUS
 62
     7
 10
11.2042400065966
 20
-22.9821600923632
 30
0.0
 40
0.52505174731448
 50
180.004949696118
 51
359.995034083139
  0
ARC
  5
   22D
  8
0
  6
DOT
 62
     7
 10
7.17926336832726
 20
-59.2946991673906
 30
0.0
 40
2.62500139177998
 50
392.859977017252
 51
507.140082588953
  0
ARC
  5
   22E
  8
0
  6
DOT
 62
     7
 10
7.17926336832726
 20
-59.2946991673906
 30
0.0
 40
2.62500139177998
 50
212.859917307116
 51
327.140022878817
  0
ARC
  5
   22F
  8
0
  6
CONTINUOUS
 62
     7
 10
10.6792624101096
 20
-52.9071530358444
 30
0.0
 40
0.174999811768228
 50
449.999889462241
 51
540.000025360212
  0
ARC
  5
   230
  8
0
  6
CONTINUOUS
 62
     7
 10
11.7292630107245
 20
-52.9071527598327
 30
0.0
 40
0.174999366440514
 50
359.999829068822
 51
450.000145163477
  0
ARC
  5
   231
  8
0
  6
CONTINUOUS
 62
     7
 10
11.7292628192386
 20
-56.7571538721381
 30
0.0
 40
0.174999637680245
 50
269.999943873992
 51
360.000134042801
  0
ARC
  5
   232
  8
0
  6
CONTINUOUS
 62
     7
 10
10.6792621580202
 20
-56.7571540397025
 30
0.0
 40
0.174999639432298
 50
179.999866090912
 51
270.000166521604
  0
ARC
  5
   233
  8
0
  6
CONTINUOUS
 62
     7
 10
13.6542726457119
 20
-64.194699940083
 30
0.0
 40
0.174999982118607
 50
269.999999948034
 51
359.999999948034
  0
ARC
  5
   234
  8
0
  6
CONTINUOUS
 62
     7
 10
13.6542726457119
 20
-15.544702658055
 30
0.0
 40
0.174999982118607
 50
359.999999948034
 51
449.999999948034
  0
LINE
  5
   235
  8
0
  6
DASHDOT
 62
     7
 10
11.2042727006855
 20
-24.8197043968994
 30
0.0
 11
11.2042727006855
 21
-23.0697058637802
 31
0.0
  0
LINE
  5
   236
  8
0
  6
DASHDOT
 62
     7
 10
12.0792719672451
 20
-21.9322053359758
 30
0.0
 11
10.3292734341259
 21
-21.9322053359758
 31
0.0
  0
LINE
  5
   237
  8
0
  6
DASHDOT
 62
     7
 10
11.2042400065966
 20
-48.206602420121
 30
0.0
 11
11.2042400065966
 21
-20.0946085864475
 31
0.0
  0
LINE
  5
   238
  8
0
  6
DASHDOT
 62
     7
 10
12.0792917181483
 20
-22.9821600923632
 30
0.0
 11
10.3291882950449
 21
-22.9821600923632
 31
0.0
  0
LINE
  5
   239
  8
0
  6
DASHDOT
 62
     7
 10
7.17926336832727
 20
-62.2697005234078
 30
0.0
 11
7.17926336832727
 21
-56.3196978113734
 31
0.0
  0
LINE
  5
   23A
  8
0
  6
DASHDOT
 62
     7
 10
10.1542647243445
 20
-59.2946991673906
 30
0.0
 11
4.20426201231007
 21
-59.2946991673906
 31
0.0
  0
LINE
  5
   23B
  8
0
  6
DASHDOT
 62
     7
 10
11.6417731889991
 20
-64.0196998093393
 30
0.0
 11
11.6417731889991
 21
-60.3447003553687
 31
0.0
  0
LINE
  5
   23C
  8
0
  6
DASHDOT
 62
     7
 10
13.4792729159845
 20
-62.182200082354
 30
0.0
 11
9.8042734620138
 21
-62.182200082354
 31
0.0
  0
LINE
  5
   23D
  8
0
  6
DASHDOT
 62
     7
 10
13.2424620078177
 20
-54.8321535825754
 30
0.0
 11
9.67319000658583
 21
-54.8321535825754
 31
0.0
  0
LINE
  5
   23E
  8
0
  6
DASHDOT
 62
     7
 10
11.2042622149002
 20
-57.5860048144502
 30
0.0
 11
11.2042622149002
 21
-52.2133111704907
 31
0.0
  0
ARC
  5
   23F
  8
0
  6
CONTINUOUS
 62
     7
 10
-34.9957223832607
 20
-64.194699940083
 30
0.0
 40
0.174999982118607
 50
179.999999948034
 51
269.999999948034
  0
ARC
  5
   240
  8
0
  6
CONTINUOUS
 62
     7
 10
-34.9957223832607
 20
-15.544702658055
 30
0.0
 40
0.174999982118607
 50
89.9999999480344
 51
179.999999948034
  0
LINE
  5
   241
  8
0
  6
CONTINUOUS
 62
     7
 10
13.6542726457119
 20
-15.3697026759364
 30
0.0
 11
-34.9957223832607
 21
-15.3697026759364
 31
0.0
  0
LINE
  5
   242
  8
0
  6
CONTINUOUS
 62
     7
 10
13.6542726457119
 20
-64.3696999222016
 30
0.0
 11
-34.9957223832607
 21
-64.3696999222016
 31
0.0
  0
LINE
  5
   243
  8
0
  6
CONTINUOUS
 62
     7
 10
13.5667726546526
 20
-19.569702246783
 30
0.0
 11
-34.9082223922014
 21
-19.569702246783
 31
0.0
  0
LINE
  5
   244
  8
0
  6
CONTINUOUS
 62
     7
 10
13.5667726546526
 20
-16.0697026044109
 30
0.0
 11
-34.9082223922014
 21
-16.0697026044109
 31
0.0
  0
LINE
  5
   245
  8
0
  6
CONTINUOUS
 62
     7
 10
-35.1707223653793
 20
-64.194699940083
 30
0.0
 11
-35.1707223653793
 21
-15.544702658055
 31
0.0
  0
LINE
  5
   246
  8
0
  6
CONTINUOUS
 62
     7
 10
13.8292726278305
 20
-64.194699940083
 30
0.0
 11
13.8292726278305
 21
-15.544702658055
 31
0.0
  0
LINE
  5
   247
  8
0
  6
CONTINUOUS
 62
     7
 10
1.0542685925966
 20
-20.6197048097824
 30
0.0
 11
-33.5957251965997
 21
-20.6197048097824
 31
0.0
  0
LINE
  5
   248
  8
0
  6
CONTINUOUS
 62
     7
 10
1.22926857471521
 20
-63.1447006314968
 30
0.0
 11
-33.5957251965997
 21
-63.1447006314968
 31
0.0
  0
LINE
  5
   249
  8
0
  6
CONTINUOUS
 62
     7
 10
-33.9457251608369
 20
-62.7947006672596
 30
0.0
 11
-33.9457251608369
 21
-20.9697047740196
 31
0.0
  0
LINE
  5
   24A
  8
0
  6
CONTINUOUS
 62
     7
 10
1.40426855683381
 20
-62.9697006493782
 30
0.0
 11
1.40426855683381
 21
-20.9697047740196
 31
0.0
  0
LINE
  5
   24B
  8
0
  6
CONTINUOUS
 62
     7
 10
11.729275512695
 20
-37.8572030484652
 30
0.0
 11
11.729275512695
 21
-37.1572298228689
 31
0.0
  0
LINE
  5
   24C
  8
0
  6
CONTINUOUS
 62
     7
 10
11.7292781829829
 20
-39.7822028517699
 30
0.0
 11
11.7292781829829
 21
-39.0822029232954
 31
0.0
  0
LINE
  5
   24D
  8
0
  6
CONTINUOUS
 62
     7
 10
10.6792676097413
 20
-44.5947036949363
 30
0.0
 11
10.679272950317
 21
-43.8947024313211
 31
0.0
  0
LINE
  5
   24E
  8
0
  6
CONTINUOUS
 62
     7
 10
10.6792553702986
 20
-44.5947036951605
 30
0.0
 11
10.6792553702986
 21
-35.1447059958997
 31
0.0
  0
LINE
  5
   24F
  8
0
  6
CONTINUOUS
 62
     7
 10
11.7292861938463
 20
-44.5947036951754
 30
0.0
 11
10.6792729496956
 21
-44.5947036951754
 31
0.0
  0
LINE
  5
   250
  8
0
  6
CONTINUOUS
 62
     7
 10
11.7292861938606
 20
-44.5947036898846
 30
0.0
 11
11.7292755127089
 21
-35.1447300237739
 31
0.0
  0
LINE
  5
   251
  8
0
  6
CONTINUOUS
 62
     7
 10
11.7292755245246
 20
-35.1447300205978
 30
0.0
 11
10.6792809723615
 21
-35.1447059880075
 31
0.0
  0
LINE
  5
   252
  8
0
  6
CONTINUOUS
 62
     7
 10
-18.0207241177559
 20
-57.5369792320249
 30
0.0
 11
-18.0207241177559
 21
-30.6024296007582
 31
0.0
  0
LINE
  5
   253
  8
0
  6
CONTINUOUS
 62
     7
 10
-3.32072561979294
 20
-57.5369792320249
 30
0.0
 11
-3.32072561979294
 21
-30.6024296007582
 31
0.0
  0
LINE
  5
   254
  8
0
  6
CONTINUOUS
 62
     7
 10
-3.32072561979294
 20
-57.5369792320249
 30
0.0
 11
-18.0207241177559
 21
-57.5369792320249
 31
0.0
  0
LINE
  5
   255
  8
0
  6
CONTINUOUS
 62
     7
 10
-3.32072561979294
 20
-57.2822003960586
 30
0.0
 11
-18.0207241177559
 21
-57.2822003960586
 31
0.0
  0
LINE
  5
   256
  8
0
  6
CONTINUOUS
 62
     7
 10
-3.32072561979294
 20
-30.8572064340087
 30
0.0
 11
-18.0207241177559
 21
-30.8572064340087
 31
0.0
  0
LINE
  5
   257
  8
0
  6
CONTINUOUS
 62
     7
 10
-3.32072561979294
 20
-30.6024289331863
 30
0.0
 11
-18.0207241177559
 21
-30.6024289331863
 31
0.0
  0
CIRCLE
  5
   258
  8
0
  6
CONTINUOUS
 62
     7
 10
11.6417683562204
 20
-62.1822002016833
 30
0.0
 40
0.910002492644921
  0
CIRCLE
  5
   259
  8
0
  6
CONTINUOUS
 62
     7
 10
11.6417678364491
 20
-62.1822009406067
 30
0.0
 40
1.48750398503051
  0
LINE
  5
   25A
  8
0
  6
CONTINUOUS
 62
     7
 10
13.5667726546526
 20
-63.9321999669051
 30
0.0
 11
13.5667726546526
 21
-15.8072026312329
 31
0.0
  0
LINE
  5
   25B
  8
0
  6
CONTINUOUS
 62
     7
 10
13.391772672534
 20
-64.1071999490237
 30
0.0
 11
-34.7332224100828
 21
-64.1071999490237
 31
0.0
  0
LINE
  5
   25C
  8
0
  6
CONTINUOUS
 62
     7
 10
-34.9082223922014
 20
-63.9321999669051
 30
0.0
 11
-34.9082223922014
 21
-15.8072026312329
 31
0.0
  0
LINE
  5
   25D
  8
0
  6
CONTINUOUS
 62
     7
 10
13.391772672534
 20
-15.6322026491143
 30
0.0
 11
-34.7332224100828
 21
-15.6322026491143
 31
0.0
  0
ARC
  5
   25E
  8
0
  6
CONTINUOUS
 62
     7
 10
-34.7332224100828
 20
-15.8072026312329
 30
0.0
 40
0.174999982118607
 50
89.9999999480344
 51
179.999999948034
  0
ARC
  5
   25F
  8
0
  6
CONTINUOUS
 62
     7
 10
13.391772672534
 20
-15.8072026312329
 30
0.0
 40
0.174999982118607
 50
359.999999948034
 51
449.999999948034
  0
ARC
  5
   260
  8
0
  6
CONTINUOUS
 62
     7
 10
13.391772672534
 20
-63.9321999669051
 30
0.0
 40
0.174999982118607
 50
269.999999948034
 51
359.999999948034
  0
ARC
  5
   261
  8
0
  6
CONTINUOUS
 62
     7
 10
-34.7332224100828
 20
-63.9321999669051
 30
0.0
 40
0.174999982118607
 50
179.999999948034
 51
269.999999948034
  0
ARC
  5
   262
  8
0
  6
CONTINUOUS
 62
     7
 10
-33.5957251965997
 20
-62.7947006672596
 30
0.0
 40
0.349999964237213
 50
179.999999948034
 51
269.999999948034
  0
ARC
  5
   263
  8
0
  6
CONTINUOUS
 62
     7
 10
-33.5957251965997
 20
-20.9697047740196
 30
0.0
 40
0.349999964237213
 50
89.9999999480344
 51
179.999999948034
  0
ARC
  5
   264
  8
0
  6
CONTINUOUS
 62
     7
 10
1.0542685925966
 20
-20.9697047740196
 30
0.0
 40
0.349999964237213
 50
359.999999948034
 51
449.999999948034
  0
LINE
  5
   265
  8
0
  6
CONTINUOUS
 62
     7
 10
1.23143857449348
 20
-63.3218706133937
 30
0.0
 11
-33.7728951784966
 21
-63.3218706133937
 31
0.0
  0
LINE
  5
   266
  8
0
  6
CONTINUOUS
 62
     7
 10
-34.1228951427338
 20
-62.9718706491565
 30
0.0
 11
-34.1228951427338
 21
-20.7925347921228
 31
0.0
  0
LINE
  5
   267
  8
0
  6
CONTINUOUS
 62
     7
 10
1.58143853873069
 20
-62.9718706491565
 30
0.0
 11
1.58143853873069
 21
-20.7925347921228
 31
0.0
  0
LINE
  5
   268
  8
0
  6
CONTINUOUS
 62
     7
 10
1.23143857449348
 20
-20.4425348278856
 30
0.0
 11
-33.7728951784966
 21
-20.4425348278856
 31
0.0
  0
ARC
  5
   269
  8
0
  6
CONTINUOUS
 62
     7
 10
1.23143857449348
 20
-20.7925347921228
 30
0.0
 40
0.349999964237213
 50
359.999999948034
 51
449.999999948034
  0
ARC
  5
   26A
  8
0
  6
CONTINUOUS
 62
     7
 10
1.23143857449348
 20
-62.9718706491565
 30
0.0
 40
0.349999964237213
 50
269.999999948034
 51
359.999999948034
  0
ARC
  5
   26B
  8
0
  6
CONTINUOUS
 62
     7
 10
-33.7728951784966
 20
-62.9718706491565
 30
0.0
 40
0.349999964237213
 50
179.999999948034
 51
269.999999948034
  0
ARC
  5
   26C
  8
0
  6
CONTINUOUS
 62
     7
 10
-33.7728951784966
 20
-20.7925347921228
 30
0.0
 40
0.349999964237213
 50
89.9999999480344
 51
179.999999948034
  0
LINE
  5
   26D
  8
0
  6
CONTINUOUS
 62
     7
 10
1.0542685925966
 20
-61.5612878982367
 30
0.0
 11
1.0542685925966
 21
-28.7692600122491
 31
0.0
  0
LINE
  5
   26E
  8
0
  6
DASHDOT
 62
     7
 10
9.8042734620138
 20
-62.182200082354
 30
0.0
 11
2.06236289895605
 21
-62.182200082354
 31
0.0
  0
LINE
  5
   26F
  8
0
  6
CONTINUOUS
 62
     7
 10
11.6242677795892
 20
-53.6071533739591
 30
0.0
 11
11.6242677795892
 21
-52.9071534454847
 31
0.0
  0
LINE
  5
   270
  8
0
  6
CONTINUOUS
 62
     7
 10
11.9042621433746
 20
-52.9071534454847
 30
0.0
 11
11.6242677795892
 21
-52.9071534454847
 31
0.0
  0
LINE
  5
   271
  8
0
  6
CONTINUOUS
 62
     7
 10
11.9042621433746
 20
-53.6071533739591
 30
0.0
 11
11.6242677795892
 21
-53.6071533739591
 31
0.0
  0
LINE
  5
   272
  8
0
  6
CONTINUOUS
 62
     7
 10
10.7842633259306
 20
-56.757153719666
 30
0.0
 11
10.7842633259306
 21
-56.0571537911916
 31
0.0
  0
LINE
  5
   273
  8
0
  6
CONTINUOUS
 62
     7
 10
10.7842633259306
 20
-56.757153719666
 30
0.0
 11
10.5042636215696
 21
-56.757153719666
 31
0.0
  0
LINE
  5
   274
  8
0
  6
CONTINUOUS
 62
     7
 10
10.7842633259306
 20
-56.0571537911916
 30
0.0
 11
10.5042636215696
 21
-56.0571537911916
 31
0.0
  0
ARC
  5
   275
  8
0
  6
CONTINUOUS
 62
     7
 10
1.22926857471521
 20
-62.9697006493782
 30
0.0
 40
0.174999982118607
 50
269.999999948034
 51
359.999999948034
  0
INSERT
  5
   276
  8
0
  6
CONTINUOUS
 62
     7
  2
*HATCH405
 10
-10.6707248687744
 20
-65.3321762084961
 30
0.0
 41
0.349999964237213
 42
0.349999964237213
 50
89.9999999480344
  0
LINE
  5
   277
  8
0
  6
DASHDOT
 62
     2
 10
-10.6707248687744
 20
-93.4939663510856
 30
0.0
 11
-10.6707248687744
 21
-66.5379292407772
 31
0.0
  0
LINE
  5
   278
  8
0
  6
CONTINUOUS
 62
     1
 10
-71.0456973373912
 20
0.905295661096048
 30
0.0
 11
-71.8332108288568
 21
0.905295661096048
 31
0.0
  0
LINE
  5
   279
  8
0
  6
CONTINUOUS
 62
     1
 10
-71.0456973373912
 20
0.905295661096048
 30
0.0
 11
-71.0456973373912
 21
1.60529558957047
 31
0.0
  0
LINE
  5
   27A
  8
0
  6
CONTINUOUS
 62
     1
 10
-23.7082394864365
 20
1.95530089438125
 30
0.0
 11
-46.6332371439739
 21
1.95530089438125
 31
0.0
  0
LINE
  5
   27B
  8
0
  6
CONTINUOUS
 62
     1
 10
-31.1454994409045
 20
-0.669704177971411
 30
0.0
 11
-33.0634430415916
 21
-0.669704177971411
 31
0.0
  0
LINE
  5
   27C
  8
0
  6
CONTINUOUS
 62
     1
 10
-31.1454994409045
 20
-4.86970374881797
 30
0.0
 11
-33.0634430415916
 21
-4.86970374881797
 31
0.0
  0
LINE
  5
   27D
  8
0
  6
CONTINUOUS
 62
     1
 10
-37.277983151183
 20
-4.8697038986109
 30
0.0
 11
-39.195549005876
 21
-4.86969736627869
 31
0.0
  0
LINE
  5
   27E
  8
0
  6
CONTINUOUS
 62
     1
 10
-39.1955490017242
 20
-0.669710560062484
 30
0.0
 11
-37.2779804600766
 21
-0.669704027700192
 31
0.0
  0
LINE
  5
   27F
  8
0
  6
CONTINUOUS
 62
     1
 10
0.791763350744073
 20
1.95529555380563
 30
0.0
 11
-22.133239647369
 21
1.95529555380563
 31
0.0
  0
LINE
  5
   280
  8
0
  6
CONTINUOUS
 62
     1
 10
-12.7780025236323
 20
-0.669704177971411
 30
0.0
 11
-14.6955905752814
 21
-0.669704177971411
 31
0.0
  0
LINE
  5
   281
  8
0
  6
CONTINUOUS
 62
     1
 10
-12.7783779841642
 20
-4.86970374881797
 30
0.0
 11
-14.6955905752814
 21
-4.86970374881797
 31
0.0
  0
LINE
  5
   282
  8
0
  6
CONTINUOUS
 62
     1
 10
-8.56344672721018
 20
-4.86970725097728
 30
0.0
 11
-6.64567766762594
 21
-4.86970071793191
 31
0.0
  0
LINE
  5
   283
  8
0
  6
CONTINUOUS
 62
     1
 10
-6.64567766809195
 20
-0.669707208097961
 30
0.0
 11
-8.56344674519683
 21
-0.669700675052525
 31
0.0
  0
LINE
  5
   284
  8
0
  6
CONTINUOUS
 62
     1
 10
25.9042500317118
 20
0.905295661096048
 30
0.0
 11
25.2042501032374
 21
0.905295661096048
 31
0.0
  0
LINE
  5
   285
  8
0
  6
CONTINUOUS
 62
     1
 10
25.904271394014
 20
-6.61970373973499
 30
0.0
 11
25.904271394014
 21
0.905295597965747
 31
0.0
  0
LINE
  5
   286
  8
0
  6
CONTINUOUS
 62
     1
 10
25.2042501032374
 20
0.905295661096034
 30
0.0
 11
25.2042501032374
 21
1.60529558957046
 31
0.0
  0
LINE
  5
   287
  8
0
  6
CONTINUOUS
 62
     1
 10
24.8542671355821
 20
1.95530089438125
 30
0.0
 11
2.36676318981153
 21
1.95530089438125
 31
0.0
  0
LINE
  5
   288
  8
0
  6
CONTINUOUS
 62
     1
 10
11.7219882972531
 20
-0.669704177971411
 30
0.0
 11
9.80419112774028
 21
-0.669704177971411
 31
0.0
  0
LINE
  5
   289
  8
0
  6
CONTINUOUS
 62
     1
 10
11.7219882972531
 20
-4.86970374881797
 30
0.0
 11
9.80419112774028
 21
-4.86970374881797
 31
0.0
  0
LINE
  5
   28A
  8
0
  6
CONTINUOUS
 62
     1
 10
15.9365337465275
 20
-4.86970389860976
 30
0.0
 11
17.8543179967544
 21
-4.86969736553358
 31
0.0
  0
LINE
  5
   28B
  8
0
  6
CONTINUOUS
 62
     1
 10
17.8543340162379
 20
-0.669710560550897
 30
0.0
 11
15.9365310568228
 21
-0.669704027410972
 31
0.0
  0
CIRCLE
  5
   28C
  8
0
  6
CONTINUOUS
 62
     1
 10
-22.9207274858868
 20
-3.46962874019002
 30
0.0
 40
1.83749981224537
  0
CIRCLE
  5
   28D
  8
0
  6
CONTINUOUS
 62
     1
 10
1.57919098044879
 20
-3.46966928826925
 30
0.0
 40
1.83749981224537
  0
LINE
  5
   28E
  8
0
  6
DASHDOT
 62
     7
 10
-12.1755097861458
 20
-2.7697004896824
 30
0.0
 11
-17.215671030631
 21
-2.7697004896824
 31
0.0
  0
LINE
  5
   28F
  8
0
  6
DASHDOT
 62
     7
 10
-14.6955905752814
 20
-5.28978094503201
 30
0.0
 11
-14.6955905752814
 21
-0.249620034332821
 31
0.0
  0
ARC
  5
   290
  8
0
  6
CONTINUOUS
 62
     1
 10
-14.6955905752814
 20
-2.7697004896824
 30
0.0
 40
2.10006671233868
 50
90.0036557603355
 51
269.996301839899
  0
LINE
  5
   291
  8
0
  6
DASHDOT
 62
     7
 10
-7.10059740257628
 20
-2.76984576496349
 30
0.0
 11
-14.2409291617521
 21
-2.76984576496349
 31
0.0
  0
ARC
  5
   292
  8
0
  6
CONTINUOUS
 62
     1
 10
-10.670763282154
 20
-2.76984576496348
 30
0.0
 40
2.97513823298993
 50
224.89430374687
 51
250.23475119626
  0
LINE
  5
   293
  8
0
  6
DASHDOT
 62
     7
 10
-4.12574533917838
 20
-2.76964643130291
 30
0.0
 11
-9.16562497021379
 21
-2.76964643130291
 31
0.0
  0
LINE
  5
   294
  8
0
  6
DASHDOT
 62
     7
 10
-6.64568482090707
 20
-5.2895877788923
 30
0.0
 11
-6.64568482090707
 21
-0.249708815428846
 31
0.0
  0
ARC
  5
   295
  8
0
  6
CONTINUOUS
 62
     1
 10
-6.64568482091011
 20
-2.76964643130292
 30
0.0
 40
2.0999492343238
 50
269.999007927624
 51
450.00105270767
  0
LINE
  5
   296
  8
0
  6
DASHDOT
 62
     7
 10
12.3240878298852
 20
-2.76968358337556
 30
0.0
 11
7.28427306329283
 21
-2.76968358337556
 31
0.0
  0
LINE
  5
   297
  8
0
  6
DASHDOT
 62
     7
 10
9.80419112774028
 20
-5.28959630724739
 30
0.0
 11
9.80419112774028
 21
-0.249770859503755
 31
0.0
  0
ARC
  5
   298
  8
0
  6
CONTINUOUS
 62
     1
 10
9.80419112774028
 20
-2.76968358337556
 30
0.0
 40
2.09992660232123
 50
449.999999948034
 51
630.002376467854
  0
LINE
  5
   299
  8
0
  6
DASHDOT
 62
     7
 10
17.399299126048
 20
-2.76973348099497
 30
0.0
 11
10.25924113988
 21
-2.76973348099497
 31
0.0
  0
ARC
  5
   29A
  8
0
  6
CONTINUOUS
 62
     1
 10
13.8292754735396
 20
-2.76973348099497
 30
0.0
 40
2.97502416090334
 50
404.901045292561
 51
495.098630845462
  0
LINE
  5
   29B
  8
0
  6
DASHDOT
 62
     7
 10
20.3743194433945
 20
-2.76971442459876
 30
0.0
 11
15.3343129229482
 21
-2.76971442459876
 31
0.0
  0
LINE
  5
   29C
  8
0
  6
DASHDOT
 62
     7
 10
17.8543161831713
 20
-5.28972302539754
 30
0.0
 11
17.8543161831713
 21
-0.249705823799985
 31
0.0
  0
ARC
  5
   29D
  8
0
  6
CONTINUOUS
 62
     1
 10
17.8543161831713
 20
-2.76971442459875
 30
0.0
 40
2.10000649976036
 50
269.998338346111
 51
450.001473300288
  0
LINE
  5
   29E
  8
0
  6
DASHDOT
 62
     7
 10
24.6022420359756
 20
0.555304888531694
 30
0.0
 11
23.0062628592376
 21
0.555304888531694
 31
0.0
  0
LINE
  5
   29F
  8
0
  6
DASHDOT
 62
     7
 10
23.8042551178944
 20
-0.242682029549485
 30
0.0
 11
23.8042551178944
 21
1.35329180661284
 31
0.0
  0
CIRCLE
  5
   2A0
  8
0
  6
CONTINUOUS
 62
     1
 10
23.8042551178944
 20
0.555304888531694
 30
0.0
 40
0.664989098400968
  0
CIRCLE
  5
   2A1
  8
0
  6
CONTINUOUS
 62
     1
 10
23.8042760916514
 20
0.555301241479498
 30
0.0
 40
0.490019746478501
  0
ARC
  5
   2A2
  8
0
  6
CONTINUOUS
 62
     1
 10
24.8542528867651
 20
1.60528759487572
 30
0.0
 40
0.349999693004806
 50
360.000054589548
 51
449.999945306521
  0
CIRCLE
  5
   2A3
  8
0
  6
CONTINUOUS
 62
     1
 10
-69.6457439370137
 20
0.555298875996471
 30
0.0
 40
0.489980557351486
  0
LINE
  5
   2A4
  8
0
  6
DASHDOT
 62
     7
 10
-68.8477565433115
 20
0.555368493519893
 30
0.0
 11
-70.4436440890981
 21
0.555368493519893
 31
0.0
  0
LINE
  5
   2A5
  8
0
  6
DASHDOT
 62
     7
 10
-69.6457003162048
 20
-0.242569938797757
 30
0.0
 11
-69.6457003162048
 21
1.35330692583757
 31
0.0
  0
CIRCLE
  5
   2A6
  8
0
  6
CONTINUOUS
 62
     1
 10
-69.6457003162048
 20
0.555368493519893
 30
0.0
 40
0.664948693598051
  0
ARC
  5
   2A7
  8
0
  6
CONTINUOUS
 62
     1
 10
-70.6956985011879
 20
1.60529382271274
 30
0.0
 40
0.349995972226149
 50
90.0005173512766
 51
180.001122723422
  0
LINE
  5
   2A8
  8
0
  6
DASHDOT
 62
     7
 10
-39.1955311678772
 20
-5.28982587248407
 30
0.0
 11
-39.1955311678772
 21
-0.249550607057401
 31
0.0
  0
ARC
  5
   2A9
  8
0
  6
CONTINUOUS
 62
     1
 10
-39.1955311678772
 20
-2.76968823977072
 30
0.0
 40
2.10011469392778
 50
90.0052836333811
 51
269.995265213079
  0
LINE
  5
   2AA
  8
0
  6
DASHDOT
 62
     7
 10
-31.600645590387
 20
-2.76964319984602
 30
0.0
 11
-38.7407936875028
 21
-2.76964319984602
 31
0.0
  0
ARC
  5
   2AB
  8
0
  6
CONTINUOUS
 62
     1
 10
-35.1707062875059
 20
-2.76964319984602
 30
0.0
 40
2.97505948189176
 50
224.901380849089
 51
250.250514031933
  0
LINE
  5
   2AC
  8
0
  6
DASHDOT
 62
     7
 10
-31.1454994409045
 20
-5.28951503688288
 30
0.0
 11
-31.1454994409045
 21
-0.249861079621823
 31
0.0
  0
ARC
  5
   2AD
  8
0
  6
CONTINUOUS
 62
     1
 10
-31.1454994409045
 20
-2.76968805825235
 30
0.0
 40
2.09985581552544
 50
269.999999948034
 51
449.999945306521
  0
ARC
  5
   2AE
  8
0
  6
CONTINUOUS
 62
     1
 10
-35.1707062875059
 20
-2.76964319984602
 30
0.0
 40
2.97505948189176
 50
404.897963373026
 51
495.101923170488
  0
ARC
  5
   2AF
  8
0
  6
CONTINUOUS
 62
     1
 10
-10.670763282154
 20
-2.76984576496348
 30
0.0
 40
2.97513823298993
 50
404.902109287098
 51
495.097767281763
  0
ARC
  5
   2B0
  8
0
  6
CONTINUOUS
 62
     1
 10
13.8292754735396
 20
-2.76973348099497
 30
0.0
 40
2.97502416090334
 50
224.899545375473
 51
250.247263446597
  0
LINE
  5
   2B1
  8
0
  6
CONTINUOUS
 62
     7
 10
25.2042687952507
 20
-6.4446948890111
 30
0.0
 11
15.9292750835416
 21
-6.4446948890111
 31
0.0
  0
LINE
  5
   2B2
  8
0
  6
CONTINUOUS
 62
     1
 10
25.2042634546765
 20
-6.6197035699989
 30
0.0
 11
25.2042634546765
 21
1.60528759487572
 31
0.0
  0
LINE
  5
   2B3
  8
0
  6
CONTINUOUS
 62
     7
 10
-46.4706887858288
 20
-6.61968619044499
 30
0.0
 11
-46.4706887858288
 21
-6.4446982473098
 31
0.0
  0
LINE
  5
   2B4
  8
0
  6
CONTINUOUS
 62
     1
 10
25.9917791754443
 20
-23.5072020141805
 30
0.0
 11
25.9917791754443
 21
-6.61970373973499
 31
0.0
  0
LINE
  5
   2B5
  8
0
  6
CONTINUOUS
 62
     1
 10
25.9917791754443
 20
-90.8646953986587
 30
0.0
 11
25.9917791754443
 21
-60.2571875779367
 31
0.0
  0
LINE
  5
   2B6
  8
0
  6
CONTINUOUS
 62
     1
 10
-71.8332108288568
 20
-90.8646953986587
 30
0.0
 11
-71.8332108288568
 21
-60.2572089402392
 31
0.0
  0
LINE
  5
   2B7
  8
0
  6
CONTINUOUS
 62
     1
 10
-71.8332108288568
 20
-23.507223376483
 30
0.0
 11
-71.8332108288568
 21
0.905295661096048
 31
0.0
  0
LINE
  5
   2B8
  8
0
  6
CONTINUOUS
 62
     1
 10
25.9917791754443
 20
-6.61970373973499
 30
0.0
 11
15.9292750835416
 21
-6.61970373973499
 31
0.0
  0
LINE
  5
   2B9
  8
0
  6
CONTINUOUS
 62
     1
 10
25.6417792112071
 20
-68.2196974454845
 30
0.0
 11
15.9292750835416
 21
-68.2196974454845
 31
0.0
  0
LINE
  5
   2BA
  8
0
  6
CONTINUOUS
 62
     1
 10
-71.8332108288568
 20
-60.2572035996635
 30
0.0
 11
-71.8332108288568
 21
-23.5072073547561
 31
0.0
  0
LINE
  5
   2BB
  8
0
  6
CONTINUOUS
 62
     1
 10
25.9917791754443
 20
-60.2572035996635
 30
0.0
 11
25.9917791754443
 21
-23.5072073547561
 31
0.0
  0
LINE
  5
   2BC
  8
0
  6
CONTINUOUS
 62
     1
 10
25.9917791754443
 20
-60.2572035996635
 30
0.0
 11
15.9292750835416
 21
-60.2572035996635
 31
0.0
  0
LINE
  5
   2BD
  8
0
  6
CONTINUOUS
 62
     1
 10
25.8167791933257
 20
-23.5072073547561
 30
0.0
 11
15.9292750835416
 21
-23.5072073547561
 31
0.0
  0
LINE
  5
   2BE
  8
0
  6
CONTINUOUS
 62
     1
 10
25.9917791754443
 20
-67.8696975021089
 30
0.0
 11
15.9292750835416
 21
-67.8696975021089
 31
0.0
  0
LINE
  5
   2BF
  8
0
  6
CONTINUOUS
 62
     1
 10
-71.4832108854812
 20
-68.2196974454845
 30
0.0
 11
-71.4832108854812
 21
-67.8696975021089
 31
0.0
  0
LINE
  5
   2C0
  8
0
  6
CONTINUOUS
 62
     1
 10
25.6417792112071
 20
-68.2196974454845
 30
0.0
 11
25.6417792112071
 21
-67.8696975021089
 31
0.0
  0
LINE
  5
   2C1
  8
0
  6
CONTINUOUS
 62
     1
 10
24.5217750531875
 20
-23.5072073547561
 30
0.0
 11
24.5217750531875
 21
-6.61970373973499
 31
0.0
  0
LINE
  5
   2C2
  8
0
  6
CONTINUOUS
 62
     1
 10
25.3267760390482
 20
-23.5072073547561
 30
0.0
 11
25.3267760390482
 21
-6.61970373973499
 31
0.0
  0
LINE
  5
   2C3
  8
0
  6
CONTINUOUS
 62
     1
 10
19.4817777044019
 20
-23.5072073547561
 30
0.0
 11
19.4817777044019
 21
-6.61970373973499
 31
0.0
  0
LINE
  5
   2C4
  8
0
  6
CONTINUOUS
 62
     1
 10
20.7417743713105
 20
-23.5072073547561
 30
0.0
 11
20.7417743713105
 21
-6.61970373973499
 31
0.0
  0
LINE
  5
   2C5
  8
0
  6
CONTINUOUS
 62
     1
 10
22.0017763787947
 20
-23.5072073547561
 30
0.0
 11
22.0017763787947
 21
-6.61970373973499
 31
0.0
  0
LINE
  5
   2C6
  8
0
  6
CONTINUOUS
 62
     1
 10
23.2617783862789
 20
-23.5072073547561
 30
0.0
 11
23.2617783862789
 21
-6.61970373973499
 31
0.0
  0
LINE
  5
   2C7
  8
0
  6
CONTINUOUS
 62
     1
 10
16.9617790300091
 20
-23.5072073547561
 30
0.0
 11
16.9617790300091
 21
-6.61970373973499
 31
0.0
  0
LINE
  5
   2C8
  8
0
  6
CONTINUOUS
 62
     1
 10
18.2217756969177
 20
-23.5072073547561
 30
0.0
 11
18.2217756969177
 21
-6.61970373973499
 31
0.0
  0
LINE
  5
   2C9
  8
0
  6
CONTINUOUS
 62
     1
 10
20.7417743713105
 20
-60.2572035996635
 30
0.0
 11
20.7417743713105
 21
-23.5072073547561
 31
0.0
  0
LINE
  5
   2CA
  8
0
  6
CONTINUOUS
 62
     1
 10
23.2617783862789
 20
-60.2572035996635
 30
0.0
 11
23.2617783862789
 21
-23.5072073547561
 31
0.0
  0
LINE
  5
   2CB
  8
0
  6
CONTINUOUS
 62
     1
 10
22.0017763787947
 20
-60.2572035996635
 30
0.0
 11
22.0017763787947
 21
-23.5072073547561
 31
0.0
  0
LINE
  5
   2CC
  8
0
  6
CONTINUOUS
 62
     1
 10
18.2217756969177
 20
-60.2572035996635
 30
0.0
 11
18.2217756969177
 21
-23.5072073547561
 31
0.0
  0
LINE
  5
   2CD
  8
0
  6
CONTINUOUS
 62
     1
 10
16.9617790300091
 20
-60.2572035996635
 30
0.0
 11
16.9617790300091
 21
-23.5072073547561
 31
0.0
  0
LINE
  5
   2CE
  8
0
  6
CONTINUOUS
 62
     1
 10
24.5217750531875
 20
-60.2572035996635
 30
0.0
 11
24.5217750531875
 21
-23.5072073547561
 31
0.0
  0
LINE
  5
   2CF
  8
0
  6
CONTINUOUS
 62
     1
 10
25.3267760390482
 20
-60.2572035996635
 30
0.0
 11
25.3267760390482
 21
-23.5072073547561
 31
0.0
  0
LINE
  5
   2D0
  8
0
  6
CONTINUOUS
 62
     1
 10
24.5217750531875
 20
-67.8696975021089
 30
0.0
 11
24.5217750531875
 21
-60.2572036205251
 31
0.0
  0
LINE
  5
   2D1
  8
0
  6
CONTINUOUS
 62
     1
 10
25.3267760390482
 20
-67.8696975021089
 30
0.0
 11
25.3267760390482
 21
-60.2572036205252
 31
0.0
  0
LINE
  5
   2D2
  8
0
  6
CONTINUOUS
 62
     1
 10
19.4817777044019
 20
-67.8696975021089
 30
0.0
 11
19.4817777044019
 21
-23.5072073547561
 31
0.0
  0
LINE
  5
   2D3
  8
0
  6
CONTINUOUS
 62
     1
 10
20.7417743713105
 20
-67.8696975021089
 30
0.0
 11
20.7417743713105
 21
-60.2572036205251
 31
0.0
  0
LINE
  5
   2D4
  8
0
  6
CONTINUOUS
 62
     1
 10
22.0017763787947
 20
-67.8696975021089
 30
0.0
 11
22.0017763787947
 21
-60.2572036205251
 31
0.0
  0
LINE
  5
   2D5
  8
0
  6
CONTINUOUS
 62
     1
 10
23.2617783862789
 20
-67.8696975021089
 30
0.0
 11
23.2617783862789
 21
-60.2572036205251
 31
0.0
  0
LINE
  5
   2D6
  8
0
  6
CONTINUOUS
 62
     1
 10
16.9617790300091
 20
-67.8696975021089
 30
0.0
 11
16.9617790300091
 21
-60.2572036205251
 31
0.0
  0
LINE
  5
   2D7
  8
0
  6
CONTINUOUS
 62
     1
 10
18.2217756969177
 20
-67.8696975021089
 30
0.0
 11
18.2217756969177
 21
-60.2572036205251
 31
0.0
  0
LINE
  5
   2D8
  8
0
  6
CONTINUOUS
 62
     1
 10
-70.3632110458177
 20
-23.5072073547561
 30
0.0
 11
-70.3632110458177
 21
-6.61970373973499
 31
0.0
  0
LINE
  5
   2D9
  8
0
  6
CONTINUOUS
 62
     1
 10
-71.1682110303205
 20
-23.5072073547561
 30
0.0
 11
-71.1682110303205
 21
0.905295661096048
 31
0.0
  0
LINE
  5
   2DA
  8
0
  6
CONTINUOUS
 62
     1
 10
-65.32321469839
 20
-23.5072073547561
 30
0.0
 11
-65.32321469839
 21
-6.61970373973499
 31
0.0
  0
LINE
  5
   2DB
  8
0
  6
CONTINUOUS
 62
     1
 10
-66.5832113652986
 20
-23.5072073547561
 30
0.0
 11
-66.5832113652986
 21
-6.61970373973499
 31
0.0
  0
LINE
  5
   2DC
  8
0
  6
CONTINUOUS
 62
     1
 10
-67.8432113700669
 20
-23.5072073547561
 30
0.0
 11
-67.8432113700669
 21
-6.61970373973499
 31
0.0
  0
LINE
  5
   2DD
  8
0
  6
CONTINUOUS
 62
     1
 10
-69.1032113748353
 20
-23.5072073547561
 30
0.0
 11
-69.1032113748353
 21
-6.61970373973499
 31
0.0
  0
LINE
  5
   2DE
  8
0
  6
CONTINUOUS
 62
     1
 10
-60.2832120090287
 20
-23.5072073547561
 30
0.0
 11
-60.2832120090287
 21
-6.61970373973499
 31
0.0
  0
LINE
  5
   2DF
  8
0
  6
CONTINUOUS
 62
     1
 10
-61.543214016513
 20
-23.5072073547561
 30
0.0
 11
-61.543214016513
 21
-6.61970373973499
 31
0.0
  0
LINE
  5
   2E0
  8
0
  6
CONTINUOUS
 62
     1
 10
-62.8032160239972
 20
-23.5072073547561
 30
0.0
 11
-62.8032160239972
 21
-6.61970373973499
 31
0.0
  0
LINE
  5
   2E1
  8
0
  6
CONTINUOUS
 62
     1
 10
-64.0632126909058
 20
-23.5072073547561
 30
0.0
 11
-64.0632126909058
 21
-6.61970373973499
 31
0.0
  0
LINE
  5
   2E2
  8
0
  6
CONTINUOUS
 62
     1
 10
-66.5832116990846
 20
-60.2572035996635
 30
0.0
 11
-66.5832116990846
 21
-23.5072073547561
 31
0.0
  0
LINE
  5
   2E3
  8
0
  6
CONTINUOUS
 62
     1
 10
-65.32321469839
 20
-60.2572035996635
 30
0.0
 11
-65.32321469839
 21
-23.5072073547561
 31
0.0
  0
LINE
  5
   2E4
  8
0
  6
CONTINUOUS
 62
     1
 10
-69.1032113748353
 20
-60.2572035996635
 30
0.0
 11
-69.1032113748353
 21
-23.5072073547561
 31
0.0
  0
LINE
  5
   2E5
  8
0
  6
CONTINUOUS
 62
     1
 10
-67.8432113700669
 20
-60.2572035996635
 30
0.0
 11
-67.8432113700669
 21
-23.5072073547561
 31
0.0
  0
LINE
  5
   2E6
  8
0
  6
CONTINUOUS
 62
     1
 10
-61.543214016513
 20
-60.2572035996635
 30
0.0
 11
-61.543214016513
 21
-23.5072073547561
 31
0.0
  0
LINE
  5
   2E7
  8
0
  6
CONTINUOUS
 62
     1
 10
-60.2832173496044
 20
-60.2572035996635
 30
0.0
 11
-60.2832173496044
 21
-23.5072073547561
 31
0.0
  0
LINE
  5
   2E8
  8
0
  6
CONTINUOUS
 62
     1
 10
-64.0632126909058
 20
-60.2572035996635
 30
0.0
 11
-64.0632126909058
 21
-23.5072073547561
 31
0.0
  0
LINE
  5
   2E9
  8
0
  6
CONTINUOUS
 62
     1
 10
-62.8032160239972
 20
-60.2572035996635
 30
0.0
 11
-62.8032160239972
 21
-23.5072073547561
 31
0.0
  0
LINE
  5
   2EA
  8
0
  6
CONTINUOUS
 62
     1
 10
-70.3632110458177
 20
-60.2572035996635
 30
0.0
 11
-70.3632110458177
 21
-23.5072073547561
 31
0.0
  0
LINE
  5
   2EB
  8
0
  6
CONTINUOUS
 62
     1
 10
-71.1682110303205
 20
-60.2572035996635
 30
0.0
 11
-71.1682110303205
 21
-23.5072073547561
 31
0.0
  0
LINE
  5
   2EC
  8
0
  6
CONTINUOUS
 62
     1
 10
-70.3632110458177
 20
-82.0447013749542
 30
0.0
 11
-70.3632110458177
 21
-68.3946974276031
 31
0.0
  0
LINE
  5
   2ED
  8
0
  6
CONTINUOUS
 62
     1
 10
-71.1682110303205
 20
-82.0447013749542
 30
0.0
 11
-71.1682110303205
 21
-68.3946974276031
 31
0.0
  0
LINE
  5
   2EE
  8
0
  6
CONTINUOUS
 62
     1
 10
-65.32321469839
 20
-82.0447013749542
 30
0.0
 11
-65.32321469839
 21
-68.3946974276031
 31
0.0
  0
LINE
  5
   2EF
  8
0
  6
CONTINUOUS
 62
     1
 10
-66.5832113652986
 20
-82.0447013749542
 30
0.0
 11
-66.5832113652986
 21
-68.3946974276031
 31
0.0
  0
LINE
  5
   2F0
  8
0
  6
CONTINUOUS
 62
     1
 10
-67.8432113700669
 20
-82.0447013749542
 30
0.0
 11
-67.8432113700669
 21
-68.3946974276031
 31
0.0
  0
LINE
  5
   2F1
  8
0
  6
CONTINUOUS
 62
     1
 10
-69.1032113748353
 20
-82.0447013749542
 30
0.0
 11
-69.1032113748353
 21
-68.3946974276031
 31
0.0
  0
LINE
  5
   2F2
  8
0
  6
CONTINUOUS
 62
     1
 10
-35.1532188492573
 20
-82.0447013749542
 30
0.0
 11
-35.1532188492573
 21
-74.1697025090414
 31
0.0
  0
LINE
  5
   2F3
  8
0
  6
CONTINUOUS
 62
     1
 10
-60.2832120090287
 20
-82.0447013749542
 30
0.0
 11
-60.2832120090287
 21
-68.3946974276031
 31
0.0
  0
LINE
  5
   2F4
  8
0
  6
CONTINUOUS
 62
     1
 10
-61.543214016513
 20
-82.0447013749542
 30
0.0
 11
-61.543214016513
 21
-68.3946974276031
 31
0.0
  0
LINE
  5
   2F5
  8
0
  6
CONTINUOUS
 62
     1
 10
-62.8032160239972
 20
-82.0447013749542
 30
0.0
 11
-62.8032160239972
 21
-68.3946974276031
 31
0.0
  0
LINE
  5
   2F6
  8
0
  6
CONTINUOUS
 62
     1
 10
-64.0632126909058
 20
-82.0447013749542
 30
0.0
 11
-64.0632126909058
 21
-68.3946974276031
 31
0.0
  0
ARC
  5
   2F7
  8
0
  6
CONTINUOUS
 62
     1
 10
-71.6582108467382
 20
-23.6822073368748
 30
0.0
 40
0.174999982118607
 50
89.9999999480344
 51
179.999999948034
  0
ARC
  5
   2F8
  8
0
  6
CONTINUOUS
 62
     1
 10
25.8167791933257
 20
-23.6822073368747
 30
0.0
 40
0.174999982118607
 50
359.999999948034
 51
449.999999948034
  0
ARC
  5
   2F9
  8
0
  6
CONTINUOUS
 62
     1
 10
25.8167791933257
 20
-60.0822036175449
 30
0.0
 40
0.174999982118607
 50
269.999999948034
 51
359.999999948034
  0
ARC
  5
   2FA
  8
0
  6
CONTINUOUS
 62
     1
 10
-71.6582108467382
 20
-60.0822036175449
 30
0.0
 40
0.174999982118607
 50
179.999999948034
 51
269.999999948034
  0
LINE
  5
   2FB
  8
0
  6
DASHDOT
 62
     7
 10
-10.6707248687744
 20
-68.0760418705313
 30
0.0
 11
-10.6707248687744
 21
20.8299453379428
 31
0.0
  0
LINE
  5
   2FC
  8
0
  6
CONTINUOUS
 62
     1
 10
-71.0457293089439
 20
-90.8646953986587
 30
0.0
 11
-71.8332108288568
 21
-90.8646953986587
 31
0.0
  0
LINE
  5
   2FD
  8
0
  6
CONTINUOUS
 62
     1
 10
-71.0457293089439
 20
-91.3196954189242
 30
0.0
 11
-71.0457293089439
 21
-90.8646953986587
 31
0.0
  0
LINE
  5
   2FE
  8
0
  6
CONTINUOUS
 62
     1
 10
-41.089787868115
 20
-91.8446950314926
 30
0.0
 11
-46.6332371439739
 21
-91.8446950314926
 31
0.0
  0
LINE
  5
   2FF
  8
0
  6
CONTINUOUS
 62
     1
 10
-44.0957323964645
 20
-83.4447012303766
 30
0.0
 11
-71.8332108288568
 21
-83.4447012303766
 31
0.0
  0
LINE
  5
   300
  8
0
  6
CONTINUOUS
 62
     1
 10
-29.9207335110714
 20
-83.4447012303766
 30
0.0
 11
-41.6457376535936
 21
-83.4447012303766
 31
0.0
  0
LINE
  5
   301
  8
0
  6
CONTINUOUS
 62
     1
 10
-4.19574148021184
 20
-83.4447012303766
 30
0.0
 11
-28.1707390304609
 21
-83.4447012303766
 31
0.0
  0
LINE
  5
   302
  8
0
  6
CONTINUOUS
 62
     1
 10
6.82925739326038
 20
-83.4447012303766
 30
0.0
 11
-1.74574173055134
 21
-83.4447012303766
 31
0.0
  0
LINE
  5
   303
  8
0
  6
CONTINUOUS
 62
     1
 10
20.304252190324
 20
-83.4447111941346
 30
0.0
 11
8.57925338837732
 21
-83.4447111941346
 31
0.0
  0
LINE
  5
   304
  8
0
  6
CONTINUOUS
 62
     1
 10
25.2042578045173
 20
-83.4447046631714
 30
0.0
 11
22.7542527153754
 21
-83.4446993225978
 31
0.0
  0
LINE
  5
   305
  8
0
  6
CONTINUOUS
 62
     1
 10
-45.6707322355319
 20
-82.0446960328521
 30
0.0
 11
-46.8082321193029
 21
-82.0446960328521
 31
0.0
  0
LINE
  5
   306
  8
0
  6
CONTINUOUS
 62
     1
 10
-71.0457293089439
 20
-90.8646953986587
 30
0.0
 11
-71.0457293089439
 21
-83.4447025655205
 31
0.0
  0
LINE
  5
   307
  8
0
  6
CONTINUOUS
 62
     1
 10
8.57925721444644
 20
-83.444695889801
 30
0.0
 11
6.829262733836
 21
-83.444695889801
 31
0.0
  0
LINE
  5
   308
  8
0
  6
CONTINUOUS
 62
     1
 10
22.7542557660536
 20
-83.444695889801
 30
0.0
 11
20.3042560163931
 21
-83.444695889801
 31
0.0
  0
LINE
  5
   309
  8
0
  6
CONTINUOUS
 62
     1
 10
-28.1707443710366
 20
-83.444695889801
 30
0.0
 11
-29.9207335110714
 21
-83.444695889801
 31
0.0
  0
LINE
  5
   30A
  8
0
  6
CONTINUOUS
 62
     1
 10
-41.6457379873796
 20
-83.444695889801
 30
0.0
 11
-44.0957323964645
 21
-83.444695889801
 31
0.0
  0
LINE
  5
   30B
  8
0
  6
CONTINUOUS
 62
     1
 10
-1.74574173055134
 20
-83.444695889801
 30
0.0
 11
-4.19574148021184
 21
-83.444695889801
 31
0.0
  0
ARC
  5
   30C
  8
0
  6
CONTINUOUS
 62
     1
 10
-70.5207310781338
 20
-91.3196960446944
 30
0.0
 40
0.524998528301402
 50
179.999941123702
 51
270.000103159103
  0
CIRCLE
  5
   30D
  8
0
  6
CONTINUOUS
 62
     1
 10
-69.6457302271288
 20
-90.4446956734846
 30
0.0
 40
0.490000350151705
  0
LINE
  5
   30E
  8
0
  6
DASHDOT
 62
     2
 10
-10.6707248687744
 20
-93.4939718613897
 30
0.0
 11
-10.6707248687744
 21
-66.5379347510814
 31
0.0
  0
LINE
  5
   30F
  8
0
  6
DASHDOT
 62
     2
 10
-69.6457302271288
 20
-91.9846959163479
 30
0.0
 11
-69.6457302271288
 21
-88.9046954306212
 31
0.0
  0
LINE
  5
   310
  8
0
  6
DASHDOT
 62
     2
 10
-68.1057299842655
 20
-90.4446956734846
 30
0.0
 11
-71.1857304699922
 21
-90.4446956734846
 31
0.0
  0
LINE
  5
   311
  8
0
  6
CONTINUOUS
 62
     1
 10
25.3792554978327
 20
-82.0447013734277
 30
0.0
 11
25.3792554978327
 21
-68.2197027860578
 31
0.0
  0
LINE
  5
   312
  8
0
  6
CONTINUOUS
 62
     1
 10
-71.2207108914417
 20
-82.0446960328521
 30
0.0
 11
-71.2207108914417
 21
-68.3946974276031
 31
0.0
  0
LINE
  5
   313
  8
0
  6
DASHDOT
 62
     7
 10
13.8292726278305
 20
-8.45665372436069
 30
0.0
 11
13.8292726278305
 21
3.12878408392363
 31
0.0
  0
LINE
  5
   314
  8
0
  6
DASHDOT
 62
     7
 10
-35.1707223653793
 20
-7.73256386134291
 30
0.0
 11
-35.1707223653793
 21
4.45628216612289
 31
0.0
  0
LINE
  5
   315
  8
0
  6
CONTINUOUS
 62
     1
 10
-37.2707194805148
 20
-23.5072073547561
 30
0.0
 11
-71.6582108467382
 21
-23.5072073547561
 31
0.0
  0
LINE
  5
   316
  8
0
  6
CONTINUOUS
 62
     1
 10
25.3792554976218
 20
-82.0447013749542
 30
0.0
 11
-71.8332108288568
 21
-82.0447013749542
 31
0.0
  0
LINE
  5
   317
  8
0
  6
CONTINUOUS
 62
     1
 10
-21.6957396920725
 20
-0.494693344977037
 30
0.0
 11
-24.145739441733
 21
-0.494693344977037
 31
0.0
  0
LINE
  5
   318
  8
0
  6
CONTINUOUS
 62
     1
 10
-24.145739441733
 20
-0.494693344977037
 30
0.0
 11
-24.145739441733
 21
1.08030649409042
 31
0.0
  0
LINE
  5
   319
  8
0
  6
CONTINUOUS
 62
     1
 10
-23.7082394864365
 20
1.08030649409042
 30
0.0
 11
-24.145739441733
 21
1.08030649409042
 31
0.0
  0
LINE
  5
   31A
  8
0
  6
CONTINUOUS
 62
     1
 10
-23.7082394864365
 20
1.08030649409626
 30
0.0
 11
-23.7082394864365
 21
1.9553064046893
 31
0.0
  0
LINE
  5
   31B
  8
0
  6
CONTINUOUS
 62
     1
 10
-22.133239647369
 20
1.08030649408977
 30
0.0
 11
-22.133239647369
 21
1.9553064046828
 31
0.0
  0
LINE
  5
   31C
  8
0
  6
CONTINUOUS
 62
     1
 10
-21.6957396920725
 20
1.08030649409042
 30
0.0
 11
-22.133239647369
 21
1.08030649409042
 31
0.0
  0
LINE
  5
   31D
  8
0
  6
CONTINUOUS
 62
     1
 10
-21.6957396920725
 20
-0.494693344977037
 30
0.0
 11
-21.6957396920725
 21
1.08030649409042
 31
0.0
  0
LINE
  5
   31E
  8
0
  6
CONTINUOUS
 62
     1
 10
2.36676318981153
 20
1.08030649409626
 30
0.0
 11
2.36676318981153
 21
1.9553064046893
 31
0.0
  0
LINE
  5
   31F
  8
0
  6
CONTINUOUS
 62
     1
 10
2.80426314510805
 20
1.08030649409042
 30
0.0
 11
2.36676318981154
 21
1.08030649409042
 31
0.0
  0
LINE
  5
   320
  8
0
  6
CONTINUOUS
 62
     1
 10
2.80426314510805
 20
-0.494693344977037
 30
0.0
 11
2.80426314510805
 21
1.08030649409042
 31
0.0
  0
LINE
  5
   321
  8
0
  6
CONTINUOUS
 62
     1
 10
2.80426314510805
 20
-0.494693344977037
 30
0.0
 11
0.354263395447562
 21
-0.494693344977037
 31
0.0
  0
LINE
  5
   322
  8
0
  6
CONTINUOUS
 62
     1
 10
0.791763350744079
 20
1.08030649409042
 30
0.0
 11
0.354263395447562
 21
1.08030649409042
 31
0.0
  0
LINE
  5
   323
  8
0
  6
CONTINUOUS
 62
     1
 10
0.791763350744073
 20
1.08030649408977
 30
0.0
 11
0.791763350744073
 21
1.9553064046828
 31
0.0
  0
LINE
  5
   324
  8
0
  6
CONTINUOUS
 62
     1
 10
0.354263395447559
 20
-0.494693344977037
 30
0.0
 11
0.354263395447559
 21
1.08030649409042
 31
0.0
  0
LINE
  5
   325
  8
0
  6
CONTINUOUS
 62
     1
 10
-59.0232121377748
 20
-82.0447013749542
 30
0.0
 11
-59.0232121377748
 21
-68.3946974276031
 31
0.0
  0
LINE
  5
   326
  8
0
  6
CONTINUOUS
 62
     1
 10
-57.7632122665208
 20
-82.0447013749542
 30
0.0
 11
-57.7632122665208
 21
-68.3946974276031
 31
0.0
  0
LINE
  5
   327
  8
0
  6
CONTINUOUS
 62
     1
 10
-56.5032123952668
 20
-82.0447013749542
 30
0.0
 11
-56.5032123952668
 21
-68.3946974276031
 31
0.0
  0
LINE
  5
   328
  8
0
  6
CONTINUOUS
 62
     1
 10
-55.2432125240129
 20
-82.0447013749542
 30
0.0
 11
-55.2432125240129
 21
-68.3946974276031
 31
0.0
  0
LINE
  5
   329
  8
0
  6
CONTINUOUS
 62
     1
 10
-53.9832126527589
 20
-82.0447013749542
 30
0.0
 11
-53.9832126527589
 21
-68.3946974276031
 31
0.0
  0
LINE
  5
   32A
  8
0
  6
CONTINUOUS
 62
     1
 10
-52.7232127815049
 20
-82.0447013749542
 30
0.0
 11
-52.7232127815049
 21
-68.3946974276031
 31
0.0
  0
LINE
  5
   32B
  8
0
  6
CONTINUOUS
 62
     1
 10
-51.463212910251
 20
-82.0447013749542
 30
0.0
 11
-51.463212910251
 21
-68.3946974276031
 31
0.0
  0
LINE
  5
   32C
  8
0
  6
CONTINUOUS
 62
     1
 10
-50.203213038997
 20
-82.0447013749542
 30
0.0
 11
-50.203213038997
 21
-68.3946974276031
 31
0.0
  0
LINE
  5
   32D
  8
0
  6
CONTINUOUS
 62
     1
 10
-48.943213167743
 20
-82.0447013749542
 30
0.0
 11
-48.943213167743
 21
-68.3946974276031
 31
0.0
  0
LINE
  5
   32E
  8
0
  6
CONTINUOUS
 62
     1
 10
-47.683213296489
 20
-82.0447013749542
 30
0.0
 11
-47.683213296489
 21
-68.3946974276031
 31
0.0
  0
LINE
  5
   32F
  8
0
  6
CONTINUOUS
 62
     1
 10
-46.4232134252351
 20
-82.0447013749542
 30
0.0
 11
-46.4232134252351
 21
-68.3946974276031
 31
0.0
  0
LINE
  5
   330
  8
0
  6
CONTINUOUS
 62
     1
 10
-45.1632135539811
 20
-82.0447013749542
 30
0.0
 11
-45.1632135539811
 21
-68.3946974276031
 31
0.0
  0
LINE
  5
   331
  8
0
  6
CONTINUOUS
 62
     1
 10
-43.9032136827271
 20
-82.0447013749542
 30
0.0
 11
-43.9032136827271
 21
-68.3946974276031
 31
0.0
  0
LINE
  5
   332
  8
0
  6
CONTINUOUS
 62
     1
 10
-42.6432138114732
 20
-82.0447013749542
 30
0.0
 11
-42.6432138114732
 21
-68.3946974276031
 31
0.0
  0
LINE
  5
   333
  8
0
  6
CONTINUOUS
 62
     1
 10
-41.3832139402192
 20
-82.0447013749542
 30
0.0
 11
-41.3832139402192
 21
-68.3946974276031
 31
0.0
  0
LINE
  5
   334
  8
0
  6
CONTINUOUS
 62
     1
 10
-40.1232140689652
 20
-82.0447013749542
 30
0.0
 11
-40.1232140689652
 21
-68.3946974276031
 31
0.0
  0
LINE
  5
   335
  8
0
  6
CONTINUOUS
 62
     1
 10
-38.8632141977113
 20
-82.0447013749542
 30
0.0
 11
-38.8632141977113
 21
-68.3946974276031
 31
0.0
  0
LINE
  5
   336
  8
0
  6
CONTINUOUS
 62
     1
 10
-37.6032143264573
 20
-82.0447013749542
 30
0.0
 11
-37.6032143264573
 21
-68.3946974276031
 31
0.0
  0
LINE
  5
   337
  8
0
  6
CONTINUOUS
 62
     1
 10
-36.3432144552033
 20
-82.0447013749542
 30
0.0
 11
-36.3432144552033
 21
-74.1697025090414
 31
0.0
  0
LINE
  5
   338
  8
0
  6
CONTINUOUS
 62
     1
 10
-48.2082369830414
 20
1.95530089438125
 30
0.0
 11
-70.6957143697359
 21
1.95530089438125
 31
0.0
  0
LINE
  5
   339
  8
0
  6
CONTINUOUS
 62
     1
 10
-55.6454969375095
 20
-0.669704177971411
 30
0.0
 11
-57.5634405381965
 21
-0.669704177971411
 31
0.0
  0
LINE
  5
   33A
  8
0
  6
CONTINUOUS
 62
     1
 10
-55.6454969375095
 20
-4.86970374881797
 30
0.0
 11
-57.5634405381965
 21
-4.86970374881797
 31
0.0
  0
LINE
  5
   33B
  8
0
  6
CONTINUOUS
 62
     1
 10
-61.7779806508502
 20
-4.86970389861089
 30
0.0
 11
-63.6955465026231
 21
-4.86969736627869
 31
0.0
  0
LINE
  5
   33C
  8
0
  6
CONTINUOUS
 62
     1
 10
-63.6955464984713
 20
-0.669710560062498
 30
0.0
 11
-61.7779779597438
 21
-0.669704027700206
 31
0.0
  0
CIRCLE
  5
   33D
  8
0
  6
CONTINUOUS
 62
     1
 10
-47.4207249824918
 20
-3.46962874019002
 30
0.0
 40
1.83749981224537
  0
LINE
  5
   33E
  8
0
  6
DASHDOT
 62
     7
 10
-63.6955286644821
 20
-5.28982587248407
 30
0.0
 11
-63.6955286644821
 21
-0.249550607057401
 31
0.0
  0
ARC
  5
   33F
  8
0
  6
CONTINUOUS
 62
     1
 10
-63.6955286644821
 20
-2.76968823977072
 30
0.0
 40
2.10011469392778
 50
90.0052836333811
 51
269.995265213079
  0
LINE
  5
   340
  8
0
  6
DASHDOT
 62
     7
 10
-56.1006430869919
 20
-2.76964319984602
 30
0.0
 11
-63.2407911841078
 21
-2.76964319984602
 31
0.0
  0
ARC
  5
   341
  8
0
  6
CONTINUOUS
 62
     1
 10
-59.6707037841108
 20
-2.76964319984602
 30
0.0
 40
2.97505948189176
 50
224.901380849089
 51
315.098568474349
  0
LINE
  5
   342
  8
0
  6
DASHDOT
 62
     7
 10
-55.6454969375095
 20
-5.28951503688288
 30
0.0
 11
-55.6454969375095
 21
-0.249861079621823
 31
0.0
  0
ARC
  5
   343
  8
0
  6
CONTINUOUS
 62
     1
 10
-55.6454969375095
 20
-2.76968805825235
 30
0.0
 40
2.09985581552544
 50
269.999999948034
 51
449.999945306521
  0
ARC
  5
   344
  8
0
  6
CONTINUOUS
 62
     1
 10
-59.6707037841108
 20
-2.76964319984602
 30
0.0
 40
2.97505948189176
 50
404.897963373026
 51
495.101923170488
  0
LINE
  5
   345
  8
0
  6
DASHDOT
 62
     7
 10
-59.6707198619842
 20
-7.73256386134291
 30
0.0
 11
-59.6707198619842
 21
4.45628216612289
 31
0.0
  0
LINE
  5
   346
  8
0
  6
CONTINUOUS
 62
     1
 10
-46.1957371886774
 20
-0.494693344977037
 30
0.0
 11
-48.6457369383379
 21
-0.494693344977037
 31
0.0
  0
LINE
  5
   347
  8
0
  6
CONTINUOUS
 62
     1
 10
-48.6457369383379
 20
-0.494693344977037
 30
0.0
 11
-48.6457369383379
 21
1.08030649409042
 31
0.0
  0
LINE
  5
   348
  8
0
  6
CONTINUOUS
 62
     1
 10
-48.2082369830414
 20
1.08030649409042
 30
0.0
 11
-48.6457369383379
 21
1.08030649409042
 31
0.0
  0
LINE
  5
   349
  8
0
  6
CONTINUOUS
 62
     1
 10
-48.2082369830414
 20
1.08030649409626
 30
0.0
 11
-48.2082369830414
 21
1.9553064046893
 31
0.0
  0
LINE
  5
   34A
  8
0
  6
CONTINUOUS
 62
     1
 10
-46.6332371439739
 20
1.08030649408977
 30
0.0
 11
-46.6332371439739
 21
1.9553064046828
 31
0.0
  0
LINE
  5
   34B
  8
0
  6
CONTINUOUS
 62
     1
 10
-46.1957371886774
 20
1.08030649409042
 30
0.0
 11
-46.6332371439739
 21
1.08030649409042
 31
0.0
  0
LINE
  5
   34C
  8
0
  6
CONTINUOUS
 62
     1
 10
-46.1957371886774
 20
-0.494693344977037
 30
0.0
 11
-46.1957371886774
 21
1.08030649409042
 31
0.0
  0
LINE
  5
   34D
  8
0
  6
DASHDOT
 62
     2
 10
-47.4207249824918
 20
-8.80712819480752
 30
0.0
 11
-47.4207249824918
 21
1.86787071442748
 31
0.0
  0
LINE
  5
   34E
  8
0
  6
DASHDOT
 62
     2
 10
-42.0832255278743
 20
-3.46962874019002
 30
0.0
 11
-52.7582244371093
 21
-3.46962874019002
 31
0.0
  0
LINE
  5
   34F
  8
0
  6
DASHDOT
 62
     2
 10
-22.9207274858868
 20
-8.80712819480752
 30
0.0
 11
-22.9207274858868
 21
1.86787071442748
 31
0.0
  0
LINE
  5
   350
  8
0
  6
DASHDOT
 62
     2
 10
-17.5832280312693
 20
-3.46962874019002
 30
0.0
 11
-28.2582269405043
 21
-3.46962874019002
 31
0.0
  0
LINE
  5
   351
  8
0
  6
DASHDOT
 62
     2
 10
1.5791909804488
 20
-8.80716874288675
 30
0.0
 11
1.5791909804488
 21
1.86783016634824
 31
0.0
  0
LINE
  5
   352
  8
0
  6
DASHDOT
 62
     2
 10
6.9166904350663
 20
-3.46966928826925
 30
0.0
 11
-3.7583084741687
 21
-3.46966928826925
 31
0.0
  0
LINE
  5
   353
  8
0
  6
CONTINUOUS
 62
     1
 10
-48.2082369830414
 20
-91.8446950314926
 30
0.0
 11
-70.5207293625881
 21
-91.8446950314926
 31
0.0
  0
LINE
  5
   354
  8
0
  6
CONTINUOUS
 62
     1
 10
-55.6457332363228
 20
-85.0197036681914
 30
0.0
 11
-57.5634591757029
 21
-85.0196983276174
 31
0.0
  0
LINE
  5
   355
  8
0
  6
CONTINUOUS
 62
     1
 10
-61.7780118142379
 20
-85.0197026124587
 30
0.0
 11
-63.695737753618
 21
-85.0196972718848
 31
0.0
  0
LINE
  5
   356
  8
0
  6
CONTINUOUS
 62
     1
 10
-61.7780094612362
 20
-89.219695299715
 30
0.0
 11
-63.6957354005381
 21
-89.219695299715
 31
0.0
  0
LINE
  5
   357
  8
0
  6
CONTINUOUS
 62
     1
 10
-55.6457362230822
 20
-89.219695299715
 30
0.0
 11
-57.5634568218083
 21
-89.219695299715
 31
0.0
  0
LINE
  5
   358
  8
0
  6
CONTINUOUS
 62
     1
 10
-48.6457369383379
 20
-90.969695120901
 30
0.0
 11
-48.6457369383379
 21
-89.3946952818336
 31
0.0
  0
LINE
  5
   359
  8
0
  6
CONTINUOUS
 62
     1
 10
-48.2082369830414
 20
-90.969695120901
 30
0.0
 11
-48.6457369383379
 21
-90.969695120901
 31
0.0
  0
LINE
  5
   35A
  8
0
  6
CONTINUOUS
 62
     1
 10
-48.2082369830414
 20
-91.8446950314999
 30
0.0
 11
-48.2082369830414
 21
-90.9696951209069
 31
0.0
  0
LINE
  5
   35B
  8
0
  6
CONTINUOUS
 62
     1
 10
-46.6332371439739
 20
-91.8446950314934
 30
0.0
 11
-46.6332371439739
 21
-90.9696951209004
 31
0.0
  0
LINE
  5
   35C
  8
0
  6
CONTINUOUS
 62
     1
 10
-46.1957371886774
 20
-90.969695120901
 30
0.0
 11
-46.6332371439739
 21
-90.969695120901
 31
0.0
  0
LINE
  5
   35D
  8
0
  6
CONTINUOUS
 62
     1
 10
-46.1957371886774
 20
-90.969695120901
 30
0.0
 11
-46.1957371886774
 21
-89.3946952818336
 31
0.0
  0
LINE
  5
   35E
  8
0
  6
CONTINUOUS
 62
     1
 10
-46.1957371886774
 20
-89.3946952818336
 30
0.0
 11
-48.6457369383379
 21
-89.3946952818336
 31
0.0
  0
ARC
  5
   35F
  8
0
  6
CONTINUOUS
 62
     1
 10
-63.6957415851197
 20
-87.1197001672091
 30
0.0
 40
2.09999780640047
 50
90.0001399327154
 51
270.000100332566
  0
ARC
  5
   360
  8
0
  6
CONTINUOUS
 62
     1
 10
-59.670739325906
 20
-87.1196634037679
 30
0.0
 40
2.97503231368161
 50
404.899302393594
 51
495.100813987516
  0
ARC
  5
   361
  8
0
  6
CONTINUOUS
 62
     1
 10
-55.6457347655617
 20
-87.1196980343133
 30
0.0
 40
2.09999491827499
 50
269.999747131106
 51
450.000048027357
  0
CIRCLE
  5
   362
  8
0
  6
CONTINUOUS
 62
     1
 10
-47.4207324936835
 20
-86.4196830376392
 30
0.0
 40
1.8374901065248
  0
ARC
  5
   363
  8
0
  6
CONTINUOUS
 62
     1
 10
-59.670739325906
 20
-87.1196634037679
 30
0.0
 40
2.97503231368161
 50
224.901119153159
 51
315.09888074291
  0
LINE
  5
   364
  8
0
  6
DASHDOT
 62
     2
 10
-55.6457347655617
 20
-90.2696928453
 30
0.0
 11
-55.6457347655617
 21
-83.9697032233267
 31
0.0
  0
LINE
  5
   365
  8
0
  6
DASHDOT
 62
     2
 10
-52.4957399545751
 20
-87.1196980343133
 30
0.0
 11
-58.7957295765484
 21
-87.1196980343133
 31
0.0
  0
LINE
  5
   366
  8
0
  6
DASHDOT
 62
     2
 10
-63.6957415851197
 20
-90.2696978663212
 30
0.0
 11
-63.6957415851197
 21
-83.969702468097
 31
0.0
  0
LINE
  5
   367
  8
0
  6
DASHDOT
 62
     2
 10
-60.5457438860076
 20
-87.1197001672091
 30
0.0
 11
-66.8457392842319
 21
-87.1197001672091
 31
0.0
  0
LINE
  5
   368
  8
0
  6
DASHDOT
 62
     2
 10
-47.4207324936835
 20
-91.7571727865361
 30
0.0
 11
-47.4207324936835
 21
-81.0821932887422
 31
0.0
  0
LINE
  5
   369
  8
0
  6
DASHDOT
 62
     2
 10
-42.0832427447866
 20
-86.4196830376392
 30
0.0
 11
-52.7582222425804
 21
-86.4196830376392
 31
0.0
  0
LINE
  5
   36A
  8
0
  6
CONTINUOUS
 62
     1
 10
-70.3632110458177
 20
-67.8696975021089
 30
0.0
 11
-70.3632110458177
 21
-60.2572036205251
 31
0.0
  0
LINE
  5
   36B
  8
0
  6
CONTINUOUS
 62
     1
 10
-71.1682110303205
 20
-67.8696975021089
 30
0.0
 11
-71.1682110303205
 21
-60.2572036205251
 31
0.0
  0
LINE
  5
   36C
  8
0
  6
CONTINUOUS
 62
     1
 10
-65.32321469839
 20
-67.8696975021089
 30
0.0
 11
-65.32321469839
 21
-60.2572036205251
 31
0.0
  0
LINE
  5
   36D
  8
0
  6
CONTINUOUS
 62
     1
 10
-66.5832113652986
 20
-67.8696975021089
 30
0.0
 11
-66.5832113652986
 21
-60.2572036205251
 31
0.0
  0
LINE
  5
   36E
  8
0
  6
CONTINUOUS
 62
     1
 10
-67.8432113700669
 20
-67.8696975021089
 30
0.0
 11
-67.8432113700669
 21
-60.2572036205251
 31
0.0
  0
LINE
  5
   36F
  8
0
  6
CONTINUOUS
 62
     1
 10
-69.1032113748353
 20
-67.8696975021089
 30
0.0
 11
-69.1032113748353
 21
-60.2572036205251
 31
0.0
  0
LINE
  5
   370
  8
0
  6
CONTINUOUS
 62
     1
 10
-60.2832120090287
 20
-67.8696975021089
 30
0.0
 11
-60.2832120090287
 21
-60.2572036205251
 31
0.0
  0
LINE
  5
   371
  8
0
  6
CONTINUOUS
 62
     1
 10
-61.543214016513
 20
-67.8696975021089
 30
0.0
 11
-61.543214016513
 21
-60.2572036205251
 31
0.0
  0
LINE
  5
   372
  8
0
  6
CONTINUOUS
 62
     1
 10
-62.8032160239972
 20
-67.8696975021089
 30
0.0
 11
-62.8032160239972
 21
-60.2572036205251
 31
0.0
  0
LINE
  5
   373
  8
0
  6
CONTINUOUS
 62
     1
 10
-64.0632126909058
 20
-67.8696975021089
 30
0.0
 11
-64.0632126909058
 21
-60.2572036205251
 31
0.0
  0
LINE
  5
   374
  8
0
  6
CONTINUOUS
 62
     1
 10
-59.0232121377748
 20
-67.8696975021089
 30
0.0
 11
-59.0232121377748
 21
-6.61970373973499
 31
0.0
  0
LINE
  5
   375
  8
0
  6
CONTINUOUS
 62
     1
 10
-57.7632122665208
 20
-67.8696975021089
 30
0.0
 11
-57.7632122665208
 21
-6.61970373973499
 31
0.0
  0
LINE
  5
   376
  8
0
  6
CONTINUOUS
 62
     1
 10
-56.5032123952668
 20
-67.8696975021089
 30
0.0
 11
-56.5032123952668
 21
-6.619703739735
 31
0.0
  0
LINE
  5
   377
  8
0
  6
CONTINUOUS
 62
     1
 10
-55.2432125240129
 20
-67.8696975021089
 30
0.0
 11
-55.2432125240129
 21
-6.619703739735
 31
0.0
  0
LINE
  5
   378
  8
0
  6
CONTINUOUS
 62
     1
 10
-53.9832126527589
 20
-67.8696975021089
 30
0.0
 11
-53.9832126527589
 21
-6.619703739735
 31
0.0
  0
LINE
  5
   379
  8
0
  6
CONTINUOUS
 62
     1
 10
-52.7232127815049
 20
-67.8696975021089
 30
0.0
 11
-52.7232127815049
 21
-6.619703739735
 31
0.0
  0
LINE
  5
   37A
  8
0
  6
CONTINUOUS
 62
     1
 10
-51.463212910251
 20
-67.8696975021089
 30
0.0
 11
-51.463212910251
 21
-6.61970373973502
 31
0.0
  0
LINE
  5
   37B
  8
0
  6
CONTINUOUS
 62
     1
 10
-50.203213038997
 20
-67.8696975021089
 30
0.0
 11
-50.203213038997
 21
-6.61970373973502
 31
0.0
  0
LINE
  5
   37C
  8
0
  6
CONTINUOUS
 62
     1
 10
-48.943213167743
 20
-67.8696975021089
 30
0.0
 11
-48.943213167743
 21
-6.61970373973502
 31
0.0
  0
LINE
  5
   37D
  8
0
  6
CONTINUOUS
 62
     1
 10
-47.683213296489
 20
-67.8696975021089
 30
0.0
 11
-47.683213296489
 21
-6.61970373973502
 31
0.0
  0
LINE
  5
   37E
  8
0
  6
CONTINUOUS
 62
     1
 10
-46.4232134252351
 20
-67.8696975021089
 30
0.0
 11
-46.4232134252351
 21
-6.61970373973502
 31
0.0
  0
LINE
  5
   37F
  8
0
  6
CONTINUOUS
 62
     1
 10
-45.1632135539811
 20
-67.8696975021089
 30
0.0
 11
-45.1632135539811
 21
-6.61970373973502
 31
0.0
  0
LINE
  5
   380
  8
0
  6
CONTINUOUS
 62
     1
 10
-43.9032136827271
 20
-67.8696975021089
 30
0.0
 11
-43.9032136827271
 21
-6.61970373973502
 31
0.0
  0
LINE
  5
   381
  8
0
  6
CONTINUOUS
 62
     1
 10
-42.6432138114732
 20
-67.8696975021089
 30
0.0
 11
-42.6432138114732
 21
-6.61970373973502
 31
0.0
  0
LINE
  5
   382
  8
0
  6
CONTINUOUS
 62
     1
 10
-41.3832139402192
 20
-67.8696975021089
 30
0.0
 11
-41.3832139402192
 21
-6.61970373973504
 31
0.0
  0
LINE
  5
   383
  8
0
  6
CONTINUOUS
 62
     1
 10
-40.1232140689652
 20
-67.8696975021089
 30
0.0
 11
-40.1232140689652
 21
-6.61970373973504
 31
0.0
  0
LINE
  5
   384
  8
0
  6
CONTINUOUS
 62
     1
 10
-38.8632141977113
 20
-67.8696975021089
 30
0.0
 11
-38.8632141977113
 21
-6.61970373973504
 31
0.0
  0
LINE
  5
   385
  8
0
  6
CONTINUOUS
 62
     1
 10
-37.6032143264573
 20
-67.8696975021089
 30
0.0
 11
-37.6032143264573
 21
-6.61970373973504
 31
0.0
  0
LINE
  5
   386
  8
0
  6
DASHDOT
 62
     2
 10
-59.670739325906
 20
-90.4446956816867
 30
0.0
 11
-59.670739325906
 21
-83.7946311258491
 31
0.0
  0
LINE
  5
   387
  8
0
  6
DASHDOT
 62
     2
 10
-56.3457070479872
 20
-87.1196634037679
 30
0.0
 11
-62.9957716038249
 21
-87.1196634037679
 31
0.0
  0
LINE
  5
   388
  8
0
  6
CONTINUOUS
 62
     1
 10
-23.7082394864365
 20
-91.8446950314926
 30
0.0
 11
-46.6332371439739
 21
-91.8446950314926
 31
0.0
  0
LINE
  5
   389
  8
0
  6
CONTINUOUS
 62
     1
 10
-31.1454994409045
 20
-89.2196899591399
 30
0.0
 11
-33.0634430415916
 21
-89.2196899591399
 31
0.0
  0
LINE
  5
   38A
  8
0
  6
CONTINUOUS
 62
     1
 10
-31.1454994409045
 20
-85.0196903882934
 30
0.0
 11
-33.0634430415916
 21
-85.0196903882934
 31
0.0
  0
LINE
  5
   38B
  8
0
  6
CONTINUOUS
 62
     1
 10
-39.1955490044954
 20
-85.0196967708326
 30
0.0
 11
-37.2779831513314
 21
-85.0196902385004
 31
0.0
  0
LINE
  5
   38C
  8
0
  6
CONTINUOUS
 62
     1
 10
-37.2779804619583
 20
-89.2196901094112
 30
0.0
 11
-39.1955490007548
 21
-89.2196835770489
 31
0.0
  0
LINE
  5
   38D
  8
0
  6
CONTINUOUS
 62
     1
 10
0.791763350744079
 20
-91.844689690917
 30
0.0
 11
-22.133239647369
 21
-91.844689690917
 31
0.0
  0
LINE
  5
   38E
  8
0
  6
CONTINUOUS
 62
     1
 10
-12.7780025236323
 20
-89.2196899591399
 30
0.0
 11
-14.6955905752814
 21
-89.2196899591399
 31
0.0
  0
LINE
  5
   38F
  8
0
  6
CONTINUOUS
 62
     1
 10
-12.7783779841642
 20
-85.0196903882934
 30
0.0
 11
-14.6955905752814
 21
-85.0196903882934
 31
0.0
  0
CIRCLE
  5
   390
  8
0
  6
CONTINUOUS
 62
     1
 10
-22.9207274858868
 20
-86.4197653969213
 30
0.0
 40
1.83749981224537
  0
LINE
  5
   391
  8
0
  6
DASHDOT
 62
     7
 10
-12.1755097861458
 20
-87.1196936474289
 30
0.0
 11
-17.215671030631
 21
-87.1196936474289
 31
0.0
  0
LINE
  5
   392
  8
0
  6
DASHDOT
 62
     7
 10
-14.6955905752814
 20
-89.6397741027785
 30
0.0
 11
-14.6955905752814
 21
-84.5996131920793
 31
0.0
  0
ARC
  5
   393
  8
0
  6
CONTINUOUS
 62
     1
 10
-14.6955905752814
 20
-87.1196936474289
 30
0.0
 40
2.10006671233868
 50
90.0036980561698
 51
269.996344135733
  0
LINE
  5
   394
  8
0
  6
DASHDOT
 62
     7
 10
-7.10059740257628
 20
-87.1195483721479
 30
0.0
 11
-14.2409291617521
 21
-87.1195483721479
 31
0.0
  0
ARC
  5
   395
  8
0
  6
CONTINUOUS
 62
     1
 10
-10.670763282154
 20
-87.1195483721479
 30
0.0
 40
2.97513823298993
 50
404.894508209153
 51
495.105696149199
  0
LINE
  5
   396
  8
0
  6
DASHDOT
 62
     7
 10
-39.1955311678772
 20
-89.6398435300539
 30
0.0
 11
-39.1955311678772
 21
-84.5995682646273
 31
0.0
  0
ARC
  5
   397
  8
0
  6
CONTINUOUS
 62
     1
 10
-39.1955311678772
 20
-87.1197058973406
 30
0.0
 40
2.10011469392778
 50
90.0047346829901
 51
269.994716262688
  0
LINE
  5
   398
  8
0
  6
DASHDOT
 62
     7
 10
-31.600645590387
 20
-87.1197509372653
 30
0.0
 11
-38.7407936875028
 21
-87.1197509372653
 31
0.0
  0
ARC
  5
   399
  8
0
  6
CONTINUOUS
 62
     1
 10
-35.1707062875058
 20
-87.1197509372653
 30
0.0
 40
2.97505948189176
 50
404.90143142172
 51
495.09861904698
  0
LINE
  5
   39A
  8
0
  6
DASHDOT
 62
     7
 10
-31.1454994409045
 20
-89.6395330574895
 30
0.0
 11
-31.1454994409045
 21
-84.5998791002285
 31
0.0
  0
ARC
  5
   39B
  8
0
  6
CONTINUOUS
 62
     1
 10
-31.1454994409045
 20
-87.119706078859
 30
0.0
 40
2.09985581552544
 50
270.000054589548
 51
449.999999948034
  0
ARC
  5
   39C
  8
0
  6
CONTINUOUS
 62
     1
 10
-35.1707062875058
 20
-87.1197509372653
 30
0.0
 40
2.97505948189176
 50
224.898076725581
 51
315.102036523043
  0
ARC
  5
   39D
  8
0
  6
CONTINUOUS
 62
     1
 10
-10.670763282154
 20
-87.1195483721479
 30
0.0
 40
2.97513823298993
 50
224.902232614306
 51
315.097890608971
  0
LINE
  5
   39E
  8
0
  6
DASHDOT
 62
     7
 10
-35.1707223653793
 20
-94.3456763032342
 30
0.0
 11
-35.1707223653793
 21
-82.1568302757684
 31
0.0
  0
LINE
  5
   39F
  8
0
  6
CONTINUOUS
 62
     1
 10
-21.6957396920725
 20
-89.3947007921343
 30
0.0
 11
-24.145739441733
 21
-89.3947007921343
 31
0.0
  0
LINE
  5
   3A0
  8
0
  6
CONTINUOUS
 62
     1
 10
-24.145739441733
 20
-90.9697006312018
 30
0.0
 11
-24.145739441733
 21
-89.3947007921343
 31
0.0
  0
LINE
  5
   3A1
  8
0
  6
CONTINUOUS
 62
     1
 10
-23.7082394864365
 20
-90.9697006312018
 30
0.0
 11
-24.145739441733
 21
-90.9697006312018
 31
0.0
  0
LINE
  5
   3A2
  8
0
  6
CONTINUOUS
 62
     1
 10
-23.7082394864365
 20
-91.8447005418006
 30
0.0
 11
-23.7082394864365
 21
-90.9697006312076
 31
0.0
  0
LINE
  5
   3A3
  8
0
  6
CONTINUOUS
 62
     1
 10
-22.133239647369
 20
-91.8447005417941
 30
0.0
 11
-22.133239647369
 21
-90.9697006312011
 31
0.0
  0
LINE
  5
   3A4
  8
0
  6
CONTINUOUS
 62
     1
 10
-21.6957396920725
 20
-90.9697006312018
 30
0.0
 11
-22.133239647369
 21
-90.9697006312018
 31
0.0
  0
LINE
  5
   3A5
  8
0
  6
CONTINUOUS
 62
     1
 10
-21.6957396920725
 20
-90.9697006312018
 30
0.0
 11
-21.6957396920725
 21
-89.3947007921343
 31
0.0
  0
LINE
  5
   3A6
  8
0
  6
DASHDOT
 62
     2
 10
-22.9207274858868
 20
-91.7572648515388
 30
0.0
 11
-22.9207274858868
 21
-81.0822659423038
 31
0.0
  0
LINE
  5
   3A7
  8
0
  6
DASHDOT
 62
     2
 10
-17.5832280312693
 20
-86.4197653969213
 30
0.0
 11
-28.2582269405043
 21
-86.4197653969213
 31
0.0
  0
LINE
  5
   3A8
  8
0
  6
CONTINUOUS
 62
     1
 10
-8.56344674434738
 20
-89.2196934620588
 30
0.0
 11
-6.6456776687715
 21
-89.2196869290134
 31
0.0
  0
LINE
  5
   3A9
  8
0
  6
DASHDOT
 62
     7
 10
-6.64568482090707
 20
-89.6396853216825
 30
0.0
 11
-6.64568482090707
 21
-84.599806358219
 31
0.0
  0
ARC
  5
   3AA
  8
0
  6
CONTINUOUS
 62
     1
 10
-6.6456848209101
 20
-87.1197477058084
 30
0.0
 40
2.0999492343238
 50
269.998947188399
 51
450.000991968445
  0
LINE
  5
   3AB
  8
0
  6
CONTINUOUS
 62
     1
 10
-6.64567766621636
 20
-85.0196934191794
 30
0.0
 11
-8.56344672732959
 21
-85.0196868861341
 31
0.0
  0
LINE
  5
   3AC
  8
0
  6
DASHDOT
 62
     7
 10
-4.12574533917838
 20
-87.1197477058084
 30
0.0
 11
-9.16562497021378
 21
-87.1197477058084
 31
0.0
  0
LINE
  5
   3AD
  8
0
  6
DASHDOT
 62
     2
 10
6.9166904350663
 20
-86.4197248488421
 30
0.0
 11
-3.7583084741687
 21
-86.4197248488421
 31
0.0
  0
LINE
  5
   3AE
  8
0
  6
DASHDOT
 62
     2
 10
1.5791909804488
 20
-91.7572243034596
 30
0.0
 11
1.5791909804488
 21
-81.0822253942246
 31
0.0
  0
CIRCLE
  5
   3AF
  8
0
  6
CONTINUOUS
 62
     1
 10
1.5791909804488
 20
-86.4197248488421
 30
0.0
 40
1.83749981224537
  0
LINE
  5
   3B0
  8
0
  6
CONTINUOUS
 62
     1
 10
0.791763350744073
 20
-91.8447005417941
 30
0.0
 11
0.791763350744073
 21
-90.9697006312011
 31
0.0
  0
LINE
  5
   3B1
  8
0
  6
CONTINUOUS
 62
     1
 10
0.791763350744082
 20
-90.9697006312018
 30
0.0
 11
0.354263395447566
 21
-90.9697006312018
 31
0.0
  0
LINE
  5
   3B2
  8
0
  6
CONTINUOUS
 62
     1
 10
0.354263395447559
 20
-90.9697006312018
 30
0.0
 11
0.354263395447559
 21
-89.3947007921343
 31
0.0
  0
LINE
  5
   3B3
  8
0
  6
CONTINUOUS
 62
     1
 10
2.80426314510806
 20
-89.3947007921343
 30
0.0
 11
0.354263395447566
 21
-89.3947007921343
 31
0.0
  0
LINE
  5
   3B4
  8
0
  6
CONTINUOUS
 62
     1
 10
2.80426314510805
 20
-90.9697006312018
 30
0.0
 11
2.80426314510805
 21
-89.3947007921343
 31
0.0
  0
LINE
  5
   3B5
  8
0
  6
CONTINUOUS
 62
     1
 10
2.80426314510806
 20
-90.9697006312018
 30
0.0
 11
2.36676318981154
 21
-90.9697006312018
 31
0.0
  0
LINE
  5
   3B6
  8
0
  6
CONTINUOUS
 62
     1
 10
2.36676318981153
 20
-91.8447005418006
 30
0.0
 11
2.36676318981153
 21
-90.9697006312076
 31
0.0
  0
LINE
  5
   3B7
  8
0
  6
CONTINUOUS
 62
     1
 10
24.8542671355821
 20
-91.8446950314926
 30
0.0
 11
2.36676318981154
 21
-91.8446950314926
 31
0.0
  0
ARC
  5
   3B8
  8
0
  6
CONTINUOUS
 62
     1
 10
24.8542528867651
 20
-91.4946817319871
 30
0.0
 40
0.349999693004806
 50
270.000054589548
 51
359.999945306521
  0
LINE
  5
   3B9
  8
0
  6
CONTINUOUS
 62
     7
 10
25.2042634546765
 20
-91.4946817319871
 30
0.0
 11
25.2042634546765
 21
-83.2696905671124
 31
0.0
  0
LINE
  5
   3BA
  8
0
  6
CONTINUOUS
 62
     1
 10
25.9042500317119
 20
-90.7946897982074
 30
0.0
 11
25.2042501032374
 21
-90.7946897982074
 31
0.0
  0
LINE
  5
   3BB
  8
0
  6
CONTINUOUS
 62
     7
 10
25.2042634546765
 20
-91.4946817319871
 30
0.0
 11
25.2042634546765
 21
-83.2696905671124
 31
0.0
  0
CIRCLE
  5
   3BC
  8
0
  6
CONTINUOUS
 62
     1
 10
23.8042760916515
 20
-90.4446953785908
 30
0.0
 40
0.490019746478501
  0
CIRCLE
  5
   3BD
  8
0
  6
CONTINUOUS
 62
     1
 10
23.8042551178944
 20
-90.444699025643
 30
0.0
 40
0.664989098400968
  0
LINE
  5
   3BE
  8
0
  6
DASHDOT
 62
     7
 10
24.6022420359756
 20
-90.444699025643
 30
0.0
 11
23.0062628592377
 21
-90.444699025643
 31
0.0
  0
LINE
  5
   3BF
  8
0
  6
DASHDOT
 62
     7
 10
23.8042551178944
 20
-91.2426859437242
 30
0.0
 11
23.8042551178944
 21
-89.6467121075619
 31
0.0
  0
LINE
  5
   3C0
  8
0
  6
DASHDOT
 62
     7
 10
12.3240878298852
 20
-87.1197105537358
 30
0.0
 11
7.28427306329284
 21
-87.1197105537358
 31
0.0
  0
ARC
  5
   3C1
  8
0
  6
CONTINUOUS
 62
     1
 10
9.80419112774029
 20
-87.1197105537358
 30
0.0
 40
2.09992660232123
 50
449.997623428215
 51
629.999999948034
  0
LINE
  5
   3C2
  8
0
  6
DASHDOT
 62
     7
 10
9.80419112774028
 20
-89.6396232776076
 30
0.0
 11
9.80419112774028
 21
-84.5997978298639
 31
0.0
  0
LINE
  5
   3C3
  8
0
  6
CONTINUOUS
 62
     1
 10
11.7219882972531
 20
-85.0196903882934
 30
0.0
 11
9.80419112774029
 21
-85.0196903882934
 31
0.0
  0
LINE
  5
   3C4
  8
0
  6
CONTINUOUS
 62
     1
 10
11.7219882972531
 20
-89.2196899591399
 30
0.0
 11
9.80419112774029
 21
-89.2196899591399
 31
0.0
  0
ARC
  5
   3C5
  8
0
  6
CONTINUOUS
 62
     1
 10
13.8292754735396
 20
-87.1196606561164
 30
0.0
 40
2.97502416090334
 50
404.89965872332
 51
495.100454520596
  0
LINE
  5
   3C6
  8
0
  6
CONTINUOUS
 62
     1
 10
17.8543179974247
 20
-85.0196967715778
 30
0.0
 11
15.9365337471288
 21
-85.0196902385016
 31
0.0
  0
LINE
  5
   3C7
  8
0
  6
CONTINUOUS
 62
     1
 10
15.9365310591416
 20
-89.2196901097004
 30
0.0
 11
17.8543340170277
 21
-89.2196835765604
 31
0.0
  0
ARC
  5
   3C8
  8
0
  6
CONTINUOUS
 62
     1
 10
17.8543161831713
 20
-87.1196797125126
 30
0.0
 40
2.10000649976036
 50
269.998526595781
 51
450.001661549958
  0
LINE
  5
   3C9
  8
0
  6
DASHDOT
 62
     7
 10
17.8543161831713
 20
-89.6396883133113
 30
0.0
 11
17.8543161831713
 21
-84.5996711117138
 31
0.0
  0
LINE
  5
   3CA
  8
0
  6
DASHDOT
 62
     7
 10
13.8292726278305
 20
-93.018178221035
 30
0.0
 11
13.8292726278305
 21
-81.4327404127506
 31
0.0
  0
LINE
  5
   3CB
  8
0
  6
DASHDOT
 62
     7
 10
20.3743194433945
 20
-87.1196797125126
 30
0.0
 11
15.3343129229482
 21
-87.1196797125126
 31
0.0
  0
LINE
  5
   3CC
  8
0
  6
CONTINUOUS
 62
     1
 10
11.7219882972531
 20
-85.0196903882934
 30
0.0
 11
9.80419112774029
 21
-85.0196903882934
 31
0.0
  0
LINE
  5
   3CD
  8
0
  6
CONTINUOUS
 62
     1
 10
15.9365310591416
 20
-89.2196901097004
 30
0.0
 11
17.8543340170277
 21
-89.2196835765604
 31
0.0
  0
LINE
  5
   3CE
  8
0
  6
CONTINUOUS
 62
     1
 10
11.7219882972531
 20
-89.2196899591399
 30
0.0
 11
9.80419112774029
 21
-89.2196899591399
 31
0.0
  0
ARC
  5
   3CF
  8
0
  6
CONTINUOUS
 62
     1
 10
13.8292754735396
 20
-87.1196606561164
 30
0.0
 40
2.97502416090334
 50
224.901369050607
 51
315.098954603508
  0
LINE
  5
   3D0
  8
0
  6
CONTINUOUS
 62
     1
 10
-37.2707194805148
 20
-60.2572035996635
 30
0.0
 11
-71.6582108467382
 21
-60.2572035996635
 31
0.0
  0
LINE
  5
   3D1
  8
0
  6
DASHDOT
 62
     7
 10
51.2377719157782
 20
-39.8697001725413
 30
0.0
 11
-75.2532638058375
 21
-39.8697001725413
 31
0.0
  0
LINE
  5
   3D2
  8
0
  6
CONTINUOUS
 62
     7
 10
-28.379133485393
 20
-33.1381169079002
 30
0.0
 11
-28.5827698282219
 21
-33.1381169079002
 31
0.0
  0
ARC
  5
   3D3
  8
0
  6
CONTINUOUS
 62
     7
 10
-29.4832242816685
 20
-32.3490260794382
 30
0.0
 40
0.661818114194003
 50
359.999999948034
 51
539.999999948034
  0
ARC
  5
   3D4
  8
0
  6
CONTINUOUS
 62
     7
 10
-29.4832242816685
 20
-32.3490260794382
 30
0.0
 40
0.458181771365079
 50
359.999999948034
 51
539.999999948034
  0
ARC
  5
   3D5
  8
0
  6
CONTINUOUS
 62
     7
 10
-29.4832242816685
 20
-32.4762987937062
 30
0.0
 40
0.661818114194002
 50
179.999999948034
 51
359.999999948034
  0
ARC
  5
   3D6
  8
0
  6
CONTINUOUS
 62
     7
 10
-29.4832242816685
 20
-32.4762987937062
 30
0.0
 40
0.458181771365078
 50
179.999999948034
 51
359.999999948034
  0
LINE
  5
   3D7
  8
0
  6
CONTINUOUS
 62
     7
 10
-29.0250425103035
 20
-32.4762987937063
 30
0.0
 11
-29.0250425103035
 21
-32.3490260794382
 31
0.0
  0
LINE
  5
   3D8
  8
0
  6
CONTINUOUS
 62
     7
 10
-28.8214061674745
 20
-32.4762987937063
 30
0.0
 11
-28.8214061674745
 21
-32.3490260794382
 31
0.0
  0
LINE
  5
   3D9
  8
0
  6
CONTINUOUS
 62
     7
 10
-29.9414060530336
 20
-32.4762987937063
 30
0.0
 11
-29.9414060530336
 21
-32.3490260794382
 31
0.0
  0
LINE
  5
   3DA
  8
0
  6
CONTINUOUS
 62
     7
 10
-30.1450423958625
 20
-32.4762987937063
 30
0.0
 11
-30.1450423958625
 21
-32.3490260794382
 31
0.0
  0
LINE
  5
   3DB
  8
0
  6
CONTINUOUS
 62
     7
 10
-28.5827698282219
 20
-33.1381169079003
 30
0.0
 11
-28.5827698282219
 21
-31.6872079652442
 31
0.0
  0
LINE
  5
   3DC
  8
0
  6
CONTINUOUS
 62
     7
 10
-28.379133485393
 20
-33.1381169079003
 30
0.0
 11
-28.379133485393
 21
-32.2472079080237
 31
0.0
  0
LINE
  5
   3DD
  8
0
  6
CONTINUOUS
 62
     7
 10
-27.6664062854917
 20
-33.1381169079003
 30
0.0
 11
-27.6664062854917
 21
-32.2472079080237
 31
0.0
  0
LINE
  5
   3DE
  8
0
  6
CONTINUOUS
 62
     7
 10
-27.4627699426628
 20
-33.1381169079003
 30
0.0
 11
-27.4627699426628
 21
-32.1962988223165
 31
0.0
  0
LINE
  5
   3DF
  8
0
  6
CONTINUOUS
 62
     7
 10
-28.379133485393
 20
-31.6872079652442
 30
0.0
 11
-28.5827698282219
 21
-31.6872079652442
 31
0.0
  0
ARC
  5
   3E0
  8
0
  6
CONTINUOUS
 62
     7
 10
-28.0227698854423
 20
-32.2472079080237
 30
0.0
 40
0.356363599950617
 50
359.999999948034
 51
539.999999948034
  0
LINE
  5
   3E1
  8
0
  6
CONTINUOUS
 62
     7
 10
-28.379133485393
 20
-31.8908443080731
 30
0.0
 11
-28.379133485393
 21
-31.6872079652442
 31
0.0
  0
ARC
  5
   3E2
  8
0
  6
CONTINUOUS
 62
     7
 10
-27.9718607997351
 20
-32.1962988223165
 30
0.0
 40
0.50909085707231
 50
359.999999948034
 51
503.13010230219
  0
LINE
  5
   3E3
  8
0
  6
CONTINUOUS
 62
     7
 10
-27.4627699426628
 20
-33.1381169079002
 30
0.0
 11
-27.6664062854917
 21
-33.1381169079002
 31
0.0
  0
LINE
  5
   3E4
  8
0
  6
CONTINUOUS
 62
     7
 10
-28.0354971568692
 20
-54.8230633220448
 30
0.0
 11
-28.1500425997104
 21
-54.8230633220448
 31
0.0
  0
LINE
  5
   3E5
  8
0
  6
CONTINUOUS
 62
     7
 10
-28.2773153139785
 20
-56.7830631217732
 30
0.0
 11
-28.4809516568074
 21
-56.7830631217732
 31
0.0
  0
LINE
  5
   3E6
  8
0
  6
CONTINUOUS
 62
     7
 10
-30.1450423958625
 20
-56.1212450075793
 30
0.0
 11
-30.1450423958625
 21
-55.9939722933112
 31
0.0
  0
LINE
  5
   3E7
  8
0
  6
CONTINUOUS
 62
     7
 10
-28.8214061674745
 20
-56.1212450075793
 30
0.0
 11
-28.8214061674745
 21
-55.9939722933112
 31
0.0
  0
ARC
  5
   3E8
  8
0
  6
CONTINUOUS
 62
     7
 10
-29.4832242816685
 20
-55.9939722933112
 30
0.0
 40
0.661818114194003
 50
359.999999948034
 51
539.999999948034
  0
ARC
  5
   3E9
  8
0
  6
CONTINUOUS
 62
     7
 10
-29.4832242816685
 20
-56.1212450075792
 30
0.0
 40
0.661818114194002
 50
179.999999948034
 51
359.999999948034
  0
ARC
  5
   3EA
  8
0
  6
CONTINUOUS
 62
     7
 10
-29.4832242816685
 20
-55.9939722933112
 30
0.0
 40
0.458181771365079
 50
359.999999948034
 51
539.999999948034
  0
ARC
  5
   3EB
  8
0
  6
CONTINUOUS
 62
     7
 10
-29.4832242816685
 20
-56.1212450075792
 30
0.0
 40
0.458181771365078
 50
179.999999948034
 51
359.999999948034
  0
LINE
  5
   3EC
  8
0
  6
CONTINUOUS
 62
     7
 10
-29.9414060530336
 20
-56.1212450075793
 30
0.0
 11
-29.9414060530336
 21
-55.9939722933112
 31
0.0
  0
LINE
  5
   3ED
  8
0
  6
CONTINUOUS
 62
     7
 10
-29.0250425103035
 20
-56.1212450075793
 30
0.0
 11
-29.0250425103035
 21
-55.9939722933112
 31
0.0
  0
LINE
  5
   3EE
  8
0
  6
CONTINUOUS
 62
     7
 10
-28.7227698139168
 20
-55.6376086933606
 30
0.0
 11
-28.7227698139168
 21
-55.4339723505316
 31
0.0
  0
LINE
  5
   3EF
  8
0
  6
CONTINUOUS
 62
     7
 10
-28.4809516568074
 20
-55.6376086933605
 30
0.0
 11
-28.7227698139168
 21
-55.6376086933605
 31
0.0
  0
LINE
  5
   3F0
  8
0
  6
CONTINUOUS
 62
     7
 10
-28.0354971568692
 20
-55.6376086933606
 30
0.0
 11
-28.0354971568692
 21
-55.4339723505316
 31
0.0
  0
LINE
  5
   3F1
  8
0
  6
CONTINUOUS
 62
     7
 10
-28.4809516568074
 20
-55.4339723505316
 30
0.0
 11
-28.7227698139168
 21
-55.4339723505316
 31
0.0
  0
LINE
  5
   3F2
  8
0
  6
CONTINUOUS
 62
     7
 10
-28.4809516568074
 20
-56.7830631217733
 30
0.0
 11
-28.4809516568074
 21
-55.6376086933606
 31
0.0
  0
LINE
  5
   3F3
  8
0
  6
CONTINUOUS
 62
     7
 10
-28.2773153139785
 20
-56.7830631217733
 30
0.0
 11
-28.2773153139785
 21
-55.6376086933606
 31
0.0
  0
LINE
  5
   3F4
  8
0
  6
CONTINUOUS
 62
     7
 10
-28.0354971568692
 20
-55.6376086933605
 30
0.0
 11
-28.2773153139785
 21
-55.6376086933605
 31
0.0
  0
LINE
  5
   3F5
  8
0
  6
CONTINUOUS
 62
     7
 10
-28.0354971568692
 20
-55.4339723505316
 30
0.0
 11
-28.2773153139785
 21
-55.4339723505316
 31
0.0
  0
LINE
  5
   3F6
  8
0
  6
CONTINUOUS
 62
     7
 10
-28.4809516568074
 20
-55.4339723505316
 30
0.0
 11
-28.4809516568074
 21
-55.1539723791419
 31
0.0
  0
LINE
  5
   3F7
  8
0
  6
CONTINUOUS
 62
     7
 10
-28.2773153139785
 20
-55.4339723505316
 30
0.0
 11
-28.2773153139785
 21
-55.1539723791419
 31
0.0
  0
ARC
  5
   3F8
  8
0
  6
CONTINUOUS
 62
     7
 10
-28.1500425997104
 20
-55.1539723791419
 30
0.0
 40
0.330909057097001
 50
449.999999948034
 51
539.999999948034
  0
ARC
  5
   3F9
  8
0
  6
CONTINUOUS
 62
     7
 10
-28.1500425997104
 20
-55.1539723791419
 30
0.0
 40
0.127272714268077
 50
449.999999948034
 51
539.999999948034
  0
LINE
  5
   3FA
  8
0
  6
CONTINUOUS
 62
     7
 10
-28.0354971568692
 20
-55.0266996648738
 30
0.0
 11
-28.0354971568692
 21
-54.8230633220449
 31
0.0
  0
LINE
  5
   3FB
  8
0
  6
CONTINUOUS
 62
     7
 10
-28.0354971568692
 20
-55.0266996648738
 30
0.0
 11
-28.1500425997104
 21
-55.0266996648738
 31
0.0
  0
LINE
  5
   3FC
  8
0
  6
CONTINUOUS
 62
     7
 10
-27.1859517891297
 20
-54.8230633220448
 30
0.0
 11
-27.300497231971
 21
-54.8230633220448
 31
0.0
  0
LINE
  5
   3FD
  8
0
  6
CONTINUOUS
 62
     7
 10
-27.4277699462391
 20
-56.7830631217732
 30
0.0
 11
-27.631406289068
 21
-56.7830631217732
 31
0.0
  0
LINE
  5
   3FE
  8
0
  6
CONTINUOUS
 62
     7
 10
-27.8732244461774
 20
-55.6376086933606
 30
0.0
 11
-27.8732244461774
 21
-55.4339723505316
 31
0.0
  0
LINE
  5
   3FF
  8
0
  6
CONTINUOUS
 62
     7
 10
-27.631406289068
 20
-55.6376086933605
 30
0.0
 11
-27.8732244461774
 21
-55.6376086933605
 31
0.0
  0
LINE
  5
   400
  8
0
  6
CONTINUOUS
 62
     7
 10
-27.1859517891297
 20
-55.6376086933606
 30
0.0
 11
-27.1859517891297
 21
-55.4339723505316
 31
0.0
  0
LINE
  5
   401
  8
0
  6
CONTINUOUS
 62
     7
 10
-27.631406289068
 20
-55.4339723505316
 30
0.0
 11
-27.8732244461774
 21
-55.4339723505316
 31
0.0
  0
LINE
  5
   402
  8
0
  6
CONTINUOUS
 62
     7
 10
-27.631406289068
 20
-56.7830631217733
 30
0.0
 11
-27.631406289068
 21
-55.6376086933606
 31
0.0
  0
LINE
  5
   403
  8
0
  6
CONTINUOUS
 62
     7
 10
-27.4277699462391
 20
-56.7830631217733
 30
0.0
 11
-27.4277699462391
 21
-55.6376086933606
 31
0.0
  0
LINE
  5
   404
  8
0
  6
CONTINUOUS
 62
     7
 10
-27.1859517891297
 20
-55.6376086933605
 30
0.0
 11
-27.4277699462391
 21
-55.6376086933605
 31
0.0
  0
LINE
  5
   405
  8
0
  6
CONTINUOUS
 62
     7
 10
-27.1859517891297
 20
-55.4339723505316
 30
0.0
 11
-27.4277699462391
 21
-55.4339723505316
 31
0.0
  0
LINE
  5
   406
  8
0
  6
CONTINUOUS
 62
     7
 10
-27.631406289068
 20
-55.4339723505316
 30
0.0
 11
-27.631406289068
 21
-55.1539723791419
 31
0.0
  0
LINE
  5
   407
  8
0
  6
CONTINUOUS
 62
     7
 10
-27.4277699462391
 20
-55.4339723505316
 30
0.0
 11
-27.4277699462391
 21
-55.1539723791419
 31
0.0
  0
ARC
  5
   408
  8
0
  6
CONTINUOUS
 62
     7
 10
-27.300497231971
 20
-55.1539723791419
 30
0.0
 40
0.330909057097001
 50
449.999999948034
 51
539.999999948034
  0
ARC
  5
   409
  8
0
  6
CONTINUOUS
 62
     7
 10
-27.300497231971
 20
-55.1539723791419
 30
0.0
 40
0.127272714268077
 50
449.999999948034
 51
539.999999948034
  0
LINE
  5
   40A
  8
0
  6
CONTINUOUS
 62
     7
 10
-27.1859517891297
 20
-55.0266996648738
 30
0.0
 11
-27.1859517891297
 21
-54.8230633220449
 31
0.0
  0
LINE
  5
   40B
  8
0
  6
CONTINUOUS
 62
     7
 10
-27.1859517891297
 20
-55.0266996648738
 30
0.0
 11
-27.300497231971
 21
-55.0266996648738
 31
0.0
  0
INSERT
  5
   40C
  8
255
  6
CONTINUOUS
 62
     7
  2
MOSTRA
 10
-10.670716857911
 20
-65.3321900606142
 30
0.0
 41
0.349999964237213
 42
0.349999964237213
 50
359.999999792138
 43
0.349999964237213
  0
ARC
  5
   40D
  8
0
  6
CONTINUOUS
 62
     1
 10
-35.1707062875059
 20
-2.76964319984602
 30
0.0
 40
2.97505948189176
 50
289.749485864136
 51
315.098568474349
  0
ARC
  5
   40E
  8
0
  6
CONTINUOUS
 62
     1
 10
-10.670763282154
 20
-2.76984576496348
 30
0.0
 40
2.97513823298993
 50
289.765248699809
 51
315.105491686916
  0
ARC
  5
   40F
  8
0
  6
CONTINUOUS
 62
     1
 10
13.8292754735396
 20
-2.76973348099497
 30
0.0
 40
2.97502416090334
 50
289.752736449471
 51
315.100341172749
  0
LINE
  5
   410
  8
0
  6
CONTINUOUS
 62
     1
 10
-37.2707194805148
 20
-6.61970373973499
 30
0.0
 11
-71.8332108288568
 21
-6.61970373973499
 31
0.0
  0
LINE
  5
   411
  8
0
  6
CONTINUOUS
 62
     7
 10
-37.2707194805148
 20
-6.4446948890111
 30
0.0
 11
-71.1682110303205
 21
-6.4446948890111
 31
0.0
  0
LINE
  5
   412
  8
0
  6
CONTINUOUS
 62
     1
 10
-37.2707194805148
 20
-67.8696975021089
 30
0.0
 11
-71.8332108288568
 21
-67.8696975021089
 31
0.0
  0
LINE
  5
   413
  8
0
  6
CONTINUOUS
 62
     1
 10
-37.2707194805148
 20
-68.3946974276031
 30
0.0
 11
-71.2207108914417
 21
-68.3946974276031
 31
0.0
  0
LINE
  5
   414
  8
0
  6
CONTINUOUS
 62
     1
 10
-37.2707194805148
 20
-68.2196974454845
 30
0.0
 11
-71.4832108854812
 21
-68.2196974454845
 31
0.0
  0
TEXT
  5
   415
  8
0
  6
CONTINUOUS
 62
     7
 10
-19.9963343457798
 20
-103.4159577054
 30
0.0
 40
3.00000001532688
  1
=     =
 50
359.999999948034
 41
0.916666616797451
 72
     1
 11
-10.6463348038936
 21
-101.915957706169
 31
0.0
 73
     2
  0
TEXT
  5
   416
  8
0
  6
CONTINUOUS
 62
     7
 10
37.1315904981547
 20
-49.9082792076582
 30
0.0
 40
3.00000001532688
  1
=     =
 50
89.9999999480344
 41
0.916666616797451
 72
     1
 11
35.6315904989597
 21
-40.5582796657664
 31
0.0
 73
     2
  0
INSERT
  5
   417
  8
0
  6
CONTINUOUS
 62
     7
  2
*UDIM1081
 10
0.0
 20
0.0
 30
0.0
  0
INSERT
  5
   418
  8
0
  6
CONTINUOUS
 62
     7
  2
*UDIM1082
 10
0.0
 20
0.0
 30
0.0
  0
TEXT
  5
   419
  8
0
  6
CONTINUOUS
 62
     7
 10
-72.6949845918872
 20
-49.799492182321
 30
0.0
 40
3.00000001532688
  1
=     =
 50
89.9999999480344
 41
0.916666616797451
 72
     2
 11
-72.6949845749503
 21
-31.0994931012545
 31
0.0
  0
INSERT
  5
   41A
  8
0
  6
CONTINUOUS
 62
     7
  2
*UDIM1083
 10
0.0
 20
0.0
 30
0.0
  0
INSERT
  5
   41B
  8
0
  6
CONTINUOUS
 62
     7
  2
*UDIM1084
 10
0.0
 20
0.0
 30
0.0
  0
INSERT
  5
   41C
  8
0
  6
CONTINUOUS
 62
     7
  2
*UDIM1085
 10
0.0
 20
0.0
 30
0.0
  0
INSERT
  5
   41D
  8
0
  6
CONTINUOUS
 62
     7
  2
*UDIM1086
 10
0.0
 20
0.0
 30
0.0
  0
INSERT
  5
   41E
  8
0
  6
CONTINUOUS
 62
     7
  2
*UDIM1087
 10
0.0
 20
0.0
 30
0.0
  0
INSERT
  5
   41F
  8
0
  6
CONTINUOUS
 62
     7
  2
*UDIM1088
 10
0.0
 20
0.0
 30
0.0
  0
TEXT
  5
   420
  8
0
  6
CONTINUOUS
 62
     7
 10
-26.6546385565116
 20
8.34944994491425
 30
0.0
 40
3.00000001532688
  1
=         =
 50
359.999999948034
 41
0.916666616797451
 72
     2
 11
3.0453599823229
 21
8.34944991812647
 31
0.0
  0
TEXT
  5
   421
  8
0
  6
CONTINUOUS
 62
     7
 10
-11.0564763906218
 20
35.1650463465192
 30
0.0
 40
3.00000001532688
  1
Y
 50
359.999999948034
 41
0.916666616797451
 72
     2
 11
-8.85647649620717
 21
35.1650463445349
 31
0.0
  0
TEXT
  5
   422
  8
0
  6
CONTINUOUS
 62
     7
 10
53.3309384713889
 20
-41.3214200660447
 30
0.0
 40
3.00000001532688
  1
X
 50
359.999999948034
 41
0.916666616797451
 72
     2
 11
55.5309383658035
 21
-41.321420068029
 31
0.0
  0
TEXT
  5
   423
  8
0
  6
CONTINUOUS
 62
     7
 10
-83.9674849995404
 20
-40.1960646512477
 30
0.0
 40
3.00000001532688
  1
X
 50
359.999999948034
 41
0.916666616797451
 72
     2
 11
-81.7674851051258
 21
-40.196064653232
 31
0.0
  0
TEXT
  5
   424
  8
0
  6
CONTINUOUS
 62
     7
 10
-11.6983170605348
 20
-109.349805040232
 30
0.0
 40
3.00000001532688
  1
Y
 50
359.999999948034
 41
0.916666616797451
 72
     2
 11
-9.49831716612023
 21
-109.349805042216
 31
0.0
  0
LINE
  5
   425
  8
0
  6
CONTINUOUS
 62
   130
 10
109.352443431711
 20
-23.5073549929609
 30
0.0
 11
109.439938079851
 21
-23.5948549809442
 31
0.0
  0
LINE
  5
   426
  8
0
  6
CONTINUOUS
 62
   130
 10
109.439947062731
 20
-60.1698270350689
 30
0.0
 11
109.439947062731
 21
-23.5948521345827
 31
0.0
  0
LINE
  5
   427
  8
0
  6
CONTINUOUS
 62
   130
 10
106.534940950872
 20
-3.90732744336128
 30
0.0
 11
106.639942008258
 21
-3.90732744336128
 31
0.0
  0
LINE
  5
   428
  8
0
  6
CONTINUOUS
 62
   130
 10
106.534940950872
 20
-5.30732730031013
 30
0.0
 11
106.639942008258
 21
-5.30732730031013
 31
0.0
  0
LINE
  5
   429
  8
0
  6
CONTINUOUS
 62
   130
 10
113.814951956271
 20
-56.2323123866807
 30
0.0
 11
113.814951956271
 21
-53.169828721332
 31
0.0
  0
LINE
  5
   42A
  8
0
  6
CONTINUOUS
 62
   130
 10
113.814951956271
 20
-22.1948479080655
 30
0.0
 11
113.814951956271
 21
-21.6698479617097
 31
0.0
  0
LINE
  5
   42B
  8
0
  6
DASHDOT
 62
     2
 10
59.1079172216783
 20
-39.8696977253961
 30
0.0
 11
134.036051433613
 21
-39.8699056006921
 31
0.0
  0
LINE
  5
   42C
  8
0
  6
CONTINUOUS
 62
   212
 10
108.739947134257
 20
-15.3698379242683
 30
0.0
 11
123.964748251365
 21
-15.3698801628756
 31
0.0
  0
LINE
  5
   42D
  8
0
  6
CONTINUOUS
 62
   212
 10
108.739947134257
 20
-64.3698329176667
 30
0.0
 11
123.964746309335
 21
-64.3698751562686
 31
0.0
  0
LINE
  5
   42E
  8
0
  6
CONTINUOUS
 62
     7
 10
113.814951956271
 20
-64.3698469973998
 30
0.0
 11
113.814951956271
 21
-15.3698520040014
 31
0.0
  0
LINE
  5
   42F
  8
0
  6
CONTINUOUS
 62
   212
 10
124.314747244587
 20
-20.797073419311
 30
0.0
 11
124.314747244587
 21
-15.7198801271115
 31
0.0
  0
LINE
  5
   430
  8
0
  6
CONTINUOUS
 62
   212
 10
124.314639425175
 20
-15.8948978382466
 30
0.0
 11
124.314748906973
 21
-16.4196895021465
 31
0.0
  0
LINE
  5
   431
  8
0
  6
CONTINUOUS
 62
     7
 10
106.534762505039
 20
-3.73446738023073
 30
0.0
 11
106.639762394174
 21
-3.73446738023073
 31
0.0
  0
LINE
  5
   432
  8
0
  6
CONTINUOUS
 62
     7
 10
109.064133638209
 20
-54.4588350638464
 30
0.0
 11
109.089761757474
 21
-54.396963161574
 31
0.0
  0
LINE
  5
   433
  8
0
  6
CONTINUOUS
 62
   212
 10
124.314747244587
 20
-64.0198751920328
 30
0.0
 11
124.314747244587
 21
-39.0966145399845
 31
0.0
  0
ARC
  5
   434
  8
0
  6
CONTINUOUS
 62
   212
 10
123.96474728035
 20
-64.0198751920328
 30
0.0
 40
0.349999964237213
 50
269.999841042657
 51
360.0
  0
ARC
  5
   435
  8
0
  6
CONTINUOUS
 62
   212
 10
123.96474728035
 20
-15.7198801271115
 30
0.0
 40
0.349999964237213
 50
0.0
 51
89.999841042657
  0
LINE
  5
   436
  8
0
  6
CONTINUOUS
 62
     7
 10
113.814951956271
 20
-64.3698469973998
 30
0.0
 11
113.814951956271
 21
-15.3698520040014
 31
0.0
  0
LINE
  5
   437
  8
0
  6
CONTINUOUS
 62
     1
 10
122.389747441282
 20
-56.2323877266005
 30
0.0
 11
122.389747441282
 21
-55.5323877981261
 31
0.0
  0
LINE
  5
   438
  8
0
  6
CONTINUOUS
 62
     1
 10
122.389747441282
 20
-67.8698704290757
 30
0.0
 11
123.089747369757
 21
-67.8698704290757
 31
0.0
  0
LINE
  5
   439
  8
0
  6
CONTINUOUS
 62
     1
 10
122.389747441282
 20
-18.4323929241254
 30
0.0
 11
122.389747441282
 21
-17.7323929956509
 31
0.0
  0
LINE
  5
   43A
  8
0
  6
CONTINUOUS
 62
     1
 10
122.389747441282
 20
-11.8698780929632
 30
0.0
 11
123.089747369757
 21
-11.8698780929632
 31
0.0
  0
LINE
  5
   43B
  8
0
  6
CONTINUOUS
 62
     1
 10
122.389747441282
 20
-55.5323877981261
 30
0.0
 11
122.389747441282
 21
-18.4323915889815
 31
0.0
  0
LINE
  5
   43C
  8
0
  6
CONTINUOUS
 62
     1
 10
123.089747369757
 20
-65.1573881497933
 30
0.0
 11
123.089747369757
 21
-8.80739390760201
 31
0.0
  0
LINE
  5
   43D
  8
0
  6
CONTINUOUS
 62
     1
 10
123.089747369757
 20
-76.7948695171247
 30
0.0
 11
124.314747244587
 21
-76.7948695171247
 31
0.0
  0
LINE
  5
   43E
  8
0
  6
CONTINUOUS
 62
     1
 10
124.314747244587
 20
-76.7948695171247
 30
0.0
 11
124.314747244587
 21
-2.94487900491423
 31
0.0
  0
LINE
  5
   43F
  8
0
  6
CONTINUOUS
 62
     1
 10
123.089747369757
 20
-2.94487900491423
 30
0.0
 11
123.614747316113
 21
-2.94487900491423
 31
0.0
  0
LINE
  5
   440
  8
0
  6
CONTINUOUS
 62
     1
 10
123.96474728035
 20
-2.94487900491423
 30
0.0
 11
124.314747244587
 21
-2.94487900491423
 31
0.0
  0
LINE
  5
   441
  8
0
  6
CONTINUOUS
 62
     1
 10
123.614747316113
 20
-2.94487900491423
 30
0.0
 11
123.96474728035
 21
-2.94487900491423
 31
0.0
  0
LINE
  5
   442
  8
0
  6
CONTINUOUS
 62
     7
 10
123.089747369757
 20
-8.80739390760201
 30
0.0
 11
123.089747369757
 21
16.6377050567086
 31
0.0
  0
LINE
  5
   443
  8
0
  6
CONTINUOUS
 62
     7
 10
123.089747369757
 20
-98.9139532797392
 30
0.0
 11
123.089747369757
 21
-65.1573868146494
 31
0.0
  0
LINE
  5
   444
  8
0
  6
CONTINUOUS
 62
     7
 10
119.945610656129
 20
-99.8279465104451
 30
0.0
 11
125.534394786847
 21
-98.2032999608179
 31
0.0
  0
LINE
  5
   445
  8
0
  6
CONTINUOUS
 62
     7
 10
120.660455137965
 20
18.186378854476
 30
0.0
 11
125.859324096772
 21
14.8720998932365
 31
0.0
  0
LINE
  5
   446
  8
0
  6
CONTINUOUS
 62
     7
 10
122.389747441282
 20
-68.2198703933129
 30
0.0
 11
123.089747369757
 21
-68.2198703933129
 31
0.0
  0
LINE
  5
   447
  8
0
  6
CONTINUOUS
 62
     7
 10
122.389747441282
 20
-11.5198781287259
 30
0.0
 11
123.089747369757
 21
-11.5198781287259
 31
0.0
  0
LINE
  5
   448
  8
0
  6
CONTINUOUS
 62
     7
 10
122.389747441282
 20
-17.7323929956509
 30
0.0
 11
122.389747441282
 21
17.0839550111111
 31
0.0
  0
LINE
  5
   449
  8
0
  6
CONTINUOUS
 62
     7
 10
122.389747441282
 20
-99.11744163104
 30
0.0
 11
122.389747441282
 21
-56.2323877266005
 31
0.0
  0
INSERT
  5
   44A
  8
0
  6
CONTINUOUS
 62
     7
  2
*HATCH406
 10
60.2649574279785
 20
-65.3323211669922
 30
0.0
 41
0.349999964237213
 42
0.349999964237213
 43
0.349999964237213
  0
INSERT
  5
   44B
  8
0
  6
CONTINUOUS
 62
     7
  2
*HATCH407
 10
60.2649574279785
 20
-65.3323211669922
 30
0.0
 41
0.349999964237213
 42
0.349999964237213
 43
0.349999964237213
  0
LINE
  5
   44C
  8
0
  6
CONTINUOUS
 62
     7
 10
124.314747244587
 20
-35.1448509464959
 30
0.0
 11
126.064747065773
 21
-35.1448509464959
 31
0.0
  0
LINE
  5
   44D
  8
0
  6
CONTINUOUS
 62
     7
 10
124.314747244587
 20
-44.5948486536638
 30
0.0
 11
126.064747065773
 21
-44.5948486536638
 31
0.0
  0
LINE
  5
   44E
  8
0
  6
CONTINUOUS
 62
     7
 10
126.064747065773
 20
-44.5948486536638
 30
0.0
 11
126.064747065773
 21
-35.1448509464959
 31
0.0
  0
LINE
  5
   44F
  8
0
  6
CONTINUOUS
 62
     7
 10
119.064748448601
 20
-14.8448758469312
 30
0.0
 11
119.93975036191
 21
-14.8448758469312
 31
0.0
  0
LINE
  5
   450
  8
0
  6
CONTINUOUS
 62
     7
 10
119.064748448601
 20
-14.8448758469312
 30
0.0
 11
119.064748448601
 21
-11.1698762224404
 31
0.0
  0
LINE
  5
   451
  8
0
  6
CONTINUOUS
 62
     7
 10
120.289750326147
 20
-9.94487634761018
 30
0.0
 11
121.16475023674
 21
-9.94487634761018
 31
0.0
  0
LINE
  5
   452
  8
0
  6
CONTINUOUS
 62
     7
 10
121.514750200977
 20
-9.59487638337297
 30
0.0
 11
121.514750200977
 21
-6.79487666947526
 31
0.0
  0
LINE
  5
   453
  8
0
  6
CONTINUOUS
 62
     7
 10
121.514750200977
 20
-6.79487666947526
 30
0.0
 11
122.389747441282
 21
-6.79487666947526
 31
0.0
  0
LINE
  5
   454
  8
0
  6
CONTINUOUS
 62
     7
 10
122.389747441282
 20
-9.59487638337297
 30
0.0
 11
122.389747441282
 21
-6.79487666947526
 31
0.0
  0
LINE
  5
   455
  8
0
  6
CONTINUOUS
 62
     7
 10
120.289750326147
 20
-10.8198762582032
 30
0.0
 11
121.16475023674
 21
-10.8198762582032
 31
0.0
  0
LINE
  5
   456
  8
0
  6
CONTINUOUS
 62
     7
 10
119.93975036191
 20
-14.8448758469312
 30
0.0
 11
119.93975036191
 21
-11.1698762224404
 31
0.0
  0
ARC
  5
   457
  8
0
  6
CONTINUOUS
 62
     7
 10
121.164751688288
 20
-9.5948766183415
 30
0.0
 40
0.349998906467009
 50
269.99984089121
 51
360.00025299209
  0
ARC
  5
   458
  8
0
  6
CONTINUOUS
 62
     7
 10
120.289755454874
 20
-11.1698806626465
 30
0.0
 40
1.22500633342002
 50
90.000186890172
 51
179.999680705376
  0
ARC
  5
   459
  8
0
  6
CONTINUOUS
 62
     7
 10
120.289734839296
 20
-11.1698619092681
 30
0.0
 40
0.349982401674234
 50
89.997764198722
 51
180.00116981594
  0
ARC
  5
   45A
  8
0
  6
CONTINUOUS
 62
     7
 10
121.164757010073
 20
-9.59488759979882
 30
0.0
 40
1.22498974441176
 50
269.999653399338
 51
360.000420324806
  0
LINE
  5
   45B
  8
0
  6
CONTINUOUS
 62
     7
 10
119.064748448601
 20
-11.6948761687962
 30
0.0
 11
119.93975036191
 21
-11.6948761687962
 31
0.0
  0
INSERT
  5
   45C
  8
0
  6
CONTINUOUS
 62
     7
  2
*HATCH408
 10
60.2649574279785
 20
-65.3323211669922
 30
0.0
 41
0.349999964237213
 42
0.349999964237213
 43
0.349999964237213
  0
LINE
  5
   45D
  8
0
  6
CONTINUOUS
 62
     7
 10
120.464747637978
 20
-12.9198707030525
 30
0.0
 11
121.164747566452
 21
-12.9198726450826
 31
0.0
  0
LINE
  5
   45E
  8
0
  6
CONTINUOUS
 62
     7
 10
121.164747566452
 20
-15.3698723947525
 30
0.0
 11
121.164747566452
 21
-12.9198726450826
 31
0.0
  0
LINE
  5
   45F
  8
0
  6
CONTINUOUS
 62
     7
 10
120.464747637978
 20
-15.3698723947525
 30
0.0
 11
120.464747637978
 21
-12.9198726450826
 31
0.0
  0
LINE
  5
   460
  8
0
  6
CONTINUOUS
 62
   130
 10
73.564972132444
 20
-39.344816054348
 30
0.0
 11
73.564972132444
 21
-34.7948165192643
 31
0.0
  0
LINE
  5
   461
  8
0
  6
CONTINUOUS
 62
   130
 10
73.2149724602696
 20
-1.71981989884762
 30
0.0
 11
74.0899720370766
 21
-1.71981989884762
 31
0.0
  0
LINE
  5
   462
  8
0
  6
CONTINUOUS
 62
   130
 10
73.2149724602696
 20
-5.21982488179538
 30
0.0
 11
74.0899720370766
 21
-5.21982488179538
 31
0.0
  0
LINE
  5
   463
  8
0
  6
CONTINUOUS
 62
   130
 10
73.2149724602696
 20
-5.21982488179538
 30
0.0
 11
73.2149724602696
 21
-4.75199045694217
 31
0.0
  0
LINE
  5
   464
  8
0
  6
CONTINUOUS
 62
   130
 10
73.2149724602696
 20
-4.75195841348841
 30
0.0
 11
73.2149724602696
 21
-4.14711686152123
 31
0.0
  0
LINE
  5
   465
  8
0
  6
CONTINUOUS
 62
   130
 10
73.2149724602696
 20
-4.14707413691622
 30
0.0
 11
73.2149724602696
 21
-1.71982023263359
 31
0.0
  0
LINE
  5
   466
  8
0
  6
CONTINUOUS
 62
     3
 10
73.7399720728394
 20
-67.5198135092297
 30
0.0
 11
74.089972016215
 21
-67.5198135092297
 31
0.0
  0
LINE
  5
   467
  8
0
  6
CONTINUOUS
 62
   130
 10
73.7399720728394
 20
-62.2698190524611
 30
0.0
 11
73.7399720728394
 21
-59.2948140158692
 31
0.0
  0
LINE
  5
   468
  8
0
  6
CONTINUOUS
 62
     3
 10
73.7399720728394
 20
-39.0976221709147
 30
0.0
 11
73.7399720728394
 21
-34.7948165192643
 31
0.0
  0
LINE
  5
   469
  8
0
  6
CONTINUOUS
 62
   130
 10
73.7399720728393
 20
-10.294819015916
 30
0.0
 11
74.0899720370766
 21
-10.2948243564916
 31
0.0
  0
LINE
  5
   46A
  8
0
  6
CONTINUOUS
 62
   130
 10
74.0899720370766
 20
-10.294824363235
 30
0.0
 11
74.0899720370766
 21
1.95517438506749
 31
0.0
  0
LINE
  5
   46B
  8
0
  6
CONTINUOUS
 62
     3
 10
74.089972016215
 20
-67.5198135092297
 30
0.0
 11
89.6523987097469
 21
-67.5198135092297
 31
0.0
  0
LINE
  5
   46C
  8
0
  6
CONTINUOUS
 62
     3
 10
99.6574644178154
 20
0.905179832931481
 30
0.0
 11
101.039953240754
 21
0.905179832931481
 31
0.0
  0
LINE
  5
   46D
  8
0
  6
CONTINUOUS
 62
   130
 10
73.7399707512698
 20
-44.4916438133231
 30
0.0
 11
74.0899720370766
 21
-44.3978645057972
 31
0.0
  0
LINE
  5
   46E
  8
0
  6
CONTINUOUS
 62
     3
 10
73.7399746504349
 20
-39.0976271362477
 30
0.0
 11
76.6217779312909
 21
-39.8698314702073
 31
0.0
  0
LINE
  5
   46F
  8
0
  6
CONTINUOUS
 62
     3
 10
74.9649495172507
 20
-39.8698314407323
 30
0.0
 11
106.884946255685
 21
-39.86981628314
 31
0.0
  0
LINE
  5
   470
  8
0
  6
CONTINUOUS
 62
     3
 10
74.9649495172507
 20
-43.7198417285261
 30
0.0
 11
106.884946255685
 21
-43.7198265717866
 31
0.0
  0
LINE
  5
   471
  8
0
  6
CONTINUOUS
 62
   130
 10
74.0899720370766
 20
-44.3978817916909
 30
0.0
 11
74.0899720370766
 21
-39.344816054348
 31
0.0
  0
LINE
  5
   472
  8
0
  6
DASHDOT
 62
   130
 10
73.2149721264836
 20
-67.5198131754437
 30
0.0
 11
73.2149721264836
 21
8.19431378052498
 31
0.0
  0
LINE
  5
   473
  8
0
  6
CONTINUOUS
 62
   130
 10
73.2149721264836
 20
-62.2698137118855
 30
0.0
 11
73.7399717390534
 21
-62.2698137118855
 31
0.0
  0
LINE
  5
   474
  8
0
  6
CONTINUOUS
 62
     3
 10
73.2149722377453
 20
-67.5198131754436
 30
0.0
 11
73.7399721841012
 21
-67.5198135092296
 31
0.0
  0
LINE
  5
   475
  8
0
  6
CONTINUOUS
 62
     3
 10
89.6523902885177
 20
-67.5198151022679
 30
0.0
 11
89.8399512895226
 21
-68.2198146660109
 31
0.0
  0
LINE
  5
   476
  8
0
  6
CONTINUOUS
 62
     3
 10
89.664965105057
 20
-68.2198131039181
 30
0.0
 11
101.03994792104
 21
-68.2198131039181
 31
0.0
  0
LINE
  5
   477
  8
0
  6
CONTINUOUS
 62
     3
 10
99.1149481177349
 20
-43.807336960675
 30
0.0
 11
99.1149481177349
 21
-43.7198262884644
 31
0.0
  0
LINE
  5
   478
  8
0
  6
CONTINUOUS
 62
     3
 10
99.1149481177349
 20
-39.8698160007038
 30
0.0
 11
99.1149481177349
 21
-39.782337371947
 31
0.0
  0
LINE
  5
   479
  8
0
  6
CONTINUOUS
 62
     3
 10
99.1149481177348
 20
-39.7823373719471
 30
0.0
 11
106.884946255685
 21
-39.7823373719471
 31
0.0
  0
LINE
  5
   47A
  8
0
  6
CONTINUOUS
 62
     3
 10
99.1149447190656
 20
-43.8073389013858
 30
0.0
 11
106.884946255685
 21
-43.8073820141632
 31
0.0
  0
LINE
  5
   47B
  8
0
  6
CONTINUOUS
 62
     1
 10
73.2149737954135
 20
-58.2885641877464
 30
0.0
 11
73.2149737954135
 21
-55.7510751281779
 31
0.0
  0
LINE
  5
   47C
  8
0
  6
CONTINUOUS
 62
   130
 10
73.5649720900522
 20
-54.7448144807854
 30
0.0
 11
73.7399720721708
 21
-54.7448144807854
 31
0.0
  0
LINE
  5
   47D
  8
0
  6
CONTINUOUS
 62
   130
 10
73.5649720900522
 20
-59.2948140158692
 30
0.0
 11
73.7399720721708
 21
-59.2948140158692
 31
0.0
  0
LINE
  5
   47E
  8
0
  6
CONTINUOUS
 62
   130
 10
73.5649724245068
 20
-34.7948165192643
 30
0.0
 11
73.7399727404113
 21
-34.7948165192643
 31
0.0
  0
LINE
  5
   47F
  8
0
  6
CONTINUOUS
 62
   130
 10
73.5649724036452
 20
-39.344816054348
 30
0.0
 11
74.089972016215
 21
-39.344816054348
 31
0.0
  0
LINE
  5
   480
  8
0
  6
CONTINUOUS
 62
     1
 10
73.2149721264836
 20
-55.7510750591187
 30
0.0
 11
73.5649740934366
 21
-55.7510750591187
 31
0.0
  0
LINE
  5
   481
  8
0
  6
CONTINUOUS
 62
     1
 10
73.2149724602696
 20
-58.2885641186872
 30
0.0
 11
73.5649740934366
 21
-58.2885641186872
 31
0.0
  0
LINE
  5
   482
  8
0
  6
CONTINUOUS
 62
     3
 10
108.739947134257
 20
-68.219829125645
 30
0.0
 11
108.739947134257
 21
-60.2573299392484
 31
0.0
  0
LINE
  5
   483
  8
0
  6
CONTINUOUS
 62
     3
 10
108.739947134257
 20
-23.5073390349166
 30
0.0
 11
108.739947134257
 21
-6.61984076047111
 31
0.0
  0
LINE
  5
   484
  8
0
  6
CONTINUOUS
 62
     3
 10
106.989947313071
 20
-6.61984076047111
 30
0.0
 11
108.739947134257
 21
-6.61984076047111
 31
0.0
  0
LINE
  5
   485
  8
0
  6
CONTINUOUS
 62
     3
 10
106.989947313071
 20
-68.219829125645
 30
0.0
 11
108.739947134257
 21
-68.219829125645
 31
0.0
  0
LINE
  5
   486
  8
0
  6
CONTINUOUS
 62
     3
 10
109.439947062731
 20
-60.2573299392484
 30
0.0
 11
109.439947062731
 21
-23.5073390349166
 31
0.0
  0
LINE
  5
   487
  8
0
  6
CONTINUOUS
 62
     3
 10
108.739947134257
 20
-60.2573299392484
 30
0.0
 11
109.439947062731
 21
-60.2573299392484
 31
0.0
  0
LINE
  5
   488
  8
0
  6
CONTINUOUS
 62
     3
 10
108.739947134257
 20
-23.5073390349166
 30
0.0
 11
109.439947062731
 21
-23.5073390349166
 31
0.0
  0
LINE
  5
   489
  8
0
  6
CONTINUOUS
 62
     3
 10
99.9899480283266
 20
-33.3948239605888
 30
0.0
 11
99.9899480283266
 21
-7.42617188344872
 31
0.0
  0
LINE
  5
   48A
  8
0
  6
CONTINUOUS
 62
     3
 10
99.9899471862051
 20
-33.394823820231
 30
0.0
 11
101.039947380431
 21
-33.5698291188045
 31
0.0
  0
LINE
  5
   48B
  8
0
  6
CONTINUOUS
 62
     3
 10
99.9899476952342
 20
-33.3948263961357
 30
0.0
 11
99.9899480290202
 21
-33.2198317544297
 31
0.0
  0
LINE
  5
   48C
  8
0
  6
CONTINUOUS
 62
     3
 10
99.9899473607963
 20
-8.894830793045
 30
0.0
 11
99.9899476945823
 21
-9.0698307751636
 31
0.0
  0
LINE
  5
   48D
  8
0
  6
CONTINUOUS
 62
     3
 10
74.0899720370766
 20
0.9051865867917
 30
0.0
 11
107.409942504711
 21
0.905158651490936
 31
0.0
  0
LINE
  5
   48E
  8
0
  6
CONTINUOUS
 62
     3
 10
101.039947921038
 20
1.95517438506749
 30
0.0
 11
107.689947241545
 21
1.95517438506749
 31
0.0
  0
LINE
  5
   48F
  8
0
  6
CONTINUOUS
 62
     3
 10
101.039947921038
 20
-68.2198131039181
 30
0.0
 11
106.989941972495
 21
-68.2198131039181
 31
0.0
  0
LINE
  5
   490
  8
0
  6
CONTINUOUS
 62
     3
 10
101.039947921038
 20
-67.5198185160193
 30
0.0
 11
106.884946255685
 21
-67.5198185160193
 31
0.0
  0
LINE
  5
   491
  8
0
  6
CONTINUOUS
 62
     3
 10
107.689947241545
 20
-6.61984076047111
 30
0.0
 11
107.689947241545
 21
-6.44483543777687
 31
0.0
  0
LINE
  5
   492
  8
0
  6
CONTINUOUS
 62
     3
 10
101.039947921038
 20
-68.2198131039181
 30
0.0
 11
101.039947921038
 21
-43.8073495824949
 31
0.0
  0
LINE
  5
   493
  8
0
  6
CONTINUOUS
 62
     3
 10
101.039947921038
 20
-7.14483437386308
 30
0.0
 11
101.039947921038
 21
1.95517438506749
 31
0.0
  0
LINE
  5
   494
  8
0
  6
CONTINUOUS
 62
     3
 10
107.689947241545
 20
1.95517438506749
 30
0.0
 11
107.864947223664
 21
1.95517438506749
 31
0.0
  0
LINE
  5
   495
  8
0
  6
CONTINUOUS
 62
     3
 10
107.689947241545
 20
-6.44483543777687
 30
0.0
 11
107.864947223664
 21
-6.44483543777687
 31
0.0
  0
LINE
  5
   496
  8
0
  6
CONTINUOUS
 62
     3
 10
107.864947223664
 20
-6.44483543777687
 30
0.0
 11
107.864947223664
 21
1.95517438506749
 31
0.0
  0
LINE
  5
   497
  8
0
  6
CONTINUOUS
 62
     3
 10
106.884946255685
 20
-39.7823373719471
 30
0.0
 11
106.884946255685
 21
-6.44484611892813
 31
0.0
  0
LINE
  5
   498
  8
0
  6
CONTINUOUS
 62
     3
 10
106.884946255685
 20
-67.5198185160193
 30
0.0
 11
106.884946255685
 21
-43.8073820141632
 31
0.0
  0
LINE
  5
   499
  8
0
  6
CONTINUOUS
 62
     3
 10
106.884942541557
 20
-6.44484127985162
 30
0.0
 11
107.689943527418
 21
-6.44483593927604
 31
0.0
  0
LINE
  5
   49A
  8
0
  6
CONTINUOUS
 62
     3
 10
107.40994620204
 20
-6.44484611892813
 30
0.0
 11
107.40994620204
 21
0.905163811204602
 31
0.0
  0
LINE
  5
   49B
  8
0
  6
CONTINUOUS
 62
     3
 10
107.68994190097
 20
-6.61983007931985
 30
0.0
 11
108.739947134257
 21
-6.61983007931985
 31
0.0
  0
LINE
  5
   49C
  8
0
  6
CONTINUOUS
 62
     3
 10
108.739947134257
 20
-23.5073283537654
 30
0.0
 11
109.439947062731
 21
-23.5073283537654
 31
0.0
  0
LINE
  5
   49D
  8
0
  6
CONTINUOUS
 62
     3
 10
106.989947313071
 20
-68.219829125645
 30
0.0
 11
106.989947313071
 21
-6.61984076047111
 31
0.0
  0
LINE
  5
   49E
  8
0
  6
CONTINUOUS
 62
     3
 10
99.9899472967144
 20
-7.42617616591102
 30
0.0
 11
101.039946836706
 21
-7.1448346644037
 31
0.0
  0
LINE
  5
   49F
  8
0
  6
CONTINUOUS
 62
     3
 10
106.884947891158
 20
-47.7623358134785
 30
0.0
 11
106.989948945119
 21
-47.7808495814556
 31
0.0
  0
LINE
  5
   4A0
  8
0
  6
CONTINUOUS
 62
     3
 10
106.884948167553
 20
-67.5198131623533
 30
0.0
 11
106.989943878899
 21
-67.5889095255867
 31
0.0
  0
LINE
  5
   4A1
  8
0
  6
CONTINUOUS
 62
     3
 10
106.884944531179
 20
-35.8273335335746
 30
0.0
 11
106.989945584869
 21
-35.8088177593521
 31
0.0
  0
LINE
  5
   4A2
  8
0
  6
CONTINUOUS
 62
     3
 10
106.884944800351
 20
-9.48220535810006
 30
0.0
 11
106.989940511273
 21
-9.52690596999655
 31
0.0
  0
LINE
  5
   4A3
  8
0
  6
CONTINUOUS
 62
     3
 10
106.884950508923
 20
-7.95744395849331
 30
0.0
 11
106.989946225265
 21
-7.91274868688328
 31
0.0
  0
LINE
  5
   4A4
  8
0
  6
CONTINUOUS
 62
     2
 10
73.2149721264836
 20
-88.1698164060151
 30
0.0
 11
73.9149667143824
 21
-88.1698164060151
 31
0.0
  0
LINE
  5
   4A5
  8
0
  6
CONTINUOUS
 62
     2
 10
73.2149721264836
 20
-88.1698164060151
 30
0.0
 11
73.2149721264836
 21
-84.6698221042186
 31
0.0
  0
LINE
  5
   4A6
  8
0
  6
CONTINUOUS
 62
     3
 10
92.8550691704177
 20
-90.8648163976704
 30
0.0
 11
106.884962277413
 21
-90.8648163976704
 31
0.0
  0
LINE
  5
   4A7
  8
0
  6
CONTINUOUS
 62
     2
 10
89.835559112284
 20
-91.8448160305048
 30
0.0
 11
107.864963245392
 21
-91.8448160305048
 31
0.0
  0
LINE
  5
   4A8
  8
0
  6
CONTINUOUS
 62
     3
 10
73.214966785908
 20
-67.6948184981381
 30
0.0
 11
89.664965105057
 21
-67.6948184981381
 31
0.0
  0
LINE
  5
   4A9
  8
0
  6
CONTINUOUS
 62
     2
 10
107.864963245392
 20
-91.8448160305058
 30
0.0
 11
107.864963245392
 21
-83.4448222293883
 31
0.0
  0
LINE
  5
   4AA
  8
0
  6
CONTINUOUS
 62
     2
 10
73.214966785908
 20
-95.6143201688733
 30
0.0
 11
73.214966785908
 21
-67.6948184981381
 31
0.0
  0
LINE
  5
   4AB
  8
0
  6
CONTINUOUS
 62
     2
 10
106.884963612557
 20
-83.4448222293884
 30
0.0
 11
107.864963245392
 21
-83.4448222293884
 31
0.0
  0
LINE
  5
   4AC
  8
0
  6
CONTINUOUS
 62
     3
 10
106.884963612557
 20
-90.8648150625265
 30
0.0
 11
106.884963612557
 21
-83.4448222293884
 31
0.0
  0
LINE
  5
   4AD
  8
0
  6
CONTINUOUS
 62
     3
 10
89.664965105057
 20
-68.2198237850696
 30
0.0
 11
89.664965105057
 21
-67.6948184981381
 31
0.0
  0
LINE
  5
   4AE
  8
0
  6
CONTINUOUS
 62
     2
 10
106.884963612557
 20
-82.0448223724395
 30
0.0
 11
106.884963612557
 21
-68.2198237850696
 31
0.0
  0
LINE
  5
   4AF
  8
0
  6
CONTINUOUS
 62
     3
 10
93.427464720607
 20
-91.8448160305051
 30
0.0
 11
93.427464720607
 21
-90.8648163976696
 31
0.0
  0
LINE
  5
   4B0
  8
0
  6
CONTINUOUS
 62
     2
 10
73.9149667143824
 20
-91.8448160305048
 30
0.0
 11
73.9149667143824
 21
-88.1698164060151
 31
0.0
  0
LINE
  5
   4B1
  8
0
  6
CONTINUOUS
 62
     3
 10
93.3443867261662
 20
-91.8448160305052
 30
0.0
 11
93.3443867261662
 21
-90.8648173990277
 31
0.0
  0
LINE
  5
   4B2
  8
0
  6
CONTINUOUS
 62
     7
 10
108.739963423014
 20
-82.0448225421702
 30
0.0
 11
108.739963423014
 21
-68.3948239369189
 31
0.0
  0
LINE
  5
   4B3
  8
0
  6
CONTINUOUS
 62
     7
 10
106.884963612557
 20
-68.3948239369189
 30
0.0
 11
108.739963423014
 21
-68.3948239369189
 31
0.0
  0
LINE
  5
   4B4
  8
0
  6
CONTINUOUS
 62
     7
 10
106.884963612557
 20
-82.0448225421702
 30
0.0
 11
108.739963423014
 21
-82.0448225421702
 31
0.0
  0
LINE
  5
   4B5
  8
0
  6
CONTINUOUS
 62
     7
 10
107.864963512421
 20
-82.0448225421702
 30
0.0
 11
107.864963512421
 21
-68.3948239369189
 31
0.0
  0
LINE
  5
   4B6
  8
0
  6
CONTINUOUS
 62
     3
 10
101.039947921038
 20
-39.7823373719471
 30
0.0
 11
101.039947921038
 21
-33.5698433473121
 31
0.0
  0
LINE
  5
   4B7
  8
0
  6
CONTINUOUS
 62
     3
 10
106.884946255685
 20
-43.7198265717866
 30
0.0
 11
106.884946255685
 21
-39.86981628314
 31
0.0
  0
LINE
  5
   4B8
  8
0
  6
CONTINUOUS
 62
     3
 10
74.9649495172507
 20
-43.7198265717866
 30
0.0
 11
74.9649495172507
 21
-39.8698314407323
 31
0.0
  0
LINE
  5
   4B9
  8
0
  6
CONTINUOUS
 62
     7
 10
74.107471080122
 20
1.95517362085867
 30
0.0
 11
78.6574706152071
 21
1.95516952150084
 31
0.0
  0
LINE
  5
   4BA
  8
0
  6
CONTINUOUS
 62
   130
 10
78.6574642270787
 20
1.95517438506749
 30
0.0
 11
101.039969283342
 21
1.95517438506749
 31
0.0
  0
LINE
  5
   4BB
  8
0
  6
DASHDOT
 62
   130
 10
72.1649668931963
 20
-96.0238205736833
 30
0.0
 11
72.1649668931963
 21
7.69809336011485
 31
0.0
  0
LINE
  5
   4BC
  8
0
  6
CONTINUOUS
 62
     3
 10
74.0899720370766
 20
-44.3978645057972
 30
0.0
 11
76.6205019739883
 21
-43.7198345819639
 31
0.0
  0
LINE
  5
   4BD
  8
0
  6
CONTINUOUS
 62
     3
 10
74.0899720370766
 20
-39.344816054348
 30
0.0
 11
74.0899720370766
 21
-39.1914080194861
 31
0.0
  0
LINE
  5
   4BE
  8
0
  6
CONTINUOUS
 62
   130
 10
73.7399720728394
 20
-34.7948165192643
 30
0.0
 11
73.7399720728394
 21
-10.2948190226593
 31
0.0
  0
LINE
  5
   4BF
  8
0
  6
CONTINUOUS
 62
   130
 10
73.7399720728394
 20
-54.7448144807854
 30
0.0
 11
73.7399720728394
 21
-44.4916462779597
 31
0.0
  0
LINE
  5
   4C0
  8
0
  6
CONTINUOUS
 62
     3
 10
73.7399720728394
 20
-59.2948140158692
 30
0.0
 11
73.7399720728394
 21
-54.7448144807854
 31
0.0
  0
LINE
  5
   4C1
  8
0
  6
CONTINUOUS
 62
   130
 10
73.5649720907208
 20
-59.2948140158692
 30
0.0
 11
73.5649720907208
 21
-58.2885641186872
 31
0.0
  0
LINE
  5
   4C2
  8
0
  6
CONTINUOUS
 62
   130
 10
73.5649720907208
 20
-55.7510750591187
 30
0.0
 11
73.5649720907208
 21
-54.7448144807854
 31
0.0
  0
LINE
  5
   4C3
  8
0
  6
CONTINUOUS
 62
     3
 10
73.5649720907208
 20
-58.2885641186872
 30
0.0
 11
73.5649720907208
 21
-55.7510750591187
 31
0.0
  0
LINE
  5
   4C4
  8
0
  6
CONTINUOUS
 62
     2
 10
106.884963612557
 20
-83.4448222293884
 30
0.0
 11
106.884963612557
 21
-82.0448223724395
 31
0.0
  0
LINE
  5
   4C5
  8
0
  6
CONTINUOUS
 62
     2
 10
73.9149667143824
 20
-91.8448160305056
 30
0.0
 11
89.8355484311327
 21
-91.8448160305056
 31
0.0
  0
LINE
  5
   4C6
  8
0
  6
DASHDOT
 62
     2
 10
67.3402477330897
 20
-3.46983878073891
 30
0.0
 11
75.9930913728984
 21
-3.46983467183259
 31
0.0
  0
LINE
  5
   4C7
  8
0
  6
CONTINUOUS
 62
     7
 10
70.7649670362475
 20
-2.06983729752098
 30
0.0
 11
72.1649668931963
 21
-2.06983663271429
 31
0.0
  0
LINE
  5
   4C8
  8
0
  6
CONTINUOUS
 62
     7
 10
70.7649670362475
 20
-4.86983701141899
 30
0.0
 11
72.1649668931963
 21
-4.86983634661231
 31
0.0
  0
LINE
  5
   4C9
  8
0
  6
CONTINUOUS
 62
     7
 10
70.7649670362475
 20
-4.86983701141899
 30
0.0
 11
70.7649670362475
 21
-2.06983729752098
 31
0.0
  0
LINE
  5
   4CA
  8
0
  6
CONTINUOUS
 62
     7
 10
69.3649671792986
 20
-4.34483772986979
 30
0.0
 11
69.3649671792986
 21
-2.59483790868353
 31
0.0
  0
LINE
  5
   4CB
  8
0
  6
CONTINUOUS
 62
     7
 10
69.3649671792986
 20
-2.59483790868353
 30
0.0
 11
72.1649668931963
 21
-2.59483657907018
 31
0.0
  0
LINE
  5
   4CC
  8
0
  6
CONTINUOUS
 62
     7
 10
69.3649671792986
 20
-4.34483772986979
 30
0.0
 11
72.1649668931963
 21
-4.34483640025643
 31
0.0
  0
LINE
  5
   4CD
  8
0
  6
CONTINUOUS
 62
     7
 10
70.7649670362475
 20
-85.0198288217498
 30
0.0
 11
72.1649668931963
 21
-85.0198281569432
 31
0.0
  0
LINE
  5
   4CE
  8
0
  6
CONTINUOUS
 62
     7
 10
69.3649671792986
 20
-85.5448294329124
 30
0.0
 11
72.1649668931963
 21
-85.544828103299
 31
0.0
  0
LINE
  5
   4CF
  8
0
  6
DASHDOT
 62
     2
 10
67.3402477330897
 20
-86.4198303049678
 30
0.0
 11
75.9930913728984
 21
-86.4198261960614
 31
0.0
  0
LINE
  5
   4D0
  8
0
  6
CONTINUOUS
 62
     7
 10
69.3649671792986
 20
-87.2948292540987
 30
0.0
 11
72.1649668931963
 21
-87.2948279244853
 31
0.0
  0
LINE
  5
   4D1
  8
0
  6
CONTINUOUS
 62
     7
 10
70.7649670362475
 20
-87.8198285356479
 30
0.0
 11
72.1649668931963
 21
-87.8198278708412
 31
0.0
  0
LINE
  5
   4D2
  8
0
  6
CONTINUOUS
 62
     7
 10
70.7649670362475
 20
-87.8198285356478
 30
0.0
 11
70.7649670362475
 21
-85.0198288217498
 31
0.0
  0
LINE
  5
   4D3
  8
0
  6
CONTINUOUS
 62
     7
 10
69.3649671792986
 20
-87.2948292540987
 30
0.0
 11
69.3649671792986
 21
-85.5448294329124
 31
0.0
  0
INSERT
  5
   4D4
  8
0
  6
CONTINUOUS
 62
     7
  2
*UDIM1089
 10
0.0
 20
0.0
 30
0.0
  0
INSERT
  5
   4D5
  8
0
  6
CONTINUOUS
 62
     7
  2
*UDIM1090
 10
0.0
 20
0.0
 30
0.0
  0
INSERT
  5
   4D6
  8
0
  6
CONTINUOUS
 62
     7
  2
*UDIM1091
 10
0.0
 20
0.0
 30
0.0
  0
INSERT
  5
   4D7
  8
0
  6
CONTINUOUS
 62
     7
  2
*UDIM1092
 10
0.0
 20
0.0
 30
0.0
  0
TEXT
  5
   4D8
  8
0
  6
CONTINUOUS
 62
     7
 10
139.047581696582
 20
-41.0576154248218
 30
0.0
 40
3.00000001532688
  1
X
 41
0.916666616797451
 72
     2
 11
141.247581590997
 21
-41.0576154248218
 31
0.0
  0
LINE
  5
   4D9
  8
0
  6
CONTINUOUS
 62
     7
 10
192.182830810547
 20
-58.2448387145996
 30
0.0
 11
228.932830810547
 21
-58.2448387145996
 31
0.0
  0
LINE
  5
   4DA
  8
0
  6
CONTINUOUS
 62
     7
 10
192.182830810547
 20
-21.4948387145996
 30
0.0
 11
228.932830810547
 21
-21.4948387145996
 31
0.0
  0
LINE
  5
   4DB
  8
0
  6
CONTINUOUS
 62
     7
 10
192.182830810547
 20
-21.4948387145996
 30
0.0
 11
192.182830810547
 21
-58.2448387145996
 31
0.0
  0
LINE
  5
   4DC
  8
0
  6
CONTINUOUS
 62
     7
 10
228.932830810547
 20
-21.4948387145996
 30
0.0
 11
228.932830810547
 21
-58.2448387145996
 31
0.0
  0
LINE
  5
   4DD
  8
0
  6
DASHDOT
 62
     7
 10
210.557830810547
 20
-0.980235077089922
 30
0.0
 11
210.557830810547
 21
-70.6857534443546
 31
0.0
  0
CIRCLE
  5
   4DE
  8
0
  6
CONTINUOUS
 62
     7
 10
196.182830810547
 20
-17.7448387145996
 30
0.0
 40
0.875
  0
CIRCLE
  5
   4DF
  8
0
  6
CONTINUOUS
 62
     7
 10
224.932830810547
 20
-17.7448387145996
 30
0.0
 40
0.875
  0
CIRCLE
  5
   4E0
  8
0
  6
CONTINUOUS
 62
     7
 10
224.932830810547
 20
-61.9948387145996
 30
0.0
 40
0.875
  0
CIRCLE
  5
   4E1
  8
0
  6
CONTINUOUS
 62
     7
 10
196.182830810547
 20
-61.9948387145996
 30
0.0
 40
0.875
  0
LINE
  5
   4E2
  8
0
  6
CONTINUOUS
 62
     3
 10
188.218335141132
 20
-15.3950384173084
 30
0.0
 11
232.771704411118
 21
-15.3950384173084
 31
0.0
  0
LINE
  5
   4E3
  8
0
  6
CONTINUOUS
 62
     3
 10
188.218335141132
 20
-65.3503195420636
 30
0.0
 11
232.771704411118
 21
-65.3503195420636
 31
0.0
  0
LINE
  5
   4E4
  8
0
  6
CONTINUOUS
 62
     3
 10
232.771704411118
 20
-15.3950384173084
 30
0.0
 11
232.771704411118
 21
-65.3503195420636
 31
0.0
  0
LINE
  5
   4E5
  8
0
  6
CONTINUOUS
 62
     3
 10
188.218335141132
 20
-15.3950384173084
 30
0.0
 11
188.218335141132
 21
-65.3503195420636
 31
0.0
  0
LINE
  5
   4E6
  8
0
  6
DASHDOT
 62
     7
 10
224.932830810547
 20
-16.1198387145996
 30
0.0
 11
224.932830810547
 21
-19.3698387145996
 31
0.0
  0
LINE
  5
   4E7
  8
0
  6
DASHDOT
 62
     7
 10
223.307830810547
 20
-17.7448387145996
 30
0.0
 11
226.557830810547
 21
-17.7448387145996
 31
0.0
  0
LINE
  5
   4E8
  8
0
  6
DASHDOT
 62
     7
 10
196.182830810547
 20
-16.1198387145996
 30
0.0
 11
196.182830810547
 21
-19.3698387145996
 31
0.0
  0
LINE
  5
   4E9
  8
0
  6
DASHDOT
 62
     7
 10
194.557830810547
 20
-17.7448387145996
 30
0.0
 11
197.807830810547
 21
-17.7448387145996
 31
0.0
  0
LINE
  5
   4EA
  8
0
  6
DASHDOT
 62
     7
 10
196.182830810547
 20
-60.3698387145996
 30
0.0
 11
196.182830810547
 21
-63.6198387145996
 31
0.0
  0
LINE
  5
   4EB
  8
0
  6
DASHDOT
 62
     7
 10
194.557830810547
 20
-61.9948387145996
 30
0.0
 11
197.807830810547
 21
-61.9948387145996
 31
0.0
  0
LINE
  5
   4EC
  8
0
  6
DASHDOT
 62
     7
 10
224.932830810547
 20
-60.3698387145996
 30
0.0
 11
224.932830810547
 21
-63.6198387145996
 31
0.0
  0
LINE
  5
   4ED
  8
0
  6
DASHDOT
 62
     7
 10
223.307830810547
 20
-61.9948387145996
 30
0.0
 11
226.557830810547
 21
-61.9948387145996
 31
0.0
  0
LINE
  5
   4EE
  8
0
  6
DASHDOT
 62
     7
 10
185.19197325719
 20
-39.8698387145996
 30
0.0
 11
238.188124109918
 21
-39.8698387145996
 31
0.0
  0
CIRCLE
  5
   4EF
  8
0
  6
CONTINUOUS
 62
     7
 10
221.120330810547
 20
-17.3698387145996
 30
0.0
 40
0.5
  0
CIRCLE
  5
   4F0
  8
0
  6
CONTINUOUS
 62
     7
 10
209.870330810547
 20
-17.3698387145996
 30
0.0
 40
0.5
  0
CIRCLE
  5
   4F1
  8
0
  6
CONTINUOUS
 62
     7
 10
209.870330810547
 20
-17.3698387145996
 30
0.0
 40
0.92
  0
CIRCLE
  5
   4F2
  8
0
  6
CONTINUOUS
 62
     7
 10
221.120330810547
 20
-17.3698387145996
 30
0.0
 40
0.92
  0
LINE
  5
   4F3
  8
0
  6
DASHDOT
 62
     7
 10
221.120330810547
 20
-15.6998387145996
 30
0.0
 11
221.120330810547
 21
-19.0398387145996
 31
0.0
  0
LINE
  5
   4F4
  8
0
  6
DASHDOT
 62
     7
 10
219.450330810547
 20
-17.3698387145996
 30
0.0
 11
222.790330810547
 21
-17.3698387145996
 31
0.0
  0
LINE
  5
   4F5
  8
0
  6
DASHDOT
 62
     7
 10
209.870330810547
 20
-15.6998387145996
 30
0.0
 11
209.870330810547
 21
-19.0398387145996
 31
0.0
  0
LINE
  5
   4F6
  8
0
  6
DASHDOT
 62
     7
 10
208.200330810547
 20
-17.3698387145996
 30
0.0
 11
211.540330810547
 21
-17.3698387145996
 31
0.0
  0
TEXT
  5
   4F7
  8
0
  6
CONTINUOUS
 62
     1
 10
161.945417076614
 20
-207.216732041492
 30
0.0
 40
2.00000008940697
  1
M 3193 95-10-26
 50
359.999999844103
 41
0.749999861419206
 72
     1
 11
173.045415520668
 21
-206.216732026935
 31
0.0
 73
     2
  0
TEXT
  5
   4F8
  8
0
  6
CONTINUOUS
 62
     1
 10
137.51445165303
 20
-207.057231919422
 30
0.0
 40
2.00000008940697
  1
M 3076 95-01-16
 50
359.999999844103
 41
0.749999861419206
 72
     1
 11
148.614450097084
 21
-206.057231904865
 31
0.0
 73
     2
  0
INSERT
  5
   4F9
  8
0
  6
CONTINUOUS
 62
     7
  2
*UDIM1093
 10
0.0
 20
0.0
 30
0.0
  0
INSERT
  5
   4FA
  8
0
  6
CONTINUOUS
 62
     7
  2
*UDIM1094
 10
0.0
 20
0.0
 30
0.0
  0
INSERT
  5
   4FB
  8
0
  6
CONTINUOUS
 62
     7
  2
*UDIM1095
 10
0.0
 20
0.0
 30
0.0
  0
TEXT
  5
   4FC
  8
0
  6
CONTINUOUS
 62
     7
 10
203.834849623737
 20
-77.9009974564768
 30
0.0
 40
3.00000002980232
  1
=   =
 50
359.999999844103
 41
0.916666604744064
 72
     2
 11
217.034848858811
 21
-77.9009974923265
 31
0.0
  0
TEXT
  5
   4FD
  8
0
  6
CONTINUOUS
 62
     7
 10
202.465157456594
 20
-89.5081256561562
 30
0.0
 40
3.00000002980232
  1
=    =
 50
359.999999844103
 41
0.916666604744064
 72
     2
 11
218.415156533219
 21
-89.5081256994746
 31
0.0
  0
TEXT
  5
   4FE
  8
0
  6
CONTINUOUS
 62
     7
 10
183.999133172853
 20
-50.1337382148653
 30
0.0
 40
3.00000002980232
  1
=     =
 50
449.999999844103
 41
0.916666604744064
 72
     2
 11
183.999133223617
 21
-31.4337392966896
 31
0.0
  0
TEXT
  5
   4FF
  8
0
  6
CONTINUOUS
 62
     7
 10
174.28601341814
 20
-52.2256253720273
 30
0.0
 40
3.00000002980232
  1
=       =
 50
449.999999844103
 41
0.916666604744064
 72
     2
 11
174.286013483834
 21
-28.0256267707496
 31
0.0
  0
INSERT
  5
   500
  8
0
  6
CONTINUOUS
 62
     7
  2
*UDIM1096
 10
0.0
 20
0.0
 30
0.0
  0
INSERT
  5
   501
  8
0
  6
CONTINUOUS
 62
     7
  2
*UDIM1097
 10
0.0
 20
0.0
 30
0.0
  0
INSERT
  5
   502
  8
0
  6
CONTINUOUS
 62
     7
  2
*UDIM1098
 10
0.0
 20
0.0
 30
0.0
  0
INSERT
  5
   503
  8
0
  6
CONTINUOUS
 62
     7
  2
*UDIM1099
 10
0.0
 20
0.0
 30
0.0
  0
INSERT
  5
   504
  8
0
  6
CONTINUOUS
 62
     7
  2
*UDIM1100
 10
0.0
 20
0.0
 30
0.0
  0
TEXT
  5
   505
  8
0
  6
CONTINUOUS
 62
     7
 10
209.752808441616
 20
-92.4569626545855
 30
0.0
 40
3.00000002980232
  1
Y
 50
359.999999844103
 41
0.916666604744064
 72
     2
 11
211.952808310486
 21
-92.4569626605605
 31
0.0
  0
TEXT
  5
   506
  8
0
  6
CONTINUOUS
 62
     7
 10
209.815549721218
 20
0.149108817582434
 30
0.0
 40
3.00000002980232
  1
Y
 50
359.999999844103
 41
0.916666604744064
 72
     2
 11
212.015549590088
 21
0.149108811607487
 31
0.0
  0
TEXT
  5
   507
  8
0
  6
CONTINUOUS
 62
     7
 10
245.578056444622
 20
-41.1973703598925
 30
0.0
 40
3.00000002980232
  1
X
 50
359.999999844103
 41
0.916666604744064
 72
     2
 11
247.778056313492
 21
-41.1973703658675
 31
0.0
  0
TEXT
  5
   508
  8
0
  6
CONTINUOUS
 62
     7
 10
161.141269793011
 20
-41.2784832215258
 30
0.0
 40
3.00000002980232
  1
X
 50
359.999999844103
 41
0.916666604744064
 72
     2
 11
163.341269661881
 21
-41.2784832275008
 31
0.0
  0
TEXT
  5
   509
  8
0
  6
CONTINUOUS
 62
     1
 10
130.243331918389
 20
-191.841884528951
 30
0.0
 40
2.00000008940697
  1
93-04-05 ROTA S.
 50
359.999999844103
 41
0.749999861419206
 72
     2
 11
153.943328590959
 21
-191.841884593318
 31
0.0
  0
TEXT
  5
   50A
  8
0
  6
CONTINUOUS
 62
     1
 10
231.973709124863
 20
-218.083675294311
 30
0.0
 40
4.00000017881393
  1
601840/231
 50
359.999999844103
 41
0.937499973922969
 72
     2
 11
268.723709724635
 21
-218.08367539412
 31
0.0
  0
TEXT
  5
   50B
  8
0
  6
CONTINUOUS
 62
     1
 10
249.059402479634
 20
-209.102092736486
 30
0.0
 40
3.00000002980232
  1
S6
 50
359.999999844103
 41
0.916666604744064
 72
     2
 11
254.009402190055
 21
-209.10209274993
 31
0.0
  0
TEXT
  5
   50C
  8
0
  6
CONTINUOUS
 62
     1
 10
222.274982615819
 20
-190.79182049562
 30
0.0
 40
2.00000008940697
  1
4POLE LOW VOLTAGE FIXED M.C.C.B SERIES
 50
359.999999844103
 41
0.749999861419206
 72
     1
 11
250.62497864365
 21
-189.791820527912
 31
0.0
 73
     2
  0
TEXT
  5
   50D
  8
0
  6
CONTINUOUS
 62
     1
 10
222.274982651593
 20
-193.79182049562
 30
0.0
 40
2.00000008940697
  1
ISOMAX FRONT PANEL WITH PADLOK DEVICES
 50
359.999999844103
 41
0.749999861419206
 72
     1
 11
250.624978679425
 21
-192.791820527912
 31
0.0
 73
     2
  0
TEXT
  5
   50E
  8
0
  6
CONTINUOUS
 62
     1
 10
224.727374353518
 20
-198.862087235548
 30
0.0
 40
2.00000008940697
  1
INTERR.AUTOMATICO SERIE ISOMAX
 50
359.999999844103
 41
0.749999861419206
 72
     1
 11
247.077371221775
 21
-197.862087251545
 31
0.0
 73
     2
  0
TEXT
  5
   50F
  8
0
  6
CONTINUOUS
 62
     1
 10
222.477374704452
 20
-201.862087229437
 30
0.0
 40
2.00000008940697
  1
TETRAP.FISSO FRONTALE PER BLOCCHI
 50
359.999999844103
 41
0.749999861419206
 72
     1
 11
247.077371257549
 21
-200.862087251545
 31
0.0
 73
     2
  0
LINE
  5
   510
  8
0
  6
CONTINUOUS
 62
     7
 10
215.21076965332
 20
35.8296367806991
 30
0.0
 11
215.21076965332
 21
11.9131152944963
 31
0.0
  0
LINE
  5
   511
  8
0
  6
CONTINUOUS
 62
     7
 10
213.21076965332
 20
35.8296367806991
 30
0.0
 11
213.21076965332
 21
11.9131152944963
 31
0.0
  0
LINE
  5
   512
  8
0
  6
DASHDOT
 62
     7
 10
210.008166550923
 20
23.8713760375977
 30
0.0
 11
218.434385743361
 21
23.8713760375977
 31
0.0
  0
POINT
  5
   513
  8
0
  6
CONTINUOUS
 62
     7
 10
213.21076965332
 20
25.8713760375977
 30
0.0
  0
POINT
  5
   514
  8
0
  6
CONTINUOUS
 62
     7
 10
213.21076965332
 20
21.8713760375977
 30
0.0
  0
LINE
  5
   515
  8
0
  6
CONTINUOUS
 62
     7
 10
215.21076965332
 20
27.5495752999522
 30
0.0
 11
213.21076965332
 21
25.8713760375977
 31
0.0
  0
LINE
  5
   516
  8
0
  6
CONTINUOUS
 62
     7
 10
213.21076965332
 20
21.8713760375977
 30
0.0
 11
215.21076965332
 21
20.1931767752431
 31
0.0
  0
LINE
  5
   517
  8
0
  6
CONTINUOUS
 62
     7
 10
213.21076965332
 20
14.3713760375977
 30
0.0
 11
215.21076965332
 21
14.3713760375977
 31
0.0
  0
CIRCLE
  5
   518
  8
0
  6
CONTINUOUS
 62
     7
 10
214.21076965332
 20
23.8713760375977
 30
0.0
 40
12.0
  0
LINE
  5
   519
  8
0
  6
CONTINUOUS
 62
     7
 10
207.210777282715
 20
19.3713760375977
 30
0.0
 11
209.710777282715
 21
19.3713760375977
 31
0.0
  0
LINE
  5
   51A
  8
0
  6
CONTINUOUS
 62
     7
 10
210.710777282715
 20
28.3713760375977
 30
0.0
 11
210.710777282715
 21
20.3713760375977
 31
0.0
  0
LINE
  5
   51B
  8
0
  6
CONTINUOUS
 62
     7
 10
210.710777282715
 20
28.3713760375977
 30
0.0
 11
213.21076965332
 21
28.3713760375977
 31
0.0
  0
LINE
  5
   51C
  8
0
  6
CONTINUOUS
 62
     7
 10
207.210777282715
 20
16.8713760375977
 30
0.0
 11
209.710777282715
 21
16.8713760375977
 31
0.0
  0
LINE
  5
   51D
  8
0
  6
CONTINUOUS
 62
     7
 10
206.210777282715
 20
15.8713760375977
 30
0.0
 11
206.210777282715
 21
14.9270973036664
 31
0.0
  0
ARC
  5
   51E
  8
0
  6
CONTINUOUS
 62
     7
 10
209.710781429995
 20
20.3713753662589
 30
0.0
 40
0.999996977799109
 50
629.999840735313
 51
720.000252836193
  0
ARC
  5
   51F
  8
0
  6
CONTINUOUS
 62
     7
 10
207.210791936222
 20
15.8713633512932
 30
0.0
 40
3.50001845311552
 50
450.000186734275
 51
513.408761128067
  0
ARC
  5
   520
  8
0
  6
CONTINUOUS
 62
     7
 10
207.210733034565
 20
15.87141693238
 30
0.0
 40
0.999949821243504
 50
449.997764042825
 51
540.001169660043
  0
ARC
  5
   521
  8
0
  6
CONTINUOUS
 62
     7
 10
209.710796635097
 20
20.3713439906634
 30
0.0
 40
3.49997105594423
 50
629.999653243441
 51
720.000420168909
  0
INSERT
  5
   522
  8
0
  6
CONTINUOUS
 62
     7
  2
*HATCH409
 10
214.21076965332
 20
23.8713760375977
 30
0.0
 50
269.999999844103
  0
INSERT
  5
   523
  8
0
  6
CONTINUOUS
 62
     7
  2
*HATCH410
 10
214.21076965332
 20
23.8713760375977
 30
0.0
 50
269.999999844103
  0
LINE
  5
   524
  8
0
  6
CONTINUOUS
 62
     7
 10
205.635153894599
 20
15.4774011532667
 30
0.0
 11
199.264408730594
 21
9.24159530495119
 31
0.0
  0
LINE
  5
   525
  8
0
  6
CONTINUOUS
 62
     7
 10
199.264408730594
 20
-9.53532844751766
 30
0.0
 11
207.549640418725
 21
-16.2850744442544
 31
0.0
  0
LINE
  5
   526
  8
0
  6
CONTINUOUS
 62
     7
 10
202.065126960985
 20
-13.8238322910829
 30
0.0
 11
207.549640418725
 21
-16.2850744442544
 31
0.0
  0
LINE
  5
   527
  8
0
  6
CONTINUOUS
 62
     7
 10
204.302608019318
 20
-11.7881265870629
 30
0.0
 11
207.549640418725
 21
-16.2850744442545
 31
0.0
  0
LINE
  5
   528
  8
0
  6
CONTINUOUS
 62
     7
 10
199.264408730594
 20
9.24159530495119
 30
0.0
 11
199.264408730594
 21
-9.53532844751765
 31
0.0
  0
INSERT
  5
   529
  8
0
  6
CONTINUOUS
 62
     7
  2
*UDIM1101
 10
0.0
 20
0.0
 30
0.0
  0
INSERT
  5
   52A
  8
0
  6
CONTINUOUS
 62
     7
  2
*UDIM1102
 10
0.0
 20
0.0
 30
0.0
  0
LINE
  5
   52B
  8
0
  6
DASHDOT
 62
     2
 10
-1.75370181970934
 20
-138.43969386071
 30
0.0
 11
-20.2352357253244
 21
-138.43969386071
 31
0.0
  0
LINE
  5
   52C
  8
0
  6
DASHDOT
 62
     2
 10
-0.995131398210214
 20
-185.839694567025
 30
0.0
 11
-20.3731576201424
 21
-185.839694567025
 31
0.0
  0
LINE
  5
   52D
  8
0
  6
DASHDOT
 62
     2
 10
-31.6707251816988
 20
-133.886242669045
 30
0.0
 11
-31.6707251816988
 21
-187.95162543771
 31
0.0
  0
LINE
  5
   52E
  8
0
  6
DASHDOT
 62
     2
 10
-3.67072476446629
 20
-133.403516037182
 30
0.0
 11
-3.67072476446629
 21
-187.813703542892
 31
0.0
  0
LINE
  5
   52F
  8
0
  6
DASHDOT
 62
     2
 10
-10.6707248687744
 20
-134.162086458681
 30
0.0
 11
-10.6707248687744
 21
-194.020188809703
 31
0.0
  0
CIRCLE
  5
   530
  8
0
  6
CONTINUOUS
 62
     7
 10
-3.67072476446629
 20
-138.43969386071
 30
0.0
 40
0.550000008195639
  0
CIRCLE
  5
   531
  8
0
  6
CONTINUOUS
 62
     7
 10
-31.6707251816988
 20
-138.43969386071
 30
0.0
 40
0.550000008195639
  0
CIRCLE
  5
   532
  8
0
  6
CONTINUOUS
 62
     7
 10
-31.6707251816988
 20
-185.839694567025
 30
0.0
 40
0.550000008195639
  0
CIRCLE
  5
   533
  8
0
  6
CONTINUOUS
 62
     7
 10
-3.67072476446629
 20
-185.839694567025
 30
0.0
 40
0.550000008195639
  0
LINE
  5
   534
  8
0
  6
DASHDOT
 62
     2
 10
7.54289041560364
 20
-159.239694170654
 30
0.0
 11
-36.3999377096917
 21
-159.239694170654
 31
0.0
  0
LINE
  5
   535
  8
0
  6
DASHDOT
 62
     7
 10
-24.6707250773907
 20
-132.839693777263
 30
0.0
 11
-24.6707250773907
 21
-143.239693932235
 31
0.0
  0
LINE
  5
   536
  8
0
  6
DASHDOT
 62
     7
 10
-19.4707249999046
 20
-138.039693854749
 30
0.0
 11
-29.8707251548767
 21
-138.039693854749
 31
0.0
  0
LINE
  5
   537
  8
0
  6
DASHDOT
 62
     7
 10
-10.6707248687744
 20
-132.839693777263
 30
0.0
 11
-10.6707248687744
 21
-143.239693932235
 31
0.0
  0
LINE
  5
   538
  8
0
  6
DASHDOT
 62
     7
 10
-5.47072479128838
 20
-138.039693854749
 30
0.0
 11
-15.8707249462605
 21
-138.039693854749
 31
0.0
  0
LINE
  5
   539
  8
0
  6
DASHDOT
 62
     7
 10
3.32927533984184
 20
-132.839693777263
 30
0.0
 11
3.32927533984184
 21
-143.239693932235
 31
0.0
  0
LINE
  5
   53A
  8
0
  6
DASHDOT
 62
     7
 10
8.52927541732788
 20
-138.039693854749
 30
0.0
 11
-1.8707247376442
 21
-138.039693854749
 31
0.0
  0
LINE
  5
   53B
  8
0
  6
DASHDOT
 62
     7
 10
3.32927533984184
 20
-181.039694495499
 30
0.0
 11
3.32927533984184
 21
-191.439694650471
 31
0.0
  0
LINE
  5
   53C
  8
0
  6
DASHDOT
 62
     7
 10
8.52927541732788
 20
-186.239694572985
 30
0.0
 11
-1.8707247376442
 21
-186.239694572985
 31
0.0
  0
LINE
  5
   53D
  8
0
  6
DASHDOT
 62
     7
 10
-10.6707248687744
 20
-181.039694495499
 30
0.0
 11
-10.6707248687744
 21
-191.439694650471
 31
0.0
  0
LINE
  5
   53E
  8
0
  6
DASHDOT
 62
     7
 10
-5.47072479128838
 20
-186.239694572985
 30
0.0
 11
-15.8707249462605
 21
-186.239694572985
 31
0.0
  0
LINE
  5
   53F
  8
0
  6
DASHDOT
 62
     7
 10
-24.6707250773907
 20
-181.039694495499
 30
0.0
 11
-24.6707250773907
 21
-191.439694650471
 31
0.0
  0
LINE
  5
   540
  8
0
  6
DASHDOT
 62
     7
 10
-19.4707249999046
 20
-186.239694572985
 30
0.0
 11
-29.8707251548767
 21
-186.239694572985
 31
0.0
  0
LINE
  5
   541
  8
0
  6
CONTINUOUS
 62
     7
 10
-44.49127244902
 20
-130.94995395792
 30
0.0
 11
-44.49127244902
 21
-193.010110678772
 31
0.0
  0
LINE
  5
   542
  8
0
  6
CONTINUOUS
 62
     7
 10
8.92012033646495
 20
-130.94995395792
 30
0.0
 11
-44.49127244902
 21
-130.94995395792
 31
0.0
  0
LINE
  5
   543
  8
0
  6
CONTINUOUS
 62
     7
 10
8.92012033646495
 20
-193.010110678772
 30
0.0
 11
-44.49127244902
 21
-193.010110678772
 31
0.0
  0
LINE
  5
   544
  8
0
  6
CONTINUOUS
 62
     7
 10
8.92012033646495
 20
-130.94995395792
 30
0.0
 11
8.92012033646495
 21
-193.010110678772
 31
0.0
  0
LINE
  5
   545
  8
0
  6
DASHDOT
 62
     7
 10
-38.6707252860069
 20
-132.839693777263
 30
0.0
 11
-38.6707252860069
 21
-143.239693932235
 31
0.0
  0
LINE
  5
   546
  8
0
  6
DASHDOT
 62
     7
 10
-33.4707252085209
 20
-138.039693854749
 30
0.0
 11
-43.870725363493
 21
-138.039693854749
 31
0.0
  0
LINE
  5
   547
  8
0
  6
DASHDOT
 62
     7
 10
-38.6707252860069
 20
-181.039694495499
 30
0.0
 11
-38.6707252860069
 21
-191.439694650471
 31
0.0
  0
LINE
  5
   548
  8
0
  6
DASHDOT
 62
     7
 10
-33.4707252085209
 20
-186.239694572985
 30
0.0
 11
-43.870725363493
 21
-186.239694572985
 31
0.0
  0
ARC
  5
   549
  8
0
  6
CONTINUOUS
 62
     7
 10
-38.6707252860069
 20
-138.039693854749
 30
0.0
 40
3.50000005215406
 50
359.999999896069
 51
629.999999896069
  0
ARC
  5
   54A
  8
0
  6
CONTINUOUS
 62
     7
 10
-24.6707250773907
 20
-138.039693854749
 30
0.0
 40
3.50000005215406
 50
359.999999896069
 51
539.999999896069
  0
ARC
  5
   54B
  8
0
  6
CONTINUOUS
 62
     7
 10
-10.6707248687744
 20
-138.039693854749
 30
0.0
 40
3.50000005215406
 50
359.999999896069
 51
539.999999896069
  0
ARC
  5
   54C
  8
0
  6
CONTINUOUS
 62
     7
 10
3.32927533984184
 20
-138.039693854749
 30
0.0
 40
3.50000005215406
 50
269.999999896069
 51
539.999999896069
  0
ARC
  5
   54D
  8
0
  6
CONTINUOUS
 62
     7
 10
3.32927533984184
 20
-186.239694572985
 30
0.0
 40
3.50000005215406
 50
179.999999896069
 51
449.999999896069
  0
ARC
  5
   54E
  8
0
  6
CONTINUOUS
 62
     7
 10
-10.6707248687744
 20
-186.239694572985
 30
0.0
 40
3.50000005215406
 50
179.999999896069
 51
359.999999896069
  0
ARC
  5
   54F
  8
0
  6
CONTINUOUS
 62
     7
 10
-24.6707250773907
 20
-186.239694572985
 30
0.0
 40
3.50000005215406
 50
179.999999896069
 51
359.999999896069
  0
ARC
  5
   550
  8
0
  6
CONTINUOUS
 62
     7
 10
-38.6707252860069
 20
-186.239694572985
 30
0.0
 40
3.50000005215406
 50
449.999999896069
 51
719.999999896069
  0
LINE
  5
   551
  8
0
  6
CONTINUOUS
 62
     7
 10
3.32927533984184
 20
-141.539693906903
 30
0.0
 11
-38.6707252860069
 21
-141.539693906903
 31
0.0
  0
LINE
  5
   552
  8
0
  6
CONTINUOUS
 62
     7
 10
-35.1707252338529
 20
-138.039693854749
 30
0.0
 11
-35.1707252338529
 21
-139.939693883061
 31
0.0
  0
LINE
  5
   553
  8
0
  6
CONTINUOUS
 62
     7
 10
-28.1707251295447
 20
-138.039693854749
 30
0.0
 11
-28.1707251295447
 21
-139.939693883061
 31
0.0
  0
LINE
  5
   554
  8
0
  6
CONTINUOUS
 62
     7
 10
-14.1707249209285
 20
-138.039693854749
 30
0.0
 11
-14.1707249209285
 21
-139.939693883061
 31
0.0
  0
LINE
  5
   555
  8
0
  6
CONTINUOUS
 62
     7
 10
-7.17072481662035
 20
-138.039693854749
 30
0.0
 11
-7.17072481662035
 21
-139.939693883061
 31
0.0
  0
LINE
  5
   556
  8
0
  6
CONTINUOUS
 62
     7
 10
-0.170724712312223
 20
-138.039693854749
 30
0.0
 11
-0.170724712312223
 21
-139.939693883061
 31
0.0
  0
LINE
  5
   557
  8
0
  6
CONTINUOUS
 62
     7
 10
-35.1707252338529
 20
-184.339694544673
 30
0.0
 11
-35.1707252338529
 21
-186.239694572985
 31
0.0
  0
LINE
  5
   558
  8
0
  6
CONTINUOUS
 62
     7
 10
-28.1707251295447
 20
-184.339694544673
 30
0.0
 11
-28.1707251295447
 21
-186.239694572985
 31
0.0
  0
LINE
  5
   559
  8
0
  6
CONTINUOUS
 62
     7
 10
-14.1707249209285
 20
-184.339694544673
 30
0.0
 11
-14.1707249209285
 21
-186.239694572985
 31
0.0
  0
LINE
  5
   55A
  8
0
  6
CONTINUOUS
 62
     7
 10
-7.17072481662035
 20
-184.339694544673
 30
0.0
 11
-7.17072481662035
 21
-186.239694572985
 31
0.0
  0
LINE
  5
   55B
  8
0
  6
CONTINUOUS
 62
     7
 10
-0.170724712312223
 20
-184.339694544673
 30
0.0
 11
-0.170724712312223
 21
-186.239694572985
 31
0.0
  0
LINE
  5
   55C
  8
0
  6
CONTINUOUS
 62
     7
 10
-21.1707250252366
 20
-138.039693854749
 30
0.0
 11
-21.1707250252366
 21
-139.939693883061
 31
0.0
  0
LINE
  5
   55D
  8
0
  6
CONTINUOUS
 62
     7
 10
-21.1707250252366
 20
-184.339694544673
 30
0.0
 11
-21.1707250252366
 21
-186.239694572985
 31
0.0
  0
LINE
  5
   55E
  8
0
  6
CONTINUOUS
 62
     7
 10
3.32927533984184
 20
-182.739694520831
 30
0.0
 11
-28.1707251295447
 21
-182.739694520831
 31
0.0
  0
LINE
  5
   55F
  8
0
  6
CONTINUOUS
 62
     7
 10
-0.170724712312223
 20
-139.939693883061
 30
0.0
 11
-7.17072481662035
 21
-139.939693883061
 31
0.0
  0
LINE
  5
   560
  8
0
  6
CONTINUOUS
 62
     7
 10
-0.170724712312223
 20
-184.339694544673
 30
0.0
 11
-7.17072481662035
 21
-184.339694544673
 31
0.0
  0
LINE
  5
   561
  8
0
  6
CONTINUOUS
 62
     7
 10
-28.1707251295447
 20
-182.739694520831
 30
0.0
 11
-38.6707252860069
 21
-182.739694520831
 31
0.0
  0
LINE
  5
   562
  8
0
  6
CONTINUOUS
 62
     7
 10
-28.1707251295447
 20
-184.339694544673
 30
0.0
 11
-35.1707252338529
 21
-184.339694544673
 31
0.0
  0
LINE
  5
   563
  8
0
  6
CONTINUOUS
 62
     7
 10
-14.1707249209285
 20
-184.339694544673
 30
0.0
 11
-21.1707250252366
 21
-184.339694544673
 31
0.0
  0
LINE
  5
   564
  8
0
  6
CONTINUOUS
 62
     7
 10
-28.1707251295447
 20
-139.939693883061
 30
0.0
 11
-35.1707252338529
 21
-139.939693883061
 31
0.0
  0
LINE
  5
   565
  8
0
  6
CONTINUOUS
 62
     7
 10
-14.1707249209285
 20
-139.939693883061
 30
0.0
 11
-21.1707250252366
 21
-139.939693883061
 31
0.0
  0
INSERT
  5
   566
  8
0
  6
CONTINUOUS
 62
     7
  2
*UDIM1103
 10
0.0
 20
0.0
 30
0.0
  0
INSERT
  5
   567
  8
0
  6
CONTINUOUS
 62
     7
  2
*UDIM1104
 10
0.0
 20
0.0
 30
0.0
  0
INSERT
  5
   568
  8
0
  6
CONTINUOUS
 62
     1
  2
*UDIM1105
 10
0.0
 20
0.0
 30
0.0
  0
INSERT
  5
   569
  8
0
  6
CONTINUOUS
 62
     7
  2
*UDIM1106
 10
0.0
 20
0.0
 30
0.0
  0
INSERT
  5
   56A
  8
0
  6
CONTINUOUS
 62
     7
  2
*UDIM1107
 10
0.0
 20
0.0
 30
0.0
  0
INSERT
  5
   56B
  8
0
  6
CONTINUOUS
 62
     7
  2
*UDIM1108
 10
0.0
 20
0.0
 30
0.0
  0
INSERT
  5
   56C
  8
0
  6
CONTINUOUS
 62
     7
  2
*UDIM1109
 10
0.0
 20
0.0
 30
0.0
  0
INSERT
  5
   56D
  8
0
  6
CONTINUOUS
 62
     7
  2
*UDIM1110
 10
0.0
 20
0.0
 30
0.0
  0
INSERT
  5
   56E
  8
0
  6
CONTINUOUS
 62
     7
  2
*UDIM1111
 10
0.0
 20
0.0
 30
0.0
  0
INSERT
  5
   56F
  8
0
  6
CONTINUOUS
 62
     7
  2
*UDIM1112
 10
0.0
 20
0.0
 30
0.0
  0
INSERT
  5
   570
  8
0
  6
CONTINUOUS
 62
     7
  2
*UDIM1113
 10
0.0
 20
0.0
 30
0.0
  0
INSERT
  5
   571
  8
0
  6
CONTINUOUS
 62
     7
  2
*UDIM1114
 10
0.0
 20
0.0
 30
0.0
  0
TEXT
  5
   572
  8
0
  6
CONTINUOUS
 62
     7
 10
-68.6894147008774
 20
-160.295673626996
 30
0.0
 40
2.99999994933605
  1
X
 50
359.999999896069
 41
0.916666607525612
 72
     2
 11
-66.4894148826716
 21
-160.295673630975
 31
0.0
  0
TEXT
  5
   573
  8
0
  6
CONTINUOUS
 62
     7
 10
33.2580752215789
 20
-162.510344794946
 30
0.0
 40
2.99999994933605
  1
X
 50
359.999999896069
 41
0.916666607525612
 72
     2
 11
35.4580750397847
 21
-162.510344798925
 31
0.0
  0
INSERT
  5
   574
  8
0
  6
CONTINUOUS
 62
     7
  2
*UDIM1115
 10
0.0
 20
0.0
 30
0.0
  0
TEXT
  5
   575
  8
0
  6
CONTINUOUS
 62
     7
 10
-10.7111112903466
 20
-203.807230770801
 30
0.0
 40
2.99999994933605
  1
Y
 50
359.999999896069
 41
0.916666607525612
 72
     2
 11
-8.51111147214079
 21
-203.807230774781
 31
0.0
  0
ENDSEC
  0
EOF
