  0
SECTION
  2
HEADER
  9
$ACADVER
  1
AC1009
  9
$DWGCODEPAGE
  3
iso8859-1
  9
$INSBASE
 10
0.0
 20
0.0
 30
0.0
  9
$EXTMIN
 10
1.0E20
 20
1.0E20
  9
$EXTMAX
 10
-1.0E20
 20
-1.0E20
  9
$LIMMIN
 10
0.0
 20
0.0
  9
$LIMMAX
 10
12.0
 20
9.0
  9
$ORTHOMODE
 70
     0
  9
$REGENMODE
 70
     1
  9
$FILLMODE
 70
     1
  9
$QTEXTMODE
 70
     0
  9
$MIRRTEXT
 70
     1
  9
$DRAGMODE
 70
     2
  9
$LTSCALE
 40
15.0
  9
$OSMODE
 70
     0
  9
$ATTMODE
 70
     1
  9
$TEXTSIZE
 40
0.2
  9
$TRACEWID
 40
0.05
  9
$TEXTSTYLE
  7
STANDARD
  9
$CLAYER
  8
0
  9
$CELTYPE
  6
DASHED
  9
$CECOLOR
 62
   256
  9
$DIMSCALE
 40
1.0
  9
$DIMASZ
 40
0.18
  9
$DIMEXO
 40
0.0625
  9
$DIMDLI
 40
0.38
  9
$DIMRND
 40
0.0
  9
$DIMDLE
 40
0.0
  9
$DIMEXE
 40
0.18
  9
$DIMTP
 40
0.0
  9
$DIMTM
 40
0.0
  9
$DIMTXT
 40
0.18
  9
$DIMCEN
 40
0.09
  9
$DIMTSZ
 40
0.0
  9
$DIMTOL
 70
     0
  9
$DIMLIM
 70
     0
  9
$DIMTIH
 70
     1
  9
$DIMTOH
 70
     1
  9
$DIMSE1
 70
     0
  9
$DIMSE2
 70
     0
  9
$DIMTAD
 70
     0
  9
$DIMZIN
 70
     0
  9
$DIMBLK
  1

  9
$DIMASO
 70
     1
  9
$DIMSHO
 70
     1
  9
$DIMPOST
  1

  9
$DIMAPOST
  1

  9
$DIMALT
 70
     0
  9
$DIMALTD
 70
     2
  9
$DIMALTF
 40
25.4
  9
$DIMLFAC
 40
1.0
  9
$DIMTOFL
 70
     0
  9
$DIMTVP
 40
0.0
  9
$DIMTIX
 70
     0
  9
$DIMSOXD
 70
     0
  9
$DIMSAH
 70
     0
  9
$DIMBLK1
  1

  9
$DIMBLK2
  1

  9
$DIMSTYLE
  2
STANDARD
  9
$DIMCLRD
 70
     0
  9
$DIMCLRE
 70
     0
  9
$DIMCLRT
 70
     0
  9
$DIMTFAC
 40
1.0
  9
$DIMGAP
 40
0.09
  9
$LUNITS
 70
     2
  9
$LUPREC
 70
     4
  9
$AXISMODE
 70
     0
  9
$AXISUNIT
 10
0.0
 20
0.0
  9
$SKETCHINC
 40
0.1
  9
$FILLETRAD
 40
0.0
  9
$AUNITS
 70
     0
  9
$AUPREC
 70
     0
  9
$MENU
  1
acad
  9
$ELEVATION
 40
0.0
  9
$PELEVATION
 40
0.0
  9
$THICKNESS
 40
0.0
  9
$LIMCHECK
 70
     0
  9
$BLIPMODE
 70
     1
  9
$CHAMFERA
 40
0.0
  9
$CHAMFERB
 40
0.0
  9
$SKPOLY
 70
     0
  9
$TDCREATE
 40
0.000000000
  9
$TDUPDATE
 40
0.000000000
  9
$TDINDWG
 40
0.0
  9
$TDUSRTIMER
 40
0.0
  9
$USRTIMER
 70
     1
  9
$ANGBASE
 50
0.0
  9
$ANGDIR
 70
     0
  9
$PDMODE
 70
     0
  9
$PDSIZE
 40
0.0
  9
$PLINEWID
 40
0.0
  9
$COORDS
 70
     1
  9
$SPLFRAME
 70
     0
  9
$SPLINETYPE
 70
     6
  9
$SPLINESEGS
 70
     8
  9
$ATTDIA
 70
     0
  9
$ATTREQ
 70
     1
  9
$HANDLING
 70
     1
  9
$HANDSEED
  5
   402
  9
$SURFTAB1
 70
     6
  9
$SURFTAB2
 70
     6
  9
$SURFTYPE
 70
     6
  9
$SURFU
 70
     6
  9
$SURFV
 70
     6
  9
$UCSNAME
  2

  9
$UCSORG
 10
0.0
 20
0.0
 30
0.0
  9
$UCSXDIR
 10
1.0
 20
0.0
 30
0.0
  9
$UCSYDIR
 10
0.0
 20
1.0
 30
0.0
  9
$PUCSNAME
  2

  9
$PUCSORG
 10
0.0
 20
0.0
 30
0.0
  9
$PUCSXDIR
 10
1.0
 20
0.0
 30
0.0
  9
$PUCSYDIR
 10
0.0
 20
1.0
 30
0.0
  9
$USERI1
 70
     0
  9
$USERI2
 70
     0
  9
$USERI3
 70
     0
  9
$USERI4
 70
     0
  9
$USERI5
 70
     0
  9
$USERR1
 40
0.0
  9
$USERR2
 40
0.0
  9
$USERR3
 40
0.0
  9
$USERR4
 40
0.0
  9
$USERR5
 40
0.0
  9
$WORLDVIEW
 70
     1
  9
$SHADEDGE
 70
     3
  9
$SHADEDIF
 70
    70
  9
$TILEMODE
 70
     1
  9
$MAXACTVP
 70
    16
  9
$PINSBASE
 10
0.0
 20
0.0
 30
0.0
  9
$PLIMCHECK
 70
     0
  9
$PEXTMIN
 10
1.0E20
 20
1.0E20
 30
1.0E20
  9
$PEXTMAX
 10
-1.0E20
 20
-1.0E20
 30
-1.0E20
  9
$PLIMMIN
 10
0.0
 20
0.0
  9
$PLIMMAX
 10
12.0
 20
9.0
  9
$UNITMODE
 70
     0
  9
$VISRETAIN
 70
     0
  0
ENDSEC
  0
SECTION
  2
TABLES
  0
TABLE
  2
VPORT
 70
     1
  0
VPORT
  2
*ACTIVE
 70
     0
 10
0.0
 20
0.0
 11
1.0
 21
1.0
 12
6.801242
 22
4.5
 13
0.0
 23
0.0
 14
1.0
 24
1.0
 15
0.0
 25
0.0
 16
0.0
 26
0.0
 36
1.0
 17
0.0
 27
0.0
 37
0.0
 40
9.0
 41
1.511387
 42
50.0
 43
0.0
 44
0.0
 50
0.0
 51
0.0
 71
     0
 72
   100
 73
     1
 74
     1
 75
     0
 76
     0
 77
     0
 78
     0
  0
ENDTAB
  0
TABLE
  2
LTYPE
 70
    41
  0
LTYPE
  2
BYBLOCK
 70
     0
  3

 72
    65
 73
     0
 40
0.0
  0
LTYPE
  2
BYLAYER
 70
     0
  3

 72
    65
 73
     0
 40
0.0
  0
LTYPE
  2
CONTINUOUS
 70
     0
  3
Solid line
 72
    65
 73
     0
 40
0.0
  0
LTYPE
  2
BORDER
 70
    64
  3
__ __ . __ __ . __ __ . __ __ . __ __ . __ __ .
 72
    65
 73
     6
 40
1.75
 49
0.5
 49
-0.25
 49
0.5
 49
-0.25
 49
0.0
 49
-0.25
  0
LTYPE
  2
BORDER2
 70
    64
  3
__.__.__.__.__.__.__.__.__.__.__.__.__.__.__.__
 72
    65
 73
     6
 40
0.875
 49
0.25
 49
-0.125
 49
0.25
 49
-0.125
 49
0.0
 49
-0.125
  0
LTYPE
  2
BORDERX2
 70
    64
  3
____  ____  .  ____  ____  .  ____  ____  .  __
 72
    65
 73
     6
 40
3.5
 49
1.0
 49
-0.5
 49
1.0
 49
-0.5
 49
0.0
 49
-0.5
  0
LTYPE
  2
CENTER
 70
    64
  3
____ _ ____ _ ____ _ ____ _ ____ _ ____ _ ____
 72
    65
 73
     4
 40
2.0
 49
1.25
 49
-0.25
 49
0.25
 49
-0.25
  0
LTYPE
  2
CENTER2
 70
    64
  3
___ _ ___ _ ___ _ ___ _ ___ _ ___ _ ___ _ ___ _
 72
    65
 73
     4
 40
1.125
 49
0.75
 49
-0.125
 49
0.125
 49
-0.125
  0
LTYPE
  2
CENTERX2
 70
    64
  3
________  __  ________  __  ________  __  _____
 72
    65
 73
     4
 40
4.0
 49
2.5
 49
-0.5
 49
0.5
 49
-0.5
  0
LTYPE
  2
DASHDOT
 70
    64
  3
__ . __ . __ . __ . __ . __ . __ . __ . __ . __
 72
    65
 73
     4
 40
1.0
 49
0.5
 49
-0.25
 49
0.0
 49
-0.25
  0
LTYPE
  2
DASHDOT2
 70
    64
  3
_._._._._._._._._._._._._._._._._._._._._._._._
 72
    65
 73
     4
 40
0.5
 49
0.25
 49
-0.125
 49
0.0
 49
-0.125
  0
LTYPE
  2
DASHDOTX2
 70
    64
  3
____  .  ____  .  ____  .  ____  .  ____  .  __
 72
    65
 73
     4
 40
2.0
 49
1.0
 49
-0.5
 49
0.0
 49
-0.5
  0
LTYPE
  2
DASHED
 70
    64
  3
__ __ __ __ __ __ __ __ __ __ __ __ __ __ __ __
 72
    65
 73
     2
 40
0.75
 49
0.5
 49
-0.25
  0
LTYPE
  2
DASHED2
 70
    64
  3
_ _ _ _ _ _ _ _ _ _ _ _ _ _ _ _ _ _ _ _ _ _ _ _
 72
    65
 73
     2
 40
0.375
 49
0.25
 49
-0.125
  0
LTYPE
  2
DASHEDX2
 70
    64
  3
____  ____  ____  ____  ____  ____  ____  ____
 72
    65
 73
     2
 40
1.5
 49
1.0
 49
-0.5
  0
LTYPE
  2
DIVIDE
 70
    64
  3
____ . . ____ . . ____ . . ____ . . ____ . . __
 72
    65
 73
     6
 40
1.25
 49
0.5
 49
-0.25
 49
0.0
 49
-0.25
 49
0.0
 49
-0.25
  0
LTYPE
  2
DIVIDE2
 70
    64
  3
__..__..__..__..__..__..__..__..__..__..__..__.
 72
    65
 73
     6
 40
0.625
 49
0.25
 49
-0.125
 49
0.0
 49
-0.125
 49
0.0
 49
-0.125
  0
LTYPE
  2
DIVIDEX2
 70
    64
  3
________  .  .  ________  .  .  ________  .  .
 72
    65
 73
     6
 40
2.5
 49
1.0
 49
-0.5
 49
0.0
 49
-0.5
 49
0.0
 49
-0.5
  0
LTYPE
  2
DOT
 70
    64
  3
. . . . . . . . . . . . . . . . . . . . . . . .
 72
    65
 73
     2
 40
0.25
 49
0.0
 49
-0.25
  0
LTYPE
  2
DOT2
 70
    64
  3
...............................................
 72
    65
 73
     2
 40
0.125
 49
0.0
 49
-0.125
  0
LTYPE
  2
DOTX2
 70
    64
  3
.  .  .  .  .  .  .  .  .  .  .  .  .  .  .  .
 72
    65
 73
     2
 40
0.5
 49
0.0
 49
-0.5
  0
LTYPE
  2
HIDDEN
 70
    64
  3
__ __ __ __ __ __ __ __ __ __ __ __ __ __ __ __
 72
    65
 73
     2
 40
0.375
 49
0.25
 49
-0.125
  0
LTYPE
  2
HIDDEN2
 70
    64
  3
_ _ _ _ _ _ _ _ _ _ _ _ _ _ _ _ _ _ _ _ _ _ _ _
 72
    65
 73
     2
 40
0.1875
 49
0.125
 49
-0.0625
  0
LTYPE
  2
HIDDENX2
 70
    64
  3
____ ____ ____ ____ ____ ____ ____ ____ ____ __
 72
    65
 73
     2
 40
0.75
 49
0.5
 49
-0.25
  0
LTYPE
  2
PHANTOM
 70
    64
  3
______  __  __  ______  __  __  ______  __  __
 72
    65
 73
     6
 40
2.5
 49
1.25
 49
-0.25
 49
0.25
 49
-0.25
 49
0.25
 49
-0.25
  0
LTYPE
  2
PHANTOM2
 70
    64
  3
___ _ _ ___ _ _ ___ _ _ ___ _ _ ___ _ _ ___ _ _
 72
    65
 73
     6
 40
1.25
 49
0.625
 49
-0.125
 49
0.125
 49
-0.125
 49
0.125
 49
-0.125
  0
LTYPE
  2
PHANTOMX2
 70
    64
  3
____________    ____    ____    ____________
 72
    65
 73
     6
 40
5.0
 49
2.5
 49
-0.5
 49
0.5
 49
-0.5
 49
0.5
 49
-0.5
  0
LTYPE
  2
ACAD_ISO02W100
 70
    64
  3
__ __ __ __ __ __ __ __ __ __ __ __ __ __ __ __
 72
    65
 73
     2
 40
15.0
 49
12.0
 49
-3.0
  0
LTYPE
  2
ACAD_ISO03W100
 70
    64
  3
__    __    __    __    __    __    __    __
 72
    65
 73
     2
 40
30.0
 49
12.0
 49
-18.0
  0
LTYPE
  2
ACAD_ISO04W100
 70
    64
  3
____ . ____ . ____ . ____ . ____ . ____ . ____
 72
    65
 73
     4
 40
30.5
 49
24.0
 49
-3.0
 49
0.5
 49
-3.0
  0
LTYPE
  2
ACAD_ISO05W100
 70
    64
  3
____ .. ____ .. ____ .. ____ .. ____ .. ____ ..
 72
    65
 73
     6
 40
34.0
 49
24.0
 49
-3.0
 49
0.5
 49
-3.0
 49
0.5
 49
-3.0
  0
LTYPE
  2
ACAD_ISO06W100
 70
    64
  3
____ ... ____ ... ____ ... ____ ... ____ ... __
 72
    65
 73
     8
 40
37.5
 49
24.0
 49
-3.0
 49
0.5
 49
-3.0
 49
0.5
 49
-3.0
 49
0.5
 49
-3.0
  0
LTYPE
  2
ACAD_ISO07W100
 70
    64
  3
. . . . . . . . . . . . . . . . . . . . . . . .
 72
    65
 73
     2
 40
3.5
 49
0.5
 49
-3.0
  0
LTYPE
  2
ACAD_ISO08W100
 70
    64
  3
____ __ ____ __ ____ __ ____ ____ __ __ ____ __
 72
    65
 73
     4
 40
36.0
 49
24.0
 49
-3.0
 49
6.0
 49
-3.0
  0
LTYPE
  2
ACAD_ISO09W100
 70
    64
  3
____ __ __ ____ __ __ ____ __ __ ____ __ __ ___
 72
    65
 73
     6
 40
45.0
 49
24.0
 49
-3.0
 49
6.0
 49
-3.0
 49
6.0
 49
-3.0
  0
LTYPE
  2
ACAD_ISO10W100
 70
    64
  3
__ . __ . __ . __ . __ . __ . __ . __ . __ . __
 72
    65
 73
     4
 40
18.5
 49
12.0
 49
-3.0
 49
0.5
 49
-3.0
  0
LTYPE
  2
ACAD_ISO11W100
 70
    64
  3
__ __ . __ __ . __ __ . __ __ . __ __ . __ __ .
 72
    65
 73
     6
 40
33.5
 49
12.0
 49
-3.0
 49
12.0
 49
-3.0
 49
0.5
 49
-3.0
  0
LTYPE
  2
ACAD_ISO12W100
 70
    64
  3
__ . . __ . . __ . . __ . . __ . . __ . . __ .
 72
    65
 73
     6
 40
22.0
 49
12.0
 49
-3.0
 49
0.5
 49
-3.0
 49
0.5
 49
-3.0
  0
LTYPE
  2
ACAD_ISO13W100
 70
    64
  3
__ __ . . __ __ . . __ __ . . __ __ . . __ __ .
 72
    65
 73
     8
 40
37.0
 49
12.0
 49
-3.0
 49
12.0
 49
-3.0
 49
0.5
 49
-3.0
 49
0.5
 49
-3.0
  0
LTYPE
  2
ACAD_ISO14W100
 70
    64
  3
__ . . . __ . . . __ . . . __ . . . __ . . . __
 72
    65
 73
     8
 40
25.5
 49
12.0
 49
-3.0
 49
0.5
 49
-3.0
 49
0.5
 49
-3.0
 49
0.5
 49
-3.0
  0
LTYPE
  2
ACAD_ISO15W100
 70
    64
  3
__ __ . . . __ __ . . . __ __ . . . __ __ . . .
 72
    65
 73
    10
 40
40.5
 49
12.0
 49
-3.0
 49
12.0
 49
-3.0
 49
0.5
 49
-3.0
 49
0.5
 49
-3.0
 49
0.5
 49
-3.0
  0
ENDTAB
  0
TABLE
  2
STYLE
 70
     4
  0
STYLE
  2
STANDARD
 70
    64
 40
0.0
 41
1.0
 50
0.0
 71
     0
 42
0.2
  3
txt
  4

  0
STYLE
  2
TOLERANCE
 70
    64
 40
0.0
 41
1.0
 50
0.0
 71
     0
 42
0.2
  3
../igesfont/iges1003.shx
  4

  0
STYLE
  2
ROMANS
 70
    64
 40
0.0
 41
1.0
 50
0.0
 71
     0
 42
0.2
  3
romans.shx
  4

  0
STYLE
  2
ROMANC
 70
    64
 40
0.0
 41
1.0
 50
0.0
 71
     0
 42
0.2
  3
romanc.shx
  4

  0
ENDTAB
  0
TABLE
  2
DIMSTYLE
 70
     2
  0
DIMSTYLE
  2
UNNAMED
 70
     0
  3

  4

  5

  6

  7

 40
1.0
 41
0.18
 42
0.0625
 43
0.38
 44
0.18
 45
0.0
 46
0.0
 47
0.0
 48
0.0
140
0.18
141
0.09
142
0.0
143
25.4
144
1.0
145
0.0
146
1.0
147
0.09
 71
     0
 72
     0
 73
     1
 74
     1
 75
     0
 76
     0
 77
     0
 78
     0
170
     0
171
     2
172
     0
173
     0
174
     0
175
     0
176
     0
177
     0
178
     0
  0
DIMSTYLE
  2
STANDARD
 70
     0
  3

  4

  5

  6

  7

 40
1.0
 41
0.18
 42
0.0625
 43
0.38
 44
0.18
 45
0.0
 46
0.0
 47
0.0
 48
0.0
140
0.18
141
0.09
142
0.0
143
25.4
144
1.0
145
0.0
146
1.0
147
0.09
 71
     0
 72
     0
 73
     1
 74
     1
 75
     0
 76
     0
 77
     0
 78
     0
170
     0
171
     2
172
     0
173
     0
174
     0
175
     0
176
     0
177
     0
178
     0
  0
ENDTAB
  0
TABLE
  2
LAYER
 70
     2
  0
LAYER
  2
0
 70
     0
 62
     7
  6
CONTINUOUS
  0
LAYER
  2
255
 70
     0
 62
     7
  6
CONTINUOUS
  0
ENDTAB
  0
ENDSEC
  0
SECTION
  2
BLOCKS
  0
BLOCK
  5
     B
  8
0
  6
CONTINUOUS
 62
     7
  2
*HATCH35
 70
    65
 10
0.0
 20
0.0
 30
0.0
  3
*HATCH35
  0
LINE
  5
     C
  8
0
  6
CONTINUOUS
 62
     3
 10
197.431854248047
 20
90.3051605224609
 30
0.0
 11
196.745819091797
 21
89.6191329956055
 31
0.0
  0
LINE
  5
     D
  8
0
  6
CONTINUOUS
 62
     3
 10
198.492523193359
 20
89.2445068359375
 30
0.0
 11
196.745819091797
 21
87.4978103637695
 31
0.0
  0
LINE
  5
     E
  8
0
  6
CONTINUOUS
 62
     3
 10
199.553192138672
 20
88.1838531494141
 30
0.0
 11
196.745819091797
 21
85.3764877319336
 31
0.0
  0
LINE
  5
     F
  8
0
  6
CONTINUOUS
 62
     3
 10
199.737045288086
 20
86.2463912963867
 30
0.0
 11
196.745819091797
 21
83.2551727294922
 31
0.0
  0
LINE
  5
    10
  8
0
  6
CONTINUOUS
 62
     3
 10
199.737045288086
 20
84.1250762939453
 30
0.0
 11
198.611923217773
 21
82.9999618530274
 31
0.0
  0
ENDBLK
  5
    11
  8
0
  6
CONTINUOUS
 62
     7
  0
BLOCK
  5
    12
  8
0
  6
CONTINUOUS
 62
     7
  2
*HATCH36
 70
    65
 10
0.0
 20
0.0
 30
0.0
  3
*HATCH36
  0
LINE
  5
    13
  8
0
  6
CONTINUOUS
 62
     3
 10
204.218536376953
 20
77.9999618530274
 30
0.0
 11
202.237045288086
 21
76.0184707641602
 31
0.0
  0
LINE
  5
    14
  8
0
  6
CONTINUOUS
 62
     3
 10
206.237045288086
 20
77.8971557617188
 30
0.0
 11
202.237045288086
 21
73.8971557617188
 31
0.0
  0
LINE
  5
    15
  8
0
  6
CONTINUOUS
 62
     3
 10
206.237045288086
 20
75.7758331298828
 30
0.0
 11
202.237045288086
 21
71.7758331298828
 31
0.0
  0
LINE
  5
    16
  8
0
  6
CONTINUOUS
 62
     3
 10
206.237045288086
 20
73.6545104980469
 30
0.0
 11
202.237045288086
 21
69.6545104980469
 31
0.0
  0
LINE
  5
    17
  8
0
  6
CONTINUOUS
 62
     3
 10
206.237045288086
 20
71.5331954956055
 30
0.0
 11
203.451110839844
 21
68.7472686767578
 31
0.0
  0
LINE
  5
    18
  8
0
  6
CONTINUOUS
 62
     3
 10
206.237045288086
 20
69.4118728637695
 30
0.0
 11
205.572418212891
 21
68.7472686767578
 31
0.0
  0
ENDBLK
  5
    19
  8
0
  6
CONTINUOUS
 62
     7
  0
BLOCK
  5
    1A
  8
0
  6
CONTINUOUS
 62
     7
  2
*HATCH37
 70
    65
 10
0.0
 20
0.0
 30
0.0
  3
*HATCH37
  0
LINE
  5
    1B
  8
0
  6
CONTINUOUS
 62
   210
 10
225.128433227539
 20
82.9999618530274
 30
0.0
 11
221.237091064453
 21
79.1086196899414
 31
0.0
  0
LINE
  5
    1C
  8
0
  6
CONTINUOUS
 62
   210
 10
227.237045288086
 20
80.8659286499024
 30
0.0
 11
224.371078491211
 21
77.9999618530274
 31
0.0
  0
ENDBLK
  5
    1D
  8
0
  6
CONTINUOUS
 62
     7
  0
BLOCK
  5
    1E
  8
0
  6
CONTINUOUS
 62
     7
  2
*HATCH38
 70
    65
 10
0.0
 20
0.0
 30
0.0
  3
*HATCH38
  0
LINE
  5
    1F
  8
0
  6
CONTINUOUS
 62
   210
 10
199.672592163086
 20
82.9999618530274
 30
0.0
 11
196.745819091797
 21
80.0731887817383
 31
0.0
  0
LINE
  5
    20
  8
0
  6
CONTINUOUS
 62
   210
 10
203.915237426758
 20
82.9999618530274
 30
0.0
 11
198.915237426758
 21
77.9999618530274
 31
0.0
  0
LINE
  5
    21
  8
0
  6
CONTINUOUS
 62
   210
 10
208.15788269043
 20
82.9999618530274
 30
0.0
 11
203.15788269043
 21
77.9999618530274
 31
0.0
  0
LINE
  5
    22
  8
0
  6
CONTINUOUS
 62
   210
 10
212.400527954102
 20
82.9999618530274
 30
0.0
 11
207.400527954102
 21
77.9999618530274
 31
0.0
  0
LINE
  5
    23
  8
0
  6
CONTINUOUS
 62
   210
 10
213.237091064453
 20
79.5939025878906
 30
0.0
 11
211.643157958984
 21
77.9999618530274
 31
0.0
  0
ENDBLK
  5
    24
  8
0
  6
CONTINUOUS
 62
     7
  0
BLOCK
  5
    25
  8
0
  6
CONTINUOUS
 62
     7
  2
DIN
 70
    64
 10
0.0
 20
0.0
 30
0.0
  3
DIN
  0
LINE
  5
    26
  8
0
  6
CONTINUOUS
 62
   210
 10
4.49999751215391
 20
64.7500000000001
 30
0.0
 11
4.49999751215391
 21
104.499999988153
 31
0.0
  0
LINE
  5
    27
  8
0
  6
CONTINUOUS
 62
   210
 10
0.0
 20
105.0
 30
0.0
 11
3.99999998815311
 21
105.0
 31
0.0
  0
LINE
  5
    28
  8
0
  6
CONTINUOUS
 62
   210
 10
-1.95399082927438E-14
 20
-4.33984494877489E-30
 30
0.0
 11
-1.95399082927438E-14
 21
105.0
 31
0.0
  0
LINE
  5
    29
  8
0
  6
CONTINUOUS
 62
   210
 10
-1.95399082927438E-14
 20
-7.03578037752467E-31
 30
0.0
 11
3.99999907046934
 21
-7.03578037752467E-31
 31
0.0
  0
LINE
  5
    2A
  8
0
  6
CONTINUOUS
 62
   210
 10
4.49999904632568
 20
0.499999975856346
 30
0.0
 11
4.49999904632568
 21
19.75
 31
0.0
  0
LINE
  5
    2B
  8
0
  6
CONTINUOUS
 62
   210
 10
9.0
 20
20.0
 30
0.0
 11
9.0
 21
26.7499847412109
 31
0.0
  0
LINE
  5
    2C
  8
0
  6
CONTINUOUS
 62
   210
 10
8.0
 20
57.7499847412109
 30
0.0
 11
9.0
 21
57.7499847412109
 31
0.0
  0
LINE
  5
    2D
  8
0
  6
CONTINUOUS
 62
   210
 10
8.0
 20
56.7499847412109
 30
0.0
 11
9.0
 21
56.7499847412109
 31
0.0
  0
LINE
  5
    2E
  8
0
  6
CONTINUOUS
 62
   210
 10
8.0
 20
27.7499847412109
 30
0.0
 11
9.0
 21
27.7499847412109
 31
0.0
  0
LINE
  5
    2F
  8
0
  6
CONTINUOUS
 62
   210
 10
8.0
 20
26.7499847412109
 30
0.0
 11
9.0
 21
26.7499847412109
 31
0.0
  0
LINE
  5
    30
  8
0
  6
CONTINUOUS
 62
   210
 10
8.0
 20
26.7499847412109
 30
0.0
 11
8.0
 21
27.7499847412109
 31
0.0
  0
LINE
  5
    31
  8
0
  6
CONTINUOUS
 62
   210
 10
8.0
 20
56.7499847412109
 30
0.0
 11
8.0
 21
57.7499847412109
 31
0.0
  0
LINE
  5
    32
  8
0
  6
CONTINUOUS
 62
   210
 10
9.0
 20
27.7499847412109
 30
0.0
 11
9.0
 21
56.7499847412109
 31
0.0
  0
LINE
  5
    33
  8
0
  6
CONTINUOUS
 62
   210
 10
9.0
 20
57.7499847412109
 30
0.0
 11
9.0
 21
64.4999855892918
 31
0.0
  0
ARC
  5
    34
  8
0
  6
CONTINUOUS
 62
   210
 10
8.75
 20
64.4999855892918
 30
0.0
 40
0.25
 50
0.0
 51
89.9998057191013
  0
ARC
  5
    35
  8
0
  6
CONTINUOUS
 62
   210
 10
8.75
 20
20.0
 30
0.0
 40
0.25
 50
270.0
 51
360.0
  0
ARC
  5
    36
  8
0
  6
CONTINUOUS
 62
   210
 10
3.99999998815311
 20
104.5
 30
0.0
 40
0.5
 50
0.0
 51
90.0
  0
ARC
  5
    37
  8
0
  6
CONTINUOUS
 62
   210
 10
3.99999907046934
 20
0.5
 30
0.0
 40
0.5
 50
270.0
 51
360.0
  0
LINE
  5
    38
  8
0
  6
CONTINUOUS
 62
   210
 10
4.49999751215391
 20
64.75
 30
0.0
 11
8.75
 21
64.75
 31
0.0
  0
LINE
  5
    39
  8
0
  6
CONTINUOUS
 62
   210
 10
4.49999751215391
 20
19.75
 30
0.0
 11
8.75
 21
19.75
 31
0.0
  0
ENDBLK
  5
    3A
  8
0
  6
CONTINUOUS
 62
     7
  0
BLOCK
  5
    3B
  8
0
  6
CONTINUOUS
 62
     7
  2
*UDIM272
 70
    65
 10
0.0
 20
0.0
 30
0.0
  3
*UDIM272
  0
TEXT
  5
    3C
  8
0
  6
CONTINUOUS
 62
     7
 10
-502.300221149486
 20
-75.9756965602031
 30
0.0
 40
3.00000002980232
  1
4,5
 50
359.999999948034
 41
0.933333333333333
 72
     1
 11
-498.40022110939
 21
-74.4756965488195
 31
0.0
 73
     2
  0
LINE
  5
    3D
  8
0
  6
CONTINUOUS
 62
     7
 10
-505.250221252441
 20
-15.7733250427423
 30
0.0
 11
-505.250221252441
 21
-78.9756965637207
 31
0.0
  0
LINE
  5
    3E
  8
0
  6
CONTINUOUS
 62
     7
 10
-507.500221729279
 20
-25.5233250548141
 30
0.0
 11
-507.500221729279
 21
-78.9756965637207
 31
0.0
  0
LINE
  5
    3F
  8
0
  6
CONTINUOUS
 62
     7
 10
-494.500221070647
 20
-76.9756965637207
 30
0.0
 11
-507.500221729279
 21
-76.9756965637207
 31
0.0
  0
LINE
  5
    40
  8
0
  6
CONTINUOUS
 62
     7
 10
-502.295797975234
 20
-76.454752133769
 30
0.0
 11
-505.250221252441
 21
-76.9756965637207
 31
0.0
  0
LINE
  5
    41
  8
0
  6
CONTINUOUS
 62
     7
 10
-505.250221252441
 20
-76.9756965637207
 30
0.0
 11
-502.295797975234
 21
-77.4966409936724
 31
0.0
  0
LINE
  5
    42
  8
0
  6
CONTINUOUS
 62
     7
 10
-510.454645006486
 20
-77.4966409936724
 30
0.0
 11
-507.500221729279
 21
-76.9756965637207
 31
0.0
  0
LINE
  5
    43
  8
0
  6
CONTINUOUS
 62
     7
 10
-507.500221729279
 20
-76.9756965637207
 30
0.0
 11
-510.454645006486
 21
-76.454752133769
 31
0.0
  0
ENDBLK
  5
    44
  8
0
  6
CONTINUOUS
 62
     7
  0
BLOCK
  5
    45
  8
0
  6
CONTINUOUS
 62
     7
  2
*UDIM273
 70
    65
 10
0.0
 20
0.0
 30
0.0
  3
*UDIM273
  0
TEXT
  5
    46
  8
0
  6
CONTINUOUS
 62
     7
 10
-538.675221298498
 20
-75.9756965602031
 30
0.0
 40
3.00000002980232
  1
108
 50
359.999999948034
 41
0.933333333333333
 72
     1
 11
-534.775221258402
 21
-74.4756965488195
 31
0.0
 73
     2
  0
LINE
  5
    47
  8
0
  6
CONTINUOUS
 62
     7
 10
-561.500221252441
 20
-57.3983250427423
 30
0.0
 11
-561.500221252441
 21
-78.9756965637207
 31
0.0
  0
LINE
  5
    48
  8
0
  6
CONTINUOUS
 62
     7
 10
-507.500221729279
 20
-76.9756965637207
 30
0.0
 11
-561.500221252441
 21
-76.9756965637207
 31
0.0
  0
LINE
  5
    49
  8
0
  6
CONTINUOUS
 62
     7
 10
-510.454645006486
 20
-77.4966409936724
 30
0.0
 11
-507.500221729279
 21
-76.9756965637207
 31
0.0
  0
LINE
  5
    4A
  8
0
  6
CONTINUOUS
 62
     7
 10
-507.500221729279
 20
-76.9756965637207
 30
0.0
 11
-510.454645006486
 21
-76.454752133769
 31
0.0
  0
LINE
  5
    4B
  8
0
  6
CONTINUOUS
 62
     7
 10
-558.545797975234
 20
-76.454752133769
 30
0.0
 11
-561.500221252441
 21
-76.9756965637207
 31
0.0
  0
LINE
  5
    4C
  8
0
  6
CONTINUOUS
 62
     7
 10
-561.500221252441
 20
-76.9756965637207
 30
0.0
 11
-558.545797975234
 21
-77.4966409936724
 31
0.0
  0
ENDBLK
  5
    4D
  8
0
  6
CONTINUOUS
 62
     7
  0
BLOCK
  5
    4E
  8
0
  6
CONTINUOUS
 62
     7
  2
*UDIM274
 70
    65
 10
0.0
 20
0.0
 30
0.0
  3
*UDIM274
  0
TEXT
  5
    4F
  8
0
  6
CONTINUOUS
 62
     7
 10
-546.00022492241
 20
74.0929222116855
 30
0.0
 40
3.00000002980232
  1
5
 50
359.999999948034
 41
0.933333333333334
 72
     1
 11
-544.90022491013
 21
75.5929222255945
 31
0.0
 73
     2
  0
LINE
  5
    50
  8
0
  6
CONTINUOUS
 62
     7
 10
-549.000226245274
 20
61.1016578674316
 30
0.0
 11
-549.000226245274
 21
75.0929222106934
 31
0.0
  0
LINE
  5
    51
  8
0
  6
CONTINUOUS
 62
     7
 10
-551.5002252916
 20
61.1016578674316
 30
0.0
 11
-551.5002252916
 21
75.0929222106934
 31
0.0
  0
LINE
  5
    52
  8
0
  6
CONTINUOUS
 62
     7
 10
-543.800224899203
 20
73.0929222106934
 30
0.0
 11
-551.5002252916
 21
73.0929222106934
 31
0.0
  0
LINE
  5
    53
  8
0
  6
CONTINUOUS
 62
     7
 10
-546.045802968067
 20
73.613866640645
 30
0.0
 11
-549.000226245274
 21
73.0929222106934
 31
0.0
  0
LINE
  5
    54
  8
0
  6
CONTINUOUS
 62
     7
 10
-549.000226245274
 20
73.0929222106934
 30
0.0
 11
-546.045802968067
 21
72.5719777807417
 31
0.0
  0
LINE
  5
    55
  8
0
  6
CONTINUOUS
 62
     7
 10
-554.454648568807
 20
72.5719777807417
 30
0.0
 11
-551.5002252916
 21
73.0929222106934
 31
0.0
  0
LINE
  5
    56
  8
0
  6
CONTINUOUS
 62
     7
 10
-551.5002252916
 20
73.0929222106934
 30
0.0
 11
-554.454648568807
 21
73.613866640645
 31
0.0
  0
ENDBLK
  5
    57
  8
0
  6
CONTINUOUS
 62
     7
  0
BLOCK
  5
    58
  8
0
  6
CONTINUOUS
 62
     7
  2
*UDIM275
 70
    65
 10
0.0
 20
0.0
 30
0.0
  3
*UDIM275
  0
TEXT
  5
    59
  8
0
  6
CONTINUOUS
 62
     7
 10
-558.835329462426
 20
74.0929222129482
 30
0.0
 40
3.00000002980232
  1
20
 50
359.999999948034
 41
0.933333333333333
 72
     1
 11
-556.335329436238
 21
75.5929222255945
 31
0.0
 73
     2
  0
LINE
  5
    5A
  8
0
  6
CONTINUOUS
 62
     7
 10
-561.500221252441
 20
58.6016749572577
 30
0.0
 11
-561.500221252441
 21
75.0929222106934
 31
0.0
  0
LINE
  5
    5B
  8
0
  6
CONTINUOUS
 62
     7
 10
-551.5002252916
 20
73.0929222106934
 30
0.0
 11
-561.500221252441
 21
73.0929222106934
 31
0.0
  0
LINE
  5
    5C
  8
0
  6
CONTINUOUS
 62
     7
 10
-548.545802014393
 20
73.613866640645
 30
0.0
 11
-551.5002252916
 21
73.0929222106934
 31
0.0
  0
LINE
  5
    5D
  8
0
  6
CONTINUOUS
 62
     7
 10
-551.5002252916
 20
73.0929222106934
 30
0.0
 11
-548.545802014393
 21
72.5719777807417
 31
0.0
  0
LINE
  5
    5E
  8
0
  6
CONTINUOUS
 62
     7
 10
-564.454644529648
 20
72.5719777807417
 30
0.0
 11
-561.500221252441
 21
73.0929222106934
 31
0.0
  0
LINE
  5
    5F
  8
0
  6
CONTINUOUS
 62
     7
 10
-561.500221252441
 20
73.0929222106934
 30
0.0
 11
-564.454644529648
 21
73.613866640645
 31
0.0
  0
ENDBLK
  5
    60
  8
0
  6
CONTINUOUS
 62
     7
  0
BLOCK
  5
    61
  8
0
  6
CONTINUOUS
 62
     7
  2
*UDIM276
 70
    65
 10
0.0
 20
0.0
 30
0.0
  3
*UDIM276
  0
TEXT
  5
    62
  8
0
  6
CONTINUOUS
 62
     7
 10
-581.28773499142
 20
-20.4983266365383
 30
0.0
 40
3.00000002980232
  1
10,25
 50
89.9999999480344
 41
0.933333333333333
 72
     1
 11
-582.787735000253
 21
-13.7983265686212
 31
0.0
 73
     2
  0
LINE
  5
    63
  8
0
  6
CONTINUOUS
 62
     7
 10
-570.379350796083
 20
1.47667495725773
 30
0.0
 11
-582.287734985352
 21
1.47667495725773
 31
0.0
  0
LINE
  5
    64
  8
0
  6
CONTINUOUS
 62
     7
 10
-580.287734985352
 20
-20.4983266351797
 30
0.0
 11
-580.287734985352
 21
1.47667495725773
 31
0.0
  0
LINE
  5
    65
  8
0
  6
CONTINUOUS
 62
     7
 10
-579.7667905554
 20
-6.60274831994924
 30
0.0
 11
-580.287734985352
 21
-3.64832504274227
 31
0.0
  0
LINE
  5
    66
  8
0
  6
CONTINUOUS
 62
     7
 10
-580.287734985352
 20
-3.64832504274227
 30
0.0
 11
-580.808679415303
 21
-6.60274831994924
 31
0.0
  0
LINE
  5
    67
  8
0
  6
CONTINUOUS
 62
     7
 10
-580.808679415303
 20
4.43109823446469
 30
0.0
 11
-580.287734985352
 21
1.47667495725773
 31
0.0
  0
LINE
  5
    68
  8
0
  6
CONTINUOUS
 62
     7
 10
-580.287734985352
 20
1.47667495725773
 30
0.0
 11
-579.7667905554
 21
4.43109823446469
 31
0.0
  0
ENDBLK
  5
    69
  8
0
  6
CONTINUOUS
 62
     7
  0
BLOCK
  5
    6A
  8
0
  6
CONTINUOUS
 62
     7
  2
*UDIM277
 70
    65
 10
0.0
 20
0.0
 30
0.0
  3
*UDIM277
  0
TEXT
  5
    6B
  8
0
  6
CONTINUOUS
 62
     7
 10
-531.914200645992
 20
-87.5166015589824
 30
0.0
 40
3.00000002980232
  1
135
 50
359.999999948034
 41
0.933333333333333
 72
     1
 11
-528.014200605896
 21
-86.0166015475988
 31
0.0
 73
     2
  0
LINE
  5
    6C
  8
0
  6
CONTINUOUS
 62
     7
 10
-493.97817994743
 20
-4.64830978395322
 30
0.0
 11
-493.97817994743
 21
-90.5166015625
 31
0.0
  0
LINE
  5
    6D
  8
0
  6
CONTINUOUS
 62
     7
 10
-561.500221252441
 20
-57.3983250427423
 30
0.0
 11
-561.500221252441
 21
-90.5166015625
 31
0.0
  0
LINE
  5
    6E
  8
0
  6
CONTINUOUS
 62
     7
 10
-493.97817994743
 20
-88.5166015625
 30
0.0
 11
-561.500221252441
 21
-88.5166015625
 31
0.0
  0
LINE
  5
    6F
  8
0
  6
CONTINUOUS
 62
     7
 10
-496.932603224637
 20
-89.0375459924517
 30
0.0
 11
-493.97817994743
 21
-88.5166015625
 31
0.0
  0
LINE
  5
    70
  8
0
  6
CONTINUOUS
 62
     7
 10
-493.97817994743
 20
-88.5166015625
 30
0.0
 11
-496.932603224637
 21
-87.9956571325483
 31
0.0
  0
LINE
  5
    71
  8
0
  6
CONTINUOUS
 62
     7
 10
-558.545797975234
 20
-87.9956571325483
 30
0.0
 11
-561.500221252441
 21
-88.5166015625
 31
0.0
  0
LINE
  5
    72
  8
0
  6
CONTINUOUS
 62
     7
 10
-561.500221252441
 20
-88.5166015625
 30
0.0
 11
-558.545797975234
 21
-89.0375459924517
 31
0.0
  0
ENDBLK
  5
    73
  8
0
  6
CONTINUOUS
 62
     7
  0
BLOCK
  5
    74
  8
0
  6
CONTINUOUS
 62
     7
  2
*UDIM278
 70
    65
 10
0.0
 20
0.0
 30
0.0
  3
*UDIM278
  0
TEXT
  5
    75
  8
0
  6
CONTINUOUS
 62
     7
 10
-480.113513948798
 20
-6.42332689283824
 30
0.0
 40
3.00000002980232
  1
45
 50
89.9999999480344
 41
0.933333333333333
 72
     1
 11
-481.613513961434
 21
-3.9233268666444
 31
0.0
 73
     2
  0
LINE
  5
    76
  8
0
  6
CONTINUOUS
 62
     7
 10
-504.375221252441
 20
-14.8983250427423
 30
0.0
 11
-477.113513946533
 21
-14.8983250427423
 31
0.0
  0
LINE
  5
    77
  8
0
  6
CONTINUOUS
 62
     7
 10
-504.375221252441
 20
7.60167495725773
 30
0.0
 11
-477.113513946533
 21
7.60167495725773
 31
0.0
  0
LINE
  5
    78
  8
0
  6
CONTINUOUS
 62
     7
 10
-479.113513946533
 20
-14.8983250427423
 30
0.0
 11
-479.113513946533
 21
7.60167495725773
 31
0.0
  0
LINE
  5
    79
  8
0
  6
CONTINUOUS
 62
     7
 10
-479.634458376485
 20
-11.9439017655353
 30
0.0
 11
-479.113513946533
 21
-14.8983250427423
 31
0.0
  0
LINE
  5
    7A
  8
0
  6
CONTINUOUS
 62
     7
 10
-479.113513946533
 20
-14.8983250427423
 30
0.0
 11
-478.592569516582
 21
-11.9439017655353
 31
0.0
  0
LINE
  5
    7B
  8
0
  6
CONTINUOUS
 62
     7
 10
-478.592569516582
 20
4.64725168005076
 30
0.0
 11
-479.113513946533
 21
7.60167495725773
 31
0.0
  0
LINE
  5
    7C
  8
0
  6
CONTINUOUS
 62
     7
 10
-479.113513946533
 20
7.60167495725773
 30
0.0
 11
-479.634458376485
 21
4.64725168005076
 31
0.0
  0
ENDBLK
  5
    7D
  8
0
  6
CONTINUOUS
 62
     7
  0
BLOCK
  5
    7E
  8
0
  6
CONTINUOUS
 62
     7
  2
*UDIM279
 70
    65
 10
0.0
 20
0.0
 30
0.0
  3
*UDIM279
  0
TEXT
  5
    7F
  8
0
  6
CONTINUOUS
 62
     7
 10
-488.074354176553
 20
12.3053370126234
 30
0.0
 40
3.00000002980232
  1
22,5
 50
89.9999999480344
 41
0.933333333333333
 72
     1
 11
-489.574354186654
 21
17.6053370666327
 31
0.0
 73
     2
  0
LINE
  5
    80
  8
0
  6
CONTINUOUS
 62
     7
 10
-497.926165571391
 20
-3.64832504274227
 30
0.0
 11
-485.074354171753
 21
-3.64832504274227
 31
0.0
  0
LINE
  5
    81
  8
0
  6
CONTINUOUS
 62
     7
 10
-504.375221252441
 20
7.60167495725773
 30
0.0
 11
-485.074354171753
 21
7.60167495725773
 31
0.0
  0
LINE
  5
    82
  8
0
  6
CONTINUOUS
 62
     7
 10
-487.074354171753
 20
-3.64832504274227
 30
0.0
 11
-487.074354171753
 21
22.9053371192835
 31
0.0
  0
LINE
  5
    83
  8
0
  6
CONTINUOUS
 62
     7
 10
-486.553409741801
 20
-6.60274831994924
 30
0.0
 11
-487.074354171753
 21
-3.64832504274227
 31
0.0
  0
LINE
  5
    84
  8
0
  6
CONTINUOUS
 62
     7
 10
-487.074354171753
 20
-3.64832504274227
 30
0.0
 11
-487.595298601705
 21
-6.60274831994924
 31
0.0
  0
LINE
  5
    85
  8
0
  6
CONTINUOUS
 62
     7
 10
-487.595298601705
 20
10.5560982344647
 30
0.0
 11
-487.074354171753
 21
7.60167495725773
 31
0.0
  0
LINE
  5
    86
  8
0
  6
CONTINUOUS
 62
     7
 10
-487.074354171753
 20
7.60167495725773
 30
0.0
 11
-486.553409741801
 21
10.5560982344647
 31
0.0
  0
ENDBLK
  5
    87
  8
0
  6
CONTINUOUS
 62
     7
  0
BLOCK
  5
    88
  8
0
  6
CONTINUOUS
 62
     7
  2
*HATCH39
 70
    65
 10
0.0
 20
0.0
 30
0.0
  3
*HATCH39
  0
LINE
  5
    89
  8
0
  6
CONTINUOUS
 62
     3
 10
206.012313842773
 20
-132.338272094727
 30
0.0
 11
204.237091064453
 21
-134.113494873047
 31
0.0
  0
LINE
  5
    8A
  8
0
  6
CONTINUOUS
 62
     3
 10
208.13362121582
 20
-132.338272094727
 30
0.0
 11
204.237091064453
 21
-136.234802246094
 31
0.0
  0
LINE
  5
    8B
  8
0
  6
CONTINUOUS
 62
     3
 10
210.254928588867
 20
-132.338272094727
 30
0.0
 11
204.237091064453
 21
-138.356109619141
 31
0.0
  0
LINE
  5
    8C
  8
0
  6
CONTINUOUS
 62
     3
 10
212.376281738281
 20
-132.338272094727
 30
0.0
 11
206.876281738281
 21
-137.838272094727
 31
0.0
  0
LINE
  5
    8D
  8
0
  6
CONTINUOUS
 62
     3
 10
213.436935424805
 20
-132.338272094727
 30
0.0
 11
207.936935424805
 21
-137.838272094727
 31
0.0
  0
LINE
  5
    8E
  8
0
  6
CONTINUOUS
 62
     3
 10
214.497589111328
 20
-132.338272094727
 30
0.0
 11
208.997589111328
 21
-137.838272094727
 31
0.0
  0
LINE
  5
    8F
  8
0
  6
CONTINUOUS
 62
     3
 10
215.558242797852
 20
-132.338272094727
 30
0.0
 11
210.058242797852
 21
-137.838272094727
 31
0.0
  0
LINE
  5
    90
  8
0
  6
CONTINUOUS
 62
     3
 10
216.618896484375
 20
-132.338272094727
 30
0.0
 11
211.118896484375
 21
-137.838272094727
 31
0.0
  0
LINE
  5
    91
  8
0
  6
CONTINUOUS
 62
     3
 10
217.679550170898
 20
-132.338272094727
 30
0.0
 11
212.179550170898
 21
-137.838272094727
 31
0.0
  0
LINE
  5
    92
  8
0
  6
CONTINUOUS
 62
     3
 10
218.740203857422
 20
-132.338272094727
 30
0.0
 11
213.240203857422
 21
-137.838272094727
 31
0.0
  0
LINE
  5
    93
  8
0
  6
CONTINUOUS
 62
     3
 10
219.800857543945
 20
-132.338272094727
 30
0.0
 11
214.300857543945
 21
-137.838272094727
 31
0.0
  0
LINE
  5
    94
  8
0
  6
CONTINUOUS
 62
     3
 10
220.861511230469
 20
-132.338272094727
 30
0.0
 11
215.361511230469
 21
-137.838272094727
 31
0.0
  0
LINE
  5
    95
  8
0
  6
CONTINUOUS
 62
     3
 10
221.922164916992
 20
-132.338272094727
 30
0.0
 11
216.422164916992
 21
-137.838272094727
 31
0.0
  0
LINE
  5
    96
  8
0
  6
CONTINUOUS
 62
     3
 10
222.982818603516
 20
-132.338272094727
 30
0.0
 11
217.482818603516
 21
-137.838272094727
 31
0.0
  0
LINE
  5
    97
  8
0
  6
CONTINUOUS
 62
     3
 10
224.043472290039
 20
-132.338272094727
 30
0.0
 11
218.543472290039
 21
-137.838272094727
 31
0.0
  0
LINE
  5
    98
  8
0
  6
CONTINUOUS
 62
     3
 10
225.104125976563
 20
-132.338272094727
 30
0.0
 11
219.604125976563
 21
-137.838272094727
 31
0.0
  0
LINE
  5
    99
  8
0
  6
CONTINUOUS
 62
     3
 10
226.164779663086
 20
-132.338272094727
 30
0.0
 11
220.664779663086
 21
-137.838272094727
 31
0.0
  0
LINE
  5
    9A
  8
0
  6
CONTINUOUS
 62
     3
 10
227.225433349609
 20
-132.338272094727
 30
0.0
 11
221.725433349609
 21
-137.838272094727
 31
0.0
  0
LINE
  5
    9B
  8
0
  6
CONTINUOUS
 62
     3
 10
228.286087036133
 20
-132.338272094727
 30
0.0
 11
222.786087036133
 21
-137.838272094727
 31
0.0
  0
LINE
  5
    9C
  8
0
  6
CONTINUOUS
 62
     3
 10
229.346740722656
 20
-132.338272094727
 30
0.0
 11
223.846740722656
 21
-137.838272094727
 31
0.0
  0
LINE
  5
    9D
  8
0
  6
CONTINUOUS
 62
     3
 10
230.40739440918
 20
-132.338272094727
 30
0.0
 11
224.90739440918
 21
-137.838272094727
 31
0.0
  0
LINE
  5
    9E
  8
0
  6
CONTINUOUS
 62
     3
 10
231.468048095703
 20
-132.338272094727
 30
0.0
 11
225.968048095703
 21
-137.838272094727
 31
0.0
  0
LINE
  5
    9F
  8
0
  6
CONTINUOUS
 62
     3
 10
232.528701782227
 20
-132.338272094727
 30
0.0
 11
227.028701782227
 21
-137.838272094727
 31
0.0
  0
LINE
  5
    A0
  8
0
  6
CONTINUOUS
 62
     3
 10
233.58935546875
 20
-132.338272094727
 30
0.0
 11
228.08935546875
 21
-137.838272094727
 31
0.0
  0
LINE
  5
    A1
  8
0
  6
CONTINUOUS
 62
     3
 10
234.650009155273
 20
-132.338272094727
 30
0.0
 11
229.150009155273
 21
-137.838272094727
 31
0.0
  0
LINE
  5
    A2
  8
0
  6
CONTINUOUS
 62
     3
 10
235.237030029297
 20
-132.812057495117
 30
0.0
 11
230.210815429688
 21
-137.838272094727
 31
0.0
  0
LINE
  5
    A3
  8
0
  6
CONTINUOUS
 62
     3
 10
235.237030029297
 20
-133.872711181641
 30
0.0
 11
231.271469116211
 21
-137.838272094727
 31
0.0
  0
LINE
  5
    A4
  8
0
  6
CONTINUOUS
 62
     3
 10
235.237030029297
 20
-134.933380126953
 30
0.0
 11
232.332122802734
 21
-137.838272094727
 31
0.0
  0
LINE
  5
    A5
  8
0
  6
CONTINUOUS
 62
     3
 10
235.237030029297
 20
-135.994049072266
 30
0.0
 11
233.392776489258
 21
-137.838272094727
 31
0.0
  0
LINE
  5
    A6
  8
0
  6
CONTINUOUS
 62
     3
 10
235.237030029297
 20
-137.054702758789
 30
0.0
 11
234.45344543457
 21
-137.838272094727
 31
0.0
  0
LINE
  5
    A7
  8
0
  6
CONTINUOUS
 62
     3
 10
211.514099121094
 20
-161.838272094727
 30
0.0
 11
206.014099121094
 21
-167.338272094727
 31
0.0
  0
LINE
  5
    A8
  8
0
  6
CONTINUOUS
 62
     3
 10
213.635406494141
 20
-161.838272094727
 30
0.0
 11
208.135406494141
 21
-167.338272094727
 31
0.0
  0
LINE
  5
    A9
  8
0
  6
CONTINUOUS
 62
     3
 10
215.756713867188
 20
-161.838272094727
 30
0.0
 11
210.256713867188
 21
-167.338272094727
 31
0.0
  0
LINE
  5
    AA
  8
0
  6
CONTINUOUS
 62
     3
 10
217.878021240234
 20
-161.838272094727
 30
0.0
 11
212.378021240234
 21
-167.338272094727
 31
0.0
  0
LINE
  5
    AB
  8
0
  6
CONTINUOUS
 62
     3
 10
219.999328613281
 20
-161.838272094727
 30
0.0
 11
214.499328613281
 21
-167.338272094727
 31
0.0
  0
LINE
  5
    AC
  8
0
  6
CONTINUOUS
 62
     3
 10
222.120635986328
 20
-161.838272094727
 30
0.0
 11
216.620635986328
 21
-167.338272094727
 31
0.0
  0
LINE
  5
    AD
  8
0
  6
CONTINUOUS
 62
     3
 10
224.241943359375
 20
-161.838272094727
 30
0.0
 11
218.741943359375
 21
-167.338272094727
 31
0.0
  0
LINE
  5
    AE
  8
0
  6
CONTINUOUS
 62
     3
 10
226.363250732422
 20
-161.838272094727
 30
0.0
 11
220.863250732422
 21
-167.338272094727
 31
0.0
  0
LINE
  5
    AF
  8
0
  6
CONTINUOUS
 62
     3
 10
228.484558105469
 20
-161.838272094727
 30
0.0
 11
222.984558105469
 21
-167.338272094727
 31
0.0
  0
LINE
  5
    B0
  8
0
  6
CONTINUOUS
 62
     3
 10
230.605865478516
 20
-161.838272094727
 30
0.0
 11
225.105865478516
 21
-167.338272094727
 31
0.0
  0
LINE
  5
    B1
  8
0
  6
CONTINUOUS
 62
     3
 10
232.727172851563
 20
-161.838272094727
 30
0.0
 11
227.227172851563
 21
-167.338272094727
 31
0.0
  0
LINE
  5
    B2
  8
0
  6
CONTINUOUS
 62
     3
 10
234.848480224609
 20
-161.838272094727
 30
0.0
 11
229.348480224609
 21
-167.338272094727
 31
0.0
  0
LINE
  5
    B3
  8
0
  6
CONTINUOUS
 62
     3
 10
232.437026977539
 20
-165.310531616211
 30
0.0
 11
230.409286499023
 21
-167.338272094727
 31
0.0
  0
LINE
  5
    B4
  8
0
  6
CONTINUOUS
 62
     3
 10
232.437026977539
 20
-166.371185302734
 30
0.0
 11
231.469940185547
 21
-167.338272094727
 31
0.0
  0
ENDBLK
  5
    B5
  8
0
  6
CONTINUOUS
 62
     7
  0
BLOCK
  5
    B6
  8
0
  6
CONTINUOUS
 62
     7
  2
*HATCH40
 70
    65
 10
0.0
 20
0.0
 30
0.0
  3
*HATCH40
  0
LINE
  5
    B7
  8
0
  6
CONTINUOUS
 62
     3
 10
-16.7263202667236
 20
-132.338272094727
 30
0.0
 11
-18.7628440856934
 21
-134.374786376953
 31
0.0
  0
LINE
  5
    B8
  8
0
  6
CONTINUOUS
 62
     3
 10
-14.605001449585
 20
-132.338272094727
 30
0.0
 11
-18.7628402709961
 21
-136.49609375
 31
0.0
  0
LINE
  5
    B9
  8
0
  6
CONTINUOUS
 62
     3
 10
-12.483678817749
 20
-132.338272094727
 30
0.0
 11
-17.983678817749
 21
-137.838272094727
 31
0.0
  0
LINE
  5
    BA
  8
0
  6
CONTINUOUS
 62
     3
 10
-10.3623600006104
 20
-132.338272094727
 30
0.0
 11
-15.8623600006104
 21
-137.838272094727
 31
0.0
  0
LINE
  5
    BB
  8
0
  6
CONTINUOUS
 62
     3
 10
-8.24104118347168
 20
-132.338272094727
 30
0.0
 11
-13.7410411834717
 21
-137.838272094727
 31
0.0
  0
LINE
  5
    BC
  8
0
  6
CONTINUOUS
 62
     3
 10
-6.11972141265869
 20
-132.338272094727
 30
0.0
 11
-11.619722366333
 21
-137.838272094727
 31
0.0
  0
LINE
  5
    BD
  8
0
  6
CONTINUOUS
 62
     3
 10
-3.9984016418457
 20
-132.338272094727
 30
0.0
 11
-9.49840354919434
 21
-137.838272094727
 31
0.0
  0
LINE
  5
    BE
  8
0
  6
CONTINUOUS
 62
     3
 10
-1.87708187103271
 20
-132.338272094727
 30
0.0
 11
-7.37708425521851
 21
-137.838272094727
 31
0.0
  0
LINE
  5
    BF
  8
0
  6
CONTINUOUS
 62
     3
 10
0.244237899780273
 20
-132.338272094727
 30
0.0
 11
-5.25576448440552
 21
-137.838272094727
 31
0.0
  0
LINE
  5
    C0
  8
0
  6
CONTINUOUS
 62
     3
 10
2.36555767059326
 20
-132.338272094727
 30
0.0
 11
-3.13444471359253
 21
-137.838272094727
 31
0.0
  0
LINE
  5
    C1
  8
0
  6
CONTINUOUS
 62
     3
 10
4.48687744140625
 20
-132.338272094727
 30
0.0
 11
-1.01312494277954
 21
-137.838272094727
 31
0.0
  0
LINE
  5
    C2
  8
0
  6
CONTINUOUS
 62
     3
 10
6.60819721221924
 20
-132.338272094727
 30
0.0
 11
1.10819482803345
 21
-137.838272094727
 31
0.0
  0
LINE
  5
    C3
  8
0
  6
CONTINUOUS
 62
     3
 10
8.72951698303223
 20
-132.338272094727
 30
0.0
 11
3.22951459884644
 21
-137.838272094727
 31
0.0
  0
LINE
  5
    C4
  8
0
  6
CONTINUOUS
 62
     3
 10
10.8508396148682
 20
-132.338272094727
 30
0.0
 11
5.35084056854248
 21
-137.838272094727
 31
0.0
  0
LINE
  5
    C5
  8
0
  6
CONTINUOUS
 62
     3
 10
11.9114990234375
 20
-132.338272094727
 30
0.0
 11
6.41150045394897
 21
-137.838272094727
 31
0.0
  0
LINE
  5
    C6
  8
0
  6
CONTINUOUS
 62
     3
 10
12.2370910644531
 20
-133.073348999023
 30
0.0
 11
7.47216033935547
 21
-137.838272094727
 31
0.0
  0
LINE
  5
    C7
  8
0
  6
CONTINUOUS
 62
     3
 10
12.2370910644531
 20
-134.134002685547
 30
0.0
 11
8.5328197479248
 21
-137.838272094727
 31
0.0
  0
LINE
  5
    C8
  8
0
  6
CONTINUOUS
 62
     3
 10
12.2370910644531
 20
-135.194671630859
 30
0.0
 11
9.59348011016846
 21
-137.838272094727
 31
0.0
  0
LINE
  5
    C9
  8
0
  6
CONTINUOUS
 62
     3
 10
12.2370910644531
 20
-136.255325317383
 30
0.0
 11
10.2371520996094
 21
-138.255264282227
 31
0.0
  0
LINE
  5
    CA
  8
0
  6
CONTINUOUS
 62
     3
 10
12.2370910644531
 20
-137.315994262695
 30
0.0
 11
10.2371520996094
 21
-139.315933227539
 31
0.0
  0
LINE
  5
    CB
  8
0
  6
CONTINUOUS
 62
     3
 10
12.2370910644531
 20
-138.376647949219
 30
0.0
 11
10.2371520996094
 21
-140.376586914063
 31
0.0
  0
LINE
  5
    CC
  8
0
  6
CONTINUOUS
 62
     3
 10
12.2370910644531
 20
-139.437301635742
 30
0.0
 11
10.2371520996094
 21
-141.437240600586
 31
0.0
  0
LINE
  5
    CD
  8
0
  6
CONTINUOUS
 62
     3
 10
12.2370910644531
 20
-140.497955322266
 30
0.0
 11
10.2371520996094
 21
-142.497894287109
 31
0.0
  0
LINE
  5
    CE
  8
0
  6
CONTINUOUS
 62
     3
 10
12.2370910644531
 20
-141.558609008789
 30
0.0
 11
10.2371520996094
 21
-143.558547973633
 31
0.0
  0
LINE
  5
    CF
  8
0
  6
CONTINUOUS
 62
     3
 10
12.2370910644531
 20
-142.619262695313
 30
0.0
 11
10.2371520996094
 21
-144.619201660156
 31
0.0
  0
LINE
  5
    D0
  8
0
  6
CONTINUOUS
 62
     3
 10
12.2370910644531
 20
-143.679916381836
 30
0.0
 11
10.2371520996094
 21
-145.67985534668
 31
0.0
  0
LINE
  5
    D1
  8
0
  6
CONTINUOUS
 62
     3
 10
12.2370910644531
 20
-144.740570068359
 30
0.0
 11
10.2371520996094
 21
-146.740509033203
 31
0.0
  0
LINE
  5
    D2
  8
0
  6
CONTINUOUS
 62
     3
 10
12.2370910644531
 20
-145.801223754883
 30
0.0
 11
10.2371520996094
 21
-147.801162719727
 31
0.0
  0
LINE
  5
    D3
  8
0
  6
CONTINUOUS
 62
     3
 10
12.2370910644531
 20
-146.861877441406
 30
0.0
 11
10.2371520996094
 21
-148.86181640625
 31
0.0
  0
LINE
  5
    D4
  8
0
  6
CONTINUOUS
 62
     3
 10
12.2370910644531
 20
-147.92253112793
 30
0.0
 11
10.2371520996094
 21
-149.922470092773
 31
0.0
  0
LINE
  5
    D5
  8
0
  6
CONTINUOUS
 62
     3
 10
12.2370910644531
 20
-148.983184814453
 30
0.0
 11
10.2371520996094
 21
-150.983123779297
 31
0.0
  0
LINE
  5
    D6
  8
0
  6
CONTINUOUS
 62
     3
 10
12.2370910644531
 20
-150.043838500977
 30
0.0
 11
10.2371520996094
 21
-152.04377746582
 31
0.0
  0
LINE
  5
    D7
  8
0
  6
CONTINUOUS
 62
     3
 10
12.2370910644531
 20
-151.1044921875
 30
0.0
 11
10.2371520996094
 21
-153.104431152344
 31
0.0
  0
LINE
  5
    D8
  8
0
  6
CONTINUOUS
 62
     3
 10
12.2370910644531
 20
-152.165145874023
 30
0.0
 11
10.2371520996094
 21
-154.165084838867
 31
0.0
  0
LINE
  5
    D9
  8
0
  6
CONTINUOUS
 62
     3
 10
12.2370910644531
 20
-153.225799560547
 30
0.0
 11
10.2371520996094
 21
-155.225738525391
 31
0.0
  0
LINE
  5
    DA
  8
0
  6
CONTINUOUS
 62
     3
 10
12.2370910644531
 20
-154.28645324707
 30
0.0
 11
10.2371520996094
 21
-156.286392211914
 31
0.0
  0
LINE
  5
    DB
  8
0
  6
CONTINUOUS
 62
     3
 10
12.2370910644531
 20
-155.347106933594
 30
0.0
 11
10.2371520996094
 21
-157.347045898438
 31
0.0
  0
LINE
  5
    DC
  8
0
  6
CONTINUOUS
 62
     3
 10
12.2370910644531
 20
-156.407760620117
 30
0.0
 11
10.2371520996094
 21
-158.407699584961
 31
0.0
  0
LINE
  5
    DD
  8
0
  6
CONTINUOUS
 62
     3
 10
12.2370910644531
 20
-157.468414306641
 30
0.0
 11
10.2371520996094
 21
-159.468353271484
 31
0.0
  0
LINE
  5
    DE
  8
0
  6
CONTINUOUS
 62
     3
 10
12.2370910644531
 20
-158.529067993164
 30
0.0
 11
10.2371520996094
 21
-160.529006958008
 31
0.0
  0
LINE
  5
    DF
  8
0
  6
CONTINUOUS
 62
     3
 10
12.2370910644531
 20
-159.589721679688
 30
0.0
 11
10.2371520996094
 21
-161.589660644531
 31
0.0
  0
LINE
  5
    E0
  8
0
  6
CONTINUOUS
 62
     3
 10
12.2370910644531
 20
-160.650512695312
 30
0.0
 11
5.54932260513306
 21
-167.338272094727
 31
0.0
  0
LINE
  5
    E1
  8
0
  6
CONTINUOUS
 62
     3
 10
12.2370910644531
 20
-162.771820068359
 30
0.0
 11
7.67064332962036
 21
-167.338272094727
 31
0.0
  0
LINE
  5
    E2
  8
0
  6
CONTINUOUS
 62
     3
 10
12.2370910644531
 20
-164.893127441406
 30
0.0
 11
9.79196357727051
 21
-167.338272094727
 31
0.0
  0
LINE
  5
    E3
  8
0
  6
CONTINUOUS
 62
     3
 10
12.2370910644531
 20
-167.014434814453
 30
0.0
 11
11.9132843017578
 21
-167.338272094727
 31
0.0
  0
ENDBLK
  5
    E4
  8
0
  6
CONTINUOUS
 62
     7
  0
BLOCK
  5
    E5
  8
0
  6
CONTINUOUS
 62
     7
  2
*UDIM280
 70
    65
 10
0.0
 20
0.0
 30
0.0
  3
*UDIM280
  0
TEXT
  5
    E6
  8
0
  6
CONTINUOUS
 62
     7
 10
-590.331054691032
 20
-3.57332691984135
 30
0.0
 40
3.00000002980232
  1
254
 50
89.9999999480344
 41
0.933333333333333
 72
     1
 11
-591.831054702401
 21
0.326673120260239
 31
0.0
 73
     2
  0
LINE
  5
    E7
  8
0
  6
CONTINUOUS
 62
     7
 10
-622.916553679581
 20
-62.8982963562012
 30
0.0
 11
-587.3310546875
 21
-62.8982963562012
 31
0.0
  0
LINE
  5
    E8
  8
0
  6
CONTINUOUS
 62
     7
 10
-622.916553679581
 20
64.1016426086426
 30
0.0
 11
-587.3310546875
 21
64.1016426086426
 31
0.0
  0
LINE
  5
    E9
  8
0
  6
CONTINUOUS
 62
     7
 10
-589.3310546875
 20
-62.8982963562012
 30
0.0
 11
-589.3310546875
 21
64.1016426086426
 31
0.0
  0
LINE
  5
    EA
  8
0
  6
CONTINUOUS
 62
     7
 10
-589.851999117452
 20
-59.9438730789942
 30
0.0
 11
-589.3310546875
 21
-62.8982963562012
 31
0.0
  0
LINE
  5
    EB
  8
0
  6
CONTINUOUS
 62
     7
 10
-589.3310546875
 20
-62.8982963562012
 30
0.0
 11
-588.810110257548
 21
-59.9438730789942
 31
0.0
  0
LINE
  5
    EC
  8
0
  6
CONTINUOUS
 62
     7
 10
-588.810110257548
 20
61.1472193314356
 30
0.0
 11
-589.3310546875
 21
64.1016426086426
 31
0.0
  0
LINE
  5
    ED
  8
0
  6
CONTINUOUS
 62
     7
 10
-589.3310546875
 20
64.1016426086426
 30
0.0
 11
-589.851999117452
 21
61.1472193314356
 31
0.0
  0
ENDBLK
  5
    EE
  8
0
  6
CONTINUOUS
 62
     7
  0
BLOCK
  5
    EF
  8
0
  6
CONTINUOUS
 62
     7
  2
*UDIM281
 70
    65
 10
0.0
 20
0.0
 30
0.0
  3
*UDIM281
  0
TEXT
  5
    F0
  8
0
  6
CONTINUOUS
 62
     7
 10
-597.803230292981
 20
24.4141577796463
 30
0.0
 40
3.00000002980232
  1
125,25
 50
89.9999999480344
 41
0.933333333333333
 72
     1
 11
-599.303230300546
 21
32.5141578614712
 31
0.0
 73
     2
  0
LINE
  5
    F1
  8
0
  6
CONTINUOUS
 62
     7
 10
-616.181443116013
 20
1.47667312622069
 30
0.0
 11
-594.803230285645
 21
1.47667312622069
 31
0.0
  0
LINE
  5
    F2
  8
0
  6
CONTINUOUS
 62
     7
 10
-622.916553679581
 20
64.1016426086426
 30
0.0
 11
-594.803230285645
 21
64.1016426086426
 31
0.0
  0
LINE
  5
    F3
  8
0
  6
CONTINUOUS
 62
     7
 10
-596.803230285645
 20
1.47667312622069
 30
0.0
 11
-596.803230285645
 21
64.1016426086426
 31
0.0
  0
LINE
  5
    F4
  8
0
  6
CONTINUOUS
 62
     7
 10
-597.324174715596
 20
4.43109640342765
 30
0.0
 11
-596.803230285645
 21
1.47667312622069
 31
0.0
  0
LINE
  5
    F5
  8
0
  6
CONTINUOUS
 62
     7
 10
-596.803230285645
 20
1.47667312622069
 30
0.0
 11
-596.282285855693
 21
4.43109640342765
 31
0.0
  0
LINE
  5
    F6
  8
0
  6
CONTINUOUS
 62
     7
 10
-596.282285855693
 20
61.1472193314356
 30
0.0
 11
-596.803230285645
 21
64.1016426086426
 31
0.0
  0
LINE
  5
    F7
  8
0
  6
CONTINUOUS
 62
     7
 10
-596.803230285645
 20
64.1016426086426
 30
0.0
 11
-597.324174715596
 21
61.1472193314356
 31
0.0
  0
ENDBLK
  5
    F8
  8
0
  6
CONTINUOUS
 62
     7
  0
BLOCK
  5
    F9
  8
0
  6
CONTINUOUS
 62
     7
  2
*UDIM282
 70
    65
 10
0.0
 20
0.0
 30
0.0
  3
*UDIM282
  0
TEXT
  5
    FA
  8
0
  6
CONTINUOUS
 62
     7
 10
-604.182456973747
 20
-7.79908460812527
 30
0.0
 40
3.00000002980232
  1
218
 50
89.9999999480344
 41
0.933333333333333
 72
     1
 11
-605.682456985116
 21
-3.89908456802368
 31
0.0
 73
     2
  0
LINE
  5
    FB
  8
0
  6
CONTINUOUS
 62
     7
 10
-622.814577172618
 20
-53.8983268737793
 30
0.0
 11
-601.182456970215
 21
-53.8983268737793
 31
0.0
  0
LINE
  5
    FC
  8
0
  6
CONTINUOUS
 62
     7
 10
-622.814577172618
 20
55.1016731262207
 30
0.0
 11
-601.182456970215
 21
55.1016731262207
 31
0.0
  0
LINE
  5
    FD
  8
0
  6
CONTINUOUS
 62
     7
 10
-603.182456970215
 20
-53.8983268737793
 30
0.0
 11
-603.182456970215
 21
55.1016731262207
 31
0.0
  0
LINE
  5
    FE
  8
0
  6
CONTINUOUS
 62
     7
 10
-603.703401400167
 20
-50.9439035965723
 30
0.0
 11
-603.182456970215
 21
-53.8983268737793
 31
0.0
  0
LINE
  5
    FF
  8
0
  6
CONTINUOUS
 62
     7
 10
-603.182456970215
 20
-53.8983268737793
 30
0.0
 11
-602.661512540263
 21
-50.9439035965723
 31
0.0
  0
LINE
  5
   100
  8
0
  6
CONTINUOUS
 62
     7
 10
-602.661512540263
 20
52.1472498490137
 30
0.0
 11
-603.182456970215
 21
55.1016731262207
 31
0.0
  0
LINE
  5
   101
  8
0
  6
CONTINUOUS
 62
     7
 10
-603.182456970215
 20
55.1016731262207
 30
0.0
 11
-603.703401400167
 21
52.1472498490137
 31
0.0
  0
ENDBLK
  5
   102
  8
0
  6
CONTINUOUS
 62
     7
  0
BLOCK
  5
   103
  8
0
  6
CONTINUOUS
 62
     7
  2
*UDIM283
 70
    65
 10
0.0
 20
0.0
 30
0.0
  3
*UDIM283
  0
TEXT
  5
   104
  8
0
  6
CONTINUOUS
 62
     7
 10
-610.829345710461
 20
19.9141730384354
 30
0.0
 40
3.00000002980232
  1
107,25
 50
89.9999999480344
 41
0.933333333333333
 72
     1
 11
-612.329345718026
 21
28.0141731202602
 31
0.0
 73
     2
  0
LINE
  5
   105
  8
0
  6
CONTINUOUS
 62
     7
 10
-616.181443116013
 20
1.47667312622069
 30
0.0
 11
-607.829345703125
 21
1.47667312622069
 31
0.0
  0
LINE
  5
   106
  8
0
  6
CONTINUOUS
 62
     7
 10
-622.814577172618
 20
55.1016731262207
 30
0.0
 11
-607.829345703125
 21
55.1016731262207
 31
0.0
  0
LINE
  5
   107
  8
0
  6
CONTINUOUS
 62
     7
 10
-609.829345703125
 20
1.47667312622069
 30
0.0
 11
-609.829345703125
 21
55.1016731262207
 31
0.0
  0
LINE
  5
   108
  8
0
  6
CONTINUOUS
 62
     7
 10
-610.350290133077
 20
4.43109640342765
 30
0.0
 11
-609.829345703125
 21
1.47667312622069
 31
0.0
  0
LINE
  5
   109
  8
0
  6
CONTINUOUS
 62
     7
 10
-609.829345703125
 20
1.47667312622069
 30
0.0
 11
-609.308401273173
 21
4.43109640342765
 31
0.0
  0
LINE
  5
   10A
  8
0
  6
CONTINUOUS
 62
     7
 10
-609.308401273173
 20
52.1472498490137
 30
0.0
 11
-609.829345703125
 21
55.1016731262207
 31
0.0
  0
LINE
  5
   10B
  8
0
  6
CONTINUOUS
 62
     7
 10
-609.829345703125
 20
55.1016731262207
 30
0.0
 11
-610.350290133077
 21
52.1472498490137
 31
0.0
  0
ENDBLK
  5
   10C
  8
0
  6
CONTINUOUS
 62
     7
  0
BLOCK
  5
   10D
  8
0
  6
CONTINUOUS
 62
     7
  2
*UDIM284
 70
    65
 10
0.0
 20
0.0
 30
0.0
  3
*UDIM284
  0
TEXT
  5
   10E
  8
0
  6
CONTINUOUS
 62
     7
 10
-616.160240175604
 20
41.0766429639185
 30
0.0
 40
3.00000002980232
  1
11
 50
89.9999999480344
 41
0.933333333333333
 72
     1
 11
-617.660240188241
 21
43.5766429901123
 31
0.0
 73
     2
  0
LINE
  5
   10F
  8
0
  6
CONTINUOUS
 62
     7
 10
-623.916553812657
 20
49.6016426086426
 30
0.0
 11
-613.16024017334
 21
49.6016426086426
 31
0.0
  0
LINE
  5
   110
  8
0
  6
CONTINUOUS
 62
     7
 10
-622.814577172618
 20
55.1016731262207
 30
0.0
 11
-613.16024017334
 21
55.1016731262207
 31
0.0
  0
LINE
  5
   111
  8
0
  6
CONTINUOUS
 62
     7
 10
-615.16024017334
 20
41.076642965277
 30
0.0
 11
-615.16024017334
 21
55.1016731262207
 31
0.0
  0
LINE
  5
   112
  8
0
  6
CONTINUOUS
 62
     7
 10
-614.639295743388
 20
46.6472193314356
 30
0.0
 11
-615.16024017334
 21
49.6016426086426
 31
0.0
  0
LINE
  5
   113
  8
0
  6
CONTINUOUS
 62
     7
 10
-615.16024017334
 20
49.6016426086426
 30
0.0
 11
-615.681184603292
 21
46.6472193314356
 31
0.0
  0
LINE
  5
   114
  8
0
  6
CONTINUOUS
 62
     7
 10
-615.681184603292
 20
58.0560964034277
 30
0.0
 11
-615.16024017334
 21
55.1016731262207
 31
0.0
  0
LINE
  5
   115
  8
0
  6
CONTINUOUS
 62
     7
 10
-615.16024017334
 20
55.1016731262207
 30
0.0
 11
-614.639295743388
 21
58.0560964034277
 31
0.0
  0
ENDBLK
  5
   116
  8
0
  6
CONTINUOUS
 62
     7
  0
BLOCK
  5
   117
  8
0
  6
CONTINUOUS
 62
     7
  2
*UDIM285
 70
    65
 10
0.0
 20
0.0
 30
0.0
  3
*UDIM285
  0
TEXT
  5
   118
  8
0
  6
CONTINUOUS
 62
     7
 10
-710.849375251488
 20
-3.57336888643732
 30
0.0
 40
3.00000002980232
  1
259
 50
89.9999999480344
 41
0.933333333333333
 72
     1
 11
-712.349375262857
 21
0.326631153664273
 31
0.0
 73
     2
  0
LINE
  5
   119
  8
0
  6
CONTINUOUS
 62
     7
 10
-692.541540899491
 20
-64.1483829716021
 30
0.0
 11
-711.849375247955
 21
-64.1483829716021
 31
0.0
  0
LINE
  5
   11A
  8
0
  6
CONTINUOUS
 62
     7
 10
-692.541593480892
 20
65.3516426086426
 30
0.0
 11
-711.849375247955
 21
65.3516426086426
 31
0.0
  0
LINE
  5
   11B
  8
0
  6
CONTINUOUS
 62
     7
 10
-709.849375247955
 20
-64.1483829716021
 30
0.0
 11
-709.849375247955
 21
65.3516426086426
 31
0.0
  0
LINE
  5
   11C
  8
0
  6
CONTINUOUS
 62
     7
 10
-710.370319677907
 20
-61.1939596943952
 30
0.0
 11
-709.849375247955
 21
-64.1483829716021
 31
0.0
  0
LINE
  5
   11D
  8
0
  6
CONTINUOUS
 62
     7
 10
-709.849375247955
 20
-64.1483829716021
 30
0.0
 11
-709.328430818004
 21
-61.1939596943952
 31
0.0
  0
LINE
  5
   11E
  8
0
  6
CONTINUOUS
 62
     7
 10
-709.328430818004
 20
62.3972193314356
 30
0.0
 11
-709.849375247955
 21
65.3516426086426
 31
0.0
  0
LINE
  5
   11F
  8
0
  6
CONTINUOUS
 62
     7
 10
-709.849375247955
 20
65.3516426086426
 30
0.0
 11
-710.370319677907
 21
62.3972193314356
 31
0.0
  0
ENDBLK
  5
   120
  8
0
  6
CONTINUOUS
 62
     7
  0
BLOCK
  5
   121
  8
0
  6
CONTINUOUS
 62
     7
  2
*UDIM286
 70
    65
 10
0.0
 20
0.0
 30
0.0
  3
*UDIM286
  0
TEXT
  5
   122
  8
0
  6
CONTINUOUS
 62
     7
 10
-703.443060882275
 20
25.0391577796463
 30
0.0
 40
3.00000002980232
  1
127,75
 50
89.9999999480344
 41
0.933333333333333
 72
     1
 11
-704.94306088984
 21
33.1391578614712
 31
0.0
 73
     2
  0
LINE
  5
   123
  8
0
  6
CONTINUOUS
 62
     7
 10
-692.990976658934
 20
1.47667312622069
 30
0.0
 11
-704.443060874939
 21
1.47667312622069
 31
0.0
  0
LINE
  5
   124
  8
0
  6
CONTINUOUS
 62
     7
 10
-692.541593480892
 20
65.3516426086426
 30
0.0
 11
-704.443060874939
 21
65.3516426086426
 31
0.0
  0
LINE
  5
   125
  8
0
  6
CONTINUOUS
 62
     7
 10
-702.443060874939
 20
1.47667312622069
 30
0.0
 11
-702.443060874939
 21
65.3516426086426
 31
0.0
  0
LINE
  5
   126
  8
0
  6
CONTINUOUS
 62
     7
 10
-702.964005304891
 20
4.43109640342765
 30
0.0
 11
-702.443060874939
 21
1.47667312622069
 31
0.0
  0
LINE
  5
   127
  8
0
  6
CONTINUOUS
 62
     7
 10
-702.443060874939
 20
1.47667312622069
 30
0.0
 11
-701.922116444987
 21
4.43109640342765
 31
0.0
  0
LINE
  5
   128
  8
0
  6
CONTINUOUS
 62
     7
 10
-701.922116444987
 20
62.3972193314356
 30
0.0
 11
-702.443060874939
 21
65.3516426086426
 31
0.0
  0
LINE
  5
   129
  8
0
  6
CONTINUOUS
 62
     7
 10
-702.443060874939
 20
65.3516426086426
 30
0.0
 11
-702.964005304891
 21
62.3972193314356
 31
0.0
  0
ENDBLK
  5
   12A
  8
0
  6
CONTINUOUS
 62
     7
  0
BLOCK
  5
   12B
  8
0
  6
CONTINUOUS
 62
     7
  2
*UDIM287
 70
    65
 10
0.0
 20
0.0
 30
0.0
  3
*UDIM287
  0
TEXT
  5
   12C
  8
0
  6
CONTINUOUS
 62
     7
 10
-661.341549719778
 20
-80.3555679286113
 30
0.0
 40
3.00000002980232
  1
140
 50
359.999999948034
 41
0.933333333333333
 72
     1
 11
-657.441549679682
 21
-78.8555679172277
 31
0.0
 73
     2
  0
LINE
  5
   12D
  8
0
  6
CONTINUOUS
 62
     7
 10
-622.166553679581
 20
-62.4982963562012
 30
0.0
 11
-622.166553679581
 21
-83.3555679321289
 31
0.0
  0
LINE
  5
   12E
  8
0
  6
CONTINUOUS
 62
     7
 10
-692.166540899491
 20
-64.5233829716021
 30
0.0
 11
-692.166540899491
 21
-83.3555679321289
 31
0.0
  0
LINE
  5
   12F
  8
0
  6
CONTINUOUS
 62
     7
 10
-622.166553679581
 20
-81.3555679321289
 30
0.0
 11
-692.166540899491
 21
-81.3555679321289
 31
0.0
  0
LINE
  5
   130
  8
0
  6
CONTINUOUS
 62
     7
 10
-625.120976956788
 20
-81.8765123620806
 30
0.0
 11
-622.166553679581
 21
-81.3555679321289
 31
0.0
  0
LINE
  5
   131
  8
0
  6
CONTINUOUS
 62
     7
 10
-622.166553679581
 20
-81.3555679321289
 30
0.0
 11
-625.120976956788
 21
-80.8346235021772
 31
0.0
  0
LINE
  5
   132
  8
0
  6
CONTINUOUS
 62
     7
 10
-689.212117622284
 20
-80.8346235021772
 30
0.0
 11
-692.166540899491
 21
-81.3555679321289
 31
0.0
  0
LINE
  5
   133
  8
0
  6
CONTINUOUS
 62
     7
 10
-692.166540899491
 20
-81.3555679321289
 30
0.0
 11
-689.212117622284
 21
-81.8765123620806
 31
0.0
  0
ENDBLK
  5
   134
  8
0
  6
CONTINUOUS
 62
     7
  0
BLOCK
  5
   135
  8
0
  6
CONTINUOUS
 62
     7
  2
*UDIM288
 70
    65
 10
0.0
 20
0.0
 30
0.0
  3
*UDIM288
  0
TEXT
  5
   136
  8
0
  6
CONTINUOUS
 62
     7
 10
-652.591553534476
 20
-73.7755947077861
 30
0.0
 40
3.00000002980232
  1
105
 50
359.999999948034
 41
0.933333333333333
 72
     1
 11
-648.69155349438
 21
-72.2755946964025
 31
0.0
 73
     2
  0
LINE
  5
   137
  8
0
  6
CONTINUOUS
 62
     7
 10
-622.166553679581
 20
-62.4982963562012
 30
0.0
 11
-622.166553679581
 21
-76.7755947113037
 31
0.0
  0
LINE
  5
   138
  8
0
  6
CONTINUOUS
 62
     7
 10
-674.666540899491
 20
-64.5233829716021
 30
0.0
 11
-674.666540899491
 21
-76.7755947113037
 31
0.0
  0
LINE
  5
   139
  8
0
  6
CONTINUOUS
 62
     7
 10
-622.166553679581
 20
-74.7755947113037
 30
0.0
 11
-674.666540899491
 21
-74.7755947113037
 31
0.0
  0
LINE
  5
   13A
  8
0
  6
CONTINUOUS
 62
     7
 10
-625.120976956788
 20
-75.2965391412554
 30
0.0
 11
-622.166553679581
 21
-74.7755947113037
 31
0.0
  0
LINE
  5
   13B
  8
0
  6
CONTINUOUS
 62
     7
 10
-622.166553679581
 20
-74.7755947113037
 30
0.0
 11
-625.120976956788
 21
-74.254650281352
 31
0.0
  0
LINE
  5
   13C
  8
0
  6
CONTINUOUS
 62
     7
 10
-671.712117622284
 20
-74.254650281352
 30
0.0
 11
-674.666540899491
 21
-74.7755947113037
 31
0.0
  0
LINE
  5
   13D
  8
0
  6
CONTINUOUS
 62
     7
 10
-674.666540899491
 20
-74.7755947113037
 30
0.0
 11
-671.712117622284
 21
-75.2965391412554
 31
0.0
  0
ENDBLK
  5
   13E
  8
0
  6
CONTINUOUS
 62
     7
  0
BLOCK
  5
   13F
  8
0
  6
CONTINUOUS
 62
     7
  2
*UDIM289
 70
    65
 10
0.0
 20
0.0
 30
0.0
  3
*UDIM289
  0
TEXT
  5
   140
  8
0
  6
CONTINUOUS
 62
     7
 10
-633.691557346235
 20
-67.5078906990391
 30
0.0
 40
3.00000002980232
  1
24
 50
359.999999948034
 41
0.933333333333333
 72
     1
 11
-631.191557320046
 21
-66.0078906863928
 31
0.0
 73
     2
  0
LINE
  5
   141
  8
0
  6
CONTINUOUS
 62
     7
 10
-624.916557671714
 20
-63.8982963562012
 30
0.0
 11
-624.916557671714
 21
-70.5078907012939
 31
0.0
  0
LINE
  5
   142
  8
0
  6
CONTINUOUS
 62
     7
 10
-636.916557671714
 20
-63.8982931624989
 30
0.0
 11
-636.916557671714
 21
-70.5078907012939
 31
0.0
  0
LINE
  5
   143
  8
0
  6
CONTINUOUS
 62
     7
 10
-624.916557671714
 20
-68.5078907012939
 30
0.0
 11
-636.916557671714
 21
-68.5078907012939
 31
0.0
  0
LINE
  5
   144
  8
0
  6
CONTINUOUS
 62
     7
 10
-627.870980948921
 20
-69.0288351312456
 30
0.0
 11
-624.916557671714
 21
-68.5078907012939
 31
0.0
  0
LINE
  5
   145
  8
0
  6
CONTINUOUS
 62
     7
 10
-624.916557671714
 20
-68.5078907012939
 30
0.0
 11
-627.870980948921
 21
-67.9869462713423
 31
0.0
  0
LINE
  5
   146
  8
0
  6
CONTINUOUS
 62
     7
 10
-633.962134394507
 20
-67.9869462713423
 30
0.0
 11
-636.916557671714
 21
-68.5078907012939
 31
0.0
  0
LINE
  5
   147
  8
0
  6
CONTINUOUS
 62
     7
 10
-636.916557671714
 20
-68.5078907012939
 30
0.0
 11
-633.962134394507
 21
-69.0288351312456
 31
0.0
  0
ENDBLK
  5
   148
  8
0
  6
CONTINUOUS
 62
     7
  0
BLOCK
  5
   149
  8
0
  6
CONTINUOUS
 62
     7
  2
*UDIM290
 70
    65
 10
0.0
 20
0.0
 30
0.0
  3
*UDIM290
  0
TEXT
  5
   14A
  8
0
  6
CONTINUOUS
 62
     7
 10
-640.866549749903
 20
97.4375495958448
 30
0.0
 40
3.00000002980232
  1
52,5
 50
359.999999948034
 41
0.933333333333333
 72
     1
 11
-635.566549695899
 21
98.9375496059656
 31
0.0
 73
     2
  0
LINE
  5
   14B
  8
0
  6
CONTINUOUS
 62
     7
 10
-622.166553679581
 20
63.7016487121582
 30
0.0
 11
-622.166553679581
 21
98.4375495910645
 31
0.0
  0
LINE
  5
   14C
  8
0
  6
CONTINUOUS
 62
     7
 10
-648.416560346208
 20
86.6272554401163
 30
0.0
 11
-648.416524273156
 21
98.4375495910551
 31
0.0
  0
LINE
  5
   14D
  8
0
  6
CONTINUOUS
 62
     7
 10
-622.166553679581
 20
96.4375495910645
 30
0.0
 11
-648.416530381903
 21
96.4375495910645
 31
0.0
  0
LINE
  5
   14E
  8
0
  6
CONTINUOUS
 62
     7
 10
-625.120976956788
 20
95.9166051611128
 30
0.0
 11
-622.166553679581
 21
96.4375495910645
 31
0.0
  0
LINE
  5
   14F
  8
0
  6
CONTINUOUS
 62
     7
 10
-622.166553679581
 20
96.4375495910645
 30
0.0
 11
-625.120976956788
 21
96.9584940210161
 31
0.0
  0
LINE
  5
   150
  8
0
  6
CONTINUOUS
 62
     7
 10
-645.462107104696
 20
96.9584940210161
 30
0.0
 11
-648.416530381903
 21
96.4375495910645
 31
0.0
  0
LINE
  5
   151
  8
0
  6
CONTINUOUS
 62
     7
 10
-648.416530381903
 20
96.4375495910645
 30
0.0
 11
-645.462107104696
 21
95.9166051611128
 31
0.0
  0
ENDBLK
  5
   152
  8
0
  6
CONTINUOUS
 62
     7
  0
BLOCK
  5
   153
  8
0
  6
CONTINUOUS
 62
     7
  2
*UDIM291
 70
    65
 10
0.0
 20
0.0
 30
0.0
  3
*UDIM291
  0
TEXT
  5
   154
  8
0
  6
CONTINUOUS
 62
     7
 10
-642.44154590239
 20
87.8017921470303
 30
0.0
 40
3.00000002980232
  1
35
 50
359.999999948034
 41
0.933333333333333
 72
     1
 11
-639.941545876201
 21
89.3017921596766
 31
0.0
 73
     2
  0
LINE
  5
   155
  8
0
  6
CONTINUOUS
 62
     7
 10
-630.916555276445
 20
65.9205927993435
 30
0.0
 11
-630.916555276445
 21
88.8017921447754
 31
0.0
  0
LINE
  5
   156
  8
0
  6
CONTINUOUS
 62
     7
 10
-648.416534377873
 20
77.4766758182818
 30
0.0
 11
-648.416534377873
 21
88.8017921447754
 31
0.0
  0
LINE
  5
   157
  8
0
  6
CONTINUOUS
 62
     7
 10
-630.916555276445
 20
86.8017921447754
 30
0.0
 11
-648.416534377873
 21
86.8017921447754
 31
0.0
  0
LINE
  5
   158
  8
0
  6
CONTINUOUS
 62
     7
 10
-633.870978553653
 20
86.2808477148237
 30
0.0
 11
-630.916555276445
 21
86.8017921447754
 31
0.0
  0
LINE
  5
   159
  8
0
  6
CONTINUOUS
 62
     7
 10
-630.916555276445
 20
86.8017921447754
 30
0.0
 11
-633.870978553653
 21
87.3227365747271
 31
0.0
  0
LINE
  5
   15A
  8
0
  6
CONTINUOUS
 62
     7
 10
-645.462111100666
 20
87.3227365747271
 30
0.0
 11
-648.416534377873
 21
86.8017921447754
 31
0.0
  0
LINE
  5
   15B
  8
0
  6
CONTINUOUS
 62
     7
 10
-648.416534377873
 20
86.8017921447754
 30
0.0
 11
-645.462111100666
 21
86.2808477148237
 31
0.0
  0
ENDBLK
  5
   15C
  8
0
  6
CONTINUOUS
 62
     7
  0
BLOCK
  5
   15D
  8
0
  6
CONTINUOUS
 62
     7
  2
*UDIM292
 70
    65
 10
0.0
 20
0.0
 30
0.0
  3
*UDIM292
  0
TEXT
  5
   15E
  8
0
  6
CONTINUOUS
 62
     7
 10
-659.941545902389
 20
87.8017921470303
 30
0.0
 40
3.00000002980232
  1
35
 50
359.999999948034
 41
0.933333333333333
 72
     1
 11
-657.441545876201
 21
89.3017921596766
 31
0.0
 73
     2
  0
LINE
  5
   15F
  8
0
  6
CONTINUOUS
 62
     7
 10
-665.916555276446
 20
65.9205927993435
 30
0.0
 11
-665.916555276446
 21
88.8017921447754
 31
0.0
  0
LINE
  5
   160
  8
0
  6
CONTINUOUS
 62
     7
 10
-648.416534377873
 20
86.8017921447754
 30
0.0
 11
-665.916555276446
 21
86.8017921447754
 31
0.0
  0
LINE
  5
   161
  8
0
  6
CONTINUOUS
 62
     7
 10
-651.37095765508
 20
86.2808477148237
 30
0.0
 11
-648.416534377873
 21
86.8017921447754
 31
0.0
  0
LINE
  5
   162
  8
0
  6
CONTINUOUS
 62
     7
 10
-648.416534377873
 20
86.8017921447754
 30
0.0
 11
-651.37095765508
 21
87.3227365747271
 31
0.0
  0
LINE
  5
   163
  8
0
  6
CONTINUOUS
 62
     7
 10
-662.962131999239
 20
87.3227365747271
 30
0.0
 11
-665.916555276446
 21
86.8017921447754
 31
0.0
  0
LINE
  5
   164
  8
0
  6
CONTINUOUS
 62
     7
 10
-665.916555276446
 20
86.8017921447754
 30
0.0
 11
-662.962131999239
 21
86.2808477148237
 31
0.0
  0
ENDBLK
  5
   165
  8
0
  6
CONTINUOUS
 62
     7
  0
BLOCK
  5
   166
  8
0
  6
CONTINUOUS
 62
     7
  2
*UDIM293
 70
    65
 10
0.0
 20
0.0
 30
0.0
  3
*UDIM293
  0
TEXT
  5
   167
  8
0
  6
CONTINUOUS
 62
     7
 10
-677.441557335152
 20
87.8017921470303
 30
0.0
 40
3.00000002980232
  1
35
 50
359.999999948034
 41
0.933333333333333
 72
     1
 11
-674.941557308964
 21
89.3017921596766
 31
0.0
 73
     2
  0
LINE
  5
   168
  8
0
  6
CONTINUOUS
 62
     7
 10
-683.416555276446
 20
65.9205927993435
 30
0.0
 11
-683.416555276446
 21
88.8017921447754
 31
0.0
  0
LINE
  5
   169
  8
0
  6
CONTINUOUS
 62
     7
 10
-665.916555276446
 20
86.8017921447754
 30
0.0
 11
-683.416555276446
 21
86.8017921447754
 31
0.0
  0
LINE
  5
   16A
  8
0
  6
CONTINUOUS
 62
     7
 10
-668.870978553652
 20
86.2808477148237
 30
0.0
 11
-665.916555276446
 21
86.8017921447754
 31
0.0
  0
LINE
  5
   16B
  8
0
  6
CONTINUOUS
 62
     7
 10
-665.916555276446
 20
86.8017921447754
 30
0.0
 11
-668.870978553652
 21
87.3227365747271
 31
0.0
  0
LINE
  5
   16C
  8
0
  6
CONTINUOUS
 62
     7
 10
-680.462131999239
 20
87.3227365747271
 30
0.0
 11
-683.416555276446
 21
86.8017921447754
 31
0.0
  0
LINE
  5
   16D
  8
0
  6
CONTINUOUS
 62
     7
 10
-683.416555276446
 20
86.8017921447754
 30
0.0
 11
-680.462131999239
 21
86.2808477148237
 31
0.0
  0
ENDBLK
  5
   16E
  8
0
  6
CONTINUOUS
 62
     7
  0
BLOCK
  5
   16F
  8
0
  6
CONTINUOUS
 62
     7
  2
*UDIM294
 70
    65
 10
0.0
 20
0.0
 30
0.0
  3
*UDIM294
  0
TEXT
  5
   170
  8
0
  6
CONTINUOUS
 62
     7
 10
-617.24632522791
 20
80.6418952989698
 30
0.0
 40
3.00000002980232
  1
17,5
 50
359.999999948034
 41
0.933333333333333
 72
     1
 11
-611.946325173906
 21
82.1418953090906
 31
0.0
 73
     2
  0
LINE
  5
   171
  8
0
  6
CONTINUOUS
 62
     7
 10
-626.541555276446
 20
61.1016731262207
 30
0.0
 11
-626.541555276446
 21
81.6418952941895
 31
0.0
  0
LINE
  5
   172
  8
0
  6
CONTINUOUS
 62
     7
 10
-635.291555276445
 20
61.1016731262207
 30
0.0
 11
-635.291555276445
 21
81.6418952941895
 31
0.0
  0
LINE
  5
   173
  8
0
  6
CONTINUOUS
 62
     7
 10
-606.646325121256
 20
79.6418952941895
 30
0.0
 11
-635.291555276445
 21
79.6418952941895
 31
0.0
  0
LINE
  5
   174
  8
0
  6
CONTINUOUS
 62
     7
 10
-623.587131999239
 20
80.1628397241411
 30
0.0
 11
-626.541555276446
 21
79.6418952941895
 31
0.0
  0
LINE
  5
   175
  8
0
  6
CONTINUOUS
 62
     7
 10
-626.541555276446
 20
79.6418952941895
 30
0.0
 11
-623.587131999239
 21
79.1209508642378
 31
0.0
  0
LINE
  5
   176
  8
0
  6
CONTINUOUS
 62
     7
 10
-638.245978553653
 20
79.1209508642378
 30
0.0
 11
-635.291555276445
 21
79.6418952941895
 31
0.0
  0
LINE
  5
   177
  8
0
  6
CONTINUOUS
 62
     7
 10
-635.291555276445
 20
79.6418952941895
 30
0.0
 11
-638.245978553653
 21
80.1628397241411
 31
0.0
  0
ENDBLK
  5
   178
  8
0
  6
CONTINUOUS
 62
     7
  0
BLOCK
  5
   179
  8
0
  6
CONTINUOUS
 62
     7
  2
*UDIM295
 70
    65
 10
0.0
 20
0.0
 30
0.0
  3
*UDIM295
  0
TEXT
  5
   17A
  8
0
  6
CONTINUOUS
 62
     7
 10
-613.873039506171
 20
71.831415651282
 30
0.0
 40
3.00000002980232
  1
8
 50
359.999999948034
 41
0.933333333333334
 72
     1
 11
-612.773039493891
 21
73.331415665191
 31
0.0
 73
     2
  0
TEXT
  5
   17B
  8
0
  6
CONTINUOUS
 62
     7
 10
-617.023039516105
 20
71.831415651282
 30
0.0
 40
3.00000002980232
  1
Ø
 50
359.999999948034
 41
0.933333333333334
 72
     1
 11
-615.923039503825
 21
73.331415665191
 31
0.0
 73
     2
  0
TEXT
  5
   17C
  8
0
  6
CONTINUOUS
 62
     7
 10
-611.123039472395
 20
71.8314156550702
 30
0.0
 40
3.00000002980232
  1
 C11
 50
359.999999948034
 41
0.933333333333333
 72
     1
 11
-605.823039418391
 21
73.331415665191
 31
0.0
 73
     2
  0
LINE
  5
   17D
  8
0
  6
CONTINUOUS
 62
     7
 10
-628.916555276446
 20
56.1016731262207
 30
0.0
 11
-628.916555276446
 21
72.8314156502899
 31
0.0
  0
LINE
  5
   17E
  8
0
  6
CONTINUOUS
 62
     7
 10
-632.916555276446
 20
56.1016731262207
 30
0.0
 11
-632.916555276446
 21
72.8314156502899
 31
0.0
  0
LINE
  5
   17F
  8
0
  6
CONTINUOUS
 62
     7
 10
-600.523039365741
 20
70.8314156502899
 30
0.0
 11
-632.916555276446
 21
70.8314156502899
 31
0.0
  0
LINE
  5
   180
  8
0
  6
CONTINUOUS
 62
     7
 10
-625.962131999239
 20
71.3523600802415
 30
0.0
 11
-628.916555276446
 21
70.8314156502899
 31
0.0
  0
LINE
  5
   181
  8
0
  6
CONTINUOUS
 62
     7
 10
-628.916555276446
 20
70.8314156502899
 30
0.0
 11
-625.962131999239
 21
70.3104712203382
 31
0.0
  0
LINE
  5
   182
  8
0
  6
CONTINUOUS
 62
     7
 10
-635.870978553652
 20
70.3104712203382
 30
0.0
 11
-632.916555276446
 21
70.8314156502899
 31
0.0
  0
LINE
  5
   183
  8
0
  6
CONTINUOUS
 62
     7
 10
-632.916555276446
 20
70.8314156502899
 30
0.0
 11
-635.870978553652
 21
71.3523600802415
 31
0.0
  0
ENDBLK
  5
   184
  8
0
  6
CONTINUOUS
 62
     7
  0
ENDSEC
  0
SECTION
  2
ENTITIES
  0
LINE
  5
   185
  8
0
  6
CONTINUOUS
 62
     7
 10
-560.500228881836
 20
15.3516654968262
 30
0.0
 11
-560.500228881836
 21
15.6016502380371
 31
0.0
  0
LINE
  5
   186
  8
0
  6
CONTINUOUS
 62
     7
 10
-560.500228881836
 20
23.1016502380371
 30
0.0
 11
-560.500228881836
 21
33.101634979248
 31
0.0
  0
LINE
  5
   187
  8
0
  6
CONTINUOUS
 62
     7
 10
-559.250213623047
 20
15.6016502380371
 30
0.0
 11
-559.250213623047
 21
23.1016502380371
 31
0.0
  0
LINE
  5
   188
  8
0
  6
CONTINUOUS
 62
     7
 10
-559.250213623047
 20
15.6016502380371
 30
0.0
 11
-560.500228881836
 21
15.6016502380371
 31
0.0
  0
LINE
  5
   189
  8
0
  6
CONTINUOUS
 62
     7
 10
-559.250213623047
 20
23.1016502380371
 30
0.0
 11
-560.500228881836
 21
23.1016502380371
 31
0.0
  0
LINE
  5
   18A
  8
0
  6
CONTINUOUS
 62
     7
 10
-559.250213623047
 20
33.101634979248
 30
0.0
 11
-559.250213623047
 21
40.601634979248
 31
0.0
  0
LINE
  5
   18B
  8
0
  6
CONTINUOUS
 62
     7
 10
-559.250213623047
 20
33.101634979248
 30
0.0
 11
-560.500228881836
 21
33.101634979248
 31
0.0
  0
LINE
  5
   18C
  8
0
  6
CONTINUOUS
 62
     7
 10
-559.250213623047
 20
40.601634979248
 30
0.0
 11
-560.500228881836
 21
40.601634979248
 31
0.0
  0
LINE
  5
   18D
  8
0
  6
CONTINUOUS
 62
     7
 10
-526.250236511231
 20
15.3516502380371
 30
0.0
 11
-526.250236511231
 21
42.8516349792481
 31
0.0
  0
LINE
  5
   18E
  8
0
  6
CONTINUOUS
 62
     2
 10
-559.7502252916
 20
64.1016578674316
 30
0.0
 11
-560.500213623047
 21
64.1016578674316
 31
0.0
  0
LINE
  5
   18F
  8
0
  6
CONTINUOUS
 62
     2
 10
-560.500259399646
 20
42.601634979248
 30
0.0
 11
-560.500259399646
 21
52.9089469909668
 31
0.0
  0
LINE
  5
   190
  8
0
  6
CONTINUOUS
 62
     7
 10
-524.500228881836
 20
51.6016349792481
 30
0.0
 11
-526.250228881836
 21
51.6016349792481
 31
0.0
  0
LINE
  5
   191
  8
0
  6
CONTINUOUS
 62
     7
 10
-526.250282287953
 20
42.8516306196413
 30
0.0
 11
-526.250282287953
 21
51.6016306196413
 31
0.0
  0
LINE
  5
   192
  8
0
  6
CONTINUOUS
 62
     7
 10
-558.500228881836
 20
43.851634979248
 30
0.0
 11
-560.500228881836
 21
43.851634979248
 31
0.0
  0
LINE
  5
   193
  8
0
  6
CONTINUOUS
 62
     7
 10
-558.500227610453
 20
43.8516286310117
 30
0.0
 11
-558.500225056086
 21
44.8560469232166
 31
0.0
  0
LINE
  5
   194
  8
0
  6
CONTINUOUS
 62
     7
 10
-526.250236511231
 20
10.6016578674316
 30
0.0
 11
-526.250236511231
 21
15.3516654968262
 31
0.0
  0
LINE
  5
   195
  8
0
  6
CONTINUOUS
 62
     7
 10
-560.500223782175
 20
-19.8983294139438
 30
0.0
 11
-560.500208523386
 21
-19.7512118587752
 31
0.0
  0
LINE
  5
   196
  8
0
  6
CONTINUOUS
 62
     7
 10
-560.500213623187
 20
-12.04544875341
 30
0.0
 11
-560.500213623187
 21
15.3516612319415
 31
0.0
  0
LINE
  5
   197
  8
0
  6
CONTINUOUS
 62
     7
 10
-525.000228881836
 20
-13.1483345031738
 30
0.0
 11
-559.000245666505
 21
-13.1483345031738
 31
0.0
  0
LINE
  5
   198
  8
0
  6
CONTINUOUS
 62
     7
 10
-525.000228881836
 20
-18.6483345031738
 30
0.0
 11
-559.000245666505
 21
-18.6483345031738
 31
0.0
  0
LINE
  5
   199
  8
0
  6
CONTINUOUS
 62
     7
 10
-556.384199383711
 20
-13.1483294185625
 30
0.0
 11
-560.500211780716
 21
-12.045443705494
 31
0.0
  0
LINE
  5
   19A
  8
0
  6
CONTINUOUS
 62
     7
 10
-560.500209473725
 20
-19.7512161332102
 30
0.0
 11
-556.384196981947
 21
-18.648333968814
 31
0.0
  0
LINE
  5
   19B
  8
0
  6
CONTINUOUS
 62
     7
 10
-524.500236511231
 20
-11.6483345031738
 30
0.0
 11
-528.500236511231
 21
-11.6483345031738
 31
0.0
  0
LINE
  5
   19C
  8
0
  6
CONTINUOUS
 62
     7
 10
-528.500236511231
 20
-11.6483345031738
 30
0.0
 11
-528.500236511231
 21
9.60165786743164
 31
0.0
  0
LINE
  5
   19D
  8
0
  6
CONTINUOUS
 62
     7
 10
-560.000213623047
 20
-15.6483345031738
 30
0.0
 11
-560.000213623047
 21
-12.1794242858887
 31
0.0
  0
LINE
  5
   19E
  8
0
  6
CONTINUOUS
 62
     7
 10
-560.000220665547
 20
-19.6172397497931
 30
0.0
 11
-560.000213036159
 21
-19.1483295307202
 31
0.0
  0
LINE
  5
   19F
  8
0
  6
CONTINUOUS
 62
     2
 10
-560.500213623047
 20
-11.6483345031738
 30
0.0
 11
-561.500213623047
 21
-11.6483345031738
 31
0.0
  0
LINE
  5
   1A0
  8
0
  6
CONTINUOUS
 62
     2
 10
-560.500213623047
 20
-8.89833450317383
 30
0.0
 11
-561.500213623047
 21
-8.89833450317383
 31
0.0
  0
LINE
  5
   1A1
  8
0
  6
CONTINUOUS
 62
     7
 10
-524.500247316229
 20
-19.1483149900772
 30
0.0
 11
-525.000239670537
 21
-18.6483226357696
 31
0.0
  0
LINE
  5
   1A2
  8
0
  6
CONTINUOUS
 62
     7
 10
-525.000235200099
 20
-13.1483338021955
 30
0.0
 11
-524.500235217213
 21
-12.6483338193098
 31
0.0
  0
LINE
  5
   1A3
  8
0
  6
CONTINUOUS
 62
     7
 10
-526.250236511231
 20
9.60165786743164
 30
0.0
 11
-526.250236511231
 21
10.6016578674316
 31
0.0
  0
LINE
  5
   1A4
  8
0
  6
CONTINUOUS
 62
     2
 10
-559.500213623047
 20
-28.8983192443842
 30
0.0
 11
-561.500213623047
 21
-28.8983192443842
 31
0.0
  0
LINE
  5
   1A5
  8
0
  6
CONTINUOUS
 62
     7
 10
-560.500228881836
 20
-21.8983345031738
 30
0.0
 11
-560.500228881836
 21
-19.8983345031738
 31
0.0
  0
LINE
  5
   1A6
  8
0
  6
CONTINUOUS
 62
     7
 10
-524.500236511231
 20
-26.3983192443848
 30
0.0
 11
-529.500228881836
 21
-26.3983192443848
 31
0.0
  0
LINE
  5
   1A7
  8
0
  6
CONTINUOUS
 62
     7
 10
-529.500228881836
 20
-28.8983192443848
 30
0.0
 11
-529.500228881836
 21
-26.3983192443848
 31
0.0
  0
LINE
  5
   1A8
  8
0
  6
CONTINUOUS
 62
     7
 10
-560.500228881836
 20
-27.6483097839534
 30
0.0
 11
-560.500228881836
 21
-21.8983345031738
 31
0.0
  0
LINE
  5
   1A9
  8
0
  6
CONTINUOUS
 62
     2
 10
-560.500228881836
 20
42.601634979248
 30
0.0
 11
-560.750213623047
 21
42.601634979248
 31
0.0
  0
LINE
  5
   1AA
  8
0
  6
CONTINUOUS
 62
     7
 10
-560.500221252441
 20
7.35166549682617
 30
0.0
 11
-560.750213623047
 21
7.35166549682617
 31
0.0
  0
LINE
  5
   1AB
  8
0
  6
CONTINUOUS
 62
     7
 10
-560.500213623047
 20
-8.6483325958252
 30
0.0
 11
-560.750213623047
 21
-8.6483325958252
 31
0.0
  0
LINE
  5
   1AC
  8
0
  6
CONTINUOUS
 62
     7
 10
-560.000213623047
 20
-12.3983340263367
 30
0.0
 11
-560.750213623047
 21
-12.3983340263367
 31
0.0
  0
LINE
  5
   1AD
  8
0
  6
CONTINUOUS
 62
     7
 10
-560.500228881836
 20
-20.3983268737793
 30
0.0
 11
-560.750213623047
 21
-20.3983268737793
 31
0.0
  0
LINE
  5
   1AE
  8
0
  6
CONTINUOUS
 62
     2
 10
-560.750213623047
 20
-27.1983144689285
 30
0.0
 11
-560.750213623047
 21
-11.6483421325684
 31
0.0
  0
LINE
  5
   1AF
  8
0
  6
CONTINUOUS
 62
     2
 10
-560.750213623047
 20
-8.89834213256836
 30
0.0
 11
-560.750213623047
 21
42.6016273498535
 31
0.0
  0
LINE
  5
   1B0
  8
0
  6
CONTINUOUS
 62
     7
 10
-560.000213623047
 20
33.1016578674316
 30
0.0
 11
-560.000213623047
 21
40.601634979248
 31
0.0
  0
LINE
  5
   1B1
  8
0
  6
CONTINUOUS
 62
     7
 10
-560.000213623047
 20
15.6016807556152
 30
0.0
 11
-560.000213623047
 21
23.1016731262207
 31
0.0
  0
LINE
  5
   1B2
  8
0
  6
CONTINUOUS
 62
     7
 10
-560.000213623047
 20
-19.1482963562012
 30
0.0
 11
-560.000213623047
 21
-15.6482963562012
 31
0.0
  0
LINE
  5
   1B3
  8
0
  6
CONTINUOUS
 62
     2
 10
-560.550217527563
 20
-27.3983105644124
 30
0.0
 11
-560.7502144735
 21
-27.1983136184755
 31
0.0
  0
LINE
  5
   1B4
  8
0
  6
CONTINUOUS
 62
     2
 10
-560.500213623047
 20
54.7574577331543
 30
0.0
 11
-561.500213623047
 21
54.7574577331543
 31
0.0
  0
LINE
  5
   1B5
  8
0
  6
CONTINUOUS
 62
     2
 10
-560.500213623047
 20
52.9089469909668
 30
0.0
 11
-561.500213623047
 21
52.9089469909668
 31
0.0
  0
LINE
  5
   1B6
  8
0
  6
CONTINUOUS
 62
     7
 10
-526.000244140626
 20
16.8516328906059
 30
0.0
 11
-526.000244140626
 21
44.1016557787895
 31
0.0
  0
LINE
  5
   1B7
  8
0
  6
CONTINUOUS
 62
     7
 10
-512.000267028814
 20
52.1016495259728
 30
0.0
 11
-512.000267028814
 21
64.1016495259728
 31
0.0
  0
LINE
  5
   1B8
  8
0
  6
CONTINUOUS
 62
     7
 10
-512.000228881836
 20
52.1016520690741
 30
0.0
 11
-512.250228881836
 21
52.1016520690741
 31
0.0
  0
LINE
  5
   1B9
  8
0
  6
CONTINUOUS
 62
     7
 10
-512.250228881836
 20
51.8516520690741
 30
0.0
 11
-512.250228881836
 21
52.1016520690741
 31
0.0
  0
LINE
  5
   1BA
  8
0
  6
CONTINUOUS
 62
     7
 10
-524.500228881836
 20
51.3516444396796
 30
0.0
 11
-524.500228881836
 21
51.8516520690741
 31
0.0
  0
LINE
  5
   1BB
  8
0
  6
CONTINUOUS
 62
     7
 10
-512.000225067144
 20
64.101667327855
 30
0.0
 11
-524.500225067144
 21
64.101667327855
 31
0.0
  0
LINE
  5
   1BC
  8
0
  6
CONTINUOUS
 62
     7
 10
-513.250228881836
 20
51.8516520690741
 30
0.0
 11
-513.400230407715
 21
51.8516520690741
 31
0.0
  0
LINE
  5
   1BD
  8
0
  6
CONTINUOUS
 62
     7
 10
-524.500228881836
 20
51.3516596984687
 30
0.0
 11
-526.000228881836
 21
51.3516596984687
 31
0.0
  0
LINE
  5
   1BE
  8
0
  6
CONTINUOUS
 62
     7
 10
-526.000228881836
 20
44.1016596984687
 30
0.0
 11
-526.000228881836
 21
51.3516596984687
 31
0.0
  0
LINE
  5
   1BF
  8
0
  6
CONTINUOUS
 62
     7
 10
-524.50025177002
 20
-25.8983326721368
 30
0.0
 11
-524.50025177002
 21
-22.2600270080743
 31
0.0
  0
LINE
  5
   1C0
  8
0
  6
CONTINUOUS
 62
     7
 10
-526.000236511231
 20
10.8516520690741
 30
0.0
 11
-526.000236511231
 21
16.8516368102851
 31
0.0
  0
LINE
  5
   1C1
  8
0
  6
CONTINUOUS
 62
     7
 10
-526.000236511231
 20
9.60163681028508
 30
0.0
 11
-526.500236511231
 21
9.60163681028508
 31
0.0
  0
LINE
  5
   1C2
  8
0
  6
CONTINUOUS
 62
     7
 10
-513.400246044522
 20
-27.3983174133371
 30
0.0
 11
-524.500252148038
 21
-27.3983174133371
 31
0.0
  0
LINE
  5
   1C3
  8
0
  6
CONTINUOUS
 62
     7
 10
-524.50025177002
 20
-27.3983326721368
 30
0.0
 11
-524.50025177002
 21
-25.8983326721368
 31
0.0
  0
LINE
  5
   1C4
  8
0
  6
CONTINUOUS
 62
     7
 10
-524.500244140625
 20
-22.2600270080743
 30
0.0
 11
-524.500244140625
 21
-18.773328066995
 31
0.0
  0
LINE
  5
   1C5
  8
0
  6
CONTINUOUS
 62
     7
 10
-513.25025177002
 20
-28.8983403015313
 30
0.0
 11
-513.25025177002
 21
-27.3983403015313
 31
0.0
  0
LINE
  5
   1C6
  8
0
  6
CONTINUOUS
 62
     7
 10
-513.25025177002
 20
-27.3983403015313
 30
0.0
 11
-513.400245636702
 21
-27.3983403015313
 31
0.0
  0
LINE
  5
   1C7
  8
0
  6
CONTINUOUS
 62
     7
 10
-526.500236511231
 20
9.60163681028508
 30
0.0
 11
-528.500236511231
 21
9.60163681028508
 31
0.0
  0
LINE
  5
   1C8
  8
0
  6
CONTINUOUS
 62
     7
 10
-526.000236511231
 20
9.60163681028508
 30
0.0
 11
-526.000236511231
 21
10.8516520690741
 31
0.0
  0
LINE
  5
   1C9
  8
0
  6
CONTINUOUS
 62
     7
 10
-513.400247745681
 20
-18.7733174133391
 30
0.0
 11
-524.500246219802
 21
-18.7733174133391
 31
0.0
  0
LINE
  5
   1CA
  8
0
  6
CONTINUOUS
 62
     7
 10
-513.400251422912
 20
-13.0233174133405
 30
0.0
 11
-524.500249897033
 21
-13.0233174133405
 31
0.0
  0
LINE
  5
   1CB
  8
0
  6
CONTINUOUS
 62
     7
 10
-523.850731416964
 20
-25.5233241138073
 30
0.0
 11
-523.75025230673
 21
-25.1483241189843
 31
0.0
  0
LINE
  5
   1CC
  8
0
  6
CONTINUOUS
 62
     7
 10
-524.125247099079
 20
-25.7978486465367
 30
0.0
 11
-523.850733872579
 21
-25.5233277838177
 31
0.0
  0
LINE
  5
   1CD
  8
0
  6
CONTINUOUS
 62
     7
 10
-524.500260412718
 20
-25.8983209542968
 30
0.0
 11
-524.125252798445
 21
-25.7978418364154
 31
0.0
  0
LINE
  5
   1CE
  8
0
  6
CONTINUOUS
 62
     7
 10
-524.125248620561
 20
-19.9988107098898
 30
0.0
 11
-524.500248617812
 21
-19.8983239633625
 31
0.0
  0
LINE
  5
   1CF
  8
0
  6
CONTINUOUS
 62
     7
 10
-523.85073603022
 20
-20.2733281385989
 30
0.0
 11
-524.12524926054
 21
-19.9988149082788
 31
0.0
  0
LINE
  5
   1D0
  8
0
  6
CONTINUOUS
 62
     7
 10
-523.750257496651
 20
-20.6483274434327
 30
0.0
 11
-523.850744243179
 21
-20.2733274461823
 31
0.0
  0
LINE
  5
   1D1
  8
0
  6
CONTINUOUS
 62
     7
 10
-523.750256008555
 20
-25.1483297038193
 30
0.0
 11
-523.750248379161
 21
-20.6483297038193
 31
0.0
  0
LINE
  5
   1D2
  8
0
  6
CONTINUOUS
 62
     7
 10
-513.400245666505
 20
-27.3983403015313
 30
0.0
 11
-513.400245666505
 21
51.8516458126815
 31
0.0
  0
LINE
  5
   1D3
  8
0
  6
CONTINUOUS
 62
     7
 10
-513.40022277832
 20
62.7016581725898
 30
0.0
 11
-544.373878418086
 21
62.7016581725898
 31
0.0
  0
LINE
  5
   1D4
  8
0
  6
CONTINUOUS
 62
     7
 10
-513.400276184089
 20
51.8516486235911
 30
0.0
 11
-513.400276184089
 21
62.7016547271067
 31
0.0
  0
LINE
  5
   1D5
  8
0
  6
CONTINUOUS
 62
     7
 10
-524.500228881836
 20
51.8516596984687
 30
0.0
 11
-524.500228881836
 21
64.1016578674316
 31
0.0
  0
LINE
  5
   1D6
  8
0
  6
CONTINUOUS
 62
     7
 10
-513.250221252441
 20
-32.8983097839532
 30
0.0
 11
-513.250221252441
 21
-27.3983403015313
 31
0.0
  0
LINE
  5
   1D7
  8
0
  6
CONTINUOUS
 62
     7
 10
-510.750221252442
 20
-32.8983097839532
 30
0.0
 11
-510.750221252442
 21
-24.7733097839532
 31
0.0
  0
LINE
  5
   1D8
  8
0
  6
CONTINUOUS
 62
     7
 10
-510.750221252442
 20
27.7266749572577
 30
0.0
 11
-510.750221252442
 21
51.8516749572577
 31
0.0
  0
LINE
  5
   1D9
  8
0
  6
CONTINUOUS
 62
     7
 10
-510.750221252442
 20
51.8516749572577
 30
0.0
 11
-513.250221252441
 21
51.8516749572577
 31
0.0
  0
LINE
  5
   1DA
  8
0
  6
CONTINUOUS
 62
     7
 10
-510.750221252442
 20
-32.8983097839532
 30
0.0
 11
-513.250221252441
 21
-32.8983097839532
 31
0.0
  0
LINE
  5
   1DB
  8
0
  6
CONTINUOUS
 62
     7
 10
-509.750221252441
 20
-24.7733097839532
 30
0.0
 11
-510.750221252442
 21
-24.7733097839532
 31
0.0
  0
LINE
  5
   1DC
  8
0
  6
CONTINUOUS
 62
     7
 10
-509.750221252441
 20
27.7266749572577
 30
0.0
 11
-510.750221252442
 21
27.7266749572577
 31
0.0
  0
LINE
  5
   1DD
  8
0
  6
CONTINUOUS
 62
     7
 10
-513.400257246619
 20
-12.7483479793227
 30
0.0
 11
-513.250255727696
 21
-12.7352254223353
 31
0.0
  0
LINE
  5
   1DE
  8
0
  6
CONTINUOUS
 62
     7
 10
-513.25022994166
 20
-19.0614606948781
 30
0.0
 11
-513.400231464778
 21
-19.0483305084717
 31
0.0
  0
LINE
  5
   1DF
  8
0
  6
CONTINUOUS
 62
     7
 10
-524.500244140625
 20
-13.0233280669937
 30
0.0
 11
-524.500244140625
 21
-11.6483479309259
 31
0.0
  0
LINE
  5
   1E0
  8
0
  6
CONTINUOUS
 62
     7
 10
-513.400223255158
 20
-61.4983101654232
 30
0.0
 11
-560.500214099884
 21
-61.4983101654232
 31
0.0
  0
LINE
  5
   1E1
  8
0
  6
CONTINUOUS
 62
     2
 10
-559.500213623047
 20
-27.6483097839534
 30
0.0
 11
-561.500213623047
 21
-27.6483097839534
 31
0.0
  0
LINE
  5
   1E2
  8
0
  6
CONTINUOUS
 62
     7
 10
-513.400215148926
 20
-27.6483097839534
 30
0.0
 11
-522.000221252441
 21
-27.6483097839534
 31
0.0
  0
LINE
  5
   1E3
  8
0
  6
CONTINUOUS
 62
   218
 10
-512.000213623047
 20
-62.8983097839534
 30
0.0
 11
-512.000213623047
 21
-50.898317413348
 31
0.0
  0
LINE
  5
   1E4
  8
0
  6
CONTINUOUS
 62
     2
 10
-559.500213623047
 20
-28.8983097839534
 30
0.0
 11
-559.500213623047
 21
-27.6483097839534
 31
0.0
  0
LINE
  5
   1E5
  8
0
  6
CONTINUOUS
 62
     7
 10
-513.400219250295
 20
-48.8983174137957
 30
0.0
 11
-513.250221252831
 21
-48.8983156531939
 31
0.0
  0
LINE
  5
   1E6
  8
0
  6
CONTINUOUS
 62
   218
 10
-512.000213623047
 20
-50.898317413348
 30
0.0
 11
-513.400215148926
 21
-50.898317413348
 31
0.0
  0
LINE
  5
   1E7
  8
0
  6
CONTINUOUS
 62
     7
 10
-513.400215148926
 20
-61.4983082580745
 30
0.0
 11
-513.400215148926
 21
-48.8983097839534
 31
0.0
  0
LINE
  5
   1E8
  8
0
  6
CONTINUOUS
 62
     7
 10
-513.400215148926
 20
-48.8983097839534
 30
0.0
 11
-513.400215148926
 21
-27.6483097839534
 31
0.0
  0
LINE
  5
   1E9
  8
0
  6
CONTINUOUS
 62
     7
 10
-513.250221252441
 20
-33.3983097839534
 30
0.0
 11
-513.400215148926
 21
-33.3983097839534
 31
0.0
  0
LINE
  5
   1EA
  8
0
  6
CONTINUOUS
 62
   218
 10
-561.500213623089
 20
-45.8983174128532
 30
0.0
 11
-560.500214099949
 21
-45.8983097834587
 31
0.0
  0
LINE
  5
   1EB
  8
0
  6
CONTINUOUS
 62
   218
 10
-560.500214099884
 20
-64.1483421325684
 30
0.0
 11
-560.500214099884
 21
-45.8983174133477
 31
0.0
  0
LINE
  5
   1EC
  8
0
  6
CONTINUOUS
 62
     7
 10
-524.500226973411
 20
-27.6483097812325
 30
0.0
 11
-524.500219344016
 21
-26.6483097812096
 31
0.0
  0
LINE
  5
   1ED
  8
0
  6
CONTINUOUS
 62
     7
 10
-524.500213623047
 20
-26.6483097839534
 30
0.0
 11
-529.500213623047
 21
-26.6483097839534
 31
0.0
  0
LINE
  5
   1EE
  8
0
  6
CONTINUOUS
 62
     7
 10
-522.000221252441
 20
-27.6483097839534
 30
0.0
 11
-524.500221252442
 21
-27.6483097839534
 31
0.0
  0
LINE
  5
   1EF
  8
0
  6
CONTINUOUS
 62
   218
 10
-560.500213623047
 20
-55.6321130562008
 30
0.0
 11
-561.500213623047
 21
-55.6321130562008
 31
0.0
  0
LINE
  5
   1F0
  8
0
  6
CONTINUOUS
 62
     7
 10
-510.750221252442
 20
-33.1483097839532
 30
0.0
 11
-513.250221252441
 21
-33.1483097839532
 31
0.0
  0
LINE
  5
   1F1
  8
0
  6
CONTINUOUS
 62
     7
 10
-510.750221252442
 20
-50.6483097839532
 30
0.0
 11
-513.250221252441
 21
-50.6483097839532
 31
0.0
  0
LINE
  5
   1F2
  8
0
  6
CONTINUOUS
 62
     7
 10
-510.750221252442
 20
-50.6483097839532
 30
0.0
 11
-510.750221252442
 21
-33.1483097839532
 31
0.0
  0
LINE
  5
   1F3
  8
0
  6
CONTINUOUS
 62
     7
 10
-511.750221252441
 20
-50.6483097839532
 30
0.0
 11
-511.750221252441
 21
-33.1483097839532
 31
0.0
  0
LINE
  5
   1F4
  8
0
  6
CONTINUOUS
 62
     7
 10
-513.250221252441
 20
-50.6483097839532
 30
0.0
 11
-513.250221252441
 21
-33.1483097839532
 31
0.0
  0
ARC
  5
   1F5
  8
0
  6
CONTINUOUS
 62
     7
 10
-494.912694867185
 20
-9.54525051648467
 30
0.0
 40
0.499999897877905
 50
348.623573369035
 51
436.688788706936
  0
ARC
  5
   1F6
  8
0
  6
CONTINUOUS
 62
     7
 10
-495.511067067103
 20
-12.5191595004835
 30
0.0
 40
0.50000037262337
 50
260.593992196011
 51
348.623573369035
  0
LINE
  5
   1F7
  8
0
  6
DASHDOT
 62
     7
 10
-487.512402541411
 20
-12.5995811543819
 30
0.0
 11
-512.570745775865
 21
-7.55766098648368
 31
0.0
  0
LINE
  5
   1F8
  8
0
  6
CONTINUOUS
 62
     7
 10
-494.797574894838
 20
-9.05868404678597
 30
0.0
 11
-505.250221252442
 21
-6.58562345881413
 31
0.0
  0
LINE
  5
   1F9
  8
0
  6
CONTINUOUS
 62
     7
 10
-495.020890622223
 20
-12.617786551767
 30
0.0
 11
-494.422518586598
 21
-9.64387753471133
 31
0.0
  0
LINE
  5
   1FA
  8
0
  6
CONTINUOUS
 62
     7
 10
-495.592781805697
 20
-13.0124372233549
 30
0.0
 11
-505.250221252442
 21
-11.4126180884536
 31
0.0
  0
LINE
  5
   1FB
  8
0
  6
CONTINUOUS
 62
     7
 10
-559.000245666505
 20
-18.6483345031738
 30
0.0
 11
-559.000245666505
 21
-13.1483345031738
 31
0.0
  0
LINE
  5
   1FC
  8
0
  6
CONTINUOUS
 62
     7
 10
-549.000226245274
 20
60.1016578674316
 30
0.0
 11
-551.5002252916
 21
60.1016578674316
 31
0.0
  0
LINE
  5
   1FD
  8
0
  6
DASHDOT
 62
     7
 10
-541.148254805124
 20
55.1016834476763
 30
0.0
 11
-555.214896822562
 21
55.1016834476763
 31
0.0
  0
LINE
  5
   1FE
  8
0
  6
CONTINUOUS
 62
     7
 10
-549.000226245274
 20
57.1016834476763
 30
0.0
 11
-551.5002252916
 21
57.1016834476763
 31
0.0
  0
LINE
  5
   1FF
  8
0
  6
CONTINUOUS
 62
     7
 10
-549.000226245274
 20
53.1016834476763
 30
0.0
 11
-551.5002252916
 21
53.1016834476763
 31
0.0
  0
LINE
  5
   200
  8
0
  6
CONTINUOUS
 62
     7
 10
-549.000226245274
 20
44.8560469180468
 30
0.0
 11
-549.000226245274
 21
60.1016578674316
 31
0.0
  0
LINE
  5
   201
  8
0
  6
CONTINUOUS
 62
     7
 10
-551.5002252916
 20
44.8560469180468
 30
0.0
 11
-551.5002252916
 21
60.1016578674316
 31
0.0
  0
LINE
  5
   202
  8
0
  6
CONTINUOUS
 62
     2
 10
-560.500259399646
 20
54.7574577331543
 30
0.0
 11
-560.500259399646
 21
64.101657328892
 31
0.0
  0
LINE
  5
   203
  8
0
  6
CONTINUOUS
 62
     7
 10
-544.373878418086
 20
49.6016578674316
 30
0.0
 11
-549.000226245274
 21
49.6016578674316
 31
0.0
  0
LINE
  5
   204
  8
0
  6
CONTINUOUS
 62
     7
 10
-544.373878418086
 20
47.6016578674316
 30
0.0
 11
-549.000226245274
 21
47.6016578674316
 31
0.0
  0
LINE
  5
   205
  8
0
  6
CONTINUOUS
 62
     2
 10
-524.500244140625
 20
64.1016578674316
 30
0.0
 11
-560.500259399646
 21
64.1016578674316
 31
0.0
  0
POINT
  5
   206
  8
0
  6
CONTINUOUS
 62
     7
 10
-494.725221252441
 20
-11.1483097839532
 30
0.0
  0
ARC
  5
   207
  8
0
  6
CONTINUOUS
 62
     7
 10
-532.000221252441
 20
-3.6483097839532
 30
0.0
 40
38.0220413050115
 50
333.082565820193
 51
379.93594827737
  0
LINE
  5
   208
  8
0
  6
CONTINUOUS
 62
     7
 10
-493.97817994743
 20
-3.64830978395322
 30
0.0
 11
-493.97817994743
 21
18.0263297314791
 31
0.0
  0
LINE
  5
   209
  8
0
  6
CONTINUOUS
 62
     7
 10
-544.373878418086
 20
44.8560469180468
 30
0.0
 11
-562.704298504161
 21
44.8560469180468
 31
0.0
  0
LINE
  5
   20A
  8
0
  6
CONTINUOUS
 62
     7
 10
-551.5002252916
 20
46.3516578674316
 30
0.0
 11
-554.0002252916
 21
46.3516578674316
 31
0.0
  0
LINE
  5
   20B
  8
0
  6
CONTINUOUS
 62
     7
 10
-555.495836240985
 20
44.8560469180467
 30
0.0
 11
-554.0002252916
 21
46.3516578674316
 31
0.0
  0
INSERT
  5
   20C
  8
0
  6
CONTINUOUS
 62
     7
  2
*HATCH35
 10
-510.000244140625
 20
-53.5168647766113
 30
0.0
 41
0.5
 42
0.5
 50
89.9999999480344
 43
0.5
  0
LINE
  5
   20D
  8
0
  6
CONTINUOUS
 62
   218
 10
-512.000214099884
 20
-62.8983097839532
 30
0.0
 11
-560.500214099884
 21
-62.8983097839532
 31
0.0
  0
LINE
  5
   20E
  8
0
  6
CONTINUOUS
 62
     7
 10
-529.500228881836
 20
-28.8983192443842
 30
0.0
 11
-559.500213623047
 21
-28.8983192443842
 31
0.0
  0
LINE
  5
   20F
  8
0
  6
DASHDOT
 62
     7
 10
-468.057785568043
 20
1.47667495725773
 30
0.0
 11
-478.004362955386
 21
1.47667495725773
 31
0.0
  0
LINE
  5
   210
  8
0
  6
CONTINUOUS
 62
     2
 10
-511.375267028814
 20
65.3516578674316
 30
0.0
 11
-544.373878418086
 21
65.3516578674316
 31
0.0
  0
LINE
  5
   211
  8
0
  6
CONTINUOUS
 62
     2
 10
-510.750267028814
 20
52.3516749572577
 30
0.0
 11
-510.750267028814
 21
64.7266578674316
 31
0.0
  0
ARC
  5
   212
  8
0
  6
CONTINUOUS
 62
     2
 10
-511.375267028814
 20
64.7266578674316
 30
0.0
 40
0.625
 50
359.999999948034
 51
449.999999948034
  0
LINE
  5
   213
  8
0
  6
CONTINUOUS
 62
     2
 10
-510.750221252442
 20
52.3516749572577
 30
0.0
 11
-511.250267028814
 21
52.3516749572577
 31
0.0
  0
LINE
  5
   214
  8
0
  6
CONTINUOUS
 62
     2
 10
-511.250267028814
 20
51.8516749572577
 30
0.0
 11
-511.250267028814
 21
52.3516749572577
 31
0.0
  0
LINE
  5
   215
  8
0
  6
DASHDOT
 62
     7
 10
-541.250226245274
 20
55.1016834476763
 30
0.0
 11
-553.000226245274
 21
55.1016834476763
 31
0.0
  0
LINE
  5
   216
  8
0
  6
CONTINUOUS
 62
     7
 10
-544.373878418086
 20
44.8560469180468
 30
0.0
 11
-544.373878418086
 21
66.1562556484724
 31
0.0
  0
INSERT
  5
   217
  8
0
  6
CONTINUOUS
 62
     7
  2
*HATCH36
 10
-510.000244140625
 20
-53.5168647766113
 30
0.0
 41
0.5
 42
0.5
 50
89.9999999480344
 43
0.5
  0
INSERT
  5
   218
  8
0
  6
CONTINUOUS
 62
     7
  2
*HATCH37
 10
-510.000244140625
 20
-53.5168647766113
 30
0.0
 41
0.5
 42
0.5
 50
89.9999999480344
 43
0.5
  0
INSERT
  5
   219
  8
0
  6
CONTINUOUS
 62
     7
  2
*HATCH38
 10
-510.000244140625
 20
-53.5168647766113
 30
0.0
 41
0.5
 42
0.5
 50
89.9999999480344
 43
0.5
  0
LINE
  5
   21A
  8
0
  6
CONTINUOUS
 62
     7
 10
-560.500228881836
 20
7.35168258665225
 30
0.0
 11
-560.750221252442
 21
7.35168258665225
 31
0.0
  0
LINE
  5
   21B
  8
0
  6
CONTINUOUS
 62
     7
 10
-561.500221252441
 20
51.3516749572577
 30
0.0
 11
-561.500221252441
 21
56.8516749572577
 31
0.0
  0
LINE
  5
   21C
  8
0
  6
CONTINUOUS
 62
     7
 10
-561.500221252441
 20
-11.6483174133478
 30
0.0
 11
-561.500221252441
 21
-8.89831741334775
 31
0.0
  0
LINE
  5
   21D
  8
0
  6
CONTINUOUS
 62
     7
 10
-561.500221252441
 20
-45.8983003230271
 30
0.0
 11
-561.500221252441
 21
-28.8983021545581
 31
0.0
  0
LINE
  5
   21E
  8
0
  6
CONTINUOUS
 62
     7
 10
-561.500221252441
 20
-55.6483250427423
 30
0.0
 11
-561.500221252441
 21
-50.1483250427423
 31
0.0
  0
LINE
  5
   21F
  8
0
  6
CONTINUOUS
 62
     7
 10
-560.500267029041
 20
56.8516749572577
 30
0.0
 11
-561.500221252441
 21
56.8516749572577
 31
0.0
  0
LINE
  5
   220
  8
0
  6
CONTINUOUS
 62
     7
 10
-560.500267029041
 20
51.3516749572577
 30
0.0
 11
-561.500221252441
 21
51.3516749572577
 31
0.0
  0
LINE
  5
   221
  8
0
  6
CONTINUOUS
 62
     7
 10
-560.500221729279
 20
-50.1483250427423
 30
0.0
 11
-561.500221252441
 21
-50.1483250427423
 31
0.0
  0
LINE
  5
   222
  8
0
  6
CONTINUOUS
 62
     7
 10
-560.500221729279
 20
-55.6483250427423
 30
0.0
 11
-561.500221252441
 21
-55.6483250427423
 31
0.0
  0
LINE
  5
   223
  8
0
  6
CONTINUOUS
 62
   130
 10
-561.500221252441
 20
57.6016749572577
 30
0.0
 11
-562.250221252441
 21
57.6016749572577
 31
0.0
  0
LINE
  5
   224
  8
0
  6
CONTINUOUS
 62
   130
 10
-561.500221252441
 20
-56.3983250427423
 30
0.0
 11
-561.500221252441
 21
57.6016749572577
 31
0.0
  0
LINE
  5
   225
  8
0
  6
CONTINUOUS
 62
   130
 10
-562.250221252441
 20
18.1016930770697
 30
0.0
 11
-562.250221252441
 21
57.6016749572577
 31
0.0
  0
ARC
  5
   226
  8
0
  6
CONTINUOUS
 62
   130
 10
-562.500221252441
 20
56.3516749572577
 30
0.0
 40
0.25
 50
269.999999948034
 51
359.999999948034
  0
LINE
  5
   227
  8
0
  6
CONTINUOUS
 62
   130
 10
-562.500221252441
 20
56.1016749572577
 30
0.0
 11
-563.000221252441
 21
56.1016749572577
 31
0.0
  0
LINE
  5
   228
  8
0
  6
CONTINUOUS
 62
   130
 10
-563.000221252441
 20
52.1016749572577
 30
0.0
 11
-563.000221252441
 21
56.1016749572577
 31
0.0
  0
LINE
  5
   229
  8
0
  6
CONTINUOUS
 62
   130
 10
-562.500221252441
 20
52.1016749572577
 30
0.0
 11
-563.000221252441
 21
52.1016749572577
 31
0.0
  0
ARC
  5
   22A
  8
0
  6
CONTINUOUS
 62
   130
 10
-562.500221252441
 20
51.8516749572577
 30
0.0
 40
0.25
 50
359.999999948034
 51
449.999999948034
  0
LINE
  5
   22B
  8
0
  6
CONTINUOUS
 62
   130
 10
-561.500221252441
 20
18.1016930770697
 30
0.0
 11
-565.000221252441
 21
18.1016930770697
 31
0.0
  0
ARC
  5
   22C
  8
0
  6
CONTINUOUS
 62
   130
 10
-565.000221252441
 20
16.3516930770697
 30
0.0
 40
1.75
 50
89.9999999480344
 51
179.999999948034
  0
LINE
  5
   22D
  8
0
  6
CONTINUOUS
 62
   130
 10
-565.420094233519
 20
12.6016930770698
 30
0.0
 11
-564.750221252442
 21
15.1016930770698
 31
0.0
  0
LINE
  5
   22E
  8
0
  6
CONTINUOUS
 62
   130
 10
-565.420094233519
 20
12.6016930770697
 30
0.0
 11
-566.750221252441
 21
12.6016930770697
 31
0.0
  0
LINE
  5
   22F
  8
0
  6
CONTINUOUS
 62
   130
 10
-566.750221252441
 20
12.6016930770697
 30
0.0
 11
-566.750221252441
 21
16.3516930770697
 31
0.0
  0
LINE
  5
   230
  8
0
  6
CONTINUOUS
 62
   130
 10
-563.250221252441
 20
-22.6483069229303
 30
0.0
 11
-563.250221252441
 21
15.1016930770697
 31
0.0
  0
LINE
  5
   231
  8
0
  6
CONTINUOUS
 62
   130
 10
-563.250221252441
 20
15.1016930770697
 30
0.0
 11
-564.750221252442
 21
15.1016930770697
 31
0.0
  0
LINE
  5
   232
  8
0
  6
CONTINUOUS
 62
   130
 10
-563.250221252441
 20
-22.6483069229303
 30
0.0
 11
-564.750221252442
 21
-22.6483069229303
 31
0.0
  0
LINE
  5
   233
  8
0
  6
CONTINUOUS
 62
   130
 10
-566.750221252441
 20
-23.1842053077925
 30
0.0
 11
-564.750221252442
 21
-22.6483069229303
 31
0.0
  0
LINE
  5
   234
  8
0
  6
CONTINUOUS
 62
   130
 10
-566.750221252441
 20
-23.8983069229303
 30
0.0
 11
-566.750221252441
 21
-23.1842053077925
 31
0.0
  0
ARC
  5
   235
  8
0
  6
CONTINUOUS
 62
   130
 10
-565.000221252441
 20
-23.8983069229303
 30
0.0
 40
1.75
 50
179.999999948034
 51
224.415308545227
  0
ARC
  5
   236
  8
0
  6
CONTINUOUS
 62
   130
 10
-565.000221252441
 20
-23.8983069229303
 30
0.0
 40
1.75
 50
224.415308545227
 51
269.999999948034
  0
LINE
  5
   237
  8
0
  6
CONTINUOUS
 62
   130
 10
-561.500221252441
 20
-25.6483069229303
 30
0.0
 11
-565.000221252441
 21
-25.6483069229303
 31
0.0
  0
LINE
  5
   238
  8
0
  6
CONTINUOUS
 62
   130
 10
-563.000221252441
 20
-25.6483069229303
 30
0.0
 11
-566.250221252441
 21
-25.6483069229303
 31
0.0
  0
LINE
  5
   239
  8
0
  6
CONTINUOUS
 62
   130
 10
-566.250221252441
 20
-25.6483069229303
 30
0.0
 11
-566.250221252441
 21
-25.1230517943219
 31
0.0
  0
ARC
  5
   23A
  8
0
  6
CONTINUOUS
 62
   130
 10
-562.500221252441
 20
-50.6483250427423
 30
0.0
 40
0.25
 50
269.999999948034
 51
359.999999948034
  0
LINE
  5
   23B
  8
0
  6
CONTINUOUS
 62
   130
 10
-562.500221252441
 20
-50.8983250427423
 30
0.0
 11
-563.000221252441
 21
-50.8983250427423
 31
0.0
  0
LINE
  5
   23C
  8
0
  6
CONTINUOUS
 62
   130
 10
-563.000221252441
 20
-54.8983250427423
 30
0.0
 11
-563.000221252441
 21
-50.8983250427423
 31
0.0
  0
LINE
  5
   23D
  8
0
  6
CONTINUOUS
 62
   130
 10
-562.500221252441
 20
-54.8983250427423
 30
0.0
 11
-563.000221252441
 21
-54.8983250427423
 31
0.0
  0
ARC
  5
   23E
  8
0
  6
CONTINUOUS
 62
   130
 10
-562.500221252441
 20
-55.1483250427423
 30
0.0
 40
0.25
 50
359.999999948034
 51
449.999999948034
  0
LINE
  5
   23F
  8
0
  6
CONTINUOUS
 62
     2
 10
-563.250221252441
 20
15.1016930770697
 30
0.0
 11
-564.750221252442
 21
15.1016930770697
 31
0.0
  0
LINE
  5
   240
  8
0
  6
CONTINUOUS
 62
     2
 10
-563.250221252441
 20
-22.3983069229303
 30
0.0
 11
-564.750221252442
 21
-22.3983069229303
 31
0.0
  0
LINE
  5
   241
  8
0
  6
CONTINUOUS
 62
     2
 10
-564.750221252442
 20
10.3516930770697
 30
0.0
 11
-564.750221252442
 21
15.1016930770697
 31
0.0
  0
ARC
  5
   242
  8
0
  6
CONTINUOUS
 62
     2
 10
-566.250221252441
 20
10.3516930770697
 30
0.0
 40
3.0
 50
269.999999948034
 51
359.999999948034
  0
ARC
  5
   243
  8
0
  6
CONTINUOUS
 62
     2
 10
-566.250221252441
 20
10.3516930770697
 30
0.0
 40
1.5
 50
269.999999948034
 51
359.999999948034
  0
LINE
  5
   244
  8
0
  6
CONTINUOUS
 62
     2
 10
-566.250221252441
 20
7.35169307706972
 30
0.0
 11
-572.750221252441
 21
7.35169307706972
 31
0.0
  0
LINE
  5
   245
  8
0
  6
CONTINUOUS
 62
     2
 10
-566.250221252441
 20
8.85169307706972
 30
0.0
 11
-572.750221252441
 21
8.85169307706972
 31
0.0
  0
LINE
  5
   246
  8
0
  6
CONTINUOUS
 62
     2
 10
-566.250221252441
 20
-14.6483069229303
 30
0.0
 11
-572.750221252441
 21
-14.6483069229303
 31
0.0
  0
ARC
  5
   247
  8
0
  6
CONTINUOUS
 62
     2
 10
-566.250221252441
 20
-17.6483069229303
 30
0.0
 40
3.0
 50
359.999999948034
 51
449.999999948034
  0
ARC
  5
   248
  8
0
  6
CONTINUOUS
 62
     2
 10
-566.250221252441
 20
-17.6483069229303
 30
0.0
 40
1.5
 50
359.999999948034
 51
449.999999948034
  0
LINE
  5
   249
  8
0
  6
CONTINUOUS
 62
     2
 10
-564.750221252442
 20
-22.3983069229303
 30
0.0
 11
-564.750221252442
 21
-17.6483069229303
 31
0.0
  0
LINE
  5
   24A
  8
0
  6
CONTINUOUS
 62
     2
 10
-566.250221252441
 20
-16.1483069229303
 30
0.0
 11
-572.750221252441
 21
-16.1483069229303
 31
0.0
  0
LINE
  5
   24B
  8
0
  6
CONTINUOUS
 62
     2
 10
-563.250221252441
 20
10.3516930770697
 30
0.0
 11
-563.250221252441
 21
15.1016930770697
 31
0.0
  0
LINE
  5
   24C
  8
0
  6
CONTINUOUS
 62
     2
 10
-563.250221252441
 20
-22.3983069229303
 30
0.0
 11
-563.250221252441
 21
-17.6483069229303
 31
0.0
  0
LINE
  5
   24D
  8
0
  6
CONTINUOUS
 62
   130
 10
-561.500221252441
 20
-56.3983250427423
 30
0.0
 11
-562.250221252441
 21
-56.3983250427423
 31
0.0
  0
LINE
  5
   24E
  8
0
  6
CONTINUOUS
 62
   130
 10
-562.250221252441
 20
-56.3983250427423
 30
0.0
 11
-562.250221252441
 21
-25.6483069229303
 31
0.0
  0
LINE
  5
   24F
  8
0
  6
CONTINUOUS
 62
     1
 10
-566.000221252441
 20
52.8516749572577
 30
0.0
 11
-566.000221252441
 21
55.3516749572577
 31
0.0
  0
LINE
  5
   250
  8
0
  6
CONTINUOUS
 62
     1
 10
-563.000221252441
 20
55.3516749572577
 30
0.0
 11
-566.000221252441
 21
55.3516749572577
 31
0.0
  0
LINE
  5
   251
  8
0
  6
CONTINUOUS
 62
     1
 10
-563.000221252441
 20
52.8516749572577
 30
0.0
 11
-566.000221252441
 21
52.8516749572577
 31
0.0
  0
LINE
  5
   252
  8
0
  6
CONTINUOUS
 62
     7
 10
-563.000221252441
 20
55.1063029572577
 30
0.0
 11
-566.000221252441
 21
55.1063029572577
 31
0.0
  0
LINE
  5
   253
  8
0
  6
CONTINUOUS
 62
     7
 10
-563.000221252441
 20
53.0970469572577
 30
0.0
 11
-566.000221252441
 21
53.0970469572577
 31
0.0
  0
LINE
  5
   254
  8
0
  6
CONTINUOUS
 62
     1
 10
-563.000221252441
 20
-51.6483250427423
 30
0.0
 11
-566.000221252441
 21
-51.6483250427423
 31
0.0
  0
LINE
  5
   255
  8
0
  6
CONTINUOUS
 62
     7
 10
-563.000221252441
 20
-51.8936970427423
 30
0.0
 11
-566.000221252441
 21
-51.8936970427423
 31
0.0
  0
LINE
  5
   256
  8
0
  6
CONTINUOUS
 62
     7
 10
-563.000221252441
 20
-53.9029530427423
 30
0.0
 11
-566.000221252441
 21
-53.9029530427423
 31
0.0
  0
LINE
  5
   257
  8
0
  6
CONTINUOUS
 62
     1
 10
-563.000221252441
 20
-54.1483250427423
 30
0.0
 11
-566.000221252441
 21
-54.1483250427423
 31
0.0
  0
LINE
  5
   258
  8
0
  6
CONTINUOUS
 62
     1
 10
-566.000221252441
 20
-54.1483250427423
 30
0.0
 11
-566.000221252441
 21
-51.6483250427423
 31
0.0
  0
ARC
  5
   259
  8
0
  6
CONTINUOUS
 62
   130
 10
-563.000221252441
 20
-44.6483069229303
 30
0.0
 40
1.5
 50
419.999999948034
 51
449.999999948034
  0
ARC
  5
   25A
  8
0
  6
CONTINUOUS
 62
   130
 10
-563.000221252441
 20
-44.6483069229303
 30
0.0
 40
0.75
 50
359.999999948034
 51
449.999999948034
  0
LINE
  5
   25B
  8
0
  6
CONTINUOUS
 62
   130
 10
-563.000221252441
 20
-43.1483069229303
 30
0.0
 11
-566.250221252441
 21
-43.1483069229303
 31
0.0
  0
LINE
  5
   25C
  8
0
  6
CONTINUOUS
 62
   130
 10
-563.000221252441
 20
-43.8983069229303
 30
0.0
 11
-566.250221252441
 21
-43.8983069229303
 31
0.0
  0
LINE
  5
   25D
  8
0
  6
CONTINUOUS
 62
   130
 10
-566.250221252441
 20
-43.8983069229303
 30
0.0
 11
-566.250221252441
 21
-43.1483069229303
 31
0.0
  0
POINT
  5
   25E
  8
0
  6
CONTINUOUS
 62
   130
 10
-564.750221252442
 20
-22.3983069229303
 30
0.0
  0
LINE
  5
   25F
  8
0
  6
CONTINUOUS
 62
     5
 10
-564.452282854293
 20
-22.6483069229303
 30
0.0
 11
-565.468334986506
 21
-21.7957379535333
 31
0.0
  0
LINE
  5
   260
  8
0
  6
CONTINUOUS
 62
     5
 10
-565.408778898185
 20
-22.8247669122767
 30
0.0
 11
-565.950425693771
 21
-22.3702712858725
 31
0.0
  0
LINE
  5
   261
  8
0
  6
CONTINUOUS
 62
     5
 10
-564.150221252441
 20
-67.8782926941271
 30
0.0
 11
-564.150221252441
 21
-54.1483250427423
 31
0.0
  0
LINE
  5
   262
  8
0
  6
CONTINUOUS
 62
     5
 10
-563.400221252441
 20
-67.8782926941271
 30
0.0
 11
-563.400221252441
 21
-54.1483250427423
 31
0.0
  0
LINE
  5
   263
  8
0
  6
CONTINUOUS
 62
     5
 10
-565.950425693771
 20
-22.3702712858725
 30
0.0
 11
-565.468334986506
 21
-21.7957379535333
 31
0.0
  0
LINE
  5
   264
  8
0
  6
CONTINUOUS
 62
     5
 10
-563.400221252441
 20
-67.8782926941271
 30
0.0
 11
-564.150221252441
 21
-67.8782926941271
 31
0.0
  0
ARC
  5
   265
  8
0
  6
CONTINUOUS
 62
     2
 10
-572.750221252441
 20
-13.1483069229303
 30
0.0
 40
3.0
 50
179.999999948034
 51
269.999999948034
  0
ARC
  5
   266
  8
0
  6
CONTINUOUS
 62
     2
 10
-572.750221252441
 20
-13.1483069229303
 30
0.0
 40
1.5
 50
179.999999948034
 51
269.999999948034
  0
LINE
  5
   267
  8
0
  6
CONTINUOUS
 62
     2
 10
-574.250221252441
 20
-13.1483069229303
 30
0.0
 11
-574.250221252441
 21
5.85169307706973
 31
0.0
  0
LINE
  5
   268
  8
0
  6
CONTINUOUS
 62
     2
 10
-575.750221252441
 20
-13.1483069229303
 30
0.0
 11
-575.750221252441
 21
5.85169307706973
 31
0.0
  0
ARC
  5
   269
  8
0
  6
CONTINUOUS
 62
     2
 10
-572.750221252441
 20
5.85169307706972
 30
0.0
 40
1.5
 50
89.9999999480344
 51
179.999999948034
  0
ARC
  5
   26A
  8
0
  6
CONTINUOUS
 62
     2
 10
-572.750221252441
 20
5.85169307706972
 30
0.0
 40
3.0
 50
89.9999999480344
 51
179.999999948034
  0
LINE
  5
   26B
  8
0
  6
CONTINUOUS
 62
     5
 10
-563.400221252441
 20
-51.6483250427423
 30
0.0
 11
-563.400221252441
 21
-43.8983069229303
 31
0.0
  0
LINE
  5
   26C
  8
0
  6
CONTINUOUS
 62
     5
 10
-564.150221252441
 20
-51.6483250427423
 30
0.0
 11
-564.150221252441
 21
-43.8983069229303
 31
0.0
  0
LINE
  5
   26D
  8
0
  6
CONTINUOUS
 62
     5
 10
-563.400221252441
 20
-43.1483069229303
 30
0.0
 11
-563.400221252441
 21
-25.6483069229303
 31
0.0
  0
LINE
  5
   26E
  8
0
  6
CONTINUOUS
 62
     5
 10
-564.150221252441
 20
-43.1483069229303
 30
0.0
 11
-564.150221252441
 21
-25.6483069229303
 31
0.0
  0
LINE
  5
   26F
  8
0
  6
CONTINUOUS
 62
   130
 10
-564.150221252441
 20
-37.7983069229303
 30
0.0
 11
-565.100221252442
 21
-37.7983069229303
 31
0.0
  0
LINE
  5
   270
  8
0
  6
CONTINUOUS
 62
   130
 10
-562.450221252442
 20
-37.7983069229303
 30
0.0
 11
-563.400221252441
 21
-37.7983069229303
 31
0.0
  0
LINE
  5
   271
  8
0
  6
CONTINUOUS
 62
   130
 10
-565.100221252442
 20
-43.1483069229303
 30
0.0
 11
-565.100221252442
 21
-37.7983069229303
 31
0.0
  0
LINE
  5
   272
  8
0
  6
CONTINUOUS
 62
   130
 10
-562.450221252442
 20
-43.1483069229303
 30
0.0
 11
-562.450221252442
 21
-37.7983069229303
 31
0.0
  0
LINE
  5
   273
  8
0
  6
DASHDOT
 62
     7
 10
-557.040296223883
 20
54.1016749572577
 30
0.0
 11
-567.058431721927
 21
54.1016749572577
 31
0.0
  0
LINE
  5
   274
  8
0
  6
DASHDOT
 62
     7
 10
-557.040296223883
 20
-52.8983250427423
 30
0.0
 11
-567.058431721927
 21
-52.8983250427423
 31
0.0
  0
LINE
  5
   275
  8
0
  6
CONTINUOUS
 62
     2
 10
-511.375267028814
 20
-64.1483421325684
 30
0.0
 11
-560.500214099884
 21
-64.1483421325684
 31
0.0
  0
ARC
  5
   276
  8
0
  6
CONTINUOUS
 62
     2
 10
-511.375267028814
 20
-63.5233421325684
 30
0.0
 40
0.625
 50
269.999999948034
 51
359.999999948034
  0
LINE
  5
   277
  8
0
  6
CONTINUOUS
 62
     2
 10
-510.750267028814
 20
-63.5233421325684
 30
0.0
 11
-510.750267028814
 21
-51.1483592223945
 31
0.0
  0
LINE
  5
   278
  8
0
  6
CONTINUOUS
 62
     2
 10
-510.750221252442
 20
-51.1483592223945
 30
0.0
 11
-511.250267028814
 21
-51.1483592223945
 31
0.0
  0
LINE
  5
   279
  8
0
  6
CONTINUOUS
 62
     2
 10
-511.250267028814
 20
-51.1483592223945
 30
0.0
 11
-511.250267028814
 21
-50.6483592223945
 31
0.0
  0
INSERT
  5
   27A
  8
255
  6
CONTINUOUS
 62
     7
  2
DIN
 10
-509.750221252441
 20
-24.7733250427423
 30
0.0
 41
0.5
 42
0.5
 50
3.50835464724173E-15
 43
0.5
  0
LINE
  5
   27B
  8
0
  6
DASHDOT
 62
     7
 10
-498.926165571391
 20
-3.64832504274227
 30
0.0
 11
-579.80472019042
 21
-3.64832504274227
 31
0.0
  0
LINE
  5
   27C
  8
0
  6
DASHDOT
 62
     7
 10
-489.230041571498
 20
1.47667495725773
 30
0.0
 11
-569.379350796083
 21
1.47667495725773
 31
0.0
  0
TEXT
  5
   27D
  8
0
  6
CONTINUOUS
 62
     1
 10
-504.310064922677
 20
-149.407062022196
 30
0.0
 40
2.00000008940697
  1
M 3076 95-01-16
 50
359.999999948034
 41
0.749999861419206
 72
     2
 11
-482.11006804
 21
-149.407062042219
 31
0.0
  0
INSERT
  5
   27E
  8
0
  6
CONTINUOUS
 62
     7
  2
*UDIM272
 10
0.0
 20
0.0
 30
0.0
  0
INSERT
  5
   27F
  8
0
  6
CONTINUOUS
 62
     7
  2
*UDIM273
 10
0.0
 20
0.0
 30
0.0
  0
INSERT
  5
   280
  8
0
  6
CONTINUOUS
 62
     7
  2
*UDIM274
 10
0.0
 20
0.0
 30
0.0
  0
INSERT
  5
   281
  8
0
  6
CONTINUOUS
 62
     7
  2
*UDIM275
 10
0.0
 20
0.0
 30
0.0
  0
INSERT
  5
   282
  8
0
  6
CONTINUOUS
 62
     7
  2
*UDIM276
 10
0.0
 20
0.0
 30
0.0
  0
INSERT
  5
   283
  8
0
  6
CONTINUOUS
 62
     7
  2
*UDIM277
 10
0.0
 20
0.0
 30
0.0
  0
INSERT
  5
   284
  8
0
  6
CONTINUOUS
 62
     7
  2
*UDIM278
 10
0.0
 20
0.0
 30
0.0
  0
INSERT
  5
   285
  8
0
  6
CONTINUOUS
 62
     7
  2
*UDIM279
 10
0.0
 20
0.0
 30
0.0
  0
TEXT
  5
   286
  8
0
  6
CONTINUOUS
 62
     1
 10
-511.600387530433
 20
-134.394298080746
 30
0.0
 40
2.00000008940697
  1
93-11-15 BARCELLA
 50
359.999999948034
 41
0.749999861419206
 72
     2
 11
-486.400391067968
 21
-134.394298103475
 31
0.0
  0
TEXT
  5
   287
  8
0
  6
CONTINUOUS
 62
     1
 10
-409.308593664381
 20
-160.425845458897
 30
0.0
 40
4.00000017881393
  1
601812/441
 50
359.999999948034
 41
0.937499973922969
 72
     2
 11
-372.558593064609
 21
-160.425845492044
 31
0.0
  0
TEXT
  5
   288
  8
0
  6
CONTINUOUS
 62
     1
 10
-391.222900326411
 20
-151.444263377636
 30
0.0
 40
3.00000002980232
  1
S4
 50
359.999999948034
 41
0.916666604744064
 72
     2
 11
-386.27290061599
 21
-151.444263382101
 31
0.0
  0
TEXT
  5
   289
  8
0
  6
CONTINUOUS
 62
     1
 10
-421.257319971333
 20
-133.133991265116
 30
0.0
 40
2.00000008940697
  1
3/4POLE LOW VOLTAGE M.C.C.B SERIES ISOMAX
 50
359.999999948034
 41
0.749999861419206
 72
     1
 11
-390.657324260475
 21
-132.133991248012
 31
0.0
 73
     2
  0
TEXT
  5
   28A
  8
0
  6
CONTINUOUS
 62
     1
 10
-416.007320575571
 20
-136.133991269851
 30
0.0
 40
2.00000008940697
  1
FIXED VERSION DIN CHANNEL ASSEMBLY
 50
359.999999948034
 41
0.749999861419206
 72
     1
 11
-390.657324129341
 21
-135.133991248012
 31
0.0
 73
     2
  0
TEXT
  5
   28B
  8
0
  6
CONTINUOUS
 62
     1
 10
-416.554928548793
 20
-141.20425799619
 30
0.0
 40
2.00000008940697
  1
INTERR.AUTOMATICO SERIE ISOMAX
 50
359.999999948034
 41
0.749999861419206
 72
     1
 11
-394.20493168235
 21
-140.204257971645
 31
0.0
 73
     2
  0
TEXT
  5
   28C
  8
0
  6
CONTINUOUS
 62
     1
 10
-428.554926736808
 20
-144.204257985366
 30
0.0
 40
2.00000008940697
  1
TRIP./TETRAP.ESECUZIONE FISSA SU PROFILATO DIN
 50
359.999999948034
 41
0.749999861419206
 72
     1
 11
-394.204931551216
 21
-143.204257971645
 31
0.0
 73
     2
  0
TEXT
  5
   28D
  8
0
  6
CONTINUOUS
 62
     7
 10
-466.598850162189
 20
0.105664069153429
 30
0.0
 40
3.00000002980232
  1
X
 50
359.999999948034
 41
0.916666604744064
 72
     1
 11
-465.498850226401
 21
1.60566408306245
 31
0.0
 73
     2
  0
LINE
  5
   28E
  8
0
  6
CONTINUOUS
 62
     7
 10
-642.291547480698
 20
52.1016426086426
 30
0.0
 11
-654.541539851304
 21
52.1016426086426
 31
0.0
  0
LINE
  5
   28F
  8
0
  6
CONTINUOUS
 62
     7
 10
-622.166553679581
 20
51.8516502380371
 30
0.0
 11
-622.166553679581
 21
62.7016487121582
 31
0.0
  0
LINE
  5
   290
  8
0
  6
CONTINUOUS
 62
     7
 10
-674.666523162003
 20
-51.3983829800767
 30
0.0
 11
-674.666523162003
 21
-24.7733345031738
 31
0.0
  0
LINE
  5
   291
  8
0
  6
CONTINUOUS
 62
     7
 10
-674.666523162003
 20
27.7266426086426
 30
0.0
 11
-674.666523162003
 21
52.6016426179195
 31
0.0
  0
LINE
  5
   292
  8
0
  6
CONTINUOUS
 62
     7
 10
-648.416538420792
 20
51.8516578674316
 30
0.0
 11
-674.666523162003
 21
51.8516578674316
 31
0.0
  0
LINE
  5
   293
  8
0
  6
CONTINUOUS
 62
   210
 10
-648.416538420792
 20
-32.8983268737793
 30
0.0
 11
-674.666523162003
 21
-32.8983268737793
 31
0.0
  0
LINE
  5
   294
  8
0
  6
CONTINUOUS
 62
     7
 10
-622.166553679581
 20
27.7266654968262
 30
0.0
 11
-622.166553679581
 21
51.8516578674316
 31
0.0
  0
LINE
  5
   295
  8
0
  6
CONTINUOUS
 62
     7
 10
-622.166553679581
 20
-61.4982963562012
 30
0.0
 11
-622.166553679581
 21
-24.7733039855957
 31
0.0
  0
LINE
  5
   296
  8
0
  6
CONTINUOUS
 62
     7
 10
-639.666554411481
 20
51.8516578674316
 30
0.0
 11
-648.416538420792
 21
51.8516578674316
 31
0.0
  0
LINE
  5
   297
  8
0
  6
CONTINUOUS
 62
   210
 10
-622.166553679581
 20
-32.8983268737793
 30
0.0
 11
-648.416538420792
 21
-32.8983268737793
 31
0.0
  0
LINE
  5
   298
  8
0
  6
DASHDOT
 62
     7
 10
-648.416530381903
 20
-38.4369521968471
 30
0.0
 11
-648.416563400581
 21
85.627255440121
 31
0.0
  0
LINE
  5
   299
  8
0
  6
CONTINUOUS
 62
     7
 10
-642.291523162003
 20
-50.8983268737793
 30
0.0
 11
-654.541523162003
 21
-50.8983268737793
 31
0.0
  0
LINE
  5
   29A
  8
0
  6
CONTINUOUS
 62
     7
 10
-673.791523162003
 20
-50.8983867863014
 30
0.0
 11
-673.791523162003
 21
-50.6483268737793
 31
0.0
  0
LINE
  5
   29B
  8
0
  6
DASHDOT
 62
     3
 10
-648.416522936113
 20
-57.6483235699456
 30
0.0
 11
-648.416522936113
 21
-22.1111388849964
 31
0.0
  0
LINE
  5
   29C
  8
0
  6
DASHDOT
 62
     3
 10
-648.416525061267
 20
-69.2769826955333
 30
0.0
 11
-648.416525061267
 21
-59.198326647639
 31
0.0
  0
LINE
  5
   29D
  8
0
  6
CONTINUOUS
 62
     7
 10
-667.666523162003
 20
-50.8983268737793
 30
0.0
 11
-667.666523162003
 21
-50.6483268737793
 31
0.0
  0
LINE
  5
   29E
  8
0
  6
CONTINUOUS
 62
     7
 10
-671.416523162003
 20
-50.8983867863014
 30
0.0
 11
-671.416523162003
 21
-50.6483268737793
 31
0.0
  0
LINE
  5
   29F
  8
0
  6
CONTINUOUS
 62
     7
 10
-659.791523162003
 20
-50.8983268737793
 30
0.0
 11
-671.416523162003
 21
-50.8983268737793
 31
0.0
  0
LINE
  5
   2A0
  8
0
  6
CONTINUOUS
 62
   210
 10
-622.166553679581
 20
-33.1483268737793
 30
0.0
 11
-674.666523162003
 21
-33.1483268737793
 31
0.0
  0
LINE
  5
   2A1
  8
0
  6
CONTINUOUS
 62
     7
 10
-639.666554411485
 20
-50.6483268737793
 30
0.0
 11
-674.666523162003
 21
-50.6483268737793
 31
0.0
  0
LINE
  5
   2A2
  8
0
  6
CONTINUOUS
 62
     7
 10
-643.041523162003
 20
-9.05869167618052
 30
0.0
 11
-643.041523162003
 21
-6.58563108820868
 31
0.0
  0
LINE
  5
   2A3
  8
0
  6
CONTINUOUS
 62
     7
 10
-653.791523162003
 20
-9.05869167618052
 30
0.0
 11
-653.791523162003
 21
-6.58563108820868
 31
0.0
  0
LINE
  5
   2A4
  8
0
  6
DASHDOT
 62
     7
 10
-648.41655760777
 20
47.351121289543
 30
0.0
 11
-648.41655760777
 21
62.8516340089457
 31
0.0
  0
LINE
  5
   2A5
  8
0
  6
CONTINUOUS
 62
     7
 10
-643.041523162003
 20
-9.05869132545345
 30
0.0
 11
-653.791523162003
 21
-9.05869132545345
 31
0.0
  0
LINE
  5
   2A6
  8
0
  6
CONTINUOUS
 62
     7
 10
-643.041523162003
 20
-9.05869167618052
 30
0.0
 11
-653.791523162003
 21
-9.05869167618052
 31
0.0
  0
LINE
  5
   2A7
  8
0
  6
CONTINUOUS
 62
     7
 10
-643.041523162003
 20
-6.58563108820868
 30
0.0
 11
-653.791523162003
 21
-6.58563108820868
 31
0.0
  0
LINE
  5
   2A8
  8
0
  6
CONTINUOUS
 62
     7
 10
-639.666553746126
 20
49.3516578674316
 30
0.0
 11
-673.916553746127
 21
49.3516578674316
 31
0.0
  0
LINE
  5
   2A9
  8
0
  6
CONTINUOUS
 62
     7
 10
-673.916547990814
 20
27.7266731262207
 30
0.0
 11
-673.916553746127
 21
49.3516578674316
 31
0.0
  0
LINE
  5
   2AA
  8
0
  6
CONTINUOUS
 62
     7
 10
-622.916547990812
 20
27.7266731262207
 30
0.0
 11
-622.916553546523
 21
48.6016731262207
 31
0.0
  0
LINE
  5
   2AB
  8
0
  6
DASHDOT
 62
     7
 10
-617.181443116013
 20
1.47667312622069
 30
0.0
 11
-691.990976658935
 21
1.47667312622069
 31
0.0
  0
LINE
  5
   2AC
  8
0
  6
DASHDOT
 62
     2
 10
-648.416534377873
 20
67.2266758182818
 30
0.0
 11
-648.416534377873
 21
76.4766758182818
 31
0.0
  0
LINE
  5
   2AD
  8
0
  6
CONTINUOUS
 62
     3
 10
-639.666554478013
 20
52.1016464233418
 30
0.0
 11
-674.166574171448
 21
52.1016464233418
 31
0.0
  0
LINE
  5
   2AE
  8
0
  6
CONTINUOUS
 62
     3
 10
-639.666558004392
 20
65.3516426086426
 30
0.0
 11
-674.041593480892
 21
65.3516426086426
 31
0.0
  0
LINE
  5
   2AF
  8
0
  6
CONTINUOUS
 62
     3
 10
-641.341583730033
 20
52.6016426086426
 30
0.0
 11
-641.341583730033
 21
65.1963157653809
 31
0.0
  0
LINE
  5
   2B0
  8
0
  6
CONTINUOUS
 62
     3
 10
-643.141582967094
 20
52.6016426086426
 30
0.0
 11
-643.141582967094
 21
65.1963157653809
 31
0.0
  0
LINE
  5
   2B1
  8
0
  6
CONTINUOUS
 62
     3
 10
-644.941582204154
 20
52.6016426086426
 30
0.0
 11
-644.941582204154
 21
65.1963157653809
 31
0.0
  0
LINE
  5
   2B2
  8
0
  6
CONTINUOUS
 62
     3
 10
-646.741583348564
 20
52.6016426086426
 30
0.0
 11
-646.741583348564
 21
65.1963157653809
 31
0.0
  0
LINE
  5
   2B3
  8
0
  6
CONTINUOUS
 62
     3
 10
-648.541582585624
 20
52.6016426086426
 30
0.0
 11
-648.541582585624
 21
65.1963157653809
 31
0.0
  0
LINE
  5
   2B4
  8
0
  6
CONTINUOUS
 62
     3
 10
-650.341581822685
 20
52.6016426086426
 30
0.0
 11
-650.341581822685
 21
65.1963157653809
 31
0.0
  0
LINE
  5
   2B5
  8
0
  6
CONTINUOUS
 62
     3
 10
-652.141582967094
 20
52.6016426086426
 30
0.0
 11
-652.141582967094
 21
65.1963157653809
 31
0.0
  0
LINE
  5
   2B6
  8
0
  6
CONTINUOUS
 62
     3
 10
-653.941582204154
 20
52.6016426086426
 30
0.0
 11
-653.941582204154
 21
65.1963157653809
 31
0.0
  0
LINE
  5
   2B7
  8
0
  6
CONTINUOUS
 62
     3
 10
-639.666554611084
 20
52.6016464562557
 30
0.0
 11
-674.166574171448
 21
52.6016464562557
 31
0.0
  0
LINE
  5
   2B8
  8
0
  6
CONTINUOUS
 62
     3
 10
-674.666593480892
 20
52.6016426086498
 30
0.0
 11
-674.666593480892
 21
64.7266426086426
 31
0.0
  0
LINE
  5
   2B9
  8
0
  6
CONTINUOUS
 62
     3
 10
-674.666570369124
 20
52.6016426171991
 30
0.0
 11
-674.166574183796
 21
52.6016502465936
 31
0.0
  0
LINE
  5
   2BA
  8
0
  6
CONTINUOUS
 62
     3
 10
-674.166574171448
 20
52.1016502380371
 30
0.0
 11
-674.166574171448
 21
52.6016502380371
 31
0.0
  0
LINE
  5
   2BB
  8
0
  6
CONTINUOUS
 62
     3
 10
-673.491567304993
 20
52.6016502380371
 30
0.0
 11
-673.491567304993
 21
65.1963157653809
 31
0.0
  0
LINE
  5
   2BC
  8
0
  6
CONTINUOUS
 62
     3
 10
-671.691568067932
 20
52.6016426086426
 30
0.0
 11
-671.691568067932
 21
65.1963157653809
 31
0.0
  0
LINE
  5
   2BD
  8
0
  6
CONTINUOUS
 62
     3
 10
-669.891568830872
 20
52.6016426086426
 30
0.0
 11
-669.891568830872
 21
65.1963157653809
 31
0.0
  0
LINE
  5
   2BE
  8
0
  6
CONTINUOUS
 62
     3
 10
-668.091569593811
 20
52.6016426086426
 30
0.0
 11
-668.091569593811
 21
65.1963157653809
 31
0.0
  0
LINE
  5
   2BF
  8
0
  6
CONTINUOUS
 62
     3
 10
-666.291566542053
 20
52.6016426086426
 30
0.0
 11
-666.291566542053
 21
65.1963157653809
 31
0.0
  0
LINE
  5
   2C0
  8
0
  6
CONTINUOUS
 62
     3
 10
-664.491567304993
 20
52.6016426086426
 30
0.0
 11
-664.491567304993
 21
65.1963157653809
 31
0.0
  0
LINE
  5
   2C1
  8
0
  6
CONTINUOUS
 62
     3
 10
-662.691568067932
 20
52.6016426086426
 30
0.0
 11
-662.691568067932
 21
65.1963157653809
 31
0.0
  0
LINE
  5
   2C2
  8
0
  6
CONTINUOUS
 62
     3
 10
-660.891568830872
 20
52.6016426086426
 30
0.0
 11
-660.891568830872
 21
65.1963157653809
 31
0.0
  0
LINE
  5
   2C3
  8
0
  6
CONTINUOUS
 62
     3
 10
-659.091569593811
 20
52.6016426086426
 30
0.0
 11
-659.091569593811
 21
65.1963157653809
 31
0.0
  0
LINE
  5
   2C4
  8
0
  6
CONTINUOUS
 62
     3
 10
-657.291566542053
 20
52.6016426086426
 30
0.0
 11
-657.291566542053
 21
65.1963157653809
 31
0.0
  0
LINE
  5
   2C5
  8
0
  6
CONTINUOUS
 62
     3
 10
-655.491567304993
 20
52.6016426086426
 30
0.0
 11
-655.491567304993
 21
65.1963157653809
 31
0.0
  0
ARC
  5
   2C6
  8
0
  6
CONTINUOUS
 62
     3
 10
-674.041593480892
 20
64.7266426086426
 30
0.0
 40
0.625
 50
89.9999999480344
 51
179.999999948034
  0
LINE
  5
   2C7
  8
0
  6
CONTINUOUS
 62
     3
 10
-639.666554478036
 20
-50.8983867863014
 30
0.0
 11
-674.166521590048
 21
-50.8983867863014
 31
0.0
  0
LINE
  5
   2C8
  8
0
  6
CONTINUOUS
 62
     3
 10
-639.666558004415
 20
-64.1483829716021
 30
0.0
 11
-674.041540899491
 21
-64.1483829716021
 31
0.0
  0
LINE
  5
   2C9
  8
0
  6
CONTINUOUS
 62
     3
 10
-641.341531148633
 20
-63.9930561283404
 30
0.0
 11
-641.341531148633
 21
-51.3983829716021
 31
0.0
  0
LINE
  5
   2CA
  8
0
  6
CONTINUOUS
 62
     3
 10
-643.141530385694
 20
-63.9930561283404
 30
0.0
 11
-643.141530385694
 21
-51.3983829716021
 31
0.0
  0
LINE
  5
   2CB
  8
0
  6
CONTINUOUS
 62
     3
 10
-644.941529622754
 20
-63.9930561283404
 30
0.0
 11
-644.941529622754
 21
-51.3983829716021
 31
0.0
  0
LINE
  5
   2CC
  8
0
  6
CONTINUOUS
 62
     3
 10
-646.741530767163
 20
-63.9930561283404
 30
0.0
 11
-646.741530767163
 21
-51.3983829716021
 31
0.0
  0
LINE
  5
   2CD
  8
0
  6
CONTINUOUS
 62
     3
 10
-648.541530004224
 20
-63.9930561283404
 30
0.0
 11
-648.541530004224
 21
-51.3983829716021
 31
0.0
  0
LINE
  5
   2CE
  8
0
  6
CONTINUOUS
 62
     3
 10
-650.341529241285
 20
-63.9930561283404
 30
0.0
 11
-650.341529241285
 21
-51.3983829716021
 31
0.0
  0
LINE
  5
   2CF
  8
0
  6
CONTINUOUS
 62
     3
 10
-652.141530385694
 20
-63.9930561283404
 30
0.0
 11
-652.141530385694
 21
-51.3983829716021
 31
0.0
  0
LINE
  5
   2D0
  8
0
  6
CONTINUOUS
 62
     3
 10
-653.941529622754
 20
-63.9930561283404
 30
0.0
 11
-653.941529622754
 21
-51.3983829716021
 31
0.0
  0
LINE
  5
   2D1
  8
0
  6
CONTINUOUS
 62
     3
 10
-639.666554611107
 20
-51.3983868192153
 30
0.0
 11
-674.166521590048
 21
-51.3983868192153
 31
0.0
  0
LINE
  5
   2D2
  8
0
  6
CONTINUOUS
 62
     3
 10
-674.666540899491
 20
-63.5233829716021
 30
0.0
 11
-674.666540899491
 21
-51.3983829716094
 31
0.0
  0
LINE
  5
   2D3
  8
0
  6
CONTINUOUS
 62
     3
 10
-674.166521602329
 20
-51.3983906095532
 30
0.0
 11
-674.666517787541
 21
-51.3983829801587
 31
0.0
  0
LINE
  5
   2D4
  8
0
  6
CONTINUOUS
 62
     3
 10
-674.166521590048
 20
-51.3983906009966
 30
0.0
 11
-674.166521590048
 21
-50.8983906009966
 31
0.0
  0
LINE
  5
   2D5
  8
0
  6
CONTINUOUS
 62
     3
 10
-673.491514723593
 20
-63.9930561283404
 30
0.0
 11
-673.491514723593
 21
-51.3983906009966
 31
0.0
  0
LINE
  5
   2D6
  8
0
  6
CONTINUOUS
 62
     3
 10
-671.691515486532
 20
-63.9930561283404
 30
0.0
 11
-671.691515486532
 21
-51.3983829716021
 31
0.0
  0
LINE
  5
   2D7
  8
0
  6
CONTINUOUS
 62
     3
 10
-669.891516249472
 20
-63.9930561283404
 30
0.0
 11
-669.891516249472
 21
-51.3983829716021
 31
0.0
  0
LINE
  5
   2D8
  8
0
  6
CONTINUOUS
 62
     3
 10
-668.091517012411
 20
-63.9930561283404
 30
0.0
 11
-668.091517012411
 21
-51.3983829716021
 31
0.0
  0
LINE
  5
   2D9
  8
0
  6
CONTINUOUS
 62
     3
 10
-666.291513960653
 20
-63.9930561283404
 30
0.0
 11
-666.291513960653
 21
-51.3983829716021
 31
0.0
  0
LINE
  5
   2DA
  8
0
  6
CONTINUOUS
 62
     3
 10
-664.491514723593
 20
-63.9930561283404
 30
0.0
 11
-664.491514723593
 21
-51.3983829716021
 31
0.0
  0
LINE
  5
   2DB
  8
0
  6
CONTINUOUS
 62
     3
 10
-662.691515486532
 20
-63.9930561283404
 30
0.0
 11
-662.691515486532
 21
-51.3983829716021
 31
0.0
  0
LINE
  5
   2DC
  8
0
  6
CONTINUOUS
 62
     3
 10
-660.891516249472
 20
-63.9930561283404
 30
0.0
 11
-660.891516249472
 21
-51.3983829716021
 31
0.0
  0
LINE
  5
   2DD
  8
0
  6
CONTINUOUS
 62
     3
 10
-659.091517012411
 20
-63.9930561283404
 30
0.0
 11
-659.091517012411
 21
-51.3983829716021
 31
0.0
  0
LINE
  5
   2DE
  8
0
  6
CONTINUOUS
 62
     3
 10
-657.291513960653
 20
-63.9930561283404
 30
0.0
 11
-657.291513960653
 21
-51.3983829716021
 31
0.0
  0
LINE
  5
   2DF
  8
0
  6
CONTINUOUS
 62
     3
 10
-655.491514723593
 20
-63.9930561283404
 30
0.0
 11
-655.491514723593
 21
-51.3983829716021
 31
0.0
  0
ARC
  5
   2E0
  8
0
  6
CONTINUOUS
 62
     3
 10
-674.041540899491
 20
-63.5233829716021
 30
0.0
 40
0.625
 50
179.999999948034
 51
269.999999948034
  0
LINE
  5
   2E1
  8
0
  6
CONTINUOUS
 62
   210
 10
-622.166540361418
 20
7.60166549682616
 30
0.0
 11
-674.666540361418
 21
7.60166549682616
 31
0.0
  0
LINE
  5
   2E2
  8
0
  6
CONTINUOUS
 62
   210
 10
-622.416540361418
 20
27.7266731262207
 30
0.0
 11
-674.416540361418
 21
27.7266731262207
 31
0.0
  0
LINE
  5
   2E3
  8
0
  6
CONTINUOUS
 62
   210
 10
-622.416540361418
 20
-24.7733268737793
 30
0.0
 11
-674.416540361418
 21
-24.7733268737793
 31
0.0
  0
LINE
  5
   2E4
  8
0
  6
CONTINUOUS
 62
   210
 10
-622.166540361418
 20
-14.8983268737793
 30
0.0
 11
-674.666540361418
 21
-14.8983268737793
 31
0.0
  0
LINE
  5
   2E5
  8
0
  6
CONTINUOUS
 62
   210
 10
-674.666540361418
 20
-24.5233268737793
 30
0.0
 11
-674.666540361418
 21
27.4766731262207
 31
0.0
  0
LINE
  5
   2E6
  8
0
  6
CONTINUOUS
 62
   210
 10
-622.166540361418
 20
-24.5233268737793
 30
0.0
 11
-622.166540361418
 21
27.4766731262207
 31
0.0
  0
LINE
  5
   2E7
  8
0
  6
CONTINUOUS
 62
   210
 10
-643.041547990813
 20
-13.3983268737793
 30
0.0
 11
-643.041547990813
 21
6.10166549682615
 31
0.0
  0
LINE
  5
   2E8
  8
0
  6
CONTINUOUS
 62
   210
 10
-653.791547990813
 20
-13.3983268737793
 30
0.0
 11
-653.791547990813
 21
6.10166549682616
 31
0.0
  0
LINE
  5
   2E9
  8
0
  6
CONTINUOUS
 62
   210
 10
-643.291547990813
 20
-13.6483268737793
 30
0.0
 11
-653.541547990813
 21
-13.6483268737793
 31
0.0
  0
LINE
  5
   2EA
  8
0
  6
CONTINUOUS
 62
   210
 10
-643.291547990813
 20
-13.3803777694702
 30
0.0
 11
-653.541547990813
 21
-13.3803777694702
 31
0.0
  0
LINE
  5
   2EB
  8
0
  6
CONTINUOUS
 62
   210
 10
-643.291547990813
 20
6.1753463745117
 30
0.0
 11
-653.541547990813
 21
6.1753463745117
 31
0.0
  0
LINE
  5
   2EC
  8
0
  6
CONTINUOUS
 62
   210
 10
-643.291547990813
 20
6.35166549682616
 30
0.0
 11
-653.541547990813
 21
6.35166549682616
 31
0.0
  0
CIRCLE
  5
   2ED
  8
0
  6
CONTINUOUS
 62
   210
 10
-630.916762330231
 20
24.6018896482291
 30
0.0
 40
2.12470561496198
  0
CIRCLE
  5
   2EE
  8
0
  6
CONTINUOUS
 62
   210
 10
-665.916540651692
 20
24.6015889552496
 30
0.0
 40
2.12506419908317
  0
ARC
  5
   2EF
  8
0
  6
CONTINUOUS
 62
   210
 10
-674.416540361418
 20
27.4766731262207
 30
0.0
 40
0.25
 50
89.9999999480344
 51
179.999999948034
  0
ARC
  5
   2F0
  8
0
  6
CONTINUOUS
 62
   210
 10
-622.416540361418
 20
27.4766731262207
 30
0.0
 40
0.25
 50
359.999999948034
 51
449.999999948034
  0
ARC
  5
   2F1
  8
0
  6
CONTINUOUS
 62
   210
 10
-622.416540361418
 20
-24.5233268737793
 30
0.0
 40
0.25
 50
269.999999948034
 51
359.999999948034
  0
ARC
  5
   2F2
  8
0
  6
CONTINUOUS
 62
   210
 10
-674.416540361418
 20
-24.5233268737793
 30
0.0
 40
0.25
 50
179.999999948034
 51
269.999999948034
  0
LINE
  5
   2F3
  8
0
  6
CONTINUOUS
 62
   210
 10
-674.666540361418
 20
-24.5233268737793
 30
0.0
 11
-674.666540361418
 21
27.4766654968262
 31
0.0
  0
LINE
  5
   2F4
  8
0
  6
CONTINUOUS
 62
   210
 10
-622.166547990813
 20
-24.5233268737793
 30
0.0
 11
-622.166547990813
 21
27.4766731262207
 31
0.0
  0
LINE
  5
   2F5
  8
0
  6
CONTINUOUS
 62
   210
 10
-622.166547990813
 20
3.60166549682616
 30
0.0
 11
-643.041547990813
 21
3.60166549682616
 31
0.0
  0
LINE
  5
   2F6
  8
0
  6
CONTINUOUS
 62
   210
 10
-653.791552014127
 20
3.60166549682616
 30
0.0
 11
-674.614763684048
 21
3.60166549682616
 31
0.0
  0
LINE
  5
   2F7
  8
0
  6
CONTINUOUS
 62
   210
 10
-653.791547990813
 20
4.10166549682616
 30
0.0
 11
-674.614759660735
 21
4.10166549682616
 31
0.0
  0
LINE
  5
   2F8
  8
0
  6
CONTINUOUS
 62
   210
 10
-622.166547990813
 20
4.10166549682616
 30
0.0
 11
-643.041547990813
 21
4.10166549682616
 31
0.0
  0
LINE
  5
   2F9
  8
0
  6
CONTINUOUS
 62
   210
 10
-622.166547990813
 20
-11.3983345031738
 30
0.0
 11
-643.041547990813
 21
-11.3983345031738
 31
0.0
  0
LINE
  5
   2FA
  8
0
  6
CONTINUOUS
 62
   210
 10
-653.791552014127
 20
-11.3983345031738
 30
0.0
 11
-674.666540361418
 21
-11.3983345031738
 31
0.0
  0
LINE
  5
   2FB
  8
0
  6
CONTINUOUS
 62
   210
 10
-653.791547990813
 20
-10.8983345031738
 30
0.0
 11
-674.666540361418
 21
-10.8983345031738
 31
0.0
  0
LINE
  5
   2FC
  8
0
  6
CONTINUOUS
 62
   210
 10
-622.166547990813
 20
-10.8983345031738
 30
0.0
 11
-643.041547990813
 21
-10.8983345031738
 31
0.0
  0
LINE
  5
   2FD
  8
0
  6
CONTINUOUS
 62
   210
 10
-657.291547990813
 20
1.81416549682616
 30
0.0
 11
-657.791547990813
 21
1.81416549682616
 31
0.0
  0
LINE
  5
   2FE
  8
0
  6
CONTINUOUS
 62
   210
 10
-657.291547990813
 20
-1.11083450317384
 30
0.0
 11
-657.791547990813
 21
-1.11083450317384
 31
0.0
  0
LINE
  5
   2FF
  8
0
  6
CONTINUOUS
 62
   210
 10
-657.291547990813
 20
-1.11083450317384
 30
0.0
 11
-657.291547990813
 21
1.81416549682616
 31
0.0
  0
LINE
  5
   300
  8
0
  6
CONTINUOUS
 62
   210
 10
-657.791547990813
 20
-1.11083450317384
 30
0.0
 11
-657.791547990813
 21
1.81416549682616
 31
0.0
  0
CIRCLE
  5
   301
  8
0
  6
CONTINUOUS
 62
   210
 10
-657.541547990813
 20
-7.64832687377931
 30
0.0
 40
1.4625
  0
CIRCLE
  5
   302
  8
0
  6
CONTINUOUS
 62
   210
 10
-657.541547990813
 20
-7.64832687377931
 30
0.0
 40
0.9625
  0
LINE
  5
   303
  8
0
  6
CONTINUOUS
 62
   210
 10
-654.916547990813
 20
4.10166549682616
 30
0.0
 11
-654.916547990813
 21
7.60166549682616
 31
0.0
  0
LINE
  5
   304
  8
0
  6
CONTINUOUS
 62
   210
 10
-641.916547990813
 20
4.10166549682615
 30
0.0
 11
-641.916547990813
 21
7.60166549682615
 31
0.0
  0
LINE
  5
   305
  8
0
  6
CONTINUOUS
 62
   210
 10
-641.916547990813
 20
-14.8983268737793
 30
0.0
 11
-641.916547990813
 21
-11.3983345031739
 31
0.0
  0
LINE
  5
   306
  8
0
  6
CONTINUOUS
 62
   210
 10
-654.916547990813
 20
-14.8983268737793
 30
0.0
 11
-654.916547990813
 21
-11.3983345031738
 31
0.0
  0
LINE
  5
   307
  8
0
  6
CONTINUOUS
 62
   210
 10
-655.416547990813
 20
4.10166549682616
 30
0.0
 11
-655.416547990813
 21
7.60166549682616
 31
0.0
  0
LINE
  5
   308
  8
0
  6
CONTINUOUS
 62
   210
 10
-641.416547990813
 20
4.10166549682615
 30
0.0
 11
-641.416547990813
 21
7.60166549682614
 31
0.0
  0
LINE
  5
   309
  8
0
  6
CONTINUOUS
 62
   210
 10
-622.166547990813
 20
4.60166549682616
 30
0.0
 11
-641.416547990813
 21
4.60166549682616
 31
0.0
  0
LINE
  5
   30A
  8
0
  6
CONTINUOUS
 62
   210
 10
-655.416547990813
 20
4.60166549682616
 30
0.0
 11
-674.666540361418
 21
4.60166549682616
 31
0.0
  0
LINE
  5
   30B
  8
0
  6
DASHDOT
 62
   210
 10
-665.916540651692
 20
21.4765247561665
 30
0.0
 11
-665.916540651692
 21
27.7266531543328
 31
0.0
  0
LINE
  5
   30C
  8
0
  6
DASHDOT
 62
   210
 10
-662.791476452609
 20
24.6015889552496
 30
0.0
 11
-669.041604850775
 21
24.6015889552496
 31
0.0
  0
LINE
  5
   30D
  8
0
  6
DASHDOT
 62
   210
 10
-630.916762330231
 20
21.4771840332671
 30
0.0
 11
-630.916762330231
 21
27.726595263191
 31
0.0
  0
LINE
  5
   30E
  8
0
  6
DASHDOT
 62
   210
 10
-627.792056715269
 20
24.6018896482291
 30
0.0
 11
-634.041467945193
 21
24.6018896482291
 31
0.0
  0
LINE
  5
   30F
  8
0
  6
CONTINUOUS
 62
   210
 10
-630.666561342133
 20
-14.1483537701841
 30
0.0
 11
-630.666555238617
 21
-12.1483537702242
 31
0.0
  0
LINE
  5
   310
  8
0
  6
CONTINUOUS
 62
   210
 10
-630.416561023057
 20
-14.3983545303658
 30
0.0
 11
-624.916561023057
 21
-14.3983475367558
 31
0.0
  0
LINE
  5
   311
  8
0
  6
CONTINUOUS
 62
   210
 10
-624.666561342088
 20
-14.1483482990427
 30
0.0
 11
-624.666555238573
 21
-12.1483482990828
 31
0.0
  0
LINE
  5
   312
  8
0
  6
CONTINUOUS
 62
   210
 10
-630.416555549312
 20
-11.8983545303568
 30
0.0
 11
-624.916555549312
 21
-11.8983475367468
 31
0.0
  0
ARC
  5
   313
  8
0
  6
CONTINUOUS
 62
   210
 10
-643.291547990813
 20
6.10166549682616
 30
0.0
 40
0.25
 50
359.999999948034
 51
449.999999948034
  0
ARC
  5
   314
  8
0
  6
CONTINUOUS
 62
   210
 10
-643.291547990813
 20
-13.3983268737793
 30
0.0
 40
0.25
 50
269.999999948034
 51
359.999999948034
  0
ARC
  5
   315
  8
0
  6
CONTINUOUS
 62
   210
 10
-653.541547990813
 20
-13.3983268737793
 30
0.0
 40
0.25
 50
179.999999948034
 51
269.999999948034
  0
ARC
  5
   316
  8
0
  6
CONTINUOUS
 62
   210
 10
-653.541547990813
 20
6.10166549682616
 30
0.0
 40
0.25
 50
89.9999999480344
 51
179.999999948034
  0
ARC
  5
   317
  8
0
  6
CONTINUOUS
 62
   210
 10
-643.291547990813
 20
5.9253463745117
 30
0.0
 40
0.25
 50
359.999999948034
 51
449.999999948034
  0
ARC
  5
   318
  8
0
  6
CONTINUOUS
 62
   210
 10
-643.291547990813
 20
-13.1303777694702
 30
0.0
 40
0.25
 50
269.999999948034
 51
359.999999948034
  0
ARC
  5
   319
  8
0
  6
CONTINUOUS
 62
   210
 10
-653.541547990813
 20
-13.1303777694702
 30
0.0
 40
0.25
 50
179.999999948034
 51
269.999999948034
  0
ARC
  5
   31A
  8
0
  6
CONTINUOUS
 62
   210
 10
-653.541547990813
 20
5.9253463745117
 30
0.0
 40
0.25
 50
89.9999999480344
 51
179.999999948034
  0
ARC
  5
   31B
  8
0
  6
CONTINUOUS
 62
   210
 10
-624.916555238571
 20
-12.1483475367466
 30
0.0
 40
0.25
 50
359.999825095202
 51
449.999999948034
  0
ARC
  5
   31C
  8
0
  6
CONTINUOUS
 62
   210
 10
-624.916561342087
 20
-14.148347536756
 30
0.0
 40
0.25
 50
270.000072803368
 51
359.999825095202
  0
ARC
  5
   31D
  8
0
  6
CONTINUOUS
 62
   210
 10
-630.416561342134
 20
-14.148354530366
 30
0.0
 40
0.25
 50
179.999825095202
 51
270.000072803368
  0
ARC
  5
   31E
  8
0
  6
CONTINUOUS
 62
   210
 10
-630.416555238618
 20
-12.1483545303566
 30
0.0
 40
0.25
 50
89.9999999480344
 51
179.999825095202
  0
LINE
  5
   31F
  8
0
  6
CONTINUOUS
 62
   210
 10
-638.348366172631
 20
-6.24833450317384
 30
0.0
 11
-638.512002536268
 21
-6.24833450317384
 31
0.0
  0
LINE
  5
   320
  8
0
  6
CONTINUOUS
 62
   210
 10
-638.693820718086
 20
-9.04833450317384
 30
0.0
 11
-638.984729808995
 21
-9.04833450317384
 31
0.0
  0
LINE
  5
   321
  8
0
  6
CONTINUOUS
 62
   210
 10
-641.362002536268
 20
-8.10287995771932
 30
0.0
 11
-641.362002536268
 21
-7.92106177590114
 31
0.0
  0
LINE
  5
   322
  8
0
  6
CONTINUOUS
 62
   210
 10
-639.471093445358
 20
-8.10287995771932
 30
0.0
 11
-639.471093445358
 21
-7.92106177590114
 31
0.0
  0
ARC
  5
   323
  8
0
  6
CONTINUOUS
 62
   210
 10
-640.416547990813
 20
-7.92106177590112
 30
0.0
 40
0.945454545454546
 50
359.999999948034
 51
539.999999948034
  0
ARC
  5
   324
  8
0
  6
CONTINUOUS
 62
   210
 10
-640.416547990813
 20
-8.1028799577193
 30
0.0
 40
0.945454545454545
 50
179.999999948034
 51
359.999999948034
  0
ARC
  5
   325
  8
0
  6
CONTINUOUS
 62
   210
 10
-640.416547990813
 20
-7.92106177590112
 30
0.0
 40
0.654545454545455
 50
359.999999948034
 51
539.999999948034
  0
ARC
  5
   326
  8
0
  6
CONTINUOUS
 62
   210
 10
-640.416547990813
 20
-8.1028799577193
 30
0.0
 40
0.654545454545454
 50
179.999999948034
 51
359.999999948034
  0
LINE
  5
   327
  8
0
  6
CONTINUOUS
 62
   210
 10
-641.071093445358
 20
-8.10287995771932
 30
0.0
 11
-641.071093445358
 21
-7.92106177590114
 31
0.0
  0
LINE
  5
   328
  8
0
  6
CONTINUOUS
 62
   210
 10
-639.762002536268
 20
-8.10287995771932
 30
0.0
 11
-639.762002536268
 21
-7.92106177590114
 31
0.0
  0
LINE
  5
   329
  8
0
  6
CONTINUOUS
 62
   210
 10
-639.330184354449
 20
-7.41197086681023
 30
0.0
 11
-639.330184354449
 21
-7.12106177590114
 31
0.0
  0
LINE
  5
   32A
  8
0
  6
CONTINUOUS
 62
   210
 10
-638.984729808995
 20
-7.41197086681021
 30
0.0
 11
-639.330184354449
 21
-7.41197086681021
 31
0.0
  0
LINE
  5
   32B
  8
0
  6
CONTINUOUS
 62
   210
 10
-638.348366172631
 20
-7.41197086681023
 30
0.0
 11
-638.348366172631
 21
-7.12106177590114
 31
0.0
  0
LINE
  5
   32C
  8
0
  6
CONTINUOUS
 62
   210
 10
-638.984729808995
 20
-7.12106177590112
 30
0.0
 11
-639.330184354449
 21
-7.12106177590112
 31
0.0
  0
LINE
  5
   32D
  8
0
  6
CONTINUOUS
 62
   210
 10
-638.984729808995
 20
-9.04833450317386
 30
0.0
 11
-638.984729808995
 21
-7.41197086681023
 31
0.0
  0
LINE
  5
   32E
  8
0
  6
CONTINUOUS
 62
   210
 10
-638.693820718086
 20
-9.04833450317386
 30
0.0
 11
-638.693820718086
 21
-7.41197086681023
 31
0.0
  0
LINE
  5
   32F
  8
0
  6
CONTINUOUS
 62
   210
 10
-638.348366172631
 20
-7.41197086681021
 30
0.0
 11
-638.693820718086
 21
-7.41197086681021
 31
0.0
  0
LINE
  5
   330
  8
0
  6
CONTINUOUS
 62
   210
 10
-638.348366172631
 20
-7.12106177590112
 30
0.0
 11
-638.693820718086
 21
-7.12106177590112
 31
0.0
  0
LINE
  5
   331
  8
0
  6
CONTINUOUS
 62
   210
 10
-638.984729808995
 20
-7.12106177590114
 30
0.0
 11
-638.984729808995
 21
-6.72106177590114
 31
0.0
  0
LINE
  5
   332
  8
0
  6
CONTINUOUS
 62
   210
 10
-638.693820718086
 20
-7.12106177590114
 30
0.0
 11
-638.693820718086
 21
-6.72106177590114
 31
0.0
  0
ARC
  5
   333
  8
0
  6
CONTINUOUS
 62
   210
 10
-638.512002536268
 20
-6.72106177590111
 30
0.0
 40
0.472727272727273
 50
449.999999948034
 51
539.999999948034
  0
ARC
  5
   334
  8
0
  6
CONTINUOUS
 62
   210
 10
-638.512002536268
 20
-6.72106177590111
 30
0.0
 40
0.181818181818182
 50
449.999999948034
 51
539.999999948034
  0
LINE
  5
   335
  8
0
  6
CONTINUOUS
 62
   210
 10
-638.348366172631
 20
-6.53924359408295
 30
0.0
 11
-638.348366172631
 21
-6.24833450317387
 31
0.0
  0
LINE
  5
   336
  8
0
  6
CONTINUOUS
 62
   210
 10
-638.348366172631
 20
-6.53924359408293
 30
0.0
 11
-638.512002536268
 21
-6.53924359408293
 31
0.0
  0
LINE
  5
   337
  8
0
  6
CONTINUOUS
 62
   210
 10
-637.134729808995
 20
-6.24833450317384
 30
0.0
 11
-637.298366172631
 21
-6.24833450317384
 31
0.0
  0
LINE
  5
   338
  8
0
  6
CONTINUOUS
 62
   210
 10
-637.480184354449
 20
-9.04833450317384
 30
0.0
 11
-637.771093445358
 21
-9.04833450317384
 31
0.0
  0
LINE
  5
   339
  8
0
  6
CONTINUOUS
 62
   210
 10
-638.116547990813
 20
-7.41197086681023
 30
0.0
 11
-638.116547990813
 21
-7.12106177590114
 31
0.0
  0
LINE
  5
   33A
  8
0
  6
CONTINUOUS
 62
   210
 10
-637.771093445358
 20
-7.41197086681021
 30
0.0
 11
-638.116547990813
 21
-7.41197086681021
 31
0.0
  0
LINE
  5
   33B
  8
0
  6
CONTINUOUS
 62
   210
 10
-637.134729808995
 20
-7.41197086681023
 30
0.0
 11
-637.134729808995
 21
-7.12106177590114
 31
0.0
  0
LINE
  5
   33C
  8
0
  6
CONTINUOUS
 62
   210
 10
-637.771093445358
 20
-7.12106177590112
 30
0.0
 11
-638.116547990813
 21
-7.12106177590112
 31
0.0
  0
LINE
  5
   33D
  8
0
  6
CONTINUOUS
 62
   210
 10
-637.771093445358
 20
-9.04833450317386
 30
0.0
 11
-637.771093445358
 21
-7.41197086681023
 31
0.0
  0
LINE
  5
   33E
  8
0
  6
CONTINUOUS
 62
   210
 10
-637.480184354449
 20
-9.04833450317386
 30
0.0
 11
-637.480184354449
 21
-7.41197086681023
 31
0.0
  0
LINE
  5
   33F
  8
0
  6
CONTINUOUS
 62
   210
 10
-637.134729808995
 20
-7.41197086681021
 30
0.0
 11
-637.480184354449
 21
-7.41197086681021
 31
0.0
  0
LINE
  5
   340
  8
0
  6
CONTINUOUS
 62
   210
 10
-637.134729808995
 20
-7.12106177590112
 30
0.0
 11
-637.480184354449
 21
-7.12106177590112
 31
0.0
  0
LINE
  5
   341
  8
0
  6
CONTINUOUS
 62
   210
 10
-637.771093445358
 20
-7.12106177590114
 30
0.0
 11
-637.771093445358
 21
-6.72106177590114
 31
0.0
  0
LINE
  5
   342
  8
0
  6
CONTINUOUS
 62
   210
 10
-637.480184354449
 20
-7.12106177590114
 30
0.0
 11
-637.480184354449
 21
-6.72106177590114
 31
0.0
  0
ARC
  5
   343
  8
0
  6
CONTINUOUS
 62
   210
 10
-637.298366172631
 20
-6.72106177590111
 30
0.0
 40
0.472727272727273
 50
449.999999948034
 51
539.999999948034
  0
ARC
  5
   344
  8
0
  6
CONTINUOUS
 62
   210
 10
-637.298366172631
 20
-6.72106177590111
 30
0.0
 40
0.181818181818182
 50
449.999999948034
 51
539.999999948034
  0
LINE
  5
   345
  8
0
  6
CONTINUOUS
 62
   210
 10
-637.134729808995
 20
-6.53924359408295
 30
0.0
 11
-637.134729808995
 21
-6.24833450317387
 31
0.0
  0
LINE
  5
   346
  8
0
  6
CONTINUOUS
 62
   210
 10
-637.134729808995
 20
-6.53924359408293
 30
0.0
 11
-637.298366172631
 21
-6.53924359408293
 31
0.0
  0
LINE
  5
   347
  8
0
  6
CONTINUOUS
 62
   210
 10
-638.83927526354
 20
-0.684698139537488
 30
0.0
 11
-639.130184354449
 21
-0.684698139537488
 31
0.0
  0
ARC
  5
   348
  8
0
  6
CONTINUOUS
 62
   210
 10
-640.416547990813
 20
0.442574587735244
 30
0.0
 40
0.945454545454546
 50
359.999999948034
 51
539.999999948034
  0
ARC
  5
   349
  8
0
  6
CONTINUOUS
 62
   210
 10
-640.416547990813
 20
0.442574587735244
 30
0.0
 40
0.654545454545455
 50
359.999999948034
 51
539.999999948034
  0
ARC
  5
   34A
  8
0
  6
CONTINUOUS
 62
   210
 10
-640.416547990813
 20
0.260756405917064
 30
0.0
 40
0.945454545454545
 50
179.999999948034
 51
359.999999948034
  0
ARC
  5
   34B
  8
0
  6
CONTINUOUS
 62
   210
 10
-640.416547990813
 20
0.260756405917064
 30
0.0
 40
0.654545454545454
 50
179.999999948034
 51
359.999999948034
  0
LINE
  5
   34C
  8
0
  6
CONTINUOUS
 62
   210
 10
-639.762002536268
 20
0.260756405917043
 30
0.0
 11
-639.762002536268
 21
0.442574587735223
 31
0.0
  0
LINE
  5
   34D
  8
0
  6
CONTINUOUS
 62
   210
 10
-639.471093445358
 20
0.260756405917043
 30
0.0
 11
-639.471093445358
 21
0.442574587735223
 31
0.0
  0
LINE
  5
   34E
  8
0
  6
CONTINUOUS
 62
   210
 10
-641.071093445358
 20
0.260756405917036
 30
0.0
 11
-641.071093445358
 21
0.442574587735216
 31
0.0
  0
LINE
  5
   34F
  8
0
  6
CONTINUOUS
 62
   210
 10
-641.362002536268
 20
0.260756405917043
 30
0.0
 11
-641.362002536268
 21
0.442574587735223
 31
0.0
  0
LINE
  5
   350
  8
0
  6
CONTINUOUS
 62
   210
 10
-639.130184354449
 20
-0.684698139537502
 30
0.0
 11
-639.130184354449
 21
1.38802913318977
 31
0.0
  0
LINE
  5
   351
  8
0
  6
CONTINUOUS
 62
   210
 10
-638.83927526354
 20
-0.684698139537502
 30
0.0
 11
-638.83927526354
 21
0.588029133189771
 31
0.0
  0
LINE
  5
   352
  8
0
  6
CONTINUOUS
 62
   210
 10
-637.821093445358
 20
-0.684698139537502
 30
0.0
 11
-637.821093445358
 21
0.588029133189771
 31
0.0
  0
LINE
  5
   353
  8
0
  6
CONTINUOUS
 62
   210
 10
-637.530184354449
 20
-0.684698139537502
 30
0.0
 11
-637.530184354449
 21
0.660756405917041
 31
0.0
  0
LINE
  5
   354
  8
0
  6
CONTINUOUS
 62
   210
 10
-638.83927526354
 20
1.38802913318979
 30
0.0
 11
-639.130184354449
 21
1.38802913318979
 31
0.0
  0
ARC
  5
   355
  8
0
  6
CONTINUOUS
 62
   210
 10
-638.330184354449
 20
0.588029133189792
 30
0.0
 40
0.509090909090908
 50
359.999999948034
 51
539.999999948034
  0
LINE
  5
   356
  8
0
  6
CONTINUOUS
 62
   210
 10
-638.83927526354
 20
1.09712004228069
 30
0.0
 11
-638.83927526354
 21
1.38802913318977
 31
0.0
  0
ARC
  5
   357
  8
0
  6
CONTINUOUS
 62
   210
 10
-638.257457081722
 20
0.660756405917063
 30
0.0
 40
0.727272727272727
 50
359.999999948034
 51
503.13010230219
  0
LINE
  5
   358
  8
0
  6
CONTINUOUS
 62
   210
 10
-637.530184354449
 20
-0.684698139537488
 30
0.0
 11
-637.821093445358
 21
-0.684698139537488
 31
0.0
  0
LINE
  5
   359
  8
0
  6
CONTINUOUS
 62
     3
 10
-692.166593480892
 20
52.6016426086498
 30
0.0
 11
-692.166593480892
 21
64.7266426086426
 31
0.0
  0
ARC
  5
   35A
  8
0
  6
CONTINUOUS
 62
     3
 10
-691.541593480892
 20
64.7266426086426
 30
0.0
 40
0.625
 50
89.9999999480344
 51
179.999999948034
  0
LINE
  5
   35B
  8
0
  6
CONTINUOUS
 62
     3
 10
-677.166540361418
 20
65.3516426086426
 30
0.0
 11
-691.541593480892
 21
65.3516426086426
 31
0.0
  0
LINE
  5
   35C
  8
0
  6
CONTINUOUS
 62
     3
 10
-692.166570369158
 20
52.6016426171991
 30
0.0
 11
-691.666574183831
 21
52.6016502465936
 31
0.0
  0
LINE
  5
   35D
  8
0
  6
CONTINUOUS
 62
     3
 10
-691.666574171448
 20
52.1016502380371
 30
0.0
 11
-691.666574171448
 21
52.6016502380371
 31
0.0
  0
LINE
  5
   35E
  8
0
  6
CONTINUOUS
 62
     3
 10
-677.166540361418
 20
52.1016464233418
 30
0.0
 11
-691.666574171448
 21
52.1016464233418
 31
0.0
  0
LINE
  5
   35F
  8
0
  6
CONTINUOUS
 62
     3
 10
-677.166540361418
 20
52.6016464562557
 30
0.0
 11
-691.666574171448
 21
52.6016464562557
 31
0.0
  0
LINE
  5
   360
  8
0
  6
CONTINUOUS
 62
     3
 10
-690.991567304993
 20
-50.6483268737793
 30
0.0
 11
-690.991567304993
 21
52.1016464233418
 31
0.0
  0
LINE
  5
   361
  8
0
  6
CONTINUOUS
 62
     3
 10
-689.191568067932
 20
-50.6483268737793
 30
0.0
 11
-689.191568067932
 21
52.1016464233418
 31
0.0
  0
LINE
  5
   362
  8
0
  6
CONTINUOUS
 62
     3
 10
-687.391568830872
 20
-50.6483268737793
 30
0.0
 11
-687.391568830872
 21
52.1016464233418
 31
0.0
  0
LINE
  5
   363
  8
0
  6
CONTINUOUS
 62
     3
 10
-685.591569593811
 20
-50.6483268737793
 30
0.0
 11
-685.591569593811
 21
52.1016464233418
 31
0.0
  0
LINE
  5
   364
  8
0
  6
CONTINUOUS
 62
     3
 10
-683.791566542054
 20
-50.6483268737793
 30
0.0
 11
-683.791566542054
 21
52.1016464233418
 31
0.0
  0
LINE
  5
   365
  8
0
  6
CONTINUOUS
 62
     3
 10
-681.991567304993
 20
-50.8983867863014
 30
0.0
 11
-681.991567304993
 21
52.1016464233418
 31
0.0
  0
LINE
  5
   366
  8
0
  6
CONTINUOUS
 62
     3
 10
-680.191568067932
 20
-50.8983867863014
 30
0.0
 11
-680.191568067932
 21
52.1016464233418
 31
0.0
  0
LINE
  5
   367
  8
0
  6
CONTINUOUS
 62
     3
 10
-678.391568830872
 20
-50.6483268737793
 30
0.0
 11
-678.391568830872
 21
52.1016464233418
 31
0.0
  0
LINE
  5
   368
  8
0
  6
CONTINUOUS
 62
     7
 10
-692.166523162003
 20
27.7266426086426
 30
0.0
 11
-692.166523162003
 21
52.6016426179195
 31
0.0
  0
LINE
  5
   369
  8
0
  6
CONTINUOUS
 62
   210
 10
-677.166540361418
 20
27.7266731262207
 30
0.0
 11
-691.916540361418
 21
27.7266731262207
 31
0.0
  0
ARC
  5
   36A
  8
0
  6
CONTINUOUS
 62
   210
 10
-691.916540361418
 20
27.4766731262207
 30
0.0
 40
0.25
 50
89.9999999480344
 51
179.999999948034
  0
LINE
  5
   36B
  8
0
  6
CONTINUOUS
 62
   210
 10
-692.166540361418
 20
-24.5233268737793
 30
0.0
 11
-692.166540361418
 21
27.4766654968262
 31
0.0
  0
LINE
  5
   36C
  8
0
  6
CONTINUOUS
 62
   210
 10
-677.166540361418
 20
7.60166549682616
 30
0.0
 11
-692.166540361418
 21
7.60166549682616
 31
0.0
  0
LINE
  5
   36D
  8
0
  6
CONTINUOUS
 62
   210
 10
-677.166540361418
 20
-14.8983268737793
 30
0.0
 11
-692.166540361418
 21
-14.8983268737793
 31
0.0
  0
ARC
  5
   36E
  8
0
  6
CONTINUOUS
 62
   210
 10
-691.916540361418
 20
-24.5233268737793
 30
0.0
 40
0.25
 50
179.999999948034
 51
269.999999948034
  0
LINE
  5
   36F
  8
0
  6
CONTINUOUS
 62
   210
 10
-677.166540361418
 20
-24.7733268737793
 30
0.0
 11
-691.916540361418
 21
-24.7733268737793
 31
0.0
  0
LINE
  5
   370
  8
0
  6
CONTINUOUS
 62
   210
 10
-677.166540361418
 20
-32.8983268737793
 30
0.0
 11
-692.166523162003
 21
-32.8983268737793
 31
0.0
  0
LINE
  5
   371
  8
0
  6
CONTINUOUS
 62
   210
 10
-677.166540361418
 20
-33.1483268737793
 30
0.0
 11
-692.166523162003
 21
-33.1483268737793
 31
0.0
  0
LINE
  5
   372
  8
0
  6
CONTINUOUS
 62
     7
 10
-677.166540361418
 20
-50.6483268737793
 30
0.0
 11
-692.166523162003
 21
-50.6483268737793
 31
0.0
  0
LINE
  5
   373
  8
0
  6
CONTINUOUS
 62
     3
 10
-677.166540361418
 20
-50.8983867863014
 30
0.0
 11
-691.666521590048
 21
-50.8983867863014
 31
0.0
  0
LINE
  5
   374
  8
0
  6
CONTINUOUS
 62
     3
 10
-691.666521590048
 20
-51.3983906009966
 30
0.0
 11
-691.666521590048
 21
-50.8983906009966
 31
0.0
  0
LINE
  5
   375
  8
0
  6
CONTINUOUS
 62
     3
 10
-691.666521602305
 20
-51.3983906095532
 30
0.0
 11
-692.166517787517
 21
-51.3983829801587
 31
0.0
  0
LINE
  5
   376
  8
0
  6
CONTINUOUS
 62
     3
 10
-677.166540361418
 20
-51.3983868192153
 30
0.0
 11
-691.666521590048
 21
-51.3983868192153
 31
0.0
  0
LINE
  5
   377
  8
0
  6
CONTINUOUS
 62
     3
 10
-692.166540899491
 20
-63.5233829716021
 30
0.0
 11
-692.166540899491
 21
-51.3983829716094
 31
0.0
  0
ARC
  5
   378
  8
0
  6
CONTINUOUS
 62
     3
 10
-691.541540899491
 20
-63.5233829716021
 30
0.0
 40
0.625
 50
179.999999948034
 51
269.999999948034
  0
LINE
  5
   379
  8
0
  6
CONTINUOUS
 62
     3
 10
-677.166540361418
 20
-64.1483829716021
 30
0.0
 11
-691.541540899491
 21
-64.1483829716021
 31
0.0
  0
LINE
  5
   37A
  8
0
  6
CONTINUOUS
 62
     3
 10
-690.991514723593
 20
-63.9930561283404
 30
0.0
 11
-690.991514723593
 21
-51.3983906009966
 31
0.0
  0
LINE
  5
   37B
  8
0
  6
CONTINUOUS
 62
     3
 10
-689.191515486532
 20
-63.9930561283404
 30
0.0
 11
-689.191515486532
 21
-51.3983829716021
 31
0.0
  0
LINE
  5
   37C
  8
0
  6
CONTINUOUS
 62
     3
 10
-687.391516249472
 20
-63.9930561283404
 30
0.0
 11
-687.391516249472
 21
-51.3983829716021
 31
0.0
  0
LINE
  5
   37D
  8
0
  6
CONTINUOUS
 62
     3
 10
-685.591517012411
 20
-63.9930561283404
 30
0.0
 11
-685.591517012411
 21
-51.3983829716021
 31
0.0
  0
LINE
  5
   37E
  8
0
  6
CONTINUOUS
 62
     3
 10
-683.791513960653
 20
-63.9930561283404
 30
0.0
 11
-683.791513960653
 21
-51.3983829716021
 31
0.0
  0
LINE
  5
   37F
  8
0
  6
CONTINUOUS
 62
     3
 10
-681.991514723593
 20
-63.9930561283404
 30
0.0
 11
-681.991514723593
 21
-51.3983829716021
 31
0.0
  0
LINE
  5
   380
  8
0
  6
CONTINUOUS
 62
     3
 10
-680.191515486532
 20
-63.9930561283404
 30
0.0
 11
-680.191515486532
 21
-51.3983829716021
 31
0.0
  0
LINE
  5
   381
  8
0
  6
CONTINUOUS
 62
     3
 10
-678.391516249472
 20
-63.9930561283404
 30
0.0
 11
-678.391516249472
 21
-51.3983829716021
 31
0.0
  0
LINE
  5
   382
  8
0
  6
CONTINUOUS
 62
     7
 10
-692.166523162003
 20
-51.3983829800767
 30
0.0
 11
-692.166523162003
 21
-24.7733345031738
 31
0.0
  0
LINE
  5
   383
  8
0
  6
CONTINUOUS
 62
     5
 10
-644.916525061267
 20
-67.8783829716021
 30
0.0
 11
-651.916525061267
 21
-67.8783829716021
 31
0.0
  0
LINE
  5
   384
  8
0
  6
CONTINUOUS
 62
     5
 10
-643.416525061267
 20
-66.3783829716021
 30
0.0
 11
-643.416525061267
 21
-64.1483829716021
 31
0.0
  0
LINE
  5
   385
  8
0
  6
CONTINUOUS
 62
     5
 10
-653.416525061267
 20
-66.3783829716021
 30
0.0
 11
-653.416525061267
 21
-64.1483829716021
 31
0.0
  0
LINE
  5
   386
  8
0
  6
CONTINUOUS
 62
     5
 10
-646.416525061267
 20
-65.8783829716021
 30
0.0
 11
-650.416525061267
 21
-65.8783829716021
 31
0.0
  0
LINE
  5
   387
  8
0
  6
CONTINUOUS
 62
     5
 10
-645.916525061267
 20
-65.3783829716021
 30
0.0
 11
-645.916525061267
 21
-64.1483829716021
 31
0.0
  0
LINE
  5
   388
  8
0
  6
CONTINUOUS
 62
     5
 10
-650.916525061267
 20
-65.3783829716021
 30
0.0
 11
-650.916525061267
 21
-64.1483829716021
 31
0.0
  0
ARC
  5
   389
  8
0
  6
CONTINUOUS
 62
     5
 10
-650.416525061267
 20
-65.3783829716021
 30
0.0
 40
0.5
 50
179.999999948034
 51
269.999999948034
  0
ARC
  5
   38A
  8
0
  6
CONTINUOUS
 62
     5
 10
-646.416525061267
 20
-65.3783829716021
 30
0.0
 40
0.5
 50
269.999999948034
 51
359.999999948034
  0
ARC
  5
   38B
  8
0
  6
CONTINUOUS
 62
     5
 10
-651.916525061267
 20
-66.3783829716021
 30
0.0
 40
1.5
 50
179.999999948034
 51
269.999999948034
  0
ARC
  5
   38C
  8
0
  6
CONTINUOUS
 62
     5
 10
-644.916525061267
 20
-66.3783829716021
 30
0.0
 40
1.5
 50
269.999999948034
 51
359.999999948034
  0
LINE
  5
   38D
  8
0
  6
CONTINUOUS
 62
   210
 10
-668.416525061267
 20
-65.3783829716021
 30
0.0
 11
-668.416525061267
 21
-64.1483829716021
 31
0.0
  0
ARC
  5
   38E
  8
0
  6
CONTINUOUS
 62
   210
 10
-667.916525061267
 20
-65.3783829716021
 30
0.0
 40
0.5
 50
179.999999948034
 51
269.999999948034
  0
LINE
  5
   38F
  8
0
  6
CONTINUOUS
 62
   210
 10
-663.916525061267
 20
-65.8783829716021
 30
0.0
 11
-667.916525061267
 21
-65.8783829716021
 31
0.0
  0
ARC
  5
   390
  8
0
  6
CONTINUOUS
 62
   210
 10
-663.916525061267
 20
-65.3783829716021
 30
0.0
 40
0.5
 50
269.999999948034
 51
359.999999948034
  0
LINE
  5
   391
  8
0
  6
CONTINUOUS
 62
   210
 10
-663.416525061267
 20
-65.3783829716021
 30
0.0
 11
-663.416525061267
 21
-64.1483829716021
 31
0.0
  0
LINE
  5
   392
  8
0
  6
CONTINUOUS
 62
   210
 10
-660.916525061267
 20
-66.3783829716021
 30
0.0
 11
-660.916525061267
 21
-64.1483829716021
 31
0.0
  0
ARC
  5
   393
  8
0
  6
CONTINUOUS
 62
   210
 10
-662.416525061267
 20
-66.3783829716021
 30
0.0
 40
1.5
 50
269.999999948034
 51
359.999999948034
  0
LINE
  5
   394
  8
0
  6
CONTINUOUS
 62
   210
 10
-662.416525061267
 20
-67.8783829716021
 30
0.0
 11
-669.416525061267
 21
-67.8783829716021
 31
0.0
  0
ARC
  5
   395
  8
0
  6
CONTINUOUS
 62
   210
 10
-669.416525061267
 20
-66.3783829716021
 30
0.0
 40
1.5
 50
179.999999948034
 51
269.999999948034
  0
LINE
  5
   396
  8
0
  6
CONTINUOUS
 62
   210
 10
-670.916525061267
 20
-66.3783829716021
 30
0.0
 11
-670.916525061267
 21
-64.1483829716021
 31
0.0
  0
LINE
  5
   397
  8
0
  6
CONTINUOUS
 62
     7
 10
-623.916553679581
 20
64.1016426086426
 30
0.0
 11
-624.916557671714
 21
64.1016426086426
 31
0.0
  0
LINE
  5
   398
  8
0
  6
CONTINUOUS
 62
     7
 10
-639.666553546524
 20
48.6016731262207
 30
0.0
 11
-639.666558281406
 21
66.392494235817
 31
0.0
  0
LINE
  5
   399
  8
0
  6
CONTINUOUS
 62
     7
 10
-620.492700664838
 20
48.6016731262207
 30
0.0
 11
-639.666553546524
 21
48.6016731262207
 31
0.0
  0
LINE
  5
   39A
  8
0
  6
CONTINUOUS
 62
     7
 10
-622.166553679581
 20
62.7016426086426
 30
0.0
 11
-623.416553679581
 21
62.7016426086426
 31
0.0
  0
LINE
  5
   39B
  8
0
  6
CONTINUOUS
 62
     7
 10
-623.416553679581
 20
62.7016426086426
 30
0.0
 11
-623.416553679581
 21
63.6016426086426
 31
0.0
  0
ARC
  5
   39C
  8
0
  6
CONTINUOUS
 62
     7
 10
-623.916553679581
 20
63.6016426086426
 30
0.0
 40
0.5
 50
359.999999948034
 51
449.999999948034
  0
LINE
  5
   39D
  8
0
  6
CONTINUOUS
 62
     7
 10
-624.916553812657
 20
49.6016426086426
 30
0.0
 11
-636.916553812658
 21
49.6016426086426
 31
0.0
  0
LINE
  5
   39E
  8
0
  6
CONTINUOUS
 62
     7
 10
-624.916553812657
 20
49.6016426086426
 30
0.0
 11
-624.916557671714
 21
64.1016426086426
 31
0.0
  0
LINE
  5
   39F
  8
0
  6
CONTINUOUS
 62
     7
 10
-636.916553812657
 20
49.6016394149403
 30
0.0
 11
-636.916557671714
 21
64.1016394149403
 31
0.0
  0
LINE
  5
   3A0
  8
0
  6
CONTINUOUS
 62
     7
 10
-636.916557671714
 20
64.1016426086426
 30
0.0
 11
-639.666557671714
 21
64.1016426086426
 31
0.0
  0
CIRCLE
  5
   3A1
  8
0
  6
CONTINUOUS
 62
     7
 10
-630.916555276445
 20
55.1016731262207
 30
0.0
 40
2.0
  0
LINE
  5
   3A2
  8
0
  6
DASHDOT
 62
     7
 10
-630.916555276445
 20
47.9018811646562
 30
0.0
 11
-630.916555276445
 21
64.9205927993435
 31
0.0
  0
LINE
  5
   3A3
  8
0
  6
DASHDOT
 62
     7
 10
-623.814577172618
 20
55.1016731262207
 30
0.0
 11
-638.357434296886
 21
55.1016731262207
 31
0.0
  0
LINE
  5
   3A4
  8
0
  6
CONTINUOUS
 62
     7
 10
-626.541555276446
 20
60.1016731262207
 30
0.0
 11
-635.291555276445
 21
60.1016731262207
 31
0.0
  0
LINE
  5
   3A5
  8
0
  6
CONTINUOUS
 62
     7
 10
-626.541555276446
 20
49.6016426086426
 30
0.0
 11
-626.541555276446
 21
60.1016731262207
 31
0.0
  0
LINE
  5
   3A6
  8
0
  6
CONTINUOUS
 62
     7
 10
-635.291555276445
 20
49.6016426086426
 30
0.0
 11
-635.291555276445
 21
60.1016731262207
 31
0.0
  0
LINE
  5
   3A7
  8
0
  6
DASHDOT
 62
     7
 10
-641.314577172618
 20
55.1016731262207
 30
0.0
 11
-655.857434296886
 21
55.1016731262207
 31
0.0
  0
LINE
  5
   3A8
  8
0
  6
DASHDOT
 62
     7
 10
-658.814577172618
 20
55.1016731262207
 30
0.0
 11
-673.357434296886
 21
55.1016731262207
 31
0.0
  0
LINE
  5
   3A9
  8
0
  6
DASHDOT
 62
     7
 10
-665.916555276446
 20
47.9018811646562
 30
0.0
 11
-665.916555276446
 21
64.9205927993435
 31
0.0
  0
LINE
  5
   3AA
  8
0
  6
DASHDOT
 62
     7
 10
-658.814577172618
 20
-53.8983268737793
 30
0.0
 11
-673.357434296886
 21
-53.8983268737793
 31
0.0
  0
LINE
  5
   3AB
  8
0
  6
DASHDOT
 62
     7
 10
-665.916555276446
 20
-63.7172465469021
 30
0.0
 11
-665.916555276446
 21
-46.6985349122148
 31
0.0
  0
LINE
  5
   3AC
  8
0
  6
DASHDOT
 62
     7
 10
-641.314577172618
 20
-53.8983268737793
 30
0.0
 11
-655.857434296886
 21
-53.8983268737793
 31
0.0
  0
LINE
  5
   3AD
  8
0
  6
CONTINUOUS
 62
     7
 10
-639.666558281406
 20
-65.1891479833756
 30
0.0
 11
-639.666553546524
 21
-47.3983268737793
 31
0.0
  0
LINE
  5
   3AE
  8
0
  6
CONTINUOUS
 62
     7
 10
-620.492700664838
 20
-47.3983268737793
 30
0.0
 11
-639.666553546524
 21
-47.3983268737793
 31
0.0
  0
LINE
  5
   3AF
  8
0
  6
CONTINUOUS
 62
     7
 10
-636.916557671714
 20
-62.8982963562012
 30
0.0
 11
-639.666557671714
 21
-62.8982963562012
 31
0.0
  0
LINE
  5
   3B0
  8
0
  6
CONTINUOUS
 62
     7
 10
-636.916557671714
 20
-62.8982931624989
 30
0.0
 11
-636.916553812657
 21
-48.3982931624989
 31
0.0
  0
LINE
  5
   3B1
  8
0
  6
CONTINUOUS
 62
     7
 10
-624.916553812657
 20
-48.3982963562012
 30
0.0
 11
-636.916553812658
 21
-48.3982963562012
 31
0.0
  0
LINE
  5
   3B2
  8
0
  6
CONTINUOUS
 62
     7
 10
-624.916557671714
 20
-62.8982963562012
 30
0.0
 11
-624.916553812657
 21
-48.3982963562012
 31
0.0
  0
LINE
  5
   3B3
  8
0
  6
CONTINUOUS
 62
     7
 10
-623.916553679581
 20
-62.8982963562012
 30
0.0
 11
-624.916557671714
 21
-62.8982963562012
 31
0.0
  0
ARC
  5
   3B4
  8
0
  6
CONTINUOUS
 62
     7
 10
-623.916553679581
 20
-62.3982963562012
 30
0.0
 40
0.5
 50
269.999999948034
 51
359.999999948034
  0
LINE
  5
   3B5
  8
0
  6
CONTINUOUS
 62
     7
 10
-623.416553679581
 20
-62.3982963562012
 30
0.0
 11
-623.416553679581
 21
-61.4982963562012
 31
0.0
  0
LINE
  5
   3B6
  8
0
  6
CONTINUOUS
 62
     7
 10
-622.166553679581
 20
-61.4982963562012
 30
0.0
 11
-623.416553679581
 21
-61.4982963562012
 31
0.0
  0
LINE
  5
   3B7
  8
0
  6
CONTINUOUS
 62
     7
 10
-626.541555276446
 20
-58.8983268737793
 30
0.0
 11
-626.541555276446
 21
-48.3982963562012
 31
0.0
  0
LINE
  5
   3B8
  8
0
  6
CONTINUOUS
 62
     7
 10
-626.541555276446
 20
-58.8983268737793
 30
0.0
 11
-635.291555276445
 21
-58.8983268737793
 31
0.0
  0
LINE
  5
   3B9
  8
0
  6
CONTINUOUS
 62
     7
 10
-635.291555276445
 20
-58.8983268737793
 30
0.0
 11
-635.291555276445
 21
-48.3982963562012
 31
0.0
  0
CIRCLE
  5
   3BA
  8
0
  6
CONTINUOUS
 62
     7
 10
-630.916555276445
 20
-53.8983268737793
 30
0.0
 40
2.0
  0
LINE
  5
   3BB
  8
0
  6
DASHDOT
 62
     7
 10
-630.916555276445
 20
-63.7172465469021
 30
0.0
 11
-630.916555276445
 21
-46.6985349122148
 31
0.0
  0
LINE
  5
   3BC
  8
0
  6
DASHDOT
 62
     7
 10
-623.814577172618
 20
-53.8983268737793
 30
0.0
 11
-638.357434296886
 21
-53.8983268737793
 31
0.0
  0
INSERT
  5
   3BD
  8
0
  6
CONTINUOUS
 62
     7
  2
*HATCH39
 10
-705.835693359375
 20
-53.5168724060059
 30
0.0
 41
0.5
 42
0.5
 50
89.9999999480344
 43
0.5
  0
INSERT
  5
   3BE
  8
0
  6
CONTINUOUS
 62
     7
  2
*HATCH40
 10
-705.835693359375
 20
-53.5168724060059
 30
0.0
 41
0.5
 42
0.5
 50
89.9999999480344
 43
0.5
  0
LINE
  5
   3BF
  8
0
  6
DASHDOT
 62
     7
 10
-676.314577172618
 20
55.1016731262207
 30
0.0
 11
-690.857434296886
 21
55.1016731262207
 31
0.0
  0
LINE
  5
   3C0
  8
0
  6
DASHDOT
 62
     7
 10
-683.416555276446
 20
47.9018811646562
 30
0.0
 11
-683.416555276446
 21
64.9205927993435
 31
0.0
  0
LINE
  5
   3C1
  8
0
  6
DASHDOT
 62
     7
 10
-676.314577172618
 20
-53.8983268737793
 30
0.0
 11
-690.857434296886
 21
-53.8983268737793
 31
0.0
  0
LINE
  5
   3C2
  8
0
  6
DASHDOT
 62
     7
 10
-683.416555276446
 20
-63.7172465469021
 30
0.0
 11
-683.416555276446
 21
-46.6985349122148
 31
0.0
  0
CIRCLE
  5
   3C3
  8
0
  6
CONTINUOUS
 62
   210
 10
-630.916762330231
 20
24.6018896482291
 30
0.0
 40
2.0
  0
LINE
  5
   3C4
  8
0
  6
CONTINUOUS
 62
   210
 10
-631.199262330231
 20
23.4518896482291
 30
0.0
 11
-631.199262330231
 21
24.3193896482291
 31
0.0
  0
LINE
  5
   3C5
  8
0
  6
CONTINUOUS
 62
   210
 10
-630.634262330231
 20
23.4518896482291
 30
0.0
 11
-630.634262330231
 21
24.3193896482291
 31
0.0
  0
LINE
  5
   3C6
  8
0
  6
CONTINUOUS
 62
   210
 10
-629.766762330231
 20
24.3193896482291
 30
0.0
 11
-630.634262330231
 21
24.3193896482291
 31
0.0
  0
LINE
  5
   3C7
  8
0
  6
CONTINUOUS
 62
   210
 10
-629.766762330231
 20
24.8843896482291
 30
0.0
 11
-630.634262330231
 21
24.8843896482291
 31
0.0
  0
LINE
  5
   3C8
  8
0
  6
CONTINUOUS
 62
   210
 10
-632.066762330231
 20
24.3193896482291
 30
0.0
 11
-632.066762330231
 21
24.8843896482291
 31
0.0
  0
LINE
  5
   3C9
  8
0
  6
CONTINUOUS
 62
   210
 10
-629.766762330231
 20
24.3193896482291
 30
0.0
 11
-629.766762330231
 21
24.8843896482291
 31
0.0
  0
LINE
  5
   3CA
  8
0
  6
CONTINUOUS
 62
   210
 10
-630.634262330231
 20
23.4518896482291
 30
0.0
 11
-631.199262330231
 21
23.4518896482291
 31
0.0
  0
LINE
  5
   3CB
  8
0
  6
CONTINUOUS
 62
   210
 10
-630.634262330231
 20
25.7518896482291
 30
0.0
 11
-631.199262330231
 21
25.7518896482291
 31
0.0
  0
LINE
  5
   3CC
  8
0
  6
CONTINUOUS
 62
   210
 10
-631.199262330231
 20
24.8843896482291
 30
0.0
 11
-631.199262330231
 21
25.7518896482291
 31
0.0
  0
LINE
  5
   3CD
  8
0
  6
CONTINUOUS
 62
   210
 10
-630.634262330231
 20
24.8843896482291
 30
0.0
 11
-630.634262330231
 21
25.7518896482291
 31
0.0
  0
LINE
  5
   3CE
  8
0
  6
CONTINUOUS
 62
   210
 10
-631.199262330231
 20
24.8843896482291
 30
0.0
 11
-632.066762330231
 21
24.8843896482291
 31
0.0
  0
LINE
  5
   3CF
  8
0
  6
CONTINUOUS
 62
   210
 10
-631.199262330231
 20
24.3193896482291
 30
0.0
 11
-632.066762330231
 21
24.3193896482291
 31
0.0
  0
CIRCLE
  5
   3D0
  8
0
  6
CONTINUOUS
 62
   210
 10
-665.916331988121
 20
24.6018803333787
 30
0.0
 40
2.0
  0
LINE
  5
   3D1
  8
0
  6
CONTINUOUS
 62
   210
 10
-665.633831375995
 20
23.451880483749
 30
0.0
 11
-665.633831837751
 21
24.3193804837489
 31
0.0
  0
LINE
  5
   3D2
  8
0
  6
CONTINUOUS
 62
   210
 10
-666.198831375995
 20
23.4518801830087
 30
0.0
 11
-666.198831837751
 21
24.3193801830086
 31
0.0
  0
LINE
  5
   3D3
  8
0
  6
CONTINUOUS
 62
   210
 10
-666.198831837751
 20
24.3193803333787
 30
0.0
 11
-667.066331837751
 21
24.3193803333787
 31
0.0
  0
LINE
  5
   3D4
  8
0
  6
CONTINUOUS
 62
   210
 10
-666.198832138491
 20
24.8843803333787
 30
0.0
 11
-667.066332138491
 21
24.8843803333787
 31
0.0
  0
LINE
  5
   3D5
  8
0
  6
CONTINUOUS
 62
   210
 10
-664.766331837751
 20
24.319380945505
 30
0.0
 11
-664.766332138491
 21
24.8843809455049
 31
0.0
  0
LINE
  5
   3D6
  8
0
  6
CONTINUOUS
 62
   210
 10
-667.066331837751
 20
24.3193797212525
 30
0.0
 11
-667.066332138491
 21
24.8843797212524
 31
0.0
  0
LINE
  5
   3D7
  8
0
  6
CONTINUOUS
 62
   210
 10
-665.633831375995
 20
23.4518803333789
 30
0.0
 11
-666.198831375995
 21
23.4518803333789
 31
0.0
  0
LINE
  5
   3D8
  8
0
  6
CONTINUOUS
 62
   210
 10
-665.633832600247
 20
25.7518803333785
 30
0.0
 11
-666.198832600247
 21
25.7518803333785
 31
0.0
  0
LINE
  5
   3D9
  8
0
  6
CONTINUOUS
 62
   210
 10
-665.633832138491
 20
24.8843804837488
 30
0.0
 11
-665.633832600247
 21
25.7518804837487
 31
0.0
  0
LINE
  5
   3DA
  8
0
  6
CONTINUOUS
 62
   210
 10
-666.198832138491
 20
24.8843801830085
 30
0.0
 11
-666.198832600247
 21
25.7518801830084
 31
0.0
  0
LINE
  5
   3DB
  8
0
  6
CONTINUOUS
 62
   210
 10
-664.766332138491
 20
24.8843803333787
 30
0.0
 11
-665.633832138491
 21
24.8843803333787
 31
0.0
  0
LINE
  5
   3DC
  8
0
  6
CONTINUOUS
 62
   210
 10
-664.766331837751
 20
24.3193803333787
 30
0.0
 11
-665.633831837751
 21
24.3193803333787
 31
0.0
  0
LINE
  5
   3DD
  8
0
  6
CONTINUOUS
 62
     3
 10
-678.391568830872
 20
52.6016464562557
 30
0.0
 11
-678.391568830872
 21
65.1963157653809
 31
0.0
  0
LINE
  5
   3DE
  8
0
  6
CONTINUOUS
 62
     3
 10
-680.191568067932
 20
52.6016464562557
 30
0.0
 11
-680.191568067932
 21
65.1963157653809
 31
0.0
  0
LINE
  5
   3DF
  8
0
  6
CONTINUOUS
 62
     3
 10
-681.991567304993
 20
52.6016464562557
 30
0.0
 11
-681.991567304993
 21
65.1963157653809
 31
0.0
  0
LINE
  5
   3E0
  8
0
  6
CONTINUOUS
 62
     3
 10
-683.791566542054
 20
52.6016464562557
 30
0.0
 11
-683.791566542054
 21
65.1963157653809
 31
0.0
  0
LINE
  5
   3E1
  8
0
  6
CONTINUOUS
 62
     3
 10
-685.591569593811
 20
52.6016464562557
 30
0.0
 11
-685.591569593811
 21
65.1963157653809
 31
0.0
  0
LINE
  5
   3E2
  8
0
  6
CONTINUOUS
 62
     3
 10
-687.391568830872
 20
52.6016464562557
 30
0.0
 11
-687.391568830872
 21
65.1963157653809
 31
0.0
  0
LINE
  5
   3E3
  8
0
  6
CONTINUOUS
 62
     3
 10
-689.191568067932
 20
52.6016464562557
 30
0.0
 11
-689.191568067932
 21
65.1963157653809
 31
0.0
  0
LINE
  5
   3E4
  8
0
  6
CONTINUOUS
 62
     3
 10
-690.991567304993
 20
52.6016464562557
 30
0.0
 11
-690.991567304993
 21
65.1963157653809
 31
0.0
  0
LINE
  5
   3E5
  8
0
  6
CONTINUOUS
 62
   210
 10
-692.166540361418
 20
15.1016731262207
 30
0.0
 11
-696.991190296941
 21
15.1016731262207
 31
0.0
  0
LINE
  5
   3E6
  8
0
  6
CONTINUOUS
 62
   210
 10
-616.138922136587
 20
15.1016731262207
 30
0.0
 11
-622.166547990813
 21
15.1016731262207
 31
0.0
  0
LINE
  5
   3E7
  8
0
  6
CONTINUOUS
 62
   210
 10
-616.138922136587
 20
-22.3983268737793
 30
0.0
 11
-622.166547990813
 21
-22.3983268737793
 31
0.0
  0
LINE
  5
   3E8
  8
0
  6
CONTINUOUS
 62
   210
 10
-692.166540361418
 20
-22.3983268737793
 30
0.0
 11
-696.991190296941
 21
-22.3983268737793
 31
0.0
  0
LINE
  5
   3E9
  8
0
  6
CONTINUOUS
 62
   210
 10
-616.138922136587
 20
7.35167312622069
 30
0.0
 11
-622.166547990813
 21
7.35167312622069
 31
0.0
  0
LINE
  5
   3EA
  8
0
  6
CONTINUOUS
 62
   210
 10
-692.166540361418
 20
7.35167312622069
 30
0.0
 11
-696.991190296941
 21
7.35167312622069
 31
0.0
  0
LINE
  5
   3EB
  8
0
  6
CONTINUOUS
 62
   210
 10
-616.138922136587
 20
-14.6483268737793
 30
0.0
 11
-622.166547990813
 21
-14.6483268737793
 31
0.0
  0
LINE
  5
   3EC
  8
0
  6
CONTINUOUS
 62
   210
 10
-692.166540361418
 20
-14.6483268737793
 30
0.0
 11
-696.991190296941
 21
-14.6483268737793
 31
0.0
  0
LINE
  5
   3ED
  8
0
  6
CONTINUOUS
 62
     7
 10
-616.138922136587
 20
-22.3983268737793
 30
0.0
 11
-616.138922136587
 21
15.1016731262207
 31
0.0
  0
LINE
  5
   3EE
  8
0
  6
CONTINUOUS
 62
     7
 10
-696.991190296941
 20
-22.3983268737793
 30
0.0
 11
-696.991190296941
 21
15.1016731262207
 31
0.0
  0
INSERT
  5
   3EF
  8
0
  6
CONTINUOUS
 62
     7
  2
*UDIM280
 10
0.0
 20
0.0
 30
0.0
  0
INSERT
  5
   3F0
  8
0
  6
CONTINUOUS
 62
     7
  2
*UDIM281
 10
0.0
 20
0.0
 30
0.0
  0
INSERT
  5
   3F1
  8
0
  6
CONTINUOUS
 62
     7
  2
*UDIM282
 10
0.0
 20
0.0
 30
0.0
  0
INSERT
  5
   3F2
  8
0
  6
CONTINUOUS
 62
     7
  2
*UDIM283
 10
0.0
 20
0.0
 30
0.0
  0
INSERT
  5
   3F3
  8
0
  6
CONTINUOUS
 62
     7
  2
*UDIM284
 10
0.0
 20
0.0
 30
0.0
  0
INSERT
  5
   3F4
  8
0
  6
CONTINUOUS
 62
     7
  2
*UDIM285
 10
0.0
 20
0.0
 30
0.0
  0
INSERT
  5
   3F5
  8
0
  6
CONTINUOUS
 62
     7
  2
*UDIM286
 10
0.0
 20
0.0
 30
0.0
  0
INSERT
  5
   3F6
  8
0
  6
CONTINUOUS
 62
     7
  2
*UDIM287
 10
0.0
 20
0.0
 30
0.0
  0
INSERT
  5
   3F7
  8
0
  6
CONTINUOUS
 62
     7
  2
*UDIM288
 10
0.0
 20
0.0
 30
0.0
  0
INSERT
  5
   3F8
  8
0
  6
CONTINUOUS
 62
     7
  2
*UDIM289
 10
0.0
 20
0.0
 30
0.0
  0
INSERT
  5
   3F9
  8
0
  6
CONTINUOUS
 62
     7
  2
*UDIM290
 10
0.0
 20
0.0
 30
0.0
  0
INSERT
  5
   3FA
  8
0
  6
CONTINUOUS
 62
     7
  2
*UDIM291
 10
0.0
 20
0.0
 30
0.0
  0
INSERT
  5
   3FB
  8
0
  6
CONTINUOUS
 62
     7
  2
*UDIM292
 10
0.0
 20
0.0
 30
0.0
  0
INSERT
  5
   3FC
  8
0
  6
CONTINUOUS
 62
     7
  2
*UDIM293
 10
0.0
 20
0.0
 30
0.0
  0
INSERT
  5
   3FD
  8
0
  6
CONTINUOUS
 62
     7
  2
*UDIM294
 10
0.0
 20
0.0
 30
0.0
  0
INSERT
  5
   3FE
  8
0
  6
CONTINUOUS
 62
     7
  2
*UDIM295
 10
0.0
 20
0.0
 30
0.0
  0
TEXT
  5
   3FF
  8
0
  6
CONTINUOUS
 62
     7
 10
-586.468101413411
 20
-0.282474272750212
 30
0.0
 40
3.00000002980232
  1
X
 50
359.999999948034
 41
0.916666604744064
 72
     1
 11
-585.368101477623
 21
1.21752574115881
 31
0.0
 73
     2
  0
TEXT
  5
   400
  8
0
  6
CONTINUOUS
 62
     7
 10
-720.128753574055
 20
-0.349361174605681
 30
0.0
 40
3.00000002980232
  1
X
 50
359.999999948034
 41
0.916666604744064
 72
     1
 11
-719.028753638267
 21
1.15063883930334
 31
0.0
 73
     2
  0
TEXT
  5
   401
  8
0
  6
CONTINUOUS
 62
     7
 10
-649.189750583333
 20
102.989658600785
 30
0.0
 40
3.00000002980232
  1
Y
 50
359.999999948034
 41
0.916666604744064
 72
     1
 11
-648.089750647545
 21
104.489658614694
 31
0.0
 73
     2
  0
ENDSEC
  0
EOF
