  0
SECTION
  2
HEADER
  9
$ACADVER
  1
AC1009
  9
$DWGCODEPAGE
  3
iso8859-1
  9
$INSBASE
 10
0.0
 20
0.0
 30
0.0
  9
$EXTMIN
 10
1.0E20
 20
1.0E20
 30
1.0E20
  9
$EXTMAX
 10
-1.0E20
 20
-1.0E20
 30
-1.0E20
  9
$LIMMIN
 10
0.0
 20
0.0
  9
$LIMMAX
 10
12.0
 20
9.0
  9
$ORTHOMODE
 70
     0
  9
$REGENMODE
 70
     1
  9
$FILLMODE
 70
     1
  9
$QTEXTMODE
 70
     0
  9
$MIRRTEXT
 70
     1
  9
$DRAGMODE
 70
     2
  9
$LTSCALE
 40
15.0
  9
$OSMODE
 70
     0
  9
$ATTMODE
 70
     1
  9
$TEXTSIZE
 40
0.2
  9
$TRACEWID
 40
0.05
  9
$TEXTSTYLE
  7
STANDARD
  9
$CLAYER
  8
0
  9
$CELTYPE
  6
DASHED
  9
$CECOLOR
 62
   256
  9
$DIMSCALE
 40
1.0
  9
$DIMASZ
 40
0.18
  9
$DIMEXO
 40
0.0625
  9
$DIMDLI
 40
0.38
  9
$DIMRND
 40
0.0
  9
$DIMDLE
 40
0.0
  9
$DIMEXE
 40
0.18
  9
$DIMTP
 40
0.0
  9
$DIMTM
 40
0.0
  9
$DIMTXT
 40
0.18
  9
$DIMCEN
 40
0.09
  9
$DIMTSZ
 40
0.0
  9
$DIMTOL
 70
     0
  9
$DIMLIM
 70
     0
  9
$DIMTIH
 70
     1
  9
$DIMTOH
 70
     1
  9
$DIMSE1
 70
     0
  9
$DIMSE2
 70
     0
  9
$DIMTAD
 70
     0
  9
$DIMZIN
 70
     0
  9
$DIMBLK
  1

  9
$DIMASO
 70
     1
  9
$DIMSHO
 70
     1
  9
$DIMPOST
  1

  9
$DIMAPOST
  1

  9
$DIMALT
 70
     0
  9
$DIMALTD
 70
     2
  9
$DIMALTF
 40
25.4
  9
$DIMLFAC
 40
1.0
  9
$DIMTOFL
 70
     0
  9
$DIMTVP
 40
0.0
  9
$DIMTIX
 70
     0
  9
$DIMSOXD
 70
     0
  9
$DIMSAH
 70
     0
  9
$DIMBLK1
  1

  9
$DIMBLK2
  1

  9
$DIMSTYLE
  2
STANDARD
  9
$DIMCLRD
 70
     0
  9
$DIMCLRE
 70
     0
  9
$DIMCLRT
 70
     0
  9
$DIMTFAC
 40
1.0
  9
$DIMGAP
 40
0.09
  9
$LUNITS
 70
     2
  9
$LUPREC
 70
     4
  9
$AXISMODE
 70
     0
  9
$AXISUNIT
 10
0.0
 20
0.0
  9
$SKETCHINC
 40
0.1
  9
$FILLETRAD
 40
0.0
  9
$AUNITS
 70
     0
  9
$AUPREC
 70
     0
  9
$MENU
  1
acad
  9
$ELEVATION
 40
0.0
  9
$PELEVATION
 40
0.0
  9
$THICKNESS
 40
0.0
  9
$LIMCHECK
 70
     0
  9
$BLIPMODE
 70
     1
  9
$CHAMFERA
 40
0.0
  9
$CHAMFERB
 40
0.0
  9
$SKPOLY
 70
     0
  9
$TDCREATE
 40
2450267.486451955
  9
$TDUPDATE
 40
2450267.486451955
  9
$TDINDWG
 40
0.0
  9
$TDUSRTIMER
 40
0.0
  9
$USRTIMER
 70
     1
  9
$ANGBASE
 50
0.0
  9
$ANGDIR
 70
     0
  9
$PDMODE
 70
     0
  9
$PDSIZE
 40
0.0
  9
$PLINEWID
 40
0.0
  9
$COORDS
 70
     1
  9
$SPLFRAME
 70
     0
  9
$SPLINETYPE
 70
     6
  9
$SPLINESEGS
 70
     8
  9
$ATTDIA
 70
     0
  9
$ATTREQ
 70
     1
  9
$HANDLING
 70
     1
  9
$HANDSEED
  5
   8D3
  9
$SURFTAB1
 70
     6
  9
$SURFTAB2
 70
     6
  9
$SURFTYPE
 70
     6
  9
$SURFU
 70
     6
  9
$SURFV
 70
     6
  9
$UCSNAME
  2

  9
$UCSORG
 10
0.0
 20
0.0
 30
0.0
  9
$UCSXDIR
 10
1.0
 20
0.0
 30
0.0
  9
$UCSYDIR
 10
0.0
 20
1.0
 30
0.0
  9
$PUCSNAME
  2

  9
$PUCSORG
 10
0.0
 20
0.0
 30
0.0
  9
$PUCSXDIR
 10
1.0
 20
0.0
 30
0.0
  9
$PUCSYDIR
 10
0.0
 20
1.0
 30
0.0
  9
$USERI1
 70
     0
  9
$USERI2
 70
     0
  9
$USERI3
 70
     0
  9
$USERI4
 70
     0
  9
$USERI5
 70
     0
  9
$USERR1
 40
0.0
  9
$USERR2
 40
0.0
  9
$USERR3
 40
0.0
  9
$USERR4
 40
0.0
  9
$USERR5
 40
0.0
  9
$WORLDVIEW
 70
     1
  9
$SHADEDGE
 70
     3
  9
$SHADEDIF
 70
    70
  9
$TILEMODE
 70
     1
  9
$MAXACTVP
 70
    16
  9
$PINSBASE
 10
0.0
 20
0.0
 30
0.0
  9
$PLIMCHECK
 70
     0
  9
$PEXTMIN
 10
1.0E20
 20
1.0E20
 30
1.0E20
  9
$PEXTMAX
 10
-1.0E20
 20
-1.0E20
 30
-1.0E20
  9
$PLIMMIN
 10
0.0
 20
0.0
  9
$PLIMMAX
 10
12.0
 20
9.0
  9
$UNITMODE
 70
     0
  9
$VISRETAIN
 70
     0
  0
ENDSEC
  0
SECTION
  2
TABLES
  0
TABLE
  2
VPORT
 70
     1
  0
VPORT
  2
*ACTIVE
 70
     0
 10
0.0
 20
0.0
 11
1.0
 21
1.0
 12
6.801242
 22
4.5
 13
0.0
 23
0.0
 14
1.0
 24
1.0
 15
0.0
 25
0.0
 16
0.0
 26
0.0
 36
1.0
 17
0.0
 27
0.0
 37
0.0
 40
9.0
 41
1.511387
 42
50.0
 43
0.0
 44
0.0
 50
0.0
 51
0.0
 71
     0
 72
   100
 73
     1
 74
     1
 75
     0
 76
     0
 77
     0
 78
     0
  0
ENDTAB
  0
TABLE
  2
LTYPE
 70
    41
  0
LTYPE
  2
BYBLOCK
 70
     0
  3

 72
    65
 73
     0
 40
0.0
  0
LTYPE
  2
BYLAYER
 70
     0
  3

 72
    65
 73
     0
 40
0.0
  0
LTYPE
  2
CONTINUOUS
 70
     0
  3
Solid line
 72
    65
 73
     0
 40
0.0
  0
LTYPE
  2
BORDER
 70
    64
  3
__ __ . __ __ . __ __ . __ __ . __ __ . __ __ .
 72
    65
 73
     6
 40
1.75
 49
0.5
 49
-0.25
 49
0.5
 49
-0.25
 49
0.0
 49
-0.25
  0
LTYPE
  2
BORDER2
 70
    64
  3
__.__.__.__.__.__.__.__.__.__.__.__.__.__.__.__
 72
    65
 73
     6
 40
0.875
 49
0.25
 49
-0.125
 49
0.25
 49
-0.125
 49
0.0
 49
-0.125
  0
LTYPE
  2
BORDERX2
 70
    64
  3
____  ____  .  ____  ____  .  ____  ____  .  __
 72
    65
 73
     6
 40
3.5
 49
1.0
 49
-0.5
 49
1.0
 49
-0.5
 49
0.0
 49
-0.5
  0
LTYPE
  2
CENTER
 70
    64
  3
____ _ ____ _ ____ _ ____ _ ____ _ ____ _ ____
 72
    65
 73
     4
 40
2.0
 49
1.25
 49
-0.25
 49
0.25
 49
-0.25
  0
LTYPE
  2
CENTER2
 70
    64
  3
___ _ ___ _ ___ _ ___ _ ___ _ ___ _ ___ _ ___ _
 72
    65
 73
     4
 40
1.125
 49
0.75
 49
-0.125
 49
0.125
 49
-0.125
  0
LTYPE
  2
CENTERX2
 70
    64
  3
________  __  ________  __  ________  __  _____
 72
    65
 73
     4
 40
4.0
 49
2.5
 49
-0.5
 49
0.5
 49
-0.5
  0
LTYPE
  2
DASHDOT
 70
    64
  3
__ . __ . __ . __ . __ . __ . __ . __ . __ . __
 72
    65
 73
     4
 40
1.0
 49
0.5
 49
-0.25
 49
0.0
 49
-0.25
  0
LTYPE
  2
DASHDOT2
 70
    64
  3
_._._._._._._._._._._._._._._._._._._._._._._._
 72
    65
 73
     4
 40
0.5
 49
0.25
 49
-0.125
 49
0.0
 49
-0.125
  0
LTYPE
  2
DASHDOTX2
 70
    64
  3
____  .  ____  .  ____  .  ____  .  ____  .  __
 72
    65
 73
     4
 40
2.0
 49
1.0
 49
-0.5
 49
0.0
 49
-0.5
  0
LTYPE
  2
DASHED
 70
    64
  3
__ __ __ __ __ __ __ __ __ __ __ __ __ __ __ __
 72
    65
 73
     2
 40
0.75
 49
0.5
 49
-0.25
  0
LTYPE
  2
DASHED2
 70
    64
  3
_ _ _ _ _ _ _ _ _ _ _ _ _ _ _ _ _ _ _ _ _ _ _ _
 72
    65
 73
     2
 40
0.375
 49
0.25
 49
-0.125
  0
LTYPE
  2
DASHEDX2
 70
    64
  3
____  ____  ____  ____  ____  ____  ____  ____
 72
    65
 73
     2
 40
1.5
 49
1.0
 49
-0.5
  0
LTYPE
  2
DIVIDE
 70
    64
  3
____ . . ____ . . ____ . . ____ . . ____ . . __
 72
    65
 73
     6
 40
1.25
 49
0.5
 49
-0.25
 49
0.0
 49
-0.25
 49
0.0
 49
-0.25
  0
LTYPE
  2
DIVIDE2
 70
    64
  3
__..__..__..__..__..__..__..__..__..__..__..__.
 72
    65
 73
     6
 40
0.625
 49
0.25
 49
-0.125
 49
0.0
 49
-0.125
 49
0.0
 49
-0.125
  0
LTYPE
  2
DIVIDEX2
 70
    64
  3
________  .  .  ________  .  .  ________  .  .
 72
    65
 73
     6
 40
2.5
 49
1.0
 49
-0.5
 49
0.0
 49
-0.5
 49
0.0
 49
-0.5
  0
LTYPE
  2
DOT
 70
    64
  3
. . . . . . . . . . . . . . . . . . . . . . . .
 72
    65
 73
     2
 40
0.25
 49
0.0
 49
-0.25
  0
LTYPE
  2
DOT2
 70
    64
  3
...............................................
 72
    65
 73
     2
 40
0.125
 49
0.0
 49
-0.125
  0
LTYPE
  2
DOTX2
 70
    64
  3
.  .  .  .  .  .  .  .  .  .  .  .  .  .  .  .
 72
    65
 73
     2
 40
0.5
 49
0.0
 49
-0.5
  0
LTYPE
  2
HIDDEN
 70
    64
  3
__ __ __ __ __ __ __ __ __ __ __ __ __ __ __ __
 72
    65
 73
     2
 40
0.375
 49
0.25
 49
-0.125
  0
LTYPE
  2
HIDDEN2
 70
    64
  3
_ _ _ _ _ _ _ _ _ _ _ _ _ _ _ _ _ _ _ _ _ _ _ _
 72
    65
 73
     2
 40
0.1875
 49
0.125
 49
-0.0625
  0
LTYPE
  2
HIDDENX2
 70
    64
  3
____ ____ ____ ____ ____ ____ ____ ____ ____ __
 72
    65
 73
     2
 40
0.75
 49
0.5
 49
-0.25
  0
LTYPE
  2
PHANTOM
 70
    64
  3
______  __  __  ______  __  __  ______  __  __
 72
    65
 73
     6
 40
2.5
 49
1.25
 49
-0.25
 49
0.25
 49
-0.25
 49
0.25
 49
-0.25
  0
LTYPE
  2
PHANTOM2
 70
    64
  3
___ _ _ ___ _ _ ___ _ _ ___ _ _ ___ _ _ ___ _ _
 72
    65
 73
     6
 40
1.25
 49
0.625
 49
-0.125
 49
0.125
 49
-0.125
 49
0.125
 49
-0.125
  0
LTYPE
  2
PHANTOMX2
 70
    64
  3
____________    ____    ____    ____________
 72
    65
 73
     6
 40
5.0
 49
2.5
 49
-0.5
 49
0.5
 49
-0.5
 49
0.5
 49
-0.5
  0
LTYPE
  2
ACAD_ISO02W100
 70
    64
  3
__ __ __ __ __ __ __ __ __ __ __ __ __ __ __ __
 72
    65
 73
     2
 40
15.0
 49
12.0
 49
-3.0
  0
LTYPE
  2
ACAD_ISO03W100
 70
    64
  3
__    __    __    __    __    __    __    __
 72
    65
 73
     2
 40
30.0
 49
12.0
 49
-18.0
  0
LTYPE
  2
ACAD_ISO04W100
 70
    64
  3
____ . ____ . ____ . ____ . ____ . ____ . ____
 72
    65
 73
     4
 40
30.5
 49
24.0
 49
-3.0
 49
0.5
 49
-3.0
  0
LTYPE
  2
ACAD_ISO05W100
 70
    64
  3
____ .. ____ .. ____ .. ____ .. ____ .. ____ ..
 72
    65
 73
     6
 40
34.0
 49
24.0
 49
-3.0
 49
0.5
 49
-3.0
 49
0.5
 49
-3.0
  0
LTYPE
  2
ACAD_ISO06W100
 70
    64
  3
____ ... ____ ... ____ ... ____ ... ____ ... __
 72
    65
 73
     8
 40
37.5
 49
24.0
 49
-3.0
 49
0.5
 49
-3.0
 49
0.5
 49
-3.0
 49
0.5
 49
-3.0
  0
LTYPE
  2
ACAD_ISO07W100
 70
    64
  3
. . . . . . . . . . . . . . . . . . . . . . . .
 72
    65
 73
     2
 40
3.5
 49
0.5
 49
-3.0
  0
LTYPE
  2
ACAD_ISO08W100
 70
    64
  3
____ __ ____ __ ____ __ ____ ____ __ __ ____ __
 72
    65
 73
     4
 40
36.0
 49
24.0
 49
-3.0
 49
6.0
 49
-3.0
  0
LTYPE
  2
ACAD_ISO09W100
 70
    64
  3
____ __ __ ____ __ __ ____ __ __ ____ __ __ ___
 72
    65
 73
     6
 40
45.0
 49
24.0
 49
-3.0
 49
6.0
 49
-3.0
 49
6.0
 49
-3.0
  0
LTYPE
  2
ACAD_ISO10W100
 70
    64
  3
__ . __ . __ . __ . __ . __ . __ . __ . __ . __
 72
    65
 73
     4
 40
18.5
 49
12.0
 49
-3.0
 49
0.5
 49
-3.0
  0
LTYPE
  2
ACAD_ISO11W100
 70
    64
  3
__ __ . __ __ . __ __ . __ __ . __ __ . __ __ .
 72
    65
 73
     6
 40
33.5
 49
12.0
 49
-3.0
 49
12.0
 49
-3.0
 49
0.5
 49
-3.0
  0
LTYPE
  2
ACAD_ISO12W100
 70
    64
  3
__ . . __ . . __ . . __ . . __ . . __ . . __ .
 72
    65
 73
     6
 40
22.0
 49
12.0
 49
-3.0
 49
0.5
 49
-3.0
 49
0.5
 49
-3.0
  0
LTYPE
  2
ACAD_ISO13W100
 70
    64
  3
__ __ . . __ __ . . __ __ . . __ __ . . __ __ .
 72
    65
 73
     8
 40
37.0
 49
12.0
 49
-3.0
 49
12.0
 49
-3.0
 49
0.5
 49
-3.0
 49
0.5
 49
-3.0
  0
LTYPE
  2
ACAD_ISO14W100
 70
    64
  3
__ . . . __ . . . __ . . . __ . . . __ . . . __
 72
    65
 73
     8
 40
25.5
 49
12.0
 49
-3.0
 49
0.5
 49
-3.0
 49
0.5
 49
-3.0
 49
0.5
 49
-3.0
  0
LTYPE
  2
ACAD_ISO15W100
 70
    64
  3
__ __ . . . __ __ . . . __ __ . . . __ __ . . .
 72
    65
 73
    10
 40
40.5
 49
12.0
 49
-3.0
 49
12.0
 49
-3.0
 49
0.5
 49
-3.0
 49
0.5
 49
-3.0
 49
0.5
 49
-3.0
  0
ENDTAB
  0
TABLE
  2
STYLE
 70
     4
  0
STYLE
  2
STANDARD
 70
    64
 40
0.0
 41
1.0
 50
0.0
 71
     0
 42
0.2
  3
txt
  4

  0
STYLE
  2
TOLERANCE
 70
    64
 40
0.0
 41
1.0
 50
0.0
 71
     0
 42
0.2
  3
iges1003.shx
  4

  0
STYLE
  2
ROMANS
 70
    64
 40
0.0
 41
1.0
 50
0.0
 71
     0
 42
0.2
  3
romans.shx
  4

  0
STYLE
  2
ROMANC
 70
    64
 40
0.0
 41
1.0
 50
0.0
 71
     0
 42
0.2
  3
romanc.shx
  4

  0
ENDTAB
  0
TABLE
  2
DIMSTYLE
 70
     2
  0
DIMSTYLE
  2
UNNAMED
 70
     0
  3

  4

  5

  6

  7

 40
1.0
 41
0.18
 42
0.0625
 43
0.38
 44
0.18
 45
0.0
 46
0.0
 47
0.0
 48
0.0
140
0.18
141
0.09
142
0.0
143
25.4
144
1.0
145
0.0
146
1.0
147
0.09
 71
     0
 72
     0
 73
     1
 74
     1
 75
     0
 76
     0
 77
     0
 78
     0
170
     0
171
     2
172
     0
173
     0
174
     0
175
     0
176
     0
177
     0
178
     0
  0
DIMSTYLE
  2
STANDARD
 70
     0
  3

  4

  5

  6

  7

 40
1.0
 41
0.18
 42
0.0625
 43
0.38
 44
0.18
 45
0.0
 46
0.0
 47
0.0
 48
0.0
140
0.18
141
0.09
142
0.0
143
25.4
144
1.0
145
0.0
146
1.0
147
0.09
 71
     0
 72
     0
 73
     1
 74
     1
 75
     0
 76
     0
 77
     0
 78
     0
170
     0
171
     2
172
     0
173
     0
174
     0
175
     0
176
     0
177
     0
178
     0
  0
ENDTAB
  0
TABLE
  2
LAYER
 70
     2
  0
LAYER
  2
0
 70
     0
 62
     7
  6
CONTINUOUS
  0
LAYER
  2
255
 70
     0
 62
     7
  6
CONTINUOUS
  0
ENDTAB
  0
ENDSEC
  0
SECTION
  2
BLOCKS
  0
BLOCK
  5
     B
  8
0
  6
CONTINUOUS
 62
     7
  2
$2TABELL
 70
    64
 10
0.0
 20
0.0
 30
0.0
  3
$2TABELL
  0
LINE
  5
     C
  8
0
  6
CONTINUOUS
 62
     7
 10
181.865085111827
 20
-41.3516925132404
 30
0.0
 11
181.865085111827
 21
-17.8955555684779
 31
0.0
  0
LINE
  5
     D
  8
0
  6
CONTINUOUS
 62
     7
 10
181.865085111827
 20
-17.8955555684779
 30
0.0
 11
292.040991263364
 21
-17.8955555684779
 31
0.0
  0
LINE
  5
     E
  8
0
  6
CONTINUOUS
 62
     7
 10
181.865085111827
 20
-25.7142678833987
 30
0.0
 11
292.040991263364
 21
-25.7142678833987
 31
0.0
  0
LINE
  5
     F
  8
0
  6
CONTINUOUS
 62
     7
 10
246.445970822728
 20
-41.3516925132404
 30
0.0
 11
246.445970822728
 21
-10.0768432535571
 31
0.0
  0
TEXT
  5
    10
  8
0
  6
CONTINUOUS
 62
     7
 10
237.180130357331
 20
-22.8049139611125
 30
0.0
 40
2.00000447034836
  1
83
 41
0.933333333333333
 72
     1
 11
238.846800749288
 21
-21.8049117259384
 31
0.0
 73
     2
  0
LINE
  5
    11
  8
0
  6
CONTINUOUS
 62
     7
 10
216.04929052897
 20
-41.3516925132404
 30
0.0
 11
216.04929052897
 21
-10.0768432535571
 31
0.0
  0
TEXT
  5
    12
  8
0
  6
CONTINUOUS
 62
     7
 10
238.113465776827
 20
-14.9862016461917
 30
0.0
 40
2.00000447034836
  1
B
 41
0.933333333333333
 72
     1
 11
238.846800749288
 21
-13.9861994110175
 31
0.0
 73
     2
  0
LINE
  5
    13
  8
0
  6
CONTINUOUS
 62
     7
 10
216.04929052897
 20
-10.0768432535571
 30
0.0
 11
292.040991263364
 21
-10.0768432535571
 31
0.0
  0
LINE
  5
    14
  8
0
  6
CONTINUOUS
 62
     7
 10
231.247630675849
 20
-41.3516925132404
 30
0.0
 11
231.247630675849
 21
-10.0768432535571
 31
0.0
  0
TEXT
  5
    15
  8
0
  6
CONTINUOUS
 62
     7
 10
222.915125629949
 20
-14.9862016461917
 30
0.0
 40
2.00000447034836
  1
A
 41
0.933333333333333
 72
     1
 11
223.64846060241
 21
-13.9861994110175
 31
0.0
 73
     2
  0
LINE
  5
    16
  8
0
  6
CONTINUOUS
 62
     7
 10
181.865085111827
 20
-41.3516925132404
 30
0.0
 11
292.040991263364
 21
-41.3516925132404
 31
0.0
  0
TEXT
  5
    17
  8
0
  6
CONTINUOUS
 62
     7
 10
221.981790210453
 20
-38.4423385909541
 30
0.0
 40
2.00000447034836
  1
71
 41
0.933333333333333
 72
     1
 11
223.64846060241
 21
-37.44233635578
 31
0.0
 73
     2
  0
TEXT
  5
    18
  8
0
  6
CONTINUOUS
 62
     7
 10
221.981790210453
 20
-30.6236262760333
 30
0.0
 40
2.00000447034836
  1
79
 41
0.933333333333333
 72
     1
 11
223.64846060241
 21
-29.6236240408592
 31
0.0
 73
     2
  0
TEXT
  5
    19
  8
0
  6
CONTINUOUS
 62
     7
 10
221.981790210453
 20
-22.8049139611125
 30
0.0
 40
2.00000447034836
  1
79
 41
0.933333333333333
 72
     1
 11
223.64846060241
 21
-21.8049117259384
 31
0.0
 73
     2
  0
LINE
  5
    1A
  8
0
  6
CONTINUOUS
 62
     7
 10
216.04929052897
 20
-33.5329801983196
 30
0.0
 11
292.040991263364
 21
-33.5329801983196
 31
0.0
  0
LINE
  5
    1B
  8
0
  6
CONTINUOUS
 62
     7
 10
261.644310969606
 20
-41.3516925132404
 30
0.0
 11
261.644310969606
 21
-10.0768432535571
 31
0.0
  0
TEXT
  5
    1C
  8
0
  6
CONTINUOUS
 62
     7
 10
252.37847050421
 20
-38.4423385909541
 30
0.0
 40
2.00000447034836
  1
47
 41
0.933333333333333
 72
     1
 11
254.045140896167
 21
-37.44233635578
 31
0.0
 73
     2
  0
TEXT
  5
    1D
  8
0
  6
CONTINUOUS
 62
     7
 10
235.31345951834
 20
-30.6236262760333
 30
0.0
 40
2.00000447034836
  1
78.2
 41
0.933333333333333
 72
     1
 11
238.846800749288
 21
-29.6236240408592
 31
0.0
 73
     2
  0
TEXT
  5
    1E
  8
0
  6
CONTINUOUS
 62
     7
 10
252.37847050421
 20
-30.6236262760333
 30
0.0
 40
2.00000447034836
  1
47
 41
0.933333333333333
 72
     1
 11
254.045140896167
 21
-29.6236240408592
 31
0.0
 73
     2
  0
TEXT
  5
    1F
  8
0
  6
CONTINUOUS
 62
     7
 10
236.246800633059
 20
-38.4423364004834
 30
0.0
 40
2.00000008940697
  1
142
 41
0.933333333333333
 72
     1
 11
238.846800749288
 21
-37.44233635578
 31
0.0
 73
     2
  0
TEXT
  5
    20
  8
0
  6
CONTINUOUS
 62
     7
 10
252.37847050421
 20
-22.8049139611125
 30
0.0
 40
2.00000447034836
  1
58
 41
0.933333333333333
 72
     1
 11
254.045140896167
 21
-21.8049117259384
 31
0.0
 73
     2
  0
TEXT
  5
    21
  8
0
  6
CONTINUOUS
 62
     7
 10
253.311805923706
 20
-14.9862016461917
 30
0.0
 40
2.00000447034836
  1
C
 41
0.933333333333333
 72
     1
 11
254.045140896167
 21
-13.9861994110175
 31
0.0
 73
     2
  0
TEXT
  5
    22
  8
0
  6
CONTINUOUS
 62
     7
 10
268.510146070585
 20
-14.9862016461917
 30
0.0
 40
2.00000447034836
  1
D
 41
0.933333333333333
 72
     1
 11
269.243481043046
 21
-13.9861994110175
 31
0.0
 73
     2
  0
LINE
  5
    23
  8
0
  6
CONTINUOUS
 62
     7
 10
276.842651116485
 20
-41.3516925132404
 30
0.0
 11
276.842651116485
 21
-10.0768432535571
 31
0.0
  0
TEXT
  5
    24
  8
0
  6
CONTINUOUS
 62
     7
 10
265.710139812097
 20
-30.6236262760333
 30
0.0
 40
2.00000447034836
  1
13.5
 41
0.933333333333333
 72
     1
 11
269.243481043046
 21
-29.6236240408592
 31
0.0
 73
     2
  0
TEXT
  5
    25
  8
0
  6
CONTINUOUS
 62
     7
 10
267.576810651089
 20
-22.8049139611125
 30
0.0
 40
2.00000447034836
  1
19
 41
0.933333333333333
 72
     1
 11
269.243481043046
 21
-21.8049117259384
 31
0.0
 73
     2
  0
TEXT
  5
    26
  8
0
  6
CONTINUOUS
 62
     7
 10
265.710139812097
 20
-38.4423385909541
 30
0.0
 40
2.00000447034836
  1
13.5
 41
0.933333333333333
 72
     1
 11
269.243481043046
 21
-37.44233635578
 31
0.0
 73
     2
  0
LINE
  5
    27
  8
0
  6
CONTINUOUS
 62
     7
 10
292.040991263364
 20
-41.3516925132404
 30
0.0
 11
292.040991263364
 21
-10.0768432535571
 31
0.0
  0
TEXT
  5
    28
  8
0
  6
CONTINUOUS
 62
     7
 10
283.708487823809
 20
-14.986199455721
 30
0.0
 40
2.00000008940697
  1
E
 41
0.933333333333333
 72
     1
 11
284.441821189925
 21
-13.9861994110175
 31
0.0
 73
     2
  0
TEXT
  5
    29
  8
0
  6
CONTINUOUS
 62
     7
 10
280.908487698639
 20
-22.8049117706418
 30
0.0
 40
2.00000008940697
  1
41.5
 41
0.933333333333333
 72
     1
 11
284.441821189925
 21
-21.8049117259384
 31
0.0
 73
     2
  0
TEXT
  5
    2A
  8
0
  6
CONTINUOUS
 62
     7
 10
280.908487698639
 20
-30.6236240855626
 30
0.0
 40
2.00000008940697
  1
39.1
 41
0.933333333333333
 72
     1
 11
284.441821189925
 21
-29.6236240408592
 31
0.0
 73
     2
  0
TEXT
  5
    2B
  8
0
  6
CONTINUOUS
 62
     7
 10
280.908487698639
 20
-38.4423364004834
 30
0.0
 40
2.00000008940697
  1
53.5
 41
0.933333333333333
 72
     1
 11
284.441821189925
 21
-37.44233635578
 31
0.0
 73
     2
  0
TEXT
  5
    2C
  8
0
  6
CONTINUOUS
 62
     7
 10
187.631383553694
 20
-24.4447160661403
 30
0.0
 40
2.00000447034836
  1
CON MOSTRINA
 41
0.933333333333333
 72
     1
 11
198.63140814061
 21
-23.4447138309661
 31
0.0
 73
     2
  0
TEXT
  5
    2D
  8
0
  6
CONTINUOUS
 62
     7
 10
188.564741023928
 20
-21.1651096656141
 30
0.0
 40
2.00000008940697
  1
WITH FLANGE
 41
0.933333333333333
 72
     1
 11
198.63140814061
 21
-20.1651096209106
 31
0.0
 73
     2
  0
TEXT
  5
    2E
  8
0
  6
CONTINUOUS
 62
     7
 10
186.416300258335
 20
-36.2077328743077
 30
0.0
 40
2.00000008940697
  1
SENZA MOSTRINA
 41
0.933333333333333
 72
     1
 11
199.282967500187
 21
-35.2077328296042
 31
0.0
 73
     2
  0
TEXT
  5
    2F
  8
0
  6
CONTINUOUS
 62
     7
 10
186.416300258335
 20
-32.8582276117383
 30
0.0
 40
2.00000008940697
  1
WITHOUT FLANGE
 41
0.933333333333333
 72
     1
 11
199.282967500187
 21
-31.8582275670348
 31
0.0
 73
     2
  0
ENDBLK
  5
    30
  8
0
  6
CONTINUOUS
 62
     7
  0
BLOCK
  5
    31
  8
0
  6
CONTINUOUS
 62
     7
  2
*UDIM1174
 70
    65
 10
0.0
 20
0.0
 30
0.0
  3
*UDIM1174
  0
LINE
  5
    32
  8
0
  6
CONTINUOUS
 62
     7
 10
91.0289936194331
 20
194.456329345703
 30
0.0
 11
83.8303009070723
 21
194.456329345703
 31
0.0
  0
LINE
  5
    33
  8
0
  6
CONTINUOUS
 62
     7
 10
104.827411651611
 20
208.956329345703
 30
0.0
 11
83.8303009070723
 21
208.956329345703
 31
0.0
  0
LINE
  5
    34
  8
0
  6
CONTINUOUS
 62
     7
 10
85.8303009070723
 20
194.456329345703
 30
0.0
 11
85.8303009070723
 21
208.956329345703
 31
0.0
  0
LINE
  5
    35
  8
0
  6
CONTINUOUS
 62
     7
 10
85.0538437506538
 20
197.354106818914
 30
0.0
 11
85.8303009070723
 21
194.456329345703
 31
0.0
  0
LINE
  5
    36
  8
0
  6
CONTINUOUS
 62
     7
 10
85.8303009070723
 20
194.456329345703
 30
0.0
 11
86.6067580634908
 21
197.354106818914
 31
0.0
  0
LINE
  5
    37
  8
0
  6
CONTINUOUS
 62
     7
 10
86.6067580634908
 20
206.058551872493
 30
0.0
 11
85.8303009070723
 21
208.956329345703
 31
0.0
  0
LINE
  5
    38
  8
0
  6
CONTINUOUS
 62
     7
 10
85.8303009070723
 20
208.956329345703
 30
0.0
 11
85.0538437506538
 21
206.058551872493
 31
0.0
  0
TEXT
  5
    39
  8
0
  6
CONTINUOUS
 62
     7
 10
84.8303009070754
 20
199.20632932087
 30
0.0
 40
3.00000002980232
  1
29
 50
90.0
 41
0.933333333333333
 72
     1
 11
83.3303008921711
 21
201.706329345703
 31
0.0
 73
     2
  0
ENDBLK
  5
    3A
  8
0
  6
CONTINUOUS
 62
     7
  0
BLOCK
  5
    3B
  8
0
  6
CONTINUOUS
 62
     7
  2
*UDIM1175
 70
    65
 10
0.0
 20
0.0
 30
0.0
  3
*UDIM1175
  0
LINE
  5
    3C
  8
0
  6
CONTINUOUS
 62
     7
 10
103.241611480713
 20
169.956329345703
 30
0.0
 11
75.6116721666414
 21
169.956329345703
 31
0.0
  0
LINE
  5
    3D
  8
0
  6
CONTINUOUS
 62
     7
 10
104.827411651611
 20
208.956329345703
 30
0.0
 11
75.6116721666414
 21
208.956329345703
 31
0.0
  0
LINE
  5
    3E
  8
0
  6
CONTINUOUS
 62
     7
 10
77.6116721666414
 20
169.956329345703
 30
0.0
 11
77.6116721666414
 21
208.956329345703
 31
0.0
  0
LINE
  5
    3F
  8
0
  6
CONTINUOUS
 62
     7
 10
76.8352150102229
 20
172.854106818914
 30
0.0
 11
77.6116721666414
 21
169.956329345703
 31
0.0
  0
LINE
  5
    40
  8
0
  6
CONTINUOUS
 62
     7
 10
77.6116721666414
 20
169.956329345703
 30
0.0
 11
78.38812932306
 21
172.854106818914
 31
0.0
  0
LINE
  5
    41
  8
0
  6
CONTINUOUS
 62
     7
 10
78.38812932306
 20
206.058551872493
 30
0.0
 11
77.6116721666414
 21
208.956329345703
 31
0.0
  0
LINE
  5
    42
  8
0
  6
CONTINUOUS
 62
     7
 10
77.6116721666414
 20
208.956329345703
 30
0.0
 11
76.8352150102229
 21
206.058551872493
 31
0.0
  0
TEXT
  5
    43
  8
0
  6
CONTINUOUS
 62
     7
 10
76.6116721666446
 20
186.95632932087
 30
0.0
 40
3.00000002980232
  1
78
 50
90.0
 41
0.933333333333333
 72
     1
 11
75.1116721517403
 21
189.456329345703
 31
0.0
 73
     2
  0
ENDBLK
  5
    44
  8
0
  6
CONTINUOUS
 62
     7
  0
BLOCK
  5
    45
  8
0
  6
CONTINUOUS
 62
     7
  2
*UDIM1176
 70
    65
 10
0.0
 20
0.0
 30
0.0
  3
*UDIM1176
  0
LINE
  5
    46
  8
0
  6
CONTINUOUS
 62
     7
 10
99.7416107177767
 20
209.956329345703
 30
0.0
 11
99.7416107177767
 21
225.764176594854
 31
0.0
  0
LINE
  5
    47
  8
0
  6
CONTINUOUS
 62
     7
 10
143.841610717773
 20
209.956329345703
 30
0.0
 11
143.841610717773
 21
225.764176594854
 31
0.0
  0
LINE
  5
    48
  8
0
  6
CONTINUOUS
 62
     7
 10
99.7416107177767
 20
223.764176594854
 30
0.0
 11
143.841610717773
 21
223.764176594854
 31
0.0
  0
LINE
  5
    49
  8
0
  6
CONTINUOUS
 62
     7
 10
102.639388190987
 20
224.540633751273
 30
0.0
 11
99.7416107177767
 21
223.764176594854
 31
0.0
  0
LINE
  5
    4A
  8
0
  6
CONTINUOUS
 62
     7
 10
99.7416107177767
 20
223.764176594854
 30
0.0
 11
102.639388190987
 21
222.987719438436
 31
0.0
  0
LINE
  5
    4B
  8
0
  6
CONTINUOUS
 62
     7
 10
140.943833244563
 20
222.987719438436
 30
0.0
 11
143.841610717773
 21
223.764176594854
 31
0.0
  0
LINE
  5
    4C
  8
0
  6
CONTINUOUS
 62
     7
 10
143.841610717773
 20
223.764176594854
 30
0.0
 11
140.943833244563
 21
224.540633751273
 31
0.0
  0
TEXT
  5
    4D
  8
0
  6
CONTINUOUS
 62
     7
 10
116.491610665124
 20
224.764176594854
 30
0.0
 40
3.00000002980232
  1
88,2
 41
0.933333333333333
 72
     1
 11
121.791610717775
 21
226.264176609755
 31
0.0
 73
     2
  0
TEXT
  5
    4E
  8
0
  6
CONTINUOUS
 62
     7
 10
117.891610679032
 20
220.764176565052
 30
0.0
 40
3.00000002980232
  1
= =
 41
0.933333333333333
 72
     1
 11
121.791610717775
 21
222.264176579953
 31
0.0
 73
     2
  0
ENDBLK
  5
    4F
  8
0
  6
CONTINUOUS
 62
     7
  0
BLOCK
  5
    50
  8
0
  6
CONTINUOUS
 62
     7
  2
*UDIM1177
 70
    65
 10
0.0
 20
0.0
 30
0.0
  3
*UDIM1177
  0
LINE
  5
    51
  8
0
  6
CONTINUOUS
 62
     7
 10
155.718084193291
 20
355.379963994026
 30
0.0
 11
155.718084193291
 21
388.201767817885
 31
0.0
  0
LINE
  5
    52
  8
0
  6
CONTINUOUS
 62
     7
 10
183.718084610524
 20
355.379963994026
 30
0.0
 11
183.718084610524
 21
388.201767817885
 31
0.0
  0
LINE
  5
    53
  8
0
  6
CONTINUOUS
 62
     7
 10
155.718084193291
 20
386.201767817885
 30
0.0
 11
183.718084610524
 21
386.201767817885
 31
0.0
  0
LINE
  5
    54
  8
0
  6
CONTINUOUS
 62
     7
 10
158.615861666502
 20
386.978224974303
 30
0.0
 11
155.718084193291
 21
386.201767817885
 31
0.0
  0
LINE
  5
    55
  8
0
  6
CONTINUOUS
 62
     7
 10
155.718084193291
 20
386.201767817885
 30
0.0
 11
158.615861666502
 21
385.425310661466
 31
0.0
  0
LINE
  5
    56
  8
0
  6
CONTINUOUS
 62
     7
 10
180.820307137313
 20
385.425310661466
 30
0.0
 11
183.718084610524
 21
386.201767817885
 31
0.0
  0
LINE
  5
    57
  8
0
  6
CONTINUOUS
 62
     7
 10
183.718084610524
 20
386.201767817885
 30
0.0
 11
180.820307137313
 21
386.978224974303
 31
0.0
  0
TEXT
  5
    58
  8
0
  6
CONTINUOUS
 62
     7
 10
167.218084444128
 20
387.201767817885
 30
0.0
 40
2.99999994933605
  1
35
 41
0.933333333333333
 72
     1
 11
169.718084401908
 21
388.701767792553
 31
0.0
 73
     2
  0
ENDBLK
  5
    59
  8
0
  6
CONTINUOUS
 62
     7
  0
BLOCK
  5
    5A
  8
0
  6
CONTINUOUS
 62
     7
  2
*UDIM1178
 70
    65
 10
0.0
 20
0.0
 30
0.0
  3
*UDIM1178
  0
LINE
  5
    5B
  8
0
  6
CONTINUOUS
 62
     7
 10
127.718083776059
 20
355.379963994026
 30
0.0
 11
127.718083776059
 21
388.201767817885
 31
0.0
  0
LINE
  5
    5C
  8
0
  6
CONTINUOUS
 62
     7
 10
155.718084193291
 20
355.379963994026
 30
0.0
 11
155.718084193291
 21
388.201767817885
 31
0.0
  0
LINE
  5
    5D
  8
0
  6
CONTINUOUS
 62
     7
 10
127.718083776059
 20
386.201767817885
 30
0.0
 11
155.718084193291
 21
386.201767817885
 31
0.0
  0
LINE
  5
    5E
  8
0
  6
CONTINUOUS
 62
     7
 10
130.615861249269
 20
386.978224974303
 30
0.0
 11
127.718083776059
 21
386.201767817885
 31
0.0
  0
LINE
  5
    5F
  8
0
  6
CONTINUOUS
 62
     7
 10
127.718083776059
 20
386.201767817885
 30
0.0
 11
130.615861249269
 21
385.425310661466
 31
0.0
  0
LINE
  5
    60
  8
0
  6
CONTINUOUS
 62
     7
 10
152.820306720081
 20
385.425310661466
 30
0.0
 11
155.718084193291
 21
386.201767817885
 31
0.0
  0
LINE
  5
    61
  8
0
  6
CONTINUOUS
 62
     7
 10
155.718084193291
 20
386.201767817885
 30
0.0
 11
152.820306720081
 21
386.978224974303
 31
0.0
  0
TEXT
  5
    62
  8
0
  6
CONTINUOUS
 62
     7
 10
139.218084026895
 20
387.201767817885
 30
0.0
 40
2.99999994933605
  1
35
 41
0.933333333333333
 72
     1
 11
141.718083984675
 21
388.701767792553
 31
0.0
 73
     2
  0
ENDBLK
  5
    63
  8
0
  6
CONTINUOUS
 62
     7
  0
BLOCK
  5
    64
  8
0
  6
CONTINUOUS
 62
     7
  2
*UDIM1179
 70
    65
 10
0.0
 20
0.0
 30
0.0
  3
*UDIM1179
  0
LINE
  5
    65
  8
0
  6
CONTINUOUS
 62
     7
 10
99.7180833588264
 20
355.379963994026
 30
0.0
 11
99.7180833588264
 21
388.201767817885
 31
0.0
  0
LINE
  5
    66
  8
0
  6
CONTINUOUS
 62
     7
 10
127.718083776059
 20
355.379963994026
 30
0.0
 11
127.718083776059
 21
388.201767817885
 31
0.0
  0
LINE
  5
    67
  8
0
  6
CONTINUOUS
 62
     7
 10
99.7180833588264
 20
386.201767817885
 30
0.0
 11
127.718083776059
 21
386.201767817885
 31
0.0
  0
LINE
  5
    68
  8
0
  6
CONTINUOUS
 62
     7
 10
102.615860832037
 20
386.978224974303
 30
0.0
 11
99.7180833588264
 21
386.201767817885
 31
0.0
  0
LINE
  5
    69
  8
0
  6
CONTINUOUS
 62
     7
 10
99.7180833588264
 20
386.201767817885
 30
0.0
 11
102.615860832037
 21
385.425310661466
 31
0.0
  0
LINE
  5
    6A
  8
0
  6
CONTINUOUS
 62
     7
 10
124.820306302848
 20
385.425310661466
 30
0.0
 11
127.718083776059
 21
386.201767817885
 31
0.0
  0
LINE
  5
    6B
  8
0
  6
CONTINUOUS
 62
     7
 10
127.718083776059
 20
386.201767817885
 30
0.0
 11
124.820306302848
 21
386.978224974303
 31
0.0
  0
TEXT
  5
    6C
  8
0
  6
CONTINUOUS
 62
     7
 10
111.218083609663
 20
387.201767817885
 30
0.0
 40
2.99999994933605
  1
35
 41
0.933333333333333
 72
     1
 11
113.718083567443
 21
388.701767792553
 31
0.0
 73
     2
  0
ENDBLK
  5
    6D
  8
0
  6
CONTINUOUS
 62
     7
  0
BLOCK
  5
    6E
  8
0
  6
CONTINUOUS
 62
     7
  2
*UDIM1180
 70
    65
 10
0.0
 20
0.0
 30
0.0
  3
*UDIM1180
  0
LINE
  5
    6F
  8
0
  6
CONTINUOUS
 62
     7
 10
85.71808315021
 20
349.219966343641
 30
0.0
 11
85.71808315021
 21
407.449138844723
 31
0.0
  0
LINE
  5
    70
  8
0
  6
CONTINUOUS
 62
     7
 10
197.71808481914
 20
349.219966343641
 30
0.0
 11
197.71808481914
 21
407.449138844723
 31
0.0
  0
LINE
  5
    71
  8
0
  6
CONTINUOUS
 62
     7
 10
85.71808315021
 20
405.449138844723
 30
0.0
 11
197.71808481914
 21
405.449138844723
 31
0.0
  0
LINE
  5
    72
  8
0
  6
CONTINUOUS
 62
     7
 10
88.6158606234206
 20
406.225596001142
 30
0.0
 11
85.71808315021
 21
405.449138844723
 31
0.0
  0
LINE
  5
    73
  8
0
  6
CONTINUOUS
 62
     7
 10
85.71808315021
 20
405.449138844723
 30
0.0
 11
88.6158606234206
 21
404.672681688305
 31
0.0
  0
LINE
  5
    74
  8
0
  6
CONTINUOUS
 62
     7
 10
194.82030734593
 20
404.672681688305
 30
0.0
 11
197.71808481914
 21
405.449138844723
 31
0.0
  0
LINE
  5
    75
  8
0
  6
CONTINUOUS
 62
     7
 10
197.71808481914
 20
405.449138844723
 30
0.0
 11
194.82030734593
 21
406.225596001142
 31
0.0
  0
TEXT
  5
    76
  8
0
  6
CONTINUOUS
 62
     7
 10
137.818084050538
 20
406.449138844723
 30
0.0
 40
2.99999994933605
  1
140
 41
0.933333333333333
 72
     1
 11
141.718083984675
 21
407.949138819392
 31
0.0
 73
     2
  0
ENDBLK
  5
    77
  8
0
  6
CONTINUOUS
 62
     7
  0
BLOCK
  5
    78
  8
0
  6
CONTINUOUS
 62
     7
  2
*UDIM1181
 70
    65
 10
0.0
 20
0.0
 30
0.0
  3
*UDIM1181
  0
LINE
  5
    79
  8
0
  6
CONTINUOUS
 62
     7
 10
79.2687010806225
 20
307.979963302612
 30
0.0
 11
74.9661000904503
 21
307.979963302612
 31
0.0
  0
LINE
  5
    7A
  8
0
  6
CONTINUOUS
 62
     7
 10
86.7180831800124
 20
367.979964196682
 30
0.0
 11
74.9661000904503
 21
367.979964196682
 31
0.0
  0
LINE
  5
    7B
  8
0
  6
CONTINUOUS
 62
     7
 10
76.9661000904503
 20
307.979963302612
 30
0.0
 11
76.9661000904503
 21
367.979964196682
 31
0.0
  0
LINE
  5
    7C
  8
0
  6
CONTINUOUS
 62
     7
 10
76.1896429340317
 20
310.877740775823
 30
0.0
 11
76.9661000904503
 21
307.979963302612
 31
0.0
  0
LINE
  5
    7D
  8
0
  6
CONTINUOUS
 62
     7
 10
76.9661000904503
 20
307.979963302612
 30
0.0
 11
77.7425572468688
 21
310.877740775823
 31
0.0
  0
LINE
  5
    7E
  8
0
  6
CONTINUOUS
 62
     7
 10
77.7425572468688
 20
365.082186723471
 30
0.0
 11
76.9661000904503
 21
367.979964196682
 31
0.0
  0
LINE
  5
    7F
  8
0
  6
CONTINUOUS
 62
     7
 10
76.9661000904503
 20
367.979964196682
 30
0.0
 11
76.1896429340317
 21
365.082186723471
 31
0.0
  0
TEXT
  5
    80
  8
0
  6
CONTINUOUS
 62
     7
 10
75.9661000904534
 20
335.479963791869
 30
0.0
 40
2.99999994933605
  1
75
 50
90.0
 41
0.933333333333333
 72
     1
 11
74.4661001157822
 21
337.979963749647
 31
0.0
 73
     2
  0
ENDBLK
  5
    81
  8
0
  6
CONTINUOUS
 62
     7
  0
BLOCK
  5
    82
  8
0
  6
CONTINUOUS
 62
     7
  2
*UDIM1182
 70
    65
 10
0.0
 20
0.0
 30
0.0
  3
*UDIM1182
  0
LINE
  5
    83
  8
0
  6
CONTINUOUS
 62
     7
 10
86.7180831800124
 20
247.979962408543
 30
0.0
 11
66.2541283728426
 21
247.979962408543
 31
0.0
  0
LINE
  5
    84
  8
0
  6
CONTINUOUS
 62
     7
 10
86.7180831800124
 20
367.979964196682
 30
0.0
 11
66.2541283728426
 21
367.979964196682
 31
0.0
  0
LINE
  5
    85
  8
0
  6
CONTINUOUS
 62
     7
 10
68.2541283728426
 20
247.979962408543
 30
0.0
 11
68.2541283728426
 21
367.979964196682
 31
0.0
  0
LINE
  5
    86
  8
0
  6
CONTINUOUS
 62
     7
 10
67.4776712164241
 20
250.877739881753
 30
0.0
 11
68.2541283728426
 21
247.979962408543
 31
0.0
  0
LINE
  5
    87
  8
0
  6
CONTINUOUS
 62
     7
 10
68.2541283728426
 20
247.979962408543
 30
0.0
 11
69.0305855292612
 21
250.877739881753
 31
0.0
  0
LINE
  5
    88
  8
0
  6
CONTINUOUS
 62
     7
 10
69.0305855292612
 20
365.082186723471
 30
0.0
 11
68.2541283728426
 21
367.979964196682
 31
0.0
  0
LINE
  5
    89
  8
0
  6
CONTINUOUS
 62
     7
 10
68.2541283728426
 20
367.979964196682
 30
0.0
 11
67.4776712164241
 21
365.082186723471
 31
0.0
  0
TEXT
  5
    8A
  8
0
  6
CONTINUOUS
 62
     7
 10
67.2541283728475
 20
304.079963368477
 30
0.0
 40
2.99999994933605
  1
150
 50
90.0
 41
0.933333333333333
 72
     1
 11
65.7541283981746
 21
307.979963302612
 31
0.0
 73
     2
  0
ENDBLK
  5
    8B
  8
0
  6
CONTINUOUS
 62
     7
  0
BLOCK
  5
    8C
  8
0
  6
CONTINUOUS
 62
     7
  2
*HATCH1017
 70
    65
 10
0.0
 20
0.0
 30
0.0
  3
*HATCH1017
  0
LINE
  5
    8D
  8
0
  6
CONTINUOUS
 62
    52
 10
186.529999096394
 20
348.219966343641
 30
0.0
 11
186.529961712361
 21
267.739963313341
 31
0.0
  0
LINE
  5
    8E
  8
0
  6
CONTINUOUS
 62
    52
 10
187.96999927044
 20
348.219966343641
 30
0.0
 11
187.969961886406
 21
267.739963313341
 31
0.0
  0
LINE
  5
    8F
  8
0
  6
CONTINUOUS
 62
    52
 10
189.409999444486
 20
348.219966343641
 30
0.0
 11
189.409962060452
 21
267.739963313341
 31
0.0
  0
LINE
  5
    90
  8
0
  6
CONTINUOUS
 62
    52
 10
190.849999618531
 20
348.219966343641
 30
0.0
 11
190.849962234497
 21
267.739963313341
 31
0.0
  0
LINE
  5
    91
  8
0
  6
CONTINUOUS
 62
    52
 10
192.289999792577
 20
348.219966343641
 30
0.0
 11
192.289962408543
 21
267.739963313341
 31
0.0
  0
LINE
  5
    92
  8
0
  6
CONTINUOUS
 62
    52
 10
193.729999966622
 20
348.219966343641
 30
0.0
 11
193.729962582588
 21
267.739963313341
 31
0.0
  0
LINE
  5
    93
  8
0
  6
CONTINUOUS
 62
    52
 10
195.170000140668
 20
348.219966343641
 30
0.0
 11
195.169962756634
 21
267.739963313341
 31
0.0
  0
LINE
  5
    94
  8
0
  6
CONTINUOUS
 62
    52
 10
196.610000314713
 20
348.219966343641
 30
0.0
 11
196.60996293068
 21
267.739963313341
 31
0.0
  0
ENDBLK
  5
    95
  8
0
  6
CONTINUOUS
 62
     7
  0
BLOCK
  5
    96
  8
0
  6
CONTINUOUS
 62
     7
  2
*HATCH1018
 70
    65
 10
0.0
 20
0.0
 30
0.0
  3
*HATCH1018
  0
LINE
  5
    97
  8
0
  6
CONTINUOUS
 62
    52
 10
85.7299972128876
 20
348.219966343641
 30
0.0
 11
85.7299605917933
 21
267.739963313341
 31
0.0
  0
LINE
  5
    98
  8
0
  6
CONTINUOUS
 62
    52
 10
87.1699996757516
 20
348.77996391058
 30
0.0
 11
87.1699508476259
 21
267.739963313341
 31
0.0
  0
LINE
  5
    99
  8
0
  6
CONTINUOUS
 62
    52
 10
88.6100021386155
 20
348.77996391058
 30
0.0
 11
88.6099533104898
 21
267.739963313341
 31
0.0
  0
LINE
  5
    9A
  8
0
  6
CONTINUOUS
 62
    52
 10
90.0500046014795
 20
348.77996391058
 30
0.0
 11
90.0499557733538
 21
267.739963313341
 31
0.0
  0
LINE
  5
    9B
  8
0
  6
CONTINUOUS
 62
    52
 10
91.4900070643434
 20
348.77996391058
 30
0.0
 11
91.4899582362177
 21
267.739963313341
 31
0.0
  0
LINE
  5
    9C
  8
0
  6
CONTINUOUS
 62
    52
 10
92.9300095272074
 20
348.77996391058
 30
0.0
 11
92.9299606990817
 21
267.739963313341
 31
0.0
  0
LINE
  5
    9D
  8
0
  6
CONTINUOUS
 62
    52
 10
94.3700119900714
 20
348.77996391058
 30
0.0
 11
94.3699631619456
 21
267.739963313341
 31
0.0
  0
LINE
  5
    9E
  8
0
  6
CONTINUOUS
 62
    52
 10
95.8100144529353
 20
348.77996391058
 30
0.0
 11
95.8099656248096
 21
267.739963313341
 31
0.0
  0
LINE
  5
    9F
  8
0
  6
CONTINUOUS
 62
    52
 10
97.2500169157993
 20
348.77996391058
 30
0.0
 11
97.2499680876736
 21
267.739963313341
 31
0.0
  0
LINE
  5
    A0
  8
0
  6
CONTINUOUS
 62
    52
 10
98.6900193786632
 20
348.77996391058
 30
0.0
 11
98.6899705505375
 21
267.739963313341
 31
0.0
  0
LINE
  5
    A1
  8
0
  6
CONTINUOUS
 62
    52
 10
100.130021841527
 20
348.77996391058
 30
0.0
 11
100.129973013401
 21
267.739963313341
 31
0.0
  0
LINE
  5
    A2
  8
0
  6
CONTINUOUS
 62
    52
 10
101.570024304391
 20
348.77996391058
 30
0.0
 11
101.569975476265
 21
267.739963313341
 31
0.0
  0
LINE
  5
    A3
  8
0
  6
CONTINUOUS
 62
    52
 10
103.010026767255
 20
348.77996391058
 30
0.0
 11
103.009977939129
 21
267.739963313341
 31
0.0
  0
LINE
  5
    A4
  8
0
  6
CONTINUOUS
 62
    52
 10
104.450029230119
 20
348.77996391058
 30
0.0
 11
104.449980401993
 21
267.739963313341
 31
0.0
  0
LINE
  5
    A5
  8
0
  6
CONTINUOUS
 62
    52
 10
105.890031692983
 20
348.77996391058
 30
0.0
 11
105.889982864857
 21
267.739963313341
 31
0.0
  0
LINE
  5
    A6
  8
0
  6
CONTINUOUS
 62
    52
 10
107.330034155847
 20
348.77996391058
 30
0.0
 11
107.329985327721
 21
267.739963313341
 31
0.0
  0
LINE
  5
    A7
  8
0
  6
CONTINUOUS
 62
    52
 10
108.770036618711
 20
348.77996391058
 30
0.0
 11
108.769987790585
 21
267.739963313341
 31
0.0
  0
LINE
  5
    A8
  8
0
  6
CONTINUOUS
 62
    52
 10
110.210039081575
 20
348.77996391058
 30
0.0
 11
110.209990253449
 21
267.739963313341
 31
0.0
  0
LINE
  5
    A9
  8
0
  6
CONTINUOUS
 62
    52
 10
111.650041544439
 20
348.77996391058
 30
0.0
 11
111.649992716313
 21
267.739963313341
 31
0.0
  0
LINE
  5
    AA
  8
0
  6
CONTINUOUS
 62
    52
 10
113.090044007303
 20
348.77996391058
 30
0.0
 11
113.089995179177
 21
267.739963313341
 31
0.0
  0
LINE
  5
    AB
  8
0
  6
CONTINUOUS
 62
    52
 10
114.530046470167
 20
348.77996391058
 30
0.0
 11
114.529997642041
 21
267.739963313341
 31
0.0
  0
LINE
  5
    AC
  8
0
  6
CONTINUOUS
 62
    52
 10
115.970048933031
 20
348.77996391058
 30
0.0
 11
115.970000104905
 21
267.739963313341
 31
0.0
  0
LINE
  5
    AD
  8
0
  6
CONTINUOUS
 62
    52
 10
117.410051395895
 20
348.77996391058
 30
0.0
 11
117.410002567769
 21
267.739963313341
 31
0.0
  0
LINE
  5
    AE
  8
0
  6
CONTINUOUS
 62
    52
 10
118.850053858759
 20
348.77996391058
 30
0.0
 11
118.850005030633
 21
267.739963313341
 31
0.0
  0
LINE
  5
    AF
  8
0
  6
CONTINUOUS
 62
    52
 10
120.290056321623
 20
348.77996391058
 30
0.0
 11
120.290007493497
 21
267.739963313341
 31
0.0
  0
LINE
  5
    B0
  8
0
  6
CONTINUOUS
 62
    52
 10
121.730058784487
 20
348.77996391058
 30
0.0
 11
121.730009956361
 21
267.739963313341
 31
0.0
  0
LINE
  5
    B1
  8
0
  6
CONTINUOUS
 62
    52
 10
123.170061247351
 20
348.77996391058
 30
0.0
 11
123.170012419225
 21
267.739963313341
 31
0.0
  0
LINE
  5
    B2
  8
0
  6
CONTINUOUS
 62
    52
 10
124.610063710215
 20
348.77996391058
 30
0.0
 11
124.610014882089
 21
267.739963313341
 31
0.0
  0
ENDBLK
  5
    B3
  8
0
  6
CONTINUOUS
 62
     7
  0
BLOCK
  5
    B4
  8
0
  6
CONTINUOUS
 62
     7
  2
*UDIM1183
 70
    65
 10
0.0
 20
0.0
 30
0.0
  3
*UDIM1183
  0
LINE
  5
    B5
  8
0
  6
CONTINUOUS
 62
     7
 10
125.238083739109
 20
318.979963451624
 30
0.0
 11
125.238083739109
 21
336.277719162794
 31
0.0
  0
LINE
  5
    B6
  8
0
  6
CONTINUOUS
 62
     7
 10
186.198084647479
 20
318.979963451624
 30
0.0
 11
186.198084647479
 21
336.277719162794
 31
0.0
  0
LINE
  5
    B7
  8
0
  6
CONTINUOUS
 62
     7
 10
125.238083739109
 20
334.277719162794
 30
0.0
 11
186.198084647479
 21
334.277719162794
 31
0.0
  0
LINE
  5
    B8
  8
0
  6
CONTINUOUS
 62
     7
 10
128.135861212319
 20
335.054176319213
 30
0.0
 11
125.238083739109
 21
334.277719162794
 31
0.0
  0
LINE
  5
    B9
  8
0
  6
CONTINUOUS
 62
     7
 10
125.238083739109
 20
334.277719162794
 30
0.0
 11
128.135861212319
 21
333.501262006376
 31
0.0
  0
LINE
  5
    BA
  8
0
  6
CONTINUOUS
 62
     7
 10
183.300307174268
 20
333.501262006376
 30
0.0
 11
186.198084647479
 21
334.277719162794
 31
0.0
  0
LINE
  5
    BB
  8
0
  6
CONTINUOUS
 62
     7
 10
186.198084647479
 20
334.277719162794
 30
0.0
 11
183.300307174268
 21
335.054176319213
 31
0.0
  0
TEXT
  5
    BC
  8
0
  6
CONTINUOUS
 62
     7
 10
150.4180842828
 20
335.277719162794
 30
0.0
 40
2.99999994933605
  1
76,2
 41
0.933333333333333
 72
     1
 11
155.718084193294
 21
336.777719137462
 31
0.0
 73
     2
  0
TEXT
  5
    BD
  8
0
  6
CONTINUOUS
 62
     7
 10
151.818084259157
 20
331.277719213458
 30
0.0
 40
2.99999994933605
  1
= =
 41
0.933333333333333
 72
     1
 11
155.718084193294
 21
332.777719188126
 31
0.0
 73
     2
  0
ENDBLK
  5
    BE
  8
0
  6
CONTINUOUS
 62
     7
  0
BLOCK
  5
    BF
  8
0
  6
CONTINUOUS
 62
     7
  2
*UDIM1184
 70
    65
 10
0.0
 20
0.0
 30
0.0
  3
*UDIM1184
  0
LINE
  5
    C0
  8
0
  6
CONTINUOUS
 62
     7
 10
155.718084193291
 20
385.589556323337
 30
0.0
 11
155.718084193291
 21
397.825453331304
 31
0.0
  0
LINE
  5
    C1
  8
0
  6
CONTINUOUS
 62
     7
 10
197.71808481914
 20
349.219966343641
 30
0.0
 11
197.71808481914
 21
397.825453331304
 31
0.0
  0
LINE
  5
    C2
  8
0
  6
CONTINUOUS
 62
     7
 10
155.718084193291
 20
395.825453331304
 30
0.0
 11
197.71808481914
 21
395.825453331304
 31
0.0
  0
LINE
  5
    C3
  8
0
  6
CONTINUOUS
 62
     7
 10
158.615861666502
 20
396.601910487723
 30
0.0
 11
155.718084193291
 21
395.825453331304
 31
0.0
  0
LINE
  5
    C4
  8
0
  6
CONTINUOUS
 62
     7
 10
155.718084193291
 20
395.825453331304
 30
0.0
 11
158.615861666502
 21
395.048996174886
 31
0.0
  0
LINE
  5
    C5
  8
0
  6
CONTINUOUS
 62
     7
 10
194.82030734593
 20
395.048996174886
 30
0.0
 11
197.71808481914
 21
395.825453331304
 31
0.0
  0
LINE
  5
    C6
  8
0
  6
CONTINUOUS
 62
     7
 10
197.71808481914
 20
395.825453331304
 30
0.0
 11
194.82030734593
 21
396.601910487723
 31
0.0
  0
TEXT
  5
    C7
  8
0
  6
CONTINUOUS
 62
     7
 10
171.418084595722
 20
396.825453331304
 30
0.0
 40
2.99999994933605
  1
52,5
 41
0.933333333333333
 72
     1
 11
176.718084506216
 21
398.325453305972
 31
0.0
 73
     2
  0
ENDBLK
  5
    C8
  8
0
  6
CONTINUOUS
 62
     7
  0
BLOCK
  5
    C9
  8
0
  6
CONTINUOUS
 62
     7
  2
DADO
 70
    64
 10
0.0
 20
0.0
 30
0.0
  3
DADO
  0
POINT
  5
    CA
  8
0
  6
CONTINUOUS
 62
     7
 10
0.0
 20
0.0
 30
0.0
  0
ARC
  5
    CB
  8
0
  6
CONTINUOUS
 62
     7
 10
-5.0899999999997
 20
-1.4210854715202E-14
 30
0.0
 40
5.08999999999974
 50
334.391467869424
 51
385.608532130576
  0
ARC
  5
    CC
  8
0
  6
CONTINUOUS
 62
     7
 10
-5.0899999999997
 20
-1.4210854715202E-14
 30
0.0
 40
5.08999999999974
 50
334.391467869424
 51
385.608532130576
  0
ARC
  5
    CD
  8
0
  6
CONTINUOUS
 62
     7
 10
-0.94722499999996
 20
3.03499999999998
 30
0.0
 40
0.947225000000001
 50
298.173448635746
 51
421.826551364258
  0
LINE
  5
    CE
  8
0
  6
CONTINUOUS
 62
     7
 10
-3.50000000000001
 20
3.87
 30
0.0
 11
-0.499999999999954
 21
3.87
 31
0.0
  0
ARC
  5
    CF
  8
0
  6
CONTINUOUS
 62
     7
 10
-3.05277500000004
 20
3.03499999999998
 30
0.0
 40
0.947225000000001
 50
118.173448635742
 51
241.826551364254
  0
ARC
  5
    D0
  8
0
  6
CONTINUOUS
 62
     7
 10
1.0899999999997
 20
-1.4210854715202E-14
 30
0.0
 40
5.08999999999974
 50
154.391467869424
 51
205.608532130576
  0
LINE
  5
    D1
  8
0
  6
CONTINUOUS
 62
     7
 10
-8.0
 20
1.5
 30
0.0
 11
-4.0
 21
1.5
 31
0.0
  0
LINE
  5
    D2
  8
0
  6
CONTINUOUS
 62
     7
 10
-7.49999999999999
 20
2.0
 30
0.0
 11
-4.0
 21
2.0
 31
0.0
  0
LINE
  5
    D3
  8
0
  6
CONTINUOUS
 62
     7
 10
-8.0
 20
-1.5
 30
0.0
 11
-8.0
 21
1.5
 31
0.0
  0
LINE
  5
    D4
  8
0
  6
DASHDOT
 62
     7
 10
-9.54698811797346
 20
0.0
 30
0.0
 11
0.0
 21
0.0
 31
0.0
  0
LINE
  5
    D5
  8
0
  6
CONTINUOUS
 62
     7
 10
-7.99999999999999
 20
1.5
 30
0.0
 11
-7.49999999999999
 21
2.00000000000001
 31
0.0
  0
LINE
  5
    D6
  8
0
  6
CONTINUOUS
 62
     7
 10
-7.5
 20
-2.0
 30
0.0
 11
-7.5
 21
2.0
 31
0.0
  0
LINE
  5
    D7
  8
0
  6
CONTINUOUS
 62
     7
 10
-8.0
 20
-1.49999999999999
 30
0.0
 11
-7.49999999999999
 21
-2.0
 31
0.0
  0
LINE
  5
    D8
  8
0
  6
CONTINUOUS
 62
     7
 10
-7.5
 20
-2.0
 30
0.0
 11
-4.0
 21
-2.0
 31
0.0
  0
ARC
  5
    D9
  8
0
  6
CONTINUOUS
 62
     7
 10
-3.05277499999966
 20
-3.035
 30
0.0
 40
0.947225000000154
 50
118.173448635768
 51
241.826551364238
  0
LINE
  5
    DA
  8
0
  6
CONTINUOUS
 62
     7
 10
-4.0
 20
-3.035
 30
0.0
 11
-4.0
 21
3.03499999999998
 31
0.0
  0
LINE
  5
    DB
  8
0
  6
CONTINUOUS
 62
     7
 10
-3.50000000000001
 20
-2.2
 30
0.0
 11
-0.499999999999972
 21
-2.2
 31
0.0
  0
ARC
  5
    DC
  8
0
  6
CONTINUOUS
 62
     7
 10
-0.947225000000337
 20
-3.035
 30
0.0
 40
0.947225000000154
 50
298.173448635762
 51
421.826551364232
  0
ARC
  5
    DD
  8
0
  6
CONTINUOUS
 62
     7
 10
-0.947225000000337
 20
-3.035
 30
0.0
 40
0.947225000000154
 50
298.173448635762
 51
421.826551364232
  0
LINE
  5
    DE
  8
0
  6
CONTINUOUS
 62
     7
 10
-3.50000000000011
 20
-3.87
 30
0.0
 11
-0.499999999999968
 21
-3.87
 31
0.0
  0
LINE
  5
    DF
  8
0
  6
CONTINUOUS
 62
     7
 10
-3.50000000000009
 20
2.2
 30
0.0
 11
-0.499999999999876
 21
2.2
 31
0.0
  0
LINE
  5
    E0
  8
0
  6
CONTINUOUS
 62
     7
 10
0.0
 20
-3.035
 30
0.0
 11
0.0
 21
3.03499999999998
 31
0.0
  0
LINE
  5
    E1
  8
0
  6
CONTINUOUS
 62
     7
 10
-8.0
 20
-1.5
 30
0.0
 11
-4.0
 21
-1.5
 31
0.0
  0
ENDBLK
  5
    E2
  8
0
  6
CONTINUOUS
 62
     7
  0
BLOCK
  5
    E3
  8
0
  6
CONTINUOUS
 62
     7
  2
*UDIM1185
 70
    65
 10
0.0
 20
0.0
 30
0.0
  3
*UDIM1185
  0
LINE
  5
    E4
  8
0
  6
CONTINUOUS
 62
     7
 10
306.427881807089
 20
259.222694904603
 30
0.0
 11
306.427881807089
 21
222.914837386174
 31
0.0
  0
LINE
  5
    E5
  8
0
  6
CONTINUOUS
 62
     7
 10
308.027881830931
 20
258.66617315718
 30
0.0
 11
308.027881830931
 21
222.914837386174
 31
0.0
  0
LINE
  5
    E6
  8
0
  6
CONTINUOUS
 62
     7
 10
301.427881807089
 20
224.914837386174
 30
0.0
 11
318.018598497571
 21
224.914837386174
 31
0.0
  0
LINE
  5
    E7
  8
0
  6
CONTINUOUS
 62
     7
 10
303.530104333879
 20
224.138380229756
 30
0.0
 11
306.427881807089
 21
224.914837386174
 31
0.0
  0
LINE
  5
    E8
  8
0
  6
CONTINUOUS
 62
     7
 10
306.427881807089
 20
224.914837386174
 30
0.0
 11
303.530104333879
 21
225.691294542593
 31
0.0
  0
LINE
  5
    E9
  8
0
  6
CONTINUOUS
 62
     7
 10
310.925659304141
 20
225.691294542593
 30
0.0
 11
308.027881830931
 21
224.914837386174
 31
0.0
  0
LINE
  5
    EA
  8
0
  6
CONTINUOUS
 62
     7
 10
308.027881830931
 20
224.914837386174
 30
0.0
 11
310.925659304141
 21
224.138380229756
 31
0.0
  0
TEXT
  5
    EB
  8
0
  6
CONTINUOUS
 62
     7
 10
315.818598534724
 20
225.914837386174
 30
0.0
 40
2.99999994933605
  1
2
 41
0.933333333333333
 72
     1
 11
316.918598516147
 21
227.414837360842
 31
0.0
 73
     2
  0
TEXT
  5
    EC
  8
0
  6
CONTINUOUS
 62
     7
 10
312.618598571878
 20
225.914837386174
 30
0.0
 40
2.99999994933605
  1
_
 41
0.933333333333333
 72
     1
 11
313.718598553301
 21
227.414837360842
 31
0.0
 73
     2
  0
ENDBLK
  5
    ED
  8
0
  6
CONTINUOUS
 62
     7
  0
BLOCK
  5
    EE
  8
0
  6
CONTINUOUS
 62
     7
  2
*HATCH1019
 70
    65
 10
0.0
 20
0.0
 30
0.0
  3
*HATCH1019
  0
LINE
  5
    EF
  8
0
  6
CONTINUOUS
 62
    52
 10
248.965467162957
 20
342.141572698379
 30
0.0
 11
249.927070723429
 21
341.179963797331
 31
0.0
  0
LINE
  5
    F0
  8
0
  6
CONTINUOUS
 62
    52
 10
249.809304913568
 20
342.994783160311
 30
0.0
 11
251.624126565367
 21
341.179963797331
 31
0.0
  0
LINE
  5
    F1
  8
0
  6
CONTINUOUS
 62
    52
 10
250.869646573656
 20
343.631501919799
 30
0.0
 11
253.212207185955
 21
341.288935966923
 31
0.0
  0
LINE
  5
    F2
  8
0
  6
CONTINUOUS
 62
    52
 10
251.94553694003
 20
344.252668921243
 30
0.0
 11
254.288097552329
 21
341.910102968367
 31
0.0
  0
LINE
  5
    F3
  8
0
  6
CONTINUOUS
 62
    52
 10
253.021427306403
 20
344.873835922686
 30
0.0
 11
255.363987918703
 21
342.531269969811
 31
0.0
  0
LINE
  5
    F4
  8
0
  6
CONTINUOUS
 62
    52
 10
254.097317672777
 20
345.49500292413
 30
0.0
 11
256.439877522137
 21
343.152436971254
 31
0.0
  0
LINE
  5
    F5
  8
0
  6
CONTINUOUS
 62
    52
 10
255.173208039151
 20
346.116169925574
 30
0.0
 11
257.496155003697
 21
343.793208465178
 31
0.0
  0
LINE
  5
    F6
  8
0
  6
CONTINUOUS
 62
    52
 10
255.630123329163
 20
347.356306662803
 30
0.0
 11
258.324730150321
 21
344.661702130463
 31
0.0
  0
LINE
  5
    F7
  8
0
  6
CONTINUOUS
 62
    52
 10
255.630123329163
 20
349.05336479356
 30
0.0
 11
258.78901543556
 21
345.894465820707
 31
0.0
  0
LINE
  5
    F8
  8
0
  6
CONTINUOUS
 62
    52
 10
255.630123329163
 20
350.750422924317
 30
0.0
 11
258.830122613907
 21
347.550422876633
 31
0.0
  0
LINE
  5
    F9
  8
0
  6
CONTINUOUS
 62
    52
 10
256.897635097318
 20
351.179963946342
 30
0.0
 11
258.830122613907
 21
349.247468800359
 31
0.0
  0
LINE
  5
    FA
  8
0
  6
CONTINUOUS
 62
    52
 10
258.594690176317
 20
351.179963946342
 30
0.0
 11
258.830122613907
 21
350.944526931115
 31
0.0
  0
ENDBLK
  5
    FB
  8
0
  6
CONTINUOUS
 62
     7
  0
BLOCK
  5
    FC
  8
0
  6
CONTINUOUS
 62
     7
  2
*HATCH1020
 70
    65
 10
0.0
 20
0.0
 30
0.0
  3
*HATCH1020
  0
LINE
  5
    FD
  8
0
  6
CONTINUOUS
 62
    52
 10
245.23012393713
 20
342.482808055026
 30
0.0
 11
246.532960565431
 21
341.179963797331
 31
0.0
  0
LINE
  5
    FE
  8
0
  6
CONTINUOUS
 62
    52
 10
246.230018284915
 20
343.179963827133
 30
0.0
 11
248.23001564443
 21
341.179963797331
 31
0.0
  0
LINE
  5
    FF
  8
0
  6
CONTINUOUS
 62
    52
 10
246.830123960972
 20
344.276912085667
 30
0.0
 11
248.430123984814
 21
342.676912061825
 31
0.0
  0
LINE
  5
   100
  8
0
  6
CONTINUOUS
 62
    52
 10
246.830123960972
 20
345.973970216423
 30
0.0
 11
248.430123984814
 21
344.373970192582
 31
0.0
  0
LINE
  5
   101
  8
0
  6
CONTINUOUS
 62
    52
 10
246.830123960972
 20
347.67102834718
 30
0.0
 11
249.321186162398
 21
345.179963856936
 31
0.0
  0
LINE
  5
   102
  8
0
  6
CONTINUOUS
 62
    52
 10
247.818245389881
 20
348.379963904619
 30
0.0
 11
248.430123984814
 21
347.768086454095
 31
0.0
  0
LINE
  5
   103
  8
0
  6
CONTINUOUS
 62
    52
 10
249.418243506374
 20
346.779963880777
 30
0.0
 11
251.018241241397
 21
345.179963856936
 31
0.0
  0
LINE
  5
   104
  8
0
  6
CONTINUOUS
 62
    52
 10
250.334350697759
 20
347.560908716633
 30
0.0
 11
252.590123894215
 21
345.305134757238
 31
0.0
  0
ENDBLK
  5
   105
  8
0
  6
CONTINUOUS
 62
     7
  0
BLOCK
  5
   106
  8
0
  6
CONTINUOUS
 62
     7
  2
*HATCH1021
 70
    65
 10
0.0
 20
0.0
 30
0.0
  3
*HATCH1021
  0
LINE
  5
   107
  8
0
  6
CONTINUOUS
 62
    52
 10
282.830124497414
 20
347.309187521476
 30
0.0
 11
283.359348138112
 21
346.779963880777
 31
0.0
  0
LINE
  5
   108
  8
0
  6
CONTINUOUS
 62
    52
 10
283.456406245027
 20
348.379963904619
 30
0.0
 11
285.056403217111
 21
346.779963880777
 31
0.0
  0
LINE
  5
   109
  8
0
  6
CONTINUOUS
 62
    52
 10
285.153461324026
 20
348.379963904619
 30
0.0
 11
286.75345829611
 21
346.779963880777
 31
0.0
  0
LINE
  5
   10A
  8
0
  6
CONTINUOUS
 62
    52
 10
286.850516403025
 20
348.379963904619
 30
0.0
 11
288.450513375109
 21
346.779963880777
 31
0.0
  0
LINE
  5
   10B
  8
0
  6
CONTINUOUS
 62
    52
 10
288.547571482024
 20
348.379963904619
 30
0.0
 11
290.147568454108
 21
346.779963880777
 31
0.0
  0
LINE
  5
   10C
  8
0
  6
CONTINUOUS
 62
    52
 10
290.244626561023
 20
348.379963904619
 30
0.0
 11
290.830124616623
 21
347.79446584902
 31
0.0
  0
ENDBLK
  5
   10D
  8
0
  6
CONTINUOUS
 62
     7
  0
BLOCK
  5
   10E
  8
0
  6
CONTINUOUS
 62
     7
  2
*HATCH1022
 70
    65
 10
0.0
 20
0.0
 30
0.0
  3
*HATCH1022
  0
LINE
  5
   10F
  8
0
  6
CONTINUOUS
 62
    52
 10
255.630123329163
 20
359.23570137107
 30
0.0
 11
257.28586447322
 21
357.57996404171
 31
0.0
  0
LINE
  5
   110
  8
0
  6
CONTINUOUS
 62
    52
 10
255.630123329163
 20
360.932759501827
 30
0.0
 11
258.830122613907
 21
357.732759454143
 31
0.0
  0
LINE
  5
   111
  8
0
  6
CONTINUOUS
 62
    52
 10
256.279980669169
 20
361.979964107275
 30
0.0
 11
258.830122613907
 21
359.4298175849
 31
0.0
  0
LINE
  5
   112
  8
0
  6
CONTINUOUS
 62
    52
 10
257.977035748168
 20
361.979964107275
 30
0.0
 11
258.830122613907
 21
361.126875715657
 31
0.0
  0
ENDBLK
  5
   113
  8
0
  6
CONTINUOUS
 62
     7
  0
BLOCK
  5
   114
  8
0
  6
CONTINUOUS
 62
     7
  2
*HATCH1023
 70
    65
 10
0.0
 20
0.0
 30
0.0
  3
*HATCH1023
  0
LINE
  5
   115
  8
0
  6
CONTINUOUS
 62
    52
 10
282.830124497414
 20
360.885652567531
 30
0.0
 11
283.335806877996
 21
360.379964083433
 31
0.0
  0
LINE
  5
   116
  8
0
  6
CONTINUOUS
 62
    52
 10
283.432864984911
 20
361.979964107275
 30
0.0
 11
285.032861956995
 21
360.379964083433
 31
0.0
  0
LINE
  5
   117
  8
0
  6
CONTINUOUS
 62
    52
 10
285.12992006391
 20
361.979964107275
 30
0.0
 11
286.729917035994
 21
360.379964083433
 31
0.0
  0
LINE
  5
   118
  8
0
  6
CONTINUOUS
 62
    52
 10
286.826975142909
 20
361.979964107275
 30
0.0
 11
288.426972114993
 21
360.379964083433
 31
0.0
  0
LINE
  5
   119
  8
0
  6
CONTINUOUS
 62
    52
 10
288.524030221908
 20
361.979964107275
 30
0.0
 11
290.124027193992
 21
360.379964083433
 31
0.0
  0
LINE
  5
   11A
  8
0
  6
CONTINUOUS
 62
    52
 10
290.221085300907
 20
361.979964107275
 30
0.0
 11
290.830124616623
 21
361.370918688043
 31
0.0
  0
ENDBLK
  5
   11B
  8
0
  6
CONTINUOUS
 62
     7
  0
BLOCK
  5
   11C
  8
0
  6
CONTINUOUS
 62
     7
  2
*HATCH1024
 70
    65
 10
0.0
 20
0.0
 30
0.0
  3
*HATCH1024
  0
LINE
  5
   11D
  8
0
  6
CONTINUOUS
 62
    52
 10
282.400690286913
 20
253.779962494969
 30
0.0
 11
281.630124479532
 21
253.009396687589
 31
0.0
  0
LINE
  5
   11E
  8
0
  6
CONTINUOUS
 62
    52
 10
283.630124509335
 20
253.312341638392
 30
0.0
 11
281.630124479532
 21
251.31234160859
 31
0.0
  0
LINE
  5
   11F
  8
0
  6
CONTINUOUS
 62
    52
 10
283.630124509335
 20
251.615285033514
 30
0.0
 11
281.630124479532
 21
249.615285003712
 31
0.0
  0
LINE
  5
   120
  8
0
  6
CONTINUOUS
 62
    52
 10
283.630124509335
 20
249.918228428636
 30
0.0
 11
281.691858489241
 21
247.979962408543
 31
0.0
  0
LINE
  5
   121
  8
0
  6
CONTINUOUS
 62
    52
 10
283.630124509335
 20
248.221171823758
 30
0.0
 11
283.38891356824
 21
247.979962408543
 31
0.0
  0
ENDBLK
  5
   122
  8
0
  6
CONTINUOUS
 62
     7
  0
BLOCK
  5
   123
  8
0
  6
CONTINUOUS
 62
     7
  2
*HATCH1025
 70
    65
 10
0.0
 20
0.0
 30
0.0
  3
*HATCH1025
  0
LINE
  5
   124
  8
0
  6
CONTINUOUS
 62
    52
 10
260.000865429204
 20
346.779963880777
 30
0.0
 11
259.230124145746
 21
346.009224123199
 31
0.0
  0
LINE
  5
   125
  8
0
  6
CONTINUOUS
 62
    52
 10
261.697922034082
 20
346.779963880777
 30
0.0
 11
260.09792201024
 21
345.179963856936
 31
0.0
  0
LINE
  5
   126
  8
0
  6
CONTINUOUS
 62
    52
 10
263.39497863896
 20
346.779963880777
 30
0.0
 11
261.794978615118
 21
345.179963856936
 31
0.0
  0
LINE
  5
   127
  8
0
  6
CONTINUOUS
 62
    52
 10
265.092035243838
 20
346.779963880777
 30
0.0
 11
263.492035219996
 21
345.179963856936
 31
0.0
  0
LINE
  5
   128
  8
0
  6
CONTINUOUS
 62
    52
 10
266.789091848716
 20
346.779963880777
 30
0.0
 11
265.189091824874
 21
345.179963856936
 31
0.0
  0
LINE
  5
   129
  8
0
  6
CONTINUOUS
 62
    52
 10
268.486148453594
 20
346.779963880777
 30
0.0
 11
266.886148429752
 21
345.179963856936
 31
0.0
  0
LINE
  5
   12A
  8
0
  6
CONTINUOUS
 62
    52
 10
270.183203532593
 20
346.779963880777
 30
0.0
 11
268.583203508751
 21
345.179963856936
 31
0.0
  0
LINE
  5
   12B
  8
0
  6
CONTINUOUS
 62
    52
 10
271.880258611592
 20
346.779963880777
 30
0.0
 11
270.28025858775
 21
345.179963856936
 31
0.0
  0
LINE
  5
   12C
  8
0
  6
CONTINUOUS
 62
    52
 10
273.577313690591
 20
346.779963880777
 30
0.0
 11
271.977313666749
 21
345.179963856936
 31
0.0
  0
LINE
  5
   12D
  8
0
  6
CONTINUOUS
 62
    52
 10
275.27436876959
 20
346.779963880777
 30
0.0
 11
273.674368745748
 21
345.179963856936
 31
0.0
  0
LINE
  5
   12E
  8
0
  6
CONTINUOUS
 62
    52
 10
276.971423848589
 20
346.779963880777
 30
0.0
 11
275.371423824747
 21
345.179963856936
 31
0.0
  0
LINE
  5
   12F
  8
0
  6
CONTINUOUS
 62
    52
 10
278.668478927588
 20
346.779963880777
 30
0.0
 11
277.068478903746
 21
345.179963856936
 31
0.0
  0
LINE
  5
   130
  8
0
  6
CONTINUOUS
 62
    52
 10
281.965543185702
 20
348.379963904619
 30
0.0
 11
281.630124479532
 21
348.044551301965
 31
0.0
  0
LINE
  5
   131
  8
0
  6
CONTINUOUS
 62
    52
 10
280.365540110103
 20
346.779963880777
 30
0.0
 11
278.765540086261
 21
345.179963856936
 31
0.0
  0
LINE
  5
   132
  8
0
  6
CONTINUOUS
 62
    52
 10
282.430124491453
 20
347.147493183129
 30
0.0
 11
280.462598217018
 21
345.179963856936
 31
0.0
  0
LINE
  5
   133
  8
0
  6
CONTINUOUS
 62
    52
 10
283.559653316878
 20
346.579963877797
 30
0.0
 11
282.159653296017
 21
345.179963856936
 31
0.0
  0
ENDBLK
  5
   134
  8
0
  6
CONTINUOUS
 62
     7
  0
BLOCK
  5
   135
  8
0
  6
CONTINUOUS
 62
     7
  2
*HATCH1026
 70
    65
 10
0.0
 20
0.0
 30
0.0
  3
*HATCH1026
  0
LINE
  5
   136
  8
0
  6
CONTINUOUS
 62
    52
 10
282.897922349986
 20
367.979964196682
 30
0.0
 11
281.630124479532
 21
366.712166326228
 31
0.0
  0
LINE
  5
   137
  8
0
  6
CONTINUOUS
 62
    52
 10
283.630124509335
 20
367.015108225273
 30
0.0
 11
281.630124479532
 21
365.015108195471
 31
0.0
  0
LINE
  5
   138
  8
0
  6
CONTINUOUS
 62
    52
 10
283.630124509335
 20
365.318050094516
 30
0.0
 11
281.630124479532
 21
363.318050064714
 31
0.0
  0
LINE
  5
   139
  8
0
  6
CONTINUOUS
 62
    52
 10
283.630124509335
 20
363.62099196376
 30
0.0
 11
281.630124479532
 21
361.620991933957
 31
0.0
  0
LINE
  5
   13A
  8
0
  6
CONTINUOUS
 62
    52
 10
282.430124491453
 20
360.723946022153
 30
0.0
 11
282.086148656249
 21
360.379964083433
 31
0.0
  0
ENDBLK
  5
   13B
  8
0
  6
CONTINUOUS
 62
     7
  0
BLOCK
  5
   13C
  8
0
  6
CONTINUOUS
 62
     7
  2
*HATCH1027
 70
    65
 10
0.0
 20
0.0
 30
0.0
  3
*HATCH1027
  0
LINE
  5
   13D
  8
0
  6
CONTINUOUS
 62
    52
 10
283.630124509335
 20
366.873872871606
 30
0.0
 11
284.124036259858
 21
366.37996417284
 31
0.0
  0
LINE
  5
   13E
  8
0
  6
CONTINUOUS
 62
    52
 10
285.842706939766
 20
364.661287389417
 30
0.0
 11
286.832242476972
 21
363.671748800453
 31
0.0
  0
LINE
  5
   13F
  8
0
  6
CONTINUOUS
 62
    52
 10
284.221091315016
 20
367.979964196682
 30
0.0
 11
286.830124557018
 21
365.370930954679
 31
0.0
  0
LINE
  5
   140
  8
0
  6
CONTINUOUS
 62
    52
 10
287.501090143188
 20
364.699959264994
 30
0.0
 11
288.739981763212
 21
363.46106764497
 31
0.0
  0
LINE
  5
   141
  8
0
  6
CONTINUOUS
 62
    52
 10
285.918149445773
 20
367.979964196682
 30
0.0
 11
287.43814458561
 21
366.459969056845
 31
0.0
  0
LINE
  5
   142
  8
0
  6
CONTINUOUS
 62
    52
 10
289.198145222187
 20
364.699959264994
 30
0.0
 11
290.437036842211
 21
363.46106764497
 31
0.0
  0
LINE
  5
   143
  8
0
  6
CONTINUOUS
 62
    52
 10
287.615204524772
 20
367.979964196682
 30
0.0
 11
289.135202716367
 21
366.459969056845
 31
0.0
  0
LINE
  5
   144
  8
0
  6
CONTINUOUS
 62
    52
 10
289.312259603771
 20
367.979964196682
 30
0.0
 11
290.830124616623
 21
366.462093080314
 31
0.0
  0
ENDBLK
  5
   145
  8
0
  6
CONTINUOUS
 62
     7
  0
BLOCK
  5
   146
  8
0
  6
CONTINUOUS
 62
     7
  2
*UDIM1186
 70
    65
 10
0.0
 20
0.0
 30
0.0
  3
*UDIM1186
  0
LINE
  5
   147
  8
0
  6
CONTINUOUS
 62
     7
 10
243.630124856969
 20
377.126019722257
 30
0.0
 11
243.630124856969
 21
396.302426534591
 31
0.0
  0
LINE
  5
   148
  8
0
  6
CONTINUOUS
 62
     7
 10
299.627881829166
 20
349.219966343641
 30
0.0
 11
299.627881829166
 21
396.302426534591
 31
0.0
  0
LINE
  5
   149
  8
0
  6
CONTINUOUS
 62
     7
 10
243.630124856969
 20
394.302426534591
 30
0.0
 11
299.627881829166
 21
394.302426534591
 31
0.0
  0
LINE
  5
   14A
  8
0
  6
CONTINUOUS
 62
     7
 10
246.52790233018
 20
395.07888369101
 30
0.0
 11
243.630124856969
 21
394.302426534591
 31
0.0
  0
LINE
  5
   14B
  8
0
  6
CONTINUOUS
 62
     7
 10
243.630124856969
 20
394.302426534591
 30
0.0
 11
246.52790233018
 21
393.525969378173
 31
0.0
  0
LINE
  5
   14C
  8
0
  6
CONTINUOUS
 62
     7
 10
296.730104355955
 20
393.525969378173
 30
0.0
 11
299.627881829166
 21
394.302426534591
 31
0.0
  0
LINE
  5
   14D
  8
0
  6
CONTINUOUS
 62
     7
 10
299.627881829166
 20
394.302426534591
 30
0.0
 11
296.730104355955
 21
395.07888369101
 31
0.0
  0
TEXT
  5
   14E
  8
0
  6
CONTINUOUS
 62
     7
 10
269.129003385287
 20
395.302426534591
 30
0.0
 40
2.99999994933605
  1
70
 41
0.933333333333333
 72
     1
 11
271.629003343067
 21
396.802426509259
 31
0.0
 73
     2
  0
ENDBLK
  5
   14F
  8
0
  6
CONTINUOUS
 62
     7
  0
BLOCK
  5
   150
  8
0
  6
CONTINUOUS
 62
     7
  2
*UDIM1187
 70
    65
 10
0.0
 20
0.0
 30
0.0
  3
*UDIM1187
  0
LINE
  5
   151
  8
0
  6
CONTINUOUS
 62
     7
 10
243.630124856969
 20
377.126019722257
 30
0.0
 11
243.630124856969
 21
405.62221184962
 31
0.0
  0
LINE
  5
   152
  8
0
  6
CONTINUOUS
 62
     7
 10
306.027880857448
 20
318.979963451624
 30
0.0
 11
306.027880857448
 21
405.62221184962
 31
0.0
  0
LINE
  5
   153
  8
0
  6
CONTINUOUS
 62
     7
 10
243.630124856969
 20
403.62221184962
 30
0.0
 11
306.027880857448
 21
403.62221184962
 31
0.0
  0
LINE
  5
   154
  8
0
  6
CONTINUOUS
 62
     7
 10
246.52790233018
 20
404.398669006039
 30
0.0
 11
243.630124856969
 21
403.62221184962
 31
0.0
  0
LINE
  5
   155
  8
0
  6
CONTINUOUS
 62
     7
 10
243.630124856969
 20
403.62221184962
 30
0.0
 11
246.52790233018
 21
402.845754693201
 31
0.0
  0
LINE
  5
   156
  8
0
  6
CONTINUOUS
 62
     7
 10
303.130103384237
 20
402.845754693201
 30
0.0
 11
306.027880857448
 21
403.62221184962
 31
0.0
  0
LINE
  5
   157
  8
0
  6
CONTINUOUS
 62
     7
 10
306.027880857448
 20
403.62221184962
 30
0.0
 11
303.130103384237
 21
404.398669006039
 31
0.0
  0
TEXT
  5
   158
  8
0
  6
CONTINUOUS
 62
     7
 10
272.329002899428
 20
404.62221184962
 30
0.0
 40
2.99999994933605
  1
78
 41
0.933333333333333
 72
     1
 11
274.829002857208
 21
406.122211824288
 31
0.0
 73
     2
  0
ENDBLK
  5
   159
  8
0
  6
CONTINUOUS
 62
     7
  0
BLOCK
  5
   15A
  8
0
  6
CONTINUOUS
 62
     7
  2
*UDIM1188
 70
    65
 10
0.0
 20
0.0
 30
0.0
  3
*UDIM1188
  0
LINE
  5
   15B
  8
0
  6
CONTINUOUS
 62
     7
 10
243.630124856969
 20
377.126019722257
 30
0.0
 11
243.630124856969
 21
414.536789107474
 31
0.0
  0
LINE
  5
   15C
  8
0
  6
CONTINUOUS
 62
     7
 10
310.027880917051
 20
317.53996098876
 30
0.0
 11
310.027880917051
 21
414.536789107474
 31
0.0
  0
LINE
  5
   15D
  8
0
  6
CONTINUOUS
 62
     7
 10
243.630124856969
 20
412.536789107474
 30
0.0
 11
310.027880917051
 21
412.536789107474
 31
0.0
  0
LINE
  5
   15E
  8
0
  6
CONTINUOUS
 62
     7
 10
246.52790233018
 20
413.313246263892
 30
0.0
 11
243.630124856969
 21
412.536789107474
 31
0.0
  0
LINE
  5
   15F
  8
0
  6
CONTINUOUS
 62
     7
 10
243.630124856969
 20
412.536789107474
 30
0.0
 11
246.52790233018
 21
411.760331951055
 31
0.0
  0
LINE
  5
   160
  8
0
  6
CONTINUOUS
 62
     7
 10
307.130103443841
 20
411.760331951055
 30
0.0
 11
310.027880917051
 21
412.536789107474
 31
0.0
  0
LINE
  5
   161
  8
0
  6
CONTINUOUS
 62
     7
 10
310.027880917051
 20
412.536789107474
 30
0.0
 11
307.130103443841
 21
413.313246263892
 31
0.0
  0
TEXT
  5
   162
  8
0
  6
CONTINUOUS
 62
     7
 10
274.32900292923
 20
413.536789107474
 30
0.0
 40
2.99999994933605
  1
83
 41
0.933333333333333
 72
     1
 11
276.82900288701
 21
415.036789082142
 31
0.0
 73
     2
  0
ENDBLK
  5
   163
  8
0
  6
CONTINUOUS
 62
     7
  0
BLOCK
  5
   164
  8
0
  6
CONTINUOUS
 62
     7
  2
*UDIM1189
 70
    65
 10
0.0
 20
0.0
 30
0.0
  3
*UDIM1189
  0
LINE
  5
   165
  8
0
  6
CONTINUOUS
 62
     7
 10
329.520886656052
 20
307.979963302613
 30
0.0
 11
340.688680164902
 21
307.979963302613
 31
0.0
  0
LINE
  5
   166
  8
0
  6
CONTINUOUS
 62
     7
 10
304.627878713574
 20
317.979963451625
 30
0.0
 11
340.688680164902
 21
317.979963451623
 31
0.0
  0
LINE
  5
   167
  8
0
  6
CONTINUOUS
 62
     7
 10
338.688680164902
 20
302.979963302613
 30
0.0
 11
338.688680164902
 21
331.822021289697
 31
0.0
  0
LINE
  5
   168
  8
0
  6
CONTINUOUS
 62
     7
 10
339.46513732132
 20
305.082185829402
 30
0.0
 11
338.688680164902
 21
307.979963302613
 31
0.0
  0
LINE
  5
   169
  8
0
  6
CONTINUOUS
 62
     7
 10
338.688680164902
 20
307.979963302613
 30
0.0
 11
337.912223008483
 21
305.082185829402
 31
0.0
  0
LINE
  5
   16A
  8
0
  6
CONTINUOUS
 62
     7
 10
337.912223008483
 20
320.877740924834
 30
0.0
 11
338.688680164902
 21
317.979963451623
 31
0.0
  0
LINE
  5
   16B
  8
0
  6
CONTINUOUS
 62
     7
 10
338.688680164902
 20
317.979963451623
 30
0.0
 11
339.46513732132
 21
320.877740924834
 31
0.0
  0
TEXT
  5
   16C
  8
0
  6
CONTINUOUS
 62
     7
 10
337.688680164908
 20
321.222021468711
 30
0.0
 40
2.99999994933605
  1
12,5
 50
90.0
 41
0.933333333333333
 72
     1
 11
336.188680190234
 21
326.522021379203
 31
0.0
 73
     2
  0
ENDBLK
  5
   16D
  8
0
  6
CONTINUOUS
 62
     7
  0
BLOCK
  5
   16E
  8
0
  6
CONTINUOUS
 62
     7
  2
*UDIM1190
 70
    65
 10
0.0
 20
0.0
 30
0.0
  3
*UDIM1190
  0
LINE
  5
   16F
  8
0
  6
CONTINUOUS
 62
     7
 10
243.630124856969
 20
239.779325415319
 30
0.0
 11
243.630124856969
 21
214.033069685133
 31
0.0
  0
LINE
  5
   170
  8
0
  6
CONTINUOUS
 62
     7
 10
325.230125129223
 20
298.579963177441
 30
0.0
 11
325.230125129223
 21
214.033069685133
 31
0.0
  0
LINE
  5
   171
  8
0
  6
CONTINUOUS
 62
     7
 10
243.630124856969
 20
216.033069685133
 30
0.0
 11
325.230125129223
 21
216.033069685133
 31
0.0
  0
LINE
  5
   172
  8
0
  6
CONTINUOUS
 62
     7
 10
246.52790233018
 20
216.809526841551
 30
0.0
 11
243.630124856969
 21
216.033069685133
 31
0.0
  0
LINE
  5
   173
  8
0
  6
CONTINUOUS
 62
     7
 10
243.630124856969
 20
216.033069685133
 30
0.0
 11
246.52790233018
 21
215.256612528714
 31
0.0
  0
LINE
  5
   174
  8
0
  6
CONTINUOUS
 62
     7
 10
322.332347656012
 20
215.256612528714
 30
0.0
 11
325.230125129223
 21
216.033069685133
 31
0.0
  0
LINE
  5
   175
  8
0
  6
CONTINUOUS
 62
     7
 10
325.230125129223
 20
216.033069685133
 30
0.0
 11
322.332347656012
 21
216.809526841551
 31
0.0
  0
TEXT
  5
   176
  8
0
  6
CONTINUOUS
 62
     7
 10
280.530125058959
 20
217.033069685133
 30
0.0
 40
2.99999994933605
  1
102
 41
0.933333333333333
 72
     1
 11
284.430124993096
 21
218.533069659801
 31
0.0
 73
     2
  0
ENDBLK
  5
   177
  8
0
  6
CONTINUOUS
 62
     7
  0
BLOCK
  5
   178
  8
0
  6
CONTINUOUS
 62
     7
  2
*UDIM1191
 70
    65
 10
0.0
 20
0.0
 30
0.0
  3
*UDIM1191
  0
LINE
  5
   179
  8
0
  6
CONTINUOUS
 62
     7
 10
241.230124821206
 20
240.545865350696
 30
0.0
 11
241.230124821206
 21
214.033069685133
 31
0.0
  0
LINE
  5
   17A
  8
0
  6
CONTINUOUS
 62
     7
 10
243.630124856969
 20
239.779325415319
 30
0.0
 11
243.630124856969
 21
214.033069685133
 31
0.0
  0
LINE
  5
   17B
  8
0
  6
CONTINUOUS
 62
     7
 10
230.830124895513
 20
216.033069685133
 30
0.0
 11
248.630124856969
 21
216.033069685133
 31
0.0
  0
LINE
  5
   17C
  8
0
  6
CONTINUOUS
 62
     7
 10
238.332347347996
 20
215.256612528714
 30
0.0
 11
241.230124821206
 21
216.033069685133
 31
0.0
  0
LINE
  5
   17D
  8
0
  6
CONTINUOUS
 62
     7
 10
241.230124821206
 20
216.033069685133
 30
0.0
 11
238.332347347996
 21
216.809526841551
 31
0.0
  0
LINE
  5
   17E
  8
0
  6
CONTINUOUS
 62
     7
 10
246.52790233018
 20
216.809526841551
 30
0.0
 11
243.630124856969
 21
216.033069685133
 31
0.0
  0
LINE
  5
   17F
  8
0
  6
CONTINUOUS
 62
     7
 10
243.630124856969
 20
216.033069685133
 30
0.0
 11
246.52790233018
 21
215.256612528714
 31
0.0
  0
TEXT
  5
   180
  8
0
  6
CONTINUOUS
 62
     7
 10
234.03012485836
 20
217.033069685133
 30
0.0
 40
2.99999994933605
  1
3
 41
0.933333333333333
 72
     1
 11
235.130124839783
 21
218.533069659801
 31
0.0
 73
     2
  0
TEXT
  5
   181
  8
0
  6
CONTINUOUS
 62
     7
 10
230.830124895513
 20
217.033069685133
 30
0.0
 40
2.99999994933605
  1
_
 41
0.933333333333333
 72
     1
 11
231.930124876937
 21
218.533069659801
 31
0.0
 73
     2
  0
ENDBLK
  5
   182
  8
0
  6
CONTINUOUS
 62
     7
  0
BLOCK
  5
   183
  8
0
  6
CONTINUOUS
 62
     7
  2
*HATCH1028
 70
    65
 10
0.0
 20
0.0
 30
0.0
  3
*HATCH1028
  0
LINE
  5
   184
  8
0
  6
CONTINUOUS
 62
    52
 10
276.030124396086
 20
347.320967306808
 30
0.0
 11
276.571127822116
 21
346.779963880777
 31
0.0
  0
LINE
  5
   185
  8
0
  6
CONTINUOUS
 62
    52
 10
276.030124396086
 20
349.018025437565
 30
0.0
 11
278.268182901115
 21
346.779963880777
 31
0.0
  0
LINE
  5
   186
  8
0
  6
CONTINUOUS
 62
    52
 10
277.154157005609
 20
349.591047907041
 30
0.0
 11
279.965237980114
 21
346.779963880777
 31
0.0
  0
LINE
  5
   187
  8
0
  6
CONTINUOUS
 62
    52
 10
278.857413256575
 20
349.584846735073
 30
0.0
 11
280.03012445569
 21
348.412129432442
 31
0.0
  0
ENDBLK
  5
   188
  8
0
  6
CONTINUOUS
 62
     7
  0
BLOCK
  5
   189
  8
0
  6
CONTINUOUS
 62
     7
  2
*HATCH1029
 70
    65
 10
0.0
 20
0.0
 30
0.0
  3
*HATCH1029
  0
LINE
  5
   18A
  8
0
  6
CONTINUOUS
 62
    52
 10
253.63012329936
 20
347.659248561848
 30
0.0
 11
254.50940950631
 21
346.779963880777
 31
0.0
  0
LINE
  5
   18B
  8
0
  6
CONTINUOUS
 62
    52
 10
253.63012329936
 20
349.356306692605
 30
0.0
 11
255.630123329163
 21
347.356306662803
 31
0.0
  0
LINE
  5
   18C
  8
0
  6
CONTINUOUS
 62
    52
 10
253.63012329936
 20
351.053364823362
 30
0.0
 11
255.630123329163
 21
349.05336479356
 31
0.0
  0
LINE
  5
   18D
  8
0
  6
CONTINUOUS
 62
    52
 10
254.407881337073
 20
351.972664153467
 30
0.0
 11
255.630123329163
 21
350.750422924317
 31
0.0
  0
LINE
  5
   18E
  8
0
  6
CONTINUOUS
 62
    52
 10
254.830123317242
 20
353.247481066995
 30
0.0
 11
256.134251602056
 21
351.943342863968
 31
0.0
  0
LINE
  5
   18F
  8
0
  6
CONTINUOUS
 62
    52
 10
254.830123317242
 20
354.944539197752
 30
0.0
 11
256.430122578144
 21
353.34453917391
 31
0.0
  0
LINE
  5
   190
  8
0
  6
CONTINUOUS
 62
    52
 10
253.63012329936
 20
357.84159734639
 30
0.0
 11
256.430122578144
 21
355.041597304667
 31
0.0
  0
LINE
  5
   191
  8
0
  6
CONTINUOUS
 62
    52
 10
253.63012329936
 20
359.538655477147
 30
0.0
 11
255.980142407865
 21
357.188631028066
 31
0.0
  0
LINE
  5
   192
  8
0
  6
CONTINUOUS
 62
    52
 10
253.63012329936
 20
361.235713607904
 30
0.0
 11
255.630123329163
 21
359.23570137107
 31
0.0
  0
LINE
  5
   193
  8
0
  6
CONTINUOUS
 62
    52
 10
254.58292482723
 20
361.979964107275
 30
0.0
 11
255.630123329163
 21
360.932759501827
 31
0.0
  0
ENDBLK
  5
   194
  8
0
  6
CONTINUOUS
 62
     7
  0
BLOCK
  5
   195
  8
0
  6
CONTINUOUS
 62
     7
  2
*HATCH1030
 70
    65
 10
0.0
 20
0.0
 30
0.0
  3
*HATCH1030
  0
LINE
  5
   196
  8
0
  6
CONTINUOUS
 62
    52
 10
276.030124396086
 20
359.200374222106
 30
0.0
 11
276.061612433664
 21
359.168880081012
 31
0.0
  0
LINE
  5
   197
  8
0
  6
CONTINUOUS
 62
    52
 10
276.030124396086
 20
360.897432352863
 30
0.0
 11
277.752466340696
 21
359.175081252979
 31
0.0
  0
LINE
  5
   198
  8
0
  6
CONTINUOUS
 62
    52
 10
276.644644668915
 20
361.979964107275
 30
0.0
 11
279.449521419695
 21
359.175081252979
 31
0.0
  0
LINE
  5
   199
  8
0
  6
CONTINUOUS
 62
    52
 10
278.341699747914
 20
361.979964107275
 30
0.0
 11
280.03012445569
 21
360.29153634774
 31
0.0
  0
ENDBLK
  5
   19A
  8
0
  6
CONTINUOUS
 62
     7
  0
BLOCK
  5
   19B
  8
0
  6
CONTINUOUS
 62
     7
  2
*HATCH1031
 70
    65
 10
0.0
 20
0.0
 30
0.0
  3
*HATCH1031
  0
LINE
  5
   19C
  8
0
  6
CONTINUOUS
 62
    52
 10
245.562683527657
 20
367.979964196682
 30
0.0
 11
244.59012396574
 21
367.00740558844
 31
0.0
  0
LINE
  5
   19D
  8
0
  6
CONTINUOUS
 62
    52
 10
247.259739751065
 20
367.979964196682
 30
0.0
 11
244.59012396574
 21
365.310347457683
 31
0.0
  0
LINE
  5
   19E
  8
0
  6
CONTINUOUS
 62
    52
 10
248.956796355943
 20
367.979964196682
 30
0.0
 11
244.59012396574
 21
363.613289326926
 31
0.0
  0
LINE
  5
   19F
  8
0
  6
CONTINUOUS
 62
    52
 10
250.030124008656
 20
367.356233718638
 30
0.0
 11
244.59012396574
 21
361.916231196169
 31
0.0
  0
LINE
  5
   1A0
  8
0
  6
CONTINUOUS
 62
    52
 10
250.030124008656
 20
365.659175587881
 30
0.0
 11
244.59012396574
 21
360.219173065412
 31
0.0
  0
LINE
  5
   1A1
  8
0
  6
CONTINUOUS
 62
    52
 10
250.030124008656
 20
363.962117457124
 30
0.0
 11
243.630123913288
 21
357.562129568788
 31
0.0
  0
LINE
  5
   1A2
  8
0
  6
CONTINUOUS
 62
    52
 10
251.345021184011
 20
363.579964131117
 30
0.0
 11
243.630123913288
 21
355.865071438031
 31
0.0
  0
LINE
  5
   1A3
  8
0
  6
CONTINUOUS
 62
    52
 10
253.042077788889
 20
363.579964131117
 30
0.0
 11
243.630123913288
 21
354.168013307274
 31
0.0
  0
LINE
  5
   1A4
  8
0
  6
CONTINUOUS
 62
    52
 10
254.739134393767
 20
363.579964131117
 30
0.0
 11
243.630123913288
 21
352.470955176517
 31
0.0
  0
LINE
  5
   1A5
  8
0
  6
CONTINUOUS
 62
    52
 10
256.436190998645
 20
363.579964131117
 30
0.0
 11
254.836190211863
 21
361.979964107275
 31
0.0
  0
LINE
  5
   1A6
  8
0
  6
CONTINUOUS
 62
    52
 10
253.230124056339
 20
360.373897188812
 30
0.0
 11
243.630123913288
 21
350.77389704576
 31
0.0
  0
LINE
  5
   1A7
  8
0
  6
CONTINUOUS
 62
    52
 10
257.230124115944
 20
362.676839117659
 30
0.0
 11
256.533246053802
 21
361.979964107275
 31
0.0
  0
LINE
  5
   1A8
  8
0
  6
CONTINUOUS
 62
    52
 10
253.230124056339
 20
358.676839058055
 30
0.0
 11
243.961684720689
 21
349.408406302757
 31
0.0
  0
LINE
  5
   1A9
  8
0
  6
CONTINUOUS
 62
    52
 10
253.230124056339
 20
356.979780927298
 30
0.0
 11
244.59012396574
 21
348.339790564177
 31
0.0
  0
LINE
  5
   1AA
  8
0
  6
CONTINUOUS
 62
    52
 10
253.230124056339
 20
355.282735003572
 30
0.0
 11
246.327357916493
 21
348.379963904619
 31
0.0
  0
LINE
  5
   1AB
  8
0
  6
CONTINUOUS
 62
    52
 10
246.190123798847
 20
348.242732457262
 30
0.0
 11
244.727358274121
 21
346.779963880777
 31
0.0
  0
LINE
  5
   1AC
  8
0
  6
CONTINUOUS
 62
    52
 10
253.230124056339
 20
353.585676872815
 30
0.0
 11
248.024414521371
 21
348.379963904619
 31
0.0
  0
LINE
  5
   1AD
  8
0
  6
CONTINUOUS
 62
    52
 10
253.230124056339
 20
351.888618742059
 30
0.0
 11
250.92147076266
 21
349.579963922501
 31
0.0
  0
LINE
  5
   1AE
  8
0
  6
CONTINUOUS
 62
    52
 10
250.030124008656
 20
348.688618694375
 30
0.0
 11
248.475797355856
 21
347.13428517512
 31
0.0
  0
LINE
  5
   1AF
  8
0
  6
CONTINUOUS
 62
    52
 10
253.230124056339
 20
350.191560611302
 30
0.0
 11
252.618527367538
 21
349.579963922501
 31
0.0
  0
ENDBLK
  5
   1B0
  8
0
  6
CONTINUOUS
 62
     7
  0
BLOCK
  5
   1B1
  8
0
  6
CONTINUOUS
 62
     7
  2
*HATCH1032
 70
    65
 10
0.0
 20
0.0
 30
0.0
  3
*HATCH1032
  0
LINE
  5
   1B2
  8
0
  6
CONTINUOUS
 62
    52
 10
244.624414089237
 20
344.979963853955
 30
0.0
 11
243.630123913288
 21
343.985676729764
 31
0.0
  0
LINE
  5
   1B3
  8
0
  6
CONTINUOUS
 62
    52
 10
246.830123960972
 20
345.488618646691
 30
0.0
 11
245.721470494439
 21
344.379963845015
 31
0.0
  0
LINE
  5
   1B4
  8
0
  6
CONTINUOUS
 62
    52
 10
244.430123925209
 20
343.088618610928
 30
0.0
 11
243.630123913288
 21
342.288618599007
 31
0.0
  0
LINE
  5
   1B5
  8
0
  6
CONTINUOUS
 62
    52
 10
244.430123925209
 20
341.391560480171
 30
0.0
 11
244.218526574796
 21
341.179963797331
 31
0.0
  0
ENDBLK
  5
   1B6
  8
0
  6
CONTINUOUS
 62
     7
  0
BLOCK
  5
   1B7
  8
0
  6
CONTINUOUS
 62
     7
  2
*HATCH1033
 70
    65
 10
0.0
 20
0.0
 30
0.0
  3
*HATCH1033
  0
LINE
  5
   1B8
  8
0
  6
CONTINUOUS
 62
    52
 10
253.63012329936
 20
254.321097146588
 30
0.0
 11
253.971256422119
 21
253.97996249795
 31
0.0
  0
LINE
  5
   1B9
  8
0
  6
CONTINUOUS
 62
    52
 10
253.63012329936
 20
256.018153751466
 30
0.0
 11
255.630123329163
 21
254.018150669905
 31
0.0
  0
LINE
  5
   1BA
  8
0
  6
CONTINUOUS
 62
    52
 10
253.63012329936
 20
257.715210356344
 30
0.0
 11
255.630123329163
 21
255.715207274783
 31
0.0
  0
LINE
  5
   1BB
  8
0
  6
CONTINUOUS
 62
    52
 10
254.138807846735
 20
258.903583176786
 30
0.0
 11
255.630123329163
 21
257.41226540554
 31
0.0
  0
LINE
  5
   1BC
  8
0
  6
CONTINUOUS
 62
    52
 10
254.825160396025
 20
259.914288758253
 30
0.0
 11
255.976631360449
 21
258.762814742071
 31
0.0
  0
LINE
  5
   1BD
  8
0
  6
CONTINUOUS
 62
    52
 10
254.830123317242
 20
261.606381678975
 30
0.0
 11
256.430122578144
 21
260.006381655133
 31
0.0
  0
LINE
  5
   1BE
  8
0
  6
CONTINUOUS
 62
    52
 10
254.780778681497
 20
263.352783682537
 30
0.0
 11
256.430122578144
 21
261.703436734132
 31
0.0
  0
LINE
  5
   1BF
  8
0
  6
CONTINUOUS
 62
    52
 10
253.63012329936
 20
266.20049795837
 30
0.0
 11
256.360676776328
 21
263.469940666705
 31
0.0
  0
LINE
  5
   1C0
  8
0
  6
CONTINUOUS
 62
    52
 10
253.63012329936
 20
267.897556089127
 30
0.0
 11
255.630123329163
 21
265.897553007567
 31
0.0
  0
LINE
  5
   1C1
  8
0
  6
CONTINUOUS
 62
    52
 10
254.044772505979
 20
269.179962724447
 30
0.0
 11
255.630123329163
 21
267.594611138324
 31
0.0
  0
ENDBLK
  5
   1C2
  8
0
  6
CONTINUOUS
 62
     7
  0
BLOCK
  5
   1C3
  8
0
  6
CONTINUOUS
 62
     7
  2
*HATCH1034
 70
    65
 10
0.0
 20
0.0
 30
0.0
  3
*HATCH1034
  0
LINE
  5
   1C4
  8
0
  6
CONTINUOUS
 62
    52
 10
276.030124396086
 20
253.982812839789
 30
0.0
 11
276.032974737925
 21
253.97996249795
 31
0.0
  0
LINE
  5
   1C5
  8
0
  6
CONTINUOUS
 62
    52
 10
276.030124396086
 20
255.679870970546
 30
0.0
 11
277.730029816924
 21
253.97996249795
 31
0.0
  0
LINE
  5
   1C6
  8
0
  6
CONTINUOUS
 62
    52
 10
276.61600086966
 20
256.791049575971
 30
0.0
 11
279.427084895923
 21
253.97996249795
 31
0.0
  0
LINE
  5
   1C7
  8
0
  6
CONTINUOUS
 62
    52
 10
278.3192662759
 20
256.78483924873
 30
0.0
 11
280.03012445569
 21
255.07397954306
 31
0.0
  0
LINE
  5
   1C8
  8
0
  6
CONTINUOUS
 62
    52
 10
280.016321354899
 20
256.78483924873
 30
0.0
 11
280.03012445569
 21
256.771036147938
 31
0.0
  0
ENDBLK
  5
   1C9
  8
0
  6
CONTINUOUS
 62
     7
  0
BLOCK
  5
   1CA
  8
0
  6
CONTINUOUS
 62
     7
  2
*HATCH1035
 70
    65
 10
0.0
 20
0.0
 30
0.0
  3
*HATCH1035
  0
LINE
  5
   1CB
  8
0
  6
CONTINUOUS
 62
    52
 10
276.030124396086
 20
267.559271782328
 30
0.0
 11
277.220520531988
 21
266.368875646426
 31
0.0
  0
LINE
  5
   1CC
  8
0
  6
CONTINUOUS
 62
    52
 10
276.106491584724
 20
269.179962724447
 30
0.0
 11
278.911365283746
 21
266.375085973667
 31
0.0
  0
LINE
  5
   1CD
  8
0
  6
CONTINUOUS
 62
    52
 10
277.803546663723
 20
269.179962724447
 30
0.0
 11
280.03012445569
 21
266.953381880722
 31
0.0
  0
LINE
  5
   1CE
  8
0
  6
CONTINUOUS
 62
    52
 10
279.500601742722
 20
269.179962724447
 30
0.0
 11
280.03012445569
 21
268.650440011479
 31
0.0
  0
ENDBLK
  5
   1CF
  8
0
  6
CONTINUOUS
 62
     7
  0
BLOCK
  5
   1D0
  8
0
  6
CONTINUOUS
 62
     7
  2
*HATCH1036
 70
    65
 10
0.0
 20
0.0
 30
0.0
  3
*HATCH1036
  0
LINE
  5
   1D1
  8
0
  6
CONTINUOUS
 62
    52
 10
287.908914856297
 20
252.49996217072
 30
0.0
 11
285.63728701483
 21
250.228335855132
 31
0.0
  0
LINE
  5
   1D2
  8
0
  6
CONTINUOUS
 62
    52
 10
284.988913592082
 20
249.579962432385
 30
0.0
 11
283.630124509335
 21
248.221171823758
 31
0.0
  0
LINE
  5
   1D3
  8
0
  6
CONTINUOUS
 62
    52
 10
289.605969935296
 20
252.49996217072
 30
0.0
 11
288.36597052717
 21
251.259962762594
 31
0.0
  0
LINE
  5
   1D4
  8
0
  6
CONTINUOUS
 62
    52
 10
286.965912522909
 20
249.859904758333
 30
0.0
 11
285.085971698997
 21
247.979962408543
 31
0.0
  0
LINE
  5
   1D5
  8
0
  6
CONTINUOUS
 62
    52
 10
290.830124616623
 20
252.02705872129
 30
0.0
 11
290.063028657927
 21
251.259962762594
 31
0.0
  0
LINE
  5
   1D6
  8
0
  6
CONTINUOUS
 62
    52
 10
288.303028021349
 20
249.499962126017
 30
0.0
 11
286.783026777996
 21
247.979962408543
 31
0.0
  0
LINE
  5
   1D7
  8
0
  6
CONTINUOUS
 62
    52
 10
290.000083100348
 20
249.499962126017
 30
0.0
 11
288.480084908753
 21
247.979962408543
 31
0.0
  0
LINE
  5
   1D8
  8
0
  6
CONTINUOUS
 62
    52
 10
290.830124616623
 20
248.632947037414
 30
0.0
 11
290.177139987752
 21
247.979962408543
 31
0.0
  0
ENDBLK
  5
   1D9
  8
0
  6
CONTINUOUS
 62
     7
  0
BLOCK
  5
   1DA
  8
0
  6
CONTINUOUS
 62
     7
  2
*HATCH1037
 70
    65
 10
0.0
 20
0.0
 30
0.0
  3
*HATCH1037
  0
LINE
  5
   1DB
  8
0
  6
CONTINUOUS
 62
    52
 10
284.200690313735
 20
255.579962521792
 30
0.0
 11
283.630124509335
 21
255.009396717391
 31
0.0
  0
LINE
  5
   1DC
  8
0
  6
CONTINUOUS
 62
    52
 10
285.897745392734
 20
255.579962521792
 30
0.0
 11
284.297745368892
 21
253.97996249795
 31
0.0
  0
LINE
  5
   1DD
  8
0
  6
CONTINUOUS
 62
    52
 10
287.594800471733
 20
255.579962521792
 30
0.0
 11
285.994800447891
 21
253.97996249795
 31
0.0
  0
LINE
  5
   1DE
  8
0
  6
CONTINUOUS
 62
    52
 10
289.291855550732
 20
255.579962521792
 30
0.0
 11
287.69185552689
 21
253.97996249795
 31
0.0
  0
LINE
  5
   1DF
  8
0
  6
CONTINUOUS
 62
    52
 10
290.830124616623
 20
255.421171931046
 30
0.0
 11
289.388913657647
 21
253.97996249795
 31
0.0
  0
ENDBLK
  5
   1E0
  8
0
  6
CONTINUOUS
 62
     7
  0
BLOCK
  5
   1E1
  8
0
  6
CONTINUOUS
 62
     7
  2
*HATCH1038
 70
    65
 10
0.0
 20
0.0
 30
0.0
  3
*HATCH1038
  0
LINE
  5
   1E2
  8
0
  6
CONTINUOUS
 62
    52
 10
284.224240729125
 20
269.179962724447
 30
0.0
 11
283.630124509335
 21
268.585846504657
 31
0.0
  0
LINE
  5
   1E3
  8
0
  6
CONTINUOUS
 62
    52
 10
285.921295808124
 20
269.179962724447
 30
0.0
 11
284.321295784282
 21
267.579962700605
 31
0.0
  0
LINE
  5
   1E4
  8
0
  6
CONTINUOUS
 62
    52
 10
287.618350887123
 20
269.179962724447
 30
0.0
 11
286.018350863281
 21
267.579962700605
 31
0.0
  0
LINE
  5
   1E5
  8
0
  6
CONTINUOUS
 62
    52
 10
289.31540901788
 20
269.179962724447
 30
0.0
 11
287.71540594228
 21
267.579962700605
 31
0.0
  0
LINE
  5
   1E6
  8
0
  6
CONTINUOUS
 62
    52
 10
290.830124616623
 20
268.997623244191
 30
0.0
 11
289.412464073037
 21
267.579962700605
 31
0.0
  0
ENDBLK
  5
   1E7
  8
0
  6
CONTINUOUS
 62
     7
  0
BLOCK
  5
   1E8
  8
0
  6
CONTINUOUS
 62
     7
  2
*HATCH1039
 70
    65
 10
0.0
 20
0.0
 30
0.0
  3
*HATCH1039
  0
LINE
  5
   1E9
  8
0
  6
CONTINUOUS
 62
    52
 10
256.453676045292
 20
258.379962563515
 30
0.0
 11
255.630123329163
 21
257.556409084446
 31
0.0
  0
LINE
  5
   1EA
  8
0
  6
CONTINUOUS
 62
    52
 10
257.230122590065
 20
257.459354029289
 30
0.0
 11
255.630123329163
 21
255.859354005447
 31
0.0
  0
LINE
  5
   1EB
  8
0
  6
CONTINUOUS
 62
    52
 10
257.230122590065
 20
255.762297424411
 30
0.0
 11
255.630123329163
 21
254.162297400569
 31
0.0
  0
LINE
  5
   1EC
  8
0
  6
CONTINUOUS
 62
    52
 10
257.230122590065
 20
254.065240819533
 30
0.0
 11
257.144845794361
 21
253.979964023829
 31
0.0
  0
ENDBLK
  5
   1ED
  8
0
  6
CONTINUOUS
 62
     7
  0
BLOCK
  5
   1EE
  8
0
  6
CONTINUOUS
 62
     7
  2
*HATCH1040
 70
    65
 10
0.0
 20
0.0
 30
0.0
  3
*HATCH1040
  0
LINE
  5
   1EF
  8
0
  6
CONTINUOUS
 62
    52
 10
256.671338096875
 20
268.779962718487
 30
0.0
 11
255.630123329163
 21
267.738748713714
 31
0.0
  0
LINE
  5
   1F0
  8
0
  6
CONTINUOUS
 62
    52
 10
257.230122590065
 20
267.641690606799
 30
0.0
 11
255.630123329163
 21
266.041690582957
 31
0.0
  0
LINE
  5
   1F1
  8
0
  6
CONTINUOUS
 62
    52
 10
257.230122590065
 20
265.9446355278
 30
0.0
 11
256.065451247026
 21
264.779962658882
 31
0.0
  0
ENDBLK
  5
   1F2
  8
0
  6
CONTINUOUS
 62
     7
  0
BLOCK
  5
   1F3
  8
0
  6
CONTINUOUS
 62
     7
  2
*HATCH1041
 70
    65
 10
0.0
 20
0.0
 30
0.0
  3
*HATCH1041
  0
LINE
  5
   1F4
  8
0
  6
CONTINUOUS
 62
    52
 10
245.191943394569
 20
269.179962724447
 30
0.0
 11
244.59012396574
 21
268.578143867823
 31
0.0
  0
LINE
  5
   1F5
  8
0
  6
CONTINUOUS
 62
    52
 10
246.190123798847
 20
268.481085760908
 30
0.0
 11
243.630123913288
 21
265.921088164168
 31
0.0
  0
LINE
  5
   1F6
  8
0
  6
CONTINUOUS
 62
    52
 10
246.986056199013
 20
267.579962700605
 30
0.0
 11
243.630123913288
 21
264.224030033411
 31
0.0
  0
LINE
  5
   1F7
  8
0
  6
CONTINUOUS
 62
    52
 10
249.956618605949
 20
268.853467358254
 30
0.0
 11
243.630123913288
 21
262.526974954412
 31
0.0
  0
LINE
  5
   1F8
  8
0
  6
CONTINUOUS
 62
    52
 10
250.030124008656
 20
267.229916919022
 30
0.0
 11
243.630123913288
 21
260.829916823655
 31
0.0
  0
LINE
  5
   1F9
  8
0
  6
CONTINUOUS
 62
    52
 10
250.877225614296
 20
266.379962682724
 30
0.0
 11
243.630123913288
 21
259.132861744656
 31
0.0
  0
LINE
  5
   1FA
  8
0
  6
CONTINUOUS
 62
    52
 10
252.574282219174
 20
266.379962682724
 30
0.0
 11
243.630123913288
 21
257.435806665657
 31
0.0
  0
LINE
  5
   1FB
  8
0
  6
CONTINUOUS
 62
    52
 10
253.230124056339
 20
265.338748677951
 30
0.0
 11
244.230730649838
 21
256.339355843654
 31
0.0
  0
LINE
  5
   1FC
  8
0
  6
CONTINUOUS
 62
    52
 10
253.230124056339
 20
263.641693598952
 30
0.0
 11
244.59012396574
 21
255.001692554679
 31
0.0
  0
LINE
  5
   1FD
  8
0
  6
CONTINUOUS
 62
    52
 10
253.230124056339
 20
261.944638519953
 30
0.0
 11
244.59012396574
 21
253.304635949801
 31
0.0
  0
LINE
  5
   1FE
  8
0
  6
CONTINUOUS
 62
    52
 10
253.230124056339
 20
260.247583440954
 30
0.0
 11
244.59012396574
 21
251.607579344923
 31
0.0
  0
LINE
  5
   1FF
  8
0
  6
CONTINUOUS
 62
    52
 10
253.230124056339
 20
258.550528361955
 30
0.0
 11
244.59012396574
 21
249.910522740045
 31
0.0
  0
LINE
  5
   200
  8
0
  6
CONTINUOUS
 62
    52
 10
253.230124056339
 20
256.853473282956
 30
0.0
 11
244.59012396574
 21
248.213466135167
 31
0.0
  0
LINE
  5
   201
  8
0
  6
CONTINUOUS
 62
    52
 10
253.230124056339
 20
255.156412100441
 30
0.0
 11
250.453675192946
 21
252.379962474108
 31
0.0
  0
LINE
  5
   202
  8
0
  6
CONTINUOUS
 62
    52
 10
250.030124008656
 20
251.956412052757
 30
0.0
 11
246.053674364441
 21
247.979962408543
 31
0.0
  0
LINE
  5
   203
  8
0
  6
CONTINUOUS
 62
    52
 10
253.750731821665
 20
253.97996249795
 30
0.0
 11
252.150731034884
 21
252.379962474108
 31
0.0
  0
LINE
  5
   204
  8
0
  6
CONTINUOUS
 62
    52
 10
250.030124008656
 20
250.259355447879
 30
0.0
 11
247.750730969319
 21
247.979962408543
 31
0.0
  0
LINE
  5
   205
  8
0
  6
CONTINUOUS
 62
    52
 10
255.447789189483
 20
253.97996249795
 30
0.0
 11
253.847787639762
 21
252.379962474108
 31
0.0
  0
LINE
  5
   206
  8
0
  6
CONTINUOUS
 62
    52
 10
250.030124008656
 20
248.562298843001
 30
0.0
 11
249.447787574197
 21
247.979962408543
 31
0.0
  0
LINE
  5
   207
  8
0
  6
CONTINUOUS
 62
    52
 10
257.144845794361
 20
253.979964023829
 30
0.0
 11
255.54484424464
 21
252.379962474108
 31
0.0
  0
ENDBLK
  5
   208
  8
0
  6
CONTINUOUS
 62
     7
  0
BLOCK
  5
   209
  8
0
  6
CONTINUOUS
 62
     7
  2
*HATCH1042
 70
    65
 10
0.0
 20
0.0
 30
0.0
  3
*HATCH1042
  0
LINE
  5
   20A
  8
0
  6
CONTINUOUS
 62
    52
 10
258.964859249215
 20
271.073483870827
 30
0.0
 11
257.333851839658
 21
269.44247493539
 31
0.0
  0
LINE
  5
   20B
  8
0
  6
CONTINUOUS
 62
    52
 10
260.768396263395
 20
271.17996275425
 30
0.0
 11
257.230122590065
 21
267.641690606799
 31
0.0
  0
LINE
  5
   20C
  8
0
  6
CONTINUOUS
 62
    52
 10
262.465452868273
 20
271.17996275425
 30
0.0
 11
260.865451318552
 21
269.579962730408
 31
0.0
  0
LINE
  5
   20D
  8
0
  6
CONTINUOUS
 62
    52
 10
258.830124139786
 20
267.544635551642
 30
0.0
 11
257.230122590065
 21
265.9446355278
 31
0.0
  0
LINE
  5
   20E
  8
0
  6
CONTINUOUS
 62
    52
 10
264.162507947272
 20
271.17996275425
 30
0.0
 11
262.56250792343
 21
269.579962730408
 31
0.0
  0
LINE
  5
   20F
  8
0
  6
CONTINUOUS
 62
    52
 10
258.830124139786
 20
265.847580472642
 30
0.0
 11
257.762506326026
 21
264.779962658882
 31
0.0
  0
LINE
  5
   210
  8
0
  6
CONTINUOUS
 62
    52
 10
265.85956455215
 20
271.17996275425
 30
0.0
 11
264.259564528308
 21
269.579962730408
 31
0.0
  0
LINE
  5
   211
  8
0
  6
CONTINUOUS
 62
    52
 10
267.556621157028
 20
271.17996275425
 30
0.0
 11
265.956621133186
 21
269.579962730408
 31
0.0
  0
LINE
  5
   212
  8
0
  6
CONTINUOUS
 62
    52
 10
269.253677761906
 20
271.17996275425
 30
0.0
 11
267.653677738064
 21
269.579962730408
 31
0.0
  0
LINE
  5
   213
  8
0
  6
CONTINUOUS
 62
    52
 10
270.950732840905
 20
271.17996275425
 30
0.0
 11
269.350732817063
 21
269.579962730408
 31
0.0
  0
LINE
  5
   214
  8
0
  6
CONTINUOUS
 62
    52
 10
272.647787919904
 20
271.17996275425
 30
0.0
 11
271.047787896062
 21
269.579962730408
 31
0.0
  0
LINE
  5
   215
  8
0
  6
CONTINUOUS
 62
    52
 10
274.344842998903
 20
271.17996275425
 30
0.0
 11
272.744842975061
 21
269.579962730408
 31
0.0
  0
LINE
  5
   216
  8
0
  6
CONTINUOUS
 62
    52
 10
276.041898077902
 20
271.17996275425
 30
0.0
 11
274.44189805406
 21
269.579962730408
 31
0.0
  0
LINE
  5
   217
  8
0
  6
CONTINUOUS
 62
    52
 10
281.338959314061
 20
274.779962807894
 30
0.0
 11
280.830127519369
 21
274.271131013202
 31
0.0
  0
LINE
  5
   218
  8
0
  6
CONTINUOUS
 62
    52
 10
277.738959260417
 20
271.17996275425
 30
0.0
 11
276.138959236575
 21
269.579962730408
 31
0.0
  0
LINE
  5
   219
  8
0
  6
CONTINUOUS
 62
    52
 10
282.430127543211
 20
274.174075958045
 30
0.0
 11
280.830127519369
 21
272.574075934203
 31
0.0
  0
LINE
  5
   21A
  8
0
  6
CONTINUOUS
 62
    52
 10
279.436014339416
 20
271.17996275425
 30
0.0
 11
277.836014315574
 21
269.579962730408
 31
0.0
  0
LINE
  5
   21B
  8
0
  6
CONTINUOUS
 62
    52
 10
282.430127543211
 20
272.477017827288
 30
0.0
 11
279.533072446331
 21
269.579962730408
 31
0.0
  0
ENDBLK
  5
   21C
  8
0
  6
CONTINUOUS
 62
     7
  0
BLOCK
  5
   21D
  8
0
  6
CONTINUOUS
 62
     7
  2
*UDIM1192
 70
    65
 10
0.0
 20
0.0
 30
0.0
  3
*UDIM1192
  0
LINE
  5
   21E
  8
0
  6
CONTINUOUS
 62
     7
 10
243.630124856969
 20
377.126019722257
 30
0.0
 11
243.630124856969
 21
386.780037190975
 31
0.0
  0
LINE
  5
   21F
  8
0
  6
CONTINUOUS
 62
     7
 10
258.830122613907
 20
358.57996404171
 30
0.0
 11
258.830122613907
 21
386.780037190975
 31
0.0
  0
LINE
  5
   220
  8
0
  6
CONTINUOUS
 62
     7
 10
243.630124856969
 20
384.780037190975
 30
0.0
 11
258.830122613907
 21
384.780037190975
 31
0.0
  0
LINE
  5
   221
  8
0
  6
CONTINUOUS
 62
     7
 10
246.52790233018
 20
385.556494347393
 30
0.0
 11
243.630124856969
 21
384.780037190975
 31
0.0
  0
LINE
  5
   222
  8
0
  6
CONTINUOUS
 62
     7
 10
243.630124856969
 20
384.780037190975
 30
0.0
 11
246.52790233018
 21
384.003580034556
 31
0.0
  0
LINE
  5
   223
  8
0
  6
CONTINUOUS
 62
     7
 10
255.932345140696
 20
384.003580034556
 30
0.0
 11
258.830122613907
 21
384.780037190975
 31
0.0
  0
LINE
  5
   224
  8
0
  6
CONTINUOUS
 62
     7
 10
258.830122613907
 20
384.780037190975
 30
0.0
 11
255.932345140696
 21
385.556494347393
 31
0.0
  0
TEXT
  5
   225
  8
0
  6
CONTINUOUS
 62
     7
 10
248.730123777658
 20
385.780037190975
 30
0.0
 40
2.99999994933605
  1
19
 41
0.933333333333333
 72
     1
 11
251.230123735438
 21
387.280037165643
 31
0.0
 73
     2
  0
ENDBLK
  5
   226
  8
0
  6
CONTINUOUS
 62
     7
  0
BLOCK
  5
   227
  8
0
  6
CONTINUOUS
 62
     7
  2
*UDIM1193
 70
    65
 10
0.0
 20
0.0
 30
0.0
  3
*UDIM1193
  0
LINE
  5
   228
  8
0
  6
CONTINUOUS
 62
     7
 10
258.830122613907
 20
358.57996404171
 30
0.0
 11
258.830122613907
 21
386.780037190975
 31
0.0
  0
LINE
  5
   229
  8
0
  6
CONTINUOUS
 62
     7
 10
273.230124354363
 20
359.379964053631
 30
0.0
 11
273.230124354363
 21
386.780037190975
 31
0.0
  0
LINE
  5
   22A
  8
0
  6
CONTINUOUS
 62
     7
 10
253.830122613907
 20
384.780037190975
 30
0.0
 11
292.030124138196
 21
384.780037190975
 31
0.0
  0
LINE
  5
   22B
  8
0
  6
CONTINUOUS
 62
     7
 10
255.932345140696
 20
384.003580034556
 30
0.0
 11
258.830122613907
 21
384.780037190975
 31
0.0
  0
LINE
  5
   22C
  8
0
  6
CONTINUOUS
 62
     7
 10
258.830122613907
 20
384.780037190975
 30
0.0
 11
255.932345140696
 21
385.556494347393
 31
0.0
  0
LINE
  5
   22D
  8
0
  6
CONTINUOUS
 62
     7
 10
276.127901827573
 20
385.556494347393
 30
0.0
 11
273.230124354363
 21
384.780037190975
 31
0.0
  0
LINE
  5
   22E
  8
0
  6
CONTINUOUS
 62
     7
 10
273.230124354363
 20
384.780037190975
 30
0.0
 11
276.127901827573
 21
384.003580034556
 31
0.0
  0
TEXT
  5
   22F
  8
0
  6
CONTINUOUS
 62
     7
 10
278.230124354363
 20
385.780037190975
 30
0.0
 40
2.99999994933605
  1
18
 41
0.933333333333333
 72
     1
 11
280.730124312143
 21
387.280037165643
 31
0.0
 73
     2
  0
TEXT
  5
   230
  8
0
  6
CONTINUOUS
 62
     7
 10
284.230124269923
 20
385.780037190975
 30
0.0
 40
2.99999994933605
  1
x18
 41
0.933333333333333
 72
     1
 11
288.130124204059
 21
387.280037165643
 31
0.0
 73
     2
  0
ENDBLK
  5
   231
  8
0
  6
CONTINUOUS
 62
     7
  0
BLOCK
  5
   232
  8
0
  6
CONTINUOUS
 62
     7
  2
*HATCH1043
 70
    65
 10
0.0
 20
0.0
 30
0.0
  3
*HATCH1043
  0
LINE
  5
   233
  8
0
  6
CONTINUOUS
 62
    52
 10
267.764679326632
 20
237.446897600098
 30
0.0
 11
266.072267497214
 21
235.75448615215
 31
0.0
  0
LINE
  5
   234
  8
0
  6
CONTINUOUS
 62
    52
 10
269.727377720136
 20
237.712538244316
 30
0.0
 11
267.095099238529
 21
235.080260907118
 31
0.0
  0
LINE
  5
   235
  8
0
  6
CONTINUOUS
 62
    52
 10
271.141724054688
 20
237.42982797399
 30
0.0
 11
268.371463393291
 21
234.659569219941
 31
0.0
  0
LINE
  5
   236
  8
0
  6
CONTINUOUS
 62
    52
 10
272.288061962395
 20
236.879111565637
 30
0.0
 11
269.976892494362
 21
234.567942479074
 31
0.0
  0
ENDBLK
  5
   237
  8
0
  6
CONTINUOUS
 62
     7
  0
BLOCK
  5
   238
  8
0
  6
CONTINUOUS
 62
     7
  2
*HATCH1044
 70
    65
 10
0.0
 20
0.0
 30
0.0
  3
*HATCH1044
  0
LINE
  5
   239
  8
0
  6
CONTINUOUS
 62
    52
 10
258.150731124291
 20
258.379962563515
 30
0.0
 11
257.230122590065
 21
257.459354029289
 31
0.0
  0
LINE
  5
   23A
  8
0
  6
CONTINUOUS
 62
    52
 10
258.830124139786
 20
257.362298974132
 30
0.0
 11
257.230122590065
 21
255.762297424411
 31
0.0
  0
LINE
  5
   23B
  8
0
  6
CONTINUOUS
 62
    52
 10
258.830124139786
 20
255.665243895133
 30
0.0
 11
257.230122590065
 21
254.065240819533
 31
0.0
  0
ENDBLK
  5
   23C
  8
0
  6
CONTINUOUS
 62
     7
  0
BLOCK
  5
   23D
  8
0
  6
CONTINUOUS
 62
     7
  2
*HATCH1045
 70
    65
 10
0.0
 20
0.0
 30
0.0
  3
*HATCH1045
  0
LINE
  5
   23E
  8
0
  6
CONTINUOUS
 62
    52
 10
258.830125665665
 20
254.21226078022
 30
0.0
 11
259.862420908098
 21
253.179962486029
 31
0.0
  0
LINE
  5
   23F
  8
0
  6
CONTINUOUS
 62
    52
 10
258.830125665665
 20
255.909317385098
 30
0.0
 11
261.559475987097
 21
253.179962486029
 31
0.0
  0
LINE
  5
   240
  8
0
  6
CONTINUOUS
 62
    52
 10
258.830125665665
 20
257.606375515855
 30
0.0
 11
263.256531066096
 21
253.179962486029
 31
0.0
  0
LINE
  5
   241
  8
0
  6
CONTINUOUS
 62
    52
 10
258.830125665665
 20
259.303433646611
 30
0.0
 11
264.953586145095
 21
253.179962486029
 31
0.0
  0
LINE
  5
   242
  8
0
  6
CONTINUOUS
 62
    52
 10
258.830125665665
 20
261.000491777368
 30
0.0
 11
266.650641224094
 21
253.179962486029
 31
0.0
  0
LINE
  5
   243
  8
0
  6
CONTINUOUS
 62
    52
 10
258.830125665665
 20
262.697549908125
 30
0.0
 11
268.347696303093
 21
253.179962486029
 31
0.0
  0
LINE
  5
   244
  8
0
  6
CONTINUOUS
 62
    52
 10
258.830125665665
 20
264.394608038882
 30
0.0
 11
270.044751382092
 21
253.179962486029
 31
0.0
  0
LINE
  5
   245
  8
0
  6
CONTINUOUS
 62
    52
 10
258.830125665665
 20
266.091666169639
 30
0.0
 11
271.741806461091
 21
253.179962486029
 31
0.0
  0
LINE
  5
   246
  8
0
  6
CONTINUOUS
 62
    52
 10
258.830125665665
 20
267.78871819688
 30
0.0
 11
272.430124342442
 21
254.188702735435
 31
0.0
  0
LINE
  5
   247
  8
0
  6
CONTINUOUS
 62
    52
 10
259.135937742976
 20
269.179962724447
 30
0.0
 11
272.430124342442
 21
255.885760866192
 31
0.0
  0
LINE
  5
   248
  8
0
  6
CONTINUOUS
 62
    52
 10
260.832992821975
 20
269.179962724447
 30
0.0
 11
272.430124342442
 21
257.582818996949
 31
0.0
  0
LINE
  5
   249
  8
0
  6
CONTINUOUS
 62
    52
 10
262.530047900974
 20
269.179962724447
 30
0.0
 11
272.430124342442
 21
259.279877127706
 31
0.0
  0
LINE
  5
   24A
  8
0
  6
CONTINUOUS
 62
    52
 10
264.227102979973
 20
269.179962724447
 30
0.0
 11
272.430124342442
 21
260.976935258463
 31
0.0
  0
LINE
  5
   24B
  8
0
  6
CONTINUOUS
 62
    52
 10
265.924158058972
 20
269.179962724447
 30
0.0
 11
272.430124342442
 21
262.67399338922
 31
0.0
  0
LINE
  5
   24C
  8
0
  6
CONTINUOUS
 62
    52
 10
267.621213137971
 20
269.179962724447
 30
0.0
 11
272.430124342442
 21
264.371051519976
 31
0.0
  0
LINE
  5
   24D
  8
0
  6
CONTINUOUS
 62
    52
 10
269.31826821697
 20
269.179962724447
 30
0.0
 11
272.430124342442
 21
266.068109650733
 31
0.0
  0
LINE
  5
   24E
  8
0
  6
CONTINUOUS
 62
    52
 10
271.015323295969
 20
269.179962724447
 30
0.0
 11
272.430124342442
 21
267.76516778149
 31
0.0
  0
ENDBLK
  5
   24F
  8
0
  6
CONTINUOUS
 62
     7
  0
BLOCK
  5
   250
  8
0
  6
CONTINUOUS
 62
     7
  2
*UDIM1194
 70
    65
 10
0.0
 20
0.0
 30
0.0
  3
*UDIM1194
  0
LINE
  5
   251
  8
0
  6
CONTINUOUS
 62
     7
 10
258.230124145746
 20
346.779963880777
 30
0.0
 11
227.541140789048
 21
346.779963880777
 31
0.0
  0
LINE
  5
   252
  8
0
  6
CONTINUOUS
 62
     7
 10
257.830122613907
 20
361.979964107275
 30
0.0
 11
227.541140789048
 21
361.979964107275
 31
0.0
  0
LINE
  5
   253
  8
0
  6
CONTINUOUS
 62
     7
 10
229.541140789048
 20
341.779963880777
 30
0.0
 11
229.541140789048
 21
366.979964107275
 31
0.0
  0
LINE
  5
   254
  8
0
  6
CONTINUOUS
 62
     7
 10
230.317597945466
 20
343.882186407567
 30
0.0
 11
229.541140789048
 21
346.779963880777
 31
0.0
  0
LINE
  5
   255
  8
0
  6
CONTINUOUS
 62
     7
 10
229.541140789048
 20
346.779963880777
 30
0.0
 11
228.764683632629
 21
343.882186407567
 31
0.0
  0
LINE
  5
   256
  8
0
  6
CONTINUOUS
 62
     7
 10
228.764683632629
 20
364.877741580486
 30
0.0
 11
229.541140789048
 21
361.979964107275
 31
0.0
  0
LINE
  5
   257
  8
0
  6
CONTINUOUS
 62
     7
 10
229.541140789048
 20
361.979964107275
 30
0.0
 11
230.317597945466
 21
364.877741580486
 31
0.0
  0
TEXT
  5
   258
  8
0
  6
CONTINUOUS
 62
     7
 10
228.541140789051
 20
351.879964036248
 30
0.0
 40
2.99999994933605
  1
19
 50
90.0
 41
0.933333333333333
 72
     1
 11
227.04114081438
 21
354.379963994026
 31
0.0
 73
     2
  0
TEXT
  5
   259
  8
0
  6
CONTINUOUS
 62
     7
 10
232.541140738389
 20
350.479964059891
 30
0.0
 40
2.99999994933605
  1
= =
 50
90.0
 41
0.933333333333333
 72
     1
 11
231.041140763716
 21
354.379963994026
 31
0.0
 73
     2
  0
ENDBLK
  5
   25A
  8
0
  6
CONTINUOUS
 62
     7
  0
BLOCK
  5
   25B
  8
0
  6
CONTINUOUS
 62
     7
  2
*UDIM1195
 70
    65
 10
0.0
 20
0.0
 30
0.0
  3
*UDIM1195
  0
LINE
  5
   25C
  8
0
  6
CONTINUOUS
 62
     7
 10
234.093887473104
 20
307.979963302613
 30
0.0
 11
219.543614346443
 21
307.979963302613
 31
0.0
  0
LINE
  5
   25D
  8
0
  6
CONTINUOUS
 62
     7
 10
248.910123167634
 20
354.379963994026
 30
0.0
 11
219.543614346443
 21
354.379963994026
 31
0.0
  0
LINE
  5
   25E
  8
0
  6
CONTINUOUS
 62
     7
 10
221.543614346443
 20
307.979963302613
 30
0.0
 11
221.543614346443
 21
354.379963994026
 31
0.0
  0
LINE
  5
   25F
  8
0
  6
CONTINUOUS
 62
     7
 10
220.767157190024
 20
310.877740775824
 30
0.0
 11
221.543614346443
 21
307.979963302613
 31
0.0
  0
LINE
  5
   260
  8
0
  6
CONTINUOUS
 62
     7
 10
221.543614346443
 20
307.979963302613
 30
0.0
 11
222.320071502862
 21
310.877740775824
 31
0.0
  0
LINE
  5
   261
  8
0
  6
CONTINUOUS
 62
     7
 10
222.320071502862
 20
351.482186520816
 30
0.0
 11
221.543614346443
 21
354.379963994026
 31
0.0
  0
LINE
  5
   262
  8
0
  6
CONTINUOUS
 62
     7
 10
221.543614346443
 20
354.379963994026
 30
0.0
 11
220.767157190024
 21
351.482186520816
 31
0.0
  0
TEXT
  5
   263
  8
0
  6
CONTINUOUS
 62
     7
 10
220.543614346446
 20
328.679963690542
 30
0.0
 40
2.99999994933605
  1
58
 50
90.0
 41
0.933333333333333
 72
     1
 11
219.043614371775
 21
331.17996364832
 31
0.0
 73
     2
  0
ENDBLK
  5
   264
  8
0
  6
CONTINUOUS
 62
     7
  0
BLOCK
  5
   265
  8
0
  6
CONTINUOUS
 62
     7
  2
*UDIM1196
 70
    65
 10
0.0
 20
0.0
 30
0.0
  3
*UDIM1196
  0
LINE
  5
   266
  8
0
  6
CONTINUOUS
 62
     7
 10
248.910123167634
 20
261.579963655837
 30
0.0
 11
211.241420229834
 21
261.579963655837
 31
0.0
  0
LINE
  5
   267
  8
0
  6
CONTINUOUS
 62
     7
 10
248.910123167634
 20
354.379963994026
 30
0.0
 11
211.241420229834
 21
354.379963994026
 31
0.0
  0
LINE
  5
   268
  8
0
  6
CONTINUOUS
 62
     7
 10
213.241420229834
 20
261.579963655837
 30
0.0
 11
213.241420229834
 21
354.379963994026
 31
0.0
  0
LINE
  5
   269
  8
0
  6
CONTINUOUS
 62
     7
 10
212.464963073416
 20
264.477741129048
 30
0.0
 11
213.241420229834
 21
261.579963655837
 31
0.0
  0
LINE
  5
   26A
  8
0
  6
CONTINUOUS
 62
     7
 10
213.241420229834
 20
261.579963655837
 30
0.0
 11
214.017877386253
 21
264.477741129048
 31
0.0
  0
LINE
  5
   26B
  8
0
  6
CONTINUOUS
 62
     7
 10
214.017877386253
 20
351.482186520816
 30
0.0
 11
213.241420229834
 21
354.379963994026
 31
0.0
  0
LINE
  5
   26C
  8
0
  6
CONTINUOUS
 62
     7
 10
213.241420229834
 20
354.379963994026
 30
0.0
 11
212.464963073416
 21
351.482186520816
 31
0.0
  0
TEXT
  5
   26D
  8
0
  6
CONTINUOUS
 62
     7
 10
212.241420229839
 20
304.079963890797
 30
0.0
 40
2.99999994933605
  1
116
 50
90.0
 41
0.933333333333333
 72
     1
 11
210.741420255166
 21
307.979963824932
 31
0.0
 73
     2
  0
ENDBLK
  5
   26E
  8
0
  6
CONTINUOUS
 62
     7
  0
BLOCK
  5
   26F
  8
0
  6
CONTINUOUS
 62
     7
  2
*UDIM1197
 70
    65
 10
0.0
 20
0.0
 30
0.0
  3
*UDIM1197
  0
LINE
  5
   270
  8
0
  6
CONTINUOUS
 62
     7
 10
243.630124856969
 20
239.779325415319
 30
0.0
 11
243.630124856969
 21
222.914837386174
 31
0.0
  0
LINE
  5
   271
  8
0
  6
CONTINUOUS
 62
     7
 10
306.427881807089
 20
259.222694904603
 30
0.0
 11
306.427881807089
 21
222.914837386174
 31
0.0
  0
LINE
  5
   272
  8
0
  6
CONTINUOUS
 62
     7
 10
243.630124856969
 20
224.914837386174
 30
0.0
 11
306.427881807089
 21
224.914837386174
 31
0.0
  0
LINE
  5
   273
  8
0
  6
CONTINUOUS
 62
     7
 10
246.52790233018
 20
225.691294542593
 30
0.0
 11
243.630124856969
 21
224.914837386174
 31
0.0
  0
LINE
  5
   274
  8
0
  6
CONTINUOUS
 62
     7
 10
243.630124856969
 20
224.914837386174
 30
0.0
 11
246.52790233018
 21
224.138380229756
 31
0.0
  0
LINE
  5
   275
  8
0
  6
CONTINUOUS
 62
     7
 10
303.530104333879
 20
224.138380229756
 30
0.0
 11
306.427881807089
 21
224.914837386174
 31
0.0
  0
LINE
  5
   276
  8
0
  6
CONTINUOUS
 62
     7
 10
306.427881807089
 20
224.914837386174
 30
0.0
 11
303.530104333879
 21
225.691294542593
 31
0.0
  0
TEXT
  5
   277
  8
0
  6
CONTINUOUS
 62
     7
 10
284.824333560566
 20
225.914837386174
 30
0.0
 40
2.99999994933605
  1
A
 41
0.933333333333333
 72
     1
 11
285.92433354199
 21
227.414837360842
 31
0.0
 73
     2
  0
ENDBLK
  5
   278
  8
0
  6
CONTINUOUS
 62
     7
  0
BLOCK
  5
   279
  8
0
  6
CONTINUOUS
 62
     7
  2
*UDIM1198
 70
    65
 10
0.0
 20
0.0
 30
0.0
  3
*UDIM1198
  0
LINE
  5
   27A
  8
0
  6
CONTINUOUS
 62
     7
 10
304.627878713574
 20
281.979962915181
 30
0.0
 11
348.27593376292
 21
281.979962915181
 31
0.0
  0
LINE
  5
   27B
  8
0
  6
CONTINUOUS
 62
     7
 10
304.627878713574
 20
317.979963451626
 30
0.0
 11
348.27593376292
 21
317.979963451626
 31
0.0
  0
LINE
  5
   27C
  8
0
  6
CONTINUOUS
 62
     7
 10
346.27593376292
 20
281.979962915181
 30
0.0
 11
346.27593376292
 21
317.979963451626
 31
0.0
  0
LINE
  5
   27D
  8
0
  6
CONTINUOUS
 62
     7
 10
345.499476606501
 20
284.877740388391
 30
0.0
 11
346.27593376292
 21
281.979962915181
 31
0.0
  0
LINE
  5
   27E
  8
0
  6
CONTINUOUS
 62
     7
 10
346.27593376292
 20
281.979962915181
 30
0.0
 11
347.052390919338
 21
284.877740388391
 31
0.0
  0
LINE
  5
   27F
  8
0
  6
CONTINUOUS
 62
     7
 10
347.052390919338
 20
315.082185978415
 30
0.0
 11
346.27593376292
 21
317.979963451626
 31
0.0
  0
LINE
  5
   280
  8
0
  6
CONTINUOUS
 62
     7
 10
346.27593376292
 20
317.979963451626
 30
0.0
 11
345.499476606501
 21
315.082185978415
 31
0.0
  0
TEXT
  5
   281
  8
0
  6
CONTINUOUS
 62
     7
 10
345.275933762923
 20
297.479963225625
 30
0.0
 40
2.99999994933605
  1
45
 50
90.0
 41
0.933333333333333
 72
     1
 11
343.775933788252
 21
299.979963183403
 31
0.0
 73
     2
  0
ENDBLK
  5
   282
  8
0
  6
CONTINUOUS
 62
     7
  0
BLOCK
  5
   283
  8
0
  6
CONTINUOUS
 62
     7
  2
*UDIM1199
 70
    65
 10
0.0
 20
0.0
 30
0.0
  3
*UDIM1199
  0
LINE
  5
   284
  8
0
  6
CONTINUOUS
 62
     7
 10
359.971030700251
 20
320.84239763497
 30
0.0
 11
388.449116529911
 21
347.450363743631
 31
0.0
  0
LINE
  5
   285
  8
0
  6
CONTINUOUS
 62
     7
 10
381.893126942721
 20
340.262264225083
 30
0.0
 11
383.480414729256
 21
342.807950278531
 31
0.0
  0
LINE
  5
   286
  8
0
  6
CONTINUOUS
 62
     7
 10
383.480414729256
 20
342.807950278531
 30
0.0
 11
380.832940135717
 21
341.396965418028
 31
0.0
  0
LINE
  5
   287
  8
0
  6
CONTINUOUS
 62
     7
 10
386.382947124492
 20
346.58251049797
 30
0.0
 11
384.795659337958
 21
344.036824444522
 31
0.0
  0
LINE
  5
   288
  8
0
  6
CONTINUOUS
 62
     7
 10
384.795659337958
 20
344.036824444522
 30
0.0
 11
387.443133931496
 21
345.447809305025
 31
0.0
  0
TEXT
  5
   289
  8
0
  6
CONTINUOUS
 62
     7
 10
362.211088556975
 20
324.303920478059
 30
0.0
 40
2.99999994933605
  1
4,5
 50
43.0556088693447
 41
0.933333333333333
 72
     1
 11
364.036723346132
 21
328.062518225476
 31
0.0
 73
     2
  0
TEXT
  5
   28A
  8
0
  6
CONTINUOUS
 62
     7
 10
359.288322840431
 20
321.573089073361
 30
0.0
 40
2.99999994933605
  1
Ø
 50
43.0556088693447
 41
1.2
 72
     1
 11
359.360298207067
 21
323.693187984876
 31
0.0
 73
     2
  0
TEXT
  5
   28B
  8
0
  6
CONTINUOUS
 62
     7
 10
368.641173118563
 20
330.311749554559
 30
0.0
 40
2.99999994933605
  1
 - M4
 50
43.0556088693447
 41
0.933333333333333
 72
     1
 11
372.512743900662
 21
335.981929277195
 31
0.0
 73
     2
  0
ENDBLK
  5
   28C
  8
0
  6
CONTINUOUS
 62
     7
  0
BLOCK
  5
   28D
  8
0
  6
CONTINUOUS
 62
     7
  2
*UDIM1200
 70
    65
 10
0.0
 20
0.0
 30
0.0
  3
*UDIM1200
  0
LINE
  5
   28E
  8
0
  6
CONTINUOUS
 62
     7
 10
409.299792101872
 20
343.422387361527
 30
0.0
 11
357.434019674957
 21
343.422387361527
 31
0.0
  0
LINE
  5
   28F
  8
0
  6
CONTINUOUS
 62
     7
 10
397.458030902147
 20
392.222388088703
 30
0.0
 11
357.434019674957
 21
392.222388088703
 31
0.0
  0
LINE
  5
   290
  8
0
  6
CONTINUOUS
 62
     7
 10
359.434019674957
 20
343.422387361527
 30
0.0
 11
359.434019674957
 21
392.222388088703
 31
0.0
  0
LINE
  5
   291
  8
0
  6
CONTINUOUS
 62
     7
 10
358.657562518538
 20
346.320164834737
 30
0.0
 11
359.434019674957
 21
343.422387361527
 31
0.0
  0
LINE
  5
   292
  8
0
  6
CONTINUOUS
 62
     7
 10
359.434019674957
 20
343.422387361527
 30
0.0
 11
360.210476831375
 21
346.320164834737
 31
0.0
  0
LINE
  5
   293
  8
0
  6
CONTINUOUS
 62
     7
 10
360.210476831375
 20
389.324610615493
 30
0.0
 11
359.434019674957
 21
392.222388088703
 31
0.0
  0
LINE
  5
   294
  8
0
  6
CONTINUOUS
 62
     7
 10
359.434019674957
 20
392.222388088703
 30
0.0
 11
358.657562518538
 21
389.324610615493
 31
0.0
  0
TEXT
  5
   295
  8
0
  6
CONTINUOUS
 62
     7
 10
358.434019674962
 20
363.92238779098
 30
0.0
 40
2.99999994933605
  1
122
 50
90.0
 41
0.933333333333333
 72
     1
 11
356.934019700289
 21
367.822387725115
 31
0.0
 73
     2
  0
ENDBLK
  5
   296
  8
0
  6
CONTINUOUS
 62
     7
  0
BLOCK
  5
   297
  8
0
  6
CONTINUOUS
 62
     7
  2
*UDIM1201
 70
    65
 10
0.0
 20
0.0
 30
0.0
  3
*UDIM1201
  0
LINE
  5
   298
  8
0
  6
CONTINUOUS
 62
     7
 10
371.545522689932
 20
367.822387725115
 30
0.0
 11
365.888554246563
 21
367.822387725115
 31
0.0
  0
LINE
  5
   299
  8
0
  6
CONTINUOUS
 62
     7
 10
397.458030902147
 20
392.222388088703
 30
0.0
 11
365.888554246563
 21
392.222388088703
 31
0.0
  0
LINE
  5
   29A
  8
0
  6
CONTINUOUS
 62
     7
 10
367.888554246563
 20
367.822387725115
 30
0.0
 11
367.888554246563
 21
392.222388088703
 31
0.0
  0
LINE
  5
   29B
  8
0
  6
CONTINUOUS
 62
     7
 10
367.112097090144
 20
370.720165198325
 30
0.0
 11
367.888554246563
 21
367.822387725115
 31
0.0
  0
LINE
  5
   29C
  8
0
  6
CONTINUOUS
 62
     7
 10
367.888554246563
 20
367.822387725115
 30
0.0
 11
368.665011402982
 21
370.720165198325
 31
0.0
  0
LINE
  5
   29D
  8
0
  6
CONTINUOUS
 62
     7
 10
368.665011402982
 20
389.324610615493
 30
0.0
 11
367.888554246563
 21
392.222388088703
 31
0.0
  0
LINE
  5
   29E
  8
0
  6
CONTINUOUS
 62
     7
 10
367.888554246563
 20
392.222388088703
 30
0.0
 11
367.112097090144
 21
389.324610615493
 31
0.0
  0
TEXT
  5
   29F
  8
0
  6
CONTINUOUS
 62
     7
 10
366.888554246566
 20
377.522387949131
 30
0.0
 40
2.99999994933605
  1
61
 50
90.0
 41
0.933333333333333
 72
     1
 11
365.388554271895
 21
380.022387906909
 31
0.0
 73
     2
  0
ENDBLK
  5
   2A0
  8
0
  6
CONTINUOUS
 62
     7
  0
BLOCK
  5
   2A1
  8
0
  6
CONTINUOUS
 62
     7
  2
*UDIM1202
 70
    65
 10
0.0
 20
0.0
 30
0.0
  3
*UDIM1202
  0
LINE
  5
   2A2
  8
0
  6
CONTINUOUS
 62
     7
 10
398.138030901551
 20
395.417301558986
 30
0.0
 11
398.138030901551
 21
407.747829488502
 31
0.0
  0
LINE
  5
   2A3
  8
0
  6
CONTINUOUS
 62
     7
 10
412.138037450839
 20
345.814385217385
 30
0.0
 11
412.138037450839
 21
407.747829488502
 31
0.0
  0
LINE
  5
   2A4
  8
0
  6
CONTINUOUS
 62
     7
 10
398.138030901551
 20
405.747829488502
 30
0.0
 11
417.138037450839
 21
405.747829488502
 31
0.0
  0
LINE
  5
   2A5
  8
0
  6
CONTINUOUS
 62
     7
 10
415.03581492405
 20
406.524286644921
 30
0.0
 11
412.138037450839
 21
405.747829488502
 31
0.0
  0
LINE
  5
   2A6
  8
0
  6
CONTINUOUS
 62
     7
 10
412.138037450839
 20
405.747829488502
 30
0.0
 11
415.03581492405
 21
404.971372332084
 31
0.0
  0
TEXT
  5
   2A7
  8
0
  6
CONTINUOUS
 62
     7
 10
402.638034218415
 20
406.747829488502
 30
0.0
 40
2.99999994933605
  1
35
 41
0.933333333333333
 72
     1
 11
405.138034176195
 21
408.24782946317
 31
0.0
 73
     2
  0
TEXT
  5
   2A8
  8
0
  6
CONTINUOUS
 62
     7
 10
401.238034242058
 20
402.747829539166
 30
0.0
 40
2.99999994933605
  1
= =
 41
0.933333333333333
 72
     1
 11
405.138034176195
 21
404.247829513834
 31
0.0
 73
     2
  0
ENDBLK
  5
   2A9
  8
0
  6
CONTINUOUS
 62
     7
  0
BLOCK
  5
   2AA
  8
0
  6
CONTINUOUS
 62
     7
  2
*UDIM1203
 70
    65
 10
0.0
 20
0.0
 30
0.0
  3
*UDIM1203
  0
LINE
  5
   2AB
  8
0
  6
CONTINUOUS
 62
     7
 10
384.138037033606
 20
345.814385217385
 30
0.0
 11
384.138037033606
 21
407.747829488502
 31
0.0
  0
LINE
  5
   2AC
  8
0
  6
CONTINUOUS
 62
     7
 10
398.138030901551
 20
395.417301558986
 30
0.0
 11
398.138030901551
 21
407.747829488502
 31
0.0
  0
LINE
  5
   2AD
  8
0
  6
CONTINUOUS
 62
     7
 10
379.138037033607
 20
405.747829488502
 30
0.0
 11
398.138030901551
 21
405.747829488502
 31
0.0
  0
LINE
  5
   2AE
  8
0
  6
CONTINUOUS
 62
     7
 10
381.240259560396
 20
404.971372332084
 30
0.0
 11
384.138037033606
 21
405.747829488502
 31
0.0
  0
LINE
  5
   2AF
  8
0
  6
CONTINUOUS
 62
     7
 10
384.138037033606
 20
405.747829488502
 30
0.0
 11
381.240259560396
 21
406.524286644921
 31
0.0
  0
CIRCLE
  5
   2B0
  8
0
  6
CONTINUOUS
 62
     7
 10
398.138030901551
 20
405.747829488502
 30
0.0
 40
1.0
  0
TEXT
  5
   2B1
  8
0
  6
CONTINUOUS
 62
     7
 10
388.638034009799
 20
406.747829488502
 30
0.0
 40
2.99999994933605
  1
35
 41
0.933333333333333
 72
     1
 11
391.138033967579
 21
408.24782946317
 31
0.0
 73
     2
  0
ENDBLK
  5
   2B2
  8
0
  6
CONTINUOUS
 62
     7
  0
BLOCK
  5
   2B3
  8
0
  6
CONTINUOUS
 62
     7
  2
*UDIM1204
 70
    65
 10
0.0
 20
0.0
 30
0.0
  3
*UDIM1204
  0
LINE
  5
   2B4
  8
0
  6
CONTINUOUS
 62
     7
 10
408.259982299808
 20
262.064022815105
 30
0.0
 11
408.259982299808
 21
254.882901049215
 31
0.0
  0
LINE
  5
   2B5
  8
0
  6
CONTINUOUS
 62
     7
 10
429.009982299808
 20
273.826034545898
 30
0.0
 11
429.009982299808
 21
254.882901049215
 31
0.0
  0
LINE
  5
   2B6
  8
0
  6
CONTINUOUS
 62
     7
 10
408.259982299808
 20
256.882901049215
 30
0.0
 11
429.009982299808
 21
256.882901049215
 31
0.0
  0
LINE
  5
   2B7
  8
0
  6
CONTINUOUS
 62
     7
 10
411.157759773018
 20
257.659358205633
 30
0.0
 11
408.259982299808
 21
256.882901049215
 31
0.0
  0
LINE
  5
   2B8
  8
0
  6
CONTINUOUS
 62
     7
 10
408.259982299808
 20
256.882901049215
 30
0.0
 11
411.157759773018
 21
256.106443892796
 31
0.0
  0
LINE
  5
   2B9
  8
0
  6
CONTINUOUS
 62
     7
 10
426.112204826597
 20
256.106443892796
 30
0.0
 11
429.009982299808
 21
256.882901049215
 31
0.0
  0
LINE
  5
   2BA
  8
0
  6
CONTINUOUS
 62
     7
 10
429.009982299808
 20
256.882901049215
 30
0.0
 11
426.112204826597
 21
257.659358205633
 31
0.0
  0
TEXT
  5
   2BB
  8
0
  6
CONTINUOUS
 62
     7
 10
417.53498228888
 20
257.882901049215
 30
0.0
 40
3.00000002980232
  1
E
 41
0.933333333333334
 72
     1
 11
418.634982299808
 21
259.382901064116
 31
0.0
 73
     2
  0
ENDBLK
  5
   2BC
  8
0
  6
CONTINUOUS
 62
     7
  0
BLOCK
  5
   2BD
  8
0
  6
CONTINUOUS
 62
     7
  2
*UDIM1205
 70
    65
 10
0.0
 20
0.0
 30
0.0
  3
*UDIM1205
  0
LINE
  5
   2BE
  8
0
  6
CONTINUOUS
 62
     7
 10
386.509983062744
 20
274.826034545898
 30
0.0
 11
356.427712051862
 21
274.826034545898
 31
0.0
  0
LINE
  5
   2BF
  8
0
  6
CONTINUOUS
 62
     7
 10
386.509983062744
 20
303.826034545898
 30
0.0
 11
356.427712051862
 21
303.826034545898
 31
0.0
  0
LINE
  5
   2C0
  8
0
  6
CONTINUOUS
 62
     7
 10
358.427712051862
 20
274.826034545898
 30
0.0
 11
358.427712051862
 21
303.826034545898
 31
0.0
  0
LINE
  5
   2C1
  8
0
  6
CONTINUOUS
 62
     7
 10
357.651254895444
 20
277.723812019109
 30
0.0
 11
358.427712051862
 21
274.826034545898
 31
0.0
  0
LINE
  5
   2C2
  8
0
  6
CONTINUOUS
 62
     7
 10
358.427712051862
 20
274.826034545898
 30
0.0
 11
359.204169208281
 21
277.723812019109
 31
0.0
  0
LINE
  5
   2C3
  8
0
  6
CONTINUOUS
 62
     7
 10
359.204169208281
 20
300.928257072688
 30
0.0
 11
358.427712051862
 21
303.826034545898
 31
0.0
  0
LINE
  5
   2C4
  8
0
  6
CONTINUOUS
 62
     7
 10
358.427712051862
 20
303.826034545898
 30
0.0
 11
357.651254895444
 21
300.928257072688
 31
0.0
  0
TEXT
  5
   2C5
  8
0
  6
CONTINUOUS
 62
     7
 10
357.427712051864
 20
288.226034534973
 30
0.0
 40
3.00000002980232
  1
C
 50
90.0
 41
0.933333333333334
 72
     1
 11
355.927712036961
 21
289.326034545898
 31
0.0
 73
     2
  0
ENDBLK
  5
   2C6
  8
0
  6
CONTINUOUS
 62
     7
  0
BLOCK
  5
   2C7
  8
0
  6
CONTINUOUS
 62
     7
  2
*UDIM1206
 70
    65
 10
0.0
 20
0.0
 30
0.0
  3
*UDIM1206
  0
LINE
  5
   2C8
  8
0
  6
CONTINUOUS
 62
     7
 10
387.509982299808
 20
304.826034545898
 30
0.0
 11
387.509982299808
 21
324.339582270649
 31
0.0
  0
LINE
  5
   2C9
  8
0
  6
CONTINUOUS
 62
     7
 10
429.009982299808
 20
304.826034545898
 30
0.0
 11
429.009982299808
 21
324.339582270649
 31
0.0
  0
LINE
  5
   2CA
  8
0
  6
CONTINUOUS
 62
     7
 10
387.509982299808
 20
322.339582270649
 30
0.0
 11
429.009982299808
 21
322.339582270649
 31
0.0
  0
LINE
  5
   2CB
  8
0
  6
CONTINUOUS
 62
     7
 10
390.407759773018
 20
323.116039427068
 30
0.0
 11
387.509982299808
 21
322.339582270649
 31
0.0
  0
LINE
  5
   2CC
  8
0
  6
CONTINUOUS
 62
     7
 10
387.509982299808
 20
322.339582270649
 30
0.0
 11
390.407759773018
 21
321.563125114231
 31
0.0
  0
LINE
  5
   2CD
  8
0
  6
CONTINUOUS
 62
     7
 10
426.112204826597
 20
321.563125114231
 30
0.0
 11
429.009982299808
 21
322.339582270649
 31
0.0
  0
LINE
  5
   2CE
  8
0
  6
CONTINUOUS
 62
     7
 10
429.009982299808
 20
322.339582270649
 30
0.0
 11
426.112204826597
 21
323.116039427068
 31
0.0
  0
TEXT
  5
   2CF
  8
0
  6
CONTINUOUS
 62
     7
 10
407.15998228888
 20
323.339582270649
 30
0.0
 40
3.00000002980232
  1
B
 41
0.933333333333334
 72
     1
 11
408.259982299808
 21
324.83958228555
 31
0.0
 73
     2
  0
ENDBLK
  5
   2D0
  8
0
  6
CONTINUOUS
 62
     7
  0
BLOCK
  5
   2D1
  8
0
  6
CONTINUOUS
 62
     7
  2
*UDIM1207
 70
    65
 10
0.0
 20
0.0
 30
0.0
  3
*UDIM1207
  0
LINE
  5
   2D2
  8
0
  6
CONTINUOUS
 62
     7
 10
372.999450904849
 20
294.326034545898
 30
0.0
 11
365.753699659679
 21
294.326034545898
 31
0.0
  0
LINE
  5
   2D3
  8
0
  6
CONTINUOUS
 62
     7
 10
386.509983062744
 20
303.826034545898
 30
0.0
 11
365.753699659679
 21
303.826034545898
 31
0.0
  0
LINE
  5
   2D4
  8
0
  6
CONTINUOUS
 62
     7
 10
367.753699659679
 20
289.326034545898
 30
0.0
 11
367.753699659679
 21
308.826034545898
 31
0.0
  0
LINE
  5
   2D5
  8
0
  6
CONTINUOUS
 62
     7
 10
368.530156816098
 20
291.428257072688
 30
0.0
 11
367.753699659679
 21
294.326034545898
 31
0.0
  0
LINE
  5
   2D6
  8
0
  6
CONTINUOUS
 62
     7
 10
367.753699659679
 20
294.326034545898
 30
0.0
 11
366.97724250326
 21
291.428257072688
 31
0.0
  0
LINE
  5
   2D7
  8
0
  6
CONTINUOUS
 62
     7
 10
366.97724250326
 20
306.723812019109
 30
0.0
 11
367.753699659679
 21
303.826034545898
 31
0.0
  0
LINE
  5
   2D8
  8
0
  6
CONTINUOUS
 62
     7
 10
367.753699659679
 20
303.826034545898
 30
0.0
 11
368.530156816098
 21
306.723812019109
 31
0.0
  0
TEXT
  5
   2D9
  8
0
  6
CONTINUOUS
 62
     7
 10
366.75369965968
 20
297.479082954925
 30
0.0
 40
3.00000002980232
  1
D
 50
90.0
 41
0.933333333333334
 72
     1
 11
365.253699644778
 21
298.579082965851
 31
0.0
 73
     2
  0
ENDBLK
  5
   2DA
  8
0
  6
CONTINUOUS
 62
     7
  0
ENDSEC
  0
SECTION
  2
ENTITIES
  0
TEXT
  5
   2DB
  8
0
  6
CONTINUOUS
 62
     1
 10
375.214215060328
 20
176.061199130416
 30
0.0
 40
2.00000008940697
  1
FIXED VERSION FRONT TERMINALS FOR Cu CABLE
 41
0.749999861419206
 72
     1
 11
406.56421066523
 21
177.061199175119
 31
0.0
 73
     2
  0
TEXT
  5
   2DC
  8
0
  6
CONTINUOUS
 62
     1
 10
379.71421416774
 20
179.061199130416
 30
0.0
 40
2.00000008940697
  1
4POLE LOW VOLTAGE M.C.C.B SERIES "T"
 41
0.749999861419206
 72
     1
 11
406.564210402962
 21
180.061199175119
 31
0.0
 73
     2
  0
TEXT
  5
   2DD
  8
0
  6
CONTINUOUS
 62
     1
 10
366.166608268772
 20
167.990947665572
 30
0.0
 40
2.00000008940697
  1
TETRAP. ESECUZIONE FISSA TERM. ANT. X CAVI IN Cu
 41
0.749999861419206
 72
     1
 11
402.016603243355
 21
168.990947710275
 31
0.0
 73
     2
  0
TEXT
  5
   2DE
  8
0
  6
CONTINUOUS
 62
     1
 10
381.916605800386
 20
170.990947665572
 30
0.0
 40
2.00000008940697
  1
INTERR.AUTOMATICO SERIE "T"
 41
0.749999861419206
 72
     1
 11
402.016602981087
 21
171.990947710275
 31
0.0
 73
     2
  0
TEXT
  5
   2DF
  8
0
  6
CONTINUOUS
 62
     1
 10
291.911826093061
 20
162.89770764167
 30
0.0
 40
2.00000008940697
  1
N0031 00-02-14
 41
0.799999960511924
  0
TEXT
  5
   2E0
  8
0
  6
CONTINUOUS
 62
     1
 10
386.912941153849
 20
151.769361016203
 30
0.0
 40
4.00000017881393
  1
RH0013.103
 41
0.937499973922969
 72
     2
 11
423.662941753621
 21
151.769361016203
 31
0.0
  0
TEXT
  5
   2E1
  8
0
  6
CONTINUOUS
 62
     1
 10
404.998634469513
 20
160.750957675583
 30
0.0
 40
3.00000002980232
  1
T3
 41
0.916666604744064
 72
     2
 11
409.948634179934
 21
160.750957675583
 31
0.0
  0
INSERT
  5
   2E2
  8
255
  6
CONTINUOUS
 62
     7
  2
$2TABELL
 10
5.79714221330997
 20
214.79238641903
 30
0.0
 41
0.874990938680013
 42
0.874990938680013
 43
0.874990938680013
  0
INSERT
  5
   2E3
  8
0
  6
CONTINUOUS
 62
     7
  2
*UDIM1174
 10
0.0
 20
0.0
 30
0.0
  0
LINE
  5
   2E4
  8
0
  6
CONTINUOUS
 62
   252
 10
105.827411651611
 20
202.706329345703
 30
0.0
 11
137.755839347839
 21
202.706329345703
 31
0.0
  0
LINE
  5
   2E5
  8
0
  6
CONTINUOUS
 62
   252
 10
105.827412414191
 20
202.206329345703
 30
0.0
 11
105.827412414191
 21
202.706329345703
 31
0.0
  0
LINE
  5
   2E6
  8
0
  6
CONTINUOUS
 62
   252
 10
137.755839538936
 20
202.206329345703
 30
0.0
 11
137.755839538936
 21
202.706329345703
 31
0.0
  0
LINE
  5
   2E7
  8
0
  6
CONTINUOUS
 62
   252
 10
105.827411651611
 20
202.206329345703
 30
0.0
 11
137.755839347839
 21
202.206329345703
 31
0.0
  0
LINE
  5
   2E8
  8
0
  6
CONTINUOUS
 62
   252
 10
137.755839538936
 20
202.706329345703
 30
0.0
 11
137.755839538936
 21
208.956329345703
 31
0.0
  0
LINE
  5
   2E9
  8
0
  6
CONTINUOUS
 62
   252
 10
105.827412414191
 20
202.706329345703
 30
0.0
 11
105.827412414191
 21
208.956329345703
 31
0.0
  0
LINE
  5
   2EA
  8
0
  6
CONTINUOUS
 62
   252
 10
104.241611480713
 20
169.956329345703
 30
0.0
 11
139.341610908508
 21
169.956329345703
 31
0.0
  0
LINE
  5
   2EB
  8
0
  6
CONTINUOUS
 62
   252
 10
139.341610908508
 20
169.956329345703
 30
0.0
 11
140.755824327469
 21
169.956329345703
 31
0.0
  0
LINE
  5
   2EC
  8
0
  6
CONTINUOUS
 62
   252
 10
140.755824327469
 20
169.956329345703
 30
0.0
 11
141.59161067009
 21
169.956329345703
 31
0.0
  0
LINE
  5
   2ED
  8
0
  6
CONTINUOUS
 62
   252
 10
140.755824280147
 20
169.956329345703
 30
0.0
 11
140.755824280147
 21
177.456329345703
 31
0.0
  0
LINE
  5
   2EE
  8
0
  6
CONTINUOUS
 62
   252
 10
140.755824280147
 20
201.456329345703
 30
0.0
 11
140.755824280147
 21
208.956329345703
 31
0.0
  0
LINE
  5
   2EF
  8
0
  6
CONTINUOUS
 62
   252
 10
141.59161067009
 20
169.956329345703
 30
0.0
 11
141.84161067009
 21
169.956329345703
 31
0.0
  0
LINE
  5
   2F0
  8
0
  6
CONTINUOUS
 62
   252
 10
141.591610717773
 20
169.956329345703
 30
0.0
 11
141.591610717773
 21
177.456329345703
 31
0.0
  0
LINE
  5
   2F1
  8
0
  6
CONTINUOUS
 62
   252
 10
141.591610717773
 20
201.456329345703
 30
0.0
 11
141.591610717773
 21
208.956329345703
 31
0.0
  0
LINE
  5
   2F2
  8
0
  6
CONTINUOUS
 62
   252
 10
141.84161067009
 20
169.956329345703
 30
0.0
 11
143.591610714793
 21
169.956329345703
 31
0.0
  0
LINE
  5
   2F3
  8
0
  6
CONTINUOUS
 62
   252
 10
143.591610714793
 20
169.956329345703
 30
0.0
 11
143.841610714793
 21
169.956329345703
 31
0.0
  0
LINE
  5
   2F4
  8
0
  6
CONTINUOUS
 62
   252
 10
143.841610717773
 20
169.956329345703
 30
0.0
 11
143.841610717773
 21
208.956329345703
 31
0.0
  0
LINE
  5
   2F5
  8
0
  6
CONTINUOUS
 62
   252
 10
99.7416114807129
 20
169.956329345703
 30
0.0
 11
99.9916114807129
 21
169.956329345703
 31
0.0
  0
LINE
  5
   2F6
  8
0
  6
CONTINUOUS
 62
   252
 10
99.7416107177767
 20
169.956329345703
 30
0.0
 11
99.7416107177767
 21
208.956329345703
 31
0.0
  0
LINE
  5
   2F7
  8
0
  6
CONTINUOUS
 62
   252
 10
99.9916114807129
 20
169.956329345703
 30
0.0
 11
101.741611480713
 21
169.956329345703
 31
0.0
  0
LINE
  5
   2F8
  8
0
  6
CONTINUOUS
 62
   252
 10
101.741611480713
 20
169.956329345703
 30
0.0
 11
101.991611480713
 21
169.956329345703
 31
0.0
  0
LINE
  5
   2F9
  8
0
  6
CONTINUOUS
 62
   252
 10
101.991611480713
 20
169.956329345703
 30
0.0
 11
102.827396392822
 21
169.956329345703
 31
0.0
  0
LINE
  5
   2FA
  8
0
  6
CONTINUOUS
 62
   252
 10
101.991610717776
 20
201.456329345703
 30
0.0
 11
101.991610717776
 21
208.956329345703
 31
0.0
  0
LINE
  5
   2FB
  8
0
  6
CONTINUOUS
 62
   252
 10
101.991610717776
 20
169.956329345703
 30
0.0
 11
101.991610717776
 21
177.456329345703
 31
0.0
  0
LINE
  5
   2FC
  8
0
  6
CONTINUOUS
 62
   252
 10
102.827396392822
 20
169.956329345703
 30
0.0
 11
104.241611480713
 21
169.956329345703
 31
0.0
  0
LINE
  5
   2FD
  8
0
  6
CONTINUOUS
 62
   252
 10
102.827397155403
 20
201.456329345703
 30
0.0
 11
102.827397155403
 21
208.956329345703
 31
0.0
  0
LINE
  5
   2FE
  8
0
  6
CONTINUOUS
 62
   252
 10
102.827397155171
 20
169.956329345703
 30
0.0
 11
102.827397155171
 21
177.456329345703
 31
0.0
  0
LINE
  5
   2FF
  8
0
  6
CONTINUOUS
 62
   252
 10
105.827411651611
 20
208.956329345703
 30
0.0
 11
137.755839347839
 21
208.956329345703
 31
0.0
  0
LINE
  5
   300
  8
0
  6
CONTINUOUS
 62
   252
 10
137.755839347839
 20
208.956329345703
 30
0.0
 11
139.341610908508
 21
208.956329345703
 31
0.0
  0
LINE
  5
   301
  8
0
  6
CONTINUOUS
 62
   252
 10
104.241611480713
 20
208.956329345703
 30
0.0
 11
105.827411651611
 21
208.956329345703
 31
0.0
  0
LINE
  5
   302
  8
0
  6
CONTINUOUS
 62
   252
 10
139.341610908508
 20
208.956329345703
 30
0.0
 11
140.755824327469
 21
208.956329345703
 31
0.0
  0
LINE
  5
   303
  8
0
  6
CONTINUOUS
 62
   252
 10
140.755824327469
 20
208.956329345703
 30
0.0
 11
141.59161067009
 21
208.956329345703
 31
0.0
  0
LINE
  5
   304
  8
0
  6
CONTINUOUS
 62
   252
 10
141.59161067009
 20
208.956329345703
 30
0.0
 11
141.84161067009
 21
208.956329345703
 31
0.0
  0
LINE
  5
   305
  8
0
  6
CONTINUOUS
 62
   252
 10
141.84161067009
 20
208.956329345703
 30
0.0
 11
143.591610714793
 21
208.956329345703
 31
0.0
  0
LINE
  5
   306
  8
0
  6
CONTINUOUS
 62
   252
 10
143.591610714793
 20
208.956329345703
 30
0.0
 11
143.841610714793
 21
208.956329345703
 31
0.0
  0
LINE
  5
   307
  8
0
  6
CONTINUOUS
 62
   252
 10
99.7416114807129
 20
208.956329345703
 30
0.0
 11
99.9916114807129
 21
208.956329345703
 31
0.0
  0
LINE
  5
   308
  8
0
  6
CONTINUOUS
 62
   252
 10
99.9916114807129
 20
208.956329345703
 30
0.0
 11
101.741611480713
 21
208.956329345703
 31
0.0
  0
LINE
  5
   309
  8
0
  6
CONTINUOUS
 62
   252
 10
101.741611480713
 20
208.956329345703
 30
0.0
 11
101.991611480713
 21
208.956329345703
 31
0.0
  0
LINE
  5
   30A
  8
0
  6
CONTINUOUS
 62
   252
 10
101.991611480713
 20
208.956329345703
 30
0.0
 11
102.827396392822
 21
208.956329345703
 31
0.0
  0
LINE
  5
   30B
  8
0
  6
CONTINUOUS
 62
   252
 10
102.827396392822
 20
208.956329345703
 30
0.0
 11
104.241611480713
 21
208.956329345703
 31
0.0
  0
LINE
  5
   30C
  8
0
  6
CONTINUOUS
 62
   252
 10
141.591610717773
 20
177.456329345703
 30
0.0
 11
141.591610717773
 21
201.456329345703
 31
0.0
  0
LINE
  5
   30D
  8
0
  6
CONTINUOUS
 62
   252
 10
101.991610717776
 20
177.456329345703
 30
0.0
 11
101.991610717776
 21
201.456329345703
 31
0.0
  0
LINE
  5
   30E
  8
0
  6
CONTINUOUS
 62
   252
 10
104.241611480713
 20
177.456329345703
 30
0.0
 11
139.341610908508
 21
177.456329345703
 31
0.0
  0
LINE
  5
   30F
  8
0
  6
CONTINUOUS
 62
   252
 10
139.341610908508
 20
177.456329345703
 30
0.0
 11
140.755824327469
 21
177.456329345703
 31
0.0
  0
LINE
  5
   310
  8
0
  6
CONTINUOUS
 62
   252
 10
140.755824327469
 20
177.456329345703
 30
0.0
 11
141.59161067009
 21
177.456329345703
 31
0.0
  0
LINE
  5
   311
  8
0
  6
CONTINUOUS
 62
   252
 10
101.991611480713
 20
177.456329345703
 30
0.0
 11
102.827396392822
 21
177.456329345703
 31
0.0
  0
LINE
  5
   312
  8
0
  6
CONTINUOUS
 62
   252
 10
102.827396392822
 20
177.456329345703
 30
0.0
 11
104.241611480713
 21
177.456329345703
 31
0.0
  0
LINE
  5
   313
  8
0
  6
CONTINUOUS
 62
   252
 10
104.241611480713
 20
201.456329345703
 30
0.0
 11
139.341610908508
 21
201.456329345703
 31
0.0
  0
LINE
  5
   314
  8
0
  6
CONTINUOUS
 62
   252
 10
139.341610908508
 20
201.456329345703
 30
0.0
 11
140.755824327469
 21
201.456329345703
 31
0.0
  0
LINE
  5
   315
  8
0
  6
CONTINUOUS
 62
   252
 10
140.755824327469
 20
201.456329345703
 30
0.0
 11
141.59161067009
 21
201.456329345703
 31
0.0
  0
LINE
  5
   316
  8
0
  6
CONTINUOUS
 62
   252
 10
101.991611480713
 20
201.456329345703
 30
0.0
 11
102.827396392822
 21
201.456329345703
 31
0.0
  0
LINE
  5
   317
  8
0
  6
CONTINUOUS
 62
   252
 10
102.827396392822
 20
201.456329345703
 30
0.0
 11
104.241611480713
 21
201.456329345703
 31
0.0
  0
LINE
  5
   318
  8
0
  6
DASHDOT
 62
     7
 10
121.791610717775
 20
162.244557690675
 30
0.0
 11
121.791610717775
 21
223.764176594854
 31
0.0
  0
TEXT
  5
   319
  8
0
  6
CONTINUOUS
 62
     7
 10
117.333431810742
 20
213.553434080246
 30
0.0
 40
3.00000002980232
  1
Y
 41
0.933333333333334
 72
     1
 11
118.433431821669
 21
215.053434095147
 31
0.0
 73
     2
  0
TEXT
  5
   31A
  8
0
  6
CONTINUOUS
 62
     7
 10
117.333431810742
 20
161.833400488237
 30
0.0
 40
3.00000002980232
  1
Y
 41
0.933333333333334
 72
     1
 11
118.433431821669
 21
163.333400503139
 31
0.0
 73
     2
  0
LINE
  5
   31B
  8
0
  6
DASHDOT
 62
     7
 10
92.0289936194331
 20
194.456329345703
 30
0.0
 11
152.731980414264
 21
194.456329345703
 31
0.0
  0
TEXT
  5
   31C
  8
0
  6
CONTINUOUS
 62
     7
 10
92.2900471240847
 20
195.659842049674
 30
0.0
 40
3.00000002980232
  1
X
 41
0.933333333333334
 72
     1
 11
93.3900471350122
 21
197.159842064576
 31
0.0
 73
     2
  0
TEXT
  5
   31D
  8
0
  6
CONTINUOUS
 62
     7
 10
149.45429477841
 20
195.659842049674
 30
0.0
 40
3.00000002980232
  1
X
 41
0.933333333333334
 72
     1
 11
150.554294789338
 21
197.159842064576
 31
0.0
 73
     2
  0
INSERT
  5
   31E
  8
0
  6
CONTINUOUS
 62
     7
  2
*UDIM1175
 10
0.0
 20
0.0
 30
0.0
  0
INSERT
  5
   31F
  8
0
  6
CONTINUOUS
 62
     7
  2
*UDIM1176
 10
0.0
 20
0.0
 30
0.0
  0
LINE
  5
   320
  8
0
  6
CONTINUOUS
 62
     3
 10
180.991221487017
 20
285.899963416088
 30
0.0
 11
181.198083367541
 21
286.106825296612
 31
0.0
  0
LINE
  5
   321
  8
0
  6
CONTINUOUS
 62
     3
 10
181.19808396262
 20
286.106824548943
 30
0.0
 11
181.19808396262
 21
286.653101412552
 31
0.0
  0
LINE
  5
   322
  8
0
  6
CONTINUOUS
 62
     3
 10
180.99122148702
 20
286.859962545411
 30
0.0
 11
181.198083367544
 21
286.653100664887
 31
0.0
  0
LINE
  5
   323
  8
0
  6
CONTINUOUS
 62
     3
 10
180.071221000273
 20
286.859962987904
 30
0.0
 11
180.991220708806
 21
286.859962987904
 31
0.0
  0
LINE
  5
   324
  8
0
  6
CONTINUOUS
 62
     3
 10
179.958082662421
 20
286.973101356301
 30
0.0
 11
180.071221625899
 21
286.859962392823
 31
0.0
  0
LINE
  5
   325
  8
0
  6
CONTINUOUS
 62
     3
 10
179.958083944143
 20
286.973102638023
 30
0.0
 11
179.958083944143
 21
287.386823347313
 31
0.0
  0
LINE
  5
   326
  8
0
  6
CONTINUOUS
 62
     3
 10
179.958082662418
 20
287.386824629039
 30
0.0
 11
180.071221625896
 21
287.499963592517
 31
0.0
  0
LINE
  5
   327
  8
0
  6
CONTINUOUS
 62
     3
 10
180.071221000273
 20
287.49996299744
 30
0.0
 11
180.924947209284
 21
287.49996299744
 31
0.0
  0
LINE
  5
   328
  8
0
  6
CONTINUOUS
 62
     3
 10
180.924946431072
 20
287.499963439928
 30
0.0
 11
181.084948188217
 21
287.339961682783
 31
0.0
  0
LINE
  5
   329
  8
0
  6
CONTINUOUS
 62
     3
 10
181.084945746807
 20
287.339961865919
 30
0.0
 11
181.198084710285
 21
287.453100829397
 31
0.0
  0
LINE
  5
   32A
  8
0
  6
CONTINUOUS
 62
     3
 10
180.99122148702
 20
287.659962557332
 30
0.0
 11
181.198083367544
 21
287.453100676808
 31
0.0
  0
LINE
  5
   32B
  8
0
  6
CONTINUOUS
 62
     3
 10
180.004946737811
 20
287.659962999824
 30
0.0
 11
180.991220708806
 21
287.659962999824
 31
0.0
  0
LINE
  5
   32C
  8
0
  6
CONTINUOUS
 62
     3
 10
179.798084689423
 20
287.453100829397
 30
0.0
 11
180.004946188478
 21
287.659962328451
 31
0.0
  0
LINE
  5
   32D
  8
0
  6
CONTINUOUS
 62
     3
 10
179.798083941759
 20
286.906824560864
 30
0.0
 11
179.798083941759
 21
287.453101424473
 31
0.0
  0
LINE
  5
   32E
  8
0
  6
CONTINUOUS
 62
     3
 10
179.798084689427
 20
286.906825155943
 30
0.0
 11
180.004946188481
 21
286.699963656889
 31
0.0
  0
LINE
  5
   32F
  8
0
  6
CONTINUOUS
 62
     3
 10
180.004946737811
 20
286.699962985519
 30
0.0
 11
180.924947209284
 21
286.699962985519
 31
0.0
  0
LINE
  5
   330
  8
0
  6
CONTINUOUS
 62
     3
 10
180.924946431072
 20
286.699963428007
 30
0.0
 11
181.03808539455
 21
286.586824464529
 31
0.0
  0
LINE
  5
   331
  8
0
  6
CONTINUOUS
 62
     3
 10
181.038083960236
 20
286.173102626102
 30
0.0
 11
181.038083960236
 21
286.586823335392
 31
0.0
  0
LINE
  5
   332
  8
0
  6
CONTINUOUS
 62
     3
 10
180.924946431069
 20
286.059962533491
 30
0.0
 11
181.038085394546
 21
286.173101496969
 31
0.0
  0
LINE
  5
   333
  8
0
  6
CONTINUOUS
 62
     3
 10
180.071221000273
 20
286.059962975983
 30
0.0
 11
180.924947209284
 21
286.059962975983
 31
0.0
  0
LINE
  5
   334
  8
0
  6
CONTINUOUS
 62
     3
 10
179.911219868754
 20
286.219964138047
 30
0.0
 11
180.071221625899
 21
286.059962380902
 31
0.0
  0
LINE
  5
   335
  8
0
  6
CONTINUOUS
 62
     3
 10
179.798083346679
 20
286.106825296612
 30
0.0
 11
179.911222310157
 21
286.219964260089
 31
0.0
  0
LINE
  5
   336
  8
0
  6
CONTINUOUS
 62
     3
 10
179.798084689427
 20
286.106825144022
 30
0.0
 11
180.004946188481
 21
285.899963644968
 31
0.0
  0
LINE
  5
   337
  8
0
  6
CONTINUOUS
 62
     3
 10
180.004946737811
 20
285.899962973598
 30
0.0
 11
180.991220708806
 21
285.899962973598
 31
0.0
  0
LINE
  5
   338
  8
0
  6
CONTINUOUS
 62
     3
 10
182.198083977521
 20
285.899964194298
 30
0.0
 11
182.198083977521
 21
287.49996421814
 31
0.0
  0
LINE
  5
   339
  8
0
  6
CONTINUOUS
 62
     3
 10
182.038084280314
 20
285.899962973598
 30
0.0
 11
182.19808413011
 21
285.899962973598
 31
0.0
  0
LINE
  5
   33A
  8
0
  6
CONTINUOUS
 62
     3
 10
182.038083975137
 20
285.899964194298
 30
0.0
 11
182.038083975137
 21
287.49996421814
 31
0.0
  0
LINE
  5
   33B
  8
0
  6
CONTINUOUS
 62
     3
 10
181.438084271373
 20
287.49996299744
 30
0.0
 11
182.038084280314
 21
287.49996299744
 31
0.0
  0
LINE
  5
   33C
  8
0
  6
CONTINUOUS
 62
     3
 10
181.438083966196
 20
287.49996421814
 30
0.0
 11
181.438083966196
 21
287.659961779118
 31
0.0
  0
LINE
  5
   33D
  8
0
  6
CONTINUOUS
 62
     3
 10
181.438084271373
 20
287.659962999824
 30
0.0
 11
182.798084139051
 21
287.659962999824
 31
0.0
  0
LINE
  5
   33E
  8
0
  6
CONTINUOUS
 62
     3
 10
182.798083986462
 20
287.49996421814
 30
0.0
 11
182.798083986462
 21
287.659961779118
 31
0.0
  0
LINE
  5
   33F
  8
0
  6
CONTINUOUS
 62
     3
 10
182.19808413011
 20
287.49996299744
 30
0.0
 11
182.798084139051
 21
287.49996299744
 31
0.0
  0
LINE
  5
   340
  8
0
  6
CONTINUOUS
 62
     3
 10
177.398083905996
 20
285.899964194298
 30
0.0
 11
177.398083905996
 21
287.49996421814
 31
0.0
  0
LINE
  5
   341
  8
0
  6
CONTINUOUS
 62
     3
 10
177.398083295645
 20
287.49996299744
 30
0.0
 11
177.998083304586
 21
287.49996299744
 31
0.0
  0
LINE
  5
   342
  8
0
  6
CONTINUOUS
 62
     3
 10
177.998083914937
 20
287.49996421814
 30
0.0
 11
177.998083914937
 21
287.659961779118
 31
0.0
  0
LINE
  5
   343
  8
0
  6
CONTINUOUS
 62
     3
 10
176.638084199848
 20
287.659962999824
 30
0.0
 11
177.998083304586
 21
287.659962999824
 31
0.0
  0
LINE
  5
   344
  8
0
  6
CONTINUOUS
 62
     3
 10
176.638083894671
 20
287.49996421814
 30
0.0
 11
176.638083894671
 21
287.659961779118
 31
0.0
  0
LINE
  5
   345
  8
0
  6
CONTINUOUS
 62
     3
 10
176.638084199848
 20
287.49996299744
 30
0.0
 11
177.238084208789
 21
287.49996299744
 31
0.0
  0
LINE
  5
   346
  8
0
  6
CONTINUOUS
 62
     3
 10
177.238083903612
 20
285.899964194298
 30
0.0
 11
177.238083903612
 21
287.49996421814
 31
0.0
  0
LINE
  5
   347
  8
0
  6
CONTINUOUS
 62
     3
 10
177.238084208789
 20
285.899962973598
 30
0.0
 11
177.398083295645
 21
285.899962973598
 31
0.0
  0
LINE
  5
   348
  8
0
  6
CONTINUOUS
 62
     3
 10
179.318083934606
 20
286.699964206219
 30
0.0
 11
179.318083934606
 21
286.859961767197
 31
0.0
  0
LINE
  5
   349
  8
0
  6
CONTINUOUS
 62
     3
 10
178.398084073486
 20
286.859962987904
 30
0.0
 11
179.318083782019
 21
286.859962987904
 31
0.0
  0
LINE
  5
   34A
  8
0
  6
CONTINUOUS
 62
     3
 10
178.398083920897
 20
286.859961767197
 30
0.0
 11
178.398083920897
 21
287.49996421814
 31
0.0
  0
LINE
  5
   34B
  8
0
  6
CONTINUOUS
 62
     3
 10
178.398084073486
 20
287.49996299744
 30
0.0
 11
179.598084091367
 21
287.49996299744
 31
0.0
  0
LINE
  5
   34C
  8
0
  6
CONTINUOUS
 62
     3
 10
179.598083938778
 20
287.49996421814
 30
0.0
 11
179.598083938778
 21
287.659961779118
 31
0.0
  0
LINE
  5
   34D
  8
0
  6
CONTINUOUS
 62
     3
 10
178.23808422369
 20
287.659962999824
 30
0.0
 11
179.598084091367
 21
287.659962999824
 31
0.0
  0
LINE
  5
   34E
  8
0
  6
CONTINUOUS
 62
     3
 10
178.238083918513
 20
285.899964194298
 30
0.0
 11
178.238083918513
 21
287.659961779118
 31
0.0
  0
LINE
  5
   34F
  8
0
  6
CONTINUOUS
 62
     3
 10
178.23808422369
 20
285.899962973598
 30
0.0
 11
179.598084091367
 21
285.899962973598
 31
0.0
  0
LINE
  5
   350
  8
0
  6
CONTINUOUS
 62
     3
 10
179.598083938778
 20
285.899964194298
 30
0.0
 11
179.598083938778
 21
286.059961755276
 31
0.0
  0
LINE
  5
   351
  8
0
  6
CONTINUOUS
 62
     3
 10
178.398084073486
 20
286.059962975983
 30
0.0
 11
179.598084091367
 21
286.059962975983
 31
0.0
  0
LINE
  5
   352
  8
0
  6
CONTINUOUS
 62
     3
 10
178.398083920897
 20
286.059961755276
 30
0.0
 11
178.398083920897
 21
286.699964206219
 31
0.0
  0
LINE
  5
   353
  8
0
  6
CONTINUOUS
 62
     3
 10
178.398084073486
 20
286.699962985519
 30
0.0
 11
179.318083782019
 21
286.699962985519
 31
0.0
  0
POLYLINE
  5
   354
  8
0
  6
CONTINUOUS
 62
     1
 66
     1
 10
0.0
 20
0.0
 30
0.0
  0
VERTEX
  5
   355
  8
0
  6
CONTINUOUS
 10
183.638083388625
 20
286.779962986711
 30
0.0
 40
0.0
 41
0.0
  0
VERTEX
  5
   356
  8
0
  6
CONTINUOUS
 10
183.493502380479
 20
287.292134696275
 30
0.0
 40
0.0
 41
0.0
  0
VERTEX
  5
   357
  8
0
  6
CONTINUOUS
 10
182.927060293015
 20
287.877869097181
 30
0.0
 40
0.0
 41
0.0
  0
VERTEX
  5
   358
  8
0
  6
CONTINUOUS
 10
181.71633589049
 20
288.429093317854
 30
0.0
 40
0.0
 41
0.0
  0
VERTEX
  5
   359
  8
0
  6
CONTINUOUS
 10
180.405650727474
 20
288.669887632369
 30
0.0
 40
0.0
 41
0.0
  0
VERTEX
  5
   35A
  8
0
  6
CONTINUOUS
 10
178.795695007405
 20
288.645689723304
 30
0.0
 40
0.0
 41
0.0
  0
VERTEX
  5
   35B
  8
0
  6
CONTINUOUS
 10
177.241231036865
 20
288.263416023527
 30
0.0
 40
0.0
 41
0.0
  0
VERTEX
  5
   35C
  8
0
  6
CONTINUOUS
 10
176.296515562225
 20
287.711560330664
 30
0.0
 40
0.0
 41
0.0
  0
VERTEX
  5
   35D
  8
0
  6
CONTINUOUS
 10
175.949193981478
 20
287.303342413134
 30
0.0
 40
0.0
 41
0.0
  0
VERTEX
  5
   35E
  8
0
  6
CONTINUOUS
 10
175.798084492508
 20
286.779962986711
 30
0.0
 40
0.0
 41
0.0
  0
SEQEND
  5
   35F
  8
0
  6
CONTINUOUS
 62
     1
  0
POLYLINE
  5
   360
  8
0
  6
CONTINUOUS
 62
     1
 66
     1
 10
0.0
 20
0.0
 30
0.0
  0
VERTEX
  5
   361
  8
0
  6
CONTINUOUS
 10
175.798084492508
 20
286.779962986704
 30
0.0
 40
0.0
 41
0.0
  0
VERTEX
  5
   362
  8
0
  6
CONTINUOUS
 10
175.942665500654
 20
286.267791277141
 30
0.0
 40
0.0
 41
0.0
  0
VERTEX
  5
   363
  8
0
  6
CONTINUOUS
 10
176.509107588119
 20
285.682056876234
 30
0.0
 40
0.0
 41
0.0
  0
VERTEX
  5
   364
  8
0
  6
CONTINUOUS
 10
177.719831990642
 20
285.130832655562
 30
0.0
 40
0.0
 41
0.0
  0
VERTEX
  5
   365
  8
0
  6
CONTINUOUS
 10
179.030517153658
 20
284.890038341047
 30
0.0
 40
0.0
 41
0.0
  0
VERTEX
  5
   366
  8
0
  6
CONTINUOUS
 10
180.640472873728
 20
284.914236250112
 30
0.0
 40
0.0
 41
0.0
  0
VERTEX
  5
   367
  8
0
  6
CONTINUOUS
 10
182.194936844269
 20
285.296509949889
 30
0.0
 40
0.0
 41
0.0
  0
VERTEX
  5
   368
  8
0
  6
CONTINUOUS
 10
183.139652318907
 20
285.848365642752
 30
0.0
 40
0.0
 41
0.0
  0
VERTEX
  5
   369
  8
0
  6
CONTINUOUS
 10
183.486973899653
 20
286.256583560282
 30
0.0
 40
0.0
 41
0.0
  0
VERTEX
  5
   36A
  8
0
  6
CONTINUOUS
 10
183.638083388625
 20
286.779962986704
 30
0.0
 40
0.0
 41
0.0
  0
SEQEND
  5
   36B
  8
0
  6
CONTINUOUS
 62
     1
  0
ARC
  5
   36C
  8
0
  6
CONTINUOUS
 62
     1
 10
163.718079304104
 20
286.21996798649
 30
0.0
 40
0.400010689129011
 50
270.000717395366
 51
359.999632348573
  0
ARC
  5
   36D
  8
0
  6
CONTINUOUS
 62
     1
 10
147.718100216935
 20
286.219979121481
 30
0.0
 40
0.400021775371486
 50
180.001962546141
 51
269.997687785879
  0
ARC
  5
   36E
  8
0
  6
CONTINUOUS
 62
     1
 10
147.71808908221
 20
314.139958386007
 30
0.0
 40
0.400010689129633
 50
90.0007173568052
 51
179.9996323109
  0
ARC
  5
   36F
  8
0
  6
CONTINUOUS
 62
     1
 10
163.718068169381
 20
314.139947251549
 30
0.0
 40
0.400021775372528
 50
1.96250825689063E-3
 51
89.9976877476939
  0
LINE
  5
   370
  8
0
  6
CONTINUOUS
 62
     1
 10
185.848129960868
 20
283.419965378046
 30
0.0
 11
185.848129960868
 21
316.53996098876
 31
0.0
  0
LINE
  5
   371
  8
0
  6
CONTINUOUS
 62
     1
 10
125.588036136897
 20
283.419965378046
 30
0.0
 11
125.588036136897
 21
316.53996098876
 31
0.0
  0
LINE
  5
   372
  8
0
  6
CONTINUOUS
 62
     2
 10
129.718083805861
 20
316.699964653254
 30
0.0
 11
129.718083805861
 21
316.779963433743
 31
0.0
  0
LINE
  5
   373
  8
0
  6
CONTINUOUS
 62
     2
 10
133.718083865466
 20
316.699964653254
 30
0.0
 11
133.718083865466
 21
316.779963433743
 31
0.0
  0
LINE
  5
   374
  8
0
  6
CONTINUOUS
 62
     2
 10
181.718084580722
 20
316.699964653254
 30
0.0
 11
181.718084580722
 21
316.779963433743
 31
0.0
  0
LINE
  5
   375
  8
0
  6
CONTINUOUS
 62
     2
 10
177.718084521117
 20
316.699964653254
 30
0.0
 11
177.718084521117
 21
316.779963433743
 31
0.0
  0
LINE
  5
   376
  8
0
  6
CONTINUOUS
 62
     2
 10
181.718084580722
 20
283.179962933064
 30
0.0
 11
181.718084580722
 21
283.259961713552
 31
0.0
  0
LINE
  5
   377
  8
0
  6
CONTINUOUS
 62
     2
 10
177.718084521117
 20
283.179962933064
 30
0.0
 11
177.718084521117
 21
283.259961713552
 31
0.0
  0
LINE
  5
   378
  8
0
  6
CONTINUOUS
 62
     2
 10
129.718083805861
 20
283.179962933064
 30
0.0
 11
129.718083805861
 21
283.259961713552
 31
0.0
  0
LINE
  5
   379
  8
0
  6
CONTINUOUS
 62
     2
 10
133.718083865466
 20
283.179962933064
 30
0.0
 11
133.718083865466
 21
283.259961713552
 31
0.0
  0
POLYLINE
  5
   37A
  8
0
  6
CONTINUOUS
 62
     1
 66
     1
 10
0.0
 20
0.0
 30
0.0
  0
VERTEX
  5
   37B
  8
0
  6
CONTINUOUS
 10
186.037473606877
 20
283.259962934256
 30
0.0
 40
0.0
 41
0.0
  0
VERTEX
  5
   37C
  8
0
  6
CONTINUOUS
 10
186.19808464746
 20
283.419965378048
 30
0.0
 40
0.0
 41
0.0
  0
SEQEND
  5
   37D
  8
0
  6
CONTINUOUS
 62
     1
  0
POLYLINE
  5
   37E
  8
0
  6
CONTINUOUS
 62
     1
 66
     1
 10
0.0
 20
0.0
 30
0.0
  0
VERTEX
  5
   37F
  8
0
  6
CONTINUOUS
 10
186.19808464746
 20
316.53996098876
 30
0.0
 40
0.0
 41
0.0
  0
VERTEX
  5
   380
  8
0
  6
CONTINUOUS
 10
186.037473606875
 20
316.69996343255
 30
0.0
 40
0.0
 41
0.0
  0
SEQEND
  5
   381
  8
0
  6
CONTINUOUS
 62
     1
  0
POLYLINE
  5
   382
  8
0
  6
CONTINUOUS
 62
     1
 66
     1
 10
0.0
 20
0.0
 30
0.0
  0
VERTEX
  5
   383
  8
0
  6
CONTINUOUS
 10
125.398692872372
 20
316.699963432538
 30
0.0
 40
0.0
 41
0.0
  0
VERTEX
  5
   384
  8
0
  6
CONTINUOUS
 10
125.238083739123
 20
316.539960988741
 30
0.0
 40
0.0
 41
0.0
  0
SEQEND
  5
   385
  8
0
  6
CONTINUOUS
 62
     1
  0
POLYLINE
  5
   386
  8
0
  6
CONTINUOUS
 62
     1
 66
     1
 10
0.0
 20
0.0
 30
0.0
  0
VERTEX
  5
   387
  8
0
  6
CONTINUOUS
 10
125.238083739123
 20
283.419965378064
 30
0.0
 40
0.0
 41
0.0
  0
VERTEX
  5
   388
  8
0
  6
CONTINUOUS
 10
125.398692872373
 20
283.259962934269
 30
0.0
 40
0.0
 41
0.0
  0
SEQEND
  5
   389
  8
0
  6
CONTINUOUS
 62
     1
  0
LINE
  5
   38A
  8
0
  6
CONTINUOUS
 62
     1
 10
147.718084074082
 20
285.819962972403
 30
0.0
 11
163.718084312501
 21
285.819962972403
 31
0.0
  0
LINE
  5
   38B
  8
0
  6
CONTINUOUS
 62
     1
 10
164.118084318461
 20
286.219965419769
 30
0.0
 11
164.118084318461
 21
314.139960952997
 31
0.0
  0
LINE
  5
   38C
  8
0
  6
CONTINUOUS
 62
     1
 10
147.318084068122
 20
286.219965419769
 30
0.0
 11
147.318084068122
 21
314.139960952997
 31
0.0
  0
LINE
  5
   38D
  8
0
  6
CONTINUOUS
 62
     2
 10
186.198084647479
 20
283.419965378046
 30
0.0
 11
186.198084647479
 21
316.53996098876
 31
0.0
  0
LINE
  5
   38E
  8
0
  6
CONTINUOUS
 62
     2
 10
125.238083739104
 20
283.419965378046
 30
0.0
 11
125.238083739104
 21
316.53996098876
 31
0.0
  0
LINE
  5
   38F
  8
0
  6
CONTINUOUS
 62
     1
 10
183.654510390827
 20
283.259962934256
 30
0.0
 11
185.880411455489
 21
283.259962934256
 31
0.0
  0
LINE
  5
   390
  8
0
  6
CONTINUOUS
 62
     1
 10
125.555754642275
 20
283.259962934256
 30
0.0
 11
127.787230505605
 21
283.259962934256
 31
0.0
  0
LINE
  5
   391
  8
0
  6
CONTINUOUS
 62
     1
 10
185.880411455489
 20
283.259962934256
 30
0.0
 11
186.037473606877
 21
283.259962934256
 31
0.0
  0
LINE
  5
   392
  8
0
  6
CONTINUOUS
 62
     1
 10
127.787230505605
 20
283.259962934256
 30
0.0
 11
183.654510390827
 21
283.259962934256
 31
0.0
  0
LINE
  5
   393
  8
0
  6
CONTINUOUS
 62
     1
 10
125.398692872357
 20
283.259962934256
 30
0.0
 11
125.555754642275
 21
283.259962934256
 31
0.0
  0
LINE
  5
   394
  8
0
  6
CONTINUOUS
 62
     2
 10
177.718084521117
 20
288.512012573064
 30
0.0
 11
178.434940916076
 21
288.652613161097
 31
0.0
  0
POLYLINE
  5
   395
  8
0
  6
CONTINUOUS
 62
     1
 66
     1
 10
0.0
 20
0.0
 30
0.0
  0
VERTEX
  5
   396
  8
0
  6
CONTINUOUS
 10
183.457773735367
 20
286.0702594506
 30
0.0
 40
0.0
 41
0.0
  0
VERTEX
  5
   397
  8
0
  6
CONTINUOUS
 10
183.703895138035
 20
286.611496727244
 30
0.0
 40
0.0
 41
0.0
  0
VERTEX
  5
   398
  8
0
  6
CONTINUOUS
 10
183.718083389817
 20
286.779962986705
 30
0.0
 40
0.0
 41
0.0
  0
SEQEND
  5
   399
  8
0
  6
CONTINUOUS
 62
     1
  0
POLYLINE
  5
   39A
  8
0
  6
CONTINUOUS
 62
     1
 66
     1
 10
0.0
 20
0.0
 30
0.0
  0
VERTEX
  5
   39B
  8
0
  6
CONTINUOUS
 10
183.718083389817
 20
286.779962986711
 30
0.0
 40
0.0
 41
0.0
  0
VERTEX
  5
   39C
  8
0
  6
CONTINUOUS
 10
183.563328623858
 20
287.330931621947
 30
0.0
 40
0.0
 41
0.0
  0
VERTEX
  5
   39D
  8
0
  6
CONTINUOUS
 10
183.457773735366
 20
287.489666522816
 30
0.0
 40
0.0
 41
0.0
  0
SEQEND
  5
   39E
  8
0
  6
CONTINUOUS
 62
     1
  0
POLYLINE
  5
   39F
  8
0
  6
CONTINUOUS
 62
     1
 66
     1
 10
0.0
 20
0.0
 30
0.0
  0
VERTEX
  5
   3A0
  8
0
  6
CONTINUOUS
 10
183.454219031826
 20
287.494118234283
 30
0.0
 40
0.0
 41
0.0
  0
VERTEX
  5
   3A1
  8
0
  6
CONTINUOUS
 10
182.977170714574
 20
287.939607730799
 30
0.0
 40
0.0
 41
0.0
  0
VERTEX
  5
   3A2
  8
0
  6
CONTINUOUS
 10
182.291551594426
 20
288.311064033666
 30
0.0
 40
0.0
 41
0.0
  0
VERTEX
  5
   3A3
  8
0
  6
CONTINUOUS
 10
180.481830319113
 20
288.743150239762
 30
0.0
 40
0.0
 41
0.0
  0
VERTEX
  5
   3A4
  8
0
  6
CONTINUOUS
 10
178.480798669785
 20
288.681839463828
 30
0.0
 40
0.0
 41
0.0
  0
SEQEND
  5
   3A5
  8
0
  6
CONTINUOUS
 62
     1
  0
POLYLINE
  5
   3A6
  8
0
  6
CONTINUOUS
 62
     1
 66
     1
 10
0.0
 20
0.0
 30
0.0
  0
VERTEX
  5
   3A7
  8
0
  6
CONTINUOUS
 10
177.718098620762
 20
288.511963726732
 30
0.0
 40
0.0
 41
0.0
  0
VERTEX
  5
   3A8
  8
0
  6
CONTINUOUS
 10
176.653698804728
 20
288.065474106465
 30
0.0
 40
0.0
 41
0.0
  0
VERTEX
  5
   3A9
  8
0
  6
CONTINUOUS
 10
175.959478349799
 20
287.46396035166
 30
0.0
 40
0.0
 41
0.0
  0
VERTEX
  5
   3AA
  8
0
  6
CONTINUOUS
 10
175.718084491316
 20
286.779962986711
 30
0.0
 40
0.0
 41
0.0
  0
SEQEND
  5
   3AB
  8
0
  6
CONTINUOUS
 62
     1
  0
POLYLINE
  5
   3AC
  8
0
  6
CONTINUOUS
 62
     1
 66
     1
 10
0.0
 20
0.0
 30
0.0
  0
VERTEX
  5
   3AD
  8
0
  6
CONTINUOUS
 10
175.991156662826
 20
286.053862715959
 30
0.0
 40
0.0
 41
0.0
  0
VERTEX
  5
   3AE
  8
0
  6
CONTINUOUS
 10
176.85291180663
 20
285.38433628784
 30
0.0
 40
0.0
 41
0.0
  0
VERTEX
  5
   3AF
  8
0
  6
CONTINUOUS
 10
178.169294798485
 20
284.936019808847
 30
0.0
 40
0.0
 41
0.0
  0
VERTEX
  5
   3B0
  8
0
  6
CONTINUOUS
 10
179.730514163508
 20
284.779972804982
 30
0.0
 40
0.0
 41
0.0
  0
VERTEX
  5
   3B1
  8
0
  6
CONTINUOUS
 10
181.289772193626
 20
284.940870697476
 30
0.0
 40
0.0
 41
0.0
  0
VERTEX
  5
   3B2
  8
0
  6
CONTINUOUS
 10
182.600560456119
 20
285.39327040104
 30
0.0
 40
0.0
 41
0.0
  0
VERTEX
  5
   3B3
  8
0
  6
CONTINUOUS
 10
183.453955302171
 20
286.065462411878
 30
0.0
 40
0.0
 41
0.0
  0
SEQEND
  5
   3B4
  8
0
  6
CONTINUOUS
 62
     1
  0
POLYLINE
  5
   3B5
  8
0
  6
CONTINUOUS
 62
     1
 66
     1
 10
0.0
 20
0.0
 30
0.0
  0
VERTEX
  5
   3B6
  8
0
  6
CONTINUOUS
 10
175.718084491316
 20
286.779962986705
 30
0.0
 40
0.0
 41
0.0
  0
VERTEX
  5
   3B7
  8
0
  6
CONTINUOUS
 10
175.870817924305
 20
286.233178295388
 30
0.0
 40
0.0
 41
0.0
  0
SEQEND
  5
   3B8
  8
0
  6
CONTINUOUS
 62
     1
  0
POLYLINE
  5
   3B9
  8
0
  6
CONTINUOUS
 62
     1
 66
     1
 10
0.0
 20
0.0
 30
0.0
  0
VERTEX
  5
   3BA
  8
0
  6
CONTINUOUS
 10
178.431359968681
 20
288.673664615491
 30
0.0
 40
0.0
 41
0.0
  0
VERTEX
  5
   3BB
  8
0
  6
CONTINUOUS
 10
180.34739856471
 20
288.755073900601
 30
0.0
 40
0.0
 41
0.0
  0
VERTEX
  5
   3BC
  8
0
  6
CONTINUOUS
 10
180.982721706155
 20
288.677385572849
 30
0.0
 40
0.0
 41
0.0
  0
SEQEND
  5
   3BD
  8
0
  6
CONTINUOUS
 62
     1
  0
LINE
  5
   3BE
  8
0
  6
CONTINUOUS
 62
     1
 10
125.555754642275
 20
316.699963432551
 30
0.0
 11
127.781657995756
 21
316.699963432551
 31
0.0
  0
LINE
  5
   3BF
  8
0
  6
CONTINUOUS
 62
     1
 10
183.64893482922
 20
316.699963432551
 30
0.0
 11
185.880411455489
 21
316.699963432551
 31
0.0
  0
LINE
  5
   3C0
  8
0
  6
CONTINUOUS
 62
     1
 10
125.398692872357
 20
316.699963432551
 30
0.0
 11
125.555754642275
 21
316.699963432551
 31
0.0
  0
LINE
  5
   3C1
  8
0
  6
CONTINUOUS
 62
     1
 10
127.781657995756
 20
316.699963432551
 30
0.0
 11
183.64893482922
 21
316.699963432551
 31
0.0
  0
LINE
  5
   3C2
  8
0
  6
CONTINUOUS
 62
     1
 10
185.880411455489
 20
316.699963432551
 30
0.0
 11
186.037473606877
 21
316.699963432551
 31
0.0
  0
LINE
  5
   3C3
  8
0
  6
CONTINUOUS
 62
     7
 10
177.318084515166
 20
285.258271069501
 30
0.0
 11
177.318084515166
 21
285.303211255718
 31
0.0
  0
LINE
  5
   3C4
  8
0
  6
CONTINUOUS
 62
     7
 10
176.518084503245
 20
287.840021596254
 30
0.0
 11
176.518084503245
 21
287.911597525055
 31
0.0
  0
LINE
  5
   3C5
  8
0
  6
CONTINUOUS
 62
     7
 10
176.56969583213
 20
287.939963003996
 30
0.0
 11
176.648972871885
 21
287.939963003996
 31
0.0
  0
LINE
  5
   3C6
  8
0
  6
CONTINUOUS
 62
     7
 10
182.776679872375
 20
287.939963003996
 30
0.0
 11
182.83094012709
 21
287.939963003996
 31
0.0
  0
LINE
  5
   3C7
  8
0
  6
CONTINUOUS
 62
     7
 10
182.918084598613
 20
287.823578724915
 30
0.0
 11
182.918084598613
 21
287.89574669474
 31
0.0
  0
LINE
  5
   3C8
  8
0
  6
CONTINUOUS
 62
     7
 10
182.118084586692
 20
285.267914624333
 30
0.0
 11
182.118084586692
 21
285.298566480258
 31
0.0
  0
LINE
  5
   3C9
  8
0
  6
CONTINUOUS
 62
     7
 10
182.918084598613
 20
285.644239092831
 30
0.0
 11
182.918084598613
 21
285.77086873339
 31
0.0
  0
LINE
  5
   3CA
  8
0
  6
CONTINUOUS
 62
     7
 10
183.280350381589
 20
286.099962976578
 30
0.0
 11
183.342577250192
 21
286.099962976578
 31
0.0
  0
LINE
  5
   3CB
  8
0
  6
CONTINUOUS
 62
     7
 10
176.518084503245
 20
285.664179278675
 30
0.0
 11
176.518084503245
 21
285.754566242912
 31
0.0
  0
ARC
  5
   3CC
  8
0
  6
CONTINUOUS
 62
     7
 10
141.718083984675
 20
259.179962575436
 30
0.0
 40
1.68000033020965
 50
180.001457121504
 51
359.999375523083
  0
ARC
  5
   3CD
  8
0
  6
CONTINUOUS
 62
     7
 10
141.718083984675
 20
259.179962575436
 30
0.0
 40
1.68000033020967
 50
56.8538214296334
 51
123.000138602976
  0
ARC
  5
   3CE
  8
0
  6
CONTINUOUS
 62
     7
 10
141.718083984676
 20
259.179962575436
 30
0.0
 40
1.68000033020923
 50
1.76936817513076E-3
 51
45.29441420195
  0
ARC
  5
   3CF
  8
0
  6
CONTINUOUS
 62
     7
 10
141.718083984675
 20
259.179962575436
 30
0.0
 40
1.68000033020944
 50
134.706398935013
 51
179.998230632236
  0
LINE
  5
   3D0
  8
0
  6
CONTINUOUS
 62
     7
 10
140.518083966794
 20
247.979962408543
 30
0.0
 11
140.518083966794
 21
249.579962432385
 31
0.0
  0
LINE
  5
   3D1
  8
0
  6
CONTINUOUS
 62
     7
 10
139.518083951893
 20
249.579962432385
 30
0.0
 11
140.518083966794
 21
249.579962432385
 31
0.0
  0
LINE
  5
   3D2
  8
0
  6
CONTINUOUS
 62
     7
 10
139.518083951893
 20
251.179962456226
 30
0.0
 11
143.918084017458
 21
251.179962456226
 31
0.0
  0
LINE
  5
   3D3
  8
0
  6
CONTINUOUS
 62
     7
 10
142.918084002556
 20
247.979962408543
 30
0.0
 11
142.918084002556
 21
249.579962432385
 31
0.0
  0
LINE
  5
   3D4
  8
0
  6
CONTINUOUS
 62
     7
 10
142.918084002557
 20
249.579962432385
 30
0.0
 11
143.918084017458
 21
249.579962432385
 31
0.0
  0
LINE
  5
   3D5
  8
0
  6
CONTINUOUS
 62
     7
 10
143.918084017458
 20
247.979962408543
 30
0.0
 11
143.918084017458
 21
248.779962420464
 31
0.0
  0
LINE
  5
   3D6
  8
0
  6
CONTINUOUS
 62
     7
 10
139.518083951893
 20
247.979962408543
 30
0.0
 11
139.518083951893
 21
248.779962420464
 31
0.0
  0
LINE
  5
   3D7
  8
0
  6
CONTINUOUS
 62
     7
 10
167.518084369125
 20
251.179962456226
 30
0.0
 11
171.91808443469
 21
251.179962456226
 31
0.0
  0
LINE
  5
   3D8
  8
0
  6
CONTINUOUS
 62
     7
 10
170.918084419789
 20
247.979962408543
 30
0.0
 11
170.918084419789
 21
249.579962432385
 31
0.0
  0
LINE
  5
   3D9
  8
0
  6
CONTINUOUS
 62
     7
 10
170.918084419789
 20
249.579962432385
 30
0.0
 11
171.91808443469
 21
249.579962432385
 31
0.0
  0
LINE
  5
   3DA
  8
0
  6
CONTINUOUS
 62
     7
 10
168.518084384027
 20
247.979962408543
 30
0.0
 11
168.518084384027
 21
249.579962432385
 31
0.0
  0
LINE
  5
   3DB
  8
0
  6
CONTINUOUS
 62
     7
 10
167.518084369125
 20
249.579962432385
 30
0.0
 11
168.518084384026
 21
249.579962432385
 31
0.0
  0
LINE
  5
   3DC
  8
0
  6
CONTINUOUS
 62
     7
 10
167.518084369125
 20
247.979962408543
 30
0.0
 11
167.518084369125
 21
248.779962420464
 31
0.0
  0
LINE
  5
   3DD
  8
0
  6
CONTINUOUS
 62
     7
 10
171.91808443469
 20
247.979962408543
 30
0.0
 11
171.91808443469
 21
248.779962420464
 31
0.0
  0
LINE
  5
   3DE
  8
0
  6
CONTINUOUS
 62
     7
 10
195.718084789338
 20
249.579962432384
 30
0.0
 11
196.518084801259
 21
249.579962432384
 31
0.0
  0
LINE
  5
   3DF
  8
0
  6
CONTINUOUS
 62
     7
 10
196.518084801259
 20
248.779962420464
 30
0.0
 11
196.518084801259
 21
249.579962432385
 31
0.0
  0
ARC
  5
   3E0
  8
0
  6
CONTINUOUS
 62
     7
 10
195.718074771915
 20
248.779972437751
 30
0.0
 40
0.800021378969993
 50
270.000717436069
 51
359.999282573543
  0
ARC
  5
   3E1
  8
0
  6
CONTINUOUS
 62
     7
 10
87.7180931974357
 20
248.779972437752
 30
0.0
 40
0.800021378970389
 50
180.000717426457
 51
269.999282563901
  0
LINE
  5
   3E2
  8
0
  6
CONTINUOUS
 62
     7
 10
86.9180831680911
 20
248.779962420464
 30
0.0
 11
86.9180831680911
 21
249.579962432385
 31
0.0
  0
ARC
  5
   3E3
  8
0
  6
CONTINUOUS
 62
     7
 10
169.718084401908
 20
259.179962575436
 30
0.0
 40
1.68000033020999
 50
134.416970462374
 51
180.0
  0
ARC
  5
   3E4
  8
0
  6
CONTINUOUS
 62
     7
 10
169.718084401908
 20
259.179962575436
 30
0.0
 40
1.68000033020974
 50
180.0
 51
360.0
  0
ARC
  5
   3E5
  8
0
  6
CONTINUOUS
 62
     7
 10
169.718084401908
 20
259.179962575436
 30
0.0
 40
1.68000033020972
 50
45.584685714089
 51
134.416970462367
  0
ARC
  5
   3E6
  8
0
  6
CONTINUOUS
 62
     7
 10
169.718084401908
 20
259.179962575436
 30
0.0
 40
1.68000033020951
 50
0.0
 51
45.5846857140939
  0
LINE
  5
   3E7
  8
0
  6
CONTINUOUS
 62
     7
 10
197.718084819142
 20
252.779962480068
 30
0.0
 11
197.718084819142
 21
267.739963313341
 31
0.0
  0
LINE
  5
   3E8
  8
0
  6
CONTINUOUS
 62
     7
 10
196.518084801259
 20
252.779962480068
 30
0.0
 11
197.71808481914
 21
252.779962480068
 31
0.0
  0
LINE
  5
   3E9
  8
0
  6
CONTINUOUS
 62
     7
 10
196.118084795298
 20
251.979962468147
 30
0.0
 11
196.118084795298
 21
252.779962480068
 31
0.0
  0
LINE
  5
   3EA
  8
0
  6
CONTINUOUS
 62
     7
 10
194.918084777417
 20
251.979962468147
 30
0.0
 11
196.118084795298
 21
251.979962468147
 31
0.0
  0
LINE
  5
   3EB
  8
0
  6
CONTINUOUS
 62
     7
 10
87.3180831740519
 20
251.979962468147
 30
0.0
 11
87.3180831740519
 21
252.779962480068
 31
0.0
  0
LINE
  5
   3EC
  8
0
  6
CONTINUOUS
 62
     7
 10
85.7180831502101
 20
252.779962480068
 30
0.0
 11
86.9180831680915
 21
252.779962480068
 31
0.0
  0
LINE
  5
   3ED
  8
0
  6
CONTINUOUS
 62
     7
 10
85.7180831502082
 20
252.779962480068
 30
0.0
 11
85.7180831502082
 21
267.739963313341
 31
0.0
  0
LINE
  5
   3EE
  8
0
  6
CONTINUOUS
 62
     7
 10
171.91808443469
 20
247.979962408543
 30
0.0
 11
195.718084789338
 21
247.979962408543
 31
0.0
  0
LINE
  5
   3EF
  8
0
  6
CONTINUOUS
 62
     7
 10
87.7180831800124
 20
247.979962408543
 30
0.0
 11
111.51808353466
 21
247.979962408543
 31
0.0
  0
LINE
  5
   3F0
  8
0
  6
CONTINUOUS
 62
     7
 10
143.918084017458
 20
247.979962408543
 30
0.0
 11
167.518084369125
 21
247.979962408543
 31
0.0
  0
LINE
  5
   3F1
  8
0
  6
CONTINUOUS
 62
     7
 10
139.518083951893
 20
247.979962408543
 30
0.0
 11
140.518083966794
 21
247.979962408543
 31
0.0
  0
LINE
  5
   3F2
  8
0
  6
CONTINUOUS
 62
     7
 10
142.918084002557
 20
247.979962408543
 30
0.0
 11
143.918084017458
 21
247.979962408543
 31
0.0
  0
LINE
  5
   3F3
  8
0
  6
CONTINUOUS
 62
     7
 10
170.918084419789
 20
247.979962408543
 30
0.0
 11
171.91808443469
 21
247.979962408543
 31
0.0
  0
LINE
  5
   3F4
  8
0
  6
CONTINUOUS
 62
     7
 10
167.518084369125
 20
247.979962408543
 30
0.0
 11
168.518084384026
 21
247.979962408543
 31
0.0
  0
LINE
  5
   3F5
  8
0
  6
CONTINUOUS
 62
     7
 10
86.9180831680915
 20
249.579962432384
 30
0.0
 11
87.7180831800124
 21
249.579962432384
 31
0.0
  0
LINE
  5
   3F6
  8
0
  6
CONTINUOUS
 62
     7
 10
87.3180831740519
 20
251.979962468142
 30
0.0
 11
88.5180831919333
 21
251.979962468142
 31
0.0
  0
CIRCLE
  5
   3F7
  8
0
  6
CONTINUOUS
 62
     7
 10
155.718084193325
 20
250.379962444224
 30
0.0
 40
0.880000013112992
  0
LINE
  5
   3F8
  8
0
  6
CONTINUOUS
 62
     7
 10
143.918084017458
 20
248.779962420464
 30
0.0
 11
143.918084017458
 21
252.779962480068
 31
0.0
  0
LINE
  5
   3F9
  8
0
  6
CONTINUOUS
 62
     7
 10
139.518083951893
 20
248.779962420464
 30
0.0
 11
139.518083951893
 21
252.779962480068
 31
0.0
  0
LINE
  5
   3FA
  8
0
  6
CONTINUOUS
 62
     7
 10
167.518084369125
 20
248.779962420464
 30
0.0
 11
167.518084369125
 21
252.779962480068
 31
0.0
  0
LINE
  5
   3FB
  8
0
  6
CONTINUOUS
 62
     7
 10
171.91808443469
 20
248.779962420464
 30
0.0
 11
171.91808443469
 21
252.779962480068
 31
0.0
  0
LINE
  5
   3FC
  8
0
  6
CONTINUOUS
 62
     7
 10
194.918084777417
 20
249.579962432385
 30
0.0
 11
194.918084777417
 21
251.979962468147
 31
0.0
  0
LINE
  5
   3FD
  8
0
  6
CONTINUOUS
 62
     7
 10
194.918084777417
 20
249.579962432384
 30
0.0
 11
195.718084789338
 21
249.579962432384
 31
0.0
  0
LINE
  5
   3FE
  8
0
  6
CONTINUOUS
 62
     7
 10
88.5180831919333
 20
251.979962468147
 30
0.0
 11
88.5180831919333
 21
252.779962480068
 31
0.0
  0
LINE
  5
   3FF
  8
0
  6
CONTINUOUS
 62
     7
 10
194.918084777417
 20
251.979962468147
 30
0.0
 11
194.918084777417
 21
252.779962480068
 31
0.0
  0
LINE
  5
   400
  8
0
  6
CONTINUOUS
 62
     7
 10
171.91808443469
 20
252.779962480068
 30
0.0
 11
194.918084777417
 21
252.779962480068
 31
0.0
  0
LINE
  5
   401
  8
0
  6
CONTINUOUS
 62
     7
 10
143.918084017458
 20
252.779962480068
 30
0.0
 11
167.518084369125
 21
252.779962480068
 31
0.0
  0
LINE
  5
   402
  8
0
  6
CONTINUOUS
 62
     7
 10
116.518083609166
 20
252.779962480068
 30
0.0
 11
139.518083951893
 21
252.779962480068
 31
0.0
  0
LINE
  5
   403
  8
0
  6
CONTINUOUS
 62
     7
 10
87.7180831800124
 20
249.579962432384
 30
0.0
 11
88.5180831919333
 21
249.579962432384
 31
0.0
  0
LINE
  5
   404
  8
0
  6
CONTINUOUS
 62
     7
 10
88.5180831919333
 20
249.579962432385
 30
0.0
 11
88.5180831919333
 21
251.979962468147
 31
0.0
  0
LINE
  5
   405
  8
0
  6
CONTINUOUS
 62
     7
 10
180.918084568745
 20
288.576917359188
 30
0.0
 11
180.918084568745
 21
288.60622033814
 31
0.0
  0
LINE
  5
   406
  8
0
  6
CONTINUOUS
 62
     7
 10
178.518084532982
 20
288.503650756533
 30
0.0
 11
178.518084532982
 21
288.594007203192
 31
0.0
  0
LINE
  5
   407
  8
0
  6
CONTINUOUS
 62
     7
 10
147.318084068122
 20
289.699360827479
 30
0.0
 11
164.118084318461
 21
289.699360827479
 31
0.0
  0
LINE
  5
   408
  8
0
  6
CONTINUOUS
 62
     7
 10
147.318084068122
 20
312.992633976515
 30
0.0
 11
147.718084074082
 21
312.992633976515
 31
0.0
  0
LINE
  5
   409
  8
0
  6
CONTINUOUS
 62
     7
 10
163.718084312501
 20
312.992633976515
 30
0.0
 11
164.118084318461
 21
312.992633976515
 31
0.0
  0
LINE
  5
   40A
  8
0
  6
CONTINUOUS
 62
     7
 10
126.59808375937
 20
283.179962933064
 30
0.0
 11
126.59808375937
 21
283.259961713552
 31
0.0
  0
LINE
  5
   40B
  8
0
  6
CONTINUOUS
 62
     7
 10
126.59808375937
 20
316.699964653254
 30
0.0
 11
126.59808375937
 21
316.779963433743
 31
0.0
  0
POLYLINE
  5
   40C
  8
0
  6
CONTINUOUS
 62
     7
 66
     1
 10
0.0
 20
0.0
 30
0.0
  0
VERTEX
  5
   40D
  8
0
  6
CONTINUOUS
 10
147.835834676039
 20
285.982268625102
 30
0.0
 40
0.0
 41
0.0
  0
VERTEX
  5
   40E
  8
0
  6
CONTINUOUS
 10
148.278083488512
 20
286.139962977171
 30
0.0
 40
0.0
 41
0.0
  0
SEQEND
  5
   40F
  8
0
  6
CONTINUOUS
 62
     7
  0
POLYLINE
  5
   410
  8
0
  6
CONTINUOUS
 62
     7
 66
     1
 10
0.0
 20
0.0
 30
0.0
  0
VERTEX
  5
   411
  8
0
  6
CONTINUOUS
 10
163.600339117895
 20
285.982268025507
 30
0.0
 40
0.0
 41
0.0
  0
VERTEX
  5
   412
  8
0
  6
CONTINUOUS
 10
163.158084890131
 20
286.13996297717
 30
0.0
 40
0.0
 41
0.0
  0
SEQEND
  5
   413
  8
0
  6
CONTINUOUS
 62
     7
  0
LINE
  5
   414
  8
0
  6
CONTINUOUS
 62
     7
 10
147.878084686818
 20
285.979962974787
 30
0.0
 11
163.558083699765
 21
285.979962974787
 31
0.0
  0
POLYLINE
  5
   415
  8
0
  6
CONTINUOUS
 62
     7
 66
     1
 10
0.0
 20
0.0
 30
0.0
  0
VERTEX
  5
   416
  8
0
  6
CONTINUOUS
 10
148.278084082427
 20
289.011113361532
 30
0.0
 40
0.0
 41
0.0
  0
VERTEX
  5
   417
  8
0
  6
CONTINUOUS
 10
147.81726302188
 20
289.170504515604
 30
0.0
 40
0.0
 41
0.0
  0
SEQEND
  5
   418
  8
0
  6
CONTINUOUS
 62
     7
  0
POLYLINE
  5
   419
  8
0
  6
CONTINUOUS
 62
     7
 66
     1
 10
0.0
 20
0.0
 30
0.0
  0
VERTEX
  5
   41A
  8
0
  6
CONTINUOUS
 10
163.158084304156
 20
289.011113361532
 30
0.0
 40
0.0
 41
0.0
  0
VERTEX
  5
   41B
  8
0
  6
CONTINUOUS
 10
163.618905363449
 20
289.170504515604
 30
0.0
 40
0.0
 41
0.0
  0
SEQEND
  5
   41C
  8
0
  6
CONTINUOUS
 62
     7
  0
LINE
  5
   41D
  8
0
  6
CONTINUOUS
 62
     7
 10
147.478084680857
 20
289.227716929432
 30
0.0
 11
147.728438688494
 21
289.17957850098
 31
0.0
  0
LINE
  5
   41E
  8
0
  6
CONTINUOUS
 62
     7
 10
147.728438688494
 20
289.17957850098
 30
0.0
 11
147.817235686888
 21
289.170502573111
 31
0.0
  0
LINE
  5
   41F
  8
0
  6
CONTINUOUS
 62
     7
 10
163.618929647937
 20
289.170502573111
 30
0.0
 11
163.707735801604
 21
289.17957850098
 31
0.0
  0
LINE
  5
   420
  8
0
  6
CONTINUOUS
 62
     7
 10
163.707735801604
 20
289.17957850098
 30
0.0
 11
163.958083705725
 21
289.227716929432
 31
0.0
  0
LINE
  5
   421
  8
0
  6
CONTINUOUS
 62
     7
 10
86.9180831680915
 20
252.779962479569
 30
0.0
 11
87.7180831800124
 21
252.779962479569
 31
0.0
  0
LINE
  5
   422
  8
0
  6
CONTINUOUS
 62
     7
 10
195.718084789338
 20
252.779962479569
 30
0.0
 11
196.518084801259
 21
252.779962479569
 31
0.0
  0
LINE
  5
   423
  8
0
  6
CONTINUOUS
 62
     7
 10
86.9180831680915
 20
363.179964125156
 30
0.0
 11
87.7180831800124
 21
363.179964125156
 31
0.0
  0
LINE
  5
   424
  8
0
  6
CONTINUOUS
 62
     7
 10
195.718084789338
 20
363.179964125156
 30
0.0
 11
196.518084801259
 21
363.179964125156
 31
0.0
  0
LINE
  5
   425
  8
0
  6
CONTINUOUS
 62
     7
 10
184.838084627212
 20
283.179962933064
 30
0.0
 11
184.838084627212
 21
283.259961713552
 31
0.0
  0
LINE
  5
   426
  8
0
  6
CONTINUOUS
 62
     7
 10
184.838084627212
 20
316.699964653254
 30
0.0
 11
184.838084627212
 21
316.779963433743
 31
0.0
  0
LINE
  5
   427
  8
0
  6
CONTINUOUS
 62
     7
 10
115.918083600225
 20
281.979962915182
 30
0.0
 11
116.318083606186
 21
281.979962915182
 31
0.0
  0
LINE
  5
   428
  8
0
  6
CONTINUOUS
 62
     7
 10
195.118084780397
 20
281.979962915182
 30
0.0
 11
195.518084786358
 21
281.979962915182
 31
0.0
  0
LINE
  5
   429
  8
0
  6
CONTINUOUS
 62
     7
 10
113.85535773941
 20
281.979962915182
 30
0.0
 11
115.918083600225
 21
281.979962915182
 31
0.0
  0
LINE
  5
   42A
  8
0
  6
CONTINUOUS
 62
     7
 10
195.518084786358
 20
281.979962915182
 30
0.0
 11
197.580812173052
 21
281.979962915182
 31
0.0
  0
LINE
  5
   42B
  8
0
  6
CONTINUOUS
 62
     7
 10
124.558086170377
 20
281.979962915182
 30
0.0
 11
124.958086176338
 21
281.979962915182
 31
0.0
  0
LINE
  5
   42C
  8
0
  6
CONTINUOUS
 62
     7
 10
123.118083707514
 20
281.979962915182
 30
0.0
 11
123.518083713474
 21
281.979962915182
 31
0.0
  0
LINE
  5
   42D
  8
0
  6
CONTINUOUS
 62
     7
 10
121.67808124465
 20
281.979962915182
 30
0.0
 11
122.07808125061
 21
281.979962915182
 31
0.0
  0
LINE
  5
   42E
  8
0
  6
CONTINUOUS
 62
     7
 10
117.358086063089
 20
281.979962915182
 30
0.0
 11
117.75808606905
 21
281.979962915182
 31
0.0
  0
LINE
  5
   42F
  8
0
  6
CONTINUOUS
 62
     7
 10
120.238084885301
 20
281.979962915182
 30
0.0
 11
120.638084891262
 21
281.979962915182
 31
0.0
  0
LINE
  5
   430
  8
0
  6
CONTINUOUS
 62
     7
 10
118.798082422437
 20
281.979962915182
 30
0.0
 11
119.198082428398
 21
281.979962915182
 31
0.0
  0
LINE
  5
   431
  8
0
  6
CONTINUOUS
 62
     7
 10
186.478084499063
 20
281.979962915182
 30
0.0
 11
186.878084505024
 21
281.979962915182
 31
0.0
  0
LINE
  5
   432
  8
0
  6
CONTINUOUS
 62
     7
 10
187.918084673109
 20
281.979962915182
 30
0.0
 11
188.318084679069
 21
281.979962915182
 31
0.0
  0
LINE
  5
   433
  8
0
  6
CONTINUOUS
 62
     7
 10
189.358084656419
 20
281.979962915182
 30
0.0
 11
189.75808466238
 21
281.979962915182
 31
0.0
  0
LINE
  5
   434
  8
0
  6
CONTINUOUS
 62
     7
 10
193.678084797086
 20
281.979962915182
 30
0.0
 11
194.078084612312
 21
281.979962915182
 31
0.0
  0
LINE
  5
   435
  8
0
  6
CONTINUOUS
 62
     7
 10
190.798084717216
 20
281.979962915182
 30
0.0
 11
191.198084717216
 21
281.979962915182
 31
0.0
  0
LINE
  5
   436
  8
0
  6
CONTINUOUS
 62
     7
 10
192.238084718408
 20
281.979962915182
 30
0.0
 11
192.638084819736
 21
281.979962915182
 31
0.0
  0
LINE
  5
   437
  8
0
  6
CONTINUOUS
 62
     7
 10
115.918083600225
 20
317.979963451624
 30
0.0
 11
116.318083606186
 21
317.979963451624
 31
0.0
  0
LINE
  5
   438
  8
0
  6
CONTINUOUS
 62
     7
 10
195.118084780397
 20
317.979963451624
 30
0.0
 11
195.518084786358
 21
317.979963451624
 31
0.0
  0
LINE
  5
   439
  8
0
  6
CONTINUOUS
 62
     7
 10
195.518084786358
 20
317.979963451624
 30
0.0
 11
197.578678231369
 21
317.979963451624
 31
0.0
  0
LINE
  5
   43A
  8
0
  6
CONTINUOUS
 62
     7
 10
124.558086170377
 20
317.979963451624
 30
0.0
 11
124.958086176338
 21
317.979963451624
 31
0.0
  0
LINE
  5
   43B
  8
0
  6
CONTINUOUS
 62
     7
 10
123.118083707514
 20
317.979963451624
 30
0.0
 11
123.518083713474
 21
317.979963451624
 31
0.0
  0
LINE
  5
   43C
  8
0
  6
CONTINUOUS
 62
     7
 10
121.67808124465
 20
317.979963451624
 30
0.0
 11
122.07808125061
 21
317.979963451624
 31
0.0
  0
LINE
  5
   43D
  8
0
  6
CONTINUOUS
 62
     7
 10
117.358086063089
 20
317.979963451624
 30
0.0
 11
117.75808606905
 21
317.979963451624
 31
0.0
  0
LINE
  5
   43E
  8
0
  6
CONTINUOUS
 62
     7
 10
120.238084885301
 20
317.979963451624
 30
0.0
 11
120.638084891262
 21
317.979963451624
 31
0.0
  0
LINE
  5
   43F
  8
0
  6
CONTINUOUS
 62
     7
 10
118.798082422437
 20
317.979963451624
 30
0.0
 11
119.198082428398
 21
317.979963451624
 31
0.0
  0
LINE
  5
   440
  8
0
  6
CONTINUOUS
 62
     7
 10
186.478084499063
 20
317.979963451624
 30
0.0
 11
186.878084505024
 21
317.979963451624
 31
0.0
  0
LINE
  5
   441
  8
0
  6
CONTINUOUS
 62
     7
 10
187.918084673109
 20
317.979963451624
 30
0.0
 11
188.318084679069
 21
317.979963451624
 31
0.0
  0
LINE
  5
   442
  8
0
  6
CONTINUOUS
 62
     7
 10
189.358084656419
 20
317.979963451624
 30
0.0
 11
189.75808466238
 21
317.979963451624
 31
0.0
  0
LINE
  5
   443
  8
0
  6
CONTINUOUS
 62
     7
 10
193.678084797086
 20
317.979963451624
 30
0.0
 11
194.078084612312
 21
317.979963451624
 31
0.0
  0
LINE
  5
   444
  8
0
  6
CONTINUOUS
 62
     7
 10
190.798084717216
 20
317.979963451624
 30
0.0
 11
191.198084717216
 21
317.979963451624
 31
0.0
  0
LINE
  5
   445
  8
0
  6
CONTINUOUS
 62
     7
 10
192.238084718408
 20
317.979963451624
 30
0.0
 11
192.638084819736
 21
317.979963451624
 31
0.0
  0
LINE
  5
   446
  8
0
  6
CONTINUOUS
 62
     7
 10
85.71808315021
 20
281.979962915182
 30
0.0
 11
113.85535773941
 21
281.979962915182
 31
0.0
  0
LINE
  5
   447
  8
0
  6
CONTINUOUS
 62
     7
 10
197.580812173052
 20
281.979962915182
 30
0.0
 11
197.71808481914
 21
281.979962915182
 31
0.0
  0
LINE
  5
   448
  8
0
  6
CONTINUOUS
 62
     7
 10
85.7180831502101
 20
317.979963451622
 30
0.0
 11
85.8553573221775
 21
317.979963451622
 31
0.0
  0
LINE
  5
   449
  8
0
  6
CONTINUOUS
 62
     7
 10
197.578678231369
 20
317.979963451624
 30
0.0
 11
197.71808481914
 21
317.979963451624
 31
0.0
  0
LINE
  5
   44A
  8
0
  6
CONTINUOUS
 62
     7
 10
147.478084070506
 20
286.379962980747
 30
0.0
 11
147.478084070506
 21
286.517041840212
 31
0.0
  0
LINE
  5
   44B
  8
0
  6
CONTINUOUS
 62
     7
 10
147.478084070506
 20
286.517041840212
 30
0.0
 11
147.478084070506
 21
289.227716929432
 31
0.0
  0
LINE
  5
   44C
  8
0
  6
CONTINUOUS
 62
     7
 10
147.478084070506
 20
289.227716929432
 30
0.0
 11
147.478084070506
 21
289.276709850084
 31
0.0
  0
LINE
  5
   44D
  8
0
  6
CONTINUOUS
 62
     7
 10
163.958084316077
 20
286.379962980747
 30
0.0
 11
163.958084316077
 21
286.517041840212
 31
0.0
  0
LINE
  5
   44E
  8
0
  6
CONTINUOUS
 62
     7
 10
163.958084316077
 20
286.517041840212
 30
0.0
 11
163.958084316077
 21
289.227716929432
 31
0.0
  0
LINE
  5
   44F
  8
0
  6
CONTINUOUS
 62
     7
 10
163.958084316077
 20
289.227716929432
 30
0.0
 11
163.958084316077
 21
289.276709850084
 31
0.0
  0
CIRCLE
  5
   450
  8
0
  6
CONTINUOUS
 62
     7
 10
183.718084610524
 20
261.579962610699
 30
0.0
 40
4.80000007152558
  0
CIRCLE
  5
   451
  8
0
  6
CONTINUOUS
 62
     7
 10
155.718084193291
 20
261.579962610699
 30
0.0
 40
4.80000007152557
  0
CIRCLE
  5
   452
  8
0
  6
CONTINUOUS
 62
     7
 10
127.718083776059
 20
261.579962610699
 30
0.0
 40
4.80000007152558
  0
LINE
  5
   453
  8
0
  6
CONTINUOUS
 62
     7
 10
87.7180831800124
 20
252.779962479569
 30
0.0
 11
197.192024454348
 21
252.779962479569
 31
0.0
  0
LINE
  5
   454
  8
0
  6
CONTINUOUS
 62
     7
 10
196.518084801259
 20
252.779962480068
 30
0.0
 11
196.518084801259
 21
267.179962694645
 31
0.0
  0
LINE
  5
   455
  8
0
  6
CONTINUOUS
 62
     7
 10
86.9180831680914
 20
252.779962480068
 30
0.0
 11
86.9180831680914
 21
267.179962694645
 31
0.0
  0
LINE
  5
   456
  8
0
  6
CONTINUOUS
 62
     7
 10
86.2780807171484
 20
267.179962694145
 30
0.0
 11
88.1180831859729
 21
267.179962694145
 31
0.0
  0
LINE
  5
   457
  8
0
  6
CONTINUOUS
 62
     7
 10
195.318084783377
 20
267.179962694145
 30
0.0
 11
197.158084963383
 21
267.179962694145
 31
0.0
  0
LINE
  5
   458
  8
0
  6
CONTINUOUS
 62
     7
 10
86.2780807171484
 20
348.77996391058
 30
0.0
 11
88.1180831859729
 21
348.77996391058
 31
0.0
  0
LINE
  5
   459
  8
0
  6
CONTINUOUS
 62
     7
 10
195.318084783377
 20
348.77996391058
 30
0.0
 11
197.158084963383
 21
348.77996391058
 31
0.0
  0
CIRCLE
  5
   45A
  8
0
  6
CONTINUOUS
 62
     7
 10
183.718084610524
 20
354.379963994026
 30
0.0
 40
4.80000007152557
  0
CIRCLE
  5
   45B
  8
0
  6
CONTINUOUS
 62
     7
 10
127.718083776059
 20
354.379963994026
 30
0.0
 40
4.80000007152553
  0
LINE
  5
   45C
  8
0
  6
CONTINUOUS
 62
     7
 10
87.7180831800124
 20
363.179964125156
 30
0.0
 11
197.192024454348
 21
363.179964125156
 31
0.0
  0
LINE
  5
   45D
  8
0
  6
CONTINUOUS
 62
     7
 10
196.518084801259
 20
348.77996391058
 30
0.0
 11
196.518084801259
 21
363.179964125156
 31
0.0
  0
LINE
  5
   45E
  8
0
  6
CONTINUOUS
 62
     7
 10
86.9180831680914
 20
348.77996391058
 30
0.0
 11
86.9180831680914
 21
363.179964125156
 31
0.0
  0
LINE
  5
   45F
  8
0
  6
CONTINUOUS
 62
     7
 10
197.71808481914
 20
267.739963313341
 30
0.0
 11
197.71808481914
 21
281.979962915182
 31
0.0
  0
LINE
  5
   460
  8
0
  6
CONTINUOUS
 62
     7
 10
197.71808481914
 20
281.979962915182
 30
0.0
 11
197.71808481914
 21
317.979963451624
 31
0.0
  0
LINE
  5
   461
  8
0
  6
CONTINUOUS
 62
     7
 10
197.71808481914
 20
317.979963451624
 30
0.0
 11
197.71808481914
 21
348.219966343641
 31
0.0
  0
LINE
  5
   462
  8
0
  6
CONTINUOUS
 62
     7
 10
85.71808315021
 20
267.739963313341
 30
0.0
 11
85.71808315021
 21
281.979962915182
 31
0.0
  0
LINE
  5
   463
  8
0
  6
CONTINUOUS
 62
     7
 10
85.71808315021
 20
281.979962915182
 30
0.0
 11
85.71808315021
 21
317.979963451624
 31
0.0
  0
LINE
  5
   464
  8
0
  6
CONTINUOUS
 62
     7
 10
85.71808315021
 20
317.979963451624
 30
0.0
 11
85.71808315021
 21
348.219966343641
 31
0.0
  0
LINE
  5
   465
  8
0
  6
CONTINUOUS
 62
     7
 10
119.198082428398
 20
281.979962915182
 30
0.0
 11
120.238084885301
 21
281.979962915182
 31
0.0
  0
LINE
  5
   466
  8
0
  6
CONTINUOUS
 62
     7
 10
122.07808125061
 20
281.979962915182
 30
0.0
 11
123.118083707514
 21
281.979962915182
 31
0.0
  0
LINE
  5
   467
  8
0
  6
CONTINUOUS
 62
     7
 10
117.75808606905
 20
281.979962915182
 30
0.0
 11
118.798082422437
 21
281.979962915182
 31
0.0
  0
LINE
  5
   468
  8
0
  6
CONTINUOUS
 62
     7
 10
124.958086176338
 20
281.979962915182
 30
0.0
 11
125.238084959807
 21
281.979962915182
 31
0.0
  0
LINE
  5
   469
  8
0
  6
CONTINUOUS
 62
     7
 10
116.318083606186
 20
281.979962915182
 30
0.0
 11
117.358086063089
 21
281.979962915182
 31
0.0
  0
LINE
  5
   46A
  8
0
  6
CONTINUOUS
 62
     7
 10
123.518083713474
 20
281.979962915182
 30
0.0
 11
124.558086170377
 21
281.979962915182
 31
0.0
  0
LINE
  5
   46B
  8
0
  6
CONTINUOUS
 62
     7
 10
120.638084891262
 20
281.979962915182
 30
0.0
 11
121.67808124465
 21
281.979962915182
 31
0.0
  0
LINE
  5
   46C
  8
0
  6
CONTINUOUS
 62
     7
 10
85.71808315021
 20
317.979963451624
 30
0.0
 11
118.798082422437
 21
317.979963451624
 31
0.0
  0
LINE
  5
   46D
  8
0
  6
CONTINUOUS
 62
     7
 10
119.198082428398
 20
317.979963451624
 30
0.0
 11
120.238084885301
 21
317.979963451624
 31
0.0
  0
LINE
  5
   46E
  8
0
  6
CONTINUOUS
 62
     7
 10
123.518083713474
 20
317.979963451624
 30
0.0
 11
124.558086170377
 21
317.979963451624
 31
0.0
  0
LINE
  5
   46F
  8
0
  6
CONTINUOUS
 62
     7
 10
116.318083606186
 20
317.979963451624
 30
0.0
 11
117.358086063089
 21
317.979963451624
 31
0.0
  0
LINE
  5
   470
  8
0
  6
CONTINUOUS
 62
     7
 10
124.958086176338
 20
317.979963451624
 30
0.0
 11
125.238084959807
 21
317.979963451624
 31
0.0
  0
LINE
  5
   471
  8
0
  6
CONTINUOUS
 62
     7
 10
122.07808125061
 20
317.979963451624
 30
0.0
 11
123.118083707514
 21
317.979963451624
 31
0.0
  0
LINE
  5
   472
  8
0
  6
CONTINUOUS
 62
     7
 10
120.638084891262
 20
317.979963451624
 30
0.0
 11
121.67808124465
 21
317.979963451624
 31
0.0
  0
LINE
  5
   473
  8
0
  6
CONTINUOUS
 62
     7
 10
189.75808466238
 20
281.979962915182
 30
0.0
 11
190.798084717216
 21
281.979962915182
 31
0.0
  0
LINE
  5
   474
  8
0
  6
CONTINUOUS
 62
     7
 10
186.878084505024
 20
281.979962915182
 30
0.0
 11
187.918084673109
 21
281.979962915182
 31
0.0
  0
LINE
  5
   475
  8
0
  6
CONTINUOUS
 62
     7
 10
186.198084571185
 20
281.979962915182
 30
0.0
 11
186.478084499063
 21
281.979962915182
 31
0.0
  0
LINE
  5
   476
  8
0
  6
CONTINUOUS
 62
     7
 10
194.078084612312
 20
281.979962915182
 30
0.0
 11
195.118084780397
 21
281.979962915182
 31
0.0
  0
LINE
  5
   477
  8
0
  6
CONTINUOUS
 62
     7
 10
188.318084679069
 20
281.979962915182
 30
0.0
 11
189.358084656419
 21
281.979962915182
 31
0.0
  0
LINE
  5
   478
  8
0
  6
CONTINUOUS
 62
     7
 10
191.198084717216
 20
281.979962915182
 30
0.0
 11
192.238084718408
 21
281.979962915182
 31
0.0
  0
LINE
  5
   479
  8
0
  6
CONTINUOUS
 62
     7
 10
192.638084819736
 20
281.979962915182
 30
0.0
 11
193.678084797086
 21
281.979962915182
 31
0.0
  0
LINE
  5
   47A
  8
0
  6
CONTINUOUS
 62
     7
 10
186.198084571185
 20
317.979963451624
 30
0.0
 11
186.478084499063
 21
317.979963451624
 31
0.0
  0
LINE
  5
   47B
  8
0
  6
CONTINUOUS
 62
     7
 10
186.878084505024
 20
317.979963451624
 30
0.0
 11
187.918084673109
 21
317.979963451624
 31
0.0
  0
LINE
  5
   47C
  8
0
  6
CONTINUOUS
 62
     7
 10
191.198084717216
 20
317.979963451624
 30
0.0
 11
192.238084718408
 21
317.979963451624
 31
0.0
  0
LINE
  5
   47D
  8
0
  6
CONTINUOUS
 62
     7
 10
189.75808466238
 20
317.979963451624
 30
0.0
 11
190.798084717216
 21
317.979963451624
 31
0.0
  0
LINE
  5
   47E
  8
0
  6
CONTINUOUS
 62
     7
 10
194.078084612312
 20
317.979963451624
 30
0.0
 11
195.118084780397
 21
317.979963451624
 31
0.0
  0
LINE
  5
   47F
  8
0
  6
CONTINUOUS
 62
     7
 10
188.318084679069
 20
317.979963451624
 30
0.0
 11
189.358084656419
 21
317.979963451624
 31
0.0
  0
LINE
  5
   480
  8
0
  6
CONTINUOUS
 62
     7
 10
192.638084819736
 20
317.979963451624
 30
0.0
 11
193.678084797086
 21
317.979963451624
 31
0.0
  0
LINE
  5
   481
  8
0
  6
CONTINUOUS
 62
     7
 10
87.9180831829926
 20
267.73996270249
 30
0.0
 11
88.3180831889531
 21
267.73996270249
 31
0.0
  0
LINE
  5
   482
  8
0
  6
CONTINUOUS
 62
     7
 10
195.118084780397
 20
267.73996270249
 30
0.0
 11
195.518084786358
 21
267.73996270249
 31
0.0
  0
LINE
  5
   483
  8
0
  6
CONTINUOUS
 62
     7
 10
85.7180831502101
 20
267.73996270249
 30
0.0
 11
87.9180831829926
 21
267.73996270249
 31
0.0
  0
LINE
  5
   484
  8
0
  6
CONTINUOUS
 62
     7
 10
195.518084786358
 20
267.73996270249
 30
0.0
 11
197.71808481914
 21
267.73996270249
 31
0.0
  0
LINE
  5
   485
  8
0
  6
CONTINUOUS
 62
     7
 10
89.3580856458566
 20
267.73996270249
 30
0.0
 11
89.7580856518171
 21
267.73996270249
 31
0.0
  0
LINE
  5
   486
  8
0
  6
CONTINUOUS
 62
     7
 10
90.7980820052048
 20
267.73996270249
 30
0.0
 11
91.1980820111653
 21
267.73996270249
 31
0.0
  0
LINE
  5
   487
  8
0
  6
CONTINUOUS
 62
     7
 10
123.118083707514
 20
267.73996270249
 30
0.0
 11
123.518083713474
 21
267.73996270249
 31
0.0
  0
LINE
  5
   488
  8
0
  6
CONTINUOUS
 62
     7
 10
124.558086170377
 20
267.73996270249
 30
0.0
 11
124.958086176338
 21
267.73996270249
 31
0.0
  0
LINE
  5
   489
  8
0
  6
CONTINUOUS
 62
     7
 10
92.2380844680688
 20
267.73996270249
 30
0.0
 11
92.6380844740293
 21
267.73996270249
 31
0.0
  0
LINE
  5
   48A
  8
0
  6
CONTINUOUS
 62
     7
 10
121.67808124465
 20
267.73996270249
 30
0.0
 11
122.07808125061
 21
267.73996270249
 31
0.0
  0
LINE
  5
   48B
  8
0
  6
CONTINUOUS
 62
     7
 10
193.678084797086
 20
267.73996270249
 30
0.0
 11
194.078084612312
 21
267.73996270249
 31
0.0
  0
LINE
  5
   48C
  8
0
  6
CONTINUOUS
 62
     7
 10
192.238084718408
 20
267.73996270249
 30
0.0
 11
192.638084819736
 21
267.73996270249
 31
0.0
  0
LINE
  5
   48D
  8
0
  6
CONTINUOUS
 62
     7
 10
187.918084673109
 20
267.73996270249
 30
0.0
 11
188.318084679069
 21
267.73996270249
 31
0.0
  0
LINE
  5
   48E
  8
0
  6
CONTINUOUS
 62
     7
 10
186.478084499063
 20
267.73996270249
 30
0.0
 11
186.878084505024
 21
267.73996270249
 31
0.0
  0
LINE
  5
   48F
  8
0
  6
CONTINUOUS
 62
     7
 10
190.798084717216
 20
267.73996270249
 30
0.0
 11
191.198084717216
 21
267.73996270249
 31
0.0
  0
LINE
  5
   490
  8
0
  6
CONTINUOUS
 62
     7
 10
189.358084656419
 20
267.73996270249
 30
0.0
 11
189.75808466238
 21
267.73996270249
 31
0.0
  0
LINE
  5
   491
  8
0
  6
CONTINUOUS
 62
     7
 10
186.878084505024
 20
267.73996270249
 30
0.0
 11
187.918084673109
 21
267.73996270249
 31
0.0
  0
LINE
  5
   492
  8
0
  6
CONTINUOUS
 62
     7
 10
189.75808466238
 20
267.73996270249
 30
0.0
 11
190.798084717216
 21
267.73996270249
 31
0.0
  0
LINE
  5
   493
  8
0
  6
CONTINUOUS
 62
     7
 10
124.958086176338
 20
267.73996270249
 30
0.0
 11
186.478084499063
 21
267.73996270249
 31
0.0
  0
LINE
  5
   494
  8
0
  6
CONTINUOUS
 62
     7
 10
188.318084679069
 20
267.73996270249
 30
0.0
 11
189.358084656419
 21
267.73996270249
 31
0.0
  0
LINE
  5
   495
  8
0
  6
CONTINUOUS
 62
     7
 10
91.1980820111653
 20
267.73996270249
 30
0.0
 11
92.2380844680688
 21
267.73996270249
 31
0.0
  0
LINE
  5
   496
  8
0
  6
CONTINUOUS
 62
     7
 10
191.198084717216
 20
267.73996270249
 30
0.0
 11
192.238084718408
 21
267.73996270249
 31
0.0
  0
LINE
  5
   497
  8
0
  6
CONTINUOUS
 62
     7
 10
120.638084891262
 20
267.73996270249
 30
0.0
 11
121.67808124465
 21
267.73996270249
 31
0.0
  0
LINE
  5
   498
  8
0
  6
CONTINUOUS
 62
     7
 10
89.7580856518171
 20
267.73996270249
 30
0.0
 11
90.7980820052048
 21
267.73996270249
 31
0.0
  0
LINE
  5
   499
  8
0
  6
CONTINUOUS
 62
     7
 10
192.638084819736
 20
267.73996270249
 30
0.0
 11
193.678084797086
 21
267.73996270249
 31
0.0
  0
LINE
  5
   49A
  8
0
  6
CONTINUOUS
 62
     7
 10
89.102784580429
 20
267.73996270249
 30
0.0
 11
123.118083707514
 21
267.73996270249
 31
0.0
  0
LINE
  5
   49B
  8
0
  6
CONTINUOUS
 62
     7
 10
88.3180831889531
 20
267.73996270249
 30
0.0
 11
89.3580856458566
 21
267.73996270249
 31
0.0
  0
LINE
  5
   49C
  8
0
  6
CONTINUOUS
 62
     7
 10
194.078084612312
 20
267.73996270249
 30
0.0
 11
195.118084780397
 21
267.73996270249
 31
0.0
  0
LINE
  5
   49D
  8
0
  6
CONTINUOUS
 62
     7
 10
123.518083713474
 20
267.73996270249
 30
0.0
 11
124.558086170377
 21
267.73996270249
 31
0.0
  0
LINE
  5
   49E
  8
0
  6
CONTINUOUS
 62
     7
 10
88.1180831859729
 20
267.179962694145
 30
0.0
 11
195.368588355257
 21
267.179962694145
 31
0.0
  0
LINE
  5
   49F
  8
0
  6
CONTINUOUS
 62
     7
 10
87.9180831829926
 20
348.219963902235
 30
0.0
 11
88.3180831889531
 21
348.219963902235
 31
0.0
  0
LINE
  5
   4A0
  8
0
  6
CONTINUOUS
 62
     7
 10
195.118084780397
 20
348.219963902235
 30
0.0
 11
195.518084786358
 21
348.219963902235
 31
0.0
  0
LINE
  5
   4A1
  8
0
  6
CONTINUOUS
 62
     7
 10
85.7180831502101
 20
348.219963902235
 30
0.0
 11
87.9180831829926
 21
348.219963902235
 31
0.0
  0
LINE
  5
   4A2
  8
0
  6
CONTINUOUS
 62
     7
 10
195.518084786358
 20
348.219963902235
 30
0.0
 11
197.71808481914
 21
348.219963902235
 31
0.0
  0
LINE
  5
   4A3
  8
0
  6
CONTINUOUS
 62
     7
 10
89.3580856458566
 20
348.219963902235
 30
0.0
 11
89.7580856518171
 21
348.219963902235
 31
0.0
  0
LINE
  5
   4A4
  8
0
  6
CONTINUOUS
 62
     7
 10
90.7980820052048
 20
348.219963902235
 30
0.0
 11
91.1980820111653
 21
348.219963902235
 31
0.0
  0
LINE
  5
   4A5
  8
0
  6
CONTINUOUS
 62
     7
 10
123.118083707514
 20
348.219963902235
 30
0.0
 11
123.518083713474
 21
348.219963902235
 31
0.0
  0
LINE
  5
   4A6
  8
0
  6
CONTINUOUS
 62
     7
 10
124.558086170377
 20
348.219963902235
 30
0.0
 11
124.958086176338
 21
348.219963902235
 31
0.0
  0
LINE
  5
   4A7
  8
0
  6
CONTINUOUS
 62
     7
 10
92.2380844680688
 20
348.219963902235
 30
0.0
 11
92.6380844740293
 21
348.219963902235
 31
0.0
  0
LINE
  5
   4A8
  8
0
  6
CONTINUOUS
 62
     7
 10
93.678080827417
 20
348.219963902235
 30
0.0
 11
94.0780808333775
 21
348.219963902235
 31
0.0
  0
LINE
  5
   4A9
  8
0
  6
CONTINUOUS
 62
     7
 10
193.678084797086
 20
348.219963902235
 30
0.0
 11
194.078084612312
 21
348.219963902235
 31
0.0
  0
LINE
  5
   4AA
  8
0
  6
CONTINUOUS
 62
     7
 10
192.238084718408
 20
348.219963902235
 30
0.0
 11
192.638084819736
 21
348.219963902235
 31
0.0
  0
LINE
  5
   4AB
  8
0
  6
CONTINUOUS
 62
     7
 10
187.918084673109
 20
348.219963902235
 30
0.0
 11
188.318084679069
 21
348.219963902235
 31
0.0
  0
LINE
  5
   4AC
  8
0
  6
CONTINUOUS
 62
     7
 10
186.478084499063
 20
348.219963902235
 30
0.0
 11
186.878084505024
 21
348.219963902235
 31
0.0
  0
LINE
  5
   4AD
  8
0
  6
CONTINUOUS
 62
     7
 10
190.798084717216
 20
348.219963902235
 30
0.0
 11
191.198084717216
 21
348.219963902235
 31
0.0
  0
LINE
  5
   4AE
  8
0
  6
CONTINUOUS
 62
     7
 10
189.358084656419
 20
348.219963902235
 30
0.0
 11
189.75808466238
 21
348.219963902235
 31
0.0
  0
LINE
  5
   4AF
  8
0
  6
CONTINUOUS
 62
     7
 10
88.3180831889531
 20
348.219963902235
 30
0.0
 11
89.3580856458566
 21
348.219963902235
 31
0.0
  0
LINE
  5
   4B0
  8
0
  6
CONTINUOUS
 62
     7
 10
189.75808466238
 20
348.219963902235
 30
0.0
 11
190.798084717216
 21
348.219963902235
 31
0.0
  0
LINE
  5
   4B1
  8
0
  6
CONTINUOUS
 62
     7
 10
186.878084505024
 20
348.219963902235
 30
0.0
 11
187.918084673109
 21
348.219963902235
 31
0.0
  0
LINE
  5
   4B2
  8
0
  6
CONTINUOUS
 62
     7
 10
89.7580856518171
 20
348.219963902235
 30
0.0
 11
90.7980820052048
 21
348.219963902235
 31
0.0
  0
LINE
  5
   4B3
  8
0
  6
CONTINUOUS
 62
     7
 10
188.318084679069
 20
348.219963902235
 30
0.0
 11
189.358084656419
 21
348.219963902235
 31
0.0
  0
LINE
  5
   4B4
  8
0
  6
CONTINUOUS
 62
     7
 10
194.078084612312
 20
348.219963902235
 30
0.0
 11
195.118084780397
 21
348.219963902235
 31
0.0
  0
LINE
  5
   4B5
  8
0
  6
CONTINUOUS
 62
     7
 10
88.3936705418934
 20
348.219963902235
 30
0.0
 11
186.478084499063
 21
348.219963902235
 31
0.0
  0
LINE
  5
   4B6
  8
0
  6
CONTINUOUS
 62
     7
 10
92.6380844740293
 20
348.219963902235
 30
0.0
 11
93.678080827417
 21
348.219963902235
 31
0.0
  0
LINE
  5
   4B7
  8
0
  6
CONTINUOUS
 62
     7
 10
192.638084819736
 20
348.219963902235
 30
0.0
 11
193.678084797086
 21
348.219963902235
 31
0.0
  0
LINE
  5
   4B8
  8
0
  6
CONTINUOUS
 62
     7
 10
191.198084717216
 20
348.219963902235
 30
0.0
 11
192.238084718408
 21
348.219963902235
 31
0.0
  0
LINE
  5
   4B9
  8
0
  6
CONTINUOUS
 62
     7
 10
123.518083713474
 20
348.219963902235
 30
0.0
 11
124.558086170377
 21
348.219963902235
 31
0.0
  0
LINE
  5
   4BA
  8
0
  6
CONTINUOUS
 62
     7
 10
122.07808125061
 20
348.219963902235
 30
0.0
 11
123.118083707514
 21
348.219963902235
 31
0.0
  0
LINE
  5
   4BB
  8
0
  6
CONTINUOUS
 62
     7
 10
91.1980820111653
 20
348.219963902235
 30
0.0
 11
92.2380844680688
 21
348.219963902235
 31
0.0
  0
LINE
  5
   4BC
  8
0
  6
CONTINUOUS
 62
     7
 10
88.1180831859729
 20
348.77996391058
 30
0.0
 11
195.571192366267
 21
348.77996391058
 31
0.0
  0
ARC
  5
   4BD
  8
0
  6
CONTINUOUS
 62
     7
 10
163.558114972742
 20
286.380000634113
 30
0.0
 40
0.399996399023854
 50
281.366891214426
 51
359.99460613108
  0
LINE
  5
   4BE
  8
0
  6
CONTINUOUS
 62
     7
 10
163.600321760122
 20
285.982269085524
 30
0.0
 11
163.636478491822
 21
285.980061040082
 31
0.0
  0
LINE
  5
   4BF
  8
0
  6
CONTINUOUS
 62
     7
 10
163.958084316077
 20
289.276709850084
 30
0.0
 11
163.958084316077
 21
289.381696423914
 31
0.0
  0
LINE
  5
   4C0
  8
0
  6
CONTINUOUS
 62
     7
 10
147.478084070506
 20
289.276709850084
 30
0.0
 11
147.478084070506
 21
289.381696423914
 31
0.0
  0
LINE
  5
   4C1
  8
0
  6
CONTINUOUS
 62
     7
 10
163.958083705725
 20
289.381697333523
 30
0.0
 11
164.118084318461
 21
289.381697333523
 31
0.0
  0
LINE
  5
   4C2
  8
0
  6
CONTINUOUS
 62
     7
 10
147.318084068122
 20
289.381697333523
 30
0.0
 11
147.478084680857
 21
289.381697333523
 31
0.0
  0
LINE
  5
   4C3
  8
0
  6
CONTINUOUS
 62
     7
 10
163.718084312501
 20
313.859434848759
 30
0.0
 11
164.118084318461
 21
313.859434848759
 31
0.0
  0
LINE
  5
   4C4
  8
0
  6
CONTINUOUS
 62
     7
 10
147.318084068122
 20
313.859434848759
 30
0.0
 11
147.718084074082
 21
313.859434848759
 31
0.0
  0
LINE
  5
   4C5
  8
0
  6
CONTINUOUS
 62
     7
 10
147.798893262472
 20
285.980012396602
 30
0.0
 11
147.835870932838
 21
285.982270839518
 31
0.0
  0
ARC
  5
   4C6
  8
0
  6
CONTINUOUS
 62
     7
 10
147.87805341447
 20
286.380000634374
 30
0.0
 40
0.399996399602898
 50
180.005393906351
 51
258.665840200207
  0
LINE
  5
   4C7
  8
0
  6
CONTINUOUS
 62
     7
 10
178.918083928578
 20
288.538880249246
 30
0.0
 11
178.918083928578
 21
288.648621461819
 31
0.0
  0
LINE
  5
   4C8
  8
0
  6
CONTINUOUS
 62
     7
 10
180.518083952419
 20
288.64948816105
 30
0.0
 11
180.518083952419
 21
288.657221315462
 31
0.0
  0
LINE
  5
   4C9
  8
0
  6
CONTINUOUS
 62
     7
 10
182.118084586682
 20
316.699964653254
 30
0.0
 11
182.118084586682
 21
316.779963433743
 31
0.0
  0
LINE
  5
   4CA
  8
0
  6
CONTINUOUS
 62
     7
 10
134.118083871426
 20
316.699964653254
 30
0.0
 11
134.118083871426
 21
316.779963433743
 31
0.0
  0
LINE
  5
   4CB
  8
0
  6
CONTINUOUS
 62
     7
 10
129.318083799901
 20
316.699964653254
 30
0.0
 11
129.318083799901
 21
316.779963433743
 31
0.0
  0
LINE
  5
   4CC
  8
0
  6
CONTINUOUS
 62
     7
 10
134.118083871426
 20
283.179962933064
 30
0.0
 11
134.118083871426
 21
283.259961713552
 31
0.0
  0
LINE
  5
   4CD
  8
0
  6
CONTINUOUS
 62
     7
 10
129.318083799901
 20
283.179962933064
 30
0.0
 11
129.318083799901
 21
283.259961713552
 31
0.0
  0
LINE
  5
   4CE
  8
0
  6
CONTINUOUS
 62
     7
 10
182.118084586682
 20
283.179962933064
 30
0.0
 11
182.118084586682
 21
283.259961713552
 31
0.0
  0
LINE
  5
   4CF
  8
0
  6
CONTINUOUS
 62
     7
 10
177.318084515156
 20
316.699964653254
 30
0.0
 11
177.318084515156
 21
316.779963433743
 31
0.0
  0
LINE
  5
   4D0
  8
0
  6
CONTINUOUS
 62
     7
 10
177.318084515156
 20
283.179962933064
 30
0.0
 11
177.318084515156
 21
283.259961713552
 31
0.0
  0
POLYLINE
  5
   4D1
  8
0
  6
CONTINUOUS
 62
     7
 66
     1
 10
0.0
 20
0.0
 30
0.0
  0
VERTEX
  5
   4D2
  8
0
  6
CONTINUOUS
 10
176.996336782881
 20
285.314221160478
 30
0.0
 40
0.0
 41
0.0
  0
VERTEX
  5
   4D3
  8
0
  6
CONTINUOUS
 10
178.117782790866
 20
284.946901856862
 30
0.0
 40
0.0
 41
0.0
  0
VERTEX
  5
   4D4
  8
0
  6
CONTINUOUS
 10
179.947125927742
 20
284.783313434693
 30
0.0
 40
0.0
 41
0.0
  0
VERTEX
  5
   4D5
  8
0
  6
CONTINUOUS
 10
181.572719824751
 20
285.008060807981
 30
0.0
 40
0.0
 41
0.0
  0
VERTEX
  5
   4D6
  8
0
  6
CONTINUOUS
 10
182.72730218963
 20
285.462291437317
 30
0.0
 40
0.0
 41
0.0
  0
VERTEX
  5
   4D7
  8
0
  6
CONTINUOUS
 10
183.068363050022
 20
285.687449116001
 30
0.0
 40
0.0
 41
0.0
  0
SEQEND
  5
   4D8
  8
0
  6
CONTINUOUS
 62
     7
  0
POLYLINE
  5
   4D9
  8
0
  6
CONTINUOUS
 62
     7
 66
     1
 10
0.0
 20
0.0
 30
0.0
  0
VERTEX
  5
   4DA
  8
0
  6
CONTINUOUS
 10
175.718084491316
 20
286.779962986705
 30
0.0
 40
0.0
 41
0.0
  0
VERTEX
  5
   4DB
  8
0
  6
CONTINUOUS
 10
175.824898213238
 20
286.321418693922
 30
0.0
 40
0.0
 41
0.0
  0
SEQEND
  5
   4DC
  8
0
  6
CONTINUOUS
 62
     7
  0
POLYLINE
  5
   4DD
  8
0
  6
CONTINUOUS
 62
     7
 66
     1
 10
0.0
 20
0.0
 30
0.0
  0
VERTEX
  5
   4DE
  8
0
  6
CONTINUOUS
 10
183.161934874925
 20
285.762796146289
 30
0.0
 40
0.0
 41
0.0
  0
VERTEX
  5
   4DF
  8
0
  6
CONTINUOUS
 10
183.608728293382
 20
286.314923785215
 30
0.0
 40
0.0
 41
0.0
  0
VERTEX
  5
   4E0
  8
0
  6
CONTINUOUS
 10
183.718083389817
 20
286.779962986704
 30
0.0
 40
0.0
 41
0.0
  0
SEQEND
  5
   4E1
  8
0
  6
CONTINUOUS
 62
     7
  0
POLYLINE
  5
   4E2
  8
0
  6
CONTINUOUS
 62
     7
 66
     1
 10
0.0
 20
0.0
 30
0.0
  0
VERTEX
  5
   4E3
  8
0
  6
CONTINUOUS
 10
176.025272529907
 20
286.01175522376
 30
0.0
 40
0.0
 41
0.0
  0
VERTEX
  5
   4E4
  8
0
  6
CONTINUOUS
 10
176.796374094355
 20
285.413708937457
 30
0.0
 40
0.0
 41
0.0
  0
SEQEND
  5
   4E5
  8
0
  6
CONTINUOUS
 62
     7
  0
POLYLINE
  5
   4E6
  8
0
  6
CONTINUOUS
 62
     7
 66
     1
 10
0.0
 20
0.0
 30
0.0
  0
VERTEX
  5
   4E7
  8
0
  6
CONTINUOUS
 10
182.439830841698
 20
288.245704931765
 30
0.0
 40
0.0
 41
0.0
  0
VERTEX
  5
   4E8
  8
0
  6
CONTINUOUS
 10
181.318385191511
 20
288.613024094418
 30
0.0
 40
0.0
 41
0.0
  0
VERTEX
  5
   4E9
  8
0
  6
CONTINUOUS
 10
179.489042123151
 20
288.776612543559
 30
0.0
 40
0.0
 41
0.0
  0
VERTEX
  5
   4EA
  8
0
  6
CONTINUOUS
 10
177.969958597099
 20
288.578740718333
 30
0.0
 40
0.0
 41
0.0
  0
VERTEX
  5
   4EB
  8
0
  6
CONTINUOUS
 10
176.822803767239
 20
288.160029198982
 30
0.0
 40
0.0
 41
0.0
  0
SEQEND
  5
   4EC
  8
0
  6
CONTINUOUS
 62
     7
  0
POLYLINE
  5
   4ED
  8
0
  6
CONTINUOUS
 62
     7
 66
     1
 10
0.0
 20
0.0
 30
0.0
  0
VERTEX
  5
   4EE
  8
0
  6
CONTINUOUS
 10
183.406663041413
 20
287.553241546617
 30
0.0
 40
0.0
 41
0.0
  0
VERTEX
  5
   4EF
  8
0
  6
CONTINUOUS
 10
182.698997349869
 20
288.113878665321
 30
0.0
 40
0.0
 41
0.0
  0
SEQEND
  5
   4F0
  8
0
  6
CONTINUOUS
 62
     7
  0
POLYLINE
  5
   4F1
  8
0
  6
CONTINUOUS
 62
     7
 66
     1
 10
0.0
 20
0.0
 30
0.0
  0
VERTEX
  5
   4F2
  8
0
  6
CONTINUOUS
 10
183.718083389817
 20
286.779962986711
 30
0.0
 40
0.0
 41
0.0
  0
VERTEX
  5
   4F3
  8
0
  6
CONTINUOUS
 10
183.611269760869
 20
287.238507082508
 30
0.0
 40
0.0
 41
0.0
  0
SEQEND
  5
   4F4
  8
0
  6
CONTINUOUS
 62
     7
  0
POLYLINE
  5
   4F5
  8
0
  6
CONTINUOUS
 62
     7
 66
     1
 10
0.0
 20
0.0
 30
0.0
  0
VERTEX
  5
   4F6
  8
0
  6
CONTINUOUS
 10
176.802991932156
 20
288.149555400646
 30
0.0
 40
0.0
 41
0.0
  0
VERTEX
  5
   4F7
  8
0
  6
CONTINUOUS
 10
176.37853296592
 20
287.880660910941
 30
0.0
 40
0.0
 41
0.0
  0
SEQEND
  5
   4F8
  8
0
  6
CONTINUOUS
 62
     7
  0
POLYLINE
  5
   4F9
  8
0
  6
CONTINUOUS
 62
     7
 66
     1
 10
0.0
 20
0.0
 30
0.0
  0
VERTEX
  5
   4FA
  8
0
  6
CONTINUOUS
 10
176.274018926697
 20
287.796948617948
 30
0.0
 40
0.0
 41
0.0
  0
VERTEX
  5
   4FB
  8
0
  6
CONTINUOUS
 10
175.827392639621
 20
287.24490403337
 30
0.0
 40
0.0
 41
0.0
  0
VERTEX
  5
   4FC
  8
0
  6
CONTINUOUS
 10
175.718084491316
 20
286.779962986711
 30
0.0
 40
0.0
 41
0.0
  0
SEQEND
  5
   4FD
  8
0
  6
CONTINUOUS
 62
     7
  0
POLYLINE
  5
   4FE
  8
0
  6
CONTINUOUS
 62
     7
 66
     1
 10
0.0
 20
0.0
 30
0.0
  0
VERTEX
  5
   4FF
  8
0
  6
CONTINUOUS
 10
177.805391407511
 20
288.533941273357
 30
0.0
 40
0.0
 41
0.0
  0
VERTEX
  5
   500
  8
0
  6
CONTINUOUS
 10
177.616547674163
 20
288.479046833783
 30
0.0
 40
0.0
 41
0.0
  0
SEQEND
  5
   501
  8
0
  6
CONTINUOUS
 62
     7
  0
POLYLINE
  5
   502
  8
0
  6
CONTINUOUS
 62
     7
 66
     1
 10
0.0
 20
0.0
 30
0.0
  0
VERTEX
  5
   503
  8
0
  6
CONTINUOUS
 10
176.502714476133
 20
287.969422745882
 30
0.0
 40
0.0
 41
0.0
  0
VERTEX
  5
   504
  8
0
  6
CONTINUOUS
 10
176.196871747668
 20
287.728852748816
 30
0.0
 40
0.0
 41
0.0
  0
SEQEND
  5
   505
  8
0
  6
CONTINUOUS
 62
     7
  0
LINE
  5
   506
  8
0
  6
CONTINUOUS
 62
     7
 10
125.238083739109
 20
281.979962915182
 30
0.0
 11
125.238083739109
 21
283.179962933064
 31
0.0
  0
LINE
  5
   507
  8
0
  6
CONTINUOUS
 62
     7
 10
186.198084647479
 20
281.979962915182
 30
0.0
 11
186.198084647479
 21
283.179962933064
 31
0.0
  0
LINE
  5
   508
  8
0
  6
CONTINUOUS
 62
     7
 10
125.238084959807
 20
281.979962915182
 30
0.0
 11
127.63808499557
 21
281.979962915182
 31
0.0
  0
LINE
  5
   509
  8
0
  6
CONTINUOUS
 62
     7
 10
127.63808499557
 20
281.979962915182
 30
0.0
 11
144.918084032359
 21
281.979962915182
 31
0.0
  0
LINE
  5
   50A
  8
0
  6
CONTINUOUS
 62
     7
 10
144.918084032359
 20
281.979962915182
 30
0.0
 11
166.518084354224
 21
281.979962915182
 31
0.0
  0
LINE
  5
   50B
  8
0
  6
CONTINUOUS
 62
     7
 10
166.518084354224
 20
281.979962915182
 30
0.0
 11
183.798084916892
 21
281.979962915182
 31
0.0
  0
LINE
  5
   50C
  8
0
  6
CONTINUOUS
 62
     7
 10
183.798084916892
 20
281.979962915182
 30
0.0
 11
186.198084571185
 21
281.979962915182
 31
0.0
  0
LINE
  5
   50D
  8
0
  6
CONTINUOUS
 62
     7
 10
125.238084959807
 20
283.179962933063
 30
0.0
 11
127.63808499557
 21
283.179962933063
 31
0.0
  0
LINE
  5
   50E
  8
0
  6
CONTINUOUS
 62
     7
 10
127.63808499557
 20
283.179962933063
 30
0.0
 11
144.918084032359
 21
283.179962933063
 31
0.0
  0
LINE
  5
   50F
  8
0
  6
CONTINUOUS
 62
     7
 10
144.918084032359
 20
283.179962933063
 30
0.0
 11
166.518084354224
 21
283.179962933063
 31
0.0
  0
LINE
  5
   510
  8
0
  6
CONTINUOUS
 62
     7
 10
166.518084354224
 20
283.179962933063
 30
0.0
 11
183.798084916892
 21
283.179962933063
 31
0.0
  0
LINE
  5
   511
  8
0
  6
CONTINUOUS
 62
     7
 10
183.798084916892
 20
283.179962933063
 30
0.0
 11
186.198084571185
 21
283.179962933063
 31
0.0
  0
LINE
  5
   512
  8
0
  6
CONTINUOUS
 62
     7
 10
125.238083739109
 20
316.779963433743
 30
0.0
 11
125.238083739109
 21
317.979963451624
 31
0.0
  0
LINE
  5
   513
  8
0
  6
CONTINUOUS
 62
     7
 10
186.198084647479
 20
316.779963433743
 30
0.0
 11
186.198084647479
 21
317.979963451624
 31
0.0
  0
LINE
  5
   514
  8
0
  6
CONTINUOUS
 62
     7
 10
125.238084959807
 20
316.779963433742
 30
0.0
 11
127.63808499557
 21
316.779963433742
 31
0.0
  0
LINE
  5
   515
  8
0
  6
CONTINUOUS
 62
     7
 10
127.63808499557
 20
316.779963433742
 30
0.0
 11
129.318083799901
 21
316.779963433742
 31
0.0
  0
LINE
  5
   516
  8
0
  6
CONTINUOUS
 62
     7
 10
134.118083871426
 20
316.779963433742
 30
0.0
 11
144.918084032359
 21
316.779963433742
 31
0.0
  0
LINE
  5
   517
  8
0
  6
CONTINUOUS
 62
     7
 10
129.318083799901
 20
316.779963433742
 30
0.0
 11
134.118083871426
 21
316.779963433742
 31
0.0
  0
LINE
  5
   518
  8
0
  6
CONTINUOUS
 62
     7
 10
144.918084032359
 20
316.779963433742
 30
0.0
 11
166.518084354224
 21
316.779963433742
 31
0.0
  0
LINE
  5
   519
  8
0
  6
CONTINUOUS
 62
     7
 10
166.518084354224
 20
316.779963433742
 30
0.0
 11
177.318084515156
 21
316.779963433742
 31
0.0
  0
LINE
  5
   51A
  8
0
  6
CONTINUOUS
 62
     7
 10
182.118084586682
 20
316.779963433742
 30
0.0
 11
183.798084916892
 21
316.779963433742
 31
0.0
  0
LINE
  5
   51B
  8
0
  6
CONTINUOUS
 62
     7
 10
177.318084515156
 20
316.779963433742
 30
0.0
 11
182.118084586682
 21
316.779963433742
 31
0.0
  0
LINE
  5
   51C
  8
0
  6
CONTINUOUS
 62
     7
 10
183.798084916892
 20
316.779963433742
 30
0.0
 11
186.198084571185
 21
316.779963433742
 31
0.0
  0
LINE
  5
   51D
  8
0
  6
CONTINUOUS
 62
     7
 10
125.238084959807
 20
317.979963451624
 30
0.0
 11
127.63808499557
 21
317.979963451624
 31
0.0
  0
LINE
  5
   51E
  8
0
  6
CONTINUOUS
 62
     7
 10
127.63808499557
 20
317.979963451624
 30
0.0
 11
144.918084032359
 21
317.979963451624
 31
0.0
  0
LINE
  5
   51F
  8
0
  6
CONTINUOUS
 62
     7
 10
144.918084032359
 20
317.979963451624
 30
0.0
 11
166.518084354224
 21
317.979963451624
 31
0.0
  0
LINE
  5
   520
  8
0
  6
CONTINUOUS
 62
     7
 10
166.518084354224
 20
317.979963451624
 30
0.0
 11
183.798084916892
 21
317.979963451624
 31
0.0
  0
LINE
  5
   521
  8
0
  6
CONTINUOUS
 62
     7
 10
183.798084916892
 20
317.979963451624
 30
0.0
 11
186.198084571185
 21
317.979963451624
 31
0.0
  0
CIRCLE
  5
   522
  8
0
  6
CONTINUOUS
 62
     7
 10
169.718084401908
 20
356.779964029789
 30
0.0
 40
3.60000005364414
  0
CIRCLE
  5
   523
  8
0
  6
CONTINUOUS
 62
     7
 10
169.718084401907
 20
356.779964029789
 30
0.0
 40
1.68000002503354
  0
CIRCLE
  5
   524
  8
0
  6
CONTINUOUS
 62
     7
 10
141.718083984675
 20
259.179962575436
 30
0.0
 40
3.60000005364415
  0
CIRCLE
  5
   525
  8
0
  6
CONTINUOUS
 62
     7
 10
141.718083984675
 20
259.179962575436
 30
0.0
 40
1.68000002503394
  0
LINE
  5
   526
  8
0
  6
CONTINUOUS
 62
     7
 10
86.2780831585547
 20
348.219966343641
 30
0.0
 11
86.2780831585547
 21
348.77996391058
 31
0.0
  0
LINE
  5
   527
  8
0
  6
CONTINUOUS
 62
     7
 10
197.158084810795
 20
348.219966343641
 30
0.0
 11
197.158084810795
 21
348.77996391058
 31
0.0
  0
CIRCLE
  5
   528
  8
0
  6
CONTINUOUS
 62
     7
 10
131.654083834742
 20
279.179963493208
 30
0.0
 40
2.60000003874301
  0
CIRCLE
  5
   529
  8
0
  6
CONTINUOUS
 62
     7
 10
141.718083984675
 20
356.779964029789
 30
0.0
 40
3.40000005066377
  0
LINE
  5
   52A
  8
0
  6
CONTINUOUS
 62
     7
 10
86.2780831585547
 20
267.179962694645
 30
0.0
 11
86.2780831585547
 21
267.739963313341
 31
0.0
  0
LINE
  5
   52B
  8
0
  6
CONTINUOUS
 62
     7
 10
197.158084810795
 20
267.179962694645
 30
0.0
 11
197.158084810795
 21
267.739963313341
 31
0.0
  0
CIRCLE
  5
   52C
  8
0
  6
CONTINUOUS
 62
     7
 10
169.718084401908
 20
259.179962575436
 30
0.0
 40
3.40000005066394
  0
POLYLINE
  5
   52D
  8
0
  6
CONTINUOUS
 62
   212
 66
     1
 10
0.0
 20
0.0
 30
0.0
  0
VERTEX
  5
   52E
  8
0
  6
CONTINUOUS
 10
162.918167903411
 20
306.098320242248
 30
0.0
 40
0.0
 41
0.0
  0
VERTEX
  5
   52F
  8
0
  6
CONTINUOUS
 10
163.518851350728
 20
306.309723694532
 30
0.0
 40
0.0
 41
0.0
  0
VERTEX
  5
   530
  8
0
  6
CONTINUOUS
 10
163.732331755556
 20
306.850069368846
 30
0.0
 40
0.0
 41
0.0
  0
SEQEND
  5
   531
  8
0
  6
CONTINUOUS
 62
   212
  0
LINE
  5
   532
  8
0
  6
CONTINUOUS
 62
   212
 10
162.91808430058
 20
306.100672503124
 30
0.0
 11
162.918167903404
 21
306.098320242245
 31
0.0
  0
POLYLINE
  5
   533
  8
0
  6
CONTINUOUS
 62
   212
 66
     1
 10
0.0
 20
0.0
 30
0.0
  0
VERTEX
  5
   534
  8
0
  6
CONTINUOUS
 10
163.718092148502
 20
315.382703891392
 30
0.0
 40
0.0
 41
0.0
  0
VERTEX
  5
   535
  8
0
  6
CONTINUOUS
 10
163.483776569304
 20
315.941430727039
 30
0.0
 40
0.0
 41
0.0
  0
VERTEX
  5
   536
  8
0
  6
CONTINUOUS
 10
162.91808430051
 20
316.172859519739
 30
0.0
 40
0.0
 41
0.0
  0
SEQEND
  5
   537
  8
0
  6
CONTINUOUS
 62
   212
  0
POLYLINE
  5
   538
  8
0
  6
CONTINUOUS
 62
   212
 66
     1
 10
0.0
 20
0.0
 30
0.0
  0
VERTEX
  5
   539
  8
0
  6
CONTINUOUS
 10
147.721724501496
 20
306.666764905291
 30
0.0
 40
0.0
 41
0.0
  0
VERTEX
  5
   53A
  8
0
  6
CONTINUOUS
 10
147.981664694579
 20
306.257561111274
 30
0.0
 40
0.0
 41
0.0
  0
VERTEX
  5
   53B
  8
0
  6
CONTINUOUS
 10
148.518016020486
 20
306.098580063946
 30
0.0
 40
0.0
 41
0.0
  0
SEQEND
  5
   53C
  8
0
  6
CONTINUOUS
 62
   212
  0
LINE
  5
   53D
  8
0
  6
CONTINUOUS
 62
   212
 10
148.518016020472
 20
306.09858006395
 30
0.0
 11
148.518084086003
 21
306.100672503124
 31
0.0
  0
LINE
  5
   53E
  8
0
  6
CONTINUOUS
 62
   212
 10
147.709185148168
 20
306.744007473648
 30
0.0
 11
147.721724501491
 21
306.666764905303
 31
0.0
  0
LINE
  5
   53F
  8
0
  6
CONTINUOUS
 62
   212
 10
148.518084086003
 20
306.100672503124
 30
0.0
 11
162.918038524212
 21
306.100562639841
 31
0.0
  0
POLYLINE
  5
   540
  8
0
  6
CONTINUOUS
 62
   212
 66
     1
 10
0.0
 20
0.0
 30
0.0
  0
VERTEX
  5
   541
  8
0
  6
CONTINUOUS
 10
148.518084085998
 20
316.172851779608
 30
0.0
 40
0.0
 41
0.0
  0
VERTEX
  5
   542
  8
0
  6
CONTINUOUS
 10
147.952399653924
 20
315.941422990681
 30
0.0
 40
0.0
 41
0.0
  0
VERTEX
  5
   543
  8
0
  6
CONTINUOUS
 10
147.718084074723
 20
315.382703891431
 30
0.0
 40
0.0
 41
0.0
  0
SEQEND
  5
   544
  8
0
  6
CONTINUOUS
 62
   212
  0
POLYLINE
  5
   545
  8
0
  6
CONTINUOUS
 62
   212
 66
     1
 10
0.0
 20
0.0
 30
0.0
  0
VERTEX
  5
   546
  8
0
  6
CONTINUOUS
 10
162.91808430058
 20
308.821379727308
 30
0.0
 40
0.0
 41
0.0
  0
VERTEX
  5
   547
  8
0
  6
CONTINUOUS
 10
163.483872182447
 20
309.046367196306
 30
0.0
 40
0.0
 41
0.0
  0
VERTEX
  5
   548
  8
0
  6
CONTINUOUS
 10
163.718084312501
 20
309.589166289312
 30
0.0
 40
0.0
 41
0.0
  0
SEQEND
  5
   549
  8
0
  6
CONTINUOUS
 62
   212
  0
POLYLINE
  5
   54A
  8
0
  6
CONTINUOUS
 62
   212
 66
     1
 10
0.0
 20
0.0
 30
0.0
  0
VERTEX
  5
   54B
  8
0
  6
CONTINUOUS
 10
148.518084086003
 20
308.821379727308
 30
0.0
 40
0.0
 41
0.0
  0
VERTEX
  5
   54C
  8
0
  6
CONTINUOUS
 10
147.952296204844
 20
309.04636719561
 30
0.0
 40
0.0
 41
0.0
  0
VERTEX
  5
   54D
  8
0
  6
CONTINUOUS
 10
147.718084074082
 20
309.589166289312
 30
0.0
 40
0.0
 41
0.0
  0
SEQEND
  5
   54E
  8
0
  6
CONTINUOUS
 62
   212
  0
LINE
  5
   54F
  8
0
  6
CONTINUOUS
 62
   212
 10
148.518084086003
 20
311.435871557234
 30
0.0
 11
162.91808430058
 21
311.435871557234
 31
0.0
  0
LINE
  5
   550
  8
0
  6
CONTINUOUS
 62
   212
 10
147.718084074082
 20
309.589167428154
 30
0.0
 11
147.718084074082
 21
311.953626691903
 31
0.0
  0
LINE
  5
   551
  8
0
  6
CONTINUOUS
 62
   212
 10
147.718084074082
 20
307.030591950575
 30
0.0
 11
147.718084074082
 21
309.589167428154
 31
0.0
  0
LINE
  5
   552
  8
0
  6
CONTINUOUS
 62
   212
 10
147.718084074082
 20
311.953626691903
 30
0.0
 11
147.718084074082
 21
315.382703891437
 31
0.0
  0
LINE
  5
   553
  8
0
  6
CONTINUOUS
 62
   212
 10
148.518084086003
 20
308.821379727308
 30
0.0
 11
162.91808430058
 21
308.821379727308
 31
0.0
  0
LINE
  5
   554
  8
0
  6
CONTINUOUS
 62
   212
 10
148.518084086003
 20
316.172851780236
 30
0.0
 11
162.91808430058
 21
316.172851780236
 31
0.0
  0
LINE
  5
   555
  8
0
  6
CONTINUOUS
 62
   212
 10
163.718084312501
 20
309.589167428154
 30
0.0
 11
163.718084312501
 21
311.953626691903
 31
0.0
  0
LINE
  5
   556
  8
0
  6
CONTINUOUS
 62
   212
 10
163.718084312501
 20
307.030475983776
 30
0.0
 11
163.718084312501
 21
309.589167428154
 31
0.0
  0
LINE
  5
   557
  8
0
  6
CONTINUOUS
 62
   212
 10
163.718084312501
 20
311.953626691903
 30
0.0
 11
163.718084312501
 21
315.382703891437
 31
0.0
  0
LINE
  5
   558
  8
0
  6
CONTINUOUS
 62
     2
 10
139.318083948912
 20
364.779964148998
 30
0.0
 11
144.118084020438
 21
364.779964148998
 31
0.0
  0
LINE
  5
   559
  8
0
  6
CONTINUOUS
 62
   212
 10
139.318083948912
 20
366.37996417284
 30
0.0
 11
140.518083966794
 21
366.37996417284
 31
0.0
  0
LINE
  5
   55A
  8
0
  6
CONTINUOUS
 62
   212
 10
140.518083966794
 20
366.37996417284
 30
0.0
 11
140.518083966794
 21
367.979964196682
 31
0.0
  0
LINE
  5
   55B
  8
0
  6
CONTINUOUS
 62
   212
 10
142.918084002557
 20
366.37996417284
 30
0.0
 11
142.918084002557
 21
367.979964196682
 31
0.0
  0
LINE
  5
   55C
  8
0
  6
CONTINUOUS
 62
   212
 10
142.918084002557
 20
366.37996417284
 30
0.0
 11
144.118084020438
 21
366.37996417284
 31
0.0
  0
LINE
  5
   55D
  8
0
  6
CONTINUOUS
 62
     2
 10
167.318084366145
 20
364.779964148998
 30
0.0
 11
172.11808443767
 21
364.779964148998
 31
0.0
  0
LINE
  5
   55E
  8
0
  6
CONTINUOUS
 62
   212
 10
170.918084419789
 20
366.37996417284
 30
0.0
 11
172.11808443767
 21
366.37996417284
 31
0.0
  0
LINE
  5
   55F
  8
0
  6
CONTINUOUS
 62
   212
 10
170.918084419789
 20
366.37996417284
 30
0.0
 11
170.918084419789
 21
367.979964196682
 31
0.0
  0
LINE
  5
   560
  8
0
  6
CONTINUOUS
 62
   212
 10
168.518084384027
 20
366.37996417284
 30
0.0
 11
168.518084384027
 21
367.979964196682
 31
0.0
  0
LINE
  5
   561
  8
0
  6
CONTINUOUS
 62
   212
 10
167.318084366145
 20
366.37996417284
 30
0.0
 11
168.518084384026
 21
366.37996417284
 31
0.0
  0
LINE
  5
   562
  8
0
  6
CONTINUOUS
 62
     3
 10
139.318083948912
 20
367.179964184761
 30
0.0
 11
139.318083948912
 21
367.979964196682
 31
0.0
  0
LINE
  5
   563
  8
0
  6
CONTINUOUS
 62
     3
 10
144.118084020438
 20
367.179964184761
 30
0.0
 11
144.118084020438
 21
367.979964196682
 31
0.0
  0
LINE
  5
   564
  8
0
  6
CONTINUOUS
 62
     3
 10
167.318084366145
 20
367.179964184761
 30
0.0
 11
167.318084366145
 21
367.979964196682
 31
0.0
  0
LINE
  5
   565
  8
0
  6
CONTINUOUS
 62
     3
 10
172.11808443767
 20
367.179964184761
 30
0.0
 11
172.11808443767
 21
367.979964196682
 31
0.0
  0
LINE
  5
   566
  8
0
  6
CONTINUOUS
 62
     5
 10
144.118084020438
 20
363.179964125156
 30
0.0
 11
144.118084020438
 21
367.179964184761
 31
0.0
  0
LINE
  5
   567
  8
0
  6
CONTINUOUS
 62
     5
 10
139.318083948912
 20
363.179964125156
 30
0.0
 11
139.318083948912
 21
367.179964184761
 31
0.0
  0
LINE
  5
   568
  8
0
  6
CONTINUOUS
 62
     5
 10
172.11808443767
 20
363.179964125156
 30
0.0
 11
172.11808443767
 21
367.179964184761
 31
0.0
  0
LINE
  5
   569
  8
0
  6
CONTINUOUS
 62
     5
 10
167.318084366145
 20
363.179964125156
 30
0.0
 11
167.318084366145
 21
367.179964184761
 31
0.0
  0
LINE
  5
   56A
  8
0
  6
CONTINUOUS
 62
   212
 10
139.318083948912
 20
367.979964196682
 30
0.0
 11
140.518083966794
 21
367.979964196682
 31
0.0
  0
LINE
  5
   56B
  8
0
  6
CONTINUOUS
 62
   212
 10
142.918084002557
 20
367.979964196682
 30
0.0
 11
144.118084020438
 21
367.979964196682
 31
0.0
  0
LINE
  5
   56C
  8
0
  6
CONTINUOUS
 62
   212
 10
170.918084419789
 20
367.979964196682
 30
0.0
 11
172.11808443767
 21
367.979964196682
 31
0.0
  0
LINE
  5
   56D
  8
0
  6
CONTINUOUS
 62
   212
 10
167.318084366145
 20
367.979964196682
 30
0.0
 11
168.518084384026
 21
367.979964196682
 31
0.0
  0
LINE
  5
   56E
  8
0
  6
CONTINUOUS
 62
     3
 10
87.7180831800124
 20
367.979964196682
 30
0.0
 11
111.31808353168
 21
367.979964196682
 31
0.0
  0
LINE
  5
   56F
  8
0
  6
CONTINUOUS
 62
     3
 10
144.118084020438
 20
367.979964196682
 30
0.0
 11
167.318084366145
 21
367.979964196682
 31
0.0
  0
LINE
  5
   570
  8
0
  6
CONTINUOUS
 62
     3
 10
172.11808443767
 20
367.979964196682
 30
0.0
 11
195.718084789338
 21
367.979964196682
 31
0.0
  0
ARC
  5
   571
  8
0
  6
CONTINUOUS
 62
     3
 10
195.718074771915
 20
367.179954167473
 30
0.0
 40
0.800021378970389
 50
7.17426455348952E-4
 51
89.9992825639412
  0
LINE
  5
   572
  8
0
  6
CONTINUOUS
 62
     3
 10
196.518084801259
 20
366.37996417284
 30
0.0
 11
196.518084801259
 21
367.179964184761
 31
0.0
  0
LINE
  5
   573
  8
0
  6
CONTINUOUS
 62
     3
 10
195.718084789338
 20
366.37996417284
 30
0.0
 11
196.518084801259
 21
366.37996417284
 31
0.0
  0
LINE
  5
   574
  8
0
  6
CONTINUOUS
 62
   253
 10
194.918084777417
 20
366.37996417284
 30
0.0
 11
195.718084789338
 21
366.37996417284
 31
0.0
  0
LINE
  5
   575
  8
0
  6
CONTINUOUS
 62
   253
 10
194.918084777417
 20
363.979964137077
 30
0.0
 11
194.918084777417
 21
366.37996417284
 31
0.0
  0
LINE
  5
   576
  8
0
  6
CONTINUOUS
 62
   253
 10
88.5180831919333
 20
363.979964137077
 30
0.0
 11
88.5180831919333
 21
366.37996417284
 31
0.0
  0
LINE
  5
   577
  8
0
  6
CONTINUOUS
 62
     3
 10
86.9180831680915
 20
366.379964172836
 30
0.0
 11
87.7180831800124
 21
366.379964172836
 31
0.0
  0
LINE
  5
   578
  8
0
  6
CONTINUOUS
 62
   253
 10
87.7180831800124
 20
366.37996417284
 30
0.0
 11
88.5180831919333
 21
366.37996417284
 31
0.0
  0
LINE
  5
   579
  8
0
  6
CONTINUOUS
 62
     3
 10
86.9180831680911
 20
366.37996417284
 30
0.0
 11
86.9180831680911
 21
367.179964184761
 31
0.0
  0
ARC
  5
   57A
  8
0
  6
CONTINUOUS
 62
     3
 10
87.7180931974324
 20
367.179954167475
 30
0.0
 40
0.800021378967207
 50
90.0007174358675
 51
179.999282573545
  0
CIRCLE
  5
   57B
  8
0
  6
CONTINUOUS
 62
   253
 10
155.718084193291
 20
365.579964160919
 30
0.0
 40
0.880000013112722
  0
ARC
  5
   57C
  8
0
  6
CONTINUOUS
 62
   253
 10
141.718083984671
 20
356.77996402979
 30
0.0
 40
1.68000033021364
 50
314.417043304828
 51
360.0
  0
ARC
  5
   57D
  8
0
  6
CONTINUOUS
 62
   253
 10
141.718083984675
 20
356.779964029789
 30
0.0
 40
1.68000033020977
 50
0.0
 51
180.0
  0
ARC
  5
   57E
  8
0
  6
CONTINUOUS
 62
   253
 10
141.718083984675
 20
356.779964029788
 30
0.0
 40
1.68000033020909
 50
225.584648542991
 51
314.417043304786
  0
ARC
  5
   57F
  8
0
  6
CONTINUOUS
 62
   253
 10
141.718083984676
 20
356.77996402979
 30
0.0
 40
1.68000033021096
 50
180.0
 51
225.584648543013
  0
LINE
  5
   580
  8
0
  6
CONTINUOUS
 62
   253
 10
88.5180831919334
 20
363.179964125156
 30
0.0
 11
88.5180831919334
 21
363.979964137077
 31
0.0
  0
LINE
  5
   581
  8
0
  6
CONTINUOUS
 62
   253
 10
85.7180831502101
 20
348.219966343641
 30
0.0
 11
85.7180831502101
 21
363.179964125156
 31
0.0
  0
LINE
  5
   582
  8
0
  6
CONTINUOUS
 62
   253
 10
85.7180831502101
 20
363.179964125156
 30
0.0
 11
86.9180831680915
 21
363.179964125156
 31
0.0
  0
LINE
  5
   583
  8
0
  6
CONTINUOUS
 62
   253
 10
87.3180831740519
 20
363.179964125156
 30
0.0
 11
87.3180831740519
 21
363.979964137077
 31
0.0
  0
LINE
  5
   584
  8
0
  6
CONTINUOUS
 62
   253
 10
87.3180831740519
 20
363.979964137077
 30
0.0
 11
88.5180831919333
 21
363.979964137077
 31
0.0
  0
LINE
  5
   585
  8
0
  6
CONTINUOUS
 62
   253
 10
194.918084777417
 20
363.179964125156
 30
0.0
 11
194.918084777417
 21
363.979964137077
 31
0.0
  0
LINE
  5
   586
  8
0
  6
CONTINUOUS
 62
   253
 10
194.918084777417
 20
363.979964137077
 30
0.0
 11
196.118084795298
 21
363.979964137077
 31
0.0
  0
LINE
  5
   587
  8
0
  6
CONTINUOUS
 62
   253
 10
196.118084795298
 20
363.179964125156
 30
0.0
 11
196.118084795298
 21
363.979964137077
 31
0.0
  0
LINE
  5
   588
  8
0
  6
CONTINUOUS
 62
   253
 10
196.518084801259
 20
363.179964125156
 30
0.0
 11
197.71808481914
 21
363.179964125156
 31
0.0
  0
LINE
  5
   589
  8
0
  6
CONTINUOUS
 62
   253
 10
197.71808481914
 20
348.219966343641
 30
0.0
 11
197.71808481914
 21
363.179964125156
 31
0.0
  0
ARC
  5
   58A
  8
0
  6
CONTINUOUS
 62
   253
 10
169.71808440191
 20
356.77996402979
 30
0.0
 40
1.6800003302118
 50
180.001665286099
 51
225.294340831033
  0
ARC
  5
   58B
  8
0
  6
CONTINUOUS
 62
   253
 10
169.718084401906
 20
356.779964029789
 30
0.0
 40
1.68000033021096
 50
314.706252192678
 51
359.998334713901
  0
ARC
  5
   58C
  8
0
  6
CONTINUOUS
 62
   253
 10
169.718084401907
 20
356.779964029787
 30
0.0
 40
1.68000033020783
 50
236.853775079846
 51
303.000259260879
  0
ARC
  5
   58D
  8
0
  6
CONTINUOUS
 62
   253
 10
169.718084401908
 20
356.779964029789
 30
0.0
 40
1.6800003302101
 50
1.24896258485182E-3
 51
179.999583681376
  0
LINE
  5
   58E
  8
0
  6
CONTINUOUS
 62
   253
 10
116.518083609166
 20
363.179964125156
 30
0.0
 11
139.318083948912
 21
363.179964125156
 31
0.0
  0
LINE
  5
   58F
  8
0
  6
CONTINUOUS
 62
   253
 10
172.11808443767
 20
363.179964125156
 30
0.0
 11
194.918084777417
 21
363.179964125156
 31
0.0
  0
LINE
  5
   590
  8
0
  6
CONTINUOUS
 62
   253
 10
144.118084020438
 20
363.179964125156
 30
0.0
 11
167.318084366145
 21
363.179964125156
 31
0.0
  0
ARC
  5
   591
  8
0
  6
CONTINUOUS
 62
   253
 10
141.718083984675
 20
259.179962575436
 30
0.0
 40
1.68000002503384
 50
314.999999999995
 51
424.984395149677
  0
ARC
  5
   592
  8
0
  6
CONTINUOUS
 62
   253
 10
141.718083984675
 20
259.179962575436
 30
0.0
 40
1.68000002503393
 50
108.301806607045
 51
225.000000000003
  0
ARC
  5
   593
  8
0
  6
CONTINUOUS
 62
   253
 10
169.718084401908
 20
259.179962575436
 30
0.0
 40
1.6800000250339
 50
314.999999999999
 51
424.984395149677
  0
ARC
  5
   594
  8
0
  6
CONTINUOUS
 62
   253
 10
169.718084401908
 20
259.179962575436
 30
0.0
 40
1.68000002503397
 50
108.301806607048
 51
224.999999999999
  0
ARC
  5
   595
  8
0
  6
CONTINUOUS
 62
   253
 10
141.718083984674
 20
356.779964029791
 30
0.0
 40
1.68000002503592
 50
288.301806607065
 51
314.972735382038
  0
ARC
  5
   596
  8
0
  6
CONTINUOUS
 62
   253
 10
141.718083984691
 20
356.779964029812
 30
0.0
 40
1.68000002506161
 50
225.568710411076
 51
244.98444287409
  0
ARC
  5
   597
  8
0
  6
CONTINUOUS
 62
   253
 10
141.718083984675
 20
356.779964029789
 30
0.0
 40
1.68000002503441
 50
311.954897844528
 51
414.307149172617
  0
ARC
  5
   598
  8
0
  6
CONTINUOUS
 62
   253
 10
141.718083984675
 20
356.779964029789
 30
0.0
 40
1.68000002503408
 50
134.944692476666
 51
223.507753787079
  0
ARC
  5
   599
  8
0
  6
CONTINUOUS
 62
   253
 10
141.718083984282
 20
356.779964029387
 30
0.0
 40
1.68000002447223
 50
224.703157891474
 51
227.648489865289
  0
ARC
  5
   59A
  8
0
  6
CONTINUOUS
 62
     1
 10
169.718084401902
 20
356.779964029783
 30
0.0
 40
1.6800000250257
 50
225.568710410886
 51
244.984442874316
  0
ARC
  5
   59B
  8
0
  6
CONTINUOUS
 62
     1
 10
169.718084401902
 20
356.779964029797
 30
0.0
 40
1.68000002504333
 50
288.301806607149
 51
314.972772646439
  0
ARC
  5
   59C
  8
0
  6
CONTINUOUS
 62
   253
 10
169.71808440191
 20
356.779964029789
 30
0.0
 40
1.68000002503265
 50
312.746859805756
 51
414.307104300828
  0
ARC
  5
   59D
  8
0
  6
CONTINUOUS
 62
   253
 10
169.718084401906
 20
356.779964029789
 30
0.0
 40
1.68000002503285
 50
134.944729781775
 51
223.507753787119
  0
ARC
  5
   59E
  8
0
  6
CONTINUOUS
 62
   253
 10
169.718084401887
 20
356.779964029797
 30
0.0
 40
1.680000025025
 50
224.703157892457
 51
226.804460185399
  0
LINE
  5
   59F
  8
0
  6
DASHDOT
 62
     7
 10
129.318083793939
 20
279.179963493208
 30
0.0
 11
134.158083879171
 21
279.179963493208
 31
0.0
  0
LINE
  5
   5A0
  8
0
  6
DASHDOT
 62
     7
 10
139.702083583417
 20
259.179962575436
 30
0.0
 11
143.767684393538
 21
259.179962575436
 31
0.0
  0
LINE
  5
   5A1
  8
0
  6
DASHDOT
 62
     7
 10
141.718083984675
 20
257.163962174178
 30
0.0
 11
141.718083984675
 21
261.195962976694
 31
0.0
  0
LINE
  5
   5A2
  8
0
  6
DASHDOT
 62
     7
 10
139.702083583417
 20
259.179962575436
 30
0.0
 11
143.767684393538
 21
259.179962575436
 31
0.0
  0
LINE
  5
   5A3
  8
0
  6
DASHDOT
 62
     7
 10
141.718083984675
 20
257.163962174178
 30
0.0
 11
141.718083984675
 21
261.195962976694
 31
0.0
  0
LINE
  5
   5A4
  8
0
  6
DASHDOT
 62
     7
 10
167.70208400065
 20
259.179962575436
 30
0.0
 11
171.767684810772
 21
259.179962575436
 31
0.0
  0
LINE
  5
   5A5
  8
0
  6
DASHDOT
 62
     7
 10
169.718084401908
 20
257.163962174178
 30
0.0
 11
169.718084401908
 21
261.195962976694
 31
0.0
  0
LINE
  5
   5A6
  8
0
  6
DASHDOT
 62
     7
 10
167.70208400065
 20
259.179962575436
 30
0.0
 11
171.767684810772
 21
259.179962575436
 31
0.0
  0
LINE
  5
   5A7
  8
0
  6
DASHDOT
 62
     7
 10
169.718084401908
 20
257.163962174178
 30
0.0
 11
169.718084401908
 21
261.195962976694
 31
0.0
  0
LINE
  5
   5A8
  8
0
  6
DASHDOT
 62
     7
 10
154.662084174966
 20
250.379962444224
 30
0.0
 11
156.791684212469
 21
250.379962444224
 31
0.0
  0
LINE
  5
   5A9
  8
0
  6
DASHDOT
 62
     7
 10
155.718084193325
 20
249.323962425866
 30
0.0
 11
155.718084193325
 21
251.435962462583
 31
0.0
  0
LINE
  5
   5AA
  8
0
  6
DASHDOT
 62
     7
 10
177.958084510388
 20
261.579962610699
 30
0.0
 11
189.574084714951
 21
261.579962610699
 31
0.0
  0
LINE
  5
   5AB
  8
0
  6
DASHDOT
 62
     7
 10
183.718084610524
 20
255.819962510563
 30
0.0
 11
183.718084610524
 21
267.339962710835
 31
0.0
  0
LINE
  5
   5AC
  8
0
  6
DASHDOT
 62
     7
 10
149.958084093156
 20
261.579962610699
 30
0.0
 11
161.574084297719
 21
261.579962610699
 31
0.0
  0
LINE
  5
   5AD
  8
0
  6
DASHDOT
 62
     7
 10
155.718084193291
 20
255.819962510563
 30
0.0
 11
155.718084193291
 21
267.339962710835
 31
0.0
  0
LINE
  5
   5AE
  8
0
  6
DASHDOT
 62
     7
 10
121.958083675923
 20
261.579962610699
 30
0.0
 11
133.574083880486
 21
261.579962610699
 31
0.0
  0
LINE
  5
   5AF
  8
0
  6
DASHDOT
 62
     7
 10
127.718083776059
 20
255.819962510563
 30
0.0
 11
127.718083776059
 21
267.339962710835
 31
0.0
  0
LINE
  5
   5B0
  8
0
  6
DASHDOT
 62
     7
 10
177.958084510388
 20
354.379963994026
 30
0.0
 11
189.574084714951
 21
354.379963994026
 31
0.0
  0
LINE
  5
   5B1
  8
0
  6
DASHDOT
 62
     7
 10
183.718084610524
 20
348.61996389389
 30
0.0
 11
183.718084610524
 21
360.139964094162
 31
0.0
  0
LINE
  5
   5B2
  8
0
  6
DASHDOT
 62
     7
 10
149.958084093156
 20
354.379963994026
 30
0.0
 11
161.574084297719
 21
354.379963994026
 31
0.0
  0
LINE
  5
   5B3
  8
0
  6
DASHDOT
 62
     7
 10
155.718084193291
 20
348.61996389389
 30
0.0
 11
155.718084193291
 21
360.139964094162
 31
0.0
  0
LINE
  5
   5B4
  8
0
  6
DASHDOT
 62
     7
 10
121.958083675923
 20
354.379963994026
 30
0.0
 11
133.574083880486
 21
354.379963994026
 31
0.0
  0
LINE
  5
   5B5
  8
0
  6
DASHDOT
 62
     7
 10
127.718083776059
 20
348.61996389389
 30
0.0
 11
127.718083776059
 21
360.139964094162
 31
0.0
  0
LINE
  5
   5B6
  8
0
  6
DASHDOT
 62
     7
 10
165.398084326806
 20
356.779964029789
 30
0.0
 11
174.110084480228
 21
356.779964029789
 31
0.0
  0
LINE
  5
   5B7
  8
0
  6
DASHDOT
 62
     7
 10
169.718084401908
 20
352.459963954687
 30
0.0
 11
169.718084401908
 21
361.099964104891
 31
0.0
  0
LINE
  5
   5B8
  8
0
  6
DASHDOT
 62
     7
 10
167.70208436686
 20
356.779964029789
 30
0.0
 11
171.767684438456
 21
356.779964029789
 31
0.0
  0
LINE
  5
   5B9
  8
0
  6
DASHDOT
 62
     7
 10
169.718084401907
 20
354.763963994742
 30
0.0
 11
169.718084401907
 21
358.795964064836
 31
0.0
  0
LINE
  5
   5BA
  8
0
  6
DASHDOT
 62
     7
 10
167.70208436686
 20
356.779964029789
 30
0.0
 11
171.767684438456
 21
356.779964029789
 31
0.0
  0
LINE
  5
   5BB
  8
0
  6
DASHDOT
 62
     7
 10
169.718084401907
 20
354.763963994742
 30
0.0
 11
169.718084401907
 21
358.795964064836
 31
0.0
  0
LINE
  5
   5BC
  8
0
  6
DASHDOT
 62
     7
 10
137.398083909573
 20
259.179962575436
 30
0.0
 11
146.110084062996
 21
259.179962575436
 31
0.0
  0
LINE
  5
   5BD
  8
0
  6
DASHDOT
 62
     7
 10
141.718083984675
 20
254.859962500334
 30
0.0
 11
141.718083984675
 21
263.499962650537
 31
0.0
  0
LINE
  5
   5BE
  8
0
  6
DASHDOT
 62
     7
 10
139.702083949628
 20
259.179962575436
 30
0.0
 11
143.767684021225
 21
259.179962575436
 31
0.0
  0
LINE
  5
   5BF
  8
0
  6
DASHDOT
 62
     7
 10
141.718083984675
 20
257.163962540388
 30
0.0
 11
141.718083984675
 21
261.195962610483
 31
0.0
  0
LINE
  5
   5C0
  8
0
  6
DASHDOT
 62
     7
 10
139.702083949628
 20
259.179962575436
 30
0.0
 11
143.767684021225
 21
259.179962575436
 31
0.0
  0
LINE
  5
   5C1
  8
0
  6
DASHDOT
 62
     7
 10
141.718083984675
 20
257.163962540388
 30
0.0
 11
141.718083984675
 21
261.195962610483
 31
0.0
  0
LINE
  5
   5C2
  8
0
  6
DASHDOT
 62
     7
 10
128.534083780502
 20
279.179963493208
 30
0.0
 11
134.826083891307
 21
279.179963493208
 31
0.0
  0
LINE
  5
   5C3
  8
0
  6
DASHDOT
 62
     7
 10
131.654083834742
 20
276.059963438968
 30
0.0
 11
131.654083834742
 21
282.299963547448
 31
0.0
  0
LINE
  5
   5C4
  8
0
  6
DASHDOT
 62
     7
 10
137.638083913746
 20
356.779964029789
 30
0.0
 11
145.866084058644
 21
356.779964029789
 31
0.0
  0
LINE
  5
   5C5
  8
0
  6
DASHDOT
 62
     7
 10
141.718083984675
 20
352.699963958859
 30
0.0
 11
141.718083984675
 21
360.859964100718
 31
0.0
  0
LINE
  5
   5C6
  8
0
  6
DASHDOT
 62
     7
 10
165.638084330978
 20
259.179962575436
 30
0.0
 11
173.866084475877
 21
259.179962575436
 31
0.0
  0
LINE
  5
   5C7
  8
0
  6
DASHDOT
 62
     7
 10
169.718084401908
 20
255.099962504506
 30
0.0
 11
169.718084401908
 21
263.259962646365
 31
0.0
  0
LINE
  5
   5C8
  8
0
  6
DASHDOT
 62
     7
 10
154.662084174933
 20
365.579964160919
 30
0.0
 11
156.791684212436
 21
365.579964160919
 31
0.0
  0
LINE
  5
   5C9
  8
0
  6
DASHDOT
 62
     7
 10
155.718084193291
 20
364.523964142562
 30
0.0
 11
155.718084193291
 21
366.635964179277
 31
0.0
  0
LINE
  5
   5CA
  8
0
  6
DASHDOT
 62
     7
 10
139.702083583416
 20
356.77996402979
 30
0.0
 11
143.767684393542
 21
356.77996402979
 31
0.0
  0
LINE
  5
   5CB
  8
0
  6
DASHDOT
 62
     7
 10
141.718083984676
 20
354.76396362853
 30
0.0
 11
141.718083984676
 21
358.79596443105
 31
0.0
  0
LINE
  5
   5CC
  8
0
  6
DASHDOT
 62
     7
 10
139.702083583416
 20
356.77996402979
 30
0.0
 11
143.767684393542
 21
356.77996402979
 31
0.0
  0
LINE
  5
   5CD
  8
0
  6
DASHDOT
 62
     7
 10
141.718083984676
 20
354.76396362853
 30
0.0
 11
141.718083984676
 21
358.79596443105
 31
0.0
  0
LINE
  5
   5CE
  8
0
  6
DASHDOT
 62
     7
 10
167.702084000649
 20
356.779964029789
 30
0.0
 11
171.767684810772
 21
356.779964029789
 31
0.0
  0
LINE
  5
   5CF
  8
0
  6
DASHDOT
 62
     7
 10
169.718084401908
 20
354.76396362853
 30
0.0
 11
169.718084401908
 21
358.795964431048
 31
0.0
  0
LINE
  5
   5D0
  8
0
  6
DASHDOT
 62
     7
 10
167.702084000649
 20
356.779964029789
 30
0.0
 11
171.767684810772
 21
356.779964029789
 31
0.0
  0
LINE
  5
   5D1
  8
0
  6
DASHDOT
 62
     7
 10
169.718084401908
 20
354.76396362853
 30
0.0
 11
169.718084401908
 21
358.795964431048
 31
0.0
  0
LINE
  5
   5D2
  8
0
  6
DASHDOT
 62
     7
 10
139.702083949628
 20
259.179962575436
 30
0.0
 11
143.767684021225
 21
259.179962575436
 31
0.0
  0
LINE
  5
   5D3
  8
0
  6
DASHDOT
 62
     7
 10
141.718083984675
 20
257.163962540388
 30
0.0
 11
141.718083984675
 21
261.195962610483
 31
0.0
  0
LINE
  5
   5D4
  8
0
  6
DASHDOT
 62
     7
 10
167.70208436686
 20
259.179962575436
 30
0.0
 11
171.767684438457
 21
259.179962575436
 31
0.0
  0
LINE
  5
   5D5
  8
0
  6
DASHDOT
 62
     7
 10
169.718084401908
 20
257.163962540388
 30
0.0
 11
169.718084401908
 21
261.195962610483
 31
0.0
  0
LINE
  5
   5D6
  8
0
  6
DASHDOT
 62
     7
 10
139.702083949909
 20
356.779964029387
 30
0.0
 11
143.767684020147
 21
356.779964029387
 31
0.0
  0
LINE
  5
   5D7
  8
0
  6
DASHDOT
 62
     7
 10
141.718083984282
 20
354.763963995014
 30
0.0
 11
141.718083984282
 21
358.795964063761
 31
0.0
  0
LINE
  5
   5D8
  8
0
  6
DASHDOT
 62
     7
 10
167.702084366851
 20
356.779964029797
 30
0.0
 11
171.767684438426
 21
356.779964029797
 31
0.0
  0
LINE
  5
   5D9
  8
0
  6
DASHDOT
 62
     7
 10
169.718084401887
 20
354.76396399476
 30
0.0
 11
169.718084401887
 21
358.795964064833
 31
0.0
  0
TEXT
  5
   5DA
  8
0
  6
CONTINUOUS
 62
     7
 10
152.300265170843
 20
373.908681045264
 30
0.0
 40
2.99999994933605
  1
Y
 41
0.933333333333333
 72
     1
 11
153.400265152267
 21
375.408681019931
 31
0.0
 73
     2
  0
TEXT
  5
   5DB
  8
0
  6
CONTINUOUS
 62
     7
 10
81.6445603057006
 20
308.717796082782
 30
0.0
 40
2.99999994933605
  1
X
 41
0.933333333333333
 72
     1
 11
82.7445602871238
 21
310.21779605745
 31
0.0
 73
     2
  0
TEXT
  5
   5DC
  8
0
  6
CONTINUOUS
 62
     7
 10
200.126162093561
 20
308.594685998266
 30
0.0
 40
2.99999994933605
  1
X
 41
0.933333333333333
 72
     1
 11
201.226162074984
 21
310.094685972934
 31
0.0
 73
     2
  0
LINE
  5
   5DD
  8
0
  6
DASHDOT
 62
     7
 10
80.2687010806225
 20
307.979963302612
 30
0.0
 11
204.192279998195
 21
307.979963302612
 31
0.0
  0
TEXT
  5
   5DE
  8
0
  6
CONTINUOUS
 62
     7
 10
152.423375255359
 20
241.009404973289
 30
0.0
 40
2.99999994933605
  1
Y
 41
0.933333333333333
 72
     1
 11
153.523375236783
 21
242.509404947957
 31
0.0
 73
     2
  0
LINE
  5
   5DF
  8
0
  6
DASHDOT
 62
     7
 10
155.718084193291
 20
237.540994758274
 30
0.0
 11
155.718084193291
 21
384.589556323338
 31
0.0
  0
INSERT
  5
   5E0
  8
0
  6
CONTINUOUS
 62
     7
  2
*UDIM1177
 10
0.0
 20
0.0
 30
0.0
  0
CIRCLE
  5
   5E1
  8
0
  6
CONTINUOUS
 62
     7
 10
155.718084193291
 20
354.379963994526
 30
0.0
 40
4.80000007152557
  0
CIRCLE
  5
   5E2
  8
0
  6
CONTINUOUS
 62
     7
 10
99.7180833588264
 20
354.379963994026
 30
0.0
 40
4.80000007152553
  0
LINE
  5
   5E3
  8
0
  6
DASHDOT
 62
     7
 10
93.9580832586906
 20
354.379963994026
 30
0.0
 11
105.574083463254
 21
354.379963994026
 31
0.0
  0
INSERT
  5
   5E4
  8
0
  6
CONTINUOUS
 62
     7
  2
*UDIM1178
 10
0.0
 20
0.0
 30
0.0
  0
LINE
  5
   5E5
  8
0
  6
DASHDOT
 62
     7
 10
99.7180833588264
 20
348.61996389389
 30
0.0
 11
99.7180833588264
 21
360.139964094162
 31
0.0
  0
LINE
  5
   5E6
  8
0
  6
DASHDOT
 62
     7
 10
99.7180833588264
 20
255.819962510563
 30
0.0
 11
99.7180833588264
 21
267.339962710835
 31
0.0
  0
LINE
  5
   5E7
  8
0
  6
DASHDOT
 62
     7
 10
93.9580832586906
 20
261.579962610699
 30
0.0
 11
105.574083463254
 21
261.579962610699
 31
0.0
  0
CIRCLE
  5
   5E8
  8
0
  6
CONTINUOUS
 62
     7
 10
99.7180833588264
 20
261.579962610699
 30
0.0
 40
4.80000007152558
  0
CIRCLE
  5
   5E9
  8
0
  6
CONTINUOUS
 62
     7
 10
113.718083567443
 20
259.179962575436
 30
0.0
 40
3.60000005364415
  0
CIRCLE
  5
   5EA
  8
0
  6
CONTINUOUS
 62
     7
 10
113.718083567443
 20
259.179962575436
 30
0.0
 40
3.60000005364415
  0
CIRCLE
  5
   5EB
  8
0
  6
CONTINUOUS
 62
     7
 10
113.718083567443
 20
259.179962575436
 30
0.0
 40
1.68000002503394
  0
LINE
  5
   5EC
  8
0
  6
DASHDOT
 62
     7
 10
113.718083567443
 20
254.859962500334
 30
0.0
 11
113.718083567443
 21
263.499962650537
 31
0.0
  0
LINE
  5
   5ED
  8
0
  6
DASHDOT
 62
     7
 10
109.398083492341
 20
259.179962575436
 30
0.0
 11
118.110083645763
 21
259.179962575436
 31
0.0
  0
LINE
  5
   5EE
  8
0
  6
DASHDOT
 62
     7
 10
109.638083496513
 20
356.779964029789
 30
0.0
 11
117.866083641412
 21
356.779964029789
 31
0.0
  0
LINE
  5
   5EF
  8
0
  6
DASHDOT
 62
     7
 10
113.718083567443
 20
352.699963958859
 30
0.0
 11
113.718083567443
 21
360.859964100718
 31
0.0
  0
CIRCLE
  5
   5F0
  8
0
  6
CONTINUOUS
 62
     7
 10
113.718083567443
 20
356.779964029789
 30
0.0
 40
3.40000005066377
  0
CIRCLE
  5
   5F1
  8
0
  6
CONTINUOUS
 62
   253
 10
113.718083567443
 20
356.779964029789
 30
0.0
 40
1.68000033020977
  0
LINE
  5
   5F2
  8
0
  6
CONTINUOUS
 62
     3
 10
116.118083603205
 20
367.979964196682
 30
0.0
 11
139.318083948912
 21
367.979964196682
 31
0.0
  0
LINE
  5
   5F3
  8
0
  6
CONTINUOUS
 62
     5
 10
111.31808353168
 20
363.179964125156
 30
0.0
 11
111.31808353168
 21
367.179964184761
 31
0.0
  0
LINE
  5
   5F4
  8
0
  6
CONTINUOUS
 62
     3
 10
111.31808353168
 20
367.179964184761
 30
0.0
 11
111.31808353168
 21
367.979964196682
 31
0.0
  0
LINE
  5
   5F5
  8
0
  6
CONTINUOUS
 62
   212
 10
112.518083549562
 20
366.37996417284
 30
0.0
 11
112.518083549562
 21
367.979964196682
 31
0.0
  0
LINE
  5
   5F6
  8
0
  6
CONTINUOUS
 62
   212
 10
111.31808353168
 20
367.979964196682
 30
0.0
 11
112.518083549561
 21
367.979964196682
 31
0.0
  0
LINE
  5
   5F7
  8
0
  6
CONTINUOUS
 62
   212
 10
111.31808353168
 20
366.37996417284
 30
0.0
 11
112.518083549561
 21
366.37996417284
 31
0.0
  0
LINE
  5
   5F8
  8
0
  6
CONTINUOUS
 62
     2
 10
111.31808353168
 20
364.779964148998
 30
0.0
 11
116.118083603205
 21
364.779964148998
 31
0.0
  0
LINE
  5
   5F9
  8
0
  6
CONTINUOUS
 62
   212
 10
114.918083585324
 20
366.37996417284
 30
0.0
 11
114.918083585324
 21
367.979964196682
 31
0.0
  0
LINE
  5
   5FA
  8
0
  6
CONTINUOUS
 62
   212
 10
114.918083585324
 20
366.37996417284
 30
0.0
 11
116.118083603205
 21
366.37996417284
 31
0.0
  0
LINE
  5
   5FB
  8
0
  6
CONTINUOUS
 62
   212
 10
114.918083585324
 20
367.979964196682
 30
0.0
 11
116.118083603205
 21
367.979964196682
 31
0.0
  0
LINE
  5
   5FC
  8
0
  6
CONTINUOUS
 62
     3
 10
116.118083603205
 20
367.179964184761
 30
0.0
 11
116.118083603205
 21
367.979964196682
 31
0.0
  0
LINE
  5
   5FD
  8
0
  6
CONTINUOUS
 62
     5
 10
116.118083603205
 20
363.179964125156
 30
0.0
 11
116.118083603205
 21
367.179964184761
 31
0.0
  0
LINE
  5
   5FE
  8
0
  6
CONTINUOUS
 62
     7
 10
111.51808353466
 20
248.779962420464
 30
0.0
 11
111.51808353466
 21
252.779962480068
 31
0.0
  0
LINE
  5
   5FF
  8
0
  6
CONTINUOUS
 62
     7
 10
111.51808353466
 20
247.979962408543
 30
0.0
 11
111.51808353466
 21
248.779962420464
 31
0.0
  0
LINE
  5
   600
  8
0
  6
CONTINUOUS
 62
     7
 10
111.51808353466
 20
247.979962408543
 30
0.0
 11
112.518083549561
 21
247.979962408543
 31
0.0
  0
LINE
  5
   601
  8
0
  6
CONTINUOUS
 62
     7
 10
112.518083549562
 20
247.979962408543
 30
0.0
 11
112.518083549562
 21
249.579962432385
 31
0.0
  0
LINE
  5
   602
  8
0
  6
CONTINUOUS
 62
     7
 10
111.51808353466
 20
249.579962432385
 30
0.0
 11
112.518083549561
 21
249.579962432385
 31
0.0
  0
LINE
  5
   603
  8
0
  6
CONTINUOUS
 62
     7
 10
111.51808353466
 20
251.179962456226
 30
0.0
 11
115.918083600225
 21
251.179962456226
 31
0.0
  0
LINE
  5
   604
  8
0
  6
CONTINUOUS
 62
     7
 10
114.918083585324
 20
249.579962432385
 30
0.0
 11
115.918083600225
 21
249.579962432385
 31
0.0
  0
LINE
  5
   605
  8
0
  6
CONTINUOUS
 62
     7
 10
114.918083585324
 20
247.979962408543
 30
0.0
 11
114.918083585324
 21
249.579962432385
 31
0.0
  0
LINE
  5
   606
  8
0
  6
CONTINUOUS
 62
     7
 10
114.918083585324
 20
247.979962408543
 30
0.0
 11
115.918083600225
 21
247.979962408543
 31
0.0
  0
LINE
  5
   607
  8
0
  6
CONTINUOUS
 62
     7
 10
115.918083600225
 20
247.979962408543
 30
0.0
 11
115.918083600225
 21
248.779962420464
 31
0.0
  0
LINE
  5
   608
  8
0
  6
CONTINUOUS
 62
     7
 10
115.918083600225
 20
248.779962420464
 30
0.0
 11
115.918083600225
 21
252.779962480068
 31
0.0
  0
LINE
  5
   609
  8
0
  6
CONTINUOUS
 62
     7
 10
115.918083600225
 20
247.979962408543
 30
0.0
 11
139.518083951893
 21
247.979962408543
 31
0.0
  0
INSERT
  5
   60A
  8
0
  6
CONTINUOUS
 62
     7
  2
*UDIM1179
 10
0.0
 20
0.0
 30
0.0
  0
INSERT
  5
   60B
  8
0
  6
CONTINUOUS
 62
     7
  2
*UDIM1180
 10
0.0
 20
0.0
 30
0.0
  0
INSERT
  5
   60C
  8
0
  6
CONTINUOUS
 62
     7
  2
*UDIM1181
 10
0.0
 20
0.0
 30
0.0
  0
INSERT
  5
   60D
  8
0
  6
CONTINUOUS
 62
     7
  2
*UDIM1182
 10
0.0
 20
0.0
 30
0.0
  0
INSERT
  5
   60E
  8
0
  6
CONTINUOUS
 62
     7
  2
*HATCH1017
 10
0.0
 20
0.0
 30
0.0
  0
INSERT
  5
   60F
  8
0
  6
CONTINUOUS
 62
     7
  2
*HATCH1018
 10
0.0
 20
0.0
 30
0.0
  0
INSERT
  5
   610
  8
0
  6
CONTINUOUS
 62
     7
  2
*UDIM1183
 10
0.0
 20
0.0
 30
0.0
  0
INSERT
  5
   611
  8
0
  6
CONTINUOUS
 62
     7
  2
*UDIM1184
 10
0.0
 20
0.0
 30
0.0
  0
LINE
  5
   612
  8
0
  6
DASHDOT
 62
     7
 10
241.230124821206
 20
241.545865350696
 30
0.0
 11
241.230124821206
 21
376.494694426546
 31
0.0
  0
LINE
  5
   613
  8
0
  6
CONTINUOUS
 62
     7
 10
239.665162755465
 20
376.735095225801
 30
0.0
 11
245.619737473351
 21
375.820386458897
 31
0.0
  0
LINE
  5
   614
  8
0
  6
CONTINUOUS
 62
     7
 10
239.924664277082
 20
241.962818528287
 30
0.0
 11
244.967335555453
 21
240.352231504016
 31
0.0
  0
LINE
  5
   615
  8
0
  6
CONTINUOUS
 62
   252
 10
308.027881830931
 20
268.779962718487
 30
0.0
 11
308.827882786499
 21
268.779962718487
 31
0.0
  0
LINE
  5
   616
  8
0
  6
CONTINUOUS
 62
   252
 10
309.227881848812
 20
268.779962718487
 30
0.0
 11
309.227881848812
 21
331.179963648319
 31
0.0
  0
LINE
  5
   617
  8
0
  6
CONTINUOUS
 62
   252
 10
308.827882786499
 20
268.779962718487
 30
0.0
 11
310.027882804381
 21
268.779962718487
 31
0.0
  0
LINE
  5
   618
  8
0
  6
CONTINUOUS
 62
   252
 10
310.027881860731
 20
268.779962718487
 30
0.0
 11
310.027881860731
 21
280.779962897301
 31
0.0
  0
LINE
  5
   619
  8
0
  6
CONTINUOUS
 62
   252
 10
310.027881860731
 20
319.179963469505
 30
0.0
 11
310.027881860731
 21
331.179963648319
 31
0.0
  0
LINE
  5
   61A
  8
0
  6
CONTINUOUS
 62
   252
 10
308.027881830931
 20
331.179963648319
 30
0.0
 11
308.827882786499
 21
331.179963648319
 31
0.0
  0
LINE
  5
   61B
  8
0
  6
CONTINUOUS
 62
   252
 10
308.827882786499
 20
331.179963648319
 30
0.0
 11
310.027882804381
 21
331.179963648319
 31
0.0
  0
LINE
  5
   61C
  8
0
  6
CONTINUOUS
 62
   252
 10
309.227881848812
 20
280.779962897301
 30
0.0
 11
310.027882804381
 21
280.779962897301
 31
0.0
  0
LINE
  5
   61D
  8
0
  6
CONTINUOUS
 62
   252
 10
309.227881848812
 20
319.179963469505
 30
0.0
 11
310.027882804381
 21
319.179963469505
 31
0.0
  0
LINE
  5
   61E
  8
0
  6
CONTINUOUS
 62
     3
 10
308.027881830931
 20
259.66617315718
 30
0.0
 11
308.027881830931
 21
346.246533850941
 31
0.0
  0
LINE
  5
   61F
  8
0
  6
CONTINUOUS
 62
     3
 10
306.427881807089
 20
260.222694904603
 30
0.0
 11
306.427881807089
 21
347.046533862862
 31
0.0
  0
LINE
  5
   620
  8
0
  6
CONTINUOUS
 62
     7
 10
304.487280895249
 20
348.016834318782
 30
0.0
 11
309.411685906877
 21
345.554631812968
 31
0.0
  0
LINE
  5
   621
  8
0
  6
CONTINUOUS
 62
     7
 10
305.176697596877
 20
260.657889412503
 30
0.0
 11
309.707150207574
 21
259.082079808782
 31
0.0
  0
LINE
  5
   622
  8
0
  6
DASHDOT
 62
     7
 10
235.093887473104
 20
307.979963302613
 30
0.0
 11
328.520886656052
 21
307.979963302613
 31
0.0
  0
INSERT
  5
   623
  8
255
  6
CONTINUOUS
 62
     7
  2
DADO
 10
241.230124821206
 20
356.77996402979
 30
0.0
 41
0.80000001192093
 42
0.80000001192093
 43
0.80000001192093
  0
INSERT
  5
   624
  8
255
  6
CONTINUOUS
 62
     7
  2
DADO
 10
241.230124821206
 20
259.179962571418
 30
0.0
 41
0.80000001192093
 42
0.80000001192093
 43
0.80000001192093
  0
TEXT
  5
   625
  8
0
  6
CONTINUOUS
 62
     7
 10
235.746281543278
 20
308.798319062507
 30
0.0
 40
2.99999994933605
  1
X
 41
0.933333333333333
 72
     1
 11
236.846281524702
 21
310.298319037175
 31
0.0
 73
     2
  0
INSERT
  5
   626
  8
0
  6
CONTINUOUS
 62
     7
  2
*UDIM1185
 10
0.0
 20
0.0
 30
0.0
  0
LINE
  5
   627
  8
0
  6
CONTINUOUS
 62
     7
 10
241.953263501673
 20
341.179963797331
 30
0.0
 11
290.830124616623
 21
341.179963797331
 31
0.0
  0
LINE
  5
   628
  8
0
  6
CONTINUOUS
 62
     7
 10
290.830124616623
 20
341.179963797331
 30
0.0
 11
290.830124616623
 21
370.222868445722
 31
0.0
  0
LINE
  5
   629
  8
0
  6
CONTINUOUS
 62
     7
 10
242.3225934437
 20
274.779962807895
 30
0.0
 11
290.830124616623
 21
274.779962807895
 31
0.0
  0
LINE
  5
   62A
  8
0
  6
CONTINUOUS
 62
     7
 10
290.830124616623
 20
245.512458021209
 30
0.0
 11
290.830124616623
 21
274.779962807895
 31
0.0
  0
INSERT
  5
   62B
  8
0
  6
CONTINUOUS
 62
     7
  2
*HATCH1019
 10
0.0
 20
0.0
 30
0.0
  0
INSERT
  5
   62C
  8
0
  6
CONTINUOUS
 62
     7
  2
*HATCH1020
 10
0.0
 20
0.0
 30
0.0
  0
INSERT
  5
   62D
  8
0
  6
CONTINUOUS
 62
     7
  2
*HATCH1021
 10
0.0
 20
0.0
 30
0.0
  0
INSERT
  5
   62E
  8
0
  6
CONTINUOUS
 62
     7
  2
*HATCH1022
 10
0.0
 20
0.0
 30
0.0
  0
INSERT
  5
   62F
  8
0
  6
CONTINUOUS
 62
     7
  2
*HATCH1023
 10
0.0
 20
0.0
 30
0.0
  0
LINE
  5
   630
  8
0
  6
CONTINUOUS
 62
     7
 10
283.630124509335
 20
366.37996417284
 30
0.0
 11
283.630124509335
 21
367.979964196682
 31
0.0
  0
LINE
  5
   631
  8
0
  6
CONTINUOUS
 62
     7
 10
283.630124509335
 20
366.37996417284
 30
0.0
 11
285.630124539137
 21
366.37996417284
 31
0.0
  0
LINE
  5
   632
  8
0
  6
CONTINUOUS
 62
     7
 10
287.709532611369
 20
363.461070920491
 30
0.0
 11
290.830124616623
 21
363.461070920491
 31
0.0
  0
INSERT
  5
   633
  8
0
  6
CONTINUOUS
 62
     7
  2
*HATCH1024
 10
0.0
 20
0.0
 30
0.0
  0
INSERT
  5
   634
  8
0
  6
CONTINUOUS
 62
     7
  2
*HATCH1025
 10
0.0
 20
0.0
 30
0.0
  0
INSERT
  5
   635
  8
0
  6
CONTINUOUS
 62
     7
  2
*HATCH1026
 10
0.0
 20
0.0
 30
0.0
  0
INSERT
  5
   636
  8
0
  6
CONTINUOUS
 62
     7
  2
*HATCH1027
 10
0.0
 20
0.0
 30
0.0
  0
ARC
  5
   637
  8
0
  6
DASHDOT
 62
     7
 10
278.427881513261
 20
299.579963177441
 30
0.0
 40
46.8022436159619
 50
340.921580787181
 51
377.662902640563
  0
LINE
  5
   638
  8
0
  6
DASHDOT
 62
     7
 10
243.630124856969
 20
240.779325415319
 30
0.0
 11
243.630124856969
 21
376.126019722257
 31
0.0
  0
INSERT
  5
   639
  8
0
  6
CONTINUOUS
 62
     7
  2
*UDIM1186
 10
0.0
 20
0.0
 30
0.0
  0
INSERT
  5
   63A
  8
0
  6
CONTINUOUS
 62
     7
  2
*UDIM1187
 10
0.0
 20
0.0
 30
0.0
  0
INSERT
  5
   63B
  8
0
  6
CONTINUOUS
 62
     7
  2
*UDIM1188
 10
0.0
 20
0.0
 30
0.0
  0
INSERT
  5
   63C
  8
0
  6
CONTINUOUS
 62
     7
  2
*UDIM1189
 10
0.0
 20
0.0
 30
0.0
  0
INSERT
  5
   63D
  8
0
  6
CONTINUOUS
 62
     7
  2
*UDIM1190
 10
0.0
 20
0.0
 30
0.0
  0
INSERT
  5
   63E
  8
0
  6
CONTINUOUS
 62
     7
  2
*UDIM1191
 10
0.0
 20
0.0
 30
0.0
  0
LINE
  5
   63F
  8
0
  6
CONTINUOUS
 62
     5
 10
258.830122613907
 20
346.779963880777
 30
0.0
 11
259.230124145746
 21
346.779963880777
 31
0.0
  0
LINE
  5
   640
  8
0
  6
CONTINUOUS
 62
     5
 10
258.830122613907
 20
361.979964107275
 30
0.0
 11
275.630124390125
 21
361.979964107275
 31
0.0
  0
LINE
  5
   641
  8
0
  6
CONTINUOUS
 62
     5
 10
253.63012329936
 20
346.779963880777
 30
0.0
 11
255.630123329163
 21
346.779963880777
 31
0.0
  0
LINE
  5
   642
  8
0
  6
CONTINUOUS
 62
     5
 10
253.63012329936
 20
361.979964107275
 30
0.0
 11
255.630123329163
 21
361.979964107275
 31
0.0
  0
LINE
  5
   643
  8
0
  6
CONTINUOUS
 62
     5
 10
256.430122578144
 20
352.657637308205
 30
0.0
 11
256.430122578144
 21
356.102290679847
 31
0.0
  0
LINE
  5
   644
  8
0
  6
CONTINUOUS
 62
     5
 10
254.830123317242
 20
352.726277445947
 30
0.0
 11
254.830123317242
 21
356.033650542106
 31
0.0
  0
LINE
  5
   645
  8
0
  6
CONTINUOUS
 62
     5
 10
276.030124396086
 20
346.779963880777
 30
0.0
 11
276.030124396086
 21
349.591047907041
 31
0.0
  0
LINE
  5
   646
  8
0
  6
CONTINUOUS
 62
     5
 10
276.030124396086
 20
346.779963880777
 30
0.0
 11
278.030124425888
 21
346.779963880777
 31
0.0
  0
LINE
  5
   647
  8
0
  6
CONTINUOUS
 62
     5
 10
280.03012445569
 20
346.779963880777
 30
0.0
 11
280.03012445569
 21
349.591047907041
 31
0.0
  0
LINE
  5
   648
  8
0
  6
CONTINUOUS
 62
     5
 10
278.030124425888
 20
346.779963880777
 30
0.0
 11
280.03012445569
 21
346.779963880777
 31
0.0
  0
LINE
  5
   649
  8
0
  6
CONTINUOUS
 62
     5
 10
276.030124396086
 20
349.591047907041
 30
0.0
 11
280.03012445569
 21
349.591047907041
 31
0.0
  0
LINE
  5
   64A
  8
0
  6
CONTINUOUS
 62
     5
 10
276.030124396086
 20
359.168880081012
 30
0.0
 11
276.030124396086
 21
361.979964107275
 31
0.0
  0
LINE
  5
   64B
  8
0
  6
CONTINUOUS
 62
     5
 10
276.030124396086
 20
361.979964107275
 30
0.0
 11
278.030124425888
 21
361.979964107275
 31
0.0
  0
LINE
  5
   64C
  8
0
  6
CONTINUOUS
 62
     5
 10
280.03012445569
 20
359.168880081012
 30
0.0
 11
280.03012445569
 21
361.979964107275
 31
0.0
  0
LINE
  5
   64D
  8
0
  6
CONTINUOUS
 62
     5
 10
278.030124425888
 20
361.979964107275
 30
0.0
 11
280.03012445569
 21
361.979964107275
 31
0.0
  0
LINE
  5
   64E
  8
0
  6
CONTINUOUS
 62
     5
 10
276.030124396086
 20
359.168880081012
 30
0.0
 11
280.03012445569
 21
359.168880081012
 31
0.0
  0
LINE
  5
   64F
  8
0
  6
CONTINUOUS
 62
     2
 10
273.230124354363
 20
347.579963892698
 30
0.0
 11
273.230124354363
 21
348.77996391058
 31
0.0
  0
LINE
  5
   650
  8
0
  6
CONTINUOUS
 62
     2
 10
273.230124354363
 20
350.379963934422
 30
0.0
 11
273.230124354363
 21
358.379964053631
 31
0.0
  0
LINE
  5
   651
  8
0
  6
CONTINUOUS
 62
     2
 10
273.230124354363
 20
359.979964077473
 30
0.0
 11
273.230124354363
 21
361.179964095354
 31
0.0
  0
LINE
  5
   652
  8
0
  6
CONTINUOUS
 62
     2
 10
273.230124354363
 20
349.575422906808
 30
0.0
 11
273.230124354363
 21
349.584504938193
 31
0.0
  0
LINE
  5
   653
  8
0
  6
CONTINUOUS
 62
     2
 10
276.030124396086
 20
347.579963892698
 30
0.0
 11
276.030124396086
 21
348.77996391058
 31
0.0
  0
LINE
  5
   654
  8
0
  6
CONTINUOUS
 62
     2
 10
276.030124396086
 20
350.379963934422
 30
0.0
 11
276.030124396086
 21
357.926556929797
 31
0.0
  0
LINE
  5
   655
  8
0
  6
CONTINUOUS
 62
     2
 10
274.030124366283
 20
347.579963892698
 30
0.0
 11
276.030124396086
 21
347.579963892698
 31
0.0
  0
LINE
  5
   656
  8
0
  6
CONTINUOUS
 62
     2
 10
277.230124413967
 20
351.179963946342
 30
0.0
 11
277.230124413967
 21
351.982698333304
 31
0.0
  0
LINE
  5
   657
  8
0
  6
CONTINUOUS
 62
     2
 10
276.030124396086
 20
351.179963946342
 30
0.0
 11
277.230124413967
 21
351.179963946342
 31
0.0
  0
LINE
  5
   658
  8
0
  6
CONTINUOUS
 62
     2
 10
276.0289067447
 20
348.77996391058
 30
0.0
 11
276.030124396086
 21
348.77996391058
 31
0.0
  0
LINE
  5
   659
  8
0
  6
CONTINUOUS
 62
     2
 10
276.0289067447
 20
350.379963934422
 30
0.0
 11
276.030124396086
 21
350.379963934422
 31
0.0
  0
LINE
  5
   65A
  8
0
  6
CONTINUOUS
 62
     2
 10
273.230124354363
 20
359.175423049859
 30
0.0
 11
273.230124354363
 21
359.184505081244
 31
0.0
  0
LINE
  5
   65B
  8
0
  6
CONTINUOUS
 62
     2
 10
276.030124396086
 20
357.57996404171
 30
0.0
 11
276.030124396086
 21
358.379964053631
 31
0.0
  0
LINE
  5
   65C
  8
0
  6
CONTINUOUS
 62
     2
 10
276.030124396086
 20
359.979964077473
 30
0.0
 11
276.030124396086
 21
361.179964095354
 31
0.0
  0
LINE
  5
   65D
  8
0
  6
CONTINUOUS
 62
     2
 10
274.030124366283
 20
361.179964095354
 30
0.0
 11
276.030124396086
 21
361.179964095354
 31
0.0
  0
LINE
  5
   65E
  8
0
  6
CONTINUOUS
 62
     2
 10
277.230124413967
 20
356.777229654748
 30
0.0
 11
277.230124413967
 21
357.57996404171
 31
0.0
  0
LINE
  5
   65F
  8
0
  6
CONTINUOUS
 62
     2
 10
276.030124396086
 20
357.57996404171
 30
0.0
 11
277.230124413967
 21
357.57996404171
 31
0.0
  0
LINE
  5
   660
  8
0
  6
CONTINUOUS
 62
     2
 10
276.0289067447
 20
359.979964077473
 30
0.0
 11
276.030124396086
 21
359.979964077473
 31
0.0
  0
LINE
  5
   661
  8
0
  6
CONTINUOUS
 62
     2
 10
276.0289067447
 20
358.379964053631
 30
0.0
 11
276.030124396086
 21
358.379964053631
 31
0.0
  0
LINE
  5
   662
  8
0
  6
CONTINUOUS
 62
    90
 10
255.630123329163
 20
253.979964023829
 30
0.0
 11
255.630123329163
 21
258.379962563515
 31
0.0
  0
LINE
  5
   663
  8
0
  6
CONTINUOUS
 62
    90
 10
255.630123329163
 20
253.979964023829
 30
0.0
 11
257.230122590065
 21
253.979964023829
 31
0.0
  0
LINE
  5
   664
  8
0
  6
CONTINUOUS
 62
    90
 10
257.230122590065
 20
253.979964023829
 30
0.0
 11
257.230122590065
 21
258.379962563515
 31
0.0
  0
LINE
  5
   665
  8
0
  6
CONTINUOUS
 62
    90
 10
255.630123329163
 20
258.379962563515
 30
0.0
 11
257.230122590065
 21
258.379962563515
 31
0.0
  0
LINE
  5
   666
  8
0
  6
CONTINUOUS
 62
    90
 10
255.630123329163
 20
264.779962658882
 30
0.0
 11
255.630123329163
 21
268.779962718487
 31
0.0
  0
LINE
  5
   667
  8
0
  6
CONTINUOUS
 62
    90
 10
257.230122590065
 20
264.779962658882
 30
0.0
 11
257.230122590065
 21
268.779962718487
 31
0.0
  0
LINE
  5
   668
  8
0
  6
CONTINUOUS
 62
    90
 10
255.630123329163
 20
268.779962718487
 30
0.0
 11
257.230122590065
 21
268.779962718487
 31
0.0
  0
LINE
  5
   669
  8
0
  6
CONTINUOUS
 62
    90
 10
255.630123329163
 20
264.779962658882
 30
0.0
 11
257.230122590065
 21
264.779962658882
 31
0.0
  0
LINE
  5
   66A
  8
0
  6
CONTINUOUS
 62
     2
 10
272.430124342442
 20
253.179962486029
 30
0.0
 11
272.430124342442
 21
269.179962724447
 31
0.0
  0
LINE
  5
   66B
  8
0
  6
CONTINUOUS
 62
     2
 10
272.430124342442
 20
253.179962486029
 30
0.0
 11
272.430124342442
 21
265.579962670803
 31
0.0
  0
LINE
  5
   66C
  8
0
  6
CONTINUOUS
 62
     2
 10
275.230124384165
 20
257.579962551594
 30
0.0
 11
275.230124384165
 21
265.229763518655
 31
0.0
  0
LINE
  5
   66D
  8
0
  6
CONTINUOUS
 62
     2
 10
275.230124384165
 20
254.779962509871
 30
0.0
 11
275.230124384165
 21
255.979962527752
 31
0.0
  0
LINE
  5
   66E
  8
0
  6
CONTINUOUS
 62
     2
 10
272.430124342442
 20
254.779962509871
 30
0.0
 11
275.230124384165
 21
254.779962509871
 31
0.0
  0
LINE
  5
   66F
  8
0
  6
CONTINUOUS
 62
     2
 10
276.430124402046
 20
258.379962563515
 30
0.0
 11
276.430124402046
 21
259.182700002234
 31
0.0
  0
LINE
  5
   670
  8
0
  6
CONTINUOUS
 62
     2
 10
275.230124384165
 20
258.379962563515
 30
0.0
 11
276.430124402046
 21
258.379962563515
 31
0.0
  0
LINE
  5
   671
  8
0
  6
CONTINUOUS
 62
     2
 10
275.22890673278
 20
255.979962527752
 30
0.0
 11
275.230124384165
 21
255.979962527752
 31
0.0
  0
LINE
  5
   672
  8
0
  6
CONTINUOUS
 62
     2
 10
275.22890673278
 20
257.579962551594
 30
0.0
 11
275.230124384165
 21
257.579962551594
 31
0.0
  0
LINE
  5
   673
  8
0
  6
CONTINUOUS
 62
     2
 10
272.430124342442
 20
266.375424718789
 30
0.0
 11
272.430124342442
 21
266.384500646659
 31
0.0
  0
LINE
  5
   674
  8
0
  6
CONTINUOUS
 62
     2
 10
275.230124384165
 20
267.179962694645
 30
0.0
 11
275.230124384165
 21
268.379962712526
 31
0.0
  0
LINE
  5
   675
  8
0
  6
CONTINUOUS
 62
     2
 10
275.230124384165
 20
264.779962658882
 30
0.0
 11
275.230124384165
 21
265.579962670803
 31
0.0
  0
LINE
  5
   676
  8
0
  6
CONTINUOUS
 62
     2
 10
273.230124354363
 20
268.379962712526
 30
0.0
 11
275.230124384165
 21
268.379962712526
 31
0.0
  0
LINE
  5
   677
  8
0
  6
CONTINUOUS
 62
     2
 10
276.430124402046
 20
263.977225220163
 30
0.0
 11
276.430124402046
 21
264.779962658882
 31
0.0
  0
LINE
  5
   678
  8
0
  6
CONTINUOUS
 62
     2
 10
275.230124384165
 20
264.779962658882
 30
0.0
 11
276.430124402046
 21
264.779962658882
 31
0.0
  0
LINE
  5
   679
  8
0
  6
CONTINUOUS
 62
     2
 10
275.22890673278
 20
267.179962694645
 30
0.0
 11
275.230124384165
 21
267.179962694645
 31
0.0
  0
LINE
  5
   67A
  8
0
  6
CONTINUOUS
 62
     2
 10
275.22890673278
 20
265.579962670803
 30
0.0
 11
275.230124384165
 21
265.579962670803
 31
0.0
  0
LINE
  5
   67B
  8
0
  6
CONTINUOUS
 62
     5
 10
275.630124390125
 20
269.179962724447
 30
0.0
 11
275.726880373012
 21
269.179962724447
 31
0.0
  0
LINE
  5
   67C
  8
0
  6
CONTINUOUS
 62
     5
 10
272.430124342442
 20
253.97996249795
 30
0.0
 11
275.630124390125
 21
253.97996249795
 31
0.0
  0
LINE
  5
   67D
  8
0
  6
CONTINUOUS
 62
     5
 10
253.63012329936
 20
269.179962724447
 30
0.0
 11
255.630123329163
 21
269.179962724447
 31
0.0
  0
LINE
  5
   67E
  8
0
  6
CONTINUOUS
 62
     5
 10
253.63012329936
 20
253.97996249795
 30
0.0
 11
255.630123329163
 21
253.97996249795
 31
0.0
  0
LINE
  5
   67F
  8
0
  6
CONTINUOUS
 62
     5
 10
256.430122578144
 20
259.857642028893
 30
0.0
 11
256.430122578144
 21
263.302283193504
 31
0.0
  0
LINE
  5
   680
  8
0
  6
CONTINUOUS
 62
     5
 10
254.830123317242
 20
259.926269959603
 30
0.0
 11
254.830123317242
 21
263.233655262793
 31
0.0
  0
LINE
  5
   681
  8
0
  6
CONTINUOUS
 62
     5
 10
276.030124396086
 20
253.97996249795
 30
0.0
 11
276.030124396086
 21
256.791049575971
 31
0.0
  0
LINE
  5
   682
  8
0
  6
CONTINUOUS
 62
     5
 10
276.030124396086
 20
253.97996249795
 30
0.0
 11
278.030124425888
 21
253.97996249795
 31
0.0
  0
LINE
  5
   683
  8
0
  6
CONTINUOUS
 62
     5
 10
280.03012445569
 20
253.97996249795
 30
0.0
 11
280.03012445569
 21
256.791049575971
 31
0.0
  0
LINE
  5
   684
  8
0
  6
CONTINUOUS
 62
     5
 10
278.030124425888
 20
253.97996249795
 30
0.0
 11
280.03012445569
 21
253.97996249795
 31
0.0
  0
LINE
  5
   685
  8
0
  6
CONTINUOUS
 62
     5
 10
276.030124396086
 20
256.791049575971
 30
0.0
 11
280.03012445569
 21
256.791049575971
 31
0.0
  0
LINE
  5
   686
  8
0
  6
CONTINUOUS
 62
     5
 10
276.030124396086
 20
266.368875646426
 30
0.0
 11
276.030124396086
 21
269.179962724447
 31
0.0
  0
LINE
  5
   687
  8
0
  6
CONTINUOUS
 62
     5
 10
276.030124396086
 20
269.179962724447
 30
0.0
 11
278.030124425888
 21
269.179962724447
 31
0.0
  0
LINE
  5
   688
  8
0
  6
CONTINUOUS
 62
     5
 10
280.03012445569
 20
266.368875646426
 30
0.0
 11
280.03012445569
 21
269.179962724447
 31
0.0
  0
LINE
  5
   689
  8
0
  6
CONTINUOUS
 62
     5
 10
278.030124425888
 20
269.179962724447
 30
0.0
 11
280.03012445569
 21
269.179962724447
 31
0.0
  0
LINE
  5
   68A
  8
0
  6
CONTINUOUS
 62
     5
 10
276.030124396086
 20
266.368875646426
 30
0.0
 11
280.03012445569
 21
266.368875646426
 31
0.0
  0
LINE
  5
   68B
  8
0
  6
CONTINUOUS
 62
   253
 10
281.630124479532
 20
348.379963904619
 30
0.0
 11
281.630124479532
 21
349.584846735073
 31
0.0
  0
LINE
  5
   68C
  8
0
  6
CONTINUOUS
 62
   253
 10
281.630124479532
 20
359.175081252979
 30
0.0
 11
281.630124479532
 21
360.379964083433
 31
0.0
  0
LINE
  5
   68D
  8
0
  6
CONTINUOUS
 62
   253
 10
282.430124491453
 20
359.175081252979
 30
0.0
 11
282.430124491453
 21
360.379964083433
 31
0.0
  0
LINE
  5
   68E
  8
0
  6
CONTINUOUS
 62
   253
 10
282.430124491453
 20
348.379963904619
 30
0.0
 11
282.430124491453
 21
349.584846735073
 31
0.0
  0
ARC
  5
   68F
  8
0
  6
CONTINUOUS
 62
   253
 10
250.830124020576
 20
341.394323154471
 30
0.0
 40
2.40000003576229
 50
119.999976811972
 51
180.000092747486
  0
LINE
  5
   690
  8
0
  6
CONTINUOUS
 62
   253
 10
249.630124843865
 20
343.472784640174
 30
0.0
 11
252.587046143542
 21
345.179963948515
 31
0.0
  0
LINE
  5
   691
  8
0
  6
CONTINUOUS
 62
   253
 10
258.500657887318
 20
345.179963856936
 30
0.0
 11
259.230124145746
 21
345.179963856936
 31
0.0
  0
LINE
  5
   692
  8
0
  6
CONTINUOUS
 62
   253
 10
252.590123894215
 20
345.179963856936
 30
0.0
 11
253.551661841892
 21
345.179963856936
 31
0.0
  0
LINE
  5
   693
  8
0
  6
CONTINUOUS
 62
   253
 10
280.030127507448
 20
269.579962730408
 30
0.0
 11
283.630124509335
 21
269.579962730408
 31
0.0
  0
LINE
  5
   694
  8
0
  6
CONTINUOUS
 62
   253
 10
252.830121702039
 20
267.979962706566
 30
0.0
 11
252.830121702039
 21
269.179962724447
 31
0.0
  0
LINE
  5
   695
  8
0
  6
CONTINUOUS
 62
   253
 10
252.830124050379
 20
267.979962706566
 30
0.0
 11
253.63012329936
 21
267.979962706566
 31
0.0
  0
LINE
  5
   696
  8
0
  6
CONTINUOUS
 62
   253
 10
280.03012445569
 20
267.979962706566
 30
0.0
 11
281.630124479532
 21
267.979962706566
 31
0.0
  0
ARC
  5
   697
  8
0
  6
CONTINUOUS
 62
   253
 10
261.630125086447
 20
295.17996312104
 30
0.0
 40
19.6000002780586
 50
139.055421104778
 51
139.227195276614
  0
LINE
  5
   698
  8
0
  6
CONTINUOUS
 62
   253
 10
258.830122613907
 20
346.779963880777
 30
0.0
 11
259.230124145746
 21
346.779963880777
 31
0.0
  0
LINE
  5
   699
  8
0
  6
CONTINUOUS
 62
   253
 10
251.790123882294
 20
346.779963880777
 30
0.0
 11
253.63012329936
 21
346.779963880777
 31
0.0
  0
LINE
  5
   69A
  8
0
  6
CONTINUOUS
 62
   253
 10
258.50071129308
 20
345.179963856936
 30
0.0
 11
259.230124145746
 21
345.179963856936
 31
0.0
  0
LINE
  5
   69B
  8
0
  6
CONTINUOUS
 62
   253
 10
252.590123894215
 20
345.179963856936
 30
0.0
 11
253.554293220105
 21
345.179963856936
 31
0.0
  0
LINE
  5
   69C
  8
0
  6
CONTINUOUS
 62
   253
 10
252.830124050379
 20
270.379962742329
 30
0.0
 11
257.975699078226
 21
270.379962742329
 31
0.0
  0
LINE
  5
   69D
  8
0
  6
CONTINUOUS
 62
   253
 10
244.590123927593
 20
307.979963302612
 30
0.0
 11
244.590123927593
 21
308.179963305593
 31
0.0
  0
LINE
  5
   69E
  8
0
  6
CONTINUOUS
 62
   253
 10
243.630123913288
 20
359.979964077471
 30
0.0
 11
244.59012396574
 21
359.979964077471
 31
0.0
  0
LINE
  5
   69F
  8
0
  6
CONTINUOUS
 62
   253
 10
243.630123913288
 20
255.979962527752
 30
0.0
 11
244.59012396574
 21
255.979962527752
 31
0.0
  0
LINE
  5
   6A0
  8
0
  6
CONTINUOUS
 62
   253
 10
246.590123804808
 20
309.579963326454
 30
0.0
 11
246.830123960972
 21
309.579963326454
 31
0.0
  0
LINE
  5
   6A1
  8
0
  6
CONTINUOUS
 62
   253
 10
246.630123957992
 20
346.779963880777
 30
0.0
 11
246.830123960972
 21
346.779963880777
 31
0.0
  0
LINE
  5
   6A2
  8
0
  6
CONTINUOUS
 62
   253
 10
246.190123798847
 20
346.779964213079
 30
0.0
 11
246.630123957992
 21
346.779964213079
 31
0.0
  0
LINE
  5
   6A3
  8
0
  6
CONTINUOUS
 62
   253
 10
251.630124032497
 20
346.939961441755
 30
0.0
 11
251.630124032497
 21
349.579963922501
 31
0.0
  0
LINE
  5
   6A4
  8
0
  6
CONTINUOUS
 62
   253
 10
250.590123940706
 20
347.979963974953
 30
0.0
 11
250.990123946667
 21
347.579963968992
 31
0.0
  0
LINE
  5
   6A5
  8
0
  6
CONTINUOUS
 62
   253
 10
246.830123960972
 20
347.979963898659
 30
0.0
 11
246.830123960972
 21
348.379963904619
 31
0.0
  0
LINE
  5
   6A6
  8
0
  6
CONTINUOUS
 62
   253
 10
251.630124032497
 20
266.379962682724
 30
0.0
 11
251.630124032497
 21
267.179962694645
 31
0.0
  0
LINE
  5
   6A7
  8
0
  6
CONTINUOUS
 62
   253
 10
251.630124032497
 20
267.179962694645
 30
0.0
 11
251.630124032497
 21
267.979962706566
 31
0.0
  0
LINE
  5
   6A8
  8
0
  6
CONTINUOUS
 62
   253
 10
246.830123960972
 20
267.579962700605
 30
0.0
 11
246.830123960972
 21
267.979962706566
 31
0.0
  0
LINE
  5
   6A9
  8
0
  6
CONTINUOUS
 62
   253
 10
243.630123913288
 20
359.019966504574
 30
0.0
 11
243.630123913288
 21
359.179964065552
 31
0.0
  0
LINE
  5
   6AA
  8
0
  6
CONTINUOUS
 62
   253
 10
243.630123913288
 20
359.179964065552
 30
0.0
 11
243.630123913288
 21
359.979964077473
 31
0.0
  0
LINE
  5
   6AB
  8
0
  6
CONTINUOUS
 62
   253
 10
243.630123913288
 20
255.979962527752
 30
0.0
 11
243.630123913288
 21
256.779962539673
 31
0.0
  0
LINE
  5
   6AC
  8
0
  6
CONTINUOUS
 62
   253
 10
243.630123913288
 20
256.779962539673
 30
0.0
 11
243.630123913288
 21
256.939963152409
 31
0.0
  0
LINE
  5
   6AD
  8
0
  6
CONTINUOUS
 62
   253
 10
283.630124509335
 20
346.579963877797
 30
0.0
 11
283.630124509335
 21
346.779963880777
 31
0.0
  0
LINE
  5
   6AE
  8
0
  6
CONTINUOUS
 62
   253
 10
283.630124509335
 20
361.979964107275
 30
0.0
 11
283.630124509335
 21
362.179964110255
 31
0.0
  0
LINE
  5
   6AF
  8
0
  6
CONTINUOUS
 62
   253
 10
283.630124509335
 20
341.179963797331
 30
0.0
 11
283.630124509335
 21
345.179963856936
 31
0.0
  0
LINE
  5
   6B0
  8
0
  6
CONTINUOUS
 62
   253
 10
243.630123913288
 20
307.979963302612
 30
0.0
 11
244.59012396574
 21
307.979963302612
 31
0.0
  0
LINE
  5
   6B1
  8
0
  6
CONTINUOUS
 62
   253
 10
246.830123960972
 20
307.979963302612
 30
0.0
 11
246.830123960972
 21
341.179963797331
 31
0.0
  0
LINE
  5
   6B2
  8
0
  6
CONTINUOUS
 62
   253
 10
244.59012396574
 20
307.979963302612
 30
0.0
 11
246.830123960972
 21
307.979963302612
 31
0.0
  0
LINE
  5
   6B3
  8
0
  6
CONTINUOUS
 62
   253
 10
243.630123913288
 20
274.779962807894
 30
0.0
 11
243.630123913288
 21
291.579963058233
 31
0.0
  0
LINE
  5
   6B4
  8
0
  6
CONTINUOUS
 62
   253
 10
243.630123913288
 20
299.979963183403
 30
0.0
 11
243.630123913288
 21
307.979963302612
 31
0.0
  0
LINE
  5
   6B5
  8
0
  6
CONTINUOUS
 62
   253
 10
252.830124050379
 20
247.979962408543
 30
0.0
 11
258.030125043394
 21
247.979962408543
 31
0.0
  0
LINE
  5
   6B6
  8
0
  6
CONTINUOUS
 62
   253
 10
252.830124050379
 20
367.979964196682
 30
0.0
 11
281.630124479532
 21
367.979964196682
 31
0.0
  0
LINE
  5
   6B7
  8
0
  6
CONTINUOUS
 62
   253
 10
244.590123927593
 20
341.179963797331
 30
0.0
 11
244.590123927593
 21
342.779963821173
 31
0.0
  0
LINE
  5
   6B8
  8
0
  6
CONTINUOUS
 62
   253
 10
245.23012393713
 20
341.179963797331
 30
0.0
 11
245.23012393713
 21
342.13996137023
 31
0.0
  0
LINE
  5
   6B9
  8
0
  6
CONTINUOUS
 62
   253
 10
245.550123941898
 20
341.179963797331
 30
0.0
 11
245.550123941898
 21
342.13996137023
 31
0.0
  0
LINE
  5
   6BA
  8
0
  6
CONTINUOUS
 62
   253
 10
245.63012394309
 20
343.179963827133
 30
0.0
 11
245.63012394309
 21
343.979963839054
 31
0.0
  0
LINE
  5
   6BB
  8
0
  6
CONTINUOUS
 62
   253
 10
245.63012394309
 20
344.979963853955
 30
0.0
 11
245.63012394309
 21
345.179963856936
 31
0.0
  0
LINE
  5
   6BC
  8
0
  6
CONTINUOUS
 62
   253
 10
244.59012396574
 20
342.779963821173
 30
0.0
 11
245.23012393713
 21
342.779963821173
 31
0.0
  0
LINE
  5
   6BD
  8
0
  6
CONTINUOUS
 62
   253
 10
283.07012450099
 20
274.779962807894
 30
0.0
 11
283.07012450099
 21
287.419965437651
 31
0.0
  0
LINE
  5
   6BE
  8
0
  6
CONTINUOUS
 62
   253
 10
283.07012450099
 20
313.339960941076
 30
0.0
 11
283.07012450099
 21
341.179963797331
 31
0.0
  0
LINE
  5
   6BF
  8
0
  6
CONTINUOUS
 62
   253
 10
283.630124509335
 20
287.419965437651
 30
0.0
 11
283.630124509335
 21
287.979963004589
 31
0.0
  0
LINE
  5
   6C0
  8
0
  6
CONTINUOUS
 62
   253
 10
245.23012393713
 20
307.979963302612
 30
0.0
 11
245.23012393713
 21
308.179963305593
 31
0.0
  0
LINE
  5
   6C1
  8
0
  6
CONTINUOUS
 62
   253
 10
272.670125332692
 20
304.857521338649
 30
0.0
 11
276.807274920027
 21
313.339961417539
 31
0.0
  0
LINE
  5
   6C2
  8
0
  6
CONTINUOUS
 62
   253
 10
276.807275896924
 20
313.339963382483
 30
0.0
 11
283.070123890638
 21
313.339963382483
 31
0.0
  0
LINE
  5
   6C3
  8
0
  6
CONTINUOUS
 62
   253
 10
272.670126787424
 20
287.419962996244
 30
0.0
 11
283.070123890638
 21
287.419962996244
 31
0.0
  0
LINE
  5
   6C4
  8
0
  6
CONTINUOUS
 62
   253
 10
272.670125261547
 20
287.419965437651
 30
0.0
 11
272.670125261547
 21
291.579963058233
 31
0.0
  0
LINE
  5
   6C5
  8
0
  6
CONTINUOUS
 62
   253
 10
272.670125261547
 20
299.979963183403
 30
0.0
 11
272.670125261547
 21
304.857520629131
 31
0.0
  0
LINE
  5
   6C6
  8
0
  6
CONTINUOUS
 62
   253
 10
273.230125269891
 20
271.17996275425
 30
0.0
 11
273.230125269891
 21
273.979962795973
 31
0.0
  0
LINE
  5
   6C7
  8
0
  6
CONTINUOUS
 62
   253
 10
281.684549529171
 20
270.379962742329
 30
0.0
 11
283.030124500394
 21
270.379962742329
 31
0.0
  0
LINE
  5
   6C8
  8
0
  6
CONTINUOUS
 62
   253
 10
273.230125269891
 20
273.979962795973
 30
0.0
 11
273.230125269891
 21
274.779962807894
 31
0.0
  0
LINE
  5
   6C9
  8
0
  6
CONTINUOUS
 62
   253
 10
246.190123798847
 20
273.979962795973
 30
0.0
 11
273.230124354363
 21
273.979962795973
 31
0.0
  0
LINE
  5
   6CA
  8
0
  6
CONTINUOUS
 62
    98
 10
243.630123913288
 20
291.579963058233
 30
0.0
 11
272.670126787424
 21
291.579963058233
 31
0.0
  0
LINE
  5
   6CB
  8
0
  6
CONTINUOUS
 62
   253
 10
272.670126787424
 20
291.419963055849
 30
0.0
 11
273.230124354363
 21
291.419963055849
 31
0.0
  0
LINE
  5
   6CC
  8
0
  6
CONTINUOUS
 62
    98
 10
243.630123913288
 20
291.579963058233
 30
0.0
 11
243.630123913288
 21
299.979963183403
 31
0.0
  0
LINE
  5
   6CD
  8
0
  6
CONTINUOUS
 62
   253
 10
273.230125269891
 20
291.579963058233
 30
0.0
 11
273.230125269891
 21
299.979963183403
 31
0.0
  0
LINE
  5
   6CE
  8
0
  6
CONTINUOUS
 62
   253
 10
272.670126787424
 20
300.139963185787
 30
0.0
 11
273.230124354363
 21
300.139963185787
 31
0.0
  0
LINE
  5
   6CF
  8
0
  6
CONTINUOUS
 62
    98
 10
243.630123913288
 20
299.979963183403
 30
0.0
 11
272.670126787424
 21
299.979963183403
 31
0.0
  0
LINE
  5
   6D0
  8
0
  6
CONTINUOUS
 62
   253
 10
281.630124479532
 20
266.375085973667
 30
0.0
 11
281.630124479532
 21
269.179962724447
 31
0.0
  0
LINE
  5
   6D1
  8
0
  6
CONTINUOUS
 62
   253
 10
281.630124479532
 20
269.179961843024
 30
0.0
 11
283.630124509335
 21
269.179961843024
 31
0.0
  0
LINE
  5
   6D2
  8
0
  6
CONTINUOUS
 62
   253
 10
281.630124479532
 20
253.779962494969
 30
0.0
 11
281.630124479532
 21
256.78483924873
 31
0.0
  0
LINE
  5
   6D3
  8
0
  6
CONTINUOUS
 62
   253
 10
245.63012394309
 20
307.979963302612
 30
0.0
 11
245.63012394309
 21
308.179963305593
 31
0.0
  0
LINE
  5
   6D4
  8
0
  6
CONTINUOUS
 62
   253
 10
245.830123946071
 20
345.179963856936
 30
0.0
 11
245.830123946071
 21
346.779963880777
 31
0.0
  0
LINE
  5
   6D5
  8
0
  6
CONTINUOUS
 62
   253
 10
247.230123966932
 20
348.379963904619
 30
0.0
 11
248.030123978853
 21
348.379963904619
 31
0.0
  0
LINE
  5
   6D6
  8
0
  6
CONTINUOUS
 62
   253
 10
248.430123984814
 20
346.779963880777
 30
0.0
 11
248.430123984814
 21
347.979963898659
 31
0.0
  0
LINE
  5
   6D7
  8
0
  6
CONTINUOUS
 62
   253
 10
246.830123960972
 20
346.779963880777
 30
0.0
 11
246.830123960972
 21
347.979963898659
 31
0.0
  0
LINE
  5
   6D8
  8
0
  6
CONTINUOUS
 62
   253
 10
250.430124014616
 20
347.579963892698
 30
0.0
 11
250.990123870373
 21
347.579963892698
 31
0.0
  0
LINE
  5
   6D9
  8
0
  6
CONTINUOUS
 62
   253
 10
250.030124008656
 20
346.779963880777
 30
0.0
 11
250.030124008656
 21
347.179963886738
 31
0.0
  0
LINE
  5
   6DA
  8
0
  6
CONTINUOUS
 62
   253
 10
247.230123966932
 20
267.579962700605
 30
0.0
 11
248.030123978853
 21
267.579962700605
 31
0.0
  0
LINE
  5
   6DB
  8
0
  6
CONTINUOUS
 62
   253
 10
248.430123984814
 20
267.979962706566
 30
0.0
 11
248.430123984814
 21
269.179962724447
 31
0.0
  0
LINE
  5
   6DC
  8
0
  6
CONTINUOUS
 62
   253
 10
246.830123960972
 20
267.979962706566
 30
0.0
 11
246.830123960972
 21
269.179962724447
 31
0.0
  0
LINE
  5
   6DD
  8
0
  6
CONTINUOUS
 62
   253
 10
250.430124014616
 20
267.579962700605
 30
0.0
 11
251.230124026537
 21
267.579962700605
 31
0.0
  0
LINE
  5
   6DE
  8
0
  6
CONTINUOUS
 62
   253
 10
251.630124032497
 20
267.979962706566
 30
0.0
 11
251.630124032497
 21
269.179962724447
 31
0.0
  0
LINE
  5
   6DF
  8
0
  6
CONTINUOUS
 62
   253
 10
250.030124008656
 20
267.979962706566
 30
0.0
 11
250.030124008656
 21
269.179962724447
 31
0.0
  0
LINE
  5
   6E0
  8
0
  6
CONTINUOUS
 62
   253
 10
281.630124479532
 20
360.379964083433
 30
0.0
 11
281.630124479532
 21
367.979964196682
 31
0.0
  0
LINE
  5
   6E1
  8
0
  6
CONTINUOUS
 62
   253
 10
281.630124479532
 20
346.779963880777
 30
0.0
 11
281.630124479532
 21
348.379963904619
 31
0.0
  0
LINE
  5
   6E2
  8
0
  6
CONTINUOUS
 62
   253
 10
259.230124145746
 20
346.779963880777
 30
0.0
 11
281.630124479532
 21
346.779963880777
 31
0.0
  0
LINE
  5
   6E3
  8
0
  6
CONTINUOUS
 62
   253
 10
248.430123984814
 20
346.779964213079
 30
0.0
 11
250.030124008656
 21
346.779964213079
 31
0.0
  0
LINE
  5
   6E4
  8
0
  6
CONTINUOUS
 62
   253
 10
281.630124479532
 20
348.379963904619
 30
0.0
 11
282.430124491453
 21
348.379963904619
 31
0.0
  0
LINE
  5
   6E5
  8
0
  6
CONTINUOUS
 62
   253
 10
281.630124479532
 20
360.379964083433
 30
0.0
 11
282.430124491453
 21
360.379964083433
 31
0.0
  0
LINE
  5
   6E6
  8
0
  6
CONTINUOUS
 62
   253
 10
282.430124491453
 20
360.379964083433
 30
0.0
 11
282.430124491453
 21
362.179964110255
 31
0.0
  0
LINE
  5
   6E7
  8
0
  6
CONTINUOUS
 62
   253
 10
282.430124491453
 20
346.579963877797
 30
0.0
 11
282.430124491453
 21
348.379963904619
 31
0.0
  0
LINE
  5
   6E8
  8
0
  6
CONTINUOUS
 62
   253
 10
282.430124491453
 20
346.579963877797
 30
0.0
 11
283.630124509335
 21
346.579963877797
 31
0.0
  0
LINE
  5
   6E9
  8
0
  6
CONTINUOUS
 62
   253
 10
282.430124491453
 20
362.179964110255
 30
0.0
 11
283.630124509335
 21
362.179964110255
 31
0.0
  0
LINE
  5
   6EA
  8
0
  6
CONTINUOUS
 62
   253
 10
248.430123984814
 20
341.179963797331
 30
0.0
 11
248.430123984814
 21
345.179963856936
 31
0.0
  0
LINE
  5
   6EB
  8
0
  6
CONTINUOUS
 62
   253
 10
248.430123984814
 20
345.179963856936
 30
0.0
 11
252.590123894215
 21
345.179963856936
 31
0.0
  0
LINE
  5
   6EC
  8
0
  6
CONTINUOUS
 62
   253
 10
259.230124145746
 20
345.179963856936
 30
0.0
 11
283.630124509335
 21
345.179963856936
 31
0.0
  0
LINE
  5
   6ED
  8
0
  6
CONTINUOUS
 62
   253
 10
281.630124479532
 20
247.979962408543
 30
0.0
 11
281.630124479532
 21
253.779962494969
 31
0.0
  0
LINE
  5
   6EE
  8
0
  6
CONTINUOUS
 62
   253
 10
243.630123913288
 20
269.179962392145
 30
0.0
 11
246.190123798847
 21
269.179962392145
 31
0.0
  0
LINE
  5
   6EF
  8
0
  6
CONTINUOUS
 62
   253
 10
252.590124046803
 20
345.179963856936
 30
0.0
 11
252.590124046803
 21
345.979963868856
 31
0.0
  0
LINE
  5
   6F0
  8
0
  6
CONTINUOUS
 62
   253
 10
259.230124145746
 20
345.179963856936
 30
0.0
 11
259.230124145746
 21
346.779963880777
 31
0.0
  0
LINE
  5
   6F1
  8
0
  6
CONTINUOUS
 62
   253
 10
251.790123958592
 20
346.779963957076
 30
0.0
 11
252.590123970513
 21
345.979963945155
 31
0.0
  0
LINE
  5
   6F2
  8
0
  6
CONTINUOUS
 62
   253
 10
248.430123984814
 20
269.179962392145
 30
0.0
 11
250.030124008656
 21
269.179962392145
 31
0.0
  0
LINE
  5
   6F3
  8
0
  6
CONTINUOUS
 62
   253
 10
246.190123798847
 20
269.179962392145
 30
0.0
 11
246.830123960972
 21
269.179962392145
 31
0.0
  0
LINE
  5
   6F4
  8
0
  6
CONTINUOUS
 62
   253
 10
251.630124032497
 20
269.179962392145
 30
0.0
 11
252.830124050379
 21
269.179962392145
 31
0.0
  0
LINE
  5
   6F5
  8
0
  6
CONTINUOUS
 62
   253
 10
246.190123798847
 20
270.379962742329
 30
0.0
 11
252.830124050379
 21
270.379962742329
 31
0.0
  0
LINE
  5
   6F6
  8
0
  6
CONTINUOUS
 62
   253
 10
252.830124050385
 20
269.179962724447
 30
0.0
 11
252.830124050385
 21
270.379962742329
 31
0.0
  0
LINE
  5
   6F7
  8
0
  6
CONTINUOUS
 62
   253
 10
246.190123951435
 20
270.379962742329
 30
0.0
 11
246.190123951435
 21
273.979962795973
 31
0.0
  0
LINE
  5
   6F8
  8
0
  6
CONTINUOUS
 62
   253
 10
244.59012396574
 20
346.779964213079
 30
0.0
 11
245.830123946071
 21
346.779964213079
 31
0.0
  0
LINE
  5
   6F9
  8
0
  6
CONTINUOUS
 62
   253
 10
244.59012396574
 20
345.179963856935
 30
0.0
 11
245.830123946071
 21
345.179963856935
 31
0.0
  0
LINE
  5
   6FA
  8
0
  6
CONTINUOUS
 62
   253
 10
244.590123927593
 20
345.179963856936
 30
0.0
 11
244.590123927593
 21
346.779963880777
 31
0.0
  0
LINE
  5
   6FB
  8
0
  6
CONTINUOUS
 62
   253
 10
250.990123946671
 20
347.579963968997
 30
0.0
 11
251.790123958592
 21
346.779963957076
 31
0.0
  0
ARC
  5
   6FC
  8
0
  6
CONTINUOUS
 62
   253
 10
250.430124014612
 20
347.17996388674
 30
0.0
 40
0.400000005956372
 50
89.9999999994097
 51
180.0
  0
ARC
  5
   6FD
  8
0
  6
CONTINUOUS
 62
   253
 10
247.230123966938
 20
347.979963898653
 30
0.0
 40
0.400000005966433
 50
90.000000000859
 51
180.0
  0
ARC
  5
   6FE
  8
0
  6
CONTINUOUS
 62
   253
 10
248.03012397885
 20
347.979963898655
 30
0.0
 40
0.400000005963932
 50
0.0
 51
89.9999999995237
  0
ARC
  5
   6FF
  8
0
  6
CONTINUOUS
 62
   253
 10
250.430124014616
 20
267.979962706566
 30
0.0
 40
0.400000005959981
 50
180.0
 51
270.000000000069
  0
ARC
  5
   700
  8
0
  6
CONTINUOUS
 62
   253
 10
251.230124026537
 20
267.979962706566
 30
0.0
 40
0.40000000596018
 50
269.999999999935
 51
360.0
  0
ARC
  5
   701
  8
0
  6
CONTINUOUS
 62
   253
 10
247.230123966932
 20
267.979962706566
 30
0.0
 40
0.400000005960322
 50
180.0
 51
270.00000000002
  0
ARC
  5
   702
  8
0
  6
CONTINUOUS
 62
   253
 10
248.030123978853
 20
267.979962706566
 30
0.0
 40
0.400000005960294
 50
269.999999999972
 51
360.0
  0
LINE
  5
   703
  8
0
  6
CONTINUOUS
 62
   253
 10
243.630123913288
 20
269.179962724447
 30
0.0
 11
243.630123913288
 21
274.779962807894
 31
0.0
  0
LINE
  5
   704
  8
0
  6
CONTINUOUS
 62
   253
 10
283.630124509335
 20
247.979962408543
 30
0.0
 11
283.630124509335
 21
253.779962494969
 31
0.0
  0
LINE
  5
   705
  8
0
  6
CONTINUOUS
 62
   253
 10
283.630124509335
 20
345.179963856936
 30
0.0
 11
283.630124509335
 21
346.579963877797
 31
0.0
  0
LINE
  5
   706
  8
0
  6
CONTINUOUS
 62
   253
 10
283.630124509335
 20
362.179964110255
 30
0.0
 11
283.630124509335
 21
367.979964196682
 31
0.0
  0
LINE
  5
   707
  8
0
  6
CONTINUOUS
 62
   253
 10
281.630124479532
 20
247.979962408543
 30
0.0
 11
283.630124509335
 21
247.979962408543
 31
0.0
  0
LINE
  5
   708
  8
0
  6
CONTINUOUS
 62
   253
 10
281.630124479532
 20
367.979964196682
 30
0.0
 11
283.630124509335
 21
367.979964196682
 31
0.0
  0
LINE
  5
   709
  8
0
  6
CONTINUOUS
 62
   253
 10
246.830123960972
 20
343.179963827133
 30
0.0
 11
246.830123960972
 21
346.779963880777
 31
0.0
  0
LINE
  5
   70A
  8
0
  6
CONTINUOUS
 62
   253
 10
245.23012393713
 20
342.13996137023
 30
0.0
 11
245.23012393713
 21
343.179963827133
 31
0.0
  0
LINE
  5
   70B
  8
0
  6
CONTINUOUS
 62
   253
 10
245.23012393713
 20
343.179963827133
 30
0.0
 11
246.830123960972
 21
343.179963827133
 31
0.0
  0
LINE
  5
   70C
  8
0
  6
CONTINUOUS
 62
   253
 10
245.550125200749
 20
342.139962552786
 30
0.0
 11
246.510123918057
 21
341.179963835478
 31
0.0
  0
LINE
  5
   70D
  8
0
  6
CONTINUOUS
 62
   253
 10
245.23012393713
 20
342.139963811636
 30
0.0
 11
245.550124018192
 21
342.139963811636
 31
0.0
  0
LINE
  5
   70E
  8
0
  6
CONTINUOUS
 62
   253
 10
245.23012393713
 20
273.979962795973
 30
0.0
 11
245.23012393713
 21
274.779962807894
 31
0.0
  0
LINE
  5
   70F
  8
0
  6
CONTINUOUS
 62
   253
 10
245.23012393713
 20
273.979962795973
 30
0.0
 11
246.190123798847
 21
273.979962795973
 31
0.0
  0
LINE
  5
   710
  8
0
  6
CONTINUOUS
 62
     2
 10
281.630124479532
 20
253.779962494969
 30
0.0
 11
283.630124509335
 21
253.779962494969
 31
0.0
  0
LINE
  5
   711
  8
0
  6
CONTINUOUS
 62
   253
 10
246.590123804808
 20
341.179963797331
 30
0.0
 11
246.830123960972
 21
341.179963797331
 31
0.0
  0
LINE
  5
   712
  8
0
  6
CONTINUOUS
 62
   253
 10
290.830124616623
 20
367.979964196682
 30
0.0
 11
297.23012471199
 21
367.979964196682
 31
0.0
  0
LINE
  5
   713
  8
0
  6
CONTINUOUS
 62
   253
 10
282.830124497414
 20
348.379963904619
 30
0.0
 11
282.830124497414
 21
349.584846735073
 31
0.0
  0
LINE
  5
   714
  8
0
  6
CONTINUOUS
 62
   253
 10
282.830124497414
 20
359.175081252979
 30
0.0
 11
282.830124497414
 21
360.379964083433
 31
0.0
  0
LINE
  5
   715
  8
0
  6
CONTINUOUS
 62
   253
 10
273.230124354363
 20
287.979963004589
 30
0.0
 11
283.630124509335
 21
287.979963004589
 31
0.0
  0
LINE
  5
   716
  8
0
  6
CONTINUOUS
 62
   253
 10
273.230125269891
 20
287.979963004589
 30
0.0
 11
273.230125269891
 21
291.579963058233
 31
0.0
  0
LINE
  5
   717
  8
0
  6
CONTINUOUS
 62
   253
 10
273.230125269891
 20
299.979963183403
 30
0.0
 11
273.230125269891
 21
304.728235959236
 31
0.0
  0
LINE
  5
   718
  8
0
  6
CONTINUOUS
 62
   253
 10
273.23012532797
 20
304.728235484377
 30
0.0
 11
277.157203094489
 21
312.7799631622
 31
0.0
  0
LINE
  5
   719
  8
0
  6
CONTINUOUS
 62
   253
 10
277.157202659951
 20
312.779963374138
 30
0.0
 11
283.630124509335
 21
312.779963374138
 31
0.0
  0
LINE
  5
   71A
  8
0
  6
CONTINUOUS
 62
   253
 10
273.230125269891
 20
273.979962795973
 30
0.0
 11
273.230125269891
 21
274.779962807894
 31
0.0
  0
LINE
  5
   71B
  8
0
  6
CONTINUOUS
 62
   253
 10
298.030124723911
 20
363.179964125156
 30
0.0
 11
298.030124723911
 21
363.979964137077
 31
0.0
  0
LINE
  5
   71C
  8
0
  6
CONTINUOUS
 62
   253
 10
290.590125528575
 20
299.579963177443
 30
0.0
 11
290.590125528575
 21
299.979963183403
 31
0.0
  0
LINE
  5
   71D
  8
0
  6
CONTINUOUS
 62
   253
 10
290.830124616623
 20
366.37996417284
 30
0.0
 11
297.23012471199
 21
366.37996417284
 31
0.0
  0
LINE
  5
   71E
  8
0
  6
CONTINUOUS
 62
   253
 10
298.030124723911
 20
363.979964137077
 30
0.0
 11
298.030124723911
 21
366.37996417284
 31
0.0
  0
LINE
  5
   71F
  8
0
  6
CONTINUOUS
 62
   253
 10
293.230124652386
 20
363.179964125156
 30
0.0
 11
293.230124652386
 21
363.979964137077
 31
0.0
  0
LINE
  5
   720
  8
0
  6
CONTINUOUS
 62
   253
 10
290.830124616623
 20
363.979964137077
 30
0.0
 11
293.230124652386
 21
363.979964137077
 31
0.0
  0
LINE
  5
   721
  8
0
  6
CONTINUOUS
 62
   253
 10
293.230124652386
 20
347.979963898659
 30
0.0
 11
293.230124652386
 21
363.179964125156
 31
0.0
  0
LINE
  5
   722
  8
0
  6
CONTINUOUS
 62
   253
 10
293.230124652386
 20
287.979963004589
 30
0.0
 11
293.230124652386
 21
290.779963046312
 31
0.0
  0
LINE
  5
   723
  8
0
  6
CONTINUOUS
 62
   253
 10
293.230124652386
 20
300.779963195324
 30
0.0
 11
293.230124652386
 21
343.179963827133
 31
0.0
  0
LINE
  5
   724
  8
0
  6
CONTINUOUS
 62
   253
 10
290.830124616623
 20
363.179964125156
 30
0.0
 11
293.230124652386
 21
363.179964125156
 31
0.0
  0
LINE
  5
   725
  8
0
  6
CONTINUOUS
 62
   253
 10
283.630124509335
 20
287.97996300459
 30
0.0
 11
293.230124652386
 21
287.97996300459
 31
0.0
  0
LINE
  5
   726
  8
0
  6
CONTINUOUS
 62
   253
 10
283.630124509335
 20
312.779963374138
 30
0.0
 11
283.630124509335
 21
341.179963797331
 31
0.0
  0
LINE
  5
   727
  8
0
  6
CONTINUOUS
 62
   253
 10
273.230124354363
 20
291.579963058233
 30
0.0
 11
283.630124509335
 21
291.579963058233
 31
0.0
  0
LINE
  5
   728
  8
0
  6
CONTINUOUS
 62
   253
 10
283.630124509335
 20
291.579963058233
 30
0.0
 11
292.430124640465
 21
291.579963058233
 31
0.0
  0
LINE
  5
   729
  8
0
  6
CONTINUOUS
 62
   253
 10
273.230125269891
 20
291.579963058233
 30
0.0
 11
273.230125269891
 21
299.979963183403
 31
0.0
  0
LINE
  5
   72A
  8
0
  6
CONTINUOUS
 62
   253
 10
273.230124354363
 20
299.979963183403
 30
0.0
 11
283.630124509335
 21
299.979963183403
 31
0.0
  0
LINE
  5
   72B
  8
0
  6
CONTINUOUS
 62
   253
 10
283.630124509335
 20
299.979963183403
 30
0.0
 11
292.430124640465
 21
299.979963183403
 31
0.0
  0
LINE
  5
   72C
  8
0
  6
CONTINUOUS
 62
   253
 10
292.430125555993
 20
290.779963046312
 30
0.0
 11
292.430125555993
 21
291.579963058233
 31
0.0
  0
LINE
  5
   72D
  8
0
  6
CONTINUOUS
 62
   253
 10
292.430125555993
 20
299.979963183403
 30
0.0
 11
292.430125555993
 21
300.779963195324
 31
0.0
  0
LINE
  5
   72E
  8
0
  6
CONTINUOUS
 62
   253
 10
292.430124640465
 20
290.779963046312
 30
0.0
 11
293.230124652386
 21
290.779963046312
 31
0.0
  0
LINE
  5
   72F
  8
0
  6
CONTINUOUS
 62
   253
 10
292.430124640465
 20
300.779963195324
 30
0.0
 11
293.230124652386
 21
300.779963195324
 31
0.0
  0
LINE
  5
   730
  8
0
  6
CONTINUOUS
 62
   253
 10
289.230124592781
 20
291.579963058233
 30
0.0
 11
289.230124592781
 21
299.979963183403
 31
0.0
  0
LINE
  5
   731
  8
0
  6
CONTINUOUS
 62
   253
 10
290.590124613047
 20
291.579963058233
 30
0.0
 11
290.590124613047
 21
299.579963177443
 31
0.0
  0
LINE
  5
   732
  8
0
  6
CONTINUOUS
 62
   253
 10
289.630124598742
 20
299.579963177443
 30
0.0
 11
290.590125223398
 21
299.579963177443
 31
0.0
  0
LINE
  5
   733
  8
0
  6
CONTINUOUS
 62
   253
 10
289.630124598742
 20
299.579963177443
 30
0.0
 11
289.630124598742
 21
299.979963183403
 31
0.0
  0
LINE
  5
   734
  8
0
  6
CONTINUOUS
 62
     3
 10
298.030124723911
 20
366.37996417284
 30
0.0
 11
298.030124723911
 21
367.179964184761
 31
0.0
  0
LINE
  5
   735
  8
0
  6
CONTINUOUS
 62
     3
 10
297.23012471199
 20
366.37996417284
 30
0.0
 11
298.030124723911
 21
366.37996417284
 31
0.0
  0
ARC
  5
   736
  8
0
  6
CONTINUOUS
 62
     3
 10
297.230132547997
 20
367.179972020766
 30
0.0
 40
0.800000011928952
 50
359.99943878295
 51
450.000561218109
  0
LINE
  5
   737
  8
0
  6
CONTINUOUS
 62
   253
 10
293.230124652386
 20
329.179963618517
 30
0.0
 11
293.787882229056
 21
329.179963618517
 31
0.0
  0
LINE
  5
   738
  8
0
  6
CONTINUOUS
 62
     3
 10
293.230124652386
 20
343.179963827133
 30
0.0
 11
293.230124652386
 21
347.979963898659
 31
0.0
  0
LINE
  5
   739
  8
0
  6
CONTINUOUS
 62
     3
 10
293.230124652386
 20
347.019963884354
 30
0.0
 11
293.787882229056
 21
347.019963884354
 31
0.0
  0
LINE
  5
   73A
  8
0
  6
CONTINUOUS
 62
   253
 10
287.710123349428
 20
363.459964129329
 30
0.0
 11
290.830124616623
 21
363.459964129329
 31
0.0
  0
LINE
  5
   73B
  8
0
  6
CONTINUOUS
 62
   253
 10
285.630124539137
 20
365.53998613298
 30
0.0
 11
285.630124539137
 21
366.37996417284
 31
0.0
  0
LINE
  5
   73C
  8
0
  6
CONTINUOUS
 62
   253
 10
283.630124509335
 20
367.979964196682
 30
0.0
 11
290.830124616623
 21
367.979964196682
 31
0.0
  0
LINE
  5
   73D
  8
0
  6
CONTINUOUS
 62
   253
 10
282.830124497414
 20
360.379964083433
 30
0.0
 11
282.830124497414
 21
361.979964107275
 31
0.0
  0
LINE
  5
   73E
  8
0
  6
CONTINUOUS
 62
   253
 10
282.830124497414
 20
346.779963880777
 30
0.0
 11
282.830124497414
 21
348.379963904619
 31
0.0
  0
LINE
  5
   73F
  8
0
  6
CONTINUOUS
 62
   253
 10
283.630124509335
 20
361.979964107275
 30
0.0
 11
290.830124616623
 21
361.979964107275
 31
0.0
  0
LINE
  5
   740
  8
0
  6
CONTINUOUS
 62
   253
 10
283.630124509335
 20
346.779963880777
 30
0.0
 11
290.830124616623
 21
346.779963880777
 31
0.0
  0
LINE
  5
   741
  8
0
  6
CONTINUOUS
 62
   253
 10
282.830124497414
 20
348.379963904619
 30
0.0
 11
290.830124616623
 21
348.379963904619
 31
0.0
  0
LINE
  5
   742
  8
0
  6
CONTINUOUS
 62
   253
 10
282.830124497414
 20
360.379964083433
 30
0.0
 11
290.830124616623
 21
360.379964083433
 31
0.0
  0
LINE
  5
   743
  8
0
  6
CONTINUOUS
 62
   253
 10
282.830124497414
 20
346.779963880777
 30
0.0
 11
283.630124509335
 21
346.779963880777
 31
0.0
  0
LINE
  5
   744
  8
0
  6
CONTINUOUS
 62
   253
 10
282.830124497414
 20
361.979964107275
 30
0.0
 11
283.630124509335
 21
361.979964107275
 31
0.0
  0
LINE
  5
   745
  8
0
  6
CONTINUOUS
 62
   253
 10
286.830124557018
 20
364.699959264994
 30
0.0
 11
286.830124557018
 21
366.459969056845
 31
0.0
  0
LINE
  5
   746
  8
0
  6
CONTINUOUS
 62
   253
 10
286.830124557018
 20
364.699964147806
 30
0.0
 11
290.830124616623
 21
364.699964147806
 31
0.0
  0
LINE
  5
   747
  8
0
  6
CONTINUOUS
 62
   253
 10
286.830124557018
 20
366.459964174032
 30
0.0
 11
290.830124616623
 21
366.459964174032
 31
0.0
  0
ARC
  5
   748
  8
0
  6
CONTINUOUS
 62
   253
 10
287.709532611369
 20
365.540624548034
 30
0.0
 40
2.07955362754309
 50
180.017590817086
 51
270.016273481954
  0
LINE
  5
   749
  8
0
  6
CONTINUOUS
 62
   253
 10
283.630124509335
 20
366.37996417284
 30
0.0
 11
283.630124509335
 21
367.979964196682
 31
0.0
  0
LINE
  5
   74A
  8
0
  6
CONTINUOUS
 62
   253
 10
283.630124509335
 20
366.37996417284
 30
0.0
 11
285.630124539137
 21
366.37996417284
 31
0.0
  0
LINE
  5
   74B
  8
0
  6
CONTINUOUS
 62
     3
 10
246.590123995543
 20
308.179963305593
 30
0.0
 11
246.590123995543
 21
341.179963797331
 31
0.0
  0
LINE
  5
   74C
  8
0
  6
CONTINUOUS
 62
     3
 10
243.630123913288
 20
308.179963305593
 30
0.0
 11
243.630123913288
 21
341.179963797331
 31
0.0
  0
LINE
  5
   74D
  8
0
  6
CONTINUOUS
 62
     3
 10
243.630123913288
 20
308.179963305593
 30
0.0
 11
246.590123804808
 21
308.179963305593
 31
0.0
  0
LINE
  5
   74E
  8
0
  6
CONTINUOUS
 62
     3
 10
246.590123804808
 20
343.979963839054
 30
0.0
 11
246.830123960972
 21
343.979963839054
 31
0.0
  0
LINE
  5
   74F
  8
0
  6
CONTINUOUS
 62
     3
 10
245.23012393713
 20
343.979963839054
 30
0.0
 11
246.590123804808
 21
343.979963839054
 31
0.0
  0
LINE
  5
   750
  8
0
  6
CONTINUOUS
 62
     3
 10
243.630123913288
 20
344.979963853955
 30
0.0
 11
245.830123946071
 21
344.979963853955
 31
0.0
  0
LINE
  5
   751
  8
0
  6
CONTINUOUS
 62
     3
 10
245.830123946071
 20
344.979963853955
 30
0.0
 11
245.830123946071
 21
346.179963871837
 31
0.0
  0
LINE
  5
   752
  8
0
  6
CONTINUOUS
 62
     3
 10
243.630123913288
 20
341.179963797331
 30
0.0
 11
243.630123913288
 21
344.979963853955
 31
0.0
  0
LINE
  5
   753
  8
0
  6
CONTINUOUS
 62
     3
 10
244.430123925209
 20
341.179963797331
 30
0.0
 11
244.430123925209
 21
343.979963839054
 31
0.0
  0
LINE
  5
   754
  8
0
  6
CONTINUOUS
 62
     3
 10
245.830123946071
 20
346.179963871837
 30
0.0
 11
246.830123960972
 21
346.179963871837
 31
0.0
  0
LINE
  5
   755
  8
0
  6
CONTINUOUS
 62
     3
 10
246.830123960972
 20
344.379963845015
 30
0.0
 11
246.830123960972
 21
346.179963871837
 31
0.0
  0
LINE
  5
   756
  8
0
  6
CONTINUOUS
 62
     3
 10
244.430123925209
 20
343.979963839054
 30
0.0
 11
245.23012393713
 21
343.979963839054
 31
0.0
  0
LINE
  5
   757
  8
0
  6
CONTINUOUS
 62
     3
 10
245.23012393713
 20
343.979963839054
 30
0.0
 11
245.23012393713
 21
344.379963845015
 31
0.0
  0
LINE
  5
   758
  8
0
  6
CONTINUOUS
 62
     3
 10
245.23012393713
 20
344.379963845015
 30
0.0
 11
246.830123960972
 21
344.379963845015
 31
0.0
  0
LINE
  5
   759
  8
0
  6
CONTINUOUS
 62
   212
 10
310.027878738097
 20
307.458167924682
 30
0.0
 11
315.495421006017
 21
308.821379318803
 31
0.0
  0
LINE
  5
   75A
  8
0
  6
CONTINUOUS
 62
   212
 10
310.027879143542
 20
314.054095351897
 30
0.0
 11
313.947122524871
 21
315.03127247682
 31
0.0
  0
LINE
  5
   75B
  8
0
  6
CONTINUOUS
 62
   212
 10
322.056155087203
 20
315.576239900059
 30
0.0
 11
322.911120508446
 21
312.147163510915
 31
0.0
  0
LINE
  5
   75C
  8
0
  6
CONTINUOUS
 62
   212
 10
313.947122799797
 20
315.031272415815
 30
0.0
 11
321.154771230949
 21
316.172851778639
 31
0.0
  0
LINE
  5
   75D
  8
0
  6
CONTINUOUS
 62
   212
 10
313.947115370686
 20
315.031267956466
 30
0.0
 11
314.106768119106
 21
314.246583535559
 31
0.0
  0
LINE
  5
   75E
  8
0
  6
CONTINUOUS
 62
   212
 10
322.861118746266
 20
311.75411497018
 30
0.0
 11
322.902610446103
 21
311.931232892741
 31
0.0
  0
LINE
  5
   75F
  8
0
  6
CONTINUOUS
 62
   212
 10
322.902610446103
 20
311.931232892741
 30
0.0
 11
322.911118747011
 21
312.14716307174
 31
0.0
  0
ARC
  5
   760
  8
0
  6
CONTINUOUS
 62
   212
 10
322.134874297425
 20
311.953631330051
 30
0.0
 40
0.800016130158468
 50
289.000728100286
 51
344.638482415572
  0
LINE
  5
   761
  8
0
  6
CONTINUOUS
 62
   212
 10
321.947269855695
 20
315.762904092415
 30
0.0
 11
322.056156576068
 21
315.576240271274
 31
0.0
  0
LINE
  5
   762
  8
0
  6
CONTINUOUS
 62
   212
 10
321.827482256254
 20
315.899805949924
 30
0.0
 11
321.947269855695
 21
315.762904092415
 31
0.0
  0
ARC
  5
   763
  8
0
  6
CONTINUOUS
 62
   212
 10
321.279912795013
 20
315.382692001642
 30
0.0
 40
0.80001613014867
 50
43.3614879063009
 51
98.9994730093652
  0
LINE
  5
   764
  8
0
  6
CONTINUOUS
 62
   212
 10
315.495421262296
 20
308.821379251398
 30
0.0
 11
322.395341055082
 21
311.197212165538
 31
0.0
  0
LINE
  5
   765
  8
0
  6
CONTINUOUS
 62
   212
 10
315.267993374665
 20
309.589168074755
 30
0.0
 11
315.495415808977
 21
308.821380413981
 31
0.0
  0
LINE
  5
   766
  8
0
  6
CONTINUOUS
 62
     7
 10
293.230124652386
 20
267.179962694145
 30
0.0
 11
297.227884721723
 21
267.179962694145
 31
0.0
  0
LINE
  5
   767
  8
0
  6
CONTINUOUS
 62
     7
 10
293.230124652387
 20
348.779963910579
 30
0.0
 11
297.227884721724
 21
348.779963910579
 31
0.0
  0
LINE
  5
   768
  8
0
  6
CONTINUOUS
 62
     7
 10
293.787882229056
 20
267.73996270249
 30
0.0
 11
297.227884721723
 21
267.73996270249
 31
0.0
  0
LINE
  5
   769
  8
0
  6
CONTINUOUS
 62
     7
 10
293.787882229056
 20
348.219963902235
 30
0.0
 11
297.227884721723
 21
348.219963902235
 31
0.0
  0
LINE
  5
   76A
  8
0
  6
CONTINUOUS
 62
     7
 10
293.230124652386
 20
363.179964125156
 30
0.0
 11
296.430124700069
 21
363.179964125156
 31
0.0
  0
LINE
  5
   76B
  8
0
  6
CONTINUOUS
 62
     7
 10
293.230124652386
 20
252.779962479569
 30
0.0
 11
296.430124700069
 21
252.779962479569
 31
0.0
  0
LINE
  5
   76C
  8
0
  6
CONTINUOUS
 62
     7
 10
309.227881848812
 20
317.979963451624
 30
0.0
 11
310.027878808942
 21
317.979963451624
 31
0.0
  0
LINE
  5
   76D
  8
0
  6
CONTINUOUS
 62
     7
 10
309.227881848812
 20
316.779963433743
 30
0.0
 11
310.027878808942
 21
316.779963433743
 31
0.0
  0
LINE
  5
   76E
  8
0
  6
CONTINUOUS
 62
     7
 10
310.027880917052
 20
316.779963433743
 30
0.0
 11
310.027880917052
 21
317.979963451624
 31
0.0
  0
LINE
  5
   76F
  8
0
  6
CONTINUOUS
 62
     7
 10
306.027878749337
 20
317.979963451625
 30
0.0
 11
306.427881807089
 21
317.979963451625
 31
0.0
  0
LINE
  5
   770
  8
0
  6
CONTINUOUS
 62
     7
 10
306.027878749337
 20
316.779963433744
 30
0.0
 11
306.427881807089
 21
316.779963433744
 31
0.0
  0
LINE
  5
   771
  8
0
  6
CONTINUOUS
 62
     7
 10
309.227881848812
 20
283.179962933064
 30
0.0
 11
310.027878808942
 21
283.179962933064
 31
0.0
  0
LINE
  5
   772
  8
0
  6
CONTINUOUS
 62
     7
 10
309.227881848812
 20
281.979962915183
 30
0.0
 11
310.027878808942
 21
281.979962915183
 31
0.0
  0
LINE
  5
   773
  8
0
  6
CONTINUOUS
 62
     7
 10
310.027880917052
 20
281.979962915182
 30
0.0
 11
310.027880917052
 21
283.179962933064
 31
0.0
  0
LINE
  5
   774
  8
0
  6
CONTINUOUS
 62
     7
 10
306.027878749337
 20
283.179962933065
 30
0.0
 11
306.427881807089
 21
283.179962933065
 31
0.0
  0
LINE
  5
   775
  8
0
  6
CONTINUOUS
 62
     7
 10
306.027878749337
 20
281.979962915183
 30
0.0
 11
306.427881807089
 21
281.979962915183
 31
0.0
  0
LINE
  5
   776
  8
0
  6
CONTINUOUS
 62
     7
 10
293.787881742143
 20
337.179963737726
 30
0.0
 11
293.787881742143
 21
341.179963797331
 31
0.0
  0
LINE
  5
   777
  8
0
  6
CONTINUOUS
 62
     7
 10
293.787881742143
 20
341.179963797331
 30
0.0
 11
293.787881742143
 21
348.219966343641
 31
0.0
  0
LINE
  5
   778
  8
0
  6
CONTINUOUS
 62
     7
 10
293.787881742143
 20
267.739963313341
 30
0.0
 11
293.787881742143
 21
337.179963737726
 31
0.0
  0
LINE
  5
   779
  8
0
  6
CONTINUOUS
 62
     7
 10
297.227884721723
 20
317.979963451626
 30
0.0
 11
303.627878713574
 21
317.979963451626
 31
0.0
  0
LINE
  5
   77A
  8
0
  6
CONTINUOUS
 62
     7
 10
297.227884721723
 20
281.979962915181
 30
0.0
 11
303.627878713574
 21
281.979962915181
 31
0.0
  0
LINE
  5
   77B
  8
0
  6
CONTINUOUS
 62
     7
 10
296.430124700069
 20
363.179964125156
 30
0.0
 11
297.23012471199
 21
363.179964125156
 31
0.0
  0
LINE
  5
   77C
  8
0
  6
CONTINUOUS
 62
     7
 10
296.430124700069
 20
252.779962479569
 30
0.0
 11
297.23012471199
 21
252.779962479569
 31
0.0
  0
LINE
  5
   77D
  8
0
  6
CONTINUOUS
 62
     7
 10
293.227881733798
 20
290.779963046312
 30
0.0
 11
293.227881733798
 21
300.779963195324
 31
0.0
  0
LINE
  5
   77E
  8
0
  6
CONTINUOUS
 62
     7
 10
292.427881721877
 20
287.419965437651
 30
0.0
 11
292.427881721877
 21
287.979963004589
 31
0.0
  0
LINE
  5
   77F
  8
0
  6
CONTINUOUS
 62
     7
 10
299.067881820821
 20
348.219966343641
 30
0.0
 11
299.067881820821
 21
348.77996391058
 31
0.0
  0
LINE
  5
   780
  8
0
  6
CONTINUOUS
 62
     7
 10
297.227884721723
 20
348.77996391058
 30
0.0
 11
299.067881087031
 21
348.77996391058
 31
0.0
  0
LINE
  5
   781
  8
0
  6
CONTINUOUS
 62
     7
 10
299.067881820821
 20
267.179962694645
 30
0.0
 11
299.067881820821
 21
267.739963313341
 31
0.0
  0
LINE
  5
   782
  8
0
  6
CONTINUOUS
 62
     7
 10
297.227884721723
 20
267.179962694145
 30
0.0
 11
299.067881087031
 21
267.179962694145
 31
0.0
  0
LINE
  5
   783
  8
0
  6
CONTINUOUS
 62
     7
 10
298.030124723911
 20
252.779962480068
 30
0.0
 11
298.030124723911
 21
267.179962694645
 31
0.0
  0
LINE
  5
   784
  8
0
  6
CONTINUOUS
 62
     7
 10
297.23012471199
 20
252.779962479569
 30
0.0
 11
298.030124723911
 21
252.779962479569
 31
0.0
  0
LINE
  5
   785
  8
0
  6
CONTINUOUS
 62
     7
 10
298.030124723911
 20
348.77996391058
 30
0.0
 11
298.030124723911
 21
363.179964125156
 31
0.0
  0
LINE
  5
   786
  8
0
  6
CONTINUOUS
 62
     7
 10
297.23012471199
 20
363.179964125156
 30
0.0
 11
298.030124723911
 21
363.179964125156
 31
0.0
  0
LINE
  5
   787
  8
0
  6
CONTINUOUS
 62
     7
 10
297.227884721723
 20
348.219963902235
 30
0.0
 11
299.623709952736
 21
348.219963902235
 31
0.0
  0
LINE
  5
   788
  8
0
  6
CONTINUOUS
 62
     7
 10
299.283310777741
 20
317.979963451624
 30
0.0
 11
299.622873771083
 21
317.979963451624
 31
0.0
  0
LINE
  5
   789
  8
0
  6
CONTINUOUS
 62
     7
 10
303.627878713574
 20
317.979963451622
 30
0.0
 11
304.427921450105
 21
317.979963451622
 31
0.0
  0
LINE
  5
   78A
  8
0
  6
CONTINUOUS
 62
     7
 10
303.627878713574
 20
281.979962915182
 30
0.0
 11
304.427921450105
 21
281.979962915182
 31
0.0
  0
LINE
  5
   78B
  8
0
  6
CONTINUOUS
 62
     7
 10
304.427921450105
 20
317.979963451622
 30
0.0
 11
306.023703944587
 21
317.979963451622
 31
0.0
  0
LINE
  5
   78C
  8
0
  6
CONTINUOUS
 62
     7
 10
304.427921450105
 20
281.979962915182
 30
0.0
 11
306.023703944587
 21
281.979962915182
 31
0.0
  0
LINE
  5
   78D
  8
0
  6
CONTINUOUS
 62
     7
 10
297.227884721723
 20
267.73996270249
 30
0.0
 11
299.619535147986
 21
267.73996270249
 31
0.0
  0
LINE
  5
   78E
  8
0
  6
CONTINUOUS
 62
     7
 10
299.283860094156
 20
281.979962915182
 30
0.0
 11
299.627884757485
 21
281.979962915182
 31
0.0
  0
LINE
  5
   78F
  8
0
  6
CONTINUOUS
 62
     7
 10
299.623709952736
 20
348.219963902235
 30
0.0
 11
299.627884757485
 21
348.219963902235
 31
0.0
  0
LINE
  5
   790
  8
0
  6
CONTINUOUS
 62
     7
 10
299.627881829166
 20
317.979963451624
 30
0.0
 11
299.627881829166
 21
348.219966343641
 31
0.0
  0
LINE
  5
   791
  8
0
  6
CONTINUOUS
 62
     7
 10
306.027880857448
 20
281.979962915182
 30
0.0
 11
306.027880857448
 21
317.979963451624
 31
0.0
  0
LINE
  5
   792
  8
0
  6
CONTINUOUS
 62
     7
 10
306.027880857448
 20
281.979962915182
 30
0.0
 11
306.027880857448
 21
317.979963451624
 31
0.0
  0
LINE
  5
   793
  8
0
  6
CONTINUOUS
 62
     7
 10
306.023703944587
 20
317.979963451624
 30
0.0
 11
306.027878749337
 21
317.979963451624
 31
0.0
  0
LINE
  5
   794
  8
0
  6
CONTINUOUS
 62
     7
 10
306.023703944587
 20
281.979962915182
 30
0.0
 11
306.027878749337
 21
281.979962915182
 31
0.0
  0
LINE
  5
   795
  8
0
  6
CONTINUOUS
 62
     7
 10
299.619535147986
 20
267.73996270249
 30
0.0
 11
299.627884757485
 21
267.73996270249
 31
0.0
  0
LINE
  5
   796
  8
0
  6
CONTINUOUS
 62
     7
 10
299.627881829165
 20
267.739963313341
 30
0.0
 11
299.627881829165
 21
281.979962915182
 31
0.0
  0
LINE
  5
   797
  8
0
  6
CONTINUOUS
 62
     7
 10
293.230124652386
 20
347.579963892698
 30
0.0
 11
293.787882229056
 21
347.579963892698
 31
0.0
  0
LINE
  5
   798
  8
0
  6
CONTINUOUS
 62
     7
 10
293.230124652386
 20
329.179963618517
 30
0.0
 11
293.787882229056
 21
329.179963618517
 31
0.0
  0
LINE
  5
   799
  8
0
  6
CONTINUOUS
 62
   253
 10
293.230124652386
 20
329.179963618517
 30
0.0
 11
293.787882229056
 21
329.179963618517
 31
0.0
  0
LINE
  5
   79A
  8
0
  6
CONTINUOUS
 62
   253
 10
293.230124652386
 20
344.139963841438
 30
0.0
 11
293.787882229056
 21
344.139963841438
 31
0.0
  0
LINE
  5
   79B
  8
0
  6
CONTINUOUS
 62
   218
 10
258.830122613907
 20
351.179963946342
 30
0.0
 11
258.830122613907
 21
357.57996404171
 31
0.0
  0
LINE
  5
   79C
  8
0
  6
CONTINUOUS
 62
     5
 10
255.630123329163
 20
361.979964107275
 30
0.0
 11
258.830122613907
 21
361.979964107275
 31
0.0
  0
LINE
  5
   79D
  8
0
  6
CONTINUOUS
 62
   218
 10
255.630123329163
 20
357.57996404171
 30
0.0
 11
258.830122613907
 21
357.57996404171
 31
0.0
  0
LINE
  5
   79E
  8
0
  6
CONTINUOUS
 62
   218
 10
255.630123329163
 20
351.179963946342
 30
0.0
 11
258.830122613907
 21
351.179963946342
 31
0.0
  0
LINE
  5
   79F
  8
0
  6
CONTINUOUS
 62
     5
 10
258.830122613907
 20
357.57996404171
 30
0.0
 11
258.830122613907
 21
361.979964107275
 31
0.0
  0
LINE
  5
   7A0
  8
0
  6
CONTINUOUS
 62
     5
 10
258.830122613907
 20
346.378975105271
 30
0.0
 11
258.830122613907
 21
351.179963946342
 31
0.0
  0
ARC
  5
   7A1
  8
0
  6
CONTINUOUS
 62
   218
 10
251.630124032492
 20
340.375521514357
 30
0.0
 40
3.20000004767789
 50
120.00004946263
 51
165.440325338621
  0
LINE
  5
   7A2
  8
0
  6
CONTINUOUS
 62
   218
 10
250.030121616248
 20
343.146801466505
 30
0.0
 11
255.630123291013
 21
346.379963940893
 31
0.0
  0
LINE
  5
   7A3
  8
0
  6
CONTINUOUS
 62
   218
 10
255.630123176573
 20
357.57996404171
 30
0.0
 11
255.630123176573
 21
361.979964107275
 31
0.0
  0
LINE
  5
   7A4
  8
0
  6
CONTINUOUS
 62
   218
 10
255.630123176573
 20
346.379963874817
 30
0.0
 11
255.630123176573
 21
351.179963946342
 31
0.0
  0
ARC
  5
   7A5
  8
0
  6
CONTINUOUS
 62
   218
 10
255.630123176572
 20
346.379963874817
 30
0.0
 40
3.20000004768461
 50
300.000030254765
 51
359.982296146842
  0
LINE
  5
   7A6
  8
0
  6
CONTINUOUS
 62
   218
 10
253.023458995241
 20
341.179963830164
 30
0.0
 11
257.230124663775
 21
343.608683386282
 31
0.0
  0
LINE
  5
   7A7
  8
0
  6
CONTINUOUS
 62
    90
 10
257.230122590065
 20
264.216763797951
 30
0.0
 11
257.230122590065
 21
264.360098761024
 31
0.0
  0
LINE
  5
   7A8
  8
0
  6
CONTINUOUS
 62
    90
 10
257.230122590065
 20
258.779574996227
 30
0.0
 11
257.230122590065
 21
258.976327928847
 31
0.0
  0
LINE
  5
   7A9
  8
0
  6
CONTINUOUS
 62
    90
 10
257.230122590065
 20
263.07631578291
 30
0.0
 11
257.230122590065
 21
263.27923631816
 31
0.0
  0
LINE
  5
   7AA
  8
0
  6
CONTINUOUS
 62
    90
 10
257.230122590065
 20
259.85087933348
 30
0.0
 11
257.230122590065
 21
260.098587467054
 31
0.0
  0
LINE
  5
   7AB
  8
0
  6
CONTINUOUS
 62
     2
 10
257.230123200415
 20
263.27923631816
 30
0.0
 11
257.230123200415
 21
264.216763797951
 31
0.0
  0
LINE
  5
   7AC
  8
0
  6
CONTINUOUS
 62
     2
 10
257.230123200415
 20
264.360098761024
 30
0.0
 11
257.230123200415
 21
264.779962658882
 31
0.0
  0
LINE
  5
   7AD
  8
0
  6
CONTINUOUS
 62
     2
 10
257.230123200415
 20
260.098587467054
 30
0.0
 11
257.230123200415
 21
263.07631578291
 31
0.0
  0
LINE
  5
   7AE
  8
0
  6
CONTINUOUS
 62
     2
 10
257.230123200415
 20
258.976327928847
 30
0.0
 11
257.230123200415
 21
259.85087933348
 31
0.0
  0
LINE
  5
   7AF
  8
0
  6
CONTINUOUS
 62
     2
 10
257.230123200415
 20
258.379962563515
 30
0.0
 11
257.230123200415
 21
258.779574996227
 31
0.0
  0
LINE
  5
   7B0
  8
0
  6
CONTINUOUS
 62
     2
 10
258.830123224257
 20
258.379962563515
 30
0.0
 11
258.830123224257
 21
264.779962658882
 31
0.0
  0
LINE
  5
   7B1
  8
0
  6
CONTINUOUS
 62
     2
 10
259.630122625828
 20
271.179963798888
 30
0.0
 11
260.430124163628
 21
271.179963798888
 31
0.0
  0
ARC
  5
   7B2
  8
0
  6
CONTINUOUS
 62
     2
 10
259.630123236178
 20
268.779963763125
 30
0.0
 40
2.40000003576286
 50
90.000014571048
 51
180.000024935452
  0
LINE
  5
   7B3
  8
0
  6
CONTINUOUS
 62
     2
 10
257.230123200415
 20
264.779962658882
 30
0.0
 11
257.230123200415
 21
268.779962718487
 31
0.0
  0
LINE
  5
   7B4
  8
0
  6
CONTINUOUS
 62
     2
 10
257.230123200415
 20
253.979964023829
 30
0.0
 11
257.230123200415
 21
258.379962563515
 31
0.0
  0
LINE
  5
   7B5
  8
0
  6
CONTINUOUS
 62
     2
 10
257.230122590065
 20
253.979963542588
 30
0.0
 11
258.830125665665
 21
253.979963542588
 31
0.0
  0
LINE
  5
   7B6
  8
0
  6
CONTINUOUS
 62
     2
 10
258.830125055314
 20
253.179962486029
 30
0.0
 11
258.830125055314
 21
258.379962563515
 31
0.0
  0
LINE
  5
   7B7
  8
0
  6
CONTINUOUS
 62
     2
 10
258.830125055314
 20
253.179962486029
 30
0.0
 11
258.830125055314
 21
268.781675396318
 31
0.0
  0
ARC
  5
   7B8
  8
0
  6
CONTINUOUS
 62
     2
 10
259.630123236178
 20
268.779963763125
 30
0.0
 40
0.800000011921219
 50
90.0000437132009
 51
179.877413210787
  0
LINE
  5
   7B9
  8
0
  6
CONTINUOUS
 62
     2
 10
259.630122625828
 20
269.579963775047
 30
0.0
 11
260.430124163628
 21
269.579963775047
 31
0.0
  0
LINE
  5
   7BA
  8
0
  6
CONTINUOUS
 62
     2
 10
257.230122590065
 20
258.379963608154
 30
0.0
 11
258.830125665665
 21
258.379963608154
 31
0.0
  0
LINE
  5
   7BB
  8
0
  6
CONTINUOUS
 62
     2
 10
257.230122590065
 20
264.779963703521
 30
0.0
 11
258.830125665665
 21
264.779963703521
 31
0.0
  0
LINE
  5
   7BC
  8
0
  6
CONTINUOUS
 62
     2
 10
260.430124163628
 20
271.179963798888
 30
0.0
 11
280.028834673047
 21
271.179963798888
 31
0.0
  0
LINE
  5
   7BD
  8
0
  6
CONTINUOUS
 62
     2
 10
260.430124163628
 20
269.579963775047
 30
0.0
 11
280.027888251902
 21
269.579963775047
 31
0.0
  0
LINE
  5
   7BE
  8
0
  6
CONTINUOUS
 62
     7
 10
290.830124616623
 20
247.979962408543
 30
0.0
 11
297.23012471199
 21
247.979962408543
 31
0.0
  0
LINE
  5
   7BF
  8
0
  6
CONTINUOUS
 62
     7
 10
290.830124616623
 20
252.779962480068
 30
0.0
 11
293.230124652386
 21
252.779962480068
 31
0.0
  0
LINE
  5
   7C0
  8
0
  6
CONTINUOUS
 62
     7
 10
290.830124616623
 20
251.979962468147
 30
0.0
 11
293.230124652386
 21
251.979962468147
 31
0.0
  0
LINE
  5
   7C1
  8
0
  6
CONTINUOUS
 62
     7
 10
298.030124723911
 20
249.579962432385
 30
0.0
 11
298.030124723911
 21
251.979962468147
 31
0.0
  0
LINE
  5
   7C2
  8
0
  6
CONTINUOUS
 62
     7
 10
290.830124616623
 20
249.579962432384
 30
0.0
 11
297.23012471199
 21
249.579962432384
 31
0.0
  0
LINE
  5
   7C3
  8
0
  6
CONTINUOUS
 62
     7
 10
283.630124509335
 20
255.579962521792
 30
0.0
 11
283.630124509335
 21
256.78483924873
 31
0.0
  0
LINE
  5
   7C4
  8
0
  6
CONTINUOUS
 62
     7
 10
283.630124509335
 20
266.375085973667
 30
0.0
 11
283.630124509335
 21
267.579962700605
 31
0.0
  0
LINE
  5
   7C5
  8
0
  6
CONTINUOUS
 62
     7
 10
298.030124723786
 20
251.979962468147
 30
0.0
 11
298.030124723786
 21
252.779962480068
 31
0.0
  0
LINE
  5
   7C6
  8
0
  6
CONTINUOUS
 62
     7
 10
293.230124652386
 20
252.779962480068
 30
0.0
 11
293.230124652386
 21
271.979962766171
 31
0.0
  0
LINE
  5
   7C7
  8
0
  6
CONTINUOUS
 62
     7
 10
293.230124652386
 20
251.979962468147
 30
0.0
 11
293.230124652386
 21
252.779962480068
 31
0.0
  0
ARC
  5
   7C8
  8
0
  6
CONTINUOUS
 62
     7
 10
297.230124711229
 20
248.779962421099
 30
0.0
 40
0.800000011920332
 50
270.000000054516
 51
360.0
  0
LINE
  5
   7C9
  8
0
  6
CONTINUOUS
 62
     7
 10
298.030124723786
 20
248.779962420464
 30
0.0
 11
298.030124723786
 21
249.579962432385
 31
0.0
  0
LINE
  5
   7CA
  8
0
  6
CONTINUOUS
 62
     7
 10
297.23012471199
 20
249.579962432384
 30
0.0
 11
298.030124723911
 21
249.579962432384
 31
0.0
  0
LINE
  5
   7CB
  8
0
  6
CONTINUOUS
 62
     7
 10
283.630124509335
 20
253.779962494969
 30
0.0
 11
283.630124509335
 21
253.97996249795
 31
0.0
  0
LINE
  5
   7CC
  8
0
  6
CONTINUOUS
 62
     7
 10
293.230124652386
 20
271.979962766171
 30
0.0
 11
293.230124652386
 21
286.779962986708
 31
0.0
  0
LINE
  5
   7CD
  8
0
  6
CONTINUOUS
 62
     7
 10
283.630124509335
 20
274.779962807894
 30
0.0
 11
283.630124509335
 21
286.779962986708
 31
0.0
  0
LINE
  5
   7CE
  8
0
  6
CONTINUOUS
 62
     7
 10
283.630124509335
 20
286.779962986708
 30
0.0
 11
283.630124509335
 21
287.419965437651
 31
0.0
  0
LINE
  5
   7CF
  8
0
  6
CONTINUOUS
 62
     7
 10
283.630124509335
 20
287.419962996246
 30
0.0
 11
292.430124640465
 21
287.419962996246
 31
0.0
  0
LINE
  5
   7D0
  8
0
  6
CONTINUOUS
 62
     7
 10
292.427881721877
 20
287.419965437651
 30
0.0
 11
292.427881721877
 21
287.979963004589
 31
0.0
  0
LINE
  5
   7D1
  8
0
  6
CONTINUOUS
 62
     7
 10
283.630124509335
 20
287.419965437651
 30
0.0
 11
283.630124509335
 21
287.979963004589
 31
0.0
  0
LINE
  5
   7D2
  8
0
  6
CONTINUOUS
 62
     7
 10
293.230124652386
 20
286.779962986708
 30
0.0
 11
293.230124652386
 21
287.419965437651
 31
0.0
  0
LINE
  5
   7D3
  8
0
  6
CONTINUOUS
 62
     7
 10
292.430124640465
 20
287.419962996246
 30
0.0
 11
293.230124652386
 21
287.419962996246
 31
0.0
  0
LINE
  5
   7D4
  8
0
  6
CONTINUOUS
 62
     7
 10
283.630124509335
 20
269.179962724447
 30
0.0
 11
283.630124509335
 21
269.779962733388
 31
0.0
  0
LINE
  5
   7D5
  8
0
  6
CONTINUOUS
 62
     7
 10
282.830124758573
 20
270.579963006469
 30
0.0
 11
283.630124770494
 21
269.779962994548
 31
0.0
  0
LINE
  5
   7D6
  8
0
  6
CONTINUOUS
 62
     7
 10
282.830124497414
 20
270.579962745309
 30
0.0
 11
282.830124497414
 21
274.179962798953
 31
0.0
  0
LINE
  5
   7D7
  8
0
  6
CONTINUOUS
 62
     7
 10
282.830124497414
 20
274.179963321272
 30
0.0
 11
290.830124616623
 21
274.179963321272
 31
0.0
  0
LINE
  5
   7D8
  8
0
  6
CONTINUOUS
 62
     7
 10
283.630124509335
 20
247.979962408543
 30
0.0
 11
290.830124616623
 21
247.979962408543
 31
0.0
  0
LINE
  5
   7D9
  8
0
  6
CONTINUOUS
 62
     7
 10
287.710126401186
 20
252.499962475896
 30
0.0
 11
290.830124616623
 21
252.499962475896
 31
0.0
  0
LINE
  5
   7DA
  8
0
  6
CONTINUOUS
 62
     7
 10
287.630124568939
 20
251.259962457418
 30
0.0
 11
290.830124616623
 21
251.259962457418
 31
0.0
  0
LINE
  5
   7DB
  8
0
  6
CONTINUOUS
 62
     7
 10
287.630124568939
 20
249.499962431192
 30
0.0
 11
290.830124616623
 21
249.499962431192
 31
0.0
  0
LINE
  5
   7DC
  8
0
  6
CONTINUOUS
 62
     7
 10
286.830124557018
 20
250.299954508543
 30
0.0
 11
286.830124557018
 21
250.459962750673
 31
0.0
  0
LINE
  5
   7DD
  8
0
  6
CONTINUOUS
 62
     7
 10
283.630124509335
 20
267.579962700605
 30
0.0
 11
283.630124509335
 21
269.179962724447
 31
0.0
  0
LINE
  5
   7DE
  8
0
  6
CONTINUOUS
 62
     7
 10
283.630124509335
 20
247.979962408543
 30
0.0
 11
283.630124509335
 21
249.579962432385
 31
0.0
  0
LINE
  5
   7DF
  8
0
  6
CONTINUOUS
 62
     7
 10
283.630124509335
 20
253.97996249795
 30
0.0
 11
283.630124509335
 21
255.579962521792
 31
0.0
  0
LINE
  5
   7E0
  8
0
  6
CONTINUOUS
 62
     7
 10
283.630124509335
 20
253.97996249795
 30
0.0
 11
290.830124616623
 21
253.97996249795
 31
0.0
  0
LINE
  5
   7E1
  8
0
  6
CONTINUOUS
 62
     7
 10
283.630124509335
 20
269.179962724447
 30
0.0
 11
290.830124616623
 21
269.179962724447
 31
0.0
  0
LINE
  5
   7E2
  8
0
  6
CONTINUOUS
 62
     7
 10
283.630124509335
 20
255.579962521791
 30
0.0
 11
290.830124616623
 21
255.579962521791
 31
0.0
  0
LINE
  5
   7E3
  8
0
  6
CONTINUOUS
 62
     7
 10
283.630124509335
 20
267.579962700605
 30
0.0
 11
290.830124616623
 21
267.579962700605
 31
0.0
  0
POLYLINE
  5
   7E4
  8
0
  6
CONTINUOUS
 62
     7
 66
     1
 10
0.0
 20
0.0
 30
0.0
  0
VERTEX
  5
   7E5
  8
0
  6
CONTINUOUS
 10
287.630124568939
 20
251.259962457418
 30
0.0
 40
0.0
 41
0.0
  0
VERTEX
  5
   7E6
  8
0
  6
CONTINUOUS
 10
287.161080300432
 20
251.107476686532
 30
0.0
 40
0.0
 41
0.0
  0
VERTEX
  5
   7E7
  8
0
  6
CONTINUOUS
 10
286.851323018573
 20
250.636282770601
 30
0.0
 40
0.0
 41
0.0
  0
VERTEX
  5
   7E8
  8
0
  6
CONTINUOUS
 10
286.830124557018
 20
250.459962445852
 30
0.0
 40
0.0
 41
0.0
  0
SEQEND
  5
   7E9
  8
0
  6
CONTINUOUS
 62
     7
  0
POLYLINE
  5
   7EA
  8
0
  6
CONTINUOUS
 62
     7
 66
     1
 10
0.0
 20
0.0
 30
0.0
  0
VERTEX
  5
   7EB
  8
0
  6
CONTINUOUS
 10
287.630124568939
 20
249.499962431192
 30
0.0
 40
0.0
 41
0.0
  0
VERTEX
  5
   7EC
  8
0
  6
CONTINUOUS
 10
287.161080300493
 20
249.652448202033
 30
0.0
 40
0.0
 41
0.0
  0
VERTEX
  5
   7ED
  8
0
  6
CONTINUOUS
 10
286.851323018576
 20
250.123642117989
 30
0.0
 40
0.0
 41
0.0
  0
VERTEX
  5
   7EE
  8
0
  6
CONTINUOUS
 10
286.830124557018
 20
250.299962442759
 30
0.0
 40
0.0
 41
0.0
  0
SEQEND
  5
   7EF
  8
0
  6
CONTINUOUS
 62
     7
  0
LINE
  5
   7F0
  8
0
  6
CONTINUOUS
 62
     7
 10
285.630125817136
 20
250.366627788331
 30
0.0
 11
285.630125817136
 21
250.419961834536
 31
0.0
  0
ARC
  5
   7F1
  8
0
  6
CONTINUOUS
 62
     7
 10
287.705322101483
 20
250.338292540125
 30
0.0
 40
2.07518324081423
 50
179.217718215543
 51
201.435851161601
  0
ARC
  5
   7F2
  8
0
  6
CONTINUOUS
 62
     7
 10
287.710160981571
 20
250.419951099634
 30
0.0
 40
2.08013114974203
 50
90.0009525478649
 51
179.999704300825
  0
LINE
  5
   7F3
  8
0
  6
CONTINUOUS
 62
     7
 10
283.630124509335
 20
249.579962432384
 30
0.0
 11
285.773850127216
 21
249.579962432384
 31
0.0
  0
LINE
  5
   7F4
  8
0
  6
CONTINUOUS
 62
   138
 10
282.430127543211
 20
271.979962766171
 30
0.0
 11
282.430127543211
 21
274.779962807894
 31
0.0
  0
ARC
  5
   7F5
  8
0
  6
CONTINUOUS
 62
   138
 10
280.030127507448
 20
271.97996276617
 30
0.0
 40
2.40000003576266
 50
269.946541704681
 51
360.0
  0
ARC
  5
   7F6
  8
0
  6
CONTINUOUS
 62
   138
 10
280.030127507448
 20
271.979962766171
 30
0.0
 40
0.800000011921362
 50
269.907407517639
 51
360.0
  0
LINE
  5
   7F7
  8
0
  6
CONTINUOUS
 62
   138
 10
280.830127519369
 20
271.979962766171
 30
0.0
 11
280.830127519369
 21
274.779962807894
 31
0.0
  0
LINE
  5
   7F8
  8
0
  6
CONTINUOUS
 62
     5
 10
275.630124390125
 20
361.979964107275
 30
0.0
 11
276.030124396086
 21
361.979964107275
 31
0.0
  0
LINE
  5
   7F9
  8
0
  6
CONTINUOUS
 62
     5
 10
253.63012329936
 20
351.194905352815
 30
0.0
 11
253.63012329936
 21
357.565022635237
 31
0.0
  0
LINE
  5
   7FA
  8
0
  6
CONTINUOUS
 62
     5
 10
276.030124396086
 20
357.57996404171
 30
0.0
 11
276.030124396086
 21
359.168880081012
 31
0.0
  0
LINE
  5
   7FB
  8
0
  6
CONTINUOUS
 62
     5
 10
276.030124396086
 20
349.591047907041
 30
0.0
 11
276.030124396086
 21
351.179963946342
 31
0.0
  0
LINE
  5
   7FC
  8
0
  6
CONTINUOUS
 62
     5
 10
255.630123329163
 20
346.779963880777
 30
0.0
 11
255.630123329163
 21
351.194905352815
 31
0.0
  0
LINE
  5
   7FD
  8
0
  6
CONTINUOUS
 62
     5
 10
255.630123329163
 20
357.565022635237
 30
0.0
 11
255.630123329163
 21
361.979964107275
 31
0.0
  0
LINE
  5
   7FE
  8
0
  6
CONTINUOUS
 62
     5
 10
253.63012329936
 20
357.565022635237
 30
0.0
 11
253.63012329936
 21
361.979964107275
 31
0.0
  0
LINE
  5
   7FF
  8
0
  6
CONTINUOUS
 62
     5
 10
253.63012329936
 20
346.779963880777
 30
0.0
 11
253.63012329936
 21
351.194905352815
 31
0.0
  0
LINE
  5
   800
  8
0
  6
CONTINUOUS
 62
     5
 10
255.630123329163
 20
351.194905352815
 30
0.0
 11
255.961494641473
 21
351.526277428065
 31
0.0
  0
LINE
  5
   801
  8
0
  6
CONTINUOUS
 62
     5
 10
255.630123329163
 20
357.565022635237
 30
0.0
 11
255.961494641473
 21
357.233650559987
 31
0.0
  0
LINE
  5
   802
  8
0
  6
CONTINUOUS
 62
     5
 10
255.961494641473
 20
357.233650559987
 30
0.0
 11
256.430122578144
 21
356.102290679847
 31
0.0
  0
LINE
  5
   803
  8
0
  6
CONTINUOUS
 62
     5
 10
255.961494641473
 20
351.526277428065
 30
0.0
 11
256.430122578144
 21
352.657637308205
 31
0.0
  0
LINE
  5
   804
  8
0
  6
CONTINUOUS
 62
     5
 10
254.595808585967
 20
356.599336585691
 30
0.0
 11
254.830123317242
 21
356.033650542106
 31
0.0
  0
LINE
  5
   805
  8
0
  6
CONTINUOUS
 62
     5
 10
254.595808585967
 20
352.160591402361
 30
0.0
 11
254.830123317242
 21
352.726277445947
 31
0.0
  0
LINE
  5
   806
  8
0
  6
CONTINUOUS
 62
     5
 10
253.63012329936
 20
351.194905352815
 30
0.0
 11
254.595808585967
 21
352.160591402361
 31
0.0
  0
LINE
  5
   807
  8
0
  6
CONTINUOUS
 62
     5
 10
253.63012329936
 20
357.565022635237
 30
0.0
 11
254.595808585967
 21
356.599336585691
 31
0.0
  0
LINE
  5
   808
  8
0
  6
CONTINUOUS
 62
     2
 10
273.230124354363
 20
359.184505081244
 30
0.0
 11
273.230124354363
 21
359.979964077473
 31
0.0
  0
LINE
  5
   809
  8
0
  6
CONTINUOUS
 62
     2
 10
273.230124354363
 20
358.379964053631
 30
0.0
 11
273.230124354363
 21
359.175423049859
 31
0.0
  0
LINE
  5
   80A
  8
0
  6
CONTINUOUS
 62
     2
 10
273.230124354363
 20
349.584504938193
 30
0.0
 11
273.230124354363
 21
350.379963934422
 31
0.0
  0
LINE
  5
   80B
  8
0
  6
CONTINUOUS
 62
     2
 10
273.230124354363
 20
348.77996391058
 30
0.0
 11
273.230124354363
 21
349.575422906808
 31
0.0
  0
LINE
  5
   80C
  8
0
  6
CONTINUOUS
 62
     2
 10
273.230124354363
 20
347.579963892698
 30
0.0
 11
274.030124366283
 21
347.579963892698
 31
0.0
  0
LINE
  5
   80D
  8
0
  6
CONTINUOUS
 62
     2
 10
273.230124354363
 20
361.179964095354
 30
0.0
 11
274.030124366283
 21
361.179964095354
 31
0.0
  0
LINE
  5
   80E
  8
0
  6
CONTINUOUS
 62
     2
 10
273.228926768195
 20
359.175416263292
 30
0.0
 11
273.230124354363
 21
359.175423049859
 31
0.0
  0
LINE
  5
   80F
  8
0
  6
CONTINUOUS
 62
     2
 10
273.228926768196
 20
359.184511867812
 30
0.0
 11
273.230124354363
 21
359.184505081244
 31
0.0
  0
LINE
  5
   810
  8
0
  6
CONTINUOUS
 62
     2
 10
273.228926768195
 20
349.584511724761
 30
0.0
 11
273.230124354363
 21
349.584504938193
 31
0.0
  0
LINE
  5
   811
  8
0
  6
CONTINUOUS
 62
     2
 10
273.228926768195
 20
349.575416120241
 30
0.0
 11
273.230124354363
 21
349.575422906808
 31
0.0
  0
ARC
  5
   812
  8
0
  6
CONTINUOUS
 62
     2
 10
276.028910720508
 20
349.5799639225
 30
0.0
 40
0.800003987728462
 50
90.0002847466125
 51
269.999715253388
  0
ARC
  5
   813
  8
0
  6
CONTINUOUS
 62
     2
 10
276.028910720508
 20
359.179964065551
 30
0.0
 40
0.800003987729315
 50
90.0002847465677
 51
269.999715253432
  0
LINE
  5
   814
  8
0
  6
CONTINUOUS
 62
     3
 10
277.230124413967
 20
350.384846746994
 30
0.0
 11
277.230124413967
 21
358.092105394422
 31
0.0
  0
LINE
  5
   815
  8
0
  6
CONTINUOUS
 62
     3
 10
277.230124413967
 20
356.775081217216
 30
0.0
 11
277.230124413967
 21
358.375081241058
 31
0.0
  0
LINE
  5
   816
  8
0
  6
CONTINUOUS
 62
     3
 10
277.230124413967
 20
358.375081241058
 30
0.0
 11
278.030124425888
 21
359.175081252979
 31
0.0
  0
LINE
  5
   817
  8
0
  6
CONTINUOUS
 62
     3
 10
277.230124413967
 20
350.384846746994
 30
0.0
 11
278.030124425888
 21
349.584846735073
 31
0.0
  0
LINE
  5
   818
  8
0
  6
CONTINUOUS
 62
     3
 10
278.030124425888
 20
349.584846735073
 30
0.0
 11
290.830124616623
 21
349.584846735073
 31
0.0
  0
LINE
  5
   819
  8
0
  6
CONTINUOUS
 62
     3
 10
278.030124425888
 20
359.175081252979
 30
0.0
 11
290.830124616623
 21
359.175081252979
 31
0.0
  0
ARC
  5
   81A
  8
0
  6
CONTINUOUS
 62
     2
 10
246.590123957386
 20
347.339963889154
 30
0.0
 40
0.56000000837627
 50
270.000062448459
 51
300.433481641796
  0
ARC
  5
   81B
  8
0
  6
CONTINUOUS
 62
     2
 10
246.590123957381
 20
347.339963889064
 30
0.0
 40
0.560000008402603
 50
59.7136238285682
 51
90.0000156104762
  0
LINE
  5
   81C
  8
0
  6
CONTINUOUS
 62
     2
 10
246.590123957396
 20
347.899959014654
 30
0.0
 11
246.590123957396
 21
348.379963904619
 31
0.0
  0
LINE
  5
   81D
  8
0
  6
CONTINUOUS
 62
     2
 10
250.030124008656
 20
367.979964196748
 30
0.0
 11
252.830124050379
 21
367.979964196748
 31
0.0
  0
LINE
  5
   81E
  8
0
  6
CONTINUOUS
 62
     2
 10
252.830124050413
 20
367.979964196716
 30
0.0
 11
257.230124115978
 21
363.579964131151
 31
0.0
  0
LINE
  5
   81F
  8
0
  6
CONTINUOUS
 62
     2
 10
248.830123990774
 20
346.779963880777
 30
0.0
 11
249.630124002695
 21
346.779963880777
 31
0.0
  0
LINE
  5
   820
  8
0
  6
CONTINUOUS
 62
     2
 10
248.430123984814
 20
347.179963886738
 30
0.0
 11
248.430123984814
 21
348.379963904619
 31
0.0
  0
LINE
  5
   821
  8
0
  6
CONTINUOUS
 62
     2
 10
250.030124008656
 20
363.579964131117
 30
0.0
 11
250.030124008656
 21
367.979964196682
 31
0.0
  0
LINE
  5
   822
  8
0
  6
CONTINUOUS
 62
     2
 10
250.030124008656
 20
347.179963886738
 30
0.0
 11
250.030124008656
 21
349.579963922501
 31
0.0
  0
LINE
  5
   823
  8
0
  6
CONTINUOUS
 62
     2
 10
246.190123951435
 20
346.779963880777
 30
0.0
 11
246.190123951435
 21
348.379963904619
 31
0.0
  0
LINE
  5
   824
  8
0
  6
CONTINUOUS
 62
     2
 10
244.590123927593
 20
359.979964077473
 30
0.0
 11
244.590123927593
 21
367.979964196682
 31
0.0
  0
LINE
  5
   825
  8
0
  6
CONTINUOUS
 62
     2
 10
244.590123927593
 20
346.779963880777
 30
0.0
 11
244.590123927593
 21
348.77996391058
 31
0.0
  0
LINE
  5
   826
  8
0
  6
CONTINUOUS
 62
     2
 10
244.59012396574
 20
367.979964196682
 30
0.0
 11
246.190123798847
 21
367.979964196682
 31
0.0
  0
LINE
  5
   827
  8
0
  6
CONTINUOUS
 62
     2
 10
244.59012396574
 20
346.779963880777
 30
0.0
 11
246.190123798847
 21
346.779963880777
 31
0.0
  0
LINE
  5
   828
  8
0
  6
CONTINUOUS
 62
     2
 10
248.430123984814
 20
367.979964196682
 30
0.0
 11
250.030124008656
 21
367.979964196682
 31
0.0
  0
LINE
  5
   829
  8
0
  6
CONTINUOUS
 62
     2
 10
243.630123913288
 20
349.739961483479
 30
0.0
 11
243.630123913288
 21
359.019966504574
 31
0.0
  0
LINE
  5
   82A
  8
0
  6
CONTINUOUS
 62
     2
 10
243.630125134025
 20
349.739962704216
 30
0.0
 11
244.590123946701
 21
348.77996389154
 31
0.0
  0
LINE
  5
   82B
  8
0
  6
CONTINUOUS
 62
     2
 10
243.630125133961
 20
359.019965283901
 30
0.0
 11
244.590123946636
 21
359.979964096576
 31
0.0
  0
LINE
  5
   82C
  8
0
  6
CONTINUOUS
 62
     2
 10
246.190123798847
 20
348.379963904687
 30
0.0
 11
248.430123984814
 21
348.379963904687
 31
0.0
  0
LINE
  5
   82D
  8
0
  6
CONTINUOUS
 62
     2
 10
246.190123798847
 20
367.979964196682
 30
0.0
 11
248.430123984814
 21
367.979964196682
 31
0.0
  0
LINE
  5
   82E
  8
0
  6
CONTINUOUS
 62
     2
 10
250.030124008656
 20
349.579963922568
 30
0.0
 11
253.230124056339
 21
349.579963922568
 31
0.0
  0
LINE
  5
   82F
  8
0
  6
CONTINUOUS
 62
     2
 10
253.230124056339
 20
349.579963922501
 30
0.0
 11
253.230124056339
 21
361.979964107275
 31
0.0
  0
LINE
  5
   830
  8
0
  6
CONTINUOUS
 62
     2
 10
249.630124002695
 20
346.779963880777
 30
0.0
 11
250.030124008656
 21
347.179963886738
 31
0.0
  0
LINE
  5
   831
  8
0
  6
CONTINUOUS
 62
     2
 10
248.430123984814
 20
347.179963886738
 30
0.0
 11
248.830123990774
 21
346.779963880777
 31
0.0
  0
LINE
  5
   832
  8
0
  6
CONTINUOUS
 62
     2
 10
250.030124008656
 20
363.579964131185
 30
0.0
 11
257.230124115944
 21
363.579964131185
 31
0.0
  0
LINE
  5
   833
  8
0
  6
CONTINUOUS
 62
     2
 10
253.230124056339
 20
361.979964107343
 30
0.0
 11
257.230124115944
 21
361.979964107343
 31
0.0
  0
LINE
  5
   834
  8
0
  6
CONTINUOUS
 62
     2
 10
257.230124115944
 20
361.979964107275
 30
0.0
 11
257.230124115944
 21
363.579964131117
 31
0.0
  0
ARC
  5
   835
  8
0
  6
CONTINUOUS
 62
     2
 10
246.590123957395
 20
268.619962716102
 30
0.0
 40
0.560000008344466
 50
269.999984388195
 51
300.286190873142
  0
ARC
  5
   836
  8
0
  6
CONTINUOUS
 62
     2
 10
246.590123957396
 20
268.619962716105
 30
0.0
 40
0.560000008341986
 50
59.5663314237296
 51
89.9999375526108
  0
LINE
  5
   837
  8
0
  6
CONTINUOUS
 62
     2
 10
246.590123957396
 20
267.579962700605
 30
0.0
 11
246.590123957396
 21
268.059961487055
 31
0.0
  0
LINE
  5
   838
  8
0
  6
CONTINUOUS
 62
     2
 10
250.030124008656
 20
247.979962408477
 30
0.0
 11
252.830124050379
 21
247.979962408477
 31
0.0
  0
LINE
  5
   839
  8
0
  6
CONTINUOUS
 62
     2
 10
252.830124050413
 20
247.979962408509
 30
0.0
 11
257.230124115978
 21
252.379962474074
 31
0.0
  0
LINE
  5
   83A
  8
0
  6
CONTINUOUS
 62
     2
 10
248.830123990774
 20
269.179962724447
 30
0.0
 11
249.630124002695
 21
269.179962724447
 31
0.0
  0
LINE
  5
   83B
  8
0
  6
CONTINUOUS
 62
     2
 10
248.430123984814
 20
267.579962700605
 30
0.0
 11
248.430123984814
 21
268.779962718487
 31
0.0
  0
LINE
  5
   83C
  8
0
  6
CONTINUOUS
 62
     2
 10
250.030124008656
 20
247.979962408543
 30
0.0
 11
250.030124008656
 21
252.379962474108
 31
0.0
  0
LINE
  5
   83D
  8
0
  6
CONTINUOUS
 62
     2
 10
250.030124008656
 20
266.379962682724
 30
0.0
 11
250.030124008656
 21
268.779962718487
 31
0.0
  0
LINE
  5
   83E
  8
0
  6
CONTINUOUS
 62
     2
 10
246.190123951435
 20
267.579962700605
 30
0.0
 11
246.190123951435
 21
269.179962724447
 31
0.0
  0
LINE
  5
   83F
  8
0
  6
CONTINUOUS
 62
     2
 10
244.590123927593
 20
247.979962408543
 30
0.0
 11
244.590123927593
 21
255.979962527752
 31
0.0
  0
LINE
  5
   840
  8
0
  6
CONTINUOUS
 62
     2
 10
244.590123927593
 20
267.179962694645
 30
0.0
 11
244.590123927593
 21
269.179962724447
 31
0.0
  0
LINE
  5
   841
  8
0
  6
CONTINUOUS
 62
     2
 10
244.59012396574
 20
247.979962408543
 30
0.0
 11
246.190123798847
 21
247.979962408543
 31
0.0
  0
LINE
  5
   842
  8
0
  6
CONTINUOUS
 62
     2
 10
244.59012396574
 20
269.179962724447
 30
0.0
 11
246.190123798847
 21
269.179962724447
 31
0.0
  0
LINE
  5
   843
  8
0
  6
CONTINUOUS
 62
     2
 10
248.430123984814
 20
247.979962408543
 30
0.0
 11
250.030124008656
 21
247.979962408543
 31
0.0
  0
LINE
  5
   844
  8
0
  6
CONTINUOUS
 62
     2
 10
243.630123913288
 20
256.939963152409
 30
0.0
 11
243.630123913288
 21
266.219962069988
 31
0.0
  0
LINE
  5
   845
  8
0
  6
CONTINUOUS
 62
     2
 10
243.630123608152
 20
266.219962375125
 30
0.0
 11
244.590123946706
 21
267.179962713679
 31
0.0
  0
LINE
  5
   846
  8
0
  6
CONTINUOUS
 62
     2
 10
243.630123608082
 20
256.939962847203
 30
0.0
 11
244.590123946636
 21
255.979962508648
 31
0.0
  0
LINE
  5
   847
  8
0
  6
CONTINUOUS
 62
     2
 10
246.190123798847
 20
267.579962700538
 30
0.0
 11
248.430123984814
 21
267.579962700538
 31
0.0
  0
LINE
  5
   848
  8
0
  6
CONTINUOUS
 62
     2
 10
246.190123798847
 20
247.979962408543
 30
0.0
 11
248.430123984814
 21
247.979962408543
 31
0.0
  0
LINE
  5
   849
  8
0
  6
CONTINUOUS
 62
     2
 10
250.030124008656
 20
266.379962682657
 30
0.0
 11
253.230124056339
 21
266.379962682657
 31
0.0
  0
LINE
  5
   84A
  8
0
  6
CONTINUOUS
 62
     2
 10
253.230124056339
 20
253.97996249795
 30
0.0
 11
253.230124056339
 21
266.379962682724
 31
0.0
  0
LINE
  5
   84B
  8
0
  6
CONTINUOUS
 62
     2
 10
249.630124002695
 20
269.179962724447
 30
0.0
 11
250.030124008656
 21
268.779962718487
 31
0.0
  0
LINE
  5
   84C
  8
0
  6
CONTINUOUS
 62
     2
 10
248.430123984814
 20
268.779962718487
 30
0.0
 11
248.830123990774
 21
269.179962724447
 31
0.0
  0
LINE
  5
   84D
  8
0
  6
CONTINUOUS
 62
     2
 10
250.030124008656
 20
252.37996247404
 30
0.0
 11
257.230124115944
 21
252.37996247404
 31
0.0
  0
LINE
  5
   84E
  8
0
  6
CONTINUOUS
 62
     2
 10
253.230124056339
 20
253.979962497882
 30
0.0
 11
257.230124115944
 21
253.979962497882
 31
0.0
  0
LINE
  5
   84F
  8
0
  6
CONTINUOUS
 62
     2
 10
257.230124115944
 20
252.379962474108
 30
0.0
 11
257.230124115944
 21
253.97996249795
 31
0.0
  0
LINE
  5
   850
  8
0
  6
CONTINUOUS
 62
     5
 10
275.630124390125
 20
253.97996249795
 30
0.0
 11
276.030124396086
 21
253.97996249795
 31
0.0
  0
LINE
  5
   851
  8
0
  6
CONTINUOUS
 62
     5
 10
258.937302299705
 20
269.179962724447
 30
0.0
 11
276.030124396086
 21
269.179962724447
 31
0.0
  0
LINE
  5
   852
  8
0
  6
CONTINUOUS
 62
     5
 10
256.030122572184
 20
269.179962724447
 30
0.0
 11
257.344357516084
 21
269.179962724447
 31
0.0
  0
LINE
  5
   853
  8
0
  6
CONTINUOUS
 62
     5
 10
255.630123329163
 20
269.179962724447
 30
0.0
 11
256.030122572184
 21
269.179962724447
 31
0.0
  0
LINE
  5
   854
  8
0
  6
CONTINUOUS
 62
     5
 10
253.63012329936
 20
258.394897866472
 30
0.0
 11
253.63012329936
 21
264.765027355925
 31
0.0
  0
LINE
  5
   855
  8
0
  6
CONTINUOUS
 62
     5
 10
276.030124396086
 20
256.791049575971
 30
0.0
 11
276.030124396086
 21
258.379962563515
 31
0.0
  0
LINE
  5
   856
  8
0
  6
CONTINUOUS
 62
     5
 10
276.030124396086
 20
264.779962658882
 30
0.0
 11
276.030124396086
 21
266.368875646426
 31
0.0
  0
LINE
  5
   857
  8
0
  6
CONTINUOUS
 62
     5
 10
255.630123329163
 20
253.97996249795
 30
0.0
 11
255.630123329163
 21
258.394897866472
 31
0.0
  0
LINE
  5
   858
  8
0
  6
CONTINUOUS
 62
     5
 10
255.630123329163
 20
264.765027355925
 30
0.0
 11
255.630123329163
 21
269.179962724447
 31
0.0
  0
LINE
  5
   859
  8
0
  6
CONTINUOUS
 62
     5
 10
253.63012329936
 20
264.765027355925
 30
0.0
 11
253.63012329936
 21
269.179962724447
 31
0.0
  0
LINE
  5
   85A
  8
0
  6
CONTINUOUS
 62
     5
 10
253.63012329936
 20
253.97996249795
 30
0.0
 11
253.63012329936
 21
258.394897866472
 31
0.0
  0
LINE
  5
   85B
  8
0
  6
CONTINUOUS
 62
     5
 10
255.630123329163
 20
258.394897866472
 30
0.0
 11
255.961494641473
 21
258.726269941722
 31
0.0
  0
LINE
  5
   85C
  8
0
  6
CONTINUOUS
 62
     5
 10
255.630123329163
 20
264.765027355925
 30
0.0
 11
255.961494641473
 21
264.433655280675
 31
0.0
  0
LINE
  5
   85D
  8
0
  6
CONTINUOUS
 62
     5
 10
255.961494641473
 20
258.726269941722
 30
0.0
 11
256.430122578144
 21
259.857642028893
 31
0.0
  0
LINE
  5
   85E
  8
0
  6
CONTINUOUS
 62
     5
 10
255.961494641473
 20
264.433655280675
 30
0.0
 11
256.430122578144
 21
263.302283193504
 31
0.0
  0
LINE
  5
   85F
  8
0
  6
CONTINUOUS
 62
     5
 10
254.595808585967
 20
263.799341306379
 30
0.0
 11
254.830123317242
 21
263.233655262793
 31
0.0
  0
LINE
  5
   860
  8
0
  6
CONTINUOUS
 62
     5
 10
254.595808585967
 20
259.360583916018
 30
0.0
 11
254.830123317242
 21
259.926269959603
 31
0.0
  0
LINE
  5
   861
  8
0
  6
CONTINUOUS
 62
     5
 10
253.63012329936
 20
264.765027355925
 30
0.0
 11
254.595808585967
 21
263.799341306379
 31
0.0
  0
LINE
  5
   862
  8
0
  6
CONTINUOUS
 62
     5
 10
253.63012329936
 20
258.394897866472
 30
0.0
 11
254.595808585967
 21
259.360583916018
 31
0.0
  0
LINE
  5
   863
  8
0
  6
CONTINUOUS
 62
     2
 10
272.430124342442
 20
265.579962670803
 30
0.0
 11
272.430124342442
 21
266.375424718789
 31
0.0
  0
LINE
  5
   864
  8
0
  6
CONTINUOUS
 62
     2
 10
272.430124342442
 20
266.384500646659
 30
0.0
 11
272.430124342442
 21
267.179962694645
 31
0.0
  0
LINE
  5
   865
  8
0
  6
CONTINUOUS
 62
     2
 10
272.430124342442
 20
268.379962712526
 30
0.0
 11
273.230124354363
 21
268.379962712526
 31
0.0
  0
LINE
  5
   866
  8
0
  6
CONTINUOUS
 62
     2
 10
272.430124342442
 20
254.779962509871
 30
0.0
 11
273.230124354363
 21
254.779962509871
 31
0.0
  0
LINE
  5
   867
  8
0
  6
CONTINUOUS
 62
     2
 10
272.4289196156
 20
266.38450749477
 30
0.0
 11
272.430124342442
 21
266.384500646659
 31
0.0
  0
LINE
  5
   868
  8
0
  6
CONTINUOUS
 62
     2
 10
272.4289196156
 20
266.375417870678
 30
0.0
 11
272.430124342442
 21
266.375424718789
 31
0.0
  0
ARC
  5
   869
  8
0
  6
CONTINUOUS
 62
     2
 10
275.22890511614
 20
266.379962682724
 30
0.0
 40
0.79999839528186
 50
89.9998842166831
 51
270.000115783317
  0
ARC
  5
   86A
  8
0
  6
CONTINUOUS
 62
     2
 10
275.22890651425
 20
256.779961967468
 30
0.0
 40
0.79999979339121
 50
89.9999843489149
 51
270.000015651044
  0
LINE
  5
   86B
  8
0
  6
CONTINUOUS
 62
     3
 10
276.430124402046
 20
257.584839260651
 30
0.0
 11
276.430124402046
 21
265.260803855772
 31
0.0
  0
LINE
  5
   86C
  8
0
  6
CONTINUOUS
 62
     3
 10
276.430124402046
 20
263.975085937904
 30
0.0
 11
276.430124402046
 21
265.575085961746
 31
0.0
  0
LINE
  5
   86D
  8
0
  6
CONTINUOUS
 62
     3
 10
276.430124402046
 20
257.584839260651
 30
0.0
 11
277.230124413967
 21
256.78483924873
 31
0.0
  0
LINE
  5
   86E
  8
0
  6
CONTINUOUS
 62
     3
 10
276.430124402046
 20
265.575085961746
 30
0.0
 11
277.230124413967
 21
266.375085973667
 31
0.0
  0
LINE
  5
   86F
  8
0
  6
CONTINUOUS
 62
     3
 10
277.230124413967
 20
266.375085973667
 30
0.0
 11
290.830124616623
 21
266.375085973667
 31
0.0
  0
LINE
  5
   870
  8
0
  6
CONTINUOUS
 62
     3
 10
277.230124413967
 20
256.78483924873
 30
0.0
 11
290.830124616623
 21
256.78483924873
 31
0.0
  0
ARC
  5
   871
  8
0
  6
CONTINUOUS
 62
     1
 10
309.86788248187
 20
283.419961369437
 30
0.0
 40
0.160000002383794
 50
269.999558139071
 51
360.001435510389
  0
ARC
  5
   872
  8
0
  6
CONTINUOUS
 62
     1
 10
309.867880914534
 20
316.539963430037
 30
0.0
 40
0.160000002385837
 50
359.99912577079
 51
450.00862317551
  0
LINE
  5
   873
  8
0
  6
CONTINUOUS
 62
     1
 10
309.227881848812
 20
283.259962934256
 30
0.0
 11
309.867881247964
 21
283.259962934256
 31
0.0
  0
LINE
  5
   874
  8
0
  6
CONTINUOUS
 62
     1
 10
306.027878749337
 20
283.259962934256
 30
0.0
 11
306.427881807089
 21
283.259962934256
 31
0.0
  0
LINE
  5
   875
  8
0
  6
CONTINUOUS
 62
     1
 10
309.227881848812
 20
316.699963432551
 30
0.0
 11
309.867856833901
 21
316.699963432551
 31
0.0
  0
LINE
  5
   876
  8
0
  6
CONTINUOUS
 62
     1
 10
306.027878749337
 20
316.699963432551
 30
0.0
 11
306.427881807089
 21
316.699963432551
 31
0.0
  0
LINE
  5
   877
  8
0
  6
CONTINUOUS
 62
     1
 10
310.027880917051
 20
283.419965378046
 30
0.0
 11
310.027880917051
 21
316.53996098876
 31
0.0
  0
LINE
  5
   878
  8
0
  6
DASHDOT
 62
     7
 10
249.910123167634
 20
354.379963994026
 30
0.0
 11
294.550124748349
 21
354.379963994026
 31
0.0
  0
LINE
  5
   879
  8
0
  6
DASHDOT
 62
     7
 10
286.430124551058
 20
365.579964160919
 30
0.0
 11
291.230124622583
 21
365.579964160919
 31
0.0
  0
LINE
  5
   87A
  8
0
  6
DASHDOT
 62
     7
 10
249.910123167634
 20
261.579963655837
 30
0.0
 11
294.550124748349
 21
261.579963655837
 31
0.0
  0
LINE
  5
   87B
  8
0
  6
CONTINUOUS
 62
     7
 10
277.230124413967
 20
358.375081241058
 30
0.0
 11
290.830124616623
 21
358.375081241058
 31
0.0
  0
LINE
  5
   87C
  8
0
  6
CONTINUOUS
 62
     7
 10
277.230124413967
 20
350.384846746994
 30
0.0
 11
290.830124616623
 21
350.384846746994
 31
0.0
  0
LINE
  5
   87D
  8
0
  6
CONTINUOUS
 62
     7
 10
278.030124425888
 20
349.584846735073
 30
0.0
 11
278.030124425888
 21
359.175081252979
 31
0.0
  0
LINE
  5
   87E
  8
0
  6
CONTINUOUS
 62
     7
 10
276.430124402046
 20
257.584845364168
 30
0.0
 11
290.830124616623
 21
257.584845364168
 31
0.0
  0
LINE
  5
   87F
  8
0
  6
CONTINUOUS
 62
     7
 10
277.230124413967
 20
256.784845352247
 30
0.0
 11
277.230124413967
 21
266.375079870153
 31
0.0
  0
LINE
  5
   880
  8
0
  6
CONTINUOUS
 62
     7
 10
276.430124402046
 20
265.575079858232
 30
0.0
 11
290.830124616623
 21
265.575079858232
 31
0.0
  0
INSERT
  5
   881
  8
0
  6
CONTINUOUS
 62
     7
  2
*HATCH1028
 10
0.0
 20
0.0
 30
0.0
  0
INSERT
  5
   882
  8
0
  6
CONTINUOUS
 62
     7
  2
*HATCH1029
 10
0.0
 20
0.0
 30
0.0
  0
INSERT
  5
   883
  8
0
  6
CONTINUOUS
 62
     7
  2
*HATCH1030
 10
0.0
 20
0.0
 30
0.0
  0
INSERT
  5
   884
  8
0
  6
CONTINUOUS
 62
     7
  2
*HATCH1031
 10
0.0
 20
0.0
 30
0.0
  0
INSERT
  5
   885
  8
0
  6
CONTINUOUS
 62
     7
  2
*HATCH1032
 10
0.0
 20
0.0
 30
0.0
  0
INSERT
  5
   886
  8
0
  6
CONTINUOUS
 62
     7
  2
*HATCH1033
 10
0.0
 20
0.0
 30
0.0
  0
INSERT
  5
   887
  8
0
  6
CONTINUOUS
 62
     7
  2
*HATCH1034
 10
0.0
 20
0.0
 30
0.0
  0
INSERT
  5
   888
  8
0
  6
CONTINUOUS
 62
     7
  2
*HATCH1035
 10
0.0
 20
0.0
 30
0.0
  0
INSERT
  5
   889
  8
0
  6
CONTINUOUS
 62
     7
  2
*HATCH1036
 10
0.0
 20
0.0
 30
0.0
  0
INSERT
  5
   88A
  8
0
  6
CONTINUOUS
 62
     7
  2
*HATCH1037
 10
0.0
 20
0.0
 30
0.0
  0
INSERT
  5
   88B
  8
0
  6
CONTINUOUS
 62
     7
  2
*HATCH1038
 10
0.0
 20
0.0
 30
0.0
  0
INSERT
  5
   88C
  8
0
  6
CONTINUOUS
 62
     7
  2
*HATCH1039
 10
0.0
 20
0.0
 30
0.0
  0
INSERT
  5
   88D
  8
0
  6
CONTINUOUS
 62
     7
  2
*HATCH1040
 10
0.0
 20
0.0
 30
0.0
  0
INSERT
  5
   88E
  8
0
  6
CONTINUOUS
 62
     7
  2
*HATCH1041
 10
0.0
 20
0.0
 30
0.0
  0
INSERT
  5
   88F
  8
0
  6
CONTINUOUS
 62
     7
  2
*HATCH1042
 10
0.0
 20
0.0
 30
0.0
  0
INSERT
  5
   890
  8
0
  6
CONTINUOUS
 62
     7
  2
*UDIM1192
 10
0.0
 20
0.0
 30
0.0
  0
INSERT
  5
   891
  8
0
  6
CONTINUOUS
 62
     7
  2
*UDIM1193
 10
0.0
 20
0.0
 30
0.0
  0
LINE
  5
   892
  8
0
  6
CONTINUOUS
 62
     7
 10
258.030125043394
 20
253.179962486029
 30
0.0
 11
273.230124354363
 21
253.179962486029
 31
0.0
  0
LINE
  5
   893
  8
0
  6
CONTINUOUS
 62
     7
 10
258.030125043394
 20
236.133357225159
 30
0.0
 11
258.030125043394
 21
253.179962486029
 31
0.0
  0
LINE
  5
   894
  8
0
  6
CONTINUOUS
 62
     7
 10
273.230124354363
 20
236.133357225159
 30
0.0
 11
273.230124354363
 21
253.179962486029
 31
0.0
  0
LINE
  5
   895
  8
0
  6
CONTINUOUS
 62
   253
 10
273.230124354363
 20
247.979962408543
 30
0.0
 11
281.630124479532
 21
247.979962408543
 31
0.0
  0
ARC
  5
   896
  8
0
  6
CONTINUOUS
 62
     7
 10
269.43012452662
 20
239.845856736884
 30
0.0
 40
5.31249953556734
 50
224.332689175651
 51
315.667310824349
  0
ARC
  5
   897
  8
0
  6
CONTINUOUS
 62
     7
 10
269.43012452662
 20
232.420857713433
 30
0.0
 40
5.31249953556728
 50
44.3326891756508
 51
135.66731082435
  0
ARC
  5
   898
  8
0
  6
CONTINUOUS
 62
     7
 10
261.830124871136
 20
239.845856736884
 30
0.0
 40
5.31249953556732
 50
224.33268917565
 51
315.667310824349
  0
INSERT
  5
   899
  8
0
  6
CONTINUOUS
 62
     7
  2
*HATCH1043
 10
0.0
 20
0.0
 30
0.0
  0
INSERT
  5
   89A
  8
0
  6
CONTINUOUS
 62
     7
  2
*HATCH1044
 10
0.0
 20
0.0
 30
0.0
  0
INSERT
  5
   89B
  8
0
  6
CONTINUOUS
 62
     7
  2
*HATCH1045
 10
0.0
 20
0.0
 30
0.0
  0
INSERT
  5
   89C
  8
0
  6
CONTINUOUS
 62
     7
  2
*UDIM1194
 10
0.0
 20
0.0
 30
0.0
  0
INSERT
  5
   89D
  8
0
  6
CONTINUOUS
 62
     7
  2
*UDIM1195
 10
0.0
 20
0.0
 30
0.0
  0
INSERT
  5
   89E
  8
0
  6
CONTINUOUS
 62
     7
  2
*UDIM1196
 10
0.0
 20
0.0
 30
0.0
  0
INSERT
  5
   89F
  8
0
  6
CONTINUOUS
 62
     7
  2
*UDIM1197
 10
0.0
 20
0.0
 30
0.0
  0
INSERT
  5
   8A0
  8
0
  6
CONTINUOUS
 62
     7
  2
*UDIM1198
 10
0.0
 20
0.0
 30
0.0
  0
POINT
  5
   8A1
  8
0
  6
CONTINUOUS
 62
     7
 10
384.138037033606
 20
343.422387361527
 30
0.0
  0
CIRCLE
  5
   8A2
  8
0
  6
CONTINUOUS
 62
     7
 10
384.138037033606
 20
343.422387361527
 30
0.0
 40
0.900000013411045
  0
CIRCLE
  5
   8A3
  8
0
  6
CONTINUOUS
 62
     7
 10
412.138037450839
 20
343.422385193186
 30
0.0
 40
0.900000013411045
  0
INSERT
  5
   8A4
  8
0
  6
CONTINUOUS
 62
     7
  2
*UDIM1199
 10
0.0
 20
0.0
 30
0.0
  0
LINE
  5
   8A5
  8
0
  6
DASHDOT
 62
     7
 10
410.299792101872
 20
343.422387361527
 30
0.0
 11
413.91192874011
 21
343.422387361527
 31
0.0
  0
LINE
  5
   8A6
  8
0
  6
DASHDOT
 62
     7
 10
398.458030902147
 20
392.222388088703
 30
0.0
 11
400.347211860263
 21
392.222388088703
 31
0.0
  0
LINE
  5
   8A7
  8
0
  6
CONTINUOUS
 62
     7
 10
382.138030663133
 20
396.222388148308
 30
0.0
 11
415.138031154871
 21
396.222388148308
 31
0.0
  0
LINE
  5
   8A8
  8
0
  6
CONTINUOUS
 62
     7
 10
382.138030663133
 20
339.422387301922
 30
0.0
 11
382.138030663133
 21
396.222388148308
 31
0.0
  0
LINE
  5
   8A9
  8
0
  6
CONTINUOUS
 62
     7
 10
382.138030663133
 20
339.422387301922
 30
0.0
 11
415.138031154871
 21
339.422387301922
 31
0.0
  0
LINE
  5
   8AA
  8
0
  6
CONTINUOUS
 62
     7
 10
415.138031154871
 20
339.422387301922
 30
0.0
 11
415.138031154871
 21
396.222388148308
 31
0.0
  0
CIRCLE
  5
   8AB
  8
0
  6
CONTINUOUS
 62
     7
 10
398.138030901551
 20
392.222388088703
 30
0.0
 40
0.900000013411045
  0
LINE
  5
   8AC
  8
0
  6
DASHDOT
 62
     7
 10
405.138031005859
 20
333.188742706375
 30
0.0
 11
405.138031005859
 21
405.862366326359
 31
0.0
  0
LINE
  5
   8AD
  8
0
  6
DASHDOT
 62
     7
 10
372.545522689932
 20
367.822387725115
 30
0.0
 11
425.851624597846
 21
367.822387725115
 31
0.0
  0
LINE
  5
   8AE
  8
0
  6
DASHDOT
 62
     7
 10
405.138031005859
 20
410.671248359633
 30
0.0
 11
405.138031005859
 21
414.624434422385
 31
0.0
  0
TEXT
  5
   8AF
  8
0
  6
CONTINUOUS
 62
     7
 10
402.526561167212
 20
413.011298704768
 30
0.0
 40
2.99999994933605
  1
Y
 41
0.933333333333333
 72
     1
 11
403.626561148635
 21
414.511298679437
 31
0.0
 73
     2
  0
TEXT
  5
   8B0
  8
0
  6
CONTINUOUS
 62
     7
 10
402.337706233451
 20
332.885737114236
 30
0.0
 40
2.99999994933605
  1
Y
 41
0.933333333333333
 72
     1
 11
403.437706214874
 21
334.385737088904
 31
0.0
 73
     2
  0
TEXT
  5
   8B1
  8
0
  6
CONTINUOUS
 62
     7
 10
420.121545829262
 20
368.368785765802
 30
0.0
 40
2.99999994933605
  1
X
 41
0.933333333333333
 72
     1
 11
421.221545810685
 21
369.86878574047
 31
0.0
 73
     2
  0
TEXT
  5
   8B2
  8
0
  6
CONTINUOUS
 62
     7
 10
377.006409999185
 20
368.211406654335
 30
0.0
 40
2.99999994933605
  1
X
 41
0.933333333333333
 72
     1
 11
378.106409980608
 21
369.711406629003
 31
0.0
 73
     2
  0
INSERT
  5
   8B3
  8
0
  6
CONTINUOUS
 62
     7
  2
*UDIM1200
 10
0.0
 20
0.0
 30
0.0
  0
INSERT
  5
   8B4
  8
0
  6
CONTINUOUS
 62
     7
  2
*UDIM1201
 10
0.0
 20
0.0
 30
0.0
  0
LINE
  5
   8B5
  8
0
  6
DASHDOT
 62
     7
 10
410.74603742664
 20
343.422385193186
 30
0.0
 11
413.553237476076
 21
343.422385193186
 31
0.0
  0
LINE
  5
   8B6
  8
0
  6
DASHDOT
 62
     7
 10
412.138037450839
 20
342.030385168986
 30
0.0
 11
412.138037450839
 21
344.814385217385
 31
0.0
  0
LINE
  5
   8B7
  8
0
  6
DASHDOT
 62
     7
 10
412.138037450839
 20
342.414385175662
 30
0.0
 11
412.138037450839
 21
344.43038521071
 31
0.0
  0
LINE
  5
   8B8
  8
0
  6
DASHDOT
 62
     7
 10
412.138037450839
 20
347.742385253387
 30
0.0
 11
412.138037450839
 21
351.102385311799
 31
0.0
  0
LINE
  5
   8B9
  8
0
  6
DASHDOT
 62
     7
 10
398.138030901551
 20
391.21438807118
 30
0.0
 11
398.138030901551
 21
393.230388106227
 31
0.0
  0
LINE
  5
   8BA
  8
0
  6
DASHDOT
 62
     7
 10
398.138030901551
 20
390.20068420068
 30
0.0
 11
398.138030901551
 21
394.417301558986
 31
0.0
  0
INSERT
  5
   8BB
  8
0
  6
CONTINUOUS
 62
     7
  2
*UDIM1202
 10
0.0
 20
0.0
 30
0.0
  0
LINE
  5
   8BC
  8
0
  6
DASHDOT
 62
     7
 10
384.138037033606
 20
342.030385168986
 30
0.0
 11
384.138037033606
 21
344.814385217385
 31
0.0
  0
LINE
  5
   8BD
  8
0
  6
DASHDOT
 62
     7
 10
382.299791684639
 20
343.422387361527
 30
0.0
 11
385.911928322878
 21
343.422387361527
 31
0.0
  0
INSERT
  5
   8BE
  8
0
  6
CONTINUOUS
 62
     7
  2
*UDIM1203
 10
0.0
 20
0.0
 30
0.0
  0
TEXT
  5
   8BF
  8
0
  6
CONTINUOUS
 62
     7
 10
257.748344811231
 20
225.632724952353
 30
0.0
 40
1.40000452697284
  1
PROFONDITA' QUADRO
 41
0.933333333333333
 11
257.748344811231
 21
226.33272721584
 31
0.0
 73
     2
  0
TEXT
  5
   8C0
  8
0
  6
CONTINUOUS
 62
     7
 10
257.748344811231
 20
227.952724986924
 30
0.0
 40
1.40000452697284
  1
COMPARTMENT DEPTH
 41
0.933333333333333
 11
257.748344811231
 21
228.652727250411
 31
0.0
 73
     2
  0
INSERT
  5
   8C1
  8
0
  6
CONTINUOUS
 62
     7
  2
*UDIM1204
 10
0.0
 20
0.0
 30
0.0
  0
LINE
  5
   8C2
  8
0
  6
CONTINUOUS
 62
     3
 10
387.509983062744
 20
303.826034545898
 30
0.0
 11
429.009982299808
 21
303.826034545898
 31
0.0
  0
LINE
  5
   8C3
  8
0
  6
CONTINUOUS
 62
     3
 10
387.509982299808
 20
274.826034545898
 30
0.0
 11
387.509982299808
 21
303.826034545898
 31
0.0
  0
LINE
  5
   8C4
  8
0
  6
CONTINUOUS
 62
     3
 10
387.509983062744
 20
274.826034545898
 30
0.0
 11
429.009982299808
 21
274.826034545898
 31
0.0
  0
INSERT
  5
   8C5
  8
0
  6
CONTINUOUS
 62
     7
  2
*UDIM1205
 10
0.0
 20
0.0
 30
0.0
  0
LINE
  5
   8C6
  8
0
  6
CONTINUOUS
 62
     3
 10
429.009982299808
 20
274.826034545898
 30
0.0
 11
429.009982299808
 21
303.826034545898
 31
0.0
  0
INSERT
  5
   8C7
  8
0
  6
CONTINUOUS
 62
     7
  2
*UDIM1206
 10
0.0
 20
0.0
 30
0.0
  0
LINE
  5
   8C8
  8
0
  6
CONTINUOUS
 62
     7
 10
382.509982299808
 20
308.826034545898
 30
0.0
 11
434.009982299808
 21
308.826034545898
 31
0.0
  0
LINE
  5
   8C9
  8
0
  6
CONTINUOUS
 62
     7
 10
434.009982299808
 20
269.826034545898
 30
0.0
 11
434.009982299808
 21
308.826034545898
 31
0.0
  0
LINE
  5
   8CA
  8
0
  6
CONTINUOUS
 62
     7
 10
382.509982299808
 20
269.826034545898
 30
0.0
 11
382.509982299808
 21
308.826034545898
 31
0.0
  0
LINE
  5
   8CB
  8
0
  6
CONTINUOUS
 62
     7
 10
382.509982299808
 20
269.826034545898
 30
0.0
 11
434.009982299808
 21
269.826034545898
 31
0.0
  0
LINE
  5
   8CC
  8
0
  6
DASHDOT
 62
     7
 10
373.999450904849
 20
294.326034545898
 30
0.0
 11
442.629016199209
 21
294.326034545898
 31
0.0
  0
LINE
  5
   8CD
  8
0
  6
DASHDOT
 62
     7
 10
408.259982299808
 20
263.064022815105
 30
0.0
 11
408.259982299808
 21
317.516985322298
 31
0.0
  0
TEXT
  5
   8CE
  8
0
  6
CONTINUOUS
 62
     7
 10
439.171937940019
 20
295.358825567194
 30
0.0
 40
3.00000002980232
  1
X
 41
0.933333333333334
 72
     1
 11
440.271937950947
 21
296.858825582095
 31
0.0
 73
     2
  0
TEXT
  5
   8CF
  8
0
  6
CONTINUOUS
 62
     7
 10
404.823077497379
 20
264.043698671989
 30
0.0
 40
3.00000002980232
  1
Y
 41
0.933333333333334
 72
     1
 11
405.923077508306
 21
265.54369868689
 31
0.0
 73
     2
  0
TEXT
  5
   8D0
  8
0
  6
CONTINUOUS
 62
     7
 10
377.056774438465
 20
295.358825567194
 30
0.0
 40
3.00000002980232
  1
X
 41
0.933333333333334
 72
     1
 11
378.156774449393
 21
296.858825582095
 31
0.0
 73
     2
  0
TEXT
  5
   8D1
  8
0
  6
CONTINUOUS
 62
     7
 10
405.24348728791
 20
312.400876095025
 30
0.0
 40
3.00000002980232
  1
Y
 41
0.933333333333334
 72
     1
 11
406.343487298837
 21
313.900876109926
 31
0.0
 73
     2
  0
INSERT
  5
   8D2
  8
0
  6
CONTINUOUS
 62
     7
  2
*UDIM1207
 10
0.0
 20
0.0
 30
0.0
  0
ENDSEC
  0
EOF
