  0
SECTION
  2
HEADER
  9
$ACADVER
  1
AC1009
  9
$DWGCODEPAGE
  3
iso8859-1
  9
$INSBASE
 10
0.0
 20
0.0
 30
0.0
  9
$EXTMIN
 10
1.0E20
 20
1.0E20
 30
1.0E20
  9
$EXTMAX
 10
-1.0E20
 20
-1.0E20
 30
-1.0E20
  9
$LIMMIN
 10
0.0
 20
0.0
  9
$LIMMAX
 10
12.0
 20
9.0
  9
$ORTHOMODE
 70
     0
  9
$REGENMODE
 70
     1
  9
$FILLMODE
 70
     1
  9
$QTEXTMODE
 70
     0
  9
$MIRRTEXT
 70
     1
  9
$DRAGMODE
 70
     2
  9
$LTSCALE
 40
15.0
  9
$OSMODE
 70
     0
  9
$ATTMODE
 70
     1
  9
$TEXTSIZE
 40
0.2
  9
$TRACEWID
 40
0.05
  9
$TEXTSTYLE
  7
STANDARD
  9
$CLAYER
  8
0
  9
$CELTYPE
  6
DASHED
  9
$CECOLOR
 62
   256
  9
$DIMSCALE
 40
1.0
  9
$DIMASZ
 40
0.18
  9
$DIMEXO
 40
0.0625
  9
$DIMDLI
 40
0.38
  9
$DIMRND
 40
0.0
  9
$DIMDLE
 40
0.0
  9
$DIMEXE
 40
0.18
  9
$DIMTP
 40
0.0
  9
$DIMTM
 40
0.0
  9
$DIMTXT
 40
0.18
  9
$DIMCEN
 40
0.09
  9
$DIMTSZ
 40
0.0
  9
$DIMTOL
 70
     0
  9
$DIMLIM
 70
     0
  9
$DIMTIH
 70
     1
  9
$DIMTOH
 70
     1
  9
$DIMSE1
 70
     0
  9
$DIMSE2
 70
     0
  9
$DIMTAD
 70
     0
  9
$DIMZIN
 70
     0
  9
$DIMBLK
  1

  9
$DIMASO
 70
     1
  9
$DIMSHO
 70
     1
  9
$DIMPOST
  1

  9
$DIMAPOST
  1

  9
$DIMALT
 70
     0
  9
$DIMALTD
 70
     2
  9
$DIMALTF
 40
25.4
  9
$DIMLFAC
 40
1.0
  9
$DIMTOFL
 70
     0
  9
$DIMTVP
 40
0.0
  9
$DIMTIX
 70
     0
  9
$DIMSOXD
 70
     0
  9
$DIMSAH
 70
     0
  9
$DIMBLK1
  1

  9
$DIMBLK2
  1

  9
$DIMSTYLE
  2
STANDARD
  9
$DIMCLRD
 70
     0
  9
$DIMCLRE
 70
     0
  9
$DIMCLRT
 70
     0
  9
$DIMTFAC
 40
1.0
  9
$DIMGAP
 40
0.09
  9
$LUNITS
 70
     2
  9
$LUPREC
 70
     4
  9
$AXISMODE
 70
     0
  9
$AXISUNIT
 10
0.0
 20
0.0
  9
$SKETCHINC
 40
0.1
  9
$FILLETRAD
 40
0.0
  9
$AUNITS
 70
     0
  9
$AUPREC
 70
     0
  9
$MENU
  1
acad
  9
$ELEVATION
 40
0.0
  9
$PELEVATION
 40
0.0
  9
$THICKNESS
 40
0.0
  9
$LIMCHECK
 70
     0
  9
$BLIPMODE
 70
     1
  9
$CHAMFERA
 40
0.0
  9
$CHAMFERB
 40
0.0
  9
$SKPOLY
 70
     0
  9
$TDCREATE
 40
2450267.486451955
  9
$TDUPDATE
 40
2450267.486451955
  9
$TDINDWG
 40
0.0
  9
$TDUSRTIMER
 40
0.0
  9
$USRTIMER
 70
     1
  9
$ANGBASE
 50
0.0
  9
$ANGDIR
 70
     0
  9
$PDMODE
 70
     0
  9
$PDSIZE
 40
0.0
  9
$PLINEWID
 40
0.0
  9
$COORDS
 70
     1
  9
$SPLFRAME
 70
     0
  9
$SPLINETYPE
 70
     6
  9
$SPLINESEGS
 70
     8
  9
$ATTDIA
 70
     0
  9
$ATTREQ
 70
     1
  9
$HANDLING
 70
     1
  9
$HANDSEED
  5
   829
  9
$SURFTAB1
 70
     6
  9
$SURFTAB2
 70
     6
  9
$SURFTYPE
 70
     6
  9
$SURFU
 70
     6
  9
$SURFV
 70
     6
  9
$UCSNAME
  2

  9
$UCSORG
 10
0.0
 20
0.0
 30
0.0
  9
$UCSXDIR
 10
1.0
 20
0.0
 30
0.0
  9
$UCSYDIR
 10
0.0
 20
1.0
 30
0.0
  9
$PUCSNAME
  2

  9
$PUCSORG
 10
0.0
 20
0.0
 30
0.0
  9
$PUCSXDIR
 10
1.0
 20
0.0
 30
0.0
  9
$PUCSYDIR
 10
0.0
 20
1.0
 30
0.0
  9
$USERI1
 70
     0
  9
$USERI2
 70
     0
  9
$USERI3
 70
     0
  9
$USERI4
 70
     0
  9
$USERI5
 70
     0
  9
$USERR1
 40
0.0
  9
$USERR2
 40
0.0
  9
$USERR3
 40
0.0
  9
$USERR4
 40
0.0
  9
$USERR5
 40
0.0
  9
$WORLDVIEW
 70
     1
  9
$SHADEDGE
 70
     3
  9
$SHADEDIF
 70
    70
  9
$TILEMODE
 70
     1
  9
$MAXACTVP
 70
    16
  9
$PINSBASE
 10
0.0
 20
0.0
 30
0.0
  9
$PLIMCHECK
 70
     0
  9
$PEXTMIN
 10
1.0E20
 20
1.0E20
 30
1.0E20
  9
$PEXTMAX
 10
-1.0E20
 20
-1.0E20
 30
-1.0E20
  9
$PLIMMIN
 10
0.0
 20
0.0
  9
$PLIMMAX
 10
12.0
 20
9.0
  9
$UNITMODE
 70
     0
  9
$VISRETAIN
 70
     0
  0
ENDSEC
  0
SECTION
  2
TABLES
  0
TABLE
  2
VPORT
 70
     1
  0
VPORT
  2
*ACTIVE
 70
     0
 10
0.0
 20
0.0
 11
1.0
 21
1.0
 12
6.801242
 22
4.5
 13
0.0
 23
0.0
 14
1.0
 24
1.0
 15
0.0
 25
0.0
 16
0.0
 26
0.0
 36
1.0
 17
0.0
 27
0.0
 37
0.0
 40
9.0
 41
1.511387
 42
50.0
 43
0.0
 44
0.0
 50
0.0
 51
0.0
 71
     0
 72
   100
 73
     1
 74
     1
 75
     0
 76
     0
 77
     0
 78
     0
  0
ENDTAB
  0
TABLE
  2
LTYPE
 70
    41
  0
LTYPE
  2
BYBLOCK
 70
     0
  3

 72
    65
 73
     0
 40
0.0
  0
LTYPE
  2
BYLAYER
 70
     0
  3

 72
    65
 73
     0
 40
0.0
  0
LTYPE
  2
CONTINUOUS
 70
     0
  3
Solid line
 72
    65
 73
     0
 40
0.0
  0
LTYPE
  2
BORDER
 70
    64
  3
__ __ . __ __ . __ __ . __ __ . __ __ . __ __ .
 72
    65
 73
     6
 40
1.75
 49
0.5
 49
-0.25
 49
0.5
 49
-0.25
 49
0.0
 49
-0.25
  0
LTYPE
  2
BORDER2
 70
    64
  3
__.__.__.__.__.__.__.__.__.__.__.__.__.__.__.__
 72
    65
 73
     6
 40
0.875
 49
0.25
 49
-0.125
 49
0.25
 49
-0.125
 49
0.0
 49
-0.125
  0
LTYPE
  2
BORDERX2
 70
    64
  3
____  ____  .  ____  ____  .  ____  ____  .  __
 72
    65
 73
     6
 40
3.5
 49
1.0
 49
-0.5
 49
1.0
 49
-0.5
 49
0.0
 49
-0.5
  0
LTYPE
  2
CENTER
 70
    64
  3
____ _ ____ _ ____ _ ____ _ ____ _ ____ _ ____
 72
    65
 73
     4
 40
2.0
 49
1.25
 49
-0.25
 49
0.25
 49
-0.25
  0
LTYPE
  2
CENTER2
 70
    64
  3
___ _ ___ _ ___ _ ___ _ ___ _ ___ _ ___ _ ___ _
 72
    65
 73
     4
 40
1.125
 49
0.75
 49
-0.125
 49
0.125
 49
-0.125
  0
LTYPE
  2
CENTERX2
 70
    64
  3
________  __  ________  __  ________  __  _____
 72
    65
 73
     4
 40
4.0
 49
2.5
 49
-0.5
 49
0.5
 49
-0.5
  0
LTYPE
  2
DASHDOT
 70
    64
  3
__ . __ . __ . __ . __ . __ . __ . __ . __ . __
 72
    65
 73
     4
 40
1.0
 49
0.5
 49
-0.25
 49
0.0
 49
-0.25
  0
LTYPE
  2
DASHDOT2
 70
    64
  3
_._._._._._._._._._._._._._._._._._._._._._._._
 72
    65
 73
     4
 40
0.5
 49
0.25
 49
-0.125
 49
0.0
 49
-0.125
  0
LTYPE
  2
DASHDOTX2
 70
    64
  3
____  .  ____  .  ____  .  ____  .  ____  .  __
 72
    65
 73
     4
 40
2.0
 49
1.0
 49
-0.5
 49
0.0
 49
-0.5
  0
LTYPE
  2
DASHED
 70
    64
  3
__ __ __ __ __ __ __ __ __ __ __ __ __ __ __ __
 72
    65
 73
     2
 40
0.75
 49
0.5
 49
-0.25
  0
LTYPE
  2
DASHED2
 70
    64
  3
_ _ _ _ _ _ _ _ _ _ _ _ _ _ _ _ _ _ _ _ _ _ _ _
 72
    65
 73
     2
 40
0.375
 49
0.25
 49
-0.125
  0
LTYPE
  2
DASHEDX2
 70
    64
  3
____  ____  ____  ____  ____  ____  ____  ____
 72
    65
 73
     2
 40
1.5
 49
1.0
 49
-0.5
  0
LTYPE
  2
DIVIDE
 70
    64
  3
____ . . ____ . . ____ . . ____ . . ____ . . __
 72
    65
 73
     6
 40
1.25
 49
0.5
 49
-0.25
 49
0.0
 49
-0.25
 49
0.0
 49
-0.25
  0
LTYPE
  2
DIVIDE2
 70
    64
  3
__..__..__..__..__..__..__..__..__..__..__..__.
 72
    65
 73
     6
 40
0.625
 49
0.25
 49
-0.125
 49
0.0
 49
-0.125
 49
0.0
 49
-0.125
  0
LTYPE
  2
DIVIDEX2
 70
    64
  3
________  .  .  ________  .  .  ________  .  .
 72
    65
 73
     6
 40
2.5
 49
1.0
 49
-0.5
 49
0.0
 49
-0.5
 49
0.0
 49
-0.5
  0
LTYPE
  2
DOT
 70
    64
  3
. . . . . . . . . . . . . . . . . . . . . . . .
 72
    65
 73
     2
 40
0.25
 49
0.0
 49
-0.25
  0
LTYPE
  2
DOT2
 70
    64
  3
...............................................
 72
    65
 73
     2
 40
0.125
 49
0.0
 49
-0.125
  0
LTYPE
  2
DOTX2
 70
    64
  3
.  .  .  .  .  .  .  .  .  .  .  .  .  .  .  .
 72
    65
 73
     2
 40
0.5
 49
0.0
 49
-0.5
  0
LTYPE
  2
HIDDEN
 70
    64
  3
__ __ __ __ __ __ __ __ __ __ __ __ __ __ __ __
 72
    65
 73
     2
 40
0.375
 49
0.25
 49
-0.125
  0
LTYPE
  2
HIDDEN2
 70
    64
  3
_ _ _ _ _ _ _ _ _ _ _ _ _ _ _ _ _ _ _ _ _ _ _ _
 72
    65
 73
     2
 40
0.1875
 49
0.125
 49
-0.0625
  0
LTYPE
  2
HIDDENX2
 70
    64
  3
____ ____ ____ ____ ____ ____ ____ ____ ____ __
 72
    65
 73
     2
 40
0.75
 49
0.5
 49
-0.25
  0
LTYPE
  2
PHANTOM
 70
    64
  3
______  __  __  ______  __  __  ______  __  __
 72
    65
 73
     6
 40
2.5
 49
1.25
 49
-0.25
 49
0.25
 49
-0.25
 49
0.25
 49
-0.25
  0
LTYPE
  2
PHANTOM2
 70
    64
  3
___ _ _ ___ _ _ ___ _ _ ___ _ _ ___ _ _ ___ _ _
 72
    65
 73
     6
 40
1.25
 49
0.625
 49
-0.125
 49
0.125
 49
-0.125
 49
0.125
 49
-0.125
  0
LTYPE
  2
PHANTOMX2
 70
    64
  3
____________    ____    ____    ____________
 72
    65
 73
     6
 40
5.0
 49
2.5
 49
-0.5
 49
0.5
 49
-0.5
 49
0.5
 49
-0.5
  0
LTYPE
  2
ACAD_ISO02W100
 70
    64
  3
__ __ __ __ __ __ __ __ __ __ __ __ __ __ __ __
 72
    65
 73
     2
 40
15.0
 49
12.0
 49
-3.0
  0
LTYPE
  2
ACAD_ISO03W100
 70
    64
  3
__    __    __    __    __    __    __    __
 72
    65
 73
     2
 40
30.0
 49
12.0
 49
-18.0
  0
LTYPE
  2
ACAD_ISO04W100
 70
    64
  3
____ . ____ . ____ . ____ . ____ . ____ . ____
 72
    65
 73
     4
 40
30.5
 49
24.0
 49
-3.0
 49
0.5
 49
-3.0
  0
LTYPE
  2
ACAD_ISO05W100
 70
    64
  3
____ .. ____ .. ____ .. ____ .. ____ .. ____ ..
 72
    65
 73
     6
 40
34.0
 49
24.0
 49
-3.0
 49
0.5
 49
-3.0
 49
0.5
 49
-3.0
  0
LTYPE
  2
ACAD_ISO06W100
 70
    64
  3
____ ... ____ ... ____ ... ____ ... ____ ... __
 72
    65
 73
     8
 40
37.5
 49
24.0
 49
-3.0
 49
0.5
 49
-3.0
 49
0.5
 49
-3.0
 49
0.5
 49
-3.0
  0
LTYPE
  2
ACAD_ISO07W100
 70
    64
  3
. . . . . . . . . . . . . . . . . . . . . . . .
 72
    65
 73
     2
 40
3.5
 49
0.5
 49
-3.0
  0
LTYPE
  2
ACAD_ISO08W100
 70
    64
  3
____ __ ____ __ ____ __ ____ ____ __ __ ____ __
 72
    65
 73
     4
 40
36.0
 49
24.0
 49
-3.0
 49
6.0
 49
-3.0
  0
LTYPE
  2
ACAD_ISO09W100
 70
    64
  3
____ __ __ ____ __ __ ____ __ __ ____ __ __ ___
 72
    65
 73
     6
 40
45.0
 49
24.0
 49
-3.0
 49
6.0
 49
-3.0
 49
6.0
 49
-3.0
  0
LTYPE
  2
ACAD_ISO10W100
 70
    64
  3
__ . __ . __ . __ . __ . __ . __ . __ . __ . __
 72
    65
 73
     4
 40
18.5
 49
12.0
 49
-3.0
 49
0.5
 49
-3.0
  0
LTYPE
  2
ACAD_ISO11W100
 70
    64
  3
__ __ . __ __ . __ __ . __ __ . __ __ . __ __ .
 72
    65
 73
     6
 40
33.5
 49
12.0
 49
-3.0
 49
12.0
 49
-3.0
 49
0.5
 49
-3.0
  0
LTYPE
  2
ACAD_ISO12W100
 70
    64
  3
__ . . __ . . __ . . __ . . __ . . __ . . __ .
 72
    65
 73
     6
 40
22.0
 49
12.0
 49
-3.0
 49
0.5
 49
-3.0
 49
0.5
 49
-3.0
  0
LTYPE
  2
ACAD_ISO13W100
 70
    64
  3
__ __ . . __ __ . . __ __ . . __ __ . . __ __ .
 72
    65
 73
     8
 40
37.0
 49
12.0
 49
-3.0
 49
12.0
 49
-3.0
 49
0.5
 49
-3.0
 49
0.5
 49
-3.0
  0
LTYPE
  2
ACAD_ISO14W100
 70
    64
  3
__ . . . __ . . . __ . . . __ . . . __ . . . __
 72
    65
 73
     8
 40
25.5
 49
12.0
 49
-3.0
 49
0.5
 49
-3.0
 49
0.5
 49
-3.0
 49
0.5
 49
-3.0
  0
LTYPE
  2
ACAD_ISO15W100
 70
    64
  3
__ __ . . . __ __ . . . __ __ . . . __ __ . . .
 72
    65
 73
    10
 40
40.5
 49
12.0
 49
-3.0
 49
12.0
 49
-3.0
 49
0.5
 49
-3.0
 49
0.5
 49
-3.0
 49
0.5
 49
-3.0
  0
ENDTAB
  0
TABLE
  2
STYLE
 70
     4
  0
STYLE
  2
STANDARD
 70
    64
 40
0.0
 41
1.0
 50
0.0
 71
     0
 42
0.2
  3
txt
  4

  0
STYLE
  2
TOLERANCE
 70
    64
 40
0.0
 41
1.0
 50
0.0
 71
     0
 42
0.2
  3
iges1003.shx
  4

  0
STYLE
  2
ROMANS
 70
    64
 40
0.0
 41
1.0
 50
0.0
 71
     0
 42
0.2
  3
romans.shx
  4

  0
STYLE
  2
ROMANC
 70
    64
 40
0.0
 41
1.0
 50
0.0
 71
     0
 42
0.2
  3
romanc.shx
  4

  0
ENDTAB
  0
TABLE
  2
DIMSTYLE
 70
     2
  0
DIMSTYLE
  2
UNNAMED
 70
     0
  3

  4

  5

  6

  7

 40
1.0
 41
0.18
 42
0.0625
 43
0.38
 44
0.18
 45
0.0
 46
0.0
 47
0.0
 48
0.0
140
0.18
141
0.09
142
0.0
143
25.4
144
1.0
145
0.0
146
1.0
147
0.09
 71
     0
 72
     0
 73
     1
 74
     1
 75
     0
 76
     0
 77
     0
 78
     0
170
     0
171
     2
172
     0
173
     0
174
     0
175
     0
176
     0
177
     0
178
     0
  0
DIMSTYLE
  2
STANDARD
 70
     0
  3

  4

  5

  6

  7

 40
1.0
 41
0.18
 42
0.0625
 43
0.38
 44
0.18
 45
0.0
 46
0.0
 47
0.0
 48
0.0
140
0.18
141
0.09
142
0.0
143
25.4
144
1.0
145
0.0
146
1.0
147
0.09
 71
     0
 72
     0
 73
     1
 74
     1
 75
     0
 76
     0
 77
     0
 78
     0
170
     0
171
     2
172
     0
173
     0
174
     0
175
     0
176
     0
177
     0
178
     0
  0
ENDTAB
  0
TABLE
  2
LAYER
 70
     2
  0
LAYER
  2
0
 70
     0
 62
     7
  6
CONTINUOUS
  0
LAYER
  2
255
 70
     0
 62
     7
  6
CONTINUOUS
  0
ENDTAB
  0
ENDSEC
  0
SECTION
  2
BLOCKS
  0
BLOCK
  5
     B
  8
0
  6
CONTINUOUS
 62
     7
  2
$2TABELL
 70
    64
 10
0.0
 20
0.0
 30
0.0
  3
$2TABELL
  0
LINE
  5
     C
  8
0
  6
CONTINUOUS
 62
     7
 10
181.865085111827
 20
-41.3516925132404
 30
0.0
 11
181.865085111827
 21
-17.8955555684779
 31
0.0
  0
LINE
  5
     D
  8
0
  6
CONTINUOUS
 62
     7
 10
181.865085111827
 20
-17.8955555684779
 30
0.0
 11
292.040991263364
 21
-17.8955555684779
 31
0.0
  0
LINE
  5
     E
  8
0
  6
CONTINUOUS
 62
     7
 10
181.865085111827
 20
-25.7142678833987
 30
0.0
 11
292.040991263364
 21
-25.7142678833987
 31
0.0
  0
LINE
  5
     F
  8
0
  6
CONTINUOUS
 62
     7
 10
246.445970822728
 20
-41.3516925132404
 30
0.0
 11
246.445970822728
 21
-10.0768432535571
 31
0.0
  0
TEXT
  5
    10
  8
0
  6
CONTINUOUS
 62
     7
 10
237.180130357331
 20
-22.8049139611125
 30
0.0
 40
2.00000447034836
  1
83
 41
0.933333333333333
 72
     1
 11
238.846800749288
 21
-21.8049117259384
 31
0.0
 73
     2
  0
LINE
  5
    11
  8
0
  6
CONTINUOUS
 62
     7
 10
216.04929052897
 20
-41.3516925132404
 30
0.0
 11
216.04929052897
 21
-10.0768432535571
 31
0.0
  0
TEXT
  5
    12
  8
0
  6
CONTINUOUS
 62
     7
 10
238.113465776827
 20
-14.9862016461917
 30
0.0
 40
2.00000447034836
  1
B
 41
0.933333333333333
 72
     1
 11
238.846800749288
 21
-13.9861994110175
 31
0.0
 73
     2
  0
LINE
  5
    13
  8
0
  6
CONTINUOUS
 62
     7
 10
216.04929052897
 20
-10.0768432535571
 30
0.0
 11
292.040991263364
 21
-10.0768432535571
 31
0.0
  0
LINE
  5
    14
  8
0
  6
CONTINUOUS
 62
     7
 10
231.247630675849
 20
-41.3516925132404
 30
0.0
 11
231.247630675849
 21
-10.0768432535571
 31
0.0
  0
TEXT
  5
    15
  8
0
  6
CONTINUOUS
 62
     7
 10
222.915125629949
 20
-14.9862016461917
 30
0.0
 40
2.00000447034836
  1
A
 41
0.933333333333333
 72
     1
 11
223.64846060241
 21
-13.9861994110175
 31
0.0
 73
     2
  0
LINE
  5
    16
  8
0
  6
CONTINUOUS
 62
     7
 10
181.865085111827
 20
-41.3516925132404
 30
0.0
 11
292.040991263364
 21
-41.3516925132404
 31
0.0
  0
TEXT
  5
    17
  8
0
  6
CONTINUOUS
 62
     7
 10
221.981790210453
 20
-38.4423385909541
 30
0.0
 40
2.00000447034836
  1
71
 41
0.933333333333333
 72
     1
 11
223.64846060241
 21
-37.44233635578
 31
0.0
 73
     2
  0
TEXT
  5
    18
  8
0
  6
CONTINUOUS
 62
     7
 10
221.981790210453
 20
-30.6236262760333
 30
0.0
 40
2.00000447034836
  1
79
 41
0.933333333333333
 72
     1
 11
223.64846060241
 21
-29.6236240408592
 31
0.0
 73
     2
  0
TEXT
  5
    19
  8
0
  6
CONTINUOUS
 62
     7
 10
221.981790210453
 20
-22.8049139611125
 30
0.0
 40
2.00000447034836
  1
79
 41
0.933333333333333
 72
     1
 11
223.64846060241
 21
-21.8049117259384
 31
0.0
 73
     2
  0
LINE
  5
    1A
  8
0
  6
CONTINUOUS
 62
     7
 10
216.04929052897
 20
-33.5329801983196
 30
0.0
 11
292.040991263364
 21
-33.5329801983196
 31
0.0
  0
LINE
  5
    1B
  8
0
  6
CONTINUOUS
 62
     7
 10
261.644310969606
 20
-41.3516925132404
 30
0.0
 11
261.644310969606
 21
-10.0768432535571
 31
0.0
  0
TEXT
  5
    1C
  8
0
  6
CONTINUOUS
 62
     7
 10
252.37847050421
 20
-38.4423385909541
 30
0.0
 40
2.00000447034836
  1
47
 41
0.933333333333333
 72
     1
 11
254.045140896167
 21
-37.44233635578
 31
0.0
 73
     2
  0
TEXT
  5
    1D
  8
0
  6
CONTINUOUS
 62
     7
 10
235.31345951834
 20
-30.6236262760333
 30
0.0
 40
2.00000447034836
  1
78.2
 41
0.933333333333333
 72
     1
 11
238.846800749288
 21
-29.6236240408592
 31
0.0
 73
     2
  0
TEXT
  5
    1E
  8
0
  6
CONTINUOUS
 62
     7
 10
252.37847050421
 20
-30.6236262760333
 30
0.0
 40
2.00000447034836
  1
47
 41
0.933333333333333
 72
     1
 11
254.045140896167
 21
-29.6236240408592
 31
0.0
 73
     2
  0
TEXT
  5
    1F
  8
0
  6
CONTINUOUS
 62
     7
 10
236.246800633059
 20
-38.4423364004834
 30
0.0
 40
2.00000008940697
  1
122
 41
0.933333333333333
 72
     1
 11
238.846800749288
 21
-37.44233635578
 31
0.0
 73
     2
  0
TEXT
  5
    20
  8
0
  6
CONTINUOUS
 62
     7
 10
252.37847050421
 20
-22.8049139611125
 30
0.0
 40
2.00000447034836
  1
58
 41
0.933333333333333
 72
     1
 11
254.045140896167
 21
-21.8049117259384
 31
0.0
 73
     2
  0
TEXT
  5
    21
  8
0
  6
CONTINUOUS
 62
     7
 10
253.311805923706
 20
-14.9862016461917
 30
0.0
 40
2.00000447034836
  1
C
 41
0.933333333333333
 72
     1
 11
254.045140896167
 21
-13.9861994110175
 31
0.0
 73
     2
  0
TEXT
  5
    22
  8
0
  6
CONTINUOUS
 62
     7
 10
268.510146070585
 20
-14.9862016461917
 30
0.0
 40
2.00000447034836
  1
D
 41
0.933333333333333
 72
     1
 11
269.243481043046
 21
-13.9861994110175
 31
0.0
 73
     2
  0
LINE
  5
    23
  8
0
  6
CONTINUOUS
 62
     7
 10
276.842651116485
 20
-41.3516925132404
 30
0.0
 11
276.842651116485
 21
-10.0768432535571
 31
0.0
  0
TEXT
  5
    24
  8
0
  6
CONTINUOUS
 62
     7
 10
267.576814301873
 20
-30.6236240855626
 30
0.0
 40
2.00000008940697
  1
18
 41
0.933333333333334
 72
     1
 11
269.243481043046
 21
-29.6236240408592
 31
0.0
 73
     2
  0
TEXT
  5
    25
  8
0
  6
CONTINUOUS
 62
     7
 10
265.71014755176
 20
-22.8049117706418
 30
0.0
 40
2.00000008940697
  1
23.5
 41
0.933333333333333
 72
     1
 11
269.243481043046
 21
-21.8049117259384
 31
0.0
 73
     2
  0
TEXT
  5
    26
  8
0
  6
CONTINUOUS
 62
     7
 10
267.576814301873
 20
-38.4423364004834
 30
0.0
 40
2.00000008940697
  1
18
 41
0.933333333333334
 72
     1
 11
269.243481043046
 21
-37.44233635578
 31
0.0
 73
     2
  0
LINE
  5
    27
  8
0
  6
CONTINUOUS
 62
     7
 10
292.040991263364
 20
-41.3516925132404
 30
0.0
 11
292.040991263364
 21
-10.0768432535571
 31
0.0
  0
TEXT
  5
    28
  8
0
  6
CONTINUOUS
 62
     7
 10
283.708487823809
 20
-14.986199455721
 30
0.0
 40
2.00000008940697
  1
E
 41
0.933333333333333
 72
     1
 11
284.441821189925
 21
-13.9861994110175
 31
0.0
 73
     2
  0
TEXT
  5
    29
  8
0
  6
CONTINUOUS
 62
     7
 10
280.908487698639
 20
-22.8049117706418
 30
0.0
 40
2.00000008940697
  1
41.5
 41
0.933333333333333
 72
     1
 11
284.441821189925
 21
-21.8049117259384
 31
0.0
 73
     2
  0
TEXT
  5
    2A
  8
0
  6
CONTINUOUS
 62
     7
 10
280.908487698639
 20
-30.6236240855626
 30
0.0
 40
2.00000008940697
  1
39.1
 41
0.933333333333333
 72
     1
 11
284.441821189925
 21
-29.6236240408592
 31
0.0
 73
     2
  0
TEXT
  5
    2B
  8
0
  6
CONTINUOUS
 62
     7
 10
282.775154448752
 20
-38.4423364004834
 30
0.0
 40
2.00000008940697
  1
46
 41
0.933333333333334
 72
     1
 11
284.441821189925
 21
-37.44233635578
 31
0.0
 73
     2
  0
TEXT
  5
    2C
  8
0
  6
CONTINUOUS
 62
     7
 10
187.631383553694
 20
-24.4447160661403
 30
0.0
 40
2.00000447034836
  1
CON MOSTRINA
 41
0.933333333333333
 72
     1
 11
198.63140814061
 21
-23.4447138309662
 31
0.0
 73
     2
  0
TEXT
  5
    2D
  8
0
  6
CONTINUOUS
 62
     7
 10
188.564741023928
 20
-21.1651096656141
 30
0.0
 40
2.00000008940697
  1
WITH FLANGE
 41
0.933333333333333
 72
     1
 11
198.63140814061
 21
-20.1651096209106
 31
0.0
 73
     2
  0
TEXT
  5
    2E
  8
0
  6
CONTINUOUS
 62
     7
 10
186.416300258335
 20
-32.8582276117383
 30
0.0
 40
2.00000008940697
  1
WITHOUT FLANGE
 41
0.933333333333333
 72
     1
 11
199.282967500187
 21
-31.8582275670348
 31
0.0
 73
     2
  0
TEXT
  5
    2F
  8
0
  6
CONTINUOUS
 62
     7
 10
186.416300258335
 20
-36.2077328743077
 30
0.0
 40
2.00000008940697
  1
SENZA MOSTRINA
 41
0.933333333333333
 72
     1
 11
199.282967500187
 21
-35.2077328296042
 31
0.0
 73
     2
  0
ENDBLK
  5
    30
  8
0
  6
CONTINUOUS
 62
     7
  0
BLOCK
  5
    31
  8
0
  6
CONTINUOUS
 62
     7
  2
*UDIM2396
 70
    65
 10
0.0
 20
0.0
 30
0.0
  3
*UDIM2396
  0
LINE
  5
    32
  8
0
  6
CONTINUOUS
 62
     7
 10
130.450229644775
 20
180.831085205078
 30
0.0
 11
93.8954669851814
 21
180.831085205078
 31
0.0
  0
LINE
  5
    33
  8
0
  6
CONTINUOUS
 62
     7
 10
132.036029815674
 20
219.831085205078
 30
0.0
 11
93.8954669851814
 21
219.831085205078
 31
0.0
  0
LINE
  5
    34
  8
0
  6
CONTINUOUS
 62
     7
 10
95.8954669851814
 20
180.831085205078
 30
0.0
 11
95.8954669851814
 21
219.831085205078
 31
0.0
  0
LINE
  5
    35
  8
0
  6
CONTINUOUS
 62
     7
 10
95.1190098287629
 20
183.728862678289
 30
0.0
 11
95.8954669851814
 21
180.831085205078
 31
0.0
  0
LINE
  5
    36
  8
0
  6
CONTINUOUS
 62
     7
 10
95.8954669851814
 20
180.831085205078
 30
0.0
 11
96.6719241416
 21
183.728862678289
 31
0.0
  0
LINE
  5
    37
  8
0
  6
CONTINUOUS
 62
     7
 10
96.6719241416
 20
216.933307731868
 30
0.0
 11
95.8954669851814
 21
219.831085205078
 31
0.0
  0
LINE
  5
    38
  8
0
  6
CONTINUOUS
 62
     7
 10
95.8954669851814
 20
219.831085205078
 30
0.0
 11
95.1190098287629
 21
216.933307731868
 31
0.0
  0
TEXT
  5
    39
  8
0
  6
CONTINUOUS
 62
     7
 10
94.8954669851846
 20
197.831085180245
 30
0.0
 40
3.00000002980232
  1
78
 50
90.0
 41
0.933333333333333
 72
     1
 11
93.3954669702803
 21
200.331085205078
 31
0.0
 73
     2
  0
ENDBLK
  5
    3A
  8
0
  6
CONTINUOUS
 62
     7
  0
BLOCK
  5
    3B
  8
0
  6
CONTINUOUS
 62
     7
  2
*UDIM2397
 70
    65
 10
0.0
 20
0.0
 30
0.0
  3
*UDIM2397
  0
LINE
  5
    3C
  8
0
  6
CONTINUOUS
 62
     7
 10
126.950228881839
 20
220.831085205078
 30
0.0
 11
126.950228881839
 21
236.638932454229
 31
0.0
  0
LINE
  5
    3D
  8
0
  6
CONTINUOUS
 62
     7
 10
171.050228881836
 20
220.831085205078
 30
0.0
 11
171.050228881836
 21
236.638932454229
 31
0.0
  0
LINE
  5
    3E
  8
0
  6
CONTINUOUS
 62
     7
 10
126.950228881839
 20
234.638932454229
 30
0.0
 11
171.050228881836
 21
234.638932454229
 31
0.0
  0
LINE
  5
    3F
  8
0
  6
CONTINUOUS
 62
     7
 10
129.84800635505
 20
235.415389610648
 30
0.0
 11
126.950228881839
 21
234.638932454229
 31
0.0
  0
LINE
  5
    40
  8
0
  6
CONTINUOUS
 62
     7
 10
126.950228881839
 20
234.638932454229
 30
0.0
 11
129.84800635505
 21
233.862475297811
 31
0.0
  0
LINE
  5
    41
  8
0
  6
CONTINUOUS
 62
     7
 10
168.152451408625
 20
233.862475297811
 30
0.0
 11
171.050228881836
 21
234.638932454229
 31
0.0
  0
LINE
  5
    42
  8
0
  6
CONTINUOUS
 62
     7
 10
171.050228881836
 20
234.638932454229
 30
0.0
 11
168.152451408625
 21
235.415389610648
 31
0.0
  0
TEXT
  5
    43
  8
0
  6
CONTINUOUS
 62
     7
 10
143.700228829187
 20
235.638932454229
 30
0.0
 40
3.00000002980232
  1
88,2
 41
0.933333333333333
 72
     1
 11
149.000228881838
 21
237.13893246913
 31
0.0
 73
     2
  0
TEXT
  5
    44
  8
0
  6
CONTINUOUS
 62
     7
 10
145.100228843095
 20
231.638932424427
 30
0.0
 40
3.00000002980232
  1
= =
 41
0.933333333333333
 72
     1
 11
149.000228881838
 21
233.138932439328
 31
0.0
 73
     2
  0
ENDBLK
  5
    45
  8
0
  6
CONTINUOUS
 62
     7
  0
BLOCK
  5
    46
  8
0
  6
CONTINUOUS
 62
     7
  2
*UDIM2398
 70
    65
 10
0.0
 20
0.0
 30
0.0
  3
*UDIM2398
  0
LINE
  5
    47
  8
0
  6
CONTINUOUS
 62
     7
 10
118.237611783496
 20
203.081085205078
 30
0.0
 11
103.984918585617
 21
203.081085205078
 31
0.0
  0
LINE
  5
    48
  8
0
  6
CONTINUOUS
 62
     7
 10
132.036029815674
 20
219.831085205078
 30
0.0
 11
103.984918585617
 21
219.831085205078
 31
0.0
  0
LINE
  5
    49
  8
0
  6
CONTINUOUS
 62
     7
 10
105.984918585617
 20
198.081085205078
 30
0.0
 11
105.984918585617
 21
224.831085205078
 31
0.0
  0
LINE
  5
    4A
  8
0
  6
CONTINUOUS
 62
     7
 10
106.761375742035
 20
200.183307731867
 30
0.0
 11
105.984918585617
 21
203.081085205078
 31
0.0
  0
LINE
  5
    4B
  8
0
  6
CONTINUOUS
 62
     7
 10
105.984918585617
 20
203.081085205078
 30
0.0
 11
105.208461429198
 21
200.183307731867
 31
0.0
  0
LINE
  5
    4C
  8
0
  6
CONTINUOUS
 62
     7
 10
105.208461429198
 20
222.728862678289
 30
0.0
 11
105.984918585617
 21
219.831085205078
 31
0.0
  0
LINE
  5
    4D
  8
0
  6
CONTINUOUS
 62
     7
 10
105.984918585617
 20
219.831085205078
 30
0.0
 11
106.761375742035
 21
222.728862678289
 31
0.0
  0
TEXT
  5
    4E
  8
0
  6
CONTINUOUS
 62
     7
 10
104.984918585623
 20
206.156085152429
 30
0.0
 40
3.00000002980232
  1
33,5
 50
90.0
 41
0.933333333333333
 72
     1
 11
103.484918570716
 21
211.456085205078
 31
0.0
 73
     2
  0
ENDBLK
  5
    4F
  8
0
  6
CONTINUOUS
 62
     7
  0
BLOCK
  5
    50
  8
0
  6
CONTINUOUS
 62
     7
  2
*UDIM2399
 70
    65
 10
0.0
 20
0.0
 30
0.0
  3
*UDIM2399
  0
LINE
  5
    51
  8
0
  6
CONTINUOUS
 62
     7
 10
221.713210731745
 20
259.322536879511
 30
0.0
 11
221.713210731745
 21
228.295416164082
 31
0.0
  0
LINE
  5
    52
  8
0
  6
CONTINUOUS
 62
     7
 10
224.113210767508
 20
285.356634229422
 30
0.0
 11
224.113210767508
 21
228.295416164082
 31
0.0
  0
LINE
  5
    53
  8
0
  6
CONTINUOUS
 62
     7
 10
211.313210806052
 20
230.295416164082
 30
0.0
 11
229.113210767508
 21
230.295416164082
 31
0.0
  0
LINE
  5
    54
  8
0
  6
CONTINUOUS
 62
     7
 10
218.815433258534
 20
229.518959007664
 30
0.0
 11
221.713210731745
 21
230.295416164082
 31
0.0
  0
LINE
  5
    55
  8
0
  6
CONTINUOUS
 62
     7
 10
221.713210731745
 20
230.295416164082
 30
0.0
 11
218.815433258534
 21
231.071873320501
 31
0.0
  0
LINE
  5
    56
  8
0
  6
CONTINUOUS
 62
     7
 10
227.010988240718
 20
231.071873320501
 30
0.0
 11
224.113210767508
 21
230.295416164082
 31
0.0
  0
LINE
  5
    57
  8
0
  6
CONTINUOUS
 62
     7
 10
224.113210767508
 20
230.295416164082
 30
0.0
 11
227.010988240718
 21
229.518959007664
 31
0.0
  0
TEXT
  5
    58
  8
0
  6
CONTINUOUS
 62
     7
 10
214.513210768898
 20
231.295416164082
 30
0.0
 40
2.99999994933605
  1
3
 41
0.933333333333333
 72
     1
 11
215.613210750322
 21
232.79541613875
 31
0.0
 73
     2
  0
TEXT
  5
    59
  8
0
  6
CONTINUOUS
 62
     7
 10
211.313210806052
 20
231.295416164082
 30
0.0
 40
2.99999994933605
  1
_
 41
0.933333333333333
 72
     1
 11
212.413210787475
 21
232.79541613875
 31
0.0
 73
     2
  0
ENDBLK
  5
    5A
  8
0
  6
CONTINUOUS
 62
     7
  0
BLOCK
  5
    5B
  8
0
  6
CONTINUOUS
 62
     7
  2
*UDIM2400
 70
    65
 10
0.0
 20
0.0
 30
0.0
  3
*UDIM2400
  0
LINE
  5
    5C
  8
0
  6
CONTINUOUS
 62
     7
 10
310.00397256659
 20
315.956634670496
 30
0.0
 11
316.207466946735
 21
315.956634670496
 31
0.0
  0
LINE
  5
    5D
  8
0
  6
CONTINUOUS
 62
     7
 10
285.910968631473
 20
329.556634873153
 30
0.0
 11
316.207466946735
 21
329.556634873153
 31
0.0
  0
LINE
  5
    5E
  8
0
  6
CONTINUOUS
 62
     7
 10
314.207466946735
 20
310.956634670496
 30
0.0
 11
314.207466946735
 21
334.556634873153
 31
0.0
  0
LINE
  5
    5F
  8
0
  6
CONTINUOUS
 62
     7
 10
314.983924103153
 20
313.058857197286
 30
0.0
 11
314.207466946735
 21
315.956634670496
 31
0.0
  0
LINE
  5
    60
  8
0
  6
CONTINUOUS
 62
     7
 10
314.207466946735
 20
315.956634670496
 30
0.0
 11
313.431009790316
 21
313.058857197286
 31
0.0
  0
LINE
  5
    61
  8
0
  6
CONTINUOUS
 62
     7
 10
313.431009790316
 20
332.454412346364
 30
0.0
 11
314.207466946735
 21
329.556634873153
 31
0.0
  0
LINE
  5
    62
  8
0
  6
CONTINUOUS
 62
     7
 10
314.207466946735
 20
329.556634873153
 30
0.0
 11
314.983924103153
 21
332.454412346364
 31
0.0
  0
TEXT
  5
    63
  8
0
  6
CONTINUOUS
 62
     7
 10
313.207466946738
 20
320.256634814046
 30
0.0
 40
2.99999994933605
  1
17
 50
90.0
 41
0.933333333333333
 72
     1
 11
311.707466972067
 21
322.756634771824
 31
0.0
 73
     2
  0
ENDBLK
  5
    64
  8
0
  6
CONTINUOUS
 62
     7
  0
BLOCK
  5
    65
  8
0
  6
CONTINUOUS
 62
     7
  2
DADO
 70
    64
 10
0.0
 20
0.0
 30
0.0
  3
DADO
  0
POINT
  5
    66
  8
0
  6
CONTINUOUS
 62
     7
 10
0.0
 20
0.0
 30
0.0
  0
ARC
  5
    67
  8
0
  6
CONTINUOUS
 62
     7
 10
-5.0899999999997
 20
-1.4210854715202E-14
 30
0.0
 40
5.08999999999974
 50
334.391467869424
 51
385.608532130576
  0
ARC
  5
    68
  8
0
  6
CONTINUOUS
 62
     7
 10
-5.0899999999997
 20
-1.4210854715202E-14
 30
0.0
 40
5.08999999999974
 50
334.391467869424
 51
385.608532130576
  0
ARC
  5
    69
  8
0
  6
CONTINUOUS
 62
     7
 10
-0.94722499999996
 20
3.03499999999998
 30
0.0
 40
0.947225000000001
 50
298.173448635746
 51
421.826551364258
  0
LINE
  5
    6A
  8
0
  6
CONTINUOUS
 62
     7
 10
-3.50000000000001
 20
3.87
 30
0.0
 11
-0.499999999999954
 21
3.87
 31
0.0
  0
ARC
  5
    6B
  8
0
  6
CONTINUOUS
 62
     7
 10
-3.05277500000004
 20
3.03499999999998
 30
0.0
 40
0.947225000000001
 50
118.173448635742
 51
241.826551364254
  0
ARC
  5
    6C
  8
0
  6
CONTINUOUS
 62
     7
 10
1.0899999999997
 20
-1.4210854715202E-14
 30
0.0
 40
5.08999999999974
 50
154.391467869424
 51
205.608532130576
  0
LINE
  5
    6D
  8
0
  6
CONTINUOUS
 62
     7
 10
-8.0
 20
1.5
 30
0.0
 11
-4.0
 21
1.5
 31
0.0
  0
LINE
  5
    6E
  8
0
  6
CONTINUOUS
 62
     7
 10
-7.49999999999999
 20
2.0
 30
0.0
 11
-4.0
 21
2.0
 31
0.0
  0
LINE
  5
    6F
  8
0
  6
CONTINUOUS
 62
     7
 10
-8.0
 20
-1.5
 30
0.0
 11
-8.0
 21
1.5
 31
0.0
  0
LINE
  5
    70
  8
0
  6
DASHDOT
 62
     7
 10
-9.54698811797346
 20
0.0
 30
0.0
 11
0.0
 21
0.0
 31
0.0
  0
LINE
  5
    71
  8
0
  6
CONTINUOUS
 62
     7
 10
-7.99999999999999
 20
1.5
 30
0.0
 11
-7.49999999999999
 21
2.00000000000001
 31
0.0
  0
LINE
  5
    72
  8
0
  6
CONTINUOUS
 62
     7
 10
-7.5
 20
-2.0
 30
0.0
 11
-7.5
 21
2.0
 31
0.0
  0
LINE
  5
    73
  8
0
  6
CONTINUOUS
 62
     7
 10
-8.0
 20
-1.49999999999999
 30
0.0
 11
-7.49999999999999
 21
-2.0
 31
0.0
  0
LINE
  5
    74
  8
0
  6
CONTINUOUS
 62
     7
 10
-7.5
 20
-2.0
 30
0.0
 11
-4.0
 21
-2.0
 31
0.0
  0
ARC
  5
    75
  8
0
  6
CONTINUOUS
 62
     7
 10
-3.05277499999966
 20
-3.035
 30
0.0
 40
0.947225000000154
 50
118.173448635768
 51
241.826551364238
  0
LINE
  5
    76
  8
0
  6
CONTINUOUS
 62
     7
 10
-4.0
 20
-3.035
 30
0.0
 11
-4.0
 21
3.03499999999998
 31
0.0
  0
LINE
  5
    77
  8
0
  6
CONTINUOUS
 62
     7
 10
-3.50000000000001
 20
-2.2
 30
0.0
 11
-0.499999999999972
 21
-2.2
 31
0.0
  0
ARC
  5
    78
  8
0
  6
CONTINUOUS
 62
     7
 10
-0.947225000000337
 20
-3.035
 30
0.0
 40
0.947225000000154
 50
298.173448635762
 51
421.826551364232
  0
ARC
  5
    79
  8
0
  6
CONTINUOUS
 62
     7
 10
-0.947225000000337
 20
-3.035
 30
0.0
 40
0.947225000000154
 50
298.173448635762
 51
421.826551364232
  0
LINE
  5
    7A
  8
0
  6
CONTINUOUS
 62
     7
 10
-3.50000000000011
 20
-3.87
 30
0.0
 11
-0.499999999999968
 21
-3.87
 31
0.0
  0
LINE
  5
    7B
  8
0
  6
CONTINUOUS
 62
     7
 10
-3.50000000000009
 20
2.2
 30
0.0
 11
-0.499999999999876
 21
2.2
 31
0.0
  0
LINE
  5
    7C
  8
0
  6
CONTINUOUS
 62
     7
 10
0.0
 20
-3.035
 30
0.0
 11
0.0
 21
3.03499999999998
 31
0.0
  0
LINE
  5
    7D
  8
0
  6
CONTINUOUS
 62
     7
 10
-8.0
 20
-1.5
 30
0.0
 11
-4.0
 21
-1.5
 31
0.0
  0
ENDBLK
  5
    7E
  8
0
  6
CONTINUOUS
 62
     7
  0
BLOCK
  5
    7F
  8
0
  6
CONTINUOUS
 62
     7
  2
*UDIM2401
 70
    65
 10
0.0
 20
0.0
 30
0.0
  3
*UDIM2401
  0
LINE
  5
    80
  8
0
  6
CONTINUOUS
 62
     7
 10
286.910967717628
 20
270.799366326131
 30
0.0
 11
286.910967717628
 21
238.144204234128
 31
0.0
  0
LINE
  5
    81
  8
0
  6
CONTINUOUS
 62
     7
 10
288.510967741469
 20
270.242844578708
 30
0.0
 11
288.510967741469
 21
238.144204234128
 31
0.0
  0
LINE
  5
    82
  8
0
  6
CONTINUOUS
 62
     7
 10
281.910967717628
 20
240.144204234128
 30
0.0
 11
298.501684408109
 21
240.144204234128
 31
0.0
  0
LINE
  5
    83
  8
0
  6
CONTINUOUS
 62
     7
 10
284.013190244417
 20
239.36774707771
 30
0.0
 11
286.910967717628
 21
240.144204234128
 31
0.0
  0
LINE
  5
    84
  8
0
  6
CONTINUOUS
 62
     7
 10
286.910967717628
 20
240.144204234128
 30
0.0
 11
284.013190244417
 21
240.920661390547
 31
0.0
  0
LINE
  5
    85
  8
0
  6
CONTINUOUS
 62
     7
 10
291.40874521468
 20
240.920661390547
 30
0.0
 11
288.510967741469
 21
240.144204234128
 31
0.0
  0
LINE
  5
    86
  8
0
  6
CONTINUOUS
 62
     7
 10
288.510967741469
 20
240.144204234128
 30
0.0
 11
291.40874521468
 21
239.36774707771
 31
0.0
  0
TEXT
  5
    87
  8
0
  6
CONTINUOUS
 62
     7
 10
296.301684445263
 20
241.144204234128
 30
0.0
 40
2.99999994933605
  1
2
 41
0.933333333333333
 72
     1
 11
297.401684426686
 21
242.644204208796
 31
0.0
 73
     2
  0
TEXT
  5
    88
  8
0
  6
CONTINUOUS
 62
     7
 10
293.101684482416
 20
241.144204234128
 30
0.0
 40
2.99999994933605
  1
_
 41
0.933333333333333
 72
     1
 11
294.201684463839
 21
242.644204208796
 31
0.0
 73
     2
  0
ENDBLK
  5
    89
  8
0
  6
CONTINUOUS
 62
     7
  0
BLOCK
  5
    8A
  8
0
  6
CONTINUOUS
 62
     7
  2
*UDIM2402
 70
    65
 10
0.0
 20
0.0
 30
0.0
  3
*UDIM2402
  0
LINE
  5
    8B
  8
0
  6
CONTINUOUS
 62
     7
 10
224.113209823827
 20
347.556635126472
 30
0.0
 11
224.113209823827
 21
408.457119372817
 31
0.0
  0
LINE
  5
    8C
  8
0
  6
CONTINUOUS
 62
     7
 10
286.513210753658
 20
330.556634873152
 30
0.0
 11
286.513210753658
 21
408.457119372817
 31
0.0
  0
LINE
  5
    8D
  8
0
  6
CONTINUOUS
 62
     7
 10
224.113209823827
 20
406.457119372817
 30
0.0
 11
286.513210753658
 21
406.457119372817
 31
0.0
  0
LINE
  5
    8E
  8
0
  6
CONTINUOUS
 62
     7
 10
227.010987297037
 20
407.233576529235
 30
0.0
 11
224.113209823827
 21
406.457119372817
 31
0.0
  0
LINE
  5
    8F
  8
0
  6
CONTINUOUS
 62
     7
 10
224.113209823827
 20
406.457119372817
 30
0.0
 11
227.010987297037
 21
405.680662216398
 31
0.0
  0
LINE
  5
    90
  8
0
  6
CONTINUOUS
 62
     7
 10
283.615433280448
 20
405.680662216398
 30
0.0
 11
286.513210753658
 21
406.457119372817
 31
0.0
  0
LINE
  5
    91
  8
0
  6
CONTINUOUS
 62
     7
 10
286.513210753658
 20
406.457119372817
 30
0.0
 11
283.615433280448
 21
407.233576529235
 31
0.0
  0
TEXT
  5
    92
  8
0
  6
CONTINUOUS
 62
     7
 10
252.813210330963
 20
407.457119372817
 30
0.0
 40
2.99999994933605
  1
78
 41
0.933333333333333
 72
     1
 11
255.313210288743
 21
408.957119347485
 31
0.0
 73
     2
  0
ENDBLK
  5
    93
  8
0
  6
CONTINUOUS
 62
     7
  0
BLOCK
  5
    94
  8
0
  6
CONTINUOUS
 62
     7
  2
*UDIM2403
 70
    65
 10
0.0
 20
0.0
 30
0.0
  3
*UDIM2403
  0
LINE
  5
    95
  8
0
  6
CONTINUOUS
 62
     7
 10
224.11321091132
 20
288.156631219387
 30
0.0
 11
224.11321091132
 21
228.295416164082
 31
0.0
  0
LINE
  5
    96
  8
0
  6
CONTINUOUS
 62
     7
 10
305.710969064855
 20
311.116634613275
 30
0.0
 11
305.710969064855
 21
228.295416164082
 31
0.0
  0
LINE
  5
    97
  8
0
  6
CONTINUOUS
 62
     7
 10
224.11321091132
 20
230.295416164082
 30
0.0
 11
305.710969064855
 21
230.295416164082
 31
0.0
  0
LINE
  5
    98
  8
0
  6
CONTINUOUS
 62
     7
 10
227.010988384531
 20
231.071873320501
 30
0.0
 11
224.11321091132
 21
230.295416164082
 31
0.0
  0
LINE
  5
    99
  8
0
  6
CONTINUOUS
 62
     7
 10
224.11321091132
 20
230.295416164082
 30
0.0
 11
227.010988384531
 21
229.518959007664
 31
0.0
  0
LINE
  5
    9A
  8
0
  6
CONTINUOUS
 62
     7
 10
302.813191591644
 20
229.518959007664
 30
0.0
 11
305.710969064855
 21
230.295416164082
 31
0.0
  0
LINE
  5
    9B
  8
0
  6
CONTINUOUS
 62
     7
 10
305.710969064855
 20
230.295416164082
 30
0.0
 11
302.813191591644
 21
231.071873320501
 31
0.0
  0
TEXT
  5
    9C
  8
0
  6
CONTINUOUS
 62
     7
 10
261.012090053951
 20
231.295416164082
 30
0.0
 40
2.99999994933605
  1
102
 41
0.933333333333333
 72
     1
 11
264.912089988088
 21
232.79541613875
 31
0.0
 73
     2
  0
ENDBLK
  5
    9D
  8
0
  6
CONTINUOUS
 62
     7
  0
BLOCK
  5
    9E
  8
0
  6
CONTINUOUS
 62
     7
  2
*UDIM2404
 70
    65
 10
0.0
 20
0.0
 30
0.0
  3
*UDIM2404
  0
LINE
  5
    9F
  8
0
  6
CONTINUOUS
 62
     7
 10
224.113209823827
 20
347.556635126472
 30
0.0
 11
224.113209823827
 21
399.997991687422
 31
0.0
  0
LINE
  5
    A0
  8
0
  6
CONTINUOUS
 62
     7
 10
280.113210658291
 20
355.196634629965
 30
0.0
 11
280.113210658291
 21
399.997991687422
 31
0.0
  0
LINE
  5
    A1
  8
0
  6
CONTINUOUS
 62
     7
 10
224.113209823827
 20
397.997991687422
 30
0.0
 11
280.113210658291
 21
397.997991687422
 31
0.0
  0
LINE
  5
    A2
  8
0
  6
CONTINUOUS
 62
     7
 10
227.010987297037
 20
398.774448843841
 30
0.0
 11
224.113209823827
 21
397.997991687422
 31
0.0
  0
LINE
  5
    A3
  8
0
  6
CONTINUOUS
 62
     7
 10
224.113209823827
 20
397.997991687422
 30
0.0
 11
227.010987297037
 21
397.221534531004
 31
0.0
  0
LINE
  5
    A4
  8
0
  6
CONTINUOUS
 62
     7
 10
277.215433185081
 20
397.221534531004
 30
0.0
 11
280.113210658291
 21
397.997991687422
 31
0.0
  0
LINE
  5
    A5
  8
0
  6
CONTINUOUS
 62
     7
 10
280.113210658291
 20
397.997991687422
 30
0.0
 11
277.215433185081
 21
398.774448843841
 31
0.0
  0
TEXT
  5
    A6
  8
0
  6
CONTINUOUS
 62
     7
 10
249.613210283279
 20
398.997991687422
 30
0.0
 40
2.99999994933605
  1
70
 41
0.933333333333333
 72
     1
 11
252.113210241059
 21
400.49799166209
 31
0.0
 73
     2
  0
ENDBLK
  5
    A7
  8
0
  6
CONTINUOUS
 62
     7
  0
BLOCK
  5
    A8
  8
0
  6
CONTINUOUS
 62
     7
  2
*UDIM2405
 70
    65
 10
0.0
 20
0.0
 30
0.0
  3
*UDIM2405
  0
LINE
  5
    A9
  8
0
  6
CONTINUOUS
 62
     7
 10
224.113209823827
 20
347.556635126472
 30
0.0
 11
224.113209823827
 21
417.191660517736
 31
0.0
  0
LINE
  5
    AA
  8
0
  6
CONTINUOUS
 62
     7
 10
290.513210813264
 20
329.116635462046
 30
0.0
 11
290.513210813264
 21
417.191660517736
 31
0.0
  0
LINE
  5
    AB
  8
0
  6
CONTINUOUS
 62
     7
 10
224.113209823827
 20
415.191660517736
 30
0.0
 11
290.513210813264
 21
415.191660517736
 31
0.0
  0
LINE
  5
    AC
  8
0
  6
CONTINUOUS
 62
     7
 10
227.010987297037
 20
415.968117674154
 30
0.0
 11
224.113209823827
 21
415.191660517736
 31
0.0
  0
LINE
  5
    AD
  8
0
  6
CONTINUOUS
 62
     7
 10
224.113209823827
 20
415.191660517736
 30
0.0
 11
227.010987297037
 21
414.415203361317
 31
0.0
  0
LINE
  5
    AE
  8
0
  6
CONTINUOUS
 62
     7
 10
287.615433340053
 20
414.415203361317
 30
0.0
 11
290.513210813264
 21
415.191660517736
 31
0.0
  0
LINE
  5
    AF
  8
0
  6
CONTINUOUS
 62
     7
 10
290.513210813264
 20
415.191660517736
 30
0.0
 11
287.615433340053
 21
415.968117674154
 31
0.0
  0
TEXT
  5
    B0
  8
0
  6
CONTINUOUS
 62
     7
 10
254.813210360765
 20
416.191660517736
 30
0.0
 40
2.99999994933605
  1
83
 41
0.933333333333333
 72
     1
 11
257.313210318545
 21
417.691660492404
 31
0.0
 73
     2
  0
ENDBLK
  5
    B1
  8
0
  6
CONTINUOUS
 62
     7
  0
BLOCK
  5
    B2
  8
0
  6
CONTINUOUS
 62
     7
  2
*UDIM2406
 70
    65
 10
0.0
 20
0.0
 30
0.0
  3
*UDIM2406
  0
LINE
  5
    B3
  8
0
  6
CONTINUOUS
 62
     7
 10
238.113210032443
 20
361.956635341048
 30
0.0
 11
238.113210032443
 21
391.441238599355
 31
0.0
  0
LINE
  5
    B4
  8
0
  6
CONTINUOUS
 62
     7
 10
249.313210199336
 20
364.756635382771
 30
0.0
 11
249.313210199336
 21
391.441238599355
 31
0.0
  0
LINE
  5
    B5
  8
0
  6
CONTINUOUS
 62
     7
 10
238.113210032443
 20
389.441238599355
 30
0.0
 11
267.141478555286
 21
389.441238599355
 31
0.0
  0
LINE
  5
    B6
  8
0
  6
CONTINUOUS
 62
     7
 10
252.210987672547
 20
390.217695755774
 30
0.0
 11
249.313210199336
 21
389.441238599355
 31
0.0
  0
LINE
  5
    B7
  8
0
  6
CONTINUOUS
 62
     7
 10
249.313210199336
 20
389.441238599355
 30
0.0
 11
252.210987672547
 21
388.664781442936
 31
0.0
  0
TEXT
  5
    B8
  8
0
  6
CONTINUOUS
 62
     7
 10
253.341478771452
 20
390.441238599355
 30
0.0
 40
2.99999994933605
  1
14
 41
0.933333333333333
 72
     1
 11
255.841478729232
 21
391.941238574023
 31
0.0
 73
     2
  0
TEXT
  5
    B9
  8
0
  6
CONTINUOUS
 62
     7
 10
259.341478687012
 20
390.441238599355
 30
0.0
 40
2.99999994933605
  1
x14
 41
0.933333333333333
 72
     1
 11
263.241478621149
 21
391.941238574023
 31
0.0
 73
     2
  0
ENDBLK
  5
    BA
  8
0
  6
CONTINUOUS
 62
     7
  0
BLOCK
  5
    BB
  8
0
  6
CONTINUOUS
 62
     7
  2
*UDIM2407
 70
    65
 10
0.0
 20
0.0
 30
0.0
  3
*UDIM2407
  0
LINE
  5
    BC
  8
0
  6
CONTINUOUS
 62
     7
 10
224.113209823827
 20
368.956635445356
 30
0.0
 11
224.113209823827
 21
391.441238599355
 31
0.0
  0
LINE
  5
    BD
  8
0
  6
CONTINUOUS
 62
     7
 10
238.113210032443
 20
357.156635269523
 30
0.0
 11
238.113210032443
 21
391.441238599355
 31
0.0
  0
LINE
  5
    BE
  8
0
  6
CONTINUOUS
 62
     7
 10
208.615216292133
 20
389.441238599355
 30
0.0
 11
238.113210032443
 21
389.441238599355
 31
0.0
  0
LINE
  5
    BF
  8
0
  6
CONTINUOUS
 62
     7
 10
221.215432350616
 20
388.664781442936
 30
0.0
 11
224.113209823827
 21
389.441238599355
 31
0.0
  0
LINE
  5
    C0
  8
0
  6
CONTINUOUS
 62
     7
 10
224.113209823827
 20
389.441238599355
 30
0.0
 11
221.215432350616
 21
390.217695755774
 31
0.0
  0
CIRCLE
  5
    C1
  8
0
  6
CONTINUOUS
 62
     7
 10
238.113210032443
 20
389.441238599355
 30
0.0
 40
1.0
  0
TEXT
  5
    C2
  8
0
  6
CONTINUOUS
 62
     7
 10
208.615216292133
 20
390.441238599355
 30
0.0
 40
2.99999994933605
  1
17,5
 41
0.933333333333333
 72
     1
 11
213.915216202627
 21
391.941238574023
 31
0.0
 73
     2
  0
ENDBLK
  5
    C3
  8
0
  6
CONTINUOUS
 62
     7
  0
BLOCK
  5
    C4
  8
0
  6
CONTINUOUS
 62
     7
  2
*HATCH2103
 70
    65
 10
0.0
 20
0.0
 30
0.0
  3
*HATCH2103
  0
LINE
  5
    C5
  8
0
  6
CONTINUOUS
 62
    92
 10
225.113210782375
 20
283.96027951842
 30
0.0
 11
224.113210767474
 21
282.960279503519
 31
0.0
  0
LINE
  5
    C6
  8
0
  6
CONTINUOUS
 62
    92
 10
225.113210782375
 20
280.566167834543
 30
0.0
 11
224.113210767474
 21
279.566167819642
 31
0.0
  0
LINE
  5
    C7
  8
0
  6
CONTINUOUS
 62
    92
 10
228.497784197067
 20
280.556629565358
 30
0.0
 11
227.297785705065
 21
279.356631073356
 31
0.0
  0
LINE
  5
    C8
  8
0
  6
CONTINUOUS
 62
    92
 10
231.891897406823
 20
280.556629565358
 30
0.0
 11
230.691898914821
 21
279.356631073356
 31
0.0
  0
LINE
  5
    C9
  8
0
  6
CONTINUOUS
 62
    92
 10
235.28600985364
 20
280.556629565358
 30
0.0
 11
234.086011361637
 21
279.356631073356
 31
0.0
  0
ENDBLK
  5
    CA
  8
0
  6
CONTINUOUS
 62
     7
  0
BLOCK
  5
    CB
  8
0
  6
CONTINUOUS
 62
     7
  2
*HATCH2104
 70
    65
 10
0.0
 20
0.0
 30
0.0
  3
*HATCH2104
  0
LINE
  5
    CC
  8
0
  6
CONTINUOUS
 62
    92
 10
227.650866459838
 20
367.956635445356
 30
0.0
 11
225.073209866252
 21
365.378980377649
 31
0.0
  0
LINE
  5
    CD
  8
0
  6
CONTINUOUS
 62
    92
 10
230.513209336963
 20
367.424866638604
 30
0.0
 11
224.113210767474
 21
361.024866543237
 31
0.0
  0
LINE
  5
    CE
  8
0
  6
CONTINUOUS
 62
    92
 10
232.239092083628
 20
365.756635412574
 30
0.0
 11
224.113210767474
 21
357.630756385239
 31
0.0
  0
LINE
  5
    CF
  8
0
  6
CONTINUOUS
 62
    92
 10
235.633205293383
 20
365.756635412574
 30
0.0
 11
234.033204506602
 21
364.156635388732
 31
0.0
  0
LINE
  5
    D0
  8
0
  6
CONTINUOUS
 62
    92
 10
232.113210123744
 20
362.236640242934
 30
0.0
 11
224.653207113411
 21
354.77663952142
 31
0.0
  0
LINE
  5
    D1
  8
0
  6
CONTINUOUS
 62
    92
 10
232.113210123744
 20
358.842530084936
 30
0.0
 11
227.427316041468
 21
354.15663523972
 31
0.0
  0
LINE
  5
    D2
  8
0
  6
CONTINUOUS
 62
    92
 10
226.673209890094
 20
353.402530614226
 30
0.0
 11
225.827316017626
 21
352.556635215879
 31
0.0
  0
LINE
  5
    D3
  8
0
  6
CONTINUOUS
 62
    92
 10
232.113210123744
 20
355.44841687518
 30
0.0
 11
230.821429251223
 21
354.15663523972
 31
0.0
  0
LINE
  5
    D4
  8
0
  6
CONTINUOUS
 62
    92
 10
230.513209336963
 20
353.848416851338
 30
0.0
 11
229.267320036171
 21
352.602524498789
 31
0.0
  0
ENDBLK
  5
    D5
  8
0
  6
CONTINUOUS
 62
     7
  0
BLOCK
  5
    D6
  8
0
  6
CONTINUOUS
 62
     7
  2
*HATCH2105
 70
    65
 10
0.0
 20
0.0
 30
0.0
  3
*HATCH2105
  0
LINE
  5
    D7
  8
0
  6
CONTINUOUS
 62
    92
 10
226.673209890094
 20
278.732055258385
 30
0.0
 11
224.113210767474
 21
276.172054609886
 31
0.0
  0
LINE
  5
    D8
  8
0
  6
CONTINUOUS
 62
    92
 10
230.402554122911
 20
279.067284755567
 30
0.0
 11
224.113210767474
 21
272.77794140013
 31
0.0
  0
LINE
  5
    D9
  8
0
  6
CONTINUOUS
 62
    92
 10
232.113210123744
 20
277.383828309584
 30
0.0
 11
224.479610919418
 21
269.750231394076
 31
0.0
  0
LINE
  5
    DA
  8
0
  6
CONTINUOUS
 62
    92
 10
232.113210123744
 20
273.989715099828
 30
0.0
 11
225.073209866252
 21
266.949718657033
 31
0.0
  0
LINE
  5
    DB
  8
0
  6
CONTINUOUS
 62
    92
 10
232.113210123744
 20
270.59560494183
 30
0.0
 11
225.474235262853
 21
263.956630843878
 31
0.0
  0
LINE
  5
    DC
  8
0
  6
CONTINUOUS
 62
    92
 10
232.668347766294
 20
267.756630900502
 30
0.0
 11
231.068347742452
 21
266.15663087666
 31
0.0
  0
LINE
  5
    DD
  8
0
  6
CONTINUOUS
 62
    92
 10
230.513209336963
 20
265.601491708232
 30
0.0
 11
228.868348472609
 21
263.956630843878
 31
0.0
  0
LINE
  5
    DE
  8
0
  6
CONTINUOUS
 62
    92
 10
236.062460976049
 20
267.756630900502
 30
0.0
 11
234.462460952208
 21
266.15663087666
 31
0.0
  0
ENDBLK
  5
    DF
  8
0
  6
CONTINUOUS
 62
     7
  0
BLOCK
  5
    E0
  8
0
  6
CONTINUOUS
 62
     7
  2
*HATCH2106
 70
    65
 10
0.0
 20
0.0
 30
0.0
  3
*HATCH2106
  0
LINE
  5
    E1
  8
0
  6
CONTINUOUS
 62
    92
 10
252.038912324957
 20
270.156630936265
 30
0.0
 11
251.313210409846
 21
269.430929021154
 31
0.0
  0
LINE
  5
    E2
  8
0
  6
CONTINUOUS
 62
    92
 10
255.433024771773
 20
270.156630936265
 30
0.0
 11
253.433024741971
 21
268.156630906463
 31
0.0
  0
LINE
  5
    E3
  8
0
  6
CONTINUOUS
 62
    92
 10
258.113209748235
 20
269.44270270297
 30
0.0
 11
256.827137951727
 21
268.156630906463
 31
0.0
  0
ENDBLK
  5
    E4
  8
0
  6
CONTINUOUS
 62
     7
  0
BLOCK
  5
    E5
  8
0
  6
CONTINUOUS
 62
     7
  2
*HATCH2107
 70
    65
 10
0.0
 20
0.0
 30
0.0
  3
*HATCH2107
  0
LINE
  5
    E6
  8
0
  6
CONTINUOUS
 62
    92
 10
233.286011349716
 20
278.556631061435
 30
0.0
 11
232.513210129704
 21
277.783828315544
 31
0.0
  0
LINE
  5
    E7
  8
0
  6
CONTINUOUS
 62
    92
 10
236.113210183349
 20
277.989715159432
 30
0.0
 11
232.513210129704
 21
274.389715105788
 31
0.0
  0
LINE
  5
    E8
  8
0
  6
CONTINUOUS
 62
    92
 10
236.113210183349
 20
274.595601949676
 30
0.0
 11
232.513210129704
 21
270.995601896032
 31
0.0
  0
LINE
  5
    E9
  8
0
  6
CONTINUOUS
 62
    92
 10
236.113210183349
 20
271.201491791678
 30
0.0
 11
233.068348535193
 21
268.156630906463
 31
0.0
  0
ENDBLK
  5
    EA
  8
0
  6
CONTINUOUS
 62
     7
  0
BLOCK
  5
    EB
  8
0
  6
CONTINUOUS
 62
     7
  2
*HATCH2108
 70
    65
 10
0.0
 20
0.0
 30
0.0
  3
*HATCH2108
  0
LINE
  5
    EC
  8
0
  6
CONTINUOUS
 62
    92
 10
253.650687556494
 20
278.556631061435
 30
0.0
 11
251.650687526691
 21
276.556631031632
 31
0.0
  0
LINE
  5
    ED
  8
0
  6
CONTINUOUS
 62
    92
 10
257.04480000331
 20
278.556631061435
 30
0.0
 11
255.044799973508
 21
276.556631031632
 31
0.0
  0
ENDBLK
  5
    EE
  8
0
  6
CONTINUOUS
 62
     7
  0
BLOCK
  5
    EF
  8
0
  6
CONTINUOUS
 62
     7
  2
*HATCH2109
 70
    65
 10
0.0
 20
0.0
 30
0.0
  3
*HATCH2109
  0
LINE
  5
    F0
  8
0
  6
CONTINUOUS
 62
    92
 10
233.633204500642
 20
363.756635382772
 30
0.0
 11
232.513210129704
 21
362.636640248895
 31
0.0
  0
LINE
  5
    F1
  8
0
  6
CONTINUOUS
 62
    92
 10
236.113210183349
 20
362.842530144541
 30
0.0
 11
232.513210129704
 21
359.242530090897
 31
0.0
  0
LINE
  5
    F2
  8
0
  6
CONTINUOUS
 62
    92
 10
236.113210183349
 20
359.448419986543
 30
0.0
 11
232.513210129704
 21
355.848416881141
 31
0.0
  0
LINE
  5
    F3
  8
0
  6
CONTINUOUS
 62
    92
 10
236.113210183349
 20
356.054303725029
 30
0.0
 11
233.415541686119
 21
353.356635227799
 31
0.0
  0
ENDBLK
  5
    F4
  8
0
  6
CONTINUOUS
 62
     7
  0
BLOCK
  5
    F5
  8
0
  6
CONTINUOUS
 62
     7
  2
*HATCH2110
 70
    65
 10
0.0
 20
0.0
 30
0.0
  3
*HATCH2110
  0
LINE
  5
    F6
  8
0
  6
CONTINUOUS
 62
    92
 10
252.386105475883
 20
355.356635257602
 30
0.0
 11
251.313210409846
 21
354.283740954505
 31
0.0
  0
LINE
  5
    F7
  8
0
  6
CONTINUOUS
 62
    92
 10
255.780218685638
 20
355.356635257602
 30
0.0
 11
253.780218655836
 21
353.356635227799
 31
0.0
  0
LINE
  5
    F8
  8
0
  6
CONTINUOUS
 62
    92
 10
258.113209748235
 20
354.295514636321
 30
0.0
 11
257.174330339713
 21
353.356635227799
 31
0.0
  0
ENDBLK
  5
    F9
  8
0
  6
CONTINUOUS
 62
     7
  0
BLOCK
  5
    FA
  8
0
  6
CONTINUOUS
 62
     7
  2
*HATCH2111
 70
    65
 10
0.0
 20
0.0
 30
0.0
  3
*HATCH2111
  0
LINE
  5
    FB
  8
0
  6
CONTINUOUS
 62
    92
 10
253.997881470359
 20
363.756635382772
 30
0.0
 11
251.997880677617
 21
361.756635352969
 31
0.0
  0
LINE
  5
    FC
  8
0
  6
CONTINUOUS
 62
    92
 10
257.391993917175
 20
363.756635382772
 30
0.0
 11
255.391993887373
 21
361.756635352969
 31
0.0
  0
ENDBLK
  5
    FD
  8
0
  6
CONTINUOUS
 62
     7
  0
BLOCK
  5
    FE
  8
0
  6
CONTINUOUS
 62
     7
  2
*HATCH2112
 70
    65
 10
0.0
 20
0.0
 30
0.0
  3
*HATCH2112
  0
LINE
  5
    FF
  8
0
  6
CONTINUOUS
 62
    92
 10
262.021249662426
 20
269.956627881527
 30
0.0
 11
260.621249641564
 21
268.556630912423
 31
0.0
  0
LINE
  5
   100
  8
0
  6
CONTINUOUS
 62
    92
 10
265.415362872182
 20
269.956627881527
 30
0.0
 11
264.01536285132
 21
268.556630912423
 31
0.0
  0
LINE
  5
   101
  8
0
  6
CONTINUOUS
 62
    92
 10
268.809476081938
 20
269.956630933285
 30
0.0
 11
265.713209861484
 21
266.860363186951
 31
0.0
  0
LINE
  5
   102
  8
0
  6
CONTINUOUS
 62
    92
 10
264.009474484533
 20
265.156630861759
 30
0.0
 11
262.809474466652
 21
263.956630843878
 31
0.0
  0
LINE
  5
   103
  8
0
  6
CONTINUOUS
 62
    92
 10
270.513211458888
 20
268.266253100479
 30
0.0
 11
269.523587420704
 21
267.276629062295
 31
0.0
  0
LINE
  5
   104
  8
0
  6
CONTINUOUS
 62
    92
 10
267.683588003637
 20
265.436629645228
 30
0.0
 11
266.203587676408
 21
263.956630843878
 31
0.0
  0
LINE
  5
   105
  8
0
  6
CONTINUOUS
 62
    92
 10
270.513211458888
 20
264.872139890723
 30
0.0
 11
269.597699360285
 21
263.956630843878
 31
0.0
  0
ENDBLK
  5
   106
  8
0
  6
CONTINUOUS
 62
     7
  0
BLOCK
  5
   107
  8
0
  6
CONTINUOUS
 62
     7
  2
*HATCH2113
 70
    65
 10
0.0
 20
0.0
 30
0.0
  3
*HATCH2113
  0
LINE
  5
   108
  8
0
  6
CONTINUOUS
 62
    92
 10
259.975958494254
 20
278.093676342622
 30
0.0
 11
259.75719933572
 21
277.874917184089
 31
0.0
  0
LINE
  5
   109
  8
0
  6
CONTINUOUS
 62
    92
 10
263.433024890983
 20
278.156631055474
 30
0.0
 11
262.033024870121
 21
276.756627982855
 31
0.0
  0
LINE
  5
   10A
  8
0
  6
CONTINUOUS
 62
    92
 10
266.82713657486
 20
278.156631055474
 30
0.0
 11
265.427138079877
 21
276.756627982855
 31
0.0
  0
LINE
  5
   10B
  8
0
  6
CONTINUOUS
 62
    92
 10
270.221249784616
 20
278.156631055474
 30
0.0
 11
268.821251289633
 21
276.756627982855
 31
0.0
  0
ENDBLK
  5
   10C
  8
0
  6
CONTINUOUS
 62
     7
  0
BLOCK
  5
   10D
  8
0
  6
CONTINUOUS
 62
     7
  2
*HATCH2114
 70
    65
 10
0.0
 20
0.0
 30
0.0
  3
*HATCH2114
  0
LINE
  5
   10E
  8
0
  6
CONTINUOUS
 62
    92
 10
236.215542490782
 20
356.156635269523
 30
0.0
 11
236.113210183349
 21
356.054303725029
 31
0.0
  0
LINE
  5
   10F
  8
0
  6
CONTINUOUS
 62
    92
 10
231.415541656317
 20
351.356635197997
 30
0.0
 11
229.415542389454
 21
349.356635168195
 31
0.0
  0
LINE
  5
   110
  8
0
  6
CONTINUOUS
 62
    92
 10
238.113210213151
 20
354.660190545076
 30
0.0
 11
236.113210183349
 21
352.660190515273
 31
0.0
  0
LINE
  5
   111
  8
0
  6
CONTINUOUS
 62
    92
 10
234.809654866073
 20
351.356635197997
 30
0.0
 11
232.809654073331
 21
349.356635168195
 31
0.0
  0
LINE
  5
   112
  8
0
  6
CONTINUOUS
 62
    92
 10
237.801574237438
 20
350.954440978137
 30
0.0
 11
236.512376296474
 21
349.665244181583
 31
0.0
  0
ENDBLK
  5
   113
  8
0
  6
CONTINUOUS
 62
     7
  0
BLOCK
  5
   114
  8
0
  6
CONTINUOUS
 62
     7
  2
*HATCH2115
 70
    65
 10
0.0
 20
0.0
 30
0.0
  3
*HATCH2115
  0
LINE
  5
   115
  8
0
  6
CONTINUOUS
 62
    92
 10
236.627317704437
 20
363.356635376811
 30
0.0
 11
236.113210183349
 21
362.842530144541
 31
0.0
  0
LINE
  5
   116
  8
0
  6
CONTINUOUS
 62
    92
 10
238.113210213151
 20
361.448413912829
 30
0.0
 11
237.621430115491
 21
360.956635341048
 31
0.0
  0
ENDBLK
  5
   117
  8
0
  6
CONTINUOUS
 62
     7
  0
BLOCK
  5
   118
  8
0
  6
CONTINUOUS
 62
     7
  2
*HATCH2116
 70
    65
 10
0.0
 20
0.0
 30
0.0
  3
*HATCH2116
  0
LINE
  5
   119
  8
0
  6
CONTINUOUS
 62
    92
 10
238.113210213151
 20
269.807378611725
 30
0.0
 11
236.86246098797
 21
268.556630912423
 31
0.0
  0
ENDBLK
  5
   11A
  8
0
  6
CONTINUOUS
 62
     7
  0
BLOCK
  5
   11B
  8
0
  6
CONTINUOUS
 62
     7
  2
*HATCH2117
 70
    65
 10
0.0
 20
0.0
 30
0.0
  3
*HATCH2117
  0
LINE
  5
   11C
  8
0
  6
CONTINUOUS
 62
    92
 10
240.680124046872
 20
282.55662959516
 30
0.0
 11
238.591574020328
 21
280.468079759351
 31
0.0
  0
LINE
  5
   11D
  8
0
  6
CONTINUOUS
 62
    92
 10
238.222521509335
 20
280.099029155707
 30
0.0
 11
236.113210183349
 21
277.989715159432
 31
0.0
  0
LINE
  5
   11E
  8
0
  6
CONTINUOUS
 62
    92
 10
244.074236755949
 20
282.55662959516
 30
0.0
 11
242.074236654621
 21
280.556629565358
 31
0.0
  0
LINE
  5
   11F
  8
0
  6
CONTINUOUS
 62
    92
 10
238.113210213151
 20
276.595605031237
 30
0.0
 11
237.474237730485
 21
275.956631022692
 31
0.0
  0
LINE
  5
   120
  8
0
  6
CONTINUOUS
 62
    92
 10
247.46834951271
 20
282.55662959516
 30
0.0
 11
245.468349292172
 21
280.556629565358
 31
0.0
  0
LINE
  5
   121
  8
0
  6
CONTINUOUS
 62
    92
 10
250.862461959526
 20
282.55662959516
 30
0.0
 11
248.862461929724
 21
280.556629565358
 31
0.0
  0
LINE
  5
   122
  8
0
  6
CONTINUOUS
 62
    92
 10
254.256574406343
 20
282.55662959516
 30
0.0
 11
252.25657437654
 21
280.556629565358
 31
0.0
  0
LINE
  5
   123
  8
0
  6
CONTINUOUS
 62
    92
 10
257.650686853159
 20
282.55662959516
 30
0.0
 11
255.650686823357
 21
280.556629565358
 31
0.0
  0
LINE
  5
   124
  8
0
  6
CONTINUOUS
 62
    92
 10
261.044800062915
 20
282.55662959516
 30
0.0
 11
259.044800033113
 21
280.556629565358
 31
0.0
  0
LINE
  5
   125
  8
0
  6
CONTINUOUS
 62
    92
 10
264.113211363521
 20
282.23092768601
 30
0.0
 11
262.438913242869
 21
280.556629565358
 31
0.0
  0
ENDBLK
  5
   126
  8
0
  6
CONTINUOUS
 62
     7
  0
BLOCK
  5
   127
  8
0
  6
CONTINUOUS
 62
     7
  2
*HATCH2118
 70
    65
 10
0.0
 20
0.0
 30
0.0
  3
*HATCH2118
  0
LINE
  5
   128
  8
0
  6
CONTINUOUS
 62
    92
 10
262.368443576291
 20
355.156635254622
 30
0.0
 11
260.968443555429
 21
353.75663523376
 31
0.0
  0
LINE
  5
   129
  8
0
  6
CONTINUOUS
 62
    92
 10
265.762556786047
 20
355.156635254622
 30
0.0
 11
263.713209831681
 21
353.107288300256
 31
0.0
  0
LINE
  5
   12A
  8
0
  6
CONTINUOUS
 62
    92
 10
269.156669995803
 20
355.156635254622
 30
0.0
 11
263.713209831681
 21
349.7131750905
 31
0.0
  0
LINE
  5
   12B
  8
0
  6
CONTINUOUS
 62
    92
 10
270.513211458888
 20
353.11906503383
 30
0.0
 11
268.550781620075
 21
351.156635195017
 31
0.0
  0
LINE
  5
   12C
  8
0
  6
CONTINUOUS
 62
    92
 10
268.113211423125
 20
350.719064998067
 30
0.0
 11
263.95078155153
 21
346.556635126472
 31
0.0
  0
LINE
  5
   12D
  8
0
  6
CONTINUOUS
 62
    92
 10
268.113211423125
 20
347.324951788311
 30
0.0
 11
267.344894761286
 21
346.556635126472
 31
0.0
  0
ENDBLK
  5
   12E
  8
0
  6
CONTINUOUS
 62
     7
  0
BLOCK
  5
   12F
  8
0
  6
CONTINUOUS
 62
     7
  2
*HATCH2119
 70
    65
 10
0.0
 20
0.0
 30
0.0
  3
*HATCH2119
  0
LINE
  5
   130
  8
0
  6
CONTINUOUS
 62
    92
 10
261.59199397976
 20
367.956635445356
 30
0.0
 11
260.391993961879
 21
366.756635427475
 31
0.0
  0
LINE
  5
   131
  8
0
  6
CONTINUOUS
 62
    92
 10
264.986107189516
 20
367.956635445356
 30
0.0
 11
263.786107171635
 21
366.756635427475
 31
0.0
  0
LINE
  5
   132
  8
0
  6
CONTINUOUS
 62
    92
 10
260.386107120971
 20
363.356635376811
 30
0.0
 11
259.713209772077
 21
362.683741079675
 31
0.0
  0
LINE
  5
   133
  8
0
  6
CONTINUOUS
 62
    92
 10
268.380220399272
 20
367.956635445356
 30
0.0
 11
265.713209861484
 21
365.289624907568
 31
0.0
  0
LINE
  5
   134
  8
0
  6
CONTINUOUS
 62
    92
 10
263.780218804848
 20
363.356635376811
 30
0.0
 11
262.380218783986
 21
361.956635355949
 31
0.0
  0
LINE
  5
   135
  8
0
  6
CONTINUOUS
 62
    92
 10
270.513211458888
 20
366.695514821095
 30
0.0
 11
270.294333281798
 21
366.476636644006
 31
0.0
  0
LINE
  5
   136
  8
0
  6
CONTINUOUS
 62
    92
 10
268.454332338853
 20
364.636634175181
 30
0.0
 11
265.774331993742
 21
361.956635355949
 31
0.0
  0
LINE
  5
   137
  8
0
  6
CONTINUOUS
 62
    92
 10
270.513211458888
 20
363.301398559582
 30
0.0
 11
269.168445203498
 21
361.956635355949
 31
0.0
  0
ENDBLK
  5
   138
  8
0
  6
CONTINUOUS
 62
     7
  0
BLOCK
  5
   139
  8
0
  6
CONTINUOUS
 62
     7
  2
*HATCH2120
 70
    65
 10
0.0
 20
0.0
 30
0.0
  3
*HATCH2120
  0
LINE
  5
   13A
  8
0
  6
CONTINUOUS
 62
    92
 10
225.827316017626
 20
352.556635215879
 30
0.0
 11
224.113209241595
 21
350.842529965727
 31
0.0
  0
LINE
  5
   13B
  8
0
  6
CONTINUOUS
 62
    92
 10
229.221429227382
 20
352.556635215879
 30
0.0
 11
228.0214292095
 21
351.356635197997
 31
0.0
  0
LINE
  5
   13C
  8
0
  6
CONTINUOUS
 62
    92
 10
226.021429179698
 20
349.356635168195
 30
0.0
 11
224.113209241595
 21
347.448416755971
 31
0.0
  0
LINE
  5
   13D
  8
0
  6
CONTINUOUS
 62
    92
 10
232.615541674198
 20
352.556635215879
 30
0.0
 11
231.415541656317
 21
351.356635197997
 31
0.0
  0
LINE
  5
   13E
  8
0
  6
CONTINUOUS
 62
    92
 10
229.415542389454
 20
349.356635168195
 30
0.0
 11
227.815540839733
 21
347.756635144353
 31
0.0
  0
LINE
  5
   13F
  8
0
  6
CONTINUOUS
 62
    92
 10
235.313210171428
 20
351.860190503352
 30
0.0
 11
234.809654866073
 21
351.356635197997
 31
0.0
  0
LINE
  5
   140
  8
0
  6
CONTINUOUS
 62
    92
 10
231.313210111823
 20
347.860190443748
 30
0.0
 11
231.209654049489
 21
347.756635144353
 31
0.0
  0
ENDBLK
  5
   141
  8
0
  6
CONTINUOUS
 62
     7
  0
BLOCK
  5
   142
  8
0
  6
CONTINUOUS
 62
     7
  2
*HATCH2121
 70
    65
 10
0.0
 20
0.0
 30
0.0
  3
*HATCH2121
  0
LINE
  5
   143
  8
0
  6
CONTINUOUS
 62
    92
 10
258.197880770004
 20
367.956635445356
 30
0.0
 11
255.713210475411
 21
365.471967439582
 31
0.0
  0
LINE
  5
   144
  8
0
  6
CONTINUOUS
 62
    92
 10
259.713209772077
 20
366.077851237673
 30
0.0
 11
258.591993935057
 21
364.956635400653
 31
0.0
  0
LINE
  5
   145
  8
0
  6
CONTINUOUS
 62
    92
 10
258.513209754195
 20
364.877851219791
 30
0.0
 11
257.391993917175
 21
363.756635382772
 31
0.0
  0
ENDBLK
  5
   146
  8
0
  6
CONTINUOUS
 62
     7
  0
BLOCK
  5
   147
  8
0
  6
CONTINUOUS
 62
     7
  2
*HATCH2122
 70
    65
 10
0.0
 20
0.0
 30
0.0
  3
*HATCH2122
  0
LINE
  5
   148
  8
0
  6
CONTINUOUS
 62
    92
 10
258.627137978549
 20
269.956630933285
 30
0.0
 11
258.513209754195
 21
269.842702708931
 31
0.0
  0
LINE
  5
   149
  8
0
  6
CONTINUOUS
 62
    92
 10
260.421249638584
 20
268.356630909443
 30
0.0
 11
258.513209754195
 21
266.448589499175
 31
0.0
  0
LINE
  5
   14A
  8
0
  6
CONTINUOUS
 62
    92
 10
260.913209789958
 20
265.454476325182
 30
0.0
 11
259.415362782775
 21
263.956630843878
 31
0.0
  0
ENDBLK
  5
   14B
  8
0
  6
CONTINUOUS
 62
     7
  0
BLOCK
  5
   14C
  8
0
  6
CONTINUOUS
 62
     7
  2
*HATCH2123
 70
    65
 10
0.0
 20
0.0
 30
0.0
  3
*HATCH2123
  0
LINE
  5
   14D
  8
0
  6
CONTINUOUS
 62
    92
 10
238.680123826335
 20
280.556629565358
 30
0.0
 11
238.11321135756
 21
279.989718240993
 31
0.0
  0
LINE
  5
   14E
  8
0
  6
CONTINUOUS
 62
    92
 10
242.074236654621
 20
280.556629565358
 30
0.0
 11
240.874236446005
 21
279.356631073356
 31
0.0
  0
LINE
  5
   14F
  8
0
  6
CONTINUOUS
 62
    92
 10
245.468349482907
 20
280.556629565358
 30
0.0
 11
244.268349274291
 21
279.356631073356
 31
0.0
  0
LINE
  5
   150
  8
0
  6
CONTINUOUS
 62
    92
 10
248.862462311194
 20
280.556629565358
 30
0.0
 11
247.662461911842
 21
279.356631073356
 31
0.0
  0
LINE
  5
   151
  8
0
  6
CONTINUOUS
 62
    92
 10
252.25657513948
 20
280.556629565358
 30
0.0
 11
251.056575121598
 21
279.356631073356
 31
0.0
  0
LINE
  5
   152
  8
0
  6
CONTINUOUS
 62
    92
 10
255.650688349236
 20
280.556629565358
 30
0.0
 11
254.450688331354
 21
279.356631073356
 31
0.0
  0
LINE
  5
   153
  8
0
  6
CONTINUOUS
 62
    92
 10
259.044801558992
 20
280.556629565358
 30
0.0
 11
257.84480154111
 21
279.356631073356
 31
0.0
  0
LINE
  5
   154
  8
0
  6
CONTINUOUS
 62
    92
 10
262.438913242869
 20
280.556629565358
 30
0.0
 11
260.238911684207
 21
278.356628006697
 31
0.0
  0
LINE
  5
   155
  8
0
  6
CONTINUOUS
 62
    92
 10
259.713211297955
 20
277.830929146324
 30
0.0
 11
258.638911660365
 21
276.756627982855
 31
0.0
  0
ENDBLK
  5
   156
  8
0
  6
CONTINUOUS
 62
     7
  0
BLOCK
  5
   157
  8
0
  6
CONTINUOUS
 62
     7
  2
*HATCH2124
 70
    65
 10
0.0
 20
0.0
 30
0.0
  3
*HATCH2124
  0
LINE
  5
   158
  8
0
  6
CONTINUOUS
 62
    52
 10
238.11321135756
 20
267.435393713098
 30
0.0
 11
238.191974557586
 21
267.356630894542
 31
0.0
  0
LINE
  5
   159
  8
0
  6
CONTINUOUS
 62
    52
 10
238.11321135756
 20
269.132451843855
 30
0.0
 11
239.889029636585
 21
267.356630894542
 31
0.0
  0
LINE
  5
   15A
  8
0
  6
CONTINUOUS
 62
    52
 10
238.11321135756
 20
270.829509974612
 30
0.0
 11
241.586084906319
 21
267.356630894542
 31
0.0
  0
LINE
  5
   15B
  8
0
  6
CONTINUOUS
 62
    52
 10
238.11321135756
 20
272.526568105369
 30
0.0
 11
243.283140176053
 21
267.356630894542
 31
0.0
  0
LINE
  5
   15C
  8
0
  6
CONTINUOUS
 62
    52
 10
238.11321135756
 20
274.223626236126
 30
0.0
 11
244.980195445787
 21
267.356630894542
 31
0.0
  0
LINE
  5
   15D
  8
0
  6
CONTINUOUS
 62
    52
 10
238.11321135756
 20
275.920684366883
 30
0.0
 11
246.677250715521
 21
267.356630894542
 31
0.0
  0
LINE
  5
   15E
  8
0
  6
CONTINUOUS
 62
    52
 10
238.11321135756
 20
277.617736394124
 30
0.0
 11
247.310970359974
 21
268.419967092027
 31
0.0
  0
LINE
  5
   15F
  8
0
  6
CONTINUOUS
 62
    52
 10
247.574306927008
 20
268.156630906463
 30
0.0
 11
248.37430617599
 21
267.356630894542
 31
0.0
  0
LINE
  5
   160
  8
0
  6
CONTINUOUS
 62
    52
 10
238.471375577985
 20
278.956631067395
 30
0.0
 11
247.671364270984
 21
269.756630930305
 31
0.0
  0
LINE
  5
   161
  8
0
  6
CONTINUOUS
 62
    52
 10
240.168431038454
 20
278.956631067395
 30
0.0
 11
248.910970383816
 21
270.214080277941
 31
0.0
  0
LINE
  5
   162
  8
0
  6
CONTINUOUS
 62
    52
 10
241.865486308188
 20
278.956631067395
 30
0.0
 11
248.910970383816
 21
271.911138408698
 31
0.0
  0
LINE
  5
   163
  8
0
  6
CONTINUOUS
 62
    52
 10
243.562541577922
 20
278.956631067395
 30
0.0
 11
248.910970383816
 21
273.608196539455
 31
0.0
  0
LINE
  5
   164
  8
0
  6
CONTINUOUS
 62
    52
 10
245.259596847656
 20
278.956631067395
 30
0.0
 11
248.910970383816
 21
275.305254670212
 31
0.0
  0
LINE
  5
   165
  8
0
  6
CONTINUOUS
 62
    52
 10
246.95665173592
 20
278.956631067395
 30
0.0
 11
247.35665136041
 21
278.556631061435
 31
0.0
  0
LINE
  5
   166
  8
0
  6
CONTINUOUS
 62
    52
 10
248.653707196388
 20
278.956631067395
 30
0.0
 11
248.910970383816
 21
278.69936482821
 31
0.0
  0
ENDBLK
  5
   167
  8
0
  6
CONTINUOUS
 62
     7
  0
BLOCK
  5
   168
  8
0
  6
CONTINUOUS
 62
     7
  2
*HATCH2125
 70
    65
 10
0.0
 20
0.0
 30
0.0
  3
*HATCH2125
  0
LINE
  5
   169
  8
0
  6
CONTINUOUS
 62
    52
 10
246.69700607928
 20
252.935332461874
 30
0.0
 11
244.31575275362
 21
250.554076322875
 31
0.0
  0
LINE
  5
   16A
  8
0
  6
CONTINUOUS
 62
    52
 10
248.092744892497
 20
252.634014098009
 30
0.0
 11
245.411290003297
 21
249.952556538521
 31
0.0
  0
LINE
  5
   16B
  8
0
  6
CONTINUOUS
 62
    52
 10
249.141946873464
 20
251.98615642234
 30
0.0
 11
246.933716249738
 21
249.777928850372
 31
0.0
  0
ENDBLK
  5
   16C
  8
0
  6
CONTINUOUS
 62
     7
  0
BLOCK
  5
   16D
  8
0
  6
CONTINUOUS
 62
     7
  2
*UDIM2408
 70
    65
 10
0.0
 20
0.0
 30
0.0
  3
*UDIM2408
  0
LINE
  5
   16E
  8
0
  6
CONTINUOUS
 62
     7
 10
310.00397256659
 20
315.956634670496
 30
0.0
 11
329.330950749968
 21
315.956634670496
 31
0.0
  0
LINE
  5
   16F
  8
0
  6
CONTINUOUS
 62
     7
 10
274.953211586442
 20
358.556635305291
 30
0.0
 11
329.330950749968
 21
358.556635305291
 31
0.0
  0
LINE
  5
   170
  8
0
  6
CONTINUOUS
 62
     7
 10
327.330950749968
 20
315.956634670496
 30
0.0
 11
327.330950749968
 21
358.556635305291
 31
0.0
  0
LINE
  5
   171
  8
0
  6
CONTINUOUS
 62
     7
 10
326.554493593549
 20
318.854412143707
 30
0.0
 11
327.330950749968
 21
315.956634670496
 31
0.0
  0
LINE
  5
   172
  8
0
  6
CONTINUOUS
 62
     7
 10
327.330950749968
 20
315.956634670496
 30
0.0
 11
328.107407906386
 21
318.854412143707
 31
0.0
  0
LINE
  5
   173
  8
0
  6
CONTINUOUS
 62
     7
 10
328.107407906386
 20
355.65885783208
 30
0.0
 11
327.330950749968
 21
358.556635305291
 31
0.0
  0
LINE
  5
   174
  8
0
  6
CONTINUOUS
 62
     7
 10
327.330950749968
 20
358.556635305291
 30
0.0
 11
326.554493593549
 21
355.65885783208
 31
0.0
  0
TEXT
  5
   175
  8
0
  6
CONTINUOUS
 62
     7
 10
326.330950749976
 20
330.556635101045
 30
0.0
 40
2.99999994933605
  1
53,25
 50
90.0
 41
0.933333333333333
 72
     1
 11
324.8309507753
 21
337.256634987893
 31
0.0
 73
     2
  0
ENDBLK
  5
   176
  8
0
  6
CONTINUOUS
 62
     7
  0
BLOCK
  5
   177
  8
0
  6
CONTINUOUS
 62
     7
  2
*UDIM2409
 70
    65
 10
0.0
 20
0.0
 30
0.0
  3
*UDIM2409
  0
LINE
  5
   178
  8
0
  6
CONTINUOUS
 62
     7
 10
274.953211586442
 20
273.356629699025
 30
0.0
 11
336.717541802502
 21
273.356629699025
 31
0.0
  0
LINE
  5
   179
  8
0
  6
CONTINUOUS
 62
     7
 10
274.953211586442
 20
358.556635305291
 30
0.0
 11
336.717541802502
 21
358.556635305291
 31
0.0
  0
LINE
  5
   17A
  8
0
  6
CONTINUOUS
 62
     7
 10
334.717541802502
 20
273.356629699025
 30
0.0
 11
334.717541802502
 21
358.556635305291
 31
0.0
  0
LINE
  5
   17B
  8
0
  6
CONTINUOUS
 62
     7
 10
333.941084646084
 20
276.254407172236
 30
0.0
 11
334.717541802502
 21
273.356629699025
 31
0.0
  0
LINE
  5
   17C
  8
0
  6
CONTINUOUS
 62
     7
 10
334.717541802502
 20
273.356629699025
 30
0.0
 11
335.493998958921
 21
276.254407172236
 31
0.0
  0
LINE
  5
   17D
  8
0
  6
CONTINUOUS
 62
     7
 10
335.493998958921
 20
355.65885783208
 30
0.0
 11
334.717541802502
 21
358.556635305291
 31
0.0
  0
LINE
  5
   17E
  8
0
  6
CONTINUOUS
 62
     7
 10
334.717541802502
 20
358.556635305291
 30
0.0
 11
333.941084646084
 21
355.65885783208
 31
0.0
  0
TEXT
  5
   17F
  8
0
  6
CONTINUOUS
 62
     7
 10
333.717541802511
 20
309.256632615309
 30
0.0
 40
2.99999994933605
  1
106,5
 50
90.0
 41
0.933333333333333
 72
     1
 11
332.217541827834
 21
315.956632502158
 31
0.0
 73
     2
  0
ENDBLK
  5
   180
  8
0
  6
CONTINUOUS
 62
     7
  0
BLOCK
  5
   181
  8
0
  6
CONTINUOUS
 62
     7
  2
*UDIM2410
 70
    65
 10
0.0
 20
0.0
 30
0.0
  3
*UDIM2410
  0
LINE
  5
   182
  8
0
  6
CONTINUOUS
 62
     7
 10
248.713210175494
 20
353.356635227799
 30
0.0
 11
316.207466946735
 21
353.356635227799
 31
0.0
  0
LINE
  5
   183
  8
0
  6
CONTINUOUS
 62
     7
 10
248.713210175494
 20
363.756635382771
 30
0.0
 11
316.207466946735
 21
363.756635382771
 31
0.0
  0
LINE
  5
   184
  8
0
  6
CONTINUOUS
 62
     7
 10
314.207466946735
 20
348.356635227799
 30
0.0
 11
314.207466946735
 21
368.756635382771
 31
0.0
  0
LINE
  5
   185
  8
0
  6
CONTINUOUS
 62
     7
 10
314.983924103153
 20
350.458857754589
 30
0.0
 11
314.207466946735
 21
353.356635227799
 31
0.0
  0
LINE
  5
   186
  8
0
  6
CONTINUOUS
 62
     7
 10
314.207466946735
 20
353.356635227799
 30
0.0
 11
313.431009790316
 21
350.458857754589
 31
0.0
  0
LINE
  5
   187
  8
0
  6
CONTINUOUS
 62
     7
 10
313.431009790316
 20
366.654412855982
 30
0.0
 11
314.207466946735
 21
363.756635382771
 31
0.0
  0
LINE
  5
   188
  8
0
  6
CONTINUOUS
 62
     7
 10
314.207466946735
 20
363.756635382771
 30
0.0
 11
314.983924103153
 21
366.654412855982
 31
0.0
  0
TEXT
  5
   189
  8
0
  6
CONTINUOUS
 62
     7
 10
313.207466946738
 20
356.056635347507
 30
0.0
 40
2.99999994933605
  1
13
 50
90.0
 41
0.933333333333333
 72
     1
 11
311.707466972067
 21
358.556635305285
 31
0.0
 73
     2
  0
TEXT
  5
   18A
  8
0
  6
CONTINUOUS
 62
     7
 10
317.207466896076
 20
354.65663537115
 30
0.0
 40
2.99999994933605
  1
= =
 50
90.0
 41
0.933333333333333
 72
     1
 11
315.707466921403
 21
358.556635305285
 31
0.0
 73
     2
  0
ENDBLK
  5
   18B
  8
0
  6
CONTINUOUS
 62
     7
  0
BLOCK
  5
   18C
  8
0
  6
CONTINUOUS
 62
     7
  2
*UDIM2411
 70
    65
 10
0.0
 20
0.0
 30
0.0
  3
*UDIM2411
  0
LINE
  5
   18D
  8
0
  6
CONTINUOUS
 62
     7
 10
224.113210767508
 20
258.555996944134
 30
0.0
 11
224.113210767508
 21
238.144204234128
 31
0.0
  0
LINE
  5
   18E
  8
0
  6
CONTINUOUS
 62
     7
 10
286.910967717628
 20
270.799366326131
 30
0.0
 11
286.910967717628
 21
238.144204234128
 31
0.0
  0
LINE
  5
   18F
  8
0
  6
CONTINUOUS
 62
     7
 10
224.113210767508
 20
240.144204234128
 30
0.0
 11
286.910967717628
 21
240.144204234128
 31
0.0
  0
LINE
  5
   190
  8
0
  6
CONTINUOUS
 62
     7
 10
227.010988240718
 20
240.920661390547
 30
0.0
 11
224.113210767508
 21
240.144204234128
 31
0.0
  0
LINE
  5
   191
  8
0
  6
CONTINUOUS
 62
     7
 10
224.113210767508
 20
240.144204234128
 30
0.0
 11
227.010988240718
 21
239.36774707771
 31
0.0
  0
LINE
  5
   192
  8
0
  6
CONTINUOUS
 62
     7
 10
284.013190244417
 20
239.36774707771
 30
0.0
 11
286.910967717628
 21
240.144204234128
 31
0.0
  0
LINE
  5
   193
  8
0
  6
CONTINUOUS
 62
     7
 10
286.910967717628
 20
240.144204234128
 30
0.0
 11
284.013190244417
 21
240.920661390547
 31
0.0
  0
TEXT
  5
   194
  8
0
  6
CONTINUOUS
 62
     7
 10
261.741113875971
 20
241.144204234128
 30
0.0
 40
2.99999994933605
  1
A
 41
0.933333333333333
 72
     1
 11
262.841113857394
 21
242.644204208796
 31
0.0
 73
     2
  0
ENDBLK
  5
   195
  8
0
  6
CONTINUOUS
 62
     7
  0
BLOCK
  5
   196
  8
0
  6
CONTINUOUS
 62
     7
  2
*UDIM2412
 70
    65
 10
0.0
 20
0.0
 30
0.0
  3
*UDIM2412
  0
LINE
  5
   197
  8
0
  6
CONTINUOUS
 62
     7
 10
285.113211661544
 20
293.55663433671
 30
0.0
 11
322.559908951811
 21
293.55663433671
 31
0.0
  0
LINE
  5
   198
  8
0
  6
CONTINUOUS
 62
     7
 10
285.113211661544
 20
329.556634873152
 30
0.0
 11
322.559908951811
 21
329.556634873152
 31
0.0
  0
LINE
  5
   199
  8
0
  6
CONTINUOUS
 62
     7
 10
320.559908951811
 20
293.55663433671
 30
0.0
 11
320.559908951811
 21
329.556634873152
 31
0.0
  0
LINE
  5
   19A
  8
0
  6
CONTINUOUS
 62
     7
 10
319.783451795392
 20
296.454411809921
 30
0.0
 11
320.559908951811
 21
293.55663433671
 31
0.0
  0
LINE
  5
   19B
  8
0
  6
CONTINUOUS
 62
     7
 10
320.559908951811
 20
293.55663433671
 30
0.0
 11
321.336366108229
 21
296.454411809921
 31
0.0
  0
LINE
  5
   19C
  8
0
  6
CONTINUOUS
 62
     7
 10
321.336366108229
 20
326.658857399941
 30
0.0
 11
320.559908951811
 21
329.556634873152
 31
0.0
  0
LINE
  5
   19D
  8
0
  6
CONTINUOUS
 62
     7
 10
320.559908951811
 20
329.556634873152
 30
0.0
 11
319.783451795392
 21
326.658857399941
 31
0.0
  0
TEXT
  5
   19E
  8
0
  6
CONTINUOUS
 62
     7
 10
319.559908951814
 20
309.056634647153
 30
0.0
 40
2.99999994933605
  1
45
 50
90.0
 41
0.933333333333333
 72
     1
 11
318.059908977143
 21
311.556634604931
 31
0.0
 73
     2
  0
ENDBLK
  5
   19F
  8
0
  6
CONTINUOUS
 62
     7
  0
BLOCK
  5
   1A0
  8
0
  6
CONTINUOUS
 62
     7
  2
*UDIM2413
 70
    65
 10
0.0
 20
0.0
 30
0.0
  3
*UDIM2413
  0
LINE
  5
   1A1
  8
0
  6
CONTINUOUS
 62
     7
 10
125.000228524208
 20
359.556635305291
 30
0.0
 11
125.000228524208
 21
387.619231580939
 31
0.0
  0
LINE
  5
   1A2
  8
0
  6
CONTINUOUS
 62
     7
 10
149.000228881836
 20
359.556635305291
 30
0.0
 11
149.000228881836
 21
387.619231580939
 31
0.0
  0
LINE
  5
   1A3
  8
0
  6
CONTINUOUS
 62
     7
 10
125.000228524208
 20
385.619231580939
 30
0.0
 11
149.000228881836
 21
385.619231580939
 31
0.0
  0
LINE
  5
   1A4
  8
0
  6
CONTINUOUS
 62
     7
 10
127.898005997419
 20
386.395688737357
 30
0.0
 11
125.000228524208
 21
385.619231580939
 31
0.0
  0
LINE
  5
   1A5
  8
0
  6
CONTINUOUS
 62
     7
 10
125.000228524208
 20
385.619231580939
 30
0.0
 11
127.898005997419
 21
384.84277442452
 31
0.0
  0
LINE
  5
   1A6
  8
0
  6
CONTINUOUS
 62
     7
 10
146.102451408625
 20
384.84277442452
 30
0.0
 11
149.000228881836
 21
385.619231580939
 31
0.0
  0
LINE
  5
   1A7
  8
0
  6
CONTINUOUS
 62
     7
 10
149.000228881836
 20
385.619231580939
 30
0.0
 11
146.102451408625
 21
386.395688737357
 31
0.0
  0
TEXT
  5
   1A8
  8
0
  6
CONTINUOUS
 62
     7
 10
134.500228745242
 20
386.619231580939
 30
0.0
 40
2.99999994933605
  1
30
 41
0.933333333333333
 72
     1
 11
137.000228703022
 21
388.119231555607
 31
0.0
 73
     2
  0
ENDBLK
  5
   1A9
  8
0
  6
CONTINUOUS
 62
     7
  0
BLOCK
  5
   1AA
  8
0
  6
CONTINUOUS
 62
     7
  2
*UDIM2414
 70
    65
 10
0.0
 20
0.0
 30
0.0
  3
*UDIM2414
  0
LINE
  5
   1AB
  8
0
  6
CONTINUOUS
 62
     7
 10
118.520228427653
 20
330.556634873152
 30
0.0
 11
118.520228427653
 21
343.761230200948
 31
0.0
  0
LINE
  5
   1AC
  8
0
  6
CONTINUOUS
 62
     7
 10
179.480229336023
 20
330.556634873152
 30
0.0
 11
179.480229336023
 21
343.761230200948
 31
0.0
  0
LINE
  5
   1AD
  8
0
  6
CONTINUOUS
 62
     7
 10
118.520228427653
 20
341.761230200948
 30
0.0
 11
179.480229336023
 21
341.761230200948
 31
0.0
  0
LINE
  5
   1AE
  8
0
  6
CONTINUOUS
 62
     7
 10
121.418005900864
 20
342.537687357367
 30
0.0
 11
118.520228427653
 21
341.761230200948
 31
0.0
  0
LINE
  5
   1AF
  8
0
  6
CONTINUOUS
 62
     7
 10
118.520228427653
 20
341.761230200948
 30
0.0
 11
121.418005900864
 21
340.98477304453
 31
0.0
  0
LINE
  5
   1B0
  8
0
  6
CONTINUOUS
 62
     7
 10
176.582451862813
 20
340.98477304453
 30
0.0
 11
179.480229336023
 21
341.761230200948
 31
0.0
  0
LINE
  5
   1B1
  8
0
  6
CONTINUOUS
 62
     7
 10
179.480229336023
 20
341.761230200948
 30
0.0
 11
176.582451862813
 21
342.537687357367
 31
0.0
  0
TEXT
  5
   1B2
  8
0
  6
CONTINUOUS
 62
     7
 10
143.700228971345
 20
342.761230200948
 30
0.0
 40
2.99999994933605
  1
76,2
 41
0.933333333333333
 72
     1
 11
149.000228881838
 21
344.261230175616
 31
0.0
 73
     2
  0
TEXT
  5
   1B3
  8
0
  6
CONTINUOUS
 62
     7
 10
145.100228947701
 20
338.761230251612
 30
0.0
 40
2.99999994933605
  1
= =
 41
0.933333333333333
 72
     1
 11
149.000228881838
 21
340.26123022628
 31
0.0
 73
     2
  0
ENDBLK
  5
   1B4
  8
0
  6
CONTINUOUS
 62
     7
  0
BLOCK
  5
   1B5
  8
0
  6
CONTINUOUS
 62
     7
  2
*HATCH2126
 70
    65
 10
0.0
 20
0.0
 30
0.0
  3
*HATCH2126
  0
LINE
  5
   1B6
  8
0
  6
CONTINUOUS
 62
    52
 10
89.9602316641808
 20
354.196634629965
 30
0.0
 11
89.9602255606651
 21
277.716634711027
 31
0.0
  0
LINE
  5
   1B7
  8
0
  6
CONTINUOUS
 62
    52
 10
91.4002341270448
 20
354.196634629965
 30
0.0
 11
91.4002280235291
 21
277.716634711027
 31
0.0
  0
LINE
  5
   1B8
  8
0
  6
CONTINUOUS
 62
    52
 10
92.8402365899087
 20
354.196634629965
 30
0.0
 11
92.840230486393
 21
277.716634711027
 31
0.0
  0
LINE
  5
   1B9
  8
0
  6
CONTINUOUS
 62
    52
 10
94.2802390527727
 20
354.196634629965
 30
0.0
 11
94.280232949257
 21
277.716634711027
 31
0.0
  0
LINE
  5
   1BA
  8
0
  6
CONTINUOUS
 62
    52
 10
95.7202415156367
 20
354.196634629965
 30
0.0
 11
95.7202354121209
 21
277.716634711027
 31
0.0
  0
LINE
  5
   1BB
  8
0
  6
CONTINUOUS
 62
    52
 10
97.1602439785006
 20
354.196634629965
 30
0.0
 11
97.1602378749849
 21
277.716634711027
 31
0.0
  0
LINE
  5
   1BC
  8
0
  6
CONTINUOUS
 62
    52
 10
98.6002433896067
 20
354.196634629965
 30
0.0
 11
98.600237286091
 21
277.716634711027
 31
0.0
  0
LINE
  5
   1BD
  8
0
  6
CONTINUOUS
 62
    52
 10
100.040242800713
 20
354.196634629965
 30
0.0
 11
100.040236697197
 21
277.716634711027
 31
0.0
  0
LINE
  5
   1BE
  8
0
  6
CONTINUOUS
 62
    52
 10
101.480242211819
 20
354.196634629965
 30
0.0
 11
101.480236108303
 21
277.716634711027
 31
0.0
  0
LINE
  5
   1BF
  8
0
  6
CONTINUOUS
 62
    52
 10
102.920241622925
 20
354.196634629965
 30
0.0
 11
102.920235519409
 21
277.716634711027
 31
0.0
  0
LINE
  5
   1C0
  8
0
  6
CONTINUOUS
 62
    52
 10
104.360241034031
 20
354.196634629965
 30
0.0
 11
104.360234930515
 21
277.716634711027
 31
0.0
  0
LINE
  5
   1C1
  8
0
  6
CONTINUOUS
 62
    52
 10
105.800240445137
 20
354.196634629965
 30
0.0
 11
105.800234341622
 21
277.716634711027
 31
0.0
  0
LINE
  5
   1C2
  8
0
  6
CONTINUOUS
 62
    52
 10
107.240239856243
 20
354.196634629965
 30
0.0
 11
107.240233752728
 21
277.716634711027
 31
0.0
  0
LINE
  5
   1C3
  8
0
  6
CONTINUOUS
 62
    52
 10
108.680239267349
 20
354.196634629965
 30
0.0
 11
108.680233163834
 21
277.716634711027
 31
0.0
  0
LINE
  5
   1C4
  8
0
  6
CONTINUOUS
 62
    52
 10
110.120238678456
 20
354.196634629965
 30
0.0
 11
110.12023257494
 21
277.716634711027
 31
0.0
  0
LINE
  5
   1C5
  8
0
  6
CONTINUOUS
 62
    52
 10
111.560238089562
 20
354.196634629965
 30
0.0
 11
111.560231986046
 21
277.716634711027
 31
0.0
  0
LINE
  5
   1C6
  8
0
  6
CONTINUOUS
 62
    52
 10
113.000237500668
 20
354.196634629965
 30
0.0
 11
113.000231397152
 21
277.716634711027
 31
0.0
  0
LINE
  5
   1C7
  8
0
  6
CONTINUOUS
 62
    52
 10
114.440236911774
 20
354.196634629965
 30
0.0
 11
114.440230808258
 21
277.716634711027
 31
0.0
  0
LINE
  5
   1C8
  8
0
  6
CONTINUOUS
 62
    52
 10
115.88023632288
 20
354.196634629965
 30
0.0
 11
115.880230219364
 21
277.716634711027
 31
0.0
  0
LINE
  5
   1C9
  8
0
  6
CONTINUOUS
 62
    52
 10
117.320235733986
 20
354.196634629965
 30
0.0
 11
117.32022963047
 21
277.716634711027
 31
0.0
  0
ENDBLK
  5
   1CA
  8
0
  6
CONTINUOUS
 62
     7
  0
BLOCK
  5
   1CB
  8
0
  6
CONTINUOUS
 62
     7
  2
*HATCH2127
 70
    65
 10
0.0
 20
0.0
 30
0.0
  3
*HATCH2127
  0
LINE
  5
   1CC
  8
0
  6
CONTINUOUS
 62
    52
 10
180.680234236717
 20
354.196634629965
 30
0.0
 11
180.680228133202
 21
277.716634711027
 31
0.0
  0
LINE
  5
   1CD
  8
0
  6
CONTINUOUS
 62
    52
 10
182.120233647823
 20
354.196634629965
 30
0.0
 11
182.120227544308
 21
277.716634711027
 31
0.0
  0
LINE
  5
   1CE
  8
0
  6
CONTINUOUS
 62
    52
 10
183.56023305893
 20
354.196634629965
 30
0.0
 11
183.560226955414
 21
277.716634711027
 31
0.0
  0
LINE
  5
   1CF
  8
0
  6
CONTINUOUS
 62
    52
 10
185.000232470036
 20
354.196634629965
 30
0.0
 11
185.00022636652
 21
277.716634711027
 31
0.0
  0
ENDBLK
  5
   1D0
  8
0
  6
CONTINUOUS
 62
     7
  0
BLOCK
  5
   1D1
  8
0
  6
CONTINUOUS
 62
     7
  2
*UDIM2415
 70
    65
 10
0.0
 20
0.0
 30
0.0
  3
*UDIM2415
  0
LINE
  5
   1D2
  8
0
  6
CONTINUOUS
 62
     7
 10
101.00022816658
 20
362.676635359531
 30
0.0
 11
101.00022816658
 21
387.619231580939
 31
0.0
  0
LINE
  5
   1D3
  8
0
  6
CONTINUOUS
 62
     7
 10
125.00026403857
 20
359.556635305291
 30
0.0
 11
125.00026403857
 21
387.619231580939
 31
0.0
  0
LINE
  5
   1D4
  8
0
  6
CONTINUOUS
 62
     7
 10
101.00022816658
 20
385.619231580939
 30
0.0
 11
125.00026403857
 21
385.619231580939
 31
0.0
  0
LINE
  5
   1D5
  8
0
  6
CONTINUOUS
 62
     7
 10
103.898005639791
 20
386.395688737357
 30
0.0
 11
101.00022816658
 21
385.619231580939
 31
0.0
  0
LINE
  5
   1D6
  8
0
  6
CONTINUOUS
 62
     7
 10
101.00022816658
 20
385.619231580939
 30
0.0
 11
103.898005639791
 21
384.84277442452
 31
0.0
  0
LINE
  5
   1D7
  8
0
  6
CONTINUOUS
 62
     7
 10
122.10248656536
 20
384.84277442452
 30
0.0
 11
125.00026403857
 21
385.619231580939
 31
0.0
  0
LINE
  5
   1D8
  8
0
  6
CONTINUOUS
 62
     7
 10
125.00026403857
 20
385.619231580939
 30
0.0
 11
122.10248656536
 21
386.395688737357
 31
0.0
  0
TEXT
  5
   1D9
  8
0
  6
CONTINUOUS
 62
     7
 10
110.500246144795
 20
386.619231580939
 30
0.0
 40
2.99999994933605
  1
30
 41
0.933333333333333
 72
     1
 11
113.000246102575
 21
388.119231555607
 31
0.0
 73
     2
  0
ENDBLK
  5
   1DA
  8
0
  6
CONTINUOUS
 62
     7
  0
BLOCK
  5
   1DB
  8
0
  6
CONTINUOUS
 62
     7
  2
*UDIM2416
 70
    65
 10
0.0
 20
0.0
 30
0.0
  3
*UDIM2416
  0
LINE
  5
   1DC
  8
0
  6
CONTINUOUS
 62
     7
 10
89.0002279877663
 20
364.156635373831
 30
0.0
 11
89.0002279877663
 21
405.826423249933
 31
0.0
  0
LINE
  5
   1DD
  8
0
  6
CONTINUOUS
 62
     7
 10
185.000229418325
 20
355.196634629965
 30
0.0
 11
185.000229418325
 21
405.826423249933
 31
0.0
  0
LINE
  5
   1DE
  8
0
  6
CONTINUOUS
 62
     7
 10
89.0002279877663
 20
403.826423249933
 30
0.0
 11
185.000229418325
 21
403.826423249933
 31
0.0
  0
LINE
  5
   1DF
  8
0
  6
CONTINUOUS
 62
     7
 10
91.8980054609768
 20
404.602880406352
 30
0.0
 11
89.0002279877663
 21
403.826423249933
 31
0.0
  0
LINE
  5
   1E0
  8
0
  6
CONTINUOUS
 62
     7
 10
89.0002279877663
 20
403.826423249933
 30
0.0
 11
91.8980054609768
 21
403.049966093515
 31
0.0
  0
LINE
  5
   1E1
  8
0
  6
CONTINUOUS
 62
     7
 10
182.102451945114
 20
403.049966093515
 30
0.0
 11
185.000229418325
 21
403.826423249933
 31
0.0
  0
LINE
  5
   1E2
  8
0
  6
CONTINUOUS
 62
     7
 10
185.000229418325
 20
403.826423249933
 30
0.0
 11
182.102451945114
 21
404.602880406352
 31
0.0
  0
TEXT
  5
   1E3
  8
0
  6
CONTINUOUS
 62
     7
 10
133.100228768909
 20
404.826423249933
 30
0.0
 40
2.99999994933605
  1
120
 41
0.933333333333333
 72
     1
 11
137.000228703046
 21
406.326423224601
 31
0.0
 73
     2
  0
ENDBLK
  5
   1E4
  8
0
  6
CONTINUOUS
 62
     7
  0
BLOCK
  5
   1E5
  8
0
  6
CONTINUOUS
 62
     7
  2
*UDIM2417
 70
    65
 10
0.0
 20
0.0
 30
0.0
  3
*UDIM2417
  0
LINE
  5
   1E6
  8
0
  6
CONTINUOUS
 62
     7
 10
79.2573842433953
 20
315.956634670496
 30
0.0
 11
74.9680890740262
 21
315.956634670496
 31
0.0
  0
LINE
  5
   1E7
  8
0
  6
CONTINUOUS
 62
     7
 10
90.0002280175686
 20
367.956635445361
 30
0.0
 11
74.9680890740262
 21
367.956635445361
 31
0.0
  0
LINE
  5
   1E8
  8
0
  6
CONTINUOUS
 62
     7
 10
76.9680890740262
 20
315.956634670496
 30
0.0
 11
76.9680890740262
 21
367.956635445361
 31
0.0
  0
LINE
  5
   1E9
  8
0
  6
CONTINUOUS
 62
     7
 10
76.1916319176076
 20
318.854412143707
 30
0.0
 11
76.9680890740262
 21
315.956634670496
 31
0.0
  0
LINE
  5
   1EA
  8
0
  6
CONTINUOUS
 62
     7
 10
76.9680890740262
 20
315.956634670496
 30
0.0
 11
77.7445462304447
 21
318.854412143707
 31
0.0
  0
LINE
  5
   1EB
  8
0
  6
CONTINUOUS
 62
     7
 10
77.7445462304447
 20
365.058857972151
 30
0.0
 11
76.9680890740262
 21
367.956635445361
 31
0.0
  0
LINE
  5
   1EC
  8
0
  6
CONTINUOUS
 62
     7
 10
76.9680890740262
 20
367.956635445361
 30
0.0
 11
76.1916319176076
 21
365.058857972151
 31
0.0
  0
TEXT
  5
   1ED
  8
0
  6
CONTINUOUS
 62
     7
 10
75.9680890740293
 20
339.456635100151
 30
0.0
 40
2.99999994933605
  1
65
 50
90.0
 41
0.933333333333333
 72
     1
 11
74.4680890993581
 21
341.956635057929
 31
0.0
 73
     2
  0
ENDBLK
  5
   1EE
  8
0
  6
CONTINUOUS
 62
     7
  0
BLOCK
  5
   1EF
  8
0
  6
CONTINUOUS
 62
     7
  2
*UDIM2418
 70
    65
 10
0.0
 20
0.0
 30
0.0
  3
*UDIM2418
  0
LINE
  5
   1F0
  8
0
  6
CONTINUOUS
 62
     7
 10
90.0002280175686
 20
263.95662935184
 30
0.0
 11
66.1653362686392
 21
263.95662935184
 31
0.0
  0
LINE
  5
   1F1
  8
0
  6
CONTINUOUS
 62
     7
 10
90.0002280175686
 20
367.956635445361
 30
0.0
 11
66.1653362686392
 21
367.956635445361
 31
0.0
  0
LINE
  5
   1F2
  8
0
  6
CONTINUOUS
 62
     7
 10
68.1653362686392
 20
263.95662935184
 30
0.0
 11
68.1653362686392
 21
367.956635445361
 31
0.0
  0
LINE
  5
   1F3
  8
0
  6
CONTINUOUS
 62
     7
 10
67.3888791122206
 20
266.85440682505
 30
0.0
 11
68.1653362686392
 21
263.95662935184
 31
0.0
  0
LINE
  5
   1F4
  8
0
  6
CONTINUOUS
 62
     7
 10
68.1653362686392
 20
263.95662935184
 30
0.0
 11
68.9417934250577
 21
266.85440682505
 31
0.0
  0
LINE
  5
   1F5
  8
0
  6
CONTINUOUS
 62
     7
 10
68.9417934250577
 20
365.058857972151
 30
0.0
 11
68.1653362686392
 21
367.956635445361
 31
0.0
  0
LINE
  5
   1F6
  8
0
  6
CONTINUOUS
 62
     7
 10
68.1653362686392
 20
367.956635445361
 30
0.0
 11
67.3888791122206
 21
365.058857972151
 31
0.0
  0
TEXT
  5
   1F7
  8
0
  6
CONTINUOUS
 62
     7
 10
67.1653362686441
 20
312.056632464466
 30
0.0
 40
2.99999994933605
  1
130
 50
90.0
 41
0.933333333333333
 72
     1
 11
65.6653362939711
 21
315.956632398601
 31
0.0
 73
     2
  0
ENDBLK
  5
   1F8
  8
0
  6
CONTINUOUS
 62
     7
  0
BLOCK
  5
   1F9
  8
0
  6
CONTINUOUS
 62
     7
  2
*UDIM2419
 70
    65
 10
0.0
 20
0.0
 30
0.0
  3
*UDIM2419
  0
LINE
  5
   1FA
  8
0
  6
CONTINUOUS
 62
     7
 10
149.000193367474
 20
359.556635305291
 30
0.0
 11
149.000193367474
 21
387.619231580939
 31
0.0
  0
LINE
  5
   1FB
  8
0
  6
CONTINUOUS
 62
     7
 10
173.000264753826
 20
359.556635305291
 30
0.0
 11
173.000264753826
 21
387.619231580939
 31
0.0
  0
LINE
  5
   1FC
  8
0
  6
CONTINUOUS
 62
     7
 10
149.000193367474
 20
385.619231580939
 30
0.0
 11
173.000264753826
 21
385.619231580939
 31
0.0
  0
LINE
  5
   1FD
  8
0
  6
CONTINUOUS
 62
     7
 10
151.897970840685
 20
386.395688737357
 30
0.0
 11
149.000193367474
 21
385.619231580939
 31
0.0
  0
LINE
  5
   1FE
  8
0
  6
CONTINUOUS
 62
     7
 10
149.000193367474
 20
385.619231580939
 30
0.0
 11
151.897970840685
 21
384.84277442452
 31
0.0
  0
LINE
  5
   1FF
  8
0
  6
CONTINUOUS
 62
     7
 10
170.102487280616
 20
384.84277442452
 30
0.0
 11
173.000264753826
 21
385.619231580939
 31
0.0
  0
LINE
  5
   200
  8
0
  6
CONTINUOUS
 62
     7
 10
173.000264753826
 20
385.619231580939
 30
0.0
 11
170.102487280616
 21
386.395688737357
 31
0.0
  0
TEXT
  5
   201
  8
0
  6
CONTINUOUS
 62
     7
 10
158.50022910287
 20
386.619231580939
 30
0.0
 40
2.99999994933605
  1
30
 41
0.933333333333333
 72
     1
 11
161.00022906065
 21
388.119231555607
 31
0.0
 73
     2
  0
ENDBLK
  5
   202
  8
0
  6
CONTINUOUS
 62
     7
  0
BLOCK
  5
   203
  8
0
  6
CONTINUOUS
 62
     7
  2
*UDIM2420
 70
    65
 10
0.0
 20
0.0
 30
0.0
  3
*UDIM2420
  0
LINE
  5
   204
  8
0
  6
CONTINUOUS
 62
     7
 10
149.000228881836
 20
383.399856575367
 30
0.0
 11
149.000228881836
 21
396.365044341949
 31
0.0
  0
LINE
  5
   205
  8
0
  6
CONTINUOUS
 62
     7
 10
185.000229418325
 20
355.196634629965
 30
0.0
 11
185.000229418325
 21
396.365044341949
 31
0.0
  0
LINE
  5
   206
  8
0
  6
CONTINUOUS
 62
     7
 10
149.000228881836
 20
394.365044341949
 30
0.0
 11
185.000229418325
 21
394.365044341949
 31
0.0
  0
LINE
  5
   207
  8
0
  6
CONTINUOUS
 62
     7
 10
151.898006355047
 20
395.141501498368
 30
0.0
 11
149.000228881836
 21
394.365044341949
 31
0.0
  0
LINE
  5
   208
  8
0
  6
CONTINUOUS
 62
     7
 10
149.000228881836
 20
394.365044341949
 30
0.0
 11
151.898006355047
 21
393.588587185531
 31
0.0
  0
LINE
  5
   209
  8
0
  6
CONTINUOUS
 62
     7
 10
182.102451945114
 20
393.588587185531
 30
0.0
 11
185.000229418325
 21
394.365044341949
 31
0.0
  0
LINE
  5
   20A
  8
0
  6
CONTINUOUS
 62
     7
 10
185.000229418325
 20
394.365044341949
 30
0.0
 11
182.102451945114
 21
395.141501498368
 31
0.0
  0
TEXT
  5
   20B
  8
0
  6
CONTINUOUS
 62
     7
 10
164.5002291923
 20
395.365044341949
 30
0.0
 40
2.99999994933605
  1
45
 41
0.933333333333333
 72
     1
 11
167.00022915008
 21
396.865044316617
 31
0.0
 73
     2
  0
ENDBLK
  5
   20C
  8
0
  6
CONTINUOUS
 62
     7
  0
BLOCK
  5
   20D
  8
0
  6
CONTINUOUS
 62
     7
  2
*UDIM2421
 70
    65
 10
0.0
 20
0.0
 30
0.0
  3
*UDIM2421
  0
LINE
  5
   20E
  8
0
  6
CONTINUOUS
 62
     7
 10
403.072255046206
 20
354.651018512062
 30
0.0
 11
412.178017265234
 21
339.677591593487
 31
0.0
  0
LINE
  5
   20F
  8
0
  6
CONTINUOUS
 62
     7
 10
412.178017265234
 20
339.677591593487
 30
0.0
 11
440.963323977822
 21
339.677591593487
 31
0.0
  0
LINE
  5
   210
  8
0
  6
CONTINUOUS
 62
     7
 10
403.501139619431
 20
352.451408707859
 30
0.0
 11
405.670220535439
 21
350.378949304201
 31
0.0
  0
LINE
  5
   211
  8
0
  6
CONTINUOUS
 62
     7
 10
405.670220535439
 20
350.378949304201
 30
0.0
 11
404.827971103095
 21
353.258292266357
 31
0.0
  0
LINE
  5
   212
  8
0
  6
CONTINUOUS
 62
     7
 10
408.774569041507
 20
346.768544962795
 30
0.0
 11
406.605488125499
 21
348.841004366454
 31
0.0
  0
LINE
  5
   213
  8
0
  6
CONTINUOUS
 62
     7
 10
406.605488125499
 20
348.841004366454
 30
0.0
 11
407.447737557843
 21
345.961661404298
 31
0.0
  0
TEXT
  5
   214
  8
0
  6
CONTINUOUS
 62
     7
 10
418.763324335847
 20
340.677591593487
 30
0.0
 40
2.99999994933605
  1
4,5
 41
0.933333333333333
 72
     1
 11
422.663324269984
 21
342.177591568155
 31
0.0
 73
     2
  0
TEXT
  5
   215
  8
0
  6
CONTINUOUS
 62
     7
 10
414.763324386511
 20
340.677591593487
 30
0.0
 40
2.99999994933605
  1
Ø
 41
1.2
 72
     1
 11
416.263324361179
 21
342.177591568155
 31
0.0
 73
     2
  0
TEXT
  5
   216
  8
0
  6
CONTINUOUS
 62
     7
 10
427.56332420412
 20
340.677591593487
 30
0.0
 40
2.99999994933605
  1
 - M4
 41
0.933333333333333
 72
     1
 11
434.263324090971
 21
342.177591568155
 31
0.0
 73
     2
  0
ENDBLK
  5
   217
  8
0
  6
CONTINUOUS
 62
     7
  0
BLOCK
  5
   218
  8
0
  6
CONTINUOUS
 62
     7
  2
*UDIM2422
 70
    65
 10
0.0
 20
0.0
 30
0.0
  3
*UDIM2422
  0
LINE
  5
   219
  8
0
  6
CONTINUOUS
 62
     7
 10
403.299608981502
 20
349.609979003668
 30
0.0
 11
355.790222287118
 21
349.609979003668
 31
0.0
  0
LINE
  5
   21A
  8
0
  6
CONTINUOUS
 62
     7
 10
392.457847796679
 20
392.409979641438
 30
0.0
 11
355.790222287118
 21
392.409979641438
 31
0.0
  0
LINE
  5
   21B
  8
0
  6
CONTINUOUS
 62
     7
 10
357.790222287118
 20
349.609979003668
 30
0.0
 11
357.790222287118
 21
392.409979641438
 31
0.0
  0
LINE
  5
   21C
  8
0
  6
CONTINUOUS
 62
     7
 10
357.013765130699
 20
352.507756476878
 30
0.0
 11
357.790222287118
 21
349.609979003668
 31
0.0
  0
LINE
  5
   21D
  8
0
  6
CONTINUOUS
 62
     7
 10
357.790222287118
 20
349.609979003668
 30
0.0
 11
358.566679443536
 21
352.507756476878
 31
0.0
  0
LINE
  5
   21E
  8
0
  6
CONTINUOUS
 62
     7
 10
358.566679443536
 20
389.512202168227
 30
0.0
 11
357.790222287118
 21
392.409979641438
 31
0.0
  0
LINE
  5
   21F
  8
0
  6
CONTINUOUS
 62
     7
 10
357.790222287118
 20
392.409979641438
 30
0.0
 11
357.013765130699
 21
389.512202168227
 31
0.0
  0
TEXT
  5
   220
  8
0
  6
CONTINUOUS
 62
     7
 10
356.790222287123
 20
367.109979388418
 30
0.0
 40
2.99999994933605
  1
107
 50
90.0
 41
0.933333333333333
 72
     1
 11
355.29022231245
 21
371.009979322553
 31
0.0
 73
     2
  0
ENDBLK
  5
   221
  8
0
  6
CONTINUOUS
 62
     7
  0
BLOCK
  5
   222
  8
0
  6
CONTINUOUS
 62
     7
  2
*UDIM2423
 70
    65
 10
0.0
 20
0.0
 30
0.0
  3
*UDIM2423
  0
LINE
  5
   223
  8
0
  6
CONTINUOUS
 62
     7
 10
386.515412773571
 20
371.009979322553
 30
0.0
 11
364.559431379256
 21
371.009979322553
 31
0.0
  0
LINE
  5
   224
  8
0
  6
CONTINUOUS
 62
     7
 10
392.457847796679
 20
392.409979641438
 30
0.0
 11
364.559431379256
 21
392.409979641438
 31
0.0
  0
LINE
  5
   225
  8
0
  6
CONTINUOUS
 62
     7
 10
366.559431379256
 20
371.009979322553
 30
0.0
 11
366.559431379256
 21
392.409979641438
 31
0.0
  0
LINE
  5
   226
  8
0
  6
CONTINUOUS
 62
     7
 10
365.782974222838
 20
373.907756795763
 30
0.0
 11
366.559431379256
 21
371.009979322553
 31
0.0
  0
LINE
  5
   227
  8
0
  6
CONTINUOUS
 62
     7
 10
366.559431379256
 20
371.009979322553
 30
0.0
 11
367.335888535675
 21
373.907756795763
 31
0.0
  0
LINE
  5
   228
  8
0
  6
CONTINUOUS
 62
     7
 10
367.335888535675
 20
389.512202168227
 30
0.0
 11
366.559431379256
 21
392.409979641438
 31
0.0
  0
LINE
  5
   229
  8
0
  6
CONTINUOUS
 62
     7
 10
366.559431379256
 20
392.409979641438
 30
0.0
 11
365.782974222838
 21
389.512202168227
 31
0.0
  0
TEXT
  5
   22A
  8
0
  6
CONTINUOUS
 62
     7
 10
365.559431379263
 20
376.409979571503
 30
0.0
 40
2.99999994933605
  1
53,5
 50
90.0
 41
0.933333333333333
 72
     1
 11
364.059431404588
 21
381.709979481995
 31
0.0
 73
     2
  0
ENDBLK
  5
   22B
  8
0
  6
CONTINUOUS
 62
     7
  0
BLOCK
  5
   22C
  8
0
  6
CONTINUOUS
 62
     7
  2
*UDIM2424
 70
    65
 10
0.0
 20
0.0
 30
0.0
  3
*UDIM2424
  0
LINE
  5
   22D
  8
0
  6
CONTINUOUS
 62
     7
 10
394.137847810984
 20
395.604893111721
 30
0.0
 11
394.137847810984
 21
408.517309863887
 31
0.0
  0
LINE
  5
   22E
  8
0
  6
CONTINUOUS
 62
     7
 10
406.137854330469
 20
350.609976835327
 30
0.0
 11
406.137854330469
 21
408.517309863887
 31
0.0
  0
LINE
  5
   22F
  8
0
  6
CONTINUOUS
 62
     7
 10
389.137847810984
 20
406.517309863887
 30
0.0
 11
411.137854330469
 21
406.517309863887
 31
0.0
  0
CIRCLE
  5
   230
  8
0
  6
CONTINUOUS
 62
     7
 10
394.137847810984
 20
406.517309863887
 30
0.0
 40
1.0
  0
LINE
  5
   231
  8
0
  6
CONTINUOUS
 62
     7
 10
409.03563180368
 20
407.293767020306
 30
0.0
 11
406.137854330469
 21
406.517309863887
 31
0.0
  0
LINE
  5
   232
  8
0
  6
CONTINUOUS
 62
     7
 10
406.137854330469
 20
406.517309863887
 30
0.0
 11
409.03563180368
 21
405.740852707469
 31
0.0
  0
TEXT
  5
   233
  8
0
  6
CONTINUOUS
 62
     7
 10
397.637851112946
 20
407.517309863887
 30
0.0
 40
2.99999994933605
  1
30
 41
0.933333333333333
 72
     1
 11
400.137851070726
 21
409.017309838555
 31
0.0
 73
     2
  0
TEXT
  5
   234
  8
0
  6
CONTINUOUS
 62
     7
 10
396.23785113659
 20
403.517309914551
 30
0.0
 40
2.99999994933605
  1
= =
 41
0.933333333333333
 72
     1
 11
400.137851070726
 21
405.017309889219
 31
0.0
 73
     2
  0
ENDBLK
  5
   235
  8
0
  6
CONTINUOUS
 62
     7
  0
BLOCK
  5
   236
  8
0
  6
CONTINUOUS
 62
     7
  2
*UDIM2425
 70
    65
 10
0.0
 20
0.0
 30
0.0
  3
*UDIM2425
  0
LINE
  5
   237
  8
0
  6
CONTINUOUS
 62
     7
 10
382.137853972841
 20
352.289976864533
 30
0.0
 11
382.137853972841
 21
408.517309863887
 31
0.0
  0
LINE
  5
   238
  8
0
  6
CONTINUOUS
 62
     7
 10
394.137847810984
 20
395.604893111721
 30
0.0
 11
394.137847810984
 21
408.517309863887
 31
0.0
  0
LINE
  5
   239
  8
0
  6
CONTINUOUS
 62
     7
 10
377.137853972841
 20
406.517309863887
 30
0.0
 11
394.137847810984
 21
406.517309863887
 31
0.0
  0
LINE
  5
   23A
  8
0
  6
CONTINUOUS
 62
     7
 10
379.240076499631
 20
405.740852707469
 30
0.0
 11
382.137853972841
 21
406.517309863887
 31
0.0
  0
LINE
  5
   23B
  8
0
  6
CONTINUOUS
 62
     7
 10
382.137853972841
 20
406.517309863887
 30
0.0
 11
379.240076499631
 21
407.293767020306
 31
0.0
  0
TEXT
  5
   23C
  8
0
  6
CONTINUOUS
 62
     7
 10
385.637850934132
 20
407.517309863887
 30
0.0
 40
2.99999994933605
  1
30
 41
0.933333333333333
 72
     1
 11
388.137850891912
 21
409.017309838555
 31
0.0
 73
     2
  0
ENDBLK
  5
   23D
  8
0
  6
CONTINUOUS
 62
     7
  0
BLOCK
  5
   23E
  8
0
  6
CONTINUOUS
 62
     7
  2
*UDIM2426
 70
    65
 10
0.0
 20
0.0
 30
0.0
  3
*UDIM2426
  0
LINE
  5
   23F
  8
0
  6
CONTINUOUS
 62
     7
 10
408.01547546387
 20
266.030712878581
 30
0.0
 11
408.01547546387
 21
258.849591112691
 31
0.0
  0
LINE
  5
   240
  8
0
  6
CONTINUOUS
 62
     7
 10
428.76547546387
 20
277.792724609375
 30
0.0
 11
428.76547546387
 21
258.849591112691
 31
0.0
  0
LINE
  5
   241
  8
0
  6
CONTINUOUS
 62
     7
 10
408.01547546387
 20
260.849591112691
 30
0.0
 11
428.76547546387
 21
260.849591112691
 31
0.0
  0
LINE
  5
   242
  8
0
  6
CONTINUOUS
 62
     7
 10
410.913252937081
 20
261.62604826911
 30
0.0
 11
408.01547546387
 21
260.849591112691
 31
0.0
  0
LINE
  5
   243
  8
0
  6
CONTINUOUS
 62
     7
 10
408.01547546387
 20
260.849591112691
 30
0.0
 11
410.913252937081
 21
260.073133956273
 31
0.0
  0
LINE
  5
   244
  8
0
  6
CONTINUOUS
 62
     7
 10
425.86769799066
 20
260.073133956273
 30
0.0
 11
428.76547546387
 21
260.849591112691
 31
0.0
  0
LINE
  5
   245
  8
0
  6
CONTINUOUS
 62
     7
 10
428.76547546387
 20
260.849591112691
 30
0.0
 11
425.86769799066
 21
261.62604826911
 31
0.0
  0
TEXT
  5
   246
  8
0
  6
CONTINUOUS
 62
     7
 10
417.290475452943
 20
261.849591112691
 30
0.0
 40
3.00000002980232
  1
E
 41
0.933333333333334
 72
     1
 11
418.39047546387
 21
263.349591127593
 31
0.0
 73
     2
  0
ENDBLK
  5
   247
  8
0
  6
CONTINUOUS
 62
     7
  0
BLOCK
  5
   248
  8
0
  6
CONTINUOUS
 62
     7
  2
*UDIM2427
 70
    65
 10
0.0
 20
0.0
 30
0.0
  3
*UDIM2427
  0
LINE
  5
   249
  8
0
  6
CONTINUOUS
 62
     7
 10
386.265476226807
 20
278.792724609375
 30
0.0
 11
356.183205215925
 21
278.792724609375
 31
0.0
  0
LINE
  5
   24A
  8
0
  6
CONTINUOUS
 62
     7
 10
386.265476226807
 20
307.792724609375
 30
0.0
 11
356.183205215925
 21
307.792724609375
 31
0.0
  0
LINE
  5
   24B
  8
0
  6
CONTINUOUS
 62
     7
 10
358.183205215925
 20
278.792724609375
 30
0.0
 11
358.183205215925
 21
307.792724609375
 31
0.0
  0
LINE
  5
   24C
  8
0
  6
CONTINUOUS
 62
     7
 10
357.406748059506
 20
281.690502082586
 30
0.0
 11
358.183205215925
 21
278.792724609375
 31
0.0
  0
LINE
  5
   24D
  8
0
  6
CONTINUOUS
 62
     7
 10
358.183205215925
 20
278.792724609375
 30
0.0
 11
358.959662372343
 21
281.690502082586
 31
0.0
  0
LINE
  5
   24E
  8
0
  6
CONTINUOUS
 62
     7
 10
358.959662372343
 20
304.894947136164
 30
0.0
 11
358.183205215925
 21
307.792724609375
 31
0.0
  0
LINE
  5
   24F
  8
0
  6
CONTINUOUS
 62
     7
 10
358.183205215925
 20
307.792724609375
 30
0.0
 11
357.406748059506
 21
304.894947136164
 31
0.0
  0
TEXT
  5
   250
  8
0
  6
CONTINUOUS
 62
     7
 10
357.183205215926
 20
292.192724598449
 30
0.0
 40
3.00000002980232
  1
C
 50
90.0
 41
0.933333333333334
 72
     1
 11
355.683205201024
 21
293.292724609375
 31
0.0
 73
     2
  0
ENDBLK
  5
   251
  8
0
  6
CONTINUOUS
 62
     7
  0
BLOCK
  5
   252
  8
0
  6
CONTINUOUS
 62
     7
  2
*UDIM2428
 70
    65
 10
0.0
 20
0.0
 30
0.0
  3
*UDIM2428
  0
LINE
  5
   253
  8
0
  6
CONTINUOUS
 62
     7
 10
387.26547546387
 20
308.792724609375
 30
0.0
 11
387.26547546387
 21
328.307847663003
 31
0.0
  0
LINE
  5
   254
  8
0
  6
CONTINUOUS
 62
     7
 10
428.76547546387
 20
308.792724609375
 30
0.0
 11
428.76547546387
 21
328.307847663003
 31
0.0
  0
LINE
  5
   255
  8
0
  6
CONTINUOUS
 62
     7
 10
387.26547546387
 20
326.307847663003
 30
0.0
 11
428.76547546387
 21
326.307847663003
 31
0.0
  0
LINE
  5
   256
  8
0
  6
CONTINUOUS
 62
     7
 10
390.163252937081
 20
327.084304819422
 30
0.0
 11
387.26547546387
 21
326.307847663003
 31
0.0
  0
LINE
  5
   257
  8
0
  6
CONTINUOUS
 62
     7
 10
387.26547546387
 20
326.307847663003
 30
0.0
 11
390.163252937081
 21
325.531390506585
 31
0.0
  0
LINE
  5
   258
  8
0
  6
CONTINUOUS
 62
     7
 10
425.86769799066
 20
325.531390506585
 30
0.0
 11
428.76547546387
 21
326.307847663003
 31
0.0
  0
LINE
  5
   259
  8
0
  6
CONTINUOUS
 62
     7
 10
428.76547546387
 20
326.307847663003
 30
0.0
 11
425.86769799066
 21
327.084304819422
 31
0.0
  0
TEXT
  5
   25A
  8
0
  6
CONTINUOUS
 62
     7
 10
406.915475452943
 20
327.307847663003
 30
0.0
 40
3.00000002980232
  1
B
 41
0.933333333333334
 72
     1
 11
408.01547546387
 21
328.807847677904
 31
0.0
 73
     2
  0
ENDBLK
  5
   25B
  8
0
  6
CONTINUOUS
 62
     7
  0
BLOCK
  5
   25C
  8
0
  6
CONTINUOUS
 62
     7
  2
*UDIM2429
 70
    65
 10
0.0
 20
0.0
 30
0.0
  3
*UDIM2429
  0
LINE
  5
   25D
  8
0
  6
CONTINUOUS
 62
     7
 10
372.754944068912
 20
298.292724609375
 30
0.0
 11
365.509192823742
 21
298.292724609375
 31
0.0
  0
LINE
  5
   25E
  8
0
  6
CONTINUOUS
 62
     7
 10
386.265476226807
 20
307.792724609375
 30
0.0
 11
365.509192823742
 21
307.792724609375
 31
0.0
  0
LINE
  5
   25F
  8
0
  6
CONTINUOUS
 62
     7
 10
367.509192823742
 20
293.292724609375
 30
0.0
 11
367.509192823742
 21
312.792724609375
 31
0.0
  0
LINE
  5
   260
  8
0
  6
CONTINUOUS
 62
     7
 10
368.28564998016
 20
295.394947136164
 30
0.0
 11
367.509192823742
 21
298.292724609375
 31
0.0
  0
LINE
  5
   261
  8
0
  6
CONTINUOUS
 62
     7
 10
367.509192823742
 20
298.292724609375
 30
0.0
 11
366.732735667323
 21
295.394947136164
 31
0.0
  0
LINE
  5
   262
  8
0
  6
CONTINUOUS
 62
     7
 10
366.732735667323
 20
310.690502082585
 30
0.0
 11
367.509192823742
 21
307.792724609375
 31
0.0
  0
LINE
  5
   263
  8
0
  6
CONTINUOUS
 62
     7
 10
367.509192823742
 20
307.792724609375
 30
0.0
 11
368.28564998016
 21
310.690502082585
 31
0.0
  0
TEXT
  5
   264
  8
0
  6
CONTINUOUS
 62
     7
 10
366.509192823743
 20
301.445773018402
 30
0.0
 40
3.00000002980232
  1
D
 50
90.0
 41
0.933333333333334
 72
     1
 11
365.00919280884
 21
302.545773029327
 31
0.0
 73
     2
  0
ENDBLK
  5
   265
  8
0
  6
CONTINUOUS
 62
     7
  0
ENDSEC
  0
SECTION
  2
ENTITIES
  0
TEXT
  5
   266
  8
0
  6
CONTINUOUS
 62
     1
 10
371.819184084986
 20
179.415004672408
 30
0.0
 40
2.00000008940697
  1
FIXED VERSION FRONT TERMI. FOR Cu-Al CABLE
 41
0.749999861419206
 72
     1
 11
403.169179689888
 21
180.415004717111
 31
0.0
 73
     2
  0
TEXT
  5
   267
  8
0
  6
CONTINUOUS
 62
     1
 10
376.319183192398
 20
182.415004672408
 30
0.0
 40
2.00000008940697
  1
4POLE LOW VOLTAGE M.C.C.B SERIES "T"
 41
0.749999861419206
 72
     1
 11
403.16917942762
 21
183.415004717111
 31
0.0
 73
     2
  0
TEXT
  5
   268
  8
0
  6
CONTINUOUS
 62
     1
 10
363.521577188377
 20
171.344753207564
 30
0.0
 40
2.00000008940697
  1
TETRAP. ESECU. FISSA TERM. ANT. X CAVI IN Cu-Al
 41
0.749999861419206
 72
     1
 11
398.621572268013
 21
172.344753252267
 31
0.0
 73
     2
  0
TEXT
  5
   269
  8
0
  6
CONTINUOUS
 62
     1
 10
378.521574825045
 20
174.344753207564
 30
0.0
 40
2.00000008940697
  1
INTERR.AUTOMATICO SERIE "T"
 41
0.749999861419206
 72
     1
 11
398.621572005745
 21
175.344753252267
 31
0.0
 73
     2
  0
TEXT
  5
   26A
  8
0
  6
CONTINUOUS
 62
     1
 10
288.516795117719
 20
166.251513183662
 30
0.0
 40
2.00000008940697
  1
N0030 00-02-14
 41
0.799999960511924
  0
TEXT
  5
   26B
  8
0
  6
CONTINUOUS
 62
     1
 10
383.517910178508
 20
155.123166558195
 30
0.0
 40
4.00000017881393
  1
RH0012.105
 41
0.937499973922969
 72
     2
 11
420.267910778279
 21
155.123166558195
 31
0.0
  0
TEXT
  5
   26C
  8
0
  6
CONTINUOUS
 62
     1
 10
401.603603494171
 20
164.104763217575
 30
0.0
 40
3.00000002980232
  1
T2
 41
0.916666604744064
 72
     2
 11
406.553603204592
 21
164.104763217575
 31
0.0
  0
INSERT
  5
   26D
  8
255
  6
CONTINUOUS
 62
     7
  2
$2TABELL
 10
48.1937779610045
 20
228.737888007257
 30
0.0
 41
0.874990938680013
 42
0.874990938680013
 43
0.874990938680013
  0
LINE
  5
   26E
  8
0
  6
CONTINUOUS
 62
   252
 10
133.036029815674
 20
213.581085205078
 30
0.0
 11
164.964457511902
 21
213.581085205078
 31
0.0
  0
LINE
  5
   26F
  8
0
  6
CONTINUOUS
 62
   252
 10
133.036030578254
 20
213.081085205078
 30
0.0
 11
133.036030578254
 21
213.581085205078
 31
0.0
  0
LINE
  5
   270
  8
0
  6
CONTINUOUS
 62
   252
 10
164.964457702998
 20
213.081085205078
 30
0.0
 11
164.964457702998
 21
213.581085205078
 31
0.0
  0
LINE
  5
   271
  8
0
  6
CONTINUOUS
 62
   252
 10
133.036029815674
 20
213.081085205078
 30
0.0
 11
164.964457511902
 21
213.081085205078
 31
0.0
  0
LINE
  5
   272
  8
0
  6
CONTINUOUS
 62
   252
 10
164.964457702998
 20
213.581085205078
 30
0.0
 11
164.964457702998
 21
219.831085205078
 31
0.0
  0
LINE
  5
   273
  8
0
  6
CONTINUOUS
 62
   252
 10
133.036030578254
 20
213.581085205078
 30
0.0
 11
133.036030578254
 21
219.831085205078
 31
0.0
  0
LINE
  5
   274
  8
0
  6
CONTINUOUS
 62
   252
 10
131.450229644775
 20
180.831085205078
 30
0.0
 11
166.550229072571
 21
180.831085205078
 31
0.0
  0
LINE
  5
   275
  8
0
  6
CONTINUOUS
 62
   252
 10
166.550229072571
 20
180.831085205078
 30
0.0
 11
167.964442491531
 21
180.831085205078
 31
0.0
  0
LINE
  5
   276
  8
0
  6
CONTINUOUS
 62
   252
 10
167.964442491531
 20
180.831085205078
 30
0.0
 11
168.800228834152
 21
180.831085205078
 31
0.0
  0
LINE
  5
   277
  8
0
  6
CONTINUOUS
 62
   252
 10
167.964442444209
 20
180.831085205078
 30
0.0
 11
167.964442444209
 21
188.331085205078
 31
0.0
  0
LINE
  5
   278
  8
0
  6
CONTINUOUS
 62
   252
 10
167.964442444209
 20
212.331085205078
 30
0.0
 11
167.964442444209
 21
219.831085205078
 31
0.0
  0
LINE
  5
   279
  8
0
  6
CONTINUOUS
 62
   252
 10
168.800228834152
 20
180.831085205078
 30
0.0
 11
169.050228834152
 21
180.831085205078
 31
0.0
  0
LINE
  5
   27A
  8
0
  6
CONTINUOUS
 62
   252
 10
168.800228881835
 20
180.831085205078
 30
0.0
 11
168.800228881835
 21
188.331085205078
 31
0.0
  0
LINE
  5
   27B
  8
0
  6
CONTINUOUS
 62
   252
 10
168.800228881835
 20
212.331085205078
 30
0.0
 11
168.800228881835
 21
219.831085205078
 31
0.0
  0
LINE
  5
   27C
  8
0
  6
CONTINUOUS
 62
   252
 10
169.050228834152
 20
180.831085205078
 30
0.0
 11
170.800228878856
 21
180.831085205078
 31
0.0
  0
LINE
  5
   27D
  8
0
  6
CONTINUOUS
 62
   252
 10
170.800228878856
 20
180.831085205078
 30
0.0
 11
171.050228878856
 21
180.831085205078
 31
0.0
  0
LINE
  5
   27E
  8
0
  6
CONTINUOUS
 62
   252
 10
171.050228881836
 20
180.831085205078
 30
0.0
 11
171.050228881836
 21
219.831085205078
 31
0.0
  0
LINE
  5
   27F
  8
0
  6
CONTINUOUS
 62
   252
 10
126.950229644775
 20
180.831085205078
 30
0.0
 11
127.200229644775
 21
180.831085205078
 31
0.0
  0
LINE
  5
   280
  8
0
  6
CONTINUOUS
 62
   252
 10
126.950228881839
 20
180.831085205078
 30
0.0
 11
126.950228881839
 21
219.831085205078
 31
0.0
  0
LINE
  5
   281
  8
0
  6
CONTINUOUS
 62
   252
 10
127.200229644775
 20
180.831085205078
 30
0.0
 11
128.950229644775
 21
180.831085205078
 31
0.0
  0
LINE
  5
   282
  8
0
  6
CONTINUOUS
 62
   252
 10
128.950229644775
 20
180.831085205078
 30
0.0
 11
129.200229644775
 21
180.831085205078
 31
0.0
  0
LINE
  5
   283
  8
0
  6
CONTINUOUS
 62
   252
 10
129.200229644775
 20
180.831085205078
 30
0.0
 11
130.036014556885
 21
180.831085205078
 31
0.0
  0
LINE
  5
   284
  8
0
  6
CONTINUOUS
 62
   252
 10
129.200228881839
 20
212.331085205078
 30
0.0
 11
129.200228881839
 21
219.831085205078
 31
0.0
  0
LINE
  5
   285
  8
0
  6
CONTINUOUS
 62
   252
 10
129.200228881839
 20
180.831085205078
 30
0.0
 11
129.200228881839
 21
188.331085205078
 31
0.0
  0
LINE
  5
   286
  8
0
  6
CONTINUOUS
 62
   252
 10
130.036014556885
 20
180.831085205078
 30
0.0
 11
131.450229644775
 21
180.831085205078
 31
0.0
  0
LINE
  5
   287
  8
0
  6
CONTINUOUS
 62
   252
 10
130.036015319466
 20
212.331085205078
 30
0.0
 11
130.036015319466
 21
219.831085205078
 31
0.0
  0
LINE
  5
   288
  8
0
  6
CONTINUOUS
 62
   252
 10
130.036015319233
 20
180.831085205078
 30
0.0
 11
130.036015319233
 21
188.331085205078
 31
0.0
  0
LINE
  5
   289
  8
0
  6
CONTINUOUS
 62
   252
 10
133.036029815674
 20
219.831085205078
 30
0.0
 11
164.964457511902
 21
219.831085205078
 31
0.0
  0
LINE
  5
   28A
  8
0
  6
CONTINUOUS
 62
   252
 10
164.964457511902
 20
219.831085205078
 30
0.0
 11
166.550229072571
 21
219.831085205078
 31
0.0
  0
LINE
  5
   28B
  8
0
  6
CONTINUOUS
 62
   252
 10
131.450229644775
 20
219.831085205078
 30
0.0
 11
133.036029815674
 21
219.831085205078
 31
0.0
  0
LINE
  5
   28C
  8
0
  6
CONTINUOUS
 62
   252
 10
166.550229072571
 20
219.831085205078
 30
0.0
 11
167.964442491531
 21
219.831085205078
 31
0.0
  0
LINE
  5
   28D
  8
0
  6
CONTINUOUS
 62
   252
 10
167.964442491531
 20
219.831085205078
 30
0.0
 11
168.800228834152
 21
219.831085205078
 31
0.0
  0
LINE
  5
   28E
  8
0
  6
CONTINUOUS
 62
   252
 10
168.800228834152
 20
219.831085205078
 30
0.0
 11
169.050228834152
 21
219.831085205078
 31
0.0
  0
LINE
  5
   28F
  8
0
  6
CONTINUOUS
 62
   252
 10
169.050228834152
 20
219.831085205078
 30
0.0
 11
170.800228878856
 21
219.831085205078
 31
0.0
  0
LINE
  5
   290
  8
0
  6
CONTINUOUS
 62
   252
 10
170.800228878856
 20
219.831085205078
 30
0.0
 11
171.050228878856
 21
219.831085205078
 31
0.0
  0
LINE
  5
   291
  8
0
  6
CONTINUOUS
 62
   252
 10
126.950229644775
 20
219.831085205078
 30
0.0
 11
127.200229644775
 21
219.831085205078
 31
0.0
  0
LINE
  5
   292
  8
0
  6
CONTINUOUS
 62
   252
 10
127.200229644775
 20
219.831085205078
 30
0.0
 11
128.950229644775
 21
219.831085205078
 31
0.0
  0
LINE
  5
   293
  8
0
  6
CONTINUOUS
 62
   252
 10
128.950229644775
 20
219.831085205078
 30
0.0
 11
129.200229644775
 21
219.831085205078
 31
0.0
  0
LINE
  5
   294
  8
0
  6
CONTINUOUS
 62
   252
 10
129.200229644775
 20
219.831085205078
 30
0.0
 11
130.036014556885
 21
219.831085205078
 31
0.0
  0
LINE
  5
   295
  8
0
  6
CONTINUOUS
 62
   252
 10
130.036014556885
 20
219.831085205078
 30
0.0
 11
131.450229644775
 21
219.831085205078
 31
0.0
  0
LINE
  5
   296
  8
0
  6
CONTINUOUS
 62
   252
 10
168.800228881835
 20
188.331085205078
 30
0.0
 11
168.800228881835
 21
212.331085205078
 31
0.0
  0
LINE
  5
   297
  8
0
  6
CONTINUOUS
 62
   252
 10
129.200228881839
 20
188.331085205078
 30
0.0
 11
129.200228881839
 21
212.331085205078
 31
0.0
  0
LINE
  5
   298
  8
0
  6
CONTINUOUS
 62
   252
 10
131.450229644775
 20
188.331085205078
 30
0.0
 11
166.550229072571
 21
188.331085205078
 31
0.0
  0
LINE
  5
   299
  8
0
  6
CONTINUOUS
 62
   252
 10
166.550229072571
 20
188.331085205078
 30
0.0
 11
167.964442491531
 21
188.331085205078
 31
0.0
  0
LINE
  5
   29A
  8
0
  6
CONTINUOUS
 62
   252
 10
167.964442491531
 20
188.331085205078
 30
0.0
 11
168.800228834152
 21
188.331085205078
 31
0.0
  0
LINE
  5
   29B
  8
0
  6
CONTINUOUS
 62
   252
 10
129.200229644775
 20
188.331085205078
 30
0.0
 11
130.036014556885
 21
188.331085205078
 31
0.0
  0
LINE
  5
   29C
  8
0
  6
CONTINUOUS
 62
   252
 10
130.036014556885
 20
188.331085205078
 30
0.0
 11
131.450229644775
 21
188.331085205078
 31
0.0
  0
LINE
  5
   29D
  8
0
  6
CONTINUOUS
 62
   252
 10
131.450229644775
 20
212.331085205078
 30
0.0
 11
166.550229072571
 21
212.331085205078
 31
0.0
  0
LINE
  5
   29E
  8
0
  6
CONTINUOUS
 62
   252
 10
166.550229072571
 20
212.331085205078
 30
0.0
 11
167.964442491531
 21
212.331085205078
 31
0.0
  0
LINE
  5
   29F
  8
0
  6
CONTINUOUS
 62
   252
 10
167.964442491531
 20
212.331085205078
 30
0.0
 11
168.800228834152
 21
212.331085205078
 31
0.0
  0
LINE
  5
   2A0
  8
0
  6
CONTINUOUS
 62
   252
 10
129.200229644775
 20
212.331085205078
 30
0.0
 11
130.036014556885
 21
212.331085205078
 31
0.0
  0
LINE
  5
   2A1
  8
0
  6
CONTINUOUS
 62
   252
 10
130.036014556885
 20
212.331085205078
 30
0.0
 11
131.450229644775
 21
212.331085205078
 31
0.0
  0
LINE
  5
   2A2
  8
0
  6
DASHDOT
 62
     7
 10
149.000228881837
 20
173.11931355005
 30
0.0
 11
149.000228881837
 21
234.638932454229
 31
0.0
  0
TEXT
  5
   2A3
  8
0
  6
CONTINUOUS
 62
     7
 10
144.542049974804
 20
224.428189939621
 30
0.0
 40
3.00000002980232
  1
Y
 41
0.933333333333334
 72
     1
 11
145.642049985732
 21
225.928189954522
 31
0.0
 73
     2
  0
TEXT
  5
   2A4
  8
0
  6
CONTINUOUS
 62
     7
 10
144.542049974804
 20
172.708156347612
 30
0.0
 40
3.00000002980232
  1
Y
 41
0.933333333333334
 72
     1
 11
145.642049985732
 21
174.208156362514
 31
0.0
 73
     2
  0
LINE
  5
   2A5
  8
0
  6
DASHDOT
 62
     7
 10
119.237611783496
 20
203.081085205078
 30
0.0
 11
179.940598578327
 21
203.081085205078
 31
0.0
  0
TEXT
  5
   2A6
  8
0
  6
CONTINUOUS
 62
     7
 10
119.498665288147
 20
204.284597909049
 30
0.0
 40
3.00000002980232
  1
X
 41
0.933333333333334
 72
     1
 11
120.598665299075
 21
205.78459792395
 31
0.0
 73
     2
  0
TEXT
  5
   2A7
  8
0
  6
CONTINUOUS
 62
     7
 10
176.662912942473
 20
204.284597909049
 30
0.0
 40
3.00000002980232
  1
X
 41
0.933333333333334
 72
     1
 11
177.7629129534
 21
205.78459792395
 31
0.0
 73
     2
  0
INSERT
  5
   2A8
  8
0
  6
CONTINUOUS
 62
     7
  2
*UDIM2396
 10
0.0
 20
0.0
 30
0.0
  0
INSERT
  5
   2A9
  8
0
  6
CONTINUOUS
 62
     7
  2
*UDIM2397
 10
0.0
 20
0.0
 30
0.0
  0
INSERT
  5
   2AA
  8
0
  6
CONTINUOUS
 62
     7
  2
*UDIM2398
 10
0.0
 20
0.0
 30
0.0
  0
LINE
  5
   2AB
  8
0
  6
DASHDOT
 62
     7
 10
224.113210767508
 20
259.555996944134
 30
0.0
 11
224.113210767508
 21
373.302690929207
 31
0.0
  0
LINE
  5
   2AC
  8
0
  6
CONTINUOUS
 62
   253
 10
224.113210767508
 20
286.356634229422
 30
0.0
 11
224.113210767508
 21
308.756634563208
 31
0.0
  0
LINE
  5
   2AD
  8
0
  6
CONTINUOUS
 62
     2
 10
277.710968524184
 20
329.556634873153
 30
0.0
 11
284.910968631473
 21
329.556634873153
 31
0.0
  0
LINE
  5
   2AE
  8
0
  6
CONTINUOUS
 62
     2
 10
277.710968524184
 20
293.55663433671
 30
0.0
 11
284.910968631473
 21
293.55663433671
 31
0.0
  0
LINE
  5
   2AF
  8
0
  6
DASHDOT
 62
     7
 10
221.713210731745
 20
260.322536879511
 30
0.0
 11
221.713210731745
 21
373.671365633496
 31
0.0
  0
LINE
  5
   2B0
  8
0
  6
CONTINUOUS
 62
     7
 10
220.148248666003
 20
373.911766432752
 30
0.0
 11
226.10282338389
 21
372.997057665847
 31
0.0
  0
LINE
  5
   2B1
  8
0
  6
CONTINUOUS
 62
     7
 10
220.40775018762
 20
260.739490057102
 30
0.0
 11
225.450421465992
 21
259.128903032832
 31
0.0
  0
LINE
  5
   2B2
  8
0
  6
CONTINUOUS
 62
   252
 10
288.510967741469
 20
280.356634140015
 30
0.0
 11
289.310968697038
 21
280.356634140015
 31
0.0
  0
LINE
  5
   2B3
  8
0
  6
CONTINUOUS
 62
   252
 10
289.710967759351
 20
280.356634140015
 30
0.0
 11
289.710967759351
 21
342.756635069847
 31
0.0
  0
LINE
  5
   2B4
  8
0
  6
CONTINUOUS
 62
   252
 10
289.310968697038
 20
280.356634140015
 30
0.0
 11
290.510968714919
 21
280.356634140015
 31
0.0
  0
LINE
  5
   2B5
  8
0
  6
CONTINUOUS
 62
   252
 10
290.510967771269
 20
280.356634140015
 30
0.0
 11
290.510967771269
 21
292.356634318829
 31
0.0
  0
LINE
  5
   2B6
  8
0
  6
CONTINUOUS
 62
   252
 10
290.510967771269
 20
330.756634891033
 30
0.0
 11
290.510967771269
 21
342.756635069847
 31
0.0
  0
LINE
  5
   2B7
  8
0
  6
CONTINUOUS
 62
   252
 10
288.510967741469
 20
342.756635069847
 30
0.0
 11
289.310968697038
 21
342.756635069847
 31
0.0
  0
LINE
  5
   2B8
  8
0
  6
CONTINUOUS
 62
   252
 10
289.310968697038
 20
342.756635069847
 30
0.0
 11
290.510968714919
 21
342.756635069847
 31
0.0
  0
LINE
  5
   2B9
  8
0
  6
CONTINUOUS
 62
   252
 10
289.710967759351
 20
292.356634318829
 30
0.0
 11
290.510968714919
 21
292.356634318829
 31
0.0
  0
LINE
  5
   2BA
  8
0
  6
CONTINUOUS
 62
   252
 10
289.710967759351
 20
330.756634891033
 30
0.0
 11
290.510968714919
 21
330.756634891033
 31
0.0
  0
LINE
  5
   2BB
  8
0
  6
CONTINUOUS
 62
     3
 10
288.510967741469
 20
271.242844578708
 30
0.0
 11
288.510967741469
 21
357.823205272469
 31
0.0
  0
LINE
  5
   2BC
  8
0
  6
CONTINUOUS
 62
     3
 10
286.910967717628
 20
271.799366326131
 30
0.0
 11
286.910967717628
 21
358.623205284389
 31
0.0
  0
LINE
  5
   2BD
  8
0
  6
CONTINUOUS
 62
     7
 10
284.970366805787
 20
359.59350574031
 30
0.0
 11
289.894771817415
 21
357.131303234496
 31
0.0
  0
LINE
  5
   2BE
  8
0
  6
CONTINUOUS
 62
     7
 10
285.659783507415
 20
272.234560834031
 30
0.0
 11
290.190236118113
 21
270.65875123031
 31
0.0
  0
INSERT
  5
   2BF
  8
0
  6
CONTINUOUS
 62
     7
  2
*UDIM2399
 10
0.0
 20
0.0
 30
0.0
  0
LINE
  5
   2C0
  8
0
  6
DASHDOT
 62
     7
 10
215.576973383643
 20
315.956634670496
 30
0.0
 11
309.003972566591
 21
315.956634670496
 31
0.0
  0
INSERT
  5
   2C1
  8
0
  6
CONTINUOUS
 62
     7
  2
*UDIM2400
 10
0.0
 20
0.0
 30
0.0
  0
INSERT
  5
   2C2
  8
255
  6
CONTINUOUS
 62
     7
  2
DADO
 10
221.713210731745
 20
358.756635308266
 30
0.0
 41
0.800000011920929
 42
0.800000011920929
 43
0.800000011920929
  0
INSERT
  5
   2C3
  8
255
  6
CONTINUOUS
 62
     7
  2
DADO
 10
221.713210731745
 20
273.156634028708
 30
0.0
 41
0.800000011920929
 42
0.800000011920929
 43
0.800000011920929
  0
TEXT
  5
   2C4
  8
0
  6
CONTINUOUS
 62
     7
 10
216.229367453817
 20
316.77499043039
 30
0.0
 40
2.99999994933605
  1
X
 41
0.933333333333333
 72
     1
 11
217.32936743524
 21
318.274990405058
 31
0.0
 73
     2
  0
INSERT
  5
   2C5
  8
0
  6
CONTINUOUS
 62
     7
  2
*UDIM2401
 10
0.0
 20
0.0
 30
0.0
  0
LINE
  5
   2C6
  8
0
  6
CONTINUOUS
 62
     7
 10
280.113210658291
 20
329.556634873152
 30
0.0
 11
280.113210658291
 21
354.196634629965
 31
0.0
  0
LINE
  5
   2C7
  8
0
  6
CONTINUOUS
 62
     7
 10
286.513210753658
 20
293.55663433671
 30
0.0
 11
286.513210753658
 21
329.556634873152
 31
0.0
  0
LINE
  5
   2C8
  8
0
  6
CONTINUOUS
 62
     7
 10
220.631873100711
 20
346.556635126472
 30
0.0
 11
270.513211458888
 21
346.556635126472
 31
0.0
  0
LINE
  5
   2C9
  8
0
  6
CONTINUOUS
 62
     7
 10
270.513211458888
 20
346.556635126472
 30
0.0
 11
270.513211458888
 21
370.19869024074
 31
0.0
  0
LINE
  5
   2CA
  8
0
  6
CONTINUOUS
 62
     7
 10
270.513211458888
 20
262.013610769044
 30
0.0
 11
270.513211458888
 21
285.356629636884
 31
0.0
  0
LINE
  5
   2CB
  8
0
  6
CONTINUOUS
 62
     7
 10
221.824378715507
 20
285.356629636884
 30
0.0
 11
270.513211458888
 21
285.356629636884
 31
0.0
  0
INSERT
  5
   2CC
  8
0
  6
CONTINUOUS
 62
     7
  2
*UDIM2402
 10
0.0
 20
0.0
 30
0.0
  0
ARC
  5
   2CD
  8
0
  6
DASHDOT
 62
     7
 10
258.913210342386
 20
312.116634613276
 30
0.0
 40
46.7977587224684
 50
341.646738215609
 51
375.744270154323
  0
INSERT
  5
   2CE
  8
0
  6
CONTINUOUS
 62
     7
  2
*UDIM2403
 10
0.0
 20
0.0
 30
0.0
  0
INSERT
  5
   2CF
  8
0
  6
CONTINUOUS
 62
     7
  2
*UDIM2404
 10
0.0
 20
0.0
 30
0.0
  0
INSERT
  5
   2D0
  8
0
  6
CONTINUOUS
 62
     7
  2
*UDIM2405
 10
0.0
 20
0.0
 30
0.0
  0
LINE
  5
   2D1
  8
0
  6
CONTINUOUS
 62
   218
 10
238.113210032443
 20
352.156635209918
 30
0.0
 11
238.113210032443
 21
356.156635269523
 31
0.0
  0
LINE
  5
   2D2
  8
0
  6
CONTINUOUS
 62
     7
 10
264.915454241643
 20
355.356635262484
 30
0.0
 11
264.915454241643
 21
361.756635348086
 31
0.0
  0
LINE
  5
   2D3
  8
0
  6
CONTINUOUS
 62
     7
 10
251.313208338777
 20
355.356635252719
 30
0.0
 11
251.313208338777
 21
361.756635357852
 31
0.0
  0
LINE
  5
   2D4
  8
0
  6
CONTINUOUS
 62
     7
 10
250.913210223178
 20
361.356635358298
 30
0.0
 11
265.315454205336
 21
361.356635358298
 31
0.0
  0
LINE
  5
   2D5
  8
0
  6
CONTINUOUS
 62
     7
 10
250.913210223178
 20
355.756635252272
 30
0.0
 11
265.315454285597
 21
355.756635252272
 31
0.0
  0
LINE
  5
   2D6
  8
0
  6
CONTINUOUS
 62
     7
 10
264.513213773894
 20
276.556630384288
 30
0.0
 11
264.513215058818
 21
270.156630298686
 31
0.0
  0
LINE
  5
   2D7
  8
0
  6
CONTINUOUS
 62
     7
 10
250.510969786176
 20
270.556630213849
 30
0.0
 11
264.913214417434
 21
270.556630942225
 31
0.0
  0
LINE
  5
   2D8
  8
0
  6
CONTINUOUS
 62
     7
 10
250.51097074768
 20
276.1566303945
 30
0.0
 11
264.91321380259
 21
276.1566303945
 31
0.0
  0
LINE
  5
   2D9
  8
0
  6
CONTINUOUS
 62
     7
 10
250.910976103027
 20
270.156629758422
 30
0.0
 11
250.910976103027
 21
276.556629863555
 31
0.0
  0
LINE
  5
   2DA
  8
0
  6
CONTINUOUS
 62
     7
 10
249.313210199336
 20
353.356635227799
 30
0.0
 11
249.313210199336
 21
363.756635382771
 31
0.0
  0
INSERT
  5
   2DB
  8
0
  6
CONTINUOUS
 62
     7
  2
*UDIM2406
 10
0.0
 20
0.0
 30
0.0
  0
INSERT
  5
   2DC
  8
0
  6
CONTINUOUS
 62
     7
  2
*UDIM2407
 10
0.0
 20
0.0
 30
0.0
  0
LINE
  5
   2DD
  8
0
  6
CONTINUOUS
 62
     7
 10
237.313211169064
 20
267.356629609618
 30
0.0
 11
249.710970205263
 21
267.356629609618
 31
0.0
  0
LINE
  5
   2DE
  8
0
  6
CONTINUOUS
 62
     7
 10
238.11321135756
 20
278.956629782472
 30
0.0
 11
248.910970193342
 21
278.956629782472
 31
0.0
  0
LINE
  5
   2DF
  8
0
  6
CONTINUOUS
 62
     7
 10
238.113211180985
 20
267.356629609618
 30
0.0
 11
238.113211180985
 21
278.956629782472
 31
0.0
  0
LINE
  5
   2E0
  8
0
  6
CONTINUOUS
 62
     7
 10
248.910970193342
 20
267.356629609618
 30
0.0
 11
248.910970193342
 21
268.156629745935
 31
0.0
  0
LINE
  5
   2E1
  8
0
  6
CONTINUOUS
 62
     7
 10
237.313211169064
 20
251.3566293712
 30
0.0
 11
237.313211169064
 21
267.356629609618
 31
0.0
  0
LINE
  5
   2E2
  8
0
  6
CONTINUOUS
 62
     7
 10
249.710970205263
 20
251.3566293712
 30
0.0
 11
249.710970205263
 21
267.356629609618
 31
0.0
  0
LINE
  5
   2E3
  8
0
  6
CONTINUOUS
 62
     1
 10
258.113209748235
 20
279.219021208024
 30
0.0
 11
258.313209751215
 21
279.156631070375
 31
0.0
  0
LINE
  5
   2E4
  8
0
  6
CONTINUOUS
 62
     3
 10
259.713209772077
 20
353.885111187823
 30
0.0
 11
259.826159908037
 21
353.885111187823
 31
0.0
  0
LINE
  5
   2E5
  8
0
  6
CONTINUOUS
 62
   212
 10
302.781162094561
 20
327.182615141962
 30
0.0
 11
303.636127514841
 21
323.753538756679
 31
0.0
  0
LINE
  5
   2E6
  8
0
  6
CONTINUOUS
 62
   212
 10
294.672129102815
 20
326.637648017873
 30
0.0
 11
301.879779803759
 21
327.779227740197
 31
0.0
  0
LINE
  5
   2E7
  8
0
  6
CONTINUOUS
 62
   212
 10
290.513211554802
 20
319.004786161298
 30
0.0
 11
296.220429390519
 21
320.427755386068
 31
0.0
  0
LINE
  5
   2E8
  8
0
  6
CONTINUOUS
 62
   212
 10
294.672119844441
 20
326.637646444368
 30
0.0
 11
294.831774946704
 21
325.852960355605
 31
0.0
  0
LINE
  5
   2E9
  8
0
  6
CONTINUOUS
 62
   212
 10
290.513211602069
 20
325.600713499209
 30
0.0
 11
294.672129110759
 21
326.63764809564
 31
0.0
  0
ARC
  5
   2EA
  8
0
  6
CONTINUOUS
 62
   212
 10
302.859890776026
 20
323.56000182233
 30
0.0
 40
0.80000001192102
 50
288.99992011228
 51
373.999956812417
  0
LINE
  5
   2EB
  8
0
  6
CONTINUOUS
 62
   212
 10
296.220429442996
 20
320.427755390065
 30
0.0
 11
303.120344248918
 21
322.80358658709
 31
0.0
  0
LINE
  5
   2EC
  8
0
  6
CONTINUOUS
 62
   212
 10
295.99300100371
 20
321.195541892419
 30
0.0
 11
296.220421360441
 21
320.427753616281
 31
0.0
  0
ARC
  5
   2ED
  8
0
  6
CONTINUOUS
 62
   212
 10
302.004925708878
 20
326.989076791278
 30
0.0
 40
0.800000011920813
 50
14.0000613554676
 51
98.9998789885997
  0
LINE
  5
   2EE
  8
0
  6
CONTINUOUS
 62
     7
 10
286.513210753658
 20
293.55663433671
 30
0.0
 11
286.513210753658
 21
329.556634873152
 31
0.0
  0
LINE
  5
   2EF
  8
0
  6
CONTINUOUS
 62
     7
 10
280.113210658291
 20
329.556634873152
 30
0.0
 11
280.113210658291
 21
354.196634629965
 31
0.0
  0
LINE
  5
   2F0
  8
0
  6
CONTINUOUS
 62
     7
 10
280.113210658291
 20
277.716634711027
 30
0.0
 11
280.113210658291
 21
293.55663433671
 31
0.0
  0
LINE
  5
   2F1
  8
0
  6
CONTINUOUS
 62
     7
 10
273.713211506572
 20
277.156634092331
 30
0.0
 11
277.15321094748
 21
277.156634092331
 31
0.0
  0
LINE
  5
   2F2
  8
0
  6
CONTINUOUS
 62
     7
 10
273.713211506572
 20
354.756635248661
 30
0.0
 11
277.15321094748
 21
354.756635248661
 31
0.0
  0
LINE
  5
   2F3
  8
0
  6
CONTINUOUS
 62
     7
 10
273.713210562924
 20
297.156629812717
 30
0.0
 11
273.713210562924
 21
297.716634246111
 31
0.0
  0
LINE
  5
   2F4
  8
0
  6
CONTINUOUS
 62
     7
 10
273.713210562924
 20
303.556634485722
 30
0.0
 11
273.713210562924
 21
313.556634634733
 31
0.0
  0
LINE
  5
   2F5
  8
0
  6
CONTINUOUS
 62
     7
 10
277.713211566176
 20
293.55663433671
 30
0.0
 11
284.113211661544
 21
293.55663433671
 31
0.0
  0
LINE
  5
   2F6
  8
0
  6
CONTINUOUS
 62
     7
 10
277.713211566176
 20
329.556634873152
 30
0.0
 11
284.113211661544
 21
329.556634873152
 31
0.0
  0
LINE
  5
   2F7
  8
0
  6
CONTINUOUS
 62
     7
 10
273.713211506572
 20
363.156635373831
 30
0.0
 11
277.713211566176
 21
363.156635373831
 31
0.0
  0
LINE
  5
   2F8
  8
0
  6
CONTINUOUS
 62
     7
 10
273.713211506572
 20
268.756633967161
 30
0.0
 11
277.713211566176
 21
268.756633967161
 31
0.0
  0
LINE
  5
   2F9
  8
0
  6
CONTINUOUS
 62
     7
 10
289.710967759351
 20
294.756634354591
 30
0.0
 11
290.513211756911
 21
294.756634354591
 31
0.0
  0
LINE
  5
   2FA
  8
0
  6
CONTINUOUS
 62
     7
 10
289.710967759351
 20
293.55663433671
 30
0.0
 11
290.513211756911
 21
293.55663433671
 31
0.0
  0
LINE
  5
   2FB
  8
0
  6
CONTINUOUS
 62
     7
 10
290.513210813264
 20
293.55663433671
 30
0.0
 11
290.513210813264
 21
294.756634354591
 31
0.0
  0
LINE
  5
   2FC
  8
0
  6
CONTINUOUS
 62
     7
 10
286.513211697307
 20
294.756634354592
 30
0.0
 11
286.910967717628
 21
294.756634354592
 31
0.0
  0
LINE
  5
   2FD
  8
0
  6
CONTINUOUS
 62
     7
 10
286.513211697307
 20
293.556634336711
 30
0.0
 11
286.910967717628
 21
293.556634336711
 31
0.0
  0
LINE
  5
   2FE
  8
0
  6
CONTINUOUS
 62
     7
 10
289.710967759351
 20
329.556634873152
 30
0.0
 11
290.513211756911
 21
329.556634873152
 31
0.0
  0
LINE
  5
   2FF
  8
0
  6
CONTINUOUS
 62
     7
 10
289.710967759351
 20
328.35663485527
 30
0.0
 11
290.513211756911
 21
328.35663485527
 31
0.0
  0
LINE
  5
   300
  8
0
  6
CONTINUOUS
 62
     7
 10
290.513210813264
 20
328.35663485527
 30
0.0
 11
290.513210813264
 21
329.556634873152
 31
0.0
  0
LINE
  5
   301
  8
0
  6
CONTINUOUS
 62
     7
 10
286.513211697307
 20
329.556634873153
 30
0.0
 11
286.910967717628
 21
329.556634873153
 31
0.0
  0
LINE
  5
   302
  8
0
  6
CONTINUOUS
 62
     7
 10
286.513211697307
 20
328.356634855271
 30
0.0
 11
286.910967717628
 21
328.356634855271
 31
0.0
  0
LINE
  5
   303
  8
0
  6
CONTINUOUS
 62
     7
 10
274.27320907351
 20
277.716634100675
 30
0.0
 11
277.713211566176
 21
277.716634100675
 31
0.0
  0
LINE
  5
   304
  8
0
  6
CONTINUOUS
 62
     7
 10
274.27320907351
 20
354.196635240316
 30
0.0
 11
277.713211566176
 21
354.196635240316
 31
0.0
  0
LINE
  5
   305
  8
0
  6
CONTINUOUS
 62
     7
 10
274.273210571268
 20
277.716634711027
 30
0.0
 11
274.273210571268
 21
354.196634629965
 31
0.0
  0
LINE
  5
   306
  8
0
  6
CONTINUOUS
 62
     7
 10
273.713211506572
 20
341.556635051971
 30
0.0
 11
274.27320907351
 21
341.556635051971
 31
0.0
  0
LINE
  5
   307
  8
0
  6
CONTINUOUS
 62
     7
 10
273.713211506572
 20
351.156635195022
 30
0.0
 11
274.27320907351
 21
351.156635195022
 31
0.0
  0
LINE
  5
   308
  8
0
  6
CONTINUOUS
 62
     7
 10
278.513210634449
 20
268.756633967161
 30
0.0
 11
278.513210634449
 21
277.156634092331
 31
0.0
  0
LINE
  5
   309
  8
0
  6
CONTINUOUS
 62
     7
 10
277.713211566176
 20
268.756633967161
 30
0.0
 11
278.513211578097
 21
268.756633967161
 31
0.0
  0
LINE
  5
   30A
  8
0
  6
CONTINUOUS
 62
     7
 10
278.513210634449
 20
354.756635248661
 30
0.0
 11
278.513210634449
 21
363.156635373831
 31
0.0
  0
LINE
  5
   30B
  8
0
  6
CONTINUOUS
 62
     7
 10
277.713211566176
 20
363.156635373836
 30
0.0
 11
278.513211578097
 21
363.156635373836
 31
0.0
  0
LINE
  5
   30C
  8
0
  6
CONTINUOUS
 62
     7
 10
279.553210649946
 20
277.156634092331
 30
0.0
 11
279.553210649946
 21
277.716634711027
 31
0.0
  0
LINE
  5
   30D
  8
0
  6
CONTINUOUS
 62
     7
 10
277.15321094748
 20
277.156634092331
 30
0.0
 11
279.553210983243
 21
277.156634092331
 31
0.0
  0
LINE
  5
   30E
  8
0
  6
CONTINUOUS
 62
     7
 10
279.553210649946
 20
354.196634629965
 30
0.0
 11
279.553210649946
 21
354.756635248661
 31
0.0
  0
LINE
  5
   30F
  8
0
  6
CONTINUOUS
 62
     7
 10
277.15321094748
 20
354.756635248661
 30
0.0
 11
279.553210983243
 21
354.756635248661
 31
0.0
  0
LINE
  5
   310
  8
0
  6
CONTINUOUS
 62
     7
 10
277.713211566176
 20
354.196635240316
 30
0.0
 11
280.072531669692
 21
354.196635240316
 31
0.0
  0
LINE
  5
   311
  8
0
  6
CONTINUOUS
 62
     7
 10
277.713211566176
 20
277.716634100675
 30
0.0
 11
280.072531669692
 21
277.716634100675
 31
0.0
  0
LINE
  5
   312
  8
0
  6
CONTINUOUS
 62
     7
 10
284.113211661544
 20
293.55663433671
 30
0.0
 11
286.47253176506
 21
293.55663433671
 31
0.0
  0
LINE
  5
   313
  8
0
  6
CONTINUOUS
 62
     7
 10
284.113211661544
 20
329.556634873152
 30
0.0
 11
286.47253176506
 21
329.556634873152
 31
0.0
  0
LINE
  5
   314
  8
0
  6
CONTINUOUS
 62
     7
 10
280.113210658291
 20
277.716634711027
 30
0.0
 11
280.113210658291
 21
293.55663433671
 31
0.0
  0
LINE
  5
   315
  8
0
  6
CONTINUOUS
 62
     7
 10
280.072531669692
 20
277.716634100675
 30
0.0
 11
280.113211601939
 21
277.716634100675
 31
0.0
  0
LINE
  5
   316
  8
0
  6
CONTINUOUS
 62
     7
 10
280.113210658291
 20
329.556634873152
 30
0.0
 11
280.113210658291
 21
354.196634629965
 31
0.0
  0
LINE
  5
   317
  8
0
  6
CONTINUOUS
 62
     7
 10
280.072531669692
 20
354.196635240316
 30
0.0
 11
280.113211601939
 21
354.196635240316
 31
0.0
  0
LINE
  5
   318
  8
0
  6
CONTINUOUS
 62
     7
 10
286.513210753658
 20
293.55663433671
 30
0.0
 11
286.513210753658
 21
329.556634873152
 31
0.0
  0
LINE
  5
   319
  8
0
  6
CONTINUOUS
 62
     7
 10
286.47253176506
 20
293.55663433671
 30
0.0
 11
286.513211697307
 21
293.55663433671
 31
0.0
  0
LINE
  5
   31A
  8
0
  6
CONTINUOUS
 62
     7
 10
286.47253176506
 20
329.556634873152
 30
0.0
 11
286.513211697307
 21
329.556634873152
 31
0.0
  0
LINE
  5
   31B
  8
0
  6
CONTINUOUS
 62
     2
 10
266.113211682606
 20
281.75662958324
 30
0.0
 11
266.113211682606
 21
285.356629636884
 31
0.0
  0
LINE
  5
   31C
  8
0
  6
CONTINUOUS
 62
     7
 10
224.113209823827
 20
285.356629636884
 30
0.0
 11
224.113209823827
 21
289.156631219387
 31
0.0
  0
LINE
  5
   31D
  8
0
  6
CONTINUOUS
 62
     7
 10
238.913210044364
 20
297.156634390354
 30
0.0
 11
238.913210044364
 21
301.396634606123
 31
0.0
  0
LINE
  5
   31E
  8
0
  6
CONTINUOUS
 62
     7
 10
224.113209823827
 20
297.156634390354
 30
0.0
 11
224.113209823827
 21
301.396634606123
 31
0.0
  0
LINE
  5
   31F
  8
0
  6
CONTINUOUS
 62
     7
 10
224.11321091132
 20
289.156631219387
 30
0.0
 11
224.11321091132
 21
297.156634390354
 31
0.0
  0
LINE
  5
   320
  8
0
  6
CONTINUOUS
 62
     7
 10
238.913210225072
 20
297.156632912075
 30
0.0
 11
259.55321068522
 21
297.156631673158
 31
0.0
  0
LINE
  5
   321
  8
0
  6
CONTINUOUS
 62
     7
 10
238.913210044364
 20
301.396634606123
 30
0.0
 11
238.913210044364
 21
301.956630265713
 31
0.0
  0
LINE
  5
   322
  8
0
  6
CONTINUOUS
 62
     7
 10
224.113209823827
 20
301.396634606123
 30
0.0
 11
224.113209823827
 21
301.956630265713
 31
0.0
  0
LINE
  5
   323
  8
0
  6
CONTINUOUS
 62
     7
 10
224.113209241595
 20
301.396634453535
 30
0.0
 11
238.913210225072
 21
301.396634453535
 31
0.0
  0
LINE
  5
   324
  8
0
  6
CONTINUOUS
 62
     2
 10
237.420391039732
 20
282.956629790605
 30
0.0
 11
238.913211417892
 21
282.556629775832
 31
0.0
  0
LINE
  5
   325
  8
0
  6
CONTINUOUS
 62
     2
 10
225.313210785356
 20
282.956629842076
 30
0.0
 11
237.42039098896
 21
282.956629842076
 31
0.0
  0
LINE
  5
   326
  8
0
  6
CONTINUOUS
 62
     2
 10
225.313211074638
 20
282.956629601121
 30
0.0
 11
225.313211074638
 21
284.556629624963
 31
0.0
  0
LINE
  5
   327
  8
0
  6
CONTINUOUS
 62
     2
 10
225.313210785356
 20
284.556629865918
 30
0.0
 11
226.620390065088
 21
284.556629865918
 31
0.0
  0
LINE
  5
   328
  8
0
  6
CONTINUOUS
 62
     2
 10
226.620390046489
 20
284.556629694373
 30
0.0
 11
228.113210780565
 21
284.956629804513
 31
0.0
  0
LINE
  5
   329
  8
0
  6
CONTINUOUS
 62
     2
 10
228.113210827079
 20
284.956629871879
 30
0.0
 11
237.82039099492
 21
284.956629871879
 31
0.0
  0
LINE
  5
   32A
  8
0
  6
CONTINUOUS
 62
     2
 10
237.820390925215
 20
284.956629891068
 30
0.0
 11
239.313211303375
 21
285.356629905841
 31
0.0
  0
LINE
  5
   32B
  8
0
  6
CONTINUOUS
 62
     2
 10
236.113210946288
 20
280.556629806314
 30
0.0
 11
236.324379620089
 21
280.556629806314
 31
0.0
  0
LINE
  5
   32C
  8
0
  6
CONTINUOUS
 62
     2
 10
230.513209919194
 20
278.956631067395
 30
0.0
 11
230.513209919194
 21
279.356631073356
 31
0.0
  0
LINE
  5
   32D
  8
0
  6
CONTINUOUS
 62
     2
 10
228.913209895352
 20
278.956631067395
 30
0.0
 11
228.913209895352
 21
279.356631073356
 31
0.0
  0
LINE
  5
   32E
  8
0
  6
CONTINUOUS
 62
     2
 10
232.113210123744
 20
263.956629558954
 30
0.0
 11
237.313211169064
 21
263.956629558954
 31
0.0
  0
LINE
  5
   32F
  8
0
  6
CONTINUOUS
 62
     2
 10
249.710970205263
 20
263.956629558954
 30
0.0
 11
258.113209748235
 21
263.956629558954
 31
0.0
  0
LINE
  5
   330
  8
0
  6
CONTINUOUS
 62
     2
 10
224.113209241595
 20
263.956629558954
 30
0.0
 11
225.073209866252
 21
263.956629558954
 31
0.0
  0
LINE
  5
   331
  8
0
  6
CONTINUOUS
 62
     2
 10
224.113209823827
 20
276.596630421877
 30
0.0
 11
224.113209823827
 21
279.356631073356
 31
0.0
  0
LINE
  5
   332
  8
0
  6
CONTINUOUS
 62
     2
 10
224.113209823827
 20
263.956630843878
 30
0.0
 11
224.113209823827
 21
270.116628494263
 31
0.0
  0
LINE
  5
   333
  8
0
  6
CONTINUOUS
 62
     2
 10
266.113211662703
 20
278.156631055474
 30
0.0
 11
266.113211662703
 21
278.556631061435
 31
0.0
  0
LINE
  5
   334
  8
0
  6
CONTINUOUS
 62
     2
 10
258.513210336427
 20
276.556631031632
 30
0.0
 11
258.513210336427
 21
276.756627982855
 31
0.0
  0
LINE
  5
   335
  8
0
  6
CONTINUOUS
 62
     2
 10
258.513210336427
 20
269.956627881527
 30
0.0
 11
258.513210336427
 21
270.156627884507
 31
0.0
  0
LINE
  5
   336
  8
0
  6
CONTINUOUS
 62
     2
 10
259.713210587321
 20
269.956627881527
 30
0.0
 11
259.713210587321
 21
270.156627884507
 31
0.0
  0
LINE
  5
   337
  8
0
  6
CONTINUOUS
 62
     2
 10
259.713210587321
 20
276.556631031632
 30
0.0
 11
259.713210587321
 21
276.756627982855
 31
0.0
  0
LINE
  5
   338
  8
0
  6
CONTINUOUS
 62
     2
 10
260.913211711268
 20
278.156631055474
 30
0.0
 11
260.913211711268
 21
278.356631058455
 31
0.0
  0
LINE
  5
   339
  8
0
  6
CONTINUOUS
 62
     2
 10
260.913211711268
 20
268.356630909443
 30
0.0
 11
260.913211711268
 21
268.556630912423
 31
0.0
  0
LINE
  5
   33A
  8
0
  6
CONTINUOUS
 62
     7
 10
228.713209310141
 20
278.156629770551
 30
0.0
 11
228.913209313121
 21
278.156629770551
 31
0.0
  0
LINE
  5
   33B
  8
0
  6
CONTINUOUS
 62
     7
 10
227.31320987151
 20
277.756631049514
 30
0.0
 11
227.31320987151
 21
278.156631055474
 31
0.0
  0
LINE
  5
   33C
  8
0
  6
CONTINUOUS
 62
     7
 10
230.513209336963
 20
278.156629770551
 30
0.0
 11
230.713209339943
 21
278.156629770551
 31
0.0
  0
LINE
  5
   33D
  8
0
  6
CONTINUOUS
 62
     7
 10
232.113209943036
 20
277.756631049514
 30
0.0
 11
232.113209943036
 21
278.156631055474
 31
0.0
  0
LINE
  5
   33E
  8
0
  6
CONTINUOUS
 62
     7
 10
266.113211675971
 20
278.556631061435
 30
0.0
 11
266.113211675971
 21
279.356631073356
 31
0.0
  0
LINE
  5
   33F
  8
0
  6
CONTINUOUS
 62
     7
 10
266.113211682606
 20
281.356629577279
 30
0.0
 11
266.113211682606
 21
281.75662958324
 31
0.0
  0
LINE
  5
   340
  8
0
  6
CONTINUOUS
 62
     7
 10
264.913211375442
 20
281.756629829453
 30
0.0
 11
266.113209867444
 21
281.756629829453
 31
0.0
  0
LINE
  5
   341
  8
0
  6
CONTINUOUS
 62
     7
 10
264.913211664724
 20
281.356629577279
 30
0.0
 11
264.913211664724
 21
281.75662958324
 31
0.0
  0
LINE
  5
   342
  8
0
  6
CONTINUOUS
 62
     1
 10
258.113209748235
 20
263.956629558954
 30
0.0
 11
258.513209754195
 21
263.956629558954
 31
0.0
  0
LINE
  5
   343
  8
0
  6
CONTINUOUS
 62
     2
 10
264.113211363521
 20
280.556629811572
 30
0.0
 11
266.113209867444
 21
280.556629811572
 31
0.0
  0
LINE
  5
   344
  8
0
  6
CONTINUOUS
 62
     1
 10
266.113210449676
 20
279.356631073356
 30
0.0
 11
266.113210449676
 21
280.556629565358
 31
0.0
  0
LINE
  5
   345
  8
0
  6
CONTINUOUS
 62
     2
 10
263.713215935197
 20
279.35662979369
 30
0.0
 11
266.113209867444
 21
279.35662979369
 31
0.0
  0
LINE
  5
   346
  8
0
  6
CONTINUOUS
 62
     1
 10
266.113211682606
 20
280.556629565358
 30
0.0
 11
266.113211682606
 21
281.356629577279
 31
0.0
  0
LINE
  5
   347
  8
0
  6
CONTINUOUS
 62
     1
 10
264.913211664724
 20
280.556629565358
 30
0.0
 11
264.913211664724
 21
281.356629577279
 31
0.0
  0
LINE
  5
   348
  8
0
  6
CONTINUOUS
 62
     7
 10
225.31321099025
 20
280.556629565358
 30
0.0
 11
225.31321099025
 21
282.956629601121
 31
0.0
  0
LINE
  5
   349
  8
0
  6
CONTINUOUS
 62
     7
 10
225.31321099025
 20
284.556629624963
 30
0.0
 11
225.31321099025
 21
285.356629636884
 31
0.0
  0
LINE
  5
   34A
  8
0
  6
CONTINUOUS
 62
     7
 10
259.553210351924
 20
285.356629636884
 30
0.0
 11
259.553210351924
 21
289.156629693508
 31
0.0
  0
LINE
  5
   34B
  8
0
  6
CONTINUOUS
 62
     7
 10
259.553210351924
 20
289.156629693508
 30
0.0
 11
259.553210351924
 21
297.156634390354
 31
0.0
  0
LINE
  5
   34C
  8
0
  6
CONTINUOUS
 62
     7
 10
259.55321068522
 20
297.156630053673
 30
0.0
 11
260.113209778037
 21
297.156630053673
 31
0.0
  0
LINE
  5
   34D
  8
0
  6
CONTINUOUS
 62
     7
 10
230.513209336963
 20
263.956629558954
 30
0.0
 11
232.113210123744
 21
263.956629558954
 31
0.0
  0
LINE
  5
   34E
  8
0
  6
CONTINUOUS
 62
     7
 10
232.113209943036
 20
263.956630843878
 30
0.0
 11
232.113209943036
 21
264.633553461387
 31
0.0
  0
LINE
  5
   34F
  8
0
  6
CONTINUOUS
 62
     2
 10
238.11321135756
 20
280.556629811572
 30
0.0
 11
263.713215935197
 21
280.556629811572
 31
0.0
  0
LINE
  5
   350
  8
0
  6
CONTINUOUS
 62
     7
 10
258.513209754195
 20
263.956629558954
 30
0.0
 11
260.913209789958
 21
263.956629558954
 31
0.0
  0
LINE
  5
   351
  8
0
  6
CONTINUOUS
 62
     2
 10
238.113211180985
 20
279.356631073356
 30
0.0
 11
238.113211180985
 21
280.556629565358
 31
0.0
  0
LINE
  5
   352
  8
0
  6
CONTINUOUS
 62
     2
 10
238.11321135756
 20
279.356629788432
 30
0.0
 11
258.113209748235
 21
279.356629788432
 31
0.0
  0
LINE
  5
   353
  8
0
  6
CONTINUOUS
 62
     2
 10
258.513210336427
 20
276.756627982855
 30
0.0
 11
258.513210336427
 21
278.956631067395
 31
0.0
  0
LINE
  5
   354
  8
0
  6
CONTINUOUS
 62
     2
 10
258.513210336427
 20
263.956630843878
 30
0.0
 11
258.513210336427
 21
269.956627881527
 31
0.0
  0
LINE
  5
   355
  8
0
  6
CONTINUOUS
 62
     2
 10
260.913210372189
 20
263.956630843878
 30
0.0
 11
260.913210372189
 21
268.356630909443
 31
0.0
  0
LINE
  5
   356
  8
0
  6
CONTINUOUS
 62
     2
 10
260.913210372189
 20
278.356631058455
 30
0.0
 11
260.913210372189
 21
278.556631061435
 31
0.0
  0
LINE
  5
   357
  8
0
  6
CONTINUOUS
 62
     2
 10
261.713211327758
 20
279.35662979369
 30
0.0
 11
263.713215935197
 21
279.35662979369
 31
0.0
  0
LINE
  5
   358
  8
0
  6
CONTINUOUS
 62
     2
 10
258.513209754195
 20
276.756629749666
 30
0.0
 11
259.713211297955
 21
276.756629749666
 31
0.0
  0
LINE
  5
   359
  8
0
  6
CONTINUOUS
 62
     2
 10
258.513209754195
 20
269.956629648385
 30
0.0
 11
259.713211297955
 21
269.956629648385
 31
0.0
  0
LINE
  5
   35A
  8
0
  6
CONTINUOUS
 62
     2
 10
259.713210587321
 20
268.356627857685
 30
0.0
 11
259.713210587321
 21
269.956627881527
 31
0.0
  0
LINE
  5
   35B
  8
0
  6
CONTINUOUS
 62
     2
 10
259.713210587321
 20
276.756627982855
 30
0.0
 11
259.713210587321
 21
278.356631058455
 31
0.0
  0
LINE
  5
   35C
  8
0
  6
CONTINUOUS
 62
     2
 10
259.713211297955
 20
278.356629773515
 30
0.0
 11
260.913209789958
 21
278.356629773515
 31
0.0
  0
LINE
  5
   35D
  8
0
  6
CONTINUOUS
 62
     2
 10
259.713211297955
 20
268.356629624535
 30
0.0
 11
260.913209789958
 21
268.356629624535
 31
0.0
  0
ARC
  5
   35E
  8
0
  6
CONTINUOUS
 62
     7
 10
261.713211723189
 20
278.556629781769
 30
0.0
 40
0.800000011921027
 50
90.0000283205989
 51
179.99990835544
  0
ARC
  5
   35F
  8
0
  6
CONTINUOUS
 62
     1
 10
258.113210330466
 20
278.956629782471
 30
0.0
 40
0.400000005960823
 50
1.84051110160399E-4
 51
90.0000833981933
  0
LINE
  5
   360
  8
0
  6
CONTINUOUS
 62
     1
 10
263.713216548835
 20
279.356631073356
 30
0.0
 11
263.713216548835
 21
280.556629565358
 31
0.0
  0
LINE
  5
   361
  8
0
  6
CONTINUOUS
 62
     1
 10
290.513210813264
 20
294.996634510756
 30
0.0
 11
290.513210813264
 21
328.116635462046
 31
0.0
  0
LINE
  5
   362
  8
0
  6
CONTINUOUS
 62
     1
 10
286.513211697307
 20
294.836634355783
 30
0.0
 11
286.910967717628
 21
294.836634355783
 31
0.0
  0
LINE
  5
   363
  8
0
  6
CONTINUOUS
 62
     1
 10
286.513211697307
 20
328.276634854078
 30
0.0
 11
286.910967717628
 21
328.276634854078
 31
0.0
  0
LINE
  5
   364
  8
0
  6
CONTINUOUS
 62
     1
 10
289.710967759351
 20
328.276634854078
 30
0.0
 11
290.353189781871
 21
328.276634854078
 31
0.0
  0
ARC
  5
   365
  8
0
  6
CONTINUOUS
 62
     1
 10
290.353210810753
 20
328.116634851568
 30
0.0
 40
0.160000002383327
 50
2.18611071775736E-4
 51
90.0075304280183
  0
LINE
  5
   366
  8
0
  6
CONTINUOUS
 62
     1
 10
289.710967759351
 20
294.836634355783
 30
0.0
 11
290.353211144176
 21
294.836634355783
 31
0.0
  0
ARC
  5
   367
  8
0
  6
CONTINUOUS
 62
     1
 10
290.353212378084
 20
294.996632790963
 30
0.0
 40
0.160000002382884
 50
269.99955813384
 51
360.000615857297
  0
LINE
  5
   368
  8
0
  6
CONTINUOUS
 62
    58
 10
242.513210098008
 20
363.756635382772
 30
0.0
 11
242.513210098008
 21
367.956635445356
 31
0.0
  0
LINE
  5
   369
  8
0
  6
CONTINUOUS
 62
    58
 10
242.513210098008
 20
352.956635221839
 30
0.0
 11
242.513210098008
 21
353.356635227799
 31
0.0
  0
LINE
  5
   36A
  8
0
  6
CONTINUOUS
 62
    58
 10
241.713210086087
 20
363.756635382772
 30
0.0
 11
241.713210086087
 21
367.956635445356
 31
0.0
  0
LINE
  5
   36B
  8
0
  6
CONTINUOUS
 62
    58
 10
241.713210086087
 20
352.956635221839
 30
0.0
 11
241.713210086087
 21
353.356635227799
 31
0.0
  0
LINE
  5
   36C
  8
0
  6
CONTINUOUS
 62
    58
 10
236.913210014562
 20
363.756635382772
 30
0.0
 11
236.913210014562
 21
367.956635445356
 31
0.0
  0
LINE
  5
   36D
  8
0
  6
CONTINUOUS
 62
    58
 10
237.713210026482
 20
363.756635382772
 30
0.0
 11
237.713210026482
 21
367.956635445356
 31
0.0
  0
LINE
  5
   36E
  8
0
  6
CONTINUOUS
 62
    58
 10
232.113210123744
 20
367.956635445356
 30
0.0
 11
236.91321019527
 21
367.956635445356
 31
0.0
  0
LINE
  5
   36F
  8
0
  6
CONTINUOUS
 62
    58
 10
242.513210087981
 20
367.956635445356
 30
0.0
 11
255.313210469451
 21
367.956635445356
 31
0.0
  0
LINE
  5
   370
  8
0
  6
CONTINUOUS
 62
    58
 10
241.71321007606
 20
367.956635445356
 30
0.0
 11
242.513210087981
 21
367.956635445356
 31
0.0
  0
LINE
  5
   371
  8
0
  6
CONTINUOUS
 62
    58
 10
237.71321020719
 20
367.956635445356
 30
0.0
 11
241.71321007606
 21
367.956635445356
 31
0.0
  0
LINE
  5
   372
  8
0
  6
CONTINUOUS
 62
    58
 10
236.91321019527
 20
367.956635445356
 30
0.0
 11
237.71321020719
 21
367.956635445356
 31
0.0
  0
LINE
  5
   373
  8
0
  6
CONTINUOUS
 62
    58
 10
259.713210354308
 20
346.556635126472
 30
0.0
 11
259.713210354308
 21
350.556635186076
 31
0.0
  0
LINE
  5
   374
  8
0
  6
CONTINUOUS
 62
    58
 10
224.113209823827
 20
301.95663446188
 30
0.0
 11
224.113209823827
 21
304.356634497643
 31
0.0
  0
LINE
  5
   375
  8
0
  6
CONTINUOUS
 62
    58
 10
224.113209823827
 20
312.756634622812
 30
0.0
 11
224.113209823827
 21
346.556635126472
 31
0.0
  0
LINE
  5
   376
  8
0
  6
CONTINUOUS
 62
    58
 10
235.313210171428
 20
352.556635215878
 30
0.0
 11
236.113210183349
 21
352.556635215878
 31
0.0
  0
LINE
  5
   377
  8
0
  6
CONTINUOUS
 62
    58
 10
238.113210213151
 20
352.556635215878
 30
0.0
 11
255.313210469451
 21
352.556635215878
 31
0.0
  0
LINE
  5
   378
  8
0
  6
CONTINUOUS
 62
    58
 10
255.713210294703
 20
352.956635221839
 30
0.0
 11
255.713210294703
 21
353.356635227799
 31
0.0
  0
LINE
  5
   379
  8
0
  6
CONTINUOUS
 62
    58
 10
258.513210336427
 20
361.756635352969
 30
0.0
 11
258.513210336427
 21
363.756635382772
 31
0.0
  0
LINE
  5
   37A
  8
0
  6
CONTINUOUS
 62
    58
 10
258.513210336427
 20
351.356635197997
 30
0.0
 11
258.513210336427
 21
355.356635257602
 31
0.0
  0
LINE
  5
   37B
  8
0
  6
CONTINUOUS
 62
    58
 10
259.713210354308
 20
362.956635370851
 30
0.0
 11
259.713210354308
 21
363.276300902958
 31
0.0
  0
LINE
  5
   37C
  8
0
  6
CONTINUOUS
 62
    58
 10
259.713210354308
 20
351.356635197997
 30
0.0
 11
259.713210354308
 21
354.15663523972
 31
0.0
  0
LINE
  5
   37D
  8
0
  6
CONTINUOUS
 62
    58
 10
224.113209241595
 20
367.956635445356
 30
0.0
 11
225.073209866252
 21
367.956635445356
 31
0.0
  0
LINE
  5
   37E
  8
0
  6
CONTINUOUS
 62
    58
 10
224.113209823827
 20
361.796637794972
 30
0.0
 11
224.113209823827
 21
367.956635445356
 31
0.0
  0
LINE
  5
   37F
  8
0
  6
CONTINUOUS
 62
    58
 10
224.113209823827
 20
352.556635215879
 30
0.0
 11
224.113209823827
 21
355.316635867357
 31
0.0
  0
LINE
  5
   380
  8
0
  6
CONTINUOUS
 62
    58
 10
237.902040776411
 20
351.356635197997
 30
0.0
 11
258.513209754195
 21
351.356635197997
 31
0.0
  0
LINE
  5
   381
  8
0
  6
CONTINUOUS
 62
    58
 10
258.513209754195
 20
351.356635197997
 30
0.0
 11
259.713209772077
 21
351.356635197997
 31
0.0
  0
LINE
  5
   382
  8
0
  6
CONTINUOUS
 62
    58
 10
227.31320987151
 20
353.75663523376
 30
0.0
 11
227.31320987151
 21
354.15663523972
 31
0.0
  0
LINE
  5
   383
  8
0
  6
CONTINUOUS
 62
    58
 10
232.113209943036
 20
353.75663523376
 30
0.0
 11
232.113209943036
 21
354.15663523972
 31
0.0
  0
LINE
  5
   384
  8
0
  6
CONTINUOUS
 62
    58
 10
259.713210354308
 20
350.556635186076
 30
0.0
 11
259.713210354308
 21
351.356635197997
 31
0.0
  0
LINE
  5
   385
  8
0
  6
CONTINUOUS
 62
    58
 10
224.113209241595
 20
301.95663446188
 30
0.0
 11
238.913210225072
 21
301.95663446188
 31
0.0
  0
LINE
  5
   386
  8
0
  6
CONTINUOUS
 62
    58
 10
251.713210235099
 20
297.156634390354
 30
0.0
 11
251.713210235099
 21
297.716634246111
 31
0.0
  0
LINE
  5
   387
  8
0
  6
CONTINUOUS
 62
    58
 10
250.353210214833
 20
297.716634246111
 30
0.0
 11
250.353210214833
 21
304.356634497643
 31
0.0
  0
LINE
  5
   388
  8
0
  6
CONTINUOUS
 62
    58
 10
250.353210214833
 20
312.756634622812
 30
0.0
 11
250.353210214833
 21
319.32104512102
 31
0.0
  0
LINE
  5
   389
  8
0
  6
CONTINUOUS
 62
    58
 10
250.353210081081
 20
319.32104539067
 30
0.0
 11
258.353209844829
 21
333.177451442021
 31
0.0
  0
LINE
  5
   38A
  8
0
  6
CONTINUOUS
 62
    58
 10
258.353210334042
 20
333.177450967145
 30
0.0
 11
258.353210334042
 21
346.556635126472
 31
0.0
  0
LINE
  5
   38B
  8
0
  6
CONTINUOUS
 62
    58
 10
239.473210080829
 20
297.716634398699
 30
0.0
 11
250.353210548129
 21
297.716634398699
 31
0.0
  0
LINE
  5
   38C
  8
0
  6
CONTINUOUS
 62
    58
 10
238.913210225072
 20
301.95663446188
 30
0.0
 11
239.473210080829
 21
301.95663446188
 31
0.0
  0
LINE
  5
   38D
  8
0
  6
CONTINUOUS
 62
    58
 10
239.473210052709
 20
297.716634246111
 30
0.0
 11
239.473210052709
 21
301.95663446188
 31
0.0
  0
LINE
  5
   38E
  8
0
  6
CONTINUOUS
 62
    58
 10
230.513209336963
 20
367.956635445356
 30
0.0
 11
232.113210123744
 21
367.956635445356
 31
0.0
  0
LINE
  5
   38F
  8
0
  6
CONTINUOUS
 62
    58
 10
232.113209943036
 20
367.279712827848
 30
0.0
 11
232.113209943036
 21
367.956635445356
 31
0.0
  0
LINE
  5
   390
  8
0
  6
CONTINUOUS
 62
     1
 10
224.113209241595
 20
304.356634495633
 30
0.0
 11
250.353210548129
 21
304.356634495633
 31
0.0
  0
LINE
  5
   391
  8
0
  6
CONTINUOUS
 62
    58
 10
250.353210548129
 20
303.956634489673
 30
0.0
 11
250.913210403886
 21
303.956634489673
 31
0.0
  0
LINE
  5
   392
  8
0
  6
CONTINUOUS
 62
    58
 10
251.713210235099
 20
304.356634497643
 30
0.0
 11
251.713210235099
 21
312.756634622812
 31
0.0
  0
LINE
  5
   393
  8
0
  6
CONTINUOUS
 62
    58
 10
225.313209841708
 20
304.356634497643
 30
0.0
 11
225.313209841708
 21
309.356634572148
 31
0.0
  0
LINE
  5
   394
  8
0
  6
CONTINUOUS
 62
     1
 10
224.113210586766
 20
309.356634572148
 30
0.0
 11
224.113210586766
 21
312.756634622812
 31
0.0
  0
LINE
  5
   395
  8
0
  6
CONTINUOUS
 62
    58
 10
224.113209241595
 20
309.356634572148
 30
0.0
 11
225.313209259477
 21
309.356634572148
 31
0.0
  0
LINE
  5
   396
  8
0
  6
CONTINUOUS
 62
    58
 10
250.353210548129
 20
313.156634626763
 30
0.0
 11
250.913210403886
 21
313.156634626763
 31
0.0
  0
LINE
  5
   397
  8
0
  6
CONTINUOUS
 62
     1
 10
224.113209241595
 20
312.756634622812
 30
0.0
 11
250.353210548129
 21
312.756634622812
 31
0.0
  0
ARC
  5
   398
  8
0
  6
CONTINUOUS
 62
     3
 10
255.313210288743
 20
352.956635221839
 30
0.0
 40
0.400000005960505
 50
270.000025884557
 51
360.0
  0
POLYLINE
  5
   399
  8
0
  6
CONTINUOUS
 62
     3
 66
     1
 10
0.0
 20
0.0
 30
0.0
  0
VERTEX
  5
   39A
  8
0
  6
CONTINUOUS
 10
242.513210098008
 20
352.956635221839
 30
0.0
 40
0.0
 41
0.0
  0
VERTEX
  5
   39B
  8
0
  6
CONTINUOUS
 10
242.409090924245
 20
352.585274008728
 30
0.0
 40
0.0
 41
0.0
  0
VERTEX
  5
   39C
  8
0
  6
CONTINUOUS
 10
242.347524677293
 20
352.556635215878
 30
0.0
 40
0.0
 41
0.0
  0
SEQEND
  5
   39D
  8
0
  6
CONTINUOUS
 62
     3
  0
POLYLINE
  5
   39E
  8
0
  6
CONTINUOUS
 62
     3
 66
     1
 10
0.0
 20
0.0
 30
0.0
  0
VERTEX
  5
   39F
  8
0
  6
CONTINUOUS
 10
241.713210086087
 20
352.956635221839
 30
0.0
 40
0.0
 41
0.0
  0
VERTEX
  5
   3A0
  8
0
  6
CONTINUOUS
 10
241.609090912324
 20
352.585274008728
 30
0.0
 40
0.0
 41
0.0
  0
VERTEX
  5
   3A1
  8
0
  6
CONTINUOUS
 10
241.547524665372
 20
352.556635215878
 30
0.0
 40
0.0
 41
0.0
  0
SEQEND
  5
   3A2
  8
0
  6
CONTINUOUS
 62
     3
  0
LINE
  5
   3A3
  8
0
  6
CONTINUOUS
 62
     3
 10
255.313210469451
 20
367.956635445356
 30
0.0
 11
255.713210475411
 21
367.956635445356
 31
0.0
  0
LINE
  5
   3A4
  8
0
  6
CONTINUOUS
 62
     2
 10
232.113210123744
 20
352.556635215878
 30
0.0
 11
235.313210171428
 21
352.556635215878
 31
0.0
  0
LINE
  5
   3A5
  8
0
  6
CONTINUOUS
 62
     2
 10
255.713210294703
 20
363.756635382772
 30
0.0
 11
255.713210294703
 21
367.956635445356
 31
0.0
  0
LINE
  5
   3A6
  8
0
  6
CONTINUOUS
 62
    58
 10
255.713210475411
 20
367.956635445356
 30
0.0
 11
259.713209772077
 21
367.956635445356
 31
0.0
  0
LINE
  5
   3A7
  8
0
  6
CONTINUOUS
 62
    58
 10
259.713210354308
 20
364.956635400653
 30
0.0
 11
259.713210354308
 21
367.956635445356
 31
0.0
  0
LINE
  5
   3A8
  8
0
  6
CONTINUOUS
 62
    58
 10
224.113209823827
 20
346.556635126472
 30
0.0
 11
224.113209823827
 21
352.556635215879
 31
0.0
  0
LINE
  5
   3A9
  8
0
  6
CONTINUOUS
 62
     2
 10
255.713210475411
 20
363.756635382771
 30
0.0
 11
258.513209754195
 21
363.756635382771
 31
0.0
  0
LINE
  5
   3AA
  8
0
  6
CONTINUOUS
 62
     2
 10
235.31320999072
 20
351.356635197997
 30
0.0
 11
235.31320999072
 21
352.556635215879
 31
0.0
  0
LINE
  5
   3AB
  8
0
  6
CONTINUOUS
 62
     2
 10
258.513209754195
 20
364.956635400653
 30
0.0
 11
259.713209772077
 21
364.956635400653
 31
0.0
  0
LINE
  5
   3AC
  8
0
  6
CONTINUOUS
 62
     2
 10
258.513210336427
 20
363.756635382772
 30
0.0
 11
258.513210336427
 21
364.956635400653
 31
0.0
  0
LINE
  5
   3AD
  8
0
  6
CONTINUOUS
 62
     2
 10
230.513209919194
 20
352.556635215879
 30
0.0
 11
230.513209919194
 21
353.75663523376
 31
0.0
  0
LINE
  5
   3AE
  8
0
  6
CONTINUOUS
 62
     2
 10
228.913209895352
 20
352.556635215879
 30
0.0
 11
228.913209895352
 21
353.75663523376
 31
0.0
  0
LINE
  5
   3AF
  8
0
  6
CONTINUOUS
 62
     2
 10
228.913209313121
 20
352.556635215878
 30
0.0
 11
230.513209336963
 21
352.556635215878
 31
0.0
  0
LINE
  5
   3B0
  8
0
  6
CONTINUOUS
 62
     2
 10
232.113209943036
 20
352.556635215879
 30
0.0
 11
232.113209943036
 21
353.75663523376
 31
0.0
  0
LINE
  5
   3B1
  8
0
  6
CONTINUOUS
 62
     2
 10
224.113209241595
 20
352.556635215878
 30
0.0
 11
227.313209289279
 21
352.556635215878
 31
0.0
  0
LINE
  5
   3B2
  8
0
  6
CONTINUOUS
 62
     2
 10
227.31320987151
 20
352.556635215879
 30
0.0
 11
227.31320987151
 21
353.75663523376
 31
0.0
  0
LINE
  5
   3B3
  8
0
  6
CONTINUOUS
 62
     2
 10
230.513209336963
 20
353.75663523376
 30
0.0
 11
232.113210123744
 21
353.75663523376
 31
0.0
  0
LINE
  5
   3B4
  8
0
  6
CONTINUOUS
 62
     2
 10
227.313209289279
 20
353.75663523376
 30
0.0
 11
228.913209313121
 21
353.75663523376
 31
0.0
  0
LINE
  5
   3B5
  8
0
  6
CONTINUOUS
 62
     2
 10
226.513209277358
 20
351.356635197997
 30
0.0
 11
235.313210171428
 21
351.356635197997
 31
0.0
  0
LINE
  5
   3B6
  8
0
  6
CONTINUOUS
 62
     2
 10
225.713209847669
 20
349.356635168195
 30
0.0
 11
225.713209847669
 21
350.556635186076
 31
0.0
  0
LINE
  5
   3B7
  8
0
  6
CONTINUOUS
 62
     2
 10
225.713209847669
 20
346.556635126472
 30
0.0
 11
225.713209847669
 21
347.756635144353
 31
0.0
  0
ARC
  5
   3B8
  8
0
  6
CONTINUOUS
 62
     7
 10
226.513209859589
 20
350.556635186076
 30
0.0
 40
0.800000011921027
 50
90.0000416992574
 51
180.0
  0
LINE
  5
   3B9
  8
0
  6
CONTINUOUS
 62
     2
 10
231.313209931115
 20
347.756635144353
 30
0.0
 11
231.313209931115
 21
348.956635162234
 31
0.0
  0
LINE
  5
   3BA
  8
0
  6
CONTINUOUS
 62
     2
 10
225.713209265437
 20
349.356635168195
 30
0.0
 11
229.820390112772
 21
349.356635168195
 31
0.0
  0
LINE
  5
   3BB
  8
0
  6
CONTINUOUS
 62
     2
 10
225.713209265437
 20
347.756635144353
 30
0.0
 11
231.313210111823
 21
347.756635144353
 31
0.0
  0
LINE
  5
   3BC
  8
0
  6
CONTINUOUS
 62
     2
 10
229.820390077474
 20
349.35663503646
 30
0.0
 11
231.313210099717
 21
348.956635117055
 31
0.0
  0
LINE
  5
   3BD
  8
0
  6
CONTINUOUS
 62
     3
 10
278.513210634455
 20
366.356635421515
 30
0.0
 11
278.513210634455
 21
367.156635433435
 31
0.0
  0
LINE
  5
   3BE
  8
0
  6
CONTINUOUS
 62
     7
 10
263.713210413917
 20
363.356635376811
 30
0.0
 11
263.713210413917
 21
364.149384412061
 31
0.0
  0
LINE
  5
   3BF
  8
0
  6
CONTINUOUS
 62
     7
 10
273.713211506572
 20
363.156635373836
 30
0.0
 11
277.713211566176
 21
363.156635373836
 31
0.0
  0
LINE
  5
   3C0
  8
0
  6
CONTINUOUS
 62
     7
 10
259.713210354313
 20
364.172876844052
 30
0.0
 11
259.713210354313
 21
364.956635400653
 31
0.0
  0
LINE
  5
   3C1
  8
0
  6
CONTINUOUS
 62
     7
 10
259.713210354313
 20
366.574714038045
 30
0.0
 11
259.713210354313
 21
366.756635427475
 31
0.0
  0
LINE
  5
   3C2
  8
0
  6
CONTINUOUS
 62
     7
 10
259.713210354313
 20
346.556635126472
 30
0.0
 11
259.713210354313
 21
351.104517274318
 31
0.0
  0
LINE
  5
   3C3
  8
0
  6
CONTINUOUS
 62
     7
 10
250.913210223183
 20
312.756634622812
 30
0.0
 11
250.913210223183
 21
319.17099476478
 31
0.0
  0
LINE
  5
   3C4
  8
0
  6
CONTINUOUS
 62
     7
 10
250.913210223183
 20
297.716634246111
 30
0.0
 11
250.913210223183
 21
304.356634497643
 31
0.0
  0
LINE
  5
   3C5
  8
0
  6
CONTINUOUS
 62
     7
 10
258.913210342392
 20
333.027402136784
 30
0.0
 11
258.913210342392
 21
346.556635126472
 31
0.0
  0
LINE
  5
   3C6
  8
0
  6
CONTINUOUS
 62
     7
 10
250.913210568192
 20
319.170994669918
 30
0.0
 11
258.91321080193
 21
333.027401535315
 31
0.0
  0
LINE
  5
   3C7
  8
0
  6
CONTINUOUS
 62
     7
 10
261.713210384115
 20
346.556635126472
 30
0.0
 11
261.713210384115
 21
352.586710289569
 31
0.0
  0
LINE
  5
   3C8
  8
0
  6
CONTINUOUS
 62
     7
 10
259.713209772077
 20
363.276299766752
 30
0.0
 11
259.933719113741
 21
363.276299766752
 31
0.0
  0
LINE
  5
   3C9
  8
0
  6
CONTINUOUS
 62
     7
 10
259.713209772077
 20
364.172875252212
 30
0.0
 11
263.713209831681
 21
364.172875252212
 31
0.0
  0
LINE
  5
   3CA
  8
0
  6
CONTINUOUS
 62
     7
 10
261.713209801879
 20
352.899780971504
 30
0.0
 11
263.713209831681
 21
352.899780971504
 31
0.0
  0
LINE
  5
   3CB
  8
0
  6
CONTINUOUS
 62
     7
 10
259.713210354313
 20
363.276300902958
 30
0.0
 11
259.713210354313
 21
364.172876844052
 31
0.0
  0
LINE
  5
   3CC
  8
0
  6
CONTINUOUS
 62
     7
 10
261.713210384115
 20
352.586710289569
 30
0.0
 11
261.713210384115
 21
352.899780972945
 31
0.0
  0
LINE
  5
   3CD
  8
0
  6
CONTINUOUS
 62
     7
 10
261.713209801879
 20
352.586710593692
 30
0.0
 11
263.713209831681
 21
352.586710593692
 31
0.0
  0
LINE
  5
   3CE
  8
0
  6
CONTINUOUS
 62
     7
 10
270.513211458888
 20
363.956635385757
 30
0.0
 11
277.713211566176
 21
363.956635385757
 31
0.0
  0
LINE
  5
   3CF
  8
0
  6
CONTINUOUS
 62
     7
 10
278.513210634455
 20
363.956635385752
 30
0.0
 11
278.513210634455
 21
366.356635421515
 31
0.0
  0
LINE
  5
   3D0
  8
0
  6
CONTINUOUS
 62
     3
 10
277.713211566176
 20
366.35663542152
 30
0.0
 11
278.513211578097
 21
366.35663542152
 31
0.0
  0
LINE
  5
   3D1
  8
0
  6
CONTINUOUS
 62
     7
 10
270.513211458888
 20
366.35663542152
 30
0.0
 11
277.713211566176
 21
366.35663542152
 31
0.0
  0
LINE
  5
   3D2
  8
0
  6
CONTINUOUS
 62
     7
 10
259.713210354313
 20
361.756635352969
 30
0.0
 11
259.713210354313
 21
361.956635355949
 31
0.0
  0
LINE
  5
   3D3
  8
0
  6
CONTINUOUS
 62
     7
 10
259.713210354313
 20
355.156635254622
 30
0.0
 11
259.713210354313
 21
355.356635257602
 31
0.0
  0
LINE
  5
   3D4
  8
0
  6
CONTINUOUS
 62
     7
 10
270.513211458888
 20
363.156635373836
 30
0.0
 11
273.713211506572
 21
363.156635373836
 31
0.0
  0
LINE
  5
   3D5
  8
0
  6
CONTINUOUS
 62
     7
 10
273.713210562929
 20
297.716634246111
 30
0.0
 11
273.713210562929
 21
303.556634485722
 31
0.0
  0
LINE
  5
   3D6
  8
0
  6
CONTINUOUS
 62
     7
 10
273.713210562929
 20
313.556634634733
 30
0.0
 11
273.713210562929
 21
352.076636429429
 31
0.0
  0
LINE
  5
   3D7
  8
0
  6
CONTINUOUS
 62
     7
 10
273.713210562929
 20
356.236634050012
 30
0.0
 11
273.713210562929
 21
363.156635373831
 31
0.0
  0
LINE
  5
   3D8
  8
0
  6
CONTINUOUS
 62
     7
 10
273.713210562929
 20
352.076636429429
 30
0.0
 11
273.713210562929
 21
356.236634050012
 31
0.0
  0
LINE
  5
   3D9
  8
0
  6
CONTINUOUS
 62
     7
 10
251.713210235103
 20
297.156634390354
 30
0.0
 11
251.713210235103
 21
297.716634246111
 31
0.0
  0
LINE
  5
   3DA
  8
0
  6
CONTINUOUS
 62
     7
 10
259.55321068522
 20
297.156634390359
 30
0.0
 11
260.113209778037
 21
297.156634390359
 31
0.0
  0
LINE
  5
   3DB
  8
0
  6
CONTINUOUS
 62
     7
 10
250.913210403886
 20
297.716634398704
 30
0.0
 11
251.713210415807
 21
297.716634398704
 31
0.0
  0
LINE
  5
   3DC
  8
0
  6
CONTINUOUS
 62
     7
 10
251.713210415807
 20
297.716634398704
 30
0.0
 11
273.713211506572
 21
297.716634398704
 31
0.0
  0
LINE
  5
   3DD
  8
0
  6
CONTINUOUS
 62
     7
 10
273.073210553392
 20
303.556634485722
 30
0.0
 11
273.073210553392
 21
304.356634497643
 31
0.0
  0
LINE
  5
   3DE
  8
0
  6
CONTINUOUS
 62
     7
 10
273.073209055629
 20
303.556634483718
 30
0.0
 11
273.713211506572
 21
303.556634483718
 31
0.0
  0
LINE
  5
   3DF
  8
0
  6
CONTINUOUS
 62
     1
 10
251.713210235103
 20
304.356634497643
 30
0.0
 11
251.713210235103
 21
312.756634622812
 31
0.0
  0
LINE
  5
   3E0
  8
0
  6
CONTINUOUS
 62
     1
 10
250.913210403886
 20
312.756634620808
 30
0.0
 11
251.713210415807
 21
312.756634620808
 31
0.0
  0
LINE
  5
   3E1
  8
0
  6
CONTINUOUS
 62
     1
 10
251.713210415807
 20
312.756634620808
 30
0.0
 11
273.073209055629
 21
312.756634620808
 31
0.0
  0
LINE
  5
   3E2
  8
0
  6
CONTINUOUS
 62
     1
 10
250.913210403886
 20
304.356634495638
 30
0.0
 11
251.713210415807
 21
304.356634495638
 31
0.0
  0
LINE
  5
   3E3
  8
0
  6
CONTINUOUS
 62
     1
 10
251.713210415807
 20
304.356634495638
 30
0.0
 11
273.073209055629
 21
304.356634495638
 31
0.0
  0
LINE
  5
   3E4
  8
0
  6
CONTINUOUS
 62
     1
 10
273.073210553392
 20
312.756634622812
 30
0.0
 11
273.073210553392
 21
313.556634634733
 31
0.0
  0
LINE
  5
   3E5
  8
0
  6
CONTINUOUS
 62
     1
 10
273.073209055629
 20
313.556634632729
 30
0.0
 11
273.713211506572
 21
313.556634632729
 31
0.0
  0
LINE
  5
   3E6
  8
0
  6
CONTINUOUS
 62
     1
 10
270.993210522398
 20
304.356634497643
 30
0.0
 11
270.993210522398
 21
312.756634622812
 31
0.0
  0
LINE
  5
   3E7
  8
0
  6
CONTINUOUS
 62
     3
 10
278.513210634455
 20
363.156635373831
 30
0.0
 11
278.513210634455
 21
363.956635385752
 31
0.0
  0
LINE
  5
   3E8
  8
0
  6
CONTINUOUS
 62
     3
 10
277.713211566176
 20
363.156635373836
 30
0.0
 11
278.513211578097
 21
363.156635373836
 31
0.0
  0
LINE
  5
   3E9
  8
0
  6
CONTINUOUS
 62
     3
 10
277.713211566176
 20
363.956635385757
 30
0.0
 11
278.513211578097
 21
363.956635385757
 31
0.0
  0
LINE
  5
   3EA
  8
0
  6
CONTINUOUS
 62
     3
 10
278.4487248828
 20
367.376166686707
 30
0.0
 11
278.513211578097
 21
367.156635433435
 31
0.0
  0
LINE
  5
   3EB
  8
0
  6
CONTINUOUS
 62
     3
 10
278.352939358912
 20
367.543561708732
 30
0.0
 11
278.4487248828
 21
367.376166686707
 31
0.0
  0
ARC
  5
   3EC
  8
0
  6
CONTINUOUS
 62
     3
 10
277.713200605771
 20
367.156625417217
 30
0.0
 40
0.800021378230355
 50
31.1670106506051
 51
89.9992150286115
  0
LINE
  5
   3ED
  8
0
  6
CONTINUOUS
 62
     3
 10
270.513211458888
 20
367.956635445361
 30
0.0
 11
277.713211566176
 21
367.956635445361
 31
0.0
  0
LINE
  5
   3EE
  8
0
  6
CONTINUOUS
 62
     3
 10
259.713209772077
 20
352.028159255855
 30
0.0
 11
261.713209801879
 21
352.028159255855
 31
0.0
  0
LINE
  5
   3EF
  8
0
  6
CONTINUOUS
 62
     7
 10
259.713210354313
 20
361.956635355949
 30
0.0
 11
259.713210354313
 21
362.956635370851
 31
0.0
  0
LINE
  5
   3F0
  8
0
  6
CONTINUOUS
 62
     7
 10
259.713210354313
 20
354.15663523972
 30
0.0
 11
259.713210354313
 21
355.156635254622
 31
0.0
  0
LINE
  5
   3F1
  8
0
  6
CONTINUOUS
 62
     7
 10
260.113209778037
 20
353.756635233765
 30
0.0
 11
261.713209801879
 21
353.756635233765
 31
0.0
  0
LINE
  5
   3F2
  8
0
  6
CONTINUOUS
 62
     7
 10
267.313209885325
 20
364.63663539589
 30
0.0
 11
270.513211458888
 21
364.63663539589
 31
0.0
  0
LINE
  5
   3F3
  8
0
  6
CONTINUOUS
 62
     7
 10
267.313209885325
 20
366.476635423308
 30
0.0
 11
270.513211458888
 21
366.476635423308
 31
0.0
  0
LINE
  5
   3F4
  8
0
  6
CONTINUOUS
 62
     7
 10
259.713209772077
 20
367.956635445361
 30
0.0
 11
270.513211458888
 21
367.956635445361
 31
0.0
  0
LINE
  5
   3F5
  8
0
  6
CONTINUOUS
 62
     7
 10
263.713210413917
 20
346.556635126472
 30
0.0
 11
263.713210413917
 21
353.756632182002
 31
0.0
  0
LINE
  5
   3F6
  8
0
  6
CONTINUOUS
 62
     7
 10
263.713209831681
 20
363.356635376816
 30
0.0
 11
264.913209849563
 21
363.356635376816
 31
0.0
  0
LINE
  5
   3F7
  8
0
  6
CONTINUOUS
 62
     7
 10
259.713209772077
 20
366.75663542748
 30
0.0
 11
264.913209849563
 21
366.75663542748
 31
0.0
  0
LINE
  5
   3F8
  8
0
  6
CONTINUOUS
 62
     7
 10
265.71321044372
 20
364.156635388732
 30
0.0
 11
265.71321044372
 21
365.956635415554
 31
0.0
  0
LINE
  5
   3F9
  8
0
  6
CONTINUOUS
 62
     7
 10
261.713209801879
 20
353.756635233765
 30
0.0
 11
263.713209831681
 21
353.756635233765
 31
0.0
  0
LINE
  5
   3FA
  8
0
  6
CONTINUOUS
 62
     7
 10
260.113209778037
 20
363.356635376816
 30
0.0
 11
263.713209831681
 21
363.356635376816
 31
0.0
  0
LINE
  5
   3FB
  8
0
  6
CONTINUOUS
 62
     7
 10
259.713210354313
 20
366.756635427475
 30
0.0
 11
259.713210354313
 21
367.956635445356
 31
0.0
  0
LINE
  5
   3FC
  8
0
  6
CONTINUOUS
 62
     7
 10
267.313210467562
 20
364.636634175181
 30
0.0
 11
267.313210467562
 21
366.476636644006
 31
0.0
  0
LINE
  5
   3FD
  8
0
  6
CONTINUOUS
 62
     7
 10
259.713209772077
 20
355.156635254627
 30
0.0
 11
270.513211458888
 21
355.156635254627
 31
0.0
  0
LINE
  5
   3FE
  8
0
  6
CONTINUOUS
 62
     7
 10
259.713209772077
 20
361.956635355955
 30
0.0
 11
270.513211458888
 21
361.956635355955
 31
0.0
  0
LINE
  5
   3FF
  8
0
  6
CONTINUOUS
 62
     7
 10
268.113211395006
 20
346.556635126472
 30
0.0
 11
268.113211395006
 21
351.156635195017
 31
0.0
  0
LINE
  5
   400
  8
0
  6
CONTINUOUS
 62
     7
 10
268.113211423125
 20
351.156635195022
 30
0.0
 11
270.513211458888
 21
351.156635195022
 31
0.0
  0
ARC
  5
   401
  8
0
  6
CONTINUOUS
 62
     3
 10
264.913210431799
 20
365.956635415559
 30
0.0
 40
0.800000011920815
 50
0.0
 51
90.0000416996136
  0
POLYLINE
  5
   402
  8
0
  6
CONTINUOUS
 62
     3
 66
     1
 10
0.0
 20
0.0
 30
0.0
  0
VERTEX
  5
   403
  8
0
  6
CONTINUOUS
 10
264.913210431995
 20
363.356635316862
 30
0.0
 40
0.0
 41
0.0
  0
VERTEX
  5
   404
  8
0
  6
CONTINUOUS
 10
265.382253225287
 20
363.509120009522
 30
0.0
 40
0.0
 41
0.0
  0
VERTEX
  5
   405
  8
0
  6
CONTINUOUS
 10
265.692011814758
 20
363.98031420678
 30
0.0
 40
0.0
 41
0.0
  0
VERTEX
  5
   406
  8
0
  6
CONTINUOUS
 10
265.713210444025
 20
364.156634922335
 30
0.0
 40
0.0
 41
0.0
  0
SEQEND
  5
   407
  8
0
  6
CONTINUOUS
 62
     3
  0
ARC
  5
   408
  8
0
  6
CONTINUOUS
 62
     3
 10
260.113337087614
 20
362.956570084559
 30
0.0
 40
0.400161702167418
 50
90.0182327769169
 51
179.990651403234
  0
ARC
  5
   409
  8
0
  6
CONTINUOUS
 62
     3
 10
260.113337087614
 20
354.156700526022
 30
0.0
 40
0.400161702166612
 50
180.009348598166
 51
269.981767223181
  0
LINE
  5
   40A
  8
0
  6
CONTINUOUS
 62
   218
 10
238.113211180985
 20
270.756630945206
 30
0.0
 11
238.113211180985
 21
275.956631022692
 31
0.0
  0
LINE
  5
   40B
  8
0
  6
CONTINUOUS
 62
   218
 10
236.113211151182
 20
270.756630945206
 30
0.0
 11
236.113211151182
 21
272.5611445219
 31
0.0
  0
LINE
  5
   40C
  8
0
  6
CONTINUOUS
 62
   218
 10
236.113211151182
 20
274.158162978314
 30
0.0
 11
236.113211151182
 21
275.956631022692
 31
0.0
  0
LINE
  5
   40D
  8
0
  6
CONTINUOUS
 62
   218
 10
261.313210611163
 20
282.55662959516
 30
0.0
 11
261.313210611163
 21
283.356629607081
 31
0.0
  0
LINE
  5
   40E
  8
0
  6
CONTINUOUS
 62
   218
 10
262.913210635005
 20
282.55662959516
 30
0.0
 11
262.913210635005
 21
283.356629607081
 31
0.0
  0
LINE
  5
   40F
  8
0
  6
CONTINUOUS
 62
   218
 10
261.313211321797
 20
283.356629850666
 30
0.0
 11
262.913211345639
 21
283.356629850666
 31
0.0
  0
LINE
  5
   410
  8
0
  6
CONTINUOUS
 62
   218
 10
236.113210183349
 20
268.556629630132
 30
0.0
 11
238.113210213151
 21
268.556629630132
 31
0.0
  0
LINE
  5
   411
  8
0
  6
CONTINUOUS
 62
   218
 10
236.113210183349
 20
270.756629662942
 30
0.0
 11
238.113210213151
 21
270.756629662942
 31
0.0
  0
LINE
  5
   412
  8
0
  6
CONTINUOUS
 62
   218
 10
236.113210183349
 20
275.956629740366
 30
0.0
 11
238.113210213151
 21
275.956629740366
 31
0.0
  0
LINE
  5
   413
  8
0
  6
CONTINUOUS
 62
   218
 10
238.113210265456
 20
275.956631022692
 30
0.0
 11
238.113210265456
 21
279.756631079316
 31
0.0
  0
LINE
  5
   414
  8
0
  6
CONTINUOUS
 62
   218
 10
238.113210265456
 20
268.556630912423
 30
0.0
 11
238.113210265456
 21
270.756630945206
 31
0.0
  0
ARC
  5
   415
  8
0
  6
CONTINUOUS
 62
   218
 10
238.913210277377
 20
279.756629797022
 30
0.0
 40
0.800000011921044
 50
90.0000037460766
 51
179.999908164749
  0
LINE
  5
   416
  8
0
  6
CONTINUOUS
 62
   218
 10
238.913210225072
 20
280.556629808943
 30
0.0
 11
264.113211363521
 21
280.556629808943
 31
0.0
  0
LINE
  5
   417
  8
0
  6
CONTINUOUS
 62
   218
 10
264.113210732861
 20
280.556629565358
 30
0.0
 11
264.113210732861
 21
282.55662959516
 31
0.0
  0
LINE
  5
   418
  8
0
  6
CONTINUOUS
 62
   218
 10
238.913210225072
 20
282.556629838745
 30
0.0
 11
264.113211363521
 21
282.556629838745
 31
0.0
  0
ARC
  5
   419
  8
0
  6
CONTINUOUS
 62
   218
 10
238.913210277377
 20
279.756629797022
 30
0.0
 40
2.80000004172325
 50
90.0000010703064
 51
179.999973754271
  0
LINE
  5
   41A
  8
0
  6
CONTINUOUS
 62
   218
 10
236.113210235654
 20
268.556630912423
 30
0.0
 11
236.113210235654
 21
270.756630945206
 31
0.0
  0
LINE
  5
   41B
  8
0
  6
CONTINUOUS
 62
   218
 10
236.113210235654
 20
275.956631022692
 30
0.0
 11
236.113210235654
 21
279.756631079316
 31
0.0
  0
LINE
  5
   41C
  8
0
  6
CONTINUOUS
 62
     1
 10
238.113210032443
 20
356.156635269523
 30
0.0
 11
238.113210032443
 21
360.956635341048
 31
0.0
  0
LINE
  5
   41D
  8
0
  6
CONTINUOUS
 62
   218
 10
227.713209877471
 20
346.556635126472
 30
0.0
 11
227.713209877471
 21
347.756635144353
 31
0.0
  0
ARC
  5
   41E
  8
0
  6
CONTINUOUS
 62
   218
 10
228.513209889392
 20
348.556635156274
 30
0.0
 40
2.80000004172325
 50
90.0000119140741
 51
162.796267673144
  0
LINE
  5
   41F
  8
0
  6
CONTINUOUS
 62
   218
 10
236.113210183349
 20
363.356635376811
 30
0.0
 11
238.113210213151
 21
363.356635376811
 31
0.0
  0
LINE
  5
   420
  8
0
  6
CONTINUOUS
 62
   218
 10
228.51320930716
 20
351.356635197997
 30
0.0
 11
235.313210171428
 21
351.356635197997
 31
0.0
  0
LINE
  5
   421
  8
0
  6
CONTINUOUS
 62
   218
 10
228.51320930716
 20
349.356635168195
 30
0.0
 11
235.313210171428
 21
349.356635168195
 31
0.0
  0
ARC
  5
   422
  8
0
  6
CONTINUOUS
 62
   218
 10
235.31320999072
 20
352.156635209918
 30
0.0
 40
2.8000000417232
 50
270.000003697787
 51
360.0
  0
LINE
  5
   423
  8
0
  6
CONTINUOUS
 62
   218
 10
238.113210032443
 20
352.156635209918
 30
0.0
 11
238.113210032443
 21
356.156635269523
 31
0.0
  0
LINE
  5
   424
  8
0
  6
CONTINUOUS
 62
   218
 10
238.113210032443
 20
360.956635341048
 30
0.0
 11
238.113210032443
 21
363.356635376811
 31
0.0
  0
LINE
  5
   425
  8
0
  6
CONTINUOUS
 62
   218
 10
236.113210002641
 20
352.156635209918
 30
0.0
 11
236.113210002641
 21
356.156635269523
 31
0.0
  0
LINE
  5
   426
  8
0
  6
CONTINUOUS
 62
   218
 10
236.113210002641
 20
360.956635341048
 30
0.0
 11
236.113210002641
 21
363.356635376811
 31
0.0
  0
ARC
  5
   427
  8
0
  6
CONTINUOUS
 62
   218
 10
235.31320999072
 20
352.156635209918
 30
0.0
 40
0.800000011920608
 50
270.000012942229
 51
360.0
  0
LINE
  5
   428
  8
0
  6
CONTINUOUS
 62
     1
 10
236.113210183349
 20
360.956635341048
 30
0.0
 11
238.113210213151
 21
360.956635341048
 31
0.0
  0
LINE
  5
   429
  8
0
  6
CONTINUOUS
 62
     1
 10
236.113210183349
 20
356.156635269523
 30
0.0
 11
238.113210213151
 21
356.156635269523
 31
0.0
  0
LINE
  5
   42A
  8
0
  6
CONTINUOUS
 62
   218
 10
228.513209889392
 20
349.356635168195
 30
0.0
 11
228.513209889392
 21
351.356635197997
 31
0.0
  0
LINE
  5
   42B
  8
0
  6
CONTINUOUS
 62
     7
 10
273.713211506572
 20
268.756629627028
 30
0.0
 11
277.713211566176
 21
268.756629627028
 31
0.0
  0
LINE
  5
   42C
  8
0
  6
CONTINUOUS
 62
     7
 10
278.513210634455
 20
264.756630855799
 30
0.0
 11
278.513210634455
 21
265.55663086772
 31
0.0
  0
LINE
  5
   42D
  8
0
  6
CONTINUOUS
 62
     7
 10
260.913209789958
 20
297.156632185559
 30
0.0
 11
273.713211506572
 21
297.156630635096
 31
0.0
  0
LINE
  5
   42E
  8
0
  6
CONTINUOUS
 62
     7
 10
260.113209778037
 20
297.156630053673
 30
0.0
 11
260.913209789958
 21
297.156630053673
 31
0.0
  0
LINE
  5
   42F
  8
0
  6
CONTINUOUS
 62
     7
 10
260.113210360269
 20
285.356629636884
 30
0.0
 11
260.113210360269
 21
297.156629812717
 31
0.0
  0
LINE
  5
   430
  8
0
  6
CONTINUOUS
 62
     7
 10
269.313210497359
 20
280.656382374462
 30
0.0
 11
269.313210497359
 21
280.989658746615
 31
0.0
  0
LINE
  5
   431
  8
0
  6
CONTINUOUS
 62
     7
 10
269.313210497359
 20
278.156631055474
 30
0.0
 11
269.313210497359
 21
280.656382374462
 31
0.0
  0
LINE
  5
   432
  8
0
  6
CONTINUOUS
 62
     7
 10
259.713210354313
 20
276.556631031632
 30
0.0
 11
259.713210354313
 21
276.756627982855
 31
0.0
  0
LINE
  5
   433
  8
0
  6
CONTINUOUS
 62
     7
 10
270.513211458888
 20
267.956629611655
 30
0.0
 11
277.713211566176
 21
267.956629611655
 31
0.0
  0
LINE
  5
   434
  8
0
  6
CONTINUOUS
 62
     7
 10
270.513211458888
 20
265.556629575892
 30
0.0
 11
277.713211566176
 21
265.556629575892
 31
0.0
  0
LINE
  5
   435
  8
0
  6
CONTINUOUS
 62
     7
 10
277.713211566176
 20
265.55662957129
 30
0.0
 11
278.513211578097
 21
265.55662957129
 31
0.0
  0
LINE
  5
   436
  8
0
  6
CONTINUOUS
 62
     7
 10
278.513210641795
 20
265.55663086772
 30
0.0
 11
278.513210641795
 21
267.956630903482
 31
0.0
  0
LINE
  5
   437
  8
0
  6
CONTINUOUS
 62
     7
 10
270.513211458888
 20
268.756629627028
 30
0.0
 11
273.713211506572
 21
268.756629627028
 31
0.0
  0
LINE
  5
   438
  8
0
  6
CONTINUOUS
 62
     7
 10
260.913210372194
 20
268.356630909443
 30
0.0
 11
260.913210372194
 21
268.556630912423
 31
0.0
  0
LINE
  5
   439
  8
0
  6
CONTINUOUS
 62
     7
 10
260.913210372194
 20
265.156630861759
 30
0.0
 11
260.913210372194
 21
265.338552251189
 31
0.0
  0
LINE
  5
   43A
  8
0
  6
CONTINUOUS
 62
     7
 10
273.713210562924
 20
268.756630915403
 30
0.0
 11
273.713210562924
 21
291.356629726291
 31
0.0
  0
LINE
  5
   43B
  8
0
  6
CONTINUOUS
 62
     7
 10
273.713210562924
 20
291.356629726291
 30
0.0
 11
273.713210562924
 21
297.156629812717
 31
0.0
  0
LINE
  5
   43C
  8
0
  6
CONTINUOUS
 62
     7
 10
276.662335696025
 20
268.756629627028
 30
0.0
 11
276.913211554255
 21
268.756629627028
 31
0.0
  0
LINE
  5
   43D
  8
0
  6
CONTINUOUS
 62
     7
 10
278.513210634455
 20
267.956630903482
 30
0.0
 11
278.513210634455
 21
268.756630915403
 31
0.0
  0
LINE
  5
   43E
  8
0
  6
CONTINUOUS
 62
     7
 10
277.713211566176
 20
268.756629627028
 30
0.0
 11
278.513211578097
 21
268.756629627028
 31
0.0
  0
LINE
  5
   43F
  8
0
  6
CONTINUOUS
 62
     7
 10
277.713211566176
 20
267.956629607053
 30
0.0
 11
278.513211578097
 21
267.956629607053
 31
0.0
  0
LINE
  5
   440
  8
0
  6
CONTINUOUS
 62
     1
 10
278.4487248828
 20
264.537099602527
 30
0.0
 11
278.513211578097
 21
264.756630855799
 31
0.0
  0
LINE
  5
   441
  8
0
  6
CONTINUOUS
 62
     1
 10
278.352939358912
 20
264.369701528744
 30
0.0
 11
278.4487248828
 21
264.537099602527
 31
0.0
  0
ARC
  5
   442
  8
0
  6
CONTINUOUS
 62
     1
 10
277.713200605769
 20
264.756639575595
 30
0.0
 40
0.800021378233217
 50
270.000784972756
 51
328.832874247013
  0
LINE
  5
   443
  8
0
  6
CONTINUOUS
 62
     1
 10
270.513211458888
 20
263.956629547448
 30
0.0
 11
277.713211566176
 21
263.956629547448
 31
0.0
  0
LINE
  5
   444
  8
0
  6
CONTINUOUS
 62
     7
 10
267.313209885325
 20
265.436629373893
 30
0.0
 11
270.513211458888
 21
265.436629373893
 31
0.0
  0
LINE
  5
   445
  8
0
  6
CONTINUOUS
 62
     7
 10
267.313209885325
 20
267.276629401312
 30
0.0
 11
270.513211458888
 21
267.276629401312
 31
0.0
  0
LINE
  5
   446
  8
0
  6
CONTINUOUS
 62
     7
 10
260.913209789958
 20
263.95662935184
 30
0.0
 11
270.513211458888
 21
263.95662935184
 31
0.0
  0
LINE
  5
   447
  8
0
  6
CONTINUOUS
 62
     7
 10
265.71321044372
 20
265.95663087368
 30
0.0
 11
265.71321044372
 21
267.756630900502
 31
0.0
  0
LINE
  5
   448
  8
0
  6
CONTINUOUS
 62
     7
 10
260.913209789958
 20
268.556629544363
 30
0.0
 11
264.913209849563
 21
268.556629544363
 31
0.0
  0
LINE
  5
   449
  8
0
  6
CONTINUOUS
 62
     7
 10
260.913209789958
 20
265.156629493699
 30
0.0
 11
264.913209849563
 21
265.156629493699
 31
0.0
  0
LINE
  5
   44A
  8
0
  6
CONTINUOUS
 62
     7
 10
260.113209778037
 20
278.156629770534
 30
0.0
 11
270.513211458888
 21
278.156629770534
 31
0.0
  0
LINE
  5
   44B
  8
0
  6
CONTINUOUS
 62
     7
 10
260.113209778037
 20
268.556629627516
 30
0.0
 11
260.913209789958
 21
268.556629627516
 31
0.0
  0
LINE
  5
   44C
  8
0
  6
CONTINUOUS
 62
     7
 10
259.713210354313
 20
276.756627982855
 30
0.0
 11
259.713210354313
 21
277.756631049514
 31
0.0
  0
LINE
  5
   44D
  8
0
  6
CONTINUOUS
 62
     7
 10
259.713210354313
 20
268.956627866626
 30
0.0
 11
259.713210354313
 21
269.956627881527
 31
0.0
  0
LINE
  5
   44E
  8
0
  6
CONTINUOUS
 62
     7
 10
259.713209772077
 20
269.956629648385
 30
0.0
 11
270.513211458888
 21
269.956629648385
 31
0.0
  0
LINE
  5
   44F
  8
0
  6
CONTINUOUS
 62
     7
 10
259.713209772077
 20
276.756629749666
 30
0.0
 11
270.513211458888
 21
276.756629749666
 31
0.0
  0
LINE
  5
   450
  8
0
  6
CONTINUOUS
 62
     7
 10
260.913210372194
 20
263.956630843878
 30
0.0
 11
260.913210372194
 21
265.156630861759
 31
0.0
  0
LINE
  5
   451
  8
0
  6
CONTINUOUS
 62
     7
 10
267.313210467562
 20
265.436629645228
 30
0.0
 11
267.313210467562
 21
267.276629062295
 31
0.0
  0
ARC
  5
   452
  8
0
  6
CONTINUOUS
 62
     7
 10
264.913210431799
 20
265.956629505619
 30
0.0
 40
0.800000011920743
 50
269.999958300317
 51
360.00009797959
  0
POLYLINE
  5
   453
  8
0
  6
CONTINUOUS
 62
     7
 66
     1
 10
0.0
 20
0.0
 30
0.0
  0
VERTEX
  5
   454
  8
0
  6
CONTINUOUS
 10
264.913210432224
 20
268.556629603795
 30
0.0
 40
0.0
 41
0.0
  0
VERTEX
  5
   455
  8
0
  6
CONTINUOUS
 10
265.382253227986
 20
268.404144909566
 30
0.0
 40
0.0
 41
0.0
  0
VERTEX
  5
   456
  8
0
  6
CONTINUOUS
 10
265.692011815133
 20
267.932950713134
 30
0.0
 40
0.0
 41
0.0
  0
VERTEX
  5
   457
  8
0
  6
CONTINUOUS
 10
265.713210444224
 20
267.756629998417
 30
0.0
 40
0.0
 41
0.0
  0
SEQEND
  5
   458
  8
0
  6
CONTINUOUS
 62
     7
  0
ARC
  5
   459
  8
0
  6
CONTINUOUS
 62
     7
 10
260.113275646554
 20
277.756503037234
 30
0.0
 40
0.400161702166638
 50
90.0094319513558
 51
179.981666611549
  0
ARC
  5
   45A
  8
0
  6
CONTINUOUS
 62
     7
 10
260.113275646565
 20
268.956756360582
 30
0.0
 40
0.400161702176274
 50
180.018402372143
 51
269.990567986455
  0
LINE
  5
   45B
  8
0
  6
CONTINUOUS
 62
   212
 10
224.113209241595
 20
309.356629348128
 30
0.0
 11
225.313210785356
 21
309.356629348128
 31
0.0
  0
LINE
  5
   45C
  8
0
  6
CONTINUOUS
 62
   212
 10
225.313210631454
 20
304.356634497643
 30
0.0
 11
225.313210631454
 21
309.356629231572
 31
0.0
  0
LINE
  5
   45D
  8
0
  6
CONTINUOUS
 62
   212
 10
224.113209823827
 20
304.356634497643
 30
0.0
 11
224.113209823827
 21
309.356629231572
 31
0.0
  0
LINE
  5
   45E
  8
0
  6
CONTINUOUS
 62
   212
 10
225.313210785356
 20
280.556628918975
 30
0.0
 11
236.113210946288
 21
280.556628918975
 31
0.0
  0
LINE
  5
   45F
  8
0
  6
CONTINUOUS
 62
   212
 10
236.113210792386
 20
279.356631073356
 30
0.0
 11
236.113210792386
 21
280.556629565358
 31
0.0
  0
LINE
  5
   460
  8
0
  6
CONTINUOUS
 62
   212
 10
224.113210613572
 20
279.356631073356
 30
0.0
 11
224.113210613572
 21
280.556629565358
 31
0.0
  0
LINE
  5
   461
  8
0
  6
CONTINUOUS
 62
   212
 10
224.113209823827
 20
280.556629565358
 30
0.0
 11
224.113209823827
 21
285.356629636884
 31
0.0
  0
LINE
  5
   462
  8
0
  6
CONTINUOUS
 62
   212
 10
225.113210628476
 20
280.556629565358
 30
0.0
 11
225.113210628476
 21
285.356629636884
 31
0.0
  0
LINE
  5
   463
  8
0
  6
CONTINUOUS
 62
   212
 10
225.113210782375
 20
280.556628918975
 30
0.0
 11
225.313210785356
 21
280.556628918975
 31
0.0
  0
LINE
  5
   464
  8
0
  6
CONTINUOUS
 62
   214
 10
228.913209313121
 20
279.356629788432
 30
0.0
 11
230.513209336963
 21
279.356629788432
 31
0.0
  0
LINE
  5
   465
  8
0
  6
CONTINUOUS
 62
   214
 10
232.113210123744
 20
279.356629788432
 30
0.0
 11
236.113210946288
 21
279.356629788432
 31
0.0
  0
LINE
  5
   466
  8
0
  6
CONTINUOUS
 62
   214
 10
232.113209943036
 20
278.156631055474
 30
0.0
 11
232.113209943036
 21
279.356631073356
 31
0.0
  0
LINE
  5
   467
  8
0
  6
CONTINUOUS
 62
   214
 10
224.113210767474
 20
279.356629788432
 30
0.0
 11
227.313209289279
 21
279.356629788432
 31
0.0
  0
LINE
  5
   468
  8
0
  6
CONTINUOUS
 62
   214
 10
227.31320987151
 20
278.156631055474
 30
0.0
 11
227.31320987151
 21
279.356631073356
 31
0.0
  0
LINE
  5
   469
  8
0
  6
CONTINUOUS
 62
   214
 10
227.313209289279
 20
278.156629770551
 30
0.0
 11
228.713209310141
 21
278.156629770551
 31
0.0
  0
LINE
  5
   46A
  8
0
  6
CONTINUOUS
 62
   214
 10
230.713209339943
 20
278.156629770551
 30
0.0
 11
232.113210123744
 21
278.156629770551
 31
0.0
  0
LINE
  5
   46B
  8
0
  6
CONTINUOUS
 62
   212
 10
228.713209310141
 20
279.356629788432
 30
0.0
 11
228.913209313121
 21
279.356629788432
 31
0.0
  0
LINE
  5
   46C
  8
0
  6
CONTINUOUS
 62
   212
 10
230.513209336963
 20
279.356629788432
 30
0.0
 11
230.713209339943
 21
279.356629788432
 31
0.0
  0
LINE
  5
   46D
  8
0
  6
CONTINUOUS
 62
   212
 10
228.713209892372
 20
278.156631055474
 30
0.0
 11
228.713209892372
 21
279.356631073356
 31
0.0
  0
LINE
  5
   46E
  8
0
  6
CONTINUOUS
 62
   212
 10
230.713209922174
 20
278.156631055474
 30
0.0
 11
230.713209922174
 21
279.356631073356
 31
0.0
  0
LINE
  5
   46F
  8
0
  6
CONTINUOUS
 62
     2
 10
265.313210257047
 20
358.556635305285
 30
0.0
 11
265.313210257047
 21
360.156635329127
 31
0.0
  0
LINE
  5
   470
  8
0
  6
CONTINUOUS
 62
     2
 10
265.313210257047
 20
356.956635281444
 30
0.0
 11
265.313210257047
 21
358.556635305285
 31
0.0
  0
LINE
  5
   471
  8
0
  6
CONTINUOUS
 62
     2
 10
251.313210419612
 20
355.356635257602
 30
0.0
 11
264.913209859328
 21
355.356635257602
 31
0.0
  0
LINE
  5
   472
  8
0
  6
CONTINUOUS
 62
     2
 10
251.313210419612
 20
361.756635352969
 30
0.0
 11
264.913209859328
 21
361.756635352969
 31
0.0
  0
LINE
  5
   473
  8
0
  6
CONTINUOUS
 62
     2
 10
250.913210223178
 20
356.051149199039
 30
0.0
 11
250.913210223178
 21
361.356635347009
 31
0.0
  0
LINE
  5
   474
  8
0
  6
CONTINUOUS
 62
     2
 10
250.913210223178
 20
355.756635263562
 30
0.0
 11
250.913210223178
 21
356.556635275483
 31
0.0
  0
LINE
  5
   475
  8
0
  6
CONTINUOUS
 62
     2
 10
265.313210257047
 20
355.756635263562
 30
0.0
 11
265.313210257047
 21
356.956635281444
 31
0.0
  0
LINE
  5
   476
  8
0
  6
CONTINUOUS
 62
     2
 10
265.313210257047
 20
360.156635329127
 30
0.0
 11
265.313210257047
 21
361.356635347009
 31
0.0
  0
LINE
  5
   477
  8
0
  6
CONTINUOUS
 62
     2
 10
264.913210921625
 20
355.356634014603
 30
0.0
 11
265.313209970213
 21
355.756634977932
 31
0.0
  0
LINE
  5
   478
  8
0
  6
CONTINUOUS
 62
     2
 10
264.913210921624
 20
361.756636595967
 30
0.0
 11
265.313209970212
 21
361.356635632639
 31
0.0
  0
LINE
  5
   479
  8
0
  6
CONTINUOUS
 62
     2
 10
250.913210318986
 20
361.356635441674
 30
0.0
 11
251.31320937919
 21
361.756636393386
 31
0.0
  0
LINE
  5
   47A
  8
0
  6
CONTINUOUS
 62
     2
 10
250.913210318985
 20
355.756635168897
 30
0.0
 11
251.31320937919
 21
355.356634217184
 31
0.0
  0
LINE
  5
   47B
  8
0
  6
CONTINUOUS
 62
     3
 10
247.713210365968
 20
362.15663535893
 30
0.0
 11
249.31321038981
 21
362.15663535893
 31
0.0
  0
LINE
  5
   47C
  8
0
  6
CONTINUOUS
 62
     3
 10
247.713210365968
 20
363.756635382771
 30
0.0
 11
249.31321038981
 21
363.756635382771
 31
0.0
  0
LINE
  5
   47D
  8
0
  6
CONTINUOUS
 62
     3
 10
247.713210175494
 20
362.15663535893
 30
0.0
 11
247.713210175494
 21
363.756635382772
 31
0.0
  0
LINE
  5
   47E
  8
0
  6
CONTINUOUS
 62
     3
 10
247.713210365968
 20
353.356635227799
 30
0.0
 11
249.31321038981
 21
353.356635227799
 31
0.0
  0
LINE
  5
   47F
  8
0
  6
CONTINUOUS
 62
     3
 10
247.713210365968
 20
354.956635251641
 30
0.0
 11
249.31321038981
 21
354.956635251641
 31
0.0
  0
LINE
  5
   480
  8
0
  6
CONTINUOUS
 62
     3
 10
247.713210175494
 20
353.356635227799
 30
0.0
 11
247.713210175494
 21
354.956635251641
 31
0.0
  0
LINE
  5
   481
  8
0
  6
CONTINUOUS
 62
     3
 10
249.313210209102
 20
355.756635263562
 30
0.0
 11
249.313210209102
 21
356.556635275483
 31
0.0
  0
LINE
  5
   482
  8
0
  6
CONTINUOUS
 62
     3
 10
249.313210209102
 20
360.556635335088
 30
0.0
 11
249.313210209102
 21
361.356635347009
 31
0.0
  0
LINE
  5
   483
  8
0
  6
CONTINUOUS
 62
     3
 10
249.31321038981
 20
363.756635382771
 30
0.0
 11
250.913210413651
 21
363.756635382771
 31
0.0
  0
LINE
  5
   484
  8
0
  6
CONTINUOUS
 62
     3
 10
250.913210223178
 20
362.15663535893
 30
0.0
 11
250.913210223178
 21
363.756635382772
 31
0.0
  0
LINE
  5
   485
  8
0
  6
CONTINUOUS
 62
     3
 10
249.313210199336
 20
362.15663535893
 30
0.0
 11
249.313210199336
 21
363.756635382772
 31
0.0
  0
LINE
  5
   486
  8
0
  6
CONTINUOUS
 62
     3
 10
249.31321038981
 20
353.356635227799
 30
0.0
 11
250.913210413651
 21
353.356635227799
 31
0.0
  0
LINE
  5
   487
  8
0
  6
CONTINUOUS
 62
     3
 10
250.913210223178
 20
353.356635227799
 30
0.0
 11
250.913210223178
 21
354.956635251641
 31
0.0
  0
LINE
  5
   488
  8
0
  6
CONTINUOUS
 62
     3
 10
249.313210199336
 20
353.356635227799
 30
0.0
 11
249.313210199336
 21
354.956635251641
 31
0.0
  0
LINE
  5
   489
  8
0
  6
CONTINUOUS
 62
     3
 10
250.913210232943
 20
360.556635335088
 30
0.0
 11
250.913210232943
 21
362.15663535893
 31
0.0
  0
LINE
  5
   48A
  8
0
  6
CONTINUOUS
 62
     3
 10
250.913210232943
 20
354.956635251641
 30
0.0
 11
250.913210232943
 21
356.556635275483
 31
0.0
  0
LINE
  5
   48B
  8
0
  6
CONTINUOUS
 62
     3
 10
249.313210209102
 20
361.356635347009
 30
0.0
 11
249.313210209102
 21
362.15663535893
 31
0.0
  0
LINE
  5
   48C
  8
0
  6
CONTINUOUS
 62
     3
 10
249.313210209102
 20
354.956635251641
 30
0.0
 11
249.313210209102
 21
355.756635263562
 31
0.0
  0
LINE
  5
   48D
  8
0
  6
CONTINUOUS
 62
     1
 10
250.513210397925
 20
363.756635382771
 30
0.0
 11
251.313210409846
 21
363.756635382771
 31
0.0
  0
LINE
  5
   48E
  8
0
  6
CONTINUOUS
 62
     1
 10
250.513210397925
 20
353.356635227799
 30
0.0
 11
251.313210409846
 21
353.356635227799
 31
0.0
  0
LINE
  5
   48F
  8
0
  6
CONTINUOUS
 62
     1
 10
250.510970407658
 20
363.756635382771
 30
0.0
 11
250.513210397925
 21
363.756635382771
 31
0.0
  0
LINE
  5
   490
  8
0
  6
CONTINUOUS
 62
     1
 10
236.91321019527
 20
363.756635382771
 30
0.0
 11
247.713210175494
 21
363.756635382771
 31
0.0
  0
LINE
  5
   491
  8
0
  6
CONTINUOUS
 62
     1
 10
250.510970407658
 20
353.356635227799
 30
0.0
 11
250.513210397925
 21
353.356635227799
 31
0.0
  0
LINE
  5
   492
  8
0
  6
CONTINUOUS
 62
     1
 10
238.113210213151
 20
353.356635227799
 30
0.0
 11
247.713210175494
 21
353.356635227799
 31
0.0
  0
LINE
  5
   493
  8
0
  6
CONTINUOUS
 62
     1
 10
236.113210183349
 20
363.756635382771
 30
0.0
 11
236.91321019527
 21
363.756635382771
 31
0.0
  0
LINE
  5
   494
  8
0
  6
CONTINUOUS
 62
     1
 10
232.513210129704
 20
363.756635382771
 30
0.0
 11
236.113210183349
 21
363.756635382771
 31
0.0
  0
LINE
  5
   495
  8
0
  6
CONTINUOUS
 62
     1
 10
251.313210409846
 20
363.756635382771
 30
0.0
 11
258.113209748235
 21
363.756635382771
 31
0.0
  0
LINE
  5
   496
  8
0
  6
CONTINUOUS
 62
     1
 10
232.513210129704
 20
353.356635227799
 30
0.0
 11
236.113210183349
 21
353.356635227799
 31
0.0
  0
LINE
  5
   497
  8
0
  6
CONTINUOUS
 62
     1
 10
251.313210409846
 20
353.356635227799
 30
0.0
 11
258.113209748235
 21
353.356635227799
 31
0.0
  0
LINE
  5
   498
  8
0
  6
CONTINUOUS
 62
     1
 10
258.113210330466
 20
353.356635227799
 30
0.0
 11
258.113210330466
 21
355.356635257602
 31
0.0
  0
LINE
  5
   499
  8
0
  6
CONTINUOUS
 62
     1
 10
258.113210330466
 20
361.756635352969
 30
0.0
 11
258.113210330466
 21
363.756635382772
 31
0.0
  0
LINE
  5
   49A
  8
0
  6
CONTINUOUS
 62
     1
 10
232.513209948996
 20
353.356635227799
 30
0.0
 11
232.513209948996
 21
363.756635382772
 31
0.0
  0
LINE
  5
   49B
  8
0
  6
CONTINUOUS
 62
     1
 10
236.113210002641
 20
353.356635227799
 30
0.0
 11
236.113210002641
 21
363.756635382772
 31
0.0
  0
LINE
  5
   49C
  8
0
  6
CONTINUOUS
 62
     1
 10
251.313210229138
 20
361.756635352969
 30
0.0
 11
251.313210229138
 21
363.756635382772
 31
0.0
  0
LINE
  5
   49D
  8
0
  6
CONTINUOUS
 62
     1
 10
251.313210229138
 20
353.356635227799
 30
0.0
 11
251.313210229138
 21
355.356635257602
 31
0.0
  0
LINE
  5
   49E
  8
0
  6
CONTINUOUS
 62
     1
 10
251.313210409846
 20
361.756635352969
 30
0.0
 11
258.113209748235
 21
361.756635352969
 31
0.0
  0
LINE
  5
   49F
  8
0
  6
CONTINUOUS
 62
     1
 10
251.313210409846
 20
355.356635257602
 30
0.0
 11
258.113209748235
 21
355.356635257602
 31
0.0
  0
LINE
  5
   4A0
  8
0
  6
CONTINUOUS
 62
     1
 10
250.513210397925
 20
268.156629745934
 30
0.0
 11
251.313210409846
 21
268.156629745934
 31
0.0
  0
LINE
  5
   4A1
  8
0
  6
CONTINUOUS
 62
     1
 10
250.513210397925
 20
278.556629900907
 30
0.0
 11
251.313210409846
 21
278.556629900907
 31
0.0
  0
LINE
  5
   4A2
  8
0
  6
CONTINUOUS
 62
     1
 10
236.91321019527
 20
268.156629745935
 30
0.0
 11
238.113211180985
 21
268.156629745935
 31
0.0
  0
LINE
  5
   4A3
  8
0
  6
CONTINUOUS
 62
     1
 10
250.510970407658
 20
268.156629745935
 30
0.0
 11
250.513210397925
 21
268.156629745935
 31
0.0
  0
LINE
  5
   4A4
  8
0
  6
CONTINUOUS
 62
     1
 10
250.510970407658
 20
278.556629900907
 30
0.0
 11
250.513210397925
 21
278.556629900907
 31
0.0
  0
LINE
  5
   4A5
  8
0
  6
CONTINUOUS
 62
     1
 10
236.113210183349
 20
268.156629745934
 30
0.0
 11
236.91321019527
 21
268.156629745934
 31
0.0
  0
LINE
  5
   4A6
  8
0
  6
CONTINUOUS
 62
     1
 10
232.513210129704
 20
268.156629745935
 30
0.0
 11
236.113210183349
 21
268.156629745935
 31
0.0
  0
LINE
  5
   4A7
  8
0
  6
CONTINUOUS
 62
     1
 10
251.313210409846
 20
268.156629745935
 30
0.0
 11
258.113209748235
 21
268.156629745935
 31
0.0
  0
LINE
  5
   4A8
  8
0
  6
CONTINUOUS
 62
     1
 10
251.313210409846
 20
278.556629900907
 30
0.0
 11
258.113209748235
 21
278.556629900907
 31
0.0
  0
LINE
  5
   4A9
  8
0
  6
CONTINUOUS
 62
     1
 10
232.513210129704
 20
278.556629900907
 30
0.0
 11
236.113210183349
 21
278.556629900907
 31
0.0
  0
LINE
  5
   4AA
  8
0
  6
CONTINUOUS
 62
     1
 10
258.113210330466
 20
268.156630906463
 30
0.0
 11
258.113210330466
 21
270.156630936265
 31
0.0
  0
LINE
  5
   4AB
  8
0
  6
CONTINUOUS
 62
     1
 10
258.113210330466
 20
276.556631031632
 30
0.0
 11
258.113210330466
 21
278.556631061435
 31
0.0
  0
LINE
  5
   4AC
  8
0
  6
CONTINUOUS
 62
     1
 10
232.513209948996
 20
268.156630906463
 30
0.0
 11
232.513209948996
 21
278.556631061435
 31
0.0
  0
LINE
  5
   4AD
  8
0
  6
CONTINUOUS
 62
     1
 10
236.113210002641
 20
268.156630906463
 30
0.0
 11
236.113210002641
 21
278.556631061435
 31
0.0
  0
LINE
  5
   4AE
  8
0
  6
CONTINUOUS
 62
     1
 10
251.313210229138
 20
268.156630906463
 30
0.0
 11
251.313210229138
 21
270.156630936265
 31
0.0
  0
LINE
  5
   4AF
  8
0
  6
CONTINUOUS
 62
     1
 10
251.313210229138
 20
276.556631031632
 30
0.0
 11
251.313210229138
 21
278.556631061435
 31
0.0
  0
LINE
  5
   4B0
  8
0
  6
CONTINUOUS
 62
     1
 10
251.313210409846
 20
276.556629871104
 30
0.0
 11
258.113209748235
 21
276.556629871104
 31
0.0
  0
LINE
  5
   4B1
  8
0
  6
CONTINUOUS
 62
     1
 10
251.313210409846
 20
270.156629775737
 30
0.0
 11
258.113209748235
 21
270.156629775737
 31
0.0
  0
LINE
  5
   4B2
  8
0
  6
CONTINUOUS
 62
     3
 10
248.910970203108
 20
275.356631013751
 30
0.0
 11
248.910970203108
 21
276.156631025672
 31
0.0
  0
LINE
  5
   4B3
  8
0
  6
CONTINUOUS
 62
     3
 10
248.910970203108
 20
270.556630942225
 30
0.0
 11
248.910970203108
 21
271.356630954146
 31
0.0
  0
LINE
  5
   4B4
  8
0
  6
CONTINUOUS
 62
     3
 10
247.3109701695
 20
268.156629745935
 30
0.0
 11
250.510970407658
 21
268.156629745935
 31
0.0
  0
LINE
  5
   4B5
  8
0
  6
CONTINUOUS
 62
     3
 10
250.510970217184
 20
268.156630906463
 30
0.0
 11
250.510970217184
 21
269.756630930305
 31
0.0
  0
LINE
  5
   4B6
  8
0
  6
CONTINUOUS
 62
     3
 10
247.3109701695
 20
278.556629900907
 30
0.0
 11
250.510970407658
 21
278.556629900907
 31
0.0
  0
LINE
  5
   4B7
  8
0
  6
CONTINUOUS
 62
     3
 10
250.510970217184
 20
268.156629745935
 30
0.0
 11
250.510970217184
 21
278.556631061435
 31
0.0
  0
LINE
  5
   4B8
  8
0
  6
CONTINUOUS
 62
     3
 10
250.51097022695
 20
269.756630930305
 30
0.0
 11
250.51097022695
 21
271.356630954146
 31
0.0
  0
LINE
  5
   4B9
  8
0
  6
CONTINUOUS
 62
     3
 10
250.51097022695
 20
275.356631013751
 30
0.0
 11
250.51097022695
 21
276.956631037593
 31
0.0
  0
LINE
  5
   4BA
  8
0
  6
CONTINUOUS
 62
     3
 10
248.910970203108
 20
269.756630930305
 30
0.0
 11
248.910970203108
 21
270.556630942225
 31
0.0
  0
LINE
  5
   4BB
  8
0
  6
CONTINUOUS
 62
     3
 10
248.910970203108
 20
276.156631025672
 30
0.0
 11
248.910970203108
 21
276.956631037593
 31
0.0
  0
LINE
  5
   4BC
  8
0
  6
CONTINUOUS
 62
     2
 10
264.910970431761
 20
271.756630960107
 30
0.0
 11
264.910970431761
 21
273.356630983949
 31
0.0
  0
LINE
  5
   4BD
  8
0
  6
CONTINUOUS
 62
     2
 10
264.910970431761
 20
273.356630983949
 30
0.0
 11
264.910970431761
 21
274.956631007791
 31
0.0
  0
LINE
  5
   4BE
  8
0
  6
CONTINUOUS
 62
     2
 10
248.910970203108
 20
271.756630960107
 30
0.0
 11
248.910970203108
 21
273.356630983949
 31
0.0
  0
LINE
  5
   4BF
  8
0
  6
CONTINUOUS
 62
     2
 10
248.910970203108
 20
273.356630983949
 30
0.0
 11
248.910970203108
 21
274.956631007791
 31
0.0
  0
LINE
  5
   4C0
  8
0
  6
CONTINUOUS
 62
     2
 10
250.910970413618
 20
276.556629871104
 30
0.0
 11
264.510969853334
 21
276.556629871104
 31
0.0
  0
LINE
  5
   4C1
  8
0
  6
CONTINUOUS
 62
     2
 10
250.910970413618
 20
270.156629775737
 30
0.0
 11
264.510969853334
 21
270.156629775737
 31
0.0
  0
LINE
  5
   4C2
  8
0
  6
CONTINUOUS
 62
     2
 10
250.510970217184
 20
270.556630942225
 30
0.0
 11
250.510970217184
 21
271.356630954146
 31
0.0
  0
LINE
  5
   4C3
  8
0
  6
CONTINUOUS
 62
     2
 10
250.510970217184
 20
275.356631013751
 30
0.0
 11
250.510970217184
 21
276.156631025672
 31
0.0
  0
LINE
  5
   4C4
  8
0
  6
CONTINUOUS
 62
     2
 10
264.910970431761
 20
274.956631007791
 30
0.0
 11
264.910970431761
 21
276.156631025672
 31
0.0
  0
LINE
  5
   4C5
  8
0
  6
CONTINUOUS
 62
     2
 10
264.910970431761
 20
270.556627890468
 30
0.0
 11
264.910970431761
 21
271.756630960107
 31
0.0
  0
LINE
  5
   4C6
  8
0
  6
CONTINUOUS
 62
     2
 10
264.510970516075
 20
276.556631694369
 30
0.0
 11
264.910969564662
 21
276.156630731041
 31
0.0
  0
LINE
  5
   4C7
  8
0
  6
CONTINUOUS
 62
     2
 10
264.510970150724
 20
270.156627587119
 30
0.0
 11
264.910969199312
 21
270.556628550448
 31
0.0
  0
LINE
  5
   4C8
  8
0
  6
CONTINUOUS
 62
     2
 10
250.510970893256
 20
276.156630540076
 30
0.0
 11
250.91096995346
 21
276.556631491788
 31
0.0
  0
LINE
  5
   4C9
  8
0
  6
CONTINUOUS
 62
     2
 10
250.510969732728
 20
270.556630267299
 30
0.0
 11
250.910970318811
 21
270.1566277897
 31
0.0
  0
LINE
  5
   4CA
  8
0
  6
CONTINUOUS
 62
     2
 10
248.910970203108
 20
274.956631007791
 30
0.0
 11
248.910970203108
 21
275.356631013751
 31
0.0
  0
LINE
  5
   4CB
  8
0
  6
CONTINUOUS
 62
     2
 10
248.910970203108
 20
271.356630954146
 30
0.0
 11
248.910970203108
 21
271.756630960107
 31
0.0
  0
LINE
  5
   4CC
  8
0
  6
CONTINUOUS
 62
     2
 10
227.073210630874
 20
353.676636453271
 30
0.0
 11
227.073210630874
 21
354.15663523972
 31
0.0
  0
ARC
  5
   4CD
  8
0
  6
CONTINUOUS
 62
     2
 10
227.073210630874
 20
353.116635224952
 30
0.0
 40
0.560000008341519
 50
59.7139489338696
 51
90.0000751820915
  0
ARC
  5
   4CE
  8
0
  6
CONTINUOUS
 62
     2
 10
227.073210630874
 20
353.116635224948
 30
0.0
 40
0.560000008343299
 50
270.000080936306
 51
300.433528276233
  0
LINE
  5
   4CF
  8
0
  6
CONTINUOUS
 62
     2
 10
230.513209425355
 20
367.956635654283
 30
0.0
 11
235.713210149954
 21
365.756635347729
 31
0.0
  0
LINE
  5
   4D0
  8
0
  6
CONTINUOUS
 62
     2
 10
232.160072917411
 20
354.15663523972
 30
0.0
 11
232.513210129704
 21
354.15663523972
 31
0.0
  0
LINE
  5
   4D1
  8
0
  6
CONTINUOUS
 62
     2
 10
232.113210123744
 20
354.156635239724
 30
0.0
 11
232.160072917411
 21
354.156635239724
 31
0.0
  0
LINE
  5
   4D2
  8
0
  6
CONTINUOUS
 62
     2
 10
233.040072871864
 20
363.756635382772
 30
0.0
 11
233.040072871864
 21
364.156635388732
 31
0.0
  0
LINE
  5
   4D3
  8
0
  6
CONTINUOUS
 62
     2
 10
229.31321084496
 20
352.556635215878
 30
0.0
 11
230.113210856881
 21
352.556635215878
 31
0.0
  0
LINE
  5
   4D4
  8
0
  6
CONTINUOUS
 62
     2
 10
225.073209866252
 20
367.956635445356
 30
0.0
 11
230.513209336963
 21
367.956635445356
 31
0.0
  0
LINE
  5
   4D5
  8
0
  6
CONTINUOUS
 62
     2
 10
230.513209919181
 20
365.756635412574
 30
0.0
 11
230.513209919181
 21
367.956635445356
 31
0.0
  0
LINE
  5
   4D6
  8
0
  6
CONTINUOUS
 62
     2
 10
230.513209919194
 20
352.956635221839
 30
0.0
 11
230.513209919194
 21
354.15663523972
 31
0.0
  0
LINE
  5
   4D7
  8
0
  6
CONTINUOUS
 62
     2
 10
228.913209895352
 20
352.956635221839
 30
0.0
 11
228.913209895352
 21
354.15663523972
 31
0.0
  0
LINE
  5
   4D8
  8
0
  6
CONTINUOUS
 62
     2
 10
232.113210123744
 20
364.156635388732
 30
0.0
 11
236.113213998046
 21
364.156635388732
 31
0.0
  0
LINE
  5
   4D9
  8
0
  6
CONTINUOUS
 62
     2
 10
232.113209943036
 20
354.15663523972
 30
0.0
 11
232.113209943036
 21
364.156635388732
 31
0.0
  0
LINE
  5
   4DA
  8
0
  6
CONTINUOUS
 62
     2
 10
224.113210586766
 20
355.316635867357
 30
0.0
 11
224.113210586766
 21
361.796637794972
 31
0.0
  0
LINE
  5
   4DB
  8
0
  6
CONTINUOUS
 62
     2
 10
224.113210371941
 20
355.316635471825
 30
0.0
 11
225.073210233659
 21
354.356635610107
 31
0.0
  0
LINE
  5
   4DC
  8
0
  6
CONTINUOUS
 62
     2
 10
224.11321189782
 20
361.796636664625
 30
0.0
 11
225.073210233659
 21
362.756635000464
 31
0.0
  0
LINE
  5
   4DD
  8
0
  6
CONTINUOUS
 62
     2
 10
226.673210624913
 20
352.556635215879
 30
0.0
 11
226.673210624913
 21
354.15663523972
 31
0.0
  0
LINE
  5
   4DE
  8
0
  6
CONTINUOUS
 62
     2
 10
225.073210601071
 20
352.556635215879
 30
0.0
 11
225.073210601071
 21
354.356635242701
 31
0.0
  0
LINE
  5
   4DF
  8
0
  6
CONTINUOUS
 62
     2
 10
225.073210601071
 20
362.75663536787
 30
0.0
 11
225.073210601071
 21
367.956635445356
 31
0.0
  0
LINE
  5
   4E0
  8
0
  6
CONTINUOUS
 62
     2
 10
225.073209866252
 20
352.556635216605
 30
0.0
 11
226.673209890094
 21
352.556635216605
 31
0.0
  0
LINE
  5
   4E1
  8
0
  6
CONTINUOUS
 62
     2
 10
228.913209604597
 20
352.956635513316
 30
0.0
 11
229.313210754608
 21
352.556635125526
 31
0.0
  0
LINE
  5
   4E2
  8
0
  6
CONTINUOUS
 62
     2
 10
230.113210766538
 20
352.556635306222
 30
0.0
 11
230.513209627704
 21
352.956634931098
 31
0.0
  0
LINE
  5
   4E3
  8
0
  6
CONTINUOUS
 62
     2
 10
226.673209890094
 20
354.15663523972
 30
0.0
 11
228.913209313121
 21
354.15663523972
 31
0.0
  0
LINE
  5
   4E4
  8
0
  6
CONTINUOUS
 62
     2
 10
230.513209336963
 20
354.15663523972
 30
0.0
 11
232.113210123744
 21
354.15663523972
 31
0.0
  0
LINE
  5
   4E5
  8
0
  6
CONTINUOUS
 62
     2
 10
230.513209336963
 20
365.756635412574
 30
0.0
 11
236.113213998046
 21
365.756635412574
 31
0.0
  0
LINE
  5
   4E6
  8
0
  6
CONTINUOUS
 62
     2
 10
236.11321398828
 20
364.156635388732
 30
0.0
 11
236.11321398828
 21
365.756635412574
 31
0.0
  0
LINE
  5
   4E7
  8
0
  6
CONTINUOUS
 62
     2
 10
227.073210630874
 20
277.756631049514
 30
0.0
 11
227.073210630874
 21
278.236629835963
 31
0.0
  0
ARC
  5
   4E8
  8
0
  6
CONTINUOUS
 62
     2
 10
227.073210630873
 20
278.796629779361
 30
0.0
 40
0.560000008345087
 50
59.5663634967371
 51
90.0000751820362
  0
ARC
  5
   4E9
  8
0
  6
CONTINUOUS
 62
     2
 10
227.073210630873
 20
278.796629779363
 30
0.0
 40
0.560000008346235
 50
269.999924817807
 51
300.285943786596
  0
LINE
  5
   4EA
  8
0
  6
CONTINUOUS
 62
     2
 10
230.513209886444
 20
263.956629545104
 30
0.0
 11
235.713210611043
 21
266.156629851658
 31
0.0
  0
LINE
  5
   4EB
  8
0
  6
CONTINUOUS
 62
     2
 10
232.160072917411
 20
277.75662976459
 30
0.0
 11
232.513210129704
 21
277.75662976459
 31
0.0
  0
LINE
  5
   4EC
  8
0
  6
CONTINUOUS
 62
     2
 10
232.113210123744
 20
277.756629764586
 30
0.0
 11
232.160072917411
 21
277.756629764586
 31
0.0
  0
LINE
  5
   4ED
  8
0
  6
CONTINUOUS
 62
     2
 10
233.040072871864
 20
267.756630900502
 30
0.0
 11
233.040072871864
 21
268.156630906463
 31
0.0
  0
LINE
  5
   4EE
  8
0
  6
CONTINUOUS
 62
     2
 10
229.31321084496
 20
279.356629788432
 30
0.0
 11
230.113210856881
 21
279.356629788432
 31
0.0
  0
LINE
  5
   4EF
  8
0
  6
CONTINUOUS
 62
     2
 10
225.073209866252
 20
263.956629558954
 30
0.0
 11
230.513209336963
 21
263.956629558954
 31
0.0
  0
LINE
  5
   4F0
  8
0
  6
CONTINUOUS
 62
     2
 10
230.513209919181
 20
263.956630843878
 30
0.0
 11
230.513209919181
 21
266.15663087666
 31
0.0
  0
LINE
  5
   4F1
  8
0
  6
CONTINUOUS
 62
     2
 10
230.513209919194
 20
277.756631049514
 30
0.0
 11
230.513209919194
 21
278.956631067395
 31
0.0
  0
LINE
  5
   4F2
  8
0
  6
CONTINUOUS
 62
     2
 10
228.913209895352
 20
277.756631049514
 30
0.0
 11
228.913209895352
 21
278.956631067395
 31
0.0
  0
LINE
  5
   4F3
  8
0
  6
CONTINUOUS
 62
     2
 10
232.113210123744
 20
267.756629615579
 30
0.0
 11
236.113213998046
 21
267.756629615579
 31
0.0
  0
LINE
  5
   4F4
  8
0
  6
CONTINUOUS
 62
     2
 10
232.113209943036
 20
267.756630900502
 30
0.0
 11
232.113209943036
 21
277.756631049514
 31
0.0
  0
LINE
  5
   4F5
  8
0
  6
CONTINUOUS
 62
     2
 10
224.113210586766
 20
270.116628494263
 30
0.0
 11
224.113210586766
 21
276.596630421877
 31
0.0
  0
LINE
  5
   4F6
  8
0
  6
CONTINUOUS
 62
     2
 10
224.113211014403
 20
276.596630174948
 30
0.0
 11
225.07321087612
 21
277.556630036666
 31
0.0
  0
LINE
  5
   4F7
  8
0
  6
CONTINUOUS
 62
     2
 10
224.113211255359
 20
270.116628982148
 30
0.0
 11
225.073209591197
 21
269.156630646309
 31
0.0
  0
LINE
  5
   4F8
  8
0
  6
CONTINUOUS
 62
     2
 10
226.673210624913
 20
277.756631049514
 30
0.0
 11
226.673210624913
 21
279.356631073356
 31
0.0
  0
LINE
  5
   4F9
  8
0
  6
CONTINUOUS
 62
     2
 10
225.073210601071
 20
263.956630843878
 30
0.0
 11
225.073210601071
 21
269.156630921364
 31
0.0
  0
LINE
  5
   4FA
  8
0
  6
CONTINUOUS
 62
     2
 10
225.073210601071
 20
277.556631046534
 30
0.0
 11
225.073210601071
 21
279.356631073356
 31
0.0
  0
LINE
  5
   4FB
  8
0
  6
CONTINUOUS
 62
     2
 10
225.073209866252
 20
279.356629787706
 30
0.0
 11
226.673209890094
 21
279.356629787706
 31
0.0
  0
LINE
  5
   4FC
  8
0
  6
CONTINUOUS
 62
     2
 10
228.913210247064
 20
278.95663013345
 30
0.0
 11
229.313211397075
 21
279.35663052124
 31
0.0
  0
LINE
  5
   4FD
  8
0
  6
CONTINUOUS
 62
     2
 10
230.113210124073
 20
279.356630340549
 30
0.0
 11
230.51320898524
 21
278.956630715673
 31
0.0
  0
LINE
  5
   4FE
  8
0
  6
CONTINUOUS
 62
     2
 10
226.673209890094
 20
277.75662976459
 30
0.0
 11
228.913209313121
 21
277.75662976459
 31
0.0
  0
LINE
  5
   4FF
  8
0
  6
CONTINUOUS
 62
     2
 10
230.513209336963
 20
277.75662976459
 30
0.0
 11
232.113210123744
 21
277.75662976459
 31
0.0
  0
LINE
  5
   500
  8
0
  6
CONTINUOUS
 62
     2
 10
230.513209336963
 20
266.156629591737
 30
0.0
 11
236.113213998046
 21
266.156629591737
 31
0.0
  0
LINE
  5
   501
  8
0
  6
CONTINUOUS
 62
     2
 10
236.11321398828
 20
266.15663087666
 30
0.0
 11
236.11321398828
 21
267.756630900502
 31
0.0
  0
LINE
  5
   502
  8
0
  6
DASHDOT
 62
     7
 10
232.673210055795
 20
273.356629699025
 30
0.0
 11
273.953211586442
 21
273.356629699025
 31
0.0
  0
LINE
  5
   503
  8
0
  6
DASHDOT
 62
     7
 10
266.113211141758
 20
279.236629791902
 30
0.0
 11
266.113211141758
 21
280.67662981336
 31
0.0
  0
LINE
  5
   504
  8
0
  6
DASHDOT
 62
     7
 10
232.673210055795
 20
358.556635305291
 30
0.0
 11
273.953211586442
 21
358.556635305291
 31
0.0
  0
LINE
  5
   505
  8
0
  6
DASHDOT
 62
     7
 10
266.993209727969
 20
365.556635409599
 30
0.0
 11
270.833211616244
 21
365.556635409599
 31
0.0
  0
LINE
  5
   506
  8
0
  6
DASHDOT
 62
     7
 10
262.113210623084
 20
282.47662956961
 30
0.0
 11
262.113210623084
 21
283.436629876216
 31
0.0
  0
LINE
  5
   507
  8
0
  6
DASHDOT
 62
     7
 10
266.993209727969
 20
266.356629387603
 30
0.0
 11
270.833211616244
 21
266.356629387603
 31
0.0
  0
INSERT
  5
   508
  8
0
  6
CONTINUOUS
 62
     7
  2
*HATCH2103
 10
0.0
 20
0.0
 30
0.0
  0
INSERT
  5
   509
  8
0
  6
CONTINUOUS
 62
     7
  2
*HATCH2104
 10
0.0
 20
0.0
 30
0.0
  0
INSERT
  5
   50A
  8
0
  6
CONTINUOUS
 62
     7
  2
*HATCH2105
 10
0.0
 20
0.0
 30
0.0
  0
INSERT
  5
   50B
  8
0
  6
CONTINUOUS
 62
     7
  2
*HATCH2106
 10
0.0
 20
0.0
 30
0.0
  0
INSERT
  5
   50C
  8
0
  6
CONTINUOUS
 62
     7
  2
*HATCH2107
 10
0.0
 20
0.0
 30
0.0
  0
INSERT
  5
   50D
  8
0
  6
CONTINUOUS
 62
     7
  2
*HATCH2108
 10
0.0
 20
0.0
 30
0.0
  0
INSERT
  5
   50E
  8
0
  6
CONTINUOUS
 62
     7
  2
*HATCH2109
 10
0.0
 20
0.0
 30
0.0
  0
INSERT
  5
   50F
  8
0
  6
CONTINUOUS
 62
     7
  2
*HATCH2110
 10
0.0
 20
0.0
 30
0.0
  0
INSERT
  5
   510
  8
0
  6
CONTINUOUS
 62
     7
  2
*HATCH2111
 10
0.0
 20
0.0
 30
0.0
  0
INSERT
  5
   511
  8
0
  6
CONTINUOUS
 62
     7
  2
*HATCH2112
 10
0.0
 20
0.0
 30
0.0
  0
INSERT
  5
   512
  8
0
  6
CONTINUOUS
 62
     7
  2
*HATCH2113
 10
0.0
 20
0.0
 30
0.0
  0
INSERT
  5
   513
  8
0
  6
CONTINUOUS
 62
     7
  2
*HATCH2114
 10
0.0
 20
0.0
 30
0.0
  0
INSERT
  5
   514
  8
0
  6
CONTINUOUS
 62
     7
  2
*HATCH2115
 10
0.0
 20
0.0
 30
0.0
  0
INSERT
  5
   515
  8
0
  6
CONTINUOUS
 62
     7
  2
*HATCH2116
 10
0.0
 20
0.0
 30
0.0
  0
INSERT
  5
   516
  8
0
  6
CONTINUOUS
 62
     7
  2
*HATCH2117
 10
0.0
 20
0.0
 30
0.0
  0
INSERT
  5
   517
  8
0
  6
CONTINUOUS
 62
     7
  2
*HATCH2118
 10
0.0
 20
0.0
 30
0.0
  0
INSERT
  5
   518
  8
0
  6
CONTINUOUS
 62
     7
  2
*HATCH2119
 10
0.0
 20
0.0
 30
0.0
  0
INSERT
  5
   519
  8
0
  6
CONTINUOUS
 62
     7
  2
*HATCH2120
 10
0.0
 20
0.0
 30
0.0
  0
INSERT
  5
   51A
  8
0
  6
CONTINUOUS
 62
     7
  2
*HATCH2121
 10
0.0
 20
0.0
 30
0.0
  0
INSERT
  5
   51B
  8
0
  6
CONTINUOUS
 62
     7
  2
*HATCH2122
 10
0.0
 20
0.0
 30
0.0
  0
INSERT
  5
   51C
  8
0
  6
CONTINUOUS
 62
     7
  2
*HATCH2123
 10
0.0
 20
0.0
 30
0.0
  0
LINE
  5
   51D
  8
0
  6
CONTINUOUS
 62
     3
 10
247.3109701695
 20
276.956629877065
 30
0.0
 11
247.3109701695
 21
278.556629900907
 31
0.0
  0
LINE
  5
   51E
  8
0
  6
CONTINUOUS
 62
     3
 10
247.310970359974
 20
276.956629877065
 30
0.0
 11
248.910970383816
 21
276.956629877065
 31
0.0
  0
LINE
  5
   51F
  8
0
  6
CONTINUOUS
 62
     3
 10
247.310970359974
 20
269.756629769776
 30
0.0
 11
248.910970383816
 21
269.756629769776
 31
0.0
  0
LINE
  5
   520
  8
0
  6
CONTINUOUS
 62
     3
 10
247.3109701695
 20
268.156629745935
 30
0.0
 11
247.3109701695
 21
269.756629769777
 31
0.0
  0
LINE
  5
   521
  8
0
  6
CONTINUOUS
 62
     7
 10
248.910970193342
 20
278.556629900907
 30
0.0
 11
248.910970193342
 21
278.956629782472
 31
0.0
  0
LINE
  5
   522
  8
0
  6
CONTINUOUS
 62
     7
 10
248.910970193342
 20
269.756629769776
 30
0.0
 11
248.910970193342
 21
276.956629877065
 31
0.0
  0
INSERT
  5
   523
  8
0
  6
CONTINUOUS
 62
     7
  2
*HATCH2124
 10
0.0
 20
0.0
 30
0.0
  0
ARC
  5
   524
  8
0
  6
CONTINUOUS
 62
     7
 10
246.611530446213
 20
253.558668945788
 30
0.0
 40
3.80203959843048
 50
215.392413396142
 51
324.607586603858
  0
ARC
  5
   525
  8
0
  6
CONTINUOUS
 62
     7
 10
246.611530446213
 20
249.154589796611
 30
0.0
 40
3.80203959843046
 50
35.3924133961419
 51
144.607586603858
  0
ARC
  5
   526
  8
0
  6
CONTINUOUS
 62
     7
 10
240.412650928114
 20
253.558668945788
 30
0.0
 40
3.80203959843053
 50
215.392413396141
 51
324.607586603857
  0
INSERT
  5
   527
  8
0
  6
CONTINUOUS
 62
     7
  2
*HATCH2125
 10
0.0
 20
0.0
 30
0.0
  0
INSERT
  5
   528
  8
0
  6
CONTINUOUS
 62
     7
  2
*UDIM2408
 10
0.0
 20
0.0
 30
0.0
  0
INSERT
  5
   529
  8
0
  6
CONTINUOUS
 62
     7
  2
*UDIM2409
 10
0.0
 20
0.0
 30
0.0
  0
INSERT
  5
   52A
  8
0
  6
CONTINUOUS
 62
     7
  2
*UDIM2410
 10
0.0
 20
0.0
 30
0.0
  0
INSERT
  5
   52B
  8
0
  6
CONTINUOUS
 62
     7
  2
*UDIM2411
 10
0.0
 20
0.0
 30
0.0
  0
INSERT
  5
   52C
  8
0
  6
CONTINUOUS
 62
     7
  2
*UDIM2412
 10
0.0
 20
0.0
 30
0.0
  0
LINE
  5
   52D
  8
0
  6
DASHDOT
 62
     7
 10
149.000228881836
 20
254.548758303959
 30
0.0
 11
149.000228881836
 21
382.399856575367
 31
0.0
  0
LINE
  5
   52E
  8
0
  6
DASHDOT
 62
     7
 10
80.2573842433953
 20
315.956634670496
 30
0.0
 11
193.199621038338
 21
315.956634670496
 31
0.0
  0
TEXT
  5
   52F
  8
0
  6
CONTINUOUS
 62
     7
 10
187.808306698659
 20
316.571357366149
 30
0.0
 40
2.99999994933605
  1
X
 41
0.933333333333333
 72
     1
 11
188.908306680082
 21
318.071357340817
 31
0.0
 73
     2
  0
TEXT
  5
   530
  8
0
  6
CONTINUOUS
 62
     7
 10
82.9267051134546
 20
316.694467450665
 30
0.0
 40
2.99999994933605
  1
X
 41
0.933333333333333
 72
     1
 11
84.0267050948778
 21
318.194467425333
 31
0.0
 73
     2
  0
TEXT
  5
   531
  8
0
  6
CONTINUOUS
 62
     7
 10
145.582409859388
 20
372.285352270096
 30
0.0
 40
2.99999994933605
  1
Y
 41
0.933333333333333
 72
     1
 11
146.682409840811
 21
373.785352244764
 31
0.0
 73
     2
  0
TEXT
  5
   532
  8
0
  6
CONTINUOUS
 62
     7
 10
145.705519943904
 20
256.986076460382
 30
0.0
 40
2.99999994933605
  1
Y
 41
0.933333333333333
 72
     1
 11
146.805519925327
 21
258.48607643505
 31
0.0
 73
     2
  0
ARC
  5
   533
  8
0
  6
CONTINUOUS
 62
     3
 10
183.00022938784
 20
367.156635432805
 30
0.0
 40
0.800000011920588
 50
0.0
 51
89.9999999544728
  0
ARC
  5
   534
  8
0
  6
CONTINUOUS
 62
     3
 10
91.0002201815543
 20
367.156643269455
 30
0.0
 40
0.800000011920767
 50
89.9994387813275
 51
180.000561219
  0
LINE
  5
   535
  8
0
  6
CONTINUOUS
 62
     3
 10
115.400228381157
 20
367.156635433435
 30
0.0
 11
115.400228381157
 21
367.956635445356
 31
0.0
  0
LINE
  5
   536
  8
0
  6
CONTINUOUS
 62
     7
 10
115.400228381157
 20
366.356635421515
 30
0.0
 11
115.400228381157
 21
367.156635433435
 31
0.0
  0
LINE
  5
   537
  8
0
  6
CONTINUOUS
 62
     3
 10
110.600228309631
 20
367.156635433435
 30
0.0
 11
110.600228309631
 21
367.956635445356
 31
0.0
  0
LINE
  5
   538
  8
0
  6
CONTINUOUS
 62
     7
 10
110.600228309631
 20
366.356635421515
 30
0.0
 11
110.600228309631
 21
367.156635433435
 31
0.0
  0
LINE
  5
   539
  8
0
  6
CONTINUOUS
 62
     3
 10
163.400229096413
 20
367.156635433435
 30
0.0
 11
163.400229096413
 21
367.956635445356
 31
0.0
  0
LINE
  5
   53A
  8
0
  6
CONTINUOUS
 62
     7
 10
163.400229096413
 20
366.356635421515
 30
0.0
 11
163.400229096413
 21
367.156635433435
 31
0.0
  0
LINE
  5
   53B
  8
0
  6
CONTINUOUS
 62
     3
 10
158.600229024887
 20
367.156635433435
 30
0.0
 11
158.600229024887
 21
367.956635445356
 31
0.0
  0
LINE
  5
   53C
  8
0
  6
CONTINUOUS
 62
     7
 10
158.600229024887
 20
366.356635421515
 30
0.0
 11
158.600229024887
 21
367.156635433435
 31
0.0
  0
POLYLINE
  5
   53D
  8
0
  6
CONTINUOUS
 62
     7
 66
     1
 10
0.0
 20
0.0
 30
0.0
  0
VERTEX
  5
   53E
  8
0
  6
CONTINUOUS
 10
148.329903115769
 20
366.186768475611
 30
0.0
 40
0.0
 41
0.0
  0
VERTEX
  5
   53F
  8
0
  6
CONTINUOUS
 10
148.103778514926
 20
365.529254947313
 30
0.0
 40
0.0
 41
0.0
  0
VERTEX
  5
   540
  8
0
  6
CONTINUOUS
 10
148.362330141107
 20
364.923230859128
 30
0.0
 40
0.0
 41
0.0
  0
SEQEND
  5
   541
  8
0
  6
CONTINUOUS
 62
     7
  0
POLYLINE
  5
   542
  8
0
  6
CONTINUOUS
 62
     7
 66
     1
 10
0.0
 20
0.0
 30
0.0
  0
VERTEX
  5
   543
  8
0
  6
CONTINUOUS
 10
149.670554647902
 20
364.926502343571
 30
0.0
 40
0.0
 41
0.0
  0
VERTEX
  5
   544
  8
0
  6
CONTINUOUS
 10
149.896679248748
 20
365.584015871871
 30
0.0
 40
0.0
 41
0.0
  0
VERTEX
  5
   545
  8
0
  6
CONTINUOUS
 10
149.638127622569
 20
366.190039960057
 30
0.0
 40
0.0
 41
0.0
  0
SEQEND
  5
   546
  8
0
  6
CONTINUOUS
 62
     7
  0
ARC
  5
   547
  8
0
  6
CONTINUOUS
 62
     3
 10
149.000110761402
 20
365.556635409599
 30
0.0
 40
0.920097351976017
 50
270.007356296949
 51
449.992643703051
  0
CIRCLE
  5
   548
  8
0
  6
CONTINUOUS
 62
     7
 10
149.000228881836
 20
365.556635409599
 30
0.0
 40
0.920000013709141
  0
LINE
  5
   549
  8
0
  6
CONTINUOUS
 62
     7
 10
176.253223062351
 20
299.356634423142
 30
0.0
 11
176.448013714668
 21
299.356634423142
 31
0.0
  0
LINE
  5
   54A
  8
0
  6
CONTINUOUS
 62
     7
 10
169.572030946192
 20
299.356634423142
 30
0.0
 11
169.721573184749
 21
299.356634423142
 31
0.0
  0
ARC
  5
   54B
  8
0
  6
CONTINUOUS
 62
     7
 10
182.200229376557
 20
354.156635239727
 30
0.0
 40
2.08000003099125
 50
16.9530639362389
 51
39.7150517978923
  0
LINE
  5
   54C
  8
0
  6
CONTINUOUS
 62
     5
 10
183.800229400396
 20
360.756635338073
 30
0.0
 11
185.000229418278
 21
360.756635338073
 31
0.0
  0
LINE
  5
   54D
  8
0
  6
CONTINUOUS
 62
     5
 10
183.800229400396
 20
357.156635284429
 30
0.0
 11
185.000229418278
 21
357.156635284429
 31
0.0
  0
LINE
  5
   54E
  8
0
  6
CONTINUOUS
 62
     5
 10
185.000229418278
 20
357.156635284424
 30
0.0
 11
185.000229418278
 21
360.756635338068
 31
0.0
  0
LINE
  5
   54F
  8
0
  6
CONTINUOUS
 62
     7
 10
185.000229418278
 20
354.196634629965
 30
0.0
 11
185.000229418278
 21
356.236634050012
 31
0.0
  0
LINE
  5
   550
  8
0
  6
CONTINUOUS
 62
     7
 10
185.000229418278
 20
356.236634050012
 30
0.0
 11
185.000229418278
 21
357.156635284424
 31
0.0
  0
LINE
  5
   551
  8
0
  6
CONTINUOUS
 62
     7
 10
185.000229418278
 20
360.756635338068
 30
0.0
 11
185.000229418278
 21
363.156635373831
 31
0.0
  0
LINE
  5
   552
  8
0
  6
CONTINUOUS
 62
     7
 10
89.0002279877663
 20
354.196634629965
 30
0.0
 11
89.0002279877663
 21
356.236634050012
 31
0.0
  0
LINE
  5
   553
  8
0
  6
CONTINUOUS
 62
     7
 10
89.0002279877663
 20
356.236634050012
 30
0.0
 11
89.0002279877663
 21
363.156635373831
 31
0.0
  0
LINE
  5
   554
  8
0
  6
CONTINUOUS
 62
     3
 10
163.400229096413
 20
367.956635445361
 30
0.0
 11
183.000229388475
 21
367.956635445361
 31
0.0
  0
LINE
  5
   555
  8
0
  6
CONTINUOUS
 62
     3
 10
115.400228381157
 20
367.956635445361
 30
0.0
 11
134.600228667259
 21
367.956635445361
 31
0.0
  0
LINE
  5
   556
  8
0
  6
CONTINUOUS
 62
     3
 10
91.0002280175686
 20
367.956635445361
 30
0.0
 11
110.600228309631
 21
367.956635445361
 31
0.0
  0
LINE
  5
   557
  8
0
  6
CONTINUOUS
 62
     7
 10
114.200228363276
 20
367.956635445361
 30
0.0
 11
115.400228381157
 21
367.956635445361
 31
0.0
  0
LINE
  5
   558
  8
0
  6
CONTINUOUS
 62
     7
 10
110.600228309631
 20
367.956635445361
 30
0.0
 11
111.800228327513
 21
367.956635445361
 31
0.0
  0
LINE
  5
   559
  8
0
  6
CONTINUOUS
 62
     7
 10
162.200229078531
 20
367.956635445361
 30
0.0
 11
163.400229096413
 21
367.956635445361
 31
0.0
  0
LINE
  5
   55A
  8
0
  6
CONTINUOUS
 62
     7
 10
158.600229024887
 20
367.956635445361
 30
0.0
 11
159.800229042768
 21
367.956635445361
 31
0.0
  0
LINE
  5
   55B
  8
0
  6
CONTINUOUS
 62
     7
 10
110.600228309631
 20
364.756635397678
 30
0.0
 11
115.400228381157
 21
364.756635397678
 31
0.0
  0
LINE
  5
   55C
  8
0
  6
CONTINUOUS
 62
     7
 10
158.600229024887
 20
364.756635397678
 30
0.0
 11
163.400229096413
 21
364.756635397678
 31
0.0
  0
LINE
  5
   55D
  8
0
  6
CONTINUOUS
 62
     3
 10
90.2002280056477
 20
366.35663542152
 30
0.0
 11
91.0002280175686
 21
366.35663542152
 31
0.0
  0
LINE
  5
   55E
  8
0
  6
CONTINUOUS
 62
     7
 10
91.0002280175686
 20
366.35663542152
 30
0.0
 11
91.4002280235291
 21
366.35663542152
 31
0.0
  0
LINE
  5
   55F
  8
0
  6
CONTINUOUS
 62
     7
 10
91.4002280235291
 20
363.956635385752
 30
0.0
 11
91.4002280235291
 21
366.356635421515
 31
0.0
  0
LINE
  5
   560
  8
0
  6
CONTINUOUS
 62
     3
 10
90.2002280056477
 20
363.956635385757
 30
0.0
 11
91.0002280175686
 21
363.956635385757
 31
0.0
  0
LINE
  5
   561
  8
0
  6
CONTINUOUS
 62
     7
 10
91.0002280175686
 20
363.956635385757
 30
0.0
 11
91.4002280235291
 21
363.956635385757
 31
0.0
  0
LINE
  5
   562
  8
0
  6
CONTINUOUS
 62
     7
 10
110.600228309631
 20
364.756635397673
 30
0.0
 11
110.600228309631
 21
366.356635421515
 31
0.0
  0
LINE
  5
   563
  8
0
  6
CONTINUOUS
 62
     7
 10
110.600228309631
 20
366.35663542152
 30
0.0
 11
111.800228327513
 21
366.35663542152
 31
0.0
  0
LINE
  5
   564
  8
0
  6
CONTINUOUS
 62
     7
 10
111.800228327513
 20
366.356635421515
 30
0.0
 11
111.800228327513
 21
367.956635445356
 31
0.0
  0
LINE
  5
   565
  8
0
  6
CONTINUOUS
 62
     7
 10
114.200228363276
 20
366.356635421515
 30
0.0
 11
114.200228363276
 21
367.956635445356
 31
0.0
  0
LINE
  5
   566
  8
0
  6
CONTINUOUS
 62
     7
 10
114.200228363276
 20
366.35663542152
 30
0.0
 11
115.400228381157
 21
366.35663542152
 31
0.0
  0
LINE
  5
   567
  8
0
  6
CONTINUOUS
 62
     7
 10
115.400228381157
 20
364.756635397673
 30
0.0
 11
115.400228381157
 21
366.356635421515
 31
0.0
  0
LINE
  5
   568
  8
0
  6
CONTINUOUS
 62
     7
 10
182.600229382515
 20
363.956635385752
 30
0.0
 11
182.600229382515
 21
366.356635421515
 31
0.0
  0
LINE
  5
   569
  8
0
  6
CONTINUOUS
 62
     3
 10
183.000229388475
 20
366.35663542152
 30
0.0
 11
183.800229400396
 21
366.35663542152
 31
0.0
  0
LINE
  5
   56A
  8
0
  6
CONTINUOUS
 62
     7
 10
182.600229382515
 20
366.35663542152
 30
0.0
 11
183.000229388475
 21
366.35663542152
 31
0.0
  0
LINE
  5
   56B
  8
0
  6
CONTINUOUS
 62
     3
 10
183.000229388475
 20
363.956635385757
 30
0.0
 11
183.800229400396
 21
363.956635385757
 31
0.0
  0
LINE
  5
   56C
  8
0
  6
CONTINUOUS
 62
     7
 10
182.600229382515
 20
363.956635385757
 30
0.0
 11
183.000229388475
 21
363.956635385757
 31
0.0
  0
LINE
  5
   56D
  8
0
  6
CONTINUOUS
 62
     7
 10
158.600229024887
 20
364.756635397673
 30
0.0
 11
158.600229024887
 21
366.356635421515
 31
0.0
  0
LINE
  5
   56E
  8
0
  6
CONTINUOUS
 62
     7
 10
158.600229024887
 20
366.35663542152
 30
0.0
 11
159.800229042768
 21
366.35663542152
 31
0.0
  0
LINE
  5
   56F
  8
0
  6
CONTINUOUS
 62
     7
 10
159.800229042768
 20
366.356635421515
 30
0.0
 11
159.800229042768
 21
367.956635445356
 31
0.0
  0
LINE
  5
   570
  8
0
  6
CONTINUOUS
 62
     7
 10
162.200229078531
 20
366.356635421515
 30
0.0
 11
162.200229078531
 21
367.956635445356
 31
0.0
  0
LINE
  5
   571
  8
0
  6
CONTINUOUS
 62
     7
 10
162.200229078531
 20
366.35663542152
 30
0.0
 11
163.400229096413
 21
366.35663542152
 31
0.0
  0
LINE
  5
   572
  8
0
  6
CONTINUOUS
 62
     7
 10
163.400229096413
 20
364.756635397673
 30
0.0
 11
163.400229096413
 21
366.356635421515
 31
0.0
  0
LINE
  5
   573
  8
0
  6
CONTINUOUS
 62
     7
 10
183.800229400396
 20
363.156635373836
 30
0.0
 11
185.000229418278
 21
363.156635373836
 31
0.0
  0
LINE
  5
   574
  8
0
  6
CONTINUOUS
 62
     7
 10
113.000228345394
 20
363.156635373836
 30
0.0
 11
114.200228363276
 21
363.156635373836
 31
0.0
  0
CIRCLE
  5
   575
  8
0
  6
CONTINUOUS
 62
     7
 10
137.000228703022
 20
358.756635308271
 30
0.0
 40
1.68000002503397
  0
CIRCLE
  5
   576
  8
0
  6
CONTINUOUS
 62
     7
 10
161.00022906065
 20
358.756635308271
 30
0.0
 40
1.680000025034
  0
LINE
  5
   577
  8
0
  6
CONTINUOUS
 62
     7
 10
176.604581099813
 20
297.7566343993
 30
0.0
 11
176.668509323422
 21
297.7566343993
 31
0.0
  0
LINE
  5
   578
  8
0
  6
CONTINUOUS
 62
     3
 10
183.549356593924
 20
363.156635373836
 30
0.0
 11
183.800229400396
 21
363.156635373836
 31
0.0
  0
LINE
  5
   579
  8
0
  6
CONTINUOUS
 62
     3
 10
183.000229388475
 20
363.156635373836
 30
0.0
 11
183.548111476718
 21
363.156635373836
 31
0.0
  0
LINE
  5
   57A
  8
0
  6
CONTINUOUS
 62
     3
 10
114.200228363276
 20
363.156635373836
 30
0.0
 11
115.000228375196
 21
363.156635373836
 31
0.0
  0
LINE
  5
   57B
  8
0
  6
CONTINUOUS
 62
     7
 10
115.000228375196
 20
363.156635373836
 30
0.0
 11
183.000229388475
 21
363.156635373836
 31
0.0
  0
ARC
  5
   57C
  8
0
  6
CONTINUOUS
 62
     7
 10
137.000228718277
 20
358.75663533476
 30
0.0
 40
3.40000008123192
 50
239.954025452621
 51
240.12266140989
  0
ARC
  5
   57D
  8
0
  6
CONTINUOUS
 62
     7
 10
137.000228703023
 20
358.756635308271
 30
0.0
 40
3.40000005066482
 50
179.974308650493
 51
194.431647155144
  0
ARC
  5
   57E
  8
0
  6
CONTINUOUS
 62
     7
 10
137.000228703026
 20
358.756635308274
 30
0.0
 40
3.40000005066841
 50
209.967083278846
 51
246.677064342243
  0
ARC
  5
   57F
  8
0
  6
CONTINUOUS
 62
     7
 10
137.000228703024
 20
358.756635308269
 30
0.0
 40
3.40000005066609
 50
119.968093564555
 51
148.694384037001
  0
ARC
  5
   580
  8
0
  6
CONTINUOUS
 62
     7
 10
137.000228703026
 20
358.756635308269
 30
0.0
 40
3.40000005066828
 50
149.95240814021
 51
161.76369214056
  0
ARC
  5
   581
  8
0
  6
CONTINUOUS
 62
     7
 10
137.000228703025
 20
358.756635308274
 30
0.0
 40
3.40000005066009
 50
21.9533121878828
 51
60.1353119424637
  0
ARC
  5
   582
  8
0
  6
CONTINUOUS
 62
     7
 10
137.000228703032
 20
358.756635308276
 30
0.0
 40
3.40000005065277
 50
25.6503975439539
 51
30.0255031534844
  0
ARC
  5
   583
  8
0
  6
CONTINUOUS
 62
     7
 10
137.000228721052
 20
358.756635308271
 30
0.0
 40
3.40000003263433
 50
359.875837314121
 51
360.035739285514
  0
LINE
  5
   584
  8
0
  6
CONTINUOUS
 62
     3
 10
183.800229400396
 20
363.156635373831
 30
0.0
 11
183.800229400396
 21
363.956635385752
 31
0.0
  0
LINE
  5
   585
  8
0
  6
CONTINUOUS
 62
     3
 10
183.800229400396
 20
366.356635421515
 30
0.0
 11
183.800229400396
 21
367.156635433435
 31
0.0
  0
LINE
  5
   586
  8
0
  6
CONTINUOUS
 62
     3
 10
90.2002280056477
 20
363.156635373831
 30
0.0
 11
90.2002280056477
 21
363.956635385752
 31
0.0
  0
LINE
  5
   587
  8
0
  6
CONTINUOUS
 62
     3
 10
90.2002280056477
 20
366.356635421515
 30
0.0
 11
90.2002280056477
 21
367.156635433435
 31
0.0
  0
LINE
  5
   588
  8
0
  6
CONTINUOUS
 62
    58
 10
148.331728162341
 20
364.956635400653
 30
0.0
 11
148.337596406599
 21
364.956635400653
 31
0.0
  0
LINE
  5
   589
  8
0
  6
CONTINUOUS
 62
    58
 10
149.689091740383
 20
364.956635400653
 30
0.0
 11
149.692943440269
 21
364.956635400653
 31
0.0
  0
LINE
  5
   58A
  8
0
  6
CONTINUOUS
 62
     3
 10
174.273365794092
 20
297.476634456146
 30
0.0
 11
174.480228437555
 21
297.683497099609
 31
0.0
  0
LINE
  5
   58B
  8
0
  6
CONTINUOUS
 62
     3
 10
174.480228651165
 20
297.68349749635
 30
0.0
 11
174.480228651165
 21
298.229771308201
 31
0.0
  0
LINE
  5
   58C
  8
0
  6
CONTINUOUS
 62
     3
 10
174.273365794095
 20
298.436634348408
 30
0.0
 11
174.480228437559
 21
298.229771704945
 31
0.0
  0
LINE
  5
   58D
  8
0
  6
CONTINUOUS
 62
     3
 10
173.353366451757
 20
298.436634409431
 30
0.0
 11
174.27336616029
 21
298.436634409431
 31
0.0
  0
LINE
  5
   58E
  8
0
  6
CONTINUOUS
 62
     3
 10
173.240228495375
 20
298.549771633419
 30
0.0
 11
173.353365932974
 21
298.43663419582
 31
0.0
  0
LINE
  5
   58F
  8
0
  6
CONTINUOUS
 62
     3
 10
173.240228632687
 20
298.549771770733
 30
0.0
 11
173.240228632687
 21
298.963497057659
 31
0.0
  0
LINE
  5
   590
  8
0
  6
CONTINUOUS
 62
     3
 10
173.240228495371
 20
298.963497194976
 30
0.0
 11
173.35336593297
 21
299.076634632575
 31
0.0
  0
LINE
  5
   591
  8
0
  6
CONTINUOUS
 62
     3
 10
173.353366451757
 20
299.076634418968
 30
0.0
 11
174.207091134889
 21
299.076634418968
 31
0.0
  0
LINE
  5
   592
  8
0
  6
CONTINUOUS
 62
     3
 10
174.207091501087
 20
299.076634479986
 30
0.0
 11
174.367091732353
 21
298.91663424872
 31
0.0
  0
LINE
  5
   593
  8
0
  6
CONTINUOUS
 62
     3
 10
174.367091579761
 20
298.916634431856
 30
0.0
 11
174.480228254421
 21
299.029771106515
 31
0.0
  0
LINE
  5
   594
  8
0
  6
CONTINUOUS
 62
     3
 10
174.273365794095
 20
299.236634360329
 30
0.0
 11
174.480228437559
 21
299.029771716866
 31
0.0
  0
LINE
  5
   595
  8
0
  6
CONTINUOUS
 62
     3
 10
173.287091426356
 20
299.236634421352
 30
0.0
 11
174.27336616029
 21
299.236634421352
 31
0.0
  0
LINE
  5
   596
  8
0
  6
CONTINUOUS
 62
     3
 10
173.080228233559
 20
299.029771106515
 30
0.0
 11
173.287091639962
 21
299.236634512918
 31
0.0
  0
LINE
  5
   597
  8
0
  6
CONTINUOUS
 62
     3
 10
173.080228630303
 20
298.483497508271
 30
0.0
 11
173.080228630303
 21
299.029771320122
 31
0.0
  0
LINE
  5
   598
  8
0
  6
CONTINUOUS
 62
     3
 10
173.080228233563
 20
298.48349772188
 30
0.0
 11
173.287091639965
 21
298.276634315478
 31
0.0
  0
LINE
  5
   599
  8
0
  6
CONTINUOUS
 62
     3
 10
173.287091426356
 20
298.276634407047
 30
0.0
 11
174.207091134889
 21
298.276634407047
 31
0.0
  0
LINE
  5
   59A
  8
0
  6
CONTINUOUS
 62
     3
 10
174.207091501087
 20
298.276634468065
 30
0.0
 11
174.320228938686
 21
298.163497030466
 31
0.0
  0
LINE
  5
   59B
  8
0
  6
CONTINUOUS
 62
     3
 10
174.320228648781
 20
297.749771758812
 30
0.0
 11
174.320228648781
 21
298.163497045738
 31
0.0
  0
LINE
  5
   59C
  8
0
  6
CONTINUOUS
 62
     3
 10
174.207091501083
 20
297.636634336488
 30
0.0
 11
174.320228938682
 21
297.749771774087
 31
0.0
  0
LINE
  5
   59D
  8
0
  6
CONTINUOUS
 62
     3
 10
173.353366451757
 20
297.63663439751
 30
0.0
 11
174.207091134889
 21
297.63663439751
 31
0.0
  0
LINE
  5
   59E
  8
0
  6
CONTINUOUS
 62
     3
 10
173.193365701708
 20
297.796634415165
 30
0.0
 11
173.353365932974
 21
297.636634183899
 31
0.0
  0
LINE
  5
   59F
  8
0
  6
CONTINUOUS
 62
     3
 10
173.080228416693
 20
297.683497099609
 30
0.0
 11
173.193365854292
 21
297.796634537208
 31
0.0
  0
LINE
  5
   5A0
  8
0
  6
CONTINUOUS
 62
     3
 10
173.080228233563
 20
297.683497709959
 30
0.0
 11
173.287091639965
 21
297.476634303557
 31
0.0
  0
LINE
  5
   5A1
  8
0
  6
CONTINUOUS
 62
     3
 10
173.287091426356
 20
297.476634395126
 30
0.0
 11
174.27336616029
 21
297.476634395126
 31
0.0
  0
LINE
  5
   5A2
  8
0
  6
CONTINUOUS
 62
     3
 10
175.480228666066
 20
297.476634089947
 30
0.0
 11
175.480228666066
 21
299.076634113789
 31
0.0
  0
LINE
  5
   5A3
  8
0
  6
CONTINUOUS
 62
     3
 10
175.32022744298
 20
297.476634395126
 30
0.0
 11
175.480228055716
 21
297.476634395126
 31
0.0
  0
LINE
  5
   5A4
  8
0
  6
CONTINUOUS
 62
     3
 10
175.320228663682
 20
297.476634089947
 30
0.0
 11
175.320228663682
 21
299.076634113789
 31
0.0
  0
LINE
  5
   5A5
  8
0
  6
CONTINUOUS
 62
     3
 10
174.720227434039
 20
299.076634418968
 30
0.0
 11
175.32022744298
 21
299.076634418968
 31
0.0
  0
LINE
  5
   5A6
  8
0
  6
CONTINUOUS
 62
     3
 10
174.720228654741
 20
299.076634113789
 30
0.0
 11
174.720228654741
 21
299.236634726524
 31
0.0
  0
LINE
  5
   5A7
  8
0
  6
CONTINUOUS
 62
     3
 10
174.720227434039
 20
299.236634421352
 30
0.0
 11
176.080228064656
 21
299.236634421352
 31
0.0
  0
LINE
  5
   5A8
  8
0
  6
CONTINUOUS
 62
     3
 10
176.080228675007
 20
299.076634113789
 30
0.0
 11
176.080228675007
 21
299.236634726524
 31
0.0
  0
LINE
  5
   5A9
  8
0
  6
CONTINUOUS
 62
     3
 10
175.480228055716
 20
299.076634418968
 30
0.0
 11
176.080228064656
 21
299.076634418968
 31
0.0
  0
LINE
  5
   5AA
  8
0
  6
CONTINUOUS
 62
     3
 10
170.68022859454
 20
297.476634089947
 30
0.0
 11
170.68022859454
 21
299.076634113789
 31
0.0
  0
LINE
  5
   5AB
  8
0
  6
CONTINUOUS
 62
     3
 10
170.68022798419
 20
299.076634418968
 30
0.0
 11
171.280227993131
 21
299.076634418968
 31
0.0
  0
LINE
  5
   5AC
  8
0
  6
CONTINUOUS
 62
     3
 10
171.280228603481
 20
299.076634113789
 30
0.0
 11
171.280228603481
 21
299.236634726524
 31
0.0
  0
LINE
  5
   5AD
  8
0
  6
CONTINUOUS
 62
     3
 10
169.920228888392
 20
299.236634421352
 30
0.0
 11
171.280227993131
 21
299.236634421352
 31
0.0
  0
LINE
  5
   5AE
  8
0
  6
CONTINUOUS
 62
     3
 10
169.920228583215
 20
299.076634113789
 30
0.0
 11
169.920228583215
 21
299.236634726524
 31
0.0
  0
LINE
  5
   5AF
  8
0
  6
CONTINUOUS
 62
     3
 10
169.920228888392
 20
299.076634418968
 30
0.0
 11
170.520228897333
 21
299.076634418968
 31
0.0
  0
LINE
  5
   5B0
  8
0
  6
CONTINUOUS
 62
     3
 10
170.520228592156
 20
297.476634089947
 30
0.0
 11
170.520228592156
 21
299.076634113789
 31
0.0
  0
LINE
  5
   5B1
  8
0
  6
CONTINUOUS
 62
     3
 10
170.520228897333
 20
297.476634395126
 30
0.0
 11
170.68022798419
 21
297.476634395126
 31
0.0
  0
LINE
  5
   5B2
  8
0
  6
CONTINUOUS
 62
     3
 10
172.600228623151
 20
298.276634101868
 30
0.0
 11
172.600228623151
 21
298.436634714603
 31
0.0
  0
LINE
  5
   5B3
  8
0
  6
CONTINUOUS
 62
     3
 10
171.680227999091
 20
298.436634409431
 30
0.0
 11
172.600229233503
 21
298.436634409431
 31
0.0
  0
LINE
  5
   5B4
  8
0
  6
CONTINUOUS
 62
     3
 10
171.680228609442
 20
298.436634714603
 30
0.0
 11
171.680228609442
 21
299.076634113789
 31
0.0
  0
LINE
  5
   5B5
  8
0
  6
CONTINUOUS
 62
     3
 10
171.680227999091
 20
299.076634418968
 30
0.0
 11
172.880228016973
 21
299.076634418968
 31
0.0
  0
LINE
  5
   5B6
  8
0
  6
CONTINUOUS
 62
     3
 10
172.880228627323
 20
299.076634113789
 30
0.0
 11
172.880228627323
 21
299.236634726524
 31
0.0
  0
LINE
  5
   5B7
  8
0
  6
CONTINUOUS
 62
     3
 10
171.520228912234
 20
299.236634421352
 30
0.0
 11
172.880228016973
 21
299.236634421352
 31
0.0
  0
LINE
  5
   5B8
  8
0
  6
CONTINUOUS
 62
     3
 10
171.520228607057
 20
297.476634089947
 30
0.0
 11
171.520228607057
 21
299.236634726524
 31
0.0
  0
LINE
  5
   5B9
  8
0
  6
CONTINUOUS
 62
     3
 10
171.520228912234
 20
297.476634395126
 30
0.0
 11
172.880228016973
 21
297.476634395126
 31
0.0
  0
LINE
  5
   5BA
  8
0
  6
CONTINUOUS
 62
     3
 10
172.880228627323
 20
297.476634089947
 30
0.0
 11
172.880228627323
 21
297.636634702683
 31
0.0
  0
LINE
  5
   5BB
  8
0
  6
CONTINUOUS
 62
     3
 10
171.680227999091
 20
297.63663439751
 30
0.0
 11
172.880228016973
 21
297.63663439751
 31
0.0
  0
LINE
  5
   5BC
  8
0
  6
CONTINUOUS
 62
     3
 10
171.680228609442
 20
297.636634702683
 30
0.0
 11
171.680228609442
 21
298.276634101868
 31
0.0
  0
LINE
  5
   5BD
  8
0
  6
CONTINUOUS
 62
     3
 10
171.680227999091
 20
298.276634407047
 30
0.0
 11
172.600229233503
 21
298.276634407047
 31
0.0
  0
POLYLINE
  5
   5BE
  8
0
  6
CONTINUOUS
 62
     1
 66
     1
 10
0.0
 20
0.0
 30
0.0
  0
VERTEX
  5
   5BF
  8
0
  6
CONTINUOUS
 10
169.080229181053
 20
298.356634408232
 30
0.0
 40
0.0
 41
0.0
  0
VERTEX
  5
   5C0
  8
0
  6
CONTINUOUS
 10
169.224810189199
 20
297.844462698669
 30
0.0
 40
0.0
 41
0.0
  0
VERTEX
  5
   5C1
  8
0
  6
CONTINUOUS
 10
169.791252276664
 20
297.258728297761
 30
0.0
 40
0.0
 41
0.0
  0
VERTEX
  5
   5C2
  8
0
  6
CONTINUOUS
 10
171.001976679187
 20
296.707504077089
 30
0.0
 40
0.0
 41
0.0
  0
VERTEX
  5
   5C3
  8
0
  6
CONTINUOUS
 10
172.312661842203
 20
296.466709762574
 30
0.0
 40
0.0
 41
0.0
  0
VERTEX
  5
   5C4
  8
0
  6
CONTINUOUS
 10
173.922617562273
 20
296.490907671639
 30
0.0
 40
0.0
 41
0.0
  0
VERTEX
  5
   5C5
  8
0
  6
CONTINUOUS
 10
175.477081532814
 20
296.873181371416
 30
0.0
 40
0.0
 41
0.0
  0
VERTEX
  5
   5C6
  8
0
  6
CONTINUOUS
 10
176.421797007452
 20
297.42503706428
 30
0.0
 40
0.0
 41
0.0
  0
VERTEX
  5
   5C7
  8
0
  6
CONTINUOUS
 10
176.769118588198
 20
297.833254981809
 30
0.0
 40
0.0
 41
0.0
  0
VERTEX
  5
   5C8
  8
0
  6
CONTINUOUS
 10
176.920228077169
 20
298.356634408232
 30
0.0
 40
0.0
 41
0.0
  0
SEQEND
  5
   5C9
  8
0
  6
CONTINUOUS
 62
     1
  0
POLYLINE
  5
   5CA
  8
0
  6
CONTINUOUS
 62
     1
 66
     1
 10
0.0
 20
0.0
 30
0.0
  0
VERTEX
  5
   5CB
  8
0
  6
CONTINUOUS
 10
176.920228077169
 20
298.356634408239
 30
0.0
 40
0.0
 41
0.0
  0
VERTEX
  5
   5CC
  8
0
  6
CONTINUOUS
 10
176.775647069024
 20
298.868806117803
 30
0.0
 40
0.0
 41
0.0
  0
VERTEX
  5
   5CD
  8
0
  6
CONTINUOUS
 10
176.20920498156
 20
299.454540518709
 30
0.0
 40
0.0
 41
0.0
  0
VERTEX
  5
   5CE
  8
0
  6
CONTINUOUS
 10
174.998480579035
 20
300.005764739382
 30
0.0
 40
0.0
 41
0.0
  0
VERTEX
  5
   5CF
  8
0
  6
CONTINUOUS
 10
173.687795416019
 20
300.246559053897
 30
0.0
 40
0.0
 41
0.0
  0
VERTEX
  5
   5D0
  8
0
  6
CONTINUOUS
 10
172.077839695949
 20
300.222361144832
 30
0.0
 40
0.0
 41
0.0
  0
VERTEX
  5
   5D1
  8
0
  6
CONTINUOUS
 10
170.523375725409
 20
299.840087445055
 30
0.0
 40
0.0
 41
0.0
  0
VERTEX
  5
   5D2
  8
0
  6
CONTINUOUS
 10
169.578660250769
 20
299.288231752191
 30
0.0
 40
0.0
 41
0.0
  0
VERTEX
  5
   5D3
  8
0
  6
CONTINUOUS
 10
169.231338670023
 20
298.880013834662
 30
0.0
 40
0.0
 41
0.0
  0
VERTEX
  5
   5D4
  8
0
  6
CONTINUOUS
 10
169.080229181053
 20
298.356634408239
 30
0.0
 40
0.0
 41
0.0
  0
SEQEND
  5
   5D5
  8
0
  6
CONTINUOUS
 62
     1
  0
ARC
  5
   5D6
  8
0
  6
CONTINUOUS
 62
     1
 10
157.000223992649
 20
297.796639408018
 30
0.0
 40
0.400010689129067
 50
270.000717391242
 51
359.999304504023
  0
ARC
  5
   5D7
  8
0
  6
CONTINUOUS
 62
     1
 10
141.000244905481
 20
297.79665054301
 30
0.0
 40
0.40002177537242
 50
180.002290382395
 51
269.997687798967
  0
ARC
  5
   5D8
  8
0
  6
CONTINUOUS
 62
     1
 10
141.000233770754
 20
325.716629807535
 30
0.0
 40
0.400010689129121
 50
90.0007173512564
 51
179.99919518349
  0
ARC
  5
   5D9
  8
0
  6
CONTINUOUS
 62
     1
 10
157.000212857926
 20
325.716618673077
 30
0.0
 40
0.400021775372257
 50
2.39962314552732E-3
 51
89.9976877653575
  0
LINE
  5
   5DA
  8
0
  6
CONTINUOUS
 62
     1
 10
179.130273886473
 20
294.996634510756
 30
0.0
 11
179.130273886473
 21
328.116635462046
 31
0.0
  0
LINE
  5
   5DB
  8
0
  6
CONTINUOUS
 62
     1
 10
118.870183877199
 20
294.996634510756
 30
0.0
 11
118.870183877199
 21
328.116635462046
 31
0.0
  0
LINE
  5
   5DC
  8
0
  6
CONTINUOUS
 62
     2
 10
123.000228494406
 20
328.276634548903
 30
0.0
 11
123.000228494406
 21
328.35663485527
 31
0.0
  0
LINE
  5
   5DD
  8
0
  6
CONTINUOUS
 62
     2
 10
127.00022855401
 20
328.276634548903
 30
0.0
 11
127.00022855401
 21
328.35663485527
 31
0.0
  0
LINE
  5
   5DE
  8
0
  6
CONTINUOUS
 62
     2
 10
175.000229269266
 20
294.756634354591
 30
0.0
 11
175.000229269266
 21
294.836634660959
 31
0.0
  0
LINE
  5
   5DF
  8
0
  6
CONTINUOUS
 62
     2
 10
171.000229209662
 20
294.756634354591
 30
0.0
 11
171.000229209662
 21
294.836634660959
 31
0.0
  0
LINE
  5
   5E0
  8
0
  6
CONTINUOUS
 62
     2
 10
123.000228494406
 20
294.756634354591
 30
0.0
 11
123.000228494406
 21
294.836634660959
 31
0.0
  0
LINE
  5
   5E1
  8
0
  6
CONTINUOUS
 62
     2
 10
127.00022855401
 20
294.756634354591
 30
0.0
 11
127.00022855401
 21
294.836634660959
 31
0.0
  0
POLYLINE
  5
   5E2
  8
0
  6
CONTINUOUS
 62
     1
 66
     1
 10
0.0
 20
0.0
 30
0.0
  0
VERTEX
  5
   5E3
  8
0
  6
CONTINUOUS
 10
179.319617151012
 20
294.836634355787
 30
0.0
 40
0.0
 41
0.0
  0
VERTEX
  5
   5E4
  8
0
  6
CONTINUOUS
 10
179.480229336023
 20
294.996634510758
 30
0.0
 40
0.0
 41
0.0
  0
SEQEND
  5
   5E5
  8
0
  6
CONTINUOUS
 62
     1
  0
POLYLINE
  5
   5E6
  8
0
  6
CONTINUOUS
 62
     1
 66
     1
 10
0.0
 20
0.0
 30
0.0
  0
VERTEX
  5
   5E7
  8
0
  6
CONTINUOUS
 10
179.480229336022
 20
328.11663546205
 30
0.0
 40
0.0
 41
0.0
  0
VERTEX
  5
   5E8
  8
0
  6
CONTINUOUS
 10
179.319617151011
 20
328.276634854075
 30
0.0
 40
0.0
 41
0.0
  0
SEQEND
  5
   5E9
  8
0
  6
CONTINUOUS
 62
     1
  0
POLYLINE
  5
   5EA
  8
0
  6
CONTINUOUS
 62
     1
 66
     1
 10
0.0
 20
0.0
 30
0.0
  0
VERTEX
  5
   5EB
  8
0
  6
CONTINUOUS
 10
118.680840612661
 20
328.276634854075
 30
0.0
 40
0.0
 41
0.0
  0
VERTEX
  5
   5EC
  8
0
  6
CONTINUOUS
 10
118.52022842765
 20
328.11663546205
 30
0.0
 40
0.0
 41
0.0
  0
SEQEND
  5
   5ED
  8
0
  6
CONTINUOUS
 62
     1
  0
POLYLINE
  5
   5EE
  8
0
  6
CONTINUOUS
 62
     1
 66
     1
 10
0.0
 20
0.0
 30
0.0
  0
VERTEX
  5
   5EF
  8
0
  6
CONTINUOUS
 10
118.520228427649
 20
294.996634510755
 30
0.0
 40
0.0
 41
0.0
  0
VERTEX
  5
   5F0
  8
0
  6
CONTINUOUS
 10
118.680840612662
 20
294.836634355787
 30
0.0
 40
0.0
 41
0.0
  0
SEQEND
  5
   5F1
  8
0
  6
CONTINUOUS
 62
     1
  0
LINE
  5
   5F2
  8
0
  6
CONTINUOUS
 62
     1
 10
141.000228762627
 20
297.39663439393
 30
0.0
 11
157.000229001045
 21
297.39663439393
 31
0.0
  0
LINE
  5
   5F3
  8
0
  6
CONTINUOUS
 62
     1
 10
157.400229007006
 20
297.796634552479
 30
0.0
 11
157.400229007006
 21
325.716635426283
 31
0.0
  0
LINE
  5
   5F4
  8
0
  6
CONTINUOUS
 62
     1
 10
140.600228756666
 20
297.796634552479
 30
0.0
 11
140.600228756666
 21
325.716635426283
 31
0.0
  0
LINE
  5
   5F5
  8
0
  6
CONTINUOUS
 62
     2
 10
179.480229336023
 20
294.996634510756
 30
0.0
 11
179.480229336023
 21
328.116635462046
 31
0.0
  0
LINE
  5
   5F6
  8
0
  6
CONTINUOUS
 62
     2
 10
118.520228427649
 20
294.996634510756
 30
0.0
 11
118.520228427649
 21
328.116635462046
 31
0.0
  0
LINE
  5
   5F7
  8
0
  6
CONTINUOUS
 62
     1
 10
176.936655079371
 20
294.836634355783
 30
0.0
 11
179.162555381094
 21
294.836634355783
 31
0.0
  0
LINE
  5
   5F8
  8
0
  6
CONTINUOUS
 62
     1
 10
118.837902382578
 20
294.836634355783
 30
0.0
 11
121.069378245907
 21
294.836634355783
 31
0.0
  0
LINE
  5
   5F9
  8
0
  6
CONTINUOUS
 62
     1
 10
179.162555381094
 20
294.836634355783
 30
0.0
 11
179.319617151013
 21
294.836634355783
 31
0.0
  0
LINE
  5
   5FA
  8
0
  6
CONTINUOUS
 62
     1
 10
121.069378245907
 20
294.836634355783
 30
0.0
 11
176.936655079371
 21
294.836634355783
 31
0.0
  0
LINE
  5
   5FB
  8
0
  6
CONTINUOUS
 62
     1
 10
118.680840612659
 20
294.836634355783
 30
0.0
 11
118.837902382578
 21
294.836634355783
 31
0.0
  0
LINE
  5
   5FC
  8
0
  6
CONTINUOUS
 62
     2
 10
171.000229209662
 20
300.088685139001
 30
0.0
 11
171.717085604621
 21
300.229281912336
 31
0.0
  0
POLYLINE
  5
   5FD
  8
0
  6
CONTINUOUS
 62
     1
 66
     1
 10
0.0
 20
0.0
 30
0.0
  0
VERTEX
  5
   5FE
  8
0
  6
CONTINUOUS
 10
176.739918423911
 20
297.646930872128
 30
0.0
 40
0.0
 41
0.0
  0
VERTEX
  5
   5FF
  8
0
  6
CONTINUOUS
 10
176.98603982658
 20
298.188168148772
 30
0.0
 40
0.0
 41
0.0
  0
VERTEX
  5
   600
  8
0
  6
CONTINUOUS
 10
177.000228078362
 20
298.356634408232
 30
0.0
 40
0.0
 41
0.0
  0
SEQEND
  5
   601
  8
0
  6
CONTINUOUS
 62
     1
  0
POLYLINE
  5
   602
  8
0
  6
CONTINUOUS
 62
     1
 66
     1
 10
0.0
 20
0.0
 30
0.0
  0
VERTEX
  5
   603
  8
0
  6
CONTINUOUS
 10
177.000228078361
 20
298.356634408239
 30
0.0
 40
0.0
 41
0.0
  0
VERTEX
  5
   604
  8
0
  6
CONTINUOUS
 10
176.845473312402
 20
298.907603043475
 30
0.0
 40
0.0
 41
0.0
  0
VERTEX
  5
   605
  8
0
  6
CONTINUOUS
 10
176.739918423911
 20
299.066337944343
 30
0.0
 40
0.0
 41
0.0
  0
SEQEND
  5
   606
  8
0
  6
CONTINUOUS
 62
     1
  0
POLYLINE
  5
   607
  8
0
  6
CONTINUOUS
 62
     1
 66
     1
 10
0.0
 20
0.0
 30
0.0
  0
VERTEX
  5
   608
  8
0
  6
CONTINUOUS
 10
176.73636372037
 20
299.070789655811
 30
0.0
 40
0.0
 41
0.0
  0
VERTEX
  5
   609
  8
0
  6
CONTINUOUS
 10
176.259315327493
 20
299.516279205462
 30
0.0
 40
0.0
 41
0.0
  0
VERTEX
  5
   60A
  8
0
  6
CONTINUOUS
 10
175.573696083199
 20
299.887735539112
 30
0.0
 40
0.0
 41
0.0
  0
VERTEX
  5
   60B
  8
0
  6
CONTINUOUS
 10
173.763974495679
 20
300.319821711105
 30
0.0
 40
0.0
 41
0.0
  0
VERTEX
  5
   60C
  8
0
  6
CONTINUOUS
 10
171.762942614236
 20
300.258510764306
 30
0.0
 40
0.0
 41
0.0
  0
SEQEND
  5
   60D
  8
0
  6
CONTINUOUS
 62
     1
  0
POLYLINE
  5
   60E
  8
0
  6
CONTINUOUS
 62
     1
 66
     1
 10
0.0
 20
0.0
 30
0.0
  0
VERTEX
  5
   60F
  8
0
  6
CONTINUOUS
 10
171.000243614235
 20
300.088635236278
 30
0.0
 40
0.0
 41
0.0
  0
VERTEX
  5
   610
  8
0
  6
CONTINUOUS
 10
169.935843644158
 20
299.642145617894
 30
0.0
 40
0.0
 41
0.0
  0
VERTEX
  5
   611
  8
0
  6
CONTINUOUS
 10
169.241623078415
 20
299.04063182832
 30
0.0
 40
0.0
 41
0.0
  0
VERTEX
  5
   612
  8
0
  6
CONTINUOUS
 10
169.000229179861
 20
298.356634408239
 30
0.0
 40
0.0
 41
0.0
  0
SEQEND
  5
   613
  8
0
  6
CONTINUOUS
 62
     1
  0
POLYLINE
  5
   614
  8
0
  6
CONTINUOUS
 62
     1
 66
     1
 10
0.0
 20
0.0
 30
0.0
  0
VERTEX
  5
   615
  8
0
  6
CONTINUOUS
 10
169.273300564416
 20
297.630535148711
 30
0.0
 40
0.0
 41
0.0
  0
VERTEX
  5
   616
  8
0
  6
CONTINUOUS
 10
170.135055232503
 20
296.96100835723
 30
0.0
 40
0.0
 41
0.0
  0
VERTEX
  5
   617
  8
0
  6
CONTINUOUS
 10
171.451438152836
 20
296.512691510565
 30
0.0
 40
0.0
 41
0.0
  0
VERTEX
  5
   618
  8
0
  6
CONTINUOUS
 10
173.012657767124
 20
296.356644224824
 30
0.0
 40
0.0
 41
0.0
  0
VERTEX
  5
   619
  8
0
  6
CONTINUOUS
 10
174.571916216822
 20
296.517541976837
 30
0.0
 40
0.0
 41
0.0
  0
VERTEX
  5
   61A
  8
0
  6
CONTINUOUS
 10
175.882704893747
 20
296.969941692213
 30
0.0
 40
0.0
 41
0.0
  0
VERTEX
  5
   61B
  8
0
  6
CONTINUOUS
 10
176.736099990715
 20
297.642133833405
 30
0.0
 40
0.0
 41
0.0
  0
SEQEND
  5
   61C
  8
0
  6
CONTINUOUS
 62
     1
  0
POLYLINE
  5
   61D
  8
0
  6
CONTINUOUS
 62
     1
 66
     1
 10
0.0
 20
0.0
 30
0.0
  0
VERTEX
  5
   61E
  8
0
  6
CONTINUOUS
 10
169.000229179861
 20
298.356634408232
 30
0.0
 40
0.0
 41
0.0
  0
VERTEX
  5
   61F
  8
0
  6
CONTINUOUS
 10
169.152963329131
 20
297.809848454541
 30
0.0
 40
0.0
 41
0.0
  0
SEQEND
  5
   620
  8
0
  6
CONTINUOUS
 62
     1
  0
POLYLINE
  5
   621
  8
0
  6
CONTINUOUS
 62
     1
 66
     1
 10
0.0
 20
0.0
 30
0.0
  0
VERTEX
  5
   622
  8
0
  6
CONTINUOUS
 10
171.713504212689
 20
300.250335961401
 30
0.0
 40
0.0
 41
0.0
  0
VERTEX
  5
   623
  8
0
  6
CONTINUOUS
 10
173.629543282888
 20
300.331745319772
 30
0.0
 40
0.0
 41
0.0
  0
VERTEX
  5
   624
  8
0
  6
CONTINUOUS
 10
174.26486658199
 20
300.254056963128
 30
0.0
 40
0.0
 41
0.0
  0
SEQEND
  5
   625
  8
0
  6
CONTINUOUS
 62
     1
  0
LINE
  5
   626
  8
0
  6
CONTINUOUS
 62
     1
 10
118.837902382578
 20
328.276634854078
 30
0.0
 11
121.063802684301
 21
328.276634854078
 31
0.0
  0
LINE
  5
   627
  8
0
  6
CONTINUOUS
 62
     1
 10
176.931079517765
 20
328.276634854078
 30
0.0
 11
179.162555381094
 21
328.276634854078
 31
0.0
  0
LINE
  5
   628
  8
0
  6
CONTINUOUS
 62
     1
 10
118.680840612659
 20
328.276634854078
 30
0.0
 11
118.837902382578
 21
328.276634854078
 31
0.0
  0
LINE
  5
   629
  8
0
  6
CONTINUOUS
 62
     1
 10
121.063802684301
 20
328.276634854078
 30
0.0
 11
176.931079517765
 21
328.276634854078
 31
0.0
  0
LINE
  5
   62A
  8
0
  6
CONTINUOUS
 62
     1
 10
179.162555381094
 20
328.276634854078
 30
0.0
 11
179.319617151013
 21
328.276634854078
 31
0.0
  0
ARC
  5
   62B
  8
0
  6
CONTINUOUS
 62
     7
 10
161.000216379307
 20
273.156629696046
 30
0.0
 40
1.68000002503453
 50
270.000198314903
 51
314.925562368277
  0
ARC
  5
   62C
  8
0
  6
CONTINUOUS
 62
     7
 10
161.000216379307
 20
273.156629696045
 30
0.0
 40
1.68000002503434
 50
45.3154137710573
 51
89.9998277048564
  0
ARC
  5
   62D
  8
0
  6
CONTINUOUS
 62
     7
 10
161.000216379307
 20
273.156629696045
 30
0.0
 40
1.68000002503354
 50
328.81410739569
 51
359.915109578659
  0
ARC
  5
   62E
  8
0
  6
CONTINUOUS
 62
     7
 10
161.000216379308
 20
273.156629696045
 30
0.0
 40
1.68000002503315
 50
21.879106486756
 51
44.899881408781
  0
ARC
  5
   62F
  8
0
  6
CONTINUOUS
 62
     7
 10
161.000216379307
 20
273.156629696045
 30
0.0
 40
1.68000002503395
 50
90.0006603413289
 51
199.846896196838
  0
ARC
  5
   630
  8
0
  6
CONTINUOUS
 62
     7
 10
137.000216021679
 20
273.156629696045
 30
0.0
 40
1.68000002503388
 50
90.0018312538671
 51
174.648993209784
  0
ARC
  5
   631
  8
0
  6
CONTINUOUS
 62
     7
 10
137.000216021639
 20
273.156629696043
 30
0.0
 40
1.68000002499428
 50
180.114764439439
 51
185.207129517555
  0
ARC
  5
   632
  8
0
  6
CONTINUOUS
 62
     7
 10
137.000216021679
 20
273.156629696045
 30
0.0
 40
1.68000002503384
 50
326.739109344247
 51
404.766349366482
  0
ARC
  5
   633
  8
0
  6
CONTINUOUS
 62
     7
 10
137.000216021679
 20
273.156629696045
 30
0.0
 40
1.68000002503426
 50
45.5612170473839
 51
89.9998277048584
  0
ARC
  5
   634
  8
0
  6
CONTINUOUS
 62
     7
 10
137.000216021736
 20
273.156629613147
 30
0.0
 40
1.67999994213617
 50
270.000380452305
 51
270.077886930859
  0
ARC
  5
   635
  8
0
  6
CONTINUOUS
 62
     1
 10
91.0002203081197
 20
264.756621723351
 30
0.0
 40
0.800000011920703
 50
179.999345930255
 51
270.000552154896
  0
ARC
  5
   636
  8
0
  6
CONTINUOUS
 62
     1
 10
183.000229093277
 20
264.756629168788
 30
0.0
 40
0.800000011920415
 50
270.000021142011
 51
359.999902258765
  0
LINE
  5
   637
  8
0
  6
CONTINUOUS
 62
     7
 10
158.600216338942
 20
263.95662779212
 30
0.0
 11
158.600216338942
 21
264.756627804041
 31
0.0
  0
LINE
  5
   638
  8
0
  6
CONTINUOUS
 62
     7
 10
134.600215981314
 20
263.956630843878
 30
0.0
 11
134.600215981314
 21
264.756630855799
 31
0.0
  0
LINE
  5
   639
  8
0
  6
CONTINUOUS
 62
     7
 10
90.2002280056477
 20
265.55662957129
 30
0.0
 11
91.0002280175686
 21
265.55662957129
 31
0.0
  0
LINE
  5
   63A
  8
0
  6
CONTINUOUS
 62
     7
 10
90.2002280056477
 20
267.956629607053
 30
0.0
 11
91.0002280175686
 21
267.956629607053
 31
0.0
  0
LINE
  5
   63B
  8
0
  6
CONTINUOUS
 62
     7
 10
183.000229388475
 20
265.556629375682
 30
0.0
 11
183.800229400396
 21
265.556629375682
 31
0.0
  0
LINE
  5
   63C
  8
0
  6
CONTINUOUS
 62
     7
 10
183.000229388475
 20
267.956629411444
 30
0.0
 11
183.800229400396
 21
267.956629411444
 31
0.0
  0
LINE
  5
   63D
  8
0
  6
CONTINUOUS
 62
     5
 10
183.800241607428
 20
271.15662926352
 30
0.0
 11
185.000217211246
 21
271.15662926352
 31
0.0
  0
LINE
  5
   63E
  8
0
  6
CONTINUOUS
 62
     5
 10
183.800232452154
 20
274.756629317164
 30
0.0
 11
185.000217211246
 21
274.756629317164
 31
0.0
  0
LINE
  5
   63F
  8
0
  6
CONTINUOUS
 62
     7
 10
183.800229400396
 20
268.756629627028
 30
0.0
 11
185.000217211246
 21
268.756629627028
 31
0.0
  0
ARC
  5
   640
  8
0
  6
CONTINUOUS
 62
     7
 10
161.000228814414
 20
273.156629419892
 30
0.0
 40
1.68000002503398
 50
270.000008397794
 51
421.563640359905
  0
ARC
  5
   641
  8
0
  6
CONTINUOUS
 62
     7
 10
161.000228814414
 20
273.156629419892
 30
0.0
 40
1.68000002503396
 50
118.437370607963
 51
270.000008397793
  0
LINE
  5
   642
  8
0
  6
CONTINUOUS
 62
     7
 10
163.400216410467
 20
263.95662779212
 30
0.0
 11
163.400216410467
 21
264.756627804041
 31
0.0
  0
POLYLINE
  5
   643
  8
0
  6
CONTINUOUS
 62
     7
 66
     1
 10
0.0
 20
0.0
 30
0.0
  0
VERTEX
  5
   644
  8
0
  6
CONTINUOUS
 10
148.362329854987
 20
266.990035430079
 30
0.0
 40
0.0
 41
0.0
  0
VERTEX
  5
   645
  8
0
  6
CONTINUOUS
 10
148.103221909302
 20
266.409545476576
 30
0.0
 40
0.0
 41
0.0
  0
VERTEX
  5
   646
  8
0
  6
CONTINUOUS
 10
148.329902829679
 20
265.726497813591
 30
0.0
 40
0.0
 41
0.0
  0
SEQEND
  5
   647
  8
0
  6
CONTINUOUS
 62
     7
  0
POLYLINE
  5
   648
  8
0
  6
CONTINUOUS
 62
     7
 66
     1
 10
0.0
 20
0.0
 30
0.0
  0
VERTEX
  5
   649
  8
0
  6
CONTINUOUS
 10
149.638127336478
 20
265.72322327744
 30
0.0
 40
0.0
 41
0.0
  0
VERTEX
  5
   64A
  8
0
  6
CONTINUOUS
 10
149.897235282166
 20
266.303713230942
 30
0.0
 40
0.0
 41
0.0
  0
VERTEX
  5
   64B
  8
0
  6
CONTINUOUS
 10
149.670554361792
 20
266.986760893928
 30
0.0
 40
0.0
 41
0.0
  0
SEQEND
  5
   64C
  8
0
  6
CONTINUOUS
 62
     7
  0
ARC
  5
   64D
  8
0
  6
CONTINUOUS
 62
     1
 10
149.000216029858
 20
266.356629387603
 30
0.0
 40
0.920008019952923
 50
270.000782294845
 51
449.999217045833
  0
CIRCLE
  5
   64E
  8
0
  6
CONTINUOUS
 62
     7
 10
149.000228596478
 20
266.356629387603
 30
0.0
 40
0.92000001370905
  0
ARC
  5
   64F
  8
0
  6
CONTINUOUS
 62
     7
 10
137.000228456786
 20
273.156629557969
 30
0.0
 40
1.68000002503393
 50
270.007684674219
 51
406.533418368854
  0
ARC
  5
   650
  8
0
  6
CONTINUOUS
 62
     7
 10
137.000228456786
 20
273.156629557969
 30
0.0
 40
1.68000002503391
 50
133.693872912882
 51
269.990120152527
  0
LINE
  5
   651
  8
0
  6
CONTINUOUS
 62
     7
 10
139.400216052839
 20
263.956630843878
 30
0.0
 11
139.400216052839
 21
264.756630855799
 31
0.0
  0
LINE
  5
   652
  8
0
  6
CONTINUOUS
 62
     7
 10
163.400216889381
 20
263.95662935184
 30
0.0
 11
183.000229388475
 21
263.95662935184
 31
0.0
  0
LINE
  5
   653
  8
0
  6
CONTINUOUS
 62
     7
 10
139.400215768814
 20
263.95662935184
 30
0.0
 11
158.600216054916
 21
263.95662935184
 31
0.0
  0
LINE
  5
   654
  8
0
  6
CONTINUOUS
 62
     7
 10
91.0002280175686
 20
263.95662935184
 30
0.0
 11
110.6002161026
 21
263.95662935184
 31
0.0
  0
LINE
  5
   655
  8
0
  6
CONTINUOUS
 62
     7
 10
162.2002168715
 20
263.95662935184
 30
0.0
 11
163.400216889381
 21
263.95662935184
 31
0.0
  0
LINE
  5
   656
  8
0
  6
CONTINUOUS
 62
     7
 10
158.600216054916
 20
263.95662935184
 30
0.0
 11
159.800216072798
 21
263.95662935184
 31
0.0
  0
LINE
  5
   657
  8
0
  6
CONTINUOUS
 62
     7
 10
134.600216460228
 20
263.95662935184
 30
0.0
 11
135.800216478109
 21
263.95662935184
 31
0.0
  0
LINE
  5
   658
  8
0
  6
CONTINUOUS
 62
     7
 10
138.200215750933
 20
263.95662935184
 30
0.0
 11
139.400215768814
 21
263.95662935184
 31
0.0
  0
LINE
  5
   659
  8
0
  6
CONTINUOUS
 62
     7
 10
89.0002157807348
 20
268.756629627028
 30
0.0
 11
90.2002280056477
 21
268.756629627028
 31
0.0
  0
ARC
  5
   65A
  8
0
  6
CONTINUOUS
 62
     7
 10
161.000201670817
 20
273.156632658278
 30
0.0
 40
3.40001922774738
 50
299.965695540824
 51
329.806612807724
  0
ARC
  5
   65B
  8
0
  6
CONTINUOUS
 62
     7
 10
161.000201670818
 20
273.156632658278
 30
0.0
 40
3.40001922774696
 50
329.94688349121
 51
418.304612045572
  0
ARC
  5
   65C
  8
0
  6
CONTINUOUS
 62
     7
 10
161.000201671029
 20
273.156632658648
 30
0.0
 40
3.40001922732029
 50
59.9376964174047
 51
60.2202474207456
  0
ARC
  5
   65D
  8
0
  6
CONTINUOUS
 62
     7
 10
161.000255954809
 20
273.156632658582
 30
0.0
 40
3.40001922589405
 50
148.707007243685
 51
230.736581822986
  0
LINE
  5
   65E
  8
0
  6
CONTINUOUS
 62
     7
 10
90.2002281322177
 20
264.756630855799
 30
0.0
 11
90.2002281322177
 21
265.55663086772
 31
0.0
  0
LINE
  5
   65F
  8
0
  6
CONTINUOUS
 62
     7
 10
90.2002281322177
 20
267.956630903482
 30
0.0
 11
90.2002281322177
 21
268.756630915403
 31
0.0
  0
LINE
  5
   660
  8
0
  6
CONTINUOUS
 62
     7
 10
183.800229124244
 20
267.956627851725
 30
0.0
 11
183.800229124244
 21
268.756630915403
 31
0.0
  0
LINE
  5
   661
  8
0
  6
CONTINUOUS
 62
     7
 10
183.800229105833
 20
264.756627804041
 30
0.0
 11
183.800229105833
 21
265.556627815962
 31
0.0
  0
LINE
  5
   662
  8
0
  6
CONTINUOUS
 62
     7
 10
183.000229388475
 20
268.756629822636
 30
0.0
 11
183.800229400396
 21
268.756629822636
 31
0.0
  0
LINE
  5
   663
  8
0
  6
CONTINUOUS
 62
     7
 10
114.200228363276
 20
268.756629627028
 30
0.0
 11
115.000228375196
 21
268.756629627028
 31
0.0
  0
LINE
  5
   664
  8
0
  6
CONTINUOUS
 62
     7
 10
115.400216174126
 20
268.756629627028
 30
0.0
 11
115.652334097804
 21
268.756629627028
 31
0.0
  0
LINE
  5
   665
  8
0
  6
CONTINUOUS
 62
     7
 10
158.600229024887
 20
267.156629399523
 30
0.0
 11
163.400229096413
 21
267.156629399523
 31
0.0
  0
LINE
  5
   666
  8
0
  6
CONTINUOUS
 62
     7
 10
134.600228667259
 20
267.156629399523
 30
0.0
 11
139.400228738785
 21
267.156629399523
 31
0.0
  0
LINE
  5
   667
  8
0
  6
CONTINUOUS
 62
     7
 10
158.600216343544
 20
264.756627804041
 30
0.0
 11
158.600216343544
 21
265.55663086772
 31
0.0
  0
LINE
  5
   668
  8
0
  6
CONTINUOUS
 62
     7
 10
134.600215985916
 20
264.756630855799
 30
0.0
 11
134.600215985916
 21
265.55663086772
 31
0.0
  0
LINE
  5
   669
  8
0
  6
CONTINUOUS
 62
     7
 10
91.4002277335687
 20
265.55663086772
 30
0.0
 11
91.4002277335687
 21
267.956630903482
 31
0.0
  0
LINE
  5
   66A
  8
0
  6
CONTINUOUS
 62
     7
 10
91.0002280175686
 20
265.556629375681
 30
0.0
 11
91.4002280235291
 21
265.556629375681
 31
0.0
  0
LINE
  5
   66B
  8
0
  6
CONTINUOUS
 62
     7
 10
91.0002280175686
 20
267.956629411444
 30
0.0
 11
91.4002280235291
 21
267.956629411444
 31
0.0
  0
LINE
  5
   66C
  8
0
  6
CONTINUOUS
 62
     7
 10
182.600229382515
 20
265.556629375682
 30
0.0
 11
183.000229388475
 21
265.556629375682
 31
0.0
  0
LINE
  5
   66D
  8
0
  6
CONTINUOUS
 62
     7
 10
182.600229092555
 20
265.556627815962
 30
0.0
 11
182.600229092555
 21
267.956627851725
 31
0.0
  0
LINE
  5
   66E
  8
0
  6
CONTINUOUS
 62
     7
 10
182.600229382515
 20
267.956629411444
 30
0.0
 11
183.000229388475
 21
267.956629411444
 31
0.0
  0
LINE
  5
   66F
  8
0
  6
CONTINUOUS
 62
     7
 10
163.40021641507
 20
264.756627804041
 30
0.0
 11
163.40021641507
 21
265.556627815962
 31
0.0
  0
LINE
  5
   670
  8
0
  6
CONTINUOUS
 62
     7
 10
139.400216057442
 20
264.756630855799
 30
0.0
 11
139.400216057442
 21
265.55663086772
 31
0.0
  0
LINE
  5
   671
  8
0
  6
CONTINUOUS
 62
     7
 10
115.000228375196
 20
268.756629627028
 30
0.0
 11
183.000229388475
 21
268.756629627028
 31
0.0
  0
LINE
  5
   672
  8
0
  6
CONTINUOUS
 62
     7
 10
135.800216003798
 20
263.956630843878
 30
0.0
 11
135.800216003798
 21
265.55663086772
 31
0.0
  0
LINE
  5
   673
  8
0
  6
CONTINUOUS
 62
     7
 10
138.20021603956
 20
263.956630843878
 30
0.0
 11
138.20021603956
 21
265.55663086772
 31
0.0
  0
LINE
  5
   674
  8
0
  6
CONTINUOUS
 62
     7
 10
138.200215750933
 20
265.556629375682
 30
0.0
 11
139.400215768814
 21
265.556629375682
 31
0.0
  0
LINE
  5
   675
  8
0
  6
CONTINUOUS
 62
     7
 10
139.400216057442
 20
265.55663086772
 30
0.0
 11
139.400216057442
 21
267.156630891562
 31
0.0
  0
LINE
  5
   676
  8
0
  6
CONTINUOUS
 62
     7
 10
134.600215985916
 20
265.55663086772
 30
0.0
 11
134.600215985916
 21
267.156630891562
 31
0.0
  0
LINE
  5
   677
  8
0
  6
CONTINUOUS
 62
     7
 10
134.600217986107
 20
265.556629375682
 30
0.0
 11
135.800216478109
 21
265.556629375682
 31
0.0
  0
LINE
  5
   678
  8
0
  6
CONTINUOUS
 62
     7
 10
159.800216361426
 20
263.95662779212
 30
0.0
 11
159.800216361426
 21
265.556627815962
 31
0.0
  0
LINE
  5
   679
  8
0
  6
CONTINUOUS
 62
     7
 10
162.200216397188
 20
263.95662779212
 30
0.0
 11
162.200216397188
 21
265.556627815962
 31
0.0
  0
LINE
  5
   67A
  8
0
  6
CONTINUOUS
 62
     7
 10
162.2002168715
 20
265.556629375682
 30
0.0
 11
163.400216889381
 21
265.556629375682
 31
0.0
  0
LINE
  5
   67B
  8
0
  6
CONTINUOUS
 62
     7
 10
163.40021641507
 20
265.556627815962
 30
0.0
 11
163.40021641507
 21
267.156627839804
 31
0.0
  0
LINE
  5
   67C
  8
0
  6
CONTINUOUS
 62
     7
 10
158.600216343544
 20
265.55663086772
 30
0.0
 11
158.600216343544
 21
267.156627839804
 31
0.0
  0
LINE
  5
   67D
  8
0
  6
CONTINUOUS
 62
     7
 10
158.600223684311
 20
265.556629375682
 30
0.0
 11
159.800216072798
 21
265.556629375682
 31
0.0
  0
LINE
  5
   67E
  8
0
  6
CONTINUOUS
 62
     7
 10
89.000215715631
 20
268.756630915403
 30
0.0
 11
89.000215715631
 21
277.716634711027
 31
0.0
  0
LINE
  5
   67F
  8
0
  6
CONTINUOUS
 62
     5
 10
185.000216736935
 20
271.156627899408
 30
0.0
 11
185.000216736935
 21
274.756627953052
 31
0.0
  0
LINE
  5
   680
  8
0
  6
CONTINUOUS
 62
     7
 10
185.000241690413
 20
274.756627953052
 30
0.0
 11
185.000241690413
 21
277.716634711027
 31
0.0
  0
LINE
  5
   681
  8
0
  6
CONTINUOUS
 62
     7
 10
185.000241690413
 20
268.756630915403
 30
0.0
 11
185.000241690413
 21
271.156627899408
 31
0.0
  0
ARC
  5
   682
  8
0
  6
CONTINUOUS
 62
     7
 10
137.000228456786
 20
273.156629557969
 30
0.0
 40
1.6800000250337
 50
89.9999916022046
 51
134.97280637214
  0
ARC
  5
   683
  8
0
  6
CONTINUOUS
 62
     7
 10
137.000228456786
 20
273.156629557969
 30
0.0
 40
1.68000002503403
 50
45.5621574403344
 51
89.9999916022085
  0
ARC
  5
   684
  8
0
  6
CONTINUOUS
 62
     7
 10
161.000228814414
 20
273.156629419893
 30
0.0
 40
1.68000002503355
 50
45.3163544844032
 51
89.9999916022123
  0
ARC
  5
   685
  8
0
  6
CONTINUOUS
 62
     7
 10
161.000228814414
 20
273.156629419892
 30
0.0
 40
1.68000002503404
 50
89.9999916022114
 51
134.97280300329
  0
LINE
  5
   686
  8
0
  6
CONTINUOUS
 62
     7
 10
89.5602279961579
 20
354.196634629965
 30
0.0
 11
89.5602279961579
 21
354.756635248661
 31
0.0
  0
LINE
  5
   687
  8
0
  6
CONTINUOUS
 62
     7
 10
185.000229418325
 20
293.55663433671
 30
0.0
 11
185.000229418325
 21
329.556634873152
 31
0.0
  0
LINE
  5
   688
  8
0
  6
CONTINUOUS
 62
     7
 10
185.000229418325
 20
329.556634873152
 30
0.0
 11
185.000229418325
 21
354.196634629965
 31
0.0
  0
LINE
  5
   689
  8
0
  6
CONTINUOUS
 62
     7
 10
185.000229418325
 20
277.716634711027
 30
0.0
 11
185.000229418325
 21
293.55663433671
 31
0.0
  0
LINE
  5
   68A
  8
0
  6
CONTINUOUS
 62
     1
 10
140.600228756666
 20
324.502117067345
 30
0.0
 11
141.000228762627
 21
324.502117067345
 31
0.0
  0
LINE
  5
   68B
  8
0
  6
CONTINUOUS
 62
     1
 10
157.000229001045
 20
324.502117067345
 30
0.0
 11
157.400229007006
 21
324.502117067345
 31
0.0
  0
LINE
  5
   68C
  8
0
  6
CONTINUOUS
 62
     7
 10
140.600228756666
 20
301.374698824831
 30
0.0
 11
157.400229007006
 21
301.374698824831
 31
0.0
  0
LINE
  5
   68D
  8
0
  6
CONTINUOUS
 62
     7
 10
140.600228756666
 20
300.980605425962
 30
0.0
 11
140.760228606462
 21
300.980605425962
 31
0.0
  0
LINE
  5
   68E
  8
0
  6
CONTINUOUS
 62
     7
 10
157.240229157209
 20
300.980605425962
 30
0.0
 11
157.400229007006
 21
300.980605425962
 31
0.0
  0
LINE
  5
   68F
  8
0
  6
CONTINUOUS
 62
     7
 10
89.5602286064625
 20
354.756635248661
 30
0.0
 11
91.9602286422253
 21
354.756635248661
 31
0.0
  0
LINE
  5
   690
  8
0
  6
CONTINUOUS
 62
     7
 10
182.040228763819
 20
354.756635248661
 30
0.0
 11
184.440228799582
 21
354.756635248661
 31
0.0
  0
LINE
  5
   691
  8
0
  6
CONTINUOUS
 62
     7
 10
91.9602286422253
 20
354.756635248661
 30
0.0
 11
158.040228406191
 21
354.756635248661
 31
0.0
  0
LINE
  5
   692
  8
0
  6
CONTINUOUS
 62
     7
 10
89.5602286064625
 20
277.156634092331
 30
0.0
 11
91.9602286422253
 21
277.156634092331
 31
0.0
  0
LINE
  5
   693
  8
0
  6
CONTINUOUS
 62
     7
 10
182.040228763819
 20
277.156634092331
 30
0.0
 11
184.440228799582
 21
277.156634092331
 31
0.0
  0
LINE
  5
   694
  8
0
  6
CONTINUOUS
 62
     7
 10
91.7496339113875
 20
277.156634092331
 30
0.0
 11
182.040228763819
 21
277.156634092331
 31
0.0
  0
CIRCLE
  5
   695
  8
0
  6
CONTINUOUS
 62
     7
 10
125.000215842865
 20
290.756629958305
 30
0.0
 40
2.60000003874302
  0
LINE
  5
   696
  8
0
  6
CONTINUOUS
 62
     7
 10
156.901049922419
 20
300.769412535619
 30
0.0
 11
156.989869046057
 21
300.77848770055
 31
0.0
  0
LINE
  5
   697
  8
0
  6
CONTINUOUS
 62
     7
 10
156.989869046057
 20
300.77848770055
 30
0.0
 11
157.240229157209
 21
300.826625366062
 31
0.0
  0
LINE
  5
   698
  8
0
  6
CONTINUOUS
 62
     7
 10
157.240229004622
 20
300.875619049653
 30
0.0
 11
157.240229004622
 21
300.980605242014
 31
0.0
  0
LINE
  5
   699
  8
0
  6
CONTINUOUS
 62
     7
 10
140.76022875905
 20
300.875619049653
 30
0.0
 11
140.76022875905
 21
300.980605242014
 31
0.0
  0
LINE
  5
   69A
  8
0
  6
CONTINUOUS
 62
     7
 10
172.200228617122
 20
300.115551670774
 30
0.0
 11
172.200228617122
 21
300.23389235552
 31
0.0
  0
CIRCLE
  5
   69B
  8
0
  6
CONTINUOUS
 62
     7
 10
137.000228703022
 20
273.156634032726
 30
0.0
 40
1.68000002503393
  0
CIRCLE
  5
   69C
  8
0
  6
CONTINUOUS
 62
     7
 10
137.000228703022
 20
273.156634032726
 30
0.0
 40
3.60000005364419
  0
CIRCLE
  5
   69D
  8
0
  6
CONTINUOUS
 62
     7
 10
161.00022906065
 20
358.756635308266
 30
0.0
 40
1.68000002503393
  0
CIRCLE
  5
   69E
  8
0
  6
CONTINUOUS
 62
     7
 10
161.00022906065
 20
358.756635308266
 30
0.0
 40
3.60000005364418
  0
ARC
  5
   69F
  8
0
  6
CONTINUOUS
 62
     1
 10
125.000193009846
 20
358.55663530529
 30
0.0
 40
2.60002266508465
 50
17.9997249125242
 51
89.9989819969238
  0
CIRCLE
  5
   6A0
  8
0
  6
CONTINUOUS
 62
     1
 10
125.00026403857
 20
358.556635305291
 30
0.0
 40
2.60002266508434
  0
ARC
  5
   6A1
  8
0
  6
CONTINUOUS
 62
     7
 10
125.000228524207
 20
358.556635305291
 30
0.0
 40
2.60000003874419
 50
305.987326377815
 51
342.016110303983
  0
ARC
  5
   6A2
  8
0
  6
CONTINUOUS
 62
     7
 10
125.000228524208
 20
358.556635305291
 30
0.0
 40
2.60000003874286
 50
125.987366199815
 51
162.016120780894
  0
CIRCLE
  5
   6A3
  8
0
  6
CONTINUOUS
 62
     1
 10
125.00026403857
 20
273.356634035701
 30
0.0
 40
2.60002266508431
  0
ARC
  5
   6A4
  8
0
  6
CONTINUOUS
 62
     1
 10
137.000182261164
 20
358.756635308271
 30
0.0
 40
3.40002963895681
 50
60.0052560911465
 51
89.9992173757547
  0
ARC
  5
   6A5
  8
0
  6
CONTINUOUS
 62
     1
 10
137.00027514488
 20
358.756635308271
 30
0.0
 40
3.40002963895683
 50
240.005244942341
 51
305.426793421635
  0
ARC
  5
   6A6
  8
0
  6
CONTINUOUS
 62
     7
 10
137.000228703022
 20
358.756635308271
 30
0.0
 40
3.40000005066401
 50
80.8971084868756
 51
210.015757359144
  0
ARC
  5
   6A7
  8
0
  6
CONTINUOUS
 62
     7
 10
137.000228703022
 20
358.756635308271
 30
0.0
 40
3.400000050664
 50
299.989118587865
 51
390.015712596711
  0
LINE
  5
   6A8
  8
0
  6
CONTINUOUS
 62
     7
 10
161.00022906065
 20
269.756633982062
 30
0.0
 11
162.691426290441
 21
270.223562089606
 31
0.0
  0
LINE
  5
   6A9
  8
0
  6
CONTINUOUS
 62
     7
 10
158.055742780201
 20
271.456634007394
 30
0.0
 11
159.309325562553
 21
270.22562202616
 31
0.0
  0
LINE
  5
   6AA
  8
0
  6
CONTINUOUS
 62
     7
 10
159.309325562553
 20
270.22562202616
 30
0.0
 11
161.00022906065
 21
269.756633982062
 31
0.0
  0
ARC
  5
   6AB
  8
0
  6
CONTINUOUS
 62
     1
 10
161.000275502508
 20
273.156634032721
 30
0.0
 40
3.40002963895631
 50
90.0007826242438
 51
120.000659630725
  0
ARC
  5
   6AC
  8
0
  6
CONTINUOUS
 62
     1
 10
161.000275502509
 20
273.156634032721
 30
0.0
 40
3.40002963895679
 50
180.0
 51
209.999609840799
  0
ARC
  5
   6AD
  8
0
  6
CONTINUOUS
 62
     1
 10
161.000182618792
 20
273.156634032721
 30
0.0
 40
3.40002963895645
 50
29.9996034126982
 51
89.9992173757552
  0
ARC
  5
   6AE
  8
0
  6
CONTINUOUS
 62
     7
 10
161.00022906065
 20
273.156634032721
 30
0.0
 40
3.40000005066397
 50
116.277183981811
 51
202.824225932054
  0
ARC
  5
   6AF
  8
0
  6
CONTINUOUS
 62
     7
 10
161.00022906065
 20
273.156634032721
 30
0.0
 40
3.40000005066391
 50
299.967572386953
 51
418.469147554207
  0
CIRCLE
  5
   6B0
  8
0
  6
CONTINUOUS
 62
     1
 10
149.000264396198
 20
273.356634035701
 30
0.0
 40
2.60002266508432
  0
CIRCLE
  5
   6B1
  8
0
  6
CONTINUOUS
 62
     1
 10
173.000264753826
 20
273.356634035701
 30
0.0
 40
2.60002266508438
  0
CIRCLE
  5
   6B2
  8
0
  6
CONTINUOUS
 62
     1
 10
149.000193367474
 20
358.556635305291
 30
0.0
 40
2.60002266508395
  0
ARC
  5
   6B3
  8
0
  6
CONTINUOUS
 62
     1
 10
149.000264396198
 20
358.556635305291
 30
0.0
 40
2.60002266508449
 50
197.99972101627
 51
269.998976445699
  0
CIRCLE
  5
   6B4
  8
0
  6
CONTINUOUS
 62
     1
 10
173.000264753826
 20
358.556635305291
 30
0.0
 40
2.6000226650844
  0
LINE
  5
   6B5
  8
0
  6
CONTINUOUS
 62
     7
 10
178.120229315757
 20
294.756634354591
 30
0.0
 11
178.120229315757
 21
294.836634660959
 31
0.0
  0
LINE
  5
   6B6
  8
0
  6
CONTINUOUS
 62
     7
 10
179.480229336023
 20
328.35663485527
 30
0.0
 11
179.480229336023
 21
329.556634873152
 31
0.0
  0
LINE
  5
   6B7
  8
0
  6
CONTINUOUS
 62
     7
 10
179.480229336023
 20
293.55663433671
 30
0.0
 11
179.480229336023
 21
294.756634354591
 31
0.0
  0
LINE
  5
   6B8
  8
0
  6
CONTINUOUS
 62
     7
 10
140.760228606462
 20
300.826625366062
 30
0.0
 11
141.010587191736
 21
300.77848770055
 31
0.0
  0
LINE
  5
   6B9
  8
0
  6
CONTINUOUS
 62
     7
 10
141.010587191736
 20
300.77848770055
 30
0.0
 11
141.099392582464
 21
300.769413680029
 31
0.0
  0
POLYLINE
  5
   6BA
  8
0
  6
CONTINUOUS
 62
     7
 66
     1
 10
0.0
 20
0.0
 30
0.0
  0
VERTEX
  5
   6BB
  8
0
  6
CONTINUOUS
 10
156.440229768787
 20
297.716634398699
 30
0.0
 40
0.0
 41
0.0
  0
VERTEX
  5
   6BC
  8
0
  6
CONTINUOUS
 10
156.92022899902
 20
297.556634396315
 30
0.0
 40
0.0
 41
0.0
  0
SEQEND
  5
   6BD
  8
0
  6
CONTINUOUS
 62
     7
  0
POLYLINE
  5
   6BE
  8
0
  6
CONTINUOUS
 62
     7
 66
     1
 10
0.0
 20
0.0
 30
0.0
  0
VERTEX
  5
   6BF
  8
0
  6
CONTINUOUS
 10
141.560227980011
 20
297.716634398699
 30
0.0
 40
0.0
 41
0.0
  0
VERTEX
  5
   6C0
  8
0
  6
CONTINUOUS
 10
141.080228763597
 20
297.556634396315
 30
0.0
 40
0.0
 41
0.0
  0
SEQEND
  5
   6C1
  8
0
  6
CONTINUOUS
 62
     7
  0
LINE
  5
   6C2
  8
0
  6
CONTINUOUS
 62
     7
 10
156.920229457617
 20
297.556634396315
 30
0.0
 11
157.160228850842
 21
297.556634396315
 31
0.0
  0
LINE
  5
   6C3
  8
0
  6
CONTINUOUS
 62
     7
 10
140.84022891283
 20
297.556634396315
 30
0.0
 11
141.080228306055
 21
297.556634396315
 31
0.0
  0
LINE
  5
   6C4
  8
0
  6
CONTINUOUS
 62
     7
 10
141.080228306055
 20
297.556634396315
 30
0.0
 11
156.920229457617
 21
297.556634396315
 31
0.0
  0
POLYLINE
  5
   6C5
  8
0
  6
CONTINUOUS
 62
     7
 66
     1
 10
0.0
 20
0.0
 30
0.0
  0
VERTEX
  5
   6C6
  8
0
  6
CONTINUOUS
 10
156.901050051992
 20
300.76941260804
 30
0.0
 40
0.0
 41
0.0
  0
VERTEX
  5
   6C7
  8
0
  6
CONTINUOUS
 10
156.440228992701
 20
300.610021453969
 30
0.0
 40
0.0
 41
0.0
  0
SEQEND
  5
   6C8
  8
0
  6
CONTINUOUS
 62
     7
  0
POLYLINE
  5
   6C9
  8
0
  6
CONTINUOUS
 62
     7
 66
     1
 10
0.0
 20
0.0
 30
0.0
  0
VERTEX
  5
   6CA
  8
0
  6
CONTINUOUS
 10
141.099407710425
 20
300.76941260804
 30
0.0
 40
0.0
 41
0.0
  0
VERTEX
  5
   6CB
  8
0
  6
CONTINUOUS
 10
141.56022870561
 20
300.610021453969
 30
0.0
 40
0.0
 41
0.0
  0
SEQEND
  5
   6CC
  8
0
  6
CONTINUOUS
 62
     7
  0
LINE
  5
   6CD
  8
0
  6
CONTINUOUS
 62
     7
 10
89.0002279877663
 20
354.196635240316
 30
0.0
 11
90.9602286273241
 21
354.196635240316
 31
0.0
  0
LINE
  5
   6CE
  8
0
  6
CONTINUOUS
 62
     7
 10
183.04022877872
 20
354.196635240316
 30
0.0
 11
185.000229418278
 21
354.196635240316
 31
0.0
  0
LINE
  5
   6CF
  8
0
  6
CONTINUOUS
 62
     7
 10
182.640228772759
 20
354.196635240316
 30
0.0
 11
183.04022877872
 21
354.196635240316
 31
0.0
  0
LINE
  5
   6D0
  8
0
  6
CONTINUOUS
 62
     7
 10
90.9602286273241
 20
354.196635240316
 30
0.0
 11
91.3602286332846
 21
354.196635240316
 31
0.0
  0
LINE
  5
   6D1
  8
0
  6
CONTINUOUS
 62
     7
 10
181.600229367614
 20
354.196635240316
 30
0.0
 11
182.640228772759
 21
354.196635240316
 31
0.0
  0
LINE
  5
   6D2
  8
0
  6
CONTINUOUS
 62
     7
 10
118.240227813125
 20
354.196635240316
 30
0.0
 11
179.760229950547
 21
354.196635240316
 31
0.0
  0
LINE
  5
   6D3
  8
0
  6
CONTINUOUS
 62
     7
 10
91.5645061976522
 20
354.196635240316
 30
0.0
 11
117.840227807164
 21
354.196635240316
 31
0.0
  0
LINE
  5
   6D4
  8
0
  6
CONTINUOUS
 62
     7
 10
180.160229956508
 20
354.196635240316
 30
0.0
 11
181.200229361653
 21
354.196635240316
 31
0.0
  0
LINE
  5
   6D5
  8
0
  6
CONTINUOUS
 62
     7
 10
91.3602286332846
 20
354.196635240316
 30
0.0
 11
92.4002280384302
 21
354.196635240316
 31
0.0
  0
LINE
  5
   6D6
  8
0
  6
CONTINUOUS
 62
     7
 10
181.200229361653
 20
354.196635240316
 30
0.0
 11
181.600229367614
 21
354.196635240316
 31
0.0
  0
LINE
  5
   6D7
  8
0
  6
CONTINUOUS
 62
     7
 10
179.760229950547
 20
354.196635240316
 30
0.0
 11
180.160229956508
 21
354.196635240316
 31
0.0
  0
LINE
  5
   6D8
  8
0
  6
CONTINUOUS
 62
     7
 10
92.4002280384302
 20
354.196635240316
 30
0.0
 11
92.8002280443907
 21
354.196635240316
 31
0.0
  0
LINE
  5
   6D9
  8
0
  6
CONTINUOUS
 62
     7
 10
117.840227807164
 20
354.196635240316
 30
0.0
 11
118.240227813125
 21
354.196635240316
 31
0.0
  0
LINE
  5
   6DA
  8
0
  6
CONTINUOUS
 62
     7
 10
89.0002279877663
 20
277.716634100675
 30
0.0
 11
90.9602286273241
 21
277.716634100675
 31
0.0
  0
LINE
  5
   6DB
  8
0
  6
CONTINUOUS
 62
     7
 10
183.04022877872
 20
277.716634100675
 30
0.0
 11
185.000229418278
 21
277.716634100675
 31
0.0
  0
LINE
  5
   6DC
  8
0
  6
CONTINUOUS
 62
     7
 10
114.960228984952
 20
277.716634100675
 30
0.0
 11
115.360228990912
 21
277.716634100675
 31
0.0
  0
LINE
  5
   6DD
  8
0
  6
CONTINUOUS
 62
     7
 10
182.640228772759
 20
277.716634100675
 30
0.0
 11
183.04022877872
 21
277.716634100675
 31
0.0
  0
LINE
  5
   6DE
  8
0
  6
CONTINUOUS
 62
     7
 10
180.160229956508
 20
277.716634100675
 30
0.0
 11
181.200229361653
 21
277.716634100675
 31
0.0
  0
LINE
  5
   6DF
  8
0
  6
CONTINUOUS
 62
     7
 10
118.240227813125
 20
277.716634100675
 30
0.0
 11
179.760229950547
 21
277.716634100675
 31
0.0
  0
LINE
  5
   6E0
  8
0
  6
CONTINUOUS
 62
     7
 10
90.546303772108
 20
277.716634100675
 30
0.0
 11
116.400228396058
 21
277.716634100675
 31
0.0
  0
LINE
  5
   6E1
  8
0
  6
CONTINUOUS
 62
     7
 10
116.800228402019
 20
277.716634100675
 30
0.0
 11
117.840227807164
 21
277.716634100675
 31
0.0
  0
LINE
  5
   6E2
  8
0
  6
CONTINUOUS
 62
     7
 10
181.600229367614
 20
277.716634100675
 30
0.0
 11
182.640228772759
 21
277.716634100675
 31
0.0
  0
LINE
  5
   6E3
  8
0
  6
CONTINUOUS
 62
     7
 10
116.400228396058
 20
277.716634100675
 30
0.0
 11
116.800228402019
 21
277.716634100675
 31
0.0
  0
LINE
  5
   6E4
  8
0
  6
CONTINUOUS
 62
     7
 10
117.840227807164
 20
277.716634100675
 30
0.0
 11
118.240227813125
 21
277.716634100675
 31
0.0
  0
LINE
  5
   6E5
  8
0
  6
CONTINUOUS
 62
     7
 10
181.200229361653
 20
277.716634100675
 30
0.0
 11
181.600229367614
 21
277.716634100675
 31
0.0
  0
LINE
  5
   6E6
  8
0
  6
CONTINUOUS
 62
     7
 10
179.760229950547
 20
277.716634100675
 30
0.0
 11
180.160229956508
 21
277.716634100675
 31
0.0
  0
POLYLINE
  5
   6E7
  8
0
  6
CONTINUOUS
 62
     7
 66
     1
 10
0.0
 20
0.0
 30
0.0
  0
VERTEX
  5
   6E8
  8
0
  6
CONTINUOUS
 10
176.443952022623
 20
299.373910146352
 30
0.0
 40
0.0
 41
0.0
  0
VERTEX
  5
   6E9
  8
0
  6
CONTINUOUS
 10
176.689662854145
 20
299.129310653274
 30
0.0
 40
0.0
 41
0.0
  0
SEQEND
  5
   6EA
  8
0
  6
CONTINUOUS
 62
     7
  0
POLYLINE
  5
   6EB
  8
0
  6
CONTINUOUS
 62
     7
 66
     1
 10
0.0
 20
0.0
 30
0.0
  0
VERTEX
  5
   6EC
  8
0
  6
CONTINUOUS
 10
176.893210340801
 20
298.816762406376
 30
0.0
 40
0.0
 41
0.0
  0
VERTEX
  5
   6ED
  8
0
  6
CONTINUOUS
 10
177.000229299064
 20
298.356634408239
 30
0.0
 40
0.0
 41
0.0
  0
SEQEND
  5
   6EE
  8
0
  6
CONTINUOUS
 62
     7
  0
POLYLINE
  5
   6EF
  8
0
  6
CONTINUOUS
 62
     7
 66
     1
 10
0.0
 20
0.0
 30
0.0
  0
VERTEX
  5
   6F0
  8
0
  6
CONTINUOUS
 10
173.829124412718
 20
300.313335748202
 30
0.0
 40
0.0
 41
0.0
  0
VERTEX
  5
   6F1
  8
0
  6
CONTINUOUS
 10
175.22993156066
 20
300.017062795762
 30
0.0
 40
0.0
 41
0.0
  0
VERTEX
  5
   6F2
  8
0
  6
CONTINUOUS
 10
175.728141459747
 20
299.819499552745
 30
0.0
 40
0.0
 41
0.0
  0
SEQEND
  5
   6F3
  8
0
  6
CONTINUOUS
 62
     7
  0
POLYLINE
  5
   6F4
  8
0
  6
CONTINUOUS
 62
     7
 66
     1
 10
0.0
 20
0.0
 30
0.0
  0
VERTEX
  5
   6F5
  8
0
  6
CONTINUOUS
 10
170.141937499654
 20
299.755993423311
 30
0.0
 40
0.0
 41
0.0
  0
VERTEX
  5
   6F6
  8
0
  6
CONTINUOUS
 10
171.399927834353
 20
300.189695535546
 30
0.0
 40
0.0
 41
0.0
  0
VERTEX
  5
   6F7
  8
0
  6
CONTINUOUS
 10
172.756659574762
 20
300.352812566324
 30
0.0
 40
0.0
 41
0.0
  0
VERTEX
  5
   6F8
  8
0
  6
CONTINUOUS
 10
173.668579574881
 20
300.328590398524
 30
0.0
 40
0.0
 41
0.0
  0
SEQEND
  5
   6F9
  8
0
  6
CONTINUOUS
 62
     7
  0
POLYLINE
  5
   6FA
  8
0
  6
CONTINUOUS
 62
     7
 66
     1
 10
0.0
 20
0.0
 30
0.0
  0
VERTEX
  5
   6FB
  8
0
  6
CONTINUOUS
 10
169.000229179863
 20
298.356634408239
 30
0.0
 40
0.0
 41
0.0
  0
VERTEX
  5
   6FC
  8
0
  6
CONTINUOUS
 10
169.226258629191
 20
299.018889833982
 30
0.0
 40
0.0
 41
0.0
  0
VERTEX
  5
   6FD
  8
0
  6
CONTINUOUS
 10
170.052017672714
 20
299.708590165363
 30
0.0
 40
0.0
 41
0.0
  0
SEQEND
  5
   6FE
  8
0
  6
CONTINUOUS
 62
     7
  0
POLYLINE
  5
   6FF
  8
0
  6
CONTINUOUS
 62
     7
 66
     1
 10
0.0
 20
0.0
 30
0.0
  0
VERTEX
  5
   700
  8
0
  6
CONTINUOUS
 10
175.944950219525
 20
299.71027584359
 30
0.0
 40
0.0
 41
0.0
  0
VERTEX
  5
   701
  8
0
  6
CONTINUOUS
 10
176.356051044542
 20
299.444886049805
 30
0.0
 40
0.0
 41
0.0
  0
SEQEND
  5
   702
  8
0
  6
CONTINUOUS
 62
     7
  0
POLYLINE
  5
   703
  8
0
  6
CONTINUOUS
 62
     7
 66
     1
 10
0.0
 20
0.0
 30
0.0
  0
VERTEX
  5
   704
  8
0
  6
CONTINUOUS
 10
177.000229299065
 20
298.356634408232
 30
0.0
 40
0.0
 41
0.0
  0
VERTEX
  5
   705
  8
0
  6
CONTINUOUS
 10
176.818102310066
 20
297.760578522814
 30
0.0
 40
0.0
 41
0.0
  0
VERTEX
  5
   706
  8
0
  6
CONTINUOUS
 10
176.39146355161
 20
297.295943336991
 30
0.0
 40
0.0
 41
0.0
  0
VERTEX
  5
   707
  8
0
  6
CONTINUOUS
 10
175.236485233208
 20
296.698636973744
 30
0.0
 40
0.0
 41
0.0
  0
VERTEX
  5
   708
  8
0
  6
CONTINUOUS
 10
173.705471272398
 20
296.387959875659
 30
0.0
 40
0.0
 41
0.0
  0
VERTEX
  5
   709
  8
0
  6
CONTINUOUS
 10
172.346949145321
 20
296.383420946273
 30
0.0
 40
0.0
 41
0.0
  0
SEQEND
  5
   70A
  8
0
  6
CONTINUOUS
 62
     7
  0
POLYLINE
  5
   70B
  8
0
  6
CONTINUOUS
 62
     7
 66
     1
 10
0.0
 20
0.0
 30
0.0
  0
VERTEX
  5
   70C
  8
0
  6
CONTINUOUS
 10
169.107245193995
 20
297.896512634573
 30
0.0
 40
0.0
 41
0.0
  0
VERTEX
  5
   70D
  8
0
  6
CONTINUOUS
 10
169.000229179863
 20
298.356634408232
 30
0.0
 40
0.0
 41
0.0
  0
SEQEND
  5
   70E
  8
0
  6
CONTINUOUS
 62
     7
  0
POLYLINE
  5
   70F
  8
0
  6
CONTINUOUS
 62
     7
 66
     1
 10
0.0
 20
0.0
 30
0.0
  0
VERTEX
  5
   710
  8
0
  6
CONTINUOUS
 10
169.555960170936
 20
297.33982109668
 30
0.0
 40
0.0
 41
0.0
  0
VERTEX
  5
   711
  8
0
  6
CONTINUOUS
 10
169.306609847095
 20
297.588966563812
 30
0.0
 40
0.0
 41
0.0
  0
SEQEND
  5
   712
  8
0
  6
CONTINUOUS
 62
     7
  0
POLYLINE
  5
   713
  8
0
  6
CONTINUOUS
 62
     7
 66
     1
 10
0.0
 20
0.0
 30
0.0
  0
VERTEX
  5
   714
  8
0
  6
CONTINUOUS
 10
170.107110773021
 20
296.975434287636
 30
0.0
 40
0.0
 41
0.0
  0
VERTEX
  5
   715
  8
0
  6
CONTINUOUS
 10
169.673121705259
 20
297.24655112286
 30
0.0
 40
0.0
 41
0.0
  0
SEQEND
  5
   716
  8
0
  6
CONTINUOUS
 62
     7
  0
POLYLINE
  5
   717
  8
0
  6
CONTINUOUS
 62
     7
 66
     1
 10
0.0
 20
0.0
 30
0.0
  0
VERTEX
  5
   718
  8
0
  6
CONTINUOUS
 10
172.171329443583
 20
296.399933556909
 30
0.0
 40
0.0
 41
0.0
  0
VERTEX
  5
   719
  8
0
  6
CONTINUOUS
 10
170.770529605471
 20
296.696205119777
 30
0.0
 40
0.0
 41
0.0
  0
VERTEX
  5
   71A
  8
0
  6
CONTINUOUS
 10
170.272321315362
 20
296.89376726057
 30
0.0
 40
0.0
 41
0.0
  0
SEQEND
  5
   71B
  8
0
  6
CONTINUOUS
 62
     7
  0
LINE
  5
   71C
  8
0
  6
CONTINUOUS
 62
     7
 10
127.400228559971
 20
328.276634548903
 30
0.0
 11
127.400228559971
 21
328.35663485527
 31
0.0
  0
LINE
  5
   71D
  8
0
  6
CONTINUOUS
 62
     7
 10
122.600228488445
 20
328.276634548903
 30
0.0
 11
122.600228488445
 21
328.35663485527
 31
0.0
  0
LINE
  5
   71E
  8
0
  6
CONTINUOUS
 62
     7
 10
122.600228488445
 20
294.756634354591
 30
0.0
 11
122.600228488445
 21
294.836634660959
 31
0.0
  0
LINE
  5
   71F
  8
0
  6
CONTINUOUS
 62
     7
 10
127.400228559971
 20
294.756634354591
 30
0.0
 11
127.400228559971
 21
294.836634660959
 31
0.0
  0
LINE
  5
   720
  8
0
  6
CONTINUOUS
 62
     7
 10
176.200229287148
 20
294.756634354591
 30
0.0
 11
176.200229287148
 21
294.836634660959
 31
0.0
  0
LINE
  5
   721
  8
0
  6
CONTINUOUS
 62
     7
 10
169.80022919178
 20
294.756634354591
 30
0.0
 11
169.80022919178
 21
294.836634660959
 31
0.0
  0
LINE
  5
   722
  8
0
  6
CONTINUOUS
 62
     7
 10
119.880228447914
 20
328.276634548903
 30
0.0
 11
119.880228447914
 21
328.35663485527
 31
0.0
  0
LINE
  5
   723
  8
0
  6
CONTINUOUS
 62
     7
 10
119.880228447914
 20
294.756634354591
 30
0.0
 11
119.880228447914
 21
294.836634660959
 31
0.0
  0
LINE
  5
   724
  8
0
  6
CONTINUOUS
 62
     7
 10
118.520228427653
 20
328.35663485527
 30
0.0
 11
118.520228427653
 21
329.556634873152
 31
0.0
  0
LINE
  5
   725
  8
0
  6
CONTINUOUS
 62
     7
 10
138.200228720903
 20
328.35663485527
 30
0.0
 11
159.800229042768
 21
328.35663485527
 31
0.0
  0
LINE
  5
   726
  8
0
  6
CONTINUOUS
 62
     7
 10
170.600229203701
 20
328.356634855271
 30
0.0
 11
175.400229275227
 21
328.356634855271
 31
0.0
  0
LINE
  5
   727
  8
0
  6
CONTINUOUS
 62
     7
 10
159.800229042768
 20
328.35663485527
 30
0.0
 11
170.600229203701
 21
328.35663485527
 31
0.0
  0
LINE
  5
   728
  8
0
  6
CONTINUOUS
 62
     7
 10
175.400229275227
 20
328.35663485527
 30
0.0
 11
177.080228079557
 21
328.35663485527
 31
0.0
  0
LINE
  5
   729
  8
0
  6
CONTINUOUS
 62
     7
 10
177.080228079557
 20
328.35663485527
 30
0.0
 11
179.48022811532
 21
328.35663485527
 31
0.0
  0
LINE
  5
   72A
  8
0
  6
CONTINUOUS
 62
     7
 10
118.520229648352
 20
328.35663485527
 30
0.0
 11
120.920229684114
 21
328.35663485527
 31
0.0
  0
LINE
  5
   72B
  8
0
  6
CONTINUOUS
 62
     7
 10
122.600228488445
 20
328.356634855271
 30
0.0
 11
127.400228559971
 21
328.356634855271
 31
0.0
  0
LINE
  5
   72C
  8
0
  6
CONTINUOUS
 62
     7
 10
127.400228559971
 20
328.35663485527
 30
0.0
 11
138.200228720903
 21
328.35663485527
 31
0.0
  0
LINE
  5
   72D
  8
0
  6
CONTINUOUS
 62
     7
 10
120.920229684114
 20
328.35663485527
 30
0.0
 11
122.600228488445
 21
328.35663485527
 31
0.0
  0
LINE
  5
   72E
  8
0
  6
CONTINUOUS
 62
     7
 10
138.200228720903
 20
329.556634873152
 30
0.0
 11
159.800229042768
 21
329.556634873152
 31
0.0
  0
LINE
  5
   72F
  8
0
  6
CONTINUOUS
 62
     7
 10
159.800229042768
 20
329.556634873152
 30
0.0
 11
177.080228079557
 21
329.556634873152
 31
0.0
  0
LINE
  5
   730
  8
0
  6
CONTINUOUS
 62
     7
 10
177.080228079557
 20
329.556634873152
 30
0.0
 11
179.48022811532
 21
329.556634873152
 31
0.0
  0
LINE
  5
   731
  8
0
  6
CONTINUOUS
 62
     7
 10
118.520229648352
 20
329.556634873152
 30
0.0
 11
120.920229684114
 21
329.556634873152
 31
0.0
  0
LINE
  5
   732
  8
0
  6
CONTINUOUS
 62
     7
 10
120.920229684114
 20
329.556634873152
 30
0.0
 11
138.200228720903
 21
329.556634873152
 31
0.0
  0
LINE
  5
   733
  8
0
  6
CONTINUOUS
 62
     7
 10
118.520228427653
 20
293.55663433671
 30
0.0
 11
118.520228427653
 21
294.756634354591
 31
0.0
  0
LINE
  5
   734
  8
0
  6
CONTINUOUS
 62
     7
 10
138.200228720903
 20
293.55663433671
 30
0.0
 11
159.800229042768
 21
293.55663433671
 31
0.0
  0
LINE
  5
   735
  8
0
  6
CONTINUOUS
 62
     7
 10
159.800229042768
 20
293.55663433671
 30
0.0
 11
177.080228079557
 21
293.55663433671
 31
0.0
  0
LINE
  5
   736
  8
0
  6
CONTINUOUS
 62
     7
 10
177.080228079557
 20
293.55663433671
 30
0.0
 11
179.48022811532
 21
293.55663433671
 31
0.0
  0
LINE
  5
   737
  8
0
  6
CONTINUOUS
 62
     7
 10
118.520229648352
 20
293.55663433671
 30
0.0
 11
120.920229684114
 21
293.55663433671
 31
0.0
  0
LINE
  5
   738
  8
0
  6
CONTINUOUS
 62
     7
 10
120.920229684114
 20
293.55663433671
 30
0.0
 11
138.200228720903
 21
293.55663433671
 31
0.0
  0
LINE
  5
   739
  8
0
  6
CONTINUOUS
 62
     7
 10
138.200228720903
 20
294.756634354591
 30
0.0
 11
159.800229042768
 21
294.756634354591
 31
0.0
  0
LINE
  5
   73A
  8
0
  6
CONTINUOUS
 62
     7
 10
159.800229042768
 20
294.756634354591
 30
0.0
 11
177.080228079557
 21
294.756634354591
 31
0.0
  0
LINE
  5
   73B
  8
0
  6
CONTINUOUS
 62
     7
 10
177.080228079557
 20
294.756634354591
 30
0.0
 11
179.48022811532
 21
294.756634354591
 31
0.0
  0
LINE
  5
   73C
  8
0
  6
CONTINUOUS
 62
     7
 10
118.520229648352
 20
294.756634354591
 30
0.0
 11
120.920229684114
 21
294.756634354591
 31
0.0
  0
LINE
  5
   73D
  8
0
  6
CONTINUOUS
 62
     7
 10
120.920229684114
 20
294.756634354591
 30
0.0
 11
138.200228720903
 21
294.756634354591
 31
0.0
  0
LINE
  5
   73E
  8
0
  6
CONTINUOUS
 62
     7
 10
89.000215715631
 20
268.756633967161
 30
0.0
 11
183.000229388475
 21
268.756633967161
 31
0.0
  0
LINE
  5
   73F
  8
0
  6
CONTINUOUS
 62
     7
 10
90.2002280056477
 20
268.756633967161
 30
0.0
 11
91.0002280175686
 21
268.756633967161
 31
0.0
  0
LINE
  5
   740
  8
0
  6
CONTINUOUS
 62
     7
 10
183.000229388475
 20
268.756633967161
 30
0.0
 11
183.800229400396
 21
268.756633967161
 31
0.0
  0
LINE
  5
   741
  8
0
  6
CONTINUOUS
 62
     7
 10
115.000228375196
 20
363.156635373836
 30
0.0
 11
183.000229388475
 21
363.156635373836
 31
0.0
  0
LINE
  5
   742
  8
0
  6
CONTINUOUS
 62
     7
 10
89.0002279877663
 20
363.156635373836
 30
0.0
 11
115.000228375196
 21
363.156635373836
 31
0.0
  0
LINE
  5
   743
  8
0
  6
CONTINUOUS
 62
     7
 10
183.000229388475
 20
363.156635373831
 30
0.0
 11
183.800229400396
 21
363.156635373831
 31
0.0
  0
LINE
  5
   744
  8
0
  6
CONTINUOUS
 62
     7
 10
113.000228345394
 20
329.556634873152
 30
0.0
 11
114.960228984952
 21
329.556634873152
 31
0.0
  0
LINE
  5
   745
  8
0
  6
CONTINUOUS
 62
     7
 10
183.04022877872
 20
329.556634873152
 30
0.0
 11
185.000229418278
 21
329.556634873152
 31
0.0
  0
LINE
  5
   746
  8
0
  6
CONTINUOUS
 62
     7
 10
114.960228984952
 20
329.556634873152
 30
0.0
 11
115.360228990912
 21
329.556634873152
 31
0.0
  0
LINE
  5
   747
  8
0
  6
CONTINUOUS
 62
     7
 10
182.640228772759
 20
329.556634873152
 30
0.0
 11
183.04022877872
 21
329.556634873152
 31
0.0
  0
LINE
  5
   748
  8
0
  6
CONTINUOUS
 62
     7
 10
181.200229361653
 20
329.556634873152
 30
0.0
 11
181.600229367614
 21
329.556634873152
 31
0.0
  0
LINE
  5
   749
  8
0
  6
CONTINUOUS
 62
     7
 10
179.760229950547
 20
329.556634873152
 30
0.0
 11
180.160229956508
 21
329.556634873152
 31
0.0
  0
LINE
  5
   74A
  8
0
  6
CONTINUOUS
 62
     7
 10
116.400228396058
 20
329.556634873152
 30
0.0
 11
116.800228402019
 21
329.556634873152
 31
0.0
  0
LINE
  5
   74B
  8
0
  6
CONTINUOUS
 62
     7
 10
117.840227807164
 20
329.556634873152
 30
0.0
 11
118.240227813125
 21
329.556634873152
 31
0.0
  0
LINE
  5
   74C
  8
0
  6
CONTINUOUS
 62
     7
 10
89.0002279878133
 20
293.55663433671
 30
0.0
 11
114.960228984952
 21
293.55663433671
 31
0.0
  0
LINE
  5
   74D
  8
0
  6
CONTINUOUS
 62
     7
 10
183.04022877872
 20
293.55663433671
 30
0.0
 11
185.000229418278
 21
293.55663433671
 31
0.0
  0
LINE
  5
   74E
  8
0
  6
CONTINUOUS
 62
     7
 10
114.960228984952
 20
293.55663433671
 30
0.0
 11
115.360228990912
 21
293.55663433671
 31
0.0
  0
LINE
  5
   74F
  8
0
  6
CONTINUOUS
 62
     7
 10
182.640228772759
 20
293.55663433671
 30
0.0
 11
183.04022877872
 21
293.55663433671
 31
0.0
  0
LINE
  5
   750
  8
0
  6
CONTINUOUS
 62
     7
 10
181.200229361653
 20
293.55663433671
 30
0.0
 11
181.600229367614
 21
293.55663433671
 31
0.0
  0
LINE
  5
   751
  8
0
  6
CONTINUOUS
 62
     7
 10
179.760229950547
 20
293.55663433671
 30
0.0
 11
180.160229956508
 21
293.55663433671
 31
0.0
  0
LINE
  5
   752
  8
0
  6
CONTINUOUS
 62
     7
 10
116.400228396058
 20
293.55663433671
 30
0.0
 11
116.800228402019
 21
293.55663433671
 31
0.0
  0
LINE
  5
   753
  8
0
  6
CONTINUOUS
 62
     7
 10
117.840227807164
 20
293.55663433671
 30
0.0
 11
118.240227813125
 21
293.55663433671
 31
0.0
  0
LINE
  5
   754
  8
0
  6
CONTINUOUS
 62
     7
 10
157.240229004622
 20
300.826625366062
 30
0.0
 11
157.240229004622
 21
300.875619049653
 31
0.0
  0
LINE
  5
   755
  8
0
  6
CONTINUOUS
 62
     7
 10
157.240229004622
 20
297.636634702683
 30
0.0
 11
157.240229004622
 21
300.826625366062
 31
0.0
  0
LINE
  5
   756
  8
0
  6
CONTINUOUS
 62
     7
 10
140.76022875905
 20
300.826625366062
 30
0.0
 11
140.76022875905
 21
300.875619049653
 31
0.0
  0
LINE
  5
   757
  8
0
  6
CONTINUOUS
 62
     7
 10
140.76022875905
 20
297.636634702683
 30
0.0
 11
140.76022875905
 21
300.826625366062
 31
0.0
  0
LINE
  5
   758
  8
0
  6
CONTINUOUS
 62
     7
 10
184.44022940998
 20
277.156634092331
 30
0.0
 11
184.44022940998
 21
277.716634711027
 31
0.0
  0
LINE
  5
   759
  8
0
  6
CONTINUOUS
 62
     7
 10
184.44022940998
 20
354.196634629965
 30
0.0
 11
184.44022940998
 21
354.756635248661
 31
0.0
  0
LINE
  5
   75A
  8
0
  6
CONTINUOUS
 62
     7
 10
183.800229400443
 20
268.756633967161
 30
0.0
 11
183.800229400443
 21
277.156634092331
 31
0.0
  0
LINE
  5
   75B
  8
0
  6
CONTINUOUS
 62
     7
 10
90.2002280056946
 20
268.756633967161
 30
0.0
 11
90.2002280056946
 21
277.156634092331
 31
0.0
  0
LINE
  5
   75C
  8
0
  6
CONTINUOUS
 62
     7
 10
183.800229400443
 20
354.756635248661
 30
0.0
 11
183.800229400443
 21
363.156635373831
 31
0.0
  0
LINE
  5
   75D
  8
0
  6
CONTINUOUS
 62
     7
 10
90.2002280056946
 20
354.756635248661
 30
0.0
 11
90.2002280056946
 21
363.156635373831
 31
0.0
  0
LINE
  5
   75E
  8
0
  6
CONTINUOUS
 62
     7
 10
118.240227813125
 20
329.556634873152
 30
0.0
 11
118.520229648352
 21
329.556634873152
 31
0.0
  0
LINE
  5
   75F
  8
0
  6
CONTINUOUS
 62
     7
 10
179.48022811532
 20
329.556634873152
 30
0.0
 11
179.760229950547
 21
329.556634873152
 31
0.0
  0
LINE
  5
   760
  8
0
  6
CONTINUOUS
 62
     7
 10
116.800228402019
 20
329.556634873152
 30
0.0
 11
117.840227807164
 21
329.556634873152
 31
0.0
  0
LINE
  5
   761
  8
0
  6
CONTINUOUS
 62
     7
 10
180.160229956508
 20
329.556634873152
 30
0.0
 11
181.200229361653
 21
329.556634873152
 31
0.0
  0
LINE
  5
   762
  8
0
  6
CONTINUOUS
 62
     7
 10
89.0002279878133
 20
277.716634711027
 30
0.0
 11
89.0002279878133
 21
293.55663433671
 31
0.0
  0
LINE
  5
   763
  8
0
  6
CONTINUOUS
 62
     7
 10
89.0002279878133
 20
288.13317747495
 30
0.0
 11
89.0002279878133
 21
354.196634629965
 31
0.0
  0
LINE
  5
   764
  8
0
  6
CONTINUOUS
 62
     7
 10
180.160229956508
 20
293.55663433671
 30
0.0
 11
181.200229361653
 21
293.55663433671
 31
0.0
  0
LINE
  5
   765
  8
0
  6
CONTINUOUS
 62
     7
 10
116.800228402019
 20
293.55663433671
 30
0.0
 11
117.840227807164
 21
293.55663433671
 31
0.0
  0
LINE
  5
   766
  8
0
  6
CONTINUOUS
 62
     7
 10
118.240227813125
 20
293.55663433671
 30
0.0
 11
118.520229648352
 21
293.55663433671
 31
0.0
  0
LINE
  5
   767
  8
0
  6
CONTINUOUS
 62
     7
 10
179.48022811532
 20
293.55663433671
 30
0.0
 11
179.760229950547
 21
293.55663433671
 31
0.0
  0
LINE
  5
   768
  8
0
  6
CONTINUOUS
 62
     7
 10
89.0002279878133
 20
329.556634873152
 30
0.0
 11
116.400228396058
 21
329.556634873152
 31
0.0
  0
LINE
  5
   769
  8
0
  6
CONTINUOUS
 62
     7
 10
115.360228990912
 20
293.55663433671
 30
0.0
 11
116.400228396058
 21
293.55663433671
 31
0.0
  0
LINE
  5
   76A
  8
0
  6
CONTINUOUS
 62
     7
 10
181.600229367614
 20
329.556634873152
 30
0.0
 11
182.640228772759
 21
329.556634873152
 31
0.0
  0
LINE
  5
   76B
  8
0
  6
CONTINUOUS
 62
     7
 10
181.600229367614
 20
293.55663433671
 30
0.0
 11
182.640228772759
 21
293.55663433671
 31
0.0
  0
LINE
  5
   76C
  8
0
  6
CONTINUOUS
 62
     7
 10
89.5602279961579
 20
277.156634092331
 30
0.0
 11
89.5602279961579
 21
277.716634711027
 31
0.0
  0
LINE
  5
   76D
  8
0
  6
CONTINUOUS
 62
   212
 10
141.000228762627
 20
326.989076546318
 30
0.0
 11
141.068617893284
 21
327.256479199228
 31
0.0
  0
POLYLINE
  5
   76E
  8
0
  6
CONTINUOUS
 62
   212
 66
     1
 10
0.0
 20
0.0
 30
0.0
  0
VERTEX
  5
   76F
  8
0
  6
CONTINUOUS
 10
141.800228774548
 20
320.427755423002
 30
0.0
 40
0.0
 41
0.0
  0
VERTEX
  5
   770
  8
0
  6
CONTINUOUS
 10
141.234440902406
 20
320.652742957782
 30
0.0
 40
0.0
 41
0.0
  0
VERTEX
  5
   771
  8
0
  6
CONTINUOUS
 10
141.000228762627
 20
321.195542026462
 30
0.0
 40
0.0
 41
0.0
  0
SEQEND
  5
   772
  8
0
  6
CONTINUOUS
 62
   212
  0
LINE
  5
   773
  8
0
  6
CONTINUOUS
 62
   212
 10
156.931839870388
 20
327.256479199228
 30
0.0
 11
157.000229001045
 21
326.989076546318
 31
0.0
  0
POLYLINE
  5
   774
  8
0
  6
CONTINUOUS
 62
   212
 66
     1
 10
0.0
 20
0.0
 30
0.0
  0
VERTEX
  5
   775
  8
0
  6
CONTINUOUS
 10
156.200228989124
 20
320.427755423002
 30
0.0
 40
0.0
 41
0.0
  0
VERTEX
  5
   776
  8
0
  6
CONTINUOUS
 10
156.766016859515
 20
320.652742964345
 30
0.0
 40
0.0
 41
0.0
  0
VERTEX
  5
   777
  8
0
  6
CONTINUOUS
 10
157.000229001045
 20
321.195542031243
 30
0.0
 40
0.0
 41
0.0
  0
SEQEND
  5
   778
  8
0
  6
CONTINUOUS
 62
   212
  0
LINE
  5
   779
  8
0
  6
CONTINUOUS
 62
   212
 10
141.800228774548
 20
323.042250315631
 30
0.0
 11
156.200228989124
 21
323.042250315631
 31
0.0
  0
ARC
  5
   77A
  8
0
  6
CONTINUOUS
 62
   212
 10
141.794921580446
 20
326.98368103719
 30
0.0
 40
0.795147915465076
 50
89.617777824613
 51
148.670753481327
  0
ARC
  5
   77B
  8
0
  6
CONTINUOUS
 62
   212
 10
156.205514167625
 20
326.983658785028
 30
0.0
 40
0.795169954376524
 50
31.3298293180003
 51
90.3806260205076
  0
LINE
  5
   77C
  8
0
  6
CONTINUOUS
 62
   212
 10
141.800228774548
 20
317.70012758588
 30
0.0
 11
156.200228989124
 21
317.70012758588
 31
0.0
  0
LINE
  5
   77D
  8
0
  6
CONTINUOUS
 62
   212
 10
141.800228774548
 20
327.779227475931
 30
0.0
 11
156.200228989124
 21
327.779227475931
 31
0.0
  0
LINE
  5
   77E
  8
0
  6
CONTINUOUS
 62
   212
 10
141.800228774548
 20
320.427755423002
 30
0.0
 11
156.200228989124
 21
320.427755423002
 31
0.0
  0
LINE
  5
   77F
  8
0
  6
CONTINUOUS
 62
   212
 10
141.000228762627
 20
318.048846615735
 30
0.0
 11
141.000228762627
 21
319.14875507939
 31
0.0
  0
LINE
  5
   780
  8
0
  6
CONTINUOUS
 62
   212
 10
141.000228762627
 20
319.14875507939
 30
0.0
 11
141.000228762627
 21
321.195541608913
 31
0.0
  0
LINE
  5
   781
  8
0
  6
CONTINUOUS
 62
   212
 10
141.000228762627
 20
321.195541608913
 30
0.0
 11
141.000228762627
 21
323.560002398541
 31
0.0
  0
LINE
  5
   782
  8
0
  6
CONTINUOUS
 62
   212
 10
141.000228762627
 20
323.560002398541
 30
0.0
 11
141.000228762627
 21
326.989076546318
 31
0.0
  0
LINE
  5
   783
  8
0
  6
CONTINUOUS
 62
   212
 10
157.000229001045
 20
318.04906786818
 30
0.0
 11
157.000229001045
 21
319.14875507939
 31
0.0
  0
LINE
  5
   784
  8
0
  6
CONTINUOUS
 62
   212
 10
157.000229001045
 20
321.195541608913
 30
0.0
 11
157.000229001045
 21
323.560002398541
 31
0.0
  0
LINE
  5
   785
  8
0
  6
CONTINUOUS
 62
   212
 10
157.000229001045
 20
319.14875507939
 30
0.0
 11
157.000229001045
 21
321.195541608913
 31
0.0
  0
LINE
  5
   786
  8
0
  6
CONTINUOUS
 62
   212
 10
157.000229001045
 20
323.560002398541
 30
0.0
 11
157.000229001045
 21
326.989076546318
 31
0.0
  0
LINE
  5
   787
  8
0
  6
DASHDOT
 62
     7
 10
147.896228862643
 20
365.556635409599
 30
0.0
 11
150.122628901851
 21
365.556635409599
 31
0.0
  0
LINE
  5
   788
  8
0
  6
DASHDOT
 62
     7
 10
149.000228881836
 20
364.452635390406
 30
0.0
 11
149.000228881836
 21
366.660635428791
 31
0.0
  0
LINE
  5
   789
  8
0
  6
DASHDOT
 62
     7
 10
134.984228667974
 20
358.756635308271
 30
0.0
 11
139.049828739572
 21
358.756635308271
 31
0.0
  0
LINE
  5
   78A
  8
0
  6
DASHDOT
 62
     7
 10
137.000228703022
 20
356.740635273223
 30
0.0
 11
137.000228703022
 21
360.772635343318
 31
0.0
  0
LINE
  5
   78B
  8
0
  6
DASHDOT
 62
     7
 10
158.984229025602
 20
358.756635308271
 30
0.0
 11
163.0498290972
 21
358.756635308271
 31
0.0
  0
LINE
  5
   78C
  8
0
  6
DASHDOT
 62
     7
 10
161.00022906065
 20
356.740635273223
 30
0.0
 11
161.00022906065
 21
360.772635343318
 31
0.0
  0
LINE
  5
   78D
  8
0
  6
DASHDOT
 62
     7
 10
158.984216344261
 20
273.156629696045
 30
0.0
 11
163.049816415856
 21
273.156629696045
 31
0.0
  0
LINE
  5
   78E
  8
0
  6
DASHDOT
 62
     7
 10
161.000216379308
 20
271.140629660999
 30
0.0
 11
161.000216379308
 21
275.172629731092
 31
0.0
  0
LINE
  5
   78F
  8
0
  6
DASHDOT
 62
     7
 10
134.984216086166
 20
273.156629613147
 30
0.0
 11
139.04981595715
 21
273.156629613147
 31
0.0
  0
LINE
  5
   790
  8
0
  6
DASHDOT
 62
     7
 10
137.000216021736
 20
271.140629677577
 30
0.0
 11
137.000216021736
 21
275.172629548717
 31
0.0
  0
LINE
  5
   791
  8
0
  6
DASHDOT
 62
     7
 10
158.984228779366
 20
273.156629419892
 30
0.0
 11
163.049828850963
 21
273.156629419892
 31
0.0
  0
LINE
  5
   792
  8
0
  6
DASHDOT
 62
     7
 10
161.000228814414
 20
271.140629384844
 30
0.0
 11
161.000228814414
 21
275.17262945494
 31
0.0
  0
LINE
  5
   793
  8
0
  6
DASHDOT
 62
     7
 10
147.896228577286
 20
266.356629387603
 30
0.0
 11
150.122628616493
 21
266.356629387603
 31
0.0
  0
LINE
  5
   794
  8
0
  6
DASHDOT
 62
     7
 10
149.000228596478
 20
265.25262936841
 30
0.0
 11
149.000228596478
 21
267.460629406795
 31
0.0
  0
LINE
  5
   795
  8
0
  6
DASHDOT
 62
     7
 10
134.984228421738
 20
273.156629557969
 30
0.0
 11
139.049828493336
 21
273.156629557969
 31
0.0
  0
LINE
  5
   796
  8
0
  6
DASHDOT
 62
     7
 10
137.000228456786
 20
271.140629522921
 30
0.0
 11
137.000228456786
 21
275.172629593016
 31
0.0
  0
LINE
  5
   797
  8
0
  6
DASHDOT
 62
     7
 10
156.920232873603
 20
273.156632658582
 30
0.0
 11
165.148279422559
 21
273.156632658582
 31
0.0
  0
LINE
  5
   798
  8
0
  6
DASHDOT
 62
     7
 10
161.000255954809
 20
269.076609577376
 30
0.0
 11
161.000255954809
 21
277.236655739788
 31
0.0
  0
LINE
  5
   799
  8
0
  6
DASHDOT
 62
     7
 10
121.880215788625
 20
290.756629958305
 30
0.0
 11
128.17221589943
 21
290.756629958305
 31
0.0
  0
LINE
  5
   79A
  8
0
  6
DASHDOT
 62
     7
 10
125.000215842865
 20
287.636629904065
 30
0.0
 11
125.000215842865
 21
293.876630012546
 31
0.0
  0
LINE
  5
   79B
  8
0
  6
DASHDOT
 62
     7
 10
134.984228667974
 20
273.156634032726
 30
0.0
 11
139.049828739572
 21
273.156634032726
 31
0.0
  0
LINE
  5
   79C
  8
0
  6
DASHDOT
 62
     7
 10
137.000228703022
 20
271.140633997678
 30
0.0
 11
137.000228703022
 21
275.172634067773
 31
0.0
  0
LINE
  5
   79D
  8
0
  6
DASHDOT
 62
     7
 10
134.984228667974
 20
273.156634032726
 30
0.0
 11
139.049828739572
 21
273.156634032726
 31
0.0
  0
LINE
  5
   79E
  8
0
  6
DASHDOT
 62
     7
 10
137.000228703022
 20
271.140633997678
 30
0.0
 11
137.000228703022
 21
275.172634067773
 31
0.0
  0
LINE
  5
   79F
  8
0
  6
DASHDOT
 62
     7
 10
132.68022862792
 20
273.156634032726
 30
0.0
 11
141.392228781343
 21
273.156634032726
 31
0.0
  0
LINE
  5
   7A0
  8
0
  6
DASHDOT
 62
     7
 10
137.000228703022
 20
268.836633957624
 30
0.0
 11
137.000228703022
 21
277.476634107828
 31
0.0
  0
LINE
  5
   7A1
  8
0
  6
DASHDOT
 62
     7
 10
158.984229025602
 20
358.756635308266
 30
0.0
 11
163.049829097199
 21
358.756635308266
 31
0.0
  0
LINE
  5
   7A2
  8
0
  6
DASHDOT
 62
     7
 10
161.00022906065
 20
356.740635273218
 30
0.0
 11
161.00022906065
 21
360.772635343313
 31
0.0
  0
LINE
  5
   7A3
  8
0
  6
DASHDOT
 62
     7
 10
158.984229025602
 20
358.756635308266
 30
0.0
 11
163.049829097199
 21
358.756635308266
 31
0.0
  0
LINE
  5
   7A4
  8
0
  6
DASHDOT
 62
     7
 10
161.00022906065
 20
356.740635273218
 30
0.0
 11
161.00022906065
 21
360.772635343313
 31
0.0
  0
LINE
  5
   7A5
  8
0
  6
DASHDOT
 62
     7
 10
156.680228985548
 20
358.756635308266
 30
0.0
 11
165.39222913897
 21
358.756635308266
 31
0.0
  0
LINE
  5
   7A6
  8
0
  6
DASHDOT
 62
     7
 10
161.00022906065
 20
354.436635233164
 30
0.0
 11
161.00022906065
 21
363.076635383368
 31
0.0
  0
LINE
  5
   7A7
  8
0
  6
DASHDOT
 62
     7
 10
121.880228469968
 20
358.556635305291
 30
0.0
 11
128.172228580773
 21
358.556635305291
 31
0.0
  0
LINE
  5
   7A8
  8
0
  6
DASHDOT
 62
     7
 10
125.000228524208
 20
355.436635251051
 30
0.0
 11
125.000228524208
 21
361.676635359531
 31
0.0
  0
LINE
  5
   7A9
  8
0
  6
DASHDOT
 62
     7
 10
121.880228469968
 20
273.356634035701
 30
0.0
 11
128.172228580773
 21
273.356634035701
 31
0.0
  0
LINE
  5
   7AA
  8
0
  6
DASHDOT
 62
     7
 10
125.000228524208
 20
270.236633981461
 30
0.0
 11
125.000228524208
 21
276.476634089941
 31
0.0
  0
LINE
  5
   7AB
  8
0
  6
DASHDOT
 62
     7
 10
132.920228632092
 20
358.756635308271
 30
0.0
 11
141.148228776991
 21
358.756635308271
 31
0.0
  0
LINE
  5
   7AC
  8
0
  6
DASHDOT
 62
     7
 10
137.000228703022
 20
354.676635237341
 30
0.0
 11
137.000228703022
 21
362.8366353792
 31
0.0
  0
LINE
  5
   7AD
  8
0
  6
DASHDOT
 62
     7
 10
156.92022898972
 20
273.156634032721
 30
0.0
 11
165.148229134619
 21
273.156634032721
 31
0.0
  0
LINE
  5
   7AE
  8
0
  6
DASHDOT
 62
     7
 10
161.00022906065
 20
269.076633961791
 30
0.0
 11
161.00022906065
 21
277.23663410365
 31
0.0
  0
LINE
  5
   7AF
  8
0
  6
DASHDOT
 62
     7
 10
145.880228827596
 20
273.356634035701
 30
0.0
 11
152.172228938401
 21
273.356634035701
 31
0.0
  0
LINE
  5
   7B0
  8
0
  6
DASHDOT
 62
     7
 10
149.000228881836
 20
270.236633981461
 30
0.0
 11
149.000228881836
 21
276.476634089942
 31
0.0
  0
LINE
  5
   7B1
  8
0
  6
DASHDOT
 62
     7
 10
169.880229185224
 20
273.356634035701
 30
0.0
 11
176.172229296029
 21
273.356634035701
 31
0.0
  0
LINE
  5
   7B2
  8
0
  6
DASHDOT
 62
     7
 10
173.000229239464
 20
270.236633981461
 30
0.0
 11
173.000229239464
 21
276.476634089941
 31
0.0
  0
LINE
  5
   7B3
  8
0
  6
DASHDOT
 62
     7
 10
145.880228827596
 20
358.556635305291
 30
0.0
 11
152.172228938401
 21
358.556635305291
 31
0.0
  0
LINE
  5
   7B4
  8
0
  6
DASHDOT
 62
     7
 10
149.000228881836
 20
355.43663525105
 30
0.0
 11
149.000228881836
 21
361.676635359531
 31
0.0
  0
LINE
  5
   7B5
  8
0
  6
DASHDOT
 62
     7
 10
169.880229185224
 20
358.55663530529
 30
0.0
 11
176.172229296029
 21
358.55663530529
 31
0.0
  0
LINE
  5
   7B6
  8
0
  6
DASHDOT
 62
     7
 10
173.000229239464
 20
355.43663525105
 30
0.0
 11
173.000229239464
 21
361.67663535953
 31
0.0
  0
INSERT
  5
   7B7
  8
0
  6
CONTINUOUS
 62
     7
  2
*UDIM2413
 10
0.0
 20
0.0
 30
0.0
  0
INSERT
  5
   7B8
  8
0
  6
CONTINUOUS
 62
     7
  2
*UDIM2414
 10
0.0
 20
0.0
 30
0.0
  0
LINE
  5
   7B9
  8
0
  6
CONTINUOUS
 62
     7
 10
134.600228667259
 20
367.956635445361
 30
0.0
 11
135.800228685141
 21
367.956635445361
 31
0.0
  0
LINE
  5
   7BA
  8
0
  6
CONTINUOUS
 62
     7
 10
135.800228685141
 20
366.356635421515
 30
0.0
 11
135.800228685141
 21
367.956635445356
 31
0.0
  0
LINE
  5
   7BB
  8
0
  6
CONTINUOUS
 62
     7
 10
134.600228667259
 20
366.35663542152
 30
0.0
 11
135.800228685141
 21
366.35663542152
 31
0.0
  0
LINE
  5
   7BC
  8
0
  6
CONTINUOUS
 62
     3
 10
134.600228667259
 20
367.156635433435
 30
0.0
 11
134.600228667259
 21
367.956635445356
 31
0.0
  0
LINE
  5
   7BD
  8
0
  6
CONTINUOUS
 62
     7
 10
134.600228667259
 20
366.356635421515
 30
0.0
 11
134.600228667259
 21
367.156635433435
 31
0.0
  0
LINE
  5
   7BE
  8
0
  6
CONTINUOUS
 62
     7
 10
134.600228667259
 20
364.756635397673
 30
0.0
 11
134.600228667259
 21
366.356635421515
 31
0.0
  0
LINE
  5
   7BF
  8
0
  6
CONTINUOUS
 62
     7
 10
134.600228667259
 20
364.756635397678
 30
0.0
 11
139.400228738785
 21
364.756635397678
 31
0.0
  0
LINE
  5
   7C0
  8
0
  6
CONTINUOUS
 62
     7
 10
139.400228738785
 20
364.756635397673
 30
0.0
 11
139.400228738785
 21
366.356635421515
 31
0.0
  0
LINE
  5
   7C1
  8
0
  6
CONTINUOUS
 62
     7
 10
138.200228720903
 20
366.35663542152
 30
0.0
 11
139.400228738785
 21
366.35663542152
 31
0.0
  0
LINE
  5
   7C2
  8
0
  6
CONTINUOUS
 62
     7
 10
138.200228720903
 20
366.356635421515
 30
0.0
 11
138.200228720903
 21
367.956635445356
 31
0.0
  0
LINE
  5
   7C3
  8
0
  6
CONTINUOUS
 62
     7
 10
138.200228720903
 20
367.956635445361
 30
0.0
 11
139.400228738785
 21
367.956635445361
 31
0.0
  0
LINE
  5
   7C4
  8
0
  6
CONTINUOUS
 62
     7
 10
139.400228738785
 20
366.356635421515
 30
0.0
 11
139.400228738785
 21
367.156635433435
 31
0.0
  0
LINE
  5
   7C5
  8
0
  6
CONTINUOUS
 62
     3
 10
139.400228738785
 20
367.156635433435
 30
0.0
 11
139.400228738785
 21
367.956635445356
 31
0.0
  0
LINE
  5
   7C6
  8
0
  6
CONTINUOUS
 62
     3
 10
139.400228738785
 20
367.956635445361
 30
0.0
 11
159.000229030848
 21
367.956635445361
 31
0.0
  0
LINE
  5
   7C7
  8
0
  6
CONTINUOUS
 62
     7
 10
110.600215623686
 20
263.956630843878
 30
0.0
 11
110.600215623686
 21
264.756630855799
 31
0.0
  0
LINE
  5
   7C8
  8
0
  6
CONTINUOUS
 62
     7
 10
110.600215628288
 20
264.756630855799
 30
0.0
 11
110.600215628288
 21
265.55663086772
 31
0.0
  0
LINE
  5
   7C9
  8
0
  6
CONTINUOUS
 62
     7
 10
110.6002161026
 20
263.95662935184
 30
0.0
 11
111.800216120481
 21
263.95662935184
 31
0.0
  0
LINE
  5
   7CA
  8
0
  6
CONTINUOUS
 62
     7
 10
111.80021564617
 20
263.956630843878
 30
0.0
 11
111.80021564617
 21
265.55663086772
 31
0.0
  0
LINE
  5
   7CB
  8
0
  6
CONTINUOUS
 62
     7
 10
110.600217628479
 20
265.556629375682
 30
0.0
 11
111.800216120481
 21
265.556629375682
 31
0.0
  0
LINE
  5
   7CC
  8
0
  6
CONTINUOUS
 62
     7
 10
110.600215628288
 20
265.55663086772
 30
0.0
 11
110.600215628288
 21
267.156630891562
 31
0.0
  0
LINE
  5
   7CD
  8
0
  6
CONTINUOUS
 62
     7
 10
110.600228309631
 20
267.156629399523
 30
0.0
 11
115.400228381157
 21
267.156629399523
 31
0.0
  0
LINE
  5
   7CE
  8
0
  6
CONTINUOUS
 62
     7
 10
115.400215699814
 20
265.55663086772
 30
0.0
 11
115.400215699814
 21
267.156630891562
 31
0.0
  0
LINE
  5
   7CF
  8
0
  6
CONTINUOUS
 62
     7
 10
114.200215393305
 20
265.556629375682
 30
0.0
 11
115.400215411186
 21
265.556629375682
 31
0.0
  0
LINE
  5
   7D0
  8
0
  6
CONTINUOUS
 62
     7
 10
114.200215681933
 20
263.956630843878
 30
0.0
 11
114.200215681933
 21
265.55663086772
 31
0.0
  0
LINE
  5
   7D1
  8
0
  6
CONTINUOUS
 62
     7
 10
114.200215393305
 20
263.95662935184
 30
0.0
 11
115.400215411186
 21
263.95662935184
 31
0.0
  0
LINE
  5
   7D2
  8
0
  6
CONTINUOUS
 62
     7
 10
115.400215699814
 20
264.756630855799
 30
0.0
 11
115.400215699814
 21
265.55663086772
 31
0.0
  0
LINE
  5
   7D3
  8
0
  6
CONTINUOUS
 62
     7
 10
115.400215695211
 20
263.956630843878
 30
0.0
 11
115.400215695211
 21
264.756630855799
 31
0.0
  0
LINE
  5
   7D4
  8
0
  6
CONTINUOUS
 62
     7
 10
115.400215411186
 20
263.95662935184
 30
0.0
 11
134.600215697288
 21
263.95662935184
 31
0.0
  0
INSERT
  5
   7D5
  8
0
  6
CONTINUOUS
 62
     7
  2
*HATCH2126
 10
0.0
 20
0.0
 30
0.0
  0
INSERT
  5
   7D6
  8
0
  6
CONTINUOUS
 62
     7
  2
*HATCH2127
 10
0.0
 20
0.0
 30
0.0
  0
CIRCLE
  5
   7D7
  8
0
  6
CONTINUOUS
 62
     1
 10
101.000263680942
 20
358.556635305291
 30
0.0
 40
2.60002266508434
  0
LINE
  5
   7D8
  8
0
  6
DASHDOT
 62
     7
 10
97.88022811234
 20
358.556635305291
 30
0.0
 11
104.172228223145
 21
358.556635305291
 31
0.0
  0
LINE
  5
   7D9
  8
0
  6
DASHDOT
 62
     7
 10
101.00022816658
 20
355.436635251051
 30
0.0
 11
101.00022816658
 21
361.676635359531
 31
0.0
  0
CIRCLE
  5
   7DA
  8
0
  6
CONTINUOUS
 62
     1
 10
113.000274787253
 20
358.756635308271
 30
0.0
 40
3.40002963895681
  0
CIRCLE
  5
   7DB
  8
0
  6
CONTINUOUS
 62
     7
 10
113.000228345394
 20
358.756635308271
 30
0.0
 40
1.68000002503397
  0
LINE
  5
   7DC
  8
0
  6
DASHDOT
 62
     7
 10
108.920228274465
 20
358.756635308271
 30
0.0
 11
117.148228419363
 21
358.756635308271
 31
0.0
  0
LINE
  5
   7DD
  8
0
  6
DASHDOT
 62
     7
 10
113.000228345394
 20
354.676635237341
 30
0.0
 11
113.000228345394
 21
362.8366353792
 31
0.0
  0
CIRCLE
  5
   7DE
  8
0
  6
CONTINUOUS
 62
     1
 10
101.000263680942
 20
273.356634035701
 30
0.0
 40
2.60002266508431
  0
LINE
  5
   7DF
  8
0
  6
DASHDOT
 62
     7
 10
101.00022816658
 20
270.236633981461
 30
0.0
 11
101.00022816658
 21
276.476634089941
 31
0.0
  0
LINE
  5
   7E0
  8
0
  6
DASHDOT
 62
     7
 10
97.8802281123401
 20
273.356634035701
 30
0.0
 11
104.172228223145
 21
273.356634035701
 31
0.0
  0
CIRCLE
  5
   7E1
  8
0
  6
CONTINUOUS
 62
     7
 10
113.000228345394
 20
273.156634032726
 30
0.0
 40
3.60000005364419
  0
CIRCLE
  5
   7E2
  8
0
  6
CONTINUOUS
 62
     7
 10
113.000228345394
 20
273.156634032726
 30
0.0
 40
1.68000002503393
  0
LINE
  5
   7E3
  8
0
  6
DASHDOT
 62
     7
 10
108.680228270292
 20
273.156634032726
 30
0.0
 11
117.392228423715
 21
273.156634032726
 31
0.0
  0
LINE
  5
   7E4
  8
0
  6
DASHDOT
 62
     7
 10
113.000228345394
 20
268.836633957624
 30
0.0
 11
113.000228345394
 21
277.476634107828
 31
0.0
  0
INSERT
  5
   7E5
  8
0
  6
CONTINUOUS
 62
     7
  2
*UDIM2415
 10
0.0
 20
0.0
 30
0.0
  0
INSERT
  5
   7E6
  8
0
  6
CONTINUOUS
 62
     7
  2
*UDIM2416
 10
0.0
 20
0.0
 30
0.0
  0
INSERT
  5
   7E7
  8
0
  6
CONTINUOUS
 62
     7
  2
*UDIM2417
 10
0.0
 20
0.0
 30
0.0
  0
INSERT
  5
   7E8
  8
0
  6
CONTINUOUS
 62
     7
  2
*UDIM2418
 10
0.0
 20
0.0
 30
0.0
  0
INSERT
  5
   7E9
  8
0
  6
CONTINUOUS
 62
     7
  2
*UDIM2419
 10
0.0
 20
0.0
 30
0.0
  0
INSERT
  5
   7EA
  8
0
  6
CONTINUOUS
 62
     7
  2
*UDIM2420
 10
0.0
 20
0.0
 30
0.0
  0
POINT
  5
   7EB
  8
0
  6
CONTINUOUS
 62
     7
 10
394.137847810984
 20
392.409979641438
 30
0.0
  0
POINT
  5
   7EC
  8
0
  6
CONTINUOUS
 62
     7
 10
406.137854330469
 20
349.609976835327
 30
0.0
  0
POINT
  5
   7ED
  8
0
  6
CONTINUOUS
 62
     7
 10
382.137853972841
 20
349.609976835327
 30
0.0
  0
CIRCLE
  5
   7EE
  8
0
  6
CONTINUOUS
 62
     7
 10
394.137847810984
 20
392.409979641438
 30
0.0
 40
0.900000013411045
  0
CIRCLE
  5
   7EF
  8
0
  6
CONTINUOUS
 62
     7
 10
406.137854330469
 20
349.609976835327
 30
0.0
 40
0.900000013411045
  0
CIRCLE
  5
   7F0
  8
0
  6
CONTINUOUS
 62
     7
 10
382.137853972841
 20
349.609976835327
 30
0.0
 40
0.900000013411045
  0
INSERT
  5
   7F1
  8
0
  6
CONTINUOUS
 62
     7
  2
*UDIM2421
 10
0.0
 20
0.0
 30
0.0
  0
LINE
  5
   7F2
  8
0
  6
DASHDOT
 62
     7
 10
404.299608981502
 20
349.609979003668
 30
0.0
 11
407.91174561974
 21
349.609979003668
 31
0.0
  0
LINE
  5
   7F3
  8
0
  6
DASHDOT
 62
     7
 10
393.457847796679
 20
392.409979641438
 30
0.0
 11
396.845847856343
 21
392.409979641438
 31
0.0
  0
LINE
  5
   7F4
  8
0
  6
CONTINUOUS
 62
     7
 10
379.137847587466
 20
396.409979701042
 30
0.0
 11
409.137848034501
 21
396.409979701042
 31
0.0
  0
LINE
  5
   7F5
  8
0
  6
CONTINUOUS
 62
     7
 10
379.137847587466
 20
345.609978944063
 30
0.0
 11
379.137847587466
 21
396.409979701042
 31
0.0
  0
LINE
  5
   7F6
  8
0
  6
CONTINUOUS
 62
     7
 10
379.137847587466
 20
345.609978944063
 30
0.0
 11
409.137848034501
 21
345.609978944063
 31
0.0
  0
LINE
  5
   7F7
  8
0
  6
CONTINUOUS
 62
     7
 10
409.137848034501
 20
345.609978944063
 30
0.0
 11
409.137848034501
 21
396.409979701042
 31
0.0
  0
LINE
  5
   7F8
  8
0
  6
DASHDOT
 62
     7
 10
400.137847900391
 20
340.384473797285
 30
0.0
 11
400.137847900391
 21
406.564079730169
 31
0.0
  0
LINE
  5
   7F9
  8
0
  6
DASHDOT
 62
     7
 10
387.515412773571
 20
371.009979322553
 30
0.0
 11
418.172863687412
 21
371.009979322553
 31
0.0
  0
LINE
  5
   7FA
  8
0
  6
DASHDOT
 62
     7
 10
400.137847900391
 20
410.858839912367
 30
0.0
 11
400.137847900391
 21
414.761841876758
 31
0.0
  0
TEXT
  5
   7FB
  8
0
  6
CONTINUOUS
 62
     7
 10
397.526378061743
 20
413.198890257503
 30
0.0
 40
2.99999994933605
  1
Y
 41
0.933333333333333
 72
     1
 11
398.626378043166
 21
414.698890232171
 31
0.0
 73
     2
  0
TEXT
  5
   7FC
  8
0
  6
CONTINUOUS
 62
     7
 10
397.337523127982
 20
339.073328756378
 30
0.0
 40
2.99999994933605
  1
Y
 41
0.933333333333333
 72
     1
 11
398.437523109405
 21
340.573328731046
 31
0.0
 73
     2
  0
TEXT
  5
   7FD
  8
0
  6
CONTINUOUS
 62
     7
 10
415.121362723794
 20
371.55637736324
 30
0.0
 40
2.99999994933605
  1
X
 41
0.933333333333333
 72
     1
 11
416.221362705217
 21
373.056377337908
 31
0.0
 73
     2
  0
TEXT
  5
   7FE
  8
0
  6
CONTINUOUS
 62
     7
 10
374.006226923518
 20
371.398998251773
 30
0.0
 40
2.99999994933605
  1
X
 41
0.933333333333333
 72
     1
 11
375.106226904942
 21
372.898998226441
 31
0.0
 73
     2
  0
INSERT
  5
   7FF
  8
0
  6
CONTINUOUS
 62
     7
  2
*UDIM2422
 10
0.0
 20
0.0
 30
0.0
  0
INSERT
  5
   800
  8
0
  6
CONTINUOUS
 62
     7
  2
*UDIM2423
 10
0.0
 20
0.0
 30
0.0
  0
ARC
  5
   801
  8
0
  6
CONTINUOUS
 62
     7
 10
406.13784798998
 20
349.609979003481
 30
0.0
 40
0.84000001277772
 50
133.582415663913
 51
135.087354211886
  0
LINE
  5
   802
  8
0
  6
DASHDOT
 62
     7
 10
392.745847786784
 20
392.409979641438
 30
0.0
 11
395.55304783622
 21
392.409979641438
 31
0.0
  0
LINE
  5
   803
  8
0
  6
DASHDOT
 62
     7
 10
393.12984779346
 20
392.409979641438
 30
0.0
 11
395.162647829258
 21
392.409979641438
 31
0.0
  0
LINE
  5
   804
  8
0
  6
DASHDOT
 62
     7
 10
394.137847810984
 20
391.401979623914
 30
0.0
 11
394.137847810984
 21
393.417979658961
 31
0.0
  0
LINE
  5
   805
  8
0
  6
DASHDOT
 62
     7
 10
392.457847781777
 20
392.409979641438
 30
0.0
 11
395.845847841442
 21
392.409979641438
 31
0.0
  0
LINE
  5
   806
  8
0
  6
DASHDOT
 62
     7
 10
404.74585430627
 20
349.609976835327
 30
0.0
 11
407.553054355706
 21
349.609976835327
 31
0.0
  0
LINE
  5
   807
  8
0
  6
DASHDOT
 62
     7
 10
406.137854330469
 20
348.217976811128
 30
0.0
 11
406.137854330469
 21
351.001976859527
 31
0.0
  0
LINE
  5
   808
  8
0
  6
DASHDOT
 62
     7
 10
405.129854312945
 20
349.609976835327
 30
0.0
 11
407.162654348744
 21
349.609976835327
 31
0.0
  0
LINE
  5
   809
  8
0
  6
DASHDOT
 62
     7
 10
406.137854330469
 20
348.601976817803
 30
0.0
 11
406.137854330469
 21
350.617976852851
 31
0.0
  0
LINE
  5
   80A
  8
0
  6
DASHDOT
 62
     7
 10
406.137854330469
 20
347.929976806121
 30
0.0
 11
406.137854330469
 21
351.289976864533
 31
0.0
  0
LINE
  5
   80B
  8
0
  6
DASHDOT
 62
     7
 10
393.12984779346
 20
392.409979641438
 30
0.0
 11
395.162647829258
 21
392.409979641438
 31
0.0
  0
LINE
  5
   80C
  8
0
  6
DASHDOT
 62
     7
 10
394.137847810984
 20
391.401979623914
 30
0.0
 11
394.137847810984
 21
393.417979658961
 31
0.0
  0
LINE
  5
   80D
  8
0
  6
DASHDOT
 62
     7
 10
393.12984779346
 20
392.409979641438
 30
0.0
 11
395.162647829258
 21
392.409979641438
 31
0.0
  0
LINE
  5
   80E
  8
0
  6
DASHDOT
 62
     7
 10
394.137847810984
 20
391.401979623914
 30
0.0
 11
394.137847810984
 21
393.417979658961
 31
0.0
  0
LINE
  5
   80F
  8
0
  6
DASHDOT
 62
     7
 10
394.137847810984
 20
390.388275753414
 30
0.0
 11
394.137847810984
 21
394.604893111721
 31
0.0
  0
LINE
  5
   810
  8
0
  6
DASHDOT
 62
     7
 10
389.237847737968
 20
392.409979641438
 30
0.0
 11
396.622718185661
 21
392.409979641438
 31
0.0
  0
INSERT
  5
   811
  8
0
  6
CONTINUOUS
 62
     7
  2
*UDIM2424
 10
0.0
 20
0.0
 30
0.0
  0
LINE
  5
   812
  8
0
  6
DASHDOT
 62
     7
 10
382.137853972841
 20
347.929976806121
 30
0.0
 11
382.137853972841
 21
351.289976864533
 31
0.0
  0
LINE
  5
   813
  8
0
  6
DASHDOT
 62
     7
 10
381.129853955317
 20
349.609976835327
 30
0.0
 11
383.162653991116
 21
349.609976835327
 31
0.0
  0
INSERT
  5
   814
  8
0
  6
CONTINUOUS
 62
     7
  2
*UDIM2425
 10
0.0
 20
0.0
 30
0.0
  0
INSERT
  5
   815
  8
0
  6
CONTINUOUS
 62
     7
  2
*UDIM2426
 10
0.0
 20
0.0
 30
0.0
  0
LINE
  5
   816
  8
0
  6
CONTINUOUS
 62
     3
 10
387.265476226807
 20
307.792724609375
 30
0.0
 11
428.76547546387
 21
307.792724609375
 31
0.0
  0
LINE
  5
   817
  8
0
  6
CONTINUOUS
 62
     3
 10
387.26547546387
 20
278.792724609375
 30
0.0
 11
387.26547546387
 21
307.792724609375
 31
0.0
  0
LINE
  5
   818
  8
0
  6
CONTINUOUS
 62
     3
 10
387.265476226807
 20
278.792724609375
 30
0.0
 11
428.76547546387
 21
278.792724609375
 31
0.0
  0
INSERT
  5
   819
  8
0
  6
CONTINUOUS
 62
     7
  2
*UDIM2427
 10
0.0
 20
0.0
 30
0.0
  0
LINE
  5
   81A
  8
0
  6
CONTINUOUS
 62
     3
 10
428.76547546387
 20
278.792724609375
 30
0.0
 11
428.76547546387
 21
307.792724609375
 31
0.0
  0
INSERT
  5
   81B
  8
0
  6
CONTINUOUS
 62
     7
  2
*UDIM2428
 10
0.0
 20
0.0
 30
0.0
  0
LINE
  5
   81C
  8
0
  6
CONTINUOUS
 62
     7
 10
382.26547546387
 20
312.792724609375
 30
0.0
 11
433.76547546387
 21
312.792724609375
 31
0.0
  0
LINE
  5
   81D
  8
0
  6
CONTINUOUS
 62
     7
 10
433.76547546387
 20
273.792724609375
 30
0.0
 11
433.76547546387
 21
312.792724609375
 31
0.0
  0
LINE
  5
   81E
  8
0
  6
CONTINUOUS
 62
     7
 10
382.26547546387
 20
273.792724609375
 30
0.0
 11
382.26547546387
 21
312.792724609375
 31
0.0
  0
LINE
  5
   81F
  8
0
  6
CONTINUOUS
 62
     7
 10
382.26547546387
 20
273.792724609375
 30
0.0
 11
433.76547546387
 21
273.792724609375
 31
0.0
  0
LINE
  5
   820
  8
0
  6
DASHDOT
 62
     7
 10
373.754944068912
 20
298.292724609375
 30
0.0
 11
442.384509363272
 21
298.292724609375
 31
0.0
  0
LINE
  5
   821
  8
0
  6
DASHDOT
 62
     7
 10
408.01547546387
 20
267.030712878581
 30
0.0
 11
408.01547546387
 21
320.152349278218
 31
0.0
  0
TEXT
  5
   822
  8
0
  6
CONTINUOUS
 62
     7
 10
438.927431104082
 20
299.32551563067
 30
0.0
 40
3.00000002980232
  1
X
 41
0.933333333333334
 72
     1
 11
440.027431115009
 21
300.825515645571
 31
0.0
 73
     2
  0
TEXT
  5
   823
  8
0
  6
CONTINUOUS
 62
     7
 10
404.578570661441
 20
268.010388735466
 30
0.0
 40
3.00000002980232
  1
Y
 41
0.933333333333334
 72
     1
 11
405.678570672369
 21
269.510388750367
 31
0.0
 73
     2
  0
TEXT
  5
   824
  8
0
  6
CONTINUOUS
 62
     7
 10
376.812267602528
 20
299.32551563067
 30
0.0
 40
3.00000002980232
  1
X
 41
0.933333333333334
 72
     1
 11
377.912267613455
 21
300.825515645571
 31
0.0
 73
     2
  0
TEXT
  5
   825
  8
0
  6
CONTINUOUS
 62
     7
 10
404.998980451972
 20
316.367566158501
 30
0.0
 40
3.00000002980232
  1
Y
 41
0.933333333333334
 72
     1
 11
406.0989804629
 21
317.867566173402
 31
0.0
 73
     2
  0
INSERT
  5
   826
  8
0
  6
CONTINUOUS
 62
     7
  2
*UDIM2429
 10
0.0
 20
0.0
 30
0.0
  0
TEXT
  5
   827
  8
0
  6
CONTINUOUS
 62
     7
 10
235.368936155305
 20
241.04146295292
 30
0.0
 40
1.40000452697284
  1
PROFONDITA' QUADRO
 41
0.933333333333333
 11
235.368936155305
 21
241.741465216406
 31
0.0
 73
     2
  0
TEXT
  5
   828
  8
0
  6
CONTINUOUS
 62
     7
 10
235.368936155305
 20
243.36146298749
 30
0.0
 40
1.40000452697284
  1
COMPARTMENT DEPTH
 41
0.933333333333333
 11
235.368936155305
 21
244.061465250977
 31
0.0
 73
     2
  0
ENDSEC
  0
EOF
