  0
SECTION
  2
HEADER
  9
$ACADVER
  1
AC1009
  9
$INSBASE
 10
0.0
 20
0.0
 30
0.0
  9
$EXTMIN
 10
-183.46412689545619
 20
333.34594719685032
 30
0.0
  9
$EXTMAX
 10
1027.3071899999991
 20
803.70942700000001
 30
0.0
  9
$LIMMIN
 10
0.0
 20
0.0
  9
$LIMMAX
 10
420.0
 20
297.0
  9
$ORTHOMODE
 70
     0
  9
$REGENMODE
 70
     1
  9
$FILLMODE
 70
     1
  9
$QTEXTMODE
 70
     0
  9
$MIRRTEXT
 70
     1
  9
$DRAGMODE
 70
     2
  9
$LTSCALE
 40
1.0
  9
$OSMODE
 70
    47
  9
$ATTMODE
 70
     1
  9
$TEXTSIZE
 40
0.0
  9
$TRACEWID
 40
1.0
  9
$TEXTSTYLE
  7
STANDARD
  9
$CLAYER
  8
0
  9
$CELTYPE
  6
BYLAYER
  9
$CECOLOR
 62
   256
  9
$DIMSCALE
 40
1.0
  9
$DIMASZ
 40
2.5
  9
$DIMEXO
 40
0.625
  9
$DIMDLI
 40
3.75
  9
$DIMRND
 40
0.0
  9
$DIMDLE
 40
0.0
  9
$DIMEXE
 40
1.25
  9
$DIMTP
 40
0.0
  9
$DIMTM
 40
0.0
  9
$DIMTXT
 40
2.5
  9
$DIMCEN
 40
2.5
  9
$DIMTSZ
 40
0.0
  9
$DIMTOL
 70
     0
  9
$DIMLIM
 70
     0
  9
$DIMTIH
 70
     0
  9
$DIMTOH
 70
     0
  9
$DIMSE1
 70
     0
  9
$DIMSE2
 70
     0
  9
$DIMTAD
 70
     1
  9
$DIMZIN
 70
     8
  9
$DIMBLK
  1

  9
$DIMASO
 70
     1
  9
$DIMSHO
 70
     1
  9
$DIMPOST
  1

  9
$DIMAPOST
  1

  9
$DIMALT
 70
     0
  9
$DIMALTD
 70
     3
  9
$DIMALTF
 40
0.03937
  9
$DIMLFAC
 40
1.0
  9
$DIMTOFL
 70
     1
  9
$DIMTVP
 40
0.0
  9
$DIMTIX
 70
     0
  9
$DIMSOXD
 70
     0
  9
$DIMSAH
 70
     0
  9
$DIMBLK1
  1

  9
$DIMBLK2
  1

  9
$DIMSTYLE
  2
STANDARD
  9
$DIMCLRD
 70
     0
  9
$DIMCLRE
 70
     0
  9
$DIMCLRT
 70
     0
  9
$DIMTFAC
 40
1.0
  9
$DIMGAP
 40
0.625
  9
$LUNITS
 70
     2
  9
$LUPREC
 70
     4
  9
$SKETCHINC
 40
1.0
  9
$FILLETRAD
 40
2.5
  9
$AUNITS
 70
     0
  9
$AUPREC
 70
     0
  9
$MENU
  1
.
  9
$ELEVATION
 40
0.0
  9
$PELEVATION
 40
0.0
  9
$THICKNESS
 40
0.0
  9
$LIMCHECK
 70
     0
  9
$BLIPMODE
 70
     0
  9
$CHAMFERA
 40
2.5
  9
$CHAMFERB
 40
2.5
  9
$SKPOLY
 70
     0
  9
$TDCREATE
 40
2311942.6599061568
  9
$TDUPDATE
 40
2454455.4014550811
  9
$TDINDWG
 40
0.000385706
  9
$TDUSRTIMER
 40
0.0003855208
  9
$USRTIMER
 70
     1
  9
$ANGBASE
 50
0.0
  9
$ANGDIR
 70
     0
  9
$PDMODE
 70
     0
  9
$PDSIZE
 40
0.0
  9
$PLINEWID
 40
0.0
  9
$COORDS
 70
     1
  9
$SPLFRAME
 70
     0
  9
$SPLINETYPE
 70
     6
  9
$SPLINESEGS
 70
     8
  9
$ATTDIA
 70
     0
  9
$ATTREQ
 70
     1
  9
$HANDLING
 70
 22529
  9
$HANDSEED
  5
AFC
  9
$SURFTAB1
 70
     6
  9
$SURFTAB2
 70
     6
  9
$SURFTYPE
 70
     6
  9
$SURFU
 70
     6
  9
$SURFV
 70
     6
  9
$UCSNAME
  2

  9
$UCSORG
 10
0.0
 20
0.0
 30
0.0
  9
$UCSXDIR
 10
1.0
 20
0.0
 30
0.0
  9
$UCSYDIR
 10
0.0
 20
1.0
 30
0.0
  9
$PUCSNAME
  2

  9
$PUCSORG
 10
0.0
 20
0.0
 30
0.0
  9
$PUCSXDIR
 10
1.0
 20
0.0
 30
0.0
  9
$PUCSYDIR
 10
0.0
 20
1.0
 30
0.0
  9
$USERI1
 70
     0
  9
$USERI2
 70
     0
  9
$USERI3
 70
     0
  9
$USERI4
 70
     0
  9
$USERI5
 70
     0
  9
$USERR1
 40
0.0
  9
$USERR2
 40
0.0
  9
$USERR3
 40
0.0
  9
$USERR4
 40
0.0
  9
$USERR5
 40
0.0
  9
$WORLDVIEW
 70
     1
  9
$SHADEDGE
 70
     3
  9
$SHADEDIF
 70
    70
  9
$TILEMODE
 70
     1
  9
$MAXACTVP
 70
    48
  9
$PLIMCHECK
 70
     0
  9
$PEXTMIN
 10
0.0
 20
0.0
 30
0.0
  9
$PEXTMAX
 10
264.21105999999997
 20
255.00001499999991
 30
2.0
  9
$PLIMMIN
 10
0.0
 20
0.0
  9
$PLIMMAX
 10
420.0
 20
297.0
  9
$UNITMODE
 70
     0
  9
$VISRETAIN
 70
     0
  9
$PLINEGEN
 70
     0
  9
$PSLTSCALE
 70
     1
  0
ENDSEC
  0
SECTION
  2
TABLES
  0
TABLE
  2
VPORT
 70
     2
  0
VPORT
  2
*ACTIVE
 70
     0
 10
0.0
 20
0.0
 11
1.0
 21
1.0
 12
421.92153155227169
 22
568.52768709842496
 13
0.0
 23
0.0
 14
1.0
 24
1.0
 15
0.0
 25
0.0
 16
0.0
 26
0.0
 36
1.0
 17
0.0
 27
0.0
 37
0.0
 40
784.75270355078021
 41
1.550724637681159
 42
50.0
 43
0.0
 44
0.0
 50
0.0
 51
0.0
 71
     0
 72
   100
 73
     1
 74
     1
 75
     0
 76
     0
 77
     0
 78
     0
  0
ENDTAB
  0
TABLE
  2
LTYPE
 70
     8
  0
LTYPE
  2
CONTINUOUS
 70
     0
  3
Solid line
 72
    65
 73
     0
 40
0.0
  0
LTYPE
  2
DASHED
 70
     0
  3
__ __ __ __ __ __ __ __ __ __ __ __ __ __ __ __
 72
    65
 73
     2
 40
15.0
 49
12.0
 49
-3.0
  0
LTYPE
  2
DASHDOT
 70
     0
  3
 __ . __ . __ . __ . __ . __ . __ . 
 72
    65
 73
     4
 40
18.5
 49
12.0
 49
-3.0
 49
0.5
 49
-3.0
  0
LTYPE
  2
DOT
 70
     0
  3
 . . . . . . . . . . . . . . . .
 72
    65
 73
     2
 40
3.5
 49
0.5
 49
-3.0
  0
LTYPE
  2
DASHSPACE
 70
     0
  3
__    __    __    __    __   
 72
    65
 73
     2
 40
30.0
 49
12.0
 49
-18.0
  0
LTYPE
  2
DASHDOT2
 70
     0
  3
__ . . __ . . __ . . __ 
 72
    65
 73
     6
 40
22.0
 49
12.0
 49
-3.0
 49
0.5
 49
-3.0
 49
0.5
 49
-3.0
  0
LTYPE
  2
PHANTOM
 70
     0
  3
____________    ____    ____   _
 72
    65
 73
     6
 40
20.0
 49
10.0
 49
-2.0
 49
2.0
 49
-2.0
 49
2.0
 49
-2.0
  0
LTYPE
  2
AXES
 70
     0
  3
________  __  ________  __  _____
 72
    65
 73
     4
 40
24.0
 49
15.0
 49
-3.0
 49
3.0
 49
-3.0
  0
ENDTAB
  0
TABLE
  2
LAYER
 70
     1
  0
LAYER
  2
0
 70
     0
 62
     7
  6
CONTINUOUS
  0
ENDTAB
  0
TABLE
  2
STYLE
 70
     2
  0
STYLE
  2
STANDARD
 70
     0
 40
0.0
 41
1.0
 50
0.0
 71
     0
 42
0.0
  3
isocp.shx
  4

  0
STYLE
  2
GDT
 70
     0
 40
0.0
 41
1.0
 50
0.0
 71
     0
 42
0.0
  3
amgdt.shx
  4

  0
ENDTAB
  0
TABLE
  2
VIEW
 70
     0
  0
ENDTAB
  0
TABLE
  2
UCS
 70
     0
  0
ENDTAB
  0
TABLE
  2
APPID
 70
     1
  0
APPID
  2
ACAD
 70
     0
  0
ENDTAB
  0
TABLE
  2
DIMSTYLE
 70
     1
  0
DIMSTYLE
  2
STANDARD
 70
     0
  3

  4

  5

  6

  7

 40
1.0
 41
2.5
 42
0.625
 43
3.75
 44
1.25
 45
0.0
 46
0.0
 47
0.0
 48
0.0
140
2.5
141
2.5
142
0.0
143
0.03937
144
1.0
145
0.0
146
1.0
147
0.625
 71
     0
 72
     0
 73
     0
 74
     0
 75
     0
 76
     0
 77
     1
 78
     8
170
     0
171
     3
172
     1
173
     0
174
     0
175
     0
176
     0
177
     0
178
     0
  0
ENDTAB
  0
ENDSEC
  0
SECTION
  2
BLOCKS
  0
BLOCK
  8
0
  2
$MODEL_SPACE
 70
     0
 10
0.0
 20
0.0
 30
0.0
  3
$MODEL_SPACE
  1

  0
ENDBLK
  5
E
  8
0
  0
BLOCK
 67
     1
  8
0
  2
$PAPER_SPACE
 70
     0
 10
0.0
 20
0.0
 30
0.0
  3
$PAPER_SPACE
  1

  0
ENDBLK
  5
10
 67
     1
  8
0
  0
BLOCK
  8
0
  2
BLOCK0
 70
     0
 10
0.0
 20
0.0
 30
0.0
  3
BLOCK0
  1

  0
LINE
  5
556
  8
0
 62
     3
 10
-68.999968999999993
 20
-58.5
 30
0.0
 11
89.500022999999985
 21
-58.5
 31
0.0
  0
LINE
  5
557
  8
0
 62
     3
 10
-70.249968999999993
 20
57.25
 30
0.0
 11
-70.249968999999993
 21
-57.25
 31
0.0
  0
LINE
  5
558
  8
0
 62
     3
 10
-68.999968999999993
 20
58.5
 30
0.0
 11
89.500022999999985
 21
58.5
 31
0.0
  0
LINE
  5
559
  8
0
 62
     3
 10
90.750022999999985
 20
57.25
 30
0.0
 11
90.750022999999985
 21
-57.25
 31
0.0
  0
LINE
  5
55A
  8
0
 62
     3
 10
-42.74997299999999
 20
-53.0
 30
0.0
 11
63.250022999999999
 21
-53.0
 31
0.0
  0
LINE
  5
55B
  8
0
 62
     3
 10
-42.74997299999999
 20
53.0
 30
0.0
 11
-42.74997299999999
 21
-53.0
 31
0.0
  0
LINE
  5
55C
  8
0
 62
     3
 10
-42.74997299999999
 20
53.0
 30
0.0
 11
63.250022999999999
 21
53.0
 31
0.0
  0
LINE
  5
55D
  8
0
 62
     3
 10
63.250022999999999
 20
53.0
 30
0.0
 11
63.250022999999999
 21
-53.0
 31
0.0
  0
LINE
  5
55E
  8
0
 62
     3
 10
-51.249972999999997
 20
-54.0
 30
0.0
 11
-50.24997299999999
 21
-54.0
 31
0.0
  0
LINE
  5
55F
  8
0
 62
     3
 10
-49.249972999999997
 20
53.0
 30
0.0
 11
-49.249972999999997
 21
-53.0
 31
0.0
  0
LINE
  5
560
  8
0
 62
     3
 10
-51.249972999999997
 20
54.0
 30
0.0
 11
-50.24997299999999
 21
54.0
 31
0.0
  0
LINE
  5
561
  8
0
 62
     3
 10
-50.24997299999999
 20
53.0
 30
0.0
 11
-50.24997299999999
 21
-53.0
 31
0.0
  0
LINE
  5
562
  8
0
 62
     3
 10
-70.249968999999993
 20
54.0
 30
0.0
 11
-51.249972999999997
 21
54.0
 31
0.0
  0
LINE
  5
563
  8
0
 62
     3
 10
-50.249977000000001
 20
54.0
 30
0.0
 11
90.750022999999985
 21
54.0
 31
0.0
  0
LINE
  5
564
  8
0
 62
     3
 10
-70.249968999999993
 20
53.0
 30
0.0
 11
-50.24997299999999
 21
53.0
 31
0.0
  0
LINE
  5
565
  8
0
 62
     3
 10
63.250022999999999
 20
53.0
 30
0.0
 11
69.750022999999985
 21
53.0
 31
0.0
  0
LINE
  5
566
  8
0
 62
     3
 10
-49.249972999999997
 20
53.0
 30
0.0
 11
-42.74997299999999
 21
53.0
 31
0.0
  0
LINE
  5
567
  8
0
 62
     3
 10
-70.249968999999993
 20
-54.0
 30
0.0
 11
-51.249972999999997
 21
-54.0
 31
0.0
  0
LINE
  5
568
  8
0
 62
     3
 10
-50.24997299999999
 20
-54.0
 30
0.0
 11
90.750022999999985
 21
-54.0
 31
0.0
  0
LINE
  5
569
  8
0
 62
     3
 10
-49.249972999999997
 20
-53.0
 30
0.0
 11
-42.74997299999999
 21
-53.0
 31
0.0
  0
LINE
  5
56A
  8
0
 62
     3
 10
63.250022999999999
 20
-53.0
 30
0.0
 11
69.750022999999985
 21
-53.0
 31
0.0
  0
LINE
  5
56B
  8
0
 62
     3
 10
-70.249968999999993
 20
-53.0
 30
0.0
 11
-50.24997299999999
 21
-53.0
 31
0.0
  0
LINE
  5
56C
  8
0
 62
     3
 10
70.750022999999999
 20
54.0
 30
0.0
 11
70.750022999999999
 21
-54.0
 31
0.0
  0
LINE
  5
56D
  8
0
 62
     3
 10
69.750022999999985
 20
53.0
 30
0.0
 11
69.750022999999985
 21
-53.0
 31
0.0
  0
ARC
  5
56E
  8
0
 62
     3
 10
-68.999968999999993
 20
57.25
 30
0.0
 40
1.25
 50
90.000005000000002
 51
180.00000099999991
  0
ARC
  5
56F
  8
0
 62
     3
 10
-68.999968999999993
 20
-57.25
 30
0.0
 40
1.25
 50
180.00000099999991
 51
270.0
  0
ARC
  5
570
  8
0
 62
     3
 10
89.500022999999985
 20
-57.25
 30
0.0
 40
1.25
 50
270.0
 51
0.000003
  0
ARC
  5
571
  8
0
 62
     3
 10
89.500022999999985
 20
57.25
 30
0.0
 40
1.25
 50
0.000003
 51
90.000005000000002
  0
LINE
  5
572
  8
0
  6
DASHSPACE
 62
     3
 10
80.000022999999999
 20
54.5
 30
0.0
 11
80.000022999999999
 21
54.0
 31
0.0
  0
LINE
  5
573
  8
0
  6
DASHSPACE
 62
     3
 10
81.500022999999999
 20
54.5
 30
0.0
 11
81.500022999999999
 21
54.0
 31
0.0
  0
LINE
  5
574
  8
0
 62
     3
 10
80.000022999999999
 20
-53.5
 30
0.0
 11
80.000022999999999
 21
-54.0
 31
0.0
  0
LINE
  5
575
  8
0
 62
     3
 10
81.500022999999999
 20
-53.5
 30
0.0
 11
81.500022999999999
 21
-54.0
 31
0.0
  0
ARC
  5
576
  8
0
  6
DASHSPACE
 62
     3
 10
80.750022999999985
 20
54.5
 30
0.0
 40
0.75
 50
0.000003
 51
180.00000099999991
  0
ARC
  5
577
  8
0
 62
     3
 10
80.750022999999985
 20
53.5
 30
0.0
 40
0.75
 50
180.00000099999991
 51
0.000003
  0
LINE
  5
578
  8
0
 62
     3
 10
81.500022999999999
 20
54.0
 30
0.0
 11
81.500022999999999
 21
53.5
 31
0.0
  0
LINE
  5
579
  8
0
 62
     3
 10
80.000022999999999
 20
54.0
 30
0.0
 11
80.000022999999999
 21
53.5
 31
0.0
  0
ARC
  5
57A
  8
0
 62
     3
 10
80.750022999999985
 20
-53.5
 30
0.0
 40
0.75
 50
0.000003
 51
180.00000099999991
  0
ARC
  5
57B
  8
0
  6
DASHSPACE
 62
     3
 10
80.750022999999985
 20
-54.5
 30
0.0
 40
0.75
 50
180.00000099999991
 51
0.000003
  0
LINE
  5
57C
  8
0
  6
DASHSPACE
 62
     3
 10
81.500022999999999
 20
-54.0
 30
0.0
 11
81.500022999999999
 21
-54.5
 31
0.0
  0
LINE
  5
57D
  8
0
  6
DASHSPACE
 62
     3
 10
80.000022999999999
 20
-54.0
 30
0.0
 11
80.000022999999999
 21
-54.5
 31
0.0
  0
POINT
  5
57E
  8
0
 62
     3
 10
10.25002299999999
 20
0.0
 30
0.0
  0
ENDBLK
  5
57F
  8
0
  0
BLOCK
  8
0
  2
BLOCK1
 70
     0
 10
0.0
 20
0.0
 30
0.0
  3
BLOCK1
  1

  0
TEXT
  5
581
  8
0
 62
     7
 10
170.48098799999991
 20
-1.908590999999999
 30
0.0
 40
3.0
  1
Y
 50
270.0
 41
0.977777777777778
 72
     5
 11
170.48098799999991
 21
-4.1085909999999997
 31
0.0
  0
ENDBLK
  5
582
  8
0
  0
BLOCK
  8
0
  2
BLOCK2
 70
     0
 10
0.0
 20
0.0
 30
0.0
  3
BLOCK2
  1

  0
TEXT
  5
584
  8
0
 62
     7
 10
7.0714809999999986
 20
-131.05477899999991
 30
0.0
 40
3.0
  1
X
 50
270.0
 41
0.9777764444444425
 72
     5
 11
7.0714809999999986
 21
-133.25477599999991
 31
0.0
  0
ENDBLK
  5
585
  8
0
  0
BLOCK
  8
0
  2
BLOCK3
 70
     0
 10
0.0
 20
0.0
 30
0.0
  3
BLOCK3
  1

  0
TEXT
  5
587
  8
0
 62
     7
 10
4.250030999999999
 20
97.360534999999999
 30
0.0
 40
3.0
  1
170
 41
1.466003047747545
 72
     5
 11
11.950010000000001
 21
97.360534999999999
 31
0.0
  0
ENDBLK
  5
588
  8
0
  0
BLOCK
  8
0
  2
BLOCK4
 70
     0
 10
0.0
 20
0.0
 30
0.0
  3
BLOCK4
  1

  0
TEXT
  5
58A
  8
0
 62
     7
 10
7.7837139999999989
 20
135.52621499999989
 30
0.0
 40
3.0
  1
X
 50
270.00002604357161
 41
0.9777764444445436
 72
     5
 11
7.7837149999999991
 21
133.3262179999999
 31
0.0
  0
ENDBLK
  5
58B
  8
0
  0
BLOCK
  8
0
  2
BLOCK5
 70
     0
 10
0.0
 20
0.0
 30
0.0
  3
BLOCK5
  1

  0
TEXT
  5
58D
  8
0
 62
     7
 10
-92.317306999999985
 20
-14.450022000000001
 30
0.0
 40
3.0
  1
35
 50
270.0
 41
1.2905676823578891
 72
     5
 11
-92.317306999999985
 21
-19.450022000000001
 31
0.0
  0
LINE
  5
58E
  8
0
 62
     7
 10
-69.500236999999998
 20
-35.000042000000001
 30
0.0
 11
-96.317307
 21
-35.000042000000001
 31
0.0
  0
POLYLINE
  5
58F
  8
0
 62
     7
 66
     1
 10
0.0
 20
0.0
 30
0.0
  0
VERTEX
  5
A44
  8
0
 62
     7
 10
-94.834946000000002
 20
-33.068191999999989
 30
0.0
  0
VERTEX
  5
A45
  8
0
 62
     7
 10
-94.317307000000014
 20
-35.000042000000001
 30
0.0
  0
VERTEX
  5
A46
  8
0
 62
     7
 10
-93.799666999999999
 20
-33.068191999999989
 30
0.0
  0
SEQEND
  5
A47
  8
0
 62
     7
  0
POLYLINE
  5
594
  8
0
 62
     7
 66
     1
 10
0.0
 20
0.0
 30
0.0
  0
VERTEX
  5
A48
  8
0
 62
     7
 10
-93.799666999999999
 20
-1.9318519999999999
 30
0.0
  0
VERTEX
  5
A49
  8
0
 62
     7
 10
-94.317307000000014
 20
0.0
 30
0.0
  0
VERTEX
  5
A4A
  8
0
 62
     7
 10
-94.834946000000002
 20
-1.9318519999999999
 30
0.0
  0
SEQEND
  5
A4B
  8
0
 62
     7
  0
LINE
  5
599
  8
0
 62
     7
 10
-94.317307000000014
 20
-35.000042000000001
 30
0.0
 11
-94.317307000000014
 21
0.0
 31
0.0
  0
ENDBLK
  5
59A
  8
0
  0
BLOCK
  8
0
  2
BLOCK6
 70
     0
 10
0.0
 20
0.0
 30
0.0
  3
BLOCK6
  1

  0
TEXT
  5
59C
  8
0
 62
     7
 10
-92.317306999999985
 20
20.550003
 30
0.0
 40
3.0
  1
35
 50
270.0
 41
1.2905676823578891
 72
     5
 11
-92.317306999999985
 21
15.550003
 31
0.0
  0
LINE
  5
59D
  8
0
 62
     7
 10
-69.499977000000001
 20
35.000011000000001
 30
0.0
 11
-96.317307
 21
35.000011000000001
 31
0.0
  0
POLYLINE
  5
59E
  8
0
 62
     7
 66
     1
 10
0.0
 20
0.0
 30
0.0
  0
VERTEX
  5
A4C
  8
0
 62
     7
 10
-94.834946000000002
 20
1.9318519999999999
 30
0.0
  0
VERTEX
  5
A4D
  8
0
 62
     7
 10
-94.317307000000014
 20
0.0
 30
0.0
  0
VERTEX
  5
A4E
  8
0
 62
     7
 10
-93.799666999999999
 20
1.9318519999999999
 30
0.0
  0
SEQEND
  5
A4F
  8
0
 62
     7
  0
POLYLINE
  5
5A3
  8
0
 62
     7
 66
     1
 10
0.0
 20
0.0
 30
0.0
  0
VERTEX
  5
A50
  8
0
 62
     7
 10
-93.799666999999999
 20
33.068160999999989
 30
0.0
  0
VERTEX
  5
A51
  8
0
 62
     7
 10
-94.317307000000014
 20
35.000011000000001
 30
0.0
  0
VERTEX
  5
A52
  8
0
 62
     7
 10
-94.834946000000002
 20
33.068160999999989
 30
0.0
  0
SEQEND
  5
A53
  8
0
 62
     7
  0
LINE
  5
5A8
  8
0
 62
     7
 10
-94.317307000000014
 20
0.0
 30
0.0
 11
-94.317307000000014
 21
35.000011000000001
 31
0.0
  0
ENDBLK
  5
5A9
  8
0
  0
BLOCK
  8
0
  2
BLOCK7
 70
     0
 10
0.0
 20
0.0
 30
0.0
  3
BLOCK7
  1

  0
TEXT
  5
5AB
  8
0
 62
     7
 10
-106.089523
 20
4.450067999999999
 30
0.0
 40
3.0
  1
105
 50
270.0
 41
1.4513613213407759
 72
     5
 11
-106.089523
 21
-3.3499309999999989
 31
0.0
  0
LINE
  5
5AC
  8
0
 62
     7
 10
-36.837649999999989
 20
-52.499985000000002
 30
0.0
 11
-109.089523
 21
-52.499985000000002
 31
0.0
  0
LINE
  5
5AD
  8
0
 62
     7
 10
-35.092906999999997
 20
52.5
 30
0.0
 11
-109.089523
 21
52.5
 31
0.0
  0
POLYLINE
  5
5AE
  8
0
 62
     7
 66
     1
 10
0.0
 20
0.0
 30
0.0
  0
VERTEX
  5
A54
  8
0
 62
     7
 10
-107.607162
 20
-50.568134000000001
 30
0.0
  0
VERTEX
  5
A55
  8
0
 62
     7
 10
-107.089523
 20
-52.499985000000002
 30
0.0
  0
VERTEX
  5
A56
  8
0
 62
     7
 10
-106.571884
 20
-50.568134000000001
 30
0.0
  0
SEQEND
  5
A57
  8
0
 62
     7
  0
POLYLINE
  5
5B3
  8
0
 62
     7
 66
     1
 10
0.0
 20
0.0
 30
0.0
  0
VERTEX
  5
A58
  8
0
 62
     7
 10
-106.571884
 20
50.568150000000003
 30
0.0
  0
VERTEX
  5
A59
  8
0
 62
     7
 10
-107.089523
 20
52.5
 30
0.0
  0
VERTEX
  5
A5A
  8
0
 62
     7
 10
-107.607162
 20
50.568150000000003
 30
0.0
  0
SEQEND
  5
A5B
  8
0
 62
     7
  0
LINE
  5
5B8
  8
0
 62
     7
 10
-107.089523
 20
-52.499985000000002
 30
0.0
 11
-107.089523
 21
52.5
 31
0.0
  0
ENDBLK
  5
5B9
  8
0
  0
BLOCK
  8
0
  2
BLOCK8
 70
     0
 10
0.0
 20
0.0
 30
0.0
  3
BLOCK8
  1

  0
TEXT
  5
5BB
  8
0
 62
     7
 10
-119.43854499999991
 20
4.4500000000000002
 30
0.0
 40
3.0
  1
117
 50
270.0
 41
1.6774193548387091
 72
     5
 11
-119.43854499999991
 21
-3.3500000000000001
 31
0.0
  0
LINE
  5
5BC
  8
0
 62
     7
 10
-69.999968999999993
 20
-58.5
 30
0.0
 11
-122.43854499999991
 21
-58.5
 31
0.0
  0
LINE
  5
5BD
  8
0
 62
     7
 10
-69.999968999999993
 20
58.5
 30
0.0
 11
-122.43854499999991
 21
58.5
 31
0.0
  0
POLYLINE
  5
5BE
  8
0
 62
     7
 66
     1
 10
0.0
 20
0.0
 30
0.0
  0
VERTEX
  5
A5C
  8
0
 62
     7
 10
-120.956177
 20
-56.568150000000003
 30
0.0
  0
VERTEX
  5
A5D
  8
0
 62
     7
 10
-120.43854499999991
 20
-58.5
 30
0.0
  0
VERTEX
  5
A5E
  8
0
 62
     7
 10
-119.920906
 20
-56.568150000000003
 30
0.0
  0
SEQEND
  5
A5F
  8
0
 62
     7
  0
POLYLINE
  5
5C3
  8
0
 62
     7
 66
     1
 10
0.0
 20
0.0
 30
0.0
  0
VERTEX
  5
A60
  8
0
 62
     7
 10
-119.920906
 20
56.568150000000003
 30
0.0
  0
VERTEX
  5
A61
  8
0
 62
     7
 10
-120.43854499999991
 20
58.5
 30
0.0
  0
VERTEX
  5
A62
  8
0
 62
     7
 10
-120.956177
 20
56.568150000000003
 30
0.0
  0
SEQEND
  5
A63
  8
0
 62
     7
  0
LINE
  5
5C8
  8
0
 62
     7
 10
-120.43854499999991
 20
-58.5
 30
0.0
 11
-120.43854499999991
 21
58.5
 31
0.0
  0
ENDBLK
  5
5C9
  8
0
  0
BLOCK
  8
0
  2
BLOCK9
 70
     0
 10
0.0
 20
0.0
 30
0.0
  3
BLOCK9
  1

  0
TEXT
  5
5CB
  8
0
 62
     7
 10
173.600021
 20
-109.18602799999999
 30
0.0
 40
3.0
  1
155
 41
1.451359274548909
 72
     5
 11
181.40000900000001
 21
-109.18602799999999
 31
0.0
  0
LINE
  5
5CC
  8
0
 62
     7
 10
100.00001499999991
 20
-52.249980999999998
 30
0.0
 11
100.00001499999991
 21
-112.18602799999999
 31
0.0
  0
LINE
  5
5CD
  8
0
 62
     7
 10
255.00001499999991
 20
-29.000365999999989
 30
0.0
 11
255.00001499999991
 21
-112.18602799999999
 31
0.0
  0
POLYLINE
  5
5CE
  8
0
 62
     7
 66
     1
 10
0.0
 20
0.0
 30
0.0
  0
VERTEX
  5
A64
  8
0
 62
     7
 10
101.9318699999999
 20
-109.668396
 30
0.0
  0
VERTEX
  5
A65
  8
0
 62
     7
 10
100.00001499999991
 20
-110.18602799999999
 30
0.0
  0
VERTEX
  5
A66
  8
0
 62
     7
 10
101.9318699999999
 20
-110.703667
 30
0.0
  0
SEQEND
  5
A67
  8
0
 62
     7
  0
POLYLINE
  5
5D3
  8
0
 62
     7
 66
     1
 10
0.0
 20
0.0
 30
0.0
  0
VERTEX
  5
A68
  8
0
 62
     7
 10
253.06816099999989
 20
-110.703667
 30
0.0
  0
VERTEX
  5
A69
  8
0
 62
     7
 10
255.00001499999991
 20
-110.18602799999999
 30
0.0
  0
VERTEX
  5
A6A
  8
0
 62
     7
 10
253.06816099999989
 20
-109.668396
 30
0.0
  0
SEQEND
  5
A6B
  8
0
 62
     7
  0
LINE
  5
5D8
  8
0
 62
     7
 10
100.00001499999991
 20
-110.18602799999999
 30
0.0
 11
255.00001499999991
 21
-110.18602799999999
 31
0.0
  0
ENDBLK
  5
5D9
  8
0
  0
BLOCK
  8
0
  2
BLOCK10
 70
     0
 10
0.0
 20
0.0
 30
0.0
  3
BLOCK10
  1

  0
TEXT
  5
5DB
  8
0
 62
     2
 10
8.0500139999999991
 20
-109.18602799999999
 30
0.0
 40
3.0
  1
175
 41
1.45136187955674
 72
     5
 11
15.850016
 21
-109.18602799999999
 31
0.0
  0
LINE
  5
5DC
  8
0
 62
     2
 10
-74.999984999999995
 20
-47.499969
 30
0.0
 11
-74.999984999999995
 21
-112.18602799999999
 31
0.0
  0
LINE
  5
5DD
  8
0
 62
     2
 10
100.00001499999991
 20
-52.249980999999998
 30
0.0
 11
100.00001499999991
 21
-112.18602799999999
 31
0.0
  0
POLYLINE
  5
5DE
  8
0
 62
     2
 66
     1
 10
0.0
 20
0.0
 30
0.0
  0
VERTEX
  5
A6C
  8
0
 62
     2
 10
-73.068130000000011
 20
-109.668396
 30
0.0
  0
VERTEX
  5
A6D
  8
0
 62
     2
 10
-74.999984999999995
 20
-110.18602799999999
 30
0.0
  0
VERTEX
  5
A6E
  8
0
 62
     2
 10
-73.068130000000011
 20
-110.703667
 30
0.0
  0
SEQEND
  5
A6F
  8
0
 62
     2
  0
POLYLINE
  5
5E3
  8
0
 62
     2
 66
     1
 10
0.0
 20
0.0
 30
0.0
  0
VERTEX
  5
A70
  8
0
 62
     2
 10
98.068169000000012
 20
-110.703667
 30
0.0
  0
VERTEX
  5
A71
  8
0
 62
     2
 10
100.00001499999991
 20
-110.18602799999999
 30
0.0
  0
VERTEX
  5
A72
  8
0
 62
     2
 10
98.068169000000012
 20
-109.668396
 30
0.0
  0
SEQEND
  5
A73
  8
0
 62
     2
  0
LINE
  5
5E8
  8
0
 62
     2
 10
-74.999984999999995
 20
-110.18602799999999
 30
0.0
 11
100.00001499999991
 21
-110.18602799999999
 31
0.0
  0
ENDBLK
  5
5E9
  8
0
  0
BLOCK
  8
0
  2
BLOCK11
 70
     0
 10
0.0
 20
0.0
 30
0.0
  3
BLOCK11
  1

  0
TEXT
  5
5EB
  8
0
 62
     7
 10
169.1578979999999
 20
52.500033999999999
 30
0.0
 40
3.0
  1
30
 50
270.0
 41
1.332493967054873
 72
     5
 11
169.1578979999999
 21
47.500033999999992
 31
0.0
  0
LINE
  5
5EC
  8
0
 62
     7
 10
157.49998500000001
 20
35.000033999999999
 30
0.0
 11
170.1578979999999
 21
35.000033999999999
 31
0.0
  0
LINE
  5
5ED
  8
0
 62
     7
 10
157.499954
 20
65.000038000000004
 30
0.0
 11
170.1578979999999
 21
65.000038000000004
 31
0.0
  0
POLYLINE
  5
5EE
  8
0
 62
     7
 66
     1
 10
0.0
 20
0.0
 30
0.0
  0
VERTEX
  5
A74
  8
0
 62
     7
 10
168.67553699999999
 20
63.068184000000002
 30
0.0
  0
VERTEX
  5
A75
  8
0
 62
     7
 10
168.1578979999999
 20
65.000038000000004
 30
0.0
  0
VERTEX
  5
A76
  8
0
 62
     7
 10
167.64025899999999
 20
63.068184000000002
 30
0.0
  0
SEQEND
  5
A77
  8
0
 62
     7
  0
POLYLINE
  5
5F3
  8
0
 62
     7
 66
     1
 10
0.0
 20
0.0
 30
0.0
  0
VERTEX
  5
A78
  8
0
 62
     7
 10
167.64025899999999
 20
36.931888999999991
 30
0.0
  0
VERTEX
  5
A79
  8
0
 62
     7
 10
168.1578979999999
 20
35.000033999999999
 30
0.0
  0
VERTEX
  5
A7A
  8
0
 62
     7
 10
168.67553699999999
 20
36.931888999999991
 30
0.0
  0
SEQEND
  5
A7B
  8
0
 62
     7
  0
LINE
  5
5F8
  8
0
 62
     7
 10
168.1578979999999
 20
35.000033999999999
 30
0.0
 11
168.1578979999999
 21
65.000038000000004
 31
0.0
  0
ENDBLK
  5
5F9
  8
0
  0
BLOCK
  8
0
  2
BLOCK12
 70
     0
 10
0.0
 20
0.0
 30
0.0
  3
BLOCK12
  1

  0
TEXT
  5
5FB
  8
0
 62
     7
 10
137.104691
 20
83.852714999999989
 30
0.0
 40
3.0
  1
8,5
 50
283.17137983127702
 41
1.5839927869601409
 72
     5
 11
138.882034
 21
76.257912000000005
 31
0.0
  0
TEXT
  5
5FC
  8
0
 62
     7
 10
136.19322199999991
 20
87.747481999999991
 30
0.0
 40
3.0
  1
%%c
 50
283.17137712368361
 41
1.333334441880792
 72
     5
 11
136.87681599999991
 21
84.826401000000004
 31
0.0
  0
POLYLINE
  5
5FD
  8
0
 62
     7
 66
     1
 10
0.0
 20
0.0
 30
0.0
  0
VERTEX
  5
A7C
  8
0
 62
     7
 10
144.02417
 20
47.624920000000003
 30
0.0
  0
VERTEX
  5
A7D
  8
0
 62
     7
 10
144.96839900000001
 20
45.861843
 30
0.0
  0
VERTEX
  5
A7E
  8
0
 62
     7
 10
145.03221099999999
 20
47.860824999999998
 30
0.0
  0
SEQEND
  5
A7F
  8
0
 62
     7
  0
POLYLINE
  5
602
  8
0
 62
     7
 66
     1
 10
0.0
 20
0.0
 30
0.0
  0
VERTEX
  5
A80
  8
0
 62
     7
 10
143.9757689999999
 20
52.375152999999997
 30
0.0
  0
VERTEX
  5
A81
  8
0
 62
     7
 10
143.03153999999989
 20
54.138229000000003
 30
0.0
  0
VERTEX
  5
A82
  8
0
 62
     7
 10
142.96772799999991
 20
52.139248000000002
 30
0.0
  0
SEQEND
  5
A83
  8
0
 62
     7
  0
LINE
  5
607
  8
0
 62
     7
 10
135.21952799999991
 20
87.519607999999991
 30
0.0
 11
144.96839900000001
 21
45.861843
 31
0.0
  0
ENDBLK
  5
608
  8
0
  0
BLOCK
  8
0
  2
BLOCK13
 70
     0
 10
0.0
 20
0.0
 30
0.0
  3
BLOCK13
  1

  0
TEXT
  5
60A
  8
0
 62
     7
 10
196.13621499999999
 20
3.9000339999999989
 30
0.0
 40
3.0
  1
130
 50
270.0
 41
1.485046098493366
 72
     5
 11
196.13621499999999
 21
-3.899966
 31
0.0
  0
LINE
  5
60B
  8
0
 62
     7
 10
157.499954
 20
-64.999968999999993
 30
0.0
 11
197.13621499999999
 21
-64.999968999999993
 31
0.0
  0
LINE
  5
60C
  8
0
 62
     7
 10
157.499954
 20
65.000038000000004
 30
0.0
 11
197.13621499999999
 21
65.000038000000004
 31
0.0
  0
POLYLINE
  5
60D
  8
0
 62
     7
 66
     1
 10
0.0
 20
0.0
 30
0.0
  0
VERTEX
  5
A84
  8
0
 62
     7
 10
195.653854
 20
63.068184000000002
 30
0.0
  0
VERTEX
  5
A85
  8
0
 62
     7
 10
195.13621499999991
 20
65.000038000000004
 30
0.0
  0
VERTEX
  5
A86
  8
0
 62
     7
 10
194.6185759999999
 20
63.068184000000002
 30
0.0
  0
SEQEND
  5
A87
  8
0
 62
     7
  0
POLYLINE
  5
612
  8
0
 62
     7
 66
     1
 10
0.0
 20
0.0
 30
0.0
  0
VERTEX
  5
A88
  8
0
 62
     7
 10
194.6185759999999
 20
-63.068114999999999
 30
0.0
  0
VERTEX
  5
A89
  8
0
 62
     7
 10
195.13621499999991
 20
-64.999968999999993
 30
0.0
  0
VERTEX
  5
A8A
  8
0
 62
     7
 10
195.653854
 20
-63.068114999999999
 30
0.0
  0
SEQEND
  5
A8B
  8
0
 62
     7
  0
LINE
  5
617
  8
0
 62
     7
 10
195.13621499999991
 20
-64.999968999999993
 30
0.0
 11
195.13621499999991
 21
65.000038000000004
 31
0.0
  0
ENDBLK
  5
618
  8
0
  0
BLOCK
  8
0
  2
BLOCK14
 70
     0
 10
0.0
 20
0.0
 30
0.0
  3
BLOCK14
  1

  0
TEXT
  5
61A
  8
0
 62
     7
 10
183.95368999999991
 20
21.314654999999998
 30
0.0
 40
3.0
  1
50
 50
270.0
 41
1.332493967054873
 72
     5
 11
183.95368999999991
 21
16.314654999999998
 31
0.0
  0
LINE
  5
61B
  8
0
 62
     7
 10
169.878601
 20
0.000046
 30
0.0
 11
183.95368999999991
 21
0.000046
 31
0.0
  0
LINE
  5
61C
  8
0
 62
     7
 10
151.24996899999999
 20
50.000033999999999
 30
0.0
 11
183.95368999999991
 21
50.000033999999999
 31
0.0
  0
POLYLINE
  5
61D
  8
0
 62
     7
 66
     1
 10
0.0
 20
0.0
 30
0.0
  0
VERTEX
  5
A8C
  8
0
 62
     7
 10
182.471329
 20
48.068184000000002
 30
0.0
  0
VERTEX
  5
A8D
  8
0
 62
     7
 10
181.95368999999991
 20
50.000033999999999
 30
0.0
  0
VERTEX
  5
A8E
  8
0
 62
     7
 10
181.43604999999999
 20
48.068184000000002
 30
0.0
  0
SEQEND
  5
A8F
  8
0
 62
     7
  0
POLYLINE
  5
622
  8
0
 62
     7
 66
     1
 10
0.0
 20
0.0
 30
0.0
  0
VERTEX
  5
A90
  8
0
 62
     7
 10
181.43604999999999
 20
1.931897999999999
 30
0.0
  0
VERTEX
  5
A91
  8
0
 62
     7
 10
181.95368999999991
 20
0.000046
 30
0.0
  0
VERTEX
  5
A92
  8
0
 62
     7
 10
182.471329
 20
1.931897999999999
 30
0.0
  0
SEQEND
  5
A93
  8
0
 62
     7
  0
LINE
  5
627
  8
0
 62
     7
 10
181.95368999999991
 20
0.000046
 30
0.0
 11
181.95368999999991
 21
50.000033999999999
 31
0.0
  0
ENDBLK
  5
628
  8
0
  0
BLOCK
  8
0
  2
BLOCK15
 70
     0
 10
0.0
 20
0.0
 30
0.0
  3
BLOCK15
  1

  0
TEXT
  5
62A
  8
0
 62
     7
 10
183.95368999999991
 20
-16.294287000000001
 30
0.0
 40
3.0
  1
50
 50
270.0
 41
1.332493967054873
 72
     5
 11
183.95368999999991
 21
-21.294287000000001
 31
0.0
  0
LINE
  5
62B
  8
0
 62
     7
 10
151.24996899999999
 20
-49.999969
 30
0.0
 11
183.95368999999991
 21
-49.999969
 31
0.0
  0
LINE
  5
62C
  8
0
 62
     7
 10
169.878601
 20
0.000046
 30
0.0
 11
183.95368999999991
 21
0.000046
 31
0.0
  0
POLYLINE
  5
62D
  8
0
 62
     7
 66
     1
 10
0.0
 20
0.0
 30
0.0
  0
VERTEX
  5
A94
  8
0
 62
     7
 10
181.43604999999999
 20
-48.068114999999999
 30
0.0
  0
VERTEX
  5
A95
  8
0
 62
     7
 10
181.95368999999991
 20
-49.999969
 30
0.0
  0
VERTEX
  5
A96
  8
0
 62
     7
 10
182.471329
 20
-48.068114999999999
 30
0.0
  0
SEQEND
  5
A97
  8
0
 62
     7
  0
POLYLINE
  5
632
  8
0
 62
     7
 66
     1
 10
0.0
 20
0.0
 30
0.0
  0
VERTEX
  5
A98
  8
0
 62
     7
 10
182.471329
 20
-1.9318049999999991
 30
0.0
  0
VERTEX
  5
A99
  8
0
 62
     7
 10
181.95368999999991
 20
0.000046
 30
0.0
  0
VERTEX
  5
A9A
  8
0
 62
     7
 10
181.43604999999999
 20
-1.9318049999999991
 30
0.0
  0
SEQEND
  5
A9B
  8
0
 62
     7
  0
LINE
  5
637
  8
0
 62
     7
 10
181.95368999999991
 20
-49.999969
 30
0.0
 11
181.95368999999991
 21
0.000046
 31
0.0
  0
ENDBLK
  5
638
  8
0
  0
BLOCK
  8
0
  2
BLOCK16
 70
     0
 10
0.0
 20
0.0
 30
0.0
  3
BLOCK16
  1

  0
TEXT
  5
63A
  8
0
 62
     7
 10
47.875022999999992
 20
-79.688537999999994
 30
0.0
 40
3.0
  1
89,75
 41
1.466926332135825
 72
     5
 11
61.275024000000002
 21
-79.688537999999994
 31
0.0
  0
LINE
  5
63B
  8
0
 62
     7
 10
10.250025000000001
 20
-80.581230000000005
 30
0.0
 11
10.250025000000001
 21
-83.688537999999994
 31
0.0
  0
LINE
  5
63C
  8
0
 62
     7
 10
100.00001499999991
 20
-52.249980999999998
 30
0.0
 11
100.00001499999991
 21
-83.688537999999994
 31
0.0
  0
POLYLINE
  5
63D
  8
0
 62
     7
 66
     1
 10
0.0
 20
0.0
 30
0.0
  0
VERTEX
  5
A9C
  8
0
 62
     7
 10
12.181876000000001
 20
-81.170897999999994
 30
0.0
  0
VERTEX
  5
A9D
  8
0
 62
     7
 10
10.250025000000001
 20
-81.688537999999994
 30
0.0
  0
VERTEX
  5
A9E
  8
0
 62
     7
 10
12.181876000000001
 20
-82.206176999999997
 30
0.0
  0
SEQEND
  5
A9F
  8
0
 62
     7
  0
POLYLINE
  5
642
  8
0
 62
     7
 66
     1
 10
0.0
 20
0.0
 30
0.0
  0
VERTEX
  5
AA0
  8
0
 62
     7
 10
98.068169000000012
 20
-82.206176999999997
 30
0.0
  0
VERTEX
  5
AA1
  8
0
 62
     7
 10
100.00001499999991
 20
-81.688537999999994
 30
0.0
  0
VERTEX
  5
AA2
  8
0
 62
     7
 10
98.068169000000012
 20
-81.170897999999994
 30
0.0
  0
SEQEND
  5
AA3
  8
0
 62
     7
  0
LINE
  5
647
  8
0
 62
     7
 10
10.250025000000001
 20
-81.688537999999994
 30
0.0
 11
100.00001499999991
 21
-81.688537999999994
 31
0.0
  0
ENDBLK
  5
648
  8
0
  0
BLOCK
  8
0
  2
BLOCK17
 70
     0
 10
0.0
 20
0.0
 30
0.0
  3
BLOCK17
  1

  0
TEXT
  5
64A
  8
0
 62
     7
 10
122.94998200000001
 20
-79.688537999999994
 30
0.0
 40
3.0
  1
56,5
 41
1.5090557382680729
 72
     5
 11
133.5499879999999
 21
-79.688537999999994
 31
0.0
  0
LINE
  5
64B
  8
0
 62
     7
 10
100.00001499999991
 20
-52.249980999999998
 30
0.0
 11
100.00001499999991
 21
-83.688537999999994
 31
0.0
  0
LINE
  5
64C
  8
0
 62
     7
 10
156.499954
 20
-65.999968999999993
 30
0.0
 11
156.499954
 21
-83.688537999999994
 31
0.0
  0
POLYLINE
  5
64D
  8
0
 62
     7
 66
     1
 10
0.0
 20
0.0
 30
0.0
  0
VERTEX
  5
AA4
  8
0
 62
     7
 10
101.9318699999999
 20
-81.170897999999994
 30
0.0
  0
VERTEX
  5
AA5
  8
0
 62
     7
 10
100.00001499999991
 20
-81.688537999999994
 30
0.0
  0
VERTEX
  5
AA6
  8
0
 62
     7
 10
101.9318699999999
 20
-82.206176999999997
 30
0.0
  0
SEQEND
  5
AA7
  8
0
 62
     7
  0
POLYLINE
  5
652
  8
0
 62
     7
 66
     1
 10
0.0
 20
0.0
 30
0.0
  0
VERTEX
  5
AA8
  8
0
 62
     7
 10
154.5680999999999
 20
-82.206176999999997
 30
0.0
  0
VERTEX
  5
AA9
  8
0
 62
     7
 10
156.499954
 20
-81.688537999999994
 30
0.0
  0
VERTEX
  5
AAA
  8
0
 62
     7
 10
154.5680999999999
 20
-81.170897999999994
 30
0.0
  0
SEQEND
  5
AAB
  8
0
 62
     7
  0
LINE
  5
657
  8
0
 62
     7
 10
100.00001499999991
 20
-81.688537999999994
 30
0.0
 11
156.499954
 21
-81.688537999999994
 31
0.0
  0
ENDBLK
  5
658
  8
0
  0
BLOCK
  8
0
  2
BLOCK18
 70
     0
 10
0.0
 20
0.0
 30
0.0
  3
BLOCK18
  1

  0
TEXT
  5
65A
  8
0
 62
     7
 10
5.8000299999999996
 20
-94.452629000000016
 30
0.0
 40
3.0
  1
161
 41
1.677419569892473
 72
     5
 11
13.600031
 21
-94.452629000000016
 31
0.0
  0
LINE
  5
65B
  8
0
 62
     7
 10
-70.249968999999993
 20
-58.25
 30
0.0
 11
-70.249968999999993
 21
-97.452629000000002
 31
0.0
  0
LINE
  5
65C
  8
0
 62
     7
 10
90.750022999999985
 20
-58.25
 30
0.0
 11
90.750022999999985
 21
-97.452629000000002
 31
0.0
  0
POLYLINE
  5
65D
  8
0
 62
     7
 66
     1
 10
0.0
 20
0.0
 30
0.0
  0
VERTEX
  5
AAC
  8
0
 62
     7
 10
-68.318123
 20
-94.934997999999993
 30
0.0
  0
VERTEX
  5
AAD
  8
0
 62
     7
 10
-70.249968999999993
 20
-95.452629000000002
 30
0.0
  0
VERTEX
  5
AAE
  8
0
 62
     7
 10
-68.318123
 20
-95.970268000000004
 30
0.0
  0
SEQEND
  5
AAF
  8
0
 62
     7
  0
POLYLINE
  5
662
  8
0
 62
     7
 66
     1
 10
0.0
 20
0.0
 30
0.0
  0
VERTEX
  5
AB0
  8
0
 62
     7
 10
88.818175999999994
 20
-95.970268000000004
 30
0.0
  0
VERTEX
  5
AB1
  8
0
 62
     7
 10
90.750022999999985
 20
-95.452629000000002
 30
0.0
  0
VERTEX
  5
AB2
  8
0
 62
     7
 10
88.818175999999994
 20
-94.934997999999993
 30
0.0
  0
SEQEND
  5
AB3
  8
0
 62
     7
  0
LINE
  5
667
  8
0
 62
     7
 10
-70.249968999999993
 20
-95.452629000000002
 30
0.0
 11
90.750022999999985
 21
-95.452629000000002
 31
0.0
  0
ENDBLK
  5
668
  8
0
  0
BLOCK
  8
0
  2
BLOCK19
 70
     0
 10
0.0
 20
0.0
 30
0.0
  3
BLOCK19
  1

  0
TEXT
  5
66A
  8
0
 62
     7
 10
46.625022999999992
 20
81.572707999999992
 30
0.0
 40
3.0
  1
87,25
 41
1.4686117038140121
 72
     5
 11
60.025024000000002
 21
81.572707999999992
 31
0.0
  0
LINE
  5
66B
  8
0
 62
     7
 10
97.500015000000005
 20
50.000031
 30
0.0
 11
97.500015000000005
 21
82.572707999999977
 31
0.0
  0
POLYLINE
  5
66C
  8
0
 62
     7
 66
     1
 10
0.0
 20
0.0
 30
0.0
  0
VERTEX
  5
AB4
  8
0
 62
     7
 10
12.181876000000001
 20
81.090346999999994
 30
0.0
  0
VERTEX
  5
AB5
  8
0
 62
     7
 10
10.250025000000001
 20
80.572707999999992
 30
0.0
  0
VERTEX
  5
AB6
  8
0
 62
     7
 10
12.181876000000001
 20
80.055068999999975
 30
0.0
  0
SEQEND
  5
AB7
  8
0
 62
     7
  0
POLYLINE
  5
671
  8
0
 62
     7
 66
     1
 10
0.0
 20
0.0
 30
0.0
  0
VERTEX
  5
AB8
  8
0
 62
     7
 10
95.568168999999983
 20
80.055068999999975
 30
0.0
  0
VERTEX
  5
AB9
  8
0
 62
     7
 10
97.500015000000005
 20
80.572707999999992
 30
0.0
  0
VERTEX
  5
ABA
  8
0
 62
     7
 10
95.568168999999983
 20
81.090346999999994
 30
0.0
  0
SEQEND
  5
ABB
  8
0
 62
     7
  0
LINE
  5
676
  8
0
 62
     7
 10
10.250025000000001
 20
80.572707999999992
 30
0.0
 11
97.500015000000005
 21
80.572707999999992
 31
0.0
  0
ENDBLK
  5
677
  8
0
  0
BLOCK
  8
0
  2
BLOCK20
 70
     0
 10
0.0
 20
0.0
 30
0.0
  3
BLOCK20
  1

  0
TEXT
  5
679
  8
0
 62
     7
 10
127.725159
 20
73.336181999999994
 30
0.0
 40
3.0
  1
10
 50
90.0
 41
1.570247540901712
 72
     5
 11
127.725159
 21
78.286170999999996
 31
0.0
  0
ENDBLK
  5
67A
  8
0
  0
BLOCK
  8
0
  2
BLOCK21
 70
     0
 10
0.0
 20
0.0
 30
0.0
  3
BLOCK21
  1

  0
TEXT
  5
67C
  8
0
 62
     7
 10
-45.651671999999998
 20
-76.0
 30
0.0
 40
3.0
  1
10
 50
90.0
 41
1.570247540901712
 72
     5
 11
-45.651671999999998
 21
-71.050010999999984
 31
0.0
  0
ENDBLK
  5
67D
  8
0
  0
BLOCK
  8
0
  2
BLOCK22
 70
     0
 10
0.0
 20
0.0
 30
0.0
  3
BLOCK22
  1

  0
TEXT
  5
67F
  8
0
 62
     7
 10
-16.5
 20
-169.87655599999999
 30
0.0
 40
3.0
  1
3
 41
1.239950714662865
 72
     5
 11
-14.300000000000001
 21
-169.87655599999999
 31
0.0
  0
ENDBLK
  5
680
  8
0
  0
BLOCK
  8
0
  2
BLOCK23
 70
     0
 10
0.0
 20
0.0
 30
0.0
  3
BLOCK23
  1

  0
TEXT
  5
682
  8
0
 62
     7
 10
-22.0
 20
-169.87655599999999
 30
0.0
 40
3.0
  1
\U+2265
 41
1.2422338279591401
 72
     5
 11
-19.799999
 21
-169.87655599999999
 31
0.0
  0
ENDBLK
  5
683
  8
0
  0
BLOCK
  8
0
  2
BLOCK24
 70
     0
 10
0.0
 20
0.0
 30
0.0
  3
BLOCK24
  1

  0
TEXT
  5
685
  8
0
 62
     7
 10
57.272537
 20
-169.87655599999999
 30
0.0
 40
3.0
  1
135
 41
1.432750959303992
 72
     5
 11
64.972518999999991
 21
-169.87655599999999
 31
0.0
  0
ENDBLK
  5
686
  8
0
  0
BLOCK
  8
0
  2
BLOCK25
 70
     0
 10
0.0
 20
0.0
 30
0.0
  3
BLOCK25
  1

  0
TEXT
  5
688
  8
0
 62
     7
 10
36.000655999999999
 20
-140.48272700000001
 30
0.0
 40
3.0
  1
103,5
 41
1.548515964967589
 72
     5
 11
49.200614999999999
 21
-140.48272700000001
 31
0.0
  0
ENDBLK
  5
689
  8
0
  0
BLOCK
  8
0
  2
BLOCK26
 70
     0
 10
0.0
 20
0.0
 30
0.0
  3
BLOCK26
  1

  0
TEXT
  5
68B
  8
0
 62
     7
 10
35.0
 20
-123.46820099999989
 30
0.0
 40
3.0
  1
101,5
 41
1.665764654678604
 72
     5
 11
48.199959
 21
-123.46820099999989
 31
0.0
  0
ENDBLK
  5
68C
  8
0
  0
BLOCK
  8
0
  2
BLOCK27
 70
     0
 10
0.0
 20
0.0
 30
0.0
  3
BLOCK27
  1

  0
TEXT
  5
68E
  8
0
 62
     7
 10
149.47582999999989
 20
2.0000149999999999
 30
0.0
 40
3.0
  1
105
 50
90.0
 41
1.432750587160017
 72
     5
 11
149.47582999999989
 21
9.6999949999999995
 31
0.0
  0
ENDBLK
  5
68F
  8
0
  0
BLOCK
  8
0
  2
BLOCK28
 70
     0
 10
0.0
 20
0.0
 30
0.0
  3
BLOCK28
  1

  0
TEXT
  5
691
  8
0
 62
     7
 10
165.40209999999999
 20
7.4428710000000002
 30
0.0
 40
3.0
  1
X
 50
0.0000260435716599
 41
0.9777764444445436
 72
     5
 11
167.6020969999999
 21
7.4428720000000004
 31
0.0
  0
ENDBLK
  5
692
  8
0
  0
BLOCK
  8
0
  2
BLOCK29
 70
     0
 10
0.0
 20
0.0
 30
0.0
  3
BLOCK29
  1

  0
TEXT
  5
694
  8
0
 62
     7
 10
43.250579999999999
 20
-156.98034699999999
 30
0.0
 40
3.0
  1
107
 41
1.4666632380952369
 72
     5
 11
50.950561999999998
 21
-156.98034699999999
 31
0.0
  0
ENDBLK
  5
695
  8
0
  0
BLOCK
  8
0
  2
BLOCK30
 70
     0
 10
0.0
 20
0.0
 30
0.0
  3
BLOCK30
  1

  0
TEXT
  5
697
  8
0
 62
     7
 10
113.00116
 20
-156.98034699999999
 30
0.0
 40
3.0
  1
2
 41
1.202067778817504
 72
     5
 11
115.20115699999999
 21
-156.98034699999999
 31
0.0
  0
ENDBLK
  5
698
  8
0
  0
BLOCK
  8
0
  2
BLOCK31
 70
     0
 10
0.0
 20
0.0
 30
0.0
  3
BLOCK31
  1

  0
TEXT
  5
69A
  8
0
 62
     7
 10
-19.0
 20
-97.04849200000001
 30
0.0
 40
3.0
  1
20
 41
1.3191663623963901
 72
     5
 11
-14.05001
 21
-97.04849200000001
 31
0.0
  0
ENDBLK
  5
69B
  8
0
  0
BLOCK
  8
0
  2
BLOCK32
 70
     0
 10
0.0
 20
0.0
 30
0.0
  3
BLOCK32
  1

  0
TEXT
  5
69D
  8
0
 62
     7
 10
6.5
 20
-109.106323
 30
0.0
 40
3.0
  1
5
 41
1.239950714662865
 72
     5
 11
8.6999999999999993
 21
-109.106323
 31
0.0
  0
ENDBLK
  5
69E
  8
0
  0
BLOCK
  8
0
  2
BLOCK33
 70
     0
 10
0.0
 20
0.0
 30
0.0
  3
BLOCK33
  1

  0
TEXT
  5
6A0
  8
0
 62
     7
 10
58.810668999999997
 20
-109.106323
 30
0.0
 40
3.0
  1
5
 41
1.2399512782768269
 72
     5
 11
61.010669999999998
 21
-109.106323
 31
0.0
  0
ENDBLK
  5
6A1
  8
0
  0
BLOCK
  8
0
  2
BLOCK34
 70
     0
 10
0.0
 20
0.0
 30
0.0
  3
BLOCK34
  1

  0
TEXT
  5
6A3
  8
0
 62
     7
 10
36.81066899999999
 20
-109.106323
 30
0.0
 40
3.0
  1
min.
 41
1.6991821138211389
 72
     5
 11
47.260638999999998
 21
-109.106323
 31
0.0
  0
ENDBLK
  5
6A4
  8
0
  0
BLOCK
  8
0
  2
BLOCK35
 70
     0
 10
0.0
 20
0.0
 30
0.0
  3
BLOCK35
  1

  0
TEXT
  5
6A6
  8
0
 62
     2
 10
-30.725449000000001
 20
-74.5
 30
0.0
 40
3.0
  1
8
 50
90.0
 41
1.3333315151515119
 72
     5
 11
-30.725449000000001
 21
-72.300003000000004
 31
0.0
  0
ENDBLK
  5
6A7
  8
0
  0
BLOCK
  8
0
  2
BLOCK36
 70
     0
 10
0.0
 20
0.0
 30
0.0
  3
BLOCK36
  1

  0
TEXT
  5
6A9
  8
0
 62
     2
 10
-30.725449000000001
 20
-80.0
 30
0.0
 40
3.0
  1
M
 50
90.0
 41
0.9777764444444427
 72
     5
 11
-30.725449000000001
 21
-77.800003000000004
 31
0.0
  0
ENDBLK
  5
6AA
  8
0
  0
BLOCK
  8
0
  2
BLOCK37
 70
     0
 10
0.0
 20
0.0
 30
0.0
  3
BLOCK37
  1

  0
TEXT
  5
6AC
  8
0
 62
   150
 10
-42.512965999999992
 20
39.875
 30
0.0
 40
3.0
  1
73,75
 50
90.0
 41
1.468611813411892
 72
     5
 11
-42.512965999999992
 21
53.275002000000001
 31
0.0
  0
LINE
  5
6AD
  8
0
 62
   150
 10
-23.678698000000001
 20
10.25
 30
0.0
 11
-43.512965999999999
 21
10.25
 31
0.0
  0
LINE
  5
6AE
  8
0
 62
   150
 10
11.672974
 20
84.0
 30
0.0
 11
-43.512965999999999
 21
84.0
 31
0.0
  0
POLYLINE
  5
6AF
  8
0
 62
   150
 66
     1
 10
0.0
 20
0.0
 30
0.0
  0
VERTEX
  5
ABC
  8
0
 62
   150
 10
-42.030602000000002
 20
12.181851
 30
0.0
  0
VERTEX
  5
ABD
  8
0
 62
   150
 10
-41.512965999999999
 20
10.25
 30
0.0
  0
VERTEX
  5
ABE
  8
0
 62
   150
 10
-40.995327000000003
 20
12.181851
 30
0.0
  0
SEQEND
  5
ABF
  8
0
 62
   150
  0
POLYLINE
  5
6B4
  8
0
 62
   150
 66
     1
 10
0.0
 20
0.0
 30
0.0
  0
VERTEX
  5
AC0
  8
0
 62
   150
 10
-40.995327000000003
 20
82.068145999999984
 30
0.0
  0
VERTEX
  5
AC1
  8
0
 62
   150
 10
-41.512965999999999
 20
84.0
 30
0.0
  0
VERTEX
  5
AC2
  8
0
 62
   150
 10
-42.030602000000002
 20
82.068145999999984
 30
0.0
  0
SEQEND
  5
AC3
  8
0
 62
   150
  0
LINE
  5
6B9
  8
0
 62
   150
 10
-41.512965999999999
 20
10.25
 30
0.0
 11
-41.512965999999999
 21
84.0
 31
0.0
  0
ENDBLK
  5
6BA
  8
0
  0
BLOCK
  8
0
  2
BLOCK38
 70
     0
 10
0.0
 20
0.0
 30
0.0
  3
BLOCK38
  1

  0
TEXT
  5
6BC
  8
0
 62
     7
 10
-59.734851999999997
 20
8.0500009999999982
 30
0.0
 40
3.0
  1
143
 50
90.0
 41
1.3746274240230441
 72
     5
 11
-59.734851999999997
 21
15.849999999999991
 31
0.0
  0
LINE
  5
6BD
  8
0
 62
     7
 10
11.672974
 20
-59.0
 30
0.0
 11
-60.734851999999997
 21
-59.0
 31
0.0
  0
LINE
  5
6BE
  8
0
 62
     7
 10
11.672974
 20
84.0
 30
0.0
 11
-60.734851999999997
 21
84.0
 31
0.0
  0
POLYLINE
  5
6BF
  8
0
 62
     7
 66
     1
 10
0.0
 20
0.0
 30
0.0
  0
VERTEX
  5
AC4
  8
0
 62
     7
 10
-59.252487000000002
 20
-57.068150000000003
 30
0.0
  0
VERTEX
  5
AC5
  8
0
 62
     7
 10
-58.734852000000011
 20
-59.0
 30
0.0
  0
VERTEX
  5
AC6
  8
0
 62
     7
 10
-58.217213000000001
 20
-57.068150000000003
 30
0.0
  0
SEQEND
  5
AC7
  8
0
 62
     7
  0
POLYLINE
  5
6C4
  8
0
 62
     7
 66
     1
 10
0.0
 20
0.0
 30
0.0
  0
VERTEX
  5
AC8
  8
0
 62
     7
 10
-58.217213000000001
 20
82.068145999999984
 30
0.0
  0
VERTEX
  5
AC9
  8
0
 62
     7
 10
-58.734852000000011
 20
84.0
 30
0.0
  0
VERTEX
  5
ACA
  8
0
 62
     7
 10
-59.252487000000002
 20
82.068145999999984
 30
0.0
  0
SEQEND
  5
ACB
  8
0
 62
     7
  0
LINE
  5
6C9
  8
0
 62
     7
 10
-58.734852000000011
 20
-59.0
 30
0.0
 11
-58.734852000000011
 21
84.0
 31
0.0
  0
ENDBLK
  5
6CA
  8
0
  0
BLOCK
  8
0
  2
BLOCK39
 70
     0
 10
0.0
 20
0.0
 30
0.0
  3
BLOCK39
  1

  0
TEXT
  5
6CC
  8
0
 62
     7
 10
46.689464999999998
 20
229.903885
 30
0.0
 40
3.0
  1
101
 41
1.677419999999999
 72
     5
 11
54.489468000000002
 21
229.903885
 31
0.0
  0
POLYLINE
  5
6CD
  8
0
 62
     7
 66
     1
 10
0.0
 20
0.0
 30
0.0
  0
VERTEX
  5
ACC
  8
0
 62
     7
 10
0.4318540000000001
 20
229.42152400000001
 30
0.0
  0
VERTEX
  5
ACD
  8
0
 62
     7
 10
-1.499997
 20
228.903885
 30
0.0
  0
VERTEX
  5
ACE
  8
0
 62
     7
 10
0.4318540000000001
 20
228.38624599999989
 30
0.0
  0
SEQEND
  5
ACF
  8
0
 62
     7
  0
POLYLINE
  5
6D2
  8
0
 62
     7
 66
     1
 10
0.0
 20
0.0
 30
0.0
  0
VERTEX
  5
AD0
  8
0
 62
     7
 10
97.568153000000009
 20
228.38624599999989
 30
0.0
  0
VERTEX
  5
AD1
  8
0
 62
     7
 10
99.500000000000014
 20
228.903885
 30
0.0
  0
VERTEX
  5
AD2
  8
0
 62
     7
 10
97.568153000000009
 20
229.42152400000001
 30
0.0
  0
SEQEND
  5
AD3
  8
0
 62
     7
  0
LINE
  5
6D7
  8
0
 62
     7
 10
-1.499997
 20
228.903885
 30
0.0
 11
99.500000000000014
 21
228.903885
 31
0.0
  0
ENDBLK
  5
6D8
  8
0
  0
BLOCK
  8
0
  2
BLOCK40
 70
     0
 10
0.0
 20
0.0
 30
0.0
  3
BLOCK40
  1

  0
TEXT
  5
6DA
  8
0
 62
     7
 10
17.450002999999999
 20
186.37002599999991
 30
0.0
 40
3.0
  1
45
 41
1.197815930591777
 72
     5
 11
22.450002999999999
 21
186.37002599999991
 31
0.0
  0
LINE
  5
6DB
  8
0
 62
     7
 10
-1.9999979999999991
 20
108.528305
 30
0.0
 11
-1.9999979999999991
 21
186.37002599999991
 31
0.0
  0
LINE
  5
6DC
  8
0
 62
     7
 10
43.0
 20
157.49998500000001
 30
0.0
 11
43.0
 21
186.37002599999991
 31
0.0
  0
POLYLINE
  5
6DD
  8
0
 62
     7
 66
     1
 10
0.0
 20
0.0
 30
0.0
  0
VERTEX
  5
AD4
  8
0
 62
     7
 10
-0.068146
 20
184.887665
 30
0.0
  0
VERTEX
  5
AD5
  8
0
 62
     7
 10
-1.9999979999999991
 20
184.370026
 30
0.0
  0
VERTEX
  5
AD6
  8
0
 62
     7
 10
-0.068146
 20
183.852386
 30
0.0
  0
SEQEND
  5
AD7
  8
0
 62
     7
  0
POLYLINE
  5
6E2
  8
0
 62
     7
 66
     1
 10
0.0
 20
0.0
 30
0.0
  0
VERTEX
  5
AD8
  8
0
 62
     7
 10
41.068150000000003
 20
183.852386
 30
0.0
  0
VERTEX
  5
AD9
  8
0
 62
     7
 10
43.0
 20
184.370026
 30
0.0
  0
VERTEX
  5
ADA
  8
0
 62
     7
 10
41.068150000000003
 20
184.887665
 30
0.0
  0
SEQEND
  5
ADB
  8
0
 62
     7
  0
LINE
  5
6E7
  8
0
 62
     7
 10
-1.9999979999999991
 20
184.370026
 30
0.0
 11
43.0
 21
184.370026
 31
0.0
  0
ENDBLK
  5
6E8
  8
0
  0
BLOCK
  8
0
  2
BLOCK41
 70
     0
 10
0.0
 20
0.0
 30
0.0
  3
BLOCK41
  1

  0
TEXT
  5
6EA
  8
0
 62
     7
 10
35.800002999999997
 20
186.37002599999991
 30
0.0
 40
3.0
  1
5
 41
1.2399490238209789
 72
     5
 11
38.0
 21
186.37002599999991
 31
0.0
  0
LINE
  5
6EB
  8
0
 62
     7
 10
43.0
 20
157.49998500000001
 30
0.0
 11
43.0
 21
186.37002599999991
 31
0.0
  0
LINE
  5
6EC
  8
0
 62
     7
 10
48.000003999999997
 20
157.49998500000001
 30
0.0
 11
48.000003999999997
 21
186.37002599999991
 31
0.0
  0
POLYLINE
  5
6ED
  8
0
 62
     7
 66
     1
 10
0.0
 20
0.0
 30
0.0
  0
VERTEX
  5
ADC
  8
0
 62
     7
 10
41.068150000000003
 20
183.852386
 30
0.0
  0
VERTEX
  5
ADD
  8
0
 62
     7
 10
43.0
 20
184.370026
 30
0.0
  0
VERTEX
  5
ADE
  8
0
 62
     7
 10
41.068150000000003
 20
184.887665
 30
0.0
  0
SEQEND
  5
ADF
  8
0
 62
     7
  0
POLYLINE
  5
6F2
  8
0
 62
     7
 66
     1
 10
0.0
 20
0.0
 30
0.0
  0
VERTEX
  5
AE0
  8
0
 62
     7
 10
49.931854000000001
 20
184.887665
 30
0.0
  0
VERTEX
  5
AE1
  8
0
 62
     7
 10
48.000003999999997
 20
184.370026
 30
0.0
  0
VERTEX
  5
AE2
  8
0
 62
     7
 10
49.931854000000001
 20
183.852386
 30
0.0
  0
SEQEND
  5
AE3
  8
0
 62
     7
  0
LINE
  5
6F7
  8
0
 62
     7
 10
35.800002999999997
 20
184.370026
 30
0.0
 11
53.000003999999997
 21
184.370026
 31
0.0
  0
ENDBLK
  5
6F8
  8
0
  0
BLOCK
  8
0
  2
BLOCK42
 70
     0
 10
0.0
 20
0.0
 30
0.0
  3
BLOCK42
  1

  0
TEXT
  5
6FA
  8
0
 62
     7
 10
-43.512965999999999
 20
167.075806
 30
0.0
 40
3.0
  1
12,5
 50
90.0
 41
1.6499953748204681
 72
     5
 11
-43.512965999999999
 21
177.67581200000001
 31
0.0
  0
LINE
  5
6FB
  8
0
 62
     7
 10
40.0
 20
144.0
 30
0.0
 11
-43.512965999999999
 21
144.0
 31
0.0
  0
LINE
  5
6FC
  8
0
 62
     7
 10
42.0
 20
156.49998500000001
 30
0.0
 11
-43.512965999999999
 21
156.49998500000001
 31
0.0
  0
POLYLINE
  5
6FD
  8
0
 62
     7
 66
     1
 10
0.0
 20
0.0
 30
0.0
  0
VERTEX
  5
AE4
  8
0
 62
     7
 10
-40.995327000000003
 20
142.0681459999999
 30
0.0
  0
VERTEX
  5
AE5
  8
0
 62
     7
 10
-41.512965999999999
 20
144.0
 30
0.0
  0
VERTEX
  5
AE6
  8
0
 62
     7
 10
-42.030602000000002
 20
142.0681459999999
 30
0.0
  0
SEQEND
  5
AE7
  8
0
 62
     7
  0
POLYLINE
  5
702
  8
0
 62
     7
 66
     1
 10
0.0
 20
0.0
 30
0.0
  0
VERTEX
  5
AE8
  8
0
 62
     7
 10
-42.030602000000002
 20
158.43183899999991
 30
0.0
  0
VERTEX
  5
AE9
  8
0
 62
     7
 10
-41.512965999999999
 20
156.49998500000001
 30
0.0
  0
VERTEX
  5
AEA
  8
0
 62
     7
 10
-40.995327000000003
 20
158.43183899999991
 30
0.0
  0
SEQEND
  5
AEB
  8
0
 62
     7
  0
LINE
  5
707
  8
0
 62
     7
 10
-41.512965999999999
 20
139.0
 30
0.0
 11
-41.512965999999999
 21
177.67581200000001
 31
0.0
  0
ENDBLK
  5
708
  8
0
  0
BLOCK
  8
0
  2
BLOCK43
 70
     0
 10
0.0
 20
0.0
 30
0.0
  3
BLOCK43
  1

  0
TEXT
  5
70A
  8
0
 62
     7
 10
-43.512965999999999
 20
111.4999999999999
 30
0.0
 40
3.0
  1
60
 50
90.0
 41
1.332493967054873
 72
     5
 11
-43.512965999999999
 21
116.5
 31
0.0
  0
LINE
  5
70B
  8
0
 62
     7
 10
11.672974
 20
84.0
 30
0.0
 11
-43.512965999999999
 21
84.0
 31
0.0
  0
LINE
  5
70C
  8
0
 62
     7
 10
40.0
 20
144.0
 30
0.0
 11
-43.512965999999999
 21
144.0
 31
0.0
  0
POLYLINE
  5
70D
  8
0
 62
     7
 66
     1
 10
0.0
 20
0.0
 30
0.0
  0
VERTEX
  5
AEC
  8
0
 62
     7
 10
-42.030602000000002
 20
85.931854000000016
 30
0.0
  0
VERTEX
  5
AED
  8
0
 62
     7
 10
-41.512965999999999
 20
84.0
 30
0.0
  0
VERTEX
  5
AEE
  8
0
 62
     7
 10
-40.995327000000003
 20
85.931854000000016
 30
0.0
  0
SEQEND
  5
AEF
  8
0
 62
     7
  0
POLYLINE
  5
712
  8
0
 62
     7
 66
     1
 10
0.0
 20
0.0
 30
0.0
  0
VERTEX
  5
AF0
  8
0
 62
     7
 10
-40.995327000000003
 20
142.0681459999999
 30
0.0
  0
VERTEX
  5
AF1
  8
0
 62
     7
 10
-41.512965999999999
 20
144.0
 30
0.0
  0
VERTEX
  5
AF2
  8
0
 62
     7
 10
-42.030602000000002
 20
142.0681459999999
 30
0.0
  0
SEQEND
  5
AF3
  8
0
 62
     7
  0
LINE
  5
717
  8
0
 62
     7
 10
-41.512965999999999
 20
84.0
 30
0.0
 11
-41.512965999999999
 21
144.0
 31
0.0
  0
ENDBLK
  5
718
  8
0
  0
BLOCK
  8
0
  2
BLOCK44
 70
     0
 10
0.0
 20
0.0
 30
0.0
  3
BLOCK44
  1

  0
LINE
  5
71A
  8
0
 62
     6
 10
9.0000020000000003
 20
69.488883999999999
 30
0.0
 11
11.054437999999999
 21
67.434448000000003
 31
0.0
  0
LINE
  5
71B
  8
0
 62
     6
 10
9.1102070000000008
 20
71.5
 30
0.0
 11
13.000002
 21
67.610198999999994
 31
0.0
  0
LINE
  5
71C
  8
0
 62
     6
 10
11.231524999999991
 20
71.5
 30
0.0
 11
13.000002
 21
69.731521999999998
 31
0.0
  0
ENDBLK
  5
71D
  8
0
  0
BLOCK
  8
0
  2
BLOCK45
 70
     0
 10
0.0
 20
0.0
 30
0.0
  3
BLOCK45
  1

  0
LINE
  5
71F
  8
0
 62
     6
 10
14.000002
 20
-47.941161999999998
 30
0.0
 11
15.058828
 21
-48.999988999999992
 31
0.0
  0
LINE
  5
720
  8
0
 62
     6
 10
14.196956
 20
-46.016791999999988
 30
0.0
 11
17.180147000000002
 21
-48.999988999999992
 31
0.0
  0
LINE
  5
721
  8
0
 62
     6
 10
16.318274999999989
 20
-46.016791999999988
 30
0.0
 11
18.000001999999991
 21
-47.698521
 31
0.0
  0
ENDBLK
  5
722
  8
0
  0
BLOCK
  8
0
  2
BLOCK46
 70
     0
 10
0.0
 20
0.0
 30
0.0
  3
BLOCK46
  1

  0
LINE
  5
724
  8
0
 62
     6
 10
19.346209999999989
 20
-54.900002000000001
 30
0.0
 11
21.0
 21
-53.246207999999989
 31
0.0
  0
LINE
  5
725
  8
0
 62
     6
 10
18.000001999999991
 20
-54.124885999999989
 30
0.0
 11
21.0
 21
-51.124889000000003
 31
0.0
  0
LINE
  5
726
  8
0
 62
     6
 10
18.000001999999991
 20
-52.003566999999997
 30
0.0
 11
21.0
 21
-49.00356699999999
 31
0.0
  0
LINE
  5
727
  8
0
 62
     6
 10
18.000001999999991
 20
-49.882247999999997
 30
0.0
 11
21.0
 21
-46.88224799999999
 31
0.0
  0
LINE
  5
728
  8
0
 62
     6
 10
18.000001999999991
 20
-47.760924999999993
 30
0.0
 11
20.744134999999989
 21
-45.016791999999988
 31
0.0
  0
LINE
  5
729
  8
0
 62
     6
 10
18.000001999999991
 20
-45.639606000000001
 30
0.0
 11
18.622816
 21
-45.016791999999988
 31
0.0
  0
ENDBLK
  5
72A
  8
0
  0
BLOCK
  8
0
  2
BLOCK47
 70
     0
 10
0.0
 20
0.0
 30
0.0
  3
BLOCK47
  1

  0
LINE
  5
72C
  8
0
 62
     6
 10
21.095462999999992
 20
-67.999984999999995
 30
0.0
 11
23.0
 21
-66.095450999999997
 31
0.0
  0
LINE
  5
72D
  8
0
 62
     6
 10
18.974143999999988
 20
-67.999984999999995
 30
0.0
 11
23.0
 21
-63.974128999999998
 31
0.0
  0
LINE
  5
72E
  8
0
 62
     6
 10
18.000001999999991
 20
-66.852806000000001
 30
0.0
 11
21.752810999999991
 21
-63.099997999999992
 31
0.0
  0
LINE
  5
72F
  8
0
 62
     6
 10
18.000001999999991
 20
-64.731491000000005
 30
0.0
 11
19.631491
 21
-63.099997999999992
 31
0.0
  0
ENDBLK
  5
730
  8
0
  0
BLOCK
  8
0
  2
BLOCK48
 70
     0
 10
0.0
 20
0.0
 30
0.0
  3
BLOCK48
  1

  0
LINE
  5
732
  8
0
 62
     6
 10
22.467531000000001
 20
-53.900002000000001
 30
0.0
 11
23.0
 21
-53.367531000000007
 31
0.0
  0
LINE
  5
733
  8
0
 62
     6
 10
21.0
 20
-53.246207999999989
 30
0.0
 11
23.0
 21
-51.246208000000003
 31
0.0
  0
LINE
  5
734
  8
0
 62
     6
 10
21.0
 20
-51.124889000000003
 30
0.0
 11
23.0
 21
-49.124889000000003
 31
0.0
  0
LINE
  5
735
  8
0
 62
     6
 10
21.0
 20
-49.00356699999999
 30
0.0
 11
23.0
 21
-47.003571000000001
 31
0.0
  0
LINE
  5
736
  8
0
 62
     6
 10
21.0
 20
-46.88224799999999
 30
0.0
 11
21.882255999999991
 21
-45.999996000000003
 31
0.0
  0
ENDBLK
  5
737
  8
0
  0
BLOCK
  8
0
  2
BLOCK49
 70
     0
 10
0.0
 20
0.0
 30
0.0
  3
BLOCK49
  1

  0
LINE
  5
739
  8
0
 62
     6
 10
23.000001999999991
 20
72.45944200000001
 30
0.0
 11
23.959440000000001
 21
71.5
 31
0.0
  0
LINE
  5
73A
  8
0
 62
     6
 10
23.580763000000001
 20
74.0
 30
0.0
 11
26.080759
 21
71.5
 31
0.0
  0
LINE
  5
73B
  8
0
 62
     6
 10
25.702082000000001
 20
74.0
 30
0.0
 11
28.202079999999999
 21
71.5
 31
0.0
  0
LINE
  5
73C
  8
0
 62
     6
 10
27.823399999999999
 20
74.0
 30
0.0
 11
30.323398999999998
 21
71.5
 31
0.0
  0
LINE
  5
73D
  8
0
 62
     6
 10
29.944721000000001
 20
74.0
 30
0.0
 11
32.444716999999997
 21
71.5
 31
0.0
  0
LINE
  5
73E
  8
0
 62
     6
 10
32.066040000000001
 20
74.0
 30
0.0
 11
34.56603599999999
 21
71.5
 31
0.0
  0
LINE
  5
73F
  8
0
 62
     6
 10
34.187359000000001
 20
74.0
 30
0.0
 11
34.822902999999997
 21
73.364456000000004
 31
0.0
  0
ENDBLK
  5
740
  8
0
  0
BLOCK
  8
0
  2
BLOCK50
 70
     0
 10
0.0
 20
0.0
 30
0.0
  3
BLOCK50
  1

  0
LINE
  5
742
  8
0
 62
     2
 10
105.2698899999999
 20
-117.46875
 30
0.0
 11
107.0011669999999
 21
-115.7374649999999
 31
0.0
  0
LINE
  5
743
  8
0
 62
     2
 10
105.0011669999999
 20
-115.6161419999999
 30
0.0
 11
107.0011669999999
 21
-113.616142
 31
0.0
  0
LINE
  5
744
  8
0
 62
     2
 10
105.0011669999999
 20
-113.4948269999999
 30
0.0
 11
107.0011669999999
 21
-111.4948269999999
 31
0.0
  0
LINE
  5
745
  8
0
 62
     2
 10
105.0011669999999
 20
-111.37350499999999
 30
0.0
 11
107.0011669999999
 21
-109.37350499999999
 31
0.0
  0
LINE
  5
746
  8
0
 62
     2
 10
105.0011669999999
 20
-109.25218199999991
 30
0.0
 11
107.0011669999999
 21
-107.252182
 31
0.0
  0
LINE
  5
747
  8
0
 62
     2
 10
105.0011669999999
 20
-107.13086699999999
 30
0.0
 11
107.0011669999999
 21
-105.13086699999999
 31
0.0
  0
LINE
  5
748
  8
0
 62
     2
 10
105.0011669999999
 20
-105.00954399999991
 30
0.0
 11
107.0011669999999
 21
-103.00954399999991
 31
0.0
  0
LINE
  5
749
  8
0
 62
     2
 10
105.0011669999999
 20
-102.888222
 30
0.0
 11
107.0011669999999
 21
-100.888222
 31
0.0
  0
LINE
  5
74A
  8
0
 62
     2
 10
105.0011669999999
 20
-100.7669069999999
 30
0.0
 11
107.0011669999999
 21
-98.766906999999989
 31
0.0
  0
LINE
  5
74B
  8
0
 62
     2
 10
105.0011669999999
 20
-98.645583999999985
 30
0.0
 11
107.0011669999999
 21
-96.645583999999999
 31
0.0
  0
LINE
  5
74C
  8
0
 62
     2
 10
105.0011669999999
 20
-96.524260999999996
 30
0.0
 11
107.0011669999999
 21
-94.524260999999996
 31
0.0
  0
LINE
  5
74D
  8
0
 62
     2
 10
105.0011669999999
 20
-94.402939000000003
 30
0.0
 11
107.0011669999999
 21
-92.402946
 31
0.0
  0
LINE
  5
74E
  8
0
 62
     2
 10
105.0011669999999
 20
-92.281623999999994
 30
0.0
 11
107.0011669999999
 21
-90.281623999999994
 31
0.0
  0
LINE
  5
74F
  8
0
 62
     2
 10
105.0011669999999
 20
-90.160301000000004
 30
0.0
 11
107.0011669999999
 21
-88.160301000000004
 31
0.0
  0
LINE
  5
750
  8
0
 62
     2
 10
105.0011669999999
 20
-88.038978999999998
 30
0.0
 11
107.0011669999999
 21
-86.038978999999983
 31
0.0
  0
LINE
  5
751
  8
0
 62
     2
 10
105.0011669999999
 20
-85.917664000000002
 30
0.0
 11
107.0011669999999
 21
-83.917663999999988
 31
0.0
  0
LINE
  5
752
  8
0
 62
     2
 10
105.0011669999999
 20
-83.796340999999998
 30
0.0
 11
107.0011669999999
 21
-81.796340999999984
 31
0.0
  0
LINE
  5
753
  8
0
 62
     2
 10
105.0011669999999
 20
-81.675018000000009
 30
0.0
 11
107.0011669999999
 21
-79.675017999999994
 31
0.0
  0
LINE
  5
754
  8
0
 62
     2
 10
105.0011669999999
 20
-79.553702999999999
 30
0.0
 11
107.0011669999999
 21
-77.553702999999999
 31
0.0
  0
LINE
  5
755
  8
0
 62
     2
 10
105.0011669999999
 20
-77.432381000000007
 30
0.0
 11
107.0011669999999
 21
-75.432381000000007
 31
0.0
  0
LINE
  5
756
  8
0
 62
     2
 10
105.0011669999999
 20
-75.311058000000003
 30
0.0
 11
107.0011669999999
 21
-73.311058000000003
 31
0.0
  0
LINE
  5
757
  8
0
 62
     2
 10
105.0011669999999
 20
-73.189743000000007
 30
0.0
 11
107.0011669999999
 21
-71.189743000000007
 31
0.0
  0
LINE
  5
758
  8
0
 62
     2
 10
105.0011669999999
 20
-71.068419999999989
 30
0.0
 11
107.0011669999999
 21
-69.068419999999989
 31
0.0
  0
LINE
  5
759
  8
0
 62
     2
 10
105.0011669999999
 20
-68.947097999999997
 30
0.0
 11
107.0011669999999
 21
-66.947097999999997
 31
0.0
  0
LINE
  5
75A
  8
0
 62
     2
 10
105.0011669999999
 20
-66.825783000000001
 30
0.0
 11
107.0011669999999
 21
-64.825783000000001
 31
0.0
  0
LINE
  5
75B
  8
0
 62
     2
 10
105.0011669999999
 20
-64.704459999999983
 30
0.0
 11
105.45562700000001
 21
-64.25
 31
0.0
  0
ENDBLK
  5
75C
  8
0
  0
BLOCK
  8
0
  2
BLOCK51
 70
     0
 10
0.0
 20
0.0
 30
0.0
  3
BLOCK51
  1

  0
LINE
  5
75E
  8
0
 62
     2
 10
106.0916669999999
 20
-57.25
 30
0.0
 11
107.0011669999999
 21
-56.340499999999999
 31
0.0
  0
LINE
  5
75F
  8
0
 62
     2
 10
105.0011669999999
 20
-56.219177000000002
 30
0.0
 11
107.0011669999999
 21
-54.219180999999999
 31
0.0
  0
LINE
  5
760
  8
0
 62
     2
 10
105.0011669999999
 20
-54.097857999999988
 30
0.0
 11
107.0011669999999
 21
-52.097858000000002
 31
0.0
  0
LINE
  5
761
  8
0
 62
     2
 10
105.0011669999999
 20
-51.976539999999993
 30
0.0
 11
107.0011669999999
 21
-49.97654
 31
0.0
  0
LINE
  5
762
  8
0
 62
     2
 10
105.0011669999999
 20
-49.855216999999989
 30
0.0
 11
107.0011669999999
 21
-47.855216999999989
 31
0.0
  0
LINE
  5
763
  8
0
 62
     2
 10
105.0011669999999
 20
-47.733897999999989
 30
0.0
 11
106.9850689999999
 21
-45.75
 31
0.0
  0
ENDBLK
  5
764
  8
0
  0
BLOCK
  8
0
  2
BLOCK52
 70
     0
 10
0.0
 20
0.0
 30
0.0
  3
BLOCK52
  1

  0
LINE
  5
766
  8
0
 62
     2
 10
106.5550919999999
 20
66.249992000000006
 30
0.0
 11
107.0011669999999
 21
66.696074999999993
 31
0.0
  0
LINE
  5
767
  8
0
 62
     2
 10
105.0011669999999
 20
66.817390000000003
 30
0.0
 11
107.0011669999999
 21
68.817390000000003
 31
0.0
  0
LINE
  5
768
  8
0
 62
     2
 10
105.0011669999999
 20
68.938713000000007
 30
0.0
 11
107.0011669999999
 21
70.938713000000007
 31
0.0
  0
LINE
  5
769
  8
0
 62
     2
 10
105.0011669999999
 20
71.060035999999997
 30
0.0
 11
107.0011669999999
 21
73.060035999999997
 31
0.0
  0
LINE
  5
76A
  8
0
 62
     2
 10
105.0011669999999
 20
73.181351000000006
 30
0.0
 11
107.0011669999999
 21
75.181351000000006
 31
0.0
  0
LINE
  5
76B
  8
0
 62
     2
 10
105.0011669999999
 20
75.302672999999999
 30
0.0
 11
107.0011669999999
 21
77.302672999999999
 31
0.0
  0
LINE
  5
76C
  8
0
 62
     2
 10
105.0011669999999
 20
77.423996000000002
 30
0.0
 11
105.32717099999989
 21
77.749992000000006
 31
0.0
  0
ENDBLK
  5
76D
  8
0
  0
BLOCK
  8
0
  2
BLOCK53
 70
     0
 10
0.0
 20
0.0
 30
0.0
  3
BLOCK53
  1

  0
LINE
  5
76F
  8
0
 62
     2
 10
105.963211
 20
84.749992000000006
 30
0.0
 11
107.0011669999999
 21
85.787956000000008
 31
0.0
  0
LINE
  5
770
  8
0
 62
     2
 10
105.0011669999999
 20
85.909271000000004
 30
0.0
 11
107.0011669999999
 21
87.90927099999999
 31
0.0
  0
LINE
  5
771
  8
0
 62
     2
 10
105.0011669999999
 20
88.030593999999994
 30
0.0
 11
107.0011669999999
 21
90.030593999999994
 31
0.0
  0
LINE
  5
772
  8
0
 62
     2
 10
105.0011669999999
 20
90.151916999999997
 30
0.0
 11
107.0011669999999
 21
92.151916999999997
 31
0.0
  0
LINE
  5
773
  8
0
 62
     2
 10
105.0011669999999
 20
92.273231999999979
 30
0.0
 11
107.0011669999999
 21
94.273231999999993
 31
0.0
  0
LINE
  5
774
  8
0
 62
     2
 10
105.0011669999999
 20
94.394553999999985
 30
0.0
 11
107.0011669999999
 21
96.394554000000014
 31
0.0
  0
LINE
  5
775
  8
0
 62
     2
 10
105.0011669999999
 20
96.515877000000003
 30
0.0
 11
107.0011669999999
 21
98.515877000000003
 31
0.0
  0
LINE
  5
776
  8
0
 62
     2
 10
105.0011669999999
 20
98.637198999999995
 30
0.0
 11
107.0011669999999
 21
100.637192
 31
0.0
  0
LINE
  5
777
  8
0
 62
     2
 10
105.0011669999999
 20
100.75851399999991
 30
0.0
 11
107.0011669999999
 21
102.75851400000001
 31
0.0
  0
LINE
  5
778
  8
0
 62
     2
 10
105.0011669999999
 20
102.87983699999999
 30
0.0
 11
107.0011669999999
 21
104.87983699999999
 31
0.0
  0
LINE
  5
779
  8
0
 62
     2
 10
105.0011669999999
 20
105.00116
 30
0.0
 11
107.0011669999999
 21
107.00116
 31
0.0
  0
LINE
  5
77A
  8
0
 62
     2
 10
105.0011669999999
 20
107.12247499999999
 30
0.0
 11
107.0011669999999
 21
109.12247499999999
 31
0.0
  0
LINE
  5
77B
  8
0
 62
     2
 10
105.0011669999999
 20
109.2437969999999
 30
0.0
 11
107.0011669999999
 21
111.2437969999999
 31
0.0
  0
LINE
  5
77C
  8
0
 62
     2
 10
105.0011669999999
 20
111.36511999999991
 30
0.0
 11
107.0011669999999
 21
113.36511999999991
 31
0.0
  0
LINE
  5
77D
  8
0
 62
     2
 10
105.0011669999999
 20
113.486435
 30
0.0
 11
107.0011669999999
 21
115.486435
 31
0.0
  0
LINE
  5
77E
  8
0
 62
     2
 10
105.0011669999999
 20
115.607758
 30
0.0
 11
107.0011669999999
 21
117.607758
 31
0.0
  0
LINE
  5
77F
  8
0
 62
     2
 10
105.0011669999999
 20
117.72908
 30
0.0
 11
107.0011669999999
 21
119.72908
 31
0.0
  0
LINE
  5
780
  8
0
 62
     2
 10
105.0011669999999
 20
119.85039499999991
 30
0.0
 11
107.0011669999999
 21
121.85039499999991
 31
0.0
  0
LINE
  5
781
  8
0
 62
     2
 10
105.0011669999999
 20
121.9717179999999
 30
0.0
 11
107.0011669999999
 21
123.9717179999999
 31
0.0
  0
LINE
  5
782
  8
0
 62
     2
 10
105.0011669999999
 20
124.0930399999999
 30
0.0
 11
107.0011669999999
 21
126.0930399999999
 31
0.0
  0
LINE
  5
783
  8
0
 62
     2
 10
105.0011669999999
 20
126.214355
 30
0.0
 11
107.0011669999999
 21
128.21435500000001
 31
0.0
  0
LINE
  5
784
  8
0
 62
     2
 10
105.0011669999999
 20
128.335678
 30
0.0
 11
107.0011669999999
 21
130.335678
 31
0.0
  0
LINE
  5
785
  8
0
 62
     2
 10
105.0011669999999
 20
130.45700099999991
 30
0.0
 11
107.0011669999999
 21
132.45700099999991
 31
0.0
  0
LINE
  5
786
  8
0
 62
     2
 10
105.0011669999999
 20
132.57832300000001
 30
0.0
 11
107.0011669999999
 21
134.57832300000001
 31
0.0
  0
LINE
  5
787
  8
0
 62
     2
 10
105.0011669999999
 20
134.69964599999989
 30
0.0
 11
107.0011669999999
 21
136.69964599999989
 31
0.0
  0
LINE
  5
788
  8
0
 62
     2
 10
105.0011669999999
 20
136.820953
 30
0.0
 11
107.0011669999999
 21
138.820953
 31
0.0
  0
LINE
  5
789
  8
0
 62
     2
 10
105.0011669999999
 20
138.94227599999991
 30
0.0
 11
107.0011669999999
 21
140.94227599999991
 31
0.0
  0
LINE
  5
78A
  8
0
 62
     2
 10
105.0011669999999
 20
141.06359900000001
 30
0.0
 11
107.0011669999999
 21
143.06359900000001
 31
0.0
  0
LINE
  5
78B
  8
0
 62
     2
 10
105.0011669999999
 20
143.184921
 30
0.0
 11
107.0011669999999
 21
145.18492099999989
 31
0.0
  0
LINE
  5
78C
  8
0
 62
     2
 10
105.0011669999999
 20
145.30624399999991
 30
0.0
 11
107.0011669999999
 21
147.30624399999991
 31
0.0
  0
LINE
  5
78D
  8
0
 62
     2
 10
105.0011669999999
 20
147.4275669999999
 30
0.0
 11
107.0011669999999
 21
149.4275669999999
 31
0.0
  0
LINE
  5
78E
  8
0
 62
     2
 10
105.0011669999999
 20
149.54887400000001
 30
0.0
 11
107.0011669999999
 21
151.54887400000001
 31
0.0
  0
LINE
  5
78F
  8
0
 62
     2
 10
105.0011669999999
 20
151.67019699999989
 30
0.0
 11
107.0011669999999
 21
153.670197
 31
0.0
  0
LINE
  5
790
  8
0
 62
     2
 10
105.0011669999999
 20
153.79151899999991
 30
0.0
 11
107.0011669999999
 21
155.79151899999991
 31
0.0
  0
LINE
  5
791
  8
0
 62
     2
 10
105.0011669999999
 20
155.9128419999999
 30
0.0
 11
107.0011669999999
 21
157.9128419999999
 31
0.0
  0
LINE
  5
792
  8
0
 62
     2
 10
105.0011669999999
 20
158.03416399999989
 30
0.0
 11
107.0011669999999
 21
160.03416399999989
 31
0.0
  0
LINE
  5
793
  8
0
 62
     2
 10
105.0011669999999
 20
160.15548699999999
 30
0.0
 11
107.0011669999999
 21
162.15548699999999
 31
0.0
  0
LINE
  5
794
  8
0
 62
     2
 10
105.0011669999999
 20
162.27679399999991
 30
0.0
 11
105.8391419999999
 21
163.114777
 31
0.0
  0
ENDBLK
  5
795
  8
0
  0
BLOCK
  8
0
  2
BLOCK54
 70
     0
 10
0.0
 20
0.0
 30
0.0
  3
BLOCK54
  1

  0
LINE
  5
797
  8
0
 62
     6
 10
24.000001999999999
 20
-47.334564
 30
0.0
 11
25.665423999999991
 21
-48.999988999999992
 31
0.0
  0
LINE
  5
798
  8
0
 62
     6
 10
24.803553000000001
 20
-46.016791999999988
 30
0.0
 11
27.786743000000001
 21
-48.999988999999992
 31
0.0
  0
LINE
  5
799
  8
0
 62
     6
 10
26.924871
 20
-46.016791999999988
 30
0.0
 11
29.908062000000001
 21
-48.999988999999992
 31
0.0
  0
LINE
  5
79A
  8
0
 62
     6
 10
29.046189999999999
 20
-46.016791999999988
 30
0.0
 11
32.029381000000001
 21
-48.999988999999992
 31
0.0
  0
LINE
  5
79B
  8
0
 62
     6
 10
31.167508999999999
 20
-46.016791999999988
 30
0.0
 11
34.150700000000001
 21
-48.999988999999992
 31
0.0
  0
LINE
  5
79C
  8
0
 62
     6
 10
33.28882999999999
 20
-46.016791999999988
 30
0.0
 11
36.272018000000003
 21
-48.999988999999992
 31
0.0
  0
LINE
  5
79D
  8
0
 62
     6
 10
35.41014899999999
 20
-46.016791999999988
 30
0.0
 11
38.393340999999999
 21
-48.999988999999992
 31
0.0
  0
LINE
  5
79E
  8
0
 62
     6
 10
37.531466999999999
 20
-46.016791999999988
 30
0.0
 11
40.514659999999999
 21
-48.999988999999992
 31
0.0
  0
LINE
  5
79F
  8
0
 62
     6
 10
39.652785999999992
 20
-46.016791999999988
 30
0.0
 11
42.635978999999992
 21
-48.999988999999992
 31
0.0
  0
LINE
  5
7A0
  8
0
 62
     6
 10
41.774104999999992
 20
-46.016791999999988
 30
0.0
 11
44.757297999999992
 21
-48.999988999999992
 31
0.0
  0
LINE
  5
7A1
  8
0
 62
     6
 10
43.895423999999991
 20
-46.016791999999988
 30
0.0
 11
46.878616000000001
 21
-48.999988999999992
 31
0.0
  0
LINE
  5
7A2
  8
0
 62
     6
 10
46.016742999999991
 20
-46.016791999999988
 30
0.0
 11
46.961486999999998
 21
-46.961535999999988
 31
0.0
  0
ENDBLK
  5
7A3
  8
0
  0
BLOCK
  8
0
  2
BLOCK55
 70
     0
 10
0.0
 20
0.0
 30
0.0
  3
BLOCK55
  1

  0
LINE
  5
7A5
  8
0
 62
     6
 10
20.317757
 20
88.199996999999996
 30
0.0
 11
22.000001999999991
 21
89.882248000000004
 31
0.0
  0
LINE
  5
7A6
  8
0
 62
     6
 10
18.196435999999999
 20
88.199996999999996
 30
0.0
 11
22.000001999999991
 21
92.003563000000014
 31
0.0
  0
LINE
  5
7A7
  8
0
 62
     6
 10
18.000001999999991
 20
90.124886000000004
 30
0.0
 11
20.875115999999998
 21
93.0
 31
0.0
  0
LINE
  5
7A8
  8
0
 62
     6
 10
18.000001999999991
 20
92.246207999999996
 30
0.0
 11
18.753795999999991
 21
93.0
 31
0.0
  0
ENDBLK
  5
7A9
  8
0
  0
BLOCK
  8
0
  2
BLOCK56
 70
     0
 10
0.0
 20
0.0
 30
0.0
  3
BLOCK56
  1

  0
LINE
  5
7AB
  8
0
 62
     6
 10
16.522762
 20
67.434448000000003
 30
0.0
 11
22.986409999999989
 21
73.898094
 31
0.0
  0
LINE
  5
7AC
  8
0
 62
     6
 10
14.401443
 20
67.434448000000003
 30
0.0
 11
22.000001999999991
 21
75.033005000000003
 31
0.0
  0
LINE
  5
7AD
  8
0
 62
     6
 10
13.212966
 20
68.367287000000005
 30
0.0
 11
22.000001999999991
 21
77.154326999999995
 31
0.0
  0
LINE
  5
7AE
  8
0
 62
     6
 10
18.000001999999991
 20
75.275642000000005
 30
0.0
 11
22.000001999999991
 21
79.275642000000005
 31
0.0
  0
LINE
  5
7AF
  8
0
 62
     6
 10
18.000001999999991
 20
77.396964999999994
 30
0.0
 11
20.403036
 21
79.800003000000004
 31
0.0
  0
LINE
  5
7B0
  8
0
 62
     6
 10
18.000001999999991
 20
79.518287999999998
 30
0.0
 11
18.281717
 21
79.800003000000004
 31
0.0
  0
ENDBLK
  5
7B1
  8
0
  0
BLOCK
  8
0
  2
BLOCK57
 70
     0
 10
0.0
 20
0.0
 30
0.0
  3
BLOCK57
  1

  0
LINE
  5
7B3
  8
0
 62
     6
 10
23.000001999999991
 20
74.580765
 30
0.0
 11
23.580763000000001
 21
74.0
 31
0.0
  0
LINE
  5
7B4
  8
0
 62
     6
 10
23.000001999999991
 20
76.702080000000009
 30
0.0
 11
25.702082000000001
 21
74.0
 31
0.0
  0
LINE
  5
7B5
  8
0
 62
     6
 10
23.000001999999991
 20
78.823402000000002
 30
0.0
 11
27.823399999999999
 21
74.0
 31
0.0
  0
LINE
  5
7B6
  8
0
 62
     6
 10
24.194727
 20
79.75
 30
0.0
 11
28.000001999999999
 21
75.944716999999983
 31
0.0
  0
LINE
  5
7B7
  8
0
 62
     6
 10
26.316046
 20
79.75
 30
0.0
 11
28.000001999999999
 21
78.066040000000001
 31
0.0
  0
ENDBLK
  5
7B8
  8
0
  0
BLOCK
  8
0
  2
BLOCK58
 70
     0
 10
0.0
 20
0.0
 30
0.0
  3
BLOCK58
  1

  0
LINE
  5
7BA
  8
0
 62
     6
 10
23.000001999999991
 20
74.580765
 30
0.0
 11
23.580763000000001
 21
74.0
 31
0.0
  0
LINE
  5
7BB
  8
0
 62
     6
 10
23.000001999999991
 20
76.702080000000009
 30
0.0
 11
25.702082000000001
 21
74.0
 31
0.0
  0
LINE
  5
7BC
  8
0
 62
     6
 10
23.000001999999991
 20
78.823402000000002
 30
0.0
 11
27.823399999999999
 21
74.0
 31
0.0
  0
LINE
  5
7BD
  8
0
 62
     6
 10
24.194727
 20
79.75
 30
0.0
 11
28.000001999999999
 21
75.944716999999983
 31
0.0
  0
LINE
  5
7BE
  8
0
 62
     6
 10
26.316046
 20
79.75
 30
0.0
 11
28.000001999999999
 21
78.066040000000001
 31
0.0
  0
ENDBLK
  5
7BF
  8
0
  0
BLOCK
  8
0
  2
BLOCK59
 70
     0
 10
0.0
 20
0.0
 30
0.0
  3
BLOCK59
  1

  0
LINE
  5
7C1
  8
0
 62
     6
 10
23.0
 20
89.430015999999995
 30
0.0
 11
24.180011999999991
 21
88.250000000000014
 31
0.0
  0
LINE
  5
7C2
  8
0
 62
     6
 10
22.999998000000001
 20
91.551337999999987
 30
0.0
 11
26.301331999999999
 21
88.250000000000014
 31
0.0
  0
LINE
  5
7C3
  8
0
 62
     6
 10
22.999995999999999
 20
93.672661000000005
 30
0.0
 11
28.000001999999999
 21
88.672646
 31
0.0
  0
LINE
  5
7C4
  8
0
 62
     6
 10
22.999994000000001
 20
95.793982999999983
 30
0.0
 11
28.000001999999999
 21
90.793968000000007
 31
0.0
  0
LINE
  5
7C5
  8
0
 62
     6
 10
22.999991999999999
 20
97.915306000000015
 30
0.0
 11
28.000001999999999
 21
92.915290999999996
 31
0.0
  0
LINE
  5
7C6
  8
0
 62
     6
 10
22.99999
 20
100.036629
 30
0.0
 11
28.000001999999999
 21
95.036613000000003
 31
0.0
  0
LINE
  5
7C7
  8
0
 62
     6
 10
22.999988999999999
 20
102.157951
 30
0.0
 11
28.000001999999999
 21
97.157935999999992
 31
0.0
  0
LINE
  5
7C8
  8
0
 62
     6
 10
22.999987000000001
 20
104.279274
 30
0.0
 11
28.000001999999999
 21
99.279258999999996
 31
0.0
  0
LINE
  5
7C9
  8
0
 62
     6
 10
23.044021999999998
 20
106.35656
 30
0.0
 11
28.000001999999999
 21
101.400581
 31
0.0
  0
LINE
  5
7CA
  8
0
 62
     6
 10
23.398617000000002
 20
108.1232909999999
 30
0.0
 11
28.000001999999999
 21
103.5218959999999
 31
0.0
  0
LINE
  5
7CB
  8
0
 62
     6
 10
24.101814000000001
 20
109.54141199999999
 30
0.0
 11
28.000001999999999
 21
105.6432189999999
 31
0.0
  0
LINE
  5
7CC
  8
0
 62
     6
 10
25.035219000000001
 20
110.72932400000001
 30
0.0
 11
28.569700000000001
 21
107.1948469999999
 31
0.0
  0
LINE
  5
7CD
  8
0
 62
     6
 10
26.204037
 20
111.6818309999999
 30
0.0
 11
29.907765999999999
 21
107.97809599999989
 31
0.0
  0
LINE
  5
7CE
  8
0
 62
     6
 10
27.592039
 20
112.41514599999989
 30
0.0
 11
31.354475000000001
 21
108.65271
 31
0.0
  0
LINE
  5
7CF
  8
0
 62
     6
 10
29.038747999999998
 20
113.08976
 30
0.0
 11
32.801186000000001
 21
109.327316
 31
0.0
  0
LINE
  5
7D0
  8
0
 62
     6
 10
30.485455999999999
 20
113.764374
 30
0.0
 11
34.247894000000002
 21
110.00193
 31
0.0
  0
LINE
  5
7D1
  8
0
 62
     6
 10
31.932165000000001
 20
114.43898
 30
0.0
 11
35.694603000000001
 21
110.67654399999989
 31
0.0
  0
LINE
  5
7D2
  8
0
 62
     6
 10
33.378875999999998
 20
115.11359399999991
 30
0.0
 11
37.141311999999999
 21
111.351151
 31
0.0
  0
LINE
  5
7D3
  8
0
 62
     6
 10
34.825583999999999
 20
115.788208
 30
0.0
 11
38.58802
 21
112.0257639999999
 31
0.0
  0
LINE
  5
7D4
  8
0
 62
     6
 10
36.272292999999991
 20
116.46281399999999
 30
0.0
 11
40.034728999999999
 21
112.7003709999999
 31
0.0
  0
LINE
  5
7D5
  8
0
 62
     6
 10
37.719002000000003
 20
117.1374279999999
 30
0.0
 11
41.48143799999999
 21
113.374985
 31
0.0
  0
LINE
  5
7D6
  8
0
 62
     6
 10
39.16570999999999
 20
117.81203499999999
 30
0.0
 11
42.928145999999998
 21
114.049599
 31
0.0
  0
LINE
  5
7D7
  8
0
 62
     6
 10
40.612419000000003
 20
118.486649
 30
0.0
 11
44.347575999999997
 21
114.7514879999999
 31
0.0
  0
LINE
  5
7D8
  8
0
 62
     6
 10
42.012328999999987
 20
119.208061
 30
0.0
 11
45.599688999999998
 21
115.62069699999989
 31
0.0
  0
LINE
  5
7D9
  8
0
 62
     6
 10
42.879837000000002
 20
120.461876
 30
0.0
 11
46.624396999999988
 21
116.7173079999999
 31
0.0
  0
LINE
  5
7DA
  8
0
 62
     6
 10
43.0
 20
122.46302799999999
 30
0.0
 11
47.390202000000002
 21
118.0728229999999
 31
0.0
  0
LINE
  5
7DB
  8
0
 62
     6
 10
43.0
 20
124.584351
 30
0.0
 11
47.894649999999992
 21
119.689697
 31
0.0
  0
LINE
  5
7DC
  8
0
 62
     6
 10
43.0
 20
126.7056729999999
 30
0.0
 11
48.000003999999997
 21
121.70566599999989
 31
0.0
  0
LINE
  5
7DD
  8
0
 62
     6
 10
43.0
 20
128.82699600000001
 30
0.0
 11
48.000003999999997
 21
123.826981
 31
0.0
  0
LINE
  5
7DE
  8
0
 62
     6
 10
43.0
 20
130.94831799999989
 30
0.0
 11
48.000003999999997
 21
125.948303
 31
0.0
  0
LINE
  5
7DF
  8
0
 62
     6
 10
43.0
 20
133.0696409999999
 30
0.0
 11
48.000003999999997
 21
128.069626
 31
0.0
  0
LINE
  5
7E0
  8
0
 62
     6
 10
43.000003999999997
 20
135.19094799999991
 30
0.0
 11
48.000003999999997
 21
130.19094799999991
 31
0.0
  0
LINE
  5
7E1
  8
0
 62
     6
 10
43.000003999999997
 20
137.31227100000001
 30
0.0
 11
48.000003999999997
 21
132.31227100000001
 31
0.0
  0
LINE
  5
7E2
  8
0
 62
     6
 10
43.000003999999997
 20
139.43359399999991
 30
0.0
 11
48.000003999999997
 21
134.433594
 31
0.0
  0
LINE
  5
7E3
  8
0
 62
     6
 10
44.804920000000003
 20
139.74999999999989
 30
0.0
 11
48.000003999999997
 21
136.55491599999999
 31
0.0
  0
LINE
  5
7E4
  8
0
 62
     6
 10
46.926239000000002
 20
139.74999999999989
 30
0.0
 11
48.000003999999997
 21
138.6762389999999
 31
0.0
  0
ENDBLK
  5
7E5
  8
0
  0
BLOCK
  8
0
  2
BLOCK60
 70
     0
 10
0.0
 20
0.0
 30
0.0
  3
BLOCK60
  1

  0
LINE
  5
7E7
  8
0
 62
     6
 10
43.0
 20
150.0402069999999
 30
0.0
 11
44.790207000000002
 21
148.24999999999989
 31
0.0
  0
LINE
  5
7E8
  8
0
 62
     6
 10
43.0
 20
152.16153
 30
0.0
 11
46.911526000000002
 21
148.24999999999989
 31
0.0
  0
LINE
  5
7E9
  8
0
 62
     6
 10
43.0
 20
154.28285199999999
 30
0.0
 11
48.000003999999997
 21
149.28283699999989
 31
0.0
  0
LINE
  5
7EA
  8
0
 62
     6
 10
43.0
 20
156.40417500000001
 30
0.0
 11
48.000003999999997
 21
151.40415999999999
 31
0.0
  0
LINE
  5
7EB
  8
0
 62
     6
 10
45.025509
 20
156.49998500000001
 30
0.0
 11
48.000003999999997
 21
153.52548200000001
 31
0.0
  0
LINE
  5
7EC
  8
0
 62
     6
 10
47.146827999999999
 20
156.49998500000001
 30
0.0
 11
48.000003999999997
 21
155.646805
 31
0.0
  0
ENDBLK
  5
7ED
  8
0
  0
BLOCK
  8
0
  2
BLOCK61
 70
     0
 10
0.0
 20
0.0
 30
0.0
  3
BLOCK61
  1

  0
TEXT
  5
7EF
  8
0
 62
     1
 10
-562.14996299999984
 20
-83.499999999999986
 30
0.0
 40
2.0
  1
INTERR.AUTOMATICO SERIE ISOMAX
 50
180.0
 41
1.0048195903614461
 72
     5
 11
-603.84997599999986
 21
-83.499999999999986
 31
0.0
  0
TEXT
  5
7F0
  8
0
 62
     1
 10
-548.84997599999986
 20
-80.5
 30
0.0
 40
2.0
  1
TRIPOL.ESECUZIONE FISSA TERMINALI ANT.PROL.DIVAR.
 50
180.0
 41
1.049155883256528
 72
     5
 11
-617.15002400000003
 21
-80.5
 31
0.0
  0
ENDBLK
  5
7F1
  8
0
  0
BLOCK
  8
0
  2
BLOCK62
 70
     0
 10
0.0
 20
0.0
 30
0.0
  3
BLOCK62
  1

  0
TEXT
  5
7F3
  8
0
 62
     1
 10
-557.84997599999986
 20
-89.500000000000014
 30
0.0
 40
2.0
  1
3POLE LOW VOLTAGE M.C.C.B SERIES ISOMAX
 50
180.0
 41
1.026465935727789
 72
     5
 11
-612.15002400000003
 21
-89.500000000000014
 31
0.0
  0
TEXT
  5
7F4
  8
0
 62
     1
 10
-553.64996299999984
 20
-86.5
 30
0.0
 40
2.0
  1
FIXED VERS. SPREADED EXTENDED FRONT TERMINALS
 50
180.0
 41
0.983079132613
 72
     5
 11
-616.34997599999986
 21
-86.5
 31
0.0
  0
ENDBLK
  5
7F5
  8
0
  0
BLOCK
  8
0
  2
BLOCK63
 70
     0
 10
0.0
 20
0.0
 30
0.0
  3
BLOCK63
  1

  0
TEXT
  5
7F7
  8
0
 62
     1
 10
-558.0
 20
-66.0
 30
0.0
 40
4.0
  1
1SDH000637R0.130
 50
180.0
 41
1.391043093002623
 72
     5
 11
-617.26281700000004
 21
-66.0
 31
0.0
  0
ENDBLK
  5
7F8
  8
0
  0
BLOCK
  8
0
  2
BLOCK64
 70
     0
 10
0.0
 20
0.0
 30
0.0
  3
BLOCK64
  1

  0
TEXT
  5
7FA
  8
0
 62
     1
 10
-497.30425999999989
 20
-78.0
 30
0.0
 40
2.0
  1
N0204 2007-09-17
 50
180.0
 41
1.1017693073406249
 72
     5
 11
-521.0
 21
-78.0
 31
0.0
  0
ENDBLK
  5
7FB
  8
0
  0
BLOCK
  8
0
  2
BLOCK65
 70
     0
 10
0.0
 20
0.0
 30
0.0
  3
BLOCK65
  1

  0
TEXT
  5
7FD
  8
0
 62
     1
 10
-586.0
 20
-76.0
 30
0.0
 40
3.0
  1
Ts3
 50
180.0
 41
1.225762527177944
 72
     5
 11
-593.69995099999994
 21
-76.0
 31
0.0
  0
ENDBLK
  5
7FE
  8
0
  0
BLOCK
  8
0
  2
BLOCK66
 70
     0
 10
0.0
 20
0.0
 30
0.0
  3
BLOCK66
  1

  0
TEXT
  5
800
  8
0
 62
     7
 10
12.0
 20
129.0
 30
0.0
 40
3.0
  1
Y
 50
180.0
 41
0.9777777777777775
 72
     5
 11
9.8000000000000007
 21
129.0
 31
0.0
  0
ENDBLK
  5
801
  8
0
  0
BLOCK
  8
0
  2
BLOCK67
 70
     0
 10
0.0
 20
0.0
 30
0.0
  3
BLOCK67
  1

  0
TEXT
  5
803
  8
0
 62
     7
 10
123.51313
 20
16.5
 30
0.0
 40
3.0
  1
139
 50
269.99994791279232
 41
1.409019097613152
 72
     5
 11
123.51312299999989
 21
8.8000199999999982
 31
0.0
  0
ENDBLK
  5
804
  8
0
  0
BLOCK
  8
0
  2
BLOCK68
 70
     0
 10
0.0
 20
0.0
 30
0.0
  3
BLOCK68
  1

  0
TEXT
  5
806
  8
0
 62
     7
 10
-79.161086999999995
 20
-24.686951000000001
 30
0.0
 40
3.0
  1
35
 50
180.0
 41
1.2776591662854091
 72
     5
 11
-84.111075999999997
 21
-24.686951000000001
 31
0.0
  0
ENDBLK
  5
807
  8
0
  0
BLOCK
  8
0
  2
BLOCK69
 70
     0
 10
0.0
 20
0.0
 30
0.0
  3
BLOCK69
  1

  0
TEXT
  5
809
  8
0
 62
     7
 10
-144.0
 20
0.0
 30
0.0
 40
3.0
  1
X
 50
180.0
 41
0.9777764444444425
 72
     5
 11
-146.19999699999991
 21
0.0
 31
0.0
  0
ENDBLK
  5
80A
  8
0
  0
BLOCK
  8
0
  2
BLOCK70
 70
     0
 10
0.0
 20
0.0
 30
0.0
  3
BLOCK70
  1

  0
TEXT
  5
80C
  8
0
 62
     7
 10
9.0
 20
-122.0
 30
0.0
 40
3.0
  1
Y
 50
180.0
 41
0.9777777777777778
 72
     5
 11
6.7999999999999989
 21
-122.0
 31
0.0
  0
ENDBLK
  5
80D
  8
0
  0
BLOCK
  8
0
  2
BLOCK71
 70
     0
 10
0.0
 20
0.0
 30
0.0
  3
BLOCK71
  1

  0
TEXT
  5
80F
  8
0
 62
     5
 10
93.646796999999992
 20
-8.5355220000000003
 30
0.0
 40
3.0
  1
71,75
 50
270.0000347248174
 41
1.548516199592233
 72
     5
 11
93.646805000000001
 21
-21.735482999999991
 31
0.0
  0
ENDBLK
  5
810
  8
0
  0
BLOCK
  8
0
  2
BLOCK72
 70
     0
 10
0.0
 20
0.0
 30
0.0
  3
BLOCK72
  1

  0
TEXT
  5
812
  8
0
 62
     7
 10
132.14700300000001
 20
118.849236
 30
0.0
 40
3.0
  1
5,5
 50
203.7482409542493
 41
1.5839930422142741
 72
     5
 11
125.00747699999999
 21
115.70803100000001
 31
0.0
  0
TEXT
  5
813
  8
0
 62
     7
 10
135.07603499999999
 20
120.1379389999999
 30
0.0
 40
3.0
  1
%%c
 50
203.74846182587021
 41
0.9777748448850013
 72
     5
 11
133.06233199999991
 21
119.251953
 31
0.0
  0
TEXT
  5
814
  8
0
 62
     7
 10
124.0921479999999
 20
115.3053129999999
 30
0.0
 40
3.0
  1
 - M5
 50
203.7482835915383
 41
1.4931585883464471
 72
     5
 11
111.8268129999999
 21
109.9088749999999
 31
0.0
  0
POLYLINE
  5
815
  8
0
 62
     7
 66
     1
 10
0.0
 20
0.0
 30
0.0
  0
VERTEX
  5
AF4
  8
0
 62
     7
 10
13.423052999999999
 20
67.140724000000006
 30
0.0
  0
VERTEX
  5
AF5
  8
0
 62
     7
 10
14.982860000000001
 20
68.392525000000006
 30
0.0
  0
VERTEX
  5
AF6
  8
0
 62
     7
 10
13.006126999999999
 20
68.088332999999992
 30
0.0
  0
SEQEND
  5
AF7
  8
0
 62
     7
  0
POLYLINE
  5
81A
  8
0
 62
     7
 66
     1
 10
0.0
 20
0.0
 30
0.0
  0
VERTEX
  5
AF8
  8
0
 62
     7
 10
21.576946
 20
71.859275999999994
 30
0.0
  0
VERTEX
  5
AF9
  8
0
 62
     7
 10
20.01713899999999
 20
70.607474999999994
 30
0.0
  0
VERTEX
  5
AFA
  8
0
 62
     7
 10
21.993871999999989
 20
70.911667000000008
 30
0.0
  0
SEQEND
  5
AFB
  8
0
 62
     7
  0
LINE
  5
81F
  8
0
 62
     7
 10
10.406241
 20
66.378928999999999
 30
0.0
 11
134.67330899999999
 21
121.05326100000001
 31
0.0
  0
ENDBLK
  5
820
  8
0
  0
BLOCK
  8
0
  2
BLOCK73
 70
     0
 10
0.0
 20
0.0
 30
0.0
  3
BLOCK73
  1

  0
TEXT
  5
822
  8
0
 62
     7
 10
-8.0
 20
-106.0
 30
0.0
 40
3.0
  1
X
 50
90.0
 41
0.9777764444444425
 72
     5
 11
-8.0
 21
-103.800003
 31
0.0
  0
ENDBLK
  5
823
  8
0
  0
BLOCK
  8
0
  2
BLOCK74
 70
     0
 10
0.0
 20
0.0
 30
0.0
  3
BLOCK74
  1

  0
TEXT
  5
825
  8
0
 62
     7
 10
-9.0
 20
109.0
 30
0.0
 40
3.0
  1
X
 50
90.0
 41
0.9777764444444425
 72
     5
 11
-9.0
 21
111.199997
 31
0.0
  0
ENDBLK
  5
826
  8
0
  0
BLOCK
  8
0
  2
BLOCK75
 70
     0
 10
0.0
 20
0.0
 30
0.0
  3
BLOCK75
  1

  0
TEXT
  5
828
  8
0
 62
     7
 10
-102.0
 20
-13.0
 30
0.0
 40
3.0
  1
Y
 50
90.0
 41
0.9777777777777775
 72
     5
 11
-102.0
 21
-10.800000000000001
 31
0.0
  0
ENDBLK
  5
829
  8
0
  0
BLOCK
  8
0
  2
BLOCK76
 70
     0
 10
0.0
 20
0.0
 30
0.0
  3
BLOCK76
  1

  0
TEXT
  5
82B
  8
0
 62
     7
 10
117.0
 20
-14.0
 30
0.0
 40
3.0
  1
Y
 50
90.0
 41
0.9777777777777775
 72
     5
 11
117.0
 21
-11.800000000000001
 31
0.0
  0
ENDBLK
  5
82C
  8
0
  0
BLOCK
  8
0
  2
BLOCK77
 70
     0
 10
0.0
 20
0.0
 30
0.0
  3
BLOCK77
  1

  0
TEXT
  5
82E
  8
0
 62
     7
 10
18.75
 20
-126.5937499999999
 30
0.0
 40
3.0
  1
112
 50
179.9999404717627
 41
1.5941402843842269
 72
     5
 11
11.05002
 21
-126.59374199999991
 31
0.0
  0
ENDBLK
  5
82F
  8
0
  0
BLOCK
  8
0
  2
BLOCK78
 70
     0
 10
0.0
 20
0.0
 30
0.0
  3
BLOCK78
  1

  0
TEXT
  5
831
  8
0
 62
     7
 10
18.75
 20
-164.0829469999999
 30
0.0
 40
3.0
  1
142
 50
180.0
 41
1.3437594995413831
 72
     5
 11
11.05002
 21
-164.0829469999999
 31
0.0
  0
ENDBLK
  5
832
  8
0
  0
BLOCK
  8
0
  2
BLOCK79
 70
     0
 10
0.0
 20
0.0
 30
0.0
  3
BLOCK79
  1

  0
TEXT
  5
834
  8
0
 62
     7
 10
-121.533974
 20
-11.0
 30
0.0
 40
3.0
  1
80
 50
90.0
 41
1.3191663623963901
 72
     5
 11
-121.533974
 21
-6.0500099999999994
 31
0.0
  0
ENDBLK
  5
835
  8
0
  0
BLOCK
  8
0
  2
BLOCK80
 70
     0
 10
0.0
 20
0.0
 30
0.0
  3
BLOCK80
  1

  0
TEXT
  5
837
  8
0
 62
     7
 10
-154.251846
 20
-16.5
 30
0.0
 40
3.0
  1
112
 50
90.0
 41
1.594140284383367
 72
     5
 11
-154.251846
 21
-8.8000199999999982
 31
0.0
  0
ENDBLK
  5
838
  8
0
  0
BLOCK
  8
0
  2
BLOCK81
 70
     0
 10
0.0
 20
0.0
 30
0.0
  3
BLOCK81
  1

  0
TEXT
  5
83A
  8
0
 62
     7
 10
122.34223899999991
 20
-111.27021000000001
 30
0.0
 40
3.0
  1
 7
 50
127.20898959685471
 41
1.736837925866495
 72
     5
 11
119.348862
 21
-107.3278659999999
 31
0.0
  0
ENDBLK
  5
83B
  8
0
  0
BLOCK
  8
0
  2
BLOCK82
 70
     0
 10
0.0
 20
0.0
 30
0.0
  3
BLOCK82
  1

  0
TEXT
  5
83D
  8
0
 62
     7
 10
123.30978399999999
 20
-112.544495
 30
0.0
 40
3.0
  1
%%c
 50
127.2089187033538
 41
0.9777779165820129
 72
     5
 11
121.9793929999999
 21
-110.79233600000001
 31
0.0
  0
ENDBLK
  5
83E
  8
0
  0
ENDSEC
  0
SECTION
  2
ENTITIES
  0
LINE
  5
25
  8
0
 62
     7
 10
-67.627943999999999
 20
646.20940199999995
 30
0.0
 11
-97.377939999999995
 21
646.20940199999995
 31
0.0
  0
LINE
  5
26
  8
0
 62
     7
 10
-61.840943000000003
 20
646.20940199999995
 30
0.0
 11
-64.127944999999997
 21
646.20940199999995
 31
0.0
  0
LINE
  5
27
  8
0
 62
     7
 10
-98.377939999999995
 20
643.40939900000001
 30
0.0
 11
-98.377939999999995
 21
645.20940199999995
 31
0.0
  0
LINE
  5
28
  8
0
 62
     7
 10
-98.377939999999995
 20
643.40939900000001
 30
0.0
 11
-100.8779399999999
 21
643.40939900000001
 31
0.0
  0
LINE
  5
29
  8
0
 62
     7
 10
-100.87795199999999
 20
639.45940999999993
 30
0.0
 11
-100.87795199999999
 21
643.40939900000001
 31
0.0
  0
LINE
  5
2A
  8
0
 62
     7
 10
-98.377939999999995
 20
477.2094019999999
 30
0.0
 11
-98.377939999999995
 21
478.45941699999997
 31
0.0
  0
LINE
  5
2B
  8
0
 62
     7
 10
-67.627943999999999
 20
476.2094019999999
 30
0.0
 11
-97.377939999999995
 21
476.2094019999999
 31
0.0
  0
LINE
  5
2C
  8
0
 62
     7
 10
-32.627873999999998
 20
476.2094019999999
 30
0.0
 11
-64.127944999999997
 21
476.2094019999999
 31
0.0
  0
LINE
  5
2D
  8
0
 62
     7
 10
0.6220600000000001
 20
476.2094019999999
 30
0.0
 11
-29.127875
 21
476.2094019999999
 31
0.0
  0
LINE
  5
2E
  8
0
 62
     7
 10
1.6220600000000001
 20
477.2094019999999
 30
0.0
 11
1.6220600000000001
 21
478.45941699999997
 31
0.0
  0
LINE
  5
2F
  8
0
 62
     7
 10
-63.377944999999997
 20
639.70940199999995
 30
0.0
 11
-68.377943999999985
 21
639.70940199999995
 31
0.0
  0
LINE
  5
30
  8
0
 62
     7
 10
-98.377943999999985
 20
639.45940999999993
 30
0.0
 11
-98.377943999999985
 21
643.40939900000001
 31
0.0
  0
CIRCLE
  5
31
  8
0
  6
DASHSPACE
 62
     7
 10
-83.377939999999995
 20
633.70939399999997
 30
0.0
 40
5.5000010000000001
  0
CIRCLE
  5
32
  8
0
 62
     7
 10
-83.377943999999985
 20
642.20940999999993
 30
0.0
 40
1.4000049999999991
  0
ARC
  5
33
  8
0
 62
     7
 10
-97.377936000000005
 20
645.20940199999995
 30
0.0
 40
1.0000039999999999
 50
90.000046999999995
 51
180.00048100000001
  0
CIRCLE
  5
34
  8
0
  6
DASHSPACE
 62
     7
 10
-83.377920999999986
 20
488.70940599999989
 30
0.0
 40
5.4999969999999996
  0
CIRCLE
  5
35
  8
0
  6
DASHSPACE
 62
     7
 10
-65.877927
 20
491.70940599999989
 30
0.0
 40
4.4999979999999997
  0
CIRCLE
  5
36
  8
0
  6
DASHSPACE
 62
     7
 10
-48.377932000000001
 20
488.7094019999999
 30
0.0
 40
5.4999969999999996
  0
ARC
  5
37
  8
0
 62
     7
 10
-97.377939999999995
 20
477.2094019999999
 30
0.0
 40
1.0
 50
180.00000900000001
 51
269.99999100000002
  0
CIRCLE
  5
38
  8
0
  6
DASHSPACE
 62
     7
 10
-30.877925000000001
 20
491.70937900000001
 30
0.0
 40
4.4999789999999988
  0
CIRCLE
  5
39
  8
0
  6
DASHSPACE
 62
     7
 10
-13.377867999999991
 20
488.70928400000003
 30
0.0
 40
5.5001319999999989
  0
ARC
  5
3A
  8
0
 62
     7
 10
0.6220670000000002
 20
477.20939399999997
 30
0.0
 40
0.9999900000000001
 50
269.999773
 51
0.000465
  0
LINE
  5
3B
  8
0
  6
DASHDOT
 62
     7
 10
-83.377943999999985
 20
637.80940799999985
 30
0.0
 11
-83.377943999999985
 21
646.60941899999989
 31
0.0
  0
LINE
  5
3C
  8
0
  6
DASHDOT
 62
     7
 10
-78.977941000000001
 20
642.20940999999993
 30
0.0
 11
-87.777948999999992
 21
642.20940999999993
 31
0.0
  0
LINE
  5
3D
  8
0
  6
DASHDOT
 62
     7
 10
-83.377939999999995
 20
625.20939399999997
 30
0.0
 11
-83.377939999999995
 21
642.20939399999997
 31
0.0
  0
LINE
  5
3E
  8
0
  6
DASHDOT
 62
     7
 10
-74.877938
 20
633.70939399999997
 30
0.0
 11
-91.877939999999995
 21
633.70939399999997
 31
0.0
  0
LINE
  5
3F
  8
0
  6
DASHDOT
 62
     7
 10
-65.877943999999985
 20
623.20941700000003
 30
0.0
 11
-65.877943999999985
 21
648.57301900000004
 31
0.0
  0
LINE
  5
40
  8
0
  6
DASHDOT
 62
     7
 10
-83.377920999999986
 20
480.20940999999988
 30
0.0
 11
-83.377920999999986
 21
497.20940599999989
 31
0.0
  0
LINE
  5
41
  8
0
  6
DASHDOT
 62
     7
 10
-74.877926999999985
 20
488.70940599999989
 30
0.0
 11
-91.877921000000015
 21
488.70940599999989
 31
0.0
  0
LINE
  5
42
  8
0
  6
DASHDOT
 62
     7
 10
-65.877927
 20
473.78223200000002
 30
0.0
 11
-65.877927
 21
499.20940599999989
 31
0.0
  0
LINE
  5
43
  8
0
  6
DASHDOT
 62
     7
 10
-58.377929000000002
 20
491.70940599999989
 30
0.0
 11
-73.377925000000005
 21
491.70940599999989
 31
0.0
  0
LINE
  5
44
  8
0
  6
DASHDOT
 62
     7
 10
-39.877934000000003
 20
488.7094019999999
 30
0.0
 11
-56.877929000000002
 21
488.7094019999999
 31
0.0
  0
LINE
  5
45
  8
0
  6
DASHDOT
 62
     7
 10
-23.377943999999989
 20
491.70937900000001
 30
0.0
 11
-38.377904000000001
 21
491.70937900000001
 31
0.0
  0
LINE
  5
46
  8
0
  6
DASHDOT
 62
     7
 10
-13.377867999999991
 20
480.20915000000002
 30
0.0
 11
-13.377867999999991
 21
497.20941299999998
 31
0.0
  0
LINE
  5
47
  8
0
  6
DASHDOT
 62
     7
 10
-4.8777339999999993
 20
488.70928400000003
 30
0.0
 11
-21.877998999999988
 21
488.70928400000003
 31
0.0
  0
LINE
  5
48
  8
0
  6
DASHDOT
 62
     7
 10
-13.37792099999999
 20
475.80941599999989
 30
0.0
 11
-13.37792099999999
 21
484.60940399999993
 31
0.0
  0
LINE
  5
49
  8
0
  6
DASHDOT
 62
     7
 10
-83.377925000000005
 20
475.80940099999992
 30
0.0
 11
-83.377925000000005
 21
484.60940399999993
 31
0.0
  0
LINE
  5
4A
  8
0
 62
     3
 10
3.6220750000000002
 20
611.45941300000004
 30
0.0
 11
-100.37791
 21
611.45941300000004
 31
0.0
  0
LINE
  5
4B
  8
0
 62
     3
 10
3.6220750000000002
 20
506.459429
 30
0.0
 11
-9.8779249999999994
 21
506.459429
 31
0.0
  0
LINE
  5
4C
  8
0
 62
     3
 10
-21.377925000000001
 20
506.459429
 30
0.0
 11
-45.928631000000003
 21
506.459429
 31
0.0
  0
LINE
  5
4D
  8
0
 62
     3
 10
-86.87791
 20
506.459429
 30
0.0
 11
-100.37791
 21
506.459429
 31
0.0
  0
LINE
  5
4E
  8
0
 62
     3
 10
-75.37791
 20
506.459429
 30
0.0
 11
-86.87791
 21
506.459429
 31
0.0
  0
LINE
  5
4F
  8
0
 62
     3
 10
-9.8779249999999994
 20
506.459429
 30
0.0
 11
-21.377925000000001
 21
506.459429
 31
0.0
  0
LINE
  5
50
  8
0
  6
DASHDOT
 62
     7
 10
-48.37791
 20
488.33822800000002
 30
0.0
 11
-48.37791
 21
591.63350100000002
 31
0.0
  0
ARC
  5
51
  8
0
 62
     3
 10
-100.37791
 20
506.959429
 30
0.0
 40
0.5
 50
180.00000299999991
 51
270.00000499999987
  0
ARC
  5
52
  8
0
 62
     3
 10
-100.37791
 20
610.95941300000004
 30
0.0
 40
0.5
 50
90.0
 51
180.00000299999991
  0
ARC
  5
53
  8
0
 62
     3
 10
3.6220750000000002
 20
610.95941300000004
 30
0.0
 40
0.5
 50
0.000001
 51
90.0
  0
ARC
  5
54
  8
0
 62
     3
 10
3.6220750000000002
 20
506.959429
 30
0.0
 40
0.5
 50
270.00000499999987
 51
0.000001
  0
LINE
  5
55
  8
0
 62
     3
 10
-50.827359999999999
 20
506.459429
 30
0.0
 11
-75.37791
 21
506.459429
 31
0.0
  0
LINE
  5
56
  8
0
 62
     7
 10
-75.877925000000005
 20
506.45941299999993
 30
0.0
 11
-85.877910000000014
 21
506.45941299999993
 31
0.0
  0
LINE
  5
57
  8
0
 62
     7
 10
-10.87793999999999
 20
506.45941299999993
 30
0.0
 11
-20.877939999999999
 21
506.45941299999993
 31
0.0
  0
LINE
  5
58
  8
0
 62
     7
 10
4.12209
 20
506.95941299999993
 30
0.0
 11
4.12209
 21
524.95939599999986
 31
0.0
  0
LINE
  5
59
  8
0
 62
     7
 10
-100.8779099999999
 20
506.95941299999993
 30
0.0
 11
-100.8779099999999
 21
524.95939599999986
 31
0.0
  0
LINE
  5
5A
  8
0
 62
     7
 10
3.62209
 20
611.45941300000004
 30
0.0
 11
-100.37791
 21
611.45941300000004
 31
0.0
  0
LINE
  5
5B
  8
0
 62
     7
 10
-85.877910000000014
 20
506.45941299999993
 30
0.0
 11
-100.37791
 21
506.45941299999993
 31
0.0
  0
LINE
  5
5C
  8
0
 62
     7
 10
-20.877939999999999
 20
506.45941299999993
 30
0.0
 11
-75.877925000000005
 21
506.45941299999993
 31
0.0
  0
LINE
  5
5D
  8
0
 62
     7
 10
3.62209
 20
506.45941299999993
 30
0.0
 11
-10.87793999999999
 21
506.45941299999993
 31
0.0
  0
LINE
  5
5E
  8
0
 62
     7
 10
-37.627909999999993
 20
528.70939599999986
 30
0.0
 11
-37.627909999999993
 21
568.70938100000001
 31
0.0
  0
LINE
  5
5F
  8
0
 62
     7
 10
-59.12791
 20
528.70939599999986
 30
0.0
 11
-59.12791
 21
568.70938100000001
 31
0.0
  0
LINE
  5
60
  8
0
 62
     7
 10
4.12209
 20
599.459383
 30
0.0
 11
-100.8779099999999
 21
599.459383
 31
0.0
  0
LINE
  5
61
  8
0
 62
     7
 10
4.12209
 20
609.45938299999989
 30
0.0
 11
-100.8779099999999
 21
609.45938299999989
 31
0.0
  0
LINE
  5
62
  8
0
 62
     7
 10
-37.627909999999993
 20
568.44491600000003
 30
0.0
 11
-59.12791
 21
568.44491600000003
 31
0.0
  0
LINE
  5
63
  8
0
 62
     7
 10
-37.627909999999993
 20
568.70938100000001
 30
0.0
 11
-59.12791
 21
568.70938100000001
 31
0.0
  0
LINE
  5
64
  8
0
 62
     7
 10
-37.627909999999993
 20
528.70939599999986
 30
0.0
 11
-59.12791
 21
528.70939599999986
 31
0.0
  0
LINE
  5
65
  8
0
 62
     7
 10
-37.627909999999993
 20
528.97389199999986
 30
0.0
 11
-59.12791
 21
528.97389199999986
 31
0.0
  0
LINE
  5
66
  8
0
  6
DASHDOT
 62
     7
 10
-48.37791
 20
429.70528200000001
 30
0.0
 11
-48.37791
 21
589.66181700000004
 31
0.0
  0
LINE
  5
67
  8
0
 62
     7
 10
4.1220749999999988
 20
525.95939599999997
 30
0.0
 11
4.1220749999999988
 21
537.95938899999987
 31
0.0
  0
LINE
  5
68
  8
0
 62
     7
 10
4.1220749999999988
 20
512.87173600000006
 30
0.0
 11
4.1220749999999988
 21
610.95941300000004
 31
0.0
  0
LINE
  5
69
  8
0
 62
     7
 10
4.1220749999999988
 20
538.95938899999987
 30
0.0
 11
4.1220749999999988
 21
558.45939599999986
 31
0.0
  0
LINE
  5
6A
  8
0
 62
     7
 10
4.1220749999999988
 20
559.45939599999997
 30
0.0
 11
4.1220749999999988
 21
571.45939599999997
 31
0.0
  0
LINE
  5
6B
  8
0
 62
     7
 10
-100.8779099999999
 20
525.95939599999997
 30
0.0
 11
-100.8779099999999
 21
537.95939599999997
 31
0.0
  0
LINE
  5
6C
  8
0
 62
     7
 10
-100.8779099999999
 20
538.95939599999997
 30
0.0
 11
-100.8779099999999
 21
558.45939599999986
 31
0.0
  0
LINE
  5
6D
  8
0
 62
     7
 10
-100.8779099999999
 20
559.45939599999997
 30
0.0
 11
-100.8779099999999
 21
571.45939599999997
 31
0.0
  0
LINE
  5
6E
  8
0
 62
     7
 10
-100.8779099999999
 20
514.61648000000002
 30
0.0
 11
-100.8779099999999
 21
610.95941300000004
 31
0.0
  0
ARC
  5
6F
  8
0
 62
     7
 10
-100.37791
 20
506.95941299999993
 30
0.0
 40
0.5
 50
180.00000299999991
 51
270.00000499999987
  0
ARC
  5
70
  8
0
 62
     7
 10
3.62209
 20
506.95941299999993
 30
0.0
 40
0.5
 50
270.00000499999987
 51
0.000001
  0
ARC
  5
71
  8
0
 62
     7
 10
3.62209
 20
610.95941300000004
 30
0.0
 40
0.5
 50
0.000001
 51
90.0
  0
ARC
  5
72
  8
0
 62
     7
 10
-100.37791
 20
610.95941300000004
 30
0.0
 40
0.5
 50
90.0
 51
180.00000299999991
  0
LINE
  5
73
  8
0
 62
     7
 10
-70.87791
 20
569.95939599999986
 30
0.0
 11
-72.37791
 21
569.95939599999986
 31
0.0
  0
LINE
  5
74
  8
0
 62
     7
 10
-70.87791
 20
560.95939599999986
 30
0.0
 11
-72.37791
 21
560.95939599999986
 31
0.0
  0
CIRCLE
  5
75
  8
0
 62
     7
 10
-71.62791
 20
531.95939599999986
 30
0.0
 40
4.5
  0
CIRCLE
  5
76
  8
0
 62
     7
 10
-71.62791
 20
531.95939599999986
 30
0.0
 40
3.0
  0
LINE
  5
77
  8
0
 62
     7
 10
-72.37791
 20
560.95939599999986
 30
0.0
 11
-72.37791
 21
569.95939599999986
 31
0.0
  0
LINE
  5
78
  8
0
 62
     7
 10
-70.87791
 20
560.95939599999986
 30
0.0
 11
-70.87791
 21
569.95939599999986
 31
0.0
  0
LINE
  5
79
  8
0
 62
     7
 10
-22.827919999999999
 20
535.80939699999988
 30
0.0
 11
-23.277919000000001
 21
535.80939699999988
 31
0.0
  0
LINE
  5
7A
  8
0
 62
     7
 10
-23.777919000000001
 20
528.10939599999995
 30
0.0
 11
-24.577919999999999
 21
528.10939599999995
 31
0.0
  0
LINE
  5
7B
  8
0
 62
     7
 10
-30.977920000000001
 20
530.70939599999986
 30
0.0
 11
-30.977920000000001
 21
531.20939599999986
 31
0.0
  0
LINE
  5
7C
  8
0
 62
     7
 10
-25.777919000000001
 20
530.70939599999986
 30
0.0
 11
-25.777919000000001
 21
531.20939599999986
 31
0.0
  0
ARC
  5
7D
  8
0
 62
     7
 10
-28.377918999999999
 20
531.20939599999986
 30
0.0
 40
2.6000000000000001
 50
0.000001
 51
180.00000299999991
  0
ARC
  5
7E
  8
0
 62
     7
 10
-28.377918999999999
 20
530.70939599999986
 30
0.0
 40
2.6000000000000001
 50
180.00000299999991
 51
0.000001
  0
ARC
  5
7F
  8
0
 62
     7
 10
-28.377918999999999
 20
531.20939599999986
 30
0.0
 40
1.8
 50
0.000001
 51
180.00000299999991
  0
ARC
  5
80
  8
0
 62
     7
 10
-28.377918999999999
 20
530.70939599999986
 30
0.0
 40
1.8
 50
180.00000299999991
 51
0.000001
  0
LINE
  5
81
  8
0
 62
     7
 10
-30.17792
 20
530.70939599999986
 30
0.0
 11
-30.17792
 21
531.20939599999986
 31
0.0
  0
LINE
  5
82
  8
0
 62
     7
 10
-26.577919999999999
 20
530.70939599999986
 30
0.0
 11
-26.577919999999999
 21
531.20939599999986
 31
0.0
  0
LINE
  5
83
  8
0
 62
     7
 10
-25.527919000000001
 20
532.60939599999995
 30
0.0
 11
-25.527919000000001
 21
533.40939600000002
 31
0.0
  0
LINE
  5
84
  8
0
 62
     7
 10
-24.577919999999999
 20
532.60939599999995
 30
0.0
 11
-25.527919000000001
 21
532.60939599999995
 31
0.0
  0
LINE
  5
85
  8
0
 62
     7
 10
-22.827919999999999
 20
532.60939599999995
 30
0.0
 11
-22.827919999999999
 21
533.40939600000002
 31
0.0
  0
LINE
  5
86
  8
0
 62
     7
 10
-24.577919999999999
 20
533.40939600000002
 30
0.0
 11
-25.527919000000001
 21
533.40939600000002
 31
0.0
  0
LINE
  5
87
  8
0
 62
     7
 10
-24.577919999999999
 20
528.10939599999995
 30
0.0
 11
-24.577919999999999
 21
532.60939599999995
 31
0.0
  0
LINE
  5
88
  8
0
 62
     7
 10
-23.777919000000001
 20
528.10939599999995
 30
0.0
 11
-23.777919000000001
 21
532.60939599999995
 31
0.0
  0
LINE
  5
89
  8
0
 62
     7
 10
-22.827919999999999
 20
532.60939599999995
 30
0.0
 11
-23.777919000000001
 21
532.60939599999995
 31
0.0
  0
LINE
  5
8A
  8
0
 62
     7
 10
-22.827919999999999
 20
533.40939600000002
 30
0.0
 11
-23.777919000000001
 21
533.40939600000002
 31
0.0
  0
LINE
  5
8B
  8
0
 62
     7
 10
-24.577919999999999
 20
533.40939600000002
 30
0.0
 11
-24.577919999999999
 21
534.50939600000004
 31
0.0
  0
LINE
  5
8C
  8
0
 62
     7
 10
-23.777919000000001
 20
533.40939600000002
 30
0.0
 11
-23.777919000000001
 21
534.50939600000004
 31
0.0
  0
ARC
  5
8D
  8
0
 62
     7
 10
-23.277919000000001
 20
534.50939600000004
 30
0.0
 40
1.3
 50
90.000010000000003
 51
180.00000299999991
  0
ARC
  5
8E
  8
0
 62
     7
 10
-23.277919000000001
 20
534.50939600000004
 30
0.0
 40
0.5
 50
90.000010000000003
 51
180.00000299999991
  0
LINE
  5
8F
  8
0
 62
     7
 10
-22.827919999999999
 20
535.00939600000004
 30
0.0
 11
-22.827919999999999
 21
535.80939699999988
 31
0.0
  0
LINE
  5
90
  8
0
 62
     7
 10
-22.827919999999999
 20
535.00939600000004
 30
0.0
 11
-23.277919000000001
 21
535.00939600000004
 31
0.0
  0
LINE
  5
91
  8
0
 62
     7
 10
-19.627918999999999
 20
535.80939699999988
 30
0.0
 11
-20.077919999999999
 21
535.80939699999988
 31
0.0
  0
LINE
  5
92
  8
0
 62
     7
 10
-20.577919999999999
 20
528.10939599999995
 30
0.0
 11
-21.377918999999991
 21
528.10939599999995
 31
0.0
  0
LINE
  5
93
  8
0
 62
     7
 10
-22.327919999999999
 20
532.60939599999995
 30
0.0
 11
-22.327919999999999
 21
533.40939600000002
 31
0.0
  0
LINE
  5
94
  8
0
 62
     7
 10
-21.377918999999991
 20
532.60939599999995
 30
0.0
 11
-22.327919999999999
 21
532.60939599999995
 31
0.0
  0
LINE
  5
95
  8
0
 62
     7
 10
-19.627918999999999
 20
532.60939599999995
 30
0.0
 11
-19.627918999999999
 21
533.40939600000002
 31
0.0
  0
LINE
  5
96
  8
0
 62
     7
 10
-21.377918999999991
 20
533.40939600000002
 30
0.0
 11
-22.327919999999999
 21
533.40939600000002
 31
0.0
  0
LINE
  5
97
  8
0
 62
     7
 10
-21.377918999999991
 20
528.10939599999995
 30
0.0
 11
-21.377918999999991
 21
532.60939599999995
 31
0.0
  0
LINE
  5
98
  8
0
 62
     7
 10
-20.577919999999999
 20
528.10939599999995
 30
0.0
 11
-20.577919999999999
 21
532.60939599999995
 31
0.0
  0
LINE
  5
99
  8
0
 62
     7
 10
-19.627918999999999
 20
532.60939599999995
 30
0.0
 11
-20.577919999999999
 21
532.60939599999995
 31
0.0
  0
LINE
  5
9A
  8
0
 62
     7
 10
-19.627918999999999
 20
533.40939600000002
 30
0.0
 11
-20.577919999999999
 21
533.40939600000002
 31
0.0
  0
LINE
  5
9B
  8
0
 62
     7
 10
-21.377918999999991
 20
533.40939600000002
 30
0.0
 11
-21.377918999999991
 21
534.50939600000004
 31
0.0
  0
LINE
  5
9C
  8
0
 62
     7
 10
-20.577919999999999
 20
533.40939600000002
 30
0.0
 11
-20.577919999999999
 21
534.50939600000004
 31
0.0
  0
ARC
  5
9D
  8
0
 62
     7
 10
-20.077919999999999
 20
534.50939600000004
 30
0.0
 40
1.3
 50
90.000010000000003
 51
180.00000299999991
  0
ARC
  5
9E
  8
0
 62
     7
 10
-20.077919999999999
 20
534.50939600000004
 30
0.0
 40
0.5
 50
90.000010000000003
 51
180.00000299999991
  0
LINE
  5
9F
  8
0
 62
     7
 10
-19.627918999999999
 20
535.00939600000004
 30
0.0
 11
-19.627918999999999
 21
535.80939699999988
 31
0.0
  0
LINE
  5
A0
  8
0
 62
     7
 10
-19.627918999999999
 20
535.00939600000004
 30
0.0
 11
-20.077919999999999
 21
535.00939600000004
 31
0.0
  0
LINE
  5
A1
  8
0
 62
     7
 10
-24.17792
 20
562.60939599999995
 30
0.0
 11
-24.977920000000001
 21
562.60939599999995
 31
0.0
  0
ARC
  5
A2
  8
0
 62
     7
 10
-28.377918999999999
 20
565.70939599999997
 30
0.0
 40
2.6000000000000001
 50
0.000001
 51
180.00000299999991
  0
ARC
  5
A3
  8
0
 62
     7
 10
-28.377918999999999
 20
565.70939599999997
 30
0.0
 40
1.8
 50
0.000001
 51
180.00000299999991
  0
ARC
  5
A4
  8
0
 62
     7
 10
-28.377918999999999
 20
565.20939599999997
 30
0.0
 40
2.6000000000000001
 50
180.00000299999991
 51
0.000001
  0
ARC
  5
A5
  8
0
 62
     7
 10
-28.377918999999999
 20
565.20939599999997
 30
0.0
 40
1.8
 50
180.00000299999991
 51
0.000001
  0
LINE
  5
A6
  8
0
 62
     7
 10
-26.577919999999999
 20
565.20939599999997
 30
0.0
 11
-26.577919999999999
 21
565.70939599999997
 31
0.0
  0
LINE
  5
A7
  8
0
 62
     7
 10
-25.777919000000001
 20
565.20939599999997
 30
0.0
 11
-25.777919000000001
 21
565.70939599999997
 31
0.0
  0
LINE
  5
A8
  8
0
 62
     7
 10
-30.17792
 20
565.20939599999997
 30
0.0
 11
-30.17792
 21
565.70939599999997
 31
0.0
  0
LINE
  5
A9
  8
0
 62
     7
 10
-30.977920000000001
 20
565.20939599999997
 30
0.0
 11
-30.977920000000001
 21
565.70939599999997
 31
0.0
  0
LINE
  5
AA
  8
0
 62
     7
 10
-24.977920000000001
 20
562.60939599999995
 30
0.0
 11
-24.977920000000001
 21
568.30939699999988
 31
0.0
  0
LINE
  5
AB
  8
0
 62
     7
 10
-24.17792
 20
562.60939599999995
 30
0.0
 11
-24.17792
 21
566.10939599999995
 31
0.0
  0
LINE
  5
AC
  8
0
 62
     7
 10
-21.377918999999991
 20
562.60939599999995
 30
0.0
 11
-21.377918999999991
 21
566.10939599999995
 31
0.0
  0
LINE
  5
AD
  8
0
 62
     7
 10
-20.577919999999999
 20
562.60939599999995
 30
0.0
 11
-20.577919999999999
 21
566.30939699999999
 31
0.0
  0
LINE
  5
AE
  8
0
 62
     7
 10
-24.17792
 20
568.30939699999988
 30
0.0
 11
-24.977920000000001
 21
568.30939699999988
 31
0.0
  0
ARC
  5
AF
  8
0
 62
     7
 10
-22.77791899999999
 20
566.10939599999995
 30
0.0
 40
1.399999999999999
 50
0.000001
 51
180.00000299999991
  0
LINE
  5
B0
  8
0
 62
     7
 10
-24.17792
 20
567.50939600000004
 30
0.0
 11
-24.17792
 21
568.30939699999988
 31
0.0
  0
ARC
  5
B1
  8
0
 62
     7
 10
-22.577919999999999
 20
566.30939699999999
 30
0.0
 40
2.0
 50
0.000001
 51
143.13010199999999
  0
LINE
  5
B2
  8
0
 62
     7
 10
-20.577919999999999
 20
562.60939599999995
 30
0.0
 11
-21.377918999999991
 21
562.60939599999995
 31
0.0
  0
LINE
  5
B3
  8
0
 62
     7
 10
-67.627943999999999
 20
643.20940199999995
 30
0.0
 11
-67.627943999999999
 21
646.20940199999995
 31
0.0
  0
LINE
  5
B4
  8
0
 62
     7
 10
-64.127944999999997
 20
643.20940199999995
 30
0.0
 11
-64.127944999999997
 21
646.20940199999995
 31
0.0
  0
LINE
  5
B5
  8
0
 62
     7
 10
-68.377943999999985
 20
639.70940199999995
 30
0.0
 11
-68.377943999999985
 21
643.20940199999995
 31
0.0
  0
LINE
  5
B6
  8
0
 62
     7
 10
-63.377944999999997
 20
639.70940199999995
 30
0.0
 11
-63.377944999999997
 21
643.20940199999995
 31
0.0
  0
LINE
  5
B7
  8
0
 62
     7
 10
-63.377944999999997
 20
643.20940199999995
 30
0.0
 11
-64.127944999999997
 21
643.20940199999995
 31
0.0
  0
LINE
  5
B8
  8
0
 62
     7
 10
-67.627943999999999
 20
643.20940199999995
 30
0.0
 11
-68.377943999999985
 21
643.20940199999995
 31
0.0
  0
LINE
  5
B9
  8
0
 62
     7
 10
-29.127875
 20
476.2094019999999
 30
0.0
 11
-29.127875
 21
478.45941699999997
 31
0.0
  0
LINE
  5
BA
  8
0
 62
     7
 10
-32.627873999999998
 20
476.2094019999999
 30
0.0
 11
-32.627873999999998
 21
478.45941699999997
 31
0.0
  0
LINE
  5
BB
  8
0
 62
     7
 10
-64.127944999999997
 20
476.2094019999999
 30
0.0
 11
-64.127944999999997
 21
478.45941699999997
 31
0.0
  0
LINE
  5
BC
  8
0
 62
     7
 10
-67.627943999999999
 20
476.2094019999999
 30
0.0
 11
-67.627943999999999
 21
478.45941699999997
 31
0.0
  0
LINE
  5
BD
  8
0
  6
DASHDOT
 62
     7
 10
-30.877925000000001
 20
477.2094019999999
 30
0.0
 11
-30.877925000000001
 21
498.91605900000002
 31
0.0
  0
LINE
  5
BE
  8
0
 62
     7
 10
-37.627909999999993
 20
542.83471699999996
 30
0.0
 11
-59.12791
 21
542.83471699999996
 31
0.0
  0
LINE
  5
BF
  8
0
 62
     7
 10
-37.627909999999993
 20
536.71825100000001
 30
0.0
 11
-59.12791
 21
536.71825100000001
 31
0.0
  0
LINE
  5
C0
  8
0
 62
     7
 10
-37.627909999999993
 20
530.77043299999991
 30
0.0
 11
-59.12791
 21
530.77043299999991
 31
0.0
  0
LINE
  5
C1
  8
0
 62
     7
 10
-37.627909999999993
 20
529.96768599999996
 30
0.0
 11
-59.12791
 21
529.96768599999996
 31
0.0
  0
LINE
  5
C2
  8
0
  6
DASHDOT
 62
     7
 10
31.203320999999999
 20
558.95941200000004
 30
0.0
 11
-137.84758299999999
 21
558.95941200000004
 31
0.0
  0
LINE
  5
C3
  8
0
  6
DASHDOT
 62
     7
 10
-156.2513909999999
 20
558.95941200000004
 30
0.0
 11
-176.35925599999999
 21
558.95941200000004
 31
0.0
  0
LINE
  5
C4
  8
0
 62
     2
 10
-1.8779399999999999
 20
473.7094019999999
 30
0.0
 11
-1.8779399999999999
 21
476.2094019999999
 31
0.0
  0
LINE
  5
C5
  8
0
 62
     2
 10
-94.877939999999995
 20
473.7094019999999
 30
0.0
 11
-94.877939999999995
 21
476.2094019999999
 31
0.0
  0
LINE
  5
C6
  8
0
 62
     2
 10
-1.8779399999999999
 20
473.7094019999999
 30
0.0
 11
-94.877939999999995
 21
473.7094019999999
 31
0.0
  0
LINE
  5
C7
  8
0
  6
DASHDOT
 62
     2
 10
-48.377940000000002
 20
625.43577400000004
 30
0.0
 11
-48.377940000000002
 21
648.34335099999998
 31
0.0
  0
LINE
  5
C8
  8
0
 62
     1
 10
-71.377943999999999
 20
646.20940199999995
 30
0.0
 11
-71.377943999999999
 21
648.70940199999995
 31
0.0
  0
LINE
  5
C9
  8
0
 62
     1
 10
-67.377943999999999
 20
643.40940699999999
 30
0.0
 11
-68.127943999999999
 21
643.40940699999999
 31
0.0
  0
LINE
  5
CA
  8
0
 62
     1
 10
-68.127943999999999
 20
640.20940199999995
 30
0.0
 11
-68.127943999999999
 21
643.40940699999999
 31
0.0
  0
LINE
  5
CB
  8
0
 62
     1
 10
-63.62794499999999
 20
640.20940199999995
 30
0.0
 11
-68.127943999999999
 21
640.20940199999995
 31
0.0
  0
LINE
  5
CC
  8
0
 62
     1
 10
-63.62794499999999
 20
640.20940199999995
 30
0.0
 11
-63.62794499999999
 21
643.40940699999999
 31
0.0
  0
LINE
  5
CD
  8
0
 62
     1
 10
-63.62794499999999
 20
643.40940699999999
 30
0.0
 11
-64.377943999999999
 21
643.40940699999999
 31
0.0
  0
LINE
  5
CE
  8
0
 62
     1
 10
-64.377943999999999
 20
643.40940699999999
 30
0.0
 11
-64.377943999999999
 21
648.70940199999995
 31
0.0
  0
LINE
  5
CF
  8
0
 62
     1
 10
-67.377943999999999
 20
643.40940699999999
 30
0.0
 11
-67.377943999999999
 21
648.70940199999995
 31
0.0
  0
LINE
  5
D0
  8
0
 62
     1
 10
-67.377943999999999
 20
642.40940699999987
 30
0.0
 11
-67.377943999999999
 21
643.40940699999999
 31
0.0
  0
LINE
  5
D1
  8
0
 62
     1
 10
-64.377943999999999
 20
642.40940699999987
 30
0.0
 11
-64.377943999999999
 21
643.40940699999999
 31
0.0
  0
LINE
  5
D2
  8
0
 62
     1
 10
-67.377943999999999
 20
642.40940699999987
 30
0.0
 11
-68.127943999999999
 21
642.40940699999987
 31
0.0
  0
LINE
  5
D3
  8
0
 62
     1
 10
-63.62794499999999
 20
642.40940699999987
 30
0.0
 11
-64.377943999999999
 21
642.40940699999987
 31
0.0
  0
LINE
  5
D4
  8
0
 62
     3
 10
2.872071
 20
648.70940199999995
 30
0.0
 11
-60.258631999999992
 21
648.70940199999995
 31
0.0
  0
LINE
  5
D5
  8
0
 62
     3
 10
4.1221249999999987
 20
639.45940999999993
 30
0.0
 11
4.1221249999999987
 21
647.45929499999988
 31
0.0
  0
LINE
  5
D6
  8
0
 62
     3
 10
3.7559599999999991
 20
648.34329000000002
 30
0.0
 11
2.8720789999999998
 21
648.70940999999993
 31
0.0
  0
LINE
  5
D7
  8
0
 62
     3
 10
4.1220749999999988
 20
647.45941700000003
 30
0.0
 11
3.755955999999999
 21
648.34329799999989
 31
0.0
  0
LINE
  5
D8
  8
0
 62
     3
 10
1.7720729999999989
 20
639.45940999999993
 30
0.0
 11
1.7720729999999989
 21
648.39874799999996
 31
0.0
  0
LINE
  5
D9
  8
0
 62
     3
 10
-1.8279259999999991
 20
639.45940999999993
 30
0.0
 11
-1.8279259999999991
 21
648.39874799999996
 31
0.0
  0
LINE
  5
DA
  8
0
 62
     3
 10
-5.4279239999999991
 20
639.45940999999993
 30
0.0
 11
-5.4279239999999991
 21
648.39874799999996
 31
0.0
  0
LINE
  5
DB
  8
0
 62
     3
 10
-9.0279229999999995
 20
639.45940999999993
 30
0.0
 11
-9.0279229999999995
 21
648.39874799999996
 31
0.0
  0
LINE
  5
DC
  8
0
 62
     3
 10
-12.627928999999989
 20
639.45940999999993
 30
0.0
 11
-12.627928999999989
 21
648.39874799999996
 31
0.0
  0
LINE
  5
DD
  8
0
 62
     3
 10
-16.22792699999999
 20
639.45940999999993
 30
0.0
 11
-16.22792699999999
 21
648.39874799999996
 31
0.0
  0
LINE
  5
DE
  8
0
 62
     3
 10
-19.827923999999999
 20
639.45940999999993
 30
0.0
 11
-19.827923999999999
 21
648.39874799999996
 31
0.0
  0
LINE
  5
DF
  8
0
 62
     3
 10
-23.427921999999992
 20
639.45940999999993
 30
0.0
 11
-23.427921999999992
 21
648.39874799999996
 31
0.0
  0
LINE
  5
E0
  8
0
 62
     3
 10
-27.027920999999999
 20
639.45940999999993
 30
0.0
 11
-27.027920999999999
 21
648.39874799999996
 31
0.0
  0
LINE
  5
E1
  8
0
 62
     3
 10
-30.627927
 20
639.45940999999993
 30
0.0
 11
-30.627927
 21
648.39874799999996
 31
0.0
  0
LINE
  5
E2
  8
0
 62
     3
 10
-34.227925999999997
 20
639.45940999999993
 30
0.0
 11
-34.227925999999997
 21
648.39874799999996
 31
0.0
  0
LINE
  5
E3
  8
0
 62
     3
 10
-37.827925
 20
639.45940999999993
 30
0.0
 11
-37.827925
 21
648.39874799999996
 31
0.0
  0
LINE
  5
E4
  8
0
 62
     3
 10
-41.427922999999993
 20
639.45940999999993
 30
0.0
 11
-41.427922999999993
 21
648.39874799999996
 31
0.0
  0
LINE
  5
E5
  8
0
 62
     3
 10
-45.027925000000003
 20
639.45940999999993
 30
0.0
 11
-45.027925000000003
 21
648.39874799999996
 31
0.0
  0
LINE
  5
E6
  8
0
 62
     3
 10
-48.627924
 20
639.45940999999993
 30
0.0
 11
-48.627924
 21
648.39874799999996
 31
0.0
  0
LINE
  5
E7
  8
0
 62
     3
 10
-52.227922
 20
639.45940999999993
 30
0.0
 11
-52.227922
 21
648.39874799999996
 31
0.0
  0
LINE
  5
E8
  8
0
 62
     3
 10
-55.827925
 20
639.45940999999993
 30
0.0
 11
-55.827925
 21
648.39874799999996
 31
0.0
  0
LINE
  5
E9
  8
0
 62
     3
 10
-59.427923
 20
639.45940999999993
 30
0.0
 11
-59.427923
 21
648.39874799999996
 31
0.0
  0
POLYLINE
  5
EA
  8
0
 62
     3
 66
     1
 10
0.0
 20
0.0
 30
0.0
  0
VERTEX
  5
8A5
  8
0
 62
     3
 10
-60.258467000000003
 20
648.70936399999994
 30
0.0
  0
VERTEX
  5
8A6
  8
0
 62
     3
 10
-60.341943999999991
 20
648.644407
 30
0.0
  0
VERTEX
  5
8A7
  8
0
 62
     3
 10
-60.42312299999999
 20
648.57868799999994
 30
0.0
  0
VERTEX
  5
8A8
  8
0
 62
     3
 10
-60.50104799999999
 20
648.51303700000005
 30
0.0
  0
VERTEX
  5
8A9
  8
0
 62
     3
 10
-60.576731999999993
 20
648.44663800000001
 30
0.0
  0
VERTEX
  5
8AA
  8
0
 62
     3
 10
-60.649372999999997
 20
648.38024699999994
 30
0.0
  0
VERTEX
  5
8AB
  8
0
 62
     3
 10
-60.719828
 20
648.313131
 30
0.0
  0
VERTEX
  5
8AC
  8
0
 62
     3
 10
-60.787444999999991
 20
648.24596199999996
 30
0.0
  0
VERTEX
  5
8AD
  8
0
 62
     3
 10
-60.852924000000002
 20
648.17809099999999
 30
0.0
  0
VERTEX
  5
8AE
  8
0
 62
     3
 10
-60.915761000000003
 20
648.11007500000005
 30
0.0
  0
VERTEX
  5
8AF
  8
0
 62
     3
 10
-60.976506000000008
 20
648.04137200000002
 30
0.0
  0
VERTEX
  5
8B0
  8
0
 62
     3
 10
-61.034791000000013
 20
647.97243300000002
 30
0.0
  0
VERTEX
  5
8B1
  8
0
 62
     3
 10
-61.091025999999992
 20
647.90281500000003
 30
0.0
  0
VERTEX
  5
8B2
  8
0
 62
     3
 10
-61.144973
 20
647.83286099999998
 30
0.0
  0
VERTEX
  5
8B3
  8
0
 62
     3
 10
-61.196907999999993
 20
647.76223600000003
 30
0.0
  0
VERTEX
  5
8B4
  8
0
 62
     3
 10
-61.246710999999998
 20
647.69113700000003
 30
0.0
  0
VERTEX
  5
8B5
  8
0
 62
     3
 10
-61.294538000000003
 20
647.61939000000007
 30
0.0
  0
VERTEX
  5
8B6
  8
0
 62
     3
 10
-61.384267000000001
 20
647.47400500000003
 30
0.0
  0
VERTEX
  5
8B7
  8
0
 62
     3
 10
-61.466413000000003
 20
647.32577300000003
 30
0.0
  0
VERTEX
  5
8B8
  8
0
 62
     3
 10
-61.541255000000007
 20
647.17432199999985
 30
0.0
  0
VERTEX
  5
8B9
  8
0
 62
     3
 10
-61.609032999999997
 20
647.01921600000003
 30
0.0
  0
VERTEX
  5
8BA
  8
0
 62
     3
 10
-61.669949000000003
 20
646.85997599999996
 30
0.0
  0
VERTEX
  5
8BB
  8
0
 62
     3
 10
-61.724169999999987
 20
646.6960049999999
 30
0.0
  0
VERTEX
  5
8BC
  8
0
 62
     3
 10
-61.771822
 20
646.52662499999985
 30
0.0
  0
VERTEX
  5
8BD
  8
0
 62
     3
 10
-61.812998
 20
646.35100399999999
 30
0.0
  0
VERTEX
  5
8BE
  8
0
 62
     3
 10
-61.847749
 20
646.16811199999995
 30
0.0
  0
VERTEX
  5
8BF
  8
0
 62
     3
 10
-61.876090000000012
 20
645.97664399999996
 30
0.0
  0
VERTEX
  5
8C0
  8
0
 62
     3
 10
-61.897993999999997
 20
645.77489999999989
 30
0.0
  0
VERTEX
  5
8C1
  8
0
 62
     3
 10
-61.903227000000001
 20
645.71296500000005
 30
0.0
  0
VERTEX
  5
8C2
  8
0
 62
     3
 10
-61.916671000000001
 20
645.4942299999999
 30
0.0
  0
VERTEX
  5
8C3
  8
0
 62
     3
 10
-61.923405000000002
 20
645.25800900000002
 30
0.0
  0
VERTEX
  5
8C4
  8
0
 62
     3
 10
-61.92312900000001
 20
644.99803699999995
 30
0.0
  0
VERTEX
  5
8C5
  8
0
 62
     3
 10
-61.915284
 20
644.70299299999999
 30
0.0
  0
VERTEX
  5
8C6
  8
0
 62
     3
 10
-61.898623000000001
 20
644.34737199999995
 30
0.0
  0
VERTEX
  5
8C7
  8
0
 62
     3
 10
-61.868775999999997
 20
643.83589699999993
 30
0.0
  0
VERTEX
  5
8C8
  8
0
 62
     3
 10
-61.848016000000001
 20
643.45103300000005
 30
0.0
  0
VERTEX
  5
8C9
  8
0
 62
     3
 10
-61.833930000000002
 20
643.06542799999988
 30
0.0
  0
VERTEX
  5
8CA
  8
0
 62
     3
 10
-61.831111
 20
642.90306699999985
 30
0.0
  0
VERTEX
  5
8CB
  8
0
 62
     3
 10
-61.830621999999998
 20
642.74094200000002
 30
0.0
  0
VERTEX
  5
8CC
  8
0
 62
     3
 10
-61.832332000000001
 20
642.60019499999987
 30
0.0
  0
VERTEX
  5
8CD
  8
0
 62
     3
 10
-61.836238000000002
 20
642.45977600000003
 30
0.0
  0
VERTEX
  5
8CE
  8
0
 62
     3
 10
-61.841884999999998
 20
642.33181599999989
 30
0.0
  0
VERTEX
  5
8CF
  8
0
 62
     3
 10
-61.849656000000003
 20
642.20423700000003
 30
0.0
  0
VERTEX
  5
8D0
  8
0
 62
     3
 10
-61.858980000000003
 20
642.08508099999995
 30
0.0
  0
VERTEX
  5
8D1
  8
0
 62
     3
 10
-61.870381000000009
 20
641.96635199999992
 30
0.0
  0
VERTEX
  5
8D2
  8
0
 62
     3
 10
-61.883251999999999
 20
641.85372699999994
 30
0.0
  0
VERTEX
  5
8D3
  8
0
 62
     3
 10
-61.898162999999997
 20
641.74155999999994
 30
0.0
  0
VERTEX
  5
8D4
  8
0
 62
     3
 10
-61.914515999999999
 20
641.63398499999994
 30
0.0
  0
VERTEX
  5
8D5
  8
0
 62
     3
 10
-61.932878000000002
 20
641.52689199999986
 30
0.0
  0
VERTEX
  5
8D6
  8
0
 62
     3
 10
-61.952695999999989
 20
641.423315
 30
0.0
  0
VERTEX
  5
8D7
  8
0
 62
     3
 10
-61.974494999999997
 20
641.32024999999987
 30
0.0
  0
VERTEX
  5
8D8
  8
0
 62
     3
 10
-61.997793999999992
 20
641.21986200000003
 30
0.0
  0
VERTEX
  5
8D9
  8
0
 62
     3
 10
-62.023049999999991
 20
641.12002399999994
 30
0.0
  0
VERTEX
  5
8DA
  8
0
 62
     3
 10
-62.049881000000013
 20
641.02216900000008
 30
0.0
  0
VERTEX
  5
8DB
  8
0
 62
     3
 10
-62.078645999999999
 20
640.92489399999999
 30
0.0
  0
VERTEX
  5
8DC
  8
0
 62
     3
 10
-62.109091000000006
 20
640.82903099999987
 30
0.0
  0
VERTEX
  5
8DD
  8
0
 62
     3
 10
-62.141446999999999
 20
640.73377000000005
 30
0.0
  0
VERTEX
  5
8DE
  8
0
 62
     3
 10
-62.211689999999997
 20
640.54563700000006
 30
0.0
  0
VERTEX
  5
8DF
  8
0
 62
     3
 10
-62.289693000000007
 20
640.35954900000002
 30
0.0
  0
VERTEX
  5
8E0
  8
0
 62
     3
 10
-62.375877000000003
 20
640.17452000000003
 30
0.0
  0
VERTEX
  5
8E1
  8
0
 62
     3
 10
-62.470801999999999
 20
639.98951499999987
 30
0.0
  0
VERTEX
  5
8E2
  8
0
 62
     3
 10
-62.575226999999998
 20
639.80329699999993
 30
0.0
  0
VERTEX
  5
8E3
  8
0
 62
     3
 10
-62.690218000000002
 20
639.61427100000003
 30
0.0
  0
VERTEX
  5
8E4
  8
0
 62
     3
 10
-62.790669000000001
 20
639.45987500000001
 30
0.0
  0
SEQEND
  5
8E5
  8
0
 62
     3
  0
CIRCLE
  5
12C
  8
0
  6
DASHSPACE
 62
     7
 10
-48.377940000000002
 20
633.70939399999997
 30
0.0
 40
5.5000010000000001
  0
CIRCLE
  5
12D
  8
0
  6
DASHSPACE
 62
     7
 10
-13.37793999999999
 20
633.70939399999997
 30
0.0
 40
5.5000010000000001
  0
LINE
  5
12E
  8
0
  6
DASHDOT
 62
     7
 10
-13.37793999999999
 20
625.20939399999997
 30
0.0
 11
-13.37793999999999
 21
642.20939399999997
 31
0.0
  0
LINE
  5
12F
  8
0
  6
DASHDOT
 62
     7
 10
-4.877936
 20
633.70939399999997
 30
0.0
 11
-21.877939999999992
 21
633.70939399999997
 31
0.0
  0
LINE
  5
130
  8
0
  6
DASHDOT
 62
     7
 10
-39.877938
 20
633.70939399999997
 30
0.0
 11
-56.877941
 21
633.70939399999997
 31
0.0
  0
LINE
  5
131
  8
0
 62
     7
 10
-93.377939999999995
 20
665.25935900000002
 30
0.0
 11
-113.377948
 21
685.20935599999996
 31
0.0
  0
LINE
  5
132
  8
0
 62
     7
 10
-113.377948
 20
685.20935599999996
 30
0.0
 11
-113.377948
 21
705.20934099999999
 31
0.0
  0
LINE
  5
133
  8
0
 62
     7
 10
-83.377943999999985
 20
685.20935599999996
 30
0.0
 11
-83.377943999999985
 21
705.20937200000003
 31
0.0
  0
LINE
  5
134
  8
0
 62
     7
 10
-73.377939999999995
 20
665.25933599999996
 30
0.0
 11
-83.377943999999985
 21
685.20946300000003
 31
0.0
  0
CIRCLE
  5
135
  8
0
 62
     7
 10
-98.377943999999985
 20
692.70935599999984
 30
0.0
 40
4.25
  0
LINE
  5
136
  8
0
 62
     7
 10
-93.377939999999995
 20
646.20940199999995
 30
0.0
 11
-93.377939999999995
 21
665.25935900000002
 31
0.0
  0
LINE
  5
137
  8
0
 62
     7
 10
-73.377939999999995
 20
646.20940199999995
 30
0.0
 11
-73.377939999999995
 21
665.25933599999996
 31
0.0
  0
LINE
  5
138
  8
0
 62
     7
 10
-74.629021999999992
 20
665.12400600000001
 30
0.0
 11
-91.792777000000001
 21
665.12400600000001
 31
0.0
  0
LINE
  5
139
  8
0
 62
     7
 10
-74.786007999999995
 20
655.79785000000004
 30
0.0
 11
-91.688120999999995
 21
655.79785000000004
 31
0.0
  0
LINE
  5
13A
  8
0
 62
     7
 10
-113.377948
 20
705.20934099999999
 30
0.0
 11
-83.377943999999985
 21
705.20937200000003
 31
0.0
  0
LINE
  5
13B
  8
0
 62
     7
 10
-23.377943999999989
 20
648.70940199999995
 30
0.0
 11
-23.377943999999989
 21
665.25935900000002
 31
0.0
  0
LINE
  5
13C
  8
0
 62
     7
 10
-3.3779439999999998
 20
648.70940199999995
 30
0.0
 11
-3.3779439999999998
 21
665.25935900000002
 31
0.0
  0
LINE
  5
13D
  8
0
 62
     7
 10
-4.786020999999999
 20
655.79785000000004
 30
0.0
 11
-21.688132
 21
655.79785000000004
 31
0.0
  0
LINE
  5
13E
  8
0
 62
     7
 10
-4.629035
 20
665.12400600000001
 30
0.0
 11
-21.792788999999999
 21
665.12400600000001
 31
0.0
  0
LINE
  5
13F
  8
0
 62
     7
 10
-23.377943999999989
 20
665.25935900000002
 30
0.0
 11
-13.37793999999999
 21
685.20935599999996
 31
0.0
  0
LINE
  5
140
  8
0
 62
     7
 10
-3.3779439999999998
 20
665.25935900000002
 30
0.0
 11
16.622060000000001
 21
685.20935599999996
 31
0.0
  0
LINE
  5
141
  8
0
 62
     7
 10
-13.37793999999999
 20
685.20935599999996
 30
0.0
 11
-13.37793999999999
 21
705.20937200000003
 31
0.0
  0
LINE
  5
142
  8
0
 62
     7
 10
16.622060000000001
 20
685.20935599999996
 30
0.0
 11
16.622060000000001
 21
705.20934099999999
 31
0.0
  0
LINE
  5
143
  8
0
 62
     7
 10
16.622060000000001
 20
705.20934099999999
 30
0.0
 11
-13.37793999999999
 21
705.20937200000003
 31
0.0
  0
CIRCLE
  5
144
  8
0
 62
     7
 10
1.6220600000000001
 20
692.70935599999984
 30
0.0
 40
4.25
  0
LINE
  5
145
  8
0
 62
     7
 10
-33.377955
 20
705.20935599999984
 30
0.0
 11
-63.377955000000007
 21
705.20935599999984
 31
0.0
  0
LINE
  5
146
  8
0
 62
     7
 10
-58.378
 20
648.70940199999995
 30
0.0
 11
-58.378
 21
665.20971500000007
 31
0.0
  0
LINE
  5
147
  8
0
 62
     7
 10
-38.378
 20
648.70940199999995
 30
0.0
 11
-38.378
 21
665.20935599999984
 31
0.0
  0
LINE
  5
148
  8
0
 62
     7
 10
-58.377912000000002
 20
665.20935599999984
 30
0.0
 11
-63.377955000000007
 21
685.20935599999996
 31
0.0
  0
LINE
  5
149
  8
0
 62
     7
 10
-38.378
 20
665.20935599999984
 30
0.0
 11
-33.377955
 21
685.20935599999996
 31
0.0
  0
LINE
  5
14A
  8
0
 62
     7
 10
-33.377955
 20
685.20935599999996
 30
0.0
 11
-33.377955
 21
705.20935599999984
 31
0.0
  0
LINE
  5
14B
  8
0
 62
     7
 10
-63.377955000000007
 20
685.20935599999996
 30
0.0
 11
-63.377955000000007
 21
705.20935599999984
 31
0.0
  0
CIRCLE
  5
14C
  8
0
 62
     7
 10
-48.37795599999999
 20
692.70935599999984
 30
0.0
 40
4.25
  0
LINE
  5
14D
  8
0
 62
     7
 10
-39.629089
 20
665.12400600000001
 30
0.0
 11
-56.792844000000002
 21
665.12400600000001
 31
0.0
  0
LINE
  5
14E
  8
0
 62
     7
 10
-39.78607499999999
 20
655.79785000000004
 30
0.0
 11
-56.688187999999997
 21
655.79785000000004
 31
0.0
  0
LINE
  5
14F
  8
0
 62
     1
 10
-25.377943999999999
 20
648.70940199999995
 30
0.0
 11
-25.377943999999999
 21
651.70940199999995
 31
0.0
  0
LINE
  5
150
  8
0
 62
     1
 10
-32.377944999999997
 20
651.70940199999995
 30
0.0
 11
-36.377944999999997
 21
651.70940199999995
 31
0.0
  0
LINE
  5
151
  8
0
 62
     1
 10
-25.377943999999999
 20
651.70940199999995
 30
0.0
 11
-29.377943999999989
 21
651.70940199999995
 31
0.0
  0
LINE
  5
152
  8
0
 62
     1
 10
-36.377944999999997
 20
648.70940199999995
 30
0.0
 11
-36.377944999999997
 21
651.70940199999995
 31
0.0
  0
LINE
  5
153
  8
0
 62
     1
 10
-25.377943999999999
 20
648.70940199999995
 30
0.0
 11
-36.377944999999997
 21
648.70940199999995
 31
0.0
  0
LINE
  5
154
  8
0
 62
     1
 10
-25.377943999999999
 20
649.70940199999995
 30
0.0
 11
-36.377944999999997
 21
649.70940199999995
 31
0.0
  0
LINE
  5
155
  8
0
 62
     1
 10
-29.377943999999989
 20
651.70940199999995
 30
0.0
 11
-29.377943999999989
 21
663.89247699999999
 31
0.0
  0
LINE
  5
156
  8
0
  6
DASHDOT
 62
     7
 10
-30.877943999999989
 20
645.58462299999997
 30
0.0
 11
-30.877943999999989
 21
662.42711399999985
 31
0.0
  0
LINE
  5
157
  8
0
 62
     1
 10
-29.377943999999989
 20
663.89247699999999
 30
0.0
 11
-19.178785999999992
 21
681.23103900000001
 31
0.0
  0
LINE
  5
158
  8
0
 62
     1
 10
-32.377944999999997
 20
664.70940199999995
 30
0.0
 11
-22.208148000000001
 21
681.99805300000003
 31
0.0
  0
LINE
  5
159
  8
0
 62
     1
 10
-32.377944999999997
 20
651.70940199999995
 30
0.0
 11
-32.377944999999997
 21
664.70940199999995
 31
0.0
  0
LINE
  5
15A
  8
0
 62
     1
 10
-22.208148000000001
 20
681.99805300000003
 30
0.0
 11
-22.067972999999999
 21
748.01897199999985
 31
0.0
  0
LINE
  5
15B
  8
0
 62
     1
 10
-20.877542999999989
 20
766.70940199999995
 30
0.0
 11
-22.025850999999989
 21
767.85771699999987
 31
0.0
  0
LINE
  5
15C
  8
0
 62
     1
 10
-22.030737999999989
 20
765.55620399999987
 30
0.0
 11
-20.877542999999989
 21
766.70940199999995
 31
0.0
  0
LINE
  5
15D
  8
0
 62
     1
 10
-19.556826999999991
 20
765.88869299999999
 30
0.0
 11
-20.377542999999999
 21
766.70940199999995
 31
0.0
  0
LINE
  5
15E
  8
0
 62
     1
 10
-20.377542999999999
 20
766.70940199999995
 30
0.0
 11
-19.564123999999989
 21
767.52281799999992
 31
0.0
  0
LINE
  5
15F
  8
0
 62
     1
 10
-71.377875000000003
 20
648.70940199999995
 30
0.0
 11
-71.377875000000003
 21
651.70940199999995
 31
0.0
  0
LINE
  5
160
  8
0
 62
     1
 10
-60.377873999999998
 20
651.70940199999995
 30
0.0
 11
-64.377874000000006
 21
651.70940199999995
 31
0.0
  0
LINE
  5
161
  8
0
 62
     1
 10
-67.377875000000003
 20
651.70940199999995
 30
0.0
 11
-71.377875000000003
 21
651.70940199999995
 31
0.0
  0
LINE
  5
162
  8
0
 62
     1
 10
-60.377873999999998
 20
648.70940199999995
 30
0.0
 11
-60.377873999999998
 21
651.70940199999995
 31
0.0
  0
LINE
  5
163
  8
0
 62
     1
 10
-60.377873999999998
 20
648.70940199999995
 30
0.0
 11
-71.377875000000003
 21
648.70940199999995
 31
0.0
  0
LINE
  5
164
  8
0
 62
     1
 10
-60.377873999999998
 20
649.70940199999995
 30
0.0
 11
-71.377875000000003
 21
649.70940199999995
 31
0.0
  0
LINE
  5
165
  8
0
 62
     1
 10
-67.377875000000003
 20
651.70940199999995
 30
0.0
 11
-67.377875000000003
 21
663.89247699999999
 31
0.0
  0
LINE
  5
166
  8
0
  6
DASHDOT
 62
     7
 10
-65.877875000000003
 20
645.58462299999997
 30
0.0
 11
-65.877875000000003
 21
662.42711399999985
 31
0.0
  0
LINE
  5
167
  8
0
 62
     1
 10
-67.377875000000003
 20
663.89247699999999
 30
0.0
 11
-77.577033
 21
681.23103900000001
 31
0.0
  0
LINE
  5
168
  8
0
 62
     1
 10
-64.377874000000006
 20
664.70940199999995
 30
0.0
 11
-74.547670999999994
 21
681.99805300000003
 31
0.0
  0
LINE
  5
169
  8
0
 62
     1
 10
-64.377874000000006
 20
651.70940199999995
 30
0.0
 11
-64.377874000000006
 21
664.70940199999995
 31
0.0
  0
LINE
  5
16A
  8
0
 62
     1
 10
-74.547670999999994
 20
681.99805300000003
 30
0.0
 11
-74.687845999999993
 21
748.01897199999985
 31
0.0
  0
LINE
  5
16B
  8
0
 62
     1
 10
-77.577033
 20
681.23103900000001
 30
0.0
 11
-77.27749
 21
748.31018600000004
 31
0.0
  0
LINE
  5
16C
  8
0
 62
     1
 10
-75.878276
 20
766.70940199999995
 30
0.0
 11
-74.729968
 21
767.85771699999987
 31
0.0
  0
LINE
  5
16D
  8
0
 62
     1
 10
-74.725081000000003
 20
765.55620399999987
 30
0.0
 11
-75.878276
 21
766.70940199999995
 31
0.0
  0
LINE
  5
16E
  8
0
 62
     1
 10
-77.198993000000002
 20
765.88869299999999
 30
0.0
 11
-76.378276
 21
766.70940199999995
 31
0.0
  0
LINE
  5
16F
  8
0
 62
     1
 10
-76.378276
 20
766.70940199999995
 30
0.0
 11
-77.191694999999996
 21
767.52281799999992
 31
0.0
  0
LINE
  5
170
  8
0
 62
     1
 10
-76.378276
 20
749.20940199999995
 30
0.0
 11
-77.269493999999995
 21
750.10062199999993
 31
0.0
  0
LINE
  5
171
  8
0
 62
     1
 10
-77.27749
 20
748.31018600000004
 30
0.0
 11
-76.378276
 21
749.20940199999995
 31
0.0
  0
LINE
  5
172
  8
0
 62
     1
 10
-75.878276
 20
749.20940199999995
 30
0.0
 11
-74.692891000000003
 21
750.39479600000004
 31
0.0
  0
LINE
  5
173
  8
0
 62
     1
 10
-74.687845999999993
 20
748.01897199999985
 30
0.0
 11
-75.878276
 21
749.20940199999995
 31
0.0
  0
LINE
  5
174
  8
0
 62
     1
 10
-20.877542999999989
 20
749.20940199999995
 30
0.0
 11
-22.062927999999989
 21
750.39479600000004
 31
0.0
  0
LINE
  5
175
  8
0
 62
     1
 10
-22.067972999999999
 20
748.01897199999985
 30
0.0
 11
-20.877542999999989
 21
749.20940199999995
 31
0.0
  0
LINE
  5
176
  8
0
 62
     1
 10
-20.377542999999999
 20
749.20940199999995
 30
0.0
 11
-19.486325000000001
 21
750.10062199999993
 31
0.0
  0
LINE
  5
177
  8
0
 62
     1
 10
-19.47833
 20
748.31018600000004
 30
0.0
 11
-20.377542999999999
 21
749.20940199999995
 31
0.0
  0
LINE
  5
178
  8
0
  6
DASHDOT
 62
     7
 10
-98.377943999999985
 20
686.45935599999984
 30
0.0
 11
-98.377943999999985
 21
698.95935599999984
 31
0.0
  0
LINE
  5
179
  8
0
  6
DASHDOT
 62
     7
 10
-92.127943999999985
 20
692.70935599999984
 30
0.0
 11
-104.6279439999999
 21
692.70935599999984
 31
0.0
  0
LINE
  5
17A
  8
0
  6
DASHDOT
 62
     7
 10
-48.37795599999999
 20
653.15011399999992
 30
0.0
 11
-48.37795599999999
 21
717.587988
 31
0.0
  0
LINE
  5
17B
  8
0
  6
DASHDOT
 62
     7
 10
-42.12795599999999
 20
692.70935599999984
 30
0.0
 11
-54.627955999999998
 21
692.70935599999984
 31
0.0
  0
LINE
  5
17C
  8
0
  6
DASHDOT
 62
     7
 10
1.6220600000000001
 20
686.45935599999984
 30
0.0
 11
1.6220600000000001
 21
698.95935599999984
 31
0.0
  0
LINE
  5
17D
  8
0
  6
DASHDOT
 62
     7
 10
7.8720559999999988
 20
692.70935599999984
 30
0.0
 11
-4.6279399999999988
 21
692.70935599999984
 31
0.0
  0
LINE
  5
17E
  8
0
 62
     1
 10
-75.878276
 20
803.70940199999995
 30
0.0
 11
-76.378276
 21
803.70940199999995
 31
0.0
  0
LINE
  5
17F
  8
0
 62
     1
 10
-74.803806999999992
 20
802.63493900000003
 30
0.0
 11
-75.878276
 21
803.70940199999995
 31
0.0
  0
LINE
  5
180
  8
0
 62
     1
 10
-77.033028999999999
 20
803.05464699999993
 30
0.0
 11
-76.378276
 21
803.70940199999995
 31
0.0
  0
LINE
  5
181
  8
0
 62
     1
 10
-77.191694999999996
 20
767.52281799999992
 30
0.0
 11
-77.033028999999999
 21
803.05464699999993
 31
0.0
  0
LINE
  5
182
  8
0
 62
     1
 10
-74.729968
 20
767.85771699999987
 30
0.0
 11
-74.803806999999992
 21
802.63493900000003
 31
0.0
  0
LINE
  5
183
  8
0
 62
     1
 10
-77.269493999999995
 20
750.10062199999993
 30
0.0
 11
-77.198993000000002
 21
765.88869299999999
 31
0.0
  0
LINE
  5
184
  8
0
 62
     1
 10
-74.692891000000003
 20
750.39479600000004
 30
0.0
 11
-74.725081000000003
 21
765.55620399999987
 31
0.0
  0
LINE
  5
185
  8
0
 62
     1
 10
-21.952012
 20
802.63493900000003
 30
0.0
 11
-20.877542999999989
 21
803.70940199999995
 31
0.0
  0
LINE
  5
186
  8
0
 62
     1
 10
-19.178785999999992
 20
681.23103900000001
 30
0.0
 11
-19.47833
 21
748.31018600000004
 31
0.0
  0
LINE
  5
187
  8
0
 62
     1
 10
-19.722791000000001
 20
803.05464699999993
 30
0.0
 11
-20.377542999999999
 21
803.70940199999995
 31
0.0
  0
LINE
  5
188
  8
0
 62
     1
 10
-19.564123999999989
 20
767.52281799999992
 30
0.0
 11
-19.722791000000001
 21
803.05464699999993
 31
0.0
  0
LINE
  5
189
  8
0
 62
     1
 10
-22.025850999999989
 20
767.85771699999987
 30
0.0
 11
-21.952012
 21
802.63493900000003
 31
0.0
  0
LINE
  5
18A
  8
0
 62
     1
 10
-22.062927999999989
 20
750.39479600000004
 30
0.0
 11
-22.030737999999989
 21
765.55620399999987
 31
0.0
  0
LINE
  5
18B
  8
0
 62
     1
 10
-19.486325000000001
 20
750.10062199999993
 30
0.0
 11
-19.556826999999991
 21
765.88869299999999
 31
0.0
  0
LINE
  5
18C
  8
0
 62
     1
 10
-20.377542999999999
 20
803.70940199999995
 30
0.0
 11
-20.877542999999989
 21
803.70940199999995
 31
0.0
  0
LINE
  5
18D
  8
0
 62
     7
 10
-143.7384439999999
 20
476.20941699999997
 30
0.0
 11
-142.69655900000001
 21
482.11826100000002
 31
0.0
  0
LINE
  5
18E
  8
0
 62
     7
 10
-143.7384439999999
 20
476.20941699999997
 30
0.0
 11
-144.78032999999991
 21
482.11826100000002
 31
0.0
  0
LINE
  5
18F
  8
0
 62
     7
 10
-143.73845199999991
 20
646.20941700000003
 30
0.0
 11
-144.780337
 21
640.30056599999989
 31
0.0
  0
LINE
  5
190
  8
0
 62
     7
 10
-143.73845199999991
 20
646.20941700000003
 30
0.0
 11
-142.696551
 21
640.30056599999989
 31
0.0
  0
LINE
  5
191
  8
0
 62
     7
 10
-143.7384439999999
 20
476.20941699999997
 30
0.0
 11
-143.73845199999991
 21
646.20941700000003
 31
0.0
  0
LINE
  5
192
  8
0
 62
     7
 10
-147.7384439999999
 20
476.20941699999997
 30
0.0
 11
-97.377943999999999
 21
476.20941699999997
 31
0.0
  0
LINE
  5
193
  8
0
 62
     7
 10
-147.738452
 20
646.20941700000003
 30
0.0
 11
-97.377943999999999
 21
646.20941700000003
 31
0.0
  0
LINE
  5
194
  8
0
 62
     3
 10
269.011909
 20
479.0094299999999
 30
0.0
 11
291.29980499999999
 21
479.0094299999999
 31
0.0
  0
LINE
  5
195
  8
0
 62
     7
 10
219.2998069999999
 20
476.20942699999989
 30
0.0
 11
219.2998069999999
 21
516.5036429999999
 31
0.0
  0
LINE
  5
196
  8
0
 62
     7
 10
219.2998069999999
 20
516.50361599999985
 30
0.0
 11
219.2998069999999
 21
646.20939599999986
 31
0.0
  0
LINE
  5
197
  8
0
  6
DASHDOT
 62
     7
 10
217.2998069999999
 20
465.37995899999999
 30
0.0
 11
217.2998069999999
 21
656.23771699999986
 31
0.0
  0
LINE
  5
198
  8
0
 62
     7
 10
217.2998069999999
 20
635.53901699999994
 30
0.0
 11
217.2998069999999
 21
635.70938100000001
 31
0.0
  0
LINE
  5
199
  8
0
 62
     7
 10
287.79978199999999
 20
583.45940800000005
 30
0.0
 11
287.79980499999999
 21
575.209385
 31
0.0
  0
LINE
  5
19A
  8
0
 62
     7
 10
290.29974399999992
 20
629.70940399999995
 30
0.0
 11
291.00686599999989
 21
630.00229599999989
 31
0.0
  0
LINE
  5
19B
  8
0
 62
     7
 10
291.00688199999991
 20
630.00227400000006
 30
0.0
 11
291.29977400000001
 21
630.70938100000001
 31
0.0
  0
LINE
  5
19C
  8
0
 62
     7
 10
287.79978899999998
 20
622.70941200000004
 30
0.0
 11
287.79980499999999
 21
629.70941200000004
 31
0.0
  0
LINE
  5
19D
  8
0
 62
     7
 10
287.79980499999999
 20
629.70941200000004
 30
0.0
 11
290.2997739999999
 21
629.70941200000004
 31
0.0
  0
LINE
  5
19E
  8
0
 62
     7
 10
287.79978899999998
 20
583.45941200000004
 30
0.0
 11
287.79978899999998
 21
622.70941200000004
 31
0.0
  0
LINE
  5
19F
  8
0
 62
     7
 10
283.29980499999999
 20
532.70941200000004
 30
0.0
 11
283.29980499999999
 21
573.20941200000004
 31
0.0
  0
LINE
  5
1A0
  8
0
 62
     7
 10
283.29983499999997
 20
573.20946700000002
 30
0.0
 11
283.56777999999991
 21
574.20946700000002
 31
0.0
  0
LINE
  5
1A1
  8
0
 62
     7
 10
283.56781799999999
 20
574.20950500000004
 30
0.0
 11
284.29985799999997
 21
574.94156099999987
 31
0.0
  0
LINE
  5
1A2
  8
0
 62
     7
 10
284.2997509999999
 20
574.94144100000005
 30
0.0
 11
285.29976699999992
 21
575.209385
 31
0.0
  0
LINE
  5
1A3
  8
0
 62
     7
 10
283.29980499999999
 20
532.70941200000004
 30
0.0
 11
291.29980499999999
 21
532.70941200000004
 31
0.0
  0
LINE
  5
1A4
  8
0
 62
     7
 10
290.29969
 20
518.70939800000008
 30
0.0
 11
291.29976699999992
 21
517.70939800000008
 31
0.0
  0
LINE
  5
1A5
  8
0
 62
     7
 10
290.299713
 20
529.7094229999999
 30
0.0
 11
291.29980499999999
 21
530.70942300000002
 31
0.0
  0
LINE
  5
1A6
  8
0
 62
     7
 10
227.531892
 20
529.70938699999999
 30
0.0
 11
290.29969799999992
 21
529.70941700000003
 31
0.0
  0
LINE
  5
1A7
  8
0
 62
     7
 10
227.531845
 20
518.70941200000004
 30
0.0
 11
290.299713
 21
518.70941200000004
 31
0.0
  0
LINE
  5
1A8
  8
0
 62
     7
 10
223.799802
 20
530.709383
 30
0.0
 11
227.5318869999999
 21
529.70936799999993
 31
0.0
  0
LINE
  5
1A9
  8
0
 62
     7
 10
220.29980199999989
 20
531.64720699999987
 30
0.0
 11
223.79983399999989
 21
530.70937200000003
 31
0.0
  0
LINE
  5
1AA
  8
0
 62
     7
 10
219.29980800000001
 20
516.503647
 30
0.0
 11
227.531847
 21
518.70941200000004
 31
0.0
  0
LINE
  5
1AB
  8
0
 62
     7
 10
219.29982000000001
 20
534.00371600000005
 30
0.0
 11
220.2998169999999
 21
534.27166
 31
0.0
  0
LINE
  5
1AC
  8
0
 62
     7
 10
219.2998069999999
 20
510.20939599999991
 30
0.0
 11
223.29980599999999
 21
510.20939599999991
 31
0.0
  0
LINE
  5
1AD
  8
0
 62
     7
 10
223.29980599999999
 20
502.69261899999998
 30
0.0
 11
223.29980599999999
 21
510.20939599999991
 31
0.0
  0
LINE
  5
1AE
  8
0
 62
     7
 10
220.29980699999999
 20
516.77157599999998
 30
0.0
 11
220.29980699999999
 21
561.20939599999997
 31
0.0
  0
LINE
  5
1AF
  8
0
 62
     7
 10
223.7998069999999
 20
530.70941200000004
 30
0.0
 11
223.7998069999999
 21
555.70941200000004
 31
0.0
  0
LINE
  5
1B0
  8
0
 62
     7
 10
219.29980599999999
 20
561.20939599999997
 30
0.0
 11
222.29980499999999
 21
561.20939599999997
 31
0.0
  0
LINE
  5
1B1
  8
0
 62
     7
 10
222.299815
 20
561.20938699999988
 30
0.0
 11
223.04981699999999
 21
561.00842899999986
 31
0.0
  0
LINE
  5
1B2
  8
0
 62
     7
 10
222.299815
 20
561.20938699999988
 30
0.0
 11
223.04981699999999
 21
561.00842899999986
 31
0.0
  0
LINE
  5
1B3
  8
0
 62
     7
 10
223.04981000000001
 20
561.00842299999999
 30
0.0
 11
223.598848
 21
560.45938099999989
 31
0.0
  0
LINE
  5
1B4
  8
0
 62
     7
 10
223.59883099999999
 20
560.45936900000004
 30
0.0
 11
223.799792
 21
559.70936900000004
 31
0.0
  0
LINE
  5
1B5
  8
0
 62
     7
 10
223.79982499999991
 20
555.70939800000008
 30
0.0
 11
223.79982499999991
 21
559.709383
 31
0.0
  0
LINE
  5
1B6
  8
0
 62
     7
 10
223.59885199999991
 20
554.95938999999987
 30
0.0
 11
223.694075
 21
555.31476699999985
 31
0.0
  0
LINE
  5
1B7
  8
0
 62
     7
 10
223.694073
 20
555.31475699999999
 30
0.0
 11
223.79981199999989
 21
555.70939499999986
 31
0.0
  0
LINE
  5
1B8
  8
0
 62
     7
 10
223.04980599999999
 20
554.41031799999985
 30
0.0
 11
223.59884500000001
 21
554.95935999999995
 31
0.0
  0
LINE
  5
1B9
  8
0
 62
     7
 10
222.29979399999991
 20
554.20937500000002
 30
0.0
 11
223.04979399999991
 21
554.41033400000003
 31
0.0
  0
LINE
  5
1BA
  8
0
 62
     7
 10
220.29980699999999
 20
554.20939599999986
 30
0.0
 11
222.29980599999999
 21
554.20939599999986
 31
0.0
  0
LINE
  5
1BB
  8
0
 62
     7
 10
217.2998069999999
 20
486.70939600000003
 30
0.0
 11
219.2998069999999
 21
486.70939600000003
 31
0.0
  0
LINE
  5
1BC
  8
0
 62
     7
 10
217.2998069999999
 20
635.70938100000001
 30
0.0
 11
219.2998069999999
 21
635.70938100000001
 31
0.0
  0
LINE
  5
1BD
  8
0
 62
     7
 10
217.2998069999999
 20
625.84103400000004
 30
0.0
 11
219.2998069999999
 21
625.84103400000004
 31
0.0
  0
LINE
  5
1BE
  8
0
 62
     7
 10
223.79978299999999
 20
519.20939999999985
 30
0.0
 11
226.59881999999999
 21
518.45939999999985
 31
0.0
  0
LINE
  5
1BF
  8
0
 62
     7
 10
223.79977299999999
 20
519.20940999999993
 30
0.0
 11
223.79977299999999
 21
529.20940999999993
 31
0.0
  0
LINE
  5
1C0
  8
0
 62
     7
 10
223.79977400000001
 20
529.20939599999986
 30
0.0
 11
226.5988339999999
 21
529.95939599999997
 31
0.0
  0
LINE
  5
1C1
  8
0
 62
     7
 10
217.2998069999999
 20
496.49401899999998
 30
0.0
 11
219.2998069999999
 21
496.49401899999998
 31
0.0
  0
LINE
  5
1C2
  8
0
 62
     7
 10
217.2998069999999
 20
496.70939599999991
 30
0.0
 11
219.2998069999999
 21
496.70939599999991
 31
0.0
  0
LINE
  5
1C3
  8
0
 62
     7
 10
223.59885600000001
 20
554.43009800000004
 30
0.0
 11
223.79981599999999
 21
555.31477199999995
 31
0.0
  0
LINE
  5
1C4
  8
0
 62
     7
 10
223.69406699999999
 20
555.31477400000006
 30
0.0
 11
223.79980499999991
 21
555.31477400000006
 31
0.0
  0
LINE
  5
1C5
  8
0
 62
     7
 10
223.66582999999989
 20
541.20938599999988
 30
0.0
 11
223.799802
 21
541.30884300000002
 31
0.0
  0
LINE
  5
1C6
  8
0
 62
     7
 10
223.59884999999991
 20
541.25907900000004
 30
0.0
 11
223.66583900000001
 21
541.20935099999997
 31
0.0
  0
LINE
  5
1C7
  8
0
 62
     7
 10
223.59884500000001
 20
551.20941200000004
 30
0.0
 11
223.79980599999999
 21
551.20941200000004
 31
0.0
  0
LINE
  5
1C8
  8
0
 62
     7
 10
223.598839
 20
545.15962500000001
 30
0.0
 11
223.66582799999989
 21
545.20935299999996
 31
0.0
  0
LINE
  5
1C9
  8
0
 62
     7
 10
223.66583799999989
 20
545.20937900000001
 30
0.0
 11
223.79980999999989
 21
545.10992199999987
 31
0.0
  0
LINE
  5
1CA
  8
0
 62
     7
 10
223.598839
 20
553.54125499999998
 30
0.0
 11
223.70801299999991
 21
552.93148399999995
 31
0.0
  0
LINE
  5
1CB
  8
0
 62
     7
 10
223.70801700000001
 20
552.93149100000005
 30
0.0
 11
223.79980499999991
 21
551.20941399999992
 31
0.0
  0
LINE
  5
1CC
  8
0
 62
     7
 10
223.08347999999989
 20
541.36161799999991
 30
0.0
 11
223.59884
 21
541.25910899999985
 31
0.0
  0
LINE
  5
1CD
  8
0
 62
     7
 10
223.04980399999999
 20
541.38413000000003
 30
0.0
 11
223.083483
 21
541.36162300000001
 31
0.0
  0
LINE
  5
1CE
  8
0
 62
     7
 10
223.049789
 20
545.03463699999998
 30
0.0
 11
223.08346999999989
 21
545.05714399999999
 31
0.0
  0
LINE
  5
1CF
  8
0
 62
     7
 10
223.0834769999999
 20
545.05713900000001
 30
0.0
 11
223.59883499999989
 21
545.15964799999995
 31
0.0
  0
LINE
  5
1D0
  8
0
 62
     7
 10
223.04980599999999
 20
551.20941200000004
 30
0.0
 11
223.59884500000001
 21
551.20941200000004
 31
0.0
  0
LINE
  5
1D1
  8
0
 62
     7
 10
222.29980099999989
 20
541.51839399999994
 30
0.0
 11
223.04980099999989
 21
541.38411599999995
 31
0.0
  0
LINE
  5
1D2
  8
0
 62
     7
 10
222.2998
 20
544.90036299999986
 30
0.0
 11
223.0498
 21
545.03464099999985
 31
0.0
  0
LINE
  5
1D3
  8
0
 62
     7
 10
222.29980599999999
 20
551.20941200000004
 30
0.0
 11
223.04980599999999
 21
551.20941200000004
 31
0.0
  0
LINE
  5
1D4
  8
0
 62
     7
 10
220.29980699999999
 20
544.90037500000005
 30
0.0
 11
222.29980599999999
 21
544.90037500000005
 31
0.0
  0
LINE
  5
1D5
  8
0
 62
     7
 10
220.29980699999999
 20
551.20941200000004
 30
0.0
 11
222.29980599999999
 21
551.20941200000004
 31
0.0
  0
LINE
  5
1D6
  8
0
 62
     7
 10
220.29980699999999
 20
541.51841699999989
 30
0.0
 11
222.29980599999999
 21
541.51841699999989
 31
0.0
  0
LINE
  5
1D7
  8
0
 62
     3
 10
248.5498069999999
 20
646.20941200000004
 30
0.0
 11
316.29980499999999
 21
646.20941200000004
 31
0.0
  0
LINE
  5
1D8
  8
0
 62
     3
 10
284.61892699999993
 20
643.40942399999994
 30
0.0
 11
313.49980199999987
 21
643.40942399999994
 31
0.0
  0
LINE
  5
1D9
  8
0
 62
     3
 10
291.29980499999999
 20
479.0094299999999
 30
0.0
 11
313.49980199999987
 21
479.0094299999999
 31
0.0
  0
LINE
  5
1DA
  8
0
 62
     3
 10
291.29980499999999
 20
476.20942699999989
 30
0.0
 11
316.29980499999999
 21
476.20942699999989
 31
0.0
  0
LINE
  5
1DB
  8
0
 62
     3
 10
291.29980499999999
 20
476.20942699999989
 30
0.0
 11
291.29980499999999
 21
518.45941200000004
 31
0.0
  0
LINE
  5
1DC
  8
0
 62
     3
 10
291.29980499999999
 20
529.95939599999997
 30
0.0
 11
291.29980499999999
 21
532.70947299999989
 31
0.0
  0
LINE
  5
1DD
  8
0
 62
     3
 10
291.29980499999999
 20
630.70945700000004
 30
0.0
 11
291.29980499999999
 21
646.20941200000004
 31
0.0
  0
LINE
  5
1DE
  8
0
 62
     3
 10
320.79980499999999
 20
574.15827899999988
 30
0.0
 11
320.79980499999999
 21
583.70909099999994
 31
0.0
  0
LINE
  5
1DF
  8
0
 62
     3
 10
320.7997509999999
 20
523.25983399999996
 30
0.0
 11
320.79979700000001
 21
516.709114
 31
0.0
  0
LINE
  5
1E0
  8
0
 62
     3
 10
316.29980499999999
 20
621.95941200000004
 30
0.0
 11
316.29980499999999
 21
646.20941200000004
 31
0.0
  0
LINE
  5
1E1
  8
0
 62
     3
 10
313.49980199999987
 20
629.95942700000001
 30
0.0
 11
316.29980499999999
 21
629.95942700000001
 31
0.0
  0
LINE
  5
1E2
  8
0
 62
     3
 10
316.29980499999999
 20
476.20942699999989
 30
0.0
 11
316.29980499999999
 21
500.95942700000001
 31
0.0
  0
LINE
  5
1E3
  8
0
 62
     3
 10
313.49980199999987
 20
492.45942699999989
 30
0.0
 11
316.29980499999999
 21
492.45942699999989
 31
0.0
  0
LINE
  5
1E4
  8
0
 62
     3
 10
313.49980199999987
 20
479.0094299999999
 30
0.0
 11
313.49980199999987
 21
500.95943099999988
 31
0.0
  0
LINE
  5
1E5
  8
0
 62
     3
 10
291.29980499999999
 20
529.95941200000004
 30
0.0
 11
313.49980199999987
 21
529.95941200000004
 31
0.0
  0
LINE
  5
1E6
  8
0
 62
     3
 10
291.29980499999999
 20
518.45941200000004
 30
0.0
 11
313.49980199999987
 21
518.45941200000004
 31
0.0
  0
LINE
  5
1E7
  8
0
 62
     1
 10
313.49980199999987
 20
621.95941200000004
 30
0.0
 11
318.79980499999999
 21
621.95941200000004
 31
0.0
  0
LINE
  5
1E8
  8
0
 62
     1
 10
315.79980499999988
 20
500.95942700000001
 30
0.0
 11
316.29980499999999
 21
500.95942700000001
 31
0.0
  0
LINE
  5
1E9
  8
0
 62
     1
 10
313.49980199999987
 20
500.95943099999988
 30
0.0
 11
318.79980499999999
 21
500.95942700000001
 31
0.0
  0
LINE
  5
1EA
  8
0
 62
     2
 10
329.80111699999992
 20
506.95941199999987
 30
0.0
 11
329.80111699999992
 21
508.95941199999999
 31
0.0
  0
LINE
  5
1EB
  8
0
 62
     2
 10
320.80111699999992
 20
506.45941199999987
 30
0.0
 11
320.80111699999992
 21
611.45941200000004
 31
0.0
  0
LINE
  5
1EC
  8
0
 62
     2
 10
318.79980499999999
 20
611.45941200000004
 30
0.0
 11
324.30097199999989
 21
611.45941200000004
 31
0.0
  0
LINE
  5
1ED
  8
0
 62
     2
 10
318.79980499999999
 20
506.45941199999987
 30
0.0
 11
324.30097199999989
 21
506.45941199999987
 31
0.0
  0
LINE
  5
1EE
  8
0
 62
     2
 10
329.801064
 20
524.95939599999986
 30
0.0
 11
329.80111699999992
 21
506.95941199999987
 31
0.0
  0
LINE
  5
1EF
  8
0
 62
     2
 10
329.80091900000002
 20
537.95939599999997
 30
0.0
 11
329.80105600000002
 21
525.95939599999997
 31
0.0
  0
LINE
  5
1F0
  8
0
 62
     2
 10
329.80111699999992
 20
538.95941200000004
 30
0.0
 11
329.80111699999992
 21
558.45939599999986
 31
0.0
  0
LINE
  5
1F1
  8
0
 62
     2
 10
329.80091900000002
 20
538.95938599999988
 30
0.0
 11
329.800972
 21
558.45938599999999
 31
0.0
  0
LINE
  5
1F2
  8
0
 62
     2
 10
329.80075799999997
 20
571.45939299999986
 30
0.0
 11
329.80096400000002
 21
559.45939400000009
 31
0.0
  0
LINE
  5
1F3
  8
0
 62
     7
 10
285.29976699999992
 20
575.209385
 30
0.0
 11
287.79979700000001
 21
575.209385
 31
0.0
  0
LINE
  5
1F4
  8
0
 62
     7
 10
318.79980499999999
 20
611.45941200000004
 30
0.0
 11
318.79980499999999
 21
621.95941200000004
 31
0.0
  0
LINE
  5
1F5
  8
0
 62
     7
 10
318.79980499999999
 20
500.95942700000001
 30
0.0
 11
318.79980499999999
 21
506.45941199999987
 31
0.0
  0
LINE
  5
1F6
  8
0
 62
     3
 10
313.49980199999987
 20
621.95941200000004
 30
0.0
 11
313.49980199999987
 21
643.40942399999994
 31
0.0
  0
LINE
  5
1F7
  8
0
 62
     3
 10
313.49980199999987
 20
500.95943099999988
 30
0.0
 11
313.49980199999987
 21
621.95941200000004
 31
0.0
  0
ARC
  5
1F8
  8
0
 62
     7
 10
350.47584499999999
 20
536.91552999999999
 30
0.0
 40
1.0
 50
348.62359199999992
 51
76.688818000000012
  0
ARC
  5
1F9
  8
0
 62
     7
 10
349.27909899999997
 20
530.96771000000001
 30
0.0
 40
1.000000999999999
 50
260.59401099999991
 51
348.62359199999992
  0
LINE
  5
1FA
  8
0
  6
DASHDOT
 62
     7
 10
315.15974399999988
 20
540.89069199999994
 30
0.0
 11
365.2764279999999
 21
530.80687499999999
 31
0.0
  0
LINE
  5
1FB
  8
0
 62
     7
 10
329.800926
 20
542.83474200000001
 30
0.0
 11
350.70608499999997
 21
537.88866299999995
 31
0.0
  0
LINE
  5
1FC
  8
0
 62
     7
 10
350.25945999999999
 20
530.77045799999985
 30
0.0
 11
351.45619199999987
 21
536.71827599999995
 31
0.0
  0
LINE
  5
1FD
  8
0
 62
     7
 10
329.800972
 20
533.18075499999986
 30
0.0
 11
349.11567699999989
 21
529.98115499999994
 31
0.0
  0
LINE
  5
1FE
  8
0
  6
DASHDOT
 62
     7
 10
214.2998069999999
 20
465.37995899999999
 30
0.0
 11
214.2998069999999
 21
656.23771699999986
 31
0.0
  0
LINE
  5
1FF
  8
0
 62
     7
 10
241.2998069999999
 20
622.70941200000004
 30
0.0
 11
254.1990999999999
 21
622.70941200000004
 31
0.0
  0
LINE
  5
200
  8
0
 62
     7
 10
241.62993399999999
 20
620.20941200000004
 30
0.0
 11
254.78331800000001
 21
620.20941200000004
 31
0.0
  0
LINE
  5
201
  8
0
 62
     7
 10
228.29980699999999
 20
616.14386000000002
 30
0.0
 11
228.29980699999999
 21
620.20941200000004
 31
0.0
  0
LINE
  5
202
  8
0
 62
     7
 10
232.29980699999999
 20
616.14386000000002
 30
0.0
 11
232.29980699999999
 21
620.20941200000004
 31
0.0
  0
LINE
  5
203
  8
0
 62
     7
 10
242.2998069999999
 20
620.20941200000004
 30
0.0
 11
242.2998069999999
 21
622.70941200000004
 31
0.0
  0
LINE
  5
204
  8
0
 62
     7
 10
228.29980699999999
 20
620.20941200000004
 30
0.0
 11
234.748254
 21
620.20941200000004
 31
0.0
  0
POLYLINE
  5
205
  8
0
 62
     3
 66
     1
 10
0.0
 20
0.0
 30
0.0
  0
VERTEX
  5
8E6
  8
0
 62
     3
 10
212.070965
 20
616.14386000000002
 30
0.0
  0
VERTEX
  5
8E7
  8
0
 62
     3
 10
228.07096499999989
 20
616.14386000000002
 30
0.0
  0
VERTEX
  5
8E8
  8
0
 62
     3
 10
229.070965
 20
618.1438599999999
 30
0.0
  0
VERTEX
  5
8E9
  8
0
 62
     3
 10
230.07096499999989
 20
614.14386000000002
 30
0.0
  0
VERTEX
  5
8EA
  8
0
 62
     3
 10
231.070965
 20
616.14386000000002
 30
0.0
  0
VERTEX
  5
8EB
  8
0
 62
     3
 10
247.07096499999989
 20
616.14386000000002
 30
0.0
  0
VERTEX
  5
8EC
  8
0
 62
     3
 10
248.070965
 20
618.1438599999999
 30
0.0
  0
VERTEX
  5
8ED
  8
0
 62
     3
 10
249.07096499999989
 20
614.14386000000002
 30
0.0
  0
VERTEX
  5
8EE
  8
0
 62
     3
 10
250.070965
 20
616.14386000000002
 30
0.0
  0
VERTEX
  5
8EF
  8
0
 62
     3
 10
254.78331800000001
 20
616.14386000000002
 30
0.0
  0
SEQEND
  5
8F0
  8
0
 62
     3
  0
LINE
  5
211
  8
0
 62
     7
 10
237.2998069999999
 20
641.70941200000004
 30
0.0
 11
242.2998069999999
 21
641.70941200000004
 31
0.0
  0
LINE
  5
212
  8
0
 62
     7
 10
236.72258899999991
 20
615.14386000000002
 30
0.0
 11
240.79907600000001
 21
619.13797799999998
 31
0.0
  0
LINE
  5
213
  8
0
 62
     7
 10
233.80053499999991
 20
619.280846
 30
0.0
 11
237.2998069999999
 21
622.70941200000004
 31
0.0
  0
LINE
  5
214
  8
0
 62
     7
 10
237.2998069999999
 20
622.70941200000004
 30
0.0
 11
237.2998069999999
 21
628.50941499999988
 31
0.0
  0
ARC
  5
215
  8
0
 62
     7
 10
237.2998069999999
 20
615.70941200000004
 30
0.0
 40
4.999998999999999
 50
134.4152949999999
 51
180.00000499999999
  0
ARC
  5
216
  8
0
 62
     7
 10
237.2998069999999
 20
622.70941200000004
 30
0.0
 40
5.0
 50
314.415302
 51
360.0
  0
LINE
  5
217
  8
0
  6
DASHDOT
 62
     7
 10
231.97277800000001
 20
632.70941200000004
 30
0.0
 11
248.63242500000001
 21
632.70941200000004
 31
0.0
  0
LINE
  5
218
  8
0
 62
     7
 10
219.2998069999999
 20
499.70942300000002
 30
0.0
 11
237.2998069999999
 21
499.70942300000002
 31
0.0
  0
LINE
  5
219
  8
0
 62
     7
 10
233.2998069999999
 20
499.70942300000002
 30
0.0
 11
233.2998069999999
 21
502.69261899999998
 31
0.0
  0
LINE
  5
21A
  8
0
 62
     7
 10
237.2998069999999
 20
499.70942300000002
 30
0.0
 11
237.2998069999999
 21
502.69261899999998
 31
0.0
  0
LINE
  5
21B
  8
0
 62
     7
 10
243.29980699999999
 20
499.70942300000002
 30
0.0
 11
243.29980699999999
 21
502.69261899999998
 31
0.0
  0
LINE
  5
21C
  8
0
 62
     7
 10
243.29980699999999
 20
499.70942300000002
 30
0.0
 11
266.50787700000001
 21
499.70942300000002
 31
0.0
  0
POLYLINE
  5
21D
  8
0
 62
     3
 66
     1
 10
0.0
 20
0.0
 30
0.0
  0
VERTEX
  5
8F1
  8
0
 62
     3
 10
217.9119839999999
 20
502.69261899999998
 30
0.0
  0
VERTEX
  5
8F2
  8
0
 62
     3
 10
233.9119839999999
 20
502.69261899999998
 30
0.0
  0
VERTEX
  5
8F3
  8
0
 62
     3
 10
234.9119839999999
 20
504.69261899999998
 30
0.0
  0
VERTEX
  5
8F4
  8
0
 62
     3
 10
235.91198299999999
 20
500.69261899999998
 30
0.0
  0
VERTEX
  5
8F5
  8
0
 62
     3
 10
236.91198299999999
 20
502.69261899999998
 30
0.0
  0
VERTEX
  5
8F6
  8
0
 62
     3
 10
252.91198299999999
 20
502.69261899999998
 30
0.0
  0
VERTEX
  5
8F7
  8
0
 62
     3
 10
253.91198299999999
 20
504.69261899999998
 30
0.0
  0
VERTEX
  5
8F8
  8
0
 62
     3
 10
254.91198299999999
 20
500.69261899999998
 30
0.0
  0
VERTEX
  5
8F9
  8
0
 62
     3
 10
255.91198299999999
 20
502.69261899999998
 30
0.0
  0
VERTEX
  5
8FA
  8
0
 62
     3
 10
266.14700699999992
 20
502.69261899999998
 30
0.0
  0
SEQEND
  5
8FB
  8
0
 62
     3
  0
LINE
  5
229
  8
0
 62
     7
 10
237.2998069999999
 20
480.70942699999989
 30
0.0
 11
240.2998069999999
 21
480.70942699999989
 31
0.0
  0
LINE
  5
22A
  8
0
 62
     7
 10
240.29980499999991
 20
480.70942699999989
 30
0.0
 11
240.29980499999991
 21
485.70941199999999
 31
0.0
  0
LINE
  5
22B
  8
0
 62
     7
 10
237.2998069999999
 20
480.70942699999989
 30
0.0
 11
237.2998069999999
 21
502.69261899999998
 31
0.0
  0
LINE
  5
22C
  8
0
 62
     7
 10
240.2998069999999
 20
480.70942699999989
 30
0.0
 11
242.2998069999999
 21
480.70942699999989
 31
0.0
  0
LINE
  5
22D
  8
0
 62
     7
 10
240.29980499999991
 20
501.70942300000002
 30
0.0
 11
242.29980499999991
 21
501.70942300000002
 31
0.0
  0
LINE
  5
22E
  8
0
  6
DASHDOT
 62
     7
 10
231.97277800000001
 20
489.70941199999999
 30
0.0
 11
253.39195299999989
 21
489.70941199999999
 31
0.0
  0
LINE
  5
22F
  8
0
 62
     7
 10
237.2998069999999
 20
493.8094099999999
 30
0.0
 11
242.29980499999991
 21
493.8094099999999
 31
0.0
  0
LINE
  5
230
  8
0
 62
     7
 10
237.2998069999999
 20
485.6094129999999
 30
0.0
 11
242.29980499999991
 21
485.6094129999999
 31
0.0
  0
ARC
  5
231
  8
0
  6
DASHDOT
 62
     7
 10
276.30060600000002
 20
548.70941200000004
 30
0.0
 40
76.044273000000004
 50
337.492324
 51
0.00001
  0
LINE
  5
232
  8
0
  6
DASHDOT
 62
     7
 10
352.34487899999988
 20
548.70941200000004
 30
0.0
 11
352.34487899999988
 21
554.45961099999988
 31
0.0
  0
LINE
  5
233
  8
0
 62
     7
 10
237.2998069999999
 20
636.90940899999987
 30
0.0
 11
241.2998069999999
 21
636.90940899999987
 31
0.0
  0
LINE
  5
234
  8
0
 62
     7
 10
237.2998069999999
 20
628.50941499999988
 30
0.0
 11
241.2998069999999
 21
628.50941499999988
 31
0.0
  0
LINE
  5
235
  8
0
 62
     7
 10
219.2998069999999
 20
646.20939599999986
 30
0.0
 11
220.7998069999999
 21
646.20939599999986
 31
0.0
  0
LINE
  5
236
  8
0
 62
     1
 10
324.30097199999989
 20
503.95941199999999
 30
0.0
 11
324.30097199999989
 21
505.95941199999987
 31
0.0
  0
LINE
  5
237
  8
0
 62
     1
 10
324.30097199999989
 20
503.95941199999999
 30
0.0
 11
326.30097199999989
 21
503.95941199999999
 31
0.0
  0
LINE
  5
238
  8
0
 62
     1
 10
324.30097199999989
 20
611.95940800000005
 30
0.0
 11
324.30097199999989
 21
613.95941200000004
 31
0.0
  0
LINE
  5
239
  8
0
 62
     1
 10
324.30097199999989
 20
613.95941200000004
 30
0.0
 11
326.30097199999989
 21
613.95941200000004
 31
0.0
  0
LINE
  5
23A
  8
0
 62
     1
 10
324.30097199999989
 20
505.95941199999987
 30
0.0
 11
324.30097199999989
 21
611.95941200000004
 31
0.0
  0
LINE
  5
23B
  8
0
 62
     1
 10
319.80097199999989
 20
627.53675799999996
 30
0.0
 11
319.80097199999989
 21
632.38206500000001
 31
0.0
  0
LINE
  5
23C
  8
0
 62
     1
 10
319.80097199999989
 20
485.5367619999999
 30
0.0
 11
319.80097199999989
 21
490.38206100000002
 31
0.0
  0
LINE
  5
23D
  8
0
 62
     1
 10
326.30097199999989
 20
477.45941199999987
 30
0.0
 11
326.30097199999989
 21
640.45941200000004
 31
0.0
  0
LINE
  5
23E
  8
0
 62
     1
 10
326.30097199999989
 20
477.45941199999987
 30
0.0
 11
329.800972
 21
477.45941199999987
 31
0.0
  0
LINE
  5
23F
  8
0
 62
     1
 10
329.800972
 20
477.45941199999987
 30
0.0
 11
329.800972
 21
640.45941200000004
 31
0.0
  0
LINE
  5
240
  8
0
 62
     1
 10
326.30097199999989
 20
640.45941200000004
 30
0.0
 11
327.800972
 21
640.45941200000004
 31
0.0
  0
LINE
  5
241
  8
0
 62
     1
 10
328.800972
 20
640.45941200000004
 30
0.0
 11
329.800972
 21
640.45941200000004
 31
0.0
  0
LINE
  5
242
  8
0
 62
     1
 10
320.800972
 20
626.95941200000004
 30
0.0
 11
326.30097199999989
 21
626.95941200000004
 31
0.0
  0
LINE
  5
243
  8
0
 62
     1
 10
320.800972
 20
632.95941200000004
 30
0.0
 11
326.30097199999989
 21
632.95941200000004
 31
0.0
  0
LINE
  5
244
  8
0
 62
     1
 10
319.80097999999992
 20
627.53675099999987
 30
0.0
 11
320.80097999999992
 21
626.95940399999995
 31
0.0
  0
LINE
  5
245
  8
0
 62
     1
 10
320.800972
 20
626.95941200000004
 30
0.0
 11
320.800972
 21
627.18777499999987
 31
0.0
  0
LINE
  5
246
  8
0
 62
     1
 10
320.800972
 20
626.95941200000004
 30
0.0
 11
320.800972
 21
627.83808899999997
 31
0.0
  0
LINE
  5
247
  8
0
 62
     1
 10
320.800972
 20
627.83808899999997
 30
0.0
 11
320.800972
 21
628.81137100000001
 31
0.0
  0
LINE
  5
248
  8
0
 62
     1
 10
320.800972
 20
628.81137100000001
 30
0.0
 11
320.800972
 21
629.95941200000004
 31
0.0
  0
LINE
  5
249
  8
0
 62
     1
 10
320.800972
 20
629.95941200000004
 30
0.0
 11
320.800972
 21
631.10746799999993
 31
0.0
  0
LINE
  5
24A
  8
0
 62
     1
 10
320.800972
 20
631.10746799999993
 30
0.0
 11
320.800972
 21
632.95941200000004
 31
0.0
  0
LINE
  5
24B
  8
0
 62
     1
 10
320.800972
 20
632.08072699999991
 30
0.0
 11
320.800972
 21
632.73104099999989
 31
0.0
  0
LINE
  5
24C
  8
0
 62
     1
 10
319.80097199999989
 20
632.38205700000003
 30
0.0
 11
320.800972
 21
632.95940399999995
 31
0.0
  0
LINE
  5
24D
  8
0
 62
     1
 10
320.800972
 20
632.73104099999989
 30
0.0
 11
320.800972
 21
632.95940399999995
 31
0.0
  0
LINE
  5
24E
  8
0
 62
     1
 10
320.80097999999992
 20
490.95941199999999
 30
0.0
 11
326.30097199999989
 21
490.95941199999999
 31
0.0
  0
LINE
  5
24F
  8
0
 62
     1
 10
320.800972
 20
484.95941199999987
 30
0.0
 11
326.30097199999989
 21
484.95941199999987
 31
0.0
  0
LINE
  5
250
  8
0
 62
     1
 10
320.800972
 20
490.73104899999998
 30
0.0
 11
320.800972
 21
490.95941199999999
 31
0.0
  0
LINE
  5
251
  8
0
 62
     1
 10
319.80097199999989
 20
490.38206100000002
 30
0.0
 11
320.800972
 21
490.95941199999999
 31
0.0
  0
LINE
  5
252
  8
0
 62
     1
 10
320.800972
 20
490.0807299999999
 30
0.0
 11
320.800972
 21
490.73104899999998
 31
0.0
  0
LINE
  5
253
  8
0
 62
     1
 10
320.800972
 20
489.10746399999999
 30
0.0
 11
320.800972
 21
490.0807299999999
 31
0.0
  0
LINE
  5
254
  8
0
 62
     1
 10
320.800972
 20
487.95941199999999
 30
0.0
 11
320.800972
 21
489.10746399999999
 31
0.0
  0
LINE
  5
255
  8
0
 62
     1
 10
320.800972
 20
486.81136299999991
 30
0.0
 11
320.800972
 21
487.95941199999999
 31
0.0
  0
LINE
  5
256
  8
0
 62
     1
 10
320.800972
 20
485.83809300000001
 30
0.0
 11
320.800972
 21
486.81136299999991
 31
0.0
  0
LINE
  5
257
  8
0
 62
     1
 10
320.800972
 20
485.18777499999987
 30
0.0
 11
320.800972
 21
485.83809300000001
 31
0.0
  0
LINE
  5
258
  8
0
 62
     1
 10
320.800972
 20
484.95941199999987
 30
0.0
 11
320.800972
 21
485.18777499999987
 31
0.0
  0
LINE
  5
259
  8
0
 62
     1
 10
319.80097199999989
 20
485.5367619999999
 30
0.0
 11
320.800972
 21
484.95941199999987
 31
0.0
  0
LINE
  5
25A
  8
0
 62
     1
 10
327.800972
 20
640.45941200000004
 30
0.0
 11
328.800972
 21
640.45941200000004
 31
0.0
  0
LINE
  5
25B
  8
0
 62
     7
 10
326.30097199999989
 20
640.45941200000004
 30
0.0
 11
326.30097199999989
 21
711.26800500000002
 31
0.0
  0
LINE
  5
25C
  8
0
 62
     7
 10
324.30097199999989
 20
611.95941200000004
 30
0.0
 11
324.30097199999989
 21
626.95941200000004
 31
0.0
  0
LINE
  5
25D
  8
0
 62
     7
 10
326.30097199999989
 20
432.48654199999999
 30
0.0
 11
326.30097199999989
 21
477.45941199999987
 31
0.0
  0
LINE
  5
25E
  8
0
 62
     7
 10
324.30097199999989
 20
431.04728699999993
 30
0.0
 11
324.30097199999989
 21
484.95941199999987
 31
0.0
  0
POLYLINE
  5
25F
  8
0
 62
     3
 66
     1
 10
0.0
 20
0.0
 30
0.0
  0
VERTEX
  5
8FC
  8
0
 62
     3
 10
320.53081500000002
 20
428.334183
 30
0.0
  0
VERTEX
  5
8FD
  8
0
 62
     3
 10
327.81970200000001
 20
433.579453
 30
0.0
  0
VERTEX
  5
8FE
  8
0
 62
     3
 10
327.46317299999993
 20
435.78691900000001
 30
0.0
  0
VERTEX
  5
8FF
  8
0
 62
     3
 10
330.611267
 20
433.12430599999988
 30
0.0
  0
VERTEX
  5
900
  8
0
 62
     3
 10
330.25473799999997
 20
435.33176399999991
 30
0.0
  0
SEQEND
  5
901
  8
0
 62
     3
  0
POLYLINE
  5
266
  8
0
 62
     3
 66
     1
 10
0.0
 20
0.0
 30
0.0
  0
VERTEX
  5
902
  8
0
 62
     3
 10
319.531158
 20
714.50825499999985
 30
0.0
  0
VERTEX
  5
903
  8
0
 62
     3
 10
327.45784800000001
 20
710.71427900000003
 30
0.0
  0
VERTEX
  5
904
  8
0
 62
     3
 10
329.22330499999998
 20
712.08656299999996
 30
0.0
  0
VERTEX
  5
905
  8
0
 62
     3
 10
328.39839899999998
 20
708.04681399999993
 30
0.0
  0
VERTEX
  5
906
  8
0
 62
     3
 10
330.16385700000001
 20
709.41909799999996
 30
0.0
  0
SEQEND
  5
907
  8
0
 62
     3
  0
LINE
  5
26D
  8
0
 62
     7
 10
324.30097199999989
 20
633.45940399999995
 30
0.0
 11
326.30097199999989
 21
633.45940399999995
 31
0.0
  0
LINE
  5
26E
  8
0
 62
     7
 10
324.30097199999989
 20
626.45941200000004
 30
0.0
 11
326.30097199999989
 21
626.45941200000004
 31
0.0
  0
LINE
  5
26F
  8
0
 62
     7
 10
324.30097199999989
 20
614.95941200000004
 30
0.0
 11
326.30097199999989
 21
614.95941200000004
 31
0.0
  0
LINE
  5
270
  8
0
 62
     7
 10
324.30097199999989
 20
502.95941199999987
 30
0.0
 11
326.30097199999989
 21
502.95941199999987
 31
0.0
  0
LINE
  5
271
  8
0
 62
     7
 10
324.30097199999989
 20
491.45941199999999
 30
0.0
 11
326.30097199999989
 21
491.45941199999999
 31
0.0
  0
LINE
  5
272
  8
0
 62
     7
 10
324.30097199999989
 20
484.45941199999999
 30
0.0
 11
326.30097199999989
 21
484.45941199999999
 31
0.0
  0
LINE
  5
273
  8
0
 62
     7
 10
324.30097199999989
 20
490.95941199999999
 30
0.0
 11
324.30097199999989
 21
503.95941199999999
 31
0.0
  0
LINE
  5
274
  8
0
 62
     7
 10
324.30097199999989
 20
632.95941200000004
 30
0.0
 11
324.30097199999989
 21
712.22526600000003
 31
0.0
  0
LINE
  5
275
  8
0
  6
DASHDOT
 62
     7
 10
196.62110699999991
 20
558.95941200000004
 30
0.0
 11
358.50645400000002
 21
558.95941200000004
 31
0.0
  0
LINE
  5
276
  8
0
  6
DASHDOT
 62
     7
 10
98.849875999999995
 20
558.95941200000004
 30
0.0
 11
112.61397599999999
 21
558.95941200000004
 31
0.0
  0
POLYLINE
  5
277
  8
0
 62
     3
 66
     1
 10
0.0
 20
0.0
 30
0.0
  0
VERTEX
  5
908
  8
0
 62
     3
 10
266.14700699999992
 20
502.69261899999998
 30
0.0
  0
VERTEX
  5
909
  8
0
 62
     3
 10
268.06848100000002
 20
486.80841399999991
 30
0.0
  0
VERTEX
  5
90A
  8
0
 62
     3
 10
270.17410299999989
 20
486.055836
 30
0.0
  0
VERTEX
  5
90B
  8
0
 62
     3
 10
266.32314300000002
 20
484.58270299999998
 30
0.0
  0
VERTEX
  5
90C
  8
0
 62
     3
 10
268.42876100000001
 20
483.8301239999999
 30
0.0
  0
VERTEX
  5
90D
  8
0
 62
     3
 10
269.7045819999999
 20
473.28332499999988
 30
0.0
  0
SEQEND
  5
90E
  8
0
 62
     3
  0
LINE
  5
27F
  8
0
 62
     7
 10
219.2998069999999
 20
476.20942699999989
 30
0.0
 11
220.7998069999999
 21
476.20942699999989
 31
0.0
  0
POLYLINE
  5
280
  8
0
 62
     3
 66
     1
 10
0.0
 20
0.0
 30
0.0
  0
VERTEX
  5
90F
  8
0
 62
     3
 10
283.46128099999987
 20
621.96781199999998
 30
0.0
  0
VERTEX
  5
910
  8
0
 62
     3
 10
284.32387499999987
 20
637.94454199999996
 30
0.0
  0
VERTEX
  5
911
  8
0
 62
     3
 10
282.380695
 20
639.05091100000004
 30
0.0
  0
VERTEX
  5
912
  8
0
 62
     3
 10
286.428787
 20
639.83380899999997
 30
0.0
  0
VERTEX
  5
913
  8
0
 62
     3
 10
284.48561100000001
 20
640.94017799999995
 30
0.0
  0
VERTEX
  5
914
  8
0
 62
     3
 10
284.93487499999992
 20
649.2613980000001
 30
0.0
  0
SEQEND
  5
915
  8
0
 62
     3
  0
POLYLINE
  5
288
  8
0
 62
     3
 66
     1
 10
0.0
 20
0.0
 30
0.0
  0
VERTEX
  5
916
  8
0
 62
     3
 10
254.78331800000001
 20
621.96781199999998
 30
0.0
  0
VERTEX
  5
917
  8
0
 62
     3
 10
270.78331800000001
 20
621.96781199999998
 30
0.0
  0
VERTEX
  5
918
  8
0
 62
     3
 10
271.78331799999989
 20
623.96781199999987
 30
0.0
  0
VERTEX
  5
919
  8
0
 62
     3
 10
272.78331800000001
 20
619.96781199999987
 30
0.0
  0
VERTEX
  5
91A
  8
0
 62
     3
 10
273.78331799999989
 20
621.96781199999998
 30
0.0
  0
VERTEX
  5
91B
  8
0
 62
     3
 10
283.46128099999987
 20
621.96781199999998
 30
0.0
  0
SEQEND
  5
91C
  8
0
 62
     3
  0
POLYLINE
  5
290
  8
0
 62
     3
 66
     1
 10
0.0
 20
0.0
 30
0.0
  0
VERTEX
  5
91D
  8
0
 62
     3
 10
254.78331800000001
 20
616.14386000000002
 30
0.0
  0
VERTEX
  5
91E
  8
0
 62
     3
 10
254.78331800000001
 20
618.96781900000008
 30
0.0
  0
VERTEX
  5
91F
  8
0
 62
     3
 10
252.78331800000001
 20
619.96781900000008
 30
0.0
  0
VERTEX
  5
920
  8
0
 62
     3
 10
256.78331800000001
 20
620.96781899999996
 30
0.0
  0
VERTEX
  5
921
  8
0
 62
     3
 10
254.78331800000001
 20
621.96781899999996
 30
0.0
  0
SEQEND
  5
922
  8
0
 62
     3
  0
LINE
  5
297
  8
0
 62
     7
 10
242.2998069999999
 20
480.70942699999989
 30
0.0
 11
242.2998069999999
 21
485.70941199999999
 31
0.0
  0
LINE
  5
298
  8
0
 62
     2
 10
242.2998069999999
 20
622.70941200000004
 30
0.0
 11
242.2998069999999
 21
628.70941200000004
 31
0.0
  0
LINE
  5
299
  8
0
 62
     2
 10
241.2998069999999
 20
636.95941200000004
 30
0.0
 11
248.2998069999999
 21
636.95941200000004
 31
0.0
  0
LINE
  5
29A
  8
0
 62
     2
 10
242.2998069999999
 20
628.45941200000004
 30
0.0
 11
248.2998069999999
 21
628.45941200000004
 31
0.0
  0
LINE
  5
29B
  8
0
 62
     7
 10
237.2998069999999
 20
639.20941200000004
 30
0.0
 11
237.2998069999999
 21
641.70941200000004
 31
0.0
  0
LINE
  5
29C
  8
0
 62
     2
 10
239.2998069999999
 20
646.20941200000004
 30
0.0
 11
239.2998069999999
 21
647.70941200000004
 31
0.0
  0
LINE
  5
29D
  8
0
 62
     2
 10
236.2998069999999
 20
646.20941200000004
 30
0.0
 11
239.2998069999999
 21
646.20941200000004
 31
0.0
  0
LINE
  5
29E
  8
0
 62
     2
 10
236.2998069999999
 20
648.70941200000004
 30
0.0
 11
238.2998069999999
 21
648.70941200000004
 31
0.0
  0
LINE
  5
29F
  8
0
 62
     2
 10
220.7998069999999
 20
622.70941200000004
 30
0.0
 11
222.29980699999999
 21
622.70941200000004
 31
0.0
  0
LINE
  5
2A0
  8
0
 62
     2
 10
220.7998069999999
 20
648.70941200000004
 30
0.0
 11
236.2998069999999
 21
648.70941200000004
 31
0.0
  0
LINE
  5
2A1
  8
0
 62
     2
 10
220.7998069999999
 20
622.70941200000004
 30
0.0
 11
220.7998069999999
 21
648.70941200000004
 31
0.0
  0
LINE
  5
2A2
  8
0
 62
     2
 10
236.2998069999999
 20
646.20941200000004
 30
0.0
 11
236.2998069999999
 21
648.70941200000004
 31
0.0
  0
LINE
  5
2A3
  8
0
 62
     2
 10
235.71401999999989
 20
643.0094069999999
 30
0.0
 11
236.2998069999999
 21
643.0094069999999
 31
0.0
  0
LINE
  5
2A4
  8
0
 62
     2
 10
236.2998069999999
 20
641.20941200000004
 30
0.0
 11
236.2998069999999
 21
646.20941200000004
 31
0.0
  0
LINE
  5
2A5
  8
0
 62
     2
 10
234.631721
 20
643.40940899999998
 30
0.0
 11
235.31402
 21
643.40940899999998
 31
0.0
  0
LINE
  5
2A6
  8
0
 62
     2
 10
235.31402
 20
643.40940899999998
 30
0.0
 11
235.71401999999989
 21
643.0094069999999
 31
0.0
  0
LINE
  5
2A7
  8
0
 62
     2
 10
222.29980699999999
 20
622.70941200000004
 30
0.0
 11
236.2998069999999
 21
646.20941200000004
 31
0.0
  0
LINE
  5
2A8
  8
0
 62
     2
 10
236.79980699999999
 20
624.20941200000004
 30
0.0
 11
236.79980699999999
 21
641.20941200000004
 31
0.0
  0
LINE
  5
2A9
  8
0
 62
     2
 10
238.2998069999999
 20
648.70941200000004
 30
0.0
 11
239.2998069999999
 21
647.70941200000004
 31
0.0
  0
LINE
  5
2AA
  8
0
 62
     6
 10
237.2998069999999
 20
626.20941200000004
 30
0.0
 11
237.2998069999999
 21
639.20941200000004
 31
0.0
  0
LINE
  5
2AB
  8
0
 62
     1
 10
318.79980499999999
 20
649.70941200000004
 30
0.0
 11
318.79980499999999
 21
651.70941200000004
 31
0.0
  0
LINE
  5
2AC
  8
0
 62
     1
 10
217.79980800000001
 20
651.70941200000004
 30
0.0
 11
242.2998069999999
 21
651.70941200000004
 31
0.0
  0
LINE
  5
2AD
  8
0
 62
     1
 10
217.79980800000001
 20
649.70941200000004
 30
0.0
 11
217.79980800000001
 21
651.70941200000004
 31
0.0
  0
LINE
  5
2AE
  8
0
 62
     1
 10
218.79980800000001
 20
648.70941200000004
 30
0.0
 11
220.7998069999999
 21
648.70941200000004
 31
0.0
  0
LINE
  5
2AF
  8
0
 62
     1
 10
238.2998069999999
 20
648.70941200000004
 30
0.0
 11
242.2998069999999
 21
648.70941200000004
 31
0.0
  0
LINE
  5
2B0
  8
0
 62
     1
 10
238.0498069999999
 20
643.40940899999998
 30
0.0
 11
242.2998069999999
 21
643.40940899999998
 31
0.0
  0
LINE
  5
2B1
  8
0
 62
     1
 10
237.04980699999999
 20
640.20941200000004
 30
0.0
 11
237.2998069999999
 21
640.20941200000004
 31
0.0
  0
LINE
  5
2B2
  8
0
 62
     1
 10
248.5498069999999
 20
640.20941200000004
 30
0.0
 11
248.5498069999999
 21
648.70941200000004
 31
0.0
  0
LINE
  5
2B3
  8
0
 62
     1
 10
237.04980699999999
 20
640.20941200000004
 30
0.0
 11
237.04980699999999
 21
646.20941200000004
 31
0.0
  0
LINE
  5
2B4
  8
0
 62
     1
 10
217.79980800000001
 20
651.70941200000004
 30
0.0
 11
217.79980800000001
 21
803.70942700000001
 31
0.0
  0
LINE
  5
2B5
  8
0
 62
     1
 10
318.79980499999999
 20
651.70941200000004
 30
0.0
 11
318.79980499999999
 21
803.70942700000001
 31
0.0
  0
LINE
  5
2B6
  8
0
 62
     1
 10
247.5498069999999
 20
643.40940899999998
 30
0.0
 11
248.5498069999999
 21
642.40940899999987
 31
0.0
  0
LINE
  5
2B7
  8
0
 62
     1
 10
237.04980699999999
 20
642.40940899999987
 30
0.0
 11
238.0498069999999
 21
643.40940899999998
 31
0.0
  0
LINE
  5
2B8
  8
0
 62
     1
 10
317.79980499999988
 20
648.70941200000004
 30
0.0
 11
318.79980499999999
 21
649.70941200000004
 31
0.0
  0
LINE
  5
2B9
  8
0
 62
     1
 10
217.79980800000001
 20
649.70941200000004
 30
0.0
 11
218.79980800000001
 21
648.70941200000004
 31
0.0
  0
LINE
  5
2BA
  8
0
 62
     2
 10
220.7998069999999
 20
647.70941200000004
 30
0.0
 11
236.2998069999999
 21
647.70941200000004
 31
0.0
  0
LINE
  5
2BB
  8
0
 62
     2
 10
220.7998069999999
 20
623.70941200000004
 30
0.0
 11
222.89555100000001
 21
623.70941200000004
 31
0.0
  0
LINE
  5
2BC
  8
0
 62
     2
 10
223.19342499999999
 20
624.20941200000004
 30
0.0
 11
236.79980699999999
 21
624.20941200000004
 31
0.0
  0
LINE
  5
2BD
  8
0
 62
     2
 10
233.32108299999999
 20
641.20941200000004
 30
0.0
 11
236.79980699999999
 21
641.20941200000004
 31
0.0
  0
LINE
  5
2BE
  8
0
 62
     6
 10
236.79980699999999
 20
639.20941200000004
 30
0.0
 11
237.2998069999999
 21
639.20941200000004
 31
0.0
  0
LINE
  5
2BF
  8
0
 62
     6
 10
236.79980699999999
 20
626.20941200000004
 30
0.0
 11
237.2998069999999
 21
626.20941200000004
 31
0.0
  0
LINE
  5
2C0
  8
0
 62
     1
 10
248.2998069999999
 20
640.20941200000004
 30
0.0
 11
248.5498069999999
 21
640.20941200000004
 31
0.0
  0
LINE
  5
2C1
  8
0
 62
     1
 10
247.29980699999999
 20
651.70941200000004
 30
0.0
 11
318.79980499999999
 21
651.70941200000004
 31
0.0
  0
LINE
  5
2C2
  8
0
 62
     1
 10
247.29980699999999
 20
648.70941200000004
 30
0.0
 11
317.79980499999988
 21
648.70941200000004
 31
0.0
  0
LINE
  5
2C3
  8
0
 62
     2
 10
318.79980499999999
 20
622.95941200000004
 30
0.0
 11
318.79980499999999
 21
647.45941200000004
 31
0.0
  0
ARC
  5
2C4
  8
0
 62
     2
 10
317.54980499999988
 20
647.45941200000004
 30
0.0
 40
1.25
 50
0.0
 51
90.000003000000007
  0
LINE
  5
2C5
  8
0
 62
     2
 10
317.79980499999988
 20
622.95941200000004
 30
0.0
 11
318.79980499999999
 21
622.95941200000004
 31
0.0
  0
LINE
  5
2C6
  8
0
 62
     2
 10
317.79980499999988
 20
621.95941200000004
 30
0.0
 11
317.79980499999988
 21
622.95941200000004
 31
0.0
  0
LINE
  5
2C7
  8
0
 62
     7
 10
248.2998069999999
 20
623.70941200000004
 30
0.0
 11
248.2998069999999
 21
641.70941200000004
 31
0.0
  0
LINE
  5
2C8
  8
0
 62
     7
 10
247.29980699999999
 20
641.70941200000004
 30
0.0
 11
248.2998069999999
 21
641.70941200000004
 31
0.0
  0
LINE
  5
2C9
  8
0
 62
     7
 10
247.29980699999999
 20
623.70941200000004
 30
0.0
 11
248.2998069999999
 21
623.70941200000004
 31
0.0
  0
LINE
  5
2CA
  8
0
 62
     2
 10
239.2998069999999
 20
474.70941199999987
 30
0.0
 11
239.2998069999999
 21
476.20941199999987
 31
0.0
  0
LINE
  5
2CB
  8
0
 62
     2
 10
236.2998069999999
 20
476.20941199999987
 30
0.0
 11
239.2998069999999
 21
476.20941199999987
 31
0.0
  0
LINE
  5
2CC
  8
0
 62
     2
 10
236.2998069999999
 20
473.70941199999999
 30
0.0
 11
238.2998069999999
 21
473.70941199999999
 31
0.0
  0
LINE
  5
2CD
  8
0
 62
     2
 10
220.7998069999999
 20
499.70941199999987
 30
0.0
 11
222.29980699999999
 21
499.70941199999987
 31
0.0
  0
LINE
  5
2CE
  8
0
 62
     2
 10
220.7998069999999
 20
473.70941199999999
 30
0.0
 11
236.2998069999999
 21
473.70941199999999
 31
0.0
  0
LINE
  5
2CF
  8
0
 62
     2
 10
220.7998069999999
 20
473.70941199999999
 30
0.0
 11
220.7998069999999
 21
499.70941199999987
 31
0.0
  0
LINE
  5
2D0
  8
0
 62
     2
 10
236.2998069999999
 20
473.70941199999999
 30
0.0
 11
236.2998069999999
 21
476.20941199999987
 31
0.0
  0
LINE
  5
2D1
  8
0
 62
     2
 10
235.71401999999989
 20
479.40941600000002
 30
0.0
 11
236.2998069999999
 21
479.40941600000002
 31
0.0
  0
LINE
  5
2D2
  8
0
 62
     2
 10
236.2998069999999
 20
476.20941199999987
 30
0.0
 11
236.2998069999999
 21
481.20941199999999
 31
0.0
  0
LINE
  5
2D3
  8
0
 62
     2
 10
234.631721
 20
479.00941499999999
 30
0.0
 11
235.31402
 21
479.00941499999999
 31
0.0
  0
LINE
  5
2D4
  8
0
 62
     2
 10
235.31402
 20
479.00941499999999
 30
0.0
 11
235.71401999999989
 21
479.40941600000002
 31
0.0
  0
LINE
  5
2D5
  8
0
 62
     2
 10
222.29980699999999
 20
499.70941199999987
 30
0.0
 11
236.2998069999999
 21
476.20941199999987
 31
0.0
  0
LINE
  5
2D6
  8
0
 62
     2
 10
236.79980699999999
 20
481.20941199999999
 30
0.0
 11
236.79980699999999
 21
498.20941199999999
 31
0.0
  0
LINE
  5
2D7
  8
0
 62
     2
 10
238.2998069999999
 20
473.70941199999999
 30
0.0
 11
239.2998069999999
 21
474.70941199999987
 31
0.0
  0
LINE
  5
2D8
  8
0
 62
     6
 10
237.2998069999999
 20
483.20941199999987
 30
0.0
 11
237.2998069999999
 21
496.20941199999987
 31
0.0
  0
LINE
  5
2D9
  8
0
 62
     2
 10
220.7998069999999
 20
474.70941199999987
 30
0.0
 11
236.2998069999999
 21
474.70941199999987
 31
0.0
  0
LINE
  5
2DA
  8
0
 62
     2
 10
220.7998069999999
 20
498.70941199999999
 30
0.0
 11
222.89555100000001
 21
498.70941199999999
 31
0.0
  0
LINE
  5
2DB
  8
0
 62
     2
 10
223.19342499999999
 20
498.20941199999999
 30
0.0
 11
236.79980699999999
 21
498.20941199999999
 31
0.0
  0
LINE
  5
2DC
  8
0
 62
     2
 10
233.32108299999999
 20
481.20941199999999
 30
0.0
 11
236.79980699999999
 21
481.20941199999999
 31
0.0
  0
LINE
  5
2DD
  8
0
 62
     6
 10
236.79980699999999
 20
483.20941199999987
 30
0.0
 11
237.2998069999999
 21
483.20941199999987
 31
0.0
  0
LINE
  5
2DE
  8
0
 62
     6
 10
236.79980699999999
 20
496.20941199999987
 30
0.0
 11
237.2998069999999
 21
496.20941199999987
 31
0.0
  0
LINE
  5
2DF
  8
0
 62
     7
 10
236.2998069999999
 20
476.20942699999989
 30
0.0
 11
291.29980499999999
 21
476.20942699999989
 31
0.0
  0
LINE
  5
2E0
  8
0
 62
     7
 10
247.29980699999999
 20
480.70941199999999
 30
0.0
 11
248.2998069999999
 21
480.70941199999999
 31
0.0
  0
LINE
  5
2E1
  8
0
 62
     7
 10
248.2998069999999
 20
480.70941199999999
 30
0.0
 11
248.2998069999999
 21
498.70941199999999
 31
0.0
  0
LINE
  5
2E2
  8
0
 62
     7
 10
247.29980699999999
 20
498.70941199999999
 30
0.0
 11
248.2998069999999
 21
498.70941199999999
 31
0.0
  0
LINE
  5
2E3
  8
0
 62
     7
 10
247.29980699999999
 20
480.70941199999999
 30
0.0
 11
247.29980699999999
 21
498.70941199999999
 31
0.0
  0
LINE
  5
2E4
  8
0
 62
     7
 10
242.2998069999999
 20
493.70941199999999
 30
0.0
 11
242.2998069999999
 21
501.70942300000002
 31
0.0
  0
LINE
  5
2E5
  8
0
 62
     7
 10
240.29980499999991
 20
493.70941199999999
 30
0.0
 11
240.29980499999991
 21
502.69261899999998
 31
0.0
  0
LINE
  5
2E6
  8
0
 62
     1
 10
248.69980599999991
 20
482.519409
 30
0.0
 11
248.69980599999991
 21
496.89940999999988
 31
0.0
  0
ARC
  5
2E7
  8
0
 62
     1
 10
251.05347099999989
 20
484.31690999999989
 30
0.0
 40
2.746335999999999
 50
319.117614
 51
40.882390999999998
  0
ARC
  5
2E8
  8
0
 62
     1
 10
251.05347099999989
 20
495.10191299999991
 30
0.0
 40
2.746335999999999
 50
319.117614
 51
40.882390999999998
  0
LINE
  5
2E9
  8
0
 62
     1
 10
248.69980599999991
 20
486.11440999999991
 30
0.0
 11
253.18300199999999
 21
486.11440999999991
 31
0.0
  0
ARC
  5
2EA
  8
0
 62
     1
 10
243.01480699999991
 20
489.70941199999999
 30
0.0
 40
10.785
 50
340.52878099999992
 51
19.471219000000001
  0
LINE
  5
2EB
  8
0
 62
     1
 10
248.69980599999991
 20
493.3044129999999
 30
0.0
 11
253.18300199999999
 21
493.3044129999999
 31
0.0
  0
LINE
  5
2EC
  8
0
 62
     1
 10
248.69980599999991
 20
482.519409
 30
0.0
 11
253.12985199999989
 21
482.519409
 31
0.0
  0
LINE
  5
2ED
  8
0
 62
     1
 10
248.69980599999991
 20
496.89940999999988
 30
0.0
 11
253.12985199999989
 21
496.89940999999988
 31
0.0
  0
LINE
  5
2EE
  8
0
 62
     1
 10
248.2998069999999
 20
483.6094129999999
 30
0.0
 11
248.69980599999991
 21
483.6094129999999
 31
0.0
  0
LINE
  5
2EF
  8
0
 62
     1
 10
248.2998069999999
 20
495.8094099999999
 30
0.0
 11
248.69980599999991
 21
495.8094099999999
 31
0.0
  0
LINE
  5
2F0
  8
0
 62
     7
 10
237.2998069999999
 20
486.47619999999989
 30
0.0
 11
245.7998069999999
 21
486.47619999999989
 31
0.0
  0
LINE
  5
2F1
  8
0
 62
     7
 10
237.2998069999999
 20
492.94262300000003
 30
0.0
 11
245.7998069999999
 21
492.94262300000003
 31
0.0
  0
LINE
  5
2F2
  8
0
 62
     1
 10
237.2998069999999
 20
493.70941199999999
 30
0.0
 11
247.29980699999999
 21
493.70941199999999
 31
0.0
  0
LINE
  5
2F3
  8
0
 62
     1
 10
237.2998069999999
 20
485.70941199999999
 30
0.0
 11
247.29980699999999
 21
485.70941199999999
 31
0.0
  0
LINE
  5
2F4
  8
0
 62
     1
 10
245.7998069999999
 20
485.70941199999999
 30
0.0
 11
245.7998069999999
 21
493.70941199999999
 31
0.0
  0
LINE
  5
2F5
  8
0
 62
     1
 10
248.2998069999999
 20
483.6094129999999
 30
0.0
 11
248.2998069999999
 21
495.8094099999999
 31
0.0
  0
LINE
  5
2F6
  8
0
 62
     1
 10
253.79980499999999
 20
484.31690999999989
 30
0.0
 11
253.79980499999999
 21
495.10191299999991
 31
0.0
  0
LINE
  5
2F7
  8
0
  6
DASHDOT
 62
     7
 10
234.2998069999999
 20
489.70941199999999
 30
0.0
 11
257.79980899999993
 21
489.70941199999999
 31
0.0
  0
LINE
  5
2F8
  8
0
 62
     1
 10
248.69980599999991
 20
625.51940899999988
 30
0.0
 11
248.69980599999991
 21
639.89941399999998
 31
0.0
  0
ARC
  5
2F9
  8
0
 62
     1
 10
251.05347099999989
 20
627.31691000000001
 30
0.0
 40
2.746335999999999
 50
319.117614
 51
40.882390999999998
  0
ARC
  5
2FA
  8
0
 62
     1
 10
251.05347099999989
 20
638.10191299999985
 30
0.0
 40
2.746335999999999
 50
319.117614
 51
40.882390999999998
  0
LINE
  5
2FB
  8
0
 62
     1
 10
248.69980599999991
 20
629.11440999999991
 30
0.0
 11
253.18300199999999
 21
629.11440999999991
 31
0.0
  0
ARC
  5
2FC
  8
0
 62
     1
 10
243.01480699999991
 20
632.70941200000004
 30
0.0
 40
10.785
 50
340.52878099999992
 51
19.471219000000001
  0
LINE
  5
2FD
  8
0
 62
     1
 10
248.69980599999991
 20
636.30441299999995
 30
0.0
 11
253.18300199999999
 21
636.30441299999995
 31
0.0
  0
LINE
  5
2FE
  8
0
 62
     1
 10
248.69980599999991
 20
625.51940899999988
 30
0.0
 11
253.12985199999989
 21
625.51940899999988
 31
0.0
  0
LINE
  5
2FF
  8
0
 62
     1
 10
248.69980599999991
 20
639.89941399999998
 30
0.0
 11
253.12985199999989
 21
639.89941399999998
 31
0.0
  0
LINE
  5
300
  8
0
 62
     1
 10
248.2998069999999
 20
626.6094129999999
 30
0.0
 11
248.69980599999991
 21
626.6094129999999
 31
0.0
  0
LINE
  5
301
  8
0
 62
     1
 10
248.2998069999999
 20
638.80940999999984
 30
0.0
 11
248.69980599999991
 21
638.80940999999984
 31
0.0
  0
LINE
  5
302
  8
0
 62
     7
 10
237.2998069999999
 20
629.47619599999985
 30
0.0
 11
245.7998069999999
 21
629.47619599999985
 31
0.0
  0
LINE
  5
303
  8
0
 62
     7
 10
237.2998069999999
 20
635.9426269999999
 30
0.0
 11
245.7998069999999
 21
635.9426269999999
 31
0.0
  0
LINE
  5
304
  8
0
 62
     1
 10
237.2998069999999
 20
636.70941200000004
 30
0.0
 11
248.2998069999999
 21
636.70941200000004
 31
0.0
  0
LINE
  5
305
  8
0
 62
     1
 10
237.2998069999999
 20
628.70941200000004
 30
0.0
 11
248.2998069999999
 21
628.70941200000004
 31
0.0
  0
LINE
  5
306
  8
0
 62
     1
 10
245.7998069999999
 20
628.70941200000004
 30
0.0
 11
245.7998069999999
 21
636.70941200000004
 31
0.0
  0
LINE
  5
307
  8
0
 62
     1
 10
248.2998069999999
 20
626.6094129999999
 30
0.0
 11
248.2998069999999
 21
638.80940999999984
 31
0.0
  0
LINE
  5
308
  8
0
 62
     1
 10
253.79980499999999
 20
627.31691000000001
 30
0.0
 11
253.79980499999999
 21
638.10191299999985
 31
0.0
  0
LINE
  5
309
  8
0
  6
DASHDOT
 62
     7
 10
234.2998069999999
 20
632.70941200000004
 30
0.0
 11
257.79980499999999
 21
632.70941200000004
 31
0.0
  0
LINE
  5
30A
  8
0
 62
     2
 10
241.2998069999999
 20
636.70941200000004
 30
0.0
 11
241.2998069999999
 21
642.70941200000004
 31
0.0
  0
LINE
  5
30B
  8
0
 62
     2
 10
241.2998069999999
 20
622.70941200000004
 30
0.0
 11
241.2998069999999
 21
628.70941200000004
 31
0.0
  0
LINE
  5
30C
  8
0
  6
DASHDOT
 62
     7
 10
198.56504199999989
 20
630.70941200000004
 30
0.0
 11
222.02534900000001
 21
630.70941200000004
 31
0.0
  0
LINE
  5
30D
  8
0
 62
     7
 10
210.2998069999999
 20
626.70941200000004
 30
0.0
 11
210.2998069999999
 21
634.70941200000004
 31
0.0
  0
LINE
  5
30E
  8
0
 62
     7
 10
210.2998069999999
 20
626.70941200000004
 30
0.0
 11
214.2998069999999
 21
626.70941200000004
 31
0.0
  0
LINE
  5
30F
  8
0
 62
     7
 10
210.2998069999999
 20
634.70941200000004
 30
0.0
 11
214.2998069999999
 21
634.70941200000004
 31
0.0
  0
LINE
  5
310
  8
0
 62
     7
 10
206.29980699999999
 20
628.20941200000004
 30
0.0
 11
206.29980699999999
 21
633.20941200000004
 31
0.0
  0
LINE
  5
311
  8
0
 62
     7
 10
206.29980699999999
 20
633.20941200000004
 30
0.0
 11
214.2998069999999
 21
633.20941200000004
 31
0.0
  0
LINE
  5
312
  8
0
 62
     7
 10
206.29980699999999
 20
628.20941200000004
 30
0.0
 11
214.2998069999999
 21
628.20941200000004
 31
0.0
  0
LINE
  5
313
  8
0
 62
     7
 10
210.2998069999999
 20
495.70941199999987
 30
0.0
 11
214.2998069999999
 21
495.70941199999987
 31
0.0
  0
LINE
  5
314
  8
0
 62
     7
 10
206.29980699999999
 20
494.20941199999999
 30
0.0
 11
214.2998069999999
 21
494.20941199999999
 31
0.0
  0
LINE
  5
315
  8
0
  6
DASHDOT
 62
     7
 10
198.56504199999989
 20
491.70941199999987
 30
0.0
 11
222.02534900000001
 21
491.70941199999987
 31
0.0
  0
LINE
  5
316
  8
0
 62
     7
 10
206.29980699999999
 20
489.20941199999999
 30
0.0
 11
214.2998069999999
 21
489.20941199999999
 31
0.0
  0
LINE
  5
317
  8
0
 62
     7
 10
210.2998069999999
 20
487.70941199999987
 30
0.0
 11
214.2998069999999
 21
487.70941199999987
 31
0.0
  0
LINE
  5
318
  8
0
 62
     7
 10
210.2998069999999
 20
487.70941199999987
 30
0.0
 11
210.2998069999999
 21
495.70941199999987
 31
0.0
  0
LINE
  5
319
  8
0
 62
     7
 10
206.29980699999999
 20
489.20941199999999
 30
0.0
 11
206.29980699999999
 21
494.20941199999999
 31
0.0
  0
LINE
  5
31A
  8
0
 62
     1
 10
217.79980800000001
 20
803.70942700000001
 30
0.0
 11
318.79980499999999
 21
803.70942700000001
 31
0.0
  0
LINE
  5
31B
  8
0
  6
DASHSPACE
 62
     7
 10
217.79980800000001
 20
766.70942699999989
 30
0.0
 11
318.79980499999999
 21
766.70942699999989
 31
0.0
  0
LINE
  5
31C
  8
0
  6
DASHSPACE
 62
     7
 10
217.79980800000001
 20
749.20942699999989
 30
0.0
 11
318.79980499999999
 21
749.20942699999989
 31
0.0
  0
LINE
  5
31D
  8
0
 62
     1
 10
247.29980699999999
 20
643.40940899999998
 30
0.0
 11
247.5498069999999
 21
643.40940899999998
 31
0.0
  0
LINE
  5
31E
  8
0
 62
     7
 10
246.34147799999991
 20
660.86792000000003
 30
0.0
 11
261.14504599999992
 21
667.77093500000001
 31
0.0
  0
LINE
  5
31F
  8
0
 62
     7
 10
261.14504199999999
 20
667.77093500000001
 30
0.0
 11
261.98659099999998
 21
668.50895700000001
 31
0.0
  0
LINE
  5
320
  8
0
 62
     7
 10
262.29980499999999
 20
669.58355700000004
 30
0.0
 11
262.29980499999999
 21
675.97201500000006
 31
0.0
  0
LINE
  5
321
  8
0
 62
     7
 10
262.29980499999999
 20
688.45941200000004
 30
0.0
 11
262.29980499999999
 21
696.95941200000004
 31
0.0
  0
LINE
  5
322
  8
0
 62
     7
 10
262.29980499999999
 20
696.95941200000004
 30
0.0
 11
262.29980499999999
 21
705.20939599999986
 31
0.0
  0
LINE
  5
323
  8
0
 62
     7
 10
262.29980499999999
 20
705.20939599999986
 30
0.0
 11
267.29980899999993
 21
705.20939599999986
 31
0.0
  0
LINE
  5
324
  8
0
 62
     7
 10
267.29980899999993
 20
696.95941200000004
 30
0.0
 11
267.29980899999993
 21
705.20939599999986
 31
0.0
  0
LINE
  5
325
  8
0
 62
     7
 10
262.29980499999999
 20
696.95941200000004
 30
0.0
 11
267.29980899999993
 21
696.95941200000004
 31
0.0
  0
LINE
  5
326
  8
0
 62
     7
 10
262.29980499999999
 20
688.45941200000004
 30
0.0
 11
267.29980899999993
 21
688.45941200000004
 31
0.0
  0
LINE
  5
327
  8
0
 62
     7
 10
267.29980899999993
 20
675.97201500000006
 30
0.0
 11
267.29980899999993
 21
688.45941200000004
 31
0.0
  0
LINE
  5
328
  8
0
 62
     7
 10
262.29980499999999
 20
675.97201500000006
 30
0.0
 11
262.29980499999999
 21
688.45941200000004
 31
0.0
  0
LINE
  5
329
  8
0
 62
     7
 10
267.29980899999993
 20
688.45941200000004
 30
0.0
 11
267.29980899999993
 21
696.95941200000004
 31
0.0
  0
LINE
  5
32A
  8
0
 62
     7
 10
267.29980899999993
 20
669.58355700000004
 30
0.0
 11
267.29980899999993
 21
675.97201500000006
 31
0.0
  0
LINE
  5
32B
  8
0
 62
     7
 10
261.98658799999993
 20
668.50895700000001
 30
0.0
 11
262.29980499999999
 21
669.58355700000004
 31
0.0
  0
ARC
  5
32C
  8
0
 62
     7
 10
260.29977799999989
 20
669.58356500000002
 30
0.0
 40
7.000032
 50
295.00018799999992
 51
359.9999279999999
  0
LINE
  5
32D
  8
0
 62
     7
 10
248.45455200000001
 20
656.33637199999987
 30
0.0
 11
263.25813299999987
 21
663.23939499999994
 31
0.0
  0
LINE
  5
32E
  8
0
 62
     7
 10
247.29980699999999
 20
636.95941200000004
 30
0.0
 11
247.29980699999999
 21
654.52378099999987
 31
0.0
  0
ARC
  5
32F
  8
0
 62
     7
 10
249.29977400000001
 20
654.52378099999987
 30
0.0
 40
1.999968999999999
 50
115.000004
 51
180.00000499999999
  0
ARC
  5
330
  8
0
 62
     7
 10
249.2998519999999
 20
654.52372000000003
 30
0.0
 40
7.0000619999999989
 50
115.000181
 51
179.99955399999999
  0
LINE
  5
331
  8
0
 62
     7
 10
242.2998069999999
 20
636.95941200000004
 30
0.0
 11
242.2998069999999
 21
654.52377300000001
 31
0.0
  0
LINE
  5
332
  8
0
 62
     7
 10
242.2998069999999
 20
636.95941200000004
 30
0.0
 11
247.29980699999999
 21
636.95941200000004
 31
0.0
  0
LINE
  5
333
  8
0
 62
     7
 10
242.2998069999999
 20
628.45941200000004
 30
0.0
 11
247.29980699999999
 21
628.45941200000004
 31
0.0
  0
LINE
  5
334
  8
0
 62
     7
 10
242.2998069999999
 20
622.70941200000004
 30
0.0
 11
242.2998069999999
 21
628.45941200000004
 31
0.0
  0
LINE
  5
335
  8
0
 62
     7
 10
242.2998069999999
 20
622.70941200000004
 30
0.0
 11
247.29980699999999
 21
622.70941200000004
 31
0.0
  0
LINE
  5
336
  8
0
 62
     7
 10
247.29980699999999
 20
622.70941200000004
 30
0.0
 11
247.29980699999999
 21
628.45941200000004
 31
0.0
  0
LINE
  5
337
  8
0
 62
     7
 10
241.2998069999999
 20
642.70941200000004
 30
0.0
 11
242.2998069999999
 21
642.70941200000004
 31
0.0
  0
LINE
  5
338
  8
0
 62
     7
 10
241.2998069999999
 20
626.70941200000004
 30
0.0
 11
242.2998069999999
 21
626.70941200000004
 31
0.0
  0
LINE
  5
339
  8
0
  6
DASHDOT
 62
     7
 10
240.2998069999999
 20
632.70941200000004
 30
0.0
 11
249.29980699999999
 21
632.70941200000004
 31
0.0
  0
LINE
  5
33A
  8
0
  6
DASHDOT
 62
     7
 10
260.29980499999999
 20
692.70941200000004
 30
0.0
 11
269.29980899999993
 21
692.70941200000004
 31
0.0
  0
LINE
  5
33B
  8
0
 62
     7
 10
349.02499399999988
 20
622.70941200000004
 30
0.0
 11
347.98309299999988
 21
616.800568
 31
0.0
  0
LINE
  5
33C
  8
0
 62
     7
 10
349.02499399999988
 20
622.70941200000004
 30
0.0
 11
350.06686400000001
 21
616.800568
 31
0.0
  0
LINE
  5
33D
  8
0
 62
     7
 10
349.02499399999988
 20
632.70941200000004
 30
0.0
 11
350.06686400000001
 21
638.61825599999986
 31
0.0
  0
LINE
  5
33E
  8
0
 62
     7
 10
349.02499399999988
 20
632.70941200000004
 30
0.0
 11
347.98309299999988
 21
638.61825599999986
 31
0.0
  0
LINE
  5
33F
  8
0
 62
     7
 10
349.02496300000001
 20
622.04560100000003
 30
0.0
 11
349.02499399999988
 21
633.04559299999994
 31
0.0
  0
LINE
  5
340
  8
0
 62
     7
 10
353.02499399999999
 20
622.70941200000004
 30
0.0
 11
254.19909699999999
 21
622.70944199999997
 31
0.0
  0
LINE
  5
341
  8
0
 62
     7
 10
353.02499399999999
 20
632.70941200000004
 30
0.0
 11
248.63241600000001
 21
632.70944199999985
 31
0.0
  0
LINE
  5
342
  8
0
 62
     7
 10
175.64813199999989
 20
489.70941199999999
 30
0.0
 11
174.606247
 21
483.800568
 31
0.0
  0
LINE
  5
343
  8
0
 62
     7
 10
175.64813199999989
 20
489.70941199999999
 30
0.0
 11
176.6900179999999
 21
483.800568
 31
0.0
  0
LINE
  5
344
  8
0
 62
     7
 10
175.64813199999989
 20
499.70942699999989
 30
0.0
 11
176.6900179999999
 21
505.61827099999988
 31
0.0
  0
LINE
  5
345
  8
0
 62
     7
 10
175.64813199999989
 20
499.70942699999989
 30
0.0
 11
174.606247
 21
505.61827099999988
 31
0.0
  0
LINE
  5
346
  8
0
 62
     7
 10
175.64813199999989
 20
472.70941199999999
 30
0.0
 11
175.64813199999989
 21
499.70942699999989
 31
0.0
  0
LINE
  5
347
  8
0
 62
     7
 10
171.64813199999989
 20
489.70941199999999
 30
0.0
 11
231.97277800000001
 21
489.70939599999991
 31
0.0
  0
LINE
  5
348
  8
0
 62
     7
 10
171.64813199999989
 20
499.70942699999989
 30
0.0
 11
219.29980499999991
 21
499.70941199999987
 31
0.0
  0
LINE
  5
349
  8
0
 62
     7
 10
214.29980499999999
 20
376.832855
 30
0.0
 11
208.390961
 21
377.87475599999988
 31
0.0
  0
LINE
  5
34A
  8
0
 62
     7
 10
214.29980499999999
 20
376.832855
 30
0.0
 11
208.390961
 21
375.79095499999988
 31
0.0
  0
LINE
  5
34B
  8
0
 62
     7
 10
217.29980499999991
 20
376.832855
 30
0.0
 11
223.20864899999989
 21
375.79095499999988
 31
0.0
  0
LINE
  5
34C
  8
0
 62
     7
 10
217.29980499999991
 20
376.832855
 30
0.0
 11
223.20864899999989
 21
377.87475599999988
 31
0.0
  0
LINE
  5
34D
  8
0
 62
     7
 10
352.34487899999988
 20
376.832855
 30
0.0
 11
346.43600499999991
 21
377.87475599999988
 31
0.0
  0
LINE
  5
34E
  8
0
 62
     7
 10
352.34487899999988
 20
376.832855
 30
0.0
 11
346.43600499999991
 21
375.79095499999988
 31
0.0
  0
LINE
  5
34F
  8
0
 62
     7
 10
197.29980499999991
 20
376.832855
 30
0.0
 11
352.34487899999988
 21
376.832855
 31
0.0
  0
LINE
  5
350
  8
0
 62
     7
 10
214.29980499999999
 20
372.832855
 30
0.0
 11
214.29980499999999
 21
465.37995899999999
 31
0.0
  0
LINE
  5
351
  8
0
 62
     7
 10
217.29980499999991
 20
372.832855
 30
0.0
 11
217.29980499999991
 21
465.37995899999999
 31
0.0
  0
LINE
  5
352
  8
0
 62
     7
 10
352.34487899999988
 20
372.832855
 30
0.0
 11
352.34484900000001
 21
548.70941200000004
 31
0.0
  0
LINE
  5
353
  8
0
 62
     7
 10
217.29980499999991
 20
406.22668499999997
 30
0.0
 11
223.20864899999989
 21
405.18481400000002
 31
0.0
  0
LINE
  5
354
  8
0
 62
     7
 10
217.29980499999991
 20
406.22668499999997
 30
0.0
 11
223.20864899999989
 21
407.26858499999997
 31
0.0
  0
LINE
  5
355
  8
0
 62
     7
 10
320.80111699999992
 20
406.22668499999997
 30
0.0
 11
314.89224200000001
 21
407.26858499999997
 31
0.0
  0
LINE
  5
356
  8
0
 62
     7
 10
320.80111699999992
 20
406.22668499999997
 30
0.0
 11
314.89224200000001
 21
405.18481400000002
 31
0.0
  0
LINE
  5
357
  8
0
 62
     7
 10
217.29980499999991
 20
406.22668499999997
 30
0.0
 11
320.80111699999992
 21
406.22668499999997
 31
0.0
  0
LINE
  5
358
  8
0
 62
     7
 10
217.29980499999991
 20
402.22668499999997
 30
0.0
 11
217.29980499999991
 21
465.37995899999999
 31
0.0
  0
LINE
  5
359
  8
0
 62
     7
 10
320.80111699999992
 20
402.22668499999997
 30
0.0
 11
320.80108599999988
 21
506.45941199999987
 31
0.0
  0
LINE
  5
35A
  8
0
 62
     7
 10
217.29980499999991
 20
423.24121100000002
 30
0.0
 11
223.20864899999989
 21
422.19930999999991
 31
0.0
  0
LINE
  5
35B
  8
0
 62
     7
 10
217.29980499999991
 20
423.24121100000002
 30
0.0
 11
223.20864899999989
 21
424.2831119999999
 31
0.0
  0
LINE
  5
35C
  8
0
 62
     7
 10
318.79977400000001
 20
423.24121100000002
 30
0.0
 11
312.89092999999991
 21
424.2831119999999
 31
0.0
  0
LINE
  5
35D
  8
0
 62
     7
 10
318.79977400000001
 20
423.24121100000002
 30
0.0
 11
312.89092999999991
 21
422.19930999999991
 31
0.0
  0
LINE
  5
35E
  8
0
 62
     7
 10
217.29980499999991
 20
423.24121100000002
 30
0.0
 11
318.79980499999999
 21
423.24121100000002
 31
0.0
  0
LINE
  5
35F
  8
0
 62
     7
 10
217.29980499999991
 20
419.24121099999991
 30
0.0
 11
217.29980499999991
 21
656.23771699999986
 31
0.0
  0
LINE
  5
360
  8
0
 62
     7
 10
318.79980499999999
 20
419.24121099999991
 30
0.0
 11
318.79977400000001
 21
621.95941200000004
 31
0.0
  0
LINE
  5
361
  8
0
 62
     7
 10
370.77563500000002
 20
506.45941199999987
 30
0.0
 11
371.81753500000002
 21
512.36827100000005
 31
0.0
  0
LINE
  5
362
  8
0
 62
     7
 10
370.77563500000002
 20
506.45941199999987
 30
0.0
 11
369.73373399999991
 21
512.36827100000005
 31
0.0
  0
LINE
  5
363
  8
0
 62
     7
 10
370.775665
 20
611.45941900000003
 30
0.0
 11
369.73376500000001
 21
605.55057499999998
 31
0.0
  0
LINE
  5
364
  8
0
 62
     7
 10
370.775665
 20
611.45941900000003
 30
0.0
 11
371.81756599999989
 21
605.55057499999998
 31
0.0
  0
LINE
  5
365
  8
0
 62
     7
 10
370.77563500000002
 20
506.45941199999987
 30
0.0
 11
370.775665
 21
611.45941900000003
 31
0.0
  0
LINE
  5
366
  8
0
 62
     7
 10
374.77563500000002
 20
506.45941199999987
 30
0.0
 11
324.30096400000002
 21
506.45942699999989
 31
0.0
  0
LINE
  5
367
  8
0
 62
     7
 10
374.77566499999989
 20
611.45941900000003
 30
0.0
 11
324.300995
 21
611.45943499999987
 31
0.0
  0
LINE
  5
368
  8
0
 62
     7
 10
217.29980499999991
 20
389.72906499999999
 30
0.0
 11
223.20864899999989
 21
388.68716399999988
 31
0.0
  0
LINE
  5
369
  8
0
 62
     7
 10
217.29980499999991
 20
389.72906499999999
 30
0.0
 11
223.20864899999989
 21
390.77093500000001
 31
0.0
  0
LINE
  5
36A
  8
0
 62
     7
 10
324.30096400000002
 20
389.72906499999999
 30
0.0
 11
318.39211999999998
 21
390.77093500000001
 31
0.0
  0
LINE
  5
36B
  8
0
 62
     7
 10
324.30096400000002
 20
389.72906499999999
 30
0.0
 11
318.39211999999998
 21
388.68716399999988
 31
0.0
  0
LINE
  5
36C
  8
0
 62
     7
 10
326.30096400000002
 20
389.72906499999999
 30
0.0
 11
332.2098079999999
 21
388.68716399999988
 31
0.0
  0
LINE
  5
36D
  8
0
 62
     7
 10
326.30096400000002
 20
389.72906499999999
 30
0.0
 11
332.2098079999999
 21
390.77093500000001
 31
0.0
  0
LINE
  5
36E
  8
0
 62
     7
 10
217.29980499999991
 20
389.72906499999999
 30
0.0
 11
337.80096400000002
 21
389.72906499999999
 31
0.0
  0
LINE
  5
36F
  8
0
 62
     7
 10
217.29980499999991
 20
385.72906499999988
 30
0.0
 11
217.29980499999991
 21
465.37995899999999
 31
0.0
  0
LINE
  5
370
  8
0
 62
     7
 10
324.30096400000002
 20
385.72906499999988
 30
0.0
 11
324.30096400000002
 21
431.04728699999993
 31
0.0
  0
LINE
  5
371
  8
0
 62
     7
 10
326.30096400000002
 20
385.72906499999988
 30
0.0
 11
326.30096400000002
 21
432.48654199999999
 31
0.0
  0
LINE
  5
372
  8
0
 62
     7
 10
217.29980499999991
 20
449.66091899999998
 30
0.0
 11
223.20864899999989
 21
448.61901899999998
 31
0.0
  0
LINE
  5
373
  8
0
 62
     7
 10
217.29980499999991
 20
449.66091899999998
 30
0.0
 11
223.20864899999989
 21
450.7028049999999
 31
0.0
  0
LINE
  5
374
  8
0
 62
     7
 10
237.29980499999999
 20
449.66091899999998
 30
0.0
 11
231.39096099999989
 21
450.7028049999999
 31
0.0
  0
LINE
  5
375
  8
0
 62
     7
 10
237.29980499999999
 20
449.66091899999998
 30
0.0
 11
231.39096099999989
 21
448.61901899999998
 31
0.0
  0
LINE
  5
376
  8
0
 62
     7
 10
200.29980499999991
 20
449.66091899999998
 30
0.0
 11
237.29980499999999
 21
449.66091899999998
 31
0.0
  0
LINE
  5
377
  8
0
 62
     7
 10
217.29980499999991
 20
445.66091899999998
 30
0.0
 11
217.29980499999991
 21
465.37995899999999
 31
0.0
  0
LINE
  5
378
  8
0
 62
     7
 10
237.29980499999999
 20
445.66091899999998
 30
0.0
 11
237.29980499999999
 21
480.70942699999989
 31
0.0
  0
LINE
  5
379
  8
0
 62
     7
 10
237.29980499999999
 20
437.60308800000001
 30
0.0
 11
231.39096099999989
 21
438.64497399999999
 31
0.0
  0
LINE
  5
37A
  8
0
 62
     7
 10
237.29980499999999
 20
437.60308800000001
 30
0.0
 11
231.39096099999989
 21
436.56118800000002
 31
0.0
  0
POLYLINE
  5
37B
  8
0
 62
     7
 66
     1
 10
0.0
 20
0.0
 30
0.0
 70
     1
  0
VERTEX
  5
923
  8
0
 62
     7
 10
243.29980499999999
 20
437.60308800000001
 30
0.0
  0
VERTEX
  5
924
  8
0
 62
     7
 10
243.006912
 20
438.31019600000002
 30
0.0
  0
VERTEX
  5
925
  8
0
 62
     7
 10
242.29980499999991
 20
438.6030879999999
 30
0.0
  0
VERTEX
  5
926
  8
0
 62
     7
 10
241.59269699999999
 20
438.31019600000002
 30
0.0
  0
VERTEX
  5
927
  8
0
 62
     7
 10
241.29980499999999
 20
437.60308800000001
 30
0.0
  0
VERTEX
  5
928
  8
0
 62
     7
 10
241.59269699999999
 20
436.89598099999989
 30
0.0
  0
VERTEX
  5
929
  8
0
 62
     7
 10
242.29980499999991
 20
436.60308800000001
 30
0.0
  0
VERTEX
  5
92A
  8
0
 62
     7
 10
243.006912
 20
436.89598099999989
 30
0.0
  0
SEQEND
  5
92B
  8
0
 62
     7
  0
LINE
  5
385
  8
0
 62
     7
 10
247.29980499999999
 20
437.60308800000001
 30
0.0
 11
253.20864900000001
 21
436.56118800000002
 31
0.0
  0
LINE
  5
386
  8
0
 62
     7
 10
247.29980499999999
 20
437.60308800000001
 30
0.0
 11
253.20864900000001
 21
438.64497399999999
 31
0.0
  0
LINE
  5
387
  8
0
 62
     7
 10
225.79980499999991
 20
437.60308800000001
 30
0.0
 11
283.61047400000001
 21
437.60308800000001
 31
0.0
  0
LINE
  5
388
  8
0
 62
     7
 10
237.29980499999999
 20
433.60308800000001
 30
0.0
 11
237.29980499999999
 21
480.70942699999989
 31
0.0
  0
LINE
  5
389
  8
0
 62
     7
 10
242.29980499999991
 20
433.60308800000001
 30
0.0
 11
242.29980499999991
 21
480.70942699999989
 31
0.0
  0
LINE
  5
38A
  8
0
 62
     7
 10
247.29980499999999
 20
433.60308800000001
 30
0.0
 11
247.29980499999999
 21
480.70942699999989
 31
0.0
  0
LINE
  5
38B
  8
0
 62
     2
 10
190.57435599999991
 20
485.70941199999999
 30
0.0
 11
189.5324709999999
 21
479.800568
 31
0.0
  0
LINE
  5
38C
  8
0
 62
     2
 10
190.57435599999991
 20
485.70941199999999
 30
0.0
 11
191.61625699999999
 21
479.800568
 31
0.0
  0
LINE
  5
38D
  8
0
 62
     2
 10
190.57435599999991
 20
493.70941199999999
 30
0.0
 11
191.61625699999999
 21
499.61825599999997
 31
0.0
  0
LINE
  5
38E
  8
0
 62
     2
 10
190.57435599999991
 20
493.70941199999999
 30
0.0
 11
189.5324709999999
 21
499.61825599999997
 31
0.0
  0
LINE
  5
38F
  8
0
 62
     2
 10
190.57435599999991
 20
468.70941199999999
 30
0.0
 11
190.57435599999991
 21
493.70941199999999
 31
0.0
  0
LINE
  5
390
  8
0
 62
     2
 10
186.57435599999999
 20
485.70941199999999
 30
0.0
 11
237.29980499999999
 21
485.70941199999999
 31
0.0
  0
LINE
  5
391
  8
0
 62
     2
 10
186.57435599999999
 20
493.70941199999999
 30
0.0
 11
237.29980499999999
 21
493.70941199999999
 31
0.0
  0
LINE
  5
392
  8
0
  6
DASHDOT
 62
     7
 10
566.25185999999985
 20
677.78038800000002
 30
0.0
 11
566.25185999999985
 21
434.89775800000001
 31
0.0
  0
LINE
  5
393
  8
0
  6
DASHDOT
 62
     7
 10
596.20498499999985
 20
630.70941200000004
 30
0.0
 11
532.04730800000004
 21
630.70941200000004
 31
0.0
  0
LINE
  5
394
  8
0
  6
DASHDOT
 62
     7
 10
592.32732399999986
 20
491.70941199999987
 30
0.0
 11
532.04730800000004
 21
491.70941199999987
 31
0.0
  0
LINE
  5
395
  8
0
  6
DASHDOT
 62
     7
 10
548.75185999999985
 20
642.52891499999998
 30
0.0
 11
548.75185999999985
 21
475.08443499999998
 31
0.0
  0
LINE
  5
396
  8
0
  6
DASHDOT
 62
     7
 10
583.75185999999997
 20
643.93897199999992
 30
0.0
 11
583.75185999999997
 21
476.14197499999989
 31
0.0
  0
POLYLINE
  5
397
  8
0
 62
     3
 66
     1
 10
0.0
 20
0.0
 30
0.0
  0
VERTEX
  5
92C
  8
0
 62
     3
 10
518.75185999999985
 20
672.14015199999994
 30
0.0
  0
VERTEX
  5
92D
  8
0
 62
     3
 10
518.75185999999985
 20
656.14015199999994
 30
0.0
  0
VERTEX
  5
92E
  8
0
 62
     3
 10
520.75185999999985
 20
655.14015199999994
 30
0.0
  0
VERTEX
  5
92F
  8
0
 62
     3
 10
516.75185999999997
 20
654.14015199999994
 30
0.0
  0
VERTEX
  5
930
  8
0
 62
     3
 10
518.75185999999985
 20
653.14015199999994
 30
0.0
  0
VERTEX
  5
931
  8
0
 62
     3
 10
518.75185999999985
 20
637.14015199999994
 30
0.0
  0
VERTEX
  5
932
  8
0
 62
     3
 10
520.75185999999985
 20
636.14015199999994
 30
0.0
  0
VERTEX
  5
933
  8
0
 62
     3
 10
516.75185999999997
 20
635.14015199999994
 30
0.0
  0
VERTEX
  5
934
  8
0
 62
     3
 10
518.75185999999985
 20
634.14015199999994
 30
0.0
  0
VERTEX
  5
935
  8
0
 62
     3
 10
518.75185999999985
 20
618.14015199999994
 30
0.0
  0
VERTEX
  5
936
  8
0
 62
     3
 10
520.75185999999985
 20
617.14015199999994
 30
0.0
  0
VERTEX
  5
937
  8
0
 62
     3
 10
516.75185999999997
 20
616.14015199999994
 30
0.0
  0
VERTEX
  5
938
  8
0
 62
     3
 10
518.75185999999985
 20
615.14015199999994
 30
0.0
  0
VERTEX
  5
939
  8
0
 62
     3
 10
518.75185999999985
 20
599.14015199999994
 30
0.0
  0
VERTEX
  5
93A
  8
0
 62
     3
 10
520.75185999999985
 20
598.14015199999994
 30
0.0
  0
VERTEX
  5
93B
  8
0
 62
     3
 10
516.75185999999997
 20
597.14015199999994
 30
0.0
  0
VERTEX
  5
93C
  8
0
 62
     3
 10
518.75185999999985
 20
596.14015199999994
 30
0.0
  0
VERTEX
  5
93D
  8
0
 62
     3
 10
518.75185999999985
 20
580.14015199999994
 30
0.0
  0
VERTEX
  5
93E
  8
0
 62
     3
 10
520.75185999999985
 20
579.14015199999994
 30
0.0
  0
VERTEX
  5
93F
  8
0
 62
     3
 10
516.75185999999997
 20
578.14015199999994
 30
0.0
  0
VERTEX
  5
940
  8
0
 62
     3
 10
518.75185999999985
 20
577.14015199999994
 30
0.0
  0
VERTEX
  5
941
  8
0
 62
     3
 10
518.75185999999985
 20
561.14015199999994
 30
0.0
  0
VERTEX
  5
942
  8
0
 62
     3
 10
520.75185999999985
 20
560.14015199999994
 30
0.0
  0
VERTEX
  5
943
  8
0
 62
     3
 10
516.75185999999997
 20
559.14015199999994
 30
0.0
  0
VERTEX
  5
944
  8
0
 62
     3
 10
518.75185999999985
 20
558.14015199999994
 30
0.0
  0
VERTEX
  5
945
  8
0
 62
     3
 10
518.75185999999985
 20
542.14015199999994
 30
0.0
  0
VERTEX
  5
946
  8
0
 62
     3
 10
520.75185999999985
 20
541.14015199999994
 30
0.0
  0
VERTEX
  5
947
  8
0
 62
     3
 10
516.75185999999997
 20
540.14015199999994
 30
0.0
  0
VERTEX
  5
948
  8
0
 62
     3
 10
518.75185999999985
 20
539.14015199999994
 30
0.0
  0
VERTEX
  5
949
  8
0
 62
     3
 10
518.75185999999985
 20
523.14015199999994
 30
0.0
  0
VERTEX
  5
94A
  8
0
 62
     3
 10
520.75185999999985
 20
522.14015199999994
 30
0.0
  0
VERTEX
  5
94B
  8
0
 62
     3
 10
516.75185999999997
 20
521.14015199999994
 30
0.0
  0
VERTEX
  5
94C
  8
0
 62
     3
 10
518.75185999999985
 20
520.14015199999994
 30
0.0
  0
VERTEX
  5
94D
  8
0
 62
     3
 10
518.75185999999985
 20
504.14015199999989
 30
0.0
  0
VERTEX
  5
94E
  8
0
 62
     3
 10
520.75185999999985
 20
503.14015199999989
 30
0.0
  0
VERTEX
  5
94F
  8
0
 62
     3
 10
516.75185999999997
 20
502.14015199999989
 30
0.0
  0
VERTEX
  5
950
  8
0
 62
     3
 10
518.75185999999985
 20
501.14015199999989
 30
0.0
  0
VERTEX
  5
951
  8
0
 62
     3
 10
518.75185999999985
 20
485.14015199999989
 30
0.0
  0
VERTEX
  5
952
  8
0
 62
     3
 10
520.75185999999985
 20
484.14015199999989
 30
0.0
  0
VERTEX
  5
953
  8
0
 62
     3
 10
516.75185999999997
 20
483.14015199999989
 30
0.0
  0
VERTEX
  5
954
  8
0
 62
     3
 10
518.75185999999985
 20
482.14015199999989
 30
0.0
  0
VERTEX
  5
955
  8
0
 62
     3
 10
518.75185999999985
 20
466.14015199999989
 30
0.0
  0
VERTEX
  5
956
  8
0
 62
     3
 10
520.75185999999985
 20
465.14015199999989
 30
0.0
  0
VERTEX
  5
957
  8
0
 62
     3
 10
516.75185999999997
 20
464.14015199999989
 30
0.0
  0
VERTEX
  5
958
  8
0
 62
     3
 10
518.75185999999985
 20
463.14015199999989
 30
0.0
  0
VERTEX
  5
959
  8
0
 62
     3
 10
518.75185999999985
 20
448.64582799999999
 30
0.0
  0
SEQEND
  5
95A
  8
0
 62
     3
  0
POLYLINE
  5
3C7
  8
0
 62
     3
 66
     1
 10
0.0
 20
0.0
 30
0.0
  0
VERTEX
  5
95B
  8
0
 62
     3
 10
613.75185999999985
 20
672.14015199999994
 30
0.0
  0
VERTEX
  5
95C
  8
0
 62
     3
 10
613.75185999999985
 20
656.14015199999994
 30
0.0
  0
VERTEX
  5
95D
  8
0
 62
     3
 10
615.75185999999985
 20
655.14015199999994
 30
0.0
  0
VERTEX
  5
95E
  8
0
 62
     3
 10
611.75185999999985
 20
654.14015199999994
 30
0.0
  0
VERTEX
  5
95F
  8
0
 62
     3
 10
613.75185999999985
 20
653.14015199999994
 30
0.0
  0
VERTEX
  5
960
  8
0
 62
     3
 10
613.75185999999985
 20
637.14015199999994
 30
0.0
  0
VERTEX
  5
961
  8
0
 62
     3
 10
615.75185999999985
 20
636.14015199999994
 30
0.0
  0
VERTEX
  5
962
  8
0
 62
     3
 10
611.75185999999985
 20
635.14015199999994
 30
0.0
  0
VERTEX
  5
963
  8
0
 62
     3
 10
613.75185999999985
 20
634.14015199999994
 30
0.0
  0
VERTEX
  5
964
  8
0
 62
     3
 10
613.75185999999985
 20
618.14015199999994
 30
0.0
  0
VERTEX
  5
965
  8
0
 62
     3
 10
615.75185999999985
 20
617.14015199999994
 30
0.0
  0
VERTEX
  5
966
  8
0
 62
     3
 10
611.75185999999985
 20
616.14015199999994
 30
0.0
  0
VERTEX
  5
967
  8
0
 62
     3
 10
613.75185999999985
 20
615.14015199999994
 30
0.0
  0
VERTEX
  5
968
  8
0
 62
     3
 10
613.75185999999985
 20
599.14015199999994
 30
0.0
  0
VERTEX
  5
969
  8
0
 62
     3
 10
615.75185999999985
 20
598.14015199999994
 30
0.0
  0
VERTEX
  5
96A
  8
0
 62
     3
 10
611.75185999999985
 20
597.14015199999994
 30
0.0
  0
VERTEX
  5
96B
  8
0
 62
     3
 10
613.75185999999985
 20
596.14015199999994
 30
0.0
  0
VERTEX
  5
96C
  8
0
 62
     3
 10
613.75185999999985
 20
580.14015199999994
 30
0.0
  0
VERTEX
  5
96D
  8
0
 62
     3
 10
615.75185999999985
 20
579.14015199999994
 30
0.0
  0
VERTEX
  5
96E
  8
0
 62
     3
 10
611.75185999999985
 20
578.14015199999994
 30
0.0
  0
VERTEX
  5
96F
  8
0
 62
     3
 10
613.75185999999985
 20
577.14015199999994
 30
0.0
  0
VERTEX
  5
970
  8
0
 62
     3
 10
613.75185999999985
 20
561.14015199999994
 30
0.0
  0
VERTEX
  5
971
  8
0
 62
     3
 10
615.75185999999985
 20
560.14015199999994
 30
0.0
  0
VERTEX
  5
972
  8
0
 62
     3
 10
611.75185999999985
 20
559.14015199999994
 30
0.0
  0
VERTEX
  5
973
  8
0
 62
     3
 10
613.75185999999985
 20
558.14015199999994
 30
0.0
  0
VERTEX
  5
974
  8
0
 62
     3
 10
613.75185999999985
 20
542.14015199999994
 30
0.0
  0
VERTEX
  5
975
  8
0
 62
     3
 10
615.75185999999985
 20
541.14015199999994
 30
0.0
  0
VERTEX
  5
976
  8
0
 62
     3
 10
611.75185999999985
 20
540.14015199999994
 30
0.0
  0
VERTEX
  5
977
  8
0
 62
     3
 10
613.75185999999985
 20
539.14015199999994
 30
0.0
  0
VERTEX
  5
978
  8
0
 62
     3
 10
613.75185999999985
 20
523.14015199999994
 30
0.0
  0
VERTEX
  5
979
  8
0
 62
     3
 10
615.75185999999985
 20
522.14015199999994
 30
0.0
  0
VERTEX
  5
97A
  8
0
 62
     3
 10
611.75185999999985
 20
521.14015199999994
 30
0.0
  0
VERTEX
  5
97B
  8
0
 62
     3
 10
613.75185999999985
 20
520.14015199999994
 30
0.0
  0
VERTEX
  5
97C
  8
0
 62
     3
 10
613.75185999999985
 20
504.14015199999989
 30
0.0
  0
VERTEX
  5
97D
  8
0
 62
     3
 10
615.75185999999985
 20
503.14015199999989
 30
0.0
  0
VERTEX
  5
97E
  8
0
 62
     3
 10
611.75185999999985
 20
502.14015199999989
 30
0.0
  0
VERTEX
  5
97F
  8
0
 62
     3
 10
613.75185999999985
 20
501.14015199999989
 30
0.0
  0
VERTEX
  5
980
  8
0
 62
     3
 10
613.75185999999985
 20
485.14015199999989
 30
0.0
  0
VERTEX
  5
981
  8
0
 62
     3
 10
615.75185999999985
 20
484.14015199999989
 30
0.0
  0
VERTEX
  5
982
  8
0
 62
     3
 10
611.75185999999985
 20
483.14015199999989
 30
0.0
  0
VERTEX
  5
983
  8
0
 62
     3
 10
613.75185999999985
 20
482.14015199999989
 30
0.0
  0
VERTEX
  5
984
  8
0
 62
     3
 10
613.75185999999985
 20
466.14015199999989
 30
0.0
  0
VERTEX
  5
985
  8
0
 62
     3
 10
615.75185999999985
 20
465.14015199999989
 30
0.0
  0
VERTEX
  5
986
  8
0
 62
     3
 10
611.75185999999985
 20
464.14015199999989
 30
0.0
  0
VERTEX
  5
987
  8
0
 62
     3
 10
613.75185999999985
 20
463.14015199999989
 30
0.0
  0
VERTEX
  5
988
  8
0
 62
     3
 10
613.75185999999985
 20
449.70337699999988
 30
0.0
  0
SEQEND
  5
989
  8
0
 62
     3
  0
POLYLINE
  5
3F7
  8
0
 62
     3
 66
     1
 10
0.0
 20
0.0
 30
0.0
  0
VERTEX
  5
98A
  8
0
 62
     3
 10
631.10394099999985
 20
660.70941200000004
 30
0.0
  0
VERTEX
  5
98B
  8
0
 62
     3
 10
615.10394099999996
 20
660.70941200000004
 30
0.0
  0
VERTEX
  5
98C
  8
0
 62
     3
 10
614.10394099999985
 20
658.70941200000004
 30
0.0
  0
VERTEX
  5
98D
  8
0
 62
     3
 10
613.10394099999985
 20
662.70941200000004
 30
0.0
  0
VERTEX
  5
98E
  8
0
 62
     3
 10
612.10394099999985
 20
660.70941200000004
 30
0.0
  0
VERTEX
  5
98F
  8
0
 62
     3
 10
596.10394099999985
 20
660.70941200000004
 30
0.0
  0
VERTEX
  5
990
  8
0
 62
     3
 10
595.10394099999985
 20
658.70941200000004
 30
0.0
  0
VERTEX
  5
991
  8
0
 62
     3
 10
594.10394099999996
 20
662.70941200000004
 30
0.0
  0
VERTEX
  5
992
  8
0
 62
     3
 10
593.10394099999985
 20
660.70941200000004
 30
0.0
  0
VERTEX
  5
993
  8
0
 62
     3
 10
577.10394099999985
 20
660.70941200000004
 30
0.0
  0
VERTEX
  5
994
  8
0
 62
     3
 10
576.10394099999985
 20
658.70941200000004
 30
0.0
  0
VERTEX
  5
995
  8
0
 62
     3
 10
575.10394099999985
 20
662.70941200000004
 30
0.0
  0
VERTEX
  5
996
  8
0
 62
     3
 10
574.10394099999985
 20
660.70941200000004
 30
0.0
  0
VERTEX
  5
997
  8
0
 62
     3
 10
558.10394099999985
 20
660.70941200000004
 30
0.0
  0
VERTEX
  5
998
  8
0
 62
     3
 10
557.10394099999996
 20
658.70941200000004
 30
0.0
  0
VERTEX
  5
999
  8
0
 62
     3
 10
556.10394099999985
 20
662.70941200000004
 30
0.0
  0
VERTEX
  5
99A
  8
0
 62
     3
 10
555.10394099999985
 20
660.70941200000004
 30
0.0
  0
VERTEX
  5
99B
  8
0
 62
     3
 10
539.10394099999985
 20
660.70941200000004
 30
0.0
  0
VERTEX
  5
99C
  8
0
 62
     3
 10
538.10394099999985
 20
658.70941200000004
 30
0.0
  0
VERTEX
  5
99D
  8
0
 62
     3
 10
537.10394099999985
 20
662.70941200000004
 30
0.0
  0
VERTEX
  5
99E
  8
0
 62
     3
 10
536.10394099999996
 20
660.70941200000004
 30
0.0
  0
VERTEX
  5
99F
  8
0
 62
     3
 10
520.10394099999985
 20
660.70941200000004
 30
0.0
  0
VERTEX
  5
9A0
  8
0
 62
     3
 10
519.10394099999996
 20
658.70941200000004
 30
0.0
  0
VERTEX
  5
9A1
  8
0
 62
     3
 10
518.10394099999985
 20
662.70941200000004
 30
0.0
  0
VERTEX
  5
9A2
  8
0
 62
     3
 10
517.10394099999985
 20
660.70941200000004
 30
0.0
  0
VERTEX
  5
9A3
  8
0
 62
     3
 10
510.89642900000001
 20
660.70941200000004
 30
0.0
  0
SEQEND
  5
9A4
  8
0
 62
     3
  0
POLYLINE
  5
413
  8
0
 62
     3
 66
     1
 10
0.0
 20
0.0
 30
0.0
  0
VERTEX
  5
9A5
  8
0
 62
     3
 10
626.87376200000006
 20
461.70941199999987
 30
0.0
  0
VERTEX
  5
9A6
  8
0
 62
     3
 10
610.87376200000006
 20
461.70941199999987
 30
0.0
  0
VERTEX
  5
9A7
  8
0
 62
     3
 10
609.87376200000006
 20
459.70941199999999
 30
0.0
  0
VERTEX
  5
9A8
  8
0
 62
     3
 10
608.87376200000006
 20
463.70941199999987
 30
0.0
  0
VERTEX
  5
9A9
  8
0
 62
     3
 10
607.87376200000006
 20
461.70941199999987
 30
0.0
  0
VERTEX
  5
9AA
  8
0
 62
     3
 10
591.87376200000006
 20
461.70941199999987
 30
0.0
  0
VERTEX
  5
9AB
  8
0
 62
     3
 10
590.87376200000006
 20
459.70941199999999
 30
0.0
  0
VERTEX
  5
9AC
  8
0
 62
     3
 10
589.87376200000006
 20
463.70941199999987
 30
0.0
  0
VERTEX
  5
9AD
  8
0
 62
     3
 10
588.87376200000006
 20
461.70941199999987
 30
0.0
  0
VERTEX
  5
9AE
  8
0
 62
     3
 10
572.87376200000006
 20
461.70941199999987
 30
0.0
  0
VERTEX
  5
9AF
  8
0
 62
     3
 10
571.87376200000006
 20
459.70941199999999
 30
0.0
  0
VERTEX
  5
9B0
  8
0
 62
     3
 10
570.87376200000006
 20
463.70941199999987
 30
0.0
  0
VERTEX
  5
9B1
  8
0
 62
     3
 10
569.87376200000006
 20
461.70941199999987
 30
0.0
  0
VERTEX
  5
9B2
  8
0
 62
     3
 10
553.87376200000006
 20
461.70941199999987
 30
0.0
  0
VERTEX
  5
9B3
  8
0
 62
     3
 10
552.87376200000006
 20
459.70941199999999
 30
0.0
  0
VERTEX
  5
9B4
  8
0
 62
     3
 10
551.87376200000006
 20
463.70941199999987
 30
0.0
  0
VERTEX
  5
9B5
  8
0
 62
     3
 10
550.87376200000006
 20
461.70941199999987
 30
0.0
  0
VERTEX
  5
9B6
  8
0
 62
     3
 10
534.87376200000006
 20
461.70941199999987
 30
0.0
  0
VERTEX
  5
9B7
  8
0
 62
     3
 10
533.87376200000006
 20
459.70941199999999
 30
0.0
  0
VERTEX
  5
9B8
  8
0
 62
     3
 10
532.87376200000006
 20
463.70941199999987
 30
0.0
  0
VERTEX
  5
9B9
  8
0
 62
     3
 10
531.87376200000006
 20
461.70941199999987
 30
0.0
  0
VERTEX
  5
9BA
  8
0
 62
     3
 10
515.87376200000006
 20
461.70941199999987
 30
0.0
  0
VERTEX
  5
9BB
  8
0
 62
     3
 10
514.87376200000006
 20
459.70941199999999
 30
0.0
  0
VERTEX
  5
9BC
  8
0
 62
     3
 10
513.87376200000006
 20
463.70941199999987
 30
0.0
  0
VERTEX
  5
9BD
  8
0
 62
     3
 10
512.87376200000006
 20
461.70941199999987
 30
0.0
  0
VERTEX
  5
9BE
  8
0
 62
     3
 10
507.01876600000003
 20
461.70941199999987
 30
0.0
  0
SEQEND
  5
9BF
  8
0
 62
     3
  0
CIRCLE
  5
42F
  8
0
 62
     7
 10
548.75185999999985
 20
630.70941200000004
 30
0.0
 40
2.75
  0
CIRCLE
  5
430
  8
0
 62
     7
 10
583.75185999999997
 20
630.70941200000004
 30
0.0
 40
2.75
  0
CIRCLE
  5
431
  8
0
 62
     7
 10
548.75185999999985
 20
491.70941199999987
 30
0.0
 40
2.75
  0
CIRCLE
  5
432
  8
0
 62
     7
 10
583.75185999999997
 20
491.70941199999987
 30
0.0
 40
2.75
  0
LINE
  5
433
  8
0
  6
DASHDOT
 62
     7
 10
689.27128400000004
 20
558.95941200000004
 30
0.0
 11
455.47475999999989
 21
558.95941200000004
 31
0.0
  0
LINE
  5
434
  8
0
 62
     7
 10
446.7387599999999
 20
630.70941200000004
 30
0.0
 11
444.65497399999998
 21
618.89172400000007
 31
0.0
  0
LINE
  5
435
  8
0
 62
     7
 10
446.7387599999999
 20
630.70941200000004
 30
0.0
 11
448.82253099999991
 21
618.89172400000007
 31
0.0
  0
LINE
  5
436
  8
0
 62
     7
 10
446.738699
 20
491.70941199999987
 30
0.0
 11
448.82248499999992
 21
503.52710000000002
 31
0.0
  0
LINE
  5
437
  8
0
 62
     7
 10
446.738699
 20
491.70941199999987
 30
0.0
 11
444.65492799999998
 21
503.52710000000002
 31
0.0
  0
LINE
  5
438
  8
0
 62
     7
 10
446.7387599999999
 20
630.70941200000004
 30
0.0
 11
446.7387139999999
 21
491.70941199999987
 31
0.0
  0
LINE
  5
439
  8
0
 62
     7
 10
438.7387599999999
 20
630.70941200000004
 30
0.0
 11
532.04729999999995
 21
630.70935099999986
 31
0.0
  0
LINE
  5
43A
  8
0
 62
     7
 10
438.738699
 20
491.70941199999987
 30
0.0
 11
532.04725499999995
 21
491.70941199999987
 31
0.0
  0
LINE
  5
43B
  8
0
 62
     7
 10
583.75185999999997
 20
581.89636199999995
 30
0.0
 11
595.56955099999993
 21
579.81262199999992
 31
0.0
  0
LINE
  5
43C
  8
0
 62
     7
 10
583.75185999999997
 20
581.89636199999995
 30
0.0
 11
595.56955099999993
 21
583.98016399999995
 31
0.0
  0
LINE
  5
43D
  8
0
 62
     7
 10
548.75187500000004
 20
581.89636199999995
 30
0.0
 11
536.93417899999997
 21
583.98016399999995
 31
0.0
  0
LINE
  5
43E
  8
0
 62
     7
 10
548.75187500000004
 20
581.89636199999995
 30
0.0
 11
536.93417899999997
 21
579.81262199999992
 31
0.0
  0
LINE
  5
43F
  8
0
 62
     7
 10
667.41294699999992
 20
581.89636199999995
 30
0.0
 11
548.75187500000004
 21
581.89636199999995
 31
0.0
  0
LINE
  5
440
  8
0
 62
     5
 10
476.60506199999998
 20
630.70941200000004
 30
0.0
 11
474.52129200000002
 21
618.89172400000007
 31
0.0
  0
LINE
  5
441
  8
0
 62
     5
 10
476.60506199999998
 20
630.70941200000004
 30
0.0
 11
478.68884800000001
 21
618.89172400000007
 31
0.0
  0
LINE
  5
442
  8
0
 62
     5
 10
476.60506199999998
 20
558.95941200000004
 30
0.0
 11
478.68883299999999
 21
570.77710000000002
 31
0.0
  0
LINE
  5
443
  8
0
 62
     5
 10
476.60506199999998
 20
558.95941200000004
 30
0.0
 11
474.521276
 21
570.77710000000002
 31
0.0
  0
LINE
  5
444
  8
0
 62
     5
 10
476.60506199999998
 20
630.70941200000004
 30
0.0
 11
476.60506199999998
 21
558.95941200000004
 31
0.0
  0
LINE
  5
445
  8
0
 62
     5
 10
468.60506199999998
 20
630.70941200000004
 30
0.0
 11
532.04730800000004
 21
630.70941200000004
 31
0.0
  0
LINE
  5
446
  8
0
 62
     7
 10
860.10719299999994
 20
502.95941199999987
 30
0.0
 11
972.10719299999994
 21
502.95941199999987
 31
0.0
  0
LINE
  5
447
  8
0
 62
     7
 10
860.10719299999994
 20
614.95941200000004
 30
0.0
 11
972.10719299999994
 21
614.95941200000004
 31
0.0
  0
LINE
  5
448
  8
0
 62
     7
 10
860.10719299999994
 20
614.95941200000004
 30
0.0
 11
860.10719299999994
 21
502.95941199999987
 31
0.0
  0
LINE
  5
449
  8
0
 62
     7
 10
972.10719299999994
 20
614.95941200000004
 30
0.0
 11
972.10719299999994
 21
502.95941199999987
 31
0.0
  0
LINE
  5
44A
  8
0
  6
DASHDOT
 62
     7
 10
916.10719300000005
 20
675.33526600000005
 30
0.0
 11
916.10719300000005
 21
438.81224800000001
 31
0.0
  0
CIRCLE
  5
44B
  8
0
 62
     7
 10
876.10719299999994
 20
629.95941200000004
 30
0.0
 40
3.5
  0
CIRCLE
  5
44C
  8
0
 62
     7
 10
956.10719299999982
 20
629.95941200000004
 30
0.0
 40
3.5
  0
CIRCLE
  5
44D
  8
0
 62
     7
 10
956.10719299999982
 20
487.95941199999999
 30
0.0
 40
3.5
  0
CIRCLE
  5
44E
  8
0
 62
     7
 10
876.10719299999994
 20
487.95941199999999
 30
0.0
 40
3.5
  0
POLYLINE
  5
44F
  8
0
 62
     3
 66
     1
 10
0.0
 20
0.0
 30
0.0
  0
VERTEX
  5
9C0
  8
0
 62
     3
 10
844.24920699999996
 20
639.35861199999999
 30
0.0
  0
VERTEX
  5
9C1
  8
0
 62
     3
 10
860.24920699999996
 20
639.35861199999999
 30
0.0
  0
VERTEX
  5
9C2
  8
0
 62
     3
 10
861.24920699999996
 20
641.35861199999988
 30
0.0
  0
VERTEX
  5
9C3
  8
0
 62
     3
 10
862.24920700000007
 20
637.35861199999988
 30
0.0
  0
VERTEX
  5
9C4
  8
0
 62
     3
 10
863.24920700000007
 20
639.35861199999999
 30
0.0
  0
VERTEX
  5
9C5
  8
0
 62
     3
 10
879.24920700000007
 20
639.35861199999999
 30
0.0
  0
VERTEX
  5
9C6
  8
0
 62
     3
 10
880.24920700000007
 20
641.35861199999988
 30
0.0
  0
VERTEX
  5
9C7
  8
0
 62
     3
 10
881.24920700000007
 20
637.35861199999988
 30
0.0
  0
VERTEX
  5
9C8
  8
0
 62
     3
 10
882.24920699999996
 20
639.35861199999999
 30
0.0
  0
VERTEX
  5
9C9
  8
0
 62
     3
 10
898.24920700000007
 20
639.35861199999999
 30
0.0
  0
VERTEX
  5
9CA
  8
0
 62
     3
 10
899.24920699999996
 20
641.35861199999988
 30
0.0
  0
VERTEX
  5
9CB
  8
0
 62
     3
 10
900.24920699999996
 20
637.35861199999988
 30
0.0
  0
VERTEX
  5
9CC
  8
0
 62
     3
 10
901.24920699999996
 20
639.35861199999999
 30
0.0
  0
VERTEX
  5
9CD
  8
0
 62
     3
 10
917.24920699999996
 20
639.35861199999999
 30
0.0
  0
VERTEX
  5
9CE
  8
0
 62
     3
 10
918.24920699999996
 20
641.35861199999988
 30
0.0
  0
VERTEX
  5
9CF
  8
0
 62
     3
 10
919.24920699999996
 20
637.35861199999988
 30
0.0
  0
VERTEX
  5
9D0
  8
0
 62
     3
 10
920.24920700000007
 20
639.35861199999999
 30
0.0
  0
VERTEX
  5
9D1
  8
0
 62
     3
 10
936.24920699999996
 20
639.35861199999999
 30
0.0
  0
VERTEX
  5
9D2
  8
0
 62
     3
 10
937.24920700000007
 20
641.35861199999988
 30
0.0
  0
VERTEX
  5
9D3
  8
0
 62
     3
 10
938.24920700000007
 20
637.35861199999988
 30
0.0
  0
VERTEX
  5
9D4
  8
0
 62
     3
 10
939.24920700000007
 20
639.35861199999999
 30
0.0
  0
VERTEX
  5
9D5
  8
0
 62
     3
 10
955.24920700000007
 20
639.35861199999999
 30
0.0
  0
VERTEX
  5
9D6
  8
0
 62
     3
 10
956.24920700000007
 20
641.35861199999988
 30
0.0
  0
VERTEX
  5
9D7
  8
0
 62
     3
 10
957.24920699999996
 20
637.35861199999988
 30
0.0
  0
VERTEX
  5
9D8
  8
0
 62
     3
 10
958.24920699999996
 20
639.35861199999999
 30
0.0
  0
VERTEX
  5
9D9
  8
0
 62
     3
 10
974.24920699999996
 20
639.35861199999999
 30
0.0
  0
VERTEX
  5
9DA
  8
0
 62
     3
 10
975.24920699999996
 20
641.35861199999988
 30
0.0
  0
VERTEX
  5
9DB
  8
0
 62
     3
 10
976.24920699999996
 20
637.35861199999988
 30
0.0
  0
VERTEX
  5
9DC
  8
0
 62
     3
 10
977.24920699999996
 20
639.35861199999999
 30
0.0
  0
VERTEX
  5
9DD
  8
0
 62
     3
 10
987.46268499999996
 20
639.35861199999999
 30
0.0
  0
SEQEND
  5
9DE
  8
0
 62
     3
  0
POLYLINE
  5
46F
  8
0
 62
     3
 66
     1
 10
0.0
 20
0.0
 30
0.0
  0
VERTEX
  5
9DF
  8
0
 62
     3
 10
844.24920699999996
 20
474.53749099999987
 30
0.0
  0
VERTEX
  5
9E0
  8
0
 62
     3
 10
860.24920699999996
 20
474.53749099999987
 30
0.0
  0
VERTEX
  5
9E1
  8
0
 62
     3
 10
861.24920699999996
 20
476.53749099999999
 30
0.0
  0
VERTEX
  5
9E2
  8
0
 62
     3
 10
862.24920700000007
 20
472.53749099999999
 30
0.0
  0
VERTEX
  5
9E3
  8
0
 62
     3
 10
863.24920700000007
 20
474.53749099999987
 30
0.0
  0
VERTEX
  5
9E4
  8
0
 62
     3
 10
879.24920700000007
 20
474.53749099999987
 30
0.0
  0
VERTEX
  5
9E5
  8
0
 62
     3
 10
880.24920700000007
 20
476.53749099999999
 30
0.0
  0
VERTEX
  5
9E6
  8
0
 62
     3
 10
881.24920700000007
 20
472.53749099999999
 30
0.0
  0
VERTEX
  5
9E7
  8
0
 62
     3
 10
882.24920699999996
 20
474.53749099999987
 30
0.0
  0
VERTEX
  5
9E8
  8
0
 62
     3
 10
898.24920700000007
 20
474.53749099999987
 30
0.0
  0
VERTEX
  5
9E9
  8
0
 62
     3
 10
899.24920699999996
 20
476.53749099999999
 30
0.0
  0
VERTEX
  5
9EA
  8
0
 62
     3
 10
900.24920699999996
 20
472.53749099999999
 30
0.0
  0
VERTEX
  5
9EB
  8
0
 62
     3
 10
901.24920699999996
 20
474.53749099999987
 30
0.0
  0
VERTEX
  5
9EC
  8
0
 62
     3
 10
917.24920699999996
 20
474.53749099999987
 30
0.0
  0
VERTEX
  5
9ED
  8
0
 62
     3
 10
918.24920699999996
 20
476.53749099999999
 30
0.0
  0
VERTEX
  5
9EE
  8
0
 62
     3
 10
919.24920699999996
 20
472.53749099999999
 30
0.0
  0
VERTEX
  5
9EF
  8
0
 62
     3
 10
920.24920700000007
 20
474.53749099999987
 30
0.0
  0
VERTEX
  5
9F0
  8
0
 62
     3
 10
936.24920699999996
 20
474.53749099999987
 30
0.0
  0
VERTEX
  5
9F1
  8
0
 62
     3
 10
937.24920700000007
 20
476.53749099999999
 30
0.0
  0
VERTEX
  5
9F2
  8
0
 62
     3
 10
938.24920700000007
 20
472.53749099999999
 30
0.0
  0
VERTEX
  5
9F3
  8
0
 62
     3
 10
939.24920700000007
 20
474.53749099999987
 30
0.0
  0
VERTEX
  5
9F4
  8
0
 62
     3
 10
955.24920700000007
 20
474.53749099999987
 30
0.0
  0
VERTEX
  5
9F5
  8
0
 62
     3
 10
956.24920700000007
 20
476.53749099999999
 30
0.0
  0
VERTEX
  5
9F6
  8
0
 62
     3
 10
957.24920699999996
 20
472.53749099999999
 30
0.0
  0
VERTEX
  5
9F7
  8
0
 62
     3
 10
958.24920699999996
 20
474.53749099999987
 30
0.0
  0
VERTEX
  5
9F8
  8
0
 62
     3
 10
974.24920699999996
 20
474.53749099999987
 30
0.0
  0
VERTEX
  5
9F9
  8
0
 62
     3
 10
975.24920699999996
 20
476.53749099999999
 30
0.0
  0
VERTEX
  5
9FA
  8
0
 62
     3
 10
976.24920699999996
 20
472.53749099999999
 30
0.0
  0
VERTEX
  5
9FB
  8
0
 62
     3
 10
977.24920699999996
 20
474.53749099999987
 30
0.0
  0
VERTEX
  5
9FC
  8
0
 62
     3
 10
987.46268499999996
 20
474.53749099999987
 30
0.0
  0
SEQEND
  5
9FD
  8
0
 62
     3
  0
POLYLINE
  5
48F
  8
0
 62
     3
 66
     1
 10
0.0
 20
0.0
 30
0.0
  0
VERTEX
  5
9FE
  8
0
 62
     3
 10
987.46268499999996
 20
639.35861199999999
 30
0.0
  0
VERTEX
  5
9FF
  8
0
 62
     3
 10
987.46268499999996
 20
623.35861199999999
 30
0.0
  0
VERTEX
  5
A00
  8
0
 62
     3
 10
989.46268499999985
 20
622.35861199999999
 30
0.0
  0
VERTEX
  5
A01
  8
0
 62
     3
 10
985.46268499999996
 20
621.35861199999999
 30
0.0
  0
VERTEX
  5
A02
  8
0
 62
     3
 10
987.46268499999996
 20
620.35861199999988
 30
0.0
  0
VERTEX
  5
A03
  8
0
 62
     3
 10
987.46268499999996
 20
604.35861199999999
 30
0.0
  0
VERTEX
  5
A04
  8
0
 62
     3
 10
989.46268499999985
 20
603.35861199999988
 30
0.0
  0
VERTEX
  5
A05
  8
0
 62
     3
 10
985.46268499999996
 20
602.35861199999999
 30
0.0
  0
VERTEX
  5
A06
  8
0
 62
     3
 10
987.46268499999996
 20
601.35861199999999
 30
0.0
  0
VERTEX
  5
A07
  8
0
 62
     3
 10
987.46268499999996
 20
585.35861199999999
 30
0.0
  0
VERTEX
  5
A08
  8
0
 62
     3
 10
989.46268499999985
 20
584.35861199999999
 30
0.0
  0
VERTEX
  5
A09
  8
0
 62
     3
 10
985.46268499999996
 20
583.35861199999988
 30
0.0
  0
VERTEX
  5
A0A
  8
0
 62
     3
 10
987.46268499999996
 20
582.35861199999988
 30
0.0
  0
VERTEX
  5
A0B
  8
0
 62
     3
 10
987.46268499999996
 20
566.35861199999988
 30
0.0
  0
VERTEX
  5
A0C
  8
0
 62
     3
 10
989.46268499999985
 20
565.35861199999988
 30
0.0
  0
VERTEX
  5
A0D
  8
0
 62
     3
 10
985.46268499999996
 20
564.35861199999999
 30
0.0
  0
VERTEX
  5
A0E
  8
0
 62
     3
 10
987.46268499999996
 20
563.35861199999999
 30
0.0
  0
VERTEX
  5
A0F
  8
0
 62
     3
 10
987.46268499999996
 20
547.35861199999999
 30
0.0
  0
VERTEX
  5
A10
  8
0
 62
     3
 10
989.46268499999985
 20
546.35861199999999
 30
0.0
  0
VERTEX
  5
A11
  8
0
 62
     3
 10
985.46268499999996
 20
545.35861199999988
 30
0.0
  0
VERTEX
  5
A12
  8
0
 62
     3
 10
987.46268499999996
 20
544.35861199999988
 30
0.0
  0
VERTEX
  5
A13
  8
0
 62
     3
 10
987.46268499999996
 20
528.35861199999988
 30
0.0
  0
VERTEX
  5
A14
  8
0
 62
     3
 10
989.46268499999985
 20
527.35861199999999
 30
0.0
  0
VERTEX
  5
A15
  8
0
 62
     3
 10
985.46268499999996
 20
526.35861199999999
 30
0.0
  0
VERTEX
  5
A16
  8
0
 62
     3
 10
987.46268499999996
 20
525.35861199999999
 30
0.0
  0
VERTEX
  5
A17
  8
0
 62
     3
 10
987.46268499999996
 20
509.35861199999999
 30
0.0
  0
VERTEX
  5
A18
  8
0
 62
     3
 10
989.46268499999985
 20
508.35861199999988
 30
0.0
  0
VERTEX
  5
A19
  8
0
 62
     3
 10
985.46268499999996
 20
507.35861199999988
 30
0.0
  0
VERTEX
  5
A1A
  8
0
 62
     3
 10
987.46268499999996
 20
506.35861199999999
 30
0.0
  0
VERTEX
  5
A1B
  8
0
 62
     3
 10
987.46268499999996
 20
490.35861199999988
 30
0.0
  0
VERTEX
  5
A1C
  8
0
 62
     3
 10
989.46268499999985
 20
489.35861199999999
 30
0.0
  0
VERTEX
  5
A1D
  8
0
 62
     3
 10
985.46268499999996
 20
488.35861199999999
 30
0.0
  0
VERTEX
  5
A1E
  8
0
 62
     3
 10
987.46268499999996
 20
487.35861199999988
 30
0.0
  0
VERTEX
  5
A1F
  8
0
 62
     3
 10
987.46268499999996
 20
474.53749099999987
 30
0.0
  0
SEQEND
  5
A20
  8
0
 62
     3
  0
POLYLINE
  5
4B3
  8
0
 62
     3
 66
     1
 10
0.0
 20
0.0
 30
0.0
  0
VERTEX
  5
A21
  8
0
 62
     3
 10
844.24920699999996
 20
639.35861199999999
 30
0.0
  0
VERTEX
  5
A22
  8
0
 62
     3
 10
844.24920699999996
 20
623.35861199999999
 30
0.0
  0
VERTEX
  5
A23
  8
0
 62
     3
 10
846.24920700000007
 20
622.35861199999999
 30
0.0
  0
VERTEX
  5
A24
  8
0
 62
     3
 10
842.24920699999996
 20
621.35861199999999
 30
0.0
  0
VERTEX
  5
A25
  8
0
 62
     3
 10
844.24920699999996
 20
620.35861199999988
 30
0.0
  0
VERTEX
  5
A26
  8
0
 62
     3
 10
844.24920699999996
 20
604.35861199999999
 30
0.0
  0
VERTEX
  5
A27
  8
0
 62
     3
 10
846.24920700000007
 20
603.35861199999988
 30
0.0
  0
VERTEX
  5
A28
  8
0
 62
     3
 10
842.24920699999996
 20
602.35861199999999
 30
0.0
  0
VERTEX
  5
A29
  8
0
 62
     3
 10
844.24920699999996
 20
601.35861199999999
 30
0.0
  0
VERTEX
  5
A2A
  8
0
 62
     3
 10
844.24920699999996
 20
585.35861199999999
 30
0.0
  0
VERTEX
  5
A2B
  8
0
 62
     3
 10
846.24920700000007
 20
584.35861199999999
 30
0.0
  0
VERTEX
  5
A2C
  8
0
 62
     3
 10
842.24920699999996
 20
583.35861199999988
 30
0.0
  0
VERTEX
  5
A2D
  8
0
 62
     3
 10
844.24920699999996
 20
582.35861199999988
 30
0.0
  0
VERTEX
  5
A2E
  8
0
 62
     3
 10
844.24920699999996
 20
566.35861199999988
 30
0.0
  0
VERTEX
  5
A2F
  8
0
 62
     3
 10
846.24920700000007
 20
565.35861199999988
 30
0.0
  0
VERTEX
  5
A30
  8
0
 62
     3
 10
842.24920699999996
 20
564.35861199999999
 30
0.0
  0
VERTEX
  5
A31
  8
0
 62
     3
 10
844.24920699999996
 20
563.35861199999999
 30
0.0
  0
VERTEX
  5
A32
  8
0
 62
     3
 10
844.24920699999996
 20
547.35861199999999
 30
0.0
  0
VERTEX
  5
A33
  8
0
 62
     3
 10
846.24920700000007
 20
546.35861199999999
 30
0.0
  0
VERTEX
  5
A34
  8
0
 62
     3
 10
842.24920699999996
 20
545.35861199999988
 30
0.0
  0
VERTEX
  5
A35
  8
0
 62
     3
 10
844.24920699999996
 20
544.35861199999988
 30
0.0
  0
VERTEX
  5
A36
  8
0
 62
     3
 10
844.24920699999996
 20
528.35861199999988
 30
0.0
  0
VERTEX
  5
A37
  8
0
 62
     3
 10
846.24920700000007
 20
527.35861199999999
 30
0.0
  0
VERTEX
  5
A38
  8
0
 62
     3
 10
842.24920699999996
 20
526.35861199999999
 30
0.0
  0
VERTEX
  5
A39
  8
0
 62
     3
 10
844.24920699999996
 20
525.35861199999999
 30
0.0
  0
VERTEX
  5
A3A
  8
0
 62
     3
 10
844.24920699999996
 20
509.35861199999999
 30
0.0
  0
VERTEX
  5
A3B
  8
0
 62
     3
 10
846.24920700000007
 20
508.35861199999988
 30
0.0
  0
VERTEX
  5
A3C
  8
0
 62
     3
 10
842.24920699999996
 20
507.35861199999988
 30
0.0
  0
VERTEX
  5
A3D
  8
0
 62
     3
 10
844.24920699999996
 20
506.35861199999999
 30
0.0
  0
VERTEX
  5
A3E
  8
0
 62
     3
 10
844.24920699999996
 20
490.35861199999988
 30
0.0
  0
VERTEX
  5
A3F
  8
0
 62
     3
 10
846.24920700000007
 20
489.35861199999999
 30
0.0
  0
VERTEX
  5
A40
  8
0
 62
     3
 10
842.24920699999996
 20
488.35861199999999
 30
0.0
  0
VERTEX
  5
A41
  8
0
 62
     3
 10
844.24920699999996
 20
487.35861199999988
 30
0.0
  0
VERTEX
  5
A42
  8
0
 62
     3
 10
844.24920699999996
 20
474.53749099999987
 30
0.0
  0
SEQEND
  5
A43
  8
0
 62
     3
  0
LINE
  5
4D7
  8
0
  6
DASHDOT
 62
     7
 10
956.10719299999982
 20
636.45941200000004
 30
0.0
 11
956.10719299999982
 21
623.45941200000004
 31
0.0
  0
LINE
  5
4D8
  8
0
  6
DASHDOT
 62
     7
 10
949.60719299999994
 20
629.95941200000004
 30
0.0
 11
962.60719300000005
 21
629.95941200000004
 31
0.0
  0
LINE
  5
4D9
  8
0
  6
DASHDOT
 62
     7
 10
876.10719299999994
 20
636.45941200000004
 30
0.0
 11
876.10719299999994
 21
623.45941200000004
 31
0.0
  0
LINE
  5
4DA
  8
0
  6
DASHDOT
 62
     7
 10
869.60719300000005
 20
629.95941200000004
 30
0.0
 11
882.60719299999994
 21
629.95941200000004
 31
0.0
  0
LINE
  5
4DB
  8
0
  6
DASHDOT
 62
     7
 10
876.10719299999994
 20
494.45941199999987
 30
0.0
 11
876.10719299999994
 21
481.45941199999987
 31
0.0
  0
LINE
  5
4DC
  8
0
  6
DASHDOT
 62
     7
 10
869.60719300000005
 20
487.95941199999999
 30
0.0
 11
882.60719299999994
 21
487.95941199999999
 31
0.0
  0
LINE
  5
4DD
  8
0
  6
DASHDOT
 62
     7
 10
956.10719299999982
 20
494.45941199999987
 30
0.0
 11
956.10719299999982
 21
481.45941199999987
 31
0.0
  0
LINE
  5
4DE
  8
0
  6
DASHDOT
 62
     7
 10
949.60719299999994
 20
487.95941199999999
 30
0.0
 11
962.60719300000005
 21
487.95941199999999
 31
0.0
  0
LINE
  5
4DF
  8
0
  6
DASHDOT
 62
     7
 10
814.64376100000015
 20
558.95941200000004
 30
0.0
 11
1026.628365
 21
558.95941200000004
 31
0.0
  0
LINE
  5
4E0
  8
0
 62
     7
 10
793.51344299999994
 20
614.95941200000004
 30
0.0
 11
791.42970300000002
 21
603.14172399999995
 31
0.0
  0
LINE
  5
4E1
  8
0
 62
     7
 10
793.51344299999994
 20
614.95941200000004
 30
0.0
 11
795.59724400000005
 21
603.14172399999995
 31
0.0
  0
LINE
  5
4E2
  8
0
 62
     7
 10
793.51344299999994
 20
502.95941199999987
 30
0.0
 11
795.59724400000005
 21
514.777107
 31
0.0
  0
LINE
  5
4E3
  8
0
 62
     7
 10
793.51344299999994
 20
502.95941199999987
 30
0.0
 11
791.42970300000002
 21
514.777107
 31
0.0
  0
LINE
  5
4E4
  8
0
 62
     7
 10
793.51344299999994
 20
614.95941200000004
 30
0.0
 11
793.51344299999994
 21
502.95941199999987
 31
0.0
  0
LINE
  5
4E5
  8
0
 62
     7
 10
785.51344299999994
 20
614.95941200000004
 30
0.0
 11
860.10719299999994
 21
614.95941900000003
 31
0.0
  0
LINE
  5
4E6
  8
0
 62
     7
 10
785.51344299999994
 20
502.95941199999987
 30
0.0
 11
860.10719299999994
 21
502.95941499999998
 31
0.0
  0
LINE
  5
4E7
  8
0
 62
     7
 10
756.02424599999995
 20
629.95941200000004
 30
0.0
 11
753.94044500000007
 21
618.14172399999995
 31
0.0
  0
LINE
  5
4E8
  8
0
 62
     7
 10
756.02424599999995
 20
629.95941200000004
 30
0.0
 11
758.10798599999998
 21
618.14172399999995
 31
0.0
  0
LINE
  5
4E9
  8
0
 62
     7
 10
756.02424599999995
 20
487.95941199999999
 30
0.0
 11
758.10798599999998
 21
499.777107
 31
0.0
  0
LINE
  5
4EA
  8
0
 62
     7
 10
756.02424599999995
 20
487.95941199999999
 30
0.0
 11
753.94044500000007
 21
499.777107
 31
0.0
  0
LINE
  5
4EB
  8
0
 62
     7
 10
756.02424599999995
 20
629.95941200000004
 30
0.0
 11
756.02424599999995
 21
487.95941199999999
 31
0.0
  0
LINE
  5
4EC
  8
0
 62
     7
 10
748.02424599999995
 20
629.95941200000004
 30
0.0
 11
869.60719300000005
 21
629.95941900000003
 31
0.0
  0
LINE
  5
4ED
  8
0
 62
     7
 10
748.02424599999995
 20
487.95941199999999
 30
0.0
 11
869.60719300000005
 21
487.95941900000003
 31
0.0
  0
LINE
  5
4EE
  8
0
 62
     7
 10
876.10719299999994
 20
678.74338499999999
 30
0.0
 11
887.92488099999991
 21
676.65959899999996
 31
0.0
  0
LINE
  5
4EF
  8
0
 62
     7
 10
876.10719299999994
 20
678.74338499999999
 30
0.0
 11
887.92488099999991
 21
680.82715599999995
 31
0.0
  0
LINE
  5
4F0
  8
0
 62
     7
 10
956.10719299999982
 20
678.74338499999999
 30
0.0
 11
944.28950499999996
 21
680.82715599999995
 31
0.0
  0
LINE
  5
4F1
  8
0
 62
     7
 10
956.10719299999982
 20
678.74338499999999
 30
0.0
 11
944.28950499999996
 21
676.65959899999996
 31
0.0
  0
LINE
  5
4F2
  8
0
 62
     7
 10
876.10719299999994
 20
678.74338499999999
 30
0.0
 11
956.10719299999982
 21
678.74338499999999
 31
0.0
  0
LINE
  5
4F3
  8
0
 62
     7
 10
876.10719299999994
 20
686.74338499999999
 30
0.0
 11
876.10719299999994
 21
636.45941900000003
 31
0.0
  0
LINE
  5
4F4
  8
0
 62
     7
 10
956.10719299999982
 20
686.74338499999999
 30
0.0
 11
956.10719299999982
 21
636.45941900000003
 31
0.0
  0
LINE
  5
4F5
  8
0
 62
     7
 10
860.10719299999994
 20
711.46125800000004
 30
0.0
 11
871.92488099999991
 21
709.3774719999999
 31
0.0
  0
LINE
  5
4F6
  8
0
 62
     7
 10
860.10719299999994
 20
711.46125800000004
 30
0.0
 11
871.92488099999991
 21
713.545029
 31
0.0
  0
LINE
  5
4F7
  8
0
 62
     7
 10
972.10719299999994
 20
711.46125800000004
 30
0.0
 11
960.28950499999996
 21
713.545029
 31
0.0
  0
LINE
  5
4F8
  8
0
 62
     7
 10
972.10719299999994
 20
711.46125800000004
 30
0.0
 11
960.28950499999996
 21
709.3774719999999
 31
0.0
  0
LINE
  5
4F9
  8
0
 62
     7
 10
860.10719299999994
 20
711.46125800000004
 30
0.0
 11
972.10719299999994
 21
711.46125800000004
 31
0.0
  0
LINE
  5
4FA
  8
0
 62
     7
 10
860.10719299999994
 20
719.46125800000004
 30
0.0
 11
860.10719299999994
 21
614.95942700000001
 31
0.0
  0
LINE
  5
4FB
  8
0
 62
     7
 10
972.10719299999994
 20
719.46125800000004
 30
0.0
 11
972.10719299999994
 21
614.9594229999999
 31
0.0
  0
LINE
  5
4FC
  8
0
 62
     7
 10
873.3196559999999
 20
485.84287999999992
 30
0.0
 11
862.64753699999994
 21
480.35603300000002
 31
0.0
  0
LINE
  5
4FD
  8
0
 62
     7
 10
873.3196559999999
 20
485.84287999999992
 30
0.0
 11
865.16773999999998
 21
477.03684199999992
 31
0.0
  0
LINE
  5
4FE
  8
0
 62
     7
 10
878.89473000000021
 20
490.07594299999988
 30
0.0
 11
889.56684900000005
 21
495.56279799999999
 31
0.0
  0
LINE
  5
4FF
  8
0
 62
     7
 10
878.89473000000021
 20
490.07594299999988
 30
0.0
 11
887.04664600000012
 21
498.88198099999988
 31
0.0
  0
LINE
  5
500
  8
0
 62
     7
 10
878.89473000000021
 20
490.07594299999988
 30
0.0
 11
805.06568900000002
 21
434.01844799999998
 31
0.0
  0
INSERT
  5
83F
  8
0
  2
BLOCK0
 10
-48.37791
 20
548.70938699999988
 30
0.0
 50
90.0
  0
INSERT
  5
840
  8
0
  2
BLOCK1
 10
-48.37791
 20
548.70938699999988
 30
0.0
 50
90.0
  0
INSERT
  5
841
  8
0
  2
BLOCK2
 10
-48.37791
 20
548.70938699999988
 30
0.0
 50
90.0
  0
INSERT
  5
842
  8
0
  2
BLOCK3
 10
-48.37791
 20
548.70938699999988
 30
0.0
 50
90.0
  0
INSERT
  5
843
  8
0
  2
BLOCK4
 10
-48.37791
 20
548.70938699999988
 30
0.0
 50
90.0
  0
INSERT
  5
844
  8
0
  2
BLOCK5
 10
-48.37791
 20
548.70938699999988
 30
0.0
 50
90.0
  0
INSERT
  5
845
  8
0
  2
BLOCK6
 10
-48.37791
 20
548.70938699999988
 30
0.0
 50
90.0
  0
INSERT
  5
846
  8
0
  2
BLOCK7
 10
-48.37791
 20
548.70938699999988
 30
0.0
 50
90.0
  0
INSERT
  5
847
  8
0
  2
BLOCK8
 10
-48.37791
 20
548.70938699999988
 30
0.0
 50
90.0
  0
INSERT
  5
848
  8
0
  2
BLOCK9
 10
-48.37791
 20
548.70938699999988
 30
0.0
 50
90.0
  0
INSERT
  5
849
  8
0
  2
BLOCK10
 10
-48.37791
 20
548.70938699999988
 30
0.0
 50
90.0
  0
INSERT
  5
84A
  8
0
  2
BLOCK11
 10
-48.37791
 20
548.70938699999988
 30
0.0
 50
90.0
  0
INSERT
  5
84B
  8
0
  2
BLOCK12
 10
-48.37791
 20
548.70938699999988
 30
0.0
 50
90.0
  0
INSERT
  5
84C
  8
0
  2
BLOCK13
 10
-48.37791
 20
548.70938699999988
 30
0.0
 50
90.0
  0
INSERT
  5
84D
  8
0
  2
BLOCK14
 10
-48.37791
 20
548.70938699999988
 30
0.0
 50
90.0
  0
INSERT
  5
84E
  8
0
  2
BLOCK15
 10
-48.37791
 20
548.70938699999988
 30
0.0
 50
90.0
  0
INSERT
  5
84F
  8
0
  2
BLOCK16
 10
-48.37791
 20
548.70938699999988
 30
0.0
 50
90.0
  0
INSERT
  5
850
  8
0
  2
BLOCK17
 10
-48.37791
 20
548.70938699999988
 30
0.0
 50
90.0
  0
INSERT
  5
851
  8
0
  2
BLOCK18
 10
-48.37791
 20
548.70938699999988
 30
0.0
 50
90.0
  0
INSERT
  5
852
  8
0
  2
BLOCK19
 10
-48.37791
 20
548.70938699999988
 30
0.0
 50
90.0
  0
INSERT
  5
853
  8
0
  2
BLOCK20
 10
219.29980499999991
 20
548.70941200000004
 30
0.0
  0
INSERT
  5
854
  8
0
  2
BLOCK21
 10
219.29980499999991
 20
548.70941200000004
 30
0.0
  0
INSERT
  5
855
  8
0
  2
BLOCK22
 10
219.29980499999991
 20
548.70941200000004
 30
0.0
  0
INSERT
  5
856
  8
0
  2
BLOCK23
 10
219.29980499999991
 20
548.70941200000004
 30
0.0
  0
INSERT
  5
857
  8
0
  2
BLOCK24
 10
219.29980499999991
 20
548.70941200000004
 30
0.0
  0
INSERT
  5
858
  8
0
  2
BLOCK25
 10
219.29980499999991
 20
548.70941200000004
 30
0.0
  0
INSERT
  5
859
  8
0
  2
BLOCK26
 10
219.29980499999991
 20
548.70941200000004
 30
0.0
  0
INSERT
  5
85A
  8
0
  2
BLOCK27
 10
219.29980499999991
 20
548.70941200000004
 30
0.0
  0
INSERT
  5
85B
  8
0
  2
BLOCK28
 10
219.29980499999991
 20
548.70941200000004
 30
0.0
  0
INSERT
  5
85C
  8
0
  2
BLOCK29
 10
219.29980499999991
 20
548.70941200000004
 30
0.0
  0
INSERT
  5
85D
  8
0
  2
BLOCK30
 10
219.29980499999991
 20
548.70941200000004
 30
0.0
  0
INSERT
  5
85E
  8
0
  2
BLOCK31
 10
219.29980499999991
 20
548.70941200000004
 30
0.0
  0
INSERT
  5
85F
  8
0
  2
BLOCK32
 10
219.29980499999991
 20
548.70941200000004
 30
0.0
  0
INSERT
  5
860
  8
0
  2
BLOCK33
 10
219.29980499999991
 20
548.70941200000004
 30
0.0
  0
INSERT
  5
861
  8
0
  2
BLOCK34
 10
219.29980499999991
 20
548.70941200000004
 30
0.0
  0
INSERT
  5
862
  8
0
  2
BLOCK35
 10
219.29980499999991
 20
548.70941200000004
 30
0.0
  0
INSERT
  5
863
  8
0
  2
BLOCK36
 10
219.29980499999991
 20
548.70941200000004
 30
0.0
  0
INSERT
  5
864
  8
0
  2
BLOCK37
 10
219.29980499999991
 20
548.70941200000004
 30
0.0
  0
INSERT
  5
865
  8
0
  2
BLOCK38
 10
219.29980499999991
 20
548.70941200000004
 30
0.0
  0
INSERT
  5
866
  8
0
  2
BLOCK39
 10
219.29980499999991
 20
548.70941200000004
 30
0.0
  0
INSERT
  5
867
  8
0
  2
BLOCK40
 10
219.29980499999991
 20
548.70941200000004
 30
0.0
  0
INSERT
  5
868
  8
0
  2
BLOCK41
 10
219.29980499999991
 20
548.70941200000004
 30
0.0
  0
INSERT
  5
869
  8
0
  2
BLOCK42
 10
219.29980499999991
 20
548.70941200000004
 30
0.0
  0
INSERT
  5
86A
  8
0
  2
BLOCK43
 10
219.29980499999991
 20
548.70941200000004
 30
0.0
  0
INSERT
  5
86B
  8
0
  2
BLOCK44
 10
219.29980499999991
 20
548.70941200000004
 30
0.0
  0
INSERT
  5
86C
  8
0
  2
BLOCK45
 10
219.29980499999991
 20
548.70941200000004
 30
0.0
  0
INSERT
  5
86D
  8
0
  2
BLOCK46
 10
219.29980499999991
 20
548.70941200000004
 30
0.0
  0
INSERT
  5
86E
  8
0
  2
BLOCK47
 10
219.29980499999991
 20
548.70941200000004
 30
0.0
  0
INSERT
  5
86F
  8
0
  2
BLOCK48
 10
219.29980499999991
 20
548.70941200000004
 30
0.0
  0
INSERT
  5
870
  8
0
  2
BLOCK49
 10
219.29980499999991
 20
548.70941200000004
 30
0.0
  0
INSERT
  5
871
  8
0
  2
BLOCK50
 10
219.29980499999991
 20
548.70941200000004
 30
0.0
  0
INSERT
  5
872
  8
0
  2
BLOCK51
 10
219.29980499999991
 20
548.70941200000004
 30
0.0
  0
INSERT
  5
873
  8
0
  2
BLOCK52
 10
219.29980499999991
 20
548.70941200000004
 30
0.0
  0
INSERT
  5
874
  8
0
  2
BLOCK53
 10
219.29980499999991
 20
548.70941200000004
 30
0.0
  0
INSERT
  5
875
  8
0
  2
BLOCK54
 10
219.29980499999991
 20
548.70941200000004
 30
0.0
  0
INSERT
  5
876
  8
0
  2
BLOCK55
 10
219.29980499999991
 20
548.70941200000004
 30
0.0
  0
INSERT
  5
877
  8
0
  2
BLOCK56
 10
219.29980499999991
 20
548.70941200000004
 30
0.0
  0
INSERT
  5
878
  8
0
  2
BLOCK57
 10
219.29980499999991
 20
548.70941200000004
 30
0.0
  0
INSERT
  5
879
  8
0
  2
BLOCK58
 10
219.29980499999991
 20
548.70941200000004
 30
0.0
  0
INSERT
  5
87A
  8
0
  2
BLOCK59
 10
219.29980499999991
 20
548.70941200000004
 30
0.0
  0
INSERT
  5
87B
  8
0
  2
BLOCK60
 10
219.29980499999991
 20
548.70941200000004
 30
0.0
  0
INSERT
  5
87C
  8
0
  2
BLOCK61
 10
-438.62734999999992
 20
267.14752199999998
 30
0.0
 50
180.0
  0
INSERT
  5
87D
  8
0
  2
BLOCK62
 10
-438.62734999999992
 20
267.14752199999998
 30
0.0
 50
180.0
  0
INSERT
  5
87E
  8
0
  2
BLOCK63
 10
-438.62734999999992
 20
267.14752199999998
 30
0.0
 50
180.0
  0
INSERT
  5
87F
  8
0
  2
BLOCK64
 10
-438.62734999999992
 20
267.14752199999998
 30
0.0
 50
180.0
  0
INSERT
  5
880
  8
0
  2
BLOCK65
 10
-438.62734999999992
 20
267.14752199999998
 30
0.0
 50
180.0
  0
INSERT
  5
881
  8
0
  2
BLOCK66
 10
566.25185999999985
 20
561.20941200000004
 30
0.0
 50
180.0
  0
INSERT
  5
882
  8
0
  2
BLOCK67
 10
566.25185999999985
 20
561.20941200000004
 30
0.0
 50
180.0
  0
INSERT
  5
883
  8
0
  2
BLOCK68
 10
566.25185999999985
 20
561.20941200000004
 30
0.0
 50
180.0
  0
INSERT
  5
884
  8
0
  2
BLOCK69
 10
566.25185999999985
 20
561.20941200000004
 30
0.0
 50
180.0
  0
INSERT
  5
885
  8
0
  2
BLOCK70
 10
566.25185999999985
 20
561.20941200000004
 30
0.0
 50
180.0
  0
INSERT
  5
886
  8
0
  2
BLOCK71
 10
566.25185999999985
 20
561.20941200000004
 30
0.0
 50
180.0
  0
INSERT
  5
887
  8
0
  2
BLOCK72
 10
566.25185999999985
 20
561.20941200000004
 30
0.0
 50
180.0
  0
INSERT
  5
888
  8
0
  2
BLOCK73
 10
916.10719300000005
 20
561.20941200000004
 30
0.0
 50
270.0
  0
INSERT
  5
889
  8
0
  2
BLOCK74
 10
916.10719300000005
 20
561.20941200000004
 30
0.0
 50
270.0
  0
INSERT
  5
88A
  8
0
  2
BLOCK75
 10
916.10719300000005
 20
561.20941200000004
 30
0.0
 50
270.0
  0
INSERT
  5
88B
  8
0
  2
BLOCK76
 10
916.10719300000005
 20
561.20941200000004
 30
0.0
 50
270.0
  0
INSERT
  5
88C
  8
0
  2
BLOCK77
 10
916.10719300000005
 20
561.20941200000004
 30
0.0
 50
270.0
  0
INSERT
  5
88D
  8
0
  2
BLOCK78
 10
916.10719300000005
 20
561.20941200000004
 30
0.0
 50
270.0
  0
INSERT
  5
88E
  8
0
  2
BLOCK79
 10
916.10719300000005
 20
561.20941200000004
 30
0.0
 50
270.0
  0
INSERT
  5
88F
  8
0
  2
BLOCK80
 10
916.10719300000005
 20
561.20941200000004
 30
0.0
 50
270.0
  0
INSERT
  5
890
  8
0
  2
BLOCK81
 10
916.10719300000005
 20
561.20941200000004
 30
0.0
 50
270.0
  0
INSERT
  5
891
  8
0
  2
BLOCK82
 10
916.10719300000005
 20
561.20941200000004
 30
0.0
 50
270.0
  0
VIEWPORT
  5
501
 67
     1
  8
0
 62
     0
 10
0.0
 20
0.0
 30
0.0
 40
1000.0
 41
1000.0
 68
     1
 69
     1
1001
ACAD
1000
MVIEW
1002
{
1070
    16
1010
0.0
1020
0.0
1030
0.0
1010
0.0
1020
0.0
1030
1.0
1040
0.0
1040
1000.0
1040
0.0
1040
0.0
1040
50.0
1040
0.0
1040
0.0
1070
     0
1070
   100
1070
     1
1070
     1
1070
     0
1070
     0
1070
     0
1070
     0
1040
0.0
1040
0.0
1040
0.0
1040
1.0
1040
1.0
1040
1.0
1040
1.0
1070
     0
1002
{
1002
}
1002
}
  0
ENDSEC
  0
EOF
