  0
SECTION
  2
HEADER
  9
$ACADVER
  1
AC1009
  9
$DWGCODEPAGE
  3
iso8859-1
  9
$INSBASE
 10
0.0
 20
0.0
 30
0.0
  9
$EXTMIN
 10
1.0E20
 20
1.0E20
  9
$EXTMAX
 10
-1.0E20
 20
-1.0E20
  9
$LIMMIN
 10
0.0
 20
0.0
  9
$LIMMAX
 10
12.0
 20
9.0
  9
$ORTHOMODE
 70
     0
  9
$REGENMODE
 70
     1
  9
$FILLMODE
 70
     1
  9
$QTEXTMODE
 70
     0
  9
$MIRRTEXT
 70
     1
  9
$DRAGMODE
 70
     2
  9
$LTSCALE
 40
15.0
  9
$OSMODE
 70
     0
  9
$ATTMODE
 70
     1
  9
$TEXTSIZE
 40
0.2
  9
$TRACEWID
 40
0.05
  9
$TEXTSTYLE
  7
STANDARD
  9
$CLAYER
  8
0
  9
$CELTYPE
  6
DASHED
  9
$CECOLOR
 62
   256
  9
$DIMSCALE
 40
1.0
  9
$DIMASZ
 40
0.18
  9
$DIMEXO
 40
0.0625
  9
$DIMDLI
 40
0.38
  9
$DIMRND
 40
0.0
  9
$DIMDLE
 40
0.0
  9
$DIMEXE
 40
0.18
  9
$DIMTP
 40
0.0
  9
$DIMTM
 40
0.0
  9
$DIMTXT
 40
0.18
  9
$DIMCEN
 40
0.09
  9
$DIMTSZ
 40
0.0
  9
$DIMTOL
 70
     0
  9
$DIMLIM
 70
     0
  9
$DIMTIH
 70
     1
  9
$DIMTOH
 70
     1
  9
$DIMSE1
 70
     0
  9
$DIMSE2
 70
     0
  9
$DIMTAD
 70
     0
  9
$DIMZIN
 70
     0
  9
$DIMBLK
  1

  9
$DIMASO
 70
     1
  9
$DIMSHO
 70
     1
  9
$DIMPOST
  1

  9
$DIMAPOST
  1

  9
$DIMALT
 70
     0
  9
$DIMALTD
 70
     2
  9
$DIMALTF
 40
25.4
  9
$DIMLFAC
 40
1.0
  9
$DIMTOFL
 70
     0
  9
$DIMTVP
 40
0.0
  9
$DIMTIX
 70
     0
  9
$DIMSOXD
 70
     0
  9
$DIMSAH
 70
     0
  9
$DIMBLK1
  1

  9
$DIMBLK2
  1

  9
$DIMSTYLE
  2
STANDARD
  9
$DIMCLRD
 70
     0
  9
$DIMCLRE
 70
     0
  9
$DIMCLRT
 70
     0
  9
$DIMTFAC
 40
1.0
  9
$DIMGAP
 40
0.09
  9
$LUNITS
 70
     2
  9
$LUPREC
 70
     4
  9
$AXISMODE
 70
     0
  9
$AXISUNIT
 10
0.0
 20
0.0
  9
$SKETCHINC
 40
0.1
  9
$FILLETRAD
 40
0.0
  9
$AUNITS
 70
     0
  9
$AUPREC
 70
     0
  9
$MENU
  1
acad
  9
$ELEVATION
 40
0.0
  9
$PELEVATION
 40
0.0
  9
$THICKNESS
 40
0.0
  9
$LIMCHECK
 70
     0
  9
$BLIPMODE
 70
     1
  9
$CHAMFERA
 40
0.0
  9
$CHAMFERB
 40
0.0
  9
$SKPOLY
 70
     0
  9
$TDCREATE
 40
0.000000000
  9
$TDUPDATE
 40
0.000000000
  9
$TDINDWG
 40
0.0
  9
$TDUSRTIMER
 40
0.0
  9
$USRTIMER
 70
     1
  9
$ANGBASE
 50
0.0
  9
$ANGDIR
 70
     0
  9
$PDMODE
 70
     0
  9
$PDSIZE
 40
0.0
  9
$PLINEWID
 40
0.0
  9
$COORDS
 70
     1
  9
$SPLFRAME
 70
     0
  9
$SPLINETYPE
 70
     6
  9
$SPLINESEGS
 70
     8
  9
$ATTDIA
 70
     0
  9
$ATTREQ
 70
     1
  9
$HANDLING
 70
     1
  9
$HANDSEED
  5
   46F
  9
$SURFTAB1
 70
     6
  9
$SURFTAB2
 70
     6
  9
$SURFTYPE
 70
     6
  9
$SURFU
 70
     6
  9
$SURFV
 70
     6
  9
$UCSNAME
  2

  9
$UCSORG
 10
0.0
 20
0.0
 30
0.0
  9
$UCSXDIR
 10
1.0
 20
0.0
 30
0.0
  9
$UCSYDIR
 10
0.0
 20
1.0
 30
0.0
  9
$PUCSNAME
  2

  9
$PUCSORG
 10
0.0
 20
0.0
 30
0.0
  9
$PUCSXDIR
 10
1.0
 20
0.0
 30
0.0
  9
$PUCSYDIR
 10
0.0
 20
1.0
 30
0.0
  9
$USERI1
 70
     0
  9
$USERI2
 70
     0
  9
$USERI3
 70
     0
  9
$USERI4
 70
     0
  9
$USERI5
 70
     0
  9
$USERR1
 40
0.0
  9
$USERR2
 40
0.0
  9
$USERR3
 40
0.0
  9
$USERR4
 40
0.0
  9
$USERR5
 40
0.0
  9
$WORLDVIEW
 70
     1
  9
$SHADEDGE
 70
     3
  9
$SHADEDIF
 70
    70
  9
$TILEMODE
 70
     1
  9
$MAXACTVP
 70
    16
  9
$PINSBASE
 10
0.0
 20
0.0
 30
0.0
  9
$PLIMCHECK
 70
     0
  9
$PEXTMIN
 10
1.0E20
 20
1.0E20
 30
1.0E20
  9
$PEXTMAX
 10
-1.0E20
 20
-1.0E20
 30
-1.0E20
  9
$PLIMMIN
 10
0.0
 20
0.0
  9
$PLIMMAX
 10
12.0
 20
9.0
  9
$UNITMODE
 70
     0
  9
$VISRETAIN
 70
     0
  0
ENDSEC
  0
SECTION
  2
TABLES
  0
TABLE
  2
VPORT
 70
     1
  0
VPORT
  2
*ACTIVE
 70
     0
 10
0.0
 20
0.0
 11
1.0
 21
1.0
 12
6.801242
 22
4.5
 13
0.0
 23
0.0
 14
1.0
 24
1.0
 15
0.0
 25
0.0
 16
0.0
 26
0.0
 36
1.0
 17
0.0
 27
0.0
 37
0.0
 40
9.0
 41
1.511387
 42
50.0
 43
0.0
 44
0.0
 50
0.0
 51
0.0
 71
     0
 72
   100
 73
     1
 74
     1
 75
     0
 76
     0
 77
     0
 78
     0
  0
ENDTAB
  0
TABLE
  2
LTYPE
 70
    41
  0
LTYPE
  2
BYBLOCK
 70
     0
  3

 72
    65
 73
     0
 40
0.0
  0
LTYPE
  2
BYLAYER
 70
     0
  3

 72
    65
 73
     0
 40
0.0
  0
LTYPE
  2
CONTINUOUS
 70
     0
  3
Solid line
 72
    65
 73
     0
 40
0.0
  0
LTYPE
  2
BORDER
 70
    64
  3
__ __ . __ __ . __ __ . __ __ . __ __ . __ __ .
 72
    65
 73
     6
 40
1.75
 49
0.5
 49
-0.25
 49
0.5
 49
-0.25
 49
0.0
 49
-0.25
  0
LTYPE
  2
BORDER2
 70
    64
  3
__.__.__.__.__.__.__.__.__.__.__.__.__.__.__.__
 72
    65
 73
     6
 40
0.875
 49
0.25
 49
-0.125
 49
0.25
 49
-0.125
 49
0.0
 49
-0.125
  0
LTYPE
  2
BORDERX2
 70
    64
  3
____  ____  .  ____  ____  .  ____  ____  .  __
 72
    65
 73
     6
 40
3.5
 49
1.0
 49
-0.5
 49
1.0
 49
-0.5
 49
0.0
 49
-0.5
  0
LTYPE
  2
CENTER
 70
    64
  3
____ _ ____ _ ____ _ ____ _ ____ _ ____ _ ____
 72
    65
 73
     4
 40
2.0
 49
1.25
 49
-0.25
 49
0.25
 49
-0.25
  0
LTYPE
  2
CENTER2
 70
    64
  3
___ _ ___ _ ___ _ ___ _ ___ _ ___ _ ___ _ ___ _
 72
    65
 73
     4
 40
1.125
 49
0.75
 49
-0.125
 49
0.125
 49
-0.125
  0
LTYPE
  2
CENTERX2
 70
    64
  3
________  __  ________  __  ________  __  _____
 72
    65
 73
     4
 40
4.0
 49
2.5
 49
-0.5
 49
0.5
 49
-0.5
  0
LTYPE
  2
DASHDOT
 70
    64
  3
__ . __ . __ . __ . __ . __ . __ . __ . __ . __
 72
    65
 73
     4
 40
1.0
 49
0.5
 49
-0.25
 49
0.0
 49
-0.25
  0
LTYPE
  2
DASHDOT2
 70
    64
  3
_._._._._._._._._._._._._._._._._._._._._._._._
 72
    65
 73
     4
 40
0.5
 49
0.25
 49
-0.125
 49
0.0
 49
-0.125
  0
LTYPE
  2
DASHDOTX2
 70
    64
  3
____  .  ____  .  ____  .  ____  .  ____  .  __
 72
    65
 73
     4
 40
2.0
 49
1.0
 49
-0.5
 49
0.0
 49
-0.5
  0
LTYPE
  2
DASHED
 70
    64
  3
__ __ __ __ __ __ __ __ __ __ __ __ __ __ __ __
 72
    65
 73
     2
 40
0.75
 49
0.5
 49
-0.25
  0
LTYPE
  2
DASHED2
 70
    64
  3
_ _ _ _ _ _ _ _ _ _ _ _ _ _ _ _ _ _ _ _ _ _ _ _
 72
    65
 73
     2
 40
0.375
 49
0.25
 49
-0.125
  0
LTYPE
  2
DASHEDX2
 70
    64
  3
____  ____  ____  ____  ____  ____  ____  ____
 72
    65
 73
     2
 40
1.5
 49
1.0
 49
-0.5
  0
LTYPE
  2
DIVIDE
 70
    64
  3
____ . . ____ . . ____ . . ____ . . ____ . . __
 72
    65
 73
     6
 40
1.25
 49
0.5
 49
-0.25
 49
0.0
 49
-0.25
 49
0.0
 49
-0.25
  0
LTYPE
  2
DIVIDE2
 70
    64
  3
__..__..__..__..__..__..__..__..__..__..__..__.
 72
    65
 73
     6
 40
0.625
 49
0.25
 49
-0.125
 49
0.0
 49
-0.125
 49
0.0
 49
-0.125
  0
LTYPE
  2
DIVIDEX2
 70
    64
  3
________  .  .  ________  .  .  ________  .  .
 72
    65
 73
     6
 40
2.5
 49
1.0
 49
-0.5
 49
0.0
 49
-0.5
 49
0.0
 49
-0.5
  0
LTYPE
  2
DOT
 70
    64
  3
. . . . . . . . . . . . . . . . . . . . . . . .
 72
    65
 73
     2
 40
0.25
 49
0.0
 49
-0.25
  0
LTYPE
  2
DOT2
 70
    64
  3
...............................................
 72
    65
 73
     2
 40
0.125
 49
0.0
 49
-0.125
  0
LTYPE
  2
DOTX2
 70
    64
  3
.  .  .  .  .  .  .  .  .  .  .  .  .  .  .  .
 72
    65
 73
     2
 40
0.5
 49
0.0
 49
-0.5
  0
LTYPE
  2
HIDDEN
 70
    64
  3
__ __ __ __ __ __ __ __ __ __ __ __ __ __ __ __
 72
    65
 73
     2
 40
0.375
 49
0.25
 49
-0.125
  0
LTYPE
  2
HIDDEN2
 70
    64
  3
_ _ _ _ _ _ _ _ _ _ _ _ _ _ _ _ _ _ _ _ _ _ _ _
 72
    65
 73
     2
 40
0.1875
 49
0.125
 49
-0.0625
  0
LTYPE
  2
HIDDENX2
 70
    64
  3
____ ____ ____ ____ ____ ____ ____ ____ ____ __
 72
    65
 73
     2
 40
0.75
 49
0.5
 49
-0.25
  0
LTYPE
  2
PHANTOM
 70
    64
  3
______  __  __  ______  __  __  ______  __  __
 72
    65
 73
     6
 40
2.5
 49
1.25
 49
-0.25
 49
0.25
 49
-0.25
 49
0.25
 49
-0.25
  0
LTYPE
  2
PHANTOM2
 70
    64
  3
___ _ _ ___ _ _ ___ _ _ ___ _ _ ___ _ _ ___ _ _
 72
    65
 73
     6
 40
1.25
 49
0.625
 49
-0.125
 49
0.125
 49
-0.125
 49
0.125
 49
-0.125
  0
LTYPE
  2
PHANTOMX2
 70
    64
  3
____________    ____    ____    ____________
 72
    65
 73
     6
 40
5.0
 49
2.5
 49
-0.5
 49
0.5
 49
-0.5
 49
0.5
 49
-0.5
  0
LTYPE
  2
ACAD_ISO02W100
 70
    64
  3
__ __ __ __ __ __ __ __ __ __ __ __ __ __ __ __
 72
    65
 73
     2
 40
15.0
 49
12.0
 49
-3.0
  0
LTYPE
  2
ACAD_ISO03W100
 70
    64
  3
__    __    __    __    __    __    __    __
 72
    65
 73
     2
 40
30.0
 49
12.0
 49
-18.0
  0
LTYPE
  2
ACAD_ISO04W100
 70
    64
  3
____ . ____ . ____ . ____ . ____ . ____ . ____
 72
    65
 73
     4
 40
30.5
 49
24.0
 49
-3.0
 49
0.5
 49
-3.0
  0
LTYPE
  2
ACAD_ISO05W100
 70
    64
  3
____ .. ____ .. ____ .. ____ .. ____ .. ____ ..
 72
    65
 73
     6
 40
34.0
 49
24.0
 49
-3.0
 49
0.5
 49
-3.0
 49
0.5
 49
-3.0
  0
LTYPE
  2
ACAD_ISO06W100
 70
    64
  3
____ ... ____ ... ____ ... ____ ... ____ ... __
 72
    65
 73
     8
 40
37.5
 49
24.0
 49
-3.0
 49
0.5
 49
-3.0
 49
0.5
 49
-3.0
 49
0.5
 49
-3.0
  0
LTYPE
  2
ACAD_ISO07W100
 70
    64
  3
. . . . . . . . . . . . . . . . . . . . . . . .
 72
    65
 73
     2
 40
3.5
 49
0.5
 49
-3.0
  0
LTYPE
  2
ACAD_ISO08W100
 70
    64
  3
____ __ ____ __ ____ __ ____ ____ __ __ ____ __
 72
    65
 73
     4
 40
36.0
 49
24.0
 49
-3.0
 49
6.0
 49
-3.0
  0
LTYPE
  2
ACAD_ISO09W100
 70
    64
  3
____ __ __ ____ __ __ ____ __ __ ____ __ __ ___
 72
    65
 73
     6
 40
45.0
 49
24.0
 49
-3.0
 49
6.0
 49
-3.0
 49
6.0
 49
-3.0
  0
LTYPE
  2
ACAD_ISO10W100
 70
    64
  3
__ . __ . __ . __ . __ . __ . __ . __ . __ . __
 72
    65
 73
     4
 40
18.5
 49
12.0
 49
-3.0
 49
0.5
 49
-3.0
  0
LTYPE
  2
ACAD_ISO11W100
 70
    64
  3
__ __ . __ __ . __ __ . __ __ . __ __ . __ __ .
 72
    65
 73
     6
 40
33.5
 49
12.0
 49
-3.0
 49
12.0
 49
-3.0
 49
0.5
 49
-3.0
  0
LTYPE
  2
ACAD_ISO12W100
 70
    64
  3
__ . . __ . . __ . . __ . . __ . . __ . . __ .
 72
    65
 73
     6
 40
22.0
 49
12.0
 49
-3.0
 49
0.5
 49
-3.0
 49
0.5
 49
-3.0
  0
LTYPE
  2
ACAD_ISO13W100
 70
    64
  3
__ __ . . __ __ . . __ __ . . __ __ . . __ __ .
 72
    65
 73
     8
 40
37.0
 49
12.0
 49
-3.0
 49
12.0
 49
-3.0
 49
0.5
 49
-3.0
 49
0.5
 49
-3.0
  0
LTYPE
  2
ACAD_ISO14W100
 70
    64
  3
__ . . . __ . . . __ . . . __ . . . __ . . . __
 72
    65
 73
     8
 40
25.5
 49
12.0
 49
-3.0
 49
0.5
 49
-3.0
 49
0.5
 49
-3.0
 49
0.5
 49
-3.0
  0
LTYPE
  2
ACAD_ISO15W100
 70
    64
  3
__ __ . . . __ __ . . . __ __ . . . __ __ . . .
 72
    65
 73
    10
 40
40.5
 49
12.0
 49
-3.0
 49
12.0
 49
-3.0
 49
0.5
 49
-3.0
 49
0.5
 49
-3.0
 49
0.5
 49
-3.0
  0
ENDTAB
  0
TABLE
  2
STYLE
 70
     4
  0
STYLE
  2
STANDARD
 70
    64
 40
0.0
 41
1.0
 50
0.0
 71
     0
 42
0.2
  3
txt
  4

  0
STYLE
  2
TOLERANCE
 70
    64
 40
0.0
 41
1.0
 50
0.0
 71
     0
 42
0.2
  3
../igesfont/iges1003.shx
  4

  0
STYLE
  2
ROMANS
 70
    64
 40
0.0
 41
1.0
 50
0.0
 71
     0
 42
0.2
  3
romans.shx
  4

  0
STYLE
  2
ROMANC
 70
    64
 40
0.0
 41
1.0
 50
0.0
 71
     0
 42
0.2
  3
romanc.shx
  4

  0
ENDTAB
  0
TABLE
  2
DIMSTYLE
 70
     2
  0
DIMSTYLE
  2
UNNAMED
 70
     0
  3

  4

  5

  6

  7

 40
1.0
 41
0.18
 42
0.0625
 43
0.38
 44
0.18
 45
0.0
 46
0.0
 47
0.0
 48
0.0
140
0.18
141
0.09
142
0.0
143
25.4
144
1.0
145
0.0
146
1.0
147
0.09
 71
     0
 72
     0
 73
     1
 74
     1
 75
     0
 76
     0
 77
     0
 78
     0
170
     0
171
     2
172
     0
173
     0
174
     0
175
     0
176
     0
177
     0
178
     0
  0
DIMSTYLE
  2
STANDARD
 70
     0
  3

  4

  5

  6

  7

 40
1.0
 41
0.18
 42
0.0625
 43
0.38
 44
0.18
 45
0.0
 46
0.0
 47
0.0
 48
0.0
140
0.18
141
0.09
142
0.0
143
25.4
144
1.0
145
0.0
146
1.0
147
0.09
 71
     0
 72
     0
 73
     1
 74
     1
 75
     0
 76
     0
 77
     0
 78
     0
170
     0
171
     2
172
     0
173
     0
174
     0
175
     0
176
     0
177
     0
178
     0
  0
ENDTAB
  0
TABLE
  2
LAYER
 70
     2
  0
LAYER
  2
0
 70
     0
 62
     7
  6
CONTINUOUS
  0
LAYER
  2
255
 70
     0
 62
     7
  6
CONTINUOUS
  0
ENDTAB
  0
ENDSEC
  0
SECTION
  2
BLOCKS
  0
BLOCK
  5
     B
  8
0
  6
CONTINUOUS
 62
     7
  2
MOSTRINA
 70
    64
 10
0.0
 20
0.0
 30
0.0
  3
MOSTRINA
  0
LINE
  5
     C
  8
0
  6
CONTINUOUS
 62
     3
 10
173.338256835938
 20
30.7306251525879
 30
0.0
 11
173.338256835938
 21
189.230621337891
 31
0.0
  0
LINE
  5
     D
  8
0
  6
CONTINUOUS
 62
     3
 10
57.5882568359375
 20
29.4806251525879
 30
0.0
 11
172.088256835938
 21
29.4806251525879
 31
0.0
  0
LINE
  5
     E
  8
0
  6
CONTINUOUS
 62
     3
 10
56.3382568359375
 20
30.7306251525879
 30
0.0
 11
56.3382568359375
 21
189.230621337891
 31
0.0
  0
LINE
  5
     F
  8
0
  6
CONTINUOUS
 62
     3
 10
57.5882568359375
 20
190.480621337891
 30
0.0
 11
172.088256835938
 21
190.480621337891
 31
0.0
  0
LINE
  5
    10
  8
0
  6
CONTINUOUS
 62
     3
 10
167.838256835938
 20
56.9806251525879
 30
0.0
 11
167.838256835938
 21
162.980625152588
 31
0.0
  0
LINE
  5
    11
  8
0
  6
CONTINUOUS
 62
     3
 10
61.8382568359375
 20
56.9806251525879
 30
0.0
 11
167.838256835938
 21
56.9806251525879
 31
0.0
  0
LINE
  5
    12
  8
0
  6
CONTINUOUS
 62
     3
 10
61.8382568359375
 20
56.9806251525879
 30
0.0
 11
61.8382568359375
 21
162.980625152588
 31
0.0
  0
LINE
  5
    13
  8
0
  6
CONTINUOUS
 62
     3
 10
61.8382568359375
 20
162.980621337891
 30
0.0
 11
167.838256835938
 21
162.980621337891
 31
0.0
  0
LINE
  5
    14
  8
0
  6
CONTINUOUS
 62
     3
 10
168.838256835938
 20
48.4806251525879
 30
0.0
 11
168.838256835938
 21
49.4806251525879
 31
0.0
  0
LINE
  5
    15
  8
0
  6
CONTINUOUS
 62
     3
 10
61.8382568359375
 20
50.4806251525879
 30
0.0
 11
167.838256835938
 21
50.4806251525879
 31
0.0
  0
LINE
  5
    16
  8
0
  6
CONTINUOUS
 62
     3
 10
60.8382568359375
 20
48.4806251525879
 30
0.0
 11
60.8382568359375
 21
49.4806251525879
 31
0.0
  0
LINE
  5
    17
  8
0
  6
CONTINUOUS
 62
     3
 10
61.8382568359375
 20
49.4806251525879
 30
0.0
 11
167.838256835938
 21
49.4806251525879
 31
0.0
  0
LINE
  5
    18
  8
0
  6
CONTINUOUS
 62
     3
 10
60.8382568359375
 20
29.4806251525879
 30
0.0
 11
60.8382568359375
 21
48.4806251525879
 31
0.0
  0
LINE
  5
    19
  8
0
  6
CONTINUOUS
 62
     3
 10
60.8382568359375
 20
49.4806213378906
 30
0.0
 11
60.8382568359375
 21
190.480621337891
 31
0.0
  0
LINE
  5
    1A
  8
0
  6
CONTINUOUS
 62
     3
 10
61.8382568359375
 20
29.4806251525879
 30
0.0
 11
61.8382568359375
 21
49.4806251525879
 31
0.0
  0
LINE
  5
    1B
  8
0
  6
CONTINUOUS
 62
     3
 10
61.8382568359375
 20
162.980621337891
 30
0.0
 11
61.8382568359375
 21
169.480621337891
 31
0.0
  0
LINE
  5
    1C
  8
0
  6
CONTINUOUS
 62
     3
 10
61.8382568359375
 20
50.4806251525879
 30
0.0
 11
61.8382568359375
 21
56.9806251525879
 31
0.0
  0
LINE
  5
    1D
  8
0
  6
CONTINUOUS
 62
     3
 10
168.838256835938
 20
29.4806251525879
 30
0.0
 11
168.838256835938
 21
48.4806251525879
 31
0.0
  0
LINE
  5
    1E
  8
0
  6
CONTINUOUS
 62
     3
 10
168.838256835938
 20
49.4806251525879
 30
0.0
 11
168.838256835938
 21
190.480621337891
 31
0.0
  0
LINE
  5
    1F
  8
0
  6
CONTINUOUS
 62
     3
 10
167.838256835938
 20
50.4806251525879
 30
0.0
 11
167.838256835938
 21
56.9806251525879
 31
0.0
  0
LINE
  5
    20
  8
0
  6
CONTINUOUS
 62
     3
 10
167.838256835938
 20
162.980621337891
 30
0.0
 11
167.838256835938
 21
169.480621337891
 31
0.0
  0
LINE
  5
    21
  8
0
  6
CONTINUOUS
 62
     3
 10
167.838256835938
 20
29.4806251525879
 30
0.0
 11
167.838256835938
 21
49.4806251525879
 31
0.0
  0
LINE
  5
    22
  8
0
  6
CONTINUOUS
 62
     3
 10
60.8382568359375
 20
170.480621337891
 30
0.0
 11
168.838256835938
 21
170.480621337891
 31
0.0
  0
LINE
  5
    23
  8
0
  6
CONTINUOUS
 62
     3
 10
61.8382568359375
 20
169.480621337891
 30
0.0
 11
167.838256835938
 21
169.480621337891
 31
0.0
  0
ARC
  5
    24
  8
0
  6
CONTINUOUS
 62
     3
 10
57.5882568359375
 20
30.7306251525879
 30
0.0
 40
1.25
 50
180.0
 51
270.0
  0
ARC
  5
    25
  8
0
  6
CONTINUOUS
 62
     3
 10
172.088256835938
 20
30.7306251525879
 30
0.0
 40
1.25
 50
270.0
 51
360.0
  0
ARC
  5
    26
  8
0
  6
CONTINUOUS
 62
     3
 10
172.088256835938
 20
189.230621337891
 30
0.0
 40
1.25
 50
0.0
 51
90.0
  0
ARC
  5
    27
  8
0
  6
CONTINUOUS
 62
     3
 10
57.5882568359375
 20
189.230621337891
 30
0.0
 40
1.25
 50
90.0
 51
180.0
  0
LINE
  5
    28
  8
0
  6
DOT
 62
     3
 10
60.3382577409677
 20
179.7306252571
 30
0.0
 11
60.8382568359375
 21
179.7306252571
 31
0.0
  0
LINE
  5
    29
  8
0
  6
DOT
 62
     3
 10
60.3382577409676
 20
181.2306252571
 30
0.0
 11
60.8382568359375
 21
181.2306252571
 31
0.0
  0
LINE
  5
    2A
  8
0
  6
CONTINUOUS
 62
     3
 10
168.338257745313
 20
179.730625257273
 30
0.0
 11
168.838256835938
 21
179.730625257273
 31
0.0
  0
LINE
  5
    2B
  8
0
  6
CONTINUOUS
 62
     3
 10
168.338257745314
 20
181.230625257273
 30
0.0
 11
168.838256835938
 21
181.230625257273
 31
0.0
  0
ARC
  5
    2C
  8
0
  6
DOT
 62
     3
 10
60.3382577401871
 20
180.480625257147
 30
0.0
 40
0.749999999345164
 50
90.0
 51
270.0
  0
ARC
  5
    2D
  8
0
  6
CONTINUOUS
 62
     3
 10
61.338257740822
 20
180.480625256974
 30
0.0
 40
0.750000000009701
 50
270.0
 51
450.0
  0
LINE
  5
    2E
  8
0
  6
CONTINUOUS
 62
     3
 10
60.8382568359375
 20
181.2306252571
 30
0.0
 11
61.3382577409688
 21
181.2306252571
 31
0.0
  0
LINE
  5
    2F
  8
0
  6
CONTINUOUS
 62
     3
 10
60.8382568359375
 20
179.7306252571
 30
0.0
 11
61.3382577409689
 21
179.7306252571
 31
0.0
  0
ARC
  5
    30
  8
0
  6
CONTINUOUS
 62
     3
 10
168.338257745503
 20
180.480625256952
 30
0.0
 40
0.750000000048506
 50
90.0000000038822
 51
269.999999996024
  0
ARC
  5
    31
  8
0
  6
DOT
 62
     3
 10
169.338257745421
 20
180.480625256965
 30
0.0
 40
0.750000000029104
 50
270.000000002449
 51
449.999999997486
  0
LINE
  5
    32
  8
0
  6
DOT
 62
     3
 10
168.838256835938
 20
181.230625257273
 30
0.0
 11
169.338257745315
 21
181.230625257273
 31
0.0
  0
LINE
  5
    33
  8
0
  6
DOT
 62
     3
 10
168.838256835938
 20
179.730625257273
 30
0.0
 11
169.338257745315
 21
179.730625257273
 31
0.0
  0
ENDBLK
  5
    34
  8
0
  6
CONTINUOUS
 62
     7
  0
BLOCK
  5
    35
  8
0
  6
CONTINUOUS
 62
     7
  2
*HATCH93
 70
    65
 10
0.0
 20
0.0
 30
0.0
  3
*HATCH93
  0
LINE
  5
    36
  8
0
  6
CONTINUOUS
 62
     1
 10
-110.550034941926
 20
111.787022399905
 30
0.0
 11
-108.050034430759
 21
111.787022399905
 31
0.0
  0
LINE
  5
    37
  8
0
  6
CONTINUOUS
 62
     1
 10
-86.5500196831369
 20
111.787022399905
 30
0.0
 11
-84.0500349419259
 21
111.787022399905
 31
0.0
  0
LINE
  5
    38
  8
0
  6
CONTINUOUS
 62
     1
 10
-110.550034941926
 20
112.087022399905
 30
0.0
 11
-108.050033919591
 21
112.087022399905
 31
0.0
  0
LINE
  5
    39
  8
0
  6
CONTINUOUS
 62
     1
 10
-86.5500196831369
 20
112.087022399905
 30
0.0
 11
-84.0500349419259
 21
112.087022399905
 31
0.0
  0
LINE
  5
    3A
  8
0
  6
CONTINUOUS
 62
     1
 10
-110.550034941926
 20
112.387022399905
 30
0.0
 11
-108.050033408424
 21
112.387022399905
 31
0.0
  0
LINE
  5
    3B
  8
0
  6
CONTINUOUS
 62
     1
 10
-86.5500196831369
 20
112.387022399905
 30
0.0
 11
-84.0500349419259
 21
112.387022399905
 31
0.0
  0
LINE
  5
    3C
  8
0
  6
CONTINUOUS
 62
     1
 10
-110.550034941926
 20
112.687022399905
 30
0.0
 11
-108.050032897257
 21
112.687022399905
 31
0.0
  0
LINE
  5
    3D
  8
0
  6
CONTINUOUS
 62
     1
 10
-86.5500196831369
 20
112.687022399905
 30
0.0
 11
-84.0500349419259
 21
112.687022399905
 31
0.0
  0
LINE
  5
    3E
  8
0
  6
CONTINUOUS
 62
     1
 10
-110.550034941926
 20
112.987022399905
 30
0.0
 11
-108.050032386089
 21
112.987022399905
 31
0.0
  0
LINE
  5
    3F
  8
0
  6
CONTINUOUS
 62
     1
 10
-86.5500196831369
 20
112.987022399905
 30
0.0
 11
-84.0500349419259
 21
112.987022399905
 31
0.0
  0
LINE
  5
    40
  8
0
  6
CONTINUOUS
 62
     1
 10
-110.550034941926
 20
113.287022399905
 30
0.0
 11
-108.050031874922
 21
113.287022399905
 31
0.0
  0
LINE
  5
    41
  8
0
  6
CONTINUOUS
 62
     1
 10
-86.5500196831369
 20
113.287022399905
 30
0.0
 11
-84.0500349419259
 21
113.287022399905
 31
0.0
  0
LINE
  5
    42
  8
0
  6
CONTINUOUS
 62
     1
 10
-110.550034941926
 20
113.587022399905
 30
0.0
 11
-108.050031363755
 21
113.587022399905
 31
0.0
  0
LINE
  5
    43
  8
0
  6
CONTINUOUS
 62
     1
 10
-86.5500196831369
 20
113.587022399905
 30
0.0
 11
-84.0500349419259
 21
113.587022399905
 31
0.0
  0
LINE
  5
    44
  8
0
  6
CONTINUOUS
 62
     1
 10
-110.550034941926
 20
113.887022399905
 30
0.0
 11
-108.050030852588
 21
113.887022399905
 31
0.0
  0
LINE
  5
    45
  8
0
  6
CONTINUOUS
 62
     1
 10
-86.5500196831369
 20
113.887022399905
 30
0.0
 11
-84.0500349419259
 21
113.887022399905
 31
0.0
  0
LINE
  5
    46
  8
0
  6
CONTINUOUS
 62
     1
 10
-110.550034941926
 20
114.187022399905
 30
0.0
 11
-108.05003034142
 21
114.187022399905
 31
0.0
  0
LINE
  5
    47
  8
0
  6
CONTINUOUS
 62
     1
 10
-86.5500196831369
 20
114.187022399905
 30
0.0
 11
-84.0500349419259
 21
114.187022399905
 31
0.0
  0
LINE
  5
    48
  8
0
  6
CONTINUOUS
 62
     1
 10
-110.550034941926
 20
114.487022399905
 30
0.0
 11
-108.050029830253
 21
114.487022399905
 31
0.0
  0
LINE
  5
    49
  8
0
  6
CONTINUOUS
 62
     1
 10
-86.5500196831369
 20
114.487022399905
 30
0.0
 11
-84.0500349419259
 21
114.487022399905
 31
0.0
  0
LINE
  5
    4A
  8
0
  6
CONTINUOUS
 62
     1
 10
-110.550034941926
 20
114.787022399905
 30
0.0
 11
-108.050029319086
 21
114.787022399905
 31
0.0
  0
LINE
  5
    4B
  8
0
  6
CONTINUOUS
 62
     1
 10
-86.5500196831369
 20
114.787022399905
 30
0.0
 11
-84.0500349419259
 21
114.787022399905
 31
0.0
  0
LINE
  5
    4C
  8
0
  6
CONTINUOUS
 62
     1
 10
-110.550034941926
 20
115.087022399905
 30
0.0
 11
-108.050028807918
 21
115.087022399905
 31
0.0
  0
LINE
  5
    4D
  8
0
  6
CONTINUOUS
 62
     1
 10
-86.5500196831369
 20
115.087022399905
 30
0.0
 11
-84.0500349419259
 21
115.087022399905
 31
0.0
  0
LINE
  5
    4E
  8
0
  6
CONTINUOUS
 62
     1
 10
-110.550034941926
 20
115.387022399905
 30
0.0
 11
-108.050028296751
 21
115.387022399905
 31
0.0
  0
LINE
  5
    4F
  8
0
  6
CONTINUOUS
 62
     1
 10
-86.5500196831369
 20
115.387022399905
 30
0.0
 11
-84.0500349419259
 21
115.387022399905
 31
0.0
  0
LINE
  5
    50
  8
0
  6
CONTINUOUS
 62
     1
 10
-110.550034941926
 20
115.687022399905
 30
0.0
 11
-108.050027785584
 21
115.687022399905
 31
0.0
  0
LINE
  5
    51
  8
0
  6
CONTINUOUS
 62
     1
 10
-86.5500196831369
 20
115.687022399905
 30
0.0
 11
-84.0500349419259
 21
115.687022399905
 31
0.0
  0
LINE
  5
    52
  8
0
  6
CONTINUOUS
 62
     1
 10
-110.550034941926
 20
115.987022399905
 30
0.0
 11
-108.050027274416
 21
115.987022399905
 31
0.0
  0
LINE
  5
    53
  8
0
  6
CONTINUOUS
 62
     1
 10
-86.5500196831369
 20
115.987022399905
 30
0.0
 11
-84.0500349419259
 21
115.987022399905
 31
0.0
  0
LINE
  5
    54
  8
0
  6
CONTINUOUS
 62
     1
 10
-110.550034941926
 20
116.287022399905
 30
0.0
 11
-108.050026763249
 21
116.287022399905
 31
0.0
  0
LINE
  5
    55
  8
0
  6
CONTINUOUS
 62
     1
 10
-86.5500196831369
 20
116.287022399905
 30
0.0
 11
-84.0500349419259
 21
116.287022399905
 31
0.0
  0
LINE
  5
    56
  8
0
  6
CONTINUOUS
 62
     1
 10
-110.550034941926
 20
116.587022399905
 30
0.0
 11
-108.050026252082
 21
116.587022399905
 31
0.0
  0
LINE
  5
    57
  8
0
  6
CONTINUOUS
 62
     1
 10
-86.5500196831369
 20
116.587022399905
 30
0.0
 11
-84.0500349419259
 21
116.587022399905
 31
0.0
  0
LINE
  5
    58
  8
0
  6
CONTINUOUS
 62
     1
 10
-110.550034941926
 20
116.887022399905
 30
0.0
 11
-108.050025740915
 21
116.887022399905
 31
0.0
  0
LINE
  5
    59
  8
0
  6
CONTINUOUS
 62
     1
 10
-86.5500196831369
 20
116.887022399905
 30
0.0
 11
-84.0500349419259
 21
116.887022399905
 31
0.0
  0
LINE
  5
    5A
  8
0
  6
CONTINUOUS
 62
     1
 10
-110.550034941926
 20
117.187022399905
 30
0.0
 11
-108.050025229747
 21
117.187022399905
 31
0.0
  0
LINE
  5
    5B
  8
0
  6
CONTINUOUS
 62
     1
 10
-86.5500196831369
 20
117.187022399905
 30
0.0
 11
-84.0500349419259
 21
117.187022399905
 31
0.0
  0
LINE
  5
    5C
  8
0
  6
CONTINUOUS
 62
     1
 10
-110.550034941926
 20
117.487022399905
 30
0.0
 11
-108.05002471858
 21
117.487022399905
 31
0.0
  0
LINE
  5
    5D
  8
0
  6
CONTINUOUS
 62
     1
 10
-86.5500196831369
 20
117.487022399905
 30
0.0
 11
-84.0500349419259
 21
117.487022399905
 31
0.0
  0
LINE
  5
    5E
  8
0
  6
CONTINUOUS
 62
     1
 10
-110.550034941926
 20
117.787022399905
 30
0.0
 11
-108.050024207413
 21
117.787022399905
 31
0.0
  0
LINE
  5
    5F
  8
0
  6
CONTINUOUS
 62
     1
 10
-86.5500196831369
 20
117.787022399905
 30
0.0
 11
-84.0500349419259
 21
117.787022399905
 31
0.0
  0
LINE
  5
    60
  8
0
  6
CONTINUOUS
 62
     1
 10
-110.550034941926
 20
118.087022399905
 30
0.0
 11
-108.050023696245
 21
118.087022399905
 31
0.0
  0
LINE
  5
    61
  8
0
  6
CONTINUOUS
 62
     1
 10
-86.5500196831369
 20
118.087022399905
 30
0.0
 11
-84.0500349419259
 21
118.087022399905
 31
0.0
  0
LINE
  5
    62
  8
0
  6
CONTINUOUS
 62
     1
 10
-110.550034941926
 20
118.387022399905
 30
0.0
 11
-108.050023185078
 21
118.387022399905
 31
0.0
  0
LINE
  5
    63
  8
0
  6
CONTINUOUS
 62
     1
 10
-86.5500196831369
 20
118.387022399905
 30
0.0
 11
-84.0500349419259
 21
118.387022399905
 31
0.0
  0
LINE
  5
    64
  8
0
  6
CONTINUOUS
 62
     1
 10
-110.550034941926
 20
118.687022399905
 30
0.0
 11
-108.050022673911
 21
118.687022399905
 31
0.0
  0
LINE
  5
    65
  8
0
  6
CONTINUOUS
 62
     1
 10
-86.5500196831369
 20
118.687022399905
 30
0.0
 11
-84.0500349419259
 21
118.687022399905
 31
0.0
  0
LINE
  5
    66
  8
0
  6
CONTINUOUS
 62
     1
 10
-110.550034941926
 20
118.987022399905
 30
0.0
 11
-108.050022162743
 21
118.987022399905
 31
0.0
  0
LINE
  5
    67
  8
0
  6
CONTINUOUS
 62
     1
 10
-86.5500196831369
 20
118.987022399905
 30
0.0
 11
-84.0500349419259
 21
118.987022399905
 31
0.0
  0
LINE
  5
    68
  8
0
  6
CONTINUOUS
 62
     1
 10
-110.550034941926
 20
119.287022399905
 30
0.0
 11
-108.050021651576
 21
119.287022399905
 31
0.0
  0
LINE
  5
    69
  8
0
  6
CONTINUOUS
 62
     1
 10
-86.5500196831369
 20
119.287022399905
 30
0.0
 11
-84.0500349419259
 21
119.287022399905
 31
0.0
  0
LINE
  5
    6A
  8
0
  6
CONTINUOUS
 62
     1
 10
-110.550034941926
 20
119.587022399905
 30
0.0
 11
-108.050021140409
 21
119.587022399905
 31
0.0
  0
LINE
  5
    6B
  8
0
  6
CONTINUOUS
 62
     1
 10
-86.5500196831369
 20
119.587022399905
 30
0.0
 11
-84.0500349419259
 21
119.587022399905
 31
0.0
  0
LINE
  5
    6C
  8
0
  6
CONTINUOUS
 62
     1
 10
-110.550034941926
 20
119.887022399905
 30
0.0
 11
-108.050020629242
 21
119.887022399905
 31
0.0
  0
LINE
  5
    6D
  8
0
  6
CONTINUOUS
 62
     1
 10
-86.5500196831369
 20
119.887022399905
 30
0.0
 11
-84.0500349419259
 21
119.887022399905
 31
0.0
  0
LINE
  5
    6E
  8
0
  6
CONTINUOUS
 62
     1
 10
-110.550034941926
 20
120.187022399905
 30
0.0
 11
-108.050020118074
 21
120.187022399905
 31
0.0
  0
LINE
  5
    6F
  8
0
  6
CONTINUOUS
 62
     1
 10
-86.5500196831369
 20
120.187022399905
 30
0.0
 11
-84.0500349419259
 21
120.187022399905
 31
0.0
  0
LINE
  5
    70
  8
0
  6
CONTINUOUS
 62
     1
 10
-110.550034941926
 20
120.487022399905
 30
0.0
 11
-84.0500349419259
 21
120.487022399905
 31
0.0
  0
LINE
  5
    71
  8
0
  6
CONTINUOUS
 62
     1
 10
-110.550034941926
 20
120.787022399905
 30
0.0
 11
-84.0500349419259
 21
120.787022399905
 31
0.0
  0
LINE
  5
    72
  8
0
  6
CONTINUOUS
 62
     1
 10
-110.550034941926
 20
121.087022399905
 30
0.0
 11
-84.0500349419259
 21
121.087022399905
 31
0.0
  0
LINE
  5
    73
  8
0
  6
CONTINUOUS
 62
     1
 10
-110.550034941926
 20
121.387022399905
 30
0.0
 11
-84.0500349419259
 21
121.387022399905
 31
0.0
  0
LINE
  5
    74
  8
0
  6
CONTINUOUS
 62
     1
 10
-110.550034941926
 20
121.687022399905
 30
0.0
 11
-84.0500349419259
 21
121.687022399905
 31
0.0
  0
LINE
  5
    75
  8
0
  6
CONTINUOUS
 62
     1
 10
-110.550034941926
 20
121.987022399905
 30
0.0
 11
-84.0500349419259
 21
121.987022399905
 31
0.0
  0
LINE
  5
    76
  8
0
  6
CONTINUOUS
 62
     1
 10
-110.550034941926
 20
122.287022399905
 30
0.0
 11
-84.0500349419259
 21
122.287022399905
 31
0.0
  0
LINE
  5
    77
  8
0
  6
CONTINUOUS
 62
     1
 10
-110.550034941926
 20
122.587022399905
 30
0.0
 11
-84.0500349419259
 21
122.587022399905
 31
0.0
  0
LINE
  5
    78
  8
0
  6
CONTINUOUS
 62
     1
 10
-110.550034941926
 20
122.887022399905
 30
0.0
 11
-84.0500349419259
 21
122.887022399905
 31
0.0
  0
LINE
  5
    79
  8
0
  6
CONTINUOUS
 62
     1
 10
-110.550034941926
 20
123.187022399905
 30
0.0
 11
-84.0500349419259
 21
123.187022399905
 31
0.0
  0
ENDBLK
  5
    7A
  8
0
  6
CONTINUOUS
 62
     7
  0
BLOCK
  5
    7B
  8
0
  6
CONTINUOUS
 62
     7
  2
*HATCH94
 70
    65
 10
0.0
 20
0.0
 30
0.0
  3
*HATCH94
  0
LINE
  5
    7C
  8
0
  6
CONTINUOUS
 62
     1
 10
-110.550034941926
 20
76.215190946278
 30
0.0
 11
-84.0500349419259
 21
76.215190946278
 31
0.0
  0
LINE
  5
    7D
  8
0
  6
CONTINUOUS
 62
     1
 10
-110.550034941926
 20
76.515190946278
 30
0.0
 11
-84.0500349419259
 21
76.515190946278
 31
0.0
  0
LINE
  5
    7E
  8
0
  6
CONTINUOUS
 62
     1
 10
-110.550034941926
 20
76.815190946278
 30
0.0
 11
-84.0500349419259
 21
76.815190946278
 31
0.0
  0
LINE
  5
    7F
  8
0
  6
CONTINUOUS
 62
     1
 10
-110.550034941926
 20
77.115190946278
 30
0.0
 11
-84.0500349419259
 21
77.115190946278
 31
0.0
  0
LINE
  5
    80
  8
0
  6
CONTINUOUS
 62
     1
 10
-110.550034941926
 20
77.415190946278
 30
0.0
 11
-84.0500349419259
 21
77.415190946278
 31
0.0
  0
LINE
  5
    81
  8
0
  6
CONTINUOUS
 62
     1
 10
-110.550034941926
 20
77.715190946278
 30
0.0
 11
-84.0500349419259
 21
77.715190946278
 31
0.0
  0
LINE
  5
    82
  8
0
  6
CONTINUOUS
 62
     1
 10
-110.550034941926
 20
78.015190946278
 30
0.0
 11
-84.0500349419259
 21
78.015190946278
 31
0.0
  0
LINE
  5
    83
  8
0
  6
CONTINUOUS
 62
     1
 10
-110.550034941926
 20
78.315190946278
 30
0.0
 11
-84.0500349419259
 21
78.315190946278
 31
0.0
  0
LINE
  5
    84
  8
0
  6
CONTINUOUS
 62
     1
 10
-110.550034941926
 20
78.615190946278
 30
0.0
 11
-84.0500349419259
 21
78.615190946278
 31
0.0
  0
LINE
  5
    85
  8
0
  6
CONTINUOUS
 62
     1
 10
-110.550034941926
 20
78.915190946278
 30
0.0
 11
-108.050020223719
 21
78.915190946278
 31
0.0
  0
LINE
  5
    86
  8
0
  6
CONTINUOUS
 62
     1
 10
-86.5500196831369
 20
78.915190946278
 30
0.0
 11
-84.0500349419259
 21
78.915190946278
 31
0.0
  0
LINE
  5
    87
  8
0
  6
CONTINUOUS
 62
     1
 10
-110.550034941926
 20
79.215190946278
 30
0.0
 11
-108.05002087234
 21
79.215190946278
 31
0.0
  0
LINE
  5
    88
  8
0
  6
CONTINUOUS
 62
     1
 10
-86.5500196831369
 20
79.215190946278
 30
0.0
 11
-84.0500349419259
 21
79.215190946278
 31
0.0
  0
LINE
  5
    89
  8
0
  6
CONTINUOUS
 62
     1
 10
-110.550034941926
 20
79.515190946278
 30
0.0
 11
-108.050021520961
 21
79.515190946278
 31
0.0
  0
LINE
  5
    8A
  8
0
  6
CONTINUOUS
 62
     1
 10
-86.5500196831369
 20
79.515190946278
 30
0.0
 11
-84.0500349419259
 21
79.515190946278
 31
0.0
  0
LINE
  5
    8B
  8
0
  6
CONTINUOUS
 62
     1
 10
-110.550034941926
 20
79.815190946278
 30
0.0
 11
-108.050022169582
 21
79.815190946278
 31
0.0
  0
LINE
  5
    8C
  8
0
  6
CONTINUOUS
 62
     1
 10
-86.5500196831369
 20
79.815190946278
 30
0.0
 11
-84.0500349419259
 21
79.815190946278
 31
0.0
  0
LINE
  5
    8D
  8
0
  6
CONTINUOUS
 62
     1
 10
-110.550034941926
 20
80.115190946278
 30
0.0
 11
-108.050022818204
 21
80.115190946278
 31
0.0
  0
LINE
  5
    8E
  8
0
  6
CONTINUOUS
 62
     1
 10
-86.5500196831369
 20
80.115190946278
 30
0.0
 11
-84.0500349419259
 21
80.115190946278
 31
0.0
  0
LINE
  5
    8F
  8
0
  6
CONTINUOUS
 62
     1
 10
-110.550034941926
 20
80.415190946278
 30
0.0
 11
-108.050023466825
 21
80.415190946278
 31
0.0
  0
LINE
  5
    90
  8
0
  6
CONTINUOUS
 62
     1
 10
-86.5500196831369
 20
80.415190946278
 30
0.0
 11
-84.0500349419259
 21
80.415190946278
 31
0.0
  0
LINE
  5
    91
  8
0
  6
CONTINUOUS
 62
     1
 10
-110.550034941926
 20
80.715190946278
 30
0.0
 11
-108.050024115446
 21
80.715190946278
 31
0.0
  0
LINE
  5
    92
  8
0
  6
CONTINUOUS
 62
     1
 10
-86.5500196831369
 20
80.715190946278
 30
0.0
 11
-84.0500349419259
 21
80.715190946278
 31
0.0
  0
LINE
  5
    93
  8
0
  6
CONTINUOUS
 62
     1
 10
-110.550034941926
 20
81.015190946278
 30
0.0
 11
-108.050024764067
 21
81.015190946278
 31
0.0
  0
LINE
  5
    94
  8
0
  6
CONTINUOUS
 62
     1
 10
-86.5500196831369
 20
81.015190946278
 30
0.0
 11
-84.0500349419259
 21
81.015190946278
 31
0.0
  0
LINE
  5
    95
  8
0
  6
CONTINUOUS
 62
     1
 10
-110.550034941926
 20
81.315190946278
 30
0.0
 11
-108.050025412688
 21
81.315190946278
 31
0.0
  0
LINE
  5
    96
  8
0
  6
CONTINUOUS
 62
     1
 10
-86.5500196831369
 20
81.315190946278
 30
0.0
 11
-84.0500349419259
 21
81.315190946278
 31
0.0
  0
LINE
  5
    97
  8
0
  6
CONTINUOUS
 62
     1
 10
-110.550034941926
 20
81.615190946278
 30
0.0
 11
-108.050026061309
 21
81.615190946278
 31
0.0
  0
LINE
  5
    98
  8
0
  6
CONTINUOUS
 62
     1
 10
-86.5500196831369
 20
81.615190946278
 30
0.0
 11
-84.0500349419259
 21
81.615190946278
 31
0.0
  0
LINE
  5
    99
  8
0
  6
CONTINUOUS
 62
     1
 10
-110.550034941926
 20
81.915190946278
 30
0.0
 11
-108.050026709931
 21
81.915190946278
 31
0.0
  0
LINE
  5
    9A
  8
0
  6
CONTINUOUS
 62
     1
 10
-86.5500196831369
 20
81.915190946278
 30
0.0
 11
-84.0500349419259
 21
81.915190946278
 31
0.0
  0
LINE
  5
    9B
  8
0
  6
CONTINUOUS
 62
     1
 10
-110.550034941926
 20
82.215190946278
 30
0.0
 11
-108.050027358552
 21
82.215190946278
 31
0.0
  0
LINE
  5
    9C
  8
0
  6
CONTINUOUS
 62
     1
 10
-86.5500196831369
 20
82.215190946278
 30
0.0
 11
-84.0500349419259
 21
82.215190946278
 31
0.0
  0
LINE
  5
    9D
  8
0
  6
CONTINUOUS
 62
     1
 10
-110.550034941926
 20
82.515190946278
 30
0.0
 11
-108.050028007173
 21
82.515190946278
 31
0.0
  0
LINE
  5
    9E
  8
0
  6
CONTINUOUS
 62
     1
 10
-86.5500196831369
 20
82.515190946278
 30
0.0
 11
-84.0500349419259
 21
82.515190946278
 31
0.0
  0
LINE
  5
    9F
  8
0
  6
CONTINUOUS
 62
     1
 10
-110.550034941926
 20
82.815190946278
 30
0.0
 11
-108.050028655794
 21
82.815190946278
 31
0.0
  0
LINE
  5
    A0
  8
0
  6
CONTINUOUS
 62
     1
 10
-86.5500196831369
 20
82.815190946278
 30
0.0
 11
-84.0500349419259
 21
82.815190946278
 31
0.0
  0
LINE
  5
    A1
  8
0
  6
CONTINUOUS
 62
     1
 10
-110.550034941926
 20
83.115190946278
 30
0.0
 11
-108.050029304415
 21
83.115190946278
 31
0.0
  0
LINE
  5
    A2
  8
0
  6
CONTINUOUS
 62
     1
 10
-86.5500196831369
 20
83.115190946278
 30
0.0
 11
-84.0500349419259
 21
83.115190946278
 31
0.0
  0
LINE
  5
    A3
  8
0
  6
CONTINUOUS
 62
     1
 10
-110.550034941926
 20
83.415190946278
 30
0.0
 11
-108.050029953036
 21
83.415190946278
 31
0.0
  0
LINE
  5
    A4
  8
0
  6
CONTINUOUS
 62
     1
 10
-86.5500196831369
 20
83.415190946278
 30
0.0
 11
-84.0500349419259
 21
83.415190946278
 31
0.0
  0
LINE
  5
    A5
  8
0
  6
CONTINUOUS
 62
     1
 10
-110.550034941926
 20
83.715190946278
 30
0.0
 11
-108.050030601658
 21
83.715190946278
 31
0.0
  0
LINE
  5
    A6
  8
0
  6
CONTINUOUS
 62
     1
 10
-86.5500196831369
 20
83.715190946278
 30
0.0
 11
-84.0500349419259
 21
83.715190946278
 31
0.0
  0
LINE
  5
    A7
  8
0
  6
CONTINUOUS
 62
     1
 10
-110.550034941926
 20
84.015190946278
 30
0.0
 11
-108.050031250279
 21
84.015190946278
 31
0.0
  0
LINE
  5
    A8
  8
0
  6
CONTINUOUS
 62
     1
 10
-86.5500196831369
 20
84.015190946278
 30
0.0
 11
-84.0500349419259
 21
84.015190946278
 31
0.0
  0
LINE
  5
    A9
  8
0
  6
CONTINUOUS
 62
     1
 10
-110.550034941926
 20
84.315190946278
 30
0.0
 11
-108.0500318989
 21
84.315190946278
 31
0.0
  0
LINE
  5
    AA
  8
0
  6
CONTINUOUS
 62
     1
 10
-86.5500196831369
 20
84.315190946278
 30
0.0
 11
-84.0500349419259
 21
84.315190946278
 31
0.0
  0
LINE
  5
    AB
  8
0
  6
CONTINUOUS
 62
     1
 10
-110.550034941926
 20
84.6151909462779
 30
0.0
 11
-108.050032547521
 21
84.6151909462779
 31
0.0
  0
LINE
  5
    AC
  8
0
  6
CONTINUOUS
 62
     1
 10
-86.5500196831369
 20
84.6151909462779
 30
0.0
 11
-84.0500349419259
 21
84.6151909462779
 31
0.0
  0
LINE
  5
    AD
  8
0
  6
CONTINUOUS
 62
     1
 10
-110.550034941926
 20
84.915190946278
 30
0.0
 11
-108.050033196142
 21
84.915190946278
 31
0.0
  0
LINE
  5
    AE
  8
0
  6
CONTINUOUS
 62
     1
 10
-86.5500196831369
 20
84.915190946278
 30
0.0
 11
-84.0500349419259
 21
84.915190946278
 31
0.0
  0
LINE
  5
    AF
  8
0
  6
CONTINUOUS
 62
     1
 10
-110.550034941926
 20
85.2151909462779
 30
0.0
 11
-108.050033844763
 21
85.2151909462779
 31
0.0
  0
LINE
  5
    B0
  8
0
  6
CONTINUOUS
 62
     1
 10
-86.5500196831369
 20
85.2151909462779
 30
0.0
 11
-84.0500349419259
 21
85.2151909462779
 31
0.0
  0
LINE
  5
    B1
  8
0
  6
CONTINUOUS
 62
     1
 10
-110.550034941926
 20
85.5151909462779
 30
0.0
 11
-108.050034493385
 21
85.5151909462779
 31
0.0
  0
LINE
  5
    B2
  8
0
  6
CONTINUOUS
 62
     1
 10
-86.5500196831369
 20
85.5151909462779
 30
0.0
 11
-84.0500349419259
 21
85.5151909462779
 31
0.0
  0
LINE
  5
    B3
  8
0
  6
CONTINUOUS
 62
     1
 10
-110.550034941926
 20
85.8151909462779
 30
0.0
 11
-108.050035142006
 21
85.8151909462779
 31
0.0
  0
LINE
  5
    B4
  8
0
  6
CONTINUOUS
 62
     1
 10
-86.5500196831369
 20
85.8151909462779
 30
0.0
 11
-84.0500349419259
 21
85.8151909462779
 31
0.0
  0
LINE
  5
    B5
  8
0
  6
CONTINUOUS
 62
     1
 10
-110.550034941926
 20
86.1151909462779
 30
0.0
 11
-108.050035790627
 21
86.1151909462779
 31
0.0
  0
LINE
  5
    B6
  8
0
  6
CONTINUOUS
 62
     1
 10
-86.5500196831369
 20
86.1151909462779
 30
0.0
 11
-84.0500349419259
 21
86.1151909462779
 31
0.0
  0
LINE
  5
    B7
  8
0
  6
CONTINUOUS
 62
     1
 10
-110.550034941926
 20
86.4151909462779
 30
0.0
 11
-108.050036439248
 21
86.4151909462779
 31
0.0
  0
LINE
  5
    B8
  8
0
  6
CONTINUOUS
 62
     1
 10
-86.5500196831369
 20
86.4151909462779
 30
0.0
 11
-84.0500349419259
 21
86.4151909462779
 31
0.0
  0
LINE
  5
    B9
  8
0
  6
CONTINUOUS
 62
     1
 10
-110.550034941926
 20
86.7151909462779
 30
0.0
 11
-108.050037087869
 21
86.7151909462779
 31
0.0
  0
LINE
  5
    BA
  8
0
  6
CONTINUOUS
 62
     1
 10
-86.5500196831369
 20
86.7151909462779
 30
0.0
 11
-84.0500349419259
 21
86.7151909462779
 31
0.0
  0
LINE
  5
    BB
  8
0
  6
CONTINUOUS
 62
     1
 10
-110.550034941926
 20
87.0151909462779
 30
0.0
 11
-108.05003773649
 21
87.0151909462779
 31
0.0
  0
LINE
  5
    BC
  8
0
  6
CONTINUOUS
 62
     1
 10
-86.5500196831369
 20
87.0151909462779
 30
0.0
 11
-84.0500349419259
 21
87.0151909462779
 31
0.0
  0
LINE
  5
    BD
  8
0
  6
CONTINUOUS
 62
     1
 10
-110.550034941926
 20
87.3151909462779
 30
0.0
 11
-108.050038385112
 21
87.3151909462779
 31
0.0
  0
LINE
  5
    BE
  8
0
  6
CONTINUOUS
 62
     1
 10
-86.5500196831369
 20
87.3151909462779
 30
0.0
 11
-84.0500349419259
 21
87.3151909462779
 31
0.0
  0
ENDBLK
  5
    BF
  8
0
  6
CONTINUOUS
 62
     7
  0
BLOCK
  5
    C0
  8
0
  6
CONTINUOUS
 62
     7
  2
BLOCCHI_FRT
 70
    64
 10
0.0
 20
0.0
 30
0.0
  3
BLOCCHI_FRT
  0
LINE
  5
    C1
  8
0
  6
CONTINUOUS
 62
   130
 10
-61.2999967949533
 20
94.7369766235377
 30
0.0
 11
-61.2999967949533
 21
115.736976623538
 31
0.0
  0
LINE
  5
    C2
  8
0
  6
CONTINUOUS
 62
   130
 10
-54.2999967949533
 20
94.7369766235377
 30
0.0
 11
-54.2999967949533
 21
115.736976623538
 31
0.0
  0
LINE
  5
    C3
  8
0
  6
CONTINUOUS
 62
   130
 10
-61.2999967949533
 20
115.736976623538
 30
0.0
 11
-61.2999967949533
 21
116.736976623538
 31
0.0
  0
LINE
  5
    C4
  8
0
  6
CONTINUOUS
 62
   130
 10
-54.3000120353677
 20
116.736976651376
 30
0.0
 11
-54.2999967765787
 21
115.736976651376
 31
0.0
  0
LINE
  5
    C5
  8
0
  6
CONTINUOUS
 62
   130
 10
-59.2999967949533
 20
118.736976623538
 30
0.0
 11
-56.2999967949533
 21
118.736976623538
 31
0.0
  0
LINE
  5
    C6
  8
0
  6
CONTINUOUS
 62
   130
 10
-61.2999967949533
 20
93.7369766235377
 30
0.0
 11
-61.2999967949533
 21
94.7369766235377
 31
0.0
  0
LINE
  5
    C7
  8
0
  6
CONTINUOUS
 62
   130
 10
-54.3000120353674
 20
93.7369766448769
 30
0.0
 11
-54.2999967765783
 21
94.7369766448769
 31
0.0
  0
LINE
  5
    C8
  8
0
  6
CONTINUOUS
 62
   130
 10
-59.2999967949533
 20
91.7369766235377
 30
0.0
 11
-56.2999967949533
 21
91.7369766235377
 31
0.0
  0
LINE
  5
    C9
  8
0
  6
CONTINUOUS
 62
     5
 10
-149.800065459504
 20
57.9870338439967
 30
0.0
 11
-149.800065459504
 21
58.4870643615748
 31
0.0
  0
LINE
  5
    CA
  8
0
  6
CONTINUOUS
 62
     5
 10
-149.800050200715
 20
150.486999511721
 30
0.0
 11
-149.800050200715
 21
161.987075805667
 31
0.0
  0
LINE
  5
    CB
  8
0
  6
CONTINUOUS
 62
     5
 10
-149.800066237173
 20
57.9870325514395
 30
0.0
 11
-149.653604748995
 21
57.6334787887725
 31
0.0
  0
LINE
  5
    CC
  8
0
  6
CONTINUOUS
 62
     5
 10
-149.653600345842
 20
57.6334817249158
 30
0.0
 11
-149.300065639544
 21
57.4870965305348
 31
0.0
  0
LINE
  5
    CD
  8
0
  6
CONTINUOUS
 62
     5
 10
-75.7999967948593
 20
57.4870614224455
 30
0.0
 11
-45.2999967948593
 21
57.4870614224455
 31
0.0
  0
LINE
  5
    CE
  8
0
  6
CONTINUOUS
 62
     5
 10
-149.300069274201
 20
57.4870948791529
 30
0.0
 11
-148.800050200715
 21
57.4870948791529
 31
0.0
  0
LINE
  5
    CF
  8
0
  6
CONTINUOUS
 62
     5
 10
-45.2999904955573
 20
57.4870247888877
 30
0.0
 11
-44.9464291045002
 21
57.6334748263949
 31
0.0
  0
LINE
  5
    D0
  8
0
  6
CONTINUOUS
 62
     5
 10
-44.9464300431216
 20
57.633476629512
 30
0.0
 11
-44.7999761849408
 21
57.9870304082883
 31
0.0
  0
LINE
  5
    D1
  8
0
  6
CONTINUOUS
 62
     5
 10
-44.7999730283591
 20
57.9870300293029
 30
0.0
 11
-44.7999730283591
 21
161.98707580567
 31
0.0
  0
LINE
  5
    D2
  8
0
  6
CONTINUOUS
 62
     5
 10
-149.300042571315
 20
162.487091064451
 30
0.0
 11
-45.300042571315
 21
162.487091064451
 31
0.0
  0
LINE
  5
    D3
  8
0
  6
DOT
 62
     5
 10
-72.1000608818673
 20
67.9175720214869
 30
0.0
 11
-72.1000608818673
 21
76.0563659667994
 31
0.0
  0
LINE
  5
    D4
  8
0
  6
DOT
 62
     5
 10
-59.5001005523045
 20
67.9176635720108
 30
0.0
 11
-59.5000547759388
 21
76.0564117427523
 31
0.0
  0
LINE
  5
    D5
  8
0
  6
CONTINUOUS
 62
     5
 10
-75.7999967844934
 20
150.487014770802
 30
0.0
 11
-44.7999967854575
 21
150.487075805957
 31
0.0
  0
LINE
  5
    D6
  8
0
  6
CONTINUOUS
 62
     5
 10
-149.80005783011
 20
160.487075805667
 30
0.0
 11
-44.7999967949533
 21
160.487075805667
 31
0.0
  0
LINE
  5
    D7
  8
0
  6
CONTINUOUS
 62
     5
 10
-56.4097724858785
 20
143.810981959307
 30
0.0
 11
-56.2955909716389
 21
143.236946319434
 31
0.0
  0
LINE
  5
    D8
  8
0
  6
CONTINUOUS
 62
     5
 10
-56.7349162752107
 20
144.29762492506
 30
0.0
 11
-56.4097667227601
 21
143.810991625472
 31
0.0
  0
LINE
  5
    D9
  8
0
  6
CONTINUOUS
 62
     5
 10
-57.221570199902
 20
144.622770057934
 30
0.0
 11
-56.7349216345615
 21
144.297620533907
 31
0.0
  0
LINE
  5
    DA
  8
0
  6
CONTINUOUS
 62
     5
 10
-57.7956006119768
 20
144.736947764959
 30
0.0
 11
-57.2215802384472
 21
144.622766247804
 31
0.0
  0
LINE
  5
    DB
  8
0
  6
CONTINUOUS
 62
     5
 10
-58.3696236804518
 20
144.622763336373
 30
0.0
 11
-57.7956033069221
 21
144.736944853529
 31
0.0
  0
LINE
  5
    DC
  8
0
  6
CONTINUOUS
 62
     5
 10
-58.8562364190192
 20
144.297626084351
 30
0.0
 11
-58.3696031194313
 21
144.622775636802
 31
0.0
  0
LINE
  5
    DD
  8
0
  6
CONTINUOUS
 62
     5
 10
-59.1814047733279
 20
143.810990219388
 30
0.0
 11
-58.8562399834322
 21
144.297623509711
 31
0.0
  0
LINE
  5
    DE
  8
0
  6
CONTINUOUS
 62
     5
 10
-59.2955924978939
 20
143.236944575779
 30
0.0
 11
-59.1814109836542
 21
143.810980215652
 31
0.0
  0
LINE
  5
    DF
  8
0
  6
CONTINUOUS
 62
     5
 10
-59.2955870049142
 20
140.236953735354
 30
0.0
 11
-59.2955870049142
 21
143.236953735354
 31
0.0
  0
LINE
  5
    E0
  8
0
  6
CONTINUOUS
 62
     5
 10
-59.29559353486
 20
140.236941618335
 30
0.0
 11
-59.1814120177043
 21
139.662921244805
 31
0.0
  0
LINE
  5
    E1
  8
0
  6
CONTINUOUS
 62
     5
 10
-59.1814051167874
 20
139.66293377934
 30
0.0
 11
-58.8562403268917
 21
139.176300489018
 31
0.0
  0
LINE
  5
    E2
  8
0
  6
CONTINUOUS
 62
     5
 10
-58.856240170016
 20
139.176300346579
 30
0.0
 11
-58.3696068796936
 21
138.851135556683
 31
0.0
  0
LINE
  5
    E3
  8
0
  6
CONTINUOUS
 62
     5
 10
-58.3696209977203
 20
138.85112958027
 30
0.0
 11
-57.7956006241906
 21
138.736948063114
 31
0.0
  0
LINE
  5
    E4
  8
0
  6
CONTINUOUS
 62
     5
 10
-57.7956032947083
 20
138.736945151684
 30
0.0
 11
-57.2215829211786
 21
138.85112666884
 31
0.0
  0
LINE
  5
    E5
  8
0
  6
CONTINUOUS
 62
     5
 10
-57.2215653071981
 20
138.851136272689
 30
0.0
 11
-56.7349167512079
 21
139.176301069173
 31
0.0
  0
LINE
  5
    E6
  8
0
  6
CONTINUOUS
 62
     5
 10
-56.7349145508138
 20
139.176304075745
 30
0.0
 11
-56.4097649983632
 21
139.662937375333
 31
0.0
  0
LINE
  5
    E7
  8
0
  6
CONTINUOUS
 62
     5
 10
-56.4097778405895
 20
139.662918323479
 30
0.0
 11
-56.2955963234338
 21
140.236938697009
 31
0.0
  0
LINE
  5
    E8
  8
0
  6
CONTINUOUS
 62
     5
 10
-56.2955870049142
 20
140.236953735354
 30
0.0
 11
-56.2955870049142
 21
143.236953735354
 31
0.0
  0
LINE
  5
    E9
  8
0
  6
CONTINUOUS
 62
     5
 10
-77.7999967949533
 20
60.9870033264186
 30
0.0
 11
-77.7999967949533
 21
147.486999511721
 31
0.0
  0
LINE
  5
    EA
  8
0
  6
CONTINUOUS
 62
     5
 10
-146.300080718293
 20
150.486999511721
 30
0.0
 11
-75.7999967949533
 21
150.486999511721
 31
0.0
  0
LINE
  5
    EB
  8
0
  6
CONTINUOUS
 62
     5
 10
-146.300080718293
 20
148.486999511721
 30
0.0
 11
-78.7999967949533
 21
148.486999511721
 31
0.0
  0
LINE
  5
    EC
  8
0
  6
CONTINUOUS
 62
     5
 10
-149.800054010542
 20
150.487014771941
 30
0.0
 11
-146.300080713169
 21
150.486999513151
 31
0.0
  0
LINE
  5
    ED
  8
0
  6
CONTINUOUS
 62
     5
 10
-149.800060255226
 20
58.4870643615749
 30
0.0
 11
-149.800060255226
 21
150.487018585208
 31
0.0
  0
LINE
  5
    EE
  8
0
  6
CONTINUOUS
 62
     5
 10
-148.800057831921
 20
57.4870719914354
 30
0.0
 11
-76.7999967946356
 21
57.4867820744521
 31
0.0
  0
LINE
  5
    EF
  8
0
  6
CONTINUOUS
 62
     5
 10
-76.7999967631998
 20
57.4867820806693
 30
0.0
 11
-75.7999967631958
 21
57.4867668218802
 31
0.0
  0
LINE
  5
    F0
  8
0
  6
CONTINUOUS
 62
     5
 10
-146.300080718293
 20
59.9870033264186
 30
0.0
 11
-78.7999967949533
 21
59.9870033264186
 31
0.0
  0
LINE
  5
    F1
  8
0
  6
CONTINUOUS
 62
     5
 10
-147.300080718293
 20
60.9870033264186
 30
0.0
 11
-147.300080718293
 21
147.487003326419
 31
0.0
  0
LINE
  5
    F2
  8
0
  6
CONTINUOUS
 62
     5
 10
-148.553506208175
 20
57.9885215989351
 30
0.0
 11
-75.7999966866464
 21
57.9864731064829
 31
0.0
  0
LINE
  5
    F3
  8
0
  6
CONTINUOUS
 62
     5
 10
-148.55298366638
 20
161.985870409577
 30
0.0
 11
-97.2871946345303
 21
161.98712163027
 31
0.0
  0
LINE
  5
    F4
  8
0
  6
CONTINUOUS
 62
     5
 10
-108.050019683137
 20
78.665161132815
 30
0.0
 11
-108.050019683137
 21
120.442283630374
 31
0.0
  0
LINE
  5
    F5
  8
0
  6
CONTINUOUS
 62
     5
 10
-86.5500196831369
 20
78.665161132815
 30
0.0
 11
-86.5500196831369
 21
120.442283630374
 31
0.0
  0
LINE
  5
    F6
  8
0
  6
CONTINUOUS
 62
     5
 10
-63.3151638840564
 20
160.356063957985
 30
0.0
 11
-63.2885983328017
 21
160.37045299628
 31
0.0
  0
LINE
  5
    F7
  8
0
  6
CONTINUOUS
 62
     5
 10
-51.7999815361642
 20
84.4073944091822
 30
0.0
 11
-49.7999815361642
 21
84.4073944091822
 31
0.0
  0
LINE
  5
    F8
  8
0
  6
CONTINUOUS
 62
     5
 10
-52.2999815361642
 20
72.9073944091822
 30
0.0
 11
-52.2999815361642
 21
83.9073944091822
 31
0.0
  0
LINE
  5
    F9
  8
0
  6
CONTINUOUS
 62
     5
 10
-52.2999820301909
 20
72.9073941583748
 30
0.0
 11
-52.153543431706
 21
72.553840393123
 31
0.0
  0
LINE
  5
    FA
  8
0
  6
CONTINUOUS
 62
     5
 10
-52.1535232305874
 20
72.5538425735326
 30
0.0
 11
-51.7999618200758
 21
72.4073963453088
 31
0.0
  0
LINE
  5
    FB
  8
0
  6
CONTINUOUS
 62
     5
 10
-51.7999815361642
 20
72.4073944091822
 30
0.0
 11
-49.7999815361642
 21
72.4073944091822
 31
0.0
  0
LINE
  5
    FC
  8
0
  6
CONTINUOUS
 62
     5
 10
-49.7999815361642
 20
72.4073944091822
 30
0.0
 11
-48.2999815361642
 21
72.4073944091822
 31
0.0
  0
LINE
  5
    FD
  8
0
  6
CONTINUOUS
 62
     5
 10
-48.2999983067159
 20
72.4073872311329
 30
0.0
 11
-47.9464521731164
 21
72.5538334593764
 31
0.0
  0
LINE
  5
    FE
  8
0
  6
CONTINUOUS
 62
     5
 10
-47.946429996798
 20
72.5538454951167
 30
0.0
 11
-47.7999761386172
 21
72.9073992738931
 31
0.0
  0
LINE
  5
    FF
  8
0
  6
CONTINUOUS
 62
     5
 10
-47.7999815361642
 20
72.9073944091822
 30
0.0
 11
-47.7999815361642
 21
83.9073944091822
 31
0.0
  0
LINE
  5
   100
  8
0
  6
CONTINUOUS
 62
     5
 10
-49.7999815361642
 20
84.4073944091822
 30
0.0
 11
-48.2999815361642
 21
84.4073944091822
 31
0.0
  0
LINE
  5
   101
  8
0
  6
CONTINUOUS
 62
     5
 10
-77.8000425713205
 20
123.487022399905
 30
0.0
 11
-77.8000425713205
 21
124.487022399905
 31
0.0
  0
LINE
  5
   102
  8
0
  6
CONTINUOUS
 62
     5
 10
-147.300088347688
 20
124.487022399905
 30
0.0
 11
-77.8000425713205
 21
124.487022399905
 31
0.0
  0
LINE
  5
   103
  8
0
  6
CONTINUOUS
 62
     5
 10
-147.300088347688
 20
123.487022399905
 30
0.0
 11
-77.8000425713205
 21
123.487022399905
 31
0.0
  0
LINE
  5
   104
  8
0
  6
CONTINUOUS
 62
     5
 10
-77.8000425713205
 20
74.4870223999049
 30
0.0
 11
-77.8000425713205
 21
75.4870223999049
 31
0.0
  0
LINE
  5
   105
  8
0
  6
CONTINUOUS
 62
     5
 10
-147.300088347688
 20
75.4870223999049
 30
0.0
 11
-77.8000425713205
 21
75.4870223999049
 31
0.0
  0
LINE
  5
   106
  8
0
  6
CONTINUOUS
 62
     5
 10
-147.300088347688
 20
74.4870223999049
 30
0.0
 11
-77.8000425713205
 21
74.4870223999049
 31
0.0
  0
LINE
  5
   107
  8
0
  6
CONTINUOUS
 62
     5
 10
-147.300088347688
 20
111.487022399905
 30
0.0
 11
-108.050050200715
 21
111.487022399905
 31
0.0
  0
LINE
  5
   108
  8
0
  6
CONTINUOUS
 62
     5
 10
-147.300088347688
 20
110.487022399905
 30
0.0
 11
-108.050050200715
 21
110.487022399905
 31
0.0
  0
LINE
  5
   109
  8
0
  6
CONTINUOUS
 62
     5
 10
-147.300088347688
 20
88.4870223999049
 30
0.0
 11
-108.05005783011
 21
88.4870223999049
 31
0.0
  0
LINE
  5
   10A
  8
0
  6
CONTINUOUS
 62
     5
 10
-147.300088347688
 20
87.4870223999049
 30
0.0
 11
-108.05005783011
 21
87.4870223999049
 31
0.0
  0
LINE
  5
   10B
  8
0
  6
CONTINUOUS
 62
     5
 10
-77.8000425713205
 20
110.487022399905
 30
0.0
 11
-77.8000425713205
 21
111.487022399905
 31
0.0
  0
LINE
  5
   10C
  8
0
  6
CONTINUOUS
 62
     5
 10
-86.5500196831369
 20
111.487022399905
 30
0.0
 11
-77.8000425713205
 21
111.487022399905
 31
0.0
  0
LINE
  5
   10D
  8
0
  6
CONTINUOUS
 62
     5
 10
-86.5500196831369
 20
110.487022399905
 30
0.0
 11
-77.8000425713205
 21
110.487022399905
 31
0.0
  0
LINE
  5
   10E
  8
0
  6
CONTINUOUS
 62
     5
 10
-77.8000425713205
 20
87.4870223999049
 30
0.0
 11
-77.8000425713205
 21
88.4870223999049
 31
0.0
  0
LINE
  5
   10F
  8
0
  6
CONTINUOUS
 62
     5
 10
-86.5500273125314
 20
88.4870223999049
 30
0.0
 11
-77.8000425713205
 21
88.4870223999049
 31
0.0
  0
LINE
  5
   110
  8
0
  6
CONTINUOUS
 62
     5
 10
-86.5500273125314
 20
87.4870223999049
 30
0.0
 11
-77.8000425713205
 21
87.4870223999049
 31
0.0
  0
LINE
  5
   111
  8
0
  6
CONTINUOUS
 62
     5
 10
-149.30360164618
 20
57.4885444810973
 30
0.0
 11
-76.8000005719388
 21
57.486782090905
 31
0.0
  0
LINE
  5
   112
  8
0
  6
CONTINUOUS
 62
     5
 10
-75.799994008041
 20
57.9864736759409
 30
0.0
 11
-46.0499634904594
 21
57.9822202883576
 31
0.0
  0
LINE
  5
   113
  8
0
  6
CONTINUOUS
 62
     5
 10
-46.0499662773751
 20
57.9822196960475
 30
0.0
 11
-46.0499662773751
 21
150.487071990969
 31
0.0
  0
LINE
  5
   114
  8
0
  6
CONTINUOUS
 62
     5
 10
-46.049969844668
 20
57.9822196422035
 30
0.0
 11
-45.6998416732616
 21
57.6320609524063
 31
0.0
  0
LINE
  5
   115
  8
0
  6
CONTINUOUS
 62
     5
 10
-45.6998553545911
 20
57.6320592964986
 30
0.0
 11
-45.1695514037092
 21
57.5410635118331
 31
0.0
  0
LINE
  5
   116
  8
0
  6
CONTINUOUS
 62
     5
 10
-46.0499662773751
 20
160.487075805667
 30
0.0
 11
-46.0499662773751
 21
161.991271972659
 31
0.0
  0
LINE
  5
   117
  8
0
  6
CONTINUOUS
 62
     5
 10
-149.433945570164
 20
57.5446111609738
 30
0.0
 11
-148.907113001325
 21
57.6349698912225
 31
0.0
  0
LINE
  5
   118
  8
0
  6
CONTINUOUS
 62
     5
 10
-148.907111491839
 20
57.6349698884266
 30
0.0
 11
-148.553511941814
 21
57.9885198443901
 31
0.0
  0
LINE
  5
   119
  8
0
  6
CONTINUOUS
 62
     5
 10
-148.550061644807
 20
57.9885215759303
 30
0.0
 11
-148.550061644807
 21
150.486995697024
 31
0.0
  0
LINE
  5
   11A
  8
0
  6
CONTINUOUS
 62
     5
 10
-148.550061644807
 20
160.487075805667
 30
0.0
 11
-148.550061644807
 21
161.985870361331
 31
0.0
  0
LINE
  5
   11B
  8
0
  6
CONTINUOUS
 62
     5
 10
-149.435420649958
 20
57.5431345829114
 30
0.0
 11
-149.433944362113
 21
57.5446108707563
 31
0.0
  0
LINE
  5
   11C
  8
0
  6
CONTINUOUS
 62
     5
 10
-97.2871935814045
 20
161.987122113531
 30
0.0
 11
-46.0499651878379
 21
161.99127250416
 31
0.0
  0
LINE
  5
   11D
  8
0
  6
CONTINUOUS
 62
     5
 10
-46.0499718491468
 20
161.991266469915
 30
0.0
 11
-45.6993096096318
 21
162.341943962009
 31
0.0
  0
LINE
  5
   11E
  8
0
  6
CONTINUOUS
 62
     5
 10
-148.906578445046
 20
162.339431217945
 30
0.0
 11
-148.552982700849
 21
161.985885067272
 31
0.0
  0
LINE
  5
   11F
  8
0
  6
CONTINUOUS
 62
     5
 10
-149.435190071044
 20
162.431115072261
 30
0.0
 11
-149.433942665077
 21
162.429863851567
 31
0.0
  0
LINE
  5
   120
  8
0
  6
CONTINUOUS
 62
     5
 10
-149.433949686036
 20
162.429858559293
 30
0.0
 11
-148.906586869971
 21
162.339404455889
 31
0.0
  0
LINE
  5
   121
  8
0
  6
CONTINUOUS
 62
     5
 10
-45.6992915503967
 20
162.341956302386
 30
0.0
 11
-45.1692317377007
 21
162.43291394031
 31
0.0
  0
LINE
  5
   122
  8
0
  6
CONTINUOUS
 62
     5
 10
-149.30308284684
 20
162.485839893026
 30
0.0
 11
-98.4963850020707
 21
162.487091113693
 31
0.0
  0
LINE
  5
   123
  8
0
  6
CONTINUOUS
 62
     5
 10
-108.050019683124
 20
120.001468658456
 30
0.0
 11
-86.5500196831237
 21
120.001468658456
 31
0.0
  0
LINE
  5
   124
  8
0
  6
CONTINUOUS
 62
     5
 10
-108.050019683137
 20
120.442283630374
 30
0.0
 11
-86.5500196831369
 21
120.442283630374
 31
0.0
  0
LINE
  5
   125
  8
0
  6
CONTINUOUS
 62
     5
 10
-108.050019683137
 20
78.665161132815
 30
0.0
 11
-86.5500196831369
 21
78.665161132815
 31
0.0
  0
LINE
  5
   126
  8
0
  6
CONTINUOUS
 62
     5
 10
-108.050019683137
 20
79.3350372314479
 30
0.0
 11
-86.5500196831369
 21
79.3350372314479
 31
0.0
  0
LINE
  5
   127
  8
0
  6
CONTINUOUS
 62
     7
 10
-148.253730454804
 20
150.487001475053
 30
0.0
 11
-148.250041642562
 21
150.487077768997
 31
0.0
  0
LINE
  5
   128
  8
0
  6
CONTINUOUS
 62
     7
 10
-98.1660747029602
 20
160.456049592357
 30
0.0
 11
-98.1350535851209
 21
160.487070710196
 31
0.0
  0
LINE
  5
   129
  8
0
  6
CONTINUOUS
 62
     7
 10
-96.4650374536383
 20
160.487072675569
 30
0.0
 11
-96.4340163357991
 21
160.456051557729
 31
0.0
  0
ARC
  5
   12A
  8
0
  6
CONTINUOUS
 62
   130
 10
-59.3001118123932
 20
93.7369017519449
 30
0.0
 40
1.99989151003289
 50
179.998045955329
 51
270.003030435546
  0
ARC
  5
   12B
  8
0
  6
CONTINUOUS
 62
   130
 10
-56.3000096158611
 20
93.7369986075295
 30
0.0
 40
2.00001699819457
 50
270.000705656899
 51
359.99980528998
  0
ARC
  5
   12C
  8
0
  6
CONTINUOUS
 62
   130
 10
-59.2999904290738
 20
116.736905170355
 30
0.0
 40
2.00006584071926
 50
90.0004985155096
 51
179.998309955181
  0
ARC
  5
   12D
  8
0
  6
CONTINUOUS
 62
   130
 10
-56.2998679919487
 20
116.737033964105
 30
0.0
 40
1.99986560310118
 50
359.998727492959
 51
450.00340658006
  0
ARC
  5
   12E
  8
0
  6
DOT
 62
     5
 10
-65.8001546519801
 20
71.9872182016555
 30
0.0
 40
7.50016007304601
 50
32.8603672878304
 51
147.136906405451
  0
ARC
  5
   12F
  8
0
  6
DOT
 62
     5
 10
-65.8001546519801
 20
71.9872182016555
 30
0.0
 40
7.50016007304601
 50
212.863093594549
 51
327.138988192275
  0
ARC
  5
   130
  8
0
  6
CONTINUOUS
 62
     5
 10
-48.2999816695397
 20
83.9073882924088
 30
0.0
 40
0.500004138685805
 50
9.82597889372262E-4
 51
90.0015828888628
  0
ARC
  5
   131
  8
0
  6
CONTINUOUS
 62
     5
 10
-51.7999763625874
 20
83.9073997115769
 30
0.0
 40
0.50000584052986
 50
89.9978713935098
 51
180.0006837123
  0
ARC
  5
   132
  8
0
  6
CONTINUOUS
 62
     5
 10
-45.3000257105088
 20
161.987040934126
 30
0.0
 40
0.500033905053036
 50
5.0194658091381E-3
 51
90.0021511132899
  0
ARC
  5
   133
  8
0
  6
CONTINUOUS
 62
     5
 10
-149.300000911392
 20
161.987079172423
 30
0.0
 40
0.500039924248484
 50
90.0035554713189
 51
179.997699226458
  0
ARC
  5
   134
  8
0
  6
CONTINUOUS
 62
     5
 10
-146.300083864889
 20
147.487006133913
 30
0.0
 40
0.999995477336374
 50
89.9997117870498
 51
180.00019471886
  0
ARC
  5
   135
  8
0
  6
CONTINUOUS
 62
     5
 10
-78.7999905537177
 20
60.9870002506998
 30
0.0
 40
0.999995663148784
 50
269.999809690863
 51
360.000275428208
  0
ARC
  5
   136
  8
0
  6
CONTINUOUS
 62
     5
 10
-146.300081949074
 20
60.9870020164671
 30
0.0
 40
0.999998189209416
 50
179.999869641492
 51
270.000132496864
  0
ARC
  5
   137
  8
0
  6
CONTINUOUS
 62
     7
 10
-78.7999967949532
 20
147.486999511721
 30
0.0
 40
1.0
 50
0.0
 51
90.0
  0
LINE
  5
   138
  8
0
  6
CONTINUOUS
 62
     7
 10
-110.550034941926
 20
111.487022399905
 30
0.0
 11
-110.550034941926
 21
123.192308002459
 31
0.0
  0
LINE
  5
   139
  8
0
  6
CONTINUOUS
 62
     7
 10
-110.550034941926
 20
123.192308002459
 30
0.0
 11
-84.0500349419259
 21
123.192308002459
 31
0.0
  0
LINE
  5
   13A
  8
0
  6
DASHDOT
 62
     7
 10
-65.8001546519801
 20
62.4870581286095
 30
0.0
 11
-65.8001546519801
 21
81.4873782747015
 31
0.0
  0
LINE
  5
   13B
  8
0
  6
DASHDOT
 62
     7
 10
-75.3003147250261
 20
71.9872182016555
 30
0.0
 11
-56.2999945789341
 21
71.9872182016555
 31
0.0
  0
LINE
  5
   13C
  8
0
  6
CONTINUOUS
 62
     5
 10
-146.300095977082
 20
148.487014770494
 30
0.0
 11
-78.8000044243478
 21
148.487014770494
 31
0.0
  0
LINE
  5
   13D
  8
0
  6
CONTINUOUS
 62
     5
 10
-77.8000196831369
 20
61.2370803784106
 30
0.0
 11
-77.8000196831369
 21
147.487014770494
 31
0.0
  0
LINE
  5
   13E
  8
0
  6
CONTINUOUS
 62
     5
 10
-147.300095977082
 20
61.2371657937205
 30
0.0
 11
-147.300095977082
 21
147.486999511705
 31
0.0
  0
ARC
  5
   13F
  8
0
  6
CONTINUOUS
 62
     5
 10
-78.800123079968
 20
147.486902923172
 30
0.0
 40
1.00009890331454
 50
1.78259212407794E-3
 51
89.995119821833
  0
ARC
  5
   140
  8
0
  6
CONTINUOUS
 62
     5
 10
-146.300199254524
 20
147.487031449523
 30
0.0
 40
0.99989854885619
 50
89.9930649624333
 51
180.002499279104
  0
ARC
  5
   141
  8
0
  6
CONTINUOUS
 62
     5
 10
-78.8000252996049
 20
61.2370803784106
 30
0.0
 40
0.999971052667509
 50
269.998672709466
 51
360.0
  0
ARC
  5
   142
  8
0
  6
CONTINUOUS
 62
     5
 10
-146.300095977082
 20
61.2371657937204
 30
0.0
 40
1.0
 50
180.0
 51
269.999948948098
  0
LINE
  5
   143
  8
0
  6
CONTINUOUS
 62
     5
 10
-145.785175977082
 20
60.7520460162377
 30
0.0
 11
-79.3149396831368
 21
60.7520460162377
 31
0.0
  0
LINE
  5
   144
  8
0
  6
CONTINUOUS
 62
     5
 10
-146.300095977082
 20
60.2371221335415
 30
0.0
 11
-78.8000252996049
 21
60.2371221335415
 31
0.0
  0
LINE
  5
   145
  8
0
  6
CONTINUOUS
 62
     5
 10
-145.785175977082
 20
147.966363503586
 30
0.0
 11
-79.3149396831368
 21
147.966363503586
 31
0.0
  0
LINE
  5
   146
  8
0
  6
CONTINUOUS
 62
     5
 10
-146.785175977082
 20
61.7520460162377
 30
0.0
 11
-146.785175977082
 21
146.966363503586
 31
0.0
  0
LINE
  5
   147
  8
0
  6
CONTINUOUS
 62
     5
 10
-78.3149396831368
 20
61.7520460162377
 30
0.0
 11
-78.3149396831368
 21
146.966363503586
 31
0.0
  0
ARC
  5
   148
  8
0
  6
CONTINUOUS
 62
     5
 10
-145.785175977082
 20
61.7520460162377
 30
0.0
 40
1.0
 50
180.0
 51
270.0
  0
ARC
  5
   149
  8
0
  6
CONTINUOUS
 62
     5
 10
-79.3149396831368
 20
61.7520460162377
 30
0.0
 40
1.0
 50
270.0
 51
360.0
  0
ARC
  5
   14A
  8
0
  6
CONTINUOUS
 62
     5
 10
-79.3149396831368
 20
146.966363503586
 30
0.0
 40
1.0
 50
0.0
 51
90.0
  0
ARC
  5
   14B
  8
0
  6
CONTINUOUS
 62
     5
 10
-145.785175977082
 20
146.966363503586
 30
0.0
 40
1.0
 50
90.0
 51
180.0
  0
LINE
  5
   14C
  8
0
  6
CONTINUOUS
 62
     7
 10
-110.550034941926
 20
75.915190946278
 30
0.0
 11
-84.0500349419259
 21
75.915190946278
 31
0.0
  0
LINE
  5
   14D
  8
0
  6
CONTINUOUS
 62
     7
 10
-84.0500349419259
 20
111.487054883399
 30
0.0
 11
-84.0500349419259
 21
123.192308002459
 31
0.0
  0
LINE
  5
   14E
  8
0
  6
CONTINUOUS
 62
     7
 10
-110.550034941926
 20
75.915190946278
 30
0.0
 11
-110.550034941926
 21
87.4870548833989
 31
0.0
  0
LINE
  5
   14F
  8
0
  6
CONTINUOUS
 62
     7
 10
-84.0500349419259
 20
75.915190946278
 30
0.0
 11
-84.0500349419259
 21
87.4870548833989
 31
0.0
  0
LINE
  5
   150
  8
0
  6
CONTINUOUS
 62
     7
 10
-120.550080718293
 20
121.987054883399
 30
0.0
 11
-119.050080718293
 21
121.987054883399
 31
0.0
  0
LINE
  5
   151
  8
0
  6
CONTINUOUS
 62
     7
 10
-120.550080718293
 20
112.987054883399
 30
0.0
 11
-119.050080718293
 21
112.987054883399
 31
0.0
  0
LINE
  5
   152
  8
0
  6
CONTINUOUS
 62
     7
 10
-119.050080718293
 20
112.987054883399
 30
0.0
 11
-119.050080718293
 21
121.987054883399
 31
0.0
  0
LINE
  5
   153
  8
0
  6
CONTINUOUS
 62
     7
 10
-120.550080718293
 20
112.987054883399
 30
0.0
 11
-120.550080718293
 21
121.987054883399
 31
0.0
  0
CIRCLE
  5
   154
  8
0
  6
CONTINUOUS
 62
     7
 10
-119.800080718293
 20
81.4870548833989
 30
0.0
 40
3.25
  0
CIRCLE
  5
   155
  8
0
  6
CONTINUOUS
 62
     7
 10
-119.800080718293
 20
81.4870548833989
 30
0.0
 40
4.75
  0
LINE
  5
   156
  8
0
  6
CONTINUOUS
 62
     7
 10
-137.490989809202
 20
84.2870548833989
 30
0.0
 11
-137.16371708193
 21
84.2870548833989
 31
0.0
  0
LINE
  5
   157
  8
0
  6
CONTINUOUS
 62
     7
 10
-138.436444354657
 20
78.6870548833989
 30
0.0
 11
-137.854626172839
 21
78.6870548833989
 31
0.0
  0
LINE
  5
   158
  8
0
  6
CONTINUOUS
 62
     7
 10
-143.190989809202
 20
80.5779639743079
 30
0.0
 11
-143.190989809202
 21
80.9416003379443
 31
0.0
  0
LINE
  5
   159
  8
0
  6
CONTINUOUS
 62
     7
 10
-139.409171627384
 20
80.5779639743079
 30
0.0
 11
-139.409171627384
 21
80.9416003379443
 31
0.0
  0
ARC
  5
   15A
  8
0
  6
CONTINUOUS
 62
     7
 10
-141.300080718293
 20
80.9416003379443
 30
0.0
 40
1.89090909090909
 50
360.0
 51
540.0
  0
ARC
  5
   15B
  8
0
  6
CONTINUOUS
 62
     7
 10
-141.300080718293
 20
80.577963974308
 30
0.0
 40
1.89090909090909
 50
180.0
 51
360.0
  0
ARC
  5
   15C
  8
0
  6
CONTINUOUS
 62
     7
 10
-141.300080718293
 20
80.9416003379443
 30
0.0
 40
1.30909090909091
 50
360.0
 51
540.0
  0
ARC
  5
   15D
  8
0
  6
CONTINUOUS
 62
     7
 10
-141.300080718293
 20
80.577963974308
 30
0.0
 40
1.30909090909091
 50
180.0
 51
360.0
  0
LINE
  5
   15E
  8
0
  6
CONTINUOUS
 62
     7
 10
-142.609171627384
 20
80.5779639743079
 30
0.0
 11
-142.609171627384
 21
80.9416003379443
 31
0.0
  0
LINE
  5
   15F
  8
0
  6
CONTINUOUS
 62
     7
 10
-139.990989809202
 20
80.5779639743079
 30
0.0
 11
-139.990989809202
 21
80.9416003379443
 31
0.0
  0
LINE
  5
   160
  8
0
  6
CONTINUOUS
 62
     7
 10
-139.127353445566
 20
81.9597821561261
 30
0.0
 11
-139.127353445566
 21
82.5416003379443
 31
0.0
  0
LINE
  5
   161
  8
0
  6
CONTINUOUS
 62
     7
 10
-139.127353445566
 20
81.9597821561261
 30
0.0
 11
-138.436444354657
 21
81.9597821561261
 31
0.0
  0
LINE
  5
   162
  8
0
  6
CONTINUOUS
 62
     7
 10
-137.16371708193
 20
81.9597821561261
 30
0.0
 11
-137.16371708193
 21
82.5416003379443
 31
0.0
  0
LINE
  5
   163
  8
0
  6
CONTINUOUS
 62
     7
 10
-139.127353445566
 20
82.5416003379443
 30
0.0
 11
-138.436444354657
 21
82.5416003379443
 31
0.0
  0
LINE
  5
   164
  8
0
  6
CONTINUOUS
 62
     7
 10
-138.436444354657
 20
78.6870548833988
 30
0.0
 11
-138.436444354657
 21
81.9597821561261
 31
0.0
  0
LINE
  5
   165
  8
0
  6
CONTINUOUS
 62
     7
 10
-137.854626172839
 20
78.6870548833988
 30
0.0
 11
-137.854626172839
 21
81.9597821561261
 31
0.0
  0
LINE
  5
   166
  8
0
  6
CONTINUOUS
 62
     7
 10
-137.854626172839
 20
81.9597821561261
 30
0.0
 11
-137.16371708193
 21
81.9597821561261
 31
0.0
  0
LINE
  5
   167
  8
0
  6
CONTINUOUS
 62
     7
 10
-137.854626172839
 20
82.5416003379443
 30
0.0
 11
-137.16371708193
 21
82.5416003379443
 31
0.0
  0
LINE
  5
   168
  8
0
  6
CONTINUOUS
 62
     7
 10
-138.436444354657
 20
82.5416003379443
 30
0.0
 11
-138.436444354657
 21
83.3416003379443
 31
0.0
  0
LINE
  5
   169
  8
0
  6
CONTINUOUS
 62
     7
 10
-137.854626172839
 20
82.5416003379443
 30
0.0
 11
-137.854626172839
 21
83.3416003379443
 31
0.0
  0
ARC
  5
   16A
  8
0
  6
CONTINUOUS
 62
     7
 10
-137.490989809202
 20
83.3416003379443
 30
0.0
 40
0.945454545454545
 50
89.9999999999998
 51
180.0
  0
ARC
  5
   16B
  8
0
  6
CONTINUOUS
 62
     7
 10
-137.490989809202
 20
83.3416003379443
 30
0.0
 40
0.363636363636363
 50
89.9999999999998
 51
180.0
  0
LINE
  5
   16C
  8
0
  6
CONTINUOUS
 62
     7
 10
-137.16371708193
 20
83.7052367015806
 30
0.0
 11
-137.16371708193
 21
84.2870548833988
 31
0.0
  0
LINE
  5
   16D
  8
0
  6
CONTINUOUS
 62
     7
 10
-137.490989809202
 20
83.7052367015807
 30
0.0
 11
-137.16371708193
 21
83.7052367015807
 31
0.0
  0
LINE
  5
   16E
  8
0
  6
CONTINUOUS
 62
     7
 10
-135.06371708193
 20
84.2870548833989
 30
0.0
 11
-134.736444354657
 21
84.2870548833989
 31
0.0
  0
LINE
  5
   16F
  8
0
  6
CONTINUOUS
 62
     7
 10
-136.009171627384
 20
78.6870548833989
 30
0.0
 11
-135.427353445566
 21
78.6870548833989
 31
0.0
  0
LINE
  5
   170
  8
0
  6
CONTINUOUS
 62
     7
 10
-136.700080718293
 20
81.9597821561261
 30
0.0
 11
-136.700080718293
 21
82.5416003379443
 31
0.0
  0
LINE
  5
   171
  8
0
  6
CONTINUOUS
 62
     7
 10
-136.700080718293
 20
81.9597821561261
 30
0.0
 11
-136.009171627384
 21
81.9597821561261
 31
0.0
  0
LINE
  5
   172
  8
0
  6
CONTINUOUS
 62
     7
 10
-134.736444354657
 20
81.9597821561261
 30
0.0
 11
-134.736444354657
 21
82.5416003379443
 31
0.0
  0
LINE
  5
   173
  8
0
  6
CONTINUOUS
 62
     7
 10
-136.700080718293
 20
82.5416003379443
 30
0.0
 11
-136.009171627384
 21
82.5416003379443
 31
0.0
  0
LINE
  5
   174
  8
0
  6
CONTINUOUS
 62
     7
 10
-136.009171627384
 20
78.6870548833988
 30
0.0
 11
-136.009171627384
 21
81.9597821561261
 31
0.0
  0
LINE
  5
   175
  8
0
  6
CONTINUOUS
 62
     7
 10
-135.427353445566
 20
78.6870548833988
 30
0.0
 11
-135.427353445566
 21
81.9597821561261
 31
0.0
  0
LINE
  5
   176
  8
0
  6
CONTINUOUS
 62
     7
 10
-135.427353445566
 20
81.9597821561261
 30
0.0
 11
-134.736444354657
 21
81.9597821561261
 31
0.0
  0
LINE
  5
   177
  8
0
  6
CONTINUOUS
 62
     7
 10
-135.427353445566
 20
82.5416003379443
 30
0.0
 11
-134.736444354657
 21
82.5416003379443
 31
0.0
  0
LINE
  5
   178
  8
0
  6
CONTINUOUS
 62
     7
 10
-136.009171627384
 20
82.5416003379443
 30
0.0
 11
-136.009171627384
 21
83.3416003379443
 31
0.0
  0
LINE
  5
   179
  8
0
  6
CONTINUOUS
 62
     7
 10
-135.427353445566
 20
82.5416003379443
 30
0.0
 11
-135.427353445566
 21
83.3416003379443
 31
0.0
  0
ARC
  5
   17A
  8
0
  6
CONTINUOUS
 62
     7
 10
-135.06371708193
 20
83.3416003379443
 30
0.0
 40
0.945454545454545
 50
89.9999999999998
 51
180.0
  0
ARC
  5
   17B
  8
0
  6
CONTINUOUS
 62
     7
 10
-135.06371708193
 20
83.3416003379443
 30
0.0
 40
0.363636363636363
 50
89.9999999999998
 51
180.0
  0
LINE
  5
   17C
  8
0
  6
CONTINUOUS
 62
     7
 10
-134.736444354657
 20
83.7052367015806
 30
0.0
 11
-134.736444354657
 21
84.2870548833988
 31
0.0
  0
LINE
  5
   17D
  8
0
  6
CONTINUOUS
 62
     7
 10
-135.06371708193
 20
83.7052367015807
 30
0.0
 11
-134.736444354657
 21
83.7052367015807
 31
0.0
  0
LINE
  5
   17E
  8
0
  6
CONTINUOUS
 62
     7
 10
-138.727353445566
 20
115.414327610672
 30
0.0
 11
-138.145535263748
 21
115.414327610672
 31
0.0
  0
ARC
  5
   17F
  8
0
  6
CONTINUOUS
 62
     7
 10
-141.300080718293
 20
117.668873065217
 30
0.0
 40
1.89090909090909
 50
360.0
 51
540.0
  0
ARC
  5
   180
  8
0
  6
CONTINUOUS
 62
     7
 10
-141.300080718293
 20
117.668873065217
 30
0.0
 40
1.30909090909091
 50
360.0
 51
540.0
  0
ARC
  5
   181
  8
0
  6
CONTINUOUS
 62
     7
 10
-141.300080718293
 20
117.305236701581
 30
0.0
 40
1.89090909090909
 50
180.0
 51
360.0
  0
ARC
  5
   182
  8
0
  6
CONTINUOUS
 62
     7
 10
-141.300080718293
 20
117.305236701581
 30
0.0
 40
1.30909090909091
 50
180.0
 51
360.0
  0
LINE
  5
   183
  8
0
  6
CONTINUOUS
 62
     7
 10
-139.990989809202
 20
117.305236701581
 30
0.0
 11
-139.990989809202
 21
117.668873065217
 31
0.0
  0
LINE
  5
   184
  8
0
  6
CONTINUOUS
 62
     7
 10
-139.409171627384
 20
117.305236701581
 30
0.0
 11
-139.409171627384
 21
117.668873065217
 31
0.0
  0
LINE
  5
   185
  8
0
  6
CONTINUOUS
 62
     7
 10
-142.609171627384
 20
117.305236701581
 30
0.0
 11
-142.609171627384
 21
117.668873065217
 31
0.0
  0
LINE
  5
   186
  8
0
  6
CONTINUOUS
 62
     7
 10
-143.190989809202
 20
117.305236701581
 30
0.0
 11
-143.190989809202
 21
117.668873065217
 31
0.0
  0
LINE
  5
   187
  8
0
  6
CONTINUOUS
 62
     7
 10
-138.727353445566
 20
115.414327610672
 30
0.0
 11
-138.727353445566
 21
119.559782156126
 31
0.0
  0
LINE
  5
   188
  8
0
  6
CONTINUOUS
 62
     7
 10
-138.145535263748
 20
115.414327610672
 30
0.0
 11
-138.145535263748
 21
117.959782156126
 31
0.0
  0
LINE
  5
   189
  8
0
  6
CONTINUOUS
 62
     7
 10
-136.109171627384
 20
115.414327610672
 30
0.0
 11
-136.109171627384
 21
117.959782156126
 31
0.0
  0
LINE
  5
   18A
  8
0
  6
CONTINUOUS
 62
     7
 10
-135.527353445566
 20
115.414327610672
 30
0.0
 11
-135.527353445566
 21
118.105236701581
 31
0.0
  0
LINE
  5
   18B
  8
0
  6
CONTINUOUS
 62
     7
 10
-138.727353445566
 20
119.559782156126
 30
0.0
 11
-138.145535263748
 21
119.559782156126
 31
0.0
  0
ARC
  5
   18C
  8
0
  6
CONTINUOUS
 62
     7
 10
-137.127353445566
 20
117.959782156126
 30
0.0
 40
1.01818181818182
 50
360.0
 51
540.0
  0
LINE
  5
   18D
  8
0
  6
CONTINUOUS
 62
     7
 10
-138.145535263748
 20
118.977963974308
 30
0.0
 11
-138.145535263748
 21
119.559782156126
 31
0.0
  0
ARC
  5
   18E
  8
0
  6
CONTINUOUS
 62
     7
 10
-136.981898900111
 20
118.105236701581
 30
0.0
 40
1.45454545454545
 50
360.0
 51
503.130102354155
  0
LINE
  5
   18F
  8
0
  6
CONTINUOUS
 62
     7
 10
-136.109171627384
 20
115.414327610672
 30
0.0
 11
-135.527353445566
 21
115.414327610672
 31
0.0
  0
POINT
  5
   190
  8
0
  6
CONTINUOUS
 62
     7
 10
-97.3000196831369
 20
109.987091064453
 30
0.0
  0
INSERT
  5
   191
  8
0
  6
CONTINUOUS
 62
     7
  2
*HATCH93
 10
0.0
 20
0.0
 30
0.0
  0
INSERT
  5
   192
  8
0
  6
CONTINUOUS
 62
     7
  2
*HATCH94
 10
0.0
 20
0.0
 30
0.0
  0
ENDBLK
  5
   193
  8
0
  6
CONTINUOUS
 62
     7
  0
BLOCK
  5
   194
  8
0
  6
CONTINUOUS
 62
     7
  2
*UDIM585
 70
    65
 10
0.0
 20
0.0
 30
0.0
  3
*UDIM585
  0
TEXT
  5
   195
  8
0
  6
CONTINUOUS
 62
     7
 10
84.6558418091517
 20
26.6762161264804
 30
0.0
 40
3.00000002980232
  1
A
 50
359.999999948034
 41
0.933333333333334
 72
     1
 11
85.7558418214321
 21
28.1762161403894
 31
0.0
 73
     2
  0
LINE
  5
   196
  8
0
  6
CONTINUOUS
 62
     7
 10
100.529708862305
 20
40.0470653481703
 30
0.0
 11
100.529708862305
 21
23.6762161254883
 31
0.0
  0
LINE
  5
   197
  8
0
  6
CONTINUOUS
 62
     7
 10
71.5297088623047
 20
63.6978061589816
 30
0.0
 11
71.5297088623047
 21
23.6762161254883
 31
0.0
  0
LINE
  5
   198
  8
0
  6
CONTINUOUS
 62
     7
 10
100.529708862305
 20
25.6762161254883
 30
0.0
 11
71.5297088623047
 21
25.6762161254883
 31
0.0
  0
LINE
  5
   199
  8
0
  6
CONTINUOUS
 62
     7
 10
97.5752855850977
 20
25.1552716955366
 30
0.0
 11
100.529708862305
 21
25.6762161254883
 31
0.0
  0
LINE
  5
   19A
  8
0
  6
CONTINUOUS
 62
     7
 10
100.529708862305
 20
25.6762161254883
 30
0.0
 11
97.5752855850977
 21
26.1971605554399
 31
0.0
  0
LINE
  5
   19B
  8
0
  6
CONTINUOUS
 62
     7
 10
74.4841321395117
 20
26.1971605554399
 30
0.0
 11
71.5297088623047
 21
25.6762161254883
 31
0.0
  0
LINE
  5
   19C
  8
0
  6
CONTINUOUS
 62
     7
 10
71.5297088623047
 20
25.6762161254883
 30
0.0
 11
74.4841321395117
 21
25.1552716955366
 31
0.0
  0
ENDBLK
  5
   19D
  8
0
  6
CONTINUOUS
 62
     7
  0
BLOCK
  5
   19E
  8
0
  6
CONTINUOUS
 62
     7
  2
*UDIM586
 70
    65
 10
0.0
 20
0.0
 30
0.0
  3
*UDIM586
  0
TEXT
  5
   19F
  8
0
  6
CONTINUOUS
 62
     7
 10
96.3547088162483
 20
33.9677009617695
 30
0.0
 40
3.00000002980232
  1
117
 50
359.999999948034
 41
0.933333333333333
 72
     1
 11
100.254708856344
 21
35.4677009731531
 31
0.0
 73
     2
  0
LINE
  5
   1A0
  8
0
  6
CONTINUOUS
 62
     7
 10
129.779708862305
 20
44.1978063870712
 30
0.0
 11
129.779708862305
 21
30.967700958252
 31
0.0
  0
LINE
  5
   1A1
  8
0
  6
CONTINUOUS
 62
     7
 10
71.2797088623047
 20
44.1978063870712
 30
0.0
 11
71.2797088623047
 21
30.967700958252
 31
0.0
  0
LINE
  5
   1A2
  8
0
  6
CONTINUOUS
 62
     7
 10
129.779708862305
 20
32.967700958252
 30
0.0
 11
71.2797088623047
 21
32.967700958252
 31
0.0
  0
LINE
  5
   1A3
  8
0
  6
CONTINUOUS
 62
     7
 10
126.825285585098
 20
32.4467565283003
 30
0.0
 11
129.779708862305
 21
32.967700958252
 31
0.0
  0
LINE
  5
   1A4
  8
0
  6
CONTINUOUS
 62
     7
 10
129.779708862305
 20
32.967700958252
 30
0.0
 11
126.825285585098
 21
33.4886453882036
 31
0.0
  0
LINE
  5
   1A5
  8
0
  6
CONTINUOUS
 62
     7
 10
74.2341321395117
 20
33.4886453882036
 30
0.0
 11
71.2797088623047
 21
32.967700958252
 31
0.0
  0
LINE
  5
   1A6
  8
0
  6
CONTINUOUS
 62
     7
 10
71.2797088623047
 20
32.967700958252
 30
0.0
 11
74.2341321395117
 21
32.4467565283003
 31
0.0
  0
ENDBLK
  5
   1A7
  8
0
  6
CONTINUOUS
 62
     7
  0
BLOCK
  5
   1A8
  8
0
  6
CONTINUOUS
 62
     7
  2
*UDIM587
 70
    65
 10
0.0
 20
0.0
 30
0.0
  3
*UDIM587
  0
TEXT
  5
   1A9
  8
0
  6
CONTINUOUS
 62
     7
 10
141.034091945931
 20
80.6478072648812
 30
0.0
 40
3.00000002980232
  1
161
 50
89.9999999480344
 41
0.933333333333333
 72
     1
 11
139.534091934562
 21
84.5478073049828
 31
0.0
 73
     2
  0
LINE
  5
   1AA
  8
0
  6
CONTINUOUS
 62
     7
 10
130.154708862305
 20
44.5728063870712
 30
0.0
 11
144.034091949463
 21
44.5728063870712
 31
0.0
  0
LINE
  5
   1AB
  8
0
  6
CONTINUOUS
 62
     7
 10
130.154708862305
 20
125.072804479723
 30
0.0
 11
144.034091949463
 21
125.072804479723
 31
0.0
  0
LINE
  5
   1AC
  8
0
  6
CONTINUOUS
 62
     7
 10
142.034091949463
 20
44.5728063870712
 30
0.0
 11
142.034091949463
 21
125.072804479723
 31
0.0
  0
LINE
  5
   1AD
  8
0
  6
CONTINUOUS
 62
     7
 10
141.513147519511
 20
47.5272296642782
 30
0.0
 11
142.034091949463
 21
44.5728063870712
 31
0.0
  0
LINE
  5
   1AE
  8
0
  6
CONTINUOUS
 62
     7
 10
142.034091949463
 20
44.5728063870712
 30
0.0
 11
142.555036379415
 21
47.5272296642782
 31
0.0
  0
LINE
  5
   1AF
  8
0
  6
CONTINUOUS
 62
     7
 10
142.555036379415
 20
122.118381202516
 30
0.0
 11
142.034091949463
 21
125.072804479723
 31
0.0
  0
LINE
  5
   1B0
  8
0
  6
CONTINUOUS
 62
     7
 10
142.034091949463
 20
125.072804479723
 30
0.0
 11
141.513147519511
 21
122.118381202516
 31
0.0
  0
ENDBLK
  5
   1B1
  8
0
  6
CONTINUOUS
 62
     7
  0
BLOCK
  5
   1B2
  8
0
  6
CONTINUOUS
 62
     7
  2
*UDIM588
 70
    65
 10
0.0
 20
0.0
 30
0.0
  3
*UDIM588
  0
TEXT
  5
   1B3
  8
0
  6
CONTINUOUS
 62
     7
 10
96.3546916634414
 20
178.756919864357
 30
0.0
 40
3.00000002980232
  1
105
 50
359.999999948034
 41
0.933333333333333
 72
     1
 11
100.254691703537
 21
180.256919875741
 31
0.0
 73
     2
  0
LINE
  5
   1B4
  8
0
  6
CONTINUOUS
 62
     7
 10
126.779694192707
 20
170.547799139148
 30
0.0
 11
126.779694192707
 21
179.75691986084
 31
0.0
  0
LINE
  5
   1B5
  8
0
  6
CONTINUOUS
 62
     7
 10
74.2796885706378
 20
170.547799139148
 30
0.0
 11
74.2796885706378
 21
179.75691986084
 31
0.0
  0
LINE
  5
   1B6
  8
0
  6
CONTINUOUS
 62
     7
 10
126.779694192707
 20
177.75691986084
 30
0.0
 11
74.2796885706378
 21
177.75691986084
 31
0.0
  0
LINE
  5
   1B7
  8
0
  6
CONTINUOUS
 62
     7
 10
123.8252709155
 20
177.235975430888
 30
0.0
 11
126.779694192707
 21
177.75691986084
 31
0.0
  0
LINE
  5
   1B8
  8
0
  6
CONTINUOUS
 62
     7
 10
126.779694192707
 20
177.75691986084
 30
0.0
 11
123.8252709155
 21
178.277864290792
 31
0.0
  0
LINE
  5
   1B9
  8
0
  6
CONTINUOUS
 62
     7
 10
77.2341118478448
 20
178.277864290792
 30
0.0
 11
74.2796885706378
 21
177.75691986084
 31
0.0
  0
LINE
  5
   1BA
  8
0
  6
CONTINUOUS
 62
     7
 10
74.2796885706378
 20
177.75691986084
 30
0.0
 11
77.2341118478448
 21
177.235975430888
 31
0.0
  0
ENDBLK
  5
   1BB
  8
0
  6
CONTINUOUS
 62
     7
  0
BLOCK
  5
   1BC
  8
0
  6
CONTINUOUS
 62
     7
  2
*HATCH95
 70
    65
 10
0.0
 20
0.0
 30
0.0
  3
*HATCH95
  0
LINE
  5
   1BD
  8
0
  6
CONTINUOUS
 62
    52
 10
168.268020629883
 20
-37.5000534057617
 30
0.0
 11
166.268020629883
 21
-39.5000534057617
 31
0.0
  0
LINE
  5
   1BE
  8
0
  6
CONTINUOUS
 62
    52
 10
172.510665893555
 20
-37.5000534057617
 30
0.0
 11
170.510665893555
 21
-39.5000534057617
 31
0.0
  0
LINE
  5
   1BF
  8
0
  6
CONTINUOUS
 62
    52
 10
176.753311157227
 20
-37.5000534057617
 30
0.0
 11
174.753311157227
 21
-39.5000534057617
 31
0.0
  0
ENDBLK
  5
   1C0
  8
0
  6
CONTINUOUS
 62
     7
  0
BLOCK
  5
   1C1
  8
0
  6
CONTINUOUS
 62
     7
  2
*HATCH96
 70
    65
 10
0.0
 20
0.0
 30
0.0
  3
*HATCH96
  0
LINE
  5
   1C2
  8
0
  6
CONTINUOUS
 62
    52
 10
45.2314414978027
 20
-37.5000534057617
 30
0.0
 11
43.2314414978027
 21
-39.5000495910645
 31
0.0
  0
LINE
  5
   1C3
  8
0
  6
CONTINUOUS
 62
    52
 10
49.4740791320801
 20
-37.5000534057617
 30
0.0
 11
47.4740791320801
 21
-39.5000495910645
 31
0.0
  0
LINE
  5
   1C4
  8
0
  6
CONTINUOUS
 62
    52
 10
53.7167167663574
 20
-37.5000534057617
 30
0.0
 11
51.7167167663574
 21
-39.5000495910645
 31
0.0
  0
ENDBLK
  5
   1C5
  8
0
  6
CONTINUOUS
 62
     7
  0
BLOCK
  5
   1C6
  8
0
  6
CONTINUOUS
 62
     7
  2
*HATCH97
 70
    65
 10
0.0
 20
0.0
 30
0.0
  3
*HATCH97
  0
LINE
  5
   1C7
  8
0
  6
CONTINUOUS
 62
    52
 10
-5.68024826049805
 20
-37.5000534057617
 30
0.0
 11
-7.68024873733521
 21
-39.5000534057617
 31
0.0
  0
LINE
  5
   1C8
  8
0
  6
CONTINUOUS
 62
    52
 10
-1.4376072883606
 20
-37.5000534057617
 30
0.0
 11
-3.43760824203491
 21
-39.5000534057617
 31
0.0
  0
LINE
  5
   1C9
  8
0
  6
CONTINUOUS
 62
    52
 10
2.80503368377686
 20
-37.5000534057617
 30
0.0
 11
0.805032253265381
 21
-39.5000534057617
 31
0.0
  0
LINE
  5
   1CA
  8
0
  6
CONTINUOUS
 62
    52
 10
7.04767513275146
 20
-37.5000534057617
 30
0.0
 11
5.04767274856567
 21
-39.5000534057617
 31
0.0
  0
LINE
  5
   1CB
  8
0
  6
CONTINUOUS
 62
    52
 10
11.2903165817261
 20
-37.5000534057617
 30
0.0
 11
9.29031372070313
 21
-39.5000534057617
 31
0.0
  0
LINE
  5
   1CC
  8
0
  6
CONTINUOUS
 62
    52
 10
15.5329580307007
 20
-37.5000534057617
 30
0.0
 11
13.5329551696777
 21
-39.5000534057617
 31
0.0
  0
LINE
  5
   1CD
  8
0
  6
CONTINUOUS
 62
    52
 10
19.775598526001
 20
-37.5000534057617
 30
0.0
 11
17.7755966186523
 21
-39.5000534057617
 31
0.0
  0
LINE
  5
   1CE
  8
0
  6
CONTINUOUS
 62
    52
 10
24.0182399749756
 20
-37.5000534057617
 30
0.0
 11
22.018238067627
 21
-39.5000534057617
 31
0.0
  0
LINE
  5
   1CF
  8
0
  6
CONTINUOUS
 62
    52
 10
28.2608814239502
 20
-37.5000534057617
 30
0.0
 11
26.2608795166016
 21
-39.5000534057617
 31
0.0
  0
LINE
  5
   1D0
  8
0
  6
CONTINUOUS
 62
    52
 10
32.5035209655762
 20
-37.5000534057617
 30
0.0
 11
30.5035209655762
 21
-39.5000534057617
 31
0.0
  0
LINE
  5
   1D1
  8
0
  6
CONTINUOUS
 62
    52
 10
35.4806251525879
 20
-38.7655868530273
 30
0.0
 11
34.7461585998535
 21
-39.5000534057617
 31
0.0
  0
ENDBLK
  5
   1D2
  8
0
  6
CONTINUOUS
 62
     7
  0
BLOCK
  5
   1D3
  8
0
  6
CONTINUOUS
 62
     7
  2
*HATCH98
 70
    65
 10
0.0
 20
0.0
 30
0.0
  3
*HATCH98
  0
LINE
  5
   1D4
  8
0
  6
CONTINUOUS
 62
    52
 10
162.983489990234
 20
-39.9470291137695
 30
0.0
 11
166.036499023438
 21
-43.0000534057617
 31
0.0
  0
LINE
  5
   1D5
  8
0
  6
CONTINUOUS
 62
    52
 10
164.779144287109
 20
-37.5000534057617
 30
0.0
 11
164.980621337891
 21
-37.7015266418457
 31
0.0
  0
LINE
  5
   1D6
  8
0
  6
CONTINUOUS
 62
    52
 10
168.900466918945
 20
-39.5000534057617
 30
0.0
 11
172.400451660156
 21
-43.0000534057617
 31
0.0
  0
LINE
  5
   1D7
  8
0
  6
CONTINUOUS
 62
    52
 10
173.143112182617
 20
-39.5000534057617
 30
0.0
 11
176.643096923828
 21
-43.0000534057617
 31
0.0
  0
LINE
  5
   1D8
  8
0
  6
CONTINUOUS
 62
    52
 10
177.385757446289
 20
-39.5000534057617
 30
0.0
 11
180.8857421875
 21
-43.0000534057617
 31
0.0
  0
LINE
  5
   1D9
  8
0
  6
CONTINUOUS
 62
    52
 10
181.628402709961
 20
-39.5000534057617
 30
0.0
 11
185.128387451172
 21
-43.0000534057617
 31
0.0
  0
LINE
  5
   1DA
  8
0
  6
CONTINUOUS
 62
    52
 10
185.871047973633
 20
-39.5000534057617
 30
0.0
 11
189.371032714844
 21
-43.0000534057617
 31
0.0
  0
LINE
  5
   1DB
  8
0
  6
CONTINUOUS
 62
    52
 10
190.113662719727
 20
-39.5000534057617
 30
0.0
 11
190.487091064453
 21
-39.8734817504883
 31
0.0
  0
ENDBLK
  5
   1DC
  8
0
  6
CONTINUOUS
 62
     7
  0
BLOCK
  5
   1DD
  8
0
  6
CONTINUOUS
 62
     7
  2
*HATCH99
 70
    65
 10
0.0
 20
0.0
 30
0.0
  3
*HATCH99
  0
LINE
  5
   1DE
  8
0
  6
CONTINUOUS
 62
    52
 10
29.4870891571045
 20
-40.0937347412109
 30
0.0
 11
32.3934020996094
 21
-43.0000534057617
 31
0.0
  0
LINE
  5
   1DF
  8
0
  6
CONTINUOUS
 62
    52
 10
33.1360473632813
 20
-39.5000495910645
 30
0.0
 11
36.6360397338867
 21
-43.0000534057617
 31
0.0
  0
LINE
  5
   1E0
  8
0
  6
CONTINUOUS
 62
    52
 10
37.3786849975586
 20
-39.5000495910645
 30
0.0
 11
40.8786773681641
 21
-43.0000534057617
 31
0.0
  0
LINE
  5
   1E1
  8
0
  6
CONTINUOUS
 62
    52
 10
41.6213226318359
 20
-39.5000495910645
 30
0.0
 11
45.1213150024414
 21
-43.0000534057617
 31
0.0
  0
LINE
  5
   1E2
  8
0
  6
CONTINUOUS
 62
    52
 10
45.8639602661133
 20
-39.5000495910645
 30
0.0
 11
49.3639526367188
 21
-43.0000534057617
 31
0.0
  0
LINE
  5
   1E3
  8
0
  6
CONTINUOUS
 62
    52
 10
50.1065979003906
 20
-39.5000495910645
 30
0.0
 11
53.6065902709961
 21
-43.0000534057617
 31
0.0
  0
LINE
  5
   1E4
  8
0
  6
CONTINUOUS
 62
    52
 10
54.349235534668
 20
-39.5000495910645
 30
0.0
 11
56.9860496520996
 21
-42.1368713378906
 31
0.0
  0
LINE
  5
   1E5
  8
0
  6
CONTINUOUS
 62
    52
 10
56.5918769836426
 20
-37.5000534057617
 30
0.0
 11
56.9810791015625
 21
-37.8892555236816
 31
0.0
  0
ENDBLK
  5
   1E6
  8
0
  6
CONTINUOUS
 62
     7
  0
BLOCK
  5
   1E7
  8
0
  6
CONTINUOUS
 62
     7
  2
*HATCH100
 70
    65
 10
0.0
 20
0.0
 30
0.0
  3
*HATCH100
  0
LINE
  5
   1E8
  8
0
  6
CONTINUOUS
 62
    52
 10
187.359909057617
 20
-37.5000534057617
 30
0.0
 11
185.359909057617
 21
-39.5000534057617
 31
0.0
  0
LINE
  5
   1E9
  8
0
  6
CONTINUOUS
 62
    52
 10
191.602554321289
 20
-37.5000534057617
 30
0.0
 11
189.602554321289
 21
-39.5000534057617
 31
0.0
  0
LINE
  5
   1EA
  8
0
  6
CONTINUOUS
 62
    52
 10
195.845199584961
 20
-37.5000534057617
 30
0.0
 11
193.845199584961
 21
-39.5000534057617
 31
0.0
  0
LINE
  5
   1EB
  8
0
  6
CONTINUOUS
 62
    52
 10
200.087844848633
 20
-37.5000534057617
 30
0.0
 11
198.087844848633
 21
-39.5000534057617
 31
0.0
  0
LINE
  5
   1EC
  8
0
  6
CONTINUOUS
 62
    52
 10
204.330490112305
 20
-37.5000534057617
 30
0.0
 11
202.330490112305
 21
-39.5000534057617
 31
0.0
  0
LINE
  5
   1ED
  8
0
  6
CONTINUOUS
 62
    52
 10
208.573135375977
 20
-37.5000534057617
 30
0.0
 11
206.573135375977
 21
-39.5000534057617
 31
0.0
  0
LINE
  5
   1EE
  8
0
  6
CONTINUOUS
 62
    52
 10
212.815780639648
 20
-37.5000534057617
 30
0.0
 11
210.815780639648
 21
-39.5000534057617
 31
0.0
  0
LINE
  5
   1EF
  8
0
  6
CONTINUOUS
 62
    52
 10
217.05842590332
 20
-37.5000534057617
 30
0.0
 11
215.05842590332
 21
-39.5000534057617
 31
0.0
  0
LINE
  5
   1F0
  8
0
  6
CONTINUOUS
 62
    52
 10
221.301071166992
 20
-37.5000534057617
 30
0.0
 11
219.301071166992
 21
-39.5000534057617
 31
0.0
  0
LINE
  5
   1F1
  8
0
  6
CONTINUOUS
 62
    52
 10
225.543716430664
 20
-37.5000534057617
 30
0.0
 11
223.543716430664
 21
-39.5000534057617
 31
0.0
  0
LINE
  5
   1F2
  8
0
  6
CONTINUOUS
 62
    52
 10
229.786361694336
 20
-37.5000534057617
 30
0.0
 11
227.786361694336
 21
-39.5000534057617
 31
0.0
  0
LINE
  5
   1F3
  8
0
  6
CONTINUOUS
 62
    52
 10
234.029006958008
 20
-37.5000534057617
 30
0.0
 11
232.029006958008
 21
-39.5000534057617
 31
0.0
  0
LINE
  5
   1F4
  8
0
  6
CONTINUOUS
 62
    52
 10
238.27165222168
 20
-37.5000534057617
 30
0.0
 11
236.27165222168
 21
-39.5000534057617
 31
0.0
  0
LINE
  5
   1F5
  8
0
  6
CONTINUOUS
 62
    52
 10
242.514297485352
 20
-37.5000534057617
 30
0.0
 11
240.514297485352
 21
-39.5000534057617
 31
0.0
  0
LINE
  5
   1F6
  8
0
  6
CONTINUOUS
 62
    52
 10
246.756942749023
 20
-37.5000534057617
 30
0.0
 11
244.756942749023
 21
-39.5000534057617
 31
0.0
  0
LINE
  5
   1F7
  8
0
  6
CONTINUOUS
 62
    52
 10
250.999588012695
 20
-37.5000534057617
 30
0.0
 11
248.999588012695
 21
-39.5000534057617
 31
0.0
  0
LINE
  5
   1F8
  8
0
  6
CONTINUOUS
 62
    52
 10
255.242233276367
 20
-37.5000534057617
 30
0.0
 11
253.242233276367
 21
-39.5000534057617
 31
0.0
  0
LINE
  5
   1F9
  8
0
  6
CONTINUOUS
 62
    52
 10
259.48486328125
 20
-37.5000534057617
 30
0.0
 11
257.48486328125
 21
-39.5000534057617
 31
0.0
  0
LINE
  5
   1FA
  8
0
  6
CONTINUOUS
 62
    52
 10
263.727478027344
 20
-37.5000534057617
 30
0.0
 11
261.727478027344
 21
-39.5000534057617
 31
0.0
  0
LINE
  5
   1FB
  8
0
  6
CONTINUOUS
 62
    52
 10
267.970092773438
 20
-37.5000534057617
 30
0.0
 11
265.970092773438
 21
-39.5000534057617
 31
0.0
  0
LINE
  5
   1FC
  8
0
  6
CONTINUOUS
 62
    52
 10
272.212707519531
 20
-37.5000534057617
 30
0.0
 11
270.212707519531
 21
-39.5000534057617
 31
0.0
  0
LINE
  5
   1FD
  8
0
  6
CONTINUOUS
 62
    52
 10
276.455322265625
 20
-37.5000534057617
 30
0.0
 11
274.455322265625
 21
-39.5000534057617
 31
0.0
  0
LINE
  5
   1FE
  8
0
  6
CONTINUOUS
 62
    52
 10
280.697937011719
 20
-37.5000534057617
 30
0.0
 11
278.697937011719
 21
-39.5000534057617
 31
0.0
  0
LINE
  5
   1FF
  8
0
  6
CONTINUOUS
 62
    52
 10
284.940551757813
 20
-37.5000534057617
 30
0.0
 11
282.940551757813
 21
-39.5000534057617
 31
0.0
  0
LINE
  5
   200
  8
0
  6
CONTINUOUS
 62
    52
 10
288.926544189453
 20
-37.7567863464355
 30
0.0
 11
287.183288574219
 21
-39.5000534057617
 31
0.0
  0
ENDBLK
  5
   201
  8
0
  6
CONTINUOUS
 62
     7
  0
BLOCK
  5
   202
  8
0
  6
CONTINUOUS
 62
     7
  2
FRONT_BL_
 70
    64
 10
0.0
 20
0.0
 30
0.0
  3
FRONT_BL_
  0
LINE
  5
   203
  8
0
  6
CONTINUOUS
 62
     7
 10
103.499984741211
 20
162.487109985316
 30
0.0
 11
106.999984741211
 21
162.487109985316
 31
0.0
  0
LINE
  5
   204
  8
0
  6
CONTINUOUS
 62
     7
 10
103.499984741211
 20
57.4871405028944
 30
0.0
 11
106.999984741211
 21
57.4871405028944
 31
0.0
  0
LINE
  5
   205
  8
0
  6
CONTINUOUS
 62
   212
 10
103.49995360393
 20
162.48716339214
 30
0.0
 11
145.499309341617
 21
162.48701080425
 31
0.0
  0
LINE
  5
   206
  8
0
  6
CONTINUOUS
 62
   212
 10
103.499954011894
 20
57.4871405028944
 30
0.0
 11
145.498714235282
 21
57.4871405028944
 31
0.0
  0
LINE
  5
   207
  8
0
  6
CONTINUOUS
 62
   212
 10
103.499953594658
 20
57.4871405028944
 30
0.0
 11
103.499953594658
 21
162.48716339214
 31
0.0
  0
LINE
  5
   208
  8
0
  6
CONTINUOUS
 62
   212
 10
145.999642141698
 20
161.986575348266
 30
0.0
 11
146.021326820986
 21
58.0429144549169
 31
0.0
  0
LINE
  5
   209
  8
0
  6
CONTINUOUS
 62
   212
 10
103.499953594658
 20
59.9871328734899
 30
0.0
 11
103.504445400688
 21
59.9871328734899
 31
0.0
  0
LINE
  5
   20A
  8
0
  6
CONTINUOUS
 62
   212
 10
143.499954011891
 20
150.487163391068
 30
0.0
 11
145.999950197193
 21
150.487163391068
 31
0.0
  0
LINE
  5
   20B
  8
0
  6
CONTINUOUS
 62
   212
 10
143.49995401208
 20
150.487163358074
 30
0.0
 11
143.499984529657
 21
160.48714809352
 31
0.0
  0
LINE
  5
   20C
  8
0
  6
CONTINUOUS
 62
   212
 10
143.499984530814
 20
160.487148135268
 30
0.0
 11
145.999954016403
 21
160.487163394057
 31
0.0
  0
LINE
  5
   20D
  8
0
  6
CONTINUOUS
 62
   212
 10
145.498714182364
 20
57.4883916757844
 30
0.0
 11
145.852283206607
 21
57.6348302738521
 31
0.0
  0
LINE
  5
   20E
  8
0
  6
CONTINUOUS
 62
   212
 10
145.852285603462
 20
57.6348344263344
 30
0.0
 11
146.021326820986
 21
58.0429144547908
 31
0.0
  0
LINE
  5
   20F
  8
0
  6
CONTINUOUS
 62
   212
 10
145.852878535005
 20
162.340123658606
 30
0.0
 11
145.999641383299
 21
161.986562264213
 31
0.0
  0
LINE
  5
   210
  8
0
  6
CONTINUOUS
 62
   212
 10
145.49930941724
 20
162.48701146927
 30
0.0
 11
145.852878443418
 21
162.340130360926
 31
0.0
  0
LINE
  5
   211
  8
0
  6
CONTINUOUS
 62
     7
 10
103.426760220199
 20
57.5538835280667
 30
0.0
 11
103.49998342558
 21
57.7306604097653
 31
0.0
  0
LINE
  5
   212
  8
0
  6
CONTINUOUS
 62
     7
 10
132.624455332285
 20
81.958495498388
 30
0.0
 11
134.010775425841
 21
87.8650050239837
 31
0.0
  0
LINE
  5
   213
  8
0
  6
CONTINUOUS
 62
     7
 10
131.456018608522
 20
81.2061656304306
 30
0.0
 11
132.192272351301
 21
81.3462031669661
 31
0.0
  0
LINE
  5
   214
  8
0
  6
CONTINUOUS
 62
     7
 10
132.192271087638
 20
81.3462009984012
 30
0.0
 11
132.624453401717
 21
81.9584904197311
 31
0.0
  0
LINE
  5
   215
  8
0
  6
CONTINUOUS
 62
     7
 10
133.895978369416
 20
88.6058964157088
 30
0.0
 11
134.010774054057
 21
87.8649982867192
 31
0.0
  0
LINE
  5
   216
  8
0
  6
CONTINUOUS
 62
     7
 10
133.298469643803
 20
89.0587772810177
 30
0.0
 11
133.895979041856
 21
88.6059040541273
 31
0.0
  0
LINE
  5
   217
  8
0
  6
CONTINUOUS
 62
     7
 10
106.428188372906
 20
96.3308845969437
 30
0.0
 11
133.298470056809
 21
89.0587746469515
 31
0.0
  0
LINE
  5
   218
  8
0
  6
CONTINUOUS
 62
     7
 10
105.87945655187
 20
96.7096846614899
 30
0.0
 11
106.428190243473
 21
96.3308775752151
 31
0.0
  0
LINE
  5
   219
  8
0
  6
CONTINUOUS
 62
     7
 10
105.690837971634
 20
97.3492385247006
 30
0.0
 11
105.87945495881
 21
96.7096892737135
 31
0.0
  0
LINE
  5
   21A
  8
0
  6
CONTINUOUS
 62
     7
 10
103.618085088071
 20
85.8266521965008
 30
0.0
 11
104.061961397652
 21
86.3882138009796
 31
0.0
  0
LINE
  5
   21B
  8
0
  6
CONTINUOUS
 62
     7
 10
104.061962415869
 20
86.3882167784665
 30
0.0
 11
104.767466848093
 21
86.5092342293006
 31
0.0
  0
LINE
  5
   21C
  8
0
  6
CONTINUOUS
 62
     7
 10
104.767466531063
 20
86.5092387721733
 30
0.0
 11
131.456018133767
 21
81.2061686497387
 31
0.0
  0
LINE
  5
   21D
  8
0
  6
CONTINUOUS
 62
     7
 10
103.585168552226
 20
111.406895540353
 30
0.0
 11
104.358296945586
 21
111.225438019067
 31
0.0
  0
LINE
  5
   21E
  8
0
  6
CONTINUOUS
 62
     7
 10
131.422273848203
 20
81.2128663422557
 30
0.0
 11
133.265859851933
 21
89.0675950477437
 31
0.0
  0
ARC
  5
   21F
  8
0
  6
CONTINUOUS
 62
     7
 10
58.7570487950475
 20
99.8442403887874
 30
0.0
 40
47.0000594950497
 50
341.245923694686
 51
374.013636961639
  0
LINE
  5
   220
  8
0
  6
CONTINUOUS
 62
     7
 10
134.99995401189
 20
169.487048949511
 30
0.0
 11
136.99995401189
 21
169.48704168331
 31
0.0
  0
LINE
  5
   221
  8
0
  6
CONTINUOUS
 62
     7
 10
136.99995401189
 20
162.487041683264
 30
0.0
 11
136.99995401189
 21
169.487041683311
 31
0.0
  0
LINE
  5
   222
  8
0
  6
CONTINUOUS
 62
     7
 10
134.99995401189
 20
162.487041683264
 30
0.0
 11
134.99995401189
 21
169.487041683311
 31
0.0
  0
LINE
  5
   223
  8
0
  6
CONTINUOUS
 62
   130
 10
145.999970234334
 20
118.737106170617
 30
0.0
 11
151.999962604939
 21
118.737106170617
 31
0.0
  0
LINE
  5
   224
  8
0
  6
CONTINUOUS
 62
   130
 10
145.999970234334
 20
91.7371061706174
 30
0.0
 11
151.999970234334
 21
91.7371061706174
 31
0.0
  0
LINE
  5
   225
  8
0
  6
CONTINUOUS
 62
   130
 10
145.999970234334
 20
94.7371061706174
 30
0.0
 11
149.999970234334
 21
94.7371061706174
 31
0.0
  0
LINE
  5
   226
  8
0
  6
CONTINUOUS
 62
   130
 10
149.999970234334
 20
94.7371061706174
 30
0.0
 11
149.999970234334
 21
115.737106170617
 31
0.0
  0
LINE
  5
   227
  8
0
  6
CONTINUOUS
 62
   130
 10
151.999970234334
 20
91.7371061706174
 30
0.0
 11
151.999970234334
 21
118.737106170617
 31
0.0
  0
LINE
  5
   228
  8
0
  6
CONTINUOUS
 62
   130
 10
145.999970234334
 20
115.737106170617
 30
0.0
 11
149.999970234334
 21
115.737106170617
 31
0.0
  0
POINT
  5
   229
  8
0
  6
CONTINUOUS
 62
     7
 10
103.499953594658
 20
109.987109985316
 30
0.0
  0
ENDBLK
  5
   22A
  8
0
  6
CONTINUOUS
 62
     7
  0
BLOCK
  5
   22B
  8
0
  6
CONTINUOUS
 62
     7
  2
*HATCH101
 70
    65
 10
0.0
 20
0.0
 30
0.0
  3
*HATCH101
  0
LINE
  5
   22C
  8
0
  6
CONTINUOUS
 62
    52
 10
167.160110473633
 20
-28.0013732910156
 30
0.0
 11
164.660095214844
 21
-30.5013790130615
 31
0.0
  0
LINE
  5
   22D
  8
0
  6
CONTINUOUS
 62
    52
 10
171.402755737305
 20
-28.0013732910156
 30
0.0
 11
168.902740478516
 21
-30.5013790130615
 31
0.0
  0
ENDBLK
  5
   22E
  8
0
  6
CONTINUOUS
 62
     7
  0
BLOCK
  5
   22F
  8
0
  6
CONTINUOUS
 62
     7
  2
*UDIM589
 70
    65
 10
0.0
 20
0.0
 30
0.0
  3
*UDIM589
  0
TEXT
  5
   230
  8
0
  6
CONTINUOUS
 62
     7
 10
285.245918270394
 20
80.6477901112973
 30
0.0
 40
3.00000002980232
  1
105
 50
89.9999999480344
 41
0.933333333333333
 72
     1
 11
283.745918259025
 21
84.5477901513989
 31
0.0
 73
     2
  0
LINE
  5
   231
  8
0
  6
CONTINUOUS
 62
     7
 10
251.255574451388
 20
58.5728206746719
 30
0.0
 11
288.245918273926
 21
58.5728206746719
 31
0.0
  0
LINE
  5
   232
  8
0
  6
CONTINUOUS
 62
     7
 10
251.255872008686
 20
111.07275582535
 30
0.0
 11
288.245918273926
 21
111.07275582535
 31
0.0
  0
LINE
  5
   233
  8
0
  6
CONTINUOUS
 62
     7
 10
286.245918273926
 20
58.5728206746719
 30
0.0
 11
286.245918273926
 21
111.07275582535
 31
0.0
  0
LINE
  5
   234
  8
0
  6
CONTINUOUS
 62
     7
 10
285.724973843974
 20
61.5272439518788
 30
0.0
 11
286.245918273926
 21
58.5728206746719
 31
0.0
  0
LINE
  5
   235
  8
0
  6
CONTINUOUS
 62
     7
 10
286.245918273926
 20
58.5728206746719
 30
0.0
 11
286.766862703877
 21
61.5272439518788
 31
0.0
  0
LINE
  5
   236
  8
0
  6
CONTINUOUS
 62
     7
 10
286.766862703877
 20
108.118332548143
 30
0.0
 11
286.245918273926
 21
111.07275582535
 31
0.0
  0
LINE
  5
   237
  8
0
  6
CONTINUOUS
 62
     7
 10
286.245918273926
 20
111.07275582535
 30
0.0
 11
285.724973843974
 21
108.118332548143
 31
0.0
  0
ENDBLK
  5
   238
  8
0
  6
CONTINUOUS
 62
     7
  0
BLOCK
  5
   239
  8
0
  6
CONTINUOUS
 62
     7
  2
*UDIM590
 70
    65
 10
0.0
 20
0.0
 30
0.0
  3
*UDIM590
  0
TEXT
  5
   23A
  8
0
  6
CONTINUOUS
 62
     7
 10
235.423364366976
 20
6.72634125233891
 30
0.0
 40
3.00000002980232
  1
42,5
 50
359.999999948034
 41
0.933333333333333
 72
     1
 11
240.72336442098
 21
8.22634126245975
 31
0.0
 73
     2
  0
LINE
  5
   23B
  8
0
  6
CONTINUOUS
 62
     7
 10
250.505534172058
 20
43.5728197385117
 30
0.0
 11
250.505534172058
 21
3.72634124755859
 31
0.0
  0
LINE
  5
   23C
  8
0
  6
CONTINUOUS
 62
     7
 10
229.256194131076
 20
57.5728054177103
 30
0.0
 11
229.256194131076
 21
3.72634124755859
 31
0.0
  0
LINE
  5
   23D
  8
0
  6
CONTINUOUS
 62
     7
 10
250.505534172058
 20
5.72634124755859
 30
0.0
 11
229.256194131076
 21
5.72634124755859
 31
0.0
  0
LINE
  5
   23E
  8
0
  6
CONTINUOUS
 62
     7
 10
247.551110894851
 20
5.20539681760693
 30
0.0
 11
250.505534172058
 21
5.72634124755859
 31
0.0
  0
LINE
  5
   23F
  8
0
  6
CONTINUOUS
 62
     7
 10
250.505534172058
 20
5.72634124755859
 30
0.0
 11
247.551110894851
 21
6.24728567751026
 31
0.0
  0
LINE
  5
   240
  8
0
  6
CONTINUOUS
 62
     7
 10
232.210617408282
 20
6.24728567751026
 30
0.0
 11
229.256194131076
 21
5.72634124755859
 31
0.0
  0
LINE
  5
   241
  8
0
  6
CONTINUOUS
 62
     7
 10
229.256194131076
 20
5.72634124755859
 30
0.0
 11
232.210617408282
 21
5.20539681760693
 31
0.0
  0
ENDBLK
  5
   242
  8
0
  6
CONTINUOUS
 62
     7
  0
BLOCK
  5
   243
  8
0
  6
CONTINUOUS
 62
     7
  2
*UDIM591
 70
    65
 10
0.0
 20
0.0
 30
0.0
  3
*UDIM591
  0
TEXT
  5
   244
  8
0
  6
CONTINUOUS
 62
     7
 10
196.405863124021
 20
6.72634125360163
 30
0.0
 40
3.00000002980232
  1
103,5
 50
359.999999948034
 41
0.933333333333333
 72
     1
 11
203.105863191932
 21
8.22634126245975
 31
0.0
 73
     2
  0
LINE
  5
   245
  8
0
  6
CONTINUOUS
 62
     7
 10
177.50553894043
 20
14.791177651148
 30
0.0
 11
177.50553894043
 21
3.72634124755859
 31
0.0
  0
LINE
  5
   246
  8
0
  6
CONTINUOUS
 62
     7
 10
229.256194131076
 20
5.72634124755859
 30
0.0
 11
177.50553894043
 21
5.72634124755859
 31
0.0
  0
LINE
  5
   247
  8
0
  6
CONTINUOUS
 62
     7
 10
226.301770853869
 20
5.20539681760693
 30
0.0
 11
229.256194131076
 21
5.72634124755859
 31
0.0
  0
LINE
  5
   248
  8
0
  6
CONTINUOUS
 62
     7
 10
229.256194131076
 20
5.72634124755859
 30
0.0
 11
226.301770853869
 21
6.24728567751026
 31
0.0
  0
LINE
  5
   249
  8
0
  6
CONTINUOUS
 62
     7
 10
180.459962217637
 20
6.24728567751026
 30
0.0
 11
177.50553894043
 21
5.72634124755859
 31
0.0
  0
LINE
  5
   24A
  8
0
  6
CONTINUOUS
 62
     7
 10
177.50553894043
 20
5.72634124755859
 30
0.0
 11
180.459962217637
 21
5.20539681760693
 31
0.0
  0
ENDBLK
  5
   24B
  8
0
  6
CONTINUOUS
 62
     7
  0
BLOCK
  5
   24C
  8
0
  6
CONTINUOUS
 62
     7
  2
*UDIM592
 70
    65
 10
0.0
 20
0.0
 30
0.0
  3
*UDIM592
  0
TEXT
  5
   24D
  8
0
  6
CONTINUOUS
 62
     7
 10
102.155605301775
 20
-52.881143793562
 30
0.0
 40
3.00000002980232
  1
72,5
 50
449.999999844103
 41
0.933333333333333
 72
     1
 11
100.655605301261
 21
-47.5811437368393
 31
0.0
 73
     2
  0
LINE
  5
   24E
  8
0
  6
CONTINUOUS
 62
     7
 10
103.484708862305
 20
-37.2962913513184
 30
0.0
 11
101.155605316162
 21
-37.2962913513184
 31
0.0
  0
LINE
  5
   24F
  8
0
  6
CONTINUOUS
 62
     7
 10
103.155605316162
 20
-37.2962913513184
 30
0.0
 11
103.155605316162
 21
-55.4212913513184
 31
0.0
  0
LINE
  5
   250
  8
0
  6
CONTINUOUS
 62
     7
 10
103.676549746114
 20
-40.2507146285253
 30
0.0
 11
103.155605316162
 21
-37.2962913513184
 31
0.0
  0
LINE
  5
   251
  8
0
  6
CONTINUOUS
 62
     7
 10
103.155605316162
 20
-37.2962913513184
 30
0.0
 11
102.63466088621
 21
-40.2507146285253
 31
0.0
  0
LINE
  5
   252
  8
0
  6
CONTINUOUS
 62
     7
 10
102.63466088621
 20
-52.4668680741114
 30
0.0
 11
103.155605316162
 21
-55.4212913513184
 31
0.0
  0
LINE
  5
   253
  8
0
  6
CONTINUOUS
 62
     7
 10
103.155605316162
 20
-55.4212913513184
 30
0.0
 11
103.676549746114
 21
-52.4668680741114
 31
0.0
  0
ENDBLK
  5
   254
  8
0
  6
CONTINUOUS
 62
     7
  0
BLOCK
  5
   255
  8
0
  6
CONTINUOUS
 62
     7
  2
*UDIM593
 70
    65
 10
0.0
 20
0.0
 30
0.0
  3
*UDIM593
  0
TEXT
  5
   256
  8
0
  6
CONTINUOUS
 62
     7
 10
97.955236502885
 20
-28.0274467400365
 30
0.0
 40
3.00000002980232
  1
45
 50
359.999999844103
 41
0.933333333333333
 72
     1
 11
100.455236531794
 21
-26.527446731925
 31
0.0
 73
     2
  0
LINE
  5
   257
  8
0
  6
CONTINUOUS
 62
     7
 10
94.9047088623047
 20
-34.6262913513184
 30
0.0
 11
94.9047088623047
 21
-27.0274467468262
 31
0.0
  0
LINE
  5
   258
  8
0
  6
CONTINUOUS
 62
     7
 10
106.154708862305
 20
-34.6262913513184
 30
0.0
 11
106.154708862305
 21
-27.0274467468262
 31
0.0
  0
LINE
  5
   259
  8
0
  6
CONTINUOUS
 62
     7
 10
94.9047088623047
 20
-29.0274467468262
 30
0.0
 11
106.154708862305
 21
-29.0274467468262
 31
0.0
  0
LINE
  5
   25A
  8
0
  6
CONTINUOUS
 62
     7
 10
91.9502855850977
 20
-29.5483911767778
 30
0.0
 11
94.9047088623047
 21
-29.0274467468262
 31
0.0
  0
LINE
  5
   25B
  8
0
  6
CONTINUOUS
 62
     7
 10
94.9047088623047
 20
-29.0274467468262
 30
0.0
 11
91.9502855850977
 21
-28.5065023168745
 31
0.0
  0
LINE
  5
   25C
  8
0
  6
CONTINUOUS
 62
     7
 10
109.109132139512
 20
-28.5065023168745
 30
0.0
 11
106.154708862305
 21
-29.0274467468262
 31
0.0
  0
LINE
  5
   25D
  8
0
  6
CONTINUOUS
 62
     7
 10
106.154708862305
 20
-29.0274467468262
 30
0.0
 11
109.109132139512
 21
-29.5483911767778
 31
0.0
  0
ENDBLK
  5
   25E
  8
0
  6
CONTINUOUS
 62
     7
  0
BLOCK
  5
   25F
  8
0
  6
CONTINUOUS
 62
     7
  2
*UDIM594
 70
    65
 10
0.0
 20
0.0
 30
0.0
  3
*UDIM594
  0
TEXT
  5
   260
  8
0
  6
CONTINUOUS
 62
     7
 10
74.90234343594
 20
-83.7813511936203
 30
0.0
 40
3.00000002980232
  1
7
 50
397.208926617964
 41
0.933333333333334
 72
     1
 11
74.8713379103837
 21
-81.9215020798132
 31
0.0
 73
     2
  0
TEXT
  5
   261
  8
0
  6
CONTINUOUS
 62
     7
 10
72.3935709388495
 20
-85.6862293053186
 30
0.0
 40
3.00000002980232
  1
Ø
 50
397.208926617964
 41
0.933333333333334
 72
     1
 11
72.3625654132933
 21
-83.8263801915116
 31
0.0
 73
     2
  0
LINE
  5
   262
  8
0
  6
CONTINUOUS
 62
     7
 10
91.2265901092987
 20
-72.642158544182
 30
0.0
 11
72.9982941520556
 21
-86.4826650160848
 31
0.0
  0
LINE
  5
   263
  8
0
  6
CONTINUOUS
 62
     7
 10
93.2645711252825
 20
-70.440651474357
 30
0.0
 11
91.2265901092987
 21
-72.642158544182
 31
0.0
  0
LINE
  5
   264
  8
0
  6
CONTINUOUS
 62
     7
 10
91.2265901092987
 20
-72.642158544182
 30
0.0
 11
93.8946254991851
 21
-71.2704489691211
 31
0.0
  0
LINE
  5
   265
  8
0
  6
CONTINUOUS
 62
     7
 10
87.7948465993269
 20
-75.9019312282797
 30
0.0
 11
89.8328276153107
 21
-73.7004241584547
 31
0.0
  0
LINE
  5
   266
  8
0
  6
CONTINUOUS
 62
     7
 10
89.8328276153107
 20
-73.7004241584547
 30
0.0
 11
87.1647922254243
 21
-75.0721337335156
 31
0.0
  0
ENDBLK
  5
   267
  8
0
  6
CONTINUOUS
 62
     7
  0
BLOCK
  5
   268
  8
0
  6
CONTINUOUS
 62
     7
  2
*UDIM595
 70
    65
 10
0.0
 20
0.0
 30
0.0
  3
*UDIM595
  0
TEXT
  5
   269
  8
0
  6
CONTINUOUS
 62
     7
 10
96.3547126282247
 20
-94.3008308304725
 30
0.0
 40
3.00000002980232
  1
112
 50
359.999999844103
 41
0.933333333333333
 72
     1
 11
100.254712671042
 21
-92.8008308261633
 31
0.0
 73
     2
  0
LINE
  5
   26A
  8
0
  6
CONTINUOUS
 62
     7
 10
86.5297088623047
 20
-70.4212913513184
 30
0.0
 11
86.5297088623047
 21
-97.3008308410645
 31
0.0
  0
LINE
  5
   26B
  8
0
  6
CONTINUOUS
 62
     7
 10
114.529708862305
 20
-70.4212913513184
 30
0.0
 11
114.529708862305
 21
-97.3008308410645
 31
0.0
  0
LINE
  5
   26C
  8
0
  6
CONTINUOUS
 62
     7
 10
86.5297088623047
 20
-95.3008308410645
 30
0.0
 11
114.529708862305
 21
-95.3008308410645
 31
0.0
  0
LINE
  5
   26D
  8
0
  6
CONTINUOUS
 62
     7
 10
89.4841321395116
 20
-94.7798864111128
 30
0.0
 11
86.5297088623047
 21
-95.3008308410645
 31
0.0
  0
LINE
  5
   26E
  8
0
  6
CONTINUOUS
 62
     7
 10
86.5297088623047
 20
-95.3008308410645
 30
0.0
 11
89.4841321395116
 21
-95.8217752710161
 31
0.0
  0
LINE
  5
   26F
  8
0
  6
CONTINUOUS
 62
     7
 10
111.575285585098
 20
-95.8217752710161
 30
0.0
 11
114.529708862305
 21
-95.3008308410645
 31
0.0
  0
LINE
  5
   270
  8
0
  6
CONTINUOUS
 62
     7
 10
114.529708862305
 20
-95.3008308410645
 30
0.0
 11
111.575285585098
 21
-94.7798864111128
 31
0.0
  0
ENDBLK
  5
   271
  8
0
  6
CONTINUOUS
 62
     7
  0
BLOCK
  5
   272
  8
0
  6
CONTINUOUS
 62
     7
  2
*UDIM596
 70
    65
 10
0.0
 20
0.0
 30
0.0
  3
*UDIM596
  0
TEXT
  5
   273
  8
0
  6
CONTINUOUS
 62
     7
 10
97.7547116884581
 20
-84.8968734673314
 30
0.0
 40
3.00000002980232
  1
80
 50
359.999999844103
 41
0.933333333333333
 72
     1
 11
100.254711717367
 21
-83.3968734592199
 31
0.0
 73
     2
  0
LINE
  5
   274
  8
0
  6
CONTINUOUS
 62
     7
 10
90.5297088623047
 20
-40.2962913513184
 30
0.0
 11
90.5297088623047
 21
-87.8968734741211
 31
0.0
  0
LINE
  5
   275
  8
0
  6
CONTINUOUS
 62
     7
 10
110.529708862305
 20
-40.2962913513184
 30
0.0
 11
110.529708862305
 21
-87.8968734741211
 31
0.0
  0
LINE
  5
   276
  8
0
  6
CONTINUOUS
 62
     7
 10
90.5297088623047
 20
-85.8968734741211
 30
0.0
 11
110.529708862305
 21
-85.8968734741211
 31
0.0
  0
LINE
  5
   277
  8
0
  6
CONTINUOUS
 62
     7
 10
93.4841321395117
 20
-85.3759290441694
 30
0.0
 11
90.5297088623047
 21
-85.8968734741211
 31
0.0
  0
LINE
  5
   278
  8
0
  6
CONTINUOUS
 62
     7
 10
90.5297088623047
 20
-85.8968734741211
 30
0.0
 11
93.4841321395117
 21
-86.4178179040728
 31
0.0
  0
LINE
  5
   279
  8
0
  6
CONTINUOUS
 62
     7
 10
107.575285585098
 20
-86.4178179040728
 30
0.0
 11
110.529708862305
 21
-85.8968734741211
 31
0.0
  0
LINE
  5
   27A
  8
0
  6
CONTINUOUS
 62
     7
 10
110.529708862305
 20
-85.8968734741211
 30
0.0
 11
107.575285585098
 21
-85.3759290441694
 31
0.0
  0
ENDBLK
  5
   27B
  8
0
  6
CONTINUOUS
 62
     7
  0
BLOCK
  5
   27C
  8
0
  6
CONTINUOUS
 62
     7
  2
*UDIM597
 70
    65
 10
0.0
 20
0.0
 30
0.0
  3
*UDIM597
  0
TEXT
  5
   27D
  8
0
  6
CONTINUOUS
 62
     7
 10
66.5742721451747
 20
-59.5962914000938
 30
0.0
 40
3.00000002980232
  1
142
 50
449.999999844103
 41
0.933333333333333
 72
     1
 11
65.0742721408606
 21
-55.6962913572788
 31
0.0
 73
     2
  0
LINE
  5
   27E
  8
0
  6
CONTINUOUS
 62
     7
 10
87.9047088623047
 20
-37.6712913513184
 30
0.0
 11
65.5742721557617
 21
-37.6712913513184
 31
0.0
  0
LINE
  5
   27F
  8
0
  6
CONTINUOUS
 62
     7
 10
87.9047088623047
 20
-73.1712913513184
 30
0.0
 11
65.5742721557617
 21
-73.1712913513184
 31
0.0
  0
LINE
  5
   280
  8
0
  6
CONTINUOUS
 62
     7
 10
67.5742721557617
 20
-37.6712913513184
 30
0.0
 11
67.5742721557617
 21
-73.1712913513184
 31
0.0
  0
LINE
  5
   281
  8
0
  6
CONTINUOUS
 62
     7
 10
68.0952165857134
 20
-40.6257146285253
 30
0.0
 11
67.5742721557617
 21
-37.6712913513184
 31
0.0
  0
LINE
  5
   282
  8
0
  6
CONTINUOUS
 62
     7
 10
67.5742721557617
 20
-37.6712913513184
 30
0.0
 11
67.0533277258101
 21
-40.6257146285253
 31
0.0
  0
LINE
  5
   283
  8
0
  6
CONTINUOUS
 62
     7
 10
67.0533277258101
 20
-70.2168680741114
 30
0.0
 11
67.5742721557617
 21
-73.1712913513184
 31
0.0
  0
LINE
  5
   284
  8
0
  6
CONTINUOUS
 62
     7
 10
67.5742721557617
 20
-73.1712913513184
 30
0.0
 11
68.0952165857134
 21
-70.2168680741114
 31
0.0
  0
ENDBLK
  5
   285
  8
0
  6
CONTINUOUS
 62
     7
  0
BLOCK
  5
   286
  8
0
  6
CONTINUOUS
 62
     7
  2
*UDIM598
 70
    65
 10
0.0
 20
0.0
 30
0.0
  3
*UDIM598
  0
TEXT
  5
   287
  8
0
  6
CONTINUOUS
 62
     7
 10
74.327651966952
 20
-59.5962914000938
 30
0.0
 40
3.00000002980232
  1
112
 50
449.999999844103
 41
0.933333333333333
 72
     1
 11
72.8276519626379
 21
-55.6962913572788
 31
0.0
 73
     2
  0
LINE
  5
   288
  8
0
  6
CONTINUOUS
 62
     7
 10
85.5297088623047
 20
-41.4212913513184
 30
0.0
 11
73.3276519775391
 21
-41.4212913513184
 31
0.0
  0
LINE
  5
   289
  8
0
  6
CONTINUOUS
 62
     7
 10
85.5297088623047
 20
-69.4212913513184
 30
0.0
 11
73.3276519775391
 21
-69.4212913513184
 31
0.0
  0
LINE
  5
   28A
  8
0
  6
CONTINUOUS
 62
     7
 10
75.3276519775391
 20
-41.4212913513184
 30
0.0
 11
75.3276519775391
 21
-69.4212913513184
 31
0.0
  0
LINE
  5
   28B
  8
0
  6
CONTINUOUS
 62
     7
 10
75.8485964074907
 20
-44.3757146285253
 30
0.0
 11
75.3276519775391
 21
-41.4212913513184
 31
0.0
  0
LINE
  5
   28C
  8
0
  6
CONTINUOUS
 62
     7
 10
75.3276519775391
 20
-41.4212913513184
 30
0.0
 11
74.8067075475874
 21
-44.3757146285253
 31
0.0
  0
LINE
  5
   28D
  8
0
  6
CONTINUOUS
 62
     7
 10
74.8067075475874
 20
-66.4668680741114
 30
0.0
 11
75.3276519775391
 21
-69.4212913513184
 31
0.0
  0
LINE
  5
   28E
  8
0
  6
CONTINUOUS
 62
     7
 10
75.3276519775391
 20
-69.4212913513184
 30
0.0
 11
75.8485964074907
 21
-66.4668680741114
 31
0.0
  0
ENDBLK
  5
   28F
  8
0
  6
CONTINUOUS
 62
     7
  0
BLOCK
  5
   290
  8
0
  6
CONTINUOUS
 62
     7
  2
*HATCH102
 70
    65
 10
0.0
 20
0.0
 30
0.0
  3
*HATCH102
  0
LINE
  5
   291
  8
0
  6
CONTINUOUS
 62
    52
 10
-11.7279224395752
 20
1.0
 30
0.0
 11
-11.9763488769531
 21
0.75157368183136
 31
0.0
  0
LINE
  5
   292
  8
0
  6
CONTINUOUS
 62
    52
 10
-9.60660171508789
 20
1.0
 30
0.0
 11
-11.6066026687622
 21
-1.0
 31
0.0
  0
LINE
  5
   293
  8
0
  6
CONTINUOUS
 62
    52
 10
-7.48528146743774
 20
1.0
 30
0.0
 11
-9.48528289794922
 21
-1.0
 31
0.0
  0
LINE
  5
   294
  8
0
  6
CONTINUOUS
 62
    52
 10
-5.3639612197876
 20
1.0
 30
0.0
 11
-7.36396265029907
 21
-1.0
 31
0.0
  0
LINE
  5
   295
  8
0
  6
CONTINUOUS
 62
    52
 10
-3.47947335243225
 20
0.763167560100555
 30
0.0
 11
-5.24264097213745
 21
-1.0
 31
0.0
  0
LINE
  5
   296
  8
0
  6
CONTINUOUS
 62
    52
 10
-2.51160907745361
 20
-0.390288293361664
 30
0.0
 11
-3.1213207244873
 21
-1.0
 31
0.0
  0
ENDBLK
  5
   297
  8
0
  6
CONTINUOUS
 62
     7
  0
BLOCK
  5
   298
  8
0
  6
CONTINUOUS
 62
     7
  2
*HATCH103
 70
    65
 10
0.0
 20
0.0
 30
0.0
  3
*HATCH103
  0
LINE
  5
   299
  8
0
  6
CONTINUOUS
 62
    52
 10
5.24264097213745
 20
1.0
 30
0.0
 11
3.24264073371887
 21
-1.0
 31
0.0
  0
LINE
  5
   29A
  8
0
  6
CONTINUOUS
 62
    52
 10
7.3639612197876
 20
1.0
 30
0.0
 11
5.3639612197876
 21
-1.0
 31
0.0
  0
LINE
  5
   29B
  8
0
  6
CONTINUOUS
 62
    52
 10
9.48528099060059
 20
1.0
 30
0.0
 11
7.4852819442749
 21
-1.0
 31
0.0
  0
ENDBLK
  5
   29C
  8
0
  6
CONTINUOUS
 62
     7
  0
BLOCK
  5
   29D
  8
0
  6
CONTINUOUS
 62
     7
  2
*UDIM599
 70
    65
 10
0.0
 20
0.0
 30
0.0
  3
*UDIM599
  0
TEXT
  5
   29E
  8
0
  6
CONTINUOUS
 62
     7
 10
118.824094537662
 20
-0.872056557009982
 30
0.0
 40
3.00000002980232
  1
80
 50
449.241125536518
 41
0.933333333333333
 72
     1
 11
117.357337267727
 21
1.64759089451441
 31
0.0
 73
     2
  0
TEXT
  5
   29F
  8
0
  6
CONTINUOUS
 62
     7
 10
118.2903695034
 20
4.13545161443615
 30
0.0
 40
3.00000002980232
  1
°
 50
449.241125536518
 41
0.933333333333334
 72
     1
 11
116.805069974238
 21
5.25522184864308
 31
0.0
 73
     2
  0
LINE
  5
   2A0
  8
0
  6
CONTINUOUS
 62
     7
 10
101.761665170658
 20
-1.29851592096078
 30
0.0
 11
115.963632336889
 21
-13.2153813321366
 31
0.0
  0
LINE
  5
   2A1
  8
0
  6
CONTINUOUS
 62
     7
 10
101.761665170658
 20
7.34345782312142
 30
0.0
 11
115.963632336889
 21
19.2603232342973
 31
0.0
  0
ARC
  5
   2A2
  8
0
  6
CONTINUOUS
 62
     7
 10
96.6121135423506
 20
3.02247095108032
 30
0.0
 40
23.2616136940404
 50
319.999999815233
 51
399.999999769042
  0
LINE
  5
   2A3
  8
0
  6
CONTINUOUS
 62
     7
 10
115.93154354127
 20
-9.33172995372965
 30
0.0
 11
114.431543450651
 21
-11.9298061127636
 31
0.0
  0
LINE
  5
   2A4
  8
0
  6
CONTINUOUS
 62
     7
 10
114.431543450651
 20
-11.9298061127636
 30
0.0
 11
116.729676712747
 21
-10.0014432035459
 31
0.0
  0
LINE
  5
   2A5
  8
0
  6
CONTINUOUS
 62
     7
 10
116.729676712747
 20
16.0463851057066
 30
0.0
 11
114.431543450651
 21
17.9747480149242
 31
0.0
  0
LINE
  5
   2A6
  8
0
  6
CONTINUOUS
 62
     7
 10
114.431543450651
 20
17.9747480149242
 30
0.0
 11
115.93154354127
 21
15.3766718558903
 31
0.0
  0
ENDBLK
  5
   2A7
  8
0
  6
CONTINUOUS
 62
     7
  0
BLOCK
  5
   2A8
  8
0
  6
CONTINUOUS
 62
     7
  2
*UDIM600
 70
    65
 10
0.0
 20
0.0
 30
0.0
  3
*UDIM600
  0
TEXT
  5
   2A9
  8
0
  6
CONTINUOUS
 62
     7
 10
82.8304138115728
 20
8.90753790825709
 30
0.0
 40
3.00000002980232
  1
Ø4
 50
449.999999844103
 41
0.933333333333333
 72
     1
 11
81.3304138034582
 21
11.4075379371643
 31
0.0
 73
     2
  0
LINE
  5
   2AA
  8
0
  6
CONTINUOUS
 62
     7
 10
97.9956207275391
 20
5.02247095108032
 30
0.0
 11
81.8304138183594
 21
5.02247095108032
 31
0.0
  0
LINE
  5
   2AB
  8
0
  6
CONTINUOUS
 62
     7
 10
97.9956207275391
 20
1.02247095108032
 30
0.0
 11
81.8304138183594
 21
1.02247095108032
 31
0.0
  0
LINE
  5
   2AC
  8
0
  6
CONTINUOUS
 62
     7
 10
83.8304138183594
 20
13.9075379619996
 30
0.0
 11
83.8304138183594
 21
1.02247095108032
 31
0.0
  0
LINE
  5
   2AD
  8
0
  6
CONTINUOUS
 62
     7
 10
83.3094693884077
 20
7.97689422828729
 30
0.0
 11
83.8304138183594
 21
5.02247095108032
 31
0.0
  0
LINE
  5
   2AE
  8
0
  6
CONTINUOUS
 62
     7
 10
83.8304138183594
 20
5.02247095108032
 30
0.0
 11
84.3513582483111
 21
7.97689422828729
 31
0.0
  0
LINE
  5
   2AF
  8
0
  6
CONTINUOUS
 62
     7
 10
84.3513582483111
 20
-1.93195232612664
 30
0.0
 11
83.8304138183594
 21
1.02247095108032
 31
0.0
  0
LINE
  5
   2B0
  8
0
  6
CONTINUOUS
 62
     7
 10
83.8304138183594
 20
1.02247095108032
 30
0.0
 11
83.3094693884077
 21
-1.93195232612664
 31
0.0
  0
ENDBLK
  5
   2B1
  8
0
  6
CONTINUOUS
 62
     7
  0
ENDSEC
  0
SECTION
  2
ENTITIES
  0
LINE
  5
   2B2
  8
0
  6
CONTINUOUS
 62
     7
 10
126.779694192707
 20
169.547799139148
 30
0.0
 11
125.529694192707
 21
169.547799139148
 31
0.0
  0
LINE
  5
   2B3
  8
0
  6
CONTINUOUS
 62
     7
 10
125.529694192707
 20
169.547799139148
 30
0.0
 11
125.529694192707
 21
170.447800665027
 31
0.0
  0
LINE
  5
   2B4
  8
0
  6
CONTINUOUS
 62
     7
 10
90.9046913052221
 20
170.947800665027
 30
0.0
 11
76.0296941927066
 21
170.947800665027
 31
0.0
  0
LINE
  5
   2B5
  8
0
  6
CONTINUOUS
 62
     7
 10
108.404726419387
 20
170.947800665027
 30
0.0
 11
92.6546913052221
 21
170.947800665027
 31
0.0
  0
LINE
  5
   2B6
  8
0
  6
CONTINUOUS
 62
     7
 10
125.029694192707
 20
170.947800665027
 30
0.0
 11
110.154726419387
 21
170.947800665027
 31
0.0
  0
LINE
  5
   2B7
  8
0
  6
CONTINUOUS
 62
     7
 10
75.5296941927066
 20
169.547799139148
 30
0.0
 11
75.5296941927066
 21
170.447800665027
 31
0.0
  0
LINE
  5
   2B8
  8
0
  6
CONTINUOUS
 62
     7
 10
75.5296941927066
 20
169.547799139148
 30
0.0
 11
74.2796941927066
 21
169.547799139148
 31
0.0
  0
LINE
  5
   2B9
  8
0
  6
CONTINUOUS
 62
     2
 10
74.2796885706378
 20
125.072804479723
 30
0.0
 11
74.2796885706378
 21
158.697800665027
 31
0.0
  0
LINE
  5
   2BA
  8
0
  6
CONTINUOUS
 62
     7
 10
75.5296941927066
 20
43.9478006650273
 30
0.0
 11
75.5296941927066
 21
44.5728063870712
 31
0.0
  0
LINE
  5
   2BB
  8
0
  6
CONTINUOUS
 62
     7
 10
93.0296913052221
 20
167.697800665027
 30
0.0
 11
90.5296913052221
 21
167.697800665027
 31
0.0
  0
LINE
  5
   2BC
  8
0
  6
CONTINUOUS
 62
     7
 10
125.529694192707
 20
158.697800665027
 30
0.0
 11
125.529694192707
 21
169.547799139148
 31
0.0
  0
LINE
  5
   2BD
  8
0
  6
CONTINUOUS
 62
     7
 10
75.5296912288707
 20
158.697800665027
 30
0.0
 11
75.5296912288707
 21
169.547799139148
 31
0.0
  0
LINE
  5
   2BE
  8
0
  6
CONTINUOUS
 62
     2
 10
126.779694192707
 20
125.072804479723
 30
0.0
 11
126.779694192707
 21
158.697800665027
 31
0.0
  0
CIRCLE
  5
   2BF
  8
0
  6
CONTINUOUS
 62
     7
 10
83.0296938871168
 20
164.697796114243
 30
0.0
 40
2.75000069115123
  0
CIRCLE
  5
   2C0
  8
0
  6
CONTINUOUS
 62
     7
 10
91.7796913052221
 20
163.197802580213
 30
0.0
 40
2.24999656892357
  0
CIRCLE
  5
   2C1
  8
0
  6
CONTINUOUS
 62
     7
 10
100.529708862305
 20
164.697795007787
 30
0.0
 40
2.75001556139296
  0
ARC
  5
   2C2
  8
0
  6
CONTINUOUS
 62
     7
 10
109.27969298304
 20
116.697802595654
 30
0.0
 40
1.87500337338897
 50
180.000125709671
 51
187.662301267597
  0
CIRCLE
  5
   2C3
  8
0
  6
CONTINUOUS
 62
     7
 10
109.279695871693
 20
163.197804093848
 30
0.0
 40
2.24999987091582
  0
CIRCLE
  5
   2C4
  8
0
  6
CONTINUOUS
 62
     7
 10
118.029697393268
 20
164.697816772441
 30
0.0
 40
2.74998599955911
  0
ARC
  5
   2C5
  8
0
  6
CONTINUOUS
 62
     7
 10
125.029696904528
 20
170.447803927646
 30
0.0
 40
0.499997602395233
 50
359.999798760808
 51
450.000230889021
  0
ARC
  5
   2C6
  8
0
  6
CONTINUOUS
 62
     7
 10
76.0296954681748
 20
170.447801231192
 30
0.0
 40
0.500001995564727
 50
90.0000472185487
 51
180.000478784316
  0
ARC
  5
   2C7
  8
0
  6
CONTINUOUS
 62
     7
 10
76.029694313341
 20
43.9478007168692
 30
0.0
 40
0.500000053060852
 50
180.000006024791
 51
269.999989483217
  0
LINE
  5
   2C8
  8
0
  6
DASHDOT
 62
     7
 10
83.0296914999271
 20
124.247803058872
 30
0.0
 11
83.0296914999271
 21
172.343818380242
 31
0.0
  0
LINE
  5
   2C9
  8
0
  6
DASHDOT
 62
     7
 10
87.2796945782681
 20
164.697796114243
 30
0.0
 11
78.7796931959656
 21
164.697796114243
 31
0.0
  0
LINE
  5
   2CA
  8
0
  6
DASHDOT
 62
     7
 10
104.779724423698
 20
164.697795007787
 30
0.0
 11
96.2796933009117
 21
164.697795007787
 31
0.0
  0
LINE
  5
   2CB
  8
0
  6
DASHDOT
 62
     7
 10
91.7796913052221
 20
159.447806011289
 30
0.0
 11
91.7796913052221
 21
172.129609100317
 31
0.0
  0
LINE
  5
   2CC
  8
0
  6
DASHDOT
 62
     7
 10
95.5296878741456
 20
163.197802580213
 30
0.0
 11
88.0296947362985
 21
163.197802580213
 31
0.0
  0
LINE
  5
   2CD
  8
0
  6
DASHDOT
 62
     7
 10
118.029700132001
 20
124.247810888753
 30
0.0
 11
118.029700132001
 21
128.647801650174
 31
0.0
  0
LINE
  5
   2CE
  8
0
  6
DASHDOT
 62
     7
 10
122.279683392827
 20
164.697816772441
 30
0.0
 11
113.779711393709
 21
164.697816772441
 31
0.0
  0
LINE
  5
   2CF
  8
0
  6
DASHDOT
 62
     7
 10
83.0297022284872
 20
38.610479775748
 30
0.0
 11
83.0297022284872
 21
127.030870017334
 31
0.0
  0
LINE
  5
   2D0
  8
0
  6
DASHDOT
 62
     7
 10
118.029730432153
 20
45.4476741511688
 30
0.0
 11
118.029730432153
 21
171.89739462408
 31
0.0
  0
LINE
  5
   2D1
  8
0
  6
DASHDOT
 62
     7
 10
118.029703986647
 20
41.3661420302733
 30
0.0
 11
118.029703986647
 21
47.6477988653607
 31
0.0
  0
LINE
  5
   2D2
  8
0
  6
DASHDOT
 62
     7
 10
83.029700531609
 20
43.2478008173678
 30
0.0
 11
83.029700531609
 21
47.6478010189945
 31
0.0
  0
ARC
  5
   2D3
  8
0
  6
CONTINUOUS
 62
     7
 10
91.7796891874103
 20
116.697811744456
 30
0.0
 40
1.87501184484833
 50
352.337451371484
 51
359.999970304232
  0
LINE
  5
   2D4
  8
0
  6
DASHDOT
 62
     7
 10
100.529708862305
 20
49.5122136995195
 30
0.0
 11
100.529708862305
 21
101.15984828434
 31
0.0
  0
ARC
  5
   2D5
  8
0
  6
CONTINUOUS
 62
     3
 10
74.5297088623047
 20
110.822804479723
 30
0.0
 40
0.25
 50
449.999999948034
 51
539.999999948034
  0
LINE
  5
   2D6
  8
0
  6
DASHDOT
 62
     7
 10
100.529708862305
 20
104.049465515258
 30
0.0
 11
100.529708862305
 21
118.504590550138
 31
0.0
  0
LINE
  5
   2D7
  8
0
  6
DASHDOT
 62
     7
 10
100.529708862305
 20
41.0470653481703
 30
0.0
 11
100.529708862305
 21
100.174006623568
 31
0.0
  0
LINE
  5
   2D8
  8
0
  6
DASHDOT
 62
     7
 10
100.529708862305
 20
99.787640267308
 30
0.0
 11
100.529708862305
 21
172.427522834523
 31
0.0
  0
ARC
  5
   2D9
  8
0
  6
CONTINUOUS
 62
     7
 10
74.5297088623186
 20
110.822804479723
 30
0.0
 40
0.25
 50
449.999999948034
 51
539.999999948034
  0
LINE
  5
   2DA
  8
0
  6
CONTINUOUS
 62
     7
 10
90.9046913052221
 20
169.447800665027
 30
0.0
 11
90.9046913052221
 21
170.947800665027
 31
0.0
  0
LINE
  5
   2DB
  8
0
  6
CONTINUOUS
 62
     7
 10
92.6546913052221
 20
169.447800665027
 30
0.0
 11
92.6546913052221
 21
170.947800665027
 31
0.0
  0
LINE
  5
   2DC
  8
0
  6
CONTINUOUS
 62
     7
 10
90.5296913052221
 20
167.697800665027
 30
0.0
 11
90.5296913052221
 21
169.447800665027
 31
0.0
  0
LINE
  5
   2DD
  8
0
  6
CONTINUOUS
 62
     7
 10
93.0296913052221
 20
167.697800665027
 30
0.0
 11
93.0296913052221
 21
169.447800665027
 31
0.0
  0
LINE
  5
   2DE
  8
0
  6
CONTINUOUS
 62
     7
 10
93.0296913052221
 20
169.447800665027
 30
0.0
 11
92.6546913052221
 21
169.447800665027
 31
0.0
  0
LINE
  5
   2DF
  8
0
  6
CONTINUOUS
 62
     7
 10
90.9046913052221
 20
169.447800665027
 30
0.0
 11
90.5296913052221
 21
169.447800665027
 31
0.0
  0
LINE
  5
   2E0
  8
0
  6
CONTINUOUS
 62
     7
 10
108.404726419387
 20
169.447800665027
 30
0.0
 11
108.404726419387
 21
170.947800665027
 31
0.0
  0
LINE
  5
   2E1
  8
0
  6
CONTINUOUS
 62
     7
 10
110.154726419387
 20
169.447800665027
 30
0.0
 11
110.154726419387
 21
170.947800665027
 31
0.0
  0
LINE
  5
   2E2
  8
0
  6
CONTINUOUS
 62
     7
 10
110.529726419387
 20
167.697800665027
 30
0.0
 11
110.529726419387
 21
169.447800665027
 31
0.0
  0
LINE
  5
   2E3
  8
0
  6
CONTINUOUS
 62
     7
 10
110.529726419387
 20
167.697800665027
 30
0.0
 11
108.029726419387
 21
167.697800665027
 31
0.0
  0
LINE
  5
   2E4
  8
0
  6
CONTINUOUS
 62
     7
 10
108.029726419387
 20
167.697800665027
 30
0.0
 11
108.029726419387
 21
169.447800665027
 31
0.0
  0
LINE
  5
   2E5
  8
0
  6
CONTINUOUS
 62
     7
 10
110.529726419387
 20
169.447800665027
 30
0.0
 11
110.154726419387
 21
169.447800665027
 31
0.0
  0
LINE
  5
   2E6
  8
0
  6
CONTINUOUS
 62
     7
 10
108.404726419387
 20
169.447800665027
 30
0.0
 11
108.029726419387
 21
169.447800665027
 31
0.0
  0
INSERT
  5
   2E7
  8
255
  6
CONTINUOUS
 62
     7
  2
MOSTRINA
 10
43.1105804443359
 20
29.8324938107773
 30
0.0
 41
0.5
 42
0.5
 50
359.999999792138
 43
0.5
  0
LINE
  5
   2E8
  8
0
  6
DASHDOT
 62
     7
 10
109.279695871693
 20
159.718538611185
 30
0.0
 11
109.279695871693
 21
172.411394901299
 31
0.0
  0
LINE
  5
   2E9
  8
0
  6
DASHDOT
 62
     7
 10
112.571893658409
 20
163.197804093848
 30
0.0
 11
105.912413003955
 21
163.197804093848
 31
0.0
  0
LINE
  5
   2EA
  8
0
  6
CONTINUOUS
 62
     2
 10
126.779694192707
 20
158.697800665027
 30
0.0
 11
74.2796885706378
 21
158.697800665027
 31
0.0
  0
LINE
  5
   2EB
  8
0
  6
CONTINUOUS
 62
     2
 10
126.779694192707
 20
152.447800665027
 30
0.0
 11
74.2796885706378
 21
152.447800665027
 31
0.0
  0
LINE
  5
   2EC
  8
0
  6
CONTINUOUS
 62
     2
 10
126.779694192707
 20
151.947800665027
 30
0.0
 11
74.2796885706378
 21
151.947800665027
 31
0.0
  0
LINE
  5
   2ED
  8
0
  6
CONTINUOUS
 62
     7
 10
126.779694192707
 20
158.697800665027
 30
0.0
 11
126.779694192707
 21
169.547799139148
 31
0.0
  0
LINE
  5
   2EE
  8
0
  6
CONTINUOUS
 62
     7
 10
74.2796885706378
 20
158.697800665027
 30
0.0
 11
74.2796885706378
 21
169.547799139148
 31
0.0
  0
LINE
  5
   2EF
  8
0
  6
CONTINUOUS
 62
     7
 10
90.9046913052221
 20
43.4478006650271
 30
0.0
 11
76.0296941927066
 21
43.4478006650271
 31
0.0
  0
LINE
  5
   2F0
  8
0
  6
CONTINUOUS
 62
     7
 10
108.404726419387
 20
43.4478006650271
 30
0.0
 11
92.6546913052221
 21
43.4478006650271
 31
0.0
  0
LINE
  5
   2F1
  8
0
  6
CONTINUOUS
 62
     7
 10
125.029694192707
 20
43.4478006650271
 30
0.0
 11
110.154726419387
 21
43.4478006650271
 31
0.0
  0
ARC
  5
   2F2
  8
0
  6
CONTINUOUS
 62
     7
 10
125.029696904528
 20
43.9477974024079
 30
0.0
 40
0.499997602395233
 50
269.999769007048
 51
360.000201135261
  0
LINE
  5
   2F3
  8
0
  6
CONTINUOUS
 62
     7
 10
125.529694192707
 20
43.9478006650271
 30
0.0
 11
125.529694192707
 21
44.5728063870712
 31
0.0
  0
LINE
  5
   2F4
  8
0
  6
CONTINUOUS
 62
     7
 10
90.9046913052221
 20
43.4478006650271
 30
0.0
 11
90.9046913052221
 21
44.5728063870712
 31
0.0
  0
LINE
  5
   2F5
  8
0
  6
CONTINUOUS
 62
     7
 10
92.6546913052221
 20
43.4478006650271
 30
0.0
 11
92.6546913052221
 21
44.5728063870712
 31
0.0
  0
LINE
  5
   2F6
  8
0
  6
CONTINUOUS
 62
     7
 10
108.404726419387
 20
43.4478006650271
 30
0.0
 11
108.404726419387
 21
44.5728063870712
 31
0.0
  0
LINE
  5
   2F7
  8
0
  6
CONTINUOUS
 62
     7
 10
110.154726419387
 20
43.4478006650271
 30
0.0
 11
110.154726419387
 21
44.5728063870712
 31
0.0
  0
POINT
  5
   2F8
  8
0
  6
CONTINUOUS
 62
     7
 10
100.529708862305
 20
84.8228044797226
 30
0.0
  0
LINE
  5
   2F9
  8
0
  6
DASHDOT
 62
     7
 10
136.812184968529
 20
84.8228061589816
 30
0.0
 11
48.0935636646887
 21
84.8228061589816
 31
0.0
  0
LINE
  5
   2FA
  8
0
  6
DOT
 62
     7
 10
71.5297088623047
 20
64.6978061589816
 30
0.0
 11
71.5297088623047
 21
70.1978061589816
 31
0.0
  0
LINE
  5
   2FB
  8
0
  6
DOT
 62
     7
 10
74.2796802520752
 20
70.1978061589816
 30
0.0
 11
71.5297088623047
 21
70.1978061589816
 31
0.0
  0
LINE
  5
   2FC
  8
0
  6
DOT
 62
     7
 10
74.2796802520752
 20
64.6978061589816
 30
0.0
 11
71.5297088623047
 21
64.6978061589816
 31
0.0
  0
LINE
  5
   2FD
  8
0
  6
CONTINUOUS
 62
     7
 10
73.4046913052221
 20
170.947800665027
 30
0.0
 11
58.5296941927066
 21
170.947800665027
 31
0.0
  0
ARC
  5
   2FE
  8
0
  6
CONTINUOUS
 62
     7
 10
58.5296954681748
 20
170.447801231192
 30
0.0
 40
0.500001995564727
 50
90.0000472185487
 51
180.000478784316
  0
LINE
  5
   2FF
  8
0
  6
CONTINUOUS
 62
     7
 10
58.0296941927066
 20
169.547799139148
 30
0.0
 11
56.7796941927066
 21
169.547799139148
 31
0.0
  0
LINE
  5
   300
  8
0
  6
CONTINUOUS
 62
     7
 10
56.7796885706378
 20
44.847802190906
 30
0.0
 11
56.7796885706378
 21
169.547799139148
 31
0.0
  0
LINE
  5
   301
  8
0
  6
CONTINUOUS
 62
     7
 10
58.0296941927066
 20
169.547799139148
 30
0.0
 11
58.0296941927066
 21
170.447800665027
 31
0.0
  0
LINE
  5
   302
  8
0
  6
CONTINUOUS
 62
     7
 10
73.4046913052221
 20
43.4478006650271
 30
0.0
 11
58.5296941927066
 21
43.4478006650271
 31
0.0
  0
ARC
  5
   303
  8
0
  6
CONTINUOUS
 62
     7
 10
58.529694313341
 20
43.9478007168692
 30
0.0
 40
0.500000053060852
 50
180.000006024791
 51
269.999989483217
  0
LINE
  5
   304
  8
0
  6
CONTINUOUS
 62
     7
 10
58.0296941927066
 20
43.9478006650273
 30
0.0
 11
58.0296941927066
 21
44.5728063870712
 31
0.0
  0
LINE
  5
   305
  8
0
  6
CONTINUOUS
 62
     7
 10
56.7796802520752
 20
70.1978061589816
 30
0.0
 11
54.0297088623047
 21
70.1978061589816
 31
0.0
  0
LINE
  5
   306
  8
0
  6
CONTINUOUS
 62
     7
 10
56.7796802520752
 20
64.6978061589816
 30
0.0
 11
54.0297088623047
 21
64.6978061589816
 31
0.0
  0
LINE
  5
   307
  8
0
  6
CONTINUOUS
 62
     7
 10
54.0297088623047
 20
64.6978061589816
 30
0.0
 11
54.0297088623047
 21
70.1978061589816
 31
0.0
  0
ARC
  5
   308
  8
0
  6
CONTINUOUS
 62
     7
 10
58.5296954681748
 20
43.9478000988621
 30
0.0
 40
0.500001995564727
 50
179.999521111753
 51
269.99995267752
  0
LINE
  5
   309
  8
0
  6
CONTINUOUS
 62
     7
 10
58.0296941927066
 20
43.9478006650271
 30
0.0
 11
58.0296941927066
 21
44.847802190906
 31
0.0
  0
LINE
  5
   30A
  8
0
  6
CONTINUOUS
 62
     7
 10
58.0296941927066
 20
44.847802190906
 30
0.0
 11
56.7796941927066
 21
44.847802190906
 31
0.0
  0
INSERT
  5
   30B
  8
255
  6
CONTINUOUS
 62
     7
  2
BLOCCHI_FRT
 10
149.179718703873
 20
29.829258947496
 30
0.0
 41
0.5
 42
0.5
 50
3.50835464724173E-15
 43
0.5
  0
INSERT
  5
   30C
  8
0
  6
CONTINUOUS
 62
     7
  2
*UDIM585
 10
0.0
 20
0.0
 30
0.0
  0
TEXT
  5
   30D
  8
0
  6
CONTINUOUS
 62
     7
 10
92.8129037766537
 20
29.8859481854648
 30
0.0
 40
3.00000002980232
  1
=    =
 50
359.999999948034
 41
0.916666689183977
 72
     1
 11
100.787904053926
 21
31.385948193173
 31
0.0
 73
     2
  0
TEXT
  5
   30E
  8
0
  6
CONTINUOUS
 62
     7
 10
92.5428488998494
 20
174.828269962809
 30
0.0
 40
3.00000002980232
  1
=    =
 50
359.999999948034
 41
0.916666689183977
 72
     1
 11
100.517849177122
 21
176.328269970517
 31
0.0
 73
     2
  0
TEXT
  5
   30F
  8
0
  6
CONTINUOUS
 62
     7
 10
100.112276165325
 20
19.2610282879065
 30
0.0
 40
3.00000002980232
  1
Y
 50
359.999999948034
 41
0.916666604744064
 72
     1
 11
101.212276101112
 21
20.7610283018156
 31
0.0
 73
     2
  0
INSERT
  5
   310
  8
0
  6
CONTINUOUS
 62
     7
  2
*UDIM586
 10
0.0
 20
0.0
 30
0.0
  0
TEXT
  5
   311
  8
0
  6
CONTINUOUS
 62
     7
 10
146.466114051868
 20
76.4139234571481
 30
0.0
 40
3.00000002980232
  1
=    =
 50
89.9999999480344
 41
0.916666689183977
 72
     1
 11
144.966114044189
 21
84.3889237344265
 31
0.0
 73
     2
  0
INSERT
  5
   312
  8
0
  6
CONTINUOUS
 62
     7
  2
*UDIM587
 10
0.0
 20
0.0
 30
0.0
  0
INSERT
  5
   313
  8
0
  6
CONTINUOUS
 62
     7
  2
*UDIM588
 10
0.0
 20
0.0
 30
0.0
  0
TEXT
  5
   314
  8
0
  6
CONTINUOUS
 62
     7
 10
99.9150330470405
 20
185.370978792112
 30
0.0
 40
3.00000002980232
  1
Y
 50
359.999999948034
 41
0.916666604744064
 72
     2
 11
102.11503291591
 21
185.370978790128
 31
0.0
  0
TEXT
  5
   315
  8
0
  6
CONTINUOUS
 62
     7
 10
151.96361130937
 20
83.488226850431
 30
0.0
 40
3.00000002980232
  1
X
 50
359.999999948034
 41
0.916666604744064
 72
     2
 11
154.163611178239
 21
83.4882268484468
 31
0.0
  0
TEXT
  5
   316
  8
0
  6
CONTINUOUS
 62
     7
 10
42.7817570613227
 20
83.5590629176308
 30
0.0
 40
3.00000002980232
  1
X
 50
359.999999948034
 41
0.916666604744064
 72
     2
 11
44.9817569301925
 21
83.5590629156465
 31
0.0
  0
LINE
  5
   317
  8
0
  6
CONTINUOUS
 62
     7
 10
180.866646756492
 20
15.653989577023
 30
0.0
 11
173.157060851046
 21
15.9686665527555
 31
0.0
  0
LINE
  5
   318
  8
0
  6
DASHDOT
 62
     7
 10
177.50553894043
 20
15.791177651148
 30
0.0
 11
177.50553894043
 21
175.19599478007
 31
0.0
  0
LINE
  5
   319
  8
0
  6
DASHDOT
 62
     7
 10
176.00553894043
 20
15.8524021409439
 30
0.0
 11
176.00553894043
 21
175.400540234616
 31
0.0
  0
LINE
  5
   31A
  8
0
  6
CONTINUOUS
 62
     7
 10
214.50553894043
 20
44.8478126638076
 30
0.0
 11
178.50553894043
 21
44.8478126638076
 31
0.0
  0
LINE
  5
   31B
  8
0
  6
CONTINUOUS
 62
     7
 10
178.50553894043
 20
43.4478130452773
 30
0.0
 11
178.50553894043
 21
63.5949216102614
 31
0.0
  0
LINE
  5
   31C
  8
0
  6
CONTINUOUS
 62
     7
 10
178.50553894043
 20
63.5949077718398
 30
0.0
 11
178.50553894043
 21
127.197805415883
 31
0.0
  0
LINE
  5
   31D
  8
0
  6
CONTINUOUS
 62
     7
 10
177.50553894043
 20
123.112607967152
 30
0.0
 11
177.50553894043
 21
123.197790157094
 31
0.0
  0
LINE
  5
   31E
  8
0
  6
CONTINUOUS
 62
     7
 10
212.755537179953
 20
92.9477923903392
 30
0.0
 11
212.755527496463
 21
97.0728042437616
 31
0.0
  0
LINE
  5
   31F
  8
0
  6
CONTINUOUS
 62
     7
 10
214.005509329261
 20
120.197801931845
 30
0.0
 11
214.359070721687
 21
120.344248137258
 31
0.0
  0
LINE
  5
   320
  8
0
  6
CONTINUOUS
 62
     7
 10
214.359077093243
 20
120.344237574219
 30
0.0
 11
214.505523310122
 21
120.697791323444
 31
0.0
  0
LINE
  5
   321
  8
0
  6
CONTINUOUS
 62
     7
 10
212.755530766135
 20
116.697804873338
 30
0.0
 11
212.755538395529
 21
120.197804873618
 31
0.0
  0
LINE
  5
   322
  8
0
  6
CONTINUOUS
 62
     7
 10
214.005523681641
 20
120.197805415883
 30
0.0
 11
212.75553894043
 21
120.197805415883
 31
0.0
  0
LINE
  5
   323
  8
0
  6
CONTINUOUS
 62
     7
 10
212.755531311035
 20
97.0728054158828
 30
0.0
 11
212.755531311035
 21
116.697805415883
 31
0.0
  0
LINE
  5
   324
  8
0
  6
CONTINUOUS
 62
     7
 10
210.50553894043
 20
71.6978054158828
 30
0.0
 11
210.50553894043
 21
91.9478054158828
 31
0.0
  0
LINE
  5
   325
  8
0
  6
CONTINUOUS
 62
     7
 10
210.505553921534
 20
91.9478329544552
 30
0.0
 11
210.639526078798
 21
92.4478329407614
 31
0.0
  0
LINE
  5
   326
  8
0
  6
CONTINUOUS
 62
     7
 10
210.639543112545
 20
92.4478519682987
 30
0.0
 11
211.005563296552
 21
92.8138797731201
 31
0.0
  0
LINE
  5
   327
  8
0
  6
CONTINUOUS
 62
     7
 10
211.005511547929
 20
92.8138202331338
 30
0.0
 11
211.505519150509
 21
92.9477923903392
 31
0.0
  0
LINE
  5
   328
  8
0
  6
CONTINUOUS
 62
     7
 10
214.50553894043
 20
71.6978054158828
 30
0.0
 11
210.50553894043
 21
71.6978054158828
 31
0.0
  0
LINE
  5
   329
  8
0
  6
CONTINUOUS
 62
     7
 10
214.505517596857
 20
64.1977990399019
 30
0.0
 11
214.005479470346
 21
64.6977990220585
 31
0.0
  0
LINE
  5
   32A
  8
0
  6
CONTINUOUS
 62
     7
 10
214.005491231203
 20
70.1978107190024
 30
0.0
 11
214.505536986613
 21
70.6978107008483
 31
0.0
  0
LINE
  5
   32B
  8
0
  6
CONTINUOUS
 62
     7
 10
214.005484926651
 20
70.1977906432966
 30
0.0
 11
182.621581423233
 21
70.1977906432966
 31
0.0
  0
LINE
  5
   32C
  8
0
  6
CONTINUOUS
 62
     7
 10
214.005492210388
 20
64.6978054158828
 30
0.0
 11
182.621558189392
 21
64.6978054158828
 31
0.0
  0
LINE
  5
   32D
  8
0
  6
CONTINUOUS
 62
     7
 10
182.621579188673
 20
70.1977834649577
 30
0.0
 11
180.755536680368
 21
70.6977910935391
 31
0.0
  0
LINE
  5
   32E
  8
0
  6
CONTINUOUS
 62
     7
 10
180.75555285211
 20
70.6977857022296
 30
0.0
 11
179.005536658295
 21
71.1667034943577
 31
0.0
  0
LINE
  5
   32F
  8
0
  6
CONTINUOUS
 62
     7
 10
178.505539496108
 20
63.5949233525488
 30
0.0
 11
182.621559198101
 21
64.6978057208189
 31
0.0
  0
LINE
  5
   330
  8
0
  6
CONTINUOUS
 62
     7
 10
178.505545440932
 20
72.3449572129598
 30
0.0
 11
179.005543983761
 21
72.4789293702285
 31
0.0
  0
LINE
  5
   331
  8
0
  6
CONTINUOUS
 62
     7
 10
180.505538463593
 20
60.4477977864882
 30
0.0
 11
178.50553894043
 21
60.4477977864882
 31
0.0
  0
LINE
  5
   332
  8
0
  6
CONTINUOUS
 62
     7
 10
180.505538463593
 20
49.6978130452773
 30
0.0
 11
180.505538463593
 21
60.4477977864882
 31
0.0
  0
LINE
  5
   333
  8
0
  6
CONTINUOUS
 62
     7
 10
179.00553894043
 20
63.7288875692031
 30
0.0
 11
179.00553894043
 21
85.9477977864883
 31
0.0
  0
LINE
  5
   334
  8
0
  6
CONTINUOUS
 62
     7
 10
180.75553894043
 20
70.6978054158828
 30
0.0
 11
180.75553894043
 21
83.1978054158828
 31
0.0
  0
LINE
  5
   335
  8
0
  6
CONTINUOUS
 62
     7
 10
180.005537986755
 20
85.9477977864883
 30
0.0
 11
178.505538463593
 21
85.9477977864883
 31
0.0
  0
LINE
  5
   336
  8
0
  6
CONTINUOUS
 62
     7
 10
180.380544071397
 20
85.8473137119822
 30
0.0
 11
180.0055431379
 21
85.9477928299254
 31
0.0
  0
LINE
  5
   337
  8
0
  6
CONTINUOUS
 62
     7
 10
180.380544071397
 20
85.8473137119822
 30
0.0
 11
180.0055431379
 21
85.9477928299254
 31
0.0
  0
LINE
  5
   338
  8
0
  6
CONTINUOUS
 62
     7
 10
180.655059519187
 20
85.5727903272562
 30
0.0
 11
180.380540557344
 21
85.8473111866039
 31
0.0
  0
LINE
  5
   339
  8
0
  6
CONTINUOUS
 62
     7
 10
180.755531444345
 20
85.1977837298233
 30
0.0
 11
180.655050891705
 21
85.5727837286319
 31
0.0
  0
LINE
  5
   33A
  8
0
  6
CONTINUOUS
 62
     7
 10
180.755548000336
 20
83.1977985613537
 30
0.0
 11
180.755548000336
 21
85.1977909319592
 31
0.0
  0
LINE
  5
   33B
  8
0
  6
CONTINUOUS
 62
     7
 10
180.655061836606
 20
82.8227946127837
 30
0.0
 11
180.702673066136
 21
83.0004832087262
 31
0.0
  0
LINE
  5
   33C
  8
0
  6
CONTINUOUS
 62
     7
 10
180.702672148977
 20
83.0004783657844
 30
0.0
 11
180.755541467638
 21
83.1977973932871
 31
0.0
  0
LINE
  5
   33D
  8
0
  6
CONTINUOUS
 62
     7
 10
180.380538785939
 20
82.5482589064805
 30
0.0
 11
180.655058210992
 21
82.8227797662334
 31
0.0
  0
LINE
  5
   33E
  8
0
  6
CONTINUOUS
 62
     7
 10
180.005532514299
 20
82.447787397868
 30
0.0
 11
180.380532509121
 21
82.5482665081021
 31
0.0
  0
LINE
  5
   33F
  8
0
  6
CONTINUOUS
 62
     7
 10
180.005538463593
 20
82.4477977864882
 30
0.0
 11
179.00553894043
 21
82.4477977864882
 31
0.0
  0
LINE
  5
   340
  8
0
  6
CONTINUOUS
 62
     7
 10
178.50553894043
 20
48.6977982633254
 30
0.0
 11
177.50553894043
 21
48.6977982633254
 31
0.0
  0
LINE
  5
   341
  8
0
  6
CONTINUOUS
 62
     7
 10
178.50553894043
 20
123.197790157094
 30
0.0
 11
177.50553894043
 21
123.197790157094
 31
0.0
  0
LINE
  5
   342
  8
0
  6
CONTINUOUS
 62
     7
 10
178.50553894043
 20
118.263616573109
 30
0.0
 11
177.50553894043
 21
118.263616573109
 31
0.0
  0
LINE
  5
   343
  8
0
  6
CONTINUOUS
 62
     7
 10
182.155045613583
 20
64.5727997482764
 30
0.0
 11
180.755527175798
 21
64.9477997192574
 31
0.0
  0
LINE
  5
   344
  8
0
  6
CONTINUOUS
 62
     7
 10
180.755522251129
 20
64.9478044860552
 30
0.0
 11
180.755522251129
 21
69.9478044860552
 31
0.0
  0
LINE
  5
   345
  8
0
  6
CONTINUOUS
 62
     7
 10
180.755522397396
 20
69.947797798929
 30
0.0
 11
182.155052752935
 21
70.3227977955803
 31
0.0
  0
LINE
  5
   346
  8
0
  6
CONTINUOUS
 62
     7
 10
178.50553894043
 20
53.5901088826797
 30
0.0
 11
177.50553894043
 21
53.5901088826797
 31
0.0
  0
LINE
  5
   347
  8
0
  6
CONTINUOUS
 62
     7
 10
178.50553894043
 20
53.6977977864882
 30
0.0
 11
177.50553894043
 21
53.6977977864882
 31
0.0
  0
LINE
  5
   348
  8
0
  6
CONTINUOUS
 62
     7
 10
180.655063530317
 20
82.5581484839682
 30
0.0
 11
180.755543599847
 21
83.0004855053546
 31
0.0
  0
LINE
  5
   349
  8
0
  6
CONTINUOUS
 62
     7
 10
180.755537986755
 20
83.0004863851211
 30
0.0
 11
180.702669143677
 21
83.0004863851211
 31
0.0
  0
LINE
  5
   34A
  8
0
  6
CONTINUOUS
 62
     7
 10
180.688550552317
 20
75.9477926339479
 30
0.0
 11
180.755536631421
 21
75.9975210255278
 31
0.0
  0
LINE
  5
   34B
  8
0
  6
CONTINUOUS
 62
     7
 10
180.688555006449
 20
75.9477750771481
 30
0.0
 11
180.65506053638
 21
75.9726392720451
 31
0.0
  0
LINE
  5
   34C
  8
0
  6
CONTINUOUS
 62
     7
 10
180.755538463593
 20
80.9478054158828
 30
0.0
 11
180.655057907104
 21
80.9478054158828
 31
0.0
  0
LINE
  5
   34D
  8
0
  6
CONTINUOUS
 62
     7
 10
180.65505517366
 20
77.9229121005717
 30
0.0
 11
180.688549643729
 21
77.9477762954687
 31
0.0
  0
LINE
  5
   34E
  8
0
  6
CONTINUOUS
 62
     7
 10
180.755540563378
 20
77.8980607602845
 30
0.0
 11
180.688554484274
 21
77.9477891518644
 31
0.0
  0
LINE
  5
   34F
  8
0
  6
CONTINUOUS
 62
     7
 10
180.70964194841
 20
81.8088414818021
 30
0.0
 11
180.655055078879
 21
82.1137273425732
 31
0.0
  0
LINE
  5
   350
  8
0
  6
CONTINUOUS
 62
     7
 10
180.755538063453
 20
80.9478068405427
 30
0.0
 11
180.70964439536
 21
81.8088450157128
 31
0.0
  0
LINE
  5
   351
  8
0
  6
CONTINUOUS
 62
     7
 10
180.655055732018
 20
75.9726540294112
 30
0.0
 11
180.397375798525
 21
76.0239082962656
 31
0.0
  0
LINE
  5
   352
  8
0
  6
CONTINUOUS
 62
     7
 10
180.39737718161
 20
76.0239113143318
 30
0.0
 11
180.380537677473
 21
76.0351646705224
 31
0.0
  0
LINE
  5
   353
  8
0
  6
CONTINUOUS
 62
     7
 10
180.380530265914
 20
77.8604182894291
 30
0.0
 11
180.397370723146
 21
77.8716716458519
 31
0.0
  0
LINE
  5
   354
  8
0
  6
CONTINUOUS
 62
     7
 10
180.397374020271
 20
77.871669249929
 30
0.0
 11
180.655053000664
 21
77.9229235088071
 31
0.0
  0
LINE
  5
   355
  8
0
  6
CONTINUOUS
 62
     7
 10
180.655057907104
 20
80.9478054158828
 30
0.0
 11
180.380538463593
 21
80.9478054158828
 31
0.0
  0
LINE
  5
   356
  8
0
  6
CONTINUOUS
 62
     7
 10
180.380536220524
 20
76.0351577739161
 30
0.0
 11
180.005536229227
 21
76.1022964303219
 31
0.0
  0
LINE
  5
   357
  8
0
  6
CONTINUOUS
 62
     7
 10
180.005535648938
 20
77.793281254099
 30
0.0
 11
180.380535640235
 21
77.8604199105047
 31
0.0
  0
LINE
  5
   358
  8
0
  6
CONTINUOUS
 62
     7
 10
180.380538463593
 20
80.9478054158828
 30
0.0
 11
180.005538463593
 21
80.9478054158828
 31
0.0
  0
LINE
  5
   359
  8
0
  6
CONTINUOUS
 62
     7
 10
180.005538463593
 20
77.7932872884414
 30
0.0
 11
179.00553894043
 21
77.7932872884414
 31
0.0
  0
LINE
  5
   35A
  8
0
  6
CONTINUOUS
 62
     7
 10
180.005538463593
 20
80.9478054158828
 30
0.0
 11
179.00553894043
 21
80.9478054158828
 31
0.0
  0
LINE
  5
   35B
  8
0
  6
CONTINUOUS
 62
     7
 10
180.005538463593
 20
76.1023082845351
 30
0.0
 11
179.00553894043
 21
76.1023082845351
 31
0.0
  0
LINE
  5
   35C
  8
0
  6
CONTINUOUS
 62
     3
 10
225.605537415147
 20
127.047811519398
 30
0.0
 11
211.273737146458
 21
127.047811519398
 31
0.0
  0
LINE
  5
   35D
  8
0
  6
CONTINUOUS
 62
     3
 10
225.605537415147
 20
44.8478126638076
 30
0.0
 11
214.505538941026
 21
44.8478126638076
 31
0.0
  0
LINE
  5
   35E
  8
0
  6
CONTINUOUS
 62
     3
 10
227.005538941026
 20
43.4478130452773
 30
0.0
 11
178.50553894043
 21
43.4478130452773
 31
0.0
  0
LINE
  5
   35F
  8
0
  6
CONTINUOUS
 62
     3
 10
214.505538941026
 20
43.4478130452773
 30
0.0
 11
214.505538941026
 21
64.5728054158828
 31
0.0
  0
LINE
  5
   360
  8
0
  6
CONTINUOUS
 62
     3
 10
214.505538941027
 20
70.3227977864882
 30
0.0
 11
214.505538941027
 21
71.6978359334609
 31
0.0
  0
LINE
  5
   361
  8
0
  6
CONTINUOUS
 62
     3
 10
214.50553894043
 20
120.697829058485
 30
0.0
 11
214.50553894043
 21
128.447805415883
 31
0.0
  0
LINE
  5
   362
  8
0
  6
CONTINUOUS
 62
     3
 10
229.255538941026
 20
92.4222393148086
 30
0.0
 11
229.255538941026
 21
97.1976451985976
 31
0.0
  0
LINE
  5
   363
  8
0
  6
CONTINUOUS
 62
     3
 10
229.255534764766
 20
63.6976571953528
 30
0.0
 11
229.255511876583
 21
66.9730168260058
 31
0.0
  0
LINE
  5
   364
  8
0
  6
CONTINUOUS
 62
     3
 10
227.005538941026
 20
120.322813045277
 30
0.0
 11
225.605537415147
 21
120.322813045277
 31
0.0
  0
LINE
  5
   365
  8
0
  6
CONTINUOUS
 62
     3
 10
227.005538941026
 20
43.4478130452773
 30
0.0
 11
227.005538941026
 21
55.8228139308319
 31
0.0
  0
LINE
  5
   366
  8
0
  6
CONTINUOUS
 62
     3
 10
227.005538941026
 20
51.5728130452773
 30
0.0
 11
225.605537415147
 21
51.5728130452773
 31
0.0
  0
LINE
  5
   367
  8
0
  6
CONTINUOUS
 62
     3
 10
225.605537415147
 20
44.8478145711562
 30
0.0
 11
225.605537415147
 21
55.8228143123021
 31
0.0
  0
LINE
  5
   368
  8
0
  6
CONTINUOUS
 62
     3
 10
225.60553588574
 20
70.3228054158828
 30
0.0
 11
214.505537411619
 21
70.3228054158828
 31
0.0
  0
LINE
  5
   369
  8
0
  6
CONTINUOUS
 62
     3
 10
225.605536230945
 20
64.5728054158828
 30
0.0
 11
214.505537756824
 21
64.5728054158828
 31
0.0
  0
LINE
  5
   36A
  8
0
  6
CONTINUOUS
 62
     1
 10
227.005538941026
 20
55.8228135221145
 30
0.0
 11
226.755538941026
 21
55.8228135221145
 31
0.0
  0
LINE
  5
   36B
  8
0
  6
CONTINUOUS
 62
     2
 10
228.255538464189
 20
55.8228271460371
 30
0.0
 11
225.605537415147
 21
55.8228271460371
 31
0.0
  0
LINE
  5
   36C
  8
0
  6
CONTINUOUS
 62
     2
 10
229.256194131076
 20
58.5728054177103
 30
0.0
 11
229.256194131076
 21
111.07280541771
 31
0.0
  0
LINE
  5
   36D
  8
0
  6
CONTINUOUS
 62
     2
 10
229.256194131076
 20
111.072805415883
 30
0.0
 11
228.255538464189
 21
111.072805415883
 31
0.0
  0
LINE
  5
   36E
  8
0
  6
CONTINUOUS
 62
     2
 10
229.256194131076
 20
58.5728054170628
 30
0.0
 11
228.255538464189
 21
58.5728054170628
 31
0.0
  0
LINE
  5
   36F
  8
0
  6
CONTINUOUS
 62
     7
 10
212.755535125857
 20
92.9477923903392
 30
0.0
 11
211.505519150509
 21
92.9477923903392
 31
0.0
  0
LINE
  5
   370
  8
0
  6
CONTINUOUS
 62
     2
 10
228.255538464189
 20
111.072805415883
 30
0.0
 11
228.255538464189
 21
116.297805310372
 31
0.0
  0
LINE
  5
   371
  8
0
  6
CONTINUOUS
 62
     2
 10
228.255538464189
 20
55.822813590234
 30
0.0
 11
228.255538464189
 21
58.5728054170628
 31
0.0
  0
LINE
  5
   372
  8
0
  6
CONTINUOUS
 62
     3
 10
225.605537415147
 20
116.322805415883
 30
0.0
 11
225.605537415147
 21
127.047811519398
 31
0.0
  0
LINE
  5
   373
  8
0
  6
CONTINUOUS
 62
     2
 10
225.605537415147
 20
55.8228143123021
 30
0.0
 11
225.605537415147
 21
116.297805310372
 31
0.0
  0
LINE
  5
   374
  8
0
  6
CONTINUOUS
 62
     7
 10
180.627646706033
 20
174.770252812033
 30
0.0
 11
172.21930155182
 21
175.916845333062
 31
0.0
  0
LINE
  5
   375
  8
0
  6
CONTINUOUS
 62
     1
 10
247.755534172058
 20
57.3195877075195
 30
0.0
 11
247.755534172058
 21
58.5728206746719
 31
0.0
  0
LINE
  5
   376
  8
0
  6
CONTINUOUS
 62
     1
 10
248.755534172058
 20
57.3195877075195
 30
0.0
 11
247.755534172058
 21
57.3195877075195
 31
0.0
  0
LINE
  5
   377
  8
0
  6
CONTINUOUS
 62
     1
 10
247.755534172058
 20
111.072764909329
 30
0.0
 11
247.755534172058
 21
112.319585800171
 31
0.0
  0
LINE
  5
   378
  8
0
  6
CONTINUOUS
 62
     1
 10
248.755534172058
 20
112.319585800171
 30
0.0
 11
247.755534172058
 21
112.319585800171
 31
0.0
  0
LINE
  5
   379
  8
0
  6
CONTINUOUS
 62
     1
 10
245.505534261465
 20
119.10825920105
 30
0.0
 11
245.505534261465
 21
121.530912399292
 31
0.0
  0
LINE
  5
   37A
  8
0
  6
CONTINUOUS
 62
     1
 10
245.505534261465
 20
48.1082630157471
 30
0.0
 11
245.505534261465
 21
50.530912399292
 31
0.0
  0
LINE
  5
   37B
  8
0
  6
CONTINUOUS
 62
     1
 10
248.755534172058
 20
44.5728197385117
 30
0.0
 11
248.755534172058
 21
57.3195877075195
 31
0.0
  0
LINE
  5
   37C
  8
0
  6
CONTINUOUS
 62
     1
 10
250.505534172058
 20
44.5728197385117
 30
0.0
 11
250.505534172058
 21
58.8233160501192
 31
0.0
  0
LINE
  5
   37D
  8
0
  6
CONTINUOUS
 62
     1
 10
248.755534172058
 20
118.819585800171
 30
0.0
 11
246.005534254615
 21
118.819585800171
 31
0.0
  0
LINE
  5
   37E
  8
0
  6
CONTINUOUS
 62
     1
 10
248.755534172058
 20
121.819585800171
 30
0.0
 11
246.005534254615
 21
121.819585800171
 31
0.0
  0
LINE
  5
   37F
  8
0
  6
CONTINUOUS
 62
     1
 10
246.005534652477
 20
118.81958465164
 30
0.0
 11
245.505534636013
 21
119.108258056138
 31
0.0
  0
LINE
  5
   380
  8
0
  6
CONTINUOUS
 62
     1
 10
246.005534254615
 20
118.819585800171
 30
0.0
 11
246.005534254615
 21
119.258924484253
 31
0.0
  0
LINE
  5
   381
  8
0
  6
CONTINUOUS
 62
     1
 10
246.005534254615
 20
119.258924484253
 30
0.0
 11
246.005534254615
 21
119.745565414429
 31
0.0
  0
LINE
  5
   382
  8
0
  6
CONTINUOUS
 62
     1
 10
246.005534254615
 20
119.745565414429
 30
0.0
 11
246.005534254615
 21
120.319585800171
 31
0.0
  0
LINE
  5
   383
  8
0
  6
CONTINUOUS
 62
     1
 10
246.005534254615
 20
120.319585800171
 30
0.0
 11
246.005534254615
 21
120.893613815308
 31
0.0
  0
LINE
  5
   384
  8
0
  6
CONTINUOUS
 62
     1
 10
246.005534254615
 20
120.893613815308
 30
0.0
 11
246.005534254615
 21
121.819585800171
 31
0.0
  0
LINE
  5
   385
  8
0
  6
CONTINUOUS
 62
     1
 10
246.005534254615
 20
121.380247116089
 30
0.0
 11
246.005534254615
 21
121.705404281616
 31
0.0
  0
LINE
  5
   386
  8
0
  6
CONTINUOUS
 62
     1
 10
245.755534254615
 20
121.705404281616
 30
0.0
 11
245.755534254615
 21
121.819585800171
 31
0.0
  0
LINE
  5
   387
  8
0
  6
CONTINUOUS
 62
     1
 10
245.505533826876
 20
121.530911208423
 30
0.0
 11
246.00553384334
 21
121.819584612921
 31
0.0
  0
LINE
  5
   388
  8
0
  6
CONTINUOUS
 62
     1
 10
248.755534172058
 20
50.8195877075195
 30
0.0
 11
246.00553427126
 21
50.8195877075195
 31
0.0
  0
LINE
  5
   389
  8
0
  6
CONTINUOUS
 62
     1
 10
248.755534172058
 20
47.8195877075195
 30
0.0
 11
246.005534271272
 21
47.8195877075195
 31
0.0
  0
LINE
  5
   38A
  8
0
  6
CONTINUOUS
 62
     1
 10
245.50553400039
 20
50.5309116991661
 30
0.0
 11
246.005534016855
 21
50.8195869914227
 31
0.0
  0
LINE
  5
   38B
  8
0
  6
CONTINUOUS
 62
     1
 10
246.00553427126
 20
50.3802471160889
 30
0.0
 11
246.00553427126
 21
50.8195877075195
 31
0.0
  0
LINE
  5
   38C
  8
0
  6
CONTINUOUS
 62
     1
 10
246.005534271274
 20
49.8936138153076
 30
0.0
 11
246.005534271274
 21
50.3802471160889
 31
0.0
  0
LINE
  5
   38D
  8
0
  6
CONTINUOUS
 62
     1
 10
246.00553427124
 20
49.3195877075195
 30
0.0
 11
246.00553427124
 21
49.8936138153076
 31
0.0
  0
LINE
  5
   38E
  8
0
  6
CONTINUOUS
 62
     1
 10
246.005534271301
 20
48.7455635070801
 30
0.0
 11
246.005534271301
 21
49.3195877075195
 31
0.0
  0
LINE
  5
   38F
  8
0
  6
CONTINUOUS
 62
     1
 10
246.005534271274
 20
48.2589282989502
 30
0.0
 11
246.005534271274
 21
48.7455635070801
 31
0.0
  0
LINE
  5
   390
  8
0
  6
CONTINUOUS
 62
     1
 10
246.005534271262
 20
47.9337692260742
 30
0.0
 11
246.005534271262
 21
48.2589282989502
 31
0.0
  0
LINE
  5
   391
  8
0
  6
CONTINUOUS
 62
     1
 10
246.005534478435
 20
47.81958709377
 30
0.0
 11
245.50553446197
 21
48.1082623860265
 31
0.0
  0
LINE
  5
   392
  8
0
  6
CONTINUOUS
 62
     1
 10
246.005534271272
 20
47.8195877075195
 30
0.0
 11
246.005534271272
 21
47.9337692260742
 31
0.0
  0
LINE
  5
   393
  8
0
  6
CONTINUOUS
 62
     7
 10
248.755534172058
 20
125.072817831163
 30
0.0
 11
248.755534172058
 21
174.205160511568
 31
0.0
  0
LINE
  5
   394
  8
0
  6
CONTINUOUS
 62
     7
 10
247.755534172058
 20
112.319585800171
 30
0.0
 11
247.755534172058
 21
118.819585800171
 31
0.0
  0
LINE
  5
   395
  8
0
  6
CONTINUOUS
 62
     7
 10
248.755534172058
 20
24.5901154806956
 30
0.0
 11
248.755534172058
 21
44.5728197385117
 31
0.0
  0
LINE
  5
   396
  8
0
  6
CONTINUOUS
 62
     7
 10
247.755534172058
 20
25.1892212929162
 30
0.0
 11
247.755534172058
 21
47.8195877075195
 31
0.0
  0
LINE
  5
   397
  8
0
  6
CONTINUOUS
 62
     7
 10
248.755534172058
 20
122.069585800171
 30
0.0
 11
247.755534172058
 21
122.069585800171
 31
0.0
  0
LINE
  5
   398
  8
0
  6
CONTINUOUS
 62
     7
 10
248.755534172058
 20
118.569585800171
 30
0.0
 11
247.755534172058
 21
118.569585800171
 31
0.0
  0
LINE
  5
   399
  8
0
  6
CONTINUOUS
 62
     7
 10
248.755534172058
 20
112.819585800171
 30
0.0
 11
247.755534172058
 21
112.819585800171
 31
0.0
  0
LINE
  5
   39A
  8
0
  6
CONTINUOUS
 62
     7
 10
248.755534172058
 20
56.8195877075195
 30
0.0
 11
247.755534172058
 21
56.8195877075195
 31
0.0
  0
LINE
  5
   39B
  8
0
  6
CONTINUOUS
 62
     7
 10
248.755534172058
 20
51.0695877075195
 30
0.0
 11
247.755534172058
 21
51.0695877075195
 31
0.0
  0
LINE
  5
   39C
  8
0
  6
CONTINUOUS
 62
     7
 10
248.755534172058
 20
47.5695877075195
 30
0.0
 11
247.755534172058
 21
47.5695877075195
 31
0.0
  0
LINE
  5
   39D
  8
0
  6
CONTINUOUS
 62
     7
 10
247.755534172058
 20
50.8195877075195
 30
0.0
 11
247.755534172058
 21
57.3195877075195
 31
0.0
  0
LINE
  5
   39E
  8
0
  6
CONTINUOUS
 62
     7
 10
247.755534172058
 20
121.819585800171
 30
0.0
 11
247.755534172058
 21
174.305424363811
 31
0.0
  0
LINE
  5
   39F
  8
0
  6
CONTINUOUS
 62
     3
 10
251.479183872857
 20
22.9583611144943
 30
0.0
 11
245.263145095853
 21
26.6824260747856
 31
0.0
  0
INSERT
  5
   3A0
  8
0
  6
CONTINUOUS
 62
     7
  2
*HATCH95
 10
229.005508422852
 20
29.8292751312256
 30
0.0
 41
0.5
 42
0.5
 50
89.9999999480344
 43
0.5
  0
INSERT
  5
   3A1
  8
0
  6
CONTINUOUS
 62
     7
  2
*HATCH96
 10
229.005508422852
 20
29.8292751312256
 30
0.0
 41
0.5
 42
0.5
 50
89.9999999480344
 43
0.5
  0
INSERT
  5
   3A2
  8
0
  6
CONTINUOUS
 62
     7
  2
*HATCH97
 10
229.005508422852
 20
29.8292751312256
 30
0.0
 41
0.5
 42
0.5
 50
89.9999999480344
 43
0.5
  0
LINE
  5
   3A3
  8
0
  6
DASHDOT
 62
     5
 10
279.993567451598
 20
84.8228054158828
 30
0.0
 11
163.423169647357
 21
84.8228054158828
 31
0.0
  0
LINE
  5
   3A4
  8
0
  6
DASHDOT
 62
   218
 10
181.327892309393
 20
163.197805415883
 30
0.0
 11
169.003342751173
 21
163.197805415883
 31
0.0
  0
LINE
  5
   3A5
  8
0
  6
CONTINUOUS
 62
     7
 10
176.00553894043
 20
165.197805415883
 30
0.0
 11
174.00553894043
 21
165.197805415883
 31
0.0
  0
LINE
  5
   3A6
  8
0
  6
CONTINUOUS
 62
     7
 10
176.00553894043
 20
161.197805415883
 30
0.0
 11
174.00553894043
 21
161.197805415883
 31
0.0
  0
LINE
  5
   3A7
  8
0
  6
CONTINUOUS
 62
     7
 10
174.00553894043
 20
161.197805415883
 30
0.0
 11
174.00553894043
 21
165.197805415883
 31
0.0
  0
LINE
  5
   3A8
  8
0
  6
CONTINUOUS
 62
     7
 10
172.00553894043
 20
161.947805415883
 30
0.0
 11
172.00553894043
 21
164.447805415883
 31
0.0
  0
LINE
  5
   3A9
  8
0
  6
CONTINUOUS
 62
     7
 10
176.00553894043
 20
164.447805415883
 30
0.0
 11
172.00553894043
 21
164.447805415883
 31
0.0
  0
LINE
  5
   3AA
  8
0
  6
CONTINUOUS
 62
     7
 10
176.00553894043
 20
161.947805415883
 30
0.0
 11
172.00553894043
 21
161.947805415883
 31
0.0
  0
LINE
  5
   3AB
  8
0
  6
CONTINUOUS
 62
     7
 10
176.00553894043
 20
53.1978054158828
 30
0.0
 11
174.00553894043
 21
53.1978054158828
 31
0.0
  0
LINE
  5
   3AC
  8
0
  6
CONTINUOUS
 62
     7
 10
176.00553894043
 20
52.4478054158828
 30
0.0
 11
172.00553894043
 21
52.4478054158828
 31
0.0
  0
LINE
  5
   3AD
  8
0
  6
CONTINUOUS
 62
     7
 10
176.00553894043
 20
49.9478054158828
 30
0.0
 11
172.00553894043
 21
49.9478054158828
 31
0.0
  0
LINE
  5
   3AE
  8
0
  6
CONTINUOUS
 62
     7
 10
176.00553894043
 20
49.1978054158828
 30
0.0
 11
174.00553894043
 21
49.1978054158828
 31
0.0
  0
LINE
  5
   3AF
  8
0
  6
DASHDOT
 62
   218
 10
181.327892309393
 20
51.1978054158828
 30
0.0
 11
169.003342751173
 21
51.1978054158828
 31
0.0
  0
LINE
  5
   3B0
  8
0
  6
CONTINUOUS
 62
     7
 10
174.00553894043
 20
49.1978054158828
 30
0.0
 11
174.00553894043
 21
53.1978054158828
 31
0.0
  0
LINE
  5
   3B1
  8
0
  6
CONTINUOUS
 62
     7
 10
172.00553894043
 20
49.9478054158828
 30
0.0
 11
172.00553894043
 21
52.4478054158828
 31
0.0
  0
CIRCLE
  5
   3B2
  8
0
  6
CONTINUOUS
 62
     7
 10
174.763730044689
 20
162.431359933101
 30
0.0
 40
0.1
  0
LINE
  5
   3B3
  8
0
  6
CONTINUOUS
 62
     1
 10
250.505534172058
 20
125.072817831163
 30
0.0
 11
248.755534172058
 21
125.072817831163
 31
0.0
  0
LINE
  5
   3B4
  8
0
  6
CONTINUOUS
 62
     1
 10
250.505534172058
 20
44.5728197385117
 30
0.0
 11
248.755534172058
 21
44.5728197385117
 31
0.0
  0
LINE
  5
   3B5
  8
0
  6
CONTINUOUS
 62
     2
 10
228.255538464189
 20
116.297805310372
 30
0.0
 11
227.755538940404
 21
116.297805310372
 31
0.0
  0
LINE
  5
   3B6
  8
0
  6
CONTINUOUS
 62
     2
 10
225.755538940404
 20
116.297805310372
 30
0.0
 11
225.605537415147
 21
116.297805310372
 31
0.0
  0
LINE
  5
   3B7
  8
0
  6
DASHDOT
 62
     7
 10
185.11529123132
 20
163.19868147004
 30
0.0
 11
173.429263628706
 21
163.19868147004
 31
0.0
  0
LINE
  5
   3B8
  8
0
  6
CONTINUOUS
 62
   130
 10
214.505538940404
 20
169.397803784493
 30
0.0
 11
178.505538940404
 21
169.397803784493
 31
0.0
  0
LINE
  5
   3B9
  8
0
  6
CONTINUOUS
 62
   130
 10
214.505538940404
 20
162.547805310372
 30
0.0
 11
214.505538940404
 21
170.947805415883
 31
0.0
  0
LINE
  5
   3BA
  8
0
  6
CONTINUOUS
 62
   130
 10
214.505538940404
 20
127.197805415883
 30
0.0
 11
214.505538940404
 21
129.047935010079
 31
0.0
  0
LINE
  5
   3BB
  8
0
  6
CONTINUOUS
 62
   130
 10
178.505538940404
 20
127.197805415883
 30
0.0
 11
178.505538940404
 21
170.947805415883
 31
0.0
  0
LINE
  5
   3BC
  8
0
  6
CONTINUOUS
 62
   130
 10
180.505538940404
 20
153.797805310372
 30
0.0
 11
178.505538940404
 21
153.797805310372
 31
0.0
  0
LINE
  5
   3BD
  8
0
  6
CONTINUOUS
 62
   130
 10
180.505538940404
 20
153.797805310372
 30
0.0
 11
180.505538940404
 21
164.697805415883
 31
0.0
  0
LINE
  5
   3BE
  8
0
  6
CONTINUOUS
 62
   130
 10
212.805538177465
 20
159.047805310372
 30
0.0
 11
212.755538940404
 21
159.047805310372
 31
0.0
  0
LINE
  5
   3BF
  8
0
  6
CONTINUOUS
 62
   130
 10
214.505538940404
 20
162.547805310372
 30
0.0
 11
212.755538940404
 21
162.547805310372
 31
0.0
  0
LINE
  5
   3C0
  8
0
  6
CONTINUOUS
 62
   130
 10
214.505538940404
 20
129.047851086739
 30
0.0
 11
212.755538940404
 21
129.047851086739
 31
0.0
  0
LINE
  5
   3C1
  8
0
  6
CONTINUOUS
 62
   130
 10
212.805538177465
 20
132.547851086739
 30
0.0
 11
212.755538940404
 21
132.547851086739
 31
0.0
  0
LINE
  5
   3C2
  8
0
  6
CONTINUOUS
 62
   130
 10
212.755538940404
 20
129.047851086739
 30
0.0
 11
212.755538940404
 21
162.547805310372
 31
0.0
  0
LINE
  5
   3C3
  8
0
  6
CONTINUOUS
 62
   130
 10
177.50553894043
 20
160.979557629708
 30
0.0
 11
177.50553894043
 21
165.417805310372
 31
0.0
  0
LINE
  5
   3C4
  8
0
  6
CONTINUOUS
 62
   210
 10
225.605537414525
 20
169.397803784493
 30
0.0
 11
214.505538940404
 21
169.397803784493
 31
0.0
  0
LINE
  5
   3C5
  8
0
  6
CONTINUOUS
 62
   210
 10
214.505538940404
 20
129.047851086739
 30
0.0
 11
214.505538940404
 21
129.172805310372
 31
0.0
  0
LINE
  5
   3C6
  8
0
  6
CONTINUOUS
 62
   210
 10
214.505538940404
 20
162.422805310372
 30
0.0
 11
214.505538940404
 21
162.547805310372
 31
0.0
  0
LINE
  5
   3C7
  8
0
  6
CONTINUOUS
 62
   210
 10
227.005538940404
 20
158.697805310372
 30
0.0
 11
227.005538940404
 21
170.947805415883
 31
0.0
  0
LINE
  5
   3C8
  8
0
  6
CONTINUOUS
 62
   210
 10
227.005538940404
 20
162.672805310372
 30
0.0
 11
225.605537414525
 21
162.672805310372
 31
0.0
  0
LINE
  5
   3C9
  8
0
  6
CONTINUOUS
 62
   210
 10
225.755538940404
 20
132.672805310372
 30
0.0
 11
225.605537414525
 21
132.672805310372
 31
0.0
  0
LINE
  5
   3CA
  8
0
  6
CONTINUOUS
 62
   210
 10
225.755538940404
 20
128.922805310372
 30
0.0
 11
225.605537414525
 21
128.922805310372
 31
0.0
  0
LINE
  5
   3CB
  8
0
  6
CONTINUOUS
 62
   210
 10
225.755538940404
 20
128.297805310372
 30
0.0
 11
225.605537414525
 21
128.297805310372
 31
0.0
  0
LINE
  5
   3CC
  8
0
  6
CONTINUOUS
 62
   210
 10
225.605537414525
 20
128.447805415883
 30
0.0
 11
225.605537414525
 21
169.397803784493
 31
0.0
  0
LINE
  5
   3CD
  8
0
  6
CONTINUOUS
 62
   210
 10
214.505538940404
 20
129.172805310372
 30
0.0
 11
213.055538177464
 21
129.172805310372
 31
0.0
  0
LINE
  5
   3CE
  8
0
  6
CONTINUOUS
 62
   210
 10
213.055539068442
 20
129.172807480633
 30
0.0
 11
212.878762179053
 21
129.246034409724
 31
0.0
  0
LINE
  5
   3CF
  8
0
  6
CONTINUOUS
 62
   210
 10
212.878760781285
 20
129.246024748815
 30
0.0
 11
212.805537667163
 21
129.422797815615
 31
0.0
  0
LINE
  5
   3D0
  8
0
  6
CONTINUOUS
 62
   210
 10
212.805538177465
 20
129.422805310372
 30
0.0
 11
212.805538177465
 21
132.172805310372
 31
0.0
  0
LINE
  5
   3D1
  8
0
  6
CONTINUOUS
 62
   210
 10
212.805538177465
 20
159.422805310372
 30
0.0
 11
212.805538177465
 21
162.172805310372
 31
0.0
  0
LINE
  5
   3D2
  8
0
  6
CONTINUOUS
 62
   210
 10
212.80553396818
 20
162.172793439134
 30
0.0
 11
212.878757082302
 21
162.349566505933
 31
0.0
  0
LINE
  5
   3D3
  8
0
  6
CONTINUOUS
 62
   210
 10
212.878764007849
 20
162.349582141006
 30
0.0
 11
213.055540897237
 21
162.422809070096
 31
0.0
  0
LINE
  5
   3D4
  8
0
  6
CONTINUOUS
 62
   210
 10
214.505538940404
 20
162.422805310372
 30
0.0
 11
213.055538177464
 21
162.422805310372
 31
0.0
  0
LINE
  5
   3D5
  8
0
  6
CONTINUOUS
 62
   210
 10
212.805538177465
 20
132.172805310372
 30
0.0
 11
212.805538177465
 21
159.422805310372
 31
0.0
  0
LINE
  5
   3D6
  8
0
  6
CONTINUOUS
 62
     2
 10
225.755538940404
 20
116.447805310372
 30
0.0
 11
225.755538940404
 21
158.697805310372
 31
0.0
  0
LINE
  5
   3D7
  8
0
  6
CONTINUOUS
 62
     2
 10
228.255538940404
 20
116.947805310372
 30
0.0
 11
228.255538940404
 21
151.947805310372
 31
0.0
  0
LINE
  5
   3D8
  8
0
  6
CONTINUOUS
 62
     2
 10
228.255538940404
 20
152.447805310372
 30
0.0
 11
228.255538940404
 21
158.697805310372
 31
0.0
  0
LINE
  5
   3D9
  8
0
  6
CONTINUOUS
 62
     2
 10
227.005538940404
 20
158.697805310372
 30
0.0
 11
225.755538940404
 21
158.697805310372
 31
0.0
  0
LINE
  5
   3DA
  8
0
  6
CONTINUOUS
 62
     2
 10
227.755538940404
 20
116.297805310372
 30
0.0
 11
225.755538940404
 21
116.297805310372
 31
0.0
  0
LINE
  5
   3DB
  8
0
  6
CONTINUOUS
 62
     2
 10
228.255538940404
 20
152.447805310372
 30
0.0
 11
227.755538940404
 21
152.447805310372
 31
0.0
  0
LINE
  5
   3DC
  8
0
  6
CONTINUOUS
 62
     2
 10
228.255538940404
 20
151.947805310372
 30
0.0
 11
227.755538940404
 21
151.947805310372
 31
0.0
  0
LINE
  5
   3DD
  8
0
  6
CONTINUOUS
 62
     2
 10
227.755538940404
 20
151.947805310372
 30
0.0
 11
227.755538940404
 21
152.447805310372
 31
0.0
  0
LINE
  5
   3DE
  8
0
  6
CONTINUOUS
 62
     2
 10
227.755538940404
 20
116.447805310372
 30
0.0
 11
227.755538940404
 21
116.947805310372
 31
0.0
  0
LINE
  5
   3DF
  8
0
  6
CONTINUOUS
 62
     2
 10
227.755538940404
 20
116.947805310372
 30
0.0
 11
226.005538940404
 21
116.947805310372
 31
0.0
  0
LINE
  5
   3E0
  8
0
  6
CONTINUOUS
 62
     2
 10
226.005538940404
 20
116.947805310372
 30
0.0
 11
226.005538940404
 21
158.697805310372
 31
0.0
  0
LINE
  5
   3E1
  8
0
  6
CONTINUOUS
 62
   130
 10
178.505538940404
 20
165.417805310372
 30
0.0
 11
177.50553894043
 21
165.417805310372
 31
0.0
  0
LINE
  5
   3E2
  8
0
  6
CONTINUOUS
 62
   130
 10
178.505538940404
 20
160.979557629708
 30
0.0
 11
177.505538940404
 21
160.979557629708
 31
0.0
  0
LINE
  5
   3E3
  8
0
  6
CONTINUOUS
 62
   210
 10
227.005538940404
 20
158.922805310372
 30
0.0
 11
225.605537414525
 21
158.922805310372
 31
0.0
  0
LINE
  5
   3E4
  8
0
  6
CONTINUOUS
 62
   210
 10
225.755534016095
 20
134.106824526945
 30
0.0
 11
225.605536303374
 21
134.172803532036
 31
0.0
  0
LINE
  5
   3E5
  8
0
  6
CONTINUOUS
 62
   210
 10
225.605539472358
 20
157.422807681929
 30
0.0
 11
225.75554100194
 21
157.488786684446
 31
0.0
  0
LINE
  5
   3E6
  8
0
  6
CONTINUOUS
 62
     2
 10
228.255538940404
 20
116.947805310372
 30
0.0
 11
227.755538940404
 21
116.947805310372
 31
0.0
  0
LINE
  5
   3E7
  8
0
  6
CONTINUOUS
 62
     2
 10
228.255538940404
 20
158.697805310372
 30
0.0
 11
227.005538940404
 21
158.697805310372
 31
0.0
  0
LINE
  5
   3E8
  8
0
  6
CONTINUOUS
 62
   130
 10
214.505538940404
 20
170.947805415883
 30
0.0
 11
178.505538940404
 21
170.947805415883
 31
0.0
  0
LINE
  5
   3E9
  8
0
  6
CONTINUOUS
 62
   210
 10
227.005538940404
 20
170.947805415883
 30
0.0
 11
214.505538940404
 21
170.947805415883
 31
0.0
  0
LINE
  5
   3EA
  8
0
  6
CONTINUOUS
 62
   130
 10
225.755538940404
 20
127.197805415883
 30
0.0
 11
178.505538940404
 21
127.197805415883
 31
0.0
  0
POINT
  5
   3EB
  8
0
  6
CONTINUOUS
 62
     7
 10
178.505538940404
 20
128.447805415883
 30
0.0
  0
LINE
  5
   3EC
  8
0
  6
CONTINUOUS
 62
     7
 10
177.50553894043
 20
118.263616573109
 30
0.0
 11
177.50553894043
 21
123.197790157094
 31
0.0
  0
LINE
  5
   3ED
  8
0
  6
CONTINUOUS
 62
     2
 10
227.755538940404
 20
116.447805310372
 30
0.0
 11
225.755538940404
 21
116.447805310372
 31
0.0
  0
LINE
  5
   3EE
  8
0
  6
CONTINUOUS
 62
     2
 10
227.005538940404
 20
116.297805310372
 30
0.0
 11
227.005538940404
 21
116.447805310372
 31
0.0
  0
LINE
  5
   3EF
  8
0
  6
CONTINUOUS
 62
   130
 10
180.505538940404
 20
164.697805415883
 30
0.0
 11
178.505538940404
 21
164.697805415883
 31
0.0
  0
LINE
  5
   3F0
  8
0
  6
CONTINUOUS
 62
     7
 10
180.505538463593
 20
49.6978130452773
 30
0.0
 11
178.50553894043
 21
49.6978130452773
 31
0.0
  0
LINE
  5
   3F1
  8
0
  6
CONTINUOUS
 62
     1
 10
250.505534172058
 20
111.322805415883
 30
0.0
 11
247.755534172058
 21
111.322805415883
 31
0.0
  0
LINE
  5
   3F2
  8
0
  6
CONTINUOUS
 62
     1
 10
250.505534172058
 20
58.3228054158828
 30
0.0
 11
247.755534172058
 21
58.3228054158828
 31
0.0
  0
LINE
  5
   3F3
  8
0
  6
CONTINUOUS
 62
     1
 10
248.755534172058
 20
112.319585800171
 30
0.0
 11
248.755534172058
 21
125.072817831163
 31
0.0
  0
INSERT
  5
   3F4
  8
0
  6
CONTINUOUS
 62
     7
  2
*HATCH98
 10
229.005508422852
 20
29.8292751312256
 30
0.0
 41
0.5
 42
0.5
 50
89.9999999480344
 43
0.5
  0
INSERT
  5
   3F5
  8
0
  6
CONTINUOUS
 62
     7
  2
*HATCH99
 10
229.005508422852
 20
29.8292751312256
 30
0.0
 41
0.5
 42
0.5
 50
89.9999999480344
 43
0.5
  0
POINT
  5
   3F6
  8
0
  6
CONTINUOUS
 62
     7
 10
229.256194131076
 20
84.8228054158828
 30
0.0
  0
LINE
  5
   3F7
  8
0
  6
CONTINUOUS
 62
     1
 10
250.505534172058
 20
110.969040482545
 30
0.0
 11
250.505534172058
 21
125.072817831163
 31
0.0
  0
LINE
  5
   3F8
  8
0
  6
CONTINUOUS
 62
     7
 10
252.040830240928
 20
173.875764071945
 30
0.0
 11
243.997880392976
 21
174.682181207096
 31
0.0
  0
INSERT
  5
   3F9
  8
0
  6
CONTINUOUS
 62
     7
  2
*HATCH100
 10
229.005508422852
 20
29.8292751312256
 30
0.0
 41
0.5
 42
0.5
 50
89.9999999480344
 43
0.5
  0
INSERT
  5
   3FA
  8
255
  6
CONTINUOUS
 62
     7
  2
FRONT_BL_
 10
177.506217333746
 20
29.8292504232247
 30
0.0
 41
0.5
 42
0.5
 50
3.50835464724173E-15
 43
0.5
  0
LINE
  5
   3FB
  8
0
  6
CONTINUOUS
 62
     7
 10
247.756194339692
 20
123.322805415883
 30
0.0
 11
246.506198154389
 21
123.322805415883
 31
0.0
  0
LINE
  5
   3FC
  8
0
  6
CONTINUOUS
 62
     7
 10
246.506198154389
 20
121.819500237789
 30
0.0
 11
246.506198154389
 21
123.322805415883
 31
0.0
  0
ARC
  5
   3FD
  8
0
  6
CONTINUOUS
 62
     7
 10
246.00620783058
 20
119.322789392416
 30
0.0
 40
1.74998552797211
 50
269.999653347372
 51
343.285902464271
  0
LINE
  5
   3FE
  8
0
  6
CONTINUOUS
 62
     7
 10
246.006198154389
 20
118.822805415883
 30
0.0
 11
244.756198154389
 21
118.822805415883
 31
0.0
  0
LINE
  5
   3FF
  8
0
  6
CONTINUOUS
 62
     7
 10
246.006198154389
 20
117.572805415883
 30
0.0
 11
244.756198154389
 21
117.572805415883
 31
0.0
  0
ARC
  5
   400
  8
0
  6
CONTINUOUS
 62
     7
 10
244.756176030314
 20
117.072825863274
 30
0.0
 40
0.499974910621752
 50
449.997764146756
 51
540.001169763975
  0
ARC
  5
   401
  8
0
  6
CONTINUOUS
 62
     7
 10
244.756205481142
 20
117.072799072731
 30
0.0
 40
1.75000922655776
 50
90.0001868382065
 51
179.999680653411
  0
LINE
  5
   402
  8
0
  6
CONTINUOUS
 62
     7
 10
244.256198154389
 20
111.822805415883
 30
0.0
 11
244.256198154389
 21
117.072805415883
 31
0.0
  0
LINE
  5
   403
  8
0
  6
CONTINUOUS
 62
     7
 10
244.256198154389
 20
116.322805415883
 30
0.0
 11
243.006195293366
 21
116.322805415883
 31
0.0
  0
INSERT
  5
   404
  8
0
  6
CONTINUOUS
 62
     7
  2
*HATCH101
 10
229.005508422852
 20
29.8292751312256
 30
0.0
 41
0.5
 42
0.5
 50
89.9999999480344
 43
0.5
  0
LINE
  5
   405
  8
0
  6
CONTINUOUS
 62
     7
 10
243.006195293366
 20
111.822805415883
 30
0.0
 11
243.006195293366
 21
117.072805415883
 31
0.0
  0
LINE
  5
   406
  8
0
  6
CONTINUOUS
 62
     7
 10
244.256198154389
 20
111.822805415883
 30
0.0
 11
243.006195293366
 21
111.822805415883
 31
0.0
  0
INSERT
  5
   407
  8
0
  6
CONTINUOUS
 62
     7
  2
*UDIM589
 10
0.0
 20
0.0
 30
0.0
  0
TEXT
  5
   408
  8
0
  6
CONTINUOUS
 62
     7
 10
289.788112648059
 20
76.4525010137582
 30
0.0
 40
3.00000002980232
  1
=    =
 50
89.9999999480344
 41
0.916666689183977
 72
     1
 11
288.288112640381
 21
84.4275012910366
 31
0.0
 73
     2
  0
INSERT
  5
   409
  8
0
  6
CONTINUOUS
 62
     7
  2
*UDIM590
 10
0.0
 20
0.0
 30
0.0
  0
INSERT
  5
   40A
  8
0
  6
CONTINUOUS
 62
     7
  2
*UDIM591
 10
0.0
 20
0.0
 30
0.0
  0
TEXT
  5
   40B
  8
0
  6
CONTINUOUS
 62
     7
 10
291.232759158445
 20
83.6945072464063
 30
0.0
 40
3.00000002980232
  1
X
 50
359.999999948034
 41
0.916666604744064
 72
     2
 11
293.432759027315
 21
83.694507244422
 31
0.0
  0
LINE
  5
   40C
  8
0
  6
CONTINUOUS
 62
     7
 10
86.5297088623047
 20
-69.4212913513184
 30
0.0
 11
114.529708862305
 21
-69.4212913513184
 31
0.0
  0
LINE
  5
   40D
  8
0
  6
CONTINUOUS
 62
     7
 10
86.5297088623047
 20
-41.4212913513184
 30
0.0
 11
114.529708862305
 21
-41.4212913513184
 31
0.0
  0
LINE
  5
   40E
  8
0
  6
CONTINUOUS
 62
     7
 10
86.5297088623047
 20
-41.4212913513184
 30
0.0
 11
86.5297088623047
 21
-69.4212913513184
 31
0.0
  0
LINE
  5
   40F
  8
0
  6
CONTINUOUS
 62
     7
 10
114.529708862305
 20
-41.4212913513184
 30
0.0
 11
114.529708862305
 21
-69.4212913513184
 31
0.0
  0
LINE
  5
   410
  8
0
  6
DASHDOT
 62
     7
 10
100.529708862305
 20
-54.6447227701775
 30
0.0
 11
100.529708862305
 21
-79.137315316915
 31
0.0
  0
CIRCLE
  5
   411
  8
0
  6
CONTINUOUS
 62
     7
 10
90.5297088623047
 20
-37.6712913513184
 30
0.0
 40
0.875
  0
CIRCLE
  5
   412
  8
0
  6
CONTINUOUS
 62
     7
 10
110.529708862305
 20
-37.6712913513184
 30
0.0
 40
0.875
  0
CIRCLE
  5
   413
  8
0
  6
CONTINUOUS
 62
     7
 10
110.529708862305
 20
-73.1712913513184
 30
0.0
 40
0.875
  0
CIRCLE
  5
   414
  8
0
  6
CONTINUOUS
 62
     7
 10
90.5297088623047
 20
-73.1712913513184
 30
0.0
 40
0.875
  0
LINE
  5
   415
  8
0
  6
CONTINUOUS
 62
     3
 10
82.5652131928902
 20
-35.3214910540271
 30
0.0
 11
121.349707026583
 21
-35.3214910540271
 31
0.0
  0
LINE
  5
   416
  8
0
  6
CONTINUOUS
 62
     3
 10
82.5652131928902
 20
-76.5267721787823
 30
0.0
 11
121.349707026583
 21
-76.5267721787823
 31
0.0
  0
LINE
  5
   417
  8
0
  6
CONTINUOUS
 62
     3
 10
82.5652131928902
 20
-35.3214910540271
 30
0.0
 11
82.5652131928902
 21
-76.5267721787823
 31
0.0
  0
LINE
  5
   418
  8
0
  6
DASHDOT
 62
     7
 10
110.529708862305
 20
-36.0462913513184
 30
0.0
 11
110.529708862305
 21
-39.2962913513184
 31
0.0
  0
LINE
  5
   419
  8
0
  6
DASHDOT
 62
     7
 10
108.904708862305
 20
-37.6712913513184
 30
0.0
 11
112.154708862305
 21
-37.6712913513184
 31
0.0
  0
LINE
  5
   41A
  8
0
  6
DASHDOT
 62
     7
 10
90.5297088623047
 20
-36.0462913513184
 30
0.0
 11
90.5297088623047
 21
-39.2962913513184
 31
0.0
  0
LINE
  5
   41B
  8
0
  6
DASHDOT
 62
     7
 10
88.9047088623047
 20
-37.6712913513184
 30
0.0
 11
92.7724923388459
 21
-37.6712913513184
 31
0.0
  0
LINE
  5
   41C
  8
0
  6
DASHDOT
 62
     7
 10
90.5297088623047
 20
-71.5462913513184
 30
0.0
 11
90.5297088623047
 21
-74.7962913513184
 31
0.0
  0
LINE
  5
   41D
  8
0
  6
DASHDOT
 62
     7
 10
88.9047088623047
 20
-73.1712913513184
 30
0.0
 11
92.1547088623047
 21
-73.1712913513184
 31
0.0
  0
LINE
  5
   41E
  8
0
  6
DASHDOT
 62
     7
 10
110.529708862305
 20
-71.5462913513184
 30
0.0
 11
110.529708862305
 21
-74.7962913513184
 31
0.0
  0
LINE
  5
   41F
  8
0
  6
DASHDOT
 62
     7
 10
108.904708862305
 20
-73.1712913513184
 30
0.0
 11
112.154708862305
 21
-73.1712913513184
 31
0.0
  0
LINE
  5
   420
  8
0
  6
DASHDOT
 62
     7
 10
79.7674117265868
 20
-55.4212913513184
 30
0.0
 11
126.326817965565
 21
-55.4212913513184
 31
0.0
  0
CIRCLE
  5
   421
  8
0
  6
CONTINUOUS
 62
     7
 10
106.154708862305
 20
-37.2962913513184
 30
0.0
 40
0.5
  0
CIRCLE
  5
   422
  8
0
  6
CONTINUOUS
 62
     7
 10
94.9047088623047
 20
-37.2962913513184
 30
0.0
 40
0.5
  0
CIRCLE
  5
   423
  8
0
  6
CONTINUOUS
 62
     7
 10
94.9047088623047
 20
-37.2962913513184
 30
0.0
 40
0.92
  0
CIRCLE
  5
   424
  8
0
  6
CONTINUOUS
 62
     7
 10
106.154708862305
 20
-37.2962913513184
 30
0.0
 40
0.92
  0
LINE
  5
   425
  8
0
  6
DASHDOT
 62
     7
 10
106.154708862305
 20
-35.6262913513184
 30
0.0
 11
106.154708862305
 21
-38.9662913513184
 31
0.0
  0
LINE
  5
   426
  8
0
  6
DASHDOT
 62
     7
 10
104.484708862305
 20
-37.2962913513184
 30
0.0
 11
108.627786472093
 21
-37.2962913513184
 31
0.0
  0
LINE
  5
   427
  8
0
  6
DASHDOT
 62
     7
 10
94.9047088623047
 20
-35.6262913513184
 30
0.0
 11
94.9047088623047
 21
-38.9662913513184
 31
0.0
  0
LINE
  5
   428
  8
0
  6
DASHDOT
 62
     7
 10
92.6321800013836
 20
-37.2962913513184
 30
0.0
 11
104.699041023147
 21
-37.2962913513184
 31
0.0
  0
LINE
  5
   429
  8
0
  6
DASHDOT
 62
     7
 10
100.529708862305
 20
-31.9842802700059
 30
0.0
 11
100.529708862305
 21
-40.4731766864789
 31
0.0
  0
LINE
  5
   42A
  8
0
  6
DASHDOT
 62
     7
 10
100.529708862305
 20
-21.1150471284791
 30
0.0
 11
100.529708862305
 21
-23.2250057835022
 31
0.0
  0
LINE
  5
   42B
  8
0
  6
CONTINUOUS
 62
     3
 10
121.349707026583
 20
-35.3214910540271
 30
0.0
 11
121.349707026583
 21
-76.5267721787823
 31
0.0
  0
TEXT
  5
   42C
  8
0
  6
CONTINUOUS
 62
     1
 10
138.296893405681
 20
-193.480722232976
 30
0.0
 40
2.00000008940697
  1
M4352 96-12-17
 50
359.999999844103
 41
0.749999861419206
 72
     2
 11
158.996890498464
 21
-193.480722289195
 31
0.0
  0
TEXT
  5
   42D
  8
0
  6
CONTINUOUS
 62
     1
 10
130.442901620537
 20
-178.463390255275
 30
0.0
 40
2.00000008940697
  1
96-11-19 BARCELLA
 50
359.999999844103
 41
0.749999861419206
 72
     2
 11
155.642898083001
 21
-178.463390323715
 31
0.0
  0
TEXT
  5
   42E
  8
0
  6
CONTINUOUS
 62
     1
 10
231.973709124863
 20
-204.689861207397
 30
0.0
 40
4.00000017881393
  1
605032/301
 50
359.999999844103
 41
0.937499973922969
 72
     2
 11
268.723709724635
 21
-204.689861307206
 31
0.0
  0
TEXT
  5
   42F
  8
0
  6
CONTINUOUS
 62
     1
 10
250.059402479634
 20
-195.708278548917
 30
0.0
 40
3.00000002980232
  1
S3X-S4X
 50
359.999999844103
 41
0.916666604744064
 72
     2
 11
268.75940139781
 21
-195.708278599704
 31
0.0
  0
TEXT
  5
   430
  8
0
  6
CONTINUOUS
 62
     7
 10
96.7423500507049
 20
-31.3152963549697
 30
0.0
 40
3.00000002980232
  1
= =
 50
359.999999844103
 41
0.916666604744064
 72
     2
 11
104.442349602677
 21
-31.315296375882
 31
0.0
  0
INSERT
  5
   431
  8
0
  6
CONTINUOUS
 62
     7
  2
*UDIM592
 10
0.0
 20
0.0
 30
0.0
  0
INSERT
  5
   432
  8
0
  6
CONTINUOUS
 62
     7
  2
*UDIM593
 10
0.0
 20
0.0
 30
0.0
  0
TEXT
  5
   433
  8
0
  6
CONTINUOUS
 62
     7
 10
93.9758861342044
 20
-88.5858424271799
 30
0.0
 40
3.00000002980232
  1
=   =
 50
359.999999844103
 41
0.916666604744064
 72
     2
 11
107.175885369278
 21
-88.5858424630296
 31
0.0
  0
TEXT
  5
   434
  8
0
  6
CONTINUOUS
 62
     7
 10
91.9241265728048
 20
-97.9006618194863
 30
0.0
 40
3.00000002980232
  1
=    =
 50
359.999999844103
 41
0.916666604744064
 72
     2
 11
107.87412564943
 21
-97.9006618628046
 31
0.0
  0
TEXT
  5
   435
  8
0
  6
CONTINUOUS
 62
     7
 10
79.0463553103046
 20
-64.0994889091402
 30
0.0
 40
3.00000002980232
  1
=     =
 50
449.999999844103
 41
0.916666604744064
 72
     2
 11
79.0463553610682
 21
-45.3994899909645
 31
0.0
  0
TEXT
  5
   436
  8
0
  6
CONTINUOUS
 62
     7
 10
70.5962265071289
 20
-67.9224265576352
 30
0.0
 40
3.00000002980232
  1
=       =
 50
449.999999844103
 41
0.916666604744064
 72
     2
 11
70.5962265728229
 21
-43.7224279563575
 31
0.0
  0
INSERT
  5
   437
  8
0
  6
CONTINUOUS
 62
     7
  2
*UDIM594
 10
0.0
 20
0.0
 30
0.0
  0
INSERT
  5
   438
  8
0
  6
CONTINUOUS
 62
     7
  2
*UDIM595
 10
0.0
 20
0.0
 30
0.0
  0
INSERT
  5
   439
  8
0
  6
CONTINUOUS
 62
     7
  2
*UDIM596
 10
0.0
 20
0.0
 30
0.0
  0
INSERT
  5
   43A
  8
0
  6
CONTINUOUS
 62
     7
  2
*UDIM597
 10
0.0
 20
0.0
 30
0.0
  0
INSERT
  5
   43B
  8
0
  6
CONTINUOUS
 62
     7
  2
*UDIM598
 10
0.0
 20
0.0
 30
0.0
  0
TEXT
  5
   43C
  8
0
  6
CONTINUOUS
 62
     7
 10
99.7489710945856
 20
-112.096363136763
 30
0.0
 40
3.00000002980232
  1
Y
 50
359.999999844103
 41
0.916666604744064
 72
     2
 11
101.948970963455
 21
-112.096363142738
 31
0.0
  0
TEXT
  5
   43D
  8
0
  6
CONTINUOUS
 62
     7
 10
100.073348631359
 20
-20.8268395161578
 30
0.0
 40
3.00000002980232
  1
Y
 50
359.999999844103
 41
0.916666604744064
 72
     2
 11
102.273348500229
 21
-20.8268395221327
 31
0.0
  0
TEXT
  5
   43E
  8
0
  6
CONTINUOUS
 62
     7
 10
131.260658373333
 20
-56.0704184269854
 30
0.0
 40
3.00000002980232
  1
X
 50
359.999999844103
 41
0.916666604744064
 72
     2
 11
133.460658242203
 21
-56.0704184329604
 31
0.0
  0
TEXT
  5
   43F
  8
0
  6
CONTINUOUS
 62
     7
 10
51.1131478447687
 20
-56.8299358582446
 30
0.0
 40
3.00000002980232
  1
X
 50
359.999999844103
 41
0.916666604744064
 72
     2
 11
53.3131477136385
 21
-56.8299358642195
 31
0.0
  0
TEXT
  5
   440
  8
0
  6
CONTINUOUS
 62
     1
 10
222.587477454802
 20
-177.398006409372
 30
0.0
 40
2.00000008940697
  1
3-4POLE LOW VOLTAGE M.C.C.B SERIES ISOMAX
 50
359.999999844103
 41
0.687499997764826
 72
     1
 11
250.637478616828
 21
-176.398006440849
 31
0.0
 73
     2
  0
TEXT
  5
   441
  8
0
  6
CONTINUOUS
 62
     1
 10
219.149977348084
 20
-180.398006400036
 30
0.0
 40
2.00000008940697
  1
FIXED VERSION FRONT PANEL WITH PADLOCK DEVICES
 50
359.999999844103
 41
0.687499997764826
 72
     1
 11
250.637478652602
 21
-179.398006440849
 31
0.0
 73
     2
  0
TEXT
  5
   442
  8
0
  6
CONTINUOUS
 62
     1
 10
214.97737571921
 20
-185.468273122154
 30
0.0
 40
2.00000008940697
  1
INTERR.AUTOMATICO SERIE ISOMAX TRIP-TETRAP.
 50
359.999999844103
 41
0.749999861419206
 72
     1
 11
247.077371221775
 21
-184.468273164631
 31
0.0
 73
     2
  0
TEXT
  5
   443
  8
0
  6
CONTINUOUS
 62
     1
 10
213.477375965091
 20
-188.46827311808
 30
0.0
 40
2.00000008940697
  1
ESECUZ.FISSA FRONTALE PER BLOCCHI A LUCCHETTI
 50
359.999999844103
 41
0.749999861419206
 72
     1
 11
247.077371257549
 21
-187.468273164631
 31
0.0
 73
     2
  0
LINE
  5
   444
  8
0
  6
CONTINUOUS
 62
     7
 10
100.995620727539
 20
14.9807316941817
 30
0.0
 11
100.995620727539
 21
-8.93578979202108
 31
0.0
  0
LINE
  5
   445
  8
0
  6
CONTINUOUS
 62
     7
 10
98.9956207275391
 20
14.9807316941817
 30
0.0
 11
98.9956207275391
 21
-8.93578979202108
 31
0.0
  0
LINE
  5
   446
  8
0
  6
DASHDOT
 62
     7
 10
95.7930176251421
 20
3.02247095108032
 30
0.0
 11
104.219236817579
 21
3.02247095108032
 31
0.0
  0
POINT
  5
   447
  8
0
  6
CONTINUOUS
 62
     7
 10
98.9956207275391
 20
5.02247095108032
 30
0.0
  0
POINT
  5
   448
  8
0
  6
CONTINUOUS
 62
     7
 10
98.9956207275391
 20
1.02247095108032
 30
0.0
  0
LINE
  5
   449
  8
0
  6
CONTINUOUS
 62
     7
 10
100.995620727539
 20
6.70067021343488
 30
0.0
 11
98.9956207275391
 21
5.02247095108032
 31
0.0
  0
LINE
  5
   44A
  8
0
  6
CONTINUOUS
 62
     7
 10
98.9956207275391
 20
1.02247095108032
 30
0.0
 11
100.995620727539
 21
-0.655728311274237
 31
0.0
  0
LINE
  5
   44B
  8
0
  6
CONTINUOUS
 62
     7
 10
98.9956207275391
 20
-6.47752904891968
 30
0.0
 11
100.995620727539
 21
-6.47752904891968
 31
0.0
  0
CIRCLE
  5
   44C
  8
0
  6
CONTINUOUS
 62
     7
 10
99.9956207275391
 20
3.02247095108032
 30
0.0
 40
12.0
  0
LINE
  5
   44D
  8
0
  6
CONTINUOUS
 62
     7
 10
92.9956283569336
 20
-1.47752904891968
 30
0.0
 11
95.4956283569336
 21
-1.47752904891968
 31
0.0
  0
LINE
  5
   44E
  8
0
  6
CONTINUOUS
 62
     7
 10
96.4956283569336
 20
7.52247095108032
 30
0.0
 11
96.4956283569336
 21
-0.477529048919678
 31
0.0
  0
LINE
  5
   44F
  8
0
  6
CONTINUOUS
 62
     7
 10
96.4956283569336
 20
7.52247095108032
 30
0.0
 11
98.9956207275391
 21
7.52247095108032
 31
0.0
  0
LINE
  5
   450
  8
0
  6
CONTINUOUS
 62
     7
 10
92.9956283569336
 20
-3.97752904891968
 30
0.0
 11
95.4956283569336
 21
-3.97752904891968
 31
0.0
  0
LINE
  5
   451
  8
0
  6
CONTINUOUS
 62
     7
 10
91.9956283569336
 20
-4.97752904891968
 30
0.0
 11
91.9956283569336
 21
-5.9218077828509
 31
0.0
  0
ARC
  5
   452
  8
0
  6
CONTINUOUS
 62
     7
 10
95.4956325042136
 20
-0.477529720258389
 30
0.0
 40
0.999996977799109
 50
629.999840735313
 51
720.000252836193
  0
ARC
  5
   453
  8
0
  6
CONTINUOUS
 62
     7
 10
92.9956430104403
 20
-4.97754173522415
 30
0.0
 40
3.50001845311552
 50
450.000186734275
 51
513.408761128067
  0
ARC
  5
   454
  8
0
  6
CONTINUOUS
 62
     7
 10
92.9955841087837
 20
-4.97748815413729
 30
0.0
 40
0.999949821243504
 50
449.997764042825
 51
540.001169660043
  0
ARC
  5
   455
  8
0
  6
CONTINUOUS
 62
     7
 10
95.4956477093153
 20
-0.477561095853957
 30
0.0
 40
3.49997105594423
 50
629.999653243441
 51
720.000420168909
  0
INSERT
  5
   456
  8
0
  6
CONTINUOUS
 62
     7
  2
*HATCH102
 10
99.9956207275391
 20
3.02247095108032
 30
0.0
 50
269.999999844103
  0
INSERT
  5
   457
  8
0
  6
CONTINUOUS
 62
     7
  2
*HATCH103
 10
99.9956207275391
 20
3.02247095108032
 30
0.0
 50
269.999999844103
  0
LINE
  5
   458
  8
0
  6
CONTINUOUS
 62
     7
 10
91.4200049688182
 20
-5.37150393325062
 30
0.0
 11
85.0492598048123
 21
-11.6073097815661
 31
0.0
  0
LINE
  5
   459
  8
0
  6
CONTINUOUS
 62
     7
 10
85.0492598048123
 20
-30.384233534035
 30
0.0
 11
93.3344914929437
 21
-37.1339795307718
 31
0.0
  0
LINE
  5
   45A
  8
0
  6
CONTINUOUS
 62
     7
 10
87.8499780352035
 20
-34.6727373776003
 30
0.0
 11
93.3344914929436
 21
-37.1339795307718
 31
0.0
  0
LINE
  5
   45B
  8
0
  6
CONTINUOUS
 62
     7
 10
90.0874590935371
 20
-32.6370316735802
 30
0.0
 11
93.3344914929437
 21
-37.1339795307718
 31
0.0
  0
LINE
  5
   45C
  8
0
  6
CONTINUOUS
 62
     7
 10
85.0492598048123
 20
-11.6073097815661
 30
0.0
 11
85.0492598048123
 21
-30.384233534035
 31
0.0
  0
INSERT
  5
   45D
  8
0
  6
CONTINUOUS
 62
     7
  2
*UDIM599
 10
0.0
 20
0.0
 30
0.0
  0
INSERT
  5
   45E
  8
0
  6
CONTINUOUS
 62
     7
  2
*UDIM600
 10
0.0
 20
0.0
 30
0.0
  0
ENDSEC
  0
EOF
