  0
SECTION
  2
HEADER
  9
$ACADVER
  1
AC1009
  9
$DWGCODEPAGE
  3
iso8859-1
  9
$INSBASE
 10
0.0
 20
0.0
 30
0.0
  9
$EXTMIN
 10
1.0E20
 20
1.0E20
  9
$EXTMAX
 10
-1.0E20
 20
-1.0E20
  9
$LIMMIN
 10
0.0
 20
0.0
  9
$LIMMAX
 10
12.0
 20
9.0
  9
$ORTHOMODE
 70
     0
  9
$REGENMODE
 70
     1
  9
$FILLMODE
 70
     1
  9
$QTEXTMODE
 70
     0
  9
$MIRRTEXT
 70
     1
  9
$DRAGMODE
 70
     2
  9
$LTSCALE
 40
15.0
  9
$OSMODE
 70
     0
  9
$ATTMODE
 70
     1
  9
$TEXTSIZE
 40
0.2
  9
$TRACEWID
 40
0.05
  9
$TEXTSTYLE
  7
STANDARD
  9
$CLAYER
  8
0
  9
$CELTYPE
  6
DASHED
  9
$CECOLOR
 62
   256
  9
$DIMSCALE
 40
1.0
  9
$DIMASZ
 40
0.18
  9
$DIMEXO
 40
0.0625
  9
$DIMDLI
 40
0.38
  9
$DIMRND
 40
0.0
  9
$DIMDLE
 40
0.0
  9
$DIMEXE
 40
0.18
  9
$DIMTP
 40
0.0
  9
$DIMTM
 40
0.0
  9
$DIMTXT
 40
0.18
  9
$DIMCEN
 40
0.09
  9
$DIMTSZ
 40
0.0
  9
$DIMTOL
 70
     0
  9
$DIMLIM
 70
     0
  9
$DIMTIH
 70
     1
  9
$DIMTOH
 70
     1
  9
$DIMSE1
 70
     0
  9
$DIMSE2
 70
     0
  9
$DIMTAD
 70
     0
  9
$DIMZIN
 70
     0
  9
$DIMBLK
  1

  9
$DIMASO
 70
     1
  9
$DIMSHO
 70
     1
  9
$DIMPOST
  1

  9
$DIMAPOST
  1

  9
$DIMALT
 70
     0
  9
$DIMALTD
 70
     2
  9
$DIMALTF
 40
25.4
  9
$DIMLFAC
 40
1.0
  9
$DIMTOFL
 70
     0
  9
$DIMTVP
 40
0.0
  9
$DIMTIX
 70
     0
  9
$DIMSOXD
 70
     0
  9
$DIMSAH
 70
     0
  9
$DIMBLK1
  1

  9
$DIMBLK2
  1

  9
$DIMSTYLE
  2
STANDARD
  9
$DIMCLRD
 70
     0
  9
$DIMCLRE
 70
     0
  9
$DIMCLRT
 70
     0
  9
$DIMTFAC
 40
1.0
  9
$DIMGAP
 40
0.09
  9
$LUNITS
 70
     2
  9
$LUPREC
 70
     4
  9
$AXISMODE
 70
     0
  9
$AXISUNIT
 10
0.0
 20
0.0
  9
$SKETCHINC
 40
0.1
  9
$FILLETRAD
 40
0.0
  9
$AUNITS
 70
     0
  9
$AUPREC
 70
     0
  9
$MENU
  1
acad
  9
$ELEVATION
 40
0.0
  9
$PELEVATION
 40
0.0
  9
$THICKNESS
 40
0.0
  9
$LIMCHECK
 70
     0
  9
$BLIPMODE
 70
     1
  9
$CHAMFERA
 40
0.0
  9
$CHAMFERB
 40
0.0
  9
$SKPOLY
 70
     0
  9
$TDCREATE
 40
0.000000000
  9
$TDUPDATE
 40
0.000000000
  9
$TDINDWG
 40
0.0
  9
$TDUSRTIMER
 40
0.0
  9
$USRTIMER
 70
     1
  9
$ANGBASE
 50
0.0
  9
$ANGDIR
 70
     0
  9
$PDMODE
 70
     0
  9
$PDSIZE
 40
0.0
  9
$PLINEWID
 40
0.0
  9
$COORDS
 70
     1
  9
$SPLFRAME
 70
     0
  9
$SPLINETYPE
 70
     6
  9
$SPLINESEGS
 70
     8
  9
$ATTDIA
 70
     0
  9
$ATTREQ
 70
     1
  9
$HANDLING
 70
     1
  9
$HANDSEED
  5
   636
  9
$SURFTAB1
 70
     6
  9
$SURFTAB2
 70
     6
  9
$SURFTYPE
 70
     6
  9
$SURFU
 70
     6
  9
$SURFV
 70
     6
  9
$UCSNAME
  2

  9
$UCSORG
 10
0.0
 20
0.0
 30
0.0
  9
$UCSXDIR
 10
1.0
 20
0.0
 30
0.0
  9
$UCSYDIR
 10
0.0
 20
1.0
 30
0.0
  9
$PUCSNAME
  2

  9
$PUCSORG
 10
0.0
 20
0.0
 30
0.0
  9
$PUCSXDIR
 10
1.0
 20
0.0
 30
0.0
  9
$PUCSYDIR
 10
0.0
 20
1.0
 30
0.0
  9
$USERI1
 70
     0
  9
$USERI2
 70
     0
  9
$USERI3
 70
     0
  9
$USERI4
 70
     0
  9
$USERI5
 70
     0
  9
$USERR1
 40
0.0
  9
$USERR2
 40
0.0
  9
$USERR3
 40
0.0
  9
$USERR4
 40
0.0
  9
$USERR5
 40
0.0
  9
$WORLDVIEW
 70
     1
  9
$SHADEDGE
 70
     3
  9
$SHADEDIF
 70
    70
  9
$TILEMODE
 70
     1
  9
$MAXACTVP
 70
    16
  9
$PINSBASE
 10
0.0
 20
0.0
 30
0.0
  9
$PLIMCHECK
 70
     0
  9
$PEXTMIN
 10
1.0E20
 20
1.0E20
 30
1.0E20
  9
$PEXTMAX
 10
-1.0E20
 20
-1.0E20
 30
-1.0E20
  9
$PLIMMIN
 10
0.0
 20
0.0
  9
$PLIMMAX
 10
12.0
 20
9.0
  9
$UNITMODE
 70
     0
  9
$VISRETAIN
 70
     0
  0
ENDSEC
  0
SECTION
  2
TABLES
  0
TABLE
  2
VPORT
 70
     1
  0
VPORT
  2
*ACTIVE
 70
     0
 10
0.0
 20
0.0
 11
1.0
 21
1.0
 12
6.801242
 22
4.5
 13
0.0
 23
0.0
 14
1.0
 24
1.0
 15
0.0
 25
0.0
 16
0.0
 26
0.0
 36
1.0
 17
0.0
 27
0.0
 37
0.0
 40
9.0
 41
1.511387
 42
50.0
 43
0.0
 44
0.0
 50
0.0
 51
0.0
 71
     0
 72
   100
 73
     1
 74
     1
 75
     0
 76
     0
 77
     0
 78
     0
  0
ENDTAB
  0
TABLE
  2
LTYPE
 70
    41
  0
LTYPE
  2
BYBLOCK
 70
     0
  3

 72
    65
 73
     0
 40
0.0
  0
LTYPE
  2
BYLAYER
 70
     0
  3

 72
    65
 73
     0
 40
0.0
  0
LTYPE
  2
CONTINUOUS
 70
     0
  3
Solid line
 72
    65
 73
     0
 40
0.0
  0
LTYPE
  2
BORDER
 70
    64
  3
__ __ . __ __ . __ __ . __ __ . __ __ . __ __ .
 72
    65
 73
     6
 40
1.75
 49
0.5
 49
-0.25
 49
0.5
 49
-0.25
 49
0.0
 49
-0.25
  0
LTYPE
  2
BORDER2
 70
    64
  3
__.__.__.__.__.__.__.__.__.__.__.__.__.__.__.__
 72
    65
 73
     6
 40
0.875
 49
0.25
 49
-0.125
 49
0.25
 49
-0.125
 49
0.0
 49
-0.125
  0
LTYPE
  2
BORDERX2
 70
    64
  3
____  ____  .  ____  ____  .  ____  ____  .  __
 72
    65
 73
     6
 40
3.5
 49
1.0
 49
-0.5
 49
1.0
 49
-0.5
 49
0.0
 49
-0.5
  0
LTYPE
  2
CENTER
 70
    64
  3
____ _ ____ _ ____ _ ____ _ ____ _ ____ _ ____
 72
    65
 73
     4
 40
2.0
 49
1.25
 49
-0.25
 49
0.25
 49
-0.25
  0
LTYPE
  2
CENTER2
 70
    64
  3
___ _ ___ _ ___ _ ___ _ ___ _ ___ _ ___ _ ___ _
 72
    65
 73
     4
 40
1.125
 49
0.75
 49
-0.125
 49
0.125
 49
-0.125
  0
LTYPE
  2
CENTERX2
 70
    64
  3
________  __  ________  __  ________  __  _____
 72
    65
 73
     4
 40
4.0
 49
2.5
 49
-0.5
 49
0.5
 49
-0.5
  0
LTYPE
  2
DASHDOT
 70
    64
  3
__ . __ . __ . __ . __ . __ . __ . __ . __ . __
 72
    65
 73
     4
 40
1.0
 49
0.5
 49
-0.25
 49
0.0
 49
-0.25
  0
LTYPE
  2
DASHDOT2
 70
    64
  3
_._._._._._._._._._._._._._._._._._._._._._._._
 72
    65
 73
     4
 40
0.5
 49
0.25
 49
-0.125
 49
0.0
 49
-0.125
  0
LTYPE
  2
DASHDOTX2
 70
    64
  3
____  .  ____  .  ____  .  ____  .  ____  .  __
 72
    65
 73
     4
 40
2.0
 49
1.0
 49
-0.5
 49
0.0
 49
-0.5
  0
LTYPE
  2
DASHED
 70
    64
  3
__ __ __ __ __ __ __ __ __ __ __ __ __ __ __ __
 72
    65
 73
     2
 40
0.75
 49
0.5
 49
-0.25
  0
LTYPE
  2
DASHED2
 70
    64
  3
_ _ _ _ _ _ _ _ _ _ _ _ _ _ _ _ _ _ _ _ _ _ _ _
 72
    65
 73
     2
 40
0.375
 49
0.25
 49
-0.125
  0
LTYPE
  2
DASHEDX2
 70
    64
  3
____  ____  ____  ____  ____  ____  ____  ____
 72
    65
 73
     2
 40
1.5
 49
1.0
 49
-0.5
  0
LTYPE
  2
DIVIDE
 70
    64
  3
____ . . ____ . . ____ . . ____ . . ____ . . __
 72
    65
 73
     6
 40
1.25
 49
0.5
 49
-0.25
 49
0.0
 49
-0.25
 49
0.0
 49
-0.25
  0
LTYPE
  2
DIVIDE2
 70
    64
  3
__..__..__..__..__..__..__..__..__..__..__..__.
 72
    65
 73
     6
 40
0.625
 49
0.25
 49
-0.125
 49
0.0
 49
-0.125
 49
0.0
 49
-0.125
  0
LTYPE
  2
DIVIDEX2
 70
    64
  3
________  .  .  ________  .  .  ________  .  .
 72
    65
 73
     6
 40
2.5
 49
1.0
 49
-0.5
 49
0.0
 49
-0.5
 49
0.0
 49
-0.5
  0
LTYPE
  2
DOT
 70
    64
  3
. . . . . . . . . . . . . . . . . . . . . . . .
 72
    65
 73
     2
 40
0.25
 49
0.0
 49
-0.25
  0
LTYPE
  2
DOT2
 70
    64
  3
...............................................
 72
    65
 73
     2
 40
0.125
 49
0.0
 49
-0.125
  0
LTYPE
  2
DOTX2
 70
    64
  3
.  .  .  .  .  .  .  .  .  .  .  .  .  .  .  .
 72
    65
 73
     2
 40
0.5
 49
0.0
 49
-0.5
  0
LTYPE
  2
HIDDEN
 70
    64
  3
__ __ __ __ __ __ __ __ __ __ __ __ __ __ __ __
 72
    65
 73
     2
 40
0.375
 49
0.25
 49
-0.125
  0
LTYPE
  2
HIDDEN2
 70
    64
  3
_ _ _ _ _ _ _ _ _ _ _ _ _ _ _ _ _ _ _ _ _ _ _ _
 72
    65
 73
     2
 40
0.1875
 49
0.125
 49
-0.0625
  0
LTYPE
  2
HIDDENX2
 70
    64
  3
____ ____ ____ ____ ____ ____ ____ ____ ____ __
 72
    65
 73
     2
 40
0.75
 49
0.5
 49
-0.25
  0
LTYPE
  2
PHANTOM
 70
    64
  3
______  __  __  ______  __  __  ______  __  __
 72
    65
 73
     6
 40
2.5
 49
1.25
 49
-0.25
 49
0.25
 49
-0.25
 49
0.25
 49
-0.25
  0
LTYPE
  2
PHANTOM2
 70
    64
  3
___ _ _ ___ _ _ ___ _ _ ___ _ _ ___ _ _ ___ _ _
 72
    65
 73
     6
 40
1.25
 49
0.625
 49
-0.125
 49
0.125
 49
-0.125
 49
0.125
 49
-0.125
  0
LTYPE
  2
PHANTOMX2
 70
    64
  3
____________    ____    ____    ____________
 72
    65
 73
     6
 40
5.0
 49
2.5
 49
-0.5
 49
0.5
 49
-0.5
 49
0.5
 49
-0.5
  0
LTYPE
  2
ACAD_ISO02W100
 70
    64
  3
__ __ __ __ __ __ __ __ __ __ __ __ __ __ __ __
 72
    65
 73
     2
 40
15.0
 49
12.0
 49
-3.0
  0
LTYPE
  2
ACAD_ISO03W100
 70
    64
  3
__    __    __    __    __    __    __    __
 72
    65
 73
     2
 40
30.0
 49
12.0
 49
-18.0
  0
LTYPE
  2
ACAD_ISO04W100
 70
    64
  3
____ . ____ . ____ . ____ . ____ . ____ . ____
 72
    65
 73
     4
 40
30.5
 49
24.0
 49
-3.0
 49
0.5
 49
-3.0
  0
LTYPE
  2
ACAD_ISO05W100
 70
    64
  3
____ .. ____ .. ____ .. ____ .. ____ .. ____ ..
 72
    65
 73
     6
 40
34.0
 49
24.0
 49
-3.0
 49
0.5
 49
-3.0
 49
0.5
 49
-3.0
  0
LTYPE
  2
ACAD_ISO06W100
 70
    64
  3
____ ... ____ ... ____ ... ____ ... ____ ... __
 72
    65
 73
     8
 40
37.5
 49
24.0
 49
-3.0
 49
0.5
 49
-3.0
 49
0.5
 49
-3.0
 49
0.5
 49
-3.0
  0
LTYPE
  2
ACAD_ISO07W100
 70
    64
  3
. . . . . . . . . . . . . . . . . . . . . . . .
 72
    65
 73
     2
 40
3.5
 49
0.5
 49
-3.0
  0
LTYPE
  2
ACAD_ISO08W100
 70
    64
  3
____ __ ____ __ ____ __ ____ ____ __ __ ____ __
 72
    65
 73
     4
 40
36.0
 49
24.0
 49
-3.0
 49
6.0
 49
-3.0
  0
LTYPE
  2
ACAD_ISO09W100
 70
    64
  3
____ __ __ ____ __ __ ____ __ __ ____ __ __ ___
 72
    65
 73
     6
 40
45.0
 49
24.0
 49
-3.0
 49
6.0
 49
-3.0
 49
6.0
 49
-3.0
  0
LTYPE
  2
ACAD_ISO10W100
 70
    64
  3
__ . __ . __ . __ . __ . __ . __ . __ . __ . __
 72
    65
 73
     4
 40
18.5
 49
12.0
 49
-3.0
 49
0.5
 49
-3.0
  0
LTYPE
  2
ACAD_ISO11W100
 70
    64
  3
__ __ . __ __ . __ __ . __ __ . __ __ . __ __ .
 72
    65
 73
     6
 40
33.5
 49
12.0
 49
-3.0
 49
12.0
 49
-3.0
 49
0.5
 49
-3.0
  0
LTYPE
  2
ACAD_ISO12W100
 70
    64
  3
__ . . __ . . __ . . __ . . __ . . __ . . __ .
 72
    65
 73
     6
 40
22.0
 49
12.0
 49
-3.0
 49
0.5
 49
-3.0
 49
0.5
 49
-3.0
  0
LTYPE
  2
ACAD_ISO13W100
 70
    64
  3
__ __ . . __ __ . . __ __ . . __ __ . . __ __ .
 72
    65
 73
     8
 40
37.0
 49
12.0
 49
-3.0
 49
12.0
 49
-3.0
 49
0.5
 49
-3.0
 49
0.5
 49
-3.0
  0
LTYPE
  2
ACAD_ISO14W100
 70
    64
  3
__ . . . __ . . . __ . . . __ . . . __ . . . __
 72
    65
 73
     8
 40
25.5
 49
12.0
 49
-3.0
 49
0.5
 49
-3.0
 49
0.5
 49
-3.0
 49
0.5
 49
-3.0
  0
LTYPE
  2
ACAD_ISO15W100
 70
    64
  3
__ __ . . . __ __ . . . __ __ . . . __ __ . . .
 72
    65
 73
    10
 40
40.5
 49
12.0
 49
-3.0
 49
12.0
 49
-3.0
 49
0.5
 49
-3.0
 49
0.5
 49
-3.0
 49
0.5
 49
-3.0
  0
ENDTAB
  0
TABLE
  2
STYLE
 70
     4
  0
STYLE
  2
STANDARD
 70
    64
 40
0.0
 41
1.0
 50
0.0
 71
     0
 42
0.2
  3
txt
  4

  0
STYLE
  2
TOLERANCE
 70
    64
 40
0.0
 41
1.0
 50
0.0
 71
     0
 42
0.2
  3
../igesfont/iges1003.shx
  4

  0
STYLE
  2
ROMANS
 70
    64
 40
0.0
 41
1.0
 50
0.0
 71
     0
 42
0.2
  3
romans.shx
  4

  0
STYLE
  2
ROMANC
 70
    64
 40
0.0
 41
1.0
 50
0.0
 71
     0
 42
0.2
  3
romanc.shx
  4

  0
ENDTAB
  0
TABLE
  2
DIMSTYLE
 70
     2
  0
DIMSTYLE
  2
UNNAMED
 70
     0
  3

  4

  5

  6

  7

 40
1.0
 41
0.18
 42
0.0625
 43
0.38
 44
0.18
 45
0.0
 46
0.0
 47
0.0
 48
0.0
140
0.18
141
0.09
142
0.0
143
25.4
144
1.0
145
0.0
146
1.0
147
0.09
 71
     0
 72
     0
 73
     1
 74
     1
 75
     0
 76
     0
 77
     0
 78
     0
170
     0
171
     2
172
     0
173
     0
174
     0
175
     0
176
     0
177
     0
178
     0
  0
DIMSTYLE
  2
STANDARD
 70
     0
  3

  4

  5

  6

  7

 40
1.0
 41
0.18
 42
0.0625
 43
0.38
 44
0.18
 45
0.0
 46
0.0
 47
0.0
 48
0.0
140
0.18
141
0.09
142
0.0
143
25.4
144
1.0
145
0.0
146
1.0
147
0.09
 71
     0
 72
     0
 73
     1
 74
     1
 75
     0
 76
     0
 77
     0
 78
     0
170
     0
171
     2
172
     0
173
     0
174
     0
175
     0
176
     0
177
     0
178
     0
  0
ENDTAB
  0
TABLE
  2
LAYER
 70
     2
  0
LAYER
  2
0
 70
     0
 62
     7
  6
CONTINUOUS
  0
LAYER
  2
255
 70
     0
 62
     7
  6
CONTINUOUS
  0
ENDTAB
  0
ENDSEC
  0
SECTION
  2
BLOCKS
  0
BLOCK
  5
     B
  8
0
  6
CONTINUOUS
 62
     0
  2
SSS
 70
    64
 10
0.0
 20
0.0
 30
0.0
  3
SSS
  0
ARC
  5
     C
  8
0
  6
CONTINUOUS
 62
     0
 10
2.55000000000001
 20
2.55
 30
0.0
 40
2.0
 50
178.557523870135
 51
271.442476129865
  0
CIRCLE
  5
     D
  8
0
  6
CONTINUOUS
 62
     0
 10
0.0
 20
0.0
 30
0.0
 40
3.750066744417
  0
ARC
  5
     E
  8
0
  6
CONTINUOUS
 62
     0
 10
-2.54999999999998
 20
2.55
 30
0.0
 40
2.0
 50
268.557523870135
 51
361.442476129865
  0
ARC
  5
     F
  8
0
  6
CONTINUOUS
 62
     0
 10
1.4210854715202E-14
 20
0.0
 30
0.0
 40
2.6580067720004
 50
78.0440027883074
 51
101.955997211693
  0
ARC
  5
    10
  8
0
  6
CONTINUOUS
 62
     0
 10
1.4210854715202E-14
 20
7.105427357601E-15
 30
0.0
 40
2.6580067720004
 50
168.044002788308
 51
191.955997211693
  0
ARC
  5
    11
  8
0
  6
CONTINUOUS
 62
     0
 10
1.4210854715202E-14
 20
7.105427357601E-15
 30
0.0
 40
2.6580067720004
 50
348.044002788307
 51
371.955997211692
  0
ARC
  5
    12
  8
0
  6
CONTINUOUS
 62
     0
 10
2.55000000000001
 20
-2.55
 30
0.0
 40
2.0
 50
88.5575238701351
 51
181.442476129865
  0
ARC
  5
    13
  8
0
  6
CONTINUOUS
 62
     0
 10
-2.54999999999998
 20
-2.55
 30
0.0
 40
2.0
 50
358.557523870135
 51
451.442476129865
  0
ARC
  5
    14
  8
0
  6
CONTINUOUS
 62
     0
 10
1.4210854715202E-14
 20
7.105427357601E-15
 30
0.0
 40
2.6580067720004
 50
258.044002788307
 51
281.955997211693
  0
LINE
  5
    15
  8
0
  6
DASHDOT
 62
     0
 10
0.0
 20
-13.750066744417
 30
0.0
 11
0.0
 21
13.750066744417
 31
0.0
  0
LINE
  5
    16
  8
0
  6
DASHDOT
 62
     0
 10
-13.750066744417
 20
0.0
 30
0.0
 11
13.750066744417
 21
0.0
 31
0.0
  0
POINT
  5
    17
  8
0
  6
CONTINUOUS
 62
     0
 10
0.0
 20
0.0
 30
0.0
  0
ENDBLK
  5
    18
  8
0
  6
CONTINUOUS
 62
     0
  0
BLOCK
  5
    19
  8
0
  6
CONTINUOUS
 62
     7
  2
*UDIM103
 70
    65
 10
0.0
 20
0.0
 30
0.0
  3
*UDIM103
  0
TEXT
  5
    1A
  8
0
  6
CONTINUOUS
 62
     7
 10
-429.971857008094
 20
-10.4771965514586
 30
0.0
 40
3.00000002980232
  1
120
 50
449.999999844103
 41
0.933333333333333
 72
     1
 11
-431.471857012408
 21
-6.5771965086436
 31
0.0
 73
     2
  0
LINE
  5
    1B
  8
0
  6
CONTINUOUS
 62
     3
 10
-314.39794269563
 20
53.6977958679229
 30
0.0
 11
-430.971856997507
 21
53.6977958679229
 31
0.0
  0
LINE
  5
    1C
  8
0
  6
CONTINUOUS
 62
     3
 10
-314.397934913637
 20
-66.3021888732892
 30
0.0
 11
-430.971856997507
 21
-66.3021888732892
 31
0.0
  0
LINE
  5
    1D
  8
0
  6
CONTINUOUS
 62
     3
 10
-428.971856997507
 20
53.6977958679229
 30
0.0
 11
-428.971856997507
 21
-66.3021888732892
 31
0.0
  0
LINE
  5
    1E
  8
0
  6
CONTINUOUS
 62
     3
 10
-428.450912567555
 20
50.743372590716
 30
0.0
 11
-428.971856997507
 21
53.6977958679229
 31
0.0
  0
LINE
  5
    1F
  8
0
  6
CONTINUOUS
 62
     3
 10
-428.971856997507
 20
53.6977958679229
 30
0.0
 11
-429.492801427458
 21
50.743372590716
 31
0.0
  0
LINE
  5
    20
  8
0
  6
CONTINUOUS
 62
     3
 10
-429.492801427458
 20
-63.3477655960822
 30
0.0
 11
-428.971856997507
 21
-66.3021888732892
 31
0.0
  0
LINE
  5
    21
  8
0
  6
CONTINUOUS
 62
     3
 10
-428.971856997507
 20
-66.3021888732892
 30
0.0
 11
-428.450912567555
 21
-63.3477655960822
 31
0.0
  0
ENDBLK
  5
    22
  8
0
  6
CONTINUOUS
 62
     7
  0
BLOCK
  5
    23
  8
0
  6
CONTINUOUS
 62
     7
  2
*UDIM104
 70
    65
 10
0.0
 20
0.0
 30
0.0
  3
*UDIM104
  0
TEXT
  5
    24
  8
0
  6
CONTINUOUS
 62
     7
 10
-429.971857011894
 20
60.7477958111996
 30
0.0
 40
3.00000002980232
  1
24.5
 50
449.999999844103
 41
0.933333333333333
 72
     1
 11
-431.471857012408
 21
66.0477958679223
 31
0.0
 73
     2
  0
LINE
  5
    25
  8
0
  6
CONTINUOUS
 62
     3
 10
-376.647913078047
 20
78.3977958679217
 30
0.0
 11
-430.971856997507
 21
78.3977958679217
 31
0.0
  0
LINE
  5
    26
  8
0
  6
CONTINUOUS
 62
     3
 10
-428.971856997507
 20
78.3977958679217
 30
0.0
 11
-428.971856997507
 21
53.6977958679229
 31
0.0
  0
LINE
  5
    27
  8
0
  6
CONTINUOUS
 62
     3
 10
-428.450912567555
 20
75.4433725907148
 30
0.0
 11
-428.971856997507
 21
78.3977958679217
 31
0.0
  0
LINE
  5
    28
  8
0
  6
CONTINUOUS
 62
     3
 10
-428.971856997507
 20
78.3977958679217
 30
0.0
 11
-429.492801427458
 21
75.4433725907148
 31
0.0
  0
LINE
  5
    29
  8
0
  6
CONTINUOUS
 62
     3
 10
-429.748314153925
 20
56.5955733411335
 30
0.0
 11
-428.971856997507
 21
53.6977958679229
 31
0.0
  0
LINE
  5
    2A
  8
0
  6
CONTINUOUS
 62
     3
 10
-428.971856997507
 20
53.6977958679229
 30
0.0
 11
-428.195399841088
 21
56.5955733411335
 31
0.0
  0
ENDBLK
  5
    2B
  8
0
  6
CONTINUOUS
 62
     7
  0
BLOCK
  5
    2C
  8
0
  6
CONTINUOUS
 62
     3
  2
*UDIM105
 70
    65
 10
0.0
 20
0.0
 30
0.0
  3
*UDIM105
  0
TEXT
  5
    2D
  8
0
  6
CONTINUOUS
 62
     3
 10
-263.380321520753
 20
-45.0771812787658
 30
0.0
 40
3.00000002980232
  1
48
 50
449.999999844103
 41
0.933333333333333
 72
     1
 11
-264.880321528867
 21
-42.5771812498586
 31
0.0
 73
     2
  0
LINE
  5
    2E
  8
0
  6
CONTINUOUS
 62
     3
 10
-277.900599149536
 20
-18.302173614507
 30
0.0
 11
-260.380321513966
 21
-18.302173614507
 31
0.0
  0
LINE
  5
    2F
  8
0
  6
CONTINUOUS
 62
     3
 10
-289.397938003546
 20
-66.3021888732892
 30
0.0
 11
-260.380321513966
 21
-66.3021888732892
 31
0.0
  0
LINE
  5
    30
  8
0
  6
CONTINUOUS
 62
     3
 10
-262.380321513966
 20
-18.302173614507
 30
0.0
 11
-262.380321513966
 21
-66.3021888732892
 31
0.0
  0
LINE
  5
    31
  8
0
  6
CONTINUOUS
 62
     3
 10
-261.859377084015
 20
-21.256596891714
 30
0.0
 11
-262.380321513966
 21
-18.302173614507
 31
0.0
  0
LINE
  5
    32
  8
0
  6
CONTINUOUS
 62
     3
 10
-262.380321513966
 20
-18.302173614507
 30
0.0
 11
-262.901265943918
 21
-21.256596891714
 31
0.0
  0
LINE
  5
    33
  8
0
  6
CONTINUOUS
 62
     3
 10
-262.901265943918
 20
-63.3477655960822
 30
0.0
 11
-262.380321513966
 21
-66.3021888732892
 31
0.0
  0
LINE
  5
    34
  8
0
  6
CONTINUOUS
 62
     3
 10
-262.380321513966
 20
-66.3021888732892
 30
0.0
 11
-261.859377084015
 21
-63.3477655960822
 31
0.0
  0
ENDBLK
  5
    35
  8
0
  6
CONTINUOUS
 62
     3
  0
BLOCK
  5
    36
  8
0
  6
CONTINUOUS
 62
     7
  2
*UDIM106
 70
    65
 10
0.0
 20
0.0
 30
0.0
  3
*UDIM106
  0
TEXT
  5
    37
  8
0
  6
CONTINUOUS
 62
     7
 10
-270.60519225001
 20
-8.15217362950646
 30
0.0
 40
3.00000002980232
  1
=
 50
449.999999844103
 41
0.933333333333334
 72
     1
 11
-272.105192261925
 21
-7.052173614507
 31
0.0
 73
     2
  0
LINE
  5
    38
  8
0
  6
CONTINUOUS
 62
     3
 10
-284.897945404053
 20
4.197826385493
 30
0.0
 11
-267.605192247024
 21
4.197826385493
 31
0.0
  0
LINE
  5
    39
  8
0
  6
CONTINUOUS
 62
     3
 10
-276.900599149536
 20
-18.302173614507
 30
0.0
 11
-267.605192247024
 21
-18.302173614507
 31
0.0
  0
LINE
  5
    3A
  8
0
  6
CONTINUOUS
 62
     3
 10
-269.605192247024
 20
4.197826385493
 30
0.0
 11
-269.605192247024
 21
-18.302173614507
 31
0.0
  0
LINE
  5
    3B
  8
0
  6
CONTINUOUS
 62
     3
 10
-269.084247817072
 20
1.24340310828604
 30
0.0
 11
-269.605192247024
 21
4.197826385493
 31
0.0
  0
LINE
  5
    3C
  8
0
  6
CONTINUOUS
 62
     3
 10
-269.605192247024
 20
4.197826385493
 30
0.0
 11
-270.126136676976
 21
1.24340310828604
 31
0.0
  0
LINE
  5
    3D
  8
0
  6
CONTINUOUS
 62
     3
 10
-270.126136676976
 20
-15.3477503373
 30
0.0
 11
-269.605192247024
 21
-18.302173614507
 31
0.0
  0
LINE
  5
    3E
  8
0
  6
CONTINUOUS
 62
     3
 10
-269.605192247024
 20
-18.302173614507
 30
0.0
 11
-269.084247817072
 21
-15.3477503373
 31
0.0
  0
ENDBLK
  5
    3F
  8
0
  6
CONTINUOUS
 62
     7
  0
BLOCK
  5
    40
  8
0
  6
CONTINUOUS
 62
     7
  2
*UDIM107
 70
    65
 10
0.0
 20
0.0
 30
0.0
  3
*UDIM107
  0
TEXT
  5
    41
  8
0
  6
CONTINUOUS
 62
     7
 10
-270.60519225001
 20
-30.6521736295005
 30
0.0
 40
3.00000002980232
  1
=
 50
449.999999844103
 41
0.933333333333334
 72
     1
 11
-272.105192261925
 21
-29.5521736145011
 31
0.0
 73
     2
  0
LINE
  5
    42
  8
0
  6
CONTINUOUS
 62
     3
 10
-284.897952270506
 20
-40.8021736144951
 30
0.0
 11
-267.605192247024
 21
-40.8021736144951
 31
0.0
  0
LINE
  5
    43
  8
0
  6
CONTINUOUS
 62
     3
 10
-269.605192247024
 20
-18.302173614507
 30
0.0
 11
-269.605192247024
 21
-40.8021736144951
 31
0.0
  0
LINE
  5
    44
  8
0
  6
CONTINUOUS
 62
     3
 10
-269.084247817072
 20
-21.256596891714
 30
0.0
 11
-269.605192247024
 21
-18.302173614507
 31
0.0
  0
LINE
  5
    45
  8
0
  6
CONTINUOUS
 62
     3
 10
-269.605192247024
 20
-18.302173614507
 30
0.0
 11
-270.126136676976
 21
-21.256596891714
 31
0.0
  0
LINE
  5
    46
  8
0
  6
CONTINUOUS
 62
     3
 10
-270.126136676976
 20
-37.8477503372882
 30
0.0
 11
-269.605192247024
 21
-40.8021736144951
 31
0.0
  0
LINE
  5
    47
  8
0
  6
CONTINUOUS
 62
     3
 10
-269.605192247024
 20
-40.8021736144951
 30
0.0
 11
-269.084247817072
 21
-37.8477503372882
 31
0.0
  0
ENDBLK
  5
    48
  8
0
  6
CONTINUOUS
 62
     7
  0
BLOCK
  5
    49
  8
0
  6
CONTINUOUS
 62
     7
  2
*UDIM108
 70
    65
 10
0.0
 20
0.0
 30
0.0
  3
*UDIM108
  0
TEXT
  5
    4A
  8
0
  6
CONTINUOUS
 62
     7
 10
-378.39797904348
 20
86.6566689055752
 30
0.0
 40
3.00000002980232
  1
30
 50
359.999999844103
 41
0.933333333333333
 72
     1
 11
-375.897979014571
 21
88.1566689136866
 31
0.0
 73
     2
  0
LINE
  5
    4B
  8
0
  6
CONTINUOUS
 62
     3
 10
-390.897979014571
 20
58.8978042411601
 30
0.0
 11
-390.897979014571
 21
87.6566688987855
 31
0.0
  0
LINE
  5
    4C
  8
0
  6
CONTINUOUS
 62
     3
 10
-360.897979014571
 20
58.8978042411601
 30
0.0
 11
-360.897979014571
 21
87.6566688987855
 31
0.0
  0
LINE
  5
    4D
  8
0
  6
CONTINUOUS
 62
     3
 10
-390.897979014571
 20
85.6566688987855
 30
0.0
 11
-360.897979014571
 21
85.6566688987855
 31
0.0
  0
LINE
  5
    4E
  8
0
  6
CONTINUOUS
 62
     3
 10
-388.000201541361
 20
86.433126055204
 30
0.0
 11
-390.897979014571
 21
85.6566688987855
 31
0.0
  0
LINE
  5
    4F
  8
0
  6
CONTINUOUS
 62
     3
 10
-390.897979014571
 20
85.6566688987855
 30
0.0
 11
-388.000201541361
 21
84.8802117423669
 31
0.0
  0
LINE
  5
    50
  8
0
  6
CONTINUOUS
 62
     7
 10
-363.795756487782
 20
84.8802117423669
 30
0.0
 11
-360.897979014571
 21
85.6566688987855
 31
0.0
  0
LINE
  5
    51
  8
0
  6
CONTINUOUS
 62
     7
 10
-360.897979014571
 20
85.6566688987855
 30
0.0
 11
-363.795756487782
 21
86.433126055204
 31
0.0
  0
ENDBLK
  5
    52
  8
0
  6
CONTINUOUS
 62
     7
  0
BLOCK
  5
    53
  8
0
  6
CONTINUOUS
 62
     7
  2
*UDIM109
 70
    65
 10
0.0
 20
0.0
 30
0.0
  3
*UDIM109
  0
TEXT
  5
    54
  8
0
  6
CONTINUOUS
 62
     7
 10
-348.39794924766
 20
86.6566689055752
 30
0.0
 40
3.00000002980232
  1
30
 50
359.999999844103
 41
0.933333333333333
 72
     1
 11
-345.897949218751
 21
88.1566689136866
 31
0.0
 73
     2
  0
LINE
  5
    55
  8
0
  6
CONTINUOUS
 62
     3
 10
-330.89791942293
 20
59.4700699524775
 30
0.0
 11
-330.89791942293
 21
87.6566688987855
 31
0.0
  0
LINE
  5
    56
  8
0
  6
CONTINUOUS
 62
     3
 10
-360.897979014571
 20
85.6566688987855
 30
0.0
 11
-330.89791942293
 21
85.6566688987855
 31
0.0
  0
LINE
  5
    57
  8
0
  6
CONTINUOUS
 62
     7
 10
-358.000201541361
 20
86.433126055204
 30
0.0
 11
-360.897979014571
 21
85.6566688987855
 31
0.0
  0
LINE
  5
    58
  8
0
  6
CONTINUOUS
 62
     7
 10
-360.897979014571
 20
85.6566688987855
 30
0.0
 11
-358.000201541361
 21
84.8802117423669
 31
0.0
  0
LINE
  5
    59
  8
0
  6
CONTINUOUS
 62
     7
 10
-333.795696896141
 20
84.8802117423669
 30
0.0
 11
-330.89791942293
 21
85.6566688987855
 31
0.0
  0
LINE
  5
    5A
  8
0
  6
CONTINUOUS
 62
     7
 10
-330.89791942293
 20
85.6566688987855
 30
0.0
 11
-333.795696896141
 21
86.433126055204
 31
0.0
  0
ENDBLK
  5
    5B
  8
0
  6
CONTINUOUS
 62
     7
  0
BLOCK
  5
    5C
  8
0
  6
CONTINUOUS
 62
     7
  2
*UDIM110
 70
    65
 10
0.0
 20
0.0
 30
0.0
  3
*UDIM110
  0
TEXT
  5
    5D
  8
0
  6
CONTINUOUS
 62
     7
 10
-318.39791945184
 20
86.6566689055752
 30
0.0
 40
3.00000002980232
  1
30
 50
359.999999844103
 41
0.933333333333333
 72
     1
 11
-315.89791942293
 21
88.1566689136866
 31
0.0
 73
     2
  0
LINE
  5
    5E
  8
0
  6
CONTINUOUS
 62
     3
 10
-300.89791942293
 20
58.8978042411601
 30
0.0
 11
-300.89791942293
 21
87.6566688987855
 31
0.0
  0
LINE
  5
    5F
  8
0
  6
CONTINUOUS
 62
     3
 10
-330.89791942293
 20
85.6566688987855
 30
0.0
 11
-300.89791942293
 21
85.6566688987855
 31
0.0
  0
LINE
  5
    60
  8
0
  6
CONTINUOUS
 62
     7
 10
-328.00014194972
 20
86.433126055204
 30
0.0
 11
-330.89791942293
 21
85.6566688987855
 31
0.0
  0
LINE
  5
    61
  8
0
  6
CONTINUOUS
 62
     7
 10
-330.89791942293
 20
85.6566688987855
 30
0.0
 11
-328.00014194972
 21
84.8802117423669
 31
0.0
  0
LINE
  5
    62
  8
0
  6
CONTINUOUS
 62
     3
 10
-303.795696896141
 20
84.8802117423669
 30
0.0
 11
-300.89791942293
 21
85.6566688987855
 31
0.0
  0
LINE
  5
    63
  8
0
  6
CONTINUOUS
 62
     3
 10
-300.89791942293
 20
85.6566688987855
 30
0.0
 11
-303.795696896141
 21
86.433126055204
 31
0.0
  0
ENDBLK
  5
    64
  8
0
  6
CONTINUOUS
 62
     7
  0
BLOCK
  5
    65
  8
0
  6
CONTINUOUS
 62
     3
  2
*UDIM111
 70
    65
 10
0.0
 20
0.0
 30
0.0
  3
*UDIM111
  0
TEXT
  5
    66
  8
0
  6
CONTINUOUS
 62
     3
 10
-310.897982263744
 20
-75.7175788811497
 30
0.0
 40
3.00000002980232
  1
45
 50
359.999999844103
 41
0.933333333333333
 72
     1
 11
-308.397982234835
 21
-74.2175788730383
 31
0.0
 73
     2
  0
LINE
  5
    67
  8
0
  6
CONTINUOUS
 62
     3
 10
-330.897979014571
 20
-73.0592088909818
 30
0.0
 11
-330.897979014571
 21
-78.7175788879395
 31
0.0
  0
LINE
  5
    68
  8
0
  6
CONTINUOUS
 62
     3
 10
-285.897983087745
 20
-43.3017377853394
 30
0.0
 11
-285.897985596788
 21
-78.7175788879395
 31
0.0
  0
LINE
  5
    69
  8
0
  6
CONTINUOUS
 62
     3
 10
-330.897979014571
 20
-76.7175788879395
 30
0.0
 11
-285.897985455098
 21
-76.7175788879395
 31
0.0
  0
LINE
  5
    6A
  8
0
  6
CONTINUOUS
 62
     3
 10
-328.000201541361
 20
-75.9411217315209
 30
0.0
 11
-330.897979014571
 21
-76.7175788879395
 31
0.0
  0
LINE
  5
    6B
  8
0
  6
CONTINUOUS
 62
     3
 10
-330.897979014571
 20
-76.7175788879395
 30
0.0
 11
-328.000201541361
 21
-77.494036044358
 31
0.0
  0
LINE
  5
    6C
  8
0
  6
CONTINUOUS
 62
     3
 10
-288.795762928308
 20
-77.494036044358
 30
0.0
 11
-285.897985455098
 21
-76.7175788879395
 31
0.0
  0
LINE
  5
    6D
  8
0
  6
CONTINUOUS
 62
     3
 10
-285.897985455098
 20
-76.7175788879395
 30
0.0
 11
-288.795762928308
 21
-75.9411217315209
 31
0.0
  0
ENDBLK
  5
    6E
  8
0
  6
CONTINUOUS
 62
     3
  0
BLOCK
  5
    6F
  8
0
  6
CONTINUOUS
 62
     3
  2
*UDIM112
 70
    65
 10
0.0
 20
0.0
 30
0.0
  3
*UDIM112
  0
TEXT
  5
    70
  8
0
  6
CONTINUOUS
 62
     3
 10
-349.797951474059
 20
97.8421140235345
 30
0.0
 40
3.00000002980232
  1
120
 50
359.999999844103
 41
0.933333333333333
 72
     1
 11
-345.897951431242
 21
99.3421140278438
 31
0.0
 73
     2
  0
LINE
  5
    71
  8
0
  6
CONTINUOUS
 62
     3
 10
-405.897929321874
 20
49.6977992086113
 30
0.0
 11
-405.89793010066
 21
98.8421140129426
 31
0.0
  0
LINE
  5
    72
  8
0
  6
CONTINUOUS
 62
     3
 10
-285.897969207539
 20
49.6977992086113
 30
0.0
 11
-285.897972945646
 21
98.8421140129426
 31
0.0
  0
LINE
  5
    73
  8
0
  6
CONTINUOUS
 62
     3
 10
-405.897930068966
 20
96.8421140129426
 30
0.0
 11
-285.897972793519
 21
96.8421140129426
 31
0.0
  0
LINE
  5
    74
  8
0
  6
CONTINUOUS
 62
     3
 10
-403.000152595756
 20
97.6185711693611
 30
0.0
 11
-405.897930068966
 21
96.8421140129426
 31
0.0
  0
LINE
  5
    75
  8
0
  6
CONTINUOUS
 62
     3
 10
-405.897930068966
 20
96.8421140129426
 30
0.0
 11
-403.000152595756
 21
96.0656568565241
 31
0.0
  0
LINE
  5
    76
  8
0
  6
CONTINUOUS
 62
     3
 10
-288.795750266729
 20
96.0656568565241
 30
0.0
 11
-285.897972793519
 21
96.8421140129426
 31
0.0
  0
LINE
  5
    77
  8
0
  6
CONTINUOUS
 62
     3
 10
-285.897972793519
 20
96.8421140129426
 30
0.0
 11
-288.795750266729
 21
97.6185711693611
 31
0.0
  0
ENDBLK
  5
    78
  8
0
  6
CONTINUOUS
 62
     3
  0
BLOCK
  5
    79
  8
0
  6
CONTINUOUS
 62
     3
  2
*UDIM113
 70
    65
 10
0.0
 20
0.0
 30
0.0
  3
*UDIM113
  0
TEXT
  5
    7A
  8
0
  6
CONTINUOUS
 62
     3
 10
-349.798040814301
 20
106.834334605504
 30
0.0
 40
3.00000002980232
  1
133
 50
359.999999844103
 41
0.933333333333333
 72
     1
 11
-345.898040771484
 21
108.334334609813
 31
0.0
 73
     2
  0
LINE
  5
    7B
  8
0
  6
CONTINUOUS
 62
     3
 10
-412.398040771484
 20
29.4482622146606
 30
0.0
 11
-412.398040771484
 21
107.834334594912
 31
0.0
  0
LINE
  5
    7C
  8
0
  6
CONTINUOUS
 62
     3
 10
-279.398040771484
 20
29.4482622146606
 30
0.0
 11
-279.398040771484
 21
107.834334594912
 31
0.0
  0
LINE
  5
    7D
  8
0
  6
CONTINUOUS
 62
     3
 10
-412.398040771484
 20
105.834334594912
 30
0.0
 11
-279.398040771484
 21
105.834334594912
 31
0.0
  0
LINE
  5
    7E
  8
0
  6
CONTINUOUS
 62
     3
 10
-409.500263298274
 20
106.610791751331
 30
0.0
 11
-412.398040771484
 21
105.834334594912
 31
0.0
  0
LINE
  5
    7F
  8
0
  6
CONTINUOUS
 62
     3
 10
-412.398040771484
 20
105.834334594912
 30
0.0
 11
-409.500263298274
 21
105.057877438494
 31
0.0
  0
LINE
  5
    80
  8
0
  6
CONTINUOUS
 62
     3
 10
-282.295818244695
 20
105.057877438494
 30
0.0
 11
-279.398040771484
 21
105.834334594912
 31
0.0
  0
LINE
  5
    81
  8
0
  6
CONTINUOUS
 62
     3
 10
-279.398040771484
 20
105.834334594912
 30
0.0
 11
-282.295818244695
 21
106.610791751331
 31
0.0
  0
ENDBLK
  5
    82
  8
0
  6
CONTINUOUS
 62
     3
  0
BLOCK
  5
    83
  8
0
  6
CONTINUOUS
 62
     3
  2
*UDIM114
 70
    65
 10
0.0
 20
0.0
 30
0.0
  3
*UDIM114
  0
TEXT
  5
    84
  8
0
  6
CONTINUOUS
 62
     3
 10
-422.050173555073
 20
-20.8017378142466
 30
0.0
 40
3.00000002980232
  1
96
 50
449.999999844103
 41
0.933333333333333
 72
     1
 11
-423.550173563187
 21
-18.3017377853394
 31
0.0
 73
     2
  0
LINE
  5
    85
  8
0
  6
CONTINUOUS
 62
     3
 10
-412.148040771484
 20
29.6982622146606
 30
0.0
 11
-423.050173548286
 21
29.6982622146606
 31
0.0
  0
LINE
  5
    86
  8
0
  6
CONTINUOUS
 62
     3
 10
-322.148739812736
 20
-66.3017377853394
 30
0.0
 11
-423.050173548286
 21
-66.3017377853394
 31
0.0
  0
LINE
  5
    87
  8
0
  6
CONTINUOUS
 62
     3
 10
-421.050173548286
 20
29.6982622146606
 30
0.0
 11
-421.050173548286
 21
-66.3017377853394
 31
0.0
  0
LINE
  5
    88
  8
0
  6
CONTINUOUS
 62
     3
 10
-420.273716391868
 20
26.8004847414501
 30
0.0
 11
-421.050173548286
 21
29.6982622146606
 31
0.0
  0
LINE
  5
    89
  8
0
  6
CONTINUOUS
 62
     3
 10
-421.050173548286
 20
29.6982622146606
 30
0.0
 11
-421.826630704705
 21
26.8004847414501
 31
0.0
  0
LINE
  5
    8A
  8
0
  6
CONTINUOUS
 62
     3
 10
-421.826630704705
 20
-63.4039603121288
 30
0.0
 11
-421.050173548286
 21
-66.3017377853394
 31
0.0
  0
LINE
  5
    8B
  8
0
  6
CONTINUOUS
 62
     3
 10
-421.050173548286
 20
-66.3017377853394
 30
0.0
 11
-420.273716391868
 21
-63.4039603121288
 31
0.0
  0
ENDBLK
  5
    8C
  8
0
  6
CONTINUOUS
 62
     3
  0
BLOCK
  5
    8D
  8
0
  6
CONTINUOUS
 62
     7
  2
DIAFRAMMA
 70
    64
 10
0.0
 20
0.0
 30
0.0
  3
DIAFRAMMA
  0
LINE
  5
    8E
  8
0
  6
CONTINUOUS
 62
   210
 10
-0.75
 20
26.7
 30
0.0
 11
0.75
 21
26.7
 31
0.0
  0
LINE
  5
    8F
  8
0
  6
CONTINUOUS
 62
   210
 10
0.75
 20
2.2
 30
0.0
 11
0.75
 21
26.7
 31
0.0
  0
LINE
  5
    90
  8
0
  6
CONTINUOUS
 62
   210
 10
-0.75
 20
2.2
 30
0.0
 11
-0.75
 21
26.7
 31
0.0
  0
LINE
  5
    91
  8
0
  6
CONTINUOUS
 62
   210
 10
-1.4
 20
2.2
 30
0.0
 11
-0.75
 21
2.2
 31
0.0
  0
LINE
  5
    92
  8
0
  6
CONTINUOUS
 62
   210
 10
0.75
 20
2.2
 30
0.0
 11
1.4
 21
2.2
 31
0.0
  0
LINE
  5
    93
  8
0
  6
CONTINUOUS
 62
   210
 10
-1.4
 20
-2.1
 30
0.0
 11
-1.4
 21
2.2
 31
0.0
  0
LINE
  5
    94
  8
0
  6
CONTINUOUS
 62
   210
 10
-2.25
 20
0.0
 30
0.0
 11
-1.4
 21
0.0
 31
0.0
  0
LINE
  5
    95
  8
0
  6
CONTINUOUS
 62
   210
 10
-2.25
 20
-1.3
 30
0.0
 11
-2.25
 21
2.22044604925031E-16
 31
0.0
  0
LINE
  5
    96
  8
0
  6
CONTINUOUS
 62
   210
 10
-2.25
 20
-1.3
 30
0.0
 11
2.25
 21
-1.3
 31
0.0
  0
LINE
  5
    97
  8
0
  6
CONTINUOUS
 62
   210
 10
-1.4
 20
-2.1
 30
0.0
 11
1.4
 21
-2.1
 31
0.0
  0
LINE
  5
    98
  8
0
  6
CONTINUOUS
 62
   210
 10
1.4
 20
0.0
 30
0.0
 11
2.25
 21
0.0
 31
0.0
  0
LINE
  5
    99
  8
0
  6
CONTINUOUS
 62
   210
 10
1.4
 20
-2.1
 30
0.0
 11
1.4
 21
2.2
 31
0.0
  0
LINE
  5
    9A
  8
0
  6
CONTINUOUS
 62
   210
 10
2.25
 20
-1.3
 30
0.0
 11
2.25
 21
4.44089209850063E-16
 31
0.0
  0
ENDBLK
  5
    9B
  8
0
  6
CONTINUOUS
 62
     7
  0
BLOCK
  5
    9C
  8
0
  6
CONTINUOUS
 62
     3
  2
*UDIM115
 70
    65
 10
0.0
 20
0.0
 30
0.0
  3
*UDIM115
  0
TEXT
  5
    9D
  8
0
  6
CONTINUOUS
 62
     3
 10
-379.771521984638
 20
-84.7442359856419
 30
0.0
 40
3.00000002980232
  1
30
 50
359.999999844103
 41
0.933333333333333
 72
     1
 11
-377.271521955729
 21
-83.2442359775305
 31
0.0
 73
     2
  0
TEXT
  5
    9E
  8
0
  6
CONTINUOUS
 62
     3
 10
-382.571522012453
 20
-88.7442360078398
 30
0.0
 40
3.00000002980232
  1
=  =
 50
359.999999844103
 41
0.933333333333333
 72
     1
 11
-377.271521955729
 21
-87.2442360073328
 31
0.0
 73
     2
  0
LINE
  5
    9F
  8
0
  6
CONTINUOUS
 62
     3
 10
-384.496521815658
 20
-96.969611814618
 30
0.0
 11
-384.496521815658
 21
-83.7442359924316
 31
0.0
  0
LINE
  5
    A0
  8
0
  6
CONTINUOUS
 62
     3
 10
-369.496521964669
 20
-146.969600537419
 30
0.0
 11
-369.496521964669
 21
-83.7442359924316
 31
0.0
  0
LINE
  5
    A1
  8
0
  6
CONTINUOUS
 62
     3
 10
-384.496521815658
 20
-85.7442359924316
 30
0.0
 11
-369.496521964669
 21
-85.7442359924316
 31
0.0
  0
LINE
  5
    A2
  8
0
  6
CONTINUOUS
 62
     3
 10
-381.542098538451
 20
-85.22329156248
 30
0.0
 11
-384.496521815658
 21
-85.7442359924316
 31
0.0
  0
LINE
  5
    A3
  8
0
  6
CONTINUOUS
 62
     3
 10
-384.496521815658
 20
-85.7442359924316
 30
0.0
 11
-381.542098538451
 21
-86.2651804223833
 31
0.0
  0
LINE
  5
    A4
  8
0
  6
CONTINUOUS
 62
     3
 10
-372.450945241876
 20
-86.2651804223833
 30
0.0
 11
-369.496521964669
 21
-85.7442359924316
 31
0.0
  0
LINE
  5
    A5
  8
0
  6
CONTINUOUS
 62
     3
 10
-369.496521964669
 20
-85.7442359924316
 30
0.0
 11
-372.450945241876
 21
-85.22329156248
 31
0.0
  0
ENDBLK
  5
    A6
  8
0
  6
CONTINUOUS
 62
     3
  0
BLOCK
  5
    A7
  8
0
  6
CONTINUOUS
 62
     3
  2
*UDIM116
 70
    65
 10
0.0
 20
0.0
 30
0.0
  3
*UDIM116
  0
TEXT
  5
    A8
  8
0
  6
CONTINUOUS
 62
     3
 10
-414.15796089851
 20
-119.4446110031
 30
0.0
 40
3.00000002980232
  1
62
 50
449.999999844103
 41
0.933333333333333
 72
     1
 11
-415.657960906625
 21
-116.944610974193
 31
0.0
 73
     2
  0
LINE
  5
    A9
  8
0
  6
CONTINUOUS
 62
     3
 10
-389.696521744132
 20
-101.169611743092
 30
0.0
 11
-415.157960891724
 21
-101.169611743092
 31
0.0
  0
LINE
  5
    AA
  8
0
  6
CONTINUOUS
 62
     3
 10
-396.395846546666
 20
-132.169611743092
 30
0.0
 11
-415.157960891724
 21
-132.169611743092
 31
0.0
  0
LINE
  5
    AB
  8
0
  6
CONTINUOUS
 62
     3
 10
-413.157960891724
 20
-101.169611743092
 30
0.0
 11
-413.157960891724
 21
-132.169611743092
 31
0.0
  0
LINE
  5
    AC
  8
0
  6
CONTINUOUS
 62
     3
 10
-412.637016461772
 20
-104.124035020299
 30
0.0
 11
-413.157960891724
 21
-101.169611743092
 31
0.0
  0
LINE
  5
    AD
  8
0
  6
CONTINUOUS
 62
     3
 10
-413.157960891724
 20
-101.169611743092
 30
0.0
 11
-413.678905321675
 21
-104.124035020299
 31
0.0
  0
LINE
  5
    AE
  8
0
  6
CONTINUOUS
 62
     3
 10
-413.678905321675
 20
-129.215188465886
 30
0.0
 11
-413.157960891724
 21
-132.169611743092
 31
0.0
  0
LINE
  5
    AF
  8
0
  6
CONTINUOUS
 62
     3
 10
-413.157960891724
 20
-132.169611743092
 30
0.0
 11
-412.637016461772
 21
-129.215188465886
 31
0.0
  0
ENDBLK
  5
    B0
  8
0
  6
CONTINUOUS
 62
     3
  0
BLOCK
  5
    B1
  8
0
  6
CONTINUOUS
 62
     3
  2
*UDIM117
 70
    65
 10
0.0
 20
0.0
 30
0.0
  3
*UDIM117
  0
TEXT
  5
    B2
  8
0
  6
CONTINUOUS
 62
     3
 10
-410.400861188427
 20
-120.739056767194
 30
0.0
 40
3.00000002980232
  1
M4 O Ø4.5
 50
398.834348310286
 41
0.933333333333333
 72
     1
 11
-401.760232627585
 21
-111.857641276174
 31
0.0
 73
     2
  0
LINE
  5
    B3
  8
0
  6
CONTINUOUS
 62
     3
 10
-385.041795332226
 20
-101.608561370544
 30
0.0
 11
-409.773790257273
 21
-121.518018970449
 31
0.0
  0
LINE
  5
    B4
  8
0
  6
CONTINUOUS
 62
     3
 10
-387.016510232062
 20
-103.866990263461
 30
0.0
 11
-385.041795332226
 21
-101.608561370544
 31
0.0
  0
LINE
  5
    B5
  8
0
  6
CONTINUOUS
 62
     3
 10
-385.041795332226
 20
-101.608561370544
 30
0.0
 11
-387.669848424475
 21
-103.05539824605
 31
0.0
  0
ENDBLK
  5
    B6
  8
0
  6
CONTINUOUS
 62
     3
  0
BLOCK
  5
    B7
  8
0
  6
CONTINUOUS
 62
     3
  2
*UDIM118
 70
    65
 10
0.0
 20
0.0
 30
0.0
  3
*UDIM118
  0
TEXT
  5
    B8
  8
0
  6
CONTINUOUS
 62
     3
 10
-428.34565735922
 20
-130.344605289001
 30
0.0
 40
3.00000002980232
  1
100
 50
449.999999844103
 41
0.933333333333333
 72
     1
 11
-429.845657363534
 21
-126.444605246186
 31
0.0
 73
     2
  0
LINE
  5
    B9
  8
0
  6
CONTINUOUS
 62
     3
 10
-389.696521744132
 20
-101.169611743092
 30
0.0
 11
-429.345657348633
 21
-101.169611743092
 31
0.0
  0
LINE
  5
    BA
  8
0
  6
CONTINUOUS
 62
     3
 10
-377.821521893144
 20
-151.169600465894
 30
0.0
 11
-429.345657348633
 21
-151.169600465894
 31
0.0
  0
LINE
  5
    BB
  8
0
  6
CONTINUOUS
 62
     3
 10
-427.345657348633
 20
-101.169611743092
 30
0.0
 11
-427.345657348633
 21
-151.169600465894
 31
0.0
  0
LINE
  5
    BC
  8
0
  6
CONTINUOUS
 62
     3
 10
-426.824712918681
 20
-104.124035020299
 30
0.0
 11
-427.345657348633
 21
-101.169611743092
 31
0.0
  0
LINE
  5
    BD
  8
0
  6
CONTINUOUS
 62
     3
 10
-427.345657348633
 20
-101.169611743092
 30
0.0
 11
-427.866601778585
 21
-104.124035020299
 31
0.0
  0
LINE
  5
    BE
  8
0
  6
CONTINUOUS
 62
     3
 10
-427.866601778585
 20
-148.215177188687
 30
0.0
 11
-427.345657348633
 21
-151.169600465894
 31
0.0
  0
LINE
  5
    BF
  8
0
  6
CONTINUOUS
 62
     3
 10
-427.345657348633
 20
-151.169600465894
 30
0.0
 11
-426.824712918681
 21
-148.215177188687
 31
0.0
  0
ENDBLK
  5
    C0
  8
0
  6
CONTINUOUS
 62
     3
  0
BLOCK
  5
    C1
  8
0
  6
CONTINUOUS
 62
     7
  2
*HATCH50
 70
    65
 10
0.0
 20
0.0
 30
0.0
  3
*HATCH50
  0
LINE
  5
    C2
  8
0
  6
CONTINUOUS
 62
     7
 10
-53.5225372314453
 20
-125.647422790527
 30
0.0
 11
-53.9999885559082
 21
-126.124870300293
 31
0.0
  0
LINE
  5
    C3
  8
0
  6
CONTINUOUS
 62
     7
 10
-49.2798957824707
 20
-125.647422790527
 30
0.0
 11
-50.479850769043
 21
-126.847373962402
 31
0.0
  0
LINE
  5
    C4
  8
0
  6
CONTINUOUS
 62
     7
 10
-45.0372543334961
 20
-125.647422790527
 30
0.0
 11
-46.2372093200684
 21
-126.847373962402
 31
0.0
  0
LINE
  5
    C5
  8
0
  6
CONTINUOUS
 62
     7
 10
-40.7946128845215
 20
-125.647422790527
 30
0.0
 11
-41.9945678710938
 21
-126.847373962402
 31
0.0
  0
ENDBLK
  5
    C6
  8
0
  6
CONTINUOUS
 62
     7
  0
BLOCK
  5
    C7
  8
0
  6
CONTINUOUS
 62
     7
  2
*HATCH51
 70
    65
 10
0.0
 20
0.0
 30
0.0
  3
*HATCH51
  0
LINE
  5
    C8
  8
0
  6
CONTINUOUS
 62
     7
 10
-28.1726608276367
 20
-125.753387451172
 30
0.0
 11
-29.2666473388672
 21
-126.847373962402
 31
0.0
  0
ENDBLK
  5
    C9
  8
0
  6
CONTINUOUS
 62
     7
  0
BLOCK
  5
    CA
  8
0
  6
CONTINUOUS
 62
     7
  2
*HATCH52
 70
    65
 10
0.0
 20
0.0
 30
0.0
  3
*HATCH52
  0
LINE
  5
    CB
  8
0
  6
CONTINUOUS
 62
     7
 10
-23.8240509033203
 20
-125.647422790527
 30
0.0
 11
-23.9999923706055
 21
-125.823364257813
 31
0.0
  0
LINE
  5
    CC
  8
0
  6
CONTINUOUS
 62
     7
 10
-19.5813617706299
 20
-125.64737701416
 30
0.0
 11
-20.7813663482666
 21
-126.847373962402
 31
0.0
  0
LINE
  5
    CD
  8
0
  6
CONTINUOUS
 62
     7
 10
-16.5611629486084
 20
-126.869819641113
 30
0.0
 11
-17.4396076202393
 21
-127.748260498047
 31
0.0
  0
ENDBLK
  5
    CE
  8
0
  6
CONTINUOUS
 62
     7
  0
BLOCK
  5
    CF
  8
0
  6
CONTINUOUS
 62
     3
  2
*HATCH53
 70
    65
 10
0.0
 20
0.0
 30
0.0
  3
*HATCH53
  0
LINE
  5
    D0
  8
0
  6
CONTINUOUS
 62
   210
 10
-45.4999885559082
 20
-128.448333740234
 30
0.0
 11
-45.2529640197754
 21
-128.695358276367
 31
0.0
  0
ENDBLK
  5
    D1
  8
0
  6
CONTINUOUS
 62
     3
  0
BLOCK
  5
    D2
  8
0
  6
CONTINUOUS
 62
     7
  2
*HATCH54
 70
    65
 10
0.0
 20
0.0
 30
0.0
  3
*HATCH54
  0
LINE
  5
    D3
  8
0
  6
CONTINUOUS
 62
     7
 10
-57.9999885559082
 20
-124.433601379395
 30
0.0
 11
-57.9861831665039
 21
-124.447410583496
 31
0.0
  0
LINE
  5
    D4
  8
0
  6
CONTINUOUS
 62
     7
 10
-54.9435577392578
 20
-123.24739074707
 30
0.0
 11
-53.7435455322266
 21
-124.447410583496
 31
0.0
  0
LINE
  5
    D5
  8
0
  6
CONTINUOUS
 62
     7
 10
-50.7009201049805
 20
-123.24739074707
 30
0.0
 11
-49.5009078979492
 21
-124.447410583496
 31
0.0
  0
ENDBLK
  5
    D6
  8
0
  6
CONTINUOUS
 62
     7
  0
BLOCK
  5
    D7
  8
0
  6
CONTINUOUS
 62
     7
  2
*HATCH55
 70
    65
 10
0.0
 20
0.0
 30
0.0
  3
*HATCH55
  0
LINE
  5
    D8
  8
0
  6
CONTINUOUS
 62
     7
 10
-46.6999702453613
 20
-127.248344421387
 30
0.0
 11
-45.4999885559082
 21
-128.448333740234
 31
0.0
  0
ENDBLK
  5
    D9
  8
0
  6
CONTINUOUS
 62
     7
  0
BLOCK
  5
    DA
  8
0
  6
CONTINUOUS
 62
     7
  2
*HATCH56
 70
    65
 10
0.0
 20
0.0
 30
0.0
  3
*HATCH56
  0
LINE
  5
    DB
  8
0
  6
CONTINUOUS
 62
     7
 10
-25.4999885559082
 20
-127.235137939453
 30
0.0
 11
-24.299991607666
 21
-128.435134887695
 31
0.0
  0
ENDBLK
  5
    DC
  8
0
  6
CONTINUOUS
 62
     7
  0
BLOCK
  5
    DD
  8
0
  6
CONTINUOUS
 62
     7
  2
*HATCH57
 70
    65
 10
0.0
 20
0.0
 30
0.0
  3
*HATCH57
  0
LINE
  5
    DE
  8
0
  6
CONTINUOUS
 62
     7
 10
-24.6751708984375
 20
-123.817314147949
 30
0.0
 11
-23.8555488586426
 21
-124.636940002441
 31
0.0
  0
LINE
  5
    DF
  8
0
  6
CONTINUOUS
 62
     7
 10
-21.0024528503418
 20
-123.24739074707
 30
0.0
 11
-19.8024406433105
 21
-124.447410583496
 31
0.0
  0
LINE
  5
    E0
  8
0
  6
CONTINUOUS
 62
     7
 10
-16.7598114013672
 20
-123.24739074707
 30
0.0
 11
-15.5598030090332
 21
-124.447410583496
 31
0.0
  0
LINE
  5
    E1
  8
0
  6
CONTINUOUS
 62
     7
 10
-12.5171699523926
 20
-123.24739074707
 30
0.0
 11
-11.3171653747559
 21
-124.447410583496
 31
0.0
  0
LINE
  5
    E2
  8
0
  6
CONTINUOUS
 62
     7
 10
-8.27452850341797
 20
-123.24739074707
 30
0.0
 11
-7.07452726364136
 21
-124.447410583496
 31
0.0
  0
LINE
  5
    E3
  8
0
  6
CONTINUOUS
 62
     7
 10
-4.03188753128052
 20
-123.24739074707
 30
0.0
 11
-2.83188915252686
 21
-124.447410583496
 31
0.0
  0
ENDBLK
  5
    E4
  8
0
  6
CONTINUOUS
 62
     7
  0
BLOCK
  5
    E5
  8
0
  6
CONTINUOUS
 62
     3
  2
*HATCH58
 70
    65
 10
0.0
 20
0.0
 30
0.0
  3
*HATCH58
  0
LINE
  5
    E6
  8
0
  6
CONTINUOUS
 62
   210
 10
-45.4999885559082
 20
-128.448333740234
 30
0.0
 11
-45.2529640197754
 21
-128.695358276367
 31
0.0
  0
ENDBLK
  5
    E7
  8
0
  6
CONTINUOUS
 62
     3
  0
BLOCK
  5
    E8
  8
0
  6
CONTINUOUS
 62
     7
  2
*HATCH59
 70
    65
 10
0.0
 20
0.0
 30
0.0
  3
*HATCH59
  0
LINE
  5
    E9
  8
0
  6
CONTINUOUS
 62
     7
 10
33.3043479919434
 20
-89.7322311401367
 30
0.0
 11
30.5
 21
-92.5365753173828
 31
0.0
  0
ENDBLK
  5
    EA
  8
0
  6
CONTINUOUS
 62
     7
  0
BLOCK
  5
    EB
  8
0
  6
CONTINUOUS
 62
     7
  2
*HATCH60
 70
    65
 10
0.0
 20
0.0
 30
0.0
  3
*HATCH60
  0
LINE
  5
    EC
  8
0
  6
CONTINUOUS
 62
     7
 10
41.7896270751953
 20
-89.7322311401367
 30
0.0
 11
39.4999885559082
 21
-92.0218734741211
 31
0.0
  0
LINE
  5
    ED
  8
0
  6
CONTINUOUS
 62
     7
 10
42.5
 20
-93.2645034790039
 30
0.0
 11
42.0322685241699
 21
-93.7322311401367
 31
0.0
  0
ENDBLK
  5
    EE
  8
0
  6
CONTINUOUS
 62
     7
  0
BLOCK
  5
    EF
  8
0
  6
CONTINUOUS
 62
     7
  2
*HATCH61
 70
    65
 10
0.0
 20
0.0
 30
0.0
  3
*HATCH61
  0
LINE
  5
    F0
  8
0
  6
CONTINUOUS
 62
     7
 10
31.8646125793457
 20
-108.232231140137
 30
0.0
 11
33.8646087646484
 21
-110.232231140137
 31
0.0
  0
LINE
  5
    F1
  8
0
  6
CONTINUOUS
 62
     7
 10
36.107250213623
 20
-108.232231140137
 30
0.0
 11
38.1072463989258
 21
-110.232231140137
 31
0.0
  0
LINE
  5
    F2
  8
0
  6
CONTINUOUS
 62
     7
 10
40.3498878479004
 20
-108.232231140137
 30
0.0
 11
42.3498840332031
 21
-110.232231140137
 31
0.0
  0
ENDBLK
  5
    F3
  8
0
  6
CONTINUOUS
 62
     7
  0
BLOCK
  5
    F4
  8
0
  6
CONTINUOUS
 62
     7
  2
*HATCH62
 70
    65
 10
0.0
 20
0.0
 30
0.0
  3
*HATCH62
  0
LINE
  5
    F5
  8
0
  6
CONTINUOUS
 62
    52
 10
-50.3687210083008
 20
-48.2473983764648
 30
0.0
 11
-50.5000152587891
 21
-48.3786926269531
 31
0.0
  0
LINE
  5
    F6
  8
0
  6
CONTINUOUS
 62
    52
 10
-48.2474021911621
 20
-48.2473983764648
 30
0.0
 11
-50.5000152587891
 21
-50.5000114440918
 31
0.0
  0
LINE
  5
    F7
  8
0
  6
CONTINUOUS
 62
    52
 10
-46.1260833740234
 20
-48.2473983764648
 30
0.0
 11
-49.1260833740234
 21
-51.2473983764648
 31
0.0
  0
LINE
  5
    F8
  8
0
  6
CONTINUOUS
 62
    52
 10
-44.0047645568848
 20
-48.2473983764648
 30
0.0
 11
-47.0047645568848
 21
-51.2473983764648
 31
0.0
  0
LINE
  5
    F9
  8
0
  6
CONTINUOUS
 62
    52
 10
-41.8834457397461
 20
-48.2473983764648
 30
0.0
 11
-44.8834457397461
 21
-51.2473983764648
 31
0.0
  0
LINE
  5
    FA
  8
0
  6
CONTINUOUS
 62
    52
 10
-39.7621269226074
 20
-48.2473983764648
 30
0.0
 11
-42.7621269226074
 21
-51.2473983764648
 31
0.0
  0
LINE
  5
    FB
  8
0
  6
CONTINUOUS
 62
    52
 10
-37.6408081054688
 20
-48.2473983764648
 30
0.0
 11
-40.6408081054688
 21
-51.2473983764648
 31
0.0
  0
LINE
  5
    FC
  8
0
  6
CONTINUOUS
 62
    52
 10
-35.5194892883301
 20
-48.2473983764648
 30
0.0
 11
-38.5194892883301
 21
-51.2473983764648
 31
0.0
  0
LINE
  5
    FD
  8
0
  6
CONTINUOUS
 62
    52
 10
-33.3981704711914
 20
-48.2473983764648
 30
0.0
 11
-36.3981704711914
 21
-51.2473983764648
 31
0.0
  0
LINE
  5
    FE
  8
0
  6
CONTINUOUS
 62
    52
 10
-31.2768497467041
 20
-48.2473983764648
 30
0.0
 11
-34.2768516540527
 21
-51.2473983764648
 31
0.0
  0
LINE
  5
    FF
  8
0
  6
CONTINUOUS
 62
    52
 10
-29.1555290222168
 20
-48.2473983764648
 30
0.0
 11
-32.1555328369141
 21
-51.2473983764648
 31
0.0
  0
LINE
  5
   100
  8
0
  6
CONTINUOUS
 62
    52
 10
-27.0342082977295
 20
-48.2473983764648
 30
0.0
 11
-30.0342121124268
 21
-51.2473983764648
 31
0.0
  0
LINE
  5
   101
  8
0
  6
CONTINUOUS
 62
    52
 10
-26.0000152587891
 20
-49.3345375061035
 30
0.0
 11
-27.912878036499
 21
-51.2473983764648
 31
0.0
  0
LINE
  5
   102
  8
0
  6
CONTINUOUS
 62
    52
 10
-26.0000152587891
 20
-51.4558563232422
 30
0.0
 11
-27.2915573120117
 21
-52.7473983764648
 31
0.0
  0
ENDBLK
  5
   103
  8
0
  6
CONTINUOUS
 62
     7
  0
BLOCK
  5
   104
  8
0
  6
CONTINUOUS
 62
     7
  2
*HATCH63
 70
    65
 10
0.0
 20
0.0
 30
0.0
  3
*HATCH63
  0
LINE
  5
   105
  8
0
  6
CONTINUOUS
 62
    52
 10
21.7561721801758
 20
-48.2473983764648
 30
0.0
 11
20.9999847412109
 21
-49.0035858154297
 31
0.0
  0
LINE
  5
   106
  8
0
  6
CONTINUOUS
 62
    52
 10
23.8774929046631
 20
-48.2473983764648
 30
0.0
 11
20.9999847412109
 21
-51.1249046325684
 31
0.0
  0
LINE
  5
   107
  8
0
  6
CONTINUOUS
 62
    52
 10
25.9988136291504
 20
-48.2473983764648
 30
0.0
 11
22.9988117218018
 21
-51.2473983764648
 31
0.0
  0
LINE
  5
   108
  8
0
  6
CONTINUOUS
 62
    52
 10
22.4999847412109
 20
-51.7462272644043
 30
0.0
 11
21.4988117218018
 21
-52.7473983764648
 31
0.0
  0
LINE
  5
   109
  8
0
  6
CONTINUOUS
 62
    52
 10
28.1201324462891
 20
-48.2473983764648
 30
0.0
 11
25.1201324462891
 21
-51.2473983764648
 31
0.0
  0
LINE
  5
   10A
  8
0
  6
CONTINUOUS
 62
    52
 10
30.2414531707764
 20
-48.2473983764648
 30
0.0
 11
27.2414531707764
 21
-51.2473983764648
 31
0.0
  0
LINE
  5
   10B
  8
0
  6
CONTINUOUS
 62
    52
 10
32.3627738952637
 20
-48.2473983764648
 30
0.0
 11
29.3627738952637
 21
-51.2473983764648
 31
0.0
  0
LINE
  5
   10C
  8
0
  6
CONTINUOUS
 62
    52
 10
34.4840927124023
 20
-48.2473983764648
 30
0.0
 11
31.484094619751
 21
-51.2473983764648
 31
0.0
  0
LINE
  5
   10D
  8
0
  6
CONTINUOUS
 62
    52
 10
36.605411529541
 20
-48.2473983764648
 30
0.0
 11
33.6054153442383
 21
-51.2473983764648
 31
0.0
  0
LINE
  5
   10E
  8
0
  6
CONTINUOUS
 62
    52
 10
38.7267303466797
 20
-48.2473983764648
 30
0.0
 11
35.726734161377
 21
-51.2473983764648
 31
0.0
  0
LINE
  5
   10F
  8
0
  6
CONTINUOUS
 62
    52
 10
40.8480491638184
 20
-48.2473983764648
 30
0.0
 11
37.8480529785156
 21
-51.2473983764648
 31
0.0
  0
LINE
  5
   110
  8
0
  6
CONTINUOUS
 62
    52
 10
42.969367980957
 20
-48.2473983764648
 30
0.0
 11
39.9693717956543
 21
-51.2473983764648
 31
0.0
  0
LINE
  5
   111
  8
0
  6
CONTINUOUS
 62
    52
 10
45.0906867980957
 20
-48.2473983764648
 30
0.0
 11
42.090690612793
 21
-51.2473983764648
 31
0.0
  0
LINE
  5
   112
  8
0
  6
CONTINUOUS
 62
    52
 10
45.4999847412109
 20
-49.9594306945801
 30
0.0
 11
44.2120170593262
 21
-51.2473983764648
 31
0.0
  0
ENDBLK
  5
   113
  8
0
  6
CONTINUOUS
 62
     7
  0
BLOCK
  5
   114
  8
0
  6
CONTINUOUS
 62
     3
  2
*UDIM119
 70
    65
 10
0.0
 20
0.0
 30
0.0
  3
*UDIM119
  0
TEXT
  5
   115
  8
0
  6
CONTINUOUS
 62
     3
 10
-129.744216925732
 20
-21.0771736493696
 30
0.0
 40
3.00000002980232
  1
45
 50
449.999999844103
 41
0.933333333333333
 72
     1
 11
-131.244216933846
 21
-18.5771736204624
 31
0.0
 73
     2
  0
LINE
  5
   116
  8
0
  6
CONTINUOUS
 62
     3
 10
-157.674072027206
 20
4.1978263854981
 30
0.0
 11
-126.744216918945
 21
4.1978263854981
 31
0.0
  0
LINE
  5
   117
  8
0
  6
CONTINUOUS
 62
     3
 10
-157.674072027206
 20
-40.8021736145019
 30
0.0
 11
-126.744216918945
 21
-40.8021736145019
 31
0.0
  0
LINE
  5
   118
  8
0
  6
CONTINUOUS
 62
     3
 10
-128.744216918945
 20
4.1978263854981
 30
0.0
 11
-128.744216918945
 21
-40.8021736145019
 31
0.0
  0
LINE
  5
   119
  8
0
  6
CONTINUOUS
 62
     3
 10
-128.223272488994
 20
1.24340310829113
 30
0.0
 11
-128.744216918945
 21
4.1978263854981
 31
0.0
  0
LINE
  5
   11A
  8
0
  6
CONTINUOUS
 62
     3
 10
-128.744216918945
 20
4.1978263854981
 30
0.0
 11
-129.265161348897
 21
1.24340310829113
 31
0.0
  0
LINE
  5
   11B
  8
0
  6
CONTINUOUS
 62
     3
 10
-129.265161348897
 20
-37.8477503372949
 30
0.0
 11
-128.744216918945
 21
-40.8021736145019
 31
0.0
  0
LINE
  5
   11C
  8
0
  6
CONTINUOUS
 62
     3
 10
-128.744216918945
 20
-40.8021736145019
 30
0.0
 11
-128.223272488994
 21
-37.8477503372949
 31
0.0
  0
ENDBLK
  5
   11D
  8
0
  6
CONTINUOUS
 62
     3
  0
BLOCK
  5
   11E
  8
0
  6
CONTINUOUS
 62
     7
  2
*UDIM120
 70
    65
 10
0.0
 20
0.0
 30
0.0
  3
*UDIM120
  0
TEXT
  5
   11F
  8
0
  6
CONTINUOUS
 62
     7
 10
-251.008346560603
 20
-10.902186921279
 30
0.0
 40
3.00000002980232
  1
=
 50
449.999999844103
 41
0.933333333333334
 72
     1
 11
-252.508346572518
 21
-9.80218690627951
 31
0.0
 73
     2
  0
LINE
  5
   120
  8
0
  6
CONTINUOUS
 62
     3
 10
-236.674073219299
 20
-1.30220019805711
 30
0.0
 11
-252.008346557617
 21
-1.30220019805711
 31
0.0
  0
LINE
  5
   121
  8
0
  6
CONTINUOUS
 62
     3
 10
-242.344865006751
 20
-18.3021736145019
 30
0.0
 11
-252.008346557617
 21
-18.3021736145019
 31
0.0
  0
LINE
  5
   122
  8
0
  6
CONTINUOUS
 62
     3
 10
-250.008346557617
 20
-1.30220019805711
 30
0.0
 11
-250.008346557617
 21
-18.3021736145019
 31
0.0
  0
LINE
  5
   123
  8
0
  6
CONTINUOUS
 62
     3
 10
-249.487402127666
 20
-4.25662347526407
 30
0.0
 11
-250.008346557617
 21
-1.30220019805711
 31
0.0
  0
LINE
  5
   124
  8
0
  6
CONTINUOUS
 62
     3
 10
-250.008346557617
 20
-1.30220019805711
 30
0.0
 11
-250.529290987569
 21
-4.25662347526407
 31
0.0
  0
LINE
  5
   125
  8
0
  6
CONTINUOUS
 62
     3
 10
-250.529290987569
 20
-15.3477503372949
 30
0.0
 11
-250.008346557617
 21
-18.3021736145019
 31
0.0
  0
LINE
  5
   126
  8
0
  6
CONTINUOUS
 62
     3
 10
-250.008346557617
 20
-18.3021736145019
 30
0.0
 11
-249.487402127666
 21
-15.3477503372949
 31
0.0
  0
ENDBLK
  5
   127
  8
0
  6
CONTINUOUS
 62
     7
  0
BLOCK
  5
   128
  8
0
  6
CONTINUOUS
 62
     7
  2
*UDIM121
 70
    65
 10
0.0
 20
0.0
 30
0.0
  3
*UDIM121
  0
TEXT
  5
   129
  8
0
  6
CONTINUOUS
 62
     7
 10
-251.008346560603
 20
-28.652186921279
 30
0.0
 40
3.00000002980232
  1
=
 50
449.999999844103
 41
0.933333333333334
 72
     1
 11
-252.508346572518
 21
-27.5521869062795
 31
0.0
 73
     2
  0
LINE
  5
   12A
  8
0
  6
CONTINUOUS
 62
     3
 10
-236.674073219299
 20
-36.8022001980571
 30
0.0
 11
-252.008346557617
 21
-36.8022001980571
 31
0.0
  0
LINE
  5
   12B
  8
0
  6
CONTINUOUS
 62
     3
 10
-250.008346557617
 20
-18.3021736145019
 30
0.0
 11
-250.008346557617
 21
-36.8022001980571
 31
0.0
  0
LINE
  5
   12C
  8
0
  6
CONTINUOUS
 62
     3
 10
-249.487402127666
 20
-21.2565968917089
 30
0.0
 11
-250.008346557617
 21
-18.3021736145019
 31
0.0
  0
LINE
  5
   12D
  8
0
  6
CONTINUOUS
 62
     3
 10
-250.008346557617
 20
-18.3021736145019
 30
0.0
 11
-250.529290987569
 21
-21.2565968917089
 31
0.0
  0
LINE
  5
   12E
  8
0
  6
CONTINUOUS
 62
     3
 10
-250.529290987569
 20
-33.8477769208501
 30
0.0
 11
-250.008346557617
 21
-36.8022001980571
 31
0.0
  0
LINE
  5
   12F
  8
0
  6
CONTINUOUS
 62
     3
 10
-250.008346557617
 20
-36.8022001980571
 30
0.0
 11
-249.487402127666
 21
-33.8477769208501
 31
0.0
  0
ENDBLK
  5
   130
  8
0
  6
CONTINUOUS
 62
     7
  0
BLOCK
  5
   131
  8
0
  6
CONTINUOUS
 62
     3
  2
*UDIM122
 70
    65
 10
0.0
 20
0.0
 30
0.0
  3
*UDIM122
  0
TEXT
  5
   132
  8
0
  6
CONTINUOUS
 62
     3
 10
-224.491473451357
 20
-93.3448371743265
 30
0.0
 40
3.00000002980232
  1
27,5
 50
359.999999844103
 41
0.933333333333333
 72
     1
 11
-219.191473394632
 21
-91.8448371738195
 31
0.0
 73
     2
  0
LINE
  5
   133
  8
0
  6
CONTINUOUS
 62
     3
 10
-232.674058914185
 20
-63.3021887539653
 30
0.0
 11
-232.674058914185
 21
-96.3448371887207
 31
0.0
  0
LINE
  5
   134
  8
0
  6
CONTINUOUS
 62
     3
 10
-205.158897399902
 20
-62.2763076659144
 30
0.0
 11
-205.158897399902
 21
-96.3448371887207
 31
0.0
  0
LINE
  5
   135
  8
0
  6
CONTINUOUS
 62
     3
 10
-232.674058914185
 20
-94.3448371887207
 30
0.0
 11
-205.158897399902
 21
-94.3448371887207
 31
0.0
  0
LINE
  5
   136
  8
0
  6
CONTINUOUS
 62
     3
 10
-229.719635636978
 20
-93.823892758769
 30
0.0
 11
-232.674058914185
 21
-94.3448371887207
 31
0.0
  0
LINE
  5
   137
  8
0
  6
CONTINUOUS
 62
     3
 10
-232.674058914185
 20
-94.3448371887207
 30
0.0
 11
-229.719635636978
 21
-94.8657816186724
 31
0.0
  0
LINE
  5
   138
  8
0
  6
CONTINUOUS
 62
     3
 10
-208.113320677109
 20
-94.8657816186724
 30
0.0
 11
-205.158897399902
 21
-94.3448371887207
 31
0.0
  0
LINE
  5
   139
  8
0
  6
CONTINUOUS
 62
     3
 10
-205.158897399902
 20
-94.3448371887207
 30
0.0
 11
-208.113320677109
 21
-93.823892758769
 31
0.0
  0
ENDBLK
  5
   13A
  8
0
  6
CONTINUOUS
 62
     3
  0
BLOCK
  5
   13B
  8
0
  6
CONTINUOUS
 62
     3
  2
*UDIM123
 70
    65
 10
0.0
 20
0.0
 30
0.0
  3
*UDIM123
  0
TEXT
  5
   13C
  8
0
  6
CONTINUOUS
 62
     3
 10
-241.424072375994
 20
-107.631336209171
 30
0.0
 40
3.00000002980232
  1
3
 50
359.999999844103
 41
0.933333333333334
 72
     1
 11
-240.324072360992
 21
-106.131336197257
 31
0.0
 73
     2
  0
LINE
  5
   13D
  8
0
  6
CONTINUOUS
 62
     3
 10
-235.674073219299
 20
-36.8022001980571
 30
0.0
 11
-235.674073219299
 21
-110.631336212158
 31
0.0
  0
LINE
  5
   13E
  8
0
  6
CONTINUOUS
 62
     3
 10
-232.674058914185
 20
-63.3021887539653
 30
0.0
 11
-232.674058914185
 21
-110.631336212158
 31
0.0
  0
LINE
  5
   13F
  8
0
  6
CONTINUOUS
 62
     3
 10
-241.42407237192
 20
-108.631336212158
 30
0.0
 11
-232.674058914185
 21
-108.631336212158
 31
0.0
  0
LINE
  5
   140
  8
0
  6
CONTINUOUS
 62
     3
 10
-238.628496496506
 20
-109.15228064211
 30
0.0
 11
-235.674073219299
 21
-108.631336212158
 31
0.0
  0
LINE
  5
   141
  8
0
  6
CONTINUOUS
 62
     3
 10
-235.674073219299
 20
-108.631336212158
 30
0.0
 11
-238.628496496506
 21
-108.110391782207
 31
0.0
  0
LINE
  5
   142
  8
0
  6
CONTINUOUS
 62
     3
 10
-229.719635636978
 20
-108.110391782207
 30
0.0
 11
-232.674058914185
 21
-108.631336212158
 31
0.0
  0
LINE
  5
   143
  8
0
  6
CONTINUOUS
 62
     3
 10
-232.674058914185
 20
-108.631336212158
 30
0.0
 11
-229.719635636978
 21
-109.15228064211
 31
0.0
  0
ENDBLK
  5
   144
  8
0
  6
CONTINUOUS
 62
     3
  0
BLOCK
  5
   145
  8
0
  6
CONTINUOUS
 62
     3
  2
*UDIM124
 70
    65
 10
0.0
 20
0.0
 30
0.0
  3
*UDIM124
  0
TEXT
  5
   146
  8
0
  6
CONTINUOUS
 62
     3
 10
-197.9490646711
 20
-107.631336205368
 30
0.0
 40
3.00000002980232
  1
75
 50
359.999999844103
 41
0.933333333333333
 72
     1
 11
-195.449064642191
 21
-106.131336197257
 31
0.0
 73
     2
  0
LINE
  5
   147
  8
0
  6
CONTINUOUS
 62
     3
 10
-232.674058914185
 20
-63.3021887539653
 30
0.0
 11
-232.674058914185
 21
-110.631336212158
 31
0.0
  0
LINE
  5
   148
  8
0
  6
CONTINUOUS
 62
     3
 10
-157.674072027206
 20
-40.8021736145019
 30
0.0
 11
-157.674072027206
 21
-110.631336212158
 31
0.0
  0
LINE
  5
   149
  8
0
  6
CONTINUOUS
 62
     3
 10
-232.674058914185
 20
-108.631336212158
 30
0.0
 11
-157.674072027206
 21
-108.631336212158
 31
0.0
  0
LINE
  5
   14A
  8
0
  6
CONTINUOUS
 62
     3
 10
-229.719635636978
 20
-108.110391782207
 30
0.0
 11
-232.674058914185
 21
-108.631336212158
 31
0.0
  0
LINE
  5
   14B
  8
0
  6
CONTINUOUS
 62
     3
 10
-232.674058914185
 20
-108.631336212158
 30
0.0
 11
-229.719635636978
 21
-109.15228064211
 31
0.0
  0
LINE
  5
   14C
  8
0
  6
CONTINUOUS
 62
     3
 10
-160.628495304413
 20
-109.15228064211
 30
0.0
 11
-157.674072027206
 21
-108.631336212158
 31
0.0
  0
LINE
  5
   14D
  8
0
  6
CONTINUOUS
 62
     3
 10
-157.674072027206
 20
-108.631336212158
 30
0.0
 11
-160.628495304413
 21
-108.110391782207
 31
0.0
  0
ENDBLK
  5
   14E
  8
0
  6
CONTINUOUS
 62
     3
  0
BLOCK
  5
   14F
  8
0
  6
CONTINUOUS
 62
     7
  2
*UDIM125
 70
    65
 10
0.0
 20
0.0
 30
0.0
  3
*UDIM125
  0
TEXT
  5
   150
  8
0
  6
CONTINUOUS
 62
     7
 10
-158.875595993897
 20
98.1710977033627
 30
0.0
 40
3.00000002980232
  1
1.5
 50
359.999999844103
 41
0.933333333333333
 72
     1
 11
-154.97559595108
 21
99.6710977076719
 31
0.0
 73
     2
  0
TEXT
  5
   151
  8
0
  6
CONTINUOUS
 62
     7
 10
-150.075595916411
 20
98.1710976995605
 30
0.0
 40
3.00000002980232
  1
-2
 50
359.999999844103
 41
0.933333333333333
 72
     1
 11
-147.575595887502
 21
99.6710977076719
 31
0.0
 73
     2
  0
LINE
  5
   152
  8
0
  6
CONTINUOUS
 62
     7
 10
-162.17406463623
 20
66.3391649413143
 30
0.0
 11
-162.17406463623
 21
99.1710976927708
 31
0.0
  0
LINE
  5
   153
  8
0
  6
CONTINUOUS
 62
     7
 10
-160.67406463623
 20
66.3391649413143
 30
0.0
 11
-160.67406463623
 21
99.1710976927708
 31
0.0
  0
LINE
  5
   154
  8
0
  6
CONTINUOUS
 62
     7
 10
-167.17406463623
 20
97.1710976927707
 30
0.0
 11
-145.075595862667
 21
97.1710976927707
 31
0.0
  0
LINE
  5
   155
  8
0
  6
CONTINUOUS
 62
     3
 10
-165.071842109441
 20
96.3946405363522
 30
0.0
 11
-162.17406463623
 21
97.1710976927707
 31
0.0
  0
LINE
  5
   156
  8
0
  6
CONTINUOUS
 62
     3
 10
-162.17406463623
 20
97.1710976927707
 30
0.0
 11
-165.071842109441
 21
97.9475548491893
 31
0.0
  0
LINE
  5
   157
  8
0
  6
CONTINUOUS
 62
     3
 10
-157.77628716302
 20
97.9475548491893
 30
0.0
 11
-160.67406463623
 21
97.1710976927707
 31
0.0
  0
LINE
  5
   158
  8
0
  6
CONTINUOUS
 62
     3
 10
-160.67406463623
 20
97.1710976927707
 30
0.0
 11
-157.77628716302
 21
96.3946405363522
 31
0.0
  0
ENDBLK
  5
   159
  8
0
  6
CONTINUOUS
 62
     7
  0
BLOCK
  5
   15A
  8
0
  6
CONTINUOUS
 62
     7
  2
*UDIM126
 70
    65
 10
0.0
 20
0.0
 30
0.0
  3
*UDIM126
  0
TEXT
  5
   15B
  8
0
  6
CONTINUOUS
 62
     7
 10
-199.924061581593
 20
98.1710976995605
 30
0.0
 40
3.00000002980232
  1
71
 50
359.999999844103
 41
0.933333333333333
 72
     1
 11
-197.424061552683
 21
99.6710977076719
 31
0.0
 73
     2
  0
LINE
  5
   15C
  8
0
  6
CONTINUOUS
 62
     7
 10
-232.674058469136
 20
54.6977958679199
 30
0.0
 11
-232.674058469136
 21
99.1710976927708
 31
0.0
  0
LINE
  5
   15D
  8
0
  6
CONTINUOUS
 62
     7
 10
-162.17406463623
 20
66.3391649413143
 30
0.0
 11
-162.17406463623
 21
99.1710976927708
 31
0.0
  0
LINE
  5
   15E
  8
0
  6
CONTINUOUS
 62
     7
 10
-232.674058469136
 20
97.1710976927707
 30
0.0
 11
-162.17406463623
 21
97.1710976927707
 31
0.0
  0
LINE
  5
   15F
  8
0
  6
CONTINUOUS
 62
     3
 10
-229.776280995926
 20
97.9475548491893
 30
0.0
 11
-232.674058469136
 21
97.1710976927707
 31
0.0
  0
LINE
  5
   160
  8
0
  6
CONTINUOUS
 62
     3
 10
-232.674058469136
 20
97.1710976927707
 30
0.0
 11
-229.776280995926
 21
96.3946405363522
 31
0.0
  0
LINE
  5
   161
  8
0
  6
CONTINUOUS
 62
     3
 10
-165.071842109441
 20
96.3946405363522
 30
0.0
 11
-162.17406463623
 21
97.1710976927707
 31
0.0
  0
LINE
  5
   162
  8
0
  6
CONTINUOUS
 62
     3
 10
-162.17406463623
 20
97.1710976927707
 30
0.0
 11
-165.071842109441
 21
97.9475548491893
 31
0.0
  0
ENDBLK
  5
   163
  8
0
  6
CONTINUOUS
 62
     7
  0
BLOCK
  5
   164
  8
0
  6
CONTINUOUS
 62
     7
  2
*UDIM127
 70
    65
 10
0.0
 20
0.0
 30
0.0
  3
*UDIM127
  0
TEXT
  5
   165
  8
0
  6
CONTINUOUS
 62
     7
 10
-203.92077241848
 20
-38.0147418831888
 30
0.0
 40
3.00000002980232
  1
12.5
 50
359.999999844103
 41
0.933333333333333
 72
     1
 11
-198.620772361755
 21
-36.5147418826818
 31
0.0
 73
     2
  0
TEXT
  5
   166
  8
0
  6
CONTINUOUS
 62
     7
 10
-192.320772313178
 20
-38.0147418793866
 30
0.0
 40
3.00000002980232
  1
x12.5
 50
359.999999844103
 41
0.933333333333333
 72
     1
 11
-185.620772242546
 21
-36.5147418826818
 31
0.0
 73
     2
  0
LINE
  5
   167
  8
0
  6
CONTINUOUS
 62
     7
 10
-217.658897399902
 20
-50.302188873291
 30
0.0
 11
-217.658897399902
 21
-37.014741897583
 31
0.0
  0
LINE
  5
   168
  8
0
  6
CONTINUOUS
 62
     7
 10
-205.158897399902
 20
-50.302188873291
 30
0.0
 11
-205.158897399902
 21
-37.014741897583
 31
0.0
  0
LINE
  5
   169
  8
0
  6
CONTINUOUS
 62
     7
 10
-217.658897399902
 20
-39.014741897583
 30
0.0
 11
-178.920772175988
 21
-39.014741897583
 31
0.0
  0
LINE
  5
   16A
  8
0
  6
CONTINUOUS
 62
     3
 10
-214.761119926692
 20
-38.2382847411645
 30
0.0
 11
-217.658897399902
 21
-39.014741897583
 31
0.0
  0
LINE
  5
   16B
  8
0
  6
CONTINUOUS
 62
     3
 10
-217.658897399902
 20
-39.014741897583
 30
0.0
 11
-214.761119926692
 21
-39.7911990540016
 31
0.0
  0
LINE
  5
   16C
  8
0
  6
CONTINUOUS
 62
     3
 10
-208.056674873113
 20
-39.7911990540016
 30
0.0
 11
-205.158897399902
 21
-39.014741897583
 31
0.0
  0
LINE
  5
   16D
  8
0
  6
CONTINUOUS
 62
     3
 10
-205.158897399902
 20
-39.014741897583
 30
0.0
 11
-208.056674873113
 21
-38.2382847411645
 31
0.0
  0
ENDBLK
  5
   16E
  8
0
  6
CONTINUOUS
 62
     7
  0
BLOCK
  5
   16F
  8
0
  6
CONTINUOUS
 62
     7
  2
*UDIM128
 70
    65
 10
0.0
 20
0.0
 30
0.0
  3
*UDIM128
  0
TEXT
  5
   170
  8
0
  6
CONTINUOUS
 62
     7
 10
-188.710231104056
 20
-117.682094567185
 30
0.0
 40
3.00000002980232
  1
93
 50
359.999999844103
 41
0.933333333333333
 72
     1
 11
-186.210231075147
 21
-116.182094559073
 31
0.0
 73
     2
  0
LINE
  5
   171
  8
0
  6
CONTINUOUS
 62
     7
 10
-232.674058469136
 20
-67.302188873291
 30
0.0
 11
-232.674058469136
 21
-120.682094573975
 31
0.0
  0
LINE
  5
   172
  8
0
  6
CONTINUOUS
 62
     7
 10
-139.746403681157
 20
-37.5391917056958
 30
0.0
 11
-139.746403681157
 21
-120.682094573975
 31
0.0
  0
LINE
  5
   173
  8
0
  6
CONTINUOUS
 62
     7
 10
-232.674058469136
 20
-118.682094573975
 30
0.0
 11
-139.746403681157
 21
-118.682094573975
 31
0.0
  0
LINE
  5
   174
  8
0
  6
CONTINUOUS
 62
     3
 10
-229.776280995926
 20
-117.905637417556
 30
0.0
 11
-232.674058469136
 21
-118.682094573975
 31
0.0
  0
LINE
  5
   175
  8
0
  6
CONTINUOUS
 62
     3
 10
-232.674058469136
 20
-118.682094573975
 30
0.0
 11
-229.776280995926
 21
-119.458551730393
 31
0.0
  0
LINE
  5
   176
  8
0
  6
CONTINUOUS
 62
     3
 10
-142.644181154367
 20
-119.458551730393
 30
0.0
 11
-139.746403681157
 21
-118.682094573975
 31
0.0
  0
LINE
  5
   177
  8
0
  6
CONTINUOUS
 62
     3
 10
-139.746403681157
 20
-118.682094573975
 30
0.0
 11
-142.644181154367
 21
-117.905637417556
 31
0.0
  0
ENDBLK
  5
   178
  8
0
  6
CONTINUOUS
 62
     7
  0
BLOCK
  5
   179
  8
0
  6
CONTINUOUS
 62
     7
  2
DIA_LATO
 70
    64
 10
0.0
 20
0.0
 30
0.0
  3
DIA_LATO
  0
LINE
  5
   17A
  8
0
  6
CONTINUOUS
 62
   210
 10
0.0
 20
0.0
 30
0.0
 11
0.0
 21
23.1999950408936
 31
0.0
  0
ARC
  5
   17B
  8
0
  6
CONTINUOUS
 62
   210
 10
1.5
 20
23.1999950408936
 30
0.0
 40
1.5
 50
90.0
 51
180.0
  0
LINE
  5
   17C
  8
0
  6
CONTINUOUS
 62
   210
 10
0.0
 20
0.199995040893569
 30
0.0
 11
50.0
 21
0.199995040893569
 31
0.0
  0
LINE
  5
   17D
  8
0
  6
CONTINUOUS
 62
   210
 10
1.5
 20
24.6999950408936
 30
0.0
 11
48.5
 21
24.6999950408936
 31
0.0
  0
ARC
  5
   17E
  8
0
  6
CONTINUOUS
 62
   210
 10
48.5
 20
23.1999950408936
 30
0.0
 40
1.5
 50
1.27222187258541E-14
 51
90.0
  0
LINE
  5
   17F
  8
0
  6
CONTINUOUS
 62
   210
 10
50.0
 20
1.52587890767109E-5
 30
0.0
 11
50.0
 21
23.1999950408936
 31
0.0
  0
ENDBLK
  5
   180
  8
0
  6
CONTINUOUS
 62
     7
  0
BLOCK
  5
   181
  8
0
  6
CONTINUOUS
 62
     3
  2
*UDIM129
 70
    65
 10
0.0
 20
0.0
 30
0.0
  3
*UDIM129
  0
TEXT
  5
   182
  8
0
  6
CONTINUOUS
 62
     3
 10
-107.972226000926
 20
109.061941935635
 30
0.0
 40
3.00000002980232
  1
128
 50
359.999999844103
 41
0.933333333333333
 72
     1
 11
-104.072225958109
 21
110.561941939944
 31
0.0
 73
     2
  0
LINE
  5
   183
  8
0
  6
CONTINUOUS
 62
     3
 10
-135.797225952148
 20
85.7766494750977
 30
0.0
 11
-135.797225952148
 21
110.061941925043
 31
0.0
  0
LINE
  5
   184
  8
0
  6
CONTINUOUS
 62
     3
 10
-71.7972259521484
 20
85.7766494750977
 30
0.0
 11
-71.7972259521484
 21
110.061941925043
 31
0.0
  0
LINE
  5
   185
  8
0
  6
CONTINUOUS
 62
     3
 10
-135.797225952148
 20
108.061941925043
 30
0.0
 11
-71.7972259521484
 21
108.061941925043
 31
0.0
  0
LINE
  5
   186
  8
0
  6
CONTINUOUS
 62
     3
 10
-132.842802674941
 20
108.582886354995
 30
0.0
 11
-135.797225952148
 21
108.061941925043
 31
0.0
  0
LINE
  5
   187
  8
0
  6
CONTINUOUS
 62
     3
 10
-135.797225952148
 20
108.061941925043
 30
0.0
 11
-132.842802674941
 21
107.540997495091
 31
0.0
  0
LINE
  5
   188
  8
0
  6
CONTINUOUS
 62
     3
 10
-74.7516492293554
 20
107.540997495091
 30
0.0
 11
-71.7972259521484
 21
108.061941925043
 31
0.0
  0
LINE
  5
   189
  8
0
  6
CONTINUOUS
 62
     3
 10
-71.7972259521484
 20
108.061941925043
 30
0.0
 11
-74.7516492293554
 21
108.582886354995
 31
0.0
  0
ENDBLK
  5
   18A
  8
0
  6
CONTINUOUS
 62
     3
  0
BLOCK
  5
   18B
  8
0
  6
CONTINUOUS
 62
     3
  2
*UDIM130
 70
    65
 10
0.0
 20
0.0
 30
0.0
  3
*UDIM130
  0
TEXT
  5
   18C
  8
0
  6
CONTINUOUS
 62
     3
 10
-86.822225987018
 20
99.1924241216979
 30
0.0
 40
3.00000002980232
  1
49
 50
359.999999844103
 41
0.933333333333333
 72
     1
 11
-84.3222259581089
 21
100.692424129809
 31
0.0
 73
     2
  0
LINE
  5
   18D
  8
0
  6
CONTINUOUS
 62
     3
 10
-96.2972259521484
 20
92.1193160908728
 30
0.0
 11
-96.2972259521484
 21
100.192424114908
 31
0.0
  0
LINE
  5
   18E
  8
0
  6
CONTINUOUS
 62
     3
 10
-71.7972259521484
 20
85.7766494750977
 30
0.0
 11
-71.7972259521484
 21
100.192424114908
 31
0.0
  0
LINE
  5
   18F
  8
0
  6
CONTINUOUS
 62
     3
 10
-96.2972259521484
 20
98.1924241149082
 30
0.0
 11
-71.7972259521484
 21
98.1924241149082
 31
0.0
  0
LINE
  5
   190
  8
0
  6
CONTINUOUS
 62
     3
 10
-93.3428026749415
 20
98.7133685448599
 30
0.0
 11
-96.2972259521484
 21
98.1924241149082
 31
0.0
  0
LINE
  5
   191
  8
0
  6
CONTINUOUS
 62
     3
 10
-96.2972259521484
 20
98.1924241149082
 30
0.0
 11
-93.3428026749415
 21
97.6714796849565
 31
0.0
  0
LINE
  5
   192
  8
0
  6
CONTINUOUS
 62
     3
 10
-74.7516492293554
 20
97.6714796849565
 30
0.0
 11
-71.7972259521484
 21
98.1924241149082
 31
0.0
  0
LINE
  5
   193
  8
0
  6
CONTINUOUS
 62
     3
 10
-71.7972259521484
 20
98.1924241149082
 30
0.0
 11
-74.7516492293554
 21
98.7133685448599
 31
0.0
  0
ENDBLK
  5
   194
  8
0
  6
CONTINUOUS
 62
     3
  0
BLOCK
  5
   195
  8
0
  6
CONTINUOUS
 62
     3
  2
*UDIM131
 70
    65
 10
0.0
 20
0.0
 30
0.0
  3
*UDIM131
  0
TEXT
  5
   196
  8
0
  6
CONTINUOUS
 62
     3
 10
-87.0847257784017
 20
46.6646571099802
 30
0.0
 40
3.00000002980232
  1
48
 50
359.999999844103
 41
0.933333333333333
 72
     1
 11
-84.5847257494927
 21
48.1646571180917
 31
0.0
 73
     2
  0
LINE
  5
   197
  8
0
  6
CONTINUOUS
 62
     3
 10
-96.2972259521484
 20
50.0328466476149
 30
0.0
 11
-96.2972259521484
 21
43.6646571031905
 31
0.0
  0
LINE
  5
   198
  8
0
  6
CONTINUOUS
 62
     3
 10
-72.3222259521484
 20
52.7766494750977
 30
0.0
 11
-72.3222259521484
 21
43.6646571031905
 31
0.0
  0
LINE
  5
   199
  8
0
  6
CONTINUOUS
 62
     3
 10
-96.2972259521484
 20
45.6646571031905
 30
0.0
 11
-72.3222259521484
 21
45.6646571031905
 31
0.0
  0
LINE
  5
   19A
  8
0
  6
CONTINUOUS
 62
     3
 10
-93.3428026749415
 20
46.1856015331422
 30
0.0
 11
-96.2972259521484
 21
45.6646571031905
 31
0.0
  0
LINE
  5
   19B
  8
0
  6
CONTINUOUS
 62
     3
 10
-96.2972259521484
 20
45.6646571031905
 30
0.0
 11
-93.3428026749415
 21
45.1437126732389
 31
0.0
  0
LINE
  5
   19C
  8
0
  6
CONTINUOUS
 62
     3
 10
-75.2766492293554
 20
45.1437126732389
 30
0.0
 11
-72.3222259521484
 21
45.6646571031905
 31
0.0
  0
LINE
  5
   19D
  8
0
  6
CONTINUOUS
 62
     3
 10
-72.3222259521484
 20
45.6646571031905
 30
0.0
 11
-75.2766492293554
 21
46.1856015331422
 31
0.0
  0
ENDBLK
  5
   19E
  8
0
  6
CONTINUOUS
 62
     3
  0
BLOCK
  5
   19F
  8
0
  6
CONTINUOUS
 62
     3
  2
*UDIM132
 70
    65
 10
0.0
 20
0.0
 30
0.0
  3
*UDIM132
  0
TEXT
  5
   1A0
  8
0
  6
CONTINUOUS
 62
     3
 10
-110.67222754866
 20
32.7376708781967
 30
0.0
 40
3.00000002980232
  1
125,5
 50
359.999999844103
 41
0.933333333333333
 72
     1
 11
-103.972227478027
 21
34.2376708749014
 31
0.0
 73
     2
  0
LINE
  5
   1A1
  8
0
  6
CONTINUOUS
 62
     3
 10
-135.072225952148
 20
52.7766494750977
 30
0.0
 11
-135.072225952148
 21
29.7376708600002
 31
0.0
  0
LINE
  5
   1A2
  8
0
  6
CONTINUOUS
 62
     3
 10
-72.3222259521484
 20
52.7766494750977
 30
0.0
 11
-72.3222259521484
 21
29.7376708600002
 31
0.0
  0
LINE
  5
   1A3
  8
0
  6
CONTINUOUS
 62
     3
 10
-135.072225952148
 20
31.7376708600002
 30
0.0
 11
-72.3222259521484
 21
31.7376708600002
 31
0.0
  0
LINE
  5
   1A4
  8
0
  6
CONTINUOUS
 62
     3
 10
-132.117802674941
 20
32.2586152899519
 30
0.0
 11
-135.072225952148
 21
31.7376708600002
 31
0.0
  0
LINE
  5
   1A5
  8
0
  6
CONTINUOUS
 62
     3
 10
-135.072225952148
 20
31.7376708600002
 30
0.0
 11
-132.117802674941
 21
31.2167264300486
 31
0.0
  0
LINE
  5
   1A6
  8
0
  6
CONTINUOUS
 62
     3
 10
-75.2766492293554
 20
31.2167264300486
 30
0.0
 11
-72.3222259521484
 21
31.7376708600002
 31
0.0
  0
LINE
  5
   1A7
  8
0
  6
CONTINUOUS
 62
     3
 10
-72.3222259521484
 20
31.7376708600002
 30
0.0
 11
-75.2766492293554
 21
32.2586152899519
 31
0.0
  0
ENDBLK
  5
   1A8
  8
0
  6
CONTINUOUS
 62
     3
  0
BLOCK
  5
   1A9
  8
0
  6
CONTINUOUS
 62
     3
  2
*UDIM133
 70
    65
 10
0.0
 20
0.0
 30
0.0
  3
*UDIM133
  0
TEXT
  5
   1AA
  8
0
  6
CONTINUOUS
 62
     3
 10
-52.7866630622065
 20
70.50164944023
 30
0.0
 40
3.00000002980232
  1
53
 50
449.999999844103
 41
0.933333333333333
 72
     1
 11
-54.2866630703211
 21
73.0016494691372
 31
0.0
 73
     2
  0
LINE
  5
   1AB
  8
0
  6
CONTINUOUS
 62
     3
 10
-72.5472259521484
 20
86.5266494750977
 30
0.0
 11
-49.7866630554199
 21
86.5266494750977
 31
0.0
  0
LINE
  5
   1AC
  8
0
  6
CONTINUOUS
 62
     3
 10
-72.5472259521484
 20
60.0266494750977
 30
0.0
 11
-49.7866630554199
 21
60.0266494750977
 31
0.0
  0
LINE
  5
   1AD
  8
0
  6
CONTINUOUS
 62
     3
 10
-51.7866630554199
 20
86.5266494750977
 30
0.0
 11
-51.7866630554199
 21
60.0266494750977
 31
0.0
  0
LINE
  5
   1AE
  8
0
  6
CONTINUOUS
 62
     3
 10
-51.2657186254683
 20
83.5722261978907
 30
0.0
 11
-51.7866630554199
 21
86.5266494750977
 31
0.0
  0
LINE
  5
   1AF
  8
0
  6
CONTINUOUS
 62
     3
 10
-51.7866630554199
 20
86.5266494750977
 30
0.0
 11
-52.3076074853716
 21
83.5722261978907
 31
0.0
  0
LINE
  5
   1B0
  8
0
  6
CONTINUOUS
 62
     3
 10
-52.3076074853716
 20
62.9810727523046
 30
0.0
 11
-51.7866630554199
 21
60.0266494750977
 31
0.0
  0
LINE
  5
   1B1
  8
0
  6
CONTINUOUS
 62
     3
 10
-51.7866630554199
 20
60.0266494750977
 30
0.0
 11
-51.2657186254683
 21
62.9810727523046
 31
0.0
  0
ENDBLK
  5
   1B2
  8
0
  6
CONTINUOUS
 62
     3
  0
BLOCK
  5
   1B3
  8
0
  6
CONTINUOUS
 62
     3
  2
*UDIM134
 70
    65
 10
0.0
 20
0.0
 30
0.0
  3
*UDIM134
  0
TEXT
  5
   1B4
  8
0
  6
CONTINUOUS
 62
     3
 10
-152.334339148632
 20
70.50164944023
 30
0.0
 40
3.00000002980232
  1
64
 50
449.999999844103
 41
0.933333333333333
 72
     1
 11
-153.834339156747
 21
73.0016494691372
 31
0.0
 73
     2
  0
LINE
  5
   1B5
  8
0
  6
CONTINUOUS
 62
     3
 10
-139.572225952148
 20
89.2766494750977
 30
0.0
 11
-153.334339141846
 21
89.2766494750977
 31
0.0
  0
LINE
  5
   1B6
  8
0
  6
CONTINUOUS
 62
     3
 10
-139.572225952148
 20
57.2766494750977
 30
0.0
 11
-153.334339141846
 21
57.2766494750977
 31
0.0
  0
LINE
  5
   1B7
  8
0
  6
CONTINUOUS
 62
     3
 10
-151.334339141846
 20
89.2766494750977
 30
0.0
 11
-151.334339141846
 21
57.2766494750977
 31
0.0
  0
LINE
  5
   1B8
  8
0
  6
CONTINUOUS
 62
     3
 10
-150.813394711894
 20
86.3222261978907
 30
0.0
 11
-151.334339141846
 21
89.2766494750977
 31
0.0
  0
LINE
  5
   1B9
  8
0
  6
CONTINUOUS
 62
     3
 10
-151.334339141846
 20
89.2766494750977
 30
0.0
 11
-151.855283571797
 21
86.3222261978907
 31
0.0
  0
LINE
  5
   1BA
  8
0
  6
CONTINUOUS
 62
     3
 10
-151.855283571797
 20
60.2310727523046
 30
0.0
 11
-151.334339141846
 21
57.2766494750977
 31
0.0
  0
LINE
  5
   1BB
  8
0
  6
CONTINUOUS
 62
     3
 10
-151.334339141846
 20
57.2766494750977
 30
0.0
 11
-150.813394711894
 21
60.2310727523046
 31
0.0
  0
ENDBLK
  5
   1BC
  8
0
  6
CONTINUOUS
 62
     3
  0
BLOCK
  5
   1BD
  8
0
  6
CONTINUOUS
 62
     3
  2
*UDIM135
 70
    65
 10
0.0
 20
0.0
 30
0.0
  3
*UDIM135
  0
TEXT
  5
   1BE
  8
0
  6
CONTINUOUS
 62
     3
 10
-128.527944171501
 20
97.1892883478187
 30
0.0
 40
3.00000002980232
  1
4
 50
404.818233515836
 41
0.933333333333334
 72
     1
 11
-128.804953043361
 21
99.0286540411095
 31
0.0
 73
     2
  0
TEXT
  5
   1BF
  8
0
  6
CONTINUOUS
 62
     3
 10
-130.478646959099
 20
95.2509233614894
 30
0.0
 40
3.00000002980232
  1
Ø
 50
404.818233515836
 41
0.933333333333334
 72
     1
 11
-130.755655830958
 21
97.0902890547802
 31
0.0
 73
     2
  0
LINE
  5
   1C0
  8
0
  6
CONTINUOUS
 62
     3
 10
-126.262521953721
 20
98.0306338744882
 30
0.0
 11
-135.781572411653
 21
88.571789488726
 31
0.0
  0
LINE
  5
   1C1
  8
0
  6
CONTINUOUS
 62
     3
 10
-132.634362684874
 20
92.4334942993624
 30
0.0
 11
-134.362879492643
 21
89.9815094614693
 31
0.0
  0
LINE
  5
   1C2
  8
0
  6
CONTINUOUS
 62
     3
 10
-134.362879492643
 20
89.9815094614693
 30
0.0
 11
-131.899976917282
 21
91.6944341253924
 31
0.0
  0
LINE
  5
   1C3
  8
0
  6
CONTINUOUS
 62
     3
 10
-137.510089219423
 20
86.1198046508329
 30
0.0
 11
-135.781572411653
 21
88.571789488726
 31
0.0
  0
LINE
  5
   1C4
  8
0
  6
CONTINUOUS
 62
     3
 10
-135.781572411653
 20
88.571789488726
 30
0.0
 11
-138.244474987015
 21
86.858864824803
 31
0.0
  0
ENDBLK
  5
   1C5
  8
0
  6
CONTINUOUS
 62
     3
  0
BLOCK
  5
   1C6
  8
0
  6
CONTINUOUS
 62
     7
  2
*UDIM136
 70
    65
 10
0.0
 20
0.0
 30
0.0
  3
*UDIM136
  0
TEXT
  5
   1C7
  8
0
  6
CONTINUOUS
 62
     7
 10
-81.5637571995847
 20
77.7203062444034
 30
0.0
 40
3.00000002980232
  1
1.5
 50
406.525010090606
 41
0.933333333333333
 72
     1
 11
-79.9689216208838
 21
81.5824947203595
 31
0.0
 73
     2
  0
TEXT
  5
   1C8
  8
0
  6
CONTINUOUS
 62
     7
 10
-84.315908719857
 20
74.8176071129256
 30
0.0
 40
3.00000002980232
  1
R
 50
406.525010090606
 41
1.2
 72
     1
 11
-84.3723640649867
 21
76.9381761128436
 31
0.0
 73
     2
  0
LINE
  5
   1C9
  8
0
  6
CONTINUOUS
 62
     7
 10
-72.0311975450554
 20
86.320905557354
 30
0.0
 11
-83.5902339377573
 21
74.1295692369549
 31
0.0
  0
LINE
  5
   1CA
  8
0
  6
CONTINUOUS
 62
     3
 10
-73.4615228298802
 20
83.6838296047901
 30
0.0
 11
-72.0311975450554
 21
86.320905557354
 31
0.0
  0
LINE
  5
   1CB
  8
0
  6
CONTINUOUS
 62
     3
 10
-72.0311975450554
 20
86.320905557354
 30
0.0
 11
-74.5884335765263
 21
84.7522934703971
 31
0.0
  0
ENDBLK
  5
   1CC
  8
0
  6
CONTINUOUS
 62
     7
  0
ENDSEC
  0
SECTION
  2
ENTITIES
  0
LINE
  5
   1CD
  8
0
  6
CONTINUOUS
 62
     7
 10
-279.398040771484
 20
28.4482622146606
 30
0.0
 11
-279.398040771484
 21
-65.0517377853394
 31
0.0
  0
LINE
  5
   1CE
  8
0
  6
CONTINUOUS
 62
     7
 10
-412.398040771484
 20
28.4482622146606
 30
0.0
 11
-412.398040771484
 21
-37.3879099539107
 31
0.0
  0
LINE
  5
   1CF
  8
0
  6
CONTINUOUS
 62
     7
 10
-411.148040771484
 20
29.6982622146606
 30
0.0
 11
-280.648040771484
 21
29.6982622146606
 31
0.0
  0
LINE
  5
   1D0
  8
0
  6
CONTINUOUS
 62
     7
 10
-407.398040771484
 20
5.69826221466064
 30
0.0
 11
-284.398040771484
 21
5.69826221466064
 31
0.0
  0
LINE
  5
   1D1
  8
0
  6
CONTINUOUS
 62
     7
 10
-407.898040771484
 20
29.6982622146606
 30
0.0
 11
-407.898040771484
 21
-37.3879099539107
 31
0.0
  0
LINE
  5
   1D2
  8
0
  6
CONTINUOUS
 62
     7
 10
-406.898040771484
 20
16.1982622146606
 30
0.0
 11
-406.898040771484
 21
5.69826221466064
 31
0.0
  0
LINE
  5
   1D3
  8
0
  6
CONTINUOUS
 62
     7
 10
-283.898040771484
 20
29.6982622146606
 30
0.0
 11
-283.898040771484
 21
-66.3017377853394
 31
0.0
  0
LINE
  5
   1D4
  8
0
  6
CONTINUOUS
 62
     7
 10
-284.898040771484
 20
-42.3017377853394
 30
0.0
 11
-284.898040771484
 21
-52.8017377853394
 31
0.0
  0
LINE
  5
   1D5
  8
0
  6
CONTINUOUS
 62
     7
 10
-284.898040771484
 20
-53.8017377853394
 30
0.0
 11
-284.898040771484
 21
-66.3017377853394
 31
0.0
  0
LINE
  5
   1D6
  8
0
  6
CONTINUOUS
 62
     7
 10
-284.898040771484
 20
16.1982622146606
 30
0.0
 11
-284.898040771484
 21
5.69826221466064
 31
0.0
  0
LINE
  5
   1D7
  8
0
  6
CONTINUOUS
 62
     7
 10
-407.898040771484
 20
17.1982622146606
 30
0.0
 11
-283.898040771484
 21
17.1982622146606
 31
0.0
  0
LINE
  5
   1D8
  8
0
  6
CONTINUOUS
 62
     7
 10
-406.898040771484
 20
16.1982622146606
 30
0.0
 11
-284.898040771484
 21
16.1982622146606
 31
0.0
  0
LINE
  5
   1D9
  8
0
  6
CONTINUOUS
 62
     7
 10
-407.898040771484
 20
24.1982622146606
 30
0.0
 11
-407.598037719727
 21
24.1982622146606
 31
0.0
  0
LINE
  5
   1DA
  8
0
  6
CONTINUOUS
 62
     7
 10
-407.898040771484
 20
22.6982622146606
 30
0.0
 11
-407.598037719727
 21
22.6982622146606
 31
0.0
  0
LINE
  5
   1DB
  8
0
  6
CONTINUOUS
 62
     7
 10
-284.198040962219
 20
24.1982622146606
 30
0.0
 11
-283.898040771484
 21
24.1982622146606
 31
0.0
  0
LINE
  5
   1DC
  8
0
  6
CONTINUOUS
 62
     7
 10
-284.198040962219
 20
22.6982622146606
 30
0.0
 11
-283.898040771484
 21
22.6982622146606
 31
0.0
  0
ARC
  5
   1DD
  8
0
  6
CONTINUOUS
 62
     7
 10
-407.598077662403
 20
23.4482372967062
 30
0.0
 40
0.750043449440929
 50
270.002994716444
 51
449.997011754257
  0
ARC
  5
   1DE
  8
0
  6
CONTINUOUS
 62
     7
 10
-284.198026099102
 20
23.4482567045303
 30
0.0
 40
0.750014940188872
 50
450.001135501493
 51
629.998857587167
  0
ARC
  5
   1DF
  8
0
  6
CONTINUOUS
 62
     7
 10
-280.648040771484
 20
28.4482622146606
 30
0.0
 40
1.25
 50
359.999999844103
 51
449.999999844103
  0
ARC
  5
   1E0
  8
0
  6
CONTINUOUS
 62
     7
 10
-411.148040771484
 20
28.4482622146606
 30
0.0
 40
1.25
 50
449.999999844103
 51
539.999999844103
  0
ARC
  5
   1E1
  8
0
  6
CONTINUOUS
 62
     7
 10
-280.648040771484
 20
-65.0517377853394
 30
0.0
 40
1.25
 50
629.999999844103
 51
719.999999844103
  0
LINE
  5
   1E2
  8
0
  6
CONTINUOUS
 62
     7
 10
-284.398040771484
 20
5.69826221466064
 30
0.0
 11
-284.398040771484
 21
-42.3017377853394
 31
0.0
  0
LINE
  5
   1E3
  8
0
  6
CONTINUOUS
 62
     7
 10
-407.398040771484
 20
5.69826221466064
 30
0.0
 11
-407.398040771484
 21
-37.3879099539107
 31
0.0
  0
LINE
  5
   1E4
  8
0
  6
DOT
 62
   130
 10
-289.39794921875
 20
-6.60220413208008
 30
0.0
 11
-289.39794921875
 21
-24.0022041320801
 31
0.0
  0
LINE
  5
   1E5
  8
0
  6
DOT
 62
   130
 10
-287.821183412368
 20
-6.10220413208008
 30
0.0
 11
-286.447444702641
 21
-6.60220413208008
 31
0.0
  0
LINE
  5
   1E6
  8
0
  6
DOT
 62
   130
 10
-286.447444702641
 20
-24.0022041320801
 30
0.0
 11
-287.821183412368
 21
-24.5022041320801
 31
0.0
  0
LINE
  5
   1E7
  8
0
  6
DOT
 62
   130
 10
-286.447444702641
 20
-6.60220413208008
 30
0.0
 11
-285.89794921875
 21
-6.60220413208008
 31
0.0
  0
LINE
  5
   1E8
  8
0
  6
DOT
 62
   130
 10
-286.447444702641
 20
-24.0022041320801
 30
0.0
 11
-285.89794921875
 21
-24.0022041320801
 31
0.0
  0
LINE
  5
   1E9
  8
0
  6
DOT
 62
   130
 10
-288.89794921875
 20
-6.10220413208008
 30
0.0
 11
-287.821183412368
 21
-6.10220413208008
 31
0.0
  0
LINE
  5
   1EA
  8
0
  6
DOT
 62
   130
 10
-288.89794921875
 20
-24.5022041320801
 30
0.0
 11
-287.821183412368
 21
-24.5022041320801
 31
0.0
  0
LINE
  5
   1EB
  8
0
  6
CONTINUOUS
 62
   130
 10
-272.985107421875
 20
-20.8022041320801
 30
0.0
 11
-272.985107421875
 21
-20.8022041320801
 31
0.0
  0
LINE
  5
   1EC
  8
0
  6
CONTINUOUS
 62
   130
 10
-272.985107421875
 20
-20.8022041320801
 30
0.0
 11
-272.985107421875
 21
-20.8022041320801
 31
0.0
  0
LINE
  5
   1ED
  8
0
  6
CONTINUOUS
 62
   130
 10
-272.985107421875
 20
-20.8022041320801
 30
0.0
 11
-272.985107421875
 21
-20.8022041320801
 31
0.0
  0
LINE
  5
   1EE
  8
0
  6
CONTINUOUS
 62
   130
 10
-272.985107421875
 20
-20.8022041320801
 30
0.0
 11
-272.985107421875
 21
-20.8022041320801
 31
0.0
  0
LINE
  5
   1EF
  8
0
  6
CONTINUOUS
 62
   130
 10
-272.985107421875
 20
-20.8022041320801
 30
0.0
 11
-272.985107421875
 21
-20.8022041320801
 31
0.0
  0
LINE
  5
   1F0
  8
0
  6
CONTINUOUS
 62
   130
 10
-272.985107421875
 20
-20.8022041320801
 30
0.0
 11
-272.985107421875
 21
-20.8022041320801
 31
0.0
  0
LINE
  5
   1F1
  8
0
  6
CONTINUOUS
 62
   130
 10
-272.985107421875
 20
-20.8022041320801
 30
0.0
 11
-272.985107421875
 21
-20.8022041320801
 31
0.0
  0
LINE
  5
   1F2
  8
0
  6
CONTINUOUS
 62
   130
 10
-272.985107421875
 20
-20.8022041320801
 30
0.0
 11
-272.985107421875
 21
-20.8022041320801
 31
0.0
  0
LINE
  5
   1F3
  8
0
  6
CONTINUOUS
 62
   130
 10
-344.397963523865
 20
-66.3021888732892
 30
0.0
 11
-330.89796345061
 21
-66.3021888732892
 31
0.0
  0
LINE
  5
   1F4
  8
0
  6
CONTINUOUS
 62
   130
 10
-374.397992597929
 20
-66.3021888732892
 30
0.0
 11
-347.397963523865
 21
-66.3021888732892
 31
0.0
  0
LINE
  5
   1F5
  8
0
  6
CONTINUOUS
 62
   130
 10
-374.397992597929
 20
53.6977958679229
 30
0.0
 11
-347.397955741872
 21
53.6977958679229
 31
0.0
  0
LINE
  5
   1F6
  8
0
  6
CONTINUOUS
 62
   130
 10
-344.397964477539
 20
53.6977958679217
 30
0.0
 11
-330.897979014571
 21
53.6977958679217
 31
0.0
  0
LINE
  5
   1F7
  8
0
  6
CONTINUOUS
 62
   130
 10
-405.897929306027
 20
48.6977992086113
 30
0.0
 11
-405.897926406928
 21
29.6982622146606
 31
0.0
  0
LINE
  5
   1F8
  8
0
  6
CONTINUOUS
 62
   130
 10
-405.897915649418
 20
-40.8021736144951
 30
0.0
 11
-330.897946166995
 21
-40.8021736144951
 31
0.0
  0
LINE
  5
   1F9
  8
0
  6
CONTINUOUS
 62
   130
 10
-343.397963523865
 20
-62.8021888732892
 30
0.0
 11
-343.397963523865
 21
-64.3022041320783
 31
0.0
  0
LINE
  5
   1FA
  8
0
  6
CONTINUOUS
 62
   130
 10
-344.397963523865
 20
-65.0521888732892
 30
0.0
 11
-344.397963523865
 21
-66.3021888732892
 31
0.0
  0
LINE
  5
   1FB
  8
0
  6
CONTINUOUS
 62
   130
 10
-347.397963523865
 20
-65.0521736145001
 30
0.0
 11
-347.397963523865
 21
-66.3021888732892
 31
0.0
  0
LINE
  5
   1FC
  8
0
  6
CONTINUOUS
 62
   130
 10
-348.397963523865
 20
-62.8021888732892
 30
0.0
 11
-348.397963523865
 21
-64.3022041320783
 31
0.0
  0
LINE
  5
   1FD
  8
0
  6
CONTINUOUS
 62
   130
 10
-348.397963523865
 20
-62.8021888732892
 30
0.0
 11
-343.397963523865
 21
-62.8021888732892
 31
0.0
  0
LINE
  5
   1FE
  8
0
  6
CONTINUOUS
 62
   130
 10
-348.397964477539
 20
50.1977958679217
 30
0.0
 11
-343.397964477539
 21
50.1977958679217
 31
0.0
  0
LINE
  5
   1FF
  8
0
  6
CONTINUOUS
 62
   130
 10
-348.397964477539
 20
51.4477958679217
 30
0.0
 11
-348.397964477539
 21
50.1977958679217
 31
0.0
  0
LINE
  5
   200
  8
0
  6
CONTINUOUS
 62
   130
 10
-347.397964477539
 20
53.6977958679217
 30
0.0
 11
-347.397964477539
 21
52.4477958679217
 31
0.0
  0
LINE
  5
   201
  8
0
  6
CONTINUOUS
 62
   130
 10
-344.397964477539
 20
53.6977958679217
 30
0.0
 11
-344.397964477539
 21
52.4477958679217
 31
0.0
  0
LINE
  5
   202
  8
0
  6
CONTINUOUS
 62
   130
 10
-343.397962760949
 20
51.4477882385885
 30
0.0
 11
-343.397963714623
 21
50.1977882385881
 31
0.0
  0
LINE
  5
   203
  8
0
  6
CONTINUOUS
 62
   130
 10
-332.147964477539
 20
53.6978111267108
 30
0.0
 11
-329.647965431213
 21
53.6978111267108
 31
0.0
  0
CIRCLE
  5
   204
  8
0
  6
CONTINUOUS
 62
   130
 10
-345.897985359455
 20
43.6978617616021
 30
0.0
 40
4.4999575073053
  0
LINE
  5
   205
  8
0
  6
CONTINUOUS
 62
   130
 10
-405.897922515871
 20
4.197826385493
 30
0.0
 11
-330.897953033449
 21
4.197826385493
 31
0.0
  0
CIRCLE
  5
   206
  8
0
  6
CONTINUOUS
 62
   130
 10
-360.89796345061
 20
-63.3021888732892
 30
0.0
 40
1.25
  0
ARC
  5
   207
  8
0
  6
CONTINUOUS
 62
   130
 10
-330.89796345061
 20
-63.3021888732892
 30
0.0
 40
1.25
 50
449.999999844103
 51
629.999999844103
  0
ARC
  5
   208
  8
0
  6
CONTINUOUS
 62
   130
 10
-330.897979014571
 20
50.6977958679217
 30
0.0
 40
1.25
 50
449.999999844103
 51
629.999999844103
  0
CIRCLE
  5
   209
  8
0
  6
CONTINUOUS
 62
   130
 10
-360.897941242987
 20
50.697786712656
 30
0.0
 40
1.25
  0
LINE
  5
   20A
  8
0
  6
CONTINUOUS
 62
   130
 10
-338.397964158479
 20
-4.16617017329172
 30
0.0
 11
-324.253518613089
 21
-4.16617017329172
 31
0.0
  0
LINE
  5
   20B
  8
0
  6
CONTINUOUS
 62
   130
 10
-344.397992597929
 20
53.6977958679217
 30
0.0
 11
-344.397992597929
 21
51.6977958679217
 31
0.0
  0
LINE
  5
   20C
  8
0
  6
CONTINUOUS
 62
   130
 10
-347.397992597929
 20
53.6977958679217
 30
0.0
 11
-347.397992597929
 21
51.6977958679217
 31
0.0
  0
LINE
  5
   20D
  8
0
  6
CONTINUOUS
 62
   130
 10
-348.397993551593
 20
51.6977958679217
 30
0.0
 11
-348.397992407175
 21
50.1977844238935
 31
0.0
  0
LINE
  5
   20E
  8
0
  6
CONTINUOUS
 62
   130
 10
-343.397992597929
 20
51.6977958679217
 30
0.0
 11
-343.397992597929
 21
50.1977958679217
 31
0.0
  0
LINE
  5
   20F
  8
0
  6
CONTINUOUS
 62
   130
 10
-348.397992597929
 20
50.1977958679217
 30
0.0
 11
-343.397992597929
 21
50.1977958679217
 31
0.0
  0
LINE
  5
   210
  8
0
  6
CONTINUOUS
 62
   130
 10
-344.397992597929
 20
51.6977958679217
 30
0.0
 11
-343.397992597929
 21
51.6977958679217
 31
0.0
  0
LINE
  5
   211
  8
0
  6
CONTINUOUS
 62
   130
 10
-348.397993551593
 20
51.6977958679217
 30
0.0
 11
-347.397992597929
 21
51.6977958679217
 31
0.0
  0
LINE
  5
   212
  8
0
  6
CONTINUOUS
 62
   130
 10
-347.397992597929
 20
-64.3022041320783
 30
0.0
 11
-347.397992597929
 21
-66.3022041320783
 31
0.0
  0
LINE
  5
   213
  8
0
  6
CONTINUOUS
 62
   130
 10
-344.397992597929
 20
-64.3022041320783
 30
0.0
 11
-344.397992597929
 21
-66.3022041320783
 31
0.0
  0
LINE
  5
   214
  8
0
  6
CONTINUOUS
 62
   130
 10
-348.397993551593
 20
-64.3022041320783
 30
0.0
 11
-347.397992597929
 21
-64.3022041320783
 31
0.0
  0
LINE
  5
   215
  8
0
  6
CONTINUOUS
 62
   130
 10
-344.397992597929
 20
-64.3022041320783
 30
0.0
 11
-343.397992597929
 21
-64.3022041320783
 31
0.0
  0
LINE
  5
   216
  8
0
  6
CONTINUOUS
 62
   130
 10
-338.397964229585
 20
-2.302173614507
 30
0.0
 11
-338.397963202979
 21
-29.2140244091361
 31
0.0
  0
LINE
  5
   217
  8
0
  6
DASHDOT
 62
   130
 10
-351.497946929932
 20
-30.5521888732892
 30
0.0
 11
-351.497946929932
 21
-41.0521888732892
 31
0.0
  0
LINE
  5
   218
  8
0
  6
CONTINUOUS
 62
   130
 10
-338.397963202979
 20
-29.2140244091361
 30
0.0
 11
-337.397963202979
 21
-29.2140244091361
 31
0.0
  0
LINE
  5
   219
  8
0
  6
CONTINUOUS
 62
   130
 10
-338.39796321733
 20
-28.8378209239423
 30
0.0
 11
-337.39796321733
 21
-28.8378209239423
 31
0.0
  0
LINE
  5
   21A
  8
0
  6
CONTINUOUS
 62
   130
 10
-375.89791942293
 20
-2.302173614507
 30
0.0
 11
-320.706525501563
 21
-2.302173614507
 31
0.0
  0
LINE
  5
   21B
  8
0
  6
CONTINUOUS
 62
   130
 10
-375.89791942293
 20
-3.802173614507
 30
0.0
 11
-338.397964172364
 21
-3.802173614507
 31
0.0
  0
LINE
  5
   21C
  8
0
  6
CONTINUOUS
 62
   130
 10
-375.89791942293
 20
-34.3021736144951
 30
0.0
 11
-356.497946929932
 21
-34.3021736144951
 31
0.0
  0
LINE
  5
   21D
  8
0
  6
CONTINUOUS
 62
   130
 10
-375.89791942293
 20
-32.8021736144951
 30
0.0
 11
-337.397963066101
 21
-32.8021736144951
 31
0.0
  0
LINE
  5
   21E
  8
0
  6
CONTINUOUS
 62
   130
 10
-346.497946929932
 20
-34.3021736144951
 30
0.0
 11
-297.718547954915
 21
-34.3021736144951
 31
0.0
  0
ARC
  5
   21F
  8
0
  6
DOT
 62
   130
 10
-288.89794921875
 20
-6.60220413208008
 30
0.0
 40
0.5
 50
449.999999844103
 51
539.999999844103
  0
ARC
  5
   220
  8
0
  6
DOT
 62
   130
 10
-288.89794921875
 20
-24.0022041320801
 30
0.0
 40
0.5
 50
539.999999844103
 51
629.999999844103
  0
LINE
  5
   221
  8
0
  6
CONTINUOUS
 62
   130
 10
-337.397963401045
 20
-24.0218293589352
 30
0.0
 11
-337.397963080114
 21
-32.4348405552065
 31
0.0
  0
LINE
  5
   222
  8
0
  6
CONTINUOUS
 62
   130
 10
-272.985107421875
 20
-20.8022041320801
 30
0.0
 11
-272.985107421875
 21
-20.8022041320801
 31
0.0
  0
LINE
  5
   223
  8
0
  6
CONTINUOUS
 62
   130
 10
-272.985107421875
 20
-20.8022041320801
 30
0.0
 11
-272.985107421875
 21
-20.8022041320801
 31
0.0
  0
LINE
  5
   224
  8
0
  6
CONTINUOUS
 62
   130
 10
-272.985107421875
 20
-20.8022041320801
 30
0.0
 11
-272.985107421875
 21
-20.8022041320801
 31
0.0
  0
LINE
  5
   225
  8
0
  6
CONTINUOUS
 62
   130
 10
-272.985107421875
 20
-20.8022041320801
 30
0.0
 11
-272.985107421875
 21
-20.8022041320801
 31
0.0
  0
CIRCLE
  5
   226
  8
0
  6
CONTINUOUS
 62
   130
 10
-330.897979014571
 20
44.8978042411601
 30
0.0
 40
3.0
  0
CIRCLE
  5
   227
  8
0
  6
CONTINUOUS
 62
   130
 10
-330.897979014571
 20
-57.5022125053166
 30
0.0
 40
3.0
  0
LINE
  5
   228
  8
0
  6
CONTINUOUS
 62
   130
 10
-272.985107421875
 20
-20.8022041320801
 30
0.0
 11
-272.985107421875
 21
-20.8022041320801
 31
0.0
  0
LINE
  5
   229
  8
0
  6
CONTINUOUS
 62
   130
 10
-272.985107421875
 20
-20.8022041320801
 30
0.0
 11
-272.985107421875
 21
-20.8022041320801
 31
0.0
  0
LINE
  5
   22A
  8
0
  6
CONTINUOUS
 62
   130
 10
-272.985107421875
 20
-20.8022041320801
 30
0.0
 11
-272.985107421875
 21
-20.8022041320801
 31
0.0
  0
LINE
  5
   22B
  8
0
  6
CONTINUOUS
 62
   130
 10
-404.897958374017
 20
-51.8021853800165
 30
0.0
 11
-330.89794254303
 21
-51.8021853800165
 31
0.0
  0
ARC
  5
   22C
  8
0
  6
CONTINUOUS
 62
   130
 10
-402.397960433956
 20
52.6977993611945
 30
0.0
 40
1.0
 50
449.999999844103
 51
540.000008586744
  0
ARC
  5
   22D
  8
0
  6
CONTINUOUS
 62
   130
 10
-402.397960433956
 20
-65.3022006388055
 30
0.0
 40
1.0
 50
539.999991101463
 51
629.999999844103
  0
LINE
  5
   22E
  8
0
  6
CONTINUOUS
 62
   130
 10
-403.397958374017
 20
-51.8021853800165
 30
0.0
 11
-403.39795997619
 21
-62.3021853800165
 31
0.0
  0
LINE
  5
   22F
  8
0
  6
CONTINUOUS
 62
   130
 10
-405.897914199831
 20
-50.3021853800165
 30
0.0
 11
-330.89796345061
 21
-50.3021853800165
 31
0.0
  0
LINE
  5
   230
  8
0
  6
CONTINUOUS
 62
   130
 10
-404.897958145136
 20
-50.3021853800165
 30
0.0
 11
-404.897958374017
 21
-51.8021853800165
 31
0.0
  0
LINE
  5
   231
  8
0
  6
CONTINUOUS
 62
   130
 10
-404.897958374017
 20
39.1977841024054
 30
0.0
 11
-404.897958145136
 21
37.6977841024054
 31
0.0
  0
LINE
  5
   232
  8
0
  6
CONTINUOUS
 62
   130
 10
-404.897958374017
 20
39.1977841024054
 30
0.0
 11
-330.897979014571
 21
39.1977841024054
 31
0.0
  0
LINE
  5
   233
  8
0
  6
CONTINUOUS
 62
   130
 10
-405.897927627558
 20
37.6977841024054
 30
0.0
 11
-330.89794921875
 21
37.6977841024054
 31
0.0
  0
LINE
  5
   234
  8
0
  6
CONTINUOUS
 62
   130
 10
-403.397960433956
 20
52.6977992086066
 30
0.0
 11
-403.397959976192
 21
49.6977993611945
 31
0.0
  0
LINE
  5
   235
  8
0
  6
CONTINUOUS
 62
   130
 10
-404.897959823604
 20
49.6977993611945
 30
0.0
 11
-403.397959976192
 21
49.6977993611945
 31
0.0
  0
LINE
  5
   236
  8
0
  6
CONTINUOUS
 62
   130
 10
-404.897943038942
 20
-62.3021853800165
 30
0.0
 11
-403.39795997619
 21
-62.3021853800165
 31
0.0
  0
ARC
  5
   237
  8
0
  6
CONTINUOUS
 62
   130
 10
-404.897959823604
 20
48.6977993611945
 30
0.0
 40
1.0
 50
449.999999844103
 51
540.000008586744
  0
ARC
  5
   238
  8
0
  6
CONTINUOUS
 62
   130
 10
-404.897943038942
 20
-61.3021853800165
 30
0.0
 40
1.0
 50
540.000008586743
 51
629.999999844103
  0
CIRCLE
  5
   239
  8
0
  6
CONTINUOUS
 62
   130
 10
-360.897979014571
 20
44.8978042411601
 30
0.0
 40
3.0
  0
CIRCLE
  5
   23A
  8
0
  6
CONTINUOUS
 62
   130
 10
-360.897979014571
 20
-57.5022125053166
 30
0.0
 40
3.0
  0
LINE
  5
   23B
  8
0
  6
DOT
 62
   130
 10
-402.397949218752
 20
-14.0022041320801
 30
0.0
 11
-402.397949218752
 21
-24.0022041320801
 31
0.0
  0
LINE
  5
   23C
  8
0
  6
DOT
 62
   130
 10
-403.974713895983
 20
-13.5022041320801
 30
0.0
 11
-405.348452605711
 21
-14.0022041320801
 31
0.0
  0
LINE
  5
   23D
  8
0
  6
DOT
 62
   130
 10
-405.348453734861
 20
-24.0022041320801
 30
0.0
 11
-403.974715025134
 21
-24.5022041320801
 31
0.0
  0
LINE
  5
   23E
  8
0
  6
DOT
 62
   130
 10
-405.897948089602
 20
-14.0022041320801
 30
0.0
 11
-405.348452605711
 21
-14.0022041320801
 31
0.0
  0
LINE
  5
   23F
  8
0
  6
DOT
 62
   130
 10
-405.897949218752
 20
-24.0022041320801
 30
0.0
 11
-405.348453734861
 21
-24.0022041320801
 31
0.0
  0
LINE
  5
   240
  8
0
  6
DOT
 62
   130
 10
-403.974713895983
 20
-13.5022041320801
 30
0.0
 11
-402.897948089602
 21
-13.5022041320801
 31
0.0
  0
LINE
  5
   241
  8
0
  6
DOT
 62
   130
 10
-403.974715025134
 20
-24.5022041320801
 30
0.0
 11
-402.897949218752
 21
-24.5022041320801
 31
0.0
  0
LINE
  5
   242
  8
0
  6
CONTINUOUS
 62
   130
 10
-272.985107421875
 20
-20.8022041320801
 30
0.0
 11
-272.985107421875
 21
-20.8022041320801
 31
0.0
  0
LINE
  5
   243
  8
0
  6
CONTINUOUS
 62
   130
 10
-272.985107421875
 20
-20.8022041320801
 30
0.0
 11
-272.985107421875
 21
-20.8022041320801
 31
0.0
  0
LINE
  5
   244
  8
0
  6
CONTINUOUS
 62
   130
 10
-272.985107421875
 20
-20.8022041320801
 30
0.0
 11
-272.985107421875
 21
-20.8022041320801
 31
0.0
  0
LINE
  5
   245
  8
0
  6
CONTINUOUS
 62
   130
 10
-272.985107421875
 20
-20.8022041320801
 30
0.0
 11
-272.985107421875
 21
-20.8022041320801
 31
0.0
  0
LINE
  5
   246
  8
0
  6
CONTINUOUS
 62
   130
 10
-272.985107421875
 20
-20.8022041320801
 30
0.0
 11
-272.985107421875
 21
-20.8022041320801
 31
0.0
  0
LINE
  5
   247
  8
0
  6
CONTINUOUS
 62
   130
 10
-272.985107421875
 20
-20.8022041320801
 30
0.0
 11
-272.985107421875
 21
-20.8022041320801
 31
0.0
  0
LINE
  5
   248
  8
0
  6
CONTINUOUS
 62
   130
 10
-272.985107421875
 20
-20.8022041320801
 30
0.0
 11
-272.985107421875
 21
-20.8022041320801
 31
0.0
  0
LINE
  5
   249
  8
0
  6
CONTINUOUS
 62
   130
 10
-272.985107421875
 20
-20.8022041320801
 30
0.0
 11
-272.985107421875
 21
-20.8022041320801
 31
0.0
  0
LINE
  5
   24A
  8
0
  6
CONTINUOUS
 62
   130
 10
-330.897934986892
 20
-66.3021888732892
 30
0.0
 11
-317.397934913637
 21
-66.3021888732892
 31
0.0
  0
LINE
  5
   24B
  8
0
  6
CONTINUOUS
 62
   130
 10
-314.397934913637
 20
-66.3021888732892
 30
0.0
 11
-289.397938003546
 21
-66.3021888732892
 31
0.0
  0
LINE
  5
   24C
  8
0
  6
CONTINUOUS
 62
   130
 10
-314.39794269563
 20
53.6977958679229
 30
0.0
 11
-289.397937698372
 21
53.6977958679229
 31
0.0
  0
LINE
  5
   24D
  8
0
  6
CONTINUOUS
 62
   130
 10
-330.89791942293
 20
53.6977958679217
 30
0.0
 11
-317.397933959963
 21
53.6977958679217
 31
0.0
  0
LINE
  5
   24E
  8
0
  6
CONTINUOUS
 62
   130
 10
-285.897969131475
 20
48.6977992086113
 30
0.0
 11
-285.897972030574
 21
29.6982622146607
 31
0.0
  0
LINE
  5
   24F
  8
0
  6
CONTINUOUS
 62
   130
 10
-330.897952270507
 20
-40.8021736144951
 30
0.0
 11
-285.897952270506
 21
-40.8021736144951
 31
0.0
  0
LINE
  5
   250
  8
0
  6
CONTINUOUS
 62
   130
 10
-318.397933959963
 20
50.1977958679217
 30
0.0
 11
-313.397933959963
 21
50.1977958679217
 31
0.0
  0
LINE
  5
   251
  8
0
  6
CONTINUOUS
 62
   130
 10
-313.397933959963
 20
51.4477958679217
 30
0.0
 11
-313.397933959963
 21
50.1977958679217
 31
0.0
  0
LINE
  5
   252
  8
0
  6
CONTINUOUS
 62
   130
 10
-314.397933959963
 20
53.6977958679217
 30
0.0
 11
-314.397933959963
 21
52.4477958679217
 31
0.0
  0
LINE
  5
   253
  8
0
  6
CONTINUOUS
 62
   130
 10
-317.397933959963
 20
53.6977958679217
 30
0.0
 11
-317.397933959963
 21
52.4477958679217
 31
0.0
  0
LINE
  5
   254
  8
0
  6
CONTINUOUS
 62
   130
 10
-318.397935676553
 20
51.4477882385885
 30
0.0
 11
-318.397934722879
 21
50.1977882385881
 31
0.0
  0
LINE
  5
   255
  8
0
  6
CONTINUOUS
 62
   130
 10
-332.147933006288
 20
53.6978111267108
 30
0.0
 11
-329.647933959963
 21
53.6978111267108
 31
0.0
  0
CIRCLE
  5
   256
  8
0
  6
CONTINUOUS
 62
   130
 10
-315.897913078047
 20
43.6978617616021
 30
0.0
 40
4.4999575073053
  0
LINE
  5
   257
  8
0
  6
CONTINUOUS
 62
   130
 10
-330.897945404053
 20
4.197826385493
 30
0.0
 11
-285.897945404053
 21
4.197826385493
 31
0.0
  0
ARC
  5
   258
  8
0
  6
CONTINUOUS
 62
   130
 10
-330.897934986892
 20
-63.3021888732892
 30
0.0
 40
1.25
 50
269.999999844103
 51
449.999999844104
  0
ARC
  5
   259
  8
0
  6
CONTINUOUS
 62
   130
 10
-330.89791942293
 20
50.6977958679217
 30
0.0
 40
1.25
 50
269.999999844103
 51
449.999999844103
  0
CIRCLE
  5
   25A
  8
0
  6
CONTINUOUS
 62
   130
 10
-300.897957194515
 20
50.697786712656
 30
0.0
 40
1.25
  0
LINE
  5
   25B
  8
0
  6
CONTINUOUS
 62
   130
 10
-324.397934279023
 20
-4.16617017329172
 30
0.0
 11
-323.397934279023
 21
-4.16617017329172
 31
0.0
  0
LINE
  5
   25C
  8
0
  6
CONTINUOUS
 62
   130
 10
-317.397905839572
 20
53.6977958679217
 30
0.0
 11
-317.397905839572
 21
51.6977958679217
 31
0.0
  0
LINE
  5
   25D
  8
0
  6
CONTINUOUS
 62
   130
 10
-314.397905839573
 20
53.6977958679217
 30
0.0
 11
-314.397905839573
 21
51.6977958679217
 31
0.0
  0
LINE
  5
   25E
  8
0
  6
CONTINUOUS
 62
   130
 10
-313.397904885909
 20
51.6977958679217
 30
0.0
 11
-313.397906030327
 21
50.1977844238935
 31
0.0
  0
LINE
  5
   25F
  8
0
  6
CONTINUOUS
 62
   130
 10
-318.397905839572
 20
51.6977958679217
 30
0.0
 11
-318.397905839572
 21
50.1977958679217
 31
0.0
  0
LINE
  5
   260
  8
0
  6
CONTINUOUS
 62
   130
 10
-318.397905839572
 20
50.1977958679217
 30
0.0
 11
-313.397905839572
 21
50.1977958679217
 31
0.0
  0
LINE
  5
   261
  8
0
  6
CONTINUOUS
 62
   130
 10
-318.397905839572
 20
51.6977958679217
 30
0.0
 11
-317.397905839572
 21
51.6977958679217
 31
0.0
  0
LINE
  5
   262
  8
0
  6
CONTINUOUS
 62
   130
 10
-314.397905839573
 20
51.6977958679217
 30
0.0
 11
-313.397904885909
 21
51.6977958679217
 31
0.0
  0
LINE
  5
   263
  8
0
  6
CONTINUOUS
 62
   130
 10
-323.397934207917
 20
-2.302173614507
 30
0.0
 11
-323.397935234523
 21
-29.2140244091361
 31
0.0
  0
LINE
  5
   264
  8
0
  6
CONTINUOUS
 62
   130
 10
-324.397935234523
 20
-29.2140244091361
 30
0.0
 11
-323.397935234523
 21
-29.2140244091361
 31
0.0
  0
LINE
  5
   265
  8
0
  6
CONTINUOUS
 62
   130
 10
-324.397935220172
 20
-28.8378209239423
 30
0.0
 11
-323.397935220172
 21
-28.8378209239423
 31
0.0
  0
LINE
  5
   266
  8
0
  6
CONTINUOUS
 62
   130
 10
-324.397934207917
 20
-2.302173614507
 30
0.0
 11
-285.897946395874
 21
-2.302173614507
 31
0.0
  0
LINE
  5
   267
  8
0
  6
CONTINUOUS
 62
   130
 10
-323.397934265138
 20
-3.802173614507
 30
0.0
 11
-285.897946624755
 21
-3.802173614507
 31
0.0
  0
ARC
  5
   268
  8
0
  6
DOT
 62
   130
 10
-402.897948089602
 20
-14.0022041320801
 30
0.0
 40
0.5
 50
359.999999844103
 51
449.999999844103
  0
ARC
  5
   269
  8
0
  6
DOT
 62
   130
 10
-402.897949218752
 20
-24.0022041320801
 30
0.0
 40
0.5
 50
269.999999844103
 51
359.999999844103
  0
LINE
  5
   26A
  8
0
  6
CONTINUOUS
 62
   130
 10
-324.397935036457
 20
-24.0218293589352
 30
0.0
 11
-324.397935357388
 21
-32.4348405552065
 31
0.0
  0
LINE
  5
   26B
  8
0
  6
CONTINUOUS
 62
   130
 10
-272.985107421875
 20
-20.8022041320801
 30
0.0
 11
-272.985107421875
 21
-20.8022041320801
 31
0.0
  0
LINE
  5
   26C
  8
0
  6
CONTINUOUS
 62
   130
 10
-272.985107421875
 20
-20.8022041320801
 30
0.0
 11
-272.985107421875
 21
-20.8022041320801
 31
0.0
  0
LINE
  5
   26D
  8
0
  6
CONTINUOUS
 62
   130
 10
-272.985107421875
 20
-20.8022041320801
 30
0.0
 11
-272.985107421875
 21
-20.8022041320801
 31
0.0
  0
LINE
  5
   26E
  8
0
  6
CONTINUOUS
 62
   130
 10
-272.985107421875
 20
-20.8022041320801
 30
0.0
 11
-272.985107421875
 21
-20.8022041320801
 31
0.0
  0
CIRCLE
  5
   26F
  8
0
  6
CONTINUOUS
 62
   130
 10
-330.89791942293
 20
44.8978042411601
 30
0.0
 40
3.0
  0
LINE
  5
   270
  8
0
  6
CONTINUOUS
 62
   130
 10
-272.985107421875
 20
-20.8022041320801
 30
0.0
 11
-272.985107421875
 21
-20.8022041320801
 31
0.0
  0
LINE
  5
   271
  8
0
  6
CONTINUOUS
 62
   130
 10
-272.985107421875
 20
-20.8022041320801
 30
0.0
 11
-272.985107421875
 21
-20.8022041320801
 31
0.0
  0
LINE
  5
   272
  8
0
  6
CONTINUOUS
 62
   130
 10
-272.985107421875
 20
-20.8022041320801
 30
0.0
 11
-272.985107421875
 21
-20.8022041320801
 31
0.0
  0
ARC
  5
   273
  8
0
  6
CONTINUOUS
 62
   130
 10
-289.397938003546
 20
52.6977993611945
 30
0.0
 40
1.0
 50
359.999991101463
 51
449.999999844103
  0
LINE
  5
   274
  8
0
  6
CONTINUOUS
 62
   130
 10
-330.897934986892
 20
-50.3021853800165
 30
0.0
 11
-321.148739812736
 21
-50.3021853800165
 31
0.0
  0
LINE
  5
   275
  8
0
  6
CONTINUOUS
 62
   130
 10
-286.897940063484
 20
39.1977841024054
 30
0.0
 11
-286.897940292366
 21
37.6977841024054
 31
0.0
  0
LINE
  5
   276
  8
0
  6
CONTINUOUS
 62
   130
 10
-330.89791942293
 20
39.1977841024054
 30
0.0
 11
-286.897940063484
 21
39.1977841024054
 31
0.0
  0
LINE
  5
   277
  8
0
  6
CONTINUOUS
 62
   130
 10
-330.897949218752
 20
37.6977841024054
 30
0.0
 11
-285.897953720093
 21
37.6977841024054
 31
0.0
  0
LINE
  5
   278
  8
0
  6
CONTINUOUS
 62
   130
 10
-288.397938003546
 20
52.6977992086066
 30
0.0
 11
-288.39793846131
 21
49.6977993611945
 31
0.0
  0
LINE
  5
   279
  8
0
  6
CONTINUOUS
 62
   130
 10
-288.39793846131
 20
49.6977993611945
 30
0.0
 11
-286.897938613897
 21
49.6977993611945
 31
0.0
  0
ARC
  5
   27A
  8
0
  6
CONTINUOUS
 62
   130
 10
-286.897938613897
 20
48.6977993611945
 30
0.0
 40
1.0
 50
359.999991101463
 51
449.999999844103
  0
CIRCLE
  5
   27B
  8
0
  6
CONTINUOUS
 62
   130
 10
-300.89791942293
 20
44.8978042411601
 30
0.0
 40
3.0
  0
LINE
  5
   27C
  8
0
  6
DASHDOT
 62
   130
 10
-345.897932207536
 20
55.0977888315492
 30
0.0
 11
-345.897932207536
 21
32.2977888315492
 31
0.0
  0
LINE
  5
   27D
  8
0
  6
DASHDOT
 62
   130
 10
-357.297932207536
 20
43.6977888315492
 30
0.0
 11
-334.497932207536
 21
43.6977888315492
 31
0.0
  0
LINE
  5
   27E
  8
0
  6
DASHDOT
 62
   130
 10
-327.297966229965
 20
43.6977888315492
 30
0.0
 11
-304.497966229965
 21
43.6977888315492
 31
0.0
  0
LINE
  5
   27F
  8
0
  6
DASHDOT
 62
   130
 10
-330.89791942293
 20
58.4700699524775
 30
0.0
 11
-330.89791942293
 21
-46.1648456275607
 31
0.0
  0
LINE
  5
   280
  8
0
  6
DASHDOT
 62
   130
 10
-343.89791942293
 20
44.8978042411601
 30
0.0
 11
-317.89791942293
 21
44.8978042411601
 31
0.0
  0
LINE
  5
   281
  8
0
  6
DASHDOT
 62
   130
 10
-360.897979014571
 20
57.8978042411601
 30
0.0
 11
-360.897979014571
 21
31.8978042411601
 31
0.0
  0
LINE
  5
   282
  8
0
  6
DASHDOT
 62
   130
 10
-373.897979014571
 20
44.8978042411601
 30
0.0
 11
-347.897979014571
 21
44.8978042411601
 31
0.0
  0
LINE
  5
   283
  8
0
  6
DASHDOT
 62
   130
 10
-300.89791942293
 20
57.8978042411601
 30
0.0
 11
-300.89791942293
 21
31.8978042411601
 31
0.0
  0
LINE
  5
   284
  8
0
  6
DASHDOT
 62
   130
 10
-313.89791942293
 20
44.8978042411601
 30
0.0
 11
-287.89791942293
 21
44.8978042411601
 31
0.0
  0
LINE
  5
   285
  8
0
  6
DASHDOT
 62
   130
 10
-351.497946929932
 20
-23.0021888732892
 30
0.0
 11
-351.497946929932
 21
-48.6021888732892
 31
0.0
  0
LINE
  5
   286
  8
0
  6
DASHDOT
 62
   130
 10
-364.297946929932
 20
-35.8021888732892
 30
0.0
 11
-338.697946929932
 21
-35.8021888732892
 31
0.0
  0
LINE
  5
   287
  8
0
  6
DASHDOT
 62
   130
 10
-360.897979014571
 20
-44.5022125053166
 30
0.0
 11
-360.897979014571
 21
-70.5022125053166
 31
0.0
  0
LINE
  5
   288
  8
0
  6
DASHDOT
 62
   130
 10
-373.897979014571
 20
-57.5022125053166
 30
0.0
 11
-347.897979014571
 21
-57.5022125053166
 31
0.0
  0
LINE
  5
   289
  8
0
  6
DASHDOT
 62
   130
 10
-345.897867264357
 20
-42.0520895233589
 30
0.0
 11
-345.897867264357
 21
-70.5522230121929
 31
0.0
  0
LINE
  5
   28A
  8
0
  6
DASHDOT
 62
   130
 10
-360.147934008774
 20
-56.3021562677759
 30
0.0
 11
-331.64780051994
 21
-56.3021562677759
 31
0.0
  0
LINE
  5
   28B
  8
0
  6
DASHDOT
 62
   130
 10
-330.897979014571
 20
-44.5022125053166
 30
0.0
 11
-330.897979014571
 21
-72.0592088909818
 31
0.0
  0
LINE
  5
   28C
  8
0
  6
DASHDOT
 62
   130
 10
-343.897979014571
 20
-57.5022125053166
 30
0.0
 11
-317.897979014571
 21
-57.5022125053166
 31
0.0
  0
LINE
  5
   28D
  8
0
  6
DASHDOT
 62
   130
 10
-315.897913078047
 20
58.1978192689074
 30
0.0
 11
-315.897913078047
 21
29.1979042542968
 31
0.0
  0
LINE
  5
   28E
  8
0
  6
DASHDOT
 62
   130
 10
-330.397870585352
 20
43.6978617616021
 30
0.0
 11
-301.397955570742
 21
43.6978617616021
 31
0.0
  0
INSERT
  5
   28F
  8
255
  6
CONTINUOUS
 62
   130
  2
SSS
 10
-315.897913078047
 20
43.6978617616021
 30
0.0
 50
359.999999792138
  0
INSERT
  5
   290
  8
0
  6
CONTINUOUS
 62
   130
  2
SSS
 10
-345.897867264357
 20
-56.3021562677759
 30
0.0
 50
359.999999792138
  0
LINE
  5
   291
  8
0
  6
DASHDOT
 62
   130
 10
-293.097946166992
 20
-32.2256750690382
 30
0.0
 11
-293.097946166992
 21
-38.8454607763734
 31
0.0
  0
LINE
  5
   292
  8
0
  6
DASHDOT
 62
   130
 10
-295.880604125905
 20
-35.60218865958
 30
0.0
 11
-290.409443605763
 21
-35.60218865958
 31
0.0
  0
LINE
  5
   293
  8
0
  6
CONTINUOUS
 62
   130
 10
-293.597946166992
 20
-36.10218865958
 30
0.0
 11
-293.597946166992
 21
-37.10218865958
 31
0.0
  0
LINE
  5
   294
  8
0
  6
CONTINUOUS
 62
   130
 10
-292.597946166992
 20
-36.10218865958
 30
0.0
 11
-292.597946166992
 21
-37.10218865958
 31
0.0
  0
LINE
  5
   295
  8
0
  6
CONTINUOUS
 62
   130
 10
-293.097946166992
 20
-30.80218865958
 30
0.0
 11
-293.689286442224
 21
-31.3935289348114
 31
0.0
  0
LINE
  5
   296
  8
0
  6
CONTINUOUS
 62
   130
 10
-293.097946166992
 20
-30.80218865958
 30
0.0
 11
-292.506605891761
 21
-31.3935289348114
 31
0.0
  0
ARC
  5
   297
  8
0
  6
CONTINUOUS
 62
   130
 10
-293.097946166992
 20
-35.60218865958
 30
0.0
 40
4.25
 50
457.998020342877
 51
802.00197934533
  0
LINE
  5
   298
  8
0
  6
CONTINUOUS
 62
   130
 10
-292.597946166992
 20
-36.10218865958
 30
0.0
 11
-291.597946166992
 21
-36.10218865958
 31
0.0
  0
LINE
  5
   299
  8
0
  6
CONTINUOUS
 62
   130
 10
-292.597946166992
 20
-35.10218865958
 30
0.0
 11
-291.597946166992
 21
-35.10218865958
 31
0.0
  0
LINE
  5
   29A
  8
0
  6
CONTINUOUS
 62
   130
 10
-294.597946166992
 20
-35.10218865958
 30
0.0
 11
-293.597946166992
 21
-35.10218865958
 31
0.0
  0
LINE
  5
   29B
  8
0
  6
CONTINUOUS
 62
   130
 10
-294.597946166992
 20
-36.10218865958
 30
0.0
 11
-293.597946166992
 21
-36.10218865958
 31
0.0
  0
LINE
  5
   29C
  8
0
  6
CONTINUOUS
 62
   130
 10
-293.597946166992
 20
-34.10218865958
 30
0.0
 11
-293.597946166992
 21
-35.10218865958
 31
0.0
  0
LINE
  5
   29D
  8
0
  6
CONTINUOUS
 62
   130
 10
-292.597946166992
 20
-34.10218865958
 30
0.0
 11
-292.597946166992
 21
-35.10218865958
 31
0.0
  0
ARC
  5
   29E
  8
0
  6
CONTINUOUS
 62
   130
 10
-293.097946166992
 20
-35.60218865958
 30
0.0
 40
4.8
 50
359.999999844103
 51
539.999999844103
  0
LINE
  5
   29F
  8
0
  6
CONTINUOUS
 62
   130
 10
-297.897946166992
 20
-35.60218865958
 30
0.0
 11
-297.347946166992
 21
-35.60218865958
 31
0.0
  0
LINE
  5
   2A0
  8
0
  6
CONTINUOUS
 62
   130
 10
-288.847946166992
 20
-35.60218865958
 30
0.0
 11
-288.297946166992
 21
-35.60218865958
 31
0.0
  0
ARC
  5
   2A1
  8
0
  6
CONTINUOUS
 62
   130
 10
-293.097946166992
 20
-34.10218865958
 30
0.0
 40
0.500000000000002
 50
359.999999844103
 51
539.999999844103
  0
ARC
  5
   2A2
  8
0
  6
CONTINUOUS
 62
   130
 10
-294.597946166992
 20
-35.60218865958
 30
0.0
 40
0.5
 50
449.999999844103
 51
629.999999844103
  0
ARC
  5
   2A3
  8
0
  6
CONTINUOUS
 62
   130
 10
-291.597946166992
 20
-35.60218865958
 30
0.0
 40
0.5
 50
269.999999844103
 51
449.999999844103
  0
ARC
  5
   2A4
  8
0
  6
CONTINUOUS
 62
   130
 10
-293.097946166992
 20
-37.10218865958
 30
0.0
 40
0.5
 50
539.999999844103
 51
719.999999844103
  0
LINE
  5
   2A5
  8
0
  6
CONTINUOUS
 62
   130
 10
-289.199239234265
 20
-32.8021736144951
 30
0.0
 11
-285.897981567381
 21
-32.8021736144951
 31
0.0
  0
LINE
  5
   2A6
  8
0
  6
CONTINUOUS
 62
   130
 10
-288.47734437907
 20
-34.3021736144951
 30
0.0
 11
-285.897981796263
 21
-34.3021736144951
 31
0.0
  0
LINE
  5
   2A7
  8
0
  6
CONTINUOUS
 62
   130
 10
-293.097946166992
 20
-29.0519534228335
 30
0.0
 11
-293.097946166992
 21
-30.8021886595799
 31
0.0
  0
LINE
  5
   2A8
  8
0
  6
CONTINUOUS
 62
   130
 10
-299.774615588214
 20
-35.60218865958
 30
0.0
 11
-297.897946166992
 21
-35.60218865958
 31
0.0
  0
LINE
  5
   2A9
  8
0
  6
CONTINUOUS
 62
   130
 10
-288.297946166992
 20
-35.60218865958
 30
0.0
 11
-286.570366270054
 21
-35.60218865958
 31
0.0
  0
LINE
  5
   2AA
  8
0
  6
DASHDOT
 62
   130
 10
-414.941624154601
 20
-18.302173614507
 30
0.0
 11
-277.900599149536
 21
-18.302173614507
 31
0.0
  0
LINE
  5
   2AB
  8
0
  6
CONTINUOUS
 62
   130
 10
-337.397963401045
 20
-24.0218293589352
 30
0.0
 11
-324.397935036457
 21
-24.0218293589352
 31
0.0
  0
LINE
  5
   2AC
  8
0
  6
CONTINUOUS
 62
   130
 10
-336.897963172324
 20
-29.5176255157019
 30
0.0
 11
-324.897935265178
 21
-29.5176255157019
 31
0.0
  0
LINE
  5
   2AD
  8
0
  6
CONTINUOUS
 62
   130
 10
-336.897963080114
 20
-32.934840536133
 30
0.0
 11
-324.897935357388
 21
-32.934840536133
 31
0.0
  0
LINE
  5
   2AE
  8
0
  6
CONTINUOUS
 62
   130
 10
-324.3979353714
 20
-32.8021736144951
 30
0.0
 11
-296.99665309972
 21
-32.8021736144951
 31
0.0
  0
ARC
  5
   2AF
  8
0
  6
CONTINUOUS
 62
   130
 10
-336.897963080114
 20
-32.434840536133
 30
0.0
 40
0.5
 50
540.000002029765
 51
629.999999844103
  0
ARC
  5
   2B0
  8
0
  6
CONTINUOUS
 62
   130
 10
-324.897935357388
 20
-32.434840536133
 30
0.0
 40
0.5
 50
269.999999844103
 51
359.999997658442
  0
ARC
  5
   2B1
  8
0
  6
CONTINUOUS
 62
   130
 10
-324.897935265178
 20
-30.0176255157019
 30
0.0
 40
0.5
 50
359.999997658442
 51
449.999999844103
  0
ARC
  5
   2B2
  8
0
  6
CONTINUOUS
 62
   130
 10
-336.897963172324
 20
-30.0176255157019
 30
0.0
 40
0.5
 50
449.999999844103
 51
540.000002029765
  0
CIRCLE
  5
   2B3
  8
0
  6
CONTINUOUS
 62
   130
 10
-345.897867264357
 20
-56.3021562677759
 30
0.0
 40
4.4999575073053
  0
CIRCLE
  5
   2B4
  8
0
  6
CONTINUOUS
 62
   130
 10
-390.897979014571
 20
-57.5022125053166
 30
0.0
 40
3.0
  0
CIRCLE
  5
   2B5
  8
0
  6
CONTINUOUS
 62
   130
 10
-390.89796345061
 20
-63.3021888732892
 30
0.0
 40
1.25
  0
CIRCLE
  5
   2B6
  8
0
  6
CONTINUOUS
 62
   130
 10
-375.897867264357
 20
-56.3021562677759
 30
0.0
 40
4.4999575073053
  0
LINE
  5
   2B7
  8
0
  6
CONTINUOUS
 62
   130
 10
-378.397963523865
 20
-62.8021888732892
 30
0.0
 11
-378.397963523865
 21
-64.3022041320783
 31
0.0
  0
LINE
  5
   2B8
  8
0
  6
CONTINUOUS
 62
   130
 10
-373.397963523865
 20
-62.8021888732892
 30
0.0
 11
-373.397963523865
 21
-64.3022041320783
 31
0.0
  0
LINE
  5
   2B9
  8
0
  6
CONTINUOUS
 62
   130
 10
-378.397963523865
 20
-62.8021888732892
 30
0.0
 11
-373.397963523865
 21
-62.8021888732892
 31
0.0
  0
LINE
  5
   2BA
  8
0
  6
CONTINUOUS
 62
   130
 10
-377.397992597929
 20
-64.3022041320783
 30
0.0
 11
-377.397992597929
 21
-66.3022041320783
 31
0.0
  0
LINE
  5
   2BB
  8
0
  6
CONTINUOUS
 62
   130
 10
-374.397992597929
 20
-64.3022041320783
 30
0.0
 11
-374.397992597929
 21
-66.3022041320783
 31
0.0
  0
LINE
  5
   2BC
  8
0
  6
CONTINUOUS
 62
   130
 10
-402.397960433956
 20
-66.3021888732892
 30
0.0
 11
-377.397963523865
 21
-66.3021888732892
 31
0.0
  0
LINE
  5
   2BD
  8
0
  6
CONTINUOUS
 62
   130
 10
-378.397993551593
 20
-64.3022041320783
 30
0.0
 11
-377.397992597929
 21
-64.3022041320783
 31
0.0
  0
LINE
  5
   2BE
  8
0
  6
CONTINUOUS
 62
   130
 10
-374.397992597929
 20
-64.3022041320783
 30
0.0
 11
-373.397992597929
 21
-64.3022041320783
 31
0.0
  0
CIRCLE
  5
   2BF
  8
0
  6
CONTINUOUS
 62
   130
 10
-390.897941242986
 20
50.697786712656
 30
0.0
 40
1.25
  0
CIRCLE
  5
   2C0
  8
0
  6
CONTINUOUS
 62
   130
 10
-390.897979014571
 20
44.8978042411601
 30
0.0
 40
3.0
  0
LINE
  5
   2C1
  8
0
  6
DASHDOT
 62
   130
 10
-403.897979014571
 20
44.8978042411601
 30
0.0
 11
-377.897979014571
 21
44.8978042411601
 31
0.0
  0
LINE
  5
   2C2
  8
0
  6
DASHDOT
 62
   130
 10
-390.897979014571
 20
57.8978042411601
 30
0.0
 11
-390.897979014571
 21
31.8978042411601
 31
0.0
  0
LINE
  5
   2C3
  8
0
  6
CONTINUOUS
 62
   130
 10
-377.397992597929
 20
53.6977958679217
 30
0.0
 11
-377.397992597929
 21
51.6977958679217
 31
0.0
  0
LINE
  5
   2C4
  8
0
  6
CONTINUOUS
 62
   130
 10
-374.397992597929
 20
53.6977958679217
 30
0.0
 11
-374.397992597929
 21
51.6977958679217
 31
0.0
  0
LINE
  5
   2C5
  8
0
  6
CONTINUOUS
 62
   130
 10
-378.397993551593
 20
51.6977958679217
 30
0.0
 11
-377.397992597929
 21
51.6977958679217
 31
0.0
  0
LINE
  5
   2C6
  8
0
  6
CONTINUOUS
 62
   130
 10
-374.397992597929
 20
51.6977958679217
 30
0.0
 11
-373.397992597929
 21
51.6977958679217
 31
0.0
  0
LINE
  5
   2C7
  8
0
  6
CONTINUOUS
 62
   130
 10
-373.397992597929
 20
51.6977958679217
 30
0.0
 11
-373.397992597929
 21
50.1977958679217
 31
0.0
  0
LINE
  5
   2C8
  8
0
  6
CONTINUOUS
 62
   130
 10
-378.397993551593
 20
51.6977958679217
 30
0.0
 11
-378.397992407175
 21
50.1977844238935
 31
0.0
  0
LINE
  5
   2C9
  8
0
  6
CONTINUOUS
 62
   130
 10
-378.397992597929
 20
50.1977958679217
 30
0.0
 11
-373.397992597929
 21
50.1977958679217
 31
0.0
  0
CIRCLE
  5
   2CA
  8
0
  6
CONTINUOUS
 62
   130
 10
-375.897985359455
 20
43.6978617616021
 30
0.0
 40
4.4999575073053
  0
LINE
  5
   2CB
  8
0
  6
DASHDOT
 62
   130
 10
-387.297932207536
 20
43.6977888315492
 30
0.0
 11
-364.497932207536
 21
43.6977888315492
 31
0.0
  0
LINE
  5
   2CC
  8
0
  6
DASHDOT
 62
   130
 10
-375.897932207536
 20
55.0977888315492
 30
0.0
 11
-375.897932207536
 21
32.2977888315492
 31
0.0
  0
LINE
  5
   2CD
  8
0
  6
CONTINUOUS
 62
   130
 10
-402.39796073913
 20
53.6977958679229
 30
0.0
 11
-377.397955741872
 21
53.6977958679229
 31
0.0
  0
LINE
  5
   2CE
  8
0
  6
DASHDOT
 62
   130
 10
-390.89794921875
 20
-45.0022125053166
 30
0.0
 11
-390.89794921875
 21
-70.0022125053166
 31
0.0
  0
LINE
  5
   2CF
  8
0
  6
DASHDOT
 62
   130
 10
-403.39794921875
 20
-57.5022125053166
 30
0.0
 11
-378.39794921875
 21
-57.5022125053166
 31
0.0
  0
INSERT
  5
   2D0
  8
0
  6
CONTINUOUS
 62
   130
  2
SSS
 10
-345.897913078047
 20
43.6978617616021
 30
0.0
 50
359.999999792138
  0
INSERT
  5
   2D1
  8
0
  6
CONTINUOUS
 62
   130
  2
SSS
 10
-375.897913078047
 20
43.6978617616021
 30
0.0
 50
359.999999792138
  0
LINE
  5
   2D2
  8
0
  6
DASHDOT
 62
   130
 10
-375.897867264357
 20
-41.8021987604706
 30
0.0
 11
-375.897867264357
 21
-70.8021137750812
 31
0.0
  0
LINE
  5
   2D3
  8
0
  6
DASHDOT
 62
   130
 10
-390.397824771662
 20
-56.3021562677759
 30
0.0
 11
-361.397909757052
 21
-56.3021562677759
 31
0.0
  0
LINE
  5
   2D4
  8
0
  6
CONTINUOUS
 62
   130
 10
-344.666656494141
 20
-5.94602677332917
 30
0.0
 11
-343.916656494141
 21
-5.94602677332917
 31
0.0
  0
LINE
  5
   2D5
  8
0
  6
CONTINUOUS
 62
   130
 10
-344.666656494141
 20
-10.4460267733292
 30
0.0
 11
-343.916656494141
 21
-10.4460267733292
 31
0.0
  0
CIRCLE
  5
   2D6
  8
0
  6
CONTINUOUS
 62
   130
 10
-344.291656494141
 20
-24.9460267733292
 30
0.0
 40
2.25
  0
CIRCLE
  5
   2D7
  8
0
  6
CONTINUOUS
 62
   130
 10
-344.291656494141
 20
-24.9460267733292
 30
0.0
 40
1.5
  0
LINE
  5
   2D8
  8
0
  6
CONTINUOUS
 62
   130
 10
-344.666656494141
 20
-5.94602677332917
 30
0.0
 11
-344.666656494141
 21
-10.4460267733292
 31
0.0
  0
LINE
  5
   2D9
  8
0
  6
CONTINUOUS
 62
   130
 10
-343.916656494141
 20
-5.94602677332917
 30
0.0
 11
-343.916656494141
 21
-10.4460267733292
 31
0.0
  0
LINE
  5
   2DA
  8
0
  6
CONTINUOUS
 62
   130
 10
-316.116661376953
 20
-23.0210267733292
 30
0.0
 11
-315.891661376953
 21
-23.0210267733292
 31
0.0
  0
LINE
  5
   2DB
  8
0
  6
CONTINUOUS
 62
   130
 10
-316.766661376953
 20
-26.8710267733292
 30
0.0
 11
-316.366661376953
 21
-26.8710267733292
 31
0.0
  0
LINE
  5
   2DC
  8
0
  6
CONTINUOUS
 62
   130
 10
-317.366661376953
 20
-25.3210267733291
 30
0.0
 11
-317.366661376953
 21
-25.5710267733291
 31
0.0
  0
ARC
  5
   2DD
  8
0
  6
CONTINUOUS
 62
   130
 10
-318.666661376953
 20
-25.3210267733292
 30
0.0
 40
1.3
 50
359.999999844103
 51
539.999999844103
  0
ARC
  5
   2DE
  8
0
  6
CONTINUOUS
 62
   130
 10
-318.666661376953
 20
-25.5710267733292
 30
0.0
 40
1.3
 50
539.999999844103
 51
719.999999844103
  0
ARC
  5
   2DF
  8
0
  6
CONTINUOUS
 62
   130
 10
-318.666661376953
 20
-25.3210267733292
 30
0.0
 40
0.900000000000001
 50
359.999999844103
 51
539.999999844103
  0
ARC
  5
   2E0
  8
0
  6
CONTINUOUS
 62
   130
 10
-318.666661376953
 20
-25.5710267733292
 30
0.0
 40
0.899999999999999
 50
539.999999844103
 51
719.999999844103
  0
LINE
  5
   2E1
  8
0
  6
CONTINUOUS
 62
   130
 10
-317.766661376953
 20
-25.3210267733291
 30
0.0
 11
-317.766661376953
 21
-25.5710267733291
 31
0.0
  0
LINE
  5
   2E2
  8
0
  6
CONTINUOUS
 62
   130
 10
-317.241661376953
 20
-24.2210267733291
 30
0.0
 11
-317.241661376953
 21
-24.6210267733291
 31
0.0
  0
LINE
  5
   2E3
  8
0
  6
CONTINUOUS
 62
   130
 10
-317.241661376953
 20
-24.6210267733292
 30
0.0
 11
-316.766661376953
 21
-24.6210267733292
 31
0.0
  0
LINE
  5
   2E4
  8
0
  6
CONTINUOUS
 62
   130
 10
-315.891661376953
 20
-24.2210267733291
 30
0.0
 11
-315.891661376953
 21
-24.6210267733291
 31
0.0
  0
LINE
  5
   2E5
  8
0
  6
CONTINUOUS
 62
   130
 10
-317.241661376953
 20
-24.2210267733292
 30
0.0
 11
-316.766661376953
 21
-24.2210267733292
 31
0.0
  0
LINE
  5
   2E6
  8
0
  6
CONTINUOUS
 62
   130
 10
-316.766661376953
 20
-24.6210267733291
 30
0.0
 11
-316.766661376953
 21
-26.8710267733291
 31
0.0
  0
LINE
  5
   2E7
  8
0
  6
CONTINUOUS
 62
   130
 10
-316.366661376953
 20
-24.6210267733291
 30
0.0
 11
-316.366661376953
 21
-26.8710267733291
 31
0.0
  0
LINE
  5
   2E8
  8
0
  6
CONTINUOUS
 62
   130
 10
-316.366661376953
 20
-24.6210267733292
 30
0.0
 11
-315.891661376953
 21
-24.6210267733292
 31
0.0
  0
LINE
  5
   2E9
  8
0
  6
CONTINUOUS
 62
   130
 10
-316.366661376953
 20
-24.2210267733292
 30
0.0
 11
-315.891661376953
 21
-24.2210267733292
 31
0.0
  0
LINE
  5
   2EA
  8
0
  6
CONTINUOUS
 62
   130
 10
-316.766661376953
 20
-23.6710267733291
 30
0.0
 11
-316.766661376953
 21
-24.2210267733291
 31
0.0
  0
LINE
  5
   2EB
  8
0
  6
CONTINUOUS
 62
   130
 10
-316.366661376953
 20
-23.6710267733291
 30
0.0
 11
-316.366661376953
 21
-24.2210267733291
 31
0.0
  0
ARC
  5
   2EC
  8
0
  6
CONTINUOUS
 62
   130
 10
-316.116661376953
 20
-23.6710267733292
 30
0.0
 40
0.65
 50
449.999999844103
 51
539.999999844103
  0
ARC
  5
   2ED
  8
0
  6
CONTINUOUS
 62
   130
 10
-316.116661376953
 20
-23.6710267733292
 30
0.0
 40
0.25
 50
449.999999844103
 51
539.999999844103
  0
LINE
  5
   2EE
  8
0
  6
CONTINUOUS
 62
   130
 10
-315.891661376953
 20
-23.0210267733291
 30
0.0
 11
-315.891661376953
 21
-23.4210267733291
 31
0.0
  0
LINE
  5
   2EF
  8
0
  6
CONTINUOUS
 62
   130
 10
-316.116661376953
 20
-23.4210267733292
 30
0.0
 11
-315.891661376953
 21
-23.4210267733292
 31
0.0
  0
LINE
  5
   2F0
  8
0
  6
CONTINUOUS
 62
   130
 10
-314.516661376953
 20
-23.0210267733292
 30
0.0
 11
-314.291661376953
 21
-23.0210267733292
 31
0.0
  0
LINE
  5
   2F1
  8
0
  6
CONTINUOUS
 62
   130
 10
-315.166661376953
 20
-26.8710267733292
 30
0.0
 11
-314.766661376953
 21
-26.8710267733292
 31
0.0
  0
LINE
  5
   2F2
  8
0
  6
CONTINUOUS
 62
   130
 10
-315.641661376953
 20
-24.2210267733291
 30
0.0
 11
-315.641661376953
 21
-24.6210267733291
 31
0.0
  0
LINE
  5
   2F3
  8
0
  6
CONTINUOUS
 62
   130
 10
-315.641661376953
 20
-24.6210267733292
 30
0.0
 11
-315.166661376953
 21
-24.6210267733292
 31
0.0
  0
LINE
  5
   2F4
  8
0
  6
CONTINUOUS
 62
   130
 10
-314.291661376953
 20
-24.2210267733291
 30
0.0
 11
-314.291661376953
 21
-24.6210267733291
 31
0.0
  0
LINE
  5
   2F5
  8
0
  6
CONTINUOUS
 62
   130
 10
-315.641661376953
 20
-24.2210267733292
 30
0.0
 11
-315.166661376953
 21
-24.2210267733292
 31
0.0
  0
LINE
  5
   2F6
  8
0
  6
CONTINUOUS
 62
   130
 10
-315.166661376953
 20
-24.6210267733291
 30
0.0
 11
-315.166661376953
 21
-26.8710267733291
 31
0.0
  0
LINE
  5
   2F7
  8
0
  6
CONTINUOUS
 62
   130
 10
-314.766661376953
 20
-24.6210267733291
 30
0.0
 11
-314.766661376953
 21
-26.8710267733291
 31
0.0
  0
LINE
  5
   2F8
  8
0
  6
CONTINUOUS
 62
   130
 10
-314.766661376953
 20
-24.6210267733292
 30
0.0
 11
-314.291661376953
 21
-24.6210267733292
 31
0.0
  0
LINE
  5
   2F9
  8
0
  6
CONTINUOUS
 62
   130
 10
-314.766661376953
 20
-24.2210267733292
 30
0.0
 11
-314.291661376953
 21
-24.2210267733292
 31
0.0
  0
LINE
  5
   2FA
  8
0
  6
CONTINUOUS
 62
   130
 10
-315.166661376953
 20
-23.6710267733291
 30
0.0
 11
-315.166661376953
 21
-24.2210267733291
 31
0.0
  0
LINE
  5
   2FB
  8
0
  6
CONTINUOUS
 62
   130
 10
-314.766661376953
 20
-23.6710267733291
 30
0.0
 11
-314.766661376953
 21
-24.2210267733291
 31
0.0
  0
ARC
  5
   2FC
  8
0
  6
CONTINUOUS
 62
   130
 10
-314.516661376953
 20
-23.6710267733292
 30
0.0
 40
0.65
 50
449.999999844103
 51
539.999999844103
  0
ARC
  5
   2FD
  8
0
  6
CONTINUOUS
 62
   130
 10
-314.516661376953
 20
-23.6710267733292
 30
0.0
 40
0.25
 50
449.999999844103
 51
539.999999844103
  0
LINE
  5
   2FE
  8
0
  6
CONTINUOUS
 62
   130
 10
-314.291661376953
 20
-23.0210267733291
 30
0.0
 11
-314.291661376953
 21
-23.4210267733291
 31
0.0
  0
LINE
  5
   2FF
  8
0
  6
CONTINUOUS
 62
   130
 10
-314.516661376953
 20
-23.4210267733292
 30
0.0
 11
-314.291661376953
 21
-23.4210267733292
 31
0.0
  0
LINE
  5
   300
  8
0
  6
CONTINUOUS
 62
   130
 10
-316.966661376953
 20
-9.62102677332917
 30
0.0
 11
-316.566661376953
 21
-9.62102677332917
 31
0.0
  0
ARC
  5
   301
  8
0
  6
CONTINUOUS
 62
   130
 10
-318.666661376953
 20
-8.07102677332917
 30
0.0
 40
1.3
 50
359.999999844103
 51
539.999999844103
  0
ARC
  5
   302
  8
0
  6
CONTINUOUS
 62
   130
 10
-318.666661376953
 20
-8.07102677332917
 30
0.0
 40
0.900000000000001
 50
359.999999844103
 51
539.999999844103
  0
ARC
  5
   303
  8
0
  6
CONTINUOUS
 62
   130
 10
-318.666661376953
 20
-8.32102677332917
 30
0.0
 40
1.3
 50
539.999999844103
 51
719.999999844103
  0
ARC
  5
   304
  8
0
  6
CONTINUOUS
 62
   130
 10
-318.666661376953
 20
-8.32102677332917
 30
0.0
 40
0.899999999999999
 50
539.999999844103
 51
719.999999844103
  0
LINE
  5
   305
  8
0
  6
CONTINUOUS
 62
   130
 10
-316.966661376953
 20
-6.77102677332915
 30
0.0
 11
-316.966661376953
 21
-9.62102677332915
 31
0.0
  0
LINE
  5
   306
  8
0
  6
CONTINUOUS
 62
   130
 10
-316.566661376953
 20
-7.87102677332915
 30
0.0
 11
-316.566661376953
 21
-9.62102677332915
 31
0.0
  0
LINE
  5
   307
  8
0
  6
CONTINUOUS
 62
   130
 10
-315.166661376953
 20
-7.87102677332915
 30
0.0
 11
-315.166661376953
 21
-9.62102677332915
 31
0.0
  0
LINE
  5
   308
  8
0
  6
CONTINUOUS
 62
   130
 10
-314.766661376953
 20
-7.77102677332915
 30
0.0
 11
-314.766661376953
 21
-9.62102677332915
 31
0.0
  0
LINE
  5
   309
  8
0
  6
CONTINUOUS
 62
   130
 10
-316.966661376953
 20
-6.77102677332917
 30
0.0
 11
-316.566661376953
 21
-6.77102677332917
 31
0.0
  0
ARC
  5
   30A
  8
0
  6
CONTINUOUS
 62
   130
 10
-315.866661376953
 20
-7.87102677332918
 30
0.0
 40
0.699999999999999
 50
359.999999844103
 51
539.999999844103
  0
LINE
  5
   30B
  8
0
  6
CONTINUOUS
 62
   130
 10
-316.566661376953
 20
-6.77102677332915
 30
0.0
 11
-316.566661376953
 21
-7.17102677332914
 31
0.0
  0
ARC
  5
   30C
  8
0
  6
CONTINUOUS
 62
   130
 10
-315.766661376953
 20
-7.77102677332918
 30
0.0
 40
1.0
 50
359.999999844103
 51
503.130102198259
  0
LINE
  5
   30D
  8
0
  6
CONTINUOUS
 62
   130
 10
-315.166661376953
 20
-9.62102677332917
 30
0.0
 11
-314.766661376953
 21
-9.62102677332917
 31
0.0
  0
LINE
  5
   30E
  8
0
  6
CONTINUOUS
 62
   130
 10
-316.498336582855
 20
2.85693565838596
 30
0.0
 11
-316.732368276901
 21
2.81567017507977
 31
0.0
  0
LINE
  5
   30F
  8
0
  6
CONTINUOUS
 62
   130
 10
-316.732353822012
 20
2.81567803067771
 30
0.0
 11
-316.938156722327
 21
2.69685928750467
 31
0.0
  0
LINE
  5
   310
  8
0
  6
CONTINUOUS
 62
   130
 10
-316.938165188031
 20
2.69685061156336
 30
0.0
 11
-317.090913313024
 21
2.51480990036138
 31
0.0
  0
LINE
  5
   311
  8
0
  6
CONTINUOUS
 62
   130
 10
-317.09091046225
 20
2.51481101482247
 30
0.0
 11
-317.172186397734
 21
2.29150484058039
 31
0.0
  0
LINE
  5
   312
  8
0
  6
CONTINUOUS
 62
   130
 10
-317.172193663811
 20
2.2915052468455
 30
0.0
 11
-317.172193663811
 21
2.05386772700908
 31
0.0
  0
LINE
  5
   313
  8
0
  6
CONTINUOUS
 62
   130
 10
-317.172187060013
 20
2.05387014832932
 30
0.0
 11
-317.090911124529
 21
1.83056397408724
 31
0.0
  0
LINE
  5
   314
  8
0
  6
CONTINUOUS
 62
   130
 10
-317.090914684446
 20
1.83056302093384
 30
0.0
 11
-316.938166559453
 21
1.64852230973185
 31
0.0
  0
LINE
  5
   315
  8
0
  6
CONTINUOUS
 62
   130
 10
-316.938153386853
 20
1.64851770934484
 30
0.0
 11
-316.732350486538
 21
1.52969896617181
 31
0.0
  0
LINE
  5
   316
  8
0
  6
CONTINUOUS
 62
   130
 10
-316.732366650234
 20
1.52970189378637
 30
0.0
 11
-316.498334956187
 21
1.48843641048018
 31
0.0
  0
LINE
  5
   317
  8
0
  6
CONTINUOUS
 62
   130
 10
-316.498335021233
 20
1.4884366089976
 30
0.0
 11
-316.268911498284
 21
1.4884366089976
 31
0.0
  0
LINE
  5
   318
  8
0
  6
CONTINUOUS
 62
   130
 10
-316.268899291438
 20
1.48844147532404
 30
0.0
 11
-316.181367262952
 21
1.4599990977114
 31
0.0
  0
LINE
  5
   319
  8
0
  6
CONTINUOUS
 62
   130
 10
-316.181368228196
 20
1.45999886836427
 30
0.0
 11
-316.127268200806
 21
1.38553646402063
 31
0.0
  0
LINE
  5
   31A
  8
0
  6
CONTINUOUS
 62
   130
 10
-316.127279418206
 20
1.38553181239726
 30
0.0
 11
-316.127279418206
 21
1.29349127360942
 31
0.0
  0
LINE
  5
   31B
  8
0
  6
CONTINUOUS
 62
   130
 10
-316.127272199368
 20
1.29349455502836
 30
0.0
 11
-316.181372226758
 21
1.21903215068473
 31
0.0
  0
LINE
  5
   31C
  8
0
  6
CONTINUOUS
 62
   130
 10
-316.181369725455
 20
1.21903215278779
 30
0.0
 11
-316.268901753941
 21
1.19058977517515
 31
0.0
  0
LINE
  5
   31D
  8
0
  6
CONTINUOUS
 62
   130
 10
-317.102087157463
 20
1.19058647700908
 30
0.0
 11
-316.268911498284
 21
1.19058647700908
 31
0.0
  0
LINE
  5
   31E
  8
0
  6
CONTINUOUS
 62
   130
 10
-317.102087157463
 20
1.19058647700908
 30
0.0
 11
-317.102087157463
 21
0.643186956135054
 31
0.0
  0
LINE
  5
   31F
  8
0
  6
CONTINUOUS
 62
   130
 10
-317.102087157463
 20
0.643186956135054
 30
0.0
 11
-316.268911498284
 21
0.643186956135054
 31
0.0
  0
LINE
  5
   320
  8
0
  6
CONTINUOUS
 62
   130
 10
-316.030754725049
 20
0.685181317600112
 30
0.0
 11
-316.268906261787
 21
0.64318818061491
 31
0.0
  0
LINE
  5
   321
  8
0
  6
CONTINUOUS
 62
   130
 10
-315.821322267207
 20
0.806098258503901
 30
0.0
 11
-316.030756806119
 21
0.685182350021833
 31
0.0
  0
LINE
  5
   322
  8
0
  6
CONTINUOUS
 62
   130
 10
-315.665864780539
 20
0.991352744167834
 30
0.0
 11
-315.821313693326
 21
0.806099613346611
 31
0.0
  0
LINE
  5
   323
  8
0
  6
CONTINUOUS
 62
   130
 10
-315.583162086583
 20
1.21859342578725
 30
0.0
 11
-315.665872355949
 21
0.991346632850522
 31
0.0
  0
LINE
  5
   324
  8
0
  6
CONTINUOUS
 62
   130
 10
-315.583166259026
 20
1.46042719432475
 30
0.0
 11
-315.583166259026
 21
1.21859589168193
 31
0.0
  0
LINE
  5
   325
  8
0
  6
CONTINUOUS
 62
   130
 10
-315.665872545736
 20
1.68767539889791
 30
0.0
 11
-315.583162276369
 21
1.46042860596119
 31
0.0
  0
LINE
  5
   326
  8
0
  6
CONTINUOUS
 62
   130
 10
-315.82131882481
 20
1.87293346191623
 30
0.0
 11
-315.665869901599
 21
1.68767982760759
 31
0.0
  0
LINE
  5
   327
  8
0
  6
CONTINUOUS
 62
   130
 10
-316.03076114816
 20
1.99384395296585
 30
0.0
 11
-315.821326618612
 21
1.87292852675821
 31
0.0
  0
LINE
  5
   328
  8
0
  6
CONTINUOUS
 62
   130
 10
-316.268899214436
 20
2.03583520221325
 30
0.0
 11
-316.03074768113
 21
1.99384158933778
 31
0.0
  0
LINE
  5
   329
  8
0
  6
CONTINUOUS
 62
   130
 10
-316.498335021233
 20
2.03583660670878
 30
0.0
 11
-316.268911498284
 21
2.03583660670878
 31
0.0
  0
LINE
  5
   32A
  8
0
  6
CONTINUOUS
 62
   130
 10
-316.578770925198
 20
2.0619748884487
 30
0.0
 11
-316.498326590425
 21
2.03583896801713
 31
0.0
  0
LINE
  5
   32B
  8
0
  6
CONTINUOUS
 62
   130
 10
-316.628489552328
 20
2.13039632278933
 30
0.0
 11
-316.578776417536
 21
2.06197114182773
 31
0.0
  0
LINE
  5
   32C
  8
0
  6
CONTINUOUS
 62
   130
 10
-316.628492491936
 20
2.21497526713969
 30
0.0
 11
-316.628492491936
 21
2.13039770671489
 31
0.0
  0
LINE
  5
   32D
  8
0
  6
CONTINUOUS
 62
   130
 10
-316.578769033599
 20
2.28339813964605
 30
0.0
 11
-316.628482168391
 21
2.21497295868446
 31
0.0
  0
LINE
  5
   32E
  8
0
  6
CONTINUOUS
 62
   130
 10
-316.498323485132
 20
2.30954010623554
 30
0.0
 11
-316.578767819905
 21
2.28340418580397
 31
0.0
  0
LINE
  5
   32F
  8
0
  6
CONTINUOUS
 62
   130
 10
-316.498335021233
 20
2.3095363671458
 30
0.0
 11
-315.653089659905
 21
2.3095363671458
 31
0.0
  0
LINE
  5
   330
  8
0
  6
CONTINUOUS
 62
   130
 10
-316.498335021233
 20
2.85693636485698
 30
0.0
 11
-315.653089659905
 21
2.85693636485698
 31
0.0
  0
LINE
  5
   331
  8
0
  6
CONTINUOUS
 62
   130
 10
-314.873687661365
 20
1.0859380359623
 30
0.0
 11
-315.002487095914
 21
0.643188540231087
 31
0.0
  0
LINE
  5
   332
  8
0
  6
CONTINUOUS
 62
   130
 10
-314.873693602776
 20
1.08593645640971
 30
0.0
 11
-314.258978026604
 21
1.08593645640971
 31
0.0
  0
LINE
  5
   333
  8
0
  6
CONTINUOUS
 62
   130
 10
-314.258973312219
 20
1.08593763679445
 30
0.0
 11
-314.13017387767
 21
0.64318814106322
 31
0.0
  0
LINE
  5
   334
  8
0
  6
CONTINUOUS
 62
   130
 10
-314.130178588127
 20
0.643186956135054
 30
0.0
 11
-313.560087340569
 21
0.643186956135054
 31
0.0
  0
LINE
  5
   335
  8
0
  6
CONTINUOUS
 62
   130
 10
-314.20408672451
 20
2.85693670318281
 30
0.0
 11
-313.560081733791
 21
0.643186733644328
 31
0.0
  0
LINE
  5
   336
  8
0
  6
CONTINUOUS
 62
   130
 10
-314.928587096428
 20
2.85693636485698
 30
0.0
 11
-314.204092162346
 21
2.85693636485698
 31
0.0
  0
LINE
  5
   337
  8
0
  6
CONTINUOUS
 62
   130
 10
-314.928584029781
 20
2.85692793184988
 30
0.0
 11
-315.572589020501
 21
0.643177962311409
 31
0.0
  0
LINE
  5
   338
  8
0
  6
CONTINUOUS
 62
   130
 10
-314.566331432743
 20
2.14247869177882
 30
0.0
 11
-314.418221921258
 21
1.63333652049532
 31
0.0
  0
LINE
  5
   339
  8
0
  6
CONTINUOUS
 62
   130
 10
-314.71445288012
 20
1.63333645412089
 30
0.0
 11
-314.418226378655
 21
1.63333645412089
 31
0.0
  0
LINE
  5
   33A
  8
0
  6
CONTINUOUS
 62
   130
 10
-314.566326892028
 20
2.14247919025055
 30
0.0
 11
-314.714443946344
 21
1.63333729912708
 31
0.0
  0
LINE
  5
   33B
  8
0
  6
CONTINUOUS
 62
   130
 10
-311.692716954329
 20
2.55432059528705
 30
0.0
 11
-311.496931438766
 21
2.30748726226473
 31
0.0
  0
LINE
  5
   33C
  8
0
  6
CONTINUOUS
 62
   130
 10
-311.950099110602
 20
2.7359940839818
 30
0.0
 11
-311.692713872572
 21
2.55431627959153
 31
0.0
  0
LINE
  5
   33D
  8
0
  6
CONTINUOUS
 62
   130
 10
-312.248251898058
 20
2.83779338009564
 30
0.0
 11
-311.950102791721
 21
2.73599008768686
 31
0.0
  0
LINE
  5
   33E
  8
0
  6
CONTINUOUS
 62
   130
 10
-312.56300192401
 20
2.85147665604859
 30
0.0
 11
-312.248251244224
 21
2.83779476707604
 31
0.0
  0
LINE
  5
   33F
  8
0
  6
CONTINUOUS
 62
   130
 10
-312.563007514501
 20
2.85147723059258
 30
0.0
 11
-312.868869941015
 21
2.77592906264771
 31
0.0
  0
LINE
  5
   340
  8
0
  6
CONTINUOUS
 62
   130
 10
-312.868865143503
 20
2.77593260029225
 30
0.0
 11
-313.141043777377
 21
2.61727457479513
 31
0.0
  0
LINE
  5
   341
  8
0
  6
CONTINUOUS
 62
   130
 10
-313.141048023129
 20
2.61726976096779
 30
0.0
 11
-313.35750920248
 21
2.38835550226496
 31
0.0
  0
LINE
  5
   342
  8
0
  6
CONTINUOUS
 62
   130
 10
-313.357503943167
 20
2.38835999774686
 30
0.0
 11
-313.500700032757
 21
2.1077351357292
 31
0.0
  0
LINE
  5
   343
  8
0
  6
CONTINUOUS
 62
   130
 10
-313.500702526095
 20
2.10773049609918
 30
0.0
 11
-313.55903687666
 21
1.79812918117793
 31
0.0
  0
LINE
  5
   344
  8
0
  6
CONTINUOUS
 62
   130
 10
-313.559036254817
 20
1.79813106913954
 30
0.0
 11
-313.52778626977
 21
1.48463543753094
 31
0.0
  0
LINE
  5
   345
  8
0
  6
CONTINUOUS
 62
   130
 10
-313.527788697932
 20
1.48463617335846
 30
0.0
 11
-313.409479691469
 21
1.19264400096232
 31
0.0
  0
LINE
  5
   346
  8
0
  6
CONTINUOUS
 62
   130
 10
-313.409479108452
 20
1.19264654323591
 30
0.0
 11
-313.233446082907
 21
0.964949638244846
 31
0.0
  0
LINE
  5
   347
  8
0
  6
CONTINUOUS
 62
   130
 10
-313.233443063296
 20
0.964944419540668
 30
0.0
 11
-313.004652781765
 21
0.790329984574218
 31
0.0
  0
LINE
  5
   348
  8
0
  6
CONTINUOUS
 62
   130
 10
-313.00465744834
 20
0.790332512956436
 30
0.0
 11
-312.738582318961
 21
0.680606562947933
 31
0.0
  0
LINE
  5
   349
  8
0
  6
CONTINUOUS
 62
   130
 10
-312.738579476964
 20
0.680605232340838
 30
0.0
 11
-312.453209609791
 21
0.643186868421303
 31
0.0
  0
LINE
  5
   34A
  8
0
  6
CONTINUOUS
 62
   130
 10
-312.167835629568
 20
0.680606301703943
 30
0.0
 11
-312.453205496741
 21
0.643187937784408
 31
0.0
  0
LINE
  5
   34B
  8
0
  6
CONTINUOUS
 62
   130
 10
-311.90176957626
 20
0.790331346728287
 30
0.0
 11
-312.167844705638
 21
0.680605396719784
 31
0.0
  0
LINE
  5
   34C
  8
0
  6
CONTINUOUS
 62
   130
 10
-311.672971626102
 20
0.964951545890351
 30
0.0
 11
-311.901761907633
 21
0.790337110923893
 31
0.0
  0
LINE
  5
   34D
  8
0
  6
CONTINUOUS
 62
   130
 10
-311.49693286647
 20
1.19264325417078
 30
0.0
 11
-311.672973514004
 21
0.964946364451258
 31
0.0
  0
LINE
  5
   34E
  8
0
  6
CONTINUOUS
 62
   130
 10
-311.969854554314
 20
1.46831399138874
 30
0.0
 11
-311.496931327357
 21
1.19264493125309
 31
0.0
  0
LINE
  5
   34F
  8
0
  6
CONTINUOUS
 62
   130
 10
-311.969863072213
 20
1.46830853972906
 30
0.0
 11
-312.094779157102
 21
1.32048042547897
 31
0.0
  0
LINE
  5
   350
  8
0
  6
CONTINUOUS
 62
   130
 10
-312.094776806824
 20
1.32048446319018
 30
0.0
 11
-312.262593001458
 21
1.22406320351327
 31
0.0
  0
LINE
  5
   351
  8
0
  6
CONTINUOUS
 62
   130
 10
-312.262588413159
 20
1.22406247275747
 30
0.0
 11
-312.453208859181
 21
1.19058659761019
 31
0.0
  0
LINE
  5
   352
  8
0
  6
CONTINUOUS
 62
   130
 10
-312.64383879662
 20
1.22406268694454
 30
0.0
 11
-312.453218350598
 21
1.19058681179726
 31
0.0
  0
LINE
  5
   353
  8
0
  6
CONTINUOUS
 62
   130
 10
-312.811651408429
 20
1.32048578003118
 30
0.0
 11
-312.643835213794
 21
1.22406452035426
 31
0.0
  0
LINE
  5
   354
  8
0
  6
CONTINUOUS
 62
   130
 10
-312.93656685491
 20
1.46831483381742
 30
0.0
 11
-312.811650770022
 21
1.32048671956732
 31
0.0
  0
LINE
  5
   355
  8
0
  6
CONTINUOUS
 62
   130
 10
-313.007590163701
 20
1.67473117222961
 30
0.0
 11
-312.93656050072
 21
1.46831360520054
 31
0.0
  0
LINE
  5
   356
  8
0
  6
CONTINUOUS
 62
   130
 10
-312.99421352029
 20
1.89261339077419
 30
0.0
 11
-313.007587850467
 21
1.67472692038287
 31
0.0
  0
LINE
  5
   357
  8
0
  6
CONTINUOUS
 62
   130
 10
-312.898480186723
 20
2.08880151924951
 30
0.0
 11
-312.994213834009
 21
1.89261782811242
 31
0.0
  0
LINE
  5
   358
  8
0
  6
CONTINUOUS
 62
   130
 10
-312.734959118039
 20
2.23341588147864
 30
0.0
 11
-312.898487573268
 21
2.08880164006036
 31
0.0
  0
LINE
  5
   359
  8
0
  6
CONTINUOUS
 62
   130
 10
-312.528544292039
 20
2.30444245387736
 30
0.0
 11
-312.734957561071
 21
2.2334147049753
 31
0.0
  0
LINE
  5
   35A
  8
0
  6
CONTINUOUS
 62
   130
 10
-312.5285479027
 20
2.30444041140435
 30
0.0
 11
-312.310659957534
 21
2.29106941734633
 31
0.0
  0
LINE
  5
   35B
  8
0
  6
CONTINUOUS
 62
   130
 10
-312.310653963148
 20
2.29106756969356
 30
0.0
 11
-312.114471687762
 21
2.19533248274465
 31
0.0
  0
LINE
  5
   35C
  8
0
  6
CONTINUOUS
 62
   130
 10
-312.114469062012
 20
2.19534413854605
 30
0.0
 11
-311.969853877636
 21
2.03182045965913
 31
0.0
  0
LINE
  5
   35D
  8
0
  6
CONTINUOUS
 62
   130
 10
-311.496927789358
 20
2.30748739712514
 30
0.0
 11
-311.969851016314
 21
2.03181833698949
 31
0.0
  0
LINE
  5
   35E
  8
0
  6
CONTINUOUS
 62
   130
 10
-311.295690673088
 20
2.85693588801982
 30
0.0
 11
-311.295690673088
 21
0.643186956135054
 31
0.0
  0
LINE
  5
   35F
  8
0
  6
CONTINUOUS
 62
   130
 10
-311.295690673088
 20
0.643186956135054
 30
0.0
 11
-309.84669317553
 21
0.643186956135054
 31
0.0
  0
LINE
  5
   360
  8
0
  6
CONTINUOUS
 62
   130
 10
-309.84669317553
 20
1.19058647700908
 30
0.0
 11
-309.84669317553
 21
0.643186956135054
 31
0.0
  0
LINE
  5
   361
  8
0
  6
CONTINUOUS
 62
   130
 10
-310.748289244866
 20
1.19058647700908
 30
0.0
 11
-309.84669317553
 21
1.19058647700908
 31
0.0
  0
LINE
  5
   362
  8
0
  6
CONTINUOUS
 62
   130
 10
-310.748289244866
 20
1.47636166164042
 30
0.0
 11
-310.748289244866
 21
1.19058647700908
 31
0.0
  0
LINE
  5
   363
  8
0
  6
CONTINUOUS
 62
   130
 10
-310.748289244866
 20
1.47636166164042
 30
0.0
 11
-309.967443602776
 21
1.47636166164042
 31
0.0
  0
LINE
  5
   364
  8
0
  6
CONTINUOUS
 62
   130
 10
-309.967443602776
 20
2.02376165935161
 30
0.0
 11
-309.967443602776
 21
1.47636166164042
 31
0.0
  0
LINE
  5
   365
  8
0
  6
CONTINUOUS
 62
   130
 10
-310.748289244866
 20
2.02376165935161
 30
0.0
 11
-309.967443602776
 21
2.02376165935161
 31
0.0
  0
LINE
  5
   366
  8
0
  6
CONTINUOUS
 62
   130
 10
-310.748289244866
 20
2.30953633734347
 30
0.0
 11
-310.748289244866
 21
2.02376165935161
 31
0.0
  0
LINE
  5
   367
  8
0
  6
CONTINUOUS
 62
   130
 10
-310.748289244866
 20
2.3095363671458
 30
0.0
 11
-309.84669317553
 21
2.3095363671458
 31
0.0
  0
LINE
  5
   368
  8
0
  6
CONTINUOUS
 62
   130
 10
-309.84669317553
 20
2.85693636485698
 30
0.0
 11
-309.84669317553
 21
2.3095363671458
 31
0.0
  0
LINE
  5
   369
  8
0
  6
CONTINUOUS
 62
   130
 10
-311.295690673088
 20
2.85693636485698
 30
0.0
 11
-309.84669317553
 21
2.85693636485698
 31
0.0
  0
LINE
  5
   36A
  8
0
  6
CONTINUOUS
 62
   130
 10
-369.577129242896
 20
2.70726955493553
 30
0.0
 11
-370.030986555614
 21
1.41051692151358
 31
0.0
  0
LINE
  5
   36B
  8
0
  6
CONTINUOUS
 62
   130
 10
-370.030994276856
 20
1.41052074991968
 30
0.0
 11
-369.211383681152
 21
1.41052074991968
 31
0.0
  0
LINE
  5
   36C
  8
0
  6
CONTINUOUS
 62
   130
 10
-369.211383681152
 20
2.70727367960718
 30
0.0
 11
-369.211383681152
 21
1.41052074991968
 31
0.0
  0
LINE
  5
   36D
  8
0
  6
CONTINUOUS
 62
   130
 10
-369.577136854981
 20
2.70727367960718
 30
0.0
 11
-369.211383681152
 21
2.70727367960718
 31
0.0
  0
LINE
  5
   36E
  8
0
  6
CONTINUOUS
 62
   130
 10
-370.50813661084
 20
4.72771700551782E-2
 30
0.0
 11
-369.843135695313
 21
4.72771700551782E-2
 31
0.0
  0
LINE
  5
   36F
  8
0
  6
CONTINUOUS
 62
   130
 10
-369.656927085206
 20
0.579275280674807
 30
0.0
 11
-369.843130080866
 21
4.72756677355974E-2
 31
0.0
  0
LINE
  5
   370
  8
0
  6
CONTINUOUS
 62
   130
 10
-369.656932692383
 20
0.579276758067873
 30
0.0
 11
-369.211383681152
 21
0.579276758067873
 31
0.0
  0
LINE
  5
   371
  8
0
  6
CONTINUOUS
 62
   130
 10
-369.211383681152
 20
1.34402294718531
 30
0.0
 11
-369.211383681152
 21
0.579276758067873
 31
0.0
  0
LINE
  5
   372
  8
0
  6
CONTINUOUS
 62
   130
 10
-370.05427155957
 20
1.34402294718531
 30
0.0
 11
-369.211383681152
 21
1.34402294718531
 31
0.0
  0
LINE
  5
   373
  8
0
  6
CONTINUOUS
 62
   130
 10
-370.054266252869
 20
1.34402024959206
 30
0.0
 11
-370.508131168509
 21
4.72747421084421E-2
 31
0.0
  0
LINE
  5
   374
  8
0
  6
CONTINUOUS
 62
   130
 10
-368.301983783882
 20
1.34402007087028
 30
0.0
 11
-367.848118868241
 21
4.72745633866651E-2
 31
0.0
  0
LINE
  5
   375
  8
0
  6
CONTINUOUS
 62
   130
 10
-369.144885878418
 20
1.34402294718531
 30
0.0
 11
-368.301998
 21
1.34402294718531
 31
0.0
  0
LINE
  5
   376
  8
0
  6
CONTINUOUS
 62
   130
 10
-369.144885878418
 20
1.34402294718531
 30
0.0
 11
-369.144885878418
 21
0.579276758067873
 31
0.0
  0
LINE
  5
   377
  8
0
  6
CONTINUOUS
 62
   130
 10
-369.144885878418
 20
0.579276758067873
 30
0.0
 11
-368.699336867188
 21
0.579276758067873
 31
0.0
  0
LINE
  5
   378
  8
0
  6
CONTINUOUS
 62
   130
 10
-368.699325284212
 20
0.579277597935835
 30
0.0
 11
-368.513122288552
 21
4.72779849966187E-2
 31
0.0
  0
LINE
  5
   379
  8
0
  6
CONTINUOUS
 62
   130
 10
-368.513133864258
 20
4.72771700551782E-2
 30
0.0
 11
-367.848132948731
 21
4.72771700551782E-2
 31
0.0
  0
LINE
  5
   37A
  8
0
  6
CONTINUOUS
 62
   130
 10
-369.144885878418
 20
2.70727367960718
 30
0.0
 11
-368.77913270459
 21
2.70727367960718
 31
0.0
  0
LINE
  5
   37B
  8
0
  6
CONTINUOUS
 62
   130
 10
-369.144885878418
 20
2.70727367960718
 30
0.0
 11
-369.144885878418
 21
1.41052074991968
 31
0.0
  0
LINE
  5
   37C
  8
0
  6
CONTINUOUS
 62
   130
 10
-369.144885878418
 20
1.41052074991968
 30
0.0
 11
-368.32526765332
 21
1.41052074991968
 31
0.0
  0
LINE
  5
   37D
  8
0
  6
CONTINUOUS
 62
   130
 10
-368.779125067641
 20
2.70727104873322
 30
0.0
 11
-368.325260118109
 21
1.41051822646052
 31
0.0
  0
LINE
  5
   37E
  8
0
  6
CONTINUOUS
 62
   130
 10
-367.6818808125
 20
1.41052074991968
 30
0.0
 11
-366.917133192871
 21
1.41052074991968
 31
0.0
  0
LINE
  5
   37F
  8
0
  6
CONTINUOUS
 62
   130
 10
-366.917133192871
 20
2.70727367960718
 30
0.0
 11
-366.917133192871
 21
1.41052074991968
 31
0.0
  0
LINE
  5
   380
  8
0
  6
CONTINUOUS
 62
   130
 10
-367.6818808125
 20
2.70727367960718
 30
0.0
 11
-366.917133192871
 21
2.70727367960718
 31
0.0
  0
LINE
  5
   381
  8
0
  6
CONTINUOUS
 62
   130
 10
-367.6818808125
 20
4.72771700551782E-2
 30
0.0
 11
-366.917133192871
 21
4.72771700551782E-2
 31
0.0
  0
LINE
  5
   382
  8
0
  6
CONTINUOUS
 62
   130
 10
-366.917133192871
 20
1.34402294718531
 30
0.0
 11
-366.917133192871
 21
4.72771700551782E-2
 31
0.0
  0
LINE
  5
   383
  8
0
  6
CONTINUOUS
 62
   130
 10
-367.6818808125
 20
1.34402294718531
 30
0.0
 11
-366.917133192871
 21
1.34402294718531
 31
0.0
  0
LINE
  5
   384
  8
0
  6
CONTINUOUS
 62
   130
 10
-365.620387892578
 20
2.70727367960718
 30
0.0
 11
-365.620387892578
 21
1.41052074991968
 31
0.0
  0
LINE
  5
   385
  8
0
  6
CONTINUOUS
 62
   130
 10
-365.620387892578
 20
1.41052074991968
 30
0.0
 11
-364.855632643555
 21
1.41052074991968
 31
0.0
  0
LINE
  5
   386
  8
0
  6
CONTINUOUS
 62
   130
 10
-364.855632643555
 20
2.70727367960718
 30
0.0
 11
-364.855632643555
 21
1.41052074991968
 31
0.0
  0
LINE
  5
   387
  8
0
  6
CONTINUOUS
 62
   130
 10
-365.620387892578
 20
2.70727367960718
 30
0.0
 11
-364.855632643555
 21
2.70727367960718
 31
0.0
  0
LINE
  5
   388
  8
0
  6
CONTINUOUS
 62
   130
 10
-365.620387892578
 20
4.72771700551782E-2
 30
0.0
 11
-364.855632643555
 21
4.72771700551782E-2
 31
0.0
  0
LINE
  5
   389
  8
0
  6
CONTINUOUS
 62
   130
 10
-364.855632643555
 20
1.34402294718531
 30
0.0
 11
-364.855632643555
 21
4.72771700551782E-2
 31
0.0
  0
LINE
  5
   38A
  8
0
  6
CONTINUOUS
 62
   130
 10
-365.620387892578
 20
1.34402294718531
 30
0.0
 11
-364.855632643555
 21
1.34402294718531
 31
0.0
  0
LINE
  5
   38B
  8
0
  6
CONTINUOUS
 62
   130
 10
-365.620387892578
 20
1.34402294718531
 30
0.0
 11
-365.620387892578
 21
4.72771700551782E-2
 31
0.0
  0
LINE
  5
   38C
  8
0
  6
CONTINUOUS
 62
   130
 10
-364.78913484082
 20
2.70727367960718
 30
0.0
 11
-364.575397353027
 21
2.70727367960718
 31
0.0
  0
LINE
  5
   38D
  8
0
  6
CONTINUOUS
 62
   130
 10
-364.78913484082
 20
2.70727367960718
 30
0.0
 11
-364.78913484082
 21
1.41052074991968
 31
0.0
  0
LINE
  5
   38E
  8
0
  6
CONTINUOUS
 62
   130
 10
-364.78913484082
 20
1.41052074991968
 30
0.0
 11
-364.014957289551
 21
1.41052074991968
 31
0.0
  0
LINE
  5
   38F
  8
0
  6
CONTINUOUS
 62
   130
 10
-364.129172392163
 20
1.49665897183376
 30
0.0
 11
-364.014960340408
 21
1.41052309463795
 31
0.0
  0
LINE
  5
   390
  8
0
  6
CONTINUOUS
 62
   130
 10
-364.257134876029
 20
1.56058340651339
 30
0.0
 11
-364.129167022837
 21
1.49665670386789
 31
0.0
  0
LINE
  5
   391
  8
0
  6
CONTINUOUS
 62
   130
 10
-364.104812468396
 20
1.68991304480219
 30
0.0
 11
-364.257133315969
 21
1.56057956724705
 31
0.0
  0
LINE
  5
   392
  8
0
  6
CONTINUOUS
 62
   130
 10
-364.00176533127
 20
1.86111520013685
 30
0.0
 11
-364.104807922373
 21
1.68991159256947
 31
0.0
  0
LINE
  5
   393
  8
0
  6
CONTINUOUS
 62
   130
 10
-363.958791312648
 20
2.05625281424924
 30
0.0
 11
-364.001767686909
 21
1.86111581362719
 31
0.0
  0
LINE
  5
   394
  8
0
  6
CONTINUOUS
 62
   130
 10
-363.980376439706
 20
2.25490954326333
 30
0.0
 11
-363.958792888973
 21
2.05625532653953
 31
0.0
  0
LINE
  5
   395
  8
0
  6
CONTINUOUS
 62
   130
 10
-364.06426709176
 20
2.43626465960354
 30
0.0
 11
-363.980381885775
 21
2.25491392959393
 31
0.0
  0
LINE
  5
   396
  8
0
  6
CONTINUOUS
 62
   130
 10
-364.201675449414
 20
2.581346857371
 30
0.0
 11
-364.064270040864
 21
2.43626628186116
 31
0.0
  0
LINE
  5
   397
  8
0
  6
CONTINUOUS
 62
   130
 10
-364.378204553298
 20
2.67493137966493
 30
0.0
 11
-364.201667985738
 21
2.5813339598856
 31
0.0
  0
LINE
  5
   398
  8
0
  6
CONTINUOUS
 62
   130
 10
-364.575397118624
 20
2.70727256761757
 30
0.0
 11
-364.378207752479
 21
2.67493919076098
 31
0.0
  0
LINE
  5
   399
  8
0
  6
CONTINUOUS
 62
   130
 10
-364.78913484082
 20
1.34402294718531
 30
0.0
 11
-363.949977736328
 21
1.34402294718531
 31
0.0
  0
LINE
  5
   39A
  8
0
  6
CONTINUOUS
 62
   130
 10
-364.78913484082
 20
1.34402294718531
 30
0.0
 11
-364.78913484082
 21
4.72771700551782E-2
 31
0.0
  0
LINE
  5
   39B
  8
0
  6
CONTINUOUS
 62
   130
 10
-364.78913484082
 20
4.72771700551782E-2
 30
0.0
 11
-364.541820387695
 21
4.72771700551782E-2
 31
0.0
  0
LINE
  5
   39C
  8
0
  6
CONTINUOUS
 62
   130
 10
-364.321052984458
 20
7.90230494364934E-2
 30
0.0
 11
-364.541817168437
 21
4.72757109967503E-2
 31
0.0
  0
LINE
  5
   39D
  8
0
  6
CONTINUOUS
 62
   130
 10
-364.118180957343
 20
0.171692557150404
 30
0.0
 11
-364.321054199946
 21
7.90235454846488E-2
 31
0.0
  0
LINE
  5
   39E
  8
0
  6
CONTINUOUS
 62
   130
 10
-363.949649507086
 20
0.317772430574891
 30
0.0
 11
-364.118182847875
 21
0.171691931908704
 31
0.0
  0
LINE
  5
   39F
  8
0
  6
CONTINUOUS
 62
   130
 10
-363.829103752417
 20
0.505425620576776
 30
0.0
 11
-363.949648185437
 21
0.317773034925391
 31
0.0
  0
LINE
  5
   3A0
  8
0
  6
CONTINUOUS
 62
   130
 10
-363.766320651196
 20
0.719438541963768
 30
0.0
 11
-363.82909530768
 21
0.50542306871521
 31
0.0
  0
LINE
  5
   3A1
  8
0
  6
CONTINUOUS
 62
   130
 10
-363.766395902222
 20
0.942476351770864
 30
0.0
 11
-363.766327237675
 21
0.719442913008965
 31
0.0
  0
LINE
  5
   3A2
  8
0
  6
CONTINUOUS
 62
   130
 10
-363.829306428368
 20
1.1564537853113
 30
0.0
 11
-363.766394445761
 21
0.942477868082243
 31
0.0
  0
LINE
  5
   3A3
  8
0
  6
CONTINUOUS
 62
   130
 10
-363.949975900705
 20
1.3440201477632
 30
0.0
 11
-363.829309398093
 21
1.15644862515405
 31
0.0
  0
LINE
  5
   3A4
  8
0
  6
CONTINUOUS
 62
   130
 10
-366.850635390137
 20
2.70727367960718
 30
0.0
 11
-366.636890272949
 21
2.70727367960718
 31
0.0
  0
LINE
  5
   3A5
  8
0
  6
CONTINUOUS
 62
   130
 10
-366.850635390137
 20
2.70727367960718
 30
0.0
 11
-366.850635390137
 21
1.41052074991968
 31
0.0
  0
LINE
  5
   3A6
  8
0
  6
CONTINUOUS
 62
   130
 10
-366.850635390137
 20
1.41052074991968
 30
0.0
 11
-366.076457838867
 21
1.41052074991968
 31
0.0
  0
LINE
  5
   3A7
  8
0
  6
CONTINUOUS
 62
   130
 10
-366.190667981456
 20
1.49665509007919
 30
0.0
 11
-366.076455929701
 21
1.41051921288338
 31
0.0
  0
LINE
  5
   3A8
  8
0
  6
CONTINUOUS
 62
   130
 10
-366.318636903703
 20
1.56058355528785
 30
0.0
 11
-366.190669050511
 21
1.49665685264235
 31
0.0
  0
LINE
  5
   3A9
  8
0
  6
CONTINUOUS
 62
   130
 10
-366.166314147584
 20
1.68991703339464
 30
0.0
 11
-366.318634995158
 21
1.56058355583949
 31
0.0
  0
LINE
  5
   3AA
  8
0
  6
CONTINUOUS
 62
   130
 10
-366.063268973404
 20
1.86111747794214
 30
0.0
 11
-366.166311564507
 21
1.68991387037476
 31
0.0
  0
LINE
  5
   3AB
  8
0
  6
CONTINUOUS
 62
   130
 10
-366.020285486107
 20
2.05625365305989
 30
0.0
 11
-366.063269491313
 21
1.8611166410497
 31
0.0
  0
LINE
  5
   3AC
  8
0
  6
CONTINUOUS
 62
   130
 10
-366.041868482566
 20
2.25491284323383
 30
0.0
 11
-366.020284931833
 21
2.05625862651002
 31
0.0
  0
LINE
  5
   3AD
  8
0
  6
CONTINUOUS
 62
   130
 10
-366.125764607336
 20
2.43625859423266
 30
0.0
 11
-366.041871779113
 21
2.25490787285775
 31
0.0
  0
LINE
  5
   3AE
  8
0
  6
CONTINUOUS
 62
   130
 10
-366.263172909787
 20
2.58135033483566
 30
0.0
 11
-366.125767501238
 21
2.4362697593258
 31
0.0
  0
LINE
  5
   3AF
  8
0
  6
CONTINUOUS
 62
   130
 10
-366.439710085871
 20
2.67493379300813
 30
0.0
 11
-366.26317351831
 21
2.5813363732288
 31
0.0
  0
LINE
  5
   3B0
  8
0
  6
CONTINUOUS
 62
   130
 10
-366.636890898154
 20
2.70727418027568
 30
0.0
 11
-366.439709154782
 21
2.67494080727771
 31
0.0
  0
LINE
  5
   3B1
  8
0
  6
CONTINUOUS
 62
   130
 10
-366.850635390137
 20
1.34402294718531
 30
0.0
 11
-366.011478285645
 21
1.34402294718531
 31
0.0
  0
LINE
  5
   3B2
  8
0
  6
CONTINUOUS
 62
   130
 10
-366.850635390137
 20
1.34402294718531
 30
0.0
 11
-366.850635390137
 21
4.72771700551782E-2
 31
0.0
  0
LINE
  5
   3B3
  8
0
  6
CONTINUOUS
 62
   130
 10
-366.850635390137
 20
4.72771700551782E-2
 30
0.0
 11
-366.603320937012
 21
4.72771700551782E-2
 31
0.0
  0
LINE
  5
   3B4
  8
0
  6
CONTINUOUS
 62
   130
 10
-366.382556118976
 20
7.90181433486481E-2
 30
0.0
 11
-366.603320302954
 21
0.047270804908905
 31
0.0
  0
LINE
  5
   3B5
  8
0
  6
CONTINUOUS
 62
   130
 10
-366.179681292207
 20
0.17169124980461
 30
0.0
 11
-366.38255453481
 21
7.90222381388475E-2
 31
0.0
  0
LINE
  5
   3B6
  8
0
  6
CONTINUOUS
 62
   130
 10
-366.011149480667
 20
0.317771456205271
 30
0.0
 11
-366.179682821456
 21
0.171690957539091
 31
0.0
  0
LINE
  5
   3B7
  8
0
  6
CONTINUOUS
 62
   130
 10
-365.890605335352
 20
0.505425876953463
 30
0.0
 11
-366.011149768372
 21
0.317773291302068
 31
0.0
  0
LINE
  5
   3B8
  8
0
  6
CONTINUOUS
 62
   130
 10
-365.82781781355
 20
0.719441371477682
 30
0.0
 11
-365.890600105862
 21
0.505425875147985
 31
0.0
  0
LINE
  5
   3B9
  8
0
  6
CONTINUOUS
 62
   130
 10
-365.827898796881
 20
0.942476583516459
 30
0.0
 11
-365.827822502973
 21
0.719443142275246
 31
0.0
  0
LINE
  5
   3BA
  8
0
  6
CONTINUOUS
 62
   130
 10
-365.89080511476
 20
1.15645368325768
 30
0.0
 11
-365.827893132153
 21
0.942477766028624
 31
0.0
  0
LINE
  5
   3BB
  8
0
  6
CONTINUOUS
 62
   130
 10
-366.011474452712
 20
1.34402065779351
 30
0.0
 11
-365.890807950099
 21
1.15644913518435
 31
0.0
  0
LINE
  5
   3BC
  8
0
  6
CONTINUOUS
 62
   130
 10
-367.6818808125
 20
2.70727367960718
 30
0.0
 11
-367.6818808125
 21
4.72771700551782E-2
 31
0.0
  0
LINE
  5
   3BD
  8
0
  6
CONTINUOUS
 62
   130
 10
-375.89791942293
 20
-1.302173614507
 30
0.0
 11
-341.897964267732
 21
-1.302173614507
 31
0.0
  0
LINE
  5
   3BE
  8
0
  6
CONTINUOUS
 62
   130
 10
-341.397964344026
 20
0.697826385493006
 30
0.0
 11
-341.397964229585
 21
-2.30217361450699
 31
0.0
  0
LINE
  5
   3BF
  8
0
  6
CONTINUOUS
 62
   130
 10
-320.397934093476
 20
0.697826385493006
 30
0.0
 11
-320.397934207917
 21
-2.30217361450699
 31
0.0
  0
LINE
  5
   3C0
  8
0
  6
CONTINUOUS
 62
   130
 10
-341.397964344026
 20
0.697826385493002
 30
0.0
 11
-320.397934093476
 21
0.697826385493002
 31
0.0
  0
LINE
  5
   3C1
  8
0
  6
CONTINUOUS
 62
   130
 10
-319.89793416977
 20
-1.302173614507
 30
0.0
 11
-285.897976760864
 21
-1.302173614507
 31
0.0
  0
LINE
  5
   3C2
  8
0
  6
CONTINUOUS
 62
   130
 10
-341.897964363099
 20
1.197826385493
 30
0.0
 11
-319.897934074403
 21
1.197826385493
 31
0.0
  0
LINE
  5
   3C3
  8
0
  6
CONTINUOUS
 62
   130
 10
-319.897934074403
 20
1.19782638549301
 30
0.0
 11
-319.897934207917
 21
-2.30217361450699
 31
0.0
  0
LINE
  5
   3C4
  8
0
  6
CONTINUOUS
 62
   130
 10
-341.897964363099
 20
1.19782638549301
 30
0.0
 11
-341.897964229585
 21
-2.30217361450699
 31
0.0
  0
LINE
  5
   3C5
  8
0
  6
CONTINUOUS
 62
   130
 10
-403.397959976192
 20
49.6977993611945
 30
0.0
 11
-403.397958374017
 21
39.1977841024054
 31
0.0
  0
LINE
  5
   3C6
  8
0
  6
CONTINUOUS
 62
   130
 10
-288.39793846131
 20
49.6977993611945
 30
0.0
 11
-288.397940063484
 21
39.1977841024054
 31
0.0
  0
LINE
  5
   3C7
  8
0
  6
CONTINUOUS
 62
   130
 10
-403.39795997619
 20
-62.3021853800165
 30
0.0
 11
-403.397960433956
 21
-65.3022004862177
 31
0.0
  0
CIRCLE
  5
   3C8
  8
0
  6
CONTINUOUS
 62
   130
 10
-375.897867264357
 20
-56.3021562677759
 30
0.0
 40
2.25
  0
LINE
  5
   3C9
  8
0
  6
CONTINUOUS
 62
   130
 10
-320.397935196376
 20
-28.2140244091361
 30
0.0
 11
-320.397935310817
 21
-31.2140244091361
 31
0.0
  0
LINE
  5
   3CA
  8
0
  6
CONTINUOUS
 62
   130
 10
-341.397963241126
 20
-28.2140244091361
 30
0.0
 11
-341.397963126685
 21
-31.2140244091361
 31
0.0
  0
LINE
  5
   3CB
  8
0
  6
CONTINUOUS
 62
   130
 10
-341.397963241126
 20
-28.2140244091361
 30
0.0
 11
-338.397963241126
 21
-28.2140244091361
 31
0.0
  0
LINE
  5
   3CC
  8
0
  6
CONTINUOUS
 62
   130
 10
-323.397935196376
 20
-28.2140244091361
 30
0.0
 11
-320.397935196376
 21
-28.2140244091361
 31
0.0
  0
LINE
  5
   3CD
  8
0
  6
CONTINUOUS
 62
   130
 10
-341.397963126685
 20
-31.2140244091361
 30
0.0
 11
-337.397963126685
 21
-31.2140244091361
 31
0.0
  0
LINE
  5
   3CE
  8
0
  6
CONTINUOUS
 62
   130
 10
-324.397935310817
 20
-31.2140244091361
 30
0.0
 11
-320.397935310817
 21
-31.2140244091361
 31
0.0
  0
LINE
  5
   3CF
  8
0
  6
CONTINUOUS
 62
   130
 10
-375.89791942293
 20
-2.302173614507
 30
0.0
 11
-375.89791942293
 21
-3.802173614507
 31
0.0
  0
LINE
  5
   3D0
  8
0
  6
CONTINUOUS
 62
   130
 10
-375.89791942293
 20
-32.8021736144951
 30
0.0
 11
-375.89791942293
 21
-34.3021736144951
 31
0.0
  0
LINE
  5
   3D1
  8
0
  6
CONTINUOUS
 62
   130
 10
-356.497946929932
 20
-33.5521888732892
 30
0.0
 11
-346.497946929932
 21
-33.5521888732892
 31
0.0
  0
LINE
  5
   3D2
  8
0
  6
CONTINUOUS
 62
   130
 10
-356.497946929932
 20
-38.0521888732892
 30
0.0
 11
-346.497946929932
 21
-38.0521888732892
 31
0.0
  0
LINE
  5
   3D3
  8
0
  6
CONTINUOUS
 62
   130
 10
-346.497946929932
 20
-33.5521888732892
 30
0.0
 11
-346.497946929932
 21
-38.0521888732892
 31
0.0
  0
LINE
  5
   3D4
  8
0
  6
CONTINUOUS
 62
   130
 10
-356.497946929932
 20
-33.5521888732892
 30
0.0
 11
-356.497946929932
 21
-38.0521888732892
 31
0.0
  0
LINE
  5
   3D5
  8
0
  6
CONTINUOUS
 62
   130
 10
-375.89791942293
 20
37.6977841024054
 30
0.0
 11
-375.89791942293
 21
29.6982622146606
 31
0.0
  0
LINE
  5
   3D6
  8
0
  6
CONTINUOUS
 62
   130
 10
-377.19791942293
 20
37.6977841024054
 30
0.0
 11
-377.19791942293
 21
29.6982622146606
 31
0.0
  0
LINE
  5
   3D7
  8
0
  6
CONTINUOUS
 62
   130
 10
-377.69791942293
 20
37.6977841024054
 30
0.0
 11
-377.69791942293
 21
29.6982622146606
 31
0.0
  0
LINE
  5
   3D8
  8
0
  6
CONTINUOUS
 62
   130
 10
-378.99791942293
 20
37.6977841024054
 30
0.0
 11
-378.99791942293
 21
29.6982622146606
 31
0.0
  0
LINE
  5
   3D9
  8
0
  6
CONTINUOUS
 62
   130
 10
-380.79791942293
 20
37.6977841024054
 30
0.0
 11
-380.79791942293
 21
29.6982622146606
 31
0.0
  0
LINE
  5
   3DA
  8
0
  6
CONTINUOUS
 62
   130
 10
-378.99791942293
 20
37.6977841024054
 30
0.0
 11
-378.99791942293
 21
29.6982622146606
 31
0.0
  0
LINE
  5
   3DB
  8
0
  6
CONTINUOUS
 62
   130
 10
-379.49791942293
 20
37.6977841024054
 30
0.0
 11
-379.49791942293
 21
29.6982622146606
 31
0.0
  0
LINE
  5
   3DC
  8
0
  6
CONTINUOUS
 62
   130
 10
-380.79791942293
 20
37.6977841024054
 30
0.0
 11
-380.79791942293
 21
29.6982622146606
 31
0.0
  0
LINE
  5
   3DD
  8
0
  6
CONTINUOUS
 62
   130
 10
-381.29791942293
 20
37.6977841024054
 30
0.0
 11
-381.29791942293
 21
29.6982622146606
 31
0.0
  0
LINE
  5
   3DE
  8
0
  6
CONTINUOUS
 62
   130
 10
-382.59791942293
 20
37.6977841024054
 30
0.0
 11
-382.59791942293
 21
29.6982622146606
 31
0.0
  0
LINE
  5
   3DF
  8
0
  6
CONTINUOUS
 62
   130
 10
-383.09791942293
 20
37.6977841024054
 30
0.0
 11
-383.09791942293
 21
29.6982622146606
 31
0.0
  0
LINE
  5
   3E0
  8
0
  6
CONTINUOUS
 62
   130
 10
-384.39791942293
 20
37.6977841024054
 30
0.0
 11
-384.39791942293
 21
29.6982622146606
 31
0.0
  0
LINE
  5
   3E1
  8
0
  6
CONTINUOUS
 62
   130
 10
-384.89791942293
 20
37.6977841024054
 30
0.0
 11
-384.89791942293
 21
29.6982622146606
 31
0.0
  0
LINE
  5
   3E2
  8
0
  6
CONTINUOUS
 62
   130
 10
-386.19791942293
 20
37.6977841024054
 30
0.0
 11
-386.19791942293
 21
29.6982622146606
 31
0.0
  0
LINE
  5
   3E3
  8
0
  6
CONTINUOUS
 62
   130
 10
-386.69791942293
 20
37.6977841024054
 30
0.0
 11
-386.69791942293
 21
29.6982622146606
 31
0.0
  0
LINE
  5
   3E4
  8
0
  6
CONTINUOUS
 62
   130
 10
-387.99791942293
 20
37.6977841024054
 30
0.0
 11
-387.99791942293
 21
29.6982622146606
 31
0.0
  0
LINE
  5
   3E5
  8
0
  6
CONTINUOUS
 62
   130
 10
-388.49791942293
 20
37.6977841024054
 30
0.0
 11
-388.49791942293
 21
29.6982622146606
 31
0.0
  0
LINE
  5
   3E6
  8
0
  6
CONTINUOUS
 62
   130
 10
-389.79791942293
 20
37.6977841024054
 30
0.0
 11
-389.79791942293
 21
29.6982622146606
 31
0.0
  0
LINE
  5
   3E7
  8
0
  6
CONTINUOUS
 62
   130
 10
-390.29791942293
 20
37.6977841024054
 30
0.0
 11
-390.29791942293
 21
29.6982622146606
 31
0.0
  0
LINE
  5
   3E8
  8
0
  6
CONTINUOUS
 62
   130
 10
-391.59791942293
 20
37.6977841024054
 30
0.0
 11
-391.59791942293
 21
29.6982622146606
 31
0.0
  0
LINE
  5
   3E9
  8
0
  6
CONTINUOUS
 62
   130
 10
-391.59791942293
 20
37.6977841024054
 30
0.0
 11
-391.59791942293
 21
29.6982622146606
 31
0.0
  0
LINE
  5
   3EA
  8
0
  6
CONTINUOUS
 62
   130
 10
-392.09791942293
 20
37.6977841024054
 30
0.0
 11
-392.09791942293
 21
29.6982622146606
 31
0.0
  0
LINE
  5
   3EB
  8
0
  6
CONTINUOUS
 62
   130
 10
-393.39791942293
 20
37.6977841024054
 30
0.0
 11
-393.39791942293
 21
29.6982622146606
 31
0.0
  0
LINE
  5
   3EC
  8
0
  6
CONTINUOUS
 62
   130
 10
-393.89791942293
 20
37.6977841024054
 30
0.0
 11
-393.89791942293
 21
29.6982622146606
 31
0.0
  0
LINE
  5
   3ED
  8
0
  6
CONTINUOUS
 62
   130
 10
-395.19791942293
 20
37.6977841024054
 30
0.0
 11
-395.19791942293
 21
29.6982622146606
 31
0.0
  0
LINE
  5
   3EE
  8
0
  6
CONTINUOUS
 62
   130
 10
-395.69791942293
 20
37.6977841024054
 30
0.0
 11
-395.69791942293
 21
29.6982622146606
 31
0.0
  0
LINE
  5
   3EF
  8
0
  6
CONTINUOUS
 62
   130
 10
-396.99791942293
 20
37.6977841024054
 30
0.0
 11
-396.99791942293
 21
29.6982622146606
 31
0.0
  0
LINE
  5
   3F0
  8
0
  6
CONTINUOUS
 62
   130
 10
-397.49791942293
 20
37.6977841024054
 30
0.0
 11
-397.49791942293
 21
29.6982622146606
 31
0.0
  0
LINE
  5
   3F1
  8
0
  6
CONTINUOUS
 62
   130
 10
-398.79791942293
 20
37.6977841024054
 30
0.0
 11
-398.79791942293
 21
29.6982622146606
 31
0.0
  0
LINE
  5
   3F2
  8
0
  6
CONTINUOUS
 62
   130
 10
-399.29791942293
 20
37.6977841024054
 30
0.0
 11
-399.29791942293
 21
29.6982622146606
 31
0.0
  0
LINE
  5
   3F3
  8
0
  6
CONTINUOUS
 62
   130
 10
-400.59791942293
 20
37.6977841024054
 30
0.0
 11
-400.59791942293
 21
29.6982622146606
 31
0.0
  0
LINE
  5
   3F4
  8
0
  6
CONTINUOUS
 62
   130
 10
-401.09791942293
 20
37.6977841024054
 30
0.0
 11
-401.09791942293
 21
29.6982622146606
 31
0.0
  0
LINE
  5
   3F5
  8
0
  6
CONTINUOUS
 62
   130
 10
-402.39791942293
 20
37.6977841024054
 30
0.0
 11
-402.39791942293
 21
29.6982622146606
 31
0.0
  0
LINE
  5
   3F6
  8
0
  6
CONTINUOUS
 62
   130
 10
-402.89791942293
 20
37.6977841024054
 30
0.0
 11
-402.89791942293
 21
29.6982622146606
 31
0.0
  0
LINE
  5
   3F7
  8
0
  6
CONTINUOUS
 62
   130
 10
-404.19791942293
 20
37.6977841024054
 30
0.0
 11
-404.19791942293
 21
29.6982622146606
 31
0.0
  0
LINE
  5
   3F8
  8
0
  6
CONTINUOUS
 62
   130
 10
-404.69791942293
 20
37.6977841024054
 30
0.0
 11
-404.69791942293
 21
29.6982622146606
 31
0.0
  0
INSERT
  5
   3F9
  8
0
  6
CONTINUOUS
 62
     7
  2
*UDIM103
 10
0.0
 20
0.0
 30
0.0
  0
INSERT
  5
   3FA
  8
0
  6
CONTINUOUS
 62
     7
  2
*UDIM104
 10
0.0
 20
0.0
 30
0.0
  0
TEXT
  5
   3FB
  8
0
  6
CONTINUOUS
 62
     2
 10
-419.332391490701
 20
-19.8987193459025
 30
0.0
 40
3.00000002980232
  1
X
 50
359.999999844103
 41
0.916666674282816
 72
     2
 11
-417.132391409141
 21
-18.3987193369763
 31
0.0
 73
     2
  0
INSERT
  5
   3FC
  8
0
  6
CONTINUOUS
 62
     3
  2
*UDIM105
 10
0.0
 20
0.0
 30
0.0
  0
INSERT
  5
   3FD
  8
0
  6
CONTINUOUS
 62
     7
  2
*UDIM106
 10
0.0
 20
0.0
 30
0.0
  0
INSERT
  5
   3FE
  8
0
  6
CONTINUOUS
 62
     7
  2
*UDIM107
 10
0.0
 20
0.0
 30
0.0
  0
TEXT
  5
   3FF
  8
0
  6
CONTINUOUS
 62
     2
 10
-260.329390471237
 20
-19.8987192497374
 30
0.0
 40
3.00000002980232
  1
X
 50
359.999999844103
 41
0.916666674282816
 11
-260.329390467163
 21
-18.3987192348362
 31
0.0
 73
     2
  0
LINE
  5
   400
  8
0
  6
CONTINUOUS
 62
   130
 10
-375.89791942293
 20
5.69826221466064
 30
0.0
 11
-375.89791942293
 21
-42.3017377853394
 31
0.0
  0
LINE
  5
   401
  8
0
  6
CONTINUOUS
 62
   130
 10
-377.19791942293
 20
5.69826221466064
 30
0.0
 11
-377.19791942293
 21
-42.3017377853394
 31
0.0
  0
LINE
  5
   402
  8
0
  6
CONTINUOUS
 62
   130
 10
-377.69791942293
 20
5.69826221466064
 30
0.0
 11
-377.69791942293
 21
-42.3017377853394
 31
0.0
  0
LINE
  5
   403
  8
0
  6
CONTINUOUS
 62
   130
 10
-378.99791942293
 20
5.69826221466064
 30
0.0
 11
-378.99791942293
 21
-42.3017377853394
 31
0.0
  0
LINE
  5
   404
  8
0
  6
CONTINUOUS
 62
   130
 10
-380.79791942293
 20
5.69826221466064
 30
0.0
 11
-380.79791942293
 21
-42.3017377853394
 31
0.0
  0
LINE
  5
   405
  8
0
  6
CONTINUOUS
 62
   130
 10
-378.99791942293
 20
5.69826221466064
 30
0.0
 11
-378.99791942293
 21
-42.3017377853394
 31
0.0
  0
LINE
  5
   406
  8
0
  6
CONTINUOUS
 62
   130
 10
-379.49791942293
 20
5.69826221466064
 30
0.0
 11
-379.49791942293
 21
-42.3017377853394
 31
0.0
  0
LINE
  5
   407
  8
0
  6
CONTINUOUS
 62
   130
 10
-380.79791942293
 20
5.69826221466064
 30
0.0
 11
-380.79791942293
 21
-42.3017377853394
 31
0.0
  0
LINE
  5
   408
  8
0
  6
CONTINUOUS
 62
   130
 10
-381.29791942293
 20
5.69826221466064
 30
0.0
 11
-381.29791942293
 21
-42.3017377853394
 31
0.0
  0
LINE
  5
   409
  8
0
  6
CONTINUOUS
 62
   130
 10
-382.59791942293
 20
5.69826221466064
 30
0.0
 11
-382.59791942293
 21
-42.3017377853394
 31
0.0
  0
LINE
  5
   40A
  8
0
  6
CONTINUOUS
 62
   130
 10
-383.09791942293
 20
5.69826221466064
 30
0.0
 11
-383.09791942293
 21
-42.3017377853394
 31
0.0
  0
LINE
  5
   40B
  8
0
  6
CONTINUOUS
 62
   130
 10
-384.39791942293
 20
5.69826221466064
 30
0.0
 11
-384.39791942293
 21
-42.3017377853394
 31
0.0
  0
LINE
  5
   40C
  8
0
  6
CONTINUOUS
 62
   130
 10
-384.89791942293
 20
5.69826221466064
 30
0.0
 11
-384.89791942293
 21
-42.3017377853394
 31
0.0
  0
LINE
  5
   40D
  8
0
  6
CONTINUOUS
 62
   130
 10
-386.19791942293
 20
5.69826221466064
 30
0.0
 11
-386.19791942293
 21
-42.3017377853394
 31
0.0
  0
LINE
  5
   40E
  8
0
  6
CONTINUOUS
 62
   130
 10
-386.69791942293
 20
5.69826221466064
 30
0.0
 11
-386.69791942293
 21
-42.3017377853394
 31
0.0
  0
LINE
  5
   40F
  8
0
  6
CONTINUOUS
 62
   130
 10
-387.99791942293
 20
5.69826221466064
 30
0.0
 11
-387.99791942293
 21
-42.3017377853394
 31
0.0
  0
LINE
  5
   410
  8
0
  6
CONTINUOUS
 62
   130
 10
-388.49791942293
 20
5.69826221466064
 30
0.0
 11
-388.49791942293
 21
-42.3017377853394
 31
0.0
  0
LINE
  5
   411
  8
0
  6
CONTINUOUS
 62
   130
 10
-389.79791942293
 20
5.69826221466064
 30
0.0
 11
-389.79791942293
 21
-42.3017377853394
 31
0.0
  0
LINE
  5
   412
  8
0
  6
CONTINUOUS
 62
   130
 10
-390.29791942293
 20
5.69826221466064
 30
0.0
 11
-390.29791942293
 21
-42.3017377853394
 31
0.0
  0
LINE
  5
   413
  8
0
  6
CONTINUOUS
 62
   130
 10
-391.59791942293
 20
5.69826221466064
 30
0.0
 11
-391.59791942293
 21
-42.3017377853394
 31
0.0
  0
LINE
  5
   414
  8
0
  6
CONTINUOUS
 62
   130
 10
-391.59791942293
 20
5.69826221466064
 30
0.0
 11
-391.59791942293
 21
-42.3017377853394
 31
0.0
  0
LINE
  5
   415
  8
0
  6
CONTINUOUS
 62
   130
 10
-392.09791942293
 20
5.69826221466064
 30
0.0
 11
-392.09791942293
 21
-42.3017377853394
 31
0.0
  0
LINE
  5
   416
  8
0
  6
CONTINUOUS
 62
   130
 10
-393.39791942293
 20
5.69826221466064
 30
0.0
 11
-393.39791942293
 21
-42.3017377853394
 31
0.0
  0
LINE
  5
   417
  8
0
  6
CONTINUOUS
 62
   130
 10
-393.89791942293
 20
5.69826221466064
 30
0.0
 11
-393.89791942293
 21
-42.3017377853394
 31
0.0
  0
LINE
  5
   418
  8
0
  6
CONTINUOUS
 62
   130
 10
-395.19791942293
 20
5.69826221466064
 30
0.0
 11
-395.19791942293
 21
-42.3017377853394
 31
0.0
  0
LINE
  5
   419
  8
0
  6
CONTINUOUS
 62
   130
 10
-395.69791942293
 20
5.69826221466064
 30
0.0
 11
-395.69791942293
 21
-42.3017377853394
 31
0.0
  0
LINE
  5
   41A
  8
0
  6
CONTINUOUS
 62
   130
 10
-396.99791942293
 20
5.69826221466064
 30
0.0
 11
-396.99791942293
 21
-42.3017377853394
 31
0.0
  0
LINE
  5
   41B
  8
0
  6
CONTINUOUS
 62
   130
 10
-397.49791942293
 20
5.69826221466064
 30
0.0
 11
-397.49791942293
 21
-42.3017377853394
 31
0.0
  0
LINE
  5
   41C
  8
0
  6
CONTINUOUS
 62
   130
 10
-398.79791942293
 20
5.69826221466064
 30
0.0
 11
-398.79791942293
 21
-42.3017377853394
 31
0.0
  0
LINE
  5
   41D
  8
0
  6
CONTINUOUS
 62
   130
 10
-399.29791942293
 20
5.69826221466064
 30
0.0
 11
-399.29791942293
 21
-42.3017377853394
 31
0.0
  0
LINE
  5
   41E
  8
0
  6
CONTINUOUS
 62
   130
 10
-400.59791942293
 20
5.69826221466064
 30
0.0
 11
-400.59791942293
 21
-42.3017377853394
 31
0.0
  0
LINE
  5
   41F
  8
0
  6
CONTINUOUS
 62
   130
 10
-401.09791942293
 20
5.69826221466064
 30
0.0
 11
-401.09791942293
 21
-42.3017377853394
 31
0.0
  0
LINE
  5
   420
  8
0
  6
CONTINUOUS
 62
   130
 10
-402.39791942293
 20
5.69826221466064
 30
0.0
 11
-402.39791942293
 21
-42.3017377853394
 31
0.0
  0
LINE
  5
   421
  8
0
  6
CONTINUOUS
 62
   130
 10
-402.89791942293
 20
5.69826221466064
 30
0.0
 11
-402.89791942293
 21
-42.3017377853394
 31
0.0
  0
LINE
  5
   422
  8
0
  6
CONTINUOUS
 62
   130
 10
-404.19791942293
 20
5.69826221466064
 30
0.0
 11
-404.19791942293
 21
-42.3017377853394
 31
0.0
  0
LINE
  5
   423
  8
0
  6
CONTINUOUS
 62
   130
 10
-404.69791942293
 20
5.69826221466064
 30
0.0
 11
-404.69791942293
 21
-42.3017377853394
 31
0.0
  0
LINE
  5
   424
  8
0
  6
CONTINUOUS
 62
   130
 10
-405.897922744819
 20
5.69826221466064
 30
0.0
 11
-405.897915420602
 21
-42.3017377853394
 31
0.0
  0
LINE
  5
   425
  8
0
  6
CONTINUOUS
 62
   130
 10
-285.897975692682
 20
5.69826221466065
 30
0.0
 11
-285.8979830169
 21
-42.3017377853394
 31
0.0
  0
INSERT
  5
   426
  8
0
  6
CONTINUOUS
 62
     7
  2
*UDIM108
 10
0.0
 20
0.0
 30
0.0
  0
INSERT
  5
   427
  8
0
  6
CONTINUOUS
 62
     7
  2
*UDIM109
 10
0.0
 20
0.0
 30
0.0
  0
INSERT
  5
   428
  8
0
  6
CONTINUOUS
 62
     7
  2
*UDIM110
 10
0.0
 20
0.0
 30
0.0
  0
INSERT
  5
   429
  8
0
  6
CONTINUOUS
 62
     3
  2
*UDIM111
 10
0.0
 20
0.0
 30
0.0
  0
INSERT
  5
   42A
  8
0
  6
CONTINUOUS
 62
     3
  2
*UDIM112
 10
0.0
 20
0.0
 30
0.0
  0
LINE
  5
   42B
  8
0
  6
CONTINUOUS
 62
   130
 10
-375.89791942293
 20
-42.3017377853394
 30
0.0
 11
-375.89791942293
 21
-50.3021853800165
 31
0.0
  0
LINE
  5
   42C
  8
0
  6
CONTINUOUS
 62
   130
 10
-377.19791942293
 20
-42.3017377853394
 30
0.0
 11
-377.19791942293
 21
-50.3021853800165
 31
0.0
  0
LINE
  5
   42D
  8
0
  6
CONTINUOUS
 62
   130
 10
-377.69791942293
 20
-42.3017377853394
 30
0.0
 11
-377.69791942293
 21
-50.3021853800165
 31
0.0
  0
LINE
  5
   42E
  8
0
  6
CONTINUOUS
 62
   130
 10
-378.99791942293
 20
-42.3017377853394
 30
0.0
 11
-378.99791942293
 21
-50.3021853800165
 31
0.0
  0
LINE
  5
   42F
  8
0
  6
CONTINUOUS
 62
   130
 10
-380.79791942293
 20
-42.3017377853394
 30
0.0
 11
-380.79791942293
 21
-50.3021853800165
 31
0.0
  0
LINE
  5
   430
  8
0
  6
CONTINUOUS
 62
   130
 10
-378.99791942293
 20
-42.3017377853394
 30
0.0
 11
-378.99791942293
 21
-50.3021853800165
 31
0.0
  0
LINE
  5
   431
  8
0
  6
CONTINUOUS
 62
   130
 10
-379.49791942293
 20
-42.3017377853394
 30
0.0
 11
-379.49791942293
 21
-50.3021853800165
 31
0.0
  0
LINE
  5
   432
  8
0
  6
CONTINUOUS
 62
   130
 10
-380.79791942293
 20
-42.3017377853394
 30
0.0
 11
-380.79791942293
 21
-50.3021853800165
 31
0.0
  0
LINE
  5
   433
  8
0
  6
CONTINUOUS
 62
   130
 10
-381.29791942293
 20
-42.3017377853394
 30
0.0
 11
-381.29791942293
 21
-50.3021853800165
 31
0.0
  0
LINE
  5
   434
  8
0
  6
CONTINUOUS
 62
   130
 10
-382.59791942293
 20
-42.3017377853394
 30
0.0
 11
-382.59791942293
 21
-50.3021853800165
 31
0.0
  0
LINE
  5
   435
  8
0
  6
CONTINUOUS
 62
   130
 10
-383.09791942293
 20
-42.3017377853394
 30
0.0
 11
-383.09791942293
 21
-50.3021853800165
 31
0.0
  0
LINE
  5
   436
  8
0
  6
CONTINUOUS
 62
   130
 10
-384.39791942293
 20
-42.3017377853394
 30
0.0
 11
-384.39791942293
 21
-50.3021853800165
 31
0.0
  0
LINE
  5
   437
  8
0
  6
CONTINUOUS
 62
   130
 10
-384.89791942293
 20
-42.3017377853394
 30
0.0
 11
-384.89791942293
 21
-50.3021853800165
 31
0.0
  0
LINE
  5
   438
  8
0
  6
CONTINUOUS
 62
   130
 10
-386.19791942293
 20
-42.3017377853394
 30
0.0
 11
-386.19791942293
 21
-50.3021853800165
 31
0.0
  0
LINE
  5
   439
  8
0
  6
CONTINUOUS
 62
   130
 10
-386.69791942293
 20
-42.3017377853394
 30
0.0
 11
-386.69791942293
 21
-50.3021853800165
 31
0.0
  0
LINE
  5
   43A
  8
0
  6
CONTINUOUS
 62
   130
 10
-387.99791942293
 20
-42.3017377853394
 30
0.0
 11
-387.99791942293
 21
-50.3021853800165
 31
0.0
  0
LINE
  5
   43B
  8
0
  6
CONTINUOUS
 62
   130
 10
-388.49791942293
 20
-42.3017377853394
 30
0.0
 11
-388.49791942293
 21
-50.3021853800165
 31
0.0
  0
LINE
  5
   43C
  8
0
  6
CONTINUOUS
 62
   130
 10
-389.79791942293
 20
-42.3017377853394
 30
0.0
 11
-389.79791942293
 21
-50.3021853800165
 31
0.0
  0
LINE
  5
   43D
  8
0
  6
CONTINUOUS
 62
   130
 10
-390.29791942293
 20
-42.3017377853394
 30
0.0
 11
-390.29791942293
 21
-50.3021853800165
 31
0.0
  0
LINE
  5
   43E
  8
0
  6
CONTINUOUS
 62
   130
 10
-391.59791942293
 20
-42.3017377853394
 30
0.0
 11
-391.59791942293
 21
-50.3021853800165
 31
0.0
  0
LINE
  5
   43F
  8
0
  6
CONTINUOUS
 62
   130
 10
-391.59791942293
 20
-42.3017377853394
 30
0.0
 11
-391.59791942293
 21
-50.3021853800165
 31
0.0
  0
LINE
  5
   440
  8
0
  6
CONTINUOUS
 62
   130
 10
-392.09791942293
 20
-42.3017377853394
 30
0.0
 11
-392.09791942293
 21
-50.3021853800165
 31
0.0
  0
LINE
  5
   441
  8
0
  6
CONTINUOUS
 62
   130
 10
-393.39791942293
 20
-42.3017377853394
 30
0.0
 11
-393.39791942293
 21
-50.3021853800165
 31
0.0
  0
LINE
  5
   442
  8
0
  6
CONTINUOUS
 62
   130
 10
-393.89791942293
 20
-42.3017377853394
 30
0.0
 11
-393.89791942293
 21
-50.3021853800165
 31
0.0
  0
LINE
  5
   443
  8
0
  6
CONTINUOUS
 62
   130
 10
-395.19791942293
 20
-42.3017377853394
 30
0.0
 11
-395.19791942293
 21
-50.3021853800165
 31
0.0
  0
LINE
  5
   444
  8
0
  6
CONTINUOUS
 62
   130
 10
-395.69791942293
 20
-42.3017377853394
 30
0.0
 11
-395.69791942293
 21
-50.3021853800165
 31
0.0
  0
LINE
  5
   445
  8
0
  6
CONTINUOUS
 62
   130
 10
-396.99791942293
 20
-42.3017377853394
 30
0.0
 11
-396.99791942293
 21
-50.3021853800165
 31
0.0
  0
LINE
  5
   446
  8
0
  6
CONTINUOUS
 62
   130
 10
-397.49791942293
 20
-42.3017377853394
 30
0.0
 11
-397.49791942293
 21
-50.3021853800165
 31
0.0
  0
LINE
  5
   447
  8
0
  6
CONTINUOUS
 62
   130
 10
-398.79791942293
 20
-42.3017377853394
 30
0.0
 11
-398.79791942293
 21
-50.3021853800165
 31
0.0
  0
LINE
  5
   448
  8
0
  6
CONTINUOUS
 62
   130
 10
-399.29791942293
 20
-42.3017377853394
 30
0.0
 11
-399.29791942293
 21
-50.3021853800165
 31
0.0
  0
LINE
  5
   449
  8
0
  6
CONTINUOUS
 62
   130
 10
-400.59791942293
 20
-42.3017377853394
 30
0.0
 11
-400.59791942293
 21
-50.3021853800165
 31
0.0
  0
LINE
  5
   44A
  8
0
  6
CONTINUOUS
 62
   130
 10
-401.09791942293
 20
-42.3017377853394
 30
0.0
 11
-401.09791942293
 21
-50.3021853800165
 31
0.0
  0
LINE
  5
   44B
  8
0
  6
CONTINUOUS
 62
   130
 10
-402.39791942293
 20
-42.3017377853394
 30
0.0
 11
-402.39791942293
 21
-50.3021853800165
 31
0.0
  0
LINE
  5
   44C
  8
0
  6
CONTINUOUS
 62
   130
 10
-402.89791942293
 20
-42.3017377853394
 30
0.0
 11
-402.89791942293
 21
-50.3021853800165
 31
0.0
  0
LINE
  5
   44D
  8
0
  6
CONTINUOUS
 62
   130
 10
-404.19791942293
 20
-42.3017377853394
 30
0.0
 11
-404.19791942293
 21
-50.3021853800165
 31
0.0
  0
LINE
  5
   44E
  8
0
  6
CONTINUOUS
 62
   130
 10
-404.69791942293
 20
-42.3017377853394
 30
0.0
 11
-404.69791942293
 21
-50.3021853800165
 31
0.0
  0
LINE
  5
   44F
  8
0
  6
CONTINUOUS
 62
   130
 10
-405.897915420602
 20
-42.3017377853394
 30
0.0
 11
-405.897912521365
 21
-61.3021855325997
 31
0.0
  0
LINE
  5
   450
  8
0
  6
CONTINUOUS
 62
   130
 10
-321.148739812736
 20
-38.9231679915591
 30
0.0
 11
-321.148739812736
 21
-69.7379900329308
 31
0.0
  0
LINE
  5
   451
  8
0
  6
CONTINUOUS
 62
   130
 10
-413.702867225254
 20
-37.3879099539107
 30
0.0
 11
-406.684544767433
 21
-37.3879099539107
 31
0.0
  0
LINE
  5
   452
  8
0
  6
CONTINUOUS
 62
     7
 10
-321.148739812736
 20
-42.3017377853394
 30
0.0
 11
-284.398040771484
 21
-42.3017377853394
 31
0.0
  0
LINE
  5
   453
  8
0
  6
CONTINUOUS
 62
     7
 10
-321.148739812736
 20
-52.8017377853394
 30
0.0
 11
-284.898040771484
 21
-52.8017377853394
 31
0.0
  0
LINE
  5
   454
  8
0
  6
CONTINUOUS
 62
     7
 10
-321.148739812736
 20
-53.8017377853394
 30
0.0
 11
-284.898040771484
 21
-53.8017377853394
 31
0.0
  0
LINE
  5
   455
  8
0
  6
CONTINUOUS
 62
     7
 10
-321.148739812736
 20
-66.3017377853394
 30
0.0
 11
-280.648040771484
 21
-66.3017377853394
 31
0.0
  0
INSERT
  5
   456
  8
0
  6
CONTINUOUS
 62
     3
  2
*UDIM113
 10
0.0
 20
0.0
 30
0.0
  0
INSERT
  5
   457
  8
0
  6
CONTINUOUS
 62
     3
  2
*UDIM114
 10
0.0
 20
0.0
 30
0.0
  0
TEXT
  5
   458
  8
0
  6
CONTINUOUS
 62
     2
 10
-331.887784018472
 20
89.091424084294
 30
0.0
 40
3.00000002980232
  1
Y
 50
359.999999844103
 41
0.916666674282816
 72
     1
 11
-330.787783975655
 21
90.5914240962077
 31
0.0
 73
     2
  0
TEXT
  5
   459
  8
0
  6
CONTINUOUS
 62
     2
 10
-331.744222302338
 20
-82.8379173397945
 30
0.0
 40
3.00000002980232
  1
Y
 50
359.999999844103
 41
0.916666674282816
 72
     1
 11
-330.644222259522
 21
-81.3379173278809
 31
0.0
 73
     2
  0
INSERT
  5
   45A
  8
255
  6
CONTINUOUS
 62
     7
  2
DIAFRAMMA
 10
-375.897913078047
 20
51.6977958679217
 30
0.0
 50
359.999999792138
  0
INSERT
  5
   45B
  8
255
  6
CONTINUOUS
 62
     7
  2
DIAFRAMMA
 10
-345.897913078047
 20
51.6977958679217
 30
0.0
 50
359.999999792138
  0
INSERT
  5
   45C
  8
255
  6
CONTINUOUS
 62
     7
  2
DIAFRAMMA
 10
-315.897913078047
 20
51.6977958679217
 30
0.0
 50
359.999999792138
  0
LINE
  5
   45D
  8
0
  6
CONTINUOUS
 62
   130
 10
-390.646521657705
 20
-99.3146663408064
 30
0.0
 11
-390.646521657705
 21
-152.966162832114
 31
0.0
  0
LINE
  5
   45E
  8
0
  6
CONTINUOUS
 62
   130
 10
-363.346527463198
 20
-99.3146663408064
 30
0.0
 11
-363.346527463198
 21
-152.966162832114
 31
0.0
  0
CIRCLE
  5
   45F
  8
0
  6
CONTINUOUS
 62
   130
 10
-384.496521815658
 20
-101.169611743092
 30
0.0
 40
0.559999990463257
  0
CIRCLE
  5
   460
  8
0
  6
CONTINUOUS
 62
   130
 10
-369.496521964669
 20
-151.169600465894
 30
0.0
 40
0.559999990463257
  0
ARC
  5
   461
  8
0
  6
CONTINUOUS
 62
   130
 10
-384.496521815658
 20
-101.169611743092
 30
0.0
 40
0.699999988079071
 50
540.290583474834
 51
809.999999844103
  0
CIRCLE
  5
   462
  8
0
  6
CONTINUOUS
 62
   130
 10
-369.496521964669
 20
-151.169600465894
 30
0.0
 40
0.55514766872928
  0
ARC
  5
   463
  8
0
  6
CONTINUOUS
 62
   130
 10
-369.496521964669
 20
-151.169600465894
 30
0.0
 40
0.699999988079071
 50
449.999999844103
 51
719.712644462792
  0
LINE
  5
   464
  8
0
  6
DASHDOT
 62
   130
 10
-384.496521815658
 20
-96.969611814618
 30
0.0
 11
-384.496521815658
 21
-105.369611671567
 31
0.0
  0
LINE
  5
   465
  8
0
  6
DASHDOT
 62
   130
 10
-388.696521744132
 20
-101.169611743092
 30
0.0
 11
-380.296521887183
 21
-101.169611743092
 31
0.0
  0
LINE
  5
   466
  8
0
  6
CONTINUOUS
 62
   130
 10
-369.496521964669
 20
-146.969600537419
 30
0.0
 11
-369.496521964669
 21
-155.369600394368
 31
0.0
  0
LINE
  5
   467
  8
0
  6
DASHDOT
 62
   130
 10
-376.821521893144
 20
-151.169600465894
 30
0.0
 11
-368.421522036195
 21
-151.169600465894
 31
0.0
  0
LINE
  5
   468
  8
0
  6
DASHDOT
 62
   130
 10
-376.99652723074
 20
-94.2924813277824
 30
0.0
 11
-376.99652723074
 21
-156.092071781448
 31
0.0
  0
LINE
  5
   469
  8
0
  6
CONTINUOUS
 62
   130
 10
-390.646521657705
 20
-99.3146663408064
 30
0.0
 11
-363.346527463198
 21
-99.3146663408064
 31
0.0
  0
LINE
  5
   46A
  8
0
  6
CONTINUOUS
 62
   130
 10
-390.646521657705
 20
-152.966162832114
 30
0.0
 11
-363.346527463198
 21
-152.966162832114
 31
0.0
  0
LINE
  5
   46B
  8
0
  6
DASHDOT
 62
   130
 10
-395.395846546666
 20
-132.169611743092
 30
0.0
 11
-358.135676712706
 21
-132.169611743092
 31
0.0
  0
TEXT
  5
   46C
  8
0
  6
CONTINUOUS
 62
     2
 10
-377.79346622934
 20
-93.3711948513912
 30
0.0
 40
3.00000002980232
  1
Y
 50
359.999999844103
 41
0.916666674282816
 72
     1
 11
-376.693466186524
 21
-91.8711948394775
 31
0.0
 73
     2
  0
TEXT
  5
   46D
  8
0
  6
CONTINUOUS
 62
     2
 10
-358.248922352096
 20
-133.618579268049
 30
0.0
 40
3.00000002980232
  1
X
 50
359.999999844103
 41
0.916666674282816
 11
-358.248922348023
 21
-132.118579253148
 31
0.0
 73
     2
  0
TEXT
  5
   46E
  8
0
  6
CONTINUOUS
 62
     2
 10
-418.992284778854
 20
-133.67335736711
 30
0.0
 40
3.00000002980232
  1
X
 50
359.999999844103
 41
0.916666674282816
 11
-418.99228477478
 21
-132.173357352208
 31
0.0
 73
     2
  0
TEXT
  5
   46F
  8
0
  6
CONTINUOUS
 62
     2
 10
-378.114068989059
 20
-158.81359136064
 30
0.0
 40
3.00000002980232
  1
Y
 50
359.999999844103
 41
0.916666674282816
 11
-378.114068984985
 21
-157.313591345739
 31
0.0
 73
     2
  0
INSERT
  5
   470
  8
0
  6
CONTINUOUS
 62
     3
  2
*UDIM115
 10
0.0
 20
0.0
 30
0.0
  0
INSERT
  5
   471
  8
0
  6
CONTINUOUS
 62
     3
  2
*UDIM116
 10
0.0
 20
0.0
 30
0.0
  0
INSERT
  5
   472
  8
0
  6
CONTINUOUS
 62
     3
  2
*UDIM117
 10
0.0
 20
0.0
 30
0.0
  0
INSERT
  5
   473
  8
0
  6
CONTINUOUS
 62
     3
  2
*UDIM118
 10
0.0
 20
0.0
 30
0.0
  0
LINE
  5
   474
  8
0
  6
CONTINUOUS
 62
   130
 10
-232.674058469136
 20
53.6977958679199
 30
0.0
 11
-187.174072265625
 21
53.6977958679199
 31
0.0
  0
LINE
  5
   475
  8
0
  6
CONTINUOUS
 62
   130
 10
-232.674058469136
 20
32.197811126709
 30
0.0
 11
-230.174058469136
 21
29.697811126709
 31
0.0
  0
LINE
  5
   476
  8
0
  6
CONTINUOUS
 62
   130
 10
-232.674058469136
 20
53.6977958679199
 30
0.0
 11
-232.674058469136
 21
32.197811126709
 31
0.0
  0
LINE
  5
   477
  8
0
  6
CONTINUOUS
 62
   130
 10
-205.158897399902
 20
-50.802173614502
 30
0.0
 11
-205.158897399902
 21
-62.2763076659144
 31
0.0
  0
LINE
  5
   478
  8
0
  6
CONTINUOUS
 62
   130
 10
-203.158897399902
 20
-50.802173614502
 30
0.0
 11
-203.158897399902
 21
-63.302188873291
 31
0.0
  0
LINE
  5
   479
  8
0
  6
CONTINUOUS
 62
   130
 10
-205.158897399902
 20
-62.2763076659144
 30
0.0
 11
-203.158897399902
 21
-62.2763076659144
 31
0.0
  0
LINE
  5
   47A
  8
0
  6
DASHDOT
 62
   130
 10
-209.204319380862
 20
44.6977991821491
 30
0.0
 11
-184.17330790373
 21
44.6977991821491
 31
0.0
  0
LINE
  5
   47B
  8
0
  6
DASHDOT
 62
   130
 10
-206.818895341574
 20
-57.3021736144902
 30
0.0
 11
-189.279685084693
 21
-57.3021736144902
 31
0.0
  0
LINE
  5
   47C
  8
0
  6
CONTINUOUS
 62
   130
 10
-157.674072027206
 20
-24.0218293589352
 30
0.0
 11
-140.478437631491
 21
-29.2180572968367
 31
0.0
  0
LINE
  5
   47D
  8
0
  6
CONTINUOUS
 62
   130
 10
-140.478383501042
 20
-29.2180735368936
 30
0.0
 11
-140.264210317023
 21
-29.3484773860684
 31
0.0
  0
LINE
  5
   47E
  8
0
  6
CONTINUOUS
 62
   130
 10
-140.26424843135
 20
-29.3484633438442
 30
0.0
 11
-140.140310309715
 21
-29.5664491028351
 31
0.0
  0
LINE
  5
   47F
  8
0
  6
CONTINUOUS
 62
   130
 10
-140.140289679509
 20
-29.5664617277338
 30
0.0
 11
-140.137764083077
 21
-29.8172021080185
 31
0.0
  0
LINE
  5
   480
  8
0
  6
CONTINUOUS
 62
   130
 10
-140.13777334411
 20
-29.8171937345671
 30
0.0
 11
-140.866696486368
 21
-32.7524606486988
 31
0.0
  0
LINE
  5
   481
  8
0
  6
CONTINUOUS
 62
   130
 10
-140.866690323184
 20
-32.7524558118894
 30
0.0
 11
-140.991953777846
 21
-32.9789424851829
 31
0.0
  0
LINE
  5
   482
  8
0
  6
CONTINUOUS
 62
   130
 10
-140.991947367605
 20
-32.9789503713305
 30
0.0
 11
-141.213674099842
 21
-33.1124606950526
 31
0.0
  0
LINE
  5
   483
  8
0
  6
CONTINUOUS
 62
   130
 10
-141.213650933752
 20
-33.1124607103407
 30
0.0
 11
-141.472426232425
 21
-33.117221514067
 31
0.0
  0
LINE
  5
   484
  8
0
  6
CONTINUOUS
 62
   130
 10
-157.674072027206
 20
-29.0939130020825
 30
0.0
 11
-141.472451855475
 21
-33.1172204235672
 31
0.0
  0
LINE
  5
   485
  8
0
  6
DOT
 62
   130
 10
-198.67407283783
 20
50.6977991821491
 30
0.0
 11
-198.67407283783
 21
47.6977991821491
 31
0.0
  0
LINE
  5
   486
  8
0
  6
DOT
 62
   130
 10
-217.17407283783
 20
50.6977991821491
 30
0.0
 11
-217.17407283783
 21
38.6977991821491
 31
0.0
  0
LINE
  5
   487
  8
0
  6
DOT
 62
   130
 10
-219.17407283783
 20
50.6977991821491
 30
0.0
 11
-219.17407283783
 21
38.6977991821491
 31
0.0
  0
LINE
  5
   488
  8
0
  6
DOT
 62
   130
 10
-219.17407283783
 20
50.6977991821491
 30
0.0
 11
-198.67407283783
 21
50.6977991821491
 31
0.0
  0
LINE
  5
   489
  8
0
  6
DOT
 62
   130
 10
-202.67407283783
 20
38.6977991821491
 30
0.0
 11
-198.67407283783
 21
38.6977991821491
 31
0.0
  0
LINE
  5
   48A
  8
0
  6
DOT
 62
   130
 10
-202.17407283783
 20
47.6977991821491
 30
0.0
 11
-185.67407283783
 21
47.6977991821491
 31
0.0
  0
LINE
  5
   48B
  8
0
  6
DOT
 62
   130
 10
-202.17407283783
 20
41.6977991821491
 30
0.0
 11
-185.67407283783
 21
41.6977991821491
 31
0.0
  0
LINE
  5
   48C
  8
0
  6
CONTINUOUS
 62
   130
 10
-202.17407283783
 20
47.6977991821491
 30
0.0
 11
-202.67407283783
 21
47.1977991821491
 31
0.0
  0
LINE
  5
   48D
  8
0
  6
CONTINUOUS
 62
   130
 10
-202.67407283783
 20
42.1977991821491
 30
0.0
 11
-202.17407283783
 21
41.6977991821491
 31
0.0
  0
LINE
  5
   48E
  8
0
  6
DOT
 62
   130
 10
-202.17407283783
 20
47.6977991821491
 30
0.0
 11
-202.17407283783
 21
41.6977991821491
 31
0.0
  0
LINE
  5
   48F
  8
0
  6
DOT
 62
   130
 10
-188.17407283783
 20
47.6977991821491
 30
0.0
 11
-188.17407283783
 21
41.6977991821491
 31
0.0
  0
LINE
  5
   490
  8
0
  6
DOT
 62
   130
 10
-198.67407283783
 20
41.6977991821491
 30
0.0
 11
-198.67407283783
 21
38.6977991821491
 31
0.0
  0
LINE
  5
   491
  8
0
  6
CONTINUOUS
 62
   130
 10
-199.158897399902
 20
-51.302188873291
 30
0.0
 11
-199.158897399902
 21
-54.3021769287312
 31
0.0
  0
LINE
  5
   492
  8
0
  6
CONTINUOUS
 62
   130
 10
-217.658897399902
 20
-51.302188873291
 30
0.0
 11
-217.658897399902
 21
-63.302188873291
 31
0.0
  0
LINE
  5
   493
  8
0
  6
CONTINUOUS
 62
   130
 10
-219.658897399902
 20
-51.302188873291
 30
0.0
 11
-219.658897399902
 21
-63.302188873291
 31
0.0
  0
LINE
  5
   494
  8
0
  6
CONTINUOUS
 62
   130
 10
-219.658897399902
 20
-51.302188873291
 30
0.0
 11
-205.158897399902
 21
-51.302188873291
 31
0.0
  0
LINE
  5
   495
  8
0
  6
CONTINUOUS
 62
   130
 10
-219.658897399902
 20
-63.302188873291
 30
0.0
 11
-199.158897399902
 21
-63.302188873291
 31
0.0
  0
LINE
  5
   496
  8
0
  6
CONTINUOUS
 62
   130
 10
-187.174078288848
 20
53.697811126709
 30
0.0
 11
-187.174078288848
 21
-66.3021736145118
 31
0.0
  0
LINE
  5
   497
  8
0
  6
CONTINUOUS
 62
   130
 10
-203.158897399902
 20
-51.302188873291
 30
0.0
 11
-199.158897399902
 21
-51.302188873291
 31
0.0
  0
LINE
  5
   498
  8
0
  6
CONTINUOUS
 62
   130
 10
-230.174058469136
 20
29.697811126709
 30
0.0
 11
-230.174058469136
 21
-23.002188873291
 31
0.0
  0
LINE
  5
   499
  8
0
  6
CONTINUOUS
 62
   130
 10
-230.174058469136
 20
-23.002188873291
 30
0.0
 11
-232.674058469136
 21
-25.502188873291
 31
0.0
  0
LINE
  5
   49A
  8
0
  6
CONTINUOUS
 62
   130
 10
-232.674058469136
 20
-25.502188873291
 30
0.0
 11
-232.674058469136
 21
-66.302188873291
 31
0.0
  0
LINE
  5
   49B
  8
0
  6
DOT
 62
   130
 10
-205.67406003475
 20
49.9477944824559
 30
0.0
 11
-205.67406003475
 21
38.2478034973144
 31
0.0
  0
LINE
  5
   49C
  8
0
  6
DOT
 62
   130
 10
-202.674060630797
 20
49.9477882385254
 30
0.0
 11
-202.674060630797
 21
37.7478034973145
 31
0.0
  0
LINE
  5
   49D
  8
0
  6
DOT
 62
   130
 10
-205.67406003399
 20
49.9478014182725
 30
0.0
 11
-202.674060630223
 21
49.9477806108268
 31
0.0
  0
LINE
  5
   49E
  8
0
  6
CONTINUOUS
 62
   130
 10
-233.874073982239
 20
37.1977998019429
 30
0.0
 11
-232.674058914185
 21
37.1977998019429
 31
0.0
  0
LINE
  5
   49F
  8
0
  6
CONTINUOUS
 62
   130
 10
-233.874073982239
 20
48.6977998019429
 30
0.0
 11
-232.674058914185
 21
48.6977998019429
 31
0.0
  0
LINE
  5
   4A0
  8
0
  6
CONTINUOUS
 62
   130
 10
-233.874073982239
 20
-63.3021887539653
 30
0.0
 11
-232.674058914185
 21
-63.3021887539653
 31
0.0
  0
LINE
  5
   4A1
  8
0
  6
DOT
 62
   130
 10
-232.942008137703
 20
5.19779980194289
 30
0.0
 11
-232.674058914185
 21
5.19779980194289
 31
0.0
  0
LINE
  5
   4A2
  8
0
  6
CONTINUOUS
 62
   130
 10
-233.874073982239
 20
48.6977998019429
 30
0.0
 11
-233.874073982239
 21
26.8977219268442
 31
0.0
  0
LINE
  5
   4A3
  8
0
  6
CONTINUOUS
 62
   130
 10
-233.874073982239
 20
-42.802169680479
 30
0.0
 11
-233.874073982239
 21
-63.302184939268
 31
0.0
  0
LINE
  5
   4A4
  8
0
  6
CONTINUOUS
 62
   130
 10
-232.674058914185
 20
48.6977959872456
 30
0.0
 11
-232.674058914185
 21
-63.3021887539653
 31
0.0
  0
LINE
  5
   4A5
  8
0
  6
CONTINUOUS
 62
   130
 10
-235.074089622498
 20
25.897781491396
 30
0.0
 11
-234.874073982239
 21
25.897781491396
 31
0.0
  0
LINE
  5
   4A6
  8
0
  6
CONTINUOUS
 62
   130
 10
-235.074089622498
 20
24.6977998019429
 30
0.0
 11
-234.874074172974
 21
24.6977998019429
 31
0.0
  0
LINE
  5
   4A7
  8
0
  6
CONTINUOUS
 62
   130
 10
-240.674073219299
 20
25.897781491396
 30
0.0
 11
-240.674073219299
 21
24.6977998019429
 31
0.0
  0
LINE
  5
   4A8
  8
0
  6
CONTINUOUS
 62
   130
 10
-240.674073219299
 20
4.69779980194289
 30
0.0
 11
-240.674073219299
 21
3.4978028537007
 31
0.0
  0
LINE
  5
   4A9
  8
0
  6
CONTINUOUS
 62
   130
 10
-240.674073219299
 20
-34.3022001980571
 30
0.0
 11
-240.674073219299
 21
-39.3022001980571
 31
0.0
  0
LINE
  5
   4AA
  8
0
  6
CONTINUOUS
 62
   130
 10
-240.674073219299
 20
-34.3022001980571
 30
0.0
 11
-237.34393119812
 21
-34.3022001980571
 31
0.0
  0
LINE
  5
   4AB
  8
0
  6
CONTINUOUS
 62
   130
 10
-237.34396064023
 20
-34.3022024804306
 30
0.0
 11
-236.674088102485
 21
-36.8021999620005
 31
0.0
  0
LINE
  5
   4AC
  8
0
  6
CONTINUOUS
 62
   130
 10
-236.674073219299
 20
-36.8022001980571
 30
0.0
 11
-235.674073219299
 21
-36.8022001980571
 31
0.0
  0
LINE
  5
   4AD
  8
0
  6
CONTINUOUS
 62
   130
 10
-235.674073219299
 20
-1.30220019805711
 30
0.0
 11
-235.674073219299
 21
-36.8022001980571
 31
0.0
  0
LINE
  5
   4AE
  8
0
  6
CONTINUOUS
 62
   130
 10
-236.674073219299
 20
-1.30220019805711
 30
0.0
 11
-235.674073219299
 21
-1.30220019805711
 31
0.0
  0
LINE
  5
   4AF
  8
0
  6
CONTINUOUS
 62
   130
 10
-240.674088815693
 20
-0.230383767830126
 30
0.0
 11
-237.683457378898
 21
-1.03172918606937
 31
0.0
  0
LINE
  5
   4B0
  8
0
  6
CONTINUOUS
 62
   130
 10
-240.674073219299
 20
1.69779980194289
 30
0.0
 11
-240.674073219299
 21
-0.230392336728983
 31
0.0
  0
LINE
  5
   4B1
  8
0
  6
DOT
 62
   130
 10
-233.874073982239
 20
5.19779980194289
 30
0.0
 11
-232.942008078098
 21
5.19779980194289
 31
0.0
  0
LINE
  5
   4B2
  8
0
  6
CONTINUOUS
 62
   130
 10
-237.174058914185
 20
-42.8021897076396
 30
0.0
 11
-232.674058914185
 21
-42.8021897076396
 31
0.0
  0
LINE
  5
   4B3
  8
0
  6
CONTINUOUS
 62
   130
 10
-236.274043655396
 20
53.1977998019429
 30
0.0
 11
-235.074089622498
 21
53.1977998019429
 31
0.0
  0
LINE
  5
   4B4
  8
0
  6
CONTINUOUS
 62
   130
 10
-235.074089622498
 20
-1.30221545684617
 30
0.0
 11
-235.074089622498
 21
-2.12373340118211
 31
0.0
  0
LINE
  5
   4B5
  8
0
  6
CONTINUOUS
 62
   130
 10
-235.074089622498
 20
24.6977692843648
 30
0.0
 11
-235.074089622498
 21
-1.30220019805711
 31
0.0
  0
LINE
  5
   4B6
  8
0
  6
CONTINUOUS
 62
   130
 10
-235.074089622498
 20
53.1977998019429
 30
0.0
 11
-235.074089622498
 21
24.6977998019429
 31
0.0
  0
LINE
  5
   4B7
  8
0
  6
CONTINUOUS
 62
   130
 10
-235.074020160359
 20
-2.12373303144865
 30
0.0
 11
-237.234790263812
 21
-5.86630322713231
 31
0.0
  0
LINE
  5
   4B8
  8
0
  6
CONTINUOUS
 62
   130
 10
-238.274060819215
 20
-5.26632212579455
 30
0.0
 11
-237.234869909822
 21
-5.86630541234981
 31
0.0
  0
LINE
  5
   4B9
  8
0
  6
CONTINUOUS
 62
   130
 10
-236.27407358284
 20
-1.80221502567171
 30
0.0
 11
-238.274073532532
 21
-5.26631093146358
 31
0.0
  0
LINE
  5
   4BA
  8
0
  6
CONTINUOUS
 62
   130
 10
-236.274043655396
 20
53.1977998019429
 30
0.0
 11
-236.274043655396
 21
24.6977998019429
 31
0.0
  0
LINE
  5
   4BB
  8
0
  6
CONTINUOUS
 62
   130
 10
-236.274043655396
 20
24.6977998019429
 30
0.0
 11
-236.274043655396
 21
8.26886761380836
 31
0.0
  0
LINE
  5
   4BC
  8
0
  6
CONTINUOUS
 62
   130
 10
-236.274043655396
 20
-1.00741565215867
 30
0.0
 11
-236.274043655396
 21
-1.80220019805711
 31
0.0
  0
LINE
  5
   4BD
  8
0
  6
CONTINUOUS
 62
   130
 10
-235.074089050293
 20
-59.8021887539653
 30
0.0
 11
-234.874073982239
 21
-59.8021887539653
 31
0.0
  0
LINE
  5
   4BE
  8
0
  6
CONTINUOUS
 62
   130
 10
-235.074089050293
 20
-54.8021897076396
 30
0.0
 11
-234.874073982239
 21
-54.8021897076396
 31
0.0
  0
ARC
  5
   4BF
  8
0
  6
CONTINUOUS
 62
   130
 10
-237.174122131471
 20
1.69780748569138
 30
0.0
 40
3.49996037873244
 50
509.049876306511
 51
539.99994520259
  0
LINE
  5
   4C0
  8
0
  6
CONTINUOUS
 62
   130
 10
-236.374074172974
 20
25.897781491396
 30
0.0
 11
-236.374074172974
 21
24.6977998019429
 31
0.0
  0
LINE
  5
   4C1
  8
0
  6
CONTINUOUS
 62
   130
 10
-236.374074172974
 20
4.69779980194289
 30
0.0
 11
-236.374074172974
 21
3.4978028537007
 31
0.0
  0
LINE
  5
   4C2
  8
0
  6
CONTINUOUS
 62
   130
 10
-234.974059104919
 20
25.897781491396
 30
0.0
 11
-234.974059104919
 21
24.6977998019429
 31
0.0
  0
LINE
  5
   4C3
  8
0
  6
CONTINUOUS
 62
   130
 10
-234.974059104919
 20
4.69779980194289
 30
0.0
 11
-234.974059104919
 21
3.4978028537007
 31
0.0
  0
LINE
  5
   4C4
  8
0
  6
CONTINUOUS
 62
   130
 10
-240.674072265625
 20
25.897781491396
 30
0.0
 11
-236.374074172974
 21
25.897781491396
 31
0.0
  0
LINE
  5
   4C5
  8
0
  6
CONTINUOUS
 62
   130
 10
-240.674072265625
 20
24.6977998019429
 30
0.0
 11
-236.374074172974
 21
24.6977998019429
 31
0.0
  0
LINE
  5
   4C6
  8
0
  6
CONTINUOUS
 62
   130
 10
-240.674073219299
 20
4.69779980194289
 30
0.0
 11
-236.374074172974
 21
4.69779980194289
 31
0.0
  0
LINE
  5
   4C7
  8
0
  6
CONTINUOUS
 62
   130
 10
-240.674073219299
 20
3.4978028537007
 30
0.0
 11
-236.374074172974
 21
3.4978028537007
 31
0.0
  0
LINE
  5
   4C8
  8
0
  6
CONTINUOUS
 62
   130
 10
-236.28409462181
 20
8.127439783815
 30
0.0
 11
-236.749800454402
 21
4.86749895567163
 31
0.0
  0
LINE
  5
   4C9
  8
0
  6
CONTINUOUS
 62
   130
 10
-235.084094812545
 20
8.04215707443236
 30
0.0
 11
-235.561861062009
 21
4.69779332818685
 31
0.0
  0
LINE
  5
   4CA
  8
0
  6
CONTINUOUS
 62
   130
 10
-236.749800454402
 20
4.86749895567166
 30
0.0
 11
-235.561861062008
 21
4.69779332818689
 31
0.0
  0
ARC
  5
   4CB
  8
0
  6
CONTINUOUS
 62
   130
 10
-237.274043655396
 20
8.26886761380836
 30
0.0
 40
1.0
 50
351.869897489947
 51
359.999999844103
  0
ARC
  5
   4CC
  8
0
  6
CONTINUOUS
 62
   130
 10
-236.074089622498
 20
8.18358490442573
 30
0.0
 40
1.0
 50
351.869897489947
 51
359.999999844103
  0
LINE
  5
   4CD
  8
0
  6
CONTINUOUS
 62
   130
 10
-235.074089622498
 20
4.69779980194289
 30
0.0
 11
-234.874074172974
 21
4.69779980194289
 31
0.0
  0
LINE
  5
   4CE
  8
0
  6
CONTINUOUS
 62
   130
 10
-235.074089622498
 20
3.4978028537007
 30
0.0
 11
-234.874073982239
 21
3.4978028537007
 31
0.0
  0
LINE
  5
   4CF
  8
0
  6
DOT
 62
   130
 10
-236.274043655396
 20
8.26886761380836
 30
0.0
 11
-236.274043655396
 21
4.7995402381518
 31
0.0
  0
LINE
  5
   4D0
  8
0
  6
CONTINUOUS
 62
   130
 10
-236.274043655396
 20
4.7995402381518
 30
0.0
 11
-236.274043655396
 21
-1.0074443690445
 31
0.0
  0
LINE
  5
   4D1
  8
0
  6
CONTINUOUS
 62
   130
 10
-236.274043655396
 20
51.1977998019429
 30
0.0
 11
-235.074089622498
 21
51.1977998019429
 31
0.0
  0
LINE
  5
   4D2
  8
0
  6
CONTINUOUS
 62
   130
 10
-236.274043655396
 20
33.1977998019429
 30
0.0
 11
-235.074089622498
 21
33.1977998019429
 31
0.0
  0
LINE
  5
   4D3
  8
0
  6
CONTINUOUS
 62
   130
 10
-236.274043655396
 20
17.6977998019429
 30
0.0
 11
-235.074089622498
 21
17.6977998019429
 31
0.0
  0
LINE
  5
   4D4
  8
0
  6
CONTINUOUS
 62
   130
 10
-236.274043655396
 20
10.6977998019429
 30
0.0
 11
-235.074089622498
 21
10.6977998019429
 31
0.0
  0
LINE
  5
   4D5
  8
0
  6
CONTINUOUS
 62
   130
 10
-236.274043655396
 20
3.1978028537007
 30
0.0
 11
-235.074089622498
 21
3.1978028537007
 31
0.0
  0
INSERT
  5
   4D6
  8
0
  6
CONTINUOUS
 62
     7
  2
*HATCH50
 10
-109.426666259766
 20
-20.802188873291
 30
0.0
 50
269.999999844103
  0
INSERT
  5
   4D7
  8
0
  6
CONTINUOUS
 62
     7
  2
*HATCH51
 10
-109.426666259766
 20
-20.802188873291
 30
0.0
 50
269.999999844103
  0
INSERT
  5
   4D8
  8
0
  6
CONTINUOUS
 62
     7
  2
*HATCH52
 10
-109.426666259766
 20
-20.802188873291
 30
0.0
 50
269.999999844103
  0
ARC
  5
   4D9
  8
0
  6
CONTINUOUS
 62
   130
 10
-234.874073982239
 20
2.4978028537007
 30
0.0
 40
1.0
 50
359.999999844103
 51
449.999999844103
  0
ARC
  5
   4DA
  8
0
  6
CONTINUOUS
 62
   130
 10
-234.874074172974
 20
2.49779980194289
 30
0.0
 40
2.19999904632568
 50
359.999999844103
 51
449.999999844103
  0
LINE
  5
   4DB
  8
0
  6
CONTINUOUS
 62
   130
 10
-235.074089622498
 20
5.19779980194289
 30
0.0
 11
-233.874073982239
 21
5.19779980194289
 31
0.0
  0
ARC
  5
   4DC
  8
0
  6
CONTINUOUS
 62
   130
 10
-237.174122131471
 20
1.69780748569138
 30
0.0
 40
3.49996037873244
 50
467.486019062348
 51
481.001855151888
  0
ARC
  5
   4DD
  8
0
  6
DOT
 62
   130
 10
-237.174122131471
 20
1.69780748569138
 30
0.0
 40
3.49996037873244
 50
481.001855151888
 51
509.049876306511
  0
ARC
  5
   4DE
  8
0
  6
CONTINUOUS
 62
   130
 10
-237.174122131471
 20
1.69780748569138
 30
0.0
 40
3.49996037873244
 50
449.999999844103
 51
467.486019062348
  0
LINE
  5
   4DF
  8
0
  6
CONTINUOUS
 62
   130
 10
-237.174071371555
 20
5.19779980194289
 30
0.0
 11
-236.702630342756
 21
5.19779980194289
 31
0.0
  0
LINE
  5
   4E0
  8
0
  6
CONTINUOUS
 62
   130
 10
-237.683457378898
 20
-1.03172918606937
 30
0.0
 11
-236.67408728237
 21
-1.3021918355985
 31
0.0
  0
ARC
  5
   4E1
  8
0
  6
CONTINUOUS
 62
   130
 10
-237.174127714509
 20
-39.3022183205785
 30
0.0
 40
3.49994520846391
 50
540.000159625357
 51
630.000829476908
  0
ARC
  5
   4E2
  8
0
  6
CONTINUOUS
 62
   130
 10
-234.874074172974
 20
26.8977845431538
 30
0.0
 40
2.19999904632568
 50
269.999999844103
 51
359.999999844103
  0
LINE
  5
   4E3
  8
0
  6
DOT
 62
   130
 10
-233.874073982239
 20
4.45739149883546
 30
0.0
 11
-233.874073982239
 21
2.4978028537007
 31
0.0
  0
LINE
  5
   4E4
  8
0
  6
CONTINUOUS
 62
   130
 10
-233.874073982239
 20
2.4978028537007
 30
0.0
 11
-233.874073982239
 21
-18.7010821856036
 31
0.0
  0
LINE
  5
   4E5
  8
0
  6
CONTINUOUS
 62
   130
 10
-233.874073982239
 20
24.9382081050502
 30
0.0
 11
-233.874073982239
 21
4.45739149883546
 31
0.0
  0
LINE
  5
   4E6
  8
0
  6
DOT
 62
   130
 10
-233.874073982239
 20
26.8977219268442
 30
0.0
 11
-233.874073982239
 21
24.9382081050502
 31
0.0
  0
LINE
  5
   4E7
  8
0
  6
CONTINUOUS
 62
   130
 10
-233.874073982239
 20
-51.8021887539653
 30
0.0
 11
-232.674058914185
 21
-51.8021887539653
 31
0.0
  0
ARC
  5
   4E8
  8
0
  6
CONTINUOUS
 62
   130
 10
-234.874074431408
 20
26.897809324986
 30
0.0
 40
1.00003107655773
 50
270.00070276675
 51
359.997118270512
  0
ARC
  5
   4E9
  8
0
  6
CONTINUOUS
 62
   130
 10
-234.87407402985
 20
-53.8021908513553
 30
0.0
 40
0.999999854264095
 50
270.000056701202
 51
359.999980612941
  0
ARC
  5
   4EA
  8
0
  6
CONTINUOUS
 62
   130
 10
-234.874072872328
 20
-60.8021872001892
 30
0.0
 40
0.999999781581745
 50
359.999963768781
 51
449.999994616734
  0
LINE
  5
   4EB
  8
0
  6
DASHDOT
 62
   130
 10
-236.385547909481
 20
-57.3021887539653
 30
0.0
 11
-231.421931745342
 21
-57.3021887539653
 31
0.0
  0
LINE
  5
   4EC
  8
0
  6
DOT
 62
   130
 10
-235.074089050293
 20
-55.8021887539653
 30
0.0
 11
-232.674058914185
 21
-55.8021887539653
 31
0.0
  0
LINE
  5
   4ED
  8
0
  6
DOT
 62
   130
 10
-235.074089050293
 20
-58.8021887539653
 30
0.0
 11
-232.674058914185
 21
-58.8021887539653
 31
0.0
  0
LINE
  5
   4EE
  8
0
  6
DOT
 62
   130
 10
-235.074089050293
 20
-55.3021887539653
 30
0.0
 11
-232.674058914185
 21
-55.3021887539653
 31
0.0
  0
LINE
  5
   4EF
  8
0
  6
DOT
 62
   130
 10
-235.074089050293
 20
-59.3021887539653
 30
0.0
 11
-232.674058914185
 21
-59.3021887539653
 31
0.0
  0
LINE
  5
   4F0
  8
0
  6
CONTINUOUS
 62
   130
 10
-235.074089050293
 20
-54.8021897076396
 30
0.0
 11
-235.074089050293
 21
-59.8021887539653
 31
0.0
  0
ARC
  5
   4F1
  8
0
  6
CONTINUOUS
 62
   130
 10
-234.874072872328
 20
46.1977944334695
 30
0.0
 40
0.999999781581745
 50
270.000005071472
 51
360.000035919426
  0
LINE
  5
   4F2
  8
0
  6
CONTINUOUS
 62
   130
 10
-235.074089050293
 20
45.1977959872456
 30
0.0
 11
-234.874073982239
 21
45.1977959872456
 31
0.0
  0
LINE
  5
   4F3
  8
0
  6
CONTINUOUS
 62
   130
 10
-235.074089050293
 20
45.1977959872456
 30
0.0
 11
-235.074089050293
 21
40.1977969409199
 31
0.0
  0
LINE
  5
   4F4
  8
0
  6
CONTINUOUS
 62
   130
 10
-235.074089050293
 20
40.1977969409199
 30
0.0
 11
-234.874073982239
 21
40.1977969409199
 31
0.0
  0
ARC
  5
   4F5
  8
0
  6
CONTINUOUS
 62
   130
 10
-234.87407402985
 20
39.1977980846357
 30
0.0
 40
0.999999854264095
 50
360.000019075265
 51
449.999888345491
  0
LINE
  5
   4F6
  8
0
  6
DOT
 62
   130
 10
-235.074089050293
 20
40.6977959872456
 30
0.0
 11
-232.674058914185
 21
40.6977959872456
 31
0.0
  0
LINE
  5
   4F7
  8
0
  6
DOT
 62
   130
 10
-235.074089050293
 20
41.1977959872456
 30
0.0
 11
-232.674058914185
 21
41.1977959872456
 31
0.0
  0
LINE
  5
   4F8
  8
0
  6
DASHDOT
 62
   130
 10
-236.385547909481
 20
42.6977959872456
 30
0.0
 11
-231.421931745342
 21
42.6977959872456
 31
0.0
  0
LINE
  5
   4F9
  8
0
  6
DOT
 62
   130
 10
-235.074089050293
 20
44.1977959872456
 30
0.0
 11
-232.674058914185
 21
44.1977959872456
 31
0.0
  0
LINE
  5
   4FA
  8
0
  6
DOT
 62
   130
 10
-235.074089050293
 20
44.6977959872456
 30
0.0
 11
-232.674058914185
 21
44.6977959872456
 31
0.0
  0
LINE
  5
   4FB
  8
0
  6
CONTINUOUS
 62
   130
 10
-235.074089622498
 20
9.19779980194289
 30
0.0
 11
-233.353513371133
 21
9.19779980194289
 31
0.0
  0
LINE
  5
   4FC
  8
0
  6
DASHDOT
 62
   130
 10
-237.924059009552
 20
27.2977120546141
 30
0.0
 11
-237.924059009552
 21
7.13217831099588
 31
0.0
  0
LINE
  5
   4FD
  8
0
  6
DASHDOT
 62
   130
 10
-233.424059009552
 20
27.4242094819902
 30
0.0
 11
-233.424059009552
 21
7.61763396721079
 31
0.0
  0
CIRCLE
  5
   4FE
  8
0
  6
CONTINUOUS
 62
   130
 10
-237.924059009552
 20
10.3915298019429
 30
0.0
 40
0.39999988079071
  0
CIRCLE
  5
   4FF
  8
0
  6
CONTINUOUS
 62
   130
 10
-237.924059009552
 20
11.9915298019429
 30
0.0
 40
0.39999988079071
  0
CIRCLE
  5
   500
  8
0
  6
CONTINUOUS
 62
   130
 10
-237.924059009552
 20
13.5915298019429
 30
0.0
 40
0.39999988079071
  0
CIRCLE
  5
   501
  8
0
  6
CONTINUOUS
 62
   130
 10
-237.924059009552
 20
15.1915145431538
 30
0.0
 40
0.39999988079071
  0
CIRCLE
  5
   502
  8
0
  6
CONTINUOUS
 62
   130
 10
-237.924059009552
 20
16.7915145431538
 30
0.0
 40
0.39999988079071
  0
CIRCLE
  5
   503
  8
0
  6
CONTINUOUS
 62
   130
 10
-237.924059009552
 20
18.3915298019429
 30
0.0
 40
0.39999988079071
  0
CIRCLE
  5
   504
  8
0
  6
CONTINUOUS
 62
   130
 10
-237.924059009552
 20
19.9915298019429
 30
0.0
 40
0.39999988079071
  0
CIRCLE
  5
   505
  8
0
  6
CONTINUOUS
 62
   130
 10
-237.924059009552
 20
21.5915298019429
 30
0.0
 40
0.39999988079071
  0
CIRCLE
  5
   506
  8
0
  6
CONTINUOUS
 62
   130
 10
-237.924059009552
 20
23.1915145431538
 30
0.0
 40
0.39999988079071
  0
ARC
  5
   507
  8
0
  6
CONTINUOUS
 62
   130
 10
-237.924059009552
 20
24.7915145431538
 30
0.0
 40
0.39999988079071
 50
553.551673104685
 51
629.99994520259
  0
CIRCLE
  5
   508
  8
0
  6
CONTINUOUS
 62
   130
 10
-233.424059009552
 20
11.1915145431538
 30
0.0
 40
0.39999988079071
  0
ARC
  5
   509
  8
0
  6
CONTINUOUS
 62
   130
 10
-233.424059009552
 20
9.59152980194288
 30
0.0
 40
0.39999988079071
 50
280.158049687986
 51
619.841895358707
  0
CIRCLE
  5
   50A
  8
0
  6
CONTINUOUS
 62
   130
 10
-233.424059009552
 20
12.7915145431538
 30
0.0
 40
0.39999988079071
  0
CIRCLE
  5
   50B
  8
0
  6
CONTINUOUS
 62
   130
 10
-233.424059009552
 20
14.3915298019429
 30
0.0
 40
0.39999988079071
  0
CIRCLE
  5
   50C
  8
0
  6
CONTINUOUS
 62
   130
 10
-233.424059009552
 20
15.9915298019429
 30
0.0
 40
0.39999988079071
  0
CIRCLE
  5
   50D
  8
0
  6
CONTINUOUS
 62
   130
 10
-233.424059009552
 20
17.5915298019429
 30
0.0
 40
0.39999988079071
  0
CIRCLE
  5
   50E
  8
0
  6
CONTINUOUS
 62
   130
 10
-233.424059009552
 20
19.1915145431538
 30
0.0
 40
0.39999988079071
  0
CIRCLE
  5
   50F
  8
0
  6
CONTINUOUS
 62
   130
 10
-233.424059009552
 20
20.7915145431538
 30
0.0
 40
0.39999988079071
  0
LINE
  5
   510
  8
0
  6
CONTINUOUS
 62
   130
 10
-233.494055120525
 20
9.9853477942158
 30
0.0
 11
-235.074071928469
 21
9.70445591724804
 31
0.0
  0
LINE
  5
   511
  8
0
  6
CONTINUOUS
 62
   130
 10
-233.354043475983
 20
10.7976951171904
 30
0.0
 11
-235.074086951701
 21
10.4919096103961
 31
0.0
  0
LINE
  5
   512
  8
0
  6
CONTINUOUS
 62
   130
 10
-233.494072814554
 20
11.5853601466507
 30
0.0
 11
-235.074044552802
 21
11.3044762820731
 31
0.0
  0
LINE
  5
   513
  8
0
  6
CONTINUOUS
 62
   130
 10
-233.354076193243
 20
12.3977047988285
 30
0.0
 11
-235.074059576034
 21
12.0919299752212
 31
0.0
  0
LINE
  5
   514
  8
0
  6
CONTINUOUS
 62
   130
 10
-233.49410019022
 20
13.1853397818256
 30
0.0
 11
-235.074056905237
 21
12.9044585880448
 31
0.0
  0
LINE
  5
   515
  8
0
  6
CONTINUOUS
 62
   130
 10
-233.354043475983
 20
13.9976951171904
 30
0.0
 11
-235.074071928469
 21
13.6919122811928
 31
0.0
  0
LINE
  5
   516
  8
0
  6
CONTINUOUS
 62
   130
 10
-233.494070143757
 20
14.7853451234191
 30
0.0
 11
-235.074086951701
 21
14.5044532464513
 31
0.0
  0
LINE
  5
   517
  8
0
  6
CONTINUOUS
 62
   130
 10
-233.354061170011
 20
15.5977074696252
 30
0.0
 11
-235.074044552802
 21
15.2919326460179
 31
0.0
  0
LINE
  5
   518
  8
0
  6
CONTINUOUS
 62
   130
 10
-233.494087837785
 20
16.385357475854
 30
0.0
 11
-235.074059576034
 21
16.1044736112764
 31
0.0
  0
LINE
  5
   519
  8
0
  6
CONTINUOUS
 62
   130
 10
-233.354031123548
 20
17.1977128112187
 30
0.0
 11
-235.074059576034
 21
16.8919299752212
 31
0.0
  0
LINE
  5
   51A
  8
0
  6
CONTINUOUS
 62
   130
 10
-233.494055120525
 20
17.9853477942158
 30
0.0
 11
-235.074071928469
 21
17.704455917248
 31
0.0
  0
LINE
  5
   51B
  8
0
  6
CONTINUOUS
 62
   130
 10
-233.354043475983
 20
18.7976951171903
 30
0.0
 11
-235.074086951701
 21
18.4919096103961
 31
0.0
  0
LINE
  5
   51C
  8
0
  6
CONTINUOUS
 62
   130
 10
-233.494072814554
 20
19.5853601466507
 30
0.0
 11
-235.074044552803
 21
19.3044762820731
 31
0.0
  0
LINE
  5
   51D
  8
0
  6
CONTINUOUS
 62
   130
 10
-233.354076193243
 20
20.3977047988285
 30
0.0
 11
-235.074059576034
 21
20.0919299752212
 31
0.0
  0
LINE
  5
   51E
  8
0
  6
CONTINUOUS
 62
   130
 10
-233.49410019022
 20
21.1853397818256
 30
0.0
 11
-235.074056905237
 21
20.9044585880448
 31
0.0
  0
LINE
  5
   51F
  8
0
  6
CONTINUOUS
 62
   130
 10
-233.354028452751
 20
21.9976977879871
 30
0.0
 11
-235.074071928469
 21
21.6919122811928
 31
0.0
  0
LINE
  5
   520
  8
0
  6
CONTINUOUS
 62
   130
 10
-233.494057791322
 20
22.7853628174474
 30
0.0
 11
-235.074089622497
 21
22.5044682696829
 31
0.0
  0
LINE
  5
   521
  8
0
  6
CONTINUOUS
 62
   130
 10
-233.354061170011
 20
23.5977074696252
 30
0.0
 11
-235.074044552802
 21
23.2919326460179
 31
0.0
  0
LINE
  5
   522
  8
0
  6
CONTINUOUS
 62
   130
 10
-233.494085166989
 20
24.3853424526223
 30
0.0
 11
-235.074041882006
 21
24.1044612588415
 31
0.0
  0
LINE
  5
   523
  8
0
  6
CONTINUOUS
 62
   130
 10
-236.274056714502
 20
24.6785816525646
 30
0.0
 11
-237.854028452751
 21
24.3976977879871
 31
0.0
  0
CIRCLE
  5
   524
  8
0
  6
CONTINUOUS
 62
   130
 10
-233.424059009552
 20
22.3915298019429
 30
0.0
 40
0.39999988079071
  0
CIRCLE
  5
   525
  8
0
  6
CONTINUOUS
 62
   130
 10
-233.424059009552
 20
23.9915298019429
 30
0.0
 40
0.39999988079071
  0
ARC
  5
   526
  8
0
  6
CONTINUOUS
 62
   130
 10
-237.924059009552
 20
24.7915145431538
 30
0.0
 40
0.39999988079071
 50
269.999999844103
 51
346.448162658981
  0
LINE
  5
   527
  8
0
  6
CONTINUOUS
 62
   130
 10
-236.274041691271
 20
23.8911279594166
 30
0.0
 11
-237.994085166989
 21
23.5853424526223
 31
0.0
  0
LINE
  5
   528
  8
0
  6
CONTINUOUS
 62
   130
 10
-236.274044362068
 20
23.078599346593
 30
0.0
 11
-237.854061170011
 21
22.7977074696252
 31
0.0
  0
LINE
  5
   529
  8
0
  6
CONTINUOUS
 62
   130
 10
-236.274089431762
 20
22.291134970258
 30
0.0
 11
-237.994057791322
 21
21.9853628174474
 31
0.0
  0
LINE
  5
   52A
  8
0
  6
CONTINUOUS
 62
   130
 10
-236.274071737734
 20
21.4785789817679
 30
0.0
 11
-237.854028452751
 21
21.1976977879871
 31
0.0
  0
LINE
  5
   52B
  8
0
  6
CONTINUOUS
 62
   130
 10
-236.274056714503
 20
20.6911252886199
 30
0.0
 11
-237.99410019022
 21
20.3853397818256
 31
0.0
  0
LINE
  5
   52C
  8
0
  6
CONTINUOUS
 62
   130
 10
-236.274044362068
 20
19.878599346593
 30
0.0
 11
-237.854076193243
 21
19.5977047988285
 31
0.0
  0
LINE
  5
   52D
  8
0
  6
CONTINUOUS
 62
   130
 10
-236.274089431762
 20
19.091134970258
 30
0.0
 11
-237.994072814554
 21
18.7853601466507
 31
0.0
  0
LINE
  5
   52E
  8
0
  6
CONTINUOUS
 62
   130
 10
-236.274086760966
 20
18.2785763109712
 30
0.0
 11
-237.854043475983
 21
17.9976951171903
 31
0.0
  0
LINE
  5
   52F
  8
0
  6
CONTINUOUS
 62
   130
 10
-236.274071737734
 20
17.4911226178231
 30
0.0
 11
-237.994055120525
 21
17.1853477942158
 31
0.0
  0
LINE
  5
   530
  8
0
  6
CONTINUOUS
 62
   130
 10
-236.274059385299
 20
16.6785966757963
 30
0.0
 11
-237.854031123548
 21
16.3977128112187
 31
0.0
  0
LINE
  5
   531
  8
0
  6
CONTINUOUS
 62
   130
 10
-236.274044362068
 20
15.8911429826482
 30
0.0
 11
-237.994087837785
 21
15.585357475854
 31
0.0
  0
LINE
  5
   532
  8
0
  6
CONTINUOUS
 62
   130
 10
-236.274044362068
 20
15.078599346593
 30
0.0
 11
-237.854061170011
 21
14.7977074696252
 31
0.0
  0
LINE
  5
   533
  8
0
  6
CONTINUOUS
 62
   130
 10
-236.274086760966
 20
14.2911199470264
 30
0.0
 11
-237.994055120525
 21
13.9853477942158
 31
0.0
  0
LINE
  5
   534
  8
0
  6
CONTINUOUS
 62
   130
 10
-236.274071737734
 20
13.4785789817679
 30
0.0
 11
-237.854028452751
 21
13.1976977879871
 31
0.0
  0
LINE
  5
   535
  8
0
  6
CONTINUOUS
 62
   130
 10
-236.274056714502
 20
12.6911252886199
 30
0.0
 11
-237.99410019022
 21
12.3853397818256
 31
0.0
  0
LINE
  5
   536
  8
0
  6
CONTINUOUS
 62
   130
 10
-236.274044362068
 20
11.878599346593
 30
0.0
 11
-237.854076193243
 21
11.5977047988285
 31
0.0
  0
LINE
  5
   537
  8
0
  6
CONTINUOUS
 62
   130
 10
-236.274044362068
 20
11.0911429826482
 30
0.0
 11
-237.994072814554
 21
10.7853601466507
 31
0.0
  0
LINE
  5
   538
  8
0
  6
CONTINUOUS
 62
   130
 10
-236.274086760966
 20
10.2785763109712
 30
0.0
 11
-237.854043475983
 21
9.99769511719035
 31
0.0
  0
LINE
  5
   539
  8
0
  6
CONTINUOUS
 62
   130
 10
-236.274071737734
 20
9.49112261782314
 30
0.0
 11
-237.924097082738
 21
9.19778477871127
 31
0.0
  0
LINE
  5
   53A
  8
0
  6
CONTINUOUS
 62
   130
 10
-237.924069235957
 20
9.19779980194289
 30
0.0
 11
-236.274043655396
 21
9.19779980194289
 31
0.0
  0
INSERT
  5
   53B
  8
0
  6
CONTINUOUS
 62
     3
  2
*HATCH53
 10
-109.426666259766
 20
-20.802188873291
 30
0.0
 50
269.999999844103
  0
POLYLINE
  5
   53C
  8
0
  6
CONTINUOUS
 62
   130
 66
     1
 10
0.0
 20
0.0
 30
0.0
  0
VERTEX
  5
   53D
  8
0
  6
CONTINUOUS
 10
-232.673984952101
 20
-18.3948137550994
 30
0.0
 40
0.0
 41
0.0
  0
VERTEX
  5
   53E
  8
0
  6
CONTINUOUS
 10
-232.775084904008
 20
-18.3788039064988
 30
0.0
 40
0.0
 41
0.0
  0
VERTEX
  5
   53F
  8
0
  6
CONTINUOUS
 10
-232.875063098114
 20
-18.3661483808023
 30
0.0
 40
0.0
 41
0.0
  0
VERTEX
  5
   540
  8
0
  6
CONTINUOUS
 10
-232.924598549233
 20
-18.3614502459934
 30
0.0
 40
0.0
 41
0.0
  0
VERTEX
  5
   541
  8
0
  6
CONTINUOUS
 10
-233.023241106654
 20
-18.3560608694683
 30
0.0
 40
0.0
 41
0.0
  0
VERTEX
  5
   542
  8
0
  6
CONTINUOUS
 10
-233.120635856778
 20
-18.3571206836268
 30
0.0
 40
0.0
 41
0.0
  0
VERTEX
  5
   543
  8
0
  6
CONTINUOUS
 10
-233.16888601088
 20
-18.360445496608
 30
0.0
 40
0.0
 41
0.0
  0
VERTEX
  5
   544
  8
0
  6
CONTINUOUS
 10
-233.216855260861
 20
-18.3658219502156
 30
0.0
 40
0.0
 41
0.0
  0
VERTEX
  5
   545
  8
0
  6
CONTINUOUS
 10
-233.264559448881
 20
-18.3733794632258
 30
0.0
 40
0.0
 41
0.0
  0
VERTEX
  5
   546
  8
0
  6
CONTINUOUS
 10
-233.312016083233
 20
-18.3832351535623
 30
0.0
 40
0.0
 41
0.0
  0
VERTEX
  5
   547
  8
0
  6
CONTINUOUS
 10
-233.359243786935
 20
-18.3954914934148
 30
0.0
 40
0.0
 41
0.0
  0
VERTEX
  5
   548
  8
0
  6
CONTINUOUS
 10
-233.406261746328
 20
-18.4102339643565
 30
0.0
 40
0.0
 41
0.0
  0
VERTEX
  5
   549
  8
0
  6
CONTINUOUS
 10
-233.453089159666
 20
-18.427528712463
 30
0.0
 40
0.0
 41
0.0
  0
VERTEX
  5
   54A
  8
0
  6
CONTINUOUS
 10
-233.499744685715
 20
-18.4474202034301
 30
0.0
 40
0.0
 41
0.0
  0
VERTEX
  5
   54B
  8
0
  6
CONTINUOUS
 10
-233.546245892347
 20
-18.4699288776917
 30
0.0
 40
0.0
 41
0.0
  0
VERTEX
  5
   54C
  8
0
  6
CONTINUOUS
 10
-233.592608705132
 20
-18.4950488055385
 30
0.0
 40
0.0
 41
0.0
  0
VERTEX
  5
   54D
  8
0
  6
CONTINUOUS
 10
-233.638846855935
 20
-18.5227453422357
 30
0.0
 40
0.0
 41
0.0
  0
VERTEX
  5
   54E
  8
0
  6
CONTINUOUS
 10
-233.684971331513
 20
-18.5529527831414
 30
0.0
 40
0.0
 41
0.0
  0
VERTEX
  5
   54F
  8
0
  6
CONTINUOUS
 10
-233.776906170025
 20
-18.6204681901835
 30
0.0
 40
0.0
 41
0.0
  0
VERTEX
  5
   550
  8
0
  6
CONTINUOUS
 10
-233.868425259096
 20
-18.6963590858754
 30
0.0
 40
0.0
 41
0.0
  0
VERTEX
  5
   551
  8
0
  6
CONTINUOUS
 10
-233.97370959169
 20
-18.7921119458231
 30
0.0
 40
0.0
 41
0.0
  0
VERTEX
  5
   552
  8
0
  6
CONTINUOUS
 10
-234.181275391806
 20
-18.9927419620197
 30
0.0
 40
0.0
 41
0.0
  0
VERTEX
  5
   553
  8
0
  6
CONTINUOUS
 10
-234.282791528446
 20
-19.0873513262664
 30
0.0
 40
0.0
 41
0.0
  0
VERTEX
  5
   554
  8
0
  6
CONTINUOUS
 10
-234.332803938895
 20
-19.1308391460341
 30
0.0
 40
0.0
 41
0.0
  0
VERTEX
  5
   555
  8
0
  6
CONTINUOUS
 10
-234.382257110315
 20
-19.1708895636236
 30
0.0
 40
0.0
 41
0.0
  0
VERTEX
  5
   556
  8
0
  6
CONTINUOUS
 10
-234.431111475549
 20
-19.206869454852
 30
0.0
 40
0.0
 41
0.0
  0
VERTEX
  5
   557
  8
0
  6
CONTINUOUS
 10
-234.479335333979
 20
-19.2381899020149
 30
0.0
 40
0.0
 41
0.0
  0
VERTEX
  5
   558
  8
0
  6
CONTINUOUS
 10
-234.526906718188
 20
-19.2643187017696
 30
0.0
 40
0.0
 41
0.0
  0
VERTEX
  5
   559
  8
0
  6
CONTINUOUS
 10
-234.573815260631
 20
-19.2847928730191
 30
0.0
 40
0.0
 41
0.0
  0
VERTEX
  5
   55A
  8
0
  6
CONTINUOUS
 10
-234.620064060288
 20
-19.2992311647948
 30
0.0
 40
0.0
 41
0.0
  0
VERTEX
  5
   55B
  8
0
  6
CONTINUOUS
 10
-234.665671549337
 20
-19.3073465641405
 30
0.0
 40
0.0
 41
0.0
  0
VERTEX
  5
   55C
  8
0
  6
CONTINUOUS
 10
-234.710673359814
 20
-19.3089588039957
 30
0.0
 40
0.0
 41
0.0
  0
VERTEX
  5
   55D
  8
0
  6
CONTINUOUS
 10
-234.755124190275
 20
-19.3040068710788
 30
0.0
 40
0.0
 41
0.0
  0
VERTEX
  5
   55E
  8
0
  6
CONTINUOUS
 10
-234.799099672462
 20
-19.2925615137707
 30
0.0
 40
0.0
 41
0.0
  0
VERTEX
  5
   55F
  8
0
  6
CONTINUOUS
 10
-234.842698237967
 20
-19.2748377499984
 30
0.0
 40
0.0
 41
0.0
  0
VERTEX
  5
   560
  8
0
  6
CONTINUOUS
 10
-234.871067989095
 20
-19.2600208177524
 30
0.0
 40
0.0
 41
0.0
  0
VERTEX
  5
   561
  8
0
  6
CONTINUOUS
 10
-234.927642281792
 20
-19.2233906652679
 30
0.0
 40
0.0
 41
0.0
  0
VERTEX
  5
   562
  8
0
  6
CONTINUOUS
 10
-234.955938955992
 20
-19.2019406912741
 30
0.0
 40
0.0
 41
0.0
  0
VERTEX
  5
   563
  8
0
  6
CONTINUOUS
 10
-235.012801953253
 20
-19.1538446381634
 30
0.0
 40
0.0
 41
0.0
  0
VERTEX
  5
   564
  8
0
  6
CONTINUOUS
 10
-235.070375857997
 20
-19.1004502614629
 30
0.0
 40
0.0
 41
0.0
  0
VERTEX
  5
   565
  8
0
  6
CONTINUOUS
 10
-235.189328397432
 20
-18.9863095465942
 30
0.0
 40
0.0
 41
0.0
  0
VERTEX
  5
   566
  8
0
  6
CONTINUOUS
 10
-235.251467670541
 20
-18.9299549469025
 30
0.0
 40
0.0
 41
0.0
  0
VERTEX
  5
   567
  8
0
  6
CONTINUOUS
 10
-235.315790214087
 20
-18.8768820788149
 30
0.0
 40
0.0
 41
0.0
  0
VERTEX
  5
   568
  8
0
  6
CONTINUOUS
 10
-235.382490925705
 20
-18.828949346437
 30
0.0
 40
0.0
 41
0.0
  0
VERTEX
  5
   569
  8
0
  6
CONTINUOUS
 10
-235.451646511905
 20
-18.7876970882376
 30
0.0
 40
0.0
 41
0.0
  0
VERTEX
  5
   56A
  8
0
  6
CONTINUOUS
 10
-235.494636438054
 20
-18.7664849861332
 30
0.0
 40
0.0
 41
0.0
  0
VERTEX
  5
   56B
  8
0
  6
CONTINUOUS
 10
-235.538459674816
 20
-18.7482982754151
 30
0.0
 40
0.0
 41
0.0
  0
VERTEX
  5
   56C
  8
0
  6
CONTINUOUS
 10
-235.583054232842
 20
-18.7332362612532
 30
0.0
 40
0.0
 41
0.0
  0
VERTEX
  5
   56D
  8
0
  6
CONTINUOUS
 10
-235.628340899366
 20
-18.7213415454352
 30
0.0
 40
0.0
 41
0.0
  0
VERTEX
  5
   56E
  8
0
  6
CONTINUOUS
 10
-235.67422581833
 20
-18.7126065440378
 30
0.0
 40
0.0
 41
0.0
  0
SEQEND
  5
   56F
  8
0
  6
CONTINUOUS
 62
   130
  0
LINE
  5
   570
  8
0
  6
DOT
 62
   130
 10
-233.874073982239
 20
-18.7010821856036
 30
0.0
 11
-233.874073982239
 21
-42.8021897076396
 31
0.0
  0
LINE
  5
   571
  8
0
  6
CONTINUOUS
 62
   130
 10
-236.574089050293
 20
25.897781491396
 30
0.0
 11
-236.274043655396
 21
25.897781491396
 31
0.0
  0
LINE
  5
   572
  8
0
  6
CONTINUOUS
 62
   130
 10
-236.574089050293
 20
24.6977998019429
 30
0.0
 11
-236.274043655396
 21
24.6977998019429
 31
0.0
  0
LINE
  5
   573
  8
0
  6
CONTINUOUS
 62
   130
 10
-236.374074172974
 20
4.69779980194289
 30
0.0
 11
-236.274043655396
 21
4.69779980194289
 31
0.0
  0
LINE
  5
   574
  8
0
  6
CONTINUOUS
 62
   130
 10
-236.374074172974
 20
3.4978028537007
 30
0.0
 11
-236.274043655396
 21
3.4978028537007
 31
0.0
  0
LINE
  5
   575
  8
0
  6
CONTINUOUS
 62
   130
 10
-236.702630342756
 20
5.19779980194289
 30
0.0
 11
-236.274043655396
 21
5.19779980194289
 31
0.0
  0
LINE
  5
   576
  8
0
  6
DOT
 62
   130
 10
-236.274043655396
 20
5.19779980194289
 30
0.0
 11
-235.074089622498
 21
5.19779980194289
 31
0.0
  0
INSERT
  5
   577
  8
0
  6
CONTINUOUS
 62
     7
  2
*HATCH54
 10
-109.426666259766
 20
-20.802188873291
 30
0.0
 50
269.999999844103
  0
INSERT
  5
   578
  8
0
  6
CONTINUOUS
 62
     7
  2
*HATCH55
 10
-109.426666259766
 20
-20.802188873291
 30
0.0
 50
269.999999844103
  0
INSERT
  5
   579
  8
0
  6
CONTINUOUS
 62
     7
  2
*HATCH56
 10
-109.426666259766
 20
-20.802188873291
 30
0.0
 50
269.999999844103
  0
INSERT
  5
   57A
  8
0
  6
CONTINUOUS
 62
     7
  2
*HATCH57
 10
-109.426666259766
 20
-20.802188873291
 30
0.0
 50
269.999999844103
  0
INSERT
  5
   57B
  8
0
  6
CONTINUOUS
 62
     3
  2
*HATCH58
 10
-109.426666259766
 20
-20.802188873291
 30
0.0
 50
269.999999844103
  0
LINE
  5
   57C
  8
0
  6
CONTINUOUS
 62
   130
 10
-162.674087285995
 20
-40.8021736145019
 30
0.0
 11
-162.674087285995
 21
-49.302188873291
 31
0.0
  0
LINE
  5
   57D
  8
0
  6
CONTINUOUS
 62
   130
 10
-162.674087610651
 20
-40.8021736145019
 30
0.0
 11
-157.674072027206
 21
-40.8021736145019
 31
0.0
  0
LINE
  5
   57E
  8
0
  6
CONTINUOUS
 62
   130
 10
-187.174072027206
 20
53.697811126709
 30
0.0
 11
-166.174087285995
 21
53.697811126709
 31
0.0
  0
LINE
  5
   57F
  8
0
  6
CONTINUOUS
 62
   130
 10
-187.174078050429
 20
-66.3021736144873
 30
0.0
 11
-166.174087285995
 21
-66.3021736144873
 31
0.0
  0
LINE
  5
   580
  8
0
  6
DASHDOT
 62
   130
 10
-189.37423966804
 20
44.6978167341536
 30
0.0
 11
-162.506098069066
 21
44.6978167341536
 31
0.0
  0
LINE
  5
   581
  8
0
  6
CONTINUOUS
 62
   130
 10
-162.674072351862
 20
4.1978263854981
 30
0.0
 11
-157.674072027206
 21
4.1978263854981
 31
0.0
  0
LINE
  5
   582
  8
0
  6
CONTINUOUS
 62
   130
 10
-162.674072027206
 20
36.697811126709
 30
0.0
 11
-162.674072027206
 21
4.1978263854981
 31
0.0
  0
LINE
  5
   583
  8
0
  6
CONTINUOUS
 62
   130
 10
-157.674072027206
 20
4.1978263854981
 30
0.0
 11
-157.674072027206
 21
-40.8021736145019
 31
0.0
  0
LINE
  5
   584
  8
0
  6
CONTINUOUS
 62
   130
 10
-163.674087285996
 20
-50.302188873291
 30
0.0
 11
-163.674087285996
 21
-51.802188873291
 31
0.0
  0
LINE
  5
   585
  8
0
  6
CONTINUOUS
 62
   130
 10
-165.174087285995
 20
-51.802188873291
 30
0.0
 11
-165.174087285995
 21
-65.3021736144873
 31
0.0
  0
LINE
  5
   586
  8
0
  6
CONTINUOUS
 62
   130
 10
-169.174087285996
 20
-51.802188873291
 30
0.0
 11
-165.174087285995
 21
-51.802188873291
 31
0.0
  0
LINE
  5
   587
  8
0
  6
CONTINUOUS
 62
   130
 10
-169.174087285996
 20
-50.302188873291
 30
0.0
 11
-163.674087285996
 21
-50.302188873291
 31
0.0
  0
LINE
  5
   588
  8
0
  6
CONTINUOUS
 62
   130
 10
-169.174087285996
 20
37.697811126709
 30
0.0
 11
-163.674072027206
 21
37.697811126709
 31
0.0
  0
LINE
  5
   589
  8
0
  6
CONTINUOUS
 62
   130
 10
-163.674087285996
 20
39.197811126709
 30
0.0
 11
-163.674087285996
 21
37.697811126709
 31
0.0
  0
LINE
  5
   58A
  8
0
  6
CONTINUOUS
 62
   130
 10
-169.174087285996
 20
39.197811126709
 30
0.0
 11
-165.174087285995
 21
39.197811126709
 31
0.0
  0
LINE
  5
   58B
  8
0
  6
CONTINUOUS
 62
   130
 10
-165.174087285995
 20
52.697811126709
 30
0.0
 11
-165.174087285995
 21
39.197811126709
 31
0.0
  0
LINE
  5
   58C
  8
0
  6
CONTINUOUS
 62
   130
 10
-203.158897399902
 20
-60.3021769287312
 30
0.0
 11
-192.818174053428
 21
-60.3021769287312
 31
0.0
  0
LINE
  5
   58D
  8
0
  6
CONTINUOUS
 62
   130
 10
-203.158897399902
 20
-59.8021769287311
 30
0.0
 11
-192.818174053428
 21
-59.8021769287311
 31
0.0
  0
LINE
  5
   58E
  8
0
  6
CONTINUOUS
 62
   130
 10
-203.158897399902
 20
-54.8021769287311
 30
0.0
 11
-192.818174053428
 21
-54.8021769287311
 31
0.0
  0
LINE
  5
   58F
  8
0
  6
CONTINUOUS
 62
   130
 10
-203.158897399902
 20
-54.3021769287312
 30
0.0
 11
-192.818174053428
 21
-54.3021769287312
 31
0.0
  0
LINE
  5
   590
  8
0
  6
CONTINUOUS
 62
   130
 10
-202.658897399902
 20
-54.3021769287312
 30
0.0
 11
-202.658897399902
 21
-60.3021769287312
 31
0.0
  0
LINE
  5
   591
  8
0
  6
CONTINUOUS
 62
   130
 10
-203.158897399902
 20
-59.8021769287312
 30
0.0
 11
-202.658897399902
 21
-60.3021769287312
 31
0.0
  0
LINE
  5
   592
  8
0
  6
CONTINUOUS
 62
   130
 10
-202.658897399902
 20
-54.3021769287312
 30
0.0
 11
-203.158897399902
 21
-54.8021769287312
 31
0.0
  0
LINE
  5
   593
  8
0
  6
DOT
 62
   130
 10
-203.158897399902
 20
-54.8021769287312
 30
0.0
 11
-203.158897399902
 21
-59.8021769287311
 31
0.0
  0
LINE
  5
   594
  8
0
  6
CONTINUOUS
 62
   130
 10
-199.158897399902
 20
-60.3021769287312
 30
0.0
 11
-199.158897399902
 21
-63.302188873291
 31
0.0
  0
LINE
  5
   595
  8
0
  6
CONTINUOUS
 62
   130
 10
-231.174063641954
 20
-24.0021940461085
 30
0.0
 11
-187.174078288848
 21
-24.0021940461085
 31
0.0
  0
LINE
  5
   596
  8
0
  6
CONTINUOUS
 62
   130
 10
-169.174087285996
 20
48.697809447166
 30
0.0
 11
-169.174087285996
 21
37.697811126709
 31
0.0
  0
LINE
  5
   597
  8
0
  6
CONTINUOUS
 62
   130
 10
-232.674058469136
 20
49.697809447166
 30
0.0
 11
-170.174087285996
 21
49.697809447166
 31
0.0
  0
ARC
  5
   598
  8
0
  6
CONTINUOUS
 62
   130
 10
-170.174087285996
 20
48.697809447166
 30
0.0
 40
1.0
 50
359.999999844103
 51
449.999999844103
  0
ARC
  5
   599
  8
0
  6
CONTINUOUS
 62
   130
 10
-166.174087285995
 20
52.697811126709
 30
0.0
 40
1.0
 50
359.999999844103
 51
449.999999844103
  0
ARC
  5
   59A
  8
0
  6
CONTINUOUS
 62
   130
 10
-163.674072027206
 20
36.697811126709
 30
0.0
 40
1.0
 50
359.999999844103
 51
449.999999844103
  0
ARC
  5
   59B
  8
0
  6
CONTINUOUS
 62
   130
 10
-170.174087285996
 20
-61.3021871937481
 30
0.0
 40
1.0
 50
269.999999844103
 51
359.999999844103
  0
LINE
  5
   59C
  8
0
  6
CONTINUOUS
 62
   130
 10
-169.174087285996
 20
-50.302188873291
 30
0.0
 11
-169.174087285996
 21
-61.3021871937481
 31
0.0
  0
ARC
  5
   59D
  8
0
  6
CONTINUOUS
 62
   130
 10
-163.674087285996
 20
-49.302188873291
 30
0.0
 40
1.0
 50
269.999999844103
 51
359.999999844103
  0
ARC
  5
   59E
  8
0
  6
CONTINUOUS
 62
   130
 10
-166.174087285995
 20
-65.3021736144873
 30
0.0
 40
1.0
 50
269.999999844103
 51
359.999999844103
  0
ARC
  5
   59F
  8
0
  6
CONTINUOUS
 62
   130
 10
-192.174072027206
 20
-20.8021736144873
 30
0.0
 40
52.4276683460498
 50
340.405499850824
 51
359.999999844103
  0
LINE
  5
   5A0
  8
0
  6
CONTINUOUS
 62
   130
 10
-139.746403681157
 20
-20.8021736144873
 30
0.0
 11
-139.746403681157
 21
-36.5391917056958
 31
0.0
  0
LINE
  5
   5A1
  8
0
  6
DASHDOT
 62
   130
 10
-241.344865006751
 20
-18.3021736145019
 30
0.0
 11
-154.266701652127
 21
-18.3021736145019
 31
0.0
  0
POINT
  5
   5A2
  8
0
  6
CONTINUOUS
 62
   130
 10
-235.674073219299
 20
-1.30220019805711
 30
0.0
  0
POINT
  5
   5A3
  8
0
  6
CONTINUOUS
 62
   130
 10
-235.674073219299
 20
-36.8022001980571
 30
0.0
  0
LINE
  5
   5A4
  8
0
  6
CONTINUOUS
 62
   130
 10
-205.158897399902
 20
-51.302188873291
 30
0.0
 11
-205.158897399902
 21
-62.3021871937481
 31
0.0
  0
LINE
  5
   5A5
  8
0
  6
CONTINUOUS
 62
   130
 10
-219.658897399902
 20
-63.8030496202107
 30
0.0
 11
-203.158897399902
 21
-63.8030496202107
 31
0.0
  0
LINE
  5
   5A6
  8
0
  6
CONTINUOUS
 62
   130
 10
-219.658897399902
 20
-63.8030496202107
 30
0.0
 11
-219.658897399902
 21
-82.4250920963398
 31
0.0
  0
LINE
  5
   5A7
  8
0
  6
CONTINUOUS
 62
   130
 10
-203.158897399902
 20
-63.8030496202107
 30
0.0
 11
-203.158897399902
 21
-82.4250920963398
 31
0.0
  0
LINE
  5
   5A8
  8
0
  6
CONTINUOUS
 62
   130
 10
-220.097242749113
 20
-82.4250920963398
 30
0.0
 11
-202.570429596223
 21
-82.4250920963398
 31
0.0
  0
LINE
  5
   5A9
  8
0
  6
CONTINUOUS
 62
   130
 10
-205.158897399902
 20
-51.302188873291
 30
0.0
 11
-205.158897399902
 21
-63.8030496202107
 31
0.0
  0
LINE
  5
   5AA
  8
0
  6
CONTINUOUS
 62
   130
 10
-215.10975366377
 20
-51.302188873291
 30
0.0
 11
-217.658897399902
 21
-57.1763027000308
 31
0.0
  0
LINE
  5
   5AB
  8
0
  6
CONTINUOUS
 62
   130
 10
-212.929548859898
 20
-51.302188873291
 30
0.0
 11
-217.658897399902
 21
-62.2002529002584
 31
0.0
  0
LINE
  5
   5AC
  8
0
  6
CONTINUOUS
 62
   130
 10
-210.749344056025
 20
-51.302188873291
 30
0.0
 11
-216.174245889594
 21
-63.8030496202107
 31
0.0
  0
LINE
  5
   5AD
  8
0
  6
CONTINUOUS
 62
   130
 10
-208.569139252153
 20
-51.302188873291
 30
0.0
 11
-213.994041085722
 21
-63.8030496202107
 31
0.0
  0
LINE
  5
   5AE
  8
0
  6
CONTINUOUS
 62
   130
 10
-206.388934448281
 20
-51.302188873291
 30
0.0
 11
-211.81383628185
 21
-63.8030496202107
 31
0.0
  0
LINE
  5
   5AF
  8
0
  6
CONTINUOUS
 62
   130
 10
-205.158897399902
 20
-53.4917058750817
 30
0.0
 11
-209.633631477977
 21
-63.8030496202107
 31
0.0
  0
LINE
  5
   5B0
  8
0
  6
CONTINUOUS
 62
   130
 10
-205.158897399902
 20
-58.5156560753093
 30
0.0
 11
-207.453426674105
 21
-63.8030496202107
 31
0.0
  0
LINE
  5
   5B1
  8
0
  6
CONTINUOUS
 62
   130
 10
-216.658897399902
 20
-63.302188873291
 30
0.0
 11
-216.658897399902
 21
-63.8030496202107
 31
0.0
  0
LINE
  5
   5B2
  8
0
  6
CONTINUOUS
 62
   130
 10
-232.674058469136
 20
-66.302188873291
 30
0.0
 11
-187.174072265625
 21
-66.302188873291
 31
0.0
  0
LINE
  5
   5B3
  8
0
  6
CONTINUOUS
 62
   130
 10
-220.916694637282
 20
-50.3265715124857
 30
0.0
 11
-192.818174053428
 21
-50.3265715124857
 31
0.0
  0
LINE
  5
   5B4
  8
0
  6
CONTINUOUS
 62
   130
 10
-192.818174053428
 20
-50.3265715124857
 30
0.0
 11
-192.818174053428
 21
-66.302188873291
 31
0.0
  0
LINE
  5
   5B5
  8
0
  6
CONTINUOUS
 62
   130
 10
-220.916694637282
 20
-50.3265715124857
 30
0.0
 11
-220.916694637282
 21
-66.302188873291
 31
0.0
  0
LINE
  5
   5B6
  8
0
  6
CONTINUOUS
 62
   130
 10
-187.818174053428
 20
-62.3021871937481
 30
0.0
 11
-170.174087285996
 21
-62.3021871937481
 31
0.0
  0
LINE
  5
   5B7
  8
0
  6
CONTINUOUS
 62
   130
 10
-232.674058914185
 20
-62.3021871937481
 30
0.0
 11
-219.916694637282
 21
-62.3021871937481
 31
0.0
  0
LINE
  5
   5B8
  8
0
  6
CONTINUOUS
 62
   130
 10
-217.17407283783
 20
43.4547205278028
 30
0.0
 11
-215.10975366377
 21
38.697811126709
 31
0.0
  0
LINE
  5
   5B9
  8
0
  6
CONTINUOUS
 62
   130
 10
-217.17407283783
 20
48.4786707280304
 30
0.0
 11
-212.929548859898
 21
38.697811126709
 31
0.0
  0
LINE
  5
   5BA
  8
0
  6
CONTINUOUS
 62
   130
 10
-216.174245889594
 20
51.1986718736287
 30
0.0
 11
-210.749344056025
 21
38.697811126709
 31
0.0
  0
LINE
  5
   5BB
  8
0
  6
CONTINUOUS
 62
   130
 10
-213.994041085722
 20
51.1986718736287
 30
0.0
 11
-208.569139252153
 21
38.697811126709
 31
0.0
  0
LINE
  5
   5BC
  8
0
  6
CONTINUOUS
 62
   130
 10
-211.81383628185
 20
51.1986718736287
 30
0.0
 11
-206.388934448281
 21
38.697811126709
 31
0.0
  0
LINE
  5
   5BD
  8
0
  6
CONTINUOUS
 62
   130
 10
-209.633631477977
 20
51.1986718736287
 30
0.0
 11
-205.67406003475
 21
42.0744420261928
 31
0.0
  0
LINE
  5
   5BE
  8
0
  6
CONTINUOUS
 62
   130
 10
-207.453426674105
 20
51.1986718736287
 30
0.0
 11
-205.67406003475
 21
47.0983922264203
 31
0.0
  0
LINE
  5
   5BF
  8
0
  6
CONTINUOUS
 62
   130
 10
-219.658897399902
 20
51.1986718736287
 30
0.0
 11
-203.158897399902
 21
51.1986718736287
 31
0.0
  0
LINE
  5
   5C0
  8
0
  6
CONTINUOUS
 62
   130
 10
-219.658897399902
 20
69.1124304970548
 30
0.0
 11
-219.658897399902
 21
51.1986718736287
 31
0.0
  0
LINE
  5
   5C1
  8
0
  6
CONTINUOUS
 62
   130
 10
-203.158897399902
 20
69.1124304970548
 30
0.0
 11
-203.158897399902
 21
51.1986718736287
 31
0.0
  0
LINE
  5
   5C2
  8
0
  6
CONTINUOUS
 62
   130
 10
-220.179557984296
 20
69.1124304970548
 30
0.0
 11
-202.614753184399
 21
69.1124304970548
 31
0.0
  0
LINE
  5
   5C3
  8
0
  6
CONTINUOUS
 62
   130
 10
-230.174058469136
 20
-14.0021940461085
 30
0.0
 11
-187.174078288848
 21
-14.0021940461085
 31
0.0
  0
LINE
  5
   5C4
  8
0
  6
CONTINUOUS
 62
   130
 10
-165.174087285995
 20
39.197811126709
 30
0.0
 11
-163.674087285996
 21
39.197811126709
 31
0.0
  0
LINE
  5
   5C5
  8
0
  6
CONTINUOUS
 62
   130
 10
-165.174087285995
 20
-51.802188873291
 30
0.0
 11
-163.674087285996
 21
-51.802188873291
 31
0.0
  0
INSERT
  5
   5C6
  8
0
  6
CONTINUOUS
 62
     7
  2
*HATCH59
 10
-109.426666259766
 20
-20.802188873291
 30
0.0
 50
269.999999844103
  0
INSERT
  5
   5C7
  8
0
  6
CONTINUOUS
 62
     7
  2
*HATCH60
 10
-109.426666259766
 20
-20.802188873291
 30
0.0
 50
269.999999844103
  0
INSERT
  5
   5C8
  8
0
  6
CONTINUOUS
 62
     7
  2
*HATCH61
 10
-109.426666259766
 20
-20.802188873291
 30
0.0
 50
269.999999844103
  0
LINE
  5
   5C9
  8
0
  6
CONTINUOUS
 62
   130
 10
-160.67406463623
 20
5.1978263854981
 30
0.0
 11
-160.67406463623
 21
4.1978263854981
 31
0.0
  0
LINE
  5
   5CA
  8
0
  6
CONTINUOUS
 62
   130
 10
-160.67406463623
 20
-40.8021736145019
 30
0.0
 11
-160.67406463623
 21
-41.8021736145019
 31
0.0
  0
LINE
  5
   5CB
  8
0
  6
CONTINUOUS
 62
   130
 10
-160.67406463623
 20
29.6978263854981
 30
0.0
 11
-160.67406463623
 21
6.6978263854981
 31
0.0
  0
LINE
  5
   5CC
  8
0
  6
DASHDOT
 62
   130
 10
-160.67406463623
 20
65.3391649413143
 30
0.0
 11
-160.67406463623
 21
-86.8050698888991
 31
0.0
  0
LINE
  5
   5CD
  8
0
  6
CONTINUOUS
 62
   130
 10
-157.67406463623
 20
-40.8021736145019
 30
0.0
 11
-157.67406463623
 21
-66.3021736145019
 31
0.0
  0
LINE
  5
   5CE
  8
0
  6
CONTINUOUS
 62
   130
 10
-162.17406463623
 20
5.1978263854981
 30
0.0
 11
-160.67406463623
 21
5.1978263854981
 31
0.0
  0
LINE
  5
   5CF
  8
0
  6
CONTINUOUS
 62
   130
 10
-162.17406463623
 20
6.6978263854981
 30
0.0
 11
-160.67406463623
 21
6.6978263854981
 31
0.0
  0
LINE
  5
   5D0
  8
0
  6
CONTINUOUS
 62
   130
 10
-162.17406463623
 20
6.6978263854981
 30
0.0
 11
-162.17406463623
 21
5.1978263854981
 31
0.0
  0
LINE
  5
   5D1
  8
0
  6
CONTINUOUS
 62
   130
 10
-160.67406463623
 20
29.6978263854981
 30
0.0
 11
-157.67406463623
 21
29.6978263854981
 31
0.0
  0
LINE
  5
   5D2
  8
0
  6
CONTINUOUS
 62
   130
 10
-160.67406463623
 20
-66.3021736145019
 30
0.0
 11
-157.67406463623
 21
-66.3021736145019
 31
0.0
  0
LINE
  5
   5D3
  8
0
  6
CONTINUOUS
 62
   130
 10
-160.67406463623
 20
-43.3021736145019
 30
0.0
 11
-160.67406463623
 21
-66.3021736145019
 31
0.0
  0
LINE
  5
   5D4
  8
0
  6
CONTINUOUS
 62
   130
 10
-162.17406463623
 20
-43.3021736145019
 30
0.0
 11
-160.67406463623
 21
-43.3021736145019
 31
0.0
  0
LINE
  5
   5D5
  8
0
  6
CONTINUOUS
 62
   130
 10
-162.17406463623
 20
-41.8021736145019
 30
0.0
 11
-162.17406463623
 21
-43.3021736145019
 31
0.0
  0
LINE
  5
   5D6
  8
0
  6
DOT
 62
   130
 10
-160.67406463623
 20
4.1978263854981
 30
0.0
 11
-160.67406463623
 21
-40.8021736145019
 31
0.0
  0
LINE
  5
   5D7
  8
0
  6
CONTINUOUS
 62
   130
 10
-157.67406463623
 20
29.6978263854981
 30
0.0
 11
-157.67406463623
 21
4.1978263854981
 31
0.0
  0
LINE
  5
   5D8
  8
0
  6
CONTINUOUS
 62
   130
 10
-162.67406463623
 20
15.1978263854981
 30
0.0
 11
-160.67406463623
 21
15.1978263854981
 31
0.0
  0
LINE
  5
   5D9
  8
0
  6
CONTINUOUS
 62
   130
 10
-162.67406463623
 20
12.1978263854981
 30
0.0
 11
-160.67406463623
 21
12.1978263854981
 31
0.0
  0
LINE
  5
   5DA
  8
0
  6
CONTINUOUS
 62
   130
 10
-162.67406463623
 20
15.9478263854981
 30
0.0
 11
-162.67406463623
 21
11.4478263854981
 31
0.0
  0
LINE
  5
   5DB
  8
0
  6
DOT
 62
   130
 10
-162.67406463623
 20
15.9478263854981
 30
0.0
 11
-164.67406463623
 21
14.5988093518133
 31
0.0
  0
LINE
  5
   5DC
  8
0
  6
DOT
 62
   130
 10
-164.67406463623
 20
12.796843419183
 30
0.0
 11
-162.67406463623
 21
11.4478263854981
 31
0.0
  0
LINE
  5
   5DD
  8
0
  6
DOT
 62
   130
 10
-164.67406463623
 20
14.5988093518132
 30
0.0
 11
-164.67406463623
 21
12.7968434191829
 31
0.0
  0
LINE
  5
   5DE
  8
0
  6
DOT
 62
   130
 10
-164.67406463623
 20
-51.2031565808171
 30
0.0
 11
-162.67406463623
 21
-52.5521736145019
 31
0.0
  0
LINE
  5
   5DF
  8
0
  6
DOT
 62
   130
 10
-164.67406463623
 20
-49.4011906481867
 30
0.0
 11
-164.67406463623
 21
-51.203156580817
 31
0.0
  0
LINE
  5
   5E0
  8
0
  6
DOT
 62
   130
 10
-162.67406463623
 20
-48.0521736145019
 30
0.0
 11
-164.67406463623
 21
-49.4011906481868
 31
0.0
  0
LINE
  5
   5E1
  8
0
  6
CONTINUOUS
 62
   130
 10
-162.67406463623
 20
-48.0521736145019
 30
0.0
 11
-162.67406463623
 21
-52.5521736145019
 31
0.0
  0
LINE
  5
   5E2
  8
0
  6
CONTINUOUS
 62
   130
 10
-162.67406463623
 20
-51.8021736145019
 30
0.0
 11
-160.67406463623
 21
-51.8021736145019
 31
0.0
  0
LINE
  5
   5E3
  8
0
  6
CONTINUOUS
 62
   130
 10
-162.67406463623
 20
-48.8021736145019
 30
0.0
 11
-160.67406463623
 21
-48.8021736145019
 31
0.0
  0
LINE
  5
   5E4
  8
0
  6
CONTINUOUS
 62
   130
 10
-160.67406463623
 20
5.1978263854981
 30
0.0
 11
-157.67406463623
 21
5.1978263854981
 31
0.0
  0
LINE
  5
   5E5
  8
0
  6
CONTINUOUS
 62
   130
 10
-162.17406463623
 20
-41.8021736145019
 30
0.0
 11
-157.67406463623
 21
-41.8021736145019
 31
0.0
  0
LINE
  5
   5E6
  8
0
  6
DASHDOT
 62
   130
 10
-162.17406463623
 20
65.3391649413143
 30
0.0
 11
-162.17406463623
 21
-87.3373417159966
 31
0.0
  0
INSERT
  5
   5E7
  8
0
  6
CONTINUOUS
 62
     7
  2
*HATCH62
 10
-109.426666259766
 20
-20.802188873291
 30
0.0
 50
269.999999844103
  0
INSERT
  5
   5E8
  8
0
  6
CONTINUOUS
 62
     7
  2
*HATCH63
 10
-109.426666259766
 20
-20.802188873291
 30
0.0
 50
269.999999844103
  0
LINE
  5
   5E9
  8
0
  6
DASHDOT
 62
   130
 10
-160.67406463623
 20
65.3391649413143
 30
0.0
 11
-160.67406463623
 21
-86.8050698888991
 31
0.0
  0
LINE
  5
   5EA
  8
0
  6
DASHDOT
 62
   130
 10
-162.17406463623
 20
65.3391649413143
 30
0.0
 11
-162.17406463623
 21
-87.3373417159966
 31
0.0
  0
LINE
  5
   5EB
  8
0
  6
DOT
 62
   130
 10
-188.17407283783
 20
47.6977991821491
 30
0.0
 11
-188.17407283783
 21
41.6977991821491
 31
0.0
  0
LINE
  5
   5EC
  8
0
  6
DOT
 62
   130
 10
-182.67407283783
 20
50.2395702502346
 30
0.0
 11
-182.67407283783
 21
39.1560281140637
 31
0.0
  0
ARC
  5
   5ED
  8
0
  6
DOT
 62
   130
 10
-193.07407283783
 20
44.6977991821491
 30
0.0
 40
12.0
 50
332.615940118948
 51
358.089786672393
  0
LINE
  5
   5EE
  8
0
  6
DOT
 62
   130
 10
-182.418752240789
 20
39.1783659708236
 30
0.0
 11
-185.67407283783
 21
38.8935597857868
 31
0.0
  0
LINE
  5
   5EF
  8
0
  6
DOT
 62
   130
 10
-185.67407283783
 20
50.5020385785115
 30
0.0
 11
-182.418752240789
 21
50.2172323934746
 31
0.0
  0
LINE
  5
   5F0
  8
0
  6
DOT
 62
   130
 10
-185.67407283783
 20
50.5020385785114
 30
0.0
 11
-185.67407283783
 21
38.8935597857868
 31
0.0
  0
LINE
  5
   5F1
  8
0
  6
DOT
 62
     7
 10
-202.674060630797
 20
42.3112291821491
 30
0.0
 11
-188.17407283783
 21
42.3112291821491
 31
0.0
  0
LINE
  5
   5F2
  8
0
  6
DOT
 62
     7
 10
-202.674060630797
 20
47.0843691821491
 30
0.0
 11
-188.17407283783
 21
47.0843691821491
 31
0.0
  0
LINE
  5
   5F3
  8
0
  6
DASHDOT
 62
     7
 10
-201.674071884155
 20
44.6977991821491
 30
0.0
 11
-177.07407283783
 21
44.6977991821491
 31
0.0
  0
LINE
  5
   5F4
  8
0
  6
DOT
 62
   130
 10
-181.87407283783
 20
45.0977991821491
 30
0.0
 11
-181.87407283783
 21
44.2977991821491
 31
0.0
  0
LINE
  5
   5F5
  8
0
  6
DOT
 62
   130
 10
-181.87407283783
 20
44.2977991821491
 30
0.0
 11
-181.080741357378
 21
44.2977991821491
 31
0.0
  0
LINE
  5
   5F6
  8
0
  6
DOT
 62
   130
 10
-181.87407283783
 20
45.0977991821491
 30
0.0
 11
-181.080741357378
 21
45.0977991821491
 31
0.0
  0
ARC
  5
   5F7
  8
0
  6
DOT
 62
   130
 10
-193.07407283783
 20
44.6977991821491
 30
0.0
 40
12.0
 50
361.910213015813
 51
387.384059569259
  0
TEXT
  5
   5F8
  8
0
  6
CONTINUOUS
 62
     2
 10
-151.501054425141
 20
-19.6112709164547
 30
0.0
 40
3.00000002980232
  1
X
 50
359.999999844103
 41
0.916666674282816
 72
     1
 11
-150.401054382324
 21
-18.111270904541
 31
0.0
 73
     2
  0
TEXT
  5
   5F9
  8
0
  6
CONTINUOUS
 62
     2
 10
-255.39666141977
 20
-19.4917996048855
 30
0.0
 40
3.00000002980232
  1
X
 50
359.999999844103
 41
0.916666674282816
 72
     1
 11
-254.296661376953
 21
-17.9917995929718
 31
0.0
 73
     2
  0
INSERT
  5
   5FA
  8
0
  6
CONTINUOUS
 62
     3
  2
*UDIM119
 10
0.0
 20
0.0
 30
0.0
  0
INSERT
  5
   5FB
  8
0
  6
CONTINUOUS
 62
     7
  2
*UDIM120
 10
0.0
 20
0.0
 30
0.0
  0
INSERT
  5
   5FC
  8
0
  6
CONTINUOUS
 62
     7
  2
*UDIM121
 10
0.0
 20
0.0
 30
0.0
  0
INSERT
  5
   5FD
  8
0
  6
CONTINUOUS
 62
     3
  2
*UDIM122
 10
0.0
 20
0.0
 30
0.0
  0
INSERT
  5
   5FE
  8
0
  6
CONTINUOUS
 62
     3
  2
*UDIM123
 10
0.0
 20
0.0
 30
0.0
  0
INSERT
  5
   5FF
  8
0
  6
CONTINUOUS
 62
     3
  2
*UDIM124
 10
0.0
 20
0.0
 30
0.0
  0
TEXT
  5
   600
  8
0
  6
CONTINUOUS
 62
     2
 10
-150.272458119789
 20
98.1626283614907
 30
0.0
 40
3.5
  1
:
 50
359.999999844103
 41
0.933333333333334
 72
     1
 11
-148.989124781703
 21
99.9126283580053
 31
0.0
 73
     2
  0
INSERT
  5
   601
  8
0
  6
CONTINUOUS
 62
     7
  2
*UDIM125
 10
0.0
 20
0.0
 30
0.0
  0
INSERT
  5
   602
  8
0
  6
CONTINUOUS
 62
     7
  2
*UDIM126
 10
0.0
 20
0.0
 30
0.0
  0
INSERT
  5
   603
  8
0
  6
CONTINUOUS
 62
     7
  2
*UDIM127
 10
0.0
 20
0.0
 30
0.0
  0
INSERT
  5
   604
  8
0
  6
CONTINUOUS
 62
     7
  2
*UDIM128
 10
0.0
 20
0.0
 30
0.0
  0
INSERT
  5
   605
  8
255
  6
CONTINUOUS
 62
     7
  2
DIA_LATO
 10
-232.674058469136
 20
53.6977958679199
 30
0.0
 50
359.999999792138
  0
LINE
  5
   606
  8
0
  6
DASHDOT
 62
   130
 10
-145.220786234421
 20
73.2766494750977
 30
0.0
 11
-65.6651006087984
 21
73.2766494750977
 31
0.0
  0
LINE
  5
   607
  8
0
  6
DASHDOT
 62
   130
 10
-96.2972259521484
 20
92.1193160908728
 30
0.0
 11
-96.2972259521484
 21
50.0328466476149
 31
0.0
  0
CIRCLE
  5
   608
  8
0
  6
CONTINUOUS
 62
   130
 10
-72.3222259521484
 20
89.2766494750977
 30
0.0
 40
1.0
  0
CIRCLE
  5
   609
  8
0
  6
CONTINUOUS
 62
   130
 10
-135.072225952148
 20
89.2766494750977
 30
0.0
 40
1.0
  0
CIRCLE
  5
   60A
  8
0
  6
CONTINUOUS
 62
   130
 10
-135.072225952148
 20
57.2766494750977
 30
0.0
 40
1.0
  0
CIRCLE
  5
   60B
  8
0
  6
CONTINUOUS
 62
   130
 10
-72.3222259521484
 20
57.2766494750977
 30
0.0
 40
1.0
  0
LINE
  5
   60C
  8
0
  6
CONTINUOUS
 62
   130
 10
-71.7972259521484
 20
85.7766494750977
 30
0.0
 11
-71.7972259521484
 21
60.7766494750977
 31
0.0
  0
LINE
  5
   60D
  8
0
  6
CONTINUOUS
 62
   130
 10
-135.797225952148
 20
85.7766494750977
 30
0.0
 11
-135.797225952148
 21
60.7766494750977
 31
0.0
  0
LINE
  5
   60E
  8
0
  6
CONTINUOUS
 62
   130
 10
-135.047225952148
 20
86.5266494750977
 30
0.0
 11
-72.5472259521484
 21
86.5266494750977
 31
0.0
  0
LINE
  5
   60F
  8
0
  6
CONTINUOUS
 62
   130
 10
-135.047225952148
 20
60.0266494750977
 30
0.0
 11
-72.5472259521484
 21
60.0266494750977
 31
0.0
  0
ARC
  5
   610
  8
0
  6
CONTINUOUS
 62
   130
 10
-72.5472259521484
 20
85.7766494750977
 30
0.0
 40
0.75
 50
359.999999844103
 51
449.999999844103
  0
ARC
  5
   611
  8
0
  6
CONTINUOUS
 62
   130
 10
-72.5472259521484
 20
60.7766494750977
 30
0.0
 40
0.75
 50
269.999999844103
 51
359.999999844103
  0
ARC
  5
   612
  8
0
  6
CONTINUOUS
 62
   130
 10
-135.047225952148
 20
60.7766494750977
 30
0.0
 40
0.75
 50
539.999999844103
 51
629.999999844103
  0
ARC
  5
   613
  8
0
  6
CONTINUOUS
 62
   130
 10
-135.047225952148
 20
85.7766494750977
 30
0.0
 40
0.75
 50
449.999999844103
 51
539.999999844103
  0
LINE
  5
   614
  8
0
  6
DASHDOT
 62
     7
 10
-135.072225952148
 20
93.7766494750977
 30
0.0
 11
-135.072225952148
 21
84.7766494750977
 31
0.0
  0
LINE
  5
   615
  8
0
  6
DASHDOT
 62
     7
 10
-139.572225952148
 20
89.2766494750977
 30
0.0
 11
-130.572225952148
 21
89.2766494750977
 31
0.0
  0
LINE
  5
   616
  8
0
  6
DASHDOT
 62
     7
 10
-72.3222259521484
 20
93.7766494750977
 30
0.0
 11
-72.3222259521484
 21
84.7766494750977
 31
0.0
  0
LINE
  5
   617
  8
0
  6
DASHDOT
 62
     7
 10
-76.8222259521484
 20
89.2766494750977
 30
0.0
 11
-67.8222259521484
 21
89.2766494750977
 31
0.0
  0
LINE
  5
   618
  8
0
  6
DASHDOT
 62
     7
 10
-72.3222259521484
 20
61.7766494750977
 30
0.0
 11
-72.3222259521484
 21
52.7766494750977
 31
0.0
  0
LINE
  5
   619
  8
0
  6
DASHDOT
 62
     7
 10
-76.8222259521484
 20
57.2766494750977
 30
0.0
 11
-67.8222259521484
 21
57.2766494750977
 31
0.0
  0
LINE
  5
   61A
  8
0
  6
DASHDOT
 62
     7
 10
-135.072225952148
 20
61.7766494750977
 30
0.0
 11
-135.072225952148
 21
52.7766494750977
 31
0.0
  0
LINE
  5
   61B
  8
0
  6
DASHDOT
 62
     7
 10
-139.572225952148
 20
57.2766494750977
 30
0.0
 11
-130.572225952148
 21
57.2766494750977
 31
0.0
  0
LINE
  5
   61C
  8
0
  6
CONTINUOUS
 62
   130
 10
-139.496447672328
 20
92.7093586648333
 30
0.0
 11
-68.8745646753629
 21
92.7093586648333
 31
0.0
  0
LINE
  5
   61D
  8
0
  6
CONTINUOUS
 62
   130
 10
-139.496447672328
 20
52.6829808792864
 30
0.0
 11
-68.8745646753629
 21
52.6829808792864
 31
0.0
  0
LINE
  5
   61E
  8
0
  6
CONTINUOUS
 62
   130
 10
-139.496447672328
 20
92.7093586648333
 30
0.0
 11
-139.496447672328
 21
52.6829808792864
 31
0.0
  0
LINE
  5
   61F
  8
0
  6
CONTINUOUS
 62
   130
 10
-68.8745646753629
 20
92.7093586648333
 30
0.0
 11
-68.8745646753629
 21
52.6829808792864
 31
0.0
  0
INSERT
  5
   620
  8
0
  6
CONTINUOUS
 62
     3
  2
*UDIM129
 10
0.0
 20
0.0
 30
0.0
  0
INSERT
  5
   621
  8
0
  6
CONTINUOUS
 62
     3
  2
*UDIM130
 10
0.0
 20
0.0
 30
0.0
  0
INSERT
  5
   622
  8
0
  6
CONTINUOUS
 62
     3
  2
*UDIM131
 10
0.0
 20
0.0
 30
0.0
  0
INSERT
  5
   623
  8
0
  6
CONTINUOUS
 62
     3
  2
*UDIM132
 10
0.0
 20
0.0
 30
0.0
  0
TEXT
  5
   624
  8
0
  6
CONTINUOUS
 62
     2
 10
-97.1739562992793
 20
102.614134740993
 30
0.0
 40
3.00000002980232
  1
Y
 50
359.999999844103
 41
0.916666674282816
 72
     2
 11
-94.9739562177195
 21
104.114134749919
 31
0.0
 73
     2
  0
TEXT
  5
   625
  8
0
  6
CONTINUOUS
 62
     2
 10
-97.2836176082808
 20
39.0105755201239
 30
0.0
 40
3.00000002980232
  1
Y
 50
359.999999844103
 41
0.916666674282816
 72
     2
 11
-95.0836175267209
 21
40.5105755290501
 31
0.0
 73
     2
  0
TEXT
  5
   626
  8
0
  6
CONTINUOUS
 62
     2
 10
-118.816987236327
 20
-133.858355557313
 30
0.0
 40
2.00000008940697
  1
4POLE LOW VOLTAGE M.C.C.B SERIES ISOMAX
 50
359.999999844103
 41
0.625
 72
     1
 11
-94.5669861495515
 21
-132.85835557847
 31
0.0
 73
     2
  0
TEXT
  5
   627
  8
0
  6
CONTINUOUS
 62
     2
 10
-112.566986825796
 20
-136.858355574287
 30
0.0
 40
2.00000008940697
  1
FIXED VERSION FRONT TERMINALS
 50
359.999999844103
 41
0.625
 72
     1
 11
-94.5669860184173
 21
-135.85835557847
 31
0.0
 73
     2
  0
TEXT
  5
   628
  8
0
  6
CONTINUOUS
 62
     2
 10
-219.814914706085
 20
-133.250094317459
 30
0.0
 40
2.00000008940697
  1
3/11/92
 50
359.999999844103
 41
0.625
 11
-219.814914703369
 21
-132.250094272756
 31
0.0
 73
     2
  0
TEXT
  5
   629
  8
0
  6
CONTINUOUS
 62
     2
 10
-219.814914706085
 20
-137.250094317459
 30
0.0
 40
2.00000008940697
  1
MOSTOSI
 50
359.999999844103
 41
0.625
 11
-219.814914703369
 21
-136.250094272756
 31
0.0
 73
     2
  0
TEXT
  5
   62A
  8
0
  6
CONTINUOUS
 62
     2
 10
-208.34817886692
 20
-150.185488266418
 30
0.0
 40
2.50000005960464
  1
M3727 95-01-18
 50
359.999999844103
 41
0.64999958527089
 11
-208.348178863525
 21
-148.935488236615
 31
0.0
 73
     2
  0
TEXT
  5
   62B
  8
0
  6
CONTINUOUS
 62
     2
 10
-96.9636168026436
 20
-152.628130977274
 30
0.0
 40
3.00000002980232
  1
S2
 50
359.999999844103
 41
0.916666604744064
 72
     1
 11
-94.4886169433594
 21
-151.128130969095
 31
0.0
 73
     2
  0
TEXT
  5
   62C
  8
0
  6
CONTINUOUS
 62
     2
 10
-58.5060282795403
 20
-163.074267464429
 30
0.0
 40
2.50000005960464
  1
1/1
 50
359.999999844103
 41
0.954999929332734
 72
     1
 11
-55.1635284423828
 21
-161.824267443704
 31
0.0
 73
     2
  0
TEXT
  5
   62D
  8
0
  6
CONTINUOUS
 62
     2
 10
-116.876512051458
 20
-162.018923814385
 30
0.0
 40
5.00000011920929
  1
601855/031
 50
359.999999844103
 41
0.916666496197386
 72
     1
 11
-94.4181823730469
 21
-159.518923815775
 31
0.0
 73
     2
  0
TEXT
  5
   62E
  8
0
  6
CONTINUOUS
 62
     2
 10
-63.098769460222
 20
71.6688882257599
 30
0.0
 40
3.00000002980232
  1
X
 50
359.999999844103
 41
0.916666674282816
 72
     2
 11
-60.8987693786621
 21
73.1688882346861
 31
0.0
 73
     2
  0
TEXT
  5
   62F
  8
0
  6
CONTINUOUS
 62
     2
 10
-148.43713692238
 20
71.8090744573433
 30
0.0
 40
3.00000002980232
  1
X
 50
359.999999844103
 41
0.916666674282816
 72
     2
 11
-146.23713684082
 21
73.3090744662695
 31
0.0
 73
     2
  0
INSERT
  5
   630
  8
0
  6
CONTINUOUS
 62
     3
  2
*UDIM133
 10
0.0
 20
0.0
 30
0.0
  0
INSERT
  5
   631
  8
0
  6
CONTINUOUS
 62
     3
  2
*UDIM134
 10
0.0
 20
0.0
 30
0.0
  0
INSERT
  5
   632
  8
0
  6
CONTINUOUS
 62
     3
  2
*UDIM135
 10
0.0
 20
0.0
 30
0.0
  0
INSERT
  5
   633
  8
0
  6
CONTINUOUS
 62
     7
  2
*UDIM136
 10
0.0
 20
0.0
 30
0.0
  0
TEXT
  5
   634
  8
0
  6
CONTINUOUS
 62
     2
 10
-116.059708542487
 20
-142.399971007885
 30
0.0
 40
2.00000008940697
  1
INTERR.AUTOMATICO SERIE ISOMAX
 50
359.999999844103
 41
0.625
 72
     1
 11
-97.4347077071686
 21
-141.399971013765
 31
0.0
 73
     2
  0
TEXT
  5
   635
  8
0
  6
CONTINUOUS
 62
     2
 10
-124.184708774569
 20
-145.399970985818
 30
0.0
 40
2.00000008940697
  1
TETRAP.ESECUZIONE FISSA TERMINALI ANTERIORI
 50
359.999999844103
 41
0.625
 72
     1
 11
-97.4347075760345
 21
-144.399971013765
 31
0.0
 73
     2
  0
ENDSEC
  0
EOF
