  0
SECTION
  2
HEADER
  9
$ACADVER
  1
AC1009
  9
$DWGCODEPAGE
  3
iso8859-1
  9
$INSBASE
 10
0.0
 20
0.0
 30
0.0
  9
$EXTMIN
 10
1.0E20
 20
1.0E20
 30
1.0E20
  9
$EXTMAX
 10
-1.0E20
 20
-1.0E20
 30
-1.0E20
  9
$LIMMIN
 10
0.0
 20
0.0
  9
$LIMMAX
 10
12.0
 20
9.0
  9
$ORTHOMODE
 70
     0
  9
$REGENMODE
 70
     1
  9
$FILLMODE
 70
     1
  9
$QTEXTMODE
 70
     0
  9
$MIRRTEXT
 70
     1
  9
$DRAGMODE
 70
     2
  9
$LTSCALE
 40
15.0
  9
$OSMODE
 70
     0
  9
$ATTMODE
 70
     1
  9
$TEXTSIZE
 40
0.2
  9
$TRACEWID
 40
0.05
  9
$TEXTSTYLE
  7
STANDARD
  9
$CLAYER
  8
0
  9
$CELTYPE
  6
DASHED
  9
$CECOLOR
 62
   256
  9
$DIMSCALE
 40
1.0
  9
$DIMASZ
 40
0.18
  9
$DIMEXO
 40
0.0625
  9
$DIMDLI
 40
0.38
  9
$DIMRND
 40
0.0
  9
$DIMDLE
 40
0.0
  9
$DIMEXE
 40
0.18
  9
$DIMTP
 40
0.0
  9
$DIMTM
 40
0.0
  9
$DIMTXT
 40
0.18
  9
$DIMCEN
 40
0.09
  9
$DIMTSZ
 40
0.0
  9
$DIMTOL
 70
     0
  9
$DIMLIM
 70
     0
  9
$DIMTIH
 70
     1
  9
$DIMTOH
 70
     1
  9
$DIMSE1
 70
     0
  9
$DIMSE2
 70
     0
  9
$DIMTAD
 70
     0
  9
$DIMZIN
 70
     0
  9
$DIMBLK
  1

  9
$DIMASO
 70
     1
  9
$DIMSHO
 70
     1
  9
$DIMPOST
  1

  9
$DIMAPOST
  1

  9
$DIMALT
 70
     0
  9
$DIMALTD
 70
     2
  9
$DIMALTF
 40
25.4
  9
$DIMLFAC
 40
1.0
  9
$DIMTOFL
 70
     0
  9
$DIMTVP
 40
0.0
  9
$DIMTIX
 70
     0
  9
$DIMSOXD
 70
     0
  9
$DIMSAH
 70
     0
  9
$DIMBLK1
  1

  9
$DIMBLK2
  1

  9
$DIMSTYLE
  2
STANDARD
  9
$DIMCLRD
 70
     0
  9
$DIMCLRE
 70
     0
  9
$DIMCLRT
 70
     0
  9
$DIMTFAC
 40
1.0
  9
$DIMGAP
 40
0.09
  9
$LUNITS
 70
     2
  9
$LUPREC
 70
     4
  9
$AXISMODE
 70
     0
  9
$AXISUNIT
 10
0.0
 20
0.0
  9
$SKETCHINC
 40
0.1
  9
$FILLETRAD
 40
0.0
  9
$AUNITS
 70
     0
  9
$AUPREC
 70
     0
  9
$MENU
  1
acad
  9
$ELEVATION
 40
0.0
  9
$PELEVATION
 40
0.0
  9
$THICKNESS
 40
0.0
  9
$LIMCHECK
 70
     0
  9
$BLIPMODE
 70
     1
  9
$CHAMFERA
 40
0.0
  9
$CHAMFERB
 40
0.0
  9
$SKPOLY
 70
     0
  9
$TDCREATE
 40
2450267.486451955
  9
$TDUPDATE
 40
2450267.486451955
  9
$TDINDWG
 40
0.0
  9
$TDUSRTIMER
 40
0.0
  9
$USRTIMER
 70
     1
  9
$ANGBASE
 50
0.0
  9
$ANGDIR
 70
     0
  9
$PDMODE
 70
     0
  9
$PDSIZE
 40
0.0
  9
$PLINEWID
 40
0.0
  9
$COORDS
 70
     1
  9
$SPLFRAME
 70
     0
  9
$SPLINETYPE
 70
     6
  9
$SPLINESEGS
 70
     8
  9
$ATTDIA
 70
     0
  9
$ATTREQ
 70
     1
  9
$HANDLING
 70
     1
  9
$HANDSEED
  5
   A1C
  9
$SURFTAB1
 70
     6
  9
$SURFTAB2
 70
     6
  9
$SURFTYPE
 70
     6
  9
$SURFU
 70
     6
  9
$SURFV
 70
     6
  9
$UCSNAME
  2

  9
$UCSORG
 10
0.0
 20
0.0
 30
0.0
  9
$UCSXDIR
 10
1.0
 20
0.0
 30
0.0
  9
$UCSYDIR
 10
0.0
 20
1.0
 30
0.0
  9
$PUCSNAME
  2

  9
$PUCSORG
 10
0.0
 20
0.0
 30
0.0
  9
$PUCSXDIR
 10
1.0
 20
0.0
 30
0.0
  9
$PUCSYDIR
 10
0.0
 20
1.0
 30
0.0
  9
$USERI1
 70
     0
  9
$USERI2
 70
     0
  9
$USERI3
 70
     0
  9
$USERI4
 70
     0
  9
$USERI5
 70
     0
  9
$USERR1
 40
0.0
  9
$USERR2
 40
0.0
  9
$USERR3
 40
0.0
  9
$USERR4
 40
0.0
  9
$USERR5
 40
0.0
  9
$WORLDVIEW
 70
     1
  9
$SHADEDGE
 70
     3
  9
$SHADEDIF
 70
    70
  9
$TILEMODE
 70
     1
  9
$MAXACTVP
 70
    16
  9
$PINSBASE
 10
0.0
 20
0.0
 30
0.0
  9
$PLIMCHECK
 70
     0
  9
$PEXTMIN
 10
1.0E20
 20
1.0E20
 30
1.0E20
  9
$PEXTMAX
 10
-1.0E20
 20
-1.0E20
 30
-1.0E20
  9
$PLIMMIN
 10
0.0
 20
0.0
  9
$PLIMMAX
 10
12.0
 20
9.0
  9
$UNITMODE
 70
     0
  9
$VISRETAIN
 70
     0
  0
ENDSEC
  0
SECTION
  2
TABLES
  0
TABLE
  2
VPORT
 70
     1
  0
VPORT
  2
*ACTIVE
 70
     0
 10
0.0
 20
0.0
 11
1.0
 21
1.0
 12
6.801242
 22
4.5
 13
0.0
 23
0.0
 14
1.0
 24
1.0
 15
0.0
 25
0.0
 16
0.0
 26
0.0
 36
1.0
 17
0.0
 27
0.0
 37
0.0
 40
9.0
 41
1.511387
 42
50.0
 43
0.0
 44
0.0
 50
0.0
 51
0.0
 71
     0
 72
   100
 73
     1
 74
     1
 75
     0
 76
     0
 77
     0
 78
     0
  0
ENDTAB
  0
TABLE
  2
LTYPE
 70
    41
  0
LTYPE
  2
BYBLOCK
 70
     0
  3

 72
    65
 73
     0
 40
0.0
  0
LTYPE
  2
BYLAYER
 70
     0
  3

 72
    65
 73
     0
 40
0.0
  0
LTYPE
  2
CONTINUOUS
 70
     0
  3
Solid line
 72
    65
 73
     0
 40
0.0
  0
LTYPE
  2
BORDER
 70
    64
  3
__ __ . __ __ . __ __ . __ __ . __ __ . __ __ .
 72
    65
 73
     6
 40
1.75
 49
0.5
 49
-0.25
 49
0.5
 49
-0.25
 49
0.0
 49
-0.25
  0
LTYPE
  2
BORDER2
 70
    64
  3
__.__.__.__.__.__.__.__.__.__.__.__.__.__.__.__
 72
    65
 73
     6
 40
0.875
 49
0.25
 49
-0.125
 49
0.25
 49
-0.125
 49
0.0
 49
-0.125
  0
LTYPE
  2
BORDERX2
 70
    64
  3
____  ____  .  ____  ____  .  ____  ____  .  __
 72
    65
 73
     6
 40
3.5
 49
1.0
 49
-0.5
 49
1.0
 49
-0.5
 49
0.0
 49
-0.5
  0
LTYPE
  2
CENTER
 70
    64
  3
____ _ ____ _ ____ _ ____ _ ____ _ ____ _ ____
 72
    65
 73
     4
 40
2.0
 49
1.25
 49
-0.25
 49
0.25
 49
-0.25
  0
LTYPE
  2
CENTER2
 70
    64
  3
___ _ ___ _ ___ _ ___ _ ___ _ ___ _ ___ _ ___ _
 72
    65
 73
     4
 40
1.125
 49
0.75
 49
-0.125
 49
0.125
 49
-0.125
  0
LTYPE
  2
CENTERX2
 70
    64
  3
________  __  ________  __  ________  __  _____
 72
    65
 73
     4
 40
4.0
 49
2.5
 49
-0.5
 49
0.5
 49
-0.5
  0
LTYPE
  2
DASHDOT
 70
    64
  3
__ . __ . __ . __ . __ . __ . __ . __ . __ . __
 72
    65
 73
     4
 40
1.0
 49
0.5
 49
-0.25
 49
0.0
 49
-0.25
  0
LTYPE
  2
DASHDOT2
 70
    64
  3
_._._._._._._._._._._._._._._._._._._._._._._._
 72
    65
 73
     4
 40
0.5
 49
0.25
 49
-0.125
 49
0.0
 49
-0.125
  0
LTYPE
  2
DASHDOTX2
 70
    64
  3
____  .  ____  .  ____  .  ____  .  ____  .  __
 72
    65
 73
     4
 40
2.0
 49
1.0
 49
-0.5
 49
0.0
 49
-0.5
  0
LTYPE
  2
DASHED
 70
    64
  3
__ __ __ __ __ __ __ __ __ __ __ __ __ __ __ __
 72
    65
 73
     2
 40
0.75
 49
0.5
 49
-0.25
  0
LTYPE
  2
DASHED2
 70
    64
  3
_ _ _ _ _ _ _ _ _ _ _ _ _ _ _ _ _ _ _ _ _ _ _ _
 72
    65
 73
     2
 40
0.375
 49
0.25
 49
-0.125
  0
LTYPE
  2
DASHEDX2
 70
    64
  3
____  ____  ____  ____  ____  ____  ____  ____
 72
    65
 73
     2
 40
1.5
 49
1.0
 49
-0.5
  0
LTYPE
  2
DIVIDE
 70
    64
  3
____ . . ____ . . ____ . . ____ . . ____ . . __
 72
    65
 73
     6
 40
1.25
 49
0.5
 49
-0.25
 49
0.0
 49
-0.25
 49
0.0
 49
-0.25
  0
LTYPE
  2
DIVIDE2
 70
    64
  3
__..__..__..__..__..__..__..__..__..__..__..__.
 72
    65
 73
     6
 40
0.625
 49
0.25
 49
-0.125
 49
0.0
 49
-0.125
 49
0.0
 49
-0.125
  0
LTYPE
  2
DIVIDEX2
 70
    64
  3
________  .  .  ________  .  .  ________  .  .
 72
    65
 73
     6
 40
2.5
 49
1.0
 49
-0.5
 49
0.0
 49
-0.5
 49
0.0
 49
-0.5
  0
LTYPE
  2
DOT
 70
    64
  3
. . . . . . . . . . . . . . . . . . . . . . . .
 72
    65
 73
     2
 40
0.25
 49
0.0
 49
-0.25
  0
LTYPE
  2
DOT2
 70
    64
  3
...............................................
 72
    65
 73
     2
 40
0.125
 49
0.0
 49
-0.125
  0
LTYPE
  2
DOTX2
 70
    64
  3
.  .  .  .  .  .  .  .  .  .  .  .  .  .  .  .
 72
    65
 73
     2
 40
0.5
 49
0.0
 49
-0.5
  0
LTYPE
  2
HIDDEN
 70
    64
  3
__ __ __ __ __ __ __ __ __ __ __ __ __ __ __ __
 72
    65
 73
     2
 40
0.375
 49
0.25
 49
-0.125
  0
LTYPE
  2
HIDDEN2
 70
    64
  3
_ _ _ _ _ _ _ _ _ _ _ _ _ _ _ _ _ _ _ _ _ _ _ _
 72
    65
 73
     2
 40
0.1875
 49
0.125
 49
-0.0625
  0
LTYPE
  2
HIDDENX2
 70
    64
  3
____ ____ ____ ____ ____ ____ ____ ____ ____ __
 72
    65
 73
     2
 40
0.75
 49
0.5
 49
-0.25
  0
LTYPE
  2
PHANTOM
 70
    64
  3
______  __  __  ______  __  __  ______  __  __
 72
    65
 73
     6
 40
2.5
 49
1.25
 49
-0.25
 49
0.25
 49
-0.25
 49
0.25
 49
-0.25
  0
LTYPE
  2
PHANTOM2
 70
    64
  3
___ _ _ ___ _ _ ___ _ _ ___ _ _ ___ _ _ ___ _ _
 72
    65
 73
     6
 40
1.25
 49
0.625
 49
-0.125
 49
0.125
 49
-0.125
 49
0.125
 49
-0.125
  0
LTYPE
  2
PHANTOMX2
 70
    64
  3
____________    ____    ____    ____________
 72
    65
 73
     6
 40
5.0
 49
2.5
 49
-0.5
 49
0.5
 49
-0.5
 49
0.5
 49
-0.5
  0
LTYPE
  2
ACAD_ISO02W100
 70
    64
  3
__ __ __ __ __ __ __ __ __ __ __ __ __ __ __ __
 72
    65
 73
     2
 40
15.0
 49
12.0
 49
-3.0
  0
LTYPE
  2
ACAD_ISO03W100
 70
    64
  3
__    __    __    __    __    __    __    __
 72
    65
 73
     2
 40
30.0
 49
12.0
 49
-18.0
  0
LTYPE
  2
ACAD_ISO04W100
 70
    64
  3
____ . ____ . ____ . ____ . ____ . ____ . ____
 72
    65
 73
     4
 40
30.5
 49
24.0
 49
-3.0
 49
0.5
 49
-3.0
  0
LTYPE
  2
ACAD_ISO05W100
 70
    64
  3
____ .. ____ .. ____ .. ____ .. ____ .. ____ ..
 72
    65
 73
     6
 40
34.0
 49
24.0
 49
-3.0
 49
0.5
 49
-3.0
 49
0.5
 49
-3.0
  0
LTYPE
  2
ACAD_ISO06W100
 70
    64
  3
____ ... ____ ... ____ ... ____ ... ____ ... __
 72
    65
 73
     8
 40
37.5
 49
24.0
 49
-3.0
 49
0.5
 49
-3.0
 49
0.5
 49
-3.0
 49
0.5
 49
-3.0
  0
LTYPE
  2
ACAD_ISO07W100
 70
    64
  3
. . . . . . . . . . . . . . . . . . . . . . . .
 72
    65
 73
     2
 40
3.5
 49
0.5
 49
-3.0
  0
LTYPE
  2
ACAD_ISO08W100
 70
    64
  3
____ __ ____ __ ____ __ ____ ____ __ __ ____ __
 72
    65
 73
     4
 40
36.0
 49
24.0
 49
-3.0
 49
6.0
 49
-3.0
  0
LTYPE
  2
ACAD_ISO09W100
 70
    64
  3
____ __ __ ____ __ __ ____ __ __ ____ __ __ ___
 72
    65
 73
     6
 40
45.0
 49
24.0
 49
-3.0
 49
6.0
 49
-3.0
 49
6.0
 49
-3.0
  0
LTYPE
  2
ACAD_ISO10W100
 70
    64
  3
__ . __ . __ . __ . __ . __ . __ . __ . __ . __
 72
    65
 73
     4
 40
18.5
 49
12.0
 49
-3.0
 49
0.5
 49
-3.0
  0
LTYPE
  2
ACAD_ISO11W100
 70
    64
  3
__ __ . __ __ . __ __ . __ __ . __ __ . __ __ .
 72
    65
 73
     6
 40
33.5
 49
12.0
 49
-3.0
 49
12.0
 49
-3.0
 49
0.5
 49
-3.0
  0
LTYPE
  2
ACAD_ISO12W100
 70
    64
  3
__ . . __ . . __ . . __ . . __ . . __ . . __ .
 72
    65
 73
     6
 40
22.0
 49
12.0
 49
-3.0
 49
0.5
 49
-3.0
 49
0.5
 49
-3.0
  0
LTYPE
  2
ACAD_ISO13W100
 70
    64
  3
__ __ . . __ __ . . __ __ . . __ __ . . __ __ .
 72
    65
 73
     8
 40
37.0
 49
12.0
 49
-3.0
 49
12.0
 49
-3.0
 49
0.5
 49
-3.0
 49
0.5
 49
-3.0
  0
LTYPE
  2
ACAD_ISO14W100
 70
    64
  3
__ . . . __ . . . __ . . . __ . . . __ . . . __
 72
    65
 73
     8
 40
25.5
 49
12.0
 49
-3.0
 49
0.5
 49
-3.0
 49
0.5
 49
-3.0
 49
0.5
 49
-3.0
  0
LTYPE
  2
ACAD_ISO15W100
 70
    64
  3
__ __ . . . __ __ . . . __ __ . . . __ __ . . .
 72
    65
 73
    10
 40
40.5
 49
12.0
 49
-3.0
 49
12.0
 49
-3.0
 49
0.5
 49
-3.0
 49
0.5
 49
-3.0
 49
0.5
 49
-3.0
  0
ENDTAB
  0
TABLE
  2
STYLE
 70
     4
  0
STYLE
  2
STANDARD
 70
    64
 40
0.0
 41
1.0
 50
0.0
 71
     0
 42
0.2
  3
txt
  4

  0
STYLE
  2
TOLERANCE
 70
    64
 40
0.0
 41
1.0
 50
0.0
 71
     0
 42
0.2
  3
iges1003.shx
  4

  0
STYLE
  2
ROMANS
 70
    64
 40
0.0
 41
1.0
 50
0.0
 71
     0
 42
0.2
  3
romans.shx
  4

  0
STYLE
  2
ROMANC
 70
    64
 40
0.0
 41
1.0
 50
0.0
 71
     0
 42
0.2
  3
romanc.shx
  4

  0
ENDTAB
  0
TABLE
  2
DIMSTYLE
 70
     2
  0
DIMSTYLE
  2
UNNAMED
 70
     0
  3

  4

  5

  6

  7

 40
1.0
 41
0.18
 42
0.0625
 43
0.38
 44
0.18
 45
0.0
 46
0.0
 47
0.0
 48
0.0
140
0.18
141
0.09
142
0.0
143
25.4
144
1.0
145
0.0
146
1.0
147
0.09
 71
     0
 72
     0
 73
     1
 74
     1
 75
     0
 76
     0
 77
     0
 78
     0
170
     0
171
     2
172
     0
173
     0
174
     0
175
     0
176
     0
177
     0
178
     0
  0
DIMSTYLE
  2
STANDARD
 70
     0
  3

  4

  5

  6

  7

 40
1.0
 41
0.18
 42
0.0625
 43
0.38
 44
0.18
 45
0.0
 46
0.0
 47
0.0
 48
0.0
140
0.18
141
0.09
142
0.0
143
25.4
144
1.0
145
0.0
146
1.0
147
0.09
 71
     0
 72
     0
 73
     1
 74
     1
 75
     0
 76
     0
 77
     0
 78
     0
170
     0
171
     2
172
     0
173
     0
174
     0
175
     0
176
     0
177
     0
178
     0
  0
ENDTAB
  0
TABLE
  2
LAYER
 70
     2
  0
LAYER
  2
0
 70
     0
 62
     7
  6
CONTINUOUS
  0
LAYER
  2
255
 70
     0
 62
     7
  6
CONTINUOUS
  0
ENDTAB
  0
ENDSEC
  0
SECTION
  2
BLOCKS
  0
BLOCK
  5
     B
  8
0
  6
CONTINUOUS
 62
     7
  2
$1TABELL
 70
    64
 10
0.0
 20
0.0
 30
0.0
  3
$1TABELL
  0
LINE
  5
     C
  8
0
  6
CONTINUOUS
 62
     7
 10
185.865085111827
 20
-41.3516925132404
 30
0.0
 11
185.865085111827
 21
-17.8955555684779
 31
0.0
  0
LINE
  5
     D
  8
0
  6
CONTINUOUS
 62
     7
 10
185.865085111827
 20
-17.8955555684779
 30
0.0
 11
276.842651116485
 21
-17.8955555684779
 31
0.0
  0
LINE
  5
     E
  8
0
  6
CONTINUOUS
 62
     7
 10
185.865085111827
 20
-25.7142678833987
 30
0.0
 11
276.842651116485
 21
-25.7142678833987
 31
0.0
  0
LINE
  5
     F
  8
0
  6
CONTINUOUS
 62
     7
 10
246.445970822728
 20
-41.3516925132404
 30
0.0
 11
246.445970822728
 21
-10.0768432535571
 31
0.0
  0
TEXT
  5
    10
  8
0
  6
CONTINUOUS
 62
     7
 10
237.180130357331
 20
-22.8049139611125
 30
0.0
 40
2.00000447034836
  1
83
 41
0.933333333333333
 72
     1
 11
238.846800749288
 21
-21.8049117259384
 31
0.0
 73
     2
  0
LINE
  5
    11
  8
0
  6
CONTINUOUS
 62
     7
 10
216.04929052897
 20
-41.3516925132404
 30
0.0
 11
216.04929052897
 21
-10.0768432535571
 31
0.0
  0
TEXT
  5
    12
  8
0
  6
CONTINUOUS
 62
     7
 10
238.113465776827
 20
-14.9862016461917
 30
0.0
 40
2.00000447034836
  1
B
 41
0.933333333333333
 72
     1
 11
238.846800749288
 21
-13.9861994110175
 31
0.0
 73
     2
  0
LINE
  5
    13
  8
0
  6
CONTINUOUS
 62
     7
 10
216.04929052897
 20
-10.0768432535571
 30
0.0
 11
276.842651116485
 21
-10.0768432535571
 31
0.0
  0
LINE
  5
    14
  8
0
  6
CONTINUOUS
 62
     7
 10
231.247630675849
 20
-41.3516925132404
 30
0.0
 11
231.247630675849
 21
-10.0768432535571
 31
0.0
  0
TEXT
  5
    15
  8
0
  6
CONTINUOUS
 62
     7
 10
222.915125629949
 20
-14.9862016461917
 30
0.0
 40
2.00000447034836
  1
A
 41
0.933333333333333
 72
     1
 11
223.64846060241
 21
-13.9861994110175
 31
0.0
 73
     2
  0
LINE
  5
    16
  8
0
  6
CONTINUOUS
 62
     7
 10
185.865085111827
 20
-41.3516925132404
 30
0.0
 11
276.842651116485
 21
-41.3516925132404
 31
0.0
  0
TEXT
  5
    17
  8
0
  6
CONTINUOUS
 62
     7
 10
221.981790210453
 20
-38.4423385909541
 30
0.0
 40
2.00000447034836
  1
71
 41
0.933333333333333
 72
     1
 11
223.64846060241
 21
-37.44233635578
 31
0.0
 73
     2
  0
TEXT
  5
    18
  8
0
  6
CONTINUOUS
 62
     7
 10
221.981790210453
 20
-30.6236262760333
 30
0.0
 40
2.00000447034836
  1
79
 41
0.933333333333333
 72
     1
 11
223.64846060241
 21
-29.6236240408592
 31
0.0
 73
     2
  0
TEXT
  5
    19
  8
0
  6
CONTINUOUS
 62
     7
 10
221.981790210453
 20
-22.8049139611125
 30
0.0
 40
2.00000447034836
  1
79
 41
0.933333333333333
 72
     1
 11
223.64846060241
 21
-21.8049117259384
 31
0.0
 73
     2
  0
LINE
  5
    1A
  8
0
  6
CONTINUOUS
 62
     7
 10
216.04929052897
 20
-33.5329801983196
 30
0.0
 11
276.842651116485
 21
-33.5329801983196
 31
0.0
  0
LINE
  5
    1B
  8
0
  6
CONTINUOUS
 62
     7
 10
261.644310969606
 20
-41.3516925132404
 30
0.0
 11
261.644310969606
 21
-10.0768432535571
 31
0.0
  0
TEXT
  5
    1C
  8
0
  6
CONTINUOUS
 62
     7
 10
252.37847050421
 20
-38.4423385909541
 30
0.0
 40
2.00000447034836
  1
47
 41
0.933333333333333
 72
     1
 11
254.045140896167
 21
-37.44233635578
 31
0.0
 73
     2
  0
TEXT
  5
    1D
  8
0
  6
CONTINUOUS
 62
     7
 10
235.31345951834
 20
-30.6236262760333
 30
0.0
 40
2.00000447034836
  1
78.2
 41
0.933333333333333
 72
     1
 11
238.846800749288
 21
-29.6236240408592
 31
0.0
 73
     2
  0
TEXT
  5
    1E
  8
0
  6
CONTINUOUS
 62
     7
 10
252.37847050421
 20
-30.6236262760333
 30
0.0
 40
2.00000447034836
  1
47
 41
0.933333333333333
 72
     1
 11
254.045140896167
 21
-29.6236240408592
 31
0.0
 73
     2
  0
TEXT
  5
    1F
  8
0
  6
CONTINUOUS
 62
     7
 10
237.180134008116
 20
-38.4423364004834
 30
0.0
 40
2.00000008940697
  1
92
 41
0.933333333333334
 72
     1
 11
238.846800749288
 21
-37.44233635578
 31
0.0
 73
     2
  0
TEXT
  5
    20
  8
0
  6
CONTINUOUS
 62
     7
 10
252.37847050421
 20
-22.8049139611125
 30
0.0
 40
2.00000447034836
  1
58
 41
0.933333333333333
 72
     1
 11
254.045140896167
 21
-21.8049117259384
 31
0.0
 73
     2
  0
TEXT
  5
    21
  8
0
  6
CONTINUOUS
 62
     7
 10
253.311805923706
 20
-14.9862016461917
 30
0.0
 40
2.00000447034836
  1
C
 41
0.933333333333333
 72
     1
 11
254.045140896167
 21
-13.9861994110175
 31
0.0
 73
     2
  0
TEXT
  5
    22
  8
0
  6
CONTINUOUS
 62
     7
 10
268.510146070585
 20
-14.9862016461917
 30
0.0
 40
2.00000447034836
  1
D
 41
0.933333333333333
 72
     1
 11
269.243481043046
 21
-13.9861994110175
 31
0.0
 73
     2
  0
LINE
  5
    23
  8
0
  6
CONTINUOUS
 62
     7
 10
276.842651116485
 20
-41.3516925132404
 30
0.0
 11
276.842651116485
 21
-10.0768432535571
 31
0.0
  0
TEXT
  5
    24
  8
0
  6
CONTINUOUS
 62
     7
 10
267.576814301873
 20
-30.6236240855626
 30
0.0
 40
2.00000008940697
  1
18
 41
0.933333333333334
 72
     1
 11
269.243481043046
 21
-29.6236240408592
 31
0.0
 73
     2
  0
TEXT
  5
    25
  8
0
  6
CONTINUOUS
 62
     7
 10
265.71014755176
 20
-22.8049117706418
 30
0.0
 40
2.00000008940697
  1
23.5
 41
0.933333333333333
 72
     1
 11
269.243481043046
 21
-21.8049117259384
 31
0.0
 73
     2
  0
TEXT
  5
    26
  8
0
  6
CONTINUOUS
 62
     7
 10
267.576814301873
 20
-38.4423364004834
 30
0.0
 40
2.00000008940697
  1
18
 41
0.933333333333334
 72
     1
 11
269.243481043046
 21
-37.44233635578
 31
0.0
 73
     2
  0
TEXT
  5
    27
  8
0
  6
CONTINUOUS
 62
     7
 10
189.631383553694
 20
-24.4447160661403
 30
0.0
 40
2.00000447034836
  1
CON MOSTRINA
 41
0.933333333333333
 72
     1
 11
200.63140814061
 21
-23.4447138309662
 31
0.0
 73
     2
  0
TEXT
  5
    28
  8
0
  6
CONTINUOUS
 62
     7
 10
190.564741023928
 20
-21.1651096656141
 30
0.0
 40
2.00000008940697
  1
WITH FLANGE
 41
0.933333333333333
 72
     1
 11
200.63140814061
 21
-20.1651096209106
 31
0.0
 73
     2
  0
TEXT
  5
    29
  8
0
  6
CONTINUOUS
 62
     7
 10
188.416300258335
 20
-36.2077328743077
 30
0.0
 40
2.00000008940697
  1
SENZA MOSTRINA
 41
0.933333333333333
 72
     1
 11
201.282967500187
 21
-35.2077328296042
 31
0.0
 73
     2
  0
TEXT
  5
    2A
  8
0
  6
CONTINUOUS
 62
     7
 10
188.416300258335
 20
-32.8582276117383
 30
0.0
 40
2.00000008940697
  1
WITHOUT FLANGE
 41
0.933333333333333
 72
     1
 11
201.282967500187
 21
-31.8582275670348
 31
0.0
 73
     2
  0
ENDBLK
  5
    2B
  8
0
  6
CONTINUOUS
 62
     7
  0
BLOCK
  5
    2C
  8
0
  6
CONTINUOUS
 62
     7
  2
*UDIM2284
 70
    65
 10
0.0
 20
0.0
 30
0.0
  3
*UDIM2284
  0
LINE
  5
    2D
  8
0
  6
CONTINUOUS
 62
     7
 10
332.834918906452
 20
409.604959433939
 30
0.0
 11
367.23874184638
 21
388.584195049984
 31
0.0
  0
LINE
  5
    2E
  8
0
  6
CONTINUOUS
 62
     7
 10
358.558568055115
 20
392.977867444386
 30
0.0
 11
361.436140647051
 21
392.129589201039
 31
0.0
  0
LINE
  5
    2F
  8
0
  6
CONTINUOUS
 62
     7
 10
361.436140647051
 20
392.129589201039
 30
0.0
 11
359.368228834542
 21
394.303006035354
 31
0.0
  0
LINE
  5
    30
  8
0
  6
CONTINUOUS
 62
     7
 10
365.849695926228
 20
390.342824260364
 30
0.0
 11
362.972123334291
 21
391.191102503712
 31
0.0
  0
LINE
  5
    31
  8
0
  6
CONTINUOUS
 62
     7
 10
362.972123334291
 20
391.191102503712
 30
0.0
 11
365.0400351468
 21
389.017685669396
 31
0.0
  0
TEXT
  5
    32
  8
0
  6
CONTINUOUS
 62
     7
 10
336.769595163632
 20
408.372757199771
 30
0.0
 40
2.99999994933605
  1
4,5
 50
328.575035135273
 41
0.933333333333333
 72
     1
 11
340.879629769773
 21
407.619354952232
 31
0.0
 73
     2
  0
TEXT
  5
    33
  8
0
  6
CONTINUOUS
 62
     7
 10
333.3563003972
 20
410.458283136347
 30
0.0
 40
2.99999994933605
  1
Ø
 50
328.575035135273
 41
1.2
 72
     1
 11
335.418358152118
 21
410.956196445456
 31
0.0
 73
     2
  0
TEXT
  5
    34
  8
0
  6
CONTINUOUS
 62
     7
 10
344.278843632496
 20
403.784600149878
 30
0.0
 40
2.99999994933605
  1
 - M4
 50
328.575035135273
 41
0.933333333333333
 72
     1
 11
350.778184565063
 21
401.571329752917
 31
0.0
 73
     2
  0
ENDBLK
  5
    35
  8
0
  6
CONTINUOUS
 62
     7
  0
BLOCK
  5
    36
  8
0
  6
CONTINUOUS
 62
     7
  2
*UDIM2285
 70
    65
 10
0.0
 20
0.0
 30
0.0
  3
*UDIM2285
  0
LINE
  5
    37
  8
0
  6
CONTINUOUS
 62
     7
 10
371.365893161189
 20
348.860345214605
 30
0.0
 11
331.264457145974
 21
348.860345214605
 31
0.0
  0
LINE
  5
    38
  8
0
  6
CONTINUOUS
 62
     7
 10
360.524131976366
 20
391.660345852375
 30
0.0
 11
331.264457145974
 21
391.660345852375
 31
0.0
  0
LINE
  5
    39
  8
0
  6
CONTINUOUS
 62
     7
 10
333.264457145974
 20
348.860345214605
 30
0.0
 11
333.264457145974
 21
391.660345852375
 31
0.0
  0
LINE
  5
    3A
  8
0
  6
CONTINUOUS
 62
     7
 10
332.487999989555
 20
351.758122687816
 30
0.0
 11
333.264457145974
 21
348.860345214605
 31
0.0
  0
LINE
  5
    3B
  8
0
  6
CONTINUOUS
 62
     7
 10
333.264457145974
 20
348.860345214605
 30
0.0
 11
334.040914302392
 21
351.758122687816
 31
0.0
  0
LINE
  5
    3C
  8
0
  6
CONTINUOUS
 62
     7
 10
334.040914302392
 20
388.762568379165
 30
0.0
 11
333.264457145974
 21
391.660345852375
 31
0.0
  0
LINE
  5
    3D
  8
0
  6
CONTINUOUS
 62
     7
 10
333.264457145974
 20
391.660345852375
 30
0.0
 11
332.487999989555
 21
388.762568379165
 31
0.0
  0
TEXT
  5
    3E
  8
0
  6
CONTINUOUS
 62
     7
 10
332.264457145979
 20
366.360345599355
 30
0.0
 40
2.99999994933605
  1
107
 50
90.0
 41
0.933333333333333
 72
     1
 11
330.764457171306
 21
370.26034553349
 31
0.0
 73
     2
  0
ENDBLK
  5
    3F
  8
0
  6
CONTINUOUS
 62
     7
  0
BLOCK
  5
    40
  8
0
  6
CONTINUOUS
 62
     7
  2
*UDIM2286
 70
    65
 10
0.0
 20
0.0
 30
0.0
  3
*UDIM2286
  0
LINE
  5
    41
  8
0
  6
CONTINUOUS
 62
     7
 10
354.581696953258
 20
370.26034553349
 30
0.0
 11
341.216802818894
 21
370.26034553349
 31
0.0
  0
LINE
  5
    42
  8
0
  6
CONTINUOUS
 62
     7
 10
360.524131976366
 20
391.660345852375
 30
0.0
 11
341.216802818894
 21
391.660345852375
 31
0.0
  0
LINE
  5
    43
  8
0
  6
CONTINUOUS
 62
     7
 10
343.216802818894
 20
370.26034553349
 30
0.0
 11
343.216802818894
 21
391.660345852375
 31
0.0
  0
LINE
  5
    44
  8
0
  6
CONTINUOUS
 62
     7
 10
342.440345662475
 20
373.158123006701
 30
0.0
 11
343.216802818894
 21
370.26034553349
 31
0.0
  0
LINE
  5
    45
  8
0
  6
CONTINUOUS
 62
     7
 10
343.216802818894
 20
370.26034553349
 30
0.0
 11
343.993259975313
 21
373.158123006701
 31
0.0
  0
LINE
  5
    46
  8
0
  6
CONTINUOUS
 62
     7
 10
343.993259975313
 20
388.762568379165
 30
0.0
 11
343.216802818894
 21
391.660345852375
 31
0.0
  0
LINE
  5
    47
  8
0
  6
CONTINUOUS
 62
     7
 10
343.216802818894
 20
391.660345852375
 30
0.0
 11
342.440345662475
 21
388.762568379165
 31
0.0
  0
TEXT
  5
    48
  8
0
  6
CONTINUOUS
 62
     7
 10
342.216802818901
 20
375.660345782441
 30
0.0
 40
2.99999994933605
  1
53,5
 50
90.0
 41
0.933333333333333
 72
     1
 11
340.716802844226
 21
380.960345692933
 31
0.0
 73
     2
  0
ENDBLK
  5
    49
  8
0
  6
CONTINUOUS
 62
     7
  0
BLOCK
  5
    4A
  8
0
  6
CONTINUOUS
 62
     7
  2
*UDIM2287
 70
    65
 10
0.0
 20
0.0
 30
0.0
  3
*UDIM2287
  0
LINE
  5
    4B
  8
0
  6
CONTINUOUS
 62
     7
 10
362.204131990671
 20
394.855259322658
 30
0.0
 11
362.204131990671
 21
407.767676074825
 31
0.0
  0
LINE
  5
    4C
  8
0
  6
CONTINUOUS
 62
     7
 10
374.204138510157
 20
349.860343046265
 30
0.0
 11
374.204138510157
 21
407.767676074825
 31
0.0
  0
LINE
  5
    4D
  8
0
  6
CONTINUOUS
 62
     7
 10
357.204131990671
 20
405.767676074825
 30
0.0
 11
379.204138510157
 21
405.767676074825
 31
0.0
  0
LINE
  5
    4E
  8
0
  6
CONTINUOUS
 62
     7
 10
359.306354517461
 20
404.991218918406
 30
0.0
 11
362.204131990671
 21
405.767676074825
 31
0.0
  0
LINE
  5
    4F
  8
0
  6
CONTINUOUS
 62
     7
 10
362.204131990671
 20
405.767676074825
 30
0.0
 11
359.306354517461
 21
406.544133231243
 31
0.0
  0
LINE
  5
    50
  8
0
  6
CONTINUOUS
 62
     7
 10
377.101915983367
 20
406.544133231243
 30
0.0
 11
374.204138510157
 21
405.767676074825
 31
0.0
  0
LINE
  5
    51
  8
0
  6
CONTINUOUS
 62
     7
 10
374.204138510157
 20
405.767676074825
 30
0.0
 11
377.101915983367
 21
404.991218918406
 31
0.0
  0
TEXT
  5
    52
  8
0
  6
CONTINUOUS
 62
     7
 10
365.704135292634
 20
406.767676074825
 30
0.0
 40
2.99999994933605
  1
30
 41
0.933333333333333
 72
     1
 11
368.204135250414
 21
408.267676049493
 31
0.0
 73
     2
  0
ENDBLK
  5
    53
  8
0
  6
CONTINUOUS
 62
     7
  0
BLOCK
  5
    54
  8
0
  6
CONTINUOUS
 62
     7
  2
*UDIM2288
 70
    65
 10
0.0
 20
0.0
 30
0.0
  3
*UDIM2288
  0
LINE
  5
    55
  8
0
  6
CONTINUOUS
 62
     7
 10
386.797304788143
 20
297.45130649209
 30
0.0
 11
361.541903470063
 21
297.45130649209
 31
0.0
  0
LINE
  5
    56
  8
0
  6
CONTINUOUS
 62
     7
 10
386.797304788143
 20
320.651306837797
 30
0.0
 11
361.541903470063
 21
320.651306837797
 31
0.0
  0
LINE
  5
    57
  8
0
  6
CONTINUOUS
 62
     7
 10
363.541903470063
 20
297.45130649209
 30
0.0
 11
363.541903470063
 21
320.651306837797
 31
0.0
  0
LINE
  5
    58
  8
0
  6
CONTINUOUS
 62
     7
 10
362.765446313644
 20
300.349083965301
 30
0.0
 11
363.541903470063
 21
297.45130649209
 31
0.0
  0
LINE
  5
    59
  8
0
  6
CONTINUOUS
 62
     7
 10
363.541903470063
 20
297.45130649209
 30
0.0
 11
364.318360626481
 21
300.349083965301
 31
0.0
  0
LINE
  5
    5A
  8
0
  6
CONTINUOUS
 62
     7
 10
364.318360626481
 20
317.753529364587
 30
0.0
 11
363.541903470063
 21
320.651306837797
 31
0.0
  0
LINE
  5
    5B
  8
0
  6
CONTINUOUS
 62
     7
 10
363.541903470063
 20
320.651306837797
 30
0.0
 11
362.765446313644
 21
317.753529364587
 31
0.0
  0
TEXT
  5
    5C
  8
0
  6
CONTINUOUS
 62
     7
 10
362.541903470064
 20
307.951306683522
 30
0.0
 40
2.99999994933605
  1
C
 50
90.0
 41
0.933333333333333
 72
     1
 11
361.041903495395
 21
309.051306664944
 31
0.0
 73
     2
  0
ENDBLK
  5
    5D
  8
0
  6
CONTINUOUS
 62
     7
  0
BLOCK
  5
    5E
  8
0
  6
CONTINUOUS
 62
     7
  2
*UDIM2289
 70
    65
 10
0.0
 20
0.0
 30
0.0
  3
*UDIM2289
  0
LINE
  5
    5F
  8
0
  6
CONTINUOUS
 62
     7
 10
387.797304177794
 20
321.651306837797
 30
0.0
 11
387.797304177794
 21
339.427637098858
 31
0.0
  0
LINE
  5
    60
  8
0
  6
CONTINUOUS
 62
     7
 10
420.997304672513
 20
321.651306837797
 30
0.0
 11
420.997304672513
 21
339.427637098858
 31
0.0
  0
LINE
  5
    61
  8
0
  6
CONTINUOUS
 62
     7
 10
387.797304177794
 20
337.427637098858
 30
0.0
 11
420.997304672513
 21
337.427637098858
 31
0.0
  0
LINE
  5
    62
  8
0
  6
CONTINUOUS
 62
     7
 10
390.695081651005
 20
338.204094255276
 30
0.0
 11
387.797304177794
 21
337.427637098858
 31
0.0
  0
LINE
  5
    63
  8
0
  6
CONTINUOUS
 62
     7
 10
387.797304177794
 20
337.427637098858
 30
0.0
 11
390.695081651005
 21
336.651179942439
 31
0.0
  0
LINE
  5
    64
  8
0
  6
CONTINUOUS
 62
     7
 10
418.099527199302
 20
336.651179942439
 30
0.0
 11
420.997304672513
 21
337.427637098858
 31
0.0
  0
LINE
  5
    65
  8
0
  6
CONTINUOUS
 62
     7
 10
420.997304672513
 20
337.427637098858
 30
0.0
 11
418.099527199302
 21
338.204094255276
 31
0.0
  0
TEXT
  5
    66
  8
0
  6
CONTINUOUS
 62
     7
 10
400.497304491017
 20
334.427637149522
 30
0.0
 40
2.99999994933605
  1
= =
 41
0.933333333333333
 72
     1
 11
404.397304425154
 21
335.92763712419
 31
0.0
 73
     2
  0
TEXT
  5
    67
  8
0
  6
CONTINUOUS
 62
     7
 10
403.29730444373
 20
338.427637098858
 30
0.0
 40
2.99999994933605
  1
B
 41
0.933333333333333
 72
     1
 11
404.397304425154
 21
339.927637073526
 31
0.0
 73
     2
  0
ENDBLK
  5
    68
  8
0
  6
CONTINUOUS
 62
     7
  0
BLOCK
  5
    69
  8
0
  6
CONTINUOUS
 62
     7
  2
*UDIM2290
 70
    65
 10
0.0
 20
0.0
 30
0.0
  3
*UDIM2290
  0
LINE
  5
    6A
  8
0
  6
CONTINUOUS
 62
     7
 10
380.311992428029
 20
311.251306697726
 30
0.0
 11
369.684731747907
 21
311.251306697726
 31
0.0
  0
LINE
  5
    6B
  8
0
  6
CONTINUOUS
 62
     7
 10
386.797304788143
 20
320.651306837797
 30
0.0
 11
369.684731747907
 21
320.651306837797
 31
0.0
  0
LINE
  5
    6C
  8
0
  6
CONTINUOUS
 62
     7
 10
371.684731747907
 20
306.251306697726
 30
0.0
 11
371.684731747907
 21
325.651306837797
 31
0.0
  0
LINE
  5
    6D
  8
0
  6
CONTINUOUS
 62
     7
 10
372.461188904325
 20
308.353529224516
 30
0.0
 11
371.684731747907
 21
311.251306697726
 31
0.0
  0
LINE
  5
    6E
  8
0
  6
CONTINUOUS
 62
     7
 10
371.684731747907
 20
311.251306697726
 30
0.0
 11
370.908274591488
 21
308.353529224516
 31
0.0
  0
LINE
  5
    6F
  8
0
  6
CONTINUOUS
 62
     7
 10
370.908274591488
 20
323.549084311008
 30
0.0
 11
371.684731747907
 21
320.651306837797
 31
0.0
  0
LINE
  5
    70
  8
0
  6
CONTINUOUS
 62
     7
 10
371.684731747907
 20
320.651306837797
 30
0.0
 11
372.461188904325
 21
323.549084311008
 31
0.0
  0
TEXT
  5
    71
  8
0
  6
CONTINUOUS
 62
     7
 10
370.684731747908
 20
314.85130678634
 30
0.0
 40
2.99999994933605
  1
D
 50
90.0
 41
0.933333333333333
 72
     1
 11
369.184731773239
 21
315.951306767762
 31
0.0
 73
     2
  0
ENDBLK
  5
    72
  8
0
  6
CONTINUOUS
 62
     7
  0
BLOCK
  5
    73
  8
0
  6
CONTINUOUS
 62
     7
  2
*UDIM2291
 70
    65
 10
0.0
 20
0.0
 30
0.0
  3
*UDIM2291
  0
LINE
  5
    74
  8
0
  6
CONTINUOUS
 62
     7
 10
117.901089006574
 20
163.305951207876
 30
0.0
 11
88.457278455053
 21
163.305951207876
 31
0.0
  0
LINE
  5
    75
  8
0
  6
CONTINUOUS
 62
     7
 10
119.169729162197
 20
194.505951672792
 30
0.0
 11
88.457278455053
 21
194.505951672792
 31
0.0
  0
LINE
  5
    76
  8
0
  6
CONTINUOUS
 62
     7
 10
90.457278455053
 20
163.305951207876
 30
0.0
 11
90.457278455053
 21
194.505951672792
 31
0.0
  0
LINE
  5
    77
  8
0
  6
CONTINUOUS
 62
     7
 10
89.6808212986345
 20
166.203728681087
 30
0.0
 11
90.457278455053
 21
163.305951207876
 31
0.0
  0
LINE
  5
    78
  8
0
  6
CONTINUOUS
 62
     7
 10
90.457278455053
 20
163.305951207876
 30
0.0
 11
91.2337356114716
 21
166.203728681087
 31
0.0
  0
LINE
  5
    79
  8
0
  6
CONTINUOUS
 62
     7
 10
91.2337356114716
 20
191.608174199582
 30
0.0
 11
90.457278455053
 21
194.505951672792
 31
0.0
  0
LINE
  5
    7A
  8
0
  6
CONTINUOUS
 62
     7
 10
90.457278455053
 20
194.505951672792
 30
0.0
 11
89.6808212986345
 21
191.608174199582
 31
0.0
  0
TEXT
  5
    7B
  8
0
  6
CONTINUOUS
 62
     7
 10
89.4572784550562
 20
176.405951482556
 30
0.0
 40
2.99999994933605
  1
78
 50
90.0
 41
0.933333333333333
 72
     1
 11
87.957278480385
 21
178.905951440334
 31
0.0
 73
     2
  0
ENDBLK
  5
    7C
  8
0
  6
CONTINUOUS
 62
     7
  0
BLOCK
  5
    7D
  8
0
  6
CONTINUOUS
 62
     7
  2
*UDIM2292
 70
    65
 10
0.0
 20
0.0
 30
0.0
  3
*UDIM2292
  0
LINE
  5
    7E
  8
0
  6
CONTINUOUS
 62
     7
 10
115.301088342581
 20
195.505951672792
 30
0.0
 11
115.301088342581
 21
206.591564072945
 31
0.0
  0
LINE
  5
    7F
  8
0
  6
CONTINUOUS
 62
     7
 10
150.581088868291
 20
195.505951672792
 30
0.0
 11
150.581088868291
 21
206.591564072945
 31
0.0
  0
LINE
  5
    80
  8
0
  6
CONTINUOUS
 62
     7
 10
115.301088342581
 20
204.591564072945
 30
0.0
 11
150.581088868291
 21
204.591564072945
 31
0.0
  0
LINE
  5
    81
  8
0
  6
CONTINUOUS
 62
     7
 10
118.198865815791
 20
205.368021229364
 30
0.0
 11
115.301088342581
 21
204.591564072945
 31
0.0
  0
LINE
  5
    82
  8
0
  6
CONTINUOUS
 62
     7
 10
115.301088342581
 20
204.591564072945
 30
0.0
 11
118.198865815791
 21
203.815106916527
 31
0.0
  0
LINE
  5
    83
  8
0
  6
CONTINUOUS
 62
     7
 10
147.683311395081
 20
203.815106916527
 30
0.0
 11
150.581088868291
 21
204.591564072945
 31
0.0
  0
LINE
  5
    84
  8
0
  6
CONTINUOUS
 62
     7
 10
150.581088868291
 20
204.591564072945
 30
0.0
 11
147.683311395081
 21
205.368021229364
 31
0.0
  0
TEXT
  5
    85
  8
0
  6
CONTINUOUS
 62
     7
 10
127.641088694942
 20
205.591564072945
 30
0.0
 40
2.99999994933605
  1
88,2
 41
0.933333333333333
 72
     1
 11
132.941088605436
 21
207.091564047613
 31
0.0
 73
     2
  0
TEXT
  5
    86
  8
0
  6
CONTINUOUS
 62
     7
 10
129.041088671299
 20
201.591564123609
 30
0.0
 40
2.99999994933605
  1
= =
 41
0.933333333333333
 72
     1
 11
132.941088605436
 21
203.091564098277
 31
0.0
 73
     2
  0
ENDBLK
  5
    87
  8
0
  6
CONTINUOUS
 62
     7
  0
BLOCK
  5
    88
  8
0
  6
CONTINUOUS
 62
     7
  2
*UDIM2293
 70
    65
 10
0.0
 20
0.0
 30
0.0
  3
*UDIM2293
  0
LINE
  5
    89
  8
0
  6
CONTINUOUS
 62
     7
 10
108.130994571964
 20
181.105951473117
 30
0.0
 11
96.5288398556769
 21
181.105951473117
 31
0.0
  0
LINE
  5
    8A
  8
0
  6
CONTINUOUS
 62
     7
 10
119.169729162197
 20
194.505951672792
 30
0.0
 11
96.5288398556769
 21
194.505951672792
 31
0.0
  0
LINE
  5
    8B
  8
0
  6
CONTINUOUS
 62
     7
 10
98.5288398556769
 20
176.105951473117
 30
0.0
 11
98.5288398556769
 21
199.505951672792
 31
0.0
  0
LINE
  5
    8C
  8
0
  6
CONTINUOUS
 62
     7
 10
99.3052970120955
 20
178.208173999906
 30
0.0
 11
98.5288398556769
 21
181.105951473117
 31
0.0
  0
LINE
  5
    8D
  8
0
  6
CONTINUOUS
 62
     7
 10
98.5288398556769
 20
181.105951473117
 30
0.0
 11
97.7523826992584
 21
178.208173999906
 31
0.0
  0
LINE
  5
    8E
  8
0
  6
CONTINUOUS
 62
     7
 10
97.7523826992584
 20
197.403729146003
 30
0.0
 11
98.5288398556769
 21
194.505951672792
 31
0.0
  0
LINE
  5
    8F
  8
0
  6
CONTINUOUS
 62
     7
 10
98.5288398556769
 20
194.505951672792
 30
0.0
 11
99.3052970120955
 21
197.403729146003
 31
0.0
  0
TEXT
  5
    90
  8
0
  6
CONTINUOUS
 62
     7
 10
97.5288398556836
 20
182.505951662463
 30
0.0
 40
2.99999994933605
  1
33,5
 50
90.0
 41
0.933333333333333
 72
     1
 11
96.0288398810089
 21
187.805951572955
 31
0.0
 73
     2
  0
ENDBLK
  5
    91
  8
0
  6
CONTINUOUS
 62
     7
  0
BLOCK
  5
    92
  8
0
  6
CONTINUOUS
 62
     7
  2
*UDIM2294
 70
    65
 10
0.0
 20
0.0
 30
0.0
  3
*UDIM2294
  0
LINE
  5
    93
  8
0
  6
CONTINUOUS
 62
     7
 10
222.192114204231
 20
257.558813299213
 30
0.0
 11
222.192114204231
 21
212.542948465225
 31
0.0
  0
LINE
  5
    94
  8
0
  6
CONTINUOUS
 62
     7
 10
224.292114168468
 20
280.338647753
 30
0.0
 11
224.292114168468
 21
212.542948465225
 31
0.0
  0
LINE
  5
    95
  8
0
  6
CONTINUOUS
 62
     7
 10
211.792114235453
 20
214.542948465225
 30
0.0
 11
229.292114168468
 21
214.542948465225
 31
0.0
  0
LINE
  5
    96
  8
0
  6
CONTINUOUS
 62
     7
 10
219.294336731021
 20
213.766491308806
 30
0.0
 11
222.192114204231
 21
214.542948465225
 31
0.0
  0
LINE
  5
    97
  8
0
  6
CONTINUOUS
 62
     7
 10
222.192114204231
 20
214.542948465225
 30
0.0
 11
219.294336731021
 21
215.319405621643
 31
0.0
  0
LINE
  5
    98
  8
0
  6
CONTINUOUS
 62
     7
 10
227.189891641679
 20
215.319405621643
 30
0.0
 11
224.292114168468
 21
214.542948465225
 31
0.0
  0
LINE
  5
    99
  8
0
  6
CONTINUOUS
 62
     7
 10
224.292114168468
 20
214.542948465225
 30
0.0
 11
227.189891641679
 21
213.766491308806
 31
0.0
  0
TEXT
  5
    9A
  8
0
  6
CONTINUOUS
 62
     7
 10
214.992114219842
 20
215.542948465225
 30
0.0
 40
2.99999997871263
  1
3
 41
0.933333333333333
 72
     1
 11
216.092114212036
 21
217.042948454581
 31
0.0
 73
     2
  0
TEXT
  5
    9B
  8
0
  6
CONTINUOUS
 62
     7
 10
211.792114235453
 20
215.542948465225
 30
0.0
 40
2.99999997871263
  1
_
 41
0.933333333333333
 72
     1
 11
212.892114227647
 21
217.042948454581
 31
0.0
 73
     2
  0
ENDBLK
  5
    9C
  8
0
  6
CONTINUOUS
 62
     7
  0
BLOCK
  5
    9D
  8
0
  6
CONTINUOUS
 62
     7
  2
*UDIM2295
 70
    65
 10
0.0
 20
0.0
 30
0.0
  3
*UDIM2295
  0
LINE
  5
    9E
  8
0
  6
CONTINUOUS
 62
     7
 10
299.571528370845
 20
307.238647311926
 30
0.0
 11
304.769172829668
 21
307.238647311926
 31
0.0
  0
LINE
  5
    9F
  8
0
  6
CONTINUOUS
 62
     7
 10
278.490150600768
 20
319.138647109271
 30
0.0
 11
304.769172829668
 21
319.138647109271
 31
0.0
  0
LINE
  5
    A0
  8
0
  6
CONTINUOUS
 62
     7
 10
302.769172829668
 20
302.238647311926
 30
0.0
 11
302.769172829668
 21
324.138647109271
 31
0.0
  0
LINE
  5
    A1
  8
0
  6
CONTINUOUS
 62
     7
 10
303.545629986087
 20
304.340869838715
 30
0.0
 11
302.769172829668
 21
307.238647311926
 31
0.0
  0
LINE
  5
    A2
  8
0
  6
CONTINUOUS
 62
     7
 10
302.769172829668
 20
307.238647311926
 30
0.0
 11
301.992715673249
 21
304.340869838715
 31
0.0
  0
LINE
  5
    A3
  8
0
  6
CONTINUOUS
 62
     7
 10
301.992715673249
 20
322.036424582482
 30
0.0
 11
302.769172829668
 21
319.138647109271
 31
0.0
  0
LINE
  5
    A4
  8
0
  6
CONTINUOUS
 62
     7
 10
302.769172829668
 20
319.138647109271
 30
0.0
 11
303.545629986087
 21
322.036424582482
 31
0.0
  0
TEXT
  5
    A5
  8
0
  6
CONTINUOUS
 62
     7
 10
301.769172829671
 20
310.68864722834
 30
0.0
 40
2.99999997871263
  1
17
 50
90.0
 41
0.933333333333333
 72
     1
 11
300.269172840312
 21
313.188647210599
 31
0.0
 73
     2
  0
ENDBLK
  5
    A6
  8
0
  6
CONTINUOUS
 62
     7
  0
BLOCK
  5
    A7
  8
0
  6
CONTINUOUS
 62
     7
  2
DADO
 70
    64
 10
0.0
 20
0.0
 30
0.0
  3
DADO
  0
POINT
  5
    A8
  8
0
  6
CONTINUOUS
 62
     7
 10
0.0
 20
0.0
 30
0.0
  0
ARC
  5
    A9
  8
0
  6
CONTINUOUS
 62
     7
 10
-5.0899999999997
 20
-1.4210854715202E-14
 30
0.0
 40
5.08999999999974
 50
334.391467869424
 51
385.608532130576
  0
ARC
  5
    AA
  8
0
  6
CONTINUOUS
 62
     7
 10
-5.0899999999997
 20
-1.4210854715202E-14
 30
0.0
 40
5.08999999999974
 50
334.391467869424
 51
385.608532130576
  0
ARC
  5
    AB
  8
0
  6
CONTINUOUS
 62
     7
 10
-0.94722499999996
 20
3.03499999999998
 30
0.0
 40
0.947225000000001
 50
298.173448635746
 51
421.826551364258
  0
LINE
  5
    AC
  8
0
  6
CONTINUOUS
 62
     7
 10
-3.50000000000001
 20
3.87
 30
0.0
 11
-0.499999999999954
 21
3.87
 31
0.0
  0
ARC
  5
    AD
  8
0
  6
CONTINUOUS
 62
     7
 10
-3.05277500000004
 20
3.03499999999998
 30
0.0
 40
0.947225000000001
 50
118.173448635742
 51
241.826551364254
  0
ARC
  5
    AE
  8
0
  6
CONTINUOUS
 62
     7
 10
1.0899999999997
 20
-1.4210854715202E-14
 30
0.0
 40
5.08999999999974
 50
154.391467869424
 51
205.608532130576
  0
LINE
  5
    AF
  8
0
  6
CONTINUOUS
 62
     7
 10
-8.0
 20
1.5
 30
0.0
 11
-4.0
 21
1.5
 31
0.0
  0
LINE
  5
    B0
  8
0
  6
CONTINUOUS
 62
     7
 10
-7.49999999999999
 20
2.0
 30
0.0
 11
-4.0
 21
2.0
 31
0.0
  0
LINE
  5
    B1
  8
0
  6
CONTINUOUS
 62
     7
 10
-8.0
 20
-1.5
 30
0.0
 11
-8.0
 21
1.5
 31
0.0
  0
LINE
  5
    B2
  8
0
  6
DASHDOT
 62
     7
 10
-9.54698811797346
 20
0.0
 30
0.0
 11
0.0
 21
0.0
 31
0.0
  0
LINE
  5
    B3
  8
0
  6
CONTINUOUS
 62
     7
 10
-7.99999999999999
 20
1.5
 30
0.0
 11
-7.49999999999999
 21
2.00000000000001
 31
0.0
  0
LINE
  5
    B4
  8
0
  6
CONTINUOUS
 62
     7
 10
-7.5
 20
-2.0
 30
0.0
 11
-7.5
 21
2.0
 31
0.0
  0
LINE
  5
    B5
  8
0
  6
CONTINUOUS
 62
     7
 10
-8.0
 20
-1.49999999999999
 30
0.0
 11
-7.49999999999999
 21
-2.0
 31
0.0
  0
LINE
  5
    B6
  8
0
  6
CONTINUOUS
 62
     7
 10
-7.5
 20
-2.0
 30
0.0
 11
-4.0
 21
-2.0
 31
0.0
  0
ARC
  5
    B7
  8
0
  6
CONTINUOUS
 62
     7
 10
-3.05277499999966
 20
-3.035
 30
0.0
 40
0.947225000000154
 50
118.173448635768
 51
241.826551364238
  0
LINE
  5
    B8
  8
0
  6
CONTINUOUS
 62
     7
 10
-4.0
 20
-3.035
 30
0.0
 11
-4.0
 21
3.03499999999998
 31
0.0
  0
LINE
  5
    B9
  8
0
  6
CONTINUOUS
 62
     7
 10
-3.50000000000001
 20
-2.2
 30
0.0
 11
-0.499999999999972
 21
-2.2
 31
0.0
  0
ARC
  5
    BA
  8
0
  6
CONTINUOUS
 62
     7
 10
-0.947225000000337
 20
-3.035
 30
0.0
 40
0.947225000000154
 50
298.173448635762
 51
421.826551364232
  0
ARC
  5
    BB
  8
0
  6
CONTINUOUS
 62
     7
 10
-0.947225000000337
 20
-3.035
 30
0.0
 40
0.947225000000154
 50
298.173448635762
 51
421.826551364232
  0
LINE
  5
    BC
  8
0
  6
CONTINUOUS
 62
     7
 10
-3.50000000000011
 20
-3.87
 30
0.0
 11
-0.499999999999968
 21
-3.87
 31
0.0
  0
LINE
  5
    BD
  8
0
  6
CONTINUOUS
 62
     7
 10
-3.50000000000009
 20
2.2
 30
0.0
 11
-0.499999999999876
 21
2.2
 31
0.0
  0
LINE
  5
    BE
  8
0
  6
CONTINUOUS
 62
     7
 10
0.0
 20
-3.035
 30
0.0
 11
0.0
 21
3.03499999999998
 31
0.0
  0
LINE
  5
    BF
  8
0
  6
CONTINUOUS
 62
     7
 10
-8.0
 20
-1.5
 30
0.0
 11
-4.0
 21
-1.5
 31
0.0
  0
ENDBLK
  5
    C0
  8
0
  6
CONTINUOUS
 62
     7
  0
BLOCK
  5
    C1
  8
0
  6
CONTINUOUS
 62
     7
  2
*UDIM2296
 70
    65
 10
0.0
 20
0.0
 30
0.0
  3
*UDIM2296
  0
LINE
  5
    C2
  8
0
  6
CONTINUOUS
 62
     7
 10
279.240149745274
 20
267.601038744346
 30
0.0
 11
279.240149745274
 21
212.542948465225
 31
0.0
  0
LINE
  5
    C3
  8
0
  6
CONTINUOUS
 62
     7
 10
280.640149721432
 20
267.1140822309
 30
0.0
 11
280.640149721432
 21
212.542948465225
 31
0.0
  0
LINE
  5
    C4
  8
0
  6
CONTINUOUS
 62
     7
 10
274.240149745274
 20
214.542948465225
 30
0.0
 11
290.464840574568
 21
214.542948465225
 31
0.0
  0
LINE
  5
    C5
  8
0
  6
CONTINUOUS
 62
     7
 10
276.342372272064
 20
213.766491308806
 30
0.0
 11
279.240149745274
 21
214.542948465225
 31
0.0
  0
LINE
  5
    C6
  8
0
  6
CONTINUOUS
 62
     7
 10
279.240149745274
 20
214.542948465225
 30
0.0
 11
276.342372272064
 21
215.319405621643
 31
0.0
  0
LINE
  5
    C7
  8
0
  6
CONTINUOUS
 62
     7
 10
283.537927194643
 20
215.319405621643
 30
0.0
 11
280.640149721432
 21
214.542948465225
 31
0.0
  0
LINE
  5
    C8
  8
0
  6
CONTINUOUS
 62
     7
 10
280.640149721432
 20
214.542948465225
 30
0.0
 11
283.537927194643
 21
213.766491308806
 31
0.0
  0
TEXT
  5
    C9
  8
0
  6
CONTINUOUS
 62
     7
 10
288.264840590179
 20
215.542948465225
 30
0.0
 40
2.99999997871263
  1
2
 41
0.933333333333333
 72
     1
 11
289.364840582373
 21
217.042948454581
 31
0.0
 73
     2
  0
TEXT
  5
    CA
  8
0
  6
CONTINUOUS
 62
     7
 10
285.064840605789
 20
215.542948465225
 30
0.0
 40
2.99999997871263
  1
_
 41
0.933333333333333
 72
     1
 11
286.164840597984
 21
217.042948454581
 31
0.0
 73
     2
  0
ENDBLK
  5
    CB
  8
0
  6
CONTINUOUS
 62
     7
  0
BLOCK
  5
    CC
  8
0
  6
CONTINUOUS
 62
     7
  2
*UDIM2297
 70
    65
 10
0.0
 20
0.0
 30
0.0
  3
*UDIM2297
  0
LINE
  5
    CD
  8
0
  6
CONTINUOUS
 62
     7
 10
224.292113342748
 20
335.01364685595
 30
0.0
 11
224.292113342748
 21
390.760591251729
 31
0.0
  0
LINE
  5
    CE
  8
0
  6
CONTINUOUS
 62
     7
 10
278.892112412914
 20
320.13864710927
 30
0.0
 11
278.892112412914
 21
390.760591251729
 31
0.0
  0
LINE
  5
    CF
  8
0
  6
CONTINUOUS
 62
     7
 10
224.292113342748
 20
388.760591251729
 30
0.0
 11
278.892112412914
 21
388.760591251729
 31
0.0
  0
LINE
  5
    D0
  8
0
  6
CONTINUOUS
 62
     7
 10
227.189890815958
 20
389.537048408148
 30
0.0
 11
224.292113342748
 21
388.760591251729
 31
0.0
  0
LINE
  5
    D1
  8
0
  6
CONTINUOUS
 62
     7
 10
224.292113342748
 20
388.760591251729
 30
0.0
 11
227.189890815958
 21
387.984134095311
 31
0.0
  0
LINE
  5
    D2
  8
0
  6
CONTINUOUS
 62
     7
 10
275.994334939704
 20
387.984134095311
 30
0.0
 11
278.892112412914
 21
388.760591251729
 31
0.0
  0
LINE
  5
    D3
  8
0
  6
CONTINUOUS
 62
     7
 10
278.892112412914
 20
388.760591251729
 30
0.0
 11
275.994334939704
 21
389.537048408148
 31
0.0
  0
TEXT
  5
    D4
  8
0
  6
CONTINUOUS
 62
     7
 10
249.09211289557
 20
389.760591251729
 30
0.0
 40
2.99999997871263
  1
78
 41
0.933333333333333
 72
     1
 11
251.592112877831
 21
391.260591241086
 31
0.0
 73
     2
  0
ENDBLK
  5
    D5
  8
0
  6
CONTINUOUS
 62
     7
  0
BLOCK
  5
    D6
  8
0
  6
CONTINUOUS
 62
     7
  2
*UDIM2298
 70
    65
 10
0.0
 20
0.0
 30
0.0
  3
*UDIM2298
  0
LINE
  5
    D7
  8
0
  6
CONTINUOUS
 62
     7
 10
224.292114294304
 20
284.788645040989
 30
0.0
 11
224.292114294304
 21
418.45533789248
 31
0.0
  0
LINE
  5
    D8
  8
0
  6
CONTINUOUS
 62
     7
 10
295.690150398832
 20
304.878647369146
 30
0.0
 11
295.690150398832
 21
418.45533789248
 31
0.0
  0
LINE
  5
    D9
  8
0
  6
CONTINUOUS
 62
     7
 10
224.292114294304
 20
416.45533789248
 30
0.0
 11
295.690150398832
 21
416.45533789248
 31
0.0
  0
LINE
  5
    DA
  8
0
  6
CONTINUOUS
 62
     7
 10
227.189891767515
 20
417.231795048898
 30
0.0
 11
224.292114294304
 21
416.45533789248
 31
0.0
  0
LINE
  5
    DB
  8
0
  6
CONTINUOUS
 62
     7
 10
224.292114294304
 20
416.45533789248
 30
0.0
 11
227.189891767515
 21
415.678880736061
 31
0.0
  0
LINE
  5
    DC
  8
0
  6
CONTINUOUS
 62
     7
 10
292.792372925622
 20
415.678880736061
 30
0.0
 11
295.690150398832
 21
416.45533789248
 31
0.0
  0
LINE
  5
    DD
  8
0
  6
CONTINUOUS
 62
     7
 10
295.690150398832
 20
416.45533789248
 30
0.0
 11
292.792372925622
 21
417.231795048898
 31
0.0
  0
TEXT
  5
    DE
  8
0
  6
CONTINUOUS
 62
     7
 10
256.091132374242
 20
417.45533789248
 30
0.0
 40
2.99999997871263
  1
102
 41
0.933333333333333
 72
     1
 11
259.991132346568
 21
418.955337881836
 31
0.0
 73
     2
  0
ENDBLK
  5
    DF
  8
0
  6
CONTINUOUS
 62
     7
  0
BLOCK
  5
    E0
  8
0
  6
CONTINUOUS
 62
     7
  2
*UDIM2299
 70
    65
 10
0.0
 20
0.0
 30
0.0
  3
*UDIM2299
  0
LINE
  5
    E1
  8
0
  6
CONTINUOUS
 62
     7
 10
224.292113342748
 20
335.01364685595
 30
0.0
 11
224.292113342748
 21
381.643378108439
 31
0.0
  0
LINE
  5
    E2
  8
0
  6
CONTINUOUS
 62
     7
 10
273.292112508282
 20
341.698646208048
 30
0.0
 11
273.292112508282
 21
381.643378108439
 31
0.0
  0
LINE
  5
    E3
  8
0
  6
CONTINUOUS
 62
     7
 10
224.292113342748
 20
379.643378108439
 30
0.0
 11
273.292112508282
 21
379.643378108439
 31
0.0
  0
LINE
  5
    E4
  8
0
  6
CONTINUOUS
 62
     7
 10
227.189890815958
 20
380.419835264858
 30
0.0
 11
224.292113342748
 21
379.643378108439
 31
0.0
  0
LINE
  5
    E5
  8
0
  6
CONTINUOUS
 62
     7
 10
224.292113342748
 20
379.643378108439
 30
0.0
 11
227.189890815958
 21
378.866920952021
 31
0.0
  0
LINE
  5
    E6
  8
0
  6
CONTINUOUS
 62
     7
 10
270.394335035071
 20
378.866920952021
 30
0.0
 11
273.292112508282
 21
379.643378108439
 31
0.0
  0
LINE
  5
    E7
  8
0
  6
CONTINUOUS
 62
     7
 10
273.292112508282
 20
379.643378108439
 30
0.0
 11
270.394335035071
 21
380.419835264858
 31
0.0
  0
TEXT
  5
    E8
  8
0
  6
CONTINUOUS
 62
     7
 10
248.632404284282
 20
380.643378108439
 30
0.0
 40
2.99999997871263
  1
70
 41
0.933333333333333
 72
     1
 11
251.132404266542
 21
382.143378097795
 31
0.0
 73
     2
  0
ENDBLK
  5
    E9
  8
0
  6
CONTINUOUS
 62
     7
  0
BLOCK
  5
    EA
  8
0
  6
CONTINUOUS
 62
     7
  2
*UDIM2300
 70
    65
 10
0.0
 20
0.0
 30
0.0
  3
*UDIM2300
  0
LINE
  5
    EB
  8
0
  6
CONTINUOUS
 62
     7
 10
224.292113342748
 20
335.01364685595
 30
0.0
 11
224.292113342748
 21
411.175531427449
 31
0.0
  0
LINE
  5
    EC
  8
0
  6
CONTINUOUS
 62
     7
 10
282.39211235331
 20
318.878647664785
 30
0.0
 11
282.39211235331
 21
411.175531427449
 31
0.0
  0
LINE
  5
    ED
  8
0
  6
CONTINUOUS
 62
     7
 10
224.292113342748
 20
409.175531427449
 30
0.0
 11
282.39211235331
 21
409.175531427449
 31
0.0
  0
LINE
  5
    EE
  8
0
  6
CONTINUOUS
 62
     7
 10
227.189890815958
 20
409.951988583868
 30
0.0
 11
224.292113342748
 21
409.175531427449
 31
0.0
  0
LINE
  5
    EF
  8
0
  6
CONTINUOUS
 62
     7
 10
224.292113342748
 20
409.175531427449
 30
0.0
 11
227.189890815958
 21
408.399074271031
 31
0.0
  0
LINE
  5
    F0
  8
0
  6
CONTINUOUS
 62
     7
 10
279.4943348801
 20
408.399074271031
 30
0.0
 11
282.39211235331
 21
409.175531427449
 31
0.0
  0
LINE
  5
    F1
  8
0
  6
CONTINUOUS
 62
     7
 10
282.39211235331
 20
409.175531427449
 30
0.0
 11
279.4943348801
 21
409.951988583868
 31
0.0
  0
TEXT
  5
    F2
  8
0
  6
CONTINUOUS
 62
     7
 10
250.842112865768
 20
410.175531427449
 30
0.0
 40
2.99999997871263
  1
83
 41
0.933333333333333
 72
     1
 11
253.342112848029
 21
411.675531416806
 31
0.0
 73
     2
  0
ENDBLK
  5
    F3
  8
0
  6
CONTINUOUS
 62
     7
  0
BLOCK
  5
    F4
  8
0
  6
CONTINUOUS
 62
     7
  2
*HATCH2002
 70
    65
 10
0.0
 20
0.0
 30
0.0
  3
*HATCH2002
  0
LINE
  5
    F5
  8
0
  6
CONTINUOUS
 62
    92
 10
226.532113329206
 20
351.883198400999
 30
0.0
 11
225.132113353047
 21
350.483198424841
 31
0.0
  0
LINE
  5
    F6
  8
0
  6
CONTINUOUS
 62
    92
 10
229.892112737928
 20
352.273348846015
 30
0.0
 11
228.492112761769
 21
350.873348869857
 31
0.0
  0
LINE
  5
    F7
  8
0
  6
CONTINUOUS
 62
    92
 10
226.857411823727
 20
349.23864659667
 30
0.0
 11
224.292114168439
 21
346.673348941382
 31
0.0
  0
LINE
  5
    F8
  8
0
  6
CONTINUOUS
 62
    92
 10
229.892112737928
 20
349.303497212021
 30
0.0
 11
227.552259491032
 21
346.963646635413
 31
0.0
  0
LINE
  5
    F9
  8
0
  6
CONTINUOUS
 62
    92
 10
225.692112809453
 20
345.103502624123
 30
0.0
 11
224.292114168439
 21
343.703502647964
 31
0.0
  0
LINE
  5
    FA
  8
0
  6
CONTINUOUS
 62
    92
 10
234.372109056745
 20
350.813646569848
 30
0.0
 11
233.392113345895
 21
349.833650858998
 31
0.0
  0
LINE
  5
    FB
  8
0
  6
CONTINUOUS
 62
    92
 10
232.797108415995
 20
349.23864659667
 30
0.0
 11
231.747108433876
 21
348.188646614552
 31
0.0
  0
LINE
  5
    FC
  8
0
  6
CONTINUOUS
 62
    92
 10
231.642113375697
 20
348.083650888801
 30
0.0
 11
230.522108454738
 21
346.963646635413
 31
0.0
  0
LINE
  5
    FD
  8
0
  6
CONTINUOUS
 62
    92
 10
225.692112809453
 20
342.133650990128
 30
0.0
 11
224.764610956047
 21
341.206150471866
 31
0.0
  0
LINE
  5
    FE
  8
0
  6
CONTINUOUS
 62
    92
 10
228.241956172707
 20
341.71364672482
 30
0.0
 11
227.191956190588
 21
340.663646742702
 31
0.0
  0
LINE
  5
    FF
  8
0
  6
CONTINUOUS
 62
    92
 10
226.532113329206
 20
340.003805216463
 30
0.0
 11
225.79195621443
 21
339.263646766543
 31
0.0
  0
LINE
  5
   100
  8
0
  6
CONTINUOUS
 62
    92
 10
231.211805136413
 20
341.71364672482
 30
0.0
 11
230.161805154294
 21
340.663646742702
 31
0.0
  0
LINE
  5
   101
  8
0
  6
CONTINUOUS
 62
    92
 10
229.892114073072
 20
340.393955661479
 30
0.0
 11
228.801959634544
 21
339.303799887808
 31
0.0
  0
LINE
  5
   102
  8
0
  6
CONTINUOUS
 62
    92
 10
233.30665411502
 20
340.838646739721
 30
0.0
 11
232.081707541642
 21
339.613700166344
 31
0.0
  0
ENDBLK
  5
   103
  8
0
  6
CONTINUOUS
 62
     7
  0
BLOCK
  5
   104
  8
0
  6
CONTINUOUS
 62
     7
  2
*HATCH2003
 70
    65
 10
0.0
 20
0.0
 30
0.0
  3
*HATCH2003
  0
LINE
  5
   105
  8
0
  6
CONTINUOUS
 62
    92
 10
226.532113329206
 20
274.667141366371
 30
0.0
 11
224.292114168439
 21
272.427140870461
 31
0.0
  0
LINE
  5
   106
  8
0
  6
CONTINUOUS
 62
    92
 10
229.795289428724
 20
274.96046716704
 30
0.0
 11
227.59846482014
 21
272.763645228744
 31
0.0
  0
LINE
  5
   107
  8
0
  6
CONTINUOUS
 62
    92
 10
225.692112809453
 20
270.857291882913
 30
0.0
 11
224.292114168439
 21
269.457291906755
 31
0.0
  0
LINE
  5
   108
  8
0
  6
CONTINUOUS
 62
    92
 10
232.668313748083
 20
274.863645192981
 30
0.0
 11
230.568313783846
 21
272.763645228744
 31
0.0
  0
LINE
  5
   109
  8
0
  6
CONTINUOUS
 62
    92
 10
225.692112809453
 20
267.887442919207
 30
0.0
 11
224.612714291153
 21
266.808045736051
 31
0.0
  0
LINE
  5
   10A
  8
0
  6
CONTINUOUS
 62
    92
 10
234.442113328014
 20
273.667593806489
 30
0.0
 11
234.413162732651
 21
273.638645213842
 31
0.0
  0
LINE
  5
   10B
  8
0
  6
CONTINUOUS
 62
    92
 10
228.288162836959
 20
267.513645318151
 30
0.0
 11
225.132113353047
 21
264.357597169383
 31
0.0
  0
LINE
  5
   10C
  8
0
  6
CONTINUOUS
 62
    92
 10
231.258010465521
 20
267.513645318151
 30
0.0
 11
228.492112761769
 21
264.747747614399
 31
0.0
  0
LINE
  5
   10D
  8
0
  6
CONTINUOUS
 62
    92
 10
226.532113329206
 20
262.787748181835
 30
0.0
 11
225.483010563869
 21
261.738645416498
 31
0.0
  0
LINE
  5
   10E
  8
0
  6
CONTINUOUS
 62
    92
 10
233.002859450089
 20
266.288645339012
 30
0.0
 11
231.95285946797
 21
265.238645356894
 31
0.0
  0
LINE
  5
   10F
  8
0
  6
CONTINUOUS
 62
    92
 10
229.892112737928
 20
263.177898626851
 30
0.0
 11
228.492112761769
 21
261.777898650693
 31
0.0
  0
LINE
  5
   110
  8
0
  6
CONTINUOUS
 62
    92
 10
234.442113328014
 20
264.758049585659
 30
0.0
 11
233.392113345895
 21
263.708049603541
 31
0.0
  0
ENDBLK
  5
   111
  8
0
  6
CONTINUOUS
 62
     7
  0
BLOCK
  5
   112
  8
0
  6
CONTINUOUS
 62
     7
  2
*HATCH2004
 70
    65
 10
0.0
 20
0.0
 30
0.0
  3
*HATCH2004
  0
LINE
  5
   113
  8
0
  6
CONTINUOUS
 62
    92
 10
225.167114153538
 20
279.241837447827
 30
0.0
 11
224.292114168439
 21
278.366837462729
 31
0.0
  0
LINE
  5
   114
  8
0
  6
CONTINUOUS
 62
    92
 10
225.167114153538
 20
276.271989819265
 30
0.0
 11
224.292114168439
 21
275.396989834167
 31
0.0
  0
LINE
  5
   115
  8
0
  6
CONTINUOUS
 62
    92
 10
228.128615796829
 20
276.263643833995
 30
0.0
 11
227.078617149855
 21
275.21364518702
 31
0.0
  0
LINE
  5
   116
  8
0
  6
CONTINUOUS
 62
    92
 10
231.098464760535
 20
276.263643833995
 30
0.0
 11
230.048466113561
 21
275.21364518702
 31
0.0
  0
LINE
  5
   117
  8
0
  6
CONTINUOUS
 62
    92
 10
234.068313056669
 20
276.263643833995
 30
0.0
 11
233.018314409695
 21
275.21364518702
 31
0.0
  0
ENDBLK
  5
   118
  8
0
  6
CONTINUOUS
 62
     7
  0
BLOCK
  5
   119
  8
0
  6
CONTINUOUS
 62
     7
  2
*HATCH2005
 70
    65
 10
0.0
 20
0.0
 30
0.0
  3
*HATCH2005
  0
LINE
  5
   11A
  8
0
  6
CONTINUOUS
 62
    92
 10
257.461647142384
 20
266.988642656803
 30
0.0
 11
256.236647163245
 21
265.763645347953
 31
0.0
  0
LINE
  5
   11B
  8
0
  6
CONTINUOUS
 62
    92
 10
260.43149610609
 20
266.988642656803
 30
0.0
 11
259.206496126951
 21
265.763645347953
 31
0.0
  0
LINE
  5
   11C
  8
0
  6
CONTINUOUS
 62
    92
 10
263.401345069796
 20
266.988645327091
 30
0.0
 11
260.692112213407
 21
264.279411135558
 31
0.0
  0
LINE
  5
   11D
  8
0
  6
CONTINUOUS
 62
    92
 10
259.201343806177
 20
262.788645398617
 30
0.0
 11
258.151343824058
 21
261.738645416498
 31
0.0
  0
LINE
  5
   11E
  8
0
  6
CONTINUOUS
 62
    92
 10
264.892113477025
 20
265.509564770615
 30
0.0
 11
264.026192471264
 21
264.643643764854
 31
0.0
  0
LINE
  5
   11F
  8
0
  6
CONTINUOUS
 62
    92
 10
262.41619303274
 20
263.033644326329
 30
0.0
 11
261.121192787764
 21
261.738645416498
 31
0.0
  0
LINE
  5
   120
  8
0
  6
CONTINUOUS
 62
    92
 10
264.892113477025
 20
262.539715806909
 30
0.0
 11
264.091040416326
 21
261.738645416498
 31
0.0
  0
ENDBLK
  5
   121
  8
0
  6
CONTINUOUS
 62
     7
  0
BLOCK
  5
   122
  8
0
  6
CONTINUOUS
 62
     7
  2
*HATCH2006
 70
    65
 10
0.0
 20
0.0
 30
0.0
  3
*HATCH2006
  0
LINE
  5
   123
  8
0
  6
CONTINUOUS
 62
    92
 10
255.672017427377
 20
274.108559832915
 30
0.0
 11
255.480603169773
 21
273.917145575311
 31
0.0
  0
LINE
  5
   124
  8
0
  6
CONTINUOUS
 62
    92
 10
258.696950427926
 20
274.163645204902
 30
0.0
 11
257.471950448788
 21
272.938642555475
 31
0.0
  0
LINE
  5
   125
  8
0
  6
CONTINUOUS
 62
    92
 10
261.666798056488
 20
274.163645204902
 30
0.0
 11
260.441799412494
 21
272.938642555475
 31
0.0
  0
LINE
  5
   126
  8
0
  6
CONTINUOUS
 62
    92
 10
264.636647020194
 20
274.163645204902
 30
0.0
 11
263.4116483762
 21
272.938642555475
 31
0.0
  0
ENDBLK
  5
   127
  8
0
  6
CONTINUOUS
 62
     7
  0
BLOCK
  5
   128
  8
0
  6
CONTINUOUS
 62
     7
  2
*HATCH2007
 70
    65
 10
0.0
 20
0.0
 30
0.0
  3
*HATCH2007
  0
LINE
  5
   129
  8
0
  6
CONTINUOUS
 62
    92
 10
234.442113328014
 20
267.727898549365
 30
0.0
 11
233.177859447108
 21
266.463645336032
 31
0.0
  0
ENDBLK
  5
   12A
  8
0
  6
CONTINUOUS
 62
     7
  0
BLOCK
  5
   12B
  8
0
  6
CONTINUOUS
 62
     7
  2
*HATCH2008
 70
    65
 10
0.0
 20
0.0
 30
0.0
  3
*HATCH2008
  0
LINE
  5
   12C
  8
0
  6
CONTINUOUS
 62
    92
 10
234.238162735631
 20
273.463645216823
 30
0.0
 11
232.838162759473
 21
272.063645240665
 31
0.0
  0
ENDBLK
  5
   12D
  8
0
  6
CONTINUOUS
 62
     7
  0
BLOCK
  5
   12E
  8
0
  6
CONTINUOUS
 62
     7
  2
*HATCH2009
 70
    65
 10
0.0
 20
0.0
 30
0.0
  3
*HATCH2009
  0
LINE
  5
   12F
  8
0
  6
CONTINUOUS
 62
    92
 10
241.155911048194
 20
265.532150066861
 30
0.0
 11
240.743179333225
 21
265.119419666175
 31
0.0
  0
ENDBLK
  5
   130
  8
0
  6
CONTINUOUS
 62
     7
  0
BLOCK
  5
   131
  8
0
  6
CONTINUOUS
 62
     7
  2
*HATCH2010
 70
    65
 10
0.0
 20
0.0
 30
0.0
  3
*HATCH2010
  0
LINE
  5
   132
  8
0
  6
CONTINUOUS
 62
    92
 10
241.149259965672
 20
274.43504527047
 30
0.0
 11
240.23684557348
 21
273.522629209348
 31
0.0
  0
ENDBLK
  5
   133
  8
0
  6
CONTINUOUS
 62
     7
  0
BLOCK
  5
   134
  8
0
  6
CONTINUOUS
 62
     7
  2
*HATCH2011
 70
    65
 10
0.0
 20
0.0
 30
0.0
  3
*HATCH2011
  0
LINE
  5
   135
  8
0
  6
CONTINUOUS
 62
    92
 10
234.881654088198
 20
342.413646712899
 30
0.0
 11
234.792113322053
 21
342.324106614326
 31
0.0
  0
LINE
  5
   136
  8
0
  6
CONTINUOUS
 62
    92
 10
230.681653492151
 20
338.213646784425
 30
0.0
 11
228.931654189526
 21
336.463646814227
 31
0.0
  0
LINE
  5
   137
  8
0
  6
CONTINUOUS
 62
    92
 10
236.542113292251
 20
341.104257620818
 30
0.0
 11
234.792113322053
 21
339.35425765062
 31
0.0
  0
LINE
  5
   138
  8
0
  6
CONTINUOUS
 62
    92
 10
233.651502455857
 20
338.213646784425
 30
0.0
 11
231.901501818088
 21
336.463646814227
 31
0.0
  0
LINE
  5
   139
  8
0
  6
CONTINUOUS
 62
    92
 10
236.269431822209
 20
337.861726853284
 30
0.0
 11
235.141383659886
 21
336.733679692319
 31
0.0
  0
ENDBLK
  5
   13A
  8
0
  6
CONTINUOUS
 62
     7
  0
BLOCK
  5
   13B
  8
0
  6
CONTINUOUS
 62
     7
  2
*HATCH2012
 70
    65
 10
0.0
 20
0.0
 30
0.0
  3
*HATCH2012
  0
LINE
  5
   13C
  8
0
  6
CONTINUOUS
 62
    92
 10
235.241957388642
 20
348.713646605611
 30
0.0
 11
234.792113322053
 21
348.263804541738
 31
0.0
  0
LINE
  5
   13D
  8
0
  6
CONTINUOUS
 62
    92
 10
236.542113292251
 20
347.043952877942
 30
0.0
 11
236.111805720538
 21
346.613646641374
 31
0.0
  0
ENDBLK
  5
   13E
  8
0
  6
CONTINUOUS
 62
     7
  0
BLOCK
  5
   13F
  8
0
  6
CONTINUOUS
 62
     7
  2
*HATCH2013
 70
    65
 10
0.0
 20
0.0
 30
0.0
  3
*HATCH2013
  0
LINE
  5
   140
  8
0
  6
CONTINUOUS
 62
    92
 10
231.911805124492
 20
342.413646712899
 30
0.0
 11
231.642113375697
 21
342.143955631677
 31
0.0
  0
LINE
  5
   141
  8
0
  6
CONTINUOUS
 62
    92
 10
234.442113328014
 20
341.974106620287
 30
0.0
 11
233.48165411204
 21
341.013646736741
 31
0.0
  0
ENDBLK
  5
   142
  8
0
  6
CONTINUOUS
 62
     7
  0
BLOCK
  5
   143
  8
0
  6
CONTINUOUS
 62
     7
  2
*HATCH2014
 70
    65
 10
0.0
 20
0.0
 30
0.0
  3
*HATCH2014
  0
LINE
  5
   144
  8
0
  6
CONTINUOUS
 62
    92
 10
234.442113328014
 20
347.913804547699
 30
0.0
 11
233.141956756832
 21
346.613646641374
 31
0.0
  0
ENDBLK
  5
   145
  8
0
  6
CONTINUOUS
 62
     7
  0
BLOCK
  5
   146
  8
0
  6
CONTINUOUS
 62
     7
  2
*HATCH2015
 70
    65
 10
0.0
 20
0.0
 30
0.0
  3
*HATCH2015
  0
LINE
  5
   147
  8
0
  6
CONTINUOUS
 62
    92
 10
240.710921252338
 20
342.303216950986
 30
0.0
 11
240.411741679606
 21
342.004037878932
 31
0.0
  0
LINE
  5
   148
  8
0
  6
CONTINUOUS
 62
    92
 10
241.095152148586
 20
339.71759840371
 30
0.0
 11
241.003574682823
 21
339.626020875362
 31
0.0
  0
ENDBLK
  5
   149
  8
0
  6
CONTINUOUS
 62
     7
  0
BLOCK
  5
   14A
  8
0
  6
CONTINUOUS
 62
     7
  2
*HATCH2016
 70
    65
 10
0.0
 20
0.0
 30
0.0
  3
*HATCH2016
  0
LINE
  5
   14B
  8
0
  6
CONTINUOUS
 62
    92
 10
241.192659176697
 20
348.724653532914
 30
0.0
 11
240.28024484709
 21
347.812237471792
 31
0.0
  0
ENDBLK
  5
   14C
  8
0
  6
CONTINUOUS
 62
     7
  0
BLOCK
  5
   14D
  8
0
  6
CONTINUOUS
 62
     7
  2
*HATCH2017
 70
    65
 10
0.0
 20
0.0
 30
0.0
  3
*HATCH2017
  0
LINE
  5
   14E
  8
0
  6
CONTINUOUS
 62
    92
 10
236.542113292251
 20
266.858049549896
 30
0.0
 11
235.447707755163
 21
265.763645347953
 31
0.0
  0
ENDBLK
  5
   14F
  8
0
  6
CONTINUOUS
 62
     7
  0
BLOCK
  5
   150
  8
0
  6
CONTINUOUS
 62
     7
  2
*HATCH2018
 70
    65
 10
0.0
 20
0.0
 30
0.0
  3
*HATCH2018
  0
LINE
  5
   151
  8
0
  6
CONTINUOUS
 62
    92
 10
238.788162825038
 20
278.013643804193
 30
0.0
 11
236.960681610165
 21
276.186162756213
 31
0.0
  0
LINE
  5
   152
  8
0
  6
CONTINUOUS
 62
    92
 10
236.637760673358
 20
275.863243488336
 30
0.0
 11
234.792113322053
 21
274.017593800529
 31
0.0
  0
LINE
  5
   153
  8
0
  6
CONTINUOUS
 62
    92
 10
241.75801135065
 20
278.013643804193
 30
0.0
 11
240.008011317867
 21
276.263643833995
 31
0.0
  0
LINE
  5
   154
  8
0
  6
CONTINUOUS
 62
    92
 10
236.542113292251
 20
272.797747477308
 30
0.0
 11
235.983012387771
 21
272.238645237684
 31
0.0
  0
LINE
  5
   155
  8
0
  6
CONTINUOUS
 62
    92
 10
244.727859917985
 20
278.013643804193
 30
0.0
 11
242.977859780894
 21
276.263643833995
 31
0.0
  0
LINE
  5
   156
  8
0
  6
CONTINUOUS
 62
    92
 10
247.697708214119
 20
278.013643804193
 30
0.0
 11
245.947708243921
 21
276.263643833995
 31
0.0
  0
LINE
  5
   157
  8
0
  6
CONTINUOUS
 62
    92
 10
250.667556510253
 20
278.013643804193
 30
0.0
 11
248.917556540055
 21
276.263643833995
 31
0.0
  0
LINE
  5
   158
  8
0
  6
CONTINUOUS
 62
    92
 10
253.637404806387
 20
278.013643804193
 30
0.0
 11
251.887404836189
 21
276.263643833995
 31
0.0
  0
LINE
  5
   159
  8
0
  6
CONTINUOUS
 62
    92
 10
256.607253770093
 20
278.013643804193
 30
0.0
 11
254.857253799895
 21
276.263643833995
 31
0.0
  0
LINE
  5
   15A
  8
0
  6
CONTINUOUS
 62
    92
 10
259.292113572393
 20
277.728654642786
 30
0.0
 11
257.827102763601
 21
276.263643833995
 31
0.0
  0
ENDBLK
  5
   15B
  8
0
  6
CONTINUOUS
 62
     7
  0
BLOCK
  5
   15C
  8
0
  6
CONTINUOUS
 62
     7
  2
*HATCH2019
 70
    65
 10
0.0
 20
0.0
 30
0.0
  3
*HATCH2019
  0
LINE
  5
   15D
  8
0
  6
CONTINUOUS
 62
    92
 10
257.765441807315
 20
341.5386467278
 30
0.0
 11
256.540441828177
 21
340.313646748662
 31
0.0
  0
LINE
  5
   15E
  8
0
  6
CONTINUOUS
 62
    92
 10
260.735290771021
 20
341.5386467278
 30
0.0
 11
258.942112243209
 21
339.745468199988
 31
0.0
  0
LINE
  5
   15F
  8
0
  6
CONTINUOUS
 62
    92
 10
263.705139734727
 20
341.5386467278
 30
0.0
 11
258.942112243209
 21
336.775619236282
 31
0.0
  0
LINE
  5
   160
  8
0
  6
CONTINUOUS
 62
    92
 10
264.892113477025
 20
339.755772841537
 30
0.0
 11
263.174987422894
 21
338.038646787405
 31
0.0
  0
LINE
  5
   161
  8
0
  6
CONTINUOUS
 62
    92
 10
262.792113512788
 20
337.655772877299
 30
0.0
 11
259.149987491439
 21
334.01364685595
 31
0.0
  0
LINE
  5
   162
  8
0
  6
CONTINUOUS
 62
    92
 10
262.792113512788
 20
334.685923913593
 30
0.0
 11
262.119836455145
 21
334.01364685595
 31
0.0
  0
ENDBLK
  5
   163
  8
0
  6
CONTINUOUS
 62
     7
  0
BLOCK
  5
   164
  8
0
  6
CONTINUOUS
 62
     7
  2
*HATCH2020
 70
    65
 10
0.0
 20
0.0
 30
0.0
  3
*HATCH2020
  0
LINE
  5
   165
  8
0
  6
CONTINUOUS
 62
    92
 10
257.086048432044
 20
352.738646537066
 30
0.0
 11
256.036048449926
 21
351.688646554947
 31
0.0
  0
LINE
  5
   166
  8
0
  6
CONTINUOUS
 62
    92
 10
260.05589739575
 20
352.738646537066
 30
0.0
 11
259.005897413632
 21
351.688646554947
 31
0.0
  0
LINE
  5
   167
  8
0
  6
CONTINUOUS
 62
    92
 10
256.030897464295
 20
348.713646605611
 30
0.0
 11
255.442112302814
 21
348.124864114417
 31
0.0
  0
LINE
  5
   168
  8
0
  6
CONTINUOUS
 62
    92
 10
263.025746359456
 20
352.738646537066
 30
0.0
 11
260.692112213407
 21
350.405012391016
 31
0.0
  0
LINE
  5
   169
  8
0
  6
CONTINUOUS
 62
    92
 10
259.000745092857
 20
348.713646605611
 30
0.0
 11
257.775745113719
 21
347.488646626473
 31
0.0
  0
LINE
  5
   16A
  8
0
  6
CONTINUOUS
 62
    92
 10
264.892113477025
 20
351.635166026073
 30
0.0
 11
264.700595078187
 21
351.443647627235
 31
0.0
  0
LINE
  5
   16B
  8
0
  6
CONTINUOUS
 62
    92
 10
263.090594304519
 20
349.833645518422
 30
0.0
 11
260.745594077425
 21
347.488646626473
 31
0.0
  0
LINE
  5
   16C
  8
0
  6
CONTINUOUS
 62
    92
 10
264.892113477025
 20
348.665314392079
 30
0.0
 11
263.715443041131
 21
347.488646626473
 31
0.0
  0
ENDBLK
  5
   16D
  8
0
  6
CONTINUOUS
 62
     7
  0
BLOCK
  5
   16E
  8
0
  6
CONTINUOUS
 62
     7
  2
*HATCH2021
 70
    65
 10
0.0
 20
0.0
 30
0.0
  3
*HATCH2021
  0
LINE
  5
   16F
  8
0
  6
CONTINUOUS
 62
    92
 10
225.79195621443
 20
339.263646766543
 30
0.0
 11
224.292112833295
 21
337.763804720552
 31
0.0
  0
LINE
  5
   170
  8
0
  6
CONTINUOUS
 62
    92
 10
228.761805178136
 20
339.263646766543
 30
0.0
 11
227.711805196017
 21
338.213646784425
 31
0.0
  0
LINE
  5
   171
  8
0
  6
CONTINUOUS
 62
    92
 10
225.96180522582
 20
336.463646814227
 30
0.0
 11
224.292112833295
 21
334.793955756846
 31
0.0
  0
LINE
  5
   172
  8
0
  6
CONTINUOUS
 62
    92
 10
231.73165347427
 20
339.263646766543
 30
0.0
 11
230.681653492151
 21
338.213646784425
 31
0.0
  0
LINE
  5
   173
  8
0
  6
CONTINUOUS
 62
    92
 10
228.931654189526
 20
336.463646814227
 30
0.0
 11
227.531652878224
 21
335.063646838069
 31
0.0
  0
LINE
  5
   174
  8
0
  6
CONTINUOUS
 62
    92
 10
234.092113333974
 20
338.654257662541
 30
0.0
 11
233.651502455857
 21
338.213646784425
 31
0.0
  0
LINE
  5
   175
  8
0
  6
CONTINUOUS
 62
    92
 10
230.592113393579
 20
335.154257722146
 30
0.0
 11
230.50150184193
 21
335.063646838069
 31
0.0
  0
ENDBLK
  5
   176
  8
0
  6
CONTINUOUS
 62
     7
  0
BLOCK
  5
   177
  8
0
  6
CONTINUOUS
 62
     7
  2
*HATCH2022
 70
    65
 10
0.0
 20
0.0
 30
0.0
  3
*HATCH2022
  0
LINE
  5
   178
  8
0
  6
CONTINUOUS
 62
    92
 10
254.116199468338
 20
352.738646537066
 30
0.0
 11
251.94211302999
 21
350.564562101434
 31
0.0
  0
LINE
  5
   179
  8
0
  6
CONTINUOUS
 62
    92
 10
255.442112302814
 20
351.094710407835
 30
0.0
 11
254.461048476748
 21
350.113646581769
 31
0.0
  0
LINE
  5
   17A
  8
0
  6
CONTINUOUS
 62
    92
 10
254.392112320695
 20
350.044710425716
 30
0.0
 11
253.411048494629
 21
349.06364659965
 31
0.0
  0
ENDBLK
  5
   17B
  8
0
  6
CONTINUOUS
 62
     7
  0
BLOCK
  5
   17C
  8
0
  6
CONTINUOUS
 62
     7
  2
*HATCH2023
 70
    65
 10
0.0
 20
0.0
 30
0.0
  3
*HATCH2023
  0
LINE
  5
   17D
  8
0
  6
CONTINUOUS
 62
    92
 10
254.491799513822
 20
266.988645327091
 30
0.0
 11
254.392112320695
 21
266.888958133965
 31
0.0
  0
LINE
  5
   17E
  8
0
  6
CONTINUOUS
 62
    92
 10
256.061647166225
 20
265.588645350933
 30
0.0
 11
254.392112320695
 21
263.919109170259
 31
0.0
  0
LINE
  5
   17F
  8
0
  6
CONTINUOUS
 62
    92
 10
256.492112284932
 20
263.04926017079
 30
0.0
 11
255.181496195497
 21
261.738645416498
 31
0.0
  0
ENDBLK
  5
   180
  8
0
  6
CONTINUOUS
 62
     7
  0
BLOCK
  5
   181
  8
0
  6
CONTINUOUS
 62
     7
  2
*HATCH2024
 70
    65
 10
0.0
 20
0.0
 30
0.0
  3
*HATCH2024
  0
LINE
  5
   182
  8
0
  6
CONTINUOUS
 62
    92
 10
237.038162687947
 20
276.263643833995
 30
0.0
 11
236.542114293609
 21
275.767596441014
 31
0.0
  0
LINE
  5
   183
  8
0
  6
CONTINUOUS
 62
    92
 10
240.008011317867
 20
276.263643833995
 30
0.0
 11
238.958011168856
 21
275.21364518702
 31
0.0
  0
LINE
  5
   184
  8
0
  6
CONTINUOUS
 62
    92
 10
242.977859947787
 20
276.263643833995
 30
0.0
 11
241.927859798776
 21
275.21364518702
 31
0.0
  0
LINE
  5
   185
  8
0
  6
CONTINUOUS
 62
    92
 10
245.947708577707
 20
276.263643833995
 30
0.0
 11
244.897708261803
 21
275.21364518702
 31
0.0
  0
LINE
  5
   186
  8
0
  6
CONTINUOUS
 62
    92
 10
248.917557207627
 20
276.263643833995
 30
0.0
 11
247.867557225509
 21
275.21364518702
 31
0.0
  0
LINE
  5
   187
  8
0
  6
CONTINUOUS
 62
    92
 10
251.887406171333
 20
276.263643833995
 30
0.0
 11
250.837406189215
 21
275.21364518702
 31
0.0
  0
LINE
  5
   188
  8
0
  6
CONTINUOUS
 62
    92
 10
254.857255135039
 20
276.263643833995
 30
0.0
 11
253.807255152921
 21
275.21364518702
 31
0.0
  0
LINE
  5
   189
  8
0
  6
CONTINUOUS
 62
    92
 10
257.827102763601
 20
276.263643833995
 30
0.0
 11
255.90210146124
 21
274.338642531634
 31
0.0
  0
LINE
  5
   18A
  8
0
  6
CONTINUOUS
 62
    92
 10
255.442113637958
 20
273.878656043495
 30
0.0
 11
254.502101485082
 21
272.938642555475
 31
0.0
  0
ENDBLK
  5
   18B
  8
0
  6
CONTINUOUS
 62
     7
  0
BLOCK
  5
   18C
  8
0
  6
CONTINUOUS
 62
     7
  2
*UDIM2301
 70
    65
 10
0.0
 20
0.0
 30
0.0
  3
*UDIM2301
  0
LINE
  5
   18D
  8
0
  6
CONTINUOUS
 62
     7
 10
299.571528370845
 20
307.238647311926
 30
0.0
 11
318.229935157712
 21
307.238647311926
 31
0.0
  0
LINE
  5
   18E
  8
0
  6
CONTINUOUS
 62
     7
 10
269.280919169143
 20
344.513646677141
 30
0.0
 11
318.229935157712
 21
344.513646677141
 31
0.0
  0
LINE
  5
   18F
  8
0
  6
CONTINUOUS
 62
     7
 10
316.229935157712
 20
307.238647311926
 30
0.0
 11
316.229935157712
 21
344.513646677141
 31
0.0
  0
LINE
  5
   190
  8
0
  6
CONTINUOUS
 62
     7
 10
315.453478001294
 20
310.136424785136
 30
0.0
 11
316.229935157712
 21
307.238647311926
 31
0.0
  0
LINE
  5
   191
  8
0
  6
CONTINUOUS
 62
     7
 10
316.229935157712
 20
307.238647311926
 30
0.0
 11
317.006392314131
 21
310.136424785136
 31
0.0
  0
LINE
  5
   192
  8
0
  6
CONTINUOUS
 62
     7
 10
317.006392314131
 20
341.61586920393
 30
0.0
 11
316.229935157712
 21
344.513646677141
 31
0.0
  0
LINE
  5
   193
  8
0
  6
CONTINUOUS
 62
     7
 10
316.229935157712
 20
344.513646677141
 30
0.0
 11
315.453478001294
 21
341.61586920393
 31
0.0
  0
TEXT
  5
   194
  8
0
  6
CONTINUOUS
 62
     7
 10
315.229935157721
 20
319.176147042077
 30
0.0
 40
2.99999997871263
  1
53,25
 50
90.0
 41
0.933333333333333
 72
     1
 11
313.729935168356
 21
325.876146994533
 31
0.0
 73
     2
  0
ENDBLK
  5
   195
  8
0
  6
CONTINUOUS
 62
     7
  0
BLOCK
  5
   196
  8
0
  6
CONTINUOUS
 62
     7
  2
*UDIM2302
 70
    65
 10
0.0
 20
0.0
 30
0.0
  3
*UDIM2302
  0
LINE
  5
   197
  8
0
  6
CONTINUOUS
 62
     7
 10
226.615251482093
 20
269.963644152119
 30
0.0
 11
212.59075828705
 21
269.963644152119
 31
0.0
  0
LINE
  5
   198
  8
0
  6
CONTINUOUS
 62
     7
 10
226.615250863724
 20
344.513646677141
 30
0.0
 11
212.59075828705
 21
344.513646677141
 31
0.0
  0
LINE
  5
   199
  8
0
  6
CONTINUOUS
 62
     7
 10
214.59075828705
 20
269.963644152119
 30
0.0
 11
214.59075828705
 21
344.513646677141
 31
0.0
  0
LINE
  5
   19A
  8
0
  6
CONTINUOUS
 62
     7
 10
213.814301130631
 20
272.86142162533
 30
0.0
 11
214.59075828705
 21
269.963644152119
 31
0.0
  0
LINE
  5
   19B
  8
0
  6
CONTINUOUS
 62
     7
 10
214.59075828705
 20
269.963644152119
 30
0.0
 11
215.367215443468
 21
272.86142162533
 31
0.0
  0
LINE
  5
   19C
  8
0
  6
CONTINUOUS
 62
     7
 10
215.367215443468
 20
341.61586920393
 30
0.0
 11
214.59075828705
 21
344.513646677141
 31
0.0
  0
LINE
  5
   19D
  8
0
  6
CONTINUOUS
 62
     7
 10
214.59075828705
 20
344.513646677141
 30
0.0
 11
213.814301130631
 21
341.61586920393
 31
0.0
  0
TEXT
  5
   19E
  8
0
  6
CONTINUOUS
 62
     7
 10
213.590758287058
 20
300.538645462174
 30
0.0
 40
2.99999997871263
  1
106,5
 50
90.0
 41
0.933333333333333
 72
     1
 11
212.090758297694
 21
307.23864541463
 31
0.0
 73
     2
  0
ENDBLK
  5
   19F
  8
0
  6
CONTINUOUS
 62
     7
  0
BLOCK
  5
   1A0
  8
0
  6
CONTINUOUS
 62
     7
  2
*UDIM2303
 70
    65
 10
0.0
 20
0.0
 30
0.0
  3
*UDIM2303
  0
LINE
  5
   1A1
  8
0
  6
CONTINUOUS
 62
     7
 10
241.792113225562
 20
391.013645902276
 30
0.0
 11
241.792111397889
 21
399.259903244808
 31
0.0
  0
LINE
  5
   1A2
  8
0
  6
CONTINUOUS
 62
     7
 10
245.292113165958
 20
391.013645902276
 30
0.0
 11
245.292111338284
 21
399.259903244808
 31
0.0
  0
LINE
  5
   1A3
  8
0
  6
CONTINUOUS
 62
     7
 10
236.792111841162
 20
397.259903244808
 30
0.0
 11
252.492111765947
 21
397.259903244808
 31
0.0
  0
LINE
  5
   1A4
  8
0
  6
CONTINUOUS
 62
     7
 10
238.894334367952
 20
396.48344608839
 30
0.0
 11
241.792111841162
 21
397.259903244808
 31
0.0
  0
LINE
  5
   1A5
  8
0
  6
CONTINUOUS
 62
     7
 10
241.792111841162
 20
397.259903244808
 30
0.0
 11
238.894334367952
 21
398.036360401227
 31
0.0
  0
LINE
  5
   1A6
  8
0
  6
CONTINUOUS
 62
     7
 10
248.189889254768
 20
398.036360401227
 30
0.0
 11
245.292111781557
 21
397.259903244808
 31
0.0
  0
LINE
  5
   1A7
  8
0
  6
CONTINUOUS
 62
     7
 10
245.292111781557
 20
397.259903244808
 30
0.0
 11
248.189889254768
 21
396.48344608839
 31
0.0
  0
TEXT
  5
   1A8
  8
0
  6
CONTINUOUS
 62
     7
 10
250.292111781557
 20
398.259903244808
 30
0.0
 40
2.99999997871263
  1
5
 41
0.933333333333333
 72
     1
 11
251.392111773752
 21
399.759903234164
 31
0.0
 73
     2
  0
ENDBLK
  5
   1A9
  8
0
  6
CONTINUOUS
 62
     7
  0
BLOCK
  5
   1AA
  8
0
  6
CONTINUOUS
 62
     7
  2
*HATCH2025
 70
    65
 10
0.0
 20
0.0
 30
0.0
  3
*HATCH2025
  0
LINE
  5
   1AB
  8
0
  6
CONTINUOUS
 62
    92
 10
236.542113292251
 20
341.998670599971
 30
0.0
 11
238.577134467311
 21
339.963646754622
 31
0.0
  0
LINE
  5
   1AC
  8
0
  6
CONTINUOUS
 62
    92
 10
239.271983803546
 20
342.238646715879
 30
0.0
 11
240.042114234004
 21
341.468514282706
 31
0.0
  0
ENDBLK
  5
   1AD
  8
0
  6
CONTINUOUS
 62
     7
  0
BLOCK
  5
   1AE
  8
0
  6
CONTINUOUS
 62
     7
  2
*HATCH2026
 70
    65
 10
0.0
 20
0.0
 30
0.0
  3
*HATCH2026
  0
LINE
  5
   1AF
  8
0
  6
CONTINUOUS
 62
    92
 10
236.542112290893
 20
347.938371197671
 30
0.0
 11
237.691836182598
 21
346.788646638393
 31
0.0
  0
LINE
  5
   1B0
  8
0
  6
CONTINUOUS
 62
    92
 10
236.542105615173
 20
350.908228172241
 30
0.0
 11
240.042116069827
 21
347.408212210118
 31
0.0
  0
LINE
  5
   1B1
  8
0
  6
CONTINUOUS
 62
    92
 10
236.542098939453
 20
353.878085146811
 30
0.0
 11
240.042121577296
 21
350.378058503536
 31
0.0
  0
LINE
  5
   1B2
  8
0
  6
CONTINUOUS
 62
    92
 10
236.565789067375
 20
356.82424598531
 30
0.0
 11
240.042127084765
 21
353.347904796954
 31
0.0
  0
LINE
  5
   1B3
  8
0
  6
CONTINUOUS
 62
    92
 10
237.252168583732
 20
359.107716100232
 30
0.0
 11
240.042132592234
 21
356.317745749795
 31
0.0
  0
LINE
  5
   1B4
  8
0
  6
CONTINUOUS
 62
    92
 10
238.163432749351
 20
361.166299896961
 30
0.0
 11
240.817394481841
 21
358.512337997578
 31
0.0
  0
LINE
  5
   1B5
  8
0
  6
CONTINUOUS
 62
    92
 10
239.074697248755
 20
363.224883693691
 30
0.0
 11
241.728470308706
 21
360.571114055047
 31
0.0
  0
LINE
  5
   1B6
  8
0
  6
CONTINUOUS
 62
    92
 10
239.985961748159
 20
365.283467490421
 30
0.0
 11
242.639546135571
 21
362.629884771939
 31
0.0
  0
LINE
  5
   1B7
  8
0
  6
CONTINUOUS
 62
    92
 10
240.897226164117
 20
367.34205128715
 30
0.0
 11
243.550622045882
 21
364.688655488832
 31
0.0
  0
LINE
  5
   1B8
  8
0
  6
CONTINUOUS
 62
    92
 10
241.76063722429
 20
369.448491986141
 30
0.0
 11
244.461697622408
 21
366.7474315463
 31
0.0
  0
LINE
  5
   1B9
  8
0
  6
CONTINUOUS
 62
    92
 10
241.792113453183
 20
372.386866264714
 30
0.0
 11
245.222867233774
 21
368.956106893208
 31
0.0
  0
LINE
  5
   1BA
  8
0
  6
CONTINUOUS
 62
    92
 10
241.792113453183
 20
375.356717898708
 30
0.0
 11
245.292113477025
 21
371.856712617737
 31
0.0
  0
LINE
  5
   1BB
  8
0
  6
CONTINUOUS
 62
    92
 10
241.792113453183
 20
378.326569532702
 30
0.0
 11
245.292113477025
 21
374.826564251731
 31
0.0
  0
LINE
  5
   1BC
  8
0
  6
CONTINUOUS
 62
    92
 10
244.449885937047
 20
378.638640755415
 30
0.0
 11
245.292113477025
 21
377.796415885725
 31
0.0
  0
ENDBLK
  5
   1BD
  8
0
  6
CONTINUOUS
 62
     7
  0
BLOCK
  5
   1BE
  8
0
  6
CONTINUOUS
 62
     7
  2
*HATCH2027
 70
    65
 10
0.0
 20
0.0
 30
0.0
  3
*HATCH2027
  0
LINE
  5
   1BF
  8
0
  6
CONTINUOUS
 62
    92
 10
241.792113453183
 20
387.236119094108
 30
0.0
 11
243.039588328847
 21
385.988640630245
 31
0.0
  0
LINE
  5
   1C0
  8
0
  6
CONTINUOUS
 62
    92
 10
241.792113453183
 20
390.205970728102
 30
0.0
 11
245.292113477025
 21
386.705965447131
 31
0.0
  0
LINE
  5
   1C1
  8
0
  6
CONTINUOUS
 62
    92
 10
242.154289543455
 20
392.813645854592
 30
0.0
 11
245.292113477025
 21
389.675811740549
 31
0.0
  0
LINE
  5
   1C2
  8
0
  6
CONTINUOUS
 62
    92
 10
245.124136003766
 20
392.813645854592
 30
0.0
 11
245.292113477025
 21
392.645663374543
 31
0.0
  0
ENDBLK
  5
   1C3
  8
0
  6
CONTINUOUS
 62
     7
  0
BLOCK
  5
   1C4
  8
0
  6
CONTINUOUS
 62
     7
  2
*HATCH2028
 70
    65
 10
0.0
 20
0.0
 30
0.0
  3
*HATCH2028
  0
LINE
  5
   1C5
  8
0
  6
CONTINUOUS
 62
    92
 10
236.542113292251
 20
273.692115061565
 30
0.0
 11
237.995577441769
 21
272.238647907972
 31
0.0
  0
LINE
  5
   1C6
  8
0
  6
CONTINUOUS
 62
    92
 10
238.69042711179
 20
274.513647869229
 30
0.0
 11
240.042114067111
 21
273.161958744299
 31
0.0
  0
ENDBLK
  5
   1C7
  8
0
  6
CONTINUOUS
 62
     7
  0
BLOCK
  5
   1C8
  8
0
  6
CONTINUOUS
 62
     7
  2
*HATCH2029
 70
    65
 10
0.0
 20
0.0
 30
0.0
  3
*HATCH2029
  0
LINE
  5
   1C9
  8
0
  6
CONTINUOUS
 62
    92
 10
241.792113453183
 20
238.743606821895
 30
0.0
 11
244.697061817084
 21
235.838653868437
 31
0.0
  0
LINE
  5
   1CA
  8
0
  6
CONTINUOUS
 62
    92
 10
241.792113453183
 20
241.713453115313
 30
0.0
 11
245.292113477025
 21
238.213453174918
 31
0.0
  0
LINE
  5
   1CB
  8
0
  6
CONTINUOUS
 62
    92
 10
241.791523549004
 20
244.683897553252
 30
0.0
 11
245.292113477025
 21
241.183299468336
 31
0.0
  0
LINE
  5
   1CC
  8
0
  6
CONTINUOUS
 62
    92
 10
239.775098948291
 20
249.670174476393
 30
0.0
 11
245.292113477025
 21
244.15315110233
 31
0.0
  0
LINE
  5
   1CD
  8
0
  6
CONTINUOUS
 62
    92
 10
237.416279146123
 20
254.998846413234
 30
0.0
 11
244.284234618457
 21
248.130881594892
 31
0.0
  0
LINE
  5
   1CE
  8
0
  6
CONTINUOUS
 62
    92
 10
236.54209493402
 20
258.842880924187
 30
0.0
 11
241.926678696997
 21
253.458293155778
 31
0.0
  0
LINE
  5
   1CF
  8
0
  6
CONTINUOUS
 62
    92
 10
236.542101609741
 20
261.812724547317
 30
0.0
 11
240.042132425341
 21
258.312689893177
 31
0.0
  0
LINE
  5
   1D0
  8
0
  6
CONTINUOUS
 62
    92
 10
236.542108285461
 20
264.782568170447
 30
0.0
 11
240.042126917872
 21
261.282546867747
 31
0.0
  0
LINE
  5
   1D1
  8
0
  6
CONTINUOUS
 62
    92
 10
236.605878769299
 20
267.688647985458
 30
0.0
 11
240.04212124351
 21
264.252401172029
 31
0.0
  0
LINE
  5
   1D2
  8
0
  6
CONTINUOUS
 62
    92
 10
239.575725396503
 20
267.688647985458
 30
0.0
 11
240.042115736041
 21
267.222258146599
 31
0.0
  0
ENDBLK
  5
   1D3
  8
0
  6
CONTINUOUS
 62
     7
  0
BLOCK
  5
   1D4
  8
0
  6
CONTINUOUS
 62
     7
  2
*HATCH2030
 70
    65
 10
0.0
 20
0.0
 30
0.0
  3
*HATCH2030
  0
LINE
  5
   1D5
  8
0
  6
CONTINUOUS
 62
    92
 10
241.792113453183
 20
223.894353992501
 30
0.0
 11
244.022811583472
 21
221.663654109836
 31
0.0
  0
LINE
  5
   1D6
  8
0
  6
CONTINUOUS
 62
    92
 10
241.792113453183
 20
226.864205626495
 30
0.0
 11
245.292113477025
 21
223.364200345524
 31
0.0
  0
LINE
  5
   1D7
  8
0
  6
CONTINUOUS
 62
    92
 10
243.137512964974
 20
228.488653993606
 30
0.0
 11
245.292113477025
 21
226.334051979518
 31
0.0
  0
ENDBLK
  5
   1D8
  8
0
  6
CONTINUOUS
 62
     7
  0
BLOCK
  5
   1D9
  8
0
  6
CONTINUOUS
 62
     7
  2
*UDIM2304
 70
    65
 10
0.0
 20
0.0
 30
0.0
  3
*UDIM2304
  0
LINE
  5
   1DA
  8
0
  6
CONTINUOUS
 62
     7
 10
224.292114294304
 20
282.788645040989
 30
0.0
 11
224.292114294304
 21
212.542948465225
 31
0.0
  0
LINE
  5
   1DB
  8
0
  6
CONTINUOUS
 62
     7
 10
279.240149745274
 20
267.601038744346
 30
0.0
 11
279.240149745274
 21
212.542948465225
 31
0.0
  0
LINE
  5
   1DC
  8
0
  6
CONTINUOUS
 62
     7
 10
224.292114294304
 20
214.542948465225
 30
0.0
 11
279.240149745274
 21
214.542948465225
 31
0.0
  0
LINE
  5
   1DD
  8
0
  6
CONTINUOUS
 62
     7
 10
227.189891767515
 20
215.319405621643
 30
0.0
 11
224.292114294304
 21
214.542948465225
 31
0.0
  0
LINE
  5
   1DE
  8
0
  6
CONTINUOUS
 62
     7
 10
224.292114294304
 20
214.542948465225
 30
0.0
 11
227.189891767515
 21
213.766491308806
 31
0.0
  0
LINE
  5
   1DF
  8
0
  6
CONTINUOUS
 62
     7
 10
276.342372272064
 20
213.766491308806
 30
0.0
 11
279.240149745274
 21
214.542948465225
 31
0.0
  0
LINE
  5
   1E0
  8
0
  6
CONTINUOUS
 62
     7
 10
279.240149745274
 20
214.542948465225
 30
0.0
 11
276.342372272064
 21
215.319405621643
 31
0.0
  0
TEXT
  5
   1E1
  8
0
  6
CONTINUOUS
 62
     7
 10
259.5202030171
 20
215.542948465225
 30
0.0
 40
2.99999997871263
  1
A
 41
0.933333333333333
 72
     1
 11
260.620203009295
 21
217.042948454581
 31
0.0
 73
     2
  0
ENDBLK
  5
   1E2
  8
0
  6
CONTINUOUS
 62
     7
  0
BLOCK
  5
   1E3
  8
0
  6
CONTINUOUS
 62
     7
  2
*UDIM2305
 70
    65
 10
0.0
 20
0.0
 30
0.0
  3
*UDIM2305
  0
LINE
  5
   1E4
  8
0
  6
CONTINUOUS
 62
     7
 10
238.300904815206
 20
232.163652962809
 30
0.0
 11
189.607156528448
 21
232.163652962809
 31
0.0
  0
LINE
  5
   1E5
  8
0
  6
CONTINUOUS
 62
     7
 10
238.300904815206
 20
382.313641661043
 30
0.0
 11
189.607156528448
 21
382.313641661043
 31
0.0
  0
LINE
  5
   1E6
  8
0
  6
CONTINUOUS
 62
     7
 10
191.607156528448
 20
232.163652962809
 30
0.0
 11
191.607156528448
 21
382.313641661043
 31
0.0
  0
LINE
  5
   1E7
  8
0
  6
CONTINUOUS
 62
     7
 10
190.83069937203
 20
235.06143043602
 30
0.0
 11
191.607156528448
 21
232.163652962809
 31
0.0
  0
LINE
  5
   1E8
  8
0
  6
CONTINUOUS
 62
     7
 10
191.607156528448
 20
232.163652962809
 30
0.0
 11
192.383613684867
 21
235.06143043602
 31
0.0
  0
LINE
  5
   1E9
  8
0
  6
CONTINUOUS
 62
     7
 10
192.383613684867
 20
379.415864187832
 30
0.0
 11
191.607156528448
 21
382.313641661043
 31
0.0
  0
LINE
  5
   1EA
  8
0
  6
CONTINUOUS
 62
     7
 10
191.607156528448
 20
382.313641661043
 30
0.0
 11
190.83069937203
 21
379.415864187832
 31
0.0
  0
TEXT
  5
   1EB
  8
0
  6
CONTINUOUS
 62
     7
 10
190.607156528457
 20
300.53864735947
 30
0.0
 40
2.99999997871263
  1
214,5
 50
90.0
 41
0.933333333333333
 72
     1
 11
189.107156539092
 21
307.238647311926
 31
0.0
 73
     2
  0
ENDBLK
  5
   1EC
  8
0
  6
CONTINUOUS
 62
     7
  0
BLOCK
  5
   1ED
  8
0
  6
CONTINUOUS
 62
     7
  2
*UDIM2306
 70
    65
 10
0.0
 20
0.0
 30
0.0
  3
*UDIM2306
  0
LINE
  5
   1EE
  8
0
  6
CONTINUOUS
 62
     7
 10
215.822906696086
 20
307.238647311926
 30
0.0
 11
198.189047740713
 21
307.238647311926
 31
0.0
  0
LINE
  5
   1EF
  8
0
  6
CONTINUOUS
 62
     7
 10
238.300904815206
 20
382.313641661043
 30
0.0
 11
198.189047740713
 21
382.313641661043
 31
0.0
  0
LINE
  5
   1F0
  8
0
  6
CONTINUOUS
 62
     7
 10
200.189047740713
 20
307.238647311926
 30
0.0
 11
200.189047740713
 21
382.313641661043
 31
0.0
  0
LINE
  5
   1F1
  8
0
  6
CONTINUOUS
 62
     7
 10
199.412590584294
 20
310.136424785136
 30
0.0
 11
200.189047740713
 21
307.238647311926
 31
0.0
  0
LINE
  5
   1F2
  8
0
  6
CONTINUOUS
 62
     7
 10
200.189047740713
 20
307.238647311926
 30
0.0
 11
200.965504897131
 21
310.136424785136
 31
0.0
  0
LINE
  5
   1F3
  8
0
  6
CONTINUOUS
 62
     7
 10
200.965504897131
 20
379.415864187832
 30
0.0
 11
200.189047740713
 21
382.313641661043
 31
0.0
  0
LINE
  5
   1F4
  8
0
  6
CONTINUOUS
 62
     7
 10
200.189047740713
 20
382.313641661043
 30
0.0
 11
199.412590584294
 21
379.415864187832
 31
0.0
  0
TEXT
  5
   1F5
  8
0
  6
CONTINUOUS
 62
     7
 10
199.189047740723
 20
336.676144543962
 30
0.0
 40
2.99999997871263
  1
107,25
 50
90.0
 41
0.933333333333333
 72
     1
 11
197.689047751356
 21
344.776144486484
 31
0.0
 73
     2
  0
ENDBLK
  5
   1F6
  8
0
  6
CONTINUOUS
 62
     7
  0
BLOCK
  5
   1F7
  8
0
  6
CONTINUOUS
 62
     7
  2
*UDIM2307
 70
    65
 10
0.0
 20
0.0
 30
0.0
  3
*UDIM2307
  0
LINE
  5
   1F8
  8
0
  6
CONTINUOUS
 62
     7
 10
241.792113447199
 20
391.013645902276
 30
0.0
 11
241.792113447199
 21
399.259903244808
 31
0.0
  0
LINE
  5
   1F9
  8
0
  6
CONTINUOUS
 62
     7
 10
224.294076830149
 20
397.259903244808
 30
0.0
 11
241.792113447199
 21
397.259903244808
 31
0.0
  0
LINE
  5
   1FA
  8
0
  6
CONTINUOUS
 62
     7
 10
227.191854303359
 20
398.036360401227
 30
0.0
 11
224.294076830149
 21
397.259903244808
 31
0.0
  0
LINE
  5
   1FB
  8
0
  6
CONTINUOUS
 62
     7
 10
224.294076830149
 20
397.259903244808
 30
0.0
 11
227.191854303359
 21
396.48344608839
 31
0.0
  0
LINE
  5
   1FC
  8
0
  6
CONTINUOUS
 62
     7
 10
238.894335973988
 20
396.48344608839
 30
0.0
 11
241.792113447199
 21
397.259903244808
 31
0.0
  0
LINE
  5
   1FD
  8
0
  6
CONTINUOUS
 62
     7
 10
241.792113447199
 20
397.259903244808
 30
0.0
 11
238.894335973988
 21
398.036360401227
 31
0.0
  0
TEXT
  5
   1FE
  8
0
  6
CONTINUOUS
 62
     7
 10
230.543095156413
 20
398.259903244808
 30
0.0
 40
2.99999997871263
  1
25
 41
0.933333333333333
 72
     1
 11
233.043095138674
 21
399.759903234164
 31
0.0
 73
     2
  0
ENDBLK
  5
   1FF
  8
0
  6
CONTINUOUS
 62
     7
  0
BLOCK
  5
   200
  8
0
  6
CONTINUOUS
 62
     7
  2
*UDIM2308
 70
    65
 10
0.0
 20
0.0
 30
0.0
  3
*UDIM2308
  0
LINE
  5
   201
  8
0
  6
CONTINUOUS
 62
     7
 10
277.792113274369
 20
287.638647645712
 30
0.0
 11
311.480086920084
 21
287.638647645712
 31
0.0
  0
LINE
  5
   202
  8
0
  6
CONTINUOUS
 62
     7
 10
277.792113274369
 20
319.13864710927
 30
0.0
 11
311.480086920084
 21
319.13864710927
 31
0.0
  0
LINE
  5
   203
  8
0
  6
CONTINUOUS
 62
     7
 10
309.480086920084
 20
287.638647645712
 30
0.0
 11
309.480086920084
 21
319.13864710927
 31
0.0
  0
LINE
  5
   204
  8
0
  6
CONTINUOUS
 62
     7
 10
308.703629763666
 20
290.536425118923
 30
0.0
 11
309.480086920084
 21
287.638647645712
 31
0.0
  0
LINE
  5
   205
  8
0
  6
CONTINUOUS
 62
     7
 10
309.480086920084
 20
287.638647645712
 30
0.0
 11
310.256544076503
 21
290.536425118923
 31
0.0
  0
LINE
  5
   206
  8
0
  6
CONTINUOUS
 62
     7
 10
310.256544076503
 20
316.24086963606
 30
0.0
 11
309.480086920084
 21
319.13864710927
 31
0.0
  0
LINE
  5
   207
  8
0
  6
CONTINUOUS
 62
     7
 10
309.480086920084
 20
319.13864710927
 30
0.0
 11
308.703629763666
 21
316.24086963606
 31
0.0
  0
TEXT
  5
   208
  8
0
  6
CONTINUOUS
 62
     7
 10
308.480086920087
 20
300.888647395232
 30
0.0
 40
2.99999997871263
  1
45
 50
90.0
 41
0.933333333333333
 72
     1
 11
306.980086930728
 21
303.388647377491
 31
0.0
 73
     2
  0
ENDBLK
  5
   209
  8
0
  6
CONTINUOUS
 62
     7
  0
BLOCK
  5
   20A
  8
0
  6
CONTINUOUS
 62
     7
  2
*HATCH2031
 70
    65
 10
0.0
 20
0.0
 30
0.0
  3
*HATCH2031
  0
LINE
  5
   20B
  8
0
  6
CONTINUOUS
 62
    52
 10
102.701088466644
 20
340.69864353776
 30
0.0
 11
102.701083126068
 21
273.778645745516
 31
0.0
  0
LINE
  5
   20C
  8
0
  6
CONTINUOUS
 62
    52
 10
103.961087911129
 20
340.69864353776
 30
0.0
 11
103.961082570553
 21
273.778645745516
 31
0.0
  0
LINE
  5
   20D
  8
0
  6
CONTINUOUS
 62
    52
 10
105.221087355614
 20
340.69864353776
 30
0.0
 11
105.221082015038
 21
273.778645745516
 31
0.0
  0
ENDBLK
  5
   20E
  8
0
  6
CONTINUOUS
 62
     7
  0
BLOCK
  5
   20F
  8
0
  6
CONTINUOUS
 62
     7
  2
*HATCH2032
 70
    65
 10
0.0
 20
0.0
 30
0.0
  3
*HATCH2032
  0
LINE
  5
   210
  8
0
  6
CONTINUOUS
 62
    52
 10
160.661089615822
 20
340.69864353776
 30
0.0
 11
160.661084275246
 21
273.778645745516
 31
0.0
  0
LINE
  5
   211
  8
0
  6
CONTINUOUS
 62
    52
 10
161.921089060307
 20
340.69864353776
 30
0.0
 11
161.92108371973
 21
273.778645745516
 31
0.0
  0
LINE
  5
   212
  8
0
  6
CONTINUOUS
 62
    52
 10
163.181088504791
 20
340.69864353776
 30
0.0
 11
163.181083164215
 21
273.778645745516
 31
0.0
  0
LINE
  5
   213
  8
0
  6
CONTINUOUS
 62
    52
 10
164.441087949276
 20
340.69864353776
 30
0.0
 11
164.4410826087
 21
273.778645745516
 31
0.0
  0
ENDBLK
  5
   214
  8
0
  6
CONTINUOUS
 62
     7
  0
BLOCK
  5
   215
  8
0
  6
CONTINUOUS
 62
     7
  2
*UDIM2309
 70
    65
 10
0.0
 20
0.0
 30
0.0
  3
*UDIM2309
  0
LINE
  5
   216
  8
0
  6
CONTINUOUS
 62
     7
 10
159.191086088337
 20
391.013645902276
 30
0.0
 11
159.191086088337
 21
407.403736077808
 31
0.0
  0
LINE
  5
   217
  8
0
  6
CONTINUOUS
 62
     7
 10
180.191085730691
 20
391.013645902276
 30
0.0
 11
180.191085730691
 21
407.403736077808
 31
0.0
  0
LINE
  5
   218
  8
0
  6
CONTINUOUS
 62
     7
 10
159.191086088337
 20
405.403736077808
 30
0.0
 11
180.191085730691
 21
405.403736077808
 31
0.0
  0
LINE
  5
   219
  8
0
  6
CONTINUOUS
 62
     7
 10
162.088863561547
 20
406.180193234227
 30
0.0
 11
159.191086088337
 21
405.403736077808
 31
0.0
  0
LINE
  5
   21A
  8
0
  6
CONTINUOUS
 62
     7
 10
159.191086088337
 20
405.403736077808
 30
0.0
 11
162.088863561547
 21
404.62727892139
 31
0.0
  0
LINE
  5
   21B
  8
0
  6
CONTINUOUS
 62
     7
 10
177.293308257481
 20
404.62727892139
 30
0.0
 11
180.191085730691
 21
405.403736077808
 31
0.0
  0
LINE
  5
   21C
  8
0
  6
CONTINUOUS
 62
     7
 10
180.191085730691
 20
405.403736077808
 30
0.0
 11
177.293308257481
 21
406.180193234227
 31
0.0
  0
TEXT
  5
   21D
  8
0
  6
CONTINUOUS
 62
     7
 10
167.191085927253
 20
406.403736077808
 30
0.0
 40
2.99999997871263
  1
30
 41
0.933333333333333
 72
     1
 11
169.691085909514
 21
407.903736067165
 31
0.0
 73
     2
  0
TEXT
  5
   21E
  8
0
  6
CONTINUOUS
 62
     7
 10
165.791085937188
 20
402.403736099096
 30
0.0
 40
2.99999997871263
  1
= =
 41
0.933333333333333
 72
     1
 11
169.691085909514
 21
403.903736088452
 31
0.0
 73
     2
  0
ENDBLK
  5
   21F
  8
0
  6
CONTINUOUS
 62
     7
  0
BLOCK
  5
   220
  8
0
  6
CONTINUOUS
 62
     7
  2
*UDIM2310
 70
    65
 10
0.0
 20
0.0
 30
0.0
  3
*UDIM2310
  0
LINE
  5
   221
  8
0
  6
CONTINUOUS
 62
     7
 10
122.441086748603
 20
391.013645902276
 30
0.0
 11
122.441086748603
 21
405.109354810876
 31
0.0
  0
LINE
  5
   222
  8
0
  6
CONTINUOUS
 62
     7
 10
143.441086390976
 20
391.013645902276
 30
0.0
 11
143.441086390976
 21
405.109354810876
 31
0.0
  0
LINE
  5
   223
  8
0
  6
CONTINUOUS
 62
     7
 10
122.441086748603
 20
403.109354810876
 30
0.0
 11
143.441086390976
 21
403.109354810876
 31
0.0
  0
LINE
  5
   224
  8
0
  6
CONTINUOUS
 62
     7
 10
125.338864221814
 20
403.885811967295
 30
0.0
 11
122.441086748603
 21
403.109354810876
 31
0.0
  0
LINE
  5
   225
  8
0
  6
CONTINUOUS
 62
     7
 10
122.441086748603
 20
403.109354810876
 30
0.0
 11
125.338864221814
 21
402.332897654458
 31
0.0
  0
LINE
  5
   226
  8
0
  6
CONTINUOUS
 62
     7
 10
140.543308917765
 20
402.332897654458
 30
0.0
 11
143.441086390976
 21
403.109354810876
 31
0.0
  0
LINE
  5
   227
  8
0
  6
CONTINUOUS
 62
     7
 10
143.441086390976
 20
403.109354810876
 30
0.0
 11
140.543308917765
 21
403.885811967295
 31
0.0
  0
TEXT
  5
   228
  8
0
  6
CONTINUOUS
 62
     7
 10
130.441086587529
 20
404.109354810876
 30
0.0
 40
2.99999997871263
  1
30
 41
0.933333333333333
 72
     1
 11
132.941086569789
 21
405.609354800232
 31
0.0
 73
     2
  0
TEXT
  5
   229
  8
0
  6
CONTINUOUS
 62
     7
 10
129.041086597463
 20
400.109354832164
 30
0.0
 40
2.99999997871263
  1
= =
 41
0.933333333333333
 72
     1
 11
132.941086569789
 21
401.60935482152
 31
0.0
 73
     2
  0
ENDBLK
  5
   22A
  8
0
  6
CONTINUOUS
 62
     7
  0
BLOCK
  5
   22B
  8
0
  6
CONTINUOUS
 62
     7
  2
*UDIM2311
 70
    65
 10
0.0
 20
0.0
 30
0.0
  3
*UDIM2311
  0
LINE
  5
   22C
  8
0
  6
CONTINUOUS
 62
     7
 10
85.6910873400342
 20
391.013645902276
 30
0.0
 11
85.6910873400342
 21
407.403736077808
 31
0.0
  0
LINE
  5
   22D
  8
0
  6
CONTINUOUS
 62
     7
 10
106.691086982406
 20
391.013645902276
 30
0.0
 11
106.691086982406
 21
407.403736077808
 31
0.0
  0
LINE
  5
   22E
  8
0
  6
CONTINUOUS
 62
     7
 10
85.6910873400342
 20
405.403736077808
 30
0.0
 11
106.691086982406
 21
405.403736077808
 31
0.0
  0
LINE
  5
   22F
  8
0
  6
CONTINUOUS
 62
     7
 10
88.5888648132447
 20
406.180193234227
 30
0.0
 11
85.6910873400342
 21
405.403736077808
 31
0.0
  0
LINE
  5
   230
  8
0
  6
CONTINUOUS
 62
     7
 10
85.6910873400342
 20
405.403736077808
 30
0.0
 11
88.5888648132447
 21
404.62727892139
 31
0.0
  0
LINE
  5
   231
  8
0
  6
CONTINUOUS
 62
     7
 10
103.793309509196
 20
404.62727892139
 30
0.0
 11
106.691086982406
 21
405.403736077808
 31
0.0
  0
LINE
  5
   232
  8
0
  6
CONTINUOUS
 62
     7
 10
106.691086982406
 20
405.403736077808
 30
0.0
 11
103.793309509196
 21
406.180193234227
 31
0.0
  0
TEXT
  5
   233
  8
0
  6
CONTINUOUS
 62
     7
 10
93.6910871789597
 20
406.403736077808
 30
0.0
 40
2.99999997871263
  1
30
 41
0.933333333333333
 72
     1
 11
96.1910871612203
 21
407.903736067165
 31
0.0
 73
     2
  0
TEXT
  5
   234
  8
0
  6
CONTINUOUS
 62
     7
 10
92.2910871888939
 20
402.403736099096
 30
0.0
 40
2.99999997871263
  1
= =
 41
0.933333333333333
 72
     1
 11
96.1910871612203
 21
403.903736088452
 31
0.0
 73
     2
  0
ENDBLK
  5
   235
  8
0
  6
CONTINUOUS
 62
     7
  0
BLOCK
  5
   236
  8
0
  6
CONTINUOUS
 62
     7
  2
*UDIM2312
 70
    65
 10
0.0
 20
0.0
 30
0.0
  3
*UDIM2312
  0
LINE
  5
   237
  8
0
  6
CONTINUOUS
 62
     7
 10
102.191086322069
 20
352.73864653707
 30
0.0
 11
74.0107595361644
 21
352.73864653707
 31
0.0
  0
LINE
  5
   238
  8
0
  6
CONTINUOUS
 62
     7
 10
124.241086614132
 20
392.813641996836
 30
0.0
 11
74.0107595361644
 21
392.813642155034
 31
0.0
  0
LINE
  5
   239
  8
0
  6
CONTINUOUS
 62
     7
 10
76.0107595361644
 20
352.73864653707
 30
0.0
 11
76.0107595361644
 21
392.813642148735
 31
0.0
  0
LINE
  5
   23A
  8
0
  6
CONTINUOUS
 62
     7
 10
75.2343023797459
 20
355.636424010281
 30
0.0
 11
76.0107595361644
 21
352.73864653707
 31
0.0
  0
LINE
  5
   23B
  8
0
  6
CONTINUOUS
 62
     7
 10
76.0107595361644
 20
352.73864653707
 30
0.0
 11
76.787216692583
 21
355.636424010281
 31
0.0
  0
LINE
  5
   23C
  8
0
  6
CONTINUOUS
 62
     7
 10
76.787216692583
 20
389.915864675524
 30
0.0
 11
76.0107595361644
 21
392.813642148735
 31
0.0
  0
LINE
  5
   23D
  8
0
  6
CONTINUOUS
 62
     7
 10
76.0107595361644
 20
392.813642148735
 30
0.0
 11
75.2343023797459
 21
389.915864675524
 31
0.0
  0
TEXT
  5
   23E
  8
0
  6
CONTINUOUS
 62
     7
 10
75.0107595361728
 20
366.076144390446
 30
0.0
 40
2.99999997871263
  1
57,25
 50
90.0
 41
0.933333333333333
 72
     1
 11
73.5107595468081
 21
372.776144342902
 31
0.0
 73
     2
  0
ENDBLK
  5
   23F
  8
0
  6
CONTINUOUS
 62
     7
  0
BLOCK
  5
   240
  8
0
  6
CONTINUOUS
 62
     7
  2
*UDIM2313
 70
    65
 10
0.0
 20
0.0
 30
0.0
  3
*UDIM2313
  0
LINE
  5
   241
  8
0
  6
CONTINUOUS
 62
     7
 10
92.791098319819
 20
307.238645324018
 30
0.0
 11
82.7515856742353
 21
307.238645324018
 31
0.0
  0
LINE
  5
   242
  8
0
  6
CONTINUOUS
 62
     7
 10
102.191086322069
 20
352.73864653707
 30
0.0
 11
82.7515856742353
 21
352.73864653707
 31
0.0
  0
LINE
  5
   243
  8
0
  6
CONTINUOUS
 62
     7
 10
84.7515856742353
 20
307.238645324018
 30
0.0
 11
84.7515856742353
 21
352.73864653707
 31
0.0
  0
LINE
  5
   244
  8
0
  6
CONTINUOUS
 62
     7
 10
83.9751285178168
 20
310.136422797228
 30
0.0
 11
84.7515856742353
 21
307.238645324018
 31
0.0
  0
LINE
  5
   245
  8
0
  6
CONTINUOUS
 62
     7
 10
84.7515856742353
 20
307.238645324018
 30
0.0
 11
85.5280428306538
 21
310.136422797228
 31
0.0
  0
LINE
  5
   246
  8
0
  6
CONTINUOUS
 62
     7
 10
85.5280428306538
 20
349.840869063859
 30
0.0
 11
84.7515856742353
 21
352.73864653707
 31
0.0
  0
LINE
  5
   247
  8
0
  6
CONTINUOUS
 62
     7
 10
84.7515856742353
 20
352.73864653707
 30
0.0
 11
83.9751285178168
 21
349.840869063859
 31
0.0
  0
TEXT
  5
   248
  8
0
  6
CONTINUOUS
 62
     7
 10
83.7515856742384
 20
327.488645948285
 30
0.0
 40
2.99999997871263
  1
65
 50
90.0
 41
0.933333333333333
 72
     1
 11
82.251585684879
 21
329.988645930544
 31
0.0
 73
     2
  0
ENDBLK
  5
   249
  8
0
  6
CONTINUOUS
 62
     7
  0
BLOCK
  5
   24A
  8
0
  6
CONTINUOUS
 62
     7
  2
*UDIM2314
 70
    65
 10
0.0
 20
0.0
 30
0.0
  3
*UDIM2314
  0
LINE
  5
   24B
  8
0
  6
CONTINUOUS
 62
     7
 10
102.191086322069
 20
261.738644115447
 30
0.0
 11
74.0107595361644
 21
261.738644241753
 31
0.0
  0
LINE
  5
   24C
  8
0
  6
CONTINUOUS
 62
     7
 10
102.191086322069
 20
352.73864653707
 30
0.0
 11
74.0107595361644
 21
352.73864653707
 31
0.0
  0
LINE
  5
   24D
  8
0
  6
CONTINUOUS
 62
     7
 10
76.0107595361644
 20
261.738644232789
 30
0.0
 11
76.0107595361644
 21
352.73864653707
 31
0.0
  0
LINE
  5
   24E
  8
0
  6
CONTINUOUS
 62
     7
 10
75.2343023797459
 20
264.636421705999
 30
0.0
 11
76.0107595361644
 21
261.738644232789
 31
0.0
  0
LINE
  5
   24F
  8
0
  6
CONTINUOUS
 62
     7
 10
76.0107595361644
 20
261.738644232789
 30
0.0
 11
76.787216692583
 21
264.636421705999
 31
0.0
  0
LINE
  5
   250
  8
0
  6
CONTINUOUS
 62
     7
 10
76.787216692583
 20
349.840869063859
 30
0.0
 11
76.0107595361644
 21
352.73864653707
 31
0.0
  0
LINE
  5
   251
  8
0
  6
CONTINUOUS
 62
     7
 10
76.0107595361644
 20
352.73864653707
 30
0.0
 11
75.2343023797459
 21
349.840869063859
 31
0.0
  0
TEXT
  5
   252
  8
0
  6
CONTINUOUS
 62
     7
 10
75.0107595361693
 20
303.338645412605
 30
0.0
 40
2.99999997871263
  1
130
 50
90.0
 41
0.933333333333333
 72
     1
 11
73.5107595468081
 21
307.238645384929
 31
0.0
 73
     2
  0
ENDBLK
  5
   253
  8
0
  6
CONTINUOUS
 62
     7
  0
BLOCK
  5
   254
  8
0
  6
CONTINUOUS
 62
     7
  2
*UDIM2315
 70
    65
 10
0.0
 20
0.0
 30
0.0
  3
*UDIM2315
  0
LINE
  5
   255
  8
0
  6
CONTINUOUS
 62
     7
 10
132.94108581543
 20
404.013351845851
 30
0.0
 11
132.94108581543
 21
416.787206410281
 31
0.0
  0
LINE
  5
   256
  8
0
  6
CONTINUOUS
 62
     7
 10
169.691086053421
 20
387.723641596893
 30
0.0
 11
169.691086053421
 21
416.787206410281
 31
0.0
  0
LINE
  5
   257
  8
0
  6
CONTINUOUS
 62
     7
 10
132.94108581543
 20
414.787206410281
 30
0.0
 11
169.691086053421
 21
414.787206410281
 31
0.0
  0
LINE
  5
   258
  8
0
  6
CONTINUOUS
 62
     7
 10
135.83886328864
 20
415.563663566699
 30
0.0
 11
132.94108581543
 21
414.787206410281
 31
0.0
  0
LINE
  5
   259
  8
0
  6
CONTINUOUS
 62
     7
 10
132.94108581543
 20
414.787206410281
 30
0.0
 11
135.83886328864
 21
414.010749253862
 31
0.0
  0
LINE
  5
   25A
  8
0
  6
CONTINUOUS
 62
     7
 10
166.793308580211
 20
414.010749253862
 30
0.0
 11
169.691086053421
 21
414.787206410281
 31
0.0
  0
LINE
  5
   25B
  8
0
  6
CONTINUOUS
 62
     7
 10
169.691086053421
 20
414.787206410281
 30
0.0
 11
166.793308580211
 21
415.563663566699
 31
0.0
  0
TEXT
  5
   25C
  8
0
  6
CONTINUOUS
 62
     7
 10
148.976576243729
 20
415.787206410281
 30
0.0
 40
2.99999997871263
  1
52,5
 41
0.933333333333333
 72
     1
 11
154.276576206122
 21
417.287206399637
 31
0.0
 73
     2
  0
ENDBLK
  5
   25D
  8
0
  6
CONTINUOUS
 62
     7
  0
BLOCK
  5
   25E
  8
0
  6
CONTINUOUS
 62
     7
  2
*UDIM2316
 70
    65
 10
0.0
 20
0.0
 30
0.0
  3
*UDIM2316
  0
LINE
  5
   25F
  8
0
  6
CONTINUOUS
 62
     7
 10
96.1910873051186
 20
387.723642442611
 30
0.0
 11
96.1910873051186
 21
416.787206410281
 31
0.0
  0
LINE
  5
   260
  8
0
  6
CONTINUOUS
 62
     7
 10
132.94108581543
 20
404.013351845851
 30
0.0
 11
132.94108581543
 21
416.787206410281
 31
0.0
  0
LINE
  5
   261
  8
0
  6
CONTINUOUS
 62
     7
 10
96.1910873051186
 20
414.787206410281
 30
0.0
 11
132.94108581543
 21
414.787206410281
 31
0.0
  0
LINE
  5
   262
  8
0
  6
CONTINUOUS
 62
     7
 10
99.0888647783292
 20
415.563663566699
 30
0.0
 11
96.1910873051186
 21
414.787206410281
 31
0.0
  0
LINE
  5
   263
  8
0
  6
CONTINUOUS
 62
     7
 10
96.1910873051186
 20
414.787206410281
 30
0.0
 11
99.0888647783292
 21
414.010749253862
 31
0.0
  0
LINE
  5
   264
  8
0
  6
CONTINUOUS
 62
     7
 10
130.043308342219
 20
414.010749253862
 30
0.0
 11
132.94108581543
 21
414.787206410281
 31
0.0
  0
LINE
  5
   265
  8
0
  6
CONTINUOUS
 62
     7
 10
132.94108581543
 20
414.787206410281
 30
0.0
 11
130.043308342219
 21
415.563663566699
 31
0.0
  0
TEXT
  5
   266
  8
0
  6
CONTINUOUS
 62
     7
 10
106.022715023401
 20
415.787206410281
 30
0.0
 40
2.99999997871263
  1
52,5
 41
0.933333333333333
 72
     1
 11
111.322714985793
 21
417.287206399637
 31
0.0
 73
     2
  0
ENDBLK
  5
   267
  8
0
  6
CONTINUOUS
 62
     7
  0
BLOCK
  5
   268
  8
0
  6
CONTINUOUS
 62
     7
  2
*UDIM2317
 70
    65
 10
0.0
 20
0.0
 30
0.0
  3
*UDIM2317
  0
LINE
  5
   269
  8
0
  6
CONTINUOUS
 62
     7
 10
85.6910873400342
 20
391.013645902276
 30
0.0
 11
85.6910873400342
 21
424.708948800637
 31
0.0
  0
LINE
  5
   26A
  8
0
  6
CONTINUOUS
 62
     7
 10
180.191085730691
 20
391.013645902276
 30
0.0
 11
180.191085730691
 21
424.708948800637
 31
0.0
  0
LINE
  5
   26B
  8
0
  6
CONTINUOUS
 62
     7
 10
85.6910873400342
 20
422.708948800637
 30
0.0
 11
180.191085730691
 21
422.708948800637
 31
0.0
  0
LINE
  5
   26C
  8
0
  6
CONTINUOUS
 62
     7
 10
88.5888648132447
 20
423.485405957056
 30
0.0
 11
85.6910873400342
 21
422.708948800637
 31
0.0
  0
LINE
  5
   26D
  8
0
  6
CONTINUOUS
 62
     7
 10
85.6910873400342
 20
422.708948800637
 30
0.0
 11
88.5888648132447
 21
421.932491644219
 31
0.0
  0
LINE
  5
   26E
  8
0
  6
CONTINUOUS
 62
     7
 10
177.293308257481
 20
421.932491644219
 30
0.0
 11
180.191085730691
 21
422.708948800637
 31
0.0
  0
LINE
  5
   26F
  8
0
  6
CONTINUOUS
 62
     7
 10
180.191085730691
 20
422.708948800637
 30
0.0
 11
177.293308257481
 21
423.485405957056
 31
0.0
  0
TEXT
  5
   270
  8
0
  6
CONTINUOUS
 62
     7
 10
129.041086563036
 20
423.708948800637
 30
0.0
 40
2.99999997871263
  1
135
 41
0.933333333333333
 72
     1
 11
132.941086535363
 21
425.208948789994
 31
0.0
 73
     2
  0
ENDBLK
  5
   271
  8
0
  6
CONTINUOUS
 62
     7
  0
BLOCK
  5
   272
  8
0
  6
CONTINUOUS
 62
     7
  2
*UDIM2318
 70
    65
 10
0.0
 20
0.0
 30
0.0
  3
*UDIM2318
  0
LINE
  5
   273
  8
0
  6
CONTINUOUS
 62
     7
 10
119.328411084123
 20
212.785362468161
 30
0.0
 11
74.0107595361644
 21
212.785362468161
 31
0.0
  0
LINE
  5
   274
  8
0
  6
CONTINUOUS
 62
     7
 10
102.191086322069
 20
261.738644110965
 30
0.0
 11
74.0107595361644
 21
261.738644110965
 31
0.0
  0
LINE
  5
   275
  8
0
  6
CONTINUOUS
 62
     7
 10
76.0107595361644
 20
212.785362468161
 30
0.0
 11
76.0107595361644
 21
261.738644110965
 31
0.0
  0
LINE
  5
   276
  8
0
  6
CONTINUOUS
 62
     7
 10
75.2343023797459
 20
215.683139941372
 30
0.0
 11
76.0107595361644
 21
212.785362468161
 31
0.0
  0
LINE
  5
   277
  8
0
  6
CONTINUOUS
 62
     7
 10
76.0107595361644
 20
212.785362468161
 30
0.0
 11
76.787216692583
 21
215.683139941372
 31
0.0
  0
LINE
  5
   278
  8
0
  6
CONTINUOUS
 62
     7
 10
76.787216692583
 20
258.840866637754
 30
0.0
 11
76.0107595361644
 21
261.738644110965
 31
0.0
  0
LINE
  5
   279
  8
0
  6
CONTINUOUS
 62
     7
 10
76.0107595361644
 20
261.738644110965
 30
0.0
 11
75.2343023797459
 21
258.840866637754
 31
0.0
  0
TEXT
  5
   27A
  8
0
  6
CONTINUOUS
 62
     7
 10
75.0107595361746
 20
229.162003347041
 30
0.0
 40
2.99999997871263
  1
(±200)
 50
90.0
 41
0.933333333333333
 72
     1
 11
73.5107595468081
 21
237.262003289563
 31
0.0
 73
     2
  0
ENDBLK
  5
   27B
  8
0
  6
CONTINUOUS
 62
     7
  0
BLOCK
  5
   27C
  8
0
  6
CONTINUOUS
 62
     7
  2
*UDIM2319
 70
    65
 10
0.0
 20
0.0
 30
0.0
  3
*UDIM2319
  0
LINE
  5
   27D
  8
0
  6
CONTINUOUS
 62
     7
 10
163.48850671886
 20
238.228600711336
 30
0.0
 11
190.376146020111
 21
211.937559690955
 31
0.0
  0
LINE
  5
   27E
  8
0
  6
CONTINUOUS
 62
     7
 10
164.448740121491
 20
236.203711311797
 30
0.0
 11
167.063479926623
 21
234.732951048716
 31
0.0
  0
LINE
  5
   27F
  8
0
  6
CONTINUOUS
 62
     7
 10
167.063479926623
 20
234.732951048716
 30
0.0
 11
165.53442900024
 21
237.314036724266
 31
0.0
  0
LINE
  5
   280
  8
0
  6
CONTINUOUS
 62
     7
 10
174.933430257671
 20
228.123585869094
 30
0.0
 11
172.318690452539
 21
229.594346132175
 31
0.0
  0
LINE
  5
   281
  8
0
  6
CONTINUOUS
 62
     7
 10
172.318690452539
 20
229.594346132175
 30
0.0
 11
173.847741378922
 21
227.013260456625
 31
0.0
  0
TEXT
  5
   282
  8
0
  6
CONTINUOUS
 62
     7
 10
183.496332805944
 20
220.063331564655
 30
0.0
 40
2.99999997871263
  1
10,5
 50
315.642760019314
 41
0.933333333333333
 72
     1
 11
188.33449927064
 21
217.430434903311
 31
0.0
 73
     2
  0
TEXT
  5
   283
  8
0
  6
CONTINUOUS
 62
     7
 10
180.636354254965
 20
222.859851279881
 30
0.0
 40
2.99999997871263
  1
Ø
 50
315.642760019314
 41
1.2
 72
     1
 11
182.757541101029
 21
222.883648343264
 31
0.0
 73
     2
  0
ENDBLK
  5
   284
  8
0
  6
CONTINUOUS
 62
     7
  0
BLOCK
  5
   285
  8
0
  6
CONTINUOUS
 62
     7
  2
*UDIM2320
 70
    65
 10
0.0
 20
0.0
 30
0.0
  3
*UDIM2320
  0
LINE
  5
   286
  8
0
  6
CONTINUOUS
 62
     7
 10
106.271086269621
 20
320.13864710927
 30
0.0
 11
106.271086269621
 21
331.625766933785
 31
0.0
  0
LINE
  5
   287
  8
0
  6
CONTINUOUS
 62
     7
 10
159.611085361242
 20
320.13864710927
 30
0.0
 11
159.611085361242
 21
331.625766933785
 31
0.0
  0
LINE
  5
   288
  8
0
  6
CONTINUOUS
 62
     7
 10
106.271086269621
 20
329.625766933785
 30
0.0
 11
159.611085361242
 21
329.625766933785
 31
0.0
  0
LINE
  5
   289
  8
0
  6
CONTINUOUS
 62
     7
 10
109.168863742832
 20
330.402224090204
 30
0.0
 11
106.271086269621
 21
329.625766933785
 31
0.0
  0
LINE
  5
   28A
  8
0
  6
CONTINUOUS
 62
     7
 10
106.271086269621
 20
329.625766933785
 30
0.0
 11
109.168863742832
 21
328.849309777367
 31
0.0
  0
LINE
  5
   28B
  8
0
  6
CONTINUOUS
 62
     7
 10
156.713307888032
 20
328.849309777367
 30
0.0
 11
159.611085361242
 21
329.625766933785
 31
0.0
  0
LINE
  5
   28C
  8
0
  6
CONTINUOUS
 62
     7
 10
159.611085361242
 20
329.625766933785
 30
0.0
 11
156.713307888032
 21
330.402224090204
 31
0.0
  0
TEXT
  5
   28D
  8
0
  6
CONTINUOUS
 62
     7
 10
127.64108585304
 20
330.625766933785
 30
0.0
 40
2.99999997871263
  1
76,2
 41
0.933333333333333
 72
     1
 11
132.941085815432
 21
332.125766923142
 31
0.0
 73
     2
  0
TEXT
  5
   28E
  8
0
  6
CONTINUOUS
 62
     7
 10
129.041085843105
 20
326.625766955073
 30
0.0
 40
2.99999997871263
  1
= =
 41
0.933333333333333
 72
     1
 11
132.941085815432
 21
328.125766944429
 31
0.0
 73
     2
  0
ENDBLK
  5
   28F
  8
0
  6
CONTINUOUS
 62
     7
  0
ENDSEC
  0
SECTION
  2
ENTITIES
  0
TEXT
  5
   290
  8
0
  6
CONTINUOUS
 62
     1
 10
380.074226799612
 20
178.820598544478
 30
0.0
 40
2.00000008940697
  1
FIXED VER.SPREADED EXTENDED FRONT TERM.
 41
0.749999861419206
 72
     1
 11
409.174222719674
 21
179.820598589182
 31
0.0
 73
     2
  0
TEXT
  5
   291
  8
0
  6
CONTINUOUS
 62
     1
 10
382.324226222184
 20
181.820598544478
 30
0.0
 40
2.00000008940697
  1
3POLE LOW VOLTAGE M.C.C.B SERIES "T"
 41
0.749999861419206
 72
     1
 11
409.174222457405
 21
182.820598589181
 31
0.0
 73
     2
  0
TEXT
  5
   292
  8
0
  6
CONTINUOUS
 62
     1
 10
369.526620218162
 20
170.750347079634
 30
0.0
 40
2.00000008940697
  1
TRIPOL. ESECUZIONE FISSA TERM. ANT. PROL.DIVAR.
 41
0.749999861419206
 72
     1
 11
404.626615297798
 21
171.750347124338
 31
0.0
 73
     2
  0
TEXT
  5
   293
  8
0
  6
CONTINUOUS
 62
     1
 10
384.52661785483
 20
173.750347079634
 30
0.0
 40
2.00000008940697
  1
INTERR.AUTOMATICO SERIE "T"
 41
0.749999861419206
 72
     1
 11
404.62661503553
 21
174.750347124338
 31
0.0
 73
     2
  0
TEXT
  5
   294
  8
0
  6
CONTINUOUS
 62
     1
 10
294.521838147504
 20
165.657107055732
 30
0.0
 40
2.00000008940697
  1
N0030 00-02-14
 41
0.799999960511924
  0
TEXT
  5
   295
  8
0
  6
CONTINUOUS
 62
     1
 10
389.522953208293
 20
154.528760430265
 30
0.0
 40
4.00000017881393
  1
RH0012.108
 41
0.937499973922969
 72
     2
 11
426.272953808064
 21
154.528760430265
 31
0.0
  0
TEXT
  5
   296
  8
0
  6
CONTINUOUS
 62
     1
 10
407.608646523956
 20
163.510357089645
 30
0.0
 40
3.00000002980232
  1
T2
 41
0.916666604744064
 72
     2
 11
412.558646234377
 21
163.510357089645
 31
0.0
  0
INSERT
  5
   297
  8
255
  6
CONTINUOUS
 62
     7
  2
$1TABELL
 10
-9.22860275861596
 20
220.77637681319
 30
0.0
  0
LINE
  5
   298
  8
0
  6
DASHDOT
 62
     7
 10
372.365893161189
 20
348.860345214605
 30
0.0
 11
375.978029799428
 21
348.860345214605
 31
0.0
  0
LINE
  5
   299
  8
0
  6
DASHDOT
 62
     7
 10
361.524131976366
 20
391.660345852375
 30
0.0
 11
364.91213203603
 21
391.660345852375
 31
0.0
  0
LINE
  5
   29A
  8
0
  6
CONTINUOUS
 62
     7
 10
359.204131945968
 20
395.66034591198
 30
0.0
 11
377.204132214189
 21
395.66034591198
 31
0.0
  0
LINE
  5
   29B
  8
0
  6
CONTINUOUS
 62
     7
 10
359.204131945968
 20
344.860345155001
 30
0.0
 11
359.204131945968
 21
395.66034591198
 31
0.0
  0
LINE
  5
   29C
  8
0
  6
CONTINUOUS
 62
     7
 10
359.204131945968
 20
344.860345155001
 30
0.0
 11
377.204132214189
 21
344.860345155001
 31
0.0
  0
LINE
  5
   29D
  8
0
  6
CONTINUOUS
 62
     7
 10
377.204132214189
 20
344.860345155001
 30
0.0
 11
377.204132214189
 21
395.66034591198
 31
0.0
  0
CIRCLE
  5
   29E
  8
0
  6
CONTINUOUS
 62
     7
 10
362.204131990671
 20
391.660345852375
 30
0.0
 40
0.900000013411045
  0
LINE
  5
   29F
  8
0
  6
DASHDOT
 62
     7
 10
368.204132080078
 20
339.634840008222
 30
0.0
 11
368.204132080078
 21
405.814445941107
 31
0.0
  0
LINE
  5
   2A0
  8
0
  6
DASHDOT
 62
     7
 10
355.581696953258
 20
370.26034553349
 30
0.0
 11
386.239147867099
 21
370.26034553349
 31
0.0
  0
LINE
  5
   2A1
  8
0
  6
DASHDOT
 62
     7
 10
368.204132080078
 20
410.109206123305
 30
0.0
 11
368.204132080078
 21
414.012208087695
 31
0.0
  0
TEXT
  5
   2A2
  8
0
  6
CONTINUOUS
 62
     7
 10
365.59266224143
 20
412.44925646844
 30
0.0
 40
2.99999994933605
  1
Y
 41
0.933333333333333
 72
     1
 11
366.692662222854
 21
413.949256443108
 31
0.0
 73
     2
  0
TEXT
  5
   2A3
  8
0
  6
CONTINUOUS
 62
     7
 10
365.40380730767
 20
338.323694967315
 30
0.0
 40
2.99999994933605
  1
Y
 41
0.933333333333333
 72
     1
 11
366.503807289093
 21
339.823694941983
 31
0.0
 73
     2
  0
TEXT
  5
   2A4
  8
0
  6
CONTINUOUS
 62
     7
 10
383.187646903481
 20
370.806743574178
 30
0.0
 40
2.99999994933605
  1
X
 41
0.933333333333333
 72
     1
 11
384.287646884904
 21
372.306743548846
 31
0.0
 73
     2
  0
TEXT
  5
   2A5
  8
0
  6
CONTINUOUS
 62
     7
 10
354.07251128202
 20
370.64936446271
 30
0.0
 40
2.99999994933605
  1
X
 41
0.933333333333333
 72
     1
 11
355.172511263443
 21
372.149364437378
 31
0.0
 73
     2
  0
INSERT
  5
   2A6
  8
0
  6
CONTINUOUS
 62
     7
  2
*UDIM2284
 10
0.0
 20
0.0
 30
0.0
  0
INSERT
  5
   2A7
  8
0
  6
CONTINUOUS
 62
     7
  2
*UDIM2285
 10
0.0
 20
0.0
 30
0.0
  0
INSERT
  5
   2A8
  8
0
  6
CONTINUOUS
 62
     7
  2
*UDIM2286
 10
0.0
 20
0.0
 30
0.0
  0
CIRCLE
  5
   2A9
  8
0
  6
CONTINUOUS
 62
     7
 10
374.204138510157
 20
348.860343046265
 30
0.0
 40
0.840000012516968
  0
ARC
  5
   2AA
  8
0
  6
CONTINUOUS
 62
     7
 10
374.204132169667
 20
348.860345214419
 30
0.0
 40
0.84000001277772
 50
133.582415663913
 51
135.087354211886
  0
ARC
  5
   2AB
  8
0
  6
CONTINUOUS
 62
     7
 10
374.204132169486
 20
348.860345214605
 30
0.0
 40
0.840000012517573
 50
157.73540214664
 51
180.048159683871
  0
ARC
  5
   2AC
  8
0
  6
CONTINUOUS
 62
     7
 10
374.204132169485
 20
348.860345214605
 30
0.0
 40
0.840000012516655
 50
211.48269378862
 51
225.058061512451
  0
ARC
  5
   2AD
  8
0
  6
CONTINUOUS
 62
     7
 10
374.204132169485
 20
348.860345214605
 30
0.0
 40
0.840000012516958
 50
270.000052039572
 51
347.793766916019
  0
LINE
  5
   2AE
  8
0
  6
DASHDOT
 62
     7
 10
360.812131966472
 20
391.660345852375
 30
0.0
 11
363.619332015908
 21
391.660345852375
 31
0.0
  0
LINE
  5
   2AF
  8
0
  6
DASHDOT
 62
     7
 10
361.196131973147
 20
391.660345852375
 30
0.0
 11
363.228932008946
 21
391.660345852375
 31
0.0
  0
LINE
  5
   2B0
  8
0
  6
DASHDOT
 62
     7
 10
362.204131990671
 20
390.652345834851
 30
0.0
 11
362.204131990671
 21
392.668345869899
 31
0.0
  0
LINE
  5
   2B1
  8
0
  6
DASHDOT
 62
     7
 10
360.524131961465
 20
391.660345852375
 30
0.0
 11
363.912132021129
 21
391.660345852375
 31
0.0
  0
LINE
  5
   2B2
  8
0
  6
DASHDOT
 62
     7
 10
372.812138485957
 20
348.860343046265
 30
0.0
 11
375.619338535393
 21
348.860343046265
 31
0.0
  0
LINE
  5
   2B3
  8
0
  6
DASHDOT
 62
     7
 10
374.204138510157
 20
347.468343022065
 30
0.0
 11
374.204138510157
 21
350.252343070464
 31
0.0
  0
LINE
  5
   2B4
  8
0
  6
DASHDOT
 62
     7
 10
373.196138492633
 20
348.860343046265
 30
0.0
 11
375.228938528431
 21
348.860343046265
 31
0.0
  0
LINE
  5
   2B5
  8
0
  6
DASHDOT
 62
     7
 10
374.204138510157
 20
347.852343028741
 30
0.0
 11
374.204138510157
 21
349.868343063788
 31
0.0
  0
LINE
  5
   2B6
  8
0
  6
DASHDOT
 62
     7
 10
361.196138313819
 20
348.860343046265
 30
0.0
 11
363.228938349617
 21
348.860343046265
 31
0.0
  0
LINE
  5
   2B7
  8
0
  6
DASHDOT
 62
     7
 10
374.204138510157
 20
347.180343017058
 30
0.0
 11
374.204138510157
 21
350.540343075471
 31
0.0
  0
LINE
  5
   2B8
  8
0
  6
DASHDOT
 62
     7
 10
361.196131973147
 20
391.660345852375
 30
0.0
 11
363.228932008946
 21
391.660345852375
 31
0.0
  0
LINE
  5
   2B9
  8
0
  6
DASHDOT
 62
     7
 10
362.204131990671
 20
390.652345834852
 30
0.0
 11
362.204131990671
 21
392.668345869899
 31
0.0
  0
LINE
  5
   2BA
  8
0
  6
DASHDOT
 62
     7
 10
361.196131973147
 20
391.660345852375
 30
0.0
 11
363.228932008946
 21
391.660345852375
 31
0.0
  0
LINE
  5
   2BB
  8
0
  6
DASHDOT
 62
     7
 10
362.204131990671
 20
390.652345834852
 30
0.0
 11
362.204131990671
 21
392.668345869899
 31
0.0
  0
LINE
  5
   2BC
  8
0
  6
DASHDOT
 62
     7
 10
362.204131990671
 20
389.638641964352
 30
0.0
 11
362.204131990671
 21
393.855259322658
 31
0.0
  0
LINE
  5
   2BD
  8
0
  6
DASHDOT
 62
     7
 10
357.304131917656
 20
391.660345852375
 30
0.0
 11
364.689002365349
 21
391.660345852375
 31
0.0
  0
INSERT
  5
   2BE
  8
0
  6
CONTINUOUS
 62
     7
  2
*UDIM2287
 10
0.0
 20
0.0
 30
0.0
  0
LINE
  5
   2BF
  8
0
  6
CONTINUOUS
 62
     3
 10
387.797304788144
 20
320.651306837797
 30
0.0
 11
420.997304672513
 21
320.651306837797
 31
0.0
  0
LINE
  5
   2C0
  8
0
  6
CONTINUOUS
 62
     3
 10
387.797304177794
 20
297.45130649209
 30
0.0
 11
387.797304177794
 21
320.651306837797
 31
0.0
  0
LINE
  5
   2C1
  8
0
  6
CONTINUOUS
 62
     3
 10
387.797304788144
 20
297.45130649209
 30
0.0
 11
420.997304672513
 21
297.45130649209
 31
0.0
  0
INSERT
  5
   2C2
  8
0
  6
CONTINUOUS
 62
     7
  2
*UDIM2288
 10
0.0
 20
0.0
 30
0.0
  0
LINE
  5
   2C3
  8
0
  6
CONTINUOUS
 62
     3
 10
420.997304672513
 20
297.45130649209
 30
0.0
 11
420.997304672513
 21
320.651306837797
 31
0.0
  0
INSERT
  5
   2C4
  8
0
  6
CONTINUOUS
 62
     7
  2
*UDIM2289
 10
0.0
 20
0.0
 30
0.0
  0
LINE
  5
   2C5
  8
0
  6
CONTINUOUS
 62
     7
 10
383.79730411819
 20
324.651306897402
 30
0.0
 11
424.997304732118
 21
324.651306897402
 31
0.0
  0
LINE
  5
   2C6
  8
0
  6
CONTINUOUS
 62
     7
 10
424.997304732118
 20
293.451306432486
 30
0.0
 11
424.997304732118
 21
324.651306897402
 31
0.0
  0
LINE
  5
   2C7
  8
0
  6
CONTINUOUS
 62
     7
 10
383.79730411819
 20
293.451306432486
 30
0.0
 11
383.79730411819
 21
324.651306897402
 31
0.0
  0
LINE
  5
   2C8
  8
0
  6
CONTINUOUS
 62
     7
 10
383.79730411819
 20
293.451306432486
 30
0.0
 11
424.997304732118
 21
293.451306432486
 31
0.0
  0
LINE
  5
   2C9
  8
0
  6
DASHDOT
 62
     7
 10
381.311992428029
 20
311.251306697726
 30
0.0
 11
432.814706195042
 21
311.251306697726
 31
0.0
  0
INSERT
  5
   2CA
  8
0
  6
CONTINUOUS
 62
     7
  2
*UDIM2290
 10
0.0
 20
0.0
 30
0.0
  0
LINE
  5
   2CB
  8
0
  6
DASHDOT
 62
     7
 10
404.397304425154
 20
286.800366146802
 30
0.0
 11
404.397304425154
 21
337.427637098858
 31
0.0
  0
TEXT
  5
   2CC
  8
0
  6
CONTINUOUS
 62
     7
 10
428.906869346254
 20
311.777539582209
 30
0.0
 40
2.99999994933605
  1
X
 41
0.933333333333333
 72
     1
 11
430.006869327677
 21
313.277539556877
 31
0.0
 73
     2
  0
TEXT
  5
   2CD
  8
0
  6
CONTINUOUS
 62
     7
 10
401.427780582671
 20
288.125437713601
 30
0.0
 40
2.99999994933605
  1
Y
 41
0.933333333333333
 72
     1
 11
402.527780564095
 21
289.625437688269
 31
0.0
 73
     2
  0
TEXT
  5
   2CE
  8
0
  6
CONTINUOUS
 62
     7
 10
379.21473780454
 20
311.777539582209
 30
0.0
 40
2.99999994933605
  1
X
 41
0.933333333333333
 72
     1
 11
380.314737785963
 21
313.277539556877
 31
0.0
 73
     2
  0
TEXT
  5
   2CF
  8
0
  6
CONTINUOUS
 62
     7
 10
401.764108420108
 20
328.411180252334
 30
0.0
 40
2.99999994933605
  1
Y
 41
0.933333333333333
 72
     1
 11
402.864108401531
 21
329.911180227002
 31
0.0
 73
     2
  0
LINE
  5
   2D0
  8
0
  6
CONTINUOUS
 62
   252
 10
120.169729162197
 20
189.505951598287
 30
0.0
 11
145.712471699796
 21
189.505951598287
 31
0.0
  0
LINE
  5
   2D1
  8
0
  6
CONTINUOUS
 62
   252
 10
120.169729772261
 20
189.105951592326
 30
0.0
 11
120.169729772261
 21
189.505951598287
 31
0.0
  0
LINE
  5
   2D2
  8
0
  6
CONTINUOUS
 62
   252
 10
145.712471852673
 20
189.105951592326
 30
0.0
 11
145.712471852673
 21
189.505951598287
 31
0.0
  0
LINE
  5
   2D3
  8
0
  6
CONTINUOUS
 62
   252
 10
120.169729162197
 20
189.105951592326
 30
0.0
 11
145.712471699796
 21
189.105951592326
 31
0.0
  0
LINE
  5
   2D4
  8
0
  6
CONTINUOUS
 62
   252
 10
145.712471852673
 20
189.505951598287
 30
0.0
 11
145.712471852673
 21
194.505951672792
 31
0.0
  0
LINE
  5
   2D5
  8
0
  6
CONTINUOUS
 62
   252
 10
120.169729772261
 20
189.505951598287
 30
0.0
 11
120.169729772261
 21
194.505951672792
 31
0.0
  0
LINE
  5
   2D6
  8
0
  6
CONTINUOUS
 62
   252
 10
118.901089006574
 20
163.305951207876
 30
0.0
 11
146.981088967235
 21
163.305951207876
 31
0.0
  0
LINE
  5
   2D7
  8
0
  6
CONTINUOUS
 62
   252
 10
146.981088967235
 20
163.305951207876
 30
0.0
 11
148.112459719262
 21
163.305951207876
 31
0.0
  0
LINE
  5
   2D8
  8
0
  6
CONTINUOUS
 62
   252
 10
148.112459719262
 20
163.305951207876
 30
0.0
 11
148.781088803322
 21
163.305951207876
 31
0.0
  0
LINE
  5
   2D9
  8
0
  6
CONTINUOUS
 62
   252
 10
148.112459681404
 20
163.305951207876
 30
0.0
 11
148.112459681404
 21
169.305951297283
 31
0.0
  0
LINE
  5
   2DA
  8
0
  6
CONTINUOUS
 62
   252
 10
148.112459681404
 20
188.505951583385
 30
0.0
 11
148.112459681404
 21
194.505951672792
 31
0.0
  0
LINE
  5
   2DB
  8
0
  6
CONTINUOUS
 62
   252
 10
148.781088803322
 20
163.305951207876
 30
0.0
 11
148.981088806302
 21
163.305951207876
 31
0.0
  0
LINE
  5
   2DC
  8
0
  6
CONTINUOUS
 62
   252
 10
148.781088841469
 20
163.305951207876
 30
0.0
 11
148.781088841469
 21
169.305951297283
 31
0.0
  0
LINE
  5
   2DD
  8
0
  6
CONTINUOUS
 62
   252
 10
148.781088841469
 20
188.505951583385
 30
0.0
 11
148.781088841469
 21
194.505951672792
 31
0.0
  0
LINE
  5
   2DE
  8
0
  6
CONTINUOUS
 62
   252
 10
148.981088806302
 20
163.305951207876
 30
0.0
 11
150.381088862927
 21
163.305951207876
 31
0.0
  0
LINE
  5
   2DF
  8
0
  6
CONTINUOUS
 62
   252
 10
150.381088862927
 20
163.305951207876
 30
0.0
 11
150.581088865907
 21
163.305951207876
 31
0.0
  0
LINE
  5
   2E0
  8
0
  6
CONTINUOUS
 62
   252
 10
150.581088868291
 20
163.305951207876
 30
0.0
 11
150.581088868291
 21
194.505951672792
 31
0.0
  0
LINE
  5
   2E1
  8
0
  6
CONTINUOUS
 62
   252
 10
115.30108895293
 20
163.305951207876
 30
0.0
 11
115.50108895591
 21
163.305951207876
 31
0.0
  0
LINE
  5
   2E2
  8
0
  6
CONTINUOUS
 62
   252
 10
115.301088342581
 20
163.305951207876
 30
0.0
 11
115.301088342581
 21
194.505951672792
 31
0.0
  0
LINE
  5
   2E3
  8
0
  6
CONTINUOUS
 62
   252
 10
115.50108895591
 20
163.305951207876
 30
0.0
 11
116.901088976772
 21
163.305951207876
 31
0.0
  0
LINE
  5
   2E4
  8
0
  6
CONTINUOUS
 62
   252
 10
116.901088976772
 20
163.305951207876
 30
0.0
 11
117.101088979752
 21
163.305951207876
 31
0.0
  0
LINE
  5
   2E5
  8
0
  6
CONTINUOUS
 62
   252
 10
117.101088979752
 20
163.305951207876
 30
0.0
 11
117.769716919403
 21
163.305951207876
 31
0.0
  0
LINE
  5
   2E6
  8
0
  6
CONTINUOUS
 62
   252
 10
117.101088369403
 20
188.505951583385
 30
0.0
 11
117.101088369403
 21
194.505951672792
 31
0.0
  0
LINE
  5
   2E7
  8
0
  6
CONTINUOUS
 62
   252
 10
117.101088369403
 20
163.305951207876
 30
0.0
 11
117.101088369403
 21
169.305951297283
 31
0.0
  0
LINE
  5
   2E8
  8
0
  6
CONTINUOUS
 62
   252
 10
117.769716919403
 20
163.305951207876
 30
0.0
 11
118.901089006574
 21
163.305951207876
 31
0.0
  0
LINE
  5
   2E9
  8
0
  6
CONTINUOUS
 62
   252
 10
117.769717529468
 20
188.505951583385
 30
0.0
 11
117.769717529468
 21
194.505951672792
 31
0.0
  0
LINE
  5
   2EA
  8
0
  6
CONTINUOUS
 62
   252
 10
117.769717529282
 20
163.305951207876
 30
0.0
 11
117.769717529282
 21
169.305951297283
 31
0.0
  0
LINE
  5
   2EB
  8
0
  6
CONTINUOUS
 62
   252
 10
120.169729162197
 20
194.505951672792
 30
0.0
 11
145.712471699796
 21
194.505951672792
 31
0.0
  0
LINE
  5
   2EC
  8
0
  6
CONTINUOUS
 62
   252
 10
145.712471699796
 20
194.505951672792
 30
0.0
 11
146.981088967235
 21
194.505951672792
 31
0.0
  0
LINE
  5
   2ED
  8
0
  6
CONTINUOUS
 62
   252
 10
118.901089006574
 20
194.505951672792
 30
0.0
 11
120.169729162197
 21
194.505951672792
 31
0.0
  0
LINE
  5
   2EE
  8
0
  6
CONTINUOUS
 62
   252
 10
146.981088967235
 20
194.505951672792
 30
0.0
 11
148.112459719262
 21
194.505951672792
 31
0.0
  0
LINE
  5
   2EF
  8
0
  6
CONTINUOUS
 62
   252
 10
148.112459719262
 20
194.505951672792
 30
0.0
 11
148.781088803322
 21
194.505951672792
 31
0.0
  0
LINE
  5
   2F0
  8
0
  6
CONTINUOUS
 62
   252
 10
148.781088803322
 20
194.505951672792
 30
0.0
 11
148.981088806302
 21
194.505951672792
 31
0.0
  0
LINE
  5
   2F1
  8
0
  6
CONTINUOUS
 62
   252
 10
148.981088806302
 20
194.505951672792
 30
0.0
 11
150.381088862927
 21
194.505951672792
 31
0.0
  0
LINE
  5
   2F2
  8
0
  6
CONTINUOUS
 62
   252
 10
150.381088862927
 20
194.505951672792
 30
0.0
 11
150.581088865907
 21
194.505951672792
 31
0.0
  0
LINE
  5
   2F3
  8
0
  6
CONTINUOUS
 62
   252
 10
115.30108895293
 20
194.505951672792
 30
0.0
 11
115.50108895591
 21
194.505951672792
 31
0.0
  0
LINE
  5
   2F4
  8
0
  6
CONTINUOUS
 62
   252
 10
115.50108895591
 20
194.505951672792
 30
0.0
 11
116.901088976772
 21
194.505951672792
 31
0.0
  0
LINE
  5
   2F5
  8
0
  6
CONTINUOUS
 62
   252
 10
116.901088976772
 20
194.505951672792
 30
0.0
 11
117.101088979752
 21
194.505951672792
 31
0.0
  0
LINE
  5
   2F6
  8
0
  6
CONTINUOUS
 62
   252
 10
117.101088979752
 20
194.505951672792
 30
0.0
 11
117.769716919403
 21
194.505951672792
 31
0.0
  0
LINE
  5
   2F7
  8
0
  6
CONTINUOUS
 62
   252
 10
117.769716919403
 20
194.505951672792
 30
0.0
 11
118.901089006574
 21
194.505951672792
 31
0.0
  0
LINE
  5
   2F8
  8
0
  6
CONTINUOUS
 62
   252
 10
148.781088841469
 20
169.305951297283
 30
0.0
 11
148.781088841469
 21
188.505951583385
 31
0.0
  0
LINE
  5
   2F9
  8
0
  6
CONTINUOUS
 62
   252
 10
117.101088369403
 20
169.305951297283
 30
0.0
 11
117.101088369403
 21
188.505951583385
 31
0.0
  0
LINE
  5
   2FA
  8
0
  6
CONTINUOUS
 62
   252
 10
118.901089006574
 20
169.305951297283
 30
0.0
 11
146.981088967235
 21
169.305951297283
 31
0.0
  0
LINE
  5
   2FB
  8
0
  6
CONTINUOUS
 62
   252
 10
146.981088967235
 20
169.305951297283
 30
0.0
 11
148.112459719262
 21
169.305951297283
 31
0.0
  0
LINE
  5
   2FC
  8
0
  6
CONTINUOUS
 62
   252
 10
148.112459719262
 20
169.305951297283
 30
0.0
 11
148.781088803322
 21
169.305951297283
 31
0.0
  0
LINE
  5
   2FD
  8
0
  6
CONTINUOUS
 62
   252
 10
117.101088979752
 20
169.305951297283
 30
0.0
 11
117.769716919403
 21
169.305951297283
 31
0.0
  0
LINE
  5
   2FE
  8
0
  6
CONTINUOUS
 62
   252
 10
117.769716919403
 20
169.305951297283
 30
0.0
 11
118.901089006574
 21
169.305951297283
 31
0.0
  0
LINE
  5
   2FF
  8
0
  6
CONTINUOUS
 62
   252
 10
118.901089006574
 20
188.505951583385
 30
0.0
 11
146.981088967235
 21
188.505951583385
 31
0.0
  0
LINE
  5
   300
  8
0
  6
CONTINUOUS
 62
   252
 10
146.981088967235
 20
188.505951583385
 30
0.0
 11
148.112459719262
 21
188.505951583385
 31
0.0
  0
LINE
  5
   301
  8
0
  6
CONTINUOUS
 62
   252
 10
148.112459719262
 20
188.505951583385
 30
0.0
 11
148.781088803322
 21
188.505951583385
 31
0.0
  0
LINE
  5
   302
  8
0
  6
CONTINUOUS
 62
   252
 10
117.101088979752
 20
188.505951583385
 30
0.0
 11
117.769716919403
 21
188.505951583385
 31
0.0
  0
LINE
  5
   303
  8
0
  6
CONTINUOUS
 62
   252
 10
117.769716919403
 20
188.505951583385
 30
0.0
 11
118.901089006574
 21
188.505951583385
 31
0.0
  0
LINE
  5
   304
  8
0
  6
DASHDOT
 62
     7
 10
132.941088605436
 20
157.136533791922
 30
0.0
 11
132.941088605436
 21
204.725019182432
 31
0.0
  0
TEXT
  5
   305
  8
0
  6
CONTINUOUS
 62
     7
 10
129.406289798065
 20
196.263110996205
 30
0.0
 40
2.99999994933605
  1
Y
 41
0.933333333333333
 72
     1
 11
130.506289779488
 21
197.763110970873
 31
0.0
 73
     2
  0
TEXT
  5
   306
  8
0
  6
CONTINUOUS
 62
     7
 10
129.673200017038
 20
158.584285084446
 30
0.0
 40
2.99999994933605
  1
Y
 41
0.933333333333333
 72
     1
 11
130.773199998461
 21
160.084285059114
 31
0.0
 73
     2
  0
LINE
  5
   307
  8
0
  6
DASHDOT
 62
     7
 10
109.130994571964
 20
181.105951473117
 30
0.0
 11
157.693384731465
 21
181.105951473117
 31
0.0
  0
TEXT
  5
   308
  8
0
  6
CONTINUOUS
 62
     7
 10
109.11983741923
 20
181.768761705775
 30
0.0
 40
2.99999994933605
  1
X
 41
0.933333333333333
 72
     1
 11
110.219837400653
 21
183.268761680443
 31
0.0
 73
     2
  0
TEXT
  5
   309
  8
0
  6
CONTINUOUS
 62
     7
 10
154.851236224141
 20
181.768761705775
 30
0.0
 40
2.99999994933605
  1
X
 41
0.933333333333333
 72
     1
 11
155.951236205564
 21
183.268761680443
 31
0.0
 73
     2
  0
INSERT
  5
   30A
  8
0
  6
CONTINUOUS
 62
     7
  2
*UDIM2291
 10
0.0
 20
0.0
 30
0.0
  0
INSERT
  5
   30B
  8
0
  6
CONTINUOUS
 62
     7
  2
*UDIM2292
 10
0.0
 20
0.0
 30
0.0
  0
INSERT
  5
   30C
  8
0
  6
CONTINUOUS
 62
     7
  2
*UDIM2293
 10
0.0
 20
0.0
 30
0.0
  0
LINE
  5
   30D
  8
0
  6
DASHDOT
 62
     7
 10
224.292114168468
 20
257.888090877175
 30
0.0
 11
224.292114168468
 21
357.416444936068
 31
0.0
  0
LINE
  5
   30E
  8
0
  6
CONTINUOUS
 62
   253
 10
224.292114168468
 20
281.338647753
 30
0.0
 11
224.292114168468
 21
300.938647419214
 31
0.0
  0
LINE
  5
   30F
  8
0
  6
CONTINUOUS
 62
     2
 10
271.190150708056
 20
319.138647109271
 30
0.0
 11
277.490150600768
 21
319.138647109271
 31
0.0
  0
LINE
  5
   310
  8
0
  6
CONTINUOUS
 62
     2
 10
271.190150708056
 20
287.638647645712
 30
0.0
 11
277.490150600768
 21
287.638647645712
 31
0.0
  0
LINE
  5
   311
  8
0
  6
DASHDOT
 62
     7
 10
222.192114204231
 20
258.558813299213
 30
0.0
 11
222.192114204231
 21
357.73903529202
 31
0.0
  0
LINE
  5
   312
  8
0
  6
CONTINUOUS
 62
     7
 10
220.822772440432
 20
357.949385984652
 30
0.0
 11
226.033025152214
 21
357.149015839167
 31
0.0
  0
LINE
  5
   313
  8
0
  6
CONTINUOUS
 62
     7
 10
221.049836264596
 20
258.923647317956
 30
0.0
 11
225.462173492281
 21
257.514383716718
 31
0.0
  0
LINE
  5
   314
  8
0
  6
CONTINUOUS
 62
   252
 10
280.640149721432
 20
276.088647842407
 30
0.0
 11
281.340150535203
 21
276.088647842407
 31
0.0
  0
LINE
  5
   315
  8
0
  6
CONTINUOUS
 62
   252
 10
281.690149703551
 20
276.088647842407
 30
0.0
 11
281.690149703551
 21
330.688646912575
 31
0.0
  0
LINE
  5
   316
  8
0
  6
CONTINUOUS
 62
   252
 10
281.340150535203
 20
276.088647842407
 30
0.0
 11
282.390150517322
 21
276.088647842407
 31
0.0
  0
LINE
  5
   317
  8
0
  6
CONTINUOUS
 62
   252
 10
282.390149691628
 20
276.088647842407
 30
0.0
 11
282.390149691628
 21
286.588647663593
 31
0.0
  0
LINE
  5
   318
  8
0
  6
CONTINUOUS
 62
   252
 10
282.390149691628
 20
320.188647091389
 30
0.0
 11
282.390149691628
 21
330.688646912575
 31
0.0
  0
LINE
  5
   319
  8
0
  6
CONTINUOUS
 62
   252
 10
280.640149721432
 20
330.688646912575
 30
0.0
 11
281.340150535203
 21
330.688646912575
 31
0.0
  0
LINE
  5
   31A
  8
0
  6
CONTINUOUS
 62
   252
 10
281.340150535203
 20
330.688646912575
 30
0.0
 11
282.390150517321
 21
330.688646912575
 31
0.0
  0
LINE
  5
   31B
  8
0
  6
CONTINUOUS
 62
   252
 10
281.690149703551
 20
286.588647663593
 30
0.0
 11
282.390150517322
 21
286.588647663593
 31
0.0
  0
LINE
  5
   31C
  8
0
  6
CONTINUOUS
 62
   252
 10
281.690149703551
 20
320.188647091389
 30
0.0
 11
282.390150517321
 21
320.188647091389
 31
0.0
  0
LINE
  5
   31D
  8
0
  6
CONTINUOUS
 62
     3
 10
280.640149721432
 20
268.1140822309
 30
0.0
 11
280.640149721432
 21
343.871895418913
 31
0.0
  0
LINE
  5
   31E
  8
0
  6
CONTINUOUS
 62
     3
 10
279.240149745274
 20
268.601038744346
 30
0.0
 11
279.240149745274
 21
344.571895406992
 31
0.0
  0
LINE
  5
   31F
  8
0
  6
CONTINUOUS
 62
     7
 10
277.542124001634
 20
345.420908278813
 30
0.0
 11
281.850978249222
 21
343.266481155019
 31
0.0
  0
LINE
  5
   320
  8
0
  6
CONTINUOUS
 62
     7
 10
278.145363596296
 20
268.9818339266
 30
0.0
 11
282.109509504077
 21
267.603000567372
 31
0.0
  0
INSERT
  5
   321
  8
0
  6
CONTINUOUS
 62
     7
  2
*UDIM2294
 10
0.0
 20
0.0
 30
0.0
  0
LINE
  5
   322
  8
0
  6
DASHDOT
 62
     7
 10
216.822906696086
 20
307.238647311926
 30
0.0
 11
298.571528370845
 21
307.238647311926
 31
0.0
  0
INSERT
  5
   323
  8
0
  6
CONTINUOUS
 62
     7
  2
*UDIM2295
 10
0.0
 20
0.0
 30
0.0
  0
INSERT
  5
   324
  8
255
  6
CONTINUOUS
 62
     7
  2
DADO
 10
222.192114204231
 20
344.688646674156
 30
0.0
 41
0.699999988079071
 42
0.699999988079071
 43
0.699999988079071
  0
INSERT
  5
   325
  8
255
  6
CONTINUOUS
 62
     7
  2
DADO
 10
222.192114204231
 20
269.78864794618
 30
0.0
 41
0.699999988079071
 42
0.699999988079071
 43
0.699999988079071
  0
TEXT
  5
   326
  8
0
  6
CONTINUOUS
 62
     7
 10
217.256251450078
 20
307.767208525537
 30
0.0
 40
2.99999997871263
  1
X
 41
0.933333333333333
 72
     1
 11
218.356251442273
 21
309.267208514893
 31
0.0
 73
     2
  0
INSERT
  5
   327
  8
0
  6
CONTINUOUS
 62
     7
  2
*UDIM2296
 10
0.0
 20
0.0
 30
0.0
  0
LINE
  5
   328
  8
0
  6
CONTINUOUS
 62
     7
 10
273.292112508282
 20
319.13864710927
 30
0.0
 11
273.292112508282
 21
340.698646208048
 31
0.0
  0
LINE
  5
   329
  8
0
  6
CONTINUOUS
 62
     7
 10
278.892112412914
 20
287.638647645712
 30
0.0
 11
278.892112412914
 21
319.13864710927
 31
0.0
  0
LINE
  5
   32A
  8
0
  6
CONTINUOUS
 62
     7
 10
221.245943807289
 20
334.01364685595
 30
0.0
 11
264.892113477025
 21
334.01364685595
 31
0.0
  0
LINE
  5
   32B
  8
0
  6
CONTINUOUS
 62
     7
 10
264.892113477025
 20
334.01364685595
 30
0.0
 11
264.892113477025
 21
357.62445310267
 31
0.0
  0
LINE
  5
   32C
  8
0
  6
CONTINUOUS
 62
     7
 10
264.892113477025
 20
256.852837928817
 30
0.0
 11
264.892113477025
 21
280.463643762469
 31
0.0
  0
LINE
  5
   32D
  8
0
  6
CONTINUOUS
 62
     7
 10
222.289386186917
 20
280.463643762469
 30
0.0
 11
264.892113477025
 21
280.463643762469
 31
0.0
  0
LINE
  5
   32E
  8
0
  6
CONTINUOUS
 62
     7
 10
231.004057025689
 20
271.685644215101
 30
0.0
 11
241.504056846875
 21
271.685644215101
 31
0.0
  0
LINE
  5
   32F
  8
0
  6
CONTINUOUS
 62
     7
 10
231.004057025689
 20
268.241643878301
 30
0.0
 11
241.504056846875
 21
268.241643878301
 31
0.0
  0
LINE
  5
   330
  8
0
  6
CONTINUOUS
 62
     7
 10
231.382056294334
 20
267.863644187882
 30
0.0
 11
231.382056294334
 21
272.063644116357
 31
0.0
  0
INSERT
  5
   331
  8
0
  6
CONTINUOUS
 62
     7
  2
*UDIM2297
 10
0.0
 20
0.0
 30
0.0
  0
LINE
  5
   332
  8
0
  6
CONTINUOUS
 62
     7
 10
231.382056294334
 20
342.413646712899
 30
0.0
 11
231.382056294334
 21
346.613646641373
 31
0.0
  0
LINE
  5
   333
  8
0
  6
CONTINUOUS
 62
     7
 10
231.004057025689
 20
346.235646740118
 30
0.0
 11
241.504056846875
 21
346.235646740118
 31
0.0
  0
LINE
  5
   334
  8
0
  6
CONTINUOUS
 62
     7
 10
231.004057025689
 20
342.791646403318
 30
0.0
 11
241.504056846875
 21
342.791646403318
 31
0.0
  0
ARC
  5
   335
  8
0
  6
DASHDOT
 62
     7
 10
254.742112824187
 20
303.878647369146
 30
0.0
 40
40.9480375746456
 50
341.646738215609
 51
375.744270154323
  0
INSERT
  5
   336
  8
0
  6
CONTINUOUS
 62
     7
  2
*UDIM2298
 10
0.0
 20
0.0
 30
0.0
  0
INSERT
  5
   337
  8
0
  6
CONTINUOUS
 62
     7
  2
*UDIM2299
 10
0.0
 20
0.0
 30
0.0
  0
INSERT
  5
   338
  8
0
  6
CONTINUOUS
 62
     7
  2
*UDIM2300
 10
0.0
 20
0.0
 30
0.0
  0
LINE
  5
   339
  8
0
  6
CONTINUOUS
 62
     1
 10
254.042112326655
 20
275.0932365587
 30
0.0
 11
254.217112323675
 21
275.038645190001
 31
0.0
  0
LINE
  5
   33A
  8
0
  6
CONTINUOUS
 62
   212
 10
224.294076830149
 20
422.659391195932
 30
0.0
 11
271.894076019526
 21
422.659391195932
 31
0.0
  0
LINE
  5
   33B
  8
0
  6
CONTINUOUS
 62
     3
 10
255.442112302814
 20
340.426063204877
 30
0.0
 11
255.540943668623
 21
340.426063204877
 31
0.0
  0
LINE
  5
   33C
  8
0
  6
CONTINUOUS
 62
   212
 10
293.126569381683
 20
317.061379910808
 30
0.0
 11
293.874664100541
 21
314.060938169493
 31
0.0
  0
LINE
  5
   33D
  8
0
  6
CONTINUOUS
 62
   212
 10
286.031165740469
 20
316.584533692457
 30
0.0
 11
292.337859902416
 21
317.583415917595
 31
0.0
  0
LINE
  5
   33E
  8
0
  6
CONTINUOUS
 62
   212
 10
282.392113002156
 20
309.905779781213
 30
0.0
 11
287.385928448951
 21
311.15087781313
 31
0.0
  0
LINE
  5
   33F
  8
0
  6
CONTINUOUS
 62
   212
 10
286.031157639392
 20
316.58453231564
 30
0.0
 11
286.170855849411
 21
315.897932009896
 31
0.0
  0
LINE
  5
   340
  8
0
  6
CONTINUOUS
 62
   212
 10
282.392113043515
 20
315.677216017597
 30
0.0
 11
286.03116574742
 21
316.584533760503
 31
0.0
  0
ARC
  5
   341
  8
0
  6
CONTINUOUS
 62
   212
 10
293.195456975766
 20
313.891593357344
 30
0.0
 40
0.699999988078472
 50
288.999920112223
 51
373.999956812471
  0
LINE
  5
   342
  8
0
  6
CONTINUOUS
 62
   212
 10
287.385928494868
 20
311.150877816627
 30
0.0
 11
293.423353757269
 21
313.229730047644
 31
0.0
  0
LINE
  5
   343
  8
0
  6
CONTINUOUS
 62
   212
 10
287.186928616847
 20
311.822690984735
 30
0.0
 11
287.385921422633
 21
311.150876264566
 31
0.0
  0
ARC
  5
   344
  8
0
  6
CONTINUOUS
 62
   212
 10
292.447362565898
 20
316.892033859367
 30
0.0
 40
0.699999988078984
 50
14.0000613554684
 51
98.9998789886
  0
LINE
  5
   345
  8
0
  6
CONTINUOUS
 62
     7
 10
278.892112412914
 20
287.638647645712
 30
0.0
 11
278.892112412914
 21
319.13864710927
 31
0.0
  0
LINE
  5
   346
  8
0
  6
CONTINUOUS
 62
     7
 10
273.292112508282
 20
319.13864710927
 30
0.0
 11
273.292112508282
 21
340.698646208048
 31
0.0
  0
LINE
  5
   347
  8
0
  6
CONTINUOUS
 62
     7
 10
273.292112508282
 20
273.778648415804
 30
0.0
 11
273.292112508282
 21
287.638647645712
 31
0.0
  0
LINE
  5
   348
  8
0
  6
CONTINUOUS
 62
     7
 10
267.692113429341
 20
341.188646733761
 30
0.0
 11
270.702112844024
 21
341.188646733761
 31
0.0
  0
LINE
  5
   349
  8
0
  6
CONTINUOUS
 62
     7
 10
267.692112603649
 20
296.3886474967
 30
0.0
 11
267.692112603649
 21
305.138647347689
 31
0.0
  0
LINE
  5
   34A
  8
0
  6
CONTINUOUS
 62
     7
 10
267.692112603649
 20
290.788643586636
 30
0.0
 11
267.692112603649
 21
291.278647450209
 31
0.0
  0
LINE
  5
   34B
  8
0
  6
CONTINUOUS
 62
     7
 10
271.192113369737
 20
287.638647645712
 30
0.0
 11
276.792113274369
 21
287.638647645712
 31
0.0
  0
LINE
  5
   34C
  8
0
  6
CONTINUOUS
 62
     7
 10
271.192113369737
 20
319.13864710927
 30
0.0
 11
276.792113274369
 21
319.13864710927
 31
0.0
  0
LINE
  5
   34D
  8
0
  6
CONTINUOUS
 62
     7
 10
267.692113429341
 20
348.538646608591
 30
0.0
 11
271.192113369737
 21
348.538646608591
 31
0.0
  0
LINE
  5
   34E
  8
0
  6
CONTINUOUS
 62
     7
 10
281.690149703551
 20
288.688647627831
 30
0.0
 11
282.392113179002
 21
288.688647627831
 31
0.0
  0
LINE
  5
   34F
  8
0
  6
CONTINUOUS
 62
     7
 10
281.690149703551
 20
287.638647645712
 30
0.0
 11
282.392113179002
 21
287.638647645712
 31
0.0
  0
LINE
  5
   350
  8
0
  6
CONTINUOUS
 62
     7
 10
282.39211235331
 20
287.638647645712
 30
0.0
 11
282.39211235331
 21
288.688647627831
 31
0.0
  0
LINE
  5
   351
  8
0
  6
CONTINUOUS
 62
     7
 10
278.892113238606
 20
288.688647627831
 30
0.0
 11
279.240149745274
 21
288.688647627831
 31
0.0
  0
LINE
  5
   352
  8
0
  6
CONTINUOUS
 62
     7
 10
278.892113238606
 20
287.638647645713
 30
0.0
 11
279.240149745274
 21
287.638647645713
 31
0.0
  0
LINE
  5
   353
  8
0
  6
CONTINUOUS
 62
     7
 10
281.690149703551
 20
319.13864710927
 30
0.0
 11
282.392113179002
 21
319.13864710927
 31
0.0
  0
LINE
  5
   354
  8
0
  6
CONTINUOUS
 62
     7
 10
281.690149703551
 20
318.088647127151
 30
0.0
 11
282.392113179002
 21
318.088647127151
 31
0.0
  0
LINE
  5
   355
  8
0
  6
CONTINUOUS
 62
     7
 10
282.39211235331
 20
318.088647127152
 30
0.0
 11
282.39211235331
 21
319.13864710927
 31
0.0
  0
LINE
  5
   356
  8
0
  6
CONTINUOUS
 62
     7
 10
278.892113238606
 20
319.138647109271
 30
0.0
 11
279.240149745274
 21
319.138647109271
 31
0.0
  0
LINE
  5
   357
  8
0
  6
CONTINUOUS
 62
     7
 10
278.892113238606
 20
318.088647127152
 30
0.0
 11
279.240149745274
 21
318.088647127152
 31
0.0
  0
LINE
  5
   358
  8
0
  6
CONTINUOUS
 62
     7
 10
268.182111284766
 20
273.778647881746
 30
0.0
 11
271.192113369737
 21
273.778647881746
 31
0.0
  0
LINE
  5
   359
  8
0
  6
CONTINUOUS
 62
     7
 10
268.182111284766
 20
340.698646742105
 30
0.0
 11
271.192113369737
 21
340.698646742105
 31
0.0
  0
LINE
  5
   35A
  8
0
  6
CONTINUOUS
 62
     7
 10
268.182112595305
 20
273.778648415804
 30
0.0
 11
268.182112595305
 21
340.698646208048
 31
0.0
  0
LINE
  5
   35B
  8
0
  6
CONTINUOUS
 62
     7
 10
267.692113429341
 20
329.638646930461
 30
0.0
 11
268.182111284766
 21
329.638646930461
 31
0.0
  0
LINE
  5
   35C
  8
0
  6
CONTINUOUS
 62
     7
 10
267.692113429341
 20
338.03864678741
 30
0.0
 11
268.182111284766
 21
338.03864678741
 31
0.0
  0
LINE
  5
   35D
  8
0
  6
CONTINUOUS
 62
     7
 10
271.892112532124
 20
341.188646733761
 30
0.0
 11
271.892112532124
 21
348.538646608591
 31
0.0
  0
LINE
  5
   35E
  8
0
  6
CONTINUOUS
 62
     7
 10
271.192113369737
 20
348.538646608596
 30
0.0
 11
271.892113357816
 21
348.538646608596
 31
0.0
  0
LINE
  5
   35F
  8
0
  6
CONTINUOUS
 62
     7
 10
272.802112516627
 20
340.698646208048
 30
0.0
 11
272.802112516627
 21
341.188646733761
 31
0.0
  0
LINE
  5
   360
  8
0
  6
CONTINUOUS
 62
     7
 10
270.702112844024
 20
341.188646733761
 30
0.0
 11
272.802112808261
 21
341.188646733761
 31
0.0
  0
LINE
  5
   361
  8
0
  6
CONTINUOUS
 62
     7
 10
271.192113369737
 20
340.698646742105
 30
0.0
 11
273.256518394395
 21
340.698646742105
 31
0.0
  0
LINE
  5
   362
  8
0
  6
CONTINUOUS
 62
     7
 10
271.192113369737
 20
273.778647881746
 30
0.0
 11
273.256518394395
 21
273.778647881746
 31
0.0
  0
LINE
  5
   363
  8
0
  6
CONTINUOUS
 62
     7
 10
276.792113274369
 20
287.638647645712
 30
0.0
 11
278.856518299027
 21
287.638647645712
 31
0.0
  0
LINE
  5
   364
  8
0
  6
CONTINUOUS
 62
     7
 10
276.792113274369
 20
319.13864710927
 30
0.0
 11
278.856518299027
 21
319.13864710927
 31
0.0
  0
LINE
  5
   365
  8
0
  6
CONTINUOUS
 62
     7
 10
273.292112508282
 20
273.778648415804
 30
0.0
 11
273.292112508282
 21
287.638647645712
 31
0.0
  0
LINE
  5
   366
  8
0
  6
CONTINUOUS
 62
     7
 10
273.256518394395
 20
273.778647881746
 30
0.0
 11
273.292113333974
 21
273.778647881746
 31
0.0
  0
LINE
  5
   367
  8
0
  6
CONTINUOUS
 62
     7
 10
273.292112508282
 20
319.13864710927
 30
0.0
 11
273.292112508282
 21
340.698646208048
 31
0.0
  0
LINE
  5
   368
  8
0
  6
CONTINUOUS
 62
     7
 10
273.256518394395
 20
340.698646742105
 30
0.0
 11
273.292113333974
 21
340.698646742105
 31
0.0
  0
LINE
  5
   369
  8
0
  6
CONTINUOUS
 62
     7
 10
278.892112412914
 20
287.638647645712
 30
0.0
 11
278.892112412914
 21
319.13864710927
 31
0.0
  0
LINE
  5
   36A
  8
0
  6
CONTINUOUS
 62
     7
 10
278.856518299027
 20
287.638647645712
 30
0.0
 11
278.892113238606
 21
287.638647645712
 31
0.0
  0
LINE
  5
   36B
  8
0
  6
CONTINUOUS
 62
     7
 10
278.856518299027
 20
319.13864710927
 30
0.0
 11
278.892113238606
 21
319.13864710927
 31
0.0
  0
LINE
  5
   36C
  8
0
  6
CONTINUOUS
 62
     2
 10
261.042113795713
 20
277.313643816114
 30
0.0
 11
261.042113795713
 21
280.463643762469
 31
0.0
  0
LINE
  5
   36D
  8
0
  6
CONTINUOUS
 62
     7
 10
224.292113342747
 20
280.463643762469
 30
0.0
 11
224.292113342747
 21
283.788645040989
 31
0.0
  0
LINE
  5
   36E
  8
0
  6
CONTINUOUS
 62
     7
 10
237.24211312221
 20
290.788647592068
 30
0.0
 11
237.24211312221
 21
294.498647662401
 31
0.0
  0
LINE
  5
   36F
  8
0
  6
CONTINUOUS
 62
     7
 10
224.292113342748
 20
290.788647592068
 30
0.0
 11
224.292113342748
 21
294.498647662401
 31
0.0
  0
LINE
  5
   370
  8
0
  6
CONTINUOUS
 62
     7
 10
224.292114294304
 20
283.788645040989
 30
0.0
 11
224.292114294304
 21
290.788647592068
 31
0.0
  0
LINE
  5
   371
  8
0
  6
CONTINUOUS
 62
     7
 10
237.24211328033
 20
290.788646298573
 30
0.0
 11
255.302113106284
 21
290.788645214521
 31
0.0
  0
LINE
  5
   372
  8
0
  6
CONTINUOUS
 62
     7
 10
237.24211312221
 20
294.498647662401
 30
0.0
 11
237.24211312221
 21
294.988643848896
 31
0.0
  0
LINE
  5
   373
  8
0
  6
CONTINUOUS
 62
     7
 10
224.292113342748
 20
294.498647662401
 30
0.0
 11
224.292113342748
 21
294.988643848896
 31
0.0
  0
LINE
  5
   374
  8
0
  6
CONTINUOUS
 62
     7
 10
224.292112833295
 20
294.498647528887
 30
0.0
 11
237.24211328033
 21
294.498647528887
 31
0.0
  0
LINE
  5
   375
  8
0
  6
CONTINUOUS
 62
     2
 10
235.935896534866
 20
278.363643964031
 30
0.0
 11
237.242114324047
 21
278.01364396228
 31
0.0
  0
LINE
  5
   376
  8
0
  6
CONTINUOUS
 62
     2
 10
225.342114150558
 20
278.363644009068
 30
0.0
 11
235.935896490441
 21
278.363644009068
 31
0.0
  0
LINE
  5
   377
  8
0
  6
CONTINUOUS
 62
     2
 10
225.34211440368
 20
278.363643798232
 30
0.0
 11
225.34211440368
 21
279.76364377439
 31
0.0
  0
LINE
  5
   378
  8
0
  6
CONTINUOUS
 62
     2
 10
225.342114150558
 20
279.763643985227
 30
0.0
 11
226.485895983801
 21
279.763643985227
 31
0.0
  0
LINE
  5
   379
  8
0
  6
CONTINUOUS
 62
     2
 10
226.485895967528
 20
279.763643835125
 30
0.0
 11
227.792114068135
 21
280.113643920321
 31
0.0
  0
LINE
  5
   37A
  8
0
  6
CONTINUOUS
 62
     2
 10
227.792114108834
 20
280.113643979266
 30
0.0
 11
236.28589648448
 21
280.113643979266
 31
0.0
  0
LINE
  5
   37B
  8
0
  6
CONTINUOUS
 62
     2
 10
236.285896423488
 20
280.113643996057
 30
0.0
 11
237.592114212669
 21
280.463643997807
 31
0.0
  0
LINE
  5
   37C
  8
0
  6
CONTINUOUS
 62
     2
 10
234.792113989625
 20
276.263644044831
 30
0.0
 11
234.976886573301
 21
276.263644044831
 31
0.0
  0
LINE
  5
   37D
  8
0
  6
CONTINUOUS
 62
     2
 10
229.89211324738
 20
274.863645192981
 30
0.0
 11
229.89211324738
 21
275.21364518702
 31
0.0
  0
LINE
  5
   37E
  8
0
  6
CONTINUOUS
 62
     2
 10
228.492113271222
 20
274.863645192981
 30
0.0
 11
228.492113271222
 21
275.21364518702
 31
0.0
  0
LINE
  5
   37F
  8
0
  6
CONTINUOUS
 62
     2
 10
231.292113381658
 20
261.73864429219
 30
0.0
 11
235.842114955975
 21
261.73864429219
 31
0.0
  0
LINE
  5
   380
  8
0
  6
CONTINUOUS
 62
     2
 10
240.04211488445
 20
261.73864429219
 30
0.0
 11
254.042112326655
 21
261.73864429219
 31
0.0
  0
LINE
  5
   381
  8
0
  6
CONTINUOUS
 62
     2
 10
224.292112833295
 20
261.73864429219
 30
0.0
 11
225.132113353047
 21
261.73864429219
 31
0.0
  0
LINE
  5
   382
  8
0
  6
CONTINUOUS
 62
     2
 10
224.292113342748
 20
261.738645416498
 30
0.0
 11
224.292113342748
 21
267.128643188477
 31
0.0
  0
LINE
  5
   383
  8
0
  6
CONTINUOUS
 62
     2
 10
224.292113342748
 20
272.79864469409
 30
0.0
 11
224.292113342748
 21
275.21364518702
 31
0.0
  0
LINE
  5
   384
  8
0
  6
CONTINUOUS
 62
     2
 10
261.042113778298
 20
274.163645204902
 30
0.0
 11
261.042113778298
 21
274.513645198941
 31
0.0
  0
LINE
  5
   385
  8
0
  6
CONTINUOUS
 62
     2
 10
254.392112830148
 20
266.988642656803
 30
0.0
 11
254.392112830148
 21
272.938642555475
 31
0.0
  0
LINE
  5
   386
  8
0
  6
CONTINUOUS
 62
     2
 10
255.442113016153
 20
266.988642656803
 30
0.0
 11
255.442113016153
 21
267.387810664532
 31
0.0
  0
LINE
  5
   387
  8
0
  6
CONTINUOUS
 62
     2
 10
255.442113016153
 20
268.481702171172
 30
0.0
 11
255.442113016153
 21
272.938642555475
 31
0.0
  0
LINE
  5
   388
  8
0
  6
CONTINUOUS
 62
     2
 10
256.492113966078
 20
265.588645350933
 30
0.0
 11
256.492113966078
 21
265.763645347953
 31
0.0
  0
LINE
  5
   389
  8
0
  6
CONTINUOUS
 62
     2
 10
256.492113966078
 20
274.163645204902
 30
0.0
 11
256.492113966078
 21
274.338645201922
 31
0.0
  0
LINE
  5
   38A
  8
0
  6
CONTINUOUS
 62
     7
 10
228.31711276475
 20
274.163644080594
 30
0.0
 11
228.492112761769
 21
274.163644080594
 31
0.0
  0
LINE
  5
   38B
  8
0
  6
CONTINUOUS
 62
     7
 10
227.092113295064
 20
273.813645210862
 30
0.0
 11
227.092113295064
 21
274.163645204902
 31
0.0
  0
LINE
  5
   38C
  8
0
  6
CONTINUOUS
 62
     7
 10
229.892114073072
 20
274.163644080594
 30
0.0
 11
230.067112734947
 21
274.163644080594
 31
0.0
  0
LINE
  5
   38D
  8
0
  6
CONTINUOUS
 62
     7
 10
231.292113223538
 20
274.155503496666
 30
0.0
 11
231.292113223538
 21
274.163645204902
 31
0.0
  0
LINE
  5
   38E
  8
0
  6
CONTINUOUS
 62
     7
 10
261.042113789908
 20
274.513645198941
 30
0.0
 11
261.042113789908
 21
275.21364518702
 31
0.0
  0
LINE
  5
   38F
  8
0
  6
CONTINUOUS
 62
     7
 10
261.042113795713
 20
276.963643822074
 30
0.0
 11
261.042113795713
 21
277.313643816114
 31
0.0
  0
LINE
  5
   390
  8
0
  6
CONTINUOUS
 62
     7
 10
259.992113560472
 20
277.31364403155
 30
0.0
 11
261.042112207446
 21
277.31364403155
 31
0.0
  0
LINE
  5
   391
  8
0
  6
CONTINUOUS
 62
     7
 10
259.992113813594
 20
276.963643822074
 30
0.0
 11
259.992113813594
 21
277.313643816114
 31
0.0
  0
LINE
  5
   392
  8
0
  6
CONTINUOUS
 62
     1
 10
254.042112326655
 20
261.73864429219
 30
0.0
 11
254.392112320695
 21
261.73864429219
 31
0.0
  0
LINE
  5
   393
  8
0
  6
CONTINUOUS
 62
     2
 10
259.292113572393
 20
276.263644049432
 30
0.0
 11
261.042112207446
 21
276.263644049432
 31
0.0
  0
LINE
  5
   394
  8
0
  6
CONTINUOUS
 62
     1
 10
261.042112716899
 20
275.21364518702
 30
0.0
 11
261.042112716899
 21
276.263643833995
 31
0.0
  0
LINE
  5
   395
  8
0
  6
CONTINUOUS
 62
     2
 10
258.942117583785
 20
275.213644067313
 30
0.0
 11
261.042112207446
 21
275.213644067313
 31
0.0
  0
LINE
  5
   396
  8
0
  6
CONTINUOUS
 62
     1
 10
261.042113795713
 20
276.263643833995
 30
0.0
 11
261.042113795713
 21
276.963643822074
 31
0.0
  0
LINE
  5
   397
  8
0
  6
CONTINUOUS
 62
     1
 10
259.992113813594
 20
276.263643833995
 30
0.0
 11
259.992113813594
 21
276.963643822074
 31
0.0
  0
LINE
  5
   398
  8
0
  6
CONTINUOUS
 62
     7
 10
225.34211432984
 20
276.263643833995
 30
0.0
 11
225.34211432984
 21
278.363643798232
 31
0.0
  0
LINE
  5
   399
  8
0
  6
CONTINUOUS
 62
     7
 10
225.34211432984
 20
279.76364377439
 30
0.0
 11
225.34211432984
 21
280.463643762469
 31
0.0
  0
LINE
  5
   39A
  8
0
  6
CONTINUOUS
 62
     7
 10
255.30211281465
 20
280.463643762469
 30
0.0
 11
255.30211281465
 21
283.788643705845
 31
0.0
  0
LINE
  5
   39B
  8
0
  6
CONTINUOUS
 62
     7
 10
255.30211281465
 20
283.788643705845
 30
0.0
 11
255.30211281465
 21
290.788647592068
 31
0.0
  0
LINE
  5
   39C
  8
0
  6
CONTINUOUS
 62
     7
 10
255.302113106284
 20
290.788643797472
 30
0.0
 11
255.792112296853
 21
290.788643797472
 31
0.0
  0
LINE
  5
   39D
  8
0
  6
CONTINUOUS
 62
     7
 10
229.892112737928
 20
261.73864429219
 30
0.0
 11
231.292113381658
 21
261.73864429219
 31
0.0
  0
LINE
  5
   39E
  8
0
  6
CONTINUOUS
 62
     7
 10
231.292113223538
 20
261.738645416498
 30
0.0
 11
231.292113223538
 21
262.330952687905
 31
0.0
  0
LINE
  5
   39F
  8
0
  6
CONTINUOUS
 62
     2
 10
236.542114293609
 20
276.263644049432
 30
0.0
 11
258.942117583785
 21
276.263644049432
 31
0.0
  0
LINE
  5
   3A0
  8
0
  6
CONTINUOUS
 62
     7
 10
254.392112320695
 20
261.73864429219
 30
0.0
 11
256.492112284932
 21
261.73864429219
 31
0.0
  0
LINE
  5
   3A1
  8
0
  6
CONTINUOUS
 62
     2
 10
236.542114139105
 20
275.21364518702
 30
0.0
 11
236.542114139105
 21
276.263643833995
 31
0.0
  0
LINE
  5
   3A2
  8
0
  6
CONTINUOUS
 62
     2
 10
236.542114293609
 20
275.213644062712
 30
0.0
 11
254.042112326655
 21
275.213644062712
 31
0.0
  0
LINE
  5
   3A3
  8
0
  6
CONTINUOUS
 62
     2
 10
254.392112830148
 20
261.738645416498
 30
0.0
 11
254.392112830148
 21
266.988642656803
 31
0.0
  0
LINE
  5
   3A4
  8
0
  6
CONTINUOUS
 62
     2
 10
254.392112830148
 20
272.938642555475
 30
0.0
 11
254.392112830148
 21
274.863645192981
 31
0.0
  0
LINE
  5
   3A5
  8
0
  6
CONTINUOUS
 62
     2
 10
256.492112794385
 20
261.738645416498
 30
0.0
 11
256.492112794385
 21
265.588645350933
 31
0.0
  0
LINE
  5
   3A6
  8
0
  6
CONTINUOUS
 62
     2
 10
256.492112794385
 20
274.338645201922
 30
0.0
 11
256.492112794385
 21
274.513645198941
 31
0.0
  0
LINE
  5
   3A7
  8
0
  6
CONTINUOUS
 62
     2
 10
257.192113608155
 20
275.213644067313
 30
0.0
 11
258.942117583785
 21
275.213644067313
 31
0.0
  0
LINE
  5
   3A8
  8
0
  6
CONTINUOUS
 62
     2
 10
254.392112320695
 20
266.988644202804
 30
0.0
 11
255.442113637958
 21
266.988644202804
 31
0.0
  0
LINE
  5
   3A9
  8
0
  6
CONTINUOUS
 62
     2
 10
254.392112320695
 20
272.938644101435
 30
0.0
 11
255.442113637958
 21
272.938644101435
 31
0.0
  0
LINE
  5
   3AA
  8
0
  6
CONTINUOUS
 62
     2
 10
255.442113016153
 20
265.588642680645
 30
0.0
 11
255.442113016153
 21
266.988642656803
 31
0.0
  0
LINE
  5
   3AB
  8
0
  6
CONTINUOUS
 62
     2
 10
255.442113016153
 20
272.938642555475
 30
0.0
 11
255.442113016153
 21
274.338645201922
 31
0.0
  0
LINE
  5
   3AC
  8
0
  6
CONTINUOUS
 62
     2
 10
255.442113637958
 20
265.588644226639
 30
0.0
 11
256.492112284932
 21
265.588644226639
 31
0.0
  0
LINE
  5
   3AD
  8
0
  6
CONTINUOUS
 62
     2
 10
255.442113637958
 20
274.338644077599
 30
0.0
 11
256.492112284932
 21
274.338644077599
 31
0.0
  0
ARC
  5
   3AE
  8
0
  6
CONTINUOUS
 62
     7
 10
257.192113954157
 20
274.513644079234
 30
0.0
 40
0.6999999880791
 50
90.0000283205911
 51
179.999908355442
  0
ARC
  5
   3AF
  8
0
  6
CONTINUOUS
 62
     1
 10
254.042112836108
 20
274.863644068673
 30
0.0
 40
0.349999994039835
 50
1.84051107895134E-4
 51
90.0000833981971
  0
LINE
  5
   3B0
  8
0
  6
CONTINUOUS
 62
     1
 10
258.942118120718
 20
275.21364518702
 30
0.0
 11
258.942118120718
 21
276.263643833995
 31
0.0
  0
LINE
  5
   3B1
  8
0
  6
CONTINUOUS
 62
     1
 10
282.39211235331
 20
288.898647757769
 30
0.0
 11
282.39211235331
 21
317.878647664785
 31
0.0
  0
LINE
  5
   3B2
  8
0
  6
CONTINUOUS
 62
     1
 10
278.892113238606
 20
288.758647626638
 30
0.0
 11
279.240149745274
 21
288.758647626638
 31
0.0
  0
LINE
  5
   3B3
  8
0
  6
CONTINUOUS
 62
     1
 10
278.892113238606
 20
318.018647128344
 30
0.0
 11
279.240149745274
 21
318.018647128344
 31
0.0
  0
LINE
  5
   3B4
  8
0
  6
CONTINUOUS
 62
     1
 10
281.690149703551
 20
318.018647128344
 30
0.0
 11
282.252093955312
 21
318.018647128344
 31
0.0
  0
ARC
  5
   3B5
  8
0
  6
CONTINUOUS
 62
     1
 10
282.252112355584
 20
317.878647130617
 30
0.0
 40
0.13999999761506
 50
2.18611072940352E-4
 51
90.0075304280086
  0
LINE
  5
   3B6
  8
0
  6
CONTINUOUS
 62
     1
 10
281.690149703551
 20
288.758647626638
 30
0.0
 11
282.252112647328
 21
288.758647626638
 31
0.0
  0
ARC
  5
   3B7
  8
0
  6
CONTINUOUS
 62
     1
 10
282.252113726998
 20
288.898646252951
 30
0.0
 40
0.13999999761468
 50
269.999558133857
 51
360.000615857291
  0
LINE
  5
   3B8
  8
0
  6
CONTINUOUS
 62
    58
 10
231.292113381658
 20
352.738646537065
 30
0.0
 11
235.492113310132
 21
352.738646537065
 31
0.0
  0
LINE
  5
   3B9
  8
0
  6
CONTINUOUS
 62
    58
 10
240.04211488445
 20
352.738646537065
 30
0.0
 11
251.592113035951
 21
352.738646537065
 31
0.0
  0
LINE
  5
   3BA
  8
0
  6
CONTINUOUS
 62
    58
 10
235.492113310132
 20
352.738646537065
 30
0.0
 11
235.842114955975
 21
352.738646537065
 31
0.0
  0
LINE
  5
   3BB
  8
0
  6
CONTINUOUS
 62
    58
 10
255.442112812266
 20
334.01364685595
 30
0.0
 11
255.442112812266
 21
337.513646796346
 31
0.0
  0
LINE
  5
   3BC
  8
0
  6
CONTINUOUS
 62
    58
 10
224.292113342748
 20
304.43864735961
 30
0.0
 11
224.292113342748
 21
334.01364685595
 31
0.0
  0
LINE
  5
   3BD
  8
0
  6
CONTINUOUS
 62
    58
 10
224.292113342748
 20
294.988647520542
 30
0.0
 11
224.292113342748
 21
297.088647484779
 31
0.0
  0
LINE
  5
   3BE
  8
0
  6
CONTINUOUS
 62
    58
 10
234.092113333974
 20
339.263646766543
 30
0.0
 11
234.792113322053
 21
339.263646766543
 31
0.0
  0
LINE
  5
   3BF
  8
0
  6
CONTINUOUS
 62
    58
 10
236.542113292251
 20
339.263646766543
 30
0.0
 11
251.592113035951
 21
339.263646766543
 31
0.0
  0
LINE
  5
   3C0
  8
0
  6
CONTINUOUS
 62
    58
 10
251.942112871871
 20
339.613646760583
 30
0.0
 11
251.942112871871
 21
349.06364659965
 31
0.0
  0
LINE
  5
   3C1
  8
0
  6
CONTINUOUS
 62
    58
 10
254.392112830148
 20
338.213646784425
 30
0.0
 11
254.392112830148
 21
349.06364659965
 31
0.0
  0
LINE
  5
   3C2
  8
0
  6
CONTINUOUS
 62
    58
 10
255.442112812266
 20
338.213646784425
 30
0.0
 11
255.442112812266
 21
340.663646742702
 31
0.0
  0
LINE
  5
   3C3
  8
0
  6
CONTINUOUS
 62
    58
 10
255.442112812266
 20
348.363646611571
 30
0.0
 11
255.442112812266
 21
348.643353943234
 31
0.0
  0
LINE
  5
   3C4
  8
0
  6
CONTINUOUS
 62
    58
 10
224.292112833295
 20
352.738646537065
 30
0.0
 11
225.132113353047
 21
352.738646537065
 31
0.0
  0
LINE
  5
   3C5
  8
0
  6
CONTINUOUS
 62
    58
 10
224.292113342748
 20
339.263646766543
 30
0.0
 11
224.292113342748
 21
341.678647259474
 31
0.0
  0
LINE
  5
   3C6
  8
0
  6
CONTINUOUS
 62
    58
 10
224.292113342748
 20
347.348648765087
 30
0.0
 11
224.292113342748
 21
352.738646537066
 31
0.0
  0
LINE
  5
   3C7
  8
0
  6
CONTINUOUS
 62
    58
 10
236.357340041003
 20
338.213646784425
 30
0.0
 11
254.392112320695
 21
338.213646784425
 31
0.0
  0
LINE
  5
   3C8
  8
0
  6
CONTINUOUS
 62
    58
 10
254.392112320695
 20
338.213646784425
 30
0.0
 11
255.442112302814
 21
338.213646784425
 31
0.0
  0
LINE
  5
   3C9
  8
0
  6
CONTINUOUS
 62
    58
 10
227.092113295064
 20
340.313646748662
 30
0.0
 11
227.092113295064
 21
340.663646742702
 31
0.0
  0
LINE
  5
   3CA
  8
0
  6
CONTINUOUS
 62
    58
 10
231.292113223538
 20
340.313646748662
 30
0.0
 11
231.292113223538
 21
340.321788456897
 31
0.0
  0
LINE
  5
   3CB
  8
0
  6
CONTINUOUS
 62
    58
 10
255.442112812266
 20
337.513646796346
 30
0.0
 11
255.442112812266
 21
338.213646784425
 31
0.0
  0
LINE
  5
   3CC
  8
0
  6
CONTINUOUS
 62
    58
 10
224.292112833295
 20
294.988647520542
 30
0.0
 11
237.24211328033
 21
294.988647520542
 31
0.0
  0
LINE
  5
   3CD
  8
0
  6
CONTINUOUS
 62
    58
 10
248.442112931475
 20
290.788647592068
 30
0.0
 11
248.442112931475
 21
291.278647450209
 31
0.0
  0
LINE
  5
   3CE
  8
0
  6
CONTINUOUS
 62
    58
 10
247.252112951741
 20
291.278647450209
 30
0.0
 11
247.252112951741
 21
297.088647484779
 31
0.0
  0
LINE
  5
   3CF
  8
0
  6
CONTINUOUS
 62
    58
 10
247.252112951741
 20
304.43864735961
 30
0.0
 11
247.252112951741
 21
310.182506362134
 31
0.0
  0
LINE
  5
   3D0
  8
0
  6
CONTINUOUS
 62
    58
 10
247.252112834708
 20
310.182506598078
 30
0.0
 11
254.25211240447
 21
322.306861505866
 31
0.0
  0
LINE
  5
   3D1
  8
0
  6
CONTINUOUS
 62
    58
 10
254.252112832532
 20
322.30686109035
 30
0.0
 11
254.252112832532
 21
334.01364685595
 31
0.0
  0
LINE
  5
   3D2
  8
0
  6
CONTINUOUS
 62
    58
 10
237.732113138471
 20
291.278647583723
 30
0.0
 11
247.252113243375
 21
291.278647583723
 31
0.0
  0
LINE
  5
   3D3
  8
0
  6
CONTINUOUS
 62
    58
 10
237.24211328033
 20
294.988647520542
 30
0.0
 11
237.732113138471
 21
294.988647520542
 31
0.0
  0
LINE
  5
   3D4
  8
0
  6
CONTINUOUS
 62
    58
 10
237.732113113866
 20
291.278647450209
 30
0.0
 11
237.732113113866
 21
294.988647520542
 31
0.0
  0
LINE
  5
   3D5
  8
0
  6
CONTINUOUS
 62
    58
 10
229.892112737928
 20
352.738646537065
 30
0.0
 11
231.292113381658
 21
352.738646537065
 31
0.0
  0
LINE
  5
   3D6
  8
0
  6
CONTINUOUS
 62
    58
 10
231.292113223538
 20
352.146339265658
 30
0.0
 11
231.292113223538
 21
352.738646537066
 31
0.0
  0
LINE
  5
   3D7
  8
0
  6
CONTINUOUS
 62
     1
 10
224.292112833295
 20
297.088647483021
 30
0.0
 11
247.252113243375
 21
297.088647483021
 31
0.0
  0
LINE
  5
   3D8
  8
0
  6
CONTINUOUS
 62
    58
 10
247.252113243375
 20
296.738647488982
 30
0.0
 11
247.742113101516
 21
296.738647488982
 31
0.0
  0
LINE
  5
   3D9
  8
0
  6
CONTINUOUS
 62
    58
 10
248.442112931475
 20
297.088647484779
 30
0.0
 11
248.442112931475
 21
304.43864735961
 31
0.0
  0
LINE
  5
   3DA
  8
0
  6
CONTINUOUS
 62
    58
 10
225.342113324866
 20
297.088647484779
 30
0.0
 11
225.342113324866
 21
301.463647410274
 31
0.0
  0
LINE
  5
   3DB
  8
0
  6
CONTINUOUS
 62
     1
 10
224.292114010319
 20
301.463647410274
 30
0.0
 11
224.292114010319
 21
304.43864735961
 31
0.0
  0
LINE
  5
   3DC
  8
0
  6
CONTINUOUS
 62
    58
 10
224.292112833295
 20
301.463647410273
 30
0.0
 11
225.342112815414
 21
301.463647410273
 31
0.0
  0
LINE
  5
   3DD
  8
0
  6
CONTINUOUS
 62
    58
 10
247.252113243375
 20
304.788647351891
 30
0.0
 11
247.742113101516
 21
304.788647351891
 31
0.0
  0
LINE
  5
   3DE
  8
0
  6
CONTINUOUS
 62
     1
 10
224.292112833295
 20
304.438647359609
 30
0.0
 11
247.252113243375
 21
304.438647359609
 31
0.0
  0
ARC
  5
   3DF
  8
0
  6
CONTINUOUS
 62
     3
 10
251.592112877831
 20
339.613646760583
 30
0.0
 40
0.349999994039571
 50
270.00002588456
 51
360.0
  0
LINE
  5
   3E0
  8
0
  6
CONTINUOUS
 62
     3
 10
251.592113035951
 20
352.738646537065
 30
0.0
 11
251.94211302999
 21
352.738646537065
 31
0.0
  0
LINE
  5
   3E1
  8
0
  6
CONTINUOUS
 62
     2
 10
231.292113381658
 20
339.263646766543
 30
0.0
 11
234.092113333974
 21
339.263646766543
 31
0.0
  0
LINE
  5
   3E2
  8
0
  6
CONTINUOUS
 62
     2
 10
251.942112871871
 20
349.06364659965
 30
0.0
 11
251.942112871871
 21
352.738646537066
 31
0.0
  0
LINE
  5
   3E3
  8
0
  6
CONTINUOUS
 62
    58
 10
251.94211302999
 20
352.738646537065
 30
0.0
 11
255.442112302814
 21
352.738646537065
 31
0.0
  0
LINE
  5
   3E4
  8
0
  6
CONTINUOUS
 62
    58
 10
255.442112812266
 20
350.113646581769
 30
0.0
 11
255.442112812266
 21
352.738646537066
 31
0.0
  0
LINE
  5
   3E5
  8
0
  6
CONTINUOUS
 62
    58
 10
224.292113342748
 20
334.01364685595
 30
0.0
 11
224.292113342748
 21
339.263646766543
 31
0.0
  0
LINE
  5
   3E6
  8
0
  6
CONTINUOUS
 62
     2
 10
251.94211302999
 20
349.06364659965
 30
0.0
 11
254.392112320695
 21
349.06364659965
 31
0.0
  0
LINE
  5
   3E7
  8
0
  6
CONTINUOUS
 62
     2
 10
234.092113175854
 20
338.213646784425
 30
0.0
 11
234.092113175854
 21
339.263646766543
 31
0.0
  0
LINE
  5
   3E8
  8
0
  6
CONTINUOUS
 62
     2
 10
254.392112320695
 20
350.113646581769
 30
0.0
 11
255.442112302814
 21
350.113646581769
 31
0.0
  0
LINE
  5
   3E9
  8
0
  6
CONTINUOUS
 62
     2
 10
254.392112830148
 20
349.06364659965
 30
0.0
 11
254.392112830148
 21
350.113646581769
 31
0.0
  0
LINE
  5
   3EA
  8
0
  6
CONTINUOUS
 62
     2
 10
229.89211324738
 20
339.263646766543
 30
0.0
 11
229.89211324738
 21
340.313646748662
 31
0.0
  0
LINE
  5
   3EB
  8
0
  6
CONTINUOUS
 62
     2
 10
228.492113271222
 20
339.263646766543
 30
0.0
 11
228.492113271222
 21
340.313646748662
 31
0.0
  0
LINE
  5
   3EC
  8
0
  6
CONTINUOUS
 62
     2
 10
228.492112761769
 20
339.263646766543
 30
0.0
 11
229.892112737928
 21
339.263646766543
 31
0.0
  0
LINE
  5
   3ED
  8
0
  6
CONTINUOUS
 62
     2
 10
231.292113223538
 20
339.263646766543
 30
0.0
 11
231.292113223538
 21
340.313646748662
 31
0.0
  0
LINE
  5
   3EE
  8
0
  6
CONTINUOUS
 62
     2
 10
224.292112833295
 20
339.263646766543
 30
0.0
 11
227.092112785611
 21
339.263646766543
 31
0.0
  0
LINE
  5
   3EF
  8
0
  6
CONTINUOUS
 62
     2
 10
227.092113295064
 20
339.263646766543
 30
0.0
 11
227.092113295064
 21
340.313646748662
 31
0.0
  0
LINE
  5
   3F0
  8
0
  6
CONTINUOUS
 62
     2
 10
227.092112785611
 20
340.313646748662
 30
0.0
 11
228.492112761769
 21
340.313646748662
 31
0.0
  0
LINE
  5
   3F1
  8
0
  6
CONTINUOUS
 62
     2
 10
229.892112737928
 20
340.313646748662
 30
0.0
 11
231.292113381658
 21
340.313646748662
 31
0.0
  0
LINE
  5
   3F2
  8
0
  6
CONTINUOUS
 62
     2
 10
226.392112797532
 20
338.213646784425
 30
0.0
 11
234.092113333974
 21
338.213646784425
 31
0.0
  0
LINE
  5
   3F3
  8
0
  6
CONTINUOUS
 62
     2
 10
225.692113318906
 20
334.01364685595
 30
0.0
 11
225.692113318906
 21
335.063646838069
 31
0.0
  0
LINE
  5
   3F4
  8
0
  6
CONTINUOUS
 62
     2
 10
225.692113318906
 20
336.463646814227
 30
0.0
 11
225.692113318906
 21
337.513646796346
 31
0.0
  0
ARC
  5
   3F5
  8
0
  6
CONTINUOUS
 62
     7
 10
226.392113306985
 20
337.513646796345
 30
0.0
 40
0.699999988079313
 50
90.0000416992777
 51
180.0
  0
LINE
  5
   3F6
  8
0
  6
CONTINUOUS
 62
     2
 10
230.592113235459
 20
335.063646838069
 30
0.0
 11
230.592113235459
 21
336.113646820188
 31
0.0
  0
LINE
  5
   3F7
  8
0
  6
CONTINUOUS
 62
     2
 10
225.692112809453
 20
336.463646814227
 30
0.0
 11
229.285895936118
 21
336.463646814227
 31
0.0
  0
LINE
  5
   3F8
  8
0
  6
CONTINUOUS
 62
     2
 10
225.692112809453
 20
335.063646838069
 30
0.0
 11
230.592113393579
 21
335.063646838069
 31
0.0
  0
LINE
  5
   3F9
  8
0
  6
CONTINUOUS
 62
     2
 10
229.285895905232
 20
336.463646698959
 30
0.0
 11
230.592113382986
 21
336.113646780656
 31
0.0
  0
LINE
  5
   3FA
  8
0
  6
CONTINUOUS
 62
     3
 10
271.892112532128
 20
351.338646560907
 30
0.0
 11
271.892112532128
 21
352.038646548986
 31
0.0
  0
LINE
  5
   3FB
  8
0
  6
CONTINUOUS
 62
     7
 10
258.942112752666
 20
348.713646605611
 30
0.0
 11
258.942112752666
 21
349.407301989306
 31
0.0
  0
LINE
  5
   3FC
  8
0
  6
CONTINUOUS
 62
     7
 10
267.692113429341
 20
348.538646608596
 30
0.0
 11
271.192113369737
 21
348.538646608596
 31
0.0
  0
LINE
  5
   3FD
  8
0
  6
CONTINUOUS
 62
     7
 10
255.44211281227
 20
349.427857866641
 30
0.0
 11
255.44211281227
 21
350.113646581769
 31
0.0
  0
LINE
  5
   3FE
  8
0
  6
CONTINUOUS
 62
     7
 10
255.44211281227
 20
351.529465344279
 30
0.0
 11
255.44211281227
 21
351.688646554947
 31
0.0
  0
LINE
  5
   3FF
  8
0
  6
CONTINUOUS
 62
     7
 10
255.44211281227
 20
334.01364685595
 30
0.0
 11
255.44211281227
 21
337.99304360825
 31
0.0
  0
LINE
  5
   400
  8
0
  6
CONTINUOUS
 62
     7
 10
247.742112943401
 20
304.43864735961
 30
0.0
 11
247.742112943401
 21
310.051212304617
 31
0.0
  0
LINE
  5
   401
  8
0
  6
CONTINUOUS
 62
     7
 10
247.742112943401
 20
291.278647450209
 30
0.0
 11
247.742112943401
 21
297.088647484779
 31
0.0
  0
LINE
  5
   402
  8
0
  6
CONTINUOUS
 62
     7
 10
254.742112824191
 20
322.175568367977
 30
0.0
 11
254.742112824191
 21
334.01364685595
 31
0.0
  0
LINE
  5
   403
  8
0
  6
CONTINUOUS
 62
     7
 10
247.742113245284
 20
310.051212221612
 30
0.0
 11
254.742113226287
 21
322.175567841691
 31
0.0
  0
LINE
  5
   404
  8
0
  6
CONTINUOUS
 62
     7
 10
257.192112782468
 20
334.01364685595
 30
0.0
 11
257.192112782468
 21
339.289962455182
 31
0.0
  0
LINE
  5
   405
  8
0
  6
CONTINUOUS
 62
     7
 10
255.442112302814
 20
348.643352949054
 30
0.0
 11
255.635057970609
 21
348.643352949054
 31
0.0
  0
LINE
  5
   406
  8
0
  6
CONTINUOUS
 62
     7
 10
255.442112302814
 20
349.427856473781
 30
0.0
 11
258.942112243209
 21
349.427856473781
 31
0.0
  0
LINE
  5
   407
  8
0
  6
CONTINUOUS
 62
     7
 10
257.192112273011
 20
339.563899293129
 30
0.0
 11
258.942112243209
 21
339.563899293129
 31
0.0
  0
LINE
  5
   408
  8
0
  6
CONTINUOUS
 62
     7
 10
255.44211281227
 20
348.643353943234
 30
0.0
 11
255.44211281227
 21
349.427857866641
 31
0.0
  0
LINE
  5
   409
  8
0
  6
CONTINUOUS
 62
     7
 10
257.192112782468
 20
339.289962455182
 30
0.0
 11
257.192112782468
 21
339.563899294389
 31
0.0
  0
LINE
  5
   40A
  8
0
  6
CONTINUOUS
 62
     7
 10
257.192112273011
 20
339.28996272129
 30
0.0
 11
258.942112243209
 21
339.28996272129
 31
0.0
  0
LINE
  5
   40B
  8
0
  6
CONTINUOUS
 62
     7
 10
264.892113477025
 20
349.238646596675
 30
0.0
 11
271.192113369737
 21
349.238646596675
 31
0.0
  0
LINE
  5
   40C
  8
0
  6
CONTINUOUS
 62
     7
 10
271.892112532128
 20
349.23864659667
 30
0.0
 11
271.892112532128
 21
351.338646560907
 31
0.0
  0
LINE
  5
   40D
  8
0
  6
CONTINUOUS
 62
     3
 10
271.192113369737
 20
351.338646560912
 30
0.0
 11
271.892113357816
 21
351.338646560912
 31
0.0
  0
LINE
  5
   40E
  8
0
  6
CONTINUOUS
 62
     7
 10
264.892113477025
 20
351.338646560912
 30
0.0
 11
271.192113369737
 21
351.338646560912
 31
0.0
  0
LINE
  5
   40F
  8
0
  6
CONTINUOUS
 62
     7
 10
255.44211281227
 20
341.5386467278
 30
0.0
 11
255.44211281227
 21
347.488646626473
 31
0.0
  0
LINE
  5
   410
  8
0
  6
CONTINUOUS
 62
     7
 10
264.892113477025
 20
348.538646608596
 30
0.0
 11
267.692113429341
 21
348.538646608596
 31
0.0
  0
LINE
  5
   411
  8
0
  6
CONTINUOUS
 62
     7
 10
267.692112603654
 20
291.278647450209
 30
0.0
 11
267.692112603654
 21
296.3886474967
 31
0.0
  0
LINE
  5
   412
  8
0
  6
CONTINUOUS
 62
     7
 10
267.692112603654
 20
342.483645643592
 30
0.0
 11
267.692112603654
 21
348.538646608591
 31
0.0
  0
LINE
  5
   413
  8
0
  6
CONTINUOUS
 62
     7
 10
267.692112603654
 20
305.138647347689
 30
0.0
 11
267.692112603654
 21
338.843647841811
 31
0.0
  0
LINE
  5
   414
  8
0
  6
CONTINUOUS
 62
     7
 10
267.692112603654
 20
338.843647841811
 30
0.0
 11
267.692112603654
 21
342.483645643592
 31
0.0
  0
LINE
  5
   415
  8
0
  6
CONTINUOUS
 62
     7
 10
248.44211293148
 20
290.788647592068
 30
0.0
 11
248.44211293148
 21
291.278647450209
 31
0.0
  0
LINE
  5
   416
  8
0
  6
CONTINUOUS
 62
     7
 10
255.302113106284
 20
290.788647592072
 30
0.0
 11
255.792112296853
 21
290.788647592072
 31
0.0
  0
LINE
  5
   417
  8
0
  6
CONTINUOUS
 62
     7
 10
247.742113101516
 20
291.278647583728
 30
0.0
 11
248.442113089595
 21
291.278647583728
 31
0.0
  0
LINE
  5
   418
  8
0
  6
CONTINUOUS
 62
     7
 10
248.442113089595
 20
291.278647583728
 30
0.0
 11
267.692113429341
 21
291.278647583728
 31
0.0
  0
LINE
  5
   419
  8
0
  6
CONTINUOUS
 62
     7
 10
267.132112613191
 20
296.3886474967
 30
0.0
 11
267.132112613191
 21
297.088647484779
 31
0.0
  0
LINE
  5
   41A
  8
0
  6
CONTINUOUS
 62
     7
 10
267.132111302648
 20
296.388647494947
 30
0.0
 11
267.692113429341
 21
296.388647494947
 31
0.0
  0
LINE
  5
   41B
  8
0
  6
CONTINUOUS
 62
     1
 10
248.44211293148
 20
297.088647484779
 30
0.0
 11
248.44211293148
 21
304.43864735961
 31
0.0
  0
LINE
  5
   41C
  8
0
  6
CONTINUOUS
 62
     1
 10
247.742113101516
 20
304.438647357856
 30
0.0
 11
248.442113089595
 21
304.438647357856
 31
0.0
  0
LINE
  5
   41D
  8
0
  6
CONTINUOUS
 62
     1
 10
248.442113089595
 20
304.438647357856
 30
0.0
 11
267.132111302648
 21
304.438647357856
 31
0.0
  0
LINE
  5
   41E
  8
0
  6
CONTINUOUS
 62
     1
 10
247.742113101516
 20
297.088647483026
 30
0.0
 11
248.442113089595
 21
297.088647483026
 31
0.0
  0
LINE
  5
   41F
  8
0
  6
CONTINUOUS
 62
     1
 10
248.442113089595
 20
297.088647483026
 30
0.0
 11
267.132111302648
 21
297.088647483026
 31
0.0
  0
LINE
  5
   420
  8
0
  6
CONTINUOUS
 62
     1
 10
267.132112613191
 20
304.43864735961
 30
0.0
 11
267.132112613191
 21
305.138647347689
 31
0.0
  0
LINE
  5
   421
  8
0
  6
CONTINUOUS
 62
     1
 10
267.132111302648
 20
305.138647345935
 30
0.0
 11
267.692113429341
 21
305.138647345935
 31
0.0
  0
LINE
  5
   422
  8
0
  6
CONTINUOUS
 62
     1
 10
265.312112644185
 20
297.088647484779
 30
0.0
 11
265.312112644185
 21
304.43864735961
 31
0.0
  0
LINE
  5
   423
  8
0
  6
CONTINUOUS
 62
     3
 10
271.892112532128
 20
348.538646608591
 30
0.0
 11
271.892112532128
 21
349.23864659667
 31
0.0
  0
LINE
  5
   424
  8
0
  6
CONTINUOUS
 62
     3
 10
271.192113369737
 20
348.538646608596
 30
0.0
 11
271.892113357816
 21
348.538646608596
 31
0.0
  0
LINE
  5
   425
  8
0
  6
CONTINUOUS
 62
     3
 10
271.192113369737
 20
349.238646596675
 30
0.0
 11
271.892113357816
 21
349.238646596675
 31
0.0
  0
LINE
  5
   426
  8
0
  6
CONTINUOUS
 62
     3
 10
271.835687501233
 20
352.230736389465
 30
0.0
 11
271.892113357816
 21
352.038646548986
 31
0.0
  0
LINE
  5
   427
  8
0
  6
CONTINUOUS
 62
     3
 10
271.751875170507
 20
352.377207029061
 30
0.0
 11
271.835687501233
 21
352.230736389465
 31
0.0
  0
ARC
  5
   428
  8
0
  6
CONTINUOUS
 62
     3
 10
271.192103779382
 20
352.038637784796
 30
0.0
 40
0.700018683599264
 50
31.1670106506051
 51
89.9992150286109
  0
LINE
  5
   429
  8
0
  6
CONTINUOUS
 62
     3
 10
264.892113477025
 20
352.73864653707
 30
0.0
 11
271.192113369737
 21
352.73864653707
 31
0.0
  0
LINE
  5
   42A
  8
0
  6
CONTINUOUS
 62
     3
 10
255.442112302814
 20
338.801230316288
 30
0.0
 11
257.192112273011
 21
338.801230316288
 31
0.0
  0
LINE
  5
   42B
  8
0
  6
CONTINUOUS
 62
     7
 10
255.44211281227
 20
340.663646742702
 30
0.0
 11
255.44211281227
 21
341.5386467278
 31
0.0
  0
LINE
  5
   42C
  8
0
  6
CONTINUOUS
 62
     7
 10
255.44211281227
 20
347.488646626473
 30
0.0
 11
255.44211281227
 21
348.363646611571
 31
0.0
  0
LINE
  5
   42D
  8
0
  6
CONTINUOUS
 62
     7
 10
255.792112296853
 20
340.313646748667
 30
0.0
 11
257.192112273011
 21
340.313646748667
 31
0.0
  0
LINE
  5
   42E
  8
0
  6
CONTINUOUS
 62
     7
 10
262.092112189565
 20
351.443646559124
 30
0.0
 11
264.892113477025
 21
351.443646559124
 31
0.0
  0
LINE
  5
   42F
  8
0
  6
CONTINUOUS
 62
     7
 10
262.092112189565
 20
349.833646586542
 30
0.0
 11
264.892113477025
 21
349.833646586542
 31
0.0
  0
LINE
  5
   430
  8
0
  6
CONTINUOUS
 62
     7
 10
255.442112302814
 20
352.73864653707
 30
0.0
 11
264.892113477025
 21
352.73864653707
 31
0.0
  0
LINE
  5
   431
  8
0
  6
CONTINUOUS
 62
     7
 10
258.942112752666
 20
334.01364685595
 30
0.0
 11
258.942112752666
 21
340.313644078374
 31
0.0
  0
LINE
  5
   432
  8
0
  6
CONTINUOUS
 62
     7
 10
258.942112243209
 20
348.713646605615
 30
0.0
 11
259.992112225328
 21
348.713646605615
 31
0.0
  0
LINE
  5
   433
  8
0
  6
CONTINUOUS
 62
     7
 10
255.442112302814
 20
351.688646554951
 30
0.0
 11
259.992112225328
 21
351.688646554951
 31
0.0
  0
LINE
  5
   434
  8
0
  6
CONTINUOUS
 62
     7
 10
260.692112722863
 20
349.41364659369
 30
0.0
 11
260.692112722863
 21
350.988646566868
 31
0.0
  0
LINE
  5
   435
  8
0
  6
CONTINUOUS
 62
     7
 10
257.192112273011
 20
340.313646748667
 30
0.0
 11
258.942112243209
 21
340.313646748667
 31
0.0
  0
LINE
  5
   436
  8
0
  6
CONTINUOUS
 62
     7
 10
255.792112296853
 20
348.713646605615
 30
0.0
 11
258.942112243209
 21
348.713646605615
 31
0.0
  0
LINE
  5
   437
  8
0
  6
CONTINUOUS
 62
     7
 10
255.44211281227
 20
351.688646554947
 30
0.0
 11
255.44211281227
 21
352.738646537066
 31
0.0
  0
LINE
  5
   438
  8
0
  6
CONTINUOUS
 62
     7
 10
262.092112699021
 20
349.833645518422
 30
0.0
 11
262.092112699021
 21
351.443647627235
 31
0.0
  0
LINE
  5
   439
  8
0
  6
CONTINUOUS
 62
     7
 10
255.442112302814
 20
347.488646626477
 30
0.0
 11
264.892113477025
 21
347.488646626477
 31
0.0
  0
LINE
  5
   43A
  8
0
  6
CONTINUOUS
 62
     7
 10
255.442112302814
 20
341.538646727805
 30
0.0
 11
264.892113477025
 21
341.538646727805
 31
0.0
  0
LINE
  5
   43B
  8
0
  6
CONTINUOUS
 62
     7
 10
262.792113488184
 20
334.01364685595
 30
0.0
 11
262.792113488184
 21
338.038646787405
 31
0.0
  0
LINE
  5
   43C
  8
0
  6
CONTINUOUS
 62
     7
 10
262.792113512788
 20
338.03864678741
 30
0.0
 11
264.892113477025
 21
338.03864678741
 31
0.0
  0
ARC
  5
   43D
  8
0
  6
CONTINUOUS
 62
     3
 10
259.992112734784
 20
350.988646566872
 30
0.0
 40
0.699999988079355
 50
0.0
 51
90.0000416995754
  0
POLYLINE
  5
   43E
  8
0
  6
CONTINUOUS
 62
     3
 66
     1
 10
0.0
 20
0.0
 30
0.0
  0
VERTEX
  5
   43F
  8
0
  6
CONTINUOUS
 10
259.992112734956
 20
348.713646553156
 30
0.0
 40
0.0
 41
0.0
  0
VERTEX
  5
   440
  8
0
  6
CONTINUOUS
 10
260.402525165982
 20
348.847070654973
 30
0.0
 40
0.0
 41
0.0
  0
VERTEX
  5
   441
  8
0
  6
CONTINUOUS
 10
260.673563923114
 20
349.259365564408
 30
0.0
 40
0.0
 41
0.0
  0
VERTEX
  5
   442
  8
0
  6
CONTINUOUS
 10
260.69211272313
 20
349.413646185593
 30
0.0
 40
0.0
 41
0.0
  0
SEQEND
  5
   443
  8
0
  6
CONTINUOUS
 62
     3
  0
ARC
  5
   444
  8
0
  6
CONTINUOUS
 62
     3
 10
255.792223692729
 20
348.363589486069
 30
0.0
 40
0.350141478214508
 50
90.0182327767364
 51
179.990651403389
  0
ARC
  5
   445
  8
0
  6
CONTINUOUS
 62
     3
 10
255.792223692729
 20
340.663703868214
 30
0.0
 40
0.350141478215409
 50
180.009348598164
 51
269.981767223185
  0
LINE
  5
   446
  8
0
  6
CONTINUOUS
 62
   218
 10
236.542114139105
 20
267.68864531517
 30
0.0
 11
236.542114139105
 21
267.86364531219
 31
0.0
  0
LINE
  5
   447
  8
0
  6
CONTINUOUS
 62
   218
 10
236.542114139105
 20
272.063645240665
 30
0.0
 11
236.542114139105
 21
272.238645237684
 31
0.0
  0
LINE
  5
   448
  8
0
  6
CONTINUOUS
 62
   218
 10
234.792114168908
 20
272.063645240665
 30
0.0
 11
234.792114168908
 21
272.238645237684
 31
0.0
  0
LINE
  5
   449
  8
0
  6
CONTINUOUS
 62
   218
 10
234.792114168908
 20
267.68864531517
 30
0.0
 11
234.792114168908
 21
267.86364531219
 31
0.0
  0
LINE
  5
   44A
  8
0
  6
CONTINUOUS
 62
   218
 10
256.842112992311
 20
278.013643804193
 30
0.0
 11
256.842112992311
 21
278.713643792272
 31
0.0
  0
LINE
  5
   44B
  8
0
  6
CONTINUOUS
 62
   218
 10
258.242112968469
 20
278.013643804193
 30
0.0
 11
258.242112968469
 21
278.713643792272
 31
0.0
  0
LINE
  5
   44C
  8
0
  6
CONTINUOUS
 62
   218
 10
256.842113614116
 20
278.713644005408
 30
0.0
 11
258.242113590274
 21
278.713644005408
 31
0.0
  0
LINE
  5
   44D
  8
0
  6
CONTINUOUS
 62
   218
 10
234.792113322053
 20
265.763644225948
 30
0.0
 11
236.542113292251
 21
265.763644225948
 31
0.0
  0
LINE
  5
   44E
  8
0
  6
CONTINUOUS
 62
   218
 10
234.792113322053
 20
272.23864411565
 30
0.0
 11
236.542113292251
 21
272.23864411565
 31
0.0
  0
LINE
  5
   44F
  8
0
  6
CONTINUOUS
 62
   218
 10
234.792113322053
 20
267.68864419319
 30
0.0
 11
236.542113292251
 21
267.68864419319
 31
0.0
  0
LINE
  5
   450
  8
0
  6
CONTINUOUS
 62
   218
 10
236.542113338018
 20
272.238645237684
 30
0.0
 11
236.542113338018
 21
275.56364518106
 31
0.0
  0
LINE
  5
   451
  8
0
  6
CONTINUOUS
 62
   218
 10
236.542113338018
 20
265.763645347953
 30
0.0
 11
236.542113338018
 21
267.68864531517
 31
0.0
  0
ARC
  5
   452
  8
0
  6
CONTINUOUS
 62
   218
 10
237.242113326097
 20
275.563644059052
 30
0.0
 40
0.699999988079073
 50
90.000003746075
 51
179.999908164746
  0
LINE
  5
   453
  8
0
  6
CONTINUOUS
 62
   218
 10
237.24211328033
 20
276.263644047131
 30
0.0
 11
259.292113572393
 21
276.263644047131
 31
0.0
  0
LINE
  5
   454
  8
0
  6
CONTINUOUS
 62
   218
 10
259.292113020565
 20
276.263643833995
 30
0.0
 11
259.292113020565
 21
278.013643804193
 31
0.0
  0
LINE
  5
   455
  8
0
  6
CONTINUOUS
 62
   218
 10
237.24211328033
 20
278.013644017329
 30
0.0
 11
259.292113572393
 21
278.013644017329
 31
0.0
  0
ARC
  5
   456
  8
0
  6
CONTINUOUS
 62
   218
 10
237.242113326097
 20
275.563644059052
 30
0.0
 40
2.44999995827675
 50
90.0000010703065
 51
179.999973754271
  0
LINE
  5
   457
  8
0
  6
CONTINUOUS
 62
   218
 10
234.79211336782
 20
272.238645237684
 30
0.0
 11
234.79211336782
 21
275.56364518106
 31
0.0
  0
LINE
  5
   458
  8
0
  6
CONTINUOUS
 62
   218
 10
234.79211336782
 20
265.763645347953
 30
0.0
 11
234.79211336782
 21
267.68864531517
 31
0.0
  0
LINE
  5
   459
  8
0
  6
CONTINUOUS
 62
   134
 10
234.442113169894
 20
346.613646641374
 30
0.0
 11
234.442113169894
 21
348.013646617532
 31
0.0
  0
LINE
  5
   45A
  8
0
  6
CONTINUOUS
 62
   134
 10
234.442113169894
 20
341.013646736741
 30
0.0
 11
234.442113169894
 21
342.413670745492
 31
0.0
  0
LINE
  5
   45B
  8
0
  6
CONTINUOUS
 62
   134
 10
231.642113217578
 20
341.013646736741
 30
0.0
 11
231.642113217578
 21
342.413646712899
 31
0.0
  0
LINE
  5
   45C
  8
0
  6
CONTINUOUS
 62
   134
 10
231.642113217578
 20
346.613646641374
 30
0.0
 11
231.642113217578
 21
348.013646617532
 31
0.0
  0
LINE
  5
   45D
  8
0
  6
CONTINUOUS
 62
   134
 10
231.642113375697
 20
341.013646736741
 30
0.0
 11
234.442113328014
 21
341.013646736741
 31
0.0
  0
LINE
  5
   45E
  8
0
  6
CONTINUOUS
 62
   134
 10
231.642113375697
 20
348.013646617532
 30
0.0
 11
234.442113328014
 21
348.013646617532
 31
0.0
  0
LINE
  5
   45F
  8
0
  6
CONTINUOUS
 62
   134
 10
231.642113375697
 20
346.613646641374
 30
0.0
 11
234.442113328014
 21
346.613646641374
 31
0.0
  0
LINE
  5
   460
  8
0
  6
CONTINUOUS
 62
   134
 10
231.642113375697
 20
342.413646712899
 30
0.0
 11
234.442113328014
 21
342.413646712899
 31
0.0
  0
LINE
  5
   461
  8
0
  6
CONTINUOUS
 62
   212
 10
226.882113966212
 20
340.243647817969
 30
0.0
 11
226.882113966212
 21
340.663646742702
 31
0.0
  0
ARC
  5
   462
  8
0
  6
CONTINUOUS
 62
   212
 10
226.882113966213
 20
339.753646758833
 30
0.0
 40
0.489999991654179
 50
270.000080936303
 51
300.433528276234
  0
ARC
  5
   463
  8
0
  6
CONTINUOUS
 62
   212
 10
226.882113966212
 20
339.753646758837
 30
0.0
 40
0.489999991652643
 50
59.7139489338673
 51
90.0000751820902
  0
LINE
  5
   464
  8
0
  6
CONTINUOUS
 62
   212
 10
225.692112809453
 20
346.861518012837
 30
0.0
 11
231.642113375697
 21
346.861518012837
 31
0.0
  0
LINE
  5
   465
  8
0
  6
CONTINUOUS
 62
   212
 10
225.692112809453
 20
345.213646665215
 30
0.0
 11
231.004056726865
 21
345.213646665215
 31
0.0
  0
LINE
  5
   466
  8
0
  6
CONTINUOUS
 62
   212
 10
225.692112809453
 20
343.813646688705
 30
0.0
 11
231.004056726865
 21
343.813646688705
 31
0.0
  0
LINE
  5
   467
  8
0
  6
CONTINUOUS
 62
   212
 10
234.442113169894
 20
348.013646617532
 30
0.0
 11
234.442113169894
 21
348.188646614552
 31
0.0
  0
LINE
  5
   468
  8
0
  6
CONTINUOUS
 62
   212
 10
234.442113169894
 20
340.838646739721
 30
0.0
 11
234.442113169894
 21
341.013646736741
 31
0.0
  0
LINE
  5
   469
  8
0
  6
CONTINUOUS
 62
   212
 10
226.532113329206
 20
352.738646537065
 30
0.0
 11
228.492112761769
 21
352.738646537065
 31
0.0
  0
LINE
  5
   46A
  8
0
  6
CONTINUOUS
 62
   212
 10
229.892114049067
 20
352.738646480327
 30
0.0
 11
234.442113304008
 21
350.813646513108
 31
0.0
  0
LINE
  5
   46B
  8
0
  6
CONTINUOUS
 62
   212
 10
229.892114073072
 20
340.663646742702
 30
0.0
 11
230.592169469627
 21
340.663646742702
 31
0.0
  0
LINE
  5
   46C
  8
0
  6
CONTINUOUS
 62
   212
 10
228.842114090953
 20
339.263646766543
 30
0.0
 11
229.542114079032
 21
339.263646766543
 31
0.0
  0
LINE
  5
   46D
  8
0
  6
CONTINUOUS
 62
   212
 10
225.132113353047
 20
352.738646537065
 30
0.0
 11
226.532113329206
 21
352.738646537065
 31
0.0
  0
LINE
  5
   46E
  8
0
  6
CONTINUOUS
 62
   212
 10
228.492112761769
 20
352.738646537065
 30
0.0
 11
229.892112737928
 21
352.738646537065
 31
0.0
  0
LINE
  5
   46F
  8
0
  6
CONTINUOUS
 62
   212
 10
229.89211324738
 20
349.23864659667
 30
0.0
 11
229.89211324738
 21
352.738646537066
 31
0.0
  0
LINE
  5
   470
  8
0
  6
CONTINUOUS
 62
   212
 10
229.892113914969
 20
339.613646760583
 30
0.0
 11
229.892113914969
 21
340.663646742702
 31
0.0
  0
LINE
  5
   471
  8
0
  6
CONTINUOUS
 62
   212
 10
228.492113271222
 20
349.23864659667
 30
0.0
 11
228.492113271222
 21
352.738646537066
 31
0.0
  0
LINE
  5
   472
  8
0
  6
CONTINUOUS
 62
   212
 10
228.49211393881
 20
339.613646760583
 30
0.0
 11
228.49211393881
 21
340.663646742702
 31
0.0
  0
LINE
  5
   473
  8
0
  6
CONTINUOUS
 62
   212
 10
231.642113217578
 20
346.963646635413
 30
0.0
 11
231.642113217578
 21
348.188646614552
 31
0.0
  0
LINE
  5
   474
  8
0
  6
CONTINUOUS
 62
   212
 10
225.692112809453
 20
346.963646635413
 30
0.0
 11
231.642113375697
 21
346.963646635413
 31
0.0
  0
LINE
  5
   475
  8
0
  6
CONTINUOUS
 62
   212
 10
225.692113318906
 20
341.71364672482
 30
0.0
 11
225.692113318906
 21
346.963646635413
 31
0.0
  0
LINE
  5
   476
  8
0
  6
CONTINUOUS
 62
   212
 10
231.642113375697
 20
348.188646614551
 30
0.0
 11
234.442113328014
 21
348.188646614551
 31
0.0
  0
LINE
  5
   477
  8
0
  6
CONTINUOUS
 62
   212
 10
231.642113375697
 20
340.838646739721
 30
0.0
 11
234.442113328014
 21
340.838646739721
 31
0.0
  0
LINE
  5
   478
  8
0
  6
CONTINUOUS
 62
   212
 10
234.442113169894
 20
340.138646751642
 30
0.0
 11
234.442113169894
 21
340.838646739721
 31
0.0
  0
LINE
  5
   479
  8
0
  6
CONTINUOUS
 62
   212
 10
234.442113169894
 20
348.188646614552
 30
0.0
 11
234.442113169894
 21
349.23864659667
 31
0.0
  0
LINE
  5
   47A
  8
0
  6
CONTINUOUS
 62
   212
 10
225.132113996014
 20
340.138646751642
 30
0.0
 11
225.132113996014
 21
340.838646739721
 31
0.0
  0
LINE
  5
   47B
  8
0
  6
CONTINUOUS
 62
   212
 10
225.132113996014
 20
348.188646614552
 30
0.0
 11
225.132113996014
 21
349.23864659667
 31
0.0
  0
LINE
  5
   47C
  8
0
  6
CONTINUOUS
 62
   212
 10
232.692114025388
 20
340.138646751642
 30
0.0
 11
233.392113345895
 21
340.138646751642
 31
0.0
  0
LINE
  5
   47D
  8
0
  6
CONTINUOUS
 62
   212
 10
226.532113329206
 20
349.23864659667
 30
0.0
 11
228.492112761769
 21
349.23864659667
 31
0.0
  0
LINE
  5
   47E
  8
0
  6
CONTINUOUS
 62
   212
 10
229.892112737928
 20
349.23864659667
 30
0.0
 11
233.392113345895
 21
349.23864659667
 31
0.0
  0
LINE
  5
   47F
  8
0
  6
CONTINUOUS
 62
   212
 10
233.392113187775
 20
339.613646760583
 30
0.0
 11
233.392113187775
 21
340.138646751642
 31
0.0
  0
LINE
  5
   480
  8
0
  6
CONTINUOUS
 62
   212
 10
233.392113187775
 20
349.23864659667
 30
0.0
 11
233.392113187775
 21
350.813646569848
 31
0.0
  0
LINE
  5
   481
  8
0
  6
CONTINUOUS
 62
   212
 10
234.442113169894
 20
339.613646760583
 30
0.0
 11
234.442113169894
 21
340.138646751642
 31
0.0
  0
LINE
  5
   482
  8
0
  6
CONTINUOUS
 62
   212
 10
234.442113169894
 20
349.23864659667
 30
0.0
 11
234.442113169894
 21
350.813646569848
 31
0.0
  0
LINE
  5
   483
  8
0
  6
CONTINUOUS
 62
   212
 10
233.392113345895
 20
350.813646569848
 30
0.0
 11
234.442113328014
 21
350.813646569848
 31
0.0
  0
LINE
  5
   484
  8
0
  6
CONTINUOUS
 62
   212
 10
233.392113345895
 20
339.613646760583
 30
0.0
 11
234.442113328014
 21
339.613646760583
 31
0.0
  0
LINE
  5
   485
  8
0
  6
CONTINUOUS
 62
   212
 10
232.692113867268
 20
339.613646760583
 30
0.0
 11
232.692113867268
 21
340.138646751642
 31
0.0
  0
LINE
  5
   486
  8
0
  6
CONTINUOUS
 62
   212
 10
231.642114043269
 20
339.613646760583
 30
0.0
 11
232.692114025388
 21
339.613646760583
 31
0.0
  0
LINE
  5
   487
  8
0
  6
CONTINUOUS
 62
   212
 10
224.29211401032
 20
341.678647259474
 30
0.0
 11
224.29211401032
 21
347.348648765087
 31
0.0
  0
LINE
  5
   488
  8
0
  6
CONTINUOUS
 62
   212
 10
224.292113822348
 20
341.678646913383
 30
0.0
 11
225.132113674528
 21
340.838647061202
 31
0.0
  0
LINE
  5
   489
  8
0
  6
CONTINUOUS
 62
   212
 10
224.292115157492
 20
347.348647776034
 30
0.0
 11
225.132113674528
 21
348.188646293071
 31
0.0
  0
LINE
  5
   48A
  8
0
  6
CONTINUOUS
 62
   212
 10
226.532113972173
 20
349.23864659667
 30
0.0
 11
226.532113972173
 21
352.738646537066
 31
0.0
  0
LINE
  5
   48B
  8
0
  6
CONTINUOUS
 62
   212
 10
226.532113972173
 20
339.263646766543
 30
0.0
 11
226.532113972173
 21
340.138646751642
 31
0.0
  0
LINE
  5
   48C
  8
0
  6
CONTINUOUS
 62
   212
 10
225.132113996014
 20
349.23864659667
 30
0.0
 11
225.132113996014
 21
352.738646537066
 31
0.0
  0
LINE
  5
   48D
  8
0
  6
CONTINUOUS
 62
   212
 10
225.132113996014
 20
339.263646766543
 30
0.0
 11
225.132113996014
 21
340.138646751642
 31
0.0
  0
LINE
  5
   48E
  8
0
  6
CONTINUOUS
 62
   212
 10
225.132113353047
 20
339.263646767179
 30
0.0
 11
226.532113329206
 21
339.263646767179
 31
0.0
  0
LINE
  5
   48F
  8
0
  6
CONTINUOUS
 62
   212
 10
231.642113217578
 20
340.838646739721
 30
0.0
 11
231.642113217578
 21
341.71364672482
 31
0.0
  0
LINE
  5
   490
  8
0
  6
CONTINUOUS
 62
   212
 10
225.692112809453
 20
341.71364672482
 30
0.0
 11
231.642113375697
 21
341.71364672482
 31
0.0
  0
LINE
  5
   491
  8
0
  6
CONTINUOUS
 62
   212
 10
226.532113972173
 20
340.138646751642
 30
0.0
 11
226.532113972173
 21
340.663646742702
 31
0.0
  0
LINE
  5
   492
  8
0
  6
CONTINUOUS
 62
   212
 10
226.532113329206
 20
340.663646742702
 30
0.0
 11
228.492114096913
 21
340.663646742702
 31
0.0
  0
ARC
  5
   493
  8
0
  6
CONTINUOUS
 62
   212
 10
230.592428803008
 20
339.613688785056
 30
0.0
 40
1.04980106151915
 50
359.997706145832
 51
450.014151717008
  0
LINE
  5
   494
  8
0
  6
CONTINUOUS
 62
   212
 10
228.492114018179
 20
339.613646681849
 30
0.0
 11
228.842114011901
 21
339.263646687492
 31
0.0
  0
LINE
  5
   495
  8
0
  6
CONTINUOUS
 62
   212
 10
229.542113999981
 20
339.263646845595
 30
0.0
 11
229.892113993703
 21
339.613646839952
 31
0.0
  0
LINE
  5
   496
  8
0
  6
CONTINUOUS
 62
     3
 10
240.46834324449
 20
342.343647782207
 30
0.0
 11
240.46834324449
 21
342.413646712899
 31
0.0
  0
LINE
  5
   497
  8
0
  6
CONTINUOUS
 62
     3
 10
240.46834324449
 20
346.613646641374
 30
0.0
 11
240.46834324449
 21
346.683645572066
 31
0.0
  0
LINE
  5
   498
  8
0
  6
CONTINUOUS
 62
     3
 10
240.042113074527
 20
339.786264860671
 30
0.0
 11
240.042113074527
 21
339.963646754622
 31
0.0
  0
LINE
  5
   499
  8
0
  6
CONTINUOUS
 62
     3
 10
240.468343100501
 20
342.343646738089
 30
0.0
 11
241.504056969997
 21
342.17102775984
 31
0.0
  0
LINE
  5
   49A
  8
0
  6
CONTINUOUS
 62
     3
 10
240.468343100501
 20
346.683646616183
 30
0.0
 11
241.504056536978
 21
346.856265522263
 31
0.0
  0
LINE
  5
   49B
  8
0
  6
CONTINUOUS
 62
     3
 10
241.077826676808
 20
339.61364675996
 30
0.0
 11
241.504056722207
 21
342.171027032351
 31
0.0
  0
LINE
  5
   49C
  8
0
  6
CONTINUOUS
 62
     3
 10
241.077826676808
 20
349.413646594313
 30
0.0
 11
241.504057155227
 21
346.856263723804
 31
0.0
  0
LINE
  5
   49D
  8
0
  6
CONTINUOUS
 62
     3
 10
240.042113201176
 20
339.786265673206
 30
0.0
 11
241.077826673173
 21
339.613646761206
 31
0.0
  0
LINE
  5
   49E
  8
0
  6
CONTINUOUS
 62
     3
 10
240.042113201176
 20
349.241027681067
 30
0.0
 11
241.077826673173
 21
349.413646593067
 31
0.0
  0
LINE
  5
   49F
  8
0
  6
CONTINUOUS
 62
     3
 10
240.042112939104
 20
339.786264881779
 30
0.0
 11
240.468343418509
 21
342.343647758209
 31
0.0
  0
LINE
  5
   4A0
  8
0
  6
CONTINUOUS
 62
     3
 10
240.042112939104
 20
349.241028472494
 30
0.0
 11
240.468343418509
 21
346.683645596064
 31
0.0
  0
LINE
  5
   4A1
  8
0
  6
CONTINUOUS
 62
     3
 10
245.704056775349
 20
342.492919553956
 30
0.0
 11
245.704056775349
 21
343.50328445069
 31
0.0
  0
LINE
  5
   4A2
  8
0
  6
CONTINUOUS
 62
     3
 10
245.704056775349
 20
343.50328445069
 30
0.0
 11
245.704056775349
 21
345.524008903582
 31
0.0
  0
LINE
  5
   4A3
  8
0
  6
CONTINUOUS
 62
     3
 10
245.704056775349
 20
345.524008903582
 30
0.0
 11
245.704056775349
 21
346.534371130028
 31
0.0
  0
LINE
  5
   4A4
  8
0
  6
CONTINUOUS
 62
     3
 10
245.704056775349
 20
346.534371130028
 30
0.0
 11
245.704056775349
 21
347.663646623492
 31
0.0
  0
LINE
  5
   4A5
  8
0
  6
CONTINUOUS
 62
     3
 10
245.704056775349
 20
341.363646730781
 30
0.0
 11
245.704056775349
 21
342.492919553956
 31
0.0
  0
ARC
  5
   4A6
  8
0
  6
CONTINUOUS
 62
     3
 10
245.353924012156
 20
347.663567093153
 30
0.0
 40
0.350163096750879
 50
1.30143555199134E-2
 51
89.9782646101001
  0
ARC
  5
   4A7
  8
0
  6
CONTINUOUS
 62
     3
 10
245.353924012156
 20
341.363726261119
 30
0.0
 40
0.350163096750865
 50
270.021735389881
 51
359.986985644647
  0
LINE
  5
   4A8
  8
0
  6
CONTINUOUS
 62
     3
 10
241.504056845329
 20
341.013646736741
 30
0.0
 11
245.354056816272
 21
341.013646736741
 31
0.0
  0
LINE
  5
   4A9
  8
0
  6
CONTINUOUS
 62
     3
 10
241.504056845329
 20
348.013646617532
 30
0.0
 11
245.354056816272
 21
348.013646617532
 31
0.0
  0
LINE
  5
   4AA
  8
0
  6
CONTINUOUS
 62
     3
 10
241.504056846875
 20
341.013646736741
 30
0.0
 11
241.504056846875
 21
348.013646617532
 31
0.0
  0
LINE
  5
   4AB
  8
0
  6
CONTINUOUS
 62
     3
 10
241.504056846875
 20
346.613646641374
 30
0.0
 11
241.504056846875
 21
348.013646617532
 31
0.0
  0
LINE
  5
   4AC
  8
0
  6
CONTINUOUS
 62
     3
 10
231.382056693725
 20
342.413646712899
 30
0.0
 11
241.504056845329
 21
342.413646712899
 31
0.0
  0
LINE
  5
   4AD
  8
0
  6
CONTINUOUS
 62
     3
 10
231.382056693725
 20
346.613646641373
 30
0.0
 11
241.504056845329
 21
346.613646641373
 31
0.0
  0
LINE
  5
   4AE
  8
0
  6
CONTINUOUS
 62
     3
 10
231.004056555842
 20
346.235646177964
 30
0.0
 11
231.382056856488
 21
346.61364647861
 31
0.0
  0
LINE
  5
   4AF
  8
0
  6
CONTINUOUS
 62
     3
 10
231.004056555842
 20
342.791647176309
 30
0.0
 11
231.382056856488
 21
342.413646875663
 31
0.0
  0
LINE
  5
   4B0
  8
0
  6
CONTINUOUS
 62
     3
 10
231.004057025689
 20
342.791647347331
 30
0.0
 11
231.004057025689
 21
346.235646006942
 31
0.0
  0
LINE
  5
   4B1
  8
0
  6
CONTINUOUS
 62
   218
 10
227.442113289103
 20
334.01364685595
 30
0.0
 11
227.442113289103
 21
335.063646838069
 31
0.0
  0
ARC
  5
   4B2
  8
0
  6
CONTINUOUS
 62
   218
 10
228.142113277182
 20
335.763646826148
 30
0.0
 40
2.4499999582768
 50
90.0000119140747
 51
162.796267673144
  0
LINE
  5
   4B3
  8
0
  6
CONTINUOUS
 62
   218
 10
234.792113322053
 20
348.713646605611
 30
0.0
 11
236.542113292251
 21
348.713646605611
 31
0.0
  0
LINE
  5
   4B4
  8
0
  6
CONTINUOUS
 62
   218
 10
228.14211276773
 20
338.213646784425
 30
0.0
 11
234.092113333974
 21
338.213646784425
 31
0.0
  0
LINE
  5
   4B5
  8
0
  6
CONTINUOUS
 62
   218
 10
228.14211276773
 20
336.463646814227
 30
0.0
 11
234.092113333974
 21
336.463646814227
 31
0.0
  0
ARC
  5
   4B6
  8
0
  6
CONTINUOUS
 62
   218
 10
234.092113175854
 20
338.913646772504
 30
0.0
 40
2.44999995827675
 50
270.000003697787
 51
360.0
  0
LINE
  5
   4B7
  8
0
  6
CONTINUOUS
 62
   218
 10
236.542113134131
 20
346.613646641374
 30
0.0
 11
236.542113134131
 21
348.713646605611
 31
0.0
  0
LINE
  5
   4B8
  8
0
  6
CONTINUOUS
 62
   218
 10
236.542113134131
 20
338.913646772504
 30
0.0
 11
236.542113134131
 21
342.413646712899
 31
0.0
  0
LINE
  5
   4B9
  8
0
  6
CONTINUOUS
 62
   218
 10
234.792113163934
 20
346.613646641374
 30
0.0
 11
234.792113163934
 21
348.713646605611
 31
0.0
  0
LINE
  5
   4BA
  8
0
  6
CONTINUOUS
 62
   218
 10
234.792113163934
 20
338.913646772504
 30
0.0
 11
234.792113163934
 21
342.413646712899
 31
0.0
  0
ARC
  5
   4BB
  8
0
  6
CONTINUOUS
 62
   218
 10
234.092113175854
 20
338.913646772504
 30
0.0
 40
0.699999988079146
 50
270.000012942259
 51
360.0
  0
LINE
  5
   4BC
  8
0
  6
CONTINUOUS
 62
     1
 10
234.792113322053
 20
346.613646641374
 30
0.0
 11
236.542113292251
 21
346.613646641374
 31
0.0
  0
LINE
  5
   4BD
  8
0
  6
CONTINUOUS
 62
     1
 10
234.792113322053
 20
342.413646712899
 30
0.0
 11
236.542113292251
 21
342.413646712899
 31
0.0
  0
LINE
  5
   4BE
  8
0
  6
CONTINUOUS
 62
   218
 10
228.142113277182
 20
336.463646814227
 30
0.0
 11
228.142113277182
 21
338.213646784425
 31
0.0
  0
LINE
  5
   4BF
  8
0
  6
CONTINUOUS
 62
   134
 10
234.442113169894
 20
266.463645336032
 30
0.0
 11
234.442113169894
 21
267.86364531219
 31
0.0
  0
LINE
  5
   4C0
  8
0
  6
CONTINUOUS
 62
   134
 10
234.442113169894
 20
272.063645240665
 30
0.0
 11
234.442113169894
 21
273.463645216823
 31
0.0
  0
LINE
  5
   4C1
  8
0
  6
CONTINUOUS
 62
   134
 10
231.642113217578
 20
272.063618537784
 30
0.0
 11
231.642113217578
 21
273.463645216823
 31
0.0
  0
LINE
  5
   4C2
  8
0
  6
CONTINUOUS
 62
   134
 10
231.642113217578
 20
266.463645336032
 30
0.0
 11
231.642113217578
 21
267.86364531219
 31
0.0
  0
LINE
  5
   4C3
  8
0
  6
CONTINUOUS
 62
   134
 10
231.642113375697
 20
273.463644092515
 30
0.0
 11
234.442113328014
 21
273.463644092515
 31
0.0
  0
LINE
  5
   4C4
  8
0
  6
CONTINUOUS
 62
   134
 10
231.642113375697
 20
266.463644211724
 30
0.0
 11
234.442113328014
 21
266.463644211724
 31
0.0
  0
LINE
  5
   4C5
  8
0
  6
CONTINUOUS
 62
   134
 10
231.642113375697
 20
267.863644187882
 30
0.0
 11
234.442113328014
 21
267.863644187882
 31
0.0
  0
LINE
  5
   4C6
  8
0
  6
CONTINUOUS
 62
   134
 10
231.642113375697
 20
272.063644116357
 30
0.0
 11
234.442113328014
 21
272.063644116357
 31
0.0
  0
LINE
  5
   4C7
  8
0
  6
CONTINUOUS
 62
   212
 10
226.882113966212
 20
273.813645210862
 30
0.0
 11
226.882113966212
 21
274.233644135594
 31
0.0
  0
ARC
  5
   4C8
  8
0
  6
CONTINUOUS
 62
   212
 10
226.882113966212
 20
274.72364407042
 30
0.0
 40
0.489999991657039
 50
59.5663634967917
 51
90.0000751820071
  0
ARC
  5
   4C9
  8
0
  6
CONTINUOUS
 62
   212
 10
226.882113966211
 20
274.723644070423
 30
0.0
 40
0.489999991657011
 50
269.999924817847
 51
300.285943786613
  0
LINE
  5
   4CA
  8
0
  6
CONTINUOUS
 62
   212
 10
225.692112809453
 20
267.615772816418
 30
0.0
 11
231.642113375697
 21
267.615772816418
 31
0.0
  0
LINE
  5
   4CB
  8
0
  6
CONTINUOUS
 62
   212
 10
225.692112809453
 20
269.26364416404
 30
0.0
 11
231.004056726865
 21
269.26364416404
 31
0.0
  0
LINE
  5
   4CC
  8
0
  6
CONTINUOUS
 62
   212
 10
225.692112809453
 20
270.663644140551
 30
0.0
 11
231.004056726865
 21
270.663644140551
 31
0.0
  0
LINE
  5
   4CD
  8
0
  6
CONTINUOUS
 62
   212
 10
234.442113169894
 20
266.288645339012
 30
0.0
 11
234.442113169894
 21
266.463645336032
 31
0.0
  0
LINE
  5
   4CE
  8
0
  6
CONTINUOUS
 62
   212
 10
234.442113169894
 20
273.463645216823
 30
0.0
 11
234.442113169894
 21
273.638645213842
 31
0.0
  0
LINE
  5
   4CF
  8
0
  6
CONTINUOUS
 62
   212
 10
226.532113329206
 20
261.73864429219
 30
0.0
 11
228.492112761769
 21
261.73864429219
 31
0.0
  0
LINE
  5
   4D0
  8
0
  6
CONTINUOUS
 62
   212
 10
229.89211445252
 20
261.738644519621
 30
0.0
 11
234.442113707461
 21
263.66364448684
 31
0.0
  0
LINE
  5
   4D1
  8
0
  6
CONTINUOUS
 62
   212
 10
229.892114073072
 20
273.813644086554
 30
0.0
 11
230.592132753167
 21
273.813644086554
 31
0.0
  0
LINE
  5
   4D2
  8
0
  6
CONTINUOUS
 62
   212
 10
228.842114090953
 20
275.213644062712
 30
0.0
 11
229.542114079032
 21
275.213644062712
 31
0.0
  0
LINE
  5
   4D3
  8
0
  6
CONTINUOUS
 62
   212
 10
225.132113353047
 20
261.73864429219
 30
0.0
 11
226.532113329206
 21
261.73864429219
 31
0.0
  0
LINE
  5
   4D4
  8
0
  6
CONTINUOUS
 62
   212
 10
228.492112761769
 20
261.73864429219
 30
0.0
 11
229.892112737928
 21
261.73864429219
 31
0.0
  0
LINE
  5
   4D5
  8
0
  6
CONTINUOUS
 62
   212
 10
229.89211324738
 20
261.738645416498
 30
0.0
 11
229.89211324738
 21
265.238645356894
 31
0.0
  0
LINE
  5
   4D6
  8
0
  6
CONTINUOUS
 62
   212
 10
229.892113914969
 20
273.813645210862
 30
0.0
 11
229.892113914969
 21
274.863645192981
 31
0.0
  0
LINE
  5
   4D7
  8
0
  6
CONTINUOUS
 62
   212
 10
228.492113271222
 20
261.738645416498
 30
0.0
 11
228.492113271222
 21
265.238645356894
 31
0.0
  0
LINE
  5
   4D8
  8
0
  6
CONTINUOUS
 62
   212
 10
228.49211393881
 20
273.813645210862
 30
0.0
 11
228.49211393881
 21
274.863645192981
 31
0.0
  0
LINE
  5
   4D9
  8
0
  6
CONTINUOUS
 62
   212
 10
231.642113217578
 20
266.288645339012
 30
0.0
 11
231.642113217578
 21
267.513645318151
 31
0.0
  0
LINE
  5
   4DA
  8
0
  6
CONTINUOUS
 62
   212
 10
225.692112809453
 20
267.513644193843
 30
0.0
 11
231.642113375697
 21
267.513644193843
 31
0.0
  0
LINE
  5
   4DB
  8
0
  6
CONTINUOUS
 62
   212
 10
225.692113318906
 20
267.513645318151
 30
0.0
 11
225.692113318906
 21
272.763645228744
 31
0.0
  0
LINE
  5
   4DC
  8
0
  6
CONTINUOUS
 62
   212
 10
231.642113375697
 20
266.288644214704
 30
0.0
 11
234.442113328014
 21
266.288644214704
 31
0.0
  0
LINE
  5
   4DD
  8
0
  6
CONTINUOUS
 62
   212
 10
231.642113375697
 20
273.638644089535
 30
0.0
 11
234.442113328014
 21
273.638644089535
 31
0.0
  0
LINE
  5
   4DE
  8
0
  6
CONTINUOUS
 62
   212
 10
234.442113169894
 20
273.638645213842
 30
0.0
 11
234.442113169894
 21
274.338645201922
 31
0.0
  0
LINE
  5
   4DF
  8
0
  6
CONTINUOUS
 62
   212
 10
234.442113169894
 20
265.238645356894
 30
0.0
 11
234.442113169894
 21
266.288645339012
 31
0.0
  0
LINE
  5
   4E0
  8
0
  6
CONTINUOUS
 62
   212
 10
225.132113996014
 20
265.238645356894
 30
0.0
 11
225.132113996014
 21
266.288645339012
 31
0.0
  0
LINE
  5
   4E1
  8
0
  6
CONTINUOUS
 62
   212
 10
225.132113996014
 20
273.638645213842
 30
0.0
 11
225.132113996014
 21
274.338645201922
 31
0.0
  0
LINE
  5
   4E2
  8
0
  6
CONTINUOUS
 62
   212
 10
232.692114025388
 20
274.338644077613
 30
0.0
 11
233.392113345895
 21
274.338644077613
 31
0.0
  0
LINE
  5
   4E3
  8
0
  6
CONTINUOUS
 62
   212
 10
226.532113329206
 20
265.238644232586
 30
0.0
 11
228.492112761769
 21
265.238644232586
 31
0.0
  0
LINE
  5
   4E4
  8
0
  6
CONTINUOUS
 62
   212
 10
229.892112737928
 20
265.238644232586
 30
0.0
 11
233.392113345895
 21
265.238644232586
 31
0.0
  0
LINE
  5
   4E5
  8
0
  6
CONTINUOUS
 62
   212
 10
233.392113187775
 20
263.663645383716
 30
0.0
 11
233.392113187775
 21
265.238645356894
 31
0.0
  0
LINE
  5
   4E6
  8
0
  6
CONTINUOUS
 62
   212
 10
233.392113187775
 20
274.338645201922
 30
0.0
 11
233.392113187775
 21
274.863645192981
 31
0.0
  0
LINE
  5
   4E7
  8
0
  6
CONTINUOUS
 62
   212
 10
234.442113169894
 20
263.663645383716
 30
0.0
 11
234.442113169894
 21
265.238645356894
 31
0.0
  0
LINE
  5
   4E8
  8
0
  6
CONTINUOUS
 62
   212
 10
234.442113169894
 20
274.338645201922
 30
0.0
 11
234.442113169894
 21
274.863645192981
 31
0.0
  0
LINE
  5
   4E9
  8
0
  6
CONTINUOUS
 62
   212
 10
233.392113345895
 20
263.663644259408
 30
0.0
 11
234.442113328014
 21
263.663644259408
 31
0.0
  0
LINE
  5
   4EA
  8
0
  6
CONTINUOUS
 62
   212
 10
233.392113345895
 20
274.863644068673
 30
0.0
 11
234.442113328014
 21
274.863644068673
 31
0.0
  0
LINE
  5
   4EB
  8
0
  6
CONTINUOUS
 62
   212
 10
232.692113867268
 20
274.338645201922
 30
0.0
 11
232.692113867268
 21
274.863645192981
 31
0.0
  0
LINE
  5
   4EC
  8
0
  6
CONTINUOUS
 62
   212
 10
231.642113375697
 20
274.863644068673
 30
0.0
 11
232.692114025388
 21
274.863644068673
 31
0.0
  0
LINE
  5
   4ED
  8
0
  6
CONTINUOUS
 62
   212
 10
224.29211401032
 20
267.128643188477
 30
0.0
 11
224.29211401032
 21
272.79864469409
 31
0.0
  0
LINE
  5
   4EE
  8
0
  6
CONTINUOUS
 62
   212
 10
224.292114384501
 20
272.798644478028
 30
0.0
 11
225.132114236682
 21
273.638644330208
 31
0.0
  0
LINE
  5
   4EF
  8
0
  6
CONTINUOUS
 62
   212
 10
224.292114595338
 20
267.128643615376
 30
0.0
 11
225.132113112375
 21
266.28864509834
 31
0.0
  0
LINE
  5
   4F0
  8
0
  6
CONTINUOUS
 62
   212
 10
226.532113972173
 20
261.738645416498
 30
0.0
 11
226.532113972173
 21
265.238645356894
 31
0.0
  0
LINE
  5
   4F1
  8
0
  6
CONTINUOUS
 62
   212
 10
226.532113972173
 20
274.338645201922
 30
0.0
 11
226.532113972173
 21
275.21364518702
 31
0.0
  0
LINE
  5
   4F2
  8
0
  6
CONTINUOUS
 62
   212
 10
225.132113996014
 20
274.338645201922
 30
0.0
 11
225.132113996014
 21
275.21364518702
 31
0.0
  0
LINE
  5
   4F3
  8
0
  6
CONTINUOUS
 62
   212
 10
225.132113996014
 20
261.738645416498
 30
0.0
 11
225.132113996014
 21
265.238645356894
 31
0.0
  0
LINE
  5
   4F4
  8
0
  6
CONTINUOUS
 62
   212
 10
225.132113353047
 20
275.213644062077
 30
0.0
 11
226.532113329206
 21
275.213644062077
 31
0.0
  0
LINE
  5
   4F5
  8
0
  6
CONTINUOUS
 62
   212
 10
231.642113217578
 20
272.763645228744
 30
0.0
 11
231.642113217578
 21
273.638645213842
 31
0.0
  0
LINE
  5
   4F6
  8
0
  6
CONTINUOUS
 62
   212
 10
225.692112809453
 20
272.763644104436
 30
0.0
 11
231.642113375697
 21
272.763644104436
 31
0.0
  0
LINE
  5
   4F7
  8
0
  6
CONTINUOUS
 62
   212
 10
226.532113972173
 20
273.813645210862
 30
0.0
 11
226.532113972173
 21
274.338645201922
 31
0.0
  0
LINE
  5
   4F8
  8
0
  6
CONTINUOUS
 62
   212
 10
226.532113329206
 20
273.813644086554
 30
0.0
 11
228.492114096913
 21
273.813644086554
 31
0.0
  0
ARC
  5
   4F9
  8
0
  6
CONTINUOUS
 62
   212
 10
230.592428803008
 20
274.863602044199
 30
0.0
 40
1.04980106151913
 50
269.983844663484
 51
360.002355224629
  0
LINE
  5
   4FA
  8
0
  6
CONTINUOUS
 62
   212
 10
228.492114580337
 20
274.863644709558
 30
0.0
 11
228.842114574058
 21
275.213644703915
 31
0.0
  0
LINE
  5
   4FB
  8
0
  6
CONTINUOUS
 62
   212
 10
229.542113437829
 20
275.213644545817
 30
0.0
 11
229.892113431551
 21
274.86364455146
 31
0.0
  0
LINE
  5
   4FC
  8
0
  6
CONTINUOUS
 62
     3
 10
240.46834324449
 20
267.793643711209
 30
0.0
 11
240.46834324449
 21
267.86364531219
 31
0.0
  0
LINE
  5
   4FD
  8
0
  6
CONTINUOUS
 62
     3
 10
240.46834324449
 20
272.063645240665
 30
0.0
 11
240.46834324449
 21
272.133644171357
 31
0.0
  0
LINE
  5
   4FE
  8
0
  6
CONTINUOUS
 62
     3
 10
240.042113074527
 20
274.513645198941
 30
0.0
 11
240.042113074527
 21
274.691024422605
 31
0.0
  0
LINE
  5
   4FF
  8
0
  6
CONTINUOUS
 62
     3
 10
240.468343351201
 20
267.793644171289
 30
0.0
 11
241.504056787677
 21
267.62102526521
 31
0.0
  0
LINE
  5
   500
  8
0
  6
CONTINUOUS
 62
     3
 10
240.468343282821
 20
272.133644121553
 30
0.0
 11
241.504056719298
 21
272.306263027632
 31
0.0
  0
LINE
  5
   501
  8
0
  6
CONTINUOUS
 62
     3
 10
241.077826494488
 20
274.863645163217
 30
0.0
 11
241.504056972906
 21
272.306262292708
 31
0.0
  0
LINE
  5
   502
  8
0
  6
CONTINUOUS
 62
     3
 10
241.077826859129
 20
265.063645328864
 30
0.0
 11
241.504056904527
 21
267.621025601255
 31
0.0
  0
LINE
  5
   503
  8
0
  6
CONTINUOUS
 62
     3
 10
240.042113018855
 20
265.236263178575
 30
0.0
 11
241.077826490853
 21
265.063644266576
 31
0.0
  0
LINE
  5
   504
  8
0
  6
CONTINUOUS
 62
     3
 10
240.042112950476
 20
274.691025114267
 30
0.0
 11
241.077826855493
 21
274.863644098436
 31
0.0
  0
LINE
  5
   505
  8
0
  6
CONTINUOUS
 62
     3
 10
240.042113121424
 20
265.236263450683
 30
0.0
 11
240.46834316781
 21
267.793643728995
 31
0.0
  0
LINE
  5
   506
  8
0
  6
CONTINUOUS
 62
     3
 10
240.042113189804
 20
274.69102444328
 30
0.0
 11
240.468343236189
 21
272.133644164969
 31
0.0
  0
LINE
  5
   507
  8
0
  6
CONTINUOUS
 62
     3
 10
245.704056775349
 20
270.974007502873
 30
0.0
 11
245.704056775349
 21
271.984369729319
 31
0.0
  0
LINE
  5
   508
  8
0
  6
CONTINUOUS
 62
     3
 10
245.704056775349
 20
268.953280379693
 30
0.0
 11
245.704056775349
 21
270.974007502873
 31
0.0
  0
LINE
  5
   509
  8
0
  6
CONTINUOUS
 62
     3
 10
245.704056775349
 20
267.942918153247
 30
0.0
 11
245.704056775349
 21
268.953280379693
 31
0.0
  0
LINE
  5
   50A
  8
0
  6
CONTINUOUS
 62
     3
 10
245.704056775349
 20
271.984369729319
 30
0.0
 11
245.704056775349
 21
273.113645222783
 31
0.0
  0
LINE
  5
   50B
  8
0
  6
CONTINUOUS
 62
     3
 10
245.704056775349
 20
266.813645330072
 30
0.0
 11
245.704056775349
 21
267.942918153247
 31
0.0
  0
ARC
  5
   50C
  8
0
  6
CONTINUOUS
 62
     3
 10
245.353924012156
 20
266.813723736102
 30
0.0
 40
0.350163096750686
 50
270.021735459658
 51
359.987169626447
  0
ARC
  5
   50D
  8
0
  6
CONTINUOUS
 62
     3
 10
245.353924012157
 20
273.113564568137
 30
0.0
 40
0.350163096750272
 50
1.31983373011207E-2
 51
89.9782646800021
  0
LINE
  5
   50E
  8
0
  6
CONTINUOUS
 62
     3
 10
241.504056845329
 20
266.463644211724
 30
0.0
 11
245.354056816272
 21
266.463644211724
 31
0.0
  0
LINE
  5
   50F
  8
0
  6
CONTINUOUS
 62
     3
 10
241.504056845329
 20
273.463644092515
 30
0.0
 11
245.354056816272
 21
273.463644092515
 31
0.0
  0
LINE
  5
   510
  8
0
  6
CONTINUOUS
 62
     3
 10
241.504056846875
 20
267.310724081591
 30
0.0
 11
241.504056846875
 21
273.463645216823
 31
0.0
  0
LINE
  5
   511
  8
0
  6
CONTINUOUS
 62
     3
 10
241.504056846875
 20
266.463645336032
 30
0.0
 11
241.504056846875
 21
267.86364531219
 31
0.0
  0
LINE
  5
   512
  8
0
  6
CONTINUOUS
 62
     3
 10
231.382056693725
 20
272.063644116357
 30
0.0
 11
241.504056845329
 21
272.063644116357
 31
0.0
  0
LINE
  5
   513
  8
0
  6
CONTINUOUS
 62
     3
 10
231.382056693725
 20
267.863644187882
 30
0.0
 11
241.504056845329
 21
267.863644187882
 31
0.0
  0
LINE
  5
   514
  8
0
  6
CONTINUOUS
 62
     3
 10
231.004057117996
 20
271.685644215101
 30
0.0
 11
231.382057418642
 21
272.063644515747
 31
0.0
  0
LINE
  5
   515
  8
0
  6
CONTINUOUS
 62
     3
 10
231.004057328832
 20
268.241643878301
 30
0.0
 11
231.382056294334
 21
267.8636449128
 31
0.0
  0
LINE
  5
   516
  8
0
  6
CONTINUOUS
 62
     3
 10
231.004057025689
 20
268.241643276334
 30
0.0
 11
231.004057025689
 21
271.685644606233
 31
0.0
  0
LINE
  5
   517
  8
0
  6
CONTINUOUS
 62
     7
 10
256.492112284932
 20
290.788645662872
 30
0.0
 11
267.692113429342
 21
290.788644306217
 31
0.0
  0
LINE
  5
   518
  8
0
  6
CONTINUOUS
 62
     7
 10
255.792112296853
 20
290.788643797472
 30
0.0
 11
256.492112284932
 21
290.788643797472
 31
0.0
  0
LINE
  5
   519
  8
0
  6
CONTINUOUS
 62
     7
 10
255.792112806306
 20
280.463643762469
 30
0.0
 11
255.792112806306
 21
290.788643586636
 31
0.0
  0
LINE
  5
   51A
  8
0
  6
CONTINUOUS
 62
     7
 10
263.842112669215
 20
276.350927539174
 30
0.0
 11
263.842112669215
 21
276.642544355496
 31
0.0
  0
LINE
  5
   51B
  8
0
  6
CONTINUOUS
 62
     7
 10
263.842112669215
 20
274.163645204902
 30
0.0
 11
263.842112669215
 21
276.350927539174
 31
0.0
  0
LINE
  5
   51C
  8
0
  6
CONTINUOUS
 62
     7
 10
255.44211281227
 20
267.387532954576
 30
0.0
 11
255.44211281227
 21
272.938642555475
 31
0.0
  0
LINE
  5
   51D
  8
0
  6
CONTINUOUS
 62
     7
 10
264.892113477025
 20
265.938644217644
 30
0.0
 11
267.692113429341
 21
265.938644217644
 31
0.0
  0
LINE
  5
   51E
  8
0
  6
CONTINUOUS
 62
     7
 10
256.492112794389
 20
265.588645350933
 30
0.0
 11
256.492112794389
 21
265.763645347953
 31
0.0
  0
LINE
  5
   51F
  8
0
  6
CONTINUOUS
 62
     7
 10
256.492112794389
 20
262.788645398617
 30
0.0
 11
256.492112794389
 21
262.947826609285
 31
0.0
  0
LINE
  5
   520
  8
0
  6
CONTINUOUS
 62
     7
 10
267.692112603649
 20
265.938645344973
 30
0.0
 11
267.692112603649
 21
285.713643673062
 31
0.0
  0
LINE
  5
   521
  8
0
  6
CONTINUOUS
 62
     7
 10
267.692112603649
 20
285.713643673062
 30
0.0
 11
267.692112603649
 21
290.788643586636
 31
0.0
  0
LINE
  5
   522
  8
0
  6
CONTINUOUS
 62
     7
 10
262.092112189565
 20
264.643644061493
 30
0.0
 11
264.892113477025
 21
264.643644061493
 31
0.0
  0
LINE
  5
   523
  8
0
  6
CONTINUOUS
 62
     7
 10
262.092112189565
 20
263.033644088911
 30
0.0
 11
264.892113477025
 21
263.033644088911
 31
0.0
  0
LINE
  5
   524
  8
0
  6
CONTINUOUS
 62
     7
 10
256.492112284932
 20
261.738644110965
 30
0.0
 11
264.892113477025
 21
261.738644110965
 31
0.0
  0
LINE
  5
   525
  8
0
  6
CONTINUOUS
 62
     7
 10
260.692112722863
 20
263.488645386696
 30
0.0
 11
260.692112722863
 21
265.063645359874
 31
0.0
  0
LINE
  5
   526
  8
0
  6
CONTINUOUS
 62
     7
 10
256.492112284932
 20
265.7636441509
 30
0.0
 11
259.992112225328
 21
265.7636441509
 31
0.0
  0
LINE
  5
   527
  8
0
  6
CONTINUOUS
 62
     7
 10
256.492112284932
 20
262.788644201564
 30
0.0
 11
259.992112225328
 21
262.788644201564
 31
0.0
  0
LINE
  5
   528
  8
0
  6
CONTINUOUS
 62
     7
 10
255.792112296853
 20
274.163644080579
 30
0.0
 11
264.892113477025
 21
274.163644080579
 31
0.0
  0
LINE
  5
   529
  8
0
  6
CONTINUOUS
 62
     7
 10
255.792112296853
 20
265.76364422366
 30
0.0
 11
256.492112284932
 21
265.76364422366
 31
0.0
  0
LINE
  5
   52A
  8
0
  6
CONTINUOUS
 62
     7
 10
255.44211281227
 20
272.938642555475
 30
0.0
 11
255.44211281227
 21
273.813645210862
 31
0.0
  0
LINE
  5
   52B
  8
0
  6
CONTINUOUS
 62
     7
 10
255.44211281227
 20
266.113642671704
 30
0.0
 11
255.44211281227
 21
266.988642656803
 31
0.0
  0
LINE
  5
   52C
  8
0
  6
CONTINUOUS
 62
     7
 10
255.442112302814
 20
266.988644202804
 30
0.0
 11
264.892113477025
 21
266.988644202804
 31
0.0
  0
LINE
  5
   52D
  8
0
  6
CONTINUOUS
 62
     7
 10
255.442112302814
 20
272.938644101435
 30
0.0
 11
264.892113477025
 21
272.938644101435
 31
0.0
  0
LINE
  5
   52E
  8
0
  6
CONTINUOUS
 62
     7
 10
256.492112794389
 20
261.738645416498
 30
0.0
 11
256.492112794389
 21
262.788645398617
 31
0.0
  0
LINE
  5
   52F
  8
0
  6
CONTINUOUS
 62
     7
 10
262.092112699021
 20
263.033644326329
 30
0.0
 11
262.092112699021
 21
264.643643764854
 31
0.0
  0
ARC
  5
   530
  8
0
  6
CONTINUOUS
 62
     7
 10
259.992112734784
 20
263.488644189643
 30
0.0
 40
0.699999988078915
 50
269.999958300318
 51
360.000097979592
  0
POLYLINE
  5
   531
  8
0
  6
CONTINUOUS
 62
     7
 66
     1
 10
0.0
 20
0.0
 30
0.0
  0
VERTEX
  5
   532
  8
0
  6
CONTINUOUS
 10
259.992112735157
 20
265.763644202903
 30
0.0
 40
0.0
 41
0.0
  0
VERTEX
  5
   533
  8
0
  6
CONTINUOUS
 10
260.402525168343
 20
265.630220099713
 30
0.0
 40
0.0
 41
0.0
  0
VERTEX
  5
   534
  8
0
  6
CONTINUOUS
 10
260.673563923442
 20
265.217925191001
 30
0.0
 40
0.0
 41
0.0
  0
VERTEX
  5
   535
  8
0
  6
CONTINUOUS
 10
260.692112723305
 20
265.063644570549
 30
0.0
 40
0.0
 41
0.0
  0
SEQEND
  5
   536
  8
0
  6
CONTINUOUS
 62
     7
  0
ARC
  5
   537
  8
0
  6
CONTINUOUS
 62
     7
 10
255.792169931804
 20
273.813533200121
 30
0.0
 40
0.350141478215418
 50
90.0094319513616
 51
179.981666611549
  0
ARC
  5
   538
  8
0
  6
CONTINUOUS
 62
     7
 10
255.792169931814
 20
266.113755103912
 30
0.0
 40
0.350141478223835
 50
180.018402372146
 51
269.990567986462
  0
LINE
  5
   539
  8
0
  6
CONTINUOUS
 62
   212
 10
224.292112833295
 20
301.463642839256
 30
0.0
 11
225.342114150558
 21
301.463642839256
 31
0.0
  0
LINE
  5
   53A
  8
0
  6
CONTINUOUS
 62
   212
 10
225.342114015894
 20
297.088647484779
 30
0.0
 11
225.342114015894
 21
301.463642737269
 31
0.0
  0
LINE
  5
   53B
  8
0
  6
CONTINUOUS
 62
   212
 10
224.292113342748
 20
297.088647484779
 30
0.0
 11
224.292113342748
 21
301.463642737269
 31
0.0
  0
LINE
  5
   53C
  8
0
  6
CONTINUOUS
 62
   212
 10
225.342114150558
 20
276.26364326841
 30
0.0
 11
234.792113989625
 21
276.26364326841
 31
0.0
  0
LINE
  5
   53D
  8
0
  6
CONTINUOUS
 62
   212
 10
234.792113854961
 20
275.21364518702
 30
0.0
 11
234.792113854961
 21
276.263643833995
 31
0.0
  0
LINE
  5
   53E
  8
0
  6
CONTINUOUS
 62
   212
 10
224.292114033775
 20
275.21364518702
 30
0.0
 11
224.292114033775
 21
276.263643833995
 31
0.0
  0
LINE
  5
   53F
  8
0
  6
CONTINUOUS
 62
   212
 10
224.292113342748
 20
276.263643833995
 30
0.0
 11
224.292113342748
 21
280.463643762469
 31
0.0
  0
LINE
  5
   540
  8
0
  6
CONTINUOUS
 62
   212
 10
225.167114018876
 20
276.263643833995
 30
0.0
 11
225.167114018876
 21
280.463643762469
 31
0.0
  0
LINE
  5
   541
  8
0
  6
CONTINUOUS
 62
   212
 10
225.167114153538
 20
276.26364326841
 30
0.0
 11
225.342114150558
 21
276.26364326841
 31
0.0
  0
LINE
  5
   542
  8
0
  6
CONTINUOUS
 62
   214
 10
228.492112761769
 20
275.213644062712
 30
0.0
 11
229.892112737928
 21
275.213644062712
 31
0.0
  0
LINE
  5
   543
  8
0
  6
CONTINUOUS
 62
   214
 10
231.292113381658
 20
275.213644062712
 30
0.0
 11
234.792113989625
 21
275.213644062712
 31
0.0
  0
LINE
  5
   544
  8
0
  6
CONTINUOUS
 62
   214
 10
231.292113223538
 20
274.163645204902
 30
0.0
 11
231.292113223538
 21
275.21364518702
 31
0.0
  0
LINE
  5
   545
  8
0
  6
CONTINUOUS
 62
   214
 10
224.292114168439
 20
275.213644062712
 30
0.0
 11
227.092112785611
 21
275.213644062712
 31
0.0
  0
LINE
  5
   546
  8
0
  6
CONTINUOUS
 62
   214
 10
227.092113295064
 20
274.163645204902
 30
0.0
 11
227.092113295064
 21
275.21364518702
 31
0.0
  0
LINE
  5
   547
  8
0
  6
CONTINUOUS
 62
   214
 10
227.092112785611
 20
274.163644080594
 30
0.0
 11
228.31711276475
 21
274.163644080594
 31
0.0
  0
LINE
  5
   548
  8
0
  6
CONTINUOUS
 62
   214
 10
230.067112734947
 20
274.163644080594
 30
0.0
 11
231.292113381658
 21
274.163644080594
 31
0.0
  0
LINE
  5
   549
  8
0
  6
CONTINUOUS
 62
   212
 10
228.31711276475
 20
275.213644062712
 30
0.0
 11
228.492112761769
 21
275.213644062712
 31
0.0
  0
LINE
  5
   54A
  8
0
  6
CONTINUOUS
 62
   212
 10
229.892112737928
 20
275.213644062712
 30
0.0
 11
230.067112734947
 21
275.213644062712
 31
0.0
  0
LINE
  5
   54B
  8
0
  6
CONTINUOUS
 62
   212
 10
228.317113274202
 20
274.163645204902
 30
0.0
 11
228.317113274202
 21
275.21364518702
 31
0.0
  0
LINE
  5
   54C
  8
0
  6
CONTINUOUS
 62
   212
 10
230.0671132444
 20
274.163645204902
 30
0.0
 11
230.0671132444
 21
275.21364518702
 31
0.0
  0
LINE
  5
   54D
  8
0
  6
CONTINUOUS
 62
   218
 10
236.542114944055
 20
272.063645240665
 30
0.0
 11
236.542114944055
 21
272.238645237684
 31
0.0
  0
LINE
  5
   54E
  8
0
  6
CONTINUOUS
 62
   218
 10
236.542114944055
 20
267.68864531517
 30
0.0
 11
236.542114944055
 21
267.86364531219
 31
0.0
  0
LINE
  5
   54F
  8
0
  6
CONTINUOUS
 62
   218
 10
240.04211488445
 20
267.68864531517
 30
0.0
 11
240.04211488445
 21
267.86364531219
 31
0.0
  0
LINE
  5
   550
  8
0
  6
CONTINUOUS
 62
   218
 10
240.04211488445
 20
272.063645240665
 30
0.0
 11
240.04211488445
 21
272.238645237684
 31
0.0
  0
LINE
  5
   551
  8
0
  6
CONTINUOUS
 62
   218
 10
236.542114961181
 20
274.513644076934
 30
0.0
 11
240.042114901576
 21
274.513644076934
 31
0.0
  0
LINE
  5
   552
  8
0
  6
CONTINUOUS
 62
   218
 10
236.542114961181
 20
267.68864419319
 30
0.0
 11
240.042114901576
 21
267.68864419319
 31
0.0
  0
LINE
  5
   553
  8
0
  6
CONTINUOUS
 62
   218
 10
236.542114961181
 20
272.238644115649
 30
0.0
 11
240.042114901576
 21
272.238644115649
 31
0.0
  0
LINE
  5
   554
  8
0
  6
CONTINUOUS
 62
   218
 10
236.542114944055
 20
258.157671312537
 30
0.0
 11
236.542114944055
 21
267.68864531517
 31
0.0
  0
LINE
  5
   555
  8
0
  6
CONTINUOUS
 62
   218
 10
236.542114944055
 20
272.238645237684
 30
0.0
 11
236.542114944055
 21
274.513645198941
 31
0.0
  0
LINE
  5
   556
  8
0
  6
CONTINUOUS
 62
   218
 10
240.04211488445
 20
258.171631090933
 30
0.0
 11
240.04211488445
 21
267.68864531517
 31
0.0
  0
LINE
  5
   557
  8
0
  6
CONTINUOUS
 62
   218
 10
240.04211488445
 20
272.238645237684
 30
0.0
 11
240.04211488445
 21
274.513645198941
 31
0.0
  0
LINE
  5
   558
  8
0
  6
CONTINUOUS
 62
   218
 10
236.542114944055
 20
342.238646715879
 30
0.0
 11
236.542114944055
 21
342.413646712899
 31
0.0
  0
LINE
  5
   559
  8
0
  6
CONTINUOUS
 62
   218
 10
236.542114944055
 20
346.613646641374
 30
0.0
 11
236.542114944055
 21
346.788646638393
 31
0.0
  0
LINE
  5
   55A
  8
0
  6
CONTINUOUS
 62
   218
 10
240.04211488445
 20
346.613646641374
 30
0.0
 11
240.04211488445
 21
346.788646638393
 31
0.0
  0
LINE
  5
   55B
  8
0
  6
CONTINUOUS
 62
   218
 10
240.04211488445
 20
342.238646715879
 30
0.0
 11
240.04211488445
 21
342.413646712899
 31
0.0
  0
LINE
  5
   55C
  8
0
  6
CONTINUOUS
 62
   218
 10
236.542114961181
 20
339.963646752322
 30
0.0
 11
240.042114901576
 21
339.963646752322
 31
0.0
  0
LINE
  5
   55D
  8
0
  6
CONTINUOUS
 62
   218
 10
236.542114961181
 20
346.788646636066
 30
0.0
 11
240.042114901576
 21
346.788646636066
 31
0.0
  0
LINE
  5
   55E
  8
0
  6
CONTINUOUS
 62
   218
 10
236.542114961181
 20
342.238646713606
 30
0.0
 11
240.042114901576
 21
342.238646713606
 31
0.0
  0
LINE
  5
   55F
  8
0
  6
CONTINUOUS
 62
   218
 10
236.542114944055
 20
346.788646638393
 30
0.0
 11
236.542114944055
 21
353.581301441337
 31
0.0
  0
LINE
  5
   560
  8
0
  6
CONTINUOUS
 62
   218
 10
236.542114944055
 20
339.963646754622
 30
0.0
 11
236.542114944055
 21
342.238646715879
 31
0.0
  0
LINE
  5
   561
  8
0
  6
CONTINUOUS
 62
   218
 10
240.04211488445
 20
346.788646638393
 30
0.0
 11
240.04211488445
 21
353.67386552568
 31
0.0
  0
LINE
  5
   562
  8
0
  6
CONTINUOUS
 62
   218
 10
240.04211488445
 20
339.963646754622
 30
0.0
 11
240.04211488445
 21
342.238646715879
 31
0.0
  0
LINE
  5
   563
  8
0
  6
CONTINUOUS
 62
   253
 10
254.875531921532
 20
261.738648086786
 30
0.0
 11
256.492112284932
 21
261.738648086786
 31
0.0
  0
LINE
  5
   564
  8
0
  6
CONTINUOUS
 62
   212
 10
268.044076085091
 20
352.738646537066
 30
0.0
 11
268.044076085091
 21
352.878644398451
 31
0.0
  0
LINE
  5
   565
  8
0
  6
CONTINUOUS
 62
   212
 10
271.894076019523
 20
351.198643358946
 30
0.0
 11
271.894076019523
 21
352.878644398451
 31
0.0
  0
LINE
  5
   566
  8
0
  6
CONTINUOUS
 62
   212
 10
271.894076019526
 20
353.998643311262
 30
0.0
 11
271.894076019526
 21
354.137802702203
 31
0.0
  0
LINE
  5
   567
  8
0
  6
CONTINUOUS
 62
   212
 10
271.894076019526
 20
354.137802702203
 30
0.0
 11
271.894076019526
 21
358.913970681168
 31
0.0
  0
LINE
  5
   568
  8
0
  6
CONTINUOUS
 62
   212
 10
271.892113357816
 20
350.078642787769
 30
0.0
 11
271.894076019526
 21
350.078642787769
 31
0.0
  0
LINE
  5
   569
  8
0
  6
CONTINUOUS
 62
   212
 10
271.894076019526
 20
350.078644446135
 30
0.0
 11
271.894076019526
 21
351.198643358946
 31
0.0
  0
LINE
  5
   56A
  8
0
  6
CONTINUOUS
 62
   212
 10
271.892113357816
 20
351.198642768695
 30
0.0
 11
271.894076019526
 21
351.198642768695
 31
0.0
  0
LINE
  5
   56B
  8
0
  6
CONTINUOUS
 62
   212
 10
271.894076019526
 20
352.878644398451
 30
0.0
 11
271.894076019526
 21
353.998643311262
 31
0.0
  0
LINE
  5
   56C
  8
0
  6
CONTINUOUS
 62
   212
 10
264.892113477025
 20
353.998642721012
 30
0.0
 11
271.894076019526
 21
353.998642721012
 31
0.0
  0
LINE
  5
   56D
  8
0
  6
CONTINUOUS
 62
   212
 10
264.892113477025
 20
352.878642740085
 30
0.0
 11
271.894076019526
 21
352.878642740085
 31
0.0
  0
LINE
  5
   56E
  8
0
  6
CONTINUOUS
 62
   212
 10
264.892112651338
 20
353.998643311262
 30
0.0
 11
264.892112651338
 21
354.137802702203
 31
0.0
  0
LINE
  5
   56F
  8
0
  6
CONTINUOUS
 62
   212
 10
264.892112651338
 20
352.738646537066
 30
0.0
 11
264.892112651338
 21
352.878644398451
 31
0.0
  0
LINE
  5
   570
  8
0
  6
CONTINUOUS
 62
   212
 10
257.894076257944
 20
358.628249860838
 30
0.0
 11
257.894076257944
 21
360.582195750415
 31
0.0
  0
LINE
  5
   571
  8
0
  6
CONTINUOUS
 62
   212
 10
257.894076257944
 20
360.582193232595
 30
0.0
 11
267.344076097012
 21
360.582193232595
 31
0.0
  0
LINE
  5
   572
  8
0
  6
CONTINUOUS
 62
   212
 10
267.344076097012
 20
360.582195750415
 30
0.0
 11
267.344076097012
 21
364.083178356809
 31
0.0
  0
LINE
  5
   573
  8
0
  6
CONTINUOUS
 62
   212
 10
257.894076257944
 20
364.083180155775
 30
0.0
 11
267.344076097012
 21
364.083180155775
 31
0.0
  0
LINE
  5
   574
  8
0
  6
CONTINUOUS
 62
   212
 10
257.894076257944
 20
364.083178356809
 30
0.0
 11
257.894076257944
 21
366.038170999297
 31
0.0
  0
POLYLINE
  5
   575
  8
0
  6
CONTINUOUS
 62
   212
 66
     1
 10
0.0
 20
0.0
 30
0.0
  0
VERTEX
  5
   576
  8
0
  6
CONTINUOUS
 10
257.894076257943
 20
366.038170999297
 30
0.0
 40
0.0
 41
0.0
  0
VERTEX
  5
   577
  8
0
  6
CONTINUOUS
 10
257.678015063546
 20
366.361522362171
 30
0.0
 40
0.0
 41
0.0
  0
VERTEX
  5
   578
  8
0
  6
CONTINUOUS
 10
257.296588858314
 20
366.285653064306
 30
0.0
 40
0.0
 41
0.0
  0
SEQEND
  5
   579
  8
0
  6
CONTINUOUS
 62
   212
  0
LINE
  5
   57A
  8
0
  6
CONTINUOUS
 62
   212
 10
253.591562901308
 20
362.580693795966
 30
0.0
 11
257.296588858315
 21
366.285653064306
 31
0.0
  0
POLYLINE
  5
   57B
  8
0
  6
CONTINUOUS
 62
   212
 66
     1
 10
0.0
 20
0.0
 30
0.0
  0
VERTEX
  5
   57C
  8
0
  6
CONTINUOUS
 10
253.591562901312
 20
362.580693795953
 30
0.0
 40
0.0
 41
0.0
  0
VERTEX
  5
   57D
  8
0
  6
CONTINUOUS
 10
253.489051079796
 20
362.333210797558
 30
0.0
 40
0.0
 41
0.0
  0
VERTEX
  5
   57E
  8
0
  6
CONTINUOUS
 10
253.591564155963
 20
362.085728318846
 30
0.0
 40
0.0
 41
0.0
  0
SEQEND
  5
   57F
  8
0
  6
CONTINUOUS
 62
   212
  0
LINE
  5
   580
  8
0
  6
CONTINUOUS
 62
   212
 10
253.591564155966
 20
362.085728318851
 30
0.0
 11
257.296587442685
 21
358.38077172075
 31
0.0
  0
POLYLINE
  5
   581
  8
0
  6
CONTINUOUS
 62
   212
 66
     1
 10
0.0
 20
0.0
 30
0.0
  0
VERTEX
  5
   582
  8
0
  6
CONTINUOUS
 10
257.296587442683
 20
358.380771720761
 30
0.0
 40
0.0
 41
0.0
  0
VERTEX
  5
   583
  8
0
  6
CONTINUOUS
 10
257.67801297956
 20
358.304900144093
 30
0.0
 40
0.0
 41
0.0
  0
VERTEX
  5
   584
  8
0
  6
CONTINUOUS
 10
257.894076257928
 20
358.62824986084
 30
0.0
 40
0.0
 41
0.0
  0
SEQEND
  5
   585
  8
0
  6
CONTINUOUS
 62
   212
  0
LINE
  5
   586
  8
0
  6
CONTINUOUS
 62
   212
 10
224.294076830149
 20
352.878644398451
 30
0.0
 11
224.294076830149
 21
353.998643311262
 31
0.0
  0
LINE
  5
   587
  8
0
  6
CONTINUOUS
 62
   212
 10
224.294076830149
 20
352.878642740085
 30
0.0
 11
235.842114955975
 21
352.878642740085
 31
0.0
  0
LINE
  5
   588
  8
0
  6
CONTINUOUS
 62
   212
 10
240.04211488445
 20
352.878642740085
 30
0.0
 11
264.892113477025
 21
352.878642740085
 31
0.0
  0
LINE
  5
   589
  8
0
  6
CONTINUOUS
 62
   212
 10
224.294076830149
 20
352.738646537066
 30
0.0
 11
224.294076830149
 21
352.878644398451
 31
0.0
  0
LINE
  5
   58A
  8
0
  6
CONTINUOUS
 62
   212
 10
224.294076830149
 20
422.248647489548
 30
0.0
 11
224.294076830149
 21
422.659391195932
 31
0.0
  0
LINE
  5
   58B
  8
0
  6
CONTINUOUS
 62
   212
 10
224.294076830149
 20
409.306434270011
 30
0.0
 11
224.294076830149
 21
422.248647489548
 31
0.0
  0
LINE
  5
   58C
  8
0
  6
CONTINUOUS
 62
   212
 10
224.294076830149
 20
408.165975610234
 30
0.0
 11
224.294076830149
 21
409.306434270011
 31
0.0
  0
LINE
  5
   58D
  8
0
  6
CONTINUOUS
 62
   212
 10
224.294076830149
 20
405.306528498336
 30
0.0
 11
224.294076830149
 21
408.165975610234
 31
0.0
  0
LINE
  5
   58E
  8
0
  6
CONTINUOUS
 62
   212
 10
224.294076830149
 20
394.11517628897
 30
0.0
 11
224.294076830149
 21
395.358248777567
 31
0.0
  0
LINE
  5
   58F
  8
0
  6
CONTINUOUS
 62
   212
 10
224.294076830149
 20
354.137802702203
 30
0.0
 11
224.294076830149
 21
403.763473032342
 31
0.0
  0
LINE
  5
   590
  8
0
  6
CONTINUOUS
 62
   212
 10
257.894076257944
 20
358.626151014439
 30
0.0
 11
257.894076257944
 21
358.628249860838
 31
0.0
  0
LINE
  5
   591
  8
0
  6
CONTINUOUS
 62
   212
 10
257.894076257944
 20
360.58009327043
 30
0.0
 11
267.344076097012
 21
360.58009327043
 31
0.0
  0
LINE
  5
   592
  8
0
  6
CONTINUOUS
 62
   212
 10
267.344076097012
 20
360.580091563439
 30
0.0
 11
267.344076097012
 21
360.582195750415
 31
0.0
  0
LINE
  5
   593
  8
0
  6
CONTINUOUS
 62
   212
 10
253.591563971596
 20
362.083629288078
 30
0.0
 11
253.591563971596
 21
362.085728134477
 31
0.0
  0
LINE
  5
   594
  8
0
  6
CONTINUOUS
 62
   212
 10
253.591563598083
 20
362.083628914558
 30
0.0
 11
257.296589555091
 21
358.378669646217
 31
0.0
  0
POLYLINE
  5
   595
  8
0
  6
CONTINUOUS
 62
   212
 66
     1
 10
0.0
 20
0.0
 30
0.0
  0
VERTEX
  5
   596
  8
0
  6
CONTINUOUS
 10
257.29658955509
 20
358.37866964622
 30
0.0
 40
0.0
 41
0.0
  0
VERTEX
  5
   597
  8
0
  6
CONTINUOUS
 10
257.678014874988
 20
358.302800967015
 30
0.0
 40
0.0
 41
0.0
  0
VERTEX
  5
   598
  8
0
  6
CONTINUOUS
 10
257.894076257937
 20
358.62615101444
 30
0.0
 40
0.0
 41
0.0
  0
SEQEND
  5
   599
  8
0
  6
CONTINUOUS
 62
   212
  0
LINE
  5
   59A
  8
0
  6
CONTINUOUS
 62
   212
 10
224.294076830149
 20
353.998643311262
 30
0.0
 11
224.294076830149
 21
354.137802702203
 31
0.0
  0
LINE
  5
   59B
  8
0
  6
CONTINUOUS
 62
   212
 10
224.294076830149
 20
353.998642721012
 30
0.0
 11
236.542114944055
 21
353.998642721012
 31
0.0
  0
LINE
  5
   59C
  8
0
  6
CONTINUOUS
 62
   212
 10
240.04211488445
 20
353.998642721012
 30
0.0
 11
264.892113477025
 21
353.998642721012
 31
0.0
  0
LINE
  5
   59D
  8
0
  6
CONTINUOUS
 62
   212
 10
271.894076019526
 20
422.248647489548
 30
0.0
 11
271.894076019526
 21
422.659391195932
 31
0.0
  0
LINE
  5
   59E
  8
0
  6
CONTINUOUS
 62
   212
 10
271.894076019526
 20
409.306434270011
 30
0.0
 11
271.894076019526
 21
422.248647489548
 31
0.0
  0
LINE
  5
   59F
  8
0
  6
CONTINUOUS
 62
   212
 10
271.894076019526
 20
408.165975610234
 30
0.0
 11
271.894076019526
 21
409.306434270011
 31
0.0
  0
LINE
  5
   5A0
  8
0
  6
CONTINUOUS
 62
   212
 10
271.894076019526
 20
405.306528498336
 30
0.0
 11
271.894076019526
 21
408.165975610234
 31
0.0
  0
LINE
  5
   5A1
  8
0
  6
CONTINUOUS
 62
   212
 10
271.894076019526
 20
394.11517628897
 30
0.0
 11
271.894076019526
 21
403.763473032342
 31
0.0
  0
LINE
  5
   5A2
  8
0
  6
CONTINUOUS
 62
   212
 10
271.894076019526
 20
358.913970681168
 30
0.0
 11
271.894076019526
 21
394.11517628897
 31
0.0
  0
LINE
  5
   5A3
  8
0
  6
DASHDOT
 62
     7
 10
227.615251482093
 20
269.963644152119
 30
0.0
 11
268.280919112928
 21
269.963644152119
 31
0.0
  0
LINE
  5
   5A4
  8
0
  6
DASHDOT
 62
     7
 10
261.042113322471
 20
275.108644069101
 30
0.0
 11
261.042113322471
 21
276.368644047644
 31
0.0
  0
LINE
  5
   5A5
  8
0
  6
DASHDOT
 62
     7
 10
227.615250863724
 20
344.513646677141
 30
0.0
 11
268.280919169143
 21
344.513646677141
 31
0.0
  0
LINE
  5
   5A6
  8
0
  6
DASHDOT
 62
     7
 10
261.812112060819
 20
350.638646572833
 30
0.0
 11
265.172113605771
 21
350.638646572833
 31
0.0
  0
LINE
  5
   5A7
  8
0
  6
DASHDOT
 62
     7
 10
257.54211298039
 20
277.943643784071
 30
0.0
 11
257.54211298039
 21
278.78364402553
 31
0.0
  0
LINE
  5
   5A8
  8
0
  6
DASHDOT
 62
     7
 10
261.812112060819
 20
263.838644075202
 30
0.0
 11
265.172113605771
 21
263.838644075202
 31
0.0
  0
INSERT
  5
   5A9
  8
0
  6
CONTINUOUS
 62
     7
  2
*HATCH2002
 10
0.0
 20
0.0
 30
0.0
  0
INSERT
  5
   5AA
  8
0
  6
CONTINUOUS
 62
     7
  2
*HATCH2003
 10
0.0
 20
0.0
 30
0.0
  0
INSERT
  5
   5AB
  8
0
  6
CONTINUOUS
 62
     7
  2
*HATCH2004
 10
0.0
 20
0.0
 30
0.0
  0
INSERT
  5
   5AC
  8
0
  6
CONTINUOUS
 62
     7
  2
*HATCH2005
 10
0.0
 20
0.0
 30
0.0
  0
INSERT
  5
   5AD
  8
0
  6
CONTINUOUS
 62
     7
  2
*HATCH2006
 10
0.0
 20
0.0
 30
0.0
  0
INSERT
  5
   5AE
  8
0
  6
CONTINUOUS
 62
     7
  2
*HATCH2007
 10
0.0
 20
0.0
 30
0.0
  0
INSERT
  5
   5AF
  8
0
  6
CONTINUOUS
 62
     7
  2
*HATCH2008
 10
0.0
 20
0.0
 30
0.0
  0
INSERT
  5
   5B0
  8
0
  6
CONTINUOUS
 62
     7
  2
*HATCH2009
 10
0.0
 20
0.0
 30
0.0
  0
INSERT
  5
   5B1
  8
0
  6
CONTINUOUS
 62
     7
  2
*HATCH2010
 10
0.0
 20
0.0
 30
0.0
  0
INSERT
  5
   5B2
  8
0
  6
CONTINUOUS
 62
     7
  2
*HATCH2011
 10
0.0
 20
0.0
 30
0.0
  0
INSERT
  5
   5B3
  8
0
  6
CONTINUOUS
 62
     7
  2
*HATCH2012
 10
0.0
 20
0.0
 30
0.0
  0
INSERT
  5
   5B4
  8
0
  6
CONTINUOUS
 62
     7
  2
*HATCH2013
 10
0.0
 20
0.0
 30
0.0
  0
INSERT
  5
   5B5
  8
0
  6
CONTINUOUS
 62
     7
  2
*HATCH2014
 10
0.0
 20
0.0
 30
0.0
  0
INSERT
  5
   5B6
  8
0
  6
CONTINUOUS
 62
     7
  2
*HATCH2015
 10
0.0
 20
0.0
 30
0.0
  0
INSERT
  5
   5B7
  8
0
  6
CONTINUOUS
 62
     7
  2
*HATCH2016
 10
0.0
 20
0.0
 30
0.0
  0
INSERT
  5
   5B8
  8
0
  6
CONTINUOUS
 62
     7
  2
*HATCH2017
 10
0.0
 20
0.0
 30
0.0
  0
INSERT
  5
   5B9
  8
0
  6
CONTINUOUS
 62
     7
  2
*HATCH2018
 10
0.0
 20
0.0
 30
0.0
  0
INSERT
  5
   5BA
  8
0
  6
CONTINUOUS
 62
     7
  2
*HATCH2019
 10
0.0
 20
0.0
 30
0.0
  0
INSERT
  5
   5BB
  8
0
  6
CONTINUOUS
 62
     7
  2
*HATCH2020
 10
0.0
 20
0.0
 30
0.0
  0
INSERT
  5
   5BC
  8
0
  6
CONTINUOUS
 62
     7
  2
*HATCH2021
 10
0.0
 20
0.0
 30
0.0
  0
INSERT
  5
   5BD
  8
0
  6
CONTINUOUS
 62
     7
  2
*HATCH2022
 10
0.0
 20
0.0
 30
0.0
  0
INSERT
  5
   5BE
  8
0
  6
CONTINUOUS
 62
     7
  2
*HATCH2023
 10
0.0
 20
0.0
 30
0.0
  0
INSERT
  5
   5BF
  8
0
  6
CONTINUOUS
 62
     7
  2
*HATCH2024
 10
0.0
 20
0.0
 30
0.0
  0
LINE
  5
   5C0
  8
0
  6
CONTINUOUS
 62
     7
 10
264.892113138541
 20
357.624453040333
 30
0.0
 11
274.40081035085
 21
359.37562447186
 31
0.0
  0
INSERT
  5
   5C1
  8
0
  6
CONTINUOUS
 62
     7
  2
*UDIM2301
 10
0.0
 20
0.0
 30
0.0
  0
INSERT
  5
   5C2
  8
0
  6
CONTINUOUS
 62
     7
  2
*UDIM2302
 10
0.0
 20
0.0
 30
0.0
  0
LINE
  5
   5C3
  8
0
  6
CONTINUOUS
 62
   218
 10
241.61238340567
 20
368.957623616814
 30
0.0
 11
241.792113369429
 21
369.807661749311
 31
0.0
  0
LINE
  5
   5C4
  8
0
  6
CONTINUOUS
 62
   218
 10
244.812833093544
 20
367.540896956371
 30
0.0
 11
245.178615825046
 21
368.685927149274
 31
0.0
  0
POLYLINE
  5
   5C5
  8
0
  6
CONTINUOUS
 62
   218
 66
     1
 10
0.0
 20
0.0
 30
0.0
  0
VERTEX
  5
   5C6
  8
0
  6
CONTINUOUS
 10
245.286636243555
 20
369.560045204035
 30
0.0
 40
0.0
 41
0.0
  0
VERTEX
  5
   5C7
  8
0
  6
CONTINUOUS
 10
245.292113387594
 20
369.80766174934
 30
0.0
 40
0.0
 41
0.0
  0
SEQEND
  5
   5C8
  8
0
  6
CONTINUOUS
 62
   218
  0
ARC
  5
   5C9
  8
0
  6
CONTINUOUS
 62
   218
 10
239.692113478834
 20
369.807661866398
 30
0.0
 40
5.59999990881225
 50
350.672238288157
 51
351.28858175618
  0
ARC
  5
   5CA
  8
0
  6
CONTINUOUS
 62
   218
 10
242.142114848689
 20
356.31962307853
 30
0.0
 40
2.0999999642394
 50
156.122728152345
 51
179.999930319307
  0
ARC
  5
   5CB
  8
0
  6
CONTINUOUS
 62
   218
 10
239.727667415083
 20
369.803957753328
 30
0.0
 40
5.56433067807104
 50
356.315423950204
 51
357.487627354799
  0
ARC
  5
   5CC
  8
0
  6
CONTINUOUS
 62
   218
 10
239.727667413477
 20
369.803957753449
 30
0.0
 40
5.5643306796824
 50
351.270834394932
 51
353.025276969954
  0
LINE
  5
   5CD
  8
0
  6
CONTINUOUS
 62
   218
 10
235.842114910209
 20
353.263642880662
 30
0.0
 11
236.542114898288
 21
353.263642880662
 31
0.0
  0
LINE
  5
   5CE
  8
0
  6
CONTINUOUS
 62
   218
 10
235.842114955975
 20
348.713646605611
 30
0.0
 11
235.842114955975
 21
353.263641187549
 31
0.0
  0
LINE
  5
   5CF
  8
0
  6
CONTINUOUS
 62
   218
 10
241.792113447199
 20
390.013645902276
 30
0.0
 11
241.792113447199
 21
392.813645854592
 31
0.0
  0
LINE
  5
   5D0
  8
0
  6
CONTINUOUS
 62
   218
 10
245.292113387594
 20
390.013645902276
 30
0.0
 11
245.292113387594
 21
392.813645854592
 31
0.0
  0
LINE
  5
   5D1
  8
0
  6
CONTINUOUS
 62
   218
 10
241.792113452875
 20
392.813642416545
 30
0.0
 11
245.292113414132
 21
392.813642416545
 31
0.0
  0
ARC
  5
   5D2
  8
0
  6
CONTINUOUS
 62
   218
 10
239.692113482939
 20
369.80766234901
 30
0.0
 40
2.09999996425967
 50
345.789434170142
 51
359.999983621782
  0
LINE
  5
   5D3
  8
0
  6
CONTINUOUS
 62
   218
 10
241.792113447199
 20
369.807661749312
 30
0.0
 11
241.792113447199
 21
390.013645902276
 31
0.0
  0
LINE
  5
   5D4
  8
0
  6
CONTINUOUS
 62
   218
 10
245.292113387594
 20
369.807661749312
 30
0.0
 11
245.292113387594
 21
390.013645902276
 31
0.0
  0
ARC
  5
   5D5
  8
0
  6
CONTINUOUS
 62
   218
 10
239.692113482919
 20
369.80766234901
 30
0.0
 40
5.59999990467556
 50
354.718025159077
 51
359.99999384335
  0
LINE
  5
   5D6
  8
0
  6
CONTINUOUS
 62
   218
 10
241.492111993498
 20
368.685926946638
 30
0.0
 11
241.612382848575
 21
368.957623863422
 31
0.0
  0
ARC
  5
   5D7
  8
0
  6
CONTINUOUS
 62
   218
 10
239.694940535219
 20
369.806693673638
 30
0.0
 40
2.09702752210903
 50
336.115578960679
 51
345.796129038667
  0
ARC
  5
   5D8
  8
0
  6
CONTINUOUS
 62
   218
 10
239.726757104197
 20
369.802760770921
 30
0.0
 40
5.56508770477041
 50
348.422916392558
 51
354.735440906613
  0
POLYLINE
  5
   5D9
  8
0
  6
CONTINUOUS
 62
   218
 66
     1
 10
0.0
 20
0.0
 30
0.0
  0
VERTEX
  5
   5DA
  8
0
  6
CONTINUOUS
 10
237.021395507929
 20
358.586390297549
 30
0.0
 40
0.0
 41
0.0
  0
VERTEX
  5
   5DB
  8
0
  6
CONTINUOUS
 10
236.579511068141
 20
356.965717831627
 30
0.0
 40
0.0
 41
0.0
  0
SEQEND
  5
   5DC
  8
0
  6
CONTINUOUS
 62
   218
  0
LINE
  5
   5DD
  8
0
  6
CONTINUOUS
 62
   218
 10
237.021395507934
 20
358.58639029756
 30
0.0
 11
241.492111992008
 21
368.685926947298
 31
0.0
  0
POLYLINE
  5
   5DE
  8
0
  6
CONTINUOUS
 62
   218
 66
     1
 10
0.0
 20
0.0
 30
0.0
  0
VERTEX
  5
   5DF
  8
0
  6
CONTINUOUS
 10
244.812833451004
 20
367.540896798165
 30
0.0
 40
0.0
 41
0.0
  0
VERTEX
  5
   5E0
  8
0
  6
CONTINUOUS
 10
245.178615924153
 20
368.685927129039
 30
0.0
 40
0.0
 41
0.0
  0
SEQEND
  5
   5E1
  8
0
  6
CONTINUOUS
 62
   218
  0
LINE
  5
   5E2
  8
0
  6
CONTINUOUS
 62
   218
 10
240.221844138815
 20
357.169658769052
 30
0.0
 11
244.812833450994
 21
367.540896798141
 31
0.0
  0
POLYLINE
  5
   5E3
  8
0
  6
CONTINUOUS
 62
   218
 66
     1
 10
0.0
 20
0.0
 30
0.0
  0
VERTEX
  5
   5E4
  8
0
  6
CONTINUOUS
 10
240.221844138814
 20
357.169658769046
 30
0.0
 40
0.0
 41
0.0
  0
VERTEX
  5
   5E5
  8
0
  6
CONTINUOUS
 10
240.143975207908
 20
356.965717609682
 30
0.0
 40
0.0
 41
0.0
  0
SEQEND
  5
   5E6
  8
0
  6
CONTINUOUS
 62
   218
  0
ARC
  5
   5E7
  8
0
  6
CONTINUOUS
 62
   218
 10
242.107222914281
 20
356.321546568446
 30
0.0
 40
5.56513000830673
 50
173.353024220964
 51
180.019777066936
  0
ARC
  5
   5E8
  8
0
  6
CONTINUOUS
 62
   218
 10
242.129446826219
 20
356.321516140891
 30
0.0
 40
2.08739213860446
 50
162.023948246483
 51
179.504666249339
  0
LINE
  5
   5E9
  8
0
  6
CONTINUOUS
 62
   218
 10
240.04211488445
 20
353.263641187549
 30
0.0
 11
240.04211488445
 21
356.339562003086
 31
0.0
  0
LINE
  5
   5EA
  8
0
  6
CONTINUOUS
 62
   218
 10
236.542114944055
 20
353.263641187549
 30
0.0
 11
236.542114944055
 21
356.319625632576
 31
0.0
  0
LINE
  5
   5EB
  8
0
  6
CONTINUOUS
 62
   218
 10
240.04211488445
 20
352.738646537066
 30
0.0
 11
240.04211488445
 21
353.263641187549
 31
0.0
  0
ARC
  5
   5EC
  8
0
  6
CONTINUOUS
 62
   218
 10
242.10707896129
 20
356.321551367973
 30
0.0
 40
5.56498629055598
 50
173.353121801713
 51
179.814566677583
  0
LINE
  5
   5ED
  8
0
  6
CONTINUOUS
 62
     1
 10
271.83568845279
 20
262.246555564099
 30
0.0
 11
271.892114309373
 21
262.438645404577
 31
0.0
  0
LINE
  5
   5EE
  8
0
  6
CONTINUOUS
 62
     1
 10
271.751876122064
 20
262.100082254215
 30
0.0
 11
271.83568845279
 21
262.246555564099
 31
0.0
  0
ARC
  5
   5EF
  8
0
  6
CONTINUOUS
 62
     1
 10
271.192104730938
 20
262.438653034399
 30
0.0
 40
0.700018683601726
 50
270.000784972752
 51
328.83287424701
  0
LINE
  5
   5F0
  8
0
  6
CONTINUOUS
 62
     7
 10
271.192114321294
 20
263.13864425828
 30
0.0
 11
271.892114309373
 21
263.13864425828
 31
0.0
  0
LINE
  5
   5F1
  8
0
  6
CONTINUOUS
 62
     7
 10
271.192114321294
 20
265.238644222518
 30
0.0
 11
271.892114309373
 21
265.238644222518
 31
0.0
  0
LINE
  5
   5F2
  8
0
  6
CONTINUOUS
 62
     1
 10
264.892113477025
 20
261.738644282122
 30
0.0
 11
271.192114321294
 21
261.738644282122
 31
0.0
  0
LINE
  5
   5F3
  8
0
  6
CONTINUOUS
 62
     7
 10
264.892113477025
 20
263.138644262307
 30
0.0
 11
271.192114321294
 21
263.138644262307
 31
0.0
  0
LINE
  5
   5F4
  8
0
  6
CONTINUOUS
 62
     7
 10
264.892113477025
 20
265.238644226545
 30
0.0
 11
271.192114321294
 21
265.238644226545
 31
0.0
  0
LINE
  5
   5F5
  8
0
  6
CONTINUOUS
 62
     7
 10
271.192114321294
 20
265.938644217644
 30
0.0
 11
271.892114309373
 21
265.938644217644
 31
0.0
  0
LINE
  5
   5F6
  8
0
  6
CONTINUOUS
 62
     7
 10
267.692114380898
 20
265.938644217644
 30
0.0
 11
271.192114321294
 21
265.938644217644
 31
0.0
  0
LINE
  5
   5F7
  8
0
  6
CONTINUOUS
 62
     7
 10
271.892113483685
 20
262.438645404577
 30
0.0
 11
271.892113483685
 21
263.138645392656
 31
0.0
  0
LINE
  5
   5F8
  8
0
  6
CONTINUOUS
 62
     7
 10
271.892113483685
 20
265.238645356894
 30
0.0
 11
271.892113483685
 21
265.938645344973
 31
0.0
  0
LINE
  5
   5F9
  8
0
  6
CONTINUOUS
 62
     7
 10
271.892113490108
 20
263.138645392656
 30
0.0
 11
271.892113490108
 21
265.238645356894
 31
0.0
  0
LINE
  5
   5FA
  8
0
  6
CONTINUOUS
 62
     7
 10
267.692113555206
 20
265.938645344973
 30
0.0
 11
267.692113555206
 21
285.713643673062
 31
0.0
  0
LINE
  5
   5FB
  8
0
  6
CONTINUOUS
 62
     7
 10
271.892113483681
 20
265.938648015261
 30
0.0
 11
271.892113483681
 21
273.288647890091
 31
0.0
  0
LINE
  5
   5FC
  8
0
  6
CONTINUOUS
 62
     7
 10
272.802113468184
 20
273.288647890091
 30
0.0
 11
272.802113468184
 21
273.778648415804
 31
0.0
  0
LINE
  5
   5FD
  8
0
  6
CONTINUOUS
 62
     7
 10
270.702113795581
 20
273.288647890091
 30
0.0
 11
272.802113759818
 21
273.288647890091
 31
0.0
  0
LINE
  5
   5FE
  8
0
  6
CONTINUOUS
 62
     7
 10
271.192114321294
 20
265.938648015261
 30
0.0
 11
271.892114309373
 21
265.938648015261
 31
0.0
  0
LINE
  5
   5FF
  8
0
  6
CONTINUOUS
 62
     7
 10
267.692114380898
 20
265.938648015261
 30
0.0
 11
271.192114321294
 21
265.938648015261
 31
0.0
  0
LINE
  5
   600
  8
0
  6
CONTINUOUS
 62
     7
 10
267.692114380898
 20
273.288647890091
 30
0.0
 11
270.702113795581
 21
273.288647890091
 31
0.0
  0
INSERT
  5
   601
  8
0
  6
CONTINUOUS
 62
     7
  2
*UDIM2303
 10
0.0
 20
0.0
 30
0.0
  0
LINE
  5
   602
  8
0
  6
CONTINUOUS
 62
     7
 10
241.792113447199
 20
385.988642021309
 30
0.0
 11
245.292113387594
 21
385.988642021309
 31
0.0
  0
LINE
  5
   603
  8
0
  6
CONTINUOUS
 62
     7
 10
241.792113447199
 20
378.638642146494
 30
0.0
 11
245.292113387594
 21
378.638642146494
 31
0.0
  0
LINE
  5
   604
  8
0
  6
DASHDOT
 62
     7
 10
239.300904815206
 20
382.313641661043
 30
0.0
 11
247.304566162281
 21
382.313641661043
 31
0.0
  0
INSERT
  5
   605
  8
0
  6
CONTINUOUS
 62
     7
  2
*HATCH2025
 10
0.0
 20
0.0
 30
0.0
  0
INSERT
  5
   606
  8
0
  6
CONTINUOUS
 62
     7
  2
*HATCH2026
 10
0.0
 20
0.0
 30
0.0
  0
INSERT
  5
   607
  8
0
  6
CONTINUOUS
 62
     7
  2
*HATCH2027
 10
0.0
 20
0.0
 30
0.0
  0
POLYLINE
  5
   608
  8
0
  6
CONTINUOUS
 62
   218
 66
     1
 10
0.0
 20
0.0
 30
0.0
  0
VERTEX
  5
   609
  8
0
  6
CONTINUOUS
 10
236.542114944055
 20
258.157671312495
 30
0.0
 40
0.0
 41
0.0
  0
VERTEX
  5
   60A
  8
0
  6
CONTINUOUS
 10
236.663245131695
 20
256.999230287021
 30
0.0
 40
0.0
 41
0.0
  0
VERTEX
  5
   60B
  8
0
  6
CONTINUOUS
 10
237.021395507952
 20
255.890904326252
 30
0.0
 40
0.0
 41
0.0
  0
SEQEND
  5
   60C
  8
0
  6
CONTINUOUS
 62
   218
  0
LINE
  5
   60D
  8
0
  6
CONTINUOUS
 62
   218
 10
237.021395507934
 20
255.890904326292
 30
0.0
 11
241.612383392324
 21
245.519669522637
 31
0.0
  0
ARC
  5
   60E
  8
0
  6
CONTINUOUS
 62
   218
 10
242.129446826219
 20
258.15577848296
 30
0.0
 40
2.08739213860445
 50
179.564865534562
 51
203.87731954
  0
INSERT
  5
   60F
  8
0
  6
CONTINUOUS
 62
     7
  2
*HATCH2028
 10
0.0
 20
0.0
 30
0.0
  0
INSERT
  5
   610
  8
0
  6
CONTINUOUS
 62
     7
  2
*HATCH2029
 10
0.0
 20
0.0
 30
0.0
  0
INSERT
  5
   611
  8
0
  6
CONTINUOUS
 62
     7
  2
*HATCH2030
 10
0.0
 20
0.0
 30
0.0
  0
ARC
  5
   612
  8
0
  6
CONTINUOUS
 62
   218
 10
239.692113482939
 20
244.669632274842
 30
0.0
 40
2.0999999642597
 50
1.63782176849223E-5
 51
23.8773195400001
  0
ARC
  5
   613
  8
0
  6
CONTINUOUS
 62
   218
 10
239.726757104197
 20
244.674533852931
 30
0.0
 40
5.56508770477041
 50
0.0
 51
11.5770836074422
  0
LINE
  5
   614
  8
0
  6
CONTINUOUS
 62
   218
 10
245.292113387594
 20
221.663652207307
 30
0.0
 11
245.292113387594
 21
244.674533852931
 31
0.0
  0
LINE
  5
   615
  8
0
  6
CONTINUOUS
 62
   218
 10
241.792113447199
 20
221.663652207307
 30
0.0
 11
241.792113447199
 21
244.66963287454
 31
0.0
  0
LINE
  5
   616
  8
0
  6
CONTINUOUS
 62
   218
 10
240.220469925486
 20
257.310740260534
 30
0.0
 11
244.812833450994
 21
246.936397825711
 31
0.0
  0
LINE
  5
   617
  8
0
  6
CONTINUOUS
 62
     7
 10
241.792113447199
 20
235.838652477358
 30
0.0
 11
245.292113387594
 21
235.838652477358
 31
0.0
  0
LINE
  5
   618
  8
0
  6
CONTINUOUS
 62
     7
 10
241.792113447199
 20
228.488652602543
 30
0.0
 11
245.292113387594
 21
228.488652602543
 31
0.0
  0
LINE
  5
   619
  8
0
  6
DASHDOT
 62
     7
 10
239.300904815206
 20
232.163652962809
 30
0.0
 11
247.304566162281
 21
232.163652962809
 31
0.0
  0
LINE
  5
   61A
  8
0
  6
CONTINUOUS
 62
   218
 10
241.792113452875
 20
221.663652207307
 30
0.0
 11
245.292113414132
 21
221.663652207307
 31
0.0
  0
LINE
  5
   61B
  8
0
  6
CONTINUOUS
 62
   218
 10
235.842114955975
 20
261.213653436303
 30
0.0
 11
235.842114955975
 21
265.763648018241
 31
0.0
  0
LINE
  5
   61C
  8
0
  6
CONTINUOUS
 62
   218
 10
235.842114910209
 20
261.21365174319
 30
0.0
 11
236.542114898288
 21
261.21365174319
 31
0.0
  0
POLYLINE
  5
   61D
  8
0
  6
CONTINUOUS
 62
   218
 66
     1
 10
0.0
 20
0.0
 30
0.0
  0
VERTEX
  5
   61E
  8
0
  6
CONTINUOUS
 10
245.178615924142
 20
245.791367494868
 30
0.0
 40
0.0
 41
0.0
  0
VERTEX
  5
   61F
  8
0
  6
CONTINUOUS
 10
244.812833450981
 20
246.936397825739
 30
0.0
 40
0.0
 41
0.0
  0
SEQEND
  5
   620
  8
0
  6
CONTINUOUS
 62
   218
  0
INSERT
  5
   621
  8
0
  6
CONTINUOUS
 62
     7
  2
*UDIM2304
 10
0.0
 20
0.0
 30
0.0
  0
INSERT
  5
   622
  8
0
  6
CONTINUOUS
 62
     7
  2
*UDIM2305
 10
0.0
 20
0.0
 30
0.0
  0
INSERT
  5
   623
  8
0
  6
CONTINUOUS
 62
     7
  2
*UDIM2306
 10
0.0
 20
0.0
 30
0.0
  0
LINE
  5
   624
  8
0
  6
CONTINUOUS
 62
     7
 10
221.175650653434
 20
405.306528498336
 30
0.0
 11
274.61132096558
 21
405.306528498336
 31
0.0
  0
LINE
  5
   625
  8
0
  6
CONTINUOUS
 62
     7
 10
221.175650653434
 20
403.763473032342
 30
0.0
 11
274.61132096558
 21
403.763473032342
 31
0.0
  0
INSERT
  5
   626
  8
0
  6
CONTINUOUS
 62
     7
  2
*UDIM2307
 10
0.0
 20
0.0
 30
0.0
  0
INSERT
  5
   627
  8
0
  6
CONTINUOUS
 62
     7
  2
*UDIM2308
 10
0.0
 20
0.0
 30
0.0
  0
LINE
  5
   628
  8
0
  6
CONTINUOUS
 62
   212
 10
142.397595331971
 20
358.372469848203
 30
0.0
 11
142.747191482141
 21
358.355655357347
 31
0.0
  0
LINE
  5
   629
  8
0
  6
CONTINUOUS
 62
   212
 10
142.782849384117
 20
366.381892683335
 30
0.0
 11
143.132445534287
 21
366.36507819248
 31
0.0
  0
LINE
  5
   62A
  8
0
  6
CONTINUOUS
 62
   212
 10
121.033766016231
 20
358.269320260235
 30
0.0
 11
121.383538015446
 21
358.281940743175
 31
0.0
  0
LINE
  5
   62B
  8
0
  6
CONTINUOUS
 62
   212
 10
120.744650014457
 20
366.282789349113
 30
0.0
 11
121.094422013672
 21
366.295409832052
 31
0.0
  0
LINE
  5
   62C
  8
0
  6
CONTINUOUS
 62
   212
 10
145.051085609198
 20
351.198641371037
 30
0.0
 11
145.051085609198
 21
352.878642410542
 31
0.0
  0
LINE
  5
   62D
  8
0
  6
CONTINUOUS
 62
   212
 10
141.831085664034
 20
351.198641371037
 30
0.0
 11
141.831085664034
 21
352.878642410542
 31
0.0
  0
LINE
  5
   62E
  8
0
  6
CONTINUOUS
 62
   212
 10
142.506056608996
 20
360.627373159303
 30
0.0
 11
142.855652737482
 21
360.610557550703
 31
0.0
  0
LINE
  5
   62F
  8
0
  6
CONTINUOUS
 62
   212
 10
142.674262914781
 20
364.124380068605
 30
0.0
 11
143.023859011261
 21
364.107564461545
 31
0.0
  0
LINE
  5
   630
  8
0
  6
CONTINUOUS
 62
   212
 10
142.41217858604
 20
358.675651082164
 30
0.0
 11
142.506056733302
 21
360.627375674077
 31
0.0
  0
LINE
  5
   631
  8
0
  6
CONTINUOUS
 62
   212
 10
142.506056733302
 20
360.627375674075
 30
0.0
 11
142.674262906344
 21
364.124378267458
 31
0.0
  0
LINE
  5
   632
  8
0
  6
CONTINUOUS
 62
   212
 10
142.674262906345
 20
364.124378267462
 30
0.0
 11
142.76819134521
 21
366.077148420679
 31
0.0
  0
LINE
  5
   633
  8
0
  6
CONTINUOUS
 62
   212
 10
142.768191345209
 20
366.077148420674
 30
0.0
 11
142.782849574156
 21
366.381892674191
 31
0.0
  0
LINE
  5
   634
  8
0
  6
CONTINUOUS
 62
   212
 10
142.397595538013
 20
358.372469838291
 30
0.0
 11
142.41217858604
 21
358.675651082168
 31
0.0
  0
LINE
  5
   635
  8
0
  6
CONTINUOUS
 62
   212
 10
144.351085621118
 20
349.938644596841
 30
0.0
 11
144.351085621118
 21
350.078642458226
 31
0.0
  0
LINE
  5
   636
  8
0
  6
CONTINUOUS
 62
   212
 10
142.531085652113
 20
349.938644596841
 30
0.0
 11
142.531085652113
 21
350.078642458226
 31
0.0
  0
LINE
  5
   637
  8
0
  6
CONTINUOUS
 62
   212
 10
144.351085621118
 20
351.198641371037
 30
0.0
 11
144.351085621118
 21
352.878642410542
 31
0.0
  0
LINE
  5
   638
  8
0
  6
CONTINUOUS
 62
   212
 10
141.516085669398
 20
350.07864079986
 30
0.0
 11
145.366085603833
 21
350.07864079986
 31
0.0
  0
LINE
  5
   639
  8
0
  6
CONTINUOUS
 62
   212
 10
142.531085652113
 20
351.198641371037
 30
0.0
 11
142.531085652113
 21
352.878642410542
 31
0.0
  0
LINE
  5
   63A
  8
0
  6
CONTINUOUS
 62
   212
 10
145.366085603833
 20
350.078642458226
 30
0.0
 11
145.366085603833
 21
351.198641371037
 31
0.0
  0
LINE
  5
   63B
  8
0
  6
CONTINUOUS
 62
   212
 10
144.351085087061
 20
351.198640780787
 30
0.0
 11
145.366085603833
 21
351.198640780787
 31
0.0
  0
LINE
  5
   63C
  8
0
  6
CONTINUOUS
 62
   212
 10
144.351085087061
 20
352.878640752177
 30
0.0
 11
146.591085582971
 21
352.878640752177
 31
0.0
  0
LINE
  5
   63D
  8
0
  6
CONTINUOUS
 62
   212
 10
146.591085582971
 20
352.878642410542
 30
0.0
 11
146.591085582971
 21
353.998641323354
 31
0.0
  0
LINE
  5
   63E
  8
0
  6
CONTINUOUS
 62
   212
 10
144.482687562847
 20
353.998640733103
 30
0.0
 11
146.591085582971
 21
353.998640733103
 31
0.0
  0
ARC
  5
   63F
  8
0
  6
CONTINUOUS
 62
   212
 10
144.482688138853
 20
354.138640730717
 30
0.0
 40
0.139999997614057
 50
180.343784388363
 51
269.999764265408
  0
LINE
  5
   640
  8
0
  6
CONTINUOUS
 62
   212
 10
146.565692466901
 20
415.574783898536
 30
0.0
 11
146.803551877678
 21
422.167551211458
 31
0.0
  0
LINE
  5
   641
  8
0
  6
CONTINUOUS
 62
   212
 10
140.29108569026
 20
352.878642410542
 30
0.0
 11
140.29108569026
 21
353.998641323354
 31
0.0
  0
LINE
  5
   642
  8
0
  6
CONTINUOUS
 62
   212
 10
140.29108569026
 20
352.878640752177
 30
0.0
 11
142.531085518598
 21
352.878640752177
 31
0.0
  0
LINE
  5
   643
  8
0
  6
CONTINUOUS
 62
   212
 10
141.516085669398
 20
351.198640780787
 30
0.0
 11
142.531085518598
 21
351.198640780787
 31
0.0
  0
LINE
  5
   644
  8
0
  6
CONTINUOUS
 62
   212
 10
141.516085669398
 20
350.078642458226
 30
0.0
 11
141.516085669398
 21
351.198641371037
 31
0.0
  0
ARC
  5
   645
  8
0
  6
CONTINUOUS
 62
   212
 10
146.310923584783
 20
422.185324669841
 30
0.0
 40
0.4929488115253
 50
357.933395138576
 51
537.246525458202
  0
LINE
  5
   646
  8
0
  6
CONTINUOUS
 62
   212
 10
142.546129880412
 20
354.175590771018
 30
0.0
 11
145.133332371001
 21
407.963472960816
 31
0.0
  0
ARC
  5
   647
  8
0
  6
CONTINUOUS
 62
   212
 10
142.399483134377
 20
354.138640730718
 30
0.0
 40
0.139999997614866
 50
269.999962526467
 51
359.656217250628
  0
LINE
  5
   648
  8
0
  6
CONTINUOUS
 62
   212
 10
140.29108569026
 20
353.998640733103
 30
0.0
 11
142.399483042812
 21
353.998640733103
 31
0.0
  0
LINE
  5
   649
  8
0
  6
CONTINUOUS
 62
   212
 10
124.051085966825
 20
351.198641371037
 30
0.0
 11
124.051085966825
 21
352.878642410542
 31
0.0
  0
LINE
  5
   64A
  8
0
  6
CONTINUOUS
 62
   212
 10
120.831086021662
 20
351.198641371037
 30
0.0
 11
120.831086021662
 21
352.878642410542
 31
0.0
  0
LINE
  5
   64B
  8
0
  6
CONTINUOUS
 62
   212
 10
120.9523708194
 20
360.525362727246
 30
0.0
 11
121.302142890784
 21
360.537982098575
 31
0.0
  0
LINE
  5
   64C
  8
0
  6
CONTINUOUS
 62
   212
 10
120.826139046855
 20
364.024136258731
 30
0.0
 11
121.175911086218
 21
364.036755628904
 31
0.0
  0
LINE
  5
   64D
  8
0
  6
CONTINUOUS
 62
   212
 10
120.952370731958
 20
360.525365243574
 30
0.0
 11
121.022822268249
 21
358.572654673557
 31
0.0
  0
LINE
  5
   64E
  8
0
  6
CONTINUOUS
 62
   212
 10
120.826139189794
 20
364.024134463244
 30
0.0
 11
120.952370731958
 21
360.52536524357
 31
0.0
  0
LINE
  5
   64F
  8
0
  6
CONTINUOUS
 62
   212
 10
120.755649911661
 20
365.977891126768
 30
0.0
 11
120.826139189794
 21
364.024134463247
 31
0.0
  0
LINE
  5
   650
  8
0
  6
CONTINUOUS
 62
   212
 10
120.744649537466
 20
366.282789331901
 30
0.0
 11
120.755649911661
 21
365.977891126769
 31
0.0
  0
LINE
  5
   651
  8
0
  6
CONTINUOUS
 62
   212
 10
121.022822268248
 20
358.572654673565
 30
0.0
 11
121.033766222377
 21
358.269320267675
 31
0.0
  0
LINE
  5
   652
  8
0
  6
CONTINUOUS
 62
   212
 10
123.351085978746
 20
349.938644596841
 30
0.0
 11
123.351085978746
 21
350.078642458226
 31
0.0
  0
LINE
  5
   653
  8
0
  6
CONTINUOUS
 62
   212
 10
121.531086009741
 20
349.938644596841
 30
0.0
 11
121.531086009741
 21
350.078642458226
 31
0.0
  0
LINE
  5
   654
  8
0
  6
CONTINUOUS
 62
   212
 10
123.351085978746
 20
351.198641371037
 30
0.0
 11
123.351085978746
 21
352.878642410542
 31
0.0
  0
LINE
  5
   655
  8
0
  6
CONTINUOUS
 62
   212
 10
120.516086027026
 20
350.07864079986
 30
0.0
 11
124.366085961461
 21
350.07864079986
 31
0.0
  0
LINE
  5
   656
  8
0
  6
CONTINUOUS
 62
   212
 10
121.531086009741
 20
351.198641371037
 30
0.0
 11
121.531086009741
 21
352.878642410542
 31
0.0
  0
LINE
  5
   657
  8
0
  6
CONTINUOUS
 62
   212
 10
124.366085961461
 20
350.078642458226
 30
0.0
 11
124.366085961461
 21
351.198641371037
 31
0.0
  0
LINE
  5
   658
  8
0
  6
CONTINUOUS
 62
   212
 10
123.351086112261
 20
351.198640780787
 30
0.0
 11
124.366085961461
 21
351.198640780787
 31
0.0
  0
LINE
  5
   659
  8
0
  6
CONTINUOUS
 62
   212
 10
123.351086112261
 20
352.878640752177
 30
0.0
 11
125.591085940599
 21
352.878640752177
 31
0.0
  0
LINE
  5
   65A
  8
0
  6
CONTINUOUS
 62
   212
 10
125.591085940599
 20
352.878642410542
 30
0.0
 11
125.591085940599
 21
353.998641323354
 31
0.0
  0
LINE
  5
   65B
  8
0
  6
CONTINUOUS
 62
   212
 10
123.482688588047
 20
353.998640733103
 30
0.0
 11
125.591085940599
 21
353.998640733103
 31
0.0
  0
ARC
  5
   65C
  8
0
  6
CONTINUOUS
 62
   212
 10
123.482688496485
 20
354.138640730722
 30
0.0
 40
0.139999997618787
 50
180.343782751084
 51
270.000037472201
  0
LINE
  5
   65D
  8
0
  6
CONTINUOUS
 62
   212
 10
120.06362759719
 20
422.209008175282
 30
0.0
 11
120.391811964435
 21
415.386062485442
 31
0.0
  0
LINE
  5
   65E
  8
0
  6
CONTINUOUS
 62
   212
 10
119.291086047888
 20
352.878642410542
 30
0.0
 11
119.291086047888
 21
353.998641323354
 31
0.0
  0
LINE
  5
   65F
  8
0
  6
CONTINUOUS
 62
   212
 10
119.291086047888
 20
352.878640752177
 30
0.0
 11
121.531086543798
 21
352.878640752177
 31
0.0
  0
LINE
  5
   660
  8
0
  6
CONTINUOUS
 62
   212
 10
120.516086027026
 20
351.198640780787
 30
0.0
 11
121.531086543798
 21
351.198640780787
 31
0.0
  0
LINE
  5
   661
  8
0
  6
CONTINUOUS
 62
   212
 10
120.516086027026
 20
350.078642458226
 30
0.0
 11
120.516086027026
 21
351.198641371037
 31
0.0
  0
ARC
  5
   662
  8
0
  6
CONTINUOUS
 62
   212
 10
119.571248046076
 20
422.185324669841
 30
0.0
 40
0.492948811525495
 50
2.7534745418101
 51
182.066604861403
  0
LINE
  5
   663
  8
0
  6
CONTINUOUS
 62
   212
 10
120.153317883995
 20
392.38006168168
 30
0.0
 11
121.534426681772
 21
354.099764476685
 31
0.0
  0
ARC
  5
   664
  8
0
  6
CONTINUOUS
 62
   212
 10
121.399483492003
 20
354.138640730721
 30
0.0
 40
0.139999997617897
 50
270.000235735779
 51
359.656215610111
  0
LINE
  5
   665
  8
0
  6
CONTINUOUS
 62
   212
 10
119.291086047888
 20
353.998640733103
 30
0.0
 11
121.399484068012
 21
353.998640733103
 31
0.0
  0
LINE
  5
   666
  8
0
  6
CONTINUOUS
 62
     3
 10
124.541085958481
 20
352.038644561078
 30
0.0
 11
124.541085958481
 21
352.738644549157
 31
0.0
  0
LINE
  5
   667
  8
0
  6
CONTINUOUS
 62
     7
 10
124.541085958481
 20
351.338644572999
 30
0.0
 11
124.541085958481
 21
352.038644561078
 31
0.0
  0
LINE
  5
   668
  8
0
  6
CONTINUOUS
 62
     3
 10
120.341086030006
 20
352.038644561078
 30
0.0
 11
120.341086030006
 21
352.738644549157
 31
0.0
  0
LINE
  5
   669
  8
0
  6
CONTINUOUS
 62
     7
 10
120.341086030006
 20
351.338644572999
 30
0.0
 11
120.341086030006
 21
352.038644561078
 31
0.0
  0
LINE
  5
   66A
  8
0
  6
CONTINUOUS
 62
     3
 10
145.541085600853
 20
352.038644561078
 30
0.0
 11
145.541085600853
 21
352.738644549157
 31
0.0
  0
LINE
  5
   66B
  8
0
  6
CONTINUOUS
 62
     7
 10
145.541085600853
 20
351.338644572999
 30
0.0
 11
145.541085600853
 21
352.038644561078
 31
0.0
  0
LINE
  5
   66C
  8
0
  6
CONTINUOUS
 62
     3
 10
141.341085672378
 20
352.038644561078
 30
0.0
 11
141.341085672378
 21
352.738644549157
 31
0.0
  0
LINE
  5
   66D
  8
0
  6
CONTINUOUS
 62
     7
 10
141.341085672378
 20
351.338644572999
 30
0.0
 11
141.341085672378
 21
352.038644561078
 31
0.0
  0
LINE
  5
   66E
  8
0
  6
CONTINUOUS
 62
     7
 10
120.341086030006
 20
352.738644549162
 30
0.0
 11
120.831086555719
 21
352.738644549162
 31
0.0
  0
LINE
  5
   66F
  8
0
  6
CONTINUOUS
 62
     7
 10
124.05108610034
 20
352.738644549162
 30
0.0
 11
124.541085958481
 21
352.738644549162
 31
0.0
  0
LINE
  5
   670
  8
0
  6
CONTINUOUS
 62
     7
 10
141.341085672378
 20
352.738644549162
 30
0.0
 11
141.831085530519
 21
352.738644549162
 31
0.0
  0
LINE
  5
   671
  8
0
  6
CONTINUOUS
 62
     7
 10
145.05108507514
 20
352.738644549162
 30
0.0
 11
145.541085600853
 21
352.738644549162
 31
0.0
  0
LINE
  5
   672
  8
0
  6
CONTINUOUS
 62
     7
 10
120.341086030006
 20
349.938644596845
 30
0.0
 11
124.541085958481
 21
349.938644596845
 31
0.0
  0
LINE
  5
   673
  8
0
  6
CONTINUOUS
 62
     7
 10
141.341085672378
 20
349.938644596845
 30
0.0
 11
145.541085600853
 21
349.938644596845
 31
0.0
  0
LINE
  5
   674
  8
0
  6
CONTINUOUS
 62
     7
 10
120.341086030006
 20
349.938644596841
 30
0.0
 11
120.341086030006
 21
351.338644572999
 31
0.0
  0
LINE
  5
   675
  8
0
  6
CONTINUOUS
 62
     7
 10
120.341086030006
 20
351.338644573003
 30
0.0
 11
120.831086555719
 21
351.338644573003
 31
0.0
  0
LINE
  5
   676
  8
0
  6
CONTINUOUS
 62
     7
 10
124.05108610034
 20
351.338644573003
 30
0.0
 11
124.541085958481
 21
351.338644573003
 31
0.0
  0
LINE
  5
   677
  8
0
  6
CONTINUOUS
 62
     7
 10
124.541085958481
 20
349.938644596841
 30
0.0
 11
124.541085958481
 21
351.338644572999
 31
0.0
  0
LINE
  5
   678
  8
0
  6
CONTINUOUS
 62
     7
 10
141.341085672378
 20
349.938644596841
 30
0.0
 11
141.341085672378
 21
351.338644572999
 31
0.0
  0
LINE
  5
   679
  8
0
  6
CONTINUOUS
 62
     7
 10
141.341085672378
 20
351.338644573003
 30
0.0
 11
141.831085530519
 21
351.338644573003
 31
0.0
  0
LINE
  5
   67A
  8
0
  6
CONTINUOUS
 62
     7
 10
145.05108507514
 20
351.338644573003
 30
0.0
 11
145.541085600853
 21
351.338644573003
 31
0.0
  0
LINE
  5
   67B
  8
0
  6
CONTINUOUS
 62
     7
 10
145.541085600853
 20
349.938644596841
 30
0.0
 11
145.541085600853
 21
351.338644572999
 31
0.0
  0
LINE
  5
   67C
  8
0
  6
CONTINUOUS
 62
   212
 10
145.493437742014
 20
415.450055608459
 30
0.0
 11
145.818544033669
 21
422.209008175294
 31
0.0
  0
LINE
  5
   67D
  8
0
  6
CONTINUOUS
 62
   212
 10
144.347744949087
 20
354.099764476687
 30
0.0
 11
146.291085181529
 21
407.963472960816
 31
0.0
  0
LINE
  5
   67E
  8
0
  6
CONTINUOUS
 62
   212
 10
119.07861975318
 20
422.167551211454
 30
0.0
 11
119.322363405804
 21
415.411689921381
 31
0.0
  0
LINE
  5
   67F
  8
0
  6
CONTINUOUS
 62
   212
 10
121.493477139379
 20
392.482468020749
 30
0.0
 11
123.336041750447
 21
354.175590771008
 31
0.0
  0
LINE
  5
   680
  8
0
  6
DASHDOT
 62
     7
 10
132.94108581543
 20
215.326505876322
 30
0.0
 11
132.94108581543
 21
403.013351845851
 31
0.0
  0
LINE
  5
   681
  8
0
  6
DASHDOT
 62
     7
 10
93.791098319819
 20
307.238645324018
 30
0.0
 11
171.217814890669
 21
307.238645324018
 31
0.0
  0
TEXT
  5
   682
  8
0
  6
CONTINUOUS
 62
     7
 10
166.760652781682
 20
307.589027612108
 30
0.0
 40
2.99999997871263
  1
X
 41
0.933333333333333
 72
     1
 11
167.860652773876
 21
309.089027601464
 31
0.0
 73
     2
  0
TEXT
  5
   683
  8
0
  6
CONTINUOUS
 62
     7
 10
95.989253967358
 20
307.69674893262
 30
0.0
 40
2.99999997871263
  1
X
 41
0.933333333333333
 72
     1
 11
97.0892539595527
 21
309.196748921976
 31
0.0
 73
     2
  0
TEXT
  5
   684
  8
0
  6
CONTINUOUS
 62
     7
 10
129.812994227098
 20
394.838770940779
 30
0.0
 40
2.99999997871263
  1
Y
 41
0.933333333333333
 72
     1
 11
130.912994219292
 21
396.338770930135
 31
0.0
 73
     2
  0
TEXT
  5
   685
  8
0
  6
CONTINUOUS
 62
     7
 10
129.920715547609
 20
216.951909140006
 30
0.0
 40
2.99999997871263
  1
Y
 41
0.933333333333333
 72
     1
 11
131.020715539804
 21
218.451909129362
 31
0.0
 73
     2
  0
INSERT
  5
   686
  8
0
  6
CONTINUOUS
 62
     7
  2
*HATCH2031
 10
0.0
 20
0.0
 30
0.0
  0
INSERT
  5
   687
  8
0
  6
CONTINUOUS
 62
     7
  2
*HATCH2032
 10
0.0
 20
0.0
 30
0.0
  0
LINE
  5
   688
  8
0
  6
CONTINUOUS
 62
   218
 10
125.241086614132
 20
392.813641993687
 30
0.0
 11
140.641086351871
 21
392.813641816489
 31
0.0
  0
LINE
  5
   689
  8
0
  6
CONTINUOUS
 62
   218
 10
137.141086152668
 20
352.738646537066
 30
0.0
 11
137.141086152668
 21
353.263641187549
 31
0.0
  0
LINE
  5
   68A
  8
0
  6
CONTINUOUS
 62
   218
 10
137.141086411476
 20
353.263642530293
 30
0.0
 11
138.191086393595
 21
353.263642518212
 31
0.0
  0
LINE
  5
   68B
  8
0
  6
CONTINUOUS
 62
   218
 10
127.691086572409
 20
353.263642639028
 30
0.0
 11
128.741086554527
 21
353.263642626947
 31
0.0
  0
LINE
  5
   68C
  8
0
  6
CONTINUOUS
 62
   218
 10
128.741086295719
 20
352.738646537066
 30
0.0
 11
128.741086295719
 21
353.263641187549
 31
0.0
  0
LINE
  5
   68D
  8
0
  6
CONTINUOUS
 62
   218
 10
127.691086313583
 20
352.738646537066
 30
0.0
 11
127.691086313583
 21
353.263641187549
 31
0.0
  0
LINE
  5
   68E
  8
0
  6
CONTINUOUS
 62
   218
 10
138.191086134769
 20
352.738646537066
 30
0.0
 11
138.191086134769
 21
353.263641187549
 31
0.0
  0
CIRCLE
  5
   68F
  8
0
  6
CONTINUOUS
 62
   218
 10
132.94108667927
 20
382.313642083901
 30
0.0
 40
3.67499993741512
  0
LINE
  5
   690
  8
0
  6
CONTINUOUS
 62
   218
 10
138.191086419882
 20
367.540896956371
 30
0.0
 11
138.191086419882
 21
368.959498159019
 31
0.0
  0
LINE
  5
   691
  8
0
  6
CONTINUOUS
 62
   218
 10
138.191086300547
 20
357.169658424496
 30
0.0
 11
138.191086300547
 21
367.540896956371
 31
0.0
  0
LINE
  5
   692
  8
0
  6
CONTINUOUS
 62
   218
 10
138.191086290766
 20
356.319620292
 30
0.0
 11
138.191086290766
 21
357.169658424496
 31
0.0
  0
LINE
  5
   693
  8
0
  6
CONTINUOUS
 62
   218
 10
138.191086255603
 20
353.263641187549
 30
0.0
 11
138.191086255603
 21
356.319620292
 31
0.0
  0
LINE
  5
   694
  8
0
  6
CONTINUOUS
 62
   218
 10
138.960150734662
 20
369.807661709284
 30
0.0
 11
143.091085358867
 21
372.192657863198
 31
0.0
  0
LINE
  5
   695
  8
0
  6
CONTINUOUS
 62
   218
 10
138.541085300076
 20
369.565714174248
 30
0.0
 11
138.960150734662
 21
369.807661709285
 31
0.0
  0
ARC
  5
   696
  8
0
  6
CONTINUOUS
 62
   218
 10
142.741086402897
 20
372.798876234852
 30
0.0
 40
0.69999998807824
 50
299.999901888708
 51
358.595730823315
  0
LINE
  5
   697
  8
0
  6
CONTINUOUS
 62
   218
 10
143.441086390976
 20
372.781716416681
 30
0.0
 11
143.441086390976
 21
390.013645902276
 31
0.0
  0
LINE
  5
   698
  8
0
  6
CONTINUOUS
 62
   218
 10
140.641084491362
 20
392.813643994083
 30
0.0
 11
143.441084411461
 21
390.013644009549
 31
0.0
  0
LINE
  5
   699
  8
0
  6
CONTINUOUS
 62
   218
 10
122.441088718593
 20
390.013643845498
 30
0.0
 11
125.241088703127
 21
392.813643765597
 31
0.0
  0
LINE
  5
   69A
  8
0
  6
CONTINUOUS
 62
   218
 10
122.441086748603
 20
372.798875687629
 30
0.0
 11
122.441086748603
 21
390.013645902276
 31
0.0
  0
ARC
  5
   69B
  8
0
  6
CONTINUOUS
 62
   218
 10
123.141086736685
 20
372.798876460379
 30
0.0
 40
0.699999988081856
 50
180.000063248436
 51
240.000095036896
  0
LINE
  5
   69C
  8
0
  6
CONTINUOUS
 62
   218
 10
122.791087748185
 20
372.192658107502
 30
0.0
 11
126.922022317505
 21
369.807661858524
 31
0.0
  0
LINE
  5
   69D
  8
0
  6
CONTINUOUS
 62
   218
 10
126.922022317505
 20
369.807661858525
 30
0.0
 11
127.35090758841
 21
369.560044825337
 31
0.0
  0
LINE
  5
   69E
  8
0
  6
CONTINUOUS
 62
   218
 10
127.691086598696
 20
367.540896956371
 30
0.0
 11
127.691086598696
 21
368.959498159019
 31
0.0
  0
LINE
  5
   69F
  8
0
  6
CONTINUOUS
 62
   218
 10
127.691086479361
 20
357.169658424496
 30
0.0
 11
127.691086479361
 21
367.540896956371
 31
0.0
  0
LINE
  5
   6A0
  8
0
  6
CONTINUOUS
 62
   218
 10
127.69108646958
 20
356.319625632576
 30
0.0
 11
127.69108646958
 21
357.169658424496
 31
0.0
  0
LINE
  5
   6A1
  8
0
  6
CONTINUOUS
 62
   218
 10
127.691086434417
 20
353.263641187549
 30
0.0
 11
127.691086434417
 21
356.319625632576
 31
0.0
  0
ARC
  5
   6A2
  8
0
  6
CONTINUOUS
 62
   218
 10
138.889847234239
 20
368.960233565521
 30
0.0
 40
0.698850637606799
 50
119.942304978275
 51
180.060300564567
  0
ARC
  5
   6A3
  8
0
  6
CONTINUOUS
 62
   218
 10
126.99242993922
 20
368.960270571747
 30
0.0
 40
0.698755732285442
 50
359.936655619942
 51
419.133763074823
  0
LINE
  5
   6A4
  8
0
  6
CONTINUOUS
 62
   218
 10
117.191086492397
 20
352.738646537066
 30
0.0
 11
117.191086492397
 21
353.263641187549
 31
0.0
  0
LINE
  5
   6A5
  8
0
  6
CONTINUOUS
 62
   218
 10
116.141086510296
 20
352.738646537066
 30
0.0
 11
116.141086510296
 21
353.263641187549
 31
0.0
  0
LINE
  5
   6A6
  8
0
  6
CONTINUOUS
 62
   218
 10
116.141086101532
 20
353.263642771927
 30
0.0
 11
117.191086083651
 21
353.263642759845
 31
0.0
  0
LINE
  5
   6A7
  8
0
  6
CONTINUOUS
 62
   218
 10
117.191086658175
 20
357.169658424496
 30
0.0
 11
117.191086658175
 21
362.421677072848
 31
0.0
  0
LINE
  5
   6A8
  8
0
  6
CONTINUOUS
 62
   218
 10
117.191086648394
 20
356.319625632576
 30
0.0
 11
117.191086648394
 21
357.169658424496
 31
0.0
  0
LINE
  5
   6A9
  8
0
  6
CONTINUOUS
 62
   218
 10
117.191086613231
 20
353.263641187549
 30
0.0
 11
117.191086613231
 21
356.319625632576
 31
0.0
  0
ARC
  5
   6AA
  8
0
  6
CONTINUOUS
 62
   218
 10
116.491086730525
 20
362.421675249997
 30
0.0
 40
0.699999988081061
 50
1.49202898953295E-4
 51
59.9999706079657
  0
LINE
  5
   6AB
  8
0
  6
CONTINUOUS
 62
   218
 10
107.041085793914
 20
368.685926348044
 30
0.0
 11
109.024335621215
 21
367.540896495955
 31
0.0
  0
LINE
  5
   6AC
  8
0
  6
CONTINUOUS
 62
   218
 10
109.024335621215
 20
367.540896495955
 30
0.0
 11
116.841087035547
 21
363.027892842779
 31
0.0
  0
ARC
  5
   6AD
  8
0
  6
CONTINUOUS
 62
   218
 10
107.389969952498
 20
369.291494257422
 30
0.0
 40
0.698960144078718
 50
179.946955840398
 51
240.052584398094
  0
LINE
  5
   6AE
  8
0
  6
CONTINUOUS
 62
   218
 10
106.691086982406
 20
369.807661749312
 30
0.0
 11
106.691086982406
 21
390.013645902276
 31
0.0
  0
LINE
  5
   6AF
  8
0
  6
CONTINUOUS
 62
   218
 10
106.691086976475
 20
369.292141280796
 30
0.0
 11
106.691086976475
 21
369.807661749312
 31
0.0
  0
LINE
  5
   6B0
  8
0
  6
CONTINUOUS
 62
   218
 10
103.891084994854
 20
392.813644539298
 30
0.0
 11
106.691084914953
 21
390.013644554764
 31
0.0
  0
LINE
  5
   6B1
  8
0
  6
CONTINUOUS
 62
   218
 10
88.4910865724086
 20
392.813642416545
 30
0.0
 11
103.891086310148
 21
392.813642239347
 31
0.0
  0
LINE
  5
   6B2
  8
0
  6
CONTINUOUS
 62
   218
 10
106.691086671211
 20
352.738646537066
 30
0.0
 11
106.691086671211
 21
353.263641187549
 31
0.0
  0
LINE
  5
   6B3
  8
0
  6
CONTINUOUS
 62
   218
 10
85.6910887992266
 20
390.013643723142
 30
0.0
 11
88.4910887837606
 21
392.81364364324
 31
0.0
  0
LINE
  5
   6B4
  8
0
  6
CONTINUOUS
 62
   218
 10
85.6910873400342
 20
369.807661749312
 30
0.0
 11
85.6910873400342
 21
390.013645902276
 31
0.0
  0
LINE
  5
   6B5
  8
0
  6
CONTINUOUS
 62
   218
 10
85.6910873341024
 20
369.292141280796
 30
0.0
 11
85.6910873341024
 21
369.807661749312
 31
0.0
  0
ARC
  5
   6B6
  8
0
  6
CONTINUOUS
 62
   218
 10
86.389970310122
 20
369.291494499054
 30
0.0
 40
0.698960144075288
 50
179.946975649812
 51
240.05259428737
  0
LINE
  5
   6B7
  8
0
  6
CONTINUOUS
 62
   218
 10
86.041086256172
 20
368.685926529269
 30
0.0
 11
88.0243360834729
 21
367.54089667718
 31
0.0
  0
LINE
  5
   6B8
  8
0
  6
CONTINUOUS
 62
   218
 10
88.0243360834726
 20
367.54089667718
 30
0.0
 11
105.987845207823
 21
357.169659573053
 31
0.0
  0
LINE
  5
   6B9
  8
0
  6
CONTINUOUS
 62
   218
 10
105.987845207824
 20
357.169659573053
 30
0.0
 11
106.34108535932
 21
356.965716271079
 31
0.0
  0
ARC
  5
   6BA
  8
0
  6
CONTINUOUS
 62
   218
 10
105.992069196385
 20
356.36006647641
 30
0.0
 40
0.699090184519415
 50
358.319807829267
 51
420.046559512918
  0
LINE
  5
   6BB
  8
0
  6
CONTINUOUS
 62
   218
 10
106.691086792045
 20
353.263641187549
 30
0.0
 11
106.691086792045
 21
356.339562003086
 31
0.0
  0
LINE
  5
   6BC
  8
0
  6
CONTINUOUS
 62
   218
 10
106.691086262465
 20
353.263642880662
 30
0.0
 11
107.741086244583
 21
353.26364286858
 31
0.0
  0
LINE
  5
   6BD
  8
0
  6
CONTINUOUS
 62
   218
 10
107.741086653347
 20
352.738646537066
 30
0.0
 11
107.741086653347
 21
353.263641187549
 31
0.0
  0
CIRCLE
  5
   6BE
  8
0
  6
CONTINUOUS
 62
   218
 10
96.1910873051186
 20
382.31364250676
 30
0.0
 40
3.67499993741508
  0
LINE
  5
   6BF
  8
0
  6
CONTINUOUS
 62
   218
 10
159.191085777176
 20
352.738646537066
 30
0.0
 11
159.191085777176
 21
353.263641187549
 31
0.0
  0
LINE
  5
   6C0
  8
0
  6
CONTINUOUS
 62
   218
 10
148.69108595599
 20
352.738646537066
 30
0.0
 11
148.69108595599
 21
353.263641187549
 31
0.0
  0
LINE
  5
   6C1
  8
0
  6
CONTINUOUS
 62
   218
 10
149.741085938091
 20
352.738646537066
 30
0.0
 11
149.741085938091
 21
353.263641187549
 31
0.0
  0
LINE
  5
   6C2
  8
0
  6
CONTINUOUS
 62
   218
 10
148.691085547209
 20
353.263642397395
 30
0.0
 11
149.741085529327
 21
353.263642385313
 31
0.0
  0
LINE
  5
   6C3
  8
0
  6
CONTINUOUS
 62
   218
 10
148.691086121733
 20
357.169658424496
 30
0.0
 11
148.691086121733
 21
362.421677072848
 31
0.0
  0
LINE
  5
   6C4
  8
0
  6
CONTINUOUS
 62
   218
 10
148.691086111952
 20
356.319620292
 30
0.0
 11
148.691086111952
 21
357.169658424496
 31
0.0
  0
LINE
  5
   6C5
  8
0
  6
CONTINUOUS
 62
   218
 10
148.691086076789
 20
353.263641187549
 30
0.0
 11
148.691086076789
 21
356.319620292
 31
0.0
  0
ARC
  5
   6C6
  8
0
  6
CONTINUOUS
 62
   218
 10
149.391086170245
 20
362.421674871437
 30
0.0
 40
0.699999988080254
 50
120.00010391711
 51
179.999819811278
  0
LINE
  5
   6C7
  8
0
  6
CONTINUOUS
 62
   218
 10
156.8578365949
 20
367.540895482263
 30
0.0
 11
158.841086448551
 21
368.685925288712
 31
0.0
  0
LINE
  5
   6C8
  8
0
  6
CONTINUOUS
 62
   218
 10
149.041085076712
 20
363.02789200897
 30
0.0
 11
156.857836594901
 21
367.540895482262
 31
0.0
  0
ARC
  5
   6C9
  8
0
  6
CONTINUOUS
 62
   218
 10
158.492203106372
 20
369.291493669418
 30
0.0
 40
0.698960144073296
 50
299.947338225598
 51
360.053092473666
  0
LINE
  5
   6CA
  8
0
  6
CONTINUOUS
 62
   218
 10
159.191086088337
 20
369.807661749312
 30
0.0
 11
159.191086088337
 21
390.013645902276
 31
0.0
  0
LINE
  5
   6CB
  8
0
  6
CONTINUOUS
 62
   218
 10
159.191086082405
 20
369.292141280796
 30
0.0
 11
159.191086082405
 21
369.807661749312
 31
0.0
  0
LINE
  5
   6CC
  8
0
  6
CONTINUOUS
 62
   218
 10
159.191087970388
 20
390.013643300283
 30
0.0
 11
161.991087954922
 21
392.813643220382
 31
0.0
  0
LINE
  5
   6CD
  8
0
  6
CONTINUOUS
 62
   218
 10
161.991085320711
 20
392.813641570828
 30
0.0
 11
177.391085058451
 21
392.81364139363
 31
0.0
  0
LINE
  5
   6CE
  8
0
  6
CONTINUOUS
 62
   218
 10
177.391083320298
 20
392.81364411644
 30
0.0
 11
180.191083240396
 21
390.013644131905
 31
0.0
  0
LINE
  5
   6CF
  8
0
  6
CONTINUOUS
 62
   218
 10
180.191085730691
 20
369.807661749312
 30
0.0
 11
180.191085730691
 21
390.013645902276
 31
0.0
  0
LINE
  5
   6D0
  8
0
  6
CONTINUOUS
 62
   218
 10
180.19108572476
 20
369.292141280796
 30
0.0
 11
180.19108572476
 21
369.807661749312
 31
0.0
  0
LINE
  5
   6D1
  8
0
  6
CONTINUOUS
 62
   218
 10
179.841085016727
 20
368.685927149274
 30
0.0
 11
180.191085010767
 21
369.292141280796
 31
0.0
  0
ARC
  5
   6D2
  8
0
  6
CONTINUOUS
 62
   218
 10
179.492202748741
 20
369.291493427787
 30
0.0
 40
0.698960144076724
 50
299.947348114883
 51
360.053112283094
  0
LINE
  5
   6D3
  8
0
  6
CONTINUOUS
 62
   218
 10
177.857836341903
 20
367.540895301038
 30
0.0
 11
179.841086195554
 21
368.685925107487
 31
0.0
  0
LINE
  5
   6D4
  8
0
  6
CONTINUOUS
 62
   218
 10
159.894328981599
 20
357.169659766567
 30
0.0
 11
177.857836341904
 21
367.540895301036
 31
0.0
  0
LINE
  5
   6D5
  8
0
  6
CONTINUOUS
 62
   218
 10
159.541084510154
 20
356.96571398131
 30
0.0
 11
159.894328981598
 21
357.169659766568
 31
0.0
  0
ARC
  5
   6D6
  8
0
  6
CONTINUOUS
 62
   218
 10
159.890130415313
 20
356.360059507579
 30
0.0
 40
0.6991132777916
 50
119.955360950526
 51
183.31082657986
  0
LINE
  5
   6D7
  8
0
  6
CONTINUOUS
 62
   218
 10
159.191085897975
 20
353.263641187549
 30
0.0
 11
159.191085897975
 21
356.319620292
 31
0.0
  0
LINE
  5
   6D8
  8
0
  6
CONTINUOUS
 62
   218
 10
158.141085386276
 20
353.26364228866
 30
0.0
 11
159.191085368395
 21
353.263642276578
 31
0.0
  0
LINE
  5
   6D9
  8
0
  6
CONTINUOUS
 62
   218
 10
158.14108579504
 20
352.738646537066
 30
0.0
 11
158.14108579504
 21
353.263641187549
 31
0.0
  0
CIRCLE
  5
   6DA
  8
0
  6
CONTINUOUS
 62
   218
 10
169.691086053421
 20
382.313641661043
 30
0.0
 40
3.67499993741513
  0
LINE
  5
   6DB
  8
0
  6
CONTINUOUS
 62
   218
 10
125.24108594656
 20
221.663648769259
 30
0.0
 11
140.641085684299
 21
221.663648769259
 31
0.0
  0
LINE
  5
   6DC
  8
0
  6
CONTINUOUS
 62
   218
 10
137.141085743904
 20
261.213648095727
 30
0.0
 11
137.141085743904
 21
261.738645416498
 31
0.0
  0
LINE
  5
   6DD
  8
0
  6
CONTINUOUS
 62
   218
 10
137.141085743904
 20
261.213648095727
 30
0.0
 11
138.191085726023
 21
261.213648095727
 31
0.0
  0
LINE
  5
   6DE
  8
0
  6
CONTINUOUS
 62
   218
 10
127.691085904837
 20
261.213648095727
 30
0.0
 11
128.741085886955
 21
261.213648095727
 31
0.0
  0
LINE
  5
   6DF
  8
0
  6
CONTINUOUS
 62
   218
 10
128.741085886955
 20
261.213648095727
 30
0.0
 11
128.741085886955
 21
261.738645416498
 31
0.0
  0
LINE
  5
   6E0
  8
0
  6
CONTINUOUS
 62
   218
 10
127.691085904819
 20
261.213648095727
 30
0.0
 11
127.691085904819
 21
261.738645416498
 31
0.0
  0
LINE
  5
   6E1
  8
0
  6
CONTINUOUS
 62
   218
 10
138.191085726005
 20
261.213648095727
 30
0.0
 11
138.191085726005
 21
261.73864274621
 31
0.0
  0
CIRCLE
  5
   6E2
  8
0
  6
CONTINUOUS
 62
   218
 10
132.94108581543
 20
232.163648590446
 30
0.0
 40
3.6749999374151
  0
LINE
  5
   6E3
  8
0
  6
CONTINUOUS
 62
   218
 10
138.191085726023
 20
245.517791124256
 30
0.0
 11
138.191085726023
 21
246.936392326904
 31
0.0
  0
LINE
  5
   6E4
  8
0
  6
CONTINUOUS
 62
   218
 10
138.191085726023
 20
246.936392326904
 30
0.0
 11
138.191085726023
 21
257.307630858779
 31
0.0
  0
LINE
  5
   6E5
  8
0
  6
CONTINUOUS
 62
   218
 10
138.191085726023
 20
257.307630858779
 30
0.0
 11
138.191085726023
 21
258.157668991276
 31
0.0
  0
LINE
  5
   6E6
  8
0
  6
CONTINUOUS
 62
   218
 10
138.191085726023
 20
258.157668991276
 30
0.0
 11
138.191085726023
 21
261.213648095727
 31
0.0
  0
LINE
  5
   6E7
  8
0
  6
CONTINUOUS
 62
   218
 10
138.96015062636
 20
244.669628542675
 30
0.0
 11
143.091085223123
 21
242.284632341229
 31
0.0
  0
LINE
  5
   6E8
  8
0
  6
CONTINUOUS
 62
   218
 10
138.541085194558
 20
244.911576082533
 30
0.0
 11
138.96015062636
 21
244.669628542675
 31
0.0
  0
ARC
  5
   6E9
  8
0
  6
CONTINUOUS
 62
   218
 10
142.741085648536
 20
241.678414326732
 30
0.0
 40
0.699999988079254
 50
359.999940162708
 51
420.000039644006
  0
LINE
  5
   6EA
  8
0
  6
CONTINUOUS
 62
   218
 10
143.441085636616
 20
224.463648721576
 30
0.0
 11
143.441085636616
 21
241.678413595646
 31
0.0
  0
LINE
  5
   6EB
  8
0
  6
CONTINUOUS
 62
   218
 10
140.641085684299
 20
221.66364876926
 30
0.0
 11
143.441085636616
 21
224.463648721576
 31
0.0
  0
LINE
  5
   6EC
  8
0
  6
CONTINUOUS
 62
   218
 10
122.441085994244
 20
224.463648721576
 30
0.0
 11
125.24108594656
 21
221.663648769259
 31
0.0
  0
LINE
  5
   6ED
  8
0
  6
CONTINUOUS
 62
   218
 10
122.441085994244
 20
224.463648721576
 30
0.0
 11
122.441085994244
 21
241.678413595646
 31
0.0
  0
ARC
  5
   6EE
  8
0
  6
CONTINUOUS
 62
   218
 10
123.141085982324
 20
241.678414326732
 30
0.0
 40
0.699999988080078
 50
119.999960356042
 51
180.000059837292
  0
LINE
  5
   6EF
  8
0
  6
CONTINUOUS
 62
   218
 10
122.791086407737
 20
242.284632341229
 30
0.0
 11
126.922021004499
 21
244.669628542675
 31
0.0
  0
LINE
  5
   6F0
  8
0
  6
CONTINUOUS
 62
   218
 10
126.9220210045
 20
244.669628542675
 30
0.0
 11
127.341086436302
 21
244.911576082534
 31
0.0
  0
LINE
  5
   6F1
  8
0
  6
CONTINUOUS
 62
   218
 10
127.691085904837
 20
245.517791124256
 30
0.0
 11
127.691085904837
 21
246.936392326904
 31
0.0
  0
LINE
  5
   6F2
  8
0
  6
CONTINUOUS
 62
   218
 10
127.691085904837
 20
246.936392326904
 30
0.0
 11
127.691085904837
 21
257.307630858779
 31
0.0
  0
LINE
  5
   6F3
  8
0
  6
CONTINUOUS
 62
   218
 10
127.691085904837
 20
257.307630858779
 30
0.0
 11
127.691085904837
 21
258.157668991276
 31
0.0
  0
LINE
  5
   6F4
  8
0
  6
CONTINUOUS
 62
   218
 10
127.691085904837
 20
258.157668991276
 30
0.0
 11
127.691085904837
 21
261.213648095727
 31
0.0
  0
ARC
  5
   6F5
  8
0
  6
CONTINUOUS
 62
   218
 10
138.889846524044
 20
245.517057040376
 30
0.0
 40
0.698850637602744
 50
179.939807881611
 51
240.057752182117
  0
ARC
  5
   6F6
  8
0
  6
CONTINUOUS
 62
   218
 10
126.992429229025
 20
245.517020171049
 30
0.0
 40
0.698755732288262
 50
299.936357778747
 51
360.063224683311
  0
LINE
  5
   6F7
  8
0
  6
CONTINUOUS
 62
   218
 10
117.191086083633
 20
261.213648095727
 30
0.0
 11
117.191086083633
 21
261.738645416498
 31
0.0
  0
LINE
  5
   6F8
  8
0
  6
CONTINUOUS
 62
   218
 10
116.141086101532
 20
261.213648095727
 30
0.0
 11
116.141086101532
 21
261.738645416498
 31
0.0
  0
LINE
  5
   6F9
  8
0
  6
CONTINUOUS
 62
   218
 10
116.141086101532
 20
261.213648095727
 30
0.0
 11
117.191086083651
 21
261.213648095727
 31
0.0
  0
LINE
  5
   6FA
  8
0
  6
CONTINUOUS
 62
   218
 10
117.191086083651
 20
252.055617551004
 30
0.0
 11
117.191086083651
 21
257.307630858779
 31
0.0
  0
LINE
  5
   6FB
  8
0
  6
CONTINUOUS
 62
   218
 10
117.191086083651
 20
257.307630858779
 30
0.0
 11
117.191086083651
 21
258.157668991276
 31
0.0
  0
LINE
  5
   6FC
  8
0
  6
CONTINUOUS
 62
   218
 10
117.191086083651
 20
258.157668991276
 30
0.0
 11
117.191086083651
 21
261.213648095727
 31
0.0
  0
ARC
  5
   6FD
  8
0
  6
CONTINUOUS
 62
   218
 10
116.491086095572
 20
252.055615613629
 30
0.0
 40
0.699999988078689
 50
300.000009723995
 51
360.000158576818
  0
LINE
  5
   6FE
  8
0
  6
CONTINUOUS
 62
   218
 10
107.041087198297
 20
245.791365843345
 30
0.0
 11
109.024334726235
 21
246.93639433747
 31
0.0
  0
LINE
  5
   6FF
  8
0
  6
CONTINUOUS
 62
   218
 10
109.024334726236
 20
246.93639433747
 30
0.0
 11
116.841086192496
 21
251.449397900704
 31
0.0
  0
ARC
  5
   700
  8
0
  6
CONTINUOUS
 62
   218
 10
107.389969238491
 20
245.185796710927
 30
0.0
 40
0.698960144074601
 50
119.947215276932
 51
180.053182359249
  0
LINE
  5
   701
  8
0
  6
CONTINUOUS
 62
   218
 10
106.691086262465
 20
224.463648721576
 30
0.0
 11
106.691086262465
 21
244.669627533964
 31
0.0
  0
LINE
  5
   702
  8
0
  6
CONTINUOUS
 62
   218
 10
106.691086262465
 20
244.669627533964
 30
0.0
 11
106.691086262465
 21
245.18514800248
 31
0.0
  0
LINE
  5
   703
  8
0
  6
CONTINUOUS
 62
   218
 10
103.891086310148
 20
221.66364876926
 30
0.0
 11
106.691086262465
 21
224.463648721576
 31
0.0
  0
LINE
  5
   704
  8
0
  6
CONTINUOUS
 62
   218
 10
88.4910865724087
 20
221.663648769259
 30
0.0
 11
103.891086310148
 21
221.663648769259
 31
0.0
  0
LINE
  5
   705
  8
0
  6
CONTINUOUS
 62
   218
 10
106.691086262447
 20
261.213648095727
 30
0.0
 11
106.691086262447
 21
261.738645416498
 31
0.0
  0
LINE
  5
   706
  8
0
  6
CONTINUOUS
 62
   218
 10
85.6910866200924
 20
224.463648721576
 30
0.0
 11
88.4910865724087
 21
221.663648769259
 31
0.0
  0
LINE
  5
   707
  8
0
  6
CONTINUOUS
 62
   218
 10
85.6910866200924
 20
224.463648721576
 30
0.0
 11
85.6910866200924
 21
244.669627533964
 31
0.0
  0
LINE
  5
   708
  8
0
  6
CONTINUOUS
 62
   218
 10
85.6910866200924
 20
244.669627533964
 30
0.0
 11
85.6910866200924
 21
245.18514800248
 31
0.0
  0
ARC
  5
   709
  8
0
  6
CONTINUOUS
 62
   218
 10
86.3899695961201
 20
245.185796710926
 30
0.0
 40
0.698960144075982
 50
119.947215276993
 51
180.05318235918
  0
LINE
  5
   70A
  8
0
  6
CONTINUOUS
 62
   218
 10
86.0410875559245
 20
245.791365843345
 30
0.0
 11
88.0243350838632
 21
246.93639433747
 31
0.0
  0
LINE
  5
   70B
  8
0
  6
CONTINUOUS
 62
   218
 10
88.0243350838629
 20
246.936394337471
 30
0.0
 11
105.987842324833
 21
257.307630078635
 31
0.0
  0
LINE
  5
   70C
  8
0
  6
CONTINUOUS
 62
   218
 10
105.987842324833
 20
257.307630078634
 30
0.0
 11
106.34108679393
 21
257.511575867957
 31
0.0
  0
ARC
  5
   70D
  8
0
  6
CONTINUOUS
 62
   218
 10
105.992068631174
 20
258.117224508023
 30
0.0
 40
0.699090184521283
 50
299.953629572426
 51
363.311386472836
  0
LINE
  5
   70E
  8
0
  6
CONTINUOUS
 62
   218
 10
106.691086262465
 20
258.157668991276
 30
0.0
 11
106.691086262465
 21
261.213648095727
 31
0.0
  0
LINE
  5
   70F
  8
0
  6
CONTINUOUS
 62
   218
 10
106.691086262465
 20
261.213648095727
 30
0.0
 11
107.741086244583
 21
261.213648095727
 31
0.0
  0
LINE
  5
   710
  8
0
  6
CONTINUOUS
 62
   218
 10
107.741086244583
 20
261.213648095727
 30
0.0
 11
107.741086244583
 21
261.738645416498
 31
0.0
  0
CIRCLE
  5
   711
  8
0
  6
CONTINUOUS
 62
   218
 10
96.1910864412784
 20
232.163648590446
 30
0.0
 40
3.67499993741513
  0
LINE
  5
   712
  8
0
  6
CONTINUOUS
 62
   218
 10
159.191085368412
 20
261.213648095727
 30
0.0
 11
159.191085368412
 21
261.73864274621
 31
0.0
  0
LINE
  5
   713
  8
0
  6
CONTINUOUS
 62
   218
 10
148.691085547226
 20
261.213648095727
 30
0.0
 11
148.691085547226
 21
261.73864274621
 31
0.0
  0
LINE
  5
   714
  8
0
  6
CONTINUOUS
 62
   218
 10
149.741085529327
 20
261.213648095727
 30
0.0
 11
149.741085529327
 21
261.73864274621
 31
0.0
  0
LINE
  5
   715
  8
0
  6
CONTINUOUS
 62
   218
 10
148.691085547209
 20
261.213648095727
 30
0.0
 11
149.741085529327
 21
261.213648095727
 31
0.0
  0
LINE
  5
   716
  8
0
  6
CONTINUOUS
 62
   218
 10
148.691085547209
 20
252.055617551004
 30
0.0
 11
148.691085547209
 21
257.307630858779
 31
0.0
  0
LINE
  5
   717
  8
0
  6
CONTINUOUS
 62
   218
 10
148.691085547209
 20
257.307630858779
 30
0.0
 11
148.691085547209
 21
258.157668991276
 31
0.0
  0
LINE
  5
   718
  8
0
  6
CONTINUOUS
 62
   218
 10
148.691085547209
 20
258.157668991276
 30
0.0
 11
148.691085547209
 21
261.213648095727
 31
0.0
  0
ARC
  5
   719
  8
0
  6
CONTINUOUS
 62
   218
 10
149.391085535287
 20
252.055615613629
 30
0.0
 40
0.699999988078427
 50
179.999841423179
 51
239.999990276036
  0
LINE
  5
   71A
  8
0
  6
CONTINUOUS
 62
   218
 10
156.857836904624
 20
246.93639433747
 30
0.0
 11
158.841084432563
 21
245.791365843345
 31
0.0
  0
LINE
  5
   71B
  8
0
  6
CONTINUOUS
 62
   218
 10
149.041085438364
 20
251.449397900705
 30
0.0
 11
156.857836904625
 21
246.936394337471
 31
0.0
  0
ARC
  5
   71C
  8
0
  6
CONTINUOUS
 62
   218
 10
158.492202392366
 20
245.185796710926
 30
0.0
 40
0.698960144077078
 50
359.946817640842
 51
420.052784722946
  0
LINE
  5
   71D
  8
0
  6
CONTINUOUS
 62
   218
 10
159.191085368395
 20
224.463648721576
 30
0.0
 11
159.191085368395
 21
244.669627533964
 31
0.0
  0
LINE
  5
   71E
  8
0
  6
CONTINUOUS
 62
   218
 10
159.191085368395
 20
244.669627533964
 30
0.0
 11
159.191085368395
 21
245.18514800248
 31
0.0
  0
LINE
  5
   71F
  8
0
  6
CONTINUOUS
 62
   218
 10
159.191085368395
 20
224.463648721576
 30
0.0
 11
161.991085320711
 21
221.663648769259
 31
0.0
  0
LINE
  5
   720
  8
0
  6
CONTINUOUS
 62
   218
 10
161.991085320711
 20
221.663648769259
 30
0.0
 11
177.391085058451
 21
221.663648769259
 31
0.0
  0
LINE
  5
   721
  8
0
  6
CONTINUOUS
 62
   218
 10
177.391085058451
 20
221.663648769259
 30
0.0
 11
180.191085010767
 21
224.463648721576
 31
0.0
  0
LINE
  5
   722
  8
0
  6
CONTINUOUS
 62
   218
 10
180.19108501075
 20
224.463648721576
 30
0.0
 11
180.19108501075
 21
244.669627533964
 31
0.0
  0
LINE
  5
   723
  8
0
  6
CONTINUOUS
 62
   218
 10
180.19108501075
 20
244.669627533964
 30
0.0
 11
180.19108501075
 21
245.18514800248
 31
0.0
  0
ARC
  5
   724
  8
0
  6
CONTINUOUS
 62
   218
 10
179.492202034737
 20
245.185796710925
 30
0.0
 40
0.698960144078612
 50
359.946817640937
 51
420.052784722916
  0
LINE
  5
   725
  8
0
  6
CONTINUOUS
 62
   218
 10
177.857836546996
 20
246.93639433747
 30
0.0
 11
179.841084074935
 21
245.791365843345
 31
0.0
  0
LINE
  5
   726
  8
0
  6
CONTINUOUS
 62
   218
 10
159.894329306027
 20
257.307630078636
 30
0.0
 11
177.857836546997
 21
246.936394337472
 31
0.0
  0
LINE
  5
   727
  8
0
  6
CONTINUOUS
 62
   218
 10
159.54108483693
 20
257.511575867957
 30
0.0
 11
159.894329306026
 21
257.307630078634
 31
0.0
  0
ARC
  5
   728
  8
0
  6
CONTINUOUS
 62
   218
 10
159.890129850107
 20
258.117230856685
 30
0.0
 40
0.699113277794365
 50
178.320314230048
 51
240.04472342891
  0
LINE
  5
   729
  8
0
  6
CONTINUOUS
 62
   218
 10
159.191085368395
 20
258.137729950478
 30
0.0
 11
159.191085368395
 21
261.213648095727
 31
0.0
  0
LINE
  5
   72A
  8
0
  6
CONTINUOUS
 62
   218
 10
158.141085386276
 20
261.213648095727
 30
0.0
 11
159.191085368395
 21
261.213648095727
 31
0.0
  0
LINE
  5
   72B
  8
0
  6
CONTINUOUS
 62
   218
 10
158.141085386276
 20
261.213648095727
 30
0.0
 11
158.141085386276
 21
261.73864274621
 31
0.0
  0
CIRCLE
  5
   72C
  8
0
  6
CONTINUOUS
 62
   218
 10
169.691085189581
 20
232.163648590446
 30
0.0
 40
3.67499993741516
  0
ARC
  5
   72D
  8
0
  6
CONTINUOUS
 62
     3
 10
103.191079465557
 20
352.038653405503
 30
0.0
 40
0.699999988079228
 50
89.999438781318
 51
180.00056121835
  0
LINE
  5
   72E
  8
0
  6
CONTINUOUS
 62
     3
 10
163.334659440286
 20
352.230736389465
 30
0.0
 11
163.391085296869
 21
352.038646548986
 31
0.0
  0
LINE
  5
   72F
  8
0
  6
CONTINUOUS
 62
     3
 10
163.25084710956
 20
352.377207029061
 30
0.0
 11
163.334659440286
 21
352.230736389465
 31
0.0
  0
ARC
  5
   730
  8
0
  6
CONTINUOUS
 62
     3
 10
162.691057058332
 20
352.038618298997
 30
0.0
 40
0.70003808454892
 50
31.1676251024118
 51
89.9976877617984
  0
LINE
  5
   731
  8
0
  6
CONTINUOUS
 62
     3
 10
124.541085958481
 20
352.73864653707
 30
0.0
 11
141.341085672379
 21
352.73864653707
 31
0.0
  0
LINE
  5
   732
  8
0
  6
CONTINUOUS
 62
     3
 10
103.191086322069
 20
352.73864653707
 30
0.0
 11
120.341086030006
 21
352.73864653707
 31
0.0
  0
LINE
  5
   733
  8
0
  6
CONTINUOUS
 62
     7
 10
163.171571598215
 20
348.538646608592
 30
0.0
 11
163.391085296869
 21
348.538646608592
 31
0.0
  0
LINE
  5
   734
  8
0
  6
CONTINUOUS
 62
     7
 10
162.69108530879
 20
348.538646608592
 30
0.0
 11
163.170482120694
 21
348.538646608592
 31
0.0
  0
LINE
  5
   735
  8
0
  6
CONTINUOUS
 62
     7
 10
102.49108633399
 20
348.538646608596
 30
0.0
 11
103.191086322069
 21
348.538646608596
 31
0.0
  0
LINE
  5
   736
  8
0
  6
CONTINUOUS
 62
     7
 10
103.191086322069
 20
348.538646608596
 30
0.0
 11
162.69108530879
 21
348.538646608596
 31
0.0
  0
POLYLINE
  5
   737
  8
0
  6
CONTINUOUS
 62
     7
 66
     1
 10
0.0
 20
0.0
 30
0.0
  0
VERTEX
  5
   738
  8
0
  6
CONTINUOUS
 10
132.35455078885
 20
351.190012987988
 30
0.0
 40
0.0
 41
0.0
  0
VERTEX
  5
   739
  8
0
  6
CONTINUOUS
 10
132.15669176943
 20
350.614688669098
 30
0.0
 40
0.0
 41
0.0
  0
VERTEX
  5
   73A
  8
0
  6
CONTINUOUS
 10
132.382924435115
 20
350.084417608868
 30
0.0
 40
0.0
 41
0.0
  0
SEQEND
  5
   73B
  8
0
  6
CONTINUOUS
 62
     7
  0
POLYLINE
  5
   73C
  8
0
  6
CONTINUOUS
 62
     7
 66
     1
 10
0.0
 20
0.0
 30
0.0
  0
VERTEX
  5
   73D
  8
0
  6
CONTINUOUS
 10
133.527620842009
 20
350.087280157664
 30
0.0
 40
0.0
 41
0.0
  0
VERTEX
  5
   73E
  8
0
  6
CONTINUOUS
 10
133.725479861432
 20
350.662604476556
 30
0.0
 40
0.0
 41
0.0
  0
VERTEX
  5
   73F
  8
0
  6
CONTINUOUS
 10
133.499247195748
 20
351.192875536787
 30
0.0
 40
0.0
 41
0.0
  0
SEQEND
  5
   740
  8
0
  6
CONTINUOUS
 62
     7
  0
ARC
  5
   741
  8
0
  6
CONTINUOUS
 62
     7
 10
132.940982460054
 20
350.638646572833
 30
0.0
 40
0.805085157271607
 50
270.007356296955
 51
449.992643703043
  0
CIRCLE
  5
   742
  8
0
  6
CONTINUOUS
 62
     7
 10
132.94108581543
 20
350.638646572833
 30
0.0
 40
0.804999986290995
  0
ARC
  5
   743
  8
0
  6
CONTINUOUS
 62
     7
 10
122.441085994246
 20
344.688646674163
 30
0.0
 40
2.97499994933267
 50
38.6577505521323
 51
60.1353119424638
  0
ARC
  5
   744
  8
0
  6
CONTINUOUS
 62
     7
 10
122.44108601002
 20
344.688646674161
 30
0.0
 40
2.97499993356014
 50
359.87583731412
 51
360.035739285515
  0
ARC
  5
   745
  8
0
  6
CONTINUOUS
 62
     7
 10
122.441085994252
 20
344.688646674165
 30
0.0
 40
2.97499994932629
 50
25.6503975439546
 51
30.0255031534841
  0
ARC
  5
   746
  8
0
  6
CONTINUOUS
 62
     7
 10
122.441085994245
 20
344.688646674159
 30
0.0
 40
2.97499994933793
 50
119.968093564555
 51
148.694384037001
  0
ARC
  5
   747
  8
0
  6
CONTINUOUS
 62
     7
 10
122.441085994247
 20
344.688646674159
 30
0.0
 40
2.97499994933985
 50
149.95240814021
 51
161.76369214056
  0
ARC
  5
   748
  8
0
  6
CONTINUOUS
 62
     7
 10
122.441085994244
 20
344.688646674161
 30
0.0
 40
2.97499994933682
 50
179.974308650493
 51
194.431647155145
  0
ARC
  5
   749
  8
0
  6
CONTINUOUS
 62
     7
 10
122.441085994247
 20
344.688646674163
 30
0.0
 40
2.97499994934
 50
209.967083278846
 51
227.595222601375
  0
ARC
  5
   74A
  8
0
  6
CONTINUOUS
 62
     7
 10
122.441086007592
 20
344.688646697339
 30
0.0
 40
2.97499997608302
 50
239.954025452621
 51
240.12266140989
  0
LINE
  5
   74B
  8
0
  6
CONTINUOUS
 62
     7
 10
150.941412046972
 20
292.71364755929
 30
0.0
 11
151.072261501531
 21
292.71364755929
 31
0.0
  0
LINE
  5
   74C
  8
0
  6
CONTINUOUS
 62
     7
 10
156.787454961941
 20
292.71364755929
 30
0.0
 11
156.957896777275
 21
292.71364755929
 31
0.0
  0
ARC
  5
   74D
  8
0
  6
CONTINUOUS
 62
     7
 10
161.991085320713
 20
340.663646742708
 30
0.0
 40
1.81999996900282
 50
16.9530639362385
 51
39.7150517978931
  0
LINE
  5
   74E
  8
0
  6
CONTINUOUS
 62
     7
 10
163.391085296869
 20
348.538646608596
 30
0.0
 11
164.441085278988
 21
348.538646608596
 31
0.0
  0
LINE
  5
   74F
  8
0
  6
CONTINUOUS
 62
     7
 10
163.391085296869
 20
346.438646644358
 30
0.0
 11
164.441085278988
 21
346.438646644358
 31
0.0
  0
LINE
  5
   750
  8
0
  6
CONTINUOUS
 62
     7
 10
163.391085296869
 20
343.288646698003
 30
0.0
 11
164.441085278988
 21
343.288646698003
 31
0.0
  0
LINE
  5
   751
  8
0
  6
CONTINUOUS
 62
     3
 10
145.541085600853
 20
352.73864653707
 30
0.0
 11
162.69108530879
 21
352.73864653707
 31
0.0
  0
LINE
  5
   752
  8
0
  6
CONTINUOUS
 62
     7
 10
164.441085278988
 20
343.288646697998
 30
0.0
 11
164.441085278988
 21
346.438646644354
 31
0.0
  0
LINE
  5
   753
  8
0
  6
CONTINUOUS
 62
     7
 10
164.441085278988
 20
340.698646208048
 30
0.0
 11
164.441085278988
 21
342.483645643592
 31
0.0
  0
LINE
  5
   754
  8
0
  6
CONTINUOUS
 62
     7
 10
164.441085278988
 20
346.438646644354
 30
0.0
 11
164.441085278988
 21
348.538646608591
 31
0.0
  0
LINE
  5
   755
  8
0
  6
CONTINUOUS
 62
     7
 10
164.441085278988
 20
342.483645643592
 30
0.0
 11
164.441085278988
 21
343.288646697998
 31
0.0
  0
ARC
  5
   756
  8
0
  6
CONTINUOUS
 62
     7
 10
103.891086310132
 20
340.663646742715
 30
0.0
 40
1.81999996898769
 50
140.284948202018
 51
163.046936063863
  0
LINE
  5
   757
  8
0
  6
CONTINUOUS
 62
     7
 10
101.441086351872
 20
348.538646608596
 30
0.0
 11
102.49108633399
 21
348.538646608596
 31
0.0
  0
LINE
  5
   758
  8
0
  6
CONTINUOUS
 62
     7
 10
101.441086351872
 20
340.698646208048
 30
0.0
 11
101.441086351872
 21
342.483645643592
 31
0.0
  0
LINE
  5
   759
  8
0
  6
CONTINUOUS
 62
     7
 10
101.441086351872
 20
342.483645643592
 30
0.0
 11
101.441086351872
 21
348.538646608591
 31
0.0
  0
LINE
  5
   75A
  8
0
  6
CONTINUOUS
 62
     7
 10
102.49108633399
 20
351.338646560912
 30
0.0
 11
103.191086322069
 21
351.338646560912
 31
0.0
  0
LINE
  5
   75B
  8
0
  6
CONTINUOUS
 62
     7
 10
103.191086322069
 20
351.338646560912
 30
0.0
 11
103.541086316109
 21
351.338646560912
 31
0.0
  0
LINE
  5
   75C
  8
0
  6
CONTINUOUS
 62
     7
 10
103.541086316109
 20
349.23864659667
 30
0.0
 11
103.541086316109
 21
351.338646560907
 31
0.0
  0
LINE
  5
   75D
  8
0
  6
CONTINUOUS
 62
     7
 10
102.49108633399
 20
349.238646596675
 30
0.0
 11
103.191086322069
 21
349.238646596675
 31
0.0
  0
LINE
  5
   75E
  8
0
  6
CONTINUOUS
 62
     7
 10
103.191086322069
 20
349.238646596675
 30
0.0
 11
103.541086316109
 21
349.238646596675
 31
0.0
  0
LINE
  5
   75F
  8
0
  6
CONTINUOUS
 62
     7
 10
162.341085314751
 20
349.23864659667
 30
0.0
 11
162.341085314751
 21
351.338646560907
 31
0.0
  0
LINE
  5
   760
  8
0
  6
CONTINUOUS
 62
     7
 10
162.69108530879
 20
351.338646560911
 30
0.0
 11
163.391085296869
 21
351.338646560911
 31
0.0
  0
LINE
  5
   761
  8
0
  6
CONTINUOUS
 62
     7
 10
162.341085314751
 20
351.338646560912
 30
0.0
 11
162.69108530879
 21
351.338646560912
 31
0.0
  0
LINE
  5
   762
  8
0
  6
CONTINUOUS
 62
     7
 10
162.69108530879
 20
349.238646596674
 30
0.0
 11
163.391085296869
 21
349.238646596674
 31
0.0
  0
LINE
  5
   763
  8
0
  6
CONTINUOUS
 62
     7
 10
162.341085314751
 20
349.238646596675
 30
0.0
 11
162.69108530879
 21
349.238646596675
 31
0.0
  0
CIRCLE
  5
   764
  8
0
  6
CONTINUOUS
 62
     7
 10
122.441085994244
 20
344.688646674161
 30
0.0
 40
1.46999997496604
  0
CIRCLE
  5
   765
  8
0
  6
CONTINUOUS
 62
     7
 10
143.441085636616
 20
344.688646674161
 30
0.0
 40
1.46999997496605
  0
LINE
  5
   766
  8
0
  6
CONTINUOUS
 62
     7
 10
157.094893234903
 20
291.313647583132
 30
0.0
 11
157.150830428775
 21
291.313647583132
 31
0.0
  0
LINE
  5
   767
  8
0
  6
CONTINUOUS
 62
     7
 10
163.391085296869
 20
348.538646608591
 30
0.0
 11
163.391085296869
 21
349.23864659667
 31
0.0
  0
LINE
  5
   768
  8
0
  6
CONTINUOUS
 62
     7
 10
163.391085296869
 20
351.338646560907
 30
0.0
 11
163.391085296869
 21
352.038646548986
 31
0.0
  0
LINE
  5
   769
  8
0
  6
CONTINUOUS
 62
     7
 10
102.49108633399
 20
348.538646608591
 30
0.0
 11
102.49108633399
 21
349.23864659667
 31
0.0
  0
LINE
  5
   76A
  8
0
  6
CONTINUOUS
 62
     7
 10
102.49108633399
 20
351.338646560907
 30
0.0
 11
102.49108633399
 21
352.038646548986
 31
0.0
  0
LINE
  5
   76B
  8
0
  6
CONTINUOUS
 62
   253
 10
133.543840797411
 20
350.113646581769
 30
0.0
 11
133.547211034705
 21
350.113646581769
 31
0.0
  0
LINE
  5
   76C
  8
0
  6
CONTINUOUS
 62
   253
 10
132.356147704549
 20
350.113646581769
 30
0.0
 11
132.361282418111
 21
350.113646581769
 31
0.0
  0
ARC
  5
   76D
  8
0
  6
CONTINUOUS
 62
     1
 10
103.191079576302
 20
262.438637413686
 30
0.0
 40
0.699999988078739
 50
179.999345930256
 51
270.000552154906
  0
ARC
  5
   76E
  8
0
  6
CONTINUOUS
 62
     1
 10
162.691085050491
 20
262.438643928443
 30
0.0
 40
0.699999988078891
 50
270.000021142012
 51
359.999902258766
  0
LINE
  5
   76F
  8
0
  6
CONTINUOUS
 62
     7
 10
102.49108633399
 20
263.13864425828
 30
0.0
 11
103.191086322069
 21
263.13864425828
 31
0.0
  0
LINE
  5
   770
  8
0
  6
CONTINUOUS
 62
     7
 10
102.49108633399
 20
265.238644222518
 30
0.0
 11
103.191086322069
 21
265.238644222518
 31
0.0
  0
LINE
  5
   771
  8
0
  6
CONTINUOUS
 62
     7
 10
162.69108530879
 20
263.138644087123
 30
0.0
 11
163.391085296869
 21
263.138644087123
 31
0.0
  0
LINE
  5
   772
  8
0
  6
CONTINUOUS
 62
     7
 10
162.69108530879
 20
265.23864405136
 30
0.0
 11
163.391085296869
 21
265.23864405136
 31
0.0
  0
LINE
  5
   773
  8
0
  6
CONTINUOUS
 62
     5
 10
163.391095978021
 20
268.03864383252
 30
0.0
 11
164.441074597836
 21
268.03864383252
 31
0.0
  0
LINE
  5
   774
  8
0
  6
CONTINUOUS
 62
     5
 10
163.391087967157
 20
271.188643778875
 30
0.0
 11
164.441074597836
 21
271.188643778875
 31
0.0
  0
LINE
  5
   775
  8
0
  6
CONTINUOUS
 62
     7
 10
163.391085296869
 20
265.938644217644
 30
0.0
 11
164.441074597836
 21
265.938644217644
 31
0.0
  0
ARC
  5
   776
  8
0
  6
CONTINUOUS
 62
     7
 10
143.441085421159
 20
269.788643913466
 30
0.0
 40
1.46999997496601
 50
118.437370607964
 51
270.000008397793
  0
ARC
  5
   777
  8
0
  6
CONTINUOUS
 62
     7
 10
143.441085421159
 20
269.788643913466
 30
0.0
 40
1.46999997496609
 50
270.000008397794
 51
421.563640359905
  0
POLYLINE
  5
   778
  8
0
  6
CONTINUOUS
 62
     7
 66
     1
 10
0.0
 20
0.0
 30
0.0
  0
VERTEX
  5
   779
  8
0
  6
CONTINUOUS
 10
133.499246945418
 20
263.284413746508
 30
0.0
 40
0.0
 41
0.0
  0
VERTEX
  5
   77A
  8
0
  6
CONTINUOUS
 10
133.725966390656
 20
263.792342439603
 30
0.0
 40
0.0
 41
0.0
  0
VERTEX
  5
   77B
  8
0
  6
CONTINUOUS
 10
133.527620591663
 20
264.390009125631
 30
0.0
 40
0.0
 41
0.0
  0
SEQEND
  5
   77C
  8
0
  6
CONTINUOUS
 62
     7
  0
POLYLINE
  5
   77D
  8
0
  6
CONTINUOUS
 62
     7
 66
     1
 10
0.0
 20
0.0
 30
0.0
  0
VERTEX
  5
   77E
  8
0
  6
CONTINUOUS
 10
132.382924184759
 20
264.392874344672
 30
0.0
 40
0.0
 41
0.0
  0
VERTEX
  5
   77F
  8
0
  6
CONTINUOUS
 10
132.156204739525
 20
263.884945651576
 30
0.0
 40
0.0
 41
0.0
  0
VERTEX
  5
   780
  8
0
  6
CONTINUOUS
 10
132.354550538521
 20
263.287278965548
 30
0.0
 40
0.0
 41
0.0
  0
SEQEND
  5
   781
  8
0
  6
CONTINUOUS
 62
     7
  0
ARC
  5
   782
  8
0
  6
CONTINUOUS
 62
     1
 10
132.941074569949
 20
263.838644075202
 30
0.0
 40
0.805006991754114
 50
270.000782294843
 51
449.999217045833
  0
CIRCLE
  5
   783
  8
0
  6
CONTINUOUS
 62
     7
 10
132.941085565742
 20
263.838644075202
 30
0.0
 40
0.804999986290921
  0
ARC
  5
   784
  8
0
  6
CONTINUOUS
 62
     7
 10
122.441085778787
 20
269.788644034283
 30
0.0
 40
1.46999997496598
 50
133.693872912884
 51
269.990120152526
  0
ARC
  5
   785
  8
0
  6
CONTINUOUS
 62
     7
 10
122.441085778787
 20
269.788644034283
 30
0.0
 40
1.469999974966
 50
270.007684674217
 51
406.533418368854
  0
LINE
  5
   786
  8
0
  6
CONTINUOUS
 62
     7
 10
145.541074919701
 20
261.738644110965
 30
0.0
 11
162.69108530879
 21
261.738644110965
 31
0.0
  0
LINE
  5
   787
  8
0
  6
CONTINUOUS
 62
     7
 10
124.541074609757
 20
261.738644110965
 30
0.0
 11
141.341074323654
 21
261.738644110965
 31
0.0
  0
LINE
  5
   788
  8
0
  6
CONTINUOUS
 62
     7
 10
103.191086322069
 20
261.738644110965
 30
0.0
 11
120.341075348854
 21
261.738644110965
 31
0.0
  0
LINE
  5
   789
  8
0
  6
CONTINUOUS
 62
     7
 10
101.441075670719
 20
265.938644217644
 30
0.0
 11
102.49108633399
 21
265.938644217644
 31
0.0
  0
ARC
  5
   78A
  8
0
  6
CONTINUOUS
 62
     7
 10
143.441109169004
 20
269.788646747319
 30
0.0
 40
2.97501672766187
 50
148.707007243685
 51
230.736581822985
  0
ARC
  5
   78B
  8
0
  6
CONTINUOUS
 62
     7
 10
143.441061670698
 20
269.788646747377
 30
0.0
 40
2.97501672890981
 50
59.9376964174053
 51
60.2202474207456
  0
ARC
  5
   78C
  8
0
  6
CONTINUOUS
 62
     7
 10
143.441061670513
 20
269.788646747053
 30
0.0
 40
2.97501672928317
 50
329.94688349121
 51
418.304612045571
  0
ARC
  5
   78D
  8
0
  6
CONTINUOUS
 62
     7
 10
143.441061670513
 20
269.788646747053
 30
0.0
 40
2.97501672928346
 50
299.965695540825
 51
329.806612807725
  0
LINE
  5
   78E
  8
0
  6
CONTINUOUS
 62
     7
 10
102.491086444739
 20
262.438645404577
 30
0.0
 11
102.491086444739
 21
263.138645392656
 31
0.0
  0
LINE
  5
   78F
  8
0
  6
CONTINUOUS
 62
     7
 10
102.491086444739
 20
265.238645356894
 30
0.0
 11
102.491086444739
 21
265.938645344973
 31
0.0
  0
LINE
  5
   790
  8
0
  6
CONTINUOUS
 62
     7
 10
163.391085055236
 20
265.238642686606
 30
0.0
 11
163.391085055236
 21
265.938645344973
 31
0.0
  0
LINE
  5
   791
  8
0
  6
CONTINUOUS
 62
     7
 10
163.391085039127
 20
262.438642734289
 30
0.0
 11
163.391085039127
 21
263.138642722368
 31
0.0
  0
LINE
  5
   792
  8
0
  6
CONTINUOUS
 62
     7
 10
162.69108530879
 20
265.938644388801
 30
0.0
 11
163.391085296869
 21
265.938644388801
 31
0.0
  0
LINE
  5
   793
  8
0
  6
CONTINUOUS
 62
     7
 10
102.49108633399
 20
265.938644217644
 30
0.0
 11
103.191086322069
 21
265.938644217644
 31
0.0
  0
LINE
  5
   794
  8
0
  6
CONTINUOUS
 62
     7
 10
103.541075634957
 20
265.938644217644
 30
0.0
 11
103.761678811131
 21
265.938644217644
 31
0.0
  0
LINE
  5
   795
  8
0
  6
CONTINUOUS
 62
     7
 10
103.541086062393
 20
263.138645392656
 30
0.0
 11
103.541086062393
 21
265.238645356894
 31
0.0
  0
LINE
  5
   796
  8
0
  6
CONTINUOUS
 62
     7
 10
103.191086322069
 20
263.138644087123
 30
0.0
 11
103.541086316109
 21
263.138644087123
 31
0.0
  0
LINE
  5
   797
  8
0
  6
CONTINUOUS
 62
     7
 10
103.191086322069
 20
265.23864405136
 30
0.0
 11
103.541086316109
 21
265.23864405136
 31
0.0
  0
LINE
  5
   798
  8
0
  6
CONTINUOUS
 62
     7
 10
162.341085314751
 20
263.138644087123
 30
0.0
 11
162.69108530879
 21
263.138644087123
 31
0.0
  0
LINE
  5
   799
  8
0
  6
CONTINUOUS
 62
     7
 10
162.341085061035
 20
263.138642722368
 30
0.0
 11
162.341085061035
 21
265.238642686606
 31
0.0
  0
LINE
  5
   79A
  8
0
  6
CONTINUOUS
 62
     7
 10
162.341085314751
 20
265.23864405136
 30
0.0
 11
162.69108530879
 21
265.23864405136
 31
0.0
  0
LINE
  5
   79B
  8
0
  6
CONTINUOUS
 62
     7
 10
103.191086322069
 20
265.938644217644
 30
0.0
 11
162.69108530879
 21
265.938644217644
 31
0.0
  0
LINE
  5
   79C
  8
0
  6
CONTINUOUS
 62
     7
 10
101.441075613753
 20
265.938645344973
 30
0.0
 11
101.441075613753
 21
273.778648415804
 31
0.0
  0
LINE
  5
   79D
  8
0
  6
CONTINUOUS
 62
     5
 10
164.441074182813
 20
268.038642638922
 30
0.0
 11
164.441074182813
 21
271.188642585278
 31
0.0
  0
LINE
  5
   79E
  8
0
  6
CONTINUOUS
 62
     7
 10
164.441096017106
 20
271.188642585278
 30
0.0
 11
164.441096017106
 21
273.778648415804
 31
0.0
  0
LINE
  5
   79F
  8
0
  6
CONTINUOUS
 62
     7
 10
164.441096017106
 20
265.938645344973
 30
0.0
 11
164.441096017106
 21
268.038642638922
 31
0.0
  0
ARC
  5
   7A0
  8
0
  6
CONTINUOUS
 62
     7
 10
122.441085778787
 20
269.788644034283
 30
0.0
 40
1.46999997496608
 50
45.5621574403333
 51
89.9999916022089
  0
ARC
  5
   7A1
  8
0
  6
CONTINUOUS
 62
     7
 10
122.441085778787
 20
269.788644034283
 30
0.0
 40
1.46999997496586
 50
89.9999916022045
 51
134.97280637214
  0
ARC
  5
   7A2
  8
0
  6
CONTINUOUS
 62
     7
 10
143.441085421159
 20
269.788643913466
 30
0.0
 40
1.46999997496614
 50
89.9999916022116
 51
134.972803003291
  0
ARC
  5
   7A3
  8
0
  6
CONTINUOUS
 62
     7
 10
143.441085421159
 20
269.788643913466
 30
0.0
 40
1.46999997496571
 50
45.3163544844037
 51
89.9999916022128
  0
LINE
  5
   7A4
  8
0
  6
CONTINUOUS
 62
     7
 10
101.931086343568
 20
340.698646208048
 30
0.0
 11
101.931086343568
 21
341.188646733761
 31
0.0
  0
LINE
  5
   7A5
  8
0
  6
CONTINUOUS
 62
     7
 10
164.441085279029
 20
287.638647645712
 30
0.0
 11
164.441085279029
 21
319.13864710927
 31
0.0
  0
LINE
  5
   7A6
  8
0
  6
CONTINUOUS
 62
     7
 10
164.441085279029
 20
319.13864710927
 30
0.0
 11
164.441085279029
 21
340.698646208048
 31
0.0
  0
LINE
  5
   7A7
  8
0
  6
CONTINUOUS
 62
     7
 10
164.441085279029
 20
273.778648415804
 30
0.0
 11
164.441085279029
 21
287.638647645712
 31
0.0
  0
LINE
  5
   7A8
  8
0
  6
CONTINUOUS
 62
     1
 10
125.591085940599
 20
314.715944170411
 30
0.0
 11
125.941085934639
 21
314.715944170411
 31
0.0
  0
LINE
  5
   7A9
  8
0
  6
CONTINUOUS
 62
     1
 10
139.94108569622
 20
314.715944170411
 30
0.0
 11
140.29108569026
 21
314.715944170411
 31
0.0
  0
LINE
  5
   7AA
  8
0
  6
CONTINUOUS
 62
     7
 10
125.591085940599
 20
294.479453854383
 30
0.0
 11
140.29108569026
 21
294.479453854383
 31
0.0
  0
LINE
  5
   7AB
  8
0
  6
CONTINUOUS
 62
     7
 10
125.591085940599
 20
294.134622141384
 30
0.0
 11
125.731085804701
 21
294.134622141384
 31
0.0
  0
LINE
  5
   7AC
  8
0
  6
CONTINUOUS
 62
     7
 10
140.151085826159
 20
294.134622141384
 30
0.0
 11
140.29108569026
 21
294.134622141384
 31
0.0
  0
LINE
  5
   7AD
  8
0
  6
CONTINUOUS
 62
     7
 10
101.931086877584
 20
341.188646733761
 30
0.0
 11
104.031086841822
 21
341.188646733761
 31
0.0
  0
LINE
  5
   7AE
  8
0
  6
CONTINUOUS
 62
     7
 10
161.851084789038
 20
341.188646733761
 30
0.0
 11
163.951084753275
 21
341.188646733761
 31
0.0
  0
LINE
  5
   7AF
  8
0
  6
CONTINUOUS
 62
     7
 10
104.031086841822
 20
341.188646733761
 30
0.0
 11
161.851084789038
 21
341.188646733761
 31
0.0
  0
LINE
  5
   7B0
  8
0
  6
CONTINUOUS
 62
     7
 10
101.931086877584
 20
273.288647890091
 30
0.0
 11
104.031086841822
 21
273.288647890091
 31
0.0
  0
LINE
  5
   7B1
  8
0
  6
CONTINUOUS
 62
     7
 10
161.851084789038
 20
273.288647890091
 30
0.0
 11
163.951084753275
 21
273.288647890091
 31
0.0
  0
LINE
  5
   7B2
  8
0
  6
CONTINUOUS
 62
     7
 10
104.031086841822
 20
273.288647890091
 30
0.0
 11
161.851084789038
 21
273.288647890091
 31
0.0
  0
CIRCLE
  5
   7B3
  8
0
  6
CONTINUOUS
 62
     7
 10
111.941075076883
 20
285.188643892839
 30
0.0
 40
2.27499996125698
  0
LINE
  5
   7B4
  8
0
  6
CONTINUOUS
 62
     7
 10
139.854304005193
 20
293.949828368235
 30
0.0
 11
139.932020735895
 21
293.957769137295
 31
0.0
  0
LINE
  5
   7B5
  8
0
  6
CONTINUOUS
 62
     7
 10
139.932020735895
 20
293.957769137295
 30
0.0
 11
140.151085826159
 21
293.999889593274
 31
0.0
  0
LINE
  5
   7B6
  8
0
  6
CONTINUOUS
 62
     7
 10
140.151085692644
 20
294.042759065047
 30
0.0
 11
140.151085692644
 21
294.134621980429
 31
0.0
  0
LINE
  5
   7B7
  8
0
  6
CONTINUOUS
 62
     7
 10
125.731085938215
 20
294.042759065047
 30
0.0
 11
125.731085938215
 21
294.134621980429
 31
0.0
  0
LINE
  5
   7B8
  8
0
  6
CONTINUOUS
 62
     7
 10
153.241084935605
 20
293.377700129764
 30
0.0
 11
153.241084935605
 21
293.481248225611
 31
0.0
  0
CIRCLE
  5
   7B9
  8
0
  6
CONTINUOUS
 62
     7
 10
122.441085994244
 20
269.788647949695
 30
0.0
 40
1.46999997496605
  0
CIRCLE
  5
   7BA
  8
0
  6
CONTINUOUS
 62
     7
 10
122.441085994244
 20
269.788647949695
 30
0.0
 40
3.14999994635582
  0
CIRCLE
  5
   7BB
  8
0
  6
CONTINUOUS
 62
     7
 10
143.441085636616
 20
344.688646674156
 30
0.0
 40
1.46999997496604
  0
CIRCLE
  5
   7BC
  8
0
  6
CONTINUOUS
 62
     7
 10
143.441085636616
 20
344.688646674156
 30
0.0
 40
3.14999994635583
  0
LINE
  5
   7BD
  8
0
  6
CONTINUOUS
 62
     7
 10
109.777431882512
 20
343.810634604148
 30
0.0
 11
109.796818173686
 21
345.209694638916
 31
0.0
  0
LINE
  5
   7BE
  8
0
  6
CONTINUOUS
 62
     7
 10
110.614509772004
 20
346.340369363313
 30
0.0
 11
111.941095519066
 21
346.788646638393
 31
0.0
  0
LINE
  5
   7BF
  8
0
  6
CONTINUOUS
 62
     7
 10
114.085352837286
 20
343.817598715357
 30
0.0
 11
114.104739128459
 21
345.216658750125
 31
0.0
  0
LINE
  5
   7C0
  8
0
  6
CONTINUOUS
 62
     7
 10
111.941076827049
 20
342.238646715879
 30
0.0
 11
113.267662574111
 21
342.686921320672
 31
0.0
  0
ARC
  5
   7C1
  8
0
  6
CONTINUOUS
 62
     1
 10
111.941055097992
 20
344.513646677141
 30
0.0
 40
2.27501975930494
 50
17.9997249125179
 51
89.9989819969297
  0
ARC
  5
   7C2
  8
0
  6
CONTINUOUS
 62
     1
 10
111.941117248123
 20
344.513646677141
 30
0.0
 40
2.27501975930495
 50
197.999714522155
 51
269.998981996929
  0
ARC
  5
   7C3
  8
0
  6
CONTINUOUS
 62
     7
 10
111.941086173057
 20
344.513646677142
 30
0.0
 40
2.27499996125798
 50
305.987326377816
 51
342.016110303984
  0
ARC
  5
   7C4
  8
0
  6
CONTINUOUS
 62
     7
 10
111.941086173057
 20
344.513646677141
 30
0.0
 40
2.27499996125681
 50
125.987366199816
 51
162.016120780895
  0
LINE
  5
   7C5
  8
0
  6
CONTINUOUS
 62
     7
 10
111.941076827049
 20
267.688647985458
 30
0.0
 11
113.267662574111
 21
268.136922590251
 31
0.0
  0
LINE
  5
   7C6
  8
0
  6
CONTINUOUS
 62
     7
 10
114.085352837286
 20
269.267599984936
 30
0.0
 11
114.104739128459
 21
270.666660019704
 31
0.0
  0
LINE
  5
   7C7
  8
0
  6
CONTINUOUS
 62
     7
 10
109.777431882512
 20
269.260635873727
 30
0.0
 11
109.796818173686
 21
270.659695908495
 31
0.0
  0
LINE
  5
   7C8
  8
0
  6
CONTINUOUS
 62
     7
 10
110.614509772004
 20
271.79037330318
 30
0.0
 11
111.941095519066
 21
272.238647907972
 31
0.0
  0
ARC
  5
   7C9
  8
0
  6
CONTINUOUS
 62
     1
 10
111.941117248124
 20
269.963647946711
 30
0.0
 40
2.27501975930505
 50
197.999714521938
 51
269.998981996928
  0
ARC
  5
   7CA
  8
0
  6
CONTINUOUS
 62
     1
 10
111.941055097992
 20
269.963647946711
 30
0.0
 40
2.27501975930504
 50
17.9997249127413
 51
89.9989819969282
  0
ARC
  5
   7CB
  8
0
  6
CONTINUOUS
 62
     7
 10
111.941086173058
 20
269.963647946711
 30
0.0
 40
2.27499996125689
 50
305.987326377944
 51
342.016110304214
  0
ARC
  5
   7CC
  8
0
  6
CONTINUOUS
 62
     7
 10
111.941086173058
 20
269.96364794671
 30
0.0
 40
2.27499996125722
 50
125.987326377802
 51
162.016120780669
  0
LINE
  5
   7CD
  8
0
  6
CONTINUOUS
 62
     7
 10
119.87841990782
 20
343.208150865018
 30
0.0
 11
120.955724920296
 21
342.115311451867
 31
0.0
  0
LINE
  5
   7CE
  8
0
  6
CONTINUOUS
 62
     7
 10
122.441085994244
 20
341.71364672482
 30
0.0
 11
123.921826134737
 21
342.122804280108
 31
0.0
  0
LINE
  5
   7CF
  8
0
  6
CONTINUOUS
 62
     7
 10
123.926446400619
 20
347.261981896446
 30
0.0
 11
125.003752080668
 21
346.169139813006
 31
0.0
  0
LINE
  5
   7D0
  8
0
  6
CONTINUOUS
 62
     7
 10
120.96034585375
 20
347.254489068204
 30
0.0
 11
122.441085994244
 21
347.663646623492
 31
0.0
  0
ARC
  5
   7D1
  8
0
  6
CONTINUOUS
 62
     1
 10
122.441045357619
 20
344.68864667416
 30
0.0
 40
2.97502583909141
 50
60.0052560911461
 51
89.999217375755
  0
ARC
  5
   7D2
  8
0
  6
CONTINUOUS
 62
     1
 10
122.441126630868
 20
344.688646674161
 30
0.0
 40
2.9750258390915
 50
240.005244942342
 51
269.999217375753
  0
ARC
  5
   7D3
  8
0
  6
CONTINUOUS
 62
     7
 10
122.441085994244
 20
344.688646674161
 30
0.0
 40
2.97499994933615
 50
119.989118587952
 51
210.015757359144
  0
ARC
  5
   7D4
  8
0
  6
CONTINUOUS
 62
     7
 10
122.441085994244
 20
344.688646674161
 30
0.0
 40
2.9749999493361
 50
299.989118587865
 51
390.015712596711
  0
LINE
  5
   7D5
  8
0
  6
CONTINUOUS
 62
     7
 10
141.961545123024
 20
267.224012525842
 30
0.0
 11
143.441085636616
 21
266.81364800036
 31
0.0
  0
LINE
  5
   7D6
  8
0
  6
CONTINUOUS
 62
     7
 10
143.441085636616
 20
266.81364800036
 30
0.0
 11
144.920883165431
 21
267.222210081414
 31
0.0
  0
LINE
  5
   7D7
  8
0
  6
CONTINUOUS
 62
     7
 10
140.864660223491
 20
268.301147975028
 30
0.0
 11
141.961545123024
 21
267.224012525842
 31
0.0
  0
ARC
  5
   7D8
  8
0
  6
CONTINUOUS
 62
     1
 10
143.441126273241
 20
269.788647949691
 30
0.0
 40
2.97502583909147
 50
180.0
 51
209.999609840799
  0
ARC
  5
   7D9
  8
0
  6
CONTINUOUS
 62
     1
 10
143.44112627324
 20
269.788647949691
 30
0.0
 40
2.9750258390911
 50
90.0007826242436
 51
120.000659630724
  0
ARC
  5
   7DA
  8
0
  6
CONTINUOUS
 62
     1
 10
143.441044999991
 20
269.788647949691
 30
0.0
 40
2.97502583909105
 50
29.9996034126966
 51
89.9992173757564
  0
ARC
  5
   7DB
  8
0
  6
CONTINUOUS
 62
     7
 10
143.441085636616
 20
269.788647949691
 30
0.0
 40
2.97499994933605
 50
299.967572386953
 51
418.469147554207
  0
ARC
  5
   7DC
  8
0
  6
CONTINUOUS
 62
     7
 10
143.441085636616
 20
269.788647949691
 30
0.0
 40
2.97499994933612
 50
116.277183981812
 51
202.824225932054
  0
LINE
  5
   7DD
  8
0
  6
CONTINUOUS
 62
     7
 10
132.941076249003
 20
267.688647985458
 30
0.0
 11
134.267661799251
 21
268.136922590251
 31
0.0
  0
LINE
  5
   7DE
  8
0
  6
CONTINUOUS
 62
     7
 10
131.614509831609
 20
271.79037330318
 30
0.0
 11
132.941095381857
 21
272.238647907972
 31
0.0
  0
LINE
  5
   7DF
  8
0
  6
CONTINUOUS
 62
     7
 10
135.08535314723
 20
269.267599984936
 30
0.0
 11
135.10473927151
 21
270.666660019704
 31
0.0
  0
LINE
  5
   7E0
  8
0
  6
CONTINUOUS
 62
     7
 10
130.777432359349
 20
269.260635873727
 30
0.0
 11
130.79681848363
 21
270.659695908495
 31
0.0
  0
ARC
  5
   7E1
  8
0
  6
CONTINUOUS
 62
     1
 10
132.941116890496
 20
269.963647946711
 30
0.0
 40
2.27501975930499
 50
197.999721016045
 51
269.998976445701
  0
ARC
  5
   7E2
  8
0
  6
CONTINUOUS
 62
     1
 10
132.941054740364
 20
269.963647946711
 30
0.0
 40
2.27501975930499
 50
17.9997210162727
 51
89.998976445685
  0
ARC
  5
   7E3
  8
0
  6
CONTINUOUS
 62
     7
 10
132.94108581543
 20
269.963647946711
 30
0.0
 40
2.27499996125695
 50
125.987317809743
 51
162.016115542331
  0
ARC
  5
   7E4
  8
0
  6
CONTINUOUS
 62
     7
 10
132.94108581543
 20
269.963647946711
 30
0.0
 40
2.27499996125708
 50
305.987317809884
 51
342.016115542558
  0
LINE
  5
   7E5
  8
0
  6
CONTINUOUS
 62
     7
 10
156.085353457174
 20
269.267599984936
 30
0.0
 11
156.104739748348
 21
270.666660019704
 31
0.0
  0
LINE
  5
   7E6
  8
0
  6
CONTINUOUS
 62
     7
 10
153.941076111794
 20
267.688647985458
 30
0.0
 11
155.267661858855
 21
268.136922590251
 31
0.0
  0
LINE
  5
   7E7
  8
0
  6
CONTINUOUS
 62
     7
 10
152.614509056748
 20
271.79037330318
 30
0.0
 11
153.94109480381
 21
272.238647907972
 31
0.0
  0
LINE
  5
   7E8
  8
0
  6
CONTINUOUS
 62
     7
 10
151.7774325024
 20
269.260635873727
 30
0.0
 11
151.796818793574
 21
270.659695908495
 31
0.0
  0
ARC
  5
   7E9
  8
0
  6
CONTINUOUS
 62
     1
 10
153.941116532868
 20
269.963647946711
 30
0.0
 40
2.27501975930504
 50
197.999724912512
 51
269.998981996928
  0
ARC
  5
   7EA
  8
0
  6
CONTINUOUS
 62
     1
 10
153.941054382736
 20
269.963647946711
 30
0.0
 40
2.27501975930504
 50
17.999714522165
 51
89.9989819969286
  0
ARC
  5
   7EB
  8
0
  6
CONTINUOUS
 62
     7
 10
153.941085457802
 20
269.963647946711
 30
0.0
 40
2.27499996125681
 50
305.987326377943
 51
342.016120780905
  0
ARC
  5
   7EC
  8
0
  6
CONTINUOUS
 62
     7
 10
153.941085457802
 20
269.963647946711
 30
0.0
 40
2.27499996125702
 50
125.987326377802
 51
162.016110303983
  0
LINE
  5
   7ED
  8
0
  6
CONTINUOUS
 62
     7
 10
130.777432359349
 20
343.810634604148
 30
0.0
 11
130.79681848363
 21
345.209694638916
 31
0.0
  0
LINE
  5
   7EE
  8
0
  6
CONTINUOUS
 62
     7
 10
131.614509831609
 20
346.340369363313
 30
0.0
 11
132.941095381856
 21
346.788646638393
 31
0.0
  0
LINE
  5
   7EF
  8
0
  6
CONTINUOUS
 62
     7
 10
132.941076249003
 20
342.238646715879
 30
0.0
 11
134.267661799251
 21
342.686921320672
 31
0.0
  0
LINE
  5
   7F0
  8
0
  6
CONTINUOUS
 62
     7
 10
135.08535314723
 20
343.817598715357
 30
0.0
 11
135.10473927151
 21
345.216658750125
 31
0.0
  0
ARC
  5
   7F1
  8
0
  6
CONTINUOUS
 62
     1
 10
132.941054740364
 20
344.513646677141
 30
0.0
 40
2.27501975930466
 50
17.9997210160451
 51
89.9989764457071
  0
ARC
  5
   7F2
  8
0
  6
CONTINUOUS
 62
     1
 10
132.941116890496
 20
344.513646677141
 30
0.0
 40
2.27501975930514
 50
197.99972101627
 51
269.998976445699
  0
ARC
  5
   7F3
  8
0
  6
CONTINUOUS
 62
     7
 10
132.941085815429
 20
344.513646677141
 30
0.0
 40
2.27499996125624
 50
125.987357631747
 51
162.016115542555
  0
ARC
  5
   7F4
  8
0
  6
CONTINUOUS
 62
     7
 10
132.94108581543
 20
344.513646677141
 30
0.0
 40
2.27499996125688
 50
305.987317809745
 51
342.016115542336
  0
LINE
  5
   7F5
  8
0
  6
CONTINUOUS
 62
     7
 10
152.614509056748
 20
346.340369363313
 30
0.0
 11
153.94109480381
 21
346.788646638393
 31
0.0
  0
LINE
  5
   7F6
  8
0
  6
CONTINUOUS
 62
     7
 10
151.7774325024
 20
343.810634604148
 30
0.0
 11
151.796818793574
 21
345.209694638916
 31
0.0
  0
LINE
  5
   7F7
  8
0
  6
CONTINUOUS
 62
     7
 10
153.941076111794
 20
342.238646715879
 30
0.0
 11
155.267661858855
 21
342.686921320672
 31
0.0
  0
LINE
  5
   7F8
  8
0
  6
CONTINUOUS
 62
     7
 10
156.085353457174
 20
343.817598715357
 30
0.0
 11
156.104739748348
 21
345.216658750125
 31
0.0
  0
ARC
  5
   7F9
  8
0
  6
CONTINUOUS
 62
     1
 10
153.941054382736
 20
344.513646677141
 30
0.0
 40
2.27501975930534
 50
17.9997145219502
 51
89.9989819969236
  0
ARC
  5
   7FA
  8
0
  6
CONTINUOUS
 62
     1
 10
153.941116532868
 20
344.513646677141
 30
0.0
 40
2.27501975930487
 50
197.999724912731
 51
269.998981996932
  0
ARC
  5
   7FB
  8
0
  6
CONTINUOUS
 62
     7
 10
153.941085457802
 20
344.513646677141
 30
0.0
 40
2.27499996125674
 50
305.987326377805
 51
342.016120780682
  0
ARC
  5
   7FC
  8
0
  6
CONTINUOUS
 62
     7
 10
153.941085457801
 20
344.513646677141
 30
0.0
 40
2.27499996125651
 50
125.987366199813
 51
162.016110304208
  0
LINE
  5
   7FD
  8
0
  6
CONTINUOUS
 62
     7
 10
158.421085381507
 20
318.018646861315
 30
0.0
 11
158.421085381507
 21
318.088647127152
 31
0.0
  0
LINE
  5
   7FE
  8
0
  6
CONTINUOUS
 62
     7
 10
158.421085381507
 20
288.688647627831
 30
0.0
 11
158.421085381507
 21
288.758647893667
 31
0.0
  0
LINE
  5
   7FF
  8
0
  6
CONTINUOUS
 62
     7
 10
159.611085361242
 20
318.088647127152
 30
0.0
 11
159.611085361242
 21
319.13864710927
 31
0.0
  0
LINE
  5
   800
  8
0
  6
CONTINUOUS
 62
     7
 10
159.611085361242
 20
287.638647645712
 30
0.0
 11
159.611085361242
 21
288.688647627831
 31
0.0
  0
LINE
  5
   801
  8
0
  6
CONTINUOUS
 62
     7
 10
125.731085804701
 20
293.999889593274
 30
0.0
 11
125.95014955982
 21
293.957769137295
 31
0.0
  0
LINE
  5
   802
  8
0
  6
CONTINUOUS
 62
     7
 10
125.95014955982
 20
293.957769137295
 30
0.0
 11
126.027854274226
 21
293.949829369593
 31
0.0
  0
POLYLINE
  5
   803
  8
0
  6
CONTINUOUS
 62
     7
 66
     1
 10
0.0
 20
0.0
 30
0.0
  0
VERTEX
  5
   804
  8
0
  6
CONTINUOUS
 10
139.451086383641
 20
291.278647583723
 30
0.0
 40
0.0
 41
0.0
  0
VERTEX
  5
   805
  8
0
  6
CONTINUOUS
 10
139.871085696683
 20
291.138647586107
 30
0.0
 40
0.0
 41
0.0
  0
SEQEND
  5
   806
  8
0
  6
CONTINUOUS
 62
     7
  0
POLYLINE
  5
   807
  8
0
  6
CONTINUOUS
 62
     7
 66
     1
 10
0.0
 20
0.0
 30
0.0
  0
VERTEX
  5
   808
  8
0
  6
CONTINUOUS
 10
126.431085234204
 20
291.278647583723
 30
0.0
 40
0.0
 41
0.0
  0
VERTEX
  5
   809
  8
0
  6
CONTINUOUS
 10
126.011085933253
 20
291.138647586107
 30
0.0
 40
0.0
 41
0.0
  0
SEQEND
  5
   80A
  8
0
  6
CONTINUOUS
 62
     7
  0
LINE
  5
   80B
  8
0
  6
CONTINUOUS
 62
     7
 10
139.871086097956
 20
291.138647586107
 30
0.0
 11
140.081085560322
 21
291.138647586107
 31
0.0
  0
LINE
  5
   80C
  8
0
  6
CONTINUOUS
 62
     7
 10
125.801086070538
 20
291.138647586107
 30
0.0
 11
126.011085532904
 21
291.138647586107
 31
0.0
  0
LINE
  5
   80D
  8
0
  6
CONTINUOUS
 62
     7
 10
126.011085532904
 20
291.138647586107
 30
0.0
 11
139.871086097956
 21
291.138647586107
 31
0.0
  0
POLYLINE
  5
   80E
  8
0
  6
CONTINUOUS
 62
     7
 66
     1
 10
0.0
 20
0.0
 30
0.0
  0
VERTEX
  5
   80F
  8
0
  6
CONTINUOUS
 10
139.85430411857
 20
293.949828431603
 30
0.0
 40
0.0
 41
0.0
  0
VERTEX
  5
   810
  8
0
  6
CONTINUOUS
 10
139.451085704565
 20
293.810361176244
 30
0.0
 40
0.0
 41
0.0
  0
SEQEND
  5
   811
  8
0
  6
CONTINUOUS
 62
     7
  0
POLYLINE
  5
   812
  8
0
  6
CONTINUOUS
 62
     7
 66
     1
 10
0.0
 20
0.0
 30
0.0
  0
VERTEX
  5
   813
  8
0
  6
CONTINUOUS
 10
126.027867511191
 20
293.949828431603
 30
0.0
 40
0.0
 41
0.0
  0
VERTEX
  5
   814
  8
0
  6
CONTINUOUS
 10
126.431085869103
 20
293.810361176244
 30
0.0
 40
0.0
 41
0.0
  0
SEQEND
  5
   815
  8
0
  6
CONTINUOUS
 62
     7
  0
LINE
  5
   816
  8
0
  6
CONTINUOUS
 62
     7
 10
101.441086351872
 20
340.698646742105
 30
0.0
 11
103.156086856723
 21
340.698646742105
 31
0.0
  0
LINE
  5
   817
  8
0
  6
CONTINUOUS
 62
     7
 10
162.726084774137
 20
340.698646742105
 30
0.0
 11
164.441085278988
 21
340.698646742105
 31
0.0
  0
LINE
  5
   818
  8
0
  6
CONTINUOUS
 62
     7
 10
162.376084780097
 20
340.698646742105
 30
0.0
 11
162.726084774137
 21
340.698646742105
 31
0.0
  0
LINE
  5
   819
  8
0
  6
CONTINUOUS
 62
     7
 10
103.156086856723
 20
340.698646742105
 30
0.0
 11
103.506086850762
 21
340.698646742105
 31
0.0
  0
LINE
  5
   81A
  8
0
  6
CONTINUOUS
 62
     7
 10
103.506086850762
 20
340.698646742105
 30
0.0
 11
104.416086301208
 21
340.698646742105
 31
0.0
  0
LINE
  5
   81B
  8
0
  6
CONTINUOUS
 62
     7
 10
106.026085739732
 20
340.698646742105
 30
0.0
 11
159.856085891128
 21
340.698646742105
 31
0.0
  0
LINE
  5
   81C
  8
0
  6
CONTINUOUS
 62
     7
 10
161.466085329652
 20
340.698646742105
 30
0.0
 11
162.376084780097
 21
340.698646742105
 31
0.0
  0
LINE
  5
   81D
  8
0
  6
CONTINUOUS
 62
     7
 10
160.206085885167
 20
340.698646742105
 30
0.0
 11
161.116085335612
 21
340.698646742105
 31
0.0
  0
LINE
  5
   81E
  8
0
  6
CONTINUOUS
 62
     7
 10
104.766086295247
 20
340.698646742105
 30
0.0
 11
105.676085745692
 21
340.698646742105
 31
0.0
  0
LINE
  5
   81F
  8
0
  6
CONTINUOUS
 62
     7
 10
161.116085335612
 20
340.698646742105
 30
0.0
 11
161.466085329652
 21
340.698646742105
 31
0.0
  0
LINE
  5
   820
  8
0
  6
CONTINUOUS
 62
     7
 10
159.856085891128
 20
340.698646742105
 30
0.0
 11
160.206085885167
 21
340.698646742105
 31
0.0
  0
LINE
  5
   821
  8
0
  6
CONTINUOUS
 62
     7
 10
104.416086301208
 20
340.698646742105
 30
0.0
 11
104.766086295247
 21
340.698646742105
 31
0.0
  0
LINE
  5
   822
  8
0
  6
CONTINUOUS
 62
     7
 10
105.676085745692
 20
340.698646742105
 30
0.0
 11
106.026085739732
 21
340.698646742105
 31
0.0
  0
LINE
  5
   823
  8
0
  6
CONTINUOUS
 62
     7
 10
101.441086351872
 20
273.778647881746
 30
0.0
 11
103.156086856723
 21
273.778647881746
 31
0.0
  0
LINE
  5
   824
  8
0
  6
CONTINUOUS
 62
     7
 10
162.726084774137
 20
273.778647881746
 30
0.0
 11
164.441085278988
 21
273.778647881746
 31
0.0
  0
LINE
  5
   825
  8
0
  6
CONTINUOUS
 62
     7
 10
103.156086856723
 20
273.778647881746
 30
0.0
 11
103.506086850762
 21
273.778647881746
 31
0.0
  0
LINE
  5
   826
  8
0
  6
CONTINUOUS
 62
     7
 10
162.376084780097
 20
273.778647881746
 30
0.0
 11
162.726084774137
 21
273.778647881746
 31
0.0
  0
LINE
  5
   827
  8
0
  6
CONTINUOUS
 62
     7
 10
104.766086295247
 20
273.778647881746
 30
0.0
 11
105.676085745692
 21
273.778647881746
 31
0.0
  0
LINE
  5
   828
  8
0
  6
CONTINUOUS
 62
     7
 10
103.506086850762
 20
273.778647881746
 30
0.0
 11
104.416086301208
 21
273.778647881746
 31
0.0
  0
LINE
  5
   829
  8
0
  6
CONTINUOUS
 62
     7
 10
106.026085739732
 20
273.778647881746
 30
0.0
 11
159.856085891128
 21
273.778647881746
 31
0.0
  0
LINE
  5
   82A
  8
0
  6
CONTINUOUS
 62
     7
 10
161.466085329652
 20
273.778647881746
 30
0.0
 11
162.376084780097
 21
273.778647881746
 31
0.0
  0
LINE
  5
   82B
  8
0
  6
CONTINUOUS
 62
     7
 10
160.206085885167
 20
273.778647881746
 30
0.0
 11
161.116085335612
 21
273.778647881746
 31
0.0
  0
LINE
  5
   82C
  8
0
  6
CONTINUOUS
 62
     7
 10
104.416086301208
 20
273.778647881746
 30
0.0
 11
104.766086295247
 21
273.778647881746
 31
0.0
  0
LINE
  5
   82D
  8
0
  6
CONTINUOUS
 62
     7
 10
105.676085745692
 20
273.778647881746
 30
0.0
 11
106.026085739732
 21
273.778647881746
 31
0.0
  0
LINE
  5
   82E
  8
0
  6
CONTINUOUS
 62
     7
 10
161.116085335612
 20
273.778647881746
 30
0.0
 11
161.466085329652
 21
273.778647881746
 31
0.0
  0
LINE
  5
   82F
  8
0
  6
CONTINUOUS
 62
     7
 10
159.856085891128
 20
273.778647881746
 30
0.0
 11
160.206085885167
 21
273.778647881746
 31
0.0
  0
POLYLINE
  5
   830
  8
0
  6
CONTINUOUS
 62
     7
 66
     1
 10
0.0
 20
0.0
 30
0.0
  0
VERTEX
  5
   831
  8
0
  6
CONTINUOUS
 10
154.66636871124
 20
293.550761191987
 30
0.0
 40
0.0
 41
0.0
  0
VERTEX
  5
   832
  8
0
  6
CONTINUOUS
 10
155.892074926552
 20
293.291522366881
 30
0.0
 40
0.0
 41
0.0
  0
VERTEX
  5
   833
  8
0
  6
CONTINUOUS
 10
156.328008574333
 20
293.11865453476
 30
0.0
 40
0.0
 41
0.0
  0
SEQEND
  5
   834
  8
0
  6
CONTINUOUS
 62
     7
  0
POLYLINE
  5
   835
  8
0
  6
CONTINUOUS
 62
     7
 66
     1
 10
0.0
 20
0.0
 30
0.0
  0
VERTEX
  5
   836
  8
0
  6
CONTINUOUS
 10
151.440080265328
 20
293.06308667328
 30
0.0
 40
0.0
 41
0.0
  0
VERTEX
  5
   837
  8
0
  6
CONTINUOUS
 10
152.540821773041
 20
293.442576009368
 30
0.0
 40
0.0
 41
0.0
  0
VERTEX
  5
   838
  8
0
  6
CONTINUOUS
 10
153.727962007993
 20
293.585303406741
 30
0.0
 40
0.0
 41
0.0
  0
VERTEX
  5
   839
  8
0
  6
CONTINUOUS
 10
154.525891982618
 20
293.564109010592
 30
0.0
 40
0.0
 41
0.0
  0
SEQEND
  5
   83A
  8
0
  6
CONTINUOUS
 62
     7
  0
POLYLINE
  5
   83B
  8
0
  6
CONTINUOUS
 62
     7
 66
     1
 10
0.0
 20
0.0
 30
0.0
  0
VERTEX
  5
   83C
  8
0
  6
CONTINUOUS
 10
150.44108551741
 20
291.838647574189
 30
0.0
 40
0.0
 41
0.0
  0
VERTEX
  5
   83D
  8
0
  6
CONTINUOUS
 10
150.638861279257
 20
292.418121053211
 30
0.0
 40
0.0
 41
0.0
  0
VERTEX
  5
   83E
  8
0
  6
CONTINUOUS
 10
151.361400419268
 20
293.0216088239
 30
0.0
 40
0.0
 41
0.0
  0
SEQEND
  5
   83F
  8
0
  6
CONTINUOUS
 62
     7
  0
POLYLINE
  5
   840
  8
0
  6
CONTINUOUS
 62
     7
 66
     1
 10
0.0
 20
0.0
 30
0.0
  0
VERTEX
  5
   841
  8
0
  6
CONTINUOUS
 10
156.517716233081
 20
293.023083792301
 30
0.0
 40
0.0
 41
0.0
  0
VERTEX
  5
   842
  8
0
  6
CONTINUOUS
 10
156.877429443485
 20
292.790867730154
 30
0.0
 40
0.0
 41
0.0
  0
SEQEND
  5
   843
  8
0
  6
CONTINUOUS
 62
     7
  0
POLYLINE
  5
   844
  8
0
  6
CONTINUOUS
 62
     7
 66
     1
 10
0.0
 20
0.0
 30
0.0
  0
VERTEX
  5
   845
  8
0
  6
CONTINUOUS
 10
156.954342796849
 20
292.728763816616
 30
0.0
 40
0.0
 41
0.0
  0
VERTEX
  5
   846
  8
0
  6
CONTINUOUS
 10
157.169339767567
 20
292.514739267007
 30
0.0
 40
0.0
 41
0.0
  0
SEQEND
  5
   847
  8
0
  6
CONTINUOUS
 62
     7
  0
POLYLINE
  5
   848
  8
0
  6
CONTINUOUS
 62
     7
 66
     1
 10
0.0
 20
0.0
 30
0.0
  0
VERTEX
  5
   849
  8
0
  6
CONTINUOUS
 10
157.347443812704
 20
292.241259559703
 30
0.0
 40
0.0
 41
0.0
  0
VERTEX
  5
   84A
  8
0
  6
CONTINUOUS
 10
157.441085398194
 20
291.838647574189
 30
0.0
 40
0.0
 41
0.0
  0
SEQEND
  5
   84B
  8
0
  6
CONTINUOUS
 62
     7
  0
POLYLINE
  5
   84C
  8
0
  6
CONTINUOUS
 62
     7
 66
     1
 10
0.0
 20
0.0
 30
0.0
  0
VERTEX
  5
   84D
  8
0
  6
CONTINUOUS
 10
153.215798159565
 20
290.126534383945
 30
0.0
 40
0.0
 41
0.0
  0
VERTEX
  5
   84E
  8
0
  6
CONTINUOUS
 10
151.990098340355
 20
290.385771993177
 30
0.0
 40
0.0
 41
0.0
  0
VERTEX
  5
   84F
  8
0
  6
CONTINUOUS
 10
151.55416610043
 20
290.558638860851
 30
0.0
 40
0.0
 41
0.0
  0
SEQEND
  5
   850
  8
0
  6
CONTINUOUS
 62
     7
  0
POLYLINE
  5
   851
  8
0
  6
CONTINUOUS
 62
     7
 66
     1
 10
0.0
 20
0.0
 30
0.0
  0
VERTEX
  5
   852
  8
0
  6
CONTINUOUS
 10
151.409606880497
 20
290.630097507252
 30
0.0
 40
0.0
 41
0.0
  0
VERTEX
  5
   853
  8
0
  6
CONTINUOUS
 10
151.029866458331
 20
290.867324730498
 30
0.0
 40
0.0
 41
0.0
  0
SEQEND
  5
   854
  8
0
  6
CONTINUOUS
 62
     7
  0
POLYLINE
  5
   855
  8
0
  6
CONTINUOUS
 62
     7
 66
     1
 10
0.0
 20
0.0
 30
0.0
  0
VERTEX
  5
   856
  8
0
  6
CONTINUOUS
 10
150.534724526785
 20
291.436041035087
 30
0.0
 40
0.0
 41
0.0
  0
VERTEX
  5
   857
  8
0
  6
CONTINUOUS
 10
150.44108551741
 20
291.838647574184
 30
0.0
 40
0.0
 41
0.0
  0
SEQEND
  5
   858
  8
0
  6
CONTINUOUS
 62
     7
  0
POLYLINE
  5
   859
  8
0
  6
CONTINUOUS
 62
     7
 66
     1
 10
0.0
 20
0.0
 30
0.0
  0
VERTEX
  5
   85A
  8
0
  6
CONTINUOUS
 10
150.927350119072
 20
290.948935954985
 30
0.0
 40
0.0
 41
0.0
  0
VERTEX
  5
   85B
  8
0
  6
CONTINUOUS
 10
150.709168592678
 20
291.166938231764
 30
0.0
 40
0.0
 41
0.0
  0
SEQEND
  5
   85C
  8
0
  6
CONTINUOUS
 62
     7
  0
POLYLINE
  5
   85D
  8
0
  6
CONTINUOUS
 62
     7
 66
     1
 10
0.0
 20
0.0
 30
0.0
  0
VERTEX
  5
   85E
  8
0
  6
CONTINUOUS
 10
157.441085398194
 20
291.838647574184
 30
0.0
 40
0.0
 41
0.0
  0
VERTEX
  5
   85F
  8
0
  6
CONTINUOUS
 10
157.281724287909
 20
291.317098691096
 30
0.0
 40
0.0
 41
0.0
  0
VERTEX
  5
   860
  8
0
  6
CONTINUOUS
 10
156.90841538618
 20
290.910542916482
 30
0.0
 40
0.0
 41
0.0
  0
VERTEX
  5
   861
  8
0
  6
CONTINUOUS
 10
155.897809389848
 20
290.38789986533
 30
0.0
 40
0.0
 41
0.0
  0
VERTEX
  5
   862
  8
0
  6
CONTINUOUS
 10
154.558172216915
 20
290.116057413186
 30
0.0
 40
0.0
 41
0.0
  0
VERTEX
  5
   863
  8
0
  6
CONTINUOUS
 10
153.36946539368
 20
290.1120858501
 30
0.0
 40
0.0
 41
0.0
  0
SEQEND
  5
   864
  8
0
  6
CONTINUOUS
 62
     7
  0
LINE
  5
   865
  8
0
  6
CONTINUOUS
 62
     7
 10
156.041085422039
 20
318.018646861315
 30
0.0
 11
156.041085422039
 21
318.088647127152
 31
0.0
  0
LINE
  5
   866
  8
0
  6
CONTINUOUS
 62
     7
 10
151.841085493565
 20
318.018646861315
 30
0.0
 11
151.841085493565
 21
318.088647127152
 31
0.0
  0
LINE
  5
   867
  8
0
  6
CONTINUOUS
 62
     7
 10
114.041086137295
 20
318.018646861315
 30
0.0
 11
114.041086137295
 21
318.088647127152
 31
0.0
  0
LINE
  5
   868
  8
0
  6
CONTINUOUS
 62
     7
 10
109.84108620882
 20
318.018646861315
 30
0.0
 11
109.84108620882
 21
318.088647127152
 31
0.0
  0
LINE
  5
   869
  8
0
  6
CONTINUOUS
 62
     7
 10
109.84108620882
 20
288.688647627831
 30
0.0
 11
109.84108620882
 21
288.758647893667
 31
0.0
  0
LINE
  5
   86A
  8
0
  6
CONTINUOUS
 62
     7
 10
114.041086137295
 20
288.688647627831
 30
0.0
 11
114.041086137295
 21
288.758647893667
 31
0.0
  0
LINE
  5
   86B
  8
0
  6
CONTINUOUS
 62
     7
 10
156.741085410118
 20
288.688647627831
 30
0.0
 11
156.741085410118
 21
288.758647893667
 31
0.0
  0
LINE
  5
   86C
  8
0
  6
CONTINUOUS
 62
     7
 10
151.141085505486
 20
288.688647627831
 30
0.0
 11
151.141085505486
 21
288.758647893667
 31
0.0
  0
LINE
  5
   86D
  8
0
  6
CONTINUOUS
 62
     7
 10
107.461086249352
 20
288.688647627831
 30
0.0
 11
107.461086249352
 21
288.758647893667
 31
0.0
  0
LINE
  5
   86E
  8
0
  6
CONTINUOUS
 62
     7
 10
107.461086249352
 20
318.018646861315
 30
0.0
 11
107.461086249352
 21
318.088647127152
 31
0.0
  0
LINE
  5
   86F
  8
0
  6
CONTINUOUS
 62
     7
 10
106.271086269621
 20
318.088647127152
 30
0.0
 11
106.271086269621
 21
319.13864710927
 31
0.0
  0
LINE
  5
   870
  8
0
  6
CONTINUOUS
 62
     7
 10
123.491085976362
 20
318.088647127151
 30
0.0
 11
142.391085654497
 21
318.088647127151
 31
0.0
  0
LINE
  5
   871
  8
0
  6
CONTINUOUS
 62
     7
 10
156.041085422039
 20
318.088647127151
 30
0.0
 11
157.51108432889
 21
318.088647127151
 31
0.0
  0
LINE
  5
   872
  8
0
  6
CONTINUOUS
 62
     7
 10
142.391085654497
 20
318.088647127151
 30
0.0
 11
151.841085493565
 21
318.088647127151
 31
0.0
  0
LINE
  5
   873
  8
0
  6
CONTINUOUS
 62
     7
 10
151.841085493565
 20
318.088647127152
 30
0.0
 11
156.041085422039
 21
318.088647127152
 31
0.0
  0
LINE
  5
   874
  8
0
  6
CONTINUOUS
 62
     7
 10
157.51108432889
 20
318.088647127151
 30
0.0
 11
159.611084293127
 21
318.088647127151
 31
0.0
  0
LINE
  5
   875
  8
0
  6
CONTINUOUS
 62
     7
 10
106.271087337732
 20
318.088647127151
 30
0.0
 11
108.37108730197
 21
318.088647127151
 31
0.0
  0
LINE
  5
   876
  8
0
  6
CONTINUOUS
 62
     7
 10
108.37108730197
 20
318.088647127151
 30
0.0
 11
109.84108620882
 21
318.088647127151
 31
0.0
  0
LINE
  5
   877
  8
0
  6
CONTINUOUS
 62
     7
 10
114.041086137295
 20
318.088647127151
 30
0.0
 11
123.491085976362
 21
318.088647127151
 31
0.0
  0
LINE
  5
   878
  8
0
  6
CONTINUOUS
 62
     7
 10
109.84108620882
 20
318.088647127152
 30
0.0
 11
114.041086137295
 21
318.088647127152
 31
0.0
  0
LINE
  5
   879
  8
0
  6
CONTINUOUS
 62
     7
 10
123.491085976362
 20
319.13864710927
 30
0.0
 11
142.391085654497
 21
319.13864710927
 31
0.0
  0
LINE
  5
   87A
  8
0
  6
CONTINUOUS
 62
     7
 10
142.391085654497
 20
319.13864710927
 30
0.0
 11
157.51108432889
 21
319.13864710927
 31
0.0
  0
LINE
  5
   87B
  8
0
  6
CONTINUOUS
 62
     7
 10
157.51108432889
 20
319.13864710927
 30
0.0
 11
159.611084293127
 21
319.13864710927
 31
0.0
  0
LINE
  5
   87C
  8
0
  6
CONTINUOUS
 62
     7
 10
106.271087337732
 20
319.13864710927
 30
0.0
 11
108.37108730197
 21
319.13864710927
 31
0.0
  0
LINE
  5
   87D
  8
0
  6
CONTINUOUS
 62
     7
 10
108.37108730197
 20
319.13864710927
 30
0.0
 11
123.491085976362
 21
319.13864710927
 31
0.0
  0
LINE
  5
   87E
  8
0
  6
CONTINUOUS
 62
     7
 10
106.271086269621
 20
287.638647645712
 30
0.0
 11
106.271086269621
 21
288.688647627831
 31
0.0
  0
LINE
  5
   87F
  8
0
  6
CONTINUOUS
 62
     7
 10
123.491085976362
 20
287.638647645712
 30
0.0
 11
142.391085654497
 21
287.638647645712
 31
0.0
  0
LINE
  5
   880
  8
0
  6
CONTINUOUS
 62
     7
 10
142.391085654497
 20
287.638647645712
 30
0.0
 11
157.51108432889
 21
287.638647645712
 31
0.0
  0
LINE
  5
   881
  8
0
  6
CONTINUOUS
 62
     7
 10
157.51108432889
 20
287.638647645712
 30
0.0
 11
159.611084293127
 21
287.638647645712
 31
0.0
  0
LINE
  5
   882
  8
0
  6
CONTINUOUS
 62
     7
 10
106.271087337732
 20
287.638647645712
 30
0.0
 11
108.37108730197
 21
287.638647645712
 31
0.0
  0
LINE
  5
   883
  8
0
  6
CONTINUOUS
 62
     7
 10
108.37108730197
 20
287.638647645712
 30
0.0
 11
123.491085976362
 21
287.638647645712
 31
0.0
  0
LINE
  5
   884
  8
0
  6
CONTINUOUS
 62
     7
 10
123.491085976362
 20
288.68864762783
 30
0.0
 11
142.391085654497
 21
288.68864762783
 31
0.0
  0
LINE
  5
   885
  8
0
  6
CONTINUOUS
 62
     7
 10
142.391085654497
 20
288.68864762783
 30
0.0
 11
157.51108432889
 21
288.68864762783
 31
0.0
  0
LINE
  5
   886
  8
0
  6
CONTINUOUS
 62
     7
 10
157.51108432889
 20
288.688647627831
 30
0.0
 11
159.611084293127
 21
288.688647627831
 31
0.0
  0
LINE
  5
   887
  8
0
  6
CONTINUOUS
 62
     7
 10
106.271087337732
 20
288.688647627831
 30
0.0
 11
108.37108730197
 21
288.688647627831
 31
0.0
  0
LINE
  5
   888
  8
0
  6
CONTINUOUS
 62
     7
 10
108.37108730197
 20
288.68864762783
 30
0.0
 11
123.491085976362
 21
288.68864762783
 31
0.0
  0
LINE
  5
   889
  8
0
  6
CONTINUOUS
 62
     7
 10
103.191086322069
 20
265.938648015261
 30
0.0
 11
162.69108530879
 21
265.938648015261
 31
0.0
  0
LINE
  5
   88A
  8
0
  6
CONTINUOUS
 62
     7
 10
102.49108633399
 20
265.938648015261
 30
0.0
 11
103.191086322069
 21
265.938648015261
 31
0.0
  0
LINE
  5
   88B
  8
0
  6
CONTINUOUS
 62
     7
 10
162.69108530879
 20
265.938648015261
 30
0.0
 11
163.391085296869
 21
265.938648015261
 31
0.0
  0
LINE
  5
   88C
  8
0
  6
CONTINUOUS
 62
     7
 10
103.191086322069
 20
348.538646608596
 30
0.0
 11
162.69108530879
 21
348.538646608596
 31
0.0
  0
LINE
  5
   88D
  8
0
  6
CONTINUOUS
 62
     7
 10
102.49108633399
 20
348.538646608596
 30
0.0
 11
103.191086322069
 21
348.538646608596
 31
0.0
  0
LINE
  5
   88E
  8
0
  6
CONTINUOUS
 62
     7
 10
162.69108530879
 20
348.538646608591
 30
0.0
 11
163.391085296869
 21
348.538646608591
 31
0.0
  0
LINE
  5
   88F
  8
0
  6
CONTINUOUS
 62
     7
 10
101.441086351872
 20
319.13864710927
 30
0.0
 11
103.156086856723
 21
319.13864710927
 31
0.0
  0
LINE
  5
   890
  8
0
  6
CONTINUOUS
 62
     7
 10
162.726084774137
 20
319.13864710927
 30
0.0
 11
164.441085278988
 21
319.13864710927
 31
0.0
  0
LINE
  5
   891
  8
0
  6
CONTINUOUS
 62
     7
 10
103.156086856723
 20
319.13864710927
 30
0.0
 11
103.506086850762
 21
319.13864710927
 31
0.0
  0
LINE
  5
   892
  8
0
  6
CONTINUOUS
 62
     7
 10
162.376084780097
 20
319.13864710927
 30
0.0
 11
162.726084774137
 21
319.13864710927
 31
0.0
  0
LINE
  5
   893
  8
0
  6
CONTINUOUS
 62
     7
 10
161.116085335612
 20
319.13864710927
 30
0.0
 11
161.466085329652
 21
319.13864710927
 31
0.0
  0
LINE
  5
   894
  8
0
  6
CONTINUOUS
 62
     7
 10
159.856085891128
 20
319.13864710927
 30
0.0
 11
160.206085885167
 21
319.13864710927
 31
0.0
  0
LINE
  5
   895
  8
0
  6
CONTINUOUS
 62
     7
 10
104.416086301208
 20
319.13864710927
 30
0.0
 11
104.766086295247
 21
319.13864710927
 31
0.0
  0
LINE
  5
   896
  8
0
  6
CONTINUOUS
 62
     7
 10
105.676085745692
 20
319.13864710927
 30
0.0
 11
106.026085739732
 21
319.13864710927
 31
0.0
  0
LINE
  5
   897
  8
0
  6
CONTINUOUS
 62
     7
 10
101.441086351872
 20
287.638647645712
 30
0.0
 11
103.156086856723
 21
287.638647645712
 31
0.0
  0
LINE
  5
   898
  8
0
  6
CONTINUOUS
 62
     7
 10
162.726084774137
 20
287.638647645712
 30
0.0
 11
164.441085278988
 21
287.638647645712
 31
0.0
  0
LINE
  5
   899
  8
0
  6
CONTINUOUS
 62
     7
 10
103.156086856723
 20
287.638647645712
 30
0.0
 11
103.506086850762
 21
287.638647645712
 31
0.0
  0
LINE
  5
   89A
  8
0
  6
CONTINUOUS
 62
     7
 10
162.376084780097
 20
287.638647645712
 30
0.0
 11
162.726084774137
 21
287.638647645712
 31
0.0
  0
LINE
  5
   89B
  8
0
  6
CONTINUOUS
 62
     7
 10
161.116085335612
 20
287.638647645712
 30
0.0
 11
161.466085329652
 21
287.638647645712
 31
0.0
  0
LINE
  5
   89C
  8
0
  6
CONTINUOUS
 62
     7
 10
159.856085891128
 20
287.638647645712
 30
0.0
 11
160.206085885167
 21
287.638647645712
 31
0.0
  0
LINE
  5
   89D
  8
0
  6
CONTINUOUS
 62
     7
 10
104.416086301208
 20
287.638647645712
 30
0.0
 11
104.766086295247
 21
287.638647645712
 31
0.0
  0
LINE
  5
   89E
  8
0
  6
CONTINUOUS
 62
     7
 10
105.676085745692
 20
287.638647645712
 30
0.0
 11
106.026085739732
 21
287.638647645712
 31
0.0
  0
LINE
  5
   89F
  8
0
  6
CONTINUOUS
 62
     7
 10
140.151085692644
 20
293.999889593274
 30
0.0
 11
140.151085692644
 21
294.042759065047
 31
0.0
  0
LINE
  5
   8A0
  8
0
  6
CONTINUOUS
 62
     7
 10
140.151085692644
 20
291.208647851944
 30
0.0
 11
140.151085692644
 21
293.999889593274
 31
0.0
  0
LINE
  5
   8A1
  8
0
  6
CONTINUOUS
 62
     7
 10
125.731085938215
 20
293.999889593274
 30
0.0
 11
125.731085938215
 21
294.042759065047
 31
0.0
  0
LINE
  5
   8A2
  8
0
  6
CONTINUOUS
 62
     7
 10
125.731085938215
 20
291.208647851944
 30
0.0
 11
125.731085938215
 21
293.999889593274
 31
0.0
  0
LINE
  5
   8A3
  8
0
  6
CONTINUOUS
 62
     7
 10
163.951085287374
 20
273.288647890091
 30
0.0
 11
163.951085287374
 21
273.778648415804
 31
0.0
  0
LINE
  5
   8A4
  8
0
  6
CONTINUOUS
 62
     7
 10
163.951085287374
 20
340.698646208048
 30
0.0
 11
163.951085287374
 21
341.188646733761
 31
0.0
  0
LINE
  5
   8A5
  8
0
  6
CONTINUOUS
 62
     7
 10
163.39108529691
 20
265.938648015261
 30
0.0
 11
163.39108529691
 21
273.288647890091
 31
0.0
  0
LINE
  5
   8A6
  8
0
  6
CONTINUOUS
 62
     7
 10
102.491086334031
 20
265.938648015261
 30
0.0
 11
102.491086334031
 21
273.288647890091
 31
0.0
  0
LINE
  5
   8A7
  8
0
  6
CONTINUOUS
 62
     7
 10
163.39108529691
 20
341.188646733761
 30
0.0
 11
163.39108529691
 21
348.538646608591
 31
0.0
  0
LINE
  5
   8A8
  8
0
  6
CONTINUOUS
 62
     7
 10
102.491086334031
 20
341.188646733761
 30
0.0
 11
102.491086334031
 21
348.538646608591
 31
0.0
  0
LINE
  5
   8A9
  8
0
  6
CONTINUOUS
 62
     7
 10
104.766086295247
 20
319.13864710927
 30
0.0
 11
105.676085745692
 21
319.13864710927
 31
0.0
  0
LINE
  5
   8AA
  8
0
  6
CONTINUOUS
 62
     7
 10
159.611084293127
 20
319.13864710927
 30
0.0
 11
159.856085891128
 21
319.13864710927
 31
0.0
  0
LINE
  5
   8AB
  8
0
  6
CONTINUOUS
 62
     7
 10
160.206085885167
 20
319.13864710927
 30
0.0
 11
161.116085335612
 21
319.13864710927
 31
0.0
  0
LINE
  5
   8AC
  8
0
  6
CONTINUOUS
 62
     7
 10
106.026085739732
 20
319.13864710927
 30
0.0
 11
106.271087337732
 21
319.13864710927
 31
0.0
  0
LINE
  5
   8AD
  8
0
  6
CONTINUOUS
 62
     7
 10
101.441086351913
 20
287.638647645712
 30
0.0
 11
101.441086351913
 21
319.13864710927
 31
0.0
  0
LINE
  5
   8AE
  8
0
  6
CONTINUOUS
 62
     7
 10
101.441086351913
 20
273.778648415804
 30
0.0
 11
101.441086351913
 21
287.638647645712
 31
0.0
  0
LINE
  5
   8AF
  8
0
  6
CONTINUOUS
 62
     7
 10
101.441086351913
 20
319.13864710927
 30
0.0
 11
101.441086351913
 21
340.698646208048
 31
0.0
  0
LINE
  5
   8B0
  8
0
  6
CONTINUOUS
 62
     7
 10
104.766086295247
 20
287.638647645712
 30
0.0
 11
105.676085745692
 21
287.638647645712
 31
0.0
  0
LINE
  5
   8B1
  8
0
  6
CONTINUOUS
 62
     7
 10
106.026085739732
 20
287.638647645712
 30
0.0
 11
106.271087337732
 21
287.638647645712
 31
0.0
  0
LINE
  5
   8B2
  8
0
  6
CONTINUOUS
 62
     7
 10
159.611084293127
 20
287.638647645712
 30
0.0
 11
159.856085891128
 21
287.638647645712
 31
0.0
  0
LINE
  5
   8B3
  8
0
  6
CONTINUOUS
 62
     7
 10
160.206085885167
 20
287.638647645712
 30
0.0
 11
161.116085335612
 21
287.638647645712
 31
0.0
  0
LINE
  5
   8B4
  8
0
  6
CONTINUOUS
 62
     7
 10
103.506086850762
 20
319.13864710927
 30
0.0
 11
104.416086301208
 21
319.13864710927
 31
0.0
  0
LINE
  5
   8B5
  8
0
  6
CONTINUOUS
 62
     7
 10
103.506086850762
 20
287.638647645712
 30
0.0
 11
104.416086301208
 21
287.638647645712
 31
0.0
  0
LINE
  5
   8B6
  8
0
  6
CONTINUOUS
 62
     7
 10
161.466085329652
 20
319.13864710927
 30
0.0
 11
162.376084780097
 21
319.13864710927
 31
0.0
  0
LINE
  5
   8B7
  8
0
  6
CONTINUOUS
 62
     7
 10
161.466085329652
 20
287.638647645712
 30
0.0
 11
162.376084780097
 21
287.638647645712
 31
0.0
  0
LINE
  5
   8B8
  8
0
  6
CONTINUOUS
 62
     7
 10
101.931086343568
 20
273.288647890091
 30
0.0
 11
101.931086343568
 21
273.778648415804
 31
0.0
  0
ARC
  5
   8B9
  8
0
  6
CONTINUOUS
 62
     1
 10
153.941085457802
 20
344.513646677137
 30
0.0
 40
2.09999996423784
 50
270.0
 51
300.8323276077
  0
ARC
  5
   8BA
  8
0
  6
CONTINUOUS
 62
     1
 10
132.94108581543
 20
344.513646677136
 30
0.0
 40
2.09999996423682
 50
269.999999999967
 51
300.832396299288
  0
LINE
  5
   8BB
  8
0
  6
CONTINUOUS
 62
     3
 10
155.05507990753
 20
291.068647640695
 30
0.0
 11
155.236084714781
 21
291.249652447945
 31
0.0
  0
LINE
  5
   8BC
  8
0
  6
CONTINUOUS
 62
     3
 10
155.236084901689
 20
291.249652795093
 30
0.0
 11
155.236084901689
 21
291.7276423652
 31
0.0
  0
LINE
  5
   8BD
  8
0
  6
CONTINUOUS
 62
     3
 10
155.055079907533
 20
291.908647519602
 30
0.0
 11
155.236084714784
 21
291.727642712351
 31
0.0
  0
LINE
  5
   8BE
  8
0
  6
CONTINUOUS
 62
     3
 10
154.250080508692
 20
291.908647572997
 30
0.0
 11
155.055080227954
 21
291.908647572997
 31
0.0
  0
LINE
  5
   8BF
  8
0
  6
CONTINUOUS
 62
     3
 10
154.151084800019
 20
292.007642640826
 30
0.0
 11
154.250080054757
 21
291.908647386088
 31
0.0
  0
LINE
  5
   8C0
  8
0
  6
CONTINUOUS
 62
     3
 10
154.151084920167
 20
292.007642760975
 30
0.0
 11
154.151084920167
 21
292.369652375477
 31
0.0
  0
LINE
  5
   8C1
  8
0
  6
CONTINUOUS
 62
     3
 10
154.151084800016
 20
292.369652495629
 30
0.0
 11
154.250080054754
 21
292.468647750367
 31
0.0
  0
LINE
  5
   8C2
  8
0
  6
CONTINUOUS
 62
     3
 10
154.250080508692
 20
292.468647563461
 30
0.0
 11
154.997089582579
 21
292.468647563461
 31
0.0
  0
LINE
  5
   8C3
  8
0
  6
CONTINUOUS
 62
     3
 10
154.997089903002
 20
292.468647616852
 30
0.0
 11
155.13709010089
 21
292.328647418964
 31
0.0
  0
LINE
  5
   8C4
  8
0
  6
CONTINUOUS
 62
     3
 10
155.137089967372
 20
292.328647579208
 30
0.0
 11
155.236084554538
 21
292.427642166374
 31
0.0
  0
LINE
  5
   8C5
  8
0
  6
CONTINUOUS
 62
     3
 10
155.055079907533
 20
292.608647507681
 30
0.0
 11
155.236084714784
 21
292.427642700431
 31
0.0
  0
LINE
  5
   8C6
  8
0
  6
CONTINUOUS
 62
     3
 10
154.192089863317
 20
292.608647561076
 30
0.0
 11
155.055080227954
 21
292.608647561076
 31
0.0
  0
LINE
  5
   8C7
  8
0
  6
CONTINUOUS
 62
     3
 10
154.0110845754
 20
292.427642166374
 30
0.0
 11
154.192090050223
 21
292.608647641197
 31
0.0
  0
LINE
  5
   8C8
  8
0
  6
CONTINUOUS
 62
     3
 10
154.011084922551
 20
291.949652783172
 30
0.0
 11
154.011084922551
 21
292.427642353279
 31
0.0
  0
LINE
  5
   8C9
  8
0
  6
CONTINUOUS
 62
     3
 10
154.011084575403
 20
291.949652970081
 30
0.0
 11
154.192090050226
 21
291.768647495258
 31
0.0
  0
LINE
  5
   8CA
  8
0
  6
CONTINUOUS
 62
     3
 10
154.192089863317
 20
291.768647575382
 30
0.0
 11
154.997089582579
 21
291.768647575382
 31
0.0
  0
LINE
  5
   8CB
  8
0
  6
CONTINUOUS
 62
     3
 10
154.997089903002
 20
291.768647628773
 30
0.0
 11
155.09608515774
 21
291.669652374035
 31
0.0
  0
LINE
  5
   8CC
  8
0
  6
CONTINUOUS
 62
     3
 10
155.096084904074
 20
291.307642772896
 30
0.0
 11
155.096084904074
 21
291.669652387398
 31
0.0
  0
LINE
  5
   8CD
  8
0
  6
CONTINUOUS
 62
     3
 10
154.997089902999
 20
291.208647531524
 30
0.0
 11
155.096085157737
 21
291.307642786262
 31
0.0
  0
LINE
  5
   8CE
  8
0
  6
CONTINUOUS
 62
     3
 10
154.250080508692
 20
291.208647584918
 30
0.0
 11
154.997089582579
 21
291.208647584918
 31
0.0
  0
LINE
  5
   8CF
  8
0
  6
CONTINUOUS
 62
     3
 10
154.110079856869
 20
291.348647595896
 30
0.0
 11
154.250080054757
 21
291.208647398009
 31
0.0
  0
LINE
  5
   8D0
  8
0
  6
CONTINUOUS
 62
     3
 10
154.011084735643
 20
291.249652447945
 30
0.0
 11
154.110079990381
 21
291.348647702683
 31
0.0
  0
LINE
  5
   8D1
  8
0
  6
CONTINUOUS
 62
     3
 10
154.011084575403
 20
291.249652982002
 30
0.0
 11
154.192090050226
 21
291.068647507179
 31
0.0
  0
LINE
  5
   8D2
  8
0
  6
CONTINUOUS
 62
     3
 10
154.192089863317
 20
291.068647587303
 30
0.0
 11
155.055080227954
 21
291.068647587303
 31
0.0
  0
LINE
  5
   8D3
  8
0
  6
CONTINUOUS
 62
     3
 10
156.111084886788
 20
291.068647320271
 30
0.0
 11
156.111084886788
 21
292.468647296429
 31
0.0
  0
LINE
  5
   8D4
  8
0
  6
CONTINUOUS
 62
     3
 10
155.971083821058
 20
291.068647587303
 30
0.0
 11
156.111084352732
 21
291.068647587303
 31
0.0
  0
LINE
  5
   8D5
  8
0
  6
CONTINUOUS
 62
     3
 10
155.971084889173
 20
291.068647320271
 30
0.0
 11
155.971084889173
 21
292.468647296429
 31
0.0
  0
LINE
  5
   8D6
  8
0
  6
CONTINUOUS
 62
     3
 10
155.446083829999
 20
292.468647563461
 30
0.0
 11
155.971083821058
 21
292.468647563461
 31
0.0
  0
LINE
  5
   8D7
  8
0
  6
CONTINUOUS
 62
     3
 10
155.446084898113
 20
292.468647296429
 30
0.0
 11
155.446084898113
 21
292.608647828102
 31
0.0
  0
LINE
  5
   8D8
  8
0
  6
CONTINUOUS
 62
     3
 10
155.446083829999
 20
292.608647561076
 30
0.0
 11
156.636084343791
 21
292.608647561076
 31
0.0
  0
LINE
  5
   8D9
  8
0
  6
CONTINUOUS
 62
     3
 10
156.636084877848
 20
292.468647296429
 30
0.0
 11
156.636084877848
 21
292.608647828102
 31
0.0
  0
LINE
  5
   8DA
  8
0
  6
CONTINUOUS
 62
     3
 10
156.111084352732
 20
292.468647563461
 30
0.0
 11
156.636084343791
 21
292.468647563461
 31
0.0
  0
LINE
  5
   8DB
  8
0
  6
CONTINUOUS
 62
     3
 10
151.911084958314
 20
291.068647320271
 30
0.0
 11
151.911084958314
 21
292.468647296429
 31
0.0
  0
LINE
  5
   8DC
  8
0
  6
CONTINUOUS
 62
     3
 10
151.911084424257
 20
292.468647563461
 30
0.0
 11
152.436084415317
 21
292.468647563461
 31
0.0
  0
LINE
  5
   8DD
  8
0
  6
CONTINUOUS
 62
     3
 10
152.436084949373
 20
292.468647296429
 30
0.0
 11
152.436084949373
 21
292.608647828102
 31
0.0
  0
LINE
  5
   8DE
  8
0
  6
CONTINUOUS
 62
     3
 10
151.246085236669
 20
292.608647561076
 30
0.0
 11
152.436084415317
 21
292.608647561076
 31
0.0
  0
LINE
  5
   8DF
  8
0
  6
CONTINUOUS
 62
     3
 10
151.246084969639
 20
292.468647296429
 30
0.0
 11
151.246084969639
 21
292.608647828102
 31
0.0
  0
LINE
  5
   8E0
  8
0
  6
CONTINUOUS
 62
     3
 10
151.246085236669
 20
292.468647563461
 30
0.0
 11
151.771085227728
 21
292.468647563461
 31
0.0
  0
LINE
  5
   8E1
  8
0
  6
CONTINUOUS
 62
     3
 10
151.771084960698
 20
291.068647320271
 30
0.0
 11
151.771084960698
 21
292.468647296429
 31
0.0
  0
LINE
  5
   8E2
  8
0
  6
CONTINUOUS
 62
     3
 10
151.771085227728
 20
291.068647587303
 30
0.0
 11
151.911084424257
 21
291.068647587303
 31
0.0
  0
LINE
  5
   8E3
  8
0
  6
CONTINUOUS
 62
     3
 10
153.591084929704
 20
291.76864730835
 30
0.0
 11
153.591084929704
 21
291.908647840023
 31
0.0
  0
LINE
  5
   8E4
  8
0
  6
CONTINUOUS
 62
     3
 10
152.786084409356
 20
291.908647572997
 30
0.0
 11
153.591085463762
 21
291.908647572997
 31
0.0
  0
LINE
  5
   8E5
  8
0
  6
CONTINUOUS
 62
     3
 10
152.786084943413
 20
291.908647840023
 30
0.0
 11
152.786084943413
 21
292.468647296429
 31
0.0
  0
LINE
  5
   8E6
  8
0
  6
CONTINUOUS
 62
     3
 10
152.786084409356
 20
292.468647563461
 30
0.0
 11
153.836084391475
 21
292.468647563461
 31
0.0
  0
LINE
  5
   8E7
  8
0
  6
CONTINUOUS
 62
     3
 10
153.836084925531
 20
292.468647296429
 30
0.0
 11
153.836084925531
 21
292.608647828102
 31
0.0
  0
LINE
  5
   8E8
  8
0
  6
CONTINUOUS
 62
     3
 10
152.646085212827
 20
292.608647561076
 30
0.0
 11
153.836084391475
 21
292.608647561076
 31
0.0
  0
LINE
  5
   8E9
  8
0
  6
CONTINUOUS
 62
     3
 10
152.646084945797
 20
291.068647320271
 30
0.0
 11
152.646084945797
 21
292.608647828102
 31
0.0
  0
LINE
  5
   8EA
  8
0
  6
CONTINUOUS
 62
     3
 10
152.646085212827
 20
291.068647587303
 30
0.0
 11
153.836084391475
 21
291.068647587303
 31
0.0
  0
LINE
  5
   8EB
  8
0
  6
CONTINUOUS
 62
     3
 10
153.836084925531
 20
291.068647320271
 30
0.0
 11
153.836084925531
 21
291.208647851944
 31
0.0
  0
LINE
  5
   8EC
  8
0
  6
CONTINUOUS
 62
     3
 10
152.786084409356
 20
291.208647584918
 30
0.0
 11
153.836084391475
 21
291.208647584918
 31
0.0
  0
LINE
  5
   8ED
  8
0
  6
CONTINUOUS
 62
     3
 10
152.786084943413
 20
291.208647851944
 30
0.0
 11
152.786084943413
 21
291.76864730835
 31
0.0
  0
LINE
  5
   8EE
  8
0
  6
CONTINUOUS
 62
     3
 10
152.786084409356
 20
291.768647575382
 30
0.0
 11
153.591085463762
 21
291.768647575382
 31
0.0
  0
POLYLINE
  5
   8EF
  8
0
  6
CONTINUOUS
 62
     1
 66
     1
 10
0.0
 20
0.0
 30
0.0
  0
VERTEX
  5
   8F0
  8
0
  6
CONTINUOUS
 10
157.371084331271
 20
291.83864757419
 30
0.0
 40
0.0
 41
0.0
  0
VERTEX
  5
   8F1
  8
0
  6
CONTINUOUS
 10
157.244575953183
 20
292.286797805748
 30
0.0
 40
0.0
 41
0.0
  0
VERTEX
  5
   8F2
  8
0
  6
CONTINUOUS
 10
156.748939142478
 20
292.799315390176
 30
0.0
 40
0.0
 41
0.0
  0
VERTEX
  5
   8F3
  8
0
  6
CONTINUOUS
 10
155.689555324096
 20
293.281636567863
 30
0.0
 40
0.0
 41
0.0
  0
VERTEX
  5
   8F4
  8
0
  6
CONTINUOUS
 10
154.542705843077
 20
293.492331586336
 30
0.0
 40
0.0
 41
0.0
  0
VERTEX
  5
   8F5
  8
0
  6
CONTINUOUS
 10
153.133994632998
 20
293.47115841658
 30
0.0
 40
0.0
 41
0.0
  0
VERTEX
  5
   8F6
  8
0
  6
CONTINUOUS
 10
151.773838702207
 20
293.136668939956
 30
0.0
 40
0.0
 41
0.0
  0
VERTEX
  5
   8F7
  8
0
  6
CONTINUOUS
 10
150.947212688292
 20
292.653795224119
 30
0.0
 40
0.0
 41
0.0
  0
VERTEX
  5
   8F8
  8
0
  6
CONTINUOUS
 10
150.643306314843
 20
292.296604557686
 30
0.0
 40
0.0
 41
0.0
  0
VERTEX
  5
   8F9
  8
0
  6
CONTINUOUS
 10
150.511085516216
 20
291.83864757419
 30
0.0
 40
0.0
 41
0.0
  0
SEQEND
  5
   8FA
  8
0
  6
CONTINUOUS
 62
     1
  0
POLYLINE
  5
   8FB
  8
0
  6
CONTINUOUS
 62
     1
 66
     1
 10
0.0
 20
0.0
 30
0.0
  0
VERTEX
  5
   8FC
  8
0
  6
CONTINUOUS
 10
150.511085516216
 20
291.838647574183
 30
0.0
 40
0.0
 41
0.0
  0
VERTEX
  5
   8FD
  8
0
  6
CONTINUOUS
 10
150.637593894304
 20
291.390497342625
 30
0.0
 40
0.0
 41
0.0
  0
VERTEX
  5
   8FE
  8
0
  6
CONTINUOUS
 10
151.13323070501
 20
290.877979758197
 30
0.0
 40
0.0
 41
0.0
  0
VERTEX
  5
   8FF
  8
0
  6
CONTINUOUS
 10
152.19261452339
 20
290.39565858051
 30
0.0
 40
0.0
 41
0.0
  0
VERTEX
  5
   900
  8
0
  6
CONTINUOUS
 10
153.339464004409
 20
290.184963562037
 30
0.0
 40
0.0
 41
0.0
  0
VERTEX
  5
   901
  8
0
  6
CONTINUOUS
 10
154.748175214488
 20
290.206136731792
 30
0.0
 40
0.0
 41
0.0
  0
VERTEX
  5
   902
  8
0
  6
CONTINUOUS
 10
156.108331145281
 20
290.540626208417
 30
0.0
 40
0.0
 41
0.0
  0
VERTEX
  5
   903
  8
0
  6
CONTINUOUS
 10
156.934957159194
 20
291.023499924253
 30
0.0
 40
0.0
 41
0.0
  0
VERTEX
  5
   904
  8
0
  6
CONTINUOUS
 10
157.238863532642
 20
291.380690590686
 30
0.0
 40
0.0
 41
0.0
  0
VERTEX
  5
   905
  8
0
  6
CONTINUOUS
 10
157.371084331271
 20
291.838647574183
 30
0.0
 40
0.0
 41
0.0
  0
SEQEND
  5
   906
  8
0
  6
CONTINUOUS
 62
     1
  0
ARC
  5
   907
  8
0
  6
CONTINUOUS
 62
     1
 10
139.941081313874
 20
291.348651964642
 30
0.0
 40
0.350009341811793
 50
270.000717391241
 51
359.999304504019
  0
ARC
  5
   908
  8
0
  6
CONTINUOUS
 62
     1
 10
125.941100059636
 20
291.34866170776
 30
0.0
 40
0.350019042274374
 50
180.002290382397
 51
269.997687798969
  0
ARC
  5
   909
  8
0
  6
CONTINUOUS
 62
     1
 10
125.94109031675
 20
315.778642784144
 30
0.0
 40
0.350009341811847
 50
90.0007173512567
 51
179.999195183489
  0
ARC
  5
   90A
  8
0
  6
CONTINUOUS
 62
     1
 10
139.941071570991
 20
315.778633041494
 30
0.0
 40
0.350019042274275
 50
2.39962314073186E-3
 51
89.9976877653529
  0
LINE
  5
   90B
  8
0
  6
CONTINUOUS
 62
     1
 10
159.304874352663
 20
288.898647757769
 30
0.0
 11
159.304874352663
 21
317.878647664785
 31
0.0
  0
LINE
  5
   90C
  8
0
  6
CONTINUOUS
 62
     1
 10
106.577297278196
 20
288.898647757769
 30
0.0
 11
106.577297278196
 21
317.878647664785
 31
0.0
  0
LINE
  5
   90D
  8
0
  6
CONTINUOUS
 62
     2
 10
110.19108620286
 20
318.018646861315
 30
0.0
 11
110.19108620286
 21
318.088647127152
 31
0.0
  0
LINE
  5
   90E
  8
0
  6
CONTINUOUS
 62
     2
 10
113.691086143255
 20
318.018646861315
 30
0.0
 11
113.691086143255
 21
318.088647127152
 31
0.0
  0
LINE
  5
   90F
  8
0
  6
CONTINUOUS
 62
     2
 10
155.691085428
 20
318.018646861315
 30
0.0
 11
155.691085428
 21
318.088647127152
 31
0.0
  0
LINE
  5
   910
  8
0
  6
CONTINUOUS
 62
     2
 10
152.191085487604
 20
318.018646861315
 30
0.0
 11
152.191085487604
 21
318.088647127152
 31
0.0
  0
LINE
  5
   911
  8
0
  6
CONTINUOUS
 62
     2
 10
155.691085428
 20
288.688647627831
 30
0.0
 11
155.691085428
 21
288.758647893667
 31
0.0
  0
LINE
  5
   912
  8
0
  6
CONTINUOUS
 62
     2
 10
152.191085487604
 20
288.688647627831
 30
0.0
 11
152.191085487604
 21
288.758647893667
 31
0.0
  0
LINE
  5
   913
  8
0
  6
CONTINUOUS
 62
     2
 10
110.19108620286
 20
288.688647627831
 30
0.0
 11
110.19108620286
 21
288.758647893667
 31
0.0
  0
LINE
  5
   914
  8
0
  6
CONTINUOUS
 62
     2
 10
113.691086143255
 20
288.688647627831
 30
0.0
 11
113.691086143255
 21
288.758647893667
 31
0.0
  0
POLYLINE
  5
   915
  8
0
  6
CONTINUOUS
 62
     1
 66
     1
 10
0.0
 20
0.0
 30
0.0
  0
VERTEX
  5
   916
  8
0
  6
CONTINUOUS
 10
159.470549703844
 20
288.758647626641
 30
0.0
 40
0.0
 41
0.0
  0
VERTEX
  5
   917
  8
0
  6
CONTINUOUS
 10
159.611085361242
 20
288.89864775777
 30
0.0
 40
0.0
 41
0.0
  0
SEQEND
  5
   918
  8
0
  6
CONTINUOUS
 62
     1
  0
POLYLINE
  5
   919
  8
0
  6
CONTINUOUS
 62
     1
 66
     1
 10
0.0
 20
0.0
 30
0.0
  0
VERTEX
  5
   91A
  8
0
  6
CONTINUOUS
 10
159.611085361241
 20
317.87864766479
 30
0.0
 40
0.0
 41
0.0
  0
VERTEX
  5
   91B
  8
0
  6
CONTINUOUS
 10
159.470549703844
 20
318.018647128341
 30
0.0
 40
0.0
 41
0.0
  0
SEQEND
  5
   91C
  8
0
  6
CONTINUOUS
 62
     1
  0
POLYLINE
  5
   91D
  8
0
  6
CONTINUOUS
 62
     1
 66
     1
 10
0.0
 20
0.0
 30
0.0
  0
VERTEX
  5
   91E
  8
0
  6
CONTINUOUS
 10
106.411621927015
 20
318.018647128341
 30
0.0
 40
0.0
 41
0.0
  0
VERTEX
  5
   91F
  8
0
  6
CONTINUOUS
 10
106.271086269618
 20
317.878647664789
 30
0.0
 40
0.0
 41
0.0
  0
SEQEND
  5
   920
  8
0
  6
CONTINUOUS
 62
     1
  0
POLYLINE
  5
   921
  8
0
  6
CONTINUOUS
 62
     1
 66
     1
 10
0.0
 20
0.0
 30
0.0
  0
VERTEX
  5
   922
  8
0
  6
CONTINUOUS
 10
106.271086269617
 20
288.898647757769
 30
0.0
 40
0.0
 41
0.0
  0
VERTEX
  5
   923
  8
0
  6
CONTINUOUS
 10
106.411621927017
 20
288.758647626641
 30
0.0
 40
0.0
 41
0.0
  0
SEQEND
  5
   924
  8
0
  6
CONTINUOUS
 62
     1
  0
LINE
  5
   925
  8
0
  6
CONTINUOUS
 62
     1
 10
125.941085934639
 20
290.998647588491
 30
0.0
 11
139.94108569622
 21
290.998647588491
 31
0.0
  0
LINE
  5
   926
  8
0
  6
CONTINUOUS
 62
     1
 10
140.29108569026
 20
291.348647716045
 30
0.0
 11
140.29108569026
 21
315.778647700548
 31
0.0
  0
LINE
  5
   927
  8
0
  6
CONTINUOUS
 62
     1
 10
125.591085940599
 20
291.348647716045
 30
0.0
 11
125.591085940599
 21
315.778647700548
 31
0.0
  0
LINE
  5
   928
  8
0
  6
CONTINUOUS
 62
     2
 10
159.611085361242
 20
288.898647757769
 30
0.0
 11
159.611085361242
 21
317.878647664785
 31
0.0
  0
LINE
  5
   929
  8
0
  6
CONTINUOUS
 62
     2
 10
106.271086269617
 20
288.898647757769
 30
0.0
 11
106.271086269617
 21
317.878647664785
 31
0.0
  0
LINE
  5
   92A
  8
0
  6
CONTINUOUS
 62
     1
 10
157.385457957738
 20
288.758647626638
 30
0.0
 11
159.333120659555
 21
288.758647626638
 31
0.0
  0
LINE
  5
   92B
  8
0
  6
CONTINUOUS
 62
     1
 10
106.549050971304
 20
288.758647626638
 30
0.0
 11
108.501592289371
 21
288.758647626638
 31
0.0
  0
LINE
  5
   92C
  8
0
  6
CONTINUOUS
 62
     1
 10
159.333120659555
 20
288.758647626638
 30
0.0
 11
159.470549703846
 21
288.758647626638
 31
0.0
  0
LINE
  5
   92D
  8
0
  6
CONTINUOUS
 62
     1
 10
108.501592289371
 20
288.758647626638
 30
0.0
 11
157.385457957738
 21
288.758647626638
 31
0.0
  0
LINE
  5
   92E
  8
0
  6
CONTINUOUS
 62
     1
 10
106.411621927014
 20
288.758647626638
 30
0.0
 11
106.549050971304
 21
288.758647626638
 31
0.0
  0
LINE
  5
   92F
  8
0
  6
CONTINUOUS
 62
     2
 10
152.191085487604
 20
293.354191915213
 30
0.0
 11
152.818334813165
 21
293.477214087954
 31
0.0
  0
POLYLINE
  5
   930
  8
0
  6
CONTINUOUS
 62
     1
 66
     1
 10
0.0
 20
0.0
 30
0.0
  0
VERTEX
  5
   931
  8
0
  6
CONTINUOUS
 10
157.213313389708
 20
291.217656999921
 30
0.0
 40
0.0
 41
0.0
  0
VERTEX
  5
   932
  8
0
  6
CONTINUOUS
 10
157.428669610166
 20
291.691239601862
 30
0.0
 40
0.0
 41
0.0
  0
VERTEX
  5
   933
  8
0
  6
CONTINUOUS
 10
157.441084330079
 20
291.838647574184
 30
0.0
 40
0.0
 41
0.0
  0
SEQEND
  5
   934
  8
0
  6
CONTINUOUS
 62
     1
  0
POLYLINE
  5
   935
  8
0
  6
CONTINUOUS
 62
     1
 66
     1
 10
0.0
 20
0.0
 30
0.0
  0
VERTEX
  5
   936
  8
0
  6
CONTINUOUS
 10
157.441084330079
 20
291.838647574189
 30
0.0
 40
0.0
 41
0.0
  0
VERTEX
  5
   937
  8
0
  6
CONTINUOUS
 10
157.305673914188
 20
292.320745114627
 30
0.0
 40
0.0
 41
0.0
  0
VERTEX
  5
   938
  8
0
  6
CONTINUOUS
 10
157.213313389707
 20
292.459638148452
 30
0.0
 40
0.0
 41
0.0
  0
SEQEND
  5
   939
  8
0
  6
CONTINUOUS
 62
     1
  0
POLYLINE
  5
   93A
  8
0
  6
CONTINUOUS
 62
     1
 66
     1
 10
0.0
 20
0.0
 30
0.0
  0
VERTEX
  5
   93B
  8
0
  6
CONTINUOUS
 10
157.210203024209
 20
292.463533395862
 30
0.0
 40
0.0
 41
0.0
  0
VERTEX
  5
   93C
  8
0
  6
CONTINUOUS
 10
156.792785693769
 20
292.853336739359
 30
0.0
 40
0.0
 41
0.0
  0
VERTEX
  5
   93D
  8
0
  6
CONTINUOUS
 10
156.192868874168
 20
293.178361020925
 30
0.0
 40
0.0
 41
0.0
  0
VERTEX
  5
   93E
  8
0
  6
CONTINUOUS
 10
154.609362535651
 20
293.556436409346
 30
0.0
 40
0.0
 41
0.0
  0
VERTEX
  5
   93F
  8
0
  6
CONTINUOUS
 10
152.858459695297
 20
293.50278933261
 30
0.0
 40
0.0
 41
0.0
  0
SEQEND
  5
   940
  8
0
  6
CONTINUOUS
 62
     1
  0
POLYLINE
  5
   941
  8
0
  6
CONTINUOUS
 62
     1
 66
     1
 10
0.0
 20
0.0
 30
0.0
  0
VERTEX
  5
   942
  8
0
  6
CONTINUOUS
 10
152.191098091606
 20
293.354148250332
 30
0.0
 40
0.0
 41
0.0
  0
VERTEX
  5
   943
  8
0
  6
CONTINUOUS
 10
151.259748147527
 20
292.963469846721
 30
0.0
 40
0.0
 41
0.0
  0
VERTEX
  5
   944
  8
0
  6
CONTINUOUS
 10
150.652305171898
 20
292.43714529765
 30
0.0
 40
0.0
 41
0.0
  0
VERTEX
  5
   945
  8
0
  6
CONTINUOUS
 10
150.441085517408
 20
291.838647574189
 30
0.0
 40
0.0
 41
0.0
  0
SEQEND
  5
   946
  8
0
  6
CONTINUOUS
 62
     1
  0
POLYLINE
  5
   947
  8
0
  6
CONTINUOUS
 62
     1
 66
     1
 10
0.0
 20
0.0
 30
0.0
  0
VERTEX
  5
   948
  8
0
  6
CONTINUOUS
 10
150.441085517408
 20
291.838647574184
 30
0.0
 40
0.0
 41
0.0
  0
VERTEX
  5
   949
  8
0
  6
CONTINUOUS
 10
150.574727893752
 20
291.360209879981
 30
0.0
 40
0.0
 41
0.0
  0
SEQEND
  5
   94A
  8
0
  6
CONTINUOUS
 62
     1
  0
POLYLINE
  5
   94B
  8
0
  6
CONTINUOUS
 62
     1
 66
     1
 10
0.0
 20
0.0
 30
0.0
  0
VERTEX
  5
   94C
  8
0
  6
CONTINUOUS
 10
150.680022971264
 20
291.20331074239
 30
0.0
 40
0.0
 41
0.0
  0
VERTEX
  5
   94D
  8
0
  6
CONTINUOUS
 10
151.434058281763
 20
290.61747481855
 30
0.0
 40
0.0
 41
0.0
  0
VERTEX
  5
   94E
  8
0
  6
CONTINUOUS
 10
152.585893300275
 20
290.225197590244
 30
0.0
 40
0.0
 41
0.0
  0
VERTEX
  5
   94F
  8
0
  6
CONTINUOUS
 10
153.951960419158
 20
290.08865621958
 30
0.0
 40
0.0
 41
0.0
  0
VERTEX
  5
   950
  8
0
  6
CONTINUOUS
 10
155.316311519077
 20
290.229441748096
 30
0.0
 40
0.0
 41
0.0
  0
VERTEX
  5
   951
  8
0
  6
CONTINUOUS
 10
156.463251574764
 20
290.62529148641
 30
0.0
 40
0.0
 41
0.0
  0
VERTEX
  5
   952
  8
0
  6
CONTINUOUS
 10
157.209972260768
 20
291.213459591172
 30
0.0
 40
0.0
 41
0.0
  0
SEQEND
  5
   953
  8
0
  6
CONTINUOUS
 62
     1
  0
POLYLINE
  5
   954
  8
0
  6
CONTINUOUS
 62
     1
 66
     1
 10
0.0
 20
0.0
 30
0.0
  0
VERTEX
  5
   955
  8
0
  6
CONTINUOUS
 10
152.815201095324
 20
293.495636380297
 30
0.0
 40
0.0
 41
0.0
  0
VERTEX
  5
   956
  8
0
  6
CONTINUOUS
 10
154.491735228215
 20
293.566869566597
 30
0.0
 40
0.0
 41
0.0
  0
VERTEX
  5
   957
  8
0
  6
CONTINUOUS
 10
155.047643097178
 20
293.498892256703
 30
0.0
 40
0.0
 41
0.0
  0
SEQEND
  5
   958
  8
0
  6
CONTINUOUS
 62
     1
  0
LINE
  5
   959
  8
0
  6
CONTINUOUS
 62
     1
 10
106.549050971304
 20
318.018647128344
 30
0.0
 11
108.496713673121
 21
318.018647128344
 31
0.0
  0
LINE
  5
   95A
  8
0
  6
CONTINUOUS
 62
     1
 10
157.380579341488
 20
318.018647128344
 30
0.0
 11
159.333120659555
 21
318.018647128344
 31
0.0
  0
LINE
  5
   95B
  8
0
  6
CONTINUOUS
 62
     1
 10
106.411621927014
 20
318.018647128344
 30
0.0
 11
106.549050971304
 21
318.018647128344
 31
0.0
  0
LINE
  5
   95C
  8
0
  6
CONTINUOUS
 62
     1
 10
108.496713673121
 20
318.018647128344
 30
0.0
 11
157.380579341488
 21
318.018647128344
 31
0.0
  0
LINE
  5
   95D
  8
0
  6
CONTINUOUS
 62
     1
 10
159.333120659555
 20
318.018647128344
 30
0.0
 11
159.470549703846
 21
318.018647128344
 31
0.0
  0
ARC
  5
   95E
  8
0
  6
CONTINUOUS
 62
     7
 10
143.441074540441
 20
269.7886441551
 30
0.0
 40
1.46999997496604
 50
90.000660341329
 51
199.846896196838
  0
ARC
  5
   95F
  8
0
  6
CONTINUOUS
 62
     7
 10
143.441074540441
 20
269.788644155099
 30
0.0
 40
1.46999997496635
 50
45.315413771057
 51
89.9998277048562
  0
ARC
  5
   960
  8
0
  6
CONTINUOUS
 62
     7
 10
143.441074540441
 20
269.7886441551
 30
0.0
 40
1.46999997496658
 50
270.000198314903
 51
314.925562368275
  0
ARC
  5
   961
  8
0
  6
CONTINUOUS
 62
     7
 10
143.441074540442
 20
269.7886441551
 30
0.0
 40
1.46999997496534
 50
21.8791064867549
 51
44.89988140878
  0
ARC
  5
   962
  8
0
  6
CONTINUOUS
 62
     7
 10
143.441074540441
 20
269.788644155099
 30
0.0
 40
1.46999997496569
 50
328.814107395688
 51
359.915109578659
  0
ARC
  5
   963
  8
0
  6
CONTINUOUS
 62
     7
 10
122.441074898069
 20
269.7886441551
 30
0.0
 40
1.469999974966
 50
90.0018312538685
 51
174.648993209783
  0
ARC
  5
   964
  8
0
  6
CONTINUOUS
 62
     7
 10
122.441074898034
 20
269.788644155098
 30
0.0
 40
1.46999997493134
 50
180.114764439437
 51
185.207129517553
  0
ARC
  5
   965
  8
0
  6
CONTINUOUS
 62
     7
 10
122.441074898069
 20
269.7886441551
 30
0.0
 40
1.46999997496595
 50
326.739109344248
 51
404.766349366482
  0
ARC
  5
   966
  8
0
  6
CONTINUOUS
 62
     7
 10
122.441074898069
 20
269.788644155099
 30
0.0
 40
1.46999997496631
 50
45.5612170473829
 51
89.9998277048578
  0
ARC
  5
   967
  8
0
  6
CONTINUOUS
 62
     7
 10
122.441074898119
 20
269.788644082564
 30
0.0
 40
1.46999990243047
 50
270.000380452306
 51
270.077886930859
  0
LINE
  5
   968
  8
0
  6
CONTINUOUS
 62
   212
 10
125.941085934639
 20
316.892033645027
 30
0.0
 11
126.000926422054
 21
317.126010958853
 31
0.0
  0
POLYLINE
  5
   969
  8
0
  6
CONTINUOUS
 62
   212
 66
     1
 10
0.0
 20
0.0
 30
0.0
  0
VERTEX
  5
   96A
  8
0
  6
CONTINUOUS
 10
126.641085922718
 20
311.150877845447
 30
0.0
 40
0.0
 41
0.0
  0
VERTEX
  5
   96B
  8
0
  6
CONTINUOUS
 10
126.146021550402
 20
311.347741932093
 30
0.0
 40
0.0
 41
0.0
  0
VERTEX
  5
   96C
  8
0
  6
CONTINUOUS
 10
125.941085934639
 20
311.822691102022
 30
0.0
 40
0.0
 41
0.0
  0
SEQEND
  5
   96D
  8
0
  6
CONTINUOUS
 62
   212
  0
LINE
  5
   96E
  8
0
  6
CONTINUOUS
 62
   212
 10
139.881245208806
 20
317.126010958853
 30
0.0
 11
139.94108569622
 21
316.892033645027
 31
0.0
  0
POLYLINE
  5
   96F
  8
0
  6
CONTINUOUS
 62
   212
 66
     1
 10
0.0
 20
0.0
 30
0.0
  0
VERTEX
  5
   970
  8
0
  6
CONTINUOUS
 10
139.241085708141
 20
311.150877845447
 30
0.0
 40
0.0
 41
0.0
  0
VERTEX
  5
   971
  8
0
  6
CONTINUOUS
 10
139.736150078925
 20
311.347741937836
 30
0.0
 40
0.0
 41
0.0
  0
VERTEX
  5
   972
  8
0
  6
CONTINUOUS
 10
139.94108569622
 20
311.822691106206
 30
0.0
 40
0.0
 41
0.0
  0
SEQEND
  5
   973
  8
0
  6
CONTINUOUS
 62
   212
  0
LINE
  5
   974
  8
0
  6
CONTINUOUS
 62
   212
 10
126.641085922718
 20
313.438560803449
 30
0.0
 11
139.241085708141
 21
313.438560803449
 31
0.0
  0
ARC
  5
   975
  8
0
  6
CONTINUOUS
 62
   212
 10
126.636442128028
 20
316.887312574691
 30
0.0
 40
0.695754403815746
 50
89.6177778246137
 51
148.670753481328
  0
ARC
  5
   976
  8
0
  6
CONTINUOUS
 62
   212
 10
139.245710239182
 20
316.88729310405
 30
0.0
 40
0.695773687862638
 50
31.3298293179974
 51
90.3806260205072
  0
LINE
  5
   977
  8
0
  6
CONTINUOUS
 62
   212
 10
126.641085922718
 20
308.764203564175
 30
0.0
 11
139.241085708141
 21
308.764203564175
 31
0.0
  0
LINE
  5
   978
  8
0
  6
CONTINUOUS
 62
   212
 10
126.641085922718
 20
317.583415686362
 30
0.0
 11
139.241085708141
 21
317.583415686362
 31
0.0
  0
LINE
  5
   979
  8
0
  6
CONTINUOUS
 62
   212
 10
126.641085922718
 20
311.150877845447
 30
0.0
 11
139.241085708141
 21
311.150877845447
 31
0.0
  0
LINE
  5
   97A
  8
0
  6
CONTINUOUS
 62
   212
 10
125.941085934639
 20
309.069332705554
 30
0.0
 11
125.941085934639
 21
310.031752580522
 31
0.0
  0
LINE
  5
   97B
  8
0
  6
CONTINUOUS
 62
   212
 10
125.941085934639
 20
310.031752580522
 30
0.0
 11
125.941085934639
 21
311.822690736668
 31
0.0
  0
LINE
  5
   97C
  8
0
  6
CONTINUOUS
 62
   212
 10
125.941085934639
 20
311.822690736668
 30
0.0
 11
125.941085934639
 21
313.89159386153
 31
0.0
  0
LINE
  5
   97D
  8
0
  6
CONTINUOUS
 62
   212
 10
125.941085934639
 20
313.89159386153
 30
0.0
 11
125.941085934639
 21
316.892033645027
 31
0.0
  0
LINE
  5
   97E
  8
0
  6
CONTINUOUS
 62
   212
 10
139.94108569622
 20
309.069526301437
 30
0.0
 11
139.94108569622
 21
310.031752580522
 31
0.0
  0
LINE
  5
   97F
  8
0
  6
CONTINUOUS
 62
   212
 10
139.94108569622
 20
311.822690736668
 30
0.0
 11
139.94108569622
 21
313.89159386153
 31
0.0
  0
LINE
  5
   980
  8
0
  6
CONTINUOUS
 62
   212
 10
139.94108569622
 20
310.031752580522
 30
0.0
 11
139.94108569622
 21
311.822690736668
 31
0.0
  0
LINE
  5
   981
  8
0
  6
CONTINUOUS
 62
   212
 10
139.94108569622
 20
313.89159386153
 30
0.0
 11
139.94108569622
 21
316.892033645027
 31
0.0
  0
LINE
  5
   982
  8
0
  6
DASHDOT
 62
     7
 10
128.531086743419
 20
382.313642083901
 30
0.0
 11
137.424586616059
 21
382.313642083901
 31
0.0
  0
LINE
  5
   983
  8
0
  6
DASHDOT
 62
     7
 10
132.94108667927
 20
377.903642148051
 30
0.0
 11
132.94108667927
 21
386.723642019752
 31
0.0
  0
LINE
  5
   984
  8
0
  6
DASHDOT
 62
     7
 10
91.7810873692682
 20
382.31364250676
 30
0.0
 11
100.674587241908
 21
382.31364250676
 31
0.0
  0
LINE
  5
   985
  8
0
  6
DASHDOT
 62
     7
 10
96.1910873051186
 20
377.90364257091
 30
0.0
 11
96.1910873051186
 21
386.723642442611
 31
0.0
  0
LINE
  5
   986
  8
0
  6
DASHDOT
 62
     7
 10
165.281086117571
 20
382.313641661043
 30
0.0
 11
174.17458599021
 21
382.313641661043
 31
0.0
  0
LINE
  5
   987
  8
0
  6
DASHDOT
 62
     7
 10
169.691086053421
 20
377.903641725192
 30
0.0
 11
169.691086053421
 21
386.723641596893
 31
0.0
  0
LINE
  5
   988
  8
0
  6
DASHDOT
 62
     7
 10
128.531085879579
 20
232.163648590446
 30
0.0
 11
137.424585752219
 21
232.163648590446
 31
0.0
  0
LINE
  5
   989
  8
0
  6
DASHDOT
 62
     7
 10
132.94108581543
 20
227.753648654595
 30
0.0
 11
132.94108581543
 21
236.573648526296
 31
0.0
  0
LINE
  5
   98A
  8
0
  6
DASHDOT
 62
     7
 10
91.7810865054279
 20
232.163648590446
 30
0.0
 11
100.674586378068
 21
232.163648590446
 31
0.0
  0
LINE
  5
   98B
  8
0
  6
DASHDOT
 62
     7
 10
96.1910864412784
 20
227.753648654595
 30
0.0
 11
96.1910864412784
 21
236.573648526296
 31
0.0
  0
LINE
  5
   98C
  8
0
  6
DASHDOT
 62
     7
 10
165.28108525373
 20
232.163648590446
 30
0.0
 11
174.17458512637
 21
232.163648590446
 31
0.0
  0
LINE
  5
   98D
  8
0
  6
DASHDOT
 62
     7
 10
169.691085189581
 20
227.753648654595
 30
0.0
 11
169.691085189581
 21
236.573648526296
 31
0.0
  0
LINE
  5
   98E
  8
0
  6
DASHDOT
 62
     7
 10
131.975085829481
 20
350.638646572833
 30
0.0
 11
133.923185801584
 21
350.638646572833
 31
0.0
  0
LINE
  5
   98F
  8
0
  6
DASHDOT
 62
     7
 10
132.94108581543
 20
349.672646586884
 30
0.0
 11
132.94108581543
 21
351.604646558781
 31
0.0
  0
LINE
  5
   990
  8
0
  6
DASHDOT
 62
     7
 10
120.677086019903
 20
344.688646674161
 30
0.0
 11
124.234485968959
 21
344.688646674161
 31
0.0
  0
LINE
  5
   991
  8
0
  6
DASHDOT
 62
     7
 10
122.441085994244
 20
342.92464669982
 30
0.0
 11
122.441085994244
 21
346.452646648501
 31
0.0
  0
LINE
  5
   992
  8
0
  6
DASHDOT
 62
     7
 10
141.677085662276
 20
344.688646674161
 30
0.0
 11
145.234485611332
 21
344.688646674161
 31
0.0
  0
LINE
  5
   993
  8
0
  6
DASHDOT
 62
     7
 10
143.441085636616
 20
342.92464669982
 30
0.0
 11
143.441085636616
 21
346.452646648501
 31
0.0
  0
LINE
  5
   994
  8
0
  6
DASHDOT
 62
     7
 10
141.677085446819
 20
269.788643913466
 30
0.0
 11
145.234485395874
 21
269.788643913466
 31
0.0
  0
LINE
  5
   995
  8
0
  6
DASHDOT
 62
     7
 10
143.441085421159
 20
268.024643939127
 30
0.0
 11
143.441085421159
 21
271.552643887806
 31
0.0
  0
LINE
  5
   996
  8
0
  6
DASHDOT
 62
     7
 10
131.975085579793
 20
263.838644075202
 30
0.0
 11
133.923185551896
 21
263.838644075202
 31
0.0
  0
LINE
  5
   997
  8
0
  6
DASHDOT
 62
     7
 10
132.941085565742
 20
262.872644089254
 30
0.0
 11
132.941085565742
 21
264.80464406115
 31
0.0
  0
LINE
  5
   998
  8
0
  6
DASHDOT
 62
     7
 10
120.677085804447
 20
269.788644034283
 30
0.0
 11
124.234485753502
 21
269.788644034283
 31
0.0
  0
LINE
  5
   999
  8
0
  6
DASHDOT
 62
     7
 10
122.441085778787
 20
268.024644059943
 30
0.0
 11
122.441085778787
 21
271.552644008623
 31
0.0
  0
LINE
  5
   99A
  8
0
  6
DASHDOT
 62
     7
 10
139.871041586507
 20
269.788646747053
 30
0.0
 11
147.070582090878
 21
269.788646747053
 31
0.0
  0
LINE
  5
   99B
  8
0
  6
DASHDOT
 62
     7
 10
143.441061670513
 20
266.218626663047
 30
0.0
 11
143.441061670513
 21
273.35866683106
 31
0.0
  0
LINE
  5
   99C
  8
0
  6
DASHDOT
 62
     7
 10
109.211075116594
 20
285.188643892839
 30
0.0
 11
114.716575037752
 21
285.188643892839
 31
0.0
  0
LINE
  5
   99D
  8
0
  6
DASHDOT
 62
     7
 10
111.941075076883
 20
282.458643932551
 30
0.0
 11
111.941075076883
 21
287.918643853128
 31
0.0
  0
LINE
  5
   99E
  8
0
  6
DASHDOT
 62
     7
 10
120.677086019903
 20
269.788647949695
 30
0.0
 11
124.234485968959
 21
269.788647949695
 31
0.0
  0
LINE
  5
   99F
  8
0
  6
DASHDOT
 62
     7
 10
122.441085994244
 20
268.024647975355
 30
0.0
 11
122.441085994244
 21
271.552647924036
 31
0.0
  0
LINE
  5
   9A0
  8
0
  6
DASHDOT
 62
     7
 10
120.677086019903
 20
269.788647949695
 30
0.0
 11
124.234485968959
 21
269.788647949695
 31
0.0
  0
LINE
  5
   9A1
  8
0
  6
DASHDOT
 62
     7
 10
122.441085994244
 20
268.024647975355
 30
0.0
 11
122.441085994244
 21
271.552647924036
 31
0.0
  0
LINE
  5
   9A2
  8
0
  6
DASHDOT
 62
     7
 10
118.661086049229
 20
269.788647949695
 30
0.0
 11
126.284085940063
 21
269.788647949695
 31
0.0
  0
LINE
  5
   9A3
  8
0
  6
DASHDOT
 62
     7
 10
122.441085994244
 20
266.008648004681
 30
0.0
 11
122.441085994244
 21
273.56864789471
 31
0.0
  0
LINE
  5
   9A4
  8
0
  6
DASHDOT
 62
     7
 10
141.677085662276
 20
344.688646674156
 30
0.0
 11
145.234485611331
 21
344.688646674156
 31
0.0
  0
LINE
  5
   9A5
  8
0
  6
DASHDOT
 62
     7
 10
143.441085636616
 20
342.924646699816
 30
0.0
 11
143.441085636616
 21
346.452646648496
 31
0.0
  0
LINE
  5
   9A6
  8
0
  6
DASHDOT
 62
     7
 10
141.677085662276
 20
344.688646674156
 30
0.0
 11
145.234485611331
 21
344.688646674156
 31
0.0
  0
LINE
  5
   9A7
  8
0
  6
DASHDOT
 62
     7
 10
143.441085636616
 20
342.924646699816
 30
0.0
 11
143.441085636616
 21
346.452646648496
 31
0.0
  0
LINE
  5
   9A8
  8
0
  6
DASHDOT
 62
     7
 10
139.661085691601
 20
344.688646674156
 30
0.0
 11
147.284085582435
 21
344.688646674156
 31
0.0
  0
LINE
  5
   9A9
  8
0
  6
DASHDOT
 62
     7
 10
143.441085636616
 20
340.908646729141
 30
0.0
 11
143.441085636616
 21
348.468646619171
 31
0.0
  0
LINE
  5
   9AA
  8
0
  6
DASHDOT
 62
     7
 10
109.211086212769
 20
344.513646677141
 30
0.0
 11
114.716586133927
 21
344.513646677141
 31
0.0
  0
LINE
  5
   9AB
  8
0
  6
DASHDOT
 62
     7
 10
111.941086173057
 20
341.783646716853
 30
0.0
 11
111.941086173057
 21
347.243646637429
 31
0.0
  0
LINE
  5
   9AC
  8
0
  6
DASHDOT
 62
     7
 10
109.211086212769
 20
269.96364794671
 30
0.0
 11
114.716586133928
 21
269.96364794671
 31
0.0
  0
LINE
  5
   9AD
  8
0
  6
DASHDOT
 62
     7
 10
111.941086173058
 20
267.233647986422
 30
0.0
 11
111.941086173058
 21
272.693647906999
 31
0.0
  0
LINE
  5
   9AE
  8
0
  6
DASHDOT
 62
     7
 10
118.871086046174
 20
344.688646674161
 30
0.0
 11
126.070585943073
 21
344.688646674161
 31
0.0
  0
LINE
  5
   9AF
  8
0
  6
DASHDOT
 62
     7
 10
122.441085994244
 20
341.118646726091
 30
0.0
 11
122.441085994244
 21
348.25864662223
 31
0.0
  0
LINE
  5
   9B0
  8
0
  6
DASHDOT
 62
     7
 10
139.871085688546
 20
269.788647949691
 30
0.0
 11
147.070585585445
 21
269.788647949691
 31
0.0
  0
LINE
  5
   9B1
  8
0
  6
DASHDOT
 62
     7
 10
143.441085636616
 20
266.218648001621
 30
0.0
 11
143.441085636616
 21
273.35864789776
 31
0.0
  0
LINE
  5
   9B2
  8
0
  6
DASHDOT
 62
     7
 10
130.211085855141
 20
269.963647946711
 30
0.0
 11
135.716585776299
 21
269.963647946711
 31
0.0
  0
LINE
  5
   9B3
  8
0
  6
DASHDOT
 62
     7
 10
132.94108581543
 20
267.233647986422
 30
0.0
 11
132.94108581543
 21
272.693647906999
 31
0.0
  0
LINE
  5
   9B4
  8
0
  6
DASHDOT
 62
     7
 10
151.211085497513
 20
269.963647946711
 30
0.0
 11
156.716585418672
 21
269.963647946711
 31
0.0
  0
LINE
  5
   9B5
  8
0
  6
DASHDOT
 62
     7
 10
153.941085457802
 20
267.233647986422
 30
0.0
 11
153.941085457802
 21
272.693647906999
 31
0.0
  0
LINE
  5
   9B6
  8
0
  6
DASHDOT
 62
     7
 10
130.211085855142
 20
344.513646677141
 30
0.0
 11
135.716585776299
 21
344.513646677141
 31
0.0
  0
LINE
  5
   9B7
  8
0
  6
DASHDOT
 62
     7
 10
132.94108581543
 20
341.783646716853
 30
0.0
 11
132.94108581543
 21
347.243646637429
 31
0.0
  0
LINE
  5
   9B8
  8
0
  6
DASHDOT
 62
     7
 10
151.211085497514
 20
344.513646677141
 30
0.0
 11
156.71658541867
 21
344.513646677141
 31
0.0
  0
LINE
  5
   9B9
  8
0
  6
DASHDOT
 62
     7
 10
153.941085457801
 20
341.783646716853
 30
0.0
 11
153.941085457801
 21
347.243646637429
 31
0.0
  0
LINE
  5
   9BA
  8
0
  6
DASHDOT
 62
     7
 10
141.6770745661
 20
269.7886441551
 30
0.0
 11
145.234474515157
 21
269.7886441551
 31
0.0
  0
LINE
  5
   9BB
  8
0
  6
DASHDOT
 62
     7
 10
143.441074540441
 20
268.024644180759
 30
0.0
 11
143.441074540441
 21
271.552644129441
 31
0.0
  0
LINE
  5
   9BC
  8
0
  6
DASHDOT
 62
     7
 10
120.677074923729
 20
269.7886441551
 30
0.0
 11
124.234474872785
 21
269.7886441551
 31
0.0
  0
LINE
  5
   9BD
  8
0
  6
DASHDOT
 62
     7
 10
122.441074898069
 20
268.02464418076
 30
0.0
 11
122.441074898069
 21
271.55264412944
 31
0.0
  0
INSERT
  5
   9BE
  8
0
  6
CONTINUOUS
 62
     7
  2
*UDIM2309
 10
0.0
 20
0.0
 30
0.0
  0
INSERT
  5
   9BF
  8
0
  6
CONTINUOUS
 62
     7
  2
*UDIM2310
 10
0.0
 20
0.0
 30
0.0
  0
INSERT
  5
   9C0
  8
0
  6
CONTINUOUS
 62
     7
  2
*UDIM2311
 10
0.0
 20
0.0
 30
0.0
  0
INSERT
  5
   9C1
  8
0
  6
CONTINUOUS
 62
     7
  2
*UDIM2312
 10
0.0
 20
0.0
 30
0.0
  0
INSERT
  5
   9C2
  8
0
  6
CONTINUOUS
 62
     7
  2
*UDIM2313
 10
0.0
 20
0.0
 30
0.0
  0
INSERT
  5
   9C3
  8
0
  6
CONTINUOUS
 62
     7
  2
*UDIM2314
 10
0.0
 20
0.0
 30
0.0
  0
LINE
  5
   9C4
  8
0
  6
CONTINUOUS
 62
   212
 10
119.367282967239
 20
414.166651033212
 30
0.0
 11
119.510159605817
 21
410.206528414889
 31
0.0
  0
LINE
  5
   9C5
  8
0
  6
CONTINUOUS
 62
   212
 10
120.453613170731
 20
414.101216782204
 30
0.0
 11
120.640948069109
 21
410.206528414889
 31
0.0
  0
LINE
  5
   9C6
  8
0
  6
CONTINUOUS
 62
     7
 10
116.175652441574
 20
410.206528414889
 30
0.0
 11
123.751960632351
 21
410.206528414889
 31
0.0
  0
LINE
  5
   9C7
  8
0
  6
CONTINUOUS
 62
     7
 10
116.175652441574
 20
407.963472960816
 30
0.0
 11
123.633926236873
 21
407.963472960816
 31
0.0
  0
LINE
  5
   9C8
  8
0
  6
CONTINUOUS
 62
     7
 10
141.693188745
 20
407.963472960816
 30
0.0
 11
149.011321264632
 21
407.963472960816
 31
0.0
  0
LINE
  5
   9C9
  8
0
  6
CONTINUOUS
 62
     7
 10
141.811223140477
 20
410.206528414889
 30
0.0
 11
149.168700458603
 21
410.206528414889
 31
0.0
  0
LINE
  5
   9CA
  8
0
  6
CONTINUOUS
 62
   212
 10
119.59108644933
 20
407.963472960816
 30
0.0
 11
120.123052974849
 21
393.218916461903
 31
0.0
  0
LINE
  5
   9CB
  8
0
  6
CONTINUOUS
 62
   212
 10
120.748839259857
 20
407.963472960816
 30
0.0
 11
121.456980246737
 21
393.241237606375
 31
0.0
  0
LINE
  5
   9CC
  8
0
  6
CONTINUOUS
 62
   212
 10
145.24122356175
 20
410.206528414889
 30
0.0
 11
145.427334456358
 21
414.075769771082
 31
0.0
  0
LINE
  5
   9CD
  8
0
  6
CONTINUOUS
 62
   212
 10
146.372012025041
 20
410.206528414889
 30
0.0
 11
146.509409344213
 21
414.014780322011
 31
0.0
  0
LINE
  5
   9CE
  8
0
  6
CONTINUOUS
 62
     7
 10
145.541085600853
 20
263.138646075036
 30
0.0
 11
145.541085600853
 21
264.538646051194
 31
0.0
  0
LINE
  5
   9CF
  8
0
  6
CONTINUOUS
 62
     7
 10
145.05108507514
 20
263.138646075032
 30
0.0
 11
145.541085600853
 21
263.138646075032
 31
0.0
  0
LINE
  5
   9D0
  8
0
  6
CONTINUOUS
 62
     7
 10
141.341085672378
 20
263.138646075032
 30
0.0
 11
141.831085530519
 21
263.138646075032
 31
0.0
  0
LINE
  5
   9D1
  8
0
  6
CONTINUOUS
 62
     7
 10
141.341085672378
 20
263.138646075036
 30
0.0
 11
141.341085672378
 21
264.538646051194
 31
0.0
  0
LINE
  5
   9D2
  8
0
  6
CONTINUOUS
 62
     7
 10
141.341085672378
 20
264.53864605119
 30
0.0
 11
145.541085600853
 21
264.53864605119
 31
0.0
  0
LINE
  5
   9D3
  8
0
  6
CONTINUOUS
 62
     7
 10
141.341085672378
 20
262.438646086957
 30
0.0
 11
141.341085672378
 21
263.138646075036
 31
0.0
  0
LINE
  5
   9D4
  8
0
  6
CONTINUOUS
 62
     3
 10
141.341085672378
 20
261.738646098878
 30
0.0
 11
141.341085672378
 21
262.438646086957
 31
0.0
  0
LINE
  5
   9D5
  8
0
  6
CONTINUOUS
 62
     7
 10
145.541085600853
 20
262.438646086957
 30
0.0
 11
145.541085600853
 21
263.138646075036
 31
0.0
  0
LINE
  5
   9D6
  8
0
  6
CONTINUOUS
 62
     3
 10
145.541085600853
 20
261.738646098878
 30
0.0
 11
145.541085600853
 21
262.438646086957
 31
0.0
  0
LINE
  5
   9D7
  8
0
  6
CONTINUOUS
 62
   212
 10
141.516085669398
 20
263.278649276998
 30
0.0
 11
141.516085669398
 21
264.398648189809
 31
0.0
  0
LINE
  5
   9D8
  8
0
  6
CONTINUOUS
 62
   212
 10
141.516085669398
 20
263.278649867248
 30
0.0
 11
142.531085518598
 21
263.278649867248
 31
0.0
  0
LINE
  5
   9D9
  8
0
  6
CONTINUOUS
 62
   212
 10
144.351085087061
 20
263.278649867248
 30
0.0
 11
145.366085603833
 21
263.278649867248
 31
0.0
  0
LINE
  5
   9DA
  8
0
  6
CONTINUOUS
 62
   212
 10
145.366085603833
 20
263.278649276998
 30
0.0
 11
145.366085603833
 21
264.398648189809
 31
0.0
  0
LINE
  5
   9DB
  8
0
  6
CONTINUOUS
 62
   212
 10
142.531085652113
 20
261.598648237493
 30
0.0
 11
142.531085652113
 21
263.278649276998
 31
0.0
  0
LINE
  5
   9DC
  8
0
  6
CONTINUOUS
 62
   212
 10
141.516085669398
 20
264.398649848175
 30
0.0
 11
145.366085603833
 21
264.398649848175
 31
0.0
  0
LINE
  5
   9DD
  8
0
  6
CONTINUOUS
 62
   212
 10
144.351085621118
 20
261.598648237493
 30
0.0
 11
144.351085621118
 21
263.278649276998
 31
0.0
  0
LINE
  5
   9DE
  8
0
  6
CONTINUOUS
 62
   212
 10
142.531085652113
 20
264.398648189809
 30
0.0
 11
142.531085652113
 21
264.538646051194
 31
0.0
  0
LINE
  5
   9DF
  8
0
  6
CONTINUOUS
 62
   212
 10
144.351085621118
 20
264.398648189809
 30
0.0
 11
144.351085621118
 21
264.538646051194
 31
0.0
  0
LINE
  5
   9E0
  8
0
  6
CONTINUOUS
 62
   212
 10
141.831085664034
 20
261.598648237493
 30
0.0
 11
141.831085664034
 21
263.278649276998
 31
0.0
  0
LINE
  5
   9E1
  8
0
  6
CONTINUOUS
 62
   212
 10
145.051085609198
 20
261.598648237493
 30
0.0
 11
145.051085609198
 21
263.278649276998
 31
0.0
  0
LINE
  5
   9E2
  8
0
  6
CONTINUOUS
 62
     7
 10
124.541085958481
 20
263.138646075036
 30
0.0
 11
124.541085958481
 21
264.538646051194
 31
0.0
  0
LINE
  5
   9E3
  8
0
  6
CONTINUOUS
 62
     7
 10
124.05108610034
 20
263.138646075032
 30
0.0
 11
124.541085958481
 21
263.138646075032
 31
0.0
  0
LINE
  5
   9E4
  8
0
  6
CONTINUOUS
 62
     7
 10
120.341086030006
 20
263.138646075032
 30
0.0
 11
120.831086555719
 21
263.138646075032
 31
0.0
  0
LINE
  5
   9E5
  8
0
  6
CONTINUOUS
 62
     7
 10
120.341086030006
 20
263.138646075036
 30
0.0
 11
120.341086030006
 21
264.538646051194
 31
0.0
  0
LINE
  5
   9E6
  8
0
  6
CONTINUOUS
 62
     7
 10
120.341086030006
 20
264.53864605119
 30
0.0
 11
124.541085958481
 21
264.53864605119
 31
0.0
  0
LINE
  5
   9E7
  8
0
  6
CONTINUOUS
 62
     7
 10
120.341086030006
 20
262.438646086957
 30
0.0
 11
120.341086030006
 21
263.138646075036
 31
0.0
  0
LINE
  5
   9E8
  8
0
  6
CONTINUOUS
 62
     3
 10
120.341086030006
 20
261.738646098878
 30
0.0
 11
120.341086030006
 21
262.438646086957
 31
0.0
  0
LINE
  5
   9E9
  8
0
  6
CONTINUOUS
 62
     7
 10
124.541085958481
 20
262.438646086957
 30
0.0
 11
124.541085958481
 21
263.138646075036
 31
0.0
  0
LINE
  5
   9EA
  8
0
  6
CONTINUOUS
 62
     3
 10
124.541085958481
 20
261.738646098878
 30
0.0
 11
124.541085958481
 21
262.438646086957
 31
0.0
  0
LINE
  5
   9EB
  8
0
  6
CONTINUOUS
 62
   212
 10
120.516086027026
 20
263.278649276998
 30
0.0
 11
120.516086027026
 21
264.398648189809
 31
0.0
  0
LINE
  5
   9EC
  8
0
  6
CONTINUOUS
 62
   212
 10
120.516086027026
 20
263.278649867248
 30
0.0
 11
121.531086543798
 21
263.278649867248
 31
0.0
  0
LINE
  5
   9ED
  8
0
  6
CONTINUOUS
 62
   212
 10
123.351086112261
 20
263.278649867248
 30
0.0
 11
124.366085961461
 21
263.278649867248
 31
0.0
  0
LINE
  5
   9EE
  8
0
  6
CONTINUOUS
 62
   212
 10
124.366085961461
 20
263.278649276998
 30
0.0
 11
124.366085961461
 21
264.398648189809
 31
0.0
  0
LINE
  5
   9EF
  8
0
  6
CONTINUOUS
 62
   212
 10
121.531086009741
 20
261.598648237493
 30
0.0
 11
121.531086009741
 21
263.278649276998
 31
0.0
  0
LINE
  5
   9F0
  8
0
  6
CONTINUOUS
 62
   212
 10
120.516086027026
 20
264.398649848175
 30
0.0
 11
124.366085961461
 21
264.398649848175
 31
0.0
  0
LINE
  5
   9F1
  8
0
  6
CONTINUOUS
 62
   212
 10
123.351085978746
 20
261.598648237493
 30
0.0
 11
123.351085978746
 21
263.278649276998
 31
0.0
  0
LINE
  5
   9F2
  8
0
  6
CONTINUOUS
 62
   212
 10
121.531086009741
 20
264.398648189809
 30
0.0
 11
121.531086009741
 21
264.538646051194
 31
0.0
  0
LINE
  5
   9F3
  8
0
  6
CONTINUOUS
 62
   212
 10
123.351085978746
 20
264.398648189809
 30
0.0
 11
123.351085978746
 21
264.538646051194
 31
0.0
  0
LINE
  5
   9F4
  8
0
  6
CONTINUOUS
 62
   212
 10
120.831086021662
 20
261.598648237493
 30
0.0
 11
120.831086021662
 21
263.278649276998
 31
0.0
  0
LINE
  5
   9F5
  8
0
  6
CONTINUOUS
 62
   212
 10
124.051085966825
 20
261.598648237493
 30
0.0
 11
124.051085966825
 21
263.278649276998
 31
0.0
  0
LINE
  5
   9F6
  8
0
  6
CONTINUOUS
 62
   212
 10
119.291086047888
 20
261.598649895858
 30
0.0
 11
121.531086543798
 21
261.598649895858
 31
0.0
  0
LINE
  5
   9F7
  8
0
  6
CONTINUOUS
 62
   212
 10
119.291086047888
 20
260.478649324681
 30
0.0
 11
119.291086047888
 21
261.598648237493
 31
0.0
  0
LINE
  5
   9F8
  8
0
  6
CONTINUOUS
 62
   212
 10
119.291086047888
 20
260.478649914932
 30
0.0
 11
121.399484068012
 21
260.478649914932
 31
0.0
  0
LINE
  5
   9F9
  8
0
  6
CONTINUOUS
 62
   212
 10
123.351086112261
 20
261.598649895858
 30
0.0
 11
125.591085940599
 21
261.598649895858
 31
0.0
  0
LINE
  5
   9FA
  8
0
  6
CONTINUOUS
 62
   212
 10
125.591085940599
 20
260.478649324681
 30
0.0
 11
125.591085940599
 21
261.598648237493
 31
0.0
  0
LINE
  5
   9FB
  8
0
  6
CONTINUOUS
 62
   212
 10
123.482688588047
 20
260.478649914932
 30
0.0
 11
125.591085940599
 21
260.478649914932
 31
0.0
  0
ARC
  5
   9FC
  8
0
  6
CONTINUOUS
 62
   212
 10
123.482688496485
 20
260.338649917313
 30
0.0
 40
0.139999997618789
 50
89.9999625277989
 51
179.656217248916
  0
ARC
  5
   9FD
  8
0
  6
CONTINUOUS
 62
   212
 10
121.399483492003
 20
260.338649917314
 30
0.0
 40
0.139999997617873
 50
0.343784389865494
 51
89.9997642642213
  0
LINE
  5
   9FE
  8
0
  6
CONTINUOUS
 62
   212
 10
140.29108569026
 20
261.598649895858
 30
0.0
 11
142.531085518598
 21
261.598649895858
 31
0.0
  0
LINE
  5
   9FF
  8
0
  6
CONTINUOUS
 62
   212
 10
140.29108569026
 20
260.478649324681
 30
0.0
 11
140.29108569026
 21
261.598648237493
 31
0.0
  0
LINE
  5
   A00
  8
0
  6
CONTINUOUS
 62
   212
 10
140.29108569026
 20
260.478649914932
 30
0.0
 11
142.399483042812
 21
260.478649914932
 31
0.0
  0
LINE
  5
   A01
  8
0
  6
CONTINUOUS
 62
   212
 10
144.482687562847
 20
260.478649914932
 30
0.0
 11
146.591085582971
 21
260.478649914932
 31
0.0
  0
LINE
  5
   A02
  8
0
  6
CONTINUOUS
 62
   212
 10
146.591085582971
 20
260.478649324681
 30
0.0
 11
146.591085582971
 21
261.598648237493
 31
0.0
  0
LINE
  5
   A03
  8
0
  6
CONTINUOUS
 62
   212
 10
144.351085621118
 20
261.598648237493
 30
0.0
 11
144.351085621118
 21
263.278649276998
 31
0.0
  0
ARC
  5
   A04
  8
0
  6
CONTINUOUS
 62
   212
 10
144.482688138853
 20
260.338649917318
 30
0.0
 40
0.139999997614089
 50
90.0002357345922
 51
179.656215611614
  0
ARC
  5
   A05
  8
0
  6
CONTINUOUS
 62
   212
 10
142.399483134377
 20
260.338649917317
 30
0.0
 40
0.139999997614868
 50
0.343782749372096
 51
90.0000374735329
  0
LINE
  5
   A06
  8
0
  6
CONTINUOUS
 62
   212
 10
142.546129880412
 20
260.301699877017
 30
0.0
 11
144.460368838177
 21
220.50471455488
 31
0.0
  0
LINE
  5
   A07
  8
0
  6
CONTINUOUS
 62
   212
 10
144.347744949087
 20
260.377526171348
 30
0.0
 11
145.786309822831
 21
220.50471455488
 31
0.0
  0
LINE
  5
   A08
  8
0
  6
CONTINUOUS
 62
   212
 10
120.095861808028
 20
220.50471455488
 30
0.0
 11
121.534426681772
 21
260.37752617135
 31
0.0
  0
LINE
  5
   A09
  8
0
  6
CONTINUOUS
 62
   212
 10
121.421802792682
 20
220.50471455488
 30
0.0
 11
123.336041750447
 21
260.301699877027
 31
0.0
  0
LINE
  5
   A0A
  8
0
  6
CONTINUOUS
 62
   212
 10
144.820542290115
 20
218.261659100807
 30
0.0
 11
145.061380995623
 21
213.254627774233
 31
0.0
  0
ARC
  5
   A0B
  8
0
  6
CONTINUOUS
 62
   212
 10
145.553760546736
 20
213.278311279686
 30
0.0
 40
0.492948811525291
 50
182.753474541798
 51
362.06660486142
  0
LINE
  5
   A0C
  8
0
  6
CONTINUOUS
 62
   212
 10
145.867236666343
 20
218.261659100807
 30
0.0
 11
146.046388839632
 21
213.296084738069
 31
0.0
  0
LINE
  5
   A0D
  8
0
  6
CONTINUOUS
 62
   212
 10
119.835782791227
 20
213.296084738072
 30
0.0
 11
120.014934964515
 21
218.261659100807
 31
0.0
  0
ARC
  5
   A0E
  8
0
  6
CONTINUOUS
 62
   212
 10
120.328411084123
 20
213.278311279686
 30
0.0
 40
0.492948811525507
 50
177.933395138597
 51
357.246525458183
  0
LINE
  5
   A0F
  8
0
  6
CONTINUOUS
 62
   212
 10
120.820790635237
 20
213.254627774245
 30
0.0
 11
121.061629340743
 21
218.261659100807
 31
0.0
  0
LINE
  5
   A10
  8
0
  6
CONTINUOUS
 62
     7
 10
116.680427800271
 20
218.261659100807
 30
0.0
 11
124.256735991049
 21
218.261659100807
 31
0.0
  0
LINE
  5
   A11
  8
0
  6
CONTINUOUS
 62
     7
 10
116.680427800271
 20
220.50471455488
 30
0.0
 11
124.138701595571
 21
220.50471455488
 31
0.0
  0
LINE
  5
   A12
  8
0
  6
CONTINUOUS
 62
     7
 10
141.30644778178
 20
218.261659100807
 30
0.0
 11
148.663925099905
 21
218.261659100807
 31
0.0
  0
LINE
  5
   A13
  8
0
  6
CONTINUOUS
 62
     7
 10
141.188413386302
 20
220.50471455488
 30
0.0
 11
148.506545905935
 21
220.50471455488
 31
0.0
  0
INSERT
  5
   A14
  8
0
  6
CONTINUOUS
 62
     7
  2
*UDIM2315
 10
0.0
 20
0.0
 30
0.0
  0
INSERT
  5
   A15
  8
0
  6
CONTINUOUS
 62
     7
  2
*UDIM2316
 10
0.0
 20
0.0
 30
0.0
  0
INSERT
  5
   A16
  8
0
  6
CONTINUOUS
 62
     7
  2
*UDIM2317
 10
0.0
 20
0.0
 30
0.0
  0
INSERT
  5
   A17
  8
0
  6
CONTINUOUS
 62
     7
  2
*UDIM2318
 10
0.0
 20
0.0
 30
0.0
  0
INSERT
  5
   A18
  8
0
  6
CONTINUOUS
 62
     7
  2
*UDIM2319
 10
0.0
 20
0.0
 30
0.0
  0
INSERT
  5
   A19
  8
0
  6
CONTINUOUS
 62
     7
  2
*UDIM2320
 10
0.0
 20
0.0
 30
0.0
  0
TEXT
  5
   A1A
  8
0
  6
CONTINUOUS
 62
     7
 10
233.652687267748
 20
215.404350862949
 30
0.0
 40
1.40000452697284
  1
PROFONDITA' QUADRO
 41
0.933333333333333
 11
233.652687267748
 21
216.104353126436
 31
0.0
 73
     2
  0
TEXT
  5
   A1B
  8
0
  6
CONTINUOUS
 62
     7
 10
233.652687267748
 20
217.484350893944
 30
0.0
 40
1.40000452697284
  1
COMPARTMENT DEPTH
 41
0.933333333333333
 11
233.652687267748
 21
218.18435315743
 31
0.0
 73
     2
  0
ENDSEC
  0
EOF
