  0
SECTION
  2
HEADER
  9
$ACADVER
  1
AC1009
  9
$DWGCODEPAGE
  3
iso8859-1
  9
$INSBASE
 10
0.0
 20
0.0
 30
0.0
  9
$EXTMIN
 10
1.0E20
 20
1.0E20
 30
1.0E20
  9
$EXTMAX
 10
-1.0E20
 20
-1.0E20
 30
-1.0E20
  9
$LIMMIN
 10
0.0
 20
0.0
  9
$LIMMAX
 10
12.0
 20
9.0
  9
$ORTHOMODE
 70
     0
  9
$REGENMODE
 70
     1
  9
$FILLMODE
 70
     1
  9
$QTEXTMODE
 70
     0
  9
$MIRRTEXT
 70
     1
  9
$DRAGMODE
 70
     2
  9
$LTSCALE
 40
15.0
  9
$OSMODE
 70
     0
  9
$ATTMODE
 70
     1
  9
$TEXTSIZE
 40
0.2
  9
$TRACEWID
 40
0.05
  9
$TEXTSTYLE
  7
STANDARD
  9
$CLAYER
  8
0
  9
$CELTYPE
  6
DASHED
  9
$CECOLOR
 62
   256
  9
$DIMSCALE
 40
1.0
  9
$DIMASZ
 40
0.18
  9
$DIMEXO
 40
0.0625
  9
$DIMDLI
 40
0.38
  9
$DIMRND
 40
0.0
  9
$DIMDLE
 40
0.0
  9
$DIMEXE
 40
0.18
  9
$DIMTP
 40
0.0
  9
$DIMTM
 40
0.0
  9
$DIMTXT
 40
0.18
  9
$DIMCEN
 40
0.09
  9
$DIMTSZ
 40
0.0
  9
$DIMTOL
 70
     0
  9
$DIMLIM
 70
     0
  9
$DIMTIH
 70
     1
  9
$DIMTOH
 70
     1
  9
$DIMSE1
 70
     0
  9
$DIMSE2
 70
     0
  9
$DIMTAD
 70
     0
  9
$DIMZIN
 70
     0
  9
$DIMBLK
  1

  9
$DIMASO
 70
     1
  9
$DIMSHO
 70
     1
  9
$DIMPOST
  1

  9
$DIMAPOST
  1

  9
$DIMALT
 70
     0
  9
$DIMALTD
 70
     2
  9
$DIMALTF
 40
25.4
  9
$DIMLFAC
 40
1.0
  9
$DIMTOFL
 70
     0
  9
$DIMTVP
 40
0.0
  9
$DIMTIX
 70
     0
  9
$DIMSOXD
 70
     0
  9
$DIMSAH
 70
     0
  9
$DIMBLK1
  1

  9
$DIMBLK2
  1

  9
$DIMSTYLE
  2
STANDARD
  9
$DIMCLRD
 70
     0
  9
$DIMCLRE
 70
     0
  9
$DIMCLRT
 70
     0
  9
$DIMTFAC
 40
1.0
  9
$DIMGAP
 40
0.09
  9
$LUNITS
 70
     2
  9
$LUPREC
 70
     4
  9
$AXISMODE
 70
     0
  9
$AXISUNIT
 10
0.0
 20
0.0
  9
$SKETCHINC
 40
0.1
  9
$FILLETRAD
 40
0.0
  9
$AUNITS
 70
     0
  9
$AUPREC
 70
     0
  9
$MENU
  1
acad
  9
$ELEVATION
 40
0.0
  9
$PELEVATION
 40
0.0
  9
$THICKNESS
 40
0.0
  9
$LIMCHECK
 70
     0
  9
$BLIPMODE
 70
     1
  9
$CHAMFERA
 40
0.0
  9
$CHAMFERB
 40
0.0
  9
$SKPOLY
 70
     0
  9
$TDCREATE
 40
2450267.486451955
  9
$TDUPDATE
 40
2450267.486451955
  9
$TDINDWG
 40
0.0
  9
$TDUSRTIMER
 40
0.0
  9
$USRTIMER
 70
     1
  9
$ANGBASE
 50
0.0
  9
$ANGDIR
 70
     0
  9
$PDMODE
 70
     0
  9
$PDSIZE
 40
0.0
  9
$PLINEWID
 40
0.0
  9
$COORDS
 70
     1
  9
$SPLFRAME
 70
     0
  9
$SPLINETYPE
 70
     6
  9
$SPLINESEGS
 70
     8
  9
$ATTDIA
 70
     0
  9
$ATTREQ
 70
     1
  9
$HANDLING
 70
     1
  9
$HANDSEED
  5
   956
  9
$SURFTAB1
 70
     6
  9
$SURFTAB2
 70
     6
  9
$SURFTYPE
 70
     6
  9
$SURFU
 70
     6
  9
$SURFV
 70
     6
  9
$UCSNAME
  2

  9
$UCSORG
 10
0.0
 20
0.0
 30
0.0
  9
$UCSXDIR
 10
1.0
 20
0.0
 30
0.0
  9
$UCSYDIR
 10
0.0
 20
1.0
 30
0.0
  9
$PUCSNAME
  2

  9
$PUCSORG
 10
0.0
 20
0.0
 30
0.0
  9
$PUCSXDIR
 10
1.0
 20
0.0
 30
0.0
  9
$PUCSYDIR
 10
0.0
 20
1.0
 30
0.0
  9
$USERI1
 70
     0
  9
$USERI2
 70
     0
  9
$USERI3
 70
     0
  9
$USERI4
 70
     0
  9
$USERI5
 70
     0
  9
$USERR1
 40
0.0
  9
$USERR2
 40
0.0
  9
$USERR3
 40
0.0
  9
$USERR4
 40
0.0
  9
$USERR5
 40
0.0
  9
$WORLDVIEW
 70
     1
  9
$SHADEDGE
 70
     3
  9
$SHADEDIF
 70
    70
  9
$TILEMODE
 70
     1
  9
$MAXACTVP
 70
    16
  9
$PINSBASE
 10
0.0
 20
0.0
 30
0.0
  9
$PLIMCHECK
 70
     0
  9
$PEXTMIN
 10
1.0E20
 20
1.0E20
 30
1.0E20
  9
$PEXTMAX
 10
-1.0E20
 20
-1.0E20
 30
-1.0E20
  9
$PLIMMIN
 10
0.0
 20
0.0
  9
$PLIMMAX
 10
12.0
 20
9.0
  9
$UNITMODE
 70
     0
  9
$VISRETAIN
 70
     0
  0
ENDSEC
  0
SECTION
  2
TABLES
  0
TABLE
  2
VPORT
 70
     1
  0
VPORT
  2
*ACTIVE
 70
     0
 10
0.0
 20
0.0
 11
1.0
 21
1.0
 12
6.801242
 22
4.5
 13
0.0
 23
0.0
 14
1.0
 24
1.0
 15
0.0
 25
0.0
 16
0.0
 26
0.0
 36
1.0
 17
0.0
 27
0.0
 37
0.0
 40
9.0
 41
1.511387
 42
50.0
 43
0.0
 44
0.0
 50
0.0
 51
0.0
 71
     0
 72
   100
 73
     1
 74
     1
 75
     0
 76
     0
 77
     0
 78
     0
  0
ENDTAB
  0
TABLE
  2
LTYPE
 70
    41
  0
LTYPE
  2
BYBLOCK
 70
     0
  3

 72
    65
 73
     0
 40
0.0
  0
LTYPE
  2
BYLAYER
 70
     0
  3

 72
    65
 73
     0
 40
0.0
  0
LTYPE
  2
CONTINUOUS
 70
     0
  3
Solid line
 72
    65
 73
     0
 40
0.0
  0
LTYPE
  2
BORDER
 70
    64
  3
__ __ . __ __ . __ __ . __ __ . __ __ . __ __ .
 72
    65
 73
     6
 40
1.75
 49
0.5
 49
-0.25
 49
0.5
 49
-0.25
 49
0.0
 49
-0.25
  0
LTYPE
  2
BORDER2
 70
    64
  3
__.__.__.__.__.__.__.__.__.__.__.__.__.__.__.__
 72
    65
 73
     6
 40
0.875
 49
0.25
 49
-0.125
 49
0.25
 49
-0.125
 49
0.0
 49
-0.125
  0
LTYPE
  2
BORDERX2
 70
    64
  3
____  ____  .  ____  ____  .  ____  ____  .  __
 72
    65
 73
     6
 40
3.5
 49
1.0
 49
-0.5
 49
1.0
 49
-0.5
 49
0.0
 49
-0.5
  0
LTYPE
  2
CENTER
 70
    64
  3
____ _ ____ _ ____ _ ____ _ ____ _ ____ _ ____
 72
    65
 73
     4
 40
2.0
 49
1.25
 49
-0.25
 49
0.25
 49
-0.25
  0
LTYPE
  2
CENTER2
 70
    64
  3
___ _ ___ _ ___ _ ___ _ ___ _ ___ _ ___ _ ___ _
 72
    65
 73
     4
 40
1.125
 49
0.75
 49
-0.125
 49
0.125
 49
-0.125
  0
LTYPE
  2
CENTERX2
 70
    64
  3
________  __  ________  __  ________  __  _____
 72
    65
 73
     4
 40
4.0
 49
2.5
 49
-0.5
 49
0.5
 49
-0.5
  0
LTYPE
  2
DASHDOT
 70
    64
  3
__ . __ . __ . __ . __ . __ . __ . __ . __ . __
 72
    65
 73
     4
 40
1.0
 49
0.5
 49
-0.25
 49
0.0
 49
-0.25
  0
LTYPE
  2
DASHDOT2
 70
    64
  3
_._._._._._._._._._._._._._._._._._._._._._._._
 72
    65
 73
     4
 40
0.5
 49
0.25
 49
-0.125
 49
0.0
 49
-0.125
  0
LTYPE
  2
DASHDOTX2
 70
    64
  3
____  .  ____  .  ____  .  ____  .  ____  .  __
 72
    65
 73
     4
 40
2.0
 49
1.0
 49
-0.5
 49
0.0
 49
-0.5
  0
LTYPE
  2
DASHED
 70
    64
  3
__ __ __ __ __ __ __ __ __ __ __ __ __ __ __ __
 72
    65
 73
     2
 40
0.75
 49
0.5
 49
-0.25
  0
LTYPE
  2
DASHED2
 70
    64
  3
_ _ _ _ _ _ _ _ _ _ _ _ _ _ _ _ _ _ _ _ _ _ _ _
 72
    65
 73
     2
 40
0.375
 49
0.25
 49
-0.125
  0
LTYPE
  2
DASHEDX2
 70
    64
  3
____  ____  ____  ____  ____  ____  ____  ____
 72
    65
 73
     2
 40
1.5
 49
1.0
 49
-0.5
  0
LTYPE
  2
DIVIDE
 70
    64
  3
____ . . ____ . . ____ . . ____ . . ____ . . __
 72
    65
 73
     6
 40
1.25
 49
0.5
 49
-0.25
 49
0.0
 49
-0.25
 49
0.0
 49
-0.25
  0
LTYPE
  2
DIVIDE2
 70
    64
  3
__..__..__..__..__..__..__..__..__..__..__..__.
 72
    65
 73
     6
 40
0.625
 49
0.25
 49
-0.125
 49
0.0
 49
-0.125
 49
0.0
 49
-0.125
  0
LTYPE
  2
DIVIDEX2
 70
    64
  3
________  .  .  ________  .  .  ________  .  .
 72
    65
 73
     6
 40
2.5
 49
1.0
 49
-0.5
 49
0.0
 49
-0.5
 49
0.0
 49
-0.5
  0
LTYPE
  2
DOT
 70
    64
  3
. . . . . . . . . . . . . . . . . . . . . . . .
 72
    65
 73
     2
 40
0.25
 49
0.0
 49
-0.25
  0
LTYPE
  2
DOT2
 70
    64
  3
...............................................
 72
    65
 73
     2
 40
0.125
 49
0.0
 49
-0.125
  0
LTYPE
  2
DOTX2
 70
    64
  3
.  .  .  .  .  .  .  .  .  .  .  .  .  .  .  .
 72
    65
 73
     2
 40
0.5
 49
0.0
 49
-0.5
  0
LTYPE
  2
HIDDEN
 70
    64
  3
__ __ __ __ __ __ __ __ __ __ __ __ __ __ __ __
 72
    65
 73
     2
 40
0.375
 49
0.25
 49
-0.125
  0
LTYPE
  2
HIDDEN2
 70
    64
  3
_ _ _ _ _ _ _ _ _ _ _ _ _ _ _ _ _ _ _ _ _ _ _ _
 72
    65
 73
     2
 40
0.1875
 49
0.125
 49
-0.0625
  0
LTYPE
  2
HIDDENX2
 70
    64
  3
____ ____ ____ ____ ____ ____ ____ ____ ____ __
 72
    65
 73
     2
 40
0.75
 49
0.5
 49
-0.25
  0
LTYPE
  2
PHANTOM
 70
    64
  3
______  __  __  ______  __  __  ______  __  __
 72
    65
 73
     6
 40
2.5
 49
1.25
 49
-0.25
 49
0.25
 49
-0.25
 49
0.25
 49
-0.25
  0
LTYPE
  2
PHANTOM2
 70
    64
  3
___ _ _ ___ _ _ ___ _ _ ___ _ _ ___ _ _ ___ _ _
 72
    65
 73
     6
 40
1.25
 49
0.625
 49
-0.125
 49
0.125
 49
-0.125
 49
0.125
 49
-0.125
  0
LTYPE
  2
PHANTOMX2
 70
    64
  3
____________    ____    ____    ____________
 72
    65
 73
     6
 40
5.0
 49
2.5
 49
-0.5
 49
0.5
 49
-0.5
 49
0.5
 49
-0.5
  0
LTYPE
  2
ACAD_ISO02W100
 70
    64
  3
__ __ __ __ __ __ __ __ __ __ __ __ __ __ __ __
 72
    65
 73
     2
 40
15.0
 49
12.0
 49
-3.0
  0
LTYPE
  2
ACAD_ISO03W100
 70
    64
  3
__    __    __    __    __    __    __    __
 72
    65
 73
     2
 40
30.0
 49
12.0
 49
-18.0
  0
LTYPE
  2
ACAD_ISO04W100
 70
    64
  3
____ . ____ . ____ . ____ . ____ . ____ . ____
 72
    65
 73
     4
 40
30.5
 49
24.0
 49
-3.0
 49
0.5
 49
-3.0
  0
LTYPE
  2
ACAD_ISO05W100
 70
    64
  3
____ .. ____ .. ____ .. ____ .. ____ .. ____ ..
 72
    65
 73
     6
 40
34.0
 49
24.0
 49
-3.0
 49
0.5
 49
-3.0
 49
0.5
 49
-3.0
  0
LTYPE
  2
ACAD_ISO06W100
 70
    64
  3
____ ... ____ ... ____ ... ____ ... ____ ... __
 72
    65
 73
     8
 40
37.5
 49
24.0
 49
-3.0
 49
0.5
 49
-3.0
 49
0.5
 49
-3.0
 49
0.5
 49
-3.0
  0
LTYPE
  2
ACAD_ISO07W100
 70
    64
  3
. . . . . . . . . . . . . . . . . . . . . . . .
 72
    65
 73
     2
 40
3.5
 49
0.5
 49
-3.0
  0
LTYPE
  2
ACAD_ISO08W100
 70
    64
  3
____ __ ____ __ ____ __ ____ ____ __ __ ____ __
 72
    65
 73
     4
 40
36.0
 49
24.0
 49
-3.0
 49
6.0
 49
-3.0
  0
LTYPE
  2
ACAD_ISO09W100
 70
    64
  3
____ __ __ ____ __ __ ____ __ __ ____ __ __ ___
 72
    65
 73
     6
 40
45.0
 49
24.0
 49
-3.0
 49
6.0
 49
-3.0
 49
6.0
 49
-3.0
  0
LTYPE
  2
ACAD_ISO10W100
 70
    64
  3
__ . __ . __ . __ . __ . __ . __ . __ . __ . __
 72
    65
 73
     4
 40
18.5
 49
12.0
 49
-3.0
 49
0.5
 49
-3.0
  0
LTYPE
  2
ACAD_ISO11W100
 70
    64
  3
__ __ . __ __ . __ __ . __ __ . __ __ . __ __ .
 72
    65
 73
     6
 40
33.5
 49
12.0
 49
-3.0
 49
12.0
 49
-3.0
 49
0.5
 49
-3.0
  0
LTYPE
  2
ACAD_ISO12W100
 70
    64
  3
__ . . __ . . __ . . __ . . __ . . __ . . __ .
 72
    65
 73
     6
 40
22.0
 49
12.0
 49
-3.0
 49
0.5
 49
-3.0
 49
0.5
 49
-3.0
  0
LTYPE
  2
ACAD_ISO13W100
 70
    64
  3
__ __ . . __ __ . . __ __ . . __ __ . . __ __ .
 72
    65
 73
     8
 40
37.0
 49
12.0
 49
-3.0
 49
12.0
 49
-3.0
 49
0.5
 49
-3.0
 49
0.5
 49
-3.0
  0
LTYPE
  2
ACAD_ISO14W100
 70
    64
  3
__ . . . __ . . . __ . . . __ . . . __ . . . __
 72
    65
 73
     8
 40
25.5
 49
12.0
 49
-3.0
 49
0.5
 49
-3.0
 49
0.5
 49
-3.0
 49
0.5
 49
-3.0
  0
LTYPE
  2
ACAD_ISO15W100
 70
    64
  3
__ __ . . . __ __ . . . __ __ . . . __ __ . . .
 72
    65
 73
    10
 40
40.5
 49
12.0
 49
-3.0
 49
12.0
 49
-3.0
 49
0.5
 49
-3.0
 49
0.5
 49
-3.0
 49
0.5
 49
-3.0
  0
ENDTAB
  0
TABLE
  2
STYLE
 70
     4
  0
STYLE
  2
STANDARD
 70
    64
 40
0.0
 41
1.0
 50
0.0
 71
     0
 42
0.2
  3
txt
  4

  0
STYLE
  2
TOLERANCE
 70
    64
 40
0.0
 41
1.0
 50
0.0
 71
     0
 42
0.2
  3
iges1003.shx
  4

  0
STYLE
  2
ROMANS
 70
    64
 40
0.0
 41
1.0
 50
0.0
 71
     0
 42
0.2
  3
romans.shx
  4

  0
STYLE
  2
ROMANC
 70
    64
 40
0.0
 41
1.0
 50
0.0
 71
     0
 42
0.2
  3
romanc.shx
  4

  0
ENDTAB
  0
TABLE
  2
DIMSTYLE
 70
     2
  0
DIMSTYLE
  2
UNNAMED
 70
     0
  3

  4

  5

  6

  7

 40
1.0
 41
0.18
 42
0.0625
 43
0.38
 44
0.18
 45
0.0
 46
0.0
 47
0.0
 48
0.0
140
0.18
141
0.09
142
0.0
143
25.4
144
1.0
145
0.0
146
1.0
147
0.09
 71
     0
 72
     0
 73
     1
 74
     1
 75
     0
 76
     0
 77
     0
 78
     0
170
     0
171
     2
172
     0
173
     0
174
     0
175
     0
176
     0
177
     0
178
     0
  0
DIMSTYLE
  2
STANDARD
 70
     0
  3

  4

  5

  6

  7

 40
1.0
 41
0.18
 42
0.0625
 43
0.38
 44
0.18
 45
0.0
 46
0.0
 47
0.0
 48
0.0
140
0.18
141
0.09
142
0.0
143
25.4
144
1.0
145
0.0
146
1.0
147
0.09
 71
     0
 72
     0
 73
     1
 74
     1
 75
     0
 76
     0
 77
     0
 78
     0
170
     0
171
     2
172
     0
173
     0
174
     0
175
     0
176
     0
177
     0
178
     0
  0
ENDTAB
  0
TABLE
  2
LAYER
 70
     2
  0
LAYER
  2
0
 70
     0
 62
     7
  6
CONTINUOUS
  0
LAYER
  2
255
 70
     0
 62
     7
  6
CONTINUOUS
  0
ENDTAB
  0
ENDSEC
  0
SECTION
  2
BLOCKS
  0
BLOCK
  5
     B
  8
0
  6
CONTINUOUS
 62
     7
  2
*UDIM1860
 70
    65
 10
0.0
 20
0.0
 30
0.0
  3
*UDIM1860
  0
LINE
  5
     C
  8
0
  6
CONTINUOUS
 62
     7
 10
113.134387969971
 20
174.671829223633
 30
0.0
 11
85.5248396010776
 21
174.671829223633
 31
0.0
  0
LINE
  5
     D
  8
0
  6
CONTINUOUS
 62
     7
 10
114.720188140869
 20
213.671829223633
 30
0.0
 11
85.5248396010776
 21
213.671829223633
 31
0.0
  0
LINE
  5
     E
  8
0
  6
CONTINUOUS
 62
     7
 10
87.5248396010776
 20
174.671829223633
 30
0.0
 11
87.5248396010776
 21
213.671829223633
 31
0.0
  0
LINE
  5
     F
  8
0
  6
CONTINUOUS
 62
     7
 10
86.748382444659
 20
177.569606696843
 30
0.0
 11
87.5248396010776
 21
174.671829223633
 31
0.0
  0
LINE
  5
    10
  8
0
  6
CONTINUOUS
 62
     7
 10
87.5248396010776
 20
174.671829223633
 30
0.0
 11
88.3012967574961
 21
177.569606696843
 31
0.0
  0
LINE
  5
    11
  8
0
  6
CONTINUOUS
 62
     7
 10
88.3012967574961
 20
210.774051750422
 30
0.0
 11
87.5248396010776
 21
213.671829223633
 31
0.0
  0
LINE
  5
    12
  8
0
  6
CONTINUOUS
 62
     7
 10
87.5248396010776
 20
213.671829223633
 30
0.0
 11
86.748382444659
 21
210.774051750422
 31
0.0
  0
TEXT
  5
    13
  8
0
  6
CONTINUOUS
 62
     7
 10
86.5248396010807
 20
191.671829198799
 30
0.0
 40
3.00000002980232
  1
78
 50
90.0
 41
0.933333333333333
 72
     1
 11
85.0248395861764
 21
194.171829223633
 31
0.0
 73
     2
  0
ENDBLK
  5
    14
  8
0
  6
CONTINUOUS
 62
     7
  0
BLOCK
  5
    15
  8
0
  6
CONTINUOUS
 62
     7
  2
*UDIM1861
 70
    65
 10
0.0
 20
0.0
 30
0.0
  3
*UDIM1861
  0
LINE
  5
    16
  8
0
  6
CONTINUOUS
 62
     7
 10
109.634387207034
 20
214.671829223633
 30
0.0
 11
109.634387207034
 21
230.479676472784
 31
0.0
  0
LINE
  5
    17
  8
0
  6
CONTINUOUS
 62
     7
 10
153.734387207031
 20
214.671829223633
 30
0.0
 11
153.734387207031
 21
230.479676472784
 31
0.0
  0
LINE
  5
    18
  8
0
  6
CONTINUOUS
 62
     7
 10
109.634387207034
 20
228.479676472784
 30
0.0
 11
153.734387207031
 21
228.479676472784
 31
0.0
  0
LINE
  5
    19
  8
0
  6
CONTINUOUS
 62
     7
 10
112.532164680245
 20
229.256133629202
 30
0.0
 11
109.634387207034
 21
228.479676472784
 31
0.0
  0
LINE
  5
    1A
  8
0
  6
CONTINUOUS
 62
     7
 10
109.634387207034
 20
228.479676472784
 30
0.0
 11
112.532164680245
 21
227.703219316365
 31
0.0
  0
LINE
  5
    1B
  8
0
  6
CONTINUOUS
 62
     7
 10
150.836609733821
 20
227.703219316365
 30
0.0
 11
153.734387207031
 21
228.479676472784
 31
0.0
  0
LINE
  5
    1C
  8
0
  6
CONTINUOUS
 62
     7
 10
153.734387207031
 20
228.479676472784
 30
0.0
 11
150.836609733821
 21
229.256133629202
 31
0.0
  0
TEXT
  5
    1D
  8
0
  6
CONTINUOUS
 62
     7
 10
126.384387154382
 20
229.479676472784
 30
0.0
 40
3.00000002980232
  1
88,2
 41
0.933333333333333
 72
     1
 11
131.684387207033
 21
230.979676487685
 31
0.0
 73
     2
  0
TEXT
  5
    1E
  8
0
  6
CONTINUOUS
 62
     7
 10
127.78438716829
 20
225.479676442981
 30
0.0
 40
3.00000002980232
  1
= =
 41
0.933333333333333
 72
     1
 11
131.684387207033
 21
226.979676457883
 31
0.0
 73
     2
  0
ENDBLK
  5
    1F
  8
0
  6
CONTINUOUS
 62
     7
  0
BLOCK
  5
    20
  8
0
  6
CONTINUOUS
 62
     7
  2
*UDIM1862
 70
    65
 10
0.0
 20
0.0
 30
0.0
  3
*UDIM1862
  0
LINE
  5
    21
  8
0
  6
CONTINUOUS
 62
     7
 10
100.921770108691
 20
196.921829223633
 30
0.0
 11
93.8068595501161
 21
196.921829223633
 31
0.0
  0
LINE
  5
    22
  8
0
  6
CONTINUOUS
 62
     7
 10
114.720188140869
 20
213.671829223633
 30
0.0
 11
93.8068595501161
 21
213.671829223633
 31
0.0
  0
LINE
  5
    23
  8
0
  6
CONTINUOUS
 62
     7
 10
95.8068595501162
 20
191.921829223633
 30
0.0
 11
95.8068595501162
 21
218.671829223633
 31
0.0
  0
LINE
  5
    24
  8
0
  6
CONTINUOUS
 62
     7
 10
96.5833167065347
 20
194.024051750422
 30
0.0
 11
95.8068595501162
 21
196.921829223633
 31
0.0
  0
LINE
  5
    25
  8
0
  6
CONTINUOUS
 62
     7
 10
95.8068595501162
 20
196.921829223633
 30
0.0
 11
95.0304023936976
 21
194.024051750422
 31
0.0
  0
LINE
  5
    26
  8
0
  6
CONTINUOUS
 62
     7
 10
95.0304023936976
 20
216.569606696843
 30
0.0
 11
95.8068595501162
 21
213.671829223633
 31
0.0
  0
LINE
  5
    27
  8
0
  6
CONTINUOUS
 62
     7
 10
95.8068595501162
 20
213.671829223633
 30
0.0
 11
96.5833167065347
 21
216.569606696843
 31
0.0
  0
TEXT
  5
    28
  8
0
  6
CONTINUOUS
 62
     7
 10
94.8068595501228
 20
199.996829170984
 30
0.0
 40
3.00000002980232
  1
33,5
 50
90.0
 41
0.933333333333333
 72
     1
 11
93.306859535215
 21
205.296829223633
 31
0.0
 73
     2
  0
ENDBLK
  5
    29
  8
0
  6
CONTINUOUS
 62
     7
  0
BLOCK
  5
    2A
  8
0
  6
CONTINUOUS
 62
     7
  2
*HATCH1601
 70
    65
 10
0.0
 20
0.0
 30
0.0
  3
*HATCH1601
  0
LINE
  5
    2B
  8
0
  6
CONTINUOUS
 62
    92
 10
241.520696547803
 20
258.96054840982
 30
0.0
 11
239.770696577605
 21
257.210548439622
 31
0.0
  0
LINE
  5
    2C
  8
0
  6
CONTINUOUS
 62
    92
 10
244.490545511509
 20
258.96054840982
 30
0.0
 11
242.740545541311
 21
257.210548439622
 31
0.0
  0
ENDBLK
  5
    2D
  8
0
  6
CONTINUOUS
 62
     7
  0
BLOCK
  5
    2E
  8
0
  6
CONTINUOUS
 62
     7
  2
*HATCH1602
 70
    65
 10
0.0
 20
0.0
 30
0.0
  3
*HATCH1602
  0
LINE
  5
    2F
  8
0
  6
CONTINUOUS
 62
    92
 10
222.142061089855
 20
266.310550954938
 30
0.0
 11
222.104041528735
 21
266.272531393818
 31
0.0
  0
LINE
  5
    30
  8
0
  6
CONTINUOUS
 62
    92
 10
225.111907383273
 20
266.310550954938
 30
0.0
 11
222.104041528735
 21
263.302682430112
 31
0.0
  0
LINE
  5
    31
  8
0
  6
CONTINUOUS
 62
    92
 10
225.254041475091
 20
263.48283608305
 30
0.0
 11
222.104041528735
 21
260.332836136694
 31
0.0
  0
LINE
  5
    32
  8
0
  6
CONTINUOUS
 62
    92
 10
225.254041475091
 20
260.512987119344
 30
0.0
 11
222.104041528735
 21
257.362989843276
 31
0.0
  0
LINE
  5
    33
  8
0
  6
CONTINUOUS
 62
    92
 10
225.254041475091
 20
257.543138155638
 30
0.0
 11
224.921451759075
 21
257.210548439622
 31
0.0
  0
ENDBLK
  5
    34
  8
0
  6
CONTINUOUS
 62
     7
  0
BLOCK
  5
    35
  8
0
  6
CONTINUOUS
 62
     7
  2
*HATCH1603
 70
    65
 10
0.0
 20
0.0
 30
0.0
  3
*HATCH1603
  0
LINE
  5
    36
  8
0
  6
CONTINUOUS
 62
    92
 10
239.961152201803
 20
266.310550954938
 30
0.0
 11
238.554041248593
 21
264.903440001728
 31
0.0
  0
LINE
  5
    37
  8
0
  6
CONTINUOUS
 62
    92
 10
242.930998495221
 20
266.310550954938
 30
0.0
 11
241.180998525024
 21
264.56055098474
 31
0.0
  0
LINE
  5
    38
  8
0
  6
CONTINUOUS
 62
    92
 10
244.504041147266
 20
264.913744643276
 30
0.0
 11
244.15084748873
 21
264.56055098474
 31
0.0
  0
ENDBLK
  5
    39
  8
0
  6
CONTINUOUS
 62
     7
  0
BLOCK
  5
    3A
  8
0
  6
CONTINUOUS
 62
     7
  2
*HATCH1604
 70
    65
 10
0.0
 20
0.0
 30
0.0
  3
*HATCH1604
  0
LINE
  5
    3B
  8
0
  6
CONTINUOUS
 62
    52
 10
227.004041445289
 20
257.212673988902
 30
0.0
 11
227.706166982648
 21
256.510548451543
 31
0.0
  0
LINE
  5
    3C
  8
0
  6
CONTINUOUS
 62
    52
 10
227.004041445289
 20
258.697599805899
 30
0.0
 11
229.191092799645
 21
256.510548451543
 31
0.0
  0
LINE
  5
    3D
  8
0
  6
CONTINUOUS
 62
    52
 10
227.004041445289
 20
260.182525622896
 30
0.0
 11
230.676018616642
 21
256.510548451543
 31
0.0
  0
LINE
  5
    3E
  8
0
  6
CONTINUOUS
 62
    52
 10
227.004041445289
 20
261.667451439893
 30
0.0
 11
232.160944433639
 21
256.510548451543
 31
0.0
  0
LINE
  5
    3F
  8
0
  6
CONTINUOUS
 62
    52
 10
227.004041445289
 20
263.15237725689
 30
0.0
 11
233.645870250636
 21
256.510548451543
 31
0.0
  0
LINE
  5
    40
  8
0
  6
CONTINUOUS
 62
    52
 10
227.004041445289
 20
264.637303073887
 30
0.0
 11
235.130796067633
 21
256.510548451543
 31
0.0
  0
LINE
  5
    41
  8
0
  6
CONTINUOUS
 62
    52
 10
227.004041445289
 20
266.122223550308
 30
0.0
 11
235.052081316776
 21
258.074172997669
 31
0.0
  0
LINE
  5
    42
  8
0
  6
CONTINUOUS
 62
    52
 10
235.915705874823
 20
257.210548439622
 30
0.0
 11
236.452081292935
 21
256.67417302151
 31
0.0
  0
LINE
  5
    43
  8
0
  6
CONTINUOUS
 62
    52
 10
227.950642533905
 20
266.66054827869
 30
0.0
 11
236.000631715662
 21
258.61054841578
 31
0.0
  0
LINE
  5
    44
  8
0
  6
CONTINUOUS
 62
    52
 10
229.435563010326
 20
266.66054827869
 30
0.0
 11
236.452081292935
 21
259.644024655504
 31
0.0
  0
LINE
  5
    45
  8
0
  6
CONTINUOUS
 62
    52
 10
230.920488827323
 20
266.66054827869
 30
0.0
 11
236.452081292935
 21
261.128950472501
 31
0.0
  0
LINE
  5
    46
  8
0
  6
CONTINUOUS
 62
    52
 10
232.40541464432
 20
266.66054827869
 30
0.0
 11
236.452081292935
 21
262.613876289498
 31
0.0
  0
LINE
  5
    47
  8
0
  6
CONTINUOUS
 62
    52
 10
233.890335120741
 20
266.66054827869
 30
0.0
 11
235.052081316776
 21
265.498799412366
 31
0.0
  0
LINE
  5
    48
  8
0
  6
CONTINUOUS
 62
    52
 10
235.640335090938
 20
264.91055097878
 30
0.0
 11
236.452081292935
 21
264.098799436207
 31
0.0
  0
LINE
  5
    49
  8
0
  6
CONTINUOUS
 62
    52
 10
235.375255597161
 20
266.66054827869
 30
0.0
 11
235.725255591201
 21
266.310550954938
 31
0.0
  0
ENDBLK
  5
    4A
  8
0
  6
CONTINUOUS
 62
     7
  0
BLOCK
  5
    4B
  8
0
  6
CONTINUOUS
 62
     7
  2
*HATCH1605
 70
    65
 10
0.0
 20
0.0
 30
0.0
  3
*HATCH1605
  0
LINE
  5
    4C
  8
0
  6
CONTINUOUS
 62
    52
 10
233.818675270887
 20
243.833911399358
 30
0.0
 11
232.087954780341
 21
242.103190908813
 31
0.0
  0
LINE
  5
    4D
  8
0
  6
CONTINUOUS
 62
    52
 10
235.260753645986
 20
243.791058616885
 30
0.0
 11
232.950003868444
 21
241.480314179918
 31
0.0
  0
LINE
  5
    4E
  8
0
  6
CONTINUOUS
 62
    52
 10
236.286865231295
 20
243.332249725773
 30
0.0
 11
234.084619937989
 21
241.130004432466
 31
0.0
  0
LINE
  5
    4F
  8
0
  6
CONTINUOUS
 62
    52
 10
237.057334120762
 20
242.617792798243
 30
0.0
 11
235.911406711078
 21
241.471865388558
 31
0.0
  0
ENDBLK
  5
    50
  8
0
  6
CONTINUOUS
 62
     7
  0
BLOCK
  5
    51
  8
0
  6
CONTINUOUS
 62
     7
  2
*HATCH1606
 70
    65
 10
0.0
 20
0.0
 30
0.0
  3
*HATCH1606
  0
LINE
  5
    52
  8
0
  6
CONTINUOUS
 62
    92
 10
227.004041445289
 20
259.293138125835
 30
0.0
 11
225.271457093691
 21
257.560548433662
 31
0.0
  0
ENDBLK
  5
    53
  8
0
  6
CONTINUOUS
 62
     7
  0
BLOCK
  5
    54
  8
0
  6
CONTINUOUS
 62
     7
  2
*HATCH1607
 70
    65
 10
0.0
 20
0.0
 30
0.0
  3
*HATCH1607
  0
LINE
  5
    55
  8
0
  6
CONTINUOUS
 62
    92
 10
228.611912664245
 20
269.810550895333
 30
0.0
 11
225.254041475091
 21
266.452685046756
 31
0.0
  0
LINE
  5
    56
  8
0
  6
CONTINUOUS
 62
    92
 10
227.004041445289
 20
265.232836053247
 30
0.0
 11
225.631759058991
 21
263.860550996661
 31
0.0
  0
ENDBLK
  5
    57
  8
0
  6
CONTINUOUS
 62
     7
  0
BLOCK
  5
    58
  8
0
  6
CONTINUOUS
 62
     7
  2
*HATCH1608
 70
    65
 10
0.0
 20
0.0
 30
0.0
  3
*HATCH1608
  0
LINE
  5
    59
  8
0
  6
CONTINUOUS
 62
    92
 10
225.976760273818
 20
362.210551992059
 30
0.0
 11
225.254041475091
 21
361.487833193331
 31
0.0
  0
LINE
  5
    5A
  8
0
  6
CONTINUOUS
 62
    92
 10
227.004041445289
 20
360.267981529535
 30
0.0
 11
225.279078095758
 21
358.543018180005
 31
0.0
  0
LINE
  5
    5B
  8
0
  6
CONTINUOUS
 62
    92
 10
227.74985289499
 20
358.043946685818
 30
0.0
 11
226.507688304328
 21
356.801782095156
 31
0.0
  0
LINE
  5
    5C
  8
0
  6
CONTINUOUS
 62
    92
 10
229.364693565732
 20
356.688935722566
 30
0.0
 11
228.936309936552
 21
356.260552093387
 31
0.0
  0
ENDBLK
  5
    5D
  8
0
  6
CONTINUOUS
 62
     7
  0
BLOCK
  5
    5E
  8
0
  6
CONTINUOUS
 62
     7
  2
*HATCH1609
 70
    65
 10
0.0
 20
0.0
 30
0.0
  3
*HATCH1609
  0
LINE
  5
    5F
  8
0
  6
CONTINUOUS
 62
    92
 10
226.337067579694
 20
368.51055188477
 30
0.0
 11
225.254041475091
 21
367.427525780167
 31
0.0
  0
ENDBLK
  5
    60
  8
0
  6
CONTINUOUS
 62
     7
  0
BLOCK
  5
    61
  8
0
  6
CONTINUOUS
 62
     7
  2
*HATCH1610
 70
    65
 10
0.0
 20
0.0
 30
0.0
  3
*HATCH1610
  0
LINE
  5
    62
  8
0
  6
CONTINUOUS
 62
    92
 10
253.225092405607
 20
258.785553753376
 30
0.0
 11
251.504043698344
 21
257.064499705537
 31
0.0
  0
LINE
  5
    63
  8
0
  6
CONTINUOUS
 62
    92
 10
256.194941369313
 20
258.785553753376
 30
0.0
 11
253.814940341729
 21
256.405552725792
 31
0.0
  0
LINE
  5
    64
  8
0
  6
CONTINUOUS
 62
    92
 10
252.554043680463
 20
255.144653394238
 30
0.0
 11
251.504043698344
 21
254.094653412119
 31
0.0
  0
LINE
  5
    65
  8
0
  6
CONTINUOUS
 62
    92
 10
259.164788997875
 20
258.785553753376
 30
0.0
 11
256.784789305435
 21
256.405552725792
 31
0.0
  0
LINE
  5
    66
  8
0
  6
CONTINUOUS
 62
    92
 10
255.244788797604
 20
254.865549547672
 30
0.0
 11
253.914787752138
 21
253.535553842783
 31
0.0
  0
LINE
  5
    67
  8
0
  6
CONTINUOUS
 62
    92
 10
262.354042178426
 20
259.004955299933
 30
0.0
 11
259.754638269141
 21
256.405552725792
 31
0.0
  0
LINE
  5
    68
  8
0
  6
CONTINUOUS
 62
    92
 10
258.21463776131
 20
254.865549547672
 30
0.0
 11
256.884636715844
 21
253.535548502207
 31
0.0
  0
LINE
  5
    69
  8
0
  6
CONTINUOUS
 62
    92
 10
261.184486725016
 20
254.865549547672
 30
0.0
 11
259.854484344406
 21
253.535548502207
 31
0.0
  0
ENDBLK
  5
    6A
  8
0
  6
CONTINUOUS
 62
     7
  0
BLOCK
  5
    6B
  8
0
  6
CONTINUOUS
 62
     7
  2
*HATCH1611
 70
    65
 10
0.0
 20
0.0
 30
0.0
  3
*HATCH1611
  0
LINE
  5
    6C
  8
0
  6
CONTINUOUS
 62
    92
 10
252.370699033317
 20
269.810550895333
 30
0.0
 11
251.504043698344
 21
268.943895560361
 31
0.0
  0
LINE
  5
    6D
  8
0
  6
CONTINUOUS
 62
    92
 10
253.065545365478
 20
267.535550934076
 30
0.0
 11
251.504043698344
 21
265.974046596655
 31
0.0
  0
LINE
  5
    6E
  8
0
  6
CONTINUOUS
 62
    92
 10
256.035394329184
 20
267.535550934076
 30
0.0
 11
253.235394376867
 21
264.73555098176
 31
0.0
  0
LINE
  5
    6F
  8
0
  6
CONTINUOUS
 62
    92
 10
259.00524329289
 20
267.535550934076
 30
0.0
 11
256.205243340573
 21
264.73555098176
 31
0.0
  0
LINE
  5
    70
  8
0
  6
CONTINUOUS
 62
    92
 10
261.975092256596
 20
267.535550934076
 30
0.0
 11
259.175092304279
 21
264.73555098176
 31
0.0
  0
LINE
  5
    71
  8
0
  6
CONTINUOUS
 62
    92
 10
263.754042154584
 20
266.344653203503
 30
0.0
 11
262.494941262025
 21
265.0855509758
 31
0.0
  0
LINE
  5
    72
  8
0
  6
CONTINUOUS
 62
    92
 10
262.354042178426
 20
264.944653227345
 30
0.0
 11
261.444941279906
 21
264.035550993681
 31
0.0
  0
ENDBLK
  5
    73
  8
0
  6
CONTINUOUS
 62
     7
  0
BLOCK
  5
    74
  8
0
  6
CONTINUOUS
 62
     7
  2
*HATCH1612
 70
    65
 10
0.0
 20
0.0
 30
0.0
  3
*HATCH1612
  0
LINE
  5
    75
  8
0
  6
CONTINUOUS
 62
    92
 10
251.830398291786
 20
361.33555200696
 30
0.0
 11
251.504043698344
 21
361.009194743231
 31
0.0
  0
LINE
  5
    76
  8
0
  6
CONTINUOUS
 62
    92
 10
254.800247255492
 20
361.33555200696
 30
0.0
 11
251.504043698344
 21
358.039348449813
 31
0.0
  0
LINE
  5
    77
  8
0
  6
CONTINUOUS
 62
    92
 10
257.770096219198
 20
361.33555200696
 30
0.0
 11
254.970098937169
 21
358.535552054644
 31
0.0
  0
LINE
  5
    78
  8
0
  6
CONTINUOUS
 62
    92
 10
252.904043674502
 20
356.469496791977
 30
0.0
 11
252.695096305624
 21
356.260552093387
 31
0.0
  0
LINE
  5
    79
  8
0
  6
CONTINUOUS
 62
    92
 10
261.439945170983
 20
362.035551995039
 30
0.0
 11
260.954042202268
 21
361.549645020892
 31
0.0
  0
LINE
  5
    7A
  8
0
  6
CONTINUOUS
 62
    92
 10
260.739945182904
 20
361.33555200696
 30
0.0
 11
257.939947900875
 21
358.535552054644
 31
0.0
  0
LINE
  5
    7B
  8
0
  6
CONTINUOUS
 62
    92
 10
263.264042964015
 20
360.889800824366
 30
0.0
 11
260.909795529437
 21
358.535552054644
 31
0.0
  0
ENDBLK
  5
    7C
  8
0
  6
CONTINUOUS
 62
     7
  0
BLOCK
  5
    7D
  8
0
  6
CONTINUOUS
 62
     7
  2
*HATCH1613
 70
    65
 10
0.0
 20
0.0
 30
0.0
  3
*HATCH1613
  0
LINE
  5
    7E
  8
0
  6
CONTINUOUS
 62
    92
 10
254.120853880221
 20
372.535551816225
 30
0.0
 11
252.790855505043
 21
371.20555077076
 31
0.0
  0
LINE
  5
    7F
  8
0
  6
CONTINUOUS
 62
    92
 10
252.554043680463
 20
370.968738946179
 30
0.0
 11
251.504043698344
 21
369.918738964061
 31
0.0
  0
LINE
  5
    80
  8
0
  6
CONTINUOUS
 62
    92
 10
257.090702843927
 20
372.535551816225
 30
0.0
 11
255.760701798461
 21
371.20555077076
 31
0.0
  0
LINE
  5
    81
  8
0
  6
CONTINUOUS
 62
    92
 10
254.220703960918
 20
369.66554759264
 30
0.0
 11
251.840702933334
 21
367.285551905632
 31
0.0
  0
LINE
  5
    82
  8
0
  6
CONTINUOUS
 62
    92
 10
260.060551807633
 20
372.535551816225
 30
0.0
 11
258.730550762167
 21
371.20555077076
 31
0.0
  0
LINE
  5
    83
  8
0
  6
CONTINUOUS
 62
    92
 10
257.190552924624
 20
369.66554759264
 30
0.0
 11
254.81055189704
 21
367.285551905632
 31
0.0
  0
LINE
  5
    84
  8
0
  6
CONTINUOUS
 62
    92
 10
262.348321086299
 20
371.853469460898
 30
0.0
 11
261.700399725873
 21
371.20555077076
 31
0.0
  0
LINE
  5
    85
  8
0
  6
CONTINUOUS
 62
    92
 10
260.160400553186
 20
369.66554759264
 30
0.0
 11
257.780400860746
 21
367.285551905632
 31
0.0
  0
LINE
  5
    86
  8
0
  6
CONTINUOUS
 62
    92
 10
262.354042178426
 20
368.889342924462
 30
0.0
 11
260.750248489308
 21
367.285551905632
 31
0.0
  0
ENDBLK
  5
    87
  8
0
  6
CONTINUOUS
 62
     7
  0
BLOCK
  5
    88
  8
0
  6
CONTINUOUS
 62
     7
  2
*HATCH1614
 70
    65
 10
0.0
 20
0.0
 30
0.0
  3
*HATCH1614
  0
LINE
  5
    89
  8
0
  6
CONTINUOUS
 62
    92
 10
243.44054552939
 20
257.910553768277
 30
0.0
 11
242.404043853316
 21
256.874049421915
 31
0.0
  0
LINE
  5
    8A
  8
0
  6
CONTINUOUS
 62
    92
 10
243.804043829475
 20
255.304197764079
 30
0.0
 11
242.404043853316
 21
253.904197787921
 31
0.0
  0
LINE
  5
    8B
  8
0
  6
CONTINUOUS
 62
    92
 10
246.405243507466
 20
254.935553818941
 30
0.0
 11
245.005243531308
 21
253.535553842783
 31
0.0
  0
LINE
  5
    8C
  8
0
  6
CONTINUOUS
 62
    92
 10
249.375092471172
 20
254.935553818941
 30
0.0
 11
247.975092495014
 21
253.535553842783
 31
0.0
  0
LINE
  5
    8D
  8
0
  6
CONTINUOUS
 62
    92
 10
251.504043698344
 20
254.094653412119
 30
0.0
 11
250.94494145872
 21
253.535553842783
 31
0.0
  0
ENDBLK
  5
    8E
  8
0
  6
CONTINUOUS
 62
     7
  0
BLOCK
  5
    8F
  8
0
  6
CONTINUOUS
 62
     7
  2
*HATCH1615
 70
    65
 10
0.0
 20
0.0
 30
0.0
  3
*HATCH1615
  0
LINE
  5
    90
  8
0
  6
CONTINUOUS
 62
    92
 10
218.302363126681
 20
268.410550919175
 30
0.0
 11
216.902363150522
 21
267.010550943017
 31
0.0
  0
LINE
  5
    91
  8
0
  6
CONTINUOUS
 62
    92
 10
221.272214760675
 20
268.410550919175
 30
0.0
 11
219.872214784517
 21
267.010550943017
 31
0.0
  0
LINE
  5
    92
  8
0
  6
CONTINUOUS
 62
    92
 10
224.204041492973
 20
268.372534028343
 30
0.0
 11
222.842061077934
 21
267.010550943017
 31
0.0
  0
ENDBLK
  5
    93
  8
0
  6
CONTINUOUS
 62
     7
  0
BLOCK
  5
    94
  8
0
  6
CONTINUOUS
 62
     7
  2
*HATCH1616
 70
    65
 10
0.0
 20
0.0
 30
0.0
  3
*HATCH1616
  0
LINE
  5
    95
  8
0
  6
CONTINUOUS
 62
    92
 10
231.581758957663
 20
269.810550895333
 30
0.0
 11
230.329014685784
 21
268.557806623455
 31
0.0
  0
LINE
  5
    96
  8
0
  6
CONTINUOUS
 62
    92
 10
230.181758981505
 20
268.410550919175
 30
0.0
 11
228.781759005346
 21
267.010550943017
 31
0.0
  0
LINE
  5
    97
  8
0
  6
CONTINUOUS
 62
    92
 10
233.82904132906
 20
269.087986973312
 30
0.0
 11
231.751605298764
 21
267.010550943017
 31
0.0
  0
LINE
  5
    98
  8
0
  6
CONTINUOUS
 62
    92
 10
236.121456908917
 20
268.410550919175
 30
0.0
 11
234.721456932758
 21
267.010550943017
 31
0.0
  0
LINE
  5
    99
  8
0
  6
CONTINUOUS
 62
    92
 10
239.091305872623
 20
268.410550919175
 30
0.0
 11
237.691305896464
 21
267.010550943017
 31
0.0
  0
LINE
  5
    9A
  8
0
  6
CONTINUOUS
 62
    92
 10
242.061154836329
 20
268.410550919175
 30
0.0
 11
240.66115486017
 21
267.010550943017
 31
0.0
  0
LINE
  5
    9B
  8
0
  6
CONTINUOUS
 62
    92
 10
245.031003800035
 20
268.410550919175
 30
0.0
 11
243.631003823876
 21
267.010550943017
 31
0.0
  0
LINE
  5
    9C
  8
0
  6
CONTINUOUS
 62
    92
 10
248.000852763741
 20
268.410550919175
 30
0.0
 11
246.600852787582
 21
267.010550943017
 31
0.0
  0
LINE
  5
    9D
  8
0
  6
CONTINUOUS
 62
    92
 10
250.970701727447
 20
268.410550919175
 30
0.0
 11
249.570701751288
 21
267.010550943017
 31
0.0
  0
ENDBLK
  5
    9E
  8
0
  6
CONTINUOUS
 62
     7
  0
BLOCK
  5
    9F
  8
0
  6
CONTINUOUS
 62
     7
  2
*HATCH1617
 70
    65
 10
0.0
 20
0.0
 30
0.0
  3
*HATCH1617
  0
LINE
  5
    A0
  8
0
  6
CONTINUOUS
 62
    92
 10
228.766458254875
 20
359.060552045703
 30
0.0
 11
228.404041421447
 21
358.698135212275
 31
0.0
  0
LINE
  5
    A1
  8
0
  6
CONTINUOUS
 62
    92
 10
231.736309888869
 20
359.060552045703
 30
0.0
 11
230.329036048088
 21
357.653278204923
 31
0.0
  0
LINE
  5
    A2
  8
0
  6
CONTINUOUS
 62
    92
 10
234.706156182287
 20
359.060552045703
 30
0.0
 11
231.90615622997
 21
356.260552093387
 31
0.0
  0
LINE
  5
    A3
  8
0
  6
CONTINUOUS
 62
    92
 10
237.676005145993
 20
359.060552045703
 30
0.0
 11
236.276005169834
 21
357.660552069545
 31
0.0
  0
LINE
  5
    A4
  8
0
  6
CONTINUOUS
 62
    92
 10
240.645854109699
 20
359.060552045703
 30
0.0
 11
239.24585413354
 21
357.660552069545
 31
0.0
  0
LINE
  5
    A5
  8
0
  6
CONTINUOUS
 62
    92
 10
243.615703073405
 20
359.060552045703
 30
0.0
 11
242.215703097246
 21
357.660552069545
 31
0.0
  0
LINE
  5
    A6
  8
0
  6
CONTINUOUS
 62
    92
 10
246.585552037111
 20
359.060552045703
 30
0.0
 11
245.185552060952
 21
357.660552069545
 31
0.0
  0
LINE
  5
    A7
  8
0
  6
CONTINUOUS
 62
    92
 10
249.555401000817
 20
359.060552045703
 30
0.0
 11
248.155401024658
 21
357.660552069545
 31
0.0
  0
LINE
  5
    A8
  8
0
  6
CONTINUOUS
 62
    92
 10
251.504043698344
 20
358.039343109237
 30
0.0
 11
251.125247318076
 21
357.660552069545
 31
0.0
  0
ENDBLK
  5
    A9
  8
0
  6
CONTINUOUS
 62
     7
  0
BLOCK
  5
    AA
  8
0
  6
CONTINUOUS
 62
     7
  2
*HATCH1618
 70
    65
 10
0.0
 20
0.0
 30
0.0
  3
*HATCH1618
  0
LINE
  5
    AB
  8
0
  6
CONTINUOUS
 62
    92
 10
217.937067722745
 20
360.110552027822
 30
0.0
 11
217.554041606221
 21
359.727525911298
 31
0.0
  0
LINE
  5
    AC
  8
0
  6
CONTINUOUS
 62
    92
 10
216.887067740627
 20
359.060552045703
 30
0.0
 11
215.594044843946
 21
357.767529149022
 31
0.0
  0
LINE
  5
    AD
  8
0
  6
CONTINUOUS
 62
    92
 10
220.906914016163
 20
360.110552027822
 30
0.0
 11
220.354041558538
 21
359.557679570196
 31
0.0
  0
LINE
  5
    AE
  8
0
  6
CONTINUOUS
 62
    92
 10
219.856914034045
 20
359.060552045703
 30
0.0
 11
218.456914057887
 21
357.660552069545
 31
0.0
  0
LINE
  5
    AF
  8
0
  6
CONTINUOUS
 62
    92
 10
222.826760327463
 20
359.060552045703
 30
0.0
 11
221.426760351304
 21
357.660552069545
 31
0.0
  0
ENDBLK
  5
    B0
  8
0
  6
CONTINUOUS
 62
     7
  0
BLOCK
  5
    B1
  8
0
  6
CONTINUOUS
 62
     7
  2
*HATCH1619
 70
    65
 10
0.0
 20
0.0
 30
0.0
  3
*HATCH1619
  0
LINE
  5
    B2
  8
0
  6
CONTINUOUS
 62
    92
 10
245.211309659391
 20
372.535551816225
 30
0.0
 11
243.811309683233
 21
371.135551840067
 31
0.0
  0
LINE
  5
    B3
  8
0
  6
CONTINUOUS
 62
    92
 10
243.804043829475
 20
371.128283316021
 30
0.0
 11
242.404043853316
 21
369.728283339863
 31
0.0
  0
LINE
  5
    B4
  8
0
  6
CONTINUOUS
 62
    92
 10
248.181158623097
 20
372.535551816225
 30
0.0
 11
246.781155976651
 21
371.135551840067
 31
0.0
  0
LINE
  5
    B5
  8
0
  6
CONTINUOUS
 62
    92
 10
251.151007586803
 20
372.535551816225
 30
0.0
 11
249.751004940357
 21
371.135551840067
 31
0.0
  0
ENDBLK
  5
    B6
  8
0
  6
CONTINUOUS
 62
     7
  0
BLOCK
  5
    B7
  8
0
  6
CONTINUOUS
 62
     7
  2
$1DADO
 70
    64
 10
0.0
 20
0.0
 30
0.0
  3
$1DADO
  0
POINT
  5
    B8
  8
0
  6
CONTINUOUS
 62
     7
 10
0.0
 20
0.0
 30
0.0
  0
ARC
  5
    B9
  8
0
  6
CONTINUOUS
 62
     7
 10
-5.0899999999997
 20
-1.4210854715202E-14
 30
0.0
 40
5.08999999999974
 50
334.391467869424
 51
385.608532130576
  0
ARC
  5
    BA
  8
0
  6
CONTINUOUS
 62
     7
 10
-5.0899999999997
 20
-1.4210854715202E-14
 30
0.0
 40
5.08999999999974
 50
334.391467869424
 51
385.608532130576
  0
ARC
  5
    BB
  8
0
  6
CONTINUOUS
 62
     7
 10
-0.94722499999996
 20
3.03499999999998
 30
0.0
 40
0.947225000000001
 50
298.173448635746
 51
421.826551364258
  0
LINE
  5
    BC
  8
0
  6
CONTINUOUS
 62
     7
 10
-3.50000000000001
 20
3.87
 30
0.0
 11
-0.499999999999954
 21
3.87
 31
0.0
  0
ARC
  5
    BD
  8
0
  6
CONTINUOUS
 62
     7
 10
-3.05277500000004
 20
3.03499999999998
 30
0.0
 40
0.947225000000001
 50
118.173448635742
 51
241.826551364254
  0
ARC
  5
    BE
  8
0
  6
CONTINUOUS
 62
     7
 10
1.0899999999997
 20
-1.4210854715202E-14
 30
0.0
 40
5.08999999999974
 50
154.391467869424
 51
205.608532130576
  0
LINE
  5
    BF
  8
0
  6
CONTINUOUS
 62
     7
 10
-8.0
 20
1.5
 30
0.0
 11
-4.0
 21
1.5
 31
0.0
  0
LINE
  5
    C0
  8
0
  6
CONTINUOUS
 62
     7
 10
-7.49999999999999
 20
2.0
 30
0.0
 11
-4.0
 21
2.0
 31
0.0
  0
LINE
  5
    C1
  8
0
  6
CONTINUOUS
 62
     7
 10
-8.0
 20
-1.5
 30
0.0
 11
-8.0
 21
1.5
 31
0.0
  0
LINE
  5
    C2
  8
0
  6
DASHDOT
 62
     7
 10
-9.54698811797346
 20
0.0
 30
0.0
 11
0.0
 21
0.0
 31
0.0
  0
LINE
  5
    C3
  8
0
  6
CONTINUOUS
 62
     7
 10
-7.99999999999999
 20
1.5
 30
0.0
 11
-7.49999999999999
 21
2.00000000000001
 31
0.0
  0
LINE
  5
    C4
  8
0
  6
CONTINUOUS
 62
     7
 10
-7.5
 20
-2.0
 30
0.0
 11
-7.5
 21
2.0
 31
0.0
  0
LINE
  5
    C5
  8
0
  6
CONTINUOUS
 62
     7
 10
-8.0
 20
-1.49999999999999
 30
0.0
 11
-7.49999999999999
 21
-2.0
 31
0.0
  0
LINE
  5
    C6
  8
0
  6
CONTINUOUS
 62
     7
 10
-7.5
 20
-2.0
 30
0.0
 11
-4.0
 21
-2.0
 31
0.0
  0
ARC
  5
    C7
  8
0
  6
CONTINUOUS
 62
     7
 10
-3.05277499999966
 20
-3.035
 30
0.0
 40
0.947225000000154
 50
118.173448635768
 51
241.826551364238
  0
LINE
  5
    C8
  8
0
  6
CONTINUOUS
 62
     7
 10
-4.0
 20
-3.035
 30
0.0
 11
-4.0
 21
3.03499999999998
 31
0.0
  0
LINE
  5
    C9
  8
0
  6
CONTINUOUS
 62
     7
 10
-3.50000000000001
 20
-2.2
 30
0.0
 11
-0.499999999999972
 21
-2.2
 31
0.0
  0
ARC
  5
    CA
  8
0
  6
CONTINUOUS
 62
     7
 10
-0.947225000000337
 20
-3.035
 30
0.0
 40
0.947225000000154
 50
298.173448635762
 51
421.826551364232
  0
ARC
  5
    CB
  8
0
  6
CONTINUOUS
 62
     7
 10
-0.947225000000337
 20
-3.035
 30
0.0
 40
0.947225000000154
 50
298.173448635762
 51
421.826551364232
  0
LINE
  5
    CC
  8
0
  6
CONTINUOUS
 62
     7
 10
-3.50000000000011
 20
-3.87
 30
0.0
 11
-0.499999999999968
 21
-3.87
 31
0.0
  0
LINE
  5
    CD
  8
0
  6
CONTINUOUS
 62
     7
 10
-3.50000000000009
 20
2.2
 30
0.0
 11
-0.499999999999876
 21
2.2
 31
0.0
  0
LINE
  5
    CE
  8
0
  6
CONTINUOUS
 62
     7
 10
0.0
 20
-3.035
 30
0.0
 11
0.0
 21
3.03499999999998
 31
0.0
  0
LINE
  5
    CF
  8
0
  6
CONTINUOUS
 62
     7
 10
-8.0
 20
-1.5
 30
0.0
 11
-4.0
 21
-1.5
 31
0.0
  0
ENDBLK
  5
    D0
  8
0
  6
CONTINUOUS
 62
     7
  0
BLOCK
  5
    D1
  8
0
  6
CONTINUOUS
 62
     7
  2
*UDIM1863
 70
    65
 10
0.0
 20
0.0
 30
0.0
  3
*UDIM1863
  0
LINE
  5
    D2
  8
0
  6
CONTINUOUS
 62
     7
 10
214.754044321753
 20
248.684995267109
 30
0.0
 11
214.754044321753
 21
222.986664855132
 31
0.0
  0
LINE
  5
    D3
  8
0
  6
CONTINUOUS
 62
     7
 10
312.754041829571
 20
278.575553933382
 30
0.0
 11
312.754041829571
 21
222.986664855132
 31
0.0
  0
LINE
  5
    D4
  8
0
  6
CONTINUOUS
 62
     7
 10
214.754044321753
 20
224.986664855132
 30
0.0
 11
312.754041829571
 21
224.986664855132
 31
0.0
  0
LINE
  5
    D5
  8
0
  6
CONTINUOUS
 62
     7
 10
217.651821794964
 20
225.76312201155
 30
0.0
 11
214.754044321753
 21
224.986664855132
 31
0.0
  0
LINE
  5
    D6
  8
0
  6
CONTINUOUS
 62
     7
 10
214.754044321753
 20
224.986664855132
 30
0.0
 11
217.651821794964
 21
224.210207698713
 31
0.0
  0
LINE
  5
    D7
  8
0
  6
CONTINUOUS
 62
     7
 10
309.85626435636
 20
224.210207698713
 30
0.0
 11
312.754041829571
 21
224.986664855132
 31
0.0
  0
LINE
  5
    D8
  8
0
  6
CONTINUOUS
 62
     7
 10
312.754041829571
 20
224.986664855132
 30
0.0
 11
309.85626435636
 21
225.76312201155
 31
0.0
  0
TEXT
  5
    D9
  8
0
  6
CONTINUOUS
 62
     7
 10
259.854043103336
 20
225.986664855132
 30
0.0
 40
2.99999997871263
  1
140
 41
0.933333333333333
 72
     1
 11
263.754043075662
 21
227.486664844488
 31
0.0
 73
     2
  0
ENDBLK
  5
    DA
  8
0
  6
CONTINUOUS
 62
     7
  0
BLOCK
  5
    DB
  8
0
  6
CONTINUOUS
 62
     7
  2
*UDIM1864
 70
    65
 10
0.0
 20
0.0
 30
0.0
  3
*UDIM1864
  0
LINE
  5
    DC
  8
0
  6
CONTINUOUS
 62
     7
 10
214.754044321753
 20
378.213340819282
 30
0.0
 11
214.754044321753
 21
407.264833721493
 31
0.0
  0
LINE
  5
    DD
  8
0
  6
CONTINUOUS
 62
     7
 10
321.854041674599
 20
324.675553182364
 30
0.0
 11
321.854041674599
 21
407.264833721493
 31
0.0
  0
LINE
  5
    DE
  8
0
  6
CONTINUOUS
 62
     7
 10
214.754044321753
 20
405.264833721493
 30
0.0
 11
321.854041674599
 21
405.264833721493
 31
0.0
  0
LINE
  5
    DF
  8
0
  6
CONTINUOUS
 62
     7
 10
217.651821794964
 20
406.041290877911
 30
0.0
 11
214.754044321753
 21
405.264833721493
 31
0.0
  0
LINE
  5
    E0
  8
0
  6
CONTINUOUS
 62
     7
 10
214.754044321753
 20
405.264833721493
 30
0.0
 11
217.651821794964
 21
404.488376565074
 31
0.0
  0
LINE
  5
    E1
  8
0
  6
CONTINUOUS
 62
     7
 10
318.956264201389
 20
404.488376565074
 30
0.0
 11
321.854041674599
 21
405.264833721493
 31
0.0
  0
LINE
  5
    E2
  8
0
  6
CONTINUOUS
 62
     7
 10
321.854041674599
 20
405.264833721493
 30
0.0
 11
318.956264201389
 21
406.041290877911
 31
0.0
  0
TEXT
  5
    E3
  8
0
  6
CONTINUOUS
 62
     7
 10
264.40404302585
 20
406.264833721493
 30
0.0
 40
2.99999997871263
  1
153
 41
0.933333333333333
 72
     1
 11
268.304042998176
 21
407.764833710849
 31
0.0
 73
     2
  0
ENDBLK
  5
    E4
  8
0
  6
CONTINUOUS
 62
     7
  0
BLOCK
  5
    E5
  8
0
  6
CONTINUOUS
 62
     7
  2
*UDIM1865
 70
    65
 10
0.0
 20
0.0
 30
0.0
  3
*UDIM1865
  0
LINE
  5
    E6
  8
0
  6
CONTINUOUS
 62
     7
 10
214.754044321753
 20
378.213340819282
 30
0.0
 11
214.754044321753
 21
398.656403904317
 31
0.0
  0
LINE
  5
    E7
  8
0
  6
CONTINUOUS
 62
     7
 10
318.354041734204
 20
325.935552626848
 30
0.0
 11
318.354041734204
 21
398.656403904317
 31
0.0
  0
LINE
  5
    E8
  8
0
  6
CONTINUOUS
 62
     7
 10
214.754044321753
 20
396.656403904317
 30
0.0
 11
318.354041734204
 21
396.656403904317
 31
0.0
  0
LINE
  5
    E9
  8
0
  6
CONTINUOUS
 62
     7
 10
217.651821794964
 20
397.432861060736
 30
0.0
 11
214.754044321753
 21
396.656403904317
 31
0.0
  0
LINE
  5
    EA
  8
0
  6
CONTINUOUS
 62
     7
 10
214.754044321753
 20
396.656403904317
 30
0.0
 11
217.651821794964
 21
395.879946747899
 31
0.0
  0
LINE
  5
    EB
  8
0
  6
CONTINUOUS
 62
     7
 10
315.456264260993
 20
395.879946747899
 30
0.0
 11
318.354041734204
 21
396.656403904317
 31
0.0
  0
LINE
  5
    EC
  8
0
  6
CONTINUOUS
 62
     7
 10
318.354041734204
 20
396.656403904317
 30
0.0
 11
315.456264260993
 21
397.432861060736
 31
0.0
  0
TEXT
  5
    ED
  8
0
  6
CONTINUOUS
 62
     7
 10
262.654043055652
 20
397.656403904317
 30
0.0
 40
2.99999997871263
  1
148
 41
0.933333333333333
 72
     1
 11
266.554043027978
 21
399.156403893674
 31
0.0
 73
     2
  0
ENDBLK
  5
    EE
  8
0
  6
CONTINUOUS
 62
     7
  0
BLOCK
  5
    EF
  8
0
  6
CONTINUOUS
 62
     7
  2
*UDIM1866
 70
    65
 10
0.0
 20
0.0
 30
0.0
  3
*UDIM1866
  0
LINE
  5
    F0
  8
0
  6
CONTINUOUS
 62
     7
 10
214.754044321753
 20
378.213340819282
 30
0.0
 11
214.754044321753
 21
415.410444731293
 31
0.0
  0
LINE
  5
    F1
  8
0
  6
CONTINUOUS
 62
     7
 10
335.152079720121
 20
310.675551520661
 30
0.0
 11
335.152079720121
 21
415.410444731293
 31
0.0
  0
LINE
  5
    F2
  8
0
  6
CONTINUOUS
 62
     7
 10
214.754044321753
 20
413.410444731293
 30
0.0
 11
335.152079720121
 21
413.410444731293
 31
0.0
  0
LINE
  5
    F3
  8
0
  6
CONTINUOUS
 62
     7
 10
217.651821794964
 20
414.186901887711
 30
0.0
 11
214.754044321753
 21
413.410444731293
 31
0.0
  0
LINE
  5
    F4
  8
0
  6
CONTINUOUS
 62
     7
 10
214.754044321753
 20
413.410444731293
 30
0.0
 11
217.651821794964
 21
412.633987574874
 31
0.0
  0
LINE
  5
    F5
  8
0
  6
CONTINUOUS
 62
     7
 10
332.254302246911
 20
412.633987574874
 30
0.0
 11
335.152079720121
 21
413.410444731293
 31
0.0
  0
LINE
  5
    F6
  8
0
  6
CONTINUOUS
 62
     7
 10
335.152079720121
 20
413.410444731293
 30
0.0
 11
332.254302246911
 21
414.186901887711
 31
0.0
  0
TEXT
  5
    F7
  8
0
  6
CONTINUOUS
 62
     7
 10
271.053062048611
 20
414.410444731293
 30
0.0
 40
2.99999997871263
  1
172
 41
0.933333333333333
 72
     1
 11
274.953062020937
 21
415.910444720649
 31
0.0
 73
     2
  0
ENDBLK
  5
    F8
  8
0
  6
CONTINUOUS
 62
     7
  0
BLOCK
  5
    F9
  8
0
  6
CONTINUOUS
 62
     7
  2
*UDIM1867
 70
    65
 10
0.0
 20
0.0
 30
0.0
  3
*UDIM1867
  0
LINE
  5
    FA
  8
0
  6
CONTINUOUS
 62
     7
 10
332.991568947674
 20
313.035551463441
 30
0.0
 11
344.75956994634
 21
313.035551463441
 31
0.0
  0
LINE
  5
    FB
  8
0
  6
CONTINUOUS
 62
     7
 10
317.254042595658
 20
324.935552626848
 30
0.0
 11
344.75956994634
 21
324.935552626848
 31
0.0
  0
LINE
  5
    FC
  8
0
  6
CONTINUOUS
 62
     7
 10
342.75956994634
 20
308.035551463441
 30
0.0
 11
342.75956994634
 21
329.935552626848
 31
0.0
  0
LINE
  5
    FD
  8
0
  6
CONTINUOUS
 62
     7
 10
343.536027102758
 20
310.137773990231
 30
0.0
 11
342.75956994634
 21
313.035551463441
 31
0.0
  0
LINE
  5
    FE
  8
0
  6
CONTINUOUS
 62
     7
 10
342.75956994634
 20
313.035551463441
 30
0.0
 11
341.983112789921
 21
310.137773990231
 31
0.0
  0
LINE
  5
    FF
  8
0
  6
CONTINUOUS
 62
     7
 10
341.983112789921
 20
327.833330100059
 30
0.0
 11
342.75956994634
 21
324.935552626848
 31
0.0
  0
LINE
  5
   100
  8
0
  6
CONTINUOUS
 62
     7
 10
342.75956994634
 20
324.935552626848
 30
0.0
 11
343.536027102758
 21
327.833330100059
 31
0.0
  0
TEXT
  5
   101
  8
0
  6
CONTINUOUS
 62
     7
 10
341.759569946343
 20
316.485552062886
 30
0.0
 40
2.99999997871263
  1
17
 50
90.0
 41
0.933333333333333
 72
     1
 11
340.259569956983
 21
318.985552045145
 31
0.0
 73
     2
  0
ENDBLK
  5
   102
  8
0
  6
CONTINUOUS
 62
     7
  0
BLOCK
  5
   103
  8
0
  6
CONTINUOUS
 62
     7
  2
*UDIM1868
 70
    65
 10
0.0
 20
0.0
 30
0.0
  3
*UDIM1868
  0
LINE
  5
   104
  8
0
  6
CONTINUOUS
 62
     7
 10
212.654044357516
 20
249.355717689147
 30
0.0
 11
212.654044357516
 21
214.619634078518
 31
0.0
  0
LINE
  5
   105
  8
0
  6
CONTINUOUS
 62
     7
 10
214.754044321753
 20
248.684995267109
 30
0.0
 11
214.754044321753
 21
214.619634078518
 31
0.0
  0
LINE
  5
   106
  8
0
  6
CONTINUOUS
 62
     7
 10
202.254044388737
 20
216.619634078517
 30
0.0
 11
219.754044321753
 21
216.619634078517
 31
0.0
  0
LINE
  5
   107
  8
0
  6
CONTINUOUS
 62
     7
 10
209.756266884305
 20
215.843176922099
 30
0.0
 11
212.654044357516
 21
216.619634078517
 31
0.0
  0
LINE
  5
   108
  8
0
  6
CONTINUOUS
 62
     7
 10
212.654044357516
 20
216.619634078517
 30
0.0
 11
209.756266884305
 21
217.396091234936
 31
0.0
  0
LINE
  5
   109
  8
0
  6
CONTINUOUS
 62
     7
 10
217.651821794964
 20
217.396091234936
 30
0.0
 11
214.754044321753
 21
216.619634078517
 31
0.0
  0
LINE
  5
   10A
  8
0
  6
CONTINUOUS
 62
     7
 10
214.754044321753
 20
216.619634078517
 30
0.0
 11
217.651821794964
 21
215.843176922099
 31
0.0
  0
TEXT
  5
   10B
  8
0
  6
CONTINUOUS
 62
     7
 10
205.454044373127
 20
217.619634078517
 30
0.0
 40
2.99999997871263
  1
3
 41
0.933333333333333
 72
     1
 11
206.554044365321
 21
219.119634067874
 31
0.0
 73
     2
  0
TEXT
  5
   10C
  8
0
  6
CONTINUOUS
 62
     7
 10
202.254044388738
 20
217.619634078517
 30
0.0
 40
2.99999997871263
  1
_
 41
0.933333333333333
 72
     1
 11
203.354044380932
 21
219.119634067874
 31
0.0
 73
     2
  0
ENDBLK
  5
   10D
  8
0
  6
CONTINUOUS
 62
     7
  0
BLOCK
  5
   10E
  8
0
  6
CONTINUOUS
 62
     7
  2
*UDIM1869
 70
    65
 10
0.0
 20
0.0
 30
0.0
  3
*UDIM1869
  0
LINE
  5
   10F
  8
0
  6
CONTINUOUS
 62
     7
 10
318.702079066563
 20
273.397942895862
 30
0.0
 11
318.702079066563
 21
214.619634078518
 31
0.0
  0
LINE
  5
   110
  8
0
  6
CONTINUOUS
 62
     7
 10
320.102079042721
 20
272.910986382415
 30
0.0
 11
320.102079042721
 21
214.619634078518
 31
0.0
  0
LINE
  5
   111
  8
0
  6
CONTINUOUS
 62
     7
 10
314.702079066563
 20
216.619634078517
 30
0.0
 11
330.334801924736
 21
216.619634078517
 31
0.0
  0
LINE
  5
   112
  8
0
  6
CONTINUOUS
 62
     7
 10
315.804301593353
 20
215.843176922099
 30
0.0
 11
318.702079066563
 21
216.619634078517
 31
0.0
  0
LINE
  5
   113
  8
0
  6
CONTINUOUS
 62
     7
 10
318.702079066563
 20
216.619634078517
 30
0.0
 11
315.804301593353
 21
217.396091234936
 31
0.0
  0
LINE
  5
   114
  8
0
  6
CONTINUOUS
 62
     7
 10
322.999856515932
 20
217.396091234936
 30
0.0
 11
320.102079042721
 21
216.619634078517
 31
0.0
  0
LINE
  5
   115
  8
0
  6
CONTINUOUS
 62
     7
 10
320.102079042721
 20
216.619634078517
 30
0.0
 11
322.999856515932
 21
215.843176922099
 31
0.0
  0
TEXT
  5
   116
  8
0
  6
CONTINUOUS
 62
     7
 10
328.134801940347
 20
217.619634078517
 30
0.0
 40
2.99999997871263
  1
2
 41
0.933333333333333
 72
     1
 11
329.234801932541
 21
219.119634067874
 31
0.0
 73
     2
  0
TEXT
  5
   117
  8
0
  6
CONTINUOUS
 62
     7
 10
324.934801955957
 20
217.619634078517
 30
0.0
 40
2.99999997871263
  1
_
 41
0.933333333333333
 72
     1
 11
326.034801948152
 21
219.119634067874
 31
0.0
 73
     2
  0
ENDBLK
  5
   118
  8
0
  6
CONTINUOUS
 62
     7
  0
BLOCK
  5
   119
  8
0
  6
CONTINUOUS
 62
     7
  2
*UDIM1870
 70
    65
 10
0.0
 20
0.0
 30
0.0
  3
*UDIM1870
  0
LINE
  5
   11A
  8
0
  6
CONTINUOUS
 62
     7
 10
203.964712519677
 20
313.035551463441
 30
0.0
 11
197.429521690514
 21
313.035551463441
 31
0.0
  0
LINE
  5
   11B
  8
0
  6
CONTINUOUS
 62
     7
 10
216.377179632737
 20
364.31054993319
 30
0.0
 11
197.429521690514
 21
364.31054993319
 31
0.0
  0
LINE
  5
   11C
  8
0
  6
CONTINUOUS
 62
     7
 10
199.429521690514
 20
313.035551463441
 30
0.0
 11
199.429521690514
 21
364.31054993319
 31
0.0
  0
LINE
  5
   11D
  8
0
  6
CONTINUOUS
 62
     7
 10
198.653064534095
 20
315.933328936652
 30
0.0
 11
199.429521690514
 21
313.035551463441
 31
0.0
  0
LINE
  5
   11E
  8
0
  6
CONTINUOUS
 62
     7
 10
199.429521690514
 20
313.035551463441
 30
0.0
 11
200.205978846933
 21
315.933328936652
 31
0.0
  0
LINE
  5
   11F
  8
0
  6
CONTINUOUS
 62
     7
 10
200.205978846933
 20
361.41277245998
 30
0.0
 11
199.429521690514
 21
364.31054993319
 31
0.0
  0
LINE
  5
   120
  8
0
  6
CONTINUOUS
 62
     7
 10
199.429521690514
 20
364.31054993319
 30
0.0
 11
198.653064534095
 21
361.41277245998
 31
0.0
  0
TEXT
  5
   121
  8
0
  6
CONTINUOUS
 62
     7
 10
198.429521690522
 20
331.973050745859
 30
0.0
 40
2.99999997871263
  1
73,25
 50
90.0
 41
0.933333333333333
 72
     1
 11
196.929521701158
 21
338.673050698316
 31
0.0
 73
     2
  0
ENDBLK
  5
   122
  8
0
  6
CONTINUOUS
 62
     7
  0
BLOCK
  5
   123
  8
0
  6
CONTINUOUS
 62
     7
  2
*UDIM1871
 70
    65
 10
0.0
 20
0.0
 30
0.0
  3
*UDIM1871
  0
LINE
  5
   124
  8
0
  6
CONTINUOUS
 62
     7
 10
216.377181201072
 20
261.760551860836
 30
0.0
 11
190.166043552134
 21
261.760551860836
 31
0.0
  0
LINE
  5
   125
  8
0
  6
CONTINUOUS
 62
     7
 10
216.377179632737
 20
364.31054993319
 30
0.0
 11
190.166043552134
 21
364.31054993319
 31
0.0
  0
LINE
  5
   126
  8
0
  6
CONTINUOUS
 62
     7
 10
192.166043552134
 20
261.760551860836
 30
0.0
 11
192.166043552134
 21
364.31054993319
 31
0.0
  0
LINE
  5
   127
  8
0
  6
CONTINUOUS
 62
     7
 10
191.389586395716
 20
264.658329334047
 30
0.0
 11
192.166043552134
 21
261.760551860836
 31
0.0
  0
LINE
  5
   128
  8
0
  6
CONTINUOUS
 62
     7
 10
192.166043552134
 20
261.760551860836
 30
0.0
 11
192.942500708553
 21
264.658329334047
 31
0.0
  0
LINE
  5
   129
  8
0
  6
CONTINUOUS
 62
     7
 10
192.942500708553
 20
361.41277245998
 30
0.0
 11
192.166043552134
 21
364.31054993319
 31
0.0
  0
LINE
  5
   12A
  8
0
  6
CONTINUOUS
 62
     7
 10
192.166043552134
 20
364.31054993319
 30
0.0
 11
191.389586395716
 21
361.41277245998
 31
0.0
  0
TEXT
  5
   12B
  8
0
  6
CONTINUOUS
 62
     7
 10
191.166043552143
 20
306.335550944557
 30
0.0
 40
2.99999997871263
  1
146,5
 50
90.0
 41
0.933333333333333
 72
     1
 11
189.666043562778
 21
313.035550897013
 31
0.0
 73
     2
  0
ENDBLK
  5
   12C
  8
0
  6
CONTINUOUS
 62
     7
  0
BLOCK
  5
   12D
  8
0
  6
CONTINUOUS
 62
     7
  2
*UDIM1872
 70
    65
 10
0.0
 20
0.0
 30
0.0
  3
*UDIM1872
  0
LINE
  5
   12E
  8
0
  6
CONTINUOUS
 62
     7
 10
332.991568947674
 20
313.035551463441
 30
0.0
 11
358.301647831455
 21
313.035551463441
 31
0.0
  0
LINE
  5
   12F
  8
0
  6
CONTINUOUS
 62
     7
 10
311.654042691026
 20
359.935547745885
 30
0.0
 11
358.301647831455
 21
359.935547745885
 31
0.0
  0
LINE
  5
   130
  8
0
  6
CONTINUOUS
 62
     7
 10
356.301647831455
 20
313.035551463441
 30
0.0
 11
356.301647831455
 21
359.935547745885
 31
0.0
  0
LINE
  5
   131
  8
0
  6
CONTINUOUS
 62
     7
 10
355.525190675036
 20
315.933328936652
 30
0.0
 11
356.301647831455
 21
313.035551463441
 31
0.0
  0
LINE
  5
   132
  8
0
  6
CONTINUOUS
 62
     7
 10
356.301647831455
 20
313.035551463441
 30
0.0
 11
357.078104987873
 21
315.933328936652
 31
0.0
  0
LINE
  5
   133
  8
0
  6
CONTINUOUS
 62
     7
 10
357.078104987873
 20
357.037770272674
 30
0.0
 11
356.301647831455
 21
359.935547745885
 31
0.0
  0
LINE
  5
   134
  8
0
  6
CONTINUOUS
 62
     7
 10
356.301647831455
 20
359.935547745885
 30
0.0
 11
355.525190675036
 21
357.037770272674
 31
0.0
  0
TEXT
  5
   135
  8
0
  6
CONTINUOUS
 62
     7
 10
355.301647831458
 20
333.985549622404
 30
0.0
 40
2.99999997871263
  1
67
 50
90.0
 41
0.933333333333333
 72
     1
 11
353.801647842098
 21
336.485549604663
 31
0.0
 73
     2
  0
ENDBLK
  5
   136
  8
0
  6
CONTINUOUS
 62
     7
  0
BLOCK
  5
   137
  8
0
  6
CONTINUOUS
 62
     7
  2
*UDIM1873
 70
    65
 10
0.0
 20
0.0
 30
0.0
  3
*UDIM1873
  0
LINE
  5
   138
  8
0
  6
CONTINUOUS
 62
     7
 10
311.654042691026
 20
266.135553628206
 30
0.0
 11
366.426894562524
 21
266.135553628206
 31
0.0
  0
LINE
  5
   139
  8
0
  6
CONTINUOUS
 62
     7
 10
311.654042691026
 20
359.935547745885
 30
0.0
 11
366.426894562524
 21
359.935547745885
 31
0.0
  0
LINE
  5
   13A
  8
0
  6
CONTINUOUS
 62
     7
 10
364.426894562524
 20
266.135553628206
 30
0.0
 11
364.426894562524
 21
359.935547745885
 31
0.0
  0
LINE
  5
   13B
  8
0
  6
CONTINUOUS
 62
     7
 10
363.650437406105
 20
269.033331101417
 30
0.0
 11
364.426894562524
 21
266.135553628206
 31
0.0
  0
LINE
  5
   13C
  8
0
  6
CONTINUOUS
 62
     7
 10
364.426894562524
 20
266.135553628206
 30
0.0
 11
365.203351718942
 21
269.033331101417
 31
0.0
  0
LINE
  5
   13D
  8
0
  6
CONTINUOUS
 62
     7
 10
365.203351718942
 20
357.037770272674
 30
0.0
 11
364.426894562524
 21
359.935547745885
 31
0.0
  0
LINE
  5
   13E
  8
0
  6
CONTINUOUS
 62
     7
 10
364.426894562524
 20
359.935547745885
 30
0.0
 11
363.650437406105
 21
357.037770272674
 31
0.0
  0
TEXT
  5
   13F
  8
0
  6
CONTINUOUS
 62
     7
 10
363.426894562529
 20
309.135550714721
 30
0.0
 40
2.99999997871263
  1
134
 50
90.0
 41
0.933333333333333
 72
     1
 11
361.926894573167
 21
313.035550687046
 31
0.0
 73
     2
  0
ENDBLK
  5
   140
  8
0
  6
CONTINUOUS
 62
     7
  0
BLOCK
  5
   141
  8
0
  6
CONTINUOUS
 62
     7
  2
*UDIM1874
 70
    65
 10
0.0
 20
0.0
 30
0.0
  3
*UDIM1874
  0
LINE
  5
   142
  8
0
  6
CONTINUOUS
 62
     7
 10
214.754044321753
 20
248.684995267109
 30
0.0
 11
214.754044321753
 21
231.788592146689
 31
0.0
  0
LINE
  5
   143
  8
0
  6
CONTINUOUS
 62
     7
 10
263.754042664037
 20
270.735550862551
 30
0.0
 11
263.754042664037
 21
231.788592146689
 31
0.0
  0
LINE
  5
   144
  8
0
  6
CONTINUOUS
 62
     7
 10
214.754044321753
 20
233.788592146689
 30
0.0
 11
263.754042664037
 21
233.788592146689
 31
0.0
  0
LINE
  5
   145
  8
0
  6
CONTINUOUS
 62
     7
 10
217.651821794964
 20
234.565049303107
 30
0.0
 11
214.754044321753
 21
233.788592146689
 31
0.0
  0
LINE
  5
   146
  8
0
  6
CONTINUOUS
 62
     7
 10
214.754044321753
 20
233.788592146689
 30
0.0
 11
217.651821794964
 21
233.01213499027
 31
0.0
  0
LINE
  5
   147
  8
0
  6
CONTINUOUS
 62
     7
 10
260.856265190826
 20
233.01213499027
 30
0.0
 11
263.754042664037
 21
233.788592146689
 31
0.0
  0
LINE
  5
   148
  8
0
  6
CONTINUOUS
 62
     7
 10
263.754042664037
 20
233.788592146689
 30
0.0
 11
260.856265190826
 21
234.565049303107
 31
0.0
  0
TEXT
  5
   149
  8
0
  6
CONTINUOUS
 62
     7
 10
236.754043510634
 20
234.788592146689
 30
0.0
 40
2.99999997871263
  1
70
 41
0.933333333333333
 72
     1
 11
239.254043492895
 21
236.288592136045
 31
0.0
 73
     2
  0
ENDBLK
  5
   14A
  8
0
  6
CONTINUOUS
 62
     7
  0
BLOCK
  5
   14B
  8
0
  6
CONTINUOUS
 62
     7
  2
*UDIM1875
 70
    65
 10
0.0
 20
0.0
 30
0.0
  3
*UDIM1875
  0
LINE
  5
   14C
  8
0
  6
CONTINUOUS
 62
     7
 10
214.754044321753
 20
248.684995267109
 30
0.0
 11
214.754044321753
 21
214.619634078518
 31
0.0
  0
LINE
  5
   14D
  8
0
  6
CONTINUOUS
 62
     7
 10
318.702079066563
 20
273.397942895862
 30
0.0
 11
318.702079066563
 21
214.619634078518
 31
0.0
  0
LINE
  5
   14E
  8
0
  6
CONTINUOUS
 62
     7
 10
214.754044321753
 20
216.619634078517
 30
0.0
 11
318.702079066563
 21
216.619634078517
 31
0.0
  0
LINE
  5
   14F
  8
0
  6
CONTINUOUS
 62
     7
 10
217.651821794964
 20
217.396091234936
 30
0.0
 11
214.754044321753
 21
216.619634078517
 31
0.0
  0
LINE
  5
   150
  8
0
  6
CONTINUOUS
 62
     7
 10
214.754044321753
 20
216.619634078517
 30
0.0
 11
217.651821794964
 21
215.843176922099
 31
0.0
  0
LINE
  5
   151
  8
0
  6
CONTINUOUS
 62
     7
 10
315.804301593353
 20
215.843176922099
 30
0.0
 11
318.702079066563
 21
216.619634078517
 31
0.0
  0
LINE
  5
   152
  8
0
  6
CONTINUOUS
 62
     7
 10
318.702079066563
 20
216.619634078517
 30
0.0
 11
315.804301593353
 21
217.396091234936
 31
0.0
  0
TEXT
  5
   153
  8
0
  6
CONTINUOUS
 62
     7
 10
265.628061701964
 20
217.619634078517
 30
0.0
 40
2.99999997871263
  1
A
 41
0.933333333333333
 72
     1
 11
266.728061694158
 21
219.119634067874
 31
0.0
 73
     2
  0
ENDBLK
  5
   154
  8
0
  6
CONTINUOUS
 62
     7
  0
BLOCK
  5
   155
  8
0
  6
CONTINUOUS
 62
     7
  2
*UDIM1876
 70
    65
 10
0.0
 20
0.0
 30
0.0
  3
*UDIM1876
  0
LINE
  5
   156
  8
0
  6
CONTINUOUS
 62
     7
 10
214.754044321753
 20
378.213340819282
 30
0.0
 11
214.754044321753
 21
390.510792894517
 31
0.0
  0
LINE
  5
   157
  8
0
  6
CONTINUOUS
 62
     7
 10
227.004047700629
 20
367.410552158952
 30
0.0
 11
227.004047700629
 21
390.510792894517
 31
0.0
  0
LINE
  5
   158
  8
0
  6
CONTINUOUS
 62
     7
 10
199.607523226615
 20
388.510792894517
 30
0.0
 11
227.004047700629
 21
388.510792894517
 31
0.0
  0
LINE
  5
   159
  8
0
  6
CONTINUOUS
 62
     7
 10
211.856266848543
 20
387.734335738099
 30
0.0
 11
214.754044321753
 21
388.510792894517
 31
0.0
  0
LINE
  5
   15A
  8
0
  6
CONTINUOUS
 62
     7
 10
214.754044321753
 20
388.510792894517
 30
0.0
 11
211.856266848543
 21
389.287250050936
 31
0.0
  0
CIRCLE
  5
   15B
  8
0
  6
CONTINUOUS
 62
     7
 10
227.004047700629
 20
388.510792894517
 30
0.0
 40
1.0
  0
TEXT
  5
   15C
  8
0
  6
CONTINUOUS
 62
     7
 10
199.607523226615
 20
389.510792894517
 30
0.0
 40
2.99999997871263
  1
17,5
 41
0.933333333333333
 72
     1
 11
204.907523189007
 21
391.010792883874
 31
0.0
 73
     2
  0
ENDBLK
  5
   15D
  8
0
  6
CONTINUOUS
 62
     7
  0
BLOCK
  5
   15E
  8
0
  6
CONTINUOUS
 62
     7
  2
*UDIM1877
 70
    65
 10
0.0
 20
0.0
 30
0.0
  3
*UDIM1877
  0
LINE
  5
   15F
  8
0
  6
CONTINUOUS
 62
     7
 10
227.004041445289
 20
367.410549897432
 30
0.0
 11
227.004041445289
 21
390.510792894517
 31
0.0
  0
LINE
  5
   160
  8
0
  6
CONTINUOUS
 62
     7
 10
236.804047533736
 20
368.460553094695
 30
0.0
 11
236.804047533736
 21
390.510792894517
 31
0.0
  0
LINE
  5
   161
  8
0
  6
CONTINUOUS
 62
     7
 10
227.004041445289
 20
388.510792894517
 30
0.0
 11
254.511966587134
 21
388.510792894517
 31
0.0
  0
LINE
  5
   162
  8
0
  6
CONTINUOUS
 62
     7
 10
239.701825006947
 20
389.287250050936
 30
0.0
 11
236.804047533736
 21
388.510792894517
 31
0.0
  0
LINE
  5
   163
  8
0
  6
CONTINUOUS
 62
     7
 10
236.804047533736
 20
388.510792894517
 30
0.0
 11
239.701825006947
 21
387.734335738099
 31
0.0
  0
TEXT
  5
   164
  8
0
  6
CONTINUOUS
 62
     7
 10
240.71196667796
 20
389.510792894517
 30
0.0
 40
2.99999997871263
  1
14
 41
0.933333333333333
 72
     1
 11
243.211966660221
 21
391.010792883874
 31
0.0
 73
     2
  0
TEXT
  5
   165
  8
0
  6
CONTINUOUS
 62
     7
 10
246.711966642481
 20
389.510792894517
 30
0.0
 40
2.99999997871263
  1
x14
 41
0.933333333333333
 72
     1
 11
250.611966614808
 21
391.010792883874
 31
0.0
 73
     2
  0
ENDBLK
  5
   166
  8
0
  6
CONTINUOUS
 62
     7
  0
BLOCK
  5
   167
  8
0
  6
CONTINUOUS
 62
     7
  2
*HATCH1620
 70
    65
 10
0.0
 20
0.0
 30
0.0
  3
*HATCH1620
  0
LINE
  5
   168
  8
0
  6
CONTINUOUS
 62
    52
 10
215.594044843946
 20
253.77343378258
 30
0.0
 11
215.831930124318
 21
253.535548502207
 31
0.0
  0
LINE
  5
   169
  8
0
  6
CONTINUOUS
 62
    52
 10
215.594044843946
 20
255.258359599577
 30
0.0
 11
217.316855941315
 21
253.535548502207
 31
0.0
  0
LINE
  5
   16A
  8
0
  6
CONTINUOUS
 62
    52
 10
215.594044843946
 20
256.743285416574
 30
0.0
 11
218.801781758312
 21
253.535548502207
 31
0.0
  0
LINE
  5
   16B
  8
0
  6
CONTINUOUS
 62
    52
 10
214.754041653905
 20
259.068214423611
 30
0.0
 11
220.286696894157
 21
253.535548502207
 31
0.0
  0
LINE
  5
   16C
  8
0
  6
CONTINUOUS
 62
    52
 10
214.754041653905
 20
260.55313757032
 30
0.0
 11
220.354041558538
 21
254.953129654823
 31
0.0
  0
LINE
  5
   16D
  8
0
  6
CONTINUOUS
 62
    52
 10
214.754041653905
 20
262.038063387317
 30
0.0
 11
221.331548560934
 21
255.460548469424
 31
0.0
  0
LINE
  5
   16E
  8
0
  6
CONTINUOUS
 62
    52
 10
214.754041653905
 20
263.522989204314
 30
0.0
 11
222.816474377931
 21
255.460548469424
 31
0.0
  0
LINE
  5
   16F
  8
0
  6
CONTINUOUS
 62
    52
 10
214.960225274661
 20
264.801731400555
 30
0.0
 11
221.754041534696
 21
258.007907129656
 31
0.0
  0
LINE
  5
   170
  8
0
  6
CONTINUOUS
 62
    52
 10
222.901394878194
 20
256.860548445583
 30
0.0
 11
224.301394854352
 21
255.460548469424
 31
0.0
  0
LINE
  5
   171
  8
0
  6
CONTINUOUS
 62
    52
 10
215.594044843946
 20
265.652837648268
 30
0.0
 11
221.754041534696
 21
259.492830276365
 31
0.0
  0
LINE
  5
   172
  8
0
  6
CONTINUOUS
 62
    52
 10
224.386320695191
 20
256.860548445583
 30
0.0
 11
225.254046815667
 21
255.992822325106
 31
0.0
  0
LINE
  5
   173
  8
0
  6
CONTINUOUS
 62
    52
 10
215.721257366193
 20
267.010548272729
 30
0.0
 11
216.994044820104
 21
265.737760818819
 31
0.0
  0
LINE
  5
   174
  8
0
  6
CONTINUOUS
 62
    52
 10
217.121252001775
 20
265.610548296571
 30
0.0
 11
221.754041534696
 21
260.977756093362
 31
0.0
  0
LINE
  5
   175
  8
0
  6
CONTINUOUS
 62
    52
 10
218.606177818772
 20
265.610548296571
 30
0.0
 11
221.754041534696
 21
262.462679240071
 31
0.0
  0
LINE
  5
   176
  8
0
  6
CONTINUOUS
 62
    52
 10
218.997572618015
 20
266.704079314325
 30
0.0
 11
221.754041534696
 21
263.947605057068
 31
0.0
  0
LINE
  5
   177
  8
0
  6
CONTINUOUS
 62
    52
 10
221.57602411219
 20
265.610548296571
 30
0.0
 11
221.754041534696
 21
265.432530874065
 31
0.0
  0
ENDBLK
  5
   178
  8
0
  6
CONTINUOUS
 62
     7
  0
BLOCK
  5
   179
  8
0
  6
CONTINUOUS
 62
     7
  2
*HATCH1621
 70
    65
 10
0.0
 20
0.0
 30
0.0
  3
*HATCH1621
  0
LINE
  5
   17A
  8
0
  6
CONTINUOUS
 62
    52
 10
215.594044843946
 20
359.203118724183
 30
0.0
 11
215.736611522426
 21
359.060552045703
 31
0.0
  0
LINE
  5
   17B
  8
0
  6
CONTINUOUS
 62
    52
 10
214.754041653905
 20
361.528047731221
 30
0.0
 11
216.994044820104
 21
359.288044565022
 31
0.0
  0
LINE
  5
   17C
  8
0
  6
CONTINUOUS
 62
    52
 10
214.754041653905
 20
363.012973548218
 30
0.0
 11
217.306457839686
 21
360.460552021861
 31
0.0
  0
LINE
  5
   17D
  8
0
  6
CONTINUOUS
 62
    52
 10
214.754041653905
 20
364.497899365215
 30
0.0
 11
218.791383656683
 21
360.460552021861
 31
0.0
  0
LINE
  5
   17E
  8
0
  6
CONTINUOUS
 62
    52
 10
218.954041582379
 20
360.297894096164
 30
0.0
 11
220.097709928381
 21
359.154220409586
 31
0.0
  0
LINE
  5
   17F
  8
0
  6
CONTINUOUS
 62
    52
 10
214.754041653905
 20
365.982819841636
 30
0.0
 11
220.354041558538
 21
360.382814596427
 31
0.0
  0
LINE
  5
   180
  8
0
  6
CONTINUOUS
 62
    52
 10
214.915140131386
 20
367.306652521728
 30
0.0
 11
221.754041534696
 21
360.467740437266
 31
0.0
  0
LINE
  5
   181
  8
0
  6
CONTINUOUS
 62
    52
 10
215.594044843946
 20
368.112673626165
 30
0.0
 11
221.754041534696
 21
361.952666254263
 31
0.0
  0
LINE
  5
   182
  8
0
  6
CONTINUOUS
 62
    52
 10
215.594044843946
 20
369.597599443162
 30
0.0
 11
221.754041534696
 21
363.43759207126
 31
0.0
  0
LINE
  5
   183
  8
0
  6
CONTINUOUS
 62
    52
 10
215.594044843946
 20
371.082525260159
 30
0.0
 11
221.754041534696
 21
364.922517888257
 31
0.0
  0
LINE
  5
   184
  8
0
  6
CONTINUOUS
 62
    52
 10
215.625938764301
 20
372.535551816225
 30
0.0
 11
221.754041534696
 21
366.407438364678
 31
0.0
  0
LINE
  5
   185
  8
0
  6
CONTINUOUS
 62
    52
 10
217.110859240722
 20
372.535551816225
 30
0.0
 11
221.754041534696
 21
367.892364181675
 31
0.0
  0
LINE
  5
   186
  8
0
  6
CONTINUOUS
 62
    52
 10
218.595785057719
 20
372.535551816225
 30
0.0
 11
220.354041558538
 21
370.77728997483
 31
0.0
  0
LINE
  5
   187
  8
0
  6
CONTINUOUS
 62
    52
 10
220.52077968436
 20
370.610551849008
 30
0.0
 11
221.920779660518
 21
369.21055187285
 31
0.0
  0
LINE
  5
   188
  8
0
  6
CONTINUOUS
 62
    52
 10
220.080710874716
 20
372.535551816225
 30
0.0
 11
220.354041558538
 21
372.262215791827
 31
0.0
  0
LINE
  5
   189
  8
0
  6
CONTINUOUS
 62
    52
 10
222.005705501357
 20
370.610551849008
 30
0.0
 11
223.405705477515
 21
369.21055187285
 31
0.0
  0
LINE
  5
   18A
  8
0
  6
CONTINUOUS
 62
    52
 10
223.490625977778
 20
370.610551849008
 30
0.0
 11
224.890625953936
 21
369.21055187285
 31
0.0
  0
LINE
  5
   18B
  8
0
  6
CONTINUOUS
 62
    52
 10
224.975551794775
 20
370.610551849008
 30
0.0
 11
225.254046815667
 21
370.332056828116
 31
0.0
  0
ENDBLK
  5
   18C
  8
0
  6
CONTINUOUS
 62
     7
  0
BLOCK
  5
   18D
  8
0
  6
CONTINUOUS
 62
     7
  2
*HATCH1622
 70
    65
 10
0.0
 20
0.0
 30
0.0
  3
*HATCH1622
  0
LINE
  5
   18E
  8
0
  6
CONTINUOUS
 62
    92
 10
238.566463428558
 20
368.86055187881
 30
0.0
 11
238.554041248593
 21
368.848129698846
 31
0.0
  0
LINE
  5
   18F
  8
0
  6
CONTINUOUS
 62
    92
 10
241.536312392264
 20
368.86055187881
 30
0.0
 11
239.786312422066
 21
367.110551908612
 31
0.0
  0
LINE
  5
   190
  8
0
  6
CONTINUOUS
 62
    92
 10
244.504041147266
 20
368.858437010682
 30
0.0
 11
242.756161385772
 21
367.110551908612
 31
0.0
  0
ENDBLK
  5
   191
  8
0
  6
CONTINUOUS
 62
     7
  0
BLOCK
  5
   192
  8
0
  6
CONTINUOUS
 62
     7
  2
*HATCH1623
 70
    65
 10
0.0
 20
0.0
 30
0.0
  3
*HATCH1623
  0
LINE
  5
   193
  8
0
  6
CONTINUOUS
 62
    92
 10
223.717221280316
 20
368.86055187881
 30
0.0
 11
222.104041528735
 21
367.247377467806
 31
0.0
  0
LINE
  5
   194
  8
0
  6
CONTINUOUS
 62
    92
 10
225.254041475091
 20
367.427525780167
 30
0.0
 11
222.104041528735
 21
364.277525833812
 31
0.0
  0
LINE
  5
   195
  8
0
  6
CONTINUOUS
 62
    92
 10
225.254041475091
 20
364.457679486749
 30
0.0
 11
222.104041528735
 21
361.307679540394
 31
0.0
  0
LINE
  5
   196
  8
0
  6
CONTINUOUS
 62
    92
 10
225.254041475091
 20
361.487827852755
 30
0.0
 11
223.526765656118
 21
359.760552033782
 31
0.0
  0
ENDBLK
  5
   197
  8
0
  6
CONTINUOUS
 62
     7
  0
BLOCK
  5
   198
  8
0
  6
CONTINUOUS
 62
     7
  2
*HATCH1624
 70
    65
 10
0.0
 20
0.0
 30
0.0
  3
*HATCH1624
  0
LINE
  5
   199
  8
0
  6
CONTINUOUS
 62
    92
 10
240.126007774557
 20
361.51055200398
 30
0.0
 11
238.554041248593
 21
359.938585478016
 31
0.0
  0
LINE
  5
   19A
  8
0
  6
CONTINUOUS
 62
    92
 10
243.095856738263
 20
361.51055200398
 30
0.0
 11
241.345856768066
 21
359.760552033782
 31
0.0
  0
LINE
  5
   19B
  8
0
  6
CONTINUOUS
 62
    92
 10
244.504041147266
 20
359.948887449276
 30
0.0
 11
244.315705731772
 21
359.760552033782
 31
0.0
  0
ENDBLK
  5
   19C
  8
0
  6
CONTINUOUS
 62
     7
  0
BLOCK
  5
   19D
  8
0
  6
CONTINUOUS
 62
     7
  2
*HATCH1625
 70
    65
 10
0.0
 20
0.0
 30
0.0
  3
*HATCH1625
  0
LINE
  5
   19E
  8
0
  6
CONTINUOUS
 62
    92
 10
238.566463428558
 20
368.86055187881
 30
0.0
 11
238.554041248593
 21
368.848129698846
 31
0.0
  0
LINE
  5
   19F
  8
0
  6
CONTINUOUS
 62
    92
 10
241.536312392264
 20
368.86055187881
 30
0.0
 11
239.786312422066
 21
367.110551908612
 31
0.0
  0
LINE
  5
   1A0
  8
0
  6
CONTINUOUS
 62
    92
 10
244.504041147266
 20
368.858437010682
 30
0.0
 11
242.756161385772
 21
367.110551908612
 31
0.0
  0
ENDBLK
  5
   1A1
  8
0
  6
CONTINUOUS
 62
     7
  0
BLOCK
  5
   1A2
  8
0
  6
CONTINUOUS
 62
     7
  2
*HATCH1626
 70
    65
 10
0.0
 20
0.0
 30
0.0
  3
*HATCH1626
  0
LINE
  5
   1A3
  8
0
  6
CONTINUOUS
 62
    92
 10
223.717221280316
 20
368.86055187881
 30
0.0
 11
222.104041528735
 21
367.247377467806
 31
0.0
  0
LINE
  5
   1A4
  8
0
  6
CONTINUOUS
 62
    92
 10
225.254041475091
 20
367.427525780167
 30
0.0
 11
222.104041528735
 21
364.277525833812
 31
0.0
  0
LINE
  5
   1A5
  8
0
  6
CONTINUOUS
 62
    92
 10
225.254041475091
 20
364.457679486749
 30
0.0
 11
222.104041528735
 21
361.307679540394
 31
0.0
  0
LINE
  5
   1A6
  8
0
  6
CONTINUOUS
 62
    92
 10
225.254041475091
 20
361.487827852755
 30
0.0
 11
223.526765656118
 21
359.760552033782
 31
0.0
  0
ENDBLK
  5
   1A7
  8
0
  6
CONTINUOUS
 62
     7
  0
BLOCK
  5
   1A8
  8
0
  6
CONTINUOUS
 62
     7
  2
*HATCH1627
 70
    65
 10
0.0
 20
0.0
 30
0.0
  3
*HATCH1627
  0
LINE
  5
   1A9
  8
0
  6
CONTINUOUS
 62
    92
 10
240.126007774557
 20
361.51055200398
 30
0.0
 11
238.554041248593
 21
359.938585478016
 31
0.0
  0
LINE
  5
   1AA
  8
0
  6
CONTINUOUS
 62
    92
 10
243.095856738263
 20
361.51055200398
 30
0.0
 11
241.345856768066
 21
359.760552033782
 31
0.0
  0
LINE
  5
   1AB
  8
0
  6
CONTINUOUS
 62
    92
 10
244.504041147266
 20
359.948887449276
 30
0.0
 11
244.315705731772
 21
359.760552033782
 31
0.0
  0
ENDBLK
  5
   1AC
  8
0
  6
CONTINUOUS
 62
     7
  0
BLOCK
  5
   1AD
  8
0
  6
CONTINUOUS
 62
     7
  2
*UDIM1878
 70
    65
 10
0.0
 20
0.0
 30
0.0
  3
*UDIM1878
  0
LINE
  5
   1AE
  8
0
  6
CONTINUOUS
 62
     7
 10
226.004043287416
 20
359.760553225825
 30
0.0
 11
203.936918306828
 21
359.760553225825
 31
0.0
  0
LINE
  5
   1AF
  8
0
  6
CONTINUOUS
 62
     7
 10
223.039128441485
 20
368.860553070853
 30
0.0
 11
203.936918306828
 21
368.860553070853
 31
0.0
  0
LINE
  5
   1B0
  8
0
  6
CONTINUOUS
 62
     7
 10
205.936918306828
 20
354.760553225825
 30
0.0
 11
205.936918306828
 21
373.860553070853
 31
0.0
  0
LINE
  5
   1B1
  8
0
  6
CONTINUOUS
 62
     7
 10
206.713375463246
 20
356.862775752614
 30
0.0
 11
205.936918306828
 21
359.760553225825
 31
0.0
  0
LINE
  5
   1B2
  8
0
  6
CONTINUOUS
 62
     7
 10
205.936918306828
 20
359.760553225825
 30
0.0
 11
205.160461150409
 21
356.862775752614
 31
0.0
  0
LINE
  5
   1B3
  8
0
  6
CONTINUOUS
 62
     7
 10
205.160461150409
 20
371.758330544063
 30
0.0
 11
205.936918306828
 21
368.860553070853
 31
0.0
  0
LINE
  5
   1B4
  8
0
  6
CONTINUOUS
 62
     7
 10
205.936918306828
 20
368.860553070853
 30
0.0
 11
206.713375463246
 21
371.758330544063
 31
0.0
  0
TEXT
  5
   1B5
  8
0
  6
CONTINUOUS
 62
     7
 10
204.936918306831
 20
361.81055316608
 30
0.0
 40
2.99999997871263
  1
13
 50
90.0
 41
0.933333333333333
 72
     1
 11
203.436918317472
 21
364.310553148339
 31
0.0
 73
     2
  0
TEXT
  5
   1B6
  8
0
  6
CONTINUOUS
 62
     7
 10
208.936918285545
 20
360.410553176014
 30
0.0
 40
2.99999997871263
  1
= =
 50
90.0
 41
0.933333333333333
 72
     1
 11
207.436918296184
 21
364.310553148339
 31
0.0
 73
     2
  0
ENDBLK
  5
   1B7
  8
0
  6
CONTINUOUS
 62
     7
  0
BLOCK
  5
   1B8
  8
0
  6
CONTINUOUS
 62
     7
  2
*UDIM1879
 70
    65
 10
0.0
 20
0.0
 30
0.0
  3
*UDIM1879
  0
LINE
  5
   1B9
  8
0
  6
CONTINUOUS
 62
     7
 10
317.254042595658
 20
293.43555316329
 30
0.0
 11
351.284389290986
 21
293.43555316329
 31
0.0
  0
LINE
  5
   1BA
  8
0
  6
CONTINUOUS
 62
     7
 10
317.254042595658
 20
324.935552626848
 30
0.0
 11
351.284389290986
 21
324.935552626848
 31
0.0
  0
LINE
  5
   1BB
  8
0
  6
CONTINUOUS
 62
     7
 10
349.284389290986
 20
293.43555316329
 30
0.0
 11
349.284389290986
 21
324.935552626848
 31
0.0
  0
LINE
  5
   1BC
  8
0
  6
CONTINUOUS
 62
     7
 10
348.507932134567
 20
296.333330636501
 30
0.0
 11
349.284389290986
 21
293.43555316329
 31
0.0
  0
LINE
  5
   1BD
  8
0
  6
CONTINUOUS
 62
     7
 10
349.284389290986
 20
293.43555316329
 30
0.0
 11
350.060846447404
 21
296.333330636501
 31
0.0
  0
LINE
  5
   1BE
  8
0
  6
CONTINUOUS
 62
     7
 10
350.060846447404
 20
322.037775153638
 30
0.0
 11
349.284389290986
 21
324.935552626848
 31
0.0
  0
LINE
  5
   1BF
  8
0
  6
CONTINUOUS
 62
     7
 10
349.284389290986
 20
324.935552626848
 30
0.0
 11
348.507932134567
 21
322.037775153638
 31
0.0
  0
TEXT
  5
   1C0
  8
0
  6
CONTINUOUS
 62
     7
 10
348.284389290989
 20
306.685552912811
 30
0.0
 40
2.99999997871263
  1
45
 50
90.0
 41
0.933333333333333
 72
     1
 11
346.78438930163
 21
309.185552895069
 31
0.0
 73
     2
  0
ENDBLK
  5
   1C1
  8
0
  6
CONTINUOUS
 62
     7
  0
BLOCK
  5
   1C2
  8
0
  6
CONTINUOUS
 62
     7
  2
$6TABELL
 70
    64
 10
0.0
 20
0.0
 30
0.0
  3
$6TABELL
  0
LINE
  5
   1C3
  8
0
  6
CONTINUOUS
 62
     7
 10
181.865085111827
 20
-41.3516925132404
 30
0.0
 11
181.865085111827
 21
-17.8955555684779
 31
0.0
  0
LINE
  5
   1C4
  8
0
  6
CONTINUOUS
 62
     7
 10
181.865085111827
 20
-17.8955555684779
 30
0.0
 11
292.040991263364
 21
-17.8955555684779
 31
0.0
  0
LINE
  5
   1C5
  8
0
  6
CONTINUOUS
 62
     7
 10
181.865085111827
 20
-25.7142678833987
 30
0.0
 11
292.040991263364
 21
-25.7142678833987
 31
0.0
  0
LINE
  5
   1C6
  8
0
  6
CONTINUOUS
 62
     7
 10
246.445970822728
 20
-41.3516925132404
 30
0.0
 11
246.445970822728
 21
-10.0768432535571
 31
0.0
  0
TEXT
  5
   1C7
  8
0
  6
CONTINUOUS
 62
     7
 10
237.180130357331
 20
-22.8049139611125
 30
0.0
 40
2.00000447034836
  1
83
 41
0.933333333333333
 72
     1
 11
238.846800749288
 21
-21.8049117259384
 31
0.0
 73
     2
  0
LINE
  5
   1C8
  8
0
  6
CONTINUOUS
 62
     7
 10
216.04929052897
 20
-41.3516925132404
 30
0.0
 11
216.04929052897
 21
-10.0768432535571
 31
0.0
  0
TEXT
  5
   1C9
  8
0
  6
CONTINUOUS
 62
     7
 10
238.113465776827
 20
-14.9862016461917
 30
0.0
 40
2.00000447034836
  1
B
 41
0.933333333333333
 72
     1
 11
238.846800749288
 21
-13.9861994110175
 31
0.0
 73
     2
  0
LINE
  5
   1CA
  8
0
  6
CONTINUOUS
 62
     7
 10
216.04929052897
 20
-10.0768432535571
 30
0.0
 11
292.040991263364
 21
-10.0768432535571
 31
0.0
  0
LINE
  5
   1CB
  8
0
  6
CONTINUOUS
 62
     7
 10
231.247630675849
 20
-41.3516925132404
 30
0.0
 11
231.247630675849
 21
-10.0768432535571
 31
0.0
  0
TEXT
  5
   1CC
  8
0
  6
CONTINUOUS
 62
     7
 10
222.915125629949
 20
-14.9862016461917
 30
0.0
 40
2.00000447034836
  1
A
 41
0.933333333333333
 72
     1
 11
223.64846060241
 21
-13.9861994110175
 31
0.0
 73
     2
  0
LINE
  5
   1CD
  8
0
  6
CONTINUOUS
 62
     7
 10
181.865085111827
 20
-41.3516925132404
 30
0.0
 11
292.040991263364
 21
-41.3516925132404
 31
0.0
  0
TEXT
  5
   1CE
  8
0
  6
CONTINUOUS
 62
     7
 10
221.048460486181
 20
-38.4423364004834
 30
0.0
 40
2.00000008940697
  1
141
 41
0.933333333333333
 72
     1
 11
223.64846060241
 21
-37.44233635578
 31
0.0
 73
     2
  0
TEXT
  5
   1CF
  8
0
  6
CONTINUOUS
 62
     7
 10
221.048460486181
 20
-30.6236240855626
 30
0.0
 40
2.00000008940697
  1
149
 41
0.933333333333333
 72
     1
 11
223.64846060241
 21
-29.6236240408592
 31
0.0
 73
     2
  0
TEXT
  5
   1D0
  8
0
  6
CONTINUOUS
 62
     7
 10
221.048460486181
 20
-22.8049117706418
 30
0.0
 40
2.00000008940697
  1
149
 41
0.933333333333333
 72
     1
 11
223.64846060241
 21
-21.8049117259384
 31
0.0
 73
     2
  0
LINE
  5
   1D1
  8
0
  6
CONTINUOUS
 62
     7
 10
216.04929052897
 20
-33.5329801983196
 30
0.0
 11
292.040991263364
 21
-33.5329801983196
 31
0.0
  0
LINE
  5
   1D2
  8
0
  6
CONTINUOUS
 62
     7
 10
261.644310969606
 20
-41.3516925132404
 30
0.0
 11
261.644310969606
 21
-10.0768432535571
 31
0.0
  0
TEXT
  5
   1D3
  8
0
  6
CONTINUOUS
 62
     7
 10
252.37847050421
 20
-38.4423385909541
 30
0.0
 40
2.00000447034836
  1
47
 41
0.933333333333333
 72
     1
 11
254.045140896167
 21
-37.44233635578
 31
0.0
 73
     2
  0
TEXT
  5
   1D4
  8
0
  6
CONTINUOUS
 62
     7
 10
235.31345951834
 20
-30.6236262760333
 30
0.0
 40
2.00000447034836
  1
78.2
 41
0.933333333333333
 72
     1
 11
238.846800749288
 21
-29.6236240408592
 31
0.0
 73
     2
  0
TEXT
  5
   1D5
  8
0
  6
CONTINUOUS
 62
     7
 10
252.37847050421
 20
-30.6236262760333
 30
0.0
 40
2.00000447034836
  1
47
 41
0.933333333333333
 72
     1
 11
254.045140896167
 21
-29.6236240408592
 31
0.0
 73
     2
  0
TEXT
  5
   1D6
  8
0
  6
CONTINUOUS
 62
     7
 10
236.246800633059
 20
-38.4423364004834
 30
0.0
 40
2.00000008940697
  1
122
 41
0.933333333333333
 72
     1
 11
238.846800749288
 21
-37.44233635578
 31
0.0
 73
     2
  0
TEXT
  5
   1D7
  8
0
  6
CONTINUOUS
 62
     7
 10
252.37847050421
 20
-22.8049139611125
 30
0.0
 40
2.00000447034836
  1
58
 41
0.933333333333333
 72
     1
 11
254.045140896167
 21
-21.8049117259384
 31
0.0
 73
     2
  0
TEXT
  5
   1D8
  8
0
  6
CONTINUOUS
 62
     7
 10
253.311805923706
 20
-14.9862016461917
 30
0.0
 40
2.00000447034836
  1
C
 41
0.933333333333333
 72
     1
 11
254.045140896167
 21
-13.9861994110175
 31
0.0
 73
     2
  0
TEXT
  5
   1D9
  8
0
  6
CONTINUOUS
 62
     7
 10
268.510146070585
 20
-14.9862016461917
 30
0.0
 40
2.00000447034836
  1
D
 41
0.933333333333333
 72
     1
 11
269.243481043046
 21
-13.9861994110175
 31
0.0
 73
     2
  0
LINE
  5
   1DA
  8
0
  6
CONTINUOUS
 62
     7
 10
276.842651116485
 20
-41.3516925132404
 30
0.0
 11
276.842651116485
 21
-10.0768432535571
 31
0.0
  0
TEXT
  5
   1DB
  8
0
  6
CONTINUOUS
 62
     7
 10
267.576814301873
 20
-30.6236240855626
 30
0.0
 40
2.00000008940697
  1
18
 41
0.933333333333334
 72
     1
 11
269.243481043046
 21
-29.6236240408592
 31
0.0
 73
     2
  0
TEXT
  5
   1DC
  8
0
  6
CONTINUOUS
 62
     7
 10
265.71014755176
 20
-22.8049117706418
 30
0.0
 40
2.00000008940697
  1
23.5
 41
0.933333333333333
 72
     1
 11
269.243481043046
 21
-21.8049117259384
 31
0.0
 73
     2
  0
TEXT
  5
   1DD
  8
0
  6
CONTINUOUS
 62
     7
 10
267.576814301873
 20
-38.4423364004834
 30
0.0
 40
2.00000008940697
  1
18
 41
0.933333333333334
 72
     1
 11
269.243481043046
 21
-37.44233635578
 31
0.0
 73
     2
  0
LINE
  5
   1DE
  8
0
  6
CONTINUOUS
 62
     7
 10
292.040991263364
 20
-41.3516925132404
 30
0.0
 11
292.040991263364
 21
-10.0768432535571
 31
0.0
  0
TEXT
  5
   1DF
  8
0
  6
CONTINUOUS
 62
     7
 10
283.708487823809
 20
-14.986199455721
 30
0.0
 40
2.00000008940697
  1
E
 41
0.933333333333333
 72
     1
 11
284.441821189925
 21
-13.9861994110175
 31
0.0
 73
     2
  0
TEXT
  5
   1E0
  8
0
  6
CONTINUOUS
 62
     7
 10
280.908487698639
 20
-22.8049117706418
 30
0.0
 40
2.00000008940697
  1
41.5
 41
0.933333333333333
 72
     1
 11
284.441821189925
 21
-21.8049117259384
 31
0.0
 73
     2
  0
TEXT
  5
   1E1
  8
0
  6
CONTINUOUS
 62
     7
 10
280.908487698639
 20
-30.6236240855626
 30
0.0
 40
2.00000008940697
  1
39.1
 41
0.933333333333333
 72
     1
 11
284.441821189925
 21
-29.6236240408592
 31
0.0
 73
     2
  0
TEXT
  5
   1E2
  8
0
  6
CONTINUOUS
 62
     7
 10
282.775154448752
 20
-38.4423364004834
 30
0.0
 40
2.00000008940697
  1
46
 41
0.933333333333334
 72
     1
 11
284.441821189925
 21
-37.44233635578
 31
0.0
 73
     2
  0
TEXT
  5
   1E3
  8
0
  6
CONTINUOUS
 62
     7
 10
187.631383553694
 20
-24.4447160661403
 30
0.0
 40
2.00000447034836
  1
CON MOSTRINA
 41
0.933333333333333
 72
     1
 11
198.63140814061
 21
-23.4447138309662
 31
0.0
 73
     2
  0
TEXT
  5
   1E4
  8
0
  6
CONTINUOUS
 62
     7
 10
188.564741023928
 20
-21.1651096656141
 30
0.0
 40
2.00000008940697
  1
WITH FLANGE
 41
0.933333333333333
 72
     1
 11
198.63140814061
 21
-20.1651096209106
 31
0.0
 73
     2
  0
TEXT
  5
   1E5
  8
0
  6
CONTINUOUS
 62
     7
 10
186.416300258335
 20
-36.2077328743077
 30
0.0
 40
2.00000008940697
  1
SENZA MOSTRINA
 41
0.933333333333333
 72
     1
 11
199.282967500187
 21
-35.2077328296042
 31
0.0
 73
     2
  0
TEXT
  5
   1E6
  8
0
  6
CONTINUOUS
 62
     7
 10
186.416300258335
 20
-32.8582276117383
 30
0.0
 40
2.00000008940697
  1
WITHOUT FLANGE
 41
0.933333333333333
 72
     1
 11
199.282967500187
 21
-31.8582275670348
 31
0.0
 73
     2
  0
ENDBLK
  5
   1E7
  8
0
  6
CONTINUOUS
 62
     7
  0
BLOCK
  5
   1E8
  8
0
  6
CONTINUOUS
 62
     7
  2
*UDIM1880
 70
    65
 10
0.0
 20
0.0
 30
0.0
  3
*UDIM1880
  0
LINE
  5
   1E9
  8
0
  6
CONTINUOUS
 62
     7
 10
103.91011118889
 20
365.3105499332
 30
0.0
 11
103.91011118889
 21
388.191559575339
 31
0.0
  0
LINE
  5
   1EA
  8
0
  6
CONTINUOUS
 62
     7
 10
124.910110831262
 20
365.3105499332
 30
0.0
 11
124.910110831262
 21
388.191559575339
 31
0.0
  0
LINE
  5
   1EB
  8
0
  6
CONTINUOUS
 62
     7
 10
103.91011118889
 20
386.191559575339
 30
0.0
 11
124.910110831262
 21
386.191559575339
 31
0.0
  0
LINE
  5
   1EC
  8
0
  6
CONTINUOUS
 62
     7
 10
106.8078886621
 20
386.968016731758
 30
0.0
 11
103.91011118889
 21
386.191559575339
 31
0.0
  0
LINE
  5
   1ED
  8
0
  6
CONTINUOUS
 62
     7
 10
103.91011118889
 20
386.191559575339
 30
0.0
 11
106.8078886621
 21
385.41510241892
 31
0.0
  0
LINE
  5
   1EE
  8
0
  6
CONTINUOUS
 62
     7
 10
122.012333358051
 20
385.41510241892
 30
0.0
 11
124.910110831262
 21
386.191559575339
 31
0.0
  0
LINE
  5
   1EF
  8
0
  6
CONTINUOUS
 62
     7
 10
124.910110831262
 20
386.191559575339
 30
0.0
 11
122.012333358051
 21
386.968016731758
 31
0.0
  0
TEXT
  5
   1F0
  8
0
  6
CONTINUOUS
 62
     7
 10
111.910111027815
 20
387.191559575339
 30
0.0
 40
2.99999997871263
  1
30
 41
0.933333333333333
 72
     1
 11
114.410111010076
 21
388.691559564695
 31
0.0
 73
     2
  0
ENDBLK
  5
   1F1
  8
0
  6
CONTINUOUS
 62
     7
  0
BLOCK
  5
   1F2
  8
0
  6
CONTINUOUS
 62
     7
  2
*UDIM1881
 70
    65
 10
0.0
 20
0.0
 30
0.0
  3
*UDIM1881
  0
LINE
  5
   1F3
  8
0
  6
CONTINUOUS
 62
     7
 10
93.4101113677436
 20
347.495551725626
 30
0.0
 11
93.4101113677436
 21
405.858281131075
 31
0.0
  0
LINE
  5
   1F4
  8
0
  6
CONTINUOUS
 62
     7
 10
177.410109937232
 20
347.495551725626
 30
0.0
 11
177.410109937232
 21
405.858281131075
 31
0.0
  0
LINE
  5
   1F5
  8
0
  6
CONTINUOUS
 62
     7
 10
93.4101113677436
 20
403.858281131075
 30
0.0
 11
177.410109937232
 21
403.858281131075
 31
0.0
  0
LINE
  5
   1F6
  8
0
  6
CONTINUOUS
 62
     7
 10
96.3078888409541
 20
404.634738287494
 30
0.0
 11
93.4101113677436
 21
403.858281131075
 31
0.0
  0
LINE
  5
   1F7
  8
0
  6
CONTINUOUS
 62
     7
 10
93.4101113677436
 20
403.858281131075
 30
0.0
 11
96.3078888409541
 21
403.081823974657
 31
0.0
  0
LINE
  5
   1F8
  8
0
  6
CONTINUOUS
 62
     7
 10
174.512332464022
 20
403.081823974657
 30
0.0
 11
177.410109937232
 21
403.858281131075
 31
0.0
  0
LINE
  5
   1F9
  8
0
  6
CONTINUOUS
 62
     7
 10
177.410109937232
 20
403.858281131075
 30
0.0
 11
174.512332464022
 21
404.634738287494
 31
0.0
  0
TEXT
  5
   1FA
  8
0
  6
CONTINUOUS
 62
     7
 10
131.510110680161
 20
404.858281131075
 30
0.0
 40
2.99999997871263
  1
120
 41
0.933333333333333
 72
     1
 11
135.410110652488
 21
406.358281120432
 31
0.0
 73
     2
  0
ENDBLK
  5
   1FB
  8
0
  6
CONTINUOUS
 62
     7
  0
BLOCK
  5
   1FC
  8
0
  6
CONTINUOUS
 62
     7
  2
*UDIM1882
 70
    65
 10
0.0
 20
0.0
 30
0.0
  3
*UDIM1882
  0
LINE
  5
   1FD
  8
0
  6
CONTINUOUS
 62
     7
 10
124.910110831262
 20
365.3105499332
 30
0.0
 11
124.910110831262
 21
388.191559575339
 31
0.0
  0
LINE
  5
   1FE
  8
0
  6
CONTINUOUS
 62
     7
 10
145.910110473634
 20
365.3105499332
 30
0.0
 11
145.910110473634
 21
388.191559575339
 31
0.0
  0
LINE
  5
   1FF
  8
0
  6
CONTINUOUS
 62
     7
 10
124.910110831262
 20
386.191559575339
 30
0.0
 11
145.910110473634
 21
386.191559575339
 31
0.0
  0
LINE
  5
   200
  8
0
  6
CONTINUOUS
 62
     7
 10
127.807888304472
 20
386.968016731758
 30
0.0
 11
124.910110831262
 21
386.191559575339
 31
0.0
  0
LINE
  5
   201
  8
0
  6
CONTINUOUS
 62
     7
 10
124.910110831262
 20
386.191559575339
 30
0.0
 11
127.807888304472
 21
385.41510241892
 31
0.0
  0
LINE
  5
   202
  8
0
  6
CONTINUOUS
 62
     7
 10
143.012333000423
 20
385.41510241892
 30
0.0
 11
145.910110473634
 21
386.191559575339
 31
0.0
  0
LINE
  5
   203
  8
0
  6
CONTINUOUS
 62
     7
 10
145.910110473634
 20
386.191559575339
 30
0.0
 11
143.012333000423
 21
386.968016731758
 31
0.0
  0
TEXT
  5
   204
  8
0
  6
CONTINUOUS
 62
     7
 10
132.910110670187
 20
387.191559575339
 30
0.0
 40
2.99999997871263
  1
30
 41
0.933333333333333
 72
     1
 11
135.410110652448
 21
388.691559564695
 31
0.0
 73
     2
  0
ENDBLK
  5
   205
  8
0
  6
CONTINUOUS
 62
     7
  0
BLOCK
  5
   206
  8
0
  6
CONTINUOUS
 62
     7
  2
*UDIM1883
 70
    65
 10
0.0
 20
0.0
 30
0.0
  3
*UDIM1883
  0
LINE
  5
   207
  8
0
  6
CONTINUOUS
 62
     7
 10
85.3773113662488
 20
313.035551479114
 30
0.0
 11
81.1759924046483
 21
313.035551544963
 31
0.0
  0
LINE
  5
   208
  8
0
  6
CONTINUOUS
 62
     7
 10
94.1601113379002
 20
372.535549762724
 30
0.0
 11
81.1759924046483
 21
372.53554994748
 31
0.0
  0
LINE
  5
   209
  8
0
  6
CONTINUOUS
 62
     7
 10
83.1759924046483
 20
313.035551513617
 30
0.0
 11
83.1759924046483
 21
372.535549919021
 31
0.0
  0
LINE
  5
   20A
  8
0
  6
CONTINUOUS
 62
     7
 10
82.3995352482298
 20
315.933328986827
 30
0.0
 11
83.1759924046483
 21
313.035551513617
 31
0.0
  0
LINE
  5
   20B
  8
0
  6
CONTINUOUS
 62
     7
 10
83.1759924046483
 20
313.035551513617
 30
0.0
 11
83.9524495610669
 21
315.933328986827
 31
0.0
  0
LINE
  5
   20C
  8
0
  6
CONTINUOUS
 62
     7
 10
83.9524495610669
 20
369.637772445811
 30
0.0
 11
83.1759924046483
 21
372.535549919021
 31
0.0
  0
LINE
  5
   20D
  8
0
  6
CONTINUOUS
 62
     7
 10
83.1759924046483
 20
372.535549919021
 30
0.0
 11
82.3995352482298
 21
369.637772445811
 31
0.0
  0
TEXT
  5
   20E
  8
0
  6
CONTINUOUS
 62
     7
 10
82.1759924046515
 20
340.28555073406
 30
0.0
 40
2.99999997871263
  1
85
 50
90.0
 41
0.933333333333333
 72
     1
 11
80.675992415292
 21
342.785550716319
 31
0.0
 73
     2
  0
ENDBLK
  5
   20F
  8
0
  6
CONTINUOUS
 62
     7
  0
BLOCK
  5
   210
  8
0
  6
CONTINUOUS
 62
     7
  2
*UDIM1884
 70
    65
 10
0.0
 20
0.0
 30
0.0
  3
*UDIM1884
  0
LINE
  5
   211
  8
0
  6
CONTINUOUS
 62
     7
 10
94.160100656748
 20
253.53554992496
 30
0.0
 11
73.6595337407355
 21
253.535549977708
 31
0.0
  0
LINE
  5
   212
  8
0
  6
CONTINUOUS
 62
     7
 10
94.1601113379002
 20
372.535549757239
 30
0.0
 11
73.6595337407355
 21
372.535549936511
 31
0.0
  0
LINE
  5
   213
  8
0
  6
CONTINUOUS
 62
     7
 10
75.6595337407355
 20
253.535549972562
 30
0.0
 11
75.6595337407355
 21
372.535549919021
 31
0.0
  0
LINE
  5
   214
  8
0
  6
CONTINUOUS
 62
     7
 10
74.883076584317
 20
256.433327445773
 30
0.0
 11
75.6595337407355
 21
253.535549972562
 31
0.0
  0
LINE
  5
   215
  8
0
  6
CONTINUOUS
 62
     7
 10
75.6595337407355
 20
253.535549972562
 30
0.0
 11
76.435990897154
 21
256.433327445773
 31
0.0
  0
LINE
  5
   216
  8
0
  6
CONTINUOUS
 62
     7
 10
76.435990897154
 20
369.637772445811
 30
0.0
 11
75.6595337407355
 21
372.535549919021
 31
0.0
  0
LINE
  5
   217
  8
0
  6
CONTINUOUS
 62
     7
 10
75.6595337407355
 20
372.535549919021
 30
0.0
 11
74.883076584317
 21
369.637772445811
 31
0.0
  0
TEXT
  5
   218
  8
0
  6
CONTINUOUS
 62
     7
 10
74.6595337407404
 20
309.135549973467
 30
0.0
 40
2.99999997871263
  1
170
 50
90.0
 41
0.933333333333333
 72
     1
 11
73.1595337513792
 21
313.035549945792
 31
0.0
 73
     2
  0
ENDBLK
  5
   219
  8
0
  6
CONTINUOUS
 62
     7
  0
BLOCK
  5
   21A
  8
0
  6
CONTINUOUS
 62
     7
  2
*HATCH1628
 70
    65
 10
0.0
 20
0.0
 30
0.0
  3
*HATCH1628
  0
LINE
  5
   21B
  8
0
  6
CONTINUOUS
 62
    52
 10
94.2500985360148
 20
279.085553407669
 30
0.0
 11
94.2500931954387
 21
266.135553628206
 31
0.0
  0
LINE
  5
   21C
  8
0
  6
CONTINUOUS
 62
    52
 10
95.5101006507875
 20
279.085553407669
 30
0.0
 11
95.5100953102115
 21
266.135553628206
 31
0.0
  0
LINE
  5
   21D
  8
0
  6
CONTINUOUS
 62
    52
 10
96.7701027655603
 20
279.085553407669
 30
0.0
 11
96.7700974249842
 21
266.135553628206
 31
0.0
  0
LINE
  5
   21E
  8
0
  6
CONTINUOUS
 62
    52
 10
98.0301048803331
 20
279.085553407669
 30
0.0
 11
98.030099539757
 21
266.135553628206
 31
0.0
  0
LINE
  5
   21F
  8
0
  6
CONTINUOUS
 62
    52
 10
99.2901069951058
 20
279.085553407669
 30
0.0
 11
99.2901016545297
 21
266.135553628206
 31
0.0
  0
LINE
  5
   220
  8
0
  6
CONTINUOUS
 62
    52
 10
100.550109109879
 20
279.085553407669
 30
0.0
 11
100.550103769303
 21
266.135553628206
 31
0.0
  0
LINE
  5
   221
  8
0
  6
CONTINUOUS
 62
    52
 10
101.810108554363
 20
279.085553407669
 30
0.0
 11
101.810103213787
 21
266.135553628206
 31
0.0
  0
LINE
  5
   222
  8
0
  6
CONTINUOUS
 62
    52
 10
103.070107998848
 20
279.085553407669
 30
0.0
 11
103.070102658272
 21
266.135553628206
 31
0.0
  0
LINE
  5
   223
  8
0
  6
CONTINUOUS
 62
    52
 10
104.330107443333
 20
279.085553407669
 30
0.0
 11
104.330102102757
 21
266.135553628206
 31
0.0
  0
LINE
  5
   224
  8
0
  6
CONTINUOUS
 62
    52
 10
105.590106887817
 20
279.085553407669
 30
0.0
 11
105.590101547241
 21
266.135553628206
 31
0.0
  0
LINE
  5
   225
  8
0
  6
CONTINUOUS
 62
    52
 10
106.850106332302
 20
279.085553407669
 30
0.0
 11
106.850100991726
 21
266.135553628206
 31
0.0
  0
LINE
  5
   226
  8
0
  6
CONTINUOUS
 62
    52
 10
108.110105776787
 20
279.085553407669
 30
0.0
 11
108.110100436211
 21
266.135553628206
 31
0.0
  0
LINE
  5
   227
  8
0
  6
CONTINUOUS
 62
    52
 10
109.370105221272
 20
279.085553407669
 30
0.0
 11
109.370099880696
 21
266.135553628206
 31
0.0
  0
LINE
  5
   228
  8
0
  6
CONTINUOUS
 62
    52
 10
110.630104665756
 20
279.085553407669
 30
0.0
 11
110.63009932518
 21
266.135553628206
 31
0.0
  0
LINE
  5
   229
  8
0
  6
CONTINUOUS
 62
    52
 10
111.890104110241
 20
279.085553407669
 30
0.0
 11
111.890098769665
 21
266.135553628206
 31
0.0
  0
LINE
  5
   22A
  8
0
  6
CONTINUOUS
 62
    52
 10
113.150103554726
 20
279.085553407669
 30
0.0
 11
113.15009821415
 21
266.135553628206
 31
0.0
  0
LINE
  5
   22B
  8
0
  6
CONTINUOUS
 62
    52
 10
114.410102999211
 20
279.085553407669
 30
0.0
 11
114.410097658634
 21
266.135553628206
 31
0.0
  0
LINE
  5
   22C
  8
0
  6
CONTINUOUS
 62
    52
 10
115.670102443695
 20
279.085553407669
 30
0.0
 11
115.670097103119
 21
266.135553628206
 31
0.0
  0
LINE
  5
   22D
  8
0
  6
CONTINUOUS
 62
    52
 10
116.93010188818
 20
279.085553407669
 30
0.0
 11
116.930096547604
 21
266.135553628206
 31
0.0
  0
LINE
  5
   22E
  8
0
  6
CONTINUOUS
 62
    52
 10
118.190101332665
 20
279.085553407669
 30
0.0
 11
118.190095992089
 21
266.135553628206
 31
0.0
  0
LINE
  5
   22F
  8
0
  6
CONTINUOUS
 62
    52
 10
119.450100777149
 20
279.085553407669
 30
0.0
 11
119.450095436573
 21
266.135553628206
 31
0.0
  0
LINE
  5
   230
  8
0
  6
CONTINUOUS
 62
    52
 10
120.710100221634
 20
279.085553407669
 30
0.0
 11
120.710094881058
 21
266.135553628206
 31
0.0
  0
LINE
  5
   231
  8
0
  6
CONTINUOUS
 62
    52
 10
121.970099666119
 20
279.085553407669
 30
0.0
 11
121.970094325543
 21
266.135553628206
 31
0.0
  0
LINE
  5
   232
  8
0
  6
CONTINUOUS
 62
    52
 10
123.230099110604
 20
279.085553407669
 30
0.0
 11
123.230093770027
 21
266.135553628206
 31
0.0
  0
LINE
  5
   233
  8
0
  6
CONTINUOUS
 62
    52
 10
124.490098555088
 20
279.085553407669
 30
0.0
 11
124.490093214512
 21
266.135553628206
 31
0.0
  0
LINE
  5
   234
  8
0
  6
CONTINUOUS
 62
    52
 10
125.750097999573
 20
279.085553407669
 30
0.0
 11
125.750092658997
 21
266.135553628206
 31
0.0
  0
LINE
  5
   235
  8
0
  6
CONTINUOUS
 62
    52
 10
127.010097444058
 20
279.085553407669
 30
0.0
 11
127.010092103482
 21
266.135553628206
 31
0.0
  0
LINE
  5
   236
  8
0
  6
CONTINUOUS
 62
    52
 10
128.270096888542
 20
279.085553407669
 30
0.0
 11
128.270091547966
 21
266.135553628206
 31
0.0
  0
LINE
  5
   237
  8
0
  6
CONTINUOUS
 62
    52
 10
129.530096333027
 20
279.085553407669
 30
0.0
 11
129.530090992451
 21
266.135553628206
 31
0.0
  0
LINE
  5
   238
  8
0
  6
CONTINUOUS
 62
    52
 10
130.790095777512
 20
279.085553407669
 30
0.0
 11
130.790090436936
 21
266.135553628206
 31
0.0
  0
LINE
  5
   239
  8
0
  6
CONTINUOUS
 62
    52
 10
132.050095221997
 20
279.085553407669
 30
0.0
 11
132.050089881421
 21
266.135553628206
 31
0.0
  0
LINE
  5
   23A
  8
0
  6
CONTINUOUS
 62
    52
 10
133.310094666481
 20
279.085553407669
 30
0.0
 11
133.310089325905
 21
266.135553628206
 31
0.0
  0
LINE
  5
   23B
  8
0
  6
CONTINUOUS
 62
    52
 10
134.570094110966
 20
279.085553407669
 30
0.0
 11
134.57008877039
 21
266.135553628206
 31
0.0
  0
LINE
  5
   23C
  8
0
  6
CONTINUOUS
 62
    52
 10
135.830094223023
 20
279.085553407669
 30
0.0
 11
135.830088882447
 21
266.135553628206
 31
0.0
  0
LINE
  5
   23D
  8
0
  6
CONTINUOUS
 62
    52
 10
137.090094335079
 20
279.085553407669
 30
0.0
 11
137.090088994503
 21
266.135553628206
 31
0.0
  0
LINE
  5
   23E
  8
0
  6
CONTINUOUS
 62
    52
 10
138.350094447136
 20
279.085553407669
 30
0.0
 11
138.35008910656
 21
266.135553628206
 31
0.0
  0
LINE
  5
   23F
  8
0
  6
CONTINUOUS
 62
    52
 10
139.610094559193
 20
279.085553407669
 30
0.0
 11
139.610089218617
 21
266.135553628206
 31
0.0
  0
LINE
  5
   240
  8
0
  6
CONTINUOUS
 62
    52
 10
140.87009467125
 20
279.085553407669
 30
0.0
 11
140.870089330674
 21
266.135553628206
 31
0.0
  0
LINE
  5
   241
  8
0
  6
CONTINUOUS
 62
    52
 10
142.130094783306
 20
279.085553407669
 30
0.0
 11
142.13008944273
 21
266.135553628206
 31
0.0
  0
LINE
  5
   242
  8
0
  6
CONTINUOUS
 62
    52
 10
143.390094895363
 20
279.085553407669
 30
0.0
 11
143.390089554787
 21
266.135553628206
 31
0.0
  0
LINE
  5
   243
  8
0
  6
CONTINUOUS
 62
    52
 10
144.650094923973
 20
279.085553407669
 30
0.0
 11
144.650089583397
 21
266.135553628206
 31
0.0
  0
LINE
  5
   244
  8
0
  6
CONTINUOUS
 62
    52
 10
145.910094952584
 20
279.085553407669
 30
0.0
 11
145.910089612008
 21
266.135553628206
 31
0.0
  0
LINE
  5
   245
  8
0
  6
CONTINUOUS
 62
    52
 10
147.170094981194
 20
279.085553407669
 30
0.0
 11
147.170089640618
 21
266.135553628206
 31
0.0
  0
LINE
  5
   246
  8
0
  6
CONTINUOUS
 62
    52
 10
148.430095009804
 20
279.085553407669
 30
0.0
 11
148.430089669228
 21
266.135553628206
 31
0.0
  0
LINE
  5
   247
  8
0
  6
CONTINUOUS
 62
    52
 10
149.690095121861
 20
279.085553407669
 30
0.0
 11
149.690089781285
 21
266.135553628206
 31
0.0
  0
LINE
  5
   248
  8
0
  6
CONTINUOUS
 62
    52
 10
150.950095233918
 20
279.085553407669
 30
0.0
 11
150.950089893341
 21
266.135553628206
 31
0.0
  0
LINE
  5
   249
  8
0
  6
CONTINUOUS
 62
    52
 10
152.210095012188
 20
279.085553407669
 30
0.0
 11
152.210089671612
 21
266.135553628206
 31
0.0
  0
LINE
  5
   24A
  8
0
  6
CONTINUOUS
 62
    52
 10
153.470095124245
 20
279.085553407669
 30
0.0
 11
153.470089783669
 21
266.135553628206
 31
0.0
  0
LINE
  5
   24B
  8
0
  6
CONTINUOUS
 62
    52
 10
154.730095236302
 20
279.085553407669
 30
0.0
 11
154.730089895726
 21
266.135553628206
 31
0.0
  0
LINE
  5
   24C
  8
0
  6
CONTINUOUS
 62
    52
 10
155.990095348358
 20
279.085553407669
 30
0.0
 11
155.990090007782
 21
266.135553628206
 31
0.0
  0
LINE
  5
   24D
  8
0
  6
CONTINUOUS
 62
    52
 10
157.250094792843
 20
279.085553407669
 30
0.0
 11
157.250089452267
 21
266.135553628206
 31
0.0
  0
LINE
  5
   24E
  8
0
  6
CONTINUOUS
 62
    52
 10
158.510094237328
 20
279.085553407669
 30
0.0
 11
158.510088896752
 21
266.135553628206
 31
0.0
  0
LINE
  5
   24F
  8
0
  6
CONTINUOUS
 62
    52
 10
159.770093681813
 20
279.085553407669
 30
0.0
 11
159.770088341237
 21
266.135553628206
 31
0.0
  0
LINE
  5
   250
  8
0
  6
CONTINUOUS
 62
    52
 10
161.030093126297
 20
279.085553407669
 30
0.0
 11
161.030087785721
 21
266.135553628206
 31
0.0
  0
LINE
  5
   251
  8
0
  6
CONTINUOUS
 62
    52
 10
162.290092570782
 20
279.085553407669
 30
0.0
 11
162.290087230206
 21
266.135553628206
 31
0.0
  0
LINE
  5
   252
  8
0
  6
CONTINUOUS
 62
    52
 10
163.550092015267
 20
279.085553407669
 30
0.0
 11
163.550086674691
 21
266.135553628206
 31
0.0
  0
LINE
  5
   253
  8
0
  6
CONTINUOUS
 62
    52
 10
164.810091459751
 20
279.085553407669
 30
0.0
 11
164.810086119175
 21
266.135553628206
 31
0.0
  0
LINE
  5
   254
  8
0
  6
CONTINUOUS
 62
    52
 10
166.070090904236
 20
279.085553407669
 30
0.0
 11
166.07008556366
 21
266.135553628206
 31
0.0
  0
LINE
  5
   255
  8
0
  6
CONTINUOUS
 62
    52
 10
167.330090348721
 20
279.085553407669
 30
0.0
 11
167.330085008145
 21
266.135553628206
 31
0.0
  0
LINE
  5
   256
  8
0
  6
CONTINUOUS
 62
    52
 10
168.590089793206
 20
279.085553407669
 30
0.0
 11
168.59008445263
 21
266.135553628206
 31
0.0
  0
LINE
  5
   257
  8
0
  6
CONTINUOUS
 62
    52
 10
169.85008923769
 20
279.085553407669
 30
0.0
 11
169.850083897114
 21
266.135553628206
 31
0.0
  0
LINE
  5
   258
  8
0
  6
CONTINUOUS
 62
    52
 10
171.110088682175
 20
279.085553407669
 30
0.0
 11
171.110083341599
 21
266.135553628206
 31
0.0
  0
LINE
  5
   259
  8
0
  6
CONTINUOUS
 62
    52
 10
172.37008812666
 20
279.085553407669
 30
0.0
 11
172.370082786084
 21
266.135553628206
 31
0.0
  0
LINE
  5
   25A
  8
0
  6
CONTINUOUS
 62
    52
 10
173.630087571145
 20
279.085553407669
 30
0.0
 11
173.630082230568
 21
266.135553628206
 31
0.0
  0
LINE
  5
   25B
  8
0
  6
CONTINUOUS
 62
    52
 10
174.890087015629
 20
279.085553407669
 30
0.0
 11
174.890081675053
 21
266.135553628206
 31
0.0
  0
LINE
  5
   25C
  8
0
  6
CONTINUOUS
 62
    52
 10
176.150086460114
 20
279.085553407669
 30
0.0
 11
176.150081119538
 21
266.135553628206
 31
0.0
  0
LINE
  5
   25D
  8
0
  6
CONTINUOUS
 62
    52
 10
177.410099256039
 20
279.085553407669
 30
0.0
 11
177.410093915463
 21
266.835374706987
 31
0.0
  0
ENDBLK
  5
   25E
  8
0
  6
CONTINUOUS
 62
     7
  0
BLOCK
  5
   25F
  8
0
  6
CONTINUOUS
 62
     7
  2
*HATCH1629
 70
    65
 10
0.0
 20
0.0
 30
0.0
  3
*HATCH1629
  0
LINE
  5
   260
  8
0
  6
CONTINUOUS
 62
    52
 10
94.2501305794713
 20
346.495551725626
 30
0.0
 11
94.2500985360148
 21
279.575553933382
 31
0.0
  0
LINE
  5
   261
  8
0
  6
CONTINUOUS
 62
    52
 10
95.510132694244
 20
346.495551725626
 30
0.0
 11
95.5101006507875
 21
279.575553933382
 31
0.0
  0
LINE
  5
   262
  8
0
  6
CONTINUOUS
 62
    52
 10
96.7701348090168
 20
346.495551725626
 30
0.0
 11
96.7701027655603
 21
279.575553933382
 31
0.0
  0
LINE
  5
   263
  8
0
  6
CONTINUOUS
 62
    52
 10
98.0301369237895
 20
346.495551725626
 30
0.0
 11
98.0301048803331
 21
279.575553933382
 31
0.0
  0
LINE
  5
   264
  8
0
  6
CONTINUOUS
 62
    52
 10
99.2901390385623
 20
346.495551725626
 30
0.0
 11
99.2901069951058
 21
279.575553933382
 31
0.0
  0
LINE
  5
   265
  8
0
  6
CONTINUOUS
 62
    52
 10
100.550141153335
 20
346.495551725626
 30
0.0
 11
100.550109109879
 21
279.575553933382
 31
0.0
  0
LINE
  5
   266
  8
0
  6
CONTINUOUS
 62
    52
 10
101.81014059782
 20
346.495551725626
 30
0.0
 11
101.810108554363
 21
279.575553933382
 31
0.0
  0
LINE
  5
   267
  8
0
  6
CONTINUOUS
 62
    52
 10
103.070140042305
 20
346.495551725626
 30
0.0
 11
103.070107998848
 21
279.575553933382
 31
0.0
  0
LINE
  5
   268
  8
0
  6
CONTINUOUS
 62
    52
 10
104.330139486789
 20
346.495551725626
 30
0.0
 11
104.330107443333
 21
279.575553933382
 31
0.0
  0
LINE
  5
   269
  8
0
  6
CONTINUOUS
 62
    52
 10
105.590138931274
 20
346.495551725626
 30
0.0
 11
105.590106887817
 21
279.575553933382
 31
0.0
  0
LINE
  5
   26A
  8
0
  6
CONTINUOUS
 62
    52
 10
106.850138375759
 20
346.495551725626
 30
0.0
 11
106.850106332302
 21
279.575553933382
 31
0.0
  0
LINE
  5
   26B
  8
0
  6
CONTINUOUS
 62
    52
 10
108.110137820243
 20
346.495551725626
 30
0.0
 11
108.110105776787
 21
279.575553933382
 31
0.0
  0
LINE
  5
   26C
  8
0
  6
CONTINUOUS
 62
    52
 10
109.370137264728
 20
346.495551725626
 30
0.0
 11
109.370105221272
 21
279.575553933382
 31
0.0
  0
LINE
  5
   26D
  8
0
  6
CONTINUOUS
 62
    52
 10
110.630136709213
 20
346.495551725626
 30
0.0
 11
110.630104665756
 21
279.575553933382
 31
0.0
  0
LINE
  5
   26E
  8
0
  6
CONTINUOUS
 62
    52
 10
111.890136153698
 20
346.495551725626
 30
0.0
 11
111.890104110241
 21
279.575553933382
 31
0.0
  0
LINE
  5
   26F
  8
0
  6
CONTINUOUS
 62
    52
 10
113.150135598182
 20
346.495551725626
 30
0.0
 11
113.150103554726
 21
279.575553933382
 31
0.0
  0
LINE
  5
   270
  8
0
  6
CONTINUOUS
 62
    52
 10
114.410135042667
 20
346.495551725626
 30
0.0
 11
114.410102999211
 21
279.575553933382
 31
0.0
  0
LINE
  5
   271
  8
0
  6
CONTINUOUS
 62
    52
 10
115.670134487152
 20
346.495551725626
 30
0.0
 11
115.670102443695
 21
279.575553933382
 31
0.0
  0
LINE
  5
   272
  8
0
  6
CONTINUOUS
 62
    52
 10
116.930133931636
 20
346.495551725626
 30
0.0
 11
116.93010188818
 21
279.575553933382
 31
0.0
  0
LINE
  5
   273
  8
0
  6
CONTINUOUS
 62
    52
 10
118.190133376121
 20
346.495551725626
 30
0.0
 11
118.190101332665
 21
279.575553933382
 31
0.0
  0
ENDBLK
  5
   274
  8
0
  6
CONTINUOUS
 62
     7
  0
BLOCK
  5
   275
  8
0
  6
CONTINUOUS
 62
     7
  2
*HATCH1630
 70
    65
 10
0.0
 20
0.0
 30
0.0
  3
*HATCH1630
  0
LINE
  5
   276
  8
0
  6
CONTINUOUS
 62
    52
 10
173.630130295753
 20
346.495551725626
 30
0.0
 11
173.630100922585
 21
279.575553933382
 31
0.0
  0
LINE
  5
   277
  8
0
  6
CONTINUOUS
 62
    52
 10
174.890129740238
 20
346.495551725626
 30
0.0
 11
174.890100367069
 21
279.575553933382
 31
0.0
  0
LINE
  5
   278
  8
0
  6
CONTINUOUS
 62
    52
 10
176.150129184723
 20
346.495551725626
 30
0.0
 11
176.150099811554
 21
279.575553933382
 31
0.0
  0
LINE
  5
   279
  8
0
  6
CONTINUOUS
 62
    52
 10
177.410109937191
 20
301.59330348785
 30
0.0
 11
177.410099256039
 21
279.575553933382
 31
0.0
  0
ENDBLK
  5
   27A
  8
0
  6
CONTINUOUS
 62
     7
  0
BLOCK
  5
   27B
  8
0
  6
CONTINUOUS
 62
     7
  2
*HATCH1631
 70
    65
 10
0.0
 20
0.0
 30
0.0
  3
*HATCH1631
  0
LINE
  5
   27C
  8
0
  6
CONTINUOUS
 62
    52
 10
94.2501359200473
 20
359.935546690226
 30
0.0
 11
94.2501305794713
 21
346.985546910763
 31
0.0
  0
LINE
  5
   27D
  8
0
  6
CONTINUOUS
 62
    52
 10
95.5101380348201
 20
359.935546690226
 30
0.0
 11
95.510132694244
 21
346.985546910763
 31
0.0
  0
LINE
  5
   27E
  8
0
  6
CONTINUOUS
 62
    52
 10
96.7701401495929
 20
359.935546690226
 30
0.0
 11
96.7701348090168
 21
346.985546910763
 31
0.0
  0
LINE
  5
   27F
  8
0
  6
CONTINUOUS
 62
    52
 10
98.0301422643656
 20
359.935546690226
 30
0.0
 11
98.0301369237895
 21
346.985546910763
 31
0.0
  0
LINE
  5
   280
  8
0
  6
CONTINUOUS
 62
    52
 10
99.2901443791384
 20
359.935546690226
 30
0.0
 11
99.2901390385623
 21
346.985546910763
 31
0.0
  0
LINE
  5
   281
  8
0
  6
CONTINUOUS
 62
    52
 10
100.550146493911
 20
359.935546690226
 30
0.0
 11
100.550141153335
 21
346.985546910763
 31
0.0
  0
LINE
  5
   282
  8
0
  6
CONTINUOUS
 62
    52
 10
101.810145938396
 20
359.935546690226
 30
0.0
 11
101.81014059782
 21
346.985546910763
 31
0.0
  0
LINE
  5
   283
  8
0
  6
CONTINUOUS
 62
    52
 10
103.070145382881
 20
359.935546690226
 30
0.0
 11
103.070140042305
 21
346.985546910763
 31
0.0
  0
LINE
  5
   284
  8
0
  6
CONTINUOUS
 62
    52
 10
104.330144827365
 20
359.935546690226
 30
0.0
 11
104.330139486789
 21
346.985546910763
 31
0.0
  0
LINE
  5
   285
  8
0
  6
CONTINUOUS
 62
    52
 10
105.59014427185
 20
359.935546690226
 30
0.0
 11
105.590138931274
 21
346.985546910763
 31
0.0
  0
LINE
  5
   286
  8
0
  6
CONTINUOUS
 62
    52
 10
106.850143716335
 20
359.935546690226
 30
0.0
 11
106.850138375759
 21
346.985546910763
 31
0.0
  0
LINE
  5
   287
  8
0
  6
CONTINUOUS
 62
    52
 10
108.110143160819
 20
359.935546690226
 30
0.0
 11
108.110137820243
 21
346.985546910763
 31
0.0
  0
LINE
  5
   288
  8
0
  6
CONTINUOUS
 62
    52
 10
109.370142605304
 20
359.935546690226
 30
0.0
 11
109.370137264728
 21
346.985546910763
 31
0.0
  0
LINE
  5
   289
  8
0
  6
CONTINUOUS
 62
    52
 10
110.630142049789
 20
359.935546690226
 30
0.0
 11
110.630136709213
 21
346.985546910763
 31
0.0
  0
LINE
  5
   28A
  8
0
  6
CONTINUOUS
 62
    52
 10
111.890141494274
 20
359.935546690226
 30
0.0
 11
111.890136153698
 21
346.985546910763
 31
0.0
  0
LINE
  5
   28B
  8
0
  6
CONTINUOUS
 62
    52
 10
113.150140938758
 20
359.935546690226
 30
0.0
 11
113.150135598182
 21
346.985546910763
 31
0.0
  0
LINE
  5
   28C
  8
0
  6
CONTINUOUS
 62
    52
 10
114.410140383243
 20
359.935546690226
 30
0.0
 11
114.410135042667
 21
346.985546910763
 31
0.0
  0
LINE
  5
   28D
  8
0
  6
CONTINUOUS
 62
    52
 10
115.670139827728
 20
359.935546690226
 30
0.0
 11
115.670134487152
 21
346.985546910763
 31
0.0
  0
LINE
  5
   28E
  8
0
  6
CONTINUOUS
 62
    52
 10
116.930139272213
 20
359.935546690226
 30
0.0
 11
116.930133931636
 21
346.985546910763
 31
0.0
  0
LINE
  5
   28F
  8
0
  6
CONTINUOUS
 62
    52
 10
118.190138716697
 20
359.935546690226
 30
0.0
 11
118.190133376121
 21
346.985546910763
 31
0.0
  0
LINE
  5
   290
  8
0
  6
CONTINUOUS
 62
    52
 10
119.450138161182
 20
359.935546690226
 30
0.0
 11
119.450132820606
 21
346.985546910763
 31
0.0
  0
LINE
  5
   291
  8
0
  6
CONTINUOUS
 62
    52
 10
120.710137605667
 20
359.935546690226
 30
0.0
 11
120.710132265091
 21
346.985546910763
 31
0.0
  0
LINE
  5
   292
  8
0
  6
CONTINUOUS
 62
    52
 10
121.970137050151
 20
359.935546690226
 30
0.0
 11
121.970131709575
 21
346.985546910763
 31
0.0
  0
LINE
  5
   293
  8
0
  6
CONTINUOUS
 62
    52
 10
123.230136494636
 20
359.935546690226
 30
0.0
 11
123.23013115406
 21
346.985546910763
 31
0.0
  0
LINE
  5
   294
  8
0
  6
CONTINUOUS
 62
    52
 10
124.490135939121
 20
359.935546690226
 30
0.0
 11
124.490130598545
 21
346.985546910763
 31
0.0
  0
LINE
  5
   295
  8
0
  6
CONTINUOUS
 62
    52
 10
125.750135383606
 20
359.935546690226
 30
0.0
 11
125.750130043029
 21
346.985546910763
 31
0.0
  0
LINE
  5
   296
  8
0
  6
CONTINUOUS
 62
    52
 10
127.01013482809
 20
359.935546690226
 30
0.0
 11
127.010129487514
 21
346.985546910763
 31
0.0
  0
LINE
  5
   297
  8
0
  6
CONTINUOUS
 62
    52
 10
128.270134272575
 20
359.935546690226
 30
0.0
 11
128.270128931999
 21
346.985546910763
 31
0.0
  0
LINE
  5
   298
  8
0
  6
CONTINUOUS
 62
    52
 10
129.53013371706
 20
359.935546690226
 30
0.0
 11
129.530128376484
 21
346.985546910763
 31
0.0
  0
LINE
  5
   299
  8
0
  6
CONTINUOUS
 62
    52
 10
130.790133161544
 20
359.935546690226
 30
0.0
 11
130.790127820968
 21
346.985546910763
 31
0.0
  0
LINE
  5
   29A
  8
0
  6
CONTINUOUS
 62
    52
 10
132.050132606029
 20
359.935546690226
 30
0.0
 11
132.050127265453
 21
346.985546910763
 31
0.0
  0
LINE
  5
   29B
  8
0
  6
CONTINUOUS
 62
    52
 10
133.310132050514
 20
359.935546690226
 30
0.0
 11
133.310126709938
 21
346.985546910763
 31
0.0
  0
LINE
  5
   29C
  8
0
  6
CONTINUOUS
 62
    52
 10
134.570131494999
 20
359.935546690226
 30
0.0
 11
134.570126154423
 21
346.985546910763
 31
0.0
  0
LINE
  5
   29D
  8
0
  6
CONTINUOUS
 62
    52
 10
135.830131607055
 20
359.935546690226
 30
0.0
 11
135.830126266479
 21
346.985546910763
 31
0.0
  0
LINE
  5
   29E
  8
0
  6
CONTINUOUS
 62
    52
 10
137.090131719112
 20
359.935546690226
 30
0.0
 11
137.090126378536
 21
346.985546910763
 31
0.0
  0
LINE
  5
   29F
  8
0
  6
CONTINUOUS
 62
    52
 10
138.350131831169
 20
359.935546690226
 30
0.0
 11
138.350126490593
 21
346.985546910763
 31
0.0
  0
LINE
  5
   2A0
  8
0
  6
CONTINUOUS
 62
    52
 10
139.610131943226
 20
359.935546690226
 30
0.0
 11
139.610126602649
 21
346.985546910763
 31
0.0
  0
LINE
  5
   2A1
  8
0
  6
CONTINUOUS
 62
    52
 10
140.870132055282
 20
359.935546690226
 30
0.0
 11
140.870126714706
 21
346.985546910763
 31
0.0
  0
LINE
  5
   2A2
  8
0
  6
CONTINUOUS
 62
    52
 10
142.130132167339
 20
359.935546690226
 30
0.0
 11
142.130126826763
 21
346.985546910763
 31
0.0
  0
LINE
  5
   2A3
  8
0
  6
CONTINUOUS
 62
    52
 10
143.390132279396
 20
359.935546690226
 30
0.0
 11
143.39012693882
 21
346.985546910763
 31
0.0
  0
LINE
  5
   2A4
  8
0
  6
CONTINUOUS
 62
    52
 10
144.650132308006
 20
359.935546690226
 30
0.0
 11
144.65012696743
 21
346.985546910763
 31
0.0
  0
LINE
  5
   2A5
  8
0
  6
CONTINUOUS
 62
    52
 10
145.910132336616
 20
359.935546690226
 30
0.0
 11
145.91012699604
 21
346.985546910763
 31
0.0
  0
LINE
  5
   2A6
  8
0
  6
CONTINUOUS
 62
    52
 10
147.170132365226
 20
359.935546690226
 30
0.0
 11
147.17012702465
 21
346.985546910763
 31
0.0
  0
LINE
  5
   2A7
  8
0
  6
CONTINUOUS
 62
    52
 10
148.430132393837
 20
359.935546690226
 30
0.0
 11
148.430127053261
 21
346.985546910763
 31
0.0
  0
LINE
  5
   2A8
  8
0
  6
CONTINUOUS
 62
    52
 10
149.690132505893
 20
359.935546690226
 30
0.0
 11
149.690127165317
 21
346.985546910763
 31
0.0
  0
LINE
  5
   2A9
  8
0
  6
CONTINUOUS
 62
    52
 10
150.95013261795
 20
359.935546690226
 30
0.0
 11
150.950127277374
 21
346.985546910763
 31
0.0
  0
LINE
  5
   2AA
  8
0
  6
CONTINUOUS
 62
    52
 10
152.210132396221
 20
359.935546690226
 30
0.0
 11
152.210127055645
 21
346.985546910763
 31
0.0
  0
LINE
  5
   2AB
  8
0
  6
CONTINUOUS
 62
    52
 10
153.470132508278
 20
359.935546690226
 30
0.0
 11
153.470127167701
 21
346.985546910763
 31
0.0
  0
LINE
  5
   2AC
  8
0
  6
CONTINUOUS
 62
    52
 10
154.730132620334
 20
359.935546690226
 30
0.0
 11
154.730127279758
 21
346.985546910763
 31
0.0
  0
LINE
  5
   2AD
  8
0
  6
CONTINUOUS
 62
    52
 10
155.990132732391
 20
359.935546690226
 30
0.0
 11
155.990127391815
 21
346.985546910763
 31
0.0
  0
LINE
  5
   2AE
  8
0
  6
CONTINUOUS
 62
    52
 10
157.250132176876
 20
359.935546690226
 30
0.0
 11
157.2501268363
 21
346.985546910763
 31
0.0
  0
LINE
  5
   2AF
  8
0
  6
CONTINUOUS
 62
    52
 10
158.51013162136
 20
359.935546690226
 30
0.0
 11
158.510126280784
 21
346.985546910763
 31
0.0
  0
LINE
  5
   2B0
  8
0
  6
CONTINUOUS
 62
    52
 10
159.770131065845
 20
359.935546690226
 30
0.0
 11
159.770125725269
 21
346.985546910763
 31
0.0
  0
LINE
  5
   2B1
  8
0
  6
CONTINUOUS
 62
    52
 10
161.03013051033
 20
359.935546690226
 30
0.0
 11
161.030125169754
 21
346.985546910763
 31
0.0
  0
LINE
  5
   2B2
  8
0
  6
CONTINUOUS
 62
    52
 10
162.290129954815
 20
359.935546690226
 30
0.0
 11
162.290124614239
 21
346.985546910763
 31
0.0
  0
LINE
  5
   2B3
  8
0
  6
CONTINUOUS
 62
    52
 10
163.550129399299
 20
359.935546690226
 30
0.0
 11
163.550124058723
 21
346.985546910763
 31
0.0
  0
LINE
  5
   2B4
  8
0
  6
CONTINUOUS
 62
    52
 10
164.810128843784
 20
359.935546690226
 30
0.0
 11
164.810123503208
 21
346.985546910763
 31
0.0
  0
LINE
  5
   2B5
  8
0
  6
CONTINUOUS
 62
    52
 10
166.070128288269
 20
359.935546690226
 30
0.0
 11
166.070122947693
 21
346.985546910763
 31
0.0
  0
LINE
  5
   2B6
  8
0
  6
CONTINUOUS
 62
    52
 10
167.330127732753
 20
359.935546690226
 30
0.0
 11
167.330122392177
 21
346.985546910763
 31
0.0
  0
LINE
  5
   2B7
  8
0
  6
CONTINUOUS
 62
    52
 10
168.590127177238
 20
359.935546690226
 30
0.0
 11
168.590121836662
 21
346.985546910763
 31
0.0
  0
LINE
  5
   2B8
  8
0
  6
CONTINUOUS
 62
    52
 10
169.850126621723
 20
359.935546690226
 30
0.0
 11
169.850121281147
 21
346.985546910763
 31
0.0
  0
LINE
  5
   2B9
  8
0
  6
CONTINUOUS
 62
    52
 10
171.110126066208
 20
359.935546690226
 30
0.0
 11
171.110120725632
 21
346.985546910763
 31
0.0
  0
LINE
  5
   2BA
  8
0
  6
CONTINUOUS
 62
    52
 10
172.370125510692
 20
359.935546690226
 30
0.0
 11
172.370120170116
 21
346.985546910763
 31
0.0
  0
LINE
  5
   2BB
  8
0
  6
CONTINUOUS
 62
    52
 10
173.630124955177
 20
359.935546690226
 30
0.0
 11
173.630119614601
 21
346.985546910763
 31
0.0
  0
LINE
  5
   2BC
  8
0
  6
CONTINUOUS
 62
    52
 10
174.890124399662
 20
359.935546690226
 30
0.0
 11
174.890119059086
 21
346.985546910763
 31
0.0
  0
LINE
  5
   2BD
  8
0
  6
CONTINUOUS
 62
    52
 10
176.150123844147
 20
359.935546690226
 30
0.0
 11
176.15011850357
 21
346.985546910763
 31
0.0
  0
ENDBLK
  5
   2BE
  8
0
  6
CONTINUOUS
 62
     7
  0
BLOCK
  5
   2BF
  8
0
  6
CONTINUOUS
 62
     7
  2
*UDIM1885
 70
    65
 10
0.0
 20
0.0
 30
0.0
  3
*UDIM1885
  0
LINE
  5
   2C0
  8
0
  6
CONTINUOUS
 62
     7
 10
119.240110927824
 20
325.935552626848
 30
0.0
 11
119.240110927824
 21
336.72349810638
 31
0.0
  0
LINE
  5
   2C1
  8
0
  6
CONTINUOUS
 62
     7
 10
172.580110019445
 20
325.935552626848
 30
0.0
 11
172.580110019445
 21
336.72349810638
 31
0.0
  0
LINE
  5
   2C2
  8
0
  6
CONTINUOUS
 62
     7
 10
119.240110927824
 20
334.72349810638
 30
0.0
 11
172.580110019445
 21
334.72349810638
 31
0.0
  0
LINE
  5
   2C3
  8
0
  6
CONTINUOUS
 62
     7
 10
122.137888401035
 20
335.499955262799
 30
0.0
 11
119.240110927824
 21
334.72349810638
 31
0.0
  0
LINE
  5
   2C4
  8
0
  6
CONTINUOUS
 62
     7
 10
119.240110927824
 20
334.72349810638
 30
0.0
 11
122.137888401035
 21
333.947040949962
 31
0.0
  0
LINE
  5
   2C5
  8
0
  6
CONTINUOUS
 62
     7
 10
169.682332546235
 20
333.947040949962
 30
0.0
 11
172.580110019445
 21
334.72349810638
 31
0.0
  0
LINE
  5
   2C6
  8
0
  6
CONTINUOUS
 62
     7
 10
172.580110019445
 20
334.72349810638
 30
0.0
 11
169.682332546235
 21
335.499955262799
 31
0.0
  0
TEXT
  5
   2C7
  8
0
  6
CONTINUOUS
 62
     7
 10
140.610110511243
 20
335.72349810638
 30
0.0
 40
2.99999997871263
  1
76,2
 41
0.933333333333333
 72
     1
 11
145.910110473635
 21
337.223498095736
 31
0.0
 73
     2
  0
TEXT
  5
   2C8
  8
0
  6
CONTINUOUS
 62
     7
 10
142.010110501309
 20
331.723498127668
 30
0.0
 40
2.99999997871263
  1
= =
 41
0.933333333333333
 72
     1
 11
145.910110473635
 21
333.223498117024
 31
0.0
 73
     2
  0
ENDBLK
  5
   2C9
  8
0
  6
CONTINUOUS
 62
     7
  0
BLOCK
  5
   2CA
  8
0
  6
CONTINUOUS
 62
     7
  2
*UDIM1886
 70
    65
 10
0.0
 20
0.0
 30
0.0
  3
*UDIM1886
  0
LINE
  5
   2CB
  8
0
  6
CONTINUOUS
 62
     7
 10
145.910110473633
 20
382.589410045517
 30
0.0
 11
145.910110473633
 21
396.779723861864
 31
0.0
  0
LINE
  5
   2CC
  8
0
  6
CONTINUOUS
 62
     7
 10
177.410109937232
 20
347.495551725626
 30
0.0
 11
177.410109937232
 21
396.779723861864
 31
0.0
  0
LINE
  5
   2CD
  8
0
  6
CONTINUOUS
 62
     7
 10
145.910110473633
 20
394.779723861864
 30
0.0
 11
177.410109937232
 21
394.779723861864
 31
0.0
  0
LINE
  5
   2CE
  8
0
  6
CONTINUOUS
 62
     7
 10
148.807887946843
 20
395.556181018283
 30
0.0
 11
145.910110473633
 21
394.779723861864
 31
0.0
  0
LINE
  5
   2CF
  8
0
  6
CONTINUOUS
 62
     7
 10
145.910110473633
 20
394.779723861864
 30
0.0
 11
148.807887946843
 21
394.003266705446
 31
0.0
  0
LINE
  5
   2D0
  8
0
  6
CONTINUOUS
 62
     7
 10
174.512332464022
 20
394.003266705446
 30
0.0
 11
177.410109937232
 21
394.779723861864
 31
0.0
  0
LINE
  5
   2D1
  8
0
  6
CONTINUOUS
 62
     7
 10
177.410109937232
 20
394.779723861864
 30
0.0
 11
174.512332464022
 21
395.556181018283
 31
0.0
  0
TEXT
  5
   2D2
  8
0
  6
CONTINUOUS
 62
     7
 10
159.160110223172
 20
395.779723861864
 30
0.0
 40
2.99999997871263
  1
45
 41
0.933333333333333
 72
     1
 11
161.660110205432
 21
397.27972385122
 31
0.0
 73
     2
  0
ENDBLK
  5
   2D3
  8
0
  6
CONTINUOUS
 62
     7
  0
BLOCK
  5
   2D4
  8
0
  6
CONTINUOUS
 62
     7
  2
*UDIM1887
 70
    65
 10
0.0
 20
0.0
 30
0.0
  3
*UDIM1887
  0
LINE
  5
   2D5
  8
0
  6
CONTINUOUS
 62
     7
 10
145.910110473634
 20
365.3105499332
 30
0.0
 11
145.910110473634
 21
388.191559575339
 31
0.0
  0
LINE
  5
   2D6
  8
0
  6
CONTINUOUS
 62
     7
 10
166.910110116006
 20
365.3105499332
 30
0.0
 11
166.910110116006
 21
388.191559575339
 31
0.0
  0
LINE
  5
   2D7
  8
0
  6
CONTINUOUS
 62
     7
 10
145.910110473634
 20
386.191559575339
 30
0.0
 11
166.910110116006
 21
386.191559575339
 31
0.0
  0
LINE
  5
   2D8
  8
0
  6
CONTINUOUS
 62
     7
 10
148.807887946844
 20
386.968016731758
 30
0.0
 11
145.910110473634
 21
386.191559575339
 31
0.0
  0
LINE
  5
   2D9
  8
0
  6
CONTINUOUS
 62
     7
 10
145.910110473634
 20
386.191559575339
 30
0.0
 11
148.807887946844
 21
385.41510241892
 31
0.0
  0
LINE
  5
   2DA
  8
0
  6
CONTINUOUS
 62
     7
 10
164.012332642796
 20
385.41510241892
 30
0.0
 11
166.910110116006
 21
386.191559575339
 31
0.0
  0
LINE
  5
   2DB
  8
0
  6
CONTINUOUS
 62
     7
 10
166.910110116006
 20
386.191559575339
 30
0.0
 11
164.012332642796
 21
386.968016731758
 31
0.0
  0
TEXT
  5
   2DC
  8
0
  6
CONTINUOUS
 62
     7
 10
153.91011031256
 20
387.191559575339
 30
0.0
 40
2.99999997871263
  1
30
 41
0.933333333333333
 72
     1
 11
156.41011029482
 21
388.691559564695
 31
0.0
 73
     2
  0
ENDBLK
  5
   2DD
  8
0
  6
CONTINUOUS
 62
     7
  0
BLOCK
  5
   2DE
  8
0
  6
CONTINUOUS
 62
     7
  2
*UDIM1888
 70
    65
 10
0.0
 20
0.0
 30
0.0
  3
*UDIM1888
  0
LINE
  5
   2DF
  8
0
  6
CONTINUOUS
 62
     7
 10
420.205902189016
 20
352.548654717749
 30
0.0
 11
375.074987589691
 21
352.548654717749
 31
0.0
  0
LINE
  5
   2E0
  8
0
  6
CONTINUOUS
 62
     7
 10
420.205902189016
 20
388.948657572272
 30
0.0
 11
375.074987589691
 21
388.948657572272
 31
0.0
  0
LINE
  5
   2E1
  8
0
  6
CONTINUOUS
 62
     7
 10
377.074987589691
 20
352.548654717749
 30
0.0
 11
377.074987589691
 21
388.948657572272
 31
0.0
  0
LINE
  5
   2E2
  8
0
  6
CONTINUOUS
 62
     7
 10
376.298530433272
 20
355.44643219096
 30
0.0
 11
377.074987589691
 21
352.548654717749
 31
0.0
  0
LINE
  5
   2E3
  8
0
  6
CONTINUOUS
 62
     7
 10
377.074987589691
 20
352.548654717749
 30
0.0
 11
377.851444746109
 21
355.44643219096
 31
0.0
  0
LINE
  5
   2E4
  8
0
  6
CONTINUOUS
 62
     7
 10
377.851444746109
 20
386.050880099062
 30
0.0
 11
377.074987589691
 21
388.948657572272
 31
0.0
  0
LINE
  5
   2E5
  8
0
  6
CONTINUOUS
 62
     7
 10
377.074987589691
 20
388.948657572272
 30
0.0
 11
376.298530433272
 21
386.050880099062
 31
0.0
  0
TEXT
  5
   2E6
  8
0
  6
CONTINUOUS
 62
     7
 10
376.074987589694
 20
368.248656187232
 30
0.0
 40
2.99999994933605
  1
91
 50
90.0
 41
0.933333333333333
 72
     1
 11
374.574987615023
 21
370.748656145011
 31
0.0
 73
     2
  0
ENDBLK
  5
   2E7
  8
0
  6
CONTINUOUS
 62
     7
  0
BLOCK
  5
   2E8
  8
0
  6
CONTINUOUS
 62
     7
  2
*UDIM1889
 70
    65
 10
0.0
 20
0.0
 30
0.0
  3
*UDIM1889
  0
LINE
  5
   2E9
  8
0
  6
CONTINUOUS
 62
     7
 10
398.335508739135
 20
370.748656520461
 30
0.0
 11
382.782958679143
 21
370.748656520461
 31
0.0
  0
LINE
  5
   2EA
  8
0
  6
CONTINUOUS
 62
     7
 10
396.205901831389
 20
388.948657572272
 30
0.0
 11
382.782958679143
 21
388.948657572272
 31
0.0
  0
LINE
  5
   2EB
  8
0
  6
CONTINUOUS
 62
     7
 10
384.782958679143
 20
365.748656520461
 30
0.0
 11
384.782958679143
 21
393.948657572272
 31
0.0
  0
LINE
  5
   2EC
  8
0
  6
CONTINUOUS
 62
     7
 10
385.559415835561
 20
367.85087904725
 30
0.0
 11
384.782958679143
 21
370.748656520461
 31
0.0
  0
LINE
  5
   2ED
  8
0
  6
CONTINUOUS
 62
     7
 10
384.782958679143
 20
370.748656520461
 30
0.0
 11
384.006501522724
 21
367.85087904725
 31
0.0
  0
LINE
  5
   2EE
  8
0
  6
CONTINUOUS
 62
     7
 10
384.006501522724
 20
391.846435045483
 30
0.0
 11
384.782958679143
 21
388.948657572272
 31
0.0
  0
LINE
  5
   2EF
  8
0
  6
CONTINUOUS
 62
     7
 10
384.782958679143
 20
388.948657572272
 30
0.0
 11
385.559415835561
 21
391.846435045483
 31
0.0
  0
TEXT
  5
   2F0
  8
0
  6
CONTINUOUS
 62
     7
 10
383.782958679149
 20
374.548657135875
 30
0.0
 40
2.99999994933605
  1
45,5
 50
90.0
 41
0.933333333333333
 72
     1
 11
382.282958704475
 21
379.848657046367
 31
0.0
 73
     2
  0
ENDBLK
  5
   2F1
  8
0
  6
CONTINUOUS
 62
     7
  0
BLOCK
  5
   2F2
  8
0
  6
CONTINUOUS
 62
     7
  2
*UDIM1890
 70
    65
 10
0.0
 20
0.0
 30
0.0
  3
*UDIM1890
  0
LINE
  5
   2F3
  8
0
  6
CONTINUOUS
 62
     7
 10
416.7883908545
 20
354.66893624171
 30
0.0
 11
450.145108659162
 21
338.658647392286
 31
0.0
  0
LINE
  5
   2F4
  8
0
  6
CONTINUOUS
 62
     7
 10
417.446099575629
 20
353.491991275933
 30
0.0
 11
420.394522546276
 21
352.938094186071
 31
0.0
  0
LINE
  5
   2F5
  8
0
  6
CONTINUOUS
 62
     7
 10
420.394522546276
 20
352.938094186071
 30
0.0
 11
418.118061925994
 21
354.891994655467
 31
0.0
  0
LINE
  5
   2F6
  8
0
  6
CONTINUOUS
 62
     7
 10
424.965704802404
 20
351.605318159565
 30
0.0
 11
422.017281831756
 21
352.159215249427
 31
0.0
  0
LINE
  5
   2F7
  8
0
  6
CONTINUOUS
 62
     7
 10
422.017281831756
 20
352.159215249427
 30
0.0
 11
424.293742452038
 21
350.205314780031
 31
0.0
  0
TEXT
  5
   2F8
  8
0
  6
CONTINUOUS
 62
     7
 10
430.563788606485
 20
349.166353569086
 30
0.0
 40
2.99999994933605
  1
4,5
 50
334.360300445542
 41
0.933333333333333
 72
     1
 11
434.728832706494
 21
348.831081954936
 31
0.0
 73
     2
  0
TEXT
  5
   2F9
  8
0
  6
CONTINUOUS
 62
     7
 10
426.957656960389
 20
350.897195602813
 30
0.0
 40
2.99999994933605
  1
Ø
 50
334.360300445542
 41
1.2
 72
     1
 11
428.959022081868
 21
351.600429204497
 31
0.0
 73
     2
  0
TEXT
  5
   2FA
  8
0
  6
CONTINUOUS
 62
     7
 10
438.497278209631
 20
345.358501103668
 30
0.0
 40
2.99999994933605
  1
 - M4
 50
334.360300445542
 41
0.933333333333333
 72
     1
 11
445.186614451258
 21
343.811640071043
 31
0.0
 73
     2
  0
ENDBLK
  5
   2FB
  8
0
  6
CONTINUOUS
 62
     7
  0
BLOCK
  5
   2FC
  8
0
  6
CONTINUOUS
 62
     7
  2
*UDIM1891
 70
    65
 10
0.0
 20
0.0
 30
0.0
  3
*UDIM1891
  0
LINE
  5
   2FD
  8
0
  6
CONTINUOUS
 62
     7
 10
415.205902099609
 20
401.201697986362
 30
0.0
 11
415.205902099609
 21
405.307519942471
 31
0.0
  0
LINE
  5
   2FE
  8
0
  6
CONTINUOUS
 62
     7
 10
421.205902189016
 20
391.868657605651
 30
0.0
 11
421.205902189016
 21
405.307519942471
 31
0.0
  0
LINE
  5
   2FF
  8
0
  6
CONTINUOUS
 62
     7
 10
411.205902099609
 20
403.307519942471
 30
0.0
 11
429.95971846313
 21
403.307519942471
 31
0.0
  0
LINE
  5
   300
  8
0
  6
CONTINUOUS
 62
     7
 10
412.308124626399
 20
402.531062786052
 30
0.0
 11
415.205902099609
 21
403.307519942471
 31
0.0
  0
LINE
  5
   301
  8
0
  6
CONTINUOUS
 62
     7
 10
415.205902099609
 20
403.307519942471
 30
0.0
 11
412.308124626399
 21
404.083977098889
 31
0.0
  0
LINE
  5
   302
  8
0
  6
CONTINUOUS
 62
     7
 10
424.103679662227
 20
404.083977098889
 30
0.0
 11
421.205902189016
 21
403.307519942471
 31
0.0
  0
LINE
  5
   303
  8
0
  6
CONTINUOUS
 62
     7
 10
421.205902189016
 20
403.307519942471
 30
0.0
 11
424.103679662227
 21
402.531062786052
 31
0.0
  0
TEXT
  5
   304
  8
0
  6
CONTINUOUS
 62
     7
 10
424.95971854757
 20
404.307519942471
 30
0.0
 40
2.99999994933605
  1
15
 41
0.933333333333333
 72
     1
 11
427.45971850535
 21
405.807519917139
 31
0.0
 73
     2
  0
ENDBLK
  5
   305
  8
0
  6
CONTINUOUS
 62
     7
  0
BLOCK
  5
   306
  8
0
  6
CONTINUOUS
 62
     7
  2
*UDIM1892
 70
    65
 10
0.0
 20
0.0
 30
0.0
  3
*UDIM1892
  0
LINE
  5
   307
  8
0
  6
CONTINUOUS
 62
     7
 10
397.205901831387
 20
355.468654751128
 30
0.0
 11
397.205901831387
 21
412.889749252323
 31
0.0
  0
LINE
  5
   308
  8
0
  6
CONTINUOUS
 62
     7
 10
421.205902189016
 20
355.468654751128
 30
0.0
 11
421.205902189016
 21
412.889749252323
 31
0.0
  0
LINE
  5
   309
  8
0
  6
CONTINUOUS
 62
     7
 10
397.205901831387
 20
410.889749252323
 30
0.0
 11
421.205902189016
 21
410.889749252323
 31
0.0
  0
LINE
  5
   30A
  8
0
  6
CONTINUOUS
 62
     7
 10
400.103679304598
 20
411.666206408742
 30
0.0
 11
397.205901831387
 21
410.889749252323
 31
0.0
  0
LINE
  5
   30B
  8
0
  6
CONTINUOUS
 62
     7
 10
397.205901831387
 20
410.889749252323
 30
0.0
 11
400.103679304598
 21
410.113292095905
 31
0.0
  0
LINE
  5
   30C
  8
0
  6
CONTINUOUS
 62
     7
 10
418.308124715806
 20
410.113292095905
 30
0.0
 11
421.205902189016
 21
410.889749252323
 31
0.0
  0
LINE
  5
   30D
  8
0
  6
CONTINUOUS
 62
     7
 10
421.205902189016
 20
410.889749252323
 30
0.0
 11
418.308124715806
 21
411.666206408742
 31
0.0
  0
TEXT
  5
   30E
  8
0
  6
CONTINUOUS
 62
     7
 10
406.705902052422
 20
411.889749252323
 30
0.0
 40
2.99999994933605
  1
60
 41
0.933333333333333
 72
     1
 11
409.205902010202
 21
413.389749226991
 31
0.0
 73
     2
  0
ENDBLK
  5
   30F
  8
0
  6
CONTINUOUS
 62
     7
  0
BLOCK
  5
   310
  8
0
  6
CONTINUOUS
 62
     7
  2
*UDIM1893
 70
    65
 10
0.0
 20
0.0
 30
0.0
  3
*UDIM1893
  0
LINE
  5
   311
  8
0
  6
CONTINUOUS
 62
     7
 10
393.455905914307
 20
283.378677368164
 30
0.0
 11
369.828806097174
 21
283.378677368164
 31
0.0
  0
LINE
  5
   312
  8
0
  6
CONTINUOUS
 62
     7
 10
393.455905914307
 20
312.378677368164
 30
0.0
 11
369.828806097174
 21
312.378677368164
 31
0.0
  0
LINE
  5
   313
  8
0
  6
CONTINUOUS
 62
     7
 10
371.828806097174
 20
283.378677368164
 30
0.0
 11
371.828806097174
 21
312.378677368164
 31
0.0
  0
LINE
  5
   314
  8
0
  6
CONTINUOUS
 62
     7
 10
371.052348940755
 20
286.276454841375
 30
0.0
 11
371.828806097174
 21
283.378677368164
 31
0.0
  0
LINE
  5
   315
  8
0
  6
CONTINUOUS
 62
     7
 10
371.828806097174
 20
283.378677368164
 30
0.0
 11
372.605263253592
 21
286.276454841375
 31
0.0
  0
LINE
  5
   316
  8
0
  6
CONTINUOUS
 62
     7
 10
372.605263253592
 20
309.480899894953
 30
0.0
 11
371.828806097174
 21
312.378677368164
 31
0.0
  0
LINE
  5
   317
  8
0
  6
CONTINUOUS
 62
     7
 10
371.828806097174
 20
312.378677368164
 30
0.0
 11
371.052348940755
 21
309.480899894953
 31
0.0
  0
TEXT
  5
   318
  8
0
  6
CONTINUOUS
 62
     7
 10
370.828806097175
 20
296.778677357238
 30
0.0
 40
3.00000002980232
  1
C
 50
90.0
 41
0.933333333333334
 72
     1
 11
369.328806082273
 21
297.878677368164
 31
0.0
 73
     2
  0
ENDBLK
  5
   319
  8
0
  6
CONTINUOUS
 62
     7
  0
BLOCK
  5
   31A
  8
0
  6
CONTINUOUS
 62
     7
  2
*UDIM1894
 70
    65
 10
0.0
 20
0.0
 30
0.0
  3
*UDIM1894
  0
LINE
  5
   31B
  8
0
  6
CONTINUOUS
 62
     7
 10
394.45590515137
 20
313.378677368164
 30
0.0
 11
394.45590515137
 21
332.292982215143
 31
0.0
  0
LINE
  5
   31C
  8
0
  6
CONTINUOUS
 62
     7
 10
435.95590515137
 20
313.378677368164
 30
0.0
 11
435.95590515137
 21
332.292982215143
 31
0.0
  0
LINE
  5
   31D
  8
0
  6
CONTINUOUS
 62
     7
 10
394.45590515137
 20
330.292982215143
 30
0.0
 11
435.95590515137
 21
330.292982215143
 31
0.0
  0
LINE
  5
   31E
  8
0
  6
CONTINUOUS
 62
     7
 10
397.353682624581
 20
331.069439371562
 30
0.0
 11
394.45590515137
 21
330.292982215143
 31
0.0
  0
LINE
  5
   31F
  8
0
  6
CONTINUOUS
 62
     7
 10
394.45590515137
 20
330.292982215143
 30
0.0
 11
397.353682624581
 21
329.516525058725
 31
0.0
  0
LINE
  5
   320
  8
0
  6
CONTINUOUS
 62
     7
 10
433.05812767816
 20
329.516525058725
 30
0.0
 11
435.95590515137
 21
330.292982215143
 31
0.0
  0
LINE
  5
   321
  8
0
  6
CONTINUOUS
 62
     7
 10
435.95590515137
 20
330.292982215143
 30
0.0
 11
433.05812767816
 21
331.069439371562
 31
0.0
  0
TEXT
  5
   322
  8
0
  6
CONTINUOUS
 62
     7
 10
414.105905140443
 20
331.292982215143
 30
0.0
 40
3.00000002980232
  1
B
 41
0.933333333333334
 72
     1
 11
415.20590515137
 21
332.792982230044
 31
0.0
 73
     2
  0
ENDBLK
  5
   323
  8
0
  6
CONTINUOUS
 62
     7
  0
BLOCK
  5
   324
  8
0
  6
CONTINUOUS
 62
     7
  2
*UDIM1895
 70
    65
 10
0.0
 20
0.0
 30
0.0
  3
*UDIM1895
  0
LINE
  5
   325
  8
0
  6
CONTINUOUS
 62
     7
 10
382.584408464061
 20
302.878677368164
 30
0.0
 11
378.159547931975
 21
302.878677368164
 31
0.0
  0
LINE
  5
   326
  8
0
  6
CONTINUOUS
 62
     7
 10
393.455905914307
 20
312.378677368164
 30
0.0
 11
378.159547931975
 21
312.378677368164
 31
0.0
  0
LINE
  5
   327
  8
0
  6
CONTINUOUS
 62
     7
 10
380.159547931975
 20
297.878677368164
 30
0.0
 11
380.159547931975
 21
317.378677368164
 31
0.0
  0
LINE
  5
   328
  8
0
  6
CONTINUOUS
 62
     7
 10
380.936005088394
 20
299.980899894953
 30
0.0
 11
380.159547931975
 21
302.878677368164
 31
0.0
  0
LINE
  5
   329
  8
0
  6
CONTINUOUS
 62
     7
 10
380.159547931975
 20
302.878677368164
 30
0.0
 11
379.383090775557
 21
299.980899894953
 31
0.0
  0
LINE
  5
   32A
  8
0
  6
CONTINUOUS
 62
     7
 10
379.383090775557
 20
315.276454841375
 30
0.0
 11
380.159547931975
 21
312.378677368164
 31
0.0
  0
LINE
  5
   32B
  8
0
  6
CONTINUOUS
 62
     7
 10
380.159547931975
 20
312.378677368164
 30
0.0
 11
380.936005088394
 21
315.276454841375
 31
0.0
  0
TEXT
  5
   32C
  8
0
  6
CONTINUOUS
 62
     7
 10
379.159547931977
 20
306.031725777191
 30
0.0
 40
3.00000002980232
  1
D
 50
90.0
 41
0.933333333333334
 72
     1
 11
377.659547917074
 21
307.131725788116
 31
0.0
 73
     2
  0
ENDBLK
  5
   32D
  8
0
  6
CONTINUOUS
 62
     7
  0
BLOCK
  5
   32E
  8
0
  6
CONTINUOUS
 62
     7
  2
*UDIM1896
 70
    65
 10
0.0
 20
0.0
 30
0.0
  3
*UDIM1896
  0
LINE
  5
   32F
  8
0
  6
CONTINUOUS
 62
     7
 10
415.20590515137
 20
270.616665637371
 30
0.0
 11
415.20590515137
 21
264.275886758236
 31
0.0
  0
LINE
  5
   330
  8
0
  6
CONTINUOUS
 62
     7
 10
435.95590515137
 20
282.378677368164
 30
0.0
 11
435.95590515137
 21
264.275886758236
 31
0.0
  0
LINE
  5
   331
  8
0
  6
CONTINUOUS
 62
     7
 10
415.20590515137
 20
266.275886758236
 30
0.0
 11
435.95590515137
 21
266.275886758236
 31
0.0
  0
LINE
  5
   332
  8
0
  6
CONTINUOUS
 62
     7
 10
418.103682624581
 20
267.052343914655
 30
0.0
 11
415.20590515137
 21
266.275886758236
 31
0.0
  0
LINE
  5
   333
  8
0
  6
CONTINUOUS
 62
     7
 10
415.20590515137
 20
266.275886758236
 30
0.0
 11
418.103682624581
 21
265.499429601818
 31
0.0
  0
LINE
  5
   334
  8
0
  6
CONTINUOUS
 62
     7
 10
433.05812767816
 20
265.499429601818
 30
0.0
 11
435.95590515137
 21
266.275886758236
 31
0.0
  0
LINE
  5
   335
  8
0
  6
CONTINUOUS
 62
     7
 10
435.95590515137
 20
266.275886758236
 30
0.0
 11
433.05812767816
 21
267.052343914655
 31
0.0
  0
TEXT
  5
   336
  8
0
  6
CONTINUOUS
 62
     7
 10
424.480905140443
 20
267.275886758236
 30
0.0
 40
3.00000002980232
  1
E
 41
0.933333333333334
 72
     1
 11
425.58090515137
 21
268.775886773137
 31
0.0
 73
     2
  0
ENDBLK
  5
   337
  8
0
  6
CONTINUOUS
 62
     7
  0
ENDSEC
  0
SECTION
  2
ENTITIES
  0
LINE
  5
   338
  8
0
  6
CONTINUOUS
 62
   252
 10
151.484387207031
 20
174.671829223633
 30
0.0
 11
151.484387207031
 21
182.171829223633
 31
0.0
  0
LINE
  5
   339
  8
0
  6
CONTINUOUS
 62
   252
 10
151.484387159348
 20
174.671829223633
 30
0.0
 11
151.734387159348
 21
174.671829223633
 31
0.0
  0
LINE
  5
   33A
  8
0
  6
CONTINUOUS
 62
   252
 10
150.648600769404
 20
206.171829223633
 30
0.0
 11
150.648600769404
 21
213.671829223633
 31
0.0
  0
LINE
  5
   33B
  8
0
  6
CONTINUOUS
 62
   252
 10
150.648600769404
 20
174.671829223633
 30
0.0
 11
150.648600769404
 21
182.171829223633
 31
0.0
  0
LINE
  5
   33C
  8
0
  6
CONTINUOUS
 62
   252
 10
150.648600816727
 20
174.671829223633
 30
0.0
 11
151.484387159348
 21
174.671829223633
 31
0.0
  0
LINE
  5
   33D
  8
0
  6
CONTINUOUS
 62
   252
 10
149.234387397766
 20
174.671829223633
 30
0.0
 11
150.648600816727
 21
174.671829223633
 31
0.0
  0
LINE
  5
   33E
  8
0
  6
CONTINUOUS
 62
   252
 10
114.134387969971
 20
174.671829223633
 30
0.0
 11
149.234387397766
 21
174.671829223633
 31
0.0
  0
LINE
  5
   33F
  8
0
  6
CONTINUOUS
 62
   252
 10
115.720188903449
 20
207.421829223633
 30
0.0
 11
115.720188903449
 21
213.671829223633
 31
0.0
  0
LINE
  5
   340
  8
0
  6
CONTINUOUS
 62
   252
 10
147.648616028193
 20
207.421829223633
 30
0.0
 11
147.648616028193
 21
213.671829223633
 31
0.0
  0
LINE
  5
   341
  8
0
  6
CONTINUOUS
 62
   252
 10
115.720188140869
 20
206.921829223633
 30
0.0
 11
147.648615837097
 21
206.921829223633
 31
0.0
  0
LINE
  5
   342
  8
0
  6
CONTINUOUS
 62
   252
 10
147.648616028193
 20
206.921829223633
 30
0.0
 11
147.648616028193
 21
207.421829223633
 31
0.0
  0
LINE
  5
   343
  8
0
  6
CONTINUOUS
 62
   252
 10
115.720188903449
 20
206.921829223633
 30
0.0
 11
115.720188903449
 21
207.421829223633
 31
0.0
  0
LINE
  5
   344
  8
0
  6
CONTINUOUS
 62
   252
 10
115.720188140869
 20
207.421829223633
 30
0.0
 11
147.648615837097
 21
207.421829223633
 31
0.0
  0
LINE
  5
   345
  8
0
  6
CONTINUOUS
 62
   252
 10
151.484387207031
 20
206.171829223633
 30
0.0
 11
151.484387207031
 21
213.671829223633
 31
0.0
  0
LINE
  5
   346
  8
0
  6
CONTINUOUS
 62
   252
 10
151.734387159348
 20
174.671829223633
 30
0.0
 11
153.484387204051
 21
174.671829223633
 31
0.0
  0
LINE
  5
   347
  8
0
  6
CONTINUOUS
 62
   252
 10
153.484387204051
 20
174.671829223633
 30
0.0
 11
153.734387204051
 21
174.671829223633
 31
0.0
  0
LINE
  5
   348
  8
0
  6
CONTINUOUS
 62
   252
 10
153.734387207031
 20
174.671829223633
 30
0.0
 11
153.734387207031
 21
213.671829223633
 31
0.0
  0
LINE
  5
   349
  8
0
  6
CONTINUOUS
 62
   252
 10
109.634387969971
 20
174.671829223633
 30
0.0
 11
109.884387969971
 21
174.671829223633
 31
0.0
  0
LINE
  5
   34A
  8
0
  6
CONTINUOUS
 62
   252
 10
109.634387207034
 20
174.671829223633
 30
0.0
 11
109.634387207034
 21
213.671829223633
 31
0.0
  0
LINE
  5
   34B
  8
0
  6
CONTINUOUS
 62
   252
 10
109.884387969971
 20
174.671829223633
 30
0.0
 11
111.634387969971
 21
174.671829223633
 31
0.0
  0
LINE
  5
   34C
  8
0
  6
CONTINUOUS
 62
   252
 10
111.634387969971
 20
174.671829223633
 30
0.0
 11
111.884387969971
 21
174.671829223633
 31
0.0
  0
LINE
  5
   34D
  8
0
  6
CONTINUOUS
 62
   252
 10
111.884387969971
 20
174.671829223633
 30
0.0
 11
112.72017288208
 21
174.671829223633
 31
0.0
  0
LINE
  5
   34E
  8
0
  6
CONTINUOUS
 62
   252
 10
111.884387207034
 20
206.171829223633
 30
0.0
 11
111.884387207034
 21
213.671829223633
 31
0.0
  0
LINE
  5
   34F
  8
0
  6
CONTINUOUS
 62
   252
 10
111.884387207034
 20
174.671829223633
 30
0.0
 11
111.884387207034
 21
182.171829223633
 31
0.0
  0
LINE
  5
   350
  8
0
  6
CONTINUOUS
 62
   252
 10
112.72017288208
 20
174.671829223633
 30
0.0
 11
114.134387969971
 21
174.671829223633
 31
0.0
  0
LINE
  5
   351
  8
0
  6
CONTINUOUS
 62
   252
 10
112.720173644661
 20
206.171829223633
 30
0.0
 11
112.720173644661
 21
213.671829223633
 31
0.0
  0
LINE
  5
   352
  8
0
  6
CONTINUOUS
 62
   252
 10
112.720173644429
 20
174.671829223633
 30
0.0
 11
112.720173644429
 21
182.171829223633
 31
0.0
  0
LINE
  5
   353
  8
0
  6
CONTINUOUS
 62
   252
 10
115.720188140869
 20
213.671829223633
 30
0.0
 11
147.648615837097
 21
213.671829223633
 31
0.0
  0
LINE
  5
   354
  8
0
  6
CONTINUOUS
 62
   252
 10
147.648615837097
 20
213.671829223633
 30
0.0
 11
149.234387397766
 21
213.671829223633
 31
0.0
  0
LINE
  5
   355
  8
0
  6
CONTINUOUS
 62
   252
 10
114.134387969971
 20
213.671829223633
 30
0.0
 11
115.720188140869
 21
213.671829223633
 31
0.0
  0
LINE
  5
   356
  8
0
  6
CONTINUOUS
 62
   252
 10
149.234387397766
 20
213.671829223633
 30
0.0
 11
150.648600816727
 21
213.671829223633
 31
0.0
  0
LINE
  5
   357
  8
0
  6
CONTINUOUS
 62
   252
 10
150.648600816727
 20
213.671829223633
 30
0.0
 11
151.484387159348
 21
213.671829223633
 31
0.0
  0
LINE
  5
   358
  8
0
  6
CONTINUOUS
 62
   252
 10
151.484387159348
 20
213.671829223633
 30
0.0
 11
151.734387159348
 21
213.671829223633
 31
0.0
  0
LINE
  5
   359
  8
0
  6
CONTINUOUS
 62
   252
 10
151.734387159348
 20
213.671829223633
 30
0.0
 11
153.484387204051
 21
213.671829223633
 31
0.0
  0
LINE
  5
   35A
  8
0
  6
CONTINUOUS
 62
   252
 10
153.484387204051
 20
213.671829223633
 30
0.0
 11
153.734387204051
 21
213.671829223633
 31
0.0
  0
LINE
  5
   35B
  8
0
  6
CONTINUOUS
 62
   252
 10
109.634387969971
 20
213.671829223633
 30
0.0
 11
109.884387969971
 21
213.671829223633
 31
0.0
  0
LINE
  5
   35C
  8
0
  6
CONTINUOUS
 62
   252
 10
109.884387969971
 20
213.671829223633
 30
0.0
 11
111.634387969971
 21
213.671829223633
 31
0.0
  0
LINE
  5
   35D
  8
0
  6
CONTINUOUS
 62
   252
 10
111.634387969971
 20
213.671829223633
 30
0.0
 11
111.884387969971
 21
213.671829223633
 31
0.0
  0
LINE
  5
   35E
  8
0
  6
CONTINUOUS
 62
   252
 10
111.884387969971
 20
213.671829223633
 30
0.0
 11
112.72017288208
 21
213.671829223633
 31
0.0
  0
LINE
  5
   35F
  8
0
  6
CONTINUOUS
 62
   252
 10
112.72017288208
 20
213.671829223633
 30
0.0
 11
114.134387969971
 21
213.671829223633
 31
0.0
  0
LINE
  5
   360
  8
0
  6
CONTINUOUS
 62
   252
 10
151.484387207031
 20
182.171829223633
 30
0.0
 11
151.484387207031
 21
206.171829223633
 31
0.0
  0
LINE
  5
   361
  8
0
  6
CONTINUOUS
 62
   252
 10
111.884387207034
 20
182.171829223633
 30
0.0
 11
111.884387207034
 21
206.171829223633
 31
0.0
  0
LINE
  5
   362
  8
0
  6
CONTINUOUS
 62
   252
 10
114.134387969971
 20
182.171829223633
 30
0.0
 11
149.234387397766
 21
182.171829223633
 31
0.0
  0
LINE
  5
   363
  8
0
  6
CONTINUOUS
 62
   252
 10
149.234387397766
 20
182.171829223633
 30
0.0
 11
150.648600816727
 21
182.171829223633
 31
0.0
  0
LINE
  5
   364
  8
0
  6
CONTINUOUS
 62
   252
 10
150.648600816727
 20
182.171829223633
 30
0.0
 11
151.484387159348
 21
182.171829223633
 31
0.0
  0
LINE
  5
   365
  8
0
  6
CONTINUOUS
 62
   252
 10
111.884387969971
 20
182.171829223633
 30
0.0
 11
112.72017288208
 21
182.171829223633
 31
0.0
  0
LINE
  5
   366
  8
0
  6
CONTINUOUS
 62
   252
 10
112.72017288208
 20
182.171829223633
 30
0.0
 11
114.134387969971
 21
182.171829223633
 31
0.0
  0
LINE
  5
   367
  8
0
  6
CONTINUOUS
 62
   252
 10
114.134387969971
 20
206.171829223633
 30
0.0
 11
149.234387397766
 21
206.171829223633
 31
0.0
  0
LINE
  5
   368
  8
0
  6
CONTINUOUS
 62
   252
 10
149.234387397766
 20
206.171829223633
 30
0.0
 11
150.648600816727
 21
206.171829223633
 31
0.0
  0
LINE
  5
   369
  8
0
  6
CONTINUOUS
 62
   252
 10
150.648600816727
 20
206.171829223633
 30
0.0
 11
151.484387159348
 21
206.171829223633
 31
0.0
  0
LINE
  5
   36A
  8
0
  6
CONTINUOUS
 62
   252
 10
111.884387969971
 20
206.171829223633
 30
0.0
 11
112.72017288208
 21
206.171829223633
 31
0.0
  0
LINE
  5
   36B
  8
0
  6
CONTINUOUS
 62
   252
 10
112.72017288208
 20
206.171829223633
 30
0.0
 11
114.134387969971
 21
206.171829223633
 31
0.0
  0
LINE
  5
   36C
  8
0
  6
DASHDOT
 62
     7
 10
131.684387207032
 20
166.960057568605
 30
0.0
 11
131.684387207032
 21
228.479676472784
 31
0.0
  0
TEXT
  5
   36D
  8
0
  6
CONTINUOUS
 62
     7
 10
127.226208299999
 20
218.268933958176
 30
0.0
 40
3.00000002980232
  1
Y
 41
0.933333333333334
 72
     1
 11
128.326208310927
 21
219.768933973077
 31
0.0
 73
     2
  0
TEXT
  5
   36E
  8
0
  6
CONTINUOUS
 62
     7
 10
127.226208299999
 20
166.548900366167
 30
0.0
 40
3.00000002980232
  1
Y
 41
0.933333333333334
 72
     1
 11
128.326208310927
 21
168.048900381068
 31
0.0
 73
     2
  0
LINE
  5
   36F
  8
0
  6
DASHDOT
 62
     7
 10
101.921770108691
 20
196.921829223633
 30
0.0
 11
162.624756903522
 21
196.921829223633
 31
0.0
  0
TEXT
  5
   370
  8
0
  6
CONTINUOUS
 62
     7
 10
102.182823613343
 20
198.125341927604
 30
0.0
 40
3.00000002980232
  1
X
 41
0.933333333333334
 72
     1
 11
103.28282362427
 21
199.625341942505
 31
0.0
 73
     2
  0
TEXT
  5
   371
  8
0
  6
CONTINUOUS
 62
     7
 10
159.347071267668
 20
198.125341927604
 30
0.0
 40
3.00000002980232
  1
X
 41
0.933333333333334
 72
     1
 11
160.447071278596
 21
199.625341942505
 31
0.0
 73
     2
  0
INSERT
  5
   372
  8
0
  6
CONTINUOUS
 62
     7
  2
*UDIM1860
 10
0.0
 20
0.0
 30
0.0
  0
INSERT
  5
   373
  8
0
  6
CONTINUOUS
 62
     7
  2
*UDIM1861
 10
0.0
 20
0.0
 30
0.0
  0
INSERT
  5
   374
  8
0
  6
CONTINUOUS
 62
     7
  2
*UDIM1862
 10
0.0
 20
0.0
 30
0.0
  0
LINE
  5
   375
  8
0
  6
CONTINUOUS
 62
     7
 10
250.104039826791
 20
258.960550283808
 30
0.0
 11
250.104039826791
 21
264.560550179895
 31
0.0
  0
LINE
  5
   376
  8
0
  6
CONTINUOUS
 62
     7
 10
237.852081893548
 20
259.3105501984
 30
0.0
 11
250.454045543504
 21
259.310550835729
 31
0.0
  0
LINE
  5
   377
  8
0
  6
CONTINUOUS
 62
     7
 10
237.852082734863
 20
264.210550200007
 30
0.0
 11
250.454045005516
 21
264.210550200007
 31
0.0
  0
LINE
  5
   378
  8
0
  6
CONTINUOUS
 62
     7
 10
238.202087409615
 20
258.960549811076
 30
0.0
 11
238.202087409615
 21
264.560549724254
 31
0.0
  0
LINE
  5
   379
  8
0
  6
CONTINUOUS
 62
     7
 10
226.304043472315
 20
256.510549759104
 30
0.0
 11
237.1520822826
 21
256.510549759104
 31
0.0
  0
LINE
  5
   37A
  8
0
  6
CONTINUOUS
 62
     7
 10
227.004043614898
 20
266.660549586251
 30
0.0
 11
236.452082294521
 21
266.660549586251
 31
0.0
  0
LINE
  5
   37B
  8
0
  6
CONTINUOUS
 62
     7
 10
227.004043460394
 20
256.510549759104
 30
0.0
 11
227.004043460394
 21
266.660549586251
 31
0.0
  0
LINE
  5
   37C
  8
0
  6
CONTINUOUS
 62
     7
 10
236.452082294521
 20
256.510549759104
 30
0.0
 11
236.452082294521
 21
257.210549856029
 31
0.0
  0
LINE
  5
   37D
  8
0
  6
CONTINUOUS
 62
     7
 10
226.304043472315
 20
242.510549997523
 30
0.0
 11
226.304043472315
 21
256.510549759104
 31
0.0
  0
LINE
  5
   37E
  8
0
  6
CONTINUOUS
 62
     7
 10
237.1520822826
 20
242.510549997523
 30
0.0
 11
237.1520822826
 21
256.510549759104
 31
0.0
  0
LINE
  5
   37F
  8
0
  6
CONTINUOUS
 62
     2
 10
221.754042702947
 20
253.535549809768
 30
0.0
 11
226.304043472315
 21
253.535549809768
 31
0.0
  0
LINE
  5
   380
  8
0
  6
CONTINUOUS
 62
     2
 10
237.1520822826
 20
253.535549809768
 30
0.0
 11
244.504041647945
 21
253.535549809768
 31
0.0
  0
LINE
  5
   381
  8
0
  6
CONTINUOUS
 62
     7
 10
220.354042059217
 20
253.535549809768
 30
0.0
 11
221.754042702947
 21
253.535549809768
 31
0.0
  0
LINE
  5
   382
  8
0
  6
CONTINUOUS
 62
     7
 10
221.754042544827
 20
253.535550934076
 30
0.0
 11
221.754042544827
 21
254.127858205484
 31
0.0
  0
LINE
  5
   383
  8
0
  6
CONTINUOUS
 62
   218
 10
227.004043460394
 20
259.485550832748
 30
0.0
 11
227.004043460394
 21
264.035550755262
 31
0.0
  0
LINE
  5
   384
  8
0
  6
CONTINUOUS
 62
   218
 10
225.254043490197
 20
259.485550832748
 30
0.0
 11
225.254043490197
 21
261.064500161938
 31
0.0
  0
LINE
  5
   385
  8
0
  6
CONTINUOUS
 62
   218
 10
225.254043490197
 20
262.461891266681
 30
0.0
 11
225.254043490197
 21
264.035550755262
 31
0.0
  0
LINE
  5
   386
  8
0
  6
CONTINUOUS
 62
   218
 10
225.254042643342
 20
257.560549743526
 30
0.0
 11
227.00404261354
 21
257.560549743526
 31
0.0
  0
LINE
  5
   387
  8
0
  6
CONTINUOUS
 62
   218
 10
225.254042643342
 20
259.485549710768
 30
0.0
 11
227.00404261354
 21
259.485549710768
 31
0.0
  0
LINE
  5
   388
  8
0
  6
CONTINUOUS
 62
   218
 10
225.254042643342
 20
264.035549633228
 30
0.0
 11
227.00404261354
 21
264.035549633228
 31
0.0
  0
LINE
  5
   389
  8
0
  6
CONTINUOUS
 62
   218
 10
227.004042659307
 20
264.035550755262
 30
0.0
 11
227.004042659307
 21
267.360550698638
 31
0.0
  0
LINE
  5
   38A
  8
0
  6
CONTINUOUS
 62
   218
 10
227.004042659307
 20
257.560550865531
 30
0.0
 11
227.004042659307
 21
259.485550832748
 31
0.0
  0
LINE
  5
   38B
  8
0
  6
CONTINUOUS
 62
   218
 10
225.254042689109
 20
257.560550865531
 30
0.0
 11
225.254042689109
 21
259.485550832748
 31
0.0
  0
LINE
  5
   38C
  8
0
  6
CONTINUOUS
 62
   218
 10
225.254042689109
 20
264.035550755262
 30
0.0
 11
225.254042689109
 21
267.360550698638
 31
0.0
  0
LINE
  5
   38D
  8
0
  6
CONTINUOUS
 62
     1
 10
237.854042428765
 20
257.210549856029
 30
0.0
 11
238.554042416844
 21
257.210549856029
 31
0.0
  0
LINE
  5
   38E
  8
0
  6
CONTINUOUS
 62
     1
 10
237.854042428765
 20
266.310549701057
 30
0.0
 11
238.554042416844
 21
266.310549701057
 31
0.0
  0
LINE
  5
   38F
  8
0
  6
CONTINUOUS
 62
     1
 10
225.954042631421
 20
257.210549856029
 30
0.0
 11
227.004043460394
 21
257.210549856029
 31
0.0
  0
LINE
  5
   390
  8
0
  6
CONTINUOUS
 62
     1
 10
237.852082437344
 20
257.210549856029
 30
0.0
 11
237.854042428765
 21
257.210549856029
 31
0.0
  0
LINE
  5
   391
  8
0
  6
CONTINUOUS
 62
     1
 10
237.852082437344
 20
266.310549701057
 30
0.0
 11
237.854042428765
 21
266.310549701057
 31
0.0
  0
LINE
  5
   392
  8
0
  6
CONTINUOUS
 62
     1
 10
225.254042643342
 20
257.210549856029
 30
0.0
 11
225.954042631421
 21
257.210549856029
 31
0.0
  0
LINE
  5
   393
  8
0
  6
CONTINUOUS
 62
     1
 10
222.104042696986
 20
257.210549856029
 30
0.0
 11
225.254042643342
 21
257.210549856029
 31
0.0
  0
LINE
  5
   394
  8
0
  6
CONTINUOUS
 62
     1
 10
238.554042416844
 20
257.210549856029
 30
0.0
 11
244.504041647945
 21
257.210549856029
 31
0.0
  0
LINE
  5
   395
  8
0
  6
CONTINUOUS
 62
     1
 10
238.554042416844
 20
266.310549701057
 30
0.0
 11
244.504041647945
 21
266.310549701057
 31
0.0
  0
LINE
  5
   396
  8
0
  6
CONTINUOUS
 62
     1
 10
222.104042696986
 20
266.310549701057
 30
0.0
 11
225.254042643342
 21
266.310549701057
 31
0.0
  0
LINE
  5
   397
  8
0
  6
CONTINUOUS
 62
     1
 10
244.504042157397
 20
257.210550871492
 30
0.0
 11
244.504042157397
 21
258.960550841689
 31
0.0
  0
LINE
  5
   398
  8
0
  6
CONTINUOUS
 62
     1
 10
244.504042157397
 20
264.560550746322
 30
0.0
 11
244.504042157397
 21
266.310550716519
 31
0.0
  0
LINE
  5
   399
  8
0
  6
CONTINUOUS
 62
     1
 10
222.104042538867
 20
257.210550871492
 30
0.0
 11
222.104042538867
 21
266.310550716519
 31
0.0
  0
LINE
  5
   39A
  8
0
  6
CONTINUOUS
 62
     1
 10
225.254042485223
 20
257.210550871492
 30
0.0
 11
225.254042485223
 21
266.310550716519
 31
0.0
  0
LINE
  5
   39B
  8
0
  6
CONTINUOUS
 62
     1
 10
238.554042258725
 20
257.210550871492
 30
0.0
 11
238.554042258725
 21
258.960550841689
 31
0.0
  0
LINE
  5
   39C
  8
0
  6
CONTINUOUS
 62
     1
 10
238.554042258725
 20
264.560550746322
 30
0.0
 11
238.554042258725
 21
266.310550716519
 31
0.0
  0
LINE
  5
   39D
  8
0
  6
CONTINUOUS
 62
     1
 10
238.554042416844
 20
264.56054973086
 30
0.0
 11
244.504041647945
 21
264.56054973086
 31
0.0
  0
LINE
  5
   39E
  8
0
  6
CONTINUOUS
 62
     1
 10
238.554042416844
 20
258.960549826227
 30
0.0
 11
244.504041647945
 21
258.960549826227
 31
0.0
  0
LINE
  5
   39F
  8
0
  6
CONTINUOUS
 62
     3
 10
236.452082303066
 20
263.510550764203
 30
0.0
 11
236.452082303066
 21
264.210550752282
 31
0.0
  0
LINE
  5
   3A0
  8
0
  6
CONTINUOUS
 62
     3
 10
236.452082303066
 20
259.310550835729
 30
0.0
 11
236.452082303066
 21
260.010550823808
 31
0.0
  0
LINE
  5
   3A1
  8
0
  6
CONTINUOUS
 62
     3
 10
235.052082318363
 20
257.210549856029
 30
0.0
 11
237.852082437344
 21
257.210549856029
 31
0.0
  0
LINE
  5
   3A2
  8
0
  6
CONTINUOUS
 62
     3
 10
237.852082270679
 20
257.210550871492
 30
0.0
 11
237.852082270679
 21
258.61055084765
 31
0.0
  0
LINE
  5
   3A3
  8
0
  6
CONTINUOUS
 62
     3
 10
235.052082318363
 20
266.310549701057
 30
0.0
 11
237.852082437344
 21
266.310549701057
 31
0.0
  0
LINE
  5
   3A4
  8
0
  6
CONTINUOUS
 62
     3
 10
237.852082270679
 20
257.210549856029
 30
0.0
 11
237.852082270679
 21
266.310550716519
 31
0.0
  0
LINE
  5
   3A5
  8
0
  6
CONTINUOUS
 62
     3
 10
237.852082279224
 20
258.61055084765
 30
0.0
 11
237.852082279224
 21
260.010550823808
 31
0.0
  0
LINE
  5
   3A6
  8
0
  6
CONTINUOUS
 62
     3
 10
237.852082279224
 20
263.510550764203
 30
0.0
 11
237.852082279224
 21
264.910550740361
 31
0.0
  0
LINE
  5
   3A7
  8
0
  6
CONTINUOUS
 62
     3
 10
236.452082303066
 20
258.61055084765
 30
0.0
 11
236.452082303066
 21
259.310550835729
 31
0.0
  0
LINE
  5
   3A8
  8
0
  6
CONTINUOUS
 62
     3
 10
236.452082303066
 20
264.210550752282
 30
0.0
 11
236.452082303066
 21
264.910550740361
 31
0.0
  0
LINE
  5
   3A9
  8
0
  6
CONTINUOUS
 62
     2
 10
250.452082056103
 20
260.360550817847
 30
0.0
 11
250.452082056103
 21
261.760550794005
 31
0.0
  0
LINE
  5
   3AA
  8
0
  6
CONTINUOUS
 62
     2
 10
250.452082056103
 20
261.760550794005
 30
0.0
 11
250.452082056103
 21
263.160550770164
 31
0.0
  0
LINE
  5
   3AB
  8
0
  6
CONTINUOUS
 62
     2
 10
236.452082303066
 20
260.360550817847
 30
0.0
 11
236.452082303066
 21
261.760550794005
 31
0.0
  0
LINE
  5
   3AC
  8
0
  6
CONTINUOUS
 62
     2
 10
236.452082303066
 20
261.760550794005
 30
0.0
 11
236.452082303066
 21
263.160550770164
 31
0.0
  0
LINE
  5
   3AD
  8
0
  6
CONTINUOUS
 62
     2
 10
238.202082431383
 20
264.56054973086
 30
0.0
 11
250.102081561155
 21
264.56054973086
 31
0.0
  0
LINE
  5
   3AE
  8
0
  6
CONTINUOUS
 62
     2
 10
238.202082431383
 20
258.960549826227
 30
0.0
 11
250.102081561155
 21
258.960549826227
 31
0.0
  0
LINE
  5
   3AF
  8
0
  6
CONTINUOUS
 62
     2
 10
237.852082270679
 20
259.310550835729
 30
0.0
 11
237.852082270679
 21
260.010550823808
 31
0.0
  0
LINE
  5
   3B0
  8
0
  6
CONTINUOUS
 62
     2
 10
237.852082270679
 20
263.510550764203
 30
0.0
 11
237.852082270679
 21
264.210550752282
 31
0.0
  0
LINE
  5
   3B1
  8
0
  6
CONTINUOUS
 62
     2
 10
250.452082056103
 20
263.160550770164
 30
0.0
 11
250.452082056103
 21
264.210550752282
 31
0.0
  0
LINE
  5
   3B2
  8
0
  6
CONTINUOUS
 62
     2
 10
250.452082056103
 20
259.310548165441
 30
0.0
 11
250.452082056103
 21
260.360550817847
 31
0.0
  0
LINE
  5
   3B3
  8
0
  6
CONTINUOUS
 62
     2
 10
250.102082141053
 20
264.560551326217
 30
0.0
 11
250.452081297392
 21
264.21055049448
 31
0.0
  0
LINE
  5
   3B4
  8
0
  6
CONTINUOUS
 62
     2
 10
250.102081821371
 20
258.960547911187
 30
0.0
 11
250.45208097771
 21
259.310548742923
 31
0.0
  0
LINE
  5
   3B5
  8
0
  6
CONTINUOUS
 62
     2
 10
237.852082862242
 20
264.210550327386
 30
0.0
 11
238.202082028745
 21
264.560551148958
 31
0.0
  0
LINE
  5
   3B6
  8
0
  6
CONTINUOUS
 62
     2
 10
237.85208184678
 20
259.310550245168
 30
0.0
 11
238.202082348427
 21
258.960548088445
 31
0.0
  0
LINE
  5
   3B7
  8
0
  6
CONTINUOUS
 62
     2
 10
236.452082303066
 20
263.160550770164
 30
0.0
 11
236.452082303066
 21
263.510550764203
 31
0.0
  0
LINE
  5
   3B8
  8
0
  6
CONTINUOUS
 62
     2
 10
236.452082303066
 20
260.010550823808
 30
0.0
 11
236.452082303066
 21
260.360550817847
 31
0.0
  0
LINE
  5
   3B9
  8
0
  6
CONTINUOUS
 62
     2
 10
217.344043287501
 20
265.61055072844
 30
0.0
 11
217.344043287501
 21
266.030549653173
 31
0.0
  0
ARC
  5
   3BA
  8
0
  6
CONTINUOUS
 62
     2
 10
217.344043287501
 20
266.520549588001
 30
0.0
 40
0.489999991656726
 50
269.999924817807
 51
300.285943786594
  0
LINE
  5
   3BB
  8
0
  6
CONTINUOUS
 62
     2
 10
220.354042540013
 20
253.535549797649
 30
0.0
 11
224.90404302875
 21
255.460550004417
 31
0.0
  0
LINE
  5
   3BC
  8
0
  6
CONTINUOUS
 62
     2
 10
221.795047646096
 20
265.610549604132
 30
0.0
 11
222.104042696986
 21
265.610549604132
 31
0.0
  0
LINE
  5
   3BD
  8
0
  6
CONTINUOUS
 62
     2
 10
221.754042702947
 20
265.610549604129
 30
0.0
 11
221.795047646096
 21
265.610549604129
 31
0.0
  0
LINE
  5
   3BE
  8
0
  6
CONTINUOUS
 62
     2
 10
222.565047581655
 20
256.860550877452
 30
0.0
 11
222.565047581655
 21
257.210550871492
 31
0.0
  0
LINE
  5
   3BF
  8
0
  6
CONTINUOUS
 62
     2
 10
219.304043412242
 20
267.01054958029
 30
0.0
 11
220.004043400321
 21
267.01054958029
 31
0.0
  0
LINE
  5
   3C0
  8
0
  6
CONTINUOUS
 62
     2
 10
215.594042674336
 20
253.535549809768
 30
0.0
 11
220.354042059217
 21
253.535549809768
 31
0.0
  0
LINE
  5
   3C1
  8
0
  6
CONTINUOUS
 62
     2
 10
220.354042568658
 20
253.535550934076
 30
0.0
 11
220.354042568658
 21
255.460550901294
 31
0.0
  0
LINE
  5
   3C2
  8
0
  6
CONTINUOUS
 62
     2
 10
220.354042568669
 20
265.61055072844
 30
0.0
 11
220.354042568669
 21
266.660550710559
 31
0.0
  0
LINE
  5
   3C3
  8
0
  6
CONTINUOUS
 62
     2
 10
218.954042592511
 20
265.61055072844
 30
0.0
 11
218.954042592511
 21
266.660550710559
 31
0.0
  0
LINE
  5
   3C4
  8
0
  6
CONTINUOUS
 62
     2
 10
221.754042702947
 20
256.860549753144
 30
0.0
 11
225.254045981202
 21
256.860549753144
 31
0.0
  0
LINE
  5
   3C5
  8
0
  6
CONTINUOUS
 62
     2
 10
221.754042544827
 20
256.860550877452
 30
0.0
 11
221.754042544827
 21
265.61055072844
 31
0.0
  0
LINE
  5
   3C6
  8
0
  6
CONTINUOUS
 62
     2
 10
214.754043331609
 20
258.925548706055
 30
0.0
 11
214.754043331609
 21
264.595550211668
 31
0.0
  0
LINE
  5
   3C7
  8
0
  6
CONTINUOUS
 62
     2
 10
214.75404370579
 20
264.595549995606
 30
0.0
 11
215.594043557971
 21
265.435549847786
 31
0.0
  0
LINE
  5
   3C8
  8
0
  6
CONTINUOUS
 62
     2
 10
214.754043916627
 20
258.925549132954
 30
0.0
 11
215.594042433664
 21
258.085550615918
 31
0.0
  0
LINE
  5
   3C9
  8
0
  6
CONTINUOUS
 62
     2
 10
216.994043293462
 20
265.61055072844
 30
0.0
 11
216.994043293462
 21
267.010550704599
 31
0.0
  0
LINE
  5
   3CA
  8
0
  6
CONTINUOUS
 62
     2
 10
215.594043317303
 20
253.535550934076
 30
0.0
 11
215.594043317303
 21
258.08555085659
 31
0.0
  0
LINE
  5
   3CB
  8
0
  6
CONTINUOUS
 62
     2
 10
215.594043317303
 20
265.435550731421
 30
0.0
 11
215.594043317303
 21
267.010550704599
 31
0.0
  0
LINE
  5
   3CC
  8
0
  6
CONTINUOUS
 62
     2
 10
215.594042674336
 20
267.010549579655
 30
0.0
 11
216.994042650495
 21
267.010549579655
 31
0.0
  0
LINE
  5
   3CD
  8
0
  6
CONTINUOUS
 62
     2
 10
218.954042900259
 20
266.660549893357
 30
0.0
 11
219.304043895342
 21
267.010550221497
 31
0.0
  0
LINE
  5
   3CE
  8
0
  6
CONTINUOUS
 62
     2
 10
220.004042759114
 20
267.010550063393
 30
0.0
 11
220.354041751459
 21
266.660550402802
 31
0.0
  0
LINE
  5
   3CF
  8
0
  6
CONTINUOUS
 62
     2
 10
216.994042650495
 20
265.610549604132
 30
0.0
 11
218.954042083058
 21
265.610549604132
 31
0.0
  0
LINE
  5
   3D0
  8
0
  6
CONTINUOUS
 62
     2
 10
220.354042059217
 20
265.610549604132
 30
0.0
 11
221.754042702947
 21
265.610549604132
 31
0.0
  0
LINE
  5
   3D1
  8
0
  6
CONTINUOUS
 62
     2
 10
220.354042059217
 20
255.460549776986
 30
0.0
 11
225.254045981202
 21
255.460549776986
 31
0.0
  0
LINE
  5
   3D2
  8
0
  6
CONTINUOUS
 62
     2
 10
225.254045972657
 20
255.460550901294
 30
0.0
 11
225.254045972657
 21
256.860550877452
 31
0.0
  0
LINE
  5
   3D3
  8
0
  6
DASHDOT
 62
     7
 10
222.244042627845
 20
261.760549669697
 30
0.0
 11
255.354042798314
 21
261.760549669697
 31
0.0
  0
INSERT
  5
   3D4
  8
0
  6
CONTINUOUS
 62
     7
  2
*HATCH1601
 10
0.0
 20
0.0
 30
0.0
  0
INSERT
  5
   3D5
  8
0
  6
CONTINUOUS
 62
     7
  2
*HATCH1602
 10
0.0
 20
0.0
 30
0.0
  0
INSERT
  5
   3D6
  8
0
  6
CONTINUOUS
 62
     7
  2
*HATCH1603
 10
0.0
 20
0.0
 30
0.0
  0
LINE
  5
   3D7
  8
0
  6
CONTINUOUS
 62
     3
 10
235.052082318363
 20
264.910549724899
 30
0.0
 11
235.052082318363
 21
266.310549701058
 31
0.0
  0
LINE
  5
   3D8
  8
0
  6
CONTINUOUS
 62
     3
 10
235.052082485027
 20
264.910549724899
 30
0.0
 11
236.452082461186
 21
264.910549724899
 31
0.0
  0
LINE
  5
   3D9
  8
0
  6
CONTINUOUS
 62
     3
 10
235.052082485027
 20
258.610549832188
 30
0.0
 11
236.452082461186
 21
258.610549832188
 31
0.0
  0
LINE
  5
   3DA
  8
0
  6
CONTINUOUS
 62
     3
 10
235.052082318363
 20
257.21054985603
 30
0.0
 11
235.052082318363
 21
258.610549832188
 31
0.0
  0
LINE
  5
   3DB
  8
0
  6
CONTINUOUS
 62
     7
 10
236.452082294521
 20
266.310549701057
 30
0.0
 11
236.452082294521
 21
266.660549586251
 31
0.0
  0
LINE
  5
   3DC
  8
0
  6
CONTINUOUS
 62
     7
 10
236.452082294521
 20
258.610549832188
 30
0.0
 11
236.452082294521
 21
264.910549724899
 31
0.0
  0
INSERT
  5
   3DD
  8
0
  6
CONTINUOUS
 62
     7
  2
*HATCH1604
 10
0.0
 20
0.0
 30
0.0
  0
ARC
  5
   3DE
  8
0
  6
CONTINUOUS
 62
     7
 10
234.440072580029
 20
244.437334563764
 30
0.0
 40
3.32678454239891
 50
215.392413396142
 51
324.607586603858
  0
ARC
  5
   3DF
  8
0
  6
CONTINUOUS
 62
     7
 10
234.440072580029
 20
240.583765431282
 30
0.0
 40
3.32678454239891
 50
35.3924133961419
 51
144.607586603858
  0
ARC
  5
   3E0
  8
0
  6
CONTINUOUS
 62
     7
 10
229.016053174886
 20
244.437334563764
 30
0.0
 40
3.32678454239894
 50
215.392413396141
 51
324.607586603857
  0
INSERT
  5
   3E1
  8
0
  6
CONTINUOUS
 62
     7
  2
*HATCH1605
 10
0.0
 20
0.0
 30
0.0
  0
LINE
  5
   3E2
  8
0
  6
CONTINUOUS
 62
   252
 10
320.102079042721
 20
281.885551993922
 30
0.0
 11
320.802079856492
 21
281.885551993922
 31
0.0
  0
LINE
  5
   3E3
  8
0
  6
CONTINUOUS
 62
   252
 10
321.15207902484
 20
281.885551993922
 30
0.0
 11
321.15207902484
 21
336.48555106409
 31
0.0
  0
LINE
  5
   3E4
  8
0
  6
CONTINUOUS
 62
   252
 10
320.802079856492
 20
281.885551993922
 30
0.0
 11
321.852079838611
 21
281.885551993922
 31
0.0
  0
LINE
  5
   3E5
  8
0
  6
CONTINUOUS
 62
   252
 10
321.852079012917
 20
281.885551993922
 30
0.0
 11
321.852079012917
 21
292.385551815109
 31
0.0
  0
LINE
  5
   3E6
  8
0
  6
CONTINUOUS
 62
   252
 10
321.852079012917
 20
325.985551242904
 30
0.0
 11
321.852079012917
 21
336.48555106409
 31
0.0
  0
LINE
  5
   3E7
  8
0
  6
CONTINUOUS
 62
   252
 10
320.102079042721
 20
336.48555106409
 30
0.0
 11
320.802079856492
 21
336.48555106409
 31
0.0
  0
LINE
  5
   3E8
  8
0
  6
CONTINUOUS
 62
   252
 10
320.802079856492
 20
336.48555106409
 30
0.0
 11
321.852079838611
 21
336.48555106409
 31
0.0
  0
LINE
  5
   3E9
  8
0
  6
CONTINUOUS
 62
   252
 10
321.15207902484
 20
292.385551815108
 30
0.0
 11
321.852079838611
 21
292.385551815108
 31
0.0
  0
LINE
  5
   3EA
  8
0
  6
CONTINUOUS
 62
   252
 10
321.15207902484
 20
325.985551242904
 30
0.0
 11
321.852079838611
 21
325.985551242904
 31
0.0
  0
LINE
  5
   3EB
  8
0
  6
CONTINUOUS
 62
     3
 10
320.102079042721
 20
273.910986382415
 30
0.0
 11
320.102079042721
 21
349.668799570429
 31
0.0
  0
LINE
  5
   3EC
  8
0
  6
CONTINUOUS
 62
     3
 10
318.702079066563
 20
274.397942895862
 30
0.0
 11
318.702079066563
 21
350.368799558508
 31
0.0
  0
LINE
  5
   3ED
  8
0
  6
CONTINUOUS
 62
     7
 10
317.004053322923
 20
351.217812430328
 30
0.0
 11
321.312907570511
 21
349.063385306534
 31
0.0
  0
LINE
  5
   3EE
  8
0
  6
CONTINUOUS
 62
     7
 10
317.607292917585
 20
274.778738078115
 30
0.0
 11
321.571438825366
 21
273.399904718887
 31
0.0
  0
ARC
  5
   3EF
  8
0
  6
DASHDOT
 62
     7
 10
294.204042145476
 20
309.675551520661
 30
0.0
 40
40.9480375746456
 50
341.646738215609
 51
375.744270154323
  0
LINE
  5
   3F0
  8
0
  6
DASHDOT
 62
     7
 10
204.964712519677
 20
313.035551463441
 30
0.0
 11
263.754042664037
 21
313.035551463441
 31
0.0
  0
ARC
  5
   3F1
  8
0
  6
CONTINUOUS
 62
   212
 10
217.344043451922
 20
359.550550014898
 30
0.0
 40
0.489999991664849
 50
270.000159285355
 51
300.433403715356
  0
LINE
  5
   3F2
  8
0
  6
CONTINUOUS
 62
   212
 10
219.304041576419
 20
359.060550022597
 30
0.0
 11
220.004041564498
 21
359.060550022597
 31
0.0
  0
LINE
  5
   3F3
  8
0
  6
CONTINUOUS
 62
   212
 10
215.594044843946
 20
359.060550023233
 30
0.0
 11
216.994044820104
 21
359.060550023233
 31
0.0
  0
LINE
  5
   3F4
  8
0
  6
CONTINUOUS
 62
   212
 10
218.954041492215
 20
359.410551949578
 30
0.0
 11
219.304041485937
 21
359.060551955221
 31
0.0
  0
LINE
  5
   3F5
  8
0
  6
CONTINUOUS
 62
   212
 10
220.004043497125
 20
359.060550113076
 30
0.0
 11
220.354043490847
 21
359.410550107433
 31
0.0
  0
ARC
  5
   3F6
  8
0
  6
CONTINUOUS
 62
   212
 10
217.344043451924
 20
266.520551779132
 30
0.0
 40
0.489999991662431
 50
59.5664929853817
 51
89.9998407151668
  0
LINE
  5
   3F7
  8
0
  6
CONTINUOUS
 62
   212
 10
219.304041576419
 20
267.010551771429
 30
0.0
 11
220.004041564498
 21
267.010551771429
 31
0.0
  0
LINE
  5
   3F8
  8
0
  6
CONTINUOUS
 62
   212
 10
215.594044843946
 20
267.010551770794
 30
0.0
 11
216.994044820104
 21
267.010551770794
 31
0.0
  0
LINE
  5
   3F9
  8
0
  6
CONTINUOUS
 62
   252
 10
243.804043001314
 20
359.060552045703
 30
0.0
 11
243.804043001314
 21
359.760553225825
 31
0.0
  0
LINE
  5
   3FA
  8
0
  6
CONTINUOUS
 62
   252
 10
227.004041445289
 20
359.060550022602
 30
0.0
 11
228.404041421447
 21
359.060550022602
 31
0.0
  0
LINE
  5
   3FB
  8
0
  6
CONTINUOUS
 62
   252
 10
224.204041492973
 20
359.060550022602
 30
0.0
 11
225.254041475091
 21
359.060550022602
 31
0.0
  0
LINE
  5
   3FC
  8
0
  6
CONTINUOUS
 62
   252
 10
215.594043317303
 20
372.535549793124
 30
0.0
 11
242.404043853316
 21
372.535549793124
 31
0.0
  0
LINE
  5
   3FD
  8
0
  6
CONTINUOUS
 62
   252
 10
237.504043379853
 20
253.535551819682
 30
0.0
 11
242.404043853316
 21
253.535551819682
 31
0.0
  0
LINE
  5
   3FE
  8
0
  6
CONTINUOUS
 62
   252
 10
227.004041445289
 20
267.010551590204
 30
0.0
 11
228.404041421447
 21
267.010551590204
 31
0.0
  0
LINE
  5
   3FF
  8
0
  6
CONTINUOUS
 62
   252
 10
224.204041492973
 20
267.010551590204
 30
0.0
 11
225.254041475091
 21
267.010551590204
 31
0.0
  0
LINE
  5
   400
  8
0
  6
CONTINUOUS
 62
   252
 10
242.404043025156
 20
266.310549701057
 30
0.0
 11
242.404043025156
 21
267.010550943017
 31
0.0
  0
LINE
  5
   401
  8
0
  6
CONTINUOUS
 62
     1
 10
215.594046969162
 20
269.110550907254
 30
0.0
 11
215.594046969162
 21
269.810550895333
 31
0.0
  0
LINE
  5
   402
  8
0
  6
CONTINUOUS
 62
     1
 10
215.594046969162
 20
268.410550919175
 30
0.0
 11
215.594046969162
 21
269.110550907254
 31
0.0
  0
LINE
  5
   403
  8
0
  6
CONTINUOUS
 62
   252
 10
224.204041492973
 20
268.410551566362
 30
0.0
 11
225.638514887733
 21
268.410551566362
 31
0.0
  0
LINE
  5
   404
  8
0
  6
CONTINUOUS
 62
   252
 10
228.206765881594
 20
268.410551566362
 30
0.0
 11
228.404041421447
 21
268.410551566362
 31
0.0
  0
LINE
  5
   405
  8
0
  6
CONTINUOUS
 62
     1
 10
215.594046969162
 20
356.260552093387
 30
0.0
 11
215.594046969162
 21
356.960552081466
 31
0.0
  0
LINE
  5
   406
  8
0
  6
CONTINUOUS
 62
     1
 10
215.594046969162
 20
356.960552081466
 30
0.0
 11
215.594046969162
 21
357.660552069545
 31
0.0
  0
LINE
  5
   407
  8
0
  6
CONTINUOUS
 62
   252
 10
228.206765881594
 20
357.660550046444
 30
0.0
 11
228.404041421447
 21
357.660550046444
 31
0.0
  0
LINE
  5
   408
  8
0
  6
CONTINUOUS
 62
   252
 10
224.204041492973
 20
357.660550046444
 30
0.0
 11
225.638541590613
 21
357.660550046444
 31
0.0
  0
LINE
  5
   409
  8
0
  6
CONTINUOUS
 62
     2
 10
217.554043448349
 20
266.038958628631
 30
0.0
 11
217.554043448349
 21
266.310550954938
 31
0.0
  0
LINE
  5
   40A
  8
0
  6
CONTINUOUS
 62
     2
 10
221.754043376823
 20
359.760552033782
 30
0.0
 11
221.754043376823
 21
360.118691065769
 31
0.0
  0
LINE
  5
   40B
  8
0
  6
CONTINUOUS
 62
     2
 10
217.554043448349
 20
359.760552033782
 30
0.0
 11
217.554043448349
 21
360.036344723177
 31
0.0
  0
LINE
  5
   40C
  8
0
  6
CONTINUOUS
 62
   252
 10
243.804043001314
 20
368.860553070853
 30
0.0
 11
243.804043001314
 21
371.135551840067
 31
0.0
  0
LINE
  5
   40D
  8
0
  6
CONTINUOUS
 62
   252
 10
243.804043829475
 20
371.135549816966
 30
0.0
 11
251.504043698344
 21
371.135549816966
 31
0.0
  0
LINE
  5
   40E
  8
0
  6
CONTINUOUS
 62
   252
 10
243.804043829475
 20
359.060550022602
 30
0.0
 11
251.504043698344
 21
359.060550022602
 31
0.0
  0
LINE
  5
   40F
  8
0
  6
CONTINUOUS
 62
   252
 10
218.954041582379
 20
359.060550022602
 30
0.0
 11
220.354041558538
 21
359.060550022602
 31
0.0
  0
LINE
  5
   410
  8
0
  6
CONTINUOUS
 62
   252
 10
242.404043025156
 20
368.860553070853
 30
0.0
 11
242.404043025156
 21
372.535551816225
 31
0.0
  0
LINE
  5
   411
  8
0
  6
CONTINUOUS
 62
   252
 10
215.594044843946
 20
359.060550022602
 30
0.0
 11
217.554041606221
 21
359.060550022602
 31
0.0
  0
LINE
  5
   412
  8
0
  6
CONTINUOUS
 62
   252
 10
220.704041552577
 20
360.110550004721
 30
0.0
 11
221.404041540656
 21
360.110550004721
 31
0.0
  0
LINE
  5
   413
  8
0
  6
CONTINUOUS
 62
   252
 10
217.904041600261
 20
360.110550004721
 30
0.0
 11
218.60404158834
 21
360.110550004721
 31
0.0
  0
LINE
  5
   414
  8
0
  6
CONTINUOUS
 62
   252
 10
221.754043376823
 20
359.060552045703
 30
0.0
 11
221.754043376823
 21
359.760552033782
 31
0.0
  0
LINE
  5
   415
  8
0
  6
CONTINUOUS
 62
   252
 10
220.354043400665
 20
359.060552045703
 30
0.0
 11
220.354043400665
 21
359.760552033782
 31
0.0
  0
LINE
  5
   416
  8
0
  6
CONTINUOUS
 62
   252
 10
218.954043424507
 20
359.060552045703
 30
0.0
 11
218.954043424507
 21
359.760552033782
 31
0.0
  0
LINE
  5
   417
  8
0
  6
CONTINUOUS
 62
   252
 10
217.554043448349
 20
359.060552045703
 30
0.0
 11
217.554043448349
 21
359.760552033782
 31
0.0
  0
LINE
  5
   418
  8
0
  6
CONTINUOUS
 62
   252
 10
242.404043853316
 20
359.060550022602
 30
0.0
 11
243.804043829475
 21
359.060550022602
 31
0.0
  0
LINE
  5
   419
  8
0
  6
CONTINUOUS
 62
   252
 10
224.2040433351
 20
357.660552069545
 30
0.0
 11
224.2040433351
 21
359.060552045703
 31
0.0
  0
LINE
  5
   41A
  8
0
  6
CONTINUOUS
 62
   252
 10
228.404043263574
 20
357.660552069545
 30
0.0
 11
228.404043263574
 21
359.060552045703
 31
0.0
  0
LINE
  5
   41B
  8
0
  6
CONTINUOUS
 62
   252
 10
217.554043448349
 20
266.310550954938
 30
0.0
 11
217.554043448349
 21
267.010550943017
 31
0.0
  0
LINE
  5
   41C
  8
0
  6
CONTINUOUS
 62
   252
 10
218.954043424507
 20
266.310550954938
 30
0.0
 11
218.954043424507
 21
267.010550943017
 31
0.0
  0
LINE
  5
   41D
  8
0
  6
CONTINUOUS
 62
   252
 10
220.354043400665
 20
266.310550954938
 30
0.0
 11
220.354043400665
 21
267.010550943017
 31
0.0
  0
LINE
  5
   41E
  8
0
  6
CONTINUOUS
 62
   252
 10
221.754043376823
 20
266.310550954938
 30
0.0
 11
221.754043376823
 21
267.010550943017
 31
0.0
  0
LINE
  5
   41F
  8
0
  6
CONTINUOUS
 62
   252
 10
217.904041600261
 20
265.960551608086
 30
0.0
 11
218.60404158834
 21
265.960551608086
 31
0.0
  0
LINE
  5
   420
  8
0
  6
CONTINUOUS
 62
   252
 10
220.704041552577
 20
265.960551608086
 30
0.0
 11
221.404041540656
 21
265.960551608086
 31
0.0
  0
LINE
  5
   421
  8
0
  6
CONTINUOUS
 62
   252
 10
221.754041534696
 20
359.060550022602
 30
0.0
 11
224.204041492973
 21
359.060550022602
 31
0.0
  0
LINE
  5
   422
  8
0
  6
CONTINUOUS
 62
   252
 10
228.404041421447
 20
359.060550022602
 30
0.0
 11
242.404043853316
 21
359.060550022602
 31
0.0
  0
LINE
  5
   423
  8
0
  6
CONTINUOUS
 62
   252
 10
242.404043853316
 20
253.535551819682
 30
0.0
 11
251.504043698344
 21
253.535551819682
 31
0.0
  0
LINE
  5
   424
  8
0
  6
CONTINUOUS
 62
   252
 10
242.404043853316
 20
372.535549793124
 30
0.0
 11
251.504043698344
 21
372.535549793124
 31
0.0
  0
LINE
  5
   425
  8
0
  6
CONTINUOUS
 62
   252
 10
230.329034212092
 20
356.260552093387
 30
0.0
 11
230.329034212092
 21
357.660552069545
 31
0.0
  0
LINE
  5
   426
  8
0
  6
CONTINUOUS
 62
   252
 10
230.329014946642
 20
268.410550919175
 30
0.0
 11
230.329014946642
 21
269.810550895333
 31
0.0
  0
LINE
  5
   427
  8
0
  6
CONTINUOUS
 62
   252
 10
218.954041582379
 20
267.010551590204
 30
0.0
 11
220.354041558538
 21
267.010551590204
 31
0.0
  0
LINE
  5
   428
  8
0
  6
CONTINUOUS
 62
   252
 10
242.404043025156
 20
253.535553842783
 30
0.0
 11
242.404043025156
 21
257.210549856029
 31
0.0
  0
LINE
  5
   429
  8
0
  6
CONTINUOUS
 62
   252
 10
215.594044843946
 20
267.010551590204
 30
0.0
 11
217.554041606221
 21
267.010551590204
 31
0.0
  0
LINE
  5
   42A
  8
0
  6
CONTINUOUS
 62
   252
 10
228.404043263574
 20
267.010550943017
 30
0.0
 11
228.404043263574
 21
268.410550919175
 31
0.0
  0
LINE
  5
   42B
  8
0
  6
CONTINUOUS
 62
   252
 10
224.2040433351
 20
267.010550943017
 30
0.0
 11
224.2040433351
 21
268.410550919175
 31
0.0
  0
LINE
  5
   42C
  8
0
  6
CONTINUOUS
 62
   252
 10
221.754041534696
 20
267.010551590204
 30
0.0
 11
224.204041492973
 21
267.010551590204
 31
0.0
  0
LINE
  5
   42D
  8
0
  6
CONTINUOUS
 62
   252
 10
228.404041421447
 20
267.010551590204
 30
0.0
 11
242.404043853316
 21
267.010551590204
 31
0.0
  0
LINE
  5
   42E
  8
0
  6
CONTINUOUS
 62
   252
 10
243.804043829475
 20
254.93555179584
 30
0.0
 11
251.504043698344
 21
254.93555179584
 31
0.0
  0
LINE
  5
   42F
  8
0
  6
CONTINUOUS
 62
   252
 10
243.804043001314
 20
254.935553818941
 30
0.0
 11
243.804043001314
 21
257.210549856029
 31
0.0
  0
LINE
  5
   430
  8
0
  6
CONTINUOUS
 62
   252
 10
242.404043853316
 20
267.010551590204
 30
0.0
 11
243.804043829475
 21
267.010551590204
 31
0.0
  0
LINE
  5
   431
  8
0
  6
CONTINUOUS
 62
   252
 10
243.804043829475
 20
267.010551590204
 30
0.0
 11
251.504043698344
 21
267.010551590204
 31
0.0
  0
LINE
  5
   432
  8
0
  6
CONTINUOUS
 62
   252
 10
233.829043171187
 20
356.260552093387
 30
0.0
 11
233.829043171187
 21
357.660552069545
 31
0.0
  0
LINE
  5
   433
  8
0
  6
CONTINUOUS
 62
   252
 10
233.82904132906
 20
357.660550046444
 30
0.0
 11
251.504043698344
 21
357.660550046444
 31
0.0
  0
LINE
  5
   434
  8
0
  6
CONTINUOUS
 62
   252
 10
233.829043171187
 20
268.410550919175
 30
0.0
 11
233.829043171187
 21
269.810550895333
 31
0.0
  0
LINE
  5
   435
  8
0
  6
CONTINUOUS
 62
   252
 10
233.82904132906
 20
268.410551566362
 30
0.0
 11
251.504043698344
 21
268.410551566362
 31
0.0
  0
LINE
  5
   436
  8
0
  6
CONTINUOUS
 62
   252
 10
251.504042870184
 20
267.010550943017
 30
0.0
 11
251.504042870184
 21
268.410550919175
 31
0.0
  0
LINE
  5
   437
  8
0
  6
CONTINUOUS
 62
   252
 10
251.504042870184
 20
253.535553842783
 30
0.0
 11
251.504042870184
 21
254.935553818941
 31
0.0
  0
LINE
  5
   438
  8
0
  6
CONTINUOUS
 62
   252
 10
251.504042870184
 20
371.135551840067
 30
0.0
 11
251.504042870184
 21
372.535551816225
 31
0.0
  0
LINE
  5
   439
  8
0
  6
CONTINUOUS
 62
   252
 10
251.504042870184
 20
357.660552069545
 30
0.0
 11
251.504042870184
 21
359.060552045703
 31
0.0
  0
LINE
  5
   43A
  8
0
  6
CONTINUOUS
 62
   252
 10
215.594046969162
 20
267.010550943017
 30
0.0
 11
215.594046969162
 21
268.410550919175
 31
0.0
  0
LINE
  5
   43B
  8
0
  6
CONTINUOUS
 62
   252
 10
215.594046969162
 20
357.660552069545
 30
0.0
 11
215.594046969162
 21
359.060552045703
 31
0.0
  0
LINE
  5
   43C
  8
0
  6
CONTINUOUS
 62
     1
 10
215.594044843946
 20
268.410551566364
 30
0.0
 11
224.204041492973
 21
268.410551566364
 31
0.0
  0
LINE
  5
   43D
  8
0
  6
CONTINUOUS
 62
     1
 10
228.404041421447
 20
268.410551566364
 30
0.0
 11
230.329014685784
 21
268.410551566364
 31
0.0
  0
LINE
  5
   43E
  8
0
  6
CONTINUOUS
 62
     1
 10
228.404041421447
 20
357.660550046442
 30
0.0
 11
230.329036048088
 21
357.660550046442
 31
0.0
  0
LINE
  5
   43F
  8
0
  6
CONTINUOUS
 62
     1
 10
215.594044843946
 20
357.660550046442
 30
0.0
 11
224.204041492973
 21
357.660550046442
 31
0.0
  0
ARC
  5
   440
  8
0
  6
CONTINUOUS
 62
     2
 10
217.904043442388
 20
266.310551602125
 30
0.0
 40
0.349999994039622
 50
180.000105943646
 51
269.999698440195
  0
ARC
  5
   441
  8
0
  6
CONTINUOUS
 62
     2
 10
220.704043394703
 20
266.310551602125
 30
0.0
 40
0.349999994038201
 50
180.000105943646
 51
269.999698440427
  0
ARC
  5
   442
  8
0
  6
CONTINUOUS
 62
     2
 10
218.604043430469
 20
266.310551602124
 30
0.0
 40
0.349999994038358
 50
269.999698440004
 51
359.99989405292
  0
ARC
  5
   443
  8
0
  6
CONTINUOUS
 62
     2
 10
221.404043382783
 20
266.310551602125
 30
0.0
 40
0.349999994038983
 50
269.99969844025
 51
359.999894056363
  0
ARC
  5
   444
  8
0
  6
CONTINUOUS
 62
     2
 10
218.604043430468
 20
359.760550010682
 30
0.0
 40
0.349999994038362
 50
3.31187148473826E-4
 51
90.0003015587912
  0
ARC
  5
   445
  8
0
  6
CONTINUOUS
 62
     2
 10
221.404043382784
 20
359.760550010683
 30
0.0
 40
0.349999994038107
 50
3.31187157779463E-4
 51
90.0003015587168
  0
ARC
  5
   446
  8
0
  6
CONTINUOUS
 62
     2
 10
220.704043394707
 20
359.760550010679
 30
0.0
 40
0.349999994041996
 50
90.0003015590053
 51
179.999668815048
  0
ARC
  5
   447
  8
0
  6
CONTINUOUS
 62
     2
 10
217.904043442389
 20
359.760550010681
 30
0.0
 40
0.349999994040518
 50
90.0003015587726
 51
179.999668815057
  0
LINE
  5
   448
  8
0
  6
CONTINUOUS
 62
   252
 10
262.354042687879
 20
254.865549547672
 30
0.0
 11
262.354042687879
 21
256.405552725792
 31
0.0
  0
LINE
  5
   449
  8
0
  6
CONTINUOUS
 62
   252
 10
262.354042687879
 20
362.035551995039
 30
0.0
 11
262.354042687879
 21
366.585551917553
 31
0.0
  0
LINE
  5
   44A
  8
0
  6
CONTINUOUS
 62
   252
 10
260.954042568729
 20
362.035551995039
 30
0.0
 11
260.954042568729
 21
366.585551917553
 31
0.0
  0
LINE
  5
   44B
  8
0
  6
CONTINUOUS
 62
   252
 10
262.354042687879
 20
259.485553741455
 30
0.0
 11
262.354042687879
 21
264.035550993681
 31
0.0
  0
LINE
  5
   44C
  8
0
  6
CONTINUOUS
 62
   252
 10
260.954042591342
 20
259.485553741455
 30
0.0
 11
260.954042591342
 21
264.035550993681
 31
0.0
  0
LINE
  5
   44D
  8
0
  6
CONTINUOUS
 62
   252
 10
262.354042687879
 20
369.66554759264
 30
0.0
 11
262.354042687879
 21
371.20555077076
 31
0.0
  0
LINE
  5
   44E
  8
0
  6
CONTINUOUS
 62
   252
 10
263.75404266404
 20
267.535550934076
 30
0.0
 11
263.75404266404
 21
269.810550895333
 31
0.0
  0
LINE
  5
   44F
  8
0
  6
CONTINUOUS
 62
   252
 10
263.75404266404
 20
356.260552093387
 30
0.0
 11
263.75404266404
 21
358.535552054644
 31
0.0
  0
LINE
  5
   450
  8
0
  6
CONTINUOUS
 62
   252
 10
251.504042870159
 20
361.33555200696
 30
0.0
 11
251.504042870159
 21
367.285551905632
 31
0.0
  0
LINE
  5
   451
  8
0
  6
CONTINUOUS
 62
   252
 10
251.504042870295
 20
258.785553753376
 30
0.0
 11
251.504042870295
 21
264.73555098176
 31
0.0
  0
LINE
  5
   452
  8
0
  6
CONTINUOUS
 62
   252
 10
263.264042964015
 20
360.495549998164
 30
0.0
 11
263.754042154584
 21
360.495549998164
 31
0.0
  0
LINE
  5
   453
  8
0
  6
CONTINUOUS
 62
   252
 10
263.264042672382
 20
360.495548816919
 30
0.0
 11
263.264042672382
 21
360.98555201292
 31
0.0
  0
LINE
  5
   454
  8
0
  6
CONTINUOUS
 62
   252
 10
260.954042202268
 20
366.585549894457
 30
0.0
 11
262.354042178426
 21
366.585549894457
 31
0.0
  0
LINE
  5
   455
  8
0
  6
CONTINUOUS
 62
   252
 10
260.954042202268
 20
362.035549971943
 30
0.0
 11
262.354042178426
 21
362.035549971943
 31
0.0
  0
LINE
  5
   456
  8
0
  6
CONTINUOUS
 62
   252
 10
252.554043680463
 20
254.865551615807
 30
0.0
 11
262.354042178426
 21
254.865551615807
 31
0.0
  0
LINE
  5
   457
  8
0
  6
CONTINUOUS
 62
   252
 10
252.554043680463
 20
256.405551589581
 30
0.0
 11
262.354042178426
 21
256.405551589581
 31
0.0
  0
LINE
  5
   458
  8
0
  6
CONTINUOUS
 62
   252
 10
252.554042854772
 20
254.865549547672
 30
0.0
 11
252.554042854772
 21
256.405552725792
 31
0.0
  0
LINE
  5
   459
  8
0
  6
CONTINUOUS
 62
   252
 10
263.264042964015
 20
265.575551614645
 30
0.0
 11
263.754042154584
 21
265.575551614645
 31
0.0
  0
LINE
  5
   45A
  8
0
  6
CONTINUOUS
 62
   252
 10
263.264042672382
 20
265.0855509758
 30
0.0
 11
263.264042672382
 21
265.575551501513
 31
0.0
  0
LINE
  5
   45B
  8
0
  6
CONTINUOUS
 62
   252
 10
262.354042178426
 20
265.085551622989
 30
0.0
 11
263.264042964015
 21
265.085551622989
 31
0.0
  0
LINE
  5
   45C
  8
0
  6
CONTINUOUS
 62
   252
 10
262.354042687879
 20
254.235548490286
 30
0.0
 11
262.354042687879
 21
254.865549547672
 31
0.0
  0
LINE
  5
   45D
  8
0
  6
CONTINUOUS
 62
   252
 10
262.354042687879
 20
256.405552725792
 30
0.0
 11
262.354042687879
 21
259.485553741455
 31
0.0
  0
LINE
  5
   45E
  8
0
  6
CONTINUOUS
 62
   252
 10
262.354042687879
 20
264.035550993681
 30
0.0
 11
262.354042687879
 21
265.0855509758
 31
0.0
  0
LINE
  5
   45F
  8
0
  6
CONTINUOUS
 62
   252
 10
262.354042178426
 20
360.985549989819
 30
0.0
 11
263.264042964015
 21
360.985549989819
 31
0.0
  0
LINE
  5
   460
  8
0
  6
CONTINUOUS
 62
   252
 10
262.354042687879
 20
360.98555201292
 30
0.0
 11
262.354042687879
 21
362.035551995039
 31
0.0
  0
LINE
  5
   461
  8
0
  6
CONTINUOUS
 62
   252
 10
262.354042687879
 20
366.585551917553
 30
0.0
 11
262.354042687879
 21
369.66554759264
 31
0.0
  0
LINE
  5
   462
  8
0
  6
CONTINUOUS
 62
   252
 10
262.354042687879
 20
371.20555077076
 30
0.0
 11
262.354042687879
 21
371.835551828146
 31
0.0
  0
LINE
  5
   463
  8
0
  6
CONTINUOUS
 62
   252
 10
251.504043698344
 20
367.285549882536
 30
0.0
 11
260.954042202268
 21
367.285549882536
 31
0.0
  0
LINE
  5
   464
  8
0
  6
CONTINUOUS
 62
   252
 10
251.504043698344
 20
361.335549983864
 30
0.0
 11
260.954042202268
 21
361.335549983864
 31
0.0
  0
LINE
  5
   465
  8
0
  6
CONTINUOUS
 62
   252
 10
260.95404256525
 20
361.33555200696
 30
0.0
 11
260.95404256525
 21
362.035551995039
 31
0.0
  0
LINE
  5
   466
  8
0
  6
CONTINUOUS
 62
   252
 10
260.954042591342
 20
366.585551917553
 30
0.0
 11
260.954042591342
 21
367.285551905632
 31
0.0
  0
LINE
  5
   467
  8
0
  6
CONTINUOUS
 62
   252
 10
251.504043698344
 20
253.535549922387
 30
0.0
 11
261.654042190347
 21
253.535549922387
 31
0.0
  0
LINE
  5
   468
  8
0
  6
CONTINUOUS
 62
   252
 10
251.504043698344
 20
372.535551690422
 30
0.0
 11
261.654042190347
 21
372.535551690422
 31
0.0
  0
LINE
  5
   469
  8
0
  6
CONTINUOUS
 62
   252
 10
260.954042202268
 20
259.485551718352
 30
0.0
 11
262.354042178426
 21
259.485551718352
 31
0.0
  0
LINE
  5
   46A
  8
0
  6
CONTINUOUS
 62
   252
 10
260.954042202268
 20
264.035551640866
 30
0.0
 11
262.354042178426
 21
264.035551640866
 31
0.0
  0
LINE
  5
   46B
  8
0
  6
CONTINUOUS
 62
   252
 10
260.954042594821
 20
258.785553753376
 30
0.0
 11
260.954042594821
 21
259.485553741455
 31
0.0
  0
LINE
  5
   46C
  8
0
  6
CONTINUOUS
 62
   252
 10
260.954042568729
 20
264.035550993681
 30
0.0
 11
260.954042568729
 21
264.73555098176
 31
0.0
  0
LINE
  5
   46D
  8
0
  6
CONTINUOUS
 62
   252
 10
251.504043698344
 20
258.785551730273
 30
0.0
 11
260.954042202268
 21
258.785551730273
 31
0.0
  0
LINE
  5
   46E
  8
0
  6
CONTINUOUS
 62
   252
 10
251.504043698344
 20
264.735551628945
 30
0.0
 11
260.954042202268
 21
264.735551628945
 31
0.0
  0
LINE
  5
   46F
  8
0
  6
CONTINUOUS
 62
   252
 10
252.554042854772
 20
369.66554759264
 30
0.0
 11
252.554042854772
 21
371.20555077076
 31
0.0
  0
LINE
  5
   470
  8
0
  6
CONTINUOUS
 62
   252
 10
252.554043680463
 20
371.205549997002
 30
0.0
 11
262.354042178426
 21
371.205549997002
 31
0.0
  0
LINE
  5
   471
  8
0
  6
CONTINUOUS
 62
   252
 10
252.554043680463
 20
369.665550023228
 30
0.0
 11
262.354042178426
 21
369.665550023228
 31
0.0
  0
LINE
  5
   472
  8
0
  6
CONTINUOUS
 62
   252
 10
263.754042664038
 20
265.575551501513
 30
0.0
 11
263.754042664038
 21
267.535550934076
 31
0.0
  0
LINE
  5
   473
  8
0
  6
CONTINUOUS
 62
   252
 10
263.754042664038
 20
358.535552054644
 30
0.0
 11
263.754042664038
 21
360.495548816919
 31
0.0
  0
LINE
  5
   474
  8
0
  6
CONTINUOUS
 62
   252
 10
252.904043674502
 20
358.535551928841
 30
0.0
 11
263.754042154584
 21
358.535551928841
 31
0.0
  0
LINE
  5
   475
  8
0
  6
CONTINUOUS
 62
   252
 10
252.904043674502
 20
267.535549683965
 30
0.0
 11
263.754042154584
 21
267.535549683965
 31
0.0
  0
LINE
  5
   476
  8
0
  6
CONTINUOUS
 62
   252
 10
252.904042846343
 20
356.260552093387
 30
0.0
 11
252.904042846343
 21
358.535552054644
 31
0.0
  0
LINE
  5
   477
  8
0
  6
CONTINUOUS
 62
   252
 10
252.904042846343
 20
267.535550934076
 30
0.0
 11
252.904042846343
 21
269.810550895333
 31
0.0
  0
LINE
  5
   478
  8
0
  6
CONTINUOUS
 62
   252
 10
251.504042870166
 20
356.260552093387
 30
0.0
 11
251.504042870166
 21
361.33555200696
 31
0.0
  0
LINE
  5
   479
  8
0
  6
CONTINUOUS
 62
   252
 10
251.504042870287
 20
264.73555098176
 30
0.0
 11
251.504042870287
 21
269.810550895333
 31
0.0
  0
LINE
  5
   47A
  8
0
  6
CONTINUOUS
 62
   252
 10
251.504042870302
 20
253.535548502207
 30
0.0
 11
251.504042870302
 21
258.785553753376
 31
0.0
  0
LINE
  5
   47B
  8
0
  6
CONTINUOUS
 62
   252
 10
251.504042870151
 20
367.285551905632
 30
0.0
 11
251.504042870151
 21
372.535551816225
 31
0.0
  0
ARC
  5
   47C
  8
0
  6
CONTINUOUS
 62
   252
 10
261.654042699801
 20
371.835551702343
 30
0.0
 40
0.699999988078627
 50
1.02807951757123E-5
 51
90.0000416993707
  0
ARC
  5
   47D
  8
0
  6
CONTINUOUS
 62
   252
 10
261.6540426998
 20
254.235549910466
 30
0.0
 40
0.699999988079399
 50
269.999958300811
 51
359.999883755026
  0
LINE
  5
   47E
  8
0
  6
CONTINUOUS
 62
   218
 10
225.254041475091
 20
368.510549861669
 30
0.0
 11
227.004041445289
 21
368.510549861669
 31
0.0
  0
LINE
  5
   47F
  8
0
  6
CONTINUOUS
 62
   218
 10
225.254041475091
 20
366.410549897432
 30
0.0
 11
227.004041445289
 21
366.410549897432
 31
0.0
  0
LINE
  5
   480
  8
0
  6
CONTINUOUS
 62
   218
 10
225.254041475091
 20
362.210549968958
 30
0.0
 11
227.004041445289
 21
362.210549968958
 31
0.0
  0
LINE
  5
   481
  8
0
  6
CONTINUOUS
 62
   218
 10
227.004043287416
 20
358.669755390981
 30
0.0
 11
227.004043287416
 21
362.210551992059
 31
0.0
  0
LINE
  5
   482
  8
0
  6
CONTINUOUS
 62
   218
 10
227.004043287416
 20
366.410551920533
 30
0.0
 11
227.004043287416
 21
368.51055188477
 31
0.0
  0
LINE
  5
   483
  8
0
  6
CONTINUOUS
 62
   218
 10
227.004041665433
 20
358.669755653339
 30
0.0
 11
229.528922761525
 21
356.551128856842
 31
0.0
  0
ARC
  5
   484
  8
0
  6
CONTINUOUS
 62
   218
 10
228.404043263576
 20
355.210552111269
 30
0.0
 40
1.74999997019574
 50
36.8698289214926
 51
49.999948705665
  0
LINE
  5
   485
  8
0
  6
CONTINUOUS
 62
   218
 10
225.879166850176
 20
357.329174978517
 30
0.0
 11
227.15270497553
 21
356.260549607242
 31
0.0
  0
ARC
  5
   486
  8
0
  6
CONTINUOUS
 62
   218
 10
227.004043287415
 20
358.669754292337
 30
0.0
 40
1.74999997019697
 50
179.99996404001
 51
230.000079519411
  0
LINE
  5
   487
  8
0
  6
CONTINUOUS
 62
   218
 10
225.254043317218
 20
358.669755390981
 30
0.0
 11
225.254043317218
 21
362.210551992059
 31
0.0
  0
LINE
  5
   488
  8
0
  6
CONTINUOUS
 62
   218
 10
225.254043317218
 20
366.410551920533
 30
0.0
 11
225.254043317218
 21
368.51055188477
 31
0.0
  0
LINE
  5
   489
  8
0
  6
CONTINUOUS
 62
   218
 10
225.254041475091
 20
257.560551060894
 30
0.0
 11
227.004041445289
 21
257.560551060894
 31
0.0
  0
LINE
  5
   48A
  8
0
  6
CONTINUOUS
 62
   218
 10
225.254041475091
 20
259.660551025132
 30
0.0
 11
227.004041445289
 21
259.660551025132
 31
0.0
  0
LINE
  5
   48B
  8
0
  6
CONTINUOUS
 62
   218
 10
225.254041475091
 20
263.860550953606
 30
0.0
 11
227.004041445289
 21
263.860550953606
 31
0.0
  0
LINE
  5
   48C
  8
0
  6
CONTINUOUS
 62
   218
 10
227.004043287416
 20
263.860550996661
 30
0.0
 11
227.004043287416
 21
267.401347597739
 31
0.0
  0
LINE
  5
   48D
  8
0
  6
CONTINUOUS
 62
   218
 10
227.004043287416
 20
257.560548433662
 30
0.0
 11
227.004043287416
 21
259.660551068187
 31
0.0
  0
LINE
  5
   48E
  8
0
  6
CONTINUOUS
 62
   218
 10
227.004042682817
 20
267.401346122911
 30
0.0
 11
229.528921149188
 21
269.519970712811
 31
0.0
  0
ARC
  5
   48F
  8
0
  6
CONTINUOUS
 62
   218
 10
228.404043263587
 20
270.860548811284
 30
0.0
 40
1.74999997018031
 50
309.99998238357
 51
323.130225196071
  0
LINE
  5
   490
  8
0
  6
CONTINUOUS
 62
   218
 10
225.879166552699
 20
268.741925694434
 30
0.0
 11
227.152705992914
 21
269.810552169008
 31
0.0
  0
ARC
  5
   491
  8
0
  6
CONTINUOUS
 62
   218
 10
227.004043287416
 20
267.401346630226
 30
0.0
 40
1.7499999701972
 50
129.999933194625
 51
179.999968329715
  0
LINE
  5
   492
  8
0
  6
CONTINUOUS
 62
   218
 10
225.254043317218
 20
263.860550996661
 30
0.0
 11
225.254043317218
 21
267.401347597739
 31
0.0
  0
LINE
  5
   493
  8
0
  6
CONTINUOUS
 62
   218
 10
225.254043317218
 20
257.560548433662
 30
0.0
 11
225.254043317218
 21
259.660551068187
 31
0.0
  0
LINE
  5
   494
  8
0
  6
DASHDOT
 62
     7
 10
217.377179632737
 20
364.31054993319
 30
0.0
 11
266.442848420165
 21
364.31054993319
 31
0.0
  0
LINE
  5
   495
  8
0
  6
DASHDOT
 62
     7
 10
217.377181201072
 20
261.760551860836
 30
0.0
 11
266.442848277589
 21
261.760551860836
 31
0.0
  0
LINE
  5
   496
  8
0
  6
DASHDOT
 62
     7
 10
251.574043779721
 20
255.635551602694
 30
0.0
 11
263.334042588621
 21
255.635551602694
 31
0.0
  0
LINE
  5
   497
  8
0
  6
DASHDOT
 62
     7
 10
251.574043779721
 20
370.435550010115
 30
0.0
 11
263.334042588621
 21
370.435550010115
 31
0.0
  0
INSERT
  5
   498
  8
0
  6
CONTINUOUS
 62
     7
  2
*HATCH1606
 10
0.0
 20
0.0
 30
0.0
  0
INSERT
  5
   499
  8
0
  6
CONTINUOUS
 62
     7
  2
*HATCH1607
 10
0.0
 20
0.0
 30
0.0
  0
INSERT
  5
   49A
  8
0
  6
CONTINUOUS
 62
     7
  2
*HATCH1608
 10
0.0
 20
0.0
 30
0.0
  0
INSERT
  5
   49B
  8
0
  6
CONTINUOUS
 62
     7
  2
*HATCH1609
 10
0.0
 20
0.0
 30
0.0
  0
INSERT
  5
   49C
  8
0
  6
CONTINUOUS
 62
     7
  2
*HATCH1610
 10
0.0
 20
0.0
 30
0.0
  0
INSERT
  5
   49D
  8
0
  6
CONTINUOUS
 62
     7
  2
*HATCH1611
 10
0.0
 20
0.0
 30
0.0
  0
INSERT
  5
   49E
  8
0
  6
CONTINUOUS
 62
     7
  2
*HATCH1612
 10
0.0
 20
0.0
 30
0.0
  0
INSERT
  5
   49F
  8
0
  6
CONTINUOUS
 62
     7
  2
*HATCH1613
 10
0.0
 20
0.0
 30
0.0
  0
INSERT
  5
   4A0
  8
0
  6
CONTINUOUS
 62
     7
  2
*HATCH1614
 10
0.0
 20
0.0
 30
0.0
  0
INSERT
  5
   4A1
  8
0
  6
CONTINUOUS
 62
     7
  2
*HATCH1615
 10
0.0
 20
0.0
 30
0.0
  0
INSERT
  5
   4A2
  8
0
  6
CONTINUOUS
 62
     7
  2
*HATCH1616
 10
0.0
 20
0.0
 30
0.0
  0
INSERT
  5
   4A3
  8
0
  6
CONTINUOUS
 62
     7
  2
*HATCH1617
 10
0.0
 20
0.0
 30
0.0
  0
INSERT
  5
   4A4
  8
0
  6
CONTINUOUS
 62
     7
  2
*HATCH1618
 10
0.0
 20
0.0
 30
0.0
  0
INSERT
  5
   4A5
  8
0
  6
CONTINUOUS
 62
     7
  2
*HATCH1619
 10
0.0
 20
0.0
 30
0.0
  0
LINE
  5
   4A6
  8
0
  6
CONTINUOUS
 62
     3
 10
312.054042667184
 20
266.135553628206
 30
0.0
 11
312.404042661223
 21
266.229470328877
 31
0.0
  0
LINE
  5
   4A7
  8
0
  6
CONTINUOUS
 62
     3
 10
312.054042667184
 20
359.935546690226
 30
0.0
 11
312.404042661223
 21
359.842001159592
 31
0.0
  0
LINE
  5
   4A8
  8
0
  6
CONTINUOUS
 62
     3
 10
312.753535300535
 20
359.236652201395
 30
0.0
 11
312.754042655263
 21
359.235546702147
 31
0.0
  0
LINE
  5
   4A9
  8
0
  6
CONTINUOUS
 62
     3
 10
293.714042445455
 20
354.335547841252
 30
0.0
 11
294.204041636024
 21
354.335547841252
 31
0.0
  0
ARC
  5
   4AA
  8
0
  6
CONTINUOUS
 62
     3
 10
312.04769885256
 20
359.232782229958
 30
0.0
 40
0.706118708183663
 50
0.224304513039238
 51
59.675817948009
  0
LINE
  5
   4AB
  8
0
  6
CONTINUOUS
 62
     3
 10
312.754041962184
 20
346.985546910763
 30
0.0
 11
312.754041962184
 21
359.235546702147
 31
0.0
  0
LINE
  5
   4AC
  8
0
  6
CONTINUOUS
 62
     3
 10
312.718448657218
 20
346.985546910763
 30
0.0
 11
312.718448657218
 21
359.235546702147
 31
0.0
  0
LINE
  5
   4AD
  8
0
  6
CONTINUOUS
 62
     3
 10
312.404041968144
 20
359.815015228655
 30
0.0
 11
312.404041968144
 21
359.842001159592
 31
0.0
  0
LINE
  5
   4AE
  8
0
  6
CONTINUOUS
 62
     3
 10
307.644042049207
 20
354.335546785593
 30
0.0
 11
307.644042049207
 21
354.825549981594
 31
0.0
  0
LINE
  5
   4AF
  8
0
  6
CONTINUOUS
 62
     3
 10
263.754042154584
 20
354.825547832908
 30
0.0
 11
307.644043276343
 21
354.825547832908
 31
0.0
  0
LINE
  5
   4B0
  8
0
  6
CONTINUOUS
 62
     3
 10
307.644042049207
 20
346.985546910763
 30
0.0
 11
307.644042049207
 21
354.335546785593
 31
0.0
  0
LINE
  5
   4B1
  8
0
  6
CONTINUOUS
 62
     3
 10
263.754042154584
 20
359.935547745885
 30
0.0
 11
310.654042691026
 21
359.935547745885
 31
0.0
  0
LINE
  5
   4B2
  8
0
  6
CONTINUOUS
 62
     3
 10
310.654042691026
 20
359.935547745885
 30
0.0
 11
312.054042667184
 21
359.935547745885
 31
0.0
  0
LINE
  5
   4B3
  8
0
  6
CONTINUOUS
 62
     3
 10
263.754042796649
 20
359.235546702147
 30
0.0
 11
263.754042796649
 21
359.935546690226
 31
0.0
  0
LINE
  5
   4B4
  8
0
  6
CONTINUOUS
 62
     3
 10
263.754042796649
 20
354.825549981594
 30
0.0
 11
263.754042796649
 21
359.235546702147
 31
0.0
  0
LINE
  5
   4B5
  8
0
  6
CONTINUOUS
 62
     3
 10
307.15404275063
 20
346.985547966422
 30
0.0
 11
307.644043276343
 21
346.985547966422
 31
0.0
  0
LINE
  5
   4B6
  8
0
  6
CONTINUOUS
 62
     3
 10
310.654042691026
 20
346.985547966422
 30
0.0
 11
312.718447715684
 21
346.985547966422
 31
0.0
  0
LINE
  5
   4B7
  8
0
  6
CONTINUOUS
 62
     3
 10
312.718447715684
 20
346.985547966422
 30
0.0
 11
312.754042655263
 21
346.985547966422
 31
0.0
  0
LINE
  5
   4B8
  8
0
  6
CONTINUOUS
 62
     3
 10
307.644043276343
 20
346.985547966422
 30
0.0
 11
310.654042691026
 21
346.985547966422
 31
0.0
  0
LINE
  5
   4B9
  8
0
  6
CONTINUOUS
 62
   252
 10
251.504043698344
 20
310.235552751385
 30
0.0
 11
252.904043674502
 21
310.235552751385
 31
0.0
  0
LINE
  5
   4BA
  8
0
  6
CONTINUOUS
 62
   252
 10
251.504043698344
 20
302.885552874796
 30
0.0
 11
252.904043674502
 21
302.885552874796
 31
0.0
  0
LINE
  5
   4BB
  8
0
  6
CONTINUOUS
 62
   252
 10
251.504042870216
 20
302.885552835464
 30
0.0
 11
251.504042870216
 21
310.235552877188
 31
0.0
  0
LINE
  5
   4BC
  8
0
  6
CONTINUOUS
 62
   252
 10
251.504042870274
 20
269.810550895333
 30
0.0
 11
251.504042870274
 21
271.735550862551
 31
0.0
  0
LINE
  5
   4BD
  8
0
  6
CONTINUOUS
 62
   252
 10
251.504042870146
 20
354.335552126169
 30
0.0
 11
251.504042870146
 21
356.260552093387
 31
0.0
  0
LINE
  5
   4BE
  8
0
  6
CONTINUOUS
 62
   252
 10
251.504042870205
 20
310.235552877188
 30
0.0
 11
251.504042870205
 21
354.335552126169
 31
0.0
  0
LINE
  5
   4BF
  8
0
  6
CONTINUOUS
 62
   252
 10
251.504042870256
 20
271.735550862551
 30
0.0
 11
251.504042870256
 21
302.885552835464
 31
0.0
  0
LINE
  5
   4C0
  8
0
  6
CONTINUOUS
 62
   252
 10
252.904043674502
 20
302.885552874796
 30
0.0
 11
263.754042154584
 21
302.885552874796
 31
0.0
  0
LINE
  5
   4C1
  8
0
  6
CONTINUOUS
 62
   252
 10
252.904043674502
 20
310.235552751385
 30
0.0
 11
263.754042154584
 21
310.235552751385
 31
0.0
  0
LINE
  5
   4C2
  8
0
  6
CONTINUOUS
 62
   252
 10
263.754042664036
 20
265.575551501513
 30
0.0
 11
263.754042664036
 21
271.735550862551
 31
0.0
  0
LINE
  5
   4C3
  8
0
  6
CONTINUOUS
 62
   252
 10
263.754042664036
 20
354.335552126169
 30
0.0
 11
263.754042664036
 21
360.495548816919
 31
0.0
  0
LINE
  5
   4C4
  8
0
  6
CONTINUOUS
 62
   252
 10
263.754042664036
 20
271.735550862551
 30
0.0
 11
263.754042664036
 21
302.885552835464
 31
0.0
  0
LINE
  5
   4C5
  8
0
  6
CONTINUOUS
 62
   252
 10
263.754042664036
 20
302.885553002358
 30
0.0
 11
263.754042664036
 21
310.235552877188
 31
0.0
  0
LINE
  5
   4C6
  8
0
  6
CONTINUOUS
 62
   252
 10
263.754042664036
 20
310.235552877188
 30
0.0
 11
263.754042664036
 21
354.335552126169
 31
0.0
  0
LINE
  5
   4C7
  8
0
  6
CONTINUOUS
 62
     1
 10
215.594045843652
 20
341.035553352373
 30
0.0
 11
227.704042433074
 21
328.925556762951
 31
0.0
  0
LINE
  5
   4C8
  8
0
  6
CONTINUOUS
 62
     1
 10
215.594045864037
 20
285.035548280818
 30
0.0
 11
227.704042453459
 21
297.14554487024
 31
0.0
  0
LINE
  5
   4C9
  8
0
  6
CONTINUOUS
 62
     1
 10
214.754041653905
 20
347.685552239423
 30
0.0
 11
215.594044843946
 21
347.685552239423
 31
0.0
  0
LINE
  5
   4CA
  8
0
  6
CONTINUOUS
 62
     1
 10
214.754041653905
 20
342.08555233479
 30
0.0
 11
215.594044843946
 21
342.08555233479
 31
0.0
  0
LINE
  5
   4CB
  8
0
  6
CONTINUOUS
 62
     1
 10
214.754043496032
 20
342.085552334786
 30
0.0
 11
214.754043496032
 21
347.685552239418
 31
0.0
  0
LINE
  5
   4CC
  8
0
  6
CONTINUOUS
 62
     1
 10
214.754041653905
 20
283.985549278016
 30
0.0
 11
215.594044843946
 21
283.985549278016
 31
0.0
  0
LINE
  5
   4CD
  8
0
  6
CONTINUOUS
 62
     1
 10
214.754041653905
 20
278.385549373384
 30
0.0
 11
215.594044843946
 21
278.385549373384
 31
0.0
  0
LINE
  5
   4CE
  8
0
  6
CONTINUOUS
 62
     1
 10
214.754043496032
 20
278.385548079014
 30
0.0
 11
214.754043496032
 21
283.985549318791
 31
0.0
  0
LINE
  5
   4CF
  8
0
  6
CONTINUOUS
 62
   252
 10
215.594046969162
 20
269.810550895333
 30
0.0
 11
215.594046969162
 21
271.735550862551
 31
0.0
  0
LINE
  5
   4D0
  8
0
  6
CONTINUOUS
 62
   252
 10
215.594046969162
 20
354.335552126169
 30
0.0
 11
215.594046969162
 21
356.260552093387
 31
0.0
  0
LINE
  5
   4D1
  8
0
  6
CONTINUOUS
 62
   252
 10
251.014043172631
 20
310.375541651074
 30
0.0
 11
251.504043698344
 21
310.375541651074
 31
0.0
  0
LINE
  5
   4D2
  8
0
  6
CONTINUOUS
 62
   252
 10
251.014042878528
 20
269.810550895333
 30
0.0
 11
251.014042878528
 21
271.735550862551
 31
0.0
  0
LINE
  5
   4D3
  8
0
  6
CONTINUOUS
 62
   252
 10
251.014042878528
 20
354.335552126169
 30
0.0
 11
251.014042878528
 21
356.260552093387
 31
0.0
  0
LINE
  5
   4D4
  8
0
  6
CONTINUOUS
 62
   252
 10
215.594046969162
 20
271.735550862551
 30
0.0
 11
215.594046969162
 21
285.035549300909
 31
0.0
  0
LINE
  5
   4D5
  8
0
  6
CONTINUOUS
 62
   252
 10
251.014042878528
 20
271.735550862551
 30
0.0
 11
251.014042878528
 21
302.885552835464
 31
0.0
  0
LINE
  5
   4D6
  8
0
  6
CONTINUOUS
 62
   252
 10
227.704041433368
 20
302.885552874796
 30
0.0
 11
251.014043172631
 21
302.885552874796
 31
0.0
  0
LINE
  5
   4D7
  8
0
  6
CONTINUOUS
 62
   252
 10
251.014043172631
 20
302.745563973361
 30
0.0
 11
251.504043698344
 21
302.745563973361
 31
0.0
  0
LINE
  5
   4D8
  8
0
  6
CONTINUOUS
 62
   252
 10
227.704041433368
 20
310.235552751385
 30
0.0
 11
251.014043172631
 21
310.235552751385
 31
0.0
  0
LINE
  5
   4D9
  8
0
  6
CONTINUOUS
 62
   252
 10
215.594046969162
 20
341.035552352667
 30
0.0
 11
215.594046969162
 21
354.335552126169
 31
0.0
  0
LINE
  5
   4DA
  8
0
  6
CONTINUOUS
 62
   252
 10
251.014042878528
 20
310.235552877188
 30
0.0
 11
251.014042878528
 21
354.335552126169
 31
0.0
  0
LINE
  5
   4DB
  8
0
  6
CONTINUOUS
 62
   252
 10
251.504042870184
 20
309.535552889109
 30
0.0
 11
251.504042870184
 21
310.235552877188
 31
0.0
  0
LINE
  5
   4DC
  8
0
  6
CONTINUOUS
 62
   252
 10
251.504042870184
 20
302.885552835464
 30
0.0
 11
251.504042870184
 21
309.535552889109
 31
0.0
  0
LINE
  5
   4DD
  8
0
  6
CONTINUOUS
 62
   252
 10
227.704043275495
 20
309.535552889109
 30
0.0
 11
227.704043275495
 21
310.235552877188
 31
0.0
  0
LINE
  5
   4DE
  8
0
  6
CONTINUOUS
 62
   252
 10
227.704043275495
 20
297.145545890331
 30
0.0
 11
227.704043275495
 21
302.885552835464
 31
0.0
  0
LINE
  5
   4DF
  8
0
  6
CONTINUOUS
 62
   252
 10
227.704043275495
 20
302.885552835464
 30
0.0
 11
227.704043275495
 21
309.535552889109
 31
0.0
  0
LINE
  5
   4E0
  8
0
  6
CONTINUOUS
 62
   252
 10
227.704043275495
 20
310.235552877188
 30
0.0
 11
227.704043275495
 21
328.925555763245
 31
0.0
  0
LINE
  5
   4E1
  8
0
  6
CONTINUOUS
 62
     3
 10
312.753535300535
 20
266.834445446749
 30
0.0
 11
312.754042655263
 21
266.835553616285
 31
0.0
  0
LINE
  5
   4E2
  8
0
  6
CONTINUOUS
 62
     3
 10
312.404042661223
 20
266.229336814475
 30
0.0
 11
312.404683530353
 21
266.229961661877
 31
0.0
  0
LINE
  5
   4E3
  8
0
  6
CONTINUOUS
 62
     3
 10
294.764042427573
 20
271.735553532839
 30
0.0
 11
295.254041618142
 21
271.735553532839
 31
0.0
  0
ARC
  5
   4E4
  8
0
  6
CONTINUOUS
 62
     3
 10
312.047698852557
 20
266.838319144136
 30
0.0
 40
0.706118708186455
 50
300.339358947382
 51
359.775609833306
  0
LINE
  5
   4E5
  8
0
  6
CONTINUOUS
 62
     3
 10
312.754041962184
 20
266.835553616285
 30
0.0
 11
312.754041962184
 21
279.085553407669
 31
0.0
  0
LINE
  5
   4E6
  8
0
  6
CONTINUOUS
 62
     3
 10
312.718448657218
 20
266.835553616285
 30
0.0
 11
312.718448657218
 21
279.085553407669
 31
0.0
  0
LINE
  5
   4E7
  8
0
  6
CONTINUOUS
 62
     3
 10
312.404041968144
 20
266.229470328877
 30
0.0
 11
312.404041968144
 21
266.255991629695
 31
0.0
  0
LINE
  5
   4E8
  8
0
  6
CONTINUOUS
 62
     3
 10
307.644042049207
 20
271.245553007126
 30
0.0
 11
307.644042049207
 21
271.735553532839
 31
0.0
  0
LINE
  5
   4E9
  8
0
  6
CONTINUOUS
 62
     3
 10
263.754042154584
 20
271.245553541184
 30
0.0
 11
307.644043276343
 21
271.245553541184
 31
0.0
  0
LINE
  5
   4EA
  8
0
  6
CONTINUOUS
 62
     3
 10
307.644042049207
 20
271.735553532839
 30
0.0
 11
307.644042049207
 21
279.085553407669
 31
0.0
  0
LINE
  5
   4EB
  8
0
  6
CONTINUOUS
 62
     3
 10
263.754042154584
 20
266.135553628206
 30
0.0
 11
310.654042691026
 21
266.135553628206
 31
0.0
  0
LINE
  5
   4EC
  8
0
  6
CONTINUOUS
 62
     3
 10
310.654042691026
 20
266.135553628206
 30
0.0
 11
312.054042667184
 21
266.135553628206
 31
0.0
  0
LINE
  5
   4ED
  8
0
  6
CONTINUOUS
 62
     3
 10
263.754042796649
 20
266.135553628206
 30
0.0
 11
263.754042796649
 21
266.835553616285
 31
0.0
  0
LINE
  5
   4EE
  8
0
  6
CONTINUOUS
 62
     3
 10
263.754042796649
 20
266.835553616285
 30
0.0
 11
263.754042796649
 21
271.245553007126
 31
0.0
  0
LINE
  5
   4EF
  8
0
  6
CONTINUOUS
 62
     3
 10
307.15404275063
 20
279.085553407669
 30
0.0
 11
307.644043276343
 21
279.085553407669
 31
0.0
  0
LINE
  5
   4F0
  8
0
  6
CONTINUOUS
 62
     3
 10
310.654042691026
 20
279.085553407669
 30
0.0
 11
312.718447715684
 21
279.085553407669
 31
0.0
  0
LINE
  5
   4F1
  8
0
  6
CONTINUOUS
 62
     3
 10
312.718447715684
 20
279.085553407669
 30
0.0
 11
312.754042655263
 21
279.085553407669
 31
0.0
  0
LINE
  5
   4F2
  8
0
  6
CONTINUOUS
 62
     3
 10
307.644043276343
 20
279.085553407669
 30
0.0
 11
310.654042691026
 21
279.085553407669
 31
0.0
  0
LINE
  5
   4F3
  8
0
  6
CONTINUOUS
 62
   212
 10
264.804043337183
 20
302.885553002358
 30
0.0
 11
264.804043337183
 21
307.260548254848
 31
0.0
  0
LINE
  5
   4F4
  8
0
  6
CONTINUOUS
 62
   212
 10
263.754042664037
 20
302.885553002358
 30
0.0
 11
263.754042664037
 21
307.260548254848
 31
0.0
  0
LINE
  5
   4F5
  8
0
  6
CONTINUOUS
 62
   212
 10
263.754042154584
 20
307.260548356834
 30
0.0
 11
264.804043471847
 21
307.260548356834
 31
0.0
  0
LINE
  5
   4F6
  8
0
  6
CONTINUOUS
 62
     7
 10
307.15404275063
 20
343.835552304988
 30
0.0
 11
307.644040606055
 21
343.835552304988
 31
0.0
  0
LINE
  5
   4F7
  8
0
  6
CONTINUOUS
 62
     7
 10
318.354041734204
 20
293.43555316329
 30
0.0
 11
318.354041734204
 21
324.935552626848
 31
0.0
  0
LINE
  5
   4F8
  8
0
  6
CONTINUOUS
 62
     7
 10
312.754041829571
 20
279.575553933382
 30
0.0
 11
312.754041829571
 21
293.43555316329
 31
0.0
  0
LINE
  5
   4F9
  8
0
  6
CONTINUOUS
 62
     7
 10
312.754041829571
 20
324.935552626848
 30
0.0
 11
312.754041829571
 21
346.495551725626
 31
0.0
  0
LINE
  5
   4FA
  8
0
  6
CONTINUOUS
 62
     7
 10
312.264041837916
 20
346.495551725626
 30
0.0
 11
312.264041837916
 21
346.985546910763
 31
0.0
  0
LINE
  5
   4FB
  8
0
  6
CONTINUOUS
 62
     7
 10
312.264041837916
 20
279.085553407669
 30
0.0
 11
312.264041837916
 21
279.575553933382
 31
0.0
  0
LINE
  5
   4FC
  8
0
  6
CONTINUOUS
 62
     7
 10
312.754041829571
 20
324.935552626848
 30
0.0
 11
312.754041829571
 21
346.495551725626
 31
0.0
  0
LINE
  5
   4FD
  8
0
  6
CONTINUOUS
 62
     7
 10
307.15404275063
 20
346.985552251339
 30
0.0
 11
307.644043276343
 21
346.985552251339
 31
0.0
  0
LINE
  5
   4FE
  8
0
  6
CONTINUOUS
 62
     7
 10
310.654042691026
 20
346.495552259683
 30
0.0
 11
312.718447715684
 21
346.495552259683
 31
0.0
  0
LINE
  5
   4FF
  8
0
  6
CONTINUOUS
 62
     7
 10
312.718447715684
 20
346.495552259683
 30
0.0
 11
312.754042655263
 21
346.495552259683
 31
0.0
  0
LINE
  5
   500
  8
0
  6
CONTINUOUS
 62
     7
 10
310.654042691026
 20
279.575553399324
 30
0.0
 11
312.718447715684
 21
279.575553399324
 31
0.0
  0
LINE
  5
   501
  8
0
  6
CONTINUOUS
 62
     7
 10
312.718447715684
 20
279.575553399324
 30
0.0
 11
312.754042655263
 21
279.575553399324
 31
0.0
  0
LINE
  5
   502
  8
0
  6
CONTINUOUS
 62
     7
 10
321.854041674599
 20
323.88555264473
 30
0.0
 11
321.854041674599
 21
324.935552626848
 31
0.0
  0
LINE
  5
   503
  8
0
  6
CONTINUOUS
 62
     7
 10
318.354042559896
 20
323.88555264473
 30
0.0
 11
318.702079066563
 21
323.88555264473
 31
0.0
  0
LINE
  5
   504
  8
0
  6
CONTINUOUS
 62
     7
 10
321.15207902484
 20
323.88555264473
 30
0.0
 11
321.854042500291
 21
323.88555264473
 31
0.0
  0
LINE
  5
   505
  8
0
  6
CONTINUOUS
 62
     7
 10
318.354042559896
 20
324.935552626849
 30
0.0
 11
318.702079066563
 21
324.935552626849
 31
0.0
  0
LINE
  5
   506
  8
0
  6
CONTINUOUS
 62
     7
 10
321.15207902484
 20
324.935552626848
 30
0.0
 11
321.854042500291
 21
324.935552626848
 31
0.0
  0
LINE
  5
   507
  8
0
  6
CONTINUOUS
 62
     7
 10
321.854041674599
 20
293.43555316329
 30
0.0
 11
321.854041674599
 21
294.485553145409
 31
0.0
  0
LINE
  5
   508
  8
0
  6
CONTINUOUS
 62
     7
 10
318.354042559896
 20
293.435553163291
 30
0.0
 11
318.702079066563
 21
293.435553163291
 31
0.0
  0
LINE
  5
   509
  8
0
  6
CONTINUOUS
 62
     7
 10
321.15207902484
 20
293.43555316329
 30
0.0
 11
321.854042500291
 21
293.43555316329
 31
0.0
  0
LINE
  5
   50A
  8
0
  6
CONTINUOUS
 62
     7
 10
318.354042559896
 20
294.485553145409
 30
0.0
 11
318.702079066563
 21
294.485553145409
 31
0.0
  0
LINE
  5
   50B
  8
0
  6
CONTINUOUS
 62
     7
 10
321.15207902484
 20
294.485553145409
 30
0.0
 11
321.854042500291
 21
294.485553145409
 31
0.0
  0
LINE
  5
   50C
  8
0
  6
CONTINUOUS
 62
     7
 10
316.254042595658
 20
324.935552626848
 30
0.0
 11
318.318447620316
 21
324.935552626848
 31
0.0
  0
LINE
  5
   50D
  8
0
  6
CONTINUOUS
 62
     7
 10
318.318447620316
 20
324.935552626848
 30
0.0
 11
318.354042559896
 21
324.935552626848
 31
0.0
  0
LINE
  5
   50E
  8
0
  6
CONTINUOUS
 62
     7
 10
316.254042595658
 20
293.43555316329
 30
0.0
 11
318.318447620316
 21
293.43555316329
 31
0.0
  0
LINE
  5
   50F
  8
0
  6
CONTINUOUS
 62
     7
 10
318.318447620316
 20
293.43555316329
 30
0.0
 11
318.354042559896
 21
293.43555316329
 31
0.0
  0
LINE
  5
   510
  8
0
  6
CONTINUOUS
 62
     7
 10
307.644041916594
 20
279.575553933382
 30
0.0
 11
307.644041916594
 21
346.495551725626
 31
0.0
  0
LINE
  5
   511
  8
0
  6
CONTINUOUS
 62
     7
 10
307.644040606055
 20
346.495552259683
 30
0.0
 11
310.654042691026
 21
346.495552259683
 31
0.0
  0
LINE
  5
   512
  8
0
  6
CONTINUOUS
 62
     7
 10
307.644040606055
 20
279.575553399324
 30
0.0
 11
310.654042691026
 21
279.575553399324
 31
0.0
  0
LINE
  5
   513
  8
0
  6
CONTINUOUS
 62
     7
 10
310.654042691026
 20
324.935552626848
 30
0.0
 11
316.254042595658
 21
324.935552626848
 31
0.0
  0
LINE
  5
   514
  8
0
  6
CONTINUOUS
 62
     7
 10
310.654042691026
 20
293.43555316329
 30
0.0
 11
316.254042595658
 21
293.43555316329
 31
0.0
  0
LINE
  5
   515
  8
0
  6
CONTINUOUS
 62
     7
 10
318.354041734204
 20
293.43555316329
 30
0.0
 11
318.354041734204
 21
324.935552626848
 31
0.0
  0
LINE
  5
   516
  8
0
  6
CONTINUOUS
 62
     7
 10
307.15404275063
 20
335.435552448039
 30
0.0
 11
307.644040606055
 21
335.435552448039
 31
0.0
  0
LINE
  5
   517
  8
0
  6
CONTINUOUS
 62
     7
 10
307.15404275063
 20
279.085553407669
 30
0.0
 11
307.644043276343
 21
279.085553407669
 31
0.0
  0
LINE
  5
   518
  8
0
  6
CONTINUOUS
 62
     7
 10
307.154041924938
 20
296.585549104214
 30
0.0
 11
307.154041924938
 21
297.075552967787
 31
0.0
  0
LINE
  5
   519
  8
0
  6
CONTINUOUS
 62
     7
 10
307.154041924938
 20
302.185553014278
 30
0.0
 11
307.154041924938
 21
310.935552865267
 31
0.0
  0
LINE
  5
   51A
  8
0
  6
CONTINUOUS
 62
     7
 10
295.254041618142
 20
271.735549738243
 30
0.0
 11
295.954041606221
 21
271.735549738243
 31
0.0
  0
LINE
  5
   51B
  8
0
  6
CONTINUOUS
 62
     7
 10
295.254042127595
 20
271.735550862551
 30
0.0
 11
295.254042127595
 21
296.585549104214
 31
0.0
  0
LINE
  5
   51C
  8
0
  6
CONTINUOUS
 62
     7
 10
295.254041618142
 20
296.58554931505
 30
0.0
 11
295.954041606221
 21
296.58554931505
 31
0.0
  0
LINE
  5
   51D
  8
0
  6
CONTINUOUS
 62
     7
 10
307.154041924938
 20
291.510549190641
 30
0.0
 11
307.154041924938
 21
296.585549104214
 31
0.0
  0
LINE
  5
   51E
  8
0
  6
CONTINUOUS
 62
     7
 10
295.954041606222
 20
296.58555118045
 30
0.0
 11
307.154042750631
 21
296.585549823795
 31
0.0
  0
LINE
  5
   51F
  8
0
  6
CONTINUOUS
 62
     7
 10
295.954041606221
 20
271.735549738243
 30
0.0
 11
307.15404275063
 21
271.735549738243
 31
0.0
  0
LINE
  5
   520
  8
0
  6
CONTINUOUS
 62
     7
 10
307.154041924938
 20
271.735550862551
 30
0.0
 11
307.154041924938
 21
291.510549190641
 31
0.0
  0
LINE
  5
   521
  8
0
  6
CONTINUOUS
 62
     1
 10
304.774041965474
 20
302.885553002358
 30
0.0
 11
304.774041965474
 21
310.235552877188
 31
0.0
  0
LINE
  5
   522
  8
0
  6
CONTINUOUS
 62
     1
 10
306.594040623937
 20
310.935552863513
 30
0.0
 11
307.15404275063
 21
310.935552863513
 31
0.0
  0
LINE
  5
   523
  8
0
  6
CONTINUOUS
 62
     1
 10
306.59404193448
 20
310.235552877188
 30
0.0
 11
306.59404193448
 21
310.935552865267
 31
0.0
  0
LINE
  5
   524
  8
0
  6
CONTINUOUS
 62
     1
 10
287.904042410884
 20
302.885553000604
 30
0.0
 11
306.594040623937
 21
302.885553000604
 31
0.0
  0
LINE
  5
   525
  8
0
  6
CONTINUOUS
 62
     1
 10
287.904042410884
 20
310.235552875434
 30
0.0
 11
306.594040623937
 21
310.235552875434
 31
0.0
  0
LINE
  5
   526
  8
0
  6
CONTINUOUS
 62
     7
 10
306.594040623937
 20
302.185553012525
 30
0.0
 11
307.15404275063
 21
302.185553012525
 31
0.0
  0
LINE
  5
   527
  8
0
  6
CONTINUOUS
 62
     7
 10
306.59404193448
 20
302.185553014278
 30
0.0
 11
306.59404193448
 21
302.885553002358
 31
0.0
  0
LINE
  5
   528
  8
0
  6
CONTINUOUS
 62
     7
 10
307.154041924943
 20
344.640553359389
 30
0.0
 11
307.154041924943
 21
348.28055116117
 31
0.0
  0
LINE
  5
   529
  8
0
  6
CONTINUOUS
 62
     7
 10
307.154041924943
 20
297.075552967787
 30
0.0
 11
307.154041924943
 21
302.185553014278
 31
0.0
  0
LINE
  5
   52A
  8
0
  6
CONTINUOUS
 62
     7
 10
307.154041924943
 20
310.935552865267
 30
0.0
 11
307.154041924943
 21
344.640553359389
 31
0.0
  0
LINE
  5
   52B
  8
0
  6
CONTINUOUS
 62
     7
 10
307.154041924943
 20
348.28055116117
 30
0.0
 11
307.154041924943
 21
354.335552126169
 31
0.0
  0
LINE
  5
   52C
  8
0
  6
CONTINUOUS
 62
     7
 10
287.904042410884
 20
297.075553101306
 30
0.0
 11
307.15404275063
 21
297.075553101306
 31
0.0
  0
LINE
  5
   52D
  8
0
  6
CONTINUOUS
 62
     7
 10
294.764042427573
 20
296.58555310965
 30
0.0
 11
295.254041618142
 21
296.58555310965
 31
0.0
  0
LINE
  5
   52E
  8
0
  6
CONTINUOUS
 62
     7
 10
294.904041624103
 20
354.335552126174
 30
0.0
 11
307.15404275063
 21
354.335552126174
 31
0.0
  0
LINE
  5
   52F
  8
0
  6
CONTINUOUS
 62
     1
 10
287.204042422805
 20
302.885553000604
 30
0.0
 11
287.904042410884
 21
302.885553000604
 31
0.0
  0
LINE
  5
   530
  8
0
  6
CONTINUOUS
 62
     1
 10
287.204042422805
 20
310.235552875434
 30
0.0
 11
287.904042410884
 21
310.235552875434
 31
0.0
  0
LINE
  5
   531
  8
0
  6
CONTINUOUS
 62
     7
 10
287.204042422805
 20
297.075553101306
 30
0.0
 11
287.904042410884
 21
297.075553101306
 31
0.0
  0
LINE
  5
   532
  8
0
  6
CONTINUOUS
 62
     7
 10
294.204041636024
 20
354.335552126174
 30
0.0
 11
294.904041624103
 21
354.335552126174
 31
0.0
  0
LINE
  5
   533
  8
0
  6
CONTINUOUS
 62
     7
 10
287.204042566573
 20
315.84811773919
 30
0.0
 11
294.204042547577
 21
327.972473359269
 31
0.0
  0
LINE
  5
   534
  8
0
  6
CONTINUOUS
 62
     7
 10
294.20404214548
 20
327.972473885555
 30
0.0
 11
294.20404214548
 21
354.335552126169
 31
0.0
  0
LINE
  5
   535
  8
0
  6
CONTINUOUS
 62
     7
 10
287.20404226469
 20
310.235552877188
 30
0.0
 11
287.20404226469
 21
315.848117822195
 31
0.0
  0
LINE
  5
   536
  8
0
  6
CONTINUOUS
 62
     7
 10
287.20404226469
 20
297.075552967787
 30
0.0
 11
287.20404226469
 21
302.885553002358
 31
0.0
  0
LINE
  5
   537
  8
0
  6
CONTINUOUS
 62
     1
 10
287.904042252769
 20
302.885553002358
 30
0.0
 11
287.904042252769
 21
310.235552877188
 31
0.0
  0
LINE
  5
   538
  8
0
  6
CONTINUOUS
 62
     7
 10
287.904042252769
 20
296.585553109646
 30
0.0
 11
287.904042252769
 21
297.075552967787
 31
0.0
  0
LINE
  5
   539
  8
0
  6
CONTINUOUS
 62
    58
 10
286.714042564664
 20
310.585552869469
 30
0.0
 11
287.204042422805
 21
310.585552869469
 31
0.0
  0
LINE
  5
   53A
  8
0
  6
CONTINUOUS
 62
    58
 10
286.714042564664
 20
302.53555300656
 30
0.0
 11
287.204042422805
 21
302.53555300656
 31
0.0
  0
LINE
  5
   53B
  8
0
  6
CONTINUOUS
 62
    58
 10
293.714042445455
 20
345.658601527319
 30
0.0
 11
294.204028284583
 21
345.658601527319
 31
0.0
  0
LINE
  5
   53C
  8
0
  6
CONTINUOUS
 62
    58
 10
293.714042445455
 20
347.26250299324
 30
0.0
 11
294.204041636024
 21
347.26250299324
 31
0.0
  0
LINE
  5
   53D
  8
0
  6
CONTINUOUS
 62
    58
 10
264.804042646155
 20
302.885553002358
 30
0.0
 11
264.804042646155
 21
307.260552927852
 31
0.0
  0
LINE
  5
   53E
  8
0
  6
CONTINUOUS
 62
    58
 10
263.754042154584
 20
307.260552927852
 30
0.0
 11
264.804042136703
 21
307.260552927852
 31
0.0
  0
LINE
  5
   53F
  8
0
  6
CONTINUOUS
 62
     1
 10
263.754042154584
 20
310.235552877188
 30
0.0
 11
286.714042564664
 21
310.235552877188
 31
0.0
  0
LINE
  5
   540
  8
0
  6
CONTINUOUS
 62
     1
 10
263.754042154584
 20
302.885553000599
 30
0.0
 11
286.714042564664
 21
302.885553000599
 31
0.0
  0
LINE
  5
   541
  8
0
  6
CONTINUOUS
 62
    58
 10
276.704042601619
 20
300.78555303812
 30
0.0
 11
277.19404245976
 21
300.78555303812
 31
0.0
  0
LINE
  5
   542
  8
0
  6
CONTINUOUS
 62
    58
 10
293.714042153821
 20
328.103766607928
 30
0.0
 11
293.714042153821
 21
354.335552126169
 31
0.0
  0
LINE
  5
   543
  8
0
  6
CONTINUOUS
 62
    58
 10
286.714042155997
 20
315.979412115656
 30
0.0
 11
293.714041725759
 21
328.103767023444
 31
0.0
  0
LINE
  5
   544
  8
0
  6
CONTINUOUS
 62
    58
 10
286.71404227303
 20
310.235552877188
 30
0.0
 11
286.71404227303
 21
315.979411879712
 31
0.0
  0
LINE
  5
   545
  8
0
  6
CONTINUOUS
 62
    58
 10
286.71404227303
 20
297.075552967787
 30
0.0
 11
286.71404227303
 21
302.885553002358
 31
0.0
  0
LINE
  5
   546
  8
0
  6
CONTINUOUS
 62
    58
 10
277.194042435155
 20
297.075552967787
 30
0.0
 11
277.194042435155
 21
300.78555303812
 31
0.0
  0
LINE
  5
   547
  8
0
  6
CONTINUOUS
 62
    58
 10
277.19404245976
 20
297.075553101301
 30
0.0
 11
286.714042564664
 21
297.075553101301
 31
0.0
  0
LINE
  5
   548
  8
0
  6
CONTINUOUS
 62
    58
 10
263.754042154584
 20
300.78555303812
 30
0.0
 11
276.704042601619
 21
300.78555303812
 31
0.0
  0
LINE
  5
   549
  8
0
  6
CONTINUOUS
 62
    58
 10
263.754042154584
 20
354.335552126169
 30
0.0
 11
293.714042445455
 21
354.335552126169
 31
0.0
  0
LINE
  5
   54A
  8
0
  6
CONTINUOUS
 62
     7
 10
263.754042664037
 20
357.835552066565
 30
0.0
 11
263.754042664037
 21
358.535552054644
 31
0.0
  0
LINE
  5
   54B
  8
0
  6
CONTINUOUS
 62
     1
 10
263.754043331608
 20
307.260552927852
 30
0.0
 11
263.754043331608
 21
310.235552877188
 31
0.0
  0
LINE
  5
   54C
  8
0
  6
CONTINUOUS
 62
    58
 10
263.754042664037
 20
300.78555303812
 30
0.0
 11
263.754042664037
 21
302.885553002358
 31
0.0
  0
LINE
  5
   54D
  8
0
  6
CONTINUOUS
 62
    58
 10
263.754042664037
 20
310.235552877188
 30
0.0
 11
263.754042664037
 21
354.335552126169
 31
0.0
  0
LINE
  5
   54E
  8
0
  6
CONTINUOUS
 62
    58
 10
287.904042252765
 20
302.885553002358
 30
0.0
 11
287.904042252765
 21
310.235552877188
 31
0.0
  0
LINE
  5
   54F
  8
0
  6
CONTINUOUS
 62
    58
 10
287.904042252765
 20
296.585553109646
 30
0.0
 11
287.904042252765
 21
297.075552967787
 31
0.0
  0
ARC
  5
   550
  8
0
  6
CONTINUOUS
 62
     1
 10
321.714043048288
 20
294.695551770529
 30
0.0
 40
0.13999999761468
 50
269.999558133857
 51
360.000615857291
  0
ARC
  5
   551
  8
0
  6
CONTINUOUS
 62
     1
 10
321.714041676873
 20
323.675552648195
 30
0.0
 40
0.13999999761506
 50
2.18611072940352E-4
 51
90.0075304280086
  0
LINE
  5
   552
  8
0
  6
CONTINUOUS
 62
     1
 10
321.15207902484
 20
294.555553144216
 30
0.0
 11
321.714041968618
 21
294.555553144216
 31
0.0
  0
LINE
  5
   553
  8
0
  6
CONTINUOUS
 62
     1
 10
318.354042559896
 20
294.555553144216
 30
0.0
 11
318.702079066563
 21
294.555553144216
 31
0.0
  0
LINE
  5
   554
  8
0
  6
CONTINUOUS
 62
     1
 10
321.15207902484
 20
323.815552645922
 30
0.0
 11
321.714023276601
 21
323.815552645922
 31
0.0
  0
LINE
  5
   555
  8
0
  6
CONTINUOUS
 62
     1
 10
318.354042559896
 20
323.815552645922
 30
0.0
 11
318.702079066563
 21
323.815552645922
 31
0.0
  0
LINE
  5
   556
  8
0
  6
CONTINUOUS
 62
     1
 10
321.854041674599
 20
294.695553275347
 30
0.0
 11
321.854041674599
 21
323.675553182363
 31
0.0
  0
LINE
  5
   557
  8
0
  6
CONTINUOUS
 62
     7
 10
276.704042443499
 20
296.585553109646
 30
0.0
 11
276.704042443499
 21
300.295553179979
 31
0.0
  0
LINE
  5
   558
  8
0
  6
CONTINUOUS
 62
     7
 10
263.754042664037
 20
296.585553109646
 30
0.0
 11
263.754042664037
 21
300.295553179979
 31
0.0
  0
LINE
  5
   559
  8
0
  6
CONTINUOUS
 62
     7
 10
263.754043615594
 20
289.585550558567
 30
0.0
 11
263.754043615594
 21
296.585553109646
 31
0.0
  0
LINE
  5
   55A
  8
0
  6
CONTINUOUS
 62
     7
 10
276.704042601619
 20
296.585551816151
 30
0.0
 11
294.764042427573
 21
296.585550732099
 31
0.0
  0
LINE
  5
   55B
  8
0
  6
CONTINUOUS
 62
     7
 10
276.704042443499
 20
300.295553179979
 30
0.0
 11
276.704042443499
 21
300.785549366474
 31
0.0
  0
LINE
  5
   55C
  8
0
  6
CONTINUOUS
 62
     7
 10
263.754042154584
 20
300.295553046465
 30
0.0
 11
276.704042601619
 21
300.295553046465
 31
0.0
  0
LINE
  5
   55D
  8
0
  6
CONTINUOUS
 62
     7
 10
263.754042664037
 20
267.535550934076
 30
0.0
 11
263.754042664037
 21
268.235550922155
 31
0.0
  0
LINE
  5
   55E
  8
0
  6
CONTINUOUS
 62
     7
 10
294.764042427573
 20
296.58554931505
 30
0.0
 11
295.254041618142
 21
296.58554931505
 31
0.0
  0
LINE
  5
   55F
  8
0
  6
CONTINUOUS
 62
     7
 10
294.764042135939
 20
289.585549223423
 30
0.0
 11
294.764042135939
 21
296.585553109646
 31
0.0
  0
LINE
  5
   560
  8
0
  6
CONTINUOUS
 62
     7
 10
263.754042664037
 20
271.735550862551
 30
0.0
 11
263.754042664037
 21
289.585550558567
 31
0.0
  0
LINE
  5
   561
  8
0
  6
CONTINUOUS
 62
     7
 10
294.764042135939
 20
271.735550862551
 30
0.0
 11
294.764042135939
 21
289.585549223423
 31
0.0
  0
LINE
  5
   562
  8
0
  6
CONTINUOUS
 62
     7
 10
263.754042154584
 20
271.735549738243
 30
0.0
 11
294.764042427573
 21
271.735549738243
 31
0.0
  0
LINE
  5
   563
  8
0
  6
CONTINUOUS
 62
   212
 10
326.648857938136
 20
317.619596502313
 30
0.0
 11
326.847850743922
 21
316.947781782144
 31
0.0
  0
ARC
  5
   564
  8
0
  6
CONTINUOUS
 62
   212
 10
331.909291887187
 20
322.688939376946
 30
0.0
 40
0.69999998807875
 50
14.0000613554492
 51
98.9998789886175
  0
ARC
  5
   565
  8
0
  6
CONTINUOUS
 62
   212
 10
332.657386297054
 20
319.688498874923
 30
0.0
 40
0.699999988079126
 50
288.999920112278
 51
373.999956812419
  0
LINE
  5
   566
  8
0
  6
CONTINUOUS
 62
   212
 10
325.493086960681
 20
322.381437833218
 30
0.0
 11
325.6327851707
 21
321.694837527475
 31
0.0
  0
LINE
  5
   567
  8
0
  6
CONTINUOUS
 62
   212
 10
321.854042364804
 20
321.474121535175
 30
0.0
 11
325.493095068709
 21
322.381439278081
 31
0.0
  0
LINE
  5
   568
  8
0
  6
CONTINUOUS
 62
   212
 10
325.493095061758
 20
322.381439210035
 30
0.0
 11
331.799789223705
 21
323.380321435173
 31
0.0
  0
LINE
  5
   569
  8
0
  6
CONTINUOUS
 62
   212
 10
332.588498702972
 20
322.858285428386
 30
0.0
 11
333.33659342183
 21
319.857843687071
 31
0.0
  0
LINE
  5
   56A
  8
0
  6
CONTINUOUS
 62
   212
 10
326.847857816157
 20
316.947783334205
 30
0.0
 11
332.885283078558
 21
319.026635565222
 31
0.0
  0
LINE
  5
   56B
  8
0
  6
CONTINUOUS
 62
   212
 10
321.854042323445
 20
315.702685298791
 30
0.0
 11
326.84785777024
 21
316.947783330708
 31
0.0
  0
LINE
  5
   56C
  8
0
  6
DASHDOT
 62
     7
 10
211.681355146116
 20
344.885552287106
 30
0.0
 11
215.67804516295
 21
344.885552287106
 31
0.0
  0
LINE
  5
   56D
  8
0
  6
DASHDOT
 62
     7
 10
211.798420812807
 20
281.1855493257
 30
0.0
 11
215.67804516295
 21
281.1855493257
 31
0.0
  0
LINE
  5
   56E
  8
0
  6
DASHDOT
 62
     7
 10
293.644042446647
 20
346.46055226028
 30
0.0
 11
294.274041634832
 21
346.46055226028
 31
0.0
  0
LINE
  5
   56F
  8
0
  6
CONTINUOUS
 62
     7
 10
213.77385609986
 20
269.810552830733
 30
0.0
 11
263.75404266404
 21
269.810550358687
 31
0.0
  0
LINE
  5
   570
  8
0
  6
CONTINUOUS
 62
     7
 10
213.618547923138
 20
356.260548300596
 30
0.0
 11
263.75404266404
 21
356.260553140892
 31
0.0
  0
TEXT
  5
   571
  8
0
  6
CONTINUOUS
 62
     7
 10
207.718181603363
 20
313.564112677052
 30
0.0
 40
2.99999997871263
  1
X
 41
0.933333333333333
 72
     1
 11
208.818181595558
 21
315.064112666408
 31
0.0
 73
     2
  0
LINE
  5
   572
  8
0
  6
DASHDOT
 62
     7
 10
212.654044357516
 20
250.355717689147
 30
0.0
 11
212.654044357516
 21
377.535931175234
 31
0.0
  0
INSERT
  5
   573
  8
255
  6
CONTINUOUS
 62
     7
  2
$1DADO
 10
212.654044357516
 20
344.885552287106
 30
0.0
 41
0.699999988079072
 42
0.699999988079072
 43
0.699999988079072
  0
INSERT
  5
   574
  8
255
  6
CONTINUOUS
 62
     7
  2
$1DADO
 10
212.654044357516
 20
281.1855493257
 30
0.0
 41
0.699999988079072
 42
0.699999988079072
 43
0.699999988079072
  0
LINE
  5
   575
  8
0
  6
DASHDOT
 62
     7
 10
214.754044321753
 20
249.684995267109
 30
0.0
 11
214.754044321753
 21
377.213340819282
 31
0.0
  0
LINE
  5
   576
  8
0
  6
CONTINUOUS
 62
     7
 10
211.284702593716
 20
377.746281867866
 30
0.0
 11
216.494955305498
 21
376.945911722381
 31
0.0
  0
LINE
  5
   577
  8
0
  6
CONTINUOUS
 62
     7
 10
211.511766417881
 20
250.720551707889
 30
0.0
 11
215.924103645566
 21
249.311288106652
 31
0.0
  0
LINE
  5
   578
  8
0
  6
DASHDOT
 62
     7
 10
263.754042664037
 20
313.035551463441
 30
0.0
 11
331.991568947674
 21
313.035551463441
 31
0.0
  0
INSERT
  5
   579
  8
0
  6
CONTINUOUS
 62
     7
  2
*UDIM1863
 10
0.0
 20
0.0
 30
0.0
  0
INSERT
  5
   57A
  8
0
  6
CONTINUOUS
 62
     7
  2
*UDIM1864
 10
0.0
 20
0.0
 30
0.0
  0
INSERT
  5
   57B
  8
0
  6
CONTINUOUS
 62
     7
  2
*UDIM1865
 10
0.0
 20
0.0
 30
0.0
  0
INSERT
  5
   57C
  8
0
  6
CONTINUOUS
 62
     7
  2
*UDIM1866
 10
0.0
 20
0.0
 30
0.0
  0
INSERT
  5
   57D
  8
0
  6
CONTINUOUS
 62
     7
  2
*UDIM1867
 10
0.0
 20
0.0
 30
0.0
  0
INSERT
  5
   57E
  8
0
  6
CONTINUOUS
 62
     7
  2
*UDIM1868
 10
0.0
 20
0.0
 30
0.0
  0
INSERT
  5
   57F
  8
0
  6
CONTINUOUS
 62
     7
  2
*UDIM1869
 10
0.0
 20
0.0
 30
0.0
  0
INSERT
  5
   580
  8
0
  6
CONTINUOUS
 62
     7
  2
*UDIM1870
 10
0.0
 20
0.0
 30
0.0
  0
INSERT
  5
   581
  8
0
  6
CONTINUOUS
 62
     7
  2
*UDIM1871
 10
0.0
 20
0.0
 30
0.0
  0
INSERT
  5
   582
  8
0
  6
CONTINUOUS
 62
     7
  2
*UDIM1872
 10
0.0
 20
0.0
 30
0.0
  0
INSERT
  5
   583
  8
0
  6
CONTINUOUS
 62
     7
  2
*UDIM1873
 10
0.0
 20
0.0
 30
0.0
  0
INSERT
  5
   584
  8
0
  6
CONTINUOUS
 62
     7
  2
*UDIM1874
 10
0.0
 20
0.0
 30
0.0
  0
INSERT
  5
   585
  8
0
  6
CONTINUOUS
 62
     7
  2
*UDIM1875
 10
0.0
 20
0.0
 30
0.0
  0
LINE
  5
   586
  8
0
  6
CONTINUOUS
 62
   218
 10
220.004048566479
 20
359.060552363172
 30
0.0
 11
220.354047558824
 21
359.410552023762
 31
0.0
  0
LINE
  5
   587
  8
0
  6
CONTINUOUS
 62
   218
 10
218.954047583309
 20
359.410552533203
 30
0.0
 11
219.304048578392
 21
359.060552205063
 31
0.0
  0
LINE
  5
   588
  8
0
  6
CONTINUOUS
 62
   218
 10
215.594047919545
 20
359.060552284757
 30
0.0
 11
216.994047895703
 21
359.060552284757
 31
0.0
  0
LINE
  5
   589
  8
0
  6
CONTINUOUS
 62
   218
 10
215.594048562512
 20
359.060552284122
 30
0.0
 11
215.594048562512
 21
360.635552257299
 31
0.0
  0
LINE
  5
   58A
  8
0
  6
CONTINUOUS
 62
   218
 10
216.99404853867
 20
359.060552284122
 30
0.0
 11
216.99404853867
 21
360.46055226028
 31
0.0
  0
LINE
  5
   58B
  8
0
  6
CONTINUOUS
 62
   218
 10
214.75404972399
 20
367.145553293612
 30
0.0
 11
215.594048241026
 21
367.985551810649
 31
0.0
  0
LINE
  5
   58C
  8
0
  6
CONTINUOUS
 62
   218
 10
214.754048388846
 20
361.475552430961
 30
0.0
 11
215.594048241026
 21
360.63555257878
 31
0.0
  0
LINE
  5
   58D
  8
0
  6
CONTINUOUS
 62
   218
 10
214.754048576817
 20
361.475552777052
 30
0.0
 11
214.754048576817
 21
367.145554282665
 31
0.0
  0
LINE
  5
   58E
  8
0
  6
CONTINUOUS
 62
   218
 10
216.994047895703
 20
360.460552260279
 30
0.0
 11
218.954047328267
 21
360.460552260279
 31
0.0
  0
LINE
  5
   58F
  8
0
  6
CONTINUOUS
 62
   218
 10
218.95404783772
 20
359.410552278161
 30
0.0
 11
218.95404783772
 21
360.46055226028
 31
0.0
  0
LINE
  5
   590
  8
0
  6
CONTINUOUS
 62
   218
 10
220.354047813866
 20
359.410552278161
 30
0.0
 11
220.354047813866
 21
360.46055226028
 31
0.0
  0
LINE
  5
   591
  8
0
  6
CONTINUOUS
 62
   218
 10
219.304048657451
 20
359.060552284121
 30
0.0
 11
220.00404864553
 21
359.060552284121
 31
0.0
  0
ARC
  5
   592
  8
0
  6
CONTINUOUS
 62
   218
 10
217.34404853271
 20
359.550552276415
 30
0.0
 40
0.48999999165258
 50
59.7139489338668
 51
90.0000751820902
  0
ARC
  5
   593
  8
0
  6
CONTINUOUS
 62
   218
 10
217.34404853271
 20
359.550552276411
 30
0.0
 40
0.489999991654179
 50
270.0000809363
 51
300.433528276234
  0
LINE
  5
   594
  8
0
  6
CONTINUOUS
 62
   218
 10
217.34404853271
 20
360.040553335547
 30
0.0
 11
217.34404853271
 21
360.46055226028
 31
0.0
  0
LINE
  5
   595
  8
0
  6
CONTINUOUS
 62
     1
 10
225.254047888551
 20
362.210552230477
 30
0.0
 11
227.004047858749
 21
362.210552230477
 31
0.0
  0
LINE
  5
   596
  8
0
  6
CONTINUOUS
 62
     1
 10
225.254047888551
 20
366.410552158952
 30
0.0
 11
227.004047858749
 21
366.410552158952
 31
0.0
  0
LINE
  5
   597
  8
0
  6
CONTINUOUS
 62
   218
 10
225.254047730431
 20
366.410552158952
 30
0.0
 11
225.254047730431
 21
368.510552123189
 31
0.0
  0
LINE
  5
   598
  8
0
  6
CONTINUOUS
 62
   218
 10
227.004047700629
 20
366.410552158952
 30
0.0
 11
227.004047700629
 21
368.510552123189
 31
0.0
  0
LINE
  5
   599
  8
0
  6
CONTINUOUS
 62
   218
 10
225.254047888551
 20
368.510552123189
 30
0.0
 11
227.004047858749
 21
368.510552123189
 31
0.0
  0
LINE
  5
   59A
  8
0
  6
CONTINUOUS
 62
     1
 10
227.004047700629
 20
362.210552230477
 30
0.0
 11
227.004047700629
 21
366.410552158952
 31
0.0
  0
LINE
  5
   59B
  8
0
  6
CONTINUOUS
 62
     2
 10
217.554047861562
 20
359.060552284122
 30
0.0
 11
217.554047861562
 21
360.11055226624
 31
0.0
  0
LINE
  5
   59C
  8
0
  6
CONTINUOUS
 62
     2
 10
221.754047790036
 20
359.060552284122
 30
0.0
 11
221.754047790036
 21
360.11055226624
 31
0.0
  0
LINE
  5
   59D
  8
0
  6
CONTINUOUS
 62
     2
 10
218.954047328267
 20
359.060552284121
 30
0.0
 11
220.354047304425
 21
359.060552284121
 31
0.0
  0
LINE
  5
   59E
  8
0
  6
CONTINUOUS
 62
     2
 10
218.95404783772
 20
359.060552284122
 30
0.0
 11
218.95404783772
 21
360.11055226624
 31
0.0
  0
LINE
  5
   59F
  8
0
  6
CONTINUOUS
 62
     2
 10
220.354047813878
 20
359.060552284122
 30
0.0
 11
220.354047813878
 21
360.460552260279
 31
0.0
  0
LINE
  5
   5A0
  8
0
  6
CONTINUOUS
 62
     2
 10
221.754047948155
 20
359.060552284121
 30
0.0
 11
224.554047900472
 21
359.060552284121
 31
0.0
  0
LINE
  5
   5A1
  8
0
  6
CONTINUOUS
 62
     3
 10
242.054047602449
 20
372.535552054643
 30
0.0
 11
242.404047596488
 21
372.535552054643
 31
0.0
  0
LINE
  5
   5A2
  8
0
  6
CONTINUOUS
 62
    58
 10
221.754047790036
 20
360.11055226624
 30
0.0
 11
221.754047790036
 21
360.46055226028
 31
0.0
  0
LINE
  5
   5A3
  8
0
  6
CONTINUOUS
 62
    58
 10
217.554047861562
 20
360.11055226624
 30
0.0
 11
217.554047861562
 21
360.46055226028
 31
0.0
  0
LINE
  5
   5A4
  8
0
  6
CONTINUOUS
 62
    58
 10
224.554047900472
 20
359.060552284121
 30
0.0
 11
225.254047888551
 21
359.060552284121
 31
0.0
  0
LINE
  5
   5A5
  8
0
  6
CONTINUOUS
 62
     7
 10
236.804047533736
 20
361.160553201983
 30
0.0
 11
236.804047533736
 21
367.460553094695
 31
0.0
  0
LINE
  5
   5A6
  8
0
  6
DASHDOT
 62
     7
 10
197.265244225756
 20
364.310552194719
 30
0.0
 11
252.068062335536
 21
364.310552194719
 31
0.0
  0
INSERT
  5
   5A7
  8
0
  6
CONTINUOUS
 62
     7
  2
*UDIM1876
 10
0.0
 20
0.0
 30
0.0
  0
INSERT
  5
   5A8
  8
0
  6
CONTINUOUS
 62
     7
  2
*UDIM1877
 10
0.0
 20
0.0
 30
0.0
  0
LINE
  5
   5A9
  8
0
  6
CONTINUOUS
 62
   218
 10
215.594040290151
 20
267.010549579655
 30
0.0
 11
216.994040266309
 21
267.010549579655
 31
0.0
  0
LINE
  5
   5AA
  8
0
  6
CONTINUOUS
 62
   218
 10
219.304041028056
 20
267.01054958029
 30
0.0
 11
220.004041016135
 21
267.01054958029
 31
0.0
  0
ARC
  5
   5AB
  8
0
  6
CONTINUOUS
 62
   218
 10
217.344040903315
 20
266.520549587999
 30
0.0
 40
0.489999991655719
 50
59.5663634967395
 51
90.000075182037
  0
LINE
  5
   5AC
  8
0
  6
CONTINUOUS
 62
   212
 10
225.254043588471
 20
257.210550871491
 30
0.0
 11
225.254043588471
 21
266.310550716519
 31
0.0
  0
LINE
  5
   5AD
  8
0
  6
CONTINUOUS
 62
   212
 10
239.204170388866
 20
257.210549747183
 30
0.0
 11
239.254043358598
 21
257.210549747183
 31
0.0
  0
LINE
  5
   5AE
  8
0
  6
CONTINUOUS
 62
   218
 10
225.254040304923
 20
264.035550755262
 30
0.0
 11
225.254040304923
 21
267.360550698638
 31
0.0
  0
LINE
  5
   5AF
  8
0
  6
CONTINUOUS
 62
   218
 10
225.254040304923
 20
257.560550865531
 30
0.0
 11
225.254040304923
 21
259.485550832748
 31
0.0
  0
LINE
  5
   5B0
  8
0
  6
CONTINUOUS
 62
   218
 10
227.004040275121
 20
264.035550755262
 30
0.0
 11
227.004040275121
 21
267.360550698638
 31
0.0
  0
LINE
  5
   5B1
  8
0
  6
CONTINUOUS
 62
   218
 10
227.004040275121
 20
257.560550865531
 30
0.0
 11
227.004040275121
 21
259.485550832748
 31
0.0
  0
LINE
  5
   5B2
  8
0
  6
CONTINUOUS
 62
   218
 10
225.254040259156
 20
259.485549710768
 30
0.0
 11
227.004040229354
 21
259.485549710768
 31
0.0
  0
LINE
  5
   5B3
  8
0
  6
CONTINUOUS
 62
   218
 10
225.254040259156
 20
264.035549633228
 30
0.0
 11
227.004040229354
 21
264.035549633228
 31
0.0
  0
LINE
  5
   5B4
  8
0
  6
CONTINUOUS
 62
   218
 10
225.254040259156
 20
257.560549743526
 30
0.0
 11
227.004040229354
 21
257.560549743526
 31
0.0
  0
LINE
  5
   5B5
  8
0
  6
CONTINUOUS
 62
   218
 10
227.004041076208
 20
259.485550832748
 30
0.0
 11
227.004041076208
 21
264.035550755262
 31
0.0
  0
LINE
  5
   5B6
  8
0
  6
CONTINUOUS
 62
   214
 10
217.554040232167
 20
265.96055072248
 30
0.0
 11
217.554040232167
 21
267.010550704598
 31
0.0
  0
LINE
  5
   5B7
  8
0
  6
CONTINUOUS
 62
   214
 10
221.754040160641
 20
265.96055072248
 30
0.0
 11
221.754040160641
 21
267.010550704598
 31
0.0
  0
LINE
  5
   5B8
  8
0
  6
CONTINUOUS
 62
   214
 10
221.754040318761
 20
267.01054958029
 30
0.0
 11
225.254040926728
 21
267.01054958029
 31
0.0
  0
LINE
  5
   5B9
  8
0
  6
CONTINUOUS
 62
   214
 10
218.954039698873
 20
267.01054958029
 30
0.0
 11
220.354039675031
 21
267.01054958029
 31
0.0
  0
LINE
  5
   5BA
  8
0
  6
CONTINUOUS
 62
     2
 10
227.004041230712
 20
267.01054958029
 30
0.0
 11
244.504039263759
 21
267.01054958029
 31
0.0
  0
LINE
  5
   5BB
  8
0
  6
CONTINUOUS
 62
     2
 10
218.954040208325
 20
266.660550710559
 30
0.0
 11
218.954040208325
 21
267.010550704598
 31
0.0
  0
LINE
  5
   5BC
  8
0
  6
CONTINUOUS
 62
     2
 10
220.354040184483
 20
266.660550710559
 30
0.0
 11
220.354040184483
 21
267.010550704598
 31
0.0
  0
LINE
  5
   5BD
  8
0
  6
DASHDOT
 62
     7
 10
218.254040378366
 20
261.760549669697
 30
0.0
 11
262.354040294919
 21
261.760549669697
 31
0.0
  0
LINE
  5
   5BE
  8
0
  6
CONTINUOUS
 62
     7
 10
243.804043001314
 20
266.310549701057
 30
0.0
 11
243.804043001314
 21
267.01054958029
 31
0.0
  0
INSERT
  5
   5BF
  8
0
  6
CONTINUOUS
 62
     7
  2
*HATCH1620
 10
0.0
 20
0.0
 30
0.0
  0
LINE
  5
   5C0
  8
0
  6
CONTINUOUS
 62
     2
 10
215.594043317303
 20
367.985552070292
 30
0.0
 11
215.594043317303
 21
372.535551992806
 31
0.0
  0
LINE
  5
   5C1
  8
0
  6
CONTINUOUS
 62
     2
 10
215.594042674336
 20
372.535553117114
 30
0.0
 11
220.354042059217
 21
372.535553117114
 31
0.0
  0
INSERT
  5
   5C2
  8
0
  6
CONTINUOUS
 62
     7
  2
*HATCH1621
 10
0.0
 20
0.0
 30
0.0
  0
LINE
  5
   5C3
  8
0
  6
CONTINUOUS
 62
     2
 10
220.354042568658
 20
370.610552025588
 30
0.0
 11
220.354042568658
 21
372.535551992806
 31
0.0
  0
LINE
  5
   5C4
  8
0
  6
CONTINUOUS
 62
     2
 10
220.354042059217
 20
370.610553149896
 30
0.0
 11
225.254045981202
 21
370.610553149896
 31
0.0
  0
LINE
  5
   5C5
  8
0
  6
CONTINUOUS
 62
     2
 10
220.354042540013
 20
372.535553129233
 30
0.0
 11
224.90404302875
 21
370.610552922465
 31
0.0
  0
LINE
  5
   5C6
  8
0
  6
CONTINUOUS
 62
     2
 10
220.354042540013
 20
372.535553129233
 30
0.0
 11
224.90404302875
 21
370.610552922465
 31
0.0
  0
LINE
  5
   5C7
  8
0
  6
CONTINUOUS
 62
     7
 10
220.354042059217
 20
372.535553117114
 30
0.0
 11
221.754042702947
 21
372.535553117114
 31
0.0
  0
LINE
  5
   5C8
  8
0
  6
CONTINUOUS
 62
     2
 10
221.754042702947
 20
372.535553117114
 30
0.0
 11
226.304043472315
 21
372.535553117114
 31
0.0
  0
LINE
  5
   5C9
  8
0
  6
CONTINUOUS
 62
     2
 10
225.254045972657
 20
369.21055204943
 30
0.0
 11
225.254045972657
 21
370.610552025588
 31
0.0
  0
LINE
  5
   5CA
  8
0
  6
CONTINUOUS
 62
     2
 10
221.754042702947
 20
369.210553173738
 30
0.0
 11
225.254045981202
 21
369.210553173738
 31
0.0
  0
LINE
  5
   5CB
  8
0
  6
CONTINUOUS
 62
     2
 10
221.754042544827
 20
360.460552198442
 30
0.0
 11
221.754042544827
 21
369.21055204943
 31
0.0
  0
INSERT
  5
   5CC
  8
0
  6
CONTINUOUS
 62
     7
  2
*HATCH1622
 10
0.0
 20
0.0
 30
0.0
  0
INSERT
  5
   5CD
  8
0
  6
CONTINUOUS
 62
     7
  2
*HATCH1623
 10
0.0
 20
0.0
 30
0.0
  0
INSERT
  5
   5CE
  8
0
  6
CONTINUOUS
 62
     7
  2
*HATCH1624
 10
0.0
 20
0.0
 30
0.0
  0
LINE
  5
   5CF
  8
0
  6
CONTINUOUS
 62
     1
 10
222.104042538867
 20
359.760552210363
 30
0.0
 11
222.104042538867
 21
368.860552055391
 31
0.0
  0
LINE
  5
   5D0
  8
0
  6
CONTINUOUS
 62
     1
 10
222.104042696986
 20
368.860553070853
 30
0.0
 11
225.254042643342
 21
368.860553070853
 31
0.0
  0
LINE
  5
   5D1
  8
0
  6
CONTINUOUS
 62
     2
 10
222.565047581655
 20
368.860552055391
 30
0.0
 11
222.565047581655
 21
369.21055204943
 31
0.0
  0
LINE
  5
   5D2
  8
0
  6
CONTINUOUS
 62
     1
 10
222.104042696986
 20
359.760553225825
 30
0.0
 11
225.254042643342
 21
359.760553225825
 31
0.0
  0
LINE
  5
   5D3
  8
0
  6
CONTINUOUS
 62
   212
 10
225.254043588471
 20
359.760552210363
 30
0.0
 11
225.254043588471
 21
368.860552055391
 31
0.0
  0
LINE
  5
   5D4
  8
0
  6
CONTINUOUS
 62
     1
 10
225.254042643342
 20
368.860553070853
 30
0.0
 11
225.954042631421
 21
368.860553070853
 31
0.0
  0
LINE
  5
   5D5
  8
0
  6
CONTINUOUS
 62
     3
 10
235.404047557578
 20
368.860553070853
 30
0.0
 11
238.204047676559
 21
368.860553070853
 31
0.0
  0
LINE
  5
   5D6
  8
0
  6
CONTINUOUS
 62
     1
 10
237.854042428765
 20
368.860553070853
 30
0.0
 11
238.554042416844
 21
368.860553070853
 31
0.0
  0
LINE
  5
   5D7
  8
0
  6
CONTINUOUS
 62
     1
 10
238.554042416844
 20
368.860553070853
 30
0.0
 11
244.504041647945
 21
368.860553070853
 31
0.0
  0
INSERT
  5
   5D8
  8
0
  6
CONTINUOUS
 62
     7
  2
*HATCH1625
 10
0.0
 20
0.0
 30
0.0
  0
INSERT
  5
   5D9
  8
0
  6
CONTINUOUS
 62
     7
  2
*HATCH1626
 10
0.0
 20
0.0
 30
0.0
  0
INSERT
  5
   5DA
  8
0
  6
CONTINUOUS
 62
     7
  2
*HATCH1627
 10
0.0
 20
0.0
 30
0.0
  0
LINE
  5
   5DB
  8
0
  6
CONTINUOUS
 62
     1
 10
224.039128441485
 20
368.860553070853
 30
0.0
 11
244.504041647945
 21
368.860553070853
 31
0.0
  0
LINE
  5
   5DC
  8
0
  6
CONTINUOUS
 62
     1
 10
244.504042157397
 20
367.110552085193
 30
0.0
 11
244.504042157397
 21
368.860552055391
 31
0.0
  0
LINE
  5
   5DD
  8
0
  6
CONTINUOUS
 62
     2
 10
238.554047670598
 20
367.110553100655
 30
0.0
 11
250.45404680037
 21
367.110553100655
 31
0.0
  0
LINE
  5
   5DE
  8
0
  6
CONTINUOUS
 62
     7
 10
238.204047132763
 20
366.760552728483
 30
0.0
 11
250.806010782719
 21
366.760552091153
 31
0.0
  0
LINE
  5
   5DF
  8
0
  6
CONTINUOUS
 62
     2
 10
250.804047295317
 20
364.310552132877
 30
0.0
 11
250.804047295317
 21
365.710552109035
 31
0.0
  0
LINE
  5
   5E0
  8
0
  6
CONTINUOUS
 62
     7
 10
250.456005066006
 20
361.510552746987
 30
0.0
 11
250.456005066006
 21
367.110552643075
 31
0.0
  0
LINE
  5
   5E1
  8
0
  6
CONTINUOUS
 62
     2
 10
238.554047670598
 20
361.510553196022
 30
0.0
 11
250.45404680037
 21
361.510553196022
 31
0.0
  0
LINE
  5
   5E2
  8
0
  6
CONTINUOUS
 62
     7
 10
238.204047974078
 20
361.860552726875
 30
0.0
 11
250.806010244731
 21
361.860552726875
 31
0.0
  0
LINE
  5
   5E3
  8
0
  6
CONTINUOUS
 62
     2
 10
250.454047380268
 20
361.510551600666
 30
0.0
 11
250.804046536606
 21
361.860552432402
 31
0.0
  0
LINE
  5
   5E4
  8
0
  6
CONTINUOUS
 62
     2
 10
250.454047060586
 20
367.110555015695
 30
0.0
 11
250.804046216924
 21
366.760554183959
 31
0.0
  0
LINE
  5
   5E5
  8
0
  6
CONTINUOUS
 62
     2
 10
238.204048101457
 20
361.860552599496
 30
0.0
 11
238.55404726796
 21
361.510551777924
 31
0.0
  0
LINE
  5
   5E6
  8
0
  6
CONTINUOUS
 62
     2
 10
238.204047085995
 20
366.760552681714
 30
0.0
 11
238.554047587642
 21
367.110554838437
 31
0.0
  0
LINE
  5
   5E7
  8
0
  6
CONTINUOUS
 62
     2
 10
250.804047295317
 20
364.310552132877
 30
0.0
 11
250.804047295317
 21
365.710552109035
 31
0.0
  0
LINE
  5
   5E8
  8
0
  6
CONTINUOUS
 62
     3
 10
238.204047509894
 20
359.760552210363
 30
0.0
 11
238.204047509894
 21
368.860553070853
 31
0.0
  0
LINE
  5
   5E9
  8
0
  6
CONTINUOUS
 62
     1
 10
227.004043287416
 20
359.760553225825
 30
0.0
 11
244.504041647945
 21
359.760553225825
 31
0.0
  0
LINE
  5
   5EA
  8
0
  6
CONTINUOUS
 62
     1
 10
244.504042157397
 20
359.760552210363
 30
0.0
 11
244.504042157397
 21
361.51055218056
 31
0.0
  0
LINE
  5
   5EB
  8
0
  6
CONTINUOUS
 62
     3
 10
238.204047509894
 20
359.760552210363
 30
0.0
 11
238.204047509894
 21
368.860553070853
 31
0.0
  0
LINE
  5
   5EC
  8
0
  6
CONTINUOUS
 62
     3
 10
235.404047557578
 20
359.760553225825
 30
0.0
 11
238.204047676559
 21
359.760553225825
 31
0.0
  0
LINE
  5
   5ED
  8
0
  6
CONTINUOUS
 62
     3
 10
235.404047557578
 20
359.760553225825
 30
0.0
 11
235.404047557578
 21
361.160553201983
 31
0.0
  0
LINE
  5
   5EE
  8
0
  6
CONTINUOUS
 62
     3
 10
235.404047724242
 20
361.160553201983
 30
0.0
 11
236.8040477004
 21
361.160553201983
 31
0.0
  0
LINE
  5
   5EF
  8
0
  6
CONTINUOUS
 62
     3
 10
235.404047724242
 20
367.460553094695
 30
0.0
 11
236.8040477004
 21
367.460553094695
 31
0.0
  0
LINE
  5
   5F0
  8
0
  6
CONTINUOUS
 62
     3
 10
235.404047557578
 20
367.460553094694
 30
0.0
 11
235.404047557578
 21
368.860553070853
 31
0.0
  0
LINE
  5
   5F1
  8
0
  6
CONTINUOUS
 62
     3
 10
235.404047557578
 20
368.860553070853
 30
0.0
 11
238.204047676559
 21
368.860553070853
 31
0.0
  0
LINE
  5
   5F2
  8
0
  6
CONTINUOUS
 62
     1
 10
238.554042258725
 20
359.760552210363
 30
0.0
 11
238.554042258725
 21
361.51055218056
 31
0.0
  0
LINE
  5
   5F3
  8
0
  6
CONTINUOUS
 62
     1
 10
238.554042258725
 20
367.110552085193
 30
0.0
 11
238.554042258725
 21
368.860552055391
 31
0.0
  0
LINE
  5
   5F4
  8
0
  6
CONTINUOUS
 62
     2
 10
250.804047295317
 20
361.8605521746
 30
0.0
 11
250.804047295317
 21
362.910552156719
 31
0.0
  0
LINE
  5
   5F5
  8
0
  6
CONTINUOUS
 62
     2
 10
250.804047295317
 20
365.710552109035
 30
0.0
 11
250.804047295317
 21
366.760554761442
 31
0.0
  0
LINE
  5
   5F6
  8
0
  6
CONTINUOUS
 62
     2
 10
250.804047295317
 20
362.910552156719
 30
0.0
 11
250.804047295317
 21
364.310552132877
 31
0.0
  0
LINE
  5
   5F7
  8
0
  6
CONTINUOUS
 62
     7
 10
242.404043025156
 20
359.060552045703
 30
0.0
 11
242.404043025156
 21
359.760553225825
 31
0.0
  0
LINE
  5
   5F8
  8
0
  6
CONTINUOUS
 62
     7
 10
220.354047813878
 20
360.460552260279
 30
0.0
 11
221.754042544827
 21
360.460552260279
 31
0.0
  0
INSERT
  5
   5F9
  8
0
  6
CONTINUOUS
 62
     7
  2
*UDIM1878
 10
0.0
 20
0.0
 30
0.0
  0
INSERT
  5
   5FA
  8
0
  6
CONTINUOUS
 62
     7
  2
*UDIM1879
 10
0.0
 20
0.0
 30
0.0
  0
TEXT
  5
   5FB
  8
0
  6
CONTINUOUS
 62
     1
 10
411.581539285187
 20
157.896923251755
 30
0.0
 40
3.00000002980232
  1
T2
 41
0.916666604744064
 72
     2
 11
416.531538995608
 21
157.896923251755
 31
0.0
  0
TEXT
  5
   5FC
  8
0
  6
CONTINUOUS
 62
     1
 10
393.495845969523
 20
148.915326592375
 30
0.0
 40
4.00000017881393
  1
RH0012.119
 41
0.937499973922969
 72
     2
 11
430.245846569295
 21
148.915326592375
 31
0.0
  0
TEXT
  5
   5FD
  8
0
  6
CONTINUOUS
 62
     1
 10
298.494730908734
 20
160.043673217842
 30
0.0
 40
2.00000008940697
  1
N0030 00-02-14
 41
0.799999960511924
  0
TEXT
  5
   5FE
  8
0
  6
CONTINUOUS
 62
     1
 10
388.49951061606
 20
168.136913241744
 30
0.0
 40
2.00000008940697
  1
INTERR.AUTOMATICO SERIE "T"
 41
0.749999861419206
 72
     1
 11
408.59950779676
 21
169.136913286447
 31
0.0
 73
     2
  0
TEXT
  5
   5FF
  8
0
  6
CONTINUOUS
 62
     1
 10
373.499512979392
 20
165.136913241744
 30
0.0
 40
2.00000008940697
  1
TETRAP. ESECUZ. RIMOV. TERM.ANT.X CAVI IN Cu-Al
 41
0.749999861419206
 72
     1
 11
408.599508059029
 21
166.136913286447
 31
0.0
 73
     2
  0
TEXT
  5
   600
  8
0
  6
CONTINUOUS
 62
     1
 10
386.297118983414
 20
176.207164706587
 30
0.0
 40
2.00000008940697
  1
4POLE LOW VOLTAGE M.C.C.B SERIES "T"
 41
0.749999861419206
 72
     1
 11
413.147115218636
 21
177.207164751291
 31
0.0
 73
     2
  0
TEXT
  5
   601
  8
0
  6
CONTINUOUS
 62
     1
 10
382.547119770948
 20
173.207164706587
 30
0.0
 40
2.00000008940697
  1
PLUG-IN VERS. FRONT TERM. FOR Cu-Al CABLE
 41
0.749999861419206
 72
     1
 11
413.147115480904
 21
174.207164751291
 31
0.0
 73
     2
  0
INSERT
  5
   602
  8
255
  6
CONTINUOUS
 62
     7
  2
$6TABELL
 10
13.5162106221884
 20
212.995285942074
 30
0.0
 41
0.874990938680013
 42
0.874990938680013
 43
0.874990938680013
  0
LINE
  5
   603
  8
0
  6
CONTINUOUS
 62
    58
 10
177.410109937191
 20
356.473097448806
 30
0.0
 11
177.410109937191
 21
368.335552126169
 31
0.0
  0
LINE
  5
   604
  8
0
  6
CONTINUOUS
 62
   252
 10
177.410109937191
 20
359.235546702147
 30
0.0
 11
177.410109937191
 21
360.495548816919
 31
0.0
  0
LINE
  5
   605
  8
0
  6
CONTINUOUS
 62
   252
 10
177.410109937192
 20
360.98555201292
 30
0.0
 11
177.410109937192
 21
368.335551887751
 31
0.0
  0
LINE
  5
   606
  8
0
  6
CONTINUOUS
 62
   252
 10
177.410109937192
 20
360.495548816919
 30
0.0
 11
177.410109937192
 21
360.98555201292
 31
0.0
  0
LINE
  5
   607
  8
0
  6
DASHDOT
 62
     7
 10
145.910110473633
 20
245.235012500746
 30
0.0
 11
145.910110473633
 21
381.589410045517
 31
0.0
  0
TEXT
  5
   608
  8
0
  6
CONTINUOUS
 62
     7
 10
179.729677439885
 20
313.385933751531
 30
0.0
 40
2.99999997871263
  1
X
 41
0.933333333333333
 72
     1
 11
180.829677432079
 21
314.885933740888
 31
0.0
 73
     2
  0
TEXT
  5
   609
  8
0
  6
CONTINUOUS
 62
     7
 10
87.958278983189
 20
313.493655072043
 30
0.0
 40
2.99999997871263
  1
X
 41
0.933333333333333
 72
     1
 11
89.0582789753836
 21
314.9936550614
 31
0.0
 73
     2
  0
TEXT
  5
   60A
  8
0
  6
CONTINUOUS
 62
     7
 10
142.782018885301
 20
375.435677509356
 30
0.0
 40
2.99999997871263
  1
Y
 41
0.933333333333333
 72
     1
 11
143.882018877495
 21
376.935677498712
 31
0.0
 73
     2
  0
TEXT
  5
   60B
  8
0
  6
CONTINUOUS
 62
     7
 10
142.889740205812
 20
247.248814862197
 30
0.0
 40
2.99999997871263
  1
Y
 41
0.933333333333333
 72
     1
 11
143.989740198007
 21
248.748814851553
 31
0.0
 73
     2
  0
ARC
  5
   60C
  8
0
  6
CONTINUOUS
 62
     3
 10
94.110111356337
 20
359.23554775725
 30
0.0
 40
0.699999988078275
 50
90.0000000454662
 51
180.000086362063
  0
LINE
  5
   60D
  8
0
  6
CONTINUOUS
 62
     3
 10
177.410109937191
 20
346.985546910763
 30
0.0
 11
177.410109937191
 21
356.473097448806
 31
0.0
  0
LINE
  5
   60E
  8
0
  6
CONTINUOUS
 62
     3
 10
93.4101113677025
 20
346.985546910763
 30
0.0
 11
93.4101113677025
 21
359.235546702147
 31
0.0
  0
LINE
  5
   60F
  8
0
  6
CONTINUOUS
 62
     3
 10
95.5101113319397
 20
359.935547745885
 30
0.0
 11
175.730637400173
 21
359.935547745885
 31
0.0
  0
LINE
  5
   610
  8
0
  6
CONTINUOUS
 62
     3
 10
94.1101113557816
 20
359.935547745885
 30
0.0
 11
95.5101113319397
 21
359.935547745885
 31
0.0
  0
LINE
  5
   611
  8
0
  6
CONTINUOUS
 62
     3
 10
175.3451094383
 20
346.985547966422
 30
0.0
 11
175.69510943234
 21
346.985547966422
 31
0.0
  0
LINE
  5
   612
  8
0
  6
CONTINUOUS
 62
     3
 10
174.085109993815
 20
346.985547966422
 30
0.0
 11
174.435109987855
 21
346.985547966422
 31
0.0
  0
LINE
  5
   613
  8
0
  6
CONTINUOUS
 62
     3
 10
172.825110549331
 20
346.985547966422
 30
0.0
 11
173.17511054337
 21
346.985547966422
 31
0.0
  0
LINE
  5
   614
  8
0
  6
CONTINUOUS
 62
     3
 10
171.565111104846
 20
346.985547966422
 30
0.0
 11
171.915111098886
 21
346.985547966422
 31
0.0
  0
LINE
  5
   615
  8
0
  6
CONTINUOUS
 62
     3
 10
170.305108990073
 20
346.985547966422
 30
0.0
 11
170.655108984113
 21
346.985547966422
 31
0.0
  0
LINE
  5
   616
  8
0
  6
CONTINUOUS
 62
     3
 10
169.045109545589
 20
346.985547966422
 30
0.0
 11
169.395109539628
 21
346.985547966422
 31
0.0
  0
LINE
  5
   617
  8
0
  6
CONTINUOUS
 62
     3
 10
167.785110101104
 20
346.985547966422
 30
0.0
 11
168.135110095143
 21
346.985547966422
 31
0.0
  0
LINE
  5
   618
  8
0
  6
CONTINUOUS
 62
     3
 10
166.525110656619
 20
346.985547966422
 30
0.0
 11
166.875110650659
 21
346.985547966422
 31
0.0
  0
LINE
  5
   619
  8
0
  6
CONTINUOUS
 62
     3
 10
165.26510987699
 20
346.985547966422
 30
0.0
 11
165.61510987103
 21
346.985547966422
 31
0.0
  0
LINE
  5
   61A
  8
0
  6
CONTINUOUS
 62
     3
 10
164.005110432506
 20
346.985547966422
 30
0.0
 11
164.355110426545
 21
346.985547966422
 31
0.0
  0
LINE
  5
   61B
  8
0
  6
CONTINUOUS
 62
     3
 10
162.745109652877
 20
346.985547966422
 30
0.0
 11
163.095109646916
 21
346.985547966422
 31
0.0
  0
LINE
  5
   61C
  8
0
  6
CONTINUOUS
 62
     3
 10
161.485110208392
 20
346.985547966422
 30
0.0
 11
161.835110202432
 21
346.985547966422
 31
0.0
  0
LINE
  5
   61D
  8
0
  6
CONTINUOUS
 62
     3
 10
160.225110763907
 20
346.985547966422
 30
0.0
 11
160.575110757947
 21
346.985547966422
 31
0.0
  0
LINE
  5
   61E
  8
0
  6
CONTINUOUS
 62
     3
 10
158.965109984279
 20
346.985547966422
 30
0.0
 11
159.315109978318
 21
346.985547966422
 31
0.0
  0
LINE
  5
   61F
  8
0
  6
CONTINUOUS
 62
     3
 10
157.705110539794
 20
346.985547966422
 30
0.0
 11
158.055110533834
 21
346.985547966422
 31
0.0
  0
LINE
  5
   620
  8
0
  6
CONTINUOUS
 62
     3
 10
156.445110427737
 20
346.985547966422
 30
0.0
 11
156.795110421777
 21
346.985547966422
 31
0.0
  0
LINE
  5
   621
  8
0
  6
CONTINUOUS
 62
     3
 10
155.185110315681
 20
346.985547966422
 30
0.0
 11
155.53511030972
 21
346.985547966422
 31
0.0
  0
LINE
  5
   622
  8
0
  6
CONTINUOUS
 62
     3
 10
153.925110203624
 20
346.985547966422
 30
0.0
 11
154.275110197663
 21
346.985547966422
 31
0.0
  0
LINE
  5
   623
  8
0
  6
CONTINUOUS
 62
     3
 10
152.665110091567
 20
346.985547966422
 30
0.0
 11
153.015110085607
 21
346.985547966422
 31
0.0
  0
LINE
  5
   624
  8
0
  6
CONTINUOUS
 62
     3
 10
151.405110313296
 20
346.985547966422
 30
0.0
 11
151.755110641122
 21
346.985547966422
 31
0.0
  0
LINE
  5
   625
  8
0
  6
CONTINUOUS
 62
     3
 10
150.145110535026
 20
346.985547966422
 30
0.0
 11
150.495110529065
 21
346.985547966422
 31
0.0
  0
LINE
  5
   626
  8
0
  6
CONTINUOUS
 62
     3
 10
148.885110422969
 20
346.985547966422
 30
0.0
 11
149.235110417008
 21
346.985547966422
 31
0.0
  0
LINE
  5
   627
  8
0
  6
CONTINUOUS
 62
     3
 10
147.625110477805
 20
346.985547966422
 30
0.0
 11
147.975110471845
 21
346.985547966422
 31
0.0
  0
LINE
  5
   628
  8
0
  6
CONTINUOUS
 62
     3
 10
146.365110449195
 20
346.985547966422
 30
0.0
 11
146.715110443234
 21
346.985547966422
 31
0.0
  0
LINE
  5
   629
  8
0
  6
CONTINUOUS
 62
     3
 10
145.105110504031
 20
346.985547966422
 30
0.0
 11
145.455110498071
 21
346.985547966422
 31
0.0
  0
LINE
  5
   62A
  8
0
  6
CONTINUOUS
 62
     3
 10
143.845110475421
 20
346.985547966422
 30
0.0
 11
144.19511046946
 21
346.985547966422
 31
0.0
  0
LINE
  5
   62B
  8
0
  6
CONTINUOUS
 62
     3
 10
142.585110530257
 20
346.985547966422
 30
0.0
 11
142.935110524297
 21
346.985547966422
 31
0.0
  0
LINE
  5
   62C
  8
0
  6
CONTINUOUS
 62
     3
 10
141.325110418201
 20
346.985547966422
 30
0.0
 11
141.67511041224
 21
346.985547966422
 31
0.0
  0
LINE
  5
   62D
  8
0
  6
CONTINUOUS
 62
     3
 10
140.065110306144
 20
346.985547966422
 30
0.0
 11
140.415110633969
 21
346.985547966422
 31
0.0
  0
LINE
  5
   62E
  8
0
  6
CONTINUOUS
 62
     3
 10
138.805110861659
 20
346.985547966422
 30
0.0
 11
139.155110855699
 21
346.985547966422
 31
0.0
  0
LINE
  5
   62F
  8
0
  6
CONTINUOUS
 62
     3
 10
137.545110749602
 20
346.985547966422
 30
0.0
 11
137.895110743642
 21
346.985547966422
 31
0.0
  0
LINE
  5
   630
  8
0
  6
CONTINUOUS
 62
     3
 10
136.285110637546
 20
346.985547966422
 30
0.0
 11
136.635110631585
 21
346.985547966422
 31
0.0
  0
LINE
  5
   631
  8
0
  6
CONTINUOUS
 62
     3
 10
135.025110525489
 20
346.985547966422
 30
0.0
 11
135.375110519528
 21
346.985547966422
 31
0.0
  0
LINE
  5
   632
  8
0
  6
CONTINUOUS
 62
     3
 10
133.765110413432
 20
346.985547966422
 30
0.0
 11
134.115110407472
 21
346.985547966422
 31
0.0
  0
LINE
  5
   633
  8
0
  6
CONTINUOUS
 62
     3
 10
132.505110968947
 20
346.985547966422
 30
0.0
 11
132.855110962987
 21
346.985547966422
 31
0.0
  0
LINE
  5
   634
  8
0
  6
CONTINUOUS
 62
     3
 10
131.245110189319
 20
346.985547966422
 30
0.0
 11
131.595110183358
 21
346.985547966422
 31
0.0
  0
LINE
  5
   635
  8
0
  6
CONTINUOUS
 62
     3
 10
129.985110744834
 20
346.985547966422
 30
0.0
 11
130.335110738873
 21
346.985547966422
 31
0.0
  0
LINE
  5
   636
  8
0
  6
CONTINUOUS
 62
     3
 10
128.725111300349
 20
346.985547966422
 30
0.0
 11
129.075111294389
 21
346.985547966422
 31
0.0
  0
LINE
  5
   637
  8
0
  6
CONTINUOUS
 62
     3
 10
106.465110878348
 20
346.985547966422
 30
0.0
 11
106.815110872388
 21
346.985547966422
 31
0.0
  0
LINE
  5
   638
  8
0
  6
CONTINUOUS
 62
     3
 10
105.205111433864
 20
346.985547966422
 30
0.0
 11
105.555111427903
 21
346.985547966422
 31
0.0
  0
LINE
  5
   639
  8
0
  6
CONTINUOUS
 62
     3
 10
103.945110654235
 20
346.985547966422
 30
0.0
 11
104.295110648274
 21
346.985547966422
 31
0.0
  0
LINE
  5
   63A
  8
0
  6
CONTINUOUS
 62
     3
 10
102.68511120975
 20
346.985547966422
 30
0.0
 11
103.03511120379
 21
346.985547966422
 31
0.0
  0
LINE
  5
   63B
  8
0
  6
CONTINUOUS
 62
     3
 10
101.425111765265
 20
346.985547966422
 30
0.0
 11
101.775111759305
 21
346.985547966422
 31
0.0
  0
LINE
  5
   63C
  8
0
  6
CONTINUOUS
 62
     3
 10
100.165112320781
 20
346.985547966422
 30
0.0
 11
100.51511231482
 21
346.985547966422
 31
0.0
  0
LINE
  5
   63D
  8
0
  6
CONTINUOUS
 62
     3
 10
98.905110206008
 20
346.985547966422
 30
0.0
 11
99.2551102000475
 21
346.985547966422
 31
0.0
  0
LINE
  5
   63E
  8
0
  6
CONTINUOUS
 62
     3
 10
97.6451107615233
 20
346.985547966422
 30
0.0
 11
97.9951107555628
 21
346.985547966422
 31
0.0
  0
LINE
  5
   63F
  8
0
  6
CONTINUOUS
 62
     3
 10
96.3851113170385
 20
346.985547966422
 30
0.0
 11
96.7351113110781
 21
346.985547966422
 31
0.0
  0
LINE
  5
   640
  8
0
  6
CONTINUOUS
 62
     3
 10
175.69510943234
 20
346.985547966422
 30
0.0
 11
177.410109937191
 21
346.985547966422
 31
0.0
  0
LINE
  5
   641
  8
0
  6
CONTINUOUS
 62
     3
 10
93.4101113677025
 20
346.985547966422
 30
0.0
 11
95.1251118725538
 21
346.985547966422
 31
0.0
  0
LINE
  5
   642
  8
0
  6
CONTINUOUS
 62
     3
 10
95.1251118725538
 20
346.985547966422
 30
0.0
 11
95.4751118665934
 21
346.985547966422
 31
0.0
  0
LINE
  5
   643
  8
0
  6
CONTINUOUS
 62
     3
 10
145.455110498071
 20
346.985547966422
 30
0.0
 11
146.365110449195
 21
346.985547966422
 31
0.0
  0
LINE
  5
   644
  8
0
  6
CONTINUOUS
 62
     3
 10
169.395109539628
 20
346.985547966422
 30
0.0
 11
170.305108990073
 21
346.985547966422
 31
0.0
  0
LINE
  5
   645
  8
0
  6
CONTINUOUS
 62
     3
 10
130.335110738873
 20
346.985547966422
 30
0.0
 11
131.245110189319
 21
346.985547966422
 31
0.0
  0
LINE
  5
   646
  8
0
  6
CONTINUOUS
 62
     3
 10
131.595110183358
 20
346.985547966422
 30
0.0
 11
132.505110968947
 21
346.985547966422
 31
0.0
  0
LINE
  5
   647
  8
0
  6
CONTINUOUS
 62
     3
 10
97.9951107555628
 20
346.985547966422
 30
0.0
 11
98.905110206008
 21
346.985547966422
 31
0.0
  0
LINE
  5
   648
  8
0
  6
CONTINUOUS
 62
     3
 10
144.19511046946
 20
346.985547966422
 30
0.0
 11
145.105110504031
 21
346.985547966422
 31
0.0
  0
LINE
  5
   649
  8
0
  6
CONTINUOUS
 62
     3
 10
155.53511030972
 20
346.985547966422
 30
0.0
 11
156.445110427737
 21
346.985547966422
 31
0.0
  0
LINE
  5
   64A
  8
0
  6
CONTINUOUS
 62
     3
 10
141.67511041224
 20
346.985547966422
 30
0.0
 11
142.585110530257
 21
346.985547966422
 31
0.0
  0
LINE
  5
   64B
  8
0
  6
CONTINUOUS
 62
     3
 10
142.935110524297
 20
346.985547966422
 30
0.0
 11
143.845110475421
 21
346.985547966422
 31
0.0
  0
LINE
  5
   64C
  8
0
  6
CONTINUOUS
 62
     3
 10
151.755110641122
 20
346.985547966422
 30
0.0
 11
152.665110091567
 21
346.985547966422
 31
0.0
  0
LINE
  5
   64D
  8
0
  6
CONTINUOUS
 62
     3
 10
100.765472569617
 20
346.985547966422
 30
0.0
 11
161.485110208392
 21
346.985547966422
 31
0.0
  0
LINE
  5
   64E
  8
0
  6
CONTINUOUS
 62
     3
 10
95.4751118665934
 20
346.985547966422
 30
0.0
 11
96.3851113170385
 21
346.985547966422
 31
0.0
  0
LINE
  5
   64F
  8
0
  6
CONTINUOUS
 62
     3
 10
101.775111759305
 20
346.985547966422
 30
0.0
 11
102.68511120975
 21
346.985547966422
 31
0.0
  0
LINE
  5
   650
  8
0
  6
CONTINUOUS
 62
     3
 10
159.315109978318
 20
346.985547966422
 30
0.0
 11
160.225110763907
 21
346.985547966422
 31
0.0
  0
LINE
  5
   651
  8
0
  6
CONTINUOUS
 62
     3
 10
100.51511231482
 20
346.985547966422
 30
0.0
 11
101.425111765265
 21
346.985547966422
 31
0.0
  0
LINE
  5
   652
  8
0
  6
CONTINUOUS
 62
     3
 10
99.2551102000475
 20
346.985547966422
 30
0.0
 11
100.165112320781
 21
346.985547966422
 31
0.0
  0
LINE
  5
   653
  8
0
  6
CONTINUOUS
 62
     3
 10
147.975110471845
 20
346.985547966422
 30
0.0
 11
148.885110422969
 21
346.985547966422
 31
0.0
  0
LINE
  5
   654
  8
0
  6
CONTINUOUS
 62
     3
 10
149.235110417008
 20
346.985547966422
 30
0.0
 11
150.145110535026
 21
346.985547966422
 31
0.0
  0
LINE
  5
   655
  8
0
  6
CONTINUOUS
 62
     3
 10
150.495110529065
 20
346.985547966422
 30
0.0
 11
151.405110313296
 21
346.985547966422
 31
0.0
  0
LINE
  5
   656
  8
0
  6
CONTINUOUS
 62
     3
 10
161.835110202432
 20
346.985547966422
 30
0.0
 11
162.745109652877
 21
346.985547966422
 31
0.0
  0
LINE
  5
   657
  8
0
  6
CONTINUOUS
 62
     3
 10
140.415110633969
 20
346.985547966422
 30
0.0
 11
141.325110418201
 21
346.985547966422
 31
0.0
  0
LINE
  5
   658
  8
0
  6
CONTINUOUS
 62
     3
 10
139.155110855699
 20
346.985547966422
 30
0.0
 11
140.065110306144
 21
346.985547966422
 31
0.0
  0
LINE
  5
   659
  8
0
  6
CONTINUOUS
 62
     3
 10
154.275110197663
 20
346.985547966422
 30
0.0
 11
155.185110315681
 21
346.985547966422
 31
0.0
  0
LINE
  5
   65A
  8
0
  6
CONTINUOUS
 62
     3
 10
163.095109646916
 20
346.985547966422
 30
0.0
 11
164.005110432506
 21
346.985547966422
 31
0.0
  0
LINE
  5
   65B
  8
0
  6
CONTINUOUS
 62
     3
 10
164.355110426545
 20
346.985547966422
 30
0.0
 11
165.26510987699
 21
346.985547966422
 31
0.0
  0
LINE
  5
   65C
  8
0
  6
CONTINUOUS
 62
     3
 10
170.655108984113
 20
346.985547966422
 30
0.0
 11
171.565111104846
 21
346.985547966422
 31
0.0
  0
LINE
  5
   65D
  8
0
  6
CONTINUOUS
 62
     3
 10
173.17511054337
 20
346.985547966422
 30
0.0
 11
174.085109993815
 21
346.985547966422
 31
0.0
  0
LINE
  5
   65E
  8
0
  6
CONTINUOUS
 62
     3
 10
171.915111098886
 20
346.985547966422
 30
0.0
 11
172.825110549331
 21
346.985547966422
 31
0.0
  0
LINE
  5
   65F
  8
0
  6
CONTINUOUS
 62
     3
 10
137.895110743642
 20
346.985547966422
 30
0.0
 11
138.805110861659
 21
346.985547966422
 31
0.0
  0
LINE
  5
   660
  8
0
  6
CONTINUOUS
 62
     3
 10
134.115110407472
 20
346.985547966422
 30
0.0
 11
135.025110525489
 21
346.985547966422
 31
0.0
  0
LINE
  5
   661
  8
0
  6
CONTINUOUS
 62
     3
 10
135.375110519528
 20
346.985547966422
 30
0.0
 11
136.285110637546
 21
346.985547966422
 31
0.0
  0
LINE
  5
   662
  8
0
  6
CONTINUOUS
 62
     3
 10
136.635110631585
 20
346.985547966422
 30
0.0
 11
137.545110749602
 21
346.985547966422
 31
0.0
  0
LINE
  5
   663
  8
0
  6
CONTINUOUS
 62
     3
 10
132.855110962987
 20
346.985547966422
 30
0.0
 11
133.765110413432
 21
346.985547966422
 31
0.0
  0
LINE
  5
   664
  8
0
  6
CONTINUOUS
 62
     3
 10
156.795110421777
 20
346.985547966422
 30
0.0
 11
157.705110539794
 21
346.985547966422
 31
0.0
  0
LINE
  5
   665
  8
0
  6
CONTINUOUS
 62
     3
 10
158.055110533834
 20
346.985547966422
 30
0.0
 11
158.965109984279
 21
346.985547966422
 31
0.0
  0
LINE
  5
   666
  8
0
  6
CONTINUOUS
 62
     3
 10
146.715110443234
 20
346.985547966422
 30
0.0
 11
147.625110477805
 21
346.985547966422
 31
0.0
  0
LINE
  5
   667
  8
0
  6
CONTINUOUS
 62
     3
 10
174.435109987855
 20
346.985547966422
 30
0.0
 11
175.3451094383
 21
346.985547966422
 31
0.0
  0
LINE
  5
   668
  8
0
  6
CONTINUOUS
 62
     3
 10
103.03511120379
 20
346.985547966422
 30
0.0
 11
103.945110654235
 21
346.985547966422
 31
0.0
  0
LINE
  5
   669
  8
0
  6
CONTINUOUS
 62
     3
 10
104.295110648274
 20
346.985547966422
 30
0.0
 11
105.205111433864
 21
346.985547966422
 31
0.0
  0
LINE
  5
   66A
  8
0
  6
CONTINUOUS
 62
     3
 10
105.555111427903
 20
346.985547966422
 30
0.0
 11
106.465110878348
 21
346.985547966422
 31
0.0
  0
LINE
  5
   66B
  8
0
  6
CONTINUOUS
 62
     3
 10
96.7351113110781
 20
346.985547966422
 30
0.0
 11
97.6451107615233
 21
346.985547966422
 31
0.0
  0
LINE
  5
   66C
  8
0
  6
CONTINUOUS
 62
     3
 10
127.81511051476
 20
346.985547966422
 30
0.0
 11
128.725111300349
 21
346.985547966422
 31
0.0
  0
LINE
  5
   66D
  8
0
  6
CONTINUOUS
 62
     3
 10
153.015110085607
 20
346.985547966422
 30
0.0
 11
153.925110203624
 21
346.985547966422
 31
0.0
  0
LINE
  5
   66E
  8
0
  6
CONTINUOUS
 62
     3
 10
129.075111294389
 20
346.985547966422
 30
0.0
 11
129.985110744834
 21
346.985547966422
 31
0.0
  0
LINE
  5
   66F
  8
0
  6
CONTINUOUS
 62
     3
 10
168.135110095143
 20
346.985547966422
 30
0.0
 11
169.045109545589
 21
346.985547966422
 31
0.0
  0
LINE
  5
   670
  8
0
  6
CONTINUOUS
 62
     3
 10
165.61510987103
 20
346.985547966422
 30
0.0
 11
166.525110656619
 21
346.985547966422
 31
0.0
  0
LINE
  5
   671
  8
0
  6
CONTINUOUS
 62
     3
 10
166.875110650659
 20
346.985547966422
 30
0.0
 11
167.785110101104
 21
346.985547966422
 31
0.0
  0
ARC
  5
   672
  8
0
  6
CONTINUOUS
 62
   252
 10
175.660109966438
 20
254.235551881267
 30
0.0
 40
0.699999988078929
 50
270.000000045485
 51
360.000159575752
  0
ARC
  5
   673
  8
0
  6
CONTINUOUS
 62
   252
 10
95.1601002422824
 20
254.235549911023
 30
0.0
 40
0.699999988079433
 50
180.00011628886
 51
270.000033924404
  0
ARC
  5
   674
  8
0
  6
CONTINUOUS
 62
   252
 10
95.1601113384592
 20
371.835549759859
 30
0.0
 40
0.699999988080094
 50
90.0000000457569
 51
179.999830711519
  0
LINE
  5
   675
  8
0
  6
CONTINUOUS
 62
   252
 10
175.660109966993
 20
254.935551795839
 30
0.0
 11
176.360109955072
 21
254.935551795839
 31
0.0
  0
LINE
  5
   676
  8
0
  6
CONTINUOUS
 62
   252
 10
176.360109955073
 20
254.235553830862
 30
0.0
 11
176.360109955073
 21
254.935553818941
 31
0.0
  0
LINE
  5
   677
  8
0
  6
CONTINUOUS
 62
   252
 10
94.4601006686689
 20
254.93555179584
 30
0.0
 11
95.1601220190523
 21
254.93555179584
 31
0.0
  0
LINE
  5
   678
  8
0
  6
CONTINUOUS
 62
   252
 10
94.4601113498211
 20
257.035551760076
 30
0.0
 11
95.1601113379002
 21
257.035551760076
 31
0.0
  0
LINE
  5
   679
  8
0
  6
CONTINUOUS
 62
   252
 10
94.4601113498211
 20
371.135549816967
 30
0.0
 11
95.1601113379002
 21
371.135549816967
 31
0.0
  0
LINE
  5
   67A
  8
0
  6
CONTINUOUS
 62
   252
 10
94.4601113498227
 20
371.135551840067
 30
0.0
 11
94.4601113498227
 21
371.835551828146
 31
0.0
  0
LINE
  5
   67B
  8
0
  6
CONTINUOUS
 62
   252
 10
94.4601113498211
 20
369.03554985273
 30
0.0
 11
95.1601113379002
 21
369.03554985273
 31
0.0
  0
LINE
  5
   67C
  8
0
  6
CONTINUOUS
 62
   252
 10
94.4601113498227
 20
257.035553783178
 30
0.0
 11
94.4601113498227
 21
265.0855509758
 31
0.0
  0
LINE
  5
   67D
  8
0
  6
CONTINUOUS
 62
   252
 10
94.4601002536464
 20
254.235548490286
 30
0.0
 11
94.4601002536464
 21
254.935553818941
 31
0.0
  0
LINE
  5
   67E
  8
0
  6
CONTINUOUS
 62
   252
 10
95.1601113379002
 20
372.535549748495
 30
0.0
 11
112.310111045837
 21
372.535549989197
 31
0.0
  0
LINE
  5
   67F
  8
0
  6
CONTINUOUS
 62
   252
 10
137.51009926796
 20
253.535549922387
 30
0.0
 11
154.310119009018
 21
253.535549922387
 31
0.0
  0
LINE
  5
   680
  8
0
  6
CONTINUOUS
 62
   252
 10
95.160100656748
 20
253.535549922387
 30
0.0
 11
112.310100364685
 21
253.535549922387
 31
0.0
  0
LINE
  5
   681
  8
0
  6
CONTINUOUS
 62
   252
 10
137.510110616684
 20
372.535551690422
 30
0.0
 11
154.310110330582
 21
372.535551690422
 31
0.0
  0
LINE
  5
   682
  8
0
  6
CONTINUOUS
 62
   252
 10
158.51011826992
 20
253.535551514368
 30
0.0
 11
175.660109966993
 21
253.535551892632
 31
0.0
  0
LINE
  5
   683
  8
0
  6
CONTINUOUS
 62
   252
 10
177.410121033366
 20
265.575551501513
 30
0.0
 11
177.410121033366
 21
266.835553616285
 31
0.0
  0
LINE
  5
   684
  8
0
  6
CONTINUOUS
 62
   252
 10
93.4101002715279
 20
265.575551501513
 30
0.0
 11
93.4101002715279
 21
266.835553616285
 31
0.0
  0
LINE
  5
   685
  8
0
  6
CONTINUOUS
 62
   252
 10
93.4101113677023
 20
359.235546702147
 30
0.0
 11
93.4101113677023
 21
360.495548816919
 31
0.0
  0
LINE
  5
   686
  8
0
  6
CONTINUOUS
 62
   252
 10
177.410109937192
 20
265.0855509758
 30
0.0
 11
177.410109937192
 21
265.575551501513
 31
0.0
  0
LINE
  5
   687
  8
0
  6
CONTINUOUS
 62
   252
 10
177.410109937192
 20
257.735553771257
 30
0.0
 11
177.410109937192
 21
265.0855509758
 31
0.0
  0
LINE
  5
   688
  8
0
  6
CONTINUOUS
 62
   252
 10
176.360109955072
 20
257.735551748156
 30
0.0
 11
177.410109937191
 21
257.735551748156
 31
0.0
  0
LINE
  5
   689
  8
0
  6
CONTINUOUS
 62
   252
 10
133.310099592035
 20
253.535548502207
 30
0.0
 11
133.310099592035
 21
254.235548490286
 31
0.0
  0
LINE
  5
   68A
  8
0
  6
CONTINUOUS
 62
   252
 10
133.310100007057
 20
254.935549898545
 30
0.0
 11
134.360099989176
 21
254.935549898545
 31
0.0
  0
LINE
  5
   68B
  8
0
  6
CONTINUOUS
 62
   252
 10
134.360119260914
 20
253.535548502207
 30
0.0
 11
134.360119260914
 21
254.935548478365
 31
0.0
  0
LINE
  5
   68C
  8
0
  6
CONTINUOUS
 62
   252
 10
133.310100007057
 20
253.535549922387
 30
0.0
 11
134.360099989176
 21
253.535549922387
 31
0.0
  0
LINE
  5
   68D
  8
0
  6
CONTINUOUS
 62
   252
 10
137.510099520509
 20
253.535548502207
 30
0.0
 11
137.510099520509
 21
254.235548490286
 31
0.0
  0
LINE
  5
   68E
  8
0
  6
CONTINUOUS
 62
   252
 10
136.460119225152
 20
253.535548502207
 30
0.0
 11
136.460119225152
 21
254.935548478365
 31
0.0
  0
LINE
  5
   68F
  8
0
  6
CONTINUOUS
 62
   252
 10
136.460099285841
 20
254.935549898545
 30
0.0
 11
137.51009926796
 21
254.935549898545
 31
0.0
  0
LINE
  5
   690
  8
0
  6
CONTINUOUS
 62
   252
 10
136.460099285841
 20
253.535549922387
 30
0.0
 11
137.51009926796
 21
253.535549922387
 31
0.0
  0
LINE
  5
   691
  8
0
  6
CONTINUOUS
 62
   252
 10
154.310118921167
 20
253.535548502207
 30
0.0
 11
154.310118921167
 21
254.235548490286
 31
0.0
  0
LINE
  5
   692
  8
0
  6
CONTINUOUS
 62
   252
 10
154.310119009018
 20
254.935549898545
 30
0.0
 11
155.360118991136
 21
254.935549898545
 31
0.0
  0
LINE
  5
   693
  8
0
  6
CONTINUOUS
 62
   252
 10
155.360118903286
 20
253.535548502207
 30
0.0
 11
155.360118903286
 21
254.935548478365
 31
0.0
  0
LINE
  5
   694
  8
0
  6
CONTINUOUS
 62
   252
 10
154.310119009018
 20
253.535549922387
 30
0.0
 11
155.360118991136
 21
253.535549922387
 31
0.0
  0
LINE
  5
   695
  8
0
  6
CONTINUOUS
 62
   252
 10
158.510118865081
 20
253.535553842783
 30
0.0
 11
158.510118865081
 21
254.235553830862
 31
0.0
  0
LINE
  5
   696
  8
0
  6
CONTINUOUS
 62
   252
 10
157.460118287802
 20
253.535549922387
 30
0.0
 11
158.51011826992
 21
253.535549922387
 31
0.0
  0
LINE
  5
   697
  8
0
  6
CONTINUOUS
 62
   252
 10
157.460118867523
 20
253.535553842783
 30
0.0
 11
157.460118867523
 21
254.935548478365
 31
0.0
  0
LINE
  5
   698
  8
0
  6
CONTINUOUS
 62
   252
 10
157.460118287802
 20
254.935549898545
 30
0.0
 11
158.51011826992
 21
254.935549898545
 31
0.0
  0
LINE
  5
   699
  8
0
  6
CONTINUOUS
 62
   252
 10
137.510110616685
 20
371.835551828146
 30
0.0
 11
137.510110616685
 21
372.535551816225
 31
0.0
  0
LINE
  5
   69A
  8
0
  6
CONTINUOUS
 62
   252
 10
136.460110634565
 20
371.135551714264
 30
0.0
 11
137.510110616684
 21
371.135551714264
 31
0.0
  0
LINE
  5
   69B
  8
0
  6
CONTINUOUS
 62
   252
 10
136.460110634567
 20
371.135551840067
 30
0.0
 11
136.460110634567
 21
372.535551816225
 31
0.0
  0
LINE
  5
   69C
  8
0
  6
CONTINUOUS
 62
   252
 10
136.460110634565
 20
372.535551690422
 30
0.0
 11
137.510110616684
 21
372.535551690422
 31
0.0
  0
LINE
  5
   69D
  8
0
  6
CONTINUOUS
 62
   252
 10
133.310110688211
 20
371.835551828146
 30
0.0
 11
133.310110688211
 21
372.535551816225
 31
0.0
  0
LINE
  5
   69E
  8
0
  6
CONTINUOUS
 62
   252
 10
134.360110670329
 20
371.135551840067
 30
0.0
 11
134.360110670329
 21
372.535551816225
 31
0.0
  0
LINE
  5
   69F
  8
0
  6
CONTINUOUS
 62
   252
 10
133.31011068821
 20
371.135551714264
 30
0.0
 11
134.360110670328
 21
371.135551714264
 31
0.0
  0
LINE
  5
   6A0
  8
0
  6
CONTINUOUS
 62
   252
 10
133.31011068821
 20
372.535551690422
 30
0.0
 11
134.360110670328
 21
372.535551690422
 31
0.0
  0
LINE
  5
   6A1
  8
0
  6
CONTINUOUS
 62
   252
 10
93.4101113677042
 20
265.0855509758
 30
0.0
 11
93.4101113677042
 21
265.575551501513
 31
0.0
  0
LINE
  5
   6A2
  8
0
  6
CONTINUOUS
 62
   252
 10
93.4101113677025
 20
257.735551748156
 30
0.0
 11
94.4601113498211
 21
257.735551748156
 31
0.0
  0
LINE
  5
   6A3
  8
0
  6
CONTINUOUS
 62
   252
 10
93.4101113677036
 20
257.735553771257
 30
0.0
 11
93.4101113677036
 21
265.0855509758
 31
0.0
  0
LINE
  5
   6A4
  8
0
  6
CONTINUOUS
 62
   252
 10
93.4101113677042
 20
360.98555201292
 30
0.0
 11
93.4101113677042
 21
368.335551887751
 31
0.0
  0
LINE
  5
   6A5
  8
0
  6
CONTINUOUS
 62
   252
 10
93.4101113677025
 20
368.33554986465
 30
0.0
 11
94.4601113498211
 21
368.33554986465
 31
0.0
  0
LINE
  5
   6A6
  8
0
  6
CONTINUOUS
 62
   252
 10
175.660109966993
 20
257.035551760076
 30
0.0
 11
176.360109955072
 21
257.035551760076
 31
0.0
  0
LINE
  5
   6A7
  8
0
  6
CONTINUOUS
 62
   252
 10
114.900111535788
 20
265.575551614645
 30
0.0
 11
115.192054127251
 21
265.575551614645
 31
0.0
  0
LINE
  5
   6A8
  8
0
  6
CONTINUOUS
 62
   252
 10
93.4101113677025
 20
265.575551614645
 30
0.0
 11
177.410109937192
 21
265.575551614645
 31
0.0
  0
LINE
  5
   6A9
  8
0
  6
CONTINUOUS
 62
   252
 10
176.628166820014
 20
265.575551614645
 30
0.0
 11
176.920109411478
 21
265.575551614645
 31
0.0
  0
LINE
  5
   6AA
  8
0
  6
CONTINUOUS
 62
   252
 10
176.920109945536
 20
265.0855509758
 30
0.0
 11
176.920109945536
 21
265.575551501513
 31
0.0
  0
LINE
  5
   6AB
  8
0
  6
CONTINUOUS
 62
   252
 10
93.90011135936
 20
265.0855509758
 30
0.0
 11
93.90011135936
 21
265.575551501513
 31
0.0
  0
LINE
  5
   6AC
  8
0
  6
CONTINUOUS
 62
   252
 10
93.9001118934154
 20
265.08555162299
 30
0.0
 11
96.0001118576527
 21
265.08555162299
 31
0.0
  0
LINE
  5
   6AD
  8
0
  6
CONTINUOUS
 62
   252
 10
174.820109447241
 20
265.08555162299
 30
0.0
 11
176.920109411478
 21
265.08555162299
 31
0.0
  0
LINE
  5
   6AE
  8
0
  6
CONTINUOUS
 62
   252
 10
96.0001118576527
 20
265.08555162299
 30
0.0
 11
175.25549023002
 21
265.08555162299
 31
0.0
  0
LINE
  5
   6AF
  8
0
  6
CONTINUOUS
 62
   252
 10
176.360109955073
 20
257.035553783178
 30
0.0
 11
176.360109955073
 21
265.0855509758
 31
0.0
  0
LINE
  5
   6B0
  8
0
  6
CONTINUOUS
 62
   252
 10
175.310120654106
 20
257.035551760077
 30
0.0
 11
175.660109966993
 21
257.035551760077
 31
0.0
  0
LINE
  5
   6B1
  8
0
  6
CONTINUOUS
 62
   252
 10
175.310121069129
 20
254.935553818941
 30
0.0
 11
175.310121069129
 21
257.035553783178
 31
0.0
  0
LINE
  5
   6B2
  8
0
  6
CONTINUOUS
 62
   252
 10
175.310120654106
 20
254.93555179584
 30
0.0
 11
175.660109966993
 21
254.93555179584
 31
0.0
  0
LINE
  5
   6B3
  8
0
  6
CONTINUOUS
 62
   252
 10
154.310118921167
 20
254.935548478365
 30
0.0
 11
154.310118921167
 21
256.335548454523
 31
0.0
  0
LINE
  5
   6B4
  8
0
  6
CONTINUOUS
 62
   252
 10
137.510099520509
 20
254.935548478365
 30
0.0
 11
137.510099520509
 21
256.335548454523
 31
0.0
  0
LINE
  5
   6B5
  8
0
  6
CONTINUOUS
 62
   252
 10
133.310099592035
 20
254.935548478365
 30
0.0
 11
133.310099592035
 21
256.335548454523
 31
0.0
  0
LINE
  5
   6B6
  8
0
  6
CONTINUOUS
 62
   252
 10
95.1601220190523
 20
254.93555179584
 30
0.0
 11
95.5101006507875
 21
254.93555179584
 31
0.0
  0
LINE
  5
   6B7
  8
0
  6
CONTINUOUS
 62
   252
 10
95.510100235765
 20
254.935553818941
 30
0.0
 11
95.510100235765
 21
257.035553783178
 31
0.0
  0
LINE
  5
   6B8
  8
0
  6
CONTINUOUS
 62
   252
 10
95.1601113379002
 20
257.035551760077
 30
0.0
 11
95.5101006507875
 21
257.035551760077
 31
0.0
  0
LINE
  5
   6B9
  8
0
  6
CONTINUOUS
 62
   252
 10
158.510118849642
 20
254.935548478365
 30
0.0
 11
158.510118849642
 21
256.335548454523
 31
0.0
  0
CIRCLE
  5
   6BA
  8
0
  6
CONTINUOUS
 62
   252
 10
145.910110223945
 20
255.635551602694
 30
0.0
 40
0.769999986886915
  0
LINE
  5
   6BB
  8
0
  6
CONTINUOUS
 62
   252
 10
133.310119278795
 20
254.235548490286
 30
0.0
 11
133.310119278795
 21
254.935548478365
 31
0.0
  0
LINE
  5
   6BC
  8
0
  6
CONTINUOUS
 62
   252
 10
137.51011920727
 20
254.235548490286
 30
0.0
 11
137.51011920727
 21
254.935548478365
 31
0.0
  0
LINE
  5
   6BD
  8
0
  6
CONTINUOUS
 62
   252
 10
154.310118921167
 20
254.235548490286
 30
0.0
 11
154.310118921167
 21
254.935548478365
 31
0.0
  0
LINE
  5
   6BE
  8
0
  6
CONTINUOUS
 62
   252
 10
158.510118849642
 20
254.235553830862
 30
0.0
 11
158.510118849642
 21
254.935548478365
 31
0.0
  0
CIRCLE
  5
   6BF
  8
0
  6
CONTINUOUS
 62
   252
 10
124.910110831262
 20
261.760551679609
 30
0.0
 40
2.27499996125702
  0
CIRCLE
  5
   6C0
  8
0
  6
CONTINUOUS
 62
   252
 10
145.910110473634
 20
261.760551679609
 30
0.0
 40
2.274999961257
  0
CIRCLE
  5
   6C1
  8
0
  6
CONTINUOUS
 62
   252
 10
166.910110116006
 20
261.760551679609
 30
0.0
 40
2.274999961257
  0
LINE
  5
   6C2
  8
0
  6
CONTINUOUS
 62
   252
 10
133.310100007057
 20
256.335549874703
 30
0.0
 11
137.51009926796
 21
256.335549874703
 31
0.0
  0
LINE
  5
   6C3
  8
0
  6
CONTINUOUS
 62
   252
 10
154.310119009018
 20
256.335549874703
 30
0.0
 11
158.51011826992
 21
256.335549874703
 31
0.0
  0
LINE
  5
   6C4
  8
0
  6
CONTINUOUS
 62
   252
 10
93.9001118934154
 20
360.985549989821
 30
0.0
 11
96.0001118576527
 21
360.985549989821
 31
0.0
  0
LINE
  5
   6C5
  8
0
  6
CONTINUOUS
 62
   252
 10
94.4601113498231
 20
360.98555201292
 30
0.0
 11
94.4601113498231
 21
369.03555187583
 31
0.0
  0
LINE
  5
   6C6
  8
0
  6
CONTINUOUS
 62
   252
 10
133.310110688211
 20
369.735551863909
 30
0.0
 11
133.310110688211
 21
371.135551840067
 31
0.0
  0
LINE
  5
   6C7
  8
0
  6
CONTINUOUS
 62
   252
 10
137.510110616685
 20
369.735551863909
 30
0.0
 11
137.510110616685
 21
371.135551840067
 31
0.0
  0
LINE
  5
   6C8
  8
0
  6
CONTINUOUS
 62
   252
 10
95.1601113379002
 20
369.035549852729
 30
0.0
 11
95.5101113319397
 21
369.035549852729
 31
0.0
  0
LINE
  5
   6C9
  8
0
  6
CONTINUOUS
 62
   252
 10
95.5101113319406
 20
369.03555187583
 30
0.0
 11
95.5101113319406
 21
371.135551840067
 31
0.0
  0
LINE
  5
   6CA
  8
0
  6
CONTINUOUS
 62
   252
 10
95.1601113379002
 20
371.135549816966
 30
0.0
 11
95.5101113319397
 21
371.135549816966
 31
0.0
  0
CIRCLE
  5
   6CB
  8
0
  6
CONTINUOUS
 62
   252
 10
145.910110223944
 20
370.435550010115
 30
0.0
 40
0.769999986886875
  0
LINE
  5
   6CC
  8
0
  6
CONTINUOUS
 62
   252
 10
137.510110616685
 20
371.135551840067
 30
0.0
 11
137.510110616685
 21
371.835551828146
 31
0.0
  0
LINE
  5
   6CD
  8
0
  6
CONTINUOUS
 62
   252
 10
133.310110688211
 20
371.135551840067
 30
0.0
 11
133.310110688211
 21
371.835551828146
 31
0.0
  0
LINE
  5
   6CE
  8
0
  6
CONTINUOUS
 62
   252
 10
133.31011068821
 20
369.735551738106
 30
0.0
 11
137.510110616684
 21
369.735551738106
 31
0.0
  0
LINE
  5
   6CF
  8
0
  6
CONTINUOUS
 62
   252
 10
93.4101113677025
 20
360.495549998164
 30
0.0
 11
159.237584792447
 21
360.495549998164
 31
0.0
  0
LINE
  5
   6D0
  8
0
  6
CONTINUOUS
 62
   252
 10
96.0001118576527
 20
360.985549989819
 30
0.0
 11
159.067896798255
 21
360.985549989819
 31
0.0
  0
LINE
  5
   6D1
  8
0
  6
CONTINUOUS
 62
   252
 10
114.410111010076
 20
360.495548816919
 30
0.0
 11
114.410111010076
 21
360.98555201292
 31
0.0
  0
LINE
  5
   6D2
  8
0
  6
CONTINUOUS
 62
   252
 10
93.90011135936
 20
360.495548816919
 30
0.0
 11
93.90011135936
 21
360.98555201292
 31
0.0
  0
CIRCLE
  5
   6D3
  8
0
  6
CONTINUOUS
 62
   252
 10
124.910110831262
 20
364.3105499332
 30
0.0
 40
2.27499996125693
  0
CIRCLE
  5
   6D4
  8
0
  6
CONTINUOUS
 62
   252
 10
145.910110473634
 20
364.3105499332
 30
0.0
 40
2.27499996125702
  0
ARC
  5
   6D5
  8
0
  6
CONTINUOUS
 62
     3
 10
176.710116805624
 20
266.835546759773
 30
0.0
 40
0.699999988079228
 50
269.999438781335
 51
360.000561218351
  0
ARC
  5
   6D6
  8
0
  6
CONTINUOUS
 62
     3
 10
94.1101113563383
 20
266.835553616842
 30
0.0
 40
0.699999988079483
 50
180.0
 51
269.999999954433
  0
LINE
  5
   6D7
  8
0
  6
CONTINUOUS
 62
     3
 10
177.410109937191
 20
266.835553616285
 30
0.0
 11
177.410109937191
 21
279.085553407669
 31
0.0
  0
LINE
  5
   6D8
  8
0
  6
CONTINUOUS
 62
     3
 10
93.4101113677025
 20
266.835553616285
 30
0.0
 11
93.4101113677025
 21
279.085553407669
 31
0.0
  0
LINE
  5
   6D9
  8
0
  6
CONTINUOUS
 62
     3
 10
175.310109972954
 20
266.135553628206
 30
0.0
 11
176.710109949112
 21
266.135553628206
 31
0.0
  0
LINE
  5
   6DA
  8
0
  6
CONTINUOUS
 62
     3
 10
95.5101113319397
 20
266.135553628206
 30
0.0
 11
175.87827926988
 21
266.135553628206
 31
0.0
  0
LINE
  5
   6DB
  8
0
  6
CONTINUOUS
 62
     3
 10
94.1101113557816
 20
266.135553628206
 30
0.0
 11
95.5101113319397
 21
266.135553628206
 31
0.0
  0
LINE
  5
   6DC
  8
0
  6
CONTINUOUS
 62
     3
 10
175.3451094383
 20
279.085553407669
 30
0.0
 11
175.69510943234
 21
279.085553407669
 31
0.0
  0
LINE
  5
   6DD
  8
0
  6
CONTINUOUS
 62
     3
 10
174.085109993815
 20
279.085553407669
 30
0.0
 11
174.435109987855
 21
279.085553407669
 31
0.0
  0
LINE
  5
   6DE
  8
0
  6
CONTINUOUS
 62
     3
 10
172.825110549331
 20
279.085553407669
 30
0.0
 11
173.17511054337
 21
279.085553407669
 31
0.0
  0
LINE
  5
   6DF
  8
0
  6
CONTINUOUS
 62
     3
 10
171.565111104846
 20
279.085553407669
 30
0.0
 11
171.915111098886
 21
279.085553407669
 31
0.0
  0
LINE
  5
   6E0
  8
0
  6
CONTINUOUS
 62
     3
 10
170.305108990073
 20
279.085553407669
 30
0.0
 11
170.655108984113
 21
279.085553407669
 31
0.0
  0
LINE
  5
   6E1
  8
0
  6
CONTINUOUS
 62
     3
 10
169.045109545589
 20
279.085553407669
 30
0.0
 11
169.395109539628
 21
279.085553407669
 31
0.0
  0
LINE
  5
   6E2
  8
0
  6
CONTINUOUS
 62
     3
 10
167.785110101104
 20
279.085553407669
 30
0.0
 11
168.135110095143
 21
279.085553407669
 31
0.0
  0
LINE
  5
   6E3
  8
0
  6
CONTINUOUS
 62
     3
 10
166.525110656619
 20
279.085553407669
 30
0.0
 11
166.875110650659
 21
279.085553407669
 31
0.0
  0
LINE
  5
   6E4
  8
0
  6
CONTINUOUS
 62
     3
 10
165.26510987699
 20
279.085553407669
 30
0.0
 11
165.61510987103
 21
279.085553407669
 31
0.0
  0
LINE
  5
   6E5
  8
0
  6
CONTINUOUS
 62
     3
 10
164.005110432506
 20
279.085553407669
 30
0.0
 11
164.355110426545
 21
279.085553407669
 31
0.0
  0
LINE
  5
   6E6
  8
0
  6
CONTINUOUS
 62
     3
 10
162.745109652877
 20
279.085553407669
 30
0.0
 11
163.095109646916
 21
279.085553407669
 31
0.0
  0
LINE
  5
   6E7
  8
0
  6
CONTINUOUS
 62
     3
 10
161.485110208392
 20
279.085553407669
 30
0.0
 11
161.835110202432
 21
279.085553407669
 31
0.0
  0
LINE
  5
   6E8
  8
0
  6
CONTINUOUS
 62
     3
 10
160.225110763907
 20
279.085553407669
 30
0.0
 11
160.575110757947
 21
279.085553407669
 31
0.0
  0
LINE
  5
   6E9
  8
0
  6
CONTINUOUS
 62
     3
 10
158.965109984279
 20
279.085553407669
 30
0.0
 11
159.315109978318
 21
279.085553407669
 31
0.0
  0
LINE
  5
   6EA
  8
0
  6
CONTINUOUS
 62
     3
 10
157.705110539794
 20
279.085553407669
 30
0.0
 11
158.055110533834
 21
279.085553407669
 31
0.0
  0
LINE
  5
   6EB
  8
0
  6
CONTINUOUS
 62
     3
 10
156.445110427737
 20
279.085553407669
 30
0.0
 11
156.795110421777
 21
279.085553407669
 31
0.0
  0
LINE
  5
   6EC
  8
0
  6
CONTINUOUS
 62
     3
 10
155.185110315681
 20
279.085553407669
 30
0.0
 11
155.53511030972
 21
279.085553407669
 31
0.0
  0
LINE
  5
   6ED
  8
0
  6
CONTINUOUS
 62
     3
 10
153.925110203624
 20
279.085553407669
 30
0.0
 11
154.275110197663
 21
279.085553407669
 31
0.0
  0
LINE
  5
   6EE
  8
0
  6
CONTINUOUS
 62
     3
 10
152.665110091567
 20
279.085553407669
 30
0.0
 11
153.015110085607
 21
279.085553407669
 31
0.0
  0
LINE
  5
   6EF
  8
0
  6
CONTINUOUS
 62
     3
 10
151.405110313296
 20
279.085553407669
 30
0.0
 11
151.755110641122
 21
279.085553407669
 31
0.0
  0
LINE
  5
   6F0
  8
0
  6
CONTINUOUS
 62
     3
 10
150.145110535026
 20
279.085553407669
 30
0.0
 11
150.495110529065
 21
279.085553407669
 31
0.0
  0
LINE
  5
   6F1
  8
0
  6
CONTINUOUS
 62
     3
 10
148.885110422969
 20
279.085553407669
 30
0.0
 11
149.235110417008
 21
279.085553407669
 31
0.0
  0
LINE
  5
   6F2
  8
0
  6
CONTINUOUS
 62
     3
 10
147.625110477805
 20
279.085553407669
 30
0.0
 11
147.975110471845
 21
279.085553407669
 31
0.0
  0
LINE
  5
   6F3
  8
0
  6
CONTINUOUS
 62
     3
 10
146.365110449195
 20
279.085553407669
 30
0.0
 11
146.715110443234
 21
279.085553407669
 31
0.0
  0
LINE
  5
   6F4
  8
0
  6
CONTINUOUS
 62
     3
 10
145.105110504031
 20
279.085553407669
 30
0.0
 11
145.455110498071
 21
279.085553407669
 31
0.0
  0
LINE
  5
   6F5
  8
0
  6
CONTINUOUS
 62
     3
 10
143.845110475421
 20
279.085553407669
 30
0.0
 11
144.19511046946
 21
279.085553407669
 31
0.0
  0
LINE
  5
   6F6
  8
0
  6
CONTINUOUS
 62
     3
 10
142.585110530257
 20
279.085553407669
 30
0.0
 11
142.935110524297
 21
279.085553407669
 31
0.0
  0
LINE
  5
   6F7
  8
0
  6
CONTINUOUS
 62
     3
 10
141.325110418201
 20
279.085553407669
 30
0.0
 11
141.67511041224
 21
279.085553407669
 31
0.0
  0
LINE
  5
   6F8
  8
0
  6
CONTINUOUS
 62
     3
 10
140.065110306144
 20
279.085553407669
 30
0.0
 11
140.415110633969
 21
279.085553407669
 31
0.0
  0
LINE
  5
   6F9
  8
0
  6
CONTINUOUS
 62
     3
 10
138.805110861659
 20
279.085553407669
 30
0.0
 11
139.155110855699
 21
279.085553407669
 31
0.0
  0
LINE
  5
   6FA
  8
0
  6
CONTINUOUS
 62
     3
 10
137.545110749602
 20
279.085553407669
 30
0.0
 11
137.895110743642
 21
279.085553407669
 31
0.0
  0
LINE
  5
   6FB
  8
0
  6
CONTINUOUS
 62
     3
 10
136.285110637546
 20
279.085553407669
 30
0.0
 11
136.635110631585
 21
279.085553407669
 31
0.0
  0
LINE
  5
   6FC
  8
0
  6
CONTINUOUS
 62
     3
 10
135.025110525489
 20
279.085553407669
 30
0.0
 11
135.375110519528
 21
279.085553407669
 31
0.0
  0
LINE
  5
   6FD
  8
0
  6
CONTINUOUS
 62
     3
 10
133.765110413432
 20
279.085553407669
 30
0.0
 11
134.115110407472
 21
279.085553407669
 31
0.0
  0
LINE
  5
   6FE
  8
0
  6
CONTINUOUS
 62
     3
 10
132.505110968947
 20
279.085553407669
 30
0.0
 11
132.855110962987
 21
279.085553407669
 31
0.0
  0
LINE
  5
   6FF
  8
0
  6
CONTINUOUS
 62
     3
 10
131.245110189319
 20
279.085553407669
 30
0.0
 11
131.595110183358
 21
279.085553407669
 31
0.0
  0
LINE
  5
   700
  8
0
  6
CONTINUOUS
 62
     3
 10
129.985110744834
 20
279.085553407669
 30
0.0
 11
130.335110738873
 21
279.085553407669
 31
0.0
  0
LINE
  5
   701
  8
0
  6
CONTINUOUS
 62
     3
 10
128.725111300349
 20
279.085553407669
 30
0.0
 11
129.075111294389
 21
279.085553407669
 31
0.0
  0
LINE
  5
   702
  8
0
  6
CONTINUOUS
 62
     3
 10
127.465110520721
 20
279.085553407669
 30
0.0
 11
127.81511051476
 21
279.085553407669
 31
0.0
  0
LINE
  5
   703
  8
0
  6
CONTINUOUS
 62
     3
 10
126.205111076236
 20
279.085553407669
 30
0.0
 11
126.555111070275
 21
279.085553407669
 31
0.0
  0
LINE
  5
   704
  8
0
  6
CONTINUOUS
 62
     3
 10
124.945110296607
 20
279.085553407669
 30
0.0
 11
125.295110290647
 21
279.085553407669
 31
0.0
  0
LINE
  5
   705
  8
0
  6
CONTINUOUS
 62
     3
 10
123.685110852122
 20
279.085553407669
 30
0.0
 11
124.035110846162
 21
279.085553407669
 31
0.0
  0
LINE
  5
   706
  8
0
  6
CONTINUOUS
 62
     3
 10
122.425111407638
 20
279.085553407669
 30
0.0
 11
122.775111401677
 21
279.085553407669
 31
0.0
  0
LINE
  5
   707
  8
0
  6
CONTINUOUS
 62
     3
 10
121.165111963153
 20
279.085553407669
 30
0.0
 11
121.515111957192
 21
279.085553407669
 31
0.0
  0
LINE
  5
   708
  8
0
  6
CONTINUOUS
 62
     3
 10
119.90510984838
 20
279.085553407669
 30
0.0
 11
120.25510984242
 21
279.085553407669
 31
0.0
  0
LINE
  5
   709
  8
0
  6
CONTINUOUS
 62
     3
 10
118.645110403895
 20
279.085553407669
 30
0.0
 11
118.995110397935
 21
279.085553407669
 31
0.0
  0
LINE
  5
   70A
  8
0
  6
CONTINUOUS
 62
     3
 10
117.385110959411
 20
279.085553407669
 30
0.0
 11
117.73511095345
 21
279.085553407669
 31
0.0
  0
LINE
  5
   70B
  8
0
  6
CONTINUOUS
 62
     3
 10
175.69510943234
 20
279.085553407669
 30
0.0
 11
177.410109937191
 21
279.085553407669
 31
0.0
  0
LINE
  5
   70C
  8
0
  6
CONTINUOUS
 62
     3
 10
93.4101113677025
 20
279.085553407669
 30
0.0
 11
95.1251118725538
 21
279.085553407669
 31
0.0
  0
LINE
  5
   70D
  8
0
  6
CONTINUOUS
 62
     3
 10
95.1251118725538
 20
279.085553407669
 30
0.0
 11
95.4751118665934
 21
279.085553407669
 31
0.0
  0
LINE
  5
   70E
  8
0
  6
CONTINUOUS
 62
     3
 10
168.135110095143
 20
279.085553407669
 30
0.0
 11
169.045109545589
 21
279.085553407669
 31
0.0
  0
LINE
  5
   70F
  8
0
  6
CONTINUOUS
 62
     3
 10
125.295110290647
 20
279.085553407669
 30
0.0
 11
126.205111076236
 21
279.085553407669
 31
0.0
  0
LINE
  5
   710
  8
0
  6
CONTINUOUS
 62
     3
 10
169.395109539628
 20
279.085553407669
 30
0.0
 11
170.305108990073
 21
279.085553407669
 31
0.0
  0
LINE
  5
   711
  8
0
  6
CONTINUOUS
 62
     3
 10
117.73511095345
 20
279.085553407669
 30
0.0
 11
118.645110403895
 21
279.085553407669
 31
0.0
  0
LINE
  5
   712
  8
0
  6
CONTINUOUS
 62
     3
 10
171.915111098886
 20
279.085553407669
 30
0.0
 11
172.825110549331
 21
279.085553407669
 31
0.0
  0
LINE
  5
   713
  8
0
  6
CONTINUOUS
 62
     3
 10
170.655108984113
 20
279.085553407669
 30
0.0
 11
171.565111104846
 21
279.085553407669
 31
0.0
  0
LINE
  5
   714
  8
0
  6
CONTINUOUS
 62
     3
 10
126.555111070275
 20
279.085553407669
 30
0.0
 11
127.465110520721
 21
279.085553407669
 31
0.0
  0
LINE
  5
   715
  8
0
  6
CONTINUOUS
 62
     3
 10
159.315109978318
 20
279.085553407669
 30
0.0
 11
160.225110763907
 21
279.085553407669
 31
0.0
  0
LINE
  5
   716
  8
0
  6
CONTINUOUS
 62
     3
 10
166.875110650659
 20
279.085553407669
 30
0.0
 11
167.785110101104
 21
279.085553407669
 31
0.0
  0
LINE
  5
   717
  8
0
  6
CONTINUOUS
 62
     3
 10
124.035110846162
 20
279.085553407669
 30
0.0
 11
124.945110296607
 21
279.085553407669
 31
0.0
  0
LINE
  5
   718
  8
0
  6
CONTINUOUS
 62
     3
 10
132.855110962987
 20
279.085553407669
 30
0.0
 11
133.765110413432
 21
279.085553407669
 31
0.0
  0
LINE
  5
   719
  8
0
  6
CONTINUOUS
 62
     3
 10
131.595110183358
 20
279.085553407669
 30
0.0
 11
132.505110968947
 21
279.085553407669
 31
0.0
  0
LINE
  5
   71A
  8
0
  6
CONTINUOUS
 62
     3
 10
130.335110738873
 20
279.085553407669
 30
0.0
 11
131.245110189319
 21
279.085553407669
 31
0.0
  0
LINE
  5
   71B
  8
0
  6
CONTINUOUS
 62
     3
 10
129.075111294389
 20
279.085553407669
 30
0.0
 11
129.985110744834
 21
279.085553407669
 31
0.0
  0
LINE
  5
   71C
  8
0
  6
CONTINUOUS
 62
     3
 10
127.81511051476
 20
279.085553407669
 30
0.0
 11
128.725111300349
 21
279.085553407669
 31
0.0
  0
LINE
  5
   71D
  8
0
  6
CONTINUOUS
 62
     3
 10
158.055110533834
 20
279.085553407669
 30
0.0
 11
158.965109984279
 21
279.085553407669
 31
0.0
  0
LINE
  5
   71E
  8
0
  6
CONTINUOUS
 62
     3
 10
155.53511030972
 20
279.085553407669
 30
0.0
 11
156.445110427737
 21
279.085553407669
 31
0.0
  0
LINE
  5
   71F
  8
0
  6
CONTINUOUS
 62
     3
 10
156.795110421777
 20
279.085553407669
 30
0.0
 11
157.705110539794
 21
279.085553407669
 31
0.0
  0
LINE
  5
   720
  8
0
  6
CONTINUOUS
 62
     3
 10
173.17511054337
 20
279.085553407669
 30
0.0
 11
174.085109993815
 21
279.085553407669
 31
0.0
  0
LINE
  5
   721
  8
0
  6
CONTINUOUS
 62
     3
 10
142.935110524297
 20
279.085553407669
 30
0.0
 11
143.845110475421
 21
279.085553407669
 31
0.0
  0
LINE
  5
   722
  8
0
  6
CONTINUOUS
 62
     3
 10
144.19511046946
 20
279.085553407669
 30
0.0
 11
145.105110504031
 21
279.085553407669
 31
0.0
  0
LINE
  5
   723
  8
0
  6
CONTINUOUS
 62
     3
 10
145.455110498071
 20
279.085553407669
 30
0.0
 11
146.365110449195
 21
279.085553407669
 31
0.0
  0
LINE
  5
   724
  8
0
  6
CONTINUOUS
 62
     3
 10
146.715110443234
 20
279.085553407669
 30
0.0
 11
147.625110477805
 21
279.085553407669
 31
0.0
  0
LINE
  5
   725
  8
0
  6
CONTINUOUS
 62
     3
 10
147.975110471845
 20
279.085553407669
 30
0.0
 11
148.885110422969
 21
279.085553407669
 31
0.0
  0
LINE
  5
   726
  8
0
  6
CONTINUOUS
 62
     3
 10
149.235110417008
 20
279.085553407669
 30
0.0
 11
150.145110535026
 21
279.085553407669
 31
0.0
  0
LINE
  5
   727
  8
0
  6
CONTINUOUS
 62
     3
 10
150.495110529065
 20
279.085553407669
 30
0.0
 11
151.405110313296
 21
279.085553407669
 31
0.0
  0
LINE
  5
   728
  8
0
  6
CONTINUOUS
 62
     3
 10
151.755110641122
 20
279.085553407669
 30
0.0
 11
152.665110091567
 21
279.085553407669
 31
0.0
  0
LINE
  5
   729
  8
0
  6
CONTINUOUS
 62
     3
 10
153.015110085607
 20
279.085553407669
 30
0.0
 11
153.925110203624
 21
279.085553407669
 31
0.0
  0
LINE
  5
   72A
  8
0
  6
CONTINUOUS
 62
     3
 10
154.275110197663
 20
279.085553407669
 30
0.0
 11
155.185110315681
 21
279.085553407669
 31
0.0
  0
LINE
  5
   72B
  8
0
  6
CONTINUOUS
 62
     3
 10
140.415110633969
 20
279.085553407669
 30
0.0
 11
141.325110418201
 21
279.085553407669
 31
0.0
  0
LINE
  5
   72C
  8
0
  6
CONTINUOUS
 62
     3
 10
135.375110519528
 20
279.085553407669
 30
0.0
 11
136.285110637546
 21
279.085553407669
 31
0.0
  0
LINE
  5
   72D
  8
0
  6
CONTINUOUS
 62
     3
 10
136.635110631585
 20
279.085553407669
 30
0.0
 11
137.545110749602
 21
279.085553407669
 31
0.0
  0
LINE
  5
   72E
  8
0
  6
CONTINUOUS
 62
     3
 10
137.895110743642
 20
279.085553407669
 30
0.0
 11
138.805110861659
 21
279.085553407669
 31
0.0
  0
LINE
  5
   72F
  8
0
  6
CONTINUOUS
 62
     3
 10
139.155110855699
 20
279.085553407669
 30
0.0
 11
140.065110306144
 21
279.085553407669
 31
0.0
  0
LINE
  5
   730
  8
0
  6
CONTINUOUS
 62
     3
 10
165.61510987103
 20
279.085553407669
 30
0.0
 11
166.525110656619
 21
279.085553407669
 31
0.0
  0
LINE
  5
   731
  8
0
  6
CONTINUOUS
 62
     3
 10
164.355110426545
 20
279.085553407669
 30
0.0
 11
165.26510987699
 21
279.085553407669
 31
0.0
  0
LINE
  5
   732
  8
0
  6
CONTINUOUS
 62
     3
 10
163.095109646916
 20
279.085553407669
 30
0.0
 11
164.005110432506
 21
279.085553407669
 31
0.0
  0
LINE
  5
   733
  8
0
  6
CONTINUOUS
 62
     3
 10
161.835110202432
 20
279.085553407669
 30
0.0
 11
162.745109652877
 21
279.085553407669
 31
0.0
  0
LINE
  5
   734
  8
0
  6
CONTINUOUS
 62
     3
 10
134.115110407472
 20
279.085553407669
 30
0.0
 11
135.025110525489
 21
279.085553407669
 31
0.0
  0
LINE
  5
   735
  8
0
  6
CONTINUOUS
 62
     3
 10
160.575110757947
 20
279.085553407669
 30
0.0
 11
161.485110208392
 21
279.085553407669
 31
0.0
  0
LINE
  5
   736
  8
0
  6
CONTINUOUS
 62
     3
 10
95.4751118665934
 20
279.085553407669
 30
0.0
 11
96.3851113170385
 21
279.085553407669
 31
0.0
  0
LINE
  5
   737
  8
0
  6
CONTINUOUS
 62
     3
 10
174.435109987855
 20
279.085553407669
 30
0.0
 11
175.3451094383
 21
279.085553407669
 31
0.0
  0
LINE
  5
   738
  8
0
  6
CONTINUOUS
 62
     3
 10
141.67511041224
 20
279.085553407669
 30
0.0
 11
142.585110530257
 21
279.085553407669
 31
0.0
  0
LINE
  5
   739
  8
0
  6
CONTINUOUS
 62
     3
 10
95.7831602507363
 20
279.085553407669
 30
0.0
 11
119.90510984838
 21
279.085553407669
 31
0.0
  0
LINE
  5
   73A
  8
0
  6
CONTINUOUS
 62
     3
 10
122.775111401677
 20
279.085553407669
 30
0.0
 11
123.685110852122
 21
279.085553407669
 31
0.0
  0
LINE
  5
   73B
  8
0
  6
CONTINUOUS
 62
     3
 10
121.515111957192
 20
279.085553407669
 30
0.0
 11
122.425111407638
 21
279.085553407669
 31
0.0
  0
LINE
  5
   73C
  8
0
  6
CONTINUOUS
 62
     3
 10
120.25510984242
 20
279.085553407669
 30
0.0
 11
121.165111963153
 21
279.085553407669
 31
0.0
  0
LINE
  5
   73D
  8
0
  6
CONTINUOUS
 62
     7
 10
93.4101006295845
 20
279.085553407669
 30
0.0
 11
93.4101006295845
 21
279.575553933382
 31
0.0
  0
LINE
  5
   73E
  8
0
  6
CONTINUOUS
 62
     7
 10
177.410120675309
 20
279.085553407669
 30
0.0
 11
177.410120675309
 21
279.575553933382
 31
0.0
  0
LINE
  5
   73F
  8
0
  6
CONTINUOUS
 62
     7
 10
93.900111359399
 20
346.495551725626
 30
0.0
 11
93.900111359399
 21
346.985546910763
 31
0.0
  0
LINE
  5
   740
  8
0
  6
CONTINUOUS
 62
     7
 10
177.410109937232
 20
293.43555316329
 30
0.0
 11
177.410109937232
 21
324.935552626848
 31
0.0
  0
LINE
  5
   741
  8
0
  6
CONTINUOUS
 62
     7
 10
177.410109937232
 20
324.935552626848
 30
0.0
 11
177.410109937232
 21
346.495551725626
 31
0.0
  0
LINE
  5
   742
  8
0
  6
CONTINUOUS
 62
     7
 10
177.410109937232
 20
279.575553933382
 30
0.0
 11
177.410109937232
 21
293.43555316329
 31
0.0
  0
LINE
  5
   743
  8
0
  6
CONTINUOUS
 62
     1
 10
138.560110598803
 20
320.512849687989
 30
0.0
 11
138.910110592842
 21
320.512849687989
 31
0.0
  0
LINE
  5
   744
  8
0
  6
CONTINUOUS
 62
     1
 10
152.910110354424
 20
320.512849687989
 30
0.0
 11
153.260110348463
 21
320.512849687989
 31
0.0
  0
LINE
  5
   745
  8
0
  6
CONTINUOUS
 62
     7
 10
138.560110598803
 20
300.276359371962
 30
0.0
 11
153.260110348463
 21
300.276359371962
 31
0.0
  0
LINE
  5
   746
  8
0
  6
CONTINUOUS
 62
     7
 10
153.120110484362
 20
299.931527658962
 30
0.0
 11
153.260110348463
 21
299.931527658962
 31
0.0
  0
LINE
  5
   747
  8
0
  6
CONTINUOUS
 62
     7
 10
138.560110598803
 20
299.931527658962
 30
0.0
 11
138.700110462904
 21
299.931527658962
 31
0.0
  0
CIRCLE
  5
   748
  8
0
  6
CONTINUOUS
 62
     7
 10
124.910099735086
 20
290.985549410417
 30
0.0
 40
2.27499996125698
  0
LINE
  5
   749
  8
0
  6
CONTINUOUS
 62
     7
 10
152.823328663397
 20
299.746733885813
 30
0.0
 11
152.901045394098
 21
299.754674654873
 31
0.0
  0
LINE
  5
   74A
  8
0
  6
CONTINUOUS
 62
     7
 10
152.901045394098
 20
299.754674654873
 30
0.0
 11
153.120110484362
 21
299.796795110852
 31
0.0
  0
LINE
  5
   74B
  8
0
  6
CONTINUOUS
 62
     7
 10
153.120110350847
 20
299.839664582625
 30
0.0
 11
153.120110350847
 21
299.931527498007
 31
0.0
  0
LINE
  5
   74C
  8
0
  6
CONTINUOUS
 62
     7
 10
138.700110596418
 20
299.839664582625
 30
0.0
 11
138.700110596418
 21
299.931527498007
 31
0.0
  0
LINE
  5
   74D
  8
0
  6
CONTINUOUS
 62
     7
 10
166.210109593808
 20
299.174605647342
 30
0.0
 11
166.210109593808
 21
299.278153743189
 31
0.0
  0
LINE
  5
   74E
  8
0
  6
CONTINUOUS
 62
     7
 10
171.39011003971
 20
294.485553145409
 30
0.0
 11
171.39011003971
 21
294.555553411245
 31
0.0
  0
LINE
  5
   74F
  8
0
  6
CONTINUOUS
 62
     7
 10
171.39011003971
 20
323.815552378893
 30
0.0
 11
171.39011003971
 21
323.88555264473
 31
0.0
  0
LINE
  5
   750
  8
0
  6
CONTINUOUS
 62
     7
 10
172.580110019445
 20
323.88555264473
 30
0.0
 11
172.580110019445
 21
324.935552626848
 31
0.0
  0
LINE
  5
   751
  8
0
  6
CONTINUOUS
 62
     7
 10
172.580110019445
 20
293.43555316329
 30
0.0
 11
172.580110019445
 21
294.485553145409
 31
0.0
  0
LINE
  5
   752
  8
0
  6
CONTINUOUS
 62
     7
 10
138.700110462904
 20
299.796795110852
 30
0.0
 11
138.919174218023
 21
299.754674654873
 31
0.0
  0
LINE
  5
   753
  8
0
  6
CONTINUOUS
 62
     7
 10
138.919174218023
 20
299.754674654873
 30
0.0
 11
138.996878932429
 21
299.746734887171
 31
0.0
  0
POLYLINE
  5
   754
  8
0
  6
CONTINUOUS
 62
     7
 66
     1
 10
0.0
 20
0.0
 30
0.0
  0
VERTEX
  5
   755
  8
0
  6
CONTINUOUS
 10
152.420111041844
 20
297.075553101301
 30
0.0
 40
0.0
 41
0.0
  0
VERTEX
  5
   756
  8
0
  6
CONTINUOUS
 10
152.840110354886
 20
296.935553103685
 30
0.0
 40
0.0
 41
0.0
  0
SEQEND
  5
   757
  8
0
  6
CONTINUOUS
 62
     7
  0
POLYLINE
  5
   758
  8
0
  6
CONTINUOUS
 62
     7
 66
     1
 10
0.0
 20
0.0
 30
0.0
  0
VERTEX
  5
   759
  8
0
  6
CONTINUOUS
 10
139.400109892407
 20
297.075553101301
 30
0.0
 40
0.0
 41
0.0
  0
VERTEX
  5
   75A
  8
0
  6
CONTINUOUS
 10
138.980110591456
 20
296.935553103685
 30
0.0
 40
0.0
 41
0.0
  0
SEQEND
  5
   75B
  8
0
  6
CONTINUOUS
 62
     7
  0
LINE
  5
   75C
  8
0
  6
CONTINUOUS
 62
     7
 10
152.840110756159
 20
296.935553103685
 30
0.0
 11
153.050110218525
 21
296.935553103685
 31
0.0
  0
LINE
  5
   75D
  8
0
  6
CONTINUOUS
 62
     7
 10
138.770110728741
 20
296.935553103685
 30
0.0
 11
138.980110191107
 21
296.935553103685
 31
0.0
  0
LINE
  5
   75E
  8
0
  6
CONTINUOUS
 62
     7
 10
138.980110191107
 20
296.935553103685
 30
0.0
 11
152.840110756159
 21
296.935553103685
 31
0.0
  0
POLYLINE
  5
   75F
  8
0
  6
CONTINUOUS
 62
     7
 66
     1
 10
0.0
 20
0.0
 30
0.0
  0
VERTEX
  5
   760
  8
0
  6
CONTINUOUS
 10
152.823328776773
 20
299.746733949181
 30
0.0
 40
0.0
 41
0.0
  0
VERTEX
  5
   761
  8
0
  6
CONTINUOUS
 10
152.420110362768
 20
299.607266693822
 30
0.0
 40
0.0
 41
0.0
  0
SEQEND
  5
   762
  8
0
  6
CONTINUOUS
 62
     7
  0
POLYLINE
  5
   763
  8
0
  6
CONTINUOUS
 62
     7
 66
     1
 10
0.0
 20
0.0
 30
0.0
  0
VERTEX
  5
   764
  8
0
  6
CONTINUOUS
 10
138.996892169395
 20
299.746733949181
 30
0.0
 40
0.0
 41
0.0
  0
VERTEX
  5
   765
  8
0
  6
CONTINUOUS
 10
139.400110527306
 20
299.607266693822
 30
0.0
 40
0.0
 41
0.0
  0
SEQEND
  5
   766
  8
0
  6
CONTINUOUS
 62
     7
  0
LINE
  5
   767
  8
0
  6
CONTINUOUS
 62
     7
 10
93.4101113677025
 20
346.495552259683
 30
0.0
 11
95.1251118725538
 21
346.495552259683
 31
0.0
  0
LINE
  5
   768
  8
0
  6
CONTINUOUS
 62
     7
 10
175.69510943234
 20
346.495552259683
 30
0.0
 11
177.410109937191
 21
346.495552259683
 31
0.0
  0
LINE
  5
   769
  8
0
  6
CONTINUOUS
 62
     7
 10
175.3451094383
 20
346.495552259683
 30
0.0
 11
175.69510943234
 21
346.495552259683
 31
0.0
  0
LINE
  5
   76A
  8
0
  6
CONTINUOUS
 62
     7
 10
95.1251118725538
 20
346.495552259683
 30
0.0
 11
95.4751118665934
 21
346.495552259683
 31
0.0
  0
LINE
  5
   76B
  8
0
  6
CONTINUOUS
 62
     7
 10
174.435109987855
 20
346.495552259683
 30
0.0
 11
175.3451094383
 21
346.495552259683
 31
0.0
  0
LINE
  5
   76C
  8
0
  6
CONTINUOUS
 62
     7
 10
173.17511054337
 20
346.495552259683
 30
0.0
 11
174.085109993815
 21
346.495552259683
 31
0.0
  0
LINE
  5
   76D
  8
0
  6
CONTINUOUS
 62
     7
 10
96.7351113110781
 20
346.495552259683
 30
0.0
 11
97.6451107615233
 21
346.495552259683
 31
0.0
  0
LINE
  5
   76E
  8
0
  6
CONTINUOUS
 62
     7
 10
95.4751118665934
 20
346.495552259683
 30
0.0
 11
96.3851113170385
 21
346.495552259683
 31
0.0
  0
LINE
  5
   76F
  8
0
  6
CONTINUOUS
 62
     7
 10
97.9951107555628
 20
346.495552259683
 30
0.0
 11
173.38712311044
 21
346.495552259683
 31
0.0
  0
LINE
  5
   770
  8
0
  6
CONTINUOUS
 62
     7
 10
174.085109993815
 20
346.495552259683
 30
0.0
 11
174.435109987855
 21
346.495552259683
 31
0.0
  0
LINE
  5
   771
  8
0
  6
CONTINUOUS
 62
     7
 10
172.825110549331
 20
346.495552259683
 30
0.0
 11
173.17511054337
 21
346.495552259683
 31
0.0
  0
LINE
  5
   772
  8
0
  6
CONTINUOUS
 62
     7
 10
96.3851113170385
 20
346.495552259683
 30
0.0
 11
96.7351113110781
 21
346.495552259683
 31
0.0
  0
LINE
  5
   773
  8
0
  6
CONTINUOUS
 62
     7
 10
97.6451107615233
 20
346.495552259683
 30
0.0
 11
97.9951107555628
 21
346.495552259683
 31
0.0
  0
LINE
  5
   774
  8
0
  6
CONTINUOUS
 62
     7
 10
93.4101113677025
 20
279.575553399324
 30
0.0
 11
95.1251118725538
 21
279.575553399324
 31
0.0
  0
LINE
  5
   775
  8
0
  6
CONTINUOUS
 62
     7
 10
175.69510943234
 20
279.575553399324
 30
0.0
 11
177.410109937191
 21
279.575553399324
 31
0.0
  0
LINE
  5
   776
  8
0
  6
CONTINUOUS
 62
     7
 10
95.1251118725538
 20
279.575553399324
 30
0.0
 11
95.4751118665934
 21
279.575553399324
 31
0.0
  0
LINE
  5
   777
  8
0
  6
CONTINUOUS
 62
     7
 10
175.3451094383
 20
279.575553399324
 30
0.0
 11
175.69510943234
 21
279.575553399324
 31
0.0
  0
LINE
  5
   778
  8
0
  6
CONTINUOUS
 62
     7
 10
95.4751118665934
 20
279.575553399324
 30
0.0
 11
96.3851113170385
 21
279.575553399324
 31
0.0
  0
LINE
  5
   779
  8
0
  6
CONTINUOUS
 62
     7
 10
174.435109987855
 20
279.575553399324
 30
0.0
 11
175.3451094383
 21
279.575553399324
 31
0.0
  0
LINE
  5
   77A
  8
0
  6
CONTINUOUS
 62
     7
 10
173.17511054337
 20
279.575553399324
 30
0.0
 11
174.085109993815
 21
279.575553399324
 31
0.0
  0
LINE
  5
   77B
  8
0
  6
CONTINUOUS
 62
     7
 10
93.4101113677436
 20
279.575553399324
 30
0.0
 11
177.410109937232
 21
279.575553399324
 31
0.0
  0
LINE
  5
   77C
  8
0
  6
CONTINUOUS
 62
     7
 10
117.73511095345
 20
279.575553399324
 30
0.0
 11
118.645110403895
 21
279.575553399324
 31
0.0
  0
LINE
  5
   77D
  8
0
  6
CONTINUOUS
 62
     7
 10
96.3851113170385
 20
279.575553399324
 30
0.0
 11
96.7351113110781
 21
279.575553399324
 31
0.0
  0
LINE
  5
   77E
  8
0
  6
CONTINUOUS
 62
     7
 10
118.645110403895
 20
279.575553399324
 30
0.0
 11
118.995110397935
 21
279.575553399324
 31
0.0
  0
LINE
  5
   77F
  8
0
  6
CONTINUOUS
 62
     7
 10
174.085109993815
 20
279.575553399324
 30
0.0
 11
174.435109987855
 21
279.575553399324
 31
0.0
  0
LINE
  5
   780
  8
0
  6
CONTINUOUS
 62
     7
 10
172.825110549331
 20
279.575553399324
 30
0.0
 11
173.17511054337
 21
279.575553399324
 31
0.0
  0
POLYLINE
  5
   781
  8
0
  6
CONTINUOUS
 62
     7
 66
     1
 10
0.0
 20
0.0
 30
0.0
  0
VERTEX
  5
   782
  8
0
  6
CONTINUOUS
 10
167.635393369443
 20
299.347666709565
 30
0.0
 40
0.0
 41
0.0
  0
VERTEX
  5
   783
  8
0
  6
CONTINUOUS
 10
168.861099584755
 20
299.088427884459
 30
0.0
 40
0.0
 41
0.0
  0
VERTEX
  5
   784
  8
0
  6
CONTINUOUS
 10
169.297033232536
 20
298.915560052339
 30
0.0
 40
0.0
 41
0.0
  0
SEQEND
  5
   785
  8
0
  6
CONTINUOUS
 62
     7
  0
POLYLINE
  5
   786
  8
0
  6
CONTINUOUS
 62
     7
 66
     1
 10
0.0
 20
0.0
 30
0.0
  0
VERTEX
  5
   787
  8
0
  6
CONTINUOUS
 10
169.486740891284
 20
298.81998930988
 30
0.0
 40
0.0
 41
0.0
  0
VERTEX
  5
   788
  8
0
  6
CONTINUOUS
 10
169.846454101688
 20
298.587773247732
 30
0.0
 40
0.0
 41
0.0
  0
SEQEND
  5
   789
  8
0
  6
CONTINUOUS
 62
     7
  0
POLYLINE
  5
   78A
  8
0
  6
CONTINUOUS
 62
     7
 66
     1
 10
0.0
 20
0.0
 30
0.0
  0
VERTEX
  5
   78B
  8
0
  6
CONTINUOUS
 10
164.409104923531
 20
298.859992190858
 30
0.0
 40
0.0
 41
0.0
  0
VERTEX
  5
   78C
  8
0
  6
CONTINUOUS
 10
165.509846431245
 20
299.239481526946
 30
0.0
 40
0.0
 41
0.0
  0
VERTEX
  5
   78D
  8
0
  6
CONTINUOUS
 10
166.696986666196
 20
299.382208924319
 30
0.0
 40
0.0
 41
0.0
  0
VERTEX
  5
   78E
  8
0
  6
CONTINUOUS
 10
167.494916640821
 20
299.361014528171
 30
0.0
 40
0.0
 41
0.0
  0
SEQEND
  5
   78F
  8
0
  6
CONTINUOUS
 62
     7
  0
POLYLINE
  5
   790
  8
0
  6
CONTINUOUS
 62
     7
 66
     1
 10
0.0
 20
0.0
 30
0.0
  0
VERTEX
  5
   791
  8
0
  6
CONTINUOUS
 10
169.923367455053
 20
298.525669334194
 30
0.0
 40
0.0
 41
0.0
  0
VERTEX
  5
   792
  8
0
  6
CONTINUOUS
 10
170.13836442577
 20
298.311644784585
 30
0.0
 40
0.0
 41
0.0
  0
SEQEND
  5
   793
  8
0
  6
CONTINUOUS
 62
     7
  0
POLYLINE
  5
   794
  8
0
  6
CONTINUOUS
 62
     7
 66
     1
 10
0.0
 20
0.0
 30
0.0
  0
VERTEX
  5
   795
  8
0
  6
CONTINUOUS
 10
163.410110175613
 20
297.635553091767
 30
0.0
 40
0.0
 41
0.0
  0
VERTEX
  5
   796
  8
0
  6
CONTINUOUS
 10
163.60788593746
 20
298.215026570789
 30
0.0
 40
0.0
 41
0.0
  0
VERTEX
  5
   797
  8
0
  6
CONTINUOUS
 10
164.330425077471
 20
298.818514341478
 30
0.0
 40
0.0
 41
0.0
  0
SEQEND
  5
   798
  8
0
  6
CONTINUOUS
 62
     7
  0
POLYLINE
  5
   799
  8
0
  6
CONTINUOUS
 62
     7
 66
     1
 10
0.0
 20
0.0
 30
0.0
  0
VERTEX
  5
   79A
  8
0
  6
CONTINUOUS
 10
170.316468470907
 20
298.038165077282
 30
0.0
 40
0.0
 41
0.0
  0
VERTEX
  5
   79B
  8
0
  6
CONTINUOUS
 10
170.410110056397
 20
297.635553091767
 30
0.0
 40
0.0
 41
0.0
  0
SEQEND
  5
   79C
  8
0
  6
CONTINUOUS
 62
     7
  0
POLYLINE
  5
   79D
  8
0
  6
CONTINUOUS
 62
     7
 66
     1
 10
0.0
 20
0.0
 30
0.0
  0
VERTEX
  5
   79E
  8
0
  6
CONTINUOUS
 10
163.503749184988
 20
297.232946552665
 30
0.0
 40
0.0
 41
0.0
  0
VERTEX
  5
   79F
  8
0
  6
CONTINUOUS
 10
163.410110175613
 20
297.635553091762
 30
0.0
 40
0.0
 41
0.0
  0
SEQEND
  5
   7A0
  8
0
  6
CONTINUOUS
 62
     7
  0
POLYLINE
  5
   7A1
  8
0
  6
CONTINUOUS
 62
     7
 66
     1
 10
0.0
 20
0.0
 30
0.0
  0
VERTEX
  5
   7A2
  8
0
  6
CONTINUOUS
 10
166.184822817768
 20
295.923439901523
 30
0.0
 40
0.0
 41
0.0
  0
VERTEX
  5
   7A3
  8
0
  6
CONTINUOUS
 10
164.959122998558
 20
296.182677510755
 30
0.0
 40
0.0
 41
0.0
  0
VERTEX
  5
   7A4
  8
0
  6
CONTINUOUS
 10
164.523190758633
 20
296.355544378429
 30
0.0
 40
0.0
 41
0.0
  0
SEQEND
  5
   7A5
  8
0
  6
CONTINUOUS
 62
     7
  0
POLYLINE
  5
   7A6
  8
0
  6
CONTINUOUS
 62
     7
 66
     1
 10
0.0
 20
0.0
 30
0.0
  0
VERTEX
  5
   7A7
  8
0
  6
CONTINUOUS
 10
170.410110056397
 20
297.635553091762
 30
0.0
 40
0.0
 41
0.0
  0
VERTEX
  5
   7A8
  8
0
  6
CONTINUOUS
 10
170.250748946112
 20
297.114004208675
 30
0.0
 40
0.0
 41
0.0
  0
VERTEX
  5
   7A9
  8
0
  6
CONTINUOUS
 10
169.877440044383
 20
296.707448434061
 30
0.0
 40
0.0
 41
0.0
  0
VERTEX
  5
   7AA
  8
0
  6
CONTINUOUS
 10
168.866834048051
 20
296.184805382909
 30
0.0
 40
0.0
 41
0.0
  0
VERTEX
  5
   7AB
  8
0
  6
CONTINUOUS
 10
167.527196875118
 20
295.912962930764
 30
0.0
 40
0.0
 41
0.0
  0
VERTEX
  5
   7AC
  8
0
  6
CONTINUOUS
 10
166.338490051883
 20
295.908991367678
 30
0.0
 40
0.0
 41
0.0
  0
SEQEND
  5
   7AD
  8
0
  6
CONTINUOUS
 62
     7
  0
POLYLINE
  5
   7AE
  8
0
  6
CONTINUOUS
 62
     7
 66
     1
 10
0.0
 20
0.0
 30
0.0
  0
VERTEX
  5
   7AF
  8
0
  6
CONTINUOUS
 10
163.896374777275
 20
296.745841472563
 30
0.0
 40
0.0
 41
0.0
  0
VERTEX
  5
   7B0
  8
0
  6
CONTINUOUS
 10
163.678193250881
 20
296.963843749342
 30
0.0
 40
0.0
 41
0.0
  0
SEQEND
  5
   7B1
  8
0
  6
CONTINUOUS
 62
     7
  0
POLYLINE
  5
   7B2
  8
0
  6
CONTINUOUS
 62
     7
 66
     1
 10
0.0
 20
0.0
 30
0.0
  0
VERTEX
  5
   7B3
  8
0
  6
CONTINUOUS
 10
164.3786315387
 20
296.42700302483
 30
0.0
 40
0.0
 41
0.0
  0
VERTEX
  5
   7B4
  8
0
  6
CONTINUOUS
 10
163.998891116534
 20
296.664230248076
 30
0.0
 40
0.0
 41
0.0
  0
SEQEND
  5
   7B5
  8
0
  6
CONTINUOUS
 62
     7
  0
LINE
  5
   7B6
  8
0
  6
CONTINUOUS
 62
     7
 10
169.010110080242
 20
323.815552378893
 30
0.0
 11
169.010110080242
 21
323.88555264473
 31
0.0
  0
LINE
  5
   7B7
  8
0
  6
CONTINUOUS
 62
     7
 10
164.810110151768
 20
323.815552378893
 30
0.0
 11
164.810110151768
 21
323.88555264473
 31
0.0
  0
LINE
  5
   7B8
  8
0
  6
CONTINUOUS
 62
     7
 10
127.010110795498
 20
323.815552378893
 30
0.0
 11
127.010110795498
 21
323.88555264473
 31
0.0
  0
LINE
  5
   7B9
  8
0
  6
CONTINUOUS
 62
     7
 10
122.810110867023
 20
323.815552378893
 30
0.0
 11
122.810110867023
 21
323.88555264473
 31
0.0
  0
LINE
  5
   7BA
  8
0
  6
CONTINUOUS
 62
     7
 10
122.810110867023
 20
294.485553145409
 30
0.0
 11
122.810110867023
 21
294.555553411245
 31
0.0
  0
LINE
  5
   7BB
  8
0
  6
CONTINUOUS
 62
     7
 10
127.010110795498
 20
294.485553145409
 30
0.0
 11
127.010110795498
 21
294.555553411245
 31
0.0
  0
LINE
  5
   7BC
  8
0
  6
CONTINUOUS
 62
     7
 10
169.710110068321
 20
294.485553145409
 30
0.0
 11
169.710110068321
 21
294.555553411245
 31
0.0
  0
LINE
  5
   7BD
  8
0
  6
CONTINUOUS
 62
     7
 10
164.110110163689
 20
294.485553145409
 30
0.0
 11
164.110110163689
 21
294.555553411245
 31
0.0
  0
LINE
  5
   7BE
  8
0
  6
CONTINUOUS
 62
     7
 10
120.430110907555
 20
323.815552378893
 30
0.0
 11
120.430110907555
 21
323.88555264473
 31
0.0
  0
LINE
  5
   7BF
  8
0
  6
CONTINUOUS
 62
     7
 10
120.430110907555
 20
294.485553145409
 30
0.0
 11
120.430110907555
 21
294.555553411245
 31
0.0
  0
LINE
  5
   7C0
  8
0
  6
CONTINUOUS
 62
     7
 10
119.240110927824
 20
323.88555264473
 30
0.0
 11
119.240110927824
 21
324.935552626848
 31
0.0
  0
LINE
  5
   7C1
  8
0
  6
CONTINUOUS
 62
     7
 10
136.460110634565
 20
323.88555264473
 30
0.0
 11
155.3601103127
 21
323.88555264473
 31
0.0
  0
LINE
  5
   7C2
  8
0
  6
CONTINUOUS
 62
     7
 10
155.3601103127
 20
323.88555264473
 30
0.0
 11
164.810110151768
 21
323.88555264473
 31
0.0
  0
LINE
  5
   7C3
  8
0
  6
CONTINUOUS
 62
     7
 10
169.010110080242
 20
323.88555264473
 30
0.0
 11
170.480108987093
 21
323.88555264473
 31
0.0
  0
LINE
  5
   7C4
  8
0
  6
CONTINUOUS
 62
     7
 10
164.810110151768
 20
323.88555264473
 30
0.0
 11
169.010110080242
 21
323.88555264473
 31
0.0
  0
LINE
  5
   7C5
  8
0
  6
CONTINUOUS
 62
     7
 10
170.480108987093
 20
323.88555264473
 30
0.0
 11
172.58010895133
 21
323.88555264473
 31
0.0
  0
LINE
  5
   7C6
  8
0
  6
CONTINUOUS
 62
     7
 10
119.240111995935
 20
323.88555264473
 30
0.0
 11
121.340111960173
 21
323.88555264473
 31
0.0
  0
LINE
  5
   7C7
  8
0
  6
CONTINUOUS
 62
     7
 10
121.340111960173
 20
323.88555264473
 30
0.0
 11
122.810110867023
 21
323.88555264473
 31
0.0
  0
LINE
  5
   7C8
  8
0
  6
CONTINUOUS
 62
     7
 10
127.010110795498
 20
323.88555264473
 30
0.0
 11
136.460110634565
 21
323.88555264473
 31
0.0
  0
LINE
  5
   7C9
  8
0
  6
CONTINUOUS
 62
     7
 10
122.810110867023
 20
323.88555264473
 30
0.0
 11
127.010110795498
 21
323.88555264473
 31
0.0
  0
LINE
  5
   7CA
  8
0
  6
CONTINUOUS
 62
     7
 10
136.460110634565
 20
324.935552626848
 30
0.0
 11
155.3601103127
 21
324.935552626848
 31
0.0
  0
LINE
  5
   7CB
  8
0
  6
CONTINUOUS
 62
     7
 10
155.3601103127
 20
324.935552626848
 30
0.0
 11
170.480108987093
 21
324.935552626848
 31
0.0
  0
LINE
  5
   7CC
  8
0
  6
CONTINUOUS
 62
     7
 10
170.480108987093
 20
324.935552626848
 30
0.0
 11
172.58010895133
 21
324.935552626848
 31
0.0
  0
LINE
  5
   7CD
  8
0
  6
CONTINUOUS
 62
     7
 10
119.240111995935
 20
324.935552626848
 30
0.0
 11
121.340111960173
 21
324.935552626848
 31
0.0
  0
LINE
  5
   7CE
  8
0
  6
CONTINUOUS
 62
     7
 10
121.340111960173
 20
324.935552626848
 30
0.0
 11
136.460110634565
 21
324.935552626848
 31
0.0
  0
LINE
  5
   7CF
  8
0
  6
CONTINUOUS
 62
     7
 10
119.240110927824
 20
293.43555316329
 30
0.0
 11
119.240110927824
 21
294.485553145409
 31
0.0
  0
LINE
  5
   7D0
  8
0
  6
CONTINUOUS
 62
     7
 10
136.460110634565
 20
293.43555316329
 30
0.0
 11
155.3601103127
 21
293.43555316329
 31
0.0
  0
LINE
  5
   7D1
  8
0
  6
CONTINUOUS
 62
     7
 10
155.3601103127
 20
293.43555316329
 30
0.0
 11
170.480108987093
 21
293.43555316329
 31
0.0
  0
LINE
  5
   7D2
  8
0
  6
CONTINUOUS
 62
     7
 10
170.480108987093
 20
293.43555316329
 30
0.0
 11
172.58010895133
 21
293.43555316329
 31
0.0
  0
LINE
  5
   7D3
  8
0
  6
CONTINUOUS
 62
     7
 10
119.240111995935
 20
293.43555316329
 30
0.0
 11
121.340111960173
 21
293.43555316329
 31
0.0
  0
LINE
  5
   7D4
  8
0
  6
CONTINUOUS
 62
     7
 10
121.340111960173
 20
293.43555316329
 30
0.0
 11
136.460110634565
 21
293.43555316329
 31
0.0
  0
LINE
  5
   7D5
  8
0
  6
CONTINUOUS
 62
     7
 10
136.460110634565
 20
294.485553145409
 30
0.0
 11
155.3601103127
 21
294.485553145409
 31
0.0
  0
LINE
  5
   7D6
  8
0
  6
CONTINUOUS
 62
     7
 10
155.3601103127
 20
294.485553145409
 30
0.0
 11
170.480108987093
 21
294.485553145409
 31
0.0
  0
LINE
  5
   7D7
  8
0
  6
CONTINUOUS
 62
     7
 10
170.480108987093
 20
294.485553145409
 30
0.0
 11
172.58010895133
 21
294.485553145409
 31
0.0
  0
LINE
  5
   7D8
  8
0
  6
CONTINUOUS
 62
     7
 10
119.240111995935
 20
294.485553145409
 30
0.0
 11
121.340111960173
 21
294.485553145409
 31
0.0
  0
LINE
  5
   7D9
  8
0
  6
CONTINUOUS
 62
     7
 10
121.340111960173
 20
294.485553145409
 30
0.0
 11
136.460110634565
 21
294.485553145409
 31
0.0
  0
LINE
  5
   7DA
  8
0
  6
CONTINUOUS
 62
     7
 10
93.4101113677436
 20
324.935552626848
 30
0.0
 11
116.125111514926
 21
324.935552626848
 31
0.0
  0
LINE
  5
   7DB
  8
0
  6
CONTINUOUS
 62
     7
 10
175.69510943234
 20
324.935552626848
 30
0.0
 11
177.410109937191
 21
324.935552626848
 31
0.0
  0
LINE
  5
   7DC
  8
0
  6
CONTINUOUS
 62
     7
 10
116.125111514926
 20
324.935552626848
 30
0.0
 11
116.475111508965
 21
324.935552626848
 31
0.0
  0
LINE
  5
   7DD
  8
0
  6
CONTINUOUS
 62
     7
 10
175.3451094383
 20
324.935552626848
 30
0.0
 11
175.69510943234
 21
324.935552626848
 31
0.0
  0
LINE
  5
   7DE
  8
0
  6
CONTINUOUS
 62
     7
 10
174.085109993815
 20
324.935552626848
 30
0.0
 11
174.435109987855
 21
324.935552626848
 31
0.0
  0
LINE
  5
   7DF
  8
0
  6
CONTINUOUS
 62
     7
 10
172.825110549331
 20
324.935552626848
 30
0.0
 11
173.17511054337
 21
324.935552626848
 31
0.0
  0
LINE
  5
   7E0
  8
0
  6
CONTINUOUS
 62
     7
 10
117.385110959411
 20
324.935552626848
 30
0.0
 11
117.73511095345
 21
324.935552626848
 31
0.0
  0
LINE
  5
   7E1
  8
0
  6
CONTINUOUS
 62
     7
 10
118.645110403895
 20
324.935552626848
 30
0.0
 11
118.995110397935
 21
324.935552626848
 31
0.0
  0
LINE
  5
   7E2
  8
0
  6
CONTINUOUS
 62
     7
 10
93.4101113677436
 20
293.43555316329
 30
0.0
 11
116.125111514926
 21
293.43555316329
 31
0.0
  0
LINE
  5
   7E3
  8
0
  6
CONTINUOUS
 62
     7
 10
175.69510943234
 20
293.43555316329
 30
0.0
 11
177.410109937191
 21
293.43555316329
 31
0.0
  0
LINE
  5
   7E4
  8
0
  6
CONTINUOUS
 62
     7
 10
116.125111514926
 20
293.43555316329
 30
0.0
 11
116.475111508965
 21
293.43555316329
 31
0.0
  0
LINE
  5
   7E5
  8
0
  6
CONTINUOUS
 62
     7
 10
175.3451094383
 20
293.43555316329
 30
0.0
 11
175.69510943234
 21
293.43555316329
 31
0.0
  0
LINE
  5
   7E6
  8
0
  6
CONTINUOUS
 62
     7
 10
174.085109993815
 20
293.43555316329
 30
0.0
 11
174.435109987855
 21
293.43555316329
 31
0.0
  0
LINE
  5
   7E7
  8
0
  6
CONTINUOUS
 62
     7
 10
172.825110549331
 20
293.43555316329
 30
0.0
 11
173.17511054337
 21
293.43555316329
 31
0.0
  0
LINE
  5
   7E8
  8
0
  6
CONTINUOUS
 62
     7
 10
117.385110959411
 20
293.43555316329
 30
0.0
 11
117.73511095345
 21
293.43555316329
 31
0.0
  0
LINE
  5
   7E9
  8
0
  6
CONTINUOUS
 62
     7
 10
118.645110403895
 20
293.43555316329
 30
0.0
 11
118.995110397935
 21
293.43555316329
 31
0.0
  0
LINE
  5
   7EA
  8
0
  6
CONTINUOUS
 62
     7
 10
153.120110350847
 20
299.796795110852
 30
0.0
 11
153.120110350847
 21
299.839664582625
 31
0.0
  0
LINE
  5
   7EB
  8
0
  6
CONTINUOUS
 62
     7
 10
153.120110350847
 20
297.005553369522
 30
0.0
 11
153.120110350847
 21
299.796795110852
 31
0.0
  0
LINE
  5
   7EC
  8
0
  6
CONTINUOUS
 62
     7
 10
138.700110596418
 20
299.796795110852
 30
0.0
 11
138.700110596418
 21
299.839664582625
 31
0.0
  0
LINE
  5
   7ED
  8
0
  6
CONTINUOUS
 62
     7
 10
138.700110596418
 20
297.005553369522
 30
0.0
 11
138.700110596418
 21
299.796795110852
 31
0.0
  0
LINE
  5
   7EE
  8
0
  6
CONTINUOUS
 62
     7
 10
176.920109945577
 20
279.085553407669
 30
0.0
 11
176.920109945577
 21
279.575553933382
 31
0.0
  0
LINE
  5
   7EF
  8
0
  6
CONTINUOUS
 62
     7
 10
176.920109945577
 20
346.495551725626
 30
0.0
 11
176.920109945577
 21
346.985546910763
 31
0.0
  0
LINE
  5
   7F0
  8
0
  6
CONTINUOUS
 62
     7
 10
172.58010895133
 20
324.935552626848
 30
0.0
 11
172.825110549331
 21
324.935552626848
 31
0.0
  0
LINE
  5
   7F1
  8
0
  6
CONTINUOUS
 62
     7
 10
118.995110397935
 20
324.935552626848
 30
0.0
 11
119.240111995935
 21
324.935552626848
 31
0.0
  0
LINE
  5
   7F2
  8
0
  6
CONTINUOUS
 62
     7
 10
173.17511054337
 20
324.935552626848
 30
0.0
 11
174.085109993815
 21
324.935552626848
 31
0.0
  0
LINE
  5
   7F3
  8
0
  6
CONTINUOUS
 62
     7
 10
117.73511095345
 20
324.935552626848
 30
0.0
 11
118.645110403895
 21
324.935552626848
 31
0.0
  0
LINE
  5
   7F4
  8
0
  6
CONTINUOUS
 62
     7
 10
93.4101113677436
 20
279.575553933382
 30
0.0
 11
93.4101113677436
 21
293.43555316329
 31
0.0
  0
LINE
  5
   7F5
  8
0
  6
CONTINUOUS
 62
     7
 10
93.4101113677436
 20
285.273385300497
 30
0.0
 11
93.4101113677436
 21
346.495551725626
 31
0.0
  0
LINE
  5
   7F6
  8
0
  6
CONTINUOUS
 62
     7
 10
117.73511095345
 20
293.43555316329
 30
0.0
 11
118.645110403895
 21
293.43555316329
 31
0.0
  0
LINE
  5
   7F7
  8
0
  6
CONTINUOUS
 62
     7
 10
172.58010895133
 20
293.43555316329
 30
0.0
 11
172.825110549331
 21
293.43555316329
 31
0.0
  0
LINE
  5
   7F8
  8
0
  6
CONTINUOUS
 62
     7
 10
118.995110397935
 20
293.43555316329
 30
0.0
 11
119.240111995935
 21
293.43555316329
 31
0.0
  0
LINE
  5
   7F9
  8
0
  6
CONTINUOUS
 62
     7
 10
173.17511054337
 20
293.43555316329
 30
0.0
 11
174.085109993815
 21
293.43555316329
 31
0.0
  0
LINE
  5
   7FA
  8
0
  6
CONTINUOUS
 62
     7
 10
116.475111508965
 20
324.935552626848
 30
0.0
 11
117.385110959411
 21
324.935552626848
 31
0.0
  0
LINE
  5
   7FB
  8
0
  6
CONTINUOUS
 62
     7
 10
116.475111508965
 20
293.43555316329
 30
0.0
 11
117.385110959411
 21
293.43555316329
 31
0.0
  0
LINE
  5
   7FC
  8
0
  6
CONTINUOUS
 62
     7
 10
174.435109987855
 20
324.935552626848
 30
0.0
 11
175.3451094383
 21
324.935552626848
 31
0.0
  0
LINE
  5
   7FD
  8
0
  6
CONTINUOUS
 62
     7
 10
174.435109987855
 20
293.43555316329
 30
0.0
 11
175.3451094383
 21
293.43555316329
 31
0.0
  0
LINE
  5
   7FE
  8
0
  6
CONTINUOUS
 62
     7
 10
93.900111359399
 20
279.085553407669
 30
0.0
 11
93.900111359399
 21
279.575553933382
 31
0.0
  0
LINE
  5
   7FF
  8
0
  6
CONTINUOUS
 62
     7
 10
163.910436705175
 20
298.510553076868
 30
0.0
 11
164.041286159734
 21
298.510553076868
 31
0.0
  0
LINE
  5
   800
  8
0
  6
CONTINUOUS
 62
     7
 10
169.756479620144
 20
298.510553076868
 30
0.0
 11
169.926921435479
 21
298.510553076868
 31
0.0
  0
LINE
  5
   801
  8
0
  6
CONTINUOUS
 62
     7
 10
177.410109937191
 20
346.495551725626
 30
0.0
 11
177.410109937191
 21
346.985546910763
 31
0.0
  0
LINE
  5
   802
  8
0
  6
CONTINUOUS
 62
     7
 10
93.4101113677025
 20
346.495551725626
 30
0.0
 11
93.4101113677025
 21
346.985546910763
 31
0.0
  0
LINE
  5
   803
  8
0
  6
CONTINUOUS
 62
     7
 10
170.063917893106
 20
297.11055310071
 30
0.0
 11
170.119855086978
 21
297.11055310071
 31
0.0
  0
LINE
  5
   804
  8
0
  6
CONTINUOUS
 62
     3
 10
168.024104565733
 20
296.865553158273
 30
0.0
 11
168.205109372984
 21
297.046557965523
 31
0.0
  0
LINE
  5
   805
  8
0
  6
CONTINUOUS
 62
     3
 10
168.205109559893
 20
297.046558312671
 30
0.0
 11
168.205109559893
 21
297.524547882778
 31
0.0
  0
LINE
  5
   806
  8
0
  6
CONTINUOUS
 62
     3
 10
168.024104565736
 20
297.70555303718
 30
0.0
 11
168.205109372987
 21
297.52454822993
 31
0.0
  0
LINE
  5
   807
  8
0
  6
CONTINUOUS
 62
     3
 10
167.219105166895
 20
297.705553090576
 30
0.0
 11
168.024104886157
 21
297.705553090576
 31
0.0
  0
LINE
  5
   808
  8
0
  6
CONTINUOUS
 62
     3
 10
167.120109458222
 20
297.804548158404
 30
0.0
 11
167.21910471296
 21
297.705552903666
 31
0.0
  0
LINE
  5
   809
  8
0
  6
CONTINUOUS
 62
     3
 10
167.12010957837
 20
297.804548278553
 30
0.0
 11
167.12010957837
 21
298.166557893055
 31
0.0
  0
LINE
  5
   80A
  8
0
  6
CONTINUOUS
 62
     3
 10
167.120109458219
 20
298.166558013207
 30
0.0
 11
167.219104712957
 21
298.265553267945
 31
0.0
  0
LINE
  5
   80B
  8
0
  6
CONTINUOUS
 62
     3
 10
167.219105166895
 20
298.265553081039
 30
0.0
 11
167.966114240783
 21
298.265553081039
 31
0.0
  0
LINE
  5
   80C
  8
0
  6
CONTINUOUS
 62
     3
 10
167.966114561206
 20
298.26555313443
 30
0.0
 11
168.106114759093
 21
298.125552936542
 31
0.0
  0
LINE
  5
   80D
  8
0
  6
CONTINUOUS
 62
     3
 10
168.106114625575
 20
298.125553096786
 30
0.0
 11
168.205109212741
 21
298.224547683952
 31
0.0
  0
LINE
  5
   80E
  8
0
  6
CONTINUOUS
 62
     3
 10
168.024104565736
 20
298.405553025259
 30
0.0
 11
168.205109372987
 21
298.224548218009
 31
0.0
  0
LINE
  5
   80F
  8
0
  6
CONTINUOUS
 62
     3
 10
167.16111452152
 20
298.405553078655
 30
0.0
 11
168.024104886157
 21
298.405553078655
 31
0.0
  0
LINE
  5
   810
  8
0
  6
CONTINUOUS
 62
     3
 10
166.980109233603
 20
298.224547683952
 30
0.0
 11
167.161114708426
 21
298.405553158775
 31
0.0
  0
LINE
  5
   811
  8
0
  6
CONTINUOUS
 62
     3
 10
166.980109580754
 20
297.746558300751
 30
0.0
 11
166.980109580754
 21
298.224547870857
 31
0.0
  0
LINE
  5
   812
  8
0
  6
CONTINUOUS
 62
     3
 10
166.980109233606
 20
297.746558487659
 30
0.0
 11
167.161114708429
 21
297.565553012836
 31
0.0
  0
LINE
  5
   813
  8
0
  6
CONTINUOUS
 62
     3
 10
167.16111452152
 20
297.56555309296
 30
0.0
 11
167.966114240783
 21
297.56555309296
 31
0.0
  0
LINE
  5
   814
  8
0
  6
CONTINUOUS
 62
     3
 10
167.966114561206
 20
297.565553146351
 30
0.0
 11
168.065109815944
 21
297.466557891613
 31
0.0
  0
LINE
  5
   815
  8
0
  6
CONTINUOUS
 62
     3
 10
168.065109562277
 20
297.104548290474
 30
0.0
 11
168.065109562277
 21
297.466557904976
 31
0.0
  0
LINE
  5
   816
  8
0
  6
CONTINUOUS
 62
     3
 10
167.966114561202
 20
297.005553049102
 30
0.0
 11
168.06510981594
 21
297.10454830384
 31
0.0
  0
LINE
  5
   817
  8
0
  6
CONTINUOUS
 62
     3
 10
167.219105166895
 20
297.005553102496
 30
0.0
 11
167.966114240783
 21
297.005553102496
 31
0.0
  0
LINE
  5
   818
  8
0
  6
CONTINUOUS
 62
     3
 10
167.079104515072
 20
297.145553113474
 30
0.0
 11
167.21910471296
 21
297.005552915587
 31
0.0
  0
LINE
  5
   819
  8
0
  6
CONTINUOUS
 62
     3
 10
166.980109393846
 20
297.046557965523
 30
0.0
 11
167.079104648584
 21
297.145553220262
 31
0.0
  0
LINE
  5
   81A
  8
0
  6
CONTINUOUS
 62
     3
 10
166.980109233606
 20
297.04655849958
 30
0.0
 11
167.161114708429
 21
296.865553024757
 31
0.0
  0
LINE
  5
   81B
  8
0
  6
CONTINUOUS
 62
     3
 10
167.16111452152
 20
296.865553104881
 30
0.0
 11
168.024104886157
 21
296.865553104881
 31
0.0
  0
LINE
  5
   81C
  8
0
  6
CONTINUOUS
 62
     3
 10
169.080109544991
 20
296.865552837849
 30
0.0
 11
169.080109544991
 21
298.265552814007
 31
0.0
  0
LINE
  5
   81D
  8
0
  6
CONTINUOUS
 62
     3
 10
168.940108479261
 20
296.865553104881
 30
0.0
 11
169.080109010935
 21
296.865553104881
 31
0.0
  0
LINE
  5
   81E
  8
0
  6
CONTINUOUS
 62
     3
 10
168.940109547376
 20
296.865552837849
 30
0.0
 11
168.940109547376
 21
298.265552814007
 31
0.0
  0
LINE
  5
   81F
  8
0
  6
CONTINUOUS
 62
     3
 10
168.415108488202
 20
298.265553081039
 30
0.0
 11
168.940108479261
 21
298.265553081039
 31
0.0
  0
LINE
  5
   820
  8
0
  6
CONTINUOUS
 62
     3
 10
168.415109556316
 20
298.265552814007
 30
0.0
 11
168.415109556316
 21
298.40555334568
 31
0.0
  0
LINE
  5
   821
  8
0
  6
CONTINUOUS
 62
     3
 10
168.415108488202
 20
298.405553078655
 30
0.0
 11
169.605109001994
 21
298.405553078655
 31
0.0
  0
LINE
  5
   822
  8
0
  6
CONTINUOUS
 62
     3
 10
169.605109536051
 20
298.265552814007
 30
0.0
 11
169.605109536051
 21
298.40555334568
 31
0.0
  0
LINE
  5
   823
  8
0
  6
CONTINUOUS
 62
     3
 10
169.080109010935
 20
298.265553081039
 30
0.0
 11
169.605109001994
 21
298.265553081039
 31
0.0
  0
LINE
  5
   824
  8
0
  6
CONTINUOUS
 62
     3
 10
164.880109616517
 20
296.865552837849
 30
0.0
 11
164.880109616517
 21
298.265552814007
 31
0.0
  0
LINE
  5
   825
  8
0
  6
CONTINUOUS
 62
     3
 10
164.88010908246
 20
298.265553081039
 30
0.0
 11
165.40510907352
 21
298.265553081039
 31
0.0
  0
LINE
  5
   826
  8
0
  6
CONTINUOUS
 62
     3
 10
165.405109607576
 20
298.265552814007
 30
0.0
 11
165.405109607576
 21
298.40555334568
 31
0.0
  0
LINE
  5
   827
  8
0
  6
CONTINUOUS
 62
     3
 10
164.215109894872
 20
298.405553078655
 30
0.0
 11
165.40510907352
 21
298.405553078655
 31
0.0
  0
LINE
  5
   828
  8
0
  6
CONTINUOUS
 62
     3
 10
164.215109627842
 20
298.265552814007
 30
0.0
 11
164.215109627842
 21
298.40555334568
 31
0.0
  0
LINE
  5
   829
  8
0
  6
CONTINUOUS
 62
     3
 10
164.215109894872
 20
298.265553081039
 30
0.0
 11
164.740109885931
 21
298.265553081039
 31
0.0
  0
LINE
  5
   82A
  8
0
  6
CONTINUOUS
 62
     3
 10
164.740109618901
 20
296.865552837849
 30
0.0
 11
164.740109618901
 21
298.265552814007
 31
0.0
  0
LINE
  5
   82B
  8
0
  6
CONTINUOUS
 62
     3
 10
164.740109885931
 20
296.865553104881
 30
0.0
 11
164.88010908246
 21
296.865553104881
 31
0.0
  0
LINE
  5
   82C
  8
0
  6
CONTINUOUS
 62
     3
 10
166.560109587907
 20
297.565552825928
 30
0.0
 11
166.560109587907
 21
297.705553357601
 31
0.0
  0
LINE
  5
   82D
  8
0
  6
CONTINUOUS
 62
     3
 10
165.755109067559
 20
297.705553090576
 30
0.0
 11
166.560110121965
 21
297.705553090576
 31
0.0
  0
LINE
  5
   82E
  8
0
  6
CONTINUOUS
 62
     3
 10
165.755109601616
 20
297.705553357601
 30
0.0
 11
165.755109601616
 21
298.265552814007
 31
0.0
  0
LINE
  5
   82F
  8
0
  6
CONTINUOUS
 62
     3
 10
165.755109067559
 20
298.265553081039
 30
0.0
 11
166.805109049678
 21
298.265553081039
 31
0.0
  0
LINE
  5
   830
  8
0
  6
CONTINUOUS
 62
     3
 10
166.805109583734
 20
298.265552814007
 30
0.0
 11
166.805109583734
 21
298.40555334568
 31
0.0
  0
LINE
  5
   831
  8
0
  6
CONTINUOUS
 62
     3
 10
165.61510987103
 20
298.405553078655
 30
0.0
 11
166.805109049678
 21
298.405553078655
 31
0.0
  0
LINE
  5
   832
  8
0
  6
CONTINUOUS
 62
     3
 10
165.615109604
 20
296.865552837849
 30
0.0
 11
165.615109604
 21
298.40555334568
 31
0.0
  0
LINE
  5
   833
  8
0
  6
CONTINUOUS
 62
     3
 10
165.61510987103
 20
296.865553104881
 30
0.0
 11
166.805109049678
 21
296.865553104881
 31
0.0
  0
LINE
  5
   834
  8
0
  6
CONTINUOUS
 62
     3
 10
166.805109583734
 20
296.865552837849
 30
0.0
 11
166.805109583734
 21
297.005553369522
 31
0.0
  0
LINE
  5
   835
  8
0
  6
CONTINUOUS
 62
     3
 10
165.755109067559
 20
297.005553102496
 30
0.0
 11
166.805109049678
 21
297.005553102496
 31
0.0
  0
LINE
  5
   836
  8
0
  6
CONTINUOUS
 62
     3
 10
165.755109601616
 20
297.005553369522
 30
0.0
 11
165.755109601616
 21
297.565552825928
 31
0.0
  0
LINE
  5
   837
  8
0
  6
CONTINUOUS
 62
     3
 10
165.755109067559
 20
297.56555309296
 30
0.0
 11
166.560110121965
 21
297.56555309296
 31
0.0
  0
POLYLINE
  5
   838
  8
0
  6
CONTINUOUS
 62
     1
 66
     1
 10
0.0
 20
0.0
 30
0.0
  0
VERTEX
  5
   839
  8
0
  6
CONTINUOUS
 10
163.480110174419
 20
297.635553091761
 30
0.0
 40
0.0
 41
0.0
  0
VERTEX
  5
   83A
  8
0
  6
CONTINUOUS
 10
163.606618552507
 20
297.187402860203
 30
0.0
 40
0.0
 41
0.0
  0
VERTEX
  5
   83B
  8
0
  6
CONTINUOUS
 10
164.102255363213
 20
296.674885275775
 30
0.0
 40
0.0
 41
0.0
  0
VERTEX
  5
   83C
  8
0
  6
CONTINUOUS
 10
165.161639181593
 20
296.192564098088
 30
0.0
 40
0.0
 41
0.0
  0
VERTEX
  5
   83D
  8
0
  6
CONTINUOUS
 10
166.308488662612
 20
295.981869079615
 30
0.0
 40
0.0
 41
0.0
  0
VERTEX
  5
   83E
  8
0
  6
CONTINUOUS
 10
167.717199872692
 20
296.003042249371
 30
0.0
 40
0.0
 41
0.0
  0
VERTEX
  5
   83F
  8
0
  6
CONTINUOUS
 10
169.077355803484
 20
296.337531725995
 30
0.0
 40
0.0
 41
0.0
  0
VERTEX
  5
   840
  8
0
  6
CONTINUOUS
 10
169.903981817397
 20
296.820405441832
 30
0.0
 40
0.0
 41
0.0
  0
VERTEX
  5
   841
  8
0
  6
CONTINUOUS
 10
170.207888190846
 20
297.177596108265
 30
0.0
 40
0.0
 41
0.0
  0
VERTEX
  5
   842
  8
0
  6
CONTINUOUS
 10
170.340108989474
 20
297.635553091761
 30
0.0
 40
0.0
 41
0.0
  0
SEQEND
  5
   843
  8
0
  6
CONTINUOUS
 62
     1
  0
POLYLINE
  5
   844
  8
0
  6
CONTINUOUS
 62
     1
 66
     1
 10
0.0
 20
0.0
 30
0.0
  0
VERTEX
  5
   845
  8
0
  6
CONTINUOUS
 10
170.340108989474
 20
297.635553091768
 30
0.0
 40
0.0
 41
0.0
  0
VERTEX
  5
   846
  8
0
  6
CONTINUOUS
 10
170.213600611386
 20
298.083703323326
 30
0.0
 40
0.0
 41
0.0
  0
VERTEX
  5
   847
  8
0
  6
CONTINUOUS
 10
169.717963800681
 20
298.596220907754
 30
0.0
 40
0.0
 41
0.0
  0
VERTEX
  5
   848
  8
0
  6
CONTINUOUS
 10
168.658579982299
 20
299.078542085442
 30
0.0
 40
0.0
 41
0.0
  0
VERTEX
  5
   849
  8
0
  6
CONTINUOUS
 10
167.51173050128
 20
299.289237103914
 30
0.0
 40
0.0
 41
0.0
  0
VERTEX
  5
   84A
  8
0
  6
CONTINUOUS
 10
166.103019291201
 20
299.268063934158
 30
0.0
 40
0.0
 41
0.0
  0
VERTEX
  5
   84B
  8
0
  6
CONTINUOUS
 10
164.74286336041
 20
298.933574457534
 30
0.0
 40
0.0
 41
0.0
  0
VERTEX
  5
   84C
  8
0
  6
CONTINUOUS
 10
163.916237346495
 20
298.450700741697
 30
0.0
 40
0.0
 41
0.0
  0
VERTEX
  5
   84D
  8
0
  6
CONTINUOUS
 10
163.612330973046
 20
298.093510075264
 30
0.0
 40
0.0
 41
0.0
  0
VERTEX
  5
   84E
  8
0
  6
CONTINUOUS
 10
163.480110174419
 20
297.635553091768
 30
0.0
 40
0.0
 41
0.0
  0
SEQEND
  5
   84F
  8
0
  6
CONTINUOUS
 62
     1
  0
ARC
  5
   850
  8
0
  6
CONTINUOUS
 62
     1
 10
152.910105972077
 20
297.14555748222
 30
0.0
 40
0.350009341811793
 50
270.000717391241
 51
359.999304504019
  0
ARC
  5
   851
  8
0
  6
CONTINUOUS
 62
     1
 10
138.910124717839
 20
297.145567225338
 30
0.0
 40
0.35001904227436
 50
180.002290382397
 51
269.997687798971
  0
ARC
  5
   852
  8
0
  6
CONTINUOUS
 62
     1
 10
138.910114974953
 20
321.575548301722
 30
0.0
 40
0.350009341811847
 50
90.0007173512567
 51
179.999195183489
  0
ARC
  5
   853
  8
0
  6
CONTINUOUS
 62
     1
 10
152.910096229195
 20
321.575538559072
 30
0.0
 40
0.350019042274275
 50
2.39962314073186E-3
 51
89.9976877653529
  0
LINE
  5
   854
  8
0
  6
CONTINUOUS
 62
     1
 10
172.273899010866
 20
294.695553275347
 30
0.0
 11
172.273899010866
 21
323.675553182363
 31
0.0
  0
LINE
  5
   855
  8
0
  6
CONTINUOUS
 62
     1
 10
119.546321936399
 20
294.695553275347
 30
0.0
 11
119.546321936399
 21
323.675553182363
 31
0.0
  0
LINE
  5
   856
  8
0
  6
CONTINUOUS
 62
     2
 10
123.160110861063
 20
323.815552378893
 30
0.0
 11
123.160110861063
 21
323.88555264473
 31
0.0
  0
LINE
  5
   857
  8
0
  6
CONTINUOUS
 62
     2
 10
126.660110801458
 20
323.815552378893
 30
0.0
 11
126.660110801458
 21
323.88555264473
 31
0.0
  0
LINE
  5
   858
  8
0
  6
CONTINUOUS
 62
     2
 10
168.660110086203
 20
323.815552378893
 30
0.0
 11
168.660110086203
 21
323.88555264473
 31
0.0
  0
LINE
  5
   859
  8
0
  6
CONTINUOUS
 62
     2
 10
165.160110145807
 20
323.815552378893
 30
0.0
 11
165.160110145807
 21
323.88555264473
 31
0.0
  0
LINE
  5
   85A
  8
0
  6
CONTINUOUS
 62
     2
 10
168.660110086203
 20
294.485553145409
 30
0.0
 11
168.660110086203
 21
294.555553411245
 31
0.0
  0
LINE
  5
   85B
  8
0
  6
CONTINUOUS
 62
     2
 10
165.160110145807
 20
294.485553145409
 30
0.0
 11
165.160110145807
 21
294.555553411245
 31
0.0
  0
LINE
  5
   85C
  8
0
  6
CONTINUOUS
 62
     2
 10
123.160110861063
 20
294.485553145409
 30
0.0
 11
123.160110861063
 21
294.555553411245
 31
0.0
  0
LINE
  5
   85D
  8
0
  6
CONTINUOUS
 62
     2
 10
126.660110801458
 20
294.485553145409
 30
0.0
 11
126.660110801458
 21
294.555553411245
 31
0.0
  0
POLYLINE
  5
   85E
  8
0
  6
CONTINUOUS
 62
     1
 66
     1
 10
0.0
 20
0.0
 30
0.0
  0
VERTEX
  5
   85F
  8
0
  6
CONTINUOUS
 10
172.439574362048
 20
294.555553144219
 30
0.0
 40
0.0
 41
0.0
  0
VERTEX
  5
   860
  8
0
  6
CONTINUOUS
 10
172.580110019445
 20
294.695553275348
 30
0.0
 40
0.0
 41
0.0
  0
SEQEND
  5
   861
  8
0
  6
CONTINUOUS
 62
     1
  0
POLYLINE
  5
   862
  8
0
  6
CONTINUOUS
 62
     1
 66
     1
 10
0.0
 20
0.0
 30
0.0
  0
VERTEX
  5
   863
  8
0
  6
CONTINUOUS
 10
172.580110019444
 20
323.675553182368
 30
0.0
 40
0.0
 41
0.0
  0
VERTEX
  5
   864
  8
0
  6
CONTINUOUS
 10
172.439574362047
 20
323.815552645919
 30
0.0
 40
0.0
 41
0.0
  0
SEQEND
  5
   865
  8
0
  6
CONTINUOUS
 62
     1
  0
POLYLINE
  5
   866
  8
0
  6
CONTINUOUS
 62
     1
 66
     1
 10
0.0
 20
0.0
 30
0.0
  0
VERTEX
  5
   867
  8
0
  6
CONTINUOUS
 10
119.380646585218
 20
323.815552645919
 30
0.0
 40
0.0
 41
0.0
  0
VERTEX
  5
   868
  8
0
  6
CONTINUOUS
 10
119.240110927821
 20
323.675553182367
 30
0.0
 40
0.0
 41
0.0
  0
SEQEND
  5
   869
  8
0
  6
CONTINUOUS
 62
     1
  0
POLYLINE
  5
   86A
  8
0
  6
CONTINUOUS
 62
     1
 66
     1
 10
0.0
 20
0.0
 30
0.0
  0
VERTEX
  5
   86B
  8
0
  6
CONTINUOUS
 10
119.24011092782
 20
294.695553275347
 30
0.0
 40
0.0
 41
0.0
  0
VERTEX
  5
   86C
  8
0
  6
CONTINUOUS
 10
119.38064658522
 20
294.555553144219
 30
0.0
 40
0.0
 41
0.0
  0
SEQEND
  5
   86D
  8
0
  6
CONTINUOUS
 62
     1
  0
LINE
  5
   86E
  8
0
  6
CONTINUOUS
 62
     1
 10
138.910110592842
 20
296.795553106069
 30
0.0
 11
152.910110354424
 21
296.795553106069
 31
0.0
  0
LINE
  5
   86F
  8
0
  6
CONTINUOUS
 62
     1
 10
153.260110348463
 20
297.145553233624
 30
0.0
 11
153.260110348463
 21
321.575553218126
 31
0.0
  0
LINE
  5
   870
  8
0
  6
CONTINUOUS
 62
     1
 10
138.560110598803
 20
297.145553233624
 30
0.0
 11
138.560110598803
 21
321.575553218126
 31
0.0
  0
LINE
  5
   871
  8
0
  6
CONTINUOUS
 62
     2
 10
172.580110019445
 20
294.695553275347
 30
0.0
 11
172.580110019445
 21
323.675553182363
 31
0.0
  0
LINE
  5
   872
  8
0
  6
CONTINUOUS
 62
     2
 10
119.24011092782
 20
294.695553275347
 30
0.0
 11
119.24011092782
 21
323.675553182363
 31
0.0
  0
LINE
  5
   873
  8
0
  6
CONTINUOUS
 62
     1
 10
170.354482615941
 20
294.555553144216
 30
0.0
 11
172.302145317758
 21
294.555553144216
 31
0.0
  0
LINE
  5
   874
  8
0
  6
CONTINUOUS
 62
     1
 10
119.518075629507
 20
294.555553144216
 30
0.0
 11
121.470616947574
 21
294.555553144216
 31
0.0
  0
LINE
  5
   875
  8
0
  6
CONTINUOUS
 62
     1
 10
172.302145317758
 20
294.555553144216
 30
0.0
 11
172.439574362049
 21
294.555553144216
 31
0.0
  0
LINE
  5
   876
  8
0
  6
CONTINUOUS
 62
     1
 10
121.470616947574
 20
294.555553144216
 30
0.0
 11
170.354482615941
 21
294.555553144216
 31
0.0
  0
LINE
  5
   877
  8
0
  6
CONTINUOUS
 62
     1
 10
119.380646585217
 20
294.555553144216
 30
0.0
 11
119.518075629507
 21
294.555553144216
 31
0.0
  0
LINE
  5
   878
  8
0
  6
CONTINUOUS
 62
     2
 10
165.160110145807
 20
299.151097432791
 30
0.0
 11
165.787359471368
 21
299.274119605532
 31
0.0
  0
POLYLINE
  5
   879
  8
0
  6
CONTINUOUS
 62
     1
 66
     1
 10
0.0
 20
0.0
 30
0.0
  0
VERTEX
  5
   87A
  8
0
  6
CONTINUOUS
 10
170.182338047911
 20
297.014562517499
 30
0.0
 40
0.0
 41
0.0
  0
VERTEX
  5
   87B
  8
0
  6
CONTINUOUS
 10
170.397694268369
 20
297.48814511944
 30
0.0
 40
0.0
 41
0.0
  0
VERTEX
  5
   87C
  8
0
  6
CONTINUOUS
 10
170.410108988282
 20
297.635553091762
 30
0.0
 40
0.0
 41
0.0
  0
SEQEND
  5
   87D
  8
0
  6
CONTINUOUS
 62
     1
  0
POLYLINE
  5
   87E
  8
0
  6
CONTINUOUS
 62
     1
 66
     1
 10
0.0
 20
0.0
 30
0.0
  0
VERTEX
  5
   87F
  8
0
  6
CONTINUOUS
 10
170.410108988282
 20
297.635553091767
 30
0.0
 40
0.0
 41
0.0
  0
VERTEX
  5
   880
  8
0
  6
CONTINUOUS
 10
170.274698572391
 20
298.117650632205
 30
0.0
 40
0.0
 41
0.0
  0
VERTEX
  5
   881
  8
0
  6
CONTINUOUS
 10
170.182338047911
 20
298.25654366603
 30
0.0
 40
0.0
 41
0.0
  0
SEQEND
  5
   882
  8
0
  6
CONTINUOUS
 62
     1
  0
POLYLINE
  5
   883
  8
0
  6
CONTINUOUS
 62
     1
 66
     1
 10
0.0
 20
0.0
 30
0.0
  0
VERTEX
  5
   884
  8
0
  6
CONTINUOUS
 10
165.160122749809
 20
299.15105376791
 30
0.0
 40
0.0
 41
0.0
  0
VERTEX
  5
   885
  8
0
  6
CONTINUOUS
 10
164.22877280573
 20
298.760375364299
 30
0.0
 40
0.0
 41
0.0
  0
VERTEX
  5
   886
  8
0
  6
CONTINUOUS
 10
163.621329830101
 20
298.234050815228
 30
0.0
 40
0.0
 41
0.0
  0
VERTEX
  5
   887
  8
0
  6
CONTINUOUS
 10
163.410110175611
 20
297.635553091767
 30
0.0
 40
0.0
 41
0.0
  0
SEQEND
  5
   888
  8
0
  6
CONTINUOUS
 62
     1
  0
POLYLINE
  5
   889
  8
0
  6
CONTINUOUS
 62
     1
 66
     1
 10
0.0
 20
0.0
 30
0.0
  0
VERTEX
  5
   88A
  8
0
  6
CONTINUOUS
 10
170.179227682412
 20
298.26043891344
 30
0.0
 40
0.0
 41
0.0
  0
VERTEX
  5
   88B
  8
0
  6
CONTINUOUS
 10
169.761810351973
 20
298.650242256937
 30
0.0
 40
0.0
 41
0.0
  0
VERTEX
  5
   88C
  8
0
  6
CONTINUOUS
 10
169.161893532371
 20
298.975266538503
 30
0.0
 40
0.0
 41
0.0
  0
VERTEX
  5
   88D
  8
0
  6
CONTINUOUS
 10
167.578387193854
 20
299.353341926924
 30
0.0
 40
0.0
 41
0.0
  0
VERTEX
  5
   88E
  8
0
  6
CONTINUOUS
 10
165.8274843535
 20
299.299694850188
 30
0.0
 40
0.0
 41
0.0
  0
SEQEND
  5
   88F
  8
0
  6
CONTINUOUS
 62
     1
  0
POLYLINE
  5
   890
  8
0
  6
CONTINUOUS
 62
     1
 66
     1
 10
0.0
 20
0.0
 30
0.0
  0
VERTEX
  5
   891
  8
0
  6
CONTINUOUS
 10
163.649047629467
 20
297.000216259968
 30
0.0
 40
0.0
 41
0.0
  0
VERTEX
  5
   892
  8
0
  6
CONTINUOUS
 10
164.403082939967
 20
296.414380336128
 30
0.0
 40
0.0
 41
0.0
  0
VERTEX
  5
   893
  8
0
  6
CONTINUOUS
 10
165.554917958478
 20
296.022103107822
 30
0.0
 40
0.0
 41
0.0
  0
VERTEX
  5
   894
  8
0
  6
CONTINUOUS
 10
166.920985077361
 20
295.885561737158
 30
0.0
 40
0.0
 41
0.0
  0
VERTEX
  5
   895
  8
0
  6
CONTINUOUS
 10
168.285336177281
 20
296.026347265675
 30
0.0
 40
0.0
 41
0.0
  0
VERTEX
  5
   896
  8
0
  6
CONTINUOUS
 10
169.432276232968
 20
296.422197003988
 30
0.0
 40
0.0
 41
0.0
  0
VERTEX
  5
   897
  8
0
  6
CONTINUOUS
 10
170.178996918971
 20
297.01036510875
 30
0.0
 40
0.0
 41
0.0
  0
SEQEND
  5
   898
  8
0
  6
CONTINUOUS
 62
     1
  0
POLYLINE
  5
   899
  8
0
  6
CONTINUOUS
 62
     1
 66
     1
 10
0.0
 20
0.0
 30
0.0
  0
VERTEX
  5
   89A
  8
0
  6
CONTINUOUS
 10
163.410110175611
 20
297.635553091762
 30
0.0
 40
0.0
 41
0.0
  0
VERTEX
  5
   89B
  8
0
  6
CONTINUOUS
 10
163.543752551955
 20
297.157115397559
 30
0.0
 40
0.0
 41
0.0
  0
SEQEND
  5
   89C
  8
0
  6
CONTINUOUS
 62
     1
  0
POLYLINE
  5
   89D
  8
0
  6
CONTINUOUS
 62
     1
 66
     1
 10
0.0
 20
0.0
 30
0.0
  0
VERTEX
  5
   89E
  8
0
  6
CONTINUOUS
 10
165.784225753527
 20
299.292541897875
 30
0.0
 40
0.0
 41
0.0
  0
VERTEX
  5
   89F
  8
0
  6
CONTINUOUS
 10
167.460759886418
 20
299.363775084175
 30
0.0
 40
0.0
 41
0.0
  0
VERTEX
  5
   8A0
  8
0
  6
CONTINUOUS
 10
168.016667755381
 20
299.295797774282
 30
0.0
 40
0.0
 41
0.0
  0
SEQEND
  5
   8A1
  8
0
  6
CONTINUOUS
 62
     1
  0
LINE
  5
   8A2
  8
0
  6
CONTINUOUS
 62
     1
 10
119.518075629507
 20
323.815552645922
 30
0.0
 11
121.465738331324
 21
323.815552645922
 31
0.0
  0
LINE
  5
   8A3
  8
0
  6
CONTINUOUS
 62
     1
 10
170.349603999691
 20
323.815552645922
 30
0.0
 11
172.302145317758
 21
323.815552645922
 31
0.0
  0
LINE
  5
   8A4
  8
0
  6
CONTINUOUS
 62
     1
 10
119.380646585217
 20
323.815552645922
 30
0.0
 11
119.518075629507
 21
323.815552645922
 31
0.0
  0
LINE
  5
   8A5
  8
0
  6
CONTINUOUS
 62
     1
 10
121.465738331324
 20
323.815552645922
 30
0.0
 11
170.349603999691
 21
323.815552645922
 31
0.0
  0
LINE
  5
   8A6
  8
0
  6
CONTINUOUS
 62
     1
 10
172.302145317758
 20
323.815552645922
 30
0.0
 11
172.439574362049
 21
323.815552645922
 31
0.0
  0
LINE
  5
   8A7
  8
0
  6
CONTINUOUS
 62
   212
 10
138.910110592842
 20
322.688939162605
 30
0.0
 11
138.969951080257
 21
322.922916476431
 31
0.0
  0
POLYLINE
  5
   8A8
  8
0
  6
CONTINUOUS
 62
   212
 66
     1
 10
0.0
 20
0.0
 30
0.0
  0
VERTEX
  5
   8A9
  8
0
  6
CONTINUOUS
 10
139.610110580921
 20
316.947783363025
 30
0.0
 40
0.0
 41
0.0
  0
VERTEX
  5
   8AA
  8
0
  6
CONTINUOUS
 10
139.115046208606
 20
317.144647449671
 30
0.0
 40
0.0
 41
0.0
  0
VERTEX
  5
   8AB
  8
0
  6
CONTINUOUS
 10
138.910110592842
 20
317.619596619601
 30
0.0
 40
0.0
 41
0.0
  0
SEQEND
  5
   8AC
  8
0
  6
CONTINUOUS
 62
   212
  0
LINE
  5
   8AD
  8
0
  6
CONTINUOUS
 62
   212
 10
152.850269867009
 20
322.922916476431
 30
0.0
 11
152.910110354424
 21
322.688939162605
 31
0.0
  0
POLYLINE
  5
   8AE
  8
0
  6
CONTINUOUS
 62
   212
 66
     1
 10
0.0
 20
0.0
 30
0.0
  0
VERTEX
  5
   8AF
  8
0
  6
CONTINUOUS
 10
152.210110366344
 20
316.947783363025
 30
0.0
 40
0.0
 41
0.0
  0
VERTEX
  5
   8B0
  8
0
  6
CONTINUOUS
 10
152.705174737128
 20
317.144647455414
 30
0.0
 40
0.0
 41
0.0
  0
VERTEX
  5
   8B1
  8
0
  6
CONTINUOUS
 10
152.910110354424
 20
317.619596623784
 30
0.0
 40
0.0
 41
0.0
  0
SEQEND
  5
   8B2
  8
0
  6
CONTINUOUS
 62
   212
  0
LINE
  5
   8B3
  8
0
  6
CONTINUOUS
 62
   212
 10
139.610110580921
 20
319.235466321027
 30
0.0
 11
152.210110366344
 21
319.235466321027
 31
0.0
  0
ARC
  5
   8B4
  8
0
  6
CONTINUOUS
 62
   212
 10
139.605466786231
 20
322.684218092269
 30
0.0
 40
0.695754403815746
 50
89.6177778246113
 51
148.670753481332
  0
ARC
  5
   8B5
  8
0
  6
CONTINUOUS
 62
   212
 10
152.214734897385
 20
322.684198621628
 30
0.0
 40
0.695773687862829
 50
31.3298293180097
 51
90.3806260205024
  0
LINE
  5
   8B6
  8
0
  6
CONTINUOUS
 62
   212
 10
139.610110580921
 20
314.561109081753
 30
0.0
 11
152.210110366344
 21
314.561109081753
 31
0.0
  0
LINE
  5
   8B7
  8
0
  6
CONTINUOUS
 62
   212
 10
139.610110580921
 20
323.38032120394
 30
0.0
 11
152.210110366344
 21
323.38032120394
 31
0.0
  0
LINE
  5
   8B8
  8
0
  6
CONTINUOUS
 62
   212
 10
139.610110580921
 20
316.947783363025
 30
0.0
 11
152.210110366344
 21
316.947783363025
 31
0.0
  0
LINE
  5
   8B9
  8
0
  6
CONTINUOUS
 62
   212
 10
138.910110592842
 20
314.866238223132
 30
0.0
 11
138.910110592842
 21
315.8286580981
 31
0.0
  0
LINE
  5
   8BA
  8
0
  6
CONTINUOUS
 62
   212
 10
138.910110592842
 20
315.8286580981
 30
0.0
 11
138.910110592842
 21
317.619596254246
 31
0.0
  0
LINE
  5
   8BB
  8
0
  6
CONTINUOUS
 62
   212
 10
138.910110592842
 20
317.619596254246
 30
0.0
 11
138.910110592842
 21
319.688499379108
 31
0.0
  0
LINE
  5
   8BC
  8
0
  6
CONTINUOUS
 62
   212
 10
138.910110592842
 20
319.688499379108
 30
0.0
 11
138.910110592842
 21
322.688939162605
 31
0.0
  0
LINE
  5
   8BD
  8
0
  6
CONTINUOUS
 62
   212
 10
152.910110354424
 20
314.866431819015
 30
0.0
 11
152.910110354424
 21
315.8286580981
 31
0.0
  0
LINE
  5
   8BE
  8
0
  6
CONTINUOUS
 62
   212
 10
152.910110354424
 20
317.619596254246
 30
0.0
 11
152.910110354424
 21
319.688499379108
 31
0.0
  0
LINE
  5
   8BF
  8
0
  6
CONTINUOUS
 62
   212
 10
152.910110354424
 20
315.8286580981
 30
0.0
 11
152.910110354424
 21
317.619596254246
 31
0.0
  0
LINE
  5
   8C0
  8
0
  6
CONTINUOUS
 62
   212
 10
152.910110354424
 20
319.688499379108
 30
0.0
 11
152.910110354424
 21
322.688939162605
 31
0.0
  0
LINE
  5
   8C1
  8
0
  6
DASHDOT
 62
     7
 10
144.986110237386
 20
255.635551602694
 30
0.0
 11
146.849510210701
 21
255.635551602694
 31
0.0
  0
LINE
  5
   8C2
  8
0
  6
DASHDOT
 62
     7
 10
145.910110223945
 20
254.711551616135
 30
0.0
 11
145.910110223945
 21
256.559551589253
 31
0.0
  0
LINE
  5
   8C3
  8
0
  6
DASHDOT
 62
     7
 10
122.180110870973
 20
261.760551679609
 30
0.0
 11
127.685610792131
 21
261.760551679609
 31
0.0
  0
LINE
  5
   8C4
  8
0
  6
DASHDOT
 62
     7
 10
124.910110831262
 20
259.030551719321
 30
0.0
 11
124.910110831262
 21
264.490551639898
 31
0.0
  0
LINE
  5
   8C5
  8
0
  6
DASHDOT
 62
     7
 10
143.180110513345
 20
261.760551679609
 30
0.0
 11
148.685610434503
 21
261.760551679609
 31
0.0
  0
LINE
  5
   8C6
  8
0
  6
DASHDOT
 62
     7
 10
145.910110473634
 20
259.030551719321
 30
0.0
 11
145.910110473634
 21
264.490551639898
 31
0.0
  0
LINE
  5
   8C7
  8
0
  6
DASHDOT
 62
     7
 10
164.180110155718
 20
261.760551679609
 30
0.0
 11
169.685610076876
 21
261.760551679609
 31
0.0
  0
LINE
  5
   8C8
  8
0
  6
DASHDOT
 62
     7
 10
166.910110116006
 20
259.030551719321
 30
0.0
 11
166.910110116006
 21
264.490551639898
 31
0.0
  0
LINE
  5
   8C9
  8
0
  6
DASHDOT
 62
     7
 10
144.986110237385
 20
370.435550010115
 30
0.0
 11
146.8495102107
 21
370.435550010115
 31
0.0
  0
LINE
  5
   8CA
  8
0
  6
DASHDOT
 62
     7
 10
145.910110223944
 20
369.511550023556
 30
0.0
 11
145.910110223944
 21
371.359549996674
 31
0.0
  0
LINE
  5
   8CB
  8
0
  6
DASHDOT
 62
     7
 10
122.180110870973
 20
364.3105499332
 30
0.0
 11
127.685610792131
 21
364.3105499332
 31
0.0
  0
LINE
  5
   8CC
  8
0
  6
DASHDOT
 62
     7
 10
124.910110831262
 20
361.580549972911
 30
0.0
 11
124.910110831262
 21
367.040549893488
 31
0.0
  0
LINE
  5
   8CD
  8
0
  6
DASHDOT
 62
     7
 10
143.180110513345
 20
364.3105499332
 30
0.0
 11
148.685610434503
 21
364.3105499332
 31
0.0
  0
LINE
  5
   8CE
  8
0
  6
DASHDOT
 62
     7
 10
145.910110473634
 20
361.580549972911
 30
0.0
 11
145.910110473634
 21
367.040549893488
 31
0.0
  0
LINE
  5
   8CF
  8
0
  6
DASHDOT
 62
     7
 10
122.180099774798
 20
290.985549410417
 30
0.0
 11
127.685599695956
 21
290.985549410417
 31
0.0
  0
LINE
  5
   8D0
  8
0
  6
DASHDOT
 62
     7
 10
124.910099735086
 20
288.255549450129
 30
0.0
 11
124.910099735086
 21
293.715549370706
 31
0.0
  0
LINE
  5
   8D1
  8
0
  6
DASHDOT
 62
     7
 10
86.3773113662489
 20
313.035551463441
 30
0.0
 11
184.174718979444
 21
313.035551463441
 31
0.0
  0
CIRCLE
  5
   8D2
  8
0
  6
CONTINUOUS
 62
   252
 10
103.91011118889
 20
261.760551679609
 30
0.0
 40
2.27499996125702
  0
LINE
  5
   8D3
  8
0
  6
DASHDOT
 62
     7
 10
101.180111228601
 20
261.760551679609
 30
0.0
 11
106.685611149759
 21
261.760551679609
 31
0.0
  0
LINE
  5
   8D4
  8
0
  6
DASHDOT
 62
     7
 10
103.91011118889
 20
259.030551719321
 30
0.0
 11
103.91011118889
 21
264.490551639898
 31
0.0
  0
LINE
  5
   8D5
  8
0
  6
CONTINUOUS
 62
   252
 10
112.310119636423
 20
254.235548490286
 30
0.0
 11
112.310119636423
 21
254.935548478365
 31
0.0
  0
LINE
  5
   8D6
  8
0
  6
CONTINUOUS
 62
   252
 10
112.310099949663
 20
253.535548502207
 30
0.0
 11
112.310099949663
 21
254.235548490286
 31
0.0
  0
LINE
  5
   8D7
  8
0
  6
CONTINUOUS
 62
   252
 10
112.310099949663
 20
254.935548478365
 30
0.0
 11
112.310099949663
 21
256.335548454523
 31
0.0
  0
LINE
  5
   8D8
  8
0
  6
CONTINUOUS
 62
   252
 10
112.310100364685
 20
256.335549874703
 30
0.0
 11
116.510099625588
 21
256.335549874703
 31
0.0
  0
LINE
  5
   8D9
  8
0
  6
CONTINUOUS
 62
   252
 10
116.510099878137
 20
254.935548478365
 30
0.0
 11
116.510099878137
 21
256.335548454523
 31
0.0
  0
LINE
  5
   8DA
  8
0
  6
CONTINUOUS
 62
   252
 10
116.510119564898
 20
254.235548490286
 30
0.0
 11
116.510119564898
 21
254.935548478365
 31
0.0
  0
LINE
  5
   8DB
  8
0
  6
CONTINUOUS
 62
   252
 10
116.510099878137
 20
253.535548502207
 30
0.0
 11
116.510099878137
 21
254.235548490286
 31
0.0
  0
LINE
  5
   8DC
  8
0
  6
CONTINUOUS
 62
   252
 10
115.460099643469
 20
253.535549922387
 30
0.0
 11
116.510099625588
 21
253.535549922387
 31
0.0
  0
LINE
  5
   8DD
  8
0
  6
CONTINUOUS
 62
   252
 10
115.460119582779
 20
253.535548502207
 30
0.0
 11
115.460119582779
 21
254.935548478365
 31
0.0
  0
LINE
  5
   8DE
  8
0
  6
CONTINUOUS
 62
   252
 10
115.460099643469
 20
254.935549898545
 30
0.0
 11
116.510099625588
 21
254.935549898545
 31
0.0
  0
LINE
  5
   8DF
  8
0
  6
CONTINUOUS
 62
   252
 10
112.310100364685
 20
254.935549898545
 30
0.0
 11
113.360100346804
 21
254.935549898545
 31
0.0
  0
LINE
  5
   8E0
  8
0
  6
CONTINUOUS
 62
   252
 10
113.360119618542
 20
253.535548502207
 30
0.0
 11
113.360119618542
 21
254.935548478365
 31
0.0
  0
LINE
  5
   8E1
  8
0
  6
CONTINUOUS
 62
   252
 10
112.310100364685
 20
253.535549922387
 30
0.0
 11
113.360100346804
 21
253.535549922387
 31
0.0
  0
LINE
  5
   8E2
  8
0
  6
CONTINUOUS
 62
   252
 10
116.510099625588
 20
253.535549922387
 30
0.0
 11
133.310119366646
 21
253.535549922387
 31
0.0
  0
CIRCLE
  5
   8E3
  8
0
  6
CONTINUOUS
 62
   252
 10
103.91011118889
 20
364.3105499332
 30
0.0
 40
2.27499996125693
  0
LINE
  5
   8E4
  8
0
  6
DASHDOT
 62
     7
 10
101.180111228601
 20
364.3105499332
 30
0.0
 11
106.685611149759
 21
364.3105499332
 31
0.0
  0
LINE
  5
   8E5
  8
0
  6
DASHDOT
 62
     7
 10
103.91011118889
 20
361.580549972911
 30
0.0
 11
103.91011118889
 21
367.040549893488
 31
0.0
  0
LINE
  5
   8E6
  8
0
  6
CONTINUOUS
 62
   252
 10
112.310111045837
 20
372.535551690422
 30
0.0
 11
113.360111027956
 21
372.535551690422
 31
0.0
  0
LINE
  5
   8E7
  8
0
  6
CONTINUOUS
 62
   252
 10
113.360111027957
 20
371.135551840067
 30
0.0
 11
113.360111027957
 21
372.535551816225
 31
0.0
  0
LINE
  5
   8E8
  8
0
  6
CONTINUOUS
 62
   252
 10
112.310111045837
 20
371.135551714264
 30
0.0
 11
113.360111027956
 21
371.135551714264
 31
0.0
  0
LINE
  5
   8E9
  8
0
  6
CONTINUOUS
 62
   252
 10
112.310111045839
 20
371.135551840067
 30
0.0
 11
112.310111045839
 21
371.835551828146
 31
0.0
  0
LINE
  5
   8EA
  8
0
  6
CONTINUOUS
 62
   252
 10
112.310111045839
 20
371.835551828146
 30
0.0
 11
112.310111045839
 21
372.535551816225
 31
0.0
  0
LINE
  5
   8EB
  8
0
  6
CONTINUOUS
 62
   252
 10
112.310111045839
 20
369.735551863909
 30
0.0
 11
112.310111045839
 21
371.135551840067
 31
0.0
  0
LINE
  5
   8EC
  8
0
  6
CONTINUOUS
 62
   252
 10
112.310111045837
 20
369.735551738106
 30
0.0
 11
116.510110974312
 21
369.735551738106
 31
0.0
  0
LINE
  5
   8ED
  8
0
  6
CONTINUOUS
 62
   252
 10
116.510110974313
 20
369.735551863909
 30
0.0
 11
116.510110974313
 21
371.135551840067
 31
0.0
  0
LINE
  5
   8EE
  8
0
  6
CONTINUOUS
 62
   252
 10
116.510110974313
 20
371.135551840067
 30
0.0
 11
116.510110974313
 21
371.835551828146
 31
0.0
  0
LINE
  5
   8EF
  8
0
  6
CONTINUOUS
 62
   252
 10
116.510110974313
 20
371.835551828146
 30
0.0
 11
116.510110974313
 21
372.535551816225
 31
0.0
  0
LINE
  5
   8F0
  8
0
  6
CONTINUOUS
 62
   252
 10
115.460110992195
 20
371.135551840067
 30
0.0
 11
115.460110992195
 21
372.535551816225
 31
0.0
  0
LINE
  5
   8F1
  8
0
  6
CONTINUOUS
 62
   252
 10
115.460110992193
 20
372.535551690422
 30
0.0
 11
116.510110974312
 21
372.535551690422
 31
0.0
  0
LINE
  5
   8F2
  8
0
  6
CONTINUOUS
 62
   252
 10
115.460110992193
 20
371.135551714264
 30
0.0
 11
116.510110974312
 21
371.135551714264
 31
0.0
  0
LINE
  5
   8F3
  8
0
  6
CONTINUOUS
 62
   252
 10
116.510110974312
 20
372.535551690422
 30
0.0
 11
133.31011068821
 21
372.535551690422
 31
0.0
  0
INSERT
  5
   8F4
  8
0
  6
CONTINUOUS
 62
     7
  2
*UDIM1880
 10
0.0
 20
0.0
 30
0.0
  0
INSERT
  5
   8F5
  8
0
  6
CONTINUOUS
 62
     7
  2
*UDIM1881
 10
0.0
 20
0.0
 30
0.0
  0
INSERT
  5
   8F6
  8
0
  6
CONTINUOUS
 62
     7
  2
*UDIM1882
 10
0.0
 20
0.0
 30
0.0
  0
INSERT
  5
   8F7
  8
0
  6
CONTINUOUS
 62
     7
  2
*UDIM1883
 10
0.0
 20
0.0
 30
0.0
  0
INSERT
  5
   8F8
  8
0
  6
CONTINUOUS
 62
     7
  2
*UDIM1884
 10
0.0
 20
0.0
 30
0.0
  0
INSERT
  5
   8F9
  8
0
  6
CONTINUOUS
 62
     7
  2
*HATCH1628
 10
0.0
 20
0.0
 30
0.0
  0
INSERT
  5
   8FA
  8
0
  6
CONTINUOUS
 62
     7
  2
*HATCH1629
 10
0.0
 20
0.0
 30
0.0
  0
INSERT
  5
   8FB
  8
0
  6
CONTINUOUS
 62
     7
  2
*HATCH1630
 10
0.0
 20
0.0
 30
0.0
  0
INSERT
  5
   8FC
  8
0
  6
CONTINUOUS
 62
     7
  2
*HATCH1631
 10
0.0
 20
0.0
 30
0.0
  0
INSERT
  5
   8FD
  8
0
  6
CONTINUOUS
 62
     7
  2
*UDIM1885
 10
0.0
 20
0.0
 30
0.0
  0
INSERT
  5
   8FE
  8
0
  6
CONTINUOUS
 62
     7
  2
*UDIM1886
 10
0.0
 20
0.0
 30
0.0
  0
LINE
  5
   8FF
  8
0
  6
CONTINUOUS
 62
   252
 10
157.46011027694
 20
371.135551714264
 30
0.0
 11
158.510110259059
 21
371.135551714264
 31
0.0
  0
LINE
  5
   900
  8
0
  6
CONTINUOUS
 62
   252
 10
157.460110276939
 20
371.135551840067
 30
0.0
 11
157.460110276939
 21
372.535551816225
 31
0.0
  0
LINE
  5
   901
  8
0
  6
CONTINUOUS
 62
   252
 10
157.460110276939
 20
371.135551840067
 30
0.0
 11
157.460110276939
 21
372.535551816225
 31
0.0
  0
LINE
  5
   902
  8
0
  6
CONTINUOUS
 62
   252
 10
157.460110276939
 20
371.135551840067
 30
0.0
 11
157.460110276939
 21
372.535551816225
 31
0.0
  0
LINE
  5
   903
  8
0
  6
CONTINUOUS
 62
   252
 10
154.310110330584
 20
371.135551714264
 30
0.0
 11
155.360110312703
 21
371.135551714264
 31
0.0
  0
LINE
  5
   904
  8
0
  6
CONTINUOUS
 62
   252
 10
155.360110312701
 20
371.135551840067
 30
0.0
 11
155.360110312701
 21
372.535551816225
 31
0.0
  0
LINE
  5
   905
  8
0
  6
CONTINUOUS
 62
   252
 10
154.310110330583
 20
371.835551828146
 30
0.0
 11
154.310110330583
 21
372.535551816225
 31
0.0
  0
LINE
  5
   906
  8
0
  6
CONTINUOUS
 62
   252
 10
154.310110330583
 20
371.135551840067
 30
0.0
 11
154.310110330583
 21
371.835551828146
 31
0.0
  0
LINE
  5
   907
  8
0
  6
CONTINUOUS
 62
   252
 10
154.310110330583
 20
369.735551863909
 30
0.0
 11
154.310110330583
 21
371.135551840067
 31
0.0
  0
LINE
  5
   908
  8
0
  6
CONTINUOUS
 62
   252
 10
154.310110330584
 20
369.735551738106
 30
0.0
 11
158.510110259059
 21
369.735551738106
 31
0.0
  0
LINE
  5
   909
  8
0
  6
CONTINUOUS
 62
   252
 10
158.510110259057
 20
369.735551863909
 30
0.0
 11
158.510110259057
 21
371.135551840067
 31
0.0
  0
LINE
  5
   90A
  8
0
  6
CONTINUOUS
 62
   252
 10
158.510110259057
 20
371.835551828146
 30
0.0
 11
158.510110259057
 21
372.535551816225
 31
0.0
  0
LINE
  5
   90B
  8
0
  6
CONTINUOUS
 62
   252
 10
158.510110259057
 20
371.135551840067
 30
0.0
 11
158.510110259057
 21
371.835551828146
 31
0.0
  0
LINE
  5
   90C
  8
0
  6
CONTINUOUS
 62
   252
 10
157.46011027694
 20
371.135551714264
 30
0.0
 11
158.510110259059
 21
371.135551714264
 31
0.0
  0
LINE
  5
   90D
  8
0
  6
CONTINUOUS
 62
   252
 10
157.460110276939
 20
371.135551840067
 30
0.0
 11
157.460110276939
 21
372.535551816225
 31
0.0
  0
LINE
  5
   90E
  8
0
  6
CONTINUOUS
 62
   252
 10
157.46011027694
 20
372.535551690422
 30
0.0
 11
158.510110259059
 21
372.535551690422
 31
0.0
  0
LINE
  5
   90F
  8
0
  6
CONTINUOUS
 62
   252
 10
154.310110330584
 20
372.535551690422
 30
0.0
 11
155.360110312703
 21
372.535551690422
 31
0.0
  0
LINE
  5
   910
  8
0
  6
CONTINUOUS
 62
   252
 10
158.510110259059
 20
372.535549989197
 30
0.0
 11
175.660109966996
 21
372.535549748495
 31
0.0
  0
LINE
  5
   911
  8
0
  6
CONTINUOUS
 62
   252
 10
176.920109945536
 20
360.495548816919
 30
0.0
 11
176.920109945536
 21
360.98555201292
 31
0.0
  0
LINE
  5
   912
  8
0
  6
CONTINUOUS
 62
   252
 10
111.582636512449
 20
360.495549998164
 30
0.0
 11
177.410109937194
 21
360.495549998164
 31
0.0
  0
LINE
  5
   913
  8
0
  6
CONTINUOUS
 62
   252
 10
175.310109972956
 20
371.135549816966
 30
0.0
 11
175.660109966996
 21
371.135549816966
 31
0.0
  0
LINE
  5
   914
  8
0
  6
CONTINUOUS
 62
   252
 10
175.310109972956
 20
369.035549852729
 30
0.0
 11
175.660109966996
 21
369.035549852729
 31
0.0
  0
LINE
  5
   915
  8
0
  6
CONTINUOUS
 62
   252
 10
176.360109955073
 20
360.98555201292
 30
0.0
 11
176.360109955073
 21
369.03555187583
 31
0.0
  0
LINE
  5
   916
  8
0
  6
CONTINUOUS
 62
   252
 10
153.946824045898
 20
360.985549989821
 30
0.0
 11
176.920109411481
 21
360.985549989821
 31
0.0
  0
LINE
  5
   917
  8
0
  6
CONTINUOUS
 62
   252
 10
176.360109955075
 20
368.33554986465
 30
0.0
 11
177.410109937194
 21
368.33554986465
 31
0.0
  0
LINE
  5
   918
  8
0
  6
CONTINUOUS
 62
   252
 10
177.410109937192
 20
360.98555201292
 30
0.0
 11
177.410109937192
 21
368.335551887751
 31
0.0
  0
LINE
  5
   919
  8
0
  6
CONTINUOUS
 62
   252
 10
177.410109937194
 20
359.235546702147
 30
0.0
 11
177.410109937194
 21
360.495548816919
 31
0.0
  0
LINE
  5
   91A
  8
0
  6
CONTINUOUS
 62
   252
 10
175.660109966996
 20
369.03554985273
 30
0.0
 11
176.360109955075
 21
369.03554985273
 31
0.0
  0
LINE
  5
   91B
  8
0
  6
CONTINUOUS
 62
   252
 10
176.360109955073
 20
371.135551840067
 30
0.0
 11
176.360109955073
 21
371.835551828146
 31
0.0
  0
LINE
  5
   91C
  8
0
  6
CONTINUOUS
 62
   252
 10
175.660109966996
 20
371.135549816967
 30
0.0
 11
176.360109955075
 21
371.135549816967
 31
0.0
  0
ARC
  5
   91D
  8
0
  6
CONTINUOUS
 62
   252
 10
175.660109966437
 20
371.835549759859
 30
0.0
 40
0.699999988080052
 50
1.69288481158476E-4
 51
89.9999999542431
  0
LINE
  5
   91E
  8
0
  6
CONTINUOUS
 62
   252
 10
158.510110259059
 20
372.535549989197
 30
0.0
 11
175.660109966996
 21
372.535549748495
 31
0.0
  0
ARC
  5
   91F
  8
0
  6
CONTINUOUS
 62
     3
 10
176.710109948559
 20
359.23554775725
 30
0.0
 40
0.699999988078246
 50
359.999913637937
 51
449.999999954534
  0
LINE
  5
   920
  8
0
  6
CONTINUOUS
 62
     3
 10
175.310109972956
 20
359.935547745885
 30
0.0
 11
176.710109949114
 21
359.935547745885
 31
0.0
  0
LINE
  5
   921
  8
0
  6
DASHDOT
 62
     7
 10
164.134610155137
 20
364.3105499332
 30
0.0
 11
169.640110076295
 21
364.3105499332
 31
0.0
  0
CIRCLE
  5
   922
  8
0
  6
CONTINUOUS
 62
   252
 10
166.910110116006
 20
364.3105499332
 30
0.0
 40
2.27499996125693
  0
LINE
  5
   923
  8
0
  6
DASHDOT
 62
     7
 10
166.910110116006
 20
361.580549972911
 30
0.0
 11
166.910110116006
 21
367.040549893488
 31
0.0
  0
LINE
  5
   924
  8
0
  6
CONTINUOUS
 62
   252
 10
175.310109972955
 20
369.03555187583
 30
0.0
 11
175.310109972955
 21
371.135551840067
 31
0.0
  0
INSERT
  5
   925
  8
0
  6
CONTINUOUS
 62
     7
  2
*UDIM1887
 10
0.0
 20
0.0
 30
0.0
  0
LINE
  5
   926
  8
0
  6
DASHDOT
 62
     7
 10
419.285902155638
 20
388.948657572272
 30
0.0
 11
423.157902223825
 21
388.948657572272
 31
0.0
  0
LINE
  5
   927
  8
0
  6
DASHDOT
 62
     7
 10
421.205902189016
 20
387.028657538893
 30
0.0
 11
421.205902189016
 21
390.868657605651
 31
0.0
  0
LINE
  5
   928
  8
0
  6
DASHDOT
 62
     7
 10
407.285901976824
 20
388.948657572272
 30
0.0
 11
411.157902045012
 21
388.948657572272
 31
0.0
  0
LINE
  5
   929
  8
0
  6
DASHDOT
 62
     7
 10
397.205901831389
 20
387.028657538893
 30
0.0
 11
397.205901831389
 21
390.868657605651
 31
0.0
  0
LINE
  5
   92A
  8
0
  6
DASHDOT
 62
     7
 10
419.285902155638
 20
352.548654717749
 30
0.0
 11
423.157902223825
 21
352.548654717749
 31
0.0
  0
LINE
  5
   92B
  8
0
  6
DASHDOT
 62
     7
 10
421.205902189016
 20
350.62865468437
 30
0.0
 11
421.205902189016
 21
354.468654751128
 31
0.0
  0
LINE
  5
   92C
  8
0
  6
DASHDOT
 62
     7
 10
407.285901976823
 20
352.548654717749
 30
0.0
 11
411.15790204501
 21
352.548654717749
 31
0.0
  0
LINE
  5
   92D
  8
0
  6
DASHDOT
 62
     7
 10
397.205901831387
 20
350.62865468437
 30
0.0
 11
397.205901831387
 21
354.468654751128
 31
0.0
  0
LINE
  5
   92E
  8
0
  6
DASHDOT
 62
     7
 10
421.205902124501
 20
387.940657380812
 30
0.0
 11
421.205902124501
 21
389.956657634772
 31
0.0
  0
CIRCLE
  5
   92F
  8
0
  6
CONTINUOUS
 62
     7
 10
421.205902124501
 20
388.948657507792
 30
0.0
 40
0.900000013411045
  0
CIRCLE
  5
   930
  8
0
  6
CONTINUOUS
 62
     7
 10
397.205901831389
 20
388.948657572272
 30
0.0
 40
0.900000013411045
  0
CIRCLE
  5
   931
  8
0
  6
CONTINUOUS
 62
     7
 10
397.205901831387
 20
352.548654717749
 30
0.0
 40
0.900000013411045
  0
CIRCLE
  5
   932
  8
0
  6
CONTINUOUS
 62
     7
 10
421.205902189016
 20
352.548654717749
 30
0.0
 40
0.900000013411045
  0
LINE
  5
   933
  8
0
  6
DASHDOT
 62
     7
 10
415.205902099609
 20
342.373892545926
 30
0.0
 11
415.205902099609
 21
400.201697986362
 31
0.0
  0
TEXT
  5
   934
  8
0
  6
CONTINUOUS
 62
     7
 10
388.390091423766
 20
371.393166015618
 30
0.0
 40
2.99999994933605
  1
X
 41
0.933333333333333
 72
     1
 11
389.49009140519
 21
372.893165990286
 31
0.0
 73
     2
  0
TEXT
  5
   935
  8
0
  6
CONTINUOUS
 62
     7
 10
428.147659610006
 20
371.471855571352
 30
0.0
 40
2.99999994933605
  1
X
 41
0.933333333333333
 72
     1
 11
429.247659591429
 21
372.97185554602
 31
0.0
 73
     2
  0
LINE
  5
   936
  8
0
  6
DASHDOT
 62
     7
 10
399.335508739135
 20
370.748656520461
 30
0.0
 11
431.726831010197
 21
370.748656520461
 31
0.0
  0
TEXT
  5
   937
  8
0
  6
CONTINUOUS
 62
     7
 10
412.455739710773
 20
343.630331095067
 30
0.0
 40
2.99999994933605
  1
Y
 41
0.933333333333333
 72
     1
 11
413.555739692196
 21
345.130331069735
 31
0.0
 73
     2
  0
TEXT
  5
   938
  8
0
  6
CONTINUOUS
 62
     7
 10
412.550167177653
 20
395.493112066167
 30
0.0
 40
2.99999994933605
  1
Y
 41
0.933333333333333
 72
     1
 11
413.650167159076
 21
396.993112040835
 31
0.0
 73
     2
  0
LINE
  5
   939
  8
0
  6
CONTINUOUS
 62
     7
 10
393.205901771783
 20
392.948657631877
 30
0.0
 11
425.205902248621
 21
392.948657631877
 31
0.0
  0
LINE
  5
   93A
  8
0
  6
CONTINUOUS
 62
     7
 10
393.205901771783
 20
348.548654658144
 30
0.0
 11
425.205902248621
 21
348.548654658144
 31
0.0
  0
LINE
  5
   93B
  8
0
  6
CONTINUOUS
 62
     7
 10
393.205901771783
 20
348.548654658144
 30
0.0
 11
393.205901771783
 21
392.948657631877
 31
0.0
  0
LINE
  5
   93C
  8
0
  6
CONTINUOUS
 62
     7
 10
425.205902248621
 20
348.548654658144
 30
0.0
 11
425.205902248621
 21
392.948657631877
 31
0.0
  0
INSERT
  5
   93D
  8
0
  6
CONTINUOUS
 62
     7
  2
*UDIM1888
 10
0.0
 20
0.0
 30
0.0
  0
INSERT
  5
   93E
  8
0
  6
CONTINUOUS
 62
     7
  2
*UDIM1889
 10
0.0
 20
0.0
 30
0.0
  0
INSERT
  5
   93F
  8
0
  6
CONTINUOUS
 62
     7
  2
*UDIM1890
 10
0.0
 20
0.0
 30
0.0
  0
INSERT
  5
   940
  8
0
  6
CONTINUOUS
 62
     7
  2
*UDIM1891
 10
0.0
 20
0.0
 30
0.0
  0
INSERT
  5
   941
  8
0
  6
CONTINUOUS
 62
     7
  2
*UDIM1892
 10
0.0
 20
0.0
 30
0.0
  0
LINE
  5
   942
  8
0
  6
CONTINUOUS
 62
     3
 10
394.455905914307
 20
312.378677368164
 30
0.0
 11
435.95590515137
 21
312.378677368164
 31
0.0
  0
LINE
  5
   943
  8
0
  6
CONTINUOUS
 62
     3
 10
394.45590515137
 20
283.378677368164
 30
0.0
 11
394.45590515137
 21
312.378677368164
 31
0.0
  0
LINE
  5
   944
  8
0
  6
CONTINUOUS
 62
     3
 10
394.455905914307
 20
283.378677368164
 30
0.0
 11
435.95590515137
 21
283.378677368164
 31
0.0
  0
INSERT
  5
   945
  8
0
  6
CONTINUOUS
 62
     7
  2
*UDIM1893
 10
0.0
 20
0.0
 30
0.0
  0
LINE
  5
   946
  8
0
  6
CONTINUOUS
 62
     3
 10
435.95590515137
 20
283.378677368164
 30
0.0
 11
435.95590515137
 21
312.378677368164
 31
0.0
  0
INSERT
  5
   947
  8
0
  6
CONTINUOUS
 62
     7
  2
*UDIM1894
 10
0.0
 20
0.0
 30
0.0
  0
LINE
  5
   948
  8
0
  6
CONTINUOUS
 62
     7
 10
389.45590515137
 20
317.378677368164
 30
0.0
 11
440.95590515137
 21
317.378677368164
 31
0.0
  0
LINE
  5
   949
  8
0
  6
CONTINUOUS
 62
     7
 10
440.95590515137
 20
278.378677368164
 30
0.0
 11
440.95590515137
 21
317.378677368164
 31
0.0
  0
LINE
  5
   94A
  8
0
  6
CONTINUOUS
 62
     7
 10
389.45590515137
 20
278.378677368164
 30
0.0
 11
389.45590515137
 21
317.378677368164
 31
0.0
  0
LINE
  5
   94B
  8
0
  6
CONTINUOUS
 62
     7
 10
389.45590515137
 20
278.378677368164
 30
0.0
 11
440.95590515137
 21
278.378677368164
 31
0.0
  0
LINE
  5
   94C
  8
0
  6
DASHDOT
 62
     7
 10
383.584408464061
 20
302.878677368164
 30
0.0
 11
449.574939050772
 21
302.878677368164
 31
0.0
  0
LINE
  5
   94D
  8
0
  6
DASHDOT
 62
     7
 10
415.20590515137
 20
271.616665637371
 30
0.0
 11
415.20590515137
 21
324.753041262142
 31
0.0
  0
TEXT
  5
   94E
  8
0
  6
CONTINUOUS
 62
     7
 10
446.117860791582
 20
303.911468389459
 30
0.0
 40
3.00000002980232
  1
X
 41
0.933333333333334
 72
     1
 11
447.217860802509
 21
305.41146840436
 31
0.0
 73
     2
  0
TEXT
  5
   94F
  8
0
  6
CONTINUOUS
 62
     7
 10
411.769000348941
 20
272.596341494255
 30
0.0
 40
3.00000002980232
  1
Y
 41
0.933333333333334
 72
     1
 11
412.869000359869
 21
274.096341509156
 31
0.0
 73
     2
  0
TEXT
  5
   950
  8
0
  6
CONTINUOUS
 62
     7
 10
384.002697290028
 20
303.911468389459
 30
0.0
 40
3.00000002980232
  1
X
 41
0.933333333333334
 72
     1
 11
385.102697300955
 21
305.41146840436
 31
0.0
 73
     2
  0
TEXT
  5
   951
  8
0
  6
CONTINUOUS
 62
     7
 10
412.189410139472
 20
320.95351891729
 30
0.0
 40
3.00000002980232
  1
Y
 41
0.933333333333334
 72
     1
 11
413.2894101504
 21
322.453518932192
 31
0.0
 73
     2
  0
INSERT
  5
   952
  8
0
  6
CONTINUOUS
 62
     7
  2
*UDIM1895
 10
0.0
 20
0.0
 30
0.0
  0
INSERT
  5
   953
  8
0
  6
CONTINUOUS
 62
     7
  2
*UDIM1896
 10
0.0
 20
0.0
 30
0.0
  0
TEXT
  5
   954
  8
0
  6
CONTINUOUS
 62
     7
 10
238.256773177697
 20
217.357182685868
 30
0.0
 40
1.40000452697284
  1
PROFONDITA' QUADRO
 41
0.933333333333333
 11
238.256773177697
 21
218.057184949354
 31
0.0
 73
     2
  0
TEXT
  5
   955
  8
0
  6
CONTINUOUS
 62
     7
 10
238.256773177697
 20
219.597182719247
 30
0.0
 40
1.40000452697284
  1
COMPARTMENT DEPTH
 41
0.933333333333333
 11
238.256773177697
 21
220.297184982733
 31
0.0
 73
     2
  0
ENDSEC
  0
EOF
