  0
SECTION
  2
HEADER
  9
$ACADVER
  1
AC1009
  9
$DWGCODEPAGE
  3
iso8859-1
  9
$INSBASE
 10
0.0
 20
0.0
 30
0.0
  9
$EXTMIN
 10
1.0E20
 20
1.0E20
  9
$EXTMAX
 10
-1.0E20
 20
-1.0E20
  9
$LIMMIN
 10
0.0
 20
0.0
  9
$LIMMAX
 10
12.0
 20
9.0
  9
$ORTHOMODE
 70
     0
  9
$REGENMODE
 70
     1
  9
$FILLMODE
 70
     1
  9
$QTEXTMODE
 70
     0
  9
$MIRRTEXT
 70
     1
  9
$DRAGMODE
 70
     2
  9
$LTSCALE
 40
15.0
  9
$OSMODE
 70
     0
  9
$ATTMODE
 70
     1
  9
$TEXTSIZE
 40
0.2
  9
$TRACEWID
 40
0.05
  9
$TEXTSTYLE
  7
STANDARD
  9
$CLAYER
  8
0
  9
$CELTYPE
  6
DASHED
  9
$CECOLOR
 62
   256
  9
$DIMSCALE
 40
1.0
  9
$DIMASZ
 40
0.18
  9
$DIMEXO
 40
0.0625
  9
$DIMDLI
 40
0.38
  9
$DIMRND
 40
0.0
  9
$DIMDLE
 40
0.0
  9
$DIMEXE
 40
0.18
  9
$DIMTP
 40
0.0
  9
$DIMTM
 40
0.0
  9
$DIMTXT
 40
0.18
  9
$DIMCEN
 40
0.09
  9
$DIMTSZ
 40
0.0
  9
$DIMTOL
 70
     0
  9
$DIMLIM
 70
     0
  9
$DIMTIH
 70
     1
  9
$DIMTOH
 70
     1
  9
$DIMSE1
 70
     0
  9
$DIMSE2
 70
     0
  9
$DIMTAD
 70
     0
  9
$DIMZIN
 70
     0
  9
$DIMBLK
  1

  9
$DIMASO
 70
     1
  9
$DIMSHO
 70
     1
  9
$DIMPOST
  1

  9
$DIMAPOST
  1

  9
$DIMALT
 70
     0
  9
$DIMALTD
 70
     2
  9
$DIMALTF
 40
25.4
  9
$DIMLFAC
 40
1.0
  9
$DIMTOFL
 70
     0
  9
$DIMTVP
 40
0.0
  9
$DIMTIX
 70
     0
  9
$DIMSOXD
 70
     0
  9
$DIMSAH
 70
     0
  9
$DIMBLK1
  1

  9
$DIMBLK2
  1

  9
$DIMSTYLE
  2
STANDARD
  9
$DIMCLRD
 70
     0
  9
$DIMCLRE
 70
     0
  9
$DIMCLRT
 70
     0
  9
$DIMTFAC
 40
1.0
  9
$DIMGAP
 40
0.09
  9
$LUNITS
 70
     2
  9
$LUPREC
 70
     4
  9
$AXISMODE
 70
     0
  9
$AXISUNIT
 10
0.0
 20
0.0
  9
$SKETCHINC
 40
0.1
  9
$FILLETRAD
 40
0.0
  9
$AUNITS
 70
     0
  9
$AUPREC
 70
     0
  9
$MENU
  1
acad
  9
$ELEVATION
 40
0.0
  9
$PELEVATION
 40
0.0
  9
$THICKNESS
 40
0.0
  9
$LIMCHECK
 70
     0
  9
$BLIPMODE
 70
     1
  9
$CHAMFERA
 40
0.0
  9
$CHAMFERB
 40
0.0
  9
$SKPOLY
 70
     0
  9
$TDCREATE
 40
0.000000000
  9
$TDUPDATE
 40
0.000000000
  9
$TDINDWG
 40
0.0
  9
$TDUSRTIMER
 40
0.0
  9
$USRTIMER
 70
     1
  9
$ANGBASE
 50
0.0
  9
$ANGDIR
 70
     0
  9
$PDMODE
 70
     0
  9
$PDSIZE
 40
0.0
  9
$PLINEWID
 40
0.0
  9
$COORDS
 70
     1
  9
$SPLFRAME
 70
     0
  9
$SPLINETYPE
 70
     6
  9
$SPLINESEGS
 70
     8
  9
$ATTDIA
 70
     0
  9
$ATTREQ
 70
     1
  9
$HANDLING
 70
     1
  9
$HANDSEED
  5
   85C
  9
$SURFTAB1
 70
     6
  9
$SURFTAB2
 70
     6
  9
$SURFTYPE
 70
     6
  9
$SURFU
 70
     6
  9
$SURFV
 70
     6
  9
$UCSNAME
  2

  9
$UCSORG
 10
0.0
 20
0.0
 30
0.0
  9
$UCSXDIR
 10
1.0
 20
0.0
 30
0.0
  9
$UCSYDIR
 10
0.0
 20
1.0
 30
0.0
  9
$PUCSNAME
  2

  9
$PUCSORG
 10
0.0
 20
0.0
 30
0.0
  9
$PUCSXDIR
 10
1.0
 20
0.0
 30
0.0
  9
$PUCSYDIR
 10
0.0
 20
1.0
 30
0.0
  9
$USERI1
 70
     0
  9
$USERI2
 70
     0
  9
$USERI3
 70
     0
  9
$USERI4
 70
     0
  9
$USERI5
 70
     0
  9
$USERR1
 40
0.0
  9
$USERR2
 40
0.0
  9
$USERR3
 40
0.0
  9
$USERR4
 40
0.0
  9
$USERR5
 40
0.0
  9
$WORLDVIEW
 70
     1
  9
$SHADEDGE
 70
     3
  9
$SHADEDIF
 70
    70
  9
$TILEMODE
 70
     1
  9
$MAXACTVP
 70
    16
  9
$PINSBASE
 10
0.0
 20
0.0
 30
0.0
  9
$PLIMCHECK
 70
     0
  9
$PEXTMIN
 10
1.0E20
 20
1.0E20
 30
1.0E20
  9
$PEXTMAX
 10
-1.0E20
 20
-1.0E20
 30
-1.0E20
  9
$PLIMMIN
 10
0.0
 20
0.0
  9
$PLIMMAX
 10
12.0
 20
9.0
  9
$UNITMODE
 70
     0
  9
$VISRETAIN
 70
     0
  0
ENDSEC
  0
SECTION
  2
TABLES
  0
TABLE
  2
VPORT
 70
     1
  0
VPORT
  2
*ACTIVE
 70
     0
 10
0.0
 20
0.0
 11
1.0
 21
1.0
 12
6.801242
 22
4.5
 13
0.0
 23
0.0
 14
1.0
 24
1.0
 15
0.0
 25
0.0
 16
0.0
 26
0.0
 36
1.0
 17
0.0
 27
0.0
 37
0.0
 40
9.0
 41
1.511387
 42
50.0
 43
0.0
 44
0.0
 50
0.0
 51
0.0
 71
     0
 72
   100
 73
     1
 74
     1
 75
     0
 76
     0
 77
     0
 78
     0
  0
ENDTAB
  0
TABLE
  2
LTYPE
 70
    41
  0
LTYPE
  2
BYBLOCK
 70
     0
  3

 72
    65
 73
     0
 40
0.0
  0
LTYPE
  2
BYLAYER
 70
     0
  3

 72
    65
 73
     0
 40
0.0
  0
LTYPE
  2
CONTINUOUS
 70
     0
  3
Solid line
 72
    65
 73
     0
 40
0.0
  0
LTYPE
  2
BORDER
 70
    64
  3
__ __ . __ __ . __ __ . __ __ . __ __ . __ __ .
 72
    65
 73
     6
 40
1.75
 49
0.5
 49
-0.25
 49
0.5
 49
-0.25
 49
0.0
 49
-0.25
  0
LTYPE
  2
BORDER2
 70
    64
  3
__.__.__.__.__.__.__.__.__.__.__.__.__.__.__.__
 72
    65
 73
     6
 40
0.875
 49
0.25
 49
-0.125
 49
0.25
 49
-0.125
 49
0.0
 49
-0.125
  0
LTYPE
  2
BORDERX2
 70
    64
  3
____  ____  .  ____  ____  .  ____  ____  .  __
 72
    65
 73
     6
 40
3.5
 49
1.0
 49
-0.5
 49
1.0
 49
-0.5
 49
0.0
 49
-0.5
  0
LTYPE
  2
CENTER
 70
    64
  3
____ _ ____ _ ____ _ ____ _ ____ _ ____ _ ____
 72
    65
 73
     4
 40
2.0
 49
1.25
 49
-0.25
 49
0.25
 49
-0.25
  0
LTYPE
  2
CENTER2
 70
    64
  3
___ _ ___ _ ___ _ ___ _ ___ _ ___ _ ___ _ ___ _
 72
    65
 73
     4
 40
1.125
 49
0.75
 49
-0.125
 49
0.125
 49
-0.125
  0
LTYPE
  2
CENTERX2
 70
    64
  3
________  __  ________  __  ________  __  _____
 72
    65
 73
     4
 40
4.0
 49
2.5
 49
-0.5
 49
0.5
 49
-0.5
  0
LTYPE
  2
DASHDOT
 70
    64
  3
__ . __ . __ . __ . __ . __ . __ . __ . __ . __
 72
    65
 73
     4
 40
1.0
 49
0.5
 49
-0.25
 49
0.0
 49
-0.25
  0
LTYPE
  2
DASHDOT2
 70
    64
  3
_._._._._._._._._._._._._._._._._._._._._._._._
 72
    65
 73
     4
 40
0.5
 49
0.25
 49
-0.125
 49
0.0
 49
-0.125
  0
LTYPE
  2
DASHDOTX2
 70
    64
  3
____  .  ____  .  ____  .  ____  .  ____  .  __
 72
    65
 73
     4
 40
2.0
 49
1.0
 49
-0.5
 49
0.0
 49
-0.5
  0
LTYPE
  2
DASHED
 70
    64
  3
__ __ __ __ __ __ __ __ __ __ __ __ __ __ __ __
 72
    65
 73
     2
 40
0.75
 49
0.5
 49
-0.25
  0
LTYPE
  2
DASHED2
 70
    64
  3
_ _ _ _ _ _ _ _ _ _ _ _ _ _ _ _ _ _ _ _ _ _ _ _
 72
    65
 73
     2
 40
0.375
 49
0.25
 49
-0.125
  0
LTYPE
  2
DASHEDX2
 70
    64
  3
____  ____  ____  ____  ____  ____  ____  ____
 72
    65
 73
     2
 40
1.5
 49
1.0
 49
-0.5
  0
LTYPE
  2
DIVIDE
 70
    64
  3
____ . . ____ . . ____ . . ____ . . ____ . . __
 72
    65
 73
     6
 40
1.25
 49
0.5
 49
-0.25
 49
0.0
 49
-0.25
 49
0.0
 49
-0.25
  0
LTYPE
  2
DIVIDE2
 70
    64
  3
__..__..__..__..__..__..__..__..__..__..__..__.
 72
    65
 73
     6
 40
0.625
 49
0.25
 49
-0.125
 49
0.0
 49
-0.125
 49
0.0
 49
-0.125
  0
LTYPE
  2
DIVIDEX2
 70
    64
  3
________  .  .  ________  .  .  ________  .  .
 72
    65
 73
     6
 40
2.5
 49
1.0
 49
-0.5
 49
0.0
 49
-0.5
 49
0.0
 49
-0.5
  0
LTYPE
  2
DOT
 70
    64
  3
. . . . . . . . . . . . . . . . . . . . . . . .
 72
    65
 73
     2
 40
0.25
 49
0.0
 49
-0.25
  0
LTYPE
  2
DOT2
 70
    64
  3
...............................................
 72
    65
 73
     2
 40
0.125
 49
0.0
 49
-0.125
  0
LTYPE
  2
DOTX2
 70
    64
  3
.  .  .  .  .  .  .  .  .  .  .  .  .  .  .  .
 72
    65
 73
     2
 40
0.5
 49
0.0
 49
-0.5
  0
LTYPE
  2
HIDDEN
 70
    64
  3
__ __ __ __ __ __ __ __ __ __ __ __ __ __ __ __
 72
    65
 73
     2
 40
0.375
 49
0.25
 49
-0.125
  0
LTYPE
  2
HIDDEN2
 70
    64
  3
_ _ _ _ _ _ _ _ _ _ _ _ _ _ _ _ _ _ _ _ _ _ _ _
 72
    65
 73
     2
 40
0.1875
 49
0.125
 49
-0.0625
  0
LTYPE
  2
HIDDENX2
 70
    64
  3
____ ____ ____ ____ ____ ____ ____ ____ ____ __
 72
    65
 73
     2
 40
0.75
 49
0.5
 49
-0.25
  0
LTYPE
  2
PHANTOM
 70
    64
  3
______  __  __  ______  __  __  ______  __  __
 72
    65
 73
     6
 40
2.5
 49
1.25
 49
-0.25
 49
0.25
 49
-0.25
 49
0.25
 49
-0.25
  0
LTYPE
  2
PHANTOM2
 70
    64
  3
___ _ _ ___ _ _ ___ _ _ ___ _ _ ___ _ _ ___ _ _
 72
    65
 73
     6
 40
1.25
 49
0.625
 49
-0.125
 49
0.125
 49
-0.125
 49
0.125
 49
-0.125
  0
LTYPE
  2
PHANTOMX2
 70
    64
  3
____________    ____    ____    ____________
 72
    65
 73
     6
 40
5.0
 49
2.5
 49
-0.5
 49
0.5
 49
-0.5
 49
0.5
 49
-0.5
  0
LTYPE
  2
ACAD_ISO02W100
 70
    64
  3
__ __ __ __ __ __ __ __ __ __ __ __ __ __ __ __
 72
    65
 73
     2
 40
15.0
 49
12.0
 49
-3.0
  0
LTYPE
  2
ACAD_ISO03W100
 70
    64
  3
__    __    __    __    __    __    __    __
 72
    65
 73
     2
 40
30.0
 49
12.0
 49
-18.0
  0
LTYPE
  2
ACAD_ISO04W100
 70
    64
  3
____ . ____ . ____ . ____ . ____ . ____ . ____
 72
    65
 73
     4
 40
30.5
 49
24.0
 49
-3.0
 49
0.5
 49
-3.0
  0
LTYPE
  2
ACAD_ISO05W100
 70
    64
  3
____ .. ____ .. ____ .. ____ .. ____ .. ____ ..
 72
    65
 73
     6
 40
34.0
 49
24.0
 49
-3.0
 49
0.5
 49
-3.0
 49
0.5
 49
-3.0
  0
LTYPE
  2
ACAD_ISO06W100
 70
    64
  3
____ ... ____ ... ____ ... ____ ... ____ ... __
 72
    65
 73
     8
 40
37.5
 49
24.0
 49
-3.0
 49
0.5
 49
-3.0
 49
0.5
 49
-3.0
 49
0.5
 49
-3.0
  0
LTYPE
  2
ACAD_ISO07W100
 70
    64
  3
. . . . . . . . . . . . . . . . . . . . . . . .
 72
    65
 73
     2
 40
3.5
 49
0.5
 49
-3.0
  0
LTYPE
  2
ACAD_ISO08W100
 70
    64
  3
____ __ ____ __ ____ __ ____ ____ __ __ ____ __
 72
    65
 73
     4
 40
36.0
 49
24.0
 49
-3.0
 49
6.0
 49
-3.0
  0
LTYPE
  2
ACAD_ISO09W100
 70
    64
  3
____ __ __ ____ __ __ ____ __ __ ____ __ __ ___
 72
    65
 73
     6
 40
45.0
 49
24.0
 49
-3.0
 49
6.0
 49
-3.0
 49
6.0
 49
-3.0
  0
LTYPE
  2
ACAD_ISO10W100
 70
    64
  3
__ . __ . __ . __ . __ . __ . __ . __ . __ . __
 72
    65
 73
     4
 40
18.5
 49
12.0
 49
-3.0
 49
0.5
 49
-3.0
  0
LTYPE
  2
ACAD_ISO11W100
 70
    64
  3
__ __ . __ __ . __ __ . __ __ . __ __ . __ __ .
 72
    65
 73
     6
 40
33.5
 49
12.0
 49
-3.0
 49
12.0
 49
-3.0
 49
0.5
 49
-3.0
  0
LTYPE
  2
ACAD_ISO12W100
 70
    64
  3
__ . . __ . . __ . . __ . . __ . . __ . . __ .
 72
    65
 73
     6
 40
22.0
 49
12.0
 49
-3.0
 49
0.5
 49
-3.0
 49
0.5
 49
-3.0
  0
LTYPE
  2
ACAD_ISO13W100
 70
    64
  3
__ __ . . __ __ . . __ __ . . __ __ . . __ __ .
 72
    65
 73
     8
 40
37.0
 49
12.0
 49
-3.0
 49
12.0
 49
-3.0
 49
0.5
 49
-3.0
 49
0.5
 49
-3.0
  0
LTYPE
  2
ACAD_ISO14W100
 70
    64
  3
__ . . . __ . . . __ . . . __ . . . __ . . . __
 72
    65
 73
     8
 40
25.5
 49
12.0
 49
-3.0
 49
0.5
 49
-3.0
 49
0.5
 49
-3.0
 49
0.5
 49
-3.0
  0
LTYPE
  2
ACAD_ISO15W100
 70
    64
  3
__ __ . . . __ __ . . . __ __ . . . __ __ . . .
 72
    65
 73
    10
 40
40.5
 49
12.0
 49
-3.0
 49
12.0
 49
-3.0
 49
0.5
 49
-3.0
 49
0.5
 49
-3.0
 49
0.5
 49
-3.0
  0
ENDTAB
  0
TABLE
  2
STYLE
 70
     4
  0
STYLE
  2
STANDARD
 70
    64
 40
0.0
 41
1.0
 50
0.0
 71
     0
 42
0.2
  3
txt
  4

  0
STYLE
  2
TOLERANCE
 70
    64
 40
0.0
 41
1.0
 50
0.0
 71
     0
 42
0.2
  3
../igesfont/iges1003.shx
  4

  0
STYLE
  2
ROMANS
 70
    64
 40
0.0
 41
1.0
 50
0.0
 71
     0
 42
0.2
  3
romans.shx
  4

  0
STYLE
  2
ROMANC
 70
    64
 40
0.0
 41
1.0
 50
0.0
 71
     0
 42
0.2
  3
romanc.shx
  4

  0
ENDTAB
  0
TABLE
  2
DIMSTYLE
 70
     2
  0
DIMSTYLE
  2
UNNAMED
 70
     0
  3

  4

  5

  6

  7

 40
1.0
 41
0.18
 42
0.0625
 43
0.38
 44
0.18
 45
0.0
 46
0.0
 47
0.0
 48
0.0
140
0.18
141
0.09
142
0.0
143
25.4
144
1.0
145
0.0
146
1.0
147
0.09
 71
     0
 72
     0
 73
     1
 74
     1
 75
     0
 76
     0
 77
     0
 78
     0
170
     0
171
     2
172
     0
173
     0
174
     0
175
     0
176
     0
177
     0
178
     0
  0
DIMSTYLE
  2
STANDARD
 70
     0
  3

  4

  5

  6

  7

 40
1.0
 41
0.18
 42
0.0625
 43
0.38
 44
0.18
 45
0.0
 46
0.0
 47
0.0
 48
0.0
140
0.18
141
0.09
142
0.0
143
25.4
144
1.0
145
0.0
146
1.0
147
0.09
 71
     0
 72
     0
 73
     1
 74
     1
 75
     0
 76
     0
 77
     0
 78
     0
170
     0
171
     2
172
     0
173
     0
174
     0
175
     0
176
     0
177
     0
178
     0
  0
ENDTAB
  0
TABLE
  2
LAYER
 70
     2
  0
LAYER
  2
0
 70
     0
 62
     7
  6
CONTINUOUS
  0
LAYER
  2
255
 70
     0
 62
     7
  6
CONTINUOUS
  0
ENDTAB
  0
ENDSEC
  0
SECTION
  2
BLOCKS
  0
BLOCK
  5
     B
  8
0
  6
CONTINUOUS
 62
     7
  2
*UDIM335
 70
    65
 10
0.0
 20
0.0
 30
0.0
  3
*UDIM335
  0
TEXT
  5
     C
  8
0
  6
CONTINUOUS
 62
     7
 10
61.226325544517
 20
-87.3197570531316
 30
0.0
 40
3.00000002980232
  1
7
 50
402.143140429773
 41
0.933333333333334
 72
     1
 11
61.0354658233281
 21
-85.4694671743364
 31
0.0
 73
     2
  0
TEXT
  5
     D
  8
0
  6
CONTINUOUS
 62
     7
 10
58.8906924032638
 20
-89.4333601123801
 30
0.0
 40
3.00000002980232
  1
Ø
 50
402.143140429773
 41
0.933333333333334
 72
     1
 11
58.6998326820749
 21
-87.583070233585
 31
0.0
 73
     2
  0
LINE
  5
     E
  8
0
  6
CONTINUOUS
 62
     7
 10
75.3427490788033
 20
-75.8939404396309
 30
0.0
 11
59.561677504346
 21
-90.1748309480166
 31
0.0
  0
LINE
  5
     F
  8
0
  6
CONTINUOUS
 62
     7
 10
77.1838218281368
 20
-73.5253013511116
 30
0.0
 11
75.3427490788033
 21
-75.8939404396309
 31
0.0
  0
LINE
  5
    10
  8
0
  6
CONTINUOUS
 62
     7
 10
75.3427490788033
 20
-75.8939404396309
 30
0.0
 11
77.8829137248809
 21
-74.2978315552444
 31
0.0
  0
LINE
  5
    11
  8
0
  6
CONTINUOUS
 62
     7
 10
72.2041023661991
 20
-79.4368034462517
 30
0.0
 11
74.0451751155326
 21
-77.0681643577324
 31
0.0
  0
LINE
  5
    12
  8
0
  6
CONTINUOUS
 62
     7
 10
74.0451751155326
 20
-77.0681643577324
 30
0.0
 11
71.5050104694551
 21
-78.6642732421189
 31
0.0
  0
ENDBLK
  5
    13
  8
0
  6
CONTINUOUS
 62
     7
  0
BLOCK
  5
    14
  8
0
  6
CONTINUOUS
 62
     7
  2
*UDIM336
 70
    65
 10
0.0
 20
0.0
 30
0.0
  3
*UDIM336
  0
TEXT
  5
    15
  8
0
  6
CONTINUOUS
 62
     7
 10
43.7718505753504
 20
-62.9060524474571
 30
0.0
 40
3.00000002980232
  1
142
 50
449.999999844103
 41
0.933333333333333
 72
     1
 11
42.2718505710363
 21
-59.0060524046421
 31
0.0
 73
     2
  0
LINE
  5
    16
  8
0
  6
CONTINUOUS
 62
     7
 10
72.068962097168
 20
-40.9810523986816
 30
0.0
 11
42.7718505859375
 21
-40.9810523986816
 31
0.0
  0
LINE
  5
    17
  8
0
  6
CONTINUOUS
 62
     7
 10
72.068962097168
 20
-76.4810523986816
 30
0.0
 11
42.7718505859375
 21
-76.4810523986816
 31
0.0
  0
LINE
  5
    18
  8
0
  6
CONTINUOUS
 62
     7
 10
44.7718505859375
 20
-40.9810523986816
 30
0.0
 11
44.7718505859375
 21
-76.4810523986816
 31
0.0
  0
LINE
  5
    19
  8
0
  6
CONTINUOUS
 62
     7
 10
45.2927950158892
 20
-43.9354756758886
 30
0.0
 11
44.7718505859375
 21
-40.9810523986816
 31
0.0
  0
LINE
  5
    1A
  8
0
  6
CONTINUOUS
 62
     7
 10
44.7718505859375
 20
-40.9810523986816
 30
0.0
 11
44.2509061559858
 21
-43.9354756758886
 31
0.0
  0
LINE
  5
    1B
  8
0
  6
CONTINUOUS
 62
     7
 10
44.2509061559858
 20
-73.5266291214747
 30
0.0
 11
44.7718505859375
 21
-76.4810523986816
 31
0.0
  0
LINE
  5
    1C
  8
0
  6
CONTINUOUS
 62
     7
 10
44.7718505859375
 20
-76.4810523986816
 30
0.0
 11
45.2927950158892
 21
-73.5266291214747
 31
0.0
  0
ENDBLK
  5
    1D
  8
0
  6
CONTINUOUS
 62
     7
  0
BLOCK
  5
    1E
  8
0
  6
CONTINUOUS
 62
     7
  2
*UDIM337
 70
    65
 10
0.0
 20
0.0
 30
0.0
  3
*UDIM337
  0
TEXT
  5
    1F
  8
0
  6
CONTINUOUS
 62
     7
 10
53.462345112704
 20
-62.9060524474571
 30
0.0
 40
3.00000002980232
  1
112
 50
449.999999844103
 41
0.933333333333333
 72
     1
 11
51.9623451083899
 21
-59.0060524046421
 31
0.0
 73
     2
  0
LINE
  5
    20
  8
0
  6
CONTINUOUS
 62
     7
 10
69.693962097168
 20
-44.7310523986816
 30
0.0
 11
52.462345123291
 21
-44.7310523986816
 31
0.0
  0
LINE
  5
    21
  8
0
  6
CONTINUOUS
 62
     7
 10
69.693962097168
 20
-72.7310523986816
 30
0.0
 11
52.462345123291
 21
-72.7310523986816
 31
0.0
  0
LINE
  5
    22
  8
0
  6
CONTINUOUS
 62
     7
 10
54.462345123291
 20
-44.7310523986816
 30
0.0
 11
54.462345123291
 21
-72.7310523986816
 31
0.0
  0
LINE
  5
    23
  8
0
  6
CONTINUOUS
 62
     7
 10
54.9832895532427
 20
-47.6854756758886
 30
0.0
 11
54.462345123291
 21
-44.7310523986816
 31
0.0
  0
LINE
  5
    24
  8
0
  6
CONTINUOUS
 62
     7
 10
54.462345123291
 20
-44.7310523986816
 30
0.0
 11
53.9414006933394
 21
-47.6854756758886
 31
0.0
  0
LINE
  5
    25
  8
0
  6
CONTINUOUS
 62
     7
 10
53.9414006933394
 20
-69.7766291214747
 30
0.0
 11
54.462345123291
 21
-72.7310523986816
 31
0.0
  0
LINE
  5
    26
  8
0
  6
CONTINUOUS
 62
     7
 10
54.462345123291
 20
-72.7310523986816
 30
0.0
 11
54.9832895532427
 21
-69.7766291214747
 31
0.0
  0
ENDBLK
  5
    27
  8
0
  6
CONTINUOUS
 62
     7
  0
BLOCK
  5
    28
  8
0
  6
CONTINUOUS
 62
     7
  2
*UDIM338
 70
    65
 10
0.0
 20
0.0
 30
0.0
  3
*UDIM338
  0
TEXT
  5
    29
  8
0
  6
CONTINUOUS
 62
     7
 10
80.5189620483907
 20
-19.3751449479041
 30
0.0
 40
3.00000002980232
  1
112
 50
359.999999844103
 41
0.933333333333333
 72
     1
 11
84.4189620912075
 21
-17.8751449435949
 31
0.0
 73
     2
  0
LINE
  5
    2A
  8
0
  6
CONTINUOUS
 62
     7
 10
70.693962097168
 20
-43.7310523986816
 30
0.0
 11
70.693962097168
 21
-18.3751449584961
 31
0.0
  0
LINE
  5
    2B
  8
0
  6
CONTINUOUS
 62
     7
 10
98.693962097168
 20
-43.7310523986816
 30
0.0
 11
98.693962097168
 21
-18.3751449584961
 31
0.0
  0
LINE
  5
    2C
  8
0
  6
CONTINUOUS
 62
     7
 10
70.693962097168
 20
-20.3751449584961
 30
0.0
 11
98.693962097168
 21
-20.3751449584961
 31
0.0
  0
LINE
  5
    2D
  8
0
  6
CONTINUOUS
 62
     7
 10
73.6483853743749
 20
-19.8542005285444
 30
0.0
 11
70.693962097168
 21
-20.3751449584961
 31
0.0
  0
LINE
  5
    2E
  8
0
  6
CONTINUOUS
 62
     7
 10
70.693962097168
 20
-20.3751449584961
 30
0.0
 11
73.6483853743749
 21
-20.8960893884478
 31
0.0
  0
LINE
  5
    2F
  8
0
  6
CONTINUOUS
 62
     7
 10
95.739538819961
 20
-20.8960893884478
 30
0.0
 11
98.693962097168
 21
-20.3751449584961
 31
0.0
  0
LINE
  5
    30
  8
0
  6
CONTINUOUS
 62
     7
 10
98.693962097168
 20
-20.3751449584961
 30
0.0
 11
95.739538819961
 21
-19.8542005285444
 31
0.0
  0
ENDBLK
  5
    31
  8
0
  6
CONTINUOUS
 62
     7
  0
BLOCK
  5
    32
  8
0
  6
CONTINUOUS
 62
     7
  2
*UDIM339
 70
    65
 10
0.0
 20
0.0
 30
0.0
  3
*UDIM339
  0
TEXT
  5
    33
  8
0
  6
CONTINUOUS
 62
     7
 10
81.9189620622984
 20
-27.2230815819554
 30
0.0
 40
3.00000002980232
  1
80
 50
359.999999844103
 41
0.933333333333333
 72
     1
 11
84.4189620912075
 21
-25.723081573844
 31
0.0
 73
     2
  0
LINE
  5
    34
  8
0
  6
CONTINUOUS
 62
     7
 10
74.693962097168
 20
-38.3560523986816
 30
0.0
 11
74.693962097168
 21
-26.2230815887451
 31
0.0
  0
LINE
  5
    35
  8
0
  6
CONTINUOUS
 62
     7
 10
94.693962097168
 20
-38.3560523986816
 30
0.0
 11
94.693962097168
 21
-26.2230815887451
 31
0.0
  0
LINE
  5
    36
  8
0
  6
CONTINUOUS
 62
     7
 10
74.693962097168
 20
-28.2230815887451
 30
0.0
 11
94.693962097168
 21
-28.2230815887451
 31
0.0
  0
LINE
  5
    37
  8
0
  6
CONTINUOUS
 62
     7
 10
77.6483853743749
 20
-27.7021371587935
 30
0.0
 11
74.693962097168
 21
-28.2230815887451
 31
0.0
  0
LINE
  5
    38
  8
0
  6
CONTINUOUS
 62
     7
 10
74.693962097168
 20
-28.2230815887451
 30
0.0
 11
77.6483853743749
 21
-28.7440260186968
 31
0.0
  0
LINE
  5
    39
  8
0
  6
CONTINUOUS
 62
     7
 10
91.739538819961
 20
-28.7440260186968
 30
0.0
 11
94.693962097168
 21
-28.2230815887451
 31
0.0
  0
LINE
  5
    3A
  8
0
  6
CONTINUOUS
 62
     7
 10
94.693962097168
 20
-28.2230815887451
 30
0.0
 11
91.739538819961
 21
-27.7021371587935
 31
0.0
  0
ENDBLK
  5
    3B
  8
0
  6
CONTINUOUS
 62
     7
  0
BLOCK
  5
    3C
  8
0
  6
CONTINUOUS
 62
   218
  2
*HATCH57
 70
    65
 10
0.0
 20
0.0
 30
0.0
  3
*HATCH57
  0
LINE
  5
    3D
  8
0
  6
CONTINUOUS
 62
     3
 10
15.7025470733643
 20
116.465255737305
 30
0.0
 11
13.2488441467285
 21
114.011558532715
 31
0.0
  0
LINE
  5
    3E
  8
0
  6
CONTINUOUS
 62
     3
 10
17.9081954956055
 20
116.549583435059
 30
0.0
 11
14.4746265411377
 21
113.116020202637
 31
0.0
  0
LINE
  5
    3F
  8
0
  6
CONTINUOUS
 62
     3
 10
19.5914745330811
 20
116.111541748047
 30
0.0
 11
16.1562938690186
 21
112.676361083984
 31
0.0
  0
LINE
  5
    40
  8
0
  6
CONTINUOUS
 62
     3
 10
20.8223094940186
 20
115.221061706543
 30
0.0
 11
18.3576564788818
 21
112.756408691406
 31
0.0
  0
ENDBLK
  5
    41
  8
0
  6
CONTINUOUS
 62
   218
  0
BLOCK
  5
    42
  8
0
  6
CONTINUOUS
 62
    98
  2
*HATCH58
 70
    65
 10
0.0
 20
0.0
 30
0.0
  3
*HATCH58
  0
LINE
  5
    43
  8
0
  6
CONTINUOUS
 62
   210
 10
-15.9264526367188
 20
26.4999542236328
 30
0.0
 11
-18.4264526367188
 21
23.9999542236328
 31
0.0
  0
LINE
  5
    44
  8
0
  6
CONTINUOUS
 62
   210
 10
-11.6838111877441
 20
26.4999542236328
 30
0.0
 11
-14.1838111877441
 21
23.9999542236328
 31
0.0
  0
LINE
  5
    45
  8
0
  6
CONTINUOUS
 62
   210
 10
-7.44116973876953
 20
26.4999542236328
 30
0.0
 11
-9.94116973876953
 21
23.9999542236328
 31
0.0
  0
LINE
  5
    46
  8
0
  6
CONTINUOUS
 62
   210
 10
-3.1985285282135
 20
26.4999542236328
 30
0.0
 11
-5.69852828979492
 21
23.9999542236328
 31
0.0
  0
LINE
  5
    47
  8
0
  6
CONTINUOUS
 62
   210
 10
1.04411244392395
 20
26.4999542236328
 30
0.0
 11
-1.45588731765747
 21
23.9999542236328
 31
0.0
  0
LINE
  5
    48
  8
0
  6
CONTINUOUS
 62
   210
 10
3.53710412979126
 20
24.7503070831299
 30
0.0
 11
1.53710401058197
 21
22.7503070831299
 31
0.0
  0
LINE
  5
    49
  8
0
  6
CONTINUOUS
 62
   210
 10
3.53710412979126
 20
22.6289863586426
 30
0.0
 11
1.53710401058197
 21
20.6289863586426
 31
0.0
  0
LINE
  5
    4A
  8
0
  6
CONTINUOUS
 62
   210
 10
3.53710412979126
 20
20.5076656341553
 30
0.0
 11
1.53710401058197
 21
18.5076656341553
 31
0.0
  0
LINE
  5
    4B
  8
0
  6
CONTINUOUS
 62
   210
 10
3.53710412979126
 20
18.386344909668
 30
0.0
 11
1.53710401058197
 21
16.386344909668
 31
0.0
  0
LINE
  5
    4C
  8
0
  6
CONTINUOUS
 62
   210
 10
25.7720336914063
 20
38.4999542236328
 30
0.0
 11
24.5371036529541
 21
37.265022277832
 31
0.0
  0
LINE
  5
    4D
  8
0
  6
CONTINUOUS
 62
   210
 10
-8.72798347473145
 20
3.99993896484375
 30
0.0
 11
-11.2279682159424
 21
1.49995422363281
 31
0.0
  0
LINE
  5
    4E
  8
0
  6
CONTINUOUS
 62
   210
 10
3.53710412979126
 20
14.143705368042
 30
0.0
 11
1.53710401058197
 21
12.143705368042
 31
0.0
  0
LINE
  5
    4F
  8
0
  6
CONTINUOUS
 62
   210
 10
26.5371036529541
 20
35.0223846435547
 30
0.0
 11
24.5371036529541
 21
33.0223846435547
 31
0.0
  0
LINE
  5
    50
  8
0
  6
CONTINUOUS
 62
   210
 10
-4.48534202575684
 20
3.99993896484375
 30
0.0
 11
-6.98532724380493
 21
1.49995422363281
 31
0.0
  0
LINE
  5
    51
  8
0
  6
CONTINUOUS
 62
   210
 10
3.53710412979126
 20
9.90106391906738
 30
0.0
 11
1.53710401058197
 21
7.90106439590454
 31
0.0
  0
LINE
  5
    52
  8
0
  6
CONTINUOUS
 62
   210
 10
26.5371036529541
 20
30.7797451019287
 30
0.0
 11
24.5371036529541
 21
28.7797431945801
 31
0.0
  0
LINE
  5
    53
  8
0
  6
CONTINUOUS
 62
   210
 10
-0.242701053619385
 20
3.99993896484375
 30
0.0
 11
-2.74268674850464
 21
1.49995422363281
 31
0.0
  0
LINE
  5
    54
  8
0
  6
CONTINUOUS
 62
   210
 10
24.3786354064941
 20
26.4999542236328
 30
0.0
 11
22.5371036529541
 21
24.6584224700928
 31
0.0
  0
LINE
  5
    55
  8
0
  6
CONTINUOUS
 62
   210
 10
26.5371036529541
 20
26.5371017456055
 30
0.0
 11
22.5371036529541
 21
22.5371017456055
 31
0.0
  0
LINE
  5
    56
  8
0
  6
CONTINUOUS
 62
   210
 10
26.5371036529541
 20
24.4157810211182
 30
0.0
 11
26.1212768554688
 21
23.9999542236328
 31
0.0
  0
LINE
  5
    57
  8
0
  6
CONTINUOUS
 62
   210
 10
6.12125968933105
 20
3.99993896484375
 30
0.0
 11
3.62127470970154
 21
1.49995422363281
 31
0.0
  0
LINE
  5
    58
  8
0
  6
CONTINUOUS
 62
   210
 10
8.24258041381836
 20
3.99993896484375
 30
0.0
 11
5.74259519577026
 21
1.49995422363281
 31
0.0
  0
LINE
  5
    59
  8
0
  6
CONTINUOUS
 62
   210
 10
10.3639011383057
 20
3.99993896484375
 30
0.0
 11
7.86391544342041
 21
1.49995422363281
 31
0.0
  0
LINE
  5
    5A
  8
0
  6
CONTINUOUS
 62
   210
 10
12.485221862793
 20
3.99993896484375
 30
0.0
 11
9.9852352142334
 21
1.49995422363281
 31
0.0
  0
LINE
  5
    5B
  8
0
  6
CONTINUOUS
 62
   210
 10
14.6065425872803
 20
3.99993896484375
 30
0.0
 11
12.1065559387207
 21
1.49995422363281
 31
0.0
  0
LINE
  5
    5C
  8
0
  6
CONTINUOUS
 62
   210
 10
16.7278633117676
 20
3.99993896484375
 30
0.0
 11
14.227876663208
 21
1.49995422363281
 31
0.0
  0
LINE
  5
    5D
  8
0
  6
CONTINUOUS
 62
   210
 10
18.8491840362549
 20
3.99993896484375
 30
0.0
 11
16.3491973876953
 21
1.49995422363281
 31
0.0
  0
LINE
  5
    5E
  8
0
  6
CONTINUOUS
 62
   210
 10
20.9705047607422
 20
3.99993896484375
 30
0.0
 11
18.4705181121826
 21
1.49995422363281
 31
0.0
  0
LINE
  5
    5F
  8
0
  6
CONTINUOUS
 62
   210
 10
25.2131443023682
 20
3.99993896484375
 30
0.0
 11
22.7131576538086
 21
1.49995422363281
 31
0.0
  0
LINE
  5
    60
  8
0
  6
CONTINUOUS
 62
   210
 10
29.4557857513428
 20
3.99993896484375
 30
0.0
 11
26.9557991027832
 21
1.49995422363281
 31
0.0
  0
LINE
  5
    61
  8
0
  6
CONTINUOUS
 62
   210
 10
33.6984252929688
 20
3.99993896484375
 30
0.0
 11
31.1984405517578
 21
1.49995422363281
 31
0.0
  0
LINE
  5
    62
  8
0
  6
CONTINUOUS
 62
   210
 10
37.9410629272461
 20
3.99993896484375
 30
0.0
 11
35.4410781860352
 21
1.49995422363281
 31
0.0
  0
LINE
  5
    63
  8
0
  6
CONTINUOUS
 62
   210
 10
42.1837005615234
 20
3.99993896484375
 30
0.0
 11
39.6837158203125
 21
1.49995422363281
 31
0.0
  0
LINE
  5
    64
  8
0
  6
CONTINUOUS
 62
   210
 10
46.4263381958008
 20
3.99993896484375
 30
0.0
 11
43.9263534545898
 21
1.49995422363281
 31
0.0
  0
LINE
  5
    65
  8
0
  6
CONTINUOUS
 62
   210
 10
50.6689758300781
 20
3.99993896484375
 30
0.0
 11
48.1689910888672
 21
1.49995422363281
 31
0.0
  0
ENDBLK
  5
    66
  8
0
  6
CONTINUOUS
 62
    98
  0
BLOCK
  5
    67
  8
0
  6
CONTINUOUS
 62
     7
  2
*HATCH59
 70
    65
 10
0.0
 20
0.0
 30
0.0
  3
*HATCH59
  0
LINE
  5
    68
  8
0
  6
CONTINUOUS
 62
   210
 10
50.8859062194824
 20
86.9999389648438
 30
0.0
 11
53.7202682495117
 21
84.1655731201172
 31
0.0
  0
ENDBLK
  5
    69
  8
0
  6
CONTINUOUS
 62
     7
  0
BLOCK
  5
    6A
  8
0
  6
CONTINUOUS
 62
     7
  2
*HATCH60
 70
    65
 10
0.0
 20
0.0
 30
0.0
  3
*HATCH60
  0
LINE
  5
    6B
  8
0
  6
CONTINUOUS
 62
   210
 10
49.0588188171387
 20
82.9999389648438
 30
0.0
 11
46.0588188171387
 21
79.9999389648438
 31
0.0
  0
LINE
  5
    6C
  8
0
  6
CONTINUOUS
 62
   210
 10
53.301456451416
 20
82.9999389648438
 30
0.0
 11
50.301456451416
 21
79.9999389648438
 31
0.0
  0
LINE
  5
    6D
  8
0
  6
CONTINUOUS
 62
   210
 10
54.7202682495117
 20
80.1761016845703
 30
0.0
 11
54.5440979003906
 21
79.9999389648438
 31
0.0
  0
ENDBLK
  5
    6E
  8
0
  6
CONTINUOUS
 62
     7
  0
BLOCK
  5
    6F
  8
0
  6
CONTINUOUS
 62
     7
  2
*HATCH61
 70
    65
 10
0.0
 20
0.0
 30
0.0
  3
*HATCH61
  0
LINE
  5
    70
  8
0
  6
CONTINUOUS
 62
   210
 10
34.2095756530762
 20
82.9999389648438
 30
0.0
 11
31.7370738983154
 21
80.5274353027344
 31
0.0
  0
LINE
  5
    71
  8
0
  6
CONTINUOUS
 62
   210
 10
36.6370620727539
 20
81.1847839355469
 30
0.0
 11
33.4522171020508
 21
77.9999389648438
 31
0.0
  0
ENDBLK
  5
    72
  8
0
  6
CONTINUOUS
 62
     7
  0
BLOCK
  5
    73
  8
0
  6
CONTINUOUS
 62
     7
  2
*HATCH62
 70
    65
 10
0.0
 20
0.0
 30
0.0
  3
*HATCH62
  0
LINE
  5
    74
  8
0
  6
CONTINUOUS
 62
   210
 10
48.1801414489746
 20
79.9999389648438
 30
0.0
 11
46.1801376342773
 21
77.9999389648438
 31
0.0
  0
LINE
  5
    75
  8
0
  6
CONTINUOUS
 62
   210
 10
52.422779083252
 20
79.9999389648438
 30
0.0
 11
50.4227752685547
 21
77.9999389648438
 31
0.0
  0
ENDBLK
  5
    76
  8
0
  6
CONTINUOUS
 62
     7
  0
BLOCK
  5
    77
  8
0
  6
CONTINUOUS
 62
     7
  2
*HATCH63
 70
    65
 10
0.0
 20
0.0
 30
0.0
  3
*HATCH63
  0
LINE
  5
    78
  8
0
  6
CONTINUOUS
 62
   210
 10
276.040100097656
 20
82.9999389648438
 30
0.0
 11
272.937072753906
 21
79.8968963623047
 31
0.0
  0
LINE
  5
    79
  8
0
  6
CONTINUOUS
 62
   210
 10
277.737060546875
 20
80.4542541503906
 30
0.0
 11
275.282745361328
 21
77.9999389648438
 31
0.0
  0
ENDBLK
  5
    7A
  8
0
  6
CONTINUOUS
 62
     7
  0
BLOCK
  5
    7B
  8
0
  6
CONTINUOUS
 62
     7
  2
*HATCH64
 70
    65
 10
0.0
 20
0.0
 30
0.0
  3
*HATCH64
  0
LINE
  5
    7C
  8
0
  6
CONTINUOUS
 62
    52
 10
169.948226928711
 20
-4.00005149841309
 30
0.0
 11
167.948226928711
 21
-6.00005149841309
 31
0.0
  0
LINE
  5
    7D
  8
0
  6
CONTINUOUS
 62
    52
 10
174.190872192383
 20
-4.00005149841309
 30
0.0
 11
172.190872192383
 21
-6.00005149841309
 31
0.0
  0
LINE
  5
    7E
  8
0
  6
CONTINUOUS
 62
    52
 10
177.480621337891
 20
-4.95293474197388
 30
0.0
 11
176.433502197266
 21
-6.00005149841309
 31
0.0
  0
ENDBLK
  5
    7F
  8
0
  6
CONTINUOUS
 62
     7
  0
BLOCK
  5
    80
  8
0
  6
CONTINUOUS
 62
     7
  2
*HATCH65
 70
    65
 10
0.0
 20
0.0
 30
0.0
  3
*HATCH65
  0
LINE
  5
    81
  8
0
  6
CONTINUOUS
 62
    52
 10
44.7903175354004
 20
-4.00005149841309
 30
0.0
 11
42.7903175354004
 21
-6.00005149841309
 31
0.0
  0
LINE
  5
    82
  8
0
  6
CONTINUOUS
 62
    52
 10
49.0329551696777
 20
-4.00005149841309
 30
0.0
 11
47.0329551696777
 21
-6.00005149841309
 31
0.0
  0
LINE
  5
    83
  8
0
  6
CONTINUOUS
 62
    52
 10
53.2755928039551
 20
-4.00005149841309
 30
0.0
 11
51.2755928039551
 21
-6.00005149841309
 31
0.0
  0
ENDBLK
  5
    84
  8
0
  6
CONTINUOUS
 62
     7
  0
BLOCK
  5
    85
  8
0
  6
CONTINUOUS
 62
     7
  2
*HATCH66
 70
    65
 10
0.0
 20
0.0
 30
0.0
  3
*HATCH66
  0
LINE
  5
    86
  8
0
  6
CONTINUOUS
 62
    52
 10
-6.12137222290039
 20
-4.00005149841309
 30
0.0
 11
-8.12137222290039
 21
-6.00005149841309
 31
0.0
  0
LINE
  5
    87
  8
0
  6
CONTINUOUS
 62
    52
 10
-1.87873101234436
 20
-4.00005149841309
 30
0.0
 11
-3.8787317276001
 21
-6.00005149841309
 31
0.0
  0
LINE
  5
    88
  8
0
  6
CONTINUOUS
 62
    52
 10
2.36390995979309
 20
-4.00005149841309
 30
0.0
 11
0.363908767700195
 21
-6.00005149841309
 31
0.0
  0
LINE
  5
    89
  8
0
  6
CONTINUOUS
 62
    52
 10
6.60655117034912
 20
-4.00005149841309
 30
0.0
 11
4.60654926300049
 21
-6.00005149841309
 31
0.0
  0
LINE
  5
    8A
  8
0
  6
CONTINUOUS
 62
    52
 10
10.8491926193237
 20
-4.00005149841309
 30
0.0
 11
8.84918975830078
 21
-6.00005149841309
 31
0.0
  0
LINE
  5
    8B
  8
0
  6
CONTINUOUS
 62
    52
 10
15.0918340682983
 20
-4.00005149841309
 30
0.0
 11
13.0918312072754
 21
-6.00005149841309
 31
0.0
  0
LINE
  5
    8C
  8
0
  6
CONTINUOUS
 62
    52
 10
19.3344745635986
 20
-4.00005149841309
 30
0.0
 11
17.33447265625
 21
-6.00005149841309
 31
0.0
  0
LINE
  5
    8D
  8
0
  6
CONTINUOUS
 62
    52
 10
23.5771160125732
 20
-4.00005149841309
 30
0.0
 11
21.5771141052246
 21
-6.00005149841309
 31
0.0
  0
LINE
  5
    8E
  8
0
  6
CONTINUOUS
 62
    52
 10
27.8197574615479
 20
-4.00005149841309
 30
0.0
 11
25.8197555541992
 21
-6.00005149841309
 31
0.0
  0
LINE
  5
    8F
  8
0
  6
CONTINUOUS
 62
    52
 10
32.0623970031738
 20
-4.00005149841309
 30
0.0
 11
30.0623970031738
 21
-6.00005149841309
 31
0.0
  0
LINE
  5
    90
  8
0
  6
CONTINUOUS
 62
    52
 10
35.4806251525879
 20
-4.82446241378784
 30
0.0
 11
34.3050346374512
 21
-6.00005149841309
 31
0.0
  0
ENDBLK
  5
    91
  8
0
  6
CONTINUOUS
 62
     7
  0
BLOCK
  5
    92
  8
0
  6
CONTINUOUS
 62
    98
  2
*HATCH67
 70
    65
 10
0.0
 20
0.0
 30
0.0
  3
*HATCH67
  0
LINE
  5
    93
  8
0
  6
CONTINUOUS
 62
     3
 10
276.738586425781
 20
53.9999389648438
 30
0.0
 11
274.737060546875
 21
51.9984092712402
 31
0.0
  0
LINE
  5
    94
  8
0
  6
CONTINUOUS
 62
     3
 10
278.737060546875
 20
53.8770904541016
 30
0.0
 11
274.859893798828
 21
49.9999389648438
 31
0.0
  0
LINE
  5
    95
  8
0
  6
CONTINUOUS
 62
     3
 10
278.737060546875
 20
51.7557678222656
 30
0.0
 11
276.981231689453
 21
49.9999389648438
 31
0.0
  0
ENDBLK
  5
    96
  8
0
  6
CONTINUOUS
 62
    98
  0
BLOCK
  5
    97
  8
0
  6
CONTINUOUS
 62
    98
  2
*HATCH68
 70
    65
 10
0.0
 20
0.0
 30
0.0
  3
*HATCH68
  0
LINE
  5
    98
  8
0
  6
CONTINUOUS
 62
     3
 10
260.828704833984
 20
53.9999389648438
 30
0.0
 11
258.737060546875
 21
51.9083137512207
 31
0.0
  0
LINE
  5
    99
  8
0
  6
CONTINUOUS
 62
     3
 10
262.737060546875
 20
53.786994934082
 30
0.0
 11
258.950012207031
 21
49.9999389648438
 31
0.0
  0
LINE
  5
    9A
  8
0
  6
CONTINUOUS
 62
     3
 10
262.737060546875
 20
51.6656723022461
 30
0.0
 11
261.071350097656
 21
49.9999389648438
 31
0.0
  0
ENDBLK
  5
    9B
  8
0
  6
CONTINUOUS
 62
    98
  0
BLOCK
  5
    9C
  8
0
  6
CONTINUOUS
 62
    98
  2
*HATCH69
 70
    65
 10
0.0
 20
0.0
 30
0.0
  3
*HATCH69
  0
LINE
  5
    9D
  8
0
  6
CONTINUOUS
 62
     3
 10
260.508880615234
 20
85.4999389648438
 30
0.0
 11
258.737060546875
 21
83.7281188964844
 31
0.0
  0
LINE
  5
    9E
  8
0
  6
CONTINUOUS
 62
     3
 10
262.630218505859
 20
85.4999389648438
 30
0.0
 11
260.130218505859
 21
82.9999389648438
 31
0.0
  0
LINE
  5
    9F
  8
0
  6
CONTINUOUS
 62
     3
 10
264.751556396484
 20
85.4999389648438
 30
0.0
 11
262.251556396484
 21
82.9999389648438
 31
0.0
  0
LINE
  5
    A0
  8
0
  6
CONTINUOUS
 62
     3
 10
266.178100585938
 20
84.8052139282227
 30
0.0
 11
264.372833251953
 21
82.9999389648438
 31
0.0
  0
LINE
  5
    A1
  8
0
  6
CONTINUOUS
 62
     3
 10
266.751556396484
 20
83.2573471069336
 30
0.0
 11
265.042633056641
 21
81.5484008789062
 31
0.0
  0
LINE
  5
    A2
  8
0
  6
CONTINUOUS
 62
     3
 10
267.272399902344
 20
81.6568603515625
 30
0.0
 11
265.882659912109
 21
80.2671203613281
 31
0.0
  0
LINE
  5
    A3
  8
0
  6
CONTINUOUS
 62
     3
 10
267.897186279297
 20
81.2209930419922
 30
0.0
 11
266.421783447266
 21
79.7455902099609
 31
0.0
  0
LINE
  5
    A4
  8
0
  6
CONTINUOUS
 62
     3
 10
268.767669677734
 20
81.0308151245117
 30
0.0
 11
267.124450683594
 21
79.3875732421875
 31
0.0
  0
LINE
  5
    A5
  8
0
  6
CONTINUOUS
 62
     3
 10
275.358123779297
 20
85.4999389648438
 30
0.0
 11
272.858123779297
 21
82.9999389648438
 31
0.0
  0
LINE
  5
    A6
  8
0
  6
CONTINUOUS
 62
     3
 10
276.418792724609
 20
85.4999389648438
 30
0.0
 11
273.918792724609
 21
82.9999389648438
 31
0.0
  0
LINE
  5
    A7
  8
0
  6
CONTINUOUS
 62
     3
 10
277.479431152344
 20
85.4999389648438
 30
0.0
 11
274.979431152344
 21
82.9999389648438
 31
0.0
  0
LINE
  5
    A8
  8
0
  6
CONTINUOUS
 62
     3
 10
278.737060546875
 20
84.6362380981445
 30
0.0
 11
277.100769042969
 21
82.9999389648438
 31
0.0
  0
ENDBLK
  5
    A9
  8
0
  6
CONTINUOUS
 62
    98
  0
BLOCK
  5
    AA
  8
0
  6
CONTINUOUS
 62
     1
  2
*HATCH70
 70
    65
 10
0.0
 20
0.0
 30
0.0
  3
*HATCH70
  0
LINE
  5
    AB
  8
0
  6
CONTINUOUS
 62
   210
 10
48.301456451416
 20
77.9999389648438
 30
0.0
 11
44.737060546875
 21
74.4355392456055
 31
0.0
  0
LINE
  5
    AC
  8
0
  6
CONTINUOUS
 62
   210
 10
49.737060546875
 20
75.1928939819336
 30
0.0
 11
44.737060546875
 21
70.1929016113281
 31
0.0
  0
LINE
  5
    AD
  8
0
  6
CONTINUOUS
 62
   210
 10
49.737060546875
 20
70.9502487182617
 30
0.0
 11
44.737060546875
 21
65.9502563476563
 31
0.0
  0
LINE
  5
    AE
  8
0
  6
CONTINUOUS
 62
   210
 10
49.737060546875
 20
66.7076187133789
 30
0.0
 11
46.0293807983398
 21
62.9999389648438
 31
0.0
  0
ENDBLK
  5
    AF
  8
0
  6
CONTINUOUS
 62
     1
  0
BLOCK
  5
    B0
  8
0
  6
CONTINUOUS
 62
     1
  2
*HATCH71
 70
    65
 10
0.0
 20
0.0
 30
0.0
  3
*HATCH71
  0
LINE
  5
    B1
  8
0
  6
CONTINUOUS
 62
   210
 10
29.9669361114502
 20
82.9999389648438
 30
0.0
 11
27.237060546875
 21
80.2700653076172
 31
0.0
  0
LINE
  5
    B2
  8
0
  6
CONTINUOUS
 62
   210
 10
30.237060546875
 20
79.0274200439453
 30
0.0
 11
27.237060546875
 21
76.0274200439453
 31
0.0
  0
LINE
  5
    B3
  8
0
  6
CONTINUOUS
 62
   210
 10
33.4522171020508
 20
77.9999389648438
 30
0.0
 11
27.237060546875
 21
71.784782409668
 31
0.0
  0
LINE
  5
    B4
  8
0
  6
CONTINUOUS
 62
   210
 10
36.737060546875
 20
77.0421447753906
 30
0.0
 11
27.237060546875
 21
67.5421447753906
 31
0.0
  0
LINE
  5
    B5
  8
0
  6
CONTINUOUS
 62
   210
 10
36.737060546875
 20
72.7994995117188
 30
0.0
 11
27.237060546875
 21
63.299503326416
 31
0.0
  0
LINE
  5
    B6
  8
0
  6
CONTINUOUS
 62
   210
 10
36.737060546875
 20
68.5568618774414
 30
0.0
 11
31.180139541626
 21
62.9999389648438
 31
0.0
  0
LINE
  5
    B7
  8
0
  6
CONTINUOUS
 62
   210
 10
36.737060546875
 20
64.3142166137695
 30
0.0
 11
35.422779083252
 21
62.9999389648438
 31
0.0
  0
ENDBLK
  5
    B8
  8
0
  6
CONTINUOUS
 62
     1
  0
BLOCK
  5
    B9
  8
0
  6
CONTINUOUS
 62
     1
  2
*HATCH72
 70
    65
 10
0.0
 20
0.0
 30
0.0
  3
*HATCH72
  0
LINE
  5
    BA
  8
0
  6
CONTINUOUS
 62
   210
 10
3.48165249824524
 20
64.9999389648438
 30
0.0
 11
1.48165237903595
 21
62.9999389648438
 31
0.0
  0
LINE
  5
    BB
  8
0
  6
CONTINUOUS
 62
   210
 10
7.72429370880127
 20
64.9999389648438
 30
0.0
 11
5.72429370880127
 21
62.9999389648438
 31
0.0
  0
LINE
  5
    BC
  8
0
  6
CONTINUOUS
 62
   210
 10
11.237060546875
 20
64.2700653076172
 30
0.0
 11
9.96693420410156
 21
62.9999389648438
 31
0.0
  0
ENDBLK
  5
    BD
  8
0
  6
CONTINUOUS
 62
     1
  0
BLOCK
  5
    BE
  8
0
  6
CONTINUOUS
 62
     1
  2
*HATCH73
 70
    65
 10
0.0
 20
0.0
 30
0.0
  3
*HATCH73
  0
LINE
  5
    BF
  8
0
  6
CONTINUOUS
 62
   210
 10
2.38977003097534
 20
82.9999389648438
 30
0.0
 11
0.389769941568375
 21
80.9999389648438
 31
0.0
  0
LINE
  5
    C0
  8
0
  6
CONTINUOUS
 62
   210
 10
6.63241100311279
 20
82.9999389648438
 30
0.0
 11
4.63241100311279
 21
80.9999389648438
 31
0.0
  0
LINE
  5
    C1
  8
0
  6
CONTINUOUS
 62
   210
 10
10.8750524520874
 20
82.9999389648438
 30
0.0
 11
8.8750524520874
 21
80.9999389648438
 31
0.0
  0
ENDBLK
  5
    C2
  8
0
  6
CONTINUOUS
 62
     1
  0
BLOCK
  5
    C3
  8
0
  6
CONTINUOUS
 62
   218
  2
*HATCH74
 70
    65
 10
0.0
 20
0.0
 30
0.0
  3
*HATCH74
  0
LINE
  5
    C4
  8
0
  6
CONTINUOUS
 62
     3
 10
-70.4023208618164
 20
252.038360595703
 30
0.0
 11
-72.2455978393555
 21
250.195083618164
 31
0.0
  0
LINE
  5
    C5
  8
0
  6
CONTINUOUS
 62
     3
 10
-69.0759735107422
 20
252.304061889648
 30
0.0
 11
-71.8744277954102
 21
249.505599975586
 31
0.0
  0
LINE
  5
    C6
  8
0
  6
CONTINUOUS
 62
     3
 10
-68.0004959106445
 20
252.318878173828
 30
0.0
 11
-71.2877426147461
 21
249.031631469727
 31
0.0
  0
LINE
  5
    C7
  8
0
  6
CONTINUOUS
 62
     3
 10
-67.0423049926758
 20
252.216400146484
 30
0.0
 11
-70.5405578613281
 21
248.718139648438
 31
0.0
  0
LINE
  5
    C8
  8
0
  6
CONTINUOUS
 62
     3
 10
-66.1708908081055
 20
252.027160644531
 30
0.0
 11
-69.6915588378906
 21
248.506484985352
 31
0.0
  0
LINE
  5
    C9
  8
0
  6
CONTINUOUS
 62
     3
 10
-65.423713684082
 20
251.713668823242
 30
0.0
 11
-68.7577438354492
 21
248.379638671875
 31
0.0
  0
LINE
  5
    CA
  8
0
  6
CONTINUOUS
 62
     3
 10
-64.8103408813477
 20
251.266387939453
 30
0.0
 11
-67.6970825195313
 21
248.379638671875
 31
0.0
  0
LINE
  5
    CB
  8
0
  6
CONTINUOUS
 62
     3
 10
-64.3956069946289
 20
250.620452880859
 30
0.0
 11
-66.4208602905273
 21
248.595199584961
 31
0.0
  0
ENDBLK
  5
    CC
  8
0
  6
CONTINUOUS
 62
   218
  0
BLOCK
  5
    CD
  8
0
  6
CONTINUOUS
 62
     7
  2
CAVO
 70
    64
 10
0.0
 20
0.0
 30
0.0
  3
CAVO
  0
LINE
  5
    CE
  8
0
  6
CONTINUOUS
 62
   218
 10
-58.099964209298
 20
208.737096448575
 30
0.0
 11
-58.099964209298
 21
231.737096448575
 31
0.0
  0
LINE
  5
    CF
  8
0
  6
CONTINUOUS
 62
   218
 10
-70.499964209298
 20
208.737096448575
 30
0.0
 11
-70.499964209298
 21
231.737096448575
 31
0.0
  0
LINE
  5
    D0
  8
0
  6
CONTINUOUS
 62
   218
 10
-70.499964209298
 20
208.737096448575
 30
0.0
 11
-58.099964209298
 21
208.737096448575
 31
0.0
  0
LINE
  5
    D1
  8
0
  6
CONTINUOUS
 62
   218
 10
-72.299964209298
 20
231.737096448575
 30
0.0
 11
-56.299964209298
 21
231.737096448575
 31
0.0
  0
LINE
  5
    D2
  8
0
  6
DASHDOT
 62
   218
 10
-64.299964209298
 20
203.675830579354
 30
0.0
 11
-64.299964209298
 21
252.349255591
 31
0.0
  0
LINE
  5
    D3
  8
0
  6
CONTINUOUS
 62
   218
 10
-72.299964209298
 20
231.737096448575
 30
0.0
 11
-72.299964209298
 21
250.349255591
 31
0.0
  0
LINE
  5
    D4
  8
0
  6
CONTINUOUS
 62
   218
 10
-56.299964209298
 20
231.737096448575
 30
0.0
 11
-56.299964209298
 21
250.349255591
 31
0.0
  0
LINE
  5
    D5
  8
0
  6
CONTINUOUS
 62
   218
 10
-64.299964209298
 20
208.737096448575
 30
0.0
 11
-60.2444436530033
 21
231.737096448575
 31
0.0
  0
POLYLINE
  5
    D6
  8
0
  6
CONTINUOUS
 62
   218
 66
     1
 10
0.0
 20
0.0
 30
0.0
 70
     1
  0
VERTEX
  5
    D7
  8
0
  6
CONTINUOUS
 10
-72.299964209298
 20
250.34925559099
 30
0.0
 40
0.0
 41
0.0
  0
VERTEX
  5
    D8
  8
0
  6
CONTINUOUS
 10
-72.2987594840827
 20
250.300173133944
 30
0.0
 40
0.0
 41
0.0
  0
VERTEX
  5
    D9
  8
0
  6
CONTINUOUS
 10
-72.2951460341185
 20
250.251120242335
 30
0.0
 40
0.0
 41
0.0
  0
VERTEX
  5
    DA
  8
0
  6
CONTINUOUS
 10
-72.2891260360124
 20
250.20212646379
 30
0.0
 40
0.0
 41
0.0
  0
VERTEX
  5
    DB
  8
0
  6
CONTINUOUS
 10
-72.2807031159863
 20
250.153221310331
 30
0.0
 40
0.0
 41
0.0
  0
VERTEX
  5
    DC
  8
0
  6
CONTINUOUS
 10
-72.2698823476922
 20
250.104434240591
 30
0.0
 40
0.0
 41
0.0
  0
VERTEX
  5
    DD
  8
0
  6
CONTINUOUS
 10
-72.2566702491564
 20
250.055794642079
 30
0.0
 40
0.0
 41
0.0
  0
VERTEX
  5
    DE
  8
0
  6
CONTINUOUS
 10
-72.2410747788529
 20
250.007331813469
 30
0.0
 40
0.0
 41
0.0
  0
VERTEX
  5
    DF
  8
0
  6
CONTINUOUS
 10
-72.22310533091
 20
249.959074946958
 30
0.0
 40
0.0
 41
0.0
  0
VERTEX
  5
    E0
  8
0
  6
CONTINUOUS
 10
-72.202772729451
 20
249.911053110676
 30
0.0
 40
0.0
 41
0.0
  0
VERTEX
  5
    E1
  8
0
  6
CONTINUOUS
 10
-72.180089222075
 20
249.863295231183
 30
0.0
 40
0.0
 41
0.0
  0
VERTEX
  5
    E2
  8
0
  6
CONTINUOUS
 10
-72.1550684724784
 20
249.81583007604
 30
0.0
 40
0.0
 41
0.0
  0
VERTEX
  5
    E3
  8
0
  6
CONTINUOUS
 10
-72.1277255522254
 20
249.768686236481
 30
0.0
 40
0.0
 41
0.0
  0
VERTEX
  5
    E4
  8
0
  6
CONTINUOUS
 10
-72.0980769316686
 20
249.721892110192
 30
0.0
 40
0.0
 41
0.0
  0
VERTEX
  5
    E5
  8
0
  6
CONTINUOUS
 10
-72.0661404700284
 20
249.675475884206
 30
0.0
 40
0.0
 41
0.0
  0
VERTEX
  5
    E6
  8
0
  6
CONTINUOUS
 10
-72.0319354046352
 20
249.62946551792
 30
0.0
 40
0.0
 41
0.0
  0
VERTEX
  5
    E7
  8
0
  6
CONTINUOUS
 10
-71.9954823393412
 20
249.58388872626
 30
0.0
 40
0.0
 41
0.0
  0
VERTEX
  5
    E8
  8
0
  6
CONTINUOUS
 10
-71.9159213817896
 20
249.49414540413
 30
0.0
 40
0.0
 41
0.0
  0
VERTEX
  5
    E9
  8
0
  6
CONTINUOUS
 10
-71.8276492666891
 20
249.406462117339
 30
0.0
 40
0.0
 41
0.0
  0
VERTEX
  5
    EA
  8
0
  6
CONTINUOUS
 10
-71.7308786492965
 20
249.321050102605
 30
0.0
 40
0.0
 41
0.0
  0
VERTEX
  5
    EB
  8
0
  6
CONTINUOUS
 10
-71.6258426585054
 20
249.238115124952
 30
0.0
 40
0.0
 41
0.0
  0
VERTEX
  5
    EC
  8
0
  6
CONTINUOUS
 10
-71.5127943352176
 20
249.157856982007
 30
0.0
 40
0.0
 41
0.0
  0
VERTEX
  5
    ED
  8
0
  6
CONTINUOUS
 10
-71.3920060227458
 20
249.080469022665
 30
0.0
 40
0.0
 41
0.0
  0
VERTEX
  5
    EE
  8
0
  6
CONTINUOUS
 10
-71.2637687107145
 20
249.006137681298
 30
0.0
 40
0.0
 41
0.0
  0
VERTEX
  5
    EF
  8
0
  6
CONTINUOUS
 10
-71.1283913340406
 20
248.93504202862
 30
0.0
 40
0.0
 41
0.0
  0
VERTEX
  5
    F0
  8
0
  6
CONTINUOUS
 10
-70.9862000286824
 20
248.867353340283
 30
0.0
 40
0.0
 41
0.0
  0
VERTEX
  5
    F1
  8
0
  6
CONTINUOUS
 10
-70.8375373459487
 20
248.803234684268
 30
0.0
 40
0.0
 41
0.0
  0
VERTEX
  5
    F2
  8
0
  6
CONTINUOUS
 10
-70.6827614272637
 20
248.742840528032
 30
0.0
 40
0.0
 41
0.0
  0
VERTEX
  5
    F3
  8
0
  6
CONTINUOUS
 10
-70.5222451413722
 20
248.686316366389
 30
0.0
 40
0.0
 41
0.0
  0
VERTEX
  5
    F4
  8
0
  6
CONTINUOUS
 10
-70.3563751860666
 20
248.633798370994
 30
0.0
 40
0.0
 41
0.0
  0
VERTEX
  5
    F5
  8
0
  6
CONTINUOUS
 10
-70.1855511565976
 20
248.585413062298
 30
0.0
 40
0.0
 41
0.0
  0
VERTEX
  5
    F6
  8
0
  6
CONTINUOUS
 10
-70.0101845830146
 20
248.541277004749
 30
0.0
 40
0.0
 41
0.0
  0
VERTEX
  5
    F7
  8
0
  6
CONTINUOUS
 10
-69.8306979387537
 20
248.501496525973
 30
0.0
 40
0.0
 41
0.0
  0
VERTEX
  5
    F8
  8
0
  6
CONTINUOUS
 10
-69.6475236228622
 20
248.46616746063
 30
0.0
 40
0.0
 41
0.0
  0
VERTEX
  5
    F9
  8
0
  6
CONTINUOUS
 10
-69.4611029183111
 20
248.435374919532
 30
0.0
 40
0.0
 41
0.0
  0
VERTEX
  5
    FA
  8
0
  6
CONTINUOUS
 10
-69.2718849289062
 20
248.409193084608
 30
0.0
 40
0.0
 41
0.0
  0
VERTEX
  5
    FB
  8
0
  6
CONTINUOUS
 10
-69.0803254973576
 20
248.387685030191
 30
0.0
 40
0.0
 41
0.0
  0
VERTEX
  5
    FC
  8
0
  6
CONTINUOUS
 10
-68.8868861071145
 20
248.370902571069
 30
0.0
 40
0.0
 41
0.0
  0
VERTEX
  5
    FD
  8
0
  6
CONTINUOUS
 10
-68.6920327706112
 20
248.358886137654
 30
0.0
 40
0.0
 41
0.0
  0
VERTEX
  5
    FE
  8
0
  6
CONTINUOUS
 10
-68.4962349066027
 20
248.351664678589
 30
0.0
 40
0.0
 41
0.0
  0
VERTEX
  5
    FF
  8
0
  6
CONTINUOUS
 10
-68.299964209293
 20
248.349255591
 30
0.0
 40
0.0
 41
0.0
  0
VERTEX
  5
   100
  8
0
  6
CONTINUOUS
 10
-68.1036935119833
 20
248.35166467859
 30
0.0
 40
0.0
 41
0.0
  0
VERTEX
  5
   101
  8
0
  6
CONTINUOUS
 10
-67.9078956479748
 20
248.358886137656
 30
0.0
 40
0.0
 41
0.0
  0
VERTEX
  5
   102
  8
0
  6
CONTINUOUS
 10
-67.7130423114716
 20
248.370902571072
 30
0.0
 40
0.0
 41
0.0
  0
VERTEX
  5
   103
  8
0
  6
CONTINUOUS
 10
-67.5196029212286
 20
248.387685030195
 30
0.0
 40
0.0
 41
0.0
  0
VERTEX
  5
   104
  8
0
  6
CONTINUOUS
 10
-67.3280434896801
 20
248.409193084613
 30
0.0
 40
0.0
 41
0.0
  0
VERTEX
  5
   105
  8
0
  6
CONTINUOUS
 10
-67.1388255002754
 20
248.435374919538
 30
0.0
 40
0.0
 41
0.0
  0
VERTEX
  5
   106
  8
0
  6
CONTINUOUS
 10
-66.9524047957244
 20
248.466167460637
 30
0.0
 40
0.0
 41
0.0
  0
VERTEX
  5
   107
  8
0
  6
CONTINUOUS
 10
-66.769230479833
 20
248.501496525981
 30
0.0
 40
0.0
 41
0.0
  0
VERTEX
  5
   108
  8
0
  6
CONTINUOUS
 10
-66.5897438355723
 20
248.541277004757
 30
0.0
 40
0.0
 41
0.0
  0
VERTEX
  5
   109
  8
0
  6
CONTINUOUS
 10
-66.4143772619896
 20
248.585413062308
 30
0.0
 40
0.0
 41
0.0
  0
VERTEX
  5
   10A
  8
0
  6
CONTINUOUS
 10
-66.2435532325208
 20
248.633798371004
 30
0.0
 40
0.0
 41
0.0
  0
VERTEX
  5
   10B
  8
0
  6
CONTINUOUS
 10
-66.0776832772154
 20
248.6863163664
 30
0.0
 40
0.0
 41
0.0
  0
VERTEX
  5
   10C
  8
0
  6
CONTINUOUS
 10
-65.9171669913242
 20
248.742840528044
 30
0.0
 40
0.0
 41
0.0
  0
VERTEX
  5
   10D
  8
0
  6
CONTINUOUS
 10
-65.7623910726396
 20
248.803234684281
 30
0.0
 40
0.0
 41
0.0
  0
VERTEX
  5
   10E
  8
0
  6
CONTINUOUS
 10
-65.6137283899062
 20
248.867353340297
 30
0.0
 40
0.0
 41
0.0
  0
VERTEX
  5
   10F
  8
0
  6
CONTINUOUS
 10
-65.4715370845483
 20
248.935042028634
 30
0.0
 40
0.0
 41
0.0
  0
VERTEX
  5
   110
  8
0
  6
CONTINUOUS
 10
-65.3361597078748
 20
249.006137681313
 30
0.0
 40
0.0
 41
0.0
  0
VERTEX
  5
   111
  8
0
  6
CONTINUOUS
 10
-65.2079223958439
 20
249.08046902268
 30
0.0
 40
0.0
 41
0.0
  0
VERTEX
  5
   112
  8
0
  6
CONTINUOUS
 10
-65.0871340833724
 20
249.157856982023
 30
0.0
 40
0.0
 41
0.0
  0
VERTEX
  5
   113
  8
0
  6
CONTINUOUS
 10
-64.974085760085
 20
249.238115124969
 30
0.0
 40
0.0
 41
0.0
  0
VERTEX
  5
   114
  8
0
  6
CONTINUOUS
 10
-64.8690497692943
 20
249.321050102622
 30
0.0
 40
0.0
 41
0.0
  0
VERTEX
  5
   115
  8
0
  6
CONTINUOUS
 10
-64.7722791519022
 20
249.406462117357
 30
0.0
 40
0.0
 41
0.0
  0
VERTEX
  5
   116
  8
0
  6
CONTINUOUS
 10
-64.6840070368021
 20
249.494145404148
 30
0.0
 40
0.0
 41
0.0
  0
VERTEX
  5
   117
  8
0
  6
CONTINUOUS
 10
-64.604446079251
 20
249.583888726279
 30
0.0
 40
0.0
 41
0.0
  0
VERTEX
  5
   118
  8
0
  6
CONTINUOUS
 10
-64.5679930139573
 20
249.629465517939
 30
0.0
 40
0.0
 41
0.0
  0
VERTEX
  5
   119
  8
0
  6
CONTINUOUS
 10
-64.5337879485642
 20
249.675475884225
 30
0.0
 40
0.0
 41
0.0
  0
VERTEX
  5
   11A
  8
0
  6
CONTINUOUS
 10
-64.5018514869243
 20
249.721892110211
 30
0.0
 40
0.0
 41
0.0
  0
VERTEX
  5
   11B
  8
0
  6
CONTINUOUS
 10
-64.4722028663677
 20
249.7686862365
 30
0.0
 40
0.0
 41
0.0
  0
VERTEX
  5
   11C
  8
0
  6
CONTINUOUS
 10
-64.4448599461149
 20
249.81583007606
 30
0.0
 40
0.0
 41
0.0
  0
VERTEX
  5
   11D
  8
0
  6
CONTINUOUS
 10
-64.4198391965186
 20
249.863295231203
 30
0.0
 40
0.0
 41
0.0
  0
VERTEX
  5
   11E
  8
0
  6
CONTINUOUS
 10
-64.3971556891428
 20
249.911053110696
 30
0.0
 40
0.0
 41
0.0
  0
VERTEX
  5
   11F
  8
0
  6
CONTINUOUS
 10
-64.3768230876841
 20
249.959074946977
 30
0.0
 40
0.0
 41
0.0
  0
VERTEX
  5
   120
  8
0
  6
CONTINUOUS
 10
-64.3588536397414
 20
250.007331813489
 30
0.0
 40
0.0
 41
0.0
  0
VERTEX
  5
   121
  8
0
  6
CONTINUOUS
 10
-64.3432581694382
 20
250.055794642099
 30
0.0
 40
0.0
 41
0.0
  0
VERTEX
  5
   122
  8
0
  6
CONTINUOUS
 10
-64.3300460709026
 20
250.104434240611
 30
0.0
 40
0.0
 41
0.0
  0
VERTEX
  5
   123
  8
0
  6
CONTINUOUS
 10
-64.3192253026087
 20
250.153221310351
 30
0.0
 40
0.0
 41
0.0
  0
VERTEX
  5
   124
  8
0
  6
CONTINUOUS
 10
-64.3108023825829
 20
250.20212646381
 30
0.0
 40
0.0
 41
0.0
  0
VERTEX
  5
   125
  8
0
  6
CONTINUOUS
 10
-64.3047823844771
 20
250.251120242355
 30
0.0
 40
0.0
 41
0.0
  0
VERTEX
  5
   126
  8
0
  6
CONTINUOUS
 10
-64.3011689345131
 20
250.300173133964
 30
0.0
 40
0.0
 41
0.0
  0
VERTEX
  5
   127
  8
0
  6
CONTINUOUS
 10
-64.299964209298
 20
250.34925559101
 30
0.0
 40
0.0
 41
0.0
  0
VERTEX
  5
   128
  8
0
  6
CONTINUOUS
 10
-64.3011689345133
 20
250.398338048056
 30
0.0
 40
0.0
 41
0.0
  0
VERTEX
  5
   129
  8
0
  6
CONTINUOUS
 10
-64.3047823844776
 20
250.447390939665
 30
0.0
 40
0.0
 41
0.0
  0
VERTEX
  5
   12A
  8
0
  6
CONTINUOUS
 10
-64.3108023825836
 20
250.496384718209
 30
0.0
 40
0.0
 41
0.0
  0
VERTEX
  5
   12B
  8
0
  6
CONTINUOUS
 10
-64.3192253026097
 20
250.545289871669
 30
0.0
 40
0.0
 41
0.0
  0
VERTEX
  5
   12C
  8
0
  6
CONTINUOUS
 10
-64.3300460709038
 20
250.594076941408
 30
0.0
 40
0.0
 41
0.0
  0
VERTEX
  5
   12D
  8
0
  6
CONTINUOUS
 10
-64.3432581694396
 20
250.64271653992
 30
0.0
 40
0.0
 41
0.0
  0
VERTEX
  5
   12E
  8
0
  6
CONTINUOUS
 10
-64.3588536397431
 20
250.69117936853
 30
0.0
 40
0.0
 41
0.0
  0
VERTEX
  5
   12F
  8
0
  6
CONTINUOUS
 10
-64.3768230876861
 20
250.739436235042
 30
0.0
 40
0.0
 41
0.0
  0
VERTEX
  5
   130
  8
0
  6
CONTINUOUS
 10
-64.397155689145
 20
250.787458071323
 30
0.0
 40
0.0
 41
0.0
  0
VERTEX
  5
   131
  8
0
  6
CONTINUOUS
 10
-64.4198391965211
 20
250.835215950816
 30
0.0
 40
0.0
 41
0.0
  0
VERTEX
  5
   132
  8
0
  6
CONTINUOUS
 10
-64.4448599461176
 20
250.882681105959
 30
0.0
 40
0.0
 41
0.0
  0
VERTEX
  5
   133
  8
0
  6
CONTINUOUS
 10
-64.4722028663706
 20
250.929824945518
 30
0.0
 40
0.0
 41
0.0
  0
VERTEX
  5
   134
  8
0
  6
CONTINUOUS
 10
-64.5018514869274
 20
250.976619071807
 30
0.0
 40
0.0
 41
0.0
  0
VERTEX
  5
   135
  8
0
  6
CONTINUOUS
 10
-64.5337879485676
 20
251.023035297794
 30
0.0
 40
0.0
 41
0.0
  0
VERTEX
  5
   136
  8
0
  6
CONTINUOUS
 10
-64.5679930139609
 20
251.069045664079
 30
0.0
 40
0.0
 41
0.0
  0
VERTEX
  5
   137
  8
0
  6
CONTINUOUS
 10
-64.6044460792548
 20
251.114622455739
 30
0.0
 40
0.0
 41
0.0
  0
VERTEX
  5
   138
  8
0
  6
CONTINUOUS
 10
-64.6840070368064
 20
251.204365777869
 30
0.0
 40
0.0
 41
0.0
  0
VERTEX
  5
   139
  8
0
  6
CONTINUOUS
 10
-64.772279151907
 20
251.292049064661
 30
0.0
 40
0.0
 41
0.0
  0
VERTEX
  5
   13A
  8
0
  6
CONTINUOUS
 10
-64.8690497692995
 20
251.377461079395
 30
0.0
 40
0.0
 41
0.0
  0
VERTEX
  5
   13B
  8
0
  6
CONTINUOUS
 10
-64.9740857600906
 20
251.460396057047
 30
0.0
 40
0.0
 41
0.0
  0
VERTEX
  5
   13C
  8
0
  6
CONTINUOUS
 10
-65.0871340833784
 20
251.540654199993
 30
0.0
 40
0.0
 41
0.0
  0
VERTEX
  5
   13D
  8
0
  6
CONTINUOUS
 10
-65.2079223958502
 20
251.618042159335
 30
0.0
 40
0.0
 41
0.0
  0
VERTEX
  5
   13E
  8
0
  6
CONTINUOUS
 10
-65.3361597078815
 20
251.692373500701
 30
0.0
 40
0.0
 41
0.0
  0
VERTEX
  5
   13F
  8
0
  6
CONTINUOUS
 10
-65.4715370845554
 20
251.76346915338
 30
0.0
 40
0.0
 41
0.0
  0
VERTEX
  5
   140
  8
0
  6
CONTINUOUS
 10
-65.6137283899137
 20
251.831157841716
 30
0.0
 40
0.0
 41
0.0
  0
VERTEX
  5
   141
  8
0
  6
CONTINUOUS
 10
-65.7623910726473
 20
251.895276497732
 30
0.0
 40
0.0
 41
0.0
  0
VERTEX
  5
   142
  8
0
  6
CONTINUOUS
 10
-65.9171669913323
 20
251.955670653967
 30
0.0
 40
0.0
 41
0.0
  0
VERTEX
  5
   143
  8
0
  6
CONTINUOUS
 10
-66.0776832772238
 20
252.01219481561
 30
0.0
 40
0.0
 41
0.0
  0
VERTEX
  5
   144
  8
0
  6
CONTINUOUS
 10
-66.2435532325294
 20
252.064712811005
 30
0.0
 40
0.0
 41
0.0
  0
VERTEX
  5
   145
  8
0
  6
CONTINUOUS
 10
-66.4143772619985
 20
252.113098119701
 30
0.0
 40
0.0
 41
0.0
  0
VERTEX
  5
   146
  8
0
  6
CONTINUOUS
 10
-66.5897438355814
 20
252.157234177251
 30
0.0
 40
0.0
 41
0.0
  0
VERTEX
  5
   147
  8
0
  6
CONTINUOUS
 10
-66.7692304798423
 20
252.197014656026
 30
0.0
 40
0.0
 41
0.0
  0
VERTEX
  5
   148
  8
0
  6
CONTINUOUS
 10
-66.9524047957339
 20
252.232343721369
 30
0.0
 40
0.0
 41
0.0
  0
VERTEX
  5
   149
  8
0
  6
CONTINUOUS
 10
-67.138825500285
 20
252.263136262467
 30
0.0
 40
0.0
 41
0.0
  0
VERTEX
  5
   14A
  8
0
  6
CONTINUOUS
 10
-67.3280434896898
 20
252.289318097391
 30
0.0
 40
0.0
 41
0.0
  0
VERTEX
  5
   14B
  8
0
  6
CONTINUOUS
 10
-67.5196029212384
 20
252.310826151808
 30
0.0
 40
0.0
 41
0.0
  0
VERTEX
  5
   14C
  8
0
  6
CONTINUOUS
 10
-67.7130423114815
 20
252.327608610931
 30
0.0
 40
0.0
 41
0.0
  0
VERTEX
  5
   14D
  8
0
  6
CONTINUOUS
 10
-67.9078956479848
 20
252.339625044345
 30
0.0
 40
0.0
 41
0.0
  0
VERTEX
  5
   14E
  8
0
  6
CONTINUOUS
 10
-68.1036935119934
 20
252.346846503411
 30
0.0
 40
0.0
 41
0.0
  0
VERTEX
  5
   14F
  8
0
  6
CONTINUOUS
 10
-68.299964209303
 20
252.349255591
 30
0.0
 40
0.0
 41
0.0
  0
VERTEX
  5
   150
  8
0
  6
CONTINUOUS
 10
-68.4962349066127
 20
252.34684650341
 30
0.0
 40
0.0
 41
0.0
  0
VERTEX
  5
   151
  8
0
  6
CONTINUOUS
 10
-68.6920327706213
 20
252.339625044343
 30
0.0
 40
0.0
 41
0.0
  0
VERTEX
  5
   152
  8
0
  6
CONTINUOUS
 10
-68.8868861071244
 20
252.327608610928
 30
0.0
 40
0.0
 41
0.0
  0
VERTEX
  5
   153
  8
0
  6
CONTINUOUS
 10
-69.0803254973675
 20
252.310826151804
 30
0.0
 40
0.0
 41
0.0
  0
VERTEX
  5
   154
  8
0
  6
CONTINUOUS
 10
-69.2718849289159
 20
252.289318097386
 30
0.0
 40
0.0
 41
0.0
  0
VERTEX
  5
   155
  8
0
  6
CONTINUOUS
 10
-69.4611029183207
 20
252.263136262461
 30
0.0
 40
0.0
 41
0.0
  0
VERTEX
  5
   156
  8
0
  6
CONTINUOUS
 10
-69.6475236228716
 20
252.232343721362
 30
0.0
 40
0.0
 41
0.0
  0
VERTEX
  5
   157
  8
0
  6
CONTINUOUS
 10
-69.830697938763
 20
252.197014656018
 30
0.0
 40
0.0
 41
0.0
  0
VERTEX
  5
   158
  8
0
  6
CONTINUOUS
 10
-70.0101845830237
 20
252.157234177242
 30
0.0
 40
0.0
 41
0.0
  0
VERTEX
  5
   159
  8
0
  6
CONTINUOUS
 10
-70.1855511566064
 20
252.113098119692
 30
0.0
 40
0.0
 41
0.0
  0
VERTEX
  5
   15A
  8
0
  6
CONTINUOUS
 10
-70.3563751860752
 20
252.064712810995
 30
0.0
 40
0.0
 41
0.0
  0
VERTEX
  5
   15B
  8
0
  6
CONTINUOUS
 10
-70.5222451413806
 20
252.012194815599
 30
0.0
 40
0.0
 41
0.0
  0
VERTEX
  5
   15C
  8
0
  6
CONTINUOUS
 10
-70.6827614272718
 20
251.955670653955
 30
0.0
 40
0.0
 41
0.0
  0
VERTEX
  5
   15D
  8
0
  6
CONTINUOUS
 10
-70.8375373459565
 20
251.895276497719
 30
0.0
 40
0.0
 41
0.0
  0
VERTEX
  5
   15E
  8
0
  6
CONTINUOUS
 10
-70.9862000286898
 20
251.831157841703
 30
0.0
 40
0.0
 41
0.0
  0
VERTEX
  5
   15F
  8
0
  6
CONTINUOUS
 10
-71.1283913340478
 20
251.763469153366
 30
0.0
 40
0.0
 41
0.0
  0
VERTEX
  5
   160
  8
0
  6
CONTINUOUS
 10
-71.2637687107212
 20
251.692373500686
 30
0.0
 40
0.0
 41
0.0
  0
VERTEX
  5
   161
  8
0
  6
CONTINUOUS
 10
-71.3920060227521
 20
251.618042159319
 30
0.0
 40
0.0
 41
0.0
  0
VERTEX
  5
   162
  8
0
  6
CONTINUOUS
 10
-71.5127943352236
 20
251.540654199976
 30
0.0
 40
0.0
 41
0.0
  0
VERTEX
  5
   163
  8
0
  6
CONTINUOUS
 10
-71.625842658511
 20
251.460396057031
 30
0.0
 40
0.0
 41
0.0
  0
VERTEX
  5
   164
  8
0
  6
CONTINUOUS
 10
-71.7308786493017
 20
251.377461079378
 30
0.0
 40
0.0
 41
0.0
  0
VERTEX
  5
   165
  8
0
  6
CONTINUOUS
 10
-71.8276492666938
 20
251.292049064643
 30
0.0
 40
0.0
 41
0.0
  0
VERTEX
  5
   166
  8
0
  6
CONTINUOUS
 10
-71.9159213817939
 20
251.204365777851
 30
0.0
 40
0.0
 41
0.0
  0
VERTEX
  5
   167
  8
0
  6
CONTINUOUS
 10
-71.9954823393451
 20
251.114622455721
 30
0.0
 40
0.0
 41
0.0
  0
VERTEX
  5
   168
  8
0
  6
CONTINUOUS
 10
-72.0319354046388
 20
251.06904566406
 30
0.0
 40
0.0
 41
0.0
  0
VERTEX
  5
   169
  8
0
  6
CONTINUOUS
 10
-72.0661404700318
 20
251.023035297775
 30
0.0
 40
0.0
 41
0.0
  0
VERTEX
  5
   16A
  8
0
  6
CONTINUOUS
 10
-72.0980769316717
 20
250.976619071788
 30
0.0
 40
0.0
 41
0.0
  0
VERTEX
  5
   16B
  8
0
  6
CONTINUOUS
 10
-72.1277255522283
 20
250.929824945499
 30
0.0
 40
0.0
 41
0.0
  0
VERTEX
  5
   16C
  8
0
  6
CONTINUOUS
 10
-72.1550684724811
 20
250.88268110594
 30
0.0
 40
0.0
 41
0.0
  0
VERTEX
  5
   16D
  8
0
  6
CONTINUOUS
 10
-72.1800892220774
 20
250.835215950796
 30
0.0
 40
0.0
 41
0.0
  0
VERTEX
  5
   16E
  8
0
  6
CONTINUOUS
 10
-72.2027727294532
 20
250.787458071304
 30
0.0
 40
0.0
 41
0.0
  0
VERTEX
  5
   16F
  8
0
  6
CONTINUOUS
 10
-72.2231053309119
 20
250.739436235022
 30
0.0
 40
0.0
 41
0.0
  0
VERTEX
  5
   170
  8
0
  6
CONTINUOUS
 10
-72.2410747788546
 20
250.69117936851
 30
0.0
 40
0.0
 41
0.0
  0
VERTEX
  5
   171
  8
0
  6
CONTINUOUS
 10
-72.2566702491579
 20
250.642716539901
 30
0.0
 40
0.0
 41
0.0
  0
VERTEX
  5
   172
  8
0
  6
CONTINUOUS
 10
-72.2698823476935
 20
250.594076941388
 30
0.0
 40
0.0
 41
0.0
  0
VERTEX
  5
   173
  8
0
  6
CONTINUOUS
 10
-72.2807031159873
 20
250.545289871649
 30
0.0
 40
0.0
 41
0.0
  0
VERTEX
  5
   174
  8
0
  6
CONTINUOUS
 10
-72.2891260360131
 20
250.496384718189
 30
0.0
 40
0.0
 41
0.0
  0
VERTEX
  5
   175
  8
0
  6
CONTINUOUS
 10
-72.2951460341189
 20
250.447390939645
 30
0.0
 40
0.0
 41
0.0
  0
VERTEX
  5
   176
  8
0
  6
CONTINUOUS
 10
-72.298759484083
 20
250.398338048035
 30
0.0
 40
0.0
 41
0.0
  0
VERTEX
  5
   177
  8
0
  6
CONTINUOUS
 10
-72.299964209298
 20
250.34925559099
 30
0.0
 40
0.0
 41
0.0
  0
SEQEND
  5
   178
  8
0
  6
CONTINUOUS
 62
   218
  0
POLYLINE
  5
   179
  8
0
  6
CONTINUOUS
 62
   218
 66
     1
 10
0.0
 20
0.0
 30
0.0
  0
VERTEX
  5
   17A
  8
0
  6
CONTINUOUS
 10
-56.299964209298
 20
250.349255591015
 30
0.0
 40
0.0
 41
0.0
  0
VERTEX
  5
   17B
  8
0
  6
CONTINUOUS
 10
-56.3011689345136
 20
250.398338048061
 30
0.0
 40
0.0
 41
0.0
  0
VERTEX
  5
   17C
  8
0
  6
CONTINUOUS
 10
-56.3047823844781
 20
250.44739093967
 30
0.0
 40
0.0
 41
0.0
  0
VERTEX
  5
   17D
  8
0
  6
CONTINUOUS
 10
-56.3108023825844
 20
250.496384718214
 30
0.0
 40
0.0
 41
0.0
  0
VERTEX
  5
   17E
  8
0
  6
CONTINUOUS
 10
-56.3192253026107
 20
250.545289871674
 30
0.0
 40
0.0
 41
0.0
  0
VERTEX
  5
   17F
  8
0
  6
CONTINUOUS
 10
-56.3300460709051
 20
250.594076941413
 30
0.0
 40
0.0
 41
0.0
  0
VERTEX
  5
   180
  8
0
  6
CONTINUOUS
 10
-56.3432581694412
 20
250.642716539926
 30
0.0
 40
0.0
 41
0.0
  0
VERTEX
  5
   181
  8
0
  6
CONTINUOUS
 10
-56.3588536397449
 20
250.691179368535
 30
0.0
 40
0.0
 41
0.0
  0
VERTEX
  5
   182
  8
0
  6
CONTINUOUS
 10
-56.3768230876882
 20
250.739436235047
 30
0.0
 40
0.0
 41
0.0
  0
VERTEX
  5
   183
  8
0
  6
CONTINUOUS
 10
-56.3971556891474
 20
250.787458071328
 30
0.0
 40
0.0
 41
0.0
  0
VERTEX
  5
   184
  8
0
  6
CONTINUOUS
 10
-56.4198391965237
 20
250.835215950821
 30
0.0
 40
0.0
 41
0.0
  0
VERTEX
  5
   185
  8
0
  6
CONTINUOUS
 10
-56.4448599461205
 20
250.882681105964
 30
0.0
 40
0.0
 41
0.0
  0
VERTEX
  5
   186
  8
0
  6
CONTINUOUS
 10
-56.4722028663738
 20
250.929824945523
 30
0.0
 40
0.0
 41
0.0
  0
VERTEX
  5
   187
  8
0
  6
CONTINUOUS
 10
-56.5018514869309
 20
250.976619071812
 30
0.0
 40
0.0
 41
0.0
  0
VERTEX
  5
   188
  8
0
  6
CONTINUOUS
 10
-56.5337879485714
 20
251.023035297799
 30
0.0
 40
0.0
 41
0.0
  0
VERTEX
  5
   189
  8
0
  6
CONTINUOUS
 10
-56.5679930139649
 20
251.069045664084
 30
0.0
 40
0.0
 41
0.0
  0
VERTEX
  5
   18A
  8
0
  6
CONTINUOUS
 10
-56.6044460792591
 20
251.114622455744
 30
0.0
 40
0.0
 41
0.0
  0
VERTEX
  5
   18B
  8
0
  6
CONTINUOUS
 10
-56.6840070368113
 20
251.204365777875
 30
0.0
 40
0.0
 41
0.0
  0
VERTEX
  5
   18C
  8
0
  6
CONTINUOUS
 10
-56.7722791519124
 20
251.292049064666
 30
0.0
 40
0.0
 41
0.0
  0
VERTEX
  5
   18D
  8
0
  6
CONTINUOUS
 10
-56.8690497693056
 20
251.3774610794
 30
0.0
 40
0.0
 41
0.0
  0
VERTEX
  5
   18E
  8
0
  6
CONTINUOUS
 10
-56.9740857600973
 20
251.460396057052
 30
0.0
 40
0.0
 41
0.0
  0
VERTEX
  5
   18F
  8
0
  6
CONTINUOUS
 10
-57.0871340833856
 20
251.540654199997
 30
0.0
 40
0.0
 41
0.0
  0
VERTEX
  5
   190
  8
0
  6
CONTINUOUS
 10
-57.207922395858
 20
251.61804215934
 30
0.0
 40
0.0
 41
0.0
  0
VERTEX
  5
   191
  8
0
  6
CONTINUOUS
 10
-57.3361597078899
 20
251.692373500706
 30
0.0
 40
0.0
 41
0.0
  0
VERTEX
  5
   192
  8
0
  6
CONTINUOUS
 10
-57.4715370845643
 20
251.763469153384
 30
0.0
 40
0.0
 41
0.0
  0
VERTEX
  5
   193
  8
0
  6
CONTINUOUS
 10
-57.6137283899231
 20
251.831157841721
 30
0.0
 40
0.0
 41
0.0
  0
VERTEX
  5
   194
  8
0
  6
CONTINUOUS
 10
-57.7623910726573
 20
251.895276497736
 30
0.0
 40
0.0
 41
0.0
  0
VERTEX
  5
   195
  8
0
  6
CONTINUOUS
 10
-57.9171669913428
 20
251.955670653971
 30
0.0
 40
0.0
 41
0.0
  0
VERTEX
  5
   196
  8
0
  6
CONTINUOUS
 10
-58.0776832772348
 20
252.012194815614
 30
0.0
 40
0.0
 41
0.0
  0
VERTEX
  5
   197
  8
0
  6
CONTINUOUS
 10
-58.2435532325409
 20
252.064712811009
 30
0.0
 40
0.0
 41
0.0
  0
VERTEX
  5
   198
  8
0
  6
CONTINUOUS
 10
-58.4143772620104
 20
252.113098119704
 30
0.0
 40
0.0
 41
0.0
  0
VERTEX
  5
   199
  8
0
  6
CONTINUOUS
 10
-58.5897438355938
 20
252.157234177254
 30
0.0
 40
0.0
 41
0.0
  0
VERTEX
  5
   19A
  8
0
  6
CONTINUOUS
 10
-58.7692304798551
 20
252.197014656029
 30
0.0
 40
0.0
 41
0.0
  0
VERTEX
  5
   19B
  8
0
  6
CONTINUOUS
 10
-58.952404795747
 20
252.232343721371
 30
0.0
 40
0.0
 41
0.0
  0
VERTEX
  5
   19C
  8
0
  6
CONTINUOUS
 10
-59.1388255002985
 20
252.263136262469
 30
0.0
 40
0.0
 41
0.0
  0
VERTEX
  5
   19D
  8
0
  6
CONTINUOUS
 10
-59.3280434897037
 20
252.289318097393
 30
0.0
 40
0.0
 41
0.0
  0
VERTEX
  5
   19E
  8
0
  6
CONTINUOUS
 10
-59.5196029212526
 20
252.31082615181
 30
0.0
 40
0.0
 41
0.0
  0
VERTEX
  5
   19F
  8
0
  6
CONTINUOUS
 10
-59.713042311496
 20
252.327608610932
 30
0.0
 40
0.0
 41
0.0
  0
VERTEX
  5
   1A0
  8
0
  6
CONTINUOUS
 10
-59.9078956479995
 20
252.339625044346
 30
0.0
 40
0.0
 41
0.0
  0
VERTEX
  5
   1A1
  8
0
  6
CONTINUOUS
 10
-60.1036935120083
 20
252.346846503411
 30
0.0
 40
0.0
 41
0.0
  0
VERTEX
  5
   1A2
  8
0
  6
CONTINUOUS
 10
-60.2999642093181
 20
252.349255591
 30
0.0
 40
0.0
 41
0.0
  0
VERTEX
  5
   1A3
  8
0
  6
CONTINUOUS
 10
-60.4962349066279
 20
252.346846503409
 30
0.0
 40
0.0
 41
0.0
  0
VERTEX
  5
   1A4
  8
0
  6
CONTINUOUS
 10
-60.6920327706366
 20
252.339625044342
 30
0.0
 40
0.0
 41
0.0
  0
VERTEX
  5
   1A5
  8
0
  6
CONTINUOUS
 10
-60.8868861071398
 20
252.327608610927
 30
0.0
 40
0.0
 41
0.0
  0
VERTEX
  5
   1A6
  8
0
  6
CONTINUOUS
 10
-61.0803254973829
 20
252.310826151803
 30
0.0
 40
0.0
 41
0.0
  0
VERTEX
  5
   1A7
  8
0
  6
CONTINUOUS
 10
-61.2718849289313
 20
252.289318097384
 30
0.0
 40
0.0
 41
0.0
  0
VERTEX
  5
   1A8
  8
0
  6
CONTINUOUS
 10
-61.461102918336
 20
252.263136262459
 30
0.0
 40
0.0
 41
0.0
  0
VERTEX
  5
   1A9
  8
0
  6
CONTINUOUS
 10
-61.6475236228869
 20
252.23234372136
 30
0.0
 40
0.0
 41
0.0
  0
VERTEX
  5
   1AA
  8
0
  6
CONTINUOUS
 10
-61.8306979387781
 20
252.197014656015
 30
0.0
 40
0.0
 41
0.0
  0
VERTEX
  5
   1AB
  8
0
  6
CONTINUOUS
 10
-62.0101845830386
 20
252.157234177239
 30
0.0
 40
0.0
 41
0.0
  0
VERTEX
  5
   1AC
  8
0
  6
CONTINUOUS
 10
-62.1855511566211
 20
252.113098119688
 30
0.0
 40
0.0
 41
0.0
  0
VERTEX
  5
   1AD
  8
0
  6
CONTINUOUS
 10
-62.3563751860896
 20
252.064712810991
 30
0.0
 40
0.0
 41
0.0
  0
VERTEX
  5
   1AE
  8
0
  6
CONTINUOUS
 10
-62.5222451413947
 20
252.012194815594
 30
0.0
 40
0.0
 41
0.0
  0
VERTEX
  5
   1AF
  8
0
  6
CONTINUOUS
 10
-62.6827614272855
 20
251.95567065395
 30
0.0
 40
0.0
 41
0.0
  0
VERTEX
  5
   1B0
  8
0
  6
CONTINUOUS
 10
-62.8375373459698
 20
251.895276497713
 30
0.0
 40
0.0
 41
0.0
  0
VERTEX
  5
   1B1
  8
0
  6
CONTINUOUS
 10
-62.9862000287027
 20
251.831157841697
 30
0.0
 40
0.0
 41
0.0
  0
VERTEX
  5
   1B2
  8
0
  6
CONTINUOUS
 10
-63.1283913340602
 20
251.763469153359
 30
0.0
 40
0.0
 41
0.0
  0
VERTEX
  5
   1B3
  8
0
  6
CONTINUOUS
 10
-63.2637687107331
 20
251.69237350068
 30
0.0
 40
0.0
 41
0.0
  0
VERTEX
  5
   1B4
  8
0
  6
CONTINUOUS
 10
-63.3920060227635
 20
251.618042159312
 30
0.0
 40
0.0
 41
0.0
  0
VERTEX
  5
   1B5
  8
0
  6
CONTINUOUS
 10
-63.5127943352343
 20
251.540654199969
 30
0.0
 40
0.0
 41
0.0
  0
VERTEX
  5
   1B6
  8
0
  6
CONTINUOUS
 10
-63.6258426585211
 20
251.460396057023
 30
0.0
 40
0.0
 41
0.0
  0
VERTEX
  5
   1B7
  8
0
  6
CONTINUOUS
 10
-63.7308786493111
 20
251.37746107937
 30
0.0
 40
0.0
 41
0.0
  0
VERTEX
  5
   1B8
  8
0
  6
CONTINUOUS
 10
-63.8276492667025
 20
251.292049064635
 30
0.0
 40
0.0
 41
0.0
  0
VERTEX
  5
   1B9
  8
0
  6
CONTINUOUS
 10
-63.9159213818019
 20
251.204365777843
 30
0.0
 40
0.0
 41
0.0
  0
VERTEX
  5
   1BA
  8
0
  6
CONTINUOUS
 10
-63.9954823393523
 20
251.114622455712
 30
0.0
 40
0.0
 41
0.0
  0
VERTEX
  5
   1BB
  8
0
  6
CONTINUOUS
 10
-64.0319354046456
 20
251.069045664051
 30
0.0
 40
0.0
 41
0.0
  0
VERTEX
  5
   1BC
  8
0
  6
CONTINUOUS
 10
-64.0661404700382
 20
251.023035297766
 30
0.0
 40
0.0
 41
0.0
  0
VERTEX
  5
   1BD
  8
0
  6
CONTINUOUS
 10
-64.0980769316777
 20
250.976619071779
 30
0.0
 40
0.0
 41
0.0
  0
VERTEX
  5
   1BE
  8
0
  6
CONTINUOUS
 10
-64.1277255522339
 20
250.92982494549
 30
0.0
 40
0.0
 41
0.0
  0
VERTEX
  5
   1BF
  8
0
  6
CONTINUOUS
 10
-64.1550684724862
 20
250.882681105931
 30
0.0
 40
0.0
 41
0.0
  0
VERTEX
  5
   1C0
  8
0
  6
CONTINUOUS
 10
-64.1800892220821
 20
250.835215950787
 30
0.0
 40
0.0
 41
0.0
  0
VERTEX
  5
   1C1
  8
0
  6
CONTINUOUS
 10
-64.2027727294575
 20
250.787458071294
 30
0.0
 40
0.0
 41
0.0
  0
VERTEX
  5
   1C2
  8
0
  6
CONTINUOUS
 10
-64.2231053309157
 20
250.739436235013
 30
0.0
 40
0.0
 41
0.0
  0
VERTEX
  5
   1C3
  8
0
  6
CONTINUOUS
 10
-64.241074778858
 20
250.691179368501
 30
0.0
 40
0.0
 41
0.0
  0
VERTEX
  5
   1C4
  8
0
  6
CONTINUOUS
 10
-64.2566702491608
 20
250.642716539891
 30
0.0
 40
0.0
 41
0.0
  0
VERTEX
  5
   1C5
  8
0
  6
CONTINUOUS
 10
-64.2698823476959
 20
250.594076941378
 30
0.0
 40
0.0
 41
0.0
  0
VERTEX
  5
   1C6
  8
0
  6
CONTINUOUS
 10
-64.2807031159892
 20
250.545289871639
 30
0.0
 40
0.0
 41
0.0
  0
VERTEX
  5
   1C7
  8
0
  6
CONTINUOUS
 10
-64.2891260360146
 20
250.496384718179
 30
0.0
 40
0.0
 41
0.0
  0
VERTEX
  5
   1C8
  8
0
  6
CONTINUOUS
 10
-64.2951460341199
 20
250.447390939635
 30
0.0
 40
0.0
 41
0.0
  0
VERTEX
  5
   1C9
  8
0
  6
CONTINUOUS
 10
-64.2987594840834
 20
250.398338048025
 30
0.0
 40
0.0
 41
0.0
  0
VERTEX
  5
   1CA
  8
0
  6
CONTINUOUS
 10
-64.299964209298
 20
250.34925559098
 30
0.0
 40
0.0
 41
0.0
  0
SEQEND
  5
   1CB
  8
0
  6
CONTINUOUS
 62
   218
  0
INSERT
  5
   1CC
  8
0
  6
CONTINUOUS
 62
   218
  2
*HATCH74
 10
0.0
 20
0.0
 30
0.0
  0
LINE
  5
   1CD
  8
0
  6
CONTINUOUS
 62
   218
 10
-62.878366952658
 20
208.737096448576
 30
0.0
 11
-58.8228463963633
 21
231.737096448576
 31
0.0
  0
LINE
  5
   1CE
  8
0
  6
CONTINUOUS
 62
   218
 10
-61.456769696018
 20
208.737096448575
 30
0.0
 11
-58.099964209298
 21
227.774486377403
 31
0.0
  0
LINE
  5
   1CF
  8
0
  6
CONTINUOUS
 62
   218
 10
-60.035172439378
 20
208.737096448575
 30
0.0
 11
-58.099964209298
 21
219.712207701002
 31
0.0
  0
LINE
  5
   1D0
  8
0
  6
CONTINUOUS
 62
   218
 10
-58.613575182738
 20
208.737096448575
 30
0.0
 11
-58.0999642092981
 21
211.649929024601
 31
0.0
  0
LINE
  5
   1D1
  8
0
  6
CONTINUOUS
 62
   218
 10
-65.7215614659381
 20
208.737096448575
 30
0.0
 11
-61.6660409096434
 21
231.737096448576
 31
0.0
  0
LINE
  5
   1D2
  8
0
  6
CONTINUOUS
 62
   218
 10
-67.1431587225781
 20
208.737096448575
 30
0.0
 11
-63.0876381662835
 21
231.737096448575
 31
0.0
  0
LINE
  5
   1D3
  8
0
  6
CONTINUOUS
 62
   218
 10
-68.5647559792182
 20
208.737096448576
 30
0.0
 11
-64.5092354229235
 21
231.737096448576
 31
0.0
  0
LINE
  5
   1D4
  8
0
  6
CONTINUOUS
 62
   218
 10
-69.9863532358582
 20
208.737096448575
 30
0.0
 11
-65.9308326795636
 21
231.737096448575
 31
0.0
  0
LINE
  5
   1D5
  8
0
  6
CONTINUOUS
 62
   218
 10
-70.499964209298
 20
213.886542548952
 30
0.0
 11
-67.3524299362037
 21
231.737096448576
 31
0.0
  0
LINE
  5
   1D6
  8
0
  6
CONTINUOUS
 62
   218
 10
-70.4999642092981
 20
221.948821225353
 30
0.0
 11
-68.7740271928438
 21
231.737096448575
 31
0.0
  0
LINE
  5
   1D7
  8
0
  6
CONTINUOUS
 62
   218
 10
-70.499964209298
 20
230.011099901754
 30
0.0
 11
-70.1956244494838
 21
231.737096448575
 31
0.0
  0
ENDBLK
  5
   1D8
  8
0
  6
CONTINUOUS
 62
     7
  0
BLOCK
  5
   1D9
  8
0
  6
CONTINUOUS
 62
     7
  2
*HATCH75
 70
    65
 10
0.0
 20
0.0
 30
0.0
  3
*HATCH75
  0
LINE
  5
   1DA
  8
0
  6
CONTINUOUS
 62
   210
 10
261.190856933594
 20
82.9999389648438
 30
0.0
 11
258.01513671875
 21
79.82421875
 31
0.0
  0
LINE
  5
   1DB
  8
0
  6
CONTINUOUS
 62
   210
 10
264.537048339844
 20
82.1035003662109
 30
0.0
 11
260.433502197266
 21
77.9999389648438
 31
0.0
  0
ENDBLK
  5
   1DC
  8
0
  6
CONTINUOUS
 62
     7
  0
BLOCK
  5
   1DD
  8
0
  6
CONTINUOUS
 62
     7
  2
*HATCH76
 70
    65
 10
0.0
 20
0.0
 30
0.0
  3
*HATCH76
  0
LINE
  5
   1DE
  8
0
  6
CONTINUOUS
 62
    52
 10
186.918792724609
 20
-4.00005149841309
 30
0.0
 11
184.918792724609
 21
-6.00005149841309
 31
0.0
  0
LINE
  5
   1DF
  8
0
  6
CONTINUOUS
 62
    52
 10
191.161437988281
 20
-4.00005149841309
 30
0.0
 11
189.161437988281
 21
-6.00005149841309
 31
0.0
  0
LINE
  5
   1E0
  8
0
  6
CONTINUOUS
 62
    52
 10
195.404083251953
 20
-4.00005149841309
 30
0.0
 11
193.404083251953
 21
-6.00005149841309
 31
0.0
  0
LINE
  5
   1E1
  8
0
  6
CONTINUOUS
 62
    52
 10
199.646728515625
 20
-4.00005149841309
 30
0.0
 11
197.646728515625
 21
-6.00005149841309
 31
0.0
  0
LINE
  5
   1E2
  8
0
  6
CONTINUOUS
 62
    52
 10
203.889373779297
 20
-4.00005149841309
 30
0.0
 11
201.889373779297
 21
-6.00005149841309
 31
0.0
  0
LINE
  5
   1E3
  8
0
  6
CONTINUOUS
 62
    52
 10
208.132019042969
 20
-4.00005149841309
 30
0.0
 11
206.132019042969
 21
-6.00005149841309
 31
0.0
  0
LINE
  5
   1E4
  8
0
  6
CONTINUOUS
 62
    52
 10
212.374664306641
 20
-4.00005149841309
 30
0.0
 11
210.374664306641
 21
-6.00005149841309
 31
0.0
  0
LINE
  5
   1E5
  8
0
  6
CONTINUOUS
 62
    52
 10
216.617309570313
 20
-4.00005149841309
 30
0.0
 11
214.617309570313
 21
-6.00005149841309
 31
0.0
  0
LINE
  5
   1E6
  8
0
  6
CONTINUOUS
 62
    52
 10
220.859954833984
 20
-4.00005149841309
 30
0.0
 11
218.859954833984
 21
-6.00005149841309
 31
0.0
  0
LINE
  5
   1E7
  8
0
  6
CONTINUOUS
 62
    52
 10
225.102600097656
 20
-4.00005149841309
 30
0.0
 11
223.102600097656
 21
-6.00005149841309
 31
0.0
  0
LINE
  5
   1E8
  8
0
  6
CONTINUOUS
 62
    52
 10
229.345245361328
 20
-4.00005149841309
 30
0.0
 11
227.345245361328
 21
-6.00005149841309
 31
0.0
  0
LINE
  5
   1E9
  8
0
  6
CONTINUOUS
 62
    52
 10
233.587890625
 20
-4.00005149841309
 30
0.0
 11
231.587890625
 21
-6.00005149841309
 31
0.0
  0
LINE
  5
   1EA
  8
0
  6
CONTINUOUS
 62
    52
 10
237.830535888672
 20
-4.00005149841309
 30
0.0
 11
235.830535888672
 21
-6.00005149841309
 31
0.0
  0
LINE
  5
   1EB
  8
0
  6
CONTINUOUS
 62
    52
 10
242.073181152344
 20
-4.00005149841309
 30
0.0
 11
240.073181152344
 21
-6.00005149841309
 31
0.0
  0
LINE
  5
   1EC
  8
0
  6
CONTINUOUS
 62
    52
 10
246.315826416016
 20
-4.00005149841309
 30
0.0
 11
244.315826416016
 21
-6.00005149841309
 31
0.0
  0
LINE
  5
   1ED
  8
0
  6
CONTINUOUS
 62
    52
 10
250.558471679688
 20
-4.00005149841309
 30
0.0
 11
248.558471679688
 21
-6.00005149841309
 31
0.0
  0
LINE
  5
   1EE
  8
0
  6
CONTINUOUS
 62
    52
 10
254.801116943359
 20
-4.00005149841309
 30
0.0
 11
252.801116943359
 21
-6.00005149841309
 31
0.0
  0
LINE
  5
   1EF
  8
0
  6
CONTINUOUS
 62
    52
 10
259.043731689453
 20
-4.00005149841309
 30
0.0
 11
257.043762207031
 21
-6.00005149841309
 31
0.0
  0
LINE
  5
   1F0
  8
0
  6
CONTINUOUS
 62
    52
 10
263.286346435547
 20
-4.00005149841309
 30
0.0
 11
261.286376953125
 21
-6.00005149841309
 31
0.0
  0
LINE
  5
   1F1
  8
0
  6
CONTINUOUS
 62
    52
 10
267.528961181641
 20
-4.00005149841309
 30
0.0
 11
265.528991699219
 21
-6.00005149841309
 31
0.0
  0
LINE
  5
   1F2
  8
0
  6
CONTINUOUS
 62
    52
 10
271.771575927734
 20
-4.00005149841309
 30
0.0
 11
269.771606445313
 21
-6.00005149841309
 31
0.0
  0
LINE
  5
   1F3
  8
0
  6
CONTINUOUS
 62
    52
 10
276.014190673828
 20
-4.00005149841309
 30
0.0
 11
274.014221191406
 21
-6.00005149841309
 31
0.0
  0
LINE
  5
   1F4
  8
0
  6
CONTINUOUS
 62
    52
 10
280.256805419922
 20
-4.00005149841309
 30
0.0
 11
278.2568359375
 21
-6.00005149841309
 31
0.0
  0
LINE
  5
   1F5
  8
0
  6
CONTINUOUS
 62
    52
 10
284.499420166016
 20
-4.00005149841309
 30
0.0
 11
282.499450683594
 21
-6.00005149841309
 31
0.0
  0
LINE
  5
   1F6
  8
0
  6
CONTINUOUS
 62
    52
 10
288.742034912109
 20
-4.00005149841309
 30
0.0
 11
286.742065429688
 21
-6.00005149841309
 31
0.0
  0
LINE
  5
   1F7
  8
0
  6
CONTINUOUS
 62
    52
 10
292.984649658203
 20
-4.00005149841309
 30
0.0
 11
290.984680175781
 21
-6.00005149841309
 31
0.0
  0
LINE
  5
   1F8
  8
0
  6
CONTINUOUS
 62
    52
 10
297.227264404297
 20
-4.00005149841309
 30
0.0
 11
295.227294921875
 21
-6.00005149841309
 31
0.0
  0
LINE
  5
   1F9
  8
0
  6
CONTINUOUS
 62
    52
 10
301.469879150391
 20
-4.00005149841309
 30
0.0
 11
299.469909667969
 21
-6.00005149841309
 31
0.0
  0
LINE
  5
   1FA
  8
0
  6
CONTINUOUS
 62
    52
 10
305.712493896484
 20
-4.00005149841309
 30
0.0
 11
303.712524414063
 21
-6.00005149841309
 31
0.0
  0
LINE
  5
   1FB
  8
0
  6
CONTINUOUS
 62
    52
 10
309.955108642578
 20
-4.00005149841309
 30
0.0
 11
307.955139160156
 21
-6.00005149841309
 31
0.0
  0
LINE
  5
   1FC
  8
0
  6
CONTINUOUS
 62
    52
 10
314.197723388672
 20
-4.00005149841309
 30
0.0
 11
312.19775390625
 21
-6.00005149841309
 31
0.0
  0
LINE
  5
   1FD
  8
0
  6
CONTINUOUS
 62
    52
 10
318.440338134766
 20
-4.00005149841309
 30
0.0
 11
316.440368652344
 21
-6.00005149841309
 31
0.0
  0
ENDBLK
  5
   1FE
  8
0
  6
CONTINUOUS
 62
     7
  0
BLOCK
  5
   1FF
  8
0
  6
CONTINUOUS
 62
     7
  2
*UDIM340
 70
    65
 10
0.0
 20
0.0
 30
0.0
  3
*UDIM340
  0
TEXT
  5
   200
  8
0
  6
CONTINUOUS
 62
     7
 10
224.110629061498
 20
10.1492549178353
 30
0.0
 40
2.99999994933605
  1
135
 50
359.999999948034
 41
0.933333333333333
 72
     1
 11
228.010628996988
 21
11.6492548889857
 31
0.0
 73
     2
  0
LINE
  5
   201
  8
0
  6
CONTINUOUS
 62
     7
 10
255.294644617686
 20
78.6978033378299
 30
0.0
 11
255.294644617686
 21
7.14925491431768
 31
0.0
  0
LINE
  5
   202
  8
0
  6
CONTINUOUS
 62
     7
 10
201.276616817713
 20
27.5725003642157
 30
0.0
 11
201.276616817713
 21
7.14925491431768
 31
0.0
  0
LINE
  5
   203
  8
0
  6
CONTINUOUS
 62
     7
 10
255.294644617686
 20
9.14925491431768
 30
0.0
 11
201.276616817713
 21
9.14925491431768
 31
0.0
  0
LINE
  5
   204
  8
0
  6
CONTINUOUS
 62
     7
 10
252.340221340479
 20
8.62831048436602
 30
0.0
 11
255.294644617686
 21
9.14925491431768
 31
0.0
  0
LINE
  5
   205
  8
0
  6
CONTINUOUS
 62
     7
 10
255.294644617686
 20
9.14925491431768
 30
0.0
 11
252.340221340479
 21
9.67019934426934
 31
0.0
  0
LINE
  5
   206
  8
0
  6
CONTINUOUS
 62
     7
 10
204.23104009492
 20
9.67019934426934
 30
0.0
 11
201.276616817713
 21
9.14925491431768
 31
0.0
  0
LINE
  5
   207
  8
0
  6
CONTINUOUS
 62
     7
 10
201.276616817713
 20
9.14925491431768
 30
0.0
 11
204.23104009492
 21
8.62831048436601
 31
0.0
  0
ENDBLK
  5
   208
  8
0
  6
CONTINUOUS
 62
     7
  0
BLOCK
  5
   209
  8
0
  6
CONTINUOUS
 62
     7
  2
*UDIM341
 70
    65
 10
0.0
 20
0.0
 30
0.0
  3
*UDIM341
  0
TEXT
  5
   20A
  8
0
  6
CONTINUOUS
 62
     7
 10
247.876613731025
 20
15.9928783544374
 30
0.0
 40
2.99999994933605
  1
2
 50
359.999999948034
 41
0.933333333333333
 72
     1
 11
248.976613713801
 21
17.4928783281133
 31
0.0
 73
     2
  0
LINE
  5
   20B
  8
0
  6
CONTINUOUS
 62
     7
 10
244.876613652706
 20
34.6116507327454
 30
0.0
 11
244.876613652706
 21
12.9928783534452
 31
0.0
  0
LINE
  5
   20C
  8
0
  6
CONTINUOUS
 62
     7
 10
244.076613640786
 20
35.0909353896637
 30
0.0
 11
244.076613640786
 21
12.9928783534452
 31
0.0
  0
LINE
  5
   20D
  8
0
  6
CONTINUOUS
 62
     7
 10
250.076613695224
 20
14.9928783534452
 30
0.0
 11
244.076613640786
 21
14.9928783534452
 31
0.0
  0
LINE
  5
   20E
  8
0
  6
CONTINUOUS
 62
     7
 10
247.831036929913
 20
15.5138227833969
 30
0.0
 11
244.876613652706
 21
14.9928783534452
 31
0.0
  0
LINE
  5
   20F
  8
0
  6
CONTINUOUS
 62
     7
 10
244.876613652706
 20
14.9928783534452
 30
0.0
 11
247.831036929913
 21
14.4719339234936
 31
0.0
  0
LINE
  5
   210
  8
0
  6
CONTINUOUS
 62
     7
 10
241.122190363579
 20
14.4719339234936
 30
0.0
 11
244.076613640786
 21
14.9928783534452
 31
0.0
  0
LINE
  5
   211
  8
0
  6
CONTINUOUS
 62
     7
 10
244.076613640786
 20
14.9928783534452
 30
0.0
 11
241.122190363579
 21
15.5138227833969
 31
0.0
  0
ENDBLK
  5
   212
  8
0
  6
CONTINUOUS
 62
     7
  0
BLOCK
  5
   213
  8
0
  6
CONTINUOUS
 62
     7
  2
*UDIM342
 70
    65
 10
0.0
 20
0.0
 30
0.0
  3
*UDIM342
  0
TEXT
  5
   214
  8
0
  6
CONTINUOUS
 62
     7
 10
218.50161257169
 20
15.9928783569628
 30
0.0
 40
2.99999994933605
  1
107
 50
359.999999948034
 41
0.933333333333333
 72
     1
 11
222.40161250718
 21
17.4928783281133
 31
0.0
 73
     2
  0
LINE
  5
   215
  8
0
  6
CONTINUOUS
 62
     7
 10
201.276616817713
 20
27.5725003642157
 30
0.0
 11
201.276616817713
 21
12.9928783534452
 31
0.0
  0
LINE
  5
   216
  8
0
  6
CONTINUOUS
 62
     7
 10
244.076613640786
 20
14.9928783534452
 30
0.0
 11
201.276616817713
 21
14.9928783534452
 31
0.0
  0
LINE
  5
   217
  8
0
  6
CONTINUOUS
 62
     7
 10
241.122190363579
 20
14.4719339234936
 30
0.0
 11
244.076613640786
 21
14.9928783534452
 31
0.0
  0
LINE
  5
   218
  8
0
  6
CONTINUOUS
 62
     7
 10
244.076613640786
 20
14.9928783534452
 30
0.0
 11
241.122190363579
 21
15.5138227833969
 31
0.0
  0
LINE
  5
   219
  8
0
  6
CONTINUOUS
 62
     7
 10
204.23104009492
 20
15.5138227833969
 30
0.0
 11
201.276616817713
 21
14.9928783534452
 31
0.0
  0
LINE
  5
   21A
  8
0
  6
CONTINUOUS
 62
     7
 10
201.276616817713
 20
14.9928783534452
 30
0.0
 11
204.23104009492
 21
14.4719339234936
 31
0.0
  0
ENDBLK
  5
   21B
  8
0
  6
CONTINUOUS
 62
     7
  0
BLOCK
  5
   21C
  8
0
  6
CONTINUOUS
 62
     7
  2
*UDIM343
 70
    65
 10
0.0
 20
0.0
 30
0.0
  3
*UDIM343
  0
TEXT
  5
   21D
  8
0
  6
CONTINUOUS
 62
     7
 10
215.00187959623
 20
21.5206311274051
 30
0.0
 40
2.99999994933605
  1
103,5
 50
359.999999948034
 41
0.933333333333333
 72
     1
 11
221.701879484434
 21
23.0206310960301
 31
0.0
 73
     2
  0
LINE
  5
   21E
  8
0
  6
CONTINUOUS
 62
     7
 10
242.677141587146
 20
61.7978030874623
 30
0.0
 11
242.677141587146
 21
18.520631121362
 31
0.0
  0
LINE
  5
   21F
  8
0
  6
CONTINUOUS
 62
     7
 10
201.276616817713
 20
27.5725003642157
 30
0.0
 11
201.276616817713
 21
18.520631121362
 31
0.0
  0
LINE
  5
   220
  8
0
  6
CONTINUOUS
 62
     7
 10
242.677141587146
 20
20.520631121362
 30
0.0
 11
201.276616817713
 21
20.520631121362
 31
0.0
  0
LINE
  5
   221
  8
0
  6
CONTINUOUS
 62
     7
 10
239.722718309939
 20
19.9996866914104
 30
0.0
 11
242.677141587146
 21
20.520631121362
 31
0.0
  0
LINE
  5
   222
  8
0
  6
CONTINUOUS
 62
     7
 10
242.677141587146
 20
20.520631121362
 30
0.0
 11
239.722718309939
 21
21.0415755513137
 31
0.0
  0
LINE
  5
   223
  8
0
  6
CONTINUOUS
 62
     7
 10
204.23104009492
 20
21.0415755513137
 30
0.0
 11
201.276616817713
 21
20.520631121362
 31
0.0
  0
LINE
  5
   224
  8
0
  6
CONTINUOUS
 62
     7
 10
201.276616817713
 20
20.520631121362
 30
0.0
 11
204.23104009492
 21
19.9996866914104
 31
0.0
  0
ENDBLK
  5
   225
  8
0
  6
CONTINUOUS
 62
     7
  0
BLOCK
  5
   226
  8
0
  6
CONTINUOUS
 62
     7
  2
*UDIM344
 70
    65
 10
0.0
 20
0.0
 30
0.0
  3
*UDIM344
  0
TEXT
  5
   227
  8
0
  6
CONTINUOUS
 62
     7
 10
194.326616747765
 20
21.5206311223542
 30
0.0
 40
2.99999994933605
  1
3
 50
359.999999948034
 41
0.933333333333333
 72
     1
 11
195.426616730541
 21
23.0206310960301
 31
0.0
 73
     2
  0
TEXT
  5
   228
  8
0
  6
CONTINUOUS
 62
     7
 10
191.576616772998
 20
21.5206311223542
 30
0.0
 40
2.99999994933605
  1
_
 50
359.999999948034
 41
0.933333333333333
 72
     1
 11
192.676616755774
 21
23.0206310960301
 31
0.0
 73
     2
  0
LINE
  5
   229
  8
0
  6
CONTINUOUS
 62
     7
 10
200.076616799832
 20
27.6214799567823
 30
0.0
 11
200.076616799832
 21
18.520631121362
 31
0.0
  0
LINE
  5
   22A
  8
0
  6
CONTINUOUS
 62
     7
 10
201.276616817713
 20
20.520631121362
 30
0.0
 11
191.576616774351
 21
20.520631121362
 31
0.0
  0
LINE
  5
   22B
  8
0
  6
CONTINUOUS
 62
     7
 10
204.23104009492
 20
21.0415755513137
 30
0.0
 11
201.276616817713
 21
20.520631121362
 31
0.0
  0
LINE
  5
   22C
  8
0
  6
CONTINUOUS
 62
     7
 10
201.276616817713
 20
20.520631121362
 30
0.0
 11
204.23104009492
 21
19.9996866914104
 31
0.0
  0
LINE
  5
   22D
  8
0
  6
CONTINUOUS
 62
     7
 10
197.122193522625
 20
19.9996866914104
 30
0.0
 11
200.076616799832
 21
20.520631121362
 31
0.0
  0
LINE
  5
   22E
  8
0
  6
CONTINUOUS
 62
     7
 10
200.076616799832
 20
20.520631121362
 30
0.0
 11
197.122193522625
 21
21.0415755513137
 31
0.0
  0
ENDBLK
  5
   22F
  8
0
  6
CONTINUOUS
 62
     7
  0
BLOCK
  5
   230
  8
0
  6
CONTINUOUS
 62
     7
  2
*UDIM345
 70
    65
 10
0.0
 20
0.0
 30
0.0
  3
*UDIM345
  0
TEXT
  5
   231
  8
0
  6
CONTINUOUS
 62
     7
 10
214.601617132528
 20
178.504982526713
 30
0.0
 40
2.99999994933605
  1
101,5
 50
359.999999948034
 41
0.933333333333333
 72
     1
 11
221.301617020731
 21
180.004982495338
 31
0.0
 73
     2
  0
LINE
  5
   232
  8
0
  6
CONTINUOUS
 62
     7
 10
241.87661742268
 20
143.897804195175
 30
0.0
 11
241.87661742268
 21
179.50498252067
 31
0.0
  0
LINE
  5
   233
  8
0
  6
CONTINUOUS
 62
     7
 10
201.276616817713
 20
157.096355967607
 30
0.0
 11
201.276616817713
 21
179.50498252067
 31
0.0
  0
LINE
  5
   234
  8
0
  6
CONTINUOUS
 62
     7
 10
241.87661742268
 20
177.50498252067
 30
0.0
 11
201.276616817713
 21
177.50498252067
 31
0.0
  0
LINE
  5
   235
  8
0
  6
CONTINUOUS
 62
     7
 10
238.922194145473
 20
176.984038090718
 30
0.0
 11
241.87661742268
 21
177.50498252067
 31
0.0
  0
LINE
  5
   236
  8
0
  6
CONTINUOUS
 62
     7
 10
241.87661742268
 20
177.50498252067
 30
0.0
 11
238.922194145473
 21
178.025926950621
 31
0.0
  0
LINE
  5
   237
  8
0
  6
CONTINUOUS
 62
     7
 10
204.23104009492
 20
178.025926950621
 30
0.0
 11
201.276616817713
 21
177.50498252067
 31
0.0
  0
LINE
  5
   238
  8
0
  6
CONTINUOUS
 62
     7
 10
201.276616817713
 20
177.50498252067
 30
0.0
 11
204.23104009492
 21
176.984038090718
 31
0.0
  0
ENDBLK
  5
   239
  8
0
  6
CONTINUOUS
 62
     7
  0
BLOCK
  5
   23A
  8
0
  6
CONTINUOUS
 62
     7
  2
*UDIM346
 70
    65
 10
0.0
 20
0.0
 30
0.0
  3
*UDIM346
  0
TEXT
  5
   23B
  8
0
  6
CONTINUOUS
 62
     7
 10
215.90656307865
 20
169.109547816397
 30
0.0
 40
2.99999994933605
  1
18x18
 50
359.999999948034
 41
0.933333333333333
 72
     1
 11
222.606562966853
 21
170.609547785022
 31
0.0
 73
     2
  0
LINE
  5
   23C
  8
0
  6
CONTINUOUS
 62
     7
 10
216.236617040635
 20
154.097804431575
 30
0.0
 11
216.236617040635
 21
170.109547810354
 31
0.0
  0
LINE
  5
   23D
  8
0
  6
CONTINUOUS
 62
     7
 10
211.276616966725
 20
154.097804431575
 30
0.0
 11
211.276616966725
 21
170.109547810354
 31
0.0
  0
LINE
  5
   23E
  8
0
  6
CONTINUOUS
 62
     7
 10
229.306562853703
 20
168.109547810354
 30
0.0
 11
211.276616966725
 21
168.109547810354
 31
0.0
  0
LINE
  5
   23F
  8
0
  6
CONTINUOUS
 62
     7
 10
219.191040317842
 20
168.630492240306
 30
0.0
 11
216.236617040635
 21
168.109547810354
 31
0.0
  0
LINE
  5
   240
  8
0
  6
CONTINUOUS
 62
     7
 10
216.236617040635
 20
168.109547810354
 30
0.0
 11
219.191040317842
 21
167.588603380403
 31
0.0
  0
LINE
  5
   241
  8
0
  6
CONTINUOUS
 62
     7
 10
208.322193689518
 20
167.588603380403
 30
0.0
 11
211.276616966725
 21
168.109547810354
 31
0.0
  0
LINE
  5
   242
  8
0
  6
CONTINUOUS
 62
     7
 10
211.276616966725
 20
168.109547810354
 30
0.0
 11
208.322193689518
 21
168.630492240306
 31
0.0
  0
ENDBLK
  5
   243
  8
0
  6
CONTINUOUS
 62
     7
  0
BLOCK
  5
   244
  8
0
  6
CONTINUOUS
 62
     7
  2
*UDIM347
 70
    65
 10
0.0
 20
0.0
 30
0.0
  3
*UDIM347
  0
TEXT
  5
   245
  8
0
  6
CONTINUOUS
 62
     7
 10
192.751616768801
 20
169.109547812609
 30
0.0
 40
2.99999994933605
  1
25
 50
359.999999948034
 41
0.933333333333333
 72
     1
 11
195.251616727934
 21
170.609547785022
 31
0.0
 73
     2
  0
LINE
  5
   246
  8
0
  6
CONTINUOUS
 62
     7
 10
201.276616817713
 20
157.096355967607
 30
0.0
 11
201.276616817713
 21
170.109547810354
 31
0.0
  0
LINE
  5
   247
  8
0
  6
CONTINUOUS
 62
     7
 10
211.276616966725
 20
168.109547810354
 30
0.0
 11
192.751616770154
 21
168.109547810354
 31
0.0
  0
LINE
  5
   248
  8
0
  6
CONTINUOUS
 62
     7
 10
208.322193689518
 20
167.588603380403
 30
0.0
 11
211.276616966725
 21
168.109547810354
 31
0.0
  0
LINE
  5
   249
  8
0
  6
CONTINUOUS
 62
     7
 10
211.276616966725
 20
168.109547810354
 30
0.0
 11
208.322193689518
 21
168.630492240306
 31
0.0
  0
LINE
  5
   24A
  8
0
  6
CONTINUOUS
 62
     7
 10
204.23104009492
 20
168.630492240306
 30
0.0
 11
201.276616817713
 21
168.109547810354
 31
0.0
  0
LINE
  5
   24B
  8
0
  6
CONTINUOUS
 62
     7
 10
201.276616817713
 20
168.109547810354
 30
0.0
 11
204.23104009492
 21
167.588603380403
 31
0.0
  0
ENDBLK
  5
   24C
  8
0
  6
CONTINUOUS
 62
     7
  0
BLOCK
  5
   24D
  8
0
  6
CONTINUOUS
 62
     7
  2
*UDIM348
 70
    65
 10
0.0
 20
0.0
 30
0.0
  3
*UDIM348
  0
TEXT
  5
   24E
  8
0
  6
CONTINUOUS
 62
     7
 10
262.306787416237
 20
79.6228033882779
 30
0.0
 40
2.99999994933605
  1
105
 50
89.9999999480344
 41
0.933333333333333
 72
     1
 11
260.806787445101
 21
83.5228033237733
 31
0.0
 73
     2
  0
LINE
  5
   24F
  8
0
  6
CONTINUOUS
 62
     7
 10
245.076613640786
 20
62.7978030869443
 30
0.0
 11
265.306787419769
 21
62.7978030869443
 31
0.0
  0
LINE
  5
   250
  8
0
  6
CONTINUOUS
 62
     7
 10
245.076613640786
 20
104.797803711849
 30
0.0
 11
265.306787419769
 21
104.797803711849
 31
0.0
  0
LINE
  5
   251
  8
0
  6
CONTINUOUS
 62
     7
 10
263.306787419769
 20
62.7978030869443
 30
0.0
 11
263.306787419769
 21
104.797803711849
 31
0.0
  0
LINE
  5
   252
  8
0
  6
CONTINUOUS
 62
     7
 10
262.785842989817
 20
65.7522263641513
 30
0.0
 11
263.306787419769
 21
62.7978030869443
 31
0.0
  0
LINE
  5
   253
  8
0
  6
CONTINUOUS
 62
     7
 10
263.306787419769
 20
62.7978030869443
 30
0.0
 11
263.827731849721
 21
65.7522263641513
 31
0.0
  0
LINE
  5
   254
  8
0
  6
CONTINUOUS
 62
     7
 10
263.827731849721
 20
101.843380434642
 30
0.0
 11
263.306787419769
 21
104.797803711849
 31
0.0
  0
LINE
  5
   255
  8
0
  6
CONTINUOUS
 62
     7
 10
263.306787419769
 20
104.797803711849
 30
0.0
 11
262.785842989817
 21
101.843380434642
 31
0.0
  0
ENDBLK
  5
   256
  8
0
  6
CONTINUOUS
 62
     7
  0
BLOCK
  5
   257
  8
0
  6
CONTINUOUS
 62
     7
  2
*UDIM349
 70
    65
 10
0.0
 20
0.0
 30
0.0
  3
*UDIM349
  0
TEXT
  5
   258
  8
0
  6
CONTINUOUS
 62
     7
 10
252.419070595362
 20
134.772804236626
 30
0.0
 40
2.99999994933605
  1
10
 50
89.9999999480344
 41
0.933333333333333
 72
     1
 11
250.919070622958
 21
137.272804195764
 31
0.0
 73
     2
  0
LINE
  5
   259
  8
0
  6
CONTINUOUS
 62
     7
 10
228.379937138899
 20
143.297804285544
 30
0.0
 11
255.419070597626
 21
143.297804285544
 31
0.0
  0
LINE
  5
   25A
  8
0
  6
CONTINUOUS
 62
     7
 10
228.712222755591
 20
147.297804345148
 30
0.0
 11
255.419070597626
 21
147.297804345148
 31
0.0
  0
LINE
  5
   25B
  8
0
  6
CONTINUOUS
 62
     7
 10
253.419070597626
 20
134.772804237984
 30
0.0
 11
253.419070597626
 21
147.297804345148
 31
0.0
  0
LINE
  5
   25C
  8
0
  6
CONTINUOUS
 62
     7
 10
253.940015027578
 20
140.343381008337
 30
0.0
 11
253.419070597626
 21
143.297804285544
 31
0.0
  0
LINE
  5
   25D
  8
0
  6
CONTINUOUS
 62
     7
 10
253.419070597626
 20
143.297804285544
 30
0.0
 11
252.898126167674
 21
140.343381008337
 31
0.0
  0
LINE
  5
   25E
  8
0
  6
CONTINUOUS
 62
     7
 10
252.898126167674
 20
150.252227622355
 30
0.0
 11
253.419070597626
 21
147.297804345148
 31
0.0
  0
LINE
  5
   25F
  8
0
  6
CONTINUOUS
 62
     7
 10
253.419070597626
 20
147.297804345148
 30
0.0
 11
253.940015027578
 21
150.252227622355
 31
0.0
  0
ENDBLK
  5
   260
  8
0
  6
CONTINUOUS
 62
     7
  0
BLOCK
  5
   261
  8
0
  6
CONTINUOUS
 62
     7
  2
*UDIM350
 70
    65
 10
0.0
 20
0.0
 30
0.0
  3
*UDIM350
  0
TEXT
  5
   262
  8
0
  6
CONTINUOUS
 62
     7
 10
182.593903198764
 20
36.3728019594054
 30
0.0
 40
2.99999994933605
  1
16
 50
89.9999999480344
 41
0.933333333333333
 72
     1
 11
181.093903226361
 21
38.872801918544
 31
0.0
 73
     2
  0
TEXT
  5
   263
  8
0
  6
CONTINUOUS
 62
     7
 10
182.593903200032
 20
33.2228020084799
 30
0.0
 40
2.99999994933605
  1
Ø
 50
89.9999999480344
 41
0.933333333333333
 72
     1
 11
181.093903226361
 21
34.3228019912617
 31
0.0
 73
     2
  0
LINE
  5
   264
  8
0
  6
CONTINUOUS
 62
     7
 10
208.276616555453
 20
44.2978028103289
 30
0.0
 11
181.593903201029
 21
44.2978028103289
 31
0.0
  0
LINE
  5
   265
  8
0
  6
CONTINUOUS
 62
     7
 10
207.076616537571
 20
50.6978029056963
 30
0.0
 11
181.593903201029
 21
50.6978029056963
 31
0.0
  0
LINE
  5
   266
  8
0
  6
CONTINUOUS
 62
     7
 10
183.593903201029
 20
33.2228020098385
 30
0.0
 11
183.593903201029
 21
50.6978029056963
 31
0.0
  0
LINE
  5
   267
  8
0
  6
CONTINUOUS
 62
     7
 10
183.072958771077
 20
47.2522260875358
 30
0.0
 11
183.593903201029
 21
44.2978028103289
 31
0.0
  0
LINE
  5
   268
  8
0
  6
CONTINUOUS
 62
     7
 10
183.593903201029
 20
44.2978028103289
 30
0.0
 11
184.11484763098
 21
47.2522260875358
 31
0.0
  0
LINE
  5
   269
  8
0
  6
CONTINUOUS
 62
     7
 10
184.11484763098
 20
47.7433796284893
 30
0.0
 11
183.593903201029
 21
50.6978029056963
 31
0.0
  0
LINE
  5
   26A
  8
0
  6
CONTINUOUS
 62
     7
 10
183.593903201029
 20
50.6978029056963
 30
0.0
 11
183.072958771077
 21
47.7433796284893
 31
0.0
  0
ENDBLK
  5
   26B
  8
0
  6
CONTINUOUS
 62
     7
  0
BLOCK
  5
   26C
  8
0
  6
CONTINUOUS
 62
     7
  2
*UDIM351
 70
    65
 10
0.0
 20
0.0
 30
0.0
  3
*UDIM351
  0
TEXT
  5
   26D
  8
0
  6
CONTINUOUS
 62
     7
 10
174.693193580128
 20
36.6228028630863
 30
0.0
 40
2.99999994933605
  1
13,5
 50
89.9999999480344
 41
0.933333333333333
 72
     1
 11
173.19319361026
 21
41.9228027749386
 31
0.0
 73
     2
  0
LINE
  5
   26E
  8
0
  6
CONTINUOUS
 62
     7
 10
207.076616537571
 20
50.6978029056963
 30
0.0
 11
173.693193584928
 21
50.6978029056963
 31
0.0
  0
LINE
  5
   26F
  8
0
  6
CONTINUOUS
 62
     7
 10
206.145805614784
 20
56.0978029861626
 30
0.0
 11
173.693193584928
 21
56.0978029861626
 31
0.0
  0
LINE
  5
   270
  8
0
  6
CONTINUOUS
 62
     7
 10
175.693193584928
 20
36.6228028644449
 30
0.0
 11
175.693193584928
 21
56.0978029861626
 31
0.0
  0
LINE
  5
   271
  8
0
  6
CONTINUOUS
 62
     7
 10
176.21413801488
 20
47.7433796284893
 30
0.0
 11
175.693193584928
 21
50.6978029056963
 31
0.0
  0
LINE
  5
   272
  8
0
  6
CONTINUOUS
 62
     7
 10
175.693193584928
 20
50.6978029056963
 30
0.0
 11
175.172249154976
 21
47.7433796284893
 31
0.0
  0
LINE
  5
   273
  8
0
  6
CONTINUOUS
 62
     7
 10
175.172249154976
 20
59.0522262633695
 30
0.0
 11
175.693193584928
 21
56.0978029861626
 31
0.0
  0
LINE
  5
   274
  8
0
  6
CONTINUOUS
 62
     7
 10
175.693193584928
 20
56.0978029861626
 30
0.0
 11
176.21413801488
 21
59.0522262633695
 31
0.0
  0
ENDBLK
  5
   275
  8
0
  6
CONTINUOUS
 62
     7
  0
BLOCK
  5
   276
  8
0
  6
CONTINUOUS
 62
     7
  2
*UDIM352
 70
    65
 10
0.0
 20
0.0
 30
0.0
  3
*UDIM352
  0
TEXT
  5
   277
  8
0
  6
CONTINUOUS
 62
     7
 10
174.693193581396
 20
97.5228036545367
 30
0.0
 40
2.99999994933605
  1
228
 50
89.9999999480344
 41
0.933333333333333
 72
     1
 11
173.19319361026
 21
101.422803590032
 31
0.0
 73
     2
  0
LINE
  5
   278
  8
0
  6
CONTINUOUS
 62
     7
 10
205.408757043873
 20
147.297804345148
 30
0.0
 11
173.693193584928
 21
147.297804345148
 31
0.0
  0
LINE
  5
   279
  8
0
  6
CONTINUOUS
 62
     7
 10
175.693193584928
 20
56.0978029861626
 30
0.0
 11
175.693193584928
 21
147.297804345148
 31
0.0
  0
LINE
  5
   27A
  8
0
  6
CONTINUOUS
 62
     7
 10
175.172249154976
 20
59.0522262633695
 30
0.0
 11
175.693193584928
 21
56.0978029861626
 31
0.0
  0
LINE
  5
   27B
  8
0
  6
CONTINUOUS
 62
     7
 10
175.693193584928
 20
56.0978029861626
 30
0.0
 11
176.21413801488
 21
59.0522262633695
 31
0.0
  0
LINE
  5
   27C
  8
0
  6
CONTINUOUS
 62
     7
 10
176.21413801488
 20
144.343381067942
 30
0.0
 11
175.693193584928
 21
147.297804345148
 31
0.0
  0
LINE
  5
   27D
  8
0
  6
CONTINUOUS
 62
     7
 10
175.693193584928
 20
147.297804345148
 30
0.0
 11
175.172249154976
 21
144.343381067942
 31
0.0
  0
ENDBLK
  5
   27E
  8
0
  6
CONTINUOUS
 62
     7
  0
BLOCK
  5
   27F
  8
0
  6
CONTINUOUS
 62
     7
  2
*UDIM353
 70
    65
 10
0.0
 20
0.0
 30
0.0
  3
*UDIM353
  0
TEXT
  5
   280
  8
0
  6
CONTINUOUS
 62
     7
 10
188.590251891411
 20
62.9728031810274
 30
0.0
 40
2.99999994933605
  1
69,25
 50
89.9999999480344
 41
0.933333333333333
 72
     1
 11
187.090251922811
 21
69.6728030692365
 31
0.0
 73
     2
  0
LINE
  5
   281
  8
0
  6
CONTINUOUS
 62
     7
 10
206.145805614784
 20
56.0978029861626
 30
0.0
 11
187.590251897479
 21
56.0978029861626
 31
0.0
  0
LINE
  5
   282
  8
0
  6
CONTINUOUS
 62
     7
 10
189.590251897479
 20
56.0978029861626
 30
0.0
 11
189.590251897479
 21
83.7978033989247
 31
0.0
  0
LINE
  5
   283
  8
0
  6
CONTINUOUS
 62
     7
 10
189.069307467527
 20
59.0522262633695
 30
0.0
 11
189.590251897479
 21
56.0978029861626
 31
0.0
  0
LINE
  5
   284
  8
0
  6
CONTINUOUS
 62
     7
 10
189.590251897479
 20
56.0978029861626
 30
0.0
 11
190.111196327431
 21
59.0522262633695
 31
0.0
  0
LINE
  5
   285
  8
0
  6
CONTINUOUS
 62
     7
 10
190.111196327431
 20
80.8433801217178
 30
0.0
 11
189.590251897479
 21
83.7978033989247
 31
0.0
  0
LINE
  5
   286
  8
0
  6
CONTINUOUS
 62
     7
 10
189.590251897479
 20
83.7978033989247
 30
0.0
 11
189.069307467527
 21
80.8433801217178
 31
0.0
  0
ENDBLK
  5
   287
  8
0
  6
CONTINUOUS
 62
     7
  0
BLOCK
  5
   288
  8
0
  6
CONTINUOUS
 62
     7
  2
$1MOSTRINA
 70
    64
 10
0.0
 20
0.0
 30
0.0
  3
$1MOSTRINA
  0
LINE
  5
   289
  8
0
  6
CONTINUOUS
 62
     3
 10
173.338256835938
 20
30.7306251525879
 30
0.0
 11
173.338256835938
 21
189.230621337891
 31
0.0
  0
LINE
  5
   28A
  8
0
  6
CONTINUOUS
 62
     3
 10
57.5882568359375
 20
29.4806251525879
 30
0.0
 11
172.088256835938
 21
29.4806251525879
 31
0.0
  0
LINE
  5
   28B
  8
0
  6
CONTINUOUS
 62
     3
 10
56.3382568359375
 20
30.7306251525879
 30
0.0
 11
56.3382568359375
 21
189.230621337891
 31
0.0
  0
LINE
  5
   28C
  8
0
  6
CONTINUOUS
 62
     3
 10
57.5882568359375
 20
190.480621337891
 30
0.0
 11
172.088256835938
 21
190.480621337891
 31
0.0
  0
LINE
  5
   28D
  8
0
  6
CONTINUOUS
 62
     3
 10
167.838256835938
 20
56.9806251525879
 30
0.0
 11
167.838256835938
 21
162.980625152588
 31
0.0
  0
LINE
  5
   28E
  8
0
  6
CONTINUOUS
 62
     3
 10
61.8382568359375
 20
56.9806251525879
 30
0.0
 11
167.838256835938
 21
56.9806251525879
 31
0.0
  0
LINE
  5
   28F
  8
0
  6
CONTINUOUS
 62
     3
 10
61.8382568359375
 20
56.9806251525879
 30
0.0
 11
61.8382568359375
 21
162.980625152588
 31
0.0
  0
LINE
  5
   290
  8
0
  6
CONTINUOUS
 62
     3
 10
61.8382568359375
 20
162.980621337891
 30
0.0
 11
167.838256835938
 21
162.980621337891
 31
0.0
  0
LINE
  5
   291
  8
0
  6
CONTINUOUS
 62
     3
 10
168.838256835938
 20
48.4806251525879
 30
0.0
 11
168.838256835938
 21
49.4806251525879
 31
0.0
  0
LINE
  5
   292
  8
0
  6
CONTINUOUS
 62
     3
 10
61.8382568359375
 20
50.4806251525879
 30
0.0
 11
167.838256835938
 21
50.4806251525879
 31
0.0
  0
LINE
  5
   293
  8
0
  6
CONTINUOUS
 62
     3
 10
60.8382568359375
 20
48.4806251525879
 30
0.0
 11
60.8382568359375
 21
49.4806251525879
 31
0.0
  0
LINE
  5
   294
  8
0
  6
CONTINUOUS
 62
     3
 10
61.8382568359375
 20
49.4806251525879
 30
0.0
 11
167.838256835938
 21
49.4806251525879
 31
0.0
  0
LINE
  5
   295
  8
0
  6
CONTINUOUS
 62
     3
 10
60.8382568359375
 20
29.4806251525879
 30
0.0
 11
60.8382568359375
 21
48.4806251525879
 31
0.0
  0
LINE
  5
   296
  8
0
  6
CONTINUOUS
 62
     3
 10
60.8382568359375
 20
49.4806213378906
 30
0.0
 11
60.8382568359375
 21
190.480621337891
 31
0.0
  0
LINE
  5
   297
  8
0
  6
CONTINUOUS
 62
     3
 10
61.8382568359375
 20
29.4806251525879
 30
0.0
 11
61.8382568359375
 21
49.4806251525879
 31
0.0
  0
LINE
  5
   298
  8
0
  6
CONTINUOUS
 62
     3
 10
61.8382568359375
 20
162.980621337891
 30
0.0
 11
61.8382568359375
 21
169.480621337891
 31
0.0
  0
LINE
  5
   299
  8
0
  6
CONTINUOUS
 62
     3
 10
61.8382568359375
 20
50.4806251525879
 30
0.0
 11
61.8382568359375
 21
56.9806251525879
 31
0.0
  0
LINE
  5
   29A
  8
0
  6
CONTINUOUS
 62
     3
 10
168.838256835938
 20
29.4806251525879
 30
0.0
 11
168.838256835938
 21
48.4806251525879
 31
0.0
  0
LINE
  5
   29B
  8
0
  6
CONTINUOUS
 62
     3
 10
168.838256835938
 20
49.4806251525879
 30
0.0
 11
168.838256835938
 21
190.480621337891
 31
0.0
  0
LINE
  5
   29C
  8
0
  6
CONTINUOUS
 62
     3
 10
167.838256835938
 20
50.4806251525879
 30
0.0
 11
167.838256835938
 21
56.9806251525879
 31
0.0
  0
LINE
  5
   29D
  8
0
  6
CONTINUOUS
 62
     3
 10
167.838256835938
 20
162.980621337891
 30
0.0
 11
167.838256835938
 21
169.480621337891
 31
0.0
  0
LINE
  5
   29E
  8
0
  6
CONTINUOUS
 62
     3
 10
167.838256835938
 20
29.4806251525879
 30
0.0
 11
167.838256835938
 21
49.4806251525879
 31
0.0
  0
LINE
  5
   29F
  8
0
  6
CONTINUOUS
 62
     3
 10
60.8382568359375
 20
170.480621337891
 30
0.0
 11
168.838256835938
 21
170.480621337891
 31
0.0
  0
LINE
  5
   2A0
  8
0
  6
CONTINUOUS
 62
     3
 10
61.8382568359375
 20
169.480621337891
 30
0.0
 11
167.838256835938
 21
169.480621337891
 31
0.0
  0
ARC
  5
   2A1
  8
0
  6
CONTINUOUS
 62
     3
 10
57.5882568359375
 20
30.7306251525879
 30
0.0
 40
1.25
 50
180.0
 51
270.0
  0
ARC
  5
   2A2
  8
0
  6
CONTINUOUS
 62
     3
 10
172.088256835938
 20
30.7306251525879
 30
0.0
 40
1.25
 50
270.0
 51
360.0
  0
ARC
  5
   2A3
  8
0
  6
CONTINUOUS
 62
     3
 10
172.088256835938
 20
189.230621337891
 30
0.0
 40
1.25
 50
0.0
 51
90.0
  0
ARC
  5
   2A4
  8
0
  6
CONTINUOUS
 62
     3
 10
57.5882568359375
 20
189.230621337891
 30
0.0
 40
1.25
 50
90.0
 51
180.0
  0
LINE
  5
   2A5
  8
0
  6
DOT
 62
     3
 10
60.3382577409677
 20
179.7306252571
 30
0.0
 11
60.8382568359375
 21
179.7306252571
 31
0.0
  0
LINE
  5
   2A6
  8
0
  6
DOT
 62
     3
 10
60.3382577409676
 20
181.2306252571
 30
0.0
 11
60.8382568359375
 21
181.2306252571
 31
0.0
  0
LINE
  5
   2A7
  8
0
  6
CONTINUOUS
 62
     3
 10
168.338257745313
 20
179.730625257273
 30
0.0
 11
168.838256835938
 21
179.730625257273
 31
0.0
  0
LINE
  5
   2A8
  8
0
  6
CONTINUOUS
 62
     3
 10
168.338257745314
 20
181.230625257273
 30
0.0
 11
168.838256835938
 21
181.230625257273
 31
0.0
  0
ARC
  5
   2A9
  8
0
  6
DOT
 62
     3
 10
60.3382577401871
 20
180.480625257147
 30
0.0
 40
0.749999999345164
 50
90.0
 51
270.0
  0
ARC
  5
   2AA
  8
0
  6
CONTINUOUS
 62
     3
 10
61.338257740822
 20
180.480625256974
 30
0.0
 40
0.750000000009701
 50
270.0
 51
450.0
  0
LINE
  5
   2AB
  8
0
  6
CONTINUOUS
 62
     3
 10
60.8382568359375
 20
181.2306252571
 30
0.0
 11
61.3382577409688
 21
181.2306252571
 31
0.0
  0
LINE
  5
   2AC
  8
0
  6
CONTINUOUS
 62
     3
 10
60.8382568359375
 20
179.7306252571
 30
0.0
 11
61.3382577409689
 21
179.7306252571
 31
0.0
  0
ARC
  5
   2AD
  8
0
  6
CONTINUOUS
 62
     3
 10
168.338257745503
 20
180.480625256952
 30
0.0
 40
0.750000000048506
 50
90.0000000038822
 51
269.999999996024
  0
ARC
  5
   2AE
  8
0
  6
DOT
 62
     3
 10
169.338257745421
 20
180.480625256965
 30
0.0
 40
0.750000000029104
 50
270.000000002449
 51
449.999999997486
  0
LINE
  5
   2AF
  8
0
  6
DOT
 62
     3
 10
168.838256835938
 20
181.230625257273
 30
0.0
 11
169.338257745315
 21
181.230625257273
 31
0.0
  0
LINE
  5
   2B0
  8
0
  6
DOT
 62
     3
 10
168.838256835938
 20
179.730625257273
 30
0.0
 11
169.338257745315
 21
179.730625257273
 31
0.0
  0
POINT
  5
   2B1
  8
0
  6
CONTINUOUS
 62
     3
 10
114.838256835938
 20
109.980621337891
 30
0.0
  0
ENDBLK
  5
   2B2
  8
0
  6
CONTINUOUS
 62
     7
  0
BLOCK
  5
   2B3
  8
0
  6
CONTINUOUS
 62
     7
  2
*UDIM354
 70
    65
 10
0.0
 20
0.0
 30
0.0
  3
*UDIM354
  0
TEXT
  5
   2B4
  8
0
  6
CONTINUOUS
 62
     7
 10
135.638463249588
 20
79.6228072173677
 30
0.0
 40
2.99999994933605
  1
161
 50
89.9999999480344
 41
0.933333333333333
 72
     1
 11
134.138463278452
 21
83.5228071528632
 31
0.0
 73
     2
  0
LINE
  5
   2B5
  8
0
  6
CONTINUOUS
 62
     7
 10
126.851143661202
 20
51.5978051989484
 30
0.0
 11
138.63846325312
 21
51.5978051989484
 31
0.0
  0
LINE
  5
   2B6
  8
0
  6
CONTINUOUS
 62
     7
 10
126.851143661202
 20
115.997804632704
 30
0.0
 11
138.63846325312
 21
115.997804632704
 31
0.0
  0
LINE
  5
   2B7
  8
0
  6
CONTINUOUS
 62
     7
 10
136.63846325312
 20
51.5978051989484
 30
0.0
 11
136.63846325312
 21
115.997804632704
 31
0.0
  0
LINE
  5
   2B8
  8
0
  6
CONTINUOUS
 62
     7
 10
136.117518823168
 20
54.5522284761553
 30
0.0
 11
136.63846325312
 21
51.5978051989484
 31
0.0
  0
LINE
  5
   2B9
  8
0
  6
CONTINUOUS
 62
     7
 10
136.63846325312
 20
51.5978051989484
 30
0.0
 11
137.159407683072
 21
54.5522284761553
 31
0.0
  0
LINE
  5
   2BA
  8
0
  6
CONTINUOUS
 62
     7
 10
137.159407683072
 20
113.043381355497
 30
0.0
 11
136.63846325312
 21
115.997804632704
 31
0.0
  0
LINE
  5
   2BB
  8
0
  6
CONTINUOUS
 62
     7
 10
136.63846325312
 20
115.997804632704
 30
0.0
 11
136.117518823168
 21
113.043381355497
 31
0.0
  0
ENDBLK
  5
   2BC
  8
0
  6
CONTINUOUS
 62
     7
  0
BLOCK
  5
   2BD
  8
0
  6
CONTINUOUS
 62
     7
  2
*UDIM355
 70
    65
 10
0.0
 20
0.0
 30
0.0
  3
*UDIM355
  0
TEXT
  5
   2BE
  8
0
  6
CONTINUOUS
 62
     7
 10
50.4713488683634
 20
38.7228004598912
 30
0.0
 40
2.99999994933605
  1
46
 50
89.9999999480344
 41
0.933333333333333
 72
     1
 11
48.9713488959597
 21
41.2228004190298
 31
0.0
 73
     2
  0
LINE
  5
   2BF
  8
0
  6
CONTINUOUS
 62
     7
 10
87.3107573493867
 20
32.2978003337208
 30
0.0
 11
49.4713488706277
 21
32.2978003337208
 31
0.0
  0
LINE
  5
   2C0
  8
0
  6
CONTINUOUS
 62
     7
 10
68.3511310836074
 20
50.697800607902
 30
0.0
 11
49.4713488706277
 21
50.697800607902
 31
0.0
  0
LINE
  5
   2C1
  8
0
  6
CONTINUOUS
 62
     7
 10
51.4713488706277
 20
32.2978003337208
 30
0.0
 11
51.4713488706277
 21
50.697800607902
 31
0.0
  0
LINE
  5
   2C2
  8
0
  6
CONTINUOUS
 62
     7
 10
50.950404440676
 20
35.2522236109277
 30
0.0
 11
51.4713488706277
 21
32.2978003337208
 31
0.0
  0
LINE
  5
   2C3
  8
0
  6
CONTINUOUS
 62
     7
 10
51.4713488706277
 20
32.2978003337208
 30
0.0
 11
51.9922933005793
 21
35.2522236109277
 31
0.0
  0
LINE
  5
   2C4
  8
0
  6
CONTINUOUS
 62
     7
 10
51.9922933005793
 20
47.743377330695
 30
0.0
 11
51.4713488706277
 21
50.697800607902
 31
0.0
  0
LINE
  5
   2C5
  8
0
  6
CONTINUOUS
 62
     7
 10
51.4713488706277
 20
50.697800607902
 30
0.0
 11
50.950404440676
 21
47.743377330695
 31
0.0
  0
ENDBLK
  5
   2C6
  8
0
  6
CONTINUOUS
 62
     7
  0
BLOCK
  5
   2C7
  8
0
  6
CONTINUOUS
 62
     7
  2
*UDIM356
 70
    65
 10
0.0
 20
0.0
 30
0.0
  3
*UDIM356
  0
TEXT
  5
   2C8
  8
0
  6
CONTINUOUS
 62
     7
 10
50.4713488670954
 20
97.5228013805843
 30
0.0
 40
2.99999994933605
  1
255
 50
89.9999999480344
 41
0.933333333333333
 72
     1
 11
48.9713488959597
 21
101.42280131608
 31
0.0
 73
     2
  0
LINE
  5
   2C9
  8
0
  6
CONTINUOUS
 62
     7
 10
68.3511310836074
 20
152.697802127821
 30
0.0
 11
49.4713488706277
 21
152.697802127821
 31
0.0
  0
LINE
  5
   2CA
  8
0
  6
CONTINUOUS
 62
     7
 10
51.4713488706277
 20
50.697800607902
 30
0.0
 11
51.4713488706277
 21
152.697802127821
 31
0.0
  0
LINE
  5
   2CB
  8
0
  6
CONTINUOUS
 62
     7
 10
50.950404440676
 20
53.6522238851089
 30
0.0
 11
51.4713488706277
 21
50.697800607902
 31
0.0
  0
LINE
  5
   2CC
  8
0
  6
CONTINUOUS
 62
     7
 10
51.4713488706277
 20
50.697800607902
 30
0.0
 11
51.9922933005793
 21
53.6522238851089
 31
0.0
  0
LINE
  5
   2CD
  8
0
  6
CONTINUOUS
 62
     7
 10
51.9922933005793
 20
149.743378850614
 30
0.0
 11
51.4713488706277
 21
152.697802127821
 31
0.0
  0
LINE
  5
   2CE
  8
0
  6
CONTINUOUS
 62
     7
 10
51.4713488706277
 20
152.697802127821
 30
0.0
 11
50.950404440676
 21
149.743378850614
 31
0.0
  0
ENDBLK
  5
   2CF
  8
0
  6
CONTINUOUS
 62
     7
  0
BLOCK
  5
   2D0
  8
0
  6
CONTINUOUS
 62
     7
  2
*UDIM357
 70
    65
 10
0.0
 20
0.0
 30
0.0
  3
*UDIM357
  0
TEXT
  5
   2D1
  8
0
  6
CONTINUOUS
 62
     7
 10
60.1766922556402
 20
60.2728023927201
 30
0.0
 40
2.99999994933605
  1
82,75
 50
89.9999999480344
 41
0.933333333333333
 72
     1
 11
58.6766922870405
 21
66.9728022809291
 31
0.0
 73
     2
  0
LINE
  5
   2D2
  8
0
  6
CONTINUOUS
 62
     7
 10
68.3511310836074
 20
50.697800607902
 30
0.0
 11
59.1766922617085
 21
50.697800607902
 31
0.0
  0
LINE
  5
   2D3
  8
0
  6
CONTINUOUS
 62
     7
 10
63.0635362617364
 20
83.7978041528868
 30
0.0
 11
59.1766922617085
 21
83.7978041528868
 31
0.0
  0
LINE
  5
   2D4
  8
0
  6
CONTINUOUS
 62
     7
 10
61.1766922617085
 20
50.697800607902
 30
0.0
 11
61.1766922617085
 21
83.7978041528868
 31
0.0
  0
LINE
  5
   2D5
  8
0
  6
CONTINUOUS
 62
     7
 10
60.6557478317569
 20
53.6522238851089
 30
0.0
 11
61.1766922617085
 21
50.697800607902
 31
0.0
  0
LINE
  5
   2D6
  8
0
  6
CONTINUOUS
 62
     7
 10
61.1766922617085
 20
50.697800607902
 30
0.0
 11
61.6976366916602
 21
53.6522238851089
 31
0.0
  0
LINE
  5
   2D7
  8
0
  6
CONTINUOUS
 62
     7
 10
61.6976366916602
 20
80.8433808756799
 30
0.0
 11
61.1766922617085
 21
83.7978041528868
 31
0.0
  0
LINE
  5
   2D8
  8
0
  6
CONTINUOUS
 62
     7
 10
61.1766922617085
 20
83.7978041528868
 30
0.0
 11
60.6557478317569
 21
80.8433808756799
 31
0.0
  0
ENDBLK
  5
   2D9
  8
0
  6
CONTINUOUS
 62
     7
  0
BLOCK
  5
   2DA
  8
0
  6
CONTINUOUS
 62
     7
  2
*UDIM358
 70
    65
 10
0.0
 20
0.0
 30
0.0
  3
*UDIM358
  0
TEXT
  5
   2DB
  8
0
  6
CONTINUOUS
 62
     7
 10
91.7761365899139
 20
175.746355926684
 30
0.0
 40
2.99999994933605
  1
140
 50
359.999999948034
 41
0.933333333333333
 72
     1
 11
95.6761365254037
 21
177.246355897834
 31
0.0
 73
     2
  0
LINE
  5
   2DC
  8
0
  6
CONTINUOUS
 62
     7
 10
123.951143632889
 20
152.577800890428
 30
0.0
 11
123.951143632889
 21
176.746355923166
 31
0.0
  0
LINE
  5
   2DD
  8
0
  6
CONTINUOUS
 62
     7
 10
67.9511265650906
 20
152.577800890428
 30
0.0
 11
67.9511265650906
 21
176.746355923166
 31
0.0
  0
LINE
  5
   2DE
  8
0
  6
CONTINUOUS
 62
     7
 10
123.951143632889
 20
174.746355923166
 30
0.0
 11
67.9511265650906
 21
174.746355923166
 31
0.0
  0
LINE
  5
   2DF
  8
0
  6
CONTINUOUS
 62
     7
 10
120.996720355682
 20
174.225411493215
 30
0.0
 11
123.951143632889
 21
174.746355923166
 31
0.0
  0
LINE
  5
   2E0
  8
0
  6
CONTINUOUS
 62
     7
 10
123.951143632889
 20
174.746355923166
 30
0.0
 11
120.996720355682
 21
175.267300353118
 31
0.0
  0
LINE
  5
   2E1
  8
0
  6
CONTINUOUS
 62
     7
 10
70.9055498422976
 20
175.267300353118
 30
0.0
 11
67.9511265650906
 21
174.746355923166
 31
0.0
  0
LINE
  5
   2E2
  8
0
  6
CONTINUOUS
 62
     7
 10
67.9511265650906
 20
174.746355923166
 30
0.0
 11
70.9055498422976
 21
174.225411493215
 31
0.0
  0
ENDBLK
  5
   2E3
  8
0
  6
CONTINUOUS
 62
     7
  0
BLOCK
  5
   2E4
  8
0
  6
CONTINUOUS
 62
     7
  2
*UDIM359
 70
    65
 10
0.0
 20
0.0
 30
0.0
  3
*UDIM359
  0
TEXT
  5
   2E5
  8
0
  6
CONTINUOUS
 62
     7
 10
107.876146016194
 20
167.458648284919
 30
0.0
 40
2.99999994933605
  1
52,5
 50
359.999999948034
 41
0.933333333333333
 72
     1
 11
113.176145928041
 21
168.958648254807
 31
0.0
 73
     2
  0
LINE
  5
   2E6
  8
0
  6
CONTINUOUS
 62
     7
 10
123.951143632889
 20
152.577800890428
 30
0.0
 11
123.951143632889
 21
168.458648280139
 31
0.0
  0
LINE
  5
   2E7
  8
0
  6
CONTINUOUS
 62
     7
 10
102.951143319965
 20
155.354235863671
 30
0.0
 11
102.951143319965
 21
168.458648280139
 31
0.0
  0
LINE
  5
   2E8
  8
0
  6
CONTINUOUS
 62
     7
 10
123.951143632889
 20
166.458648280139
 30
0.0
 11
102.951143319965
 21
166.458648280139
 31
0.0
  0
LINE
  5
   2E9
  8
0
  6
CONTINUOUS
 62
     7
 10
120.996720355682
 20
165.937703850187
 30
0.0
 11
123.951143632889
 21
166.458648280139
 31
0.0
  0
LINE
  5
   2EA
  8
0
  6
CONTINUOUS
 62
     7
 10
123.951143632889
 20
166.458648280139
 30
0.0
 11
120.996720355682
 21
166.97959271009
 31
0.0
  0
LINE
  5
   2EB
  8
0
  6
CONTINUOUS
 62
     7
 10
105.905566597172
 20
166.97959271009
 30
0.0
 11
102.951143319965
 21
166.458648280139
 31
0.0
  0
LINE
  5
   2EC
  8
0
  6
CONTINUOUS
 62
     7
 10
102.951143319965
 20
166.458648280139
 30
0.0
 11
105.905566597172
 21
165.937703850187
 31
0.0
  0
ENDBLK
  5
   2ED
  8
0
  6
CONTINUOUS
 62
     7
  0
BLOCK
  5
   2EE
  8
0
  6
CONTINUOUS
 62
     7
  2
*UDIM360
 70
    65
 10
0.0
 20
0.0
 30
0.0
  3
*UDIM360
  0
TEXT
  5
   2EF
  8
0
  6
CONTINUOUS
 62
     7
 10
107.176136799186
 20
158.516655961648
 30
0.0
 40
2.99999994933605
  1
35
 50
359.999999948034
 41
0.933333333333333
 72
     1
 11
109.676136758319
 21
160.016655934061
 31
0.0
 73
     2
  0
LINE
  5
   2F0
  8
0
  6
CONTINUOUS
 62
     7
 10
116.951134353352
 20
152.097803789557
 30
0.0
 11
116.951134353352
 21
159.516655959393
 31
0.0
  0
LINE
  5
   2F1
  8
0
  6
CONTINUOUS
 62
     7
 10
102.951143319965
 20
155.354235863671
 30
0.0
 11
102.951143319965
 21
159.516655959393
 31
0.0
  0
LINE
  5
   2F2
  8
0
  6
CONTINUOUS
 62
     7
 10
116.951134353352
 20
157.516655959393
 30
0.0
 11
102.951143319965
 21
157.516655959393
 31
0.0
  0
LINE
  5
   2F3
  8
0
  6
CONTINUOUS
 62
     7
 10
113.996711076145
 20
156.995711529441
 30
0.0
 11
116.951134353352
 21
157.516655959393
 31
0.0
  0
LINE
  5
   2F4
  8
0
  6
CONTINUOUS
 62
     7
 10
116.951134353352
 20
157.516655959393
 30
0.0
 11
113.996711076145
 21
158.037600389344
 31
0.0
  0
LINE
  5
   2F5
  8
0
  6
CONTINUOUS
 62
     7
 10
105.905566597172
 20
158.037600389344
 30
0.0
 11
102.951143319965
 21
157.516655959393
 31
0.0
  0
LINE
  5
   2F6
  8
0
  6
CONTINUOUS
 62
     7
 10
102.951143319965
 20
157.516655959393
 30
0.0
 11
105.905566597172
 21
156.995711529441
 31
0.0
  0
ENDBLK
  5
   2F7
  8
0
  6
CONTINUOUS
 62
     7
  0
BLOCK
  5
   2F8
  8
0
  6
CONTINUOUS
 62
     7
  2
*UDIM361
 70
    65
 10
0.0
 20
0.0
 30
0.0
  3
*UDIM361
  0
TEXT
  5
   2F9
  8
0
  6
CONTINUOUS
 62
     7
 10
93.1761365947788
 20
158.516655961648
 30
0.0
 40
2.99999994933605
  1
35
 50
359.999999948034
 41
0.933333333333333
 72
     1
 11
95.6761365539118
 21
160.016655934061
 31
0.0
 73
     2
  0
LINE
  5
   2FA
  8
0
  6
CONTINUOUS
 62
     7
 10
88.9511311311983
 20
152.097799016272
 30
0.0
 11
88.9511311311983
 21
159.516655959393
 31
0.0
  0
LINE
  5
   2FB
  8
0
  6
CONTINUOUS
 62
     7
 10
102.951143319965
 20
157.516655959393
 30
0.0
 11
88.9511311311983
 21
157.516655959393
 31
0.0
  0
LINE
  5
   2FC
  8
0
  6
CONTINUOUS
 62
     7
 10
99.9967200427581
 20
156.995711529441
 30
0.0
 11
102.951143319965
 21
157.516655959393
 31
0.0
  0
LINE
  5
   2FD
  8
0
  6
CONTINUOUS
 62
     7
 10
102.951143319965
 20
157.516655959393
 30
0.0
 11
99.9967200427581
 21
158.037600389344
 31
0.0
  0
LINE
  5
   2FE
  8
0
  6
CONTINUOUS
 62
     7
 10
91.9055544084053
 20
158.037600389344
 30
0.0
 11
88.9511311311983
 21
157.516655959393
 31
0.0
  0
LINE
  5
   2FF
  8
0
  6
CONTINUOUS
 62
     7
 10
88.9511311311983
 20
157.516655959393
 30
0.0
 11
91.9055544084053
 21
156.995711529441
 31
0.0
  0
ENDBLK
  5
   300
  8
0
  6
CONTINUOUS
 62
     7
  0
BLOCK
  5
   301
  8
0
  6
CONTINUOUS
 62
     7
  2
*UDIM362
 70
    65
 10
0.0
 20
0.0
 30
0.0
  3
*UDIM362
  0
TEXT
  5
   302
  8
0
  6
CONTINUOUS
 62
     7
 10
79.176130276878
 20
158.516655961648
 30
0.0
 40
2.99999994933605
  1
35
 50
359.999999948034
 41
0.933333333333333
 72
     1
 11
81.676130236011
 21
160.016655934061
 31
0.0
 73
     2
  0
LINE
  5
   303
  8
0
  6
CONTINUOUS
 62
     7
 10
74.951130922582
 20
152.097799016272
 30
0.0
 11
74.951130922582
 21
159.516655959393
 31
0.0
  0
LINE
  5
   304
  8
0
  6
CONTINUOUS
 62
     7
 10
88.9511311311983
 20
157.516655959393
 30
0.0
 11
74.951130922582
 21
157.516655959393
 31
0.0
  0
LINE
  5
   305
  8
0
  6
CONTINUOUS
 62
     7
 10
85.9967078539913
 20
156.995711529441
 30
0.0
 11
88.9511311311983
 21
157.516655959393
 31
0.0
  0
LINE
  5
   306
  8
0
  6
CONTINUOUS
 62
     7
 10
88.9511311311983
 20
157.516655959393
 30
0.0
 11
85.9967078539913
 21
158.037600389344
 31
0.0
  0
LINE
  5
   307
  8
0
  6
CONTINUOUS
 62
     7
 10
77.905554199789
 20
158.037600389344
 30
0.0
 11
74.951130922582
 21
157.516655959393
 31
0.0
  0
LINE
  5
   308
  8
0
  6
CONTINUOUS
 62
     7
 10
74.951130922582
 20
157.516655959393
 30
0.0
 11
77.905554199789
 21
156.995711529441
 31
0.0
  0
ENDBLK
  5
   309
  8
0
  6
CONTINUOUS
 62
     7
  0
BLOCK
  5
   30A
  8
0
  6
CONTINUOUS
 62
     7
  2
*UDIM363
 70
    65
 10
0.0
 20
0.0
 30
0.0
  3
*UDIM363
  0
TEXT
  5
   30B
  8
0
  6
CONTINUOUS
 62
     7
 10
98.7761458599307
 20
14.6158542580744
 30
0.0
 40
2.99999994933605
  1
117
 50
359.999999948034
 41
0.933333333333333
 72
     1
 11
102.67614579542
 21
16.1158542292248
 31
0.0
 73
     2
  0
LINE
  5
   30C
  8
0
  6
CONTINUOUS
 62
     7
 10
126.351143668652
 20
51.097805206399
 30
0.0
 11
126.351143668652
 21
11.6158542545568
 31
0.0
  0
LINE
  5
   30D
  8
0
  6
CONTINUOUS
 62
     7
 10
79.5511429712778
 20
51.097805206399
 30
0.0
 11
79.5511429712778
 21
11.6158542545568
 31
0.0
  0
LINE
  5
   30E
  8
0
  6
CONTINUOUS
 62
     7
 10
126.351143668652
 20
13.6158542545568
 30
0.0
 11
79.5511429712778
 21
13.6158542545568
 31
0.0
  0
LINE
  5
   30F
  8
0
  6
CONTINUOUS
 62
     7
 10
123.396720391445
 20
13.0949098246051
 30
0.0
 11
126.351143668652
 21
13.6158542545568
 31
0.0
  0
LINE
  5
   310
  8
0
  6
CONTINUOUS
 62
     7
 10
126.351143668652
 20
13.6158542545568
 30
0.0
 11
123.396720391445
 21
14.1367986845084
 31
0.0
  0
LINE
  5
   311
  8
0
  6
CONTINUOUS
 62
     7
 10
82.5055662484848
 20
14.1367986845084
 30
0.0
 11
79.5511429712778
 21
13.6158542545568
 31
0.0
  0
LINE
  5
   312
  8
0
  6
CONTINUOUS
 62
     7
 10
79.5511429712778
 20
13.6158542545568
 30
0.0
 11
82.5055662484848
 21
13.0949098246051
 31
0.0
  0
ENDBLK
  5
   313
  8
0
  6
CONTINUOUS
 62
     7
  0
BLOCK
  5
   314
  8
0
  6
CONTINUOUS
 62
     7
  2
*UDIM364
 70
    65
 10
0.0
 20
0.0
 30
0.0
  3
*UDIM364
  0
TEXT
  5
   315
  8
0
  6
CONTINUOUS
 62
     7
 10
98.7761458599307
 20
24.430246494164
 30
0.0
 40
2.99999994933605
  1
105
 50
359.999999948034
 41
0.933333333333333
 72
     1
 11
102.67614579542
 21
25.9302464653144
 31
0.0
 73
     2
  0
LINE
  5
   316
  8
0
  6
CONTINUOUS
 62
     7
 10
123.951143632889
 20
61.9978038429427
 30
0.0
 11
123.951143632889
 21
21.4302464906464
 31
0.0
  0
LINE
  5
   317
  8
0
  6
CONTINUOUS
 62
     7
 10
81.9511430070406
 20
61.9978038429427
 30
0.0
 11
81.9511430070406
 21
21.4302464906464
 31
0.0
  0
LINE
  5
   318
  8
0
  6
CONTINUOUS
 62
     7
 10
123.951143632889
 20
23.4302464906464
 30
0.0
 11
81.9511430070406
 21
23.4302464906464
 31
0.0
  0
LINE
  5
   319
  8
0
  6
CONTINUOUS
 62
     7
 10
120.996720355682
 20
22.9093020606947
 30
0.0
 11
123.951143632889
 21
23.4302464906464
 31
0.0
  0
LINE
  5
   31A
  8
0
  6
CONTINUOUS
 62
     7
 10
123.951143632889
 20
23.4302464906464
 30
0.0
 11
120.996720355682
 21
23.951190920598
 31
0.0
  0
LINE
  5
   31B
  8
0
  6
CONTINUOUS
 62
     7
 10
84.9055662842476
 20
23.951190920598
 30
0.0
 11
81.9511430070406
 21
23.4302464906464
 31
0.0
  0
LINE
  5
   31C
  8
0
  6
CONTINUOUS
 62
     7
 10
81.9511430070406
 20
23.4302464906464
 30
0.0
 11
84.9055662842476
 21
22.9093020606947
 31
0.0
  0
ENDBLK
  5
   31D
  8
0
  6
CONTINUOUS
 62
     7
  0
BLOCK
  5
   31E
  8
0
  6
CONTINUOUS
 62
     7
  2
*UDIM365
 70
    65
 10
0.0
 20
0.0
 30
0.0
  3
*UDIM365
  0
TEXT
  5
   31F
  8
0
  6
CONTINUOUS
 62
     7
 10
151.210977139342
 20
-89.2554817154484
 30
0.0
 40
3.00000002980232
  1
70
 50
359.999999896069
 41
0.933333333333333
 72
     1
 11
153.710977166891
 21
-87.7554817050695
 31
0.0
 73
     2
  0
LINE
  5
   320
  8
0
  6
CONTINUOUS
 62
     7
 10
162.735977172852
 20
-80.9979110584253
 30
0.0
 11
162.735977172852
 21
-92.2554817199707
 31
0.0
  0
LINE
  5
   321
  8
0
  6
CONTINUOUS
 62
     7
 10
145.235977172852
 20
-78.4810523986816
 30
0.0
 11
145.235977172852
 21
-92.2554817199707
 31
0.0
  0
LINE
  5
   322
  8
0
  6
CONTINUOUS
 62
     7
 10
162.735977172852
 20
-90.2554817199707
 30
0.0
 11
145.235977172852
 21
-90.2554817199707
 31
0.0
  0
LINE
  5
   323
  8
0
  6
CONTINUOUS
 62
     7
 10
159.781553895645
 20
-90.7764261499224
 30
0.0
 11
162.735977172852
 21
-90.2554817199707
 31
0.0
  0
LINE
  5
   324
  8
0
  6
CONTINUOUS
 62
     7
 10
162.735977172852
 20
-90.2554817199707
 30
0.0
 11
159.781553895645
 21
-89.734537290019
 31
0.0
  0
LINE
  5
   325
  8
0
  6
CONTINUOUS
 62
     7
 10
148.190400450059
 20
-89.734537290019
 30
0.0
 11
145.235977172852
 21
-90.2554817199707
 31
0.0
  0
LINE
  5
   326
  8
0
  6
CONTINUOUS
 62
     7
 10
145.235977172852
 20
-90.2554817199707
 30
0.0
 11
148.190400450059
 21
-90.7764261499224
 31
0.0
  0
ENDBLK
  5
   327
  8
0
  6
CONTINUOUS
 62
     7
  0
BLOCK
  5
   328
  8
0
  6
CONTINUOUS
 62
     7
  2
*UDIM366
 70
    65
 10
0.0
 20
0.0
 30
0.0
  3
*UDIM366
  0
TEXT
  5
   329
  8
0
  6
CONTINUOUS
 62
     7
 10
134.766063678074
 20
-55.8310520864819
 30
0.0
 40
3.00000002980232
  1
67,25
 50
449.999999896069
 41
0.933333333333333
 72
     1
 11
133.266063675284
 21
-49.1310520172119
 31
0.0
 73
     2
  0
LINE
  5
   32A
  8
0
  6
CONTINUOUS
 62
     7
 10
142.298477172852
 20
-75.5435523986816
 30
0.0
 11
133.766063690186
 21
-75.5435523986816
 31
0.0
  0
LINE
  5
   32B
  8
0
  6
CONTINUOUS
 62
     7
 10
135.766063690186
 20
-42.4310519506534
 30
0.0
 11
135.766063690186
 21
-75.5435523986816
 31
0.0
  0
LINE
  5
   32C
  8
0
  6
CONTINUOUS
 62
     7
 10
136.287008120137
 20
-61.6854756758886
 30
0.0
 11
135.766063690186
 21
-58.7310523986816
 31
0.0
  0
LINE
  5
   32D
  8
0
  6
CONTINUOUS
 62
     7
 10
135.766063690186
 20
-58.7310523986816
 30
0.0
 11
135.245119260234
 21
-61.6854756758886
 31
0.0
  0
LINE
  5
   32E
  8
0
  6
CONTINUOUS
 62
     7
 10
135.245119260234
 20
-72.5891291214747
 30
0.0
 11
135.766063690186
 21
-75.5435523986816
 31
0.0
  0
LINE
  5
   32F
  8
0
  6
CONTINUOUS
 62
     7
 10
135.766063690186
 20
-75.5435523986816
 30
0.0
 11
136.287008120137
 21
-72.5891291214747
 31
0.0
  0
ENDBLK
  5
   330
  8
0
  6
CONTINUOUS
 62
     7
  0
BLOCK
  5
   331
  8
0
  6
CONTINUOUS
 62
     7
  2
*UDIM367
 70
    65
 10
0.0
 20
0.0
 30
0.0
  3
*UDIM367
  0
TEXT
  5
   332
  8
0
  6
CONTINUOUS
 62
     7
 10
175.023593245278
 20
-76.5353802409729
 30
0.0
 40
3.00000002980232
  1
5,5
 50
350.732338238479
 41
0.933333333333333
 72
     1
 11
179.114255896338
 21
-75.6830426188297
 31
0.0
 73
     2
  0
TEXT
  5
   333
  8
0
  6
CONTINUOUS
 62
     7
 10
171.914710908788
 20
-76.0280828129838
 30
0.0
 40
3.00000002980232
  1
Ø
 50
350.732338238479
 41
0.933333333333334
 72
     1
 11
173.241922576882
 21
-74.7248141312387
 31
0.0
 73
     2
  0
TEXT
  5
   334
  8
0
  6
CONTINUOUS
 62
     7
 10
183.264598864814
 20
-77.8801210605608
 30
0.0
 40
3.00000002980232
  1
 - M5
 50
350.732338238479
 41
0.933333333333333
 72
     1
 11
190.11871249884
 21
-77.4787144980194
 31
0.0
 73
     2
  0
LINE
  5
   335
  8
0
  6
CONTINUOUS
 62
     7
 10
196.328638912878
 20
-81.0250950329618
 30
0.0
 11
162.057451268396
 21
-75.4328327211961
 31
0.0
  0
LINE
  5
   336
  8
0
  6
CONTINUOUS
 62
     7
 10
166.414258023611
 20
-75.6159280789368
 30
0.0
 11
163.414503077307
 21
-75.6542720761672
 31
0.0
  0
LINE
  5
   337
  8
0
  6
CONTINUOUS
 62
     7
 10
163.414503077307
 20
-75.6542720761672
 30
0.0
 11
166.246465153002
 21
-76.6442169240397
 31
0.0
  0
LINE
  5
   338
  8
0
  6
CONTINUOUS
 62
     7
 10
159.057696322092
 20
-75.4711767184265
 30
0.0
 11
162.057451268396
 21
-75.4328327211961
 31
0.0
  0
LINE
  5
   339
  8
0
  6
CONTINUOUS
 62
     7
 10
162.057451268396
 20
-75.4328327211961
 30
0.0
 11
159.225489192702
 21
-74.4428878733235
 31
0.0
  0
ENDBLK
  5
   33A
  8
0
  6
CONTINUOUS
 62
     7
  0
BLOCK
  5
   33B
  8
0
  6
CONTINUOUS
 62
     7
  2
*UDIM368
 70
    65
 10
0.0
 20
0.0
 30
0.0
  3
*UDIM368
  0
TEXT
  5
   33C
  8
0
  6
CONTINUOUS
 62
     7
 10
127.634271614654
 20
-51.7185524460966
 30
0.0
 40
3.00000002980232
  1
224
 50
449.999999896069
 41
0.933333333333333
 72
     1
 11
126.134271606803
 21
-47.8185524046421
 31
0.0
 73
     2
  0
LINE
  5
   33D
  8
0
  6
CONTINUOUS
 62
     7
 10
142.298477172852
 20
-19.5435523986816
 30
0.0
 11
126.634271621704
 21
-19.5435523986816
 31
0.0
  0
LINE
  5
   33E
  8
0
  6
CONTINUOUS
 62
     7
 10
142.298477172852
 20
-75.5435523986816
 30
0.0
 11
126.634271621704
 21
-75.5435523986816
 31
0.0
  0
LINE
  5
   33F
  8
0
  6
CONTINUOUS
 62
     7
 10
128.634271621704
 20
-19.5435523986816
 30
0.0
 11
128.634271621704
 21
-75.5435523986816
 31
0.0
  0
LINE
  5
   340
  8
0
  6
CONTINUOUS
 62
     7
 10
129.155216051656
 20
-22.4979756758886
 30
0.0
 11
128.634271621704
 21
-19.5435523986816
 31
0.0
  0
LINE
  5
   341
  8
0
  6
CONTINUOUS
 62
     7
 10
128.634271621704
 20
-19.5435523986816
 30
0.0
 11
128.113327191752
 21
-22.4979756758886
 31
0.0
  0
LINE
  5
   342
  8
0
  6
CONTINUOUS
 62
     7
 10
128.113327191752
 20
-72.5891291214747
 30
0.0
 11
128.634271621704
 21
-75.5435523986816
 31
0.0
  0
LINE
  5
   343
  8
0
  6
CONTINUOUS
 62
     7
 10
128.634271621704
 20
-75.5435523986816
 30
0.0
 11
129.155216051656
 21
-72.5891291214747
 31
0.0
  0
ENDBLK
  5
   344
  8
0
  6
CONTINUOUS
 62
     7
  0
BLOCK
  5
   345
  8
0
  6
CONTINUOUS
 62
     7
  2
*UDIM369
 70
    65
 10
0.0
 20
0.0
 30
0.0
  3
*UDIM369
  0
TEXT
  5
   346
  8
0
  6
CONTINUOUS
 62
     7
 10
171.538430349299
 20
-34.1289615535231
 30
0.0
 40
3.00000002980232
  1
17,5
 50
359.999999896069
 41
0.933333333333333
 72
     1
 11
176.838430404663
 21
-32.6289615482092
 31
0.0
 73
     2
  0
LINE
  5
   347
  8
0
  6
CONTINUOUS
 62
     7
 10
182.138430457314
 20
-35.1289615631104
 30
0.0
 11
158.360977172852
 21
-35.1289615631104
 31
0.0
  0
LINE
  5
   348
  8
0
  6
CONTINUOUS
 62
     7
 10
165.690400450059
 20
-34.6080171331587
 30
0.0
 11
162.735977172852
 21
-35.1289615631104
 31
0.0
  0
LINE
  5
   349
  8
0
  6
CONTINUOUS
 62
     7
 10
162.735977172852
 20
-35.1289615631104
 30
0.0
 11
165.690400450059
 21
-35.649905993062
 31
0.0
  0
LINE
  5
   34A
  8
0
  6
CONTINUOUS
 62
     7
 10
155.406553895645
 20
-35.649905993062
 30
0.0
 11
158.360977172852
 21
-35.1289615631104
 31
0.0
  0
LINE
  5
   34B
  8
0
  6
CONTINUOUS
 62
     7
 10
158.360977172852
 20
-35.1289615631104
 30
0.0
 11
155.406553895645
 21
-34.6080171331587
 31
0.0
  0
ENDBLK
  5
   34C
  8
0
  6
CONTINUOUS
 62
     7
  0
BLOCK
  5
   34D
  8
0
  6
CONTINUOUS
 62
     7
  2
*UDIM370
 70
    65
 10
0.0
 20
0.0
 30
0.0
  3
*UDIM370
  0
TEXT
  5
   34E
  8
0
  6
CONTINUOUS
 62
     7
 10
204.884452807713
 20
-76.9873024739121
 30
0.0
 40
3.00000002980232
  1
90,25
 50
449.999999896069
 41
0.933333333333333
 72
     1
 11
203.384452804923
 21
-70.2873024046421
 31
0.0
 73
     2
  0
LINE
  5
   34F
  8
0
  6
CONTINUOUS
 62
     7
 10
212.083185964947
 20
-58.7310523986816
 30
0.0
 11
203.884452819824
 21
-58.7310523986816
 31
0.0
  0
LINE
  5
   350
  8
0
  6
CONTINUOUS
 62
     7
 10
212.202624936355
 20
-81.2935523986816
 30
0.0
 11
203.884452819824
 21
-81.2935523986816
 31
0.0
  0
LINE
  5
   351
  8
0
  6
CONTINUOUS
 62
     7
 10
205.884452819824
 20
-58.7310523986816
 30
0.0
 11
205.884452819824
 21
-81.2935523986816
 31
0.0
  0
LINE
  5
   352
  8
0
  6
CONTINUOUS
 62
     7
 10
206.405397249776
 20
-61.6854756758886
 30
0.0
 11
205.884452819824
 21
-58.7310523986816
 31
0.0
  0
LINE
  5
   353
  8
0
  6
CONTINUOUS
 62
     7
 10
205.884452819824
 20
-58.7310523986816
 30
0.0
 11
205.363508389873
 21
-61.6854756758886
 31
0.0
  0
LINE
  5
   354
  8
0
  6
CONTINUOUS
 62
     7
 10
205.363508389873
 20
-78.3391291214747
 30
0.0
 11
205.884452819824
 21
-81.2935523986816
 31
0.0
  0
LINE
  5
   355
  8
0
  6
CONTINUOUS
 62
     7
 10
205.884452819824
 20
-81.2935523986816
 30
0.0
 11
206.405397249776
 21
-78.3391291214747
 31
0.0
  0
ENDBLK
  5
   356
  8
0
  6
CONTINUOUS
 62
     7
  0
BLOCK
  5
   357
  8
0
  6
CONTINUOUS
 62
     7
  2
*UDIM371
 70
    65
 10
0.0
 20
0.0
 30
0.0
  3
*UDIM371
  0
TEXT
  5
   358
  8
0
  6
CONTINUOUS
 62
     7
 10
258.448984139068
 20
-51.7185524460966
 30
0.0
 40
3.00000002980232
  1
270
 50
449.999999896069
 41
0.933333333333333
 72
     1
 11
256.948984131217
 21
-47.8185524046421
 31
0.0
 73
     2
  0
LINE
  5
   359
  8
0
  6
CONTINUOUS
 62
     7
 10
250.362777709961
 20
-13.7935523986816
 30
0.0
 11
261.448984146118
 21
-13.7935523986816
 31
0.0
  0
LINE
  5
   35A
  8
0
  6
CONTINUOUS
 62
     7
 10
250.362777709961
 20
-81.2935523986816
 30
0.0
 11
261.448984146118
 21
-81.2935523986816
 31
0.0
  0
LINE
  5
   35B
  8
0
  6
CONTINUOUS
 62
     7
 10
259.448984146118
 20
-13.7935523986816
 30
0.0
 11
259.448984146118
 21
-81.2935523986816
 31
0.0
  0
LINE
  5
   35C
  8
0
  6
CONTINUOUS
 62
     7
 10
259.96992857607
 20
-16.7479756758886
 30
0.0
 11
259.448984146118
 21
-13.7935523986816
 31
0.0
  0
LINE
  5
   35D
  8
0
  6
CONTINUOUS
 62
     7
 10
259.448984146118
 20
-13.7935523986816
 30
0.0
 11
258.928039716167
 21
-16.7479756758886
 31
0.0
  0
LINE
  5
   35E
  8
0
  6
CONTINUOUS
 62
     7
 10
258.928039716167
 20
-78.3391291214747
 30
0.0
 11
259.448984146118
 21
-81.2935523986816
 31
0.0
  0
LINE
  5
   35F
  8
0
  6
CONTINUOUS
 62
     7
 10
259.448984146118
 20
-81.2935523986816
 30
0.0
 11
259.96992857607
 21
-78.3391291214747
 31
0.0
  0
ENDBLK
  5
   360
  8
0
  6
CONTINUOUS
 62
     7
  0
BLOCK
  5
   361
  8
0
  6
CONTINUOUS
 62
     7
  2
*UDIM372
 70
    65
 10
0.0
 20
0.0
 30
0.0
  3
*UDIM372
  0
TEXT
  5
   362
  8
0
  6
CONTINUOUS
 62
     7
 10
224.874606186418
 20
-42.2203836370492
 30
0.0
 40
3.00000002980232
  1
105
 50
359.999999896069
 41
0.933333333333333
 72
     1
 11
228.774606227875
 21
-40.7203836292028
 31
0.0
 73
     2
  0
LINE
  5
   363
  8
0
  6
CONTINUOUS
 62
     7
 10
244.862777709961
 20
-19.5569693705226
 30
0.0
 11
244.862777709961
 21
-45.220383644104
 31
0.0
  0
LINE
  5
   364
  8
0
  6
CONTINUOUS
 62
     7
 10
218.612777709961
 20
-19.7871939325997
 30
0.0
 11
218.612777709961
 21
-45.220383644104
 31
0.0
  0
LINE
  5
   365
  8
0
  6
CONTINUOUS
 62
     7
 10
244.862777709961
 20
-43.220383644104
 30
0.0
 11
218.612777709961
 21
-43.220383644104
 31
0.0
  0
LINE
  5
   366
  8
0
  6
CONTINUOUS
 62
     7
 10
241.908354432754
 20
-43.7413280740557
 30
0.0
 11
244.862777709961
 21
-43.220383644104
 31
0.0
  0
LINE
  5
   367
  8
0
  6
CONTINUOUS
 62
     7
 10
244.862777709961
 20
-43.220383644104
 30
0.0
 11
241.908354432754
 21
-42.6994392141523
 31
0.0
  0
LINE
  5
   368
  8
0
  6
CONTINUOUS
 62
     7
 10
221.567200987168
 20
-42.6994392141523
 30
0.0
 11
218.612777709961
 21
-43.220383644104
 31
0.0
  0
LINE
  5
   369
  8
0
  6
CONTINUOUS
 62
     7
 10
218.612777709961
 20
-43.220383644104
 30
0.0
 11
221.567200987168
 21
-43.7413280740557
 31
0.0
  0
ENDBLK
  5
   36A
  8
0
  6
CONTINUOUS
 62
     7
  0
BLOCK
  5
   36B
  8
0
  6
CONTINUOUS
 62
     7
  2
*UDIM373
 70
    65
 10
0.0
 20
0.0
 30
0.0
  3
*UDIM373
  0
TEXT
  5
   36C
  8
0
  6
CONTINUOUS
 62
     7
 10
237.693152012694
 20
-32.9076156570988
 30
0.0
 40
3.00000002980232
  1
35
 50
359.999999896069
 41
0.933333333333333
 72
     1
 11
240.193152040243
 21
-31.4076156467199
 31
0.0
 73
     2
  0
LINE
  5
   36D
  8
0
  6
CONTINUOUS
 62
     7
 10
244.862777709961
 20
-19.5569693705226
 30
0.0
 11
244.862777709961
 21
-35.9076156616211
 31
0.0
  0
LINE
  5
   36E
  8
0
  6
CONTINUOUS
 62
     7
 10
244.862777709961
 20
-33.9076156616211
 30
0.0
 11
236.112777709961
 21
-33.9076156616211
 31
0.0
  0
LINE
  5
   36F
  8
0
  6
CONTINUOUS
 62
     7
 10
247.817200987168
 20
-33.3866712316694
 30
0.0
 11
244.862777709961
 21
-33.9076156616211
 31
0.0
  0
LINE
  5
   370
  8
0
  6
CONTINUOUS
 62
     7
 10
244.862777709961
 20
-33.9076156616211
 30
0.0
 11
247.817200987168
 21
-34.4285600915728
 31
0.0
  0
LINE
  5
   371
  8
0
  6
CONTINUOUS
 62
     7
 10
233.158354432754
 20
-34.4285600915728
 30
0.0
 11
236.112777709961
 21
-33.9076156616211
 31
0.0
  0
LINE
  5
   372
  8
0
  6
CONTINUOUS
 62
     7
 10
236.112777709961
 20
-33.9076156616211
 30
0.0
 11
233.158354432754
 21
-33.3866712316694
 31
0.0
  0
ENDBLK
  5
   373
  8
0
  6
CONTINUOUS
 62
     7
  0
BLOCK
  5
   374
  8
0
  6
CONTINUOUS
 62
     7
  2
*UDIM374
 70
    65
 10
0.0
 20
0.0
 30
0.0
  3
*UDIM374
  0
TEXT
  5
   375
  8
0
  6
CONTINUOUS
 62
     7
 10
254.896078223203
 20
-88.0741971123568
 30
0.0
 40
3.00000002980232
  1
15
 50
321.211823876089
 41
0.933333333333333
 72
     1
 11
257.784410850618
 21
-88.4711036533588
 31
0.0
 73
     2
  0
TEXT
  5
   376
  8
0
  6
CONTINUOUS
 62
     7
 10
252.752543233249
 20
-86.3514789309326
 30
0.0
 40
3.00000002980232
  1
R
 50
321.211823876089
 41
0.933333333333334
 72
     1
 11
254.549621688917
 21
-85.8713653059254
 31
0.0
 73
     2
  0
LINE
  5
   377
  8
0
  6
CONTINUOUS
 62
     7
 10
258.166971587732
 20
-91.9858792480591
 30
0.0
 11
236.09377104707
 21
-74.2460690076994
 31
0.0
  0
LINE
  5
   378
  8
0
  6
CONTINUOUS
 62
     7
 10
245.156561742432
 20
-82.1979949691153
 30
0.0
 11
247.785779930925
 21
-83.6427135290091
 31
0.0
  0
LINE
  5
   379
  8
0
  6
CONTINUOUS
 62
     7
 10
247.785779930925
 20
-83.6427135290091
 30
0.0
 11
245.809245692247
 21
-81.3858767153833
 31
0.0
  0
ENDBLK
  5
   37A
  8
0
  6
CONTINUOUS
 62
     7
  0
ENDSEC
  0
SECTION
  2
ENTITIES
  0
LINE
  5
   37B
  8
0
  6
CONTINUOUS
 62
     7
 10
70.693962097168
 20
-72.7310523986816
 30
0.0
 11
98.693962097168
 21
-72.7310523986816
 31
0.0
  0
LINE
  5
   37C
  8
0
  6
CONTINUOUS
 62
     7
 10
70.693962097168
 20
-44.7310523986816
 30
0.0
 11
98.693962097168
 21
-44.7310523986816
 31
0.0
  0
LINE
  5
   37D
  8
0
  6
CONTINUOUS
 62
     7
 10
70.693962097168
 20
-44.7310523986816
 30
0.0
 11
70.693962097168
 21
-72.7310523986816
 31
0.0
  0
LINE
  5
   37E
  8
0
  6
CONTINUOUS
 62
     7
 10
98.693962097168
 20
-44.7310523986816
 30
0.0
 11
98.693962097168
 21
-72.7310523986816
 31
0.0
  0
LINE
  5
   37F
  8
0
  6
DASHDOT
 62
     7
 10
84.693962097168
 20
-29.6370891527061
 30
0.0
 11
84.693962097168
 21
-88.7678426764889
 31
0.0
  0
CIRCLE
  5
   380
  8
0
  6
CONTINUOUS
 62
     7
 10
74.693962097168
 20
-40.9810523986816
 30
0.0
 40
0.875
  0
CIRCLE
  5
   381
  8
0
  6
CONTINUOUS
 62
     7
 10
94.693962097168
 20
-40.9810523986816
 30
0.0
 40
0.875
  0
CIRCLE
  5
   382
  8
0
  6
CONTINUOUS
 62
     7
 10
94.693962097168
 20
-76.4810523986816
 30
0.0
 40
0.875
  0
CIRCLE
  5
   383
  8
0
  6
CONTINUOUS
 62
     7
 10
74.693962097168
 20
-76.4810523986816
 30
0.0
 40
0.875
  0
LINE
  5
   384
  8
0
  6
CONTINUOUS
 62
     3
 10
66.7294664277535
 20
-38.6312521013904
 30
0.0
 11
102.532835697739
 21
-38.6312521013904
 31
0.0
  0
LINE
  5
   385
  8
0
  6
CONTINUOUS
 62
     3
 10
66.7294664277535
 20
-79.8365332261456
 30
0.0
 11
102.532835697739
 21
-79.8365332261456
 31
0.0
  0
LINE
  5
   386
  8
0
  6
CONTINUOUS
 62
     3
 10
102.532835697739
 20
-38.6312521013904
 30
0.0
 11
102.532835697739
 21
-79.8365332261456
 31
0.0
  0
LINE
  5
   387
  8
0
  6
CONTINUOUS
 62
     3
 10
66.7294664277535
 20
-38.6312521013904
 30
0.0
 11
66.7294664277535
 21
-79.8365332261456
 31
0.0
  0
LINE
  5
   388
  8
0
  6
DASHDOT
 62
     7
 10
94.693962097168
 20
-39.3560523986816
 30
0.0
 11
94.693962097168
 21
-42.6060523986816
 31
0.0
  0
LINE
  5
   389
  8
0
  6
DASHDOT
 62
     7
 10
93.068962097168
 20
-40.9810523986816
 30
0.0
 11
96.318962097168
 21
-40.9810523986816
 31
0.0
  0
LINE
  5
   38A
  8
0
  6
DASHDOT
 62
     7
 10
74.693962097168
 20
-39.3560523986816
 30
0.0
 11
74.693962097168
 21
-42.6060523986816
 31
0.0
  0
LINE
  5
   38B
  8
0
  6
DASHDOT
 62
     7
 10
73.068962097168
 20
-40.9810523986816
 30
0.0
 11
76.318962097168
 21
-40.9810523986816
 31
0.0
  0
LINE
  5
   38C
  8
0
  6
DASHDOT
 62
     7
 10
74.693962097168
 20
-74.8560523986816
 30
0.0
 11
74.693962097168
 21
-78.1060523986816
 31
0.0
  0
LINE
  5
   38D
  8
0
  6
DASHDOT
 62
     7
 10
73.068962097168
 20
-76.4810523986816
 30
0.0
 11
76.318962097168
 21
-76.4810523986816
 31
0.0
  0
LINE
  5
   38E
  8
0
  6
DASHDOT
 62
     7
 10
94.693962097168
 20
-74.8560523986816
 30
0.0
 11
94.693962097168
 21
-78.1060523986816
 31
0.0
  0
LINE
  5
   38F
  8
0
  6
DASHDOT
 62
     7
 10
93.068962097168
 20
-76.4810523986816
 30
0.0
 11
96.318962097168
 21
-76.4810523986816
 31
0.0
  0
LINE
  5
   390
  8
0
  6
DASHDOT
 62
     7
 10
59.3281045438114
 20
-58.7310523986816
 30
0.0
 11
112.324255396539
 21
-58.7310523986816
 31
0.0
  0
INSERT
  5
   391
  8
0
  6
CONTINUOUS
 62
     7
  2
*UDIM335
 10
0.0
 20
0.0
 30
0.0
  0
INSERT
  5
   392
  8
0
  6
CONTINUOUS
 62
     7
  2
*UDIM336
 10
0.0
 20
0.0
 30
0.0
  0
INSERT
  5
   393
  8
0
  6
CONTINUOUS
 62
     7
  2
*UDIM337
 10
0.0
 20
0.0
 30
0.0
  0
INSERT
  5
   394
  8
0
  6
CONTINUOUS
 62
     7
  2
*UDIM338
 10
0.0
 20
0.0
 30
0.0
  0
INSERT
  5
   395
  8
0
  6
CONTINUOUS
 62
     7
  2
*UDIM339
 10
0.0
 20
0.0
 30
0.0
  0
TEXT
  5
   396
  8
0
  6
CONTINUOUS
 62
     7
 10
77.4439580717655
 20
-32.1931746567942
 30
0.0
 40
3.00000002980232
  1
=   =
 50
359.999999844103
 41
0.916666604744064
 72
     2
 11
90.6439573068392
 21
-32.1931746926439
 31
0.0
  0
TEXT
  5
   397
  8
0
  6
CONTINUOUS
 62
     7
 10
76.2276086284689
 20
-23.6728938751503
 30
0.0
 40
3.00000002980232
  1
=    =
 50
359.999999844103
 41
0.916666604744064
 72
     2
 11
92.1776077050936
 21
-23.6728939184687
 31
0.0
  0
TEXT
  5
   398
  8
0
  6
CONTINUOUS
 62
     7
 10
58.1352644594745
 20
-68.9949518989473
 30
0.0
 40
3.00000002980232
  1
=     =
 50
449.999999844103
 41
0.916666604744064
 72
     2
 11
58.1352645102381
 21
-50.2949529807716
 31
0.0
  0
TEXT
  5
   399
  8
0
  6
CONTINUOUS
 62
     7
 10
48.4221447047607
 20
-71.0868390561093
 30
0.0
 40
3.00000002980232
  1
=       =
 50
449.999999844103
 41
0.916666604744064
 72
     2
 11
48.4221447704548
 21
-46.8868404548316
 31
0.0
  0
TEXT
  5
   39A
  8
0
  6
CONTINUOUS
 62
     7
 10
83.5021941561472
 20
-92.1759567952105
 30
0.0
 40
3.00000002980232
  1
Y
 50
359.999999844103
 41
0.916666604744064
 72
     2
 11
85.702194025017
 21
-92.1759568011855
 31
0.0
  0
TEXT
  5
   39B
  8
0
  6
CONTINUOUS
 62
     7
 10
83.6725997824442
 20
-14.3005829548785
 30
0.0
 40
3.00000002980232
  1
Y
 50
359.999999844103
 41
0.916666604744064
 72
     2
 11
85.872599651314
 21
-14.3005829608535
 31
0.0
  0
TEXT
  5
   39C
  8
0
  6
CONTINUOUS
 62
     7
 10
35.277401079632
 20
-60.1396969056079
 30
0.0
 40
3.00000002980232
  1
X
 50
359.999999844103
 41
0.916666604744064
 72
     2
 11
37.4774009485018
 21
-60.1396969115828
 31
0.0
  0
LINE
  5
   39D
  8
0
  6
CONTINUOUS
 62
   218
 10
217.276616674662
 20
50.6978029056963
 30
0.0
 11
208.076616537571
 21
50.6978029056963
 31
0.0
  0
LINE
  5
   39E
  8
0
  6
CONTINUOUS
 62
   218
 10
217.276616674662
 20
45.7378028317865
 30
0.0
 11
208.076616537571
 21
45.7378028317865
 31
0.0
  0
LINE
  5
   39F
  8
0
  6
CONTINUOUS
 62
   218
 10
217.276616674662
 20
45.7378028317865
 30
0.0
 11
217.276616674662
 21
50.6978029056963
 31
0.0
  0
LINE
  5
   3A0
  8
0
  6
CONTINUOUS
 62
   218
 10
208.076616537571
 20
45.0178028210577
 30
0.0
 11
208.076616537571
 21
51.4178029164251
 31
0.0
  0
LINE
  5
   3A1
  8
0
  6
DASHDOT
 62
   218
 10
219.301123052518
 20
48.2178028687414
 30
0.0
 11
199.831752757744
 21
48.2178028687414
 31
0.0
  0
LINE
  5
   3A2
  8
0
  6
CONTINUOUS
 62
   218
 10
208.076616537571
 20
45.0178028210577
 30
0.0
 11
196.63175271006
 21
45.0178028210577
 31
0.0
  0
LINE
  5
   3A3
  8
0
  6
CONTINUOUS
 62
   218
 10
208.076616537571
 20
51.4178029164251
 30
0.0
 11
196.63175271006
 21
51.4178029164251
 31
0.0
  0
LINE
  5
   3A4
  8
0
  6
CONTINUOUS
 62
   218
 10
217.276616674662
 20
48.2178028687414
 30
0.0
 11
208.076616537571
 21
49.8400111154321
 31
0.0
  0
POLYLINE
  5
   3A5
  8
0
  6
CONTINUOUS
 62
   218
 66
     1
 10
0.0
 20
0.0
 30
0.0
 70
     1
  0
VERTEX
  5
   3A6
  8
0
  6
CONTINUOUS
 10
196.631752710064
 20
45.0178028210577
 30
0.0
 40
0.0
 41
0.0
  0
VERTEX
  5
   3A7
  8
0
  6
CONTINUOUS
 10
196.651385693175
 20
45.018284711151
 30
0.0
 40
0.0
 41
0.0
  0
VERTEX
  5
   3A8
  8
0
  6
CONTINUOUS
 10
196.671006850111
 20
45.0197300911582
 30
0.0
 40
0.0
 41
0.0
  0
VERTEX
  5
   3A9
  8
0
  6
CONTINUOUS
 10
196.690604361821
 20
45.0221380904365
 30
0.0
 40
0.0
 41
0.0
  0
VERTEX
  5
   3AA
  8
0
  6
CONTINUOUS
 10
196.710166423496
 20
45.0255072584972
 30
0.0
 40
0.0
 41
0.0
  0
VERTEX
  5
   3AB
  8
0
  6
CONTINUOUS
 10
196.729681251682
 20
45.0298355658793
 30
0.0
 40
0.0
 41
0.0
  0
VERTEX
  5
   3AC
  8
0
  6
CONTINUOUS
 10
196.749137091377
 20
45.0351204053724
 30
0.0
 40
0.0
 41
0.0
  0
VERTEX
  5
   3AD
  8
0
  6
CONTINUOUS
 10
196.76852222311
 20
45.0413585935867
 30
0.0
 40
0.0
 41
0.0
  0
VERTEX
  5
   3AE
  8
0
  6
CONTINUOUS
 10
196.787824970002
 20
45.048546372871
 30
0.0
 40
0.0
 41
0.0
  0
VERTEX
  5
   3AF
  8
0
  6
CONTINUOUS
 10
196.807033704801
 20
45.0566794135758
 30
0.0
 40
0.0
 41
0.0
  0
VERTEX
  5
   3B0
  8
0
  6
CONTINUOUS
 10
196.826136856883
 20
45.0657528166614
 30
0.0
 40
0.0
 41
0.0
  0
VERTEX
  5
   3B1
  8
0
  6
CONTINUOUS
 10
196.845122919223
 20
45.0757611166492
 30
0.0
 40
0.0
 41
0.0
  0
VERTEX
  5
   3B2
  8
0
  6
CONTINUOUS
 10
196.863980455328
 20
45.0866982849134
 30
0.0
 40
0.0
 41
0.0
  0
VERTEX
  5
   3B3
  8
0
  6
CONTINUOUS
 10
196.882698106122
 20
45.0985577333128
 30
0.0
 40
0.0
 41
0.0
  0
VERTEX
  5
   3B4
  8
0
  6
CONTINUOUS
 10
196.901264596793
 20
45.1113323181592
 30
0.0
 40
0.0
 41
0.0
  0
VERTEX
  5
   3B5
  8
0
  6
CONTINUOUS
 10
196.919668743582
 20
45.1250143445204
 30
0.0
 40
0.0
 41
0.0
  0
VERTEX
  5
   3B6
  8
0
  6
CONTINUOUS
 10
196.937899460518
 20
45.1395955708553
 30
0.0
 40
0.0
 41
0.0
  0
VERTEX
  5
   3B7
  8
0
  6
CONTINUOUS
 10
196.973796789905
 20
45.1714199543501
 30
0.0
 40
0.0
 41
0.0
  0
VERTEX
  5
   3B8
  8
0
  6
CONTINUOUS
 10
197.008870105144
 20
45.2067288009165
 30
0.0
 40
0.0
 41
0.0
  0
VERTEX
  5
   3B9
  8
0
  6
CONTINUOUS
 10
197.043034911546
 20
45.2454370484503
 30
0.0
 40
0.0
 41
0.0
  0
VERTEX
  5
   3BA
  8
0
  6
CONTINUOUS
 10
197.076208903102
 20
45.2874514453928
 30
0.0
 40
0.0
 41
0.0
  0
VERTEX
  5
   3BB
  8
0
  6
CONTINUOUS
 10
197.108312160758
 20
45.3326707753817
 30
0.0
 40
0.0
 41
0.0
  0
VERTEX
  5
   3BC
  8
0
  6
CONTINUOUS
 10
197.139267344956
 20
45.3809861010904
 30
0.0
 40
0.0
 41
0.0
  0
VERTEX
  5
   3BD
  8
0
  6
CONTINUOUS
 10
197.168999881946
 20
45.4322810266673
 30
0.0
 40
0.0
 41
0.0
  0
VERTEX
  5
   3BE
  8
0
  6
CONTINUOUS
 10
197.197438143441
 20
45.4864319781437
 30
0.0
 40
0.0
 41
0.0
  0
VERTEX
  5
   3BF
  8
0
  6
CONTINUOUS
 10
197.224513619179
 20
45.5433085011346
 30
0.0
 40
0.0
 41
0.0
  0
VERTEX
  5
   3C0
  8
0
  6
CONTINUOUS
 10
197.250161081968
 20
45.6027735751141
 30
0.0
 40
0.0
 41
0.0
  0
VERTEX
  5
   3C1
  8
0
  6
CONTINUOUS
 10
197.274318744822
 20
45.6646839435107
 30
0.0
 40
0.0
 41
0.0
  0
VERTEX
  5
   3C2
  8
0
  6
CONTINUOUS
 10
197.296928409816
 20
45.728890458824
 30
0.0
 40
0.0
 41
0.0
  0
VERTEX
  5
   3C3
  8
0
  6
CONTINUOUS
 10
197.317935608287
 20
45.7952384419349
 30
0.0
 40
0.0
 41
0.0
  0
VERTEX
  5
   3C4
  8
0
  6
CONTINUOUS
 10
197.337289732054
 20
45.8635680547407
 30
0.0
 40
0.0
 41
0.0
  0
VERTEX
  5
   3C5
  8
0
  6
CONTINUOUS
 10
197.354944155337
 20
45.9337146852192
 30
0.0
 40
0.0
 41
0.0
  0
VERTEX
  5
   3C6
  8
0
  6
CONTINUOUS
 10
197.370856347084
 20
46.0055093439934
 30
0.0
 40
0.0
 41
0.0
  0
VERTEX
  5
   3C7
  8
0
  6
CONTINUOUS
 10
197.384987973432
 20
46.0787790714418
 30
0.0
 40
0.0
 41
0.0
  0
VERTEX
  5
   3C8
  8
0
  6
CONTINUOUS
 10
197.397304990054
 20
46.1533473543734
 30
0.0
 40
0.0
 41
0.0
  0
VERTEX
  5
   3C9
  8
0
  6
CONTINUOUS
 10
197.40777772418
 20
46.2290345512632
 30
0.0
 40
0.0
 41
0.0
  0
VERTEX
  5
   3CA
  8
0
  6
CONTINUOUS
 10
197.416380946075
 20
46.3056583250244
 30
0.0
 40
0.0
 41
0.0
  0
VERTEX
  5
   3CB
  8
0
  6
CONTINUOUS
 10
197.423093929824
 20
46.3830340822746
 30
0.0
 40
0.0
 41
0.0
  0
VERTEX
  5
   3CC
  8
0
  6
CONTINUOUS
 10
197.427900503262
 20
46.4609754180373
 30
0.0
 40
0.0
 41
0.0
  0
VERTEX
  5
   3CD
  8
0
  6
CONTINUOUS
 10
197.430789086931
 20
46.5392945648078
 30
0.0
 40
0.0
 41
0.0
  0
VERTEX
  5
   3CE
  8
0
  6
CONTINUOUS
 10
197.431752721981
 20
46.6178028449016
 30
0.0
 40
0.0
 41
0.0
  0
VERTEX
  5
   3CF
  8
0
  6
CONTINUOUS
 10
197.43078908693
 20
46.6963111249953
 30
0.0
 40
0.0
 41
0.0
  0
VERTEX
  5
   3D0
  8
0
  6
CONTINUOUS
 10
197.427900503261
 20
46.7746302717657
 30
0.0
 40
0.0
 41
0.0
  0
VERTEX
  5
   3D1
  8
0
  6
CONTINUOUS
 10
197.423093929823
 20
46.8525716075284
 30
0.0
 40
0.0
 41
0.0
  0
VERTEX
  5
   3D2
  8
0
  6
CONTINUOUS
 10
197.416380946073
 20
46.9299473647786
 30
0.0
 40
0.0
 41
0.0
  0
VERTEX
  5
   3D3
  8
0
  6
CONTINUOUS
 10
197.407777724178
 20
47.0065711385398
 30
0.0
 40
0.0
 41
0.0
  0
VERTEX
  5
   3D4
  8
0
  6
CONTINUOUS
 10
197.397304990052
 20
47.0822583354295
 30
0.0
 40
0.0
 41
0.0
  0
VERTEX
  5
   3D5
  8
0
  6
CONTINUOUS
 10
197.384987973429
 20
47.1568266183611
 30
0.0
 40
0.0
 41
0.0
  0
VERTEX
  5
   3D6
  8
0
  6
CONTINUOUS
 10
197.370856347081
 20
47.2300963458094
 30
0.0
 40
0.0
 41
0.0
  0
VERTEX
  5
   3D7
  8
0
  6
CONTINUOUS
 10
197.354944155333
 20
47.3018910045835
 30
0.0
 40
0.0
 41
0.0
  0
VERTEX
  5
   3D8
  8
0
  6
CONTINUOUS
 10
197.33728973205
 20
47.3720376350619
 30
0.0
 40
0.0
 41
0.0
  0
VERTEX
  5
   3D9
  8
0
  6
CONTINUOUS
 10
197.317935608283
 20
47.4403672478676
 30
0.0
 40
0.0
 41
0.0
  0
VERTEX
  5
   3DA
  8
0
  6
CONTINUOUS
 10
197.296928409811
 20
47.5067152309784
 30
0.0
 40
0.0
 41
0.0
  0
VERTEX
  5
   3DB
  8
0
  6
CONTINUOUS
 10
197.274318744817
 20
47.5709217462916
 30
0.0
 40
0.0
 41
0.0
  0
VERTEX
  5
   3DC
  8
0
  6
CONTINUOUS
 10
197.250161081962
 20
47.632832114688
 30
0.0
 40
0.0
 41
0.0
  0
VERTEX
  5
   3DD
  8
0
  6
CONTINUOUS
 10
197.224513619174
 20
47.6922971886675
 30
0.0
 40
0.0
 41
0.0
  0
VERTEX
  5
   3DE
  8
0
  6
CONTINUOUS
 10
197.197438143436
 20
47.7491737116582
 30
0.0
 40
0.0
 41
0.0
  0
VERTEX
  5
   3DF
  8
0
  6
CONTINUOUS
 10
197.16899988194
 20
47.8033246631345
 30
0.0
 40
0.0
 41
0.0
  0
VERTEX
  5
   3E0
  8
0
  6
CONTINUOUS
 10
197.13926734495
 20
47.8546195887112
 30
0.0
 40
0.0
 41
0.0
  0
VERTEX
  5
   3E1
  8
0
  6
CONTINUOUS
 10
197.108312160752
 20
47.9029349144197
 30
0.0
 40
0.0
 41
0.0
  0
VERTEX
  5
   3E2
  8
0
  6
CONTINUOUS
 10
197.076208903095
 20
47.9481542444085
 30
0.0
 40
0.0
 41
0.0
  0
VERTEX
  5
   3E3
  8
0
  6
CONTINUOUS
 10
197.04303491154
 20
47.9901686413509
 30
0.0
 40
0.0
 41
0.0
  0
VERTEX
  5
   3E4
  8
0
  6
CONTINUOUS
 10
197.008870105137
 20
48.0288768888845
 30
0.0
 40
0.0
 41
0.0
  0
VERTEX
  5
   3E5
  8
0
  6
CONTINUOUS
 10
196.973796789897
 20
48.0641857354507
 30
0.0
 40
0.0
 41
0.0
  0
VERTEX
  5
   3E6
  8
0
  6
CONTINUOUS
 10
196.93789946051
 20
48.0960101189454
 30
0.0
 40
0.0
 41
0.0
  0
VERTEX
  5
   3E7
  8
0
  6
CONTINUOUS
 10
196.919668743574
 20
48.1105913452801
 30
0.0
 40
0.0
 41
0.0
  0
VERTEX
  5
   3E8
  8
0
  6
CONTINUOUS
 10
196.901264596786
 20
48.1242733716412
 30
0.0
 40
0.0
 41
0.0
  0
VERTEX
  5
   3E9
  8
0
  6
CONTINUOUS
 10
196.882698106114
 20
48.1370479564875
 30
0.0
 40
0.0
 41
0.0
  0
VERTEX
  5
   3EA
  8
0
  6
CONTINUOUS
 10
196.86398045532
 20
48.1489074048869
 30
0.0
 40
0.0
 41
0.0
  0
VERTEX
  5
   3EB
  8
0
  6
CONTINUOUS
 10
196.845122919215
 20
48.159844573151
 30
0.0
 40
0.0
 41
0.0
  0
VERTEX
  5
   3EC
  8
0
  6
CONTINUOUS
 10
196.826136856875
 20
48.1698528731386
 30
0.0
 40
0.0
 41
0.0
  0
VERTEX
  5
   3ED
  8
0
  6
CONTINUOUS
 10
196.807033704793
 20
48.1789262762242
 30
0.0
 40
0.0
 41
0.0
  0
VERTEX
  5
   3EE
  8
0
  6
CONTINUOUS
 10
196.787824969994
 20
48.1870593169289
 30
0.0
 40
0.0
 41
0.0
  0
VERTEX
  5
   3EF
  8
0
  6
CONTINUOUS
 10
196.768522223102
 20
48.194247096213
 30
0.0
 40
0.0
 41
0.0
  0
VERTEX
  5
   3F0
  8
0
  6
CONTINUOUS
 10
196.749137091369
 20
48.2004852844273
 30
0.0
 40
0.0
 41
0.0
  0
VERTEX
  5
   3F1
  8
0
  6
CONTINUOUS
 10
196.729681251674
 20
48.2057701239203
 30
0.0
 40
0.0
 41
0.0
  0
VERTEX
  5
   3F2
  8
0
  6
CONTINUOUS
 10
196.710166423488
 20
48.2100984313023
 30
0.0
 40
0.0
 41
0.0
  0
VERTEX
  5
   3F3
  8
0
  6
CONTINUOUS
 10
196.690604361812
 20
48.2134675993629
 30
0.0
 40
0.0
 41
0.0
  0
VERTEX
  5
   3F4
  8
0
  6
CONTINUOUS
 10
196.671006850103
 20
48.2158755986411
 30
0.0
 40
0.0
 41
0.0
  0
VERTEX
  5
   3F5
  8
0
  6
CONTINUOUS
 10
196.651385693167
 20
48.2173209786482
 30
0.0
 40
0.0
 41
0.0
  0
VERTEX
  5
   3F6
  8
0
  6
CONTINUOUS
 10
196.631752710056
 20
48.2178028687414
 30
0.0
 40
0.0
 41
0.0
  0
VERTEX
  5
   3F7
  8
0
  6
CONTINUOUS
 10
196.612119726945
 20
48.2173209786481
 30
0.0
 40
0.0
 41
0.0
  0
VERTEX
  5
   3F8
  8
0
  6
CONTINUOUS
 10
196.592498570009
 20
48.2158755986409
 30
0.0
 40
0.0
 41
0.0
  0
VERTEX
  5
   3F9
  8
0
  6
CONTINUOUS
 10
196.572901058299
 20
48.2134675993626
 30
0.0
 40
0.0
 41
0.0
  0
VERTEX
  5
   3FA
  8
0
  6
CONTINUOUS
 10
196.553338996624
 20
48.2100984313019
 30
0.0
 40
0.0
 41
0.0
  0
VERTEX
  5
   3FB
  8
0
  6
CONTINUOUS
 10
196.533824168437
 20
48.2057701239198
 30
0.0
 40
0.0
 41
0.0
  0
VERTEX
  5
   3FC
  8
0
  6
CONTINUOUS
 10
196.514368328742
 20
48.2004852844267
 30
0.0
 40
0.0
 41
0.0
  0
VERTEX
  5
   3FD
  8
0
  6
CONTINUOUS
 10
196.49498319701
 20
48.1942470962124
 30
0.0
 40
0.0
 41
0.0
  0
VERTEX
  5
   3FE
  8
0
  6
CONTINUOUS
 10
196.475680450117
 20
48.1870593169281
 30
0.0
 40
0.0
 41
0.0
  0
VERTEX
  5
   3FF
  8
0
  6
CONTINUOUS
 10
196.456471715319
 20
48.1789262762233
 30
0.0
 40
0.0
 41
0.0
  0
VERTEX
  5
   400
  8
0
  6
CONTINUOUS
 10
196.437368563237
 20
48.1698528731377
 30
0.0
 40
0.0
 41
0.0
  0
VERTEX
  5
   401
  8
0
  6
CONTINUOUS
 10
196.418382500897
 20
48.1598445731499
 30
0.0
 40
0.0
 41
0.0
  0
VERTEX
  5
   402
  8
0
  6
CONTINUOUS
 10
196.399524964792
 20
48.1489074048857
 30
0.0
 40
0.0
 41
0.0
  0
VERTEX
  5
   403
  8
0
  6
CONTINUOUS
 10
196.380807313998
 20
48.1370479564863
 30
0.0
 40
0.0
 41
0.0
  0
VERTEX
  5
   404
  8
0
  6
CONTINUOUS
 10
196.362240823326
 20
48.1242733716399
 30
0.0
 40
0.0
 41
0.0
  0
VERTEX
  5
   405
  8
0
  6
CONTINUOUS
 10
196.343836676538
 20
48.1105913452787
 30
0.0
 40
0.0
 41
0.0
  0
VERTEX
  5
   406
  8
0
  6
CONTINUOUS
 10
196.325605959602
 20
48.0960101189438
 30
0.0
 40
0.0
 41
0.0
  0
VERTEX
  5
   407
  8
0
  6
CONTINUOUS
 10
196.289708630215
 20
48.064185735449
 30
0.0
 40
0.0
 41
0.0
  0
VERTEX
  5
   408
  8
0
  6
CONTINUOUS
 10
196.254635314976
 20
48.0288768888826
 30
0.0
 40
0.0
 41
0.0
  0
VERTEX
  5
   409
  8
0
  6
CONTINUOUS
 10
196.220470508573
 20
47.9901686413488
 30
0.0
 40
0.0
 41
0.0
  0
VERTEX
  5
   40A
  8
0
  6
CONTINUOUS
 10
196.187296517018
 20
47.9481542444063
 30
0.0
 40
0.0
 41
0.0
  0
VERTEX
  5
   40B
  8
0
  6
CONTINUOUS
 10
196.155193259361
 20
47.9029349144173
 30
0.0
 40
0.0
 41
0.0
  0
VERTEX
  5
   40C
  8
0
  6
CONTINUOUS
 10
196.124238075163
 20
47.8546195887087
 30
0.0
 40
0.0
 41
0.0
  0
VERTEX
  5
   40D
  8
0
  6
CONTINUOUS
 10
196.094505538174
 20
47.8033246631318
 30
0.0
 40
0.0
 41
0.0
  0
VERTEX
  5
   40E
  8
0
  6
CONTINUOUS
 10
196.066067276678
 20
47.7491737116553
 30
0.0
 40
0.0
 41
0.0
  0
VERTEX
  5
   40F
  8
0
  6
CONTINUOUS
 10
196.03899180094
 20
47.6922971886645
 30
0.0
 40
0.0
 41
0.0
  0
VERTEX
  5
   410
  8
0
  6
CONTINUOUS
 10
196.013344338152
 20
47.6328321146849
 30
0.0
 40
0.0
 41
0.0
  0
VERTEX
  5
   411
  8
0
  6
CONTINUOUS
 10
195.989186675298
 20
47.5709217462884
 30
0.0
 40
0.0
 41
0.0
  0
VERTEX
  5
   412
  8
0
  6
CONTINUOUS
 10
195.966577010304
 20
47.5067152309751
 30
0.0
 40
0.0
 41
0.0
  0
VERTEX
  5
   413
  8
0
  6
CONTINUOUS
 10
195.945569811833
 20
47.4403672478641
 30
0.0
 40
0.0
 41
0.0
  0
VERTEX
  5
   414
  8
0
  6
CONTINUOUS
 10
195.926215688066
 20
47.3720376350583
 30
0.0
 40
0.0
 41
0.0
  0
VERTEX
  5
   415
  8
0
  6
CONTINUOUS
 10
195.908561264783
 20
47.3018910045799
 30
0.0
 40
0.0
 41
0.0
  0
VERTEX
  5
   416
  8
0
  6
CONTINUOUS
 10
195.892649073036
 20
47.2300963458057
 30
0.0
 40
0.0
 41
0.0
  0
VERTEX
  5
   417
  8
0
  6
CONTINUOUS
 10
195.878517446688
 20
47.1568266183573
 30
0.0
 40
0.0
 41
0.0
  0
VERTEX
  5
   418
  8
0
  6
CONTINUOUS
 10
195.866200430065
 20
47.0822583354257
 30
0.0
 40
0.0
 41
0.0
  0
VERTEX
  5
   419
  8
0
  6
CONTINUOUS
 10
195.85572769594
 20
47.0065711385359
 30
0.0
 40
0.0
 41
0.0
  0
VERTEX
  5
   41A
  8
0
  6
CONTINUOUS
 10
195.847124474045
 20
46.9299473647747
 30
0.0
 40
0.0
 41
0.0
  0
VERTEX
  5
   41B
  8
0
  6
CONTINUOUS
 10
195.840411490295
 20
46.8525716075245
 30
0.0
 40
0.0
 41
0.0
  0
VERTEX
  5
   41C
  8
0
  6
CONTINUOUS
 10
195.835604916858
 20
46.7746302717617
 30
0.0
 40
0.0
 41
0.0
  0
VERTEX
  5
   41D
  8
0
  6
CONTINUOUS
 10
195.832716333189
 20
46.6963111249913
 30
0.0
 40
0.0
 41
0.0
  0
VERTEX
  5
   41E
  8
0
  6
CONTINUOUS
 10
195.831752698139
 20
46.6178028448975
 30
0.0
 40
0.0
 41
0.0
  0
VERTEX
  5
   41F
  8
0
  6
CONTINUOUS
 10
195.832716333189
 20
46.5392945648038
 30
0.0
 40
0.0
 41
0.0
  0
VERTEX
  5
   420
  8
0
  6
CONTINUOUS
 10
195.835604916859
 20
46.4609754180333
 30
0.0
 40
0.0
 41
0.0
  0
VERTEX
  5
   421
  8
0
  6
CONTINUOUS
 10
195.840411490297
 20
46.3830340822707
 30
0.0
 40
0.0
 41
0.0
  0
VERTEX
  5
   422
  8
0
  6
CONTINUOUS
 10
195.847124474046
 20
46.3056583250204
 30
0.0
 40
0.0
 41
0.0
  0
VERTEX
  5
   423
  8
0
  6
CONTINUOUS
 10
195.855727695941
 20
46.2290345512593
 30
0.0
 40
0.0
 41
0.0
  0
VERTEX
  5
   424
  8
0
  6
CONTINUOUS
 10
195.866200430068
 20
46.1533473543696
 30
0.0
 40
0.0
 41
0.0
  0
VERTEX
  5
   425
  8
0
  6
CONTINUOUS
 10
195.878517446691
 20
46.078779071438
 30
0.0
 40
0.0
 41
0.0
  0
VERTEX
  5
   426
  8
0
  6
CONTINUOUS
 10
195.892649073039
 20
46.0055093439897
 30
0.0
 40
0.0
 41
0.0
  0
VERTEX
  5
   427
  8
0
  6
CONTINUOUS
 10
195.908561264786
 20
45.9337146852156
 30
0.0
 40
0.0
 41
0.0
  0
VERTEX
  5
   428
  8
0
  6
CONTINUOUS
 10
195.92621568807
 20
45.8635680547372
 30
0.0
 40
0.0
 41
0.0
  0
VERTEX
  5
   429
  8
0
  6
CONTINUOUS
 10
195.945569811837
 20
45.7952384419315
 30
0.0
 40
0.0
 41
0.0
  0
VERTEX
  5
   42A
  8
0
  6
CONTINUOUS
 10
195.966577010308
 20
45.7288904588207
 30
0.0
 40
0.0
 41
0.0
  0
VERTEX
  5
   42B
  8
0
  6
CONTINUOUS
 10
195.989186675303
 20
45.6646839435075
 30
0.0
 40
0.0
 41
0.0
  0
VERTEX
  5
   42C
  8
0
  6
CONTINUOUS
 10
196.013344338157
 20
45.602773575111
 30
0.0
 40
0.0
 41
0.0
  0
VERTEX
  5
   42D
  8
0
  6
CONTINUOUS
 10
196.038991800946
 20
45.5433085011316
 30
0.0
 40
0.0
 41
0.0
  0
VERTEX
  5
   42E
  8
0
  6
CONTINUOUS
 10
196.066067276684
 20
45.4864319781409
 30
0.0
 40
0.0
 41
0.0
  0
VERTEX
  5
   42F
  8
0
  6
CONTINUOUS
 10
196.09450553818
 20
45.4322810266646
 30
0.0
 40
0.0
 41
0.0
  0
VERTEX
  5
   430
  8
0
  6
CONTINUOUS
 10
196.124238075169
 20
45.3809861010879
 30
0.0
 40
0.0
 41
0.0
  0
VERTEX
  5
   431
  8
0
  6
CONTINUOUS
 10
196.155193259368
 20
45.3326707753793
 30
0.0
 40
0.0
 41
0.0
  0
VERTEX
  5
   432
  8
0
  6
CONTINUOUS
 10
196.187296517025
 20
45.2874514453906
 30
0.0
 40
0.0
 41
0.0
  0
VERTEX
  5
   433
  8
0
  6
CONTINUOUS
 10
196.22047050858
 20
45.2454370484482
 30
0.0
 40
0.0
 41
0.0
  0
VERTEX
  5
   434
  8
0
  6
CONTINUOUS
 10
196.254635314983
 20
45.2067288009146
 30
0.0
 40
0.0
 41
0.0
  0
VERTEX
  5
   435
  8
0
  6
CONTINUOUS
 10
196.289708630222
 20
45.1714199543484
 30
0.0
 40
0.0
 41
0.0
  0
VERTEX
  5
   436
  8
0
  6
CONTINUOUS
 10
196.32560595961
 20
45.1395955708537
 30
0.0
 40
0.0
 41
0.0
  0
VERTEX
  5
   437
  8
0
  6
CONTINUOUS
 10
196.343836676545
 20
45.125014344519
 30
0.0
 40
0.0
 41
0.0
  0
VERTEX
  5
   438
  8
0
  6
CONTINUOUS
 10
196.362240823334
 20
45.1113323181579
 30
0.0
 40
0.0
 41
0.0
  0
VERTEX
  5
   439
  8
0
  6
CONTINUOUS
 10
196.380807314005
 20
45.0985577333115
 30
0.0
 40
0.0
 41
0.0
  0
VERTEX
  5
   43A
  8
0
  6
CONTINUOUS
 10
196.3995249648
 20
45.0866982849122
 30
0.0
 40
0.0
 41
0.0
  0
VERTEX
  5
   43B
  8
0
  6
CONTINUOUS
 10
196.418382500904
 20
45.0757611166481
 30
0.0
 40
0.0
 41
0.0
  0
VERTEX
  5
   43C
  8
0
  6
CONTINUOUS
 10
196.437368563245
 20
45.0657528166604
 30
0.0
 40
0.0
 41
0.0
  0
VERTEX
  5
   43D
  8
0
  6
CONTINUOUS
 10
196.456471715326
 20
45.0566794135749
 30
0.0
 40
0.0
 41
0.0
  0
VERTEX
  5
   43E
  8
0
  6
CONTINUOUS
 10
196.475680450125
 20
45.0485463728702
 30
0.0
 40
0.0
 41
0.0
  0
VERTEX
  5
   43F
  8
0
  6
CONTINUOUS
 10
196.494983197018
 20
45.041358593586
 30
0.0
 40
0.0
 41
0.0
  0
VERTEX
  5
   440
  8
0
  6
CONTINUOUS
 10
196.51436832875
 20
45.0351204053718
 30
0.0
 40
0.0
 41
0.0
  0
VERTEX
  5
   441
  8
0
  6
CONTINUOUS
 10
196.533824168445
 20
45.0298355658788
 30
0.0
 40
0.0
 41
0.0
  0
VERTEX
  5
   442
  8
0
  6
CONTINUOUS
 10
196.553338996632
 20
45.0255072584968
 30
0.0
 40
0.0
 41
0.0
  0
VERTEX
  5
   443
  8
0
  6
CONTINUOUS
 10
196.572901058307
 20
45.0221380904362
 30
0.0
 40
0.0
 41
0.0
  0
VERTEX
  5
   444
  8
0
  6
CONTINUOUS
 10
196.592498570017
 20
45.019730091158
 30
0.0
 40
0.0
 41
0.0
  0
VERTEX
  5
   445
  8
0
  6
CONTINUOUS
 10
196.612119726953
 20
45.0182847111509
 30
0.0
 40
0.0
 41
0.0
  0
VERTEX
  5
   446
  8
0
  6
CONTINUOUS
 10
196.631752710064
 20
45.0178028210577
 30
0.0
 40
0.0
 41
0.0
  0
SEQEND
  5
   447
  8
0
  6
CONTINUOUS
 62
   218
  0
POLYLINE
  5
   448
  8
0
  6
CONTINUOUS
 62
   218
 66
     1
 10
0.0
 20
0.0
 30
0.0
  0
VERTEX
  5
   449
  8
0
  6
CONTINUOUS
 10
196.631752710054
 20
51.4178029164251
 30
0.0
 40
0.0
 41
0.0
  0
VERTEX
  5
   44A
  8
0
  6
CONTINUOUS
 10
196.612119726943
 20
51.4173210263317
 30
0.0
 40
0.0
 41
0.0
  0
VERTEX
  5
   44B
  8
0
  6
CONTINUOUS
 10
196.592498570007
 20
51.4158756463244
 30
0.0
 40
0.0
 41
0.0
  0
VERTEX
  5
   44C
  8
0
  6
CONTINUOUS
 10
196.572901058297
 20
51.413467647046
 30
0.0
 40
0.0
 41
0.0
  0
VERTEX
  5
   44D
  8
0
  6
CONTINUOUS
 10
196.553338996622
 20
51.4100984789852
 30
0.0
 40
0.0
 41
0.0
  0
VERTEX
  5
   44E
  8
0
  6
CONTINUOUS
 10
196.533824168435
 20
51.405770171603
 30
0.0
 40
0.0
 41
0.0
  0
VERTEX
  5
   44F
  8
0
  6
CONTINUOUS
 10
196.51436832874
 20
51.4004853321098
 30
0.0
 40
0.0
 41
0.0
  0
VERTEX
  5
   450
  8
0
  6
CONTINUOUS
 10
196.494983197007
 20
51.3942471438953
 30
0.0
 40
0.0
 41
0.0
  0
VERTEX
  5
   451
  8
0
  6
CONTINUOUS
 10
196.475680450115
 20
51.3870593646109
 30
0.0
 40
0.0
 41
0.0
  0
VERTEX
  5
   452
  8
0
  6
CONTINUOUS
 10
196.456471715316
 20
51.3789263239061
 30
0.0
 40
0.0
 41
0.0
  0
VERTEX
  5
   453
  8
0
  6
CONTINUOUS
 10
196.437368563235
 20
51.3698529208203
 30
0.0
 40
0.0
 41
0.0
  0
VERTEX
  5
   454
  8
0
  6
CONTINUOUS
 10
196.418382500894
 20
51.3598446208325
 30
0.0
 40
0.0
 41
0.0
  0
VERTEX
  5
   455
  8
0
  6
CONTINUOUS
 10
196.39952496479
 20
51.3489074525682
 30
0.0
 40
0.0
 41
0.0
  0
VERTEX
  5
   456
  8
0
  6
CONTINUOUS
 10
196.380807313995
 20
51.3370480041686
 30
0.0
 40
0.0
 41
0.0
  0
VERTEX
  5
   457
  8
0
  6
CONTINUOUS
 10
196.362240823324
 20
51.3242734193221
 30
0.0
 40
0.0
 41
0.0
  0
VERTEX
  5
   458
  8
0
  6
CONTINUOUS
 10
196.343836676536
 20
51.3105913929608
 30
0.0
 40
0.0
 41
0.0
  0
VERTEX
  5
   459
  8
0
  6
CONTINUOUS
 10
196.3256059596
 20
51.2960101666258
 30
0.0
 40
0.0
 41
0.0
  0
VERTEX
  5
   45A
  8
0
  6
CONTINUOUS
 10
196.289708630213
 20
51.2641857831307
 30
0.0
 40
0.0
 41
0.0
  0
VERTEX
  5
   45B
  8
0
  6
CONTINUOUS
 10
196.254635314974
 20
51.2288769365641
 30
0.0
 40
0.0
 41
0.0
  0
VERTEX
  5
   45C
  8
0
  6
CONTINUOUS
 10
196.220470508571
 20
51.1901686890301
 30
0.0
 40
0.0
 41
0.0
  0
VERTEX
  5
   45D
  8
0
  6
CONTINUOUS
 10
196.187296517016
 20
51.1481542920873
 30
0.0
 40
0.0
 41
0.0
  0
VERTEX
  5
   45E
  8
0
  6
CONTINUOUS
 10
196.155193259359
 20
51.1029349620982
 30
0.0
 40
0.0
 41
0.0
  0
VERTEX
  5
   45F
  8
0
  6
CONTINUOUS
 10
196.124238075161
 20
51.0546196363893
 30
0.0
 40
0.0
 41
0.0
  0
VERTEX
  5
   460
  8
0
  6
CONTINUOUS
 10
196.094505538172
 20
51.0033247108122
 30
0.0
 40
0.0
 41
0.0
  0
VERTEX
  5
   461
  8
0
  6
CONTINUOUS
 10
196.066067276677
 20
50.9491737593355
 30
0.0
 40
0.0
 41
0.0
  0
VERTEX
  5
   462
  8
0
  6
CONTINUOUS
 10
196.038991800939
 20
50.8922972363444
 30
0.0
 40
0.0
 41
0.0
  0
VERTEX
  5
   463
  8
0
  6
CONTINUOUS
 10
196.01334433815
 20
50.8328321623647
 30
0.0
 40
0.0
 41
0.0
  0
VERTEX
  5
   464
  8
0
  6
CONTINUOUS
 10
195.989186675296
 20
50.7709217939679
 30
0.0
 40
0.0
 41
0.0
  0
VERTEX
  5
   465
  8
0
  6
CONTINUOUS
 10
195.966577010302
 20
50.7067152786544
 30
0.0
 40
0.0
 41
0.0
  0
VERTEX
  5
   466
  8
0
  6
CONTINUOUS
 10
195.945569811831
 20
50.6403672955433
 30
0.0
 40
0.0
 41
0.0
  0
VERTEX
  5
   467
  8
0
  6
CONTINUOUS
 10
195.926215688065
 20
50.5720376827373
 30
0.0
 40
0.0
 41
0.0
  0
VERTEX
  5
   468
  8
0
  6
CONTINUOUS
 10
195.908561264782
 20
50.5018910522587
 30
0.0
 40
0.0
 41
0.0
  0
VERTEX
  5
   469
  8
0
  6
CONTINUOUS
 10
195.892649073035
 20
50.4300963934843
 30
0.0
 40
0.0
 41
0.0
  0
VERTEX
  5
   46A
  8
0
  6
CONTINUOUS
 10
195.878517446687
 20
50.3568266660357
 30
0.0
 40
0.0
 41
0.0
  0
VERTEX
  5
   46B
  8
0
  6
CONTINUOUS
 10
195.866200430064
 20
50.282258383104
 30
0.0
 40
0.0
 41
0.0
  0
VERTEX
  5
   46C
  8
0
  6
CONTINUOUS
 10
195.855727695939
 20
50.2065711862141
 30
0.0
 40
0.0
 41
0.0
  0
VERTEX
  5
   46D
  8
0
  6
CONTINUOUS
 10
195.847124474044
 20
50.1299474124527
 30
0.0
 40
0.0
 41
0.0
  0
VERTEX
  5
   46E
  8
0
  6
CONTINUOUS
 10
195.840411490295
 20
50.0525716552024
 30
0.0
 40
0.0
 41
0.0
  0
VERTEX
  5
   46F
  8
0
  6
CONTINUOUS
 10
195.835604916858
 20
49.9746303194396
 30
0.0
 40
0.0
 41
0.0
  0
VERTEX
  5
   470
  8
0
  6
CONTINUOUS
 10
195.832716333189
 20
49.896311172669
 30
0.0
 40
0.0
 41
0.0
  0
VERTEX
  5
   471
  8
0
  6
CONTINUOUS
 10
195.831752698139
 20
49.8178028925752
 30
0.0
 40
0.0
 41
0.0
  0
VERTEX
  5
   472
  8
0
  6
CONTINUOUS
 10
195.832716333189
 20
49.7392946124814
 30
0.0
 40
0.0
 41
0.0
  0
VERTEX
  5
   473
  8
0
  6
CONTINUOUS
 10
195.835604916859
 20
49.6609754657109
 30
0.0
 40
0.0
 41
0.0
  0
VERTEX
  5
   474
  8
0
  6
CONTINUOUS
 10
195.840411490297
 20
49.5830341299482
 30
0.0
 40
0.0
 41
0.0
  0
VERTEX
  5
   475
  8
0
  6
CONTINUOUS
 10
195.847124474047
 20
49.505658372698
 30
0.0
 40
0.0
 41
0.0
  0
VERTEX
  5
   476
  8
0
  6
CONTINUOUS
 10
195.855727695942
 20
49.4290345989368
 30
0.0
 40
0.0
 41
0.0
  0
VERTEX
  5
   477
  8
0
  6
CONTINUOUS
 10
195.866200430069
 20
49.3533474020471
 30
0.0
 40
0.0
 41
0.0
  0
VERTEX
  5
   478
  8
0
  6
CONTINUOUS
 10
195.878517446692
 20
49.2787791191156
 30
0.0
 40
0.0
 41
0.0
  0
VERTEX
  5
   479
  8
0
  6
CONTINUOUS
 10
195.89264907304
 20
49.2055093916673
 30
0.0
 40
0.0
 41
0.0
  0
VERTEX
  5
   47A
  8
0
  6
CONTINUOUS
 10
195.908561264788
 20
49.1337147328933
 30
0.0
 40
0.0
 41
0.0
  0
VERTEX
  5
   47B
  8
0
  6
CONTINUOUS
 10
195.926215688071
 20
49.063568102415
 30
0.0
 40
0.0
 41
0.0
  0
VERTEX
  5
   47C
  8
0
  6
CONTINUOUS
 10
195.945569811838
 20
48.9952384896095
 30
0.0
 40
0.0
 41
0.0
  0
VERTEX
  5
   47D
  8
0
  6
CONTINUOUS
 10
195.96657701031
 20
48.9288905064988
 30
0.0
 40
0.0
 41
0.0
  0
VERTEX
  5
   47E
  8
0
  6
CONTINUOUS
 10
195.989186675305
 20
48.8646839911857
 30
0.0
 40
0.0
 41
0.0
  0
VERTEX
  5
   47F
  8
0
  6
CONTINUOUS
 10
196.013344338159
 20
48.8027736227894
 30
0.0
 40
0.0
 41
0.0
  0
VERTEX
  5
   480
  8
0
  6
CONTINUOUS
 10
196.038991800948
 20
48.7433085488102
 30
0.0
 40
0.0
 41
0.0
  0
VERTEX
  5
   481
  8
0
  6
CONTINUOUS
 10
196.066067276687
 20
48.6864320258196
 30
0.0
 40
0.0
 41
0.0
  0
VERTEX
  5
   482
  8
0
  6
CONTINUOUS
 10
196.094505538182
 20
48.6322810743436
 30
0.0
 40
0.0
 41
0.0
  0
VERTEX
  5
   483
  8
0
  6
CONTINUOUS
 10
196.124238075172
 20
48.5809861487671
 30
0.0
 40
0.0
 41
0.0
  0
VERTEX
  5
   484
  8
0
  6
CONTINUOUS
 10
196.155193259371
 20
48.5326708230588
 30
0.0
 40
0.0
 41
0.0
  0
VERTEX
  5
   485
  8
0
  6
CONTINUOUS
 10
196.187296517028
 20
48.4874514930702
 30
0.0
 40
0.0
 41
0.0
  0
VERTEX
  5
   486
  8
0
  6
CONTINUOUS
 10
196.220470508583
 20
48.4454370961282
 30
0.0
 40
0.0
 41
0.0
  0
VERTEX
  5
   487
  8
0
  6
CONTINUOUS
 10
196.254635314986
 20
48.4067288485948
 30
0.0
 40
0.0
 41
0.0
  0
VERTEX
  5
   488
  8
0
  6
CONTINUOUS
 10
196.289708630226
 20
48.3714200020289
 30
0.0
 40
0.0
 41
0.0
  0
VERTEX
  5
   489
  8
0
  6
CONTINUOUS
 10
196.325605959613
 20
48.3395956185345
 30
0.0
 40
0.0
 41
0.0
  0
VERTEX
  5
   48A
  8
0
  6
CONTINUOUS
 10
196.343836676549
 20
48.3250143922
 30
0.0
 40
0.0
 41
0.0
  0
VERTEX
  5
   48B
  8
0
  6
CONTINUOUS
 10
196.362240823337
 20
48.311332365839
 30
0.0
 40
0.0
 41
0.0
  0
VERTEX
  5
   48C
  8
0
  6
CONTINUOUS
 10
196.380807314009
 20
48.2985577809929
 30
0.0
 40
0.0
 41
0.0
  0
VERTEX
  5
   48D
  8
0
  6
CONTINUOUS
 10
196.399524964803
 20
48.2866983325937
 30
0.0
 40
0.0
 41
0.0
  0
VERTEX
  5
   48E
  8
0
  6
CONTINUOUS
 10
196.418382500908
 20
48.2757611643298
 30
0.0
 40
0.0
 41
0.0
  0
VERTEX
  5
   48F
  8
0
  6
CONTINUOUS
 10
196.437368563248
 20
48.2657528643423
 30
0.0
 40
0.0
 41
0.0
  0
VERTEX
  5
   490
  8
0
  6
CONTINUOUS
 10
196.45647171533
 20
48.2566794612569
 30
0.0
 40
0.0
 41
0.0
  0
VERTEX
  5
   491
  8
0
  6
CONTINUOUS
 10
196.475680450129
 20
48.2485464205524
 30
0.0
 40
0.0
 41
0.0
  0
VERTEX
  5
   492
  8
0
  6
CONTINUOUS
 10
196.494983197021
 20
48.2413586412684
 30
0.0
 40
0.0
 41
0.0
  0
VERTEX
  5
   493
  8
0
  6
CONTINUOUS
 10
196.514368328754
 20
48.2351204530543
 30
0.0
 40
0.0
 41
0.0
  0
VERTEX
  5
   494
  8
0
  6
CONTINUOUS
 10
196.533824168449
 20
48.2298356135616
 30
0.0
 40
0.0
 41
0.0
  0
VERTEX
  5
   495
  8
0
  6
CONTINUOUS
 10
196.553338996636
 20
48.2255073061797
 30
0.0
 40
0.0
 41
0.0
  0
VERTEX
  5
   496
  8
0
  6
CONTINUOUS
 10
196.572901058311
 20
48.2221381381194
 30
0.0
 40
0.0
 41
0.0
  0
VERTEX
  5
   497
  8
0
  6
CONTINUOUS
 10
196.592498570021
 20
48.2197301388414
 30
0.0
 40
0.0
 41
0.0
  0
VERTEX
  5
   498
  8
0
  6
CONTINUOUS
 10
196.612119726957
 20
48.2182847588344
 30
0.0
 40
0.0
 41
0.0
  0
VERTEX
  5
   499
  8
0
  6
CONTINUOUS
 10
196.631752710068
 20
48.2178028687414
 30
0.0
 40
0.0
 41
0.0
  0
SEQEND
  5
   49A
  8
0
  6
CONTINUOUS
 62
   218
  0
INSERT
  5
   49B
  8
0
  6
CONTINUOUS
 62
   218
  2
*HATCH57
 10
242.476593017578
 20
39.802978515625
 30
0.0
 41
0.400000005960464
 42
0.400000005960464
 50
89.9999999480344
 43
0.400000005960464
  0
LINE
  5
   49C
  8
0
  6
CONTINUOUS
 62
   218
 10
217.276616674662
 20
48.7864417798708
 30
0.0
 11
208.076616537571
 21
50.4086500265615
 31
0.0
  0
LINE
  5
   49D
  8
0
  6
CONTINUOUS
 62
   218
 10
217.276616674662
 20
49.3550806910002
 30
0.0
 11
209.661660589659
 21
50.6978029056963
 31
0.0
  0
LINE
  5
   49E
  8
0
  6
CONTINUOUS
 62
   218
 10
217.276616674662
 20
49.9237196021295
 30
0.0
 11
212.886572108274
 21
50.6978029056963
 31
0.0
  0
LINE
  5
   49F
  8
0
  6
CONTINUOUS
 62
   218
 10
217.276616674662
 20
50.4923585132589
 30
0.0
 11
216.11148362689
 21
50.6978029056963
 31
0.0
  0
LINE
  5
   4A0
  8
0
  6
CONTINUOUS
 62
   218
 10
217.276616674662
 20
47.649163957612
 30
0.0
 11
208.076616537571
 21
49.2713722043027
 31
0.0
  0
LINE
  5
   4A1
  8
0
  6
CONTINUOUS
 62
   218
 10
217.276616674662
 20
47.0805250464826
 30
0.0
 11
208.076616537571
 21
48.7027332931732
 31
0.0
  0
LINE
  5
   4A2
  8
0
  6
CONTINUOUS
 62
   218
 10
217.276616674662
 20
46.5118861353532
 30
0.0
 11
208.076616537571
 21
48.1340943820439
 31
0.0
  0
LINE
  5
   4A3
  8
0
  6
CONTINUOUS
 62
   218
 10
217.276616674662
 20
45.9432472242238
 30
0.0
 11
208.076616537571
 21
47.5654554709144
 31
0.0
  0
LINE
  5
   4A4
  8
0
  6
CONTINUOUS
 62
   218
 10
215.216838203818
 20
45.7378028317865
 30
0.0
 11
208.076616537571
 21
46.996816559785
 31
0.0
  0
LINE
  5
   4A5
  8
0
  6
CONTINUOUS
 62
   218
 10
211.991926685203
 20
45.7378028317865
 30
0.0
 11
208.076616537571
 21
46.4281776486556
 31
0.0
  0
LINE
  5
   4A6
  8
0
  6
CONTINUOUS
 62
   218
 10
208.767015166588
 20
45.7378028317865
 30
0.0
 11
208.076616537571
 21
45.8595387375262
 31
0.0
  0
LINE
  5
   4A7
  8
0
  6
CONTINUOUS
 62
     7
 10
203.965503110631
 20
28.4627499032803
 30
0.0
 11
197.797834294368
 21
28.7144914876176
 31
0.0
  0
LINE
  5
   4A8
  8
0
  6
CONTINUOUS
 62
    98
 10
241.376611312211
 20
32.2978200156387
 30
0.0
 11
202.076616830111
 21
32.2978200156387
 31
0.0
  0
LINE
  5
   4A9
  8
0
  6
CONTINUOUS
 62
    98
 10
202.076616830111
 20
32.2978200156387
 30
0.0
 11
202.076616830111
 21
45.0178028210577
 31
0.0
  0
ARC
  5
   4AA
  8
0
  6
CONTINUOUS
 62
    98
 10
241.376611312211
 20
32.7978200230893
 30
0.0
 40
0.500000007450581
 50
269.999999948034
 51
359.999999948034
  0
LINE
  5
   4AB
  8
0
  6
CONTINUOUS
 62
    98
 10
241.876611319662
 20
32.7978200230893
 30
0.0
 11
241.876611319662
 21
48.6978202600177
 31
0.0
  0
LINE
  5
   4AC
  8
0
  6
CONTINUOUS
 62
    98
 10
241.876611319662
 20
48.6978202600177
 30
0.0
 11
241.876611319662
 21
59.8978204269107
 31
0.0
  0
LINE
  5
   4AD
  8
0
  6
CONTINUOUS
 62
    98
 10
241.876611319662
 20
59.8978204269107
 30
0.0
 11
241.476611313701
 21
59.8978204269107
 31
0.0
  0
LINE
  5
   4AE
  8
0
  6
CONTINUOUS
 62
    98
 10
241.476611313701
 20
59.8978204269107
 30
0.0
 11
241.476611313701
 21
60.2978204328712
 31
0.0
  0
LINE
  5
   4AF
  8
0
  6
CONTINUOUS
 62
    98
 10
240.876617408276
 20
49.6178202737268
 30
0.0
 11
240.876617408276
 21
60.2978204328712
 31
0.0
  0
LINE
  5
   4B0
  8
0
  6
CONTINUOUS
 62
    98
 10
240.876617408276
 20
50.8701081821565
 30
0.0
 11
240.876617408276
 21
53.0978203255828
 31
0.0
  0
LINE
  5
   4B1
  8
0
  6
CONTINUOUS
 62
    98
 10
240.876617408276
 20
41.217820148557
 30
0.0
 11
231.87661117065
 21
41.217820148557
 31
0.0
  0
LINE
  5
   4B2
  8
0
  6
CONTINUOUS
 62
    98
 10
240.876617408276
 20
48.8178202618059
 30
0.0
 11
231.87661117065
 21
48.8178202618059
 31
0.0
  0
LINE
  5
   4B3
  8
0
  6
CONTINUOUS
 62
    98
 10
240.876617408276
 20
40.4178201366361
 30
0.0
 11
232.876611185551
 21
40.4178201366361
 31
0.0
  0
LINE
  5
   4B4
  8
0
  6
CONTINUOUS
 62
    98
 10
240.876617408276
 20
49.6178202737268
 30
0.0
 11
232.876611185551
 21
49.6178202737268
 31
0.0
  0
LINE
  5
   4B5
  8
0
  6
CONTINUOUS
 62
     1
 10
232.876611185551
 20
49.6178202737268
 30
0.0
 11
232.876611185551
 21
50.4178202856477
 31
0.0
  0
LINE
  5
   4B6
  8
0
  6
CONTINUOUS
 62
    98
 10
232.876611185551
 20
32.2978200156387
 30
0.0
 11
232.876611185551
 21
40.4178201366361
 31
0.0
  0
LINE
  5
   4B7
  8
0
  6
CONTINUOUS
 62
    98
 10
240.876617408276
 20
32.2978200156387
 30
0.0
 11
240.876617408276
 21
40.4178201366361
 31
0.0
  0
LINE
  5
   4B8
  8
0
  6
CONTINUOUS
 62
    98
 10
240.876617408276
 20
41.217820148557
 30
0.0
 11
240.876617408276
 21
48.8178202618059
 31
0.0
  0
LINE
  5
   4B9
  8
0
  6
CONTINUOUS
 62
    98
 10
231.87661117065
 20
33.0978200275596
 30
0.0
 11
202.076616830111
 21
33.0978200275596
 31
0.0
  0
LINE
  5
   4BA
  8
0
  6
CONTINUOUS
 62
    98
 10
231.87661117065
 20
33.8978200394805
 30
0.0
 11
202.076616830111
 21
33.8978200394805
 31
0.0
  0
LINE
  5
   4BB
  8
0
  6
CONTINUOUS
 62
    98
 10
231.87661117065
 20
34.6978200514015
 30
0.0
 11
202.076616830111
 21
34.6978200514015
 31
0.0
  0
LINE
  5
   4BC
  8
0
  6
CONTINUOUS
 62
    98
 10
232.876611185551
 20
50.4178202856477
 30
0.0
 11
217.276616674662
 21
50.4178202856477
 31
0.0
  0
LINE
  5
   4BD
  8
0
  6
CONTINUOUS
 62
    98
 10
231.87661117065
 20
49.6178202737268
 30
0.0
 11
217.276616674662
 21
49.6178202737268
 31
0.0
  0
LINE
  5
   4BE
  8
0
  6
CONTINUOUS
 62
    98
 10
231.87661117065
 20
32.2978200156387
 30
0.0
 11
231.87661117065
 21
49.6178202737268
 31
0.0
  0
LINE
  5
   4BF
  8
0
  6
CONTINUOUS
 62
     1
 10
227.076611099124
 20
49.6178202737268
 30
0.0
 11
227.076611099124
 21
50.4178202856477
 31
0.0
  0
INSERT
  5
   4C0
  8
0
  6
CONTINUOUS
 62
    98
  2
*HATCH58
 10
242.476593017578
 20
39.802978515625
 30
0.0
 41
0.400000005960464
 42
0.400000005960464
 50
89.9999999480344
 43
0.400000005960464
  0
LINE
  5
   4C1
  8
0
  6
CONTINUOUS
 62
     7
 10
241.476611313701
 20
60.2978204328712
 30
0.0
 11
240.876617408276
 21
60.2978204328712
 31
0.0
  0
LINE
  5
   4C2
  8
0
  6
DASHDOT
 62
     7
 10
201.276616817713
 20
28.5725003642157
 30
0.0
 11
201.276616817713
 21
45.0178028210577
 31
0.0
  0
LINE
  5
   4C3
  8
0
  6
DASHDOT
 62
     7
 10
200.076616799832
 20
28.6214799567823
 30
0.0
 11
200.076616799832
 21
45.0178028210577
 31
0.0
  0
LINE
  5
   4C4
  8
0
  6
CONTINUOUS
 62
     3
 10
219.384103422397
 20
51.4878385117292
 30
0.0
 11
218.673489123223
 21
61.2910857753266
 31
0.0
  0
LINE
  5
   4C5
  8
0
  6
CONTINUOUS
 62
     7
 10
230.876617258787
 20
51.8178087207255
 30
0.0
 11
217.645942676485
 21
51.8178087207255
 31
0.0
  0
LINE
  5
   4C6
  8
0
  6
CONTINUOUS
 62
     7
 10
202.076616829634
 20
51.4178029164251
 30
0.0
 11
202.076616829634
 21
66.8154961013715
 31
0.0
  0
LINE
  5
   4C7
  8
0
  6
CONTINUOUS
 62
     7
 10
202.076616829634
 20
66.8154850306341
 30
0.0
 11
202.076616829634
 21
117.697803904074
 31
0.0
  0
LINE
  5
   4C8
  8
0
  6
DASHDOT
 62
     7
 10
201.276616817713
 20
51.4178029164251
 30
0.0
 11
201.276616817713
 21
156.096355967607
 31
0.0
  0
LINE
  5
   4C9
  8
0
  6
CONTINUOUS
 62
     7
 10
201.276616817713
 20
114.42964589639
 30
0.0
 11
201.276616817713
 21
114.497791649359
 31
0.0
  0
LINE
  5
   4CA
  8
0
  6
CONTINUOUS
 62
     7
 10
229.476615829544
 20
90.2977930753473
 30
0.0
 11
229.476608082753
 21
93.5978026072592
 31
0.0
  0
LINE
  5
   4CB
  8
0
  6
CONTINUOUS
 62
     7
 10
230.476593563892
 20
112.097801033397
 30
0.0
 11
230.759442682047
 21
112.214957999474
 31
0.0
  0
LINE
  5
   4CC
  8
0
  6
CONTINUOUS
 62
     7
 10
230.759447779293
 20
112.214949549042
 30
0.0
 11
230.876604754541
 21
112.497792552637
 31
0.0
  0
LINE
  5
   4CD
  8
0
  6
CONTINUOUS
 62
     7
 10
229.47661069849
 20
109.297803344869
 30
0.0
 11
229.476616802005
 21
112.097803386816
 31
0.0
  0
LINE
  5
   4CE
  8
0
  6
CONTINUOUS
 62
     7
 10
230.476605045796
 20
112.097803820628
 30
0.0
 11
229.476617237926
 21
112.097803820628
 31
0.0
  0
LINE
  5
   4CF
  8
0
  6
CONTINUOUS
 62
     7
 10
229.47661113441
 20
93.5978035449561
 30
0.0
 11
229.47661113441
 21
109.297803778904
 31
0.0
  0
LINE
  5
   4D0
  8
0
  6
CONTINUOUS
 62
     7
 10
227.676617211104
 20
73.2978032424625
 30
0.0
 11
227.676617211104
 21
89.4978034838613
 31
0.0
  0
LINE
  5
   4D1
  8
0
  6
CONTINUOUS
 62
     7
 10
227.676629195988
 20
89.4978255147196
 30
0.0
 11
227.783806923396
 21
89.897825509725
 31
0.0
  0
LINE
  5
   4D2
  8
0
  6
CONTINUOUS
 62
     7
 10
227.783820550394
 20
89.8978407317551
 30
0.0
 11
228.076636701962
 21
90.1906629799756
 31
0.0
  0
LINE
  5
   4D3
  8
0
  6
CONTINUOUS
 62
     7
 10
228.076595303064
 20
90.1906153479858
 30
0.0
 11
228.476601391088
 21
90.2977930753473
 31
0.0
  0
LINE
  5
   4D4
  8
0
  6
CONTINUOUS
 62
     7
 10
230.876617258787
 20
73.2978032424625
 30
0.0
 11
227.676617211104
 21
73.2978032424625
 31
0.0
  0
LINE
  5
   4D5
  8
0
  6
CONTINUOUS
 62
     7
 10
230.876600183929
 20
67.2977980522707
 30
0.0
 11
230.47656967676
 21
67.6977980439566
 31
0.0
  0
LINE
  5
   4D6
  8
0
  6
CONTINUOUS
 62
     7
 10
230.476579085445
 20
72.0978074670769
 30
0.0
 11
230.876615695734
 21
72.497807458514
 31
0.0
  0
LINE
  5
   4D7
  8
0
  6
CONTINUOUS
 62
     7
 10
230.476574041804
 20
72.097791406512
 30
0.0
 11
205.369450864944
 21
72.097791406512
 31
0.0
  0
LINE
  5
   4D8
  8
0
  6
CONTINUOUS
 62
     7
 10
230.476579868793
 20
67.697803159016
 30
0.0
 11
205.369432277871
 21
67.697803159016
 31
0.0
  0
LINE
  5
   4D9
  8
0
  6
CONTINUOUS
 62
     7
 10
205.369449077295
 20
72.0977856638408
 30
0.0
 11
203.876615048407
 21
72.4977917726665
 31
0.0
  0
LINE
  5
   4DA
  8
0
  6
CONTINUOUS
 62
     7
 10
203.8766279858
 20
72.4977874596188
 30
0.0
 11
202.476615009887
 21
72.8729216989113
 31
0.0
  0
LINE
  5
   4DB
  8
0
  6
CONTINUOUS
 62
     7
 10
202.076617274177
 20
66.8154974952015
 30
0.0
 11
205.369433084838
 21
67.6978034029649
 31
0.0
  0
LINE
  5
   4DC
  8
0
  6
CONTINUOUS
 62
     7
 10
202.076622030036
 20
73.8155246878388
 30
0.0
 11
202.476620870259
 21
73.9227024152508
 31
0.0
  0
LINE
  5
   4DD
  8
0
  6
CONTINUOUS
 62
     7
 10
203.676616472006
 20
64.2977970048364
 30
0.0
 11
202.076616829634
 21
64.2977970048364
 31
0.0
  0
LINE
  5
   4DE
  8
0
  6
CONTINUOUS
 62
     7
 10
203.676616472006
 20
61.2910857753266
 30
0.0
 11
203.676616472006
 21
64.2977970048364
 31
0.0
  0
LINE
  5
   4DF
  8
0
  6
CONTINUOUS
 62
     7
 10
202.476616835595
 20
66.9226688701219
 30
0.0
 11
202.476616835595
 21
84.69779730882
 31
0.0
  0
LINE
  5
   4E0
  8
0
  6
CONTINUOUS
 62
     7
 10
203.876616856456
 20
72.4978032305416
 30
0.0
 11
203.876616856456
 21
82.4978033795532
 31
0.0
  0
LINE
  5
   4E1
  8
0
  6
CONTINUOUS
 62
     7
 10
203.276616084576
 20
84.69779730882
 30
0.0
 11
202.076616448164
 21
84.69779730882
 31
0.0
  0
LINE
  5
   4E2
  8
0
  6
CONTINUOUS
 62
     7
 10
203.57662095676
 20
84.6174100480174
 30
0.0
 11
203.276620205492
 21
84.6977933435697
 31
0.0
  0
LINE
  5
   4E3
  8
0
  6
CONTINUOUS
 62
     7
 10
203.57662095676
 20
84.6174100480174
 30
0.0
 11
203.276620205492
 21
84.6977933435697
 31
0.0
  0
LINE
  5
   4E4
  8
0
  6
CONTINUOUS
 62
     7
 10
203.796233318264
 20
84.397791336964
 30
0.0
 11
203.576618145517
 21
84.6174080277147
 31
0.0
  0
LINE
  5
   4E5
  8
0
  6
CONTINUOUS
 62
     7
 10
203.876610859588
 20
84.0977860545472
 30
0.0
 11
203.796226416279
 21
84.3977860580645
 31
0.0
  0
LINE
  5
   4E6
  8
0
  6
CONTINUOUS
 62
     7
 10
203.876624104381
 20
82.4977978959299
 30
0.0
 11
203.876624104381
 21
84.097791816256
 31
0.0
  0
LINE
  5
   4E7
  8
0
  6
CONTINUOUS
 62
     7
 10
203.796235172199
 20
82.1977947326035
 30
0.0
 11
203.834324156391
 21
82.3399456114757
 31
0.0
  0
LINE
  5
   4E8
  8
0
  6
CONTINUOUS
 62
     7
 10
203.834323422663
 20
82.3399417371222
 30
0.0
 11
203.876618878223
 21
82.4977969614766
 31
0.0
  0
LINE
  5
   4E9
  8
0
  6
CONTINUOUS
 62
     7
 10
203.576616728393
 20
81.9781661642882
 30
0.0
 11
203.796232271708
 21
82.1977828553631
 31
0.0
  0
LINE
  5
   4EA
  8
0
  6
CONTINUOUS
 62
     7
 10
203.27661170661
 20
81.8977889562005
 30
0.0
 11
203.576611706939
 21
81.9781722455856
 31
0.0
  0
LINE
  5
   4EB
  8
0
  6
CONTINUOUS
 62
     7
 10
203.276616466046
 20
81.8977972670968
 30
0.0
 11
202.476616835595
 21
81.8977972670968
 31
0.0
  0
LINE
  5
   4EC
  8
0
  6
CONTINUOUS
 62
     7
 10
202.076616829634
 20
54.8977972462352
 30
0.0
 11
201.276616817713
 21
54.8977972462352
 31
0.0
  0
LINE
  5
   4ED
  8
0
  6
CONTINUOUS
 62
     7
 10
202.076616829634
 20
114.497791649359
 30
0.0
 11
201.276616817713
 21
114.497791649359
 31
0.0
  0
LINE
  5
   4EE
  8
0
  6
CONTINUOUS
 62
     7
 10
202.076616829634
 20
110.550452723352
 30
0.0
 11
201.276616817713
 21
110.550452723352
 31
0.0
  0
LINE
  5
   4EF
  8
0
  6
CONTINUOUS
 62
     7
 10
204.996222211662
 20
67.5977986234407
 30
0.0
 11
203.876607444751
 21
67.8977986046959
 31
0.0
  0
LINE
  5
   4F0
  8
0
  6
CONTINUOUS
 62
     7
 10
203.876603505015
 20
67.8978024181342
 30
0.0
 11
203.876603505015
 21
71.8978024777389
 31
0.0
  0
LINE
  5
   4F1
  8
0
  6
CONTINUOUS
 62
     7
 10
203.876603622029
 20
71.8977971280378
 30
0.0
 11
204.996227923144
 21
72.1977971298292
 31
0.0
  0
LINE
  5
   4F2
  8
0
  6
CONTINUOUS
 62
     7
 10
202.076616829634
 20
58.8116458000395
 30
0.0
 11
201.276616817713
 21
58.8116458000395
 31
0.0
  0
LINE
  5
   4F3
  8
0
  6
CONTINUOUS
 62
     7
 10
202.076616829634
 20
58.8977969243701
 30
0.0
 11
201.276616817713
 21
58.8977969243701
 31
0.0
  0
LINE
  5
   4F4
  8
0
  6
CONTINUOUS
 62
     7
 10
203.796236527168
 20
81.9860778263963
 30
0.0
 11
203.87662058399
 21
82.3399474487785
 31
0.0
  0
LINE
  5
   4F5
  8
0
  6
CONTINUOUS
 62
     7
 10
203.876616093517
 20
82.3399481525916
 30
0.0
 11
203.834321018424
 21
82.3399481525916
 31
0.0
  0
LINE
  5
   4F6
  8
0
  6
CONTINUOUS
 62
     7
 10
203.823026145167
 20
76.6977930675785
 30
0.0
 11
203.876615009249
 21
76.7375757814352
 31
0.0
  0
LINE
  5
   4F7
  8
0
  6
CONTINUOUS
 62
     7
 10
203.823029708473
 20
76.6977790221384
 30
0.0
 11
203.796234132019
 21
76.7176703783524
 31
0.0
  0
LINE
  5
   4F8
  8
0
  6
CONTINUOUS
 62
     7
 10
203.876616474986
 20
80.6978033527311
 30
0.0
 11
203.796232028598
 21
80.6978033527311
 31
0.0
  0
LINE
  5
   4F9
  8
0
  6
CONTINUOUS
 62
     7
 10
203.796229841843
 20
78.2778886644227
 30
0.0
 11
203.823025418297
 21
78.2977800206367
 31
0.0
  0
LINE
  5
   4FA
  8
0
  6
CONTINUOUS
 62
     7
 10
203.876618154815
 20
78.2580075918967
 30
0.0
 11
203.823029290733
 21
78.2977903057534
 31
0.0
  0
LINE
  5
   4FB
  8
0
  6
CONTINUOUS
 62
     7
 10
203.839899262293
 20
81.386632215731
 30
0.0
 11
203.796229766018
 21
81.6305409079823
 31
0.0
  0
LINE
  5
   4FC
  8
0
  6
CONTINUOUS
 62
     7
 10
203.876616154875
 20
80.6978044924591
 30
0.0
 11
203.839901219854
 21
81.3866350428596
 31
0.0
  0
LINE
  5
   4FD
  8
0
  6
CONTINUOUS
 62
     7
 10
203.796230288529
 20
76.7176821842454
 30
0.0
 11
203.590086338663
 21
76.75868559834
 31
0.0
  0
LINE
  5
   4FE
  8
0
  6
CONTINUOUS
 62
     7
 10
203.59008744513
 20
76.758688012793
 30
0.0
 11
203.57661584162
 21
76.7676906978796
 31
0.0
  0
LINE
  5
   4FF
  8
0
  6
CONTINUOUS
 62
     7
 10
203.576609912373
 20
78.2278936147636
 30
0.0
 11
203.590082278359
 21
78.2368963000361
 31
0.0
  0
LINE
  5
   500
  8
0
  6
CONTINUOUS
 62
     7
 10
203.59008491606
 20
78.2368943832977
 30
0.0
 11
203.796228103446
 21
78.2778977910112
 31
0.0
  0
LINE
  5
   501
  8
0
  6
CONTINUOUS
 62
     7
 10
203.796232028598
 20
80.6978033527311
 30
0.0
 11
203.576616470516
 21
80.6978033527311
 31
0.0
  0
LINE
  5
   502
  8
0
  6
CONTINUOUS
 62
     7
 10
203.576614676061
 20
76.7676851805945
 30
0.0
 11
203.276614678553
 21
76.8213961065194
 31
0.0
  0
LINE
  5
   503
  8
0
  6
CONTINUOUS
 62
     7
 10
203.276614214322
 20
78.1741839856992
 30
0.0
 11
203.57661421183
 21
78.2278949116242
 31
0.0
  0
LINE
  5
   504
  8
0
  6
CONTINUOUS
 62
     7
 10
203.576616470516
 20
80.6978033527311
 30
0.0
 11
203.276616466046
 21
80.6978033527311
 31
0.0
  0
LINE
  5
   505
  8
0
  6
CONTINUOUS
 62
     7
 10
203.276616466046
 20
78.1741888131732
 30
0.0
 11
202.476616835595
 21
78.1741888131732
 31
0.0
  0
LINE
  5
   506
  8
0
  6
CONTINUOUS
 62
     7
 10
203.276616466046
 20
80.6978033527311
 30
0.0
 11
202.476616835595
 21
80.6978033527311
 31
0.0
  0
LINE
  5
   507
  8
0
  6
CONTINUOUS
 62
     7
 10
203.276616466046
 20
76.8214055898902
 30
0.0
 11
202.476616835595
 21
76.8214055898902
 31
0.0
  0
LINE
  5
   508
  8
0
  6
CONTINUOUS
 62
     3
 10
239.756616170884
 20
117.577808785099
 30
0.0
 11
228.291175785084
 21
117.577808785099
 31
0.0
  0
LINE
  5
   509
  8
0
  6
CONTINUOUS
 62
     3
 10
239.756616170884
 20
51.8178087207255
 30
0.0
 11
230.876617259265
 21
51.8178087207255
 31
0.0
  0
LINE
  5
   50A
  8
0
  6
CONTINUOUS
 62
     3
 10
240.876617408276
 20
50.697809009212
 30
0.0
 11
217.276616674662
 21
50.697809009212
 31
0.0
  0
LINE
  5
   50B
  8
0
  6
CONTINUOUS
 62
     3
 10
230.876617259265
 20
50.697809009212
 30
0.0
 11
230.876617259265
 21
67.5978031575259
 31
0.0
  0
LINE
  5
   50C
  8
0
  6
CONTINUOUS
 62
     3
 10
230.876617259266
 20
72.1977971225555
 30
0.0
 11
230.876617259266
 21
73.2978276565254
 31
0.0
  0
LINE
  5
   50D
  8
0
  6
CONTINUOUS
 62
     3
 10
230.876617258788
 20
112.49782274067
 30
0.0
 11
230.876617258788
 21
118.697803918975
 31
0.0
  0
LINE
  5
   50E
  8
0
  6
CONTINUOUS
 62
     3
 10
242.676617435098
 20
89.8773506086576
 30
0.0
 11
242.676617435098
 21
93.6976753726162
 31
0.0
  0
LINE
  5
   50F
  8
0
  6
CONTINUOUS
 62
     3
 10
242.67661409409
 20
66.8976845706693
 30
0.0
 11
242.676595783544
 21
69.5179723142371
 31
0.0
  0
LINE
  5
   510
  8
0
  6
CONTINUOUS
 62
     3
 10
240.876617408276
 20
112.197809925633
 30
0.0
 11
239.756616170884
 21
112.197809925633
 31
0.0
  0
LINE
  5
   511
  8
0
  6
CONTINUOUS
 62
     3
 10
240.876617408276
 20
60.2978204328712
 30
0.0
 11
240.876617408276
 21
60.5978098651772
 31
0.0
  0
LINE
  5
   512
  8
0
  6
CONTINUOUS
 62
     3
 10
240.876617408276
 20
57.1978091060695
 30
0.0
 11
239.756616170884
 21
57.1978091060695
 31
0.0
  0
LINE
  5
   513
  8
0
  6
CONTINUOUS
 62
     3
 10
239.756616170884
 20
51.8178102466045
 30
0.0
 11
239.756616170884
 21
60.5978101703534
 31
0.0
  0
LINE
  5
   514
  8
0
  6
CONTINUOUS
 62
     3
 10
239.756614947358
 20
72.1978032260713
 30
0.0
 11
230.876616035739
 21
72.1978032260713
 31
0.0
  0
LINE
  5
   515
  8
0
  6
CONTINUOUS
 62
     3
 10
239.756615223522
 20
67.5978031575259
 30
0.0
 11
230.876616311903
 21
67.5978031575259
 31
0.0
  0
LINE
  5
   516
  8
0
  6
CONTINUOUS
 62
     1
 10
243.459446196127
 20
104.739251691856
 30
0.0
 11
243.447318510664
 21
104.768536359752
 31
0.0
  0
LINE
  5
   517
  8
0
  6
CONTINUOUS
 62
     1
 10
243.447331767513
 20
104.768508862222
 30
0.0
 11
243.37662139485
 21
104.79779353051
 31
0.0
  0
LINE
  5
   518
  8
0
  6
CONTINUOUS
 62
     1
 10
240.876617408276
 20
60.5978095382032
 30
0.0
 11
240.676617405296
 21
60.5978095382032
 31
0.0
  0
LINE
  5
   519
  8
0
  6
CONTINUOUS
 62
     2
 10
241.876617041707
 20
60.5978204373415
 30
0.0
 11
239.756616170884
 21
60.5978204373415
 31
0.0
  0
LINE
  5
   51A
  8
0
  6
CONTINUOUS
 62
     2
 10
246.277141616948
 20
62.9978034704503
 30
0.0
 11
246.277141616948
 21
63.797802337962
 31
0.0
  0
LINE
  5
   51B
  8
0
  6
CONTINUOUS
 62
     2
 10
242.677141587146
 20
62.7978030874623
 30
0.0
 11
242.677141587146
 21
104.797803713311
 31
0.0
  0
LINE
  5
   51C
  8
0
  6
CONTINUOUS
 62
     2
 10
244.076613640786
 20
104.797803711849
 30
0.0
 11
241.876617041707
 21
104.797803711849
 31
0.0
  0
LINE
  5
   51D
  8
0
  6
CONTINUOUS
 62
     2
 10
244.076613640786
 20
62.7978030869443
 30
0.0
 11
241.876617041707
 21
62.7978030869443
 31
0.0
  0
LINE
  5
   51E
  8
0
  6
CONTINUOUS
 62
     2
 10
246.277060872505
 20
75.7977928705678
 30
0.0
 11
246.277082234809
 21
83.5977929872936
 31
0.0
  0
LINE
  5
   51F
  8
0
  6
CONTINUOUS
 62
     7
 10
229.476614186268
 20
90.2977930753473
 30
0.0
 11
228.476601391088
 21
90.2977930753473
 31
0.0
  0
LINE
  5
   520
  8
0
  6
CONTINUOUS
 62
     2
 10
241.876617041707
 20
104.797803711849
 30
0.0
 11
241.876617041707
 21
108.977803689727
 31
0.0
  0
LINE
  5
   521
  8
0
  6
CONTINUOUS
 62
     2
 10
241.876617041707
 20
60.5978095926989
 30
0.0
 11
241.876617041707
 21
62.7978030869443
 31
0.0
  0
LINE
  5
   522
  8
0
  6
CONTINUOUS
 62
     3
 10
239.756616170884
 20
108.997803774434
 30
0.0
 11
239.756616170884
 21
117.577808785099
 31
0.0
  0
LINE
  5
   523
  8
0
  6
CONTINUOUS
 62
     2
 10
239.756616170884
 20
60.5978101703534
 30
0.0
 11
239.756616170884
 21
108.977803689727
 31
0.0
  0
ARC
  5
   524
  8
0
  6
CONTINUOUS
 62
     7
 10
254.547033535243
 20
74.9802506073041
 30
0.0
 40
0.399999924262788
 50
348.623601716676
 51
436.688817054576
  0
ARC
  5
   525
  8
0
  6
CONTINUOUS
 62
     7
 10
254.068336945271
 20
72.6011231478132
 30
0.0
 40
0.400000304059165
 50
260.594020543651
 51
348.623601716676
  0
LINE
  5
   526
  8
0
  6
DASHDOT
 62
     7
 10
260.467268693008
 20
72.5367889896691
 30
0.0
 11
240.420591811097
 21
76.5703152658055
 31
0.0
  0
LINE
  5
   527
  8
0
  6
CONTINUOUS
 62
     7
 10
254.639129321906
 20
75.3695038344287
 30
0.0
 11
246.277065117968
 21
77.3479354242663
 31
0.0
  0
LINE
  5
   528
  8
0
  6
CONTINUOUS
 62
     7
 10
254.460478146056
 20
72.5222216996261
 30
0.0
 11
254.939174604593
 21
74.9013491855625
 31
0.0
  0
LINE
  5
   529
  8
0
  6
CONTINUOUS
 62
     7
 10
254.002965348666
 20
72.2065009312925
 30
0.0
 11
246.277085168905
 21
73.4863404876833
 31
0.0
  0
LINE
  5
   52A
  8
0
  6
DASHDOT
 62
     7
 10
200.076616799832
 20
51.4178029164251
 30
0.0
 11
200.076616799832
 21
156.259992333682
 31
0.0
  0
LINE
  5
   52B
  8
0
  6
CONTINUOUS
 62
     7
 10
211.276616966725
 20
150.897804398793
 30
0.0
 11
209.276616936922
 21
150.897804398793
 31
0.0
  0
LINE
  5
   52C
  8
0
  6
CONTINUOUS
 62
     7
 10
211.276616966725
 20
143.009038567873
 30
0.0
 11
211.276616966725
 21
150.897804398793
 31
0.0
  0
LINE
  5
   52D
  8
0
  6
CONTINUOUS
 62
     7
 10
209.276616936922
 20
143.009038567873
 30
0.0
 11
209.276616936922
 21
145.617804320115
 31
0.0
  0
LINE
  5
   52E
  8
0
  6
DASHDOT
 62
     7
 10
213.809664565521
 20
147.297804345148
 30
0.0
 11
207.145805614784
 21
147.297804345148
 31
0.0
  0
LINE
  5
   52F
  8
0
  6
CONTINUOUS
 62
     7
 10
209.276616936922
 20
60.0978080129886
 30
0.0
 11
202.076616829634
 21
60.0978080129886
 31
0.0
  0
LINE
  5
   530
  8
0
  6
CONTINUOUS
 62
     7
 10
207.676616913081
 20
60.0978080129886
 30
0.0
 11
207.676616913081
 21
61.2910857753266
 31
0.0
  0
LINE
  5
   531
  8
0
  6
CONTINUOUS
 62
     7
 10
209.276616936922
 20
60.0978080129886
 30
0.0
 11
209.276616936922
 21
61.2910857753266
 31
0.0
  0
LINE
  5
   532
  8
0
  6
CONTINUOUS
 62
     7
 10
211.676616972685
 20
60.0978080129886
 30
0.0
 11
211.676616972685
 21
61.2910857753266
 31
0.0
  0
LINE
  5
   533
  8
0
  6
CONTINUOUS
 62
     7
 10
218.759987017034
 20
60.0978080129886
 30
0.0
 11
211.676616972685
 21
60.0978080129886
 31
0.0
  0
LINE
  5
   534
  8
0
  6
CONTINUOUS
 62
     3
 10
218.673489123223
 20
61.2910857753266
 30
0.0
 11
201.521487816495
 21
61.2910857753266
 31
0.0
  0
LINE
  5
   535
  8
0
  6
CONTINUOUS
 62
     7
 10
210.476616573334
 20
52.4978078997398
 30
0.0
 11
209.276616936922
 21
52.4978078997398
 31
0.0
  0
LINE
  5
   536
  8
0
  6
CONTINUOUS
 62
     7
 10
210.476616573334
 20
57.6978030100044
 30
0.0
 11
210.476616573334
 21
61.2910857753266
 31
0.0
  0
LINE
  5
   537
  8
0
  6
CONTINUOUS
 62
     7
 10
210.476616573334
 20
52.4978078997397
 30
0.0
 11
210.476616573334
 21
54.3978071651124
 31
0.0
  0
LINE
  5
   538
  8
0
  6
CONTINUOUS
 62
     7
 10
209.27661693692
 20
52.4978078997398
 30
0.0
 11
209.27661693692
 21
61.2910857753266
 31
0.0
  0
LINE
  5
   539
  8
0
  6
CONTINUOUS
 62
     7
 10
211.276616585255
 20
52.4978078997397
 30
0.0
 11
210.476616573334
 21
52.4978078997397
 31
0.0
  0
LINE
  5
   53A
  8
0
  6
CONTINUOUS
 62
     7
 10
211.276616585255
 20
60.8978080249094
 30
0.0
 11
210.476616573334
 21
60.8978080249094
 31
0.0
  0
LINE
  5
   53B
  8
0
  6
DASHDOT
 62
     7
 10
218.022284101414
 20
56.0978029861626
 30
0.0
 11
207.145805614784
 21
56.0978029861626
 31
0.0
  0
INSERT
  5
   53C
  8
0
  6
CONTINUOUS
 62
     7
  2
*HATCH59
 10
242.476593017578
 20
39.802978515625
 30
0.0
 41
0.400000005960464
 42
0.400000005960464
 50
89.9999999480344
 43
0.400000005960464
  0
LINE
  5
   53D
  8
0
  6
CONTINUOUS
 62
     7
 10
211.276616585255
 20
57.7378030106005
 30
0.0
 11
209.27661693692
 21
57.7378030106005
 31
0.0
  0
LINE
  5
   53E
  8
0
  6
CONTINUOUS
 62
     7
 10
211.276616585255
 20
54.4578029617247
 30
0.0
 11
209.27661693692
 21
54.4578029617247
 31
0.0
  0
INSERT
  5
   53F
  8
0
  6
CONTINUOUS
 62
     7
  2
*HATCH60
 10
242.476593017578
 20
39.802978515625
 30
0.0
 41
0.400000005960464
 42
0.400000005960464
 50
89.9999999480344
 43
0.400000005960464
  0
INSERT
  5
   540
  8
0
  6
CONTINUOUS
 62
     7
  2
*HATCH61
 10
242.476593017578
 20
39.802978515625
 30
0.0
 41
0.400000005960464
 42
0.400000005960464
 50
89.9999999480344
 43
0.400000005960464
  0
INSERT
  5
   541
  8
0
  6
CONTINUOUS
 62
     7
  2
*HATCH62
 10
242.476593017578
 20
39.802978515625
 30
0.0
 41
0.400000005960464
 42
0.400000005960464
 50
89.9999999480344
 43
0.400000005960464
  0
ARC
  5
   542
  8
0
  6
DASHDOT
 62
     7
 10
224.876936324623
 20
79.69780333783
 30
0.0
 40
30.4177082930624
 50
337.492314704898
 51
359.999999948034
  0
LINE
  5
   543
  8
0
  6
DASHDOT
 62
     7
 10
255.294644617686
 20
79.6978033378299
 30
0.0
 11
255.294644617686
 21
81.9978832259988
 31
0.0
  0
LINE
  5
   544
  8
0
  6
CONTINUOUS
 62
     7
 10
211.276616966725
 20
148.977804370182
 30
0.0
 11
209.276616936922
 21
148.977804370182
 31
0.0
  0
LINE
  5
   545
  8
0
  6
CONTINUOUS
 62
     7
 10
211.276616966725
 20
145.617804320115
 30
0.0
 11
209.276616936922
 21
145.617804320115
 31
0.0
  0
INSERT
  5
   546
  8
0
  6
CONTINUOUS
 62
     7
  2
*HATCH63
 10
242.476593017578
 20
39.802978515625
 30
0.0
 41
0.400000005960464
 42
0.400000005960464
 50
89.9999999480344
 43
0.400000005960464
  0
LINE
  5
   547
  8
0
  6
CONTINUOUS
 62
     7
 10
203.774303067414
 20
155.755762388102
 30
0.0
 11
197.047626843809
 21
156.673036418594
 31
0.0
  0
LINE
  5
   548
  8
0
  6
CONTINUOUS
 62
     1
 10
244.076613640786
 20
61.7952289043702
 30
0.0
 11
244.076613640786
 21
62.5952289162912
 31
0.0
  0
LINE
  5
   549
  8
0
  6
CONTINUOUS
 62
     1
 10
244.876613652706
 20
61.7952289043702
 30
0.0
 11
244.076613640786
 21
61.7952289043702
 31
0.0
  0
LINE
  5
   54A
  8
0
  6
CONTINUOUS
 62
     1
 10
244.076613640786
 20
104.995228022221
 30
0.0
 11
244.076613640786
 21
105.795228034142
 31
0.0
  0
LINE
  5
   54B
  8
0
  6
CONTINUOUS
 62
     1
 10
244.876613652706
 20
105.795228034142
 30
0.0
 11
244.076613640786
 21
105.795228034142
 31
0.0
  0
LINE
  5
   54C
  8
0
  6
CONTINUOUS
 62
     1
 10
244.076613640786
 20
62.5952289162912
 30
0.0
 11
244.076613640786
 21
104.9952295481
 31
0.0
  0
LINE
  5
   54D
  8
0
  6
CONTINUOUS
 62
     1
 10
242.276613685489
 20
111.226166835773
 30
0.0
 11
242.276613685489
 21
113.164289423247
 31
0.0
  0
LINE
  5
   54E
  8
0
  6
CONTINUOUS
 62
     1
 10
242.276613685489
 20
54.4261690411447
 30
0.0
 11
242.276613685489
 21
56.3642885768609
 31
0.0
  0
LINE
  5
   54F
  8
0
  6
CONTINUOUS
 62
     1
 10
244.876613652706
 20
51.5978143772106
 30
0.0
 11
244.876613652706
 21
115.997813810966
 31
0.0
  0
LINE
  5
   550
  8
0
  6
CONTINUOUS
 62
     1
 10
246.276613673568
 20
51.5978143772106
 30
0.0
 11
246.276613673568
 21
115.997813810966
 31
0.0
  0
LINE
  5
   551
  8
0
  6
CONTINUOUS
 62
     1
 10
244.876613652706
 20
110.995228111628
 30
0.0
 11
242.676613685969
 21
110.995228111628
 31
0.0
  0
LINE
  5
   552
  8
0
  6
CONTINUOUS
 62
     1
 10
244.876613652706
 20
113.395228147391
 30
0.0
 11
242.676613685969
 21
113.395228147391
 31
0.0
  0
LINE
  5
   553
  8
0
  6
CONTINUOUS
 62
     1
 10
242.676614004259
 20
110.995227192804
 30
0.0
 11
242.276613985127
 21
111.226165919844
 31
0.0
  0
LINE
  5
   554
  8
0
  6
CONTINUOUS
 62
     1
 10
242.676613685969
 20
110.995228111628
 30
0.0
 11
242.676613685969
 21
111.346699064131
 31
0.0
  0
LINE
  5
   555
  8
0
  6
CONTINUOUS
 62
     1
 10
242.676613685969
 20
111.346699064131
 30
0.0
 11
242.676613685969
 21
111.736011814073
 31
0.0
  0
LINE
  5
   556
  8
0
  6
CONTINUOUS
 62
     1
 10
242.676613685969
 20
111.736011814073
 30
0.0
 11
242.676613685969
 21
112.19522812951
 31
0.0
  0
LINE
  5
   557
  8
0
  6
CONTINUOUS
 62
     1
 10
242.676613685969
 20
112.19522812951
 30
0.0
 11
242.676613685969
 21
112.654450548462
 31
0.0
  0
LINE
  5
   558
  8
0
  6
CONTINUOUS
 62
     1
 10
242.676613685969
 20
112.654450548462
 30
0.0
 11
242.676613685969
 21
113.395228147391
 31
0.0
  0
LINE
  5
   559
  8
0
  6
CONTINUOUS
 62
     1
 10
242.676613685969
 20
113.043757194888
 30
0.0
 11
242.676613685969
 21
113.303882931186
 31
0.0
  0
LINE
  5
   55A
  8
0
  6
CONTINUOUS
 62
     1
 10
242.476613682989
 20
113.303882931186
 30
0.0
 11
242.476613682989
 21
113.395228147391
 31
0.0
  0
LINE
  5
   55B
  8
0
  6
CONTINUOUS
 62
     1
 10
242.276613337818
 20
113.164288470552
 30
0.0
 11
242.676613356949
 21
113.395227197591
 31
0.0
  0
LINE
  5
   55C
  8
0
  6
CONTINUOUS
 62
     1
 10
244.876613652706
 20
56.5952288268842
 30
0.0
 11
242.676613699286
 21
56.5952288268842
 31
0.0
  0
LINE
  5
   55D
  8
0
  6
CONTINUOUS
 62
     1
 10
244.876613652706
 20
54.1952287911214
 30
0.0
 11
242.676613699295
 21
54.1952287911214
 31
0.0
  0
LINE
  5
   55E
  8
0
  6
CONTINUOUS
 62
     1
 10
242.276613476629
 20
56.3642880167602
 30
0.0
 11
242.676613495761
 21
56.5952282540067
 31
0.0
  0
LINE
  5
   55F
  8
0
  6
CONTINUOUS
 62
     1
 10
242.676613699286
 20
56.2437563485023
 30
0.0
 11
242.676613699286
 21
56.5952288268842
 31
0.0
  0
LINE
  5
   560
  8
0
  6
CONTINUOUS
 62
     1
 10
242.676613699297
 20
55.8544497020762
 30
0.0
 11
242.676613699297
 21
56.2437563485023
 31
0.0
  0
LINE
  5
   561
  8
0
  6
CONTINUOUS
 62
     1
 10
242.676613699269
 20
55.3952288090028
 30
0.0
 11
242.676613699269
 21
55.8544497020762
 31
0.0
  0
LINE
  5
   562
  8
0
  6
CONTINUOUS
 62
     1
 10
242.676613699319
 20
54.9360094418083
 30
0.0
 11
242.676613699319
 21
55.3952288090028
 31
0.0
  0
LINE
  5
   563
  8
0
  6
CONTINUOUS
 62
     1
 10
242.676613699297
 20
54.5467012695033
 30
0.0
 11
242.676613699297
 21
54.9360094418083
 31
0.0
  0
LINE
  5
   564
  8
0
  6
CONTINUOUS
 62
     1
 10
242.676613699287
 20
54.2865740073263
 30
0.0
 11
242.676613699287
 21
54.5467012695033
 31
0.0
  0
LINE
  5
   565
  8
0
  6
CONTINUOUS
 62
     1
 10
242.676613865025
 20
54.1952283001218
 30
0.0
 11
242.276613845893
 21
54.4261685373683
 31
0.0
  0
LINE
  5
   566
  8
0
  6
CONTINUOUS
 62
     1
 10
242.676613699295
 20
54.1952287911214
 30
0.0
 11
242.676613699295
 21
54.2865740073263
 31
0.0
  0
LINE
  5
   567
  8
0
  6
CONTINUOUS
 62
     7
 10
244.876613652706
 20
115.997813810966
 30
0.0
 11
244.876613652706
 21
167.474905209335
 31
0.0
  0
LINE
  5
   568
  8
0
  6
CONTINUOUS
 62
     7
 10
244.076613640786
 20
105.795228034142
 30
0.0
 11
244.076613640786
 21
110.995228111628
 31
0.0
  0
LINE
  5
   569
  8
0
  6
CONTINUOUS
 62
     7
 10
244.876613652706
 20
35.6116507327454
 30
0.0
 11
244.876613652706
 21
51.5978143772106
 31
0.0
  0
LINE
  5
   56A
  8
0
  6
CONTINUOUS
 62
     7
 10
244.076613640786
 20
36.0909353896637
 30
0.0
 11
244.076613640786
 21
54.1952287911214
 31
0.0
  0
LINE
  5
   56B
  8
0
  6
CONTINUOUS
 62
     7
 10
244.876613652706
 20
113.595228150371
 30
0.0
 11
244.076613640786
 21
113.595228150371
 31
0.0
  0
LINE
  5
   56C
  8
0
  6
CONTINUOUS
 62
     7
 10
244.876613652706
 20
110.795228108648
 30
0.0
 11
244.076613640786
 21
110.795228108648
 31
0.0
  0
LINE
  5
   56D
  8
0
  6
CONTINUOUS
 62
     7
 10
244.876613652706
 20
106.195228040103
 30
0.0
 11
244.076613640786
 21
106.195228040103
 31
0.0
  0
LINE
  5
   56E
  8
0
  6
CONTINUOUS
 62
     7
 10
244.876613652706
 20
61.3952288984098
 30
0.0
 11
244.076613640786
 21
61.3952288984098
 31
0.0
  0
LINE
  5
   56F
  8
0
  6
CONTINUOUS
 62
     7
 10
244.876613652706
 20
56.7952288298644
 30
0.0
 11
244.076613640786
 21
56.7952288298644
 31
0.0
  0
LINE
  5
   570
  8
0
  6
CONTINUOUS
 62
     7
 10
244.876613652706
 20
53.9952287881412
 30
0.0
 11
244.076613640786
 21
53.9952287881412
 31
0.0
  0
LINE
  5
   571
  8
0
  6
CONTINUOUS
 62
     7
 10
244.076613640786
 20
56.5952288268842
 30
0.0
 11
244.076613640786
 21
61.7952289043702
 31
0.0
  0
LINE
  5
   572
  8
0
  6
CONTINUOUS
 62
     7
 10
244.076613640786
 20
113.395228147391
 30
0.0
 11
244.076613640786
 21
168.146966876382
 31
0.0
  0
LINE
  5
   573
  8
0
  6
CONTINUOUS
 62
     3
 10
246.492291771785
 20
166.117611066911
 30
0.0
 11
242.645944024139
 21
169.348839617919
 31
0.0
  0
LINE
  5
   574
  8
0
  6
CONTINUOUS
 62
     3
 10
247.055533445814
 20
34.3062472203323
 30
0.0
 11
242.08270235011
 21
37.2854992329596
 31
0.0
  0
INSERT
  5
   575
  8
0
  6
CONTINUOUS
 62
     7
  2
*HATCH64
 10
242.476593017578
 20
39.802978515625
 30
0.0
 41
0.400000005960464
 42
0.400000005960464
 50
89.9999999480344
 43
0.400000005960464
  0
INSERT
  5
   576
  8
0
  6
CONTINUOUS
 62
     7
  2
*HATCH65
 10
242.476593017578
 20
39.802978515625
 30
0.0
 41
0.400000005960464
 42
0.400000005960464
 50
89.9999999480344
 43
0.400000005960464
  0
INSERT
  5
   577
  8
0
  6
CONTINUOUS
 62
     7
  2
*HATCH66
 10
242.476593017578
 20
39.802978515625
 30
0.0
 41
0.400000005960464
 42
0.400000005960464
 50
89.9999999480344
 43
0.400000005960464
  0
LINE
  5
   578
  8
0
  6
DASHDOT
 62
     7
 10
255.294644617686
 20
79.6978033378299
 30
0.0
 11
255.294644617686
 21
88.1235849876199
 31
0.0
  0
LINE
  5
   579
  8
0
  6
DASHDOT
 62
     5
 10
266.278758261065
 20
83.7978033989247
 30
0.0
 11
190.01072121538
 21
83.7978033989247
 31
0.0
  0
LINE
  5
   57A
  8
0
  6
CONTINUOUS
 62
     3
 10
227.348157631346
 20
143.009038567873
 30
0.0
 11
228.68448013837
 21
155.151584424965
 31
0.0
  0
LINE
  5
   57B
  8
0
  6
CONTINUOUS
 62
     3
 10
227.348157631346
 20
143.009038567873
 30
0.0
 11
201.342115542807
 21
143.009038567873
 31
0.0
  0
LINE
  5
   57C
  8
0
  6
CONTINUOUS
 62
     7
 10
209.276616936922
 20
148.977804370182
 30
0.0
 11
209.276616936922
 21
150.897804398793
 31
0.0
  0
LINE
  5
   57D
  8
0
  6
CONTINUOUS
 62
     3
 10
208.276616922021
 20
143.297804285544
 30
0.0
 11
208.276616922021
 21
151.297804404753
 31
0.0
  0
LINE
  5
   57E
  8
0
  6
DASHDOT
 62
     3
 10
227.712222755591
 20
147.297804345148
 30
0.0
 11
206.408757043873
 21
147.297804345148
 31
0.0
  0
LINE
  5
   57F
  8
0
  6
CONTINUOUS
 62
     3
 10
209.276616936922
 20
143.297804285544
 30
0.0
 11
209.276616936922
 21
145.697804321307
 31
0.0
  0
LINE
  5
   580
  8
0
  6
CONTINUOUS
 62
     3
 10
211.276616966725
 20
151.297804404753
 30
0.0
 11
208.276616922021
 21
151.297804404753
 31
0.0
  0
LINE
  5
   581
  8
0
  6
CONTINUOUS
 62
     3
 10
209.276616936922
 20
143.297804285544
 30
0.0
 11
208.276616922021
 21
143.297804285544
 31
0.0
  0
LINE
  5
   582
  8
0
  6
CONTINUOUS
 62
     3
 10
223.876617154479
 20
144.097804297465
 30
0.0
 11
223.876617154479
 21
144.897804309386
 31
0.0
  0
ARC
  5
   583
  8
0
  6
CONTINUOUS
 62
     3
 10
209.276616936922
 20
147.297804345148
 30
0.0
 40
1.60000002384186
 50
359.999999948034
 51
449.999999948034
  0
ARC
  5
   584
  8
0
  6
CONTINUOUS
 62
     3
 10
223.076617142558
 20
150.497804392832
 30
0.0
 40
0.800000011920929
 50
359.999999948034
 51
449.999999948034
  0
ARC
  5
   585
  8
0
  6
CONTINUOUS
 62
     3
 10
223.076617142558
 20
144.097804297465
 30
0.0
 40
0.800000011920929
 50
269.999999948034
 51
359.999999948034
  0
ARC
  5
   586
  8
0
  6
CONTINUOUS
 62
     3
 10
209.276616936922
 20
147.297804345148
 30
0.0
 40
1.60000002384186
 50
269.999999948034
 51
359.999999948034
  0
ARC
  5
   587
  8
0
  6
CONTINUOUS
 62
     3
 10
209.276616936922
 20
147.297804345148
 30
0.0
 40
0.800000011920929
 50
262.819244166576
 51
457.180755729493
  0
ARC
  5
   588
  8
0
  6
CONTINUOUS
 62
     3
 10
209.076616933942
 20
148.885255155442
 30
0.0
 40
0.800000011920929
 50
179.999999948034
 51
277.180755729493
  0
ARC
  5
   589
  8
0
  6
CONTINUOUS
 62
     3
 10
209.076616933942
 20
145.710353534855
 30
0.0
 40
0.800000011920929
 50
442.819244166576
 51
539.999999948034
  0
LINE
  5
   58A
  8
0
  6
CONTINUOUS
 62
     3
 10
209.276616936922
 20
148.89780436899
 30
0.0
 11
209.276616936922
 21
151.297804404753
 31
0.0
  0
LINE
  5
   58B
  8
0
  6
CONTINUOUS
 62
     3
 10
220.876617109776
 20
143.297804285544
 30
0.0
 11
220.876617109776
 21
144.897804309386
 31
0.0
  0
LINE
  5
   58C
  8
0
  6
CONTINUOUS
 62
     3
 10
222.476617133618
 20
143.297804285544
 30
0.0
 11
222.476617133618
 21
144.897804309386
 31
0.0
  0
LINE
  5
   58D
  8
0
  6
CONTINUOUS
 62
     3
 10
222.476617133618
 20
149.297804374951
 30
0.0
 11
220.876617109776
 21
149.297804374951
 31
0.0
  0
LINE
  5
   58E
  8
0
  6
CONTINUOUS
 62
     3
 10
222.476617133618
 20
145.297804315346
 30
0.0
 11
220.876617109776
 21
145.297804315346
 31
0.0
  0
LINE
  5
   58F
  8
0
  6
CONTINUOUS
 62
     3
 10
222.476617133618
 20
149.697804380911
 30
0.0
 11
220.876617109776
 21
149.697804380911
 31
0.0
  0
LINE
  5
   590
  8
0
  6
CONTINUOUS
 62
     3
 10
222.476617133618
 20
144.897804309386
 30
0.0
 11
220.876617109776
 21
144.897804309386
 31
0.0
  0
LINE
  5
   591
  8
0
  6
CONTINUOUS
 62
     3
 10
223.076617142558
 20
143.297804285544
 30
0.0
 11
211.276616966725
 21
143.297804285544
 31
0.0
  0
INSERT
  5
   592
  8
0
  6
CONTINUOUS
 62
    98
  2
*HATCH67
 10
242.476593017578
 20
39.802978515625
 30
0.0
 41
0.400000005960464
 42
0.400000005960464
 50
89.9999999480344
 43
0.400000005960464
  0
INSERT
  5
   593
  8
0
  6
CONTINUOUS
 62
    98
  2
*HATCH68
 10
242.476593017578
 20
39.802978515625
 30
0.0
 41
0.400000005960464
 42
0.400000005960464
 50
89.9999999480344
 43
0.400000005960464
  0
INSERT
  5
   594
  8
0
  6
CONTINUOUS
 62
    98
  2
*HATCH69
 10
242.476593017578
 20
39.802978515625
 30
0.0
 41
0.400000005960464
 42
0.400000005960464
 50
89.9999999480344
 43
0.400000005960464
  0
LINE
  5
   595
  8
0
  6
CONTINUOUS
 62
     3
 10
223.076617142558
 20
151.297804404753
 30
0.0
 11
216.236617040635
 21
151.297804404753
 31
0.0
  0
LINE
  5
   596
  8
0
  6
CONTINUOUS
 62
     3
 10
220.876617109776
 20
149.697804380911
 30
0.0
 11
220.876617109776
 21
151.297804404753
 31
0.0
  0
LINE
  5
   597
  8
0
  6
CONTINUOUS
 62
     3
 10
222.476617133618
 20
149.697804380911
 30
0.0
 11
222.476617133618
 21
151.297804404753
 31
0.0
  0
LINE
  5
   598
  8
0
  6
CONTINUOUS
 62
     3
 10
223.876617154479
 20
149.697804380911
 30
0.0
 11
223.876617154479
 21
150.497804392832
 31
0.0
  0
LINE
  5
   599
  8
0
  6
CONTINUOUS
 62
     2
 10
225.436617177725
 20
149.697804380911
 30
0.0
 11
218.636617076397
 21
149.697804380911
 31
0.0
  0
LINE
  5
   59A
  8
0
  6
CONTINUOUS
 62
     2
 10
225.436617177725
 20
144.897804309386
 30
0.0
 11
218.636617076397
 21
144.897804309386
 31
0.0
  0
LINE
  5
   59B
  8
0
  6
CONTINUOUS
 62
     2
 10
218.236617070437
 20
145.297804315346
 30
0.0
 11
218.236617070437
 21
149.297804374951
 31
0.0
  0
LINE
  5
   59C
  8
0
  6
CONTINUOUS
 62
     2
 10
225.836617183686
 20
145.297804315346
 30
0.0
 11
225.836617183686
 21
149.297804374951
 31
0.0
  0
LINE
  5
   59D
  8
0
  6
CONTINUOUS
 62
     2
 10
218.236617070437
 20
149.297804374951
 30
0.0
 11
218.636617076397
 21
149.697804380911
 31
0.0
  0
LINE
  5
   59E
  8
0
  6
CONTINUOUS
 62
     2
 10
218.636617076397
 20
144.897804309386
 30
0.0
 11
218.236617070437
 21
145.297804315346
 31
0.0
  0
LINE
  5
   59F
  8
0
  6
CONTINUOUS
 62
     2
 10
225.836617183686
 20
149.297804374951
 30
0.0
 11
225.436617177725
 21
149.697804380911
 31
0.0
  0
LINE
  5
   5A0
  8
0
  6
CONTINUOUS
 62
     2
 10
225.436617177725
 20
144.897804309386
 30
0.0
 11
225.836617183686
 21
145.297804315346
 31
0.0
  0
LINE
  5
   5A1
  8
0
  6
CONTINUOUS
 62
     2
 10
225.836617183686
 20
149.297804374951
 30
0.0
 11
218.236617070437
 21
149.297804374951
 31
0.0
  0
LINE
  5
   5A2
  8
0
  6
CONTINUOUS
 62
     2
 10
225.836617183686
 20
145.297804315346
 30
0.0
 11
218.236617070437
 21
145.297804315346
 31
0.0
  0
LINE
  5
   5A3
  8
0
  6
CONTINUOUS
 62
     2
 10
218.636617076397
 20
144.897804309386
 30
0.0
 11
218.636617076397
 21
149.697804380911
 31
0.0
  0
LINE
  5
   5A4
  8
0
  6
CONTINUOUS
 62
     2
 10
225.436617177725
 20
144.897804309386
 30
0.0
 11
225.436617177725
 21
149.697804380911
 31
0.0
  0
LINE
  5
   5A5
  8
0
  6
CONTINUOUS
 62
    98
 10
218.236617070437
 20
145.497804318326
 30
0.0
 11
218.236617070437
 21
149.097804371971
 31
0.0
  0
LINE
  5
   5A6
  8
0
  6
CONTINUOUS
 62
    98
 10
216.236617040635
 20
143.897804294485
 30
0.0
 11
216.236617040635
 21
150.697804395812
 31
0.0
  0
LINE
  5
   5A7
  8
0
  6
CONTINUOUS
 62
    98
 10
217.401230868104
 20
150.697804395812
 30
0.0
 11
216.236617040635
 21
150.697804395812
 31
0.0
  0
LINE
  5
   5A8
  8
0
  6
CONTINUOUS
 62
    98
 10
217.401230868104
 20
143.897804294485
 30
0.0
 11
216.236617040635
 21
143.897804294485
 31
0.0
  0
LINE
  5
   5A9
  8
0
  6
CONTINUOUS
 62
    98
 10
217.236617055536
 20
143.897804294485
 30
0.0
 11
217.236617055536
 21
150.697804395812
 31
0.0
  0
LINE
  5
   5AA
  8
0
  6
CONTINUOUS
 62
    98
 10
217.401230868104
 20
143.897804294485
 30
0.0
 11
217.401230868104
 21
144.497804303426
 31
0.0
  0
LINE
  5
   5AB
  8
0
  6
CONTINUOUS
 62
    98
 10
218.236617070437
 20
149.097804371971
 30
0.0
 11
217.401230868104
 21
149.097804371971
 31
0.0
  0
LINE
  5
   5AC
  8
0
  6
CONTINUOUS
 62
    98
 10
218.236617070437
 20
145.497804318326
 30
0.0
 11
217.401230868104
 21
145.497804318326
 31
0.0
  0
ARC
  5
   5AD
  8
0
  6
CONTINUOUS
 62
    98
 10
227.160139732274
 20
147.297804345148
 30
0.0
 40
9.92352267673798
 50
169.549429035223
 51
190.450570860846
  0
LINE
  5
   5AE
  8
0
  6
CONTINUOUS
 62
    98
 10
217.401230868104
 20
149.097804371971
 30
0.0
 11
217.401230868104
 21
149.297804374953
 31
0.0
  0
ARC
  5
   5AF
  8
0
  6
CONTINUOUS
 62
    98
 10
217.70123087257
 20
144.897804309386
 30
0.0
 40
0.500000007448048
 50
126.86989759357
 51
158.314733408302
  0
ARC
  5
   5B0
  8
0
  6
CONTINUOUS
 62
    98
 10
217.701230872573
 20
149.697804380912
 30
0.0
 40
0.500000007449794
 50
126.869897593937
 51
158.314733408761
  0
ARC
  5
   5B1
  8
0
  6
CONTINUOUS
 62
    98
 10
217.701230872573
 20
149.697804380912
 30
0.0
 40
0.500000007449794
 50
201.685266487308
 51
233.130102302132
  0
ARC
  5
   5B2
  8
0
  6
CONTINUOUS
 62
    98
 10
217.70123087257
 20
144.897804309386
 30
0.0
 40
0.500000007448048
 50
201.685266487767
 51
233.130102302499
  0
LINE
  5
   5B3
  8
0
  6
CONTINUOUS
 62
    98
 10
217.401230868104
 20
150.09780438687
 30
0.0
 11
217.401230868104
 21
150.697804395812
 31
0.0
  0
LINE
  5
   5B4
  8
0
  6
CONTINUOUS
 62
    98
 10
217.401230868104
 20
145.297804315346
 30
0.0
 11
217.401230868104
 21
145.497804318326
 31
0.0
  0
LINE
  5
   5B5
  8
0
  6
CONTINUOUS
 62
     1
 10
217.276616674662
 20
59.6978030398067
 30
0.0
 11
211.276616585255
 21
59.6978030398067
 31
0.0
  0
LINE
  5
   5B6
  8
0
  6
CONTINUOUS
 62
     1
 10
217.276616674662
 20
39.6978027417835
 30
0.0
 11
217.276616674662
 21
54.4978029623207
 31
0.0
  0
LINE
  5
   5B7
  8
0
  6
CONTINUOUS
 62
     1
 10
217.276616674662
 20
39.6978027417835
 30
0.0
 11
209.276616555453
 21
39.6978027417835
 31
0.0
  0
LINE
  5
   5B8
  8
0
  6
CONTINUOUS
 62
     1
 10
209.276616555453
 20
39.6978027417835
 30
0.0
 11
209.276616555453
 21
45.7410639617247
 31
0.0
  0
LINE
  5
   5B9
  8
0
  6
CONTINUOUS
 62
     1
 10
211.276616585255
 20
51.8978029235777
 30
0.0
 11
209.276616555453
 21
51.8978029235777
 31
0.0
  0
LINE
  5
   5BA
  8
0
  6
CONTINUOUS
 62
     1
 10
211.276616585255
 20
51.8978029235777
 30
0.0
 11
211.276616585255
 21
54.4978029623207
 31
0.0
  0
LINE
  5
   5BB
  8
0
  6
CONTINUOUS
 62
     1
 10
217.476616677642
 20
57.6978030100044
 30
0.0
 11
209.276616555453
 21
57.6978030100044
 31
0.0
  0
LINE
  5
   5BC
  8
0
  6
CONTINUOUS
 62
     1
 10
217.476616677642
 20
54.4978029623207
 30
0.0
 11
209.276616555453
 21
54.4978029623207
 31
0.0
  0
LINE
  5
   5BD
  8
0
  6
CONTINUOUS
 62
     1
 10
217.276616674662
 20
50.6978029056963
 30
0.0
 11
209.276616555453
 21
50.6978029056963
 31
0.0
  0
LINE
  5
   5BE
  8
0
  6
CONTINUOUS
 62
     1
 10
210.076616567374
 20
44.2978028103289
 30
0.0
 11
209.276616555453
 21
44.2978028103289
 31
0.0
  0
INSERT
  5
   5BF
  8
0
  6
CONTINUOUS
 62
     1
  2
*HATCH70
 10
242.476593017578
 20
39.802978515625
 30
0.0
 41
0.400000005960464
 42
0.400000005960464
 50
89.9999999480344
 43
0.400000005960464
  0
INSERT
  5
   5C0
  8
0
  6
CONTINUOUS
 62
     1
  2
*HATCH71
 10
242.476593017578
 20
39.802978515625
 30
0.0
 41
0.400000005960464
 42
0.400000005960464
 50
89.9999999480344
 43
0.400000005960464
  0
LINE
  5
   5C1
  8
0
  6
CONTINUOUS
 62
     1
 10
210.076616567374
 20
39.6978027417835
 30
0.0
 11
210.076616567374
 21
45.3410639557642
 31
0.0
  0
LINE
  5
   5C2
  8
0
  6
CONTINUOUS
 62
     1
 10
216.476616662741
 20
39.6978027417835
 30
0.0
 11
216.476616662741
 21
45.3410639557642
 31
0.0
  0
LINE
  5
   5C3
  8
0
  6
CONTINUOUS
 62
     1
 10
210.676616576314
 20
40.6578027560886
 30
0.0
 11
210.676616576314
 21
45.3410639557642
 31
0.0
  0
LINE
  5
   5C4
  8
0
  6
CONTINUOUS
 62
     1
 10
215.8766166538
 20
40.6578027560886
 30
0.0
 11
215.8766166538
 21
45.3410639557642
 31
0.0
  0
LINE
  5
   5C5
  8
0
  6
DASHDOT
 62
     1
 10
213.276616615057
 20
37.1395601691608
 30
0.0
 11
213.276616615057
 21
46.0479854904108
 31
0.0
  0
LINE
  5
   5C6
  8
0
  6
CONTINUOUS
 62
     1
 10
215.8766166538
 20
40.6578027560886
 30
0.0
 11
210.676616576314
 21
40.6578027560886
 31
0.0
  0
LINE
  5
   5C7
  8
0
  6
CONTINUOUS
 62
     1
 10
207.796616533399
 20
53.4978029474195
 30
0.0
 11
207.796616533399
 21
58.6978030249056
 31
0.0
  0
LINE
  5
   5C8
  8
0
  6
CONTINUOUS
 62
     1
 10
207.676616531611
 20
53.6178029492077
 30
0.0
 11
207.676616531611
 21
58.5778030231174
 31
0.0
  0
LINE
  5
   5C9
  8
0
  6
CONTINUOUS
 62
     1
 10
208.876616549492
 20
52.8978029384788
 30
0.0
 11
208.876616549492
 21
59.2978030338463
 31
0.0
  0
LINE
  5
   5CA
  8
0
  6
CONTINUOUS
 62
     1
 10
210.076616567374
 20
54.4978029623207
 30
0.0
 11
210.076616567374
 21
57.6978030100044
 31
0.0
  0
LINE
  5
   5CB
  8
0
  6
CONTINUOUS
 62
     1
 10
208.876616549492
 20
58.6978030249056
 30
0.0
 11
207.796616533399
 21
58.6978030249056
 31
0.0
  0
LINE
  5
   5CC
  8
0
  6
CONTINUOUS
 62
     1
 10
209.276616555453
 20
59.2978030338463
 30
0.0
 11
208.876616549492
 21
59.2978030338463
 31
0.0
  0
LINE
  5
   5CD
  8
0
  6
CONTINUOUS
 62
     1
 10
207.676616531611
 20
58.5778030231174
 30
0.0
 11
207.796616533399
 21
58.6978030249056
 31
0.0
  0
LINE
  5
   5CE
  8
0
  6
CONTINUOUS
 62
     1
 10
208.876616549492
 20
53.4978029474195
 30
0.0
 11
207.796616533399
 21
53.4978029474195
 31
0.0
  0
LINE
  5
   5CF
  8
0
  6
CONTINUOUS
 62
     1
 10
207.796616533399
 20
53.4978029474195
 30
0.0
 11
207.676616531611
 21
53.6178029492077
 31
0.0
  0
LINE
  5
   5D0
  8
0
  6
CONTINUOUS
 62
     1
 10
209.276616555453
 20
52.8978029384788
 30
0.0
 11
208.876616549492
 21
52.8978029384788
 31
0.0
  0
LINE
  5
   5D1
  8
0
  6
CONTINUOUS
 62
     1
 10
217.676616680622
 20
57.4978030070242
 30
0.0
 11
210.076616567374
 21
57.4978030070242
 31
0.0
  0
LINE
  5
   5D2
  8
0
  6
CONTINUOUS
 62
     1
 10
217.676616680622
 20
54.6978029653009
 30
0.0
 11
210.076616567374
 21
54.6978029653009
 31
0.0
  0
LINE
  5
   5D3
  8
0
  6
CONTINUOUS
 62
     1
 10
217.676616680622
 20
54.6978029653009
 30
0.0
 11
217.676616680622
 21
57.4978030070242
 31
0.0
  0
LINE
  5
   5D4
  8
0
  6
CONTINUOUS
 62
     1
 10
217.476616677642
 20
54.4978029623207
 30
0.0
 11
217.476616677642
 21
57.6978030100044
 31
0.0
  0
LINE
  5
   5D5
  8
0
  6
CONTINUOUS
 62
     1
 10
217.676616680622
 20
57.4978030070242
 30
0.0
 11
217.476616677642
 21
57.6978030100044
 31
0.0
  0
LINE
  5
   5D6
  8
0
  6
CONTINUOUS
 62
     1
 10
217.476616677642
 20
54.4978029623207
 30
0.0
 11
217.676616680622
 21
54.6978029653009
 31
0.0
  0
LINE
  5
   5D7
  8
0
  6
CONTINUOUS
 62
     1
 10
215.076616641879
 20
54.4978029623207
 30
0.0
 11
214.87661587596
 21
54.4978029623207
 31
0.0
  0
LINE
  5
   5D8
  8
0
  6
CONTINUOUS
 62
     1
 10
215.076616641879
 20
57.6978030100044
 30
0.0
 11
214.87661587596
 21
57.6978030100044
 31
0.0
  0
LINE
  5
   5D9
  8
0
  6
CONTINUOUS
 62
     1
 10
209.276616555453
 20
52.8978029384788
 30
0.0
 11
209.276616555453
 21
59.2978030338463
 31
0.0
  0
LINE
  5
   5DA
  8
0
  6
CONTINUOUS
 62
     1
 10
211.276616585255
 20
57.6978030100044
 30
0.0
 11
211.276616585255
 21
59.6978030398067
 31
0.0
  0
LINE
  5
   5DB
  8
0
  6
CONTINUOUS
 62
     1
 10
217.276616674662
 20
57.6978030100044
 30
0.0
 11
217.276616674662
 21
59.6978030398067
 31
0.0
  0
LINE
  5
   5DC
  8
0
  6
CONTINUOUS
 62
     1
 10
216.476616662741
 20
41.2578027650293
 30
0.0
 11
210.076616567374
 21
41.2578027650293
 31
0.0
  0
LINE
  5
   5DD
  8
0
  6
CONTINUOUS
 62
     1
 10
215.8766166538
 20
40.6578027560886
 30
0.0
 11
216.476616662741
 21
41.2578027650293
 31
0.0
  0
LINE
  5
   5DE
  8
0
  6
CONTINUOUS
 62
     1
 10
210.676616576314
 20
40.6578027560886
 30
0.0
 11
210.076616567374
 21
41.2578027650293
 31
0.0
  0
ARC
  5
   5DF
  8
0
  6
CONTINUOUS
 62
     1
 10
213.276616615057
 20
32.7410637680096
 30
0.0
 40
13.0000001937151
 50
435.749967250231
 51
464.250032645838
  0
LINE
  5
   5E0
  8
0
  6
CONTINUOUS
 62
     1
 10
216.476616662741
 20
45.3410639557642
 30
0.0
 11
210.076616567374
 21
45.3410639557642
 31
0.0
  0
INSERT
  5
   5E1
  8
0
  6
CONTINUOUS
 62
     1
  2
*HATCH72
 10
242.476593017578
 20
39.802978515625
 30
0.0
 41
0.400000005960464
 42
0.400000005960464
 50
89.9999999480344
 43
0.400000005960464
  0
INSERT
  5
   5E2
  8
0
  6
CONTINUOUS
 62
     1
  2
*HATCH73
 10
242.476593017578
 20
39.802978515625
 30
0.0
 41
0.400000005960464
 42
0.400000005960464
 50
89.9999999480344
 43
0.400000005960464
  0
LINE
  5
   5E3
  8
0
  6
CONTINUOUS
 62
     1
 10
217.276616674662
 20
44.2978028103289
 30
0.0
 11
216.476616662741
 21
44.2978028103289
 31
0.0
  0
LINE
  5
   5E4
  8
0
  6
CONTINUOUS
 62
     1
 10
209.276616555453
 20
50.6978029056963
 30
0.0
 11
209.276616555453
 21
51.8978029235777
 31
0.0
  0
INSERT
  5
   5E5
  8
255
  6
CONTINUOUS
 62
     7
  2
CAVO
 10
239.476603070657
 20
60.4029644708843
 30
0.0
 41
0.400000005960464
 42
0.400000005960464
 50
359.999999792138
 43
0.400000005960464
  0
LINE
  5
   5E6
  8
0
  6
CONTINUOUS
 62
     7
 10
211.276616585255
 20
59.6978030398067
 30
0.0
 11
211.276616585255
 21
61.2910857753266
 31
0.0
  0
LINE
  5
   5E7
  8
0
  6
DASHDOT
 62
   218
 10
204.33449955845
 20
146.497804333228
 30
0.0
 11
194.474859764954
 21
146.497804333228
 31
0.0
  0
LINE
  5
   5E8
  8
0
  6
CONTINUOUS
 62
     7
 10
200.076616799832
 20
148.097804357069
 30
0.0
 11
198.47661677599
 21
148.097804357069
 31
0.0
  0
LINE
  5
   5E9
  8
0
  6
CONTINUOUS
 62
     7
 10
200.076616799832
 20
144.897804309386
 30
0.0
 11
198.47661677599
 21
144.897804309386
 31
0.0
  0
LINE
  5
   5EA
  8
0
  6
CONTINUOUS
 62
     7
 10
198.47661677599
 20
144.897804309386
 30
0.0
 11
198.47661677599
 21
148.097804357069
 31
0.0
  0
LINE
  5
   5EB
  8
0
  6
CONTINUOUS
 62
     7
 10
196.876616752148
 20
145.497804318326
 30
0.0
 11
196.876616752148
 21
147.497804348129
 31
0.0
  0
LINE
  5
   5EC
  8
0
  6
CONTINUOUS
 62
     7
 10
200.076616799832
 20
147.497804348129
 30
0.0
 11
196.876616752148
 21
147.497804348129
 31
0.0
  0
LINE
  5
   5ED
  8
0
  6
CONTINUOUS
 62
     7
 10
200.076616799832
 20
145.497804318326
 30
0.0
 11
196.876616752148
 21
145.497804318326
 31
0.0
  0
LINE
  5
   5EE
  8
0
  6
CONTINUOUS
 62
     7
 10
200.076616799832
 20
58.4978030219253
 30
0.0
 11
198.47661677599
 21
58.4978030219253
 31
0.0
  0
LINE
  5
   5EF
  8
0
  6
CONTINUOUS
 62
     7
 10
200.076616799832
 20
57.8978030129846
 30
0.0
 11
196.876616752148
 21
57.8978030129846
 31
0.0
  0
LINE
  5
   5F0
  8
0
  6
CONTINUOUS
 62
     7
 10
200.076616799832
 20
55.8978029831823
 30
0.0
 11
196.876616752148
 21
55.8978029831823
 31
0.0
  0
LINE
  5
   5F1
  8
0
  6
CONTINUOUS
 62
     7
 10
200.076616799832
 20
55.2978029742416
 30
0.0
 11
198.47661677599
 21
55.2978029742416
 31
0.0
  0
LINE
  5
   5F2
  8
0
  6
DASHDOT
 62
   218
 10
204.33449955845
 20
56.8978029980835
 30
0.0
 11
194.474859764954
 21
56.8978029980835
 31
0.0
  0
LINE
  5
   5F3
  8
0
  6
CONTINUOUS
 62
     7
 10
198.47661677599
 20
55.2978029742416
 30
0.0
 11
198.47661677599
 21
58.4978030219253
 31
0.0
  0
LINE
  5
   5F4
  8
0
  6
CONTINUOUS
 62
     7
 10
196.876616752148
 20
55.8978029831823
 30
0.0
 11
196.876616752148
 21
57.8978030129846
 31
0.0
  0
LINE
  5
   5F5
  8
0
  6
CONTINUOUS
 62
     1
 10
246.276613673568
 20
115.997813810966
 30
0.0
 11
244.876613652706
 21
115.997813810966
 31
0.0
  0
LINE
  5
   5F6
  8
0
  6
CONTINUOUS
 62
     1
 10
246.276613673568
 20
51.5978143772106
 30
0.0
 11
244.876613652706
 21
51.5978143772106
 31
0.0
  0
LINE
  5
   5F7
  8
0
  6
CONTINUOUS
 62
     2
 10
241.876617041707
 20
108.977803689727
 30
0.0
 11
241.476617416719
 21
108.977803689727
 31
0.0
  0
LINE
  5
   5F8
  8
0
  6
CONTINUOUS
 62
     2
 10
239.876617392877
 20
108.977803689727
 30
0.0
 11
239.756616170884
 21
108.977803689727
 31
0.0
  0
LINE
  5
   5F9
  8
0
  6
DASHDOT
 62
     7
 10
207.364418741141
 20
146.498505176564
 30
0.0
 11
198.015596519742
 21
146.498505176564
 31
0.0
  0
LINE
  5
   5FA
  8
0
  6
CONTINUOUS
 62
   130
 10
230.876617258767
 20
151.457803102025
 30
0.0
 11
228.277968754682
 21
151.457803102025
 31
0.0
  0
LINE
  5
   5FB
  8
0
  6
CONTINUOUS
 62
   130
 10
230.876617258767
 20
145.97780424107
 30
0.0
 11
230.876617258767
 21
152.697804425615
 31
0.0
  0
LINE
  5
   5FC
  8
0
  6
CONTINUOUS
 62
   130
 10
230.876617258767
 20
117.697803904074
 30
0.0
 11
230.876617258767
 21
119.177907601486
 31
0.0
  0
LINE
  5
   5FD
  8
0
  6
CONTINUOUS
 62
   130
 10
202.076616829613
 20
117.697803904074
 30
0.0
 11
202.076616829613
 21
152.697804425615
 31
0.0
  0
LINE
  5
   5FE
  8
0
  6
CONTINUOUS
 62
   130
 10
203.676616853455
 20
138.977804136762
 30
0.0
 11
202.076616829613
 21
138.977804136762
 31
0.0
  0
LINE
  5
   5FF
  8
0
  6
CONTINUOUS
 62
   130
 10
203.676616853455
 20
138.977804136762
 30
0.0
 11
203.676616853455
 21
143.009038567873
 31
0.0
  0
LINE
  5
   600
  8
0
  6
CONTINUOUS
 62
   130
 10
229.51661662815
 20
143.177804199347
 30
0.0
 11
229.476617237905
 21
143.177804199347
 31
0.0
  0
LINE
  5
   601
  8
0
  6
CONTINUOUS
 62
   130
 10
230.876617258767
 20
145.97780424107
 30
0.0
 11
229.476617237905
 21
145.97780424107
 31
0.0
  0
LINE
  5
   602
  8
0
  6
CONTINUOUS
 62
   130
 10
230.876617258767
 20
119.177840462813
 30
0.0
 11
229.476617237905
 21
119.177840462813
 31
0.0
  0
LINE
  5
   603
  8
0
  6
CONTINUOUS
 62
   130
 10
229.51661662815
 20
121.977840504537
 30
0.0
 11
229.476617237905
 21
121.977840504537
 31
0.0
  0
LINE
  5
   604
  8
0
  6
CONTINUOUS
 62
   130
 10
229.476617237905
 20
119.177840462813
 30
0.0
 11
229.476617237905
 21
145.97780424107
 31
0.0
  0
LINE
  5
   605
  8
0
  6
CONTINUOUS
 62
   130
 10
201.276616817713
 20
144.723206077844
 30
0.0
 11
201.276616817713
 21
148.273804275283
 31
0.0
  0
LINE
  5
   606
  8
0
  6
CONTINUOUS
 62
   210
 10
239.756616170386
 20
151.457803102025
 30
0.0
 11
230.876617258767
 21
151.457803102025
 31
0.0
  0
LINE
  5
   607
  8
0
  6
CONTINUOUS
 62
   210
 10
230.876617258767
 20
119.177840462813
 30
0.0
 11
230.876617258767
 21
119.277803843209
 31
0.0
  0
LINE
  5
   608
  8
0
  6
CONTINUOUS
 62
   210
 10
230.876617258767
 20
145.87780423958
 30
0.0
 11
230.876617258767
 21
145.97780424107
 31
0.0
  0
LINE
  5
   609
  8
0
  6
CONTINUOUS
 62
   210
 10
240.876617407779
 20
142.897804195175
 30
0.0
 11
240.876617407779
 21
152.697804425615
 31
0.0
  0
LINE
  5
   60A
  8
0
  6
CONTINUOUS
 62
   210
 10
240.876617407779
 20
146.07780424256
 30
0.0
 11
239.756616170386
 21
146.07780424256
 31
0.0
  0
LINE
  5
   60B
  8
0
  6
CONTINUOUS
 62
   210
 10
239.876617392877
 20
122.077803884932
 30
0.0
 11
239.756616170386
 21
122.077803884932
 31
0.0
  0
LINE
  5
   60C
  8
0
  6
CONTINUOUS
 62
   210
 10
239.876617392877
 20
119.077803840229
 30
0.0
 11
239.756616170386
 21
119.077803840229
 31
0.0
  0
LINE
  5
   60D
  8
0
  6
CONTINUOUS
 62
   210
 10
239.876617392877
 20
118.577803832778
 30
0.0
 11
239.756616170386
 21
118.577803832778
 31
0.0
  0
LINE
  5
   60E
  8
0
  6
CONTINUOUS
 62
   210
 10
239.756616170386
 20
118.697803918975
 30
0.0
 11
239.756616170386
 21
151.457803102025
 31
0.0
  0
LINE
  5
   60F
  8
0
  6
CONTINUOUS
 62
   210
 10
230.876617258767
 20
119.277803843209
 30
0.0
 11
229.71661663113
 21
119.277803843209
 31
0.0
  0
LINE
  5
   610
  8
0
  6
CONTINUOUS
 62
   210
 10
229.716617343912
 20
119.277805579418
 30
0.0
 11
229.575195830294
 21
119.336387123564
 31
0.0
  0
LINE
  5
   611
  8
0
  6
CONTINUOUS
 62
   210
 10
229.575194712079
 20
119.336379394837
 30
0.0
 11
229.516616219908
 21
119.477797850384
 31
0.0
  0
LINE
  5
   612
  8
0
  6
CONTINUOUS
 62
   210
 10
229.51661662815
 20
119.477803846189
 30
0.0
 11
229.51661662815
 21
121.677803878972
 31
0.0
  0
LINE
  5
   613
  8
0
  6
CONTINUOUS
 62
   210
 10
229.51661662815
 20
143.477804203817
 30
0.0
 11
229.51661662815
 21
145.6778042366
 31
0.0
  0
LINE
  5
   614
  8
0
  6
CONTINUOUS
 62
   210
 10
229.516613260722
 20
145.677794739609
 30
0.0
 11
229.575191752892
 21
145.819213195156
 31
0.0
  0
LINE
  5
   615
  8
0
  6
CONTINUOUS
 62
   210
 10
229.57519729333
 20
145.819225703214
 30
0.0
 11
229.716618806948
 21
145.87780724736
 31
0.0
  0
LINE
  5
   616
  8
0
  6
CONTINUOUS
 62
   210
 10
230.876617258767
 20
145.87780423958
 30
0.0
 11
229.71661663113
 21
145.87780423958
 31
0.0
  0
LINE
  5
   617
  8
0
  6
CONTINUOUS
 62
   210
 10
229.51661662815
 20
121.677803878972
 30
0.0
 11
229.51661662815
 21
143.477804203817
 31
0.0
  0
LINE
  5
   618
  8
0
  6
CONTINUOUS
 62
     2
 10
239.876617392877
 20
109.097803691515
 30
0.0
 11
239.876617392877
 21
142.897804195175
 31
0.0
  0
LINE
  5
   619
  8
0
  6
CONTINUOUS
 62
     2
 10
241.87661742268
 20
109.497803697476
 30
0.0
 11
241.87661742268
 21
137.497804114708
 31
0.0
  0
LINE
  5
   61A
  8
0
  6
CONTINUOUS
 62
     2
 10
241.87661742268
 20
137.897804120669
 30
0.0
 11
241.87661742268
 21
142.897804195175
 31
0.0
  0
LINE
  5
   61B
  8
0
  6
CONTINUOUS
 62
     2
 10
240.876617407779
 20
142.897804195175
 30
0.0
 11
239.876617392877
 21
142.897804195175
 31
0.0
  0
LINE
  5
   61C
  8
0
  6
CONTINUOUS
 62
     2
 10
241.476617416719
 20
108.977803689727
 30
0.0
 11
239.876617392877
 21
108.977803689727
 31
0.0
  0
LINE
  5
   61D
  8
0
  6
CONTINUOUS
 62
     2
 10
241.87661742268
 20
137.897804120669
 30
0.0
 11
241.476617416719
 21
137.897804120669
 31
0.0
  0
LINE
  5
   61E
  8
0
  6
CONTINUOUS
 62
     2
 10
241.87661742268
 20
137.497804114708
 30
0.0
 11
241.476617416719
 21
137.497804114708
 31
0.0
  0
LINE
  5
   61F
  8
0
  6
CONTINUOUS
 62
     2
 10
241.476617416719
 20
137.497804114708
 30
0.0
 11
241.476617416719
 21
137.897804120669
 31
0.0
  0
LINE
  5
   620
  8
0
  6
CONTINUOUS
 62
     2
 10
241.476617416719
 20
109.097803691515
 30
0.0
 11
241.476617416719
 21
109.497803697476
 31
0.0
  0
LINE
  5
   621
  8
0
  6
CONTINUOUS
 62
     2
 10
241.476617416719
 20
109.497803697476
 30
0.0
 11
240.076617395858
 21
109.497803697476
 31
0.0
  0
LINE
  5
   622
  8
0
  6
CONTINUOUS
 62
     2
 10
240.076617395858
 20
109.497803697476
 30
0.0
 11
240.076617395858
 21
142.897804195175
 31
0.0
  0
LINE
  5
   623
  8
0
  6
CONTINUOUS
 62
   130
 10
202.076616829613
 20
148.273804275283
 30
0.0
 11
201.276616817713
 21
148.273804275283
 31
0.0
  0
LINE
  5
   624
  8
0
  6
CONTINUOUS
 62
   130
 10
202.076616829613
 20
144.723206077844
 30
0.0
 11
201.276616817693
 21
144.723206077844
 31
0.0
  0
LINE
  5
   625
  8
0
  6
CONTINUOUS
 62
   210
 10
240.876617407779
 20
143.077804197857
 30
0.0
 11
239.756616170386
 21
143.077804197857
 31
0.0
  0
LINE
  5
   626
  8
0
  6
CONTINUOUS
 62
   210
 10
239.87661345343
 20
123.225019275286
 30
0.0
 11
239.756615281465
 21
123.277802480145
 31
0.0
  0
LINE
  5
   627
  8
0
  6
CONTINUOUS
 62
   210
 10
239.756617816653
 20
141.877806077221
 30
0.0
 11
239.876619042106
 21
141.930589280022
 31
0.0
  0
LINE
  5
   628
  8
0
  6
CONTINUOUS
 62
     2
 10
241.87661742268
 20
109.497803697476
 30
0.0
 11
241.476617416719
 21
109.497803697476
 31
0.0
  0
LINE
  5
   629
  8
0
  6
CONTINUOUS
 62
     2
 10
241.87661742268
 20
142.897804195175
 30
0.0
 11
240.876617407779
 21
142.897804195175
 31
0.0
  0
LINE
  5
   62A
  8
0
  6
CONTINUOUS
 62
   130
 10
230.876617258767
 20
152.697804425615
 30
0.0
 11
216.236617040635
 21
152.697804425615
 31
0.0
  0
LINE
  5
   62B
  8
0
  6
CONTINUOUS
 62
   210
 10
240.876617407779
 20
152.697804425615
 30
0.0
 11
230.876617258767
 21
152.697804425615
 31
0.0
  0
LINE
  5
   62C
  8
0
  6
CONTINUOUS
 62
   130
 10
239.876617392877
 20
117.697803904074
 30
0.0
 11
202.076616829613
 21
117.697803904074
 31
0.0
  0
POINT
  5
   62D
  8
0
  6
CONTINUOUS
 62
     7
 10
202.076616829613
 20
118.697803918975
 30
0.0
  0
LINE
  5
   62E
  8
0
  6
CONTINUOUS
 62
   130
 10
211.276616966725
 20
152.697804425615
 30
0.0
 11
202.076616829613
 21
152.697804425615
 31
0.0
  0
INSERT
  5
   62F
  8
0
  6
CONTINUOUS
 62
     7
  2
*HATCH75
 10
242.476593017578
 20
39.802978515625
 30
0.0
 41
0.400000005960464
 42
0.400000005960464
 50
89.9999999480344
 43
0.400000005960464
  0
INSERT
  5
   630
  8
0
  6
CONTINUOUS
 62
     7
  2
*HATCH76
 10
242.476593017578
 20
39.802978515625
 30
0.0
 41
0.400000005960464
 42
0.400000005960464
 50
89.9999999480344
 43
0.400000005960464
  0
LINE
  5
   631
  8
0
  6
CONTINUOUS
 62
     7
 10
201.276616817713
 20
110.550452723352
 30
0.0
 11
201.276616817713
 21
114.497791649359
 31
0.0
  0
LINE
  5
   632
  8
0
  6
CONTINUOUS
 62
     2
 10
241.476617416719
 20
109.097803691515
 30
0.0
 11
239.876617392877
 21
109.097803691515
 31
0.0
  0
LINE
  5
   633
  8
0
  6
CONTINUOUS
 62
     2
 10
240.876617407779
 20
108.977803689727
 30
0.0
 11
240.876617407779
 21
109.097803691515
 31
0.0
  0
LINE
  5
   634
  8
0
  6
CONTINUOUS
 62
     7
 10
227.3799371389
 20
143.297804285544
 30
0.0
 11
223.076617142558
 21
143.297804285544
 31
0.0
  0
INSERT
  5
   635
  8
0
  6
CONTINUOUS
 62
     7
  2
*UDIM340
 10
0.0
 20
0.0
 30
0.0
  0
INSERT
  5
   636
  8
0
  6
CONTINUOUS
 62
     7
  2
*UDIM341
 10
0.0
 20
0.0
 30
0.0
  0
INSERT
  5
   637
  8
0
  6
CONTINUOUS
 62
     7
  2
*UDIM342
 10
0.0
 20
0.0
 30
0.0
  0
INSERT
  5
   638
  8
0
  6
CONTINUOUS
 62
     7
  2
*UDIM343
 10
0.0
 20
0.0
 30
0.0
  0
INSERT
  5
   639
  8
0
  6
CONTINUOUS
 62
     7
  2
*UDIM344
 10
0.0
 20
0.0
 30
0.0
  0
INSERT
  5
   63A
  8
0
  6
CONTINUOUS
 62
     7
  2
*UDIM345
 10
0.0
 20
0.0
 30
0.0
  0
INSERT
  5
   63B
  8
0
  6
CONTINUOUS
 62
     7
  2
*UDIM346
 10
0.0
 20
0.0
 30
0.0
  0
INSERT
  5
   63C
  8
0
  6
CONTINUOUS
 62
     7
  2
*UDIM347
 10
0.0
 20
0.0
 30
0.0
  0
INSERT
  5
   63D
  8
0
  6
CONTINUOUS
 62
     7
  2
*UDIM348
 10
0.0
 20
0.0
 30
0.0
  0
INSERT
  5
   63E
  8
0
  6
CONTINUOUS
 62
     7
  2
*UDIM349
 10
0.0
 20
0.0
 30
0.0
  0
INSERT
  5
   63F
  8
0
  6
CONTINUOUS
 62
     7
  2
*UDIM350
 10
0.0
 20
0.0
 30
0.0
  0
INSERT
  5
   640
  8
0
  6
CONTINUOUS
 62
     7
  2
*UDIM351
 10
0.0
 20
0.0
 30
0.0
  0
INSERT
  5
   641
  8
0
  6
CONTINUOUS
 62
     7
  2
*UDIM352
 10
0.0
 20
0.0
 30
0.0
  0
INSERT
  5
   642
  8
0
  6
CONTINUOUS
 62
     7
  2
*UDIM353
 10
0.0
 20
0.0
 30
0.0
  0
TEXT
  5
   643
  8
0
  6
CONTINUOUS
 62
     1
 10
138.29689449399
 20
-193.480716484488
 30
0.0
 40
2.00000007748604
  1
M4352 96-12-17
 50
359.999999948034
 41
0.749999884366991
 72
     2
 11
158.99689210593
 21
-193.480716503158
 31
0.0
  0
TEXT
  5
   644
  8
0
  6
CONTINUOUS
 62
     7
 10
267.057762497589
 20
65.5014378914826
 30
0.0
 40
2.99999994933605
  1
=          =
 50
89.9999999480344
 41
0.916666607525612
 72
     2
 11
267.057762526979
 21
97.9514352471722
 31
0.0
  0
TEXT
  5
   645
  8
0
  6
CONTINUOUS
 62
     7
 10
267.708391339938
 20
82.8951651608687
 30
0.0
 40
2.99999994933605
  1
X
 50
359.999999948034
 41
0.916666607525612
 72
     2
 11
269.908391158143
 21
82.8951651588844
 31
0.0
  0
TEXT
  5
   646
  8
0
  6
CONTINUOUS
 62
     1
 10
130.442899984705
 20
-178.463381644228
 30
0.0
 40
2.00000007748604
  1
96-11-19 BARCELLA
 50
359.999999948034
 41
0.749999884366991
 72
     2
 11
155.642897077191
 21
-178.463381666957
 31
0.0
  0
TEXT
  5
   647
  8
0
  6
CONTINUOUS
 62
     1
 10
231.973709035559
 20
-204.689871082887
 30
0.0
 40
4.00000015497208
  1
605032/011
 50
359.999999948034
 41
0.93749995827675
 72
     2
 11
268.723708790435
 21
-204.689871116034
 31
0.0
  0
TEXT
  5
   648
  8
0
  6
CONTINUOUS
 62
     1
 10
250.059402643027
 20
-195.70827960945
 30
0.0
 40
2.99999994933605
  1
S3X
 50
359.999999948034
 41
0.916666607525612
 72
     2
 11
257.759402013503
 21
-195.708279616395
 31
0.0
  0
TEXT
  5
   649
  8
0
  6
CONTINUOUS
 62
     1
 10
223.9624768943
 20
-177.398001311566
 30
0.0
 40
2.00000007748604
  1
4POLE LOW VOLTAGE M.C.C.B SERIES ISOMAX
 50
359.999999948034
 41
0.687500019669532
 72
     1
 11
250.637478692804
 21
-176.398001296883
 31
0.0
 73
     2
  0
TEXT
  5
   64A
  8
0
  6
CONTINUOUS
 62
     1
 10
221.212476840213
 20
-180.398001309086
 30
0.0
 40
2.00000007748604
  1
SUPERLIMITING FIXED VERSION TERMINALS CABLE
 50
359.999999948034
 41
0.687500019669532
 72
     1
 11
250.637478823938
 21
-179.398001296883
 31
0.0
 73
     2
  0
TEXT
  5
   64B
  8
0
  6
CONTINUOUS
 62
     1
 10
212.727375208439
 20
-185.468265097322
 30
0.0
 40
2.00000007748604
  1
INTERR.AUTOMATICO SERIE ISOMAX SUPERLIMITATORE
 50
359.999999948034
 41
0.749999884366991
 72
     1
 11
247.077371244887
 21
-184.46826508956
 31
0.0
 73
     2
  0
TEXT
  5
   64C
  8
0
  6
CONTINUOUS
 62
     1
 10
217.227374820119
 20
-188.46826510138
 30
0.0
 40
2.00000007748604
  1
TETRAP.ESECUZIONE FISSA TERMINALI X CAVI
 50
359.999999948034
 41
0.749999884366991
 72
     1
 11
247.077371376021
 21
-187.46826508956
 31
0.0
 73
     2
  0
LINE
  5
   64D
  8
0
  6
CONTINUOUS
 62
     7
 10
123.951131897211
 20
151.577800890428
 30
0.0
 11
122.95113188231
 21
151.577800890428
 31
0.0
  0
LINE
  5
   64E
  8
0
  6
CONTINUOUS
 62
     7
 10
122.95113188231
 20
151.577800890428
 30
0.0
 11
122.95113188231
 21
152.29780212186
 31
0.0
  0
LINE
  5
   64F
  8
0
  6
CONTINUOUS
 62
     7
 10
95.2511291595598
 20
152.697802127821
 30
0.0
 11
82.6511289718051
 21
152.697802127821
 31
0.0
  0
LINE
  5
   650
  8
0
  6
CONTINUOUS
 62
     7
 10
109.251157459509
 20
152.697802127821
 30
0.0
 11
96.6511291804214
 21
152.697802127821
 31
0.0
  0
LINE
  5
   651
  8
0
  6
CONTINUOUS
 62
     7
 10
122.551131876349
 20
152.697802127821
 30
0.0
 11
110.65115748037
 21
152.697802127821
 31
0.0
  0
LINE
  5
   652
  8
0
  6
CONTINUOUS
 62
     7
 10
68.9511310776469
 20
151.577800890428
 30
0.0
 11
68.9511310776469
 21
152.29780212186
 31
0.0
  0
LINE
  5
   653
  8
0
  6
CONTINUOUS
 62
     7
 10
68.9511310776469
 20
151.577800890428
 30
0.0
 11
67.9511310627457
 21
151.577800890428
 31
0.0
  0
LINE
  5
   654
  8
0
  6
CONTINUOUS
 62
     7
 10
67.9511265650906
 20
51.8178006055179
 30
0.0
 11
67.9511265650906
 21
109.097807506213
 31
0.0
  0
LINE
  5
   655
  8
0
  6
CONTINUOUS
 62
     7
 10
68.9511310776469
 20
51.8178006055179
 30
0.0
 11
67.9511310627458
 21
51.8178006055179
 31
0.0
  0
LINE
  5
   656
  8
0
  6
CONTINUOUS
 62
     7
 10
68.9511310776469
 20
51.0978006138625
 30
0.0
 11
68.9511310776469
 21
51.8178006055179
 31
0.0
  0
LINE
  5
   657
  8
0
  6
CONTINUOUS
 62
     7
 10
96.9511291848917
 20
150.097802089078
 30
0.0
 11
94.9511291550894
 21
150.097802089078
 31
0.0
  0
LINE
  5
   658
  8
0
  6
CONTINUOUS
 62
     7
 10
122.95113188231
 20
142.897808009872
 30
0.0
 11
122.95113188231
 21
151.577800890428
 31
0.0
  0
LINE
  5
   659
  8
0
  6
CONTINUOUS
 62
     7
 10
68.9511287065782
 20
142.897808009872
 30
0.0
 11
68.9511287065782
 21
151.577800890428
 31
0.0
  0
LINE
  5
   65A
  8
0
  6
CONTINUOUS
 62
     7
 10
71.65113111788
 20
58.6978007271114
 30
0.0
 11
71.65113111788
 21
60.2978007509532
 31
0.0
  0
LINE
  5
   65B
  8
0
  6
CONTINUOUS
 62
     7
 10
70.1511316677329
 20
57.1978007047596
 30
0.0
 11
68.9511306961772
 21
57.1978007047596
 31
0.0
  0
LINE
  5
   65C
  8
0
  6
CONTINUOUS
 62
     7
 10
68.9511311570607
 20
51.8178006055179
 30
0.0
 11
68.9511311570607
 21
57.1978006093922
 31
0.0
  0
CIRCLE
  5
   65D
  8
0
  6
CONTINUOUS
 62
     7
 10
88.9511311311983
 20
147.697798412687
 30
0.0
 40
2.20000058570355
  0
CIRCLE
  5
   65E
  8
0
  6
CONTINUOUS
 62
     7
 10
95.9511291699906
 20
146.497803567582
 30
0.0
 40
1.7999972819609
  0
CIRCLE
  5
   65F
  8
0
  6
CONTINUOUS
 62
     7
 10
102.951143319965
 20
147.697797527522
 30
0.0
 40
2.2000124818971
  0
CIRCLE
  5
   660
  8
0
  6
CONTINUOUS
 62
     7
 10
109.951133031784
 20
146.49780477849
 30
0.0
 40
1.79999992355474
  0
CIRCLE
  5
   661
  8
0
  6
CONTINUOUS
 62
     7
 10
116.951134353352
 20
147.697814939246
 30
0.0
 40
2.19998883242968
  0
ARC
  5
   662
  8
0
  6
CONTINUOUS
 62
     7
 10
122.551134045806
 20
152.297804731955
 30
0.0
 40
0.399998087876622
 50
359.999798760808
 51
450.00023088902
  0
ARC
  5
   663
  8
0
  6
CONTINUOUS
 62
     7
 10
69.3511321039819
 20
152.297802574792
 30
0.0
 40
0.40000160241227
 50
90.0000472185487
 51
180.000478784316
  0
CIRCLE
  5
   664
  8
0
  6
CONTINUOUS
 62
     7
 10
70.1511311622382
 20
58.697801531754
 30
0.0
 40
0.699999675701811
  0
ARC
  5
   665
  8
0
  6
CONTINUOUS
 62
     7
 10
69.3511311801148
 20
51.0978006553361
 30
0.0
 40
0.400000048409147
 50
180.000006024791
 51
269.999989483217
  0
LINE
  5
   666
  8
0
  6
DASHDOT
 62
     7
 10
88.9511311311983
 20
144.297797809102
 30
0.0
 11
88.9511311311983
 21
151.097799016272
 31
0.0
  0
LINE
  5
   667
  8
0
  6
DASHDOT
 62
     7
 10
92.3511317347832
 20
147.697798412687
 30
0.0
 11
85.5511305276133
 21
147.697798412687
 31
0.0
  0
LINE
  5
   668
  8
0
  6
DASHDOT
 62
     7
 10
95.9511291699906
 20
143.49780626774
 30
0.0
 11
95.9511291699906
 21
153.643248890141
 31
0.0
  0
LINE
  5
   669
  8
0
  6
DASHDOT
 62
     7
 10
98.9511264698329
 20
146.497803567582
 30
0.0
 11
92.9511318701483
 21
146.497803567582
 31
0.0
  0
LINE
  5
   66A
  8
0
  6
DASHDOT
 62
     7
 10
116.951134353352
 20
144.297826088935
 30
0.0
 11
116.951134353352
 21
151.097803789557
 31
0.0
  0
LINE
  5
   66B
  8
0
  6
DASHDOT
 62
     7
 10
120.351123203663
 20
147.697814939246
 30
0.0
 11
113.551145503041
 21
147.697814939246
 31
0.0
  0
LINE
  5
   66C
  8
0
  6
DASHDOT
 62
     7
 10
88.9511378042947
 20
52.2978032384394
 30
0.0
 11
88.9511378042947
 21
59.0978008522701
 31
0.0
  0
LINE
  5
   66D
  8
0
  6
DASHDOT
 62
     7
 10
116.95116078446
 20
52.2976994206557
 30
0.0
 11
116.95116078446
 21
59.0978051986314
 31
0.0
  0
LINE
  5
   66E
  8
0
  6
DASHDOT
 62
     7
 10
116.951139628055
 20
50.5378051479951
 30
0.0
 11
116.951139628055
 21
54.0577992182367
 31
0.0
  0
LINE
  5
   66F
  8
0
  6
DASHDOT
 62
     7
 10
88.9511364467921
 20
50.5378007273903
 30
0.0
 11
88.9511364467921
 21
54.0578009411437
 31
0.0
  0
CIRCLE
  5
   670
  8
0
  6
CONTINUOUS
 62
     7
 10
70.1511303616848
 20
58.6977997006533
 30
0.0
 40
1.50000055982282
  0
LINE
  5
   671
  8
0
  6
DASHDOT
 62
     7
 10
70.1511303616848
 20
55.9977991229491
 30
0.0
 11
70.1511303616848
 21
61.3978002783576
 31
0.0
  0
LINE
  5
   672
  8
0
  6
DASHDOT
 62
     7
 10
72.851130939389
 20
58.6977997006533
 30
0.0
 11
67.4511297839806
 21
58.6977997006533
 31
0.0
  0
LINE
  5
   673
  8
0
  6
CONTINUOUS
 62
     7
 10
79.5511429712778
 20
60.5978099106956
 30
0.0
 11
68.3511428043848
 21
60.5978099106956
 31
0.0
  0
LINE
  5
   674
  8
0
  6
CONTINUOUS
 62
     3
 10
123.751137526393
 20
104.797804465811
 30
0.0
 11
82.1511430100209
 21
104.797804465811
 31
0.0
  0
LINE
  5
   675
  8
0
  6
CONTINUOUS
 62
     3
 10
123.751137526393
 20
62.7978099434784
 30
0.0
 11
118.351137469769
 21
62.7978099434784
 31
0.0
  0
LINE
  5
   676
  8
0
  6
CONTINUOUS
 62
     3
 10
113.751137377382
 20
62.797809943478
 30
0.0
 11
103.930854872356
 21
62.797809943478
 31
0.0
  0
LINE
  5
   677
  8
0
  6
CONTINUOUS
 62
     3
 10
87.5511430904871
 20
62.7978099434674
 30
0.0
 11
82.1511430100209
 21
62.7978099434674
 31
0.0
  0
LINE
  5
   678
  8
0
  6
CONTINUOUS
 62
     7
 10
68.3511428043848
 20
60.5978099106956
 30
0.0
 11
68.3511428043848
 21
60.9978099166561
 31
0.0
  0
LINE
  5
   679
  8
0
  6
CONTINUOUS
 62
     7
 10
79.5511429712778
 20
60.9978099459999
 30
0.0
 11
67.9511265650906
 21
60.9978099459999
 31
0.0
  0
LINE
  5
   67A
  8
0
  6
CONTINUOUS
 62
     3
 10
92.1511431590325
 20
62.797809943477
 30
0.0
 11
87.5511430904871
 21
62.797809943477
 31
0.0
  0
LINE
  5
   67B
  8
0
  6
CONTINUOUS
 62
     3
 10
118.351137445927
 20
62.7978099434784
 30
0.0
 11
113.751137377382
 21
62.7978099434784
 31
0.0
  0
LINE
  5
   67C
  8
0
  6
DASHDOT
 62
     7
 10
102.951143319965
 20
55.5493311077893
 30
0.0
 11
102.951143319965
 21
96.8674393913334
 31
0.0
  0
ARC
  5
   67D
  8
0
  6
CONTINUOUS
 62
     3
 10
82.1511430100209
 20
62.9978099464476
 30
0.0
 40
0.200000002980232
 50
179.999999948034
 51
269.999999948034
  0
ARC
  5
   67E
  8
0
  6
CONTINUOUS
 62
     3
 10
82.1511430100209
 20
104.597804462831
 30
0.0
 40
0.200000002980232
 50
449.999999948034
 51
539.999999948034
  0
ARC
  5
   67F
  8
0
  6
CONTINUOUS
 62
     3
 10
123.751137526393
 20
104.597804462831
 30
0.0
 40
0.200000002980232
 50
359.999999948034
 51
449.999999948034
  0
ARC
  5
   680
  8
0
  6
CONTINUOUS
 62
     3
 10
123.751137526393
 20
62.9978099464586
 30
0.0
 40
0.200000002980232
 50
269.999999948034
 51
359.999999948034
  0
LINE
  5
   681
  8
0
  6
DASHDOT
 62
     7
 10
102.951143319965
 20
99.1791332105148
 30
0.0
 11
102.951143319965
 21
110.743233410737
 31
0.0
  0
LINE
  5
   682
  8
0
  6
CONTINUOUS
 62
     3
 10
101.971363204639
 20
62.797809943478
 30
0.0
 11
92.1511431590325
 21
62.797809943478
 31
0.0
  0
LINE
  5
   683
  8
0
  6
CONTINUOUS
 62
     7
 10
91.9511370525365
 20
62.7978038399624
 30
0.0
 11
87.9511430964476
 21
62.7978038399624
 31
0.0
  0
LINE
  5
   684
  8
0
  6
CONTINUOUS
 62
     7
 10
117.951131336451
 20
62.7978038399624
 30
0.0
 11
113.951131276846
 21
62.7978038399624
 31
0.0
  0
LINE
  5
   685
  8
0
  6
CONTINUOUS
 62
     7
 10
123.951143632889
 20
62.9978038429427
 30
0.0
 11
123.951143632889
 21
70.1977978467153
 31
0.0
  0
LINE
  5
   686
  8
0
  6
CONTINUOUS
 62
     7
 10
81.9511430070406
 20
62.9978038429427
 30
0.0
 11
81.9511430070406
 21
70.1977978467153
 31
0.0
  0
LINE
  5
   687
  8
0
  6
CONTINUOUS
 62
     7
 10
123.751143629909
 20
104.797804465811
 30
0.0
 11
82.151143010032
 21
104.797804465811
 31
0.0
  0
LINE
  5
   688
  8
0
  6
CONTINUOUS
 62
     7
 10
87.9511430964476
 20
62.7978038399624
 30
0.0
 11
82.1511430100209
 21
62.7978038399624
 31
0.0
  0
LINE
  5
   689
  8
0
  6
CONTINUOUS
 62
     7
 10
113.951131276846
 20
62.7978038399624
 30
0.0
 11
91.9511370525365
 21
62.7978038399624
 31
0.0
  0
LINE
  5
   68A
  8
0
  6
CONTINUOUS
 62
     7
 10
123.751143629909
 20
62.7978038399624
 30
0.0
 11
117.951131336451
 21
62.7978038399624
 31
0.0
  0
LINE
  5
   68B
  8
0
  6
CONTINUOUS
 62
     7
 10
107.25114338404
 20
71.6977978690671
 30
0.0
 11
107.25114338404
 21
87.6977920039699
 31
0.0
  0
LINE
  5
   68C
  8
0
  6
CONTINUOUS
 62
     7
 10
98.65114325589
 20
71.6977978690671
 30
0.0
 11
98.65114325589
 21
87.6977920039699
 31
0.0
  0
LINE
  5
   68D
  8
0
  6
CONTINUOUS
 62
     7
 10
123.951143632889
 20
99.9977921872542
 30
0.0
 11
81.9511430070406
 21
99.9977921872542
 31
0.0
  0
LINE
  5
   68E
  8
0
  6
CONTINUOUS
 62
     7
 10
123.951143632889
 20
103.997792246859
 30
0.0
 11
81.9511430070406
 21
103.997792246859
 31
0.0
  0
LINE
  5
   68F
  8
0
  6
CONTINUOUS
 62
     7
 10
107.25114338404
 20
87.5920058695811
 30
0.0
 11
98.65114325589
 21
87.5920058695811
 31
0.0
  0
LINE
  5
   690
  8
0
  6
CONTINUOUS
 62
     7
 10
107.25114338404
 20
87.6977920039699
 30
0.0
 11
98.65114325589
 21
87.6977920039699
 31
0.0
  0
LINE
  5
   691
  8
0
  6
CONTINUOUS
 62
     7
 10
107.25114338404
 20
71.6977978690671
 30
0.0
 11
98.65114325589
 21
71.6977978690671
 31
0.0
  0
LINE
  5
   692
  8
0
  6
CONTINUOUS
 62
     7
 10
107.25114338404
 20
71.8035962104873
 30
0.0
 11
98.65114325589
 21
71.8035962104873
 31
0.0
  0
LINE
  5
   693
  8
0
  6
DASHDOT
 62
     7
 10
102.951143319965
 20
28.9241356849078
 30
0.0
 11
102.951143319965
 21
154.354235863671
 31
0.0
  0
LINE
  5
   694
  8
0
  6
CONTINUOUS
 62
     7
 10
123.951137529374
 20
70.5977978526758
 30
0.0
 11
123.951137529374
 21
75.3977947429059
 31
0.0
  0
LINE
  5
   695
  8
0
  6
CONTINUOUS
 62
     7
 10
123.951137529374
 20
89.1977981298374
 30
0.0
 11
123.951137529374
 21
104.597804462831
 31
0.0
  0
LINE
  5
   696
  8
0
  6
CONTINUOUS
 62
     7
 10
123.951137529374
 20
75.7977947488664
 30
0.0
 11
123.951137529374
 21
83.5977980463909
 31
0.0
  0
LINE
  5
   697
  8
0
  6
CONTINUOUS
 62
     7
 10
123.951137529374
 20
83.9977980523513
 30
0.0
 11
123.951137529374
 21
88.7977981238769
 31
0.0
  0
LINE
  5
   698
  8
0
  6
CONTINUOUS
 62
     7
 10
81.9511430070386
 20
70.5977978526758
 30
0.0
 11
81.9511430070386
 21
75.3977979242022
 31
0.0
  0
LINE
  5
   699
  8
0
  6
CONTINUOUS
 62
     7
 10
81.9511430070314
 20
75.7977979301627
 30
0.0
 11
81.9511430070314
 21
83.5977980463909
 31
0.0
  0
LINE
  5
   69A
  8
0
  6
CONTINUOUS
 62
     7
 10
81.9511430070427
 20
83.9977980523513
 30
0.0
 11
81.9511430070427
 21
88.7977981238769
 31
0.0
  0
LINE
  5
   69B
  8
0
  6
CONTINUOUS
 62
     7
 10
81.9511430070518
 20
89.1977981298374
 30
0.0
 11
81.9511430070518
 21
104.597804462831
 31
0.0
  0
LINE
  5
   69C
  8
0
  6
CONTINUOUS
 62
     7
 10
98.6511400664004
 20
75.3978056183712
 30
0.0
 11
82.3511429891592
 21
75.3978056183712
 31
0.0
  0
LINE
  5
   69D
  8
0
  6
CONTINUOUS
 62
     7
 10
123.951137529374
 20
75.3978024370726
 30
0.0
 11
123.551137523413
 21
75.3978024370726
 31
0.0
  0
LINE
  5
   69E
  8
0
  6
CONTINUOUS
 62
     7
 10
98.651132242765
 20
75.797805624334
 30
0.0
 11
82.3511429891592
 21
75.797805624334
 31
0.0
  0
LINE
  5
   69F
  8
0
  6
CONTINUOUS
 62
     7
 10
123.951137529374
 20
75.7978024430331
 30
0.0
 11
123.551137523413
 21
75.7978024430331
 31
0.0
  0
LINE
  5
   6A0
  8
0
  6
CONTINUOUS
 62
     7
 10
82.3511429891592
 20
75.3977979242014
 30
0.0
 11
82.3511429891592
 21
75.7977979301618
 31
0.0
  0
LINE
  5
   6A1
  8
0
  6
CONTINUOUS
 62
     7
 10
123.551137523413
 20
75.3977979242014
 30
0.0
 11
123.551137523413
 21
75.7977979301618
 31
0.0
  0
LINE
  5
   6A2
  8
0
  6
CONTINUOUS
 62
     7
 10
123.951143632889
 20
70.1977978467153
 30
0.0
 11
123.551137523413
 21
70.1977978467153
 31
0.0
  0
LINE
  5
   6A3
  8
0
  6
CONTINUOUS
 62
     7
 10
123.951137529374
 20
70.5977978526758
 30
0.0
 11
123.551137523413
 21
70.5977978526758
 31
0.0
  0
LINE
  5
   6A4
  8
0
  6
CONTINUOUS
 62
     7
 10
82.3511429891592
 20
70.1977978467153
 30
0.0
 11
82.3511429891592
 21
70.5977978526758
 31
0.0
  0
LINE
  5
   6A5
  8
0
  6
CONTINUOUS
 62
     7
 10
123.551137523413
 20
70.1977978467153
 30
0.0
 11
123.551137523413
 21
70.5977978526758
 31
0.0
  0
LINE
  5
   6A6
  8
0
  6
CONTINUOUS
 62
     7
 10
123.951137529374
 20
88.7977981238769
 30
0.0
 11
123.551137523413
 21
88.7977981238769
 31
0.0
  0
LINE
  5
   6A7
  8
0
  6
CONTINUOUS
 62
     7
 10
123.951137529374
 20
89.1977981298374
 30
0.0
 11
123.551137523413
 21
89.1977981298374
 31
0.0
  0
LINE
  5
   6A8
  8
0
  6
CONTINUOUS
 62
     7
 10
82.3511429891592
 20
88.7977981238769
 30
0.0
 11
82.3511429891592
 21
89.1977981298374
 31
0.0
  0
LINE
  5
   6A9
  8
0
  6
CONTINUOUS
 62
     7
 10
123.551137523413
 20
88.7977981238769
 30
0.0
 11
123.551137523413
 21
89.1977981298374
 31
0.0
  0
LINE
  5
   6AA
  8
0
  6
CONTINUOUS
 62
     7
 10
98.6511400849229
 20
83.5977980463909
 30
0.0
 11
82.3511429891592
 21
83.5977980463909
 31
0.0
  0
LINE
  5
   6AB
  8
0
  6
CONTINUOUS
 62
     7
 10
123.951137529374
 20
83.5977980463909
 30
0.0
 11
123.551137523413
 21
83.5977980463909
 31
0.0
  0
LINE
  5
   6AC
  8
0
  6
CONTINUOUS
 62
     7
 10
98.65114325589
 20
83.9977980523513
 30
0.0
 11
82.3511429891592
 21
83.9977980523513
 31
0.0
  0
LINE
  5
   6AD
  8
0
  6
CONTINUOUS
 62
     7
 10
123.951137529374
 20
83.9977980523513
 30
0.0
 11
123.551137523413
 21
83.9977980523513
 31
0.0
  0
LINE
  5
   6AE
  8
0
  6
CONTINUOUS
 62
     7
 10
82.3511429891592
 20
83.5977980463909
 30
0.0
 11
82.3511429891592
 21
83.9977980523513
 31
0.0
  0
LINE
  5
   6AF
  8
0
  6
CONTINUOUS
 62
     7
 10
123.551137523413
 20
83.5977980463909
 30
0.0
 11
123.551137523413
 21
83.9977980523513
 31
0.0
  0
ARC
  5
   6B0
  8
0
  6
CONTINUOUS
 62
     7
 10
82.1511430100209
 20
62.9978038429427
 30
0.0
 40
0.200000002980232
 50
179.999999948034
 51
269.999999948034
  0
ARC
  5
   6B1
  8
0
  6
CONTINUOUS
 62
     7
 10
123.751143629909
 20
62.9978038429427
 30
0.0
 40
0.200000002980232
 50
269.999999948034
 51
359.999999948034
  0
ARC
  5
   6B2
  8
0
  6
CONTINUOUS
 62
     7
 10
123.751143629909
 20
104.597804462831
 30
0.0
 40
0.200000002980232
 50
359.999999948034
 51
449.999999948034
  0
ARC
  5
   6B3
  8
0
  6
CONTINUOUS
 62
     7
 10
82.151143010032
 20
104.597804462831
 30
0.0
 40
0.200000002980232
 50
449.999999948034
 51
539.999999948034
  0
LINE
  5
   6B4
  8
0
  6
CONTINUOUS
 62
     7
 10
93.9511431858546
 20
88.1977981149362
 30
0.0
 11
93.3511431769139
 21
88.1977981149362
 31
0.0
  0
LINE
  5
   6B5
  8
0
  6
CONTINUOUS
 62
     7
 10
93.9511431858546
 20
84.597798061292
 30
0.0
 11
93.3511431769139
 21
84.597798061292
 31
0.0
  0
CIRCLE
  5
   6B6
  8
0
  6
CONTINUOUS
 62
     7
 10
93.6511431813842
 20
72.9977978884386
 30
0.0
 40
1.80000002682209
  0
CIRCLE
  5
   6B7
  8
0
  6
CONTINUOUS
 62
     7
 10
93.6511431813842
 20
72.9977978884386
 30
0.0
 40
1.20000001788139
  0
LINE
  5
   6B8
  8
0
  6
CONTINUOUS
 62
     7
 10
93.3511431769139
 20
84.597798061292
 30
0.0
 11
93.3511431769139
 21
88.1977981149362
 31
0.0
  0
LINE
  5
   6B9
  8
0
  6
CONTINUOUS
 62
     7
 10
93.9511431858546
 20
84.597798061292
 30
0.0
 11
93.9511431858546
 21
88.1977981149362
 31
0.0
  0
LINE
  5
   6BA
  8
0
  6
CONTINUOUS
 62
     7
 10
97.5511432394988
 20
70.5977978526758
 30
0.0
 11
97.5511432394988
 21
75.3978036398676
 31
0.0
  0
LINE
  5
   6BB
  8
0
  6
CONTINUOUS
 62
     7
 10
108.351143400431
 20
70.5977978526758
 30
0.0
 11
108.351143400431
 21
75.3978004585691
 31
0.0
  0
LINE
  5
   6BC
  8
0
  6
CONTINUOUS
 62
     7
 10
108.351143400431
 20
83.9977980523513
 30
0.0
 11
108.351143400431
 21
88.7977981238769
 31
0.0
  0
LINE
  5
   6BD
  8
0
  6
CONTINUOUS
 62
     7
 10
97.5511432394988
 20
83.9977980523513
 30
0.0
 11
97.5511432394988
 21
88.7977981238769
 31
0.0
  0
LINE
  5
   6BE
  8
0
  6
CONTINUOUS
 62
     7
 10
113.171139566005
 20
74.5377979113864
 30
0.0
 11
112.991139563323
 21
74.5377979113864
 31
0.0
  0
LINE
  5
   6BF
  8
0
  6
CONTINUOUS
 62
     7
 10
112.791139560342
 20
71.4577978654908
 30
0.0
 11
112.471139555574
 21
71.4577978654908
 31
0.0
  0
LINE
  5
   6C0
  8
0
  6
CONTINUOUS
 62
     7
 10
109.911139517427
 20
72.497797880988
 30
0.0
 11
109.911139517427
 21
72.6977978839682
 31
0.0
  0
LINE
  5
   6C1
  8
0
  6
CONTINUOUS
 62
     7
 10
111.991139548421
 20
72.497797880988
 30
0.0
 11
111.991139548421
 21
72.6977978839682
 31
0.0
  0
ARC
  5
   6C2
  8
0
  6
CONTINUOUS
 62
     7
 10
110.951139532924
 20
72.6977978839682
 30
0.0
 40
1.04000001549721
 50
359.999999948034
 51
539.999999948034
  0
ARC
  5
   6C3
  8
0
  6
CONTINUOUS
 62
     7
 10
110.951139532924
 20
72.497797880988
 30
0.0
 40
1.04000001549721
 50
179.999999948034
 51
359.999999948034
  0
ARC
  5
   6C4
  8
0
  6
CONTINUOUS
 62
     7
 10
110.951139532924
 20
72.6977978839682
 30
0.0
 40
0.720000010728837
 50
359.999999948034
 51
539.999999948034
  0
ARC
  5
   6C5
  8
0
  6
CONTINUOUS
 62
     7
 10
110.951139532924
 20
72.497797880988
 30
0.0
 40
0.720000010728835
 50
179.999999948034
 51
359.999999948034
  0
LINE
  5
   6C6
  8
0
  6
CONTINUOUS
 62
     7
 10
110.231139522195
 20
72.497797880988
 30
0.0
 11
110.231139522195
 21
72.6977978839682
 31
0.0
  0
LINE
  5
   6C7
  8
0
  6
CONTINUOUS
 62
     7
 10
111.671139543653
 20
72.497797880988
 30
0.0
 11
111.671139543653
 21
72.6977978839682
 31
0.0
  0
LINE
  5
   6C8
  8
0
  6
CONTINUOUS
 62
     7
 10
112.091139549912
 20
73.2577978923129
 30
0.0
 11
112.091139549912
 21
73.5777978970813
 31
0.0
  0
LINE
  5
   6C9
  8
0
  6
CONTINUOUS
 62
     7
 10
112.471139555574
 20
73.2577978923129
 30
0.0
 11
112.091139549912
 21
73.2577978923129
 31
0.0
  0
LINE
  5
   6CA
  8
0
  6
CONTINUOUS
 62
     7
 10
113.171139566005
 20
73.2577978923129
 30
0.0
 11
113.171139566005
 21
73.5777978970813
 31
0.0
  0
LINE
  5
   6CB
  8
0
  6
CONTINUOUS
 62
     7
 10
112.471139555574
 20
73.5777978970813
 30
0.0
 11
112.091139549912
 21
73.5777978970813
 31
0.0
  0
LINE
  5
   6CC
  8
0
  6
CONTINUOUS
 62
     7
 10
112.471139555574
 20
71.4577978654908
 30
0.0
 11
112.471139555574
 21
73.2577978923129
 31
0.0
  0
LINE
  5
   6CD
  8
0
  6
CONTINUOUS
 62
     7
 10
112.791139560342
 20
71.4577978654908
 30
0.0
 11
112.791139560342
 21
73.2577978923129
 31
0.0
  0
LINE
  5
   6CE
  8
0
  6
CONTINUOUS
 62
     7
 10
113.171139566005
 20
73.2577978923129
 30
0.0
 11
112.791139560342
 21
73.2577978923129
 31
0.0
  0
LINE
  5
   6CF
  8
0
  6
CONTINUOUS
 62
     7
 10
113.171139566005
 20
73.5777978970813
 30
0.0
 11
112.791139560342
 21
73.5777978970813
 31
0.0
  0
LINE
  5
   6D0
  8
0
  6
CONTINUOUS
 62
     7
 10
112.471139555574
 20
73.5777978970813
 30
0.0
 11
112.471139555574
 21
74.0177979036378
 31
0.0
  0
LINE
  5
   6D1
  8
0
  6
CONTINUOUS
 62
     7
 10
112.791139560342
 20
73.5777978970813
 30
0.0
 11
112.791139560342
 21
74.0177979036378
 31
0.0
  0
ARC
  5
   6D2
  8
0
  6
CONTINUOUS
 62
     7
 10
112.991139563323
 20
74.0177979036378
 30
0.0
 40
0.520000007748604
 50
449.999999948034
 51
539.999999948034
  0
ARC
  5
   6D3
  8
0
  6
CONTINUOUS
 62
     7
 10
112.991139563323
 20
74.0177979036378
 30
0.0
 40
0.200000002980232
 50
449.999999948034
 51
539.999999948034
  0
LINE
  5
   6D4
  8
0
  6
CONTINUOUS
 62
     7
 10
113.171139566005
 20
74.217797906618
 30
0.0
 11
113.171139566005
 21
74.5377979113864
 31
0.0
  0
LINE
  5
   6D5
  8
0
  6
CONTINUOUS
 62
     7
 10
113.171139566005
 20
74.217797906618
 30
0.0
 11
112.991139563323
 21
74.217797906618
 31
0.0
  0
LINE
  5
   6D6
  8
0
  6
CONTINUOUS
 62
     7
 10
114.451139585078
 20
74.5377979113864
 30
0.0
 11
114.271139582396
 21
74.5377979113864
 31
0.0
  0
LINE
  5
   6D7
  8
0
  6
CONTINUOUS
 62
     7
 10
114.071139579416
 20
71.4577978654908
 30
0.0
 11
113.751139574647
 21
71.4577978654908
 31
0.0
  0
LINE
  5
   6D8
  8
0
  6
CONTINUOUS
 62
     7
 10
113.371139568985
 20
73.2577978923129
 30
0.0
 11
113.371139568985
 21
73.5777978970813
 31
0.0
  0
LINE
  5
   6D9
  8
0
  6
CONTINUOUS
 62
     7
 10
113.751139574647
 20
73.2577978923129
 30
0.0
 11
113.371139568985
 21
73.2577978923129
 31
0.0
  0
LINE
  5
   6DA
  8
0
  6
CONTINUOUS
 62
     7
 10
114.451139585078
 20
73.2577978923129
 30
0.0
 11
114.451139585078
 21
73.5777978970813
 31
0.0
  0
LINE
  5
   6DB
  8
0
  6
CONTINUOUS
 62
     7
 10
113.751139574647
 20
73.5777978970813
 30
0.0
 11
113.371139568985
 21
73.5777978970813
 31
0.0
  0
LINE
  5
   6DC
  8
0
  6
CONTINUOUS
 62
     7
 10
113.751139574647
 20
71.4577978654908
 30
0.0
 11
113.751139574647
 21
73.2577978923129
 31
0.0
  0
LINE
  5
   6DD
  8
0
  6
CONTINUOUS
 62
     7
 10
114.071139579416
 20
71.4577978654908
 30
0.0
 11
114.071139579416
 21
73.2577978923129
 31
0.0
  0
LINE
  5
   6DE
  8
0
  6
CONTINUOUS
 62
     7
 10
114.451139585078
 20
73.2577978923129
 30
0.0
 11
114.071139579416
 21
73.2577978923129
 31
0.0
  0
LINE
  5
   6DF
  8
0
  6
CONTINUOUS
 62
     7
 10
114.451139585078
 20
73.5777978970813
 30
0.0
 11
114.071139579416
 21
73.5777978970813
 31
0.0
  0
LINE
  5
   6E0
  8
0
  6
CONTINUOUS
 62
     7
 10
113.751139574647
 20
73.5777978970813
 30
0.0
 11
113.751139574647
 21
74.0177979036378
 31
0.0
  0
LINE
  5
   6E1
  8
0
  6
CONTINUOUS
 62
     7
 10
114.071139579416
 20
73.5777978970813
 30
0.0
 11
114.071139579416
 21
74.0177979036378
 31
0.0
  0
ARC
  5
   6E2
  8
0
  6
CONTINUOUS
 62
     7
 10
114.271139582396
 20
74.0177979036378
 30
0.0
 40
0.520000007748604
 50
449.999999948034
 51
539.999999948034
  0
ARC
  5
   6E3
  8
0
  6
CONTINUOUS
 62
     7
 10
114.271139582396
 20
74.0177979036378
 30
0.0
 40
0.200000002980232
 50
449.999999948034
 51
539.999999948034
  0
LINE
  5
   6E4
  8
0
  6
CONTINUOUS
 62
     7
 10
114.451139585078
 20
74.217797906618
 30
0.0
 11
114.451139585078
 21
74.5377979113864
 31
0.0
  0
LINE
  5
   6E5
  8
0
  6
CONTINUOUS
 62
     7
 10
114.451139585078
 20
74.217797906618
 30
0.0
 11
114.271139582396
 21
74.217797906618
 31
0.0
  0
LINE
  5
   6E6
  8
0
  6
CONTINUOUS
 62
     7
 10
112.631139557958
 20
85.2577980711268
 30
0.0
 11
112.31113955319
 21
85.2577980711268
 31
0.0
  0
ARC
  5
   6E7
  8
0
  6
CONTINUOUS
 62
     7
 10
110.951139532924
 20
86.4977980896042
 30
0.0
 40
1.04000001549721
 50
359.999999948034
 51
539.999999948034
  0
ARC
  5
   6E8
  8
0
  6
CONTINUOUS
 62
     7
 10
110.951139532924
 20
86.4977980896042
 30
0.0
 40
0.720000010728837
 50
359.999999948034
 51
539.999999948034
  0
ARC
  5
   6E9
  8
0
  6
CONTINUOUS
 62
     7
 10
110.951139532924
 20
86.297798086624
 30
0.0
 40
1.04000001549721
 50
179.999999948034
 51
359.999999948034
  0
ARC
  5
   6EA
  8
0
  6
CONTINUOUS
 62
     7
 10
110.951139532924
 20
86.297798086624
 30
0.0
 40
0.720000010728835
 50
179.999999948034
 51
359.999999948034
  0
LINE
  5
   6EB
  8
0
  6
CONTINUOUS
 62
     7
 10
111.671139543653
 20
86.297798086624
 30
0.0
 11
111.671139543653
 21
86.4977980896043
 31
0.0
  0
LINE
  5
   6EC
  8
0
  6
CONTINUOUS
 62
     7
 10
111.991139548421
 20
86.297798086624
 30
0.0
 11
111.991139548421
 21
86.4977980896043
 31
0.0
  0
LINE
  5
   6ED
  8
0
  6
CONTINUOUS
 62
     7
 10
110.231139522195
 20
86.297798086624
 30
0.0
 11
110.231139522195
 21
86.4977980896043
 31
0.0
  0
LINE
  5
   6EE
  8
0
  6
CONTINUOUS
 62
     7
 10
109.911139517427
 20
86.297798086624
 30
0.0
 11
109.911139517427
 21
86.4977980896043
 31
0.0
  0
LINE
  5
   6EF
  8
0
  6
CONTINUOUS
 62
     7
 10
112.31113955319
 20
85.2577980711268
 30
0.0
 11
112.31113955319
 21
87.5377981051015
 31
0.0
  0
LINE
  5
   6F0
  8
0
  6
CONTINUOUS
 62
     7
 10
112.631139557958
 20
85.2577980711268
 30
0.0
 11
112.631139557958
 21
86.6577980919885
 31
0.0
  0
LINE
  5
   6F1
  8
0
  6
CONTINUOUS
 62
     7
 10
113.751139574647
 20
85.2577980711268
 30
0.0
 11
113.751139574647
 21
86.6577980919885
 31
0.0
  0
LINE
  5
   6F2
  8
0
  6
CONTINUOUS
 62
     7
 10
114.071139579416
 20
85.2577980711268
 30
0.0
 11
114.071139579416
 21
86.7377980931805
 31
0.0
  0
LINE
  5
   6F3
  8
0
  6
CONTINUOUS
 62
     7
 10
112.631139557958
 20
87.5377981051014
 30
0.0
 11
112.31113955319
 21
87.5377981051014
 31
0.0
  0
ARC
  5
   6F4
  8
0
  6
CONTINUOUS
 62
     7
 10
113.191139566303
 20
86.6577980919884
 30
0.0
 40
0.56000000834465
 50
359.999999948034
 51
539.999999948034
  0
LINE
  5
   6F5
  8
0
  6
CONTINUOUS
 62
     7
 10
112.631139557958
 20
87.2177981003331
 30
0.0
 11
112.631139557958
 21
87.5377981051015
 31
0.0
  0
ARC
  5
   6F6
  8
0
  6
CONTINUOUS
 62
     7
 10
113.271139567495
 20
86.7377980931805
 30
0.0
 40
0.800000011920929
 50
359.999999948034
 51
503.13010230219
  0
LINE
  5
   6F7
  8
0
  6
CONTINUOUS
 62
     7
 10
114.071139579416
 20
85.2577980711268
 30
0.0
 11
113.751139574647
 21
85.2577980711268
 31
0.0
  0
LINE
  5
   6F8
  8
0
  6
CONTINUOUS
 62
     7
 10
95.2511291595598
 20
151.497802109939
 30
0.0
 11
95.2511291595598
 21
152.697802127821
 31
0.0
  0
LINE
  5
   6F9
  8
0
  6
CONTINUOUS
 62
     7
 10
96.6511291804214
 20
151.497802109939
 30
0.0
 11
96.6511291804214
 21
152.697802127821
 31
0.0
  0
LINE
  5
   6FA
  8
0
  6
CONTINUOUS
 62
     7
 10
94.9511291550894
 20
150.097802089078
 30
0.0
 11
94.9511291550894
 21
151.497802109939
 31
0.0
  0
LINE
  5
   6FB
  8
0
  6
CONTINUOUS
 62
     7
 10
96.9511291848917
 20
150.097802089078
 30
0.0
 11
96.9511291848917
 21
151.497802109939
 31
0.0
  0
LINE
  5
   6FC
  8
0
  6
CONTINUOUS
 62
     7
 10
96.9511291848917
 20
151.497802109939
 30
0.0
 11
96.6511291804214
 21
151.497802109939
 31
0.0
  0
LINE
  5
   6FD
  8
0
  6
CONTINUOUS
 62
     7
 10
95.2511291595598
 20
151.497802109939
 30
0.0
 11
94.9511291550894
 21
151.497802109939
 31
0.0
  0
LINE
  5
   6FE
  8
0
  6
CONTINUOUS
 62
     7
 10
109.251157459509
 20
151.497802109939
 30
0.0
 11
109.251157459509
 21
152.697802127821
 31
0.0
  0
LINE
  5
   6FF
  8
0
  6
CONTINUOUS
 62
     7
 10
110.65115748037
 20
151.497802109939
 30
0.0
 11
110.65115748037
 21
152.697802127821
 31
0.0
  0
LINE
  5
   700
  8
0
  6
CONTINUOUS
 62
     7
 10
110.951157484841
 20
150.097802089078
 30
0.0
 11
110.951157484841
 21
151.497802109939
 31
0.0
  0
LINE
  5
   701
  8
0
  6
CONTINUOUS
 62
     7
 10
110.951157484841
 20
150.097802089078
 30
0.0
 11
108.951157455038
 21
150.097802089078
 31
0.0
  0
LINE
  5
   702
  8
0
  6
CONTINUOUS
 62
     7
 10
108.951157455038
 20
150.097802089078
 30
0.0
 11
108.951157455038
 21
151.497802109939
 31
0.0
  0
LINE
  5
   703
  8
0
  6
CONTINUOUS
 62
     7
 10
110.951157484841
 20
151.497802109939
 30
0.0
 11
110.65115748037
 21
151.497802109939
 31
0.0
  0
LINE
  5
   704
  8
0
  6
CONTINUOUS
 62
     7
 10
109.251157459509
 20
151.497802109939
 30
0.0
 11
108.951157455038
 21
151.497802109939
 31
0.0
  0
LINE
  5
   705
  8
0
  6
CONTINUOUS
 62
     7
 10
82.3511429891592
 20
89.1977981298374
 30
0.0
 11
81.9511430070518
 21
89.1977981298374
 31
0.0
  0
LINE
  5
   706
  8
0
  6
CONTINUOUS
 62
     7
 10
82.3511429891592
 20
88.7977981238769
 30
0.0
 11
81.9511430070427
 21
88.7977981238769
 31
0.0
  0
LINE
  5
   707
  8
0
  6
CONTINUOUS
 62
     7
 10
82.3511429891592
 20
83.9977980523513
 30
0.0
 11
81.9511430070427
 21
83.9977980523513
 31
0.0
  0
LINE
  5
   708
  8
0
  6
CONTINUOUS
 62
     7
 10
82.3511429891592
 20
83.5977980463909
 30
0.0
 11
81.9511430070314
 21
83.5977980463909
 31
0.0
  0
LINE
  5
   709
  8
0
  6
CONTINUOUS
 62
     7
 10
82.3511429891592
 20
75.797805624334
 30
0.0
 11
81.9511430070314
 21
75.797805624334
 31
0.0
  0
LINE
  5
   70A
  8
0
  6
CONTINUOUS
 62
     7
 10
82.3511429891592
 20
75.3978056183712
 30
0.0
 11
81.9511430070386
 21
75.3978056183712
 31
0.0
  0
LINE
  5
   70B
  8
0
  6
CONTINUOUS
 62
     7
 10
82.3511429891592
 20
70.5977978526758
 30
0.0
 11
81.9511430070386
 21
70.5977978526758
 31
0.0
  0
LINE
  5
   70C
  8
0
  6
CONTINUOUS
 62
     7
 10
82.3511429891592
 20
70.1977978467153
 30
0.0
 11
81.9511430070406
 21
70.1977978467153
 31
0.0
  0
LINE
  5
   70D
  8
0
  6
CONTINUOUS
 62
     7
 10
123.551137523413
 20
89.1977981298374
 30
0.0
 11
82.3511429891592
 21
89.1977981298374
 31
0.0
  0
LINE
  5
   70E
  8
0
  6
CONTINUOUS
 62
     7
 10
123.551137523413
 20
88.7977981238769
 30
0.0
 11
82.3511429891592
 21
88.7977981238769
 31
0.0
  0
LINE
  5
   70F
  8
0
  6
CONTINUOUS
 62
     7
 10
123.551137523413
 20
83.9977980523513
 30
0.0
 11
107.25114338404
 21
83.9977980523513
 31
0.0
  0
LINE
  5
   710
  8
0
  6
CONTINUOUS
 62
     7
 10
123.551137523413
 20
83.5977980463909
 30
0.0
 11
107.25114338404
 21
83.5977980463909
 31
0.0
  0
LINE
  5
   711
  8
0
  6
CONTINUOUS
 62
     7
 10
123.551137523413
 20
75.7978024430331
 30
0.0
 11
107.251142190137
 21
75.7978024430331
 31
0.0
  0
LINE
  5
   712
  8
0
  6
CONTINUOUS
 62
     7
 10
123.551137523413
 20
75.3978024370726
 30
0.0
 11
107.251142043581
 21
75.3978024370726
 31
0.0
  0
LINE
  5
   713
  8
0
  6
CONTINUOUS
 62
     7
 10
123.551137523413
 20
70.5977978526758
 30
0.0
 11
82.3511429891592
 21
70.5977978526758
 31
0.0
  0
LINE
  5
   714
  8
0
  6
CONTINUOUS
 62
     7
 10
123.551137523413
 20
70.1977978467153
 30
0.0
 11
82.3511429891592
 21
70.1977978467153
 31
0.0
  0
LINE
  5
   715
  8
0
  6
CONTINUOUS
 62
     7
 10
107.25114338404
 20
77.3479262370283
 30
0.0
 11
98.65114325589
 21
77.3479262370283
 31
0.0
  0
LINE
  5
   716
  8
0
  6
CONTINUOUS
 62
     7
 10
107.25114338404
 20
74.9013399983246
 30
0.0
 11
98.65114325589
 21
74.9013399983246
 31
0.0
  0
LINE
  5
   717
  8
0
  6
CONTINUOUS
 62
     7
 10
107.25114338404
 20
72.5222125123881
 30
0.0
 11
98.65114325589
 21
72.5222125123881
 31
0.0
  0
LINE
  5
   718
  8
0
  6
CONTINUOUS
 62
     7
 10
107.25114338404
 20
72.2011136565161
 30
0.0
 11
98.65114325589
 21
72.2011136565161
 31
0.0
  0
LINE
  5
   719
  8
0
  6
CONTINUOUS
 62
     7
 10
81.2511289509435
 20
152.697802127821
 30
0.0
 11
69.3511310836074
 21
152.697802127821
 31
0.0
  0
LINE
  5
   71A
  8
0
  6
CONTINUOUS
 62
     7
 10
82.9511289762755
 20
150.097802089078
 30
0.0
 11
80.9511289464731
 21
150.097802089078
 31
0.0
  0
CIRCLE
  5
   71B
  8
0
  6
CONTINUOUS
 62
     7
 10
74.951130922582
 20
147.697798412687
 30
0.0
 40
2.20000058570355
  0
CIRCLE
  5
   71C
  8
0
  6
CONTINUOUS
 62
     7
 10
81.9511289613743
 20
146.497803567582
 30
0.0
 40
1.7999972819609
  0
LINE
  5
   71D
  8
0
  6
CONTINUOUS
 62
     7
 10
81.2511289509435
 20
151.497802109939
 30
0.0
 11
81.2511289509435
 21
152.697802127821
 31
0.0
  0
LINE
  5
   71E
  8
0
  6
CONTINUOUS
 62
     7
 10
82.6511289718051
 20
151.497802109939
 30
0.0
 11
82.6511289718051
 21
152.697802127821
 31
0.0
  0
LINE
  5
   71F
  8
0
  6
CONTINUOUS
 62
     7
 10
80.9511289464731
 20
150.097802089078
 30
0.0
 11
80.9511289464731
 21
151.497802109939
 31
0.0
  0
LINE
  5
   720
  8
0
  6
CONTINUOUS
 62
     7
 10
82.9511289762755
 20
150.097802089078
 30
0.0
 11
82.9511289762755
 21
151.497802109939
 31
0.0
  0
LINE
  5
   721
  8
0
  6
CONTINUOUS
 62
     7
 10
82.9511289762755
 20
151.497802109939
 30
0.0
 11
82.6511289718051
 21
151.497802109939
 31
0.0
  0
LINE
  5
   722
  8
0
  6
CONTINUOUS
 62
     7
 10
81.2511289509435
 20
151.497802109939
 30
0.0
 11
80.9511289464731
 21
151.497802109939
 31
0.0
  0
LINE
  5
   723
  8
0
  6
CONTINUOUS
 62
     7
 10
81.2511289509435
 20
50.697800607902
 30
0.0
 11
69.3511310836074
 21
50.697800607902
 31
0.0
  0
CIRCLE
  5
   724
  8
0
  6
CONTINUOUS
 62
     7
 10
74.9511375956784
 20
55.6978020453548
 30
0.0
 40
2.19999878903394
  0
CIRCLE
  5
   725
  8
0
  6
CONTINUOUS
 62
     7
 10
74.9511362381758
 20
52.297800834267
 30
0.0
 40
0.56000008899532
  0
LINE
  5
   726
  8
0
  6
DASHDOT
 62
     7
 10
74.9511375956784
 20
52.2978032384394
 30
0.0
 11
74.9511375956784
 21
59.0978008522701
 31
0.0
  0
LINE
  5
   727
  8
0
  6
DASHDOT
 62
     7
 10
74.9511362381758
 20
50.5378007273903
 30
0.0
 11
74.9511362381758
 21
54.0578009411437
 31
0.0
  0
LINE
  5
   728
  8
0
  6
CONTINUOUS
 62
     7
 10
82.6511289718051
 20
50.6978006079021
 30
0.0
 11
82.6511289718051
 21
51.5978051989484
 31
0.0
  0
LINE
  5
   729
  8
0
  6
CONTINUOUS
 62
     7
 10
81.2511289509435
 20
50.6978006079021
 30
0.0
 11
81.2511289509435
 21
51.5978051989484
 31
0.0
  0
LINE
  5
   72A
  8
0
  6
DASHDOT
 62
     7
 10
81.9511289613743
 20
140.697806226016
 30
0.0
 11
81.9511289613743
 21
152.297800909147
 31
0.0
  0
LINE
  5
   72B
  8
0
  6
DASHDOT
 62
     7
 10
87.7511263029398
 20
146.497803567582
 30
0.0
 11
76.1511316198088
 21
146.497803567582
 31
0.0
  0
LINE
  5
   72C
  8
0
  6
DASHDOT
 62
     7
 10
81.151136444317
 20
55.6978020453548
 30
0.0
 11
68.7511387470398
 21
55.6978020453548
 31
0.0
  0
LINE
  5
   72D
  8
0
  6
DASHDOT
 62
     7
 10
79.5111363867758
 20
52.297800834267
 30
0.0
 11
70.3911360895759
 21
52.297800834267
 31
0.0
  0
LINE
  5
   72E
  8
0
  6
CONTINUOUS
 62
     7
 10
79.0711429641364
 20
60.9978099459999
 30
0.0
 11
79.0711429641364
 21
108.99780147664
 31
0.0
  0
LINE
  5
   72F
  8
0
  6
CONTINUOUS
 62
     7
 10
77.6311429426788
 20
60.9978099459999
 30
0.0
 11
77.6311429426788
 21
108.99780147664
 31
0.0
  0
LINE
  5
   730
  8
0
  6
CONTINUOUS
 62
     7
 10
76.1911429212211
 20
60.9978099459999
 30
0.0
 11
76.1911429212211
 21
108.99780147664
 31
0.0
  0
LINE
  5
   731
  8
0
  6
CONTINUOUS
 62
     7
 10
74.7511428997634
 20
60.9978099459999
 30
0.0
 11
74.7511428997634
 21
108.99780147664
 31
0.0
  0
LINE
  5
   732
  8
0
  6
CONTINUOUS
 62
     7
 10
73.3111428783058
 20
60.9978099459999
 30
0.0
 11
73.3111428783058
 21
108.99780147664
 31
0.0
  0
LINE
  5
   733
  8
0
  6
CONTINUOUS
 62
     7
 10
71.8711428568481
 20
60.9978099459999
 30
0.0
 11
71.8711428568481
 21
108.99780147664
 31
0.0
  0
LINE
  5
   734
  8
0
  6
CONTINUOUS
 62
     7
 10
70.4311428353904
 20
60.9978099459999
 30
0.0
 11
70.4311428353904
 21
108.99780147664
 31
0.0
  0
LINE
  5
   735
  8
0
  6
CONTINUOUS
 62
     7
 10
68.9911428139327
 20
60.9978099459999
 30
0.0
 11
68.9911428139327
 21
108.99780147664
 31
0.0
  0
LINE
  5
   736
  8
0
  6
CONTINUOUS
 62
     7
 10
79.5511429712778
 20
104.797804465811
 30
0.0
 11
67.9511265650906
 21
104.797804465811
 31
0.0
  0
LINE
  5
   737
  8
0
  6
CONTINUOUS
 62
     7
 10
79.5511429712778
 20
62.7978038399624
 30
0.0
 11
67.9511265650906
 21
62.7978038399624
 31
0.0
  0
LINE
  5
   738
  8
0
  6
DASHDOT
 62
     5
 10
129.484861806741
 20
83.7978041528868
 30
0.0
 11
64.0635362617364
 21
83.7978041528868
 31
0.0
  0
LINE
  5
   739
  8
0
  6
CONTINUOUS
 62
     7
 10
70.5511375301133
 20
39.6978065564808
 30
0.0
 11
70.5511375301133
 21
50.697800607902
 31
0.0
  0
LINE
  5
   73A
  8
0
  6
CONTINUOUS
 62
     7
 10
79.3511376612435
 20
39.6978065564808
 30
0.0
 11
79.3511376612435
 21
50.697800607902
 31
0.0
  0
LINE
  5
   73B
  8
0
  6
CONTINUOUS
 62
     7
 10
79.3511376612435
 20
39.6978065564808
 30
0.0
 11
70.5511375301133
 21
39.6978065564808
 31
0.0
  0
CIRCLE
  5
   73C
  8
0
  6
CONTINUOUS
 62
     7
 10
74.9511375956784
 20
47.2978066697296
 30
0.0
 40
3.20000004768372
  0
LINE
  5
   73D
  8
0
  6
DOT
 62
     7
 10
71.7511361904921
 20
39.6978065564808
 30
0.0
 11
71.7511361904921
 21
47.2978066697296
 31
0.0
  0
LINE
  5
   73E
  8
0
  6
DOT
 62
     7
 10
78.1511362858596
 20
39.6978065564808
 30
0.0
 11
78.1511362858596
 21
47.2978066697296
 31
0.0
  0
LINE
  5
   73F
  8
0
  6
DOT
 62
     7
 10
77.5511362769189
 20
39.6978065564808
 30
0.0
 11
77.5511362769189
 21
45.4323289393013
 31
0.0
  0
LINE
  5
   740
  8
0
  6
DOT
 62
     7
 10
72.3511361994328
 20
39.6978065564808
 30
0.0
 11
72.3511361994328
 21
45.4323327233297
 31
0.0
  0
INSERT
  5
   741
  8
255
  6
CONTINUOUS
 62
     7
  2
$1MOSTRINA
 10
57.0158399011007
 20
39.805554962195
 30
0.0
 41
0.400000005960464
 42
0.400000005960464
 50
3.50835464724173E-15
 43
0.400000005960464
  0
LINE
  5
   742
  8
0
  6
CONTINUOUS
 62
     7
 10
79.5511429712778
 20
108.99780147664
 30
0.0
 11
67.9511265650906
 21
108.99780147664
 31
0.0
  0
LINE
  5
   743
  8
0
  6
CONTINUOUS
 62
     1
 10
123.951143632889
 20
32.7978003411714
 30
0.0
 11
123.951143632889
 21
51.5978051989484
 31
0.0
  0
LINE
  5
   744
  8
0
  6
CONTINUOUS
 62
     1
 10
123.451143625439
 20
32.2978003337208
 30
0.0
 11
88.3107573493867
 21
32.2978003337208
 31
0.0
  0
ARC
  5
   745
  8
0
  6
CONTINUOUS
 62
     1
 10
123.451143625439
 20
32.7978003411714
 30
0.0
 40
0.500000007450581
 50
269.999999948034
 51
359.999999948034
  0
LINE
  5
   746
  8
0
  6
CONTINUOUS
 62
     1
 10
122.511143611432
 20
32.2978003337208
 30
0.0
 11
122.511143611432
 21
51.5978051989484
 31
0.0
  0
LINE
  5
   747
  8
0
  6
CONTINUOUS
 62
     1
 10
121.071143589974
 20
32.2978003337208
 30
0.0
 11
121.071143589974
 21
51.5978051989484
 31
0.0
  0
LINE
  5
   748
  8
0
  6
CONTINUOUS
 62
     1
 10
119.631143568516
 20
32.2978003337208
 30
0.0
 11
119.631143568516
 21
51.5978051989484
 31
0.0
  0
LINE
  5
   749
  8
0
  6
CONTINUOUS
 62
     1
 10
118.191143547059
 20
32.2978003337208
 30
0.0
 11
118.191143547059
 21
51.5978051989484
 31
0.0
  0
LINE
  5
   74A
  8
0
  6
CONTINUOUS
 62
     1
 10
116.751143525601
 20
32.2978003337208
 30
0.0
 11
116.751143525601
 21
51.5978051989484
 31
0.0
  0
LINE
  5
   74B
  8
0
  6
CONTINUOUS
 62
     1
 10
115.311143504143
 20
32.2978003337208
 30
0.0
 11
115.311143504143
 21
51.5978051989484
 31
0.0
  0
LINE
  5
   74C
  8
0
  6
CONTINUOUS
 62
     1
 10
113.871143482686
 20
32.2978003337208
 30
0.0
 11
113.871143482686
 21
51.5978051989484
 31
0.0
  0
LINE
  5
   74D
  8
0
  6
CONTINUOUS
 62
     1
 10
112.431143461228
 20
32.2978003337208
 30
0.0
 11
112.431143461228
 21
51.5978051989484
 31
0.0
  0
LINE
  5
   74E
  8
0
  6
CONTINUOUS
 62
     1
 10
110.99114343977
 20
32.2978003337208
 30
0.0
 11
110.99114343977
 21
51.5978051989484
 31
0.0
  0
LINE
  5
   74F
  8
0
  6
CONTINUOUS
 62
     1
 10
109.551143418313
 20
32.2978003337208
 30
0.0
 11
109.551143418313
 21
51.5978051989484
 31
0.0
  0
LINE
  5
   750
  8
0
  6
CONTINUOUS
 62
     1
 10
108.111143396855
 20
32.2978003337208
 30
0.0
 11
108.111143396855
 21
51.5978051989484
 31
0.0
  0
LINE
  5
   751
  8
0
  6
CONTINUOUS
 62
     1
 10
106.671143375397
 20
32.2978003337208
 30
0.0
 11
106.671143375397
 21
51.5978051989484
 31
0.0
  0
LINE
  5
   752
  8
0
  6
CONTINUOUS
 62
     1
 10
105.23114335394
 20
32.2978003337208
 30
0.0
 11
105.23114335394
 21
51.5978051989484
 31
0.0
  0
LINE
  5
   753
  8
0
  6
CONTINUOUS
 62
     1
 10
103.791143332482
 20
32.2978003337208
 30
0.0
 11
103.791143332482
 21
51.5978051989484
 31
0.0
  0
LINE
  5
   754
  8
0
  6
CONTINUOUS
 62
     1
 10
102.351143311024
 20
32.2978003337208
 30
0.0
 11
102.351143311024
 21
51.5978051989484
 31
0.0
  0
LINE
  5
   755
  8
0
  6
CONTINUOUS
 62
     1
 10
100.911143289567
 20
32.2978003337208
 30
0.0
 11
100.911143289567
 21
51.5978051989484
 31
0.0
  0
LINE
  5
   756
  8
0
  6
CONTINUOUS
 62
     1
 10
99.471143268109
 20
32.2978003337208
 30
0.0
 11
99.471143268109
 21
51.5978051989484
 31
0.0
  0
LINE
  5
   757
  8
0
  6
CONTINUOUS
 62
     1
 10
98.0311432466513
 20
32.2978003337208
 30
0.0
 11
98.0311432466513
 21
51.5978051989484
 31
0.0
  0
LINE
  5
   758
  8
0
  6
CONTINUOUS
 62
     1
 10
96.5911432251936
 20
32.2978003337208
 30
0.0
 11
96.5911432251936
 21
51.5978051989484
 31
0.0
  0
LINE
  5
   759
  8
0
  6
CONTINUOUS
 62
     1
 10
95.151143203736
 20
32.2978003337208
 30
0.0
 11
95.151143203736
 21
51.5978051989484
 31
0.0
  0
LINE
  5
   75A
  8
0
  6
CONTINUOUS
 62
     1
 10
93.7111431822783
 20
32.2978003337208
 30
0.0
 11
93.7111431822783
 21
51.5978051989484
 31
0.0
  0
LINE
  5
   75B
  8
0
  6
CONTINUOUS
 62
     1
 10
92.2711431608206
 20
32.2978003337208
 30
0.0
 11
92.2711431608206
 21
51.5978051989484
 31
0.0
  0
LINE
  5
   75C
  8
0
  6
CONTINUOUS
 62
     1
 10
90.831143139363
 20
32.2978003337208
 30
0.0
 11
90.831143139363
 21
51.5978051989484
 31
0.0
  0
LINE
  5
   75D
  8
0
  6
CONTINUOUS
 62
     1
 10
89.3911431179053
 20
32.2978003337208
 30
0.0
 11
89.3911431179053
 21
51.5978051989484
 31
0.0
  0
POLYLINE
  5
   75E
  8
0
  6
CONTINUOUS
 62
     1
 66
     1
 10
0.0
 20
0.0
 30
0.0
  0
VERTEX
  5
   75F
  8
0
  6
CONTINUOUS
 10
88.3107573493867
 20
32.2978785428289
 30
0.0
 40
0.0
 41
0.0
  0
VERTEX
  5
   760
  8
0
  6
CONTINUOUS
 10
88.2197152210514
 20
32.424000135174
 30
0.0
 40
0.0
 41
0.0
  0
VERTEX
  5
   761
  8
0
  6
CONTINUOUS
 10
88.1294428843759
 20
32.5509279936246
 30
0.0
 40
0.0
 41
0.0
  0
VERTEX
  5
   762
  8
0
  6
CONTINUOUS
 10
88.0399590973943
 20
32.6786649171935
 30
0.0
 40
0.0
 41
0.0
  0
VERTEX
  5
   763
  8
0
  6
CONTINUOUS
 10
87.9512923602234
 20
32.8072151585749
 30
0.0
 40
0.0
 41
0.0
  0
VERTEX
  5
   764
  8
0
  6
CONTINUOUS
 10
87.8634829679432
 20
32.9365847304692
 30
0.0
 40
0.0
 41
0.0
  0
VERTEX
  5
   765
  8
0
  6
CONTINUOUS
 10
87.7765850634771
 20
33.0667817119068
 30
0.0
 40
0.0
 41
0.0
  0
VERTEX
  5
   766
  8
0
  6
CONTINUOUS
 10
87.6906686904725
 20
33.1978165545722
 30
0.0
 40
0.0
 41
0.0
  0
VERTEX
  5
   767
  8
0
  6
CONTINUOUS
 10
87.6058218461814
 20
33.329702389128
 30
0.0
 40
0.0
 41
0.0
  0
VERTEX
  5
   768
  8
0
  6
CONTINUOUS
 10
87.5221525343404
 20
33.4624553315394
 30
0.0
 40
0.0
 41
0.0
  0
VERTEX
  5
   769
  8
0
  6
CONTINUOUS
 10
87.4397908180517
 20
33.596094789398
 30
0.0
 40
0.0
 41
0.0
  0
VERTEX
  5
   76A
  8
0
  6
CONTINUOUS
 10
87.3350160290734
 20
33.7710467057592
 30
0.0
 40
0.0
 41
0.0
  0
VERTEX
  5
   76B
  8
0
  6
CONTINUOUS
 10
87.2836760995953
 20
33.8591163558456
 30
0.0
 40
0.0
 41
0.0
  0
VERTEX
  5
   76C
  8
0
  6
CONTINUOUS
 10
87.233106408137
 20
33.9475923748868
 30
0.0
 40
0.0
 41
0.0
  0
VERTEX
  5
   76D
  8
0
  6
CONTINUOUS
 10
87.1833639079858
 20
34.0364829910748
 30
0.0
 40
0.0
 41
0.0
  0
VERTEX
  5
   76E
  8
0
  6
CONTINUOUS
 10
87.1345069941168
 20
34.1257964748028
 30
0.0
 40
0.0
 41
0.0
  0
VERTEX
  5
   76F
  8
0
  6
CONTINUOUS
 10
87.0865946997469
 20
34.2155409755471
 30
0.0
 40
0.0
 41
0.0
  0
VERTEX
  5
   770
  8
0
  6
CONTINUOUS
 10
87.0396858928899
 20
34.305724358749
 30
0.0
 40
0.0
 41
0.0
  0
VERTEX
  5
   771
  8
0
  6
CONTINUOUS
 10
86.9938384729104
 20
34.3963540426963
 30
0.0
 40
0.0
 41
0.0
  0
VERTEX
  5
   772
  8
0
  6
CONTINUOUS
 10
86.9491085670784
 20
34.4874368354054
 30
0.0
 40
0.0
 41
0.0
  0
VERTEX
  5
   773
  8
0
  6
CONTINUOUS
 10
86.9055497271239
 20
34.5789787715031
 30
0.0
 40
0.0
 41
0.0
  0
VERTEX
  5
   774
  8
0
  6
CONTINUOUS
 10
86.8632121257909
 20
34.6709849491081
 30
0.0
 40
0.0
 41
0.0
  0
VERTEX
  5
   775
  8
0
  6
CONTINUOUS
 10
86.8221417533924
 20
34.7634593667132
 30
0.0
 40
0.0
 41
0.0
  0
VERTEX
  5
   776
  8
0
  6
CONTINUOUS
 10
86.7823796143644
 20
34.8564047600668
 30
0.0
 40
0.0
 41
0.0
  0
VERTEX
  5
   777
  8
0
  6
CONTINUOUS
 10
86.7439609238206
 20
34.9498224390549
 30
0.0
 40
0.0
 41
0.0
  0
VERTEX
  5
   778
  8
0
  6
CONTINUOUS
 10
86.7069143041065
 20
35.0437121245829
 30
0.0
 40
0.0
 41
0.0
  0
VERTEX
  5
   779
  8
0
  6
CONTINUOUS
 10
86.6712609813544
 20
35.1380717854573
 30
0.0
 40
0.0
 41
0.0
  0
VERTEX
  5
   77A
  8
0
  6
CONTINUOUS
 10
86.6370139820372
 20
35.2328974752675
 30
0.0
 40
0.0
 41
0.0
  0
VERTEX
  5
   77B
  8
0
  6
CONTINUOUS
 10
86.6041773295232
 20
35.3281831692677
 30
0.0
 40
0.0
 41
0.0
  0
VERTEX
  5
   77C
  8
0
  6
CONTINUOUS
 10
86.5727452406305
 20
35.4239206012588
 30
0.0
 40
0.0
 41
0.0
  0
VERTEX
  5
   77D
  8
0
  6
CONTINUOUS
 10
86.5329815359071
 20
35.5522852279181
 30
0.0
 40
0.0
 41
0.0
  0
VERTEX
  5
   77E
  8
0
  6
CONTINUOUS
 10
86.4956164606274
 20
35.6814019498309
 30
0.0
 40
0.0
 41
0.0
  0
VERTEX
  5
   77F
  8
0
  6
CONTINUOUS
 10
86.4605484382485
 20
35.8112314151258
 30
0.0
 40
0.0
 41
0.0
  0
VERTEX
  5
   780
  8
0
  6
CONTINUOUS
 10
86.4276470328668
 20
35.9417278978368
 30
0.0
 40
0.0
 41
0.0
  0
VERTEX
  5
   781
  8
0
  6
CONTINUOUS
 10
86.3967565728696
 20
36.0728401723258
 30
0.0
 40
0.0
 41
0.0
  0
VERTEX
  5
   782
  8
0
  6
CONTINUOUS
 10
86.3676997745854
 20
36.2045123877054
 30
0.0
 40
0.0
 41
0.0
  0
VERTEX
  5
   783
  8
0
  6
CONTINUOUS
 10
86.3402813659349
 20
36.3366849422621
 30
0.0
 40
0.0
 41
0.0
  0
VERTEX
  5
   784
  8
0
  6
CONTINUOUS
 10
86.3142917100815
 20
36.469295357879
 30
0.0
 40
0.0
 41
0.0
  0
VERTEX
  5
   785
  8
0
  6
CONTINUOUS
 10
86.2895104290824
 20
36.6022791544587
 30
0.0
 40
0.0
 41
0.0
  0
VERTEX
  5
   786
  8
0
  6
CONTINUOUS
 10
86.2657100275395
 20
36.7355707243462
 30
0.0
 40
0.0
 41
0.0
  0
VERTEX
  5
   787
  8
0
  6
CONTINUOUS
 10
86.220128035856
 20
37.0028143621747
 30
0.0
 40
0.0
 41
0.0
  0
VERTEX
  5
   788
  8
0
  6
CONTINUOUS
 10
86.1307827051622
 20
37.5381876367746
 30
0.0
 40
0.0
 41
0.0
  0
VERTEX
  5
   789
  8
0
  6
CONTINUOUS
 10
86.0838401989326
 20
37.8054306528679
 30
0.0
 40
0.0
 41
0.0
  0
VERTEX
  5
   78A
  8
0
  6
CONTINUOUS
 10
86.0592497465559
 20
37.9387866303856
 30
0.0
 40
0.0
 41
0.0
  0
VERTEX
  5
   78B
  8
0
  6
CONTINUOUS
 10
86.0337709627741
 20
38.0719246620314
 30
0.0
 40
0.0
 41
0.0
  0
VERTEX
  5
   78C
  8
0
  6
CONTINUOUS
 10
86.0088488733795
 20
38.1973615411937
 30
0.0
 40
0.0
 41
0.0
  0
VERTEX
  5
   78D
  8
0
  6
CONTINUOUS
 10
85.9830482135029
 20
38.3225763795733
 30
0.0
 40
0.0
 41
0.0
  0
VERTEX
  5
   78E
  8
0
  6
CONTINUOUS
 10
85.9563678512208
 20
38.4475662547745
 30
0.0
 40
0.0
 41
0.0
  0
VERTEX
  5
   78F
  8
0
  6
CONTINUOUS
 10
85.9288308269335
 20
38.5723344645267
 30
0.0
 40
0.0
 41
0.0
  0
VERTEX
  5
   790
  8
0
  6
CONTINUOUS
 10
85.8713857691457
 20
38.8212465467216
 30
0.0
 40
0.0
 41
0.0
  0
VERTEX
  5
   791
  8
0
  6
CONTINUOUS
 10
85.8112918491731
 20
39.0694404046201
 30
0.0
 40
0.0
 41
0.0
  0
VERTEX
  5
   792
  8
0
  6
CONTINUOUS
 10
85.7493648047767
 20
39.317104591942
 30
0.0
 40
0.0
 41
0.0
  0
VERTEX
  5
   793
  8
0
  6
CONTINUOUS
 10
85.6240094520322
 20
39.8117858057806
 30
0.0
 40
0.0
 41
0.0
  0
VERTEX
  5
   794
  8
0
  6
CONTINUOUS
 10
85.5627230348016
 20
40.0593094556601
 30
0.0
 40
0.0
 41
0.0
  0
VERTEX
  5
   795
  8
0
  6
CONTINUOUS
 10
85.5037374469284
 20
40.3072779349408
 30
0.0
 40
0.0
 41
0.0
  0
VERTEX
  5
   796
  8
0
  6
CONTINUOUS
 10
85.4753888478419
 20
40.4314939968631
 30
0.0
 40
0.0
 41
0.0
  0
VERTEX
  5
   797
  8
0
  6
CONTINUOUS
 10
85.4479293564085
 20
40.5558930730216
 30
0.0
 40
0.0
 41
0.0
  0
VERTEX
  5
   798
  8
0
  6
CONTINUOUS
 10
85.420676593213
 20
40.6841315056314
 30
0.0
 40
0.0
 41
0.0
  0
VERTEX
  5
   799
  8
0
  6
CONTINUOUS
 10
85.3945094974766
 20
40.8125941309118
 30
0.0
 40
0.0
 41
0.0
  0
VERTEX
  5
   79A
  8
0
  6
CONTINUOUS
 10
85.3694729692906
 20
40.9412890756305
 30
0.0
 40
0.0
 41
0.0
  0
VERTEX
  5
   79B
  8
0
  6
CONTINUOUS
 10
85.3455944300295
 20
41.0702200071953
 30
0.0
 40
0.0
 41
0.0
  0
VERTEX
  5
   79C
  8
0
  6
CONTINUOUS
 10
85.3228851621182
 20
41.1993865279112
 30
0.0
 40
0.0
 41
0.0
  0
VERTEX
  5
   79D
  8
0
  6
CONTINUOUS
 10
85.301341648801
 20
41.3287845692366
 30
0.0
 40
0.0
 41
0.0
  0
VERTEX
  5
   79E
  8
0
  6
CONTINUOUS
 10
85.2809469139089
 20
41.4584067860401
 30
0.0
 40
0.0
 41
0.0
  0
VERTEX
  5
   79F
  8
0
  6
CONTINUOUS
 10
85.2616718616277
 20
41.5882429508574
 30
0.0
 40
0.0
 41
0.0
  0
VERTEX
  5
   7A0
  8
0
  6
CONTINUOUS
 10
85.2434766162662
 20
41.7182803481478
 30
0.0
 40
0.0
 41
0.0
  0
VERTEX
  5
   7A1
  8
0
  6
CONTINUOUS
 10
85.2263118620242
 20
41.8485041685508
 30
0.0
 40
0.0
 41
0.0
  0
VERTEX
  5
   7A2
  8
0
  6
CONTINUOUS
 10
85.2101201827602
 20
41.9788979031432
 30
0.0
 40
0.0
 41
0.0
  0
VERTEX
  5
   7A3
  8
0
  6
CONTINUOUS
 10
85.1948374017595
 20
42.109443737695
 30
0.0
 40
0.0
 41
0.0
  0
VERTEX
  5
   7A4
  8
0
  6
CONTINUOUS
 10
85.1667160634319
 20
42.3709162887667
 30
0.0
 40
0.0
 41
0.0
  0
VERTEX
  5
   7A5
  8
0
  6
CONTINUOUS
 10
85.1413501330452
 20
42.6327681835553
 30
0.0
 40
0.0
 41
0.0
  0
VERTEX
  5
   7A6
  8
0
  6
CONTINUOUS
 10
85.118119472584
 20
42.8948501313761
 30
0.0
 40
0.0
 41
0.0
  0
VERTEX
  5
   7A7
  8
0
  6
CONTINUOUS
 10
85.0964243925893
 20
43.1570298052849
 30
0.0
 40
0.0
 41
0.0
  0
VERTEX
  5
   7A8
  8
0
  6
CONTINUOUS
 10
85.0601471887701
 20
43.6215763480351
 30
0.0
 40
0.0
 41
0.0
  0
VERTEX
  5
   7A9
  8
0
  6
CONTINUOUS
 10
84.9886183111817
 20
44.5497580920108
 30
0.0
 40
0.0
 41
0.0
  0
VERTEX
  5
   7AA
  8
0
  6
CONTINUOUS
 10
84.9504553724605
 20
45.0134487493968
 30
0.0
 40
0.0
 41
0.0
  0
VERTEX
  5
   7AB
  8
0
  6
CONTINUOUS
 10
84.9302147599644
 20
45.2452290816387
 30
0.0
 40
0.0
 41
0.0
  0
VERTEX
  5
   7AC
  8
0
  6
CONTINUOUS
 10
84.9089550785522
 20
45.4769625664928
 30
0.0
 40
0.0
 41
0.0
  0
VERTEX
  5
   7AD
  8
0
  6
CONTINUOUS
 10
84.8855516887153
 20
45.7175929506099
 30
0.0
 40
0.0
 41
0.0
  0
VERTEX
  5
   7AE
  8
0
  6
CONTINUOUS
 10
84.8605068010548
 20
45.9581055614112
 30
0.0
 40
0.0
 41
0.0
  0
VERTEX
  5
   7AF
  8
0
  6
CONTINUOUS
 10
84.833480888378
 20
46.1984353411184
 30
0.0
 40
0.0
 41
0.0
  0
VERTEX
  5
   7B0
  8
0
  6
CONTINUOUS
 10
84.804105912535
 20
46.4384996018472
 30
0.0
 40
0.0
 41
0.0
  0
VERTEX
  5
   7B1
  8
0
  6
CONTINUOUS
 10
84.7719977327549
 20
46.6782009580183
 30
0.0
 40
0.0
 41
0.0
  0
VERTEX
  5
   7B2
  8
0
  6
CONTINUOUS
 10
84.7547972979511
 20
46.7978818166484
 30
0.0
 40
0.0
 41
0.0
  0
VERTEX
  5
   7B3
  8
0
  6
CONTINUOUS
 10
84.7367685139822
 20
46.9174302587693
 30
0.0
 40
0.0
 41
0.0
  0
VERTEX
  5
   7B4
  8
0
  6
CONTINUOUS
 10
84.7178643599768
 20
47.0368312832963
 30
0.0
 40
0.0
 41
0.0
  0
VERTEX
  5
   7B5
  8
0
  6
CONTINUOUS
 10
84.698039135213
 20
47.1560695203663
 30
0.0
 40
0.0
 41
0.0
  0
VERTEX
  5
   7B6
  8
0
  6
CONTINUOUS
 10
84.6772488468787
 20
47.275129322975
 30
0.0
 40
0.0
 41
0.0
  0
VERTEX
  5
   7B7
  8
0
  6
CONTINUOUS
 10
84.6554515978321
 20
47.3939948586154
 30
0.0
 40
0.0
 41
0.0
  0
VERTEX
  5
   7B8
  8
0
  6
CONTINUOUS
 10
84.632607974362
 20
47.5126502009151
 30
0.0
 40
0.0
 41
0.0
  0
VERTEX
  5
   7B9
  8
0
  6
CONTINUOUS
 10
84.6086814339486
 20
47.6310794212745
 30
0.0
 40
0.0
 41
0.0
  0
VERTEX
  5
   7BA
  8
0
  6
CONTINUOUS
 10
84.5836386930241
 20
47.7492666805045
 30
0.0
 40
0.0
 41
0.0
  0
VERTEX
  5
   7BB
  8
0
  6
CONTINUOUS
 10
84.5574501147328
 20
47.8671963204645
 30
0.0
 40
0.0
 41
0.0
  0
VERTEX
  5
   7BC
  8
0
  6
CONTINUOUS
 10
84.5299823211039
 20
47.9853059940037
 30
0.0
 40
0.0
 41
0.0
  0
VERTEX
  5
   7BD
  8
0
  6
CONTINUOUS
 10
84.5013125449637
 20
48.1031253792014
 30
0.0
 40
0.0
 41
0.0
  0
VERTEX
  5
   7BE
  8
0
  6
CONTINUOUS
 10
84.4714238589245
 20
48.2206398437987
 30
0.0
 40
0.0
 41
0.0
  0
VERTEX
  5
   7BF
  8
0
  6
CONTINUOUS
 10
84.4403039820783
 20
48.3378354707251
 30
0.0
 40
0.0
 41
0.0
  0
VERTEX
  5
   7C0
  8
0
  6
CONTINUOUS
 10
84.4079453578258
 20
48.4546992307058
 30
0.0
 40
0.0
 41
0.0
  0
VERTEX
  5
   7C1
  8
0
  6
CONTINUOUS
 10
84.3743452317051
 20
48.5712191548684
 30
0.0
 40
0.0
 41
0.0
  0
VERTEX
  5
   7C2
  8
0
  6
CONTINUOUS
 10
84.33950572922
 20
48.6873845073499
 30
0.0
 40
0.0
 41
0.0
  0
VERTEX
  5
   7C3
  8
0
  6
CONTINUOUS
 10
84.3034339336694
 20
48.8031859579033
 30
0.0
 40
0.0
 41
0.0
  0
VERTEX
  5
   7C4
  8
0
  6
CONTINUOUS
 10
84.2661419639754
 20
48.9186157545049
 30
0.0
 40
0.0
 41
0.0
  0
VERTEX
  5
   7C5
  8
0
  6
CONTINUOUS
 10
84.2276470525123
 20
49.0336678959612
 30
0.0
 40
0.0
 41
0.0
  0
VERTEX
  5
   7C6
  8
0
  6
CONTINUOUS
 10
84.1879716229355
 20
49.1483383045155
 30
0.0
 40
0.0
 41
0.0
  0
VERTEX
  5
   7C7
  8
0
  6
CONTINUOUS
 10
84.1471433680097
 20
49.2626249984547
 30
0.0
 40
0.0
 41
0.0
  0
VERTEX
  5
   7C8
  8
0
  6
CONTINUOUS
 10
84.1051953274381
 20
49.3765282647169
 30
0.0
 40
0.0
 41
0.0
  0
VERTEX
  5
   7C9
  8
0
  6
CONTINUOUS
 10
84.0621659656909
 20
49.4900508314975
 30
0.0
 40
0.0
 41
0.0
  0
VERTEX
  5
   7CA
  8
0
  6
CONTINUOUS
 10
84.0180992498339
 20
49.6031980408566
 30
0.0
 40
0.0
 41
0.0
  0
VERTEX
  5
   7CB
  8
0
  6
CONTINUOUS
 10
83.9730447273576
 20
49.7159780213256
 30
0.0
 40
0.0
 41
0.0
  0
VERTEX
  5
   7CC
  8
0
  6
CONTINUOUS
 10
83.9270576040054
 20
49.8284018605144
 30
0.0
 40
0.0
 41
0.0
  0
VERTEX
  5
   7CD
  8
0
  6
CONTINUOUS
 10
83.8801988216029
 20
49.9404837777181
 30
0.0
 40
0.0
 41
0.0
  0
VERTEX
  5
   7CE
  8
0
  6
CONTINUOUS
 10
83.7841391943302
 20
50.1636954174177
 30
0.0
 40
0.0
 41
0.0
  0
VERTEX
  5
   7CF
  8
0
  6
CONTINUOUS
 10
83.720331183934
 20
50.3080130493066
 30
0.0
 40
0.0
 41
0.0
  0
VERTEX
  5
   7D0
  8
0
  6
CONTINUOUS
 10
83.6556076875059
 20
50.4519239484274
 30
0.0
 40
0.0
 41
0.0
  0
VERTEX
  5
   7D1
  8
0
  6
CONTINUOUS
 10
83.5242160822332
 20
50.7388181364058
 30
0.0
 40
0.0
 41
0.0
  0
VERTEX
  5
   7D2
  8
0
  6
CONTINUOUS
 10
83.2594281036789
 20
51.3111747507271
 30
0.0
 40
0.0
 41
0.0
  0
VERTEX
  5
   7D3
  8
0
  6
CONTINUOUS
 10
83.1290905320541
 20
51.5979254807136
 30
0.0
 40
0.0
 41
0.0
  0
SEQEND
  5
   7D4
  8
0
  6
CONTINUOUS
 62
     1
  0
LINE
  5
   7D5
  8
0
  6
CONTINUOUS
 62
     1
 10
87.9511430964476
 20
32.8074332892482
 30
0.0
 11
87.9511430964476
 21
51.5978051989484
 31
0.0
  0
LINE
  5
   7D6
  8
0
  6
CONTINUOUS
 62
     1
 10
86.5111430749899
 20
35.6266680632853
 30
0.0
 11
86.5111430749899
 21
51.5978051989484
 31
0.0
  0
LINE
  5
   7D7
  8
0
  6
CONTINUOUS
 62
     1
 10
85.0711430535322
 20
43.4784253976107
 30
0.0
 11
85.0711430535322
 21
51.5978051989484
 31
0.0
  0
LINE
  5
   7D8
  8
0
  6
CONTINUOUS
 62
     1
 10
83.6311430320746
 20
50.5057946740907
 30
0.0
 11
83.6311430320746
 21
51.5978051989484
 31
0.0
  0
LINE
  5
   7D9
  8
0
  6
CONTINUOUS
 62
     7
 10
83.5431411144337
 20
50.697800607902
 30
0.0
 11
82.6511289718051
 21
50.697800607902
 31
0.0
  0
LINE
  5
   7DA
  8
0
  6
CONTINUOUS
 62
     2
 10
123.951143632889
 20
115.997804632704
 30
0.0
 11
123.951143632889
 21
142.897808009872
 31
0.0
  0
LINE
  5
   7DB
  8
0
  6
DASHDOT
 62
     7
 10
109.951133031784
 20
143.497804837054
 30
0.0
 11
109.951133031784
 21
149.497804719926
 31
0.0
  0
LINE
  5
   7DC
  8
0
  6
DASHDOT
 62
     7
 10
112.95113297322
 20
146.49780477849
 30
0.0
 11
106.951133090347
 21
146.49780477849
 31
0.0
  0
LINE
  5
   7DD
  8
0
  6
DASHDOT
 62
     7
 10
106.351155819744
 20
147.697797527522
 30
0.0
 11
99.5511308201865
 21
147.697797527522
 31
0.0
  0
LINE
  5
   7DE
  8
0
  6
DASHDOT
 62
     7
 10
74.951130922582
 20
144.297797809102
 30
0.0
 11
74.951130922582
 21
151.097799016272
 31
0.0
  0
LINE
  5
   7DF
  8
0
  6
DASHDOT
 62
     7
 10
78.351131526167
 20
147.697798412687
 30
0.0
 11
71.5511303189971
 21
147.697798412687
 31
0.0
  0
LINE
  5
   7E0
  8
0
  6
CONTINUOUS
 62
     2
 10
123.951143632889
 20
142.897808009872
 30
0.0
 11
67.9511265650906
 21
142.897808009872
 31
0.0
  0
LINE
  5
   7E1
  8
0
  6
CONTINUOUS
 62
     2
 10
123.951143632889
 20
137.897807935366
 30
0.0
 11
67.9511265650906
 21
137.897807935366
 31
0.0
  0
LINE
  5
   7E2
  8
0
  6
CONTINUOUS
 62
     2
 10
123.951143632889
 20
137.497807929406
 30
0.0
 11
67.9511265650906
 21
137.497807929406
 31
0.0
  0
LINE
  5
   7E3
  8
0
  6
CONTINUOUS
 62
     2
 10
79.5511429712778
 20
109.497807512173
 30
0.0
 11
67.9511265650906
 21
109.497807512173
 31
0.0
  0
LINE
  5
   7E4
  8
0
  6
CONTINUOUS
 62
     2
 10
79.5511429712778
 20
109.097807506213
 30
0.0
 11
68.3511265710511
 21
109.097807506213
 31
0.0
  0
LINE
  5
   7E5
  8
0
  6
CONTINUOUS
 62
     7
 10
123.951143632889
 20
142.897808009872
 30
0.0
 11
123.951143632889
 21
151.577800890428
 31
0.0
  0
LINE
  5
   7E6
  8
0
  6
CONTINUOUS
 62
     7
 10
67.9511265650906
 20
142.897808009872
 30
0.0
 11
67.9511265650906
 21
151.577800890428
 31
0.0
  0
LINE
  5
   7E7
  8
0
  6
CONTINUOUS
 62
     2
 10
67.9511265650906
 20
109.497807512173
 30
0.0
 11
67.9511265650906
 21
142.897808009872
 31
0.0
  0
LINE
  5
   7E8
  8
0
  6
CONTINUOUS
 62
     2
 10
68.3511265710511
 20
109.097807506213
 30
0.0
 11
68.3511265710511
 21
109.497807512173
 31
0.0
  0
LINE
  5
   7E9
  8
0
  6
CONTINUOUS
 62
     7
 10
82.0111430079347
 20
115.997804632704
 30
0.0
 11
82.0111430079347
 21
137.497807929406
 31
0.0
  0
LINE
  5
   7EA
  8
0
  6
CONTINUOUS
 62
     7
 10
68.9911428139327
 20
109.497807512173
 30
0.0
 11
68.9911428139327
 21
137.497807929406
 31
0.0
  0
LINE
  5
   7EB
  8
0
  6
CONTINUOUS
 62
     7
 10
70.4311428353904
 20
109.497807512173
 30
0.0
 11
70.4311428353904
 21
137.497807929406
 31
0.0
  0
LINE
  5
   7EC
  8
0
  6
CONTINUOUS
 62
     7
 10
71.8711428568481
 20
109.497807512173
 30
0.0
 11
71.8711428568481
 21
137.497807929406
 31
0.0
  0
LINE
  5
   7ED
  8
0
  6
CONTINUOUS
 62
     7
 10
73.3111428783058
 20
109.497807512173
 30
0.0
 11
73.3111428783058
 21
137.497807929406
 31
0.0
  0
LINE
  5
   7EE
  8
0
  6
CONTINUOUS
 62
     7
 10
74.7511428997634
 20
109.497807512173
 30
0.0
 11
74.7511428997634
 21
137.497807929406
 31
0.0
  0
LINE
  5
   7EF
  8
0
  6
CONTINUOUS
 62
     7
 10
76.1911429212211
 20
109.497807512173
 30
0.0
 11
76.1911429212211
 21
137.497807929406
 31
0.0
  0
LINE
  5
   7F0
  8
0
  6
CONTINUOUS
 62
     7
 10
77.6311429426788
 20
109.497807512173
 30
0.0
 11
77.6311429426788
 21
137.497807929406
 31
0.0
  0
LINE
  5
   7F1
  8
0
  6
CONTINUOUS
 62
     7
 10
79.0711429641364
 20
109.497807512173
 30
0.0
 11
79.0711429641364
 21
137.497807929406
 31
0.0
  0
LINE
  5
   7F2
  8
0
  6
CONTINUOUS
 62
     7
 10
80.5111429855941
 20
115.997804632704
 30
0.0
 11
80.5111429855941
 21
137.497807929406
 31
0.0
  0
LINE
  5
   7F3
  8
0
  6
CONTINUOUS
 62
     7
 10
82.0111430079347
 20
137.897807935366
 30
0.0
 11
82.0111430079347
 21
142.897808009872
 31
0.0
  0
LINE
  5
   7F4
  8
0
  6
CONTINUOUS
 62
     7
 10
80.5111429855941
 20
137.897807935366
 30
0.0
 11
80.5111429855941
 21
142.897808009872
 31
0.0
  0
LINE
  5
   7F5
  8
0
  6
CONTINUOUS
 62
     7
 10
79.0711429641364
 20
137.897807935366
 30
0.0
 11
79.0711429641364
 21
142.897808009872
 31
0.0
  0
LINE
  5
   7F6
  8
0
  6
CONTINUOUS
 62
     7
 10
77.6311429426788
 20
137.897807935366
 30
0.0
 11
77.6311429426788
 21
142.897808009872
 31
0.0
  0
LINE
  5
   7F7
  8
0
  6
CONTINUOUS
 62
     7
 10
76.1911429212211
 20
137.897807935366
 30
0.0
 11
76.1911429212211
 21
142.897808009872
 31
0.0
  0
LINE
  5
   7F8
  8
0
  6
CONTINUOUS
 62
     7
 10
74.7511428997634
 20
137.897807935366
 30
0.0
 11
74.7511428997634
 21
142.897808009872
 31
0.0
  0
LINE
  5
   7F9
  8
0
  6
CONTINUOUS
 62
     7
 10
73.3111428783058
 20
137.897807935366
 30
0.0
 11
73.3111428783058
 21
142.897808009872
 31
0.0
  0
LINE
  5
   7FA
  8
0
  6
CONTINUOUS
 62
     7
 10
71.8711428568481
 20
137.897807935366
 30
0.0
 11
71.8711428568481
 21
142.897808009872
 31
0.0
  0
LINE
  5
   7FB
  8
0
  6
CONTINUOUS
 62
     7
 10
70.4311428353904
 20
137.897807935366
 30
0.0
 11
70.4311428353904
 21
142.897808009872
 31
0.0
  0
LINE
  5
   7FC
  8
0
  6
CONTINUOUS
 62
     7
 10
68.9911428139327
 20
137.897807935366
 30
0.0
 11
68.9911428139327
 21
142.897808009872
 31
0.0
  0
LINE
  5
   7FD
  8
0
  6
CONTINUOUS
 62
     7
 10
68.3511265710511
 20
109.097807506213
 30
0.0
 11
67.9511265650906
 21
109.097807506213
 31
0.0
  0
LINE
  5
   7FE
  8
0
  6
DASHDOT
 62
     7
 10
74.9511375956784
 20
42.8978066041645
 30
0.0
 11
74.9511375956784
 21
51.6978067352947
 31
0.0
  0
LINE
  5
   7FF
  8
0
  6
DASHDOT
 62
     7
 10
79.3511376612435
 20
47.2978066697296
 30
0.0
 11
70.5511375301133
 21
47.2978066697296
 31
0.0
  0
TEXT
  5
   800
  8
0
  6
CONTINUOUS
 62
     7
 10
140.581157348761
 20
75.636899753676
 30
0.0
 40
2.99999994933605
  1
=    =
 50
89.9999999480344
 41
0.91666673368878
 72
     1
 11
139.081157381316
 21
83.6119002175915
 31
0.0
 73
     2
  0
INSERT
  5
   801
  8
0
  6
CONTINUOUS
 62
     7
  2
*UDIM354
 10
0.0
 20
0.0
 30
0.0
  0
INSERT
  5
   802
  8
0
  6
CONTINUOUS
 62
     7
  2
*UDIM355
 10
0.0
 20
0.0
 30
0.0
  0
INSERT
  5
   803
  8
0
  6
CONTINUOUS
 62
     7
  2
*UDIM356
 10
0.0
 20
0.0
 30
0.0
  0
INSERT
  5
   804
  8
0
  6
CONTINUOUS
 62
     7
  2
*UDIM357
 10
0.0
 20
0.0
 30
0.0
  0
TEXT
  5
   805
  8
0
  6
CONTINUOUS
 62
     7
 10
94.6051431880421
 20
10.0221164749345
 30
0.0
 40
2.99999994933605
  1
=    =
 50
359.999999948034
 41
0.91666673368878
 72
     1
 11
102.580143651952
 21
11.5221164424095
 31
0.0
 73
     2
  0
TEXT
  5
   806
  8
0
  6
CONTINUOUS
 62
     7
 10
94.277997797425
 20
20.0764150256342
 30
0.0
 40
2.99999994933605
  1
=    =
 50
359.999999948034
 41
0.91666673368878
 72
     1
 11
102.252998261335
 21
21.5764149931092
 31
0.0
 73
     2
  0
INSERT
  5
   807
  8
0
  6
CONTINUOUS
 62
     7
  2
*UDIM358
 10
0.0
 20
0.0
 30
0.0
  0
INSERT
  5
   808
  8
0
  6
CONTINUOUS
 62
     7
  2
*UDIM359
 10
0.0
 20
0.0
 30
0.0
  0
INSERT
  5
   809
  8
0
  6
CONTINUOUS
 62
     7
  2
*UDIM360
 10
0.0
 20
0.0
 30
0.0
  0
INSERT
  5
   80A
  8
0
  6
CONTINUOUS
 62
     7
  2
*UDIM361
 10
0.0
 20
0.0
 30
0.0
  0
INSERT
  5
   80B
  8
0
  6
CONTINUOUS
 62
     7
  2
*UDIM362
 10
0.0
 20
0.0
 30
0.0
  0
INSERT
  5
   80C
  8
0
  6
CONTINUOUS
 62
     7
  2
*UDIM363
 10
0.0
 20
0.0
 30
0.0
  0
INSERT
  5
   80D
  8
0
  6
CONTINUOUS
 62
     7
  2
*UDIM364
 10
0.0
 20
0.0
 30
0.0
  0
TEXT
  5
   80E
  8
0
  6
CONTINUOUS
 62
     7
 10
143.287511267975
 20
82.1761276374234
 30
0.0
 40
2.99999994933605
  1
X
 50
359.999999948034
 41
0.916666607525612
 72
     2
 11
145.487511086181
 21
82.1761276354392
 31
0.0
  0
TEXT
  5
   80F
  8
0
  6
CONTINUOUS
 62
     7
 10
101.239254812632
 20
184.975141810153
 30
0.0
 40
2.99999994933605
  1
Y
 50
359.999999948034
 41
0.916666607525612
 72
     2
 11
103.439254630838
 21
184.975141808168
 31
0.0
  0
TEXT
  5
   810
  8
0
  6
CONTINUOUS
 62
     7
 10
41.9771323475263
 20
83.3100401975683
 30
0.0
 40
2.99999994933605
  1
X
 50
359.999999948034
 41
0.916666607525612
 72
     2
 11
44.1771321657322
 21
83.310040195584
 31
0.0
  0
TEXT
  5
   811
  8
0
  6
CONTINUOUS
 62
     7
 10
101.241221578937
 20
4.94531593971968
 30
0.0
 40
2.99999994933605
  1
Y
 50
359.999999948034
 41
0.916666607525612
 72
     2
 11
103.441221397142
 21
4.9453159377354
 31
0.0
  0
LINE
  5
   812
  8
0
  6
DASHDOT
 62
     7
 10
158.360977172852
 20
-9.06629867751818
 30
0.0
 11
158.360977172852
 21
-84.4274420987344
 31
0.0
  0
LINE
  5
   813
  8
0
  6
DASHDOT
 62
     7
 10
178.366035951174
 20
-58.7310523986816
 30
0.0
 11
135.331385427838
 21
-58.7310523986816
 31
0.0
  0
LINE
  5
   814
  8
0
  6
DASHDOT
 62
     7
 10
162.735977172852
 20
-14.2570216483981
 30
0.0
 11
162.735977172852
 21
-79.9979110584253
 31
0.0
  0
LINE
  5
   815
  8
0
  6
DASHDOT
 62
     7
 10
145.235977172852
 20
-38.4011763897436
 30
0.0
 11
145.235977172852
 21
-80.2622970838619
 31
0.0
  0
CIRCLE
  5
   816
  8
0
  6
CONTINUOUS
 62
     7
 10
145.235977172852
 20
-19.5435523986816
 30
0.0
 40
0.6875
  0
CIRCLE
  5
   817
  8
0
  6
CONTINUOUS
 62
     7
 10
162.735977172852
 20
-19.5435523986816
 30
0.0
 40
0.6875
  0
CIRCLE
  5
   818
  8
0
  6
CONTINUOUS
 62
     7
 10
162.735977172852
 20
-75.5435523986816
 30
0.0
 40
0.6875
  0
CIRCLE
  5
   819
  8
0
  6
CONTINUOUS
 62
     7
 10
145.235977172852
 20
-75.5435523986816
 30
0.0
 40
0.6875
  0
LINE
  5
   81A
  8
0
  6
DASHDOT
 62
     5
 10
162.735977172852
 20
-38.8560523986816
 30
0.0
 11
162.735977172852
 21
-42.7310523986816
 31
0.0
  0
LINE
  5
   81B
  8
0
  6
DASHDOT
 62
     5
 10
164.673477172852
 20
-19.5435523986816
 30
0.0
 11
160.798477172852
 21
-19.5435523986816
 31
0.0
  0
LINE
  5
   81C
  8
0
  6
DASHDOT
 62
     5
 10
145.235977172852
 20
-14.1043533257252
 30
0.0
 11
145.235977172852
 21
-42.7310523986816
 31
0.0
  0
LINE
  5
   81D
  8
0
  6
DASHDOT
 62
     5
 10
147.173477172852
 20
-19.5435523986816
 30
0.0
 11
143.298477172852
 21
-19.5435523986816
 31
0.0
  0
LINE
  5
   81E
  8
0
  6
DASHDOT
 62
     5
 10
145.235977172852
 20
-73.6060523986816
 30
0.0
 11
145.235977172852
 21
-77.4810523986816
 31
0.0
  0
LINE
  5
   81F
  8
0
  6
DASHDOT
 62
     5
 10
147.173477172852
 20
-75.5435523986816
 30
0.0
 11
143.298477172852
 21
-75.5435523986816
 31
0.0
  0
LINE
  5
   820
  8
0
  6
DASHDOT
 62
     5
 10
162.735977172852
 20
-73.6060523986816
 30
0.0
 11
162.735977172852
 21
-77.4810523986816
 31
0.0
  0
LINE
  5
   821
  8
0
  6
DASHDOT
 62
     5
 10
164.673477172852
 20
-75.5435523986816
 30
0.0
 11
160.798477172852
 21
-75.5435523986816
 31
0.0
  0
LINE
  5
   822
  8
0
  6
CONTINUOUS
 62
     3
 10
167.735977172852
 20
-16.0883890998532
 30
0.0
 11
140.235977172852
 21
-16.0883890998532
 31
0.0
  0
LINE
  5
   823
  8
0
  6
CONTINUOUS
 62
     3
 10
167.735977172852
 20
-78.6060523986816
 30
0.0
 11
140.235977172852
 21
-78.6060523986816
 31
0.0
  0
LINE
  5
   824
  8
0
  6
CONTINUOUS
 62
     3
 10
140.235977172852
 20
-16.0883890998532
 30
0.0
 11
140.235977172852
 21
-78.6060523986816
 31
0.0
  0
LINE
  5
   825
  8
0
  6
CONTINUOUS
 62
     3
 10
167.735977172852
 20
-16.0883890998532
 30
0.0
 11
167.735977172852
 21
-78.6060523986816
 31
0.0
  0
INSERT
  5
   826
  8
0
  6
CONTINUOUS
 62
     7
  2
*UDIM365
 10
0.0
 20
0.0
 30
0.0
  0
INSERT
  5
   827
  8
0
  6
CONTINUOUS
 62
     7
  2
*UDIM366
 10
0.0
 20
0.0
 30
0.0
  0
TEXT
  5
   828
  8
0
  6
CONTINUOUS
 62
     7
 10
157.75397032228
 20
-6.04425433079103
 30
0.0
 40
3.00000002980232
  1
Y
 50
359.999999896069
 41
0.916666604744064
 72
     2
 11
159.95397019115
 21
-6.04425433477065
 31
0.0
  0
INSERT
  5
   829
  8
0
  6
CONTINUOUS
 62
     7
  2
*UDIM367
 10
0.0
 20
0.0
 30
0.0
  0
INSERT
  5
   82A
  8
0
  6
CONTINUOUS
 62
     7
  2
*UDIM368
 10
0.0
 20
0.0
 30
0.0
  0
INSERT
  5
   82B
  8
0
  6
CONTINUOUS
 62
     7
  2
*UDIM369
 10
0.0
 20
0.0
 30
0.0
  0
TEXT
  5
   82C
  8
0
  6
CONTINUOUS
 62
     7
 10
157.475428876548
 20
-96.6510696689258
 30
0.0
 40
3.00000002980232
  1
Y
 50
359.999999896069
 41
0.916666604744064
 72
     2
 11
159.675428745417
 21
-96.6510696729054
 31
0.0
  0
TEXT
  5
   82D
  8
0
  6
CONTINUOUS
 62
     7
 10
123.911186215548
 20
-60.1621424237857
 30
0.0
 40
3.00000002980232
  1
X
 50
359.999999896069
 41
0.916666604744064
 72
     2
 11
126.111186084418
 21
-60.1621424277653
 31
0.0
  0
TEXT
  5
   82E
  8
0
  6
CONTINUOUS
 62
     7
 10
180.872909543185
 20
-60.0228717605243
 30
0.0
 40
3.00000002980232
  1
X
 50
359.999999896069
 41
0.916666604744064
 72
     2
 11
183.072909412055
 21
-60.0228717645039
 31
0.0
  0
LINE
  5
   82F
  8
0
  6
DASHDOT
 62
     7
 10
236.112777709961
 20
-5.72940533909539
 30
0.0
 11
236.112777709961
 21
-90.3089660504502
 31
0.0
  0
LINE
  5
   830
  8
0
  6
DASHDOT
 62
     7
 10
253.808482072707
 20
-58.7310523986816
 30
0.0
 11
213.083185964947
 21
-58.7310523986816
 31
0.0
  0
LINE
  5
   831
  8
0
  6
DASHDOT
 62
     7
 10
240.487777709961
 20
-35.6523965829913
 30
0.0
 11
240.487777709961
 21
-79.9979110584253
 31
0.0
  0
LINE
  5
   832
  8
0
  6
DASHDOT
 62
     7
 10
222.987777709961
 20
-38.4011763897436
 30
0.0
 11
222.987777709961
 21
-80.2622970838619
 31
0.0
  0
CIRCLE
  5
   833
  8
0
  6
CONTINUOUS
 62
     7
 10
222.987777709961
 20
-19.5435523986816
 30
0.0
 40
0.6875
  0
CIRCLE
  5
   834
  8
0
  6
CONTINUOUS
 62
     7
 10
240.487777709961
 20
-19.5435523986816
 30
0.0
 40
0.6875
  0
CIRCLE
  5
   835
  8
0
  6
CONTINUOUS
 62
     7
 10
240.487777709961
 20
-75.5435523986816
 30
0.0
 40
0.6875
  0
CIRCLE
  5
   836
  8
0
  6
CONTINUOUS
 62
     7
 10
222.987777709961
 20
-75.5435523986816
 30
0.0
 40
0.6875
  0
LINE
  5
   837
  8
0
  6
DASHDOT
 62
     5
 10
240.487777709961
 20
-15.3475096674905
 30
0.0
 11
240.487777709961
 21
-27.4737364397982
 31
0.0
  0
LINE
  5
   838
  8
0
  6
DASHDOT
 62
     5
 10
242.425277709961
 20
-19.5435523986816
 30
0.0
 11
238.550277709961
 21
-19.5435523986816
 31
0.0
  0
LINE
  5
   839
  8
0
  6
DASHDOT
 62
     5
 10
222.987777709961
 20
-15.9799927185641
 30
0.0
 11
222.987777709961
 21
-42.7310523986816
 31
0.0
  0
LINE
  5
   83A
  8
0
  6
DASHDOT
 62
     5
 10
224.925277709961
 20
-19.5435523986816
 30
0.0
 11
221.050277709961
 21
-19.5435523986816
 31
0.0
  0
LINE
  5
   83B
  8
0
  6
DASHDOT
 62
     5
 10
222.987777709961
 20
-73.6060523986816
 30
0.0
 11
222.987777709961
 21
-77.4810523986816
 31
0.0
  0
LINE
  5
   83C
  8
0
  6
DASHDOT
 62
     5
 10
224.925277709961
 20
-75.5435523986816
 30
0.0
 11
221.050277709961
 21
-75.5435523986816
 31
0.0
  0
LINE
  5
   83D
  8
0
  6
DASHDOT
 62
     5
 10
240.487777709961
 20
-73.6060523986816
 30
0.0
 11
240.487777709961
 21
-77.4810523986816
 31
0.0
  0
LINE
  5
   83E
  8
0
  6
DASHDOT
 62
     5
 10
242.425277709961
 20
-75.5435523986816
 30
0.0
 11
238.550277709961
 21
-75.5435523986816
 31
0.0
  0
ARC
  5
   83F
  8
0
  6
CONTINUOUS
 62
     7
 10
218.612777709961
 20
-13.7935523986816
 30
0.0
 40
3.75
 50
449.999999896069
 51
629.999999896069
  0
ARC
  5
   840
  8
0
  6
CONTINUOUS
 62
     7
 10
244.862777709961
 20
-13.7935523986816
 30
0.0
 40
3.75
 50
269.999999896069
 51
449.999999896069
  0
ARC
  5
   841
  8
0
  6
CONTINUOUS
 62
     7
 10
244.862777709961
 20
-81.2935523986816
 30
0.0
 40
3.75
 50
269.999999896069
 51
449.999999896069
  0
ARC
  5
   842
  8
0
  6
CONTINUOUS
 62
     7
 10
218.612777709961
 20
-81.2935523986816
 30
0.0
 40
3.75
 50
449.999999896069
 51
629.999999896069
  0
LINE
  5
   843
  8
0
  6
CONTINUOUS
 62
     7
 10
244.862777709961
 20
-10.0435523986816
 30
0.0
 11
218.612777709961
 21
-10.0435523986816
 31
0.0
  0
LINE
  5
   844
  8
0
  6
CONTINUOUS
 62
     7
 10
244.862777709961
 20
-17.5435523986816
 30
0.0
 11
218.612777709961
 21
-17.5435523986816
 31
0.0
  0
LINE
  5
   845
  8
0
  6
CONTINUOUS
 62
     7
 10
244.862777709961
 20
-77.5435523986816
 30
0.0
 11
218.612777709961
 21
-77.5435523986816
 31
0.0
  0
LINE
  5
   846
  8
0
  6
CONTINUOUS
 62
     7
 10
244.862777709961
 20
-85.0435523986816
 30
0.0
 11
218.612777709961
 21
-85.0435523986816
 31
0.0
  0
LINE
  5
   847
  8
0
  6
DASHDOT
 62
     7
 10
244.862777709961
 20
-8.54220092016794
 30
0.0
 11
244.862777709961
 21
-18.5569693705226
 31
0.0
  0
LINE
  5
   848
  8
0
  6
DASHDOT
 62
     7
 10
249.362777709961
 20
-13.7935523986816
 30
0.0
 11
240.362777709961
 21
-13.7935523986816
 31
0.0
  0
LINE
  5
   849
  8
0
  6
DASHDOT
 62
     7
 10
218.612777709961
 20
-8.36953249861011
 30
0.0
 11
218.612777709961
 21
-18.7871939325997
 31
0.0
  0
LINE
  5
   84A
  8
0
  6
DASHDOT
 62
     7
 10
223.112777709961
 20
-13.7935523986816
 30
0.0
 11
213.66307406051
 21
-13.7935523986816
 31
0.0
  0
LINE
  5
   84B
  8
0
  6
DASHDOT
 62
     7
 10
218.612777709961
 20
-76.7935523986816
 30
0.0
 11
218.612777709961
 21
-86.2259966993213
 31
0.0
  0
LINE
  5
   84C
  8
0
  6
DASHDOT
 62
     7
 10
223.112777709961
 20
-81.2935523986816
 30
0.0
 11
213.202624936355
 21
-81.2935523986816
 31
0.0
  0
LINE
  5
   84D
  8
0
  6
DASHDOT
 62
     7
 10
244.862777709961
 20
-76.7935523986816
 30
0.0
 11
244.862777709961
 21
-86.5137774019177
 31
0.0
  0
LINE
  5
   84E
  8
0
  6
DASHDOT
 62
     7
 10
249.362777709961
 20
-81.2935523986816
 30
0.0
 11
240.362777709961
 21
-81.2935523986816
 31
0.0
  0
LINE
  5
   84F
  8
0
  6
CONTINUOUS
 62
     3
 10
211.591053001816
 20
-7.85152723393661
 30
0.0
 11
211.591053001816
 21
-88.0677931959383
 31
0.0
  0
LINE
  5
   850
  8
0
  6
CONTINUOUS
 62
     3
 10
251.333568030378
 20
-7.85152723393661
 30
0.0
 11
251.333568030378
 21
-88.0677931959383
 31
0.0
  0
LINE
  5
   851
  8
0
  6
CONTINUOUS
 62
     3
 10
251.333568030378
 20
-88.0677931959383
 30
0.0
 11
211.591053001816
 21
-88.0677931959383
 31
0.0
  0
LINE
  5
   852
  8
0
  6
CONTINUOUS
 62
     3
 10
251.333568030378
 20
-7.85152723393661
 30
0.0
 11
211.591053001816
 21
-7.85152723393661
 31
0.0
  0
INSERT
  5
   853
  8
0
  6
CONTINUOUS
 62
     7
  2
*UDIM370
 10
0.0
 20
0.0
 30
0.0
  0
INSERT
  5
   854
  8
0
  6
CONTINUOUS
 62
     7
  2
*UDIM371
 10
0.0
 20
0.0
 30
0.0
  0
INSERT
  5
   855
  8
0
  6
CONTINUOUS
 62
     7
  2
*UDIM372
 10
0.0
 20
0.0
 30
0.0
  0
INSERT
  5
   856
  8
0
  6
CONTINUOUS
 62
     7
  2
*UDIM373
 10
0.0
 20
0.0
 30
0.0
  0
INSERT
  5
   857
  8
0
  6
CONTINUOUS
 62
     7
  2
*UDIM374
 10
0.0
 20
0.0
 30
0.0
  0
TEXT
  5
   858
  8
0
  6
CONTINUOUS
 62
     7
 10
234.193521377711
 20
-3.88763811985353
 30
0.0
 40
3.00000002980232
  1
Y
 50
359.999999896069
 41
0.916666604744064
 72
     2
 11
236.393521246581
 21
-3.88763812383315
 31
0.0
  0
TEXT
  5
   859
  8
0
  6
CONTINUOUS
 62
     7
 10
234.037947890429
 20
-94.7107200900684
 30
0.0
 40
3.00000002980232
  1
Y
 50
359.999999896069
 41
0.916666604744064
 72
     2
 11
236.237947759299
 21
-94.710720094048
 31
0.0
  0
TEXT
  5
   85A
  8
0
  6
CONTINUOUS
 62
     7
 10
197.20201873508
 20
-59.699696568645
 30
0.0
 40
3.00000002980232
  1
X
 50
359.999999896069
 41
0.916666604744064
 72
     2
 11
199.402018603949
 21
-59.6996965726246
 31
0.0
  0
TEXT
  5
   85B
  8
0
  6
CONTINUOUS
 62
     7
 10
261.636117932467
 20
-59.8148088733325
 30
0.0
 40
3.00000002980232
  1
X
 50
359.999999896069
 41
0.916666604744064
 72
     2
 11
263.836117801337
 21
-59.8148088773122
 31
0.0
  0
ENDSEC
  0
EOF
