  0
SECTION
  2
HEADER
  9
$ACADVER
  1
AC1009
  9
$INSBASE
 10
0.0
 20
0.0
 30
0.0
  9
$EXTMIN
 10
0.579164
 20
0.584843
 30
0.0
  9
$EXTMAX
 10
392.579164
 20
263.084843
 30
0.0
  9
$LIMMIN
 10
0.0
 20
0.0
  9
$LIMMAX
 10
12.0
 20
9.0
  9
$ORTHOMODE
 70
     1
  9
$REGENMODE
 70
     1
  9
$FILLMODE
 70
     1
  9
$QTEXTMODE
 70
     0
  9
$MIRRTEXT
 70
     1
  9
$DRAGMODE
 70
     2
  9
$LTSCALE
 40
5.0
  9
$OSMODE
 70
     0
  9
$ATTMODE
 70
     1
  9
$TEXTSIZE
 40
2.0
  9
$TRACEWID
 40
0.05
  9
$TEXTSTYLE
  7
STANDARD
  9
$CLAYER
  8
0
  9
$CELTYPE
  6
CONTINUOUS
  9
$CECOLOR
 62
   256
  9
$DIMSCALE
 40
1.0
  9
$DIMASZ
 40
0.18
  9
$DIMEXO
 40
0.0625
  9
$DIMDLI
 40
0.38
  9
$DIMRND
 40
0.0
  9
$DIMDLE
 40
0.0
  9
$DIMEXE
 40
0.18
  9
$DIMTP
 40
0.0
  9
$DIMTM
 40
0.0
  9
$DIMTXT
 40
0.18
  9
$DIMCEN
 40
0.09
  9
$DIMTSZ
 40
0.0
  9
$DIMTOL
 70
     0
  9
$DIMLIM
 70
     0
  9
$DIMTIH
 70
     1
  9
$DIMTOH
 70
     1
  9
$DIMSE1
 70
     0
  9
$DIMSE2
 70
     0
  9
$DIMTAD
 70
     0
  9
$DIMZIN
 70
     0
  9
$DIMBLK
  1

  9
$DIMASO
 70
     1
  9
$DIMSHO
 70
     1
  9
$DIMPOST
  1

  9
$DIMAPOST
  1

  9
$DIMALT
 70
     0
  9
$DIMALTD
 70
     2
  9
$DIMALTF
 40
25.4
  9
$DIMLFAC
 40
1.0
  9
$DIMTOFL
 70
     0
  9
$DIMTVP
 40
0.0
  9
$DIMTIX
 70
     0
  9
$DIMSOXD
 70
     0
  9
$DIMSAH
 70
     0
  9
$DIMBLK1
  1

  9
$DIMBLK2
  1

  9
$DIMSTYLE
  2
*UNNAMED
  9
$DIMCLRD
 70
     0
  9
$DIMCLRE
 70
     0
  9
$DIMCLRT
 70
     0
  9
$DIMTFAC
 40
1.0
  9
$DIMGAP
 40
0.09
  9
$LUNITS
 70
     2
  9
$LUPREC
 70
     4
  9
$SKETCHINC
 40
0.1
  9
$FILLETRAD
 40
0.0
  9
$AUNITS
 70
     0
  9
$AUPREC
 70
     0
  9
$MENU
  1
acad
  9
$ELEVATION
 40
0.0
  9
$PELEVATION
 40
0.0
  9
$THICKNESS
 40
0.0
  9
$LIMCHECK
 70
     0
  9
$BLIPMODE
 70
     1
  9
$CHAMFERA
 40
0.0
  9
$CHAMFERB
 40
0.0
  9
$SKPOLY
 70
     0
  9
$TDCREATE
 40
2448717.497950347
  9
$TDUPDATE
 40
2448936.909253356
  9
$TDINDWG
 40
0.0234527778
  9
$TDUSRTIMER
 40
0.0234527778
  9
$USRTIMER
 70
     1
  9
$ANGBASE
 50
0.0
  9
$ANGDIR
 70
     0
  9
$PDMODE
 70
     0
  9
$PDSIZE
 40
0.0
  9
$PLINEWID
 40
0.0
  9
$COORDS
 70
     2
  9
$SPLFRAME
 70
     0
  9
$SPLINETYPE
 70
     6
  9
$SPLINESEGS
 70
     8
  9
$ATTDIA
 70
     0
  9
$ATTREQ
 70
     1
  9
$HANDLING
 70
     0
  9
$HANDSEED
  5
0
  9
$SURFTAB1
 70
   250
  9
$SURFTAB2
 70
   250
  9
$SURFTYPE
 70
     6
  9
$SURFU
 70
     6
  9
$SURFV
 70
     6
  9
$UCSNAME
  2

  9
$UCSORG
 10
0.0
 20
0.0
 30
0.0
  9
$UCSXDIR
 10
1.0
 20
0.0
 30
0.0
  9
$UCSYDIR
 10
0.0
 20
1.0
 30
0.0
  9
$PUCSNAME
  2

  9
$PUCSORG
 10
0.0
 20
0.0
 30
0.0
  9
$PUCSXDIR
 10
1.0
 20
0.0
 30
0.0
  9
$PUCSYDIR
 10
0.0
 20
1.0
 30
0.0
  9
$USERI1
 70
     0
  9
$USERI2
 70
     0
  9
$USERI3
 70
     0
  9
$USERI4
 70
     0
  9
$USERI5
 70
     0
  9
$USERR1
 40
0.0
  9
$USERR2
 40
0.0
  9
$USERR3
 40
0.0
  9
$USERR4
 40
0.0
  9
$USERR5
 40
0.0
  9
$WORLDVIEW
 70
     1
  9
$SHADEDGE
 70
     3
  9
$SHADEDIF
 70
    70
  9
$TILEMODE
 70
     1
  9
$MAXACTVP
 70
    16
  9
$PINSBASE
 10
0.0
 20
0.0
 30
0.0
  9
$PLIMCHECK
 70
     0
  9
$PEXTMIN
 10
1.000000E+20
 20
1.000000E+20
 30
1.000000E+20
  9
$PEXTMAX
 10
-1.000000E+20
 20
-1.000000E+20
 30
-1.000000E+20
  9
$PLIMMIN
 10
0.0
 20
0.0
  9
$PLIMMAX
 10
12.0
 20
9.0
  9
$UNITMODE
 70
     0
  9
$VISRETAIN
 70
     0
  9
$PLINEGEN
 70
     0
  9
$PSLTSCALE
 70
     0
  9
$TREEDEPTH
 70
  3020
  9
$DWGCODEPAGE
  3
undefined
  0
ENDSEC
  0
SECTION
  2
TABLES
  0
TABLE
  2
VPORT
 70
     2
  0
VPORT
  2
*ACTIVE
 70
     0
 10
0.0
 20
0.0
 11
1.0
 21
1.0
 12
222.522843
 22
142.040485
 13
0.0
 23
0.0
 14
2.5
 24
2.5
 15
0.0
 25
0.0
 16
0.0
 26
0.0
 36
1.0
 17
0.0
 27
0.0
 37
0.0
 40
284.080971
 41
1.566616
 42
50.0
 43
0.0
 44
0.0
 50
0.0
 51
0.0
 71
     0
 72
   100
 73
     1
 74
     1
 75
     1
 76
     0
 77
     0
 78
     0
  0
ENDTAB
  0
TABLE
  2
LTYPE
 70
     4
  0
LTYPE
  2
CONTINUOUS
 70
    64
  3
Solid line
 72
    65
 73
     0
 40
0.0
  0
LTYPE
  2
DASHED
 70
    64
  3
__ __ __ __ __ __ __ __ __ __ __ __ __ __ __ __
 72
    65
 73
     2
 40
0.75
 49
0.5
 49
-0.25
  0
LTYPE
  2
CENTER
 70
    64
  3
____ _ ____ _ ____ _ ____ _ ____ _ ____ _ ____ 
 72
    65
 73
     4
 40
2.0
 49
1.25
 49
-0.25
 49
0.25
 49
-0.25
  0
LTYPE
  2
HIDDEN
 70
    64
  3
__ __ __ __ __ __ __ __ __ __ __ __ __ __ __ __
 72
    65
 73
     2
 40
0.375
 49
0.25
 49
-0.125
  0
ENDTAB
  0
TABLE
  2
LAYER
 70
    14
  0
LAYER
  2
0
 70
    64
 62
     7
  6
CONTINUOUS
  0
LAYER
  2
RAAMI
 70
    64
 62
    -4
  6
CONTINUOUS
  0
LAYER
  2
PAKSU
 70
    64
 62
    -3
  6
CONTINUOUS
  0
LAYER
  2
OHUT
 70
    64
 62
    -6
  6
CONTINUOUS
  0
LAYER
  2
SWEDEN
 70
    64
 62
    -7
  6
CONTINUOUS
  0
LAYER
  2
SWEDEN2
 70
    64
 62
    -5
  6
CONTINUOUS
  0
LAYER
  2
BASE
 70
    64
 62
    -7
  6
CONTINUOUS
  0
LAYER
  2
21
 70
    64
 62
    -2
  6
CONTINUOUS
  0
LAYER
  2
HEL035
 70
    64
 62
    -7
  6
CONTINUOUS
  0
LAYER
  2
MUO
 70
    64
 62
    -7
  6
CONTINUOUS
  0
LAYER
  2
1
 70
    64
 62
    -2
  6
CONTINUOUS
  0
LAYER
  2
BASE1
 70
    64
 62
    -1
  6
CONTINUOUS
  0
LAYER
  2
TEKS
 70
    64
 62
    -5
  6
CONTINUOUS
  0
LAYER
  2
DEFPOINTS
 70
    64
 62
    -7
  6
CONTINUOUS
  0
ENDTAB
  0
TABLE
  2
STYLE
 70
     4
  0
STYLE
  2
STANDARD
 70
    64
 40
0.0
 41
1.0
 50
0.0
 71
     0
 42
2.0
  3
txt
  4

  0
STYLE
  2
ROMANS
 70
    64
 40
2.5
 41
1.0
 50
0.0
 71
     0
 42
2.5
  3
romans
  4

  0
STYLE
  2
GREEKS
 70
    64
 40
0.0
 41
1.0
 50
0.0
 71
     0
 42
2.5
  3
TXT
  4

  0
STYLE
  2
STAND
 70
    64
 40
0.0
 41
1.0
 50
0.0
 71
     0
 42
2.0
  3
TXT
  4

  0
ENDTAB
  0
TABLE
  2
VIEW
 70
     0
  0
ENDTAB
  0
TABLE
  2
UCS
 70
     0
  0
ENDTAB
  0
TABLE
  2
APPID
 70
     1
  0
APPID
  2
ACAD
 70
    64
  0
ENDTAB
  0
TABLE
  2
DIMSTYLE
 70
     0
  0
ENDTAB
  0
ENDSEC
  0
SECTION
  2
BLOCKS
  0
BLOCK
  8
0
  2
1
 70
    64
 10
0.0
 20
0.0
 30
0.0
  3
1
  0
ENDBLK
  8
0
  0
BLOCK
  8
0
  2
BLC16
 70
     0
 10
0.0
 20
0.0
 30
0.0
  3
BLC16
  0
LINE
  8
0
  6
CONTINUOUS
 10
0.007689
 20
38.054928
 30
0.0
 11
19.983683
 21
38.054928
 31
0.0
  0
LINE
  8
0
  6
CONTINUOUS
 10
19.983683
 20
38.054928
 30
0.0
 11
19.983683
 21
-0.003751
 31
0.0
  0
LINE
  8
0
  6
CONTINUOUS
 10
19.983683
 20
-0.003751
 30
0.0
 11
0.007689
 21
-0.003751
 31
0.0
  0
LINE
  8
0
  6
CONTINUOUS
 10
0.007689
 20
-0.003751
 30
0.0
 11
0.007689
 21
38.054928
 31
0.0
  0
LINE
  8
0
  6
CONTINUOUS
 10
14.152643
 20
36.919738
 30
0.0
 11
14.152643
 21
33.528469
 31
0.0
  0
LINE
  8
0
  6
CONTINUOUS
 10
14.152643
 20
33.528469
 30
0.0
 11
11.560435
 21
33.528469
 31
0.0
  0
LINE
  8
0
  6
CONTINUOUS
 10
11.560435
 20
33.528469
 30
0.0
 11
11.560435
 21
30.778433
 31
0.0
  0
LINE
  8
0
  6
CONTINUOUS
 10
11.560435
 20
30.778433
 30
0.0
 11
14.152643
 21
30.778433
 31
0.0
  0
LINE
  8
0
  6
CONTINUOUS
 10
14.152643
 20
30.778433
 30
0.0
 11
14.152643
 21
27.387164
 31
0.0
  0
TEXT
  8
0
  6
CONTINUOUS
 10
6.558569
 20
30.805266
 30
0.0
 40
2.5
  1
2
 11
6.558569
 21
29.971932
 31
0.0
 73
     1
  0
TEXT
  8
0
  6
CONTINUOUS
 10
6.553289
 20
23.854078
 30
0.0
 40
2.5
  1
2 I
 11
6.553289
 21
23.020744
 31
0.0
 73
     1
  0
LINE
  8
0
  6
CONTINUOUS
 10
12.942534
 20
26.359129
 30
0.0
 11
15.288299
 21
25.023775
 31
0.0
  0
LINE
  8
0
  6
CONTINUOUS
 10
15.288299
 20
25.023775
 30
0.0
 11
12.942534
 21
23.833856
 31
0.0
  0
LINE
  8
0
  6
CONTINUOUS
 10
14.169823
 20
26.359129
 30
0.0
 11
16.515589
 21
25.023775
 31
0.0
  0
LINE
  8
0
  6
CONTINUOUS
 10
16.515589
 20
25.023775
 30
0.0
 11
14.169823
 21
23.833856
 31
0.0
  0
TEXT
  8
0
  6
CONTINUOUS
 10
11.566446
 20
19.235679
 30
0.0
 40
2.5
  1
I
 11
11.566446
 21
18.402346
 31
0.0
 73
     1
  0
TEXT
  8
0
  6
CONTINUOUS
 10
13.018181
 20
18.902346
 30
0.0
 40
1.5
  1
2
 11
13.018181
 21
18.402346
 31
0.0
 73
     1
  0
LINE
  8
0
  6
CONTINUOUS
 10
10.65733
 20
12.773825
 30
0.0
 11
13.003095
 21
13.963744
 31
0.0
  0
LINE
  8
0
  6
CONTINUOUS
 10
13.003095
 20
11.438471
 30
0.0
 11
10.65733
 21
12.773825
 31
0.0
  0
LINE
  8
0
  6
CONTINUOUS
 10
6.557002
 20
16.714658
 30
0.0
 11
15.281743
 21
16.714658
 31
0.0
  0
LINE
  8
0
  6
CONTINUOUS
 10
6.557002
 20
17.523984
 30
0.0
 11
6.557002
 21
15.908791
 31
0.0
  0
LINE
  8
0
  6
CONTINUOUS
 10
15.286518
 20
17.523984
 30
0.0
 11
15.286518
 21
15.908791
 31
0.0
  0
ARC
  8
0
  6
CONTINUOUS
 10
12.684846
 20
18.508045
 30
0.0
 40
2.922744
 50
193.105513
 51
283.105513
  0
TEXT
  8
0
  6
CONTINUOUS
 10
6.557002
 20
11.567974
 30
0.0
 40
2.5
  1
2I
 11
6.557002
 21
10.734641
 31
0.0
 73
     1
  0
LINE
  8
0
  6
CONTINUOUS
 10
6.557002
 20
9.441103
 30
0.0
 11
15.281743
 21
9.441103
 31
0.0
  0
LINE
  8
0
  6
CONTINUOUS
 10
15.286518
 20
10.250429
 30
0.0
 11
15.286518
 21
8.635236
 31
0.0
  0
LINE
  8
0
  6
CONTINUOUS
 10
6.557002
 20
10.250429
 30
0.0
 11
6.557002
 21
8.635236
 31
0.0
  0
TEXT
  8
0
  6
CONTINUOUS
 10
6.557002
 20
4.778631
 30
0.0
 40
2.5
  1
I
 11
6.557002
 21
3.945298
 31
0.0
 73
     1
  0
LINE
  8
0
  6
CONTINUOUS
 10
9.509029
 20
6.822462
 30
0.0
 11
9.509029
 21
5.477736
 31
0.0
  0
LINE
  8
0
  6
CONTINUOUS
 10
8.615065
 20
5.477736
 30
0.0
 11
9.52622
 21
5.477736
 31
0.0
  0
LINE
  8
0
  6
CONTINUOUS
 10
9.509029
 20
5.477736
 30
0.0
 11
10.402992
 21
5.477736
 31
0.0
  0
LINE
  8
0
  6
CONTINUOUS
 10
8.901592
 20
5.082328
 30
0.0
 11
9.509029
 21
5.082328
 31
0.0
  0
LINE
  8
0
  6
CONTINUOUS
 10
9.509029
 20
5.082328
 30
0.0
 11
10.150849
 21
5.082328
 31
0.0
  0
LINE
  8
0
  6
CONTINUOUS
 10
9.981861
 20
4.719969
 30
0.0
 11
9.072041
 21
4.719969
 31
0.0
  0
LINE
  8
0
  6
CONTINUOUS
 10
15.286518
 20
2.797924
 30
0.0
 11
15.286518
 21
1.182731
 31
0.0
  0
LINE
  8
0
  6
CONTINUOUS
 10
6.557002
 20
1.988598
 30
0.0
 11
15.281743
 21
1.988598
 31
0.0
  0
LINE
  8
0
  6
CONTINUOUS
 10
6.557002
 20
2.797924
 30
0.0
 11
6.557002
 21
1.182731
 31
0.0
  0
ENDBLK
  8
0
  0
BLOCK
  8
0
  2
BLC27
 70
    64
 10
0.0
 20
0.0
 30
0.0
  3
BLC27
  0
INSERT
  8
SWEDEN2
  6
CENTER
  2
BLC26
 10
0.08063
 20
0.037985
 30
0.0
 41
1.006225
 42
1.006225
 43
1.006225
  0
ENDBLK
  8
0
  0
BLOCK
  8
0
  2
BLC26
 70
    64
 10
0.0
 20
0.0
 30
0.0
  3
BLC26
  0
ARC
  8
0
  6
CONTINUOUS
 10
-0.180576
 20
1.17922
 30
0.0
 40
1.196859
 50
90.0
 51
265.706237
  0
LINE
  8
0
  6
CONTINUOUS
 10
-0.186638
 20
-0.01092
 30
0.0
 11
0.458942
 21
-0.01092
 31
0.0
  0
LINE
  8
0
  6
CONTINUOUS
 10
-0.186638
 20
2.375671
 30
0.0
 11
0.45288
 21
2.375671
 31
0.0
  0
LINE
  8
0
  6
CONTINUOUS
 10
-0.185509
 20
-2.404629
 30
0.0
 11
0.460071
 21
-2.404629
 31
0.0
  0
ARC
  8
0
  6
CONTINUOUS
 10
-0.180576
 20
-1.207779
 30
0.0
 40
1.196859
 50
90.0
 51
270.0
  0
LINE
  8
0
  6
CONTINUOUS
 10
0.451525
 20
-2.404586
 30
0.0
 11
1.401805
 21
-2.404586
 31
0.0
  0
LINE
  8
0
  6
CONTINUOUS
 10
0.446785
 20
2.375674
 30
0.0
 11
1.418544
 21
2.375674
 31
0.0
  0
LINE
  8
0
  6
CONTINUOUS
 10
0.456627
 20
-0.010911
 30
0.0
 11
1.422749
 21
-0.010911
 31
0.0
  0
ENDBLK
  8
0
  0
BLOCK
  8
0
  2
BLC22
 70
     0
 10
0.0
 20
0.0
 30
0.0
  3
BLC22
  0
LINE
  8
HEL035
 10
0.0
 20
-0.00155
 30
0.0
 11
0.0
 21
9.99845
 31
0.0
  0
LINE
  8
21
 10
2.5
 20
10.0
 30
0.0
 11
5.0
 21
10.0
 31
0.0
  0
LINE
  8
HEL035
 10
0.0
 20
9.99845
 30
0.0
 11
2.5
 21
9.99845
 31
0.0
  0
LINE
  8
HEL035
 10
-2.5
 20
5.0
 30
0.0
 11
2.5
 21
5.0
 31
0.0
  0
LINE
  8
21
 10
2.5
 20
5.0
 30
0.0
 11
5.0
 21
5.0
 31
0.0
  0
LINE
  8
21
 10
5.0
 20
5.0
 30
0.0
 11
5.0
 21
7.9
 31
0.0
  0
LINE
  8
HEL035
 10
3.88095
 20
6.944425
 30
0.0
 11
4.560313
 21
6.008681
 31
0.0
  0
LINE
  8
21
 10
10.0
 20
10.0
 30
0.0
 11
4.2
 21
6.5
 31
0.0
  0
LINE
  8
HEL035
 10
2.5
 20
-0.00155
 30
0.0
 11
0.0
 21
-0.00155
 31
0.0
  0
LINE
  8
21
 10
2.5
 20
0.0
 30
0.0
 11
5.0
 21
0.0
 31
0.0
  0
ENDBLK
  8
0
  0
BLOCK
  8
0
  2
BLC18
 70
     0
 10
0.0
 20
0.0
 30
0.0
  3
BLC18
  0
LINE
  8
MUO
 10
-0.056268
 20
0.849555
 30
0.0
 11
8.307242
 21
9.215502
 31
0.0
  0
LINE
  8
MUO
 10
0.928025
 20
-0.107047
 30
0.0
 11
9.268386
 21
8.2307
 31
0.0
  0
LINE
  8
MUO
 10
-0.056268
 20
-0.107047
 30
0.0
 11
-0.056268
 21
9.215502
 31
0.0
  0
LINE
  8
MUO
 10
9.268386
 20
-0.107047
 30
0.0
 11
-0.056268
 21
-0.107047
 31
0.0
  0
LINE
  8
MUO
 10
9.268386
 20
9.215502
 30
0.0
 11
9.268386
 21
-0.107047
 31
0.0
  0
LINE
  8
MUO
 10
-0.056268
 20
9.215502
 30
0.0
 11
9.268386
 21
9.215502
 31
0.0
  0
ENDBLK
  8
0
  0
BLOCK
  8
0
  2
BLC29
 70
    64
 10
0.0
 20
0.0
 30
0.0
  3
BLC29
  0
LINE
  8
0
  6
CONTINUOUS
 10
0.004865
 20
1.206889
 30
0.0
 11
2.350631
 21
-0.128465
 31
0.0
  0
LINE
  8
0
  6
CONTINUOUS
 10
2.350631
 20
-0.128465
 30
0.0
 11
0.004865
 21
-1.318384
 31
0.0
  0
ENDBLK
  8
0
  0
BLOCK
  8
0
  2
WKU130
 70
    64
 10
190.0
 20
250.0
 30
0.0
  3
WKU130
  0
ARC
  8
21
 10
191.083333
 20
249.916667
 30
0.0
 40
1.086534
 50
32.471192
 51
175.601295
  0
ARC
  8
21
 10
192.916667
 20
251.083333
 30
0.0
 40
1.086534
 50
212.471192
 51
355.601295
  0
ENDBLK
  8
0
  0
BLOCK
  8
0
  2
BLC15
 70
    64
 10
0.0
 20
0.0
 30
0.0
  3
BLC15
  0
LINE
  8
0
  6
CONTINUOUS
 10
0.142084
 20
3.490022
 30
0.0
 11
0.142084
 21
0.844365
 31
0.0
  0
LINE
  8
0
  6
CONTINUOUS
 10
-0.461611
 20
-0.937188
 30
0.0
 11
0.745779
 21
-0.937188
 31
0.0
  0
LINE
  8
0
  6
CONTINUOUS
 10
-0.894108
 20
-0.049675
 30
0.0
 11
1.169267
 21
-0.049675
 31
0.0
  0
LINE
  8
0
  6
CONTINUOUS
 10
-1.389679
 20
0.844365
 30
0.0
 11
1.673848
 21
0.844365
 31
0.0
  0
ENDBLK
  8
0
  0
BLOCK
  8
0
  2
BLC55
 70
    64
 10
0.0
 20
0.0
 30
0.0
  3
BLC55
  0
INSERT
  8
SWEDEN
  6
CENTER
  2
BLC5
 10
0.087066
 20
-0.756831
 30
0.0
 41
0.6
 42
0.6
 43
0.6
  0
ENDBLK
  8
0
  0
BLOCK
  8
0
  2
BLC5
 70
    64
 10
0.0
 20
0.0
 30
0.0
  3
BLC5
  0
TEXT
  8
0
 10
-3.043704
 20
-6.645912
 30
0.0
 40
3.2
  1
PE
  0
LINE
  8
0
 10
-2.946392
 20
1.181176
 30
0.0
 11
2.135458
 21
1.181176
 31
0.0
  0
LINE
  8
0
 10
-0.48656
 20
2.238362
 30
0.0
 11
-0.48656
 21
6.930438
 31
0.0
  0
LINE
  8
0
 10
-1.973271
 20
0.065258
 30
0.0
 11
1.225411
 21
0.065258
 31
0.0
  0
LINE
  8
0
 10
2.685091
 20
2.238362
 30
0.0
 11
1.68494
 21
2.238362
 31
0.0
  0
LINE
  8
0
 10
-3.505035
 20
2.238362
 30
0.0
 11
2.649049
 21
2.238362
 31
0.0
  0
CIRCLE
  8
0
 10
-0.47755
 20
1.422632
 30
0.0
 40
3.804563
  0
ENDBLK
  8
0
  0
BLOCK
  8
0
  2
BLC43
 70
    64
 10
0.0
 20
0.0
 30
0.0
  3
BLC43
  0
TEXT
  8
SWEDEN2
  6
CONTINUOUS
 10
-0.646672
 20
-0.986365
 30
0.0
 40
2.0
  1
+
  0
ENDBLK
  8
0
  0
BLOCK
  8
0
  2
BLC42
 70
    64
 10
0.0
 20
0.0
 30
0.0
  3
BLC42
  0
TEXT
  8
SWEDEN2
  6
CONTINUOUS
 10
-0.655237
 20
-0.99442
 30
0.0
 40
2.0
  1
-
  0
ENDBLK
  8
0
  0
BLOCK
  8
0
  2
BLC44
 70
    64
 10
0.0
 20
0.0
 30
0.0
  3
BLC44
  0
LINE
  8
HEL035
 10
-2.520993
 20
1.697877
 30
0.0
 11
1.479007
 21
1.697877
 31
0.0
  0
INSERT
  8
HEL035
  2
WKU130
 10
-2.181043
 20
-0.027675
 30
0.0
 41
0.8
 42
0.8
 43
0.8
  0
ENDBLK
  8
0
  0
BLOCK
  8
0
  2
BLC25
 70
     0
 10
0.0
 20
0.0
 30
0.0
  3
BLC25
  0
TEXT
  8
0
  6
CONTINUOUS
 10
2.0
 20
30.666667
 30
0.0
 40
2.0
  1
1)
 11
2.0
 21
30.0
 31
0.0
 73
     1
  0
TEXT
  8
0
 10
6.0
 20
2.0
 30
0.0
 40
2.0
  1
7B    27     26
 11
6.0
 21
1.333333
 31
0.0
 73
     1
  0
TEXT
  8
0
 10
6.0
 20
5.333333
 30
0.0
 40
2.0
  1
5B     9      8
 11
6.0
 21
4.666667
 31
0.0
 73
     1
  0
TEXT
  8
0
 10
6.0
 20
8.666667
 30
0.0
 40
2.0
  1
3B     3      2
 11
6.0
 21
8.0
 31
0.0
 73
     1
  0
TEXT
  8
0
 10
32.0
 20
12.666667
 30
0.0
 40
2.0
  1
In=5A
 11
32.0
 21
12.0
 31
0.0
 73
     1
  0
TEXT
  8
0
 10
16.0
 20
12.666667
 30
0.0
 40
2.0
  1
In=1A 
 11
16.0
 21
12.0
 31
0.0
 73
     1
  0
TEXT
  8
0
 10
26.0
 20
18.666667
 30
0.0
 40
2.0
  1
108:
 11
26.0
 21
18.0
 31
0.0
 73
     1
  0
TEXT
  8
0
 10
6.0
 20
18.666667
 30
0.0
 40
2.0
  1
101:       
 11
6.0
 21
18.0
 31
0.0
 73
     1
  0
TEXT
  8
0
 10
6.0
 20
24.666667
 30
0.0
 40
2.0
  1
TERMINALS / UTTAG
 11
6.0
 21
24.0
 31
0.0
 73
     1
  0
LINE
  8
0
 10
0.0
 20
12.0
 30
0.0
 11
44.0
 21
12.0
 31
0.0
  0
LINE
  8
0
 10
28.0
 20
18.0
 30
0.0
 11
28.0
 21
0.0
 31
0.0
  0
LINE
  8
0
 10
14.0
 20
18.0
 30
0.0
 11
44.0
 21
18.0
 31
0.0
  0
LINE
  8
0
 10
14.0
 20
24.0
 30
0.0
 11
14.0
 21
0.0
 31
0.0
  0
LINE
  8
0
 10
0.0
 20
24.0
 30
0.0
 11
44.0
 21
24.0
 31
0.0
  0
LINE
  8
0
 10
44.0
 20
0.0
 30
0.0
 11
44.0
 21
30.0
 31
0.0
  0
LINE
  8
0
 10
0.0
 20
0.0
 30
0.0
 11
44.0
 21
0.0
 31
0.0
  0
LINE
  8
0
 10
0.0
 20
30.0
 30
0.0
 11
0.0
 21
0.0
 31
0.0
  0
LINE
  8
0
 10
44.0
 20
30.0
 30
0.0
 11
0.0
 21
30.0
 31
0.0
  0
ENDBLK
  8
0
  0
BLOCK
  8
0
  2
B22
 70
     0
 10
0.0
 20
0.0
 30
0.0
  3
B22
  0
CIRCLE
  8
BASE
  6
CONTINUOUS
 10
-2.949561
 20
-1.638589
 30
0.0
 40
0.705054
  0
CIRCLE
  8
BASE
  6
CONTINUOUS
 10
-2.949561
 20
-1.638589
 30
0.0
 40
1.252595
  0
LINE
  8
BASE
  6
CONTINUOUS
 10
-10.000117
 20
0.000025
 30
0.0
 11
0.011081
 21
0.000025
 31
0.0
  0
LINE
  8
BASE
  6
CONTINUOUS
 10
-27.5
 20
-0.008493
 30
0.0
 11
-17.5
 21
-0.008493
 31
0.0
  0
LINE
  8
BASE
  6
CONTINUOUS
 10
-11.481965
 20
-0.006589
 30
0.0
 11
-18.162841
 21
2.434804
 31
0.0
  0
LINE
  8
BASE
  6
CONTINUOUS
 10
-17.5
 20
-0.008493
 30
0.0
 11
-17.5
 21
2.765661
 31
0.0
  0
LINE
  8
BASE
  6
CONTINUOUS
 10
-18.162841
 20
2.434804
 30
0.0
 11
-18.607734
 21
1.549106
 31
0.0
  0
CIRCLE
  8
BASE
  6
CONTINUOUS
 10
-10.741055
 20
0.0
 30
0.0
 40
0.740939
  0
ENDBLK
  8
0
  0
BLOCK
  8
0
  2
B37
 70
     0
 10
0.0
 20
0.0
 30
0.0
  3
B37
  0
LINE
  8
BASE
  6
CONTINUOUS
 10
-0.006589
 20
-6.018035
 30
0.0
 11
2.434804
 21
0.662841
 31
0.0
  0
LINE
  8
BASE
  6
CONTINUOUS
 10
0.0
 20
0.0
 30
0.0
 11
2.765661
 21
0.0
 31
0.0
  0
LINE
  8
BASE
  6
CONTINUOUS
 10
2.434804
 20
0.662841
 30
0.0
 11
1.549106
 21
1.107734
 31
0.0
  0
CIRCLE
  8
BASE
  6
CONTINUOUS
 10
0.0
 20
-6.758945
 30
0.0
 40
0.740939
  0
ENDBLK
  8
0
  0
BLOCK
  8
0
  2
B204
 70
     0
 10
0.0
 20
0.0
 30
0.0
  3
B204
  0
TEXT
  8
BASE
  6
CONTINUOUS
 10
-5.818294
 20
-13.161989
 30
0.0
 40
2.0
  1
12A
  0
TEXT
  8
BASE
  6
CONTINUOUS
 10
-5.818294
 20
-3.442734
 30
0.0
 40
2.0
  1
11A
  0
LINE
  8
BASE
  6
CONTINUOUS
 10
-5.0
 20
-10.0
 30
0.0
 11
0.0
 21
-10.0
 31
0.0
  0
LINE
  8
BASE
  6
CONTINUOUS
 10
-20.0
 20
-10.017028
 30
0.0
 11
-10.0
 21
-10.017028
 31
0.0
  0
LINE
  8
BASE
  6
CONTINUOUS
 10
-10.0
 20
-10.017028
 30
0.0
 11
-10.0
 21
-7.234339
 31
0.0
  0
LINE
  8
BASE
  6
CONTINUOUS
 10
-10.897173
 20
-7.565196
 30
0.0
 11
-11.342066
 21
-8.450894
 31
0.0
  0
LINE
  8
BASE
  6
CONTINUOUS
 10
-10.897173
 20
-7.565196
 30
0.0
 11
-5.0
 21
-10.0
 31
0.0
  0
LINE
  8
BASE
  6
CONTINUOUS
 10
-10.897173
 20
2.434804
 30
0.0
 11
-5.0
 21
0.0
 31
0.0
  0
LINE
  8
BASE
  6
CONTINUOUS
 10
-10.897173
 20
2.434804
 30
0.0
 11
-11.342066
 21
1.549106
 31
0.0
  0
LINE
  8
BASE
  6
CONTINUOUS
 10
-10.0
 20
-0.017028
 30
0.0
 11
-10.0
 21
2.765661
 31
0.0
  0
LINE
  8
BASE
  6
CONTINUOUS
 10
-20.0
 20
-0.017028
 30
0.0
 11
-10.0
 21
-0.017028
 31
0.0
  0
LINE
  8
BASE
  6
CONTINUOUS
 10
-5.0
 20
0.0
 30
0.0
 11
0.0
 21
0.0
 31
0.0
  0
ENDBLK
  8
0
  0
BLOCK
  8
0
  2
B13
 70
     0
 10
0.0
 20
0.0
 30
0.0
  3
B13
  0
LINE
  8
BASE
  6
CONTINUOUS
 10
0.00793
 20
5.0
 30
0.0
 11
0.00793
 21
-5.0
 31
0.0
  0
LINE
  8
BASE
  6
CONTINUOUS
 10
0.0
 20
-11.000004
 30
0.0
 11
0.0
 21
-17.5
 31
0.0
  0
LINE
  8
BASE
  6
CONTINUOUS
 10
5.0
 20
-11.000004
 30
0.0
 11
5.0
 21
-17.5
 31
0.0
  0
LINE
  8
BASE
  6
CONTINUOUS
 10
4.982972
 20
5.0
 30
0.0
 11
4.982972
 21
-5.0
 31
0.0
  0
LINE
  8
BASE
  6
CONTINUOUS
 10
10.0
 20
-5.0
 30
0.0
 11
10.0
 21
-1.412306
 31
0.0
  0
LINE
  8
BASE
  6
CONTINUOUS
 10
10.0
 20
-0.21377
 30
0.0
 11
10.0
 21
2.28623
 31
0.0
  0
LINE
  8
BASE
  6
CONTINUOUS
 10
10.0
 20
-11.000004
 30
0.0
 11
10.0
 21
-17.5
 31
0.0
  0
LINE
  8
BASE
  6
CONTINUOUS
 10
10.0
 20
-11.000004
 30
0.0
 11
12.434804
 21
-4.337159
 31
0.0
  0
LINE
  8
BASE
  6
CONTINUOUS
 10
10.0
 20
-5.0
 30
0.0
 11
12.765661
 21
-5.0
 31
0.0
  0
LINE
  8
BASE
  6
CONTINUOUS
 10
12.434804
 20
-4.337159
 30
0.0
 11
11.549106
 21
-3.892266
 31
0.0
  0
LINE
  8
BASE
  6
CONTINUOUS
 10
5.0
 20
-5.0
 30
0.0
 11
7.765661
 21
-5.0
 31
0.0
  0
LINE
  8
BASE
  6
CONTINUOUS
 10
7.434804
 20
-4.337159
 30
0.0
 11
6.549106
 21
-3.892266
 31
0.0
  0
LINE
  8
BASE
  6
CONTINUOUS
 10
5.0
 20
-11.000004
 30
0.0
 11
7.434804
 21
-4.337159
 31
0.0
  0
LINE
  8
BASE
  6
CONTINUOUS
 10
0.0
 20
-11.000004
 30
0.0
 11
2.434804
 21
-4.337159
 31
0.0
  0
LINE
  8
BASE
  6
CONTINUOUS
 10
0.0
 20
-5.0
 30
0.0
 11
2.765661
 21
-5.0
 31
0.0
  0
ENDBLK
  8
0
  0
BLOCK
  8
0
  2
ABBA3SX
 70
    64
 10
0.0
 20
0.0
 30
0.0
  3
ABBA3SX
  0
TEXT
  8
RAAMI
  6
DASHED
 10
354.190282
 20
15.793111
 30
0.0
 40
1.4
  1
LEHTI SHEET
  7
STAND
  0
LINE
  8
PAKSU
 10
0.236802
 20
0.237701
 30
0.0
 11
0.236802
 21
262.737701
 31
0.0
  0
LINE
  8
PAKSU
 10
392.236802
 20
262.737701
 30
0.0
 11
392.236802
 21
0.237701
 31
0.0
  0
LINE
  8
PAKSU
 10
0.236802
 20
0.237701
 30
0.0
 11
392.236802
 21
0.237701
 31
0.0
  0
TEXT
  8
RAAMI
 10
42.236802
 20
5.587211
 30
0.0
 40
2.5
  1
C
  7
ROMANS
  0
TEXT
  8
RAAMI
 10
42.236802
 20
1.194994
 30
0.0
 40
2.5
  1
B
  7
ROMANS
  0
TEXT
  8
RAAMI
 10
257.406709
 20
1.741485
 30
0.0
 40
3.0
  1
Power
 41
0.8
  7
ROMANS
  0
TEXT
  8
RAAMI
 10
273.236802
 20
7.237701
 30
0.0
 40
1.4
  1
VAST.OSASTO RESP.DEPT.
  7
ROMANS
  0
TEXT
  8
RAAMI
 10
210.236802
 20
32.237701
 30
0.0
 40
1.4
  1
TEKI  PREPARED
  7
ROMANS
  0
LINE
  8
OHUT
 10
271.236802
 20
9.737701
 30
0.0
 11
271.236802
 21
0.237701
 31
0.0
  0
LINE
  8
OHUT
 10
257.236802
 20
9.737701
 30
0.0
 11
257.236802
 21
35.237701
 31
0.0
  0
LINE
  8
OHUT
 10
40.736802
 20
4.737701
 30
0.0
 11
209.236802
 21
4.737701
 31
0.0
  0
LINE
  8
OHUT
 10
46.736802
 20
0.237701
 30
0.0
 11
46.736802
 21
9.237701
 31
0.0
  0
LINE
  8
OHUT
 10
46.736802
 20
9.237701
 30
0.0
 11
209.236802
 21
9.237701
 31
0.0
  0
TEXT
  8
RAAMI
 10
27.736802
 20
2.471035
 30
0.0
 40
1.4
  1
REVISION
  7
ROMANS
  0
TEXT
  8
RAAMI
 10
27.736802
 20
4.737701
 30
0.0
 40
1.4
  1
MUUTOS
  7
ROMANS
  0
LINE
  8
OHUT
 10
282.236802
 20
9.737701
 30
0.0
 11
282.236802
 21
18.237701
 31
0.0
  0
TEXT
  8
RAAMI
 10
237.736802
 20
1.737701
 30
0.0
 40
3.0
  1
Strömberg
 41
0.8
  7
ROMANS
  0
TEXT
  8
RAAMI
 10
229.736802
 20
1.737701
 30
0.0
 40
3.0
  1
ABB 
 41
0.8
  7
ROMANS
  0
LINE
  8
RAAMI
 10
223.136802
 20
1.737701
 30
0.0
 11
223.136802
 21
5.097701
 31
0.0
  0
LINE
  8
RAAMI
 10
223.136802
 20
8.737701
 30
0.0
 11
225.096802
 21
8.737701
 31
0.0
  0
LINE
  8
RAAMI
 10
225.096802
 20
8.737701
 30
0.0
 11
225.096802
 21
5.377701
 31
0.0
  0
LINE
  8
RAAMI
 10
225.096802
 20
5.377701
 30
0.0
 11
223.136802
 21
5.377701
 31
0.0
  0
LINE
  8
RAAMI
 10
223.136802
 20
5.097701
 30
0.0
 11
225.096802
 21
5.097701
 31
0.0
  0
LINE
  8
RAAMI
 10
225.096802
 20
5.097701
 30
0.0
 11
225.096802
 21
1.737701
 31
0.0
  0
LINE
  8
RAAMI
 10
225.096802
 20
1.737701
 30
0.0
 11
223.136802
 21
1.737701
 31
0.0
  0
LINE
  8
RAAMI
 10
223.136802
 20
5.377701
 30
0.0
 11
223.136802
 21
8.737701
 31
0.0
  0
ARC
  8
RAAMI
 10
225.936802
 20
7.162701
 30
0.0
 40
1.575
 50
298.455859
 51
90.052437
  0
LINE
  8
RAAMI
 10
225.376802
 20
8.737701
 30
0.0
 11
225.935361
 21
8.737701
 31
0.0
  0
LINE
  8
RAAMI
 10
225.376802
 20
8.737701
 30
0.0
 11
225.376802
 21
5.377701
 31
0.0
  0
LINE
  8
RAAMI
 10
225.376802
 20
5.377701
 30
0.0
 11
227.361245
 21
5.377701
 31
0.0
  0
LINE
  8
RAAMI
 10
227.616802
 20
5.097701
 30
0.0
 11
225.376802
 21
5.097701
 31
0.0
  0
LINE
  8
RAAMI
 10
225.376802
 20
5.097701
 30
0.0
 11
225.376802
 21
1.737701
 31
0.0
  0
ARC
  8
RAAMI
 10
225.936802
 20
3.837701
 30
0.0
 40
2.1
 50
269.937724
 51
37.056553
  0
LINE
  8
RAAMI
 10
225.376802
 20
1.737701
 30
0.0
 11
225.93452
 21
1.737703
 31
0.0
  0
ARC
  8
RAAMI
 10
225.936802
 20
3.837701
 30
0.0
 40
2.1
 50
47.28622
 51
68.787999
  0
INSERT
  8
RAAMI
  2
*X24
 10
215.646802
 20
1.737701
 30
0.0
 41
0.7
 42
0.7
 43
0.7
  0
INSERT
  8
RAAMI
  2
*X25
 10
215.646802
 20
1.737701
 30
0.0
 41
0.7
 42
0.7
 43
0.7
  0
INSERT
  8
RAAMI
  2
*X26
 10
215.646802
 20
1.737701
 30
0.0
 41
0.7
 42
0.7
 43
0.7
  0
INSERT
  8
RAAMI
  2
*X27
 10
215.646802
 20
1.737701
 30
0.0
 41
0.7
 42
0.7
 43
0.7
  0
INSERT
  8
RAAMI
  2
*X27
 10
210.186802
 20
1.737701
 30
0.0
 41
0.7
 42
0.7
 43
0.7
  0
INSERT
  8
RAAMI
  2
*X26
 10
210.186802
 20
1.737701
 30
0.0
 41
0.7
 42
0.7
 43
0.7
  0
INSERT
  8
RAAMI
  2
*X25
 10
210.186802
 20
1.737701
 30
0.0
 41
0.7
 42
0.7
 43
0.7
  0
INSERT
  8
RAAMI
  2
*X24
 10
210.186802
 20
1.737701
 30
0.0
 41
0.7
 42
0.7
 43
0.7
  0
ARC
  8
RAAMI
 10
220.476802
 20
3.837701
 30
0.0
 40
2.1
 50
47.28622
 51
68.787999
  0
LINE
  8
RAAMI
 10
219.916802
 20
1.737701
 30
0.0
 11
220.47452
 21
1.737703
 31
0.0
  0
ARC
  8
RAAMI
 10
220.476802
 20
3.837701
 30
0.0
 40
2.1
 50
269.937724
 51
37.056553
  0
LINE
  8
RAAMI
 10
219.916802
 20
5.097701
 30
0.0
 11
219.916802
 21
1.737701
 31
0.0
  0
LINE
  8
RAAMI
 10
222.156802
 20
5.097701
 30
0.0
 11
219.916802
 21
5.097701
 31
0.0
  0
LINE
  8
RAAMI
 10
219.916802
 20
5.377701
 30
0.0
 11
221.901245
 21
5.377701
 31
0.0
  0
LINE
  8
RAAMI
 10
219.916802
 20
8.737701
 30
0.0
 11
219.916802
 21
5.377701
 31
0.0
  0
LINE
  8
RAAMI
 10
219.916802
 20
8.737701
 30
0.0
 11
220.475361
 21
8.737701
 31
0.0
  0
ARC
  8
RAAMI
 10
220.476802
 20
7.162701
 30
0.0
 40
1.575
 50
298.455859
 51
90.052437
  0
LINE
  8
RAAMI
 10
217.676802
 20
5.377701
 30
0.0
 11
217.676802
 21
8.737701
 31
0.0
  0
LINE
  8
RAAMI
 10
219.636802
 20
1.737701
 30
0.0
 11
217.676802
 21
1.737701
 31
0.0
  0
LINE
  8
RAAMI
 10
219.636802
 20
5.097701
 30
0.0
 11
219.636802
 21
1.737701
 31
0.0
  0
LINE
  8
RAAMI
 10
217.676802
 20
5.097701
 30
0.0
 11
219.636802
 21
5.097701
 31
0.0
  0
LINE
  8
RAAMI
 10
219.636802
 20
5.377701
 30
0.0
 11
217.676802
 21
5.377701
 31
0.0
  0
LINE
  8
RAAMI
 10
219.636802
 20
8.737701
 30
0.0
 11
219.636802
 21
5.377701
 31
0.0
  0
LINE
  8
RAAMI
 10
217.676802
 20
8.737701
 30
0.0
 11
219.636802
 21
8.737701
 31
0.0
  0
LINE
  8
RAAMI
 10
217.676802
 20
1.737701
 30
0.0
 11
217.676802
 21
5.097701
 31
0.0
  0
INSERT
  8
RAAMI
  2
*X23
 10
210.186802
 20
1.737701
 30
0.0
 41
0.7
 42
0.7
 43
0.7
  0
INSERT
  8
RAAMI
  2
*X22
 10
210.186802
 20
1.737701
 30
0.0
 41
0.7
 42
0.7
 43
0.7
  0
INSERT
  8
RAAMI
  2
*X21
 10
210.186802
 20
1.737701
 30
0.0
 41
0.7
 42
0.7
 43
0.7
  0
INSERT
  8
RAAMI
  2
*X20
 10
210.186802
 20
1.737701
 30
0.0
 41
0.7
 42
0.7
 43
0.7
  0
LINE
  8
RAAMI
 10
211.356691
 20
5.08024
 30
0.0
 11
210.186802
 21
1.737701
 31
0.0
  0
LINE
  8
RAAMI
 10
213.546802
 20
5.097701
 30
0.0
 11
213.546802
 21
3.137701
 31
0.0
  0
LINE
  8
RAAMI
 10
213.826802
 20
5.097701
 30
0.0
 11
213.826802
 21
3.137701
 31
0.0
  0
LINE
  8
RAAMI
 10
213.826802
 20
5.097701
 30
0.0
 11
216.010059
 21
5.097701
 31
0.0
  0
LINE
  8
RAAMI
 10
213.826802
 20
5.377701
 30
0.0
 11
215.911916
 21
5.377701
 31
0.0
  0
LINE
  8
RAAMI
 10
216.011294
 20
5.096296
 30
0.0
 11
217.186802
 21
1.737701
 31
0.0
  0
LINE
  8
RAAMI
 10
211.359785
 20
5.097701
 30
0.0
 11
213.546802
 21
5.097701
 31
0.0
  0
LINE
  8
RAAMI
 10
211.458743
 20
5.377701
 30
0.0
 11
213.546802
 21
5.377701
 31
0.0
  0
LINE
  8
RAAMI
 10
213.546802
 20
8.737701
 30
0.0
 11
212.636802
 21
8.737701
 31
0.0
  0
LINE
  8
RAAMI
 10
213.826802
 20
3.137701
 30
0.0
 11
214.946696
 21
3.137701
 31
0.0
  0
LINE
  8
RAAMI
 10
213.826802
 20
8.737701
 30
0.0
 11
213.826802
 21
5.377701
 31
0.0
  0
LINE
  8
RAAMI
 10
213.546802
 20
8.737701
 30
0.0
 11
213.546802
 21
5.377701
 31
0.0
  0
LINE
  8
RAAMI
 10
214.736802
 20
8.737701
 30
0.0
 11
213.826802
 21
8.737701
 31
0.0
  0
LINE
  8
RAAMI
 10
214.9479
 20
3.134565
 30
0.0
 11
215.436802
 21
1.737701
 31
0.0
  0
LINE
  8
RAAMI
 10
214.736802
 20
8.737701
 30
0.0
 11
215.913155
 21
5.376693
 31
0.0
  0
LINE
  8
RAAMI
 10
212.425592
 20
3.134244
 30
0.0
 11
211.936802
 21
1.737701
 31
0.0
  0
LINE
  8
RAAMI
 10
212.425589
 20
3.137701
 30
0.0
 11
213.546802
 21
3.137701
 31
0.0
  0
LINE
  8
RAAMI
 10
212.636802
 20
8.737701
 30
0.0
 11
211.459274
 21
5.373336
 31
0.0
  0
LINE
  8
RAAMI
 10
215.436802
 20
1.737701
 30
0.0
 11
217.186802
 21
1.737701
 31
0.0
  0
LINE
  8
RAAMI
 10
210.186802
 20
1.737701
 30
0.0
 11
211.936802
 21
1.737701
 31
0.0
  0
LINE
  8
OHUT
 10
369.736802
 20
9.737701
 30
0.0
 11
369.736802
 21
0.237701
 31
0.0
  0
TEXT
  8
RAAMI
 10
371.236802
 20
7.237701
 30
0.0
 40
1.4
  1
PAINOS  REVISION
  7
ROMANS
  0
LINE
  8
OHUT
 10
349.736802
 20
9.737701
 30
0.0
 11
349.736802
 21
18.237701
 31
0.0
  0
TEXT
  8
RAAMI
 10
309.236802
 20
7.237701
 30
0.0
 40
1.4
  1
PIIRUSTUS NO  DRAWING NR
  7
ROMANS
  0
TEXT
  8
RAAMI
 10
309.236802
 20
15.737701
 30
0.0
 40
1.4
  1
KOODI  CODE
  7
ROMANS
  0
TEXT
  8
RAAMI
 10
309.236802
 20
32.737701
 30
0.0
 40
1.4
  1
NIMITYS  NAME
  7
ROMANS
  0
TEXT
  8
RAAMI
 10
259.236802
 20
15.737701
 30
0.0
 40
1.4
  1
SUHDE  SCALE
  7
ROMANS
  0
TEXT
  8
RAAMI
 10
259.236802
 20
23.737701
 30
0.0
 40
1.4
  1
TOLERANSSIT  TOLERANCES
  7
ROMANS
  0
TEXT
  8
RAAMI
 10
259.236802
 20
32.737701
 30
0.0
 40
1.4
  1
LIITTYY  CONCERNING
  7
ROMANS
  0
LINE
  8
OHUT
 10
307.236802
 20
0.237701
 30
0.0
 11
307.236802
 21
35.237701
 31
0.0
  0
TEXT
  8
RAAMI
 10
209.979637
 20
15.704368
 30
0.0
 40
1.4
  1
HYVÄKSYI  APPROVED
  7
ROMANS
  0
TEXT
  8
RAAMI
 10
210.236802
 20
23.971035
 30
0.0
 40
1.4
  1
TARKASTI  CHECKED
  7
ROMANS
  0
LINE
  8
PAKSU
 10
209.236802
 20
35.237701
 30
0.0
 11
392.236802
 21
35.237701
 31
0.0
  0
LINE
  8
OHUT
 10
209.236802
 20
26.737701
 30
0.0
 11
307.236802
 21
26.737701
 31
0.0
  0
LINE
  8
OHUT
 10
209.236802
 20
9.737701
 30
0.0
 11
392.236802
 21
9.737701
 31
0.0
  0
LINE
  8
OHUT
 10
209.236802
 20
18.237701
 30
0.0
 11
392.236802
 21
18.237701
 31
0.0
  0
LINE
  8
PAKSU
 10
392.236802
 20
0.237701
 30
0.0
 11
392.236802
 21
35.237701
 31
0.0
  0
LINE
  8
PAKSU
 10
209.236802
 20
0.237701
 30
0.0
 11
209.236802
 21
35.237701
 31
0.0
  0
LINE
  8
PAKSU
 10
209.236802
 20
0.237701
 30
0.0
 11
392.236802
 21
0.237701
 31
0.0
  0
LINE
  8
RAAMI
 10
18.236802
 20
0.237701
 30
0.0
 11
0.236802
 21
0.237701
 31
0.0
  0
LINE
  8
PAKSU
 10
0.236802
 20
262.737701
 30
0.0
 11
392.236802
 21
262.737701
 31
0.0
  0
TEXT
  8
RAAMI
  6
DASHED
 10
292.216898
 20
11.813061
 30
0.0
 40
3.0
  1
A3
  7
GREEKS
  0
ENDBLK
  8
0
  0
BLOCK
  8
0
  2
*X20
 70
    65
 10
0.0
 20
0.0
 30
0.0
  3
*X
  0
LINE
  8
0
 62
     0
 10
2.284499
 20
6.52714
 30
0.0
 11
4.8
 21
9.042641
 31
0.0
  0
LINE
  8
0
 62
     0
 10
2.379686
 20
6.799104
 30
0.0
 11
4.8
 21
9.219417
 31
0.0
  0
LINE
  8
0
 62
     0
 10
2.474874
 20
7.071068
 30
0.0
 11
4.8
 21
9.396194
 31
0.0
  0
LINE
  8
0
 62
     0
 10
2.570061
 20
7.343032
 30
0.0
 11
4.8
 21
9.572971
 31
0.0
  0
LINE
  8
0
 62
     0
 10
2.665249
 20
7.614996
 30
0.0
 11
4.8
 21
9.749747
 31
0.0
  0
LINE
  8
0
 62
     0
 10
2.760436
 20
7.88696
 30
0.0
 11
4.8
 21
9.926524
 31
0.0
  0
LINE
  8
0
 62
     0
 10
2.855624
 20
8.158924
 30
0.0
 11
4.696699
 21
10.0
 31
0.0
  0
LINE
  8
0
 62
     0
 10
2.950811
 20
8.430889
 30
0.0
 11
4.519922
 21
10.0
 31
0.0
  0
LINE
  8
0
 62
     0
 10
3.045998
 20
8.702853
 30
0.0
 11
4.343146
 21
10.0
 31
0.0
  0
LINE
  8
0
 62
     0
 10
3.141186
 20
8.974817
 30
0.0
 11
4.166369
 21
10.0
 31
0.0
  0
LINE
  8
0
 62
     0
 10
3.236373
 20
9.246781
 30
0.0
 11
3.989592
 21
10.0
 31
0.0
  0
LINE
  8
0
 62
     0
 10
3.331561
 20
9.518745
 30
0.0
 11
3.812816
 21
10.0
 31
0.0
  0
LINE
  8
0
 62
     0
 10
3.426748
 20
9.790709
 30
0.0
 11
3.636039
 21
10.0
 31
0.0
  0
LINE
  8
0
 62
     0
 10
2.189311
 20
6.255175
 30
0.0
 11
4.8
 21
8.865864
 31
0.0
  0
LINE
  8
0
 62
     0
 10
2.094124
 20
5.983211
 30
0.0
 11
4.8
 21
8.689087
 31
0.0
  0
LINE
  8
0
 62
     0
 10
1.998936
 20
5.711247
 30
0.0
 11
4.8
 21
8.512311
 31
0.0
  0
LINE
  8
0
 62
     0
 10
1.903749
 20
5.439283
 30
0.0
 11
4.8
 21
8.335534
 31
0.0
  0
LINE
  8
0
 62
     0
 10
1.841243
 20
5.2
 30
0.0
 11
4.8
 21
8.158757
 31
0.0
  0
LINE
  8
0
 62
     0
 10
2.018019
 20
5.2
 30
0.0
 11
4.8
 21
7.981981
 31
0.0
  0
LINE
  8
0
 62
     0
 10
2.194796
 20
5.2
 30
0.0
 11
4.8
 21
7.805204
 31
0.0
  0
LINE
  8
0
 62
     0
 10
2.371573
 20
5.2
 30
0.0
 11
4.8
 21
7.628427
 31
0.0
  0
LINE
  8
0
 62
     0
 10
2.54835
 20
5.2
 30
0.0
 11
4.8
 21
7.45165
 31
0.0
  0
LINE
  8
0
 62
     0
 10
2.725126
 20
5.2
 30
0.0
 11
4.8
 21
7.274874
 31
0.0
  0
LINE
  8
0
 62
     0
 10
2.901903
 20
5.2
 30
0.0
 11
4.8
 21
7.098097
 31
0.0
  0
LINE
  8
0
 62
     0
 10
3.07868
 20
5.2
 30
0.0
 11
4.8
 21
6.92132
 31
0.0
  0
LINE
  8
0
 62
     0
 10
3.255456
 20
5.2
 30
0.0
 11
4.8
 21
6.744544
 31
0.0
  0
LINE
  8
0
 62
     0
 10
3.432233
 20
5.2
 30
0.0
 11
4.8
 21
6.567767
 31
0.0
  0
LINE
  8
0
 62
     0
 10
3.60901
 20
5.2
 30
0.0
 11
4.8
 21
6.39099
 31
0.0
  0
LINE
  8
0
 62
     0
 10
3.785786
 20
5.2
 30
0.0
 11
4.8
 21
6.214214
 31
0.0
  0
LINE
  8
0
 62
     0
 10
3.962563
 20
5.2
 30
0.0
 11
4.8
 21
6.037437
 31
0.0
  0
LINE
  8
0
 62
     0
 10
4.13934
 20
5.2
 30
0.0
 11
4.8
 21
5.86066
 31
0.0
  0
LINE
  8
0
 62
     0
 10
4.316117
 20
5.2
 30
0.0
 11
4.8
 21
5.683883
 31
0.0
  0
LINE
  8
0
 62
     0
 10
4.492893
 20
5.2
 30
0.0
 11
4.8
 21
5.507107
 31
0.0
  0
LINE
  8
0
 62
     0
 10
4.66967
 20
5.2
 30
0.0
 11
4.8
 21
5.33033
 31
0.0
  0
ENDBLK
  8
0
  0
BLOCK
  8
0
  2
*X21
 70
    65
 10
0.0
 20
0.0
 30
0.0
  3
*X
  0
LINE
  8
0
 62
     0
 10
5.2
 20
6.083883
 30
0.0
 11
7.178252
 21
8.062136
 31
0.0
  0
LINE
  8
0
 62
     0
 10
5.2
 20
6.26066
 30
0.0
 11
7.132421
 21
8.193082
 31
0.0
  0
LINE
  8
0
 62
     0
 10
5.2
 20
6.437437
 30
0.0
 11
7.08659
 21
8.324027
 31
0.0
  0
LINE
  8
0
 62
     0
 10
5.2
 20
6.614214
 30
0.0
 11
7.040759
 21
8.454973
 31
0.0
  0
LINE
  8
0
 62
     0
 10
5.2
 20
6.79099
 30
0.0
 11
6.994928
 21
8.585919
 31
0.0
  0
LINE
  8
0
 62
     0
 10
5.2
 20
6.967767
 30
0.0
 11
6.949097
 21
8.716864
 31
0.0
  0
LINE
  8
0
 62
     0
 10
5.2
 20
7.144544
 30
0.0
 11
6.903266
 21
8.84781
 31
0.0
  0
LINE
  8
0
 62
     0
 10
5.2
 20
7.32132
 30
0.0
 11
6.857435
 21
8.978756
 31
0.0
  0
LINE
  8
0
 62
     0
 10
5.2
 20
7.498097
 30
0.0
 11
6.811604
 21
9.109702
 31
0.0
  0
LINE
  8
0
 62
     0
 10
5.2
 20
7.674874
 30
0.0
 11
6.765773
 21
9.240647
 31
0.0
  0
LINE
  8
0
 62
     0
 10
5.2
 20
7.85165
 30
0.0
 11
6.719942
 21
9.371593
 31
0.0
  0
LINE
  8
0
 62
     0
 10
5.2
 20
8.028427
 30
0.0
 11
6.674111
 21
9.502539
 31
0.0
  0
LINE
  8
0
 62
     0
 10
5.2
 20
8.205204
 30
0.0
 11
6.62828
 21
9.633484
 31
0.0
  0
LINE
  8
0
 62
     0
 10
5.2
 20
8.381981
 30
0.0
 11
6.582449
 21
9.76443
 31
0.0
  0
LINE
  8
0
 62
     0
 10
5.2
 20
8.558757
 30
0.0
 11
6.536619
 21
9.895376
 31
0.0
  0
LINE
  8
0
 62
     0
 10
5.2
 20
8.735534
 30
0.0
 11
6.464466
 21
10.0
 31
0.0
  0
LINE
  8
0
 62
     0
 10
5.2
 20
8.912311
 30
0.0
 11
6.287689
 21
10.0
 31
0.0
  0
LINE
  8
0
 62
     0
 10
5.2
 20
9.089087
 30
0.0
 11
6.110913
 21
10.0
 31
0.0
  0
LINE
  8
0
 62
     0
 10
5.2
 20
9.265864
 30
0.0
 11
5.934136
 21
10.0
 31
0.0
  0
LINE
  8
0
 62
     0
 10
5.2
 20
9.442641
 30
0.0
 11
5.757359
 21
10.0
 31
0.0
  0
LINE
  8
0
 62
     0
 10
5.2
 20
9.619417
 30
0.0
 11
5.580583
 21
10.0
 31
0.0
  0
LINE
  8
0
 62
     0
 10
5.2
 20
9.796194
 30
0.0
 11
5.403806
 21
10.0
 31
0.0
  0
LINE
  8
0
 62
     0
 10
5.2
 20
9.972971
 30
0.0
 11
5.227029
 21
10.0
 31
0.0
  0
LINE
  8
0
 62
     0
 10
5.2
 20
5.907107
 30
0.0
 11
7.224083
 21
7.93119
 31
0.0
  0
LINE
  8
0
 62
     0
 10
5.2
 20
5.73033
 30
0.0
 11
7.269914
 21
7.800245
 31
0.0
  0
LINE
  8
0
 62
     0
 10
5.2
 20
5.553553
 30
0.0
 11
7.315745
 21
7.669299
 31
0.0
  0
LINE
  8
0
 62
     0
 10
5.2
 20
5.376777
 30
0.0
 11
7.361576
 21
7.538353
 31
0.0
  0
LINE
  8
0
 62
     0
 10
5.2
 20
5.2
 30
0.0
 11
7.407407
 21
7.407407
 31
0.0
  0
LINE
  8
0
 62
     0
 10
5.376777
 20
5.2
 30
0.0
 11
7.453238
 21
7.276462
 31
0.0
  0
LINE
  8
0
 62
     0
 10
5.553553
 20
5.2
 30
0.0
 11
7.499069
 21
7.145516
 31
0.0
  0
LINE
  8
0
 62
     0
 10
5.73033
 20
5.2
 30
0.0
 11
7.5449
 21
7.01457
 31
0.0
  0
LINE
  8
0
 62
     0
 10
5.907107
 20
5.2
 30
0.0
 11
7.590731
 21
6.883625
 31
0.0
  0
LINE
  8
0
 62
     0
 10
6.083883
 20
5.2
 30
0.0
 11
7.636562
 21
6.752679
 31
0.0
  0
LINE
  8
0
 62
     0
 10
6.26066
 20
5.2
 30
0.0
 11
7.682393
 21
6.621733
 31
0.0
  0
LINE
  8
0
 62
     0
 10
6.437437
 20
5.2
 30
0.0
 11
7.728224
 21
6.490788
 31
0.0
  0
LINE
  8
0
 62
     0
 10
6.614214
 20
5.2
 30
0.0
 11
7.774055
 21
6.359842
 31
0.0
  0
LINE
  8
0
 62
     0
 10
6.79099
 20
5.2
 30
0.0
 11
7.819886
 21
6.228896
 31
0.0
  0
LINE
  8
0
 62
     0
 10
6.967767
 20
5.2
 30
0.0
 11
7.865717
 21
6.09795
 31
0.0
  0
LINE
  8
0
 62
     0
 10
7.144544
 20
5.2
 30
0.0
 11
7.911548
 21
5.967005
 31
0.0
  0
LINE
  8
0
 62
     0
 10
7.32132
 20
5.2
 30
0.0
 11
7.957379
 21
5.836059
 31
0.0
  0
LINE
  8
0
 62
     0
 10
7.498097
 20
5.2
 30
0.0
 11
8.00321
 21
5.705113
 31
0.0
  0
LINE
  8
0
 62
     0
 10
7.674874
 20
5.2
 30
0.0
 11
8.049041
 21
5.574168
 31
0.0
  0
LINE
  8
0
 62
     0
 10
7.85165
 20
5.2
 30
0.0
 11
8.094872
 21
5.443222
 31
0.0
  0
LINE
  8
0
 62
     0
 10
8.028427
 20
5.2
 30
0.0
 11
8.140703
 21
5.312276
 31
0.0
  0
ENDBLK
  8
0
  0
BLOCK
  8
0
  2
*X22
 70
    65
 10
0.0
 20
0.0
 30
0.0
  3
*X
  0
LINE
  8
0
 62
     0
 10
0.0
 20
0.0
 30
0.0
 11
4.8
 21
4.8
 31
0.0
  0
LINE
  8
0
 62
     0
 10
0.095187
 20
0.271964
 30
0.0
 11
4.623223
 21
4.8
 31
0.0
  0
LINE
  8
0
 62
     0
 10
0.190375
 20
0.543928
 30
0.0
 11
4.446447
 21
4.8
 31
0.0
  0
LINE
  8
0
 62
     0
 10
0.285562
 20
0.815892
 30
0.0
 11
4.26967
 21
4.8
 31
0.0
  0
LINE
  8
0
 62
     0
 10
0.38075
 20
1.087857
 30
0.0
 11
4.092893
 21
4.8
 31
0.0
  0
LINE
  8
0
 62
     0
 10
0.475937
 20
1.359821
 30
0.0
 11
3.916117
 21
4.8
 31
0.0
  0
LINE
  8
0
 62
     0
 10
0.571125
 20
1.631785
 30
0.0
 11
3.73934
 21
4.8
 31
0.0
  0
LINE
  8
0
 62
     0
 10
0.666312
 20
1.903749
 30
0.0
 11
3.562563
 21
4.8
 31
0.0
  0
LINE
  8
0
 62
     0
 10
0.7615
 20
2.175713
 30
0.0
 11
3.385786
 21
4.8
 31
0.0
  0
LINE
  8
0
 62
     0
 10
0.856687
 20
2.447677
 30
0.0
 11
3.20901
 21
4.8
 31
0.0
  0
LINE
  8
0
 62
     0
 10
0.951875
 20
2.719641
 30
0.0
 11
3.032233
 21
4.8
 31
0.0
  0
LINE
  8
0
 62
     0
 10
1.047062
 20
2.991606
 30
0.0
 11
2.855456
 21
4.8
 31
0.0
  0
LINE
  8
0
 62
     0
 10
1.142249
 20
3.26357
 30
0.0
 11
2.67868
 21
4.8
 31
0.0
  0
LINE
  8
0
 62
     0
 10
1.237437
 20
3.535534
 30
0.0
 11
2.501903
 21
4.8
 31
0.0
  0
LINE
  8
0
 62
     0
 10
1.332624
 20
3.807498
 30
0.0
 11
2.325126
 21
4.8
 31
0.0
  0
LINE
  8
0
 62
     0
 10
1.427812
 20
4.079462
 30
0.0
 11
2.14835
 21
4.8
 31
0.0
  0
LINE
  8
0
 62
     0
 10
1.522999
 20
4.351426
 30
0.0
 11
1.971573
 21
4.8
 31
0.0
  0
LINE
  8
0
 62
     0
 10
1.618187
 20
4.62339
 30
0.0
 11
1.794796
 21
4.8
 31
0.0
  0
LINE
  8
0
 62
     0
 10
0.176777
 20
0.0
 30
0.0
 11
4.8
 21
4.623223
 31
0.0
  0
LINE
  8
0
 62
     0
 10
0.353553
 20
0.0
 30
0.0
 11
4.8
 21
4.446447
 31
0.0
  0
LINE
  8
0
 62
     0
 10
0.53033
 20
0.0
 30
0.0
 11
4.8
 21
4.26967
 31
0.0
  0
LINE
  8
0
 62
     0
 10
0.707107
 20
0.0
 30
0.0
 11
4.8
 21
4.092893
 31
0.0
  0
LINE
  8
0
 62
     0
 10
0.883883
 20
0.0
 30
0.0
 11
4.8
 21
3.916117
 31
0.0
  0
LINE
  8
0
 62
     0
 10
1.06066
 20
0.0
 30
0.0
 11
4.8
 21
3.73934
 31
0.0
  0
LINE
  8
0
 62
     0
 10
1.237437
 20
0.0
 30
0.0
 11
3.179842
 21
1.942405
 31
0.0
  0
LINE
  8
0
 62
     0
 10
3.237437
 20
2.0
 30
0.0
 11
4.8
 21
3.562563
 31
0.0
  0
LINE
  8
0
 62
     0
 10
1.414214
 20
0.0
 30
0.0
 11
3.084654
 21
1.670441
 31
0.0
  0
LINE
  8
0
 62
     0
 10
3.414214
 20
2.0
 30
0.0
 11
4.8
 21
3.385786
 31
0.0
  0
LINE
  8
0
 62
     0
 10
1.59099
 20
0.0
 30
0.0
 11
2.989467
 21
1.398477
 31
0.0
  0
LINE
  8
0
 62
     0
 10
3.59099
 20
2.0
 30
0.0
 11
4.8
 21
3.20901
 31
0.0
  0
LINE
  8
0
 62
     0
 10
1.767767
 20
0.0
 30
0.0
 11
2.894279
 21
1.126512
 31
0.0
  0
LINE
  8
0
 62
     0
 10
3.767767
 20
2.0
 30
0.0
 11
4.8
 21
3.032233
 31
0.0
  0
LINE
  8
0
 62
     0
 10
1.944544
 20
0.0
 30
0.0
 11
2.799092
 21
0.854548
 31
0.0
  0
LINE
  8
0
 62
     0
 10
3.944544
 20
2.0
 30
0.0
 11
4.8
 21
2.855456
 31
0.0
  0
LINE
  8
0
 62
     0
 10
2.12132
 20
0.0
 30
0.0
 11
2.703904
 21
0.582584
 31
0.0
  0
LINE
  8
0
 62
     0
 10
4.12132
 20
2.0
 30
0.0
 11
4.8
 21
2.67868
 31
0.0
  0
LINE
  8
0
 62
     0
 10
2.298097
 20
0.0
 30
0.0
 11
2.608717
 21
0.31062
 31
0.0
  0
LINE
  8
0
 62
     0
 10
4.298097
 20
2.0
 30
0.0
 11
4.8
 21
2.501903
 31
0.0
  0
LINE
  8
0
 62
     0
 10
2.474874
 20
0.0
 30
0.0
 11
2.51353
 21
0.038656
 31
0.0
  0
LINE
  8
0
 62
     0
 10
4.474874
 20
2.0
 30
0.0
 11
4.8
 21
2.325126
 31
0.0
  0
LINE
  8
0
 62
     0
 10
4.65165
 20
2.0
 30
0.0
 11
4.8
 21
2.14835
 31
0.0
  0
ENDBLK
  8
0
  0
BLOCK
  8
0
  2
*X23
 70
    65
 10
0.0
 20
0.0
 30
0.0
  3
*X
  0
LINE
  8
0
 62
     0
 10
6.884654
 20
1.75813
 30
0.0
 11
8.736506
 21
3.609982
 31
0.0
  0
LINE
  8
0
 62
     0
 10
6.838823
 20
1.889076
 30
0.0
 11
8.690675
 21
3.740928
 31
0.0
  0
LINE
  8
0
 62
     0
 10
6.772971
 20
2.0
 30
0.0
 11
8.644844
 21
3.871874
 31
0.0
  0
LINE
  8
0
 62
     0
 10
6.596194
 20
2.0
 30
0.0
 11
8.599013
 21
4.002819
 31
0.0
  0
LINE
  8
0
 62
     0
 10
6.419417
 20
2.0
 30
0.0
 11
8.553182
 21
4.133765
 31
0.0
  0
LINE
  8
0
 62
     0
 10
6.242641
 20
2.0
 30
0.0
 11
8.507351
 21
4.264711
 31
0.0
  0
LINE
  8
0
 62
     0
 10
6.065864
 20
2.0
 30
0.0
 11
8.46152
 21
4.395656
 31
0.0
  0
LINE
  8
0
 62
     0
 10
5.889087
 20
2.0
 30
0.0
 11
8.415689
 21
4.526602
 31
0.0
  0
LINE
  8
0
 62
     0
 10
5.712311
 20
2.0
 30
0.0
 11
8.369858
 21
4.657548
 31
0.0
  0
LINE
  8
0
 62
     0
 10
5.535534
 20
2.0
 30
0.0
 11
8.324027
 21
4.788493
 31
0.0
  0
LINE
  8
0
 62
     0
 10
5.358757
 20
2.0
 30
0.0
 11
8.158757
 21
4.8
 31
0.0
  0
LINE
  8
0
 62
     0
 10
5.2
 20
2.018019
 30
0.0
 11
7.981981
 21
4.8
 31
0.0
  0
LINE
  8
0
 62
     0
 10
5.2
 20
2.194796
 30
0.0
 11
7.805204
 21
4.8
 31
0.0
  0
LINE
  8
0
 62
     0
 10
5.2
 20
2.371573
 30
0.0
 11
7.628427
 21
4.8
 31
0.0
  0
LINE
  8
0
 62
     0
 10
5.2
 20
2.54835
 30
0.0
 11
7.45165
 21
4.8
 31
0.0
  0
LINE
  8
0
 62
     0
 10
5.2
 20
2.725126
 30
0.0
 11
7.274874
 21
4.8
 31
0.0
  0
LINE
  8
0
 62
     0
 10
5.2
 20
2.901903
 30
0.0
 11
7.098097
 21
4.8
 31
0.0
  0
LINE
  8
0
 62
     0
 10
5.2
 20
3.07868
 30
0.0
 11
6.92132
 21
4.8
 31
0.0
  0
LINE
  8
0
 62
     0
 10
5.2
 20
3.255456
 30
0.0
 11
6.744544
 21
4.8
 31
0.0
  0
LINE
  8
0
 62
     0
 10
5.2
 20
3.432233
 30
0.0
 11
6.567767
 21
4.8
 31
0.0
  0
LINE
  8
0
 62
     0
 10
5.2
 20
3.60901
 30
0.0
 11
6.39099
 21
4.8
 31
0.0
  0
LINE
  8
0
 62
     0
 10
5.2
 20
3.785786
 30
0.0
 11
6.214214
 21
4.8
 31
0.0
  0
LINE
  8
0
 62
     0
 10
5.2
 20
3.962563
 30
0.0
 11
6.037437
 21
4.8
 31
0.0
  0
LINE
  8
0
 62
     0
 10
5.2
 20
4.13934
 30
0.0
 11
5.86066
 21
4.8
 31
0.0
  0
LINE
  8
0
 62
     0
 10
5.2
 20
4.316117
 30
0.0
 11
5.683883
 21
4.8
 31
0.0
  0
LINE
  8
0
 62
     0
 10
5.2
 20
4.492893
 30
0.0
 11
5.507107
 21
4.8
 31
0.0
  0
LINE
  8
0
 62
     0
 10
5.2
 20
4.66967
 30
0.0
 11
5.33033
 21
4.8
 31
0.0
  0
LINE
  8
0
 62
     0
 10
6.930485
 20
1.627185
 30
0.0
 11
8.782337
 21
3.479036
 31
0.0
  0
LINE
  8
0
 62
     0
 10
6.976316
 20
1.496239
 30
0.0
 11
8.828168
 21
3.348091
 31
0.0
  0
LINE
  8
0
 62
     0
 10
7.022147
 20
1.365293
 30
0.0
 11
8.873999
 21
3.217145
 31
0.0
  0
LINE
  8
0
 62
     0
 10
7.067978
 20
1.234347
 30
0.0
 11
8.91983
 21
3.086199
 31
0.0
  0
LINE
  8
0
 62
     0
 10
7.113809
 20
1.103402
 30
0.0
 11
8.965661
 21
2.955254
 31
0.0
  0
LINE
  8
0
 62
     0
 10
7.15964
 20
0.972456
 30
0.0
 11
9.011492
 21
2.824308
 31
0.0
  0
LINE
  8
0
 62
     0
 10
7.205471
 20
0.84151
 30
0.0
 11
9.057323
 21
2.693362
 31
0.0
  0
LINE
  8
0
 62
     0
 10
7.251302
 20
0.710565
 30
0.0
 11
9.103154
 21
2.562416
 31
0.0
  0
LINE
  8
0
 62
     0
 10
7.297133
 20
0.579619
 30
0.0
 11
9.148985
 21
2.431471
 31
0.0
  0
LINE
  8
0
 62
     0
 10
7.342964
 20
0.448673
 30
0.0
 11
9.194816
 21
2.300525
 31
0.0
  0
LINE
  8
0
 62
     0
 10
7.388795
 20
0.317728
 30
0.0
 11
9.240647
 21
2.169579
 31
0.0
  0
LINE
  8
0
 62
     0
 10
7.434626
 20
0.186782
 30
0.0
 11
9.286478
 21
2.038634
 31
0.0
  0
LINE
  8
0
 62
     0
 10
7.480457
 20
0.055836
 30
0.0
 11
9.332309
 21
1.907688
 31
0.0
  0
LINE
  8
0
 62
     0
 10
7.601398
 20
0.0
 30
0.0
 11
9.37814
 21
1.776742
 31
0.0
  0
LINE
  8
0
 62
     0
 10
7.778175
 20
0.0
 30
0.0
 11
9.423971
 21
1.645797
 31
0.0
  0
LINE
  8
0
 62
     0
 10
7.954951
 20
0.0
 30
0.0
 11
9.469802
 21
1.514851
 31
0.0
  0
LINE
  8
0
 62
     0
 10
8.131728
 20
0.0
 30
0.0
 11
9.515633
 21
1.383905
 31
0.0
  0
LINE
  8
0
 62
     0
 10
8.308505
 20
0.0
 30
0.0
 11
9.561464
 21
1.252959
 31
0.0
  0
LINE
  8
0
 62
     0
 10
8.485281
 20
0.0
 30
0.0
 11
9.607295
 21
1.122014
 31
0.0
  0
LINE
  8
0
 62
     0
 10
8.662058
 20
0.0
 30
0.0
 11
9.653126
 21
0.991068
 31
0.0
  0
LINE
  8
0
 62
     0
 10
8.838835
 20
0.0
 30
0.0
 11
9.698957
 21
0.860122
 31
0.0
  0
LINE
  8
0
 62
     0
 10
9.015611
 20
0.0
 30
0.0
 11
9.744788
 21
0.729177
 31
0.0
  0
LINE
  8
0
 62
     0
 10
9.192388
 20
0.0
 30
0.0
 11
9.790619
 21
0.598231
 31
0.0
  0
LINE
  8
0
 62
     0
 10
9.369165
 20
0.0
 30
0.0
 11
9.83645
 21
0.467285
 31
0.0
  0
LINE
  8
0
 62
     0
 10
9.545942
 20
0.0
 30
0.0
 11
9.882281
 21
0.33634
 31
0.0
  0
LINE
  8
0
 62
     0
 10
9.722718
 20
0.0
 30
0.0
 11
9.928112
 21
0.205394
 31
0.0
  0
LINE
  8
0
 62
     0
 10
9.899495
 20
0.0
 30
0.0
 11
9.973943
 21
0.074448
 31
0.0
  0
ENDBLK
  8
0
  0
BLOCK
  8
0
  2
*X24
 70
    65
 10
0.0
 20
0.0
 30
0.0
  3
*X
  0
LINE
  8
0
 62
     0
 10
10.7
 20
6.280583
 30
0.0
 11
13.5
 21
9.080583
 31
0.0
  0
LINE
  8
0
 62
     0
 10
10.7
 20
6.457359
 30
0.0
 11
13.5
 21
9.257359
 31
0.0
  0
LINE
  8
0
 62
     0
 10
10.7
 20
6.634136
 30
0.0
 11
13.5
 21
9.434136
 31
0.0
  0
LINE
  8
0
 62
     0
 10
10.7
 20
6.810913
 30
0.0
 11
13.5
 21
9.610913
 31
0.0
  0
LINE
  8
0
 62
     0
 10
10.7
 20
6.987689
 30
0.0
 11
13.5
 21
9.787689
 31
0.0
  0
LINE
  8
0
 62
     0
 10
10.7
 20
7.164466
 30
0.0
 11
13.5
 21
9.964466
 31
0.0
  0
LINE
  8
0
 62
     0
 10
10.7
 20
7.341243
 30
0.0
 11
13.358757
 21
10.0
 31
0.0
  0
LINE
  8
0
 62
     0
 10
10.7
 20
7.518019
 30
0.0
 11
13.181981
 21
10.0
 31
0.0
  0
LINE
  8
0
 62
     0
 10
10.7
 20
7.694796
 30
0.0
 11
13.005204
 21
10.0
 31
0.0
  0
LINE
  8
0
 62
     0
 10
10.7
 20
7.871573
 30
0.0
 11
12.828427
 21
10.0
 31
0.0
  0
LINE
  8
0
 62
     0
 10
10.7
 20
8.04835
 30
0.0
 11
12.65165
 21
10.0
 31
0.0
  0
LINE
  8
0
 62
     0
 10
10.7
 20
8.225126
 30
0.0
 11
12.474874
 21
10.0
 31
0.0
  0
LINE
  8
0
 62
     0
 10
10.7
 20
8.401903
 30
0.0
 11
12.298097
 21
10.0
 31
0.0
  0
LINE
  8
0
 62
     0
 10
10.7
 20
8.57868
 30
0.0
 11
12.12132
 21
10.0
 31
0.0
  0
LINE
  8
0
 62
     0
 10
10.7
 20
8.755456
 30
0.0
 11
11.944544
 21
10.0
 31
0.0
  0
LINE
  8
0
 62
     0
 10
10.7
 20
8.932233
 30
0.0
 11
11.767767
 21
10.0
 31
0.0
  0
LINE
  8
0
 62
     0
 10
10.7
 20
9.10901
 30
0.0
 11
11.59099
 21
10.0
 31
0.0
  0
LINE
  8
0
 62
     0
 10
10.7
 20
9.285786
 30
0.0
 11
11.414214
 21
10.0
 31
0.0
  0
LINE
  8
0
 62
     0
 10
10.7
 20
9.462563
 30
0.0
 11
11.237437
 21
10.0
 31
0.0
  0
LINE
  8
0
 62
     0
 10
10.7
 20
9.63934
 30
0.0
 11
11.06066
 21
10.0
 31
0.0
  0
LINE
  8
0
 62
     0
 10
10.7
 20
9.816117
 30
0.0
 11
10.883883
 21
10.0
 31
0.0
  0
LINE
  8
0
 62
     0
 10
10.7
 20
9.992893
 30
0.0
 11
10.707107
 21
10.0
 31
0.0
  0
LINE
  8
0
 62
     0
 10
10.7
 20
6.103806
 30
0.0
 11
13.5
 21
8.903806
 31
0.0
  0
LINE
  8
0
 62
     0
 10
10.7
 20
5.927029
 30
0.0
 11
13.5
 21
8.727029
 31
0.0
  0
LINE
  8
0
 62
     0
 10
10.7
 20
5.750253
 30
0.0
 11
13.5
 21
8.550253
 31
0.0
  0
LINE
  8
0
 62
     0
 10
10.7
 20
5.573476
 30
0.0
 11
13.5
 21
8.373476
 31
0.0
  0
LINE
  8
0
 62
     0
 10
10.7
 20
5.396699
 30
0.0
 11
13.5
 21
8.196699
 31
0.0
  0
LINE
  8
0
 62
     0
 10
10.7
 20
5.219922
 30
0.0
 11
13.5
 21
8.019922
 31
0.0
  0
LINE
  8
0
 62
     0
 10
10.856854
 20
5.2
 30
0.0
 11
13.5
 21
7.843146
 31
0.0
  0
LINE
  8
0
 62
     0
 10
11.033631
 20
5.2
 30
0.0
 11
13.5
 21
7.666369
 31
0.0
  0
LINE
  8
0
 62
     0
 10
11.210408
 20
5.2
 30
0.0
 11
13.5
 21
7.489592
 31
0.0
  0
LINE
  8
0
 62
     0
 10
11.387184
 20
5.2
 30
0.0
 11
13.5
 21
7.312816
 31
0.0
  0
LINE
  8
0
 62
     0
 10
11.563961
 20
5.2
 30
0.0
 11
13.5
 21
7.136039
 31
0.0
  0
LINE
  8
0
 62
     0
 10
11.740738
 20
5.2
 30
0.0
 11
13.5
 21
6.959262
 31
0.0
  0
LINE
  8
0
 62
     0
 10
11.917514
 20
5.2
 30
0.0
 11
13.5
 21
6.782486
 31
0.0
  0
LINE
  8
0
 62
     0
 10
12.094291
 20
5.2
 30
0.0
 11
13.5
 21
6.605709
 31
0.0
  0
LINE
  8
0
 62
     0
 10
12.271068
 20
5.2
 30
0.0
 11
13.5
 21
6.428932
 31
0.0
  0
LINE
  8
0
 62
     0
 10
12.447845
 20
5.2
 30
0.0
 11
13.5
 21
6.252155
 31
0.0
  0
LINE
  8
0
 62
     0
 10
12.624621
 20
5.2
 30
0.0
 11
13.5
 21
6.075379
 31
0.0
  0
LINE
  8
0
 62
     0
 10
12.801398
 20
5.2
 30
0.0
 11
13.5
 21
5.898602
 31
0.0
  0
LINE
  8
0
 62
     0
 10
12.978175
 20
5.2
 30
0.0
 11
13.5
 21
5.721825
 31
0.0
  0
LINE
  8
0
 62
     0
 10
13.154951
 20
5.2
 30
0.0
 11
13.5
 21
5.545049
 31
0.0
  0
LINE
  8
0
 62
     0
 10
13.331728
 20
5.2
 30
0.0
 11
13.5
 21
5.368272
 31
0.0
  0
ENDBLK
  8
0
  0
BLOCK
  8
0
  2
*X25
 70
    65
 10
0.0
 20
0.0
 30
0.0
  3
*X
  0
LINE
  8
0
 62
     0
 10
10.7
 20
1.154058
 30
0.0
 11
13.5
 21
3.954058
 31
0.0
  0
LINE
  8
0
 62
     0
 10
10.7
 20
1.330835
 30
0.0
 11
13.5
 21
4.130835
 31
0.0
  0
LINE
  8
0
 62
     0
 10
10.7
 20
1.507612
 30
0.0
 11
13.5
 21
4.307612
 31
0.0
  0
LINE
  8
0
 62
     0
 10
10.7
 20
1.684389
 30
0.0
 11
13.5
 21
4.484389
 31
0.0
  0
LINE
  8
0
 62
     0
 10
10.7
 20
1.861165
 30
0.0
 11
13.5
 21
4.661165
 31
0.0
  0
LINE
  8
0
 62
     0
 10
10.7
 20
2.037942
 30
0.0
 11
13.462058
 21
4.8
 31
0.0
  0
LINE
  8
0
 62
     0
 10
10.7
 20
2.214719
 30
0.0
 11
13.285281
 21
4.8
 31
0.0
  0
LINE
  8
0
 62
     0
 10
10.7
 20
2.391495
 30
0.0
 11
13.108505
 21
4.8
 31
0.0
  0
LINE
  8
0
 62
     0
 10
10.7
 20
2.568272
 30
0.0
 11
12.931728
 21
4.8
 31
0.0
  0
LINE
  8
0
 62
     0
 10
10.7
 20
2.745049
 30
0.0
 11
12.754951
 21
4.8
 31
0.0
  0
LINE
  8
0
 62
     0
 10
10.7
 20
2.921825
 30
0.0
 11
12.578175
 21
4.8
 31
0.0
  0
LINE
  8
0
 62
     0
 10
10.7
 20
3.098602
 30
0.0
 11
12.401398
 21
4.8
 31
0.0
  0
LINE
  8
0
 62
     0
 10
10.7
 20
3.275379
 30
0.0
 11
12.224621
 21
4.8
 31
0.0
  0
LINE
  8
0
 62
     0
 10
10.7
 20
3.452155
 30
0.0
 11
12.047845
 21
4.8
 31
0.0
  0
LINE
  8
0
 62
     0
 10
10.7
 20
3.628932
 30
0.0
 11
11.871068
 21
4.8
 31
0.0
  0
LINE
  8
0
 62
     0
 10
10.7
 20
3.805709
 30
0.0
 11
11.694291
 21
4.8
 31
0.0
  0
LINE
  8
0
 62
     0
 10
10.7
 20
3.982486
 30
0.0
 11
11.517514
 21
4.8
 31
0.0
  0
LINE
  8
0
 62
     0
 10
10.7
 20
4.159262
 30
0.0
 11
11.340738
 21
4.8
 31
0.0
  0
LINE
  8
0
 62
     0
 10
10.7
 20
4.336039
 30
0.0
 11
11.163961
 21
4.8
 31
0.0
  0
LINE
  8
0
 62
     0
 10
10.7
 20
4.512816
 30
0.0
 11
10.987184
 21
4.8
 31
0.0
  0
LINE
  8
0
 62
     0
 10
10.7
 20
4.689592
 30
0.0
 11
10.810408
 21
4.8
 31
0.0
  0
LINE
  8
0
 62
     0
 10
10.7
 20
0.977282
 30
0.0
 11
13.5
 21
3.777282
 31
0.0
  0
LINE
  8
0
 62
     0
 10
10.7
 20
0.800505
 30
0.0
 11
13.5
 21
3.600505
 31
0.0
  0
LINE
  8
0
 62
     0
 10
10.7
 20
0.623728
 30
0.0
 11
13.5
 21
3.423728
 31
0.0
  0
LINE
  8
0
 62
     0
 10
10.7
 20
0.446952
 30
0.0
 11
13.5
 21
3.246952
 31
0.0
  0
LINE
  8
0
 62
     0
 10
10.7
 20
0.270175
 30
0.0
 11
13.5
 21
3.070175
 31
0.0
  0
LINE
  8
0
 62
     0
 10
10.7
 20
0.093398
 30
0.0
 11
13.5
 21
2.893398
 31
0.0
  0
LINE
  8
0
 62
     0
 10
10.783378
 20
0.0
 30
0.0
 11
13.5
 21
2.716622
 31
0.0
  0
LINE
  8
0
 62
     0
 10
10.960155
 20
0.0
 30
0.0
 11
13.5
 21
2.539845
 31
0.0
  0
LINE
  8
0
 62
     0
 10
11.136932
 20
0.0
 30
0.0
 11
13.5
 21
2.363068
 31
0.0
  0
LINE
  8
0
 62
     0
 10
11.313708
 20
0.0
 30
0.0
 11
13.5
 21
2.186292
 31
0.0
  0
LINE
  8
0
 62
     0
 10
11.490485
 20
0.0
 30
0.0
 11
13.5
 21
2.009515
 31
0.0
  0
LINE
  8
0
 62
     0
 10
11.667262
 20
0.0
 30
0.0
 11
13.5
 21
1.832738
 31
0.0
  0
LINE
  8
0
 62
     0
 10
11.844039
 20
0.0
 30
0.0
 11
13.5
 21
1.655961
 31
0.0
  0
LINE
  8
0
 62
     0
 10
12.020815
 20
0.0
 30
0.0
 11
13.5
 21
1.479185
 31
0.0
  0
LINE
  8
0
 62
     0
 10
12.197592
 20
0.0
 30
0.0
 11
13.5
 21
1.302408
 31
0.0
  0
LINE
  8
0
 62
     0
 10
12.374369
 20
0.0
 30
0.0
 11
13.5
 21
1.125631
 31
0.0
  0
LINE
  8
0
 62
     0
 10
12.551145
 20
0.0
 30
0.0
 11
13.5
 21
0.948855
 31
0.0
  0
LINE
  8
0
 62
     0
 10
12.727922
 20
0.0
 30
0.0
 11
13.5
 21
0.772078
 31
0.0
  0
LINE
  8
0
 62
     0
 10
12.904699
 20
0.0
 30
0.0
 11
13.5
 21
0.595301
 31
0.0
  0
LINE
  8
0
 62
     0
 10
13.081475
 20
0.0
 30
0.0
 11
13.5
 21
0.418525
 31
0.0
  0
LINE
  8
0
 62
     0
 10
13.258252
 20
0.0
 30
0.0
 11
13.5
 21
0.241748
 31
0.0
  0
LINE
  8
0
 62
     0
 10
13.435029
 20
0.0
 30
0.0
 11
13.5
 21
0.064971
 31
0.0
  0
ENDBLK
  8
0
  0
BLOCK
  8
0
  2
*X26
 70
    65
 10
0.0
 20
0.0
 30
0.0
  3
*X
  0
LINE
  8
0
 62
     0
 10
13.9
 20
6.298602
 30
0.0
 11
16.582995
 21
8.981597
 31
0.0
  0
LINE
  8
0
 62
     0
 10
13.9
 20
6.475379
 30
0.0
 11
16.510503
 21
9.085882
 31
0.0
  0
LINE
  8
0
 62
     0
 10
13.9
 20
6.652155
 30
0.0
 11
16.432927
 21
9.185083
 31
0.0
  0
LINE
  8
0
 62
     0
 10
13.9
 20
6.828932
 30
0.0
 11
16.350372
 21
9.279304
 31
0.0
  0
LINE
  8
0
 62
     0
 10
13.9
 20
7.005709
 30
0.0
 11
16.262892
 21
9.368601
 31
0.0
  0
LINE
  8
0
 62
     0
 10
13.9
 20
7.182486
 30
0.0
 11
16.170495
 21
9.452981
 31
0.0
  0
LINE
  8
0
 62
     0
 10
13.9
 20
7.359262
 30
0.0
 11
16.073145
 21
9.532407
 31
0.0
  0
LINE
  8
0
 62
     0
 10
13.9
 20
7.536039
 30
0.0
 11
15.970755
 21
9.606794
 31
0.0
  0
LINE
  8
0
 62
     0
 10
13.9
 20
7.712816
 30
0.0
 11
15.863189
 21
9.676004
 31
0.0
  0
LINE
  8
0
 62
     0
 10
13.9
 20
7.889592
 30
0.0
 11
15.75025
 21
9.739843
 31
0.0
  0
LINE
  8
0
 62
     0
 10
13.9
 20
8.066369
 30
0.0
 11
15.631675
 21
9.798044
 31
0.0
  0
LINE
  8
0
 62
     0
 10
13.9
 20
8.243146
 30
0.0
 11
15.50711
 21
9.850256
 31
0.0
  0
LINE
  8
0
 62
     0
 10
13.9
 20
8.419922
 30
0.0
 11
15.376096
 21
9.896018
 31
0.0
  0
LINE
  8
0
 62
     0
 10
13.9
 20
8.596699
 30
0.0
 11
15.238027
 21
9.934726
 31
0.0
  0
LINE
  8
0
 62
     0
 10
13.9
 20
8.773476
 30
0.0
 11
15.092096
 21
9.965572
 31
0.0
  0
LINE
  8
0
 62
     0
 10
13.9
 20
8.950253
 30
0.0
 11
14.937209
 21
9.987461
 31
0.0
  0
LINE
  8
0
 62
     0
 10
13.9
 20
9.127029
 30
0.0
 11
14.771824
 21
9.998853
 31
0.0
  0
LINE
  8
0
 62
     0
 10
13.9
 20
9.303806
 30
0.0
 11
14.596193
 21
9.999999
 31
0.0
  0
LINE
  8
0
 62
     0
 10
13.9
 20
9.480583
 30
0.0
 11
14.419417
 21
9.999999
 31
0.0
  0
LINE
  8
0
 62
     0
 10
13.9
 20
9.657359
 30
0.0
 11
14.24264
 21
10.0
 31
0.0
  0
LINE
  8
0
 62
     0
 10
13.9
 20
9.834136
 30
0.0
 11
14.065864
 21
10.0
 31
0.0
  0
LINE
  8
0
 62
     0
 10
13.9
 20
6.121825
 30
0.0
 11
16.650245
 21
8.872071
 31
0.0
  0
LINE
  8
0
 62
     0
 10
13.9
 20
5.945049
 30
0.0
 11
16.712035
 21
8.757083
 31
0.0
  0
LINE
  8
0
 62
     0
 10
13.9
 20
5.768272
 30
0.0
 11
16.768067
 21
8.636339
 31
0.0
  0
LINE
  8
0
 62
     0
 10
13.9
 20
5.591495
 30
0.0
 11
16.817955
 21
8.509451
 31
0.0
  0
LINE
  8
0
 62
     0
 10
13.9
 20
5.414719
 30
0.0
 11
16.861189
 21
8.375908
 31
0.0
  0
LINE
  8
0
 62
     0
 10
13.9
 20
5.237942
 30
0.0
 11
16.897097
 21
8.235039
 31
0.0
  0
LINE
  8
0
 62
     0
 10
14.038835
 20
5.2
 30
0.0
 11
16.924779
 21
8.085944
 31
0.0
  0
LINE
  8
0
 62
     0
 10
14.215611
 20
5.2
 30
0.0
 11
16.942997
 21
7.927385
 31
0.0
  0
LINE
  8
0
 62
     0
 10
14.392388
 20
5.2
 30
0.0
 11
16.949987
 21
7.757599
 31
0.0
  0
LINE
  8
0
 62
     0
 10
14.569165
 20
5.2
 30
0.0
 11
16.943101
 21
7.573936
 31
0.0
  0
LINE
  8
0
 62
     0
 10
14.745942
 20
5.2
 30
0.0
 11
16.918037
 21
7.372095
 31
0.0
  0
LINE
  8
0
 62
     0
 10
14.922718
 20
5.2
 30
0.0
 11
16.866909
 21
7.144191
 31
0.0
  0
LINE
  8
0
 62
     0
 10
15.099495
 20
5.2
 30
0.0
 11
16.771715
 21
6.87222
 31
0.0
  0
LINE
  8
0
 62
     0
 10
15.276272
 20
5.2
 30
0.0
 11
15.847951
 21
5.77168
 31
0.0
  0
LINE
  8
0
 62
     0
 10
15.96673
 20
5.890458
 30
0.0
 11
16.559542
 21
6.48327
 31
0.0
  0
LINE
  8
0
 62
     0
 10
15.453048
 20
5.2
 30
0.0
 11
15.970661
 21
5.717613
 31
0.0
  0
LINE
  8
0
 62
     0
 10
15.629825
 20
5.2
 30
0.0
 11
16.088934
 21
5.659109
 31
0.0
  0
LINE
  8
0
 62
     0
 10
15.806602
 20
5.2
 30
0.0
 11
16.202964
 21
5.596363
 31
0.0
  0
LINE
  8
0
 62
     0
 10
15.983378
 20
5.2
 30
0.0
 11
16.312909
 21
5.529531
 31
0.0
  0
LINE
  8
0
 62
     0
 10
16.160155
 20
5.2
 30
0.0
 11
16.418895
 21
5.45874
 31
0.0
  0
LINE
  8
0
 62
     0
 10
16.336932
 20
5.2
 30
0.0
 11
16.521021
 21
5.384089
 31
0.0
  0
LINE
  8
0
 62
     0
 10
16.513708
 20
5.2
 30
0.0
 11
16.619363
 21
5.305655
 31
0.0
  0
LINE
  8
0
 62
     0
 10
16.690485
 20
5.2
 30
0.0
 11
16.713975
 21
5.22349
 31
0.0
  0
ENDBLK
  8
0
  0
BLOCK
  8
0
  2
*X27
 70
    65
 10
0.0
 20
0.0
 30
0.0
  3
*X
  0
LINE
  8
0
 62
     0
 10
13.9
 20
0.818525
 30
0.0
 11
17.39645
 21
4.314974
 31
0.0
  0
LINE
  8
0
 62
     0
 10
13.9
 20
0.995301
 30
0.0
 11
17.336354
 21
4.431655
 31
0.0
  0
LINE
  8
0
 62
     0
 10
13.9
 20
1.172078
 30
0.0
 11
17.272078
 21
4.544156
 31
0.0
  0
LINE
  8
0
 62
     0
 10
13.9
 20
1.348855
 30
0.0
 11
17.203766
 21
4.652621
 31
0.0
  0
LINE
  8
0
 62
     0
 10
13.9
 20
1.525631
 30
0.0
 11
17.131535
 21
4.757167
 31
0.0
  0
LINE
  8
0
 62
     0
 10
13.9
 20
1.702408
 30
0.0
 11
16.997592
 21
4.8
 31
0.0
  0
LINE
  8
0
 62
     0
 10
13.9
 20
1.879185
 30
0.0
 11
16.820815
 21
4.8
 31
0.0
  0
LINE
  8
0
 62
     0
 10
13.9
 20
2.055961
 30
0.0
 11
16.644039
 21
4.8
 31
0.0
  0
LINE
  8
0
 62
     0
 10
13.9
 20
2.232738
 30
0.0
 11
16.467262
 21
4.8
 31
0.0
  0
LINE
  8
0
 62
     0
 10
13.9
 20
2.409515
 30
0.0
 11
16.290485
 21
4.8
 31
0.0
  0
LINE
  8
0
 62
     0
 10
13.9
 20
2.586292
 30
0.0
 11
16.113708
 21
4.8
 31
0.0
  0
LINE
  8
0
 62
     0
 10
13.9
 20
2.763068
 30
0.0
 11
15.936932
 21
4.8
 31
0.0
  0
LINE
  8
0
 62
     0
 10
13.9
 20
2.939845
 30
0.0
 11
15.760155
 21
4.8
 31
0.0
  0
LINE
  8
0
 62
     0
 10
13.9
 20
3.116622
 30
0.0
 11
15.583378
 21
4.8
 31
0.0
  0
LINE
  8
0
 62
     0
 10
13.9
 20
3.293398
 30
0.0
 11
15.406602
 21
4.8
 31
0.0
  0
LINE
  8
0
 62
     0
 10
13.9
 20
3.470175
 30
0.0
 11
15.229825
 21
4.8
 31
0.0
  0
LINE
  8
0
 62
     0
 10
13.9
 20
3.646952
 30
0.0
 11
15.053048
 21
4.8
 31
0.0
  0
LINE
  8
0
 62
     0
 10
13.9
 20
3.823728
 30
0.0
 11
14.876272
 21
4.8
 31
0.0
  0
LINE
  8
0
 62
     0
 10
13.9
 20
4.000505
 30
0.0
 11
14.699495
 21
4.8
 31
0.0
  0
LINE
  8
0
 62
     0
 10
13.9
 20
4.177282
 30
0.0
 11
14.522718
 21
4.8
 31
0.0
  0
LINE
  8
0
 62
     0
 10
13.9
 20
4.354058
 30
0.0
 11
14.345942
 21
4.8
 31
0.0
  0
LINE
  8
0
 62
     0
 10
13.9
 20
4.530835
 30
0.0
 11
14.169165
 21
4.8
 31
0.0
  0
LINE
  8
0
 62
     0
 10
13.9
 20
4.707612
 30
0.0
 11
13.992388
 21
4.8
 31
0.0
  0
LINE
  8
0
 62
     0
 10
13.9
 20
0.641748
 30
0.0
 11
17.452185
 21
4.193933
 31
0.0
  0
LINE
  8
0
 62
     0
 10
13.9
 20
0.464971
 30
0.0
 11
17.503339
 21
4.068311
 31
0.0
  0
LINE
  8
0
 62
     0
 10
13.9
 20
0.288194
 30
0.0
 11
17.549642
 21
3.937837
 31
0.0
  0
LINE
  8
0
 62
     0
 10
13.9
 20
0.111418
 30
0.0
 11
17.590762
 21
3.80218
 31
0.0
  0
LINE
  8
0
 62
     0
 10
13.965359
 20
0.0
 30
0.0
 11
17.62629
 21
3.660931
 31
0.0
  0
LINE
  8
0
 62
     0
 10
14.142136
 20
0.000001
 30
0.0
 11
17.655713
 21
3.513577
 31
0.0
  0
LINE
  8
0
 62
     0
 10
14.318913
 20
0.000001
 30
0.0
 11
17.678385
 21
3.359473
 31
0.0
  0
LINE
  8
0
 62
     0
 10
14.49569
 20
0.000001
 30
0.0
 11
17.693473
 21
3.197784
 31
0.0
  0
LINE
  8
0
 62
     0
 10
14.672467
 20
0.000002
 30
0.0
 11
17.699875
 21
3.027409
 31
0.0
  0
LINE
  8
0
 62
     0
 10
14.853154
 20
0.003912
 30
0.0
 11
17.696088
 21
2.846846
 31
0.0
  0
LINE
  8
0
 62
     0
 10
15.046044
 20
0.020025
 30
0.0
 11
17.679975
 21
2.653956
 31
0.0
  0
LINE
  8
0
 62
     0
 10
15.254483
 20
0.051687
 30
0.0
 11
17.648313
 21
2.445517
 31
0.0
  0
LINE
  8
0
 62
     0
 10
15.483762
 20
0.10419
 30
0.0
 11
17.59581
 21
2.216238
 31
0.0
  0
LINE
  8
0
 62
     0
 10
15.743786
 20
0.187437
 30
0.0
 11
17.512563
 21
1.956214
 31
0.0
  0
LINE
  8
0
 62
     0
 10
16.058176
 20
0.32505
 30
0.0
 11
17.37495
 21
1.641824
 31
0.0
  0
LINE
  8
0
 62
     0
 10
16.54193
 20
0.632028
 30
0.0
 11
17.067972
 21
1.15807
 31
0.0
  0
ENDBLK
  8
0
  0
ENDSEC
  0
SECTION
  2
ENTITIES
  0
INSERT
  8
0
  2
1
 10
65.405438
 20
98.713066
 30
0.0
  0
INSERT
  8
0
  2
1
 10
72.541652
 20
49.71056
 30
0.0
  0
INSERT
  8
0
  2
1
 10
85.390443
 20
73.497234
 30
0.0
  0
LINE
  8
0
  6
CENTER
 62
   249
 10
230.0
 20
185.0
 30
0.0
 11
230.0
 21
77.5
 31
0.0
  0
LINE
  8
0
  6
CENTER
 62
   249
 10
230.0
 20
77.5
 30
0.0
 11
230.0
 21
55.0
 31
0.0
  0
LINE
  8
0
  6
CONTINUOUS
 62
   249
 10
212.5
 20
70.0
 30
0.0
 11
222.5
 21
70.0
 31
0.0
  0
LINE
  8
0
  6
CONTINUOUS
 62
   249
 10
212.5
 20
70.0
 30
0.0
 11
215.0
 21
72.5
 31
0.0
  0
LINE
  8
0
  6
CONTINUOUS
 62
   249
 10
217.5
 20
70.0
 30
0.0
 11
220.0
 21
72.5
 31
0.0
  0
LINE
  8
0
  6
CONTINUOUS
 62
   249
 10
222.5
 20
70.0
 30
0.0
 11
225.0
 21
72.5
 31
0.0
  0
LINE
  8
0
  6
CONTINUOUS
 62
   249
 10
217.5
 20
70.0
 30
0.0
 11
217.5
 21
55.0
 31
0.0
  0
LINE
  8
0
  6
CONTINUOUS
 62
   249
 10
205.0
 20
72.5
 30
0.0
 11
205.0
 21
55.0
 31
0.0
  0
LINE
  8
0
  6
CONTINUOUS
 62
   249
 10
200.0
 20
72.5
 30
0.0
 11
200.0
 21
55.0
 31
0.0
  0
LINE
  8
0
  6
DASHED
 62
   249
 10
205.0
 20
55.0
 30
0.0
 11
205.0
 21
47.5
 31
0.0
  0
LINE
  8
0
  6
DASHED
 62
   249
 10
217.5
 20
55.0
 30
0.0
 11
217.5
 21
47.5
 31
0.0
  0
LINE
  8
0
  6
DASHED
 62
   249
 10
200.0
 20
55.0
 30
0.0
 11
200.0
 21
47.5
 31
0.0
  0
LINE
  8
0
  6
DASHED
 62
   249
 10
172.5
 20
55.0
 30
0.0
 11
172.5
 21
47.5
 31
0.0
  0
LINE
  8
0
  6
DASHED
 62
   249
 10
167.5
 20
55.0
 30
0.0
 11
167.5
 21
47.5
 31
0.0
  0
LINE
  8
0
  6
DASHED
 62
   249
 10
152.5
 20
55.0
 30
0.0
 11
152.5
 21
47.5
 31
0.0
  0
LINE
  8
0
  6
CONTINUOUS
 62
   249
 10
167.5
 20
140.232891
 30
0.0
 11
197.950615
 21
140.232891
 31
0.0
  0
TEXT
  8
0
  6
CONTINUOUS
 62
   249
 10
179.408766
 20
136.295815
 30
0.0
 40
2.5
  1
IRF
 11
179.408766
 21
135.462481
 31
0.0
 73
     1
  0
LINE
  8
0
  6
CONTINUOUS
 62
   249
 10
197.950615
 20
135.0
 30
0.0
 11
167.5
 21
135.0
 31
0.0
  0
LINE
  8
0
  6
CONTINUOUS
 62
   249
 10
197.950615
 20
177.209828
 30
0.0
 11
197.950615
 21
135.0
 31
0.0
  0
LINE
  8
0
  6
CONTINUOUS
 62
   249
 10
197.950615
 20
200.0
 30
0.0
 11
197.950615
 21
177.18832
 31
0.0
  0
LINE
  8
0
  6
CONTINUOUS
 62
   249
 10
167.5
 20
145.0
 30
0.0
 11
197.950615
 21
145.0
 31
0.0
  0
CIRCLE
  8
0
  6
CONTINUOUS
 62
   249
 10
166.512659
 20
137.498324
 30
0.0
 40
1.0
  0
LINE
  8
0
  6
CONTINUOUS
 62
   249
 10
167.5
 20
190.0
 30
0.0
 11
167.5
 21
175.0
 31
0.0
  0
LINE
  8
0
  6
CONTINUOUS
 62
   249
 10
167.5
 20
190.0
 30
0.0
 11
167.5
 21
195.0
 31
0.0
  0
LINE
  8
0
  6
CONTINUOUS
 62
   249
 10
167.5
 20
175.0
 30
0.0
 11
167.5
 21
135.0
 31
0.0
  0
LINE
  8
0
  6
CENTER
 62
   249
 10
37.5
 20
215.0
 30
0.0
 11
37.5
 21
55.0
 31
0.0
  0
LINE
  8
0
  6
CONTINUOUS
 62
   249
 10
65.0
 20
117.5
 30
0.0
 11
70.0
 21
117.5
 31
0.0
  0
LINE
  8
0
  6
CONTINUOUS
 62
   249
 10
65.0
 20
117.5
 30
0.0
 11
59.256076
 21
114.285297
 31
0.0
  0
TEXT
  8
0
  6
DASHED
 62
   249
 10
58.197373
 20
118.403492
 30
0.0
 40
2.0
  1
A
  0
TEXT
  8
0
  6
DASHED
 62
   249
 10
76.643373
 20
108.774588
 30
0.0
 40
2.0
  1
B
  0
TEXT
  8
0
  6
DASHED
 62
   249
 10
93.555109
 20
98.134364
 30
0.0
 40
2.0
  1
C
  0
TEXT
  8
0
  6
DASHED
 62
   249
 10
110.984014
 20
88.255752
 30
0.0
 40
2.0
  1
D
  0
TEXT
  8
0
  6
DASHED
 62
   249
 10
141.066284
 20
68.236332
 30
0.0
 40
2.0
  1
F
  0
LINE
  8
0
  6
CENTER
 62
   249
 10
37.5
 20
55.0
 30
0.0
 11
230.0
 21
55.0
 31
0.0
  0
LINE
  8
0
  6
CENTER
 62
   249
 10
230.0
 20
207.5
 30
0.0
 11
230.0
 21
215.0
 31
0.0
  0
LINE
  8
0
  6
CENTER
 62
   249
 10
230.0
 20
215.0
 30
0.0
 11
37.5
 21
215.0
 31
0.0
  0
LINE
  8
0
  6
DASHED
 62
   249
 10
182.5
 20
55.0
 30
0.0
 11
182.5
 21
47.5
 31
0.0
  0
LINE
  8
0
  6
DASHED
 62
   249
 10
187.5
 20
55.0
 30
0.0
 11
187.5
 21
47.5
 31
0.0
  0
TEXT
  8
0
  6
DASHED
 62
   249
 10
4.099692
 20
207.5
 30
0.0
 40
2.0
  1
1)
  0
TEXT
  8
0
  6
CONTINUOUS
 62
   249
 10
179.490407
 20
141.066424
 30
0.0
 40
2.5
  1
I/O
  0
LINE
  8
0
  6
CONTINUOUS
 62
   249
 10
167.5
 20
165.0
 30
0.0
 11
187.5
 21
165.0
 31
0.0
  0
LINE
  8
0
  6
CONTINUOUS
 62
   249
 10
187.5
 20
165.0
 30
0.0
 11
197.950615
 21
165.0
 31
0.0
  0
LINE
  8
0
  6
CONTINUOUS
 62
   249
 10
187.5
 20
175.0
 30
0.0
 11
187.5
 21
165.0
 31
0.0
  0
TEXT
  8
0
  6
CONTINUOUS
 62
   249
 10
192.347994
 20
180.149643
 30
0.0
 40
2.5
  1
U2
  0
LINE
  8
0
  6
CONTINUOUS
 62
   249
 10
167.5
 20
177.5
 30
0.0
 11
187.5
 21
177.5
 31
0.0
  0
LINE
  8
0
  6
CONTINUOUS
 62
   249
 10
167.5
 20
195.0
 30
0.0
 11
167.5
 21
200.0
 31
0.0
  0
LINE
  8
0
  6
CONTINUOUS
 62
   249
 10
167.5
 20
200.0
 30
0.0
 11
197.950615
 21
200.0
 31
0.0
  0
LINE
  8
0
  6
CONTINUOUS
 62
   249
 10
187.5
 20
175.0
 30
0.0
 11
187.5
 21
185.0
 31
0.0
  0
CIRCLE
  8
0
  6
CONTINUOUS
 62
   249
 10
166.500093
 20
170.784079
 30
0.0
 40
1.0
  0
TEXT
  8
0
  6
CONTINUOUS
 62
   249
 10
168.406909
 20
170.030577
 30
0.0
 40
1.5
  1
EN
  0
LINE
  8
0
  6
CONTINUOUS
 62
   249
 10
172.5
 20
170.788594
 30
0.0
 11
175.0
 21
170.788594
 31
0.0
  0
LINE
  8
0
  6
CONTINUOUS
 62
   249
 10
177.5
 20
170.788594
 30
0.0
 11
175.275553
 21
170.227951
 31
0.0
  0
LINE
  8
0
  6
CONTINUOUS
 62
   249
 10
177.5
 20
170.788594
 30
0.0
 11
180.0
 21
170.788594
 31
0.0
  0
LINE
  8
0
  6
CONTINUOUS
 62
   249
 10
117.5
 20
130.0
 30
0.0
 11
117.5
 21
127.5
 31
0.0
  0
LINE
  8
0
  6
CONTINUOUS
 62
   249
 10
100.0
 20
130.0
 30
0.0
 11
100.0
 21
127.5
 31
0.0
  0
LINE
  8
0
  6
CONTINUOUS
 62
   249
 10
82.5
 20
130.0
 30
0.0
 11
82.5
 21
127.5
 31
0.0
  0
LINE
  8
0
  6
CONTINUOUS
 62
   249
 10
125.0
 20
87.5
 30
0.0
 11
167.50793
 21
87.5
 31
0.0
  0
LINE
  8
0
  6
CONTINUOUS
 62
   249
 10
70.0
 20
117.5
 30
0.0
 11
182.5
 21
117.5
 31
0.0
  0
LINE
  8
0
  6
CONTINUOUS
 62
   249
 10
110.0
 20
87.5
 30
0.0
 11
37.5
 21
87.5
 31
0.0
  0
LINE
  8
0
  6
CONTINUOUS
 62
   249
 10
110.0
 20
82.5
 30
0.0
 11
37.5
 21
82.5
 31
0.0
  0
LINE
  8
0
  6
CONTINUOUS
 62
   249
 10
137.5
 20
67.5
 30
0.0
 11
37.5
 21
67.5
 31
0.0
  0
LINE
  8
0
  6
CONTINUOUS
 62
   249
 10
137.5
 20
62.5
 30
0.0
 11
37.5
 21
62.5
 31
0.0
  0
LINE
  8
0
  6
CONTINUOUS
 62
   249
 10
165.51266
 20
137.495289
 30
0.0
 11
145.0
 21
137.495289
 31
0.0
  0
LINE
  8
0
  6
CONTINUOUS
 62
   249
 10
145.0
 20
137.495289
 30
0.0
 11
145.0
 21
122.5
 31
0.0
  0
LINE
  8
0
  6
DASHED
 62
   249
 10
145.0
 20
122.5
 30
0.0
 11
145.0
 21
66.100824
 31
0.0
  0
LINE
  8
0
  6
DASHED
 62
   249
 10
117.5
 20
127.5
 30
0.0
 11
117.5
 21
86.100824
 31
0.0
  0
LINE
  8
0
  6
DASHED
 62
   249
 10
100.0
 20
127.5
 30
0.0
 11
100.0
 21
96.100824
 31
0.0
  0
LINE
  8
0
  6
DASHED
 62
   249
 10
82.5
 20
127.5
 30
0.0
 11
82.5
 21
106.100824
 31
0.0
  0
LINE
  8
0
  6
DASHED
 62
   249
 10
62.5
 20
127.5
 30
0.0
 11
62.5
 21
116.100824
 31
0.0
  0
TEXT
  8
0
  6
CONTINUOUS
 62
   249
 10
50.913303
 20
140.010709
 30
0.0
 40
2.0
  1
SGR
  0
LINE
  8
0
  6
CONTINUOUS
 62
   249
 10
167.5
 20
157.5
 30
0.0
 11
167.5
 21
152.5
 31
0.0
  0
LINE
  8
0
  6
CENTER
 62
   249
 10
230.0
 20
207.5
 30
0.0
 11
230.0
 21
185.0
 31
0.0
  0
LINE
  8
0
  6
CONTINUOUS
 62
   249
 10
230.0
 20
157.5
 30
0.0
 11
230.0
 21
157.5
 31
0.0
  0
LINE
  8
0
  6
CONTINUOUS
 62
   249
 10
212.5
 20
187.5
 30
0.0
 11
202.5
 21
187.5
 31
0.0
  0
LINE
  8
0
  6
CONTINUOUS
 62
   249
 10
357.5
 20
235.0
 30
0.0
 11
377.5
 21
235.0
 31
0.0
  0
LINE
  8
0
  6
CONTINUOUS
 62
   249
 10
377.5
 20
235.0
 30
0.0
 11
377.5
 21
215.0
 31
0.0
  0
LINE
  8
0
  6
CONTINUOUS
 62
   249
 10
357.5
 20
215.0
 30
0.0
 11
357.5
 21
235.0
 31
0.0
  0
LINE
  8
0
  6
CONTINUOUS
 62
   249
 10
357.5
 20
215.0
 30
0.0
 11
377.5
 21
215.0
 31
0.0
  0
LINE
  8
0
  6
DASHED
 62
   249
 10
37.5
 20
200.0
 30
0.0
 11
15.0
 21
200.0
 31
0.0
  0
LINE
  8
0
  6
CONTINUOUS
 62
   249
 10
238.200902
 20
141.75712
 30
0.0
 11
239.41761
 21
143.167057
 31
0.0
  0
TEXT
  8
0
  6
CONTINUOUS
 62
   249
 10
239.174268
 20
144.070297
 30
0.0
 40
2.0
  1
9
  0
LINE
  8
0
  6
DASHED
 62
   249
 10
37.5
 20
117.5
 30
0.0
 11
27.5
 21
117.5
 31
0.0
  0
LINE
  8
0
  6
DASHED
 62
   249
 10
37.5
 20
107.5
 30
0.0
 11
27.5
 21
107.5
 31
0.0
  0
LINE
  8
0
  6
DASHED
 62
   249
 10
37.5
 20
97.5
 30
0.0
 11
27.5
 21
97.5
 31
0.0
  0
LINE
  8
0
  6
DASHED
 62
   249
 10
37.5
 20
87.5
 30
0.0
 11
27.5
 21
87.5
 31
0.0
  0
LINE
  8
0
  6
DASHED
 62
   249
 10
37.5
 20
62.5
 30
0.0
 11
27.5
 21
62.5
 31
0.0
  0
LINE
  8
0
  6
CONTINUOUS
 62
   249
 10
25.0
 20
118.0
 30
0.0
 11
25.0
 21
107.0
 31
0.0
  0
LINE
  8
0
  6
CONTINUOUS
 62
   249
 10
25.0
 20
118.0
 30
0.0
 11
26.0
 21
119.0
 31
0.0
  0
LINE
  8
0
  6
CONTINUOUS
 62
   249
 10
25.0
 20
107.0
 30
0.0
 11
26.0
 21
106.0
 31
0.0
  0
LINE
  8
0
  6
CONTINUOUS
 62
   249
 10
25.0
 20
87.0
 30
0.0
 11
26.0
 21
86.0
 31
0.0
  0
LINE
  8
0
  6
CONTINUOUS
 62
   249
 10
25.0
 20
98.0
 30
0.0
 11
25.0
 21
87.0
 31
0.0
  0
LINE
  8
0
  6
CONTINUOUS
 62
   249
 10
25.0
 20
98.0
 30
0.0
 11
26.0
 21
99.0
 31
0.0
  0
TEXT
  8
0
  6
CONTINUOUS
 62
   249
 10
17.5
 20
112.080516
 30
0.0
 40
2.0
  1
3)
  0
TEXT
  8
0
  6
CONTINUOUS
 62
   249
 10
17.5
 20
91.229038
 30
0.0
 40
2.0
  1
4)
  0
TEXT
  8
0
  6
CONTINUOUS
 62
   249
 10
17.5
 20
61.480208
 30
0.0
 40
2.0
  1
5)
  0
LINE
  8
0
  6
CONTINUOUS
 62
   249
 10
60.0
 20
117.5
 30
0.0
 11
55.0
 21
117.5
 31
0.0
  0
LINE
  8
0
  6
CONTINUOUS
 62
   249
 10
363.131307
 20
226.913992
 30
0.0
 11
370.919512
 21
226.913992
 31
0.0
  0
LINE
  8
0
  6
CONTINUOUS
 62
   249
 10
370.914971
 20
227.759271
 30
0.0
 11
370.914971
 21
225.971139
 31
0.0
  0
LINE
  8
0
  6
CONTINUOUS
 62
   249
 10
365.515452
 20
225.74639
 30
0.0
 11
368.391562
 21
228.574948
 31
0.0
  0
ARC
  8
0
  6
HIDDEN
 62
   249
 10
369.826175
 20
230.842536
 30
0.0
 40
4.998196
 50
206.402922
 51
282.21115
  0
LINE
  8
0
  6
CONTINUOUS
 62
   249
 10
367.960859
 20
229.112155
 30
0.0
 11
368.861536
 21
227.988406
 31
0.0
  0
LINE
  8
0
  6
CONTINUOUS
 62
   249
 10
363.100275
 20
227.759271
 30
0.0
 11
363.100275
 21
225.971139
 31
0.0
  0
ARC
  8
0
  6
HIDDEN
 62
   249
 10
185.652505
 20
171.29374
 30
0.0
 40
4.998196
 50
206.402922
 51
282.21115
  0
LINE
  8
0
  6
CONTINUOUS
 62
   249
 10
186.741301
 20
168.210474
 30
0.0
 11
186.741301
 21
166.422343
 31
0.0
  0
LINE
  8
0
  6
CONTINUOUS
 62
   249
 10
183.787189
 20
169.563359
 30
0.0
 11
184.687866
 21
168.43961
 31
0.0
  0
LINE
  8
0
  6
CONTINUOUS
 62
   249
 10
181.341782
 20
166.197593
 30
0.0
 11
184.217892
 21
169.026152
 31
0.0
  0
LINE
  8
0
  6
CONTINUOUS
 62
   249
 10
178.957637
 20
167.365196
 30
0.0
 11
186.745842
 21
167.365196
 31
0.0
  0
LINE
  8
0
  6
CONTINUOUS
 62
   249
 10
178.926606
 20
168.210474
 30
0.0
 11
178.926606
 21
166.422343
 31
0.0
  0
LINE
  8
0
  6
CONTINUOUS
 62
   249
 10
167.5
 20
185.0
 30
0.0
 11
197.950615
 21
185.0
 31
0.0
  0
TEXT
  8
0
  6
DASHED
 62
   249
 10
168.798048
 20
177.975623
 30
0.0
 40
2.5
  1
U
  0
TEXT
  8
0
  6
DASHED
 62
   249
 10
168.798048
 20
181.464207
 30
0.0
 40
2.5
  1
U
  0
LINE
  8
0
  6
CONTINUOUS
 62
   249
 10
174.193505
 20
182.646513
 30
0.0
 11
171.847739
 21
181.456593
 31
0.0
  0
LINE
  8
0
  6
CONTINUOUS
 62
   249
 10
171.847739
 20
183.981866
 30
0.0
 11
174.193505
 21
182.646513
 31
0.0
  0
LINE
  8
0
  6
CONTINUOUS
 62
   249
 10
174.193505
 20
179.108973
 30
0.0
 11
171.847739
 21
177.919054
 31
0.0
  0
LINE
  8
0
  6
CONTINUOUS
 62
   249
 10
171.847739
 20
180.444327
 30
0.0
 11
174.193505
 21
179.108973
 31
0.0
  0
LINE
  8
0
  6
CONTINUOUS
 62
   249
 10
178.926606
 20
179.969656
 30
0.0
 11
178.926606
 21
178.181525
 31
0.0
  0
LINE
  8
0
  6
CONTINUOUS
 62
   249
 10
178.957637
 20
179.124377
 30
0.0
 11
186.745842
 21
179.124377
 31
0.0
  0
LINE
  8
0
  6
CONTINUOUS
 62
   249
 10
181.341782
 20
177.956775
 30
0.0
 11
184.217892
 21
180.785333
 31
0.0
  0
LINE
  8
0
  6
CONTINUOUS
 62
   249
 10
183.787189
 20
181.32254
 30
0.0
 11
184.687866
 21
180.198791
 31
0.0
  0
LINE
  8
0
  6
CONTINUOUS
 62
   249
 10
186.741301
 20
179.969656
 30
0.0
 11
186.741301
 21
178.181525
 31
0.0
  0
ARC
  8
0
  6
HIDDEN
 62
   249
 10
185.652505
 20
183.052922
 30
0.0
 40
4.998196
 50
206.402922
 51
282.21115
  0
LINE
  8
0
  6
CONTINUOUS
 62
   249
 10
167.5
 20
172.5
 30
0.0
 11
187.5
 21
172.5
 31
0.0
  0
LINE
  8
0
  6
CONTINUOUS
 62
   249
 10
174.205873
 20
173.670232
 30
0.0
 11
171.860108
 21
175.005586
 31
0.0
  0
LINE
  8
0
  6
CONTINUOUS
 62
   249
 10
171.860108
 20
175.005586
 30
0.0
 11
174.205873
 21
176.195505
 31
0.0
  0
TEXT
  8
0
  6
DASHED
 62
   249
 10
168.798048
 20
173.635661
 30
0.0
 40
2.5
  1
U
  0
LINE
  8
0
  6
CONTINUOUS
 62
   249
 10
174.205873
 20
166.032606
 30
0.0
 11
171.860108
 21
167.36796
 31
0.0
  0
LINE
  8
0
  6
CONTINUOUS
 62
   249
 10
171.860108
 20
167.36796
 30
0.0
 11
174.205873
 21
168.557879
 31
0.0
  0
TEXT
  8
0
  6
DASHED
 62
   249
 10
168.798048
 20
165.998035
 30
0.0
 40
2.5
  1
U
  0
TEXT
  8
0
  6
DASHED
 62
   249
 10
189.887534
 20
172.879495
 30
0.0
 40
2.5
  1
U
  0
LINE
  8
0
  6
CONTINUOUS
 62
   249
 10
195.410768
 20
171.889102
 30
0.0
 11
193.065003
 21
173.224456
 31
0.0
  0
LINE
  8
0
  6
CONTINUOUS
 62
   249
 10
193.065003
 20
173.224456
 30
0.0
 11
195.410768
 21
174.414375
 31
0.0
  0
LINE
  8
0
  6
CONTINUOUS
 62
   249
 10
195.398399
 20
175.422592
 30
0.0
 11
193.052634
 21
174.232673
 31
0.0
  0
LINE
  8
0
  6
CONTINUOUS
 62
   249
 10
193.052634
 20
176.757946
 30
0.0
 11
195.398399
 21
175.422592
 31
0.0
  0
LINE
  8
0
  6
CONTINUOUS
 62
   249
 10
57.5
 20
130.0
 30
0.0
 11
67.5
 21
130.0
 31
0.0
  0
LINE
  8
0
  6
CONTINUOUS
 62
   249
 10
57.5
 20
135.0
 30
0.0
 11
57.5
 21
130.0
 31
0.0
  0
LINE
  8
0
  6
CONTINUOUS
 62
   249
 10
67.5
 20
135.0
 30
0.0
 11
67.5
 21
130.0
 31
0.0
  0
LINE
  8
0
  6
CONTINUOUS
 62
   249
 10
67.5
 20
135.0
 30
0.0
 11
57.5
 21
135.0
 31
0.0
  0
LINE
  8
0
  6
CONTINUOUS
 62
   249
 10
62.5
 20
130.0
 30
0.0
 11
62.5
 21
127.5
 31
0.0
  0
LINE
  8
0
  6
CONTINUOUS
 62
   249
 10
62.5
 20
130.0
 30
0.0
 11
62.5
 21
127.5
 31
0.0
  0
LINE
  8
0
  6
CONTINUOUS
 62
   249
 10
61.759134
 20
132.789195
 30
0.0
 11
59.413369
 21
131.599276
 31
0.0
  0
LINE
  8
0
  6
CONTINUOUS
 62
   249
 10
59.405327
 20
130.799262
 30
0.0
 11
61.788787
 21
131.987454
 31
0.0
  0
LINE
  8
0
  6
CONTINUOUS
 62
   249
 10
59.413369
 20
134.124549
 30
0.0
 11
61.759134
 21
132.789195
 31
0.0
  0
TEXT
  8
0
  6
CONTINUOUS
 62
   249
 10
63.84723
 20
131.464455
 30
0.0
 40
2.5
  1
1
 11
63.84723
 21
130.631122
 31
0.0
 73
     1
  0
LINE
  8
0
  6
CONTINUOUS
 62
   249
 10
60.0
 20
137.5
 30
0.0
 11
58.285914
 21
142.586297
 31
0.0
  0
LINE
  8
0
  6
CONTINUOUS
 62
   249
 10
60.0
 20
135.0
 30
0.0
 11
60.0
 21
137.5
 31
0.0
  0
LINE
  8
0
  6
CONTINUOUS
 62
   249
 10
65.0
 20
135.0
 30
0.0
 11
65.0
 21
137.5
 31
0.0
  0
LINE
  8
0
  6
CONTINUOUS
 62
   249
 10
65.0
 20
137.5
 30
0.0
 11
63.285914
 21
142.586297
 31
0.0
  0
LINE
  8
0
  6
CONTINUOUS
 62
   249
 10
85.0
 20
137.5
 30
0.0
 11
83.285914
 21
142.586297
 31
0.0
  0
LINE
  8
0
  6
CONTINUOUS
 62
   249
 10
85.0
 20
135.0
 30
0.0
 11
85.0
 21
137.5
 31
0.0
  0
LINE
  8
0
  6
CONTINUOUS
 62
   249
 10
80.0
 20
135.0
 30
0.0
 11
80.0
 21
137.5
 31
0.0
  0
LINE
  8
0
  6
CONTINUOUS
 62
   249
 10
80.0
 20
137.5
 30
0.0
 11
78.285914
 21
142.586297
 31
0.0
  0
TEXT
  8
0
  6
CONTINUOUS
 62
   249
 10
83.973522
 20
131.464455
 30
0.0
 40
2.5
  1
1
 11
83.973522
 21
130.631122
 31
0.0
 73
     1
  0
LINE
  8
0
  6
CONTINUOUS
 62
   249
 10
79.53966
 20
134.124549
 30
0.0
 11
81.885426
 21
132.789195
 31
0.0
  0
LINE
  8
0
  6
CONTINUOUS
 62
   249
 10
79.531619
 20
130.799262
 30
0.0
 11
81.915079
 21
131.987454
 31
0.0
  0
LINE
  8
0
  6
CONTINUOUS
 62
   249
 10
81.885426
 20
132.789195
 30
0.0
 11
79.53966
 21
131.599276
 31
0.0
  0
LINE
  8
0
  6
CONTINUOUS
 62
   249
 10
87.5
 20
135.0
 30
0.0
 11
77.5
 21
135.0
 31
0.0
  0
LINE
  8
0
  6
CONTINUOUS
 62
   249
 10
87.5
 20
135.0
 30
0.0
 11
87.5
 21
130.0
 31
0.0
  0
LINE
  8
0
  6
CONTINUOUS
 62
   249
 10
77.5
 20
135.0
 30
0.0
 11
77.5
 21
130.0
 31
0.0
  0
LINE
  8
0
  6
CONTINUOUS
 62
   249
 10
77.5
 20
130.0
 30
0.0
 11
87.5
 21
130.0
 31
0.0
  0
LINE
  8
0
  6
CONTINUOUS
 62
   249
 10
95.0
 20
130.0
 30
0.0
 11
105.0
 21
130.0
 31
0.0
  0
LINE
  8
0
  6
CONTINUOUS
 62
   249
 10
95.0
 20
135.0
 30
0.0
 11
95.0
 21
130.0
 31
0.0
  0
LINE
  8
0
  6
CONTINUOUS
 62
   249
 10
105.0
 20
135.0
 30
0.0
 11
105.0
 21
130.0
 31
0.0
  0
LINE
  8
0
  6
CONTINUOUS
 62
   249
 10
105.0
 20
135.0
 30
0.0
 11
95.0
 21
135.0
 31
0.0
  0
LINE
  8
0
  6
CONTINUOUS
 62
   249
 10
99.385426
 20
132.789195
 30
0.0
 11
97.03966
 21
131.599276
 31
0.0
  0
LINE
  8
0
  6
CONTINUOUS
 62
   249
 10
97.031619
 20
130.799262
 30
0.0
 11
99.415079
 21
131.987454
 31
0.0
  0
LINE
  8
0
  6
CONTINUOUS
 62
   249
 10
97.03966
 20
134.124549
 30
0.0
 11
99.385426
 21
132.789195
 31
0.0
  0
TEXT
  8
0
  6
CONTINUOUS
 62
   249
 10
101.473522
 20
131.464455
 30
0.0
 40
2.5
  1
1
 11
101.473522
 21
130.631122
 31
0.0
 73
     1
  0
LINE
  8
0
  6
CONTINUOUS
 62
   249
 10
97.5
 20
135.0
 30
0.0
 11
97.5
 21
179.092853
 31
0.0
  0
LINE
  8
0
  6
CONTINUOUS
 62
   249
 10
115.0
 20
135.0
 30
0.0
 11
115.0
 21
167.347111
 31
0.0
  0
TEXT
  8
0
  6
CONTINUOUS
 62
   249
 10
118.973522
 20
131.464455
 30
0.0
 40
2.5
  1
1
 11
118.973522
 21
130.631122
 31
0.0
 73
     1
  0
LINE
  8
0
  6
CONTINUOUS
 62
   249
 10
114.53966
 20
134.124549
 30
0.0
 11
116.885426
 21
132.789195
 31
0.0
  0
LINE
  8
0
  6
CONTINUOUS
 62
   249
 10
114.531619
 20
130.799262
 30
0.0
 11
116.915079
 21
131.987454
 31
0.0
  0
LINE
  8
0
  6
CONTINUOUS
 62
   249
 10
116.885426
 20
132.789195
 30
0.0
 11
114.53966
 21
131.599276
 31
0.0
  0
LINE
  8
0
  6
CONTINUOUS
 62
   249
 10
122.5
 20
135.0
 30
0.0
 11
112.5
 21
135.0
 31
0.0
  0
LINE
  8
0
  6
CONTINUOUS
 62
   249
 10
122.5
 20
135.0
 30
0.0
 11
122.5
 21
130.0
 31
0.0
  0
LINE
  8
0
  6
CONTINUOUS
 62
   249
 10
112.5
 20
135.0
 30
0.0
 11
112.5
 21
130.0
 31
0.0
  0
LINE
  8
0
  6
CONTINUOUS
 62
   249
 10
112.5
 20
130.0
 30
0.0
 11
122.5
 21
130.0
 31
0.0
  0
LINE
  8
0
  6
CONTINUOUS
 62
   249
 10
120.0
 20
135.0
 30
0.0
 11
120.0
 21
137.5
 31
0.0
  0
LINE
  8
0
  6
CONTINUOUS
 62
   249
 10
120.0
 20
137.5
 30
0.0
 11
118.285914
 21
142.586297
 31
0.0
  0
LINE
  8
0
  6
CONTINUOUS
 62
   249
 10
102.5
 20
137.5
 30
0.0
 11
100.785914
 21
142.586297
 31
0.0
  0
LINE
  8
0
  6
CONTINUOUS
 62
   249
 10
102.5
 20
135.0
 30
0.0
 11
102.5
 21
137.5
 31
0.0
  0
LINE
  8
0
  6
CONTINUOUS
 62
   249
 10
167.5
 20
167.347111
 30
0.0
 11
65.0
 21
167.347111
 31
0.0
  0
LINE
  8
0
  6
CONTINUOUS
 62
   249
 10
167.5
 20
175.0
 30
0.0
 11
120.0
 21
175.0
 31
0.0
  0
LINE
  8
0
  6
CONTINUOUS
 62
   249
 10
167.5
 20
179.092853
 30
0.0
 11
60.0
 21
179.092853
 31
0.0
  0
LINE
  8
0
  6
CONTINUOUS
 62
   249
 10
167.5
 20
182.630392
 30
0.0
 11
102.5
 21
182.630392
 31
0.0
  0
LINE
  8
0
  6
CONTINUOUS
 62
   249
 10
60.0
 20
179.092853
 30
0.0
 11
60.0
 21
142.5
 31
0.0
  0
LINE
  8
0
  6
CONTINUOUS
 62
   249
 10
65.0
 20
167.347111
 30
0.0
 11
65.0
 21
142.5
 31
0.0
  0
LINE
  8
0
  6
CONTINUOUS
 62
   249
 10
80.0
 20
179.092853
 30
0.0
 11
80.0
 21
142.5
 31
0.0
  0
LINE
  8
0
  6
CONTINUOUS
 62
   249
 10
85.0
 20
167.347111
 30
0.0
 11
85.0
 21
142.5
 31
0.0
  0
LINE
  8
0
  6
CONTINUOUS
 62
   249
 10
102.5
 20
182.630392
 30
0.0
 11
102.5
 21
142.5
 31
0.0
  0
LINE
  8
0
  6
CONTINUOUS
 62
   249
 10
120.0
 20
175.0
 30
0.0
 11
120.0
 21
142.5
 31
0.0
  0
TEXT
  8
0
  6
CONTINUOUS
 62
   249
 10
60.69994
 20
140.0
 30
0.0
 40
2.0
  1
1
  0
TEXT
  8
0
  6
CONTINUOUS
 62
   249
 10
65.69994
 20
140.0
 30
0.0
 40
2.0
  1
2
  0
TEXT
  8
0
  6
CONTINUOUS
 62
   249
 10
80.69994
 20
140.0
 30
0.0
 40
2.0
  1
5
  0
TEXT
  8
0
  6
CONTINUOUS
 62
   249
 10
85.69994
 20
140.0
 30
0.0
 40
2.0
  1
6
  0
TEXT
  8
0
  6
CONTINUOUS
 62
   249
 10
103.19994
 20
140.0
 30
0.0
 40
2.0
  1
7
  0
TEXT
  8
0
  6
CONTINUOUS
 62
   249
 10
120.69994
 20
140.0
 30
0.0
 40
2.0
  1
8
  0
LINE
  8
0
  6
CONTINUOUS
 62
   249
 10
155.0
 20
170.783996
 30
0.0
 11
155.0
 21
202.5
 31
0.0
  0
LINE
  8
0
  6
CONTINUOUS
 62
   249
 10
165.500093
 20
170.783996
 30
0.0
 11
155.0
 21
170.783996
 31
0.0
  0
LINE
  8
0
  6
CONTINUOUS
 62
   249
 10
80.0
 20
102.5
 30
0.0
 11
80.0
 21
105.0
 31
0.0
  0
LINE
  8
0
  6
CONTINUOUS
 62
   249
 10
80.0
 20
102.5
 30
0.0
 11
37.5
 21
102.5
 31
0.0
  0
LINE
  8
0
  6
CONTINUOUS
 62
   249
 10
85.0
 20
107.5
 30
0.0
 11
79.256076
 21
104.285297
 31
0.0
  0
LINE
  8
0
  6
CONTINUOUS
 62
   249
 10
55.0
 20
107.5
 30
0.0
 11
80.0
 21
107.5
 31
0.0
  0
LINE
  8
0
  6
CONTINUOUS
 62
   249
 10
85.0
 20
107.5
 30
0.0
 11
90.0
 21
107.5
 31
0.0
  0
LINE
  8
0
  6
CONTINUOUS
 62
   249
 10
97.5
 20
92.5
 30
0.0
 11
97.5
 21
95.0
 31
0.0
  0
LINE
  8
0
  6
CONTINUOUS
 62
   249
 10
97.5
 20
92.5
 30
0.0
 11
37.5
 21
92.5
 31
0.0
  0
LINE
  8
0
  6
CONTINUOUS
 62
   249
 10
102.5
 20
97.5
 30
0.0
 11
96.756076
 21
94.285297
 31
0.0
  0
LINE
  8
0
  6
CONTINUOUS
 62
   249
 10
37.5
 20
97.5
 30
0.0
 11
97.5
 21
97.5
 31
0.0
  0
LINE
  8
0
  6
CONTINUOUS
 62
   249
 10
102.5
 20
97.5
 30
0.0
 11
107.5
 21
97.5
 31
0.0
  0
LINE
  8
0
  6
CONTINUOUS
 62
   249
 10
115.0
 20
82.5
 30
0.0
 11
115.0
 21
85.0
 31
0.0
  0
LINE
  8
0
  6
CONTINUOUS
 62
   249
 10
115.0
 20
82.5
 30
0.0
 11
110.0
 21
82.5
 31
0.0
  0
LINE
  8
0
  6
CONTINUOUS
 62
   249
 10
120.0
 20
87.5
 30
0.0
 11
114.256076
 21
84.285297
 31
0.0
  0
LINE
  8
0
  6
CONTINUOUS
 62
   249
 10
110.0
 20
87.5
 30
0.0
 11
115.0
 21
87.5
 31
0.0
  0
LINE
  8
0
  6
CONTINUOUS
 62
   249
 10
120.0
 20
87.5
 30
0.0
 11
125.0
 21
87.5
 31
0.0
  0
LINE
  8
0
  6
CONTINUOUS
 62
   249
 10
142.5
 20
62.5
 30
0.0
 11
142.5
 21
65.0
 31
0.0
  0
LINE
  8
0
  6
CONTINUOUS
 62
   249
 10
142.5
 20
62.5
 30
0.0
 11
137.5
 21
62.5
 31
0.0
  0
LINE
  8
0
  6
CONTINUOUS
 62
   249
 10
147.5
 20
67.5
 30
0.0
 11
141.756076
 21
64.285297
 31
0.0
  0
LINE
  8
0
  6
CONTINUOUS
 62
   249
 10
137.5
 20
67.5
 30
0.0
 11
142.5
 21
67.5
 31
0.0
  0
LINE
  8
0
  6
CONTINUOUS
 62
   249
 10
147.5
 20
67.5
 30
0.0
 11
152.5
 21
67.5
 31
0.0
  0
LINE
  8
0
  6
CONTINUOUS
 62
   249
 10
167.50793
 20
97.5
 30
0.0
 11
107.5
 21
97.5
 31
0.0
  0
LINE
  8
0
  6
CONTINUOUS
 62
   249
 10
172.5
 20
107.5
 30
0.0
 11
90.0
 21
107.5
 31
0.0
  0
LINE
  8
0
  6
CONTINUOUS
 62
   249
 10
202.5
 20
175.0
 30
0.0
 11
202.5
 21
187.5
 31
0.0
  0
LINE
  8
0
  6
CONTINUOUS
 62
   249
 10
197.950615
 20
175.0
 30
0.0
 11
202.5
 21
175.0
 31
0.0
  0
LINE
  8
0
  6
DASHED
 62
   249
 10
245.0
 20
182.5
 30
0.0
 11
230.0
 21
182.5
 31
0.0
  0
LINE
  8
0
  6
DASHED
 62
   249
 10
230.0
 20
192.5
 30
0.0
 11
245.0
 21
192.5
 31
0.0
  0
LINE
  8
0
  6
CONTINUOUS
 62
   249
 10
367.562169
 20
233.573188
 30
0.0
 11
369.907934
 21
232.237835
 31
0.0
  0
LINE
  8
0
  6
CONTINUOUS
 62
   249
 10
369.907934
 20
232.237835
 30
0.0
 11
367.562169
 21
231.047915
 31
0.0
  0
TEXT
  8
0
  6
DASHED
 62
   249
 10
364.512478
 20
231.055529
 30
0.0
 40
2.5
  1
U
  0
TEXT
  8
0
  6
DASHED
 62
   249
 10
364.54291
 20
220.779952
 30
0.0
 40
2.5
  1
U
  0
LINE
  8
0
  6
CONTINUOUS
 62
   249
 10
367.60497
 20
222.149877
 30
0.0
 11
369.950735
 21
223.339796
 31
0.0
  0
LINE
  8
0
  6
CONTINUOUS
 62
   249
 10
369.950735
 20
220.814523
 30
0.0
 11
367.60497
 21
222.149877
 31
0.0
  0
LINE
  8
0
  6
CONTINUOUS
 62
   249
 10
363.100275
 20
217.918079
 30
0.0
 11
363.100275
 21
216.129948
 31
0.0
  0
LINE
  8
0
  6
CONTINUOUS
 62
   249
 10
367.960859
 20
219.270963
 30
0.0
 11
368.861536
 21
218.147214
 31
0.0
  0
ARC
  8
0
  6
HIDDEN
 62
   249
 10
369.826175
 20
221.001345
 30
0.0
 40
4.998196
 50
206.402922
 51
282.21115
  0
LINE
  8
0
  6
CONTINUOUS
 62
   249
 10
365.515452
 20
215.905198
 30
0.0
 11
368.391562
 21
218.733756
 31
0.0
  0
LINE
  8
0
  6
CONTINUOUS
 62
   249
 10
370.914971
 20
217.918079
 30
0.0
 11
370.914971
 21
216.129948
 31
0.0
  0
LINE
  8
0
  6
CONTINUOUS
 62
   249
 10
363.131307
 20
217.0728
 30
0.0
 11
370.919512
 21
217.0728
 31
0.0
  0
TEXT
  8
0
  6
DASHED
 62
   249
 10
340.330437
 20
206.730671
 30
0.0
 40
2.0
  1
OVER-, UNDER- AND NEUTRAL
  0
TEXT
  8
0
  6
DASHED
 62
   249
 10
340.330437
 20
203.397337
 30
0.0
 40
2.0
  1
VOLTAGE RELAY/
  0
TEXT
  8
0
  6
DASHED
 62
   249
 10
340.330437
 20
200.064004
 30
0.0
 40
2.0
  1
ÖVER-, UNDER- OCH NOLL-
  0
TEXT
  8
0
  6
DASHED
 62
   249
 10
340.330437
 20
196.730671
 30
0.0
 40
2.0
  1
PUNKTSSPÄNNINGSSKYDD
  0
TEXT
  8
0
  6
CONTINUOUS
 62
   249
 10
313.976188
 20
139.835741
 30
0.0
 40
2.0
  1
1) EXTERNAL BLOCKING
  0
TEXT
  8
0
  6
CONTINUOUS
 62
   249
 10
314.645695
 20
136.502408
 30
0.0
 40
2.0
  1
  EXTERN BLOCKERING
  0
TEXT
  8
0
  6
CONTINUOUS
 62
   249
 10
313.291464
 20
121.502408
 30
0.0
 40
2.0
  1
3) TRIP ETC.    NOTE
  0
TEXT
  8
0
  6
CONTINUOUS
 62
   249
 10
314.630479
 20
118.169074
 30
0.0
 40
2.0
  1
  UTLÖSNING MM.  OBS.
  0
TEXT
  8
0
  6
CONTINUOUS
 62
   249
 10
313.291464
 20
112.335741
 30
0.0
 40
2.0
  1
4) START, ALARM ETC.
  0
TEXT
  8
0
  6
CONTINUOUS
 62
   249
 10
314.630479
 20
109.002408
 30
0.0
 40
2.0
  1
  START, SIGNAL MM.
  0
TEXT
  8
0
  6
CONTINUOUS
 62
   249
 10
313.291464
 20
103.169074
 30
0.0
 40
2.0
  1
5) INTERNAL RELAY FAULT
  0
TEXT
  8
0
  6
CONTINUOUS
 62
   249
 10
314.62323
 20
99.835741
 30
0.0
 40
2.0
  1
  INTERNT RELÄFEL
  0
TEXT
  8
0
  6
CONTINUOUS
 62
   249
 10
318.541011
 20
61.911968
 30
0.0
 40
2.0
  1
NOTE. ONLY CONTACT (A) IS CAPABLE OF
  0
TEXT
  8
0
  6
CONTINUOUS
 62
   249
 10
319.210519
 20
58.578635
 30
0.0
 40
2.0
  1
     CONTROLLING DIRECTLY THE 
  0
TEXT
  8
0
  6
CONTINUOUS
 62
   249
 10
319.210519
 20
55.245301
 30
0.0
 40
2.0
  1
     BREAKER TRIP COIL
  0
TEXT
  8
0
  6
CONTINUOUS
 62
   249
 10
318.541011
 20
44.583421
 30
0.0
 40
2.0
  1
OBS.  ENDAST KONTAKT (A) ÄR DIMENSIO-
  0
TEXT
  8
0
  6
CONTINUOUS
 62
   249
 10
319.210519
 20
41.250088
 30
0.0
 40
2.0
  1
     NERAD FÖR DIREKT ANSLUTNING TILL
  0
TEXT
  8
0
  6
CONTINUOUS
 62
   249
 10
319.210519
 20
37.916754
 30
0.0
 40
2.0
  1
     UTLÖSNINGSKRETSEN
  0
TEXT
  8
0
  6
CONTINUOUS
 62
   249
 10
372.268215
 20
12.134532
 30
0.0
 40
2.0
  1
1
  0
LINE
  8
0
  6
CONTINUOUS
 62
   249
 10
205.0
 20
75.429605
 30
0.0
 11
205.0
 21
72.5
 31
0.0
  0
LINE
  8
0
  6
CONTINUOUS
 62
   249
 10
200.0
 20
75.429605
 30
0.0
 11
200.0
 21
72.5
 31
0.0
  0
LINE
  8
0
  6
CONTINUOUS
 62
   249
 10
205.0
 20
90.0
 30
0.0
 11
205.0
 21
84.752154
 31
0.0
  0
LINE
  8
0
  6
CONTINUOUS
 62
   249
 10
200.0
 20
90.0
 30
0.0
 11
200.0
 21
84.752154
 31
0.0
  0
LINE
  8
0
 62
   249
 10
202.466311
 20
77.72844
 30
0.0
 11
206.466311
 21
77.72844
 31
0.0
  0
LINE
  8
0
 62
   249
 10
198.709901
 20
82.674464
 30
0.0
 11
202.709901
 21
82.674464
 31
0.0
  0
LINE
  8
0
 62
   249
 10
197.795103
 20
76.386207
 30
0.0
 11
206.158613
 21
84.752154
 31
0.0
  0
LINE
  8
0
 62
   249
 10
198.779395
 20
75.429605
 30
0.0
 11
207.119756
 21
83.767352
 31
0.0
  0
LINE
  8
0
 62
   249
 10
197.795103
 20
75.429605
 30
0.0
 11
197.795103
 21
84.752154
 31
0.0
  0
LINE
  8
0
 62
   249
 10
207.119756
 20
75.429605
 30
0.0
 11
197.795103
 21
75.429605
 31
0.0
  0
LINE
  8
0
 62
   249
 10
207.119756
 20
84.752154
 30
0.0
 11
207.119756
 21
75.429605
 31
0.0
  0
LINE
  8
0
 62
   249
 10
197.795103
 20
84.752154
 30
0.0
 11
207.119756
 21
84.752154
 31
0.0
  0
TEXT
  8
0
  6
CONTINUOUS
 62
   249
 10
199.366734
 20
90.55315
 30
0.0
 40
2.0
  1
+
  0
TEXT
  8
0
  6
CONTINUOUS
 62
   249
 10
204.297086
 20
90.577719
 30
0.0
 40
2.0
  1
-
  0
LINE
  8
0
  6
CONTINUOUS
 62
   249
 10
25.0
 20
205.0
 30
0.0
 11
15.0
 21
205.0
 31
0.0
  0
LINE
  8
0
  6
CONTINUOUS
 62
   249
 10
37.5
 20
205.0
 30
0.0
 11
31.000004
 21
205.0
 31
0.0
  0
TEXT
  8
0
  6
CONTINUOUS
 62
   249
 10
40.680161
 20
50.0
 30
0.0
 40
2.0
  1
DIM. 160 X 195,5
  0
LINE
  8
0
  6
CONTINUOUS
 62
   249
 10
296.506031
 20
220.098556
 30
0.0
 11
297.478167
 21
220.098556
 31
0.0
  0
LINE
  8
0
  6
CONTINUOUS
 62
   249
 10
296.496128
 20
222.499996
 30
0.0
 11
297.473936
 21
222.499996
 31
0.0
  0
LINE
  8
0
  6
CONTINUOUS
 62
   249
 10
296.500897
 20
217.68998
 30
0.0
 11
297.5
 21
217.68998
 31
0.0
  0
ARC
  8
0
  6
CONTINUOUS
 62
   249
 10
295.864862
 20
218.894238
 30
0.0
 40
1.204309
 50
90.0
 51
270.0
  0
LINE
  8
0
  6
CONTINUOUS
 62
   249
 10
295.859898
 20
217.689937
 30
0.0
 11
296.509496
 21
217.689937
 31
0.0
  0
LINE
  8
0
  6
CONTINUOUS
 62
   249
 10
295.858762
 20
222.499993
 30
0.0
 11
296.502261
 21
222.499993
 31
0.0
  0
LINE
  8
0
  6
CONTINUOUS
 62
   249
 10
295.858762
 20
220.098547
 30
0.0
 11
296.50836
 21
220.098547
 31
0.0
  0
ARC
  8
0
  6
CONTINUOUS
 62
   249
 10
295.864862
 20
221.296095
 30
0.0
 40
1.204309
 50
90.0
 51
265.706237
  0
LINE
  8
0
  6
CONTINUOUS
 62
   249
 10
304.006031
 20
220.098556
 30
0.0
 11
304.978167
 21
220.098556
 31
0.0
  0
LINE
  8
0
  6
CONTINUOUS
 62
   249
 10
303.996128
 20
222.499996
 30
0.0
 11
304.973936
 21
222.499996
 31
0.0
  0
LINE
  8
0
  6
CONTINUOUS
 62
   249
 10
304.000897
 20
217.68998
 30
0.0
 11
305.0
 21
217.68998
 31
0.0
  0
ARC
  8
0
  6
CONTINUOUS
 62
   249
 10
303.364862
 20
218.894238
 30
0.0
 40
1.204309
 50
90.0
 51
270.0
  0
LINE
  8
0
  6
CONTINUOUS
 62
   249
 10
303.359898
 20
217.689937
 30
0.0
 11
304.009496
 21
217.689937
 31
0.0
  0
LINE
  8
0
  6
CONTINUOUS
 62
   249
 10
303.358762
 20
222.499993
 30
0.0
 11
304.002261
 21
222.499993
 31
0.0
  0
LINE
  8
0
  6
CONTINUOUS
 62
   249
 10
303.358762
 20
220.098547
 30
0.0
 11
304.00836
 21
220.098547
 31
0.0
  0
ARC
  8
0
  6
CONTINUOUS
 62
   249
 10
303.364862
 20
221.296095
 30
0.0
 40
1.204309
 50
90.0
 51
265.706237
  0
LINE
  8
0
  6
CONTINUOUS
 62
   249
 10
305.0
 20
217.68998
 30
0.0
 11
305.0
 21
215.0
 31
0.0
  0
LINE
  8
0
  6
CONTINUOUS
 62
   249
 10
297.5
 20
217.68998
 30
0.0
 11
297.5
 21
215.0
 31
0.0
  0
LINE
  8
0
  6
DASHED
 62
   249
 10
305.0
 20
232.5
 30
0.0
 11
305.0
 21
250.0
 31
0.0
  0
LINE
  8
0
  6
DASHED
 62
   249
 10
297.5
 20
232.5
 30
0.0
 11
297.5
 21
255.0
 31
0.0
  0
TEXT
  8
0
  6
CONTINUOUS
 62
   249
 10
270.743905
 20
253.985054
 30
0.0
 40
2.0
  1
L1(R)
 11
270.743905
 21
253.318387
 31
0.0
 73
     1
  0
TEXT
  8
0
  6
CONTINUOUS
 62
   249
 10
270.743905
 20
248.928359
 30
0.0
 40
2.0
  1
L2(S)
 11
270.743905
 21
248.261693
 31
0.0
 73
     1
  0
TEXT
  8
0
  6
CONTINUOUS
 62
   249
 10
270.743905
 20
244.006967
 30
0.0
 40
2.0
  1
L3(T)
 11
270.743905
 21
243.3403
 31
0.0
 73
     1
  0
LINE
  8
0
  6
CONTINUOUS
 62
   249
 10
297.5
 20
222.5
 30
0.0
 11
317.5
 21
222.5
 31
0.0
  0
LINE
  8
0
  6
CONTINUOUS
 62
   249
 10
311.506031
 20
220.098556
 30
0.0
 11
312.478167
 21
220.098556
 31
0.0
  0
LINE
  8
0
  6
CONTINUOUS
 62
   249
 10
311.496128
 20
222.499996
 30
0.0
 11
312.473936
 21
222.499996
 31
0.0
  0
LINE
  8
0
  6
CONTINUOUS
 62
   249
 10
311.500897
 20
217.68998
 30
0.0
 11
312.5
 21
217.68998
 31
0.0
  0
ARC
  8
0
  6
CONTINUOUS
 62
   249
 10
310.864862
 20
218.894238
 30
0.0
 40
1.204309
 50
90.0
 51
270.0
  0
LINE
  8
0
  6
CONTINUOUS
 62
   249
 10
310.859898
 20
217.689937
 30
0.0
 11
311.509496
 21
217.689937
 31
0.0
  0
LINE
  8
0
  6
CONTINUOUS
 62
   249
 10
310.858762
 20
222.499993
 30
0.0
 11
311.502261
 21
222.499993
 31
0.0
  0
LINE
  8
0
  6
CONTINUOUS
 62
   249
 10
310.858762
 20
220.098547
 30
0.0
 11
311.50836
 21
220.098547
 31
0.0
  0
ARC
  8
0
  6
CONTINUOUS
 62
   249
 10
310.864862
 20
221.296095
 30
0.0
 40
1.204309
 50
90.0
 51
265.706237
  0
LINE
  8
0
  6
CONTINUOUS
 62
   249
 10
312.5
 20
217.68998
 30
0.0
 11
312.5
 21
215.0
 31
0.0
  0
LINE
  8
0
  6
CONTINUOUS
 62
   249
 10
297.5
 20
227.68998
 30
0.0
 11
317.5
 21
227.68998
 31
0.0
  0
LINE
  8
0
  6
DASHED
 62
   249
 10
312.5
 20
232.5
 30
0.0
 11
312.5
 21
245.0
 31
0.0
  0
LINE
  8
0
  6
DASHED
 62
   249
 10
348.595465
 20
245.0
 30
0.0
 11
280.0
 21
245.0
 31
0.0
  0
LINE
  8
0
  6
DASHED
 62
   249
 10
348.595465
 20
250.0
 30
0.0
 11
280.0
 21
250.0
 31
0.0
  0
LINE
  8
0
  6
DASHED
 62
   249
 10
348.595465
 20
255.0
 30
0.0
 11
280.0
 21
255.0
 31
0.0
  0
LINE
  8
0
  6
CONTINUOUS
 62
   249
 10
245.0
 20
192.5
 30
0.0
 11
250.0
 21
192.5
 31
0.0
  0
LINE
  8
0
  6
CONTINUOUS
 62
   249
 10
255.0
 20
192.5
 30
0.0
 11
260.0
 21
192.5
 31
0.0
  0
LINE
  8
0
  6
CONTINUOUS
 62
   249
 10
255.0
 20
192.5
 30
0.0
 11
249.256076
 21
189.285297
 31
0.0
  0
LINE
  8
0
  6
DASHED
 62
   249
 10
260.0
 20
192.5
 30
0.0
 11
297.5
 21
192.5
 31
0.0
  0
LINE
  8
0
  6
DASHED
 62
   249
 10
297.5
 20
192.5
 30
0.0
 11
297.5
 21
215.0
 31
0.0
  0
LINE
  8
0
  6
DASHED
 62
   249
 10
305.0
 20
182.5
 30
0.0
 11
305.0
 21
215.0
 31
0.0
  0
LINE
  8
0
  6
CONTINUOUS
 62
   249
 10
255.0
 20
182.5
 30
0.0
 11
249.256076
 21
179.285297
 31
0.0
  0
LINE
  8
0
  6
CONTINUOUS
 62
   249
 10
245.0
 20
182.5
 30
0.0
 11
250.0
 21
182.5
 31
0.0
  0
LINE
  8
0
  6
CONTINUOUS
 62
   249
 10
255.0
 20
182.5
 30
0.0
 11
260.0
 21
182.5
 31
0.0
  0
LINE
  8
0
  6
DASHED
 62
   249
 10
260.0
 20
182.5
 30
0.0
 11
305.0
 21
182.5
 31
0.0
  0
LINE
  8
0
  6
HIDDEN
 62
   249
 10
27.5
 20
206.25
 30
0.0
 11
27.5
 21
225.0
 31
0.0
  0
LINE
  8
0
  6
HIDDEN
 62
   249
 10
252.5
 20
181.100824
 30
0.0
 11
252.5
 21
225.0
 31
0.0
  0
LINE
  8
0
  6
HIDDEN
 62
   249
 10
252.5
 20
225.0
 30
0.0
 11
27.5
 21
225.0
 31
0.0
  0
LINE
  8
0
  6
CONTINUOUS
 62
   249
 10
212.5
 20
182.0
 30
0.0
 11
213.5
 21
181.0
 31
0.0
  0
LINE
  8
0
  6
CONTINUOUS
 62
   249
 10
212.5
 20
193.0
 30
0.0
 11
213.5
 21
194.0
 31
0.0
  0
LINE
  8
0
  6
CONTINUOUS
 62
   249
 10
212.5
 20
193.0
 30
0.0
 11
212.5
 21
182.0
 31
0.0
  0
TEXT
  8
0
  6
HIDDEN
 62
   249
 10
225.0
 20
189.41592
 30
0.0
 40
2.0
  1
3A
  0
TEXT
  8
0
  6
HIDDEN
 62
   249
 10
225.0
 20
179.64669
 30
0.0
 40
2.0
  1
4A
  0
LINE
  8
0
  6
CONTINUOUS
 62
   249
 10
47.5
 20
200.0
 30
0.0
 11
37.5
 21
200.0
 31
0.0
  0
LINE
  8
0
  6
CONTINUOUS
 62
   249
 10
57.798812
 20
200.0
 30
0.0
 11
45.598812
 21
200.0
 31
0.0
  0
LINE
  8
0
  6
CONTINUOUS
 62
   249
 10
45.0
 20
205.0
 30
0.0
 11
37.5
 21
205.0
 31
0.0
  0
LINE
  8
0
  6
CONTINUOUS
 62
   249
 10
57.798812
 20
205.0
 30
0.0
 11
51.000004
 21
205.0
 31
0.0
  0
TEXT
  8
0
  6
CONTINUOUS
 62
   249
 10
38.747603
 20
196.538565
 30
0.0
 40
2.0
  1
108:11
  0
TEXT
  8
0
  6
CONTINUOUS
 62
   249
 10
38.747603
 20
201.641017
 30
0.0
 40
2.0
  1
14A
  0
TEXT
  8
0
  6
CONTINUOUS
 62
   249
 10
38.742264
 20
206.601974
 30
0.0
 40
2.0
  1
101
  0
LINE
  8
0
 62
   249
 10
57.798812
 20
206.589925
 30
0.0
 11
57.798812
 21
198.4
 31
0.0
  0
LINE
  8
0
 62
   249
 10
62.004853
 20
206.59384
 30
0.0
 11
60.09105
 21
204.315018
 31
0.0
  0
LINE
  8
0
 62
   249
 10
63.496971
 20
206.59384
 30
0.0
 11
61.642636
 21
204.315018
 31
0.0
  0
LINE
  8
0
 62
   249
 10
65.221556
 20
206.589925
 30
0.0
 11
57.798812
 21
206.589925
 31
0.0
  0
LINE
  8
0
 62
   249
 10
57.798812
 20
198.4
 30
0.0
 11
65.221556
 21
198.4
 31
0.0
  0
LINE
  8
0
 62
   249
 10
65.221556
 20
198.4
 30
0.0
 11
65.221556
 21
206.589925
 31
0.0
  0
LINE
  8
0
  6
CONTINUOUS
 62
   249
 10
65.221556
 20
202.5
 30
0.0
 11
155.0
 21
202.5
 31
0.0
  0
LINE
  8
0
  6
CONTINUOUS
 62
   249
 10
45.0
 20
117.5
 30
0.0
 11
37.5
 21
117.5
 31
0.0
  0
LINE
  8
0
  6
CONTINUOUS
 62
   249
 10
55.0
 20
117.5
 30
0.0
 11
51.000004
 21
117.5
 31
0.0
  0
LINE
  8
0
  6
CONTINUOUS
 62
   249
 10
45.0
 20
107.5
 30
0.0
 11
37.5
 21
107.5
 31
0.0
  0
LINE
  8
0
  6
CONTINUOUS
 62
   249
 10
55.0
 20
107.5
 30
0.0
 11
51.000004
 21
107.5
 31
0.0
  0
LINE
  8
0
  6
CONTINUOUS
 62
   249
 10
167.50793
 20
97.5
 30
0.0
 11
167.50793
 21
67.5
 31
0.0
  0
LINE
  8
0
  6
CONTINUOUS
 62
   249
 10
152.5
 20
55.0
 30
0.0
 11
152.5
 21
67.5
 31
0.0
  0
LINE
  8
0
  6
CONTINUOUS
 62
   249
 10
172.5
 20
55.0
 30
0.0
 11
172.5
 21
107.5
 31
0.0
  0
LINE
  8
0
  6
CONTINUOUS
 62
   249
 10
182.5
 20
67.5
 30
0.0
 11
182.5
 21
117.5
 31
0.0
  0
TEXT
  8
0
  6
HIDDEN
 62
   249
 10
155.547779
 20
56.375922
 30
0.0
 40
2.0
  1
108:72
 50
90.0
  0
TEXT
  8
0
  6
HIDDEN
 62
   249
 10
166.473936
 20
56.375922
 30
0.0
 40
2.0
  1
101
 50
90.0
  0
TEXT
  8
0
  6
HIDDEN
 62
   249
 10
171.436402
 20
56.375922
 30
0.0
 40
2.0
  1
2A
 50
90.0
  0
TEXT
  8
0
  6
HIDDEN
 62
   249
 10
175.454458
 20
56.375922
 30
0.0
 40
2.0
  1
108:69
 50
90.0
  0
TEXT
  8
0
  6
HIDDEN
 62
   249
 10
180.887611
 20
56.375922
 30
0.0
 40
2.0
  1
101
 50
90.0
  0
TEXT
  8
0
  6
HIDDEN
 62
   249
 10
185.331718
 20
56.375922
 30
0.0
 40
2.0
  1
1A
 50
90.0
  0
TEXT
  8
0
  6
HIDDEN
 62
   249
 10
190.796829
 20
56.375922
 30
0.0
 40
2.0
  1
18A
 50
90.0
  0
TEXT
  8
0
  6
HIDDEN
 62
   249
 10
202.877881
 20
56.375922
 30
0.0
 40
2.0
  1
108:61
 50
90.0
  0
TEXT
  8
0
  6
HIDDEN
 62
   249
 10
207.900199
 20
56.375922
 30
0.0
 40
2.0
  1
108:62
 50
90.0
  0
TEXT
  8
0
  6
HIDDEN
 62
   249
 10
220.728366
 20
56.375922
 30
0.0
 40
2.0
  1
108:63
 50
90.0
  0
TEXT
  8
0
  6
HIDDEN
 62
   249
 10
38.950091
 20
119.019187
 30
0.0
 40
2.0
  1
101
  0
TEXT
  8
0
  6
HIDDEN
 62
   249
 10
38.950091
 20
114.39647
 30
0.0
 40
2.0
  1
17A
  0
TEXT
  8
0
  6
HIDDEN
 62
   249
 10
38.950091
 20
104.594179
 30
0.0
 40
2.0
  1
16A
  0
TEXT
  8
0
  6
HIDDEN
 62
   249
 10
38.950091
 20
99.508606
 30
0.0
 40
2.0
  1
108:67
  0
TEXT
  8
0
  6
HIDDEN
 62
   249
 10
38.950091
 20
94.61038
 30
0.0
 40
2.0
  1
108:74
  0
TEXT
  8
0
  6
HIDDEN
 62
   249
 10
38.950091
 20
89.701134
 30
0.0
 40
2.0
  1
108:73
  0
TEXT
  8
0
  6
HIDDEN
 62
   249
 10
38.950091
 20
84.626582
 30
0.0
 40
2.0
  1
108:77
  0
TEXT
  8
0
  6
HIDDEN
 62
   249
 10
38.950091
 20
79.541009
 30
0.0
 40
2.0
  1
108:76
  0
TEXT
  8
0
  6
HIDDEN
 62
   249
 10
38.950091
 20
64.471638
 30
0.0
 40
2.0
  1
108:70
  0
TEXT
  8
0
  6
HIDDEN
 62
   249
 10
38.950091
 20
59.749738
 30
0.0
 40
2.0
  1
108:71
  0
ARC
  8
0
  6
CONTINUOUS
 62
   249
 10
232.5
 20
142.5
 30
0.0
 40
2.5
 50
90.0
 51
270.0
  0
LINE
  8
0
  6
DASHED
 62
   249
 10
235.0
 20
142.5
 30
0.0
 11
250.0
 21
142.5
 31
0.0
  0
TEXT
  8
0
  6
HIDDEN
 62
   249
 10
211.399907
 20
137.787226
 30
0.0
 40
2.0
  1
108:RX/TX
  0
TEXT
  8
0
  6
HIDDEN
 62
   249
 10
252.521315
 20
141.491345
 30
0.0
 40
2.0
  1
2)
  0
TEXT
  8
0
  6
HIDDEN
 62
   249
 10
313.325507
 20
130.667989
 30
0.0
 40
2.0
  1
2) I/O-MODULE RX/TX
  0
TEXT
  8
0
  6
HIDDEN
 62
   249
 10
312.640964
 20
127.334655
 30
0.0
 40
2.0
  1
   IN/UTGÅNGSMODUL
  0
TEXT
  8
0
  6
HIDDEN
 62
   249
 10
217.5
 20
198.910608
 30
0.0
 40
2.0
  1
101
  0
TEXT
  8
0
  6
HIDDEN
 62
   249
 10
212.028457
 20
28.161438
 30
0.0
 40
2.0
  1
1992-04-04 J RANTALA
  0
TEXT
  8
0
  6
HIDDEN
 62
   249
 10
75.0
 20
207.5
 30
0.0
 40
2.0
  1
RS 10008-AA SPAU 320 C5
  0
TEXT
  8
0
  6
HIDDEN
 62
   249
 10
40.680188
 20
46.692835
 30
0.0
 40
2.0
  1
RS 10008-AAF
  0
TEXT
  8
0
  6
HIDDEN
 62
   249
 10
315.0
 20
27.5
 30
0.0
 40
2.0
  1
TERMINAL DIAGRAM / UTTAGSSCHEMA 
  0
TEXT
  8
0
  6
HIDDEN
 62
   249
 10
315.0
 20
24.166667
 30
0.0
 40
2.0
  1
SPAU 320 C5 WITH TEST SWITCH
  0
TEXT
  8
0
  6
HIDDEN
 62
   249
 10
315.0
 20
20.833333
 30
0.0
 40
2.0
  1
SPAU 320 C5 MED PROVDON
  0
TEXT
  8
0
  6
HIDDEN
 62
   249
 10
320.0
 20
2.5
 30
0.0
 40
2.5
  1
RS 10008-AAF
  0
LINE
  8
0
  6
CONTINUOUS
 62
   249
 10
25.0
 20
205.0
 30
0.0
 11
25.0
 21
207.765661
 31
0.0
  0
LINE
  8
0
  6
CONTINUOUS
 62
   249
 10
31.000004
 20
205.0
 30
0.0
 11
24.337159
 21
207.434804
 31
0.0
  0
LINE
  8
0
  6
CONTINUOUS
 62
   249
 10
197.950615
 20
142.5
 30
0.0
 11
230.0
 21
142.5
 31
0.0
  0
LINE
  8
0
  6
CONTINUOUS
 62
   249
 10
225.0
 20
182.5
 30
0.0
 11
230.0
 21
182.5
 31
0.0
  0
LINE
  8
0
  6
CONTINUOUS
 62
   249
 10
215.0
 20
182.482972
 30
0.0
 11
220.0
 21
182.482972
 31
0.0
  0
LINE
  8
0
  6
CONTINUOUS
 62
   249
 10
220.0
 20
182.482972
 30
0.0
 11
220.0
 21
185.265661
 31
0.0
  0
LINE
  8
0
  6
CONTINUOUS
 62
   249
 10
219.102827
 20
184.934804
 30
0.0
 11
218.657934
 21
184.049106
 31
0.0
  0
LINE
  8
0
  6
CONTINUOUS
 62
   249
 10
219.102827
 20
184.934804
 30
0.0
 11
225.0
 21
182.5
 31
0.0
  0
LINE
  8
0
  6
CONTINUOUS
 62
   249
 10
219.102827
 20
194.934804
 30
0.0
 11
225.0
 21
192.5
 31
0.0
  0
LINE
  8
0
  6
CONTINUOUS
 62
   249
 10
219.102827
 20
194.934804
 30
0.0
 11
218.657934
 21
194.049106
 31
0.0
  0
LINE
  8
0
  6
CONTINUOUS
 62
   249
 10
220.0
 20
192.482972
 30
0.0
 11
220.0
 21
195.265661
 31
0.0
  0
LINE
  8
0
  6
CONTINUOUS
 62
   249
 10
215.0
 20
192.482972
 30
0.0
 11
220.0
 21
192.482972
 31
0.0
  0
LINE
  8
0
  6
CONTINUOUS
 62
   249
 10
225.0
 20
192.5
 30
0.0
 11
230.0
 21
192.5
 31
0.0
  0
LINE
  8
0
  6
CONTINUOUS
 62
   249
 10
51.000004
 20
107.5
 30
0.0
 11
44.337159
 21
109.934804
 31
0.0
  0
LINE
  8
0
  6
CONTINUOUS
 62
   249
 10
45.0
 20
107.5
 30
0.0
 11
45.0
 21
110.265661
 31
0.0
  0
LINE
  8
0
  6
CONTINUOUS
 62
   249
 10
45.0
 20
117.5
 30
0.0
 11
45.0
 21
120.265661
 31
0.0
  0
LINE
  8
0
  6
CONTINUOUS
 62
   249
 10
51.000004
 20
117.5
 30
0.0
 11
44.337159
 21
119.934804
 31
0.0
  0
LINE
  8
0
  6
CONTINUOUS
 62
   249
 10
187.5
 20
67.5
 30
0.0
 11
187.5
 21
71.087694
 31
0.0
  0
LINE
  8
0
  6
CONTINUOUS
 62
   249
 10
187.5
 20
72.28623
 30
0.0
 11
187.5
 21
74.78623
 31
0.0
  0
LINE
  8
0
  6
CONTINUOUS
 62
   249
 10
187.5
 20
61.499996
 30
0.0
 11
187.5
 21
55.0
 31
0.0
  0
LINE
  8
0
  6
CONTINUOUS
 62
   249
 10
187.5
 20
61.499996
 30
0.0
 11
189.934804
 21
68.162841
 31
0.0
  0
LINE
  8
0
  6
CONTINUOUS
 62
   249
 10
187.5
 20
67.5
 30
0.0
 11
190.265661
 21
67.5
 31
0.0
  0
LINE
  8
0
  6
CONTINUOUS
 62
   249
 10
189.934804
 20
68.162841
 30
0.0
 11
189.049106
 21
68.607734
 31
0.0
  0
LINE
  8
0
  6
CONTINUOUS
 62
   249
 10
184.934804
 20
68.162841
 30
0.0
 11
184.049106
 21
68.607734
 31
0.0
  0
LINE
  8
0
  6
CONTINUOUS
 62
   249
 10
182.5
 20
61.499996
 30
0.0
 11
184.934804
 21
68.162841
 31
0.0
  0
LINE
  8
0
  6
CONTINUOUS
 62
   249
 10
182.5
 20
67.5
 30
0.0
 11
185.265661
 21
67.5
 31
0.0
  0
LINE
  8
0
  6
CONTINUOUS
 62
   249
 10
182.5
 20
61.499996
 30
0.0
 11
182.5
 21
55.0
 31
0.0
  0
LINE
  8
0
  6
CONTINUOUS
 62
   249
 10
167.5
 20
61.499996
 30
0.0
 11
169.934804
 21
68.162841
 31
0.0
  0
LINE
  8
0
  6
CONTINUOUS
 62
   249
 10
167.50793
 20
67.5
 30
0.0
 11
170.265661
 21
67.5
 31
0.0
  0
LINE
  8
0
  6
CONTINUOUS
 62
   249
 10
167.5
 20
61.499996
 30
0.0
 11
167.5
 21
55.0
 31
0.0
  0
TEXT
  8
0
  6
CONTINUOUS
 62
   249
 10
380.0
 20
2.5
 30
0.0
 40
2.5
  1
B
  0
TEXT
  8
0
  6
CONTINUOUS
 62
   249
 10
49.452802
 20
1.728786
 30
0.0
 40
2.0
  1
REDRAWN WITH AUTOCAD 1992-04-04  JR / RITU Power
  0
LINE
  8
0
  6
CONTINUOUS
 62
   249
 10
51.000004
 20
205.0
 30
0.0
 11
44.337159
 21
207.434804
 31
0.0
  0
LINE
  8
0
  6
CONTINUOUS
 62
   249
 10
45.0
 20
205.0
 30
0.0
 11
45.0
 21
207.765661
 31
0.0
  0
LINE
  8
0
  6
CONTINUOUS
 62
   249
 10
44.337159
 20
207.434804
 30
0.0
 11
43.892266
 21
206.549106
 31
0.0
  0
TEXT
  8
0
  6
DASHED
 62
   249
 10
354.532644
 20
16.140253
 30
0.0
 40
1.4
  1
LEHTI SHEET
  7
STAND
  0
LINE
  8
0
 62
   249
 10
0.579164
 20
0.584843
 30
0.0
 11
0.579164
 21
263.084843
 31
0.0
  0
LINE
  8
0
 62
   249
 10
392.579164
 20
263.084843
 30
0.0
 11
392.579164
 21
0.584843
 31
0.0
  0
LINE
  8
0
 62
   249
 10
0.579164
 20
0.584843
 30
0.0
 11
392.579164
 21
0.584843
 31
0.0
  0
TEXT
  8
0
 62
   249
 10
42.579164
 20
5.934352
 30
0.0
 40
2.5
  1
C
  7
ROMANS
  0
TEXT
  8
0
 62
   249
 10
42.579164
 20
1.542136
 30
0.0
 40
2.5
  1
B
  7
ROMANS
  0
TEXT
  8
0
 62
   249
 10
257.749071
 20
2.088627
 30
0.0
 40
3.0
  1
Power
 41
0.8
  7
ROMANS
  0
TEXT
  8
0
 62
   249
 10
273.579164
 20
7.584843
 30
0.0
 40
1.4
  1
VAST.OSASTO RESP.DEPT.
  7
ROMANS
  0
TEXT
  8
0
 62
   249
 10
210.579164
 20
32.584843
 30
0.0
 40
1.4
  1
TEKI  PREPARED
  7
ROMANS
  0
LINE
  8
0
 62
   249
 10
271.579164
 20
10.084843
 30
0.0
 11
271.579164
 21
0.584843
 31
0.0
  0
LINE
  8
0
 62
   249
 10
257.579164
 20
10.084843
 30
0.0
 11
257.579164
 21
35.584843
 31
0.0
  0
LINE
  8
0
 62
   249
 10
41.079164
 20
5.084843
 30
0.0
 11
209.579164
 21
5.084843
 31
0.0
  0
LINE
  8
0
 62
   249
 10
47.079164
 20
0.584843
 30
0.0
 11
47.079164
 21
9.584843
 31
0.0
  0
LINE
  8
0
 62
   249
 10
47.079164
 20
9.584843
 30
0.0
 11
209.579164
 21
9.584843
 31
0.0
  0
TEXT
  8
0
 62
   249
 10
28.079164
 20
2.818176
 30
0.0
 40
1.4
  1
REVISION
  7
ROMANS
  0
TEXT
  8
0
 62
   249
 10
28.079164
 20
5.084843
 30
0.0
 40
1.4
  1
MUUTOS
  7
ROMANS
  0
LINE
  8
0
 62
   249
 10
282.579164
 20
10.084843
 30
0.0
 11
282.579164
 21
18.584843
 31
0.0
  0
TEXT
  8
0
 62
   249
 10
238.079164
 20
2.084843
 30
0.0
 40
3.0
  1
Strömberg
 41
0.8
  7
ROMANS
  0
TEXT
  8
0
 62
   249
 10
230.079164
 20
2.084843
 30
0.0
 40
3.0
  1
ABB 
 41
0.8
  7
ROMANS
  0
LINE
  8
0
 62
   249
 10
223.479164
 20
2.084843
 30
0.0
 11
223.479164
 21
5.444843
 31
0.0
  0
LINE
  8
0
 62
   249
 10
223.479164
 20
9.084843
 30
0.0
 11
225.439164
 21
9.084843
 31
0.0
  0
LINE
  8
0
 62
   249
 10
225.439164
 20
9.084843
 30
0.0
 11
225.439164
 21
5.724843
 31
0.0
  0
LINE
  8
0
 62
   249
 10
225.439164
 20
5.724843
 30
0.0
 11
223.479164
 21
5.724843
 31
0.0
  0
LINE
  8
0
 62
   249
 10
223.479164
 20
5.444843
 30
0.0
 11
225.439164
 21
5.444843
 31
0.0
  0
LINE
  8
0
 62
   249
 10
225.439164
 20
5.444843
 30
0.0
 11
225.439164
 21
2.084843
 31
0.0
  0
LINE
  8
0
 62
   249
 10
225.439164
 20
2.084843
 30
0.0
 11
223.479164
 21
2.084843
 31
0.0
  0
LINE
  8
0
 62
   249
 10
223.479164
 20
5.724843
 30
0.0
 11
223.479164
 21
9.084843
 31
0.0
  0
ARC
  8
0
 62
   249
 10
226.279164
 20
7.509843
 30
0.0
 40
1.575
 50
298.455859
 51
90.052437
  0
LINE
  8
0
 62
   249
 10
225.719164
 20
9.084843
 30
0.0
 11
226.277723
 21
9.084842
 31
0.0
  0
LINE
  8
0
 62
   249
 10
225.719164
 20
9.084843
 30
0.0
 11
225.719164
 21
5.724843
 31
0.0
  0
LINE
  8
0
 62
   249
 10
225.719164
 20
5.724843
 30
0.0
 11
227.703607
 21
5.724843
 31
0.0
  0
LINE
  8
0
 62
   249
 10
227.959164
 20
5.444843
 30
0.0
 11
225.719164
 21
5.444843
 31
0.0
  0
LINE
  8
0
 62
   249
 10
225.719164
 20
5.444843
 30
0.0
 11
225.719164
 21
2.084843
 31
0.0
  0
ARC
  8
0
 62
   249
 10
226.279164
 20
4.184843
 30
0.0
 40
2.1
 50
269.937724
 51
37.056553
  0
LINE
  8
0
 62
   249
 10
225.719164
 20
2.084843
 30
0.0
 11
226.276882
 21
2.084844
 31
0.0
  0
ARC
  8
0
 62
   249
 10
226.279164
 20
4.184843
 30
0.0
 40
2.1
 50
47.28622
 51
68.787999
  0
INSERT
  8
0
 62
   249
  2
*X24
 10
215.989164
 20
2.084843
 30
0.0
 41
0.7
 42
0.7
 43
0.7
  0
INSERT
  8
0
 62
   249
  2
*X25
 10
215.989164
 20
2.084843
 30
0.0
 41
0.7
 42
0.7
 43
0.7
  0
INSERT
  8
0
 62
   249
  2
*X26
 10
215.989164
 20
2.084843
 30
0.0
 41
0.7
 42
0.7
 43
0.7
  0
INSERT
  8
0
 62
   249
  2
*X27
 10
215.989164
 20
2.084843
 30
0.0
 41
0.7
 42
0.7
 43
0.7
  0
INSERT
  8
0
 62
   249
  2
*X27
 10
210.529164
 20
2.084843
 30
0.0
 41
0.7
 42
0.7
 43
0.7
  0
INSERT
  8
0
 62
   249
  2
*X26
 10
210.529164
 20
2.084843
 30
0.0
 41
0.7
 42
0.7
 43
0.7
  0
INSERT
  8
0
 62
   249
  2
*X25
 10
210.529164
 20
2.084843
 30
0.0
 41
0.7
 42
0.7
 43
0.7
  0
INSERT
  8
0
 62
   249
  2
*X24
 10
210.529164
 20
2.084843
 30
0.0
 41
0.7
 42
0.7
 43
0.7
  0
ARC
  8
0
 62
   249
 10
220.819164
 20
4.184843
 30
0.0
 40
2.1
 50
47.28622
 51
68.787999
  0
LINE
  8
0
 62
   249
 10
220.259164
 20
2.084843
 30
0.0
 11
220.816882
 21
2.084844
 31
0.0
  0
ARC
  8
0
 62
   249
 10
220.819164
 20
4.184843
 30
0.0
 40
2.1
 50
269.937724
 51
37.056553
  0
LINE
  8
0
 62
   249
 10
220.259164
 20
5.444843
 30
0.0
 11
220.259164
 21
2.084843
 31
0.0
  0
LINE
  8
0
 62
   249
 10
222.499164
 20
5.444843
 30
0.0
 11
220.259164
 21
5.444843
 31
0.0
  0
LINE
  8
0
 62
   249
 10
220.259164
 20
5.724843
 30
0.0
 11
222.243607
 21
5.724843
 31
0.0
  0
LINE
  8
0
 62
   249
 10
220.259164
 20
9.084843
 30
0.0
 11
220.259164
 21
5.724843
 31
0.0
  0
LINE
  8
0
 62
   249
 10
220.259164
 20
9.084843
 30
0.0
 11
220.817723
 21
9.084842
 31
0.0
  0
ARC
  8
0
 62
   249
 10
220.819164
 20
7.509843
 30
0.0
 40
1.575
 50
298.455859
 51
90.052437
  0
LINE
  8
0
 62
   249
 10
218.019164
 20
5.724843
 30
0.0
 11
218.019164
 21
9.084843
 31
0.0
  0
LINE
  8
0
 62
   249
 10
219.979164
 20
2.084843
 30
0.0
 11
218.019164
 21
2.084843
 31
0.0
  0
LINE
  8
0
 62
   249
 10
219.979164
 20
5.444843
 30
0.0
 11
219.979164
 21
2.084843
 31
0.0
  0
LINE
  8
0
 62
   249
 10
218.019164
 20
5.444843
 30
0.0
 11
219.979164
 21
5.444843
 31
0.0
  0
LINE
  8
0
 62
   249
 10
219.979164
 20
5.724843
 30
0.0
 11
218.019164
 21
5.724843
 31
0.0
  0
LINE
  8
0
 62
   249
 10
219.979164
 20
9.084843
 30
0.0
 11
219.979164
 21
5.724843
 31
0.0
  0
LINE
  8
0
 62
   249
 10
218.019164
 20
9.084843
 30
0.0
 11
219.979164
 21
9.084843
 31
0.0
  0
LINE
  8
0
 62
   249
 10
218.019164
 20
2.084843
 30
0.0
 11
218.019164
 21
5.444843
 31
0.0
  0
INSERT
  8
0
 62
   249
  2
*X23
 10
210.529164
 20
2.084843
 30
0.0
 41
0.7
 42
0.7
 43
0.7
  0
INSERT
  8
0
 62
   249
  2
*X22
 10
210.529164
 20
2.084843
 30
0.0
 41
0.7
 42
0.7
 43
0.7
  0
INSERT
  8
0
 62
   249
  2
*X21
 10
210.529164
 20
2.084843
 30
0.0
 41
0.7
 42
0.7
 43
0.7
  0
INSERT
  8
0
 62
   249
  2
*X20
 10
210.529164
 20
2.084843
 30
0.0
 41
0.7
 42
0.7
 43
0.7
  0
LINE
  8
0
 62
   249
 10
211.699053
 20
5.427382
 30
0.0
 11
210.529164
 21
2.084843
 31
0.0
  0
LINE
  8
0
 62
   249
 10
213.889164
 20
5.444843
 30
0.0
 11
213.889164
 21
3.484843
 31
0.0
  0
LINE
  8
0
 62
   249
 10
214.169164
 20
5.444843
 30
0.0
 11
214.169164
 21
3.484843
 31
0.0
  0
LINE
  8
0
 62
   249
 10
214.169164
 20
5.444843
 30
0.0
 11
216.352421
 21
5.444843
 31
0.0
  0
LINE
  8
0
 62
   249
 10
214.169164
 20
5.724843
 30
0.0
 11
216.254278
 21
5.724843
 31
0.0
  0
LINE
  8
0
 62
   249
 10
216.353656
 20
5.443438
 30
0.0
 11
217.529164
 21
2.084843
 31
0.0
  0
LINE
  8
0
 62
   249
 10
211.702147
 20
5.444843
 30
0.0
 11
213.889164
 21
5.444843
 31
0.0
  0
LINE
  8
0
 62
   249
 10
211.801105
 20
5.724843
 30
0.0
 11
213.889164
 21
5.724843
 31
0.0
  0
LINE
  8
0
 62
   249
 10
213.889164
 20
9.084843
 30
0.0
 11
212.979164
 21
9.084843
 31
0.0
  0
LINE
  8
0
 62
   249
 10
214.169164
 20
3.484843
 30
0.0
 11
215.289058
 21
3.484843
 31
0.0
  0
LINE
  8
0
 62
   249
 10
214.169164
 20
9.084843
 30
0.0
 11
214.169164
 21
5.724843
 31
0.0
  0
LINE
  8
0
 62
   249
 10
213.889164
 20
9.084843
 30
0.0
 11
213.889164
 21
5.724843
 31
0.0
  0
LINE
  8
0
 62
   249
 10
215.079164
 20
9.084843
 30
0.0
 11
214.169164
 21
9.084843
 31
0.0
  0
LINE
  8
0
 62
   249
 10
215.290262
 20
3.481707
 30
0.0
 11
215.779164
 21
2.084843
 31
0.0
  0
LINE
  8
0
 62
   249
 10
215.079164
 20
9.084843
 30
0.0
 11
216.255517
 21
5.723835
 31
0.0
  0
LINE
  8
0
 62
   249
 10
212.767954
 20
3.481386
 30
0.0
 11
212.279164
 21
2.084843
 31
0.0
  0
LINE
  8
0
 62
   249
 10
212.767951
 20
3.484843
 30
0.0
 11
213.889164
 21
3.484843
 31
0.0
  0
LINE
  8
0
 62
   249
 10
212.979164
 20
9.084843
 30
0.0
 11
211.801636
 21
5.720478
 31
0.0
  0
LINE
  8
0
 62
   249
 10
215.779164
 20
2.084843
 30
0.0
 11
217.529164
 21
2.084843
 31
0.0
  0
LINE
  8
0
 62
   249
 10
210.529164
 20
2.084843
 30
0.0
 11
212.279164
 21
2.084843
 31
0.0
  0
LINE
  8
0
 62
   249
 10
370.079164
 20
10.084843
 30
0.0
 11
370.079164
 21
0.584843
 31
0.0
  0
TEXT
  8
0
 62
   249
 10
371.579164
 20
7.584843
 30
0.0
 40
1.4
  1
PAINOS  REVISION
  7
ROMANS
  0
LINE
  8
0
 62
   249
 10
350.079164
 20
10.084843
 30
0.0
 11
350.079164
 21
18.584843
 31
0.0
  0
TEXT
  8
0
 62
   249
 10
309.579164
 20
7.584843
 30
0.0
 40
1.4
  1
PIIRUSTUS NO  DRAWING NR
  7
ROMANS
  0
TEXT
  8
0
 62
   249
 10
309.579164
 20
16.084843
 30
0.0
 40
1.4
  1
KOODI  CODE
  7
ROMANS
  0
TEXT
  8
0
 62
   249
 10
309.579164
 20
33.084843
 30
0.0
 40
1.4
  1
NIMITYS  NAME
  7
ROMANS
  0
TEXT
  8
0
 62
   249
 10
259.579164
 20
16.084843
 30
0.0
 40
1.4
  1
SUHDE  SCALE
  7
ROMANS
  0
TEXT
  8
0
 62
   249
 10
259.579164
 20
24.084843
 30
0.0
 40
1.4
  1
TOLERANSSIT  TOLERANCES
  7
ROMANS
  0
TEXT
  8
0
 62
   249
 10
259.579164
 20
33.084843
 30
0.0
 40
1.4
  1
LIITTYY  CONCERNING
  7
ROMANS
  0
LINE
  8
0
 62
   249
 10
307.579164
 20
0.584843
 30
0.0
 11
307.579164
 21
35.584843
 31
0.0
  0
TEXT
  8
0
 62
   249
 10
210.321999
 20
16.05151
 30
0.0
 40
1.4
  1
HYVÄKSYI  APPROVED
  7
ROMANS
  0
TEXT
  8
0
 62
   249
 10
210.579164
 20
24.318176
 30
0.0
 40
1.4
  1
TARKASTI  CHECKED
  7
ROMANS
  0
LINE
  8
0
 62
   249
 10
209.579164
 20
35.584843
 30
0.0
 11
392.579164
 21
35.584843
 31
0.0
  0
LINE
  8
0
 62
   249
 10
209.579164
 20
27.084843
 30
0.0
 11
307.579164
 21
27.084843
 31
0.0
  0
LINE
  8
0
 62
   249
 10
209.579164
 20
10.084843
 30
0.0
 11
392.579164
 21
10.084843
 31
0.0
  0
LINE
  8
0
 62
   249
 10
209.579164
 20
18.584843
 30
0.0
 11
392.579164
 21
18.584843
 31
0.0
  0
LINE
  8
0
 62
   249
 10
392.579164
 20
0.584843
 30
0.0
 11
392.579164
 21
35.584843
 31
0.0
  0
LINE
  8
0
 62
   249
 10
209.579164
 20
0.584843
 30
0.0
 11
209.579164
 21
35.584843
 31
0.0
  0
LINE
  8
0
 62
   249
 10
209.579164
 20
0.584843
 30
0.0
 11
392.579164
 21
0.584843
 31
0.0
  0
LINE
  8
0
 62
   249
 10
18.579164
 20
0.584843
 30
0.0
 11
0.579164
 21
0.584843
 31
0.0
  0
LINE
  8
0
 62
   249
 10
0.579164
 20
263.084843
 30
0.0
 11
392.579164
 21
263.084843
 31
0.0
  0
TEXT
  8
0
  6
DASHED
 62
   249
 10
292.559259
 20
12.160203
 30
0.0
 40
3.0
  1
A3
  7
GREEKS
  0
TEXT
  8
0
  6
CONTINUOUS
 62
   249
 10
151.853328
 20
41.513635
 30
0.0
 40
2.0
  1
+
  0
TEXT
  8
0
  6
CONTINUOUS
 62
   249
 10
166.853328
 20
41.513635
 30
0.0
 40
2.0
  1
+
  0
TEXT
  8
0
  6
CONTINUOUS
 62
   249
 10
171.853328
 20
41.513635
 30
0.0
 40
2.0
  1
+
  0
TEXT
  8
0
  6
CONTINUOUS
 62
   249
 10
181.853328
 20
41.513635
 30
0.0
 40
2.0
  1
+
  0
TEXT
  8
0
  6
CONTINUOUS
 62
   249
 10
186.844763
 20
41.50558
 30
0.0
 40
2.0
  1
-
  0
ARC
  8
0
  6
CONTINUOUS
 62
   249
 10
167.5
 20
87.5
 30
0.0
 40
0.5
 50
180.0
 51
0.0
  0
ARC
  8
0
  6
CONTINUOUS
 62
   249
 10
167.5
 20
87.5
 30
0.0
 40
0.5
 50
0.0
 51
180.0
  0
LINE
  8
0
 62
   249
 10
3.233394
 20
203.135937
 30
0.0
 11
7.233394
 21
203.135937
 31
0.0
  0
INSERT
  8
0
 62
   249
  2
WKU130
 10
3.573344
 20
201.410384
 30
0.0
 41
0.8
 42
0.8
 43
0.8
  0
TEXT
  8
0
  6
CONTINUOUS
 62
   249
 10
8.587084
 20
199.00558
 30
0.0
 40
2.0
  1
-
  0
TEXT
  8
0
  6
CONTINUOUS
 62
   249
 10
8.595649
 20
204.013635
 30
0.0
 40
2.0
  1
+
  0
ARC
  8
0
  6
CONTINUOUS
 62
   249
 10
85.0
 20
167.347111
 30
0.0
 40
0.5
 50
180.0
 51
0.0
  0
ARC
  8
0
  6
CONTINUOUS
 62
   249
 10
85.0
 20
167.347111
 30
0.0
 40
0.5
 50
0.0
 51
180.0
  0
ARC
  8
0
  6
CONTINUOUS
 62
   249
 10
115.0
 20
167.347111
 30
0.0
 40
0.5
 50
180.0
 51
0.0
  0
ARC
  8
0
  6
CONTINUOUS
 62
   249
 10
115.0
 20
167.347111
 30
0.0
 40
0.5
 50
0.0
 51
180.0
  0
ARC
  8
0
  6
CONTINUOUS
 62
   249
 10
80.0
 20
179.092853
 30
0.0
 40
0.5
 50
180.0
 51
0.0
  0
ARC
  8
0
  6
CONTINUOUS
 62
   249
 10
80.0
 20
179.092853
 30
0.0
 40
0.5
 50
0.0
 51
180.0
  0
ARC
  8
0
  6
CONTINUOUS
 62
   249
 10
97.5
 20
179.092853
 30
0.0
 40
0.5
 50
180.0
 51
0.0
  0
ARC
  8
0
  6
CONTINUOUS
 62
   249
 10
97.5
 20
179.092853
 30
0.0
 40
0.5
 50
0.0
 51
180.0
  0
LINE
  8
0
  6
CONTINUOUS
 62
   249
 10
162.919131
 20
136.159936
 30
0.0
 11
160.573366
 21
137.495289
 31
0.0
  0
LINE
  8
0
  6
CONTINUOUS
 62
   249
 10
160.573366
 20
137.495289
 30
0.0
 11
162.919131
 21
138.685208
 31
0.0
  0
LINE
  8
0
  6
CONTINUOUS
 62
   249
 10
162.92845
 20
166.011752
 30
0.0
 11
160.582685
 21
167.347106
 31
0.0
  0
LINE
  8
0
  6
CONTINUOUS
 62
   249
 10
160.582685
 20
167.347106
 30
0.0
 11
162.92845
 21
168.537025
 31
0.0
  0
LINE
  8
0
  6
CONTINUOUS
 62
   249
 10
162.92845
 20
181.295027
 30
0.0
 11
160.582685
 21
182.63038
 31
0.0
  0
LINE
  8
0
  6
CONTINUOUS
 62
   249
 10
160.582685
 20
182.63038
 30
0.0
 11
162.92845
 21
183.8203
 31
0.0
  0
LINE
  8
0
  6
CONTINUOUS
 62
   249
 10
162.92845
 20
177.757512
 30
0.0
 11
160.582685
 21
179.092866
 31
0.0
  0
LINE
  8
0
  6
CONTINUOUS
 62
   249
 10
160.582685
 20
179.092866
 30
0.0
 11
162.92845
 21
180.282785
 31
0.0
  0
LINE
  8
0
  6
CONTINUOUS
 62
   249
 10
162.92845
 20
173.664636
 30
0.0
 11
160.582685
 21
174.99999
 31
0.0
  0
LINE
  8
0
  6
CONTINUOUS
 62
   249
 10
160.582685
 20
174.99999
 30
0.0
 11
162.92845
 21
176.189909
 31
0.0
  0
LINE
  8
0
 62
   249
 10
199.979007
 20
40.783527
 30
0.0
 11
203.979007
 21
40.783527
 31
0.0
  0
INSERT
  8
0
 62
   249
  2
WKU130
 10
200.318957
 20
39.057974
 30
0.0
 41
0.8
 42
0.8
 43
0.8
  0
TEXT
  8
0
  6
CONTINUOUS
 62
   249
 10
199.353328
 20
41.513635
 30
0.0
 40
2.0
  1
+
  0
TEXT
  8
0
  6
CONTINUOUS
 62
   249
 10
204.344763
 20
41.50558
 30
0.0
 40
2.0
  1
-
  0
INSERT
  8
0
  6
CENTER
 62
   249
  2
BLC5
 10
217.791926
 20
43.342005
 30
0.0
 41
0.6
 42
0.6
 43
0.6
  0
ARC
  8
0
 62
   249
 10
203.672927
 20
75.936221
 30
0.0
 40
0.869227
 50
32.471192
 51
175.601295
  0
ARC
  8
0
 62
   249
 10
205.139595
 20
76.869554
 30
0.0
 40
0.869227
 50
212.471192
 51
355.601295
  0
LINE
  8
0
  6
CONTINUOUS
 62
   249
 10
208.633021
 20
143.835354
 30
0.0
 11
210.978787
 21
142.5
 31
0.0
  0
LINE
  8
0
  6
CONTINUOUS
 62
   249
 10
210.978787
 20
142.5
 30
0.0
 11
208.633021
 21
141.310081
 31
0.0
  0
LINE
  8
0
  6
CONTINUOUS
 62
   249
 10
205.011423
 20
141.164646
 30
0.0
 11
202.665657
 21
142.5
 31
0.0
  0
LINE
  8
0
  6
CONTINUOUS
 62
   249
 10
202.665657
 20
142.5
 30
0.0
 11
205.011423
 21
143.689919
 31
0.0
  0
3DFACE
  8
0
  6
CONTINUOUS
 62
   249
 10
231.634024
 20
141.94
 30
0.0
 11
231.649704
 21
141.94
 31
0.0
 12
231.649704
 22
143.06
 32
0.0
 13
231.634024
 23
143.06
 33
0.0
  0
3DFACE
  8
0
  6
CONTINUOUS
 62
   249
 10
231.649704
 20
141.94
 30
0.0
 11
231.665384
 21
141.94
 31
0.0
 12
231.665384
 22
143.06
 32
0.0
 13
231.649704
 23
143.06
 33
0.0
  0
3DFACE
  8
0
  6
CONTINUOUS
 62
   249
 10
231.665384
 20
141.94
 30
0.0
 11
231.681064
 21
141.94
 31
0.0
 12
231.681064
 22
143.06
 32
0.0
 13
231.665384
 23
143.06
 33
0.0
  0
3DFACE
  8
0
  6
CONTINUOUS
 62
   249
 10
231.681064
 20
141.94
 30
0.0
 11
231.696744
 21
141.94
 31
0.0
 12
231.696744
 22
143.06
 32
0.0
 13
231.681064
 23
143.06
 33
0.0
  0
3DFACE
  8
0
  6
CONTINUOUS
 62
   249
 10
231.696744
 20
141.94
 30
0.0
 11
231.712424
 21
141.94
 31
0.0
 12
231.712424
 22
143.06
 32
0.0
 13
231.696744
 23
143.06
 33
0.0
  0
3DFACE
  8
0
  6
CONTINUOUS
 62
   249
 10
231.712424
 20
141.94
 30
0.0
 11
231.728104
 21
141.94
 31
0.0
 12
231.728104
 22
143.06
 32
0.0
 13
231.712424
 23
143.06
 33
0.0
  0
3DFACE
  8
0
  6
CONTINUOUS
 62
   249
 10
231.728104
 20
141.94
 30
0.0
 11
231.743784
 21
141.94
 31
0.0
 12
231.743784
 22
143.06
 32
0.0
 13
231.728104
 23
143.06
 33
0.0
  0
3DFACE
  8
0
  6
CONTINUOUS
 62
   249
 10
231.743784
 20
141.94
 30
0.0
 11
231.759464
 21
141.94
 31
0.0
 12
231.759464
 22
143.06
 32
0.0
 13
231.743784
 23
143.06
 33
0.0
  0
3DFACE
  8
0
  6
CONTINUOUS
 62
   249
 10
231.759464
 20
141.94
 30
0.0
 11
231.775144
 21
141.94
 31
0.0
 12
231.775144
 22
143.06
 32
0.0
 13
231.759464
 23
143.06
 33
0.0
  0
3DFACE
  8
0
  6
CONTINUOUS
 62
   249
 10
231.775144
 20
141.94
 30
0.0
 11
231.790824
 21
141.94
 31
0.0
 12
231.790824
 22
143.06
 32
0.0
 13
231.775144
 23
143.06
 33
0.0
  0
3DFACE
  8
0
  6
CONTINUOUS
 62
   249
 10
231.790824
 20
141.94
 30
0.0
 11
231.806504
 21
141.94
 31
0.0
 12
231.806504
 22
143.06
 32
0.0
 13
231.790824
 23
143.06
 33
0.0
  0
3DFACE
  8
0
  6
CONTINUOUS
 62
   249
 10
231.806504
 20
141.94
 30
0.0
 11
231.822184
 21
141.94
 31
0.0
 12
231.822184
 22
143.06
 32
0.0
 13
231.806504
 23
143.06
 33
0.0
  0
3DFACE
  8
0
  6
CONTINUOUS
 62
   249
 10
231.822184
 20
141.94
 30
0.0
 11
231.837864
 21
141.94
 31
0.0
 12
231.837864
 22
143.06
 32
0.0
 13
231.822184
 23
143.06
 33
0.0
  0
3DFACE
  8
0
  6
CONTINUOUS
 62
   249
 10
231.837864
 20
141.94
 30
0.0
 11
231.853544
 21
141.94
 31
0.0
 12
231.853544
 22
143.06
 32
0.0
 13
231.837864
 23
143.06
 33
0.0
  0
3DFACE
  8
0
  6
CONTINUOUS
 62
   249
 10
231.853544
 20
141.94
 30
0.0
 11
231.869224
 21
141.94
 31
0.0
 12
231.869224
 22
143.06
 32
0.0
 13
231.853544
 23
143.06
 33
0.0
  0
3DFACE
  8
0
  6
CONTINUOUS
 62
   249
 10
231.869224
 20
141.94
 30
0.0
 11
231.884904
 21
141.94
 31
0.0
 12
231.884904
 22
143.06
 32
0.0
 13
231.869224
 23
143.06
 33
0.0
  0
3DFACE
  8
0
  6
CONTINUOUS
 62
   249
 10
231.884904
 20
141.94
 30
0.0
 11
231.900584
 21
141.94
 31
0.0
 12
231.900584
 22
143.06
 32
0.0
 13
231.884904
 23
143.06
 33
0.0
  0
3DFACE
  8
0
  6
CONTINUOUS
 62
   249
 10
231.900584
 20
141.94
 30
0.0
 11
231.916264
 21
141.94
 31
0.0
 12
231.916264
 22
143.06
 32
0.0
 13
231.900584
 23
143.06
 33
0.0
  0
3DFACE
  8
0
  6
CONTINUOUS
 62
   249
 10
231.916264
 20
141.94
 30
0.0
 11
231.931944
 21
141.94
 31
0.0
 12
231.931944
 22
143.06
 32
0.0
 13
231.916264
 23
143.06
 33
0.0
  0
3DFACE
  8
0
  6
CONTINUOUS
 62
   249
 10
231.931944
 20
141.94
 30
0.0
 11
231.947624
 21
141.94
 31
0.0
 12
231.947624
 22
143.06
 32
0.0
 13
231.931944
 23
143.06
 33
0.0
  0
3DFACE
  8
0
  6
CONTINUOUS
 62
   249
 10
231.947624
 20
141.94
 30
0.0
 11
231.963304
 21
141.94
 31
0.0
 12
231.963304
 22
143.06
 32
0.0
 13
231.947624
 23
143.06
 33
0.0
  0
3DFACE
  8
0
  6
CONTINUOUS
 62
   249
 10
231.963304
 20
141.94
 30
0.0
 11
231.978984
 21
141.94
 31
0.0
 12
231.978984
 22
143.06
 32
0.0
 13
231.963304
 23
143.06
 33
0.0
  0
3DFACE
  8
0
  6
CONTINUOUS
 62
   249
 10
231.978984
 20
141.94
 30
0.0
 11
231.994664
 21
141.94
 31
0.0
 12
231.994664
 22
143.06
 32
0.0
 13
231.978984
 23
143.06
 33
0.0
  0
3DFACE
  8
0
  6
CONTINUOUS
 62
   249
 10
231.994664
 20
141.94
 30
0.0
 11
232.010344
 21
141.94
 31
0.0
 12
232.010344
 22
143.06
 32
0.0
 13
231.994664
 23
143.06
 33
0.0
  0
3DFACE
  8
0
  6
CONTINUOUS
 62
   249
 10
232.010344
 20
141.94
 30
0.0
 11
232.026024
 21
141.94
 31
0.0
 12
232.026024
 22
143.06
 32
0.0
 13
232.010344
 23
143.06
 33
0.0
  0
3DFACE
  8
0
  6
CONTINUOUS
 62
   249
 10
232.026024
 20
141.94
 30
0.0
 11
232.041704
 21
141.94
 31
0.0
 12
232.041704
 22
143.06
 32
0.0
 13
232.026024
 23
143.06
 33
0.0
  0
3DFACE
  8
0
  6
CONTINUOUS
 62
   249
 10
232.041704
 20
141.94
 30
0.0
 11
232.057384
 21
141.94
 31
0.0
 12
232.057384
 22
143.06
 32
0.0
 13
232.041704
 23
143.06
 33
0.0
  0
3DFACE
  8
0
  6
CONTINUOUS
 62
   249
 10
232.057384
 20
141.94
 30
0.0
 11
232.073064
 21
141.94
 31
0.0
 12
232.073064
 22
143.06
 32
0.0
 13
232.057384
 23
143.06
 33
0.0
  0
3DFACE
  8
0
  6
CONTINUOUS
 62
   249
 10
232.073064
 20
141.94
 30
0.0
 11
232.088744
 21
141.94
 31
0.0
 12
232.088744
 22
143.06
 32
0.0
 13
232.073064
 23
143.06
 33
0.0
  0
3DFACE
  8
0
  6
CONTINUOUS
 62
   249
 10
232.088744
 20
141.94
 30
0.0
 11
232.104424
 21
141.94
 31
0.0
 12
232.104424
 22
143.06
 32
0.0
 13
232.088744
 23
143.06
 33
0.0
  0
3DFACE
  8
0
  6
CONTINUOUS
 62
   249
 10
232.104424
 20
141.94
 30
0.0
 11
232.120104
 21
141.94
 31
0.0
 12
232.120104
 22
143.06
 32
0.0
 13
232.104424
 23
143.06
 33
0.0
  0
3DFACE
  8
0
  6
CONTINUOUS
 62
   249
 10
232.120104
 20
141.94
 30
0.0
 11
232.135784
 21
141.94
 31
0.0
 12
232.135784
 22
143.06
 32
0.0
 13
232.120104
 23
143.06
 33
0.0
  0
3DFACE
  8
0
  6
CONTINUOUS
 62
   249
 10
232.135784
 20
141.94
 30
0.0
 11
232.151464
 21
141.94
 31
0.0
 12
232.151464
 22
143.06
 32
0.0
 13
232.135784
 23
143.06
 33
0.0
  0
3DFACE
  8
0
  6
CONTINUOUS
 62
   249
 10
232.151464
 20
141.94
 30
0.0
 11
232.167144
 21
141.94
 31
0.0
 12
232.167144
 22
143.06
 32
0.0
 13
232.151464
 23
143.06
 33
0.0
  0
3DFACE
  8
0
  6
CONTINUOUS
 62
   249
 10
232.167144
 20
141.94
 30
0.0
 11
232.182824
 21
141.94
 31
0.0
 12
232.182824
 22
143.06
 32
0.0
 13
232.167144
 23
143.06
 33
0.0
  0
3DFACE
  8
0
  6
CONTINUOUS
 62
   249
 10
232.182824
 20
141.94
 30
0.0
 11
232.198504
 21
141.94
 31
0.0
 12
232.198504
 22
143.06
 32
0.0
 13
232.182824
 23
143.06
 33
0.0
  0
3DFACE
  8
0
  6
CONTINUOUS
 62
   249
 10
232.198504
 20
141.94
 30
0.0
 11
232.214184
 21
141.94
 31
0.0
 12
232.214184
 22
143.06
 32
0.0
 13
232.198504
 23
143.06
 33
0.0
  0
3DFACE
  8
0
  6
CONTINUOUS
 62
   249
 10
232.214184
 20
141.94
 30
0.0
 11
232.229864
 21
141.94
 31
0.0
 12
232.229864
 22
143.06
 32
0.0
 13
232.214184
 23
143.06
 33
0.0
  0
3DFACE
  8
0
  6
CONTINUOUS
 62
   249
 10
232.229864
 20
141.94
 30
0.0
 11
232.245544
 21
141.94
 31
0.0
 12
232.245544
 22
143.06
 32
0.0
 13
232.229864
 23
143.06
 33
0.0
  0
3DFACE
  8
0
  6
CONTINUOUS
 62
   249
 10
232.245544
 20
141.94
 30
0.0
 11
232.261224
 21
141.94
 31
0.0
 12
232.261224
 22
143.06
 32
0.0
 13
232.245544
 23
143.06
 33
0.0
  0
3DFACE
  8
0
  6
CONTINUOUS
 62
   249
 10
232.261224
 20
141.94
 30
0.0
 11
232.276904
 21
141.94
 31
0.0
 12
232.276904
 22
143.06
 32
0.0
 13
232.261224
 23
143.06
 33
0.0
  0
3DFACE
  8
0
  6
CONTINUOUS
 62
   249
 10
232.276904
 20
141.94
 30
0.0
 11
232.292584
 21
141.94
 31
0.0
 12
232.292584
 22
143.06
 32
0.0
 13
232.276904
 23
143.06
 33
0.0
  0
3DFACE
  8
0
  6
CONTINUOUS
 62
   249
 10
232.292584
 20
141.94
 30
0.0
 11
232.308264
 21
141.94
 31
0.0
 12
232.308264
 22
143.06
 32
0.0
 13
232.292584
 23
143.06
 33
0.0
  0
3DFACE
  8
0
  6
CONTINUOUS
 62
   249
 10
232.308264
 20
141.94
 30
0.0
 11
232.323944
 21
141.94
 31
0.0
 12
232.323944
 22
143.06
 32
0.0
 13
232.308264
 23
143.06
 33
0.0
  0
3DFACE
  8
0
  6
CONTINUOUS
 62
   249
 10
232.323944
 20
141.94
 30
0.0
 11
232.339624
 21
141.94
 31
0.0
 12
232.339624
 22
143.06
 32
0.0
 13
232.323944
 23
143.06
 33
0.0
  0
3DFACE
  8
0
  6
CONTINUOUS
 62
   249
 10
232.339624
 20
141.94
 30
0.0
 11
232.355304
 21
141.94
 31
0.0
 12
232.355304
 22
143.06
 32
0.0
 13
232.339624
 23
143.06
 33
0.0
  0
3DFACE
  8
0
  6
CONTINUOUS
 62
   249
 10
232.355304
 20
141.94
 30
0.0
 11
232.370984
 21
141.94
 31
0.0
 12
232.370984
 22
143.06
 32
0.0
 13
232.355304
 23
143.06
 33
0.0
  0
3DFACE
  8
0
  6
CONTINUOUS
 62
   249
 10
232.370984
 20
141.94
 30
0.0
 11
232.386664
 21
141.94
 31
0.0
 12
232.386664
 22
143.06
 32
0.0
 13
232.370984
 23
143.06
 33
0.0
  0
3DFACE
  8
0
  6
CONTINUOUS
 62
   249
 10
232.386664
 20
141.94
 30
0.0
 11
232.402344
 21
141.94
 31
0.0
 12
232.402344
 22
143.06
 32
0.0
 13
232.386664
 23
143.06
 33
0.0
  0
3DFACE
  8
0
  6
CONTINUOUS
 62
   249
 10
232.402344
 20
141.94
 30
0.0
 11
232.418024
 21
141.94
 31
0.0
 12
232.418024
 22
143.06
 32
0.0
 13
232.402344
 23
143.06
 33
0.0
  0
3DFACE
  8
0
  6
CONTINUOUS
 62
   249
 10
232.418024
 20
141.94
 30
0.0
 11
232.433704
 21
141.94
 31
0.0
 12
232.433704
 22
143.06
 32
0.0
 13
232.418024
 23
143.06
 33
0.0
  0
3DFACE
  8
0
  6
CONTINUOUS
 62
   249
 10
232.433704
 20
141.94
 30
0.0
 11
232.449384
 21
141.94
 31
0.0
 12
232.449384
 22
143.06
 32
0.0
 13
232.433704
 23
143.06
 33
0.0
  0
3DFACE
  8
0
  6
CONTINUOUS
 62
   249
 10
232.449384
 20
141.94
 30
0.0
 11
232.465064
 21
141.94
 31
0.0
 12
232.465064
 22
143.06
 32
0.0
 13
232.449384
 23
143.06
 33
0.0
  0
3DFACE
  8
0
  6
CONTINUOUS
 62
   249
 10
232.465064
 20
141.94
 30
0.0
 11
232.480744
 21
141.94
 31
0.0
 12
232.480744
 22
143.06
 32
0.0
 13
232.465064
 23
143.06
 33
0.0
  0
3DFACE
  8
0
  6
CONTINUOUS
 62
   249
 10
232.480744
 20
141.94
 30
0.0
 11
232.496424
 21
141.94
 31
0.0
 12
232.496424
 22
143.06
 32
0.0
 13
232.480744
 23
143.06
 33
0.0
  0
3DFACE
  8
0
  6
CONTINUOUS
 62
   249
 10
232.496424
 20
141.94
 30
0.0
 11
232.512104
 21
141.94
 31
0.0
 12
232.512104
 22
143.06
 32
0.0
 13
232.496424
 23
143.06
 33
0.0
  0
3DFACE
  8
0
  6
CONTINUOUS
 62
   249
 10
232.512104
 20
141.94
 30
0.0
 11
232.527784
 21
141.94
 31
0.0
 12
232.527784
 22
143.06
 32
0.0
 13
232.512104
 23
143.06
 33
0.0
  0
3DFACE
  8
0
  6
CONTINUOUS
 62
   249
 10
232.527784
 20
141.94
 30
0.0
 11
232.543464
 21
141.94
 31
0.0
 12
232.543464
 22
143.06
 32
0.0
 13
232.527784
 23
143.06
 33
0.0
  0
3DFACE
  8
0
  6
CONTINUOUS
 62
   249
 10
232.543464
 20
141.94
 30
0.0
 11
232.559144
 21
141.94
 31
0.0
 12
232.559144
 22
143.06
 32
0.0
 13
232.543464
 23
143.06
 33
0.0
  0
3DFACE
  8
0
  6
CONTINUOUS
 62
   249
 10
232.559144
 20
141.94
 30
0.0
 11
232.574824
 21
141.94
 31
0.0
 12
232.574824
 22
143.06
 32
0.0
 13
232.559144
 23
143.06
 33
0.0
  0
3DFACE
  8
0
  6
CONTINUOUS
 62
   249
 10
232.574824
 20
141.94
 30
0.0
 11
232.590504
 21
141.94
 31
0.0
 12
232.590504
 22
143.06
 32
0.0
 13
232.574824
 23
143.06
 33
0.0
  0
3DFACE
  8
0
  6
CONTINUOUS
 62
   249
 10
232.590504
 20
141.94
 30
0.0
 11
232.606184
 21
141.94
 31
0.0
 12
232.606184
 22
143.06
 32
0.0
 13
232.590504
 23
143.06
 33
0.0
  0
3DFACE
  8
0
  6
CONTINUOUS
 62
   249
 10
232.606184
 20
141.94
 30
0.0
 11
232.621864
 21
141.94
 31
0.0
 12
232.621864
 22
143.06
 32
0.0
 13
232.606184
 23
143.06
 33
0.0
  0
3DFACE
  8
0
  6
CONTINUOUS
 62
   249
 10
232.621864
 20
141.94
 30
0.0
 11
232.637544
 21
141.94
 31
0.0
 12
232.637544
 22
143.06
 32
0.0
 13
232.621864
 23
143.06
 33
0.0
  0
3DFACE
  8
0
  6
CONTINUOUS
 62
   249
 10
232.637544
 20
141.94
 30
0.0
 11
232.653224
 21
141.94
 31
0.0
 12
232.653224
 22
143.06
 32
0.0
 13
232.637544
 23
143.06
 33
0.0
  0
3DFACE
  8
0
  6
CONTINUOUS
 62
   249
 10
232.653224
 20
141.94
 30
0.0
 11
232.668904
 21
141.94
 31
0.0
 12
232.668904
 22
143.06
 32
0.0
 13
232.653224
 23
143.06
 33
0.0
  0
3DFACE
  8
0
  6
CONTINUOUS
 62
   249
 10
232.668904
 20
141.94
 30
0.0
 11
232.684584
 21
141.94
 31
0.0
 12
232.684584
 22
143.06
 32
0.0
 13
232.668904
 23
143.06
 33
0.0
  0
3DFACE
  8
0
  6
CONTINUOUS
 62
   249
 10
232.684584
 20
141.94
 30
0.0
 11
232.700264
 21
141.94
 31
0.0
 12
232.700264
 22
143.06
 32
0.0
 13
232.684584
 23
143.06
 33
0.0
  0
3DFACE
  8
0
  6
CONTINUOUS
 62
   249
 10
232.700264
 20
141.94
 30
0.0
 11
232.715944
 21
141.94
 31
0.0
 12
232.715944
 22
143.06
 32
0.0
 13
232.700264
 23
143.06
 33
0.0
  0
3DFACE
  8
0
  6
CONTINUOUS
 62
   249
 10
232.715944
 20
141.94
 30
0.0
 11
232.731624
 21
141.94
 31
0.0
 12
232.731624
 22
143.06
 32
0.0
 13
232.715944
 23
143.06
 33
0.0
  0
3DFACE
  8
0
  6
CONTINUOUS
 62
   249
 10
232.731624
 20
141.94
 30
0.0
 11
232.747304
 21
141.94
 31
0.0
 12
232.747304
 22
143.06
 32
0.0
 13
232.731624
 23
143.06
 33
0.0
  0
3DFACE
  8
0
  6
CONTINUOUS
 62
   249
 10
232.747304
 20
141.94
 30
0.0
 11
232.762984
 21
141.94
 31
0.0
 12
232.762984
 22
143.06
 32
0.0
 13
232.747304
 23
143.06
 33
0.0
  0
3DFACE
  8
0
  6
CONTINUOUS
 62
   249
 10
232.762984
 20
141.94
 30
0.0
 11
232.778664
 21
141.94
 31
0.0
 12
232.778664
 22
143.06
 32
0.0
 13
232.762984
 23
143.06
 33
0.0
  0
3DFACE
  8
0
  6
CONTINUOUS
 62
   249
 10
232.778664
 20
141.94
 30
0.0
 11
232.794344
 21
141.94
 31
0.0
 12
232.794344
 22
143.06
 32
0.0
 13
232.778664
 23
143.06
 33
0.0
  0
3DFACE
  8
0
  6
CONTINUOUS
 62
   249
 10
232.794344
 20
141.94
 30
0.0
 11
232.810024
 21
141.94
 31
0.0
 12
232.810024
 22
143.06
 32
0.0
 13
232.794344
 23
143.06
 33
0.0
  0
3DFACE
  8
0
  6
CONTINUOUS
 62
   249
 10
232.810024
 20
141.94
 30
0.0
 11
232.825704
 21
141.94
 31
0.0
 12
232.825704
 22
143.06
 32
0.0
 13
232.810024
 23
143.06
 33
0.0
  0
3DFACE
  8
0
  6
CONTINUOUS
 62
   249
 10
232.825704
 20
141.94
 30
0.0
 11
232.841384
 21
141.94
 31
0.0
 12
232.841384
 22
143.06
 32
0.0
 13
232.825704
 23
143.06
 33
0.0
  0
3DFACE
  8
0
  6
CONTINUOUS
 62
   249
 10
232.841384
 20
141.94
 30
0.0
 11
232.857064
 21
141.94
 31
0.0
 12
232.857064
 22
143.06
 32
0.0
 13
232.841384
 23
143.06
 33
0.0
  0
3DFACE
  8
0
  6
CONTINUOUS
 62
   249
 10
232.857064
 20
141.94
 30
0.0
 11
232.872744
 21
141.94
 31
0.0
 12
232.872744
 22
143.06
 32
0.0
 13
232.857064
 23
143.06
 33
0.0
  0
3DFACE
  8
0
  6
CONTINUOUS
 62
   249
 10
232.872744
 20
141.94
 30
0.0
 11
232.888424
 21
141.94
 31
0.0
 12
232.888424
 22
143.06
 32
0.0
 13
232.872744
 23
143.06
 33
0.0
  0
3DFACE
  8
0
  6
CONTINUOUS
 62
   249
 10
232.888424
 20
141.94
 30
0.0
 11
232.904104
 21
141.94
 31
0.0
 12
232.904104
 22
143.06
 32
0.0
 13
232.888424
 23
143.06
 33
0.0
  0
3DFACE
  8
0
  6
CONTINUOUS
 62
   249
 10
232.904104
 20
141.94
 30
0.0
 11
232.919784
 21
141.94
 31
0.0
 12
232.919784
 22
143.06
 32
0.0
 13
232.904104
 23
143.06
 33
0.0
  0
3DFACE
  8
0
  6
CONTINUOUS
 62
   249
 10
232.919784
 20
141.94
 30
0.0
 11
232.935464
 21
141.94
 31
0.0
 12
232.935464
 22
143.06
 32
0.0
 13
232.919784
 23
143.06
 33
0.0
  0
3DFACE
  8
0
  6
CONTINUOUS
 62
   249
 10
232.935464
 20
141.94
 30
0.0
 11
232.951144
 21
141.94
 31
0.0
 12
232.951144
 22
143.06
 32
0.0
 13
232.935464
 23
143.06
 33
0.0
  0
3DFACE
  8
0
  6
CONTINUOUS
 62
   249
 10
232.951144
 20
141.94
 30
0.0
 11
232.966824
 21
141.94
 31
0.0
 12
232.966824
 22
143.06
 32
0.0
 13
232.951144
 23
143.06
 33
0.0
  0
3DFACE
  8
0
  6
CONTINUOUS
 62
   249
 10
232.966824
 20
141.94
 30
0.0
 11
232.982504
 21
141.94
 31
0.0
 12
232.982504
 22
143.06
 32
0.0
 13
232.966824
 23
143.06
 33
0.0
  0
3DFACE
  8
0
  6
CONTINUOUS
 62
   249
 10
232.982504
 20
141.94
 30
0.0
 11
232.998184
 21
141.94
 31
0.0
 12
232.998184
 22
143.06
 32
0.0
 13
232.982504
 23
143.06
 33
0.0
  0
3DFACE
  8
0
  6
CONTINUOUS
 62
   249
 10
232.998184
 20
141.94
 30
0.0
 11
233.013864
 21
141.94
 31
0.0
 12
233.013864
 22
143.06
 32
0.0
 13
232.998184
 23
143.06
 33
0.0
  0
3DFACE
  8
0
  6
CONTINUOUS
 62
   249
 10
233.013864
 20
141.94
 30
0.0
 11
233.029544
 21
141.94
 31
0.0
 12
233.029544
 22
143.06
 32
0.0
 13
233.013864
 23
143.06
 33
0.0
  0
3DFACE
  8
0
  6
CONTINUOUS
 62
   249
 10
233.029544
 20
141.94
 30
0.0
 11
233.045224
 21
141.94
 31
0.0
 12
233.045224
 22
143.06
 32
0.0
 13
233.029544
 23
143.06
 33
0.0
  0
3DFACE
  8
0
  6
CONTINUOUS
 62
   249
 10
233.045224
 20
141.94
 30
0.0
 11
233.060904
 21
141.94
 31
0.0
 12
233.060904
 22
143.06
 32
0.0
 13
233.045224
 23
143.06
 33
0.0
  0
3DFACE
  8
0
  6
CONTINUOUS
 62
   249
 10
233.060904
 20
141.94
 30
0.0
 11
233.076584
 21
141.94
 31
0.0
 12
233.076584
 22
143.06
 32
0.0
 13
233.060904
 23
143.06
 33
0.0
  0
3DFACE
  8
0
  6
CONTINUOUS
 62
   249
 10
233.076584
 20
141.94
 30
0.0
 11
233.092264
 21
141.94
 31
0.0
 12
233.092264
 22
143.06
 32
0.0
 13
233.076584
 23
143.06
 33
0.0
  0
3DFACE
  8
0
  6
CONTINUOUS
 62
   249
 10
233.092264
 20
141.94
 30
0.0
 11
233.107944
 21
141.94
 31
0.0
 12
233.107944
 22
143.06
 32
0.0
 13
233.092264
 23
143.06
 33
0.0
  0
3DFACE
  8
0
  6
CONTINUOUS
 62
   249
 10
233.107944
 20
141.94
 30
0.0
 11
233.123624
 21
141.94
 31
0.0
 12
233.123624
 22
143.06
 32
0.0
 13
233.107944
 23
143.06
 33
0.0
  0
3DFACE
  8
0
  6
CONTINUOUS
 62
   249
 10
233.123624
 20
141.94
 30
0.0
 11
233.139304
 21
141.94
 31
0.0
 12
233.139304
 22
143.06
 32
0.0
 13
233.123624
 23
143.06
 33
0.0
  0
3DFACE
  8
0
  6
CONTINUOUS
 62
   249
 10
233.139304
 20
141.94
 30
0.0
 11
233.154984
 21
141.94
 31
0.0
 12
233.154984
 22
143.06
 32
0.0
 13
233.139304
 23
143.06
 33
0.0
  0
3DFACE
  8
0
  6
CONTINUOUS
 62
   249
 10
233.154984
 20
141.94
 30
0.0
 11
233.170664
 21
141.94
 31
0.0
 12
233.170664
 22
143.06
 32
0.0
 13
233.154984
 23
143.06
 33
0.0
  0
3DFACE
  8
0
  6
CONTINUOUS
 62
   249
 10
233.170664
 20
141.94
 30
0.0
 11
233.186344
 21
141.94
 31
0.0
 12
233.186344
 22
143.06
 32
0.0
 13
233.170664
 23
143.06
 33
0.0
  0
3DFACE
  8
0
  6
CONTINUOUS
 62
   249
 10
233.186344
 20
141.94
 30
0.0
 11
233.202024
 21
141.94
 31
0.0
 12
233.202024
 22
143.06
 32
0.0
 13
233.186344
 23
143.06
 33
0.0
  0
3DFACE
  8
0
  6
CONTINUOUS
 62
   249
 10
233.202024
 20
141.94
 30
0.0
 11
233.217704
 21
141.94
 31
0.0
 12
233.217704
 22
143.06
 32
0.0
 13
233.202024
 23
143.06
 33
0.0
  0
3DFACE
  8
0
  6
CONTINUOUS
 62
   249
 10
233.217704
 20
141.94
 30
0.0
 11
233.233384
 21
141.94
 31
0.0
 12
233.233384
 22
143.06
 32
0.0
 13
233.217704
 23
143.06
 33
0.0
  0
3DFACE
  8
0
  6
CONTINUOUS
 62
   249
 10
233.233384
 20
141.94
 30
0.0
 11
233.249064
 21
141.94
 31
0.0
 12
233.249064
 22
143.06
 32
0.0
 13
233.233384
 23
143.06
 33
0.0
  0
3DFACE
  8
0
  6
CONTINUOUS
 62
   249
 10
233.249064
 20
141.94
 30
0.0
 11
233.264744
 21
141.94
 31
0.0
 12
233.264744
 22
143.06
 32
0.0
 13
233.249064
 23
143.06
 33
0.0
  0
3DFACE
  8
0
  6
CONTINUOUS
 62
   249
 10
233.264744
 20
141.94
 30
0.0
 11
233.280424
 21
141.94
 31
0.0
 12
233.280424
 22
143.06
 32
0.0
 13
233.264744
 23
143.06
 33
0.0
  0
3DFACE
  8
0
  6
CONTINUOUS
 62
   249
 10
233.280424
 20
141.94
 30
0.0
 11
233.296104
 21
141.94
 31
0.0
 12
233.296104
 22
143.06
 32
0.0
 13
233.280424
 23
143.06
 33
0.0
  0
3DFACE
  8
0
  6
CONTINUOUS
 62
   249
 10
233.296104
 20
141.94
 30
0.0
 11
233.311784
 21
141.94
 31
0.0
 12
233.311784
 22
143.06
 32
0.0
 13
233.296104
 23
143.06
 33
0.0
  0
3DFACE
  8
0
  6
CONTINUOUS
 62
   249
 10
233.311784
 20
141.94
 30
0.0
 11
233.327464
 21
141.94
 31
0.0
 12
233.327464
 22
143.06
 32
0.0
 13
233.311784
 23
143.06
 33
0.0
  0
3DFACE
  8
0
  6
CONTINUOUS
 62
   249
 10
233.327464
 20
141.94
 30
0.0
 11
233.343144
 21
141.94
 31
0.0
 12
233.343144
 22
143.06
 32
0.0
 13
233.327464
 23
143.06
 33
0.0
  0
3DFACE
  8
0
  6
CONTINUOUS
 62
   249
 10
233.343144
 20
141.94
 30
0.0
 11
233.358824
 21
141.94
 31
0.0
 12
233.358824
 22
143.06
 32
0.0
 13
233.343144
 23
143.06
 33
0.0
  0
3DFACE
  8
0
  6
CONTINUOUS
 62
   249
 10
233.358824
 20
141.94
 30
0.0
 11
233.374504
 21
141.94
 31
0.0
 12
233.374504
 22
143.06
 32
0.0
 13
233.358824
 23
143.06
 33
0.0
  0
3DFACE
  8
0
  6
CONTINUOUS
 62
   249
 10
233.374504
 20
141.94
 30
0.0
 11
233.390184
 21
141.94
 31
0.0
 12
233.390184
 22
143.06
 32
0.0
 13
233.374504
 23
143.06
 33
0.0
  0
3DFACE
  8
0
  6
CONTINUOUS
 62
   249
 10
233.390184
 20
141.94
 30
0.0
 11
233.405864
 21
141.94
 31
0.0
 12
233.405864
 22
143.06
 32
0.0
 13
233.390184
 23
143.06
 33
0.0
  0
3DFACE
  8
0
  6
CONTINUOUS
 62
   249
 10
233.405864
 20
141.94
 30
0.0
 11
233.421544
 21
141.94
 31
0.0
 12
233.421544
 22
143.06
 32
0.0
 13
233.405864
 23
143.06
 33
0.0
  0
3DFACE
  8
0
  6
CONTINUOUS
 62
   249
 10
233.421544
 20
141.94
 30
0.0
 11
233.437224
 21
141.94
 31
0.0
 12
233.437224
 22
143.06
 32
0.0
 13
233.421544
 23
143.06
 33
0.0
  0
3DFACE
  8
0
  6
CONTINUOUS
 62
   249
 10
233.437224
 20
141.94
 30
0.0
 11
233.452904
 21
141.94
 31
0.0
 12
233.452904
 22
143.06
 32
0.0
 13
233.437224
 23
143.06
 33
0.0
  0
3DFACE
  8
0
  6
CONTINUOUS
 62
   249
 10
233.452904
 20
141.94
 30
0.0
 11
233.468584
 21
141.94
 31
0.0
 12
233.468584
 22
143.06
 32
0.0
 13
233.452904
 23
143.06
 33
0.0
  0
3DFACE
  8
0
  6
CONTINUOUS
 62
   249
 10
233.468584
 20
141.94
 30
0.0
 11
233.484264
 21
141.94
 31
0.0
 12
233.484264
 22
143.06
 32
0.0
 13
233.468584
 23
143.06
 33
0.0
  0
3DFACE
  8
0
  6
CONTINUOUS
 62
   249
 10
233.484264
 20
141.94
 30
0.0
 11
233.499944
 21
141.94
 31
0.0
 12
233.499944
 22
143.06
 32
0.0
 13
233.484264
 23
143.06
 33
0.0
  0
3DFACE
  8
0
  6
CONTINUOUS
 62
   249
 10
233.499944
 20
141.94
 30
0.0
 11
233.515624
 21
141.94
 31
0.0
 12
233.515624
 22
143.06
 32
0.0
 13
233.499944
 23
143.06
 33
0.0
  0
3DFACE
  8
0
  6
CONTINUOUS
 62
   249
 10
233.515624
 20
141.94
 30
0.0
 11
233.531304
 21
141.94
 31
0.0
 12
233.531304
 22
143.06
 32
0.0
 13
233.515624
 23
143.06
 33
0.0
  0
3DFACE
  8
0
  6
CONTINUOUS
 62
   249
 10
233.531304
 20
141.94
 30
0.0
 11
233.546984
 21
141.94
 31
0.0
 12
233.546984
 22
143.06
 32
0.0
 13
233.531304
 23
143.06
 33
0.0
  0
3DFACE
  8
0
  6
CONTINUOUS
 62
   249
 10
233.546984
 20
141.94
 30
0.0
 11
233.562664
 21
141.94
 31
0.0
 12
233.562664
 22
143.06
 32
0.0
 13
233.546984
 23
143.06
 33
0.0
  0
3DFACE
  8
0
  6
CONTINUOUS
 62
   249
 10
233.562664
 20
141.94
 30
0.0
 11
233.578344
 21
141.94
 31
0.0
 12
233.578344
 22
143.06
 32
0.0
 13
233.562664
 23
143.06
 33
0.0
  0
3DFACE
  8
0
  6
CONTINUOUS
 62
   249
 10
233.578344
 20
141.94
 30
0.0
 11
233.594024
 21
141.94
 31
0.0
 12
233.594024
 22
143.06
 32
0.0
 13
233.578344
 23
143.06
 33
0.0
  0
3DFACE
  8
0
  6
CONTINUOUS
 62
   249
 10
233.594024
 20
141.94
 30
0.0
 11
233.609704
 21
141.94
 31
0.0
 12
233.609704
 22
143.06
 32
0.0
 13
233.594024
 23
143.06
 33
0.0
  0
3DFACE
  8
0
  6
CONTINUOUS
 62
   249
 10
233.609704
 20
141.94
 30
0.0
 11
233.625384
 21
141.94
 31
0.0
 12
233.625384
 22
143.06
 32
0.0
 13
233.609704
 23
143.06
 33
0.0
  0
3DFACE
  8
0
  6
CONTINUOUS
 62
   249
 10
233.625384
 20
141.94
 30
0.0
 11
233.641064
 21
141.94
 31
0.0
 12
233.641064
 22
143.06
 32
0.0
 13
233.625384
 23
143.06
 33
0.0
  0
3DFACE
  8
0
  6
CONTINUOUS
 62
   249
 10
233.641064
 20
141.94
 30
0.0
 11
233.656744
 21
141.94
 31
0.0
 12
233.656744
 22
143.06
 32
0.0
 13
233.641064
 23
143.06
 33
0.0
  0
3DFACE
  8
0
  6
CONTINUOUS
 62
   249
 10
233.656744
 20
141.94
 30
0.0
 11
233.672424
 21
141.94
 31
0.0
 12
233.672424
 22
143.06
 32
0.0
 13
233.656744
 23
143.06
 33
0.0
  0
3DFACE
  8
0
  6
CONTINUOUS
 62
   249
 10
233.672424
 20
141.94
 30
0.0
 11
233.688104
 21
141.94
 31
0.0
 12
233.688104
 22
143.06
 32
0.0
 13
233.672424
 23
143.06
 33
0.0
  0
3DFACE
  8
0
  6
CONTINUOUS
 62
   249
 10
233.688104
 20
141.94
 30
0.0
 11
233.703784
 21
141.94
 31
0.0
 12
233.703784
 22
143.06
 32
0.0
 13
233.688104
 23
143.06
 33
0.0
  0
3DFACE
  8
0
  6
CONTINUOUS
 62
   249
 10
233.703784
 20
141.94
 30
0.0
 11
233.719464
 21
141.94
 31
0.0
 12
233.719464
 22
143.06
 32
0.0
 13
233.703784
 23
143.06
 33
0.0
  0
3DFACE
  8
0
  6
CONTINUOUS
 62
   249
 10
233.719464
 20
141.94
 30
0.0
 11
233.735144
 21
141.94
 31
0.0
 12
233.735144
 22
143.06
 32
0.0
 13
233.719464
 23
143.06
 33
0.0
  0
3DFACE
  8
0
  6
CONTINUOUS
 62
   249
 10
233.735144
 20
141.94
 30
0.0
 11
233.750824
 21
141.94
 31
0.0
 12
233.750824
 22
143.06
 32
0.0
 13
233.735144
 23
143.06
 33
0.0
  0
3DFACE
  8
0
  6
CONTINUOUS
 62
   249
 10
233.750824
 20
141.94
 30
0.0
 11
233.766504
 21
141.94
 31
0.0
 12
233.766504
 22
143.06
 32
0.0
 13
233.750824
 23
143.06
 33
0.0
  0
3DFACE
  8
0
  6
CONTINUOUS
 62
   249
 10
233.766504
 20
141.94
 30
0.0
 11
233.782184
 21
141.94
 31
0.0
 12
233.782184
 22
143.06
 32
0.0
 13
233.766504
 23
143.06
 33
0.0
  0
3DFACE
  8
0
  6
CONTINUOUS
 62
   249
 10
233.782184
 20
141.94
 30
0.0
 11
233.797864
 21
141.94
 31
0.0
 12
233.797864
 22
143.06
 32
0.0
 13
233.782184
 23
143.06
 33
0.0
  0
3DFACE
  8
0
  6
CONTINUOUS
 62
   249
 10
233.797864
 20
141.94
 30
0.0
 11
233.813544
 21
141.94
 31
0.0
 12
233.813544
 22
143.06
 32
0.0
 13
233.797864
 23
143.06
 33
0.0
  0
3DFACE
  8
0
  6
CONTINUOUS
 62
   249
 10
233.813544
 20
141.94
 30
0.0
 11
233.829224
 21
141.94
 31
0.0
 12
233.829224
 22
143.06
 32
0.0
 13
233.813544
 23
143.06
 33
0.0
  0
3DFACE
  8
0
  6
CONTINUOUS
 62
   249
 10
233.829224
 20
141.94
 30
0.0
 11
233.844904
 21
141.94
 31
0.0
 12
233.844904
 22
143.06
 32
0.0
 13
233.829224
 23
143.06
 33
0.0
  0
3DFACE
  8
0
  6
CONTINUOUS
 62
   249
 10
233.844904
 20
141.94
 30
0.0
 11
233.860584
 21
141.94
 31
0.0
 12
233.860584
 22
143.06
 32
0.0
 13
233.844904
 23
143.06
 33
0.0
  0
3DFACE
  8
0
  6
CONTINUOUS
 62
   249
 10
233.860584
 20
141.94
 30
0.0
 11
233.876264
 21
141.94
 31
0.0
 12
233.876264
 22
143.06
 32
0.0
 13
233.860584
 23
143.06
 33
0.0
  0
3DFACE
  8
0
  6
CONTINUOUS
 62
   249
 10
233.876264
 20
141.94
 30
0.0
 11
233.891944
 21
141.94
 31
0.0
 12
233.891944
 22
143.06
 32
0.0
 13
233.876264
 23
143.06
 33
0.0
  0
3DFACE
  8
0
  6
CONTINUOUS
 62
   249
 10
233.891944
 20
141.94
 30
0.0
 11
233.907624
 21
141.94
 31
0.0
 12
233.907624
 22
143.06
 32
0.0
 13
233.891944
 23
143.06
 33
0.0
  0
3DFACE
  8
0
  6
CONTINUOUS
 62
   249
 10
233.907624
 20
141.94
 30
0.0
 11
233.923304
 21
141.94
 31
0.0
 12
233.923304
 22
143.06
 32
0.0
 13
233.907624
 23
143.06
 33
0.0
  0
3DFACE
  8
0
  6
CONTINUOUS
 62
   249
 10
233.923304
 20
141.94
 30
0.0
 11
233.938984
 21
141.94
 31
0.0
 12
233.938984
 22
143.06
 32
0.0
 13
233.923304
 23
143.06
 33
0.0
  0
3DFACE
  8
0
  6
CONTINUOUS
 62
   249
 10
233.938984
 20
141.94
 30
0.0
 11
233.954664
 21
141.94
 31
0.0
 12
233.954664
 22
143.06
 32
0.0
 13
233.938984
 23
143.06
 33
0.0
  0
3DFACE
  8
0
  6
CONTINUOUS
 62
   249
 10
233.954664
 20
141.94
 30
0.0
 11
233.970344
 21
141.94
 31
0.0
 12
233.970344
 22
143.06
 32
0.0
 13
233.954664
 23
143.06
 33
0.0
  0
3DFACE
  8
0
  6
CONTINUOUS
 62
   249
 10
233.970344
 20
141.94
 30
0.0
 11
233.986024
 21
141.94
 31
0.0
 12
233.986024
 22
143.06
 32
0.0
 13
233.970344
 23
143.06
 33
0.0
  0
3DFACE
  8
0
  6
CONTINUOUS
 62
   249
 10
233.986024
 20
141.94
 30
0.0
 11
234.001704
 21
141.94
 31
0.0
 12
234.001704
 22
143.06
 32
0.0
 13
233.986024
 23
143.06
 33
0.0
  0
3DFACE
  8
0
  6
CONTINUOUS
 62
   249
 10
234.001704
 20
141.94
 30
0.0
 11
234.017384
 21
141.94
 31
0.0
 12
234.017384
 22
143.06
 32
0.0
 13
234.001704
 23
143.06
 33
0.0
  0
3DFACE
  8
0
  6
CONTINUOUS
 62
   249
 10
234.017384
 20
141.94
 30
0.0
 11
234.033064
 21
141.94
 31
0.0
 12
234.033064
 22
143.06
 32
0.0
 13
234.017384
 23
143.06
 33
0.0
  0
3DFACE
  8
0
  6
CONTINUOUS
 62
   249
 10
234.033064
 20
141.94
 30
0.0
 11
234.048744
 21
141.94
 31
0.0
 12
234.048744
 22
143.06
 32
0.0
 13
234.033064
 23
143.06
 33
0.0
  0
3DFACE
  8
0
  6
CONTINUOUS
 62
   249
 10
234.048744
 20
141.94
 30
0.0
 11
234.064424
 21
141.94
 31
0.0
 12
234.064424
 22
143.06
 32
0.0
 13
234.048744
 23
143.06
 33
0.0
  0
3DFACE
  8
0
  6
CONTINUOUS
 62
   249
 10
234.064424
 20
141.94
 30
0.0
 11
234.080104
 21
141.94
 31
0.0
 12
234.080104
 22
143.06
 32
0.0
 13
234.064424
 23
143.06
 33
0.0
  0
3DFACE
  8
0
  6
CONTINUOUS
 62
   249
 10
234.080104
 20
141.94
 30
0.0
 11
234.095784
 21
141.94
 31
0.0
 12
234.095784
 22
143.06
 32
0.0
 13
234.080104
 23
143.06
 33
0.0
  0
3DFACE
  8
0
  6
CONTINUOUS
 62
   249
 10
234.095784
 20
141.94
 30
0.0
 11
234.111464
 21
141.94
 31
0.0
 12
234.111464
 22
143.06
 32
0.0
 13
234.095784
 23
143.06
 33
0.0
  0
3DFACE
  8
0
  6
CONTINUOUS
 62
   249
 10
234.111464
 20
141.94
 30
0.0
 11
234.127144
 21
141.94
 31
0.0
 12
234.127144
 22
143.06
 32
0.0
 13
234.111464
 23
143.06
 33
0.0
  0
3DFACE
  8
0
  6
CONTINUOUS
 62
   249
 10
234.127144
 20
141.94
 30
0.0
 11
234.142824
 21
141.94
 31
0.0
 12
234.142824
 22
143.06
 32
0.0
 13
234.127144
 23
143.06
 33
0.0
  0
3DFACE
  8
0
  6
CONTINUOUS
 62
   249
 10
234.142824
 20
141.94
 30
0.0
 11
234.158504
 21
141.94
 31
0.0
 12
234.158504
 22
143.06
 32
0.0
 13
234.142824
 23
143.06
 33
0.0
  0
3DFACE
  8
0
  6
CONTINUOUS
 62
   249
 10
234.158504
 20
141.94
 30
0.0
 11
234.174184
 21
141.94
 31
0.0
 12
234.174184
 22
143.06
 32
0.0
 13
234.158504
 23
143.06
 33
0.0
  0
3DFACE
  8
0
  6
CONTINUOUS
 62
   249
 10
234.174184
 20
141.94
 30
0.0
 11
234.189864
 21
141.94
 31
0.0
 12
234.189864
 22
143.06
 32
0.0
 13
234.174184
 23
143.06
 33
0.0
  0
3DFACE
  8
0
  6
CONTINUOUS
 62
   249
 10
234.189864
 20
141.94
 30
0.0
 11
234.205544
 21
141.94
 31
0.0
 12
234.205544
 22
143.06
 32
0.0
 13
234.189864
 23
143.06
 33
0.0
  0
3DFACE
  8
0
  6
CONTINUOUS
 62
   249
 10
234.205544
 20
141.94
 30
0.0
 11
234.221224
 21
141.94
 31
0.0
 12
234.221224
 22
143.06
 32
0.0
 13
234.205544
 23
143.06
 33
0.0
  0
3DFACE
  8
0
  6
CONTINUOUS
 62
   249
 10
234.221224
 20
141.94
 30
0.0
 11
234.236904
 21
141.94
 31
0.0
 12
234.236904
 22
143.06
 32
0.0
 13
234.221224
 23
143.06
 33
0.0
  0
3DFACE
  8
0
  6
CONTINUOUS
 62
   249
 10
234.236904
 20
141.94
 30
0.0
 11
234.252584
 21
141.94
 31
0.0
 12
234.252584
 22
143.06
 32
0.0
 13
234.236904
 23
143.06
 33
0.0
  0
3DFACE
  8
0
  6
CONTINUOUS
 62
   249
 10
234.252584
 20
141.94
 30
0.0
 11
234.268264
 21
141.94
 31
0.0
 12
234.268264
 22
143.06
 32
0.0
 13
234.252584
 23
143.06
 33
0.0
  0
3DFACE
  8
0
  6
CONTINUOUS
 62
   249
 10
234.268264
 20
141.94
 30
0.0
 11
234.283944
 21
141.94
 31
0.0
 12
234.283944
 22
143.06
 32
0.0
 13
234.268264
 23
143.06
 33
0.0
  0
3DFACE
  8
0
  6
CONTINUOUS
 62
   249
 10
234.283944
 20
141.94
 30
0.0
 11
234.299624
 21
141.94
 31
0.0
 12
234.299624
 22
143.06
 32
0.0
 13
234.283944
 23
143.06
 33
0.0
  0
3DFACE
  8
0
  6
CONTINUOUS
 62
   249
 10
234.299624
 20
141.94
 30
0.0
 11
234.315304
 21
141.94
 31
0.0
 12
234.315304
 22
143.06
 32
0.0
 13
234.299624
 23
143.06
 33
0.0
  0
3DFACE
  8
0
  6
CONTINUOUS
 62
   249
 10
234.315304
 20
141.94
 30
0.0
 11
234.330984
 21
141.94
 31
0.0
 12
234.330984
 22
143.06
 32
0.0
 13
234.315304
 23
143.06
 33
0.0
  0
3DFACE
  8
0
  6
CONTINUOUS
 62
   249
 10
234.330984
 20
141.94
 30
0.0
 11
234.346664
 21
141.94
 31
0.0
 12
234.346664
 22
143.06
 32
0.0
 13
234.330984
 23
143.06
 33
0.0
  0
3DFACE
  8
0
  6
CONTINUOUS
 62
   249
 10
234.346664
 20
141.94
 30
0.0
 11
234.362344
 21
141.94
 31
0.0
 12
234.362344
 22
143.06
 32
0.0
 13
234.346664
 23
143.06
 33
0.0
  0
3DFACE
  8
0
  6
CONTINUOUS
 62
   249
 10
234.362344
 20
141.94
 30
0.0
 11
234.378024
 21
141.94
 31
0.0
 12
234.378024
 22
143.06
 32
0.0
 13
234.362344
 23
143.06
 33
0.0
  0
3DFACE
  8
0
  6
CONTINUOUS
 62
   249
 10
234.378024
 20
141.94
 30
0.0
 11
234.393704
 21
141.94
 31
0.0
 12
234.393704
 22
143.06
 32
0.0
 13
234.378024
 23
143.06
 33
0.0
  0
3DFACE
  8
0
  6
CONTINUOUS
 62
   249
 10
234.393704
 20
141.94
 30
0.0
 11
234.409384
 21
141.94
 31
0.0
 12
234.409384
 22
143.06
 32
0.0
 13
234.393704
 23
143.06
 33
0.0
  0
3DFACE
  8
0
  6
CONTINUOUS
 62
   249
 10
234.409384
 20
141.94
 30
0.0
 11
234.425064
 21
141.94
 31
0.0
 12
234.425064
 22
143.06
 32
0.0
 13
234.409384
 23
143.06
 33
0.0
  0
3DFACE
  8
0
  6
CONTINUOUS
 62
   249
 10
234.425064
 20
141.94
 30
0.0
 11
234.440744
 21
141.94
 31
0.0
 12
234.440744
 22
143.06
 32
0.0
 13
234.425064
 23
143.06
 33
0.0
  0
3DFACE
  8
0
  6
CONTINUOUS
 62
   249
 10
234.440744
 20
141.94
 30
0.0
 11
234.456424
 21
141.94
 31
0.0
 12
234.456424
 22
143.06
 32
0.0
 13
234.440744
 23
143.06
 33
0.0
  0
3DFACE
  8
0
  6
CONTINUOUS
 62
   249
 10
234.456424
 20
141.94
 30
0.0
 11
234.472104
 21
141.94
 31
0.0
 12
234.472104
 22
143.06
 32
0.0
 13
234.456424
 23
143.06
 33
0.0
  0
3DFACE
  8
0
  6
CONTINUOUS
 62
   249
 10
234.472104
 20
141.94
 30
0.0
 11
234.487784
 21
141.94
 31
0.0
 12
234.487784
 22
143.06
 32
0.0
 13
234.472104
 23
143.06
 33
0.0
  0
3DFACE
  8
0
  6
CONTINUOUS
 62
   249
 10
234.487784
 20
141.94
 30
0.0
 11
234.503464
 21
141.94
 31
0.0
 12
234.503464
 22
143.06
 32
0.0
 13
234.487784
 23
143.06
 33
0.0
  0
3DFACE
  8
0
  6
CONTINUOUS
 62
   249
 10
234.503464
 20
141.94
 30
0.0
 11
234.519144
 21
141.94
 31
0.0
 12
234.519144
 22
143.06
 32
0.0
 13
234.503464
 23
143.06
 33
0.0
  0
3DFACE
  8
0
  6
CONTINUOUS
 62
   249
 10
234.519144
 20
141.94
 30
0.0
 11
234.534824
 21
141.94
 31
0.0
 12
234.534824
 22
143.06
 32
0.0
 13
234.519144
 23
143.06
 33
0.0
  0
3DFACE
  8
0
  6
CONTINUOUS
 62
   249
 10
234.534824
 20
141.94
 30
0.0
 11
234.550504
 21
141.94
 31
0.0
 12
234.550504
 22
143.06
 32
0.0
 13
234.534824
 23
143.06
 33
0.0
  0
3DFACE
  8
0
  6
CONTINUOUS
 62
   249
 10
234.550504
 20
141.94
 30
0.0
 11
234.566184
 21
141.94
 31
0.0
 12
234.566184
 22
143.06
 32
0.0
 13
234.550504
 23
143.06
 33
0.0
  0
3DFACE
  8
0
  6
CONTINUOUS
 62
   249
 10
234.566184
 20
141.94
 30
0.0
 11
234.581864
 21
141.94
 31
0.0
 12
234.581864
 22
143.06
 32
0.0
 13
234.566184
 23
143.06
 33
0.0
  0
3DFACE
  8
0
  6
CONTINUOUS
 62
   249
 10
234.581864
 20
141.94
 30
0.0
 11
234.597544
 21
141.94
 31
0.0
 12
234.597544
 22
143.06
 32
0.0
 13
234.581864
 23
143.06
 33
0.0
  0
3DFACE
  8
0
  6
CONTINUOUS
 62
   249
 10
234.597544
 20
141.94
 30
0.0
 11
234.613224
 21
141.94
 31
0.0
 12
234.613224
 22
143.06
 32
0.0
 13
234.597544
 23
143.06
 33
0.0
  0
3DFACE
  8
0
  6
CONTINUOUS
 62
   249
 10
234.613224
 20
141.94
 30
0.0
 11
234.628904
 21
141.94
 31
0.0
 12
234.628904
 22
143.06
 32
0.0
 13
234.613224
 23
143.06
 33
0.0
  0
3DFACE
  8
0
  6
CONTINUOUS
 62
   249
 10
234.628904
 20
141.94
 30
0.0
 11
234.644584
 21
141.94
 31
0.0
 12
234.644584
 22
143.06
 32
0.0
 13
234.628904
 23
143.06
 33
0.0
  0
3DFACE
  8
0
  6
CONTINUOUS
 62
   249
 10
234.644584
 20
141.94
 30
0.0
 11
234.660264
 21
141.94
 31
0.0
 12
234.660264
 22
143.06
 32
0.0
 13
234.644584
 23
143.06
 33
0.0
  0
3DFACE
  8
0
  6
CONTINUOUS
 62
   249
 10
234.660264
 20
141.94
 30
0.0
 11
234.675944
 21
141.94
 31
0.0
 12
234.675944
 22
143.06
 32
0.0
 13
234.660264
 23
143.06
 33
0.0
  0
3DFACE
  8
0
  6
CONTINUOUS
 62
   249
 10
234.675944
 20
141.94
 30
0.0
 11
234.691624
 21
141.94
 31
0.0
 12
234.691624
 22
143.06
 32
0.0
 13
234.675944
 23
143.06
 33
0.0
  0
3DFACE
  8
0
  6
CONTINUOUS
 62
   249
 10
234.691624
 20
141.94
 30
0.0
 11
234.707304
 21
141.94
 31
0.0
 12
234.707304
 22
143.06
 32
0.0
 13
234.691624
 23
143.06
 33
0.0
  0
3DFACE
  8
0
  6
CONTINUOUS
 62
   249
 10
234.707304
 20
141.94
 30
0.0
 11
234.722984
 21
141.94
 31
0.0
 12
234.722984
 22
143.06
 32
0.0
 13
234.707304
 23
143.06
 33
0.0
  0
3DFACE
  8
0
  6
CONTINUOUS
 62
   249
 10
234.722984
 20
141.94
 30
0.0
 11
234.738664
 21
141.94
 31
0.0
 12
234.738664
 22
143.06
 32
0.0
 13
234.722984
 23
143.06
 33
0.0
  0
3DFACE
  8
0
  6
CONTINUOUS
 62
   249
 10
234.738664
 20
141.94
 30
0.0
 11
234.754344
 21
141.94
 31
0.0
 12
234.754344
 22
143.06
 32
0.0
 13
234.738664
 23
143.06
 33
0.0
  0
3DFACE
  8
0
  6
CONTINUOUS
 62
   249
 10
234.754344
 20
141.94
 30
0.0
 11
234.770024
 21
141.94
 31
0.0
 12
234.770024
 22
143.06
 32
0.0
 13
234.754344
 23
143.06
 33
0.0
  0
3DFACE
  8
0
  6
CONTINUOUS
 62
   249
 10
234.770024
 20
141.94
 30
0.0
 11
234.785704
 21
141.94
 31
0.0
 12
234.785704
 22
143.06
 32
0.0
 13
234.770024
 23
143.06
 33
0.0
  0
3DFACE
  8
0
  6
CONTINUOUS
 62
   249
 10
234.785704
 20
141.94
 30
0.0
 11
234.801384
 21
141.94
 31
0.0
 12
234.801384
 22
143.06
 32
0.0
 13
234.785704
 23
143.06
 33
0.0
  0
3DFACE
  8
0
  6
CONTINUOUS
 62
   249
 10
234.801384
 20
141.94
 30
0.0
 11
234.817064
 21
141.94
 31
0.0
 12
234.817064
 22
143.06
 32
0.0
 13
234.801384
 23
143.06
 33
0.0
  0
3DFACE
  8
0
  6
CONTINUOUS
 62
   249
 10
234.817064
 20
141.94
 30
0.0
 11
234.832744
 21
141.94
 31
0.0
 12
234.832744
 22
143.06
 32
0.0
 13
234.817064
 23
143.06
 33
0.0
  0
3DFACE
  8
0
  6
CONTINUOUS
 62
   249
 10
234.832744
 20
141.94
 30
0.0
 11
234.848424
 21
141.94
 31
0.0
 12
234.848424
 22
143.06
 32
0.0
 13
234.832744
 23
143.06
 33
0.0
  0
3DFACE
  8
0
  6
CONTINUOUS
 62
   249
 10
234.848424
 20
141.94
 30
0.0
 11
234.864104
 21
141.94
 31
0.0
 12
234.864104
 22
143.06
 32
0.0
 13
234.848424
 23
143.06
 33
0.0
  0
3DFACE
  8
0
  6
CONTINUOUS
 62
   249
 10
234.864104
 20
141.94
 30
0.0
 11
234.879784
 21
141.94
 31
0.0
 12
234.879784
 22
143.06
 32
0.0
 13
234.864104
 23
143.06
 33
0.0
  0
3DFACE
  8
0
  6
CONTINUOUS
 62
   249
 10
234.879784
 20
141.94
 30
0.0
 11
234.895464
 21
141.94
 31
0.0
 12
234.895464
 22
143.06
 32
0.0
 13
234.879784
 23
143.06
 33
0.0
  0
3DFACE
  8
0
  6
CONTINUOUS
 62
   249
 10
234.895464
 20
141.94
 30
0.0
 11
234.911144
 21
141.94
 31
0.0
 12
234.911144
 22
143.06
 32
0.0
 13
234.895464
 23
143.06
 33
0.0
  0
3DFACE
  8
0
  6
CONTINUOUS
 62
   249
 10
234.911144
 20
141.94
 30
0.0
 11
234.926824
 21
141.94
 31
0.0
 12
234.926824
 22
143.06
 32
0.0
 13
234.911144
 23
143.06
 33
0.0
  0
3DFACE
  8
0
  6
CONTINUOUS
 62
   249
 10
234.926824
 20
141.94
 30
0.0
 11
234.942504
 21
141.94
 31
0.0
 12
234.942504
 22
143.06
 32
0.0
 13
234.926824
 23
143.06
 33
0.0
  0
3DFACE
  8
0
  6
CONTINUOUS
 62
   249
 10
234.942504
 20
141.94
 30
0.0
 11
234.958184
 21
141.94
 31
0.0
 12
234.958184
 22
143.06
 32
0.0
 13
234.942504
 23
143.06
 33
0.0
  0
3DFACE
  8
0
  6
CONTINUOUS
 62
   249
 10
234.958184
 20
141.94
 30
0.0
 11
234.973864
 21
141.94
 31
0.0
 12
234.973864
 22
143.06
 32
0.0
 13
234.958184
 23
143.06
 33
0.0
  0
3DFACE
  8
0
  6
CONTINUOUS
 62
   249
 10
234.973864
 20
141.94
 30
0.0
 11
234.989544
 21
141.94
 31
0.0
 12
234.989544
 22
143.06
 32
0.0
 13
234.973864
 23
143.06
 33
0.0
  0
3DFACE
  8
0
  6
CONTINUOUS
 62
   249
 10
234.989544
 20
141.94
 30
0.0
 11
235.005224
 21
141.94
 31
0.0
 12
235.005224
 22
143.06
 32
0.0
 13
234.989544
 23
143.06
 33
0.0
  0
3DFACE
  8
0
  6
CONTINUOUS
 62
   249
 10
235.005224
 20
141.94
 30
0.0
 11
235.020904
 21
141.94
 31
0.0
 12
235.020904
 22
143.06
 32
0.0
 13
235.005224
 23
143.06
 33
0.0
  0
3DFACE
  8
0
  6
CONTINUOUS
 62
   249
 10
235.020904
 20
141.94
 30
0.0
 11
235.036584
 21
141.94
 31
0.0
 12
235.036584
 22
143.06
 32
0.0
 13
235.020904
 23
143.06
 33
0.0
  0
3DFACE
  8
0
  6
CONTINUOUS
 62
   249
 10
235.036584
 20
141.94
 30
0.0
 11
235.052264
 21
141.94
 31
0.0
 12
235.052264
 22
143.06
 32
0.0
 13
235.036584
 23
143.06
 33
0.0
  0
3DFACE
  8
0
  6
CONTINUOUS
 62
   249
 10
235.052264
 20
141.94
 30
0.0
 11
235.067944
 21
141.94
 31
0.0
 12
235.067944
 22
143.06
 32
0.0
 13
235.052264
 23
143.06
 33
0.0
  0
3DFACE
  8
0
  6
CONTINUOUS
 62
   249
 10
235.067944
 20
141.94
 30
0.0
 11
235.083624
 21
141.94
 31
0.0
 12
235.083624
 22
143.06
 32
0.0
 13
235.067944
 23
143.06
 33
0.0
  0
3DFACE
  8
0
  6
CONTINUOUS
 62
   249
 10
235.083624
 20
141.94
 30
0.0
 11
235.099304
 21
141.94
 31
0.0
 12
235.099304
 22
143.06
 32
0.0
 13
235.083624
 23
143.06
 33
0.0
  0
3DFACE
  8
0
  6
CONTINUOUS
 62
   249
 10
235.099304
 20
141.94
 30
0.0
 11
235.114984
 21
141.94
 31
0.0
 12
235.114984
 22
143.06
 32
0.0
 13
235.099304
 23
143.06
 33
0.0
  0
3DFACE
  8
0
  6
CONTINUOUS
 62
   249
 10
235.114984
 20
141.94
 30
0.0
 11
235.130664
 21
141.94
 31
0.0
 12
235.130664
 22
143.06
 32
0.0
 13
235.114984
 23
143.06
 33
0.0
  0
3DFACE
  8
0
  6
CONTINUOUS
 62
   249
 10
235.130664
 20
141.94
 30
0.0
 11
235.146344
 21
141.94
 31
0.0
 12
235.146344
 22
143.06
 32
0.0
 13
235.130664
 23
143.06
 33
0.0
  0
3DFACE
  8
0
  6
CONTINUOUS
 62
   249
 10
235.146344
 20
141.94
 30
0.0
 11
235.162024
 21
141.94
 31
0.0
 12
235.162024
 22
143.06
 32
0.0
 13
235.146344
 23
143.06
 33
0.0
  0
3DFACE
  8
0
  6
CONTINUOUS
 62
   249
 10
235.162024
 20
141.94
 30
0.0
 11
235.177704
 21
141.94
 31
0.0
 12
235.177704
 22
143.06
 32
0.0
 13
235.162024
 23
143.06
 33
0.0
  0
3DFACE
  8
0
  6
CONTINUOUS
 62
   249
 10
235.177704
 20
141.94
 30
0.0
 11
235.193384
 21
141.94
 31
0.0
 12
235.193384
 22
143.06
 32
0.0
 13
235.177704
 23
143.06
 33
0.0
  0
3DFACE
  8
0
  6
CONTINUOUS
 62
   249
 10
235.193384
 20
141.94
 30
0.0
 11
235.209064
 21
141.94
 31
0.0
 12
235.209064
 22
143.06
 32
0.0
 13
235.193384
 23
143.06
 33
0.0
  0
3DFACE
  8
0
  6
CONTINUOUS
 62
   249
 10
235.209064
 20
141.94
 30
0.0
 11
235.224744
 21
141.94
 31
0.0
 12
235.224744
 22
143.06
 32
0.0
 13
235.209064
 23
143.06
 33
0.0
  0
3DFACE
  8
0
  6
CONTINUOUS
 62
   249
 10
235.224744
 20
141.94
 30
0.0
 11
235.240424
 21
141.94
 31
0.0
 12
235.240424
 22
143.06
 32
0.0
 13
235.224744
 23
143.06
 33
0.0
  0
3DFACE
  8
0
  6
CONTINUOUS
 62
   249
 10
235.240424
 20
141.94
 30
0.0
 11
235.256104
 21
141.94
 31
0.0
 12
235.256104
 22
143.06
 32
0.0
 13
235.240424
 23
143.06
 33
0.0
  0
3DFACE
  8
0
  6
CONTINUOUS
 62
   249
 10
235.256104
 20
141.94
 30
0.0
 11
235.271784
 21
141.94
 31
0.0
 12
235.271784
 22
143.06
 32
0.0
 13
235.256104
 23
143.06
 33
0.0
  0
3DFACE
  8
0
  6
CONTINUOUS
 62
   249
 10
235.271784
 20
141.94
 30
0.0
 11
235.287464
 21
141.94
 31
0.0
 12
235.287464
 22
143.06
 32
0.0
 13
235.271784
 23
143.06
 33
0.0
  0
3DFACE
  8
0
  6
CONTINUOUS
 62
   249
 10
235.287464
 20
141.94
 30
0.0
 11
235.303144
 21
141.94
 31
0.0
 12
235.303144
 22
143.06
 32
0.0
 13
235.287464
 23
143.06
 33
0.0
  0
3DFACE
  8
0
  6
CONTINUOUS
 62
   249
 10
235.303144
 20
141.94
 30
0.0
 11
235.318824
 21
141.94
 31
0.0
 12
235.318824
 22
143.06
 32
0.0
 13
235.303144
 23
143.06
 33
0.0
  0
3DFACE
  8
0
  6
CONTINUOUS
 62
   249
 10
235.318824
 20
141.94
 30
0.0
 11
235.334504
 21
141.94
 31
0.0
 12
235.334504
 22
143.06
 32
0.0
 13
235.318824
 23
143.06
 33
0.0
  0
3DFACE
  8
0
  6
CONTINUOUS
 62
   249
 10
235.334504
 20
141.94
 30
0.0
 11
235.350184
 21
141.94
 31
0.0
 12
235.350184
 22
143.06
 32
0.0
 13
235.334504
 23
143.06
 33
0.0
  0
3DFACE
  8
0
  6
CONTINUOUS
 62
   249
 10
235.350184
 20
141.94
 30
0.0
 11
235.365864
 21
141.94
 31
0.0
 12
235.365864
 22
143.06
 32
0.0
 13
235.350184
 23
143.06
 33
0.0
  0
3DFACE
  8
0
  6
CONTINUOUS
 62
   249
 10
235.365864
 20
141.94
 30
0.0
 11
235.381544
 21
141.94
 31
0.0
 12
235.381544
 22
143.06
 32
0.0
 13
235.365864
 23
143.06
 33
0.0
  0
3DFACE
  8
0
  6
CONTINUOUS
 62
   249
 10
235.381544
 20
141.94
 30
0.0
 11
235.397224
 21
141.94
 31
0.0
 12
235.397224
 22
143.06
 32
0.0
 13
235.381544
 23
143.06
 33
0.0
  0
3DFACE
  8
0
  6
CONTINUOUS
 62
   249
 10
235.397224
 20
141.94
 30
0.0
 11
235.412904
 21
141.94
 31
0.0
 12
235.412904
 22
143.06
 32
0.0
 13
235.397224
 23
143.06
 33
0.0
  0
3DFACE
  8
0
  6
CONTINUOUS
 62
   249
 10
235.412904
 20
141.94
 30
0.0
 11
235.428584
 21
141.94
 31
0.0
 12
235.428584
 22
143.06
 32
0.0
 13
235.412904
 23
143.06
 33
0.0
  0
3DFACE
  8
0
  6
CONTINUOUS
 62
   249
 10
235.428584
 20
141.94
 30
0.0
 11
235.444264
 21
141.94
 31
0.0
 12
235.444264
 22
143.06
 32
0.0
 13
235.428584
 23
143.06
 33
0.0
  0
3DFACE
  8
0
  6
CONTINUOUS
 62
   249
 10
235.444264
 20
141.94
 30
0.0
 11
235.459944
 21
141.94
 31
0.0
 12
235.459944
 22
143.06
 32
0.0
 13
235.444264
 23
143.06
 33
0.0
  0
3DFACE
  8
0
  6
CONTINUOUS
 62
   249
 10
235.459944
 20
141.94
 30
0.0
 11
235.475624
 21
141.94
 31
0.0
 12
235.475624
 22
143.06
 32
0.0
 13
235.459944
 23
143.06
 33
0.0
  0
3DFACE
  8
0
  6
CONTINUOUS
 62
   249
 10
235.475624
 20
141.94
 30
0.0
 11
235.491304
 21
141.94
 31
0.0
 12
235.491304
 22
143.06
 32
0.0
 13
235.475624
 23
143.06
 33
0.0
  0
3DFACE
  8
0
  6
CONTINUOUS
 62
   249
 10
235.491304
 20
141.94
 30
0.0
 11
235.506984
 21
141.94
 31
0.0
 12
235.506984
 22
143.06
 32
0.0
 13
235.491304
 23
143.06
 33
0.0
  0
3DFACE
  8
0
  6
CONTINUOUS
 62
   249
 10
235.506984
 20
141.94
 30
0.0
 11
235.522664
 21
141.94
 31
0.0
 12
235.522664
 22
143.06
 32
0.0
 13
235.506984
 23
143.06
 33
0.0
  0
3DFACE
  8
0
  6
CONTINUOUS
 62
   249
 10
235.522664
 20
141.94
 30
0.0
 11
235.538344
 21
141.94
 31
0.0
 12
235.538344
 22
143.06
 32
0.0
 13
235.522664
 23
143.06
 33
0.0
  0
3DFACE
  8
0
  6
CONTINUOUS
 62
   249
 10
235.538344
 20
141.94
 30
0.0
 11
235.554024
 21
141.94
 31
0.0
 12
235.554024
 22
143.06
 32
0.0
 13
235.538344
 23
143.06
 33
0.0
  0
LINE
  8
0
  6
CONTINUOUS
 62
   249
 10
210.965688
 20
186.164635
 30
0.0
 11
208.619923
 21
187.499989
 31
0.0
  0
LINE
  8
0
  6
CONTINUOUS
 62
   249
 10
208.619923
 20
187.499989
 30
0.0
 11
210.965688
 21
188.689908
 31
0.0
  0
ARC
  8
0
  6
CONTINUOUS
 62
   249
 10
297.5
 20
255.0
 30
0.0
 40
0.5
 50
180.0
 51
0.0
  0
ARC
  8
0
  6
CONTINUOUS
 62
   249
 10
297.5
 20
255.0
 30
0.0
 40
0.5
 50
0.0
 51
180.0
  0
INSERT
  8
0
  6
CENTER
 62
   249
  2
BLC26
 10
303.546562
 20
230.109534
 30
0.0
 41
1.006225
 42
1.006225
 43
1.006225
  0
INSERT
  8
0
  6
CENTER
 62
   249
  2
BLC26
 10
296.046562
 20
230.109534
 30
0.0
 41
1.006225
 42
1.006225
 43
1.006225
  0
INSERT
  8
0
  6
CENTER
 62
   249
  2
BLC26
 10
311.046562
 20
230.109534
 30
0.0
 41
1.006225
 42
1.006225
 43
1.006225
  0
ARC
  8
0
  6
CONTINUOUS
 62
   249
 10
312.5
 20
245.0
 30
0.0
 40
0.5
 50
180.0
 51
0.0
  0
ARC
  8
0
  6
CONTINUOUS
 62
   249
 10
312.5
 20
245.0
 30
0.0
 40
0.5
 50
0.0
 51
180.0
  0
ARC
  8
0
  6
CONTINUOUS
 62
   249
 10
305.0
 20
250.0
 30
0.0
 40
0.5
 50
180.0
 51
0.0
  0
ARC
  8
0
  6
CONTINUOUS
 62
   249
 10
305.0
 20
250.0
 30
0.0
 40
0.5
 50
0.0
 51
180.0
  0
LINE
  8
0
  6
CONTINUOUS
 62
   249
 10
319.009978
 20
222.5
 30
0.0
 11
321.655635
 21
222.5
 31
0.0
  0
LINE
  8
0
  6
CONTINUOUS
 62
   249
 10
323.437188
 20
221.896305
 30
0.0
 11
323.437188
 21
223.103695
 31
0.0
  0
LINE
  8
0
  6
CONTINUOUS
 62
   249
 10
322.549675
 20
221.463807
 30
0.0
 11
322.549675
 21
223.527182
 31
0.0
  0
LINE
  8
0
  6
CONTINUOUS
 62
   249
 10
321.655635
 20
220.968237
 30
0.0
 11
321.655635
 21
224.031763
 31
0.0
  0
LINE
  8
0
  6
CONTINUOUS
 62
   249
 10
319.009978
 20
227.68998
 30
0.0
 11
321.655635
 21
227.68998
 31
0.0
  0
LINE
  8
0
  6
CONTINUOUS
 62
   249
 10
323.437188
 20
227.086285
 30
0.0
 11
323.437188
 21
228.293675
 31
0.0
  0
LINE
  8
0
  6
CONTINUOUS
 62
   249
 10
322.549675
 20
226.653787
 30
0.0
 11
322.549675
 21
228.717163
 31
0.0
  0
LINE
  8
0
  6
CONTINUOUS
 62
   249
 10
321.655635
 20
226.158217
 30
0.0
 11
321.655635
 21
229.221743
 31
0.0
  0
ENDSEC
  0
EOF
