  0
SECTION
  2
HEADER
  9
$ACADVER
  1
AC1009
  9
$INSBASE
 10
0.0
 20
0.0
 30
0.0
  9
$EXTMIN
 10
-332.65656760000002
 20
360.1567841968502
 30
0.0
  9
$EXTMAX
 10
766.39173099999994
 20
782.88019395275614
 30
0.0
  9
$LIMMIN
 10
0.0
 20
0.0
  9
$LIMMAX
 10
420.0
 20
297.0
  9
$ORTHOMODE
 70
     0
  9
$REGENMODE
 70
     1
  9
$FILLMODE
 70
     1
  9
$QTEXTMODE
 70
     0
  9
$MIRRTEXT
 70
     1
  9
$DRAGMODE
 70
     2
  9
$LTSCALE
 40
1.0
  9
$OSMODE
 70
    47
  9
$ATTMODE
 70
     1
  9
$TEXTSIZE
 40
0.0
  9
$TRACEWID
 40
1.0
  9
$TEXTSTYLE
  7
STANDARD
  9
$CLAYER
  8
0
  9
$CELTYPE
  6
BYLAYER
  9
$CECOLOR
 62
   256
  9
$DIMSCALE
 40
1.0
  9
$DIMASZ
 40
2.5
  9
$DIMEXO
 40
0.625
  9
$DIMDLI
 40
3.75
  9
$DIMRND
 40
0.0
  9
$DIMDLE
 40
0.0
  9
$DIMEXE
 40
1.25
  9
$DIMTP
 40
0.0
  9
$DIMTM
 40
0.0
  9
$DIMTXT
 40
2.5
  9
$DIMCEN
 40
2.5
  9
$DIMTSZ
 40
0.0
  9
$DIMTOL
 70
     0
  9
$DIMLIM
 70
     0
  9
$DIMTIH
 70
     0
  9
$DIMTOH
 70
     0
  9
$DIMSE1
 70
     0
  9
$DIMSE2
 70
     0
  9
$DIMTAD
 70
     1
  9
$DIMZIN
 70
     8
  9
$DIMBLK
  1

  9
$DIMASO
 70
     1
  9
$DIMSHO
 70
     1
  9
$DIMPOST
  1

  9
$DIMAPOST
  1

  9
$DIMALT
 70
     0
  9
$DIMALTD
 70
     3
  9
$DIMALTF
 40
0.03937
  9
$DIMLFAC
 40
1.0
  9
$DIMTOFL
 70
     1
  9
$DIMTVP
 40
0.0
  9
$DIMTIX
 70
     0
  9
$DIMSOXD
 70
     0
  9
$DIMSAH
 70
     0
  9
$DIMBLK1
  1

  9
$DIMBLK2
  1

  9
$DIMSTYLE
  2
STANDARD
  9
$DIMCLRD
 70
     0
  9
$DIMCLRE
 70
     0
  9
$DIMCLRT
 70
     0
  9
$DIMTFAC
 40
1.0
  9
$DIMGAP
 40
0.625
  9
$LUNITS
 70
     2
  9
$LUPREC
 70
     4
  9
$SKETCHINC
 40
1.0
  9
$FILLETRAD
 40
2.5
  9
$AUNITS
 70
     0
  9
$AUPREC
 70
     0
  9
$MENU
  1
.
  9
$ELEVATION
 40
0.0
  9
$PELEVATION
 40
0.0
  9
$THICKNESS
 40
0.0
  9
$LIMCHECK
 70
     0
  9
$BLIPMODE
 70
     0
  9
$CHAMFERA
 40
2.5
  9
$CHAMFERB
 40
2.5
  9
$SKPOLY
 70
     0
  9
$TDCREATE
 40
2311942.6599061568
  9
$TDUPDATE
 40
2454455.404415023
  9
$TDINDWG
 40
0.0004046875
  9
$TDUSRTIMER
 40
0.0004046875
  9
$USRTIMER
 70
     1
  9
$ANGBASE
 50
0.0
  9
$ANGDIR
 70
     0
  9
$PDMODE
 70
     0
  9
$PDSIZE
 40
0.0
  9
$PLINEWID
 40
0.0
  9
$COORDS
 70
     1
  9
$SPLFRAME
 70
     0
  9
$SPLINETYPE
 70
     6
  9
$SPLINESEGS
 70
     8
  9
$ATTDIA
 70
     0
  9
$ATTREQ
 70
     1
  9
$HANDLING
 70
 22529
  9
$HANDSEED
  5
9CD
  9
$SURFTAB1
 70
     6
  9
$SURFTAB2
 70
     6
  9
$SURFTYPE
 70
     6
  9
$SURFU
 70
     6
  9
$SURFV
 70
     6
  9
$UCSNAME
  2

  9
$UCSORG
 10
0.0
 20
0.0
 30
0.0
  9
$UCSXDIR
 10
1.0
 20
0.0
 30
0.0
  9
$UCSYDIR
 10
0.0
 20
1.0
 30
0.0
  9
$PUCSNAME
  2

  9
$PUCSORG
 10
0.0
 20
0.0
 30
0.0
  9
$PUCSXDIR
 10
1.0
 20
0.0
 30
0.0
  9
$PUCSYDIR
 10
0.0
 20
1.0
 30
0.0
  9
$USERI1
 70
     0
  9
$USERI2
 70
     0
  9
$USERI3
 70
     0
  9
$USERI4
 70
     0
  9
$USERI5
 70
     0
  9
$USERR1
 40
0.0
  9
$USERR2
 40
0.0
  9
$USERR3
 40
0.0
  9
$USERR4
 40
0.0
  9
$USERR5
 40
0.0
  9
$WORLDVIEW
 70
     1
  9
$SHADEDGE
 70
     3
  9
$SHADEDIF
 70
    70
  9
$TILEMODE
 70
     1
  9
$MAXACTVP
 70
    48
  9
$PLIMCHECK
 70
     0
  9
$PEXTMIN
 10
0.0
 20
0.0
 30
0.0
  9
$PEXTMAX
 10
265.75521900000001
 20
182.5141909999999
 30
2.0
  9
$PLIMMIN
 10
0.0
 20
0.0
  9
$PLIMMAX
 10
420.0
 20
297.0
  9
$UNITMODE
 70
     0
  9
$VISRETAIN
 70
     0
  9
$PLINEGEN
 70
     0
  9
$PSLTSCALE
 70
     1
  0
ENDSEC
  0
SECTION
  2
TABLES
  0
TABLE
  2
VPORT
 70
     2
  0
VPORT
  2
*ACTIVE
 70
     0
 10
0.0
 20
0.0
 11
1.0
 21
1.0
 12
216.8675816999999
 22
571.51848907480326
 13
0.0
 23
0.0
 14
1.0
 24
1.0
 15
0.0
 25
0.0
 16
0.0
 26
0.0
 36
1.0
 17
0.0
 27
0.0
 37
0.0
 40
712.34023438111069
 41
1.550724637681159
 42
50.0
 43
0.0
 44
0.0
 50
0.0
 51
0.0
 71
     0
 72
   100
 73
     1
 74
     1
 75
     0
 76
     0
 77
     0
 78
     0
  0
ENDTAB
  0
TABLE
  2
LTYPE
 70
     8
  0
LTYPE
  2
CONTINUOUS
 70
     0
  3
Solid line
 72
    65
 73
     0
 40
0.0
  0
LTYPE
  2
DASHED
 70
     0
  3
__ __ __ __ __ __ __ __ __ __ __ __ __ __ __ __
 72
    65
 73
     2
 40
15.0
 49
12.0
 49
-3.0
  0
LTYPE
  2
DASHDOT
 70
     0
  3
 __ . __ . __ . __ . __ . __ . __ . 
 72
    65
 73
     4
 40
18.5
 49
12.0
 49
-3.0
 49
0.5
 49
-3.0
  0
LTYPE
  2
DOT
 70
     0
  3
 . . . . . . . . . . . . . . . .
 72
    65
 73
     2
 40
3.5
 49
0.5
 49
-3.0
  0
LTYPE
  2
DASHSPACE
 70
     0
  3
__    __    __    __    __   
 72
    65
 73
     2
 40
30.0
 49
12.0
 49
-18.0
  0
LTYPE
  2
DASHDOT2
 70
     0
  3
__ . . __ . . __ . . __ 
 72
    65
 73
     6
 40
22.0
 49
12.0
 49
-3.0
 49
0.5
 49
-3.0
 49
0.5
 49
-3.0
  0
LTYPE
  2
PHANTOM
 70
     0
  3
____________    ____    ____   _
 72
    65
 73
     6
 40
20.0
 49
10.0
 49
-2.0
 49
2.0
 49
-2.0
 49
2.0
 49
-2.0
  0
LTYPE
  2
AXES
 70
     0
  3
________  __  ________  __  _____
 72
    65
 73
     4
 40
24.0
 49
15.0
 49
-3.0
 49
3.0
 49
-3.0
  0
ENDTAB
  0
TABLE
  2
LAYER
 70
     1
  0
LAYER
  2
0
 70
     0
 62
     7
  6
CONTINUOUS
  0
ENDTAB
  0
TABLE
  2
STYLE
 70
     2
  0
STYLE
  2
STANDARD
 70
     0
 40
0.0
 41
1.0
 50
0.0
 71
     0
 42
0.0
  3
isocp.shx
  4

  0
STYLE
  2
GDT
 70
     0
 40
0.0
 41
1.0
 50
0.0
 71
     0
 42
0.0
  3
amgdt.shx
  4

  0
ENDTAB
  0
TABLE
  2
VIEW
 70
     0
  0
ENDTAB
  0
TABLE
  2
UCS
 70
     0
  0
ENDTAB
  0
TABLE
  2
APPID
 70
     1
  0
APPID
  2
ACAD
 70
     0
  0
ENDTAB
  0
TABLE
  2
DIMSTYLE
 70
     1
  0
DIMSTYLE
  2
STANDARD
 70
     0
  3

  4

  5

  6

  7

 40
1.0
 41
2.5
 42
0.625
 43
3.75
 44
1.25
 45
0.0
 46
0.0
 47
0.0
 48
0.0
140
2.5
141
2.5
142
0.0
143
0.03937
144
1.0
145
0.0
146
1.0
147
0.625
 71
     0
 72
     0
 73
     0
 74
     0
 75
     0
 76
     0
 77
     1
 78
     8
170
     0
171
     3
172
     1
173
     0
174
     0
175
     0
176
     0
177
     0
178
     0
  0
ENDTAB
  0
ENDSEC
  0
SECTION
  2
BLOCKS
  0
BLOCK
  8
0
  2
$MODEL_SPACE
 70
     0
 10
0.0
 20
0.0
 30
0.0
  3
$MODEL_SPACE
  1

  0
ENDBLK
  5
E
  8
0
  0
BLOCK
 67
     1
  8
0
  2
$PAPER_SPACE
 70
     0
 10
0.0
 20
0.0
 30
0.0
  3
$PAPER_SPACE
  1

  0
ENDBLK
  5
10
 67
     1
  8
0
  0
BLOCK
  8
0
  2
BLOCK0
 70
     0
 10
0.0
 20
0.0
 30
0.0
  3
BLOCK0
  1

  0
TEXT
  5
507
  8
0
 62
     1
 10
-559.0
 20
-53.0
 30
0.0
 40
3.0
  1
Ts3
 50
180.0
 41
1.225762527177944
 72
     5
 11
-566.69995099999994
 21
-53.0
 31
0.0
  0
ENDBLK
  5
508
  8
0
  0
BLOCK
  8
0
  2
BLOCK1
 70
     0
 10
0.0
 20
0.0
 30
0.0
  3
BLOCK1
  1

  0
TEXT
  5
50A
  8
0
 62
     1
 10
-533.0
 20
-44.0
 30
0.0
 40
4.0
  1
1SDH000637R0.135
 50
180.0
 41
1.3857562765830569
 72
     5
 11
-592.26281700000004
 21
-44.0
 31
0.0
  0
ENDBLK
  5
50B
  8
0
  0
BLOCK
  8
0
  2
BLOCK2
 70
     0
 10
0.0
 20
0.0
 30
0.0
  3
BLOCK2
  1

  0
TEXT
  5
50D
  8
0
 62
     1
 10
-532.40490699999998
 20
-68.5
 30
0.0
 40
2.0
  1
4POLE LOW VOLTAGE M.C.C.B SERIES TMAX
 50
180.0
 41
1.0842853634577621
 72
     5
 11
-587.59503199999995
 21
-68.5
 31
0.0
  0
TEXT
  5
50E
  8
0
 62
     1
 10
-536.15423599999997
 20
-65.5
 30
0.0
 40
2.0
  1
FIXED VERSION FC Cu-Al 100..150A
 50
180.0
 41
1.189313391521196
 72
     5
 11
-583.84570299999996
 21
-65.5
 31
0.0
  0
ENDBLK
  5
50F
  8
0
  0
BLOCK
  8
0
  2
BLOCK3
 70
     0
 10
0.0
 20
0.0
 30
0.0
  3
BLOCK3
  1

  0
TEXT
  5
511
  8
0
 62
     1
 10
-535.15368699999999
 20
-60.5
 30
0.0
 40
2.0
  1
INTERR.AUTOMATICO SERIE TMAX
 50
180.0
 41
1.0608779643765891
 72
     5
 11
-576.84619099999998
 21
-60.5
 31
0.0
  0
TEXT
  5
512
  8
0
 62
     1
 10
-520.90624999999989
 20
-57.5
 30
0.0
 40
2.0
  1
TETRAP.ESECUZ.FISSA TERM.x CAVI Cu-Al 100..150A
 50
180.0
 41
1.1487305891980351
 72
     5
 11
-591.09368899999993
 21
-57.5
 31
0.0
  0
ENDBLK
  5
513
  8
0
  0
BLOCK
  8
0
  2
BLOCK4
 70
     0
 10
0.0
 20
0.0
 30
0.0
  3
BLOCK4
  1

  0
TEXT
  5
515
  8
0
 62
     1
 10
-470.30425999999989
 20
-53.0
 30
0.0
 40
2.0
  1
N0214 2007-11-30
 50
180.0
 41
1.144634658248072
 72
     5
 11
-494.0
 21
-53.0
 31
0.0
  0
ENDBLK
  5
516
  8
0
  0
BLOCK
  8
0
  2
BLOCK5
 70
     0
 10
0.0
 20
0.0
 30
0.0
  3
BLOCK5
  1

  0
TEXT
  5
518
  8
0
 62
     7
 10
-5.0
 20
-100.0
 30
0.0
 40
3.0
  1
X
 50
90.0
 41
0.9777764444444425
 72
     5
 11
-5.0
 21
-97.800003000000004
 31
0.0
  0
ENDBLK
  5
519
  8
0
  0
BLOCK
  8
0
  2
BLOCK6
 70
     0
 10
0.0
 20
0.0
 30
0.0
  3
BLOCK6
  1

  0
TEXT
  5
51B
  8
0
 62
     7
 10
-7.0
 20
100.0
 30
0.0
 40
3.0
  1
X
 50
90.0
 41
0.9777764444444425
 72
     5
 11
-7.0
 21
102.1999969999999
 31
0.0
  0
ENDBLK
  5
51C
  8
0
  0
BLOCK
  8
0
  2
BLOCK7
 70
     0
 10
0.0
 20
0.0
 30
0.0
  3
BLOCK7
  1

  0
TEXT
  5
51E
  8
0
 62
     7
 10
-101.0
 20
-10.0
 30
0.0
 40
3.0
  1
Y
 50
90.0
 41
0.9777777777777778
 72
     5
 11
-101.0
 21
-7.7999999999999989
 31
0.0
  0
ENDBLK
  5
51F
  8
0
  0
BLOCK
  8
0
  2
BLOCK8
 70
     0
 10
0.0
 20
0.0
 30
0.0
  3
BLOCK8
  1

  0
TEXT
  5
521
  8
0
 62
     7
 10
120.0
 20
-10.0
 30
0.0
 40
3.0
  1
Y
 50
90.0
 41
0.9777777777777778
 72
     5
 11
120.0
 21
-7.7999999999999989
 31
0.0
  0
ENDBLK
  5
522
  8
0
  0
BLOCK
  8
0
  2
BLOCK9
 70
     0
 10
0.0
 20
0.0
 30
0.0
  3
BLOCK9
  1

  0
TEXT
  5
524
  8
0
 62
     7
 10
18.75
 20
-126.5937499999999
 30
0.0
 40
3.0
  1
112
 50
179.9999404717627
 41
1.5941402843842269
 72
     5
 11
11.05002
 21
-126.59374199999991
 31
0.0
  0
ENDBLK
  5
525
  8
0
  0
BLOCK
  8
0
  2
BLOCK10
 70
     0
 10
0.0
 20
0.0
 30
0.0
  3
BLOCK10
  1

  0
TEXT
  5
527
  8
0
 62
     7
 10
18.75
 20
-164.0829469999999
 30
0.0
 40
3.0
  1
142
 50
180.0
 41
1.3437594995413831
 72
     5
 11
11.05002
 21
-164.0829469999999
 31
0.0
  0
ENDBLK
  5
528
  8
0
  0
BLOCK
  8
0
  2
BLOCK11
 70
     0
 10
0.0
 20
0.0
 30
0.0
  3
BLOCK11
  1

  0
TEXT
  5
52A
  8
0
 62
     7
 10
-121.533974
 20
-11.0
 30
0.0
 40
3.0
  1
80
 50
90.0
 41
1.3191663623963901
 72
     5
 11
-121.533974
 21
-6.0500099999999994
 31
0.0
  0
ENDBLK
  5
52B
  8
0
  0
BLOCK
  8
0
  2
BLOCK12
 70
     0
 10
0.0
 20
0.0
 30
0.0
  3
BLOCK12
  1

  0
TEXT
  5
52D
  8
0
 62
     7
 10
-154.251846
 20
-16.5
 30
0.0
 40
3.0
  1
112
 50
90.0
 41
1.594140284383367
 72
     5
 11
-154.251846
 21
-8.8000199999999982
 31
0.0
  0
ENDBLK
  5
52E
  8
0
  0
BLOCK
  8
0
  2
BLOCK13
 70
     0
 10
0.0
 20
0.0
 30
0.0
  3
BLOCK13
  1

  0
TEXT
  5
530
  8
0
 62
     7
 10
122.34223899999991
 20
-111.27021000000001
 30
0.0
 40
3.0
  1
 7
 50
127.20898959685471
 41
1.736837925866495
 72
     5
 11
119.348862
 21
-107.3278659999999
 31
0.0
  0
ENDBLK
  5
531
  8
0
  0
BLOCK
  8
0
  2
BLOCK14
 70
     0
 10
0.0
 20
0.0
 30
0.0
  3
BLOCK14
  1

  0
TEXT
  5
533
  8
0
 62
     7
 10
123.30978399999999
 20
-112.544495
 30
0.0
 40
3.0
  1
%%c
 50
127.2089187033538
 41
0.9777779165820129
 72
     5
 11
121.9793929999999
 21
-110.79233600000001
 31
0.0
  0
ENDBLK
  5
534
  8
0
  0
BLOCK
  8
0
  2
BLOCK15
 70
     0
 10
0.0
 20
0.0
 30
0.0
  3
BLOCK15
  1

  0
TEXT
  5
536
  8
0
 62
     7
 10
103.4829409999999
 20
-51.343139999999998
 30
0.0
 40
3.0
  1
105
 50
359.999977676914
 41
1.432750773232113
 72
     5
 11
111.18292199999991
 21
-51.343142999999991
 31
0.0
  0
ENDBLK
  5
537
  8
0
  0
BLOCK
  8
0
  2
BLOCK16
 70
     0
 10
0.0
 20
0.0
 30
0.0
  3
BLOCK16
  1

  0
TEXT
  5
539
  8
0
 62
     7
 10
115.0
 20
-20.0
 30
0.0
 40
3.0
  1
X
 50
270.0
 41
0.9777782222222221
 72
     5
 11
115.0
 21
-22.200001
 31
0.0
  0
ENDBLK
  5
53A
  8
0
  0
BLOCK
  8
0
  2
BLOCK17
 70
     0
 10
0.0
 20
0.0
 30
0.0
  3
BLOCK17
  1

  0
TEXT
  5
53C
  8
0
 62
     7
 10
103.98706799999999
 20
178.21418799999989
 30
0.0
 40
3.0
  1
143
 41
1.3570009972672821
 72
     5
 11
111.68705
 21
178.21418799999989
 31
0.0
  0
ENDBLK
  5
53D
  8
0
  0
BLOCK
  8
0
  2
BLOCK18
 70
     0
 10
0.0
 20
0.0
 30
0.0
  3
BLOCK18
  1

  0
TEXT
  5
53F
  8
0
 62
     7
 10
-57.508743000000003
 20
64.999282999999991
 30
0.0
 40
3.0
  1
103,5
 50
269.9999652751772
 41
1.5485159649678719
 72
     5
 11
-57.508750999999997
 21
51.799323999999999
 31
0.0
  0
ENDBLK
  5
540
  8
0
  0
BLOCK
  8
0
  2
BLOCK19
 70
     0
 10
0.0
 20
0.0
 30
0.0
  3
BLOCK19
  1

  0
TEXT
  5
542
  8
0
 62
     7
 10
-57.508727999999998
 20
117.4999389999999
 30
0.0
 40
3.0
  1
3
 50
270.0
 41
1.2399490238209789
 72
     5
 11
-57.508727999999998
 21
115.2999419999999
 31
0.0
  0
ENDBLK
  5
543
  8
0
  0
BLOCK
  8
0
  2
BLOCK20
 70
     0
 10
0.0
 20
0.0
 30
0.0
  3
BLOCK20
  1

  0
TEXT
  5
545
  8
0
 62
     7
 10
-57.508727999999998
 20
122.9999389999999
 30
0.0
 40
3.0
  1
\U+2265
 50
270.0
 41
1.2422315693532049
 72
     5
 11
-57.508727999999998
 21
120.7999419999999
 31
0.0
  0
ENDBLK
  5
546
  8
0
  0
BLOCK
  8
0
  2
BLOCK21
 70
     0
 10
0.0
 20
0.0
 30
0.0
  3
BLOCK21
  1

  0
TEXT
  5
548
  8
0
 62
     7
 10
-86.731125000000006
 20
43.727416999999988
 30
0.0
 40
3.0
  1
135
 50
270.0
 41
1.4327509593039931
 72
     5
 11
-86.731125000000006
 21
36.02743499999999
 31
0.0
  0
ENDBLK
  5
549
  8
0
  0
BLOCK
  8
0
  2
BLOCK22
 70
     0
 10
0.0
 20
0.0
 30
0.0
  3
BLOCK22
  1

  0
TEXT
  5
54B
  8
0
 62
     7
 10
-71.491714000000002
 20
-12.000061000000001
 30
0.0
 40
3.0
  1
2
 50
270.0
 41
1.2020694180030751
 72
     5
 11
-71.491714000000002
 21
-14.200060999999989
 31
0.0
  0
ENDBLK
  5
54C
  8
0
  0
BLOCK
  8
0
  2
BLOCK23
 70
     0
 10
0.0
 20
0.0
 30
0.0
  3
BLOCK23
  1

  0
TEXT
  5
54E
  8
0
 62
     7
 10
-71.491730000000004
 20
57.749939000000012
 30
0.0
 40
3.0
  1
107
 50
270.0
 41
1.4666632380952389
 72
     5
 11
-71.491730000000004
 21
50.049956999999999
 31
0.0
  0
ENDBLK
  5
54F
  8
0
  0
BLOCK
  8
0
  2
BLOCK24
 70
     0
 10
0.0
 20
0.0
 30
0.0
  3
BLOCK24
  1

  0
TEXT
  5
551
  8
0
 62
     7
 10
133.11206100000001
 20
162.9052429999999
 30
0.0
 40
3.0
  1
73,75
 50
0.0000651090081431
 41
1.4466882918560631
 72
     5
 11
146.312027
 21
162.90525799999989
 31
0.0
  0
ENDBLK
  5
552
  8
0
  0
BLOCK
  8
0
  2
BLOCK25
 70
     0
 10
0.0
 20
0.0
 30
0.0
  3
BLOCK25
  1

  0
TEXT
  5
554
  8
0
 62
     7
 10
46.737068000000001
 20
166.016693
 30
0.0
 40
3.0
  1
13,5
 50
0.0000822429817649
 41
1.6266407931307201
 72
     5
 11
57.187038000000001
 21
166.01670799999991
 31
0.0
  0
ENDBLK
  5
555
  8
0
  0
BLOCK
  8
0
  2
BLOCK26
 70
     0
 10
0.0
 20
0.0
 30
0.0
  3
BLOCK26
  1

  0
TEXT
  5
557
  8
0
 62
     7
 10
262.75521900000001
 20
59.499966000000001
 30
0.0
 40
3.0
  1
101,5
 50
270.0
 41
1.6910090178479049
 72
     5
 11
262.75521900000001
 21
46.099963999999993
 31
0.0
  0
LINE
  5
558
  8
0
 62
     7
 10
173.98706100000001
 20
1.4999400000000001
 30
0.0
 11
263.75521900000001
 21
1.4999400000000001
 31
0.0
  0
LINE
  5
559
  8
0
 62
     7
 10
206.73344399999991
 20
102.9999389999999
 30
0.0
 11
263.75521900000001
 21
102.9999389999999
 31
0.0
  0
POLYLINE
  5
55A
  8
0
 62
     7
 66
     1
 10
0.0
 20
0.0
 30
0.0
  0
VERTEX
  5
95D
  8
0
 62
     7
 10
261.23757899999993
 20
3.4317919999999988
 30
0.0
  0
VERTEX
  5
95E
  8
0
 62
     7
 10
261.75521900000001
 20
1.4999400000000001
 30
0.0
  0
VERTEX
  5
95F
  8
0
 62
     7
 10
262.27282700000001
 20
3.4317919999999988
 30
0.0
  0
SEQEND
  5
960
  8
0
 62
     7
  0
POLYLINE
  5
55F
  8
0
 62
     7
 66
     1
 10
0.0
 20
0.0
 30
0.0
  0
VERTEX
  5
961
  8
0
 62
     7
 10
262.27282700000001
 20
101.0680849999999
 30
0.0
  0
VERTEX
  5
962
  8
0
 62
     7
 10
261.75521900000001
 20
102.9999389999999
 30
0.0
  0
VERTEX
  5
963
  8
0
 62
     7
 10
261.23757899999993
 20
101.0680849999999
 30
0.0
  0
SEQEND
  5
964
  8
0
 62
     7
  0
LINE
  5
564
  8
0
 62
     7
 10
261.75521900000001
 20
1.4999400000000001
 30
0.0
 11
261.75521900000001
 21
102.9999389999999
 31
0.0
  0
ENDBLK
  5
565
  8
0
  0
BLOCK
  8
0
  2
BLOCK27
 70
     0
 10
0.0
 20
0.0
 30
0.0
  3
BLOCK27
  1

  0
TEXT
  5
567
  8
0
 62
     7
 10
226.37325999999999
 20
90.419403000000003
 30
0.0
 40
3.5
  1
31
 50
270.0
 41
1.5873001360544241
 72
     5
 11
226.37325999999999
 21
84.586074999999994
 31
0.0
  0
LINE
  5
568
  8
0
 62
     7
 10
180.74917599999989
 20
72.005531000000005
 30
0.0
 11
226.37325999999999
 21
72.005531000000005
 31
0.0
  0
LINE
  5
569
  8
0
 62
     7
 10
206.73344399999991
 20
102.9999389999999
 30
0.0
 11
226.37325999999999
 21
102.9999389999999
 31
0.0
  0
POLYLINE
  5
56A
  8
0
 62
     7
 66
     1
 10
0.0
 20
0.0
 30
0.0
  0
VERTEX
  5
965
  8
0
 62
     7
 10
223.85562100000001
 20
73.937386000000004
 30
0.0
  0
VERTEX
  5
966
  8
0
 62
     7
 10
224.37325999999999
 20
72.005531000000005
 30
0.0
  0
VERTEX
  5
967
  8
0
 62
     7
 10
224.8908999999999
 20
73.937386000000004
 30
0.0
  0
SEQEND
  5
968
  8
0
 62
     7
  0
POLYLINE
  5
56F
  8
0
 62
     7
 66
     1
 10
0.0
 20
0.0
 30
0.0
  0
VERTEX
  5
969
  8
0
 62
     7
 10
224.8908999999999
 20
101.0680849999999
 30
0.0
  0
VERTEX
  5
96A
  8
0
 62
     7
 10
224.37325999999999
 20
102.9999389999999
 30
0.0
  0
VERTEX
  5
96B
  8
0
 62
     7
 10
223.85562100000001
 20
101.0680849999999
 30
0.0
  0
SEQEND
  5
96C
  8
0
 62
     7
  0
LINE
  5
574
  8
0
 62
     7
 10
224.37325999999999
 20
72.005531000000005
 30
0.0
 11
224.37325999999999
 21
102.9999389999999
 31
0.0
  0
ENDBLK
  5
575
  8
0
  0
BLOCK
  8
0
  2
BLOCK28
 70
     0
 10
0.0
 20
0.0
 30
0.0
  3
BLOCK28
  1

  0
TEXT
  5
577
  8
0
 62
     7
 10
226.37325999999999
 20
40.799533999999987
 30
0.0
 40
3.5
  1
9.9
 50
270.0
 41
1.599913370276292
 72
     5
 11
226.37325999999999
 21
31.699535000000001
 31
0.0
  0
TEXT
  5
578
  8
0
 62
     7
 10
226.37325999999999
 20
45.299534000000001
 30
0.0
 40
3.5
  1
%%c
 50
270.0
 41
1.3333333333333319
 72
     5
 11
226.37325999999999
 21
41.799534000000001
 31
0.0
  0
LINE
  5
579
  8
0
 62
     7
 10
177.65675400000001
 20
62.099532999999987
 30
0.0
 11
226.37325999999999
 21
62.099532999999987
 31
0.0
  0
LINE
  5
57A
  8
0
 62
     7
 10
180.74917599999989
 20
72.005531000000005
 30
0.0
 11
226.37325999999999
 21
72.005531000000005
 31
0.0
  0
POLYLINE
  5
57B
  8
0
 62
     7
 66
     1
 10
0.0
 20
0.0
 30
0.0
  0
VERTEX
  5
96D
  8
0
 62
     7
 10
223.85562100000001
 20
64.031386999999995
 30
0.0
  0
VERTEX
  5
96E
  8
0
 62
     7
 10
224.37325999999999
 20
62.099532999999987
 30
0.0
  0
VERTEX
  5
96F
  8
0
 62
     7
 10
224.8908999999999
 20
64.031386999999995
 30
0.0
  0
SEQEND
  5
970
  8
0
 62
     7
  0
POLYLINE
  5
580
  8
0
 62
     7
 66
     1
 10
0.0
 20
0.0
 30
0.0
  0
VERTEX
  5
971
  8
0
 62
     7
 10
224.8908999999999
 20
70.073684999999998
 30
0.0
  0
VERTEX
  5
972
  8
0
 62
     7
 10
224.37325999999999
 20
72.005531000000005
 30
0.0
  0
VERTEX
  5
973
  8
0
 62
     7
 10
223.85562100000001
 20
70.073684999999998
 30
0.0
  0
SEQEND
  5
974
  8
0
 62
     7
  0
LINE
  5
585
  8
0
 62
     7
 10
224.37325999999999
 20
31.699535000000001
 30
0.0
 11
224.37325999999999
 21
72.005531000000005
 31
0.0
  0
ENDBLK
  5
586
  8
0
  0
BLOCK
  8
0
  2
BLOCK29
 70
     0
 10
0.0
 20
0.0
 30
0.0
  3
BLOCK29
  1

  0
TEXT
  5
588
  8
0
 62
     7
 10
27.067383
 20
-21.561942999999999
 30
0.0
 40
3.5
  1
10
 41
1.586111789327197
 72
     5
 11
32.900714999999998
 21
-21.561942999999999
 31
0.0
  0
LINE
  5
589
  8
0
 62
     7
 10
40.737063999999997
 20
38.897137000000001
 30
0.0
 11
40.737063999999997
 21
-25.561942999999999
 31
0.0
  0
LINE
  5
58A
  8
0
 62
     7
 10
50.737071999999998
 20
38.897597999999988
 30
0.0
 11
50.737071999999998
 21
-25.561942999999999
 31
0.0
  0
POLYLINE
  5
58B
  8
0
 62
     7
 66
     1
 10
0.0
 20
0.0
 30
0.0
  0
VERTEX
  5
975
  8
0
 62
     7
 10
42.668919000000002
 20
-23.044304
 30
0.0
  0
VERTEX
  5
976
  8
0
 62
     7
 10
40.737063999999997
 20
-23.561942999999989
 30
0.0
  0
VERTEX
  5
977
  8
0
 62
     7
 10
42.668919000000002
 20
-24.07958
 30
0.0
  0
SEQEND
  5
978
  8
0
 62
     7
  0
POLYLINE
  5
590
  8
0
 62
     7
 66
     1
 10
0.0
 20
0.0
 30
0.0
  0
VERTEX
  5
979
  8
0
 62
     7
 10
48.805222000000001
 20
-24.07958
 30
0.0
  0
VERTEX
  5
97A
  8
0
 62
     7
 10
50.737071999999998
 20
-23.561942999999989
 30
0.0
  0
VERTEX
  5
97B
  8
0
 62
     7
 10
48.805222000000001
 20
-23.044304
 30
0.0
  0
SEQEND
  5
97C
  8
0
 62
     7
  0
LINE
  5
595
  8
0
 62
     7
 10
27.067383
 20
-23.561942999999989
 30
0.0
 11
50.737071999999998
 21
-23.561942999999989
 31
0.0
  0
ENDBLK
  5
596
  8
0
  0
BLOCK
  8
0
  2
BLOCK30
 70
     0
 10
0.0
 20
0.0
 30
0.0
  3
BLOCK30
  1

  0
TEXT
  5
598
  8
0
 62
     7
 10
-6.3979559999999989
 20
90.994063999999995
 30
0.0
 40
3.5
  1
31
 50
270.0
 41
1.5873001360544201
 72
     5
 11
-6.3979559999999989
 21
85.160736
 31
0.0
  0
LINE
  5
599
  8
0
 62
     7
 10
43.736294000000001
 20
72.043633
 30
0.0
 11
-10.397956000000001
 21
72.043633
 31
0.0
  0
POLYLINE
  5
59A
  8
0
 62
     7
 66
     1
 10
0.0
 20
0.0
 30
0.0
  0
VERTEX
  5
97D
  8
0
 62
     7
 10
-8.9155940000000005
 20
73.975479000000007
 30
0.0
  0
VERTEX
  5
97E
  8
0
 62
     7
 10
-8.3979560000000006
 20
72.043633
 30
0.0
  0
VERTEX
  5
97F
  8
0
 62
     7
 10
-7.880317999999999
 20
73.975479000000007
 30
0.0
  0
SEQEND
  5
980
  8
0
 62
     7
  0
POLYLINE
  5
59F
  8
0
 62
     7
 66
     1
 10
0.0
 20
0.0
 30
0.0
  0
VERTEX
  5
981
  8
0
 62
     7
 10
-7.880317999999999
 20
101.0680849999999
 30
0.0
  0
VERTEX
  5
982
  8
0
 62
     7
 10
-8.3979560000000006
 20
102.9999389999999
 30
0.0
  0
VERTEX
  5
983
  8
0
 62
     7
 10
-8.9155940000000005
 20
101.0680849999999
 30
0.0
  0
SEQEND
  5
984
  8
0
 62
     7
  0
LINE
  5
5A4
  8
0
 62
     7
 10
-8.3979560000000006
 20
72.043633
 30
0.0
 11
-8.3979560000000006
 21
102.9999389999999
 31
0.0
  0
ENDBLK
  5
5A5
  8
0
  0
BLOCK
  8
0
  2
BLOCK31
 70
     0
 10
0.0
 20
0.0
 30
0.0
  3
BLOCK31
  1

  0
TEXT
  5
5A7
  8
0
 62
     7
 10
-6.3979559999999989
 20
31.667553000000002
 30
0.0
 40
3.5
  1
14.2
 50
270.0
 41
1.598750426582618
 72
     5
 11
-6.3979559999999989
 21
19.300888
 31
0.0
  0
TEXT
  5
5A8
  8
0
 62
     7
 10
-6.3979559999999989
 20
36.167552999999998
 30
0.0
 40
3.5
  1
%%c
 50
270.0
 41
1.3333333333333319
 72
     5
 11
-6.3979559999999989
 21
32.667552999999998
 31
0.0
  0
LINE
  5
5A9
  8
0
 62
     7
 10
46.811028
 20
57.819630000000011
 30
0.0
 11
-10.397956000000001
 21
57.819630000000011
 31
0.0
  0
LINE
  5
5AA
  8
0
 62
     7
 10
43.736294000000001
 20
72.043633
 30
0.0
 11
-10.397956000000001
 21
72.043633
 31
0.0
  0
POLYLINE
  5
5AB
  8
0
 62
     7
 66
     1
 10
0.0
 20
0.0
 30
0.0
  0
VERTEX
  5
985
  8
0
 62
     7
 10
-7.880317999999999
 20
70.111778000000001
 30
0.0
  0
VERTEX
  5
986
  8
0
 62
     7
 10
-8.3979560000000006
 20
72.043633
 30
0.0
  0
VERTEX
  5
987
  8
0
 62
     7
 10
-8.9155940000000005
 20
70.111778000000001
 30
0.0
  0
SEQEND
  5
988
  8
0
 62
     7
  0
POLYLINE
  5
5B0
  8
0
 62
     7
 66
     1
 10
0.0
 20
0.0
 30
0.0
  0
VERTEX
  5
989
  8
0
 62
     7
 10
-8.9155940000000005
 20
59.751480000000001
 30
0.0
  0
VERTEX
  5
98A
  8
0
 62
     7
 10
-8.3979560000000006
 20
57.819630000000011
 30
0.0
  0
VERTEX
  5
98B
  8
0
 62
     7
 10
-7.880317999999999
 20
59.751480000000001
 30
0.0
  0
SEQEND
  5
98C
  8
0
 62
     7
  0
LINE
  5
5B5
  8
0
 62
     7
 10
-8.3979560000000006
 20
19.300885999999991
 30
0.0
 11
-8.3979560000000006
 21
72.043633
 31
0.0
  0
ENDBLK
  5
5B6
  8
0
  0
BLOCK
  8
0
  2
BLOCK32
 70
     0
 10
0.0
 20
0.0
 30
0.0
  3
BLOCK32
  1

  0
TEXT
  5
5B8
  8
0
 62
     7
 10
193.80661000000001
 20
-27.724990999999989
 30
0.0
 40
3.0
  1
10
 41
1.586112151867116
 72
     5
 11
198.80661000000001
 21
-27.724990999999989
 31
0.0
  0
LINE
  5
5B9
  8
0
 62
     7
 10
173.73706100000001
 20
65.100646999999995
 30
0.0
 11
173.73706100000001
 21
-30.724990999999989
 31
0.0
  0
LINE
  5
5BA
  8
0
 62
     7
 10
183.73706100000001
 20
38.250931000000001
 30
0.0
 11
183.73706100000001
 21
-30.724990999999989
 31
0.0
  0
POLYLINE
  5
5BB
  8
0
 62
     7
 66
     1
 10
0.0
 20
0.0
 30
0.0
  0
VERTEX
  5
98D
  8
0
 62
     7
 10
171.80520599999991
 20
-29.242628
 30
0.0
  0
VERTEX
  5
98E
  8
0
 62
     7
 10
173.73706100000001
 20
-28.724990999999989
 30
0.0
  0
VERTEX
  5
98F
  8
0
 62
     7
 10
171.80520599999991
 20
-28.207353999999999
 30
0.0
  0
SEQEND
  5
990
  8
0
 62
     7
  0
POLYLINE
  5
5C0
  8
0
 62
     7
 66
     1
 10
0.0
 20
0.0
 30
0.0
  0
VERTEX
  5
991
  8
0
 62
     7
 10
185.668915
 20
-28.207353999999999
 30
0.0
  0
VERTEX
  5
992
  8
0
 62
     7
 10
183.73706100000001
 20
-28.724990999999989
 30
0.0
  0
VERTEX
  5
993
  8
0
 62
     7
 10
185.668915
 20
-29.242628
 30
0.0
  0
SEQEND
  5
994
  8
0
 62
     7
  0
LINE
  5
5C5
  8
0
 62
     7
 10
168.73706100000001
 20
-28.724990999999989
 30
0.0
 11
198.80661000000001
 21
-28.724990999999989
 31
0.0
  0
ENDBLK
  5
5C6
  8
0
  0
BLOCK
  8
0
  2
BLOCK33
 70
     0
 10
0.0
 20
0.0
 30
0.0
  3
BLOCK33
  1

  0
LINE
  5
5C8
  8
0
 62
     6
 10
168.367615
 20
91.999938999999998
 30
0.0
 11
167.17150899999999
 21
90.803832999999983
 31
0.0
  0
LINE
  5
5C9
  8
0
 62
     6
 10
170.48893699999999
 20
91.999938999999998
 30
0.0
 11
167.17150899999999
 21
88.682518000000016
 31
0.0
  0
LINE
  5
5CA
  8
0
 62
     6
 10
171.23706100000001
 20
90.626746999999995
 30
0.0
 11
168.61024499999991
 21
87.999938999999998
 31
0.0
  0
LINE
  5
5CB
  8
0
 62
     6
 10
171.23706100000001
 20
88.505431999999999
 30
0.0
 11
170.7315669999999
 21
87.999938999999998
 31
0.0
  0
ENDBLK
  5
5CC
  8
0
  0
BLOCK
  8
0
  2
BLOCK34
 70
     0
 10
0.0
 20
0.0
 30
0.0
  3
BLOCK34
  1

  0
LINE
  5
5CE
  8
0
 62
     6
 10
50.937564999999999
 20
86.999938999999998
 30
0.0
 11
50.737071999999998
 21
86.799446000000003
 31
0.0
  0
LINE
  5
5CF
  8
0
 62
     6
 10
53.058886999999999
 20
86.999938999999998
 30
0.0
 11
50.737071999999998
 21
84.678122999999999
 31
0.0
  0
LINE
  5
5D0
  8
0
 62
     6
 10
53.720267999999997
 20
85.540001000000004
 30
0.0
 11
51.180205999999998
 21
82.999938999999998
 31
0.0
  0
LINE
  5
5D1
  8
0
 62
     6
 10
53.720267999999997
 20
83.418678000000014
 30
0.0
 11
53.301524999999998
 21
82.999938999999998
 31
0.0
  0
ENDBLK
  5
5D2
  8
0
  0
BLOCK
  8
0
  2
BLOCK35
 70
     0
 10
0.0
 20
0.0
 30
0.0
  3
BLOCK35
  1

  0
LINE
  5
5D4
  8
0
 62
     6
 10
44.837059000000004
 20
80.320839000000007
 30
0.0
 11
45.157963000000002
 21
79.999938999999983
 31
0.0
  0
LINE
  5
5D5
  8
0
 62
     6
 10
44.837059000000004
 20
82.442161999999996
 30
0.0
 11
47.279282000000002
 21
79.999938999999983
 31
0.0
  0
LINE
  5
5D6
  8
0
 62
     6
 10
46.400604000000001
 20
82.999938999999998
 30
0.0
 11
49.400604000000001
 21
79.999938999999983
 31
0.0
  0
LINE
  5
5D7
  8
0
 62
     6
 10
48.521923000000001
 20
82.999938999999998
 30
0.0
 11
51.521923000000001
 21
79.999938999999983
 31
0.0
  0
LINE
  5
5D8
  8
0
 62
     6
 10
50.643245999999998
 20
82.999938999999998
 30
0.0
 11
53.643242000000001
 21
79.999938999999983
 31
0.0
  0
LINE
  5
5D9
  8
0
 62
     6
 10
52.764564999999997
 20
82.999938999999998
 30
0.0
 11
54.720267999999997
 21
81.044235000000015
 31
0.0
  0
ENDBLK
  5
5DA
  8
0
  0
BLOCK
  8
0
  2
BLOCK36
 70
     0
 10
0.0
 20
0.0
 30
0.0
  3
BLOCK36
  1

  0
LINE
  5
5DC
  8
0
 62
     6
 10
31.737074
 20
78.571586999999994
 30
0.0
 11
32.308720000000001
 21
77.999938999999998
 31
0.0
  0
LINE
  5
5DD
  8
0
 62
     6
 10
31.737074
 20
80.692909
 30
0.0
 11
34.430042
 21
77.999938999999998
 31
0.0
  0
LINE
  5
5DE
  8
0
 62
     6
 10
31.737074
 20
82.814231999999976
 30
0.0
 11
36.551360999999993
 21
77.999938999999998
 31
0.0
  0
LINE
  5
5DF
  8
0
 62
     6
 10
33.672683999999997
 20
82.999938999999998
 30
0.0
 11
36.637062
 21
80.035561000000001
 31
0.0
  0
LINE
  5
5E0
  8
0
 62
     6
 10
35.794002999999996
 20
82.999938999999998
 30
0.0
 11
36.637062
 21
82.156882999999993
 31
0.0
  0
ENDBLK
  5
5E1
  8
0
  0
BLOCK
  8
0
  2
BLOCK37
 70
     0
 10
0.0
 20
0.0
 30
0.0
  3
BLOCK37
  1

  0
LINE
  5
5E3
  8
0
 62
     6
 10
45.837059000000004
 20
79.320839000000007
 30
0.0
 11
47.157963000000002
 21
77.999938999999998
 31
0.0
  0
LINE
  5
5E4
  8
0
 62
     6
 10
47.279282000000002
 20
79.999938999999983
 30
0.0
 11
49.279282000000002
 21
77.999938999999998
 31
0.0
  0
LINE
  5
5E5
  8
0
 62
     6
 10
49.400604000000001
 20
79.999938999999983
 30
0.0
 11
51.400604000000001
 21
77.999938999999998
 31
0.0
  0
LINE
  5
5E6
  8
0
 62
     6
 10
51.521923000000001
 20
79.999938999999983
 30
0.0
 11
53.521923000000001
 21
77.999938999999998
 31
0.0
  0
LINE
  5
5E7
  8
0
 62
     6
 10
53.643242000000001
 20
79.999938999999983
 30
0.0
 11
53.737071999999998
 21
79.906113000000005
 31
0.0
  0
ENDBLK
  5
5E8
  8
0
  0
BLOCK
  8
0
  2
BLOCK38
 70
     0
 10
0.0
 20
0.0
 30
0.0
  3
BLOCK38
  1

  0
LINE
  5
5EA
  8
0
 62
     6
 10
187.93705700000001
 20
79.349296999999993
 30
0.0
 11
189.2864229999999
 21
77.999938999999998
 31
0.0
  0
LINE
  5
5EB
  8
0
 62
     6
 10
187.93705700000001
 20
81.470618999999999
 30
0.0
 11
191.40772999999999
 21
77.999938999999998
 31
0.0
  0
LINE
  5
5EC
  8
0
 62
     6
 10
188.52905299999989
 20
82.999938999999998
 30
0.0
 11
192.73706100000001
 21
78.791938999999999
 31
0.0
  0
LINE
  5
5ED
  8
0
 62
     6
 10
190.65037499999991
 20
82.999938999999998
 30
0.0
 11
192.73706100000001
 21
80.913253999999995
 31
0.0
  0
ENDBLK
  5
5EE
  8
0
  0
BLOCK
  8
0
  2
BLOCK39
 70
     0
 10
0.0
 20
0.0
 30
0.0
  3
BLOCK39
  1

  0
LINE
  5
5F0
  8
0
 62
     6
 10
166.17150899999999
 20
84.144287000000006
 30
0.0
 11
171.93414300000001
 21
78.381644999999992
 31
0.0
  0
LINE
  5
5F1
  8
0
 62
     6
 10
166.17150899999999
 20
86.265609999999995
 30
0.0
 11
174.43718000000001
 21
77.999938999999998
 31
0.0
  0
LINE
  5
5F2
  8
0
 62
     6
 10
166.55850199999989
 20
87.999938999999998
 30
0.0
 11
176.558502
 21
77.999938999999998
 31
0.0
  0
LINE
  5
5F3
  8
0
 62
     6
 10
169.724457
 20
86.955292000000014
 30
0.0
 11
178.67981
 21
77.999938999999998
 31
0.0
  0
LINE
  5
5F4
  8
0
 62
     6
 10
175.801132
 20
82.999938999999998
 30
0.0
 11
179.5370639999999
 21
79.264015000000001
 31
0.0
  0
LINE
  5
5F5
  8
0
 62
     6
 10
177.92245500000001
 20
82.999938999999998
 30
0.0
 11
179.5370639999999
 21
81.385338000000004
 31
0.0
  0
ENDBLK
  5
5F6
  8
0
  0
BLOCK
  8
0
  2
BLOCK40
 70
     0
 10
0.0
 20
0.0
 30
0.0
  3
BLOCK40
  1

  0
LINE
  5
5F8
  8
0
 62
     6
 10
171.338165
 20
77.999938999999998
 30
0.0
 11
171.23706100000001
 21
77.898833999999994
 31
0.0
  0
LINE
  5
5F9
  8
0
 62
     6
 10
173.45948799999991
 20
77.999938999999998
 30
0.0
 11
171.23706100000001
 21
75.777512000000002
 31
0.0
  0
LINE
  5
5FA
  8
0
 62
     6
 10
173.73706100000001
 20
76.156188999999998
 30
0.0
 11
171.23706100000001
 21
73.656196999999992
 31
0.0
  0
LINE
  5
5FB
  8
0
 62
     6
 10
173.73706100000001
 20
74.034874000000002
 30
0.0
 11
171.23706100000001
 21
71.534874000000002
 31
0.0
  0
LINE
  5
5FC
  8
0
 62
     6
 10
173.73706100000001
 20
71.913550999999998
 30
0.0
 11
171.23706100000001
 21
69.413558999999992
 31
0.0
  0
LINE
  5
5FD
  8
0
 62
     6
 10
173.73706100000001
 20
69.792236000000003
 30
0.0
 11
171.23706100000001
 21
67.292236000000003
 31
0.0
  0
LINE
  5
5FE
  8
0
 62
     6
 10
173.73706100000001
 20
67.670913999999996
 30
0.0
 11
172.33528100000001
 21
66.269134999999991
 31
0.0
  0
ENDBLK
  5
5FF
  8
0
  0
BLOCK
  8
0
  2
BLOCK41
 70
     0
 10
0.0
 20
0.0
 30
0.0
  3
BLOCK41
  1

  0
LINE
  5
601
  8
0
 62
     2
 10
184.4806209999999
 20
-4.168404999999999
 30
0.0
 11
186.31227100000001
 21
-6.000051
 31
0.0
  0
LINE
  5
602
  8
0
 62
     2
 10
186.433594
 20
-4.000051
 30
0.0
 11
188.43359399999991
 21
-6.000051
 31
0.0
  0
LINE
  5
603
  8
0
 62
     2
 10
188.554901
 20
-4.000051
 30
0.0
 11
190.554901
 21
-6.000051
 31
0.0
  0
LINE
  5
604
  8
0
 62
     2
 10
190.67622399999991
 20
-4.000051
 30
0.0
 11
192.67622399999999
 21
-6.000051
 31
0.0
  0
LINE
  5
605
  8
0
 62
     2
 10
192.7975459999999
 20
-4.000051
 30
0.0
 11
194.7975459999999
 21
-6.000051
 31
0.0
  0
LINE
  5
606
  8
0
 62
     2
 10
194.91886899999989
 20
-4.000051
 30
0.0
 11
196.918869
 21
-6.000051
 31
0.0
  0
LINE
  5
607
  8
0
 62
     2
 10
197.04019199999999
 20
-4.000051
 30
0.0
 11
199.04019199999999
 21
-6.000051
 31
0.0
  0
LINE
  5
608
  8
0
 62
     2
 10
199.16151400000001
 20
-4.000051
 30
0.0
 11
201.1615139999999
 21
-6.000051
 31
0.0
  0
LINE
  5
609
  8
0
 62
     2
 10
201.282837
 20
-4.000051
 30
0.0
 11
203.28283699999989
 21
-6.000051
 31
0.0
  0
LINE
  5
60A
  8
0
 62
     2
 10
203.404144
 20
-4.000051
 30
0.0
 11
205.404144
 21
-6.000051
 31
0.0
  0
LINE
  5
60B
  8
0
 62
     2
 10
205.52546699999999
 20
-4.000051
 30
0.0
 11
207.52546699999999
 21
-6.000051
 31
0.0
  0
LINE
  5
60C
  8
0
 62
     2
 10
207.6467899999999
 20
-4.000051
 30
0.0
 11
209.6467899999999
 21
-6.000051
 31
0.0
  0
LINE
  5
60D
  8
0
 62
     2
 10
209.76811199999989
 20
-4.000051
 30
0.0
 11
211.76811199999989
 21
-6.000051
 31
0.0
  0
LINE
  5
60E
  8
0
 62
     2
 10
211.88943499999999
 20
-4.000051
 30
0.0
 11
213.88943499999999
 21
-6.000051
 31
0.0
  0
LINE
  5
60F
  8
0
 62
     2
 10
214.01075700000001
 20
-4.000051
 30
0.0
 11
216.01075700000001
 21
-6.000051
 31
0.0
  0
LINE
  5
610
  8
0
 62
     2
 10
216.1320649999999
 20
-4.000051
 30
0.0
 11
218.1320649999999
 21
-6.000051
 31
0.0
  0
LINE
  5
611
  8
0
 62
     2
 10
218.25338699999989
 20
-4.000051
 30
0.0
 11
220.25338699999989
 21
-6.000051
 31
0.0
  0
LINE
  5
612
  8
0
 62
     2
 10
220.37470999999999
 20
-4.000051
 30
0.0
 11
222.37470999999999
 21
-6.000051
 31
0.0
  0
LINE
  5
613
  8
0
 62
     2
 10
222.49603300000001
 20
-4.000051
 30
0.0
 11
224.49603300000001
 21
-6.000051
 31
0.0
  0
LINE
  5
614
  8
0
 62
     2
 10
224.61735499999989
 20
-4.000051
 30
0.0
 11
226.61735499999989
 21
-6.000051
 31
0.0
  0
LINE
  5
615
  8
0
 62
     2
 10
226.73867799999991
 20
-4.000051
 30
0.0
 11
228.73867799999991
 21
-6.000051
 31
0.0
  0
LINE
  5
616
  8
0
 62
     2
 10
228.85998499999999
 20
-4.000051
 30
0.0
 11
230.85998499999999
 21
-6.000051
 31
0.0
  0
LINE
  5
617
  8
0
 62
     2
 10
230.98130800000001
 20
-4.000051
 30
0.0
 11
232.98130800000001
 21
-6.000051
 31
0.0
  0
LINE
  5
618
  8
0
 62
     2
 10
233.10263099999989
 20
-4.000051
 30
0.0
 11
234.6011199999999
 21
-5.4985390000000001
 31
0.0
  0
LINE
  5
619
  8
0
 62
     2
 10
235.22395299999991
 20
-4.000051
 30
0.0
 11
235.56959499999999
 21
-4.3456960000000002
 31
0.0
  0
ENDBLK
  5
61A
  8
0
  0
BLOCK
  8
0
  2
BLOCK42
 70
     0
 10
0.0
 20
0.0
 30
0.0
  3
BLOCK42
  1

  0
LINE
  5
61C
  8
0
 62
     2
 10
165.9806209999999
 20
-4.760286999999999
 30
0.0
 11
167.22038299999991
 21
-6.000051
 31
0.0
  0
LINE
  5
61D
  8
0
 62
     2
 10
167.34170499999999
 20
-4.000051
 30
0.0
 11
169.34170499999999
 21
-6.000051
 31
0.0
  0
LINE
  5
61E
  8
0
 62
     2
 10
169.46302800000001
 20
-4.000051
 30
0.0
 11
171.46302800000001
 21
-6.000051
 31
0.0
  0
LINE
  5
61F
  8
0
 62
     2
 10
171.584351
 20
-4.000051
 30
0.0
 11
173.584351
 21
-6.000051
 31
0.0
  0
LINE
  5
620
  8
0
 62
     2
 10
173.7056729999999
 20
-4.000051
 30
0.0
 11
175.7056729999999
 21
-6.000051
 31
0.0
  0
LINE
  5
621
  8
0
 62
     2
 10
175.82698099999999
 20
-4.000051
 30
0.0
 11
177.4806209999999
 21
-5.6536860000000004
 31
0.0
  0
ENDBLK
  5
622
  8
0
  0
BLOCK
  8
0
  2
BLOCK43
 70
     0
 10
0.0
 20
0.0
 30
0.0
  3
BLOCK43
  1

  0
LINE
  5
624
  8
0
 62
     2
 10
42.480625000000003
 20
-4.2968619999999991
 30
0.0
 11
44.183815000000003
 21
-6.000051
 31
0.0
  0
LINE
  5
625
  8
0
 62
     2
 10
44.305134000000002
 20
-4.000051
 30
0.0
 11
46.305134000000002
 21
-6.000051
 31
0.0
  0
LINE
  5
626
  8
0
 62
     2
 10
46.426456000000002
 20
-4.000051
 30
0.0
 11
48.426456000000002
 21
-6.000051
 31
0.0
  0
LINE
  5
627
  8
0
 62
     2
 10
48.547775000000001
 20
-4.000051
 30
0.0
 11
50.547775000000001
 21
-6.000051
 31
0.0
  0
LINE
  5
628
  8
0
 62
     2
 10
50.669094000000001
 20
-4.000051
 30
0.0
 11
52.669093999999987
 21
-6.000051
 31
0.0
  0
LINE
  5
629
  8
0
 62
     2
 10
52.790416999999998
 20
-4.000051
 30
0.0
 11
53.980625000000003
 21
-5.1902609999999996
 31
0.0
  0
ENDBLK
  5
62A
  8
0
  0
BLOCK
  8
0
  2
BLOCK44
 70
     0
 10
0.0
 20
0.0
 30
0.0
  3
BLOCK44
  1

  0
LINE
  5
62C
  8
0
 62
     2
 10
-9.8679659999999991
 20
-4.9812769999999986
 30
0.0
 11
-8.8491910000000011
 21
-6.000051
 31
0.0
  0
LINE
  5
62D
  8
0
 62
     2
 10
-8.7278699999999994
 20
-4.000051
 30
0.0
 11
-6.7278699999999994
 21
-6.000051
 31
0.0
  0
LINE
  5
62E
  8
0
 62
     2
 10
-6.6065500000000004
 20
-4.000051
 30
0.0
 11
-4.6065500000000004
 21
-6.000051
 31
0.0
  0
LINE
  5
62F
  8
0
 62
     2
 10
-4.4852299999999996
 20
-4.000051
 30
0.0
 11
-2.4852300000000001
 21
-6.000051
 31
0.0
  0
LINE
  5
630
  8
0
 62
     2
 10
-2.3639099999999988
 20
-4.000051
 30
0.0
 11
-0.36391
 21
-6.000051
 31
0.0
  0
LINE
  5
631
  8
0
 62
     2
 10
-0.242589
 20
-4.000051
 30
0.0
 11
1.757409999999999
 21
-6.000051
 31
0.0
  0
LINE
  5
632
  8
0
 62
     2
 10
1.8787309999999999
 20
-4.000051
 30
0.0
 11
3.8787309999999988
 21
-6.000051
 31
0.0
  0
LINE
  5
633
  8
0
 62
     2
 10
4.000051
 20
-4.000051
 30
0.0
 11
6.000051
 21
-6.000051
 31
0.0
  0
LINE
  5
634
  8
0
 62
     2
 10
6.121370999999999
 20
-4.000051
 30
0.0
 11
8.1213709999999981
 21
-6.000051
 31
0.0
  0
LINE
  5
635
  8
0
 62
     2
 10
8.2426910000000007
 20
-4.000051
 30
0.0
 11
10.242691000000001
 21
-6.000051
 31
0.0
  0
LINE
  5
636
  8
0
 62
     2
 10
10.364012000000001
 20
-4.000051
 30
0.0
 11
12.36401199999999
 21
-6.000051
 31
0.0
  0
LINE
  5
637
  8
0
 62
     2
 10
12.485332
 20
-4.000051
 30
0.0
 11
14.485332
 21
-6.000051
 31
0.0
  0
LINE
  5
638
  8
0
 62
     2
 10
14.606652
 20
-4.000051
 30
0.0
 11
16.606650999999999
 21
-6.000051
 31
0.0
  0
LINE
  5
639
  8
0
 62
     2
 10
16.727972000000001
 20
-4.000051
 30
0.0
 11
18.727972000000001
 21
-6.000051
 31
0.0
  0
LINE
  5
63A
  8
0
 62
     2
 10
18.849292999999989
 20
-4.000051
 30
0.0
 11
20.849292999999999
 21
-6.000051
 31
0.0
  0
LINE
  5
63B
  8
0
 62
     2
 10
20.970613
 20
-4.000051
 30
0.0
 11
22.970611999999988
 21
-6.000051
 31
0.0
  0
LINE
  5
63C
  8
0
 62
     2
 10
23.091932
 20
-4.000051
 30
0.0
 11
25.091932
 21
-6.000051
 31
0.0
  0
LINE
  5
63D
  8
0
 62
     2
 10
25.213252999999991
 20
-4.000051
 30
0.0
 11
27.213253000000002
 21
-6.000051
 31
0.0
  0
LINE
  5
63E
  8
0
 62
     2
 10
27.334574
 20
-4.000051
 30
0.0
 11
29.334573999999989
 21
-6.000051
 31
0.0
  0
LINE
  5
63F
  8
0
 62
     2
 10
29.455892999999989
 20
-4.000051
 30
0.0
 11
31.455893
 21
-6.000051
 31
0.0
  0
LINE
  5
640
  8
0
 62
     2
 10
31.577213
 20
-4.000051
 30
0.0
 11
33.577213
 21
-6.000051
 31
0.0
  0
LINE
  5
641
  8
0
 62
     2
 10
33.698532
 20
-4.000051
 30
0.0
 11
35.480625000000003
 21
-5.7821429999999987
 31
0.0
  0
ENDBLK
  5
642
  8
0
  0
BLOCK
  8
0
  2
BLOCK45
 70
     0
 10
0.0
 20
0.0
 30
0.0
  3
BLOCK45
  1

  0
LINE
  5
644
  8
0
 62
     7
 10
174.46606399999999
 20
72.477028000000004
 30
0.0
 11
175.28271499999991
 21
72.005531000000005
 31
0.0
  0
LINE
  5
645
  8
0
 62
     7
 10
174.46606399999999
 20
73.631729000000007
 30
0.0
 11
177.28271499999991
 21
72.005531000000005
 31
0.0
  0
LINE
  5
646
  8
0
 62
     7
 10
174.46606399999999
 20
74.78643000000001
 30
0.0
 11
179.28271499999991
 21
72.005531000000005
 31
0.0
  0
LINE
  5
647
  8
0
 62
     7
 10
174.46606399999999
 20
75.941131999999996
 30
0.0
 11
179.74914599999991
 21
72.890938000000006
 31
0.0
  0
LINE
  5
648
  8
0
 62
     7
 10
174.46606399999999
 20
77.095832999999999
 30
0.0
 11
179.74917599999989
 21
74.045624000000004
 31
0.0
  0
LINE
  5
649
  8
0
 62
     7
 10
174.90010100000001
 20
77.999938999999998
 30
0.0
 11
179.74920700000001
 21
75.200310000000002
 31
0.0
  0
LINE
  5
64A
  8
0
 62
     7
 10
176.90010100000001
 20
77.999938999999998
 30
0.0
 11
179.749222
 21
76.354996
 31
0.0
  0
LINE
  5
64B
  8
0
 62
     7
 10
178.90008499999999
 20
77.999938999999998
 30
0.0
 11
179.74925200000001
 21
77.509681999999984
 31
0.0
  0
ENDBLK
  5
64C
  8
0
  0
BLOCK
  8
0
  2
BLOCK46
 70
     0
 10
0.0
 20
0.0
 30
0.0
  3
BLOCK46
  1

  0
LINE
  5
64E
  8
0
 62
     7
 10
174.46606399999999
 20
59.775318000000013
 30
0.0
 11
174.97178600000001
 21
59.483341000000003
 31
0.0
  0
LINE
  5
64F
  8
0
 62
     7
 10
174.46606399999999
 20
60.930018999999987
 30
0.0
 11
176.65681499999991
 21
59.665191999999998
 31
0.0
  0
LINE
  5
650
  8
0
 62
     7
 10
174.46606399999999
 20
62.084720999999988
 30
0.0
 11
176.65681499999991
 21
60.819889000000003
 31
0.0
  0
LINE
  5
651
  8
0
 62
     7
 10
176.44059799999999
 20
62.099421999999997
 30
0.0
 11
176.65681499999991
 21
61.974589999999999
 31
0.0
  0
ENDBLK
  5
652
  8
0
  0
BLOCK
  8
0
  2
BLOCK47
 70
     0
 10
0.0
 20
0.0
 30
0.0
  3
BLOCK47
  1

  0
LINE
  5
654
  8
0
 62
     7
 10
187.72485399999999
 20
72.904953000000006
 30
0.0
 11
189.28270000000001
 21
72.005531000000005
 31
0.0
  0
LINE
  5
655
  8
0
 62
     7
 10
187.72485399999999
 20
74.059654000000009
 30
0.0
 11
189.96006799999989
 21
72.769165000000001
 31
0.0
  0
LINE
  5
656
  8
0
 62
     7
 10
187.72485399999999
 20
75.214354999999983
 30
0.0
 11
189.96006799999989
 21
73.923866000000004
 31
0.0
  0
LINE
  5
657
  8
0
 62
     7
 10
187.72485399999999
 20
76.369056999999984
 30
0.0
 11
189.96006799999989
 21
75.078568000000004
 31
0.0
  0
LINE
  5
658
  8
0
 62
     7
 10
187.72485399999999
 20
77.523758000000001
 30
0.0
 11
189.96006799999989
 21
76.233268999999993
 31
0.0
  0
LINE
  5
659
  8
0
 62
     7
 10
188.90008499999999
 20
77.999938999999998
 30
0.0
 11
189.96006799999989
 21
77.387962000000002
 31
0.0
  0
ENDBLK
  5
65A
  8
0
  0
BLOCK
  8
0
  2
BLOCK48
 70
     0
 10
0.0
 20
0.0
 30
0.0
  3
BLOCK48
  1

  0
LINE
  5
65C
  8
0
 62
     7
 10
187.76934799999989
 20
60.177559000000002
 30
0.0
 11
188.97177099999999
 21
59.483341000000003
 31
0.0
  0
LINE
  5
65D
  8
0
 62
     7
 10
187.7694239999999
 20
61.332218000000012
 30
0.0
 11
189.96006799999989
 21
60.067455000000002
 31
0.0
  0
LINE
  5
65E
  8
0
 62
     7
 10
188.4403989999999
 20
62.099532999999987
 30
0.0
 11
189.96006799999989
 21
61.222156999999989
 31
0.0
  0
ENDBLK
  5
65F
  8
0
  0
BLOCK
  8
0
  2
BLOCK49
 70
     0
 10
0.0
 20
0.0
 30
0.0
  3
BLOCK49
  1

  0
LINE
  5
661
  8
0
 62
     7
 10
49.677340999999998
 20
72.043633
 30
0.0
 11
50.008063999999997
 21
72.616462999999996
 31
0.0
  0
LINE
  5
662
  8
0
 62
     7
 10
48.522640000000003
 20
72.043633
 30
0.0
 11
50.008063999999997
 21
74.616462999999996
 31
0.0
  0
LINE
  5
663
  8
0
 62
     7
 10
47.367939
 20
72.043633
 30
0.0
 11
50.008063999999997
 21
76.616462999999996
 31
0.0
  0
LINE
  5
664
  8
0
 62
     7
 10
46.21323799999999
 20
72.043633
 30
0.0
 11
49.652110999999998
 21
77.999931000000004
 31
0.0
  0
LINE
  5
665
  8
0
 62
     7
 10
45.058537000000001
 20
72.043633
 30
0.0
 11
48.497409999999988
 21
77.999931000000004
 31
0.0
  0
LINE
  5
666
  8
0
 62
     7
 10
44.736294000000001
 20
73.485489000000001
 30
0.0
 11
47.342708999999999
 21
77.999931000000004
 31
0.0
  0
LINE
  5
667
  8
0
 62
     7
 10
44.736294000000001
 20
75.485489000000001
 30
0.0
 11
46.188006999999999
 21
77.999931000000004
 31
0.0
  0
LINE
  5
668
  8
0
 62
     7
 10
44.736294000000001
 20
77.485489000000001
 30
0.0
 11
45.03331
 21
77.999931000000004
 31
0.0
  0
ENDBLK
  5
669
  8
0
  0
BLOCK
  8
0
  2
BLOCK50
 70
     0
 10
0.0
 20
0.0
 30
0.0
  3
BLOCK50
  1

  0
LINE
  5
66B
  8
0
 62
     7
 10
49.998515999999988
 20
52.599930000000008
 30
0.0
 11
50.008063999999997
 21
52.616469999999993
 31
0.0
  0
LINE
  5
66C
  8
0
 62
     7
 10
48.843814999999992
 20
52.599930000000008
 30
0.0
 11
50.008063999999997
 21
54.616469999999993
 31
0.0
  0
LINE
  5
66D
  8
0
 62
     7
 10
47.810963000000001
 20
52.810981999999989
 30
0.0
 11
50.008063999999997
 21
56.616469999999993
 31
0.0
  0
LINE
  5
66E
  8
0
 62
     7
 10
47.810963000000001
 20
54.810981999999989
 30
0.0
 11
49.547965999999988
 21
57.819552999999999
 31
0.0
  0
LINE
  5
66F
  8
0
 62
     7
 10
47.810963000000001
 20
56.810982000000003
 30
0.0
 11
48.393149999999999
 21
57.819358999999999
 31
0.0
  0
ENDBLK
  5
670
  8
0
  0
BLOCK
  8
0
  2
BLOCK51
 70
     0
 10
0.0
 20
0.0
 30
0.0
  3
BLOCK51
  1

  0
LINE
  5
672
  8
0
 62
     7
 10
35.82092999999999
 20
72.043633
 30
0.0
 11
36.73783499999999
 21
73.631752000000006
 31
0.0
  0
LINE
  5
673
  8
0
 62
     7
 10
34.666229000000001
 20
72.043633
 30
0.0
 11
36.73783499999999
 21
75.631752000000006
 31
0.0
  0
LINE
  5
674
  8
0
 62
     7
 10
34.514065000000002
 20
73.780067000000003
 30
0.0
 11
36.73783499999999
 21
77.631752000000006
 31
0.0
  0
LINE
  5
675
  8
0
 62
     7
 10
34.514065000000002
 20
75.780067000000003
 30
0.0
 11
35.795704000000001
 21
77.999931000000004
 31
0.0
  0
LINE
  5
676
  8
0
 62
     7
 10
34.514065000000002
 20
77.780067000000003
 30
0.0
 11
34.641002999999998
 21
77.999931000000004
 31
0.0
  0
ENDBLK
  5
677
  8
0
  0
BLOCK
  8
0
  2
BLOCK52
 70
     0
 10
0.0
 20
0.0
 30
0.0
  3
BLOCK52
  1

  0
LINE
  5
679
  8
0
 62
     7
 10
36.142105000000001
 20
52.599930000000008
 30
0.0
 11
36.71114
 21
53.585526000000002
 31
0.0
  0
LINE
  5
67A
  8
0
 62
     7
 10
34.987403999999991
 20
52.599930000000008
 30
0.0
 11
36.711089999999999
 21
55.585442
 31
0.0
  0
LINE
  5
67B
  8
0
 62
     7
 10
34.514065000000002
 20
53.780079000000001
 30
0.0
 11
36.711044000000001
 21
57.585354000000002
 31
0.0
  0
LINE
  5
67C
  8
0
 62
     7
 10
34.514065000000002
 20
55.780079000000001
 30
0.0
 11
35.691600999999991
 21
57.819630000000011
 31
0.0
  0
LINE
  5
67D
  8
0
 62
     7
 10
34.514065000000002
 20
57.780079000000001
 30
0.0
 11
34.536900000000003
 21
57.819630000000011
 31
0.0
  0
ENDBLK
  5
67E
  8
0
  0
BLOCK
  8
0
  2
BLOCK53
 70
     0
 10
0.0
 20
0.0
 30
0.0
  3
BLOCK53
  1

  0
LINE
  5
680
  8
0
 62
     3
 10
-68.999968999999993
 20
-58.5
 30
0.0
 11
89.500022999999985
 21
-58.5
 31
0.0
  0
LINE
  5
681
  8
0
 62
     3
 10
-70.249968999999993
 20
57.25
 30
0.0
 11
-70.249968999999993
 21
-57.25
 31
0.0
  0
LINE
  5
682
  8
0
 62
     3
 10
-68.999968999999993
 20
58.5
 30
0.0
 11
89.500022999999985
 21
58.5
 31
0.0
  0
LINE
  5
683
  8
0
 62
     3
 10
90.750022999999985
 20
57.25
 30
0.0
 11
90.750022999999985
 21
-57.25
 31
0.0
  0
LINE
  5
684
  8
0
 62
     3
 10
-42.74997299999999
 20
-53.0
 30
0.0
 11
63.250022999999999
 21
-53.0
 31
0.0
  0
LINE
  5
685
  8
0
 62
     3
 10
-42.74997299999999
 20
53.0
 30
0.0
 11
-42.74997299999999
 21
-53.0
 31
0.0
  0
LINE
  5
686
  8
0
 62
     3
 10
-42.74997299999999
 20
53.0
 30
0.0
 11
63.250022999999999
 21
53.0
 31
0.0
  0
LINE
  5
687
  8
0
 62
     3
 10
63.250022999999999
 20
53.0
 30
0.0
 11
63.250022999999999
 21
-53.0
 31
0.0
  0
LINE
  5
688
  8
0
 62
     3
 10
-51.249972999999997
 20
-54.0
 30
0.0
 11
-50.24997299999999
 21
-54.0
 31
0.0
  0
LINE
  5
689
  8
0
 62
     3
 10
-49.249972999999997
 20
53.0
 30
0.0
 11
-49.249972999999997
 21
-53.0
 31
0.0
  0
LINE
  5
68A
  8
0
 62
     3
 10
-51.249972999999997
 20
54.0
 30
0.0
 11
-50.24997299999999
 21
54.0
 31
0.0
  0
LINE
  5
68B
  8
0
 62
     3
 10
-50.24997299999999
 20
53.0
 30
0.0
 11
-50.24997299999999
 21
-53.0
 31
0.0
  0
LINE
  5
68C
  8
0
 62
     3
 10
-70.249968999999993
 20
54.0
 30
0.0
 11
-51.249972999999997
 21
54.0
 31
0.0
  0
LINE
  5
68D
  8
0
 62
     3
 10
-50.249977000000001
 20
54.0
 30
0.0
 11
90.750022999999985
 21
54.0
 31
0.0
  0
LINE
  5
68E
  8
0
 62
     3
 10
-70.249968999999993
 20
53.0
 30
0.0
 11
-50.24997299999999
 21
53.0
 31
0.0
  0
LINE
  5
68F
  8
0
 62
     3
 10
63.250022999999999
 20
53.0
 30
0.0
 11
69.750022999999985
 21
53.0
 31
0.0
  0
LINE
  5
690
  8
0
 62
     3
 10
-49.249972999999997
 20
53.0
 30
0.0
 11
-42.74997299999999
 21
53.0
 31
0.0
  0
LINE
  5
691
  8
0
 62
     3
 10
-70.249968999999993
 20
-54.0
 30
0.0
 11
-51.249972999999997
 21
-54.0
 31
0.0
  0
LINE
  5
692
  8
0
 62
     3
 10
-50.24997299999999
 20
-54.0
 30
0.0
 11
90.750022999999985
 21
-54.0
 31
0.0
  0
LINE
  5
693
  8
0
 62
     3
 10
-49.249972999999997
 20
-53.0
 30
0.0
 11
-42.74997299999999
 21
-53.0
 31
0.0
  0
LINE
  5
694
  8
0
 62
     3
 10
63.250022999999999
 20
-53.0
 30
0.0
 11
69.750022999999985
 21
-53.0
 31
0.0
  0
LINE
  5
695
  8
0
 62
     3
 10
-70.249968999999993
 20
-53.0
 30
0.0
 11
-50.24997299999999
 21
-53.0
 31
0.0
  0
LINE
  5
696
  8
0
 62
     3
 10
70.750022999999999
 20
54.0
 30
0.0
 11
70.750022999999999
 21
-54.0
 31
0.0
  0
LINE
  5
697
  8
0
 62
     3
 10
69.750022999999985
 20
53.0
 30
0.0
 11
69.750022999999985
 21
-53.0
 31
0.0
  0
ARC
  5
698
  8
0
 62
     3
 10
-68.999968999999993
 20
57.25
 30
0.0
 40
1.25
 50
90.000005000000002
 51
180.00000099999991
  0
ARC
  5
699
  8
0
 62
     3
 10
-68.999968999999993
 20
-57.25
 30
0.0
 40
1.25
 50
180.00000099999991
 51
270.0
  0
ARC
  5
69A
  8
0
 62
     3
 10
89.500022999999985
 20
-57.25
 30
0.0
 40
1.25
 50
270.0
 51
0.000003
  0
ARC
  5
69B
  8
0
 62
     3
 10
89.500022999999985
 20
57.25
 30
0.0
 40
1.25
 50
0.000003
 51
90.000005000000002
  0
LINE
  5
69C
  8
0
  6
DASHSPACE
 62
     3
 10
80.000022999999999
 20
54.5
 30
0.0
 11
80.000022999999999
 21
54.0
 31
0.0
  0
LINE
  5
69D
  8
0
  6
DASHSPACE
 62
     3
 10
81.500022999999999
 20
54.5
 30
0.0
 11
81.500022999999999
 21
54.0
 31
0.0
  0
LINE
  5
69E
  8
0
 62
     3
 10
80.000022999999999
 20
-53.5
 30
0.0
 11
80.000022999999999
 21
-54.0
 31
0.0
  0
LINE
  5
69F
  8
0
 62
     3
 10
81.500022999999999
 20
-53.5
 30
0.0
 11
81.500022999999999
 21
-54.0
 31
0.0
  0
ARC
  5
6A0
  8
0
  6
DASHSPACE
 62
     3
 10
80.750022999999985
 20
54.5
 30
0.0
 40
0.75
 50
0.000003
 51
180.00000099999991
  0
ARC
  5
6A1
  8
0
 62
     3
 10
80.750022999999985
 20
53.5
 30
0.0
 40
0.75
 50
180.00000099999991
 51
0.000003
  0
LINE
  5
6A2
  8
0
 62
     3
 10
81.500022999999999
 20
54.0
 30
0.0
 11
81.500022999999999
 21
53.5
 31
0.0
  0
LINE
  5
6A3
  8
0
 62
     3
 10
80.000022999999999
 20
54.0
 30
0.0
 11
80.000022999999999
 21
53.5
 31
0.0
  0
ARC
  5
6A4
  8
0
 62
     3
 10
80.750022999999985
 20
-53.5
 30
0.0
 40
0.75
 50
0.000003
 51
180.00000099999991
  0
ARC
  5
6A5
  8
0
  6
DASHSPACE
 62
     3
 10
80.750022999999985
 20
-54.5
 30
0.0
 40
0.75
 50
180.00000099999991
 51
0.000003
  0
LINE
  5
6A6
  8
0
  6
DASHSPACE
 62
     3
 10
81.500022999999999
 20
-54.0
 30
0.0
 11
81.500022999999999
 21
-54.5
 31
0.0
  0
LINE
  5
6A7
  8
0
  6
DASHSPACE
 62
     3
 10
80.000022999999999
 20
-54.0
 30
0.0
 11
80.000022999999999
 21
-54.5
 31
0.0
  0
ENDBLK
  5
6A8
  8
0
  0
BLOCK
  8
0
  2
BLOCK54
 70
     0
 10
0.0
 20
0.0
 30
0.0
  3
BLOCK54
  1

  0
TEXT
  5
6AA
  8
0
 62
     7
 10
110.0
 20
6.2000000000000002
 30
0.0
 40
3.0
  1
Y
 50
270.0
 41
0.9777777777777778
 72
     5
 11
110.0
 21
4.0
 31
0.0
  0
ENDBLK
  5
6AB
  8
0
  0
BLOCK
  8
0
  2
BLOCK55
 70
     0
 10
0.0
 20
0.0
 30
0.0
  3
BLOCK55
  1

  0
TEXT
  5
6AD
  8
0
 62
     7
 10
-94.0
 20
3.2000000000000002
 30
0.0
 40
3.0
  1
Y
 50
270.0
 41
0.9777777777777778
 72
     5
 11
-94.0
 21
1.0
 31
0.0
  0
ENDBLK
  5
6AE
  8
0
  0
BLOCK
  8
0
  2
BLOCK56
 70
     0
 10
0.0
 20
0.0
 30
0.0
  3
BLOCK56
  1

  0
TEXT
  5
6B0
  8
0
 62
     7
 10
17.0
 20
135.0
 30
0.0
 40
3.0
  1
X
 50
270.0
 41
0.9777764444444425
 72
     5
 11
17.0
 21
132.800003
 31
0.0
  0
ENDBLK
  5
6B1
  8
0
  0
BLOCK
  8
0
  2
BLOCK57
 70
     0
 10
0.0
 20
0.0
 30
0.0
  3
BLOCK57
  1

  0
TEXT
  5
6B3
  8
0
 62
     7
 10
17.0
 20
-116.0
 30
0.0
 40
3.0
  1
X
 50
270.0
 41
0.9777764444444425
 72
     5
 11
17.0
 21
-118.1999969999999
 31
0.0
  0
ENDBLK
  5
6B4
  8
0
  0
BLOCK
  8
0
  2
BLOCK58
 70
     0
 10
0.0
 20
0.0
 30
0.0
  3
BLOCK58
  1

  0
TEXT
  5
6B6
  8
0
 62
     7
 10
2.0000309999999999
 20
-81.961731000000015
 30
0.0
 40
3.0
  1
161
 41
1.655909462365591
 72
     5
 11
9.7000100000000007
 21
-81.961731000000015
 31
0.0
  0
ENDBLK
  5
6B7
  8
0
  0
BLOCK
  8
0
  2
BLOCK59
 70
     0
 10
0.0
 20
0.0
 30
0.0
  3
BLOCK59
  1

  0
TEXT
  5
6B9
  8
0
 62
     7
 10
163.71154799999999
 20
4.4500000000000002
 30
0.0
 40
3.0
  1
117
 50
270.0
 41
1.6774193548387091
 72
     5
 11
163.71154799999999
 21
-3.3500000000000001
 31
0.0
  0
LINE
  5
6BA
  8
0
 62
     7
 10
90.500022999999999
 20
-58.5
 30
0.0
 11
164.71154799999999
 21
-58.5
 31
0.0
  0
LINE
  5
6BB
  8
0
 62
     7
 10
90.500022999999999
 20
58.5
 30
0.0
 11
164.71154799999999
 21
58.5
 31
0.0
  0
POLYLINE
  5
6BC
  8
0
 62
     7
 66
     1
 10
0.0
 20
0.0
 30
0.0
  0
VERTEX
  5
995
  8
0
 62
     7
 10
162.19390899999999
 20
-56.568150000000003
 30
0.0
  0
VERTEX
  5
996
  8
0
 62
     7
 10
162.71154799999999
 20
-58.5
 30
0.0
  0
VERTEX
  5
997
  8
0
 62
     7
 10
163.229187
 20
-56.568150000000003
 30
0.0
  0
SEQEND
  5
998
  8
0
 62
     7
  0
POLYLINE
  5
6C1
  8
0
 62
     7
 66
     1
 10
0.0
 20
0.0
 30
0.0
  0
VERTEX
  5
999
  8
0
 62
     7
 10
163.229187
 20
56.568150000000003
 30
0.0
  0
VERTEX
  5
99A
  8
0
 62
     7
 10
162.71154799999999
 20
58.5
 30
0.0
  0
VERTEX
  5
99B
  8
0
 62
     7
 10
162.19390899999999
 20
56.568150000000003
 30
0.0
  0
SEQEND
  5
99C
  8
0
 62
     7
  0
LINE
  5
6C6
  8
0
 62
     7
 10
162.71154799999999
 20
-58.5
 30
0.0
 11
162.71154799999999
 21
58.5
 31
0.0
  0
ENDBLK
  5
6C7
  8
0
  0
BLOCK
  8
0
  2
BLOCK60
 70
     0
 10
0.0
 20
0.0
 30
0.0
  3
BLOCK60
  1

  0
TEXT
  5
6C9
  8
0
 62
     7
 10
141.3002469999999
 20
4.4500070000000003
 30
0.0
 40
3.0
  1
105
 50
270.0
 41
1.4513615074127639
 72
     5
 11
141.3002469999999
 21
-3.3499929999999991
 31
0.0
  0
LINE
  5
6CA
  8
0
 62
     7
 10
63.250027000000003
 20
-52.499985000000002
 30
0.0
 11
142.3002469999999
 21
-52.499985000000002
 31
0.0
  0
LINE
  5
6CB
  8
0
 62
     7
 10
63.250027000000003
 20
52.5
 30
0.0
 11
142.3002469999999
 21
52.5
 31
0.0
  0
POLYLINE
  5
6CC
  8
0
 62
     7
 66
     1
 10
0.0
 20
0.0
 30
0.0
  0
VERTEX
  5
99D
  8
0
 62
     7
 10
139.78260800000001
 20
-50.568134000000001
 30
0.0
  0
VERTEX
  5
99E
  8
0
 62
     7
 10
140.3002469999999
 20
-52.499985000000002
 30
0.0
  0
VERTEX
  5
99F
  8
0
 62
     7
 10
140.81788599999999
 20
-50.568134000000001
 30
0.0
  0
SEQEND
  5
9A0
  8
0
 62
     7
  0
POLYLINE
  5
6D1
  8
0
 62
     7
 66
     1
 10
0.0
 20
0.0
 30
0.0
  0
VERTEX
  5
9A1
  8
0
 62
     7
 10
140.81788599999999
 20
50.568150000000003
 30
0.0
  0
VERTEX
  5
9A2
  8
0
 62
     7
 10
140.3002469999999
 20
52.5
 30
0.0
  0
VERTEX
  5
9A3
  8
0
 62
     7
 10
139.78260800000001
 20
50.568150000000003
 30
0.0
  0
SEQEND
  5
9A4
  8
0
 62
     7
  0
LINE
  5
6D6
  8
0
 62
     7
 10
140.3002469999999
 20
-52.499985000000002
 30
0.0
 11
140.3002469999999
 21
52.5
 31
0.0
  0
ENDBLK
  5
6D7
  8
0
  0
BLOCK
  8
0
  2
BLOCK61
 70
     0
 10
0.0
 20
0.0
 30
0.0
  3
BLOCK61
  1

  0
TEXT
  5
6D9
  8
0
 62
     7
 10
46.625022999999992
 20
106.48447400000001
 30
0.0
 40
3.0
  1
87,25
 41
1.4686117038140121
 72
     5
 11
60.025024000000002
 21
106.48447400000001
 31
0.0
  0
LINE
  5
6DA
  8
0
 62
     7
 10
10.250025000000001
 20
90.469673
 30
0.0
 11
10.250025000000001
 21
107.48447400000001
 31
0.0
  0
LINE
  5
6DB
  8
0
 62
     7
 10
97.500015000000005
 20
51.750046000000012
 30
0.0
 11
97.500015000000005
 21
107.48447400000001
 31
0.0
  0
POLYLINE
  5
6DC
  8
0
 62
     7
 66
     1
 10
0.0
 20
0.0
 30
0.0
  0
VERTEX
  5
9A5
  8
0
 62
     7
 10
12.181876000000001
 20
106.00211299999989
 30
0.0
  0
VERTEX
  5
9A6
  8
0
 62
     7
 10
10.250025000000001
 20
105.48447400000001
 30
0.0
  0
VERTEX
  5
9A7
  8
0
 62
     7
 10
12.181876000000001
 20
104.966835
 30
0.0
  0
SEQEND
  5
9A8
  8
0
 62
     7
  0
POLYLINE
  5
6E1
  8
0
 62
     7
 66
     1
 10
0.0
 20
0.0
 30
0.0
  0
VERTEX
  5
9A9
  8
0
 62
     7
 10
95.568168999999983
 20
104.966835
 30
0.0
  0
VERTEX
  5
9AA
  8
0
 62
     7
 10
97.500015000000005
 20
105.48447400000001
 30
0.0
  0
VERTEX
  5
9AB
  8
0
 62
     7
 10
95.568168999999983
 20
106.00211299999989
 30
0.0
  0
SEQEND
  5
9AC
  8
0
 62
     7
  0
LINE
  5
6E6
  8
0
 62
     7
 10
10.250025000000001
 20
105.48447400000001
 30
0.0
 11
97.500015000000005
 21
105.48447400000001
 31
0.0
  0
ENDBLK
  5
6E7
  8
0
  0
BLOCK
  8
0
  2
BLOCK62
 70
     0
 10
0.0
 20
0.0
 30
0.0
  3
BLOCK62
  1

  0
TEXT
  5
6E9
  8
0
 62
     7
 10
123.28969599999991
 20
-14.449973999999999
 30
0.0
 40
3.0
  1
35
 50
270.0
 41
1.290567682357888
 72
     5
 11
123.28969599999991
 21
-19.44997399999999
 31
0.0
  0
LINE
  5
6EA
  8
0
 62
     7
 10
97.448752999999996
 20
-35.000042000000001
 30
0.0
 11
123.28969599999991
 21
-35.000042000000001
 31
0.0
  0
LINE
  5
6EB
  8
0
 62
     7
 10
41.95243099999999
 20
0.0
 30
0.0
 11
123.28969599999991
 21
0.0
 31
0.0
  0
POLYLINE
  5
6EC
  8
0
 62
     7
 66
     1
 10
0.0
 20
0.0
 30
0.0
  0
VERTEX
  5
9AD
  8
0
 62
     7
 10
120.7720569999999
 20
-33.068191999999989
 30
0.0
  0
VERTEX
  5
9AE
  8
0
 62
     7
 10
121.28969599999991
 20
-35.000042000000001
 30
0.0
  0
VERTEX
  5
9AF
  8
0
 62
     7
 10
121.80733499999999
 20
-33.068191999999989
 30
0.0
  0
SEQEND
  5
9B0
  8
0
 62
     7
  0
POLYLINE
  5
6F1
  8
0
 62
     7
 66
     1
 10
0.0
 20
0.0
 30
0.0
  0
VERTEX
  5
9B1
  8
0
 62
     7
 10
121.80733499999999
 20
-1.9318519999999999
 30
0.0
  0
VERTEX
  5
9B2
  8
0
 62
     7
 10
121.28969599999991
 20
0.0
 30
0.0
  0
VERTEX
  5
9B3
  8
0
 62
     7
 10
120.7720569999999
 20
-1.9318519999999999
 30
0.0
  0
SEQEND
  5
9B4
  8
0
 62
     7
  0
LINE
  5
6F6
  8
0
 62
     7
 10
121.28969599999991
 20
-35.000042000000001
 30
0.0
 11
121.28969599999991
 21
0.0
 31
0.0
  0
ENDBLK
  5
6F7
  8
0
  0
BLOCK
  8
0
  2
BLOCK63
 70
     0
 10
0.0
 20
0.0
 30
0.0
  3
BLOCK63
  1

  0
TEXT
  5
6F9
  8
0
 62
     7
 10
123.28969599999991
 20
20.550432000000001
 30
0.0
 40
3.0
  1
35
 50
270.0
 41
1.2905676823578891
 72
     5
 11
123.28969599999991
 21
15.550432000000001
 31
0.0
  0
LINE
  5
6FA
  8
0
 62
     7
 10
41.95243099999999
 20
0.0
 30
0.0
 11
123.28969599999991
 21
0.0
 31
0.0
  0
LINE
  5
6FB
  8
0
 62
     7
 10
95.666152999999994
 20
35.000011000000001
 30
0.0
 11
123.28969599999991
 21
35.000011000000001
 31
0.0
  0
POLYLINE
  5
6FC
  8
0
 62
     7
 66
     1
 10
0.0
 20
0.0
 30
0.0
  0
VERTEX
  5
9B5
  8
0
 62
     7
 10
120.7720569999999
 20
1.9318519999999999
 30
0.0
  0
VERTEX
  5
9B6
  8
0
 62
     7
 10
121.28969599999991
 20
0.0
 30
0.0
  0
VERTEX
  5
9B7
  8
0
 62
     7
 10
121.80733499999999
 20
1.9318519999999999
 30
0.0
  0
SEQEND
  5
9B8
  8
0
 62
     7
  0
POLYLINE
  5
701
  8
0
 62
     7
 66
     1
 10
0.0
 20
0.0
 30
0.0
  0
VERTEX
  5
9B9
  8
0
 62
     7
 10
121.80733499999999
 20
33.068160999999989
 30
0.0
  0
VERTEX
  5
9BA
  8
0
 62
     7
 10
121.28969599999991
 20
35.000011000000001
 30
0.0
  0
VERTEX
  5
9BB
  8
0
 62
     7
 10
120.7720569999999
 20
33.068160999999989
 30
0.0
  0
SEQEND
  5
9BC
  8
0
 62
     7
  0
LINE
  5
706
  8
0
 62
     7
 10
121.28969599999991
 20
0.0
 30
0.0
 11
121.28969599999991
 21
35.000011000000001
 31
0.0
  0
ENDBLK
  5
707
  8
0
  0
BLOCK
  8
0
  2
BLOCK64
 70
     0
 10
0.0
 20
0.0
 30
0.0
  3
BLOCK64
  1

  0
TEXT
  5
709
  8
0
 62
     7
 10
5.7507070000000002
 20
118.94508399999999
 30
0.0
 40
3.5
  1
170
 41
1.485046098493366
 72
     5
 11
14.850707
 21
118.94508399999999
 31
0.0
  0
LINE
  5
70A
  8
0
 62
     7
 10
-72.499984999999995
 20
85.000031000000007
 30
0.0
 11
-72.499984999999995
 21
118.94508399999999
 31
0.0
  0
LINE
  5
70B
  8
0
 62
     7
 10
97.500015000000005
 20
85.000031000000007
 30
0.0
 11
97.500015000000005
 21
118.94508399999999
 31
0.0
  0
POLYLINE
  5
70C
  8
0
 62
     7
 66
     1
 10
0.0
 20
0.0
 30
0.0
  0
VERTEX
  5
9BD
  8
0
 62
     7
 10
95.568168999999983
 20
116.42744399999999
 30
0.0
  0
VERTEX
  5
9BE
  8
0
 62
     7
 10
97.500015000000005
 20
116.94508399999999
 30
0.0
  0
VERTEX
  5
9BF
  8
0
 62
     7
 10
95.568168999999983
 20
117.462723
 30
0.0
  0
SEQEND
  5
9C0
  8
0
 62
     7
  0
POLYLINE
  5
711
  8
0
 62
     7
 66
     1
 10
0.0
 20
0.0
 30
0.0
  0
VERTEX
  5
9C1
  8
0
 62
     7
 10
-70.568130000000011
 20
117.462723
 30
0.0
  0
VERTEX
  5
9C2
  8
0
 62
     7
 10
-72.499984999999995
 20
116.94508399999999
 30
0.0
  0
VERTEX
  5
9C3
  8
0
 62
     7
 10
-70.568130000000011
 20
116.42744399999999
 30
0.0
  0
SEQEND
  5
9C4
  8
0
 62
     7
  0
LINE
  5
716
  8
0
 62
     7
 10
-72.499984999999995
 20
116.94508399999999
 30
0.0
 11
97.500015000000005
 21
116.94508399999999
 31
0.0
  0
ENDBLK
  5
717
  8
0
  0
BLOCK
  8
0
  2
BLOCK65
 70
     0
 10
0.0
 20
0.0
 30
0.0
  3
BLOCK65
  1

  0
TEXT
  5
719
  8
0
 62
     7
 10
178.82365399999989
 20
22.050034
 30
0.0
 40
3.5
  1
140
 50
270.0
 41
1.4048074877685599
 72
     5
 11
178.82365399999989
 21
12.950034
 31
0.0
  0
LINE
  5
71A
  8
0
 62
     7
 10
95.700012000000001
 20
-52.499968999999993
 30
0.0
 11
178.82365399999989
 21
-52.499968999999993
 31
0.0
  0
LINE
  5
71B
  8
0
 62
     7
 10
95.700012000000001
 20
87.500037999999989
 30
0.0
 11
178.82365399999989
 21
87.500037999999989
 31
0.0
  0
POLYLINE
  5
71C
  8
0
 62
     7
 66
     1
 10
0.0
 20
0.0
 30
0.0
  0
VERTEX
  5
9C5
  8
0
 62
     7
 10
176.306015
 20
-50.568119000000003
 30
0.0
  0
VERTEX
  5
9C6
  8
0
 62
     7
 10
176.823654
 20
-52.499968999999993
 30
0.0
  0
VERTEX
  5
9C7
  8
0
 62
     7
 10
177.34129300000001
 20
-50.568119000000003
 30
0.0
  0
SEQEND
  5
9C8
  8
0
 62
     7
  0
POLYLINE
  5
721
  8
0
 62
     7
 66
     1
 10
0.0
 20
0.0
 30
0.0
  0
VERTEX
  5
9C9
  8
0
 62
     7
 10
177.34129300000001
 20
85.56819200000001
 30
0.0
  0
VERTEX
  5
9CA
  8
0
 62
     7
 10
176.823654
 20
87.500037999999989
 30
0.0
  0
VERTEX
  5
9CB
  8
0
 62
     7
 10
176.306015
 20
85.56819200000001
 30
0.0
  0
SEQEND
  5
9CC
  8
0
 62
     7
  0
LINE
  5
726
  8
0
 62
     7
 10
176.823654
 20
-52.499968999999993
 30
0.0
 11
176.823654
 21
87.500037999999989
 31
0.0
  0
ENDBLK
  5
727
  8
0
  0
BLOCK
  8
0
  2
BLOCK66
 70
     0
 10
0.0
 20
0.0
 30
0.0
  3
BLOCK66
  1

  0
TEXT
  5
729
  8
0
 62
     7
 10
-83.0
 20
-8.0
 30
0.0
 40
3.0
  1
X
 50
180.0
 41
0.9777764444444425
 72
     5
 11
-85.199996999999996
 21
-8.0
 31
0.0
  0
ENDBLK
  5
72A
  8
0
  0
BLOCK
  8
0
  2
BLOCK67
 70
     0
 10
0.0
 20
0.0
 30
0.0
  3
BLOCK67
  1

  0
TEXT
  5
72C
  8
0
 62
     7
 10
86.0
 20
-7.0
 30
0.0
 40
3.0
  1
X
 50
180.0
 41
0.9777764444444425
 72
     5
 11
83.800003000000004
 21
-7.0
 31
0.0
  0
ENDBLK
  5
72D
  8
0
  0
BLOCK
  8
0
  2
BLOCK68
 70
     0
 10
0.0
 20
0.0
 30
0.0
  3
BLOCK68
  1

  0
TEXT
  5
72F
  8
0
 62
     7
 10
5.0
 20
135.0
 30
0.0
 40
3.0
  1
Y
 50
180.0
 41
0.9777777777777778
 72
     5
 11
2.7999999999999989
 21
135.0
 31
0.0
  0
ENDBLK
  5
730
  8
0
  0
BLOCK
  8
0
  2
BLOCK69
 70
     0
 10
0.0
 20
0.0
 30
0.0
  3
BLOCK69
  1

  0
TEXT
  5
732
  8
0
 62
     7
 10
-12.0
 20
113.39672899999999
 30
0.0
 40
3.0
  1
52,5
 50
180.0
 41
1.4876960629295159
 72
     5
 11
-22.44997
 21
113.39672899999999
 31
0.0
  0
ENDBLK
  5
733
  8
0
  0
BLOCK
  8
0
  2
BLOCK70
 70
     0
 10
0.0
 20
0.0
 30
0.0
  3
BLOCK70
  1

  0
TEXT
  5
735
  8
0
 62
     7
 10
-29.499984999999992
 20
-111.107635
 30
0.0
 40
3.0
  1
17,5
 50
180.0
 41
1.6266407931290441
 72
     5
 11
-39.949954999999989
 21
-111.107635
 31
0.0
  0
ENDBLK
  5
736
  8
0
  0
BLOCK
  8
0
  2
BLOCK71
 70
     0
 10
0.0
 20
0.0
 30
0.0
  3
BLOCK71
  1

  0
TEXT
  5
738
  8
0
 62
     7
 10
-68.221076999999994
 20
-11.495056
 30
0.0
 40
3.0
  1
71,75
 50
270.0000347248174
 41
1.548516199592233
 72
     5
 11
-68.221069
 21
-24.695017
 31
0.0
  0
ENDBLK
  5
739
  8
0
  0
BLOCK
  8
0
  2
BLOCK72
 70
     0
 10
0.0
 20
0.0
 30
0.0
  3
BLOCK72
  1

  0
TEXT
  5
73B
  8
0
 62
     7
 10
104.4745939999999
 20
14.25
 30
0.0
 40
3.0
  1
139
 50
270.00005952823722
 41
1.409019097613331
 72
     5
 11
104.474602
 21
6.5500199999999991
 31
0.0
  0
ENDBLK
  5
73C
  8
0
  0
BLOCK
  8
0
  2
BLOCK73
 70
     0
 10
0.0
 20
0.0
 30
0.0
  3
BLOCK73
  1

  0
TEXT
  5
73E
  8
0
 62
     7
 10
-77.029060000000001
 20
72.910888999999997
 30
0.0
 40
3.0
  1
 5,5
 50
170.73232077794191
 41
1.7063221351416531
 72
     5
 11
-87.342620999999994
 21
74.593826000000007
 31
0.0
  0
ENDBLK
  5
73F
  8
0
  0
BLOCK
  8
0
  2
BLOCK74
 70
     0
 10
0.0
 20
0.0
 30
0.0
  3
BLOCK74
  1

  0
TEXT
  5
741
  8
0
 62
     7
 10
-75.449943999999988
 20
72.653198000000003
 30
0.0
 40
3.0
  1
%%c
 50
170.7323468888994
 41
0.9777760003059649
 72
     5
 11
-77.621223000000001
 21
73.007499999999993
 31
0.0
  0
ENDBLK
  5
742
  8
0
  0
BLOCK
  8
0
  2
BLOCK75
 70
     0
 10
0.0
 20
0.0
 30
0.0
  3
BLOCK75
  1

  0
TEXT
  5
744
  8
0
 62
     7
 10
-120.454712
 20
79.996948000000003
 30
0.0
 40
3.0
  1
 - M5
 50
170.73231847880021
 41
1.470869013752119
 72
     5
 11
-133.4823759999999
 21
82.122764999999987
 31
0.0
  0
ENDBLK
  5
745
  8
0
  0
BLOCK
  8
0
  2
BLOCK76
 70
     0
 10
0.0
 20
0.0
 30
0.0
  3
BLOCK76
  1

  0
TEXT
  5
747
  8
0
 62
     7
 10
9.0
 20
-120.0
 30
0.0
 40
3.0
  1
Y
 50
180.0
 41
0.9777777777777778
 72
     5
 11
6.7999999999999989
 21
-120.0
 31
0.0
  0
ENDBLK
  5
748
  8
0
  0
ENDSEC
  0
SECTION
  2
ENTITIES
  0
LINE
  5
25
  8
0
 62
     7
 10
599.87055999999995
 20
554.980186
 30
0.0
 11
711.87055999999995
 21
554.980186
 31
0.0
  0
LINE
  5
26
  8
0
 62
     7
 10
599.87055999999995
 20
666.98018599999989
 30
0.0
 11
711.87055999999995
 21
666.98018599999989
 31
0.0
  0
LINE
  5
27
  8
0
 62
     7
 10
599.87055999999995
 20
666.98018599999989
 30
0.0
 11
599.87055999999995
 21
554.980186
 31
0.0
  0
LINE
  5
28
  8
0
 62
     7
 10
711.87055999999995
 20
666.98018599999989
 30
0.0
 11
711.87055999999995
 21
554.980186
 31
0.0
  0
LINE
  5
29
  8
0
  6
DASHDOT
 62
     7
 10
655.87055999999995
 20
727.35604099999989
 30
0.0
 11
655.87055999999995
 21
490.83302300000003
 31
0.0
  0
CIRCLE
  5
2A
  8
0
 62
     7
 10
615.87055999999995
 20
681.980186
 30
0.0
 40
3.5
  0
CIRCLE
  5
2B
  8
0
 62
     7
 10
695.87055999999995
 20
681.980186
 30
0.0
 40
3.5
  0
CIRCLE
  5
2C
  8
0
 62
     7
 10
695.87055999999995
 20
539.980186
 30
0.0
 40
3.5
  0
CIRCLE
  5
2D
  8
0
 62
     7
 10
615.87055999999995
 20
539.980186
 30
0.0
 40
3.5
  0
POLYLINE
  5
2E
  8
0
 62
     3
 66
     1
 10
0.0
 20
0.0
 30
0.0
  0
VERTEX
  5
7A9
  8
0
 62
     3
 10
584.01257300000009
 20
691.37938700000007
 30
0.0
  0
VERTEX
  5
7AA
  8
0
 62
     3
 10
600.01257299999997
 20
691.37938700000007
 30
0.0
  0
VERTEX
  5
7AB
  8
0
 62
     3
 10
601.01257300000009
 20
693.37938699999995
 30
0.0
  0
VERTEX
  5
7AC
  8
0
 62
     3
 10
602.01257300000009
 20
689.37938699999995
 30
0.0
  0
VERTEX
  5
7AD
  8
0
 62
     3
 10
603.01257299999997
 20
691.37938700000007
 30
0.0
  0
VERTEX
  5
7AE
  8
0
 62
     3
 10
619.01257299999997
 20
691.37938700000007
 30
0.0
  0
VERTEX
  5
7AF
  8
0
 62
     3
 10
620.01257299999997
 20
693.37938699999995
 30
0.0
  0
VERTEX
  5
7B0
  8
0
 62
     3
 10
621.01257300000009
 20
689.37938699999995
 30
0.0
  0
VERTEX
  5
7B1
  8
0
 62
     3
 10
622.01257300000009
 20
691.37938700000007
 30
0.0
  0
VERTEX
  5
7B2
  8
0
 62
     3
 10
638.01257300000009
 20
691.37938700000007
 30
0.0
  0
VERTEX
  5
7B3
  8
0
 62
     3
 10
639.01257300000009
 20
693.37938699999995
 30
0.0
  0
VERTEX
  5
7B4
  8
0
 62
     3
 10
640.01257299999997
 20
689.37938699999995
 30
0.0
  0
VERTEX
  5
7B5
  8
0
 62
     3
 10
641.01257299999997
 20
691.37938700000007
 30
0.0
  0
VERTEX
  5
7B6
  8
0
 62
     3
 10
657.01257299999997
 20
691.37938700000007
 30
0.0
  0
VERTEX
  5
7B7
  8
0
 62
     3
 10
658.01257299999997
 20
693.37938699999995
 30
0.0
  0
VERTEX
  5
7B8
  8
0
 62
     3
 10
659.01257300000009
 20
689.37938699999995
 30
0.0
  0
VERTEX
  5
7B9
  8
0
 62
     3
 10
660.01257300000009
 20
691.37938700000007
 30
0.0
  0
VERTEX
  5
7BA
  8
0
 62
     3
 10
676.01257300000009
 20
691.37938700000007
 30
0.0
  0
VERTEX
  5
7BB
  8
0
 62
     3
 10
677.01257300000009
 20
693.37938699999995
 30
0.0
  0
VERTEX
  5
7BC
  8
0
 62
     3
 10
678.01257299999997
 20
689.37938699999995
 30
0.0
  0
VERTEX
  5
7BD
  8
0
 62
     3
 10
679.01257299999997
 20
691.37938700000007
 30
0.0
  0
VERTEX
  5
7BE
  8
0
 62
     3
 10
695.01257299999997
 20
691.37938700000007
 30
0.0
  0
VERTEX
  5
7BF
  8
0
 62
     3
 10
696.01257300000009
 20
693.37938699999995
 30
0.0
  0
VERTEX
  5
7C0
  8
0
 62
     3
 10
697.01257300000009
 20
689.37938699999995
 30
0.0
  0
VERTEX
  5
7C1
  8
0
 62
     3
 10
698.01257300000009
 20
691.37938700000007
 30
0.0
  0
VERTEX
  5
7C2
  8
0
 62
     3
 10
714.01257300000009
 20
691.37938700000007
 30
0.0
  0
VERTEX
  5
7C3
  8
0
 62
     3
 10
715.01257299999997
 20
693.37938699999995
 30
0.0
  0
VERTEX
  5
7C4
  8
0
 62
     3
 10
716.01257299999997
 20
689.37938699999995
 30
0.0
  0
VERTEX
  5
7C5
  8
0
 62
     3
 10
717.01257300000009
 20
691.37938700000007
 30
0.0
  0
VERTEX
  5
7C6
  8
0
 62
     3
 10
727.22605099999987
 20
691.37938700000007
 30
0.0
  0
SEQEND
  5
7C7
  8
0
 62
     3
  0
POLYLINE
  5
4E
  8
0
 62
     3
 66
     1
 10
0.0
 20
0.0
 30
0.0
  0
VERTEX
  5
7C8
  8
0
 62
     3
 10
584.01257300000009
 20
526.55826599999989
 30
0.0
  0
VERTEX
  5
7C9
  8
0
 62
     3
 10
600.01257299999997
 20
526.55826599999989
 30
0.0
  0
VERTEX
  5
7CA
  8
0
 62
     3
 10
601.01257300000009
 20
528.558266
 30
0.0
  0
VERTEX
  5
7CB
  8
0
 62
     3
 10
602.01257300000009
 20
524.558266
 30
0.0
  0
VERTEX
  5
7CC
  8
0
 62
     3
 10
603.01257299999997
 20
526.55826599999989
 30
0.0
  0
VERTEX
  5
7CD
  8
0
 62
     3
 10
619.01257299999997
 20
526.55826599999989
 30
0.0
  0
VERTEX
  5
7CE
  8
0
 62
     3
 10
620.01257299999997
 20
528.558266
 30
0.0
  0
VERTEX
  5
7CF
  8
0
 62
     3
 10
621.01257300000009
 20
524.558266
 30
0.0
  0
VERTEX
  5
7D0
  8
0
 62
     3
 10
622.01257300000009
 20
526.55826599999989
 30
0.0
  0
VERTEX
  5
7D1
  8
0
 62
     3
 10
638.01257300000009
 20
526.55826599999989
 30
0.0
  0
VERTEX
  5
7D2
  8
0
 62
     3
 10
639.01257300000009
 20
528.558266
 30
0.0
  0
VERTEX
  5
7D3
  8
0
 62
     3
 10
640.01257299999997
 20
524.558266
 30
0.0
  0
VERTEX
  5
7D4
  8
0
 62
     3
 10
641.01257299999997
 20
526.55826599999989
 30
0.0
  0
VERTEX
  5
7D5
  8
0
 62
     3
 10
657.01257299999997
 20
526.55826599999989
 30
0.0
  0
VERTEX
  5
7D6
  8
0
 62
     3
 10
658.01257299999997
 20
528.558266
 30
0.0
  0
VERTEX
  5
7D7
  8
0
 62
     3
 10
659.01257300000009
 20
524.558266
 30
0.0
  0
VERTEX
  5
7D8
  8
0
 62
     3
 10
660.01257300000009
 20
526.55826599999989
 30
0.0
  0
VERTEX
  5
7D9
  8
0
 62
     3
 10
676.01257300000009
 20
526.55826599999989
 30
0.0
  0
VERTEX
  5
7DA
  8
0
 62
     3
 10
677.01257300000009
 20
528.558266
 30
0.0
  0
VERTEX
  5
7DB
  8
0
 62
     3
 10
678.01257299999997
 20
524.558266
 30
0.0
  0
VERTEX
  5
7DC
  8
0
 62
     3
 10
679.01257299999997
 20
526.55826599999989
 30
0.0
  0
VERTEX
  5
7DD
  8
0
 62
     3
 10
695.01257299999997
 20
526.55826599999989
 30
0.0
  0
VERTEX
  5
7DE
  8
0
 62
     3
 10
696.01257300000009
 20
528.558266
 30
0.0
  0
VERTEX
  5
7DF
  8
0
 62
     3
 10
697.01257300000009
 20
524.558266
 30
0.0
  0
VERTEX
  5
7E0
  8
0
 62
     3
 10
698.01257300000009
 20
526.55826599999989
 30
0.0
  0
VERTEX
  5
7E1
  8
0
 62
     3
 10
714.01257300000009
 20
526.55826599999989
 30
0.0
  0
VERTEX
  5
7E2
  8
0
 62
     3
 10
715.01257299999997
 20
528.558266
 30
0.0
  0
VERTEX
  5
7E3
  8
0
 62
     3
 10
716.01257299999997
 20
524.558266
 30
0.0
  0
VERTEX
  5
7E4
  8
0
 62
     3
 10
717.01257300000009
 20
526.55826599999989
 30
0.0
  0
VERTEX
  5
7E5
  8
0
 62
     3
 10
727.22605099999987
 20
526.55826599999989
 30
0.0
  0
SEQEND
  5
7E6
  8
0
 62
     3
  0
POLYLINE
  5
6E
  8
0
 62
     3
 66
     1
 10
0.0
 20
0.0
 30
0.0
  0
VERTEX
  5
7E7
  8
0
 62
     3
 10
727.22605099999987
 20
691.37938700000007
 30
0.0
  0
VERTEX
  5
7E8
  8
0
 62
     3
 10
727.22605099999987
 20
675.37938699999995
 30
0.0
  0
VERTEX
  5
7E9
  8
0
 62
     3
 10
729.22605099999998
 20
674.37938700000007
 30
0.0
  0
VERTEX
  5
7EA
  8
0
 62
     3
 10
725.22605099999998
 20
673.37938699999995
 30
0.0
  0
VERTEX
  5
7EB
  8
0
 62
     3
 10
727.22605099999987
 20
672.37938699999995
 30
0.0
  0
VERTEX
  5
7EC
  8
0
 62
     3
 10
727.22605099999987
 20
656.37938699999995
 30
0.0
  0
VERTEX
  5
7ED
  8
0
 62
     3
 10
729.22605099999998
 20
655.37938699999995
 30
0.0
  0
VERTEX
  5
7EE
  8
0
 62
     3
 10
725.22605099999998
 20
654.37938699999995
 30
0.0
  0
VERTEX
  5
7EF
  8
0
 62
     3
 10
727.22605099999987
 20
653.37938700000007
 30
0.0
  0
VERTEX
  5
7F0
  8
0
 62
     3
 10
727.22605099999987
 20
637.37938699999995
 30
0.0
  0
VERTEX
  5
7F1
  8
0
 62
     3
 10
729.22605099999998
 20
636.37938700000007
 30
0.0
  0
VERTEX
  5
7F2
  8
0
 62
     3
 10
725.22605099999998
 20
635.37938699999995
 30
0.0
  0
VERTEX
  5
7F3
  8
0
 62
     3
 10
727.22605099999987
 20
634.37938699999995
 30
0.0
  0
VERTEX
  5
7F4
  8
0
 62
     3
 10
727.22605099999987
 20
618.37938699999995
 30
0.0
  0
VERTEX
  5
7F5
  8
0
 62
     3
 10
729.22605099999998
 20
617.37938699999995
 30
0.0
  0
VERTEX
  5
7F6
  8
0
 62
     3
 10
725.22605099999998
 20
616.37938700000007
 30
0.0
  0
VERTEX
  5
7F7
  8
0
 62
     3
 10
727.22605099999987
 20
615.37938700000007
 30
0.0
  0
VERTEX
  5
7F8
  8
0
 62
     3
 10
727.22605099999987
 20
599.37938700000007
 30
0.0
  0
VERTEX
  5
7F9
  8
0
 62
     3
 10
729.22605099999998
 20
598.37938699999995
 30
0.0
  0
VERTEX
  5
7FA
  8
0
 62
     3
 10
725.22605099999998
 20
597.37938699999995
 30
0.0
  0
VERTEX
  5
7FB
  8
0
 62
     3
 10
727.22605099999987
 20
596.37938699999995
 30
0.0
  0
VERTEX
  5
7FC
  8
0
 62
     3
 10
727.22605099999987
 20
580.37938699999995
 30
0.0
  0
VERTEX
  5
7FD
  8
0
 62
     3
 10
729.22605099999998
 20
579.37938699999995
 30
0.0
  0
VERTEX
  5
7FE
  8
0
 62
     3
 10
725.22605099999998
 20
578.37938700000007
 30
0.0
  0
VERTEX
  5
7FF
  8
0
 62
     3
 10
727.22605099999987
 20
577.37938699999995
 30
0.0
  0
VERTEX
  5
800
  8
0
 62
     3
 10
727.22605099999987
 20
561.37938700000007
 30
0.0
  0
VERTEX
  5
801
  8
0
 62
     3
 10
729.22605099999998
 20
560.37938699999995
 30
0.0
  0
VERTEX
  5
802
  8
0
 62
     3
 10
725.22605099999998
 20
559.37938699999995
 30
0.0
  0
VERTEX
  5
803
  8
0
 62
     3
 10
727.22605099999987
 20
558.37938699999995
 30
0.0
  0
VERTEX
  5
804
  8
0
 62
     3
 10
727.22605099999987
 20
542.37938699999995
 30
0.0
  0
VERTEX
  5
805
  8
0
 62
     3
 10
729.22605099999998
 20
541.37938700000007
 30
0.0
  0
VERTEX
  5
806
  8
0
 62
     3
 10
725.22605099999998
 20
540.37938699999995
 30
0.0
  0
VERTEX
  5
807
  8
0
 62
     3
 10
727.22605099999987
 20
539.37938699999995
 30
0.0
  0
VERTEX
  5
808
  8
0
 62
     3
 10
727.22605099999987
 20
526.55826599999989
 30
0.0
  0
SEQEND
  5
809
  8
0
 62
     3
  0
POLYLINE
  5
92
  8
0
 62
     3
 66
     1
 10
0.0
 20
0.0
 30
0.0
  0
VERTEX
  5
80A
  8
0
 62
     3
 10
584.01257300000009
 20
691.37938700000007
 30
0.0
  0
VERTEX
  5
80B
  8
0
 62
     3
 10
584.01257300000009
 20
675.37938699999995
 30
0.0
  0
VERTEX
  5
80C
  8
0
 62
     3
 10
586.01257299999997
 20
674.37938700000007
 30
0.0
  0
VERTEX
  5
80D
  8
0
 62
     3
 10
582.01257299999997
 20
673.37938699999995
 30
0.0
  0
VERTEX
  5
80E
  8
0
 62
     3
 10
584.01257300000009
 20
672.37938699999995
 30
0.0
  0
VERTEX
  5
80F
  8
0
 62
     3
 10
584.01257300000009
 20
656.37938699999995
 30
0.0
  0
VERTEX
  5
810
  8
0
 62
     3
 10
586.01257299999997
 20
655.37938699999995
 30
0.0
  0
VERTEX
  5
811
  8
0
 62
     3
 10
582.01257299999997
 20
654.37938699999995
 30
0.0
  0
VERTEX
  5
812
  8
0
 62
     3
 10
584.01257300000009
 20
653.37938700000007
 30
0.0
  0
VERTEX
  5
813
  8
0
 62
     3
 10
584.01257300000009
 20
637.37938699999995
 30
0.0
  0
VERTEX
  5
814
  8
0
 62
     3
 10
586.01257299999997
 20
636.37938700000007
 30
0.0
  0
VERTEX
  5
815
  8
0
 62
     3
 10
582.01257299999997
 20
635.37938699999995
 30
0.0
  0
VERTEX
  5
816
  8
0
 62
     3
 10
584.01257300000009
 20
634.37938699999995
 30
0.0
  0
VERTEX
  5
817
  8
0
 62
     3
 10
584.01257300000009
 20
618.37938699999995
 30
0.0
  0
VERTEX
  5
818
  8
0
 62
     3
 10
586.01257299999997
 20
617.37938699999995
 30
0.0
  0
VERTEX
  5
819
  8
0
 62
     3
 10
582.01257299999997
 20
616.37938700000007
 30
0.0
  0
VERTEX
  5
81A
  8
0
 62
     3
 10
584.01257300000009
 20
615.37938700000007
 30
0.0
  0
VERTEX
  5
81B
  8
0
 62
     3
 10
584.01257300000009
 20
599.37938700000007
 30
0.0
  0
VERTEX
  5
81C
  8
0
 62
     3
 10
586.01257299999997
 20
598.37938699999995
 30
0.0
  0
VERTEX
  5
81D
  8
0
 62
     3
 10
582.01257299999997
 20
597.37938699999995
 30
0.0
  0
VERTEX
  5
81E
  8
0
 62
     3
 10
584.01257300000009
 20
596.37938699999995
 30
0.0
  0
VERTEX
  5
81F
  8
0
 62
     3
 10
584.01257300000009
 20
580.37938699999995
 30
0.0
  0
VERTEX
  5
820
  8
0
 62
     3
 10
586.01257299999997
 20
579.37938699999995
 30
0.0
  0
VERTEX
  5
821
  8
0
 62
     3
 10
582.01257299999997
 20
578.37938700000007
 30
0.0
  0
VERTEX
  5
822
  8
0
 62
     3
 10
584.01257300000009
 20
577.37938699999995
 30
0.0
  0
VERTEX
  5
823
  8
0
 62
     3
 10
584.01257300000009
 20
561.37938700000007
 30
0.0
  0
VERTEX
  5
824
  8
0
 62
     3
 10
586.01257299999997
 20
560.37938699999995
 30
0.0
  0
VERTEX
  5
825
  8
0
 62
     3
 10
582.01257299999997
 20
559.37938699999995
 30
0.0
  0
VERTEX
  5
826
  8
0
 62
     3
 10
584.01257300000009
 20
558.37938699999995
 30
0.0
  0
VERTEX
  5
827
  8
0
 62
     3
 10
584.01257300000009
 20
542.37938699999995
 30
0.0
  0
VERTEX
  5
828
  8
0
 62
     3
 10
586.01257299999997
 20
541.37938700000007
 30
0.0
  0
VERTEX
  5
829
  8
0
 62
     3
 10
582.01257299999997
 20
540.37938699999995
 30
0.0
  0
VERTEX
  5
82A
  8
0
 62
     3
 10
584.01257300000009
 20
539.37938699999995
 30
0.0
  0
VERTEX
  5
82B
  8
0
 62
     3
 10
584.01257300000009
 20
526.55826599999989
 30
0.0
  0
SEQEND
  5
82C
  8
0
 62
     3
  0
LINE
  5
B6
  8
0
  6
DASHDOT
 62
     7
 10
695.87055999999995
 20
688.480186
 30
0.0
 11
695.87055999999995
 21
675.480186
 31
0.0
  0
LINE
  5
B7
  8
0
  6
DASHDOT
 62
     7
 10
689.37055999999995
 20
681.980186
 30
0.0
 11
702.37055999999995
 21
681.980186
 31
0.0
  0
LINE
  5
B8
  8
0
  6
DASHDOT
 62
     7
 10
615.87055999999995
 20
688.480186
 30
0.0
 11
615.87055999999995
 21
675.480186
 31
0.0
  0
LINE
  5
B9
  8
0
  6
DASHDOT
 62
     7
 10
609.37055999999995
 20
681.980186
 30
0.0
 11
622.37055999999995
 21
681.980186
 31
0.0
  0
LINE
  5
BA
  8
0
  6
DASHDOT
 62
     7
 10
615.87055999999995
 20
546.480186
 30
0.0
 11
615.87055999999995
 21
533.48018599999989
 31
0.0
  0
LINE
  5
BB
  8
0
  6
DASHDOT
 62
     7
 10
609.37055999999995
 20
539.980186
 30
0.0
 11
622.37055999999995
 21
539.980186
 31
0.0
  0
LINE
  5
BC
  8
0
  6
DASHDOT
 62
     7
 10
695.87055999999995
 20
546.480186
 30
0.0
 11
695.87055999999995
 21
533.48018599999989
 31
0.0
  0
LINE
  5
BD
  8
0
  6
DASHDOT
 62
     7
 10
689.37055999999995
 20
539.980186
 30
0.0
 11
702.37055999999995
 21
539.980186
 31
0.0
  0
CIRCLE
  5
BE
  8
0
 62
     7
 10
590.54510500000004
 20
686.09318499999995
 30
0.0
 40
0.25
  0
LINE
  5
BF
  8
0
  6
DASHDOT
 62
     7
 10
554.40712699999995
 20
610.980186
 30
0.0
 11
766.39173099999994
 21
610.980186
 31
0.0
  0
LINE
  5
C0
  8
0
 62
     7
 10
533.27680999999995
 20
666.98018599999989
 30
0.0
 11
531.19306900000004
 21
655.16249800000003
 31
0.0
  0
LINE
  5
C1
  8
0
 62
     7
 10
533.27680999999995
 20
666.98018599999989
 30
0.0
 11
535.36061099999995
 21
655.16249800000003
 31
0.0
  0
LINE
  5
C2
  8
0
 62
     7
 10
533.27680999999995
 20
554.980186
 30
0.0
 11
535.36061099999995
 21
566.79788199999996
 31
0.0
  0
LINE
  5
C3
  8
0
 62
     7
 10
533.27680999999995
 20
554.980186
 30
0.0
 11
531.19306900000004
 21
566.79788199999996
 31
0.0
  0
LINE
  5
C4
  8
0
 62
     7
 10
533.27680999999995
 20
666.98018599999989
 30
0.0
 11
533.27680999999995
 21
554.980186
 31
0.0
  0
LINE
  5
C5
  8
0
 62
     7
 10
525.27680999999995
 20
666.98018599999989
 30
0.0
 11
599.87055999999995
 21
666.9801940000001
 31
0.0
  0
LINE
  5
C6
  8
0
 62
     7
 10
525.27680999999995
 20
554.980186
 30
0.0
 11
599.87055999999995
 21
554.98018999999999
 31
0.0
  0
LINE
  5
C7
  8
0
 62
     7
 10
495.78761299999991
 20
681.980186
 30
0.0
 11
493.70381200000003
 21
670.16249800000003
 31
0.0
  0
LINE
  5
C8
  8
0
 62
     7
 10
495.78761299999991
 20
681.980186
 30
0.0
 11
497.871353
 21
670.16249800000003
 31
0.0
  0
LINE
  5
C9
  8
0
 62
     7
 10
495.78761299999991
 20
539.980186
 30
0.0
 11
497.871353
 21
551.79788199999996
 31
0.0
  0
LINE
  5
CA
  8
0
 62
     7
 10
495.78761299999991
 20
539.980186
 30
0.0
 11
493.70381200000003
 21
551.79788199999996
 31
0.0
  0
LINE
  5
CB
  8
0
 62
     7
 10
495.78761299999991
 20
681.980186
 30
0.0
 11
495.78761299999991
 21
539.980186
 31
0.0
  0
LINE
  5
CC
  8
0
 62
     7
 10
487.78761299999991
 20
681.980186
 30
0.0
 11
609.37055999999995
 21
681.9801940000001
 31
0.0
  0
LINE
  5
CD
  8
0
 62
     7
 10
487.78761299999991
 20
539.980186
 30
0.0
 11
609.37055999999995
 21
539.9801940000001
 31
0.0
  0
LINE
  5
CE
  8
0
 62
     7
 10
615.87055999999995
 20
730.76415999999995
 30
0.0
 11
627.68824800000004
 21
728.68037400000003
 31
0.0
  0
LINE
  5
CF
  8
0
 62
     7
 10
615.87055999999995
 20
730.76415999999995
 30
0.0
 11
627.68824800000004
 21
732.84793099999979
 31
0.0
  0
LINE
  5
D0
  8
0
 62
     7
 10
695.87055999999995
 20
730.76415999999995
 30
0.0
 11
684.05287199999998
 21
732.84793099999979
 31
0.0
  0
LINE
  5
D1
  8
0
 62
     7
 10
695.87055999999995
 20
730.76415999999995
 30
0.0
 11
684.05287199999998
 21
728.68037400000003
 31
0.0
  0
LINE
  5
D2
  8
0
 62
     7
 10
615.87055999999995
 20
730.76415999999995
 30
0.0
 11
695.87055999999995
 21
730.76415999999995
 31
0.0
  0
LINE
  5
D3
  8
0
 62
     7
 10
615.87055999999995
 20
738.76415999999995
 30
0.0
 11
615.87055999999995
 21
688.48019399999998
 31
0.0
  0
LINE
  5
D4
  8
0
 62
     7
 10
695.87055999999995
 20
738.76415999999995
 30
0.0
 11
695.87055999999995
 21
688.48019399999998
 31
0.0
  0
LINE
  5
D5
  8
0
 62
     7
 10
599.87055999999995
 20
763.482033
 30
0.0
 11
611.68824800000004
 21
761.39824699999986
 31
0.0
  0
LINE
  5
D6
  8
0
 62
     7
 10
599.87055999999995
 20
763.482033
 30
0.0
 11
611.68824800000004
 21
765.56580399999984
 31
0.0
  0
LINE
  5
D7
  8
0
 62
     7
 10
711.87055999999995
 20
763.482033
 30
0.0
 11
700.05287199999998
 21
765.56580399999984
 31
0.0
  0
LINE
  5
D8
  8
0
 62
     7
 10
711.87055999999995
 20
763.482033
 30
0.0
 11
700.05287199999998
 21
761.39824699999986
 31
0.0
  0
LINE
  5
D9
  8
0
 62
     7
 10
599.87055999999995
 20
763.482033
 30
0.0
 11
711.87055999999995
 21
763.482033
 31
0.0
  0
LINE
  5
DA
  8
0
 62
     7
 10
599.87055999999995
 20
771.482033
 30
0.0
 11
599.87055999999995
 21
666.98020199999985
 31
0.0
  0
LINE
  5
DB
  8
0
 62
     7
 10
711.87055999999995
 20
771.482033
 30
0.0
 11
711.87055999999995
 21
666.98019799999997
 31
0.0
  0
LINE
  5
DC
  8
0
 62
     7
 10
613.08302300000003
 20
537.86365499999999
 30
0.0
 11
602.41090399999985
 21
532.37680799999987
 31
0.0
  0
LINE
  5
DD
  8
0
 62
     7
 10
613.08302300000003
 20
537.86365499999999
 30
0.0
 11
604.93110699999988
 21
529.05761699999994
 31
0.0
  0
LINE
  5
DE
  8
0
 62
     7
 10
618.658096
 20
542.0967179999999
 30
0.0
 11
629.33021499999995
 21
547.583572
 31
0.0
  0
LINE
  5
DF
  8
0
 62
     7
 10
618.658096
 20
542.0967179999999
 30
0.0
 11
626.81001300000003
 21
550.90275599999995
 31
0.0
  0
LINE
  5
E0
  8
0
 62
     7
 10
618.658096
 20
542.0967179999999
 30
0.0
 11
544.82905599999992
 21
486.03922299999999
 31
0.0
  0
LINE
  5
E1
  8
0
 62
     7
 10
111.21528600000001
 20
718.07938399999989
 30
0.0
 11
111.21528600000001
 21
718.08527400000003
 31
0.0
  0
LINE
  5
E2
  8
0
 62
     7
 10
37.215285999999999
 20
718.07938399999989
 30
0.0
 11
37.215285999999999
 21
718.08527400000003
 31
0.0
  0
LINE
  5
E3
  8
0
 62
   211
 10
111.21528600000001
 20
698.23017100000004
 30
0.0
 11
37.215285999999999
 21
698.23017100000004
 31
0.0
  0
LINE
  5
E4
  8
0
 62
    31
 10
75.215285999999992
 20
528.230186
 30
0.0
 11
52.215285999999999
 21
528.230186
 31
0.0
  0
LINE
  5
E5
  8
0
 62
    31
 10
75.215285999999992
 20
527.71657600000003
 30
0.0
 11
72.302452000000002
 21
528.230186
 31
0.0
  0
LINE
  5
E6
  8
0
 62
     7
 10
41.9375
 20
472.64255500000002
 30
0.0
 11
23.806502999999999
 21
473.38259499999998
 31
0.0
  0
LINE
  5
E7
  8
0
 62
   230
 10
134.21528599999999
 20
528.66094999999984
 30
0.0
 11
134.21528599999999
 21
552.98022800000001
 31
0.0
  0
POLYLINE
  5
E8
  8
0
 62
     3
 66
     1
 10
0.0
 20
0.0
 30
0.0
  0
VERTEX
  5
82D
  8
0
 62
     3
 10
100.021084
 20
528.23020199999985
 30
0.0
  0
VERTEX
  5
82E
  8
0
 62
     3
 10
98.864315000000005
 20
544.18833199999995
 30
0.0
  0
VERTEX
  5
82F
  8
0
 62
     3
 10
96.797253000000012
 20
545.04111900000009
 30
0.0
  0
VERTEX
  5
830
  8
0
 62
     3
 10
100.7144849999999
 20
546.32769399999995
 30
0.0
  0
VERTEX
  5
831
  8
0
 62
     3
 10
98.647423000000003
 20
547.18048099999999
 30
0.0
  0
VERTEX
  5
832
  8
0
 62
     3
 10
98.101378999999994
 20
554.71339399999999
 30
0.0
  0
SEQEND
  5
833
  8
0
 62
     3
  0
LINE
  5
F0
  8
0
 62
     7
 10
109.21528600000001
 20
531.03020100000003
 30
0.0
 11
99.818118999999996
 21
531.03020100000003
 31
0.0
  0
LINE
  5
F1
  8
0
 62
     7
 10
37.215285999999999
 20
528.23020199999985
 30
0.0
 11
37.215285999999999
 21
568.52442199999984
 31
0.0
  0
LINE
  5
F2
  8
0
 62
     7
 10
37.215285999999999
 20
568.52439100000004
 30
0.0
 11
37.215285999999999
 21
698.23017100000004
 31
0.0
  0
LINE
  5
F3
  8
0
  6
DASHDOT
 62
     7
 10
35.215285999999992
 20
472.91693099999992
 30
0.0
 11
35.215285999999992
 21
706.72657000000004
 31
0.0
  0
LINE
  5
F4
  8
0
 62
     7
 10
35.215285999999992
 20
687.55979200000002
 30
0.0
 11
35.215285999999992
 21
687.73015599999985
 31
0.0
  0
LINE
  5
F5
  8
0
 62
     7
 10
105.7152819999999
 20
627.23016399999995
 30
0.0
 11
105.71526299999999
 21
635.480186
 31
0.0
  0
LINE
  5
F6
  8
0
 62
     7
 10
108.2152269999999
 20
681.730186
 30
0.0
 11
108.92234999999989
 21
682.02307900000005
 31
0.0
  0
LINE
  5
F7
  8
0
 62
     7
 10
108.922363
 20
682.02304800000002
 30
0.0
 11
109.215256
 21
682.73015599999985
 31
0.0
  0
LINE
  5
F8
  8
0
 62
     7
 10
105.7152709999999
 20
674.730186
 30
0.0
 11
105.71528599999991
 21
681.730186
 31
0.0
  0
LINE
  5
F9
  8
0
 62
     7
 10
108.215256
 20
681.730186
 30
0.0
 11
105.71528599999991
 21
681.730186
 31
0.0
  0
LINE
  5
FA
  8
0
 62
     7
 10
105.7152709999999
 20
635.480186
 30
0.0
 11
105.7152709999999
 21
674.730186
 31
0.0
  0
LINE
  5
FB
  8
0
 62
     7
 10
101.21528600000001
 20
584.73018599999989
 30
0.0
 11
101.21528600000001
 21
625.230186
 31
0.0
  0
LINE
  5
FC
  8
0
 62
     7
 10
101.2153169999999
 20
625.23023999999987
 30
0.0
 11
101.483261
 21
626.23023999999998
 31
0.0
  0
LINE
  5
FD
  8
0
 62
     7
 10
101.4832949999999
 20
626.23027799999988
 30
0.0
 11
102.21533599999989
 21
626.96233399999994
 31
0.0
  0
LINE
  5
FE
  8
0
 62
     7
 10
102.2152329999999
 20
626.96221899999989
 30
0.0
 11
103.215248
 21
627.23016399999995
 31
0.0
  0
LINE
  5
FF
  8
0
 62
     7
 10
109.21528600000001
 20
584.73018599999989
 30
0.0
 11
101.21528600000001
 21
584.73018599999989
 31
0.0
  0
LINE
  5
100
  8
0
 62
     7
 10
109.215244
 20
569.73017100000004
 30
0.0
 11
108.21516799999991
 21
570.73017100000004
 31
0.0
  0
LINE
  5
101
  8
0
 62
     7
 10
108.2151909999999
 20
581.7301940000001
 30
0.0
 11
109.215282
 21
582.73019399999998
 31
0.0
  0
LINE
  5
102
  8
0
 62
     7
 10
108.21517799999999
 20
581.73015599999985
 30
0.0
 11
45.447371999999987
 21
581.73015599999985
 31
0.0
  0
LINE
  5
103
  8
0
 62
     7
 10
108.2151929999999
 20
570.730186
 30
0.0
 11
45.447326999999987
 21
570.730186
 31
0.0
  0
LINE
  5
104
  8
0
 62
     7
 10
45.447364999999998
 20
581.73014099999989
 30
0.0
 11
41.715279000000002
 21
582.73015599999985
 31
0.0
  0
LINE
  5
105
  8
0
 62
     7
 10
41.715316999999999
 20
582.73014799999999
 30
0.0
 11
38.215278999999988
 21
583.66798399999993
 31
0.0
  0
LINE
  5
106
  8
0
 62
     7
 10
37.215285999999999
 20
568.52442199999984
 30
0.0
 11
45.447326999999987
 21
570.730186
 31
0.0
  0
LINE
  5
107
  8
0
 62
     7
 10
37.215302000000001
 20
586.02449000000001
 30
0.0
 11
38.215294
 21
586.29243499999995
 31
0.0
  0
LINE
  5
108
  8
0
 62
     7
 10
41.215285999999999
 20
562.23017100000004
 30
0.0
 11
37.215285999999999
 21
562.23017100000004
 31
0.0
  0
LINE
  5
109
  8
0
 62
     7
 10
41.215285999999999
 20
554.71339399999999
 30
0.0
 11
41.215285999999999
 21
562.23017100000004
 31
0.0
  0
LINE
  5
10A
  8
0
 62
     7
 10
38.215285999999999
 20
568.79235099999994
 30
0.0
 11
38.215285999999999
 21
613.23017100000004
 31
0.0
  0
LINE
  5
10B
  8
0
 62
     7
 10
41.715285999999999
 20
582.730186
 30
0.0
 11
41.715285999999999
 21
607.730186
 31
0.0
  0
LINE
  5
10C
  8
0
 62
     7
 10
40.215285999999992
 20
613.23017100000004
 30
0.0
 11
37.215285999999999
 21
613.23017100000004
 31
0.0
  0
LINE
  5
10D
  8
0
 62
     7
 10
40.965294
 20
613.02920499999993
 30
0.0
 11
40.215294
 21
613.23016399999995
 31
0.0
  0
LINE
  5
10E
  8
0
 62
     7
 10
40.965294
 20
613.02920499999993
 30
0.0
 11
40.215294
 21
613.23016399999995
 31
0.0
  0
LINE
  5
10F
  8
0
 62
     7
 10
41.514328000000013
 20
612.48015599999985
 30
0.0
 11
40.965285999999999
 21
613.02919799999995
 31
0.0
  0
LINE
  5
110
  8
0
 62
     7
 10
41.715271000000001
 20
611.730141
 30
0.0
 11
41.514313000000001
 21
612.48014099999989
 31
0.0
  0
LINE
  5
111
  8
0
 62
     7
 10
41.715302000000001
 20
607.73017100000004
 30
0.0
 11
41.715302000000001
 21
611.73015599999985
 31
0.0
  0
LINE
  5
112
  8
0
 62
     7
 10
41.514335999999993
 20
606.98016399999995
 30
0.0
 11
41.609557999999993
 21
607.33554100000003
 31
0.0
  0
LINE
  5
113
  8
0
 62
     7
 10
41.609549999999999
 20
607.33553300000005
 30
0.0
 11
41.715293999999993
 21
607.73017100000004
 31
0.0
  0
LINE
  5
114
  8
0
 62
     7
 10
40.965285999999999
 20
606.43109100000004
 30
0.0
 11
41.514328000000013
 21
606.98013300000002
 31
0.0
  0
LINE
  5
115
  8
0
 62
     7
 10
40.215271000000001
 20
606.2301480000001
 30
0.0
 11
40.965271000000001
 21
606.431107
 31
0.0
  0
LINE
  5
116
  8
0
 62
     7
 10
40.215285999999992
 20
606.23017100000004
 30
0.0
 11
38.215285999999999
 21
606.23017100000004
 31
0.0
  0
LINE
  5
117
  8
0
 62
     7
 10
37.215285999999999
 20
538.73017100000004
 30
0.0
 11
35.215285999999992
 21
538.73017100000004
 31
0.0
  0
LINE
  5
118
  8
0
 62
     7
 10
37.215285999999999
 20
687.73015599999985
 30
0.0
 11
35.215285999999992
 21
687.73015599999985
 31
0.0
  0
LINE
  5
119
  8
0
 62
     7
 10
37.215285999999999
 20
677.86180899999999
 30
0.0
 11
35.215285999999992
 21
677.86180899999999
 31
0.0
  0
LINE
  5
11A
  8
0
 62
     7
 10
44.514296999999999
 20
570.48017900000002
 30
0.0
 11
41.715263
 21
571.23017900000002
 31
0.0
  0
LINE
  5
11B
  8
0
 62
     7
 10
41.715255999999989
 20
571.230186
 30
0.0
 11
41.715255999999989
 21
581.23018599999989
 31
0.0
  0
LINE
  5
11C
  8
0
 62
     7
 10
41.715255999999989
 20
581.23017100000004
 30
0.0
 11
44.514313000000001
 21
581.98017100000004
 31
0.0
  0
LINE
  5
11D
  8
0
 62
     7
 10
37.215285999999999
 20
548.51479299999994
 30
0.0
 11
35.215285999999992
 21
548.51479299999994
 31
0.0
  0
LINE
  5
11E
  8
0
 62
     7
 10
37.215285999999999
 20
548.73017100000004
 30
0.0
 11
35.215285999999992
 21
548.73017100000004
 31
0.0
  0
LINE
  5
11F
  8
0
 62
     7
 10
41.514335999999993
 20
606.45087399999989
 30
0.0
 11
41.715293999999993
 21
607.33554800000002
 31
0.0
  0
LINE
  5
120
  8
0
 62
     7
 10
41.715285999999999
 20
607.33554800000002
 30
0.0
 11
41.609543000000002
 21
607.33554800000002
 31
0.0
  0
LINE
  5
121
  8
0
 62
     7
 10
41.581305999999991
 20
593.23016399999995
 30
0.0
 11
41.715279000000002
 21
593.32961999999998
 31
0.0
  0
LINE
  5
122
  8
0
 62
     7
 10
41.581321999999993
 20
593.23012500000004
 30
0.0
 11
41.514328000000013
 21
593.279854
 31
0.0
  0
LINE
  5
123
  8
0
 62
     7
 10
41.715285999999999
 20
603.230186
 30
0.0
 11
41.514319999999991
 21
603.230186
 31
0.0
  0
LINE
  5
124
  8
0
 62
     7
 10
41.514319999999991
 20
597.18039699999986
 30
0.0
 11
41.581305999999991
 21
597.23012500000004
 31
0.0
  0
LINE
  5
125
  8
0
 62
     7
 10
41.715285999999999
 20
597.13069900000005
 30
0.0
 11
41.581313999999999
 21
597.23015599999997
 31
0.0
  0
LINE
  5
126
  8
0
 62
     7
 10
41.623488999999999
 20
604.95225500000004
 30
0.0
 11
41.514319999999991
 21
605.56202699999994
 31
0.0
  0
LINE
  5
127
  8
0
 62
     7
 10
41.715285999999999
 20
603.230186
 30
0.0
 11
41.623497
 21
604.95226300000002
 31
0.0
  0
LINE
  5
128
  8
0
 62
     7
 10
41.514319999999991
 20
593.27988400000004
 30
0.0
 11
40.998961999999992
 21
593.38239299999987
 31
0.0
  0
LINE
  5
129
  8
0
 62
     7
 10
40.998961999999992
 20
593.38240099999985
 30
0.0
 11
40.965285999999999
 21
593.40490699999987
 31
0.0
  0
LINE
  5
12A
  8
0
 62
     7
 10
40.965271000000001
 20
597.05541200000005
 30
0.0
 11
40.998946999999987
 21
597.07791899999995
 31
0.0
  0
LINE
  5
12B
  8
0
 62
     7
 10
40.998955000000002
 20
597.07791100000009
 30
0.0
 11
41.514313000000001
 21
597.18042000000003
 31
0.0
  0
LINE
  5
12C
  8
0
 62
     7
 10
41.514319999999991
 20
603.230186
 30
0.0
 11
40.965285999999999
 21
603.230186
 31
0.0
  0
LINE
  5
12D
  8
0
 62
     7
 10
40.965278999999988
 20
593.40489200000002
 30
0.0
 11
40.215278999999988
 21
593.53916900000002
 31
0.0
  0
LINE
  5
12E
  8
0
 62
     7
 10
40.215278999999988
 20
596.92113499999994
 30
0.0
 11
40.965278999999988
 21
597.05541200000005
 31
0.0
  0
LINE
  5
12F
  8
0
 62
     7
 10
40.965285999999999
 20
603.230186
 30
0.0
 11
40.215285999999992
 21
603.230186
 31
0.0
  0
LINE
  5
130
  8
0
 62
     7
 10
40.215285999999992
 20
596.92115000000001
 30
0.0
 11
38.215285999999999
 21
596.92115000000001
 31
0.0
  0
LINE
  5
131
  8
0
 62
     7
 10
40.215285999999992
 20
603.230186
 30
0.0
 11
38.215285999999999
 21
603.230186
 31
0.0
  0
LINE
  5
132
  8
0
 62
     7
 10
40.215285999999992
 20
593.53919199999984
 30
0.0
 11
38.215285999999999
 21
593.53919199999984
 31
0.0
  0
LINE
  5
133
  8
0
 62
     3
 10
134.21528599999999
 20
698.23018599999989
 30
0.0
 11
37.215285999999999
 21
698.23018599999989
 31
0.0
  0
LINE
  5
134
  8
0
 62
     3
 10
131.41528299999999
 20
695.43019900000002
 30
0.0
 11
102.7516819999999
 21
695.43019900000002
 31
0.0
  0
LINE
  5
135
  8
0
 62
     3
 10
131.41528299999999
 20
531.03020100000003
 30
0.0
 11
109.21528600000001
 21
531.03020100000003
 31
0.0
  0
LINE
  5
136
  8
0
 62
     3
 10
134.21528599999999
 20
528.23020199999985
 30
0.0
 11
37.215285999999999
 21
528.23020199999985
 31
0.0
  0
LINE
  5
137
  8
0
 62
     3
 10
109.21528600000001
 20
528.23020199999985
 30
0.0
 11
109.21528600000001
 21
570.48018599999989
 31
0.0
  0
LINE
  5
138
  8
0
 62
     3
 10
109.21528600000001
 20
581.98017100000004
 30
0.0
 11
109.21528600000001
 21
584.73024699999985
 31
0.0
  0
LINE
  5
139
  8
0
 62
     3
 10
109.21528600000001
 20
682.730232
 30
0.0
 11
109.21528600000001
 21
698.23018599999989
 31
0.0
  0
LINE
  5
13A
  8
0
 62
     3
 10
138.71528599999999
 20
626.17905399999995
 30
0.0
 11
138.71528599999999
 21
635.72986600000002
 31
0.0
  0
LINE
  5
13B
  8
0
 62
     3
 10
138.71527800000001
 20
568.72988899999996
 30
0.0
 11
138.71523199999999
 21
575.28060899999991
 31
0.0
  0
LINE
  5
13C
  8
0
 62
     3
 10
134.21528599999999
 20
673.980186
 30
0.0
 11
134.21528599999999
 21
698.23018599999989
 31
0.0
  0
LINE
  5
13D
  8
0
 62
     3
 10
134.21528599999999
 20
681.98020199999996
 30
0.0
 11
131.41528299999999
 21
681.98020199999996
 31
0.0
  0
LINE
  5
13E
  8
0
 62
     3
 10
134.21528599999999
 20
544.48020199999996
 30
0.0
 11
131.41528299999999
 21
544.48020199999996
 31
0.0
  0
LINE
  5
13F
  8
0
 62
     3
 10
131.41528299999999
 20
531.03020500000002
 30
0.0
 11
131.41528299999999
 21
552.98020599999995
 31
0.0
  0
LINE
  5
140
  8
0
 62
     3
 10
131.41528
 20
581.980186
 30
0.0
 11
109.215282
 21
581.980186
 31
0.0
  0
LINE
  5
141
  8
0
 62
     3
 10
131.41528099999991
 20
570.48018599999989
 30
0.0
 11
109.215284
 21
570.48018599999989
 31
0.0
  0
LINE
  5
142
  8
0
 62
     1
 10
136.71528499999999
 20
673.980186
 30
0.0
 11
131.41528299999999
 21
673.980186
 31
0.0
  0
LINE
  5
143
  8
0
 62
     1
 10
140.67235799999989
 20
663.33380899999986
 30
0.0
 11
140.6420389999999
 21
663.40702099999987
 31
0.0
  0
LINE
  5
144
  8
0
 62
     1
 10
140.6420719999999
 20
663.40694400000007
 30
0.0
 11
140.46529599999991
 21
663.48015599999985
 31
0.0
  0
LINE
  5
145
  8
0
 62
     1
 10
134.21528599999999
 20
552.98020199999985
 30
0.0
 11
133.71528599999999
 21
552.98020199999985
 31
0.0
  0
LINE
  5
146
  8
0
 62
     1
 10
136.71528499999999
 20
552.98022800000001
 30
0.0
 11
131.41528299999999
 21
552.98022800000001
 31
0.0
  0
LINE
  5
147
  8
0
 62
     2
 10
147.71659700000001
 20
558.980186
 30
0.0
 11
147.71659700000001
 21
560.980186
 31
0.0
  0
LINE
  5
148
  8
0
 62
     2
 10
138.71659700000001
 20
558.48018599999989
 30
0.0
 11
138.71659700000001
 21
663.480186
 31
0.0
  0
LINE
  5
149
  8
0
 62
     2
 10
142.21527699999999
 20
663.480186
 30
0.0
 11
136.71528499999999
 21
663.480186
 31
0.0
  0
LINE
  5
14A
  8
0
 62
     2
 10
142.21527699999999
 20
558.48018599999989
 30
0.0
 11
136.71528499999999
 21
558.48018599999989
 31
0.0
  0
LINE
  5
14B
  8
0
 62
     2
 10
147.71639400000001
 20
590.98016399999995
 30
0.0
 11
147.7164479999999
 21
610.48016399999995
 31
0.0
  0
LINE
  5
14C
  8
0
 62
     7
 10
105.715279
 20
627.23016399999995
 30
0.0
 11
103.215248
 21
627.23016399999995
 31
0.0
  0
LINE
  5
14D
  8
0
 62
     7
 10
136.71528499999999
 20
663.480186
 30
0.0
 11
136.71528499999999
 21
673.980186
 31
0.0
  0
LINE
  5
14E
  8
0
 62
     7
 10
136.71528499999999
 20
552.98020199999985
 30
0.0
 11
136.71528499999999
 21
558.48018599999989
 31
0.0
  0
LINE
  5
14F
  8
0
 62
     3
 10
131.41528299999999
 20
673.980186
 30
0.0
 11
131.41528299999999
 21
695.43019900000002
 31
0.0
  0
LINE
  5
150
  8
0
 62
     3
 10
131.41528299999999
 20
552.98020599999995
 30
0.0
 11
131.41528299999999
 21
673.980186
 31
0.0
  0
ARC
  5
151
  8
0
 62
     7
 10
168.3913269999999
 20
588.93630199999996
 30
0.0
 40
1.0
 50
348.62360999999993
 51
76.688818000000012
  0
ARC
  5
152
  8
0
 62
     7
 10
167.19458399999999
 20
582.98848699999985
 30
0.0
 40
1.000000999999999
 50
260.59401500000001
 51
348.62360999999993
  0
LINE
  5
153
  8
0
  6
DASHDOT
 62
     7
 10
183.191914
 20
582.82765199999994
 30
0.0
 11
133.07522199999991
 21
592.91146900000001
 31
0.0
  0
LINE
  5
154
  8
0
 62
     7
 10
168.621565
 20
589.90943900000002
 30
0.0
 11
147.71640500000001
 21
594.85551499999997
 31
0.0
  0
LINE
  5
155
  8
0
 62
     7
 10
168.174938
 20
582.79122900000004
 30
0.0
 11
169.371679
 21
588.7390519999999
 31
0.0
  0
LINE
  5
156
  8
0
 62
     7
 10
167.03115700000001
 20
582.00193000000002
 30
0.0
 11
147.71645499999991
 21
585.20152999999993
 31
0.0
  0
LINE
  5
157
  8
0
  6
DASHDOT
 62
     7
 10
32.215285999999999
 20
473.03937899999988
 30
0.0
 11
32.215285999999999
 21
707.13565800000003
 31
0.0
  0
LINE
  5
158
  8
0
 62
     7
 10
72.114578000000009
 20
674.730186
 30
0.0
 11
60.114265000000003
 21
674.730186
 31
0.0
  0
LINE
  5
159
  8
0
 62
     7
 10
71.814079000000007
 20
672.23018599999989
 30
0.0
 11
59.545418000000012
 21
672.23018599999989
 31
0.0
  0
LINE
  5
15A
  8
0
 62
     7
 10
46.215285999999999
 20
668.16463499999998
 30
0.0
 11
46.215285999999999
 21
672.23018599999989
 31
0.0
  0
LINE
  5
15B
  8
0
 62
     7
 10
50.215285999999992
 20
668.16463499999998
 30
0.0
 11
50.215285999999992
 21
672.23018599999989
 31
0.0
  0
LINE
  5
15C
  8
0
 62
     7
 10
60.215285999999992
 20
672.23018599999989
 30
0.0
 11
60.215285999999992
 21
674.730186
 31
0.0
  0
LINE
  5
15D
  8
0
 62
     7
 10
52.663733999999991
 20
672.23018599999989
 30
0.0
 11
46.215285999999999
 21
672.23018599999989
 31
0.0
  0
POLYLINE
  5
15E
  8
0
 62
     3
 66
     1
 10
0.0
 20
0.0
 30
0.0
  0
VERTEX
  5
834
  8
0
 62
     3
 10
72.453232
 20
668.16463499999998
 30
0.0
  0
VERTEX
  5
835
  8
0
 62
     3
 10
56.453231999999993
 20
668.16463499999998
 30
0.0
  0
VERTEX
  5
836
  8
0
 62
     3
 10
55.453231999999993
 20
666.16463499999986
 30
0.0
  0
VERTEX
  5
837
  8
0
 62
     3
 10
54.453231999999993
 20
670.16463499999986
 30
0.0
  0
VERTEX
  5
838
  8
0
 62
     3
 10
53.453231999999993
 20
668.16463499999998
 30
0.0
  0
VERTEX
  5
839
  8
0
 62
     3
 10
37.453232
 20
668.16463499999998
 30
0.0
  0
VERTEX
  5
83A
  8
0
 62
     3
 10
36.453231999999993
 20
666.16463499999986
 30
0.0
  0
VERTEX
  5
83B
  8
0
 62
     3
 10
35.453232
 20
670.16463499999986
 30
0.0
  0
VERTEX
  5
83C
  8
0
 62
     3
 10
34.453232
 20
668.16463499999998
 30
0.0
  0
VERTEX
  5
83D
  8
0
 62
     3
 10
29.986443000000001
 20
668.16463499999998
 30
0.0
  0
SEQEND
  5
83E
  8
0
 62
     3
  0
LINE
  5
16A
  8
0
 62
     7
 10
60.215285999999992
 20
693.73018599999989
 30
0.0
 11
55.215285999999992
 21
693.73018599999989
 31
0.0
  0
LINE
  5
16B
  8
0
 62
     7
 10
60.215285999999992
 20
674.730186
 30
0.0
 11
60.215285999999992
 21
680.73018599999989
 31
0.0
  0
LINE
  5
16C
  8
0
 62
     7
 10
54.638068999999987
 20
667.16463499999986
 30
0.0
 11
58.714554000000007
 21
671.15875999999992
 31
0.0
  0
LINE
  5
16D
  8
0
 62
     7
 10
51.716019000000003
 20
671.30161299999986
 30
0.0
 11
55.215285999999992
 21
674.730186
 31
0.0
  0
LINE
  5
16E
  8
0
 62
     7
 10
55.215285999999992
 20
674.730186
 30
0.0
 11
55.215285999999992
 21
680.53018999999995
 31
0.0
  0
ARC
  5
16F
  8
0
 62
     7
 10
55.215285999999992
 20
667.730186
 30
0.0
 40
4.999998999999999
 50
134.41529800000001
 51
180.00000299999991
  0
ARC
  5
170
  8
0
 62
     7
 10
55.215285999999992
 20
674.730186
 30
0.0
 40
5.0
 50
314.41529300000002
 51
0.000001
  0
LINE
  5
171
  8
0
  6
DASHDOT
 62
     7
 10
98.964293999999995
 20
684.73018599999989
 30
0.0
 11
49.888259999999988
 21
684.73018599999989
 31
0.0
  0
LINE
  5
172
  8
0
 62
     7
 10
55.215285999999992
 20
551.73019799999997
 30
0.0
 11
37.215285999999999
 21
551.73019799999997
 31
0.0
  0
LINE
  5
173
  8
0
 62
     7
 10
51.215285999999999
 20
551.73019799999997
 30
0.0
 11
51.215285999999999
 21
554.71339399999999
 31
0.0
  0
LINE
  5
174
  8
0
 62
     7
 10
55.215285999999992
 20
551.73019799999997
 30
0.0
 11
55.215285999999992
 21
554.71339399999999
 31
0.0
  0
LINE
  5
175
  8
0
 62
     7
 10
61.215285999999999
 20
551.73019799999997
 30
0.0
 11
61.215285999999999
 21
554.71339399999999
 31
0.0
  0
LINE
  5
176
  8
0
 62
     7
 10
98.317627000000002
 20
551.73019799999997
 30
0.0
 11
61.215285999999999
 21
551.73019799999997
 31
0.0
  0
POLYLINE
  5
177
  8
0
 62
     3
 66
     1
 10
0.0
 20
0.0
 30
0.0
  0
VERTEX
  5
83F
  8
0
 62
     3
 10
98.101378999999994
 20
554.71339399999999
 30
0.0
  0
VERTEX
  5
840
  8
0
 62
     3
 10
82.101379000000009
 20
554.71339399999999
 30
0.0
  0
VERTEX
  5
841
  8
0
 62
     3
 10
81.101379000000009
 20
552.71339399999988
 30
0.0
  0
VERTEX
  5
842
  8
0
 62
     3
 10
80.101379000000009
 20
556.71339399999988
 30
0.0
  0
VERTEX
  5
843
  8
0
 62
     3
 10
79.101379000000009
 20
554.71339399999999
 30
0.0
  0
VERTEX
  5
844
  8
0
 62
     3
 10
63.101379000000001
 20
554.71339399999999
 30
0.0
  0
VERTEX
  5
845
  8
0
 62
     3
 10
62.101379000000001
 20
552.71339399999988
 30
0.0
  0
VERTEX
  5
846
  8
0
 62
     3
 10
61.101379000000001
 20
556.71339399999988
 30
0.0
  0
VERTEX
  5
847
  8
0
 62
     3
 10
60.101379000000001
 20
554.71339399999999
 30
0.0
  0
VERTEX
  5
848
  8
0
 62
     3
 10
44.101379000000001
 20
554.71339399999999
 30
0.0
  0
VERTEX
  5
849
  8
0
 62
     3
 10
43.101378999999987
 20
552.71339399999988
 30
0.0
  0
VERTEX
  5
84A
  8
0
 62
     3
 10
42.101379000000001
 20
556.71339399999988
 30
0.0
  0
VERTEX
  5
84B
  8
0
 62
     3
 10
41.101379000000001
 20
554.71339399999999
 30
0.0
  0
VERTEX
  5
84C
  8
0
 62
     3
 10
35.827461
 20
554.71339399999999
 30
0.0
  0
SEQEND
  5
84D
  8
0
 62
     3
  0
LINE
  5
187
  8
0
 62
     7
 10
58.215285999999999
 20
532.73019999999985
 30
0.0
 11
55.215285999999992
 21
532.73019999999985
 31
0.0
  0
LINE
  5
188
  8
0
 62
     7
 10
58.215285999999999
 20
545.730186
 30
0.0
 11
58.215285999999999
 21
554.71339399999999
 31
0.0
  0
LINE
  5
189
  8
0
 62
     7
 10
58.215285999999999
 20
532.73019999999985
 30
0.0
 11
58.215285999999999
 21
537.48019799999997
 31
0.0
  0
LINE
  5
18A
  8
0
 62
     7
 10
55.215285999999992
 20
532.73019999999985
 30
0.0
 11
55.215285999999992
 21
554.71339399999999
 31
0.0
  0
LINE
  5
18B
  8
0
 62
     7
 10
60.215285999999992
 20
532.73019999999985
 30
0.0
 11
58.215285999999999
 21
532.73019999999985
 31
0.0
  0
LINE
  5
18C
  8
0
 62
     7
 10
60.215285999999992
 20
553.73019800000009
 30
0.0
 11
58.215285999999999
 21
553.73019800000009
 31
0.0
  0
LINE
  5
18D
  8
0
  6
DASHDOT
 62
     7
 10
77.079453000000001
 20
541.73019399999998
 30
0.0
 11
49.888259999999988
 21
541.73019399999998
 31
0.0
  0
LINE
  5
18E
  8
0
 62
     7
 10
60.215285999999992
 20
545.8301849999998
 30
0.0
 11
55.215285999999992
 21
545.8301849999998
 31
0.0
  0
LINE
  5
18F
  8
0
 62
     7
 10
60.215285999999992
 20
537.63018799999986
 30
0.0
 11
55.215285999999992
 21
537.63018799999986
 31
0.0
  0
ARC
  5
190
  8
0
  6
DASHDOT
 62
     7
 10
94.216083999999995
 20
600.730186
 30
0.0
 40
76.044273000000004
 50
337.49231500000002
 51
0.000001
  0
LINE
  5
191
  8
0
  6
DASHDOT
 62
     7
 10
170.26035300000001
 20
600.730186
 30
0.0
 11
170.26035300000001
 21
606.48038499999996
 31
0.0
  0
LINE
  5
192
  8
0
 62
     7
 10
60.215285999999992
 20
688.93018300000006
 30
0.0
 11
55.215285999999992
 21
688.93018300000006
 31
0.0
  0
LINE
  5
193
  8
0
 62
     7
 10
60.215285999999992
 20
680.53018999999995
 30
0.0
 11
55.215285999999992
 21
680.53018999999995
 31
0.0
  0
LINE
  5
194
  8
0
 62
     7
 10
60.215285999999992
 20
698.23017100000004
 30
0.0
 11
37.215285999999999
 21
698.23017100000004
 31
0.0
  0
LINE
  5
195
  8
0
 62
     7
 10
41.459502999999998
 20
705.87508400000002
 30
0.0
 11
24.642814999999999
 21
708.16826600000002
 31
0.0
  0
LINE
  5
196
  8
0
 62
     1
 10
142.21527699999999
 20
555.97375099999988
 30
0.0
 11
142.21527699999999
 21
557.97375099999999
 31
0.0
  0
LINE
  5
197
  8
0
 62
     1
 10
144.21527699999999
 20
555.97375099999988
 30
0.0
 11
142.21527699999999
 21
555.97375099999988
 31
0.0
  0
LINE
  5
198
  8
0
 62
     1
 10
142.21527699999999
 20
663.973747
 30
0.0
 11
142.21527699999999
 21
665.973747
 31
0.0
  0
LINE
  5
199
  8
0
 62
     1
 10
144.21527699999999
 20
665.973747
 30
0.0
 11
142.21527699999999
 21
665.973747
 31
0.0
  0
LINE
  5
19A
  8
0
 62
     1
 10
142.21527699999999
 20
557.97375099999999
 30
0.0
 11
142.21527699999999
 21
663.973747
 31
0.0
  0
LINE
  5
19B
  8
0
 62
     1
 10
137.71527699999999
 20
679.55109400000003
 30
0.0
 11
137.71527699999999
 21
684.39639999999986
 31
0.0
  0
LINE
  5
19C
  8
0
 62
     1
 10
137.71527699999999
 20
537.5511019999999
 30
0.0
 11
137.71527699999999
 21
542.39639999999986
 31
0.0
  0
LINE
  5
19D
  8
0
 62
     1
 10
144.21527699999999
 20
529.47375099999999
 30
0.0
 11
144.21527699999999
 21
692.473747
 31
0.0
  0
LINE
  5
19E
  8
0
 62
     1
 10
147.71527699999999
 20
529.47375099999999
 30
0.0
 11
144.21527699999999
 21
529.47375099999999
 31
0.0
  0
LINE
  5
19F
  8
0
 62
     1
 10
147.71527699999999
 20
529.473747
 30
0.0
 11
147.71527699999999
 21
692.473747
 31
0.0
  0
LINE
  5
1A0
  8
0
 62
     1
 10
147.71527699999999
 20
692.473747
 30
0.0
 11
146.71527699999999
 21
692.473747
 31
0.0
  0
LINE
  5
1A1
  8
0
 62
     1
 10
145.71527699999999
 20
692.473747
 30
0.0
 11
144.21527699999999
 21
692.473747
 31
0.0
  0
LINE
  5
1A2
  8
0
 62
     1
 10
144.21527699999999
 20
678.973747
 30
0.0
 11
138.71527699999999
 21
678.973747
 31
0.0
  0
LINE
  5
1A3
  8
0
 62
     1
 10
144.21527699999999
 20
684.97374699999989
 30
0.0
 11
138.71527699999999
 21
684.97374699999989
 31
0.0
  0
LINE
  5
1A4
  8
0
 62
     1
 10
138.71527800000001
 20
678.973747
 30
0.0
 11
137.71527800000001
 21
679.55109400000003
 31
0.0
  0
LINE
  5
1A5
  8
0
 62
     1
 10
138.71527699999999
 20
678.973747
 30
0.0
 11
138.71527699999999
 21
679.85242500000004
 31
0.0
  0
LINE
  5
1A6
  8
0
 62
     1
 10
138.71527699999999
 20
679.85242500000004
 30
0.0
 11
138.71527699999999
 21
680.82570599999985
 31
0.0
  0
LINE
  5
1A7
  8
0
 62
     1
 10
138.71527699999999
 20
680.82570599999985
 30
0.0
 11
138.71527699999999
 21
681.97374699999989
 31
0.0
  0
LINE
  5
1A8
  8
0
 62
     1
 10
138.71527699999999
 20
681.97374699999989
 30
0.0
 11
138.71527699999999
 21
683.121803
 31
0.0
  0
LINE
  5
1A9
  8
0
 62
     1
 10
138.71527699999999
 20
683.121803
 30
0.0
 11
138.71527699999999
 21
684.97374699999989
 31
0.0
  0
LINE
  5
1AA
  8
0
 62
     1
 10
138.71527699999999
 20
684.09506999999985
 30
0.0
 11
138.71527699999999
 21
684.74538399999994
 31
0.0
  0
LINE
  5
1AB
  8
0
 62
     1
 10
138.21527699999999
 20
684.74538399999994
 30
0.0
 11
138.21527699999999
 21
684.97374699999989
 31
0.0
  0
LINE
  5
1AC
  8
0
 62
     1
 10
137.7152759999999
 20
684.39639999999986
 30
0.0
 11
138.7152759999999
 21
684.97374699999989
 31
0.0
  0
LINE
  5
1AD
  8
0
 62
     1
 10
144.21527699999999
 20
542.97375099999988
 30
0.0
 11
138.71527699999999
 21
542.97375099999988
 31
0.0
  0
LINE
  5
1AE
  8
0
 62
     1
 10
144.21527699999999
 20
536.97375099999999
 30
0.0
 11
138.71527699999999
 21
536.97375099999999
 31
0.0
  0
LINE
  5
1AF
  8
0
 62
     1
 10
137.7152759999999
 20
542.39639999999986
 30
0.0
 11
138.7152759999999
 21
542.97375099999988
 31
0.0
  0
LINE
  5
1B0
  8
0
 62
     1
 10
138.71527699999999
 20
542.09506999999985
 30
0.0
 11
138.71527699999999
 21
542.97375099999988
 31
0.0
  0
LINE
  5
1B1
  8
0
 62
     1
 10
138.71527699999999
 20
541.12180299999989
 30
0.0
 11
138.71527699999999
 21
542.09506999999985
 31
0.0
  0
LINE
  5
1B2
  8
0
 62
     1
 10
138.71527699999999
 20
539.97375099999999
 30
0.0
 11
138.71527699999999
 21
541.12180299999989
 31
0.0
  0
LINE
  5
1B3
  8
0
 62
     1
 10
138.71527699999999
 20
538.82570299999998
 30
0.0
 11
138.71527699999999
 21
539.97375099999999
 31
0.0
  0
LINE
  5
1B4
  8
0
 62
     1
 10
138.71527699999999
 20
537.85243200000002
 30
0.0
 11
138.71527699999999
 21
538.82570299999998
 31
0.0
  0
LINE
  5
1B5
  8
0
 62
     1
 10
138.71527699999999
 20
537.20211399999994
 30
0.0
 11
138.71527699999999
 21
537.85243200000002
 31
0.0
  0
LINE
  5
1B6
  8
0
 62
     1
 10
138.71527699999999
 20
536.97375099999999
 30
0.0
 11
137.71527699999999
 21
537.5511019999999
 31
0.0
  0
LINE
  5
1B7
  8
0
 62
     1
 10
138.71527699999999
 20
536.97375099999999
 30
0.0
 11
138.71527699999999
 21
537.20211399999994
 31
0.0
  0
LINE
  5
1B8
  8
0
 62
     1
 10
146.71527699999999
 20
692.473747
 30
0.0
 11
145.71527699999999
 21
692.473747
 31
0.0
  0
LINE
  5
1B9
  8
0
 62
     7
 10
144.21527699999999
 20
692.473747
 30
0.0
 11
144.21527699999999
 21
735.17293499999994
 31
0.0
  0
LINE
  5
1BA
  8
0
 62
     7
 10
142.21527699999999
 20
665.973747
 30
0.0
 11
142.21527699999999
 21
678.973747
 31
0.0
  0
LINE
  5
1BB
  8
0
 62
     7
 10
144.21527699999999
 20
490.51480700000002
 30
0.0
 11
144.21527699999999
 21
529.47375099999999
 31
0.0
  0
LINE
  5
1BC
  8
0
 62
     7
 10
142.21527699999999
 20
491.71301799999998
 30
0.0
 11
142.21527699999999
 21
536.97375099999999
 31
0.0
  0
LINE
  5
1BD
  8
0
 62
     7
 10
144.21527699999999
 20
685.47374699999989
 30
0.0
 11
142.21527699999999
 21
685.47374699999989
 31
0.0
  0
LINE
  5
1BE
  8
0
 62
     7
 10
144.21527699999999
 20
678.473747
 30
0.0
 11
142.21527699999999
 21
678.473747
 31
0.0
  0
LINE
  5
1BF
  8
0
 62
     7
 10
144.21527699999999
 20
666.973747
 30
0.0
 11
142.21527699999999
 21
666.973747
 31
0.0
  0
LINE
  5
1C0
  8
0
 62
     7
 10
144.21527699999999
 20
554.97375099999988
 30
0.0
 11
142.21527699999999
 21
554.97375099999988
 31
0.0
  0
LINE
  5
1C1
  8
0
 62
     7
 10
144.21527699999999
 20
543.47375099999988
 30
0.0
 11
142.21527699999999
 21
543.47375099999988
 31
0.0
  0
LINE
  5
1C2
  8
0
 62
     7
 10
144.21527699999999
 20
536.47375099999999
 30
0.0
 11
142.21527699999999
 21
536.47375099999999
 31
0.0
  0
LINE
  5
1C3
  8
0
 62
     7
 10
142.21527699999999
 20
542.97375099999988
 30
0.0
 11
142.21527699999999
 21
555.97375099999988
 31
0.0
  0
LINE
  5
1C4
  8
0
 62
     7
 10
142.21527699999999
 20
684.97374699999989
 30
0.0
 11
142.21527699999999
 21
736.85309600000005
 31
0.0
  0
POLYLINE
  5
1C5
  8
0
 62
     3
 66
     1
 10
0.0
 20
0.0
 30
0.0
  0
VERTEX
  5
84E
  8
0
 62
     3
 10
148.25447199999991
 20
731.77970099999993
 30
0.0
  0
VERTEX
  5
84F
  8
0
 62
     3
 10
140.93562999999989
 20
737.92809299999999
 30
0.0
  0
VERTEX
  5
850
  8
0
 62
     3
 10
138.88350099999991
 20
737.03997000000004
 30
0.0
  0
VERTEX
  5
851
  8
0
 62
     3
 10
140.690732
 20
740.745903
 30
0.0
  0
VERTEX
  5
852
  8
0
 62
     3
 10
138.6386029999999
 20
739.85776499999997
 30
0.0
  0
SEQEND
  5
853
  8
0
 62
     3
  0
POLYLINE
  5
1CC
  8
0
 62
     3
 66
     1
 10
0.0
 20
0.0
 30
0.0
  0
VERTEX
  5
854
  8
0
 62
     3
 10
149.662576
 20
487.25129800000002
 30
0.0
  0
VERTEX
  5
855
  8
0
 62
     3
 10
139.80399199999991
 20
493.15763299999998
 30
0.0
  0
VERTEX
  5
856
  8
0
 62
     3
 10
137.91829799999991
 20
491.95590199999998
 30
0.0
  0
VERTEX
  5
857
  8
0
 62
     3
 10
139.1161929999999
 20
495.90115800000001
 30
0.0
  0
VERTEX
  5
858
  8
0
 62
     3
 10
137.23049900000001
 20
494.69942800000001
 30
0.0
  0
SEQEND
  5
859
  8
0
 62
     3
  0
LINE
  5
1D3
  8
0
  6
DASHDOT
 62
     7
 10
170.26035300000001
 20
600.730186
 30
0.0
 11
170.26035300000001
 21
621.79463999999996
 31
0.0
  0
LINE
  5
1D4
  8
0
  6
DASHDOT
 62
   150
 10
197.72063799999989
 20
610.980186
 30
0.0
 11
7.0505519999999997
 21
610.980186
 31
0.0
  0
POLYLINE
  5
1D5
  8
0
 62
     3
 66
     1
 10
0.0
 20
0.0
 30
0.0
  0
VERTEX
  5
85A
  8
0
 62
     3
 10
100.394138
 20
674.00827800000002
 30
0.0
  0
VERTEX
  5
85B
  8
0
 62
     3
 10
102.144417
 20
689.91225399999985
 30
0.0
  0
VERTEX
  5
85C
  8
0
 62
     3
 10
100.2658119999999
 20
691.12503800000002
 30
0.0
  0
VERTEX
  5
85D
  8
0
 62
     3
 10
104.35119999999991
 20
691.681465
 30
0.0
  0
VERTEX
  5
85E
  8
0
 62
     3
 10
102.472595
 20
692.89424899999995
 30
0.0
  0
VERTEX
  5
85F
  8
0
 62
     3
 10
103.734943
 20
704.36463200000003
 30
0.0
  0
SEQEND
  5
860
  8
0
 62
     3
  0
POLYLINE
  5
1DD
  8
0
 62
     3
 66
     1
 10
0.0
 20
0.0
 30
0.0
  0
VERTEX
  5
861
  8
0
 62
     3
 10
72.453232
 20
668.16463499999998
 30
0.0
  0
VERTEX
  5
862
  8
0
 62
     3
 10
72.224365000000006
 20
671.01787599999989
 30
0.0
  0
VERTEX
  5
863
  8
0
 62
     3
 10
70.150809999999993
 20
671.85475899999994
 30
0.0
  0
VERTEX
  5
864
  8
0
 62
     3
 10
74.058043999999995
 20
673.17139399999996
 30
0.0
  0
VERTEX
  5
865
  8
0
 62
     3
 10
71.98449699999999
 20
674.00827800000002
 30
0.0
  0
SEQEND
  5
866
  8
0
 62
     3
  0
POLYLINE
  5
1E4
  8
0
 62
     3
 66
     1
 10
0.0
 20
0.0
 30
0.0
  0
VERTEX
  5
867
  8
0
 62
     3
 10
100.394138
 20
674.00827800000002
 30
0.0
  0
VERTEX
  5
868
  8
0
 62
     3
 10
84.394137999999998
 20
674.00827800000002
 30
0.0
  0
VERTEX
  5
869
  8
0
 62
     3
 10
83.394137999999998
 20
672.00827800000002
 30
0.0
  0
VERTEX
  5
86A
  8
0
 62
     3
 10
82.394137999999984
 20
676.00827800000002
 30
0.0
  0
VERTEX
  5
86B
  8
0
 62
     3
 10
81.394137999999984
 20
674.00827800000002
 30
0.0
  0
VERTEX
  5
86C
  8
0
 62
     3
 10
71.984488999999996
 20
674.00827800000002
 30
0.0
  0
SEQEND
  5
86D
  8
0
 62
     3
  0
LINE
  5
1EC
  8
0
 62
     7
 10
55.215285999999992
 20
688.93018300000006
 30
0.0
 11
55.215285999999992
 21
693.73018599999989
 31
0.0
  0
LINE
  5
1ED
  8
0
 62
     3
 10
100.4735869999999
 20
674.730186
 30
0.0
 11
60.215285999999992
 21
674.730186
 31
0.0
  0
LINE
  5
1EE
  8
0
  6
DASHSPACE
 62
     3
 10
60.215285999999992
 20
674.730186
 30
0.0
 11
55.215285999999992
 21
674.730186
 31
0.0
  0
LINE
  5
1EF
  8
0
 62
     1
 10
65.684287999999995
 20
537.7301940000001
 30
0.0
 11
55.215285999999992
 21
537.7301940000001
 31
0.0
  0
LINE
  5
1F0
  8
0
 62
     1
 10
65.684287999999995
 20
545.73019399999998
 30
0.0
 11
55.215285999999992
 21
545.73019399999998
 31
0.0
  0
LINE
  5
1F1
  8
0
 62
     1
 10
51.515281999999999
 20
535.23018599999989
 30
0.0
 11
51.515281999999999
 21
548.23018599999989
 31
0.0
  0
LINE
  5
1F2
  8
0
 62
     1
 10
51.215285999999999
 20
535.53018599999996
 30
0.0
 11
51.215285999999999
 21
547.93018700000005
 31
0.0
  0
LINE
  5
1F3
  8
0
 62
     1
 10
54.215285999999999
 20
533.730186
 30
0.0
 11
54.215285999999999
 21
549.730186
 31
0.0
  0
LINE
  5
1F4
  8
0
 62
     1
 10
57.215285999999999
 20
537.730186
 30
0.0
 11
57.215285999999999
 21
545.730186
 31
0.0
  0
LINE
  5
1F5
  8
0
 62
     1
 10
54.215285999999999
 20
548.23018599999989
 30
0.0
 11
51.515281999999999
 21
548.23018599999989
 31
0.0
  0
LINE
  5
1F6
  8
0
 62
     1
 10
55.215285999999992
 20
549.730186
 30
0.0
 11
54.215285999999999
 21
549.730186
 31
0.0
  0
LINE
  5
1F7
  8
0
 62
     1
 10
51.215285999999999
 20
547.93018700000005
 30
0.0
 11
51.515281999999999
 21
548.23018599999989
 31
0.0
  0
LINE
  5
1F8
  8
0
 62
     1
 10
54.215285999999999
 20
535.23018599999989
 30
0.0
 11
51.515281999999999
 21
535.23018599999989
 31
0.0
  0
LINE
  5
1F9
  8
0
 62
     1
 10
51.515281999999999
 20
535.23018599999989
 30
0.0
 11
51.215285999999999
 21
535.53018599999996
 31
0.0
  0
LINE
  5
1FA
  8
0
 62
     1
 10
55.215285999999992
 20
533.730186
 30
0.0
 11
54.215285999999999
 21
533.730186
 31
0.0
  0
LINE
  5
1FB
  8
0
 62
     1
 10
65.684287999999995
 20
538.2301940000001
 30
0.0
 11
57.215285999999999
 21
538.2301940000001
 31
0.0
  0
LINE
  5
1FC
  8
0
 62
     1
 10
65.684287999999995
 20
545.23019399999998
 30
0.0
 11
57.215285999999999
 21
545.23019399999998
 31
0.0
  0
LINE
  5
1FD
  8
0
 62
     1
 10
66.184287999999995
 20
538.24239
 30
0.0
 11
66.184287999999995
 21
545.24239
 31
0.0
  0
LINE
  5
1FE
  8
0
 62
     1
 10
65.684287999999995
 20
537.7301940000001
 30
0.0
 11
65.684287999999995
 21
545.73019399999998
 31
0.0
  0
LINE
  5
1FF
  8
0
 62
     1
 10
65.684287999999995
 20
537.74239
 30
0.0
 11
66.184287999999995
 21
538.24239
 31
0.0
  0
LINE
  5
200
  8
0
 62
     1
 10
66.184287999999995
 20
545.24239
 30
0.0
 11
65.684287999999995
 21
545.74239
 31
0.0
  0
LINE
  5
201
  8
0
 62
     1
 10
55.215285999999992
 20
533.730186
 30
0.0
 11
55.215285999999992
 21
549.730186
 31
0.0
  0
LINE
  5
202
  8
0
 62
     1
 10
60.215285999999992
 20
545.730186
 30
0.0
 11
60.215285999999992
 21
550.730186
 31
0.0
  0
LINE
  5
203
  8
0
 62
     7
 10
60.215285999999992
 20
550.730186
 30
0.0
 11
60.215285999999992
 21
554.71339399999999
 31
0.0
  0
LINE
  5
204
  8
0
  6
DASHDOT
 62
    31
 10
42.859992999999989
 20
682.730186
 30
0.0
 11
18.210892000000001
 21
682.730186
 31
0.0
  0
LINE
  5
205
  8
0
 62
     7
 10
32.215285999999999
 20
686.730186
 30
0.0
 11
28.215285999999999
 21
686.730186
 31
0.0
  0
LINE
  5
206
  8
0
 62
     7
 10
32.215285999999999
 20
678.730186
 30
0.0
 11
28.215285999999999
 21
678.730186
 31
0.0
  0
LINE
  5
207
  8
0
 62
     7
 10
28.215285999999999
 20
678.730186
 30
0.0
 11
28.215285999999999
 21
686.730186
 31
0.0
  0
LINE
  5
208
  8
0
 62
     7
 10
24.215285999999999
 20
680.230186
 30
0.0
 11
24.215285999999999
 21
685.23018599999989
 31
0.0
  0
LINE
  5
209
  8
0
 62
     7
 10
32.215285999999999
 20
685.23018599999989
 30
0.0
 11
24.215285999999999
 21
685.23018599999989
 31
0.0
  0
LINE
  5
20A
  8
0
 62
     7
 10
32.215285999999999
 20
680.230186
 30
0.0
 11
24.215285999999999
 21
680.230186
 31
0.0
  0
LINE
  5
20B
  8
0
 62
     7
 10
32.215285999999999
 20
547.73018599999989
 30
0.0
 11
28.215285999999999
 21
547.73018599999989
 31
0.0
  0
LINE
  5
20C
  8
0
 62
     7
 10
32.215285999999999
 20
546.230186
 30
0.0
 11
24.215285999999999
 21
546.230186
 31
0.0
  0
LINE
  5
20D
  8
0
 62
     7
 10
32.215285999999999
 20
541.230186
 30
0.0
 11
24.215285999999999
 21
541.230186
 31
0.0
  0
LINE
  5
20E
  8
0
 62
     7
 10
32.215285999999999
 20
539.73018599999989
 30
0.0
 11
28.215285999999999
 21
539.73018599999989
 31
0.0
  0
LINE
  5
20F
  8
0
  6
DASHDOT
 62
    31
 10
42.859992999999989
 20
543.73018599999989
 30
0.0
 11
18.210892000000001
 21
543.73018599999989
 31
0.0
  0
LINE
  5
210
  8
0
 62
     7
 10
28.215285999999999
 20
539.73018599999989
 30
0.0
 11
28.215285999999999
 21
547.73018599999989
 31
0.0
  0
LINE
  5
211
  8
0
 62
     7
 10
24.215285999999999
 20
541.230186
 30
0.0
 11
24.215285999999999
 21
546.230186
 31
0.0
  0
CIRCLE
  5
212
  8
0
 62
     7
 10
29.731667000000002
 20
681.19728899999996
 30
0.0
 40
0.2
  0
LINE
  5
213
  8
0
 62
     7
 10
60.215285999999992
 20
545.71799099999987
 30
0.0
 11
60.215285999999992
 21
551.22978999999998
 31
0.0
  0
LINE
  5
214
  8
0
  6
DASHDOT
 62
     7
 10
70.207130000000006
 20
541.73018999999999
 30
0.0
 11
57.215285999999999
 21
541.73018999999999
 31
0.0
  0
LINE
  5
215
  8
0
  6
DASHDOT
 62
     7
 10
98.318089000000001
 20
541.73018999999999
 30
0.0
 11
75.174614000000005
 21
541.73018999999999
 31
0.0
  0
LINE
  5
216
  8
0
 62
     7
 10
87.698089999999993
 20
675.23058300000002
 30
0.0
 11
83.202290000000005
 21
675.23058300000002
 31
0.0
  0
LINE
  5
217
  8
0
 62
     7
 10
83.202290000000005
 20
675.23058300000002
 30
0.0
 11
60.215285999999992
 21
675.23058300000002
 31
0.0
  0
LINE
  5
218
  8
0
 62
     1
 10
66.184287999999995
 20
688.21799499999997
 30
0.0
 11
65.684287999999995
 21
688.71799499999997
 31
0.0
  0
LINE
  5
219
  8
0
 62
     1
 10
66.184287999999995
 20
681.21799499999986
 30
0.0
 11
66.184287999999995
 21
688.21799499999997
 31
0.0
  0
LINE
  5
21A
  8
0
 62
     1
 10
65.684287999999995
 20
680.73018599999989
 30
0.0
 11
65.684287999999995
 21
688.73018599999989
 31
0.0
  0
LINE
  5
21B
  8
0
 62
     1
 10
65.684287999999995
 20
688.230186
 30
0.0
 11
57.215285999999999
 21
688.230186
 31
0.0
  0
LINE
  5
21C
  8
0
 62
     1
 10
65.684287999999995
 20
681.23018599999989
 30
0.0
 11
57.215285999999999
 21
681.23018599999989
 31
0.0
  0
LINE
  5
21D
  8
0
 62
     1
 10
57.215285999999999
 20
680.73018599999989
 30
0.0
 11
57.215285999999999
 21
688.73018599999989
 31
0.0
  0
LINE
  5
21E
  8
0
 62
     1
 10
55.215285999999992
 20
692.730186
 30
0.0
 11
54.215285999999999
 21
692.730186
 31
0.0
  0
LINE
  5
21F
  8
0
 62
     1
 10
54.215285999999999
 20
676.73018599999989
 30
0.0
 11
54.215285999999999
 21
692.730186
 31
0.0
  0
LINE
  5
220
  8
0
 62
     1
 10
54.215285999999999
 20
691.230186
 30
0.0
 11
51.515281999999999
 21
691.230186
 31
0.0
  0
LINE
  5
221
  8
0
 62
     1
 10
51.515281999999999
 20
678.230186
 30
0.0
 11
51.515281999999999
 21
691.230186
 31
0.0
  0
LINE
  5
222
  8
0
 62
     1
 10
51.215285999999999
 20
678.53018999999995
 30
0.0
 11
51.215285999999999
 21
690.93018300000006
 31
0.0
  0
LINE
  5
223
  8
0
 62
     1
 10
51.215285999999999
 20
690.93018300000006
 30
0.0
 11
51.515281999999999
 21
691.230186
 31
0.0
  0
LINE
  5
224
  8
0
 62
     1
 10
54.215285999999999
 20
678.230186
 30
0.0
 11
51.515281999999999
 21
678.230186
 31
0.0
  0
LINE
  5
225
  8
0
 62
     1
 10
55.215285999999992
 20
676.73018599999989
 30
0.0
 11
54.215285999999999
 21
676.73018599999989
 31
0.0
  0
LINE
  5
226
  8
0
 62
     1
 10
51.515281999999999
 20
678.230186
 30
0.0
 11
51.215285999999999
 21
678.53018999999995
 31
0.0
  0
LINE
  5
227
  8
0
 62
     1
 10
65.684287999999995
 20
688.73018599999989
 30
0.0
 11
55.215285999999992
 21
688.73018599999989
 31
0.0
  0
LINE
  5
228
  8
0
 62
     1
 10
65.684287999999995
 20
680.73018599999989
 30
0.0
 11
55.215285999999992
 21
680.73018599999989
 31
0.0
  0
LINE
  5
229
  8
0
 62
     1
 10
55.215285999999992
 20
676.73018599999989
 30
0.0
 11
55.215285999999992
 21
692.730186
 31
0.0
  0
LINE
  5
22A
  8
0
 62
     7
 10
65.684287999999995
 20
680.73018599999989
 30
0.0
 11
66.184287999999995
 21
681.21799499999986
 31
0.0
  0
LINE
  5
22B
  8
0
 62
     4
 10
60.215285999999992
 20
680.74239299999988
 30
0.0
 11
60.215285999999992
 21
688.71797900000001
 31
0.0
  0
POLYLINE
  5
22C
  8
0
 62
     4
 66
     1
 10
0.0
 20
0.0
 30
0.0
  0
VERTEX
  5
86E
  8
0
 62
     4
 10
66.209693999999985
 20
688.71797900000001
 30
0.0
  0
VERTEX
  5
86F
  8
0
 62
     4
 10
66.209686000000005
 20
688.71800999999994
 30
0.0
  0
VERTEX
  5
870
  8
0
 62
     4
 10
66.209693999999985
 20
688.71802500000001
 30
0.0
  0
VERTEX
  5
871
  8
0
 62
     4
 10
66.209709000000004
 20
688.71803999999997
 30
0.0
  0
VERTEX
  5
872
  8
0
 62
     4
 10
66.209723999999994
 20
688.71802500000001
 30
0.0
  0
VERTEX
  5
873
  8
0
 62
     4
 10
66.209807999999995
 20
688.71797900000001
 30
0.0
  0
VERTEX
  5
874
  8
0
 62
     4
 10
66.210121000000001
 20
688.71770500000002
 30
0.0
  0
VERTEX
  5
875
  8
0
 62
     4
 10
66.212990000000005
 20
688.71443899999986
 30
0.0
  0
VERTEX
  5
876
  8
0
 62
     4
 10
66.241889999999998
 20
688.67870300000004
 30
0.0
  0
VERTEX
  5
877
  8
0
 62
     4
 10
66.384415000000004
 20
688.49858899999992
 30
0.0
  0
VERTEX
  5
878
  8
0
 62
     4
 10
66.579139999999995
 20
688.24811599999998
 30
0.0
  0
VERTEX
  5
879
  8
0
 62
     4
 10
66.826172
 20
687.92026499999997
 30
0.0
  0
VERTEX
  5
87A
  8
0
 62
     4
 10
66.940956
 20
687.76267199999995
 30
0.0
  0
VERTEX
  5
87B
  8
0
 62
     4
 10
67.060447999999994
 20
687.594109
 30
0.0
  0
VERTEX
  5
87C
  8
0
 62
     4
 10
67.156386999999995
 20
687.45481099999995
 30
0.0
  0
VERTEX
  5
87D
  8
0
 62
     4
 10
67.253555000000006
 20
687.30948599999999
 30
0.0
  0
VERTEX
  5
87E
  8
0
 62
     4
 10
67.336410999999984
 20
687.18163300000003
 30
0.0
  0
VERTEX
  5
87F
  8
0
 62
     4
 10
67.419097999999991
 20
687.04979700000001
 30
0.0
  0
VERTEX
  5
880
  8
0
 62
     4
 10
67.471656999999993
 20
686.96349299999997
 30
0.0
  0
SEQEND
  5
881
  8
0
 62
     4
  0
POLYLINE
  5
241
  8
0
 62
     4
 66
     1
 10
0.0
 20
0.0
 30
0.0
  0
VERTEX
  5
882
  8
0
 62
     4
 10
67.471656999999993
 20
686.96349299999997
 30
0.0
  0
VERTEX
  5
883
  8
0
 62
     4
 10
67.556945999999996
 20
686.819435
 30
0.0
  0
VERTEX
  5
884
  8
0
 62
     4
 10
67.641272999999998
 20
686.67116499999997
 30
0.0
  0
VERTEX
  5
885
  8
0
 62
     4
 10
67.700966000000008
 20
686.56145500000002
 30
0.0
  0
VERTEX
  5
886
  8
0
 62
     4
 10
67.75930799999999
 20
686.4493480000001
 30
0.0
  0
VERTEX
  5
887
  8
0
 62
     4
 10
67.808792000000011
 20
686.34961699999985
 30
0.0
  0
VERTEX
  5
888
  8
0
 62
     4
 10
67.856735
 20
686.24802399999999
 30
0.0
  0
VERTEX
  5
889
  8
0
 62
     4
 10
67.898972000000001
 20
686.15360299999986
 30
0.0
  0
VERTEX
  5
88A
  8
0
 62
     4
 10
67.939521999999997
 20
686.05767100000003
 30
0.0
  0
VERTEX
  5
88B
  8
0
 62
     4
 10
67.975707999999983
 20
685.96674299999995
 30
0.0
  0
VERTEX
  5
88C
  8
0
 62
     4
 10
68.010101000000006
 20
685.87456500000008
 30
0.0
  0
VERTEX
  5
88D
  8
0
 62
     4
 10
68.040840000000003
 20
685.78630799999985
 30
0.0
  0
VERTEX
  5
88E
  8
0
 62
     4
 10
68.069702000000007
 20
685.69702900000004
 30
0.0
  0
VERTEX
  5
88F
  8
0
 62
     4
 10
68.095344999999995
 20
685.61103099999991
 30
0.0
  0
VERTEX
  5
890
  8
0
 62
     4
 10
68.119049000000004
 20
685.52420800000004
 30
0.0
  0
VERTEX
  5
891
  8
0
 62
     4
 10
68.139831999999998
 20
685.44031500000006
 30
0.0
  0
VERTEX
  5
892
  8
0
 62
     4
 10
68.158630000000002
 20
685.35578199999986
 30
0.0
  0
VERTEX
  5
893
  8
0
 62
     4
 10
68.174735999999996
 20
685.27394900000002
 30
0.0
  0
VERTEX
  5
894
  8
0
 62
     4
 10
68.188819999999993
 20
685.191643
 30
0.0
  0
VERTEX
  5
895
  8
0
 62
     4
 10
68.200393999999974
 20
685.11191599999995
 30
0.0
  0
VERTEX
  5
896
  8
0
 62
     4
 10
68.209915000000009
 20
685.03185299999996
 30
0.0
  0
VERTEX
  5
897
  8
0
 62
     4
 10
68.217093999999989
 20
684.95430799999997
 30
0.0
  0
VERTEX
  5
898
  8
0
 62
     4
 10
68.222213999999994
 20
684.8765639999998
 30
0.0
  0
VERTEX
  5
899
  8
0
 62
     4
 10
68.225806999999989
 20
684.76409099999989
 30
0.0
  0
VERTEX
  5
89A
  8
0
 62
     4
 10
68.223579000000001
 20
684.61702700000001
 30
0.0
  0
VERTEX
  5
89B
  8
0
 62
     4
 10
68.213402000000002
 20
684.46613300000001
 30
0.0
  0
VERTEX
  5
89C
  8
0
 62
     4
 10
68.195091000000005
 20
684.31165299999986
 30
0.0
  0
VERTEX
  5
89D
  8
0
 62
     4
 10
68.168464999999998
 20
684.15378599999997
 30
0.0
  0
VERTEX
  5
89E
  8
0
 62
     4
 10
68.133331000000013
 20
683.99274400000002
 30
0.0
  0
VERTEX
  5
89F
  8
0
 62
     4
 10
68.089500000000001
 20
683.82860599999992
 30
0.0
  0
VERTEX
  5
8A0
  8
0
 62
     4
 10
68.036736000000005
 20
683.66132400000004
 30
0.0
  0
VERTEX
  5
8A1
  8
0
 62
     4
 10
67.974731000000006
 20
683.49062300000003
 30
0.0
  0
VERTEX
  5
8A2
  8
0
 62
     4
 10
67.903014999999996
 20
683.31587999999988
 30
0.0
  0
VERTEX
  5
8A3
  8
0
 62
     4
 10
67.820824000000002
 20
683.13588700000003
 30
0.0
  0
VERTEX
  5
8A4
  8
0
 62
     4
 10
67.726776000000001
 20
682.94827999999995
 30
0.0
  0
VERTEX
  5
8A5
  8
0
 62
     4
 10
67.618126000000004
 20
682.74816099999987
 30
0.0
  0
VERTEX
  5
8A6
  8
0
 62
     4
 10
67.532287999999994
 20
682.59857899999986
 30
0.0
  0
SEQEND
  5
8A7
  8
0
 62
     4
  0
POLYLINE
  5
268
  8
0
 62
     4
 66
     1
 10
0.0
 20
0.0
 30
0.0
  0
VERTEX
  5
8A8
  8
0
 62
     4
 10
67.532287999999994
 20
682.59857899999986
 30
0.0
  0
VERTEX
  5
8A9
  8
0
 62
     4
 10
67.397423000000003
 20
682.37535899999989
 30
0.0
  0
VERTEX
  5
8AA
  8
0
 62
     4
 10
67.247803000000005
 20
682.14212799999996
 30
0.0
  0
VERTEX
  5
8AB
  8
0
 62
     4
 10
67.082107999999991
 20
681.89739199999985
 30
0.0
  0
VERTEX
  5
8AC
  8
0
 62
     4
 10
66.898787999999996
 20
681.63933600000007
 30
0.0
  0
VERTEX
  5
8AD
  8
0
 62
     4
 10
66.696326999999997
 20
681.36606600000005
 30
0.0
  0
VERTEX
  5
8AE
  8
0
 62
     4
 10
66.475037
 20
681.07762899999989
 30
0.0
  0
VERTEX
  5
8AF
  8
0
 62
     4
 10
66.255852000000004
 20
680.79923200000007
 30
0.0
  0
VERTEX
  5
8B0
  8
0
 62
     4
 10
66.209693999999985
 20
680.74234799999988
 30
0.0
  0
SEQEND
  5
8B1
  8
0
 62
     4
  0
LINE
  5
273
  8
0
 62
     4
 10
76.11569200000001
 20
675.45919000000004
 30
0.0
 11
71.162689
 21
675.45919000000004
 31
0.0
  0
LINE
  5
274
  8
0
 62
     4
 10
71.162689
 20
675.45919000000004
 30
0.0
 11
66.209693999999985
 21
675.45919000000004
 31
0.0
  0
LINE
  5
275
  8
0
 62
     4
 10
76.11569200000001
 20
690.95319400000005
 30
0.0
 11
71.162689
 21
690.95319400000005
 31
0.0
  0
LINE
  5
276
  8
0
 62
     4
 10
71.162689
 20
690.95319400000005
 30
0.0
 11
66.209693999999985
 21
690.95319400000005
 31
0.0
  0
LINE
  5
277
  8
0
 62
     4
 10
78.731883999999994
 20
677.64994000000002
 30
0.0
 11
76.115775999999997
 21
677.64994000000002
 31
0.0
  0
LINE
  5
278
  8
0
 62
     4
 10
78.731883999999994
 20
688.76244399999996
 30
0.0
 11
76.115734000000003
 21
688.76244399999996
 31
0.0
  0
LINE
  5
279
  8
0
 62
     4
 10
66.209693999999985
 20
680.74239299999988
 30
0.0
 11
60.215285999999992
 21
680.74239299999988
 31
0.0
  0
LINE
  5
27A
  8
0
 62
     4
 10
66.209693999999985
 20
688.71797900000001
 30
0.0
 11
60.215285999999992
 21
688.71797900000001
 31
0.0
  0
LINE
  5
27B
  8
0
 62
     4
 10
78.731883999999994
 20
675.45919000000004
 30
0.0
 11
76.11569200000001
 21
675.45919000000004
 31
0.0
  0
LINE
  5
27C
  8
0
 62
     4
 10
66.209693999999985
 20
675.45919000000004
 30
0.0
 11
60.215285999999992
 21
675.45919000000004
 31
0.0
  0
LINE
  5
27D
  8
0
 62
     4
 10
66.209693999999985
 20
690.95319400000005
 30
0.0
 11
60.215285999999992
 21
690.95319400000005
 31
0.0
  0
LINE
  5
27E
  8
0
 62
     4
 10
78.731883999999994
 20
690.95319400000005
 30
0.0
 11
76.11569200000001
 21
690.95319400000005
 31
0.0
  0
LINE
  5
27F
  8
0
 62
     4
 10
78.731883999999994
 20
688.76244399999996
 30
0.0
 11
78.731883999999994
 21
690.95319400000005
 31
0.0
  0
LINE
  5
280
  8
0
 62
     4
 10
78.731883999999994
 20
675.45919000000004
 30
0.0
 11
78.731883999999994
 21
677.64994000000002
 31
0.0
  0
LINE
  5
281
  8
0
 62
     4
 10
60.215285999999992
 20
688.71797900000001
 30
0.0
 11
60.215285999999992
 21
694.00118299999986
 31
0.0
  0
LINE
  5
282
  8
0
 62
     4
 10
60.215285999999992
 20
678.50717899999995
 30
0.0
 11
60.215285999999992
 21
680.74239299999988
 31
0.0
  0
LINE
  5
283
  8
0
 62
     4
 10
66.209693999999985
 20
688.71797900000001
 30
0.0
 11
66.209693999999985
 21
690.95319400000005
 31
0.0
  0
LINE
  5
284
  8
0
 62
     4
 10
76.11569200000001
 20
688.76255000000003
 30
0.0
 11
76.11569200000001
 21
690.95319400000005
 31
0.0
  0
LINE
  5
285
  8
0
 62
     4
 10
66.209693999999985
 20
675.45919000000004
 30
0.0
 11
66.209693999999985
 21
680.74230199999988
 31
0.0
  0
LINE
  5
286
  8
0
 62
     4
 10
76.11569200000001
 20
675.45919000000004
 30
0.0
 11
76.11569200000001
 21
677.64987900000006
 31
0.0
  0
LINE
  5
287
  8
0
 62
     4
 10
85.081881999999993
 20
678.64994000000002
 30
0.0
 11
85.081881999999993
 21
687.706367
 31
0.0
  0
LINE
  5
288
  8
0
 62
     4
 10
84.081881999999993
 20
688.70636699999989
 30
0.0
 11
82.643485999999996
 21
688.70636699999989
 31
0.0
  0
LINE
  5
289
  8
0
 62
     4
 10
82.643485999999996
 20
688.76244399999996
 30
0.0
 11
75.074283999999992
 21
688.76244399999996
 31
0.0
  0
LINE
  5
28A
  8
0
 62
     4
 10
84.081881999999993
 20
677.64994000000002
 30
0.0
 11
75.074283999999992
 21
677.64994000000002
 31
0.0
  0
LINE
  5
28B
  8
0
 62
     4
 10
70.932251000000008
 20
684.62039900000002
 30
0.0
 11
75.074283999999992
 21
688.76244399999996
 31
0.0
  0
LINE
  5
28C
  8
0
 62
     4
 10
75.074283999999992
 20
677.64994000000002
 30
0.0
 11
70.932251000000008
 21
681.79196899999999
 31
0.0
  0
LINE
  5
28D
  8
0
  6
DASHDOT
 62
     7
 10
71.255172999999999
 20
684.73018599999989
 30
0.0
 11
57.215285999999999
 21
684.73018599999989
 31
0.0
  0
LINE
  5
28E
  8
0
  6
DASHDOT
 62
     7
 10
71.162689
 20
672.45919000000004
 30
0.0
 11
71.162689
 21
693.95319400000005
 31
0.0
  0
LINE
  5
28F
  8
0
  6
DASHDOT
 62
     7
 10
88.081881999999993
 20
683.20618400000001
 30
0.0
 11
65.541884999999994
 21
683.20618400000001
 31
0.0
  0
ARC
  5
290
  8
0
 62
     7
 10
72.346457999999998
 20
683.20618400000001
 30
0.0
 40
2.0
 50
135.0
 51
225.0
  0
LINE
  5
291
  8
0
 62
     7
 10
84.081881999999993
 20
677.64994000000002
 30
0.0
 11
85.081881999999993
 21
678.64994000000002
 31
0.0
  0
LINE
  5
292
  8
0
 62
     7
 10
85.081881999999993
 20
687.706367
 30
0.0
 11
84.081881999999993
 21
688.70636699999989
 31
0.0
  0
LINE
  5
293
  8
0
 62
     7
 10
84.081881999999993
 20
677.64994000000002
 30
0.0
 11
84.081881999999993
 21
688.70636699999989
 31
0.0
  0
LINE
  5
294
  8
0
 62
     7
 10
75.074283999999992
 20
677.64994000000002
 30
0.0
 11
75.074283999999992
 21
688.76244399999996
 31
0.0
  0
LINE
  5
295
  8
0
 62
     7
 10
84.081881999999993
 20
678.44994400000007
 30
0.0
 11
75.074283999999992
 21
678.44994400000007
 31
0.0
  0
LINE
  5
296
  8
0
 62
     7
 10
84.081881999999993
 20
687.9624399999999
 30
0.0
 11
75.074283999999992
 21
687.9624399999999
 31
0.0
  0
LINE
  5
297
  8
0
 62
     7
 10
85.081881999999993
 20
547.81044399999996
 30
0.0
 11
84.081881999999993
 21
548.81044399999996
 31
0.0
  0
LINE
  5
298
  8
0
 62
     4
 10
60.215293999999993
 20
537.73096099999998
 30
0.0
 11
60.215293999999993
 21
545.72941999999989
 31
0.0
  0
POLYLINE
  5
299
  8
0
 62
     4
 66
     1
 10
0.0
 20
0.0
 30
0.0
  0
VERTEX
  5
8B2
  8
0
 62
     4
 10
66.171593000000001
 20
545.72941999999989
 30
0.0
  0
VERTEX
  5
8B3
  8
0
 62
     4
 10
66.171576999999985
 20
545.72941600000001
 30
0.0
  0
VERTEX
  5
8B4
  8
0
 62
     4
 10
66.171576999999985
 20
545.72940400000005
 30
0.0
  0
VERTEX
  5
8B5
  8
0
 62
     4
 10
66.171584999999993
 20
545.72935899999993
 30
0.0
  0
VERTEX
  5
8B6
  8
0
 62
     4
 10
66.171782999999991
 20
545.72886700000004
 30
0.0
  0
VERTEX
  5
8B7
  8
0
 62
     4
 10
66.174446000000003
 20
545.72374699999989
 30
0.0
  0
VERTEX
  5
8B8
  8
0
 62
     4
 10
66.208220999999995
 20
545.66269299999988
 30
0.0
  0
VERTEX
  5
8B9
  8
0
 62
     4
 10
66.314284999999998
 20
545.46915799999999
 30
0.0
  0
VERTEX
  5
8BA
  8
0
 62
     4
 10
66.475777000000008
 20
545.15998500000001
 30
0.0
  0
VERTEX
  5
8BB
  8
0
 62
     4
 10
66.549004000000011
 20
545.01251200000002
 30
0.0
  0
VERTEX
  5
8BC
  8
0
 62
     4
 10
66.626587000000001
 20
544.85031100000003
 30
0.0
  0
VERTEX
  5
8BD
  8
0
 62
     4
 10
66.690795999999992
 20
544.71075399999995
 30
0.0
  0
VERTEX
  5
8BE
  8
0
 62
     4
 10
66.756309999999999
 20
544.562634
 30
0.0
  0
VERTEX
  5
8BF
  8
0
 62
     4
 10
66.813400000000001
 20
544.42814999999985
 30
0.0
  0
VERTEX
  5
8C0
  8
0
 62
     4
 10
66.870506000000006
 20
544.28779999999995
 30
0.0
  0
VERTEX
  5
8C1
  8
0
 62
     4
 10
66.921256999999997
 20
544.15736800000002
 30
0.0
  0
VERTEX
  5
8C2
  8
0
 62
     4
 10
66.971312999999995
 20
544.02261699999985
 30
0.0
  0
VERTEX
  5
8C3
  8
0
 62
     4
 10
67.016196999999991
 20
543.89572099999987
 30
0.0
  0
VERTEX
  5
8C4
  8
0
 62
     4
 10
67.059943999999973
 20
543.76550699999996
 30
0.0
  0
VERTEX
  5
8C5
  8
0
 62
     4
 10
67.099281000000005
 20
543.64182699999981
 30
0.0
  0
VERTEX
  5
8C6
  8
0
 62
     4
 10
67.137198999999995
 20
543.51553299999989
 30
0.0
  0
VERTEX
  5
8C7
  8
0
 62
     4
 10
67.171256999999997
 20
543.39484800000002
 30
0.0
  0
VERTEX
  5
8C8
  8
0
 62
     4
 10
67.203696999999991
 20
543.27206799999999
 30
0.0
  0
VERTEX
  5
8C9
  8
0
 62
     4
 10
67.246437
 20
543.09509300000002
 30
0.0
  0
VERTEX
  5
8CA
  8
0
 62
     4
 10
67.271789999999996
 20
542.97925199999986
 30
0.0
  0
VERTEX
  5
8CB
  8
0
 62
     4
 10
67.295265000000001
 20
542.861988
 30
0.0
  0
VERTEX
  5
8CC
  8
0
 62
     4
 10
67.315535999999994
 20
542.75019799999995
 30
0.0
  0
VERTEX
  5
8CD
  8
0
 62
     4
 10
67.333877999999999
 20
542.63735199999985
 30
0.0
  0
VERTEX
  5
8CE
  8
0
 62
     4
 10
67.349640000000008
 20
542.52761500000008
 30
0.0
  0
VERTEX
  5
8CF
  8
0
 62
     4
 10
67.363449000000003
 20
542.41708800000004
 30
0.0
  0
VERTEX
  5
8D0
  8
0
 62
     4
 10
67.374992000000006
 20
542.30833099999995
 30
0.0
  0
VERTEX
  5
8D1
  8
0
 62
     4
 10
67.384551999999999
 20
542.19902000000002
 30
0.0
  0
VERTEX
  5
8D2
  8
0
 62
     4
 10
67.392014000000003
 20
542.09061399999985
 30
0.0
  0
VERTEX
  5
8D3
  8
0
 62
     4
 10
67.397469000000001
 20
541.98186499999997
 30
0.0
  0
VERTEX
  5
8D4
  8
0
 62
     4
 10
67.402350999999996
 20
541.76480100000003
 30
0.0
  0
VERTEX
  5
8D5
  8
0
 62
     4
 10
67.399253999999999
 20
541.54730999999981
 30
0.0
  0
VERTEX
  5
8D6
  8
0
 62
     4
 10
67.388191000000006
 20
541.32904099999996
 30
0.0
  0
VERTEX
  5
8D7
  8
0
 62
     4
 10
67.369140999999985
 20
541.109779
 30
0.0
  0
VERTEX
  5
8D8
  8
0
 62
     4
 10
67.342064000000008
 20
540.88938099999984
 30
0.0
  0
VERTEX
  5
8D9
  8
0
 62
     4
 10
67.306907999999993
 20
540.66775099999995
 30
0.0
  0
VERTEX
  5
8DA
  8
0
 62
     4
 10
67.263610999999997
 20
540.44479799999988
 30
0.0
  0
VERTEX
  5
8DB
  8
0
 62
     4
 10
67.212090000000003
 20
540.22039400000006
 30
0.0
  0
VERTEX
  5
8DC
  8
0
 62
     4
 10
67.152221999999995
 20
539.99428599999999
 30
0.0
  0
VERTEX
  5
8DD
  8
0
 62
     4
 10
67.083809000000002
 20
539.76596500000005
 30
0.0
  0
VERTEX
  5
8DE
  8
0
 62
     4
 10
67.006469999999993
 20
539.53441599999985
 30
0.0
  0
VERTEX
  5
8DF
  8
0
 62
     4
 10
66.919426000000001
 20
539.29758499999991
 30
0.0
  0
VERTEX
  5
8E0
  8
0
 62
     4
 10
66.900749000000005
 20
539.24930999999992
 30
0.0
  0
VERTEX
  5
8E1
  8
0
 62
     4
 10
66.799591000000007
 20
539.00010299999997
 30
0.0
  0
VERTEX
  5
8E2
  8
0
 62
     4
 10
66.688743999999986
 20
538.74652499999991
 30
0.0
  0
VERTEX
  5
8E3
  8
0
 62
     4
 10
66.568634000000003
 20
538.48951699999998
 30
0.0
  0
VERTEX
  5
8E4
  8
0
 62
     4
 10
66.440764999999999
 20
538.23194499999988
 30
0.0
  0
VERTEX
  5
8E5
  8
0
 62
     4
 10
66.309937000000005
 20
537.98224299999993
 30
0.0
  0
VERTEX
  5
8E6
  8
0
 62
     4
 10
66.195137000000003
 20
537.77294199999994
 30
0.0
  0
VERTEX
  5
8E7
  8
0
 62
     4
 10
66.171584999999993
 20
537.73123199999986
 30
0.0
  0
SEQEND
  5
8E8
  8
0
 62
     4
  0
LINE
  5
2D1
  8
0
 62
     4
 10
80.395595999999998
 20
551.00119000000007
 30
0.0
 11
73.283591999999999
 21
551.00119000000007
 31
0.0
  0
LINE
  5
2D2
  8
0
 62
     4
 10
73.283591999999999
 20
551.00119000000007
 30
0.0
 11
66.171593000000001
 21
551.00119000000007
 31
0.0
  0
LINE
  5
2D3
  8
0
 62
     4
 10
73.283591999999999
 20
535.50719100000003
 30
0.0
 11
66.171593000000001
 21
535.50719100000003
 31
0.0
  0
LINE
  5
2D4
  8
0
 62
     4
 10
80.395595999999998
 20
535.50719100000003
 30
0.0
 11
73.283591999999999
 21
535.50719100000003
 31
0.0
  0
LINE
  5
2D5
  8
0
 62
     4
 10
66.171593000000001
 20
537.73096099999998
 30
0.0
 11
60.215293999999993
 21
537.73096099999998
 31
0.0
  0
LINE
  5
2D6
  8
0
 62
     4
 10
66.171593000000001
 20
545.72941999999989
 30
0.0
 11
60.215293999999993
 21
545.72941999999989
 31
0.0
  0
LINE
  5
2D7
  8
0
 62
     4
 10
85.615294999999975
 20
537.70428800000002
 30
0.0
 11
80.395713999999984
 21
537.70428800000002
 31
0.0
  0
LINE
  5
2D8
  8
0
 62
     4
 10
85.615294999999975
 20
548.80408899999986
 30
0.0
 11
80.395843999999997
 21
548.80408899999986
 31
0.0
  0
LINE
  5
2D9
  8
0
 62
     4
 10
66.171593000000001
 20
551.00119000000007
 30
0.0
 11
60.215293999999993
 21
551.00119000000007
 31
0.0
  0
LINE
  5
2DA
  8
0
 62
     4
 10
85.615294999999975
 20
551.00119000000007
 30
0.0
 11
80.395595999999998
 21
551.00119000000007
 31
0.0
  0
LINE
  5
2DB
  8
0
 62
     4
 10
85.615294999999975
 20
535.50719100000003
 30
0.0
 11
80.395595999999998
 21
535.50719100000003
 31
0.0
  0
LINE
  5
2DC
  8
0
 62
     4
 10
66.171593000000001
 20
535.50719100000003
 30
0.0
 11
60.215293999999993
 21
535.50719100000003
 31
0.0
  0
LINE
  5
2DD
  8
0
 62
     4
 10
85.615294999999975
 20
535.50719100000003
 30
0.0
 11
85.615294999999975
 21
537.70428800000002
 31
0.0
  0
LINE
  5
2DE
  8
0
 62
     4
 10
85.615294999999975
 20
548.80408899999986
 30
0.0
 11
85.615294999999975
 21
551.00119000000007
 31
0.0
  0
LINE
  5
2DF
  8
0
 62
     4
 10
60.215293999999993
 20
532.45919000000004
 30
0.0
 11
60.215293999999993
 21
537.73096099999998
 31
0.0
  0
LINE
  5
2E0
  8
0
 62
     4
 10
60.215293999999993
 20
545.72941999999989
 30
0.0
 11
60.215293999999993
 21
547.95318999999995
 31
0.0
  0
LINE
  5
2E1
  8
0
 62
     4
 10
80.395595999999998
 20
535.50719100000003
 30
0.0
 11
80.395595999999998
 21
537.704205
 31
0.0
  0
LINE
  5
2E2
  8
0
 62
     4
 10
66.171593000000001
 20
535.50719100000003
 30
0.0
 11
66.171593000000001
 21
537.73105599999985
 31
0.0
  0
LINE
  5
2E3
  8
0
 62
     4
 10
66.171593000000001
 20
545.72941999999989
 30
0.0
 11
66.171593000000001
 21
551.00119000000007
 31
0.0
  0
LINE
  5
2E4
  8
0
 62
     4
 10
80.395595999999998
 20
548.80415300000004
 30
0.0
 11
80.395595999999998
 21
551.00119000000007
 31
0.0
  0
LINE
  5
2E5
  8
0
 62
     4
 10
89.425296999999986
 20
543.254189
 30
0.0
 11
89.425296999999986
 21
545.74338899999987
 31
0.0
  0
LINE
  5
2E6
  8
0
 62
     4
 10
89.425296999999986
 20
540.76499199999989
 30
0.0
 11
89.425296999999986
 21
543.254189
 31
0.0
  0
ARC
  5
2E7
  8
0
 62
     4
 10
75.931545
 20
543.254189
 30
0.0
 40
2.3812500000000001
 50
180.00000299999991
 51
210.00000299999991
  0
ARC
  5
2E8
  8
0
 62
     4
 10
75.931545
 20
543.254189
 30
0.0
 40
2.3812500000000001
 50
150.00000299999991
 51
180.00000299999991
  0
LINE
  5
2E9
  8
0
 62
     4
 10
73.869324000000006
 20
544.44481699999994
 30
0.0
 11
76.389815999999996
 21
548.81043999999997
 31
0.0
  0
LINE
  5
2EA
  8
0
 62
     4
 10
76.389815999999996
 20
537.69794100000001
 30
0.0
 11
73.869324000000006
 21
542.06356399999993
 31
0.0
  0
LINE
  5
2EB
  8
0
 62
     4
 10
88.234668999999997
 20
548.81043999999997
 30
0.0
 11
76.389815999999996
 21
548.81043999999997
 31
0.0
  0
LINE
  5
2EC
  8
0
 62
     4
 10
88.234668999999997
 20
537.69794100000001
 30
0.0
 11
76.389815999999996
 21
537.69794100000001
 31
0.0
  0
LINE
  5
2ED
  8
0
 62
     4
 10
88.234668999999997
 20
537.69794100000001
 30
0.0
 11
89.425296999999986
 21
538.88856499999997
 31
0.0
  0
LINE
  5
2EE
  8
0
 62
     4
 10
89.425296999999986
 20
547.61981600000001
 30
0.0
 11
88.234668999999997
 21
548.81043999999997
 31
0.0
  0
LINE
  5
2EF
  8
0
 62
     4
 10
89.425296999999986
 20
545.74338899999987
 30
0.0
 11
89.425296999999986
 21
547.61981600000001
 31
0.0
  0
LINE
  5
2F0
  8
0
 62
     4
 10
89.425296999999986
 20
538.88856499999997
 30
0.0
 11
89.425296999999986
 21
540.76499199999989
 31
0.0
  0
LINE
  5
2F1
  8
0
  6
DASHDOT
 62
     7
 10
70.427031999999997
 20
541.73018999999999
 30
0.0
 11
57.215293999999993
 21
541.73018999999999
 31
0.0
  0
LINE
  5
2F2
  8
0
  6
DASHDOT
 62
     7
 10
73.283591999999999
 20
532.50719100000003
 30
0.0
 11
73.283591999999999
 21
554.00118999999995
 31
0.0
  0
LINE
  5
2F3
  8
0
  6
DASHDOT
 62
     7
 10
92.425297
 20
543.254189
 30
0.0
 11
70.550293000000011
 21
543.254189
 31
0.0
  0
LINE
  5
2F4
  8
0
 62
     7
 10
88.234668999999997
 20
537.69794100000001
 30
0.0
 11
88.234668999999997
 21
548.81043999999997
 31
0.0
  0
LINE
  5
2F5
  8
0
 62
     7
 10
76.389815999999996
 20
537.69794100000001
 30
0.0
 11
76.389815999999996
 21
548.81043999999997
 31
0.0
  0
LINE
  5
2F6
  8
0
 62
     7
 10
88.234668999999997
 20
538.49793999999997
 30
0.0
 11
76.389815999999996
 21
538.49793999999997
 31
0.0
  0
LINE
  5
2F7
  8
0
 62
     7
 10
88.234668999999997
 20
548.01044100000001
 30
0.0
 11
76.389815999999996
 21
548.01044100000001
 31
0.0
  0
LINE
  5
2F8
  8
0
 62
     7
 10
191.5583649999999
 20
558.48018599999989
 30
0.0
 11
192.600235
 21
564.38902999999993
 31
0.0
  0
LINE
  5
2F9
  8
0
 62
     7
 10
191.5583649999999
 20
558.48018599999989
 30
0.0
 11
190.5164639999999
 21
564.38902999999993
 31
0.0
  0
LINE
  5
2FA
  8
0
 62
     7
 10
191.5583649999999
 20
663.480186
 30
0.0
 11
190.5164639999999
 21
657.57134199999985
 31
0.0
  0
LINE
  5
2FB
  8
0
 62
     7
 10
191.5583649999999
 20
663.480186
 30
0.0
 11
192.600266
 21
657.57134199999985
 31
0.0
  0
LINE
  5
2FC
  8
0
 62
     7
 10
191.5583649999999
 20
558.48018599999989
 30
0.0
 11
191.5583649999999
 21
663.480186
 31
0.0
  0
LINE
  5
2FD
  8
0
 62
     7
 10
195.5583649999999
 20
558.48018599999989
 30
0.0
 11
142.21528599999999
 21
558.48018599999989
 31
0.0
  0
LINE
  5
2FE
  8
0
 62
     7
 10
195.5583649999999
 20
663.480186
 30
0.0
 11
142.21528599999999
 21
663.480186
 31
0.0
  0
LINE
  5
2FF
  8
0
 62
     7
 10
-37.998961999999999
 20
541.73019399999998
 30
0.0
 11
-36.957076999999998
 21
547.63903800000003
 31
0.0
  0
LINE
  5
300
  8
0
 62
     7
 10
-37.998961999999999
 20
541.73019399999998
 30
0.0
 11
-39.04084799999999
 21
547.63903800000003
 31
0.0
  0
LINE
  5
301
  8
0
 62
     7
 10
-37.998961999999999
 20
684.73018599999989
 30
0.0
 11
-39.04084799999999
 21
678.82134199999985
 31
0.0
  0
LINE
  5
302
  8
0
 62
     7
 10
-37.998961999999999
 20
684.73018599999989
 30
0.0
 11
-36.957076999999998
 21
678.82134199999985
 31
0.0
  0
LINE
  5
303
  8
0
 62
     7
 10
-37.998961999999999
 20
541.73019399999998
 30
0.0
 11
-37.998961999999999
 21
684.73018599999989
 31
0.0
  0
LINE
  5
304
  8
0
 62
     7
 10
-41.998961999999999
 20
541.73019399999998
 30
0.0
 11
49.888259999999988
 21
541.73020199999996
 31
0.0
  0
LINE
  5
305
  8
0
 62
     7
 10
-41.998961999999999
 20
684.73018599999989
 30
0.0
 11
49.888259999999988
 21
684.73018599999989
 31
0.0
  0
LINE
  5
306
  8
0
 62
     7
 10
138.71659899999989
 20
441.48436700000002
 30
0.0
 11
132.80775499999999
 21
442.526253
 31
0.0
  0
LINE
  5
307
  8
0
 62
     7
 10
138.71659899999989
 20
441.48436700000002
 30
0.0
 11
132.80775499999999
 21
440.44246700000002
 31
0.0
  0
LINE
  5
308
  8
0
 62
     7
 10
35.215285999999992
 20
441.484398
 30
0.0
 11
41.124130000000001
 21
440.44249699999989
 31
0.0
  0
LINE
  5
309
  8
0
 62
     7
 10
35.215285999999992
 20
441.484398
 30
0.0
 11
41.124130000000001
 21
442.52628299999998
 31
0.0
  0
LINE
  5
30A
  8
0
 62
     7
 10
32.215285999999999
 20
441.484398
 30
0.0
 11
26.30644199999999
 21
442.52628299999998
 31
0.0
  0
LINE
  5
30B
  8
0
 62
     7
 10
32.215285999999999
 20
441.484398
 30
0.0
 11
26.30644199999999
 21
440.44249699999989
 31
0.0
  0
LINE
  5
30C
  8
0
 62
     7
 10
138.71659899999989
 20
441.48436700000002
 30
0.0
 11
15.21528599999999
 21
441.484398
 31
0.0
  0
LINE
  5
30D
  8
0
 62
     7
 10
138.71659899999989
 20
437.48436700000002
 30
0.0
 11
138.71662900000001
 21
558.48018599999989
 31
0.0
  0
LINE
  5
30E
  8
0
 62
     7
 10
35.215285999999992
 20
437.484398
 30
0.0
 11
35.215302000000001
 21
472.91696899999999
 31
0.0
  0
LINE
  5
30F
  8
0
 62
     7
 10
32.215285999999999
 20
437.484398
 30
0.0
 11
32.215302000000001
 21
473.039421
 31
0.0
  0
LINE
  5
310
  8
0
 62
     7
 10
170.26036099999999
 20
412.262001
 30
0.0
 11
164.351517
 21
413.30388599999998
 31
0.0
  0
LINE
  5
311
  8
0
 62
     7
 10
170.26036099999999
 20
412.262001
 30
0.0
 11
164.351517
 21
411.22011600000002
 31
0.0
  0
LINE
  5
312
  8
0
 62
     7
 10
35.215285999999992
 20
412.26198599999992
 30
0.0
 11
41.124130000000001
 21
411.22009999999989
 31
0.0
  0
LINE
  5
313
  8
0
 62
     7
 10
35.215285999999992
 20
412.26198599999992
 30
0.0
 11
41.124130000000001
 21
413.30388599999998
 31
0.0
  0
LINE
  5
314
  8
0
 62
     7
 10
170.26036099999999
 20
412.262001
 30
0.0
 11
35.215285999999992
 21
412.262001
 31
0.0
  0
LINE
  5
315
  8
0
 62
     7
 10
170.26036099999999
 20
408.262001
 30
0.0
 11
170.2603299999999
 21
600.730186
 31
0.0
  0
LINE
  5
316
  8
0
 62
     7
 10
35.215285999999992
 20
408.26198599999992
 30
0.0
 11
35.215271000000001
 21
472.91692399999999
 31
0.0
  0
LINE
  5
317
  8
0
 62
     7
 10
144.21528599999999
 20
427.50139599999989
 30
0.0
 11
150.12413000000001
 21
426.45951100000002
 31
0.0
  0
LINE
  5
318
  8
0
 62
     7
 10
144.21528599999999
 20
427.50139599999989
 30
0.0
 11
150.12413000000001
 21
428.543297
 31
0.0
  0
LINE
  5
319
  8
0
 62
     7
 10
142.21528599999999
 20
427.50139599999989
 30
0.0
 11
136.306442
 21
428.543297
 31
0.0
  0
LINE
  5
31A
  8
0
 62
     7
 10
142.21528599999999
 20
427.50139599999989
 30
0.0
 11
136.306442
 21
426.45951100000002
 31
0.0
  0
LINE
  5
31B
  8
0
 62
     7
 10
35.215285999999992
 20
427.50139599999989
 30
0.0
 11
41.124130000000001
 21
426.45951100000002
 31
0.0
  0
LINE
  5
31C
  8
0
 62
     7
 10
35.215285999999992
 20
427.50139599999989
 30
0.0
 11
41.124130000000001
 21
428.54328199999998
 31
0.0
  0
LINE
  5
31D
  8
0
 62
     7
 10
155.71528599999999
 20
427.50141099999991
 30
0.0
 11
35.215285999999992
 21
427.50139599999989
 31
0.0
  0
LINE
  5
31E
  8
0
 62
     7
 10
144.21528599999999
 20
423.50139599999989
 30
0.0
 11
144.21528599999999
 21
490.5148089999999
 31
0.0
  0
LINE
  5
31F
  8
0
 62
     7
 10
142.21528599999999
 20
423.50139599999989
 30
0.0
 11
142.21528599999999
 21
491.71301999999997
 31
0.0
  0
LINE
  5
320
  8
0
 62
     7
 10
35.215285999999992
 20
423.50139599999989
 30
0.0
 11
35.215285999999992
 21
472.91692399999999
 31
0.0
  0
LINE
  5
321
  8
0
 62
     7
 10
-22.690017999999991
 20
684.73018599999989
 30
0.0
 11
-23.731902999999999
 21
678.82134199999985
 31
0.0
  0
LINE
  5
322
  8
0
 62
     7
 10
-22.690017999999991
 20
684.73018599999989
 30
0.0
 11
-21.648132
 21
678.82134199999985
 31
0.0
  0
LINE
  5
323
  8
0
 62
     7
 10
-22.690017999999991
 20
610.980186
 30
0.0
 11
-21.648132
 21
616.88902999999993
 31
0.0
  0
LINE
  5
324
  8
0
 62
     7
 10
-22.690017999999991
 20
610.980186
 30
0.0
 11
-23.731902999999999
 21
616.88902999999993
 31
0.0
  0
LINE
  5
325
  8
0
 62
     7
 10
-22.690017999999991
 20
684.73018599999989
 30
0.0
 11
-22.690017999999991
 21
610.980186
 31
0.0
  0
LINE
  5
326
  8
0
 62
     7
 10
-26.690017999999998
 20
684.73018599999989
 30
0.0
 11
49.888259999999988
 21
684.73018599999989
 31
0.0
  0
LINE
  5
327
  8
0
 62
     7
 10
-26.690017999999998
 20
610.980186
 30
0.0
 11
7.0505519999999997
 21
610.980186
 31
0.0
  0
LINE
  5
328
  8
0
 62
     7
 10
-25.801468
 20
541.73019399999998
 30
0.0
 11
-24.759582999999999
 21
547.63903800000003
 31
0.0
  0
LINE
  5
329
  8
0
 62
     7
 10
-25.801468
 20
541.73019399999998
 30
0.0
 11
-26.843353
 21
547.63903800000003
 31
0.0
  0
LINE
  5
32A
  8
0
 62
     7
 10
-25.801468
 20
528.230186
 30
0.0
 11
-26.843353
 21
522.32134199999985
 31
0.0
  0
LINE
  5
32B
  8
0
 62
     7
 10
-25.801468
 20
528.230186
 30
0.0
 11
-24.759582999999999
 21
522.32134199999985
 31
0.0
  0
LINE
  5
32C
  8
0
 62
     7
 10
-25.801468
 20
569.73019399999998
 30
0.0
 11
-25.801468
 21
528.230186
 31
0.0
  0
LINE
  5
32D
  8
0
 62
     7
 10
-29.801467999999989
 20
541.73019399999998
 30
0.0
 11
49.888259999999988
 21
541.73019399999998
 31
0.0
  0
LINE
  5
32E
  8
0
 62
     7
 10
-29.801467999999989
 20
528.230186
 30
0.0
 11
52.215285999999999
 21
528.230186
 31
0.0
  0
LINE
  5
32F
  8
0
 62
     7
 10
-283.09659799999991
 20
695.43017399999997
 30
0.0
 11
-283.09659799999991
 21
697.23017699999991
 31
0.0
  0
LINE
  5
330
  8
0
 62
     7
 10
-283.09659799999991
 20
695.43017399999997
 30
0.0
 11
-285.59659799999991
 21
695.43017399999997
 31
0.0
  0
LINE
  5
331
  8
0
 62
     7
 10
-285.5966049999999
 20
531.03017999999986
 30
0.0
 11
-285.5966049999999
 21
695.43017399999997
 31
0.0
  0
LINE
  5
332
  8
0
 62
     7
 10
-283.09659799999991
 20
531.03017999999986
 30
0.0
 11
-285.59659799999991
 21
531.03017999999986
 31
0.0
  0
LINE
  5
333
  8
0
 62
     7
 10
-283.09659799999991
 20
529.23017699999991
 30
0.0
 11
-283.09659799999991
 21
531.03017999999986
 31
0.0
  0
LINE
  5
334
  8
0
 62
     7
 10
-276.34659799999991
 20
674.23017699999991
 30
0.0
 11
-276.34659799999991
 21
678.23017699999991
 31
0.0
  0
LINE
  5
335
  8
0
 62
     7
 10
-280.09659799999991
 20
681.9801769999998
 30
0.0
 11
-283.09659799999991
 21
681.9801769999998
 31
0.0
  0
LINE
  5
336
  8
0
 62
     7
 10
-283.0966049999999
 20
681.9801769999998
 30
0.0
 11
-283.0966049999999
 21
695.43017399999997
 31
0.0
  0
LINE
  5
337
  8
0
 62
     7
 10
-276.34659799999991
 20
548.2301809999999
 30
0.0
 11
-276.34659799999991
 21
552.2301809999999
 31
0.0
  0
LINE
  5
338
  8
0
 62
     7
 10
-280.09659799999991
 20
544.4801809999999
 30
0.0
 11
-283.09659799999991
 21
544.4801809999999
 31
0.0
  0
LINE
  5
339
  8
0
 62
     7
 10
-283.09659799999991
 20
531.03017999999986
 30
0.0
 11
-283.09659799999991
 21
544.4801769999998
 31
0.0
  0
CIRCLE
  5
33A
  8
0
 62
     7
 10
-280.09658999999988
 20
678.23018500000001
 30
0.0
 40
1.750006
  0
ARC
  5
33B
  8
0
 62
     7
 10
-280.09656699999999
 20
678.2300929999999
 30
0.0
 40
3.749919999999999
 50
269.99955399999988
 51
90.000409000000005
  0
ARC
  5
33C
  8
0
 62
     7
 10
-282.09659799999997
 20
697.23017699999991
 30
0.0
 40
1.0000039999999999
 50
90.000046999999995
 51
180.00048100000001
  0
CIRCLE
  5
33D
  8
0
 62
     7
 10
-280.09659799999991
 20
548.2301809999999
 30
0.0
 40
1.7499990000000001
  0
ARC
  5
33E
  8
0
 62
     7
 10
-282.09659799999997
 20
529.23017699999991
 30
0.0
 40
1.0
 50
180.00000900000001
 51
269.99999100000002
  0
LINE
  5
33F
  8
0
  6
DASHDOT
 62
     7
 10
-280.09656699999999
 20
671.48016900000005
 30
0.0
 11
-280.09656699999999
 21
684.980009
 31
0.0
  0
LINE
  5
340
  8
0
  6
DASHDOT
 62
     7
 10
-273.34665099999989
 20
678.2300929999999
 30
0.0
 11
-286.84649100000001
 21
678.2300929999999
 31
0.0
  0
CIRCLE
  5
341
  8
0
 62
     7
 10
-280.09659799999991
 20
548.23017699999991
 30
0.0
 40
3.7500010000000001
  0
LINE
  5
342
  8
0
 62
     7
 10
-256.59656699999999
 20
552.98020399999984
 30
0.0
 11
-284.59656699999999
 21
552.98020399999984
 31
0.0
  0
LINE
  5
343
  8
0
 62
     7
 10
-284.59656699999999
 20
552.98020399999984
 30
0.0
 11
-284.59656699999999
 21
553.98020399999984
 31
0.0
  0
LINE
  5
344
  8
0
 62
     7
 10
-256.59656699999999
 20
553.98020399999984
 30
0.0
 11
-285.5966049999999
 21
553.98020399999984
 31
0.0
  0
ARC
  5
345
  8
0
 62
     7
 10
-280.09650599999998
 20
678.23012300000005
 30
0.0
 40
3.7501059999999988
 50
90.001423999999986
 51
269.99857099999991
  0
LINE
  5
346
  8
0
 62
     7
 10
-252.34660099999991
 20
698.23017699999991
 30
0.0
 11
-282.09659799999997
 21
698.23017699999991
 31
0.0
  0
CIRCLE
  5
347
  8
0
 62
     7
 10
-268.09659799999991
 20
685.73016900000005
 30
0.0
 40
5.5000010000000001
  0
CIRCLE
  5
348
  8
0
 62
     7
 10
-268.0966049999999
 20
694.23018499999989
 30
0.0
 40
1.4000049999999991
  0
LINE
  5
349
  8
0
 62
     7
 10
-252.34660099999991
 20
528.23017699999991
 30
0.0
 11
-282.09659799999997
 21
528.23017699999991
 31
0.0
  0
CIRCLE
  5
34A
  8
0
 62
     7
 10
-268.0965819999999
 20
540.73018099999979
 30
0.0
 40
5.4999969999999996
  0
CIRCLE
  5
34B
  8
0
 62
     7
 10
-268.0965819999999
 20
532.23017699999991
 30
0.0
 40
1.399999999999999
  0
LINE
  5
34C
  8
0
 62
     7
 10
-257.79656799999998
 20
553.98020399999984
 30
0.0
 11
-257.79656799999998
 21
673.98017699999991
 31
0.0
  0
LINE
  5
34D
  8
0
 62
     7
 10
-261.39656600000001
 20
553.98020399999984
 30
0.0
 11
-261.39656600000001
 21
673.98017699999991
 31
0.0
  0
LINE
  5
34E
  8
0
 62
     7
 10
-264.99656900000002
 20
553.98020399999984
 30
0.0
 11
-264.99656900000002
 21
673.98017699999991
 31
0.0
  0
LINE
  5
34F
  8
0
 62
     7
 10
-268.59656699999988
 20
553.98020399999984
 30
0.0
 11
-268.59656699999988
 21
673.98017699999991
 31
0.0
  0
LINE
  5
350
  8
0
 62
     7
 10
-272.19656600000002
 20
553.98020399999984
 30
0.0
 11
-272.19656600000002
 21
673.98017699999991
 31
0.0
  0
LINE
  5
351
  8
0
 62
     7
 10
-275.79656399999999
 20
553.98020399999984
 30
0.0
 11
-275.79656399999999
 21
673.98017699999991
 31
0.0
  0
LINE
  5
352
  8
0
 62
     7
 10
-279.39657
 20
553.98020399999984
 30
0.0
 11
-279.39657
 21
673.98017699999991
 31
0.0
  0
LINE
  5
353
  8
0
 62
     7
 10
-282.99656900000002
 20
553.98020399999984
 30
0.0
 11
-282.99656900000002
 21
673.98017699999991
 31
0.0
  0
LINE
  5
354
  8
0
 62
     7
 10
-256.59656699999999
 20
663.480188
 30
0.0
 11
-285.5966049999999
 21
663.480188
 31
0.0
  0
LINE
  5
355
  8
0
 62
     7
 10
-256.59656699999999
 20
558.48018799999988
 30
0.0
 11
-285.5966049999999
 21
558.48018799999988
 31
0.0
  0
LINE
  5
356
  8
0
 62
     7
 10
-256.59656699999999
 20
673.98017699999991
 30
0.0
 11
-285.5966049999999
 21
673.98017699999991
 31
0.0
  0
LINE
  5
357
  8
0
 62
   211
 10
-218.09660099999991
 20
693.73017699999991
 30
0.0
 11
-218.09660099999991
 21
695.23017699999991
 31
0.0
  0
LINE
  5
358
  8
0
 62
   211
 10
-213.09660099999991
 20
693.73017699999991
 30
0.0
 11
-213.09660099999991
 21
695.23017699999991
 31
0.0
  0
LINE
  5
359
  8
0
 62
     7
 10
-145.596598
 20
695.43017399999997
 30
0.0
 11
-148.096598
 21
695.43017399999997
 31
0.0
  0
LINE
  5
35A
  8
0
 62
     7
 10
-148.096598
 20
695.43017399999997
 30
0.0
 11
-148.096598
 21
697.23017699999991
 31
0.0
  0
LINE
  5
35B
  8
0
 62
     7
 10
-217.34660099999991
 20
698.23017699999991
 30
0.0
 11
-248.84661299999991
 21
698.23017699999991
 31
0.0
  0
LINE
  5
35C
  8
0
 62
     7
 10
-182.346532
 20
698.23017699999991
 30
0.0
 11
-213.84660199999999
 21
698.23017699999991
 31
0.0
  0
LINE
  5
35D
  8
0
 62
     7
 10
-149.096598
 20
698.23017699999991
 30
0.0
 11
-178.84653299999999
 21
698.23017699999991
 31
0.0
  0
LINE
  5
35E
  8
0
 62
     7
 10
-213.0966019999999
 20
691.73017699999991
 30
0.0
 11
-218.09660099999991
 21
691.73017699999991
 31
0.0
  0
LINE
  5
35F
  8
0
 62
     7
 10
-148.096598
 20
691.48018499999989
 30
0.0
 11
-148.096598
 21
695.43017399999997
 31
0.0
  0
LINE
  5
360
  8
0
 62
     7
 10
-248.09660099999991
 20
691.48018499999989
 30
0.0
 11
-248.09660099999991
 21
695.43017399999997
 31
0.0
  0
LINE
  5
361
  8
0
 62
     7
 10
-145.596598
 20
691.48018499999989
 30
0.0
 11
-145.596598
 21
695.43017399999997
 31
0.0
  0
CIRCLE
  5
362
  8
0
  6
DASHSPACE
 62
     7
 10
-233.096598
 20
685.73016900000005
 30
0.0
 40
5.5000010000000001
  0
CIRCLE
  5
363
  8
0
  6
DASHSPACE
 62
     7
 10
-215.59660099999991
 20
682.73018500000001
 30
0.0
 40
4.499992999999999
  0
CIRCLE
  5
364
  8
0
  6
DASHSPACE
 62
     7
 10
-198.09656699999991
 20
685.73016900000005
 30
0.0
 40
5.500030999999999
  0
ARC
  5
365
  8
0
 62
     7
 10
-180.59659999999991
 20
674.73018500000001
 30
0.0
 40
3.7500070000000001
 50
180.000125
 51
187.66229999999999
  0
CIRCLE
  5
366
  8
0
  6
DASHSPACE
 62
     7
 10
-180.5965939999999
 20
682.73018500000001
 30
0.0
 40
4.5
  0
CIRCLE
  5
367
  8
0
  6
DASHSPACE
 62
     7
 10
-163.09658999999991
 20
685.73020700000006
 30
0.0
 40
5.4999719999999996
  0
ARC
  5
368
  8
0
 62
     7
 10
-149.09658999999991
 20
697.23018500000001
 30
0.0
 40
0.999995
 50
359.99980899999991
 51
90.000230999999985
  0
LINE
  5
369
  8
0
  6
DASHDOT
 62
     7
 10
-233.09660099999991
 20
689.83018300000003
 30
0.0
 11
-233.09660099999991
 21
698.63019399999996
 31
0.0
  0
LINE
  5
36A
  8
0
  6
DASHDOT
 62
     7
 10
-224.59659599999989
 20
685.73016900000005
 30
0.0
 11
-241.596598
 21
685.73016900000005
 31
0.0
  0
LINE
  5
36B
  8
0
  6
DASHDOT
 62
     7
 10
-189.59653599999999
 20
685.73016900000005
 30
0.0
 11
-206.596599
 21
685.73016900000005
 31
0.0
  0
LINE
  5
36C
  8
0
  6
DASHDOT
 62
     7
 10
-215.59660099999991
 20
675.23019199999987
 30
0.0
 11
-215.59660099999991
 21
700.59379399999989
 31
0.0
  0
LINE
  5
36D
  8
0
  6
DASHDOT
 62
     7
 10
-208.09660899999989
 20
682.73018500000001
 30
0.0
 11
-223.09659600000001
 21
682.73018500000001
 31
0.0
  0
LINE
  5
36E
  8
0
  6
DASHDOT
 62
     7
 10
-163.096586
 20
689.830198
 30
0.0
 11
-163.096586
 21
698.63017799999989
 31
0.0
  0
LINE
  5
36F
  8
0
  6
DASHDOT
 62
     7
 10
-154.5966169999999
 20
685.73020700000006
 30
0.0
 11
-171.59656100000001
 21
685.73020700000006
 31
0.0
  0
LINE
  5
370
  8
0
  6
DASHDOT
 62
     7
 10
-233.09657899999999
 20
675.13369599999987
 30
0.0
 11
-233.09657899999999
 21
695.39631499999996
 31
0.0
  0
LINE
  5
371
  8
0
  6
DASHDOT
 62
     7
 10
-163.09652500000001
 20
676.12252599999988
 30
0.0
 11
-163.09652500000001
 21
697.17891500000007
 31
0.0
  0
ARC
  5
372
  8
0
 62
     7
 10
-215.59660699999989
 20
674.73019999999985
 30
0.0
 40
3.7500239999999989
 50
352.33745699999992
 51
359.99997300000001
  0
LINE
  5
373
  8
0
 62
     3
 10
-146.09658200000001
 20
663.480188
 30
0.0
 11
-250.09656699999991
 21
663.480188
 31
0.0
  0
LINE
  5
374
  8
0
 62
     3
 10
-146.09658200000001
 20
558.48020399999984
 30
0.0
 11
-159.59658200000001
 21
558.48020399999984
 31
0.0
  0
LINE
  5
375
  8
0
 62
     3
 10
-171.09658200000001
 20
558.48020399999984
 30
0.0
 11
-195.64728799999989
 21
558.48020399999984
 31
0.0
  0
LINE
  5
376
  8
0
 62
     3
 10
-236.59656699999999
 20
558.48020399999984
 30
0.0
 11
-250.09656699999991
 21
558.48020399999984
 31
0.0
  0
LINE
  5
377
  8
0
 62
     3
 10
-225.09656699999991
 20
558.48020399999984
 30
0.0
 11
-236.59656699999999
 21
558.48020399999984
 31
0.0
  0
LINE
  5
378
  8
0
 62
     3
 10
-159.59658200000001
 20
558.48020399999984
 30
0.0
 11
-171.09658200000001
 21
558.48020399999984
 31
0.0
  0
LINE
  5
379
  8
0
  6
DASHDOT
 62
     7
 10
-198.09656699999991
 20
540.35900300000003
 30
0.0
 11
-198.09656699999991
 21
643.65427599999998
 31
0.0
  0
ARC
  5
37A
  8
0
 62
     3
 10
-250.09656699999991
 20
558.98020399999984
 30
0.0
 40
0.5
 50
180.00000299999991
 51
270.00000499999987
  0
ARC
  5
37B
  8
0
 62
     3
 10
-250.09656699999991
 20
662.980188
 30
0.0
 40
0.5
 50
90.0
 51
180.00000299999991
  0
ARC
  5
37C
  8
0
 62
     3
 10
-146.09658200000001
 20
662.980188
 30
0.0
 40
0.5
 50
0.000001
 51
90.0
  0
ARC
  5
37D
  8
0
 62
     3
 10
-146.09658200000001
 20
558.98020399999984
 30
0.0
 40
0.5
 50
270.00000499999987
 51
0.000001
  0
LINE
  5
37E
  8
0
  6
DASHDOT
 62
     7
 10
-198.09656699999991
 20
649.43350799999985
 30
0.0
 11
-198.09656699999991
 21
678.34375599999998
 31
0.0
  0
LINE
  5
37F
  8
0
 62
     3
 10
-200.54601700000001
 20
558.48020399999984
 30
0.0
 11
-225.09656699999991
 21
558.48020399999984
 31
0.0
  0
LINE
  5
380
  8
0
 62
     7
 10
-225.5965819999999
 20
558.48018799999988
 30
0.0
 11
-235.59656699999991
 21
558.48018799999988
 31
0.0
  0
LINE
  5
381
  8
0
 62
     7
 10
-160.596598
 20
558.48018799999988
 30
0.0
 11
-170.596598
 21
558.48018799999988
 31
0.0
  0
LINE
  5
382
  8
0
 62
     7
 10
-146.09656699999999
 20
663.480188
 30
0.0
 11
-250.09656699999991
 21
663.480188
 31
0.0
  0
LINE
  5
383
  8
0
 62
     7
 10
-235.59656699999991
 20
558.48018799999988
 30
0.0
 11
-250.09656699999991
 21
558.48018799999988
 31
0.0
  0
LINE
  5
384
  8
0
 62
     7
 10
-170.596598
 20
558.48018799999988
 30
0.0
 11
-225.5965819999999
 21
558.48018799999988
 31
0.0
  0
LINE
  5
385
  8
0
 62
     7
 10
-146.09656699999999
 20
558.48018799999988
 30
0.0
 11
-160.596598
 21
558.48018799999988
 31
0.0
  0
LINE
  5
386
  8
0
 62
     7
 10
-187.34656699999991
 20
580.73017100000004
 30
0.0
 11
-187.34656699999991
 21
620.73015599999985
 31
0.0
  0
LINE
  5
387
  8
0
 62
     7
 10
-208.84656699999999
 20
580.73017100000004
 30
0.0
 11
-208.84656699999999
 21
620.73015599999985
 31
0.0
  0
LINE
  5
388
  8
0
 62
     7
 10
-145.59656699999991
 20
651.48015799999985
 30
0.0
 11
-250.59656699999999
 21
651.48015799999985
 31
0.0
  0
LINE
  5
389
  8
0
 62
     7
 10
-145.59656699999991
 20
661.48015799999985
 30
0.0
 11
-250.59656699999999
 21
661.48015799999985
 31
0.0
  0
LINE
  5
38A
  8
0
 62
     7
 10
-187.34656699999991
 20
620.46569099999988
 30
0.0
 11
-208.84656699999999
 21
620.46569099999988
 31
0.0
  0
LINE
  5
38B
  8
0
 62
     7
 10
-187.34656699999991
 20
620.73015599999985
 30
0.0
 11
-208.84656699999999
 21
620.73015599999985
 31
0.0
  0
LINE
  5
38C
  8
0
 62
     7
 10
-187.34656699999991
 20
580.73017100000004
 30
0.0
 11
-208.84656699999999
 21
580.73017100000004
 31
0.0
  0
LINE
  5
38D
  8
0
 62
     7
 10
-187.34656699999991
 20
580.99466699999994
 30
0.0
 11
-208.84656699999999
 21
580.99466699999994
 31
0.0
  0
LINE
  5
38E
  8
0
  6
DASHDOT
 62
     7
 10
-198.09656699999991
 20
514.88632800000005
 30
0.0
 11
-198.09656699999991
 21
641.68259199999989
 31
0.0
  0
LINE
  5
38F
  8
0
  6
DASHDOT
 62
     7
 10
-198.09656699999991
 20
640.90985699999999
 30
0.0
 11
-198.09656699999991
 21
719.18331000000001
 31
0.0
  0
LINE
  5
390
  8
0
 62
     7
 10
-145.59658200000001
 20
558.97628199999997
 30
0.0
 11
-145.59658200000001
 21
662.980188
 31
0.0
  0
LINE
  5
391
  8
0
 62
     7
 10
-250.59656699999999
 20
558.980188
 30
0.0
 11
-250.59656699999999
 21
662.980188
 31
0.0
  0
ARC
  5
392
  8
0
 62
     7
 10
-250.09656699999991
 20
558.980188
 30
0.0
 40
0.5
 50
180.00000299999991
 51
270.00000499999987
  0
ARC
  5
393
  8
0
 62
     7
 10
-146.09656699999999
 20
558.980188
 30
0.0
 40
0.5
 50
270.00000499999987
 51
359.55237699999992
  0
ARC
  5
394
  8
0
 62
     7
 10
-146.09656699999999
 20
662.980188
 30
0.0
 40
0.5
 50
0.000001
 51
90.0
  0
ARC
  5
395
  8
0
 62
     7
 10
-250.09656699999991
 20
662.980188
 30
0.0
 40
0.5
 50
90.0
 51
180.00000299999991
  0
LINE
  5
396
  8
0
 62
     7
 10
-220.59656699999991
 20
621.98017100000004
 30
0.0
 11
-222.09656699999999
 21
621.98017100000004
 31
0.0
  0
LINE
  5
397
  8
0
 62
     7
 10
-220.59656699999991
 20
612.98017100000004
 30
0.0
 11
-222.09656699999999
 21
612.98017100000004
 31
0.0
  0
CIRCLE
  5
398
  8
0
 62
     7
 10
-221.34656699999999
 20
583.98017100000004
 30
0.0
 40
4.5
  0
CIRCLE
  5
399
  8
0
 62
     7
 10
-221.34656699999999
 20
583.98017100000004
 30
0.0
 40
3.0
  0
LINE
  5
39A
  8
0
 62
     7
 10
-222.09656699999999
 20
612.98017100000004
 30
0.0
 11
-222.09656699999999
 21
621.98017100000004
 31
0.0
  0
LINE
  5
39B
  8
0
 62
     7
 10
-220.59656699999991
 20
612.98017100000004
 30
0.0
 11
-220.59656699999991
 21
621.98017100000004
 31
0.0
  0
LINE
  5
39C
  8
0
 62
     7
 10
-172.54657700000001
 20
587.83017199999995
 30
0.0
 11
-172.99657599999989
 21
587.83017199999995
 31
0.0
  0
LINE
  5
39D
  8
0
 62
     7
 10
-173.496576
 20
580.13017100000002
 30
0.0
 11
-174.29657700000001
 21
580.13017100000002
 31
0.0
  0
LINE
  5
39E
  8
0
 62
     7
 10
-180.69657699999991
 20
582.73017100000004
 30
0.0
 11
-180.69657699999991
 21
583.23017100000004
 31
0.0
  0
LINE
  5
39F
  8
0
 62
     7
 10
-175.496576
 20
582.73017100000004
 30
0.0
 11
-175.496576
 21
583.23017100000004
 31
0.0
  0
ARC
  5
3A0
  8
0
 62
     7
 10
-178.09657699999991
 20
583.23017100000004
 30
0.0
 40
2.6000000000000001
 50
0.000001
 51
180.00000299999991
  0
ARC
  5
3A1
  8
0
 62
     7
 10
-178.09657699999991
 20
582.73017100000004
 30
0.0
 40
2.6000000000000001
 50
180.00000299999991
 51
0.000001
  0
ARC
  5
3A2
  8
0
 62
     7
 10
-178.09657699999991
 20
583.23017100000004
 30
0.0
 40
1.8
 50
0.000001
 51
180.00000299999991
  0
ARC
  5
3A3
  8
0
 62
     7
 10
-178.09657699999991
 20
582.73017100000004
 30
0.0
 40
1.8
 50
180.00000299999991
 51
0.000001
  0
LINE
  5
3A4
  8
0
 62
     7
 10
-179.89657800000001
 20
582.73017100000004
 30
0.0
 11
-179.89657800000001
 21
583.23017100000004
 31
0.0
  0
LINE
  5
3A5
  8
0
 62
     7
 10
-176.29657700000001
 20
582.73017100000004
 30
0.0
 11
-176.29657700000001
 21
583.23017100000004
 31
0.0
  0
LINE
  5
3A6
  8
0
 62
     7
 10
-175.24657599999989
 20
584.63017100000002
 30
0.0
 11
-175.24657599999989
 21
585.43017099999986
 31
0.0
  0
LINE
  5
3A7
  8
0
 62
     7
 10
-174.29657700000001
 20
584.63017100000002
 30
0.0
 11
-175.24657599999989
 21
584.63017100000002
 31
0.0
  0
LINE
  5
3A8
  8
0
 62
     7
 10
-172.54657700000001
 20
584.63017100000002
 30
0.0
 11
-172.54657700000001
 21
585.43017099999986
 31
0.0
  0
LINE
  5
3A9
  8
0
 62
     7
 10
-174.29657700000001
 20
585.43017099999986
 30
0.0
 11
-175.24657599999989
 21
585.43017099999986
 31
0.0
  0
LINE
  5
3AA
  8
0
 62
     7
 10
-174.29657700000001
 20
580.13017100000002
 30
0.0
 11
-174.29657700000001
 21
584.63017100000002
 31
0.0
  0
LINE
  5
3AB
  8
0
 62
     7
 10
-173.496576
 20
580.13017100000002
 30
0.0
 11
-173.496576
 21
584.63017100000002
 31
0.0
  0
LINE
  5
3AC
  8
0
 62
     7
 10
-172.54657700000001
 20
584.63017100000002
 30
0.0
 11
-173.496576
 21
584.63017100000002
 31
0.0
  0
LINE
  5
3AD
  8
0
 62
     7
 10
-172.54657700000001
 20
585.43017099999986
 30
0.0
 11
-173.496576
 21
585.43017099999986
 31
0.0
  0
LINE
  5
3AE
  8
0
 62
     7
 10
-174.29657700000001
 20
585.43017099999986
 30
0.0
 11
-174.29657700000001
 21
586.53017099999988
 31
0.0
  0
LINE
  5
3AF
  8
0
 62
     7
 10
-173.496576
 20
585.43017099999986
 30
0.0
 11
-173.496576
 21
586.53017099999988
 31
0.0
  0
ARC
  5
3B0
  8
0
 62
     7
 10
-172.99657599999989
 20
586.53017099999988
 30
0.0
 40
1.3
 50
90.000010000000003
 51
180.00000299999991
  0
ARC
  5
3B1
  8
0
 62
     7
 10
-172.99657599999989
 20
586.53017099999988
 30
0.0
 40
0.5
 50
90.000010000000003
 51
180.00000299999991
  0
LINE
  5
3B2
  8
0
 62
     7
 10
-172.54657700000001
 20
587.03017099999988
 30
0.0
 11
-172.54657700000001
 21
587.83017199999995
 31
0.0
  0
LINE
  5
3B3
  8
0
 62
     7
 10
-172.54657700000001
 20
587.03017099999988
 30
0.0
 11
-172.99657599999989
 21
587.03017099999988
 31
0.0
  0
LINE
  5
3B4
  8
0
 62
     7
 10
-169.34657699999991
 20
587.83017199999995
 30
0.0
 11
-169.79657700000001
 21
587.83017199999995
 31
0.0
  0
LINE
  5
3B5
  8
0
 62
     7
 10
-170.29657700000001
 20
580.13017100000002
 30
0.0
 11
-171.096577
 21
580.13017100000002
 31
0.0
  0
LINE
  5
3B6
  8
0
 62
     7
 10
-172.04657700000001
 20
584.63017100000002
 30
0.0
 11
-172.04657700000001
 21
585.43017099999986
 31
0.0
  0
LINE
  5
3B7
  8
0
 62
     7
 10
-171.096577
 20
584.63017100000002
 30
0.0
 11
-172.04657700000001
 21
584.63017100000002
 31
0.0
  0
LINE
  5
3B8
  8
0
 62
     7
 10
-169.34657699999991
 20
584.63017100000002
 30
0.0
 11
-169.34657699999991
 21
585.43017099999986
 31
0.0
  0
LINE
  5
3B9
  8
0
 62
     7
 10
-171.096577
 20
585.43017099999986
 30
0.0
 11
-172.04657700000001
 21
585.43017099999986
 31
0.0
  0
LINE
  5
3BA
  8
0
 62
     7
 10
-171.096577
 20
580.13017100000002
 30
0.0
 11
-171.096577
 21
584.63017100000002
 31
0.0
  0
LINE
  5
3BB
  8
0
 62
     7
 10
-170.29657700000001
 20
580.13017100000002
 30
0.0
 11
-170.29657700000001
 21
584.63017100000002
 31
0.0
  0
LINE
  5
3BC
  8
0
 62
     7
 10
-169.34657699999991
 20
584.63017100000002
 30
0.0
 11
-170.29657700000001
 21
584.63017100000002
 31
0.0
  0
LINE
  5
3BD
  8
0
 62
     7
 10
-169.34657699999991
 20
585.43017099999986
 30
0.0
 11
-170.29657700000001
 21
585.43017099999986
 31
0.0
  0
LINE
  5
3BE
  8
0
 62
     7
 10
-171.096577
 20
585.43017099999986
 30
0.0
 11
-171.096577
 21
586.53017099999988
 31
0.0
  0
LINE
  5
3BF
  8
0
 62
     7
 10
-170.29657700000001
 20
585.43017099999986
 30
0.0
 11
-170.29657700000001
 21
586.53017099999988
 31
0.0
  0
ARC
  5
3C0
  8
0
 62
     7
 10
-169.79657700000001
 20
586.53017099999988
 30
0.0
 40
1.3
 50
90.000010000000003
 51
180.00000299999991
  0
ARC
  5
3C1
  8
0
 62
     7
 10
-169.79657700000001
 20
586.53017099999988
 30
0.0
 40
0.5
 50
90.000010000000003
 51
180.00000299999991
  0
LINE
  5
3C2
  8
0
 62
     7
 10
-169.34657699999991
 20
587.03017099999988
 30
0.0
 11
-169.34657699999991
 21
587.83017199999995
 31
0.0
  0
LINE
  5
3C3
  8
0
 62
     7
 10
-169.34657699999991
 20
587.03017099999988
 30
0.0
 11
-169.79657700000001
 21
587.03017099999988
 31
0.0
  0
LINE
  5
3C4
  8
0
 62
     7
 10
-173.89657800000001
 20
614.63017100000002
 30
0.0
 11
-174.69657699999991
 21
614.63017100000002
 31
0.0
  0
ARC
  5
3C5
  8
0
 62
     7
 10
-178.09657699999991
 20
617.73017100000004
 30
0.0
 40
2.6000000000000001
 50
0.000001
 51
180.00000299999991
  0
ARC
  5
3C6
  8
0
 62
     7
 10
-178.09657699999991
 20
617.73017100000004
 30
0.0
 40
1.8
 50
0.000001
 51
180.00000299999991
  0
ARC
  5
3C7
  8
0
 62
     7
 10
-178.09657699999991
 20
617.23017100000004
 30
0.0
 40
2.6000000000000001
 50
180.00000299999991
 51
0.000001
  0
ARC
  5
3C8
  8
0
 62
     7
 10
-178.09657699999991
 20
617.23017100000004
 30
0.0
 40
1.8
 50
180.00000299999991
 51
0.000001
  0
LINE
  5
3C9
  8
0
 62
     7
 10
-176.29657700000001
 20
617.23017100000004
 30
0.0
 11
-176.29657700000001
 21
617.73017100000004
 31
0.0
  0
LINE
  5
3CA
  8
0
 62
     7
 10
-175.496576
 20
617.23017100000004
 30
0.0
 11
-175.496576
 21
617.73017100000004
 31
0.0
  0
LINE
  5
3CB
  8
0
 62
     7
 10
-179.89657800000001
 20
617.23017100000004
 30
0.0
 11
-179.89657800000001
 21
617.73017100000004
 31
0.0
  0
LINE
  5
3CC
  8
0
 62
     7
 10
-180.69657699999991
 20
617.23017100000004
 30
0.0
 11
-180.69657699999991
 21
617.73017100000004
 31
0.0
  0
LINE
  5
3CD
  8
0
 62
     7
 10
-174.69657699999991
 20
614.63017100000002
 30
0.0
 11
-174.69657699999991
 21
620.33017199999995
 31
0.0
  0
LINE
  5
3CE
  8
0
 62
     7
 10
-173.89657800000001
 20
614.63017100000002
 30
0.0
 11
-173.89657800000001
 21
618.13017100000002
 31
0.0
  0
LINE
  5
3CF
  8
0
 62
     7
 10
-171.096577
 20
614.63017100000002
 30
0.0
 11
-171.096577
 21
618.13017100000002
 31
0.0
  0
LINE
  5
3D0
  8
0
 62
     7
 10
-170.29657700000001
 20
614.63017100000002
 30
0.0
 11
-170.29657700000001
 21
618.33017199999995
 31
0.0
  0
LINE
  5
3D1
  8
0
 62
     7
 10
-173.89657800000001
 20
620.33017199999995
 30
0.0
 11
-174.69657699999991
 21
620.33017199999995
 31
0.0
  0
ARC
  5
3D2
  8
0
 62
     7
 10
-172.496576
 20
618.13017100000002
 30
0.0
 40
1.399999999999999
 50
0.000001
 51
180.00000299999991
  0
LINE
  5
3D3
  8
0
 62
     7
 10
-173.89657800000001
 20
619.53016999999988
 30
0.0
 11
-173.89657800000001
 21
620.33017199999995
 31
0.0
  0
ARC
  5
3D4
  8
0
 62
     7
 10
-172.29657700000001
 20
618.33017199999995
 30
0.0
 40
2.0
 50
0.000001
 51
143.13010199999999
  0
LINE
  5
3D5
  8
0
 62
     7
 10
-170.29657700000001
 20
614.63017100000002
 30
0.0
 11
-171.096577
 21
614.63017100000002
 31
0.0
  0
LINE
  5
3D6
  8
0
 62
     7
 10
-217.34660099999991
 20
695.23017699999991
 30
0.0
 11
-217.34660099999991
 21
698.23017699999991
 31
0.0
  0
LINE
  5
3D7
  8
0
 62
     7
 10
-213.84660199999999
 20
695.23017699999991
 30
0.0
 11
-213.84660199999999
 21
698.23017699999991
 31
0.0
  0
LINE
  5
3D8
  8
0
 62
     7
 10
-218.09660099999991
 20
691.73017699999991
 30
0.0
 11
-218.09660099999991
 21
695.23017699999991
 31
0.0
  0
LINE
  5
3D9
  8
0
 62
     7
 10
-213.0966019999999
 20
691.73017699999991
 30
0.0
 11
-213.0966019999999
 21
695.23017699999991
 31
0.0
  0
LINE
  5
3DA
  8
0
 62
     7
 10
-213.0966019999999
 20
695.23017699999991
 30
0.0
 11
-213.84660199999999
 21
695.23017699999991
 31
0.0
  0
LINE
  5
3DB
  8
0
 62
     7
 10
-217.34660099999991
 20
695.23017699999991
 30
0.0
 11
-218.09660099999991
 21
695.23017699999991
 31
0.0
  0
LINE
  5
3DC
  8
0
 62
     7
 10
-182.346532
 20
695.23017699999991
 30
0.0
 11
-182.346532
 21
698.23017699999991
 31
0.0
  0
LINE
  5
3DD
  8
0
 62
     7
 10
-178.84653299999999
 20
695.23017699999991
 30
0.0
 11
-178.84653299999999
 21
698.23017699999991
 31
0.0
  0
LINE
  5
3DE
  8
0
 62
     7
 10
-178.09653299999991
 20
691.73017699999991
 30
0.0
 11
-178.09653299999991
 21
695.23017699999991
 31
0.0
  0
LINE
  5
3DF
  8
0
 62
     7
 10
-178.09653299999991
 20
691.73017699999991
 30
0.0
 11
-183.09653199999991
 21
691.73017699999991
 31
0.0
  0
LINE
  5
3E0
  8
0
 62
     7
 10
-183.09653199999991
 20
691.73017699999991
 30
0.0
 11
-183.09653199999991
 21
695.23017699999991
 31
0.0
  0
LINE
  5
3E1
  8
0
 62
     7
 10
-178.09653299999991
 20
695.23017699999991
 30
0.0
 11
-178.84653299999999
 21
695.23017699999991
 31
0.0
  0
LINE
  5
3E2
  8
0
 62
     7
 10
-182.346532
 20
695.23017699999991
 30
0.0
 11
-183.09653199999991
 21
695.23017699999991
 31
0.0
  0
LINE
  5
3E3
  8
0
 62
     7
 10
-187.34656699999991
 20
594.85549200000003
 30
0.0
 11
-208.84656699999999
 21
594.85549200000003
 31
0.0
  0
LINE
  5
3E4
  8
0
 62
     7
 10
-187.34656699999991
 20
588.73902599999997
 30
0.0
 11
-208.84656699999999
 21
588.73902599999997
 31
0.0
  0
LINE
  5
3E5
  8
0
 62
     7
 10
-187.34656699999991
 20
582.79120799999987
 30
0.0
 11
-208.84656699999999
 21
582.79120799999987
 31
0.0
  0
LINE
  5
3E6
  8
0
 62
     7
 10
-187.34656699999991
 20
581.98846100000003
 30
0.0
 11
-208.84656699999999
 21
581.98846100000003
 31
0.0
  0
LINE
  5
3E7
  8
0
  6
DASHDOT
 62
     7
 10
-102.164911
 20
610.980186
 30
0.0
 11
-287.56623999999988
 21
610.980186
 31
0.0
  0
LINE
  5
3E8
  8
0
  6
DASHDOT
 62
     7
 10
-305.97004900000002
 20
610.980186
 30
0.0
 11
-326.07791299999991
 21
610.980186
 31
0.0
  0
LINE
  5
3E9
  8
0
  6
DASHDOT
 62
     7
 10
-180.5965939999999
 20
675.771658
 30
0.0
 11
-180.5965939999999
 21
701.15737000000001
 31
0.0
  0
LINE
  5
3EA
  8
0
  6
DASHDOT
 62
     7
 10
-174.0121969999999
 20
682.73018500000001
 30
0.0
 11
-187.33115900000001
 21
682.73018500000001
 31
0.0
  0
ARC
  5
3EB
  8
0
 62
     7
 10
-149.09658999999991
 20
529.23018500000001
 30
0.0
 40
0.999995
 50
269.999773
 51
0.000192
  0
LINE
  5
3EC
  8
0
 62
     7
 10
-148.096598
 20
529.23019199999987
 30
0.0
 11
-148.096598
 21
531.03019500000005
 31
0.0
  0
CIRCLE
  5
3ED
  8
0
  6
DASHSPACE
 62
     7
 10
-268.09659799999991
 20
685.73016900000005
 30
0.0
 40
5.5000010000000001
  0
LINE
  5
3EE
  8
0
 62
     7
 10
-252.34661299999999
 20
695.23017699999991
 30
0.0
 11
-252.34661299999999
 21
698.23017699999991
 31
0.0
  0
LINE
  5
3EF
  8
0
 62
     7
 10
-253.09661299999991
 20
691.73017699999991
 30
0.0
 11
-253.09661299999991
 21
695.23017699999991
 31
0.0
  0
LINE
  5
3F0
  8
0
 62
     7
 10
-248.09661299999999
 20
691.73017699999991
 30
0.0
 11
-248.09661299999999
 21
695.23017699999991
 31
0.0
  0
LINE
  5
3F1
  8
0
 62
     7
 10
-248.09661299999999
 20
691.73017699999991
 30
0.0
 11
-253.09661299999991
 21
691.73017699999991
 31
0.0
  0
LINE
  5
3F2
  8
0
 62
     7
 10
-248.84661299999991
 20
695.23017699999991
 30
0.0
 11
-248.84661299999991
 21
698.23017699999991
 31
0.0
  0
LINE
  5
3F3
  8
0
 62
     7
 10
-248.09661299999999
 20
695.23017699999991
 30
0.0
 11
-248.84661299999991
 21
695.23017699999991
 31
0.0
  0
LINE
  5
3F4
  8
0
 62
     7
 10
-252.34661299999999
 20
695.23017699999991
 30
0.0
 11
-253.09661299999991
 21
695.23017699999991
 31
0.0
  0
LINE
  5
3F5
  8
0
 62
     7
 10
-178.84653299999999
 20
528.23019199999999
 30
0.0
 11
-178.84653299999999
 21
530.48019199999999
 31
0.0
  0
LINE
  5
3F6
  8
0
 62
     7
 10
-182.346532
 20
528.23019199999999
 30
0.0
 11
-182.346532
 21
530.48019199999999
 31
0.0
  0
LINE
  5
3F7
  8
0
 62
     7
 10
-213.84660199999999
 20
528.23019199999999
 30
0.0
 11
-213.84660199999999
 21
530.48019199999999
 31
0.0
  0
LINE
  5
3F8
  8
0
 62
     7
 10
-217.34660099999991
 20
528.23019199999999
 30
0.0
 11
-217.34660099999991
 21
530.48019199999999
 31
0.0
  0
LINE
  5
3F9
  8
0
 62
     7
 10
-248.84661299999991
 20
528.23019999999985
 30
0.0
 11
-248.84661299999991
 21
530.48019199999999
 31
0.0
  0
LINE
  5
3FA
  8
0
 62
     7
 10
-252.34661299999999
 20
528.23019999999985
 30
0.0
 11
-252.34661299999999
 21
530.48019199999999
 31
0.0
  0
LINE
  5
3FB
  8
0
 62
     7
 10
-217.34660099999991
 20
528.23019199999999
 30
0.0
 11
-248.84661299999991
 21
528.23019999999985
 31
0.0
  0
LINE
  5
3FC
  8
0
 62
     7
 10
-182.346532
 20
528.23019199999999
 30
0.0
 11
-213.84660199999999
 21
528.23019199999999
 31
0.0
  0
LINE
  5
3FD
  8
0
 62
     7
 10
-149.0965939999999
 20
528.23019199999999
 30
0.0
 11
-178.84653299999999
 21
528.23019199999999
 31
0.0
  0
LINE
  5
3FE
  8
0
  6
DASHDOT
 62
     7
 10
-268.09659799999991
 20
677.23016900000005
 30
0.0
 11
-268.09659799999991
 21
694.23016900000005
 31
0.0
  0
LINE
  5
3FF
  8
0
  6
DASHDOT
 62
     7
 10
-259.59659399999993
 20
685.73016900000005
 30
0.0
 11
-276.59659799999991
 21
685.73016900000005
 31
0.0
  0
LINE
  5
400
  8
0
  6
DASHDOT
 62
     7
 10
-268.0966049999999
 20
689.83018300000003
 30
0.0
 11
-268.0966049999999
 21
698.63019399999996
 31
0.0
  0
LINE
  5
401
  8
0
  6
DASHDOT
 62
     7
 10
-263.69659599999989
 20
694.23018499999989
 30
0.0
 11
-272.49660699999993
 21
694.23018499999989
 31
0.0
  0
LINE
  5
402
  8
0
  6
DASHDOT
 62
     7
 10
-268.0965819999999
 20
532.23018500000001
 30
0.0
 11
-268.0965819999999
 21
549.23018099999979
 31
0.0
  0
LINE
  5
403
  8
0
  6
DASHDOT
 62
     7
 10
-259.5965819999999
 20
540.73018099999979
 30
0.0
 11
-276.59657499999992
 21
540.73018099999979
 31
0.0
  0
LINE
  5
404
  8
0
  6
DASHDOT
 62
     7
 10
-268.0965819999999
 20
527.83017500000005
 30
0.0
 11
-268.0965819999999
 21
536.63017799999989
 31
0.0
  0
LINE
  5
405
  8
0
  6
DASHDOT
 62
     7
 10
-263.69658099999992
 20
532.23017699999991
 30
0.0
 11
-272.49658399999993
 21
532.23017699999991
 31
0.0
  0
LINE
  5
406
  8
0
  6
DASHDOT
 62
     7
 10
-280.09659799999991
 20
541.48017300000004
 30
0.0
 11
-280.09659799999991
 21
554.98017699999991
 31
0.0
  0
LINE
  5
407
  8
0
  6
DASHDOT
 62
     7
 10
-273.34659799999991
 20
548.23017699999991
 30
0.0
 11
-286.84659799999991
 21
548.23017699999991
 31
0.0
  0
LINE
  5
408
  8
0
 62
     7
 10
-114.13483600000001
 20
530.48019199999999
 30
0.0
 11
-113.09294299999991
 21
536.38903600000003
 31
0.0
  0
LINE
  5
409
  8
0
 62
     7
 10
-114.13483600000001
 20
530.48019199999999
 30
0.0
 11
-115.1767219999999
 21
536.38903600000003
 31
0.0
  0
LINE
  5
40A
  8
0
 62
     7
 10
-114.13483600000001
 20
691.48019199999999
 30
0.0
 11
-115.17672899999999
 21
685.57134799999994
 31
0.0
  0
LINE
  5
40B
  8
0
 62
     7
 10
-114.13483600000001
 20
691.48019199999999
 30
0.0
 11
-113.092951
 21
685.57134799999994
 31
0.0
  0
LINE
  5
40C
  8
0
 62
     7
 10
-114.13483600000001
 20
530.48019199999999
 30
0.0
 11
-114.13483600000001
 21
691.48019199999999
 31
0.0
  0
LINE
  5
40D
  8
0
 62
     7
 10
-110.134829
 20
530.48019199999999
 30
0.0
 11
-140.8465709999999
 21
530.48019199999999
 31
0.0
  0
LINE
  5
40E
  8
0
 62
     7
 10
-110.13483600000001
 20
691.48019199999999
 30
0.0
 11
-140.8465709999999
 21
691.48019199999999
 31
0.0
  0
LINE
  5
40F
  8
0
  6
DASHDOT
 62
     7
 10
342.71277199999997
 20
727.55116299999986
 30
0.0
 11
342.71277199999997
 21
484.66853300000002
 31
0.0
  0
LINE
  5
410
  8
0
  6
DASHDOT
 62
     7
 10
422.73300599999988
 20
610.980186
 30
0.0
 11
250.594402
 21
610.980186
 31
0.0
  0
LINE
  5
411
  8
0
  6
DASHDOT
 62
     7
 10
360.21277199999997
 20
693.70974699999999
 30
0.0
 11
360.21277199999997
 21
525.91274999999985
 31
0.0
  0
LINE
  5
412
  8
0
  6
DASHDOT
 62
     7
 10
290.21277199999997
 20
692.29969000000006
 30
0.0
 11
290.21277199999997
 21
524.85520899999995
 31
0.0
  0
CIRCLE
  5
413
  8
0
 62
   150
 10
290.21277199999997
 20
682.730186
 30
0.0
 40
2.75
  0
CIRCLE
  5
414
  8
0
 62
   150
 10
360.21277199999997
 20
682.730186
 30
0.0
 40
2.75
  0
CIRCLE
  5
415
  8
0
 62
   150
 10
360.21277199999997
 20
543.73018599999989
 30
0.0
 40
2.75
  0
CIRCLE
  5
416
  8
0
 62
   150
 10
290.21277199999997
 20
543.73018599999989
 30
0.0
 40
2.75
  0
LINE
  5
417
  8
0
  6
DASHDOT
 62
   150
 10
360.21277199999997
 20
690.480186
 30
0.0
 11
360.21277199999997
 21
674.98018599999989
 31
0.0
  0
LINE
  5
418
  8
0
  6
DASHDOT
 62
   150
 10
367.96277199999997
 20
682.730186
 30
0.0
 11
352.46277199999997
 21
682.730186
 31
0.0
  0
LINE
  5
419
  8
0
  6
DASHDOT
 62
   150
 10
290.21277199999997
 20
690.480186
 30
0.0
 11
290.21277199999997
 21
674.98018599999989
 31
0.0
  0
LINE
  5
41A
  8
0
  6
DASHDOT
 62
   150
 10
297.96277199999997
 20
682.730186
 30
0.0
 11
282.46277199999997
 21
682.730186
 31
0.0
  0
LINE
  5
41B
  8
0
  6
DASHDOT
 62
   150
 10
290.21277199999997
 20
551.480186
 30
0.0
 11
290.21277199999997
 21
535.980186
 31
0.0
  0
LINE
  5
41C
  8
0
  6
DASHDOT
 62
   150
 10
297.96277199999997
 20
543.73018599999989
 30
0.0
 11
282.46277199999997
 21
543.73018599999989
 31
0.0
  0
LINE
  5
41D
  8
0
  6
DASHDOT
 62
   150
 10
360.21277199999997
 20
551.480186
 30
0.0
 11
360.21277199999997
 21
535.980186
 31
0.0
  0
LINE
  5
41E
  8
0
  6
DASHDOT
 62
   150
 10
367.96277199999997
 20
543.73018599999989
 30
0.0
 11
352.46277199999997
 21
543.73018599999989
 31
0.0
  0
POLYLINE
  5
41F
  8
0
 62
     3
 66
     1
 10
0.0
 20
0.0
 30
0.0
  0
VERTEX
  5
8E9
  8
0
 62
     3
 10
380.21277199999997
 20
696.55084199999988
 30
0.0
  0
VERTEX
  5
8EA
  8
0
 62
     3
 10
364.21277199999997
 20
696.55084199999988
 30
0.0
  0
VERTEX
  5
8EB
  8
0
 62
     3
 10
363.21277400000002
 20
694.55084199999999
 30
0.0
  0
VERTEX
  5
8EC
  8
0
 62
     3
 10
362.21277400000002
 20
698.55084199999999
 30
0.0
  0
VERTEX
  5
8ED
  8
0
 62
     3
 10
361.21277199999997
 20
696.55084199999988
 30
0.0
  0
VERTEX
  5
8EE
  8
0
 62
     3
 10
345.21277299999991
 20
696.55084199999988
 30
0.0
  0
VERTEX
  5
8EF
  8
0
 62
     3
 10
344.21277299999991
 20
694.55084199999999
 30
0.0
  0
VERTEX
  5
8F0
  8
0
 62
     3
 10
343.21277299999991
 20
698.55084199999999
 30
0.0
  0
VERTEX
  5
8F1
  8
0
 62
     3
 10
342.21277299999991
 20
696.55084199999988
 30
0.0
  0
VERTEX
  5
8F2
  8
0
 62
     3
 10
326.21277199999997
 20
696.55084199999988
 30
0.0
  0
VERTEX
  5
8F3
  8
0
 62
     3
 10
325.21277400000002
 20
694.55084199999999
 30
0.0
  0
VERTEX
  5
8F4
  8
0
 62
     3
 10
324.21277400000002
 20
698.55084199999999
 30
0.0
  0
VERTEX
  5
8F5
  8
0
 62
     3
 10
323.21277199999997
 20
696.55084199999988
 30
0.0
  0
VERTEX
  5
8F6
  8
0
 62
     3
 10
307.21277199999997
 20
696.55084199999988
 30
0.0
  0
VERTEX
  5
8F7
  8
0
 62
     3
 10
306.21277199999997
 20
694.55084199999999
 30
0.0
  0
VERTEX
  5
8F8
  8
0
 62
     3
 10
305.21277199999997
 20
698.55084199999999
 30
0.0
  0
VERTEX
  5
8F9
  8
0
 62
     3
 10
304.21277199999997
 20
696.55084199999988
 30
0.0
  0
VERTEX
  5
8FA
  8
0
 62
     3
 10
288.21277199999997
 20
696.55084199999988
 30
0.0
  0
VERTEX
  5
8FB
  8
0
 62
     3
 10
287.21277199999997
 20
694.55084199999999
 30
0.0
  0
VERTEX
  5
8FC
  8
0
 62
     3
 10
286.21277199999997
 20
698.55084199999999
 30
0.0
  0
VERTEX
  5
8FD
  8
0
 62
     3
 10
285.21277199999997
 20
696.55084199999988
 30
0.0
  0
VERTEX
  5
8FE
  8
0
 62
     3
 10
270.21277199999997
 20
696.55084199999988
 30
0.0
  0
SEQEND
  5
8FF
  8
0
 62
     3
  0
POLYLINE
  5
437
  8
0
 62
     3
 66
     1
 10
0.0
 20
0.0
 30
0.0
  0
VERTEX
  5
900
  8
0
 62
     3
 10
380.21277199999997
 20
531.480186
 30
0.0
  0
VERTEX
  5
901
  8
0
 62
     3
 10
364.21277199999997
 20
531.480186
 30
0.0
  0
VERTEX
  5
902
  8
0
 62
     3
 10
363.21277400000002
 20
529.48018599999989
 30
0.0
  0
VERTEX
  5
903
  8
0
 62
     3
 10
362.21277400000002
 20
533.48018599999989
 30
0.0
  0
VERTEX
  5
904
  8
0
 62
     3
 10
361.21277199999997
 20
531.480186
 30
0.0
  0
VERTEX
  5
905
  8
0
 62
     3
 10
345.21277299999991
 20
531.480186
 30
0.0
  0
VERTEX
  5
906
  8
0
 62
     3
 10
344.21277299999991
 20
529.48018599999989
 30
0.0
  0
VERTEX
  5
907
  8
0
 62
     3
 10
343.21277299999991
 20
533.48018599999989
 30
0.0
  0
VERTEX
  5
908
  8
0
 62
     3
 10
342.21277299999991
 20
531.480186
 30
0.0
  0
VERTEX
  5
909
  8
0
 62
     3
 10
326.21277199999997
 20
531.480186
 30
0.0
  0
VERTEX
  5
90A
  8
0
 62
     3
 10
325.21277400000002
 20
529.48018599999989
 30
0.0
  0
VERTEX
  5
90B
  8
0
 62
     3
 10
324.21277400000002
 20
533.48018599999989
 30
0.0
  0
VERTEX
  5
90C
  8
0
 62
     3
 10
323.21277199999997
 20
531.480186
 30
0.0
  0
VERTEX
  5
90D
  8
0
 62
     3
 10
307.21277199999997
 20
531.480186
 30
0.0
  0
VERTEX
  5
90E
  8
0
 62
     3
 10
306.21277199999997
 20
529.48018599999989
 30
0.0
  0
VERTEX
  5
90F
  8
0
 62
     3
 10
305.21277199999997
 20
533.48018599999989
 30
0.0
  0
VERTEX
  5
910
  8
0
 62
     3
 10
304.21277199999997
 20
531.480186
 30
0.0
  0
VERTEX
  5
911
  8
0
 62
     3
 10
288.21277199999997
 20
531.480186
 30
0.0
  0
VERTEX
  5
912
  8
0
 62
     3
 10
287.21277199999997
 20
529.48018599999989
 30
0.0
  0
VERTEX
  5
913
  8
0
 62
     3
 10
286.21277199999997
 20
533.48018599999989
 30
0.0
  0
VERTEX
  5
914
  8
0
 62
     3
 10
285.21277199999997
 20
531.480186
 30
0.0
  0
VERTEX
  5
915
  8
0
 62
     3
 10
270.21277199999997
 20
531.480186
 30
0.0
  0
SEQEND
  5
916
  8
0
 62
     3
  0
POLYLINE
  5
44F
  8
0
 62
     3
 66
     1
 10
0.0
 20
0.0
 30
0.0
  0
VERTEX
  5
917
  8
0
 62
     3
 10
270.21277199999997
 20
696.55084199999988
 30
0.0
  0
VERTEX
  5
918
  8
0
 62
     3
 10
270.21277199999997
 20
680.55084199999988
 30
0.0
  0
VERTEX
  5
919
  8
0
 62
     3
 10
272.21277199999997
 20
679.55084199999988
 30
0.0
  0
VERTEX
  5
91A
  8
0
 62
     3
 10
268.21277199999997
 20
678.55084199999999
 30
0.0
  0
VERTEX
  5
91B
  8
0
 62
     3
 10
270.21277199999997
 20
677.55084199999999
 30
0.0
  0
VERTEX
  5
91C
  8
0
 62
     3
 10
270.21277199999997
 20
661.55084199999999
 30
0.0
  0
VERTEX
  5
91D
  8
0
 62
     3
 10
272.21277199999997
 20
660.55084199999988
 30
0.0
  0
VERTEX
  5
91E
  8
0
 62
     3
 10
268.21277199999997
 20
659.55084199999988
 30
0.0
  0
VERTEX
  5
91F
  8
0
 62
     3
 10
270.21277199999997
 20
658.55084199999999
 30
0.0
  0
VERTEX
  5
920
  8
0
 62
     3
 10
270.21277199999997
 20
642.55084199999988
 30
0.0
  0
VERTEX
  5
921
  8
0
 62
     3
 10
272.21277199999997
 20
641.55084199999999
 30
0.0
  0
VERTEX
  5
922
  8
0
 62
     3
 10
268.21277199999997
 20
640.55084199999999
 30
0.0
  0
VERTEX
  5
923
  8
0
 62
     3
 10
270.21277199999997
 20
639.55084199999988
 30
0.0
  0
VERTEX
  5
924
  8
0
 62
     3
 10
270.21277199999997
 20
623.55084199999999
 30
0.0
  0
VERTEX
  5
925
  8
0
 62
     3
 10
272.21277199999997
 20
622.55084199999988
 30
0.0
  0
VERTEX
  5
926
  8
0
 62
     3
 10
268.21277199999997
 20
621.55084199999988
 30
0.0
  0
VERTEX
  5
927
  8
0
 62
     3
 10
270.21277199999997
 20
620.55084199999999
 30
0.0
  0
VERTEX
  5
928
  8
0
 62
     3
 10
270.21277199999997
 20
604.55084199999988
 30
0.0
  0
VERTEX
  5
929
  8
0
 62
     3
 10
272.21277199999997
 20
603.55084199999999
 30
0.0
  0
VERTEX
  5
92A
  8
0
 62
     3
 10
268.21277199999997
 20
602.55084199999999
 30
0.0
  0
VERTEX
  5
92B
  8
0
 62
     3
 10
270.21277199999997
 20
601.55084199999988
 30
0.0
  0
VERTEX
  5
92C
  8
0
 62
     3
 10
270.21277199999997
 20
585.55084199999988
 30
0.0
  0
VERTEX
  5
92D
  8
0
 62
     3
 10
272.21277199999997
 20
584.55084199999988
 30
0.0
  0
VERTEX
  5
92E
  8
0
 62
     3
 10
268.21277199999997
 20
583.55084199999999
 30
0.0
  0
VERTEX
  5
92F
  8
0
 62
     3
 10
270.21277199999997
 20
582.55084199999999
 30
0.0
  0
VERTEX
  5
930
  8
0
 62
     3
 10
270.21277199999997
 20
566.55084199999999
 30
0.0
  0
VERTEX
  5
931
  8
0
 62
     3
 10
272.21277199999997
 20
565.55084199999999
 30
0.0
  0
VERTEX
  5
932
  8
0
 62
     3
 10
268.21277199999997
 20
564.55084199999988
 30
0.0
  0
VERTEX
  5
933
  8
0
 62
     3
 10
270.21277199999997
 20
563.55084199999988
 30
0.0
  0
VERTEX
  5
934
  8
0
 62
     3
 10
270.21277199999997
 20
547.55084199999988
 30
0.0
  0
VERTEX
  5
935
  8
0
 62
     3
 10
272.21277199999997
 20
546.55084199999988
 30
0.0
  0
VERTEX
  5
936
  8
0
 62
     3
 10
268.21277199999997
 20
545.55084199999999
 30
0.0
  0
VERTEX
  5
937
  8
0
 62
     3
 10
270.21277199999997
 20
544.55084199999999
 30
0.0
  0
VERTEX
  5
938
  8
0
 62
     3
 10
270.21277199999997
 20
531.480186
 30
0.0
  0
SEQEND
  5
939
  8
0
 62
     3
  0
POLYLINE
  5
473
  8
0
 62
     3
 66
     1
 10
0.0
 20
0.0
 30
0.0
  0
VERTEX
  5
93A
  8
0
 62
     3
 10
380.21277199999997
 20
696.55084199999988
 30
0.0
  0
VERTEX
  5
93B
  8
0
 62
     3
 10
380.21277199999997
 20
680.55084199999988
 30
0.0
  0
VERTEX
  5
93C
  8
0
 62
     3
 10
382.21277199999997
 20
679.55084199999988
 30
0.0
  0
VERTEX
  5
93D
  8
0
 62
     3
 10
378.21277199999997
 20
678.55084199999999
 30
0.0
  0
VERTEX
  5
93E
  8
0
 62
     3
 10
380.21277199999997
 20
677.55084199999999
 30
0.0
  0
VERTEX
  5
93F
  8
0
 62
     3
 10
380.21277199999997
 20
661.55084199999999
 30
0.0
  0
VERTEX
  5
940
  8
0
 62
     3
 10
382.21277199999997
 20
660.55084199999988
 30
0.0
  0
VERTEX
  5
941
  8
0
 62
     3
 10
378.21277199999997
 20
659.55084199999988
 30
0.0
  0
VERTEX
  5
942
  8
0
 62
     3
 10
380.21277199999997
 20
658.55084199999999
 30
0.0
  0
VERTEX
  5
943
  8
0
 62
     3
 10
380.21277199999997
 20
642.55084199999988
 30
0.0
  0
VERTEX
  5
944
  8
0
 62
     3
 10
382.21277199999997
 20
641.55084199999999
 30
0.0
  0
VERTEX
  5
945
  8
0
 62
     3
 10
378.21277199999997
 20
640.55084199999999
 30
0.0
  0
VERTEX
  5
946
  8
0
 62
     3
 10
380.21277199999997
 20
639.55084199999988
 30
0.0
  0
VERTEX
  5
947
  8
0
 62
     3
 10
380.21277199999997
 20
623.55084199999999
 30
0.0
  0
VERTEX
  5
948
  8
0
 62
     3
 10
382.21277199999997
 20
622.55084199999988
 30
0.0
  0
VERTEX
  5
949
  8
0
 62
     3
 10
378.21277199999997
 20
621.55084199999988
 30
0.0
  0
VERTEX
  5
94A
  8
0
 62
     3
 10
380.21277199999997
 20
620.55084199999999
 30
0.0
  0
VERTEX
  5
94B
  8
0
 62
     3
 10
380.21277199999997
 20
604.55084199999988
 30
0.0
  0
VERTEX
  5
94C
  8
0
 62
     3
 10
382.21277199999997
 20
603.55084199999999
 30
0.0
  0
VERTEX
  5
94D
  8
0
 62
     3
 10
378.21277199999997
 20
602.55084199999999
 30
0.0
  0
VERTEX
  5
94E
  8
0
 62
     3
 10
380.21277199999997
 20
601.55084199999988
 30
0.0
  0
VERTEX
  5
94F
  8
0
 62
     3
 10
380.21277199999997
 20
585.55084199999988
 30
0.0
  0
VERTEX
  5
950
  8
0
 62
     3
 10
382.21277199999997
 20
584.55084199999988
 30
0.0
  0
VERTEX
  5
951
  8
0
 62
     3
 10
378.21277199999997
 20
583.55084199999999
 30
0.0
  0
VERTEX
  5
952
  8
0
 62
     3
 10
380.21277199999997
 20
582.55084199999999
 30
0.0
  0
VERTEX
  5
953
  8
0
 62
     3
 10
380.21277199999997
 20
566.55084199999999
 30
0.0
  0
VERTEX
  5
954
  8
0
 62
     3
 10
382.21277199999997
 20
565.55084199999999
 30
0.0
  0
VERTEX
  5
955
  8
0
 62
     3
 10
378.21277199999997
 20
564.55084199999988
 30
0.0
  0
VERTEX
  5
956
  8
0
 62
     3
 10
380.21277199999997
 20
563.55084199999988
 30
0.0
  0
VERTEX
  5
957
  8
0
 62
     3
 10
380.21277199999997
 20
547.55084199999988
 30
0.0
  0
VERTEX
  5
958
  8
0
 62
     3
 10
382.21277199999997
 20
546.55084199999988
 30
0.0
  0
VERTEX
  5
959
  8
0
 62
     3
 10
378.21277199999997
 20
545.55084199999999
 30
0.0
  0
VERTEX
  5
95A
  8
0
 62
     3
 10
380.21277199999997
 20
544.55084199999999
 30
0.0
  0
VERTEX
  5
95B
  8
0
 62
     3
 10
380.21277199999997
 20
531.480186
 30
0.0
  0
SEQEND
  5
95C
  8
0
 62
     3
  0
CIRCLE
  5
497
  8
0
 62
     7
 10
280.67687999999998
 20
688.00534800000003
 30
0.0
 40
0.3
  0
LINE
  5
498
  8
0
 62
     7
 10
342.71277199999997
 20
493.58345799999989
 30
0.0
 11
354.53046000000001
 21
491.49965700000001
 31
0.0
  0
LINE
  5
499
  8
0
 62
     7
 10
342.71277199999997
 20
493.58345799999989
 30
0.0
 11
354.53046000000001
 21
495.66719799999998
 31
0.0
  0
LINE
  5
49A
  8
0
 62
     7
 10
290.21278799999999
 20
493.58345799999989
 30
0.0
 11
278.39510000000001
 21
495.66719799999998
 31
0.0
  0
LINE
  5
49B
  8
0
 62
     7
 10
290.21278799999999
 20
493.58345799999989
 30
0.0
 11
278.39510000000001
 21
491.49965700000001
 31
0.0
  0
LINE
  5
49C
  8
0
 62
     7
 10
398.71277199999997
 20
493.58345799999989
 30
0.0
 11
290.21278799999999
 21
493.58345799999989
 31
0.0
  0
LINE
  5
49D
  8
0
 62
     7
 10
342.71277199999997
 20
501.58345799999989
 30
0.0
 11
342.71277199999997
 21
484.668541
 31
0.0
  0
LINE
  5
49E
  8
0
 62
     7
 10
290.21278799999999
 20
485.58345799999989
 30
0.0
 11
290.21278799999999
 21
524.855186
 31
0.0
  0
LINE
  5
49F
  8
0
 62
     7
 10
360.21275700000001
 20
718.08782199999985
 30
0.0
 11
372.03044499999999
 21
716.00405099999989
 31
0.0
  0
LINE
  5
4A0
  8
0
 62
     7
 10
360.21275700000001
 20
718.08782199999985
 30
0.0
 11
372.03044499999999
 21
720.1715929999998
 31
0.0
  0
LINE
  5
4A1
  8
0
 62
     7
 10
342.71277199999997
 20
718.08782199999985
 30
0.0
 11
330.895084
 21
720.1715929999998
 31
0.0
  0
LINE
  5
4A2
  8
0
 62
     7
 10
342.71277199999997
 20
718.08782199999985
 30
0.0
 11
330.895084
 21
716.00405099999989
 31
0.0
  0
LINE
  5
4A3
  8
0
 62
     7
 10
416.2127569999999
 20
718.08782199999985
 30
0.0
 11
342.71277199999997
 21
718.08782199999985
 31
0.0
  0
LINE
  5
4A4
  8
0
 62
     7
 10
360.21275700000001
 20
726.08782199999985
 30
0.0
 11
360.21275700000001
 21
693.70977000000005
 31
0.0
  0
LINE
  5
4A5
  8
0
 62
     7
 10
342.71277199999997
 20
710.08782199999985
 30
0.0
 11
342.71277199999997
 21
727.55116999999996
 31
0.0
  0
LINE
  5
4A6
  8
0
 62
     7
 10
414.9338489999999
 20
682.730186
 30
0.0
 11
412.8500709999999
 21
670.91249800000003
 31
0.0
  0
LINE
  5
4A7
  8
0
 62
     7
 10
414.9338489999999
 20
682.730186
 30
0.0
 11
417.01762799999989
 21
670.91249800000003
 31
0.0
  0
LINE
  5
4A8
  8
0
 62
     7
 10
414.9338489999999
 20
610.980186
 30
0.0
 11
417.01762799999989
 21
622.79787399999998
 31
0.0
  0
LINE
  5
4A9
  8
0
 62
     7
 10
414.9338489999999
 20
610.980186
 30
0.0
 11
412.8500709999999
 21
622.79787399999998
 31
0.0
  0
LINE
  5
4AA
  8
0
 62
     7
 10
414.9338489999999
 20
682.730186
 30
0.0
 11
414.9338489999999
 21
610.980186
 31
0.0
  0
LINE
  5
4AB
  8
0
 62
     7
 10
422.9338489999999
 20
682.730186
 30
0.0
 11
297.96277199999997
 21
682.730186
 31
0.0
  0
LINE
  5
4AC
  8
0
 62
     7
 10
242.23817799999989
 20
682.730186
 30
0.0
 11
240.1543769999999
 21
670.91249800000003
 31
0.0
  0
LINE
  5
4AD
  8
0
 62
     7
 10
242.23817799999989
 20
682.730186
 30
0.0
 11
244.32194899999999
 21
670.91249800000003
 31
0.0
  0
LINE
  5
4AE
  8
0
 62
     7
 10
242.23817799999989
 20
543.73018599999989
 30
0.0
 11
244.32194899999999
 21
555.54787399999987
 31
0.0
  0
LINE
  5
4AF
  8
0
 62
     7
 10
242.23817799999989
 20
543.73018599999989
 30
0.0
 11
240.1543769999999
 21
555.54787399999987
 31
0.0
  0
LINE
  5
4B0
  8
0
 62
     7
 10
242.23817799999989
 20
682.730186
 30
0.0
 11
242.23817799999989
 21
543.73018599999989
 31
0.0
  0
LINE
  5
4B1
  8
0
 62
     7
 10
234.23817799999989
 20
682.730186
 30
0.0
 11
282.46278799999988
 21
682.730186
 31
0.0
  0
LINE
  5
4B2
  8
0
 62
     7
 10
234.23817799999989
 20
543.73018599999989
 30
0.0
 11
282.46278799999988
 21
543.73018599999989
 31
0.0
  0
LINE
  5
4B3
  8
0
 62
     7
 10
362.92686800000001
 20
543.28731500000004
 30
0.0
 11
374.25471900000002
 21
539.327538
 31
0.0
  0
LINE
  5
4B4
  8
0
 62
     7
 10
362.92686800000001
 20
543.28731500000004
 30
0.0
 11
374.92589199999992
 21
543.440697
 31
0.0
  0
LINE
  5
4B5
  8
0
 62
     7
 10
357.49867599999988
 20
544.17305799999986
 30
0.0
 11
346.17082599999992
 21
548.132835
 31
0.0
  0
LINE
  5
4B6
  8
0
 62
     7
 10
357.49867599999988
 20
544.17305799999986
 30
0.0
 11
345.49965299999991
 21
544.019676
 31
0.0
  0
LINE
  5
4B7
  8
0
 62
     7
 10
357.49867599999988
 20
544.17305799999986
 30
0.0
 11
519.51945899999987
 21
517.73500799999999
 31
0.0
  0
INSERT
  5
749
  8
0
  2
BLOCK0
 10
-179.091644
 20
315.95835899999992
 30
0.0
 50
180.0
  0
INSERT
  5
74A
  8
0
  2
BLOCK1
 10
-179.091644
 20
315.95835899999992
 30
0.0
 50
180.0
  0
INSERT
  5
74B
  8
0
  2
BLOCK2
 10
-179.091644
 20
315.95835899999992
 30
0.0
 50
180.0
  0
INSERT
  5
74C
  8
0
  2
BLOCK3
 10
-179.091644
 20
315.95835899999992
 30
0.0
 50
180.0
  0
INSERT
  5
74D
  8
0
  2
BLOCK4
 10
-179.091644
 20
315.95835899999992
 30
0.0
 50
180.0
  0
INSERT
  5
74E
  8
0
  2
BLOCK5
 10
655.87055999999995
 20
613.230186
 30
0.0
 50
270.0
  0
INSERT
  5
74F
  8
0
  2
BLOCK6
 10
655.87055999999995
 20
613.230186
 30
0.0
 50
270.0
  0
INSERT
  5
750
  8
0
  2
BLOCK7
 10
655.87055999999995
 20
613.230186
 30
0.0
 50
270.0
  0
INSERT
  5
751
  8
0
  2
BLOCK8
 10
655.87055999999995
 20
613.230186
 30
0.0
 50
270.0
  0
INSERT
  5
752
  8
0
  2
BLOCK9
 10
655.87055999999995
 20
613.230186
 30
0.0
 50
270.0
  0
INSERT
  5
753
  8
0
  2
BLOCK10
 10
655.87055999999995
 20
613.230186
 30
0.0
 50
270.0
  0
INSERT
  5
754
  8
0
  2
BLOCK11
 10
655.87055999999995
 20
613.230186
 30
0.0
 50
270.0
  0
INSERT
  5
755
  8
0
  2
BLOCK12
 10
655.87055999999995
 20
613.230186
 30
0.0
 50
270.0
  0
INSERT
  5
756
  8
0
  2
BLOCK13
 10
655.87055999999995
 20
613.230186
 30
0.0
 50
270.0
  0
INSERT
  5
757
  8
0
  2
BLOCK14
 10
655.87055999999995
 20
613.230186
 30
0.0
 50
270.0
  0
INSERT
  5
758
  8
0
  2
BLOCK15
 10
138.215225
 20
500.99312600000002
 30
0.0
 50
90.0
  0
INSERT
  5
759
  8
0
  2
BLOCK16
 10
138.215225
 20
500.99312600000002
 30
0.0
 50
90.0
  0
INSERT
  5
75A
  8
0
  2
BLOCK17
 10
138.215225
 20
500.99312600000002
 30
0.0
 50
90.0
  0
INSERT
  5
75B
  8
0
  2
BLOCK18
 10
138.215225
 20
500.99312600000002
 30
0.0
 50
90.0
  0
INSERT
  5
75C
  8
0
  2
BLOCK19
 10
138.215225
 20
500.99312600000002
 30
0.0
 50
90.0
  0
INSERT
  5
75D
  8
0
  2
BLOCK20
 10
138.215225
 20
500.99312600000002
 30
0.0
 50
90.0
  0
INSERT
  5
75E
  8
0
  2
BLOCK21
 10
138.215225
 20
500.99312600000002
 30
0.0
 50
90.0
  0
INSERT
  5
75F
  8
0
  2
BLOCK22
 10
138.215225
 20
500.99312600000002
 30
0.0
 50
90.0
  0
INSERT
  5
760
  8
0
  2
BLOCK23
 10
138.215225
 20
500.99312600000002
 30
0.0
 50
90.0
  0
INSERT
  5
761
  8
0
  2
BLOCK24
 10
138.215225
 20
500.99312600000002
 30
0.0
 50
90.0
  0
INSERT
  5
762
  8
0
  2
BLOCK25
 10
138.215225
 20
500.99312600000002
 30
0.0
 50
90.0
  0
INSERT
  5
763
  8
0
  2
BLOCK26
 10
138.215225
 20
500.99312600000002
 30
0.0
 50
90.0
  0
INSERT
  5
764
  8
0
  2
BLOCK27
 10
138.215225
 20
500.99312600000002
 30
0.0
 50
90.0
  0
INSERT
  5
765
  8
0
  2
BLOCK28
 10
138.215225
 20
500.99312600000002
 30
0.0
 50
90.0
  0
INSERT
  5
766
  8
0
  2
BLOCK29
 10
138.215225
 20
500.99312600000002
 30
0.0
 50
90.0
  0
INSERT
  5
767
  8
0
  2
BLOCK30
 10
138.215225
 20
500.99312600000002
 30
0.0
 50
90.0
  0
INSERT
  5
768
  8
0
  2
BLOCK31
 10
138.215225
 20
500.99312600000002
 30
0.0
 50
90.0
  0
INSERT
  5
769
  8
0
  2
BLOCK32
 10
138.215225
 20
500.99312600000002
 30
0.0
 50
90.0
  0
INSERT
  5
76A
  8
0
  2
BLOCK33
 10
138.215225
 20
500.99312600000002
 30
0.0
 50
90.0
  0
INSERT
  5
76B
  8
0
  2
BLOCK34
 10
138.215225
 20
500.99312600000002
 30
0.0
 50
90.0
  0
INSERT
  5
76C
  8
0
  2
BLOCK35
 10
138.215225
 20
500.99312600000002
 30
0.0
 50
90.0
  0
INSERT
  5
76D
  8
0
  2
BLOCK36
 10
138.215225
 20
500.99312600000002
 30
0.0
 50
90.0
  0
INSERT
  5
76E
  8
0
  2
BLOCK37
 10
138.215225
 20
500.99312600000002
 30
0.0
 50
90.0
  0
INSERT
  5
76F
  8
0
  2
BLOCK38
 10
138.215225
 20
500.99312600000002
 30
0.0
 50
90.0
  0
INSERT
  5
770
  8
0
  2
BLOCK39
 10
138.215225
 20
500.99312600000002
 30
0.0
 50
90.0
  0
INSERT
  5
771
  8
0
  2
BLOCK40
 10
138.215225
 20
500.99312600000002
 30
0.0
 50
90.0
  0
INSERT
  5
772
  8
0
  2
BLOCK41
 10
138.215225
 20
500.99312600000002
 30
0.0
 50
90.0
  0
INSERT
  5
773
  8
0
  2
BLOCK42
 10
138.215225
 20
500.99312600000002
 30
0.0
 50
90.0
  0
INSERT
  5
774
  8
0
  2
BLOCK43
 10
138.215225
 20
500.99312600000002
 30
0.0
 50
90.0
  0
INSERT
  5
775
  8
0
  2
BLOCK44
 10
138.215225
 20
500.99312600000002
 30
0.0
 50
90.0
  0
INSERT
  5
776
  8
0
  2
BLOCK45
 10
138.215225
 20
500.99312600000002
 30
0.0
 50
90.0
  0
INSERT
  5
777
  8
0
  2
BLOCK46
 10
138.215225
 20
500.99312600000002
 30
0.0
 50
90.0
  0
INSERT
  5
778
  8
0
  2
BLOCK47
 10
138.215225
 20
500.99312600000002
 30
0.0
 50
90.0
  0
INSERT
  5
779
  8
0
  2
BLOCK48
 10
138.215225
 20
500.99312600000002
 30
0.0
 50
90.0
  0
INSERT
  5
77A
  8
0
  2
BLOCK49
 10
138.215225
 20
500.99312600000002
 30
0.0
 50
90.0
  0
INSERT
  5
77B
  8
0
  2
BLOCK50
 10
138.215225
 20
500.99312600000002
 30
0.0
 50
90.0
  0
INSERT
  5
77C
  8
0
  2
BLOCK51
 10
138.215225
 20
500.99312600000002
 30
0.0
 50
90.0
  0
INSERT
  5
77D
  8
0
  2
BLOCK52
 10
138.215225
 20
500.99312600000002
 30
0.0
 50
90.0
  0
INSERT
  5
77E
  8
0
  2
BLOCK53
 10
-198.09656699999991
 20
600.73016199999995
 30
0.0
 50
90.0
  0
INSERT
  5
77F
  8
0
  2
BLOCK54
 10
-198.09656699999991
 20
600.73016199999995
 30
0.0
 50
90.0
  0
INSERT
  5
780
  8
0
  2
BLOCK55
 10
-198.09656699999991
 20
600.73016199999995
 30
0.0
 50
90.0
  0
INSERT
  5
781
  8
0
  2
BLOCK56
 10
-198.09656699999991
 20
600.73016199999995
 30
0.0
 50
90.0
  0
INSERT
  5
782
  8
0
  2
BLOCK57
 10
-198.09656699999991
 20
600.73016199999995
 30
0.0
 50
90.0
  0
INSERT
  5
783
  8
0
  2
BLOCK58
 10
-198.09656699999991
 20
600.73016199999995
 30
0.0
 50
90.0
  0
INSERT
  5
784
  8
0
  2
BLOCK59
 10
-198.09656699999991
 20
600.73016199999995
 30
0.0
 50
90.0
  0
INSERT
  5
785
  8
0
  2
BLOCK60
 10
-198.09656699999991
 20
600.73016199999995
 30
0.0
 50
90.0
  0
INSERT
  5
786
  8
0
  2
BLOCK61
 10
-198.09656699999991
 20
600.73016199999995
 30
0.0
 50
90.0
  0
INSERT
  5
787
  8
0
  2
BLOCK62
 10
-198.09656699999991
 20
600.73016199999995
 30
0.0
 50
90.0
  0
INSERT
  5
788
  8
0
  2
BLOCK63
 10
-198.09656699999991
 20
600.73016199999995
 30
0.0
 50
90.0
  0
INSERT
  5
789
  8
0
  2
BLOCK64
 10
-198.09656699999991
 20
600.73016199999995
 30
0.0
 50
90.0
  0
INSERT
  5
78A
  8
0
  2
BLOCK65
 10
-198.09656699999991
 20
600.73016199999995
 30
0.0
 50
90.0
  0
INSERT
  5
78B
  8
0
  2
BLOCK66
 10
342.71277199999997
 20
610.980186
 30
0.0
 50
180.0
  0
INSERT
  5
78C
  8
0
  2
BLOCK67
 10
342.71277199999997
 20
610.980186
 30
0.0
 50
180.0
  0
INSERT
  5
78D
  8
0
  2
BLOCK68
 10
342.71277199999997
 20
610.980186
 30
0.0
 50
180.0
  0
INSERT
  5
78E
  8
0
  2
BLOCK69
 10
342.71277199999997
 20
610.980186
 30
0.0
 50
180.0
  0
INSERT
  5
78F
  8
0
  2
BLOCK70
 10
342.71277199999997
 20
610.980186
 30
0.0
 50
180.0
  0
INSERT
  5
790
  8
0
  2
BLOCK71
 10
342.71277199999997
 20
610.980186
 30
0.0
 50
180.0
  0
INSERT
  5
791
  8
0
  2
BLOCK72
 10
342.71277199999997
 20
610.980186
 30
0.0
 50
180.0
  0
INSERT
  5
792
  8
0
  2
BLOCK73
 10
342.71277199999997
 20
610.980186
 30
0.0
 50
180.0
  0
INSERT
  5
793
  8
0
  2
BLOCK74
 10
342.71277199999997
 20
610.980186
 30
0.0
 50
180.0
  0
INSERT
  5
794
  8
0
  2
BLOCK75
 10
342.71277199999997
 20
610.980186
 30
0.0
 50
180.0
  0
INSERT
  5
795
  8
0
  2
BLOCK76
 10
342.71277199999997
 20
610.980186
 30
0.0
 50
180.0
  0
VIEWPORT
  5
4B8
 67
     1
  8
0
 62
     0
 10
0.0
 20
0.0
 30
0.0
 40
1000.0
 41
1000.0
 68
     1
 69
     1
1001
ACAD
1000
MVIEW
1002
{
1070
    16
1010
0.0
1020
0.0
1030
0.0
1010
0.0
1020
0.0
1030
1.0
1040
0.0
1040
1000.0
1040
0.0
1040
0.0
1040
50.0
1040
0.0
1040
0.0
1070
     0
1070
   100
1070
     1
1070
     1
1070
     0
1070
     0
1070
     0
1070
     0
1040
0.0
1040
0.0
1040
0.0
1040
1.0
1040
1.0
1040
1.0
1040
1.0
1070
     0
1002
{
1002
}
1002
}
  0
ENDSEC
  0
EOF
