  0
SECTION
  2
HEADER
  9
$ACADVER
  1
AC1009
  9
$DWGCODEPAGE
  3
iso8859-1
  9
$INSBASE
 10
0.0
 20
0.0
 30
0.0
  9
$EXTMIN
 10
1.0E20
 20
1.0E20
 30
1.0E20
  9
$EXTMAX
 10
-1.0E20
 20
-1.0E20
 30
-1.0E20
  9
$LIMMIN
 10
0.0
 20
0.0
  9
$LIMMAX
 10
12.0
 20
9.0
  9
$ORTHOMODE
 70
     0
  9
$REGENMODE
 70
     1
  9
$FILLMODE
 70
     1
  9
$QTEXTMODE
 70
     0
  9
$MIRRTEXT
 70
     1
  9
$DRAGMODE
 70
     2
  9
$LTSCALE
 40
15.0
  9
$OSMODE
 70
     0
  9
$ATTMODE
 70
     1
  9
$TEXTSIZE
 40
0.2
  9
$TRACEWID
 40
0.05
  9
$TEXTSTYLE
  7
STANDARD
  9
$CLAYER
  8
0
  9
$CELTYPE
  6
DASHED
  9
$CECOLOR
 62
   256
  9
$DIMSCALE
 40
1.0
  9
$DIMASZ
 40
0.18
  9
$DIMEXO
 40
0.0625
  9
$DIMDLI
 40
0.38
  9
$DIMRND
 40
0.0
  9
$DIMDLE
 40
0.0
  9
$DIMEXE
 40
0.18
  9
$DIMTP
 40
0.0
  9
$DIMTM
 40
0.0
  9
$DIMTXT
 40
0.18
  9
$DIMCEN
 40
0.09
  9
$DIMTSZ
 40
0.0
  9
$DIMTOL
 70
     0
  9
$DIMLIM
 70
     0
  9
$DIMTIH
 70
     1
  9
$DIMTOH
 70
     1
  9
$DIMSE1
 70
     0
  9
$DIMSE2
 70
     0
  9
$DIMTAD
 70
     0
  9
$DIMZIN
 70
     0
  9
$DIMBLK
  1

  9
$DIMASO
 70
     1
  9
$DIMSHO
 70
     1
  9
$DIMPOST
  1

  9
$DIMAPOST
  1

  9
$DIMALT
 70
     0
  9
$DIMALTD
 70
     2
  9
$DIMALTF
 40
25.4
  9
$DIMLFAC
 40
1.0
  9
$DIMTOFL
 70
     0
  9
$DIMTVP
 40
0.0
  9
$DIMTIX
 70
     0
  9
$DIMSOXD
 70
     0
  9
$DIMSAH
 70
     0
  9
$DIMBLK1
  1

  9
$DIMBLK2
  1

  9
$DIMSTYLE
  2
STANDARD
  9
$DIMCLRD
 70
     0
  9
$DIMCLRE
 70
     0
  9
$DIMCLRT
 70
     0
  9
$DIMTFAC
 40
1.0
  9
$DIMGAP
 40
0.09
  9
$LUNITS
 70
     2
  9
$LUPREC
 70
     4
  9
$AXISMODE
 70
     0
  9
$AXISUNIT
 10
0.0
 20
0.0
  9
$SKETCHINC
 40
0.1
  9
$FILLETRAD
 40
0.0
  9
$AUNITS
 70
     0
  9
$AUPREC
 70
     0
  9
$MENU
  1
acad
  9
$ELEVATION
 40
0.0
  9
$PELEVATION
 40
0.0
  9
$THICKNESS
 40
0.0
  9
$LIMCHECK
 70
     0
  9
$BLIPMODE
 70
     1
  9
$CHAMFERA
 40
0.0
  9
$CHAMFERB
 40
0.0
  9
$SKPOLY
 70
     0
  9
$TDCREATE
 40
2450267.486451955
  9
$TDUPDATE
 40
2450267.486451955
  9
$TDINDWG
 40
0.0
  9
$TDUSRTIMER
 40
0.0
  9
$USRTIMER
 70
     1
  9
$ANGBASE
 50
0.0
  9
$ANGDIR
 70
     0
  9
$PDMODE
 70
     0
  9
$PDSIZE
 40
0.0
  9
$PLINEWID
 40
0.0
  9
$COORDS
 70
     1
  9
$SPLFRAME
 70
     0
  9
$SPLINETYPE
 70
     6
  9
$SPLINESEGS
 70
     8
  9
$ATTDIA
 70
     0
  9
$ATTREQ
 70
     1
  9
$HANDLING
 70
     1
  9
$HANDSEED
  5
   862
  9
$SURFTAB1
 70
     6
  9
$SURFTAB2
 70
     6
  9
$SURFTYPE
 70
     6
  9
$SURFU
 70
     6
  9
$SURFV
 70
     6
  9
$UCSNAME
  2

  9
$UCSORG
 10
0.0
 20
0.0
 30
0.0
  9
$UCSXDIR
 10
1.0
 20
0.0
 30
0.0
  9
$UCSYDIR
 10
0.0
 20
1.0
 30
0.0
  9
$PUCSNAME
  2

  9
$PUCSORG
 10
0.0
 20
0.0
 30
0.0
  9
$PUCSXDIR
 10
1.0
 20
0.0
 30
0.0
  9
$PUCSYDIR
 10
0.0
 20
1.0
 30
0.0
  9
$USERI1
 70
     0
  9
$USERI2
 70
     0
  9
$USERI3
 70
     0
  9
$USERI4
 70
     0
  9
$USERI5
 70
     0
  9
$USERR1
 40
0.0
  9
$USERR2
 40
0.0
  9
$USERR3
 40
0.0
  9
$USERR4
 40
0.0
  9
$USERR5
 40
0.0
  9
$WORLDVIEW
 70
     1
  9
$SHADEDGE
 70
     3
  9
$SHADEDIF
 70
    70
  9
$TILEMODE
 70
     1
  9
$MAXACTVP
 70
    16
  9
$PINSBASE
 10
0.0
 20
0.0
 30
0.0
  9
$PLIMCHECK
 70
     0
  9
$PEXTMIN
 10
1.0E20
 20
1.0E20
 30
1.0E20
  9
$PEXTMAX
 10
-1.0E20
 20
-1.0E20
 30
-1.0E20
  9
$PLIMMIN
 10
0.0
 20
0.0
  9
$PLIMMAX
 10
12.0
 20
9.0
  9
$UNITMODE
 70
     0
  9
$VISRETAIN
 70
     0
  0
ENDSEC
  0
SECTION
  2
TABLES
  0
TABLE
  2
VPORT
 70
     1
  0
VPORT
  2
*ACTIVE
 70
     0
 10
0.0
 20
0.0
 11
1.0
 21
1.0
 12
6.801242
 22
4.5
 13
0.0
 23
0.0
 14
1.0
 24
1.0
 15
0.0
 25
0.0
 16
0.0
 26
0.0
 36
1.0
 17
0.0
 27
0.0
 37
0.0
 40
9.0
 41
1.511387
 42
50.0
 43
0.0
 44
0.0
 50
0.0
 51
0.0
 71
     0
 72
   100
 73
     1
 74
     1
 75
     0
 76
     0
 77
     0
 78
     0
  0
ENDTAB
  0
TABLE
  2
LTYPE
 70
    41
  0
LTYPE
  2
BYBLOCK
 70
     0
  3

 72
    65
 73
     0
 40
0.0
  0
LTYPE
  2
BYLAYER
 70
     0
  3

 72
    65
 73
     0
 40
0.0
  0
LTYPE
  2
CONTINUOUS
 70
     0
  3
Solid line
 72
    65
 73
     0
 40
0.0
  0
LTYPE
  2
BORDER
 70
    64
  3
__ __ . __ __ . __ __ . __ __ . __ __ . __ __ .
 72
    65
 73
     6
 40
1.75
 49
0.5
 49
-0.25
 49
0.5
 49
-0.25
 49
0.0
 49
-0.25
  0
LTYPE
  2
BORDER2
 70
    64
  3
__.__.__.__.__.__.__.__.__.__.__.__.__.__.__.__
 72
    65
 73
     6
 40
0.875
 49
0.25
 49
-0.125
 49
0.25
 49
-0.125
 49
0.0
 49
-0.125
  0
LTYPE
  2
BORDERX2
 70
    64
  3
____  ____  .  ____  ____  .  ____  ____  .  __
 72
    65
 73
     6
 40
3.5
 49
1.0
 49
-0.5
 49
1.0
 49
-0.5
 49
0.0
 49
-0.5
  0
LTYPE
  2
CENTER
 70
    64
  3
____ _ ____ _ ____ _ ____ _ ____ _ ____ _ ____
 72
    65
 73
     4
 40
2.0
 49
1.25
 49
-0.25
 49
0.25
 49
-0.25
  0
LTYPE
  2
CENTER2
 70
    64
  3
___ _ ___ _ ___ _ ___ _ ___ _ ___ _ ___ _ ___ _
 72
    65
 73
     4
 40
1.125
 49
0.75
 49
-0.125
 49
0.125
 49
-0.125
  0
LTYPE
  2
CENTERX2
 70
    64
  3
________  __  ________  __  ________  __  _____
 72
    65
 73
     4
 40
4.0
 49
2.5
 49
-0.5
 49
0.5
 49
-0.5
  0
LTYPE
  2
DASHDOT
 70
    64
  3
__ . __ . __ . __ . __ . __ . __ . __ . __ . __
 72
    65
 73
     4
 40
1.0
 49
0.5
 49
-0.25
 49
0.0
 49
-0.25
  0
LTYPE
  2
DASHDOT2
 70
    64
  3
_._._._._._._._._._._._._._._._._._._._._._._._
 72
    65
 73
     4
 40
0.5
 49
0.25
 49
-0.125
 49
0.0
 49
-0.125
  0
LTYPE
  2
DASHDOTX2
 70
    64
  3
____  .  ____  .  ____  .  ____  .  ____  .  __
 72
    65
 73
     4
 40
2.0
 49
1.0
 49
-0.5
 49
0.0
 49
-0.5
  0
LTYPE
  2
DASHED
 70
    64
  3
__ __ __ __ __ __ __ __ __ __ __ __ __ __ __ __
 72
    65
 73
     2
 40
0.75
 49
0.5
 49
-0.25
  0
LTYPE
  2
DASHED2
 70
    64
  3
_ _ _ _ _ _ _ _ _ _ _ _ _ _ _ _ _ _ _ _ _ _ _ _
 72
    65
 73
     2
 40
0.375
 49
0.25
 49
-0.125
  0
LTYPE
  2
DASHEDX2
 70
    64
  3
____  ____  ____  ____  ____  ____  ____  ____
 72
    65
 73
     2
 40
1.5
 49
1.0
 49
-0.5
  0
LTYPE
  2
DIVIDE
 70
    64
  3
____ . . ____ . . ____ . . ____ . . ____ . . __
 72
    65
 73
     6
 40
1.25
 49
0.5
 49
-0.25
 49
0.0
 49
-0.25
 49
0.0
 49
-0.25
  0
LTYPE
  2
DIVIDE2
 70
    64
  3
__..__..__..__..__..__..__..__..__..__..__..__.
 72
    65
 73
     6
 40
0.625
 49
0.25
 49
-0.125
 49
0.0
 49
-0.125
 49
0.0
 49
-0.125
  0
LTYPE
  2
DIVIDEX2
 70
    64
  3
________  .  .  ________  .  .  ________  .  .
 72
    65
 73
     6
 40
2.5
 49
1.0
 49
-0.5
 49
0.0
 49
-0.5
 49
0.0
 49
-0.5
  0
LTYPE
  2
DOT
 70
    64
  3
. . . . . . . . . . . . . . . . . . . . . . . .
 72
    65
 73
     2
 40
0.25
 49
0.0
 49
-0.25
  0
LTYPE
  2
DOT2
 70
    64
  3
...............................................
 72
    65
 73
     2
 40
0.125
 49
0.0
 49
-0.125
  0
LTYPE
  2
DOTX2
 70
    64
  3
.  .  .  .  .  .  .  .  .  .  .  .  .  .  .  .
 72
    65
 73
     2
 40
0.5
 49
0.0
 49
-0.5
  0
LTYPE
  2
HIDDEN
 70
    64
  3
__ __ __ __ __ __ __ __ __ __ __ __ __ __ __ __
 72
    65
 73
     2
 40
0.375
 49
0.25
 49
-0.125
  0
LTYPE
  2
HIDDEN2
 70
    64
  3
_ _ _ _ _ _ _ _ _ _ _ _ _ _ _ _ _ _ _ _ _ _ _ _
 72
    65
 73
     2
 40
0.1875
 49
0.125
 49
-0.0625
  0
LTYPE
  2
HIDDENX2
 70
    64
  3
____ ____ ____ ____ ____ ____ ____ ____ ____ __
 72
    65
 73
     2
 40
0.75
 49
0.5
 49
-0.25
  0
LTYPE
  2
PHANTOM
 70
    64
  3
______  __  __  ______  __  __  ______  __  __
 72
    65
 73
     6
 40
2.5
 49
1.25
 49
-0.25
 49
0.25
 49
-0.25
 49
0.25
 49
-0.25
  0
LTYPE
  2
PHANTOM2
 70
    64
  3
___ _ _ ___ _ _ ___ _ _ ___ _ _ ___ _ _ ___ _ _
 72
    65
 73
     6
 40
1.25
 49
0.625
 49
-0.125
 49
0.125
 49
-0.125
 49
0.125
 49
-0.125
  0
LTYPE
  2
PHANTOMX2
 70
    64
  3
____________    ____    ____    ____________
 72
    65
 73
     6
 40
5.0
 49
2.5
 49
-0.5
 49
0.5
 49
-0.5
 49
0.5
 49
-0.5
  0
LTYPE
  2
ACAD_ISO02W100
 70
    64
  3
__ __ __ __ __ __ __ __ __ __ __ __ __ __ __ __
 72
    65
 73
     2
 40
15.0
 49
12.0
 49
-3.0
  0
LTYPE
  2
ACAD_ISO03W100
 70
    64
  3
__    __    __    __    __    __    __    __
 72
    65
 73
     2
 40
30.0
 49
12.0
 49
-18.0
  0
LTYPE
  2
ACAD_ISO04W100
 70
    64
  3
____ . ____ . ____ . ____ . ____ . ____ . ____
 72
    65
 73
     4
 40
30.5
 49
24.0
 49
-3.0
 49
0.5
 49
-3.0
  0
LTYPE
  2
ACAD_ISO05W100
 70
    64
  3
____ .. ____ .. ____ .. ____ .. ____ .. ____ ..
 72
    65
 73
     6
 40
34.0
 49
24.0
 49
-3.0
 49
0.5
 49
-3.0
 49
0.5
 49
-3.0
  0
LTYPE
  2
ACAD_ISO06W100
 70
    64
  3
____ ... ____ ... ____ ... ____ ... ____ ... __
 72
    65
 73
     8
 40
37.5
 49
24.0
 49
-3.0
 49
0.5
 49
-3.0
 49
0.5
 49
-3.0
 49
0.5
 49
-3.0
  0
LTYPE
  2
ACAD_ISO07W100
 70
    64
  3
. . . . . . . . . . . . . . . . . . . . . . . .
 72
    65
 73
     2
 40
3.5
 49
0.5
 49
-3.0
  0
LTYPE
  2
ACAD_ISO08W100
 70
    64
  3
____ __ ____ __ ____ __ ____ ____ __ __ ____ __
 72
    65
 73
     4
 40
36.0
 49
24.0
 49
-3.0
 49
6.0
 49
-3.0
  0
LTYPE
  2
ACAD_ISO09W100
 70
    64
  3
____ __ __ ____ __ __ ____ __ __ ____ __ __ ___
 72
    65
 73
     6
 40
45.0
 49
24.0
 49
-3.0
 49
6.0
 49
-3.0
 49
6.0
 49
-3.0
  0
LTYPE
  2
ACAD_ISO10W100
 70
    64
  3
__ . __ . __ . __ . __ . __ . __ . __ . __ . __
 72
    65
 73
     4
 40
18.5
 49
12.0
 49
-3.0
 49
0.5
 49
-3.0
  0
LTYPE
  2
ACAD_ISO11W100
 70
    64
  3
__ __ . __ __ . __ __ . __ __ . __ __ . __ __ .
 72
    65
 73
     6
 40
33.5
 49
12.0
 49
-3.0
 49
12.0
 49
-3.0
 49
0.5
 49
-3.0
  0
LTYPE
  2
ACAD_ISO12W100
 70
    64
  3
__ . . __ . . __ . . __ . . __ . . __ . . __ .
 72
    65
 73
     6
 40
22.0
 49
12.0
 49
-3.0
 49
0.5
 49
-3.0
 49
0.5
 49
-3.0
  0
LTYPE
  2
ACAD_ISO13W100
 70
    64
  3
__ __ . . __ __ . . __ __ . . __ __ . . __ __ .
 72
    65
 73
     8
 40
37.0
 49
12.0
 49
-3.0
 49
12.0
 49
-3.0
 49
0.5
 49
-3.0
 49
0.5
 49
-3.0
  0
LTYPE
  2
ACAD_ISO14W100
 70
    64
  3
__ . . . __ . . . __ . . . __ . . . __ . . . __
 72
    65
 73
     8
 40
25.5
 49
12.0
 49
-3.0
 49
0.5
 49
-3.0
 49
0.5
 49
-3.0
 49
0.5
 49
-3.0
  0
LTYPE
  2
ACAD_ISO15W100
 70
    64
  3
__ __ . . . __ __ . . . __ __ . . . __ __ . . .
 72
    65
 73
    10
 40
40.5
 49
12.0
 49
-3.0
 49
12.0
 49
-3.0
 49
0.5
 49
-3.0
 49
0.5
 49
-3.0
 49
0.5
 49
-3.0
  0
ENDTAB
  0
TABLE
  2
STYLE
 70
     4
  0
STYLE
  2
STANDARD
 70
    64
 40
0.0
 41
1.0
 50
0.0
 71
     0
 42
0.2
  3
txt
  4

  0
STYLE
  2
TOLERANCE
 70
    64
 40
0.0
 41
1.0
 50
0.0
 71
     0
 42
0.2
  3
iges1003.shx
  4

  0
STYLE
  2
ROMANS
 70
    64
 40
0.0
 41
1.0
 50
0.0
 71
     0
 42
0.2
  3
romans.shx
  4

  0
STYLE
  2
ROMANC
 70
    64
 40
0.0
 41
1.0
 50
0.0
 71
     0
 42
0.2
  3
romanc.shx
  4

  0
ENDTAB
  0
TABLE
  2
DIMSTYLE
 70
     2
  0
DIMSTYLE
  2
UNNAMED
 70
     0
  3

  4

  5

  6

  7

 40
1.0
 41
0.18
 42
0.0625
 43
0.38
 44
0.18
 45
0.0
 46
0.0
 47
0.0
 48
0.0
140
0.18
141
0.09
142
0.0
143
25.4
144
1.0
145
0.0
146
1.0
147
0.09
 71
     0
 72
     0
 73
     1
 74
     1
 75
     0
 76
     0
 77
     0
 78
     0
170
     0
171
     2
172
     0
173
     0
174
     0
175
     0
176
     0
177
     0
178
     0
  0
DIMSTYLE
  2
STANDARD
 70
     0
  3

  4

  5

  6

  7

 40
1.0
 41
0.18
 42
0.0625
 43
0.38
 44
0.18
 45
0.0
 46
0.0
 47
0.0
 48
0.0
140
0.18
141
0.09
142
0.0
143
25.4
144
1.0
145
0.0
146
1.0
147
0.09
 71
     0
 72
     0
 73
     1
 74
     1
 75
     0
 76
     0
 77
     0
 78
     0
170
     0
171
     2
172
     0
173
     0
174
     0
175
     0
176
     0
177
     0
178
     0
  0
ENDTAB
  0
TABLE
  2
LAYER
 70
     2
  0
LAYER
  2
0
 70
     0
 62
     7
  6
CONTINUOUS
  0
LAYER
  2
255
 70
     0
 62
     7
  6
CONTINUOUS
  0
ENDTAB
  0
ENDSEC
  0
SECTION
  2
BLOCKS
  0
BLOCK
  5
     B
  8
0
  6
CONTINUOUS
 62
     7
  2
$1TABELL
 70
    64
 10
0.0
 20
0.0
 30
0.0
  3
$1TABELL
  0
LINE
  5
     C
  8
0
  6
CONTINUOUS
 62
     7
 10
185.865085111827
 20
-41.3516925132404
 30
0.0
 11
185.865085111827
 21
-17.8955555684779
 31
0.0
  0
LINE
  5
     D
  8
0
  6
CONTINUOUS
 62
     7
 10
185.865085111827
 20
-17.8955555684779
 30
0.0
 11
276.842651116485
 21
-17.8955555684779
 31
0.0
  0
LINE
  5
     E
  8
0
  6
CONTINUOUS
 62
     7
 10
185.865085111827
 20
-25.7142678833987
 30
0.0
 11
276.842651116485
 21
-25.7142678833987
 31
0.0
  0
LINE
  5
     F
  8
0
  6
CONTINUOUS
 62
     7
 10
246.445970822728
 20
-41.3516925132404
 30
0.0
 11
246.445970822728
 21
-10.0768432535571
 31
0.0
  0
TEXT
  5
    10
  8
0
  6
CONTINUOUS
 62
     7
 10
237.180130357331
 20
-22.8049139611125
 30
0.0
 40
2.00000447034836
  1
83
 41
0.933333333333333
 72
     1
 11
238.846800749288
 21
-21.8049117259384
 31
0.0
 73
     2
  0
LINE
  5
    11
  8
0
  6
CONTINUOUS
 62
     7
 10
216.04929052897
 20
-41.3516925132404
 30
0.0
 11
216.04929052897
 21
-10.0768432535571
 31
0.0
  0
TEXT
  5
    12
  8
0
  6
CONTINUOUS
 62
     7
 10
238.113465776827
 20
-14.9862016461917
 30
0.0
 40
2.00000447034836
  1
B
 41
0.933333333333333
 72
     1
 11
238.846800749288
 21
-13.9861994110175
 31
0.0
 73
     2
  0
LINE
  5
    13
  8
0
  6
CONTINUOUS
 62
     7
 10
216.04929052897
 20
-10.0768432535571
 30
0.0
 11
276.842651116485
 21
-10.0768432535571
 31
0.0
  0
LINE
  5
    14
  8
0
  6
CONTINUOUS
 62
     7
 10
231.247630675849
 20
-41.3516925132404
 30
0.0
 11
231.247630675849
 21
-10.0768432535571
 31
0.0
  0
TEXT
  5
    15
  8
0
  6
CONTINUOUS
 62
     7
 10
222.915125629949
 20
-14.9862016461917
 30
0.0
 40
2.00000447034836
  1
A
 41
0.933333333333333
 72
     1
 11
223.64846060241
 21
-13.9861994110175
 31
0.0
 73
     2
  0
LINE
  5
    16
  8
0
  6
CONTINUOUS
 62
     7
 10
185.865085111827
 20
-41.3516925132404
 30
0.0
 11
276.842651116485
 21
-41.3516925132404
 31
0.0
  0
TEXT
  5
    17
  8
0
  6
CONTINUOUS
 62
     7
 10
221.981790210453
 20
-38.4423385909541
 30
0.0
 40
2.00000447034836
  1
71
 41
0.933333333333333
 72
     1
 11
223.64846060241
 21
-37.44233635578
 31
0.0
 73
     2
  0
TEXT
  5
    18
  8
0
  6
CONTINUOUS
 62
     7
 10
221.981790210453
 20
-30.6236262760333
 30
0.0
 40
2.00000447034836
  1
79
 41
0.933333333333333
 72
     1
 11
223.64846060241
 21
-29.6236240408592
 31
0.0
 73
     2
  0
TEXT
  5
    19
  8
0
  6
CONTINUOUS
 62
     7
 10
221.981790210453
 20
-22.8049139611125
 30
0.0
 40
2.00000447034836
  1
79
 41
0.933333333333333
 72
     1
 11
223.64846060241
 21
-21.8049117259384
 31
0.0
 73
     2
  0
LINE
  5
    1A
  8
0
  6
CONTINUOUS
 62
     7
 10
216.04929052897
 20
-33.5329801983196
 30
0.0
 11
276.842651116485
 21
-33.5329801983196
 31
0.0
  0
LINE
  5
    1B
  8
0
  6
CONTINUOUS
 62
     7
 10
261.644310969606
 20
-41.3516925132404
 30
0.0
 11
261.644310969606
 21
-10.0768432535571
 31
0.0
  0
TEXT
  5
    1C
  8
0
  6
CONTINUOUS
 62
     7
 10
252.37847050421
 20
-38.4423385909541
 30
0.0
 40
2.00000447034836
  1
47
 41
0.933333333333333
 72
     1
 11
254.045140896167
 21
-37.44233635578
 31
0.0
 73
     2
  0
TEXT
  5
    1D
  8
0
  6
CONTINUOUS
 62
     7
 10
235.31345951834
 20
-30.6236262760333
 30
0.0
 40
2.00000447034836
  1
78.2
 41
0.933333333333333
 72
     1
 11
238.846800749288
 21
-29.6236240408592
 31
0.0
 73
     2
  0
TEXT
  5
    1E
  8
0
  6
CONTINUOUS
 62
     7
 10
252.37847050421
 20
-30.6236262760333
 30
0.0
 40
2.00000447034836
  1
47
 41
0.933333333333333
 72
     1
 11
254.045140896167
 21
-29.6236240408592
 31
0.0
 73
     2
  0
TEXT
  5
    1F
  8
0
  6
CONTINUOUS
 62
     7
 10
236.246794937835
 20
-38.4423385909541
 30
0.0
 40
2.00000447034836
  1
107
 41
0.933333333333333
 72
     1
 11
238.846800749288
 21
-37.44233635578
 31
0.0
 73
     2
  0
TEXT
  5
    20
  8
0
  6
CONTINUOUS
 62
     7
 10
252.37847050421
 20
-22.8049139611125
 30
0.0
 40
2.00000447034836
  1
58
 41
0.933333333333333
 72
     1
 11
254.045140896167
 21
-21.8049117259384
 31
0.0
 73
     2
  0
TEXT
  5
    21
  8
0
  6
CONTINUOUS
 62
     7
 10
253.311805923706
 20
-14.9862016461917
 30
0.0
 40
2.00000447034836
  1
C
 41
0.933333333333333
 72
     1
 11
254.045140896167
 21
-13.9861994110175
 31
0.0
 73
     2
  0
TEXT
  5
    22
  8
0
  6
CONTINUOUS
 62
     7
 10
268.510146070585
 20
-14.9862016461917
 30
0.0
 40
2.00000447034836
  1
D
 41
0.933333333333333
 72
     1
 11
269.243481043046
 21
-13.9861994110175
 31
0.0
 73
     2
  0
LINE
  5
    23
  8
0
  6
CONTINUOUS
 62
     7
 10
276.842651116485
 20
-41.3516925132404
 30
0.0
 11
276.842651116485
 21
-10.0768432535571
 31
0.0
  0
TEXT
  5
    24
  8
0
  6
CONTINUOUS
 62
     7
 10
265.710139812097
 20
-30.6236262760333
 30
0.0
 40
2.00000447034836
  1
13.5
 41
0.933333333333333
 72
     1
 11
269.243481043046
 21
-29.6236240408592
 31
0.0
 73
     2
  0
TEXT
  5
    25
  8
0
  6
CONTINUOUS
 62
     7
 10
267.576810651089
 20
-22.8049139611125
 30
0.0
 40
2.00000447034836
  1
19
 41
0.933333333333333
 72
     1
 11
269.243481043046
 21
-21.8049117259384
 31
0.0
 73
     2
  0
TEXT
  5
    26
  8
0
  6
CONTINUOUS
 62
     7
 10
265.710139812097
 20
-38.4423385909541
 30
0.0
 40
2.00000447034836
  1
13.5
 41
0.933333333333333
 72
     1
 11
269.243481043046
 21
-37.44233635578
 31
0.0
 73
     2
  0
TEXT
  5
    27
  8
0
  6
CONTINUOUS
 62
     7
 10
190.564741023928
 20
-21.1651096656141
 30
0.0
 40
2.00000008940697
  1
WITH FLANGE
 41
0.933333333333333
 72
     1
 11
200.63140814061
 21
-20.1651096209106
 31
0.0
 73
     2
  0
TEXT
  5
    28
  8
0
  6
CONTINUOUS
 62
     7
 10
189.631383553694
 20
-24.4447160661403
 30
0.0
 40
2.00000447034836
  1
CON MOSTRINA
 41
0.933333333333333
 72
     1
 11
200.63140814061
 21
-23.4447138309661
 31
0.0
 73
     2
  0
TEXT
  5
    29
  8
0
  6
CONTINUOUS
 62
     7
 10
188.416300258335
 20
-36.2077328743077
 30
0.0
 40
2.00000008940697
  1
SENZA MOSTRINA
 41
0.933333333333333
 72
     1
 11
201.282967500187
 21
-35.2077328296042
 31
0.0
 73
     2
  0
TEXT
  5
    2A
  8
0
  6
CONTINUOUS
 62
     7
 10
188.416300258335
 20
-32.8582276117383
 30
0.0
 40
2.00000008940697
  1
WITHOUT FLANGE
 41
0.933333333333333
 72
     1
 11
201.282967500187
 21
-31.8582275670348
 31
0.0
 73
     2
  0
ENDBLK
  5
    2B
  8
0
  6
CONTINUOUS
 62
     7
  0
BLOCK
  5
    2C
  8
0
  6
CONTINUOUS
 62
     7
  2
*UDIM1208
 70
    65
 10
0.0
 20
0.0
 30
0.0
  3
*UDIM1208
  0
LINE
  5
    2D
  8
0
  6
CONTINUOUS
 62
     7
 10
366.527942573193
 20
404.979593223005
 30
0.0
 11
400.931765513119
 21
383.958828839046
 31
0.0
  0
LINE
  5
    2E
  8
0
  6
CONTINUOUS
 62
     7
 10
392.251591721855
 20
388.352501233449
 30
0.0
 11
395.129164313791
 21
387.504222990101
 31
0.0
  0
LINE
  5
    2F
  8
0
  6
CONTINUOUS
 62
     7
 10
395.129164313791
 20
387.504222990101
 30
0.0
 11
393.061252501282
 21
389.677639824417
 31
0.0
  0
LINE
  5
    30
  8
0
  6
CONTINUOUS
 62
     7
 10
399.542719592967
 20
385.717458049426
 30
0.0
 11
396.665147001031
 21
386.565736292774
 31
0.0
  0
LINE
  5
    31
  8
0
  6
CONTINUOUS
 62
     7
 10
396.665147001031
 20
386.565736292774
 30
0.0
 11
398.733058813539
 21
384.392319458459
 31
0.0
  0
TEXT
  5
    32
  8
0
  6
CONTINUOUS
 62
     7
 10
370.462618830374
 20
403.747390988836
 30
0.0
 40
2.99999994933605
  1
4,5
 50
328.575035135266
 41
0.933333333333333
 72
     1
 11
374.572653436514
 21
402.993988741297
 31
0.0
 73
     2
  0
TEXT
  5
    33
  8
0
  6
CONTINUOUS
 62
     7
 10
367.049324063942
 20
405.832916925413
 30
0.0
 40
2.99999994933605
  1
Ø
 50
328.575035135266
 41
1.2
 72
     1
 11
369.11138181886
 21
406.330830234522
 31
0.0
 73
     2
  0
TEXT
  5
    34
  8
0
  6
CONTINUOUS
 62
     7
 10
377.971867299237
 20
399.159233938943
 30
0.0
 40
2.99999994933605
  1
 - M4
 50
328.575035135266
 41
0.933333333333333
 72
     1
 11
384.471208231804
 21
396.94596354198
 31
0.0
 73
     2
  0
ENDBLK
  5
    35
  8
0
  6
CONTINUOUS
 62
     7
  0
BLOCK
  5
    36
  8
0
  6
CONTINUOUS
 62
     7
  2
*UDIM1209
 70
    65
 10
0.0
 20
0.0
 30
0.0
  3
*UDIM1209
  0
LINE
  5
    37
  8
0
  6
CONTINUOUS
 62
     7
 10
407.058916857731
 20
338.234978914261
 30
0.0
 11
366.957480842516
 21
338.234978914261
 31
0.0
  0
LINE
  5
    38
  8
0
  6
CONTINUOUS
 62
     7
 10
395.217155658007
 20
387.034979641438
 30
0.0
 11
366.957480842516
 21
387.034979641438
 31
0.0
  0
LINE
  5
    39
  8
0
  6
CONTINUOUS
 62
     7
 10
368.957480842516
 20
338.234978914261
 30
0.0
 11
368.957480842516
 21
387.034979641438
 31
0.0
  0
LINE
  5
    3A
  8
0
  6
CONTINUOUS
 62
     7
 10
368.181023686097
 20
341.132756387471
 30
0.0
 11
368.957480842516
 21
338.234978914261
 31
0.0
  0
LINE
  5
    3B
  8
0
  6
CONTINUOUS
 62
     7
 10
368.957480842516
 20
338.234978914261
 30
0.0
 11
369.733937998934
 21
341.132756387471
 31
0.0
  0
LINE
  5
    3C
  8
0
  6
CONTINUOUS
 62
     7
 10
369.733937998934
 20
384.137202168227
 30
0.0
 11
368.957480842516
 21
387.034979641438
 31
0.0
  0
LINE
  5
    3D
  8
0
  6
CONTINUOUS
 62
     7
 10
368.957480842516
 20
387.034979641438
 30
0.0
 11
368.181023686097
 21
384.137202168227
 31
0.0
  0
TEXT
  5
    3E
  8
0
  6
CONTINUOUS
 62
     7
 10
367.95748084252
 20
358.734979343714
 30
0.0
 40
2.99999994933605
  1
122
 50
90.0
 41
0.933333333333333
 72
     1
 11
366.457480867848
 21
362.634979277849
 31
0.0
 73
     2
  0
ENDBLK
  5
    3F
  8
0
  6
CONTINUOUS
 62
     7
  0
BLOCK
  5
    40
  8
0
  6
CONTINUOUS
 62
     7
  2
*UDIM1210
 70
    65
 10
0.0
 20
0.0
 30
0.0
  3
*UDIM1210
  0
LINE
  5
    41
  8
0
  6
CONTINUOUS
 62
     7
 10
383.304647654408
 20
362.634979277849
 30
0.0
 11
374.91702161266
 21
362.634979277849
 31
0.0
  0
LINE
  5
    42
  8
0
  6
CONTINUOUS
 62
     7
 10
395.217155658007
 20
387.034979641438
 30
0.0
 11
374.91702161266
 21
387.034979641438
 31
0.0
  0
LINE
  5
    43
  8
0
  6
CONTINUOUS
 62
     7
 10
376.91702161266
 20
362.634979277849
 30
0.0
 11
376.91702161266
 21
387.034979641438
 31
0.0
  0
LINE
  5
    44
  8
0
  6
CONTINUOUS
 62
     7
 10
376.140564456242
 20
365.53275675106
 30
0.0
 11
376.91702161266
 21
362.634979277849
 31
0.0
  0
LINE
  5
    45
  8
0
  6
CONTINUOUS
 62
     7
 10
376.91702161266
 20
362.634979277849
 30
0.0
 11
377.693478769079
 21
365.53275675106
 31
0.0
  0
LINE
  5
    46
  8
0
  6
CONTINUOUS
 62
     7
 10
377.693478769079
 20
384.137202168227
 30
0.0
 11
376.91702161266
 21
387.034979641438
 31
0.0
  0
LINE
  5
    47
  8
0
  6
CONTINUOUS
 62
     7
 10
376.91702161266
 20
387.034979641438
 30
0.0
 11
376.140564456242
 21
384.137202168227
 31
0.0
  0
TEXT
  5
    48
  8
0
  6
CONTINUOUS
 62
     7
 10
375.917021612663
 20
372.334979501865
 30
0.0
 40
2.99999994933605
  1
61
 50
90.0
 41
0.933333333333333
 72
     1
 11
374.417021637992
 21
374.834979459643
 31
0.0
 73
     2
  0
ENDBLK
  5
    49
  8
0
  6
CONTINUOUS
 62
     7
  0
BLOCK
  5
    4A
  8
0
  6
CONTINUOUS
 62
     7
  2
*UDIM1211
 70
    65
 10
0.0
 20
0.0
 30
0.0
  3
*UDIM1211
  0
LINE
  5
    4B
  8
0
  6
CONTINUOUS
 62
     7
 10
395.897155657411
 20
390.229893111721
 30
0.0
 11
395.897155657411
 21
402.560421041237
 31
0.0
  0
LINE
  5
    4C
  8
0
  6
CONTINUOUS
 62
     7
 10
409.897162206698
 20
340.62697677012
 30
0.0
 11
409.897162206698
 21
402.560421041237
 31
0.0
  0
LINE
  5
    4D
  8
0
  6
CONTINUOUS
 62
     7
 10
395.897155657411
 20
400.560421041237
 30
0.0
 11
409.897162206698
 21
400.560421041237
 31
0.0
  0
LINE
  5
    4E
  8
0
  6
CONTINUOUS
 62
     7
 10
398.794933130621
 20
401.336878197655
 30
0.0
 11
395.897155657411
 21
400.560421041237
 31
0.0
  0
LINE
  5
    4F
  8
0
  6
CONTINUOUS
 62
     7
 10
395.897155657411
 20
400.560421041237
 30
0.0
 11
398.794933130621
 21
399.783963884818
 31
0.0
  0
LINE
  5
    50
  8
0
  6
CONTINUOUS
 62
     7
 10
406.999384733488
 20
399.783963884818
 30
0.0
 11
409.897162206698
 21
400.560421041237
 31
0.0
  0
LINE
  5
    51
  8
0
  6
CONTINUOUS
 62
     7
 10
409.897162206698
 20
400.560421041237
 30
0.0
 11
406.999384733488
 21
401.336878197655
 31
0.0
  0
TEXT
  5
    52
  8
0
  6
CONTINUOUS
 62
     7
 10
400.397158974274
 20
401.560421041237
 30
0.0
 40
2.99999994933605
  1
35
 41
0.933333333333333
 72
     1
 11
402.897158932055
 21
403.060421015905
 31
0.0
 73
     2
  0
ENDBLK
  5
    53
  8
0
  6
CONTINUOUS
 62
     7
  0
BLOCK
  5
    54
  8
0
  6
CONTINUOUS
 62
     7
  2
*UDIM1212
 70
    65
 10
0.0
 20
0.0
 30
0.0
  3
*UDIM1212
  0
LINE
  5
    55
  8
0
  6
CONTINUOUS
 62
     7
 10
385.297152200253
 20
274.787930637598
 30
0.0
 11
360.041750882172
 21
274.787930637598
 31
0.0
  0
LINE
  5
    56
  8
0
  6
CONTINUOUS
 62
     7
 10
385.297152200253
 20
297.987930983305
 30
0.0
 11
360.041750882172
 21
297.987930983305
 31
0.0
  0
LINE
  5
    57
  8
0
  6
CONTINUOUS
 62
     7
 10
362.041750882172
 20
274.787930637598
 30
0.0
 11
362.041750882172
 21
297.987930983305
 31
0.0
  0
LINE
  5
    58
  8
0
  6
CONTINUOUS
 62
     7
 10
361.265293725754
 20
277.685708110809
 30
0.0
 11
362.041750882172
 21
274.787930637598
 31
0.0
  0
LINE
  5
    59
  8
0
  6
CONTINUOUS
 62
     7
 10
362.041750882172
 20
274.787930637598
 30
0.0
 11
362.818208038591
 21
277.685708110809
 31
0.0
  0
LINE
  5
    5A
  8
0
  6
CONTINUOUS
 62
     7
 10
362.818208038591
 20
295.090153510094
 30
0.0
 11
362.041750882172
 21
297.987930983305
 31
0.0
  0
LINE
  5
    5B
  8
0
  6
CONTINUOUS
 62
     7
 10
362.041750882172
 20
297.987930983305
 30
0.0
 11
361.265293725754
 21
295.090153510094
 31
0.0
  0
TEXT
  5
    5C
  8
0
  6
CONTINUOUS
 62
     7
 10
361.041750882174
 20
285.28793082903
 30
0.0
 40
2.99999994933605
  1
C
 50
90.0
 41
0.933333333333333
 72
     1
 11
359.541750907504
 21
286.387930810452
 31
0.0
 73
     2
  0
ENDBLK
  5
    5D
  8
0
  6
CONTINUOUS
 62
     7
  0
BLOCK
  5
    5E
  8
0
  6
CONTINUOUS
 62
     7
  2
*UDIM1213
 70
    65
 10
0.0
 20
0.0
 30
0.0
  3
*UDIM1213
  0
LINE
  5
    5F
  8
0
  6
CONTINUOUS
 62
     7
 10
386.297151589904
 20
298.987930983305
 30
0.0
 11
386.297151589904
 21
316.764261244366
 31
0.0
  0
LINE
  5
    60
  8
0
  6
CONTINUOUS
 62
     7
 10
419.497152084622
 20
298.987930983305
 30
0.0
 11
419.497152084622
 21
316.764261244366
 31
0.0
  0
LINE
  5
    61
  8
0
  6
CONTINUOUS
 62
     7
 10
386.297151589904
 20
314.764261244366
 30
0.0
 11
419.497152084622
 21
314.764261244366
 31
0.0
  0
LINE
  5
    62
  8
0
  6
CONTINUOUS
 62
     7
 10
389.194929063114
 20
315.540718400784
 30
0.0
 11
386.297151589904
 21
314.764261244366
 31
0.0
  0
LINE
  5
    63
  8
0
  6
CONTINUOUS
 62
     7
 10
386.297151589904
 20
314.764261244366
 30
0.0
 11
389.194929063114
 21
313.987804087947
 31
0.0
  0
LINE
  5
    64
  8
0
  6
CONTINUOUS
 62
     7
 10
416.599374611412
 20
313.987804087947
 30
0.0
 11
419.497152084622
 21
314.764261244366
 31
0.0
  0
LINE
  5
    65
  8
0
  6
CONTINUOUS
 62
     7
 10
419.497152084622
 20
314.764261244366
 30
0.0
 11
416.599374611412
 21
315.540718400784
 31
0.0
  0
TEXT
  5
    66
  8
0
  6
CONTINUOUS
 62
     7
 10
398.997151903126
 20
311.76426129503
 30
0.0
 40
2.99999994933605
  1
= =
 41
0.933333333333333
 72
     1
 11
402.897151837263
 21
313.264261269698
 31
0.0
 73
     2
  0
TEXT
  5
    67
  8
0
  6
CONTINUOUS
 62
     7
 10
401.79715185584
 20
315.764261244366
 30
0.0
 40
2.99999994933605
  1
B
 41
0.933333333333333
 72
     1
 11
402.897151837263
 21
317.264261219034
 31
0.0
 73
     2
  0
ENDBLK
  5
    68
  8
0
  6
CONTINUOUS
 62
     7
  0
BLOCK
  5
    69
  8
0
  6
CONTINUOUS
 62
     7
  2
*UDIM1214
 70
    65
 10
0.0
 20
0.0
 30
0.0
  3
*UDIM1214
  0
LINE
  5
    6A
  8
0
  6
CONTINUOUS
 62
     7
 10
374.488726312879
 20
290.387930870056
 30
0.0
 11
368.842539435095
 21
290.387930870056
 31
0.0
  0
LINE
  5
    6B
  8
0
  6
CONTINUOUS
 62
     7
 10
385.297152200253
 20
297.987930983305
 30
0.0
 11
368.842539435095
 21
297.987930983305
 31
0.0
  0
LINE
  5
    6C
  8
0
  6
CONTINUOUS
 62
     7
 10
370.842539435095
 20
285.387930870056
 30
0.0
 11
370.842539435095
 21
302.987930983305
 31
0.0
  0
LINE
  5
    6D
  8
0
  6
CONTINUOUS
 62
     7
 10
371.618996591513
 20
287.490153396846
 30
0.0
 11
370.842539435095
 21
290.387930870056
 31
0.0
  0
LINE
  5
    6E
  8
0
  6
CONTINUOUS
 62
     7
 10
370.842539435095
 20
290.387930870056
 30
0.0
 11
370.066082278676
 21
287.490153396846
 31
0.0
  0
LINE
  5
    6F
  8
0
  6
CONTINUOUS
 62
     7
 10
370.066082278676
 20
300.885708456515
 30
0.0
 11
370.842539435095
 21
297.987930983305
 31
0.0
  0
LINE
  5
    70
  8
0
  6
CONTINUOUS
 62
     7
 10
370.842539435095
 20
297.987930983305
 30
0.0
 11
371.618996591513
 21
300.885708456515
 31
0.0
  0
TEXT
  5
    71
  8
0
  6
CONTINUOUS
 62
     7
 10
369.842539435096
 20
292.690369675297
 30
0.0
 40
2.99999994933605
  1
D
 50
90.0
 41
0.933333333333333
 72
     1
 11
368.342539460427
 21
293.790369656718
 31
0.0
 73
     2
  0
ENDBLK
  5
    72
  8
0
  6
CONTINUOUS
 62
     7
  0
BLOCK
  5
    73
  8
0
  6
CONTINUOUS
 62
     7
  2
*UDIM1215
 70
    65
 10
0.0
 20
0.0
 30
0.0
  3
*UDIM1215
  0
LINE
  5
    74
  8
0
  6
CONTINUOUS
 62
     7
 10
104.995988858691
 20
193.664916992187
 30
0.0
 11
90.1411558169192
 21
193.664916992187
 31
0.0
  0
LINE
  5
    75
  8
0
  6
CONTINUOUS
 62
     7
 10
118.794406890869
 20
208.164916992187
 30
0.0
 11
90.1411558169192
 21
208.164916992187
 31
0.0
  0
LINE
  5
    76
  8
0
  6
CONTINUOUS
 62
     7
 10
92.1411558169192
 20
193.664916992187
 30
0.0
 11
92.1411558169192
 21
208.164916992187
 31
0.0
  0
LINE
  5
    77
  8
0
  6
CONTINUOUS
 62
     7
 10
91.3646986605007
 20
196.562694465398
 30
0.0
 11
92.1411558169192
 21
193.664916992187
 31
0.0
  0
LINE
  5
    78
  8
0
  6
CONTINUOUS
 62
     7
 10
92.1411558169192
 20
193.664916992187
 30
0.0
 11
92.9176129733377
 21
196.562694465398
 31
0.0
  0
LINE
  5
    79
  8
0
  6
CONTINUOUS
 62
     7
 10
92.9176129733377
 20
205.267139518977
 30
0.0
 11
92.1411558169192
 21
208.164916992187
 31
0.0
  0
LINE
  5
    7A
  8
0
  6
CONTINUOUS
 62
     7
 10
92.1411558169192
 20
208.164916992187
 30
0.0
 11
91.3646986605007
 21
205.267139518977
 31
0.0
  0
TEXT
  5
    7B
  8
0
  6
CONTINUOUS
 62
     7
 10
91.1411558169223
 20
198.414916967354
 30
0.0
 40
3.00000002980232
  1
29
 50
90.0
 41
0.933333333333333
 72
     1
 11
89.641155802018
 21
200.914916992187
 31
0.0
 73
     2
  0
ENDBLK
  5
    7C
  8
0
  6
CONTINUOUS
 62
     7
  0
BLOCK
  5
    7D
  8
0
  6
CONTINUOUS
 62
     7
  2
*UDIM1216
 70
    65
 10
0.0
 20
0.0
 30
0.0
  3
*UDIM1216
  0
LINE
  5
    7E
  8
0
  6
CONTINUOUS
 62
     7
 10
117.208606719971
 20
169.164916992187
 30
0.0
 11
80.6538440603767
 21
169.164916992187
 31
0.0
  0
LINE
  5
    7F
  8
0
  6
CONTINUOUS
 62
     7
 10
118.794406890869
 20
208.164916992187
 30
0.0
 11
80.6538440603767
 21
208.164916992187
 31
0.0
  0
LINE
  5
    80
  8
0
  6
CONTINUOUS
 62
     7
 10
82.6538440603767
 20
169.164916992187
 30
0.0
 11
82.6538440603767
 21
208.164916992187
 31
0.0
  0
LINE
  5
    81
  8
0
  6
CONTINUOUS
 62
     7
 10
81.8773869039582
 20
172.062694465398
 30
0.0
 11
82.6538440603767
 21
169.164916992187
 31
0.0
  0
LINE
  5
    82
  8
0
  6
CONTINUOUS
 62
     7
 10
82.6538440603767
 20
169.164916992187
 30
0.0
 11
83.4303012167953
 21
172.062694465398
 31
0.0
  0
LINE
  5
    83
  8
0
  6
CONTINUOUS
 62
     7
 10
83.4303012167953
 20
205.267139518977
 30
0.0
 11
82.6538440603767
 21
208.164916992187
 31
0.0
  0
LINE
  5
    84
  8
0
  6
CONTINUOUS
 62
     7
 10
82.6538440603767
 20
208.164916992187
 30
0.0
 11
81.8773869039582
 21
205.267139518977
 31
0.0
  0
TEXT
  5
    85
  8
0
  6
CONTINUOUS
 62
     7
 10
81.6538440603799
 20
186.164916967354
 30
0.0
 40
3.00000002980232
  1
78
 50
90.0
 41
0.933333333333333
 72
     1
 11
80.1538440454756
 21
188.664916992187
 31
0.0
 73
     2
  0
ENDBLK
  5
    86
  8
0
  6
CONTINUOUS
 62
     7
  0
BLOCK
  5
    87
  8
0
  6
CONTINUOUS
 62
     7
  2
*UDIM1217
 70
    65
 10
0.0
 20
0.0
 30
0.0
  3
*UDIM1217
  0
LINE
  5
    88
  8
0
  6
CONTINUOUS
 62
     7
 10
113.708605957034
 20
209.164916992188
 30
0.0
 11
113.708605957034
 21
224.972764241338
 31
0.0
  0
LINE
  5
    89
  8
0
  6
CONTINUOUS
 62
     7
 10
157.808605957031
 20
209.164916992188
 30
0.0
 11
157.808605957031
 21
224.972764241338
 31
0.0
  0
LINE
  5
    8A
  8
0
  6
CONTINUOUS
 62
     7
 10
113.708605957034
 20
222.972764241338
 30
0.0
 11
157.808605957031
 21
222.972764241338
 31
0.0
  0
LINE
  5
    8B
  8
0
  6
CONTINUOUS
 62
     7
 10
116.606383430245
 20
223.749221397757
 30
0.0
 11
113.708605957034
 21
222.972764241338
 31
0.0
  0
LINE
  5
    8C
  8
0
  6
CONTINUOUS
 62
     7
 10
113.708605957034
 20
222.972764241338
 30
0.0
 11
116.606383430245
 21
222.19630708492
 31
0.0
  0
LINE
  5
    8D
  8
0
  6
CONTINUOUS
 62
     7
 10
154.910828483821
 20
222.19630708492
 30
0.0
 11
157.808605957031
 21
222.972764241338
 31
0.0
  0
LINE
  5
    8E
  8
0
  6
CONTINUOUS
 62
     7
 10
157.808605957031
 20
222.972764241338
 30
0.0
 11
154.910828483821
 21
223.749221397757
 31
0.0
  0
TEXT
  5
    8F
  8
0
  6
CONTINUOUS
 62
     7
 10
130.458605904382
 20
223.972764241338
 30
0.0
 40
3.00000002980232
  1
88,2
 41
0.933333333333333
 72
     1
 11
135.758605957033
 21
225.47276425624
 31
0.0
 73
     2
  0
TEXT
  5
    90
  8
0
  6
CONTINUOUS
 62
     7
 10
131.85860591829
 20
219.972764211536
 30
0.0
 40
3.00000002980232
  1
= =
 41
0.933333333333333
 72
     1
 11
135.758605957033
 21
221.472764226437
 31
0.0
 73
     2
  0
ENDBLK
  5
    91
  8
0
  6
CONTINUOUS
 62
     7
  0
BLOCK
  5
    92
  8
0
  6
CONTINUOUS
 62
     7
  2
*UDIM1218
 70
    65
 10
0.0
 20
0.0
 30
0.0
  3
*UDIM1218
  0
LINE
  5
    93
  8
0
  6
CONTINUOUS
 62
     7
 10
112.546483434262
 20
355.379963994026
 30
0.0
 11
112.546483434262
 21
390.864884154842
 31
0.0
  0
LINE
  5
    94
  8
0
  6
CONTINUOUS
 62
     7
 10
140.546483851494
 20
355.379963994026
 30
0.0
 11
140.546483851494
 21
390.864884154842
 31
0.0
  0
LINE
  5
    95
  8
0
  6
CONTINUOUS
 62
     7
 10
112.546483434262
 20
388.864884154842
 30
0.0
 11
140.546483851494
 21
388.864884154842
 31
0.0
  0
LINE
  5
    96
  8
0
  6
CONTINUOUS
 62
     7
 10
115.444260907473
 20
389.64134131126
 30
0.0
 11
112.546483434262
 21
388.864884154842
 31
0.0
  0
LINE
  5
    97
  8
0
  6
CONTINUOUS
 62
     7
 10
112.546483434262
 20
388.864884154842
 30
0.0
 11
115.444260907473
 21
388.088426998423
 31
0.0
  0
LINE
  5
    98
  8
0
  6
CONTINUOUS
 62
     7
 10
137.648706378284
 20
388.088426998423
 30
0.0
 11
140.546483851494
 21
388.864884154842
 31
0.0
  0
LINE
  5
    99
  8
0
  6
CONTINUOUS
 62
     7
 10
140.546483851494
 20
388.864884154842
 30
0.0
 11
137.648706378284
 21
389.64134131126
 31
0.0
  0
TEXT
  5
    9A
  8
0
  6
CONTINUOUS
 62
     7
 10
124.046483685098
 20
389.864884154842
 30
0.0
 40
2.99999994933605
  1
35
 41
0.933333333333333
 72
     1
 11
126.546483642878
 21
391.36488412951
 31
0.0
 73
     2
  0
ENDBLK
  5
    9B
  8
0
  6
CONTINUOUS
 62
     7
  0
BLOCK
  5
    9C
  8
0
  6
CONTINUOUS
 62
     7
  2
*UDIM1219
 70
    65
 10
0.0
 20
0.0
 30
0.0
  3
*UDIM1219
  0
LINE
  5
    9D
  8
0
  6
CONTINUOUS
 62
     7
 10
140.546483851494
 20
355.379963994026
 30
0.0
 11
140.546483851494
 21
390.864884154842
 31
0.0
  0
LINE
  5
    9E
  8
0
  6
CONTINUOUS
 62
     7
 10
168.546484268727
 20
355.379963994026
 30
0.0
 11
168.546484268727
 21
390.864884154842
 31
0.0
  0
LINE
  5
    9F
  8
0
  6
CONTINUOUS
 62
     7
 10
140.546483851494
 20
388.864884154842
 30
0.0
 11
168.546484268727
 21
388.864884154842
 31
0.0
  0
LINE
  5
    A0
  8
0
  6
CONTINUOUS
 62
     7
 10
143.444261324705
 20
389.64134131126
 30
0.0
 11
140.546483851494
 21
388.864884154842
 31
0.0
  0
LINE
  5
    A1
  8
0
  6
CONTINUOUS
 62
     7
 10
140.546483851494
 20
388.864884154842
 30
0.0
 11
143.444261324705
 21
388.088426998423
 31
0.0
  0
LINE
  5
    A2
  8
0
  6
CONTINUOUS
 62
     7
 10
165.648706795516
 20
388.088426998423
 30
0.0
 11
168.546484268727
 21
388.864884154842
 31
0.0
  0
LINE
  5
    A3
  8
0
  6
CONTINUOUS
 62
     7
 10
168.546484268727
 20
388.864884154842
 30
0.0
 11
165.648706795516
 21
389.64134131126
 31
0.0
  0
TEXT
  5
    A4
  8
0
  6
CONTINUOUS
 62
     7
 10
152.046484102331
 20
389.864884154842
 30
0.0
 40
2.99999994933605
  1
35
 41
0.933333333333333
 72
     1
 11
154.546484060111
 21
391.36488412951
 31
0.0
 73
     2
  0
ENDBLK
  5
    A5
  8
0
  6
CONTINUOUS
 62
     7
  0
BLOCK
  5
    A6
  8
0
  6
CONTINUOUS
 62
     7
  2
*UDIM1220
 70
    65
 10
0.0
 20
0.0
 30
0.0
  3
*UDIM1220
  0
LINE
  5
    A7
  8
0
  6
CONTINUOUS
 62
     7
 10
98.5464832256458
 20
364.179964125156
 30
0.0
 11
98.5464832256458
 21
400.139576656757
 31
0.0
  0
LINE
  5
    A8
  8
0
  6
CONTINUOUS
 62
     7
 10
182.546484477343
 20
364.179964125156
 30
0.0
 11
182.546484477343
 21
400.139576656757
 31
0.0
  0
LINE
  5
    A9
  8
0
  6
CONTINUOUS
 62
     7
 10
98.5464832256458
 20
398.139576656757
 30
0.0
 11
182.546484477343
 21
398.139576656757
 31
0.0
  0
LINE
  5
    AA
  8
0
  6
CONTINUOUS
 62
     7
 10
101.444260698856
 20
398.916033813176
 30
0.0
 11
98.5464832256458
 21
398.139576656757
 31
0.0
  0
LINE
  5
    AB
  8
0
  6
CONTINUOUS
 62
     7
 10
98.5464832256458
 20
398.139576656757
 30
0.0
 11
101.444260698856
 21
397.363119500338
 31
0.0
  0
LINE
  5
    AC
  8
0
  6
CONTINUOUS
 62
     7
 10
179.648707004133
 20
397.363119500338
 30
0.0
 11
182.546484477343
 21
398.139576656757
 31
0.0
  0
LINE
  5
    AD
  8
0
  6
CONTINUOUS
 62
     7
 10
182.546484477343
 20
398.139576656757
 30
0.0
 11
179.648707004133
 21
398.916033813176
 31
0.0
  0
TEXT
  5
    AE
  8
0
  6
CONTINUOUS
 62
     7
 10
136.646483917358
 20
399.139576656757
 30
0.0
 40
2.99999994933605
  1
105
 41
0.933333333333333
 72
     1
 11
140.546483851494
 21
400.639576631425
 31
0.0
 73
     2
  0
ENDBLK
  5
    AF
  8
0
  6
CONTINUOUS
 62
     7
  0
BLOCK
  5
    B0
  8
0
  6
CONTINUOUS
 62
     7
  2
*UDIM1221
 70
    65
 10
0.0
 20
0.0
 30
0.0
  3
*UDIM1221
  0
LINE
  5
    B1
  8
0
  6
CONTINUOUS
 62
     7
 10
89.2629974856977
 20
307.979963302612
 30
0.0
 11
83.2629974856977
 21
307.979963302612
 31
0.0
  0
LINE
  5
    B2
  8
0
  6
CONTINUOUS
 62
     7
 10
99.546483255448
 20
367.979964196682
 30
0.0
 11
83.2629974856977
 21
367.979964196682
 31
0.0
  0
LINE
  5
    B3
  8
0
  6
CONTINUOUS
 62
     7
 10
85.2629974856977
 20
307.979963302612
 30
0.0
 11
85.2629974856977
 21
367.979964196682
 31
0.0
  0
LINE
  5
    B4
  8
0
  6
CONTINUOUS
 62
     7
 10
84.4865403292792
 20
310.877740775823
 30
0.0
 11
85.2629974856977
 21
307.979963302612
 31
0.0
  0
LINE
  5
    B5
  8
0
  6
CONTINUOUS
 62
     7
 10
85.2629974856977
 20
307.979963302612
 30
0.0
 11
86.0394546421163
 21
310.877740775823
 31
0.0
  0
LINE
  5
    B6
  8
0
  6
CONTINUOUS
 62
     7
 10
86.0394546421163
 20
365.082186723471
 30
0.0
 11
85.2629974856977
 21
367.979964196682
 31
0.0
  0
LINE
  5
    B7
  8
0
  6
CONTINUOUS
 62
     7
 10
85.2629974856977
 20
367.979964196682
 30
0.0
 11
84.4865403292792
 21
365.082186723471
 31
0.0
  0
TEXT
  5
    B8
  8
0
  6
CONTINUOUS
 62
     7
 10
84.2629974857009
 20
335.479963791869
 30
0.0
 40
2.99999994933605
  1
75
 50
90.0
 41
0.933333333333333
 72
     1
 11
82.7629975110297
 21
337.979963749647
 31
0.0
 73
     2
  0
ENDBLK
  5
    B9
  8
0
  6
CONTINUOUS
 62
     7
  0
BLOCK
  5
    BA
  8
0
  6
CONTINUOUS
 62
     7
  2
*UDIM1222
 70
    65
 10
0.0
 20
0.0
 30
0.0
  3
*UDIM1222
  0
LINE
  5
    BB
  8
0
  6
CONTINUOUS
 62
     7
 10
99.546483255448
 20
247.979962408543
 30
0.0
 11
73.4090662759421
 21
247.979962408543
 31
0.0
  0
LINE
  5
    BC
  8
0
  6
CONTINUOUS
 62
     7
 10
99.546483255448
 20
367.979964196682
 30
0.0
 11
73.4090662759421
 21
367.979964196682
 31
0.0
  0
LINE
  5
    BD
  8
0
  6
CONTINUOUS
 62
     7
 10
75.4090662759421
 20
247.979962408543
 30
0.0
 11
75.4090662759421
 21
367.979964196682
 31
0.0
  0
LINE
  5
    BE
  8
0
  6
CONTINUOUS
 62
     7
 10
74.6326091195235
 20
250.877739881753
 30
0.0
 11
75.4090662759421
 21
247.979962408543
 31
0.0
  0
LINE
  5
    BF
  8
0
  6
CONTINUOUS
 62
     7
 10
75.4090662759421
 20
247.979962408543
 30
0.0
 11
76.1855234323606
 21
250.877739881753
 31
0.0
  0
LINE
  5
    C0
  8
0
  6
CONTINUOUS
 62
     7
 10
76.1855234323606
 20
365.082186723471
 30
0.0
 11
75.4090662759421
 21
367.979964196682
 31
0.0
  0
LINE
  5
    C1
  8
0
  6
CONTINUOUS
 62
     7
 10
75.4090662759421
 20
367.979964196682
 30
0.0
 11
74.6326091195235
 21
365.082186723471
 31
0.0
  0
TEXT
  5
    C2
  8
0
  6
CONTINUOUS
 62
     7
 10
74.409066275947
 20
304.079963368477
 30
0.0
 40
2.99999994933605
  1
150
 50
90.0
 41
0.933333333333333
 72
     1
 11
72.909066301274
 21
307.979963302612
 31
0.0
 73
     2
  0
ENDBLK
  5
    C3
  8
0
  6
CONTINUOUS
 62
     7
  0
BLOCK
  5
    C4
  8
0
  6
CONTINUOUS
 62
     7
  2
*HATCH1046
 70
    65
 10
0.0
 20
0.0
 30
0.0
  3
*HATCH1046
  0
LINE
  5
    C5
  8
0
  6
CONTINUOUS
 62
    92
 10
100.198344822526
 20
348.219966343641
 30
0.0
 11
100.19833871901
 21
267.739963313341
 31
0.0
  0
LINE
  5
    C6
  8
0
  6
CONTINUOUS
 62
    92
 10
102.238347294331
 20
348.219966343641
 30
0.0
 11
102.238341190815
 21
267.739963313341
 31
0.0
  0
LINE
  5
    C7
  8
0
  6
CONTINUOUS
 62
    92
 10
104.278349766135
 20
348.219966343641
 30
0.0
 11
104.27834366262
 21
267.739963313341
 31
0.0
  0
LINE
  5
    C8
  8
0
  6
CONTINUOUS
 62
    92
 10
106.31835223794
 20
348.219966343641
 30
0.0
 11
106.318346134424
 21
267.739963313341
 31
0.0
  0
LINE
  5
    C9
  8
0
  6
CONTINUOUS
 62
    92
 10
108.358354709745
 20
348.219966343641
 30
0.0
 11
108.358348606229
 21
267.739963313341
 31
0.0
  0
ENDBLK
  5
    CA
  8
0
  6
CONTINUOUS
 62
     7
  0
BLOCK
  5
    CB
  8
0
  6
CONTINUOUS
 62
     7
  2
*HATCH1047
 70
    65
 10
0.0
 20
0.0
 30
0.0
  3
*HATCH1047
  0
LINE
  5
    CC
  8
0
  6
CONTINUOUS
 62
    92
 10
171.598353134394
 20
348.219966343641
 30
0.0
 11
171.598347030878
 21
267.739963313341
 31
0.0
  0
LINE
  5
    CD
  8
0
  6
CONTINUOUS
 62
    92
 10
173.63835331738
 20
348.219966343641
 30
0.0
 11
173.638347213864
 21
267.739963313341
 31
0.0
  0
LINE
  5
    CE
  8
0
  6
CONTINUOUS
 62
    92
 10
175.678353500366
 20
348.219966343641
 30
0.0
 11
175.678347396851
 21
267.739963313341
 31
0.0
  0
LINE
  5
    CF
  8
0
  6
CONTINUOUS
 62
    92
 10
177.718353683353
 20
348.219966343641
 30
0.0
 11
177.718347579837
 21
267.739963313341
 31
0.0
  0
LINE
  5
    D0
  8
0
  6
CONTINUOUS
 62
    92
 10
179.758353866339
 20
348.219966343641
 30
0.0
 11
179.758347762823
 21
267.739963313341
 31
0.0
  0
LINE
  5
    D1
  8
0
  6
CONTINUOUS
 62
    92
 10
181.798354049325
 20
348.219966343641
 30
0.0
 11
181.798347945809
 21
267.739963313341
 31
0.0
  0
ENDBLK
  5
    D2
  8
0
  6
CONTINUOUS
 62
     7
  0
BLOCK
  5
    D3
  8
0
  6
CONTINUOUS
 62
     7
  2
*UDIM1223
 70
    65
 10
0.0
 20
0.0
 30
0.0
  3
*UDIM1223
  0
LINE
  5
    D4
  8
0
  6
CONTINUOUS
 62
     7
 10
110.066483397312
 20
318.979963451624
 30
0.0
 11
110.066483397312
 21
334.355604714522
 31
0.0
  0
LINE
  5
    D5
  8
0
  6
CONTINUOUS
 62
     7
 10
171.026484305682
 20
318.979963451624
 30
0.0
 11
171.026484305682
 21
334.355604714522
 31
0.0
  0
LINE
  5
    D6
  8
0
  6
CONTINUOUS
 62
     7
 10
110.066483397312
 20
332.355604714522
 30
0.0
 11
171.026484305682
 21
332.355604714522
 31
0.0
  0
LINE
  5
    D7
  8
0
  6
CONTINUOUS
 62
     7
 10
112.964260870522
 20
333.13206187094
 30
0.0
 11
110.066483397312
 21
332.355604714522
 31
0.0
  0
LINE
  5
    D8
  8
0
  6
CONTINUOUS
 62
     7
 10
110.066483397312
 20
332.355604714522
 30
0.0
 11
112.964260870522
 21
331.579147558103
 31
0.0
  0
LINE
  5
    D9
  8
0
  6
CONTINUOUS
 62
     7
 10
168.128706832471
 20
331.579147558103
 30
0.0
 11
171.026484305682
 21
332.355604714522
 31
0.0
  0
LINE
  5
    DA
  8
0
  6
CONTINUOUS
 62
     7
 10
171.026484305682
 20
332.355604714522
 30
0.0
 11
168.128706832471
 21
333.13206187094
 31
0.0
  0
TEXT
  5
    DB
  8
0
  6
CONTINUOUS
 62
     7
 10
135.246483941003
 20
333.355604714522
 30
0.0
 40
2.99999994933605
  1
76,2
 41
0.933333333333333
 72
     1
 11
140.546483851497
 21
334.85560468919
 31
0.0
 73
     2
  0
TEXT
  5
    DC
  8
0
  6
CONTINUOUS
 62
     7
 10
136.64648391736
 20
329.355604765186
 30
0.0
 40
2.99999994933605
  1
= =
 41
0.933333333333333
 72
     1
 11
140.546483851497
 21
330.855604739854
 31
0.0
 73
     2
  0
ENDBLK
  5
    DD
  8
0
  6
CONTINUOUS
 62
     7
  0
BLOCK
  5
    DE
  8
0
  6
CONTINUOUS
 62
     7
  2
DADO
 70
    64
 10
0.0
 20
0.0
 30
0.0
  3
DADO
  0
POINT
  5
    DF
  8
0
  6
CONTINUOUS
 62
     7
 10
0.0
 20
0.0
 30
0.0
  0
ARC
  5
    E0
  8
0
  6
CONTINUOUS
 62
     7
 10
-5.0899999999997
 20
-1.4210854715202E-14
 30
0.0
 40
5.08999999999974
 50
334.391467869424
 51
385.608532130576
  0
ARC
  5
    E1
  8
0
  6
CONTINUOUS
 62
     7
 10
-5.0899999999997
 20
-1.4210854715202E-14
 30
0.0
 40
5.08999999999974
 50
334.391467869424
 51
385.608532130576
  0
ARC
  5
    E2
  8
0
  6
CONTINUOUS
 62
     7
 10
-0.94722499999996
 20
3.03499999999998
 30
0.0
 40
0.947225000000001
 50
298.173448635746
 51
421.826551364258
  0
LINE
  5
    E3
  8
0
  6
CONTINUOUS
 62
     7
 10
-3.50000000000001
 20
3.87
 30
0.0
 11
-0.499999999999954
 21
3.87
 31
0.0
  0
ARC
  5
    E4
  8
0
  6
CONTINUOUS
 62
     7
 10
-3.05277500000004
 20
3.03499999999998
 30
0.0
 40
0.947225000000001
 50
118.173448635742
 51
241.826551364254
  0
ARC
  5
    E5
  8
0
  6
CONTINUOUS
 62
     7
 10
1.0899999999997
 20
-1.4210854715202E-14
 30
0.0
 40
5.08999999999974
 50
154.391467869424
 51
205.608532130576
  0
LINE
  5
    E6
  8
0
  6
CONTINUOUS
 62
     7
 10
-8.0
 20
1.5
 30
0.0
 11
-4.0
 21
1.5
 31
0.0
  0
LINE
  5
    E7
  8
0
  6
CONTINUOUS
 62
     7
 10
-7.49999999999999
 20
2.0
 30
0.0
 11
-4.0
 21
2.0
 31
0.0
  0
LINE
  5
    E8
  8
0
  6
CONTINUOUS
 62
     7
 10
-8.0
 20
-1.5
 30
0.0
 11
-8.0
 21
1.5
 31
0.0
  0
LINE
  5
    E9
  8
0
  6
DASHDOT
 62
     7
 10
-9.54698811797346
 20
0.0
 30
0.0
 11
0.0
 21
0.0
 31
0.0
  0
LINE
  5
    EA
  8
0
  6
CONTINUOUS
 62
     7
 10
-7.99999999999999
 20
1.5
 30
0.0
 11
-7.49999999999999
 21
2.00000000000001
 31
0.0
  0
LINE
  5
    EB
  8
0
  6
CONTINUOUS
 62
     7
 10
-7.5
 20
-2.0
 30
0.0
 11
-7.5
 21
2.0
 31
0.0
  0
LINE
  5
    EC
  8
0
  6
CONTINUOUS
 62
     7
 10
-8.0
 20
-1.49999999999999
 30
0.0
 11
-7.49999999999999
 21
-2.0
 31
0.0
  0
LINE
  5
    ED
  8
0
  6
CONTINUOUS
 62
     7
 10
-7.5
 20
-2.0
 30
0.0
 11
-4.0
 21
-2.0
 31
0.0
  0
ARC
  5
    EE
  8
0
  6
CONTINUOUS
 62
     7
 10
-3.05277499999966
 20
-3.035
 30
0.0
 40
0.947225000000154
 50
118.173448635768
 51
241.826551364238
  0
LINE
  5
    EF
  8
0
  6
CONTINUOUS
 62
     7
 10
-4.0
 20
-3.035
 30
0.0
 11
-4.0
 21
3.03499999999998
 31
0.0
  0
LINE
  5
    F0
  8
0
  6
CONTINUOUS
 62
     7
 10
-3.50000000000001
 20
-2.2
 30
0.0
 11
-0.499999999999972
 21
-2.2
 31
0.0
  0
ARC
  5
    F1
  8
0
  6
CONTINUOUS
 62
     7
 10
-0.947225000000337
 20
-3.035
 30
0.0
 40
0.947225000000154
 50
298.173448635762
 51
421.826551364232
  0
ARC
  5
    F2
  8
0
  6
CONTINUOUS
 62
     7
 10
-0.947225000000337
 20
-3.035
 30
0.0
 40
0.947225000000154
 50
298.173448635762
 51
421.826551364232
  0
LINE
  5
    F3
  8
0
  6
CONTINUOUS
 62
     7
 10
-3.50000000000011
 20
-3.87
 30
0.0
 11
-0.499999999999968
 21
-3.87
 31
0.0
  0
LINE
  5
    F4
  8
0
  6
CONTINUOUS
 62
     7
 10
-3.50000000000009
 20
2.2
 30
0.0
 11
-0.499999999999876
 21
2.2
 31
0.0
  0
LINE
  5
    F5
  8
0
  6
CONTINUOUS
 62
     7
 10
0.0
 20
-3.035
 30
0.0
 11
0.0
 21
3.03499999999998
 31
0.0
  0
LINE
  5
    F6
  8
0
  6
CONTINUOUS
 62
     7
 10
-8.0
 20
-1.5
 30
0.0
 11
-4.0
 21
-1.5
 31
0.0
  0
ENDBLK
  5
    F7
  8
0
  6
CONTINUOUS
 62
     7
  0
BLOCK
  5
    F8
  8
0
  6
CONTINUOUS
 62
     7
  2
*UDIM1224
 70
    65
 10
0.0
 20
0.0
 30
0.0
  3
*UDIM1224
  0
LINE
  5
    F9
  8
0
  6
CONTINUOUS
 62
     7
 10
303.669764131308
 20
259.222694904603
 30
0.0
 11
303.669764131308
 21
224.026889069005
 31
0.0
  0
LINE
  5
    FA
  8
0
  6
CONTINUOUS
 62
     7
 10
305.26976415515
 20
258.66617315718
 30
0.0
 11
305.26976415515
 21
224.026889069005
 31
0.0
  0
LINE
  5
    FB
  8
0
  6
CONTINUOUS
 62
     7
 10
298.669764131308
 20
226.026889069005
 30
0.0
 11
315.260480821789
 21
226.026889069005
 31
0.0
  0
LINE
  5
    FC
  8
0
  6
CONTINUOUS
 62
     7
 10
300.771986658097
 20
225.250431912586
 30
0.0
 11
303.669764131308
 21
226.026889069005
 31
0.0
  0
LINE
  5
    FD
  8
0
  6
CONTINUOUS
 62
     7
 10
303.669764131308
 20
226.026889069005
 30
0.0
 11
300.771986658097
 21
226.803346225423
 31
0.0
  0
LINE
  5
    FE
  8
0
  6
CONTINUOUS
 62
     7
 10
308.16754162836
 20
226.803346225423
 30
0.0
 11
305.26976415515
 21
226.026889069005
 31
0.0
  0
LINE
  5
    FF
  8
0
  6
CONTINUOUS
 62
     7
 10
305.26976415515
 20
226.026889069005
 30
0.0
 11
308.16754162836
 21
225.250431912586
 31
0.0
  0
TEXT
  5
   100
  8
0
  6
CONTINUOUS
 62
     7
 10
313.060480858943
 20
227.026889069005
 30
0.0
 40
2.99999994933605
  1
2
 41
0.933333333333333
 72
     1
 11
314.160480840366
 21
228.526889043673
 31
0.0
 73
     2
  0
TEXT
  5
   101
  8
0
  6
CONTINUOUS
 62
     7
 10
309.860480896096
 20
227.026889069005
 30
0.0
 40
2.99999994933605
  1
_
 41
0.933333333333333
 72
     1
 11
310.96048087752
 21
228.526889043673
 31
0.0
 73
     2
  0
ENDBLK
  5
   102
  8
0
  6
CONTINUOUS
 62
     7
  0
BLOCK
  5
   103
  8
0
  6
CONTINUOUS
 62
     7
  2
*HATCH1048
 70
    65
 10
0.0
 20
0.0
 30
0.0
  3
*HATCH1048
  0
LINE
  5
   104
  8
0
  6
CONTINUOUS
 62
    52
 10
246.207349487176
 20
342.141572698379
 30
0.0
 11
247.168953047647
 21
341.179963797331
 31
0.0
  0
LINE
  5
   105
  8
0
  6
CONTINUOUS
 62
    52
 10
247.051187237787
 20
342.994783160311
 30
0.0
 11
248.866008889586
 21
341.179963797331
 31
0.0
  0
LINE
  5
   106
  8
0
  6
CONTINUOUS
 62
    52
 10
248.111528897874
 20
343.631501919799
 30
0.0
 11
250.454089510174
 21
341.288935966923
 31
0.0
  0
LINE
  5
   107
  8
0
  6
CONTINUOUS
 62
    52
 10
249.187419264248
 20
344.252668921243
 30
0.0
 11
251.529979876548
 21
341.910102968367
 31
0.0
  0
LINE
  5
   108
  8
0
  6
CONTINUOUS
 62
    52
 10
250.263309630622
 20
344.873835922686
 30
0.0
 11
252.605870242922
 21
342.531269969811
 31
0.0
  0
LINE
  5
   109
  8
0
  6
CONTINUOUS
 62
    52
 10
251.339199996996
 20
345.49500292413
 30
0.0
 11
253.681759846356
 21
343.152436971254
 31
0.0
  0
LINE
  5
   10A
  8
0
  6
CONTINUOUS
 62
    52
 10
252.41509036337
 20
346.116169925574
 30
0.0
 11
254.738037327916
 21
343.793208465178
 31
0.0
  0
LINE
  5
   10B
  8
0
  6
CONTINUOUS
 62
    52
 10
252.872005653381
 20
347.356306662803
 30
0.0
 11
255.56661247454
 21
344.661702130463
 31
0.0
  0
LINE
  5
   10C
  8
0
  6
CONTINUOUS
 62
    52
 10
252.872005653381
 20
349.05336479356
 30
0.0
 11
256.030897759779
 21
345.894465820707
 31
0.0
  0
LINE
  5
   10D
  8
0
  6
CONTINUOUS
 62
    52
 10
252.872005653381
 20
350.750422924317
 30
0.0
 11
256.072004938126
 21
347.550422876633
 31
0.0
  0
LINE
  5
   10E
  8
0
  6
CONTINUOUS
 62
    52
 10
254.139517421536
 20
351.179963946342
 30
0.0
 11
256.072004938126
 21
349.247468800359
 31
0.0
  0
LINE
  5
   10F
  8
0
  6
CONTINUOUS
 62
    52
 10
255.836572500535
 20
351.179963946342
 30
0.0
 11
256.072004938126
 21
350.944526931115
 31
0.0
  0
ENDBLK
  5
   110
  8
0
  6
CONTINUOUS
 62
     7
  0
BLOCK
  5
   111
  8
0
  6
CONTINUOUS
 62
     7
  2
*HATCH1049
 70
    65
 10
0.0
 20
0.0
 30
0.0
  3
*HATCH1049
  0
LINE
  5
   112
  8
0
  6
CONTINUOUS
 62
    52
 10
242.472006261349
 20
342.482808055026
 30
0.0
 11
243.774842889649
 21
341.179963797331
 31
0.0
  0
LINE
  5
   113
  8
0
  6
CONTINUOUS
 62
    52
 10
243.471900609134
 20
343.179963827133
 30
0.0
 11
245.471897968648
 21
341.179963797331
 31
0.0
  0
LINE
  5
   114
  8
0
  6
CONTINUOUS
 62
    52
 10
244.072006285191
 20
344.276912085667
 30
0.0
 11
245.672006309032
 21
342.676912061825
 31
0.0
  0
LINE
  5
   115
  8
0
  6
CONTINUOUS
 62
    52
 10
244.072006285191
 20
345.973970216423
 30
0.0
 11
245.672006309032
 21
344.373970192582
 31
0.0
  0
LINE
  5
   116
  8
0
  6
CONTINUOUS
 62
    52
 10
244.072006285191
 20
347.67102834718
 30
0.0
 11
246.563068486617
 21
345.179963856936
 31
0.0
  0
LINE
  5
   117
  8
0
  6
CONTINUOUS
 62
    52
 10
245.060127714099
 20
348.379963904619
 30
0.0
 11
245.672006309032
 21
347.768086454095
 31
0.0
  0
LINE
  5
   118
  8
0
  6
CONTINUOUS
 62
    52
 10
246.660125830593
 20
346.779963880777
 30
0.0
 11
248.260123565616
 21
345.179963856936
 31
0.0
  0
LINE
  5
   119
  8
0
  6
CONTINUOUS
 62
    52
 10
247.576233021978
 20
347.560908716633
 30
0.0
 11
249.832006218433
 21
345.305134757238
 31
0.0
  0
ENDBLK
  5
   11A
  8
0
  6
CONTINUOUS
 62
     7
  0
BLOCK
  5
   11B
  8
0
  6
CONTINUOUS
 62
     7
  2
*HATCH1050
 70
    65
 10
0.0
 20
0.0
 30
0.0
  3
*HATCH1050
  0
LINE
  5
   11C
  8
0
  6
CONTINUOUS
 62
    52
 10
280.072006821632
 20
347.309187521476
 30
0.0
 11
280.601230462331
 21
346.779963880777
 31
0.0
  0
LINE
  5
   11D
  8
0
  6
CONTINUOUS
 62
    52
 10
280.698288569246
 20
348.379963904619
 30
0.0
 11
282.29828554133
 21
346.779963880777
 31
0.0
  0
LINE
  5
   11E
  8
0
  6
CONTINUOUS
 62
    52
 10
282.395343648245
 20
348.379963904619
 30
0.0
 11
283.995340620329
 21
346.779963880777
 31
0.0
  0
LINE
  5
   11F
  8
0
  6
CONTINUOUS
 62
    52
 10
284.092398727244
 20
348.379963904619
 30
0.0
 11
285.692395699328
 21
346.779963880777
 31
0.0
  0
LINE
  5
   120
  8
0
  6
CONTINUOUS
 62
    52
 10
285.789453806243
 20
348.379963904619
 30
0.0
 11
287.389450778327
 21
346.779963880777
 31
0.0
  0
LINE
  5
   121
  8
0
  6
CONTINUOUS
 62
    52
 10
287.486508885242
 20
348.379963904619
 30
0.0
 11
288.072006940842
 21
347.79446584902
 31
0.0
  0
ENDBLK
  5
   122
  8
0
  6
CONTINUOUS
 62
     7
  0
BLOCK
  5
   123
  8
0
  6
CONTINUOUS
 62
     7
  2
*HATCH1051
 70
    65
 10
0.0
 20
0.0
 30
0.0
  3
*HATCH1051
  0
LINE
  5
   124
  8
0
  6
CONTINUOUS
 62
    52
 10
252.872005653381
 20
359.23570137107
 30
0.0
 11
254.527746797439
 21
357.57996404171
 31
0.0
  0
LINE
  5
   125
  8
0
  6
CONTINUOUS
 62
    52
 10
252.872005653381
 20
360.932759501827
 30
0.0
 11
256.072004938126
 21
357.732759454143
 31
0.0
  0
LINE
  5
   126
  8
0
  6
CONTINUOUS
 62
    52
 10
253.521862993387
 20
361.979964107275
 30
0.0
 11
256.072004938126
 21
359.4298175849
 31
0.0
  0
LINE
  5
   127
  8
0
  6
CONTINUOUS
 62
    52
 10
255.218918072386
 20
361.979964107275
 30
0.0
 11
256.072004938126
 21
361.126875715657
 31
0.0
  0
ENDBLK
  5
   128
  8
0
  6
CONTINUOUS
 62
     7
  0
BLOCK
  5
   129
  8
0
  6
CONTINUOUS
 62
     7
  2
*HATCH1052
 70
    65
 10
0.0
 20
0.0
 30
0.0
  3
*HATCH1052
  0
LINE
  5
   12A
  8
0
  6
CONTINUOUS
 62
    52
 10
280.072006821632
 20
360.885652567531
 30
0.0
 11
280.577689202215
 21
360.379964083433
 31
0.0
  0
LINE
  5
   12B
  8
0
  6
CONTINUOUS
 62
    52
 10
280.67474730913
 20
361.979964107275
 30
0.0
 11
282.274744281214
 21
360.379964083433
 31
0.0
  0
LINE
  5
   12C
  8
0
  6
CONTINUOUS
 62
    52
 10
282.371802388129
 20
361.979964107275
 30
0.0
 11
283.971799360213
 21
360.379964083433
 31
0.0
  0
LINE
  5
   12D
  8
0
  6
CONTINUOUS
 62
    52
 10
284.068857467128
 20
361.979964107275
 30
0.0
 11
285.668854439212
 21
360.379964083433
 31
0.0
  0
LINE
  5
   12E
  8
0
  6
CONTINUOUS
 62
    52
 10
285.765912546127
 20
361.979964107275
 30
0.0
 11
287.365909518211
 21
360.379964083433
 31
0.0
  0
LINE
  5
   12F
  8
0
  6
CONTINUOUS
 62
    52
 10
287.462967625126
 20
361.979964107275
 30
0.0
 11
288.072006940842
 21
361.370918688043
 31
0.0
  0
ENDBLK
  5
   130
  8
0
  6
CONTINUOUS
 62
     7
  0
BLOCK
  5
   131
  8
0
  6
CONTINUOUS
 62
     7
  2
*HATCH1053
 70
    65
 10
0.0
 20
0.0
 30
0.0
  3
*HATCH1053
  0
LINE
  5
   132
  8
0
  6
CONTINUOUS
 62
    52
 10
279.642572611132
 20
253.779962494969
 30
0.0
 11
278.872006803751
 21
253.009396687589
 31
0.0
  0
LINE
  5
   133
  8
0
  6
CONTINUOUS
 62
    52
 10
280.872006833553
 20
253.312341638392
 30
0.0
 11
278.872006803751
 21
251.31234160859
 31
0.0
  0
LINE
  5
   134
  8
0
  6
CONTINUOUS
 62
    52
 10
280.872006833553
 20
251.615285033514
 30
0.0
 11
278.872006803751
 21
249.615285003712
 31
0.0
  0
LINE
  5
   135
  8
0
  6
CONTINUOUS
 62
    52
 10
280.872006833553
 20
249.918228428636
 30
0.0
 11
278.93374081346
 21
247.979962408543
 31
0.0
  0
LINE
  5
   136
  8
0
  6
CONTINUOUS
 62
    52
 10
280.872006833553
 20
248.221171823758
 30
0.0
 11
280.630795892459
 21
247.979962408543
 31
0.0
  0
ENDBLK
  5
   137
  8
0
  6
CONTINUOUS
 62
     7
  0
BLOCK
  5
   138
  8
0
  6
CONTINUOUS
 62
     7
  2
*HATCH1054
 70
    65
 10
0.0
 20
0.0
 30
0.0
  3
*HATCH1054
  0
LINE
  5
   139
  8
0
  6
CONTINUOUS
 62
    52
 10
257.242747753423
 20
346.779963880777
 30
0.0
 11
256.472006469965
 21
346.009224123199
 31
0.0
  0
LINE
  5
   13A
  8
0
  6
CONTINUOUS
 62
    52
 10
258.939804358301
 20
346.779963880777
 30
0.0
 11
257.339804334459
 21
345.179963856936
 31
0.0
  0
LINE
  5
   13B
  8
0
  6
CONTINUOUS
 62
    52
 10
260.636860963179
 20
346.779963880777
 30
0.0
 11
259.036860939337
 21
345.179963856936
 31
0.0
  0
LINE
  5
   13C
  8
0
  6
CONTINUOUS
 62
    52
 10
262.333917568056
 20
346.779963880777
 30
0.0
 11
260.733917544215
 21
345.179963856936
 31
0.0
  0
LINE
  5
   13D
  8
0
  6
CONTINUOUS
 62
    52
 10
264.030974172934
 20
346.779963880777
 30
0.0
 11
262.430974149093
 21
345.179963856936
 31
0.0
  0
LINE
  5
   13E
  8
0
  6
CONTINUOUS
 62
    52
 10
265.728030777812
 20
346.779963880777
 30
0.0
 11
264.128030753971
 21
345.179963856936
 31
0.0
  0
LINE
  5
   13F
  8
0
  6
CONTINUOUS
 62
    52
 10
267.425085856811
 20
346.779963880777
 30
0.0
 11
265.82508583297
 21
345.179963856936
 31
0.0
  0
LINE
  5
   140
  8
0
  6
CONTINUOUS
 62
    52
 10
269.12214093581
 20
346.779963880777
 30
0.0
 11
267.522140911969
 21
345.179963856936
 31
0.0
  0
LINE
  5
   141
  8
0
  6
CONTINUOUS
 62
    52
 10
270.81919601481
 20
346.779963880777
 30
0.0
 11
269.219195990968
 21
345.179963856936
 31
0.0
  0
LINE
  5
   142
  8
0
  6
CONTINUOUS
 62
    52
 10
272.516251093809
 20
346.779963880777
 30
0.0
 11
270.916251069967
 21
345.179963856936
 31
0.0
  0
LINE
  5
   143
  8
0
  6
CONTINUOUS
 62
    52
 10
274.213306172808
 20
346.779963880777
 30
0.0
 11
272.613306148966
 21
345.179963856936
 31
0.0
  0
LINE
  5
   144
  8
0
  6
CONTINUOUS
 62
    52
 10
275.910361251807
 20
346.779963880777
 30
0.0
 11
274.310361227965
 21
345.179963856936
 31
0.0
  0
LINE
  5
   145
  8
0
  6
CONTINUOUS
 62
    52
 10
279.207425509921
 20
348.379963904619
 30
0.0
 11
278.872006803751
 21
348.044551301965
 31
0.0
  0
LINE
  5
   146
  8
0
  6
CONTINUOUS
 62
    52
 10
277.607422434321
 20
346.779963880777
 30
0.0
 11
276.007422410479
 21
345.179963856936
 31
0.0
  0
LINE
  5
   147
  8
0
  6
CONTINUOUS
 62
    52
 10
279.672006815672
 20
347.147493183129
 30
0.0
 11
277.704480541236
 21
345.179963856936
 31
0.0
  0
LINE
  5
   148
  8
0
  6
CONTINUOUS
 62
    52
 10
280.801535641097
 20
346.579963877797
 30
0.0
 11
279.401535620235
 21
345.179963856936
 31
0.0
  0
ENDBLK
  5
   149
  8
0
  6
CONTINUOUS
 62
     7
  0
BLOCK
  5
   14A
  8
0
  6
CONTINUOUS
 62
     7
  2
*HATCH1055
 70
    65
 10
0.0
 20
0.0
 30
0.0
  3
*HATCH1055
  0
LINE
  5
   14B
  8
0
  6
CONTINUOUS
 62
    52
 10
280.139804674205
 20
367.979964196682
 30
0.0
 11
278.872006803751
 21
366.712166326228
 31
0.0
  0
LINE
  5
   14C
  8
0
  6
CONTINUOUS
 62
    52
 10
280.872006833553
 20
367.015108225273
 30
0.0
 11
278.872006803751
 21
365.015108195471
 31
0.0
  0
LINE
  5
   14D
  8
0
  6
CONTINUOUS
 62
    52
 10
280.872006833553
 20
365.318050094516
 30
0.0
 11
278.872006803751
 21
363.318050064714
 31
0.0
  0
LINE
  5
   14E
  8
0
  6
CONTINUOUS
 62
    52
 10
280.872006833553
 20
363.62099196376
 30
0.0
 11
278.872006803751
 21
361.620991933957
 31
0.0
  0
LINE
  5
   14F
  8
0
  6
CONTINUOUS
 62
    52
 10
279.672006815672
 20
360.723946022153
 30
0.0
 11
279.328030980468
 21
360.379964083433
 31
0.0
  0
ENDBLK
  5
   150
  8
0
  6
CONTINUOUS
 62
     7
  0
BLOCK
  5
   151
  8
0
  6
CONTINUOUS
 62
     7
  2
*HATCH1056
 70
    65
 10
0.0
 20
0.0
 30
0.0
  3
*HATCH1056
  0
LINE
  5
   152
  8
0
  6
CONTINUOUS
 62
    52
 10
280.872006833553
 20
366.873872871606
 30
0.0
 11
281.365918584077
 21
366.37996417284
 31
0.0
  0
LINE
  5
   153
  8
0
  6
CONTINUOUS
 62
    52
 10
283.084589263984
 20
364.661287389417
 30
0.0
 11
284.074124801191
 21
363.671748800453
 31
0.0
  0
LINE
  5
   154
  8
0
  6
CONTINUOUS
 62
    52
 10
281.462973639234
 20
367.979964196682
 30
0.0
 11
284.072006881237
 21
365.370930954679
 31
0.0
  0
LINE
  5
   155
  8
0
  6
CONTINUOUS
 62
    52
 10
284.742972467407
 20
364.699959264994
 30
0.0
 11
285.981864087431
 21
363.46106764497
 31
0.0
  0
LINE
  5
   156
  8
0
  6
CONTINUOUS
 62
    52
 10
283.160031769991
 20
367.979964196682
 30
0.0
 11
284.680026909828
 21
366.459969056845
 31
0.0
  0
LINE
  5
   157
  8
0
  6
CONTINUOUS
 62
    52
 10
286.440027546406
 20
364.699959264994
 30
0.0
 11
287.67891916643
 21
363.46106764497
 31
0.0
  0
LINE
  5
   158
  8
0
  6
CONTINUOUS
 62
    52
 10
284.85708684899
 20
367.979964196682
 30
0.0
 11
286.377085040585
 21
366.459969056845
 31
0.0
  0
LINE
  5
   159
  8
0
  6
CONTINUOUS
 62
    52
 10
286.554141927989
 20
367.979964196682
 30
0.0
 11
288.072006940842
 21
366.462093080314
 31
0.0
  0
ENDBLK
  5
   15A
  8
0
  6
CONTINUOUS
 62
     7
  0
BLOCK
  5
   15B
  8
0
  6
CONTINUOUS
 62
     7
  2
*UDIM1225
 70
    65
 10
0.0
 20
0.0
 30
0.0
  3
*UDIM1225
  0
LINE
  5
   15C
  8
0
  6
CONTINUOUS
 62
     7
 10
240.872007181188
 20
377.126019722257
 30
0.0
 11
240.872007181188
 21
396.302426534591
 31
0.0
  0
LINE
  5
   15D
  8
0
  6
CONTINUOUS
 62
     7
 10
296.869764153384
 20
349.219966343641
 30
0.0
 11
296.869764153384
 21
396.302426534591
 31
0.0
  0
LINE
  5
   15E
  8
0
  6
CONTINUOUS
 62
     7
 10
240.872007181188
 20
394.302426534591
 30
0.0
 11
296.869764153384
 21
394.302426534591
 31
0.0
  0
LINE
  5
   15F
  8
0
  6
CONTINUOUS
 62
     7
 10
243.769784654398
 20
395.07888369101
 30
0.0
 11
240.872007181188
 21
394.302426534591
 31
0.0
  0
LINE
  5
   160
  8
0
  6
CONTINUOUS
 62
     7
 10
240.872007181188
 20
394.302426534591
 30
0.0
 11
243.769784654398
 21
393.525969378173
 31
0.0
  0
LINE
  5
   161
  8
0
  6
CONTINUOUS
 62
     7
 10
293.971986680174
 20
393.525969378173
 30
0.0
 11
296.869764153384
 21
394.302426534591
 31
0.0
  0
LINE
  5
   162
  8
0
  6
CONTINUOUS
 62
     7
 10
296.869764153384
 20
394.302426534591
 30
0.0
 11
293.971986680174
 21
395.07888369101
 31
0.0
  0
TEXT
  5
   163
  8
0
  6
CONTINUOUS
 62
     7
 10
266.370885709506
 20
395.302426534591
 30
0.0
 40
2.99999994933605
  1
70
 41
0.933333333333333
 72
     1
 11
268.870885667286
 21
396.802426509259
 31
0.0
 73
     2
  0
ENDBLK
  5
   164
  8
0
  6
CONTINUOUS
 62
     7
  0
BLOCK
  5
   165
  8
0
  6
CONTINUOUS
 62
     7
  2
*UDIM1226
 70
    65
 10
0.0
 20
0.0
 30
0.0
  3
*UDIM1226
  0
LINE
  5
   166
  8
0
  6
CONTINUOUS
 62
     7
 10
240.872007181188
 20
377.126019722257
 30
0.0
 11
240.872007181188
 21
405.62221184962
 31
0.0
  0
LINE
  5
   167
  8
0
  6
CONTINUOUS
 62
     7
 10
303.269763181666
 20
318.979963451624
 30
0.0
 11
303.269763181666
 21
405.62221184962
 31
0.0
  0
LINE
  5
   168
  8
0
  6
CONTINUOUS
 62
     7
 10
240.872007181188
 20
403.62221184962
 30
0.0
 11
303.269763181666
 21
403.62221184962
 31
0.0
  0
LINE
  5
   169
  8
0
  6
CONTINUOUS
 62
     7
 10
243.769784654398
 20
404.398669006039
 30
0.0
 11
240.872007181188
 21
403.62221184962
 31
0.0
  0
LINE
  5
   16A
  8
0
  6
CONTINUOUS
 62
     7
 10
240.872007181188
 20
403.62221184962
 30
0.0
 11
243.769784654398
 21
402.845754693201
 31
0.0
  0
LINE
  5
   16B
  8
0
  6
CONTINUOUS
 62
     7
 10
300.371985708456
 20
402.845754693201
 30
0.0
 11
303.269763181666
 21
403.62221184962
 31
0.0
  0
LINE
  5
   16C
  8
0
  6
CONTINUOUS
 62
     7
 10
303.269763181666
 20
403.62221184962
 30
0.0
 11
300.371985708456
 21
404.398669006039
 31
0.0
  0
TEXT
  5
   16D
  8
0
  6
CONTINUOUS
 62
     7
 10
269.570885223647
 20
404.62221184962
 30
0.0
 40
2.99999994933605
  1
78
 41
0.933333333333333
 72
     1
 11
272.070885181427
 21
406.122211824288
 31
0.0
 73
     2
  0
ENDBLK
  5
   16E
  8
0
  6
CONTINUOUS
 62
     7
  0
BLOCK
  5
   16F
  8
0
  6
CONTINUOUS
 62
     7
  2
*UDIM1227
 70
    65
 10
0.0
 20
0.0
 30
0.0
  3
*UDIM1227
  0
LINE
  5
   170
  8
0
  6
CONTINUOUS
 62
     7
 10
240.872007181188
 20
377.126019722257
 30
0.0
 11
240.872007181188
 21
414.536789107474
 31
0.0
  0
LINE
  5
   171
  8
0
  6
CONTINUOUS
 62
     7
 10
307.26976324127
 20
317.53996098876
 30
0.0
 11
307.26976324127
 21
414.536789107474
 31
0.0
  0
LINE
  5
   172
  8
0
  6
CONTINUOUS
 62
     7
 10
240.872007181188
 20
412.536789107474
 30
0.0
 11
307.26976324127
 21
412.536789107474
 31
0.0
  0
LINE
  5
   173
  8
0
  6
CONTINUOUS
 62
     7
 10
243.769784654398
 20
413.313246263892
 30
0.0
 11
240.872007181188
 21
412.536789107474
 31
0.0
  0
LINE
  5
   174
  8
0
  6
CONTINUOUS
 62
     7
 10
240.872007181188
 20
412.536789107474
 30
0.0
 11
243.769784654398
 21
411.760331951055
 31
0.0
  0
LINE
  5
   175
  8
0
  6
CONTINUOUS
 62
     7
 10
304.37198576806
 20
411.760331951055
 30
0.0
 11
307.26976324127
 21
412.536789107474
 31
0.0
  0
LINE
  5
   176
  8
0
  6
CONTINUOUS
 62
     7
 10
307.26976324127
 20
412.536789107474
 30
0.0
 11
304.37198576806
 21
413.313246263892
 31
0.0
  0
TEXT
  5
   177
  8
0
  6
CONTINUOUS
 62
     7
 10
271.570885253449
 20
413.536789107474
 30
0.0
 40
2.99999994933605
  1
83
 41
0.933333333333333
 72
     1
 11
274.070885211229
 21
415.036789082142
 31
0.0
 73
     2
  0
ENDBLK
  5
   178
  8
0
  6
CONTINUOUS
 62
     7
  0
BLOCK
  5
   179
  8
0
  6
CONTINUOUS
 62
     7
  2
*UDIM1228
 70
    65
 10
0.0
 20
0.0
 30
0.0
  3
*UDIM1228
  0
LINE
  5
   17A
  8
0
  6
CONTINUOUS
 62
     7
 10
326.762768980271
 20
307.979963302613
 30
0.0
 11
337.93056248912
 21
307.979963302613
 31
0.0
  0
LINE
  5
   17B
  8
0
  6
CONTINUOUS
 62
     7
 10
301.869761037793
 20
317.979963451625
 30
0.0
 11
337.93056248912
 21
317.979963451623
 31
0.0
  0
LINE
  5
   17C
  8
0
  6
CONTINUOUS
 62
     7
 10
335.93056248912
 20
302.979963302613
 30
0.0
 11
335.93056248912
 21
331.822021289697
 31
0.0
  0
LINE
  5
   17D
  8
0
  6
CONTINUOUS
 62
     7
 10
336.707019645539
 20
305.082185829402
 30
0.0
 11
335.93056248912
 21
307.979963302613
 31
0.0
  0
LINE
  5
   17E
  8
0
  6
CONTINUOUS
 62
     7
 10
335.93056248912
 20
307.979963302613
 30
0.0
 11
335.154105332702
 21
305.082185829402
 31
0.0
  0
LINE
  5
   17F
  8
0
  6
CONTINUOUS
 62
     7
 10
335.154105332702
 20
320.877740924834
 30
0.0
 11
335.93056248912
 21
317.979963451623
 31
0.0
  0
LINE
  5
   180
  8
0
  6
CONTINUOUS
 62
     7
 10
335.93056248912
 20
317.979963451623
 30
0.0
 11
336.707019645539
 21
320.877740924834
 31
0.0
  0
TEXT
  5
   181
  8
0
  6
CONTINUOUS
 62
     7
 10
334.930562489127
 20
321.222021468711
 30
0.0
 40
2.99999994933605
  1
12,5
 50
90.0
 41
0.933333333333333
 72
     1
 11
333.430562514453
 21
326.522021379203
 31
0.0
 73
     2
  0
ENDBLK
  5
   182
  8
0
  6
CONTINUOUS
 62
     7
  0
BLOCK
  5
   183
  8
0
  6
CONTINUOUS
 62
     7
  2
*UDIM1229
 70
    65
 10
0.0
 20
0.0
 30
0.0
  3
*UDIM1229
  0
LINE
  5
   184
  8
0
  6
CONTINUOUS
 62
     7
 10
240.872007181188
 20
239.779325415319
 30
0.0
 11
240.872007181188
 21
215.134599156919
 31
0.0
  0
LINE
  5
   185
  8
0
  6
CONTINUOUS
 62
     7
 10
322.472007453442
 20
298.579963177441
 30
0.0
 11
322.472007453442
 21
215.134599156919
 31
0.0
  0
LINE
  5
   186
  8
0
  6
CONTINUOUS
 62
     7
 10
240.872007181188
 20
217.134599156919
 30
0.0
 11
322.472007453442
 21
217.134599156919
 31
0.0
  0
LINE
  5
   187
  8
0
  6
CONTINUOUS
 62
     7
 10
243.769784654398
 20
217.911056313338
 30
0.0
 11
240.872007181188
 21
217.134599156919
 31
0.0
  0
LINE
  5
   188
  8
0
  6
CONTINUOUS
 62
     7
 10
240.872007181188
 20
217.134599156919
 30
0.0
 11
243.769784654398
 21
216.358142000501
 31
0.0
  0
LINE
  5
   189
  8
0
  6
CONTINUOUS
 62
     7
 10
319.574229980231
 20
216.358142000501
 30
0.0
 11
322.472007453442
 21
217.134599156919
 31
0.0
  0
LINE
  5
   18A
  8
0
  6
CONTINUOUS
 62
     7
 10
322.472007453442
 20
217.134599156919
 30
0.0
 11
319.574229980231
 21
217.911056313338
 31
0.0
  0
TEXT
  5
   18B
  8
0
  6
CONTINUOUS
 62
     7
 10
277.772007383178
 20
218.134599156919
 30
0.0
 40
2.99999994933605
  1
102
 41
0.933333333333333
 72
     1
 11
281.672007317315
 21
219.634599131587
 31
0.0
 73
     2
  0
ENDBLK
  5
   18C
  8
0
  6
CONTINUOUS
 62
     7
  0
BLOCK
  5
   18D
  8
0
  6
CONTINUOUS
 62
     7
  2
*UDIM1230
 70
    65
 10
0.0
 20
0.0
 30
0.0
  3
*UDIM1230
  0
LINE
  5
   18E
  8
0
  6
CONTINUOUS
 62
     7
 10
238.472007145425
 20
240.545865350696
 30
0.0
 11
238.472007145425
 21
215.134599156919
 31
0.0
  0
LINE
  5
   18F
  8
0
  6
CONTINUOUS
 62
     7
 10
240.872007181188
 20
239.779325415319
 30
0.0
 11
240.872007181188
 21
215.134599156919
 31
0.0
  0
LINE
  5
   190
  8
0
  6
CONTINUOUS
 62
     7
 10
228.072007219732
 20
217.134599156919
 30
0.0
 11
245.872007181188
 21
217.134599156919
 31
0.0
  0
LINE
  5
   191
  8
0
  6
CONTINUOUS
 62
     7
 10
235.574229672215
 20
216.358142000501
 30
0.0
 11
238.472007145425
 21
217.134599156919
 31
0.0
  0
LINE
  5
   192
  8
0
  6
CONTINUOUS
 62
     7
 10
238.472007145425
 20
217.134599156919
 30
0.0
 11
235.574229672215
 21
217.911056313338
 31
0.0
  0
LINE
  5
   193
  8
0
  6
CONTINUOUS
 62
     7
 10
243.769784654398
 20
217.911056313338
 30
0.0
 11
240.872007181188
 21
217.134599156919
 31
0.0
  0
LINE
  5
   194
  8
0
  6
CONTINUOUS
 62
     7
 10
240.872007181188
 20
217.134599156919
 30
0.0
 11
243.769784654398
 21
216.358142000501
 31
0.0
  0
TEXT
  5
   195
  8
0
  6
CONTINUOUS
 62
     7
 10
231.272007182579
 20
218.134599156919
 30
0.0
 40
2.99999994933605
  1
3
 41
0.933333333333333
 72
     1
 11
232.372007164002
 21
219.634599131587
 31
0.0
 73
     2
  0
TEXT
  5
   196
  8
0
  6
CONTINUOUS
 62
     7
 10
228.072007219732
 20
218.134599156919
 30
0.0
 40
2.99999994933605
  1
_
 41
0.933333333333333
 72
     1
 11
229.172007201155
 21
219.634599131587
 31
0.0
 73
     2
  0
ENDBLK
  5
   197
  8
0
  6
CONTINUOUS
 62
     7
  0
BLOCK
  5
   198
  8
0
  6
CONTINUOUS
 62
     7
  2
*HATCH1057
 70
    65
 10
0.0
 20
0.0
 30
0.0
  3
*HATCH1057
  0
LINE
  5
   199
  8
0
  6
CONTINUOUS
 62
    52
 10
273.272006720305
 20
347.320967306808
 30
0.0
 11
273.813010146335
 21
346.779963880777
 31
0.0
  0
LINE
  5
   19A
  8
0
  6
CONTINUOUS
 62
    52
 10
273.272006720305
 20
349.018025437565
 30
0.0
 11
275.510065225334
 21
346.779963880777
 31
0.0
  0
LINE
  5
   19B
  8
0
  6
CONTINUOUS
 62
    52
 10
274.396039329827
 20
349.591047907041
 30
0.0
 11
277.207120304333
 21
346.779963880777
 31
0.0
  0
LINE
  5
   19C
  8
0
  6
CONTINUOUS
 62
    52
 10
276.099295580794
 20
349.584846735073
 30
0.0
 11
277.272006779909
 21
348.412129432442
 31
0.0
  0
ENDBLK
  5
   19D
  8
0
  6
CONTINUOUS
 62
     7
  0
BLOCK
  5
   19E
  8
0
  6
CONTINUOUS
 62
     7
  2
*HATCH1058
 70
    65
 10
0.0
 20
0.0
 30
0.0
  3
*HATCH1058
  0
LINE
  5
   19F
  8
0
  6
CONTINUOUS
 62
    52
 10
250.872005623579
 20
347.659248561848
 30
0.0
 11
251.751291830529
 21
346.779963880777
 31
0.0
  0
LINE
  5
   1A0
  8
0
  6
CONTINUOUS
 62
    52
 10
250.872005623579
 20
349.356306692605
 30
0.0
 11
252.872005653381
 21
347.356306662803
 31
0.0
  0
LINE
  5
   1A1
  8
0
  6
CONTINUOUS
 62
    52
 10
250.872005623579
 20
351.053364823362
 30
0.0
 11
252.872005653381
 21
349.05336479356
 31
0.0
  0
LINE
  5
   1A2
  8
0
  6
CONTINUOUS
 62
    52
 10
251.649763661292
 20
351.972664153467
 30
0.0
 11
252.872005653381
 21
350.750422924317
 31
0.0
  0
LINE
  5
   1A3
  8
0
  6
CONTINUOUS
 62
    52
 10
252.07200564146
 20
353.247481066995
 30
0.0
 11
253.376133926274
 21
351.943342863968
 31
0.0
  0
LINE
  5
   1A4
  8
0
  6
CONTINUOUS
 62
    52
 10
252.07200564146
 20
354.944539197752
 30
0.0
 11
253.672004902363
 21
353.34453917391
 31
0.0
  0
LINE
  5
   1A5
  8
0
  6
CONTINUOUS
 62
    52
 10
250.872005623579
 20
357.84159734639
 30
0.0
 11
253.672004902363
 21
355.041597304667
 31
0.0
  0
LINE
  5
   1A6
  8
0
  6
CONTINUOUS
 62
    52
 10
250.872005623579
 20
359.538655477147
 30
0.0
 11
253.222024732083
 21
357.188631028066
 31
0.0
  0
LINE
  5
   1A7
  8
0
  6
CONTINUOUS
 62
    52
 10
250.872005623579
 20
361.235713607904
 30
0.0
 11
252.872005653381
 21
359.23570137107
 31
0.0
  0
LINE
  5
   1A8
  8
0
  6
CONTINUOUS
 62
    52
 10
251.824807151449
 20
361.979964107275
 30
0.0
 11
252.872005653381
 21
360.932759501827
 31
0.0
  0
ENDBLK
  5
   1A9
  8
0
  6
CONTINUOUS
 62
     7
  0
BLOCK
  5
   1AA
  8
0
  6
CONTINUOUS
 62
     7
  2
*HATCH1059
 70
    65
 10
0.0
 20
0.0
 30
0.0
  3
*HATCH1059
  0
LINE
  5
   1AB
  8
0
  6
CONTINUOUS
 62
    52
 10
273.272006720305
 20
359.200374222106
 30
0.0
 11
273.303494757883
 21
359.168880081012
 31
0.0
  0
LINE
  5
   1AC
  8
0
  6
CONTINUOUS
 62
    52
 10
273.272006720305
 20
360.897432352863
 30
0.0
 11
274.994348664915
 21
359.175081252979
 31
0.0
  0
LINE
  5
   1AD
  8
0
  6
CONTINUOUS
 62
    52
 10
273.886526993133
 20
361.979964107275
 30
0.0
 11
276.691403743914
 21
359.175081252979
 31
0.0
  0
LINE
  5
   1AE
  8
0
  6
CONTINUOUS
 62
    52
 10
275.583582072132
 20
361.979964107275
 30
0.0
 11
277.272006779909
 21
360.29153634774
 31
0.0
  0
ENDBLK
  5
   1AF
  8
0
  6
CONTINUOUS
 62
     7
  0
BLOCK
  5
   1B0
  8
0
  6
CONTINUOUS
 62
     7
  2
*HATCH1060
 70
    65
 10
0.0
 20
0.0
 30
0.0
  3
*HATCH1060
  0
LINE
  5
   1B1
  8
0
  6
CONTINUOUS
 62
    52
 10
242.804565851876
 20
367.979964196682
 30
0.0
 11
241.832006289959
 21
367.00740558844
 31
0.0
  0
LINE
  5
   1B2
  8
0
  6
CONTINUOUS
 62
    52
 10
244.501622075284
 20
367.979964196682
 30
0.0
 11
241.832006289959
 21
365.310347457683
 31
0.0
  0
LINE
  5
   1B3
  8
0
  6
CONTINUOUS
 62
    52
 10
246.198678680162
 20
367.979964196682
 30
0.0
 11
241.832006289959
 21
363.613289326926
 31
0.0
  0
LINE
  5
   1B4
  8
0
  6
CONTINUOUS
 62
    52
 10
247.272006332874
 20
367.356233718638
 30
0.0
 11
241.832006289959
 21
361.916231196169
 31
0.0
  0
LINE
  5
   1B5
  8
0
  6
CONTINUOUS
 62
    52
 10
247.272006332874
 20
365.659175587881
 30
0.0
 11
241.832006289959
 21
360.219173065412
 31
0.0
  0
LINE
  5
   1B6
  8
0
  6
CONTINUOUS
 62
    52
 10
247.272006332874
 20
363.962117457124
 30
0.0
 11
240.872006237507
 21
357.562129568788
 31
0.0
  0
LINE
  5
   1B7
  8
0
  6
CONTINUOUS
 62
    52
 10
248.58690350823
 20
363.579964131117
 30
0.0
 11
240.872006237507
 21
355.865071438031
 31
0.0
  0
LINE
  5
   1B8
  8
0
  6
CONTINUOUS
 62
    52
 10
250.283960113107
 20
363.579964131117
 30
0.0
 11
240.872006237507
 21
354.168013307274
 31
0.0
  0
LINE
  5
   1B9
  8
0
  6
CONTINUOUS
 62
    52
 10
251.981016717985
 20
363.579964131117
 30
0.0
 11
240.872006237507
 21
352.470955176517
 31
0.0
  0
LINE
  5
   1BA
  8
0
  6
CONTINUOUS
 62
    52
 10
253.678073322863
 20
363.579964131117
 30
0.0
 11
252.078072536082
 21
361.979964107275
 31
0.0
  0
LINE
  5
   1BB
  8
0
  6
CONTINUOUS
 62
    52
 10
250.472006380558
 20
360.373897188812
 30
0.0
 11
240.872006237507
 21
350.77389704576
 31
0.0
  0
LINE
  5
   1BC
  8
0
  6
CONTINUOUS
 62
    52
 10
254.472006440163
 20
362.676839117659
 30
0.0
 11
253.775128378021
 21
361.979964107275
 31
0.0
  0
LINE
  5
   1BD
  8
0
  6
CONTINUOUS
 62
    52
 10
250.472006380558
 20
358.676839058055
 30
0.0
 11
241.203567044907
 21
349.408406302757
 31
0.0
  0
LINE
  5
   1BE
  8
0
  6
CONTINUOUS
 62
    52
 10
250.472006380558
 20
356.979780927298
 30
0.0
 11
241.832006289959
 21
348.339790564177
 31
0.0
  0
LINE
  5
   1BF
  8
0
  6
CONTINUOUS
 62
    52
 10
250.472006380558
 20
355.282735003572
 30
0.0
 11
243.569240240712
 21
348.379963904619
 31
0.0
  0
LINE
  5
   1C0
  8
0
  6
CONTINUOUS
 62
    52
 10
243.432006123066
 20
348.242732457262
 30
0.0
 11
241.969240598339
 21
346.779963880777
 31
0.0
  0
LINE
  5
   1C1
  8
0
  6
CONTINUOUS
 62
    52
 10
250.472006380558
 20
353.585676872815
 30
0.0
 11
245.266296845589
 21
348.379963904619
 31
0.0
  0
LINE
  5
   1C2
  8
0
  6
CONTINUOUS
 62
    52
 10
250.472006380558
 20
351.888618742059
 30
0.0
 11
248.163353086879
 21
349.579963922501
 31
0.0
  0
LINE
  5
   1C3
  8
0
  6
CONTINUOUS
 62
    52
 10
247.272006332874
 20
348.688618694375
 30
0.0
 11
245.717679680074
 21
347.13428517512
 31
0.0
  0
LINE
  5
   1C4
  8
0
  6
CONTINUOUS
 62
    52
 10
250.472006380558
 20
350.191560611302
 30
0.0
 11
249.860409691757
 21
349.579963922501
 31
0.0
  0
ENDBLK
  5
   1C5
  8
0
  6
CONTINUOUS
 62
     7
  0
BLOCK
  5
   1C6
  8
0
  6
CONTINUOUS
 62
     7
  2
*HATCH1061
 70
    65
 10
0.0
 20
0.0
 30
0.0
  3
*HATCH1061
  0
LINE
  5
   1C7
  8
0
  6
CONTINUOUS
 62
    52
 10
241.866296413456
 20
344.979963853955
 30
0.0
 11
240.872006237507
 21
343.985676729764
 31
0.0
  0
LINE
  5
   1C8
  8
0
  6
CONTINUOUS
 62
    52
 10
244.072006285191
 20
345.488618646691
 30
0.0
 11
242.963352818658
 21
344.379963845015
 31
0.0
  0
LINE
  5
   1C9
  8
0
  6
CONTINUOUS
 62
    52
 10
241.672006249428
 20
343.088618610928
 30
0.0
 11
240.872006237507
 21
342.288618599007
 31
0.0
  0
LINE
  5
   1CA
  8
0
  6
CONTINUOUS
 62
    52
 10
241.672006249428
 20
341.391560480171
 30
0.0
 11
241.460408899015
 21
341.179963797331
 31
0.0
  0
ENDBLK
  5
   1CB
  8
0
  6
CONTINUOUS
 62
     7
  0
BLOCK
  5
   1CC
  8
0
  6
CONTINUOUS
 62
     7
  2
*HATCH1062
 70
    65
 10
0.0
 20
0.0
 30
0.0
  3
*HATCH1062
  0
LINE
  5
   1CD
  8
0
  6
CONTINUOUS
 62
    52
 10
250.872005623579
 20
254.321097146588
 30
0.0
 11
251.213138746338
 21
253.97996249795
 31
0.0
  0
LINE
  5
   1CE
  8
0
  6
CONTINUOUS
 62
    52
 10
250.872005623579
 20
256.018153751466
 30
0.0
 11
252.872005653381
 21
254.018150669905
 31
0.0
  0
LINE
  5
   1CF
  8
0
  6
CONTINUOUS
 62
    52
 10
250.872005623579
 20
257.715210356344
 30
0.0
 11
252.872005653381
 21
255.715207274783
 31
0.0
  0
LINE
  5
   1D0
  8
0
  6
CONTINUOUS
 62
    52
 10
251.380690170954
 20
258.903583176786
 30
0.0
 11
252.872005653381
 21
257.41226540554
 31
0.0
  0
LINE
  5
   1D1
  8
0
  6
CONTINUOUS
 62
    52
 10
252.067042720244
 20
259.914288758253
 30
0.0
 11
253.218513684668
 21
258.762814742071
 31
0.0
  0
LINE
  5
   1D2
  8
0
  6
CONTINUOUS
 62
    52
 10
252.07200564146
 20
261.606381678975
 30
0.0
 11
253.672004902363
 21
260.006381655133
 31
0.0
  0
LINE
  5
   1D3
  8
0
  6
CONTINUOUS
 62
    52
 10
252.022661005715
 20
263.352783682537
 30
0.0
 11
253.672004902363
 21
261.703436734132
 31
0.0
  0
LINE
  5
   1D4
  8
0
  6
CONTINUOUS
 62
    52
 10
250.872005623579
 20
266.20049795837
 30
0.0
 11
253.602559100547
 21
263.469940666705
 31
0.0
  0
LINE
  5
   1D5
  8
0
  6
CONTINUOUS
 62
    52
 10
250.872005623579
 20
267.897556089127
 30
0.0
 11
252.872005653381
 21
265.897553007567
 31
0.0
  0
LINE
  5
   1D6
  8
0
  6
CONTINUOUS
 62
    52
 10
251.286654830197
 20
269.179962724447
 30
0.0
 11
252.872005653381
 21
267.594611138324
 31
0.0
  0
ENDBLK
  5
   1D7
  8
0
  6
CONTINUOUS
 62
     7
  0
BLOCK
  5
   1D8
  8
0
  6
CONTINUOUS
 62
     7
  2
*HATCH1063
 70
    65
 10
0.0
 20
0.0
 30
0.0
  3
*HATCH1063
  0
LINE
  5
   1D9
  8
0
  6
CONTINUOUS
 62
    52
 10
273.272006720305
 20
253.982812839789
 30
0.0
 11
273.274857062144
 21
253.97996249795
 31
0.0
  0
LINE
  5
   1DA
  8
0
  6
CONTINUOUS
 62
    52
 10
273.272006720305
 20
255.679870970546
 30
0.0
 11
274.971912141143
 21
253.97996249795
 31
0.0
  0
LINE
  5
   1DB
  8
0
  6
CONTINUOUS
 62
    52
 10
273.857883193878
 20
256.791049575971
 30
0.0
 11
276.668967220142
 21
253.97996249795
 31
0.0
  0
LINE
  5
   1DC
  8
0
  6
CONTINUOUS
 62
    52
 10
275.561148600119
 20
256.78483924873
 30
0.0
 11
277.272006779909
 21
255.07397954306
 31
0.0
  0
LINE
  5
   1DD
  8
0
  6
CONTINUOUS
 62
    52
 10
277.258203679118
 20
256.78483924873
 30
0.0
 11
277.272006779909
 21
256.771036147938
 31
0.0
  0
ENDBLK
  5
   1DE
  8
0
  6
CONTINUOUS
 62
     7
  0
BLOCK
  5
   1DF
  8
0
  6
CONTINUOUS
 62
     7
  2
*HATCH1064
 70
    65
 10
0.0
 20
0.0
 30
0.0
  3
*HATCH1064
  0
LINE
  5
   1E0
  8
0
  6
CONTINUOUS
 62
    52
 10
273.272006720305
 20
267.559271782328
 30
0.0
 11
274.462402856207
 21
266.368875646426
 31
0.0
  0
LINE
  5
   1E1
  8
0
  6
CONTINUOUS
 62
    52
 10
273.348373908942
 20
269.179962724447
 30
0.0
 11
276.153247607965
 21
266.375085973667
 31
0.0
  0
LINE
  5
   1E2
  8
0
  6
CONTINUOUS
 62
    52
 10
275.045428987942
 20
269.179962724447
 30
0.0
 11
277.272006779909
 21
266.953381880722
 31
0.0
  0
LINE
  5
   1E3
  8
0
  6
CONTINUOUS
 62
    52
 10
276.742484066941
 20
269.179962724447
 30
0.0
 11
277.272006779909
 21
268.650440011479
 31
0.0
  0
ENDBLK
  5
   1E4
  8
0
  6
CONTINUOUS
 62
     7
  0
BLOCK
  5
   1E5
  8
0
  6
CONTINUOUS
 62
     7
  2
*HATCH1065
 70
    65
 10
0.0
 20
0.0
 30
0.0
  3
*HATCH1065
  0
LINE
  5
   1E6
  8
0
  6
CONTINUOUS
 62
    52
 10
285.150797180515
 20
252.49996217072
 30
0.0
 11
282.879169339048
 21
250.228335855132
 31
0.0
  0
LINE
  5
   1E7
  8
0
  6
CONTINUOUS
 62
    52
 10
282.230795916301
 20
249.579962432385
 30
0.0
 11
280.872006833553
 21
248.221171823758
 31
0.0
  0
LINE
  5
   1E8
  8
0
  6
CONTINUOUS
 62
    52
 10
286.847852259514
 20
252.49996217072
 30
0.0
 11
285.607852851389
 21
251.259962762594
 31
0.0
  0
LINE
  5
   1E9
  8
0
  6
CONTINUOUS
 62
    52
 10
284.207794847128
 20
249.859904758333
 30
0.0
 11
282.327854023216
 21
247.979962408543
 31
0.0
  0
LINE
  5
   1EA
  8
0
  6
CONTINUOUS
 62
    52
 10
288.072006940842
 20
252.02705872129
 30
0.0
 11
287.304910982145
 21
251.259962762594
 31
0.0
  0
LINE
  5
   1EB
  8
0
  6
CONTINUOUS
 62
    52
 10
285.544910345568
 20
249.499962126017
 30
0.0
 11
284.024909102215
 21
247.979962408543
 31
0.0
  0
LINE
  5
   1EC
  8
0
  6
CONTINUOUS
 62
    52
 10
287.241965424567
 20
249.499962126017
 30
0.0
 11
285.721967232972
 21
247.979962408543
 31
0.0
  0
LINE
  5
   1ED
  8
0
  6
CONTINUOUS
 62
    52
 10
288.072006940842
 20
248.632947037414
 30
0.0
 11
287.419022311971
 21
247.979962408543
 31
0.0
  0
ENDBLK
  5
   1EE
  8
0
  6
CONTINUOUS
 62
     7
  0
BLOCK
  5
   1EF
  8
0
  6
CONTINUOUS
 62
     7
  2
*HATCH1066
 70
    65
 10
0.0
 20
0.0
 30
0.0
  3
*HATCH1066
  0
LINE
  5
   1F0
  8
0
  6
CONTINUOUS
 62
    52
 10
281.442572637954
 20
255.579962521792
 30
0.0
 11
280.872006833553
 21
255.009396717391
 31
0.0
  0
LINE
  5
   1F1
  8
0
  6
CONTINUOUS
 62
    52
 10
283.139627716953
 20
255.579962521792
 30
0.0
 11
281.539627693111
 21
253.97996249795
 31
0.0
  0
LINE
  5
   1F2
  8
0
  6
CONTINUOUS
 62
    52
 10
284.836682795952
 20
255.579962521792
 30
0.0
 11
283.23668277211
 21
253.97996249795
 31
0.0
  0
LINE
  5
   1F3
  8
0
  6
CONTINUOUS
 62
    52
 10
286.533737874951
 20
255.579962521792
 30
0.0
 11
284.933737851109
 21
253.97996249795
 31
0.0
  0
LINE
  5
   1F4
  8
0
  6
CONTINUOUS
 62
    52
 10
288.072006940842
 20
255.421171931046
 30
0.0
 11
286.630795981866
 21
253.97996249795
 31
0.0
  0
ENDBLK
  5
   1F5
  8
0
  6
CONTINUOUS
 62
     7
  0
BLOCK
  5
   1F6
  8
0
  6
CONTINUOUS
 62
     7
  2
*HATCH1067
 70
    65
 10
0.0
 20
0.0
 30
0.0
  3
*HATCH1067
  0
LINE
  5
   1F7
  8
0
  6
CONTINUOUS
 62
    52
 10
281.466123053344
 20
269.179962724447
 30
0.0
 11
280.872006833553
 21
268.585846504657
 31
0.0
  0
LINE
  5
   1F8
  8
0
  6
CONTINUOUS
 62
    52
 10
283.163178132343
 20
269.179962724447
 30
0.0
 11
281.563178108501
 21
267.579962700605
 31
0.0
  0
LINE
  5
   1F9
  8
0
  6
CONTINUOUS
 62
    52
 10
284.860233211342
 20
269.179962724447
 30
0.0
 11
283.2602331875
 21
267.579962700605
 31
0.0
  0
LINE
  5
   1FA
  8
0
  6
CONTINUOUS
 62
    52
 10
286.557291342099
 20
269.179962724447
 30
0.0
 11
284.957288266499
 21
267.579962700605
 31
0.0
  0
LINE
  5
   1FB
  8
0
  6
CONTINUOUS
 62
    52
 10
288.072006940842
 20
268.997623244191
 30
0.0
 11
286.654346397256
 21
267.579962700605
 31
0.0
  0
ENDBLK
  5
   1FC
  8
0
  6
CONTINUOUS
 62
     7
  0
BLOCK
  5
   1FD
  8
0
  6
CONTINUOUS
 62
     7
  2
*HATCH1068
 70
    65
 10
0.0
 20
0.0
 30
0.0
  3
*HATCH1068
  0
LINE
  5
   1FE
  8
0
  6
CONTINUOUS
 62
    52
 10
253.695558369511
 20
258.379962563515
 30
0.0
 11
252.872005653381
 21
257.556409084446
 31
0.0
  0
LINE
  5
   1FF
  8
0
  6
CONTINUOUS
 62
    52
 10
254.472004914284
 20
257.459354029289
 30
0.0
 11
252.872005653381
 21
255.859354005447
 31
0.0
  0
LINE
  5
   200
  8
0
  6
CONTINUOUS
 62
    52
 10
254.472004914284
 20
255.762297424411
 30
0.0
 11
252.872005653381
 21
254.162297400569
 31
0.0
  0
LINE
  5
   201
  8
0
  6
CONTINUOUS
 62
    52
 10
254.472004914284
 20
254.065240819533
 30
0.0
 11
254.386728118579
 21
253.979964023829
 31
0.0
  0
ENDBLK
  5
   202
  8
0
  6
CONTINUOUS
 62
     7
  0
BLOCK
  5
   203
  8
0
  6
CONTINUOUS
 62
     7
  2
*HATCH1069
 70
    65
 10
0.0
 20
0.0
 30
0.0
  3
*HATCH1069
  0
LINE
  5
   204
  8
0
  6
CONTINUOUS
 62
    52
 10
253.913220421094
 20
268.779962718487
 30
0.0
 11
252.872005653381
 21
267.738748713714
 31
0.0
  0
LINE
  5
   205
  8
0
  6
CONTINUOUS
 62
    52
 10
254.472004914284
 20
267.641690606799
 30
0.0
 11
252.872005653381
 21
266.041690582957
 31
0.0
  0
LINE
  5
   206
  8
0
  6
CONTINUOUS
 62
    52
 10
254.472004914284
 20
265.9446355278
 30
0.0
 11
253.307333571245
 21
264.779962658882
 31
0.0
  0
ENDBLK
  5
   207
  8
0
  6
CONTINUOUS
 62
     7
  0
BLOCK
  5
   208
  8
0
  6
CONTINUOUS
 62
     7
  2
*HATCH1070
 70
    65
 10
0.0
 20
0.0
 30
0.0
  3
*HATCH1070
  0
LINE
  5
   209
  8
0
  6
CONTINUOUS
 62
    52
 10
242.433825718788
 20
269.179962724447
 30
0.0
 11
241.832006289959
 21
268.578143867823
 31
0.0
  0
LINE
  5
   20A
  8
0
  6
CONTINUOUS
 62
    52
 10
243.432006123066
 20
268.481085760908
 30
0.0
 11
240.872006237507
 21
265.921088164168
 31
0.0
  0
LINE
  5
   20B
  8
0
  6
CONTINUOUS
 62
    52
 10
244.227938523232
 20
267.579962700605
 30
0.0
 11
240.872006237507
 21
264.224030033411
 31
0.0
  0
LINE
  5
   20C
  8
0
  6
CONTINUOUS
 62
    52
 10
247.198500930168
 20
268.853467358254
 30
0.0
 11
240.872006237507
 21
262.526974954412
 31
0.0
  0
LINE
  5
   20D
  8
0
  6
CONTINUOUS
 62
    52
 10
247.272006332874
 20
267.229916919022
 30
0.0
 11
240.872006237507
 21
260.829916823655
 31
0.0
  0
LINE
  5
   20E
  8
0
  6
CONTINUOUS
 62
    52
 10
248.119107938515
 20
266.379962682724
 30
0.0
 11
240.872006237507
 21
259.132861744656
 31
0.0
  0
LINE
  5
   20F
  8
0
  6
CONTINUOUS
 62
    52
 10
249.816164543393
 20
266.379962682724
 30
0.0
 11
240.872006237507
 21
257.435806665657
 31
0.0
  0
LINE
  5
   210
  8
0
  6
CONTINUOUS
 62
    52
 10
250.472006380558
 20
265.338748677951
 30
0.0
 11
241.472612974057
 21
256.339355843654
 31
0.0
  0
LINE
  5
   211
  8
0
  6
CONTINUOUS
 62
    52
 10
250.472006380558
 20
263.641693598952
 30
0.0
 11
241.832006289959
 21
255.001692554679
 31
0.0
  0
LINE
  5
   212
  8
0
  6
CONTINUOUS
 62
    52
 10
250.472006380558
 20
261.944638519953
 30
0.0
 11
241.832006289959
 21
253.304635949801
 31
0.0
  0
LINE
  5
   213
  8
0
  6
CONTINUOUS
 62
    52
 10
250.472006380558
 20
260.247583440954
 30
0.0
 11
241.832006289959
 21
251.607579344923
 31
0.0
  0
LINE
  5
   214
  8
0
  6
CONTINUOUS
 62
    52
 10
250.472006380558
 20
258.550528361955
 30
0.0
 11
241.832006289959
 21
249.910522740045
 31
0.0
  0
LINE
  5
   215
  8
0
  6
CONTINUOUS
 62
    52
 10
250.472006380558
 20
256.853473282956
 30
0.0
 11
241.832006289959
 21
248.213466135167
 31
0.0
  0
LINE
  5
   216
  8
0
  6
CONTINUOUS
 62
    52
 10
250.472006380558
 20
255.156412100441
 30
0.0
 11
247.695557517164
 21
252.379962474108
 31
0.0
  0
LINE
  5
   217
  8
0
  6
CONTINUOUS
 62
    52
 10
247.272006332874
 20
251.956412052757
 30
0.0
 11
243.29555668866
 21
247.979962408543
 31
0.0
  0
LINE
  5
   218
  8
0
  6
CONTINUOUS
 62
    52
 10
250.992614145884
 20
253.97996249795
 30
0.0
 11
249.392613359103
 21
252.379962474108
 31
0.0
  0
LINE
  5
   219
  8
0
  6
CONTINUOUS
 62
    52
 10
247.272006332874
 20
250.259355447879
 30
0.0
 11
244.992613293538
 21
247.979962408543
 31
0.0
  0
LINE
  5
   21A
  8
0
  6
CONTINUOUS
 62
    52
 10
252.689671513702
 20
253.97996249795
 30
0.0
 11
251.089669963981
 21
252.379962474108
 31
0.0
  0
LINE
  5
   21B
  8
0
  6
CONTINUOUS
 62
    52
 10
247.272006332874
 20
248.562298843001
 30
0.0
 11
246.689669898416
 21
247.979962408543
 31
0.0
  0
LINE
  5
   21C
  8
0
  6
CONTINUOUS
 62
    52
 10
254.386728118579
 20
253.979964023829
 30
0.0
 11
252.786726568859
 21
252.379962474108
 31
0.0
  0
ENDBLK
  5
   21D
  8
0
  6
CONTINUOUS
 62
     7
  0
BLOCK
  5
   21E
  8
0
  6
CONTINUOUS
 62
     7
  2
*HATCH1071
 70
    65
 10
0.0
 20
0.0
 30
0.0
  3
*HATCH1071
  0
LINE
  5
   21F
  8
0
  6
CONTINUOUS
 62
    52
 10
256.206741573434
 20
271.073483870827
 30
0.0
 11
254.575734163876
 21
269.44247493539
 31
0.0
  0
LINE
  5
   220
  8
0
  6
CONTINUOUS
 62
    52
 10
258.010278587614
 20
271.17996275425
 30
0.0
 11
254.472004914284
 21
267.641690606799
 31
0.0
  0
LINE
  5
   221
  8
0
  6
CONTINUOUS
 62
    52
 10
259.707335192492
 20
271.17996275425
 30
0.0
 11
258.107333642771
 21
269.579962730408
 31
0.0
  0
LINE
  5
   222
  8
0
  6
CONTINUOUS
 62
    52
 10
256.072006464005
 20
267.544635551642
 30
0.0
 11
254.472004914284
 21
265.9446355278
 31
0.0
  0
LINE
  5
   223
  8
0
  6
CONTINUOUS
 62
    52
 10
261.404390271491
 20
271.17996275425
 30
0.0
 11
259.804390247649
 21
269.579962730408
 31
0.0
  0
LINE
  5
   224
  8
0
  6
CONTINUOUS
 62
    52
 10
256.072006464005
 20
265.847580472642
 30
0.0
 11
255.004388650244
 21
264.779962658882
 31
0.0
  0
LINE
  5
   225
  8
0
  6
CONTINUOUS
 62
    52
 10
263.101446876369
 20
271.17996275425
 30
0.0
 11
261.501446852527
 21
269.579962730408
 31
0.0
  0
LINE
  5
   226
  8
0
  6
CONTINUOUS
 62
    52
 10
264.798503481247
 20
271.17996275425
 30
0.0
 11
263.198503457405
 21
269.579962730408
 31
0.0
  0
LINE
  5
   227
  8
0
  6
CONTINUOUS
 62
    52
 10
266.495560086124
 20
271.17996275425
 30
0.0
 11
264.895560062283
 21
269.579962730408
 31
0.0
  0
LINE
  5
   228
  8
0
  6
CONTINUOUS
 62
    52
 10
268.192615165123
 20
271.17996275425
 30
0.0
 11
266.592615141282
 21
269.579962730408
 31
0.0
  0
LINE
  5
   229
  8
0
  6
CONTINUOUS
 62
    52
 10
269.889670244123
 20
271.17996275425
 30
0.0
 11
268.289670220281
 21
269.579962730408
 31
0.0
  0
LINE
  5
   22A
  8
0
  6
CONTINUOUS
 62
    52
 10
271.586725323122
 20
271.17996275425
 30
0.0
 11
269.98672529928
 21
269.579962730408
 31
0.0
  0
LINE
  5
   22B
  8
0
  6
CONTINUOUS
 62
    52
 10
273.283780402121
 20
271.17996275425
 30
0.0
 11
271.683780378279
 21
269.579962730408
 31
0.0
  0
LINE
  5
   22C
  8
0
  6
CONTINUOUS
 62
    52
 10
278.58084163828
 20
274.779962807894
 30
0.0
 11
278.072009843588
 21
274.271131013202
 31
0.0
  0
LINE
  5
   22D
  8
0
  6
CONTINUOUS
 62
    52
 10
274.980841584635
 20
271.17996275425
 30
0.0
 11
273.380841560793
 21
269.579962730408
 31
0.0
  0
LINE
  5
   22E
  8
0
  6
CONTINUOUS
 62
    52
 10
279.67200986743
 20
274.174075958045
 30
0.0
 11
278.072009843588
 21
272.574075934203
 31
0.0
  0
LINE
  5
   22F
  8
0
  6
CONTINUOUS
 62
    52
 10
276.677896663634
 20
271.17996275425
 30
0.0
 11
275.077896639793
 21
269.579962730408
 31
0.0
  0
LINE
  5
   230
  8
0
  6
CONTINUOUS
 62
    52
 10
279.67200986743
 20
272.477017827288
 30
0.0
 11
276.774954770549
 21
269.579962730408
 31
0.0
  0
ENDBLK
  5
   231
  8
0
  6
CONTINUOUS
 62
     7
  0
BLOCK
  5
   232
  8
0
  6
CONTINUOUS
 62
     7
  2
*UDIM1231
 70
    65
 10
0.0
 20
0.0
 30
0.0
  3
*UDIM1231
  0
LINE
  5
   233
  8
0
  6
CONTINUOUS
 62
     7
 10
240.872007181188
 20
377.126019722257
 30
0.0
 11
240.872007181188
 21
386.780037190975
 31
0.0
  0
LINE
  5
   234
  8
0
  6
CONTINUOUS
 62
     7
 10
256.072004938126
 20
358.57996404171
 30
0.0
 11
256.072004938126
 21
386.780037190975
 31
0.0
  0
LINE
  5
   235
  8
0
  6
CONTINUOUS
 62
     7
 10
240.872007181188
 20
384.780037190975
 30
0.0
 11
256.072004938126
 21
384.780037190975
 31
0.0
  0
LINE
  5
   236
  8
0
  6
CONTINUOUS
 62
     7
 10
243.769784654398
 20
385.556494347393
 30
0.0
 11
240.872007181188
 21
384.780037190975
 31
0.0
  0
LINE
  5
   237
  8
0
  6
CONTINUOUS
 62
     7
 10
240.872007181188
 20
384.780037190975
 30
0.0
 11
243.769784654398
 21
384.003580034556
 31
0.0
  0
LINE
  5
   238
  8
0
  6
CONTINUOUS
 62
     7
 10
253.174227464915
 20
384.003580034556
 30
0.0
 11
256.072004938126
 21
384.780037190975
 31
0.0
  0
LINE
  5
   239
  8
0
  6
CONTINUOUS
 62
     7
 10
256.072004938126
 20
384.780037190975
 30
0.0
 11
253.174227464915
 21
385.556494347393
 31
0.0
  0
TEXT
  5
   23A
  8
0
  6
CONTINUOUS
 62
     7
 10
245.972006101877
 20
385.780037190975
 30
0.0
 40
2.99999994933605
  1
19
 41
0.933333333333333
 72
     1
 11
248.472006059657
 21
387.280037165643
 31
0.0
 73
     2
  0
ENDBLK
  5
   23B
  8
0
  6
CONTINUOUS
 62
     7
  0
BLOCK
  5
   23C
  8
0
  6
CONTINUOUS
 62
     7
  2
*UDIM1232
 70
    65
 10
0.0
 20
0.0
 30
0.0
  3
*UDIM1232
  0
LINE
  5
   23D
  8
0
  6
CONTINUOUS
 62
     7
 10
256.072004938126
 20
358.57996404171
 30
0.0
 11
256.072004938126
 21
386.780037190975
 31
0.0
  0
LINE
  5
   23E
  8
0
  6
CONTINUOUS
 62
     7
 10
270.472006678581
 20
359.379964053631
 30
0.0
 11
270.472006678581
 21
386.780037190975
 31
0.0
  0
LINE
  5
   23F
  8
0
  6
CONTINUOUS
 62
     7
 10
251.072004938126
 20
384.780037190975
 30
0.0
 11
289.272006462415
 21
384.780037190975
 31
0.0
  0
LINE
  5
   240
  8
0
  6
CONTINUOUS
 62
     7
 10
253.174227464915
 20
384.003580034556
 30
0.0
 11
256.072004938126
 21
384.780037190975
 31
0.0
  0
LINE
  5
   241
  8
0
  6
CONTINUOUS
 62
     7
 10
256.072004938126
 20
384.780037190975
 30
0.0
 11
253.174227464915
 21
385.556494347393
 31
0.0
  0
LINE
  5
   242
  8
0
  6
CONTINUOUS
 62
     7
 10
273.369784151792
 20
385.556494347393
 30
0.0
 11
270.472006678581
 21
384.780037190975
 31
0.0
  0
LINE
  5
   243
  8
0
  6
CONTINUOUS
 62
     7
 10
270.472006678581
 20
384.780037190975
 30
0.0
 11
273.369784151792
 21
384.003580034556
 31
0.0
  0
TEXT
  5
   244
  8
0
  6
CONTINUOUS
 62
     7
 10
275.472006678581
 20
385.780037190975
 30
0.0
 40
2.99999994933605
  1
18
 41
0.933333333333333
 72
     1
 11
277.972006636361
 21
387.280037165643
 31
0.0
 73
     2
  0
TEXT
  5
   245
  8
0
  6
CONTINUOUS
 62
     7
 10
281.472006594141
 20
385.780037190975
 30
0.0
 40
2.99999994933605
  1
x18
 41
0.933333333333333
 72
     1
 11
285.372006528278
 21
387.280037165643
 31
0.0
 73
     2
  0
ENDBLK
  5
   246
  8
0
  6
CONTINUOUS
 62
     7
  0
BLOCK
  5
   247
  8
0
  6
CONTINUOUS
 62
     7
  2
*HATCH1072
 70
    65
 10
0.0
 20
0.0
 30
0.0
  3
*HATCH1072
  0
LINE
  5
   248
  8
0
  6
CONTINUOUS
 62
    52
 10
265.006561650851
 20
237.446897600098
 30
0.0
 11
263.314149821433
 21
235.75448615215
 31
0.0
  0
LINE
  5
   249
  8
0
  6
CONTINUOUS
 62
    52
 10
266.969260044355
 20
237.712538244316
 30
0.0
 11
264.336981562748
 21
235.080260907118
 31
0.0
  0
LINE
  5
   24A
  8
0
  6
CONTINUOUS
 62
    52
 10
268.383606378907
 20
237.42982797399
 30
0.0
 11
265.61334571751
 21
234.659569219941
 31
0.0
  0
LINE
  5
   24B
  8
0
  6
CONTINUOUS
 62
    52
 10
269.529944286614
 20
236.879111565637
 30
0.0
 11
267.218774818581
 21
234.567942479074
 31
0.0
  0
ENDBLK
  5
   24C
  8
0
  6
CONTINUOUS
 62
     7
  0
BLOCK
  5
   24D
  8
0
  6
CONTINUOUS
 62
     7
  2
*HATCH1073
 70
    65
 10
0.0
 20
0.0
 30
0.0
  3
*HATCH1073
  0
LINE
  5
   24E
  8
0
  6
CONTINUOUS
 62
    52
 10
255.39261344851
 20
258.379962563515
 30
0.0
 11
254.472004914284
 21
257.459354029289
 31
0.0
  0
LINE
  5
   24F
  8
0
  6
CONTINUOUS
 62
    52
 10
256.072006464005
 20
257.362298974132
 30
0.0
 11
254.472004914284
 21
255.762297424411
 31
0.0
  0
LINE
  5
   250
  8
0
  6
CONTINUOUS
 62
    52
 10
256.072006464005
 20
255.665243895133
 30
0.0
 11
254.472004914284
 21
254.065240819533
 31
0.0
  0
ENDBLK
  5
   251
  8
0
  6
CONTINUOUS
 62
     7
  0
BLOCK
  5
   252
  8
0
  6
CONTINUOUS
 62
     7
  2
*HATCH1074
 70
    65
 10
0.0
 20
0.0
 30
0.0
  3
*HATCH1074
  0
LINE
  5
   253
  8
0
  6
CONTINUOUS
 62
    52
 10
256.072007989883
 20
254.21226078022
 30
0.0
 11
257.104303232317
 21
253.179962486029
 31
0.0
  0
LINE
  5
   254
  8
0
  6
CONTINUOUS
 62
    52
 10
256.072007989883
 20
255.909317385098
 30
0.0
 11
258.801358311316
 21
253.179962486029
 31
0.0
  0
LINE
  5
   255
  8
0
  6
CONTINUOUS
 62
    52
 10
256.072007989883
 20
257.606375515855
 30
0.0
 11
260.498413390315
 21
253.179962486029
 31
0.0
  0
LINE
  5
   256
  8
0
  6
CONTINUOUS
 62
    52
 10
256.072007989883
 20
259.303433646611
 30
0.0
 11
262.195468469314
 21
253.179962486029
 31
0.0
  0
LINE
  5
   257
  8
0
  6
CONTINUOUS
 62
    52
 10
256.072007989883
 20
261.000491777368
 30
0.0
 11
263.892523548313
 21
253.179962486029
 31
0.0
  0
LINE
  5
   258
  8
0
  6
CONTINUOUS
 62
    52
 10
256.072007989883
 20
262.697549908125
 30
0.0
 11
265.589578627312
 21
253.179962486029
 31
0.0
  0
LINE
  5
   259
  8
0
  6
CONTINUOUS
 62
    52
 10
256.072007989883
 20
264.394608038882
 30
0.0
 11
267.286633706311
 21
253.179962486029
 31
0.0
  0
LINE
  5
   25A
  8
0
  6
CONTINUOUS
 62
    52
 10
256.072007989883
 20
266.091666169639
 30
0.0
 11
268.98368878531
 21
253.179962486029
 31
0.0
  0
LINE
  5
   25B
  8
0
  6
CONTINUOUS
 62
    52
 10
256.072007989883
 20
267.78871819688
 30
0.0
 11
269.67200666666
 21
254.188702735435
 31
0.0
  0
LINE
  5
   25C
  8
0
  6
CONTINUOUS
 62
    52
 10
256.377820067194
 20
269.179962724447
 30
0.0
 11
269.67200666666
 21
255.885760866192
 31
0.0
  0
LINE
  5
   25D
  8
0
  6
CONTINUOUS
 62
    52
 10
258.074875146193
 20
269.179962724447
 30
0.0
 11
269.67200666666
 21
257.582818996949
 31
0.0
  0
LINE
  5
   25E
  8
0
  6
CONTINUOUS
 62
    52
 10
259.771930225192
 20
269.179962724447
 30
0.0
 11
269.67200666666
 21
259.279877127706
 31
0.0
  0
LINE
  5
   25F
  8
0
  6
CONTINUOUS
 62
    52
 10
261.468985304191
 20
269.179962724447
 30
0.0
 11
269.67200666666
 21
260.976935258463
 31
0.0
  0
LINE
  5
   260
  8
0
  6
CONTINUOUS
 62
    52
 10
263.16604038319
 20
269.179962724447
 30
0.0
 11
269.67200666666
 21
262.67399338922
 31
0.0
  0
LINE
  5
   261
  8
0
  6
CONTINUOUS
 62
    52
 10
264.86309546219
 20
269.179962724447
 30
0.0
 11
269.67200666666
 21
264.371051519976
 31
0.0
  0
LINE
  5
   262
  8
0
  6
CONTINUOUS
 62
    52
 10
266.560150541189
 20
269.179962724447
 30
0.0
 11
269.67200666666
 21
266.068109650733
 31
0.0
  0
LINE
  5
   263
  8
0
  6
CONTINUOUS
 62
    52
 10
268.257205620188
 20
269.179962724447
 30
0.0
 11
269.67200666666
 21
267.76516778149
 31
0.0
  0
ENDBLK
  5
   264
  8
0
  6
CONTINUOUS
 62
     7
  0
BLOCK
  5
   265
  8
0
  6
CONTINUOUS
 62
     7
  2
*UDIM1233
 70
    65
 10
0.0
 20
0.0
 30
0.0
  3
*UDIM1233
  0
LINE
  5
   266
  8
0
  6
CONTINUOUS
 62
     7
 10
255.472006469965
 20
346.779963880777
 30
0.0
 11
222.767685188108
 21
346.779963880777
 31
0.0
  0
LINE
  5
   267
  8
0
  6
CONTINUOUS
 62
     7
 10
255.072004938126
 20
361.979964107275
 30
0.0
 11
222.767685188108
 21
361.979964107275
 31
0.0
  0
LINE
  5
   268
  8
0
  6
CONTINUOUS
 62
     7
 10
224.767685188108
 20
341.779963880777
 30
0.0
 11
224.767685188108
 21
366.979964107275
 31
0.0
  0
LINE
  5
   269
  8
0
  6
CONTINUOUS
 62
     7
 10
225.544142344527
 20
343.882186407567
 30
0.0
 11
224.767685188108
 21
346.779963880777
 31
0.0
  0
LINE
  5
   26A
  8
0
  6
CONTINUOUS
 62
     7
 10
224.767685188108
 20
346.779963880777
 30
0.0
 11
223.99122803169
 21
343.882186407567
 31
0.0
  0
LINE
  5
   26B
  8
0
  6
CONTINUOUS
 62
     7
 10
223.99122803169
 20
364.877741580486
 30
0.0
 11
224.767685188108
 21
361.979964107275
 31
0.0
  0
LINE
  5
   26C
  8
0
  6
CONTINUOUS
 62
     7
 10
224.767685188108
 20
361.979964107275
 30
0.0
 11
225.544142344527
 21
364.877741580486
 31
0.0
  0
TEXT
  5
   26D
  8
0
  6
CONTINUOUS
 62
     7
 10
223.767685188112
 20
351.879964036248
 30
0.0
 40
2.99999994933605
  1
19
 50
90.0
 41
0.933333333333333
 72
     1
 11
222.26768521344
 21
354.379963994026
 31
0.0
 73
     2
  0
TEXT
  5
   26E
  8
0
  6
CONTINUOUS
 62
     7
 10
227.767685137449
 20
350.479964059891
 30
0.0
 40
2.99999994933605
  1
= =
 50
90.0
 41
0.933333333333333
 72
     1
 11
226.267685162776
 21
354.379963994026
 31
0.0
 73
     2
  0
ENDBLK
  5
   26F
  8
0
  6
CONTINUOUS
 62
     7
  0
BLOCK
  5
   270
  8
0
  6
CONTINUOUS
 62
     7
  2
*UDIM1234
 70
    65
 10
0.0
 20
0.0
 30
0.0
  3
*UDIM1234
  0
LINE
  5
   271
  8
0
  6
CONTINUOUS
 62
     7
 10
231.335769797323
 20
307.979963302613
 30
0.0
 11
214.686074013082
 21
307.979963302613
 31
0.0
  0
LINE
  5
   272
  8
0
  6
CONTINUOUS
 62
     7
 10
246.152005491853
 20
354.379963994026
 30
0.0
 11
214.686074013082
 21
354.379963994026
 31
0.0
  0
LINE
  5
   273
  8
0
  6
CONTINUOUS
 62
     7
 10
216.686074013082
 20
307.979963302613
 30
0.0
 11
216.686074013082
 21
354.379963994026
 31
0.0
  0
LINE
  5
   274
  8
0
  6
CONTINUOUS
 62
     7
 10
215.909616856663
 20
310.877740775824
 30
0.0
 11
216.686074013082
 21
307.979963302613
 31
0.0
  0
LINE
  5
   275
  8
0
  6
CONTINUOUS
 62
     7
 10
216.686074013082
 20
307.979963302613
 30
0.0
 11
217.4625311695
 21
310.877740775824
 31
0.0
  0
LINE
  5
   276
  8
0
  6
CONTINUOUS
 62
     7
 10
217.4625311695
 20
351.482186520816
 30
0.0
 11
216.686074013082
 21
354.379963994026
 31
0.0
  0
LINE
  5
   277
  8
0
  6
CONTINUOUS
 62
     7
 10
216.686074013082
 20
354.379963994026
 30
0.0
 11
215.909616856663
 21
351.482186520816
 31
0.0
  0
TEXT
  5
   278
  8
0
  6
CONTINUOUS
 62
     7
 10
215.686074013085
 20
328.679963690542
 30
0.0
 40
2.99999994933605
  1
58
 50
90.0
 41
0.933333333333333
 72
     1
 11
214.186074038414
 21
331.17996364832
 31
0.0
 73
     2
  0
ENDBLK
  5
   279
  8
0
  6
CONTINUOUS
 62
     7
  0
BLOCK
  5
   27A
  8
0
  6
CONTINUOUS
 62
     7
  2
*UDIM1235
 70
    65
 10
0.0
 20
0.0
 30
0.0
  3
*UDIM1235
  0
LINE
  5
   27B
  8
0
  6
CONTINUOUS
 62
     7
 10
246.152005491853
 20
261.579963655837
 30
0.0
 11
206.312356410042
 21
261.579963655837
 31
0.0
  0
LINE
  5
   27C
  8
0
  6
CONTINUOUS
 62
     7
 10
246.152005491853
 20
354.379963994026
 30
0.0
 11
206.312356410042
 21
354.379963994026
 31
0.0
  0
LINE
  5
   27D
  8
0
  6
CONTINUOUS
 62
     7
 10
208.312356410042
 20
261.579963655837
 30
0.0
 11
208.312356410042
 21
354.379963994026
 31
0.0
  0
LINE
  5
   27E
  8
0
  6
CONTINUOUS
 62
     7
 10
207.535899253623
 20
264.477741129048
 30
0.0
 11
208.312356410042
 21
261.579963655837
 31
0.0
  0
LINE
  5
   27F
  8
0
  6
CONTINUOUS
 62
     7
 10
208.312356410042
 20
261.579963655837
 30
0.0
 11
209.08881356646
 21
264.477741129048
 31
0.0
  0
LINE
  5
   280
  8
0
  6
CONTINUOUS
 62
     7
 10
209.08881356646
 20
351.482186520816
 30
0.0
 11
208.312356410042
 21
354.379963994026
 31
0.0
  0
LINE
  5
   281
  8
0
  6
CONTINUOUS
 62
     7
 10
208.312356410042
 20
354.379963994026
 30
0.0
 11
207.535899253623
 21
351.482186520816
 31
0.0
  0
TEXT
  5
   282
  8
0
  6
CONTINUOUS
 62
     7
 10
207.312356410047
 20
304.079963890797
 30
0.0
 40
2.99999994933605
  1
116
 50
90.0
 41
0.933333333333333
 72
     1
 11
205.812356435374
 21
307.979963824932
 31
0.0
 73
     2
  0
ENDBLK
  5
   283
  8
0
  6
CONTINUOUS
 62
     7
  0
BLOCK
  5
   284
  8
0
  6
CONTINUOUS
 62
     7
  2
*UDIM1236
 70
    65
 10
0.0
 20
0.0
 30
0.0
  3
*UDIM1236
  0
LINE
  5
   285
  8
0
  6
CONTINUOUS
 62
     7
 10
240.872007181188
 20
239.779325415319
 30
0.0
 11
240.872007181188
 21
224.026889069005
 31
0.0
  0
LINE
  5
   286
  8
0
  6
CONTINUOUS
 62
     7
 10
303.669764131308
 20
259.222694904603
 30
0.0
 11
303.669764131308
 21
224.026889069005
 31
0.0
  0
LINE
  5
   287
  8
0
  6
CONTINUOUS
 62
     7
 10
240.872007181188
 20
226.026889069005
 30
0.0
 11
303.669764131308
 21
226.026889069005
 31
0.0
  0
LINE
  5
   288
  8
0
  6
CONTINUOUS
 62
     7
 10
243.769784654398
 20
226.803346225423
 30
0.0
 11
240.872007181188
 21
226.026889069005
 31
0.0
  0
LINE
  5
   289
  8
0
  6
CONTINUOUS
 62
     7
 10
240.872007181188
 20
226.026889069005
 30
0.0
 11
243.769784654398
 21
225.250431912586
 31
0.0
  0
LINE
  5
   28A
  8
0
  6
CONTINUOUS
 62
     7
 10
300.771986658097
 20
225.250431912586
 30
0.0
 11
303.669764131308
 21
226.026889069005
 31
0.0
  0
LINE
  5
   28B
  8
0
  6
CONTINUOUS
 62
     7
 10
303.669764131308
 20
226.026889069005
 30
0.0
 11
300.771986658097
 21
226.803346225423
 31
0.0
  0
TEXT
  5
   28C
  8
0
  6
CONTINUOUS
 62
     7
 10
281.315124107236
 20
227.026889069005
 30
0.0
 40
2.99999994933605
  1
A
 41
0.933333333333333
 72
     1
 11
282.415124088659
 21
228.526889043673
 31
0.0
 73
     2
  0
ENDBLK
  5
   28D
  8
0
  6
CONTINUOUS
 62
     7
  0
BLOCK
  5
   28E
  8
0
  6
CONTINUOUS
 62
     7
  2
*UDIM1237
 70
    65
 10
0.0
 20
0.0
 30
0.0
  3
*UDIM1237
  0
LINE
  5
   28F
  8
0
  6
CONTINUOUS
 62
     7
 10
301.869761037793
 20
281.979962915181
 30
0.0
 11
345.372485923164
 21
281.979962915181
 31
0.0
  0
LINE
  5
   290
  8
0
  6
CONTINUOUS
 62
     7
 10
301.869761037793
 20
317.979963451626
 30
0.0
 11
345.372485923164
 21
317.979963451626
 31
0.0
  0
LINE
  5
   291
  8
0
  6
CONTINUOUS
 62
     7
 10
343.372485923164
 20
281.979962915181
 30
0.0
 11
343.372485923164
 21
317.979963451626
 31
0.0
  0
LINE
  5
   292
  8
0
  6
CONTINUOUS
 62
     7
 10
342.596028766746
 20
284.877740388391
 30
0.0
 11
343.372485923164
 21
281.979962915181
 31
0.0
  0
LINE
  5
   293
  8
0
  6
CONTINUOUS
 62
     7
 10
343.372485923164
 20
281.979962915181
 30
0.0
 11
344.148943079583
 21
284.877740388391
 31
0.0
  0
LINE
  5
   294
  8
0
  6
CONTINUOUS
 62
     7
 10
344.148943079583
 20
315.082185978415
 30
0.0
 11
343.372485923164
 21
317.979963451626
 31
0.0
  0
LINE
  5
   295
  8
0
  6
CONTINUOUS
 62
     7
 10
343.372485923164
 20
317.979963451626
 30
0.0
 11
342.596028766746
 21
315.082185978415
 31
0.0
  0
TEXT
  5
   296
  8
0
  6
CONTINUOUS
 62
     7
 10
342.372485923167
 20
297.479963225625
 30
0.0
 40
2.99999994933605
  1
45
 50
90.0
 41
0.933333333333333
 72
     1
 11
340.872485948496
 21
299.979963183403
 31
0.0
 73
     2
  0
ENDBLK
  5
   297
  8
0
  6
CONTINUOUS
 62
     7
  0
ENDSEC
  0
SECTION
  2
ENTITIES
  0
TEXT
  5
   298
  8
0
  6
CONTINUOUS
 62
     1
 10
377.824227114771
 20
173.894054355025
 30
0.0
 40
2.00000008940697
  1
FIXED VERSION FRONT TERMINALS FOR Cu CABLE
 41
0.749999861419206
 72
     1
 11
409.174222719674
 21
174.894054399728
 31
0.0
 73
     2
  0
TEXT
  5
   299
  8
0
  6
CONTINUOUS
 62
     1
 10
382.324226222184
 20
176.894054355025
 30
0.0
 40
2.00000008940697
  1
3POLE LOW VOLTAGE M.C.C.B SERIES "T"
 41
0.749999861419206
 72
     1
 11
409.174222457405
 21
177.894054399728
 31
0.0
 73
     2
  0
TEXT
  5
   29A
  8
0
  6
CONTINUOUS
 62
     1
 10
368.776620323215
 20
165.823802890181
 30
0.0
 40
2.00000008940697
  1
TRIPOL. ESECUZIONE FISSA TERM. ANT. X CAVI IN Cu
 41
0.749999861419206
 72
     1
 11
404.626615297798
 21
166.823802934885
 31
0.0
 73
     2
  0
TEXT
  5
   29B
  8
0
  6
CONTINUOUS
 62
     1
 10
384.52661785483
 20
168.823802890181
 30
0.0
 40
2.00000008940697
  1
INTERR.AUTOMATICO SERIE "T"
 41
0.749999861419206
 72
     1
 11
404.62661503553
 21
169.823802934885
 31
0.0
 73
     2
  0
TEXT
  5
   29C
  8
0
  6
CONTINUOUS
 62
     1
 10
294.521838147504
 20
160.730562866279
 30
0.0
 40
2.00000008940697
  1
N0031 00-02-14
 41
0.799999960511924
  0
TEXT
  5
   29D
  8
0
  6
CONTINUOUS
 62
     1
 10
389.522953208293
 20
149.602216240812
 30
0.0
 40
4.00000017881393
  1
RH0013.102
 41
0.937499973922969
 72
     2
 11
426.272953808064
 21
149.602216240812
 31
0.0
  0
TEXT
  5
   29E
  8
0
  6
CONTINUOUS
 62
     1
 10
407.608646523956
 20
158.583812900192
 30
0.0
 40
3.00000002980232
  1
T3
 41
0.916666604744064
 72
     2
 11
412.558646234377
 21
158.583812900192
 31
0.0
  0
INSERT
  5
   29F
  8
255
  6
CONTINUOUS
 62
     7
  2
$1TABELL
 10
-10.228602758616
 20
218.849832623737
 30
0.0
  0
LINE
  5
   2A0
  8
0
  6
DASHDOT
 62
     7
 10
408.058916857731
 20
338.234978914261
 30
0.0
 11
411.67105349597
 21
338.234978914261
 31
0.0
  0
LINE
  5
   2A1
  8
0
  6
DASHDOT
 62
     7
 10
396.217155658007
 20
387.034979641438
 30
0.0
 11
398.106336616123
 21
387.034979641438
 31
0.0
  0
LINE
  5
   2A2
  8
0
  6
CONTINUOUS
 62
     7
 10
393.897155627608
 20
391.034979701042
 30
0.0
 11
411.897155895829
 21
391.034979701042
 31
0.0
  0
LINE
  5
   2A3
  8
0
  6
CONTINUOUS
 62
     7
 10
393.897155627608
 20
334.234978854656
 30
0.0
 11
393.897155627608
 21
391.034979701042
 31
0.0
  0
LINE
  5
   2A4
  8
0
  6
CONTINUOUS
 62
     7
 10
393.897155627608
 20
334.234978854656
 30
0.0
 11
412.89715591073
 21
334.234978854656
 31
0.0
  0
LINE
  5
   2A5
  8
0
  6
CONTINUOUS
 62
     7
 10
412.89715591073
 20
334.234978854656
 30
0.0
 11
412.89715591073
 21
391.034979701042
 31
0.0
  0
CIRCLE
  5
   2A6
  8
0
  6
CONTINUOUS
 62
     7
 10
395.897155657411
 20
387.034979641438
 30
0.0
 40
0.900000013411045
  0
LINE
  5
   2A7
  8
0
  6
DASHDOT
 62
     7
 10
402.897155761719
 20
328.00133425911
 30
0.0
 11
402.897155761719
 21
400.674957879093
 31
0.0
  0
LINE
  5
   2A8
  8
0
  6
DASHDOT
 62
     7
 10
384.304647654408
 20
362.634979277849
 30
0.0
 11
420.93217154874
 21
362.634979277849
 31
0.0
  0
LINE
  5
   2A9
  8
0
  6
DASHDOT
 62
     7
 10
402.897155761719
 20
405.483839912367
 30
0.0
 11
402.897155761719
 21
409.43702597512
 31
0.0
  0
TEXT
  5
   2AA
  8
0
  6
CONTINUOUS
 62
     7
 10
400.285685923071
 20
407.823890257503
 30
0.0
 40
2.99999994933605
  1
Y
 41
0.933333333333333
 72
     1
 11
401.385685904494
 21
409.323890232171
 31
0.0
 73
     2
  0
TEXT
  5
   2AB
  8
0
  6
CONTINUOUS
 62
     7
 10
400.09683098931
 20
327.698328666971
 30
0.0
 40
2.99999994933605
  1
Y
 41
0.933333333333333
 72
     1
 11
401.196830970733
 21
329.198328641639
 31
0.0
 73
     2
  0
TEXT
  5
   2AC
  8
0
  6
CONTINUOUS
 62
     7
 10
417.880670585122
 20
363.181377318537
 30
0.0
 40
2.99999994933605
  1
X
 41
0.933333333333333
 72
     1
 11
418.980670566545
 21
364.681377293205
 31
0.0
 73
     2
  0
TEXT
  5
   2AD
  8
0
  6
CONTINUOUS
 62
     7
 10
388.765534963661
 20
363.023998207069
 30
0.0
 40
2.99999994933605
  1
X
 41
0.933333333333333
 72
     1
 11
389.865534945084
 21
364.523998181737
 31
0.0
 73
     2
  0
INSERT
  5
   2AE
  8
0
  6
CONTINUOUS
 62
     7
  2
*UDIM1208
 10
0.0
 20
0.0
 30
0.0
  0
INSERT
  5
   2AF
  8
0
  6
CONTINUOUS
 62
     7
  2
*UDIM1209
 10
0.0
 20
0.0
 30
0.0
  0
INSERT
  5
   2B0
  8
0
  6
CONTINUOUS
 62
     7
  2
*UDIM1210
 10
0.0
 20
0.0
 30
0.0
  0
CIRCLE
  5
   2B1
  8
0
  6
CONTINUOUS
 62
     7
 10
409.897162206698
 20
338.23497674592
 30
0.0
 40
0.840000012516968
  0
LINE
  5
   2B2
  8
0
  6
DASHDOT
 62
     7
 10
408.505162182499
 20
338.23497674592
 30
0.0
 11
411.312362231935
 21
338.23497674592
 31
0.0
  0
LINE
  5
   2B3
  8
0
  6
DASHDOT
 62
     7
 10
409.897162206698
 20
336.842976721721
 30
0.0
 11
409.897162206698
 21
339.62697677012
 31
0.0
  0
LINE
  5
   2B4
  8
0
  6
DASHDOT
 62
     7
 10
409.897162206698
 20
337.226976728396
 30
0.0
 11
409.897162206698
 21
339.242976763444
 31
0.0
  0
LINE
  5
   2B5
  8
0
  6
DASHDOT
 62
     7
 10
409.897162206698
 20
342.554976806121
 30
0.0
 11
409.897162206698
 21
345.914976864533
 31
0.0
  0
LINE
  5
   2B6
  8
0
  6
DASHDOT
 62
     7
 10
395.897155657411
 20
386.026979623914
 30
0.0
 11
395.897155657411
 21
388.042979658961
 31
0.0
  0
LINE
  5
   2B7
  8
0
  6
DASHDOT
 62
     7
 10
395.897155657411
 20
385.013275753414
 30
0.0
 11
395.897155657411
 21
389.229893111721
 31
0.0
  0
INSERT
  5
   2B8
  8
0
  6
CONTINUOUS
 62
     7
  2
*UDIM1211
 10
0.0
 20
0.0
 30
0.0
  0
LINE
  5
   2B9
  8
0
  6
CONTINUOUS
 62
     3
 10
386.297152200253
 20
297.987930983305
 30
0.0
 11
419.497152084622
 21
297.987930983305
 31
0.0
  0
LINE
  5
   2BA
  8
0
  6
CONTINUOUS
 62
     3
 10
386.297151589904
 20
274.787930637598
 30
0.0
 11
386.297151589904
 21
297.987930983305
 31
0.0
  0
LINE
  5
   2BB
  8
0
  6
CONTINUOUS
 62
     3
 10
386.297152200253
 20
274.787930637598
 30
0.0
 11
419.497152084622
 21
274.787930637598
 31
0.0
  0
INSERT
  5
   2BC
  8
0
  6
CONTINUOUS
 62
     7
  2
*UDIM1212
 10
0.0
 20
0.0
 30
0.0
  0
LINE
  5
   2BD
  8
0
  6
CONTINUOUS
 62
     3
 10
419.497152084622
 20
274.787930637598
 30
0.0
 11
419.497152084622
 21
297.987930983305
 31
0.0
  0
INSERT
  5
   2BE
  8
0
  6
CONTINUOUS
 62
     7
  2
*UDIM1213
 10
0.0
 20
0.0
 30
0.0
  0
LINE
  5
   2BF
  8
0
  6
CONTINUOUS
 62
     7
 10
382.297151530299
 20
301.98793104291
 30
0.0
 11
423.497152144227
 21
301.98793104291
 31
0.0
  0
LINE
  5
   2C0
  8
0
  6
CONTINUOUS
 62
     7
 10
423.497152144227
 20
270.787930577993
 30
0.0
 11
423.497152144227
 21
301.98793104291
 31
0.0
  0
LINE
  5
   2C1
  8
0
  6
CONTINUOUS
 62
     7
 10
382.297151530299
 20
270.787930577993
 30
0.0
 11
382.297151530299
 21
301.98793104291
 31
0.0
  0
LINE
  5
   2C2
  8
0
  6
CONTINUOUS
 62
     7
 10
382.297151530299
 20
270.787930577993
 30
0.0
 11
423.497152144227
 21
270.787930577993
 31
0.0
  0
LINE
  5
   2C3
  8
0
  6
DASHDOT
 62
     7
 10
375.488726312879
 20
290.387930870056
 30
0.0
 11
431.314553607151
 21
290.387930870056
 31
0.0
  0
LINE
  5
   2C4
  8
0
  6
DASHDOT
 62
     7
 10
402.897151837263
 20
261.984833876209
 30
0.0
 11
402.897151837263
 21
314.764261244366
 31
0.0
  0
TEXT
  5
   2C5
  8
0
  6
CONTINUOUS
 62
     7
 10
427.406716758363
 20
290.914163754538
 30
0.0
 40
2.99999994933605
  1
X
 41
0.933333333333333
 72
     1
 11
428.506716739787
 21
292.414163729206
 31
0.0
 73
     2
  0
TEXT
  5
   2C6
  8
0
  6
CONTINUOUS
 62
     7
 10
399.927627994781
 20
262.262061811425
 30
0.0
 40
2.99999994933605
  1
Y
 41
0.933333333333333
 72
     1
 11
401.027627976204
 21
263.762061786093
 31
0.0
 73
     2
  0
TEXT
  5
   2C7
  8
0
  6
CONTINUOUS
 62
     7
 10
377.71458521665
 20
290.914163754538
 30
0.0
 40
2.99999994933605
  1
X
 41
0.933333333333333
 72
     1
 11
378.814585198073
 21
292.414163729206
 31
0.0
 73
     2
  0
TEXT
  5
   2C8
  8
0
  6
CONTINUOUS
 62
     7
 10
400.263955832217
 20
305.747804397842
 30
0.0
 40
2.99999994933605
  1
Y
 41
0.933333333333333
 72
     1
 11
401.36395581364
 21
307.24780437251
 31
0.0
 73
     2
  0
INSERT
  5
   2C9
  8
0
  6
CONTINUOUS
 62
     7
  2
*UDIM1214
 10
0.0
 20
0.0
 30
0.0
  0
INSERT
  5
   2CA
  8
0
  6
CONTINUOUS
 62
     7
  2
*UDIM1215
 10
0.0
 20
0.0
 30
0.0
  0
LINE
  5
   2CB
  8
0
  6
CONTINUOUS
 62
   252
 10
119.794406890869
 20
201.914916992187
 30
0.0
 11
151.722834587097
 21
201.914916992187
 31
0.0
  0
LINE
  5
   2CC
  8
0
  6
CONTINUOUS
 62
   252
 10
119.794407653449
 20
201.414916992187
 30
0.0
 11
119.794407653449
 21
201.914916992188
 31
0.0
  0
LINE
  5
   2CD
  8
0
  6
CONTINUOUS
 62
   252
 10
151.722834778193
 20
201.414916992187
 30
0.0
 11
151.722834778193
 21
201.914916992188
 31
0.0
  0
LINE
  5
   2CE
  8
0
  6
CONTINUOUS
 62
   252
 10
119.794406890869
 20
201.414916992187
 30
0.0
 11
151.722834587097
 21
201.414916992187
 31
0.0
  0
LINE
  5
   2CF
  8
0
  6
CONTINUOUS
 62
   252
 10
151.722834778193
 20
201.914916992188
 30
0.0
 11
151.722834778193
 21
208.164916992188
 31
0.0
  0
LINE
  5
   2D0
  8
0
  6
CONTINUOUS
 62
   252
 10
119.794407653449
 20
201.914916992188
 30
0.0
 11
119.794407653449
 21
208.164916992188
 31
0.0
  0
LINE
  5
   2D1
  8
0
  6
CONTINUOUS
 62
   252
 10
118.208606719971
 20
169.164916992187
 30
0.0
 11
153.308606147766
 21
169.164916992187
 31
0.0
  0
LINE
  5
   2D2
  8
0
  6
CONTINUOUS
 62
   252
 10
153.308606147766
 20
169.164916992187
 30
0.0
 11
154.722819566727
 21
169.164916992187
 31
0.0
  0
LINE
  5
   2D3
  8
0
  6
CONTINUOUS
 62
   252
 10
154.722819566727
 20
169.164916992187
 30
0.0
 11
155.558605909348
 21
169.164916992187
 31
0.0
  0
LINE
  5
   2D4
  8
0
  6
CONTINUOUS
 62
   252
 10
154.722819519404
 20
169.164916992187
 30
0.0
 11
154.722819519404
 21
176.664916992187
 31
0.0
  0
LINE
  5
   2D5
  8
0
  6
CONTINUOUS
 62
   252
 10
154.722819519404
 20
200.664916992188
 30
0.0
 11
154.722819519404
 21
208.164916992188
 31
0.0
  0
LINE
  5
   2D6
  8
0
  6
CONTINUOUS
 62
   252
 10
155.558605909348
 20
169.164916992187
 30
0.0
 11
155.808605909348
 21
169.164916992187
 31
0.0
  0
LINE
  5
   2D7
  8
0
  6
CONTINUOUS
 62
   252
 10
155.558605957031
 20
169.164916992187
 30
0.0
 11
155.558605957031
 21
176.664916992187
 31
0.0
  0
LINE
  5
   2D8
  8
0
  6
CONTINUOUS
 62
   252
 10
155.558605957031
 20
200.664916992188
 30
0.0
 11
155.558605957031
 21
208.164916992188
 31
0.0
  0
LINE
  5
   2D9
  8
0
  6
CONTINUOUS
 62
   252
 10
155.808605909348
 20
169.164916992187
 30
0.0
 11
157.558605954051
 21
169.164916992187
 31
0.0
  0
LINE
  5
   2DA
  8
0
  6
CONTINUOUS
 62
   252
 10
157.558605954051
 20
169.164916992187
 30
0.0
 11
157.808605954051
 21
169.164916992187
 31
0.0
  0
LINE
  5
   2DB
  8
0
  6
CONTINUOUS
 62
   252
 10
157.808605957031
 20
169.164916992187
 30
0.0
 11
157.808605957031
 21
208.164916992188
 31
0.0
  0
LINE
  5
   2DC
  8
0
  6
CONTINUOUS
 62
   252
 10
113.708606719971
 20
169.164916992187
 30
0.0
 11
113.958606719971
 21
169.164916992187
 31
0.0
  0
LINE
  5
   2DD
  8
0
  6
CONTINUOUS
 62
   252
 10
113.708605957034
 20
169.164916992187
 30
0.0
 11
113.708605957034
 21
208.164916992188
 31
0.0
  0
LINE
  5
   2DE
  8
0
  6
CONTINUOUS
 62
   252
 10
113.958606719971
 20
169.164916992187
 30
0.0
 11
115.708606719971
 21
169.164916992187
 31
0.0
  0
LINE
  5
   2DF
  8
0
  6
CONTINUOUS
 62
   252
 10
115.708606719971
 20
169.164916992187
 30
0.0
 11
115.958606719971
 21
169.164916992187
 31
0.0
  0
LINE
  5
   2E0
  8
0
  6
CONTINUOUS
 62
   252
 10
115.958606719971
 20
169.164916992187
 30
0.0
 11
116.79439163208
 21
169.164916992187
 31
0.0
  0
LINE
  5
   2E1
  8
0
  6
CONTINUOUS
 62
   252
 10
115.958605957034
 20
200.664916992188
 30
0.0
 11
115.958605957034
 21
208.164916992188
 31
0.0
  0
LINE
  5
   2E2
  8
0
  6
CONTINUOUS
 62
   252
 10
115.958605957034
 20
169.164916992187
 30
0.0
 11
115.958605957034
 21
176.664916992187
 31
0.0
  0
LINE
  5
   2E3
  8
0
  6
CONTINUOUS
 62
   252
 10
116.79439163208
 20
169.164916992187
 30
0.0
 11
118.208606719971
 21
169.164916992187
 31
0.0
  0
LINE
  5
   2E4
  8
0
  6
CONTINUOUS
 62
   252
 10
116.794392394661
 20
200.664916992188
 30
0.0
 11
116.794392394661
 21
208.164916992188
 31
0.0
  0
LINE
  5
   2E5
  8
0
  6
CONTINUOUS
 62
   252
 10
116.794392394429
 20
169.164916992187
 30
0.0
 11
116.794392394429
 21
176.664916992187
 31
0.0
  0
LINE
  5
   2E6
  8
0
  6
CONTINUOUS
 62
   252
 10
119.794406890869
 20
208.164916992187
 30
0.0
 11
151.722834587097
 21
208.164916992187
 31
0.0
  0
LINE
  5
   2E7
  8
0
  6
CONTINUOUS
 62
   252
 10
151.722834587097
 20
208.164916992187
 30
0.0
 11
153.308606147766
 21
208.164916992187
 31
0.0
  0
LINE
  5
   2E8
  8
0
  6
CONTINUOUS
 62
   252
 10
118.208606719971
 20
208.164916992187
 30
0.0
 11
119.794406890869
 21
208.164916992187
 31
0.0
  0
LINE
  5
   2E9
  8
0
  6
CONTINUOUS
 62
   252
 10
153.308606147766
 20
208.164916992187
 30
0.0
 11
154.722819566727
 21
208.164916992187
 31
0.0
  0
LINE
  5
   2EA
  8
0
  6
CONTINUOUS
 62
   252
 10
154.722819566727
 20
208.164916992187
 30
0.0
 11
155.558605909348
 21
208.164916992187
 31
0.0
  0
LINE
  5
   2EB
  8
0
  6
CONTINUOUS
 62
   252
 10
155.558605909348
 20
208.164916992187
 30
0.0
 11
155.808605909348
 21
208.164916992187
 31
0.0
  0
LINE
  5
   2EC
  8
0
  6
CONTINUOUS
 62
   252
 10
155.808605909348
 20
208.164916992187
 30
0.0
 11
157.558605954051
 21
208.164916992187
 31
0.0
  0
LINE
  5
   2ED
  8
0
  6
CONTINUOUS
 62
   252
 10
157.558605954051
 20
208.164916992187
 30
0.0
 11
157.808605954051
 21
208.164916992187
 31
0.0
  0
LINE
  5
   2EE
  8
0
  6
CONTINUOUS
 62
   252
 10
113.708606719971
 20
208.164916992187
 30
0.0
 11
113.958606719971
 21
208.164916992187
 31
0.0
  0
LINE
  5
   2EF
  8
0
  6
CONTINUOUS
 62
   252
 10
113.958606719971
 20
208.164916992187
 30
0.0
 11
115.708606719971
 21
208.164916992187
 31
0.0
  0
LINE
  5
   2F0
  8
0
  6
CONTINUOUS
 62
   252
 10
115.708606719971
 20
208.164916992187
 30
0.0
 11
115.958606719971
 21
208.164916992187
 31
0.0
  0
LINE
  5
   2F1
  8
0
  6
CONTINUOUS
 62
   252
 10
115.958606719971
 20
208.164916992187
 30
0.0
 11
116.79439163208
 21
208.164916992187
 31
0.0
  0
LINE
  5
   2F2
  8
0
  6
CONTINUOUS
 62
   252
 10
116.79439163208
 20
208.164916992187
 30
0.0
 11
118.208606719971
 21
208.164916992187
 31
0.0
  0
LINE
  5
   2F3
  8
0
  6
CONTINUOUS
 62
   252
 10
155.558605957031
 20
176.664916992187
 30
0.0
 11
155.558605957031
 21
200.664916992188
 31
0.0
  0
LINE
  5
   2F4
  8
0
  6
CONTINUOUS
 62
   252
 10
115.958605957034
 20
176.664916992187
 30
0.0
 11
115.958605957034
 21
200.664916992188
 31
0.0
  0
LINE
  5
   2F5
  8
0
  6
CONTINUOUS
 62
   252
 10
118.208606719971
 20
176.664916992187
 30
0.0
 11
153.308606147766
 21
176.664916992187
 31
0.0
  0
LINE
  5
   2F6
  8
0
  6
CONTINUOUS
 62
   252
 10
153.308606147766
 20
176.664916992187
 30
0.0
 11
154.722819566727
 21
176.664916992187
 31
0.0
  0
LINE
  5
   2F7
  8
0
  6
CONTINUOUS
 62
   252
 10
154.722819566727
 20
176.664916992187
 30
0.0
 11
155.558605909348
 21
176.664916992187
 31
0.0
  0
LINE
  5
   2F8
  8
0
  6
CONTINUOUS
 62
   252
 10
115.958606719971
 20
176.664916992187
 30
0.0
 11
116.79439163208
 21
176.664916992187
 31
0.0
  0
LINE
  5
   2F9
  8
0
  6
CONTINUOUS
 62
   252
 10
116.79439163208
 20
176.664916992187
 30
0.0
 11
118.208606719971
 21
176.664916992187
 31
0.0
  0
LINE
  5
   2FA
  8
0
  6
CONTINUOUS
 62
   252
 10
118.208606719971
 20
200.664916992187
 30
0.0
 11
153.308606147766
 21
200.664916992187
 31
0.0
  0
LINE
  5
   2FB
  8
0
  6
CONTINUOUS
 62
   252
 10
153.308606147766
 20
200.664916992187
 30
0.0
 11
154.722819566727
 21
200.664916992187
 31
0.0
  0
LINE
  5
   2FC
  8
0
  6
CONTINUOUS
 62
   252
 10
154.722819566727
 20
200.664916992187
 30
0.0
 11
155.558605909348
 21
200.664916992187
 31
0.0
  0
LINE
  5
   2FD
  8
0
  6
CONTINUOUS
 62
   252
 10
115.958606719971
 20
200.664916992187
 30
0.0
 11
116.79439163208
 21
200.664916992187
 31
0.0
  0
LINE
  5
   2FE
  8
0
  6
CONTINUOUS
 62
   252
 10
116.79439163208
 20
200.664916992187
 30
0.0
 11
118.208606719971
 21
200.664916992187
 31
0.0
  0
LINE
  5
   2FF
  8
0
  6
DASHDOT
 62
     7
 10
135.758605957032
 20
161.45314533716
 30
0.0
 11
135.758605957032
 21
222.972764241338
 31
0.0
  0
TEXT
  5
   300
  8
0
  6
CONTINUOUS
 62
     7
 10
131.300427049999
 20
212.762021726731
 30
0.0
 40
3.00000002980232
  1
Y
 41
0.933333333333334
 72
     1
 11
132.400427060927
 21
214.262021741632
 31
0.0
 73
     2
  0
TEXT
  5
   301
  8
0
  6
CONTINUOUS
 62
     7
 10
131.300427049999
 20
161.041988134722
 30
0.0
 40
3.00000002980232
  1
Y
 41
0.933333333333334
 72
     1
 11
132.400427060927
 21
162.541988149623
 31
0.0
 73
     2
  0
LINE
  5
   302
  8
0
  6
DASHDOT
 62
     7
 10
105.995988858691
 20
193.664916992187
 30
0.0
 11
166.698975653522
 21
193.664916992187
 31
0.0
  0
TEXT
  5
   303
  8
0
  6
CONTINUOUS
 62
     7
 10
106.257042363343
 20
194.868429696159
 30
0.0
 40
3.00000002980232
  1
X
 41
0.933333333333334
 72
     1
 11
107.35704237427
 21
196.36842971106
 31
0.0
 73
     2
  0
TEXT
  5
   304
  8
0
  6
CONTINUOUS
 62
     7
 10
163.421290017668
 20
194.868429696159
 30
0.0
 40
3.00000002980232
  1
X
 41
0.933333333333334
 72
     1
 11
164.521290028596
 21
196.36842971106
 31
0.0
 73
     2
  0
INSERT
  5
   305
  8
0
  6
CONTINUOUS
 62
     7
  2
*UDIM1216
 10
0.0
 20
0.0
 30
0.0
  0
INSERT
  5
   306
  8
0
  6
CONTINUOUS
 62
     7
  2
*UDIM1217
 10
0.0
 20
0.0
 30
0.0
  0
LINE
  5
   307
  8
0
  6
CONTINUOUS
 62
     3
 10
165.81962114522
 20
285.899963416088
 30
0.0
 11
166.026483025744
 21
286.106825296612
 31
0.0
  0
LINE
  5
   308
  8
0
  6
CONTINUOUS
 62
     3
 10
166.026483620823
 20
286.106824548943
 30
0.0
 11
166.026483620823
 21
286.653101412552
 31
0.0
  0
LINE
  5
   309
  8
0
  6
CONTINUOUS
 62
     3
 10
165.819621145224
 20
286.859962545411
 30
0.0
 11
166.026483025747
 21
286.653100664887
 31
0.0
  0
LINE
  5
   30A
  8
0
  6
CONTINUOUS
 62
     3
 10
164.899620658476
 20
286.859962987904
 30
0.0
 11
165.81962036701
 21
286.859962987904
 31
0.0
  0
LINE
  5
   30B
  8
0
  6
CONTINUOUS
 62
     3
 10
164.786482320625
 20
286.973101356301
 30
0.0
 11
164.899621284102
 21
286.859962392823
 31
0.0
  0
LINE
  5
   30C
  8
0
  6
CONTINUOUS
 62
     3
 10
164.786483602346
 20
286.973102638023
 30
0.0
 11
164.786483602346
 21
287.386823347313
 31
0.0
  0
LINE
  5
   30D
  8
0
  6
CONTINUOUS
 62
     3
 10
164.786482320621
 20
287.386824629039
 30
0.0
 11
164.899621284099
 21
287.499963592517
 31
0.0
  0
LINE
  5
   30E
  8
0
  6
CONTINUOUS
 62
     3
 10
164.899620658476
 20
287.49996299744
 30
0.0
 11
165.753346867487
 21
287.49996299744
 31
0.0
  0
LINE
  5
   30F
  8
0
  6
CONTINUOUS
 62
     3
 10
165.753346089275
 20
287.499963439928
 30
0.0
 11
165.91334784642
 21
287.339961682783
 31
0.0
  0
LINE
  5
   310
  8
0
  6
CONTINUOUS
 62
     3
 10
165.91334540501
 20
287.339961865919
 30
0.0
 11
166.026484368488
 21
287.453100829397
 31
0.0
  0
LINE
  5
   311
  8
0
  6
CONTINUOUS
 62
     3
 10
165.819621145224
 20
287.659962557332
 30
0.0
 11
166.026483025747
 21
287.453100676808
 31
0.0
  0
LINE
  5
   312
  8
0
  6
CONTINUOUS
 62
     3
 10
164.833346396014
 20
287.659962999824
 30
0.0
 11
165.81962036701
 21
287.659962999824
 31
0.0
  0
LINE
  5
   313
  8
0
  6
CONTINUOUS
 62
     3
 10
164.626484347627
 20
287.453100829397
 30
0.0
 11
164.833345846681
 21
287.659962328451
 31
0.0
  0
LINE
  5
   314
  8
0
  6
CONTINUOUS
 62
     3
 10
164.626483599962
 20
286.906824560864
 30
0.0
 11
164.626483599962
 21
287.453101424473
 31
0.0
  0
LINE
  5
   315
  8
0
  6
CONTINUOUS
 62
     3
 10
164.62648434763
 20
286.906825155943
 30
0.0
 11
164.833345846685
 21
286.699963656889
 31
0.0
  0
LINE
  5
   316
  8
0
  6
CONTINUOUS
 62
     3
 10
164.833346396014
 20
286.699962985519
 30
0.0
 11
165.753346867487
 21
286.699962985519
 31
0.0
  0
LINE
  5
   317
  8
0
  6
CONTINUOUS
 62
     3
 10
165.753346089275
 20
286.699963428007
 30
0.0
 11
165.866485052753
 21
286.586824464529
 31
0.0
  0
LINE
  5
   318
  8
0
  6
CONTINUOUS
 62
     3
 10
165.866483618439
 20
286.173102626102
 30
0.0
 11
165.866483618439
 21
286.586823335392
 31
0.0
  0
LINE
  5
   319
  8
0
  6
CONTINUOUS
 62
     3
 10
165.753346089272
 20
286.059962533491
 30
0.0
 11
165.86648505275
 21
286.173101496969
 31
0.0
  0
LINE
  5
   31A
  8
0
  6
CONTINUOUS
 62
     3
 10
164.899620658476
 20
286.059962975983
 30
0.0
 11
165.753346867487
 21
286.059962975983
 31
0.0
  0
LINE
  5
   31B
  8
0
  6
CONTINUOUS
 62
     3
 10
164.739619526957
 20
286.219964138047
 30
0.0
 11
164.899621284102
 21
286.059962380902
 31
0.0
  0
LINE
  5
   31C
  8
0
  6
CONTINUOUS
 62
     3
 10
164.626483004882
 20
286.106825296612
 30
0.0
 11
164.73962196836
 21
286.219964260089
 31
0.0
  0
LINE
  5
   31D
  8
0
  6
CONTINUOUS
 62
     3
 10
164.62648434763
 20
286.106825144022
 30
0.0
 11
164.833345846685
 21
285.899963644968
 31
0.0
  0
LINE
  5
   31E
  8
0
  6
CONTINUOUS
 62
     3
 10
164.833346396014
 20
285.899962973598
 30
0.0
 11
165.81962036701
 21
285.899962973598
 31
0.0
  0
LINE
  5
   31F
  8
0
  6
CONTINUOUS
 62
     3
 10
167.026483635724
 20
285.899964194298
 30
0.0
 11
167.026483635724
 21
287.49996421814
 31
0.0
  0
LINE
  5
   320
  8
0
  6
CONTINUOUS
 62
     3
 10
166.866483938517
 20
285.899962973598
 30
0.0
 11
167.026483788314
 21
285.899962973598
 31
0.0
  0
LINE
  5
   321
  8
0
  6
CONTINUOUS
 62
     3
 10
166.86648363334
 20
285.899964194298
 30
0.0
 11
166.86648363334
 21
287.49996421814
 31
0.0
  0
LINE
  5
   322
  8
0
  6
CONTINUOUS
 62
     3
 10
166.266483929577
 20
287.49996299744
 30
0.0
 11
166.866483938517
 21
287.49996299744
 31
0.0
  0
LINE
  5
   323
  8
0
  6
CONTINUOUS
 62
     3
 10
166.2664836244
 20
287.49996421814
 30
0.0
 11
166.2664836244
 21
287.659961779118
 31
0.0
  0
LINE
  5
   324
  8
0
  6
CONTINUOUS
 62
     3
 10
166.266483929577
 20
287.659962999824
 30
0.0
 11
167.626483797254
 21
287.659962999824
 31
0.0
  0
LINE
  5
   325
  8
0
  6
CONTINUOUS
 62
     3
 10
167.626483644665
 20
287.49996421814
 30
0.0
 11
167.626483644665
 21
287.659961779118
 31
0.0
  0
LINE
  5
   326
  8
0
  6
CONTINUOUS
 62
     3
 10
167.026483788314
 20
287.49996299744
 30
0.0
 11
167.626483797254
 21
287.49996299744
 31
0.0
  0
LINE
  5
   327
  8
0
  6
CONTINUOUS
 62
     3
 10
162.226483564199
 20
285.899964194298
 30
0.0
 11
162.226483564199
 21
287.49996421814
 31
0.0
  0
LINE
  5
   328
  8
0
  6
CONTINUOUS
 62
     3
 10
162.226482953849
 20
287.49996299744
 30
0.0
 11
162.826482962789
 21
287.49996299744
 31
0.0
  0
LINE
  5
   329
  8
0
  6
CONTINUOUS
 62
     3
 10
162.82648357314
 20
287.49996421814
 30
0.0
 11
162.82648357314
 21
287.659961779118
 31
0.0
  0
LINE
  5
   32A
  8
0
  6
CONTINUOUS
 62
     3
 10
161.466483858051
 20
287.659962999824
 30
0.0
 11
162.826482962789
 21
287.659962999824
 31
0.0
  0
LINE
  5
   32B
  8
0
  6
CONTINUOUS
 62
     3
 10
161.466483552874
 20
287.49996421814
 30
0.0
 11
161.466483552874
 21
287.659961779118
 31
0.0
  0
LINE
  5
   32C
  8
0
  6
CONTINUOUS
 62
     3
 10
161.466483858051
 20
287.49996299744
 30
0.0
 11
162.066483866992
 21
287.49996299744
 31
0.0
  0
LINE
  5
   32D
  8
0
  6
CONTINUOUS
 62
     3
 10
162.066483561815
 20
285.899964194298
 30
0.0
 11
162.066483561815
 21
287.49996421814
 31
0.0
  0
LINE
  5
   32E
  8
0
  6
CONTINUOUS
 62
     3
 10
162.066483866992
 20
285.899962973598
 30
0.0
 11
162.226482953849
 21
285.899962973598
 31
0.0
  0
LINE
  5
   32F
  8
0
  6
CONTINUOUS
 62
     3
 10
164.146483592809
 20
286.699964206219
 30
0.0
 11
164.146483592809
 21
286.859961767197
 31
0.0
  0
LINE
  5
   330
  8
0
  6
CONTINUOUS
 62
     3
 10
163.226483731689
 20
286.859962987904
 30
0.0
 11
164.146483440222
 21
286.859962987904
 31
0.0
  0
LINE
  5
   331
  8
0
  6
CONTINUOUS
 62
     3
 10
163.2264835791
 20
286.859961767197
 30
0.0
 11
163.2264835791
 21
287.49996421814
 31
0.0
  0
LINE
  5
   332
  8
0
  6
CONTINUOUS
 62
     3
 10
163.226483731689
 20
287.49996299744
 30
0.0
 11
164.426483749571
 21
287.49996299744
 31
0.0
  0
LINE
  5
   333
  8
0
  6
CONTINUOUS
 62
     3
 10
164.426483596981
 20
287.49996421814
 30
0.0
 11
164.426483596981
 21
287.659961779118
 31
0.0
  0
LINE
  5
   334
  8
0
  6
CONTINUOUS
 62
     3
 10
163.066483881893
 20
287.659962999824
 30
0.0
 11
164.426483749571
 21
287.659962999824
 31
0.0
  0
LINE
  5
   335
  8
0
  6
CONTINUOUS
 62
     3
 10
163.066483576716
 20
285.899964194298
 30
0.0
 11
163.066483576716
 21
287.659961779118
 31
0.0
  0
LINE
  5
   336
  8
0
  6
CONTINUOUS
 62
     3
 10
163.066483881893
 20
285.899962973598
 30
0.0
 11
164.426483749571
 21
285.899962973598
 31
0.0
  0
LINE
  5
   337
  8
0
  6
CONTINUOUS
 62
     3
 10
164.426483596981
 20
285.899964194298
 30
0.0
 11
164.426483596981
 21
286.059961755276
 31
0.0
  0
LINE
  5
   338
  8
0
  6
CONTINUOUS
 62
     3
 10
163.226483731689
 20
286.059962975983
 30
0.0
 11
164.426483749571
 21
286.059962975983
 31
0.0
  0
LINE
  5
   339
  8
0
  6
CONTINUOUS
 62
     3
 10
163.2264835791
 20
286.059961755276
 30
0.0
 11
163.2264835791
 21
286.699964206219
 31
0.0
  0
LINE
  5
   33A
  8
0
  6
CONTINUOUS
 62
     3
 10
163.226483731689
 20
286.699962985519
 30
0.0
 11
164.146483440222
 21
286.699962985519
 31
0.0
  0
POLYLINE
  5
   33B
  8
0
  6
CONTINUOUS
 62
     1
 66
     1
 10
0.0
 20
0.0
 30
0.0
  0
VERTEX
  5
   33C
  8
0
  6
CONTINUOUS
 10
168.466483046828
 20
286.779962986711
 30
0.0
 40
0.0
 41
0.0
  0
VERTEX
  5
   33D
  8
0
  6
CONTINUOUS
 10
168.321902038682
 20
287.292134696275
 30
0.0
 40
0.0
 41
0.0
  0
VERTEX
  5
   33E
  8
0
  6
CONTINUOUS
 10
167.755459951218
 20
287.877869097181
 30
0.0
 40
0.0
 41
0.0
  0
VERTEX
  5
   33F
  8
0
  6
CONTINUOUS
 10
166.544735548693
 20
288.429093317854
 30
0.0
 40
0.0
 41
0.0
  0
VERTEX
  5
   340
  8
0
  6
CONTINUOUS
 10
165.234050385678
 20
288.669887632369
 30
0.0
 40
0.0
 41
0.0
  0
VERTEX
  5
   341
  8
0
  6
CONTINUOUS
 10
163.624094665608
 20
288.645689723304
 30
0.0
 40
0.0
 41
0.0
  0
VERTEX
  5
   342
  8
0
  6
CONTINUOUS
 10
162.069630695068
 20
288.263416023527
 30
0.0
 40
0.0
 41
0.0
  0
VERTEX
  5
   343
  8
0
  6
CONTINUOUS
 10
161.124915220428
 20
287.711560330664
 30
0.0
 40
0.0
 41
0.0
  0
VERTEX
  5
   344
  8
0
  6
CONTINUOUS
 10
160.777593639682
 20
287.303342413134
 30
0.0
 40
0.0
 41
0.0
  0
VERTEX
  5
   345
  8
0
  6
CONTINUOUS
 10
160.626484150711
 20
286.779962986711
 30
0.0
 40
0.0
 41
0.0
  0
SEQEND
  5
   346
  8
0
  6
CONTINUOUS
 62
     1
  0
POLYLINE
  5
   347
  8
0
  6
CONTINUOUS
 62
     1
 66
     1
 10
0.0
 20
0.0
 30
0.0
  0
VERTEX
  5
   348
  8
0
  6
CONTINUOUS
 10
160.626484150711
 20
286.779962986704
 30
0.0
 40
0.0
 41
0.0
  0
VERTEX
  5
   349
  8
0
  6
CONTINUOUS
 10
160.771065158857
 20
286.267791277141
 30
0.0
 40
0.0
 41
0.0
  0
VERTEX
  5
   34A
  8
0
  6
CONTINUOUS
 10
161.337507246322
 20
285.682056876234
 30
0.0
 40
0.0
 41
0.0
  0
VERTEX
  5
   34B
  8
0
  6
CONTINUOUS
 10
162.548231648845
 20
285.130832655562
 30
0.0
 40
0.0
 41
0.0
  0
VERTEX
  5
   34C
  8
0
  6
CONTINUOUS
 10
163.858916811862
 20
284.890038341047
 30
0.0
 40
0.0
 41
0.0
  0
VERTEX
  5
   34D
  8
0
  6
CONTINUOUS
 10
165.468872531931
 20
284.914236250112
 30
0.0
 40
0.0
 41
0.0
  0
VERTEX
  5
   34E
  8
0
  6
CONTINUOUS
 10
167.023336502473
 20
285.296509949889
 30
0.0
 40
0.0
 41
0.0
  0
VERTEX
  5
   34F
  8
0
  6
CONTINUOUS
 10
167.96805197711
 20
285.848365642752
 30
0.0
 40
0.0
 41
0.0
  0
VERTEX
  5
   350
  8
0
  6
CONTINUOUS
 10
168.315373557856
 20
286.256583560282
 30
0.0
 40
0.0
 41
0.0
  0
VERTEX
  5
   351
  8
0
  6
CONTINUOUS
 10
168.466483046828
 20
286.779962986704
 30
0.0
 40
0.0
 41
0.0
  0
SEQEND
  5
   352
  8
0
  6
CONTINUOUS
 62
     1
  0
ARC
  5
   353
  8
0
  6
CONTINUOUS
 62
     1
 10
148.546478962307
 20
286.21996798649
 30
0.0
 40
0.400010689129011
 50
270.000717395366
 51
359.999632348573
  0
ARC
  5
   354
  8
0
  6
CONTINUOUS
 62
     1
 10
132.546499875138
 20
286.219979121481
 30
0.0
 40
0.400021775371486
 50
180.001962546141
 51
269.997687785879
  0
ARC
  5
   355
  8
0
  6
CONTINUOUS
 62
     1
 10
132.546488740413
 20
314.139958386007
 30
0.0
 40
0.400010689129633
 50
90.0007173568052
 51
179.9996323109
  0
ARC
  5
   356
  8
0
  6
CONTINUOUS
 62
     1
 10
148.546467827584
 20
314.139947251549
 30
0.0
 40
0.400021775372528
 50
1.96250825689063E-3
 51
89.9976877476939
  0
LINE
  5
   357
  8
0
  6
CONTINUOUS
 62
     1
 10
170.676529619071
 20
283.419965378046
 30
0.0
 11
170.676529619071
 21
316.53996098876
 31
0.0
  0
LINE
  5
   358
  8
0
  6
CONTINUOUS
 62
     1
 10
110.4164357951
 20
283.419965378046
 30
0.0
 11
110.4164357951
 21
316.53996098876
 31
0.0
  0
LINE
  5
   359
  8
0
  6
CONTINUOUS
 62
     2
 10
114.546483464064
 20
316.699964653254
 30
0.0
 11
114.546483464064
 21
316.779963433743
 31
0.0
  0
LINE
  5
   35A
  8
0
  6
CONTINUOUS
 62
     2
 10
118.546483523669
 20
316.699964653254
 30
0.0
 11
118.546483523669
 21
316.779963433743
 31
0.0
  0
LINE
  5
   35B
  8
0
  6
CONTINUOUS
 62
     2
 10
166.546484238925
 20
316.699964653254
 30
0.0
 11
166.546484238925
 21
316.779963433743
 31
0.0
  0
LINE
  5
   35C
  8
0
  6
CONTINUOUS
 62
     2
 10
162.54648417932
 20
316.699964653254
 30
0.0
 11
162.54648417932
 21
316.779963433743
 31
0.0
  0
LINE
  5
   35D
  8
0
  6
CONTINUOUS
 62
     2
 10
166.546484238925
 20
283.179962933064
 30
0.0
 11
166.546484238925
 21
283.259961713552
 31
0.0
  0
LINE
  5
   35E
  8
0
  6
CONTINUOUS
 62
     2
 10
162.54648417932
 20
283.179962933064
 30
0.0
 11
162.54648417932
 21
283.259961713552
 31
0.0
  0
LINE
  5
   35F
  8
0
  6
CONTINUOUS
 62
     2
 10
114.546483464064
 20
283.179962933064
 30
0.0
 11
114.546483464064
 21
283.259961713552
 31
0.0
  0
LINE
  5
   360
  8
0
  6
CONTINUOUS
 62
     2
 10
118.546483523669
 20
283.179962933064
 30
0.0
 11
118.546483523669
 21
283.259961713552
 31
0.0
  0
POLYLINE
  5
   361
  8
0
  6
CONTINUOUS
 62
     1
 66
     1
 10
0.0
 20
0.0
 30
0.0
  0
VERTEX
  5
   362
  8
0
  6
CONTINUOUS
 10
170.86587326508
 20
283.259962934256
 30
0.0
 40
0.0
 41
0.0
  0
VERTEX
  5
   363
  8
0
  6
CONTINUOUS
 10
171.026484305663
 20
283.419965378048
 30
0.0
 40
0.0
 41
0.0
  0
SEQEND
  5
   364
  8
0
  6
CONTINUOUS
 62
     1
  0
POLYLINE
  5
   365
  8
0
  6
CONTINUOUS
 62
     1
 66
     1
 10
0.0
 20
0.0
 30
0.0
  0
VERTEX
  5
   366
  8
0
  6
CONTINUOUS
 10
171.026484305663
 20
316.53996098876
 30
0.0
 40
0.0
 41
0.0
  0
VERTEX
  5
   367
  8
0
  6
CONTINUOUS
 10
170.865873265079
 20
316.69996343255
 30
0.0
 40
0.0
 41
0.0
  0
SEQEND
  5
   368
  8
0
  6
CONTINUOUS
 62
     1
  0
POLYLINE
  5
   369
  8
0
  6
CONTINUOUS
 62
     1
 66
     1
 10
0.0
 20
0.0
 30
0.0
  0
VERTEX
  5
   36A
  8
0
  6
CONTINUOUS
 10
110.227092530575
 20
316.699963432538
 30
0.0
 40
0.0
 41
0.0
  0
VERTEX
  5
   36B
  8
0
  6
CONTINUOUS
 10
110.066483397326
 20
316.539960988741
 30
0.0
 40
0.0
 41
0.0
  0
SEQEND
  5
   36C
  8
0
  6
CONTINUOUS
 62
     1
  0
POLYLINE
  5
   36D
  8
0
  6
CONTINUOUS
 62
     1
 66
     1
 10
0.0
 20
0.0
 30
0.0
  0
VERTEX
  5
   36E
  8
0
  6
CONTINUOUS
 10
110.066483397326
 20
283.419965378064
 30
0.0
 40
0.0
 41
0.0
  0
VERTEX
  5
   36F
  8
0
  6
CONTINUOUS
 10
110.227092530577
 20
283.259962934269
 30
0.0
 40
0.0
 41
0.0
  0
SEQEND
  5
   370
  8
0
  6
CONTINUOUS
 62
     1
  0
LINE
  5
   371
  8
0
  6
CONTINUOUS
 62
     1
 10
132.546483732285
 20
285.819962972403
 30
0.0
 11
148.546483970704
 21
285.819962972403
 31
0.0
  0
LINE
  5
   372
  8
0
  6
CONTINUOUS
 62
     1
 10
148.946483976664
 20
286.219965419769
 30
0.0
 11
148.946483976664
 21
314.139960952997
 31
0.0
  0
LINE
  5
   373
  8
0
  6
CONTINUOUS
 62
     1
 10
132.146483726325
 20
286.219965419769
 30
0.0
 11
132.146483726325
 21
314.139960952997
 31
0.0
  0
LINE
  5
   374
  8
0
  6
CONTINUOUS
 62
     2
 10
171.026484305682
 20
283.419965378046
 30
0.0
 11
171.026484305682
 21
316.53996098876
 31
0.0
  0
LINE
  5
   375
  8
0
  6
CONTINUOUS
 62
     2
 10
110.066483397307
 20
283.419965378046
 30
0.0
 11
110.066483397307
 21
316.53996098876
 31
0.0
  0
LINE
  5
   376
  8
0
  6
CONTINUOUS
 62
     1
 10
168.48291004903
 20
283.259962934256
 30
0.0
 11
170.708811113692
 21
283.259962934256
 31
0.0
  0
LINE
  5
   377
  8
0
  6
CONTINUOUS
 62
     1
 10
110.384154300478
 20
283.259962934256
 30
0.0
 11
112.615630163808
 21
283.259962934256
 31
0.0
  0
LINE
  5
   378
  8
0
  6
CONTINUOUS
 62
     1
 10
170.708811113692
 20
283.259962934256
 30
0.0
 11
170.865873265081
 21
283.259962934256
 31
0.0
  0
LINE
  5
   379
  8
0
  6
CONTINUOUS
 62
     1
 10
112.615630163808
 20
283.259962934256
 30
0.0
 11
168.48291004903
 21
283.259962934256
 31
0.0
  0
LINE
  5
   37A
  8
0
  6
CONTINUOUS
 62
     1
 10
110.22709253056
 20
283.259962934256
 30
0.0
 11
110.384154300478
 21
283.259962934256
 31
0.0
  0
LINE
  5
   37B
  8
0
  6
CONTINUOUS
 62
     2
 10
162.54648417932
 20
288.512012573064
 30
0.0
 11
163.263340574279
 21
288.652613161097
 31
0.0
  0
POLYLINE
  5
   37C
  8
0
  6
CONTINUOUS
 62
     1
 66
     1
 10
0.0
 20
0.0
 30
0.0
  0
VERTEX
  5
   37D
  8
0
  6
CONTINUOUS
 10
168.28617339357
 20
286.0702594506
 30
0.0
 40
0.0
 41
0.0
  0
VERTEX
  5
   37E
  8
0
  6
CONTINUOUS
 10
168.532294796238
 20
286.611496727244
 30
0.0
 40
0.0
 41
0.0
  0
VERTEX
  5
   37F
  8
0
  6
CONTINUOUS
 10
168.54648304802
 20
286.779962986705
 30
0.0
 40
0.0
 41
0.0
  0
SEQEND
  5
   380
  8
0
  6
CONTINUOUS
 62
     1
  0
POLYLINE
  5
   381
  8
0
  6
CONTINUOUS
 62
     1
 66
     1
 10
0.0
 20
0.0
 30
0.0
  0
VERTEX
  5
   382
  8
0
  6
CONTINUOUS
 10
168.54648304802
 20
286.779962986711
 30
0.0
 40
0.0
 41
0.0
  0
VERTEX
  5
   383
  8
0
  6
CONTINUOUS
 10
168.391728282061
 20
287.330931621947
 30
0.0
 40
0.0
 41
0.0
  0
VERTEX
  5
   384
  8
0
  6
CONTINUOUS
 10
168.28617339357
 20
287.489666522816
 30
0.0
 40
0.0
 41
0.0
  0
SEQEND
  5
   385
  8
0
  6
CONTINUOUS
 62
     1
  0
POLYLINE
  5
   386
  8
0
  6
CONTINUOUS
 62
     1
 66
     1
 10
0.0
 20
0.0
 30
0.0
  0
VERTEX
  5
   387
  8
0
  6
CONTINUOUS
 10
168.282618690029
 20
287.494118234283
 30
0.0
 40
0.0
 41
0.0
  0
VERTEX
  5
   388
  8
0
  6
CONTINUOUS
 10
167.805570372777
 20
287.939607730799
 30
0.0
 40
0.0
 41
0.0
  0
VERTEX
  5
   389
  8
0
  6
CONTINUOUS
 10
167.119951252629
 20
288.311064033666
 30
0.0
 40
0.0
 41
0.0
  0
VERTEX
  5
   38A
  8
0
  6
CONTINUOUS
 10
165.310229977316
 20
288.743150239762
 30
0.0
 40
0.0
 41
0.0
  0
VERTEX
  5
   38B
  8
0
  6
CONTINUOUS
 10
163.309198327988
 20
288.681839463828
 30
0.0
 40
0.0
 41
0.0
  0
SEQEND
  5
   38C
  8
0
  6
CONTINUOUS
 62
     1
  0
POLYLINE
  5
   38D
  8
0
  6
CONTINUOUS
 62
     1
 66
     1
 10
0.0
 20
0.0
 30
0.0
  0
VERTEX
  5
   38E
  8
0
  6
CONTINUOUS
 10
162.546498278966
 20
288.511963726732
 30
0.0
 40
0.0
 41
0.0
  0
VERTEX
  5
   38F
  8
0
  6
CONTINUOUS
 10
161.482098462931
 20
288.065474106465
 30
0.0
 40
0.0
 41
0.0
  0
VERTEX
  5
   390
  8
0
  6
CONTINUOUS
 10
160.787878008002
 20
287.46396035166
 30
0.0
 40
0.0
 41
0.0
  0
VERTEX
  5
   391
  8
0
  6
CONTINUOUS
 10
160.546484149519
 20
286.779962986711
 30
0.0
 40
0.0
 41
0.0
  0
SEQEND
  5
   392
  8
0
  6
CONTINUOUS
 62
     1
  0
POLYLINE
  5
   393
  8
0
  6
CONTINUOUS
 62
     1
 66
     1
 10
0.0
 20
0.0
 30
0.0
  0
VERTEX
  5
   394
  8
0
  6
CONTINUOUS
 10
160.819556321029
 20
286.053862715959
 30
0.0
 40
0.0
 41
0.0
  0
VERTEX
  5
   395
  8
0
  6
CONTINUOUS
 10
161.681311464833
 20
285.38433628784
 30
0.0
 40
0.0
 41
0.0
  0
VERTEX
  5
   396
  8
0
  6
CONTINUOUS
 10
162.997694456688
 20
284.936019808847
 30
0.0
 40
0.0
 41
0.0
  0
VERTEX
  5
   397
  8
0
  6
CONTINUOUS
 10
164.558913821711
 20
284.779972804982
 30
0.0
 40
0.0
 41
0.0
  0
VERTEX
  5
   398
  8
0
  6
CONTINUOUS
 10
166.118171851829
 20
284.940870697476
 30
0.0
 40
0.0
 41
0.0
  0
VERTEX
  5
   399
  8
0
  6
CONTINUOUS
 10
167.428960114322
 20
285.39327040104
 30
0.0
 40
0.0
 41
0.0
  0
VERTEX
  5
   39A
  8
0
  6
CONTINUOUS
 10
168.282354960374
 20
286.065462411878
 30
0.0
 40
0.0
 41
0.0
  0
SEQEND
  5
   39B
  8
0
  6
CONTINUOUS
 62
     1
  0
POLYLINE
  5
   39C
  8
0
  6
CONTINUOUS
 62
     1
 66
     1
 10
0.0
 20
0.0
 30
0.0
  0
VERTEX
  5
   39D
  8
0
  6
CONTINUOUS
 10
160.546484149519
 20
286.779962986705
 30
0.0
 40
0.0
 41
0.0
  0
VERTEX
  5
   39E
  8
0
  6
CONTINUOUS
 10
160.699217582508
 20
286.233178295388
 30
0.0
 40
0.0
 41
0.0
  0
SEQEND
  5
   39F
  8
0
  6
CONTINUOUS
 62
     1
  0
POLYLINE
  5
   3A0
  8
0
  6
CONTINUOUS
 62
     1
 66
     1
 10
0.0
 20
0.0
 30
0.0
  0
VERTEX
  5
   3A1
  8
0
  6
CONTINUOUS
 10
163.259759626884
 20
288.673664615491
 30
0.0
 40
0.0
 41
0.0
  0
VERTEX
  5
   3A2
  8
0
  6
CONTINUOUS
 10
165.175798222913
 20
288.755073900601
 30
0.0
 40
0.0
 41
0.0
  0
VERTEX
  5
   3A3
  8
0
  6
CONTINUOUS
 10
165.811121364358
 20
288.677385572849
 30
0.0
 40
0.0
 41
0.0
  0
SEQEND
  5
   3A4
  8
0
  6
CONTINUOUS
 62
     1
  0
LINE
  5
   3A5
  8
0
  6
CONTINUOUS
 62
     1
 10
110.384154300478
 20
316.699963432551
 30
0.0
 11
112.610057653959
 21
316.699963432551
 31
0.0
  0
LINE
  5
   3A6
  8
0
  6
CONTINUOUS
 62
     1
 10
168.477334487423
 20
316.699963432551
 30
0.0
 11
170.708811113692
 21
316.699963432551
 31
0.0
  0
LINE
  5
   3A7
  8
0
  6
CONTINUOUS
 62
     1
 10
110.22709253056
 20
316.699963432551
 30
0.0
 11
110.384154300478
 21
316.699963432551
 31
0.0
  0
LINE
  5
   3A8
  8
0
  6
CONTINUOUS
 62
     1
 10
112.610057653959
 20
316.699963432551
 30
0.0
 11
168.477334487423
 21
316.699963432551
 31
0.0
  0
LINE
  5
   3A9
  8
0
  6
CONTINUOUS
 62
     1
 10
170.708811113692
 20
316.699963432551
 30
0.0
 11
170.865873265081
 21
316.699963432551
 31
0.0
  0
LINE
  5
   3AA
  8
0
  6
CONTINUOUS
 62
     7
 10
162.146484173369
 20
285.258271069501
 30
0.0
 11
162.146484173369
 21
285.303211255718
 31
0.0
  0
LINE
  5
   3AB
  8
0
  6
CONTINUOUS
 62
     7
 10
161.346484161448
 20
287.840021596254
 30
0.0
 11
161.346484161448
 21
287.911597525055
 31
0.0
  0
LINE
  5
   3AC
  8
0
  6
CONTINUOUS
 62
     7
 10
161.398095490333
 20
287.939963003996
 30
0.0
 11
161.477372530088
 21
287.939963003996
 31
0.0
  0
LINE
  5
   3AD
  8
0
  6
CONTINUOUS
 62
     7
 10
167.605079530578
 20
287.939963003996
 30
0.0
 11
167.659339785293
 21
287.939963003996
 31
0.0
  0
LINE
  5
   3AE
  8
0
  6
CONTINUOUS
 62
     7
 10
167.746484256816
 20
287.823578724915
 30
0.0
 11
167.746484256816
 21
287.89574669474
 31
0.0
  0
LINE
  5
   3AF
  8
0
  6
CONTINUOUS
 62
     7
 10
166.946484244895
 20
285.267914624333
 30
0.0
 11
166.946484244895
 21
285.298566480258
 31
0.0
  0
LINE
  5
   3B0
  8
0
  6
CONTINUOUS
 62
     7
 10
167.746484256816
 20
285.644239092831
 30
0.0
 11
167.746484256816
 21
285.77086873339
 31
0.0
  0
LINE
  5
   3B1
  8
0
  6
CONTINUOUS
 62
     7
 10
168.108750039792
 20
286.099962976578
 30
0.0
 11
168.170976908395
 21
286.099962976578
 31
0.0
  0
LINE
  5
   3B2
  8
0
  6
CONTINUOUS
 62
     7
 10
161.346484161448
 20
285.664179278675
 30
0.0
 11
161.346484161448
 21
285.754566242912
 31
0.0
  0
ARC
  5
   3B3
  8
0
  6
CONTINUOUS
 62
     7
 10
126.546483642878
 20
259.179962575436
 30
0.0
 40
1.68000033020967
 50
180.001457121504
 51
359.999375523083
  0
ARC
  5
   3B4
  8
0
  6
CONTINUOUS
 62
     7
 10
126.546483642878
 20
259.179962575436
 30
0.0
 40
1.68000033020967
 50
56.8538214296334
 51
123.000138602976
  0
ARC
  5
   3B5
  8
0
  6
CONTINUOUS
 62
     7
 10
126.546483642879
 20
259.179962575436
 30
0.0
 40
1.68000033020923
 50
1.76936817513076E-3
 51
45.29441420195
  0
ARC
  5
   3B6
  8
0
  6
CONTINUOUS
 62
     7
 10
126.546483642878
 20
259.179962575436
 30
0.0
 40
1.68000033020943
 50
134.706398935012
 51
179.998230632236
  0
LINE
  5
   3B7
  8
0
  6
CONTINUOUS
 62
     7
 10
125.346483624997
 20
247.979962408543
 30
0.0
 11
125.346483624997
 21
249.579962432385
 31
0.0
  0
LINE
  5
   3B8
  8
0
  6
CONTINUOUS
 62
     7
 10
124.346483610096
 20
249.579962432385
 30
0.0
 11
125.346483624997
 21
249.579962432385
 31
0.0
  0
LINE
  5
   3B9
  8
0
  6
CONTINUOUS
 62
     7
 10
124.346483610096
 20
251.179962456226
 30
0.0
 11
128.746483675661
 21
251.179962456226
 31
0.0
  0
LINE
  5
   3BA
  8
0
  6
CONTINUOUS
 62
     7
 10
127.746483660759
 20
247.979962408543
 30
0.0
 11
127.746483660759
 21
249.579962432385
 31
0.0
  0
LINE
  5
   3BB
  8
0
  6
CONTINUOUS
 62
     7
 10
127.74648366076
 20
249.579962432385
 30
0.0
 11
128.746483675661
 21
249.579962432385
 31
0.0
  0
LINE
  5
   3BC
  8
0
  6
CONTINUOUS
 62
     7
 10
128.746483675661
 20
247.979962408543
 30
0.0
 11
128.746483675661
 21
248.779962420464
 31
0.0
  0
LINE
  5
   3BD
  8
0
  6
CONTINUOUS
 62
     7
 10
124.346483610096
 20
247.979962408543
 30
0.0
 11
124.346483610096
 21
248.779962420464
 31
0.0
  0
LINE
  5
   3BE
  8
0
  6
CONTINUOUS
 62
     7
 10
152.346484027328
 20
251.179962456226
 30
0.0
 11
156.746484092893
 21
251.179962456226
 31
0.0
  0
LINE
  5
   3BF
  8
0
  6
CONTINUOUS
 62
     7
 10
155.746484077992
 20
247.979962408543
 30
0.0
 11
155.746484077992
 21
249.579962432385
 31
0.0
  0
LINE
  5
   3C0
  8
0
  6
CONTINUOUS
 62
     7
 10
155.746484077992
 20
249.579962432385
 30
0.0
 11
156.746484092893
 21
249.579962432385
 31
0.0
  0
LINE
  5
   3C1
  8
0
  6
CONTINUOUS
 62
     7
 10
153.34648404223
 20
247.979962408543
 30
0.0
 11
153.34648404223
 21
249.579962432385
 31
0.0
  0
LINE
  5
   3C2
  8
0
  6
CONTINUOUS
 62
     7
 10
152.346484027328
 20
249.579962432385
 30
0.0
 11
153.346484042229
 21
249.579962432385
 31
0.0
  0
LINE
  5
   3C3
  8
0
  6
CONTINUOUS
 62
     7
 10
152.346484027328
 20
247.979962408543
 30
0.0
 11
152.346484027328
 21
248.779962420464
 31
0.0
  0
LINE
  5
   3C4
  8
0
  6
CONTINUOUS
 62
     7
 10
156.746484092893
 20
247.979962408543
 30
0.0
 11
156.746484092893
 21
248.779962420464
 31
0.0
  0
LINE
  5
   3C5
  8
0
  6
CONTINUOUS
 62
     7
 10
180.546484447541
 20
249.579962432384
 30
0.0
 11
181.346484459462
 21
249.579962432384
 31
0.0
  0
LINE
  5
   3C6
  8
0
  6
CONTINUOUS
 62
     7
 10
181.346484459462
 20
248.779962420464
 30
0.0
 11
181.346484459462
 21
249.579962432385
 31
0.0
  0
ARC
  5
   3C7
  8
0
  6
CONTINUOUS
 62
     7
 10
180.546474430118
 20
248.779972437751
 30
0.0
 40
0.800021378969993
 50
270.000717436069
 51
359.999282573543
  0
ARC
  5
   3C8
  8
0
  6
CONTINUOUS
 62
     7
 10
100.546493272871
 20
248.779972437752
 30
0.0
 40
0.800021378970389
 50
180.000717426457
 51
269.999282563901
  0
LINE
  5
   3C9
  8
0
  6
CONTINUOUS
 62
     7
 10
99.7464832435267
 20
248.779962420464
 30
0.0
 11
99.7464832435267
 21
249.579962432385
 31
0.0
  0
ARC
  5
   3CA
  8
0
  6
CONTINUOUS
 62
     7
 10
154.546484060111
 20
259.179962575436
 30
0.0
 40
1.68000033020999
 50
134.416970462374
 51
180.0
  0
ARC
  5
   3CB
  8
0
  6
CONTINUOUS
 62
     7
 10
154.546484060111
 20
259.179962575436
 30
0.0
 40
1.68000033020974
 50
180.0
 51
360.0
  0
ARC
  5
   3CC
  8
0
  6
CONTINUOUS
 62
     7
 10
154.546484060111
 20
259.179962575436
 30
0.0
 40
1.68000033020972
 50
45.584685714089
 51
134.416970462367
  0
ARC
  5
   3CD
  8
0
  6
CONTINUOUS
 62
     7
 10
154.546484060111
 20
259.179962575436
 30
0.0
 40
1.68000033020951
 50
0.0
 51
45.5846857140939
  0
LINE
  5
   3CE
  8
0
  6
CONTINUOUS
 62
     7
 10
182.546484477345
 20
252.779962480068
 30
0.0
 11
182.546484477345
 21
267.739963313341
 31
0.0
  0
LINE
  5
   3CF
  8
0
  6
CONTINUOUS
 62
     7
 10
181.346484459462
 20
252.779962480068
 30
0.0
 11
182.546484477343
 21
252.779962480068
 31
0.0
  0
LINE
  5
   3D0
  8
0
  6
CONTINUOUS
 62
     7
 10
180.946484453501
 20
251.979962468147
 30
0.0
 11
180.946484453501
 21
252.779962480068
 31
0.0
  0
LINE
  5
   3D1
  8
0
  6
CONTINUOUS
 62
     7
 10
179.74648443562
 20
251.979962468147
 30
0.0
 11
180.946484453501
 21
251.979962468147
 31
0.0
  0
LINE
  5
   3D2
  8
0
  6
CONTINUOUS
 62
     7
 10
100.146483249488
 20
251.979962468147
 30
0.0
 11
100.146483249488
 21
252.779962480068
 31
0.0
  0
LINE
  5
   3D3
  8
0
  6
CONTINUOUS
 62
     7
 10
98.5464832256457
 20
252.779962480068
 30
0.0
 11
99.7464832435271
 21
252.779962480068
 31
0.0
  0
LINE
  5
   3D4
  8
0
  6
CONTINUOUS
 62
     7
 10
98.5464832256438
 20
252.779962480068
 30
0.0
 11
98.5464832256438
 21
267.739963313341
 31
0.0
  0
LINE
  5
   3D5
  8
0
  6
CONTINUOUS
 62
     7
 10
156.746484092893
 20
247.979962408543
 30
0.0
 11
180.546484447541
 21
247.979962408543
 31
0.0
  0
LINE
  5
   3D6
  8
0
  6
CONTINUOUS
 62
     7
 10
100.546483255448
 20
247.979962408543
 30
0.0
 11
124.346483610096
 21
247.979962408543
 31
0.0
  0
LINE
  5
   3D7
  8
0
  6
CONTINUOUS
 62
     7
 10
128.746483675661
 20
247.979962408543
 30
0.0
 11
152.346484027328
 21
247.979962408543
 31
0.0
  0
LINE
  5
   3D8
  8
0
  6
CONTINUOUS
 62
     7
 10
124.346483610096
 20
247.979962408543
 30
0.0
 11
125.346483624997
 21
247.979962408543
 31
0.0
  0
LINE
  5
   3D9
  8
0
  6
CONTINUOUS
 62
     7
 10
127.74648366076
 20
247.979962408543
 30
0.0
 11
128.746483675661
 21
247.979962408543
 31
0.0
  0
LINE
  5
   3DA
  8
0
  6
CONTINUOUS
 62
     7
 10
155.746484077992
 20
247.979962408543
 30
0.0
 11
156.746484092893
 21
247.979962408543
 31
0.0
  0
LINE
  5
   3DB
  8
0
  6
CONTINUOUS
 62
     7
 10
152.346484027328
 20
247.979962408543
 30
0.0
 11
153.346484042229
 21
247.979962408543
 31
0.0
  0
LINE
  5
   3DC
  8
0
  6
CONTINUOUS
 62
     7
 10
99.7464832435271
 20
249.579962432384
 30
0.0
 11
100.546483255448
 21
249.579962432384
 31
0.0
  0
LINE
  5
   3DD
  8
0
  6
CONTINUOUS
 62
     7
 10
100.146483249488
 20
251.979962468142
 30
0.0
 11
101.346483267369
 21
251.979962468142
 31
0.0
  0
CIRCLE
  5
   3DE
  8
0
  6
CONTINUOUS
 62
     7
 10
140.546483851528
 20
250.379962444224
 30
0.0
 40
0.880000013112992
  0
LINE
  5
   3DF
  8
0
  6
CONTINUOUS
 62
     7
 10
128.746483675661
 20
248.779962420464
 30
0.0
 11
128.746483675661
 21
252.779962480068
 31
0.0
  0
LINE
  5
   3E0
  8
0
  6
CONTINUOUS
 62
     7
 10
124.346483610096
 20
248.779962420464
 30
0.0
 11
124.346483610096
 21
252.779962480068
 31
0.0
  0
LINE
  5
   3E1
  8
0
  6
CONTINUOUS
 62
     7
 10
152.346484027328
 20
248.779962420464
 30
0.0
 11
152.346484027328
 21
252.779962480068
 31
0.0
  0
LINE
  5
   3E2
  8
0
  6
CONTINUOUS
 62
     7
 10
156.746484092893
 20
248.779962420464
 30
0.0
 11
156.746484092893
 21
252.779962480068
 31
0.0
  0
LINE
  5
   3E3
  8
0
  6
CONTINUOUS
 62
     7
 10
179.74648443562
 20
249.579962432385
 30
0.0
 11
179.74648443562
 21
251.979962468147
 31
0.0
  0
LINE
  5
   3E4
  8
0
  6
CONTINUOUS
 62
     7
 10
179.74648443562
 20
249.579962432384
 30
0.0
 11
180.546484447541
 21
249.579962432384
 31
0.0
  0
LINE
  5
   3E5
  8
0
  6
CONTINUOUS
 62
     7
 10
101.346483267369
 20
251.979962468147
 30
0.0
 11
101.346483267369
 21
252.779962480068
 31
0.0
  0
LINE
  5
   3E6
  8
0
  6
CONTINUOUS
 62
     7
 10
179.74648443562
 20
251.979962468147
 30
0.0
 11
179.74648443562
 21
252.779962480068
 31
0.0
  0
LINE
  5
   3E7
  8
0
  6
CONTINUOUS
 62
     7
 10
156.746484092893
 20
252.779962480068
 30
0.0
 11
179.74648443562
 21
252.779962480068
 31
0.0
  0
LINE
  5
   3E8
  8
0
  6
CONTINUOUS
 62
     7
 10
128.746483675661
 20
252.779962480068
 30
0.0
 11
152.346484027328
 21
252.779962480068
 31
0.0
  0
LINE
  5
   3E9
  8
0
  6
CONTINUOUS
 62
     7
 10
101.346483267369
 20
252.779962480068
 30
0.0
 11
124.346483610096
 21
252.779962480068
 31
0.0
  0
LINE
  5
   3EA
  8
0
  6
CONTINUOUS
 62
     7
 10
100.546483255448
 20
249.579962432384
 30
0.0
 11
101.346483267369
 21
249.579962432384
 31
0.0
  0
LINE
  5
   3EB
  8
0
  6
CONTINUOUS
 62
     7
 10
101.346483267369
 20
249.579962432385
 30
0.0
 11
101.346483267369
 21
251.979962468147
 31
0.0
  0
LINE
  5
   3EC
  8
0
  6
CONTINUOUS
 62
     7
 10
165.746484226948
 20
288.576917359188
 30
0.0
 11
165.746484226948
 21
288.60622033814
 31
0.0
  0
LINE
  5
   3ED
  8
0
  6
CONTINUOUS
 62
     7
 10
163.346484191185
 20
288.503650756533
 30
0.0
 11
163.346484191185
 21
288.594007203192
 31
0.0
  0
LINE
  5
   3EE
  8
0
  6
CONTINUOUS
 62
     7
 10
132.146483726325
 20
289.699360827479
 30
0.0
 11
148.946483976664
 21
289.699360827479
 31
0.0
  0
LINE
  5
   3EF
  8
0
  6
CONTINUOUS
 62
     7
 10
132.146483726325
 20
312.992633976515
 30
0.0
 11
132.546483732285
 21
312.992633976515
 31
0.0
  0
LINE
  5
   3F0
  8
0
  6
CONTINUOUS
 62
     7
 10
148.546483970704
 20
312.992633976515
 30
0.0
 11
148.946483976664
 21
312.992633976515
 31
0.0
  0
LINE
  5
   3F1
  8
0
  6
CONTINUOUS
 62
     7
 10
111.426483417573
 20
283.179962933064
 30
0.0
 11
111.426483417573
 21
283.259961713552
 31
0.0
  0
LINE
  5
   3F2
  8
0
  6
CONTINUOUS
 62
     7
 10
111.426483417573
 20
316.699964653254
 30
0.0
 11
111.426483417573
 21
316.779963433743
 31
0.0
  0
POLYLINE
  5
   3F3
  8
0
  6
CONTINUOUS
 62
     7
 66
     1
 10
0.0
 20
0.0
 30
0.0
  0
VERTEX
  5
   3F4
  8
0
  6
CONTINUOUS
 10
132.664234334242
 20
285.982268625102
 30
0.0
 40
0.0
 41
0.0
  0
VERTEX
  5
   3F5
  8
0
  6
CONTINUOUS
 10
133.106483146715
 20
286.139962977171
 30
0.0
 40
0.0
 41
0.0
  0
SEQEND
  5
   3F6
  8
0
  6
CONTINUOUS
 62
     7
  0
POLYLINE
  5
   3F7
  8
0
  6
CONTINUOUS
 62
     7
 66
     1
 10
0.0
 20
0.0
 30
0.0
  0
VERTEX
  5
   3F8
  8
0
  6
CONTINUOUS
 10
148.428738776098
 20
285.982268025507
 30
0.0
 40
0.0
 41
0.0
  0
VERTEX
  5
   3F9
  8
0
  6
CONTINUOUS
 10
147.986484548334
 20
286.13996297717
 30
0.0
 40
0.0
 41
0.0
  0
SEQEND
  5
   3FA
  8
0
  6
CONTINUOUS
 62
     7
  0
LINE
  5
   3FB
  8
0
  6
CONTINUOUS
 62
     7
 10
132.706484345021
 20
285.979962974787
 30
0.0
 11
148.386483357968
 21
285.979962974787
 31
0.0
  0
POLYLINE
  5
   3FC
  8
0
  6
CONTINUOUS
 62
     7
 66
     1
 10
0.0
 20
0.0
 30
0.0
  0
VERTEX
  5
   3FD
  8
0
  6
CONTINUOUS
 10
133.10648374063
 20
289.011113361532
 30
0.0
 40
0.0
 41
0.0
  0
VERTEX
  5
   3FE
  8
0
  6
CONTINUOUS
 10
132.645662680083
 20
289.170504515604
 30
0.0
 40
0.0
 41
0.0
  0
SEQEND
  5
   3FF
  8
0
  6
CONTINUOUS
 62
     7
  0
POLYLINE
  5
   400
  8
0
  6
CONTINUOUS
 62
     7
 66
     1
 10
0.0
 20
0.0
 30
0.0
  0
VERTEX
  5
   401
  8
0
  6
CONTINUOUS
 10
147.986483962359
 20
289.011113361532
 30
0.0
 40
0.0
 41
0.0
  0
VERTEX
  5
   402
  8
0
  6
CONTINUOUS
 10
148.447305021652
 20
289.170504515604
 30
0.0
 40
0.0
 41
0.0
  0
SEQEND
  5
   403
  8
0
  6
CONTINUOUS
 62
     7
  0
LINE
  5
   404
  8
0
  6
CONTINUOUS
 62
     7
 10
132.30648433906
 20
289.227716929432
 30
0.0
 11
132.556838346697
 21
289.17957850098
 31
0.0
  0
LINE
  5
   405
  8
0
  6
CONTINUOUS
 62
     7
 10
132.556838346697
 20
289.17957850098
 30
0.0
 11
132.645635345091
 21
289.170502573111
 31
0.0
  0
LINE
  5
   406
  8
0
  6
CONTINUOUS
 62
     7
 10
148.44732930614
 20
289.170502573111
 30
0.0
 11
148.536135459807
 21
289.17957850098
 31
0.0
  0
LINE
  5
   407
  8
0
  6
CONTINUOUS
 62
     7
 10
148.536135459807
 20
289.17957850098
 30
0.0
 11
148.786483363929
 21
289.227716929432
 31
0.0
  0
LINE
  5
   408
  8
0
  6
CONTINUOUS
 62
     7
 10
99.7464832435271
 20
252.779962479569
 30
0.0
 11
100.546483255448
 21
252.779962479569
 31
0.0
  0
LINE
  5
   409
  8
0
  6
CONTINUOUS
 62
     7
 10
180.546484447541
 20
252.779962479569
 30
0.0
 11
181.346484459462
 21
252.779962479569
 31
0.0
  0
LINE
  5
   40A
  8
0
  6
CONTINUOUS
 62
     7
 10
99.7464832435271
 20
363.179964125156
 30
0.0
 11
100.546483255448
 21
363.179964125156
 31
0.0
  0
LINE
  5
   40B
  8
0
  6
CONTINUOUS
 62
     7
 10
180.546484447541
 20
363.179964125156
 30
0.0
 11
181.346484459462
 21
363.179964125156
 31
0.0
  0
LINE
  5
   40C
  8
0
  6
CONTINUOUS
 62
     7
 10
169.666484285415
 20
283.179962933064
 30
0.0
 11
169.666484285415
 21
283.259961713552
 31
0.0
  0
LINE
  5
   40D
  8
0
  6
CONTINUOUS
 62
     7
 10
169.666484285415
 20
316.699964653254
 30
0.0
 11
169.666484285415
 21
316.779963433743
 31
0.0
  0
LINE
  5
   40E
  8
0
  6
CONTINUOUS
 62
     7
 10
100.746483258428
 20
281.979962915182
 30
0.0
 11
101.146483264389
 21
281.979962915182
 31
0.0
  0
LINE
  5
   40F
  8
0
  6
CONTINUOUS
 62
     7
 10
179.9464844386
 20
281.979962915182
 30
0.0
 11
180.346484444561
 21
281.979962915182
 31
0.0
  0
LINE
  5
   410
  8
0
  6
CONTINUOUS
 62
     7
 10
98.6837573976131
 20
281.979962915182
 30
0.0
 11
100.746483258428
 21
281.979962915182
 31
0.0
  0
LINE
  5
   411
  8
0
  6
CONTINUOUS
 62
     7
 10
180.346484444561
 20
281.979962915182
 30
0.0
 11
182.409211831255
 21
281.979962915182
 31
0.0
  0
LINE
  5
   412
  8
0
  6
CONTINUOUS
 62
     7
 10
109.386485828581
 20
281.979962915182
 30
0.0
 11
109.786485834541
 21
281.979962915182
 31
0.0
  0
LINE
  5
   413
  8
0
  6
CONTINUOUS
 62
     7
 10
107.946483365717
 20
281.979962915182
 30
0.0
 11
108.346483371677
 21
281.979962915182
 31
0.0
  0
LINE
  5
   414
  8
0
  6
CONTINUOUS
 62
     7
 10
106.506480902853
 20
281.979962915182
 30
0.0
 11
106.906480908813
 21
281.979962915182
 31
0.0
  0
LINE
  5
   415
  8
0
  6
CONTINUOUS
 62
     7
 10
102.186485721292
 20
281.979962915182
 30
0.0
 11
102.586485727253
 21
281.979962915182
 31
0.0
  0
LINE
  5
   416
  8
0
  6
CONTINUOUS
 62
     7
 10
105.066484543504
 20
281.979962915182
 30
0.0
 11
105.466484549465
 21
281.979962915182
 31
0.0
  0
LINE
  5
   417
  8
0
  6
CONTINUOUS
 62
     7
 10
103.62648208064
 20
281.979962915182
 30
0.0
 11
104.026482086601
 21
281.979962915182
 31
0.0
  0
LINE
  5
   418
  8
0
  6
CONTINUOUS
 62
     7
 10
171.306484157266
 20
281.979962915182
 30
0.0
 11
171.706484163227
 21
281.979962915182
 31
0.0
  0
LINE
  5
   419
  8
0
  6
CONTINUOUS
 62
     7
 10
172.746484331312
 20
281.979962915182
 30
0.0
 11
173.146484337272
 21
281.979962915182
 31
0.0
  0
LINE
  5
   41A
  8
0
  6
CONTINUOUS
 62
     7
 10
174.186484314623
 20
281.979962915182
 30
0.0
 11
174.586484320583
 21
281.979962915182
 31
0.0
  0
LINE
  5
   41B
  8
0
  6
CONTINUOUS
 62
     7
 10
178.50648445529
 20
281.979962915182
 30
0.0
 11
178.906484270515
 21
281.979962915182
 31
0.0
  0
LINE
  5
   41C
  8
0
  6
CONTINUOUS
 62
     7
 10
175.626484375419
 20
281.979962915182
 30
0.0
 11
176.026484375419
 21
281.979962915182
 31
0.0
  0
LINE
  5
   41D
  8
0
  6
CONTINUOUS
 62
     7
 10
177.066484376611
 20
281.979962915182
 30
0.0
 11
177.466484477939
 21
281.979962915182
 31
0.0
  0
LINE
  5
   41E
  8
0
  6
CONTINUOUS
 62
     7
 10
100.746483258428
 20
317.979963451624
 30
0.0
 11
101.146483264389
 21
317.979963451624
 31
0.0
  0
LINE
  5
   41F
  8
0
  6
CONTINUOUS
 62
     7
 10
179.9464844386
 20
317.979963451624
 30
0.0
 11
180.346484444561
 21
317.979963451624
 31
0.0
  0
LINE
  5
   420
  8
0
  6
CONTINUOUS
 62
     7
 10
98.6837573976131
 20
317.979963451621
 30
0.0
 11
100.746483258428
 21
317.979963451621
 31
0.0
  0
LINE
  5
   421
  8
0
  6
CONTINUOUS
 62
     7
 10
180.346484444561
 20
317.979963451624
 30
0.0
 11
182.407077889573
 21
317.979963451624
 31
0.0
  0
LINE
  5
   422
  8
0
  6
CONTINUOUS
 62
     7
 10
109.386485828581
 20
317.979963451624
 30
0.0
 11
109.786485834541
 21
317.979963451624
 31
0.0
  0
LINE
  5
   423
  8
0
  6
CONTINUOUS
 62
     7
 10
107.946483365717
 20
317.979963451624
 30
0.0
 11
108.346483371677
 21
317.979963451624
 31
0.0
  0
LINE
  5
   424
  8
0
  6
CONTINUOUS
 62
     7
 10
106.506480902853
 20
317.979963451624
 30
0.0
 11
106.906480908813
 21
317.979963451624
 31
0.0
  0
LINE
  5
   425
  8
0
  6
CONTINUOUS
 62
     7
 10
102.186485721292
 20
317.979963451624
 30
0.0
 11
102.586485727253
 21
317.979963451624
 31
0.0
  0
LINE
  5
   426
  8
0
  6
CONTINUOUS
 62
     7
 10
105.066484543504
 20
317.979963451624
 30
0.0
 11
105.466484549465
 21
317.979963451624
 31
0.0
  0
LINE
  5
   427
  8
0
  6
CONTINUOUS
 62
     7
 10
103.62648208064
 20
317.979963451624
 30
0.0
 11
104.026482086601
 21
317.979963451624
 31
0.0
  0
LINE
  5
   428
  8
0
  6
CONTINUOUS
 62
     7
 10
171.306484157266
 20
317.979963451624
 30
0.0
 11
171.706484163227
 21
317.979963451624
 31
0.0
  0
LINE
  5
   429
  8
0
  6
CONTINUOUS
 62
     7
 10
172.746484331312
 20
317.979963451624
 30
0.0
 11
173.146484337272
 21
317.979963451624
 31
0.0
  0
LINE
  5
   42A
  8
0
  6
CONTINUOUS
 62
     7
 10
174.186484314623
 20
317.979963451624
 30
0.0
 11
174.586484320583
 21
317.979963451624
 31
0.0
  0
LINE
  5
   42B
  8
0
  6
CONTINUOUS
 62
     7
 10
178.50648445529
 20
317.979963451624
 30
0.0
 11
178.906484270515
 21
317.979963451624
 31
0.0
  0
LINE
  5
   42C
  8
0
  6
CONTINUOUS
 62
     7
 10
175.626484375419
 20
317.979963451624
 30
0.0
 11
176.026484375419
 21
317.979963451624
 31
0.0
  0
LINE
  5
   42D
  8
0
  6
CONTINUOUS
 62
     7
 10
177.066484376611
 20
317.979963451624
 30
0.0
 11
177.466484477939
 21
317.979963451624
 31
0.0
  0
LINE
  5
   42E
  8
0
  6
CONTINUOUS
 62
     7
 10
98.5464832256457
 20
281.979962915182
 30
0.0
 11
98.6837573976131
 21
281.979962915182
 31
0.0
  0
LINE
  5
   42F
  8
0
  6
CONTINUOUS
 62
     7
 10
182.409211831255
 20
281.979962915182
 30
0.0
 11
182.546484477343
 21
281.979962915182
 31
0.0
  0
LINE
  5
   430
  8
0
  6
CONTINUOUS
 62
     7
 10
98.5464832256457
 20
317.979963451622
 30
0.0
 11
98.6837573976131
 21
317.979963451622
 31
0.0
  0
LINE
  5
   431
  8
0
  6
CONTINUOUS
 62
     7
 10
182.407077889573
 20
317.979963451624
 30
0.0
 11
182.546484477343
 21
317.979963451624
 31
0.0
  0
LINE
  5
   432
  8
0
  6
CONTINUOUS
 62
     7
 10
132.306483728709
 20
286.379962980747
 30
0.0
 11
132.306483728709
 21
286.517041840212
 31
0.0
  0
LINE
  5
   433
  8
0
  6
CONTINUOUS
 62
     7
 10
132.306483728709
 20
286.517041840212
 30
0.0
 11
132.306483728709
 21
289.227716929432
 31
0.0
  0
LINE
  5
   434
  8
0
  6
CONTINUOUS
 62
     7
 10
132.306483728709
 20
289.227716929432
 30
0.0
 11
132.306483728709
 21
289.276709850084
 31
0.0
  0
LINE
  5
   435
  8
0
  6
CONTINUOUS
 62
     7
 10
148.78648397428
 20
286.379962980747
 30
0.0
 11
148.78648397428
 21
286.517041840212
 31
0.0
  0
LINE
  5
   436
  8
0
  6
CONTINUOUS
 62
     7
 10
148.78648397428
 20
286.517041840212
 30
0.0
 11
148.78648397428
 21
289.227716929432
 31
0.0
  0
LINE
  5
   437
  8
0
  6
CONTINUOUS
 62
     7
 10
148.78648397428
 20
289.227716929432
 30
0.0
 11
148.78648397428
 21
289.276709850084
 31
0.0
  0
CIRCLE
  5
   438
  8
0
  6
CONTINUOUS
 62
     7
 10
168.546484268727
 20
261.579962610699
 30
0.0
 40
4.80000007152558
  0
CIRCLE
  5
   439
  8
0
  6
CONTINUOUS
 62
     7
 10
140.546483851494
 20
261.579962610699
 30
0.0
 40
4.80000007152557
  0
CIRCLE
  5
   43A
  8
0
  6
CONTINUOUS
 62
     7
 10
112.546483434262
 20
261.579962610699
 30
0.0
 40
4.80000007152558
  0
LINE
  5
   43B
  8
0
  6
CONTINUOUS
 62
     7
 10
100.546483255448
 20
252.779962479569
 30
0.0
 11
180.546484447541
 21
252.779962479569
 31
0.0
  0
LINE
  5
   43C
  8
0
  6
CONTINUOUS
 62
     7
 10
181.346484459462
 20
252.779962480068
 30
0.0
 11
181.346484459462
 21
267.179962694645
 31
0.0
  0
LINE
  5
   43D
  8
0
  6
CONTINUOUS
 62
     7
 10
99.7464832435271
 20
252.779962480068
 30
0.0
 11
99.7464832435271
 21
267.179962694645
 31
0.0
  0
LINE
  5
   43E
  8
0
  6
CONTINUOUS
 62
     7
 10
99.1064807925841
 20
267.179962694145
 30
0.0
 11
100.946483261409
 21
267.179962694145
 31
0.0
  0
LINE
  5
   43F
  8
0
  6
CONTINUOUS
 62
     7
 10
180.146484441581
 20
267.179962694145
 30
0.0
 11
181.986484621587
 21
267.179962694145
 31
0.0
  0
LINE
  5
   440
  8
0
  6
CONTINUOUS
 62
     7
 10
99.1064807925841
 20
348.77996391058
 30
0.0
 11
100.946483261409
 21
348.77996391058
 31
0.0
  0
LINE
  5
   441
  8
0
  6
CONTINUOUS
 62
     7
 10
180.146484441581
 20
348.77996391058
 30
0.0
 11
181.986484621587
 21
348.77996391058
 31
0.0
  0
CIRCLE
  5
   442
  8
0
  6
CONTINUOUS
 62
     7
 10
168.546484268727
 20
354.379963994026
 30
0.0
 40
4.80000007152557
  0
CIRCLE
  5
   443
  8
0
  6
CONTINUOUS
 62
     7
 10
112.546483434262
 20
354.379963994026
 30
0.0
 40
4.80000007152553
  0
LINE
  5
   444
  8
0
  6
CONTINUOUS
 62
     7
 10
100.546483255448
 20
363.179964125156
 30
0.0
 11
180.546484447541
 21
363.179964125156
 31
0.0
  0
LINE
  5
   445
  8
0
  6
CONTINUOUS
 62
     7
 10
181.346484459462
 20
348.77996391058
 30
0.0
 11
181.346484459462
 21
363.179964125156
 31
0.0
  0
LINE
  5
   446
  8
0
  6
CONTINUOUS
 62
     7
 10
99.7464832435271
 20
348.77996391058
 30
0.0
 11
99.7464832435271
 21
363.179964125156
 31
0.0
  0
LINE
  5
   447
  8
0
  6
CONTINUOUS
 62
     7
 10
182.546484477343
 20
267.739963313341
 30
0.0
 11
182.546484477343
 21
281.979962915182
 31
0.0
  0
LINE
  5
   448
  8
0
  6
CONTINUOUS
 62
     7
 10
182.546484477343
 20
281.979962915182
 30
0.0
 11
182.546484477343
 21
317.979963451624
 31
0.0
  0
LINE
  5
   449
  8
0
  6
CONTINUOUS
 62
     7
 10
182.546484477343
 20
317.979963451624
 30
0.0
 11
182.546484477343
 21
348.219966343641
 31
0.0
  0
LINE
  5
   44A
  8
0
  6
CONTINUOUS
 62
     7
 10
98.5464832256457
 20
267.739963313341
 30
0.0
 11
98.5464832256457
 21
281.979962915182
 31
0.0
  0
LINE
  5
   44B
  8
0
  6
CONTINUOUS
 62
     7
 10
98.5464832256457
 20
281.979962915182
 30
0.0
 11
98.5464832256457
 21
317.979963451624
 31
0.0
  0
LINE
  5
   44C
  8
0
  6
CONTINUOUS
 62
     7
 10
98.5464832256457
 20
317.979963451624
 30
0.0
 11
98.5464832256457
 21
348.219966343641
 31
0.0
  0
LINE
  5
   44D
  8
0
  6
CONTINUOUS
 62
     7
 10
104.026482086601
 20
281.979962915182
 30
0.0
 11
105.066484543504
 21
281.979962915182
 31
0.0
  0
LINE
  5
   44E
  8
0
  6
CONTINUOUS
 62
     7
 10
106.906480908813
 20
281.979962915182
 30
0.0
 11
107.946483365717
 21
281.979962915182
 31
0.0
  0
LINE
  5
   44F
  8
0
  6
CONTINUOUS
 62
     7
 10
102.586485727253
 20
281.979962915182
 30
0.0
 11
103.62648208064
 21
281.979962915182
 31
0.0
  0
LINE
  5
   450
  8
0
  6
CONTINUOUS
 62
     7
 10
109.786485834541
 20
281.979962915182
 30
0.0
 11
110.06648461801
 21
281.979962915182
 31
0.0
  0
LINE
  5
   451
  8
0
  6
CONTINUOUS
 62
     7
 10
101.146483264389
 20
281.979962915182
 30
0.0
 11
102.186485721292
 21
281.979962915182
 31
0.0
  0
LINE
  5
   452
  8
0
  6
CONTINUOUS
 62
     7
 10
108.346483371677
 20
281.979962915182
 30
0.0
 11
109.386485828581
 21
281.979962915182
 31
0.0
  0
LINE
  5
   453
  8
0
  6
CONTINUOUS
 62
     7
 10
105.466484549465
 20
281.979962915182
 30
0.0
 11
106.506480902853
 21
281.979962915182
 31
0.0
  0
LINE
  5
   454
  8
0
  6
CONTINUOUS
 62
     7
 10
102.586485727253
 20
317.979963451624
 30
0.0
 11
103.62648208064
 21
317.979963451624
 31
0.0
  0
LINE
  5
   455
  8
0
  6
CONTINUOUS
 62
     7
 10
104.026482086601
 20
317.979963451624
 30
0.0
 11
105.066484543504
 21
317.979963451624
 31
0.0
  0
LINE
  5
   456
  8
0
  6
CONTINUOUS
 62
     7
 10
108.346483371677
 20
317.979963451624
 30
0.0
 11
109.386485828581
 21
317.979963451624
 31
0.0
  0
LINE
  5
   457
  8
0
  6
CONTINUOUS
 62
     7
 10
101.146483264389
 20
317.979963451624
 30
0.0
 11
102.186485721292
 21
317.979963451624
 31
0.0
  0
LINE
  5
   458
  8
0
  6
CONTINUOUS
 62
     7
 10
109.786485834541
 20
317.979963451624
 30
0.0
 11
110.06648461801
 21
317.979963451624
 31
0.0
  0
LINE
  5
   459
  8
0
  6
CONTINUOUS
 62
     7
 10
106.906480908813
 20
317.979963451624
 30
0.0
 11
107.946483365717
 21
317.979963451624
 31
0.0
  0
LINE
  5
   45A
  8
0
  6
CONTINUOUS
 62
     7
 10
105.466484549465
 20
317.979963451624
 30
0.0
 11
106.506480902853
 21
317.979963451624
 31
0.0
  0
LINE
  5
   45B
  8
0
  6
CONTINUOUS
 62
     7
 10
174.586484320583
 20
281.979962915182
 30
0.0
 11
175.626484375419
 21
281.979962915182
 31
0.0
  0
LINE
  5
   45C
  8
0
  6
CONTINUOUS
 62
     7
 10
171.706484163227
 20
281.979962915182
 30
0.0
 11
172.746484331312
 21
281.979962915182
 31
0.0
  0
LINE
  5
   45D
  8
0
  6
CONTINUOUS
 62
     7
 10
171.026484229388
 20
281.979962915182
 30
0.0
 11
171.306484157266
 21
281.979962915182
 31
0.0
  0
LINE
  5
   45E
  8
0
  6
CONTINUOUS
 62
     7
 10
178.906484270515
 20
281.979962915182
 30
0.0
 11
179.9464844386
 21
281.979962915182
 31
0.0
  0
LINE
  5
   45F
  8
0
  6
CONTINUOUS
 62
     7
 10
173.146484337272
 20
281.979962915182
 30
0.0
 11
174.186484314623
 21
281.979962915182
 31
0.0
  0
LINE
  5
   460
  8
0
  6
CONTINUOUS
 62
     7
 10
176.026484375419
 20
281.979962915182
 30
0.0
 11
177.066484376611
 21
281.979962915182
 31
0.0
  0
LINE
  5
   461
  8
0
  6
CONTINUOUS
 62
     7
 10
177.466484477939
 20
281.979962915182
 30
0.0
 11
178.50648445529
 21
281.979962915182
 31
0.0
  0
LINE
  5
   462
  8
0
  6
CONTINUOUS
 62
     7
 10
171.026484229388
 20
317.979963451624
 30
0.0
 11
171.306484157266
 21
317.979963451624
 31
0.0
  0
LINE
  5
   463
  8
0
  6
CONTINUOUS
 62
     7
 10
171.706484163227
 20
317.979963451624
 30
0.0
 11
172.746484331312
 21
317.979963451624
 31
0.0
  0
LINE
  5
   464
  8
0
  6
CONTINUOUS
 62
     7
 10
176.026484375419
 20
317.979963451624
 30
0.0
 11
177.066484376611
 21
317.979963451624
 31
0.0
  0
LINE
  5
   465
  8
0
  6
CONTINUOUS
 62
     7
 10
174.586484320583
 20
317.979963451624
 30
0.0
 11
175.626484375419
 21
317.979963451624
 31
0.0
  0
LINE
  5
   466
  8
0
  6
CONTINUOUS
 62
     7
 10
178.906484270515
 20
317.979963451624
 30
0.0
 11
179.9464844386
 21
317.979963451624
 31
0.0
  0
LINE
  5
   467
  8
0
  6
CONTINUOUS
 62
     7
 10
173.146484337272
 20
317.979963451624
 30
0.0
 11
174.186484314623
 21
317.979963451624
 31
0.0
  0
LINE
  5
   468
  8
0
  6
CONTINUOUS
 62
     7
 10
177.466484477939
 20
317.979963451624
 30
0.0
 11
178.50648445529
 21
317.979963451624
 31
0.0
  0
LINE
  5
   469
  8
0
  6
CONTINUOUS
 62
     7
 10
100.746483258428
 20
267.73996270249
 30
0.0
 11
101.146483264389
 21
267.73996270249
 31
0.0
  0
LINE
  5
   46A
  8
0
  6
CONTINUOUS
 62
     7
 10
179.9464844386
 20
267.73996270249
 30
0.0
 11
180.346484444561
 21
267.73996270249
 31
0.0
  0
LINE
  5
   46B
  8
0
  6
CONTINUOUS
 62
     7
 10
98.5464832256457
 20
267.73996270249
 30
0.0
 11
100.746483258428
 21
267.73996270249
 31
0.0
  0
LINE
  5
   46C
  8
0
  6
CONTINUOUS
 62
     7
 10
180.346484444561
 20
267.73996270249
 30
0.0
 11
182.546484477343
 21
267.73996270249
 31
0.0
  0
LINE
  5
   46D
  8
0
  6
CONTINUOUS
 62
     7
 10
102.186485721292
 20
267.73996270249
 30
0.0
 11
102.586485727253
 21
267.73996270249
 31
0.0
  0
LINE
  5
   46E
  8
0
  6
CONTINUOUS
 62
     7
 10
103.62648208064
 20
267.73996270249
 30
0.0
 11
104.026482086601
 21
267.73996270249
 31
0.0
  0
LINE
  5
   46F
  8
0
  6
CONTINUOUS
 62
     7
 10
107.946483365717
 20
267.73996270249
 30
0.0
 11
108.346483371677
 21
267.73996270249
 31
0.0
  0
LINE
  5
   470
  8
0
  6
CONTINUOUS
 62
     7
 10
109.386485828581
 20
267.73996270249
 30
0.0
 11
109.786485834541
 21
267.73996270249
 31
0.0
  0
LINE
  5
   471
  8
0
  6
CONTINUOUS
 62
     7
 10
105.066484543504
 20
267.73996270249
 30
0.0
 11
105.466484549465
 21
267.73996270249
 31
0.0
  0
LINE
  5
   472
  8
0
  6
CONTINUOUS
 62
     7
 10
106.506480902853
 20
267.73996270249
 30
0.0
 11
106.906480908813
 21
267.73996270249
 31
0.0
  0
LINE
  5
   473
  8
0
  6
CONTINUOUS
 62
     7
 10
178.50648445529
 20
267.73996270249
 30
0.0
 11
178.906484270515
 21
267.73996270249
 31
0.0
  0
LINE
  5
   474
  8
0
  6
CONTINUOUS
 62
     7
 10
177.066484376611
 20
267.73996270249
 30
0.0
 11
177.466484477939
 21
267.73996270249
 31
0.0
  0
LINE
  5
   475
  8
0
  6
CONTINUOUS
 62
     7
 10
172.746484331312
 20
267.73996270249
 30
0.0
 11
173.146484337272
 21
267.73996270249
 31
0.0
  0
LINE
  5
   476
  8
0
  6
CONTINUOUS
 62
     7
 10
171.306484157266
 20
267.73996270249
 30
0.0
 11
171.706484163227
 21
267.73996270249
 31
0.0
  0
LINE
  5
   477
  8
0
  6
CONTINUOUS
 62
     7
 10
175.626484375419
 20
267.73996270249
 30
0.0
 11
176.026484375419
 21
267.73996270249
 31
0.0
  0
LINE
  5
   478
  8
0
  6
CONTINUOUS
 62
     7
 10
174.186484314623
 20
267.73996270249
 30
0.0
 11
174.586484320583
 21
267.73996270249
 31
0.0
  0
LINE
  5
   479
  8
0
  6
CONTINUOUS
 62
     7
 10
171.706484163227
 20
267.73996270249
 30
0.0
 11
172.746484331312
 21
267.73996270249
 31
0.0
  0
LINE
  5
   47A
  8
0
  6
CONTINUOUS
 62
     7
 10
174.586484320583
 20
267.73996270249
 30
0.0
 11
175.626484375419
 21
267.73996270249
 31
0.0
  0
LINE
  5
   47B
  8
0
  6
CONTINUOUS
 62
     7
 10
109.786485834541
 20
267.73996270249
 30
0.0
 11
171.306484157266
 21
267.73996270249
 31
0.0
  0
LINE
  5
   47C
  8
0
  6
CONTINUOUS
 62
     7
 10
173.146484337272
 20
267.73996270249
 30
0.0
 11
174.186484314623
 21
267.73996270249
 31
0.0
  0
LINE
  5
   47D
  8
0
  6
CONTINUOUS
 62
     7
 10
104.026482086601
 20
267.73996270249
 30
0.0
 11
105.066484543504
 21
267.73996270249
 31
0.0
  0
LINE
  5
   47E
  8
0
  6
CONTINUOUS
 62
     7
 10
176.026484375419
 20
267.73996270249
 30
0.0
 11
177.066484376611
 21
267.73996270249
 31
0.0
  0
LINE
  5
   47F
  8
0
  6
CONTINUOUS
 62
     7
 10
105.466484549465
 20
267.73996270249
 30
0.0
 11
106.506480902853
 21
267.73996270249
 31
0.0
  0
LINE
  5
   480
  8
0
  6
CONTINUOUS
 62
     7
 10
102.586485727253
 20
267.73996270249
 30
0.0
 11
103.62648208064
 21
267.73996270249
 31
0.0
  0
LINE
  5
   481
  8
0
  6
CONTINUOUS
 62
     7
 10
177.466484477939
 20
267.73996270249
 30
0.0
 11
178.50648445529
 21
267.73996270249
 31
0.0
  0
LINE
  5
   482
  8
0
  6
CONTINUOUS
 62
     7
 10
106.906480908813
 20
267.73996270249
 30
0.0
 11
107.946483365717
 21
267.73996270249
 31
0.0
  0
LINE
  5
   483
  8
0
  6
CONTINUOUS
 62
     7
 10
101.146483264389
 20
267.73996270249
 30
0.0
 11
102.186485721292
 21
267.73996270249
 31
0.0
  0
LINE
  5
   484
  8
0
  6
CONTINUOUS
 62
     7
 10
178.906484270515
 20
267.73996270249
 30
0.0
 11
179.9464844386
 21
267.73996270249
 31
0.0
  0
LINE
  5
   485
  8
0
  6
CONTINUOUS
 62
     7
 10
108.346483371677
 20
267.73996270249
 30
0.0
 11
109.386485828581
 21
267.73996270249
 31
0.0
  0
LINE
  5
   486
  8
0
  6
CONTINUOUS
 62
     7
 10
100.946483261409
 20
267.179962694145
 30
0.0
 11
180.146484441581
 21
267.179962694145
 31
0.0
  0
LINE
  5
   487
  8
0
  6
CONTINUOUS
 62
     7
 10
100.746483258428
 20
348.219963902235
 30
0.0
 11
101.146483264389
 21
348.219963902235
 31
0.0
  0
LINE
  5
   488
  8
0
  6
CONTINUOUS
 62
     7
 10
179.9464844386
 20
348.219963902235
 30
0.0
 11
180.346484444561
 21
348.219963902235
 31
0.0
  0
LINE
  5
   489
  8
0
  6
CONTINUOUS
 62
     7
 10
98.5464832256457
 20
348.219963902235
 30
0.0
 11
100.746483258428
 21
348.219963902235
 31
0.0
  0
LINE
  5
   48A
  8
0
  6
CONTINUOUS
 62
     7
 10
180.346484444561
 20
348.219963902235
 30
0.0
 11
182.546484477343
 21
348.219963902235
 31
0.0
  0
LINE
  5
   48B
  8
0
  6
CONTINUOUS
 62
     7
 10
102.186485721292
 20
348.219963902235
 30
0.0
 11
102.586485727253
 21
348.219963902235
 31
0.0
  0
LINE
  5
   48C
  8
0
  6
CONTINUOUS
 62
     7
 10
103.62648208064
 20
348.219963902235
 30
0.0
 11
104.026482086601
 21
348.219963902235
 31
0.0
  0
LINE
  5
   48D
  8
0
  6
CONTINUOUS
 62
     7
 10
107.946483365717
 20
348.219963902235
 30
0.0
 11
108.346483371677
 21
348.219963902235
 31
0.0
  0
LINE
  5
   48E
  8
0
  6
CONTINUOUS
 62
     7
 10
109.386485828581
 20
348.219963902235
 30
0.0
 11
109.786485834541
 21
348.219963902235
 31
0.0
  0
LINE
  5
   48F
  8
0
  6
CONTINUOUS
 62
     7
 10
105.066484543504
 20
348.219963902235
 30
0.0
 11
105.466484549465
 21
348.219963902235
 31
0.0
  0
LINE
  5
   490
  8
0
  6
CONTINUOUS
 62
     7
 10
106.506480902853
 20
348.219963902235
 30
0.0
 11
106.906480908813
 21
348.219963902235
 31
0.0
  0
LINE
  5
   491
  8
0
  6
CONTINUOUS
 62
     7
 10
178.50648445529
 20
348.219963902235
 30
0.0
 11
178.906484270515
 21
348.219963902235
 31
0.0
  0
LINE
  5
   492
  8
0
  6
CONTINUOUS
 62
     7
 10
177.066484376611
 20
348.219963902235
 30
0.0
 11
177.466484477939
 21
348.219963902235
 31
0.0
  0
LINE
  5
   493
  8
0
  6
CONTINUOUS
 62
     7
 10
172.746484331312
 20
348.219963902235
 30
0.0
 11
173.146484337272
 21
348.219963902235
 31
0.0
  0
LINE
  5
   494
  8
0
  6
CONTINUOUS
 62
     7
 10
171.306484157266
 20
348.219963902235
 30
0.0
 11
171.706484163227
 21
348.219963902235
 31
0.0
  0
LINE
  5
   495
  8
0
  6
CONTINUOUS
 62
     7
 10
175.626484375419
 20
348.219963902235
 30
0.0
 11
176.026484375419
 21
348.219963902235
 31
0.0
  0
LINE
  5
   496
  8
0
  6
CONTINUOUS
 62
     7
 10
174.186484314623
 20
348.219963902235
 30
0.0
 11
174.586484320583
 21
348.219963902235
 31
0.0
  0
LINE
  5
   497
  8
0
  6
CONTINUOUS
 62
     7
 10
101.146483264389
 20
348.219963902235
 30
0.0
 11
102.186485721292
 21
348.219963902235
 31
0.0
  0
LINE
  5
   498
  8
0
  6
CONTINUOUS
 62
     7
 10
174.586484320583
 20
348.219963902235
 30
0.0
 11
175.626484375419
 21
348.219963902235
 31
0.0
  0
LINE
  5
   499
  8
0
  6
CONTINUOUS
 62
     7
 10
171.706484163227
 20
348.219963902235
 30
0.0
 11
172.746484331312
 21
348.219963902235
 31
0.0
  0
LINE
  5
   49A
  8
0
  6
CONTINUOUS
 62
     7
 10
102.586485727253
 20
348.219963902235
 30
0.0
 11
103.62648208064
 21
348.219963902235
 31
0.0
  0
LINE
  5
   49B
  8
0
  6
CONTINUOUS
 62
     7
 10
173.146484337272
 20
348.219963902235
 30
0.0
 11
174.186484314623
 21
348.219963902235
 31
0.0
  0
LINE
  5
   49C
  8
0
  6
CONTINUOUS
 62
     7
 10
178.906484270515
 20
348.219963902235
 30
0.0
 11
179.9464844386
 21
348.219963902235
 31
0.0
  0
LINE
  5
   49D
  8
0
  6
CONTINUOUS
 62
     7
 10
109.786485834541
 20
348.219963902235
 30
0.0
 11
171.306484157266
 21
348.219963902235
 31
0.0
  0
LINE
  5
   49E
  8
0
  6
CONTINUOUS
 62
     7
 10
105.466484549465
 20
348.219963902235
 30
0.0
 11
106.506480902853
 21
348.219963902235
 31
0.0
  0
LINE
  5
   49F
  8
0
  6
CONTINUOUS
 62
     7
 10
177.466484477939
 20
348.219963902235
 30
0.0
 11
178.50648445529
 21
348.219963902235
 31
0.0
  0
LINE
  5
   4A0
  8
0
  6
CONTINUOUS
 62
     7
 10
176.026484375419
 20
348.219963902235
 30
0.0
 11
177.066484376611
 21
348.219963902235
 31
0.0
  0
LINE
  5
   4A1
  8
0
  6
CONTINUOUS
 62
     7
 10
108.346483371677
 20
348.219963902235
 30
0.0
 11
109.386485828581
 21
348.219963902235
 31
0.0
  0
LINE
  5
   4A2
  8
0
  6
CONTINUOUS
 62
     7
 10
106.906480908813
 20
348.219963902235
 30
0.0
 11
107.946483365717
 21
348.219963902235
 31
0.0
  0
LINE
  5
   4A3
  8
0
  6
CONTINUOUS
 62
     7
 10
104.026482086601
 20
348.219963902235
 30
0.0
 11
105.066484543504
 21
348.219963902235
 31
0.0
  0
LINE
  5
   4A4
  8
0
  6
CONTINUOUS
 62
     7
 10
100.946483261409
 20
348.77996391058
 30
0.0
 11
180.146484441581
 21
348.77996391058
 31
0.0
  0
ARC
  5
   4A5
  8
0
  6
CONTINUOUS
 62
     7
 10
148.386514630945
 20
286.380000634113
 30
0.0
 40
0.399996399023854
 50
281.366891214426
 51
359.99460613108
  0
LINE
  5
   4A6
  8
0
  6
CONTINUOUS
 62
     7
 10
148.428721418325
 20
285.982269085524
 30
0.0
 11
148.464878150025
 21
285.980061040082
 31
0.0
  0
LINE
  5
   4A7
  8
0
  6
CONTINUOUS
 62
     7
 10
148.78648397428
 20
289.276709850084
 30
0.0
 11
148.78648397428
 21
289.381696423914
 31
0.0
  0
LINE
  5
   4A8
  8
0
  6
CONTINUOUS
 62
     7
 10
132.306483728709
 20
289.276709850084
 30
0.0
 11
132.306483728709
 21
289.381696423914
 31
0.0
  0
LINE
  5
   4A9
  8
0
  6
CONTINUOUS
 62
     7
 10
148.786483363929
 20
289.381697333523
 30
0.0
 11
148.946483976664
 21
289.381697333523
 31
0.0
  0
LINE
  5
   4AA
  8
0
  6
CONTINUOUS
 62
     7
 10
132.146483726325
 20
289.381697333523
 30
0.0
 11
132.30648433906
 21
289.381697333523
 31
0.0
  0
LINE
  5
   4AB
  8
0
  6
CONTINUOUS
 62
     7
 10
148.546483970704
 20
313.859434848759
 30
0.0
 11
148.946483976664
 21
313.859434848759
 31
0.0
  0
LINE
  5
   4AC
  8
0
  6
CONTINUOUS
 62
     7
 10
132.146483726325
 20
313.859434848759
 30
0.0
 11
132.546483732285
 21
313.859434848759
 31
0.0
  0
LINE
  5
   4AD
  8
0
  6
CONTINUOUS
 62
     7
 10
132.627292920675
 20
285.980012396602
 30
0.0
 11
132.664270591041
 21
285.982270839518
 31
0.0
  0
ARC
  5
   4AE
  8
0
  6
CONTINUOUS
 62
     7
 10
132.706453072673
 20
286.380000634374
 30
0.0
 40
0.399996399602898
 50
180.005393906351
 51
258.665840200207
  0
LINE
  5
   4AF
  8
0
  6
CONTINUOUS
 62
     7
 10
163.746483586781
 20
288.538880249246
 30
0.0
 11
163.746483586781
 21
288.648621461819
 31
0.0
  0
LINE
  5
   4B0
  8
0
  6
CONTINUOUS
 62
     7
 10
165.346483610623
 20
288.64948816105
 30
0.0
 11
165.346483610623
 21
288.657221315462
 31
0.0
  0
LINE
  5
   4B1
  8
0
  6
CONTINUOUS
 62
     7
 10
166.946484244885
 20
316.699964653254
 30
0.0
 11
166.946484244885
 21
316.779963433743
 31
0.0
  0
LINE
  5
   4B2
  8
0
  6
CONTINUOUS
 62
     7
 10
118.946483529629
 20
316.699964653254
 30
0.0
 11
118.946483529629
 21
316.779963433743
 31
0.0
  0
LINE
  5
   4B3
  8
0
  6
CONTINUOUS
 62
     7
 10
114.146483458104
 20
316.699964653254
 30
0.0
 11
114.146483458104
 21
316.779963433743
 31
0.0
  0
LINE
  5
   4B4
  8
0
  6
CONTINUOUS
 62
     7
 10
118.946483529629
 20
283.179962933064
 30
0.0
 11
118.946483529629
 21
283.259961713552
 31
0.0
  0
LINE
  5
   4B5
  8
0
  6
CONTINUOUS
 62
     7
 10
114.146483458104
 20
283.179962933064
 30
0.0
 11
114.146483458104
 21
283.259961713552
 31
0.0
  0
LINE
  5
   4B6
  8
0
  6
CONTINUOUS
 62
     7
 10
166.946484244885
 20
283.179962933064
 30
0.0
 11
166.946484244885
 21
283.259961713552
 31
0.0
  0
LINE
  5
   4B7
  8
0
  6
CONTINUOUS
 62
     7
 10
162.14648417336
 20
316.699964653254
 30
0.0
 11
162.14648417336
 21
316.779963433743
 31
0.0
  0
LINE
  5
   4B8
  8
0
  6
CONTINUOUS
 62
     7
 10
162.14648417336
 20
283.179962933064
 30
0.0
 11
162.14648417336
 21
283.259961713552
 31
0.0
  0
POLYLINE
  5
   4B9
  8
0
  6
CONTINUOUS
 62
     7
 66
     1
 10
0.0
 20
0.0
 30
0.0
  0
VERTEX
  5
   4BA
  8
0
  6
CONTINUOUS
 10
161.824736441084
 20
285.314221160478
 30
0.0
 40
0.0
 41
0.0
  0
VERTEX
  5
   4BB
  8
0
  6
CONTINUOUS
 10
162.946182449069
 20
284.946901856862
 30
0.0
 40
0.0
 41
0.0
  0
VERTEX
  5
   4BC
  8
0
  6
CONTINUOUS
 10
164.775525585945
 20
284.783313434693
 30
0.0
 40
0.0
 41
0.0
  0
VERTEX
  5
   4BD
  8
0
  6
CONTINUOUS
 10
166.401119482954
 20
285.008060807981
 30
0.0
 40
0.0
 41
0.0
  0
VERTEX
  5
   4BE
  8
0
  6
CONTINUOUS
 10
167.555701847833
 20
285.462291437317
 30
0.0
 40
0.0
 41
0.0
  0
VERTEX
  5
   4BF
  8
0
  6
CONTINUOUS
 10
167.896762708225
 20
285.687449116001
 30
0.0
 40
0.0
 41
0.0
  0
SEQEND
  5
   4C0
  8
0
  6
CONTINUOUS
 62
     7
  0
POLYLINE
  5
   4C1
  8
0
  6
CONTINUOUS
 62
     7
 66
     1
 10
0.0
 20
0.0
 30
0.0
  0
VERTEX
  5
   4C2
  8
0
  6
CONTINUOUS
 10
160.546484149519
 20
286.779962986705
 30
0.0
 40
0.0
 41
0.0
  0
VERTEX
  5
   4C3
  8
0
  6
CONTINUOUS
 10
160.653297871442
 20
286.321418693922
 30
0.0
 40
0.0
 41
0.0
  0
SEQEND
  5
   4C4
  8
0
  6
CONTINUOUS
 62
     7
  0
POLYLINE
  5
   4C5
  8
0
  6
CONTINUOUS
 62
     7
 66
     1
 10
0.0
 20
0.0
 30
0.0
  0
VERTEX
  5
   4C6
  8
0
  6
CONTINUOUS
 10
167.990334533129
 20
285.762796146289
 30
0.0
 40
0.0
 41
0.0
  0
VERTEX
  5
   4C7
  8
0
  6
CONTINUOUS
 10
168.437127951585
 20
286.314923785215
 30
0.0
 40
0.0
 41
0.0
  0
VERTEX
  5
   4C8
  8
0
  6
CONTINUOUS
 10
168.54648304802
 20
286.779962986704
 30
0.0
 40
0.0
 41
0.0
  0
SEQEND
  5
   4C9
  8
0
  6
CONTINUOUS
 62
     7
  0
POLYLINE
  5
   4CA
  8
0
  6
CONTINUOUS
 62
     7
 66
     1
 10
0.0
 20
0.0
 30
0.0
  0
VERTEX
  5
   4CB
  8
0
  6
CONTINUOUS
 10
160.85367218811
 20
286.01175522376
 30
0.0
 40
0.0
 41
0.0
  0
VERTEX
  5
   4CC
  8
0
  6
CONTINUOUS
 10
161.624773752558
 20
285.413708937457
 30
0.0
 40
0.0
 41
0.0
  0
SEQEND
  5
   4CD
  8
0
  6
CONTINUOUS
 62
     7
  0
POLYLINE
  5
   4CE
  8
0
  6
CONTINUOUS
 62
     7
 66
     1
 10
0.0
 20
0.0
 30
0.0
  0
VERTEX
  5
   4CF
  8
0
  6
CONTINUOUS
 10
167.268230499902
 20
288.245704931765
 30
0.0
 40
0.0
 41
0.0
  0
VERTEX
  5
   4D0
  8
0
  6
CONTINUOUS
 10
166.146784849714
 20
288.613024094418
 30
0.0
 40
0.0
 41
0.0
  0
VERTEX
  5
   4D1
  8
0
  6
CONTINUOUS
 10
164.317441781354
 20
288.776612543559
 30
0.0
 40
0.0
 41
0.0
  0
VERTEX
  5
   4D2
  8
0
  6
CONTINUOUS
 10
162.798358255302
 20
288.578740718333
 30
0.0
 40
0.0
 41
0.0
  0
VERTEX
  5
   4D3
  8
0
  6
CONTINUOUS
 10
161.651203425442
 20
288.160029198982
 30
0.0
 40
0.0
 41
0.0
  0
SEQEND
  5
   4D4
  8
0
  6
CONTINUOUS
 62
     7
  0
POLYLINE
  5
   4D5
  8
0
  6
CONTINUOUS
 62
     7
 66
     1
 10
0.0
 20
0.0
 30
0.0
  0
VERTEX
  5
   4D6
  8
0
  6
CONTINUOUS
 10
168.235062699617
 20
287.553241546617
 30
0.0
 40
0.0
 41
0.0
  0
VERTEX
  5
   4D7
  8
0
  6
CONTINUOUS
 10
167.527397008072
 20
288.113878665321
 30
0.0
 40
0.0
 41
0.0
  0
SEQEND
  5
   4D8
  8
0
  6
CONTINUOUS
 62
     7
  0
POLYLINE
  5
   4D9
  8
0
  6
CONTINUOUS
 62
     7
 66
     1
 10
0.0
 20
0.0
 30
0.0
  0
VERTEX
  5
   4DA
  8
0
  6
CONTINUOUS
 10
168.54648304802
 20
286.779962986711
 30
0.0
 40
0.0
 41
0.0
  0
VERTEX
  5
   4DB
  8
0
  6
CONTINUOUS
 10
168.439669419072
 20
287.238507082508
 30
0.0
 40
0.0
 41
0.0
  0
SEQEND
  5
   4DC
  8
0
  6
CONTINUOUS
 62
     7
  0
POLYLINE
  5
   4DD
  8
0
  6
CONTINUOUS
 62
     7
 66
     1
 10
0.0
 20
0.0
 30
0.0
  0
VERTEX
  5
   4DE
  8
0
  6
CONTINUOUS
 10
161.631391590359
 20
288.149555400646
 30
0.0
 40
0.0
 41
0.0
  0
VERTEX
  5
   4DF
  8
0
  6
CONTINUOUS
 10
161.206932624123
 20
287.880660910941
 30
0.0
 40
0.0
 41
0.0
  0
SEQEND
  5
   4E0
  8
0
  6
CONTINUOUS
 62
     7
  0
POLYLINE
  5
   4E1
  8
0
  6
CONTINUOUS
 62
     7
 66
     1
 10
0.0
 20
0.0
 30
0.0
  0
VERTEX
  5
   4E2
  8
0
  6
CONTINUOUS
 10
161.102418584901
 20
287.796948617948
 30
0.0
 40
0.0
 41
0.0
  0
VERTEX
  5
   4E3
  8
0
  6
CONTINUOUS
 10
160.655792297824
 20
287.24490403337
 30
0.0
 40
0.0
 41
0.0
  0
VERTEX
  5
   4E4
  8
0
  6
CONTINUOUS
 10
160.546484149519
 20
286.779962986711
 30
0.0
 40
0.0
 41
0.0
  0
SEQEND
  5
   4E5
  8
0
  6
CONTINUOUS
 62
     7
  0
POLYLINE
  5
   4E6
  8
0
  6
CONTINUOUS
 62
     7
 66
     1
 10
0.0
 20
0.0
 30
0.0
  0
VERTEX
  5
   4E7
  8
0
  6
CONTINUOUS
 10
162.633791065714
 20
288.533941273357
 30
0.0
 40
0.0
 41
0.0
  0
VERTEX
  5
   4E8
  8
0
  6
CONTINUOUS
 10
162.444947332366
 20
288.479046833783
 30
0.0
 40
0.0
 41
0.0
  0
SEQEND
  5
   4E9
  8
0
  6
CONTINUOUS
 62
     7
  0
POLYLINE
  5
   4EA
  8
0
  6
CONTINUOUS
 62
     7
 66
     1
 10
0.0
 20
0.0
 30
0.0
  0
VERTEX
  5
   4EB
  8
0
  6
CONTINUOUS
 10
161.331114134336
 20
287.969422745882
 30
0.0
 40
0.0
 41
0.0
  0
VERTEX
  5
   4EC
  8
0
  6
CONTINUOUS
 10
161.025271405872
 20
287.728852748816
 30
0.0
 40
0.0
 41
0.0
  0
SEQEND
  5
   4ED
  8
0
  6
CONTINUOUS
 62
     7
  0
LINE
  5
   4EE
  8
0
  6
CONTINUOUS
 62
     7
 10
110.066483397312
 20
281.979962915182
 30
0.0
 11
110.066483397312
 21
283.179962933064
 31
0.0
  0
LINE
  5
   4EF
  8
0
  6
CONTINUOUS
 62
     7
 10
171.026484305682
 20
281.979962915182
 30
0.0
 11
171.026484305682
 21
283.179962933064
 31
0.0
  0
LINE
  5
   4F0
  8
0
  6
CONTINUOUS
 62
     7
 10
110.06648461801
 20
281.979962915182
 30
0.0
 11
112.466484653773
 21
281.979962915182
 31
0.0
  0
LINE
  5
   4F1
  8
0
  6
CONTINUOUS
 62
     7
 10
112.466484653773
 20
281.979962915182
 30
0.0
 11
129.746483690562
 21
281.979962915182
 31
0.0
  0
LINE
  5
   4F2
  8
0
  6
CONTINUOUS
 62
     7
 10
129.746483690562
 20
281.979962915182
 30
0.0
 11
151.346484012427
 21
281.979962915182
 31
0.0
  0
LINE
  5
   4F3
  8
0
  6
CONTINUOUS
 62
     7
 10
151.346484012427
 20
281.979962915182
 30
0.0
 11
168.626484575095
 21
281.979962915182
 31
0.0
  0
LINE
  5
   4F4
  8
0
  6
CONTINUOUS
 62
     7
 10
168.626484575095
 20
281.979962915182
 30
0.0
 11
171.026484229388
 21
281.979962915182
 31
0.0
  0
LINE
  5
   4F5
  8
0
  6
CONTINUOUS
 62
     7
 10
110.06648461801
 20
283.179962933063
 30
0.0
 11
112.466484653773
 21
283.179962933063
 31
0.0
  0
LINE
  5
   4F6
  8
0
  6
CONTINUOUS
 62
     7
 10
112.466484653773
 20
283.179962933063
 30
0.0
 11
129.746483690562
 21
283.179962933063
 31
0.0
  0
LINE
  5
   4F7
  8
0
  6
CONTINUOUS
 62
     7
 10
129.746483690562
 20
283.179962933063
 30
0.0
 11
151.346484012427
 21
283.179962933063
 31
0.0
  0
LINE
  5
   4F8
  8
0
  6
CONTINUOUS
 62
     7
 10
151.346484012427
 20
283.179962933063
 30
0.0
 11
168.626484575095
 21
283.179962933063
 31
0.0
  0
LINE
  5
   4F9
  8
0
  6
CONTINUOUS
 62
     7
 10
168.626484575095
 20
283.179962933063
 30
0.0
 11
171.026484229388
 21
283.179962933063
 31
0.0
  0
LINE
  5
   4FA
  8
0
  6
CONTINUOUS
 62
     7
 10
110.066483397312
 20
316.779963433743
 30
0.0
 11
110.066483397312
 21
317.979963451624
 31
0.0
  0
LINE
  5
   4FB
  8
0
  6
CONTINUOUS
 62
     7
 10
171.026484305682
 20
316.779963433743
 30
0.0
 11
171.026484305682
 21
317.979963451624
 31
0.0
  0
LINE
  5
   4FC
  8
0
  6
CONTINUOUS
 62
     7
 10
110.06648461801
 20
316.779963433742
 30
0.0
 11
112.466484653773
 21
316.779963433742
 31
0.0
  0
LINE
  5
   4FD
  8
0
  6
CONTINUOUS
 62
     7
 10
112.466484653773
 20
316.779963433742
 30
0.0
 11
114.146483458104
 21
316.779963433742
 31
0.0
  0
LINE
  5
   4FE
  8
0
  6
CONTINUOUS
 62
     7
 10
118.946483529629
 20
316.779963433742
 30
0.0
 11
129.746483690562
 21
316.779963433742
 31
0.0
  0
LINE
  5
   4FF
  8
0
  6
CONTINUOUS
 62
     7
 10
114.146483458104
 20
316.779963433742
 30
0.0
 11
118.946483529629
 21
316.779963433742
 31
0.0
  0
LINE
  5
   500
  8
0
  6
CONTINUOUS
 62
     7
 10
129.746483690562
 20
316.779963433742
 30
0.0
 11
151.346484012427
 21
316.779963433742
 31
0.0
  0
LINE
  5
   501
  8
0
  6
CONTINUOUS
 62
     7
 10
151.346484012427
 20
316.779963433742
 30
0.0
 11
162.14648417336
 21
316.779963433742
 31
0.0
  0
LINE
  5
   502
  8
0
  6
CONTINUOUS
 62
     7
 10
166.946484244885
 20
316.779963433742
 30
0.0
 11
168.626484575095
 21
316.779963433742
 31
0.0
  0
LINE
  5
   503
  8
0
  6
CONTINUOUS
 62
     7
 10
162.14648417336
 20
316.779963433742
 30
0.0
 11
166.946484244885
 21
316.779963433742
 31
0.0
  0
LINE
  5
   504
  8
0
  6
CONTINUOUS
 62
     7
 10
168.626484575095
 20
316.779963433742
 30
0.0
 11
171.026484229388
 21
316.779963433742
 31
0.0
  0
LINE
  5
   505
  8
0
  6
CONTINUOUS
 62
     7
 10
110.06648461801
 20
317.979963451624
 30
0.0
 11
112.466484653773
 21
317.979963451624
 31
0.0
  0
LINE
  5
   506
  8
0
  6
CONTINUOUS
 62
     7
 10
112.466484653773
 20
317.979963451624
 30
0.0
 11
129.746483690562
 21
317.979963451624
 31
0.0
  0
LINE
  5
   507
  8
0
  6
CONTINUOUS
 62
     7
 10
129.746483690562
 20
317.979963451624
 30
0.0
 11
151.346484012427
 21
317.979963451624
 31
0.0
  0
LINE
  5
   508
  8
0
  6
CONTINUOUS
 62
     7
 10
151.346484012427
 20
317.979963451624
 30
0.0
 11
168.626484575095
 21
317.979963451624
 31
0.0
  0
LINE
  5
   509
  8
0
  6
CONTINUOUS
 62
     7
 10
168.626484575095
 20
317.979963451624
 30
0.0
 11
171.026484229388
 21
317.979963451624
 31
0.0
  0
CIRCLE
  5
   50A
  8
0
  6
CONTINUOUS
 62
     7
 10
154.546484060111
 20
356.779964029789
 30
0.0
 40
3.60000005364414
  0
CIRCLE
  5
   50B
  8
0
  6
CONTINUOUS
 62
     7
 10
154.54648406011
 20
356.779964029789
 30
0.0
 40
1.68000002503354
  0
CIRCLE
  5
   50C
  8
0
  6
CONTINUOUS
 62
     7
 10
126.546483642878
 20
259.179962575436
 30
0.0
 40
3.60000005364415
  0
CIRCLE
  5
   50D
  8
0
  6
CONTINUOUS
 62
     7
 10
126.546483642878
 20
259.179962575436
 30
0.0
 40
1.68000002503394
  0
LINE
  5
   50E
  8
0
  6
CONTINUOUS
 62
     7
 10
99.1064832339904
 20
348.219966343641
 30
0.0
 11
99.1064832339904
 21
348.77996391058
 31
0.0
  0
LINE
  5
   50F
  8
0
  6
CONTINUOUS
 62
     7
 10
181.986484468999
 20
348.219966343641
 30
0.0
 11
181.986484468999
 21
348.77996391058
 31
0.0
  0
CIRCLE
  5
   510
  8
0
  6
CONTINUOUS
 62
     7
 10
116.482483492945
 20
279.179963493208
 30
0.0
 40
2.60000003874301
  0
CIRCLE
  5
   511
  8
0
  6
CONTINUOUS
 62
     7
 10
126.546483642878
 20
356.779964029789
 30
0.0
 40
3.40000005066377
  0
LINE
  5
   512
  8
0
  6
CONTINUOUS
 62
     7
 10
99.1064832339904
 20
267.179962694645
 30
0.0
 11
99.1064832339904
 21
267.739963313341
 31
0.0
  0
LINE
  5
   513
  8
0
  6
CONTINUOUS
 62
     7
 10
181.986484468999
 20
267.179962694645
 30
0.0
 11
181.986484468999
 21
267.739963313341
 31
0.0
  0
CIRCLE
  5
   514
  8
0
  6
CONTINUOUS
 62
     7
 10
154.546484060111
 20
259.179962575436
 30
0.0
 40
3.40000005066394
  0
POLYLINE
  5
   515
  8
0
  6
CONTINUOUS
 62
   212
 66
     1
 10
0.0
 20
0.0
 30
0.0
  0
VERTEX
  5
   516
  8
0
  6
CONTINUOUS
 10
147.746567561615
 20
306.098320242248
 30
0.0
 40
0.0
 41
0.0
  0
VERTEX
  5
   517
  8
0
  6
CONTINUOUS
 10
148.347251008931
 20
306.309723694532
 30
0.0
 40
0.0
 41
0.0
  0
VERTEX
  5
   518
  8
0
  6
CONTINUOUS
 10
148.560731413759
 20
306.850069368846
 30
0.0
 40
0.0
 41
0.0
  0
SEQEND
  5
   519
  8
0
  6
CONTINUOUS
 62
   212
  0
LINE
  5
   51A
  8
0
  6
CONTINUOUS
 62
   212
 10
147.746483958783
 20
306.100672503124
 30
0.0
 11
147.746567561607
 21
306.098320242245
 31
0.0
  0
POLYLINE
  5
   51B
  8
0
  6
CONTINUOUS
 62
   212
 66
     1
 10
0.0
 20
0.0
 30
0.0
  0
VERTEX
  5
   51C
  8
0
  6
CONTINUOUS
 10
148.546491806705
 20
315.382703891392
 30
0.0
 40
0.0
 41
0.0
  0
VERTEX
  5
   51D
  8
0
  6
CONTINUOUS
 10
148.312176227507
 20
315.941430727039
 30
0.0
 40
0.0
 41
0.0
  0
VERTEX
  5
   51E
  8
0
  6
CONTINUOUS
 10
147.746483958713
 20
316.172859519739
 30
0.0
 40
0.0
 41
0.0
  0
SEQEND
  5
   51F
  8
0
  6
CONTINUOUS
 62
   212
  0
POLYLINE
  5
   520
  8
0
  6
CONTINUOUS
 62
   212
 66
     1
 10
0.0
 20
0.0
 30
0.0
  0
VERTEX
  5
   521
  8
0
  6
CONTINUOUS
 10
132.550124159699
 20
306.666764905291
 30
0.0
 40
0.0
 41
0.0
  0
VERTEX
  5
   522
  8
0
  6
CONTINUOUS
 10
132.810064352782
 20
306.257561111274
 30
0.0
 40
0.0
 41
0.0
  0
VERTEX
  5
   523
  8
0
  6
CONTINUOUS
 10
133.346415678689
 20
306.098580063946
 30
0.0
 40
0.0
 41
0.0
  0
SEQEND
  5
   524
  8
0
  6
CONTINUOUS
 62
   212
  0
LINE
  5
   525
  8
0
  6
CONTINUOUS
 62
   212
 10
133.346415678675
 20
306.09858006395
 30
0.0
 11
133.346483744206
 21
306.100672503124
 31
0.0
  0
LINE
  5
   526
  8
0
  6
CONTINUOUS
 62
   212
 10
132.537584806371
 20
306.744007473648
 30
0.0
 11
132.550124159694
 21
306.666764905303
 31
0.0
  0
LINE
  5
   527
  8
0
  6
CONTINUOUS
 62
   212
 10
133.346483744206
 20
306.100672503124
 30
0.0
 11
147.746438182415
 21
306.100562639841
 31
0.0
  0
POLYLINE
  5
   528
  8
0
  6
CONTINUOUS
 62
   212
 66
     1
 10
0.0
 20
0.0
 30
0.0
  0
VERTEX
  5
   529
  8
0
  6
CONTINUOUS
 10
133.346483744201
 20
316.172851779608
 30
0.0
 40
0.0
 41
0.0
  0
VERTEX
  5
   52A
  8
0
  6
CONTINUOUS
 10
132.780799312127
 20
315.941422990681
 30
0.0
 40
0.0
 41
0.0
  0
VERTEX
  5
   52B
  8
0
  6
CONTINUOUS
 10
132.546483732926
 20
315.382703891431
 30
0.0
 40
0.0
 41
0.0
  0
SEQEND
  5
   52C
  8
0
  6
CONTINUOUS
 62
   212
  0
POLYLINE
  5
   52D
  8
0
  6
CONTINUOUS
 62
   212
 66
     1
 10
0.0
 20
0.0
 30
0.0
  0
VERTEX
  5
   52E
  8
0
  6
CONTINUOUS
 10
147.746483958783
 20
308.821379727308
 30
0.0
 40
0.0
 41
0.0
  0
VERTEX
  5
   52F
  8
0
  6
CONTINUOUS
 10
148.312271840651
 20
309.046367196306
 30
0.0
 40
0.0
 41
0.0
  0
VERTEX
  5
   530
  8
0
  6
CONTINUOUS
 10
148.546483970704
 20
309.589166289312
 30
0.0
 40
0.0
 41
0.0
  0
SEQEND
  5
   531
  8
0
  6
CONTINUOUS
 62
   212
  0
POLYLINE
  5
   532
  8
0
  6
CONTINUOUS
 62
   212
 66
     1
 10
0.0
 20
0.0
 30
0.0
  0
VERTEX
  5
   533
  8
0
  6
CONTINUOUS
 10
133.346483744206
 20
308.821379727308
 30
0.0
 40
0.0
 41
0.0
  0
VERTEX
  5
   534
  8
0
  6
CONTINUOUS
 10
132.780695863047
 20
309.04636719561
 30
0.0
 40
0.0
 41
0.0
  0
VERTEX
  5
   535
  8
0
  6
CONTINUOUS
 10
132.546483732285
 20
309.589166289312
 30
0.0
 40
0.0
 41
0.0
  0
SEQEND
  5
   536
  8
0
  6
CONTINUOUS
 62
   212
  0
LINE
  5
   537
  8
0
  6
CONTINUOUS
 62
   212
 10
133.346483744206
 20
311.435871557234
 30
0.0
 11
147.746483958783
 21
311.435871557234
 31
0.0
  0
LINE
  5
   538
  8
0
  6
CONTINUOUS
 62
   212
 10
132.546483732285
 20
309.589167428154
 30
0.0
 11
132.546483732285
 21
311.953626691903
 31
0.0
  0
LINE
  5
   539
  8
0
  6
CONTINUOUS
 62
   212
 10
132.546483732285
 20
307.030591950575
 30
0.0
 11
132.546483732285
 21
309.589167428154
 31
0.0
  0
LINE
  5
   53A
  8
0
  6
CONTINUOUS
 62
   212
 10
132.546483732285
 20
311.953626691903
 30
0.0
 11
132.546483732285
 21
315.382703891437
 31
0.0
  0
LINE
  5
   53B
  8
0
  6
CONTINUOUS
 62
   212
 10
133.346483744206
 20
308.821379727308
 30
0.0
 11
147.746483958783
 21
308.821379727308
 31
0.0
  0
LINE
  5
   53C
  8
0
  6
CONTINUOUS
 62
   212
 10
133.346483744206
 20
316.172851780236
 30
0.0
 11
147.746483958783
 21
316.172851780236
 31
0.0
  0
LINE
  5
   53D
  8
0
  6
CONTINUOUS
 62
   212
 10
148.546483970704
 20
309.589167428154
 30
0.0
 11
148.546483970704
 21
311.953626691903
 31
0.0
  0
LINE
  5
   53E
  8
0
  6
CONTINUOUS
 62
   212
 10
148.546483970704
 20
307.030475983776
 30
0.0
 11
148.546483970704
 21
309.589167428154
 31
0.0
  0
LINE
  5
   53F
  8
0
  6
CONTINUOUS
 62
   212
 10
148.546483970704
 20
311.953626691903
 30
0.0
 11
148.546483970704
 21
315.382703891437
 31
0.0
  0
LINE
  5
   540
  8
0
  6
CONTINUOUS
 62
     2
 10
124.146483607115
 20
364.779964148998
 30
0.0
 11
128.946483678641
 21
364.779964148998
 31
0.0
  0
LINE
  5
   541
  8
0
  6
CONTINUOUS
 62
   212
 10
124.146483607115
 20
366.37996417284
 30
0.0
 11
125.346483624997
 21
366.37996417284
 31
0.0
  0
LINE
  5
   542
  8
0
  6
CONTINUOUS
 62
   212
 10
125.346483624997
 20
366.37996417284
 30
0.0
 11
125.346483624997
 21
367.979964196682
 31
0.0
  0
LINE
  5
   543
  8
0
  6
CONTINUOUS
 62
   212
 10
127.74648366076
 20
366.37996417284
 30
0.0
 11
127.74648366076
 21
367.979964196682
 31
0.0
  0
LINE
  5
   544
  8
0
  6
CONTINUOUS
 62
   212
 10
127.74648366076
 20
366.37996417284
 30
0.0
 11
128.946483678641
 21
366.37996417284
 31
0.0
  0
LINE
  5
   545
  8
0
  6
CONTINUOUS
 62
     2
 10
152.146484024348
 20
364.779964148998
 30
0.0
 11
156.946484095874
 21
364.779964148998
 31
0.0
  0
LINE
  5
   546
  8
0
  6
CONTINUOUS
 62
   212
 10
155.746484077992
 20
366.37996417284
 30
0.0
 11
156.946484095874
 21
366.37996417284
 31
0.0
  0
LINE
  5
   547
  8
0
  6
CONTINUOUS
 62
   212
 10
155.746484077992
 20
366.37996417284
 30
0.0
 11
155.746484077992
 21
367.979964196682
 31
0.0
  0
LINE
  5
   548
  8
0
  6
CONTINUOUS
 62
   212
 10
153.34648404223
 20
366.37996417284
 30
0.0
 11
153.34648404223
 21
367.979964196682
 31
0.0
  0
LINE
  5
   549
  8
0
  6
CONTINUOUS
 62
   212
 10
152.146484024348
 20
366.37996417284
 30
0.0
 11
153.346484042229
 21
366.37996417284
 31
0.0
  0
LINE
  5
   54A
  8
0
  6
CONTINUOUS
 62
     3
 10
124.146483607115
 20
367.179964184761
 30
0.0
 11
124.146483607115
 21
367.979964196682
 31
0.0
  0
LINE
  5
   54B
  8
0
  6
CONTINUOUS
 62
     3
 10
128.946483678641
 20
367.179964184761
 30
0.0
 11
128.946483678641
 21
367.979964196682
 31
0.0
  0
LINE
  5
   54C
  8
0
  6
CONTINUOUS
 62
     3
 10
152.146484024348
 20
367.179964184761
 30
0.0
 11
152.146484024348
 21
367.979964196682
 31
0.0
  0
LINE
  5
   54D
  8
0
  6
CONTINUOUS
 62
     3
 10
156.946484095874
 20
367.179964184761
 30
0.0
 11
156.946484095874
 21
367.979964196682
 31
0.0
  0
LINE
  5
   54E
  8
0
  6
CONTINUOUS
 62
     5
 10
128.946483678641
 20
363.179964125156
 30
0.0
 11
128.946483678641
 21
367.179964184761
 31
0.0
  0
LINE
  5
   54F
  8
0
  6
CONTINUOUS
 62
     5
 10
124.146483607115
 20
363.179964125156
 30
0.0
 11
124.146483607115
 21
367.179964184761
 31
0.0
  0
LINE
  5
   550
  8
0
  6
CONTINUOUS
 62
     5
 10
156.946484095874
 20
363.179964125156
 30
0.0
 11
156.946484095874
 21
367.179964184761
 31
0.0
  0
LINE
  5
   551
  8
0
  6
CONTINUOUS
 62
     5
 10
152.146484024348
 20
363.179964125156
 30
0.0
 11
152.146484024348
 21
367.179964184761
 31
0.0
  0
LINE
  5
   552
  8
0
  6
CONTINUOUS
 62
   212
 10
124.146483607115
 20
367.979964196682
 30
0.0
 11
125.346483624997
 21
367.979964196682
 31
0.0
  0
LINE
  5
   553
  8
0
  6
CONTINUOUS
 62
   212
 10
127.74648366076
 20
367.979964196682
 30
0.0
 11
128.946483678641
 21
367.979964196682
 31
0.0
  0
LINE
  5
   554
  8
0
  6
CONTINUOUS
 62
   212
 10
155.746484077992
 20
367.979964196682
 30
0.0
 11
156.946484095874
 21
367.979964196682
 31
0.0
  0
LINE
  5
   555
  8
0
  6
CONTINUOUS
 62
   212
 10
152.146484024348
 20
367.979964196682
 30
0.0
 11
153.346484042229
 21
367.979964196682
 31
0.0
  0
LINE
  5
   556
  8
0
  6
CONTINUOUS
 62
     3
 10
100.546483255448
 20
367.979964196682
 30
0.0
 11
124.146483607115
 21
367.979964196682
 31
0.0
  0
LINE
  5
   557
  8
0
  6
CONTINUOUS
 62
     3
 10
128.946483678641
 20
367.979964196682
 30
0.0
 11
152.146484024348
 21
367.979964196682
 31
0.0
  0
LINE
  5
   558
  8
0
  6
CONTINUOUS
 62
     3
 10
156.946484095874
 20
367.979964196682
 30
0.0
 11
180.546484447541
 21
367.979964196682
 31
0.0
  0
ARC
  5
   559
  8
0
  6
CONTINUOUS
 62
     3
 10
180.546474430118
 20
367.179954167473
 30
0.0
 40
0.800021378970389
 50
7.17426455348952E-4
 51
89.9992825639412
  0
LINE
  5
   55A
  8
0
  6
CONTINUOUS
 62
     3
 10
181.346484459462
 20
366.37996417284
 30
0.0
 11
181.346484459462
 21
367.179964184761
 31
0.0
  0
LINE
  5
   55B
  8
0
  6
CONTINUOUS
 62
     3
 10
180.546484447541
 20
366.37996417284
 30
0.0
 11
181.346484459462
 21
366.37996417284
 31
0.0
  0
LINE
  5
   55C
  8
0
  6
CONTINUOUS
 62
   253
 10
179.74648443562
 20
366.37996417284
 30
0.0
 11
180.546484447541
 21
366.37996417284
 31
0.0
  0
LINE
  5
   55D
  8
0
  6
CONTINUOUS
 62
   253
 10
179.74648443562
 20
363.979964137077
 30
0.0
 11
179.74648443562
 21
366.37996417284
 31
0.0
  0
LINE
  5
   55E
  8
0
  6
CONTINUOUS
 62
   253
 10
101.346483267369
 20
363.979964137077
 30
0.0
 11
101.346483267369
 21
366.37996417284
 31
0.0
  0
LINE
  5
   55F
  8
0
  6
CONTINUOUS
 62
     3
 10
99.7464832435271
 20
366.379964172836
 30
0.0
 11
100.546483255448
 21
366.379964172836
 31
0.0
  0
LINE
  5
   560
  8
0
  6
CONTINUOUS
 62
   253
 10
100.546483255448
 20
366.37996417284
 30
0.0
 11
101.346483267369
 21
366.37996417284
 31
0.0
  0
LINE
  5
   561
  8
0
  6
CONTINUOUS
 62
     3
 10
99.7464832435267
 20
366.37996417284
 30
0.0
 11
99.7464832435267
 21
367.179964184761
 31
0.0
  0
ARC
  5
   562
  8
0
  6
CONTINUOUS
 62
     3
 10
100.546493272868
 20
367.179954167475
 30
0.0
 40
0.800021378967207
 50
90.0007174358675
 51
179.999282573545
  0
CIRCLE
  5
   563
  8
0
  6
CONTINUOUS
 62
   253
 10
140.546483851494
 20
365.579964160919
 30
0.0
 40
0.880000013112722
  0
ARC
  5
   564
  8
0
  6
CONTINUOUS
 62
   253
 10
126.546483642874
 20
356.77996402979
 30
0.0
 40
1.68000033021363
 50
314.417043304828
 51
360.0
  0
ARC
  5
   565
  8
0
  6
CONTINUOUS
 62
   253
 10
126.546483642878
 20
356.779964029789
 30
0.0
 40
1.68000033020977
 50
0.0
 51
180.0
  0
ARC
  5
   566
  8
0
  6
CONTINUOUS
 62
   253
 10
126.546483642878
 20
356.779964029788
 30
0.0
 40
1.6800003302091
 50
225.584648542991
 51
314.417043304786
  0
ARC
  5
   567
  8
0
  6
CONTINUOUS
 62
   253
 10
126.546483642879
 20
356.77996402979
 30
0.0
 40
1.68000033021094
 50
180.0
 51
225.584648543013
  0
LINE
  5
   568
  8
0
  6
CONTINUOUS
 62
   253
 10
101.346483267369
 20
363.179964125156
 30
0.0
 11
101.346483267369
 21
363.979964137077
 31
0.0
  0
LINE
  5
   569
  8
0
  6
CONTINUOUS
 62
   253
 10
98.5464832256458
 20
348.219966343641
 30
0.0
 11
98.5464832256458
 21
363.179964125156
 31
0.0
  0
LINE
  5
   56A
  8
0
  6
CONTINUOUS
 62
   253
 10
98.5464832256457
 20
363.179964125156
 30
0.0
 11
99.7464832435271
 21
363.179964125156
 31
0.0
  0
LINE
  5
   56B
  8
0
  6
CONTINUOUS
 62
   253
 10
100.146483249488
 20
363.179964125156
 30
0.0
 11
100.146483249488
 21
363.979964137077
 31
0.0
  0
LINE
  5
   56C
  8
0
  6
CONTINUOUS
 62
   253
 10
100.146483249488
 20
363.979964137077
 30
0.0
 11
101.346483267369
 21
363.979964137077
 31
0.0
  0
LINE
  5
   56D
  8
0
  6
CONTINUOUS
 62
   253
 10
179.74648443562
 20
363.179964125156
 30
0.0
 11
179.74648443562
 21
363.979964137077
 31
0.0
  0
LINE
  5
   56E
  8
0
  6
CONTINUOUS
 62
   253
 10
179.74648443562
 20
363.979964137077
 30
0.0
 11
180.946484453501
 21
363.979964137077
 31
0.0
  0
LINE
  5
   56F
  8
0
  6
CONTINUOUS
 62
   253
 10
180.946484453501
 20
363.179964125156
 30
0.0
 11
180.946484453501
 21
363.979964137077
 31
0.0
  0
LINE
  5
   570
  8
0
  6
CONTINUOUS
 62
   253
 10
181.346484459462
 20
363.179964125156
 30
0.0
 11
182.546484477343
 21
363.179964125156
 31
0.0
  0
LINE
  5
   571
  8
0
  6
CONTINUOUS
 62
   253
 10
182.546484477343
 20
348.219966343641
 30
0.0
 11
182.546484477343
 21
363.179964125156
 31
0.0
  0
ARC
  5
   572
  8
0
  6
CONTINUOUS
 62
   253
 10
154.546484060113
 20
356.77996402979
 30
0.0
 40
1.6800003302118
 50
180.001665286099
 51
225.294340831033
  0
ARC
  5
   573
  8
0
  6
CONTINUOUS
 62
   253
 10
154.546484060109
 20
356.779964029789
 30
0.0
 40
1.68000033021096
 50
314.706252192678
 51
359.998334713901
  0
ARC
  5
   574
  8
0
  6
CONTINUOUS
 62
   253
 10
154.546484060111
 20
356.779964029787
 30
0.0
 40
1.68000033020783
 50
236.853775079846
 51
303.000259260879
  0
ARC
  5
   575
  8
0
  6
CONTINUOUS
 62
   253
 10
154.546484060111
 20
356.779964029789
 30
0.0
 40
1.6800003302101
 50
1.24896258485182E-3
 51
179.999583681376
  0
LINE
  5
   576
  8
0
  6
CONTINUOUS
 62
   253
 10
101.346483267369
 20
363.179964125156
 30
0.0
 11
124.146483607115
 21
363.179964125156
 31
0.0
  0
LINE
  5
   577
  8
0
  6
CONTINUOUS
 62
   253
 10
156.946484095874
 20
363.179964125156
 30
0.0
 11
179.74648443562
 21
363.179964125156
 31
0.0
  0
LINE
  5
   578
  8
0
  6
CONTINUOUS
 62
   253
 10
128.946483678641
 20
363.179964125156
 30
0.0
 11
152.146484024348
 21
363.179964125156
 31
0.0
  0
ARC
  5
   579
  8
0
  6
CONTINUOUS
 62
   253
 10
126.546483642878
 20
259.179962575436
 30
0.0
 40
1.68000002503384
 50
314.999999999995
 51
424.984395149678
  0
ARC
  5
   57A
  8
0
  6
CONTINUOUS
 62
   253
 10
126.546483642878
 20
259.179962575436
 30
0.0
 40
1.68000002503393
 50
108.301806607045
 51
225.000000000003
  0
ARC
  5
   57B
  8
0
  6
CONTINUOUS
 62
   253
 10
154.546484060111
 20
259.179962575436
 30
0.0
 40
1.6800000250339
 50
314.999999999999
 51
424.984395149677
  0
ARC
  5
   57C
  8
0
  6
CONTINUOUS
 62
   253
 10
154.546484060111
 20
259.179962575436
 30
0.0
 40
1.68000002503397
 50
108.301806607048
 51
224.999999999999
  0
ARC
  5
   57D
  8
0
  6
CONTINUOUS
 62
   253
 10
126.546483642877
 20
356.779964029791
 30
0.0
 40
1.68000002503592
 50
288.301806607065
 51
314.972735382038
  0
ARC
  5
   57E
  8
0
  6
CONTINUOUS
 62
   253
 10
126.546483642894
 20
356.779964029812
 30
0.0
 40
1.68000002506161
 50
225.568710411076
 51
244.984442874089
  0
ARC
  5
   57F
  8
0
  6
CONTINUOUS
 62
   253
 10
126.546483642878
 20
356.779964029789
 30
0.0
 40
1.68000002503441
 50
311.954897844528
 51
414.307149172617
  0
ARC
  5
   580
  8
0
  6
CONTINUOUS
 62
   253
 10
126.546483642878
 20
356.779964029789
 30
0.0
 40
1.68000002503408
 50
134.944692476666
 51
223.507753787079
  0
ARC
  5
   581
  8
0
  6
CONTINUOUS
 62
   253
 10
126.546483642485
 20
356.779964029387
 30
0.0
 40
1.68000002447222
 50
224.703157891474
 51
227.64848986529
  0
ARC
  5
   582
  8
0
  6
CONTINUOUS
 62
     1
 10
154.546484060105
 20
356.779964029783
 30
0.0
 40
1.6800000250257
 50
225.568710410886
 51
244.984442874316
  0
ARC
  5
   583
  8
0
  6
CONTINUOUS
 62
     1
 10
154.546484060105
 20
356.779964029797
 30
0.0
 40
1.68000002504333
 50
288.301806607149
 51
314.972772646439
  0
ARC
  5
   584
  8
0
  6
CONTINUOUS
 62
   253
 10
154.546484060113
 20
356.779964029789
 30
0.0
 40
1.68000002503265
 50
312.746859805756
 51
414.307104300828
  0
ARC
  5
   585
  8
0
  6
CONTINUOUS
 62
   253
 10
154.546484060109
 20
356.779964029789
 30
0.0
 40
1.68000002503285
 50
134.944729781775
 51
223.507753787119
  0
ARC
  5
   586
  8
0
  6
CONTINUOUS
 62
   253
 10
154.546484060091
 20
356.779964029797
 30
0.0
 40
1.680000025025
 50
224.703157892457
 51
226.804460185399
  0
LINE
  5
   587
  8
0
  6
DASHDOT
 62
     7
 10
114.146483452142
 20
279.179963493208
 30
0.0
 11
118.986483537374
 21
279.179963493208
 31
0.0
  0
LINE
  5
   588
  8
0
  6
DASHDOT
 62
     7
 10
124.53048324162
 20
259.179962575436
 30
0.0
 11
128.596084051742
 21
259.179962575436
 31
0.0
  0
LINE
  5
   589
  8
0
  6
DASHDOT
 62
     7
 10
126.546483642878
 20
257.163962174178
 30
0.0
 11
126.546483642878
 21
261.195962976694
 31
0.0
  0
LINE
  5
   58A
  8
0
  6
DASHDOT
 62
     7
 10
124.53048324162
 20
259.179962575436
 30
0.0
 11
128.596084051742
 21
259.179962575436
 31
0.0
  0
LINE
  5
   58B
  8
0
  6
DASHDOT
 62
     7
 10
126.546483642878
 20
257.163962174178
 30
0.0
 11
126.546483642878
 21
261.195962976694
 31
0.0
  0
LINE
  5
   58C
  8
0
  6
DASHDOT
 62
     7
 10
152.530483658853
 20
259.179962575436
 30
0.0
 11
156.596084468975
 21
259.179962575436
 31
0.0
  0
LINE
  5
   58D
  8
0
  6
DASHDOT
 62
     7
 10
154.546484060111
 20
257.163962174178
 30
0.0
 11
154.546484060111
 21
261.195962976694
 31
0.0
  0
LINE
  5
   58E
  8
0
  6
DASHDOT
 62
     7
 10
152.530483658853
 20
259.179962575436
 30
0.0
 11
156.596084468975
 21
259.179962575436
 31
0.0
  0
LINE
  5
   58F
  8
0
  6
DASHDOT
 62
     7
 10
154.546484060111
 20
257.163962174178
 30
0.0
 11
154.546484060111
 21
261.195962976694
 31
0.0
  0
LINE
  5
   590
  8
0
  6
DASHDOT
 62
     7
 10
139.490483833169
 20
250.379962444224
 30
0.0
 11
141.620083870673
 21
250.379962444224
 31
0.0
  0
LINE
  5
   591
  8
0
  6
DASHDOT
 62
     7
 10
140.546483851528
 20
249.323962425866
 30
0.0
 11
140.546483851528
 21
251.435962462583
 31
0.0
  0
LINE
  5
   592
  8
0
  6
DASHDOT
 62
     7
 10
162.786484168591
 20
261.579962610699
 30
0.0
 11
174.402484373154
 21
261.579962610699
 31
0.0
  0
LINE
  5
   593
  8
0
  6
DASHDOT
 62
     7
 10
168.546484268727
 20
255.819962510563
 30
0.0
 11
168.546484268727
 21
267.339962710835
 31
0.0
  0
LINE
  5
   594
  8
0
  6
DASHDOT
 62
     7
 10
134.786483751359
 20
261.579962610699
 30
0.0
 11
146.402483955922
 21
261.579962610699
 31
0.0
  0
LINE
  5
   595
  8
0
  6
DASHDOT
 62
     7
 10
140.546483851494
 20
255.819962510563
 30
0.0
 11
140.546483851494
 21
267.339962710835
 31
0.0
  0
LINE
  5
   596
  8
0
  6
DASHDOT
 62
     7
 10
106.786483334126
 20
261.579962610699
 30
0.0
 11
118.402483538689
 21
261.579962610699
 31
0.0
  0
LINE
  5
   597
  8
0
  6
DASHDOT
 62
     7
 10
112.546483434262
 20
255.819962510563
 30
0.0
 11
112.546483434262
 21
267.339962710835
 31
0.0
  0
LINE
  5
   598
  8
0
  6
DASHDOT
 62
     7
 10
162.786484168591
 20
354.379963994026
 30
0.0
 11
174.402484373154
 21
354.379963994026
 31
0.0
  0
LINE
  5
   599
  8
0
  6
DASHDOT
 62
     7
 10
168.546484268727
 20
348.61996389389
 30
0.0
 11
168.546484268727
 21
360.139964094162
 31
0.0
  0
LINE
  5
   59A
  8
0
  6
DASHDOT
 62
     7
 10
134.786483751359
 20
354.379963994026
 30
0.0
 11
146.402483955922
 21
354.379963994026
 31
0.0
  0
LINE
  5
   59B
  8
0
  6
DASHDOT
 62
     7
 10
140.546483851494
 20
348.61996389389
 30
0.0
 11
140.546483851494
 21
360.139964094162
 31
0.0
  0
LINE
  5
   59C
  8
0
  6
DASHDOT
 62
     7
 10
106.786483334126
 20
354.379963994026
 30
0.0
 11
118.402483538689
 21
354.379963994026
 31
0.0
  0
LINE
  5
   59D
  8
0
  6
DASHDOT
 62
     7
 10
112.546483434262
 20
348.61996389389
 30
0.0
 11
112.546483434262
 21
360.139964094162
 31
0.0
  0
LINE
  5
   59E
  8
0
  6
DASHDOT
 62
     7
 10
150.226483985009
 20
356.779964029789
 30
0.0
 11
158.938484138431
 21
356.779964029789
 31
0.0
  0
LINE
  5
   59F
  8
0
  6
DASHDOT
 62
     7
 10
154.546484060111
 20
352.459963954687
 30
0.0
 11
154.546484060111
 21
361.099964104891
 31
0.0
  0
LINE
  5
   5A0
  8
0
  6
DASHDOT
 62
     7
 10
152.530484025063
 20
356.779964029789
 30
0.0
 11
156.596084096659
 21
356.779964029789
 31
0.0
  0
LINE
  5
   5A1
  8
0
  6
DASHDOT
 62
     7
 10
154.54648406011
 20
354.763963994742
 30
0.0
 11
154.54648406011
 21
358.795964064836
 31
0.0
  0
LINE
  5
   5A2
  8
0
  6
DASHDOT
 62
     7
 10
152.530484025063
 20
356.779964029789
 30
0.0
 11
156.596084096659
 21
356.779964029789
 31
0.0
  0
LINE
  5
   5A3
  8
0
  6
DASHDOT
 62
     7
 10
154.54648406011
 20
354.763963994742
 30
0.0
 11
154.54648406011
 21
358.795964064836
 31
0.0
  0
LINE
  5
   5A4
  8
0
  6
DASHDOT
 62
     7
 10
122.226483567777
 20
259.179962575436
 30
0.0
 11
130.938483721199
 21
259.179962575436
 31
0.0
  0
LINE
  5
   5A5
  8
0
  6
DASHDOT
 62
     7
 10
126.546483642878
 20
254.859962500334
 30
0.0
 11
126.546483642878
 21
263.499962650537
 31
0.0
  0
LINE
  5
   5A6
  8
0
  6
DASHDOT
 62
     7
 10
124.530483607831
 20
259.179962575436
 30
0.0
 11
128.596083679428
 21
259.179962575436
 31
0.0
  0
LINE
  5
   5A7
  8
0
  6
DASHDOT
 62
     7
 10
126.546483642878
 20
257.163962540388
 30
0.0
 11
126.546483642878
 21
261.195962610483
 31
0.0
  0
LINE
  5
   5A8
  8
0
  6
DASHDOT
 62
     7
 10
124.530483607831
 20
259.179962575436
 30
0.0
 11
128.596083679428
 21
259.179962575436
 31
0.0
  0
LINE
  5
   5A9
  8
0
  6
DASHDOT
 62
     7
 10
126.546483642878
 20
257.163962540388
 30
0.0
 11
126.546483642878
 21
261.195962610483
 31
0.0
  0
LINE
  5
   5AA
  8
0
  6
DASHDOT
 62
     7
 10
113.362483438705
 20
279.179963493208
 30
0.0
 11
119.65448354951
 21
279.179963493208
 31
0.0
  0
LINE
  5
   5AB
  8
0
  6
DASHDOT
 62
     7
 10
116.482483492945
 20
276.059963438968
 30
0.0
 11
116.482483492945
 21
282.299963547448
 31
0.0
  0
LINE
  5
   5AC
  8
0
  6
DASHDOT
 62
     7
 10
122.466483571949
 20
356.779964029789
 30
0.0
 11
130.694483716848
 21
356.779964029789
 31
0.0
  0
LINE
  5
   5AD
  8
0
  6
DASHDOT
 62
     7
 10
126.546483642878
 20
352.699963958859
 30
0.0
 11
126.546483642878
 21
360.859964100718
 31
0.0
  0
LINE
  5
   5AE
  8
0
  6
DASHDOT
 62
     7
 10
150.466483989181
 20
259.179962575436
 30
0.0
 11
158.69448413408
 21
259.179962575436
 31
0.0
  0
LINE
  5
   5AF
  8
0
  6
DASHDOT
 62
     7
 10
154.546484060111
 20
255.099962504506
 30
0.0
 11
154.546484060111
 21
263.259962646365
 31
0.0
  0
LINE
  5
   5B0
  8
0
  6
DASHDOT
 62
     7
 10
139.490483833136
 20
365.579964160919
 30
0.0
 11
141.620083870639
 21
365.579964160919
 31
0.0
  0
LINE
  5
   5B1
  8
0
  6
DASHDOT
 62
     7
 10
140.546483851494
 20
364.523964142562
 30
0.0
 11
140.546483851494
 21
366.635964179277
 31
0.0
  0
LINE
  5
   5B2
  8
0
  6
DASHDOT
 62
     7
 10
124.53048324162
 20
356.77996402979
 30
0.0
 11
128.596084051745
 21
356.77996402979
 31
0.0
  0
LINE
  5
   5B3
  8
0
  6
DASHDOT
 62
     7
 10
126.546483642879
 20
354.76396362853
 30
0.0
 11
126.546483642879
 21
358.79596443105
 31
0.0
  0
LINE
  5
   5B4
  8
0
  6
DASHDOT
 62
     7
 10
124.53048324162
 20
356.77996402979
 30
0.0
 11
128.596084051745
 21
356.77996402979
 31
0.0
  0
LINE
  5
   5B5
  8
0
  6
DASHDOT
 62
     7
 10
126.546483642879
 20
354.76396362853
 30
0.0
 11
126.546483642879
 21
358.79596443105
 31
0.0
  0
LINE
  5
   5B6
  8
0
  6
DASHDOT
 62
     7
 10
152.530483658852
 20
356.779964029789
 30
0.0
 11
156.596084468976
 21
356.779964029789
 31
0.0
  0
LINE
  5
   5B7
  8
0
  6
DASHDOT
 62
     7
 10
154.546484060111
 20
354.76396362853
 30
0.0
 11
154.546484060111
 21
358.795964431048
 31
0.0
  0
LINE
  5
   5B8
  8
0
  6
DASHDOT
 62
     7
 10
152.530483658852
 20
356.779964029789
 30
0.0
 11
156.596084468976
 21
356.779964029789
 31
0.0
  0
LINE
  5
   5B9
  8
0
  6
DASHDOT
 62
     7
 10
154.546484060111
 20
354.76396362853
 30
0.0
 11
154.546484060111
 21
358.795964431048
 31
0.0
  0
LINE
  5
   5BA
  8
0
  6
DASHDOT
 62
     7
 10
124.530483607831
 20
259.179962575436
 30
0.0
 11
128.596083679428
 21
259.179962575436
 31
0.0
  0
LINE
  5
   5BB
  8
0
  6
DASHDOT
 62
     7
 10
126.546483642878
 20
257.163962540388
 30
0.0
 11
126.546483642878
 21
261.195962610483
 31
0.0
  0
LINE
  5
   5BC
  8
0
  6
DASHDOT
 62
     7
 10
152.530484025063
 20
259.179962575436
 30
0.0
 11
156.59608409666
 21
259.179962575436
 31
0.0
  0
LINE
  5
   5BD
  8
0
  6
DASHDOT
 62
     7
 10
154.546484060111
 20
257.163962540388
 30
0.0
 11
154.546484060111
 21
261.195962610483
 31
0.0
  0
LINE
  5
   5BE
  8
0
  6
DASHDOT
 62
     7
 10
124.530483608112
 20
356.779964029387
 30
0.0
 11
128.59608367835
 21
356.779964029387
 31
0.0
  0
LINE
  5
   5BF
  8
0
  6
DASHDOT
 62
     7
 10
126.546483642485
 20
354.763963995014
 30
0.0
 11
126.546483642485
 21
358.795964063761
 31
0.0
  0
LINE
  5
   5C0
  8
0
  6
DASHDOT
 62
     7
 10
152.530484025054
 20
356.779964029797
 30
0.0
 11
156.596084096629
 21
356.779964029797
 31
0.0
  0
LINE
  5
   5C1
  8
0
  6
DASHDOT
 62
     7
 10
154.546484060091
 20
354.76396399476
 30
0.0
 11
154.546484060091
 21
358.795964064833
 31
0.0
  0
TEXT
  5
   5C2
  8
0
  6
CONTINUOUS
 62
     7
 10
137.128664829046
 20
373.908681045264
 30
0.0
 40
2.99999994933605
  1
Y
 41
0.933333333333333
 72
     1
 11
138.22866481047
 21
375.408681019931
 31
0.0
 73
     2
  0
TEXT
  5
   5C3
  8
0
  6
CONTINUOUS
 62
     7
 10
90.4729603215316
 20
308.717796082782
 30
0.0
 40
2.99999994933605
  1
X
 41
0.933333333333333
 72
     1
 11
91.5729603029548
 21
310.21779605745
 31
0.0
 73
     2
  0
TEXT
  5
   5C4
  8
0
  6
CONTINUOUS
 62
     7
 10
187.354561787527
 20
308.594685998266
 30
0.0
 40
2.99999994933605
  1
X
 41
0.933333333333333
 72
     1
 11
188.45456176895
 21
310.094685972934
 31
0.0
 73
     2
  0
LINE
  5
   5C5
  8
0
  6
DASHDOT
 62
     7
 10
90.2629974856977
 20
307.979963302612
 30
0.0
 11
190.797068315148
 21
307.979963302612
 31
0.0
  0
TEXT
  5
   5C6
  8
0
  6
CONTINUOUS
 62
     7
 10
137.251774913562
 20
241.009404973289
 30
0.0
 40
2.99999994933605
  1
Y
 41
0.933333333333333
 72
     1
 11
138.351774894986
 21
242.509404947957
 31
0.0
 73
     2
  0
LINE
  5
   5C7
  8
0
  6
DASHDOT
 62
     7
 10
140.546483851494
 20
237.540994758274
 30
0.0
 11
140.546483851494
 21
376.789184602498
 31
0.0
  0
INSERT
  5
   5C8
  8
0
  6
CONTINUOUS
 62
     7
  2
*UDIM1218
 10
0.0
 20
0.0
 30
0.0
  0
INSERT
  5
   5C9
  8
0
  6
CONTINUOUS
 62
     7
  2
*UDIM1219
 10
0.0
 20
0.0
 30
0.0
  0
INSERT
  5
   5CA
  8
0
  6
CONTINUOUS
 62
     7
  2
*UDIM1220
 10
0.0
 20
0.0
 30
0.0
  0
INSERT
  5
   5CB
  8
0
  6
CONTINUOUS
 62
     7
  2
*UDIM1221
 10
0.0
 20
0.0
 30
0.0
  0
INSERT
  5
   5CC
  8
0
  6
CONTINUOUS
 62
     7
  2
*UDIM1222
 10
0.0
 20
0.0
 30
0.0
  0
CIRCLE
  5
   5CD
  8
0
  6
CONTINUOUS
 62
     7
 10
140.546483851494
 20
354.379963994526
 30
0.0
 40
4.80000007152557
  0
INSERT
  5
   5CE
  8
0
  6
CONTINUOUS
 62
     7
  2
*HATCH1046
 10
0.0
 20
0.0
 30
0.0
  0
INSERT
  5
   5CF
  8
0
  6
CONTINUOUS
 62
     7
  2
*HATCH1047
 10
0.0
 20
0.0
 30
0.0
  0
INSERT
  5
   5D0
  8
0
  6
CONTINUOUS
 62
     7
  2
*UDIM1223
 10
0.0
 20
0.0
 30
0.0
  0
LINE
  5
   5D1
  8
0
  6
DASHDOT
 62
     7
 10
238.472007145425
 20
241.545865350696
 30
0.0
 11
238.472007145425
 21
376.494694426546
 31
0.0
  0
LINE
  5
   5D2
  8
0
  6
CONTINUOUS
 62
     7
 10
236.907045079683
 20
376.735095225801
 30
0.0
 11
242.86161979757
 21
375.820386458897
 31
0.0
  0
LINE
  5
   5D3
  8
0
  6
CONTINUOUS
 62
     7
 10
237.1665466013
 20
241.962818528287
 30
0.0
 11
242.209217879672
 21
240.352231504016
 31
0.0
  0
LINE
  5
   5D4
  8
0
  6
CONTINUOUS
 62
   252
 10
305.26976415515
 20
268.779962718487
 30
0.0
 11
306.069765110718
 21
268.779962718487
 31
0.0
  0
LINE
  5
   5D5
  8
0
  6
CONTINUOUS
 62
   252
 10
306.469764173031
 20
268.779962718487
 30
0.0
 11
306.469764173031
 21
331.179963648319
 31
0.0
  0
LINE
  5
   5D6
  8
0
  6
CONTINUOUS
 62
   252
 10
306.069765110718
 20
268.779962718487
 30
0.0
 11
307.269765128599
 21
268.779962718487
 31
0.0
  0
LINE
  5
   5D7
  8
0
  6
CONTINUOUS
 62
   252
 10
307.26976418495
 20
268.779962718487
 30
0.0
 11
307.26976418495
 21
280.779962897301
 31
0.0
  0
LINE
  5
   5D8
  8
0
  6
CONTINUOUS
 62
   252
 10
307.26976418495
 20
319.179963469505
 30
0.0
 11
307.26976418495
 21
331.179963648319
 31
0.0
  0
LINE
  5
   5D9
  8
0
  6
CONTINUOUS
 62
   252
 10
305.26976415515
 20
331.179963648319
 30
0.0
 11
306.069765110718
 21
331.179963648319
 31
0.0
  0
LINE
  5
   5DA
  8
0
  6
CONTINUOUS
 62
   252
 10
306.069765110718
 20
331.179963648319
 30
0.0
 11
307.269765128599
 21
331.179963648319
 31
0.0
  0
LINE
  5
   5DB
  8
0
  6
CONTINUOUS
 62
   252
 10
306.469764173031
 20
280.779962897301
 30
0.0
 11
307.269765128599
 21
280.779962897301
 31
0.0
  0
LINE
  5
   5DC
  8
0
  6
CONTINUOUS
 62
   252
 10
306.469764173031
 20
319.179963469505
 30
0.0
 11
307.269765128599
 21
319.179963469505
 31
0.0
  0
LINE
  5
   5DD
  8
0
  6
CONTINUOUS
 62
     3
 10
305.26976415515
 20
259.66617315718
 30
0.0
 11
305.26976415515
 21
346.246533850941
 31
0.0
  0
LINE
  5
   5DE
  8
0
  6
CONTINUOUS
 62
     3
 10
303.669764131308
 20
260.222694904603
 30
0.0
 11
303.669764131308
 21
347.046533862862
 31
0.0
  0
LINE
  5
   5DF
  8
0
  6
CONTINUOUS
 62
     7
 10
301.729163219467
 20
348.016834318782
 30
0.0
 11
306.653568231095
 21
345.554631812968
 31
0.0
  0
LINE
  5
   5E0
  8
0
  6
CONTINUOUS
 62
     7
 10
302.418579921095
 20
260.657889412503
 30
0.0
 11
306.949032531793
 21
259.082079808782
 31
0.0
  0
LINE
  5
   5E1
  8
0
  6
DASHDOT
 62
     7
 10
232.335769797323
 20
307.979963302613
 30
0.0
 11
325.762768980271
 21
307.979963302613
 31
0.0
  0
INSERT
  5
   5E2
  8
255
  6
CONTINUOUS
 62
     7
  2
DADO
 10
238.472007145425
 20
356.77996402979
 30
0.0
 41
0.80000001192093
 42
0.80000001192093
 43
0.80000001192093
  0
INSERT
  5
   5E3
  8
255
  6
CONTINUOUS
 62
     7
  2
DADO
 10
238.472007145425
 20
259.179962571418
 30
0.0
 41
0.80000001192093
 42
0.80000001192093
 43
0.80000001192093
  0
TEXT
  5
   5E4
  8
0
  6
CONTINUOUS
 62
     7
 10
232.988163867497
 20
308.798319062507
 30
0.0
 40
2.99999994933605
  1
X
 41
0.933333333333333
 72
     1
 11
234.08816384892
 21
310.298319037175
 31
0.0
 73
     2
  0
INSERT
  5
   5E5
  8
0
  6
CONTINUOUS
 62
     7
  2
*UDIM1224
 10
0.0
 20
0.0
 30
0.0
  0
LINE
  5
   5E6
  8
0
  6
CONTINUOUS
 62
     7
 10
239.195145825891
 20
341.179963797331
 30
0.0
 11
288.072006940842
 21
341.179963797331
 31
0.0
  0
LINE
  5
   5E7
  8
0
  6
CONTINUOUS
 62
     7
 10
288.072006940842
 20
341.179963797331
 30
0.0
 11
288.072006940842
 21
370.222868445722
 31
0.0
  0
LINE
  5
   5E8
  8
0
  6
CONTINUOUS
 62
     7
 10
239.564475767919
 20
274.779962807895
 30
0.0
 11
288.072006940842
 21
274.779962807895
 31
0.0
  0
LINE
  5
   5E9
  8
0
  6
CONTINUOUS
 62
     7
 10
288.072006940842
 20
245.512458021209
 30
0.0
 11
288.072006940842
 21
274.779962807895
 31
0.0
  0
INSERT
  5
   5EA
  8
0
  6
CONTINUOUS
 62
     7
  2
*HATCH1048
 10
0.0
 20
0.0
 30
0.0
  0
INSERT
  5
   5EB
  8
0
  6
CONTINUOUS
 62
     7
  2
*HATCH1049
 10
0.0
 20
0.0
 30
0.0
  0
INSERT
  5
   5EC
  8
0
  6
CONTINUOUS
 62
     7
  2
*HATCH1050
 10
0.0
 20
0.0
 30
0.0
  0
INSERT
  5
   5ED
  8
0
  6
CONTINUOUS
 62
     7
  2
*HATCH1051
 10
0.0
 20
0.0
 30
0.0
  0
INSERT
  5
   5EE
  8
0
  6
CONTINUOUS
 62
     7
  2
*HATCH1052
 10
0.0
 20
0.0
 30
0.0
  0
LINE
  5
   5EF
  8
0
  6
CONTINUOUS
 62
     7
 10
280.872006833553
 20
366.37996417284
 30
0.0
 11
280.872006833553
 21
367.979964196682
 31
0.0
  0
LINE
  5
   5F0
  8
0
  6
CONTINUOUS
 62
     7
 10
280.872006833553
 20
366.37996417284
 30
0.0
 11
282.872006863356
 21
366.37996417284
 31
0.0
  0
LINE
  5
   5F1
  8
0
  6
CONTINUOUS
 62
     7
 10
284.951414935588
 20
363.461070920491
 30
0.0
 11
288.072006940842
 21
363.461070920491
 31
0.0
  0
INSERT
  5
   5F2
  8
0
  6
CONTINUOUS
 62
     7
  2
*HATCH1053
 10
0.0
 20
0.0
 30
0.0
  0
INSERT
  5
   5F3
  8
0
  6
CONTINUOUS
 62
     7
  2
*HATCH1054
 10
0.0
 20
0.0
 30
0.0
  0
INSERT
  5
   5F4
  8
0
  6
CONTINUOUS
 62
     7
  2
*HATCH1055
 10
0.0
 20
0.0
 30
0.0
  0
INSERT
  5
   5F5
  8
0
  6
CONTINUOUS
 62
     7
  2
*HATCH1056
 10
0.0
 20
0.0
 30
0.0
  0
ARC
  5
   5F6
  8
0
  6
DASHDOT
 62
     7
 10
275.66976383748
 20
299.579963177441
 30
0.0
 40
46.8022436159619
 50
340.921580787181
 51
377.662902640563
  0
LINE
  5
   5F7
  8
0
  6
DASHDOT
 62
     7
 10
240.872007181188
 20
240.779325415319
 30
0.0
 11
240.872007181188
 21
376.126019722257
 31
0.0
  0
INSERT
  5
   5F8
  8
0
  6
CONTINUOUS
 62
     7
  2
*UDIM1225
 10
0.0
 20
0.0
 30
0.0
  0
INSERT
  5
   5F9
  8
0
  6
CONTINUOUS
 62
     7
  2
*UDIM1226
 10
0.0
 20
0.0
 30
0.0
  0
INSERT
  5
   5FA
  8
0
  6
CONTINUOUS
 62
     7
  2
*UDIM1227
 10
0.0
 20
0.0
 30
0.0
  0
INSERT
  5
   5FB
  8
0
  6
CONTINUOUS
 62
     7
  2
*UDIM1228
 10
0.0
 20
0.0
 30
0.0
  0
INSERT
  5
   5FC
  8
0
  6
CONTINUOUS
 62
     7
  2
*UDIM1229
 10
0.0
 20
0.0
 30
0.0
  0
INSERT
  5
   5FD
  8
0
  6
CONTINUOUS
 62
     7
  2
*UDIM1230
 10
0.0
 20
0.0
 30
0.0
  0
LINE
  5
   5FE
  8
0
  6
CONTINUOUS
 62
     5
 10
256.072004938126
 20
346.779963880777
 30
0.0
 11
256.472006469965
 21
346.779963880777
 31
0.0
  0
LINE
  5
   5FF
  8
0
  6
CONTINUOUS
 62
     5
 10
256.072004938126
 20
361.979964107275
 30
0.0
 11
272.872006714344
 21
361.979964107275
 31
0.0
  0
LINE
  5
   600
  8
0
  6
CONTINUOUS
 62
     5
 10
250.872005623579
 20
346.779963880777
 30
0.0
 11
252.872005653381
 21
346.779963880777
 31
0.0
  0
LINE
  5
   601
  8
0
  6
CONTINUOUS
 62
     5
 10
250.872005623579
 20
361.979964107275
 30
0.0
 11
252.872005653381
 21
361.979964107275
 31
0.0
  0
LINE
  5
   602
  8
0
  6
CONTINUOUS
 62
     5
 10
253.672004902363
 20
352.657637308205
 30
0.0
 11
253.672004902363
 21
356.102290679847
 31
0.0
  0
LINE
  5
   603
  8
0
  6
CONTINUOUS
 62
     5
 10
252.07200564146
 20
352.726277445947
 30
0.0
 11
252.07200564146
 21
356.033650542106
 31
0.0
  0
LINE
  5
   604
  8
0
  6
CONTINUOUS
 62
     5
 10
273.272006720305
 20
346.779963880777
 30
0.0
 11
273.272006720305
 21
349.591047907041
 31
0.0
  0
LINE
  5
   605
  8
0
  6
CONTINUOUS
 62
     5
 10
273.272006720305
 20
346.779963880777
 30
0.0
 11
275.272006750107
 21
346.779963880777
 31
0.0
  0
LINE
  5
   606
  8
0
  6
CONTINUOUS
 62
     5
 10
277.272006779909
 20
346.779963880777
 30
0.0
 11
277.272006779909
 21
349.591047907041
 31
0.0
  0
LINE
  5
   607
  8
0
  6
CONTINUOUS
 62
     5
 10
275.272006750107
 20
346.779963880777
 30
0.0
 11
277.272006779909
 21
346.779963880777
 31
0.0
  0
LINE
  5
   608
  8
0
  6
CONTINUOUS
 62
     5
 10
273.272006720305
 20
349.591047907041
 30
0.0
 11
277.272006779909
 21
349.591047907041
 31
0.0
  0
LINE
  5
   609
  8
0
  6
CONTINUOUS
 62
     5
 10
273.272006720305
 20
359.168880081012
 30
0.0
 11
273.272006720305
 21
361.979964107275
 31
0.0
  0
LINE
  5
   60A
  8
0
  6
CONTINUOUS
 62
     5
 10
273.272006720305
 20
361.979964107275
 30
0.0
 11
275.272006750107
 21
361.979964107275
 31
0.0
  0
LINE
  5
   60B
  8
0
  6
CONTINUOUS
 62
     5
 10
277.272006779909
 20
359.168880081012
 30
0.0
 11
277.272006779909
 21
361.979964107275
 31
0.0
  0
LINE
  5
   60C
  8
0
  6
CONTINUOUS
 62
     5
 10
275.272006750107
 20
361.979964107275
 30
0.0
 11
277.272006779909
 21
361.979964107275
 31
0.0
  0
LINE
  5
   60D
  8
0
  6
CONTINUOUS
 62
     5
 10
273.272006720305
 20
359.168880081012
 30
0.0
 11
277.272006779909
 21
359.168880081012
 31
0.0
  0
LINE
  5
   60E
  8
0
  6
CONTINUOUS
 62
     2
 10
270.472006678581
 20
347.579963892698
 30
0.0
 11
270.472006678581
 21
348.77996391058
 31
0.0
  0
LINE
  5
   60F
  8
0
  6
CONTINUOUS
 62
     2
 10
270.472006678581
 20
350.379963934422
 30
0.0
 11
270.472006678581
 21
358.379964053631
 31
0.0
  0
LINE
  5
   610
  8
0
  6
CONTINUOUS
 62
     2
 10
270.472006678581
 20
359.979964077473
 30
0.0
 11
270.472006678581
 21
361.179964095354
 31
0.0
  0
LINE
  5
   611
  8
0
  6
CONTINUOUS
 62
     2
 10
270.472006678581
 20
349.575422906808
 30
0.0
 11
270.472006678581
 21
349.584504938193
 31
0.0
  0
LINE
  5
   612
  8
0
  6
CONTINUOUS
 62
     2
 10
273.272006720305
 20
347.579963892698
 30
0.0
 11
273.272006720305
 21
348.77996391058
 31
0.0
  0
LINE
  5
   613
  8
0
  6
CONTINUOUS
 62
     2
 10
273.272006720305
 20
350.379963934422
 30
0.0
 11
273.272006720305
 21
357.926556929797
 31
0.0
  0
LINE
  5
   614
  8
0
  6
CONTINUOUS
 62
     2
 10
271.272006690502
 20
347.579963892698
 30
0.0
 11
273.272006720305
 21
347.579963892698
 31
0.0
  0
LINE
  5
   615
  8
0
  6
CONTINUOUS
 62
     2
 10
274.472006738186
 20
351.179963946342
 30
0.0
 11
274.472006738186
 21
351.982698333304
 31
0.0
  0
LINE
  5
   616
  8
0
  6
CONTINUOUS
 62
     2
 10
273.272006720305
 20
351.179963946342
 30
0.0
 11
274.472006738186
 21
351.179963946342
 31
0.0
  0
LINE
  5
   617
  8
0
  6
CONTINUOUS
 62
     2
 10
273.270789068919
 20
348.77996391058
 30
0.0
 11
273.272006720305
 21
348.77996391058
 31
0.0
  0
LINE
  5
   618
  8
0
  6
CONTINUOUS
 62
     2
 10
273.270789068919
 20
350.379963934422
 30
0.0
 11
273.272006720305
 21
350.379963934422
 31
0.0
  0
LINE
  5
   619
  8
0
  6
CONTINUOUS
 62
     2
 10
270.472006678581
 20
359.175423049859
 30
0.0
 11
270.472006678581
 21
359.184505081244
 31
0.0
  0
LINE
  5
   61A
  8
0
  6
CONTINUOUS
 62
     2
 10
273.272006720305
 20
357.57996404171
 30
0.0
 11
273.272006720305
 21
358.379964053631
 31
0.0
  0
LINE
  5
   61B
  8
0
  6
CONTINUOUS
 62
     2
 10
273.272006720305
 20
359.979964077473
 30
0.0
 11
273.272006720305
 21
361.179964095354
 31
0.0
  0
LINE
  5
   61C
  8
0
  6
CONTINUOUS
 62
     2
 10
271.272006690502
 20
361.179964095354
 30
0.0
 11
273.272006720305
 21
361.179964095354
 31
0.0
  0
LINE
  5
   61D
  8
0
  6
CONTINUOUS
 62
     2
 10
274.472006738186
 20
356.777229654748
 30
0.0
 11
274.472006738186
 21
357.57996404171
 31
0.0
  0
LINE
  5
   61E
  8
0
  6
CONTINUOUS
 62
     2
 10
273.272006720305
 20
357.57996404171
 30
0.0
 11
274.472006738186
 21
357.57996404171
 31
0.0
  0
LINE
  5
   61F
  8
0
  6
CONTINUOUS
 62
     2
 10
273.270789068919
 20
359.979964077473
 30
0.0
 11
273.272006720305
 21
359.979964077473
 31
0.0
  0
LINE
  5
   620
  8
0
  6
CONTINUOUS
 62
     2
 10
273.270789068919
 20
358.379964053631
 30
0.0
 11
273.272006720305
 21
358.379964053631
 31
0.0
  0
LINE
  5
   621
  8
0
  6
CONTINUOUS
 62
    90
 10
252.872005653381
 20
253.979964023829
 30
0.0
 11
252.872005653381
 21
258.379962563515
 31
0.0
  0
LINE
  5
   622
  8
0
  6
CONTINUOUS
 62
    90
 10
252.872005653381
 20
253.979964023829
 30
0.0
 11
254.472004914284
 21
253.979964023829
 31
0.0
  0
LINE
  5
   623
  8
0
  6
CONTINUOUS
 62
    90
 10
254.472004914284
 20
253.979964023829
 30
0.0
 11
254.472004914284
 21
258.379962563515
 31
0.0
  0
LINE
  5
   624
  8
0
  6
CONTINUOUS
 62
    90
 10
252.872005653381
 20
258.379962563515
 30
0.0
 11
254.472004914284
 21
258.379962563515
 31
0.0
  0
LINE
  5
   625
  8
0
  6
CONTINUOUS
 62
    90
 10
252.872005653381
 20
264.779962658882
 30
0.0
 11
252.872005653381
 21
268.779962718487
 31
0.0
  0
LINE
  5
   626
  8
0
  6
CONTINUOUS
 62
    90
 10
254.472004914284
 20
264.779962658882
 30
0.0
 11
254.472004914284
 21
268.779962718487
 31
0.0
  0
LINE
  5
   627
  8
0
  6
CONTINUOUS
 62
    90
 10
252.872005653381
 20
268.779962718487
 30
0.0
 11
254.472004914284
 21
268.779962718487
 31
0.0
  0
LINE
  5
   628
  8
0
  6
CONTINUOUS
 62
    90
 10
252.872005653381
 20
264.779962658882
 30
0.0
 11
254.472004914284
 21
264.779962658882
 31
0.0
  0
LINE
  5
   629
  8
0
  6
CONTINUOUS
 62
     2
 10
269.67200666666
 20
253.179962486029
 30
0.0
 11
269.67200666666
 21
269.179962724447
 31
0.0
  0
LINE
  5
   62A
  8
0
  6
CONTINUOUS
 62
     2
 10
269.67200666666
 20
253.179962486029
 30
0.0
 11
269.67200666666
 21
265.579962670803
 31
0.0
  0
LINE
  5
   62B
  8
0
  6
CONTINUOUS
 62
     2
 10
272.472006708384
 20
257.579962551594
 30
0.0
 11
272.472006708384
 21
265.229763518655
 31
0.0
  0
LINE
  5
   62C
  8
0
  6
CONTINUOUS
 62
     2
 10
272.472006708384
 20
254.779962509871
 30
0.0
 11
272.472006708384
 21
255.979962527752
 31
0.0
  0
LINE
  5
   62D
  8
0
  6
CONTINUOUS
 62
     2
 10
269.67200666666
 20
254.779962509871
 30
0.0
 11
272.472006708384
 21
254.779962509871
 31
0.0
  0
LINE
  5
   62E
  8
0
  6
CONTINUOUS
 62
     2
 10
273.672006726265
 20
258.379962563515
 30
0.0
 11
273.672006726265
 21
259.182700002234
 31
0.0
  0
LINE
  5
   62F
  8
0
  6
CONTINUOUS
 62
     2
 10
272.472006708384
 20
258.379962563515
 30
0.0
 11
273.672006726265
 21
258.379962563515
 31
0.0
  0
LINE
  5
   630
  8
0
  6
CONTINUOUS
 62
     2
 10
272.470789056998
 20
255.979962527752
 30
0.0
 11
272.472006708384
 21
255.979962527752
 31
0.0
  0
LINE
  5
   631
  8
0
  6
CONTINUOUS
 62
     2
 10
272.470789056998
 20
257.579962551594
 30
0.0
 11
272.472006708384
 21
257.579962551594
 31
0.0
  0
LINE
  5
   632
  8
0
  6
CONTINUOUS
 62
     2
 10
269.67200666666
 20
266.375424718789
 30
0.0
 11
269.67200666666
 21
266.384500646659
 31
0.0
  0
LINE
  5
   633
  8
0
  6
CONTINUOUS
 62
     2
 10
272.472006708384
 20
267.179962694645
 30
0.0
 11
272.472006708384
 21
268.379962712526
 31
0.0
  0
LINE
  5
   634
  8
0
  6
CONTINUOUS
 62
     2
 10
272.472006708384
 20
264.779962658882
 30
0.0
 11
272.472006708384
 21
265.579962670803
 31
0.0
  0
LINE
  5
   635
  8
0
  6
CONTINUOUS
 62
     2
 10
270.472006678581
 20
268.379962712526
 30
0.0
 11
272.472006708384
 21
268.379962712526
 31
0.0
  0
LINE
  5
   636
  8
0
  6
CONTINUOUS
 62
     2
 10
273.672006726265
 20
263.977225220163
 30
0.0
 11
273.672006726265
 21
264.779962658882
 31
0.0
  0
LINE
  5
   637
  8
0
  6
CONTINUOUS
 62
     2
 10
272.472006708384
 20
264.779962658882
 30
0.0
 11
273.672006726265
 21
264.779962658882
 31
0.0
  0
LINE
  5
   638
  8
0
  6
CONTINUOUS
 62
     2
 10
272.470789056998
 20
267.179962694645
 30
0.0
 11
272.472006708384
 21
267.179962694645
 31
0.0
  0
LINE
  5
   639
  8
0
  6
CONTINUOUS
 62
     2
 10
272.470789056998
 20
265.579962670803
 30
0.0
 11
272.472006708384
 21
265.579962670803
 31
0.0
  0
LINE
  5
   63A
  8
0
  6
CONTINUOUS
 62
     5
 10
272.872006714344
 20
269.179962724447
 30
0.0
 11
272.968762697231
 21
269.179962724447
 31
0.0
  0
LINE
  5
   63B
  8
0
  6
CONTINUOUS
 62
     5
 10
269.67200666666
 20
253.97996249795
 30
0.0
 11
272.872006714344
 21
253.97996249795
 31
0.0
  0
LINE
  5
   63C
  8
0
  6
CONTINUOUS
 62
     5
 10
250.872005623579
 20
269.179962724447
 30
0.0
 11
252.872005653381
 21
269.179962724447
 31
0.0
  0
LINE
  5
   63D
  8
0
  6
CONTINUOUS
 62
     5
 10
250.872005623579
 20
253.97996249795
 30
0.0
 11
252.872005653381
 21
253.97996249795
 31
0.0
  0
LINE
  5
   63E
  8
0
  6
CONTINUOUS
 62
     5
 10
253.672004902363
 20
259.857642028893
 30
0.0
 11
253.672004902363
 21
263.302283193504
 31
0.0
  0
LINE
  5
   63F
  8
0
  6
CONTINUOUS
 62
     5
 10
252.07200564146
 20
259.926269959603
 30
0.0
 11
252.07200564146
 21
263.233655262793
 31
0.0
  0
LINE
  5
   640
  8
0
  6
CONTINUOUS
 62
     5
 10
273.272006720305
 20
253.97996249795
 30
0.0
 11
273.272006720305
 21
256.791049575971
 31
0.0
  0
LINE
  5
   641
  8
0
  6
CONTINUOUS
 62
     5
 10
273.272006720305
 20
253.97996249795
 30
0.0
 11
275.272006750107
 21
253.97996249795
 31
0.0
  0
LINE
  5
   642
  8
0
  6
CONTINUOUS
 62
     5
 10
277.272006779909
 20
253.97996249795
 30
0.0
 11
277.272006779909
 21
256.791049575971
 31
0.0
  0
LINE
  5
   643
  8
0
  6
CONTINUOUS
 62
     5
 10
275.272006750107
 20
253.97996249795
 30
0.0
 11
277.272006779909
 21
253.97996249795
 31
0.0
  0
LINE
  5
   644
  8
0
  6
CONTINUOUS
 62
     5
 10
273.272006720305
 20
256.791049575971
 30
0.0
 11
277.272006779909
 21
256.791049575971
 31
0.0
  0
LINE
  5
   645
  8
0
  6
CONTINUOUS
 62
     5
 10
273.272006720305
 20
266.368875646426
 30
0.0
 11
273.272006720305
 21
269.179962724447
 31
0.0
  0
LINE
  5
   646
  8
0
  6
CONTINUOUS
 62
     5
 10
273.272006720305
 20
269.179962724447
 30
0.0
 11
275.272006750107
 21
269.179962724447
 31
0.0
  0
LINE
  5
   647
  8
0
  6
CONTINUOUS
 62
     5
 10
277.272006779909
 20
266.368875646426
 30
0.0
 11
277.272006779909
 21
269.179962724447
 31
0.0
  0
LINE
  5
   648
  8
0
  6
CONTINUOUS
 62
     5
 10
275.272006750107
 20
269.179962724447
 30
0.0
 11
277.272006779909
 21
269.179962724447
 31
0.0
  0
LINE
  5
   649
  8
0
  6
CONTINUOUS
 62
     5
 10
273.272006720305
 20
266.368875646426
 30
0.0
 11
277.272006779909
 21
266.368875646426
 31
0.0
  0
LINE
  5
   64A
  8
0
  6
CONTINUOUS
 62
   253
 10
278.872006803751
 20
348.379963904619
 30
0.0
 11
278.872006803751
 21
349.584846735073
 31
0.0
  0
LINE
  5
   64B
  8
0
  6
CONTINUOUS
 62
   253
 10
278.872006803751
 20
359.175081252979
 30
0.0
 11
278.872006803751
 21
360.379964083433
 31
0.0
  0
LINE
  5
   64C
  8
0
  6
CONTINUOUS
 62
   253
 10
279.672006815672
 20
359.175081252979
 30
0.0
 11
279.672006815672
 21
360.379964083433
 31
0.0
  0
LINE
  5
   64D
  8
0
  6
CONTINUOUS
 62
   253
 10
279.672006815672
 20
348.379963904619
 30
0.0
 11
279.672006815672
 21
349.584846735073
 31
0.0
  0
ARC
  5
   64E
  8
0
  6
CONTINUOUS
 62
   253
 10
248.072006344795
 20
341.394323154471
 30
0.0
 40
2.40000003576229
 50
119.999976811972
 51
180.000092747486
  0
LINE
  5
   64F
  8
0
  6
CONTINUOUS
 62
   253
 10
246.872007168083
 20
343.472784640174
 30
0.0
 11
249.82892846776
 21
345.179963948515
 31
0.0
  0
LINE
  5
   650
  8
0
  6
CONTINUOUS
 62
   253
 10
255.742540211537
 20
345.179963856936
 30
0.0
 11
256.472006469965
 21
345.179963856936
 31
0.0
  0
LINE
  5
   651
  8
0
  6
CONTINUOUS
 62
   253
 10
249.832006218433
 20
345.179963856936
 30
0.0
 11
250.793544166111
 21
345.179963856936
 31
0.0
  0
LINE
  5
   652
  8
0
  6
CONTINUOUS
 62
   253
 10
277.272009831667
 20
269.579962730408
 30
0.0
 11
280.872006833553
 21
269.579962730408
 31
0.0
  0
LINE
  5
   653
  8
0
  6
CONTINUOUS
 62
   253
 10
250.072004026258
 20
267.979962706566
 30
0.0
 11
250.072004026258
 21
269.179962724447
 31
0.0
  0
LINE
  5
   654
  8
0
  6
CONTINUOUS
 62
   253
 10
250.072006374598
 20
267.979962706566
 30
0.0
 11
250.872005623579
 21
267.979962706566
 31
0.0
  0
LINE
  5
   655
  8
0
  6
CONTINUOUS
 62
   253
 10
277.272006779909
 20
267.979962706566
 30
0.0
 11
278.872006803751
 21
267.979962706566
 31
0.0
  0
ARC
  5
   656
  8
0
  6
CONTINUOUS
 62
   253
 10
258.872007410666
 20
295.17996312104
 30
0.0
 40
19.6000002780586
 50
139.055421104778
 51
139.227195276614
  0
LINE
  5
   657
  8
0
  6
CONTINUOUS
 62
   253
 10
256.072004938126
 20
346.779963880777
 30
0.0
 11
256.472006469965
 21
346.779963880777
 31
0.0
  0
LINE
  5
   658
  8
0
  6
CONTINUOUS
 62
   253
 10
249.032006206513
 20
346.779963880777
 30
0.0
 11
250.872005623579
 21
346.779963880777
 31
0.0
  0
LINE
  5
   659
  8
0
  6
CONTINUOUS
 62
   253
 10
255.742593617299
 20
345.179963856936
 30
0.0
 11
256.472006469965
 21
345.179963856936
 31
0.0
  0
LINE
  5
   65A
  8
0
  6
CONTINUOUS
 62
   253
 10
249.832006218433
 20
345.179963856936
 30
0.0
 11
250.796175544324
 21
345.179963856936
 31
0.0
  0
LINE
  5
   65B
  8
0
  6
CONTINUOUS
 62
   253
 10
250.072006374598
 20
270.379962742329
 30
0.0
 11
255.217581402444
 21
270.379962742329
 31
0.0
  0
LINE
  5
   65C
  8
0
  6
CONTINUOUS
 62
   253
 10
241.832006251812
 20
307.979963302612
 30
0.0
 11
241.832006251812
 21
308.179963305593
 31
0.0
  0
LINE
  5
   65D
  8
0
  6
CONTINUOUS
 62
   253
 10
240.872006237507
 20
359.979964077471
 30
0.0
 11
241.832006289959
 21
359.979964077471
 31
0.0
  0
LINE
  5
   65E
  8
0
  6
CONTINUOUS
 62
   253
 10
240.872006237507
 20
255.979962527752
 30
0.0
 11
241.832006289959
 21
255.979962527752
 31
0.0
  0
LINE
  5
   65F
  8
0
  6
CONTINUOUS
 62
   253
 10
243.832006129026
 20
309.579963326454
 30
0.0
 11
244.072006285191
 21
309.579963326454
 31
0.0
  0
LINE
  5
   660
  8
0
  6
CONTINUOUS
 62
   253
 10
243.87200628221
 20
346.779963880777
 30
0.0
 11
244.072006285191
 21
346.779963880777
 31
0.0
  0
LINE
  5
   661
  8
0
  6
CONTINUOUS
 62
   253
 10
243.432006123066
 20
346.779964213079
 30
0.0
 11
243.87200628221
 21
346.779964213079
 31
0.0
  0
LINE
  5
   662
  8
0
  6
CONTINUOUS
 62
   253
 10
248.872006356716
 20
346.939961441755
 30
0.0
 11
248.872006356716
 21
349.579963922501
 31
0.0
  0
LINE
  5
   663
  8
0
  6
CONTINUOUS
 62
   253
 10
247.832006264925
 20
347.979963974953
 30
0.0
 11
248.232006270885
 21
347.579963968992
 31
0.0
  0
LINE
  5
   664
  8
0
  6
CONTINUOUS
 62
   253
 10
244.072006285191
 20
347.979963898659
 30
0.0
 11
244.072006285191
 21
348.379963904619
 31
0.0
  0
LINE
  5
   665
  8
0
  6
CONTINUOUS
 62
   253
 10
248.872006356716
 20
266.379962682724
 30
0.0
 11
248.872006356716
 21
267.179962694645
 31
0.0
  0
LINE
  5
   666
  8
0
  6
CONTINUOUS
 62
   253
 10
248.872006356716
 20
267.179962694645
 30
0.0
 11
248.872006356716
 21
267.979962706566
 31
0.0
  0
LINE
  5
   667
  8
0
  6
CONTINUOUS
 62
   253
 10
244.072006285191
 20
267.579962700605
 30
0.0
 11
244.072006285191
 21
267.979962706566
 31
0.0
  0
LINE
  5
   668
  8
0
  6
CONTINUOUS
 62
   253
 10
240.872006237507
 20
359.019966504574
 30
0.0
 11
240.872006237507
 21
359.179964065552
 31
0.0
  0
LINE
  5
   669
  8
0
  6
CONTINUOUS
 62
   253
 10
240.872006237507
 20
359.179964065552
 30
0.0
 11
240.872006237507
 21
359.979964077473
 31
0.0
  0
LINE
  5
   66A
  8
0
  6
CONTINUOUS
 62
   253
 10
240.872006237507
 20
255.979962527752
 30
0.0
 11
240.872006237507
 21
256.779962539673
 31
0.0
  0
LINE
  5
   66B
  8
0
  6
CONTINUOUS
 62
   253
 10
240.872006237507
 20
256.779962539673
 30
0.0
 11
240.872006237507
 21
256.939963152409
 31
0.0
  0
LINE
  5
   66C
  8
0
  6
CONTINUOUS
 62
   253
 10
280.872006833553
 20
346.579963877797
 30
0.0
 11
280.872006833553
 21
346.779963880777
 31
0.0
  0
LINE
  5
   66D
  8
0
  6
CONTINUOUS
 62
   253
 10
280.872006833553
 20
361.979964107275
 30
0.0
 11
280.872006833553
 21
362.179964110255
 31
0.0
  0
LINE
  5
   66E
  8
0
  6
CONTINUOUS
 62
   253
 10
280.872006833553
 20
341.179963797331
 30
0.0
 11
280.872006833553
 21
345.179963856936
 31
0.0
  0
LINE
  5
   66F
  8
0
  6
CONTINUOUS
 62
   253
 10
240.872006237507
 20
307.979963302612
 30
0.0
 11
241.832006289959
 21
307.979963302612
 31
0.0
  0
LINE
  5
   670
  8
0
  6
CONTINUOUS
 62
   253
 10
244.072006285191
 20
307.979963302612
 30
0.0
 11
244.072006285191
 21
341.179963797331
 31
0.0
  0
LINE
  5
   671
  8
0
  6
CONTINUOUS
 62
   253
 10
241.832006289959
 20
307.979963302612
 30
0.0
 11
244.072006285191
 21
307.979963302612
 31
0.0
  0
LINE
  5
   672
  8
0
  6
CONTINUOUS
 62
   253
 10
240.872006237507
 20
274.779962807894
 30
0.0
 11
240.872006237507
 21
291.579963058233
 31
0.0
  0
LINE
  5
   673
  8
0
  6
CONTINUOUS
 62
   253
 10
240.872006237507
 20
299.979963183403
 30
0.0
 11
240.872006237507
 21
307.979963302612
 31
0.0
  0
LINE
  5
   674
  8
0
  6
CONTINUOUS
 62
   253
 10
250.072006374598
 20
247.979962408543
 30
0.0
 11
255.272007367612
 21
247.979962408543
 31
0.0
  0
LINE
  5
   675
  8
0
  6
CONTINUOUS
 62
   253
 10
250.072006374598
 20
367.979964196682
 30
0.0
 11
278.872006803751
 21
367.979964196682
 31
0.0
  0
LINE
  5
   676
  8
0
  6
CONTINUOUS
 62
   253
 10
241.832006251812
 20
341.179963797331
 30
0.0
 11
241.832006251812
 21
342.779963821173
 31
0.0
  0
LINE
  5
   677
  8
0
  6
CONTINUOUS
 62
   253
 10
242.472006261349
 20
341.179963797331
 30
0.0
 11
242.472006261349
 21
342.13996137023
 31
0.0
  0
LINE
  5
   678
  8
0
  6
CONTINUOUS
 62
   253
 10
242.792006266117
 20
341.179963797331
 30
0.0
 11
242.792006266117
 21
342.13996137023
 31
0.0
  0
LINE
  5
   679
  8
0
  6
CONTINUOUS
 62
   253
 10
242.872006267309
 20
343.179963827133
 30
0.0
 11
242.872006267309
 21
343.979963839054
 31
0.0
  0
LINE
  5
   67A
  8
0
  6
CONTINUOUS
 62
   253
 10
242.872006267309
 20
344.979963853955
 30
0.0
 11
242.872006267309
 21
345.179963856936
 31
0.0
  0
LINE
  5
   67B
  8
0
  6
CONTINUOUS
 62
   253
 10
241.832006289959
 20
342.779963821173
 30
0.0
 11
242.472006261349
 21
342.779963821173
 31
0.0
  0
LINE
  5
   67C
  8
0
  6
CONTINUOUS
 62
   253
 10
280.312006825209
 20
274.779962807894
 30
0.0
 11
280.312006825209
 21
287.419965437651
 31
0.0
  0
LINE
  5
   67D
  8
0
  6
CONTINUOUS
 62
   253
 10
280.312006825209
 20
313.339960941076
 30
0.0
 11
280.312006825209
 21
341.179963797331
 31
0.0
  0
LINE
  5
   67E
  8
0
  6
CONTINUOUS
 62
   253
 10
280.872006833553
 20
287.419965437651
 30
0.0
 11
280.872006833553
 21
287.979963004589
 31
0.0
  0
LINE
  5
   67F
  8
0
  6
CONTINUOUS
 62
   253
 10
242.472006261349
 20
307.979963302612
 30
0.0
 11
242.472006261349
 21
308.179963305593
 31
0.0
  0
LINE
  5
   680
  8
0
  6
CONTINUOUS
 62
   253
 10
269.912007656911
 20
304.857521338649
 30
0.0
 11
274.049157244246
 21
313.339961417539
 31
0.0
  0
LINE
  5
   681
  8
0
  6
CONTINUOUS
 62
   253
 10
274.049158221143
 20
313.339963382483
 30
0.0
 11
280.312006214857
 21
313.339963382483
 31
0.0
  0
LINE
  5
   682
  8
0
  6
CONTINUOUS
 62
   253
 10
269.912009111643
 20
287.419962996244
 30
0.0
 11
280.312006214857
 21
287.419962996244
 31
0.0
  0
LINE
  5
   683
  8
0
  6
CONTINUOUS
 62
   253
 10
269.912007585765
 20
287.419965437651
 30
0.0
 11
269.912007585765
 21
291.579963058233
 31
0.0
  0
LINE
  5
   684
  8
0
  6
CONTINUOUS
 62
   253
 10
269.912007585765
 20
299.979963183403
 30
0.0
 11
269.912007585765
 21
304.857520629131
 31
0.0
  0
LINE
  5
   685
  8
0
  6
CONTINUOUS
 62
   253
 10
270.47200759411
 20
271.17996275425
 30
0.0
 11
270.47200759411
 21
273.979962795973
 31
0.0
  0
LINE
  5
   686
  8
0
  6
CONTINUOUS
 62
   253
 10
278.92643185339
 20
270.379962742329
 30
0.0
 11
280.272006824613
 21
270.379962742329
 31
0.0
  0
LINE
  5
   687
  8
0
  6
CONTINUOUS
 62
   253
 10
270.47200759411
 20
273.979962795973
 30
0.0
 11
270.47200759411
 21
274.779962807894
 31
0.0
  0
LINE
  5
   688
  8
0
  6
CONTINUOUS
 62
   253
 10
243.432006123066
 20
273.979962795973
 30
0.0
 11
270.472006678581
 21
273.979962795973
 31
0.0
  0
LINE
  5
   689
  8
0
  6
CONTINUOUS
 62
    98
 10
240.872006237507
 20
291.579963058233
 30
0.0
 11
269.912009111643
 21
291.579963058233
 31
0.0
  0
LINE
  5
   68A
  8
0
  6
CONTINUOUS
 62
   253
 10
269.912009111643
 20
291.419963055849
 30
0.0
 11
270.472006678581
 21
291.419963055849
 31
0.0
  0
LINE
  5
   68B
  8
0
  6
CONTINUOUS
 62
    98
 10
240.872006237507
 20
291.579963058233
 30
0.0
 11
240.872006237507
 21
299.979963183403
 31
0.0
  0
LINE
  5
   68C
  8
0
  6
CONTINUOUS
 62
   253
 10
270.47200759411
 20
291.579963058233
 30
0.0
 11
270.47200759411
 21
299.979963183403
 31
0.0
  0
LINE
  5
   68D
  8
0
  6
CONTINUOUS
 62
   253
 10
269.912009111643
 20
300.139963185787
 30
0.0
 11
270.472006678581
 21
300.139963185787
 31
0.0
  0
LINE
  5
   68E
  8
0
  6
CONTINUOUS
 62
    98
 10
240.872006237507
 20
299.979963183403
 30
0.0
 11
269.912009111643
 21
299.979963183403
 31
0.0
  0
LINE
  5
   68F
  8
0
  6
CONTINUOUS
 62
   253
 10
278.872006803751
 20
266.375085973667
 30
0.0
 11
278.872006803751
 21
269.179962724447
 31
0.0
  0
LINE
  5
   690
  8
0
  6
CONTINUOUS
 62
   253
 10
278.872006803751
 20
269.179961843024
 30
0.0
 11
280.872006833553
 21
269.179961843024
 31
0.0
  0
LINE
  5
   691
  8
0
  6
CONTINUOUS
 62
   253
 10
278.872006803751
 20
253.779962494969
 30
0.0
 11
278.872006803751
 21
256.78483924873
 31
0.0
  0
LINE
  5
   692
  8
0
  6
CONTINUOUS
 62
   253
 10
242.872006267309
 20
307.979963302612
 30
0.0
 11
242.872006267309
 21
308.179963305593
 31
0.0
  0
LINE
  5
   693
  8
0
  6
CONTINUOUS
 62
   253
 10
243.072006270289
 20
345.179963856936
 30
0.0
 11
243.072006270289
 21
346.779963880777
 31
0.0
  0
LINE
  5
   694
  8
0
  6
CONTINUOUS
 62
   253
 10
244.472006291151
 20
348.379963904619
 30
0.0
 11
245.272006303072
 21
348.379963904619
 31
0.0
  0
LINE
  5
   695
  8
0
  6
CONTINUOUS
 62
   253
 10
245.672006309032
 20
346.779963880777
 30
0.0
 11
245.672006309032
 21
347.979963898659
 31
0.0
  0
LINE
  5
   696
  8
0
  6
CONTINUOUS
 62
   253
 10
244.072006285191
 20
346.779963880777
 30
0.0
 11
244.072006285191
 21
347.979963898659
 31
0.0
  0
LINE
  5
   697
  8
0
  6
CONTINUOUS
 62
   253
 10
247.672006338835
 20
347.579963892698
 30
0.0
 11
248.232006194592
 21
347.579963892698
 31
0.0
  0
LINE
  5
   698
  8
0
  6
CONTINUOUS
 62
   253
 10
247.272006332874
 20
346.779963880777
 30
0.0
 11
247.272006332874
 21
347.179963886738
 31
0.0
  0
LINE
  5
   699
  8
0
  6
CONTINUOUS
 62
   253
 10
244.472006291151
 20
267.579962700605
 30
0.0
 11
245.272006303072
 21
267.579962700605
 31
0.0
  0
LINE
  5
   69A
  8
0
  6
CONTINUOUS
 62
   253
 10
245.672006309032
 20
267.979962706566
 30
0.0
 11
245.672006309032
 21
269.179962724447
 31
0.0
  0
LINE
  5
   69B
  8
0
  6
CONTINUOUS
 62
   253
 10
244.072006285191
 20
267.979962706566
 30
0.0
 11
244.072006285191
 21
269.179962724447
 31
0.0
  0
LINE
  5
   69C
  8
0
  6
CONTINUOUS
 62
   253
 10
247.672006338835
 20
267.579962700605
 30
0.0
 11
248.472006350756
 21
267.579962700605
 31
0.0
  0
LINE
  5
   69D
  8
0
  6
CONTINUOUS
 62
   253
 10
248.872006356716
 20
267.979962706566
 30
0.0
 11
248.872006356716
 21
269.179962724447
 31
0.0
  0
LINE
  5
   69E
  8
0
  6
CONTINUOUS
 62
   253
 10
247.272006332874
 20
267.979962706566
 30
0.0
 11
247.272006332874
 21
269.179962724447
 31
0.0
  0
LINE
  5
   69F
  8
0
  6
CONTINUOUS
 62
   253
 10
278.872006803751
 20
360.379964083433
 30
0.0
 11
278.872006803751
 21
367.979964196682
 31
0.0
  0
LINE
  5
   6A0
  8
0
  6
CONTINUOUS
 62
   253
 10
278.872006803751
 20
346.779963880777
 30
0.0
 11
278.872006803751
 21
348.379963904619
 31
0.0
  0
LINE
  5
   6A1
  8
0
  6
CONTINUOUS
 62
   253
 10
256.472006469965
 20
346.779963880777
 30
0.0
 11
278.872006803751
 21
346.779963880777
 31
0.0
  0
LINE
  5
   6A2
  8
0
  6
CONTINUOUS
 62
   253
 10
245.672006309032
 20
346.779964213079
 30
0.0
 11
247.272006332874
 21
346.779964213079
 31
0.0
  0
LINE
  5
   6A3
  8
0
  6
CONTINUOUS
 62
   253
 10
278.872006803751
 20
348.379963904619
 30
0.0
 11
279.672006815672
 21
348.379963904619
 31
0.0
  0
LINE
  5
   6A4
  8
0
  6
CONTINUOUS
 62
   253
 10
278.872006803751
 20
360.379964083433
 30
0.0
 11
279.672006815672
 21
360.379964083433
 31
0.0
  0
LINE
  5
   6A5
  8
0
  6
CONTINUOUS
 62
   253
 10
279.672006815672
 20
360.379964083433
 30
0.0
 11
279.672006815672
 21
362.179964110255
 31
0.0
  0
LINE
  5
   6A6
  8
0
  6
CONTINUOUS
 62
   253
 10
279.672006815672
 20
346.579963877797
 30
0.0
 11
279.672006815672
 21
348.379963904619
 31
0.0
  0
LINE
  5
   6A7
  8
0
  6
CONTINUOUS
 62
   253
 10
279.672006815672
 20
346.579963877797
 30
0.0
 11
280.872006833553
 21
346.579963877797
 31
0.0
  0
LINE
  5
   6A8
  8
0
  6
CONTINUOUS
 62
   253
 10
279.672006815672
 20
362.179964110255
 30
0.0
 11
280.872006833553
 21
362.179964110255
 31
0.0
  0
LINE
  5
   6A9
  8
0
  6
CONTINUOUS
 62
   253
 10
245.672006309032
 20
341.179963797331
 30
0.0
 11
245.672006309032
 21
345.179963856936
 31
0.0
  0
LINE
  5
   6AA
  8
0
  6
CONTINUOUS
 62
   253
 10
245.672006309032
 20
345.179963856936
 30
0.0
 11
249.832006218433
 21
345.179963856936
 31
0.0
  0
LINE
  5
   6AB
  8
0
  6
CONTINUOUS
 62
   253
 10
256.472006469965
 20
345.179963856936
 30
0.0
 11
280.872006833553
 21
345.179963856936
 31
0.0
  0
LINE
  5
   6AC
  8
0
  6
CONTINUOUS
 62
   253
 10
278.872006803751
 20
247.979962408543
 30
0.0
 11
278.872006803751
 21
253.779962494969
 31
0.0
  0
LINE
  5
   6AD
  8
0
  6
CONTINUOUS
 62
   253
 10
240.872006237507
 20
269.179962392145
 30
0.0
 11
243.432006123066
 21
269.179962392145
 31
0.0
  0
LINE
  5
   6AE
  8
0
  6
CONTINUOUS
 62
   253
 10
249.832006371021
 20
345.179963856936
 30
0.0
 11
249.832006371021
 21
345.979963868856
 31
0.0
  0
LINE
  5
   6AF
  8
0
  6
CONTINUOUS
 62
   253
 10
256.472006469965
 20
345.179963856936
 30
0.0
 11
256.472006469965
 21
346.779963880777
 31
0.0
  0
LINE
  5
   6B0
  8
0
  6
CONTINUOUS
 62
   253
 10
249.032006282811
 20
346.779963957076
 30
0.0
 11
249.832006294732
 21
345.979963945155
 31
0.0
  0
LINE
  5
   6B1
  8
0
  6
CONTINUOUS
 62
   253
 10
245.672006309032
 20
269.179962392145
 30
0.0
 11
247.272006332874
 21
269.179962392145
 31
0.0
  0
LINE
  5
   6B2
  8
0
  6
CONTINUOUS
 62
   253
 10
243.432006123066
 20
269.179962392145
 30
0.0
 11
244.072006285191
 21
269.179962392145
 31
0.0
  0
LINE
  5
   6B3
  8
0
  6
CONTINUOUS
 62
   253
 10
248.872006356716
 20
269.179962392145
 30
0.0
 11
250.072006374598
 21
269.179962392145
 31
0.0
  0
LINE
  5
   6B4
  8
0
  6
CONTINUOUS
 62
   253
 10
243.432006123066
 20
270.379962742329
 30
0.0
 11
250.072006374598
 21
270.379962742329
 31
0.0
  0
LINE
  5
   6B5
  8
0
  6
CONTINUOUS
 62
   253
 10
250.072006374604
 20
269.179962724447
 30
0.0
 11
250.072006374604
 21
270.379962742329
 31
0.0
  0
LINE
  5
   6B6
  8
0
  6
CONTINUOUS
 62
   253
 10
243.432006275654
 20
270.379962742329
 30
0.0
 11
243.432006275654
 21
273.979962795973
 31
0.0
  0
LINE
  5
   6B7
  8
0
  6
CONTINUOUS
 62
   253
 10
241.832006289959
 20
346.779964213079
 30
0.0
 11
243.072006270289
 21
346.779964213079
 31
0.0
  0
LINE
  5
   6B8
  8
0
  6
CONTINUOUS
 62
   253
 10
241.832006289959
 20
345.179963856935
 30
0.0
 11
243.072006270289
 21
345.179963856935
 31
0.0
  0
LINE
  5
   6B9
  8
0
  6
CONTINUOUS
 62
   253
 10
241.832006251812
 20
345.179963856936
 30
0.0
 11
241.832006251812
 21
346.779963880777
 31
0.0
  0
LINE
  5
   6BA
  8
0
  6
CONTINUOUS
 62
   253
 10
248.23200627089
 20
347.579963968997
 30
0.0
 11
249.032006282811
 21
346.779963957076
 31
0.0
  0
ARC
  5
   6BB
  8
0
  6
CONTINUOUS
 62
   253
 10
247.672006338831
 20
347.17996388674
 30
0.0
 40
0.400000005956372
 50
89.9999999994097
 51
180.0
  0
ARC
  5
   6BC
  8
0
  6
CONTINUOUS
 62
   253
 10
244.472006291157
 20
347.979963898653
 30
0.0
 40
0.400000005966433
 50
90.000000000859
 51
180.0
  0
ARC
  5
   6BD
  8
0
  6
CONTINUOUS
 62
   253
 10
245.272006303069
 20
347.979963898655
 30
0.0
 40
0.400000005963932
 50
0.0
 51
89.9999999995237
  0
ARC
  5
   6BE
  8
0
  6
CONTINUOUS
 62
   253
 10
247.672006338834
 20
267.979962706566
 30
0.0
 40
0.400000005959981
 50
180.0
 51
270.000000000069
  0
ARC
  5
   6BF
  8
0
  6
CONTINUOUS
 62
   253
 10
248.472006350756
 20
267.979962706566
 30
0.0
 40
0.40000000596018
 50
269.999999999935
 51
360.0
  0
ARC
  5
   6C0
  8
0
  6
CONTINUOUS
 62
   253
 10
244.472006291151
 20
267.979962706566
 30
0.0
 40
0.400000005960322
 50
180.0
 51
270.00000000002
  0
ARC
  5
   6C1
  8
0
  6
CONTINUOUS
 62
   253
 10
245.272006303072
 20
267.979962706566
 30
0.0
 40
0.400000005960294
 50
269.999999999972
 51
360.0
  0
LINE
  5
   6C2
  8
0
  6
CONTINUOUS
 62
   253
 10
240.872006237507
 20
269.179962724447
 30
0.0
 11
240.872006237507
 21
274.779962807894
 31
0.0
  0
LINE
  5
   6C3
  8
0
  6
CONTINUOUS
 62
   253
 10
280.872006833553
 20
247.979962408543
 30
0.0
 11
280.872006833553
 21
253.779962494969
 31
0.0
  0
LINE
  5
   6C4
  8
0
  6
CONTINUOUS
 62
   253
 10
280.872006833553
 20
345.179963856936
 30
0.0
 11
280.872006833553
 21
346.579963877797
 31
0.0
  0
LINE
  5
   6C5
  8
0
  6
CONTINUOUS
 62
   253
 10
280.872006833553
 20
362.179964110255
 30
0.0
 11
280.872006833553
 21
367.979964196682
 31
0.0
  0
LINE
  5
   6C6
  8
0
  6
CONTINUOUS
 62
   253
 10
278.872006803751
 20
247.979962408543
 30
0.0
 11
280.872006833553
 21
247.979962408543
 31
0.0
  0
LINE
  5
   6C7
  8
0
  6
CONTINUOUS
 62
   253
 10
278.872006803751
 20
367.979964196682
 30
0.0
 11
280.872006833553
 21
367.979964196682
 31
0.0
  0
LINE
  5
   6C8
  8
0
  6
CONTINUOUS
 62
   253
 10
244.072006285191
 20
343.179963827133
 30
0.0
 11
244.072006285191
 21
346.779963880777
 31
0.0
  0
LINE
  5
   6C9
  8
0
  6
CONTINUOUS
 62
   253
 10
242.472006261349
 20
342.13996137023
 30
0.0
 11
242.472006261349
 21
343.179963827133
 31
0.0
  0
LINE
  5
   6CA
  8
0
  6
CONTINUOUS
 62
   253
 10
242.472006261349
 20
343.179963827133
 30
0.0
 11
244.072006285191
 21
343.179963827133
 31
0.0
  0
LINE
  5
   6CB
  8
0
  6
CONTINUOUS
 62
   253
 10
242.792007524967
 20
342.139962552786
 30
0.0
 11
243.752006242275
 21
341.179963835478
 31
0.0
  0
LINE
  5
   6CC
  8
0
  6
CONTINUOUS
 62
   253
 10
242.472006261349
 20
342.139963811636
 30
0.0
 11
242.792006342411
 21
342.139963811636
 31
0.0
  0
LINE
  5
   6CD
  8
0
  6
CONTINUOUS
 62
   253
 10
242.472006261349
 20
273.979962795973
 30
0.0
 11
242.472006261349
 21
274.779962807894
 31
0.0
  0
LINE
  5
   6CE
  8
0
  6
CONTINUOUS
 62
   253
 10
242.472006261349
 20
273.979962795973
 30
0.0
 11
243.432006123066
 21
273.979962795973
 31
0.0
  0
LINE
  5
   6CF
  8
0
  6
CONTINUOUS
 62
     2
 10
278.872006803751
 20
253.779962494969
 30
0.0
 11
280.872006833553
 21
253.779962494969
 31
0.0
  0
LINE
  5
   6D0
  8
0
  6
CONTINUOUS
 62
   253
 10
243.832006129026
 20
341.179963797331
 30
0.0
 11
244.072006285191
 21
341.179963797331
 31
0.0
  0
LINE
  5
   6D1
  8
0
  6
CONTINUOUS
 62
   253
 10
288.072006940842
 20
367.979964196682
 30
0.0
 11
294.472007036209
 21
367.979964196682
 31
0.0
  0
LINE
  5
   6D2
  8
0
  6
CONTINUOUS
 62
   253
 10
280.072006821632
 20
348.379963904619
 30
0.0
 11
280.072006821632
 21
349.584846735073
 31
0.0
  0
LINE
  5
   6D3
  8
0
  6
CONTINUOUS
 62
   253
 10
280.072006821632
 20
359.175081252979
 30
0.0
 11
280.072006821632
 21
360.379964083433
 31
0.0
  0
LINE
  5
   6D4
  8
0
  6
CONTINUOUS
 62
   253
 10
270.472006678581
 20
287.979963004589
 30
0.0
 11
280.872006833553
 21
287.979963004589
 31
0.0
  0
LINE
  5
   6D5
  8
0
  6
CONTINUOUS
 62
   253
 10
270.47200759411
 20
287.979963004589
 30
0.0
 11
270.47200759411
 21
291.579963058233
 31
0.0
  0
LINE
  5
   6D6
  8
0
  6
CONTINUOUS
 62
   253
 10
270.47200759411
 20
299.979963183403
 30
0.0
 11
270.47200759411
 21
304.728235959236
 31
0.0
  0
LINE
  5
   6D7
  8
0
  6
CONTINUOUS
 62
   253
 10
270.472007652189
 20
304.728235484377
 30
0.0
 11
274.399085418708
 21
312.7799631622
 31
0.0
  0
LINE
  5
   6D8
  8
0
  6
CONTINUOUS
 62
   253
 10
274.39908498417
 20
312.779963374138
 30
0.0
 11
280.872006833553
 21
312.779963374138
 31
0.0
  0
LINE
  5
   6D9
  8
0
  6
CONTINUOUS
 62
   253
 10
270.47200759411
 20
273.979962795973
 30
0.0
 11
270.47200759411
 21
274.779962807894
 31
0.0
  0
LINE
  5
   6DA
  8
0
  6
CONTINUOUS
 62
   253
 10
295.27200704813
 20
363.179964125156
 30
0.0
 11
295.27200704813
 21
363.979964137077
 31
0.0
  0
LINE
  5
   6DB
  8
0
  6
CONTINUOUS
 62
   253
 10
287.832007852794
 20
299.579963177443
 30
0.0
 11
287.832007852794
 21
299.979963183403
 31
0.0
  0
LINE
  5
   6DC
  8
0
  6
CONTINUOUS
 62
   253
 10
288.072006940842
 20
366.37996417284
 30
0.0
 11
294.472007036209
 21
366.37996417284
 31
0.0
  0
LINE
  5
   6DD
  8
0
  6
CONTINUOUS
 62
   253
 10
295.27200704813
 20
363.979964137077
 30
0.0
 11
295.27200704813
 21
366.37996417284
 31
0.0
  0
LINE
  5
   6DE
  8
0
  6
CONTINUOUS
 62
   253
 10
290.472006976605
 20
363.179964125156
 30
0.0
 11
290.472006976605
 21
363.979964137077
 31
0.0
  0
LINE
  5
   6DF
  8
0
  6
CONTINUOUS
 62
   253
 10
288.072006940842
 20
363.979964137077
 30
0.0
 11
290.472006976604
 21
363.979964137077
 31
0.0
  0
LINE
  5
   6E0
  8
0
  6
CONTINUOUS
 62
   253
 10
290.472006976605
 20
347.979963898659
 30
0.0
 11
290.472006976605
 21
363.179964125156
 31
0.0
  0
LINE
  5
   6E1
  8
0
  6
CONTINUOUS
 62
   253
 10
290.472006976605
 20
287.979963004589
 30
0.0
 11
290.472006976605
 21
290.779963046312
 31
0.0
  0
LINE
  5
   6E2
  8
0
  6
CONTINUOUS
 62
   253
 10
290.472006976605
 20
300.779963195324
 30
0.0
 11
290.472006976605
 21
343.179963827133
 31
0.0
  0
LINE
  5
   6E3
  8
0
  6
CONTINUOUS
 62
   253
 10
288.072006940842
 20
363.179964125156
 30
0.0
 11
290.472006976604
 21
363.179964125156
 31
0.0
  0
LINE
  5
   6E4
  8
0
  6
CONTINUOUS
 62
   253
 10
280.872006833553
 20
287.97996300459
 30
0.0
 11
290.472006976604
 21
287.97996300459
 31
0.0
  0
LINE
  5
   6E5
  8
0
  6
CONTINUOUS
 62
   253
 10
280.872006833553
 20
312.779963374138
 30
0.0
 11
280.872006833553
 21
341.179963797331
 31
0.0
  0
LINE
  5
   6E6
  8
0
  6
CONTINUOUS
 62
   253
 10
270.472006678581
 20
291.579963058233
 30
0.0
 11
280.872006833553
 21
291.579963058233
 31
0.0
  0
LINE
  5
   6E7
  8
0
  6
CONTINUOUS
 62
   253
 10
280.872006833553
 20
291.579963058233
 30
0.0
 11
289.672006964684
 21
291.579963058233
 31
0.0
  0
LINE
  5
   6E8
  8
0
  6
CONTINUOUS
 62
   253
 10
270.47200759411
 20
291.579963058233
 30
0.0
 11
270.47200759411
 21
299.979963183403
 31
0.0
  0
LINE
  5
   6E9
  8
0
  6
CONTINUOUS
 62
   253
 10
270.472006678581
 20
299.979963183403
 30
0.0
 11
280.872006833553
 21
299.979963183403
 31
0.0
  0
LINE
  5
   6EA
  8
0
  6
CONTINUOUS
 62
   253
 10
280.872006833553
 20
299.979963183403
 30
0.0
 11
289.672006964684
 21
299.979963183403
 31
0.0
  0
LINE
  5
   6EB
  8
0
  6
CONTINUOUS
 62
   253
 10
289.672007880212
 20
290.779963046312
 30
0.0
 11
289.672007880212
 21
291.579963058233
 31
0.0
  0
LINE
  5
   6EC
  8
0
  6
CONTINUOUS
 62
   253
 10
289.672007880212
 20
299.979963183403
 30
0.0
 11
289.672007880212
 21
300.779963195324
 31
0.0
  0
LINE
  5
   6ED
  8
0
  6
CONTINUOUS
 62
   253
 10
289.672006964684
 20
290.779963046312
 30
0.0
 11
290.472006976604
 21
290.779963046312
 31
0.0
  0
LINE
  5
   6EE
  8
0
  6
CONTINUOUS
 62
   253
 10
289.672006964684
 20
300.779963195324
 30
0.0
 11
290.472006976604
 21
300.779963195324
 31
0.0
  0
LINE
  5
   6EF
  8
0
  6
CONTINUOUS
 62
   253
 10
286.472006917
 20
291.579963058233
 30
0.0
 11
286.472006917
 21
299.979963183403
 31
0.0
  0
LINE
  5
   6F0
  8
0
  6
CONTINUOUS
 62
   253
 10
287.832006937265
 20
291.579963058233
 30
0.0
 11
287.832006937265
 21
299.579963177443
 31
0.0
  0
LINE
  5
   6F1
  8
0
  6
CONTINUOUS
 62
   253
 10
286.87200692296
 20
299.579963177443
 30
0.0
 11
287.832007547617
 21
299.579963177443
 31
0.0
  0
LINE
  5
   6F2
  8
0
  6
CONTINUOUS
 62
   253
 10
286.87200692296
 20
299.579963177443
 30
0.0
 11
286.87200692296
 21
299.979963183403
 31
0.0
  0
LINE
  5
   6F3
  8
0
  6
CONTINUOUS
 62
     3
 10
295.27200704813
 20
366.37996417284
 30
0.0
 11
295.27200704813
 21
367.179964184761
 31
0.0
  0
LINE
  5
   6F4
  8
0
  6
CONTINUOUS
 62
     3
 10
294.472007036209
 20
366.37996417284
 30
0.0
 11
295.27200704813
 21
366.37996417284
 31
0.0
  0
ARC
  5
   6F5
  8
0
  6
CONTINUOUS
 62
     3
 10
294.472014872216
 20
367.179972020766
 30
0.0
 40
0.800000011928952
 50
359.99943878295
 51
450.000561218109
  0
LINE
  5
   6F6
  8
0
  6
CONTINUOUS
 62
   253
 10
290.472006976604
 20
329.179963618517
 30
0.0
 11
291.029764553275
 21
329.179963618517
 31
0.0
  0
LINE
  5
   6F7
  8
0
  6
CONTINUOUS
 62
     3
 10
290.472006976605
 20
343.179963827133
 30
0.0
 11
290.472006976605
 21
347.979963898659
 31
0.0
  0
LINE
  5
   6F8
  8
0
  6
CONTINUOUS
 62
     3
 10
290.472006976604
 20
347.019963884354
 30
0.0
 11
291.029764553275
 21
347.019963884354
 31
0.0
  0
LINE
  5
   6F9
  8
0
  6
CONTINUOUS
 62
   253
 10
284.952005673647
 20
363.459964129329
 30
0.0
 11
288.072006940842
 21
363.459964129329
 31
0.0
  0
LINE
  5
   6FA
  8
0
  6
CONTINUOUS
 62
   253
 10
282.872006863356
 20
365.53998613298
 30
0.0
 11
282.872006863356
 21
366.37996417284
 31
0.0
  0
LINE
  5
   6FB
  8
0
  6
CONTINUOUS
 62
   253
 10
280.872006833553
 20
367.979964196682
 30
0.0
 11
288.072006940842
 21
367.979964196682
 31
0.0
  0
LINE
  5
   6FC
  8
0
  6
CONTINUOUS
 62
   253
 10
280.072006821632
 20
360.379964083433
 30
0.0
 11
280.072006821632
 21
361.979964107275
 31
0.0
  0
LINE
  5
   6FD
  8
0
  6
CONTINUOUS
 62
   253
 10
280.072006821632
 20
346.779963880777
 30
0.0
 11
280.072006821632
 21
348.379963904619
 31
0.0
  0
LINE
  5
   6FE
  8
0
  6
CONTINUOUS
 62
   253
 10
280.872006833553
 20
361.979964107275
 30
0.0
 11
288.072006940842
 21
361.979964107275
 31
0.0
  0
LINE
  5
   6FF
  8
0
  6
CONTINUOUS
 62
   253
 10
280.872006833553
 20
346.779963880777
 30
0.0
 11
288.072006940842
 21
346.779963880777
 31
0.0
  0
LINE
  5
   700
  8
0
  6
CONTINUOUS
 62
   253
 10
280.072006821632
 20
348.379963904619
 30
0.0
 11
288.072006940842
 21
348.379963904619
 31
0.0
  0
LINE
  5
   701
  8
0
  6
CONTINUOUS
 62
   253
 10
280.072006821632
 20
360.379964083433
 30
0.0
 11
288.072006940842
 21
360.379964083433
 31
0.0
  0
LINE
  5
   702
  8
0
  6
CONTINUOUS
 62
   253
 10
280.072006821632
 20
346.779963880777
 30
0.0
 11
280.872006833553
 21
346.779963880777
 31
0.0
  0
LINE
  5
   703
  8
0
  6
CONTINUOUS
 62
   253
 10
280.072006821632
 20
361.979964107275
 30
0.0
 11
280.872006833553
 21
361.979964107275
 31
0.0
  0
LINE
  5
   704
  8
0
  6
CONTINUOUS
 62
   253
 10
284.072006881237
 20
364.699959264994
 30
0.0
 11
284.072006881237
 21
366.459969056845
 31
0.0
  0
LINE
  5
   705
  8
0
  6
CONTINUOUS
 62
   253
 10
284.072006881237
 20
364.699964147806
 30
0.0
 11
288.072006940842
 21
364.699964147806
 31
0.0
  0
LINE
  5
   706
  8
0
  6
CONTINUOUS
 62
   253
 10
284.072006881237
 20
366.459964174032
 30
0.0
 11
288.072006940842
 21
366.459964174032
 31
0.0
  0
ARC
  5
   707
  8
0
  6
CONTINUOUS
 62
   253
 10
284.951414935588
 20
365.540624548034
 30
0.0
 40
2.07955362754309
 50
180.017590817086
 51
270.016273481954
  0
LINE
  5
   708
  8
0
  6
CONTINUOUS
 62
   253
 10
280.872006833553
 20
366.37996417284
 30
0.0
 11
280.872006833553
 21
367.979964196682
 31
0.0
  0
LINE
  5
   709
  8
0
  6
CONTINUOUS
 62
   253
 10
280.872006833553
 20
366.37996417284
 30
0.0
 11
282.872006863356
 21
366.37996417284
 31
0.0
  0
LINE
  5
   70A
  8
0
  6
CONTINUOUS
 62
     3
 10
243.832006319761
 20
308.179963305593
 30
0.0
 11
243.832006319761
 21
341.179963797331
 31
0.0
  0
LINE
  5
   70B
  8
0
  6
CONTINUOUS
 62
     3
 10
240.872006237507
 20
308.179963305593
 30
0.0
 11
240.872006237507
 21
341.179963797331
 31
0.0
  0
LINE
  5
   70C
  8
0
  6
CONTINUOUS
 62
     3
 10
240.872006237507
 20
308.179963305593
 30
0.0
 11
243.832006129026
 21
308.179963305593
 31
0.0
  0
LINE
  5
   70D
  8
0
  6
CONTINUOUS
 62
     3
 10
243.832006129026
 20
343.979963839054
 30
0.0
 11
244.072006285191
 21
343.979963839054
 31
0.0
  0
LINE
  5
   70E
  8
0
  6
CONTINUOUS
 62
     3
 10
242.472006261349
 20
343.979963839054
 30
0.0
 11
243.832006129026
 21
343.979963839054
 31
0.0
  0
LINE
  5
   70F
  8
0
  6
CONTINUOUS
 62
     3
 10
240.872006237507
 20
344.979963853955
 30
0.0
 11
243.072006270289
 21
344.979963853955
 31
0.0
  0
LINE
  5
   710
  8
0
  6
CONTINUOUS
 62
     3
 10
243.072006270289
 20
344.979963853955
 30
0.0
 11
243.072006270289
 21
346.179963871837
 31
0.0
  0
LINE
  5
   711
  8
0
  6
CONTINUOUS
 62
     3
 10
240.872006237507
 20
341.179963797331
 30
0.0
 11
240.872006237507
 21
344.979963853955
 31
0.0
  0
LINE
  5
   712
  8
0
  6
CONTINUOUS
 62
     3
 10
241.672006249428
 20
341.179963797331
 30
0.0
 11
241.672006249428
 21
343.979963839054
 31
0.0
  0
LINE
  5
   713
  8
0
  6
CONTINUOUS
 62
     3
 10
243.072006270289
 20
346.179963871837
 30
0.0
 11
244.072006285191
 21
346.179963871837
 31
0.0
  0
LINE
  5
   714
  8
0
  6
CONTINUOUS
 62
     3
 10
244.072006285191
 20
344.379963845015
 30
0.0
 11
244.072006285191
 21
346.179963871837
 31
0.0
  0
LINE
  5
   715
  8
0
  6
CONTINUOUS
 62
     3
 10
241.672006249428
 20
343.979963839054
 30
0.0
 11
242.472006261349
 21
343.979963839054
 31
0.0
  0
LINE
  5
   716
  8
0
  6
CONTINUOUS
 62
     3
 10
242.472006261349
 20
343.979963839054
 30
0.0
 11
242.472006261349
 21
344.379963845015
 31
0.0
  0
LINE
  5
   717
  8
0
  6
CONTINUOUS
 62
     3
 10
242.472006261349
 20
344.379963845015
 30
0.0
 11
244.072006285191
 21
344.379963845015
 31
0.0
  0
LINE
  5
   718
  8
0
  6
CONTINUOUS
 62
   212
 10
307.269761062316
 20
307.458167924682
 30
0.0
 11
312.737303330235
 21
308.821379318803
 31
0.0
  0
LINE
  5
   719
  8
0
  6
CONTINUOUS
 62
   212
 10
307.269761467761
 20
314.054095351897
 30
0.0
 11
311.18900484909
 21
315.03127247682
 31
0.0
  0
LINE
  5
   71A
  8
0
  6
CONTINUOUS
 62
   212
 10
319.298037411422
 20
315.576239900059
 30
0.0
 11
320.153002832665
 21
312.147163510915
 31
0.0
  0
LINE
  5
   71B
  8
0
  6
CONTINUOUS
 62
   212
 10
311.189005124015
 20
315.031272415815
 30
0.0
 11
318.396653555168
 21
316.172851778639
 31
0.0
  0
LINE
  5
   71C
  8
0
  6
CONTINUOUS
 62
   212
 10
311.188997694904
 20
315.031267956466
 30
0.0
 11
311.348650443324
 21
314.246583535559
 31
0.0
  0
LINE
  5
   71D
  8
0
  6
CONTINUOUS
 62
   212
 10
320.103001070484
 20
311.75411497018
 30
0.0
 11
320.144492770322
 21
311.931232892741
 31
0.0
  0
LINE
  5
   71E
  8
0
  6
CONTINUOUS
 62
   212
 10
320.144492770322
 20
311.931232892741
 30
0.0
 11
320.15300107123
 21
312.14716307174
 31
0.0
  0
ARC
  5
   71F
  8
0
  6
CONTINUOUS
 62
   212
 10
319.376756621644
 20
311.953631330051
 30
0.0
 40
0.800016130158468
 50
289.000728100286
 51
344.638482415572
  0
LINE
  5
   720
  8
0
  6
CONTINUOUS
 62
   212
 10
319.189152179914
 20
315.762904092415
 30
0.0
 11
319.298038900286
 21
315.576240271274
 31
0.0
  0
LINE
  5
   721
  8
0
  6
CONTINUOUS
 62
   212
 10
319.069364580473
 20
315.899805949924
 30
0.0
 11
319.189152179914
 21
315.762904092415
 31
0.0
  0
ARC
  5
   722
  8
0
  6
CONTINUOUS
 62
   212
 10
318.521795119231
 20
315.382692001642
 30
0.0
 40
0.80001613014867
 50
43.3614879063009
 51
98.9994730093652
  0
LINE
  5
   723
  8
0
  6
CONTINUOUS
 62
   212
 10
312.737303586515
 20
308.821379251398
 30
0.0
 11
319.637223379301
 21
311.197212165538
 31
0.0
  0
LINE
  5
   724
  8
0
  6
CONTINUOUS
 62
   212
 10
312.509875698884
 20
309.589168074755
 30
0.0
 11
312.737298133196
 21
308.821380413981
 31
0.0
  0
LINE
  5
   725
  8
0
  6
CONTINUOUS
 62
     7
 10
290.472006976604
 20
267.179962694145
 30
0.0
 11
294.469767045941
 21
267.179962694145
 31
0.0
  0
LINE
  5
   726
  8
0
  6
CONTINUOUS
 62
     7
 10
290.472006976606
 20
348.779963910579
 30
0.0
 11
294.469767045943
 21
348.779963910579
 31
0.0
  0
LINE
  5
   727
  8
0
  6
CONTINUOUS
 62
     7
 10
291.029764553275
 20
267.73996270249
 30
0.0
 11
294.469767045941
 21
267.73996270249
 31
0.0
  0
LINE
  5
   728
  8
0
  6
CONTINUOUS
 62
     7
 10
291.029764553275
 20
348.219963902235
 30
0.0
 11
294.469767045941
 21
348.219963902235
 31
0.0
  0
LINE
  5
   729
  8
0
  6
CONTINUOUS
 62
     7
 10
290.472006976604
 20
363.179964125156
 30
0.0
 11
293.672007024288
 21
363.179964125156
 31
0.0
  0
LINE
  5
   72A
  8
0
  6
CONTINUOUS
 62
     7
 10
290.472006976604
 20
252.779962479569
 30
0.0
 11
293.672007024288
 21
252.779962479569
 31
0.0
  0
LINE
  5
   72B
  8
0
  6
CONTINUOUS
 62
     7
 10
306.469764173031
 20
317.979963451624
 30
0.0
 11
307.269761133161
 21
317.979963451624
 31
0.0
  0
LINE
  5
   72C
  8
0
  6
CONTINUOUS
 62
     7
 10
306.469764173031
 20
316.779963433743
 30
0.0
 11
307.269761133161
 21
316.779963433743
 31
0.0
  0
LINE
  5
   72D
  8
0
  6
CONTINUOUS
 62
     7
 10
307.269763241271
 20
316.779963433743
 30
0.0
 11
307.269763241271
 21
317.979963451624
 31
0.0
  0
LINE
  5
   72E
  8
0
  6
CONTINUOUS
 62
     7
 10
303.269761073556
 20
317.979963451625
 30
0.0
 11
303.669764131308
 21
317.979963451625
 31
0.0
  0
LINE
  5
   72F
  8
0
  6
CONTINUOUS
 62
     7
 10
303.269761073556
 20
316.779963433744
 30
0.0
 11
303.669764131308
 21
316.779963433744
 31
0.0
  0
LINE
  5
   730
  8
0
  6
CONTINUOUS
 62
     7
 10
306.469764173031
 20
283.179962933064
 30
0.0
 11
307.269761133161
 21
283.179962933064
 31
0.0
  0
LINE
  5
   731
  8
0
  6
CONTINUOUS
 62
     7
 10
306.469764173031
 20
281.979962915183
 30
0.0
 11
307.269761133161
 21
281.979962915183
 31
0.0
  0
LINE
  5
   732
  8
0
  6
CONTINUOUS
 62
     7
 10
307.269763241271
 20
281.979962915182
 30
0.0
 11
307.269763241271
 21
283.179962933064
 31
0.0
  0
LINE
  5
   733
  8
0
  6
CONTINUOUS
 62
     7
 10
303.269761073556
 20
283.179962933065
 30
0.0
 11
303.669764131308
 21
283.179962933065
 31
0.0
  0
LINE
  5
   734
  8
0
  6
CONTINUOUS
 62
     7
 10
303.269761073556
 20
281.979962915183
 30
0.0
 11
303.669764131308
 21
281.979962915183
 31
0.0
  0
LINE
  5
   735
  8
0
  6
CONTINUOUS
 62
     7
 10
291.029764066362
 20
337.179963737726
 30
0.0
 11
291.029764066362
 21
341.179963797331
 31
0.0
  0
LINE
  5
   736
  8
0
  6
CONTINUOUS
 62
     7
 10
291.029764066362
 20
341.179963797331
 30
0.0
 11
291.029764066362
 21
348.219966343641
 31
0.0
  0
LINE
  5
   737
  8
0
  6
CONTINUOUS
 62
     7
 10
291.029764066362
 20
267.739963313341
 30
0.0
 11
291.029764066362
 21
337.179963737726
 31
0.0
  0
LINE
  5
   738
  8
0
  6
CONTINUOUS
 62
     7
 10
294.469767045941
 20
317.979963451626
 30
0.0
 11
300.869761037793
 21
317.979963451626
 31
0.0
  0
LINE
  5
   739
  8
0
  6
CONTINUOUS
 62
     7
 10
294.469767045941
 20
281.979962915181
 30
0.0
 11
300.869761037793
 21
281.979962915181
 31
0.0
  0
LINE
  5
   73A
  8
0
  6
CONTINUOUS
 62
     7
 10
293.672007024288
 20
363.179964125156
 30
0.0
 11
294.472007036209
 21
363.179964125156
 31
0.0
  0
LINE
  5
   73B
  8
0
  6
CONTINUOUS
 62
     7
 10
293.672007024288
 20
252.779962479569
 30
0.0
 11
294.472007036209
 21
252.779962479569
 31
0.0
  0
LINE
  5
   73C
  8
0
  6
CONTINUOUS
 62
     7
 10
290.469764058017
 20
290.779963046312
 30
0.0
 11
290.469764058017
 21
300.779963195324
 31
0.0
  0
LINE
  5
   73D
  8
0
  6
CONTINUOUS
 62
     7
 10
289.669764046096
 20
287.419965437651
 30
0.0
 11
289.669764046096
 21
287.979963004589
 31
0.0
  0
LINE
  5
   73E
  8
0
  6
CONTINUOUS
 62
     7
 10
296.30976414504
 20
348.219966343641
 30
0.0
 11
296.30976414504
 21
348.77996391058
 31
0.0
  0
LINE
  5
   73F
  8
0
  6
CONTINUOUS
 62
     7
 10
294.469767045941
 20
348.77996391058
 30
0.0
 11
296.30976341125
 21
348.77996391058
 31
0.0
  0
LINE
  5
   740
  8
0
  6
CONTINUOUS
 62
     7
 10
296.30976414504
 20
267.179962694645
 30
0.0
 11
296.30976414504
 21
267.739963313341
 31
0.0
  0
LINE
  5
   741
  8
0
  6
CONTINUOUS
 62
     7
 10
294.469767045941
 20
267.179962694145
 30
0.0
 11
296.30976341125
 21
267.179962694145
 31
0.0
  0
LINE
  5
   742
  8
0
  6
CONTINUOUS
 62
     7
 10
295.27200704813
 20
252.779962480068
 30
0.0
 11
295.27200704813
 21
267.179962694645
 31
0.0
  0
LINE
  5
   743
  8
0
  6
CONTINUOUS
 62
     7
 10
294.472007036209
 20
252.779962479569
 30
0.0
 11
295.27200704813
 21
252.779962479569
 31
0.0
  0
LINE
  5
   744
  8
0
  6
CONTINUOUS
 62
     7
 10
295.27200704813
 20
348.77996391058
 30
0.0
 11
295.27200704813
 21
363.179964125156
 31
0.0
  0
LINE
  5
   745
  8
0
  6
CONTINUOUS
 62
     7
 10
294.472007036209
 20
363.179964125156
 30
0.0
 11
295.27200704813
 21
363.179964125156
 31
0.0
  0
LINE
  5
   746
  8
0
  6
CONTINUOUS
 62
     7
 10
294.469767045941
 20
348.219963902235
 30
0.0
 11
296.865592276954
 21
348.219963902235
 31
0.0
  0
LINE
  5
   747
  8
0
  6
CONTINUOUS
 62
     7
 10
296.52519310196
 20
317.979963451624
 30
0.0
 11
296.864756095301
 21
317.979963451624
 31
0.0
  0
LINE
  5
   748
  8
0
  6
CONTINUOUS
 62
     7
 10
300.869761037793
 20
317.979963451622
 30
0.0
 11
301.669803774324
 21
317.979963451622
 31
0.0
  0
LINE
  5
   749
  8
0
  6
CONTINUOUS
 62
     7
 10
300.869761037793
 20
281.979962915182
 30
0.0
 11
301.669803774324
 21
281.979962915182
 31
0.0
  0
LINE
  5
   74A
  8
0
  6
CONTINUOUS
 62
     7
 10
301.669803774324
 20
317.979963451622
 30
0.0
 11
303.265586268806
 21
317.979963451622
 31
0.0
  0
LINE
  5
   74B
  8
0
  6
CONTINUOUS
 62
     7
 10
301.669803774324
 20
281.979962915182
 30
0.0
 11
303.265586268806
 21
281.979962915182
 31
0.0
  0
LINE
  5
   74C
  8
0
  6
CONTINUOUS
 62
     7
 10
294.469767045941
 20
267.73996270249
 30
0.0
 11
296.861417472205
 21
267.73996270249
 31
0.0
  0
LINE
  5
   74D
  8
0
  6
CONTINUOUS
 62
     7
 10
296.525742418375
 20
281.979962915182
 30
0.0
 11
296.869767081704
 21
281.979962915182
 31
0.0
  0
LINE
  5
   74E
  8
0
  6
CONTINUOUS
 62
     7
 10
296.865592276954
 20
348.219963902235
 30
0.0
 11
296.869767081704
 21
348.219963902235
 31
0.0
  0
LINE
  5
   74F
  8
0
  6
CONTINUOUS
 62
     7
 10
296.869764153384
 20
317.979963451624
 30
0.0
 11
296.869764153384
 21
348.219966343641
 31
0.0
  0
LINE
  5
   750
  8
0
  6
CONTINUOUS
 62
     7
 10
303.269763181666
 20
281.979962915182
 30
0.0
 11
303.269763181666
 21
317.979963451624
 31
0.0
  0
LINE
  5
   751
  8
0
  6
CONTINUOUS
 62
     7
 10
303.269763181666
 20
281.979962915182
 30
0.0
 11
303.269763181666
 21
317.979963451624
 31
0.0
  0
LINE
  5
   752
  8
0
  6
CONTINUOUS
 62
     7
 10
303.265586268806
 20
317.979963451624
 30
0.0
 11
303.269761073556
 21
317.979963451624
 31
0.0
  0
LINE
  5
   753
  8
0
  6
CONTINUOUS
 62
     7
 10
303.265586268806
 20
281.979962915182
 30
0.0
 11
303.269761073556
 21
281.979962915182
 31
0.0
  0
LINE
  5
   754
  8
0
  6
CONTINUOUS
 62
     7
 10
296.861417472205
 20
267.73996270249
 30
0.0
 11
296.869767081704
 21
267.73996270249
 31
0.0
  0
LINE
  5
   755
  8
0
  6
CONTINUOUS
 62
     7
 10
296.869764153384
 20
267.739963313341
 30
0.0
 11
296.869764153384
 21
281.979962915182
 31
0.0
  0
LINE
  5
   756
  8
0
  6
CONTINUOUS
 62
     7
 10
290.472006976604
 20
347.579963892698
 30
0.0
 11
291.029764553275
 21
347.579963892698
 31
0.0
  0
LINE
  5
   757
  8
0
  6
CONTINUOUS
 62
     7
 10
290.472006976604
 20
329.179963618517
 30
0.0
 11
291.029764553275
 21
329.179963618517
 31
0.0
  0
LINE
  5
   758
  8
0
  6
CONTINUOUS
 62
   253
 10
290.472006976604
 20
329.179963618517
 30
0.0
 11
291.029764553275
 21
329.179963618517
 31
0.0
  0
LINE
  5
   759
  8
0
  6
CONTINUOUS
 62
   253
 10
290.472006976604
 20
344.139963841438
 30
0.0
 11
291.029764553275
 21
344.139963841438
 31
0.0
  0
LINE
  5
   75A
  8
0
  6
CONTINUOUS
 62
   218
 10
256.072004938126
 20
351.179963946342
 30
0.0
 11
256.072004938126
 21
357.57996404171
 31
0.0
  0
LINE
  5
   75B
  8
0
  6
CONTINUOUS
 62
     5
 10
252.872005653381
 20
361.979964107275
 30
0.0
 11
256.072004938126
 21
361.979964107275
 31
0.0
  0
LINE
  5
   75C
  8
0
  6
CONTINUOUS
 62
   218
 10
252.872005653381
 20
357.57996404171
 30
0.0
 11
256.072004938126
 21
357.57996404171
 31
0.0
  0
LINE
  5
   75D
  8
0
  6
CONTINUOUS
 62
   218
 10
252.872005653381
 20
351.179963946342
 30
0.0
 11
256.072004938126
 21
351.179963946342
 31
0.0
  0
LINE
  5
   75E
  8
0
  6
CONTINUOUS
 62
     5
 10
256.072004938126
 20
357.57996404171
 30
0.0
 11
256.072004938126
 21
361.979964107275
 31
0.0
  0
LINE
  5
   75F
  8
0
  6
CONTINUOUS
 62
     5
 10
256.072004938126
 20
346.378975105271
 30
0.0
 11
256.072004938126
 21
351.179963946342
 31
0.0
  0
ARC
  5
   760
  8
0
  6
CONTINUOUS
 62
   218
 10
248.872006356711
 20
340.375521514357
 30
0.0
 40
3.20000004767789
 50
120.00004946263
 51
165.440325338621
  0
LINE
  5
   761
  8
0
  6
CONTINUOUS
 62
   218
 10
247.272003940466
 20
343.146801466505
 30
0.0
 11
252.872005615232
 21
346.379963940893
 31
0.0
  0
LINE
  5
   762
  8
0
  6
CONTINUOUS
 62
   218
 10
252.872005500792
 20
357.57996404171
 30
0.0
 11
252.872005500792
 21
361.979964107275
 31
0.0
  0
LINE
  5
   763
  8
0
  6
CONTINUOUS
 62
   218
 10
252.872005500792
 20
346.379963874817
 30
0.0
 11
252.872005500792
 21
351.179963946342
 31
0.0
  0
ARC
  5
   764
  8
0
  6
CONTINUOUS
 62
   218
 10
252.872005500791
 20
346.379963874817
 30
0.0
 40
3.20000004768463
 50
300.000030254765
 51
359.982296146842
  0
LINE
  5
   765
  8
0
  6
CONTINUOUS
 62
   218
 10
250.26534131946
 20
341.179963830164
 30
0.0
 11
254.472006987994
 21
343.608683386282
 31
0.0
  0
LINE
  5
   766
  8
0
  6
CONTINUOUS
 62
    90
 10
254.472004914284
 20
264.216763797951
 30
0.0
 11
254.472004914284
 21
264.360098761024
 31
0.0
  0
LINE
  5
   767
  8
0
  6
CONTINUOUS
 62
    90
 10
254.472004914284
 20
258.779574996227
 30
0.0
 11
254.472004914284
 21
258.976327928847
 31
0.0
  0
LINE
  5
   768
  8
0
  6
CONTINUOUS
 62
    90
 10
254.472004914284
 20
263.07631578291
 30
0.0
 11
254.472004914284
 21
263.27923631816
 31
0.0
  0
LINE
  5
   769
  8
0
  6
CONTINUOUS
 62
    90
 10
254.472004914284
 20
259.85087933348
 30
0.0
 11
254.472004914284
 21
260.098587467054
 31
0.0
  0
LINE
  5
   76A
  8
0
  6
CONTINUOUS
 62
     2
 10
254.472005524634
 20
263.27923631816
 30
0.0
 11
254.472005524634
 21
264.216763797951
 31
0.0
  0
LINE
  5
   76B
  8
0
  6
CONTINUOUS
 62
     2
 10
254.472005524634
 20
264.360098761024
 30
0.0
 11
254.472005524634
 21
264.779962658882
 31
0.0
  0
LINE
  5
   76C
  8
0
  6
CONTINUOUS
 62
     2
 10
254.472005524634
 20
260.098587467054
 30
0.0
 11
254.472005524634
 21
263.07631578291
 31
0.0
  0
LINE
  5
   76D
  8
0
  6
CONTINUOUS
 62
     2
 10
254.472005524634
 20
258.976327928847
 30
0.0
 11
254.472005524634
 21
259.85087933348
 31
0.0
  0
LINE
  5
   76E
  8
0
  6
CONTINUOUS
 62
     2
 10
254.472005524634
 20
258.379962563515
 30
0.0
 11
254.472005524634
 21
258.779574996227
 31
0.0
  0
LINE
  5
   76F
  8
0
  6
CONTINUOUS
 62
     2
 10
256.072005548476
 20
258.379962563515
 30
0.0
 11
256.072005548476
 21
264.779962658882
 31
0.0
  0
LINE
  5
   770
  8
0
  6
CONTINUOUS
 62
     2
 10
256.872004950047
 20
271.179963798888
 30
0.0
 11
257.672006487846
 21
271.179963798888
 31
0.0
  0
ARC
  5
   771
  8
0
  6
CONTINUOUS
 62
     2
 10
256.872005560397
 20
268.779963763125
 30
0.0
 40
2.40000003576286
 50
90.000014571048
 51
180.000024935452
  0
LINE
  5
   772
  8
0
  6
CONTINUOUS
 62
     2
 10
254.472005524634
 20
264.779962658882
 30
0.0
 11
254.472005524634
 21
268.779962718487
 31
0.0
  0
LINE
  5
   773
  8
0
  6
CONTINUOUS
 62
     2
 10
254.472005524634
 20
253.979964023829
 30
0.0
 11
254.472005524634
 21
258.379962563515
 31
0.0
  0
LINE
  5
   774
  8
0
  6
CONTINUOUS
 62
     2
 10
254.472004914284
 20
253.979963542588
 30
0.0
 11
256.072007989883
 21
253.979963542588
 31
0.0
  0
LINE
  5
   775
  8
0
  6
CONTINUOUS
 62
     2
 10
256.072007379533
 20
253.179962486029
 30
0.0
 11
256.072007379533
 21
258.379962563515
 31
0.0
  0
LINE
  5
   776
  8
0
  6
CONTINUOUS
 62
     2
 10
256.072007379533
 20
253.179962486029
 30
0.0
 11
256.072007379533
 21
268.781675396318
 31
0.0
  0
ARC
  5
   777
  8
0
  6
CONTINUOUS
 62
     2
 10
256.872005560397
 20
268.779963763125
 30
0.0
 40
0.800000011921219
 50
90.0000437132009
 51
179.877413210787
  0
LINE
  5
   778
  8
0
  6
CONTINUOUS
 62
     2
 10
256.872004950047
 20
269.579963775047
 30
0.0
 11
257.672006487846
 21
269.579963775047
 31
0.0
  0
LINE
  5
   779
  8
0
  6
CONTINUOUS
 62
     2
 10
254.472004914284
 20
258.379963608154
 30
0.0
 11
256.072007989883
 21
258.379963608154
 31
0.0
  0
LINE
  5
   77A
  8
0
  6
CONTINUOUS
 62
     2
 10
254.472004914284
 20
264.779963703521
 30
0.0
 11
256.072007989883
 21
264.779963703521
 31
0.0
  0
LINE
  5
   77B
  8
0
  6
CONTINUOUS
 62
     2
 10
257.672006487846
 20
271.179963798888
 30
0.0
 11
277.270716997266
 21
271.179963798888
 31
0.0
  0
LINE
  5
   77C
  8
0
  6
CONTINUOUS
 62
     2
 10
257.672006487846
 20
269.579963775047
 30
0.0
 11
277.269770576121
 21
269.579963775047
 31
0.0
  0
LINE
  5
   77D
  8
0
  6
CONTINUOUS
 62
     7
 10
288.072006940842
 20
247.979962408543
 30
0.0
 11
294.472007036209
 21
247.979962408543
 31
0.0
  0
LINE
  5
   77E
  8
0
  6
CONTINUOUS
 62
     7
 10
288.072006940842
 20
252.779962480068
 30
0.0
 11
290.472006976604
 21
252.779962480068
 31
0.0
  0
LINE
  5
   77F
  8
0
  6
CONTINUOUS
 62
     7
 10
288.072006940842
 20
251.979962468147
 30
0.0
 11
290.472006976604
 21
251.979962468147
 31
0.0
  0
LINE
  5
   780
  8
0
  6
CONTINUOUS
 62
     7
 10
295.27200704813
 20
249.579962432385
 30
0.0
 11
295.27200704813
 21
251.979962468147
 31
0.0
  0
LINE
  5
   781
  8
0
  6
CONTINUOUS
 62
     7
 10
288.072006940842
 20
249.579962432384
 30
0.0
 11
294.472007036209
 21
249.579962432384
 31
0.0
  0
LINE
  5
   782
  8
0
  6
CONTINUOUS
 62
     7
 10
280.872006833553
 20
255.579962521792
 30
0.0
 11
280.872006833553
 21
256.78483924873
 31
0.0
  0
LINE
  5
   783
  8
0
  6
CONTINUOUS
 62
     7
 10
280.872006833553
 20
266.375085973667
 30
0.0
 11
280.872006833553
 21
267.579962700605
 31
0.0
  0
LINE
  5
   784
  8
0
  6
CONTINUOUS
 62
     7
 10
295.272007048004
 20
251.979962468147
 30
0.0
 11
295.272007048004
 21
252.779962480068
 31
0.0
  0
LINE
  5
   785
  8
0
  6
CONTINUOUS
 62
     7
 10
290.472006976605
 20
252.779962480068
 30
0.0
 11
290.472006976605
 21
271.979962766171
 31
0.0
  0
LINE
  5
   786
  8
0
  6
CONTINUOUS
 62
     7
 10
290.472006976605
 20
251.979962468147
 30
0.0
 11
290.472006976605
 21
252.779962480068
 31
0.0
  0
ARC
  5
   787
  8
0
  6
CONTINUOUS
 62
     7
 10
294.472007035448
 20
248.779962421099
 30
0.0
 40
0.800000011920332
 50
270.000000054516
 51
360.0
  0
LINE
  5
   788
  8
0
  6
CONTINUOUS
 62
     7
 10
295.272007048004
 20
248.779962420464
 30
0.0
 11
295.272007048004
 21
249.579962432385
 31
0.0
  0
LINE
  5
   789
  8
0
  6
CONTINUOUS
 62
     7
 10
294.472007036209
 20
249.579962432384
 30
0.0
 11
295.27200704813
 21
249.579962432384
 31
0.0
  0
LINE
  5
   78A
  8
0
  6
CONTINUOUS
 62
     7
 10
280.872006833553
 20
253.779962494969
 30
0.0
 11
280.872006833553
 21
253.97996249795
 31
0.0
  0
LINE
  5
   78B
  8
0
  6
CONTINUOUS
 62
     7
 10
290.472006976605
 20
271.979962766171
 30
0.0
 11
290.472006976605
 21
286.779962986708
 31
0.0
  0
LINE
  5
   78C
  8
0
  6
CONTINUOUS
 62
     7
 10
280.872006833553
 20
274.779962807894
 30
0.0
 11
280.872006833553
 21
286.779962986708
 31
0.0
  0
LINE
  5
   78D
  8
0
  6
CONTINUOUS
 62
     7
 10
280.872006833553
 20
286.779962986708
 30
0.0
 11
280.872006833553
 21
287.419965437651
 31
0.0
  0
LINE
  5
   78E
  8
0
  6
CONTINUOUS
 62
     7
 10
280.872006833553
 20
287.419962996246
 30
0.0
 11
289.672006964684
 21
287.419962996246
 31
0.0
  0
LINE
  5
   78F
  8
0
  6
CONTINUOUS
 62
     7
 10
289.669764046096
 20
287.419965437651
 30
0.0
 11
289.669764046096
 21
287.979963004589
 31
0.0
  0
LINE
  5
   790
  8
0
  6
CONTINUOUS
 62
     7
 10
280.872006833553
 20
287.419965437651
 30
0.0
 11
280.872006833553
 21
287.979963004589
 31
0.0
  0
LINE
  5
   791
  8
0
  6
CONTINUOUS
 62
     7
 10
290.472006976604
 20
286.779962986708
 30
0.0
 11
290.472006976604
 21
287.419965437651
 31
0.0
  0
LINE
  5
   792
  8
0
  6
CONTINUOUS
 62
     7
 10
289.672006964684
 20
287.419962996246
 30
0.0
 11
290.472006976604
 21
287.419962996246
 31
0.0
  0
LINE
  5
   793
  8
0
  6
CONTINUOUS
 62
     7
 10
280.872006833553
 20
269.179962724447
 30
0.0
 11
280.872006833553
 21
269.779962733388
 31
0.0
  0
LINE
  5
   794
  8
0
  6
CONTINUOUS
 62
     7
 10
280.072007082792
 20
270.579963006469
 30
0.0
 11
280.872007094713
 21
269.779962994548
 31
0.0
  0
LINE
  5
   795
  8
0
  6
CONTINUOUS
 62
     7
 10
280.072006821632
 20
270.579962745309
 30
0.0
 11
280.072006821632
 21
274.179962798953
 31
0.0
  0
LINE
  5
   796
  8
0
  6
CONTINUOUS
 62
     7
 10
280.072006821632
 20
274.179963321272
 30
0.0
 11
288.072006940842
 21
274.179963321272
 31
0.0
  0
LINE
  5
   797
  8
0
  6
CONTINUOUS
 62
     7
 10
280.872006833553
 20
247.979962408543
 30
0.0
 11
288.072006940842
 21
247.979962408543
 31
0.0
  0
LINE
  5
   798
  8
0
  6
CONTINUOUS
 62
     7
 10
284.952008725405
 20
252.499962475896
 30
0.0
 11
288.072006940842
 21
252.499962475896
 31
0.0
  0
LINE
  5
   799
  8
0
  6
CONTINUOUS
 62
     7
 10
284.872006893158
 20
251.259962457418
 30
0.0
 11
288.072006940842
 21
251.259962457418
 31
0.0
  0
LINE
  5
   79A
  8
0
  6
CONTINUOUS
 62
     7
 10
284.872006893158
 20
249.499962431192
 30
0.0
 11
288.072006940842
 21
249.499962431192
 31
0.0
  0
LINE
  5
   79B
  8
0
  6
CONTINUOUS
 62
     7
 10
284.072006881237
 20
250.299954508543
 30
0.0
 11
284.072006881237
 21
250.459962750673
 31
0.0
  0
LINE
  5
   79C
  8
0
  6
CONTINUOUS
 62
     7
 10
280.872006833553
 20
267.579962700605
 30
0.0
 11
280.872006833553
 21
269.179962724447
 31
0.0
  0
LINE
  5
   79D
  8
0
  6
CONTINUOUS
 62
     7
 10
280.872006833553
 20
247.979962408543
 30
0.0
 11
280.872006833553
 21
249.579962432385
 31
0.0
  0
LINE
  5
   79E
  8
0
  6
CONTINUOUS
 62
     7
 10
280.872006833553
 20
253.97996249795
 30
0.0
 11
280.872006833553
 21
255.579962521792
 31
0.0
  0
LINE
  5
   79F
  8
0
  6
CONTINUOUS
 62
     7
 10
280.872006833553
 20
253.97996249795
 30
0.0
 11
288.072006940842
 21
253.97996249795
 31
0.0
  0
LINE
  5
   7A0
  8
0
  6
CONTINUOUS
 62
     7
 10
280.872006833553
 20
269.179962724447
 30
0.0
 11
288.072006940842
 21
269.179962724447
 31
0.0
  0
LINE
  5
   7A1
  8
0
  6
CONTINUOUS
 62
     7
 10
280.872006833553
 20
255.579962521791
 30
0.0
 11
288.072006940842
 21
255.579962521791
 31
0.0
  0
LINE
  5
   7A2
  8
0
  6
CONTINUOUS
 62
     7
 10
280.872006833553
 20
267.579962700605
 30
0.0
 11
288.072006940842
 21
267.579962700605
 31
0.0
  0
POLYLINE
  5
   7A3
  8
0
  6
CONTINUOUS
 62
     7
 66
     1
 10
0.0
 20
0.0
 30
0.0
  0
VERTEX
  5
   7A4
  8
0
  6
CONTINUOUS
 10
284.872006893158
 20
251.259962457418
 30
0.0
 40
0.0
 41
0.0
  0
VERTEX
  5
   7A5
  8
0
  6
CONTINUOUS
 10
284.40296262465
 20
251.107476686532
 30
0.0
 40
0.0
 41
0.0
  0
VERTEX
  5
   7A6
  8
0
  6
CONTINUOUS
 10
284.093205342792
 20
250.636282770601
 30
0.0
 40
0.0
 41
0.0
  0
VERTEX
  5
   7A7
  8
0
  6
CONTINUOUS
 10
284.072006881237
 20
250.459962445852
 30
0.0
 40
0.0
 41
0.0
  0
SEQEND
  5
   7A8
  8
0
  6
CONTINUOUS
 62
     7
  0
POLYLINE
  5
   7A9
  8
0
  6
CONTINUOUS
 62
     7
 66
     1
 10
0.0
 20
0.0
 30
0.0
  0
VERTEX
  5
   7AA
  8
0
  6
CONTINUOUS
 10
284.872006893158
 20
249.499962431192
 30
0.0
 40
0.0
 41
0.0
  0
VERTEX
  5
   7AB
  8
0
  6
CONTINUOUS
 10
284.402962624712
 20
249.652448202033
 30
0.0
 40
0.0
 41
0.0
  0
VERTEX
  5
   7AC
  8
0
  6
CONTINUOUS
 10
284.093205342795
 20
250.123642117989
 30
0.0
 40
0.0
 41
0.0
  0
VERTEX
  5
   7AD
  8
0
  6
CONTINUOUS
 10
284.072006881237
 20
250.299962442759
 30
0.0
 40
0.0
 41
0.0
  0
SEQEND
  5
   7AE
  8
0
  6
CONTINUOUS
 62
     7
  0
LINE
  5
   7AF
  8
0
  6
CONTINUOUS
 62
     7
 10
282.872008141355
 20
250.366627788331
 30
0.0
 11
282.872008141355
 21
250.419961834536
 31
0.0
  0
ARC
  5
   7B0
  8
0
  6
CONTINUOUS
 62
     7
 10
284.947204425702
 20
250.338292540125
 30
0.0
 40
2.07518324081423
 50
179.217718215543
 51
201.435851161601
  0
ARC
  5
   7B1
  8
0
  6
CONTINUOUS
 62
     7
 10
284.95204330579
 20
250.419951099634
 30
0.0
 40
2.08013114974203
 50
90.0009525478649
 51
179.999704300825
  0
LINE
  5
   7B2
  8
0
  6
CONTINUOUS
 62
     7
 10
280.872006833553
 20
249.579962432384
 30
0.0
 11
283.015732451435
 21
249.579962432384
 31
0.0
  0
LINE
  5
   7B3
  8
0
  6
CONTINUOUS
 62
   138
 10
279.67200986743
 20
271.979962766171
 30
0.0
 11
279.67200986743
 21
274.779962807894
 31
0.0
  0
ARC
  5
   7B4
  8
0
  6
CONTINUOUS
 62
   138
 10
277.272009831667
 20
271.97996276617
 30
0.0
 40
2.40000003576266
 50
269.946541704681
 51
360.0
  0
ARC
  5
   7B5
  8
0
  6
CONTINUOUS
 62
   138
 10
277.272009831667
 20
271.979962766171
 30
0.0
 40
0.800000011921362
 50
269.907407517639
 51
360.0
  0
LINE
  5
   7B6
  8
0
  6
CONTINUOUS
 62
   138
 10
278.072009843588
 20
271.979962766171
 30
0.0
 11
278.072009843588
 21
274.779962807894
 31
0.0
  0
LINE
  5
   7B7
  8
0
  6
CONTINUOUS
 62
     5
 10
272.872006714344
 20
361.979964107275
 30
0.0
 11
273.272006720305
 21
361.979964107275
 31
0.0
  0
LINE
  5
   7B8
  8
0
  6
CONTINUOUS
 62
     5
 10
250.872005623579
 20
351.194905352815
 30
0.0
 11
250.872005623579
 21
357.565022635237
 31
0.0
  0
LINE
  5
   7B9
  8
0
  6
CONTINUOUS
 62
     5
 10
273.272006720305
 20
357.57996404171
 30
0.0
 11
273.272006720305
 21
359.168880081012
 31
0.0
  0
LINE
  5
   7BA
  8
0
  6
CONTINUOUS
 62
     5
 10
273.272006720305
 20
349.591047907041
 30
0.0
 11
273.272006720305
 21
351.179963946342
 31
0.0
  0
LINE
  5
   7BB
  8
0
  6
CONTINUOUS
 62
     5
 10
252.872005653381
 20
346.779963880777
 30
0.0
 11
252.872005653381
 21
351.194905352815
 31
0.0
  0
LINE
  5
   7BC
  8
0
  6
CONTINUOUS
 62
     5
 10
252.872005653381
 20
357.565022635237
 30
0.0
 11
252.872005653381
 21
361.979964107275
 31
0.0
  0
LINE
  5
   7BD
  8
0
  6
CONTINUOUS
 62
     5
 10
250.872005623579
 20
357.565022635237
 30
0.0
 11
250.872005623579
 21
361.979964107275
 31
0.0
  0
LINE
  5
   7BE
  8
0
  6
CONTINUOUS
 62
     5
 10
250.872005623579
 20
346.779963880777
 30
0.0
 11
250.872005623579
 21
351.194905352815
 31
0.0
  0
LINE
  5
   7BF
  8
0
  6
CONTINUOUS
 62
     5
 10
252.872005653381
 20
351.194905352815
 30
0.0
 11
253.203376965692
 21
351.526277428065
 31
0.0
  0
LINE
  5
   7C0
  8
0
  6
CONTINUOUS
 62
     5
 10
252.872005653381
 20
357.565022635237
 30
0.0
 11
253.203376965692
 21
357.233650559987
 31
0.0
  0
LINE
  5
   7C1
  8
0
  6
CONTINUOUS
 62
     5
 10
253.203376965692
 20
357.233650559987
 30
0.0
 11
253.672004902363
 21
356.102290679847
 31
0.0
  0
LINE
  5
   7C2
  8
0
  6
CONTINUOUS
 62
     5
 10
253.203376965692
 20
351.526277428065
 30
0.0
 11
253.672004902363
 21
352.657637308205
 31
0.0
  0
LINE
  5
   7C3
  8
0
  6
CONTINUOUS
 62
     5
 10
251.837690910186
 20
356.599336585691
 30
0.0
 11
252.07200564146
 21
356.033650542106
 31
0.0
  0
LINE
  5
   7C4
  8
0
  6
CONTINUOUS
 62
     5
 10
251.837690910186
 20
352.160591402361
 30
0.0
 11
252.07200564146
 21
352.726277445947
 31
0.0
  0
LINE
  5
   7C5
  8
0
  6
CONTINUOUS
 62
     5
 10
250.872005623579
 20
351.194905352815
 30
0.0
 11
251.837690910186
 21
352.160591402361
 31
0.0
  0
LINE
  5
   7C6
  8
0
  6
CONTINUOUS
 62
     5
 10
250.872005623579
 20
357.565022635237
 30
0.0
 11
251.837690910186
 21
356.599336585691
 31
0.0
  0
LINE
  5
   7C7
  8
0
  6
CONTINUOUS
 62
     2
 10
270.472006678581
 20
359.184505081244
 30
0.0
 11
270.472006678581
 21
359.979964077473
 31
0.0
  0
LINE
  5
   7C8
  8
0
  6
CONTINUOUS
 62
     2
 10
270.472006678581
 20
358.379964053631
 30
0.0
 11
270.472006678581
 21
359.175423049859
 31
0.0
  0
LINE
  5
   7C9
  8
0
  6
CONTINUOUS
 62
     2
 10
270.472006678581
 20
349.584504938193
 30
0.0
 11
270.472006678581
 21
350.379963934422
 31
0.0
  0
LINE
  5
   7CA
  8
0
  6
CONTINUOUS
 62
     2
 10
270.472006678581
 20
348.77996391058
 30
0.0
 11
270.472006678581
 21
349.575422906808
 31
0.0
  0
LINE
  5
   7CB
  8
0
  6
CONTINUOUS
 62
     2
 10
270.472006678581
 20
347.579963892698
 30
0.0
 11
271.272006690502
 21
347.579963892698
 31
0.0
  0
LINE
  5
   7CC
  8
0
  6
CONTINUOUS
 62
     2
 10
270.472006678581
 20
361.179964095354
 30
0.0
 11
271.272006690502
 21
361.179964095354
 31
0.0
  0
LINE
  5
   7CD
  8
0
  6
CONTINUOUS
 62
     2
 10
270.470809092414
 20
359.175416263292
 30
0.0
 11
270.472006678581
 21
359.175423049859
 31
0.0
  0
LINE
  5
   7CE
  8
0
  6
CONTINUOUS
 62
     2
 10
270.470809092414
 20
359.184511867812
 30
0.0
 11
270.472006678581
 21
359.184505081244
 31
0.0
  0
LINE
  5
   7CF
  8
0
  6
CONTINUOUS
 62
     2
 10
270.470809092414
 20
349.584511724761
 30
0.0
 11
270.472006678581
 21
349.584504938193
 31
0.0
  0
LINE
  5
   7D0
  8
0
  6
CONTINUOUS
 62
     2
 10
270.470809092414
 20
349.575416120241
 30
0.0
 11
270.472006678581
 21
349.575422906808
 31
0.0
  0
ARC
  5
   7D1
  8
0
  6
CONTINUOUS
 62
     2
 10
273.270793044727
 20
349.5799639225
 30
0.0
 40
0.800003987728462
 50
90.0002847466125
 51
269.999715253388
  0
ARC
  5
   7D2
  8
0
  6
CONTINUOUS
 62
     2
 10
273.270793044727
 20
359.179964065551
 30
0.0
 40
0.800003987729315
 50
90.0002847465677
 51
269.999715253432
  0
LINE
  5
   7D3
  8
0
  6
CONTINUOUS
 62
     3
 10
274.472006738186
 20
350.384846746994
 30
0.0
 11
274.472006738186
 21
358.092105394422
 31
0.0
  0
LINE
  5
   7D4
  8
0
  6
CONTINUOUS
 62
     3
 10
274.472006738186
 20
356.775081217216
 30
0.0
 11
274.472006738186
 21
358.375081241058
 31
0.0
  0
LINE
  5
   7D5
  8
0
  6
CONTINUOUS
 62
     3
 10
274.472006738186
 20
358.375081241058
 30
0.0
 11
275.272006750107
 21
359.175081252979
 31
0.0
  0
LINE
  5
   7D6
  8
0
  6
CONTINUOUS
 62
     3
 10
274.472006738186
 20
350.384846746994
 30
0.0
 11
275.272006750107
 21
349.584846735073
 31
0.0
  0
LINE
  5
   7D7
  8
0
  6
CONTINUOUS
 62
     3
 10
275.272006750107
 20
349.584846735073
 30
0.0
 11
288.072006940842
 21
349.584846735073
 31
0.0
  0
LINE
  5
   7D8
  8
0
  6
CONTINUOUS
 62
     3
 10
275.272006750107
 20
359.175081252979
 30
0.0
 11
288.072006940842
 21
359.175081252979
 31
0.0
  0
ARC
  5
   7D9
  8
0
  6
CONTINUOUS
 62
     2
 10
243.832006281604
 20
347.339963889154
 30
0.0
 40
0.56000000837627
 50
270.000062448459
 51
300.433481641796
  0
ARC
  5
   7DA
  8
0
  6
CONTINUOUS
 62
     2
 10
243.832006281599
 20
347.339963889064
 30
0.0
 40
0.560000008402603
 50
59.7136238285682
 51
90.0000156104762
  0
LINE
  5
   7DB
  8
0
  6
CONTINUOUS
 62
     2
 10
243.832006281614
 20
347.899959014654
 30
0.0
 11
243.832006281614
 21
348.379963904619
 31
0.0
  0
LINE
  5
   7DC
  8
0
  6
CONTINUOUS
 62
     2
 10
247.272006332874
 20
367.979964196748
 30
0.0
 11
250.072006374598
 21
367.979964196748
 31
0.0
  0
LINE
  5
   7DD
  8
0
  6
CONTINUOUS
 62
     2
 10
250.072006374631
 20
367.979964196716
 30
0.0
 11
254.472006440197
 21
363.579964131151
 31
0.0
  0
LINE
  5
   7DE
  8
0
  6
CONTINUOUS
 62
     2
 10
246.072006314993
 20
346.779963880777
 30
0.0
 11
246.872006326914
 21
346.779963880777
 31
0.0
  0
LINE
  5
   7DF
  8
0
  6
CONTINUOUS
 62
     2
 10
245.672006309032
 20
347.179963886738
 30
0.0
 11
245.672006309032
 21
348.379963904619
 31
0.0
  0
LINE
  5
   7E0
  8
0
  6
CONTINUOUS
 62
     2
 10
247.272006332874
 20
363.579964131117
 30
0.0
 11
247.272006332874
 21
367.979964196682
 31
0.0
  0
LINE
  5
   7E1
  8
0
  6
CONTINUOUS
 62
     2
 10
247.272006332874
 20
347.179963886738
 30
0.0
 11
247.272006332874
 21
349.579963922501
 31
0.0
  0
LINE
  5
   7E2
  8
0
  6
CONTINUOUS
 62
     2
 10
243.432006275654
 20
346.779963880777
 30
0.0
 11
243.432006275654
 21
348.379963904619
 31
0.0
  0
LINE
  5
   7E3
  8
0
  6
CONTINUOUS
 62
     2
 10
241.832006251812
 20
359.979964077473
 30
0.0
 11
241.832006251812
 21
367.979964196682
 31
0.0
  0
LINE
  5
   7E4
  8
0
  6
CONTINUOUS
 62
     2
 10
241.832006251812
 20
346.779963880777
 30
0.0
 11
241.832006251812
 21
348.77996391058
 31
0.0
  0
LINE
  5
   7E5
  8
0
  6
CONTINUOUS
 62
     2
 10
241.832006289959
 20
367.979964196682
 30
0.0
 11
243.432006123066
 21
367.979964196682
 31
0.0
  0
LINE
  5
   7E6
  8
0
  6
CONTINUOUS
 62
     2
 10
241.832006289959
 20
346.779963880777
 30
0.0
 11
243.432006123066
 21
346.779963880777
 31
0.0
  0
LINE
  5
   7E7
  8
0
  6
CONTINUOUS
 62
     2
 10
245.672006309032
 20
367.979964196682
 30
0.0
 11
247.272006332874
 21
367.979964196682
 31
0.0
  0
LINE
  5
   7E8
  8
0
  6
CONTINUOUS
 62
     2
 10
240.872006237507
 20
349.739961483479
 30
0.0
 11
240.872006237507
 21
359.019966504574
 31
0.0
  0
LINE
  5
   7E9
  8
0
  6
CONTINUOUS
 62
     2
 10
240.872007458244
 20
349.739962704216
 30
0.0
 11
241.83200627092
 21
348.77996389154
 31
0.0
  0
LINE
  5
   7EA
  8
0
  6
CONTINUOUS
 62
     2
 10
240.87200745818
 20
359.019965283901
 30
0.0
 11
241.832006270855
 21
359.979964096576
 31
0.0
  0
LINE
  5
   7EB
  8
0
  6
CONTINUOUS
 62
     2
 10
243.432006123066
 20
348.379963904687
 30
0.0
 11
245.672006309032
 21
348.379963904687
 31
0.0
  0
LINE
  5
   7EC
  8
0
  6
CONTINUOUS
 62
     2
 10
243.432006123066
 20
367.979964196682
 30
0.0
 11
245.672006309032
 21
367.979964196682
 31
0.0
  0
LINE
  5
   7ED
  8
0
  6
CONTINUOUS
 62
     2
 10
247.272006332874
 20
349.579963922568
 30
0.0
 11
250.472006380558
 21
349.579963922568
 31
0.0
  0
LINE
  5
   7EE
  8
0
  6
CONTINUOUS
 62
     2
 10
250.472006380558
 20
349.579963922501
 30
0.0
 11
250.472006380558
 21
361.979964107275
 31
0.0
  0
LINE
  5
   7EF
  8
0
  6
CONTINUOUS
 62
     2
 10
246.872006326914
 20
346.779963880777
 30
0.0
 11
247.272006332874
 21
347.179963886738
 31
0.0
  0
LINE
  5
   7F0
  8
0
  6
CONTINUOUS
 62
     2
 10
245.672006309032
 20
347.179963886738
 30
0.0
 11
246.072006314993
 21
346.779963880777
 31
0.0
  0
LINE
  5
   7F1
  8
0
  6
CONTINUOUS
 62
     2
 10
247.272006332874
 20
363.579964131185
 30
0.0
 11
254.472006440163
 21
363.579964131185
 31
0.0
  0
LINE
  5
   7F2
  8
0
  6
CONTINUOUS
 62
     2
 10
250.472006380558
 20
361.979964107343
 30
0.0
 11
254.472006440163
 21
361.979964107343
 31
0.0
  0
LINE
  5
   7F3
  8
0
  6
CONTINUOUS
 62
     2
 10
254.472006440163
 20
361.979964107275
 30
0.0
 11
254.472006440163
 21
363.579964131117
 31
0.0
  0
ARC
  5
   7F4
  8
0
  6
CONTINUOUS
 62
     2
 10
243.832006281614
 20
268.619962716102
 30
0.0
 40
0.560000008344466
 50
269.999984388195
 51
300.286190873142
  0
ARC
  5
   7F5
  8
0
  6
CONTINUOUS
 62
     2
 10
243.832006281615
 20
268.619962716105
 30
0.0
 40
0.560000008341986
 50
59.5663314237296
 51
89.9999375526108
  0
LINE
  5
   7F6
  8
0
  6
CONTINUOUS
 62
     2
 10
243.832006281614
 20
267.579962700605
 30
0.0
 11
243.832006281614
 21
268.059961487055
 31
0.0
  0
LINE
  5
   7F7
  8
0
  6
CONTINUOUS
 62
     2
 10
247.272006332874
 20
247.979962408477
 30
0.0
 11
250.072006374598
 21
247.979962408477
 31
0.0
  0
LINE
  5
   7F8
  8
0
  6
CONTINUOUS
 62
     2
 10
250.072006374631
 20
247.979962408509
 30
0.0
 11
254.472006440197
 21
252.379962474074
 31
0.0
  0
LINE
  5
   7F9
  8
0
  6
CONTINUOUS
 62
     2
 10
246.072006314993
 20
269.179962724447
 30
0.0
 11
246.872006326914
 21
269.179962724447
 31
0.0
  0
LINE
  5
   7FA
  8
0
  6
CONTINUOUS
 62
     2
 10
245.672006309032
 20
267.579962700605
 30
0.0
 11
245.672006309032
 21
268.779962718487
 31
0.0
  0
LINE
  5
   7FB
  8
0
  6
CONTINUOUS
 62
     2
 10
247.272006332874
 20
247.979962408543
 30
0.0
 11
247.272006332874
 21
252.379962474108
 31
0.0
  0
LINE
  5
   7FC
  8
0
  6
CONTINUOUS
 62
     2
 10
247.272006332874
 20
266.379962682724
 30
0.0
 11
247.272006332874
 21
268.779962718487
 31
0.0
  0
LINE
  5
   7FD
  8
0
  6
CONTINUOUS
 62
     2
 10
243.432006275654
 20
267.579962700605
 30
0.0
 11
243.432006275654
 21
269.179962724447
 31
0.0
  0
LINE
  5
   7FE
  8
0
  6
CONTINUOUS
 62
     2
 10
241.832006251812
 20
247.979962408543
 30
0.0
 11
241.832006251812
 21
255.979962527752
 31
0.0
  0
LINE
  5
   7FF
  8
0
  6
CONTINUOUS
 62
     2
 10
241.832006251812
 20
267.179962694645
 30
0.0
 11
241.832006251812
 21
269.179962724447
 31
0.0
  0
LINE
  5
   800
  8
0
  6
CONTINUOUS
 62
     2
 10
241.832006289959
 20
247.979962408543
 30
0.0
 11
243.432006123066
 21
247.979962408543
 31
0.0
  0
LINE
  5
   801
  8
0
  6
CONTINUOUS
 62
     2
 10
241.832006289959
 20
269.179962724447
 30
0.0
 11
243.432006123066
 21
269.179962724447
 31
0.0
  0
LINE
  5
   802
  8
0
  6
CONTINUOUS
 62
     2
 10
245.672006309032
 20
247.979962408543
 30
0.0
 11
247.272006332874
 21
247.979962408543
 31
0.0
  0
LINE
  5
   803
  8
0
  6
CONTINUOUS
 62
     2
 10
240.872006237507
 20
256.939963152409
 30
0.0
 11
240.872006237507
 21
266.219962069988
 31
0.0
  0
LINE
  5
   804
  8
0
  6
CONTINUOUS
 62
     2
 10
240.872005932371
 20
266.219962375125
 30
0.0
 11
241.832006270925
 21
267.179962713679
 31
0.0
  0
LINE
  5
   805
  8
0
  6
CONTINUOUS
 62
     2
 10
240.872005932301
 20
256.939962847203
 30
0.0
 11
241.832006270855
 21
255.979962508648
 31
0.0
  0
LINE
  5
   806
  8
0
  6
CONTINUOUS
 62
     2
 10
243.432006123066
 20
267.579962700538
 30
0.0
 11
245.672006309032
 21
267.579962700538
 31
0.0
  0
LINE
  5
   807
  8
0
  6
CONTINUOUS
 62
     2
 10
243.432006123066
 20
247.979962408543
 30
0.0
 11
245.672006309032
 21
247.979962408543
 31
0.0
  0
LINE
  5
   808
  8
0
  6
CONTINUOUS
 62
     2
 10
247.272006332874
 20
266.379962682657
 30
0.0
 11
250.472006380558
 21
266.379962682657
 31
0.0
  0
LINE
  5
   809
  8
0
  6
CONTINUOUS
 62
     2
 10
250.472006380558
 20
253.97996249795
 30
0.0
 11
250.472006380558
 21
266.379962682724
 31
0.0
  0
LINE
  5
   80A
  8
0
  6
CONTINUOUS
 62
     2
 10
246.872006326914
 20
269.179962724447
 30
0.0
 11
247.272006332874
 21
268.779962718487
 31
0.0
  0
LINE
  5
   80B
  8
0
  6
CONTINUOUS
 62
     2
 10
245.672006309032
 20
268.779962718487
 30
0.0
 11
246.072006314993
 21
269.179962724447
 31
0.0
  0
LINE
  5
   80C
  8
0
  6
CONTINUOUS
 62
     2
 10
247.272006332874
 20
252.37996247404
 30
0.0
 11
254.472006440163
 21
252.37996247404
 31
0.0
  0
LINE
  5
   80D
  8
0
  6
CONTINUOUS
 62
     2
 10
250.472006380558
 20
253.979962497882
 30
0.0
 11
254.472006440163
 21
253.979962497882
 31
0.0
  0
LINE
  5
   80E
  8
0
  6
CONTINUOUS
 62
     2
 10
254.472006440163
 20
252.379962474108
 30
0.0
 11
254.472006440163
 21
253.97996249795
 31
0.0
  0
LINE
  5
   80F
  8
0
  6
CONTINUOUS
 62
     5
 10
272.872006714344
 20
253.97996249795
 30
0.0
 11
273.272006720305
 21
253.97996249795
 31
0.0
  0
LINE
  5
   810
  8
0
  6
CONTINUOUS
 62
     5
 10
256.179184623924
 20
269.179962724447
 30
0.0
 11
273.272006720305
 21
269.179962724447
 31
0.0
  0
LINE
  5
   811
  8
0
  6
CONTINUOUS
 62
     5
 10
253.272004896402
 20
269.179962724447
 30
0.0
 11
254.586239840302
 21
269.179962724447
 31
0.0
  0
LINE
  5
   812
  8
0
  6
CONTINUOUS
 62
     5
 10
252.872005653381
 20
269.179962724447
 30
0.0
 11
253.272004896402
 21
269.179962724447
 31
0.0
  0
LINE
  5
   813
  8
0
  6
CONTINUOUS
 62
     5
 10
250.872005623579
 20
258.394897866472
 30
0.0
 11
250.872005623579
 21
264.765027355925
 31
0.0
  0
LINE
  5
   814
  8
0
  6
CONTINUOUS
 62
     5
 10
273.272006720305
 20
256.791049575971
 30
0.0
 11
273.272006720305
 21
258.379962563515
 31
0.0
  0
LINE
  5
   815
  8
0
  6
CONTINUOUS
 62
     5
 10
273.272006720305
 20
264.779962658882
 30
0.0
 11
273.272006720305
 21
266.368875646426
 31
0.0
  0
LINE
  5
   816
  8
0
  6
CONTINUOUS
 62
     5
 10
252.872005653381
 20
253.97996249795
 30
0.0
 11
252.872005653381
 21
258.394897866472
 31
0.0
  0
LINE
  5
   817
  8
0
  6
CONTINUOUS
 62
     5
 10
252.872005653381
 20
264.765027355925
 30
0.0
 11
252.872005653381
 21
269.179962724447
 31
0.0
  0
LINE
  5
   818
  8
0
  6
CONTINUOUS
 62
     5
 10
250.872005623579
 20
264.765027355925
 30
0.0
 11
250.872005623579
 21
269.179962724447
 31
0.0
  0
LINE
  5
   819
  8
0
  6
CONTINUOUS
 62
     5
 10
250.872005623579
 20
253.97996249795
 30
0.0
 11
250.872005623579
 21
258.394897866472
 31
0.0
  0
LINE
  5
   81A
  8
0
  6
CONTINUOUS
 62
     5
 10
252.872005653381
 20
258.394897866472
 30
0.0
 11
253.203376965692
 21
258.726269941722
 31
0.0
  0
LINE
  5
   81B
  8
0
  6
CONTINUOUS
 62
     5
 10
252.872005653381
 20
264.765027355925
 30
0.0
 11
253.203376965692
 21
264.433655280675
 31
0.0
  0
LINE
  5
   81C
  8
0
  6
CONTINUOUS
 62
     5
 10
253.203376965692
 20
258.726269941722
 30
0.0
 11
253.672004902363
 21
259.857642028893
 31
0.0
  0
LINE
  5
   81D
  8
0
  6
CONTINUOUS
 62
     5
 10
253.203376965692
 20
264.433655280675
 30
0.0
 11
253.672004902363
 21
263.302283193504
 31
0.0
  0
LINE
  5
   81E
  8
0
  6
CONTINUOUS
 62
     5
 10
251.837690910186
 20
263.799341306379
 30
0.0
 11
252.07200564146
 21
263.233655262793
 31
0.0
  0
LINE
  5
   81F
  8
0
  6
CONTINUOUS
 62
     5
 10
251.837690910186
 20
259.360583916018
 30
0.0
 11
252.07200564146
 21
259.926269959603
 31
0.0
  0
LINE
  5
   820
  8
0
  6
CONTINUOUS
 62
     5
 10
250.872005623579
 20
264.765027355925
 30
0.0
 11
251.837690910186
 21
263.799341306379
 31
0.0
  0
LINE
  5
   821
  8
0
  6
CONTINUOUS
 62
     5
 10
250.872005623579
 20
258.394897866472
 30
0.0
 11
251.837690910186
 21
259.360583916018
 31
0.0
  0
LINE
  5
   822
  8
0
  6
CONTINUOUS
 62
     2
 10
269.67200666666
 20
265.579962670803
 30
0.0
 11
269.67200666666
 21
266.375424718789
 31
0.0
  0
LINE
  5
   823
  8
0
  6
CONTINUOUS
 62
     2
 10
269.67200666666
 20
266.384500646659
 30
0.0
 11
269.67200666666
 21
267.179962694645
 31
0.0
  0
LINE
  5
   824
  8
0
  6
CONTINUOUS
 62
     2
 10
269.67200666666
 20
268.379962712526
 30
0.0
 11
270.472006678581
 21
268.379962712526
 31
0.0
  0
LINE
  5
   825
  8
0
  6
CONTINUOUS
 62
     2
 10
269.67200666666
 20
254.779962509871
 30
0.0
 11
270.472006678581
 21
254.779962509871
 31
0.0
  0
LINE
  5
   826
  8
0
  6
CONTINUOUS
 62
     2
 10
269.670801939818
 20
266.38450749477
 30
0.0
 11
269.67200666666
 21
266.384500646659
 31
0.0
  0
LINE
  5
   827
  8
0
  6
CONTINUOUS
 62
     2
 10
269.670801939818
 20
266.375417870678
 30
0.0
 11
269.67200666666
 21
266.375424718789
 31
0.0
  0
ARC
  5
   828
  8
0
  6
CONTINUOUS
 62
     2
 10
272.470787440359
 20
266.379962682724
 30
0.0
 40
0.79999839528186
 50
89.9998842166831
 51
270.000115783317
  0
ARC
  5
   829
  8
0
  6
CONTINUOUS
 62
     2
 10
272.470788838468
 20
256.779961967468
 30
0.0
 40
0.79999979339121
 50
89.9999843489149
 51
270.000015651044
  0
LINE
  5
   82A
  8
0
  6
CONTINUOUS
 62
     3
 10
273.672006726265
 20
257.584839260651
 30
0.0
 11
273.672006726265
 21
265.260803855772
 31
0.0
  0
LINE
  5
   82B
  8
0
  6
CONTINUOUS
 62
     3
 10
273.672006726265
 20
263.975085937904
 30
0.0
 11
273.672006726265
 21
265.575085961746
 31
0.0
  0
LINE
  5
   82C
  8
0
  6
CONTINUOUS
 62
     3
 10
273.672006726265
 20
257.584839260651
 30
0.0
 11
274.472006738186
 21
256.78483924873
 31
0.0
  0
LINE
  5
   82D
  8
0
  6
CONTINUOUS
 62
     3
 10
273.672006726265
 20
265.575085961746
 30
0.0
 11
274.472006738186
 21
266.375085973667
 31
0.0
  0
LINE
  5
   82E
  8
0
  6
CONTINUOUS
 62
     3
 10
274.472006738186
 20
266.375085973667
 30
0.0
 11
288.072006940842
 21
266.375085973667
 31
0.0
  0
LINE
  5
   82F
  8
0
  6
CONTINUOUS
 62
     3
 10
274.472006738186
 20
256.78483924873
 30
0.0
 11
288.072006940842
 21
256.78483924873
 31
0.0
  0
ARC
  5
   830
  8
0
  6
CONTINUOUS
 62
     1
 10
307.109764806088
 20
283.419961369437
 30
0.0
 40
0.160000002383794
 50
269.999558139071
 51
360.001435510389
  0
ARC
  5
   831
  8
0
  6
CONTINUOUS
 62
     1
 10
307.109763238753
 20
316.539963430037
 30
0.0
 40
0.160000002385837
 50
359.99912577079
 51
450.00862317551
  0
LINE
  5
   832
  8
0
  6
CONTINUOUS
 62
     1
 10
306.469764173031
 20
283.259962934256
 30
0.0
 11
307.109763572183
 21
283.259962934256
 31
0.0
  0
LINE
  5
   833
  8
0
  6
CONTINUOUS
 62
     1
 10
303.269761073556
 20
283.259962934256
 30
0.0
 11
303.669764131308
 21
283.259962934256
 31
0.0
  0
LINE
  5
   834
  8
0
  6
CONTINUOUS
 62
     1
 10
306.469764173031
 20
316.699963432551
 30
0.0
 11
307.10973915812
 21
316.699963432551
 31
0.0
  0
LINE
  5
   835
  8
0
  6
CONTINUOUS
 62
     1
 10
303.269761073556
 20
316.699963432551
 30
0.0
 11
303.669764131308
 21
316.699963432551
 31
0.0
  0
LINE
  5
   836
  8
0
  6
CONTINUOUS
 62
     1
 10
307.26976324127
 20
283.419965378046
 30
0.0
 11
307.26976324127
 21
316.53996098876
 31
0.0
  0
LINE
  5
   837
  8
0
  6
DASHDOT
 62
     7
 10
247.152005491853
 20
354.379963994026
 30
0.0
 11
291.792007072568
 21
354.379963994026
 31
0.0
  0
LINE
  5
   838
  8
0
  6
DASHDOT
 62
     7
 10
283.672006875277
 20
365.579964160919
 30
0.0
 11
288.472006946802
 21
365.579964160919
 31
0.0
  0
LINE
  5
   839
  8
0
  6
DASHDOT
 62
     7
 10
247.152005491853
 20
261.579963655837
 30
0.0
 11
291.792007072568
 21
261.579963655837
 31
0.0
  0
LINE
  5
   83A
  8
0
  6
CONTINUOUS
 62
     7
 10
274.472006738186
 20
358.375081241058
 30
0.0
 11
288.072006940842
 21
358.375081241058
 31
0.0
  0
LINE
  5
   83B
  8
0
  6
CONTINUOUS
 62
     7
 10
274.472006738186
 20
350.384846746994
 30
0.0
 11
288.072006940842
 21
350.384846746994
 31
0.0
  0
LINE
  5
   83C
  8
0
  6
CONTINUOUS
 62
     7
 10
275.272006750107
 20
349.584846735073
 30
0.0
 11
275.272006750107
 21
359.175081252979
 31
0.0
  0
LINE
  5
   83D
  8
0
  6
CONTINUOUS
 62
     7
 10
273.672006726265
 20
257.584845364168
 30
0.0
 11
288.072006940842
 21
257.584845364168
 31
0.0
  0
LINE
  5
   83E
  8
0
  6
CONTINUOUS
 62
     7
 10
274.472006738186
 20
256.784845352247
 30
0.0
 11
274.472006738186
 21
266.375079870153
 31
0.0
  0
LINE
  5
   83F
  8
0
  6
CONTINUOUS
 62
     7
 10
273.672006726265
 20
265.575079858232
 30
0.0
 11
288.072006940842
 21
265.575079858232
 31
0.0
  0
INSERT
  5
   840
  8
0
  6
CONTINUOUS
 62
     7
  2
*HATCH1057
 10
0.0
 20
0.0
 30
0.0
  0
INSERT
  5
   841
  8
0
  6
CONTINUOUS
 62
     7
  2
*HATCH1058
 10
0.0
 20
0.0
 30
0.0
  0
INSERT
  5
   842
  8
0
  6
CONTINUOUS
 62
     7
  2
*HATCH1059
 10
0.0
 20
0.0
 30
0.0
  0
INSERT
  5
   843
  8
0
  6
CONTINUOUS
 62
     7
  2
*HATCH1060
 10
0.0
 20
0.0
 30
0.0
  0
INSERT
  5
   844
  8
0
  6
CONTINUOUS
 62
     7
  2
*HATCH1061
 10
0.0
 20
0.0
 30
0.0
  0
INSERT
  5
   845
  8
0
  6
CONTINUOUS
 62
     7
  2
*HATCH1062
 10
0.0
 20
0.0
 30
0.0
  0
INSERT
  5
   846
  8
0
  6
CONTINUOUS
 62
     7
  2
*HATCH1063
 10
0.0
 20
0.0
 30
0.0
  0
INSERT
  5
   847
  8
0
  6
CONTINUOUS
 62
     7
  2
*HATCH1064
 10
0.0
 20
0.0
 30
0.0
  0
INSERT
  5
   848
  8
0
  6
CONTINUOUS
 62
     7
  2
*HATCH1065
 10
0.0
 20
0.0
 30
0.0
  0
INSERT
  5
   849
  8
0
  6
CONTINUOUS
 62
     7
  2
*HATCH1066
 10
0.0
 20
0.0
 30
0.0
  0
INSERT
  5
   84A
  8
0
  6
CONTINUOUS
 62
     7
  2
*HATCH1067
 10
0.0
 20
0.0
 30
0.0
  0
INSERT
  5
   84B
  8
0
  6
CONTINUOUS
 62
     7
  2
*HATCH1068
 10
0.0
 20
0.0
 30
0.0
  0
INSERT
  5
   84C
  8
0
  6
CONTINUOUS
 62
     7
  2
*HATCH1069
 10
0.0
 20
0.0
 30
0.0
  0
INSERT
  5
   84D
  8
0
  6
CONTINUOUS
 62
     7
  2
*HATCH1070
 10
0.0
 20
0.0
 30
0.0
  0
INSERT
  5
   84E
  8
0
  6
CONTINUOUS
 62
     7
  2
*HATCH1071
 10
0.0
 20
0.0
 30
0.0
  0
INSERT
  5
   84F
  8
0
  6
CONTINUOUS
 62
     7
  2
*UDIM1231
 10
0.0
 20
0.0
 30
0.0
  0
INSERT
  5
   850
  8
0
  6
CONTINUOUS
 62
     7
  2
*UDIM1232
 10
0.0
 20
0.0
 30
0.0
  0
LINE
  5
   851
  8
0
  6
CONTINUOUS
 62
     7
 10
255.272007367612
 20
253.179962486029
 30
0.0
 11
270.472006678581
 21
253.179962486029
 31
0.0
  0
LINE
  5
   852
  8
0
  6
CONTINUOUS
 62
     7
 10
255.272007367612
 20
236.133357225159
 30
0.0
 11
255.272007367612
 21
253.179962486029
 31
0.0
  0
LINE
  5
   853
  8
0
  6
CONTINUOUS
 62
     7
 10
270.472006678581
 20
236.133357225159
 30
0.0
 11
270.472006678581
 21
253.179962486029
 31
0.0
  0
LINE
  5
   854
  8
0
  6
CONTINUOUS
 62
   253
 10
270.472006678581
 20
247.979962408543
 30
0.0
 11
278.872006803751
 21
247.979962408543
 31
0.0
  0
ARC
  5
   855
  8
0
  6
CONTINUOUS
 62
     7
 10
266.672006850839
 20
239.845856736884
 30
0.0
 40
5.31249953556734
 50
224.332689175651
 51
315.667310824349
  0
ARC
  5
   856
  8
0
  6
CONTINUOUS
 62
     7
 10
266.672006850839
 20
232.420857713433
 30
0.0
 40
5.31249953556728
 50
44.3326891756508
 51
135.66731082435
  0
ARC
  5
   857
  8
0
  6
CONTINUOUS
 62
     7
 10
259.072007195355
 20
239.845856736884
 30
0.0
 40
5.31249953556732
 50
224.33268917565
 51
315.667310824349
  0
INSERT
  5
   858
  8
0
  6
CONTINUOUS
 62
     7
  2
*HATCH1072
 10
0.0
 20
0.0
 30
0.0
  0
INSERT
  5
   859
  8
0
  6
CONTINUOUS
 62
     7
  2
*HATCH1073
 10
0.0
 20
0.0
 30
0.0
  0
INSERT
  5
   85A
  8
0
  6
CONTINUOUS
 62
     7
  2
*HATCH1074
 10
0.0
 20
0.0
 30
0.0
  0
INSERT
  5
   85B
  8
0
  6
CONTINUOUS
 62
     7
  2
*UDIM1233
 10
0.0
 20
0.0
 30
0.0
  0
INSERT
  5
   85C
  8
0
  6
CONTINUOUS
 62
     7
  2
*UDIM1234
 10
0.0
 20
0.0
 30
0.0
  0
INSERT
  5
   85D
  8
0
  6
CONTINUOUS
 62
     7
  2
*UDIM1235
 10
0.0
 20
0.0
 30
0.0
  0
INSERT
  5
   85E
  8
0
  6
CONTINUOUS
 62
     7
  2
*UDIM1236
 10
0.0
 20
0.0
 30
0.0
  0
INSERT
  5
   85F
  8
0
  6
CONTINUOUS
 62
     7
  2
*UDIM1237
 10
0.0
 20
0.0
 30
0.0
  0
TEXT
  5
   860
  8
0
  6
CONTINUOUS
 62
     7
 10
254.057099816173
 20
226.595696446575
 30
0.0
 40
1.40000452697284
  1
PROFONDITA' QUADRO
 41
0.933333333333333
 11
254.057099816173
 21
227.295698710062
 31
0.0
 73
     2
  0
TEXT
  5
   861
  8
0
  6
CONTINUOUS
 62
     7
 10
254.057099816173
 20
228.915696481146
 30
0.0
 40
1.40000452697284
  1
COMPARTMENT DEPTH
 41
0.933333333333333
 11
254.057099816173
 21
229.615698744633
 31
0.0
 73
     2
  0
ENDSEC
  0
EOF
