  0
SECTION
  2
HEADER
  9
$ACADVER
  1
AC1009
  9
$DWGCODEPAGE
  3
iso8859-1
  9
$INSBASE
 10
0.0
 20
0.0
 30
0.0
  9
$EXTMIN
 10
1.0E20
 20
1.0E20
  9
$EXTMAX
 10
-1.0E20
 20
-1.0E20
  9
$LIMMIN
 10
0.0
 20
0.0
  9
$LIMMAX
 10
12.0
 20
9.0
  9
$ORTHOMODE
 70
     0
  9
$REGENMODE
 70
     1
  9
$FILLMODE
 70
     1
  9
$QTEXTMODE
 70
     0
  9
$MIRRTEXT
 70
     1
  9
$DRAGMODE
 70
     2
  9
$LTSCALE
 40
15.0
  9
$OSMODE
 70
     0
  9
$ATTMODE
 70
     1
  9
$TEXTSIZE
 40
0.2
  9
$TRACEWID
 40
0.05
  9
$TEXTSTYLE
  7
STANDARD
  9
$CLAYER
  8
0
  9
$CELTYPE
  6
DASHED
  9
$CECOLOR
 62
   256
  9
$DIMSCALE
 40
1.0
  9
$DIMASZ
 40
0.18
  9
$DIMEXO
 40
0.0625
  9
$DIMDLI
 40
0.38
  9
$DIMRND
 40
0.0
  9
$DIMDLE
 40
0.0
  9
$DIMEXE
 40
0.18
  9
$DIMTP
 40
0.0
  9
$DIMTM
 40
0.0
  9
$DIMTXT
 40
0.18
  9
$DIMCEN
 40
0.09
  9
$DIMTSZ
 40
0.0
  9
$DIMTOL
 70
     0
  9
$DIMLIM
 70
     0
  9
$DIMTIH
 70
     1
  9
$DIMTOH
 70
     1
  9
$DIMSE1
 70
     0
  9
$DIMSE2
 70
     0
  9
$DIMTAD
 70
     0
  9
$DIMZIN
 70
     0
  9
$DIMBLK
  1

  9
$DIMASO
 70
     1
  9
$DIMSHO
 70
     1
  9
$DIMPOST
  1

  9
$DIMAPOST
  1

  9
$DIMALT
 70
     0
  9
$DIMALTD
 70
     2
  9
$DIMALTF
 40
25.4
  9
$DIMLFAC
 40
1.0
  9
$DIMTOFL
 70
     0
  9
$DIMTVP
 40
0.0
  9
$DIMTIX
 70
     0
  9
$DIMSOXD
 70
     0
  9
$DIMSAH
 70
     0
  9
$DIMBLK1
  1

  9
$DIMBLK2
  1

  9
$DIMSTYLE
  2
STANDARD
  9
$DIMCLRD
 70
     0
  9
$DIMCLRE
 70
     0
  9
$DIMCLRT
 70
     0
  9
$DIMTFAC
 40
1.0
  9
$DIMGAP
 40
0.09
  9
$LUNITS
 70
     2
  9
$LUPREC
 70
     4
  9
$AXISMODE
 70
     0
  9
$AXISUNIT
 10
0.0
 20
0.0
  9
$SKETCHINC
 40
0.1
  9
$FILLETRAD
 40
0.0
  9
$AUNITS
 70
     0
  9
$AUPREC
 70
     0
  9
$MENU
  1
acad
  9
$ELEVATION
 40
0.0
  9
$PELEVATION
 40
0.0
  9
$THICKNESS
 40
0.0
  9
$LIMCHECK
 70
     0
  9
$BLIPMODE
 70
     1
  9
$CHAMFERA
 40
0.0
  9
$CHAMFERB
 40
0.0
  9
$SKPOLY
 70
     0
  9
$TDCREATE
 40
0.000000000
  9
$TDUPDATE
 40
0.000000000
  9
$TDINDWG
 40
0.0
  9
$TDUSRTIMER
 40
0.0
  9
$USRTIMER
 70
     1
  9
$ANGBASE
 50
0.0
  9
$ANGDIR
 70
     0
  9
$PDMODE
 70
     0
  9
$PDSIZE
 40
0.0
  9
$PLINEWID
 40
0.0
  9
$COORDS
 70
     1
  9
$SPLFRAME
 70
     0
  9
$SPLINETYPE
 70
     6
  9
$SPLINESEGS
 70
     8
  9
$ATTDIA
 70
     0
  9
$ATTREQ
 70
     1
  9
$HANDLING
 70
     1
  9
$HANDSEED
  5
   84E
  9
$SURFTAB1
 70
     6
  9
$SURFTAB2
 70
     6
  9
$SURFTYPE
 70
     6
  9
$SURFU
 70
     6
  9
$SURFV
 70
     6
  9
$UCSNAME
  2

  9
$UCSORG
 10
0.0
 20
0.0
 30
0.0
  9
$UCSXDIR
 10
1.0
 20
0.0
 30
0.0
  9
$UCSYDIR
 10
0.0
 20
1.0
 30
0.0
  9
$PUCSNAME
  2

  9
$PUCSORG
 10
0.0
 20
0.0
 30
0.0
  9
$PUCSXDIR
 10
1.0
 20
0.0
 30
0.0
  9
$PUCSYDIR
 10
0.0
 20
1.0
 30
0.0
  9
$USERI1
 70
     0
  9
$USERI2
 70
     0
  9
$USERI3
 70
     0
  9
$USERI4
 70
     0
  9
$USERI5
 70
     0
  9
$USERR1
 40
0.0
  9
$USERR2
 40
0.0
  9
$USERR3
 40
0.0
  9
$USERR4
 40
0.0
  9
$USERR5
 40
0.0
  9
$WORLDVIEW
 70
     1
  9
$SHADEDGE
 70
     3
  9
$SHADEDIF
 70
    70
  9
$TILEMODE
 70
     1
  9
$MAXACTVP
 70
    16
  9
$PINSBASE
 10
0.0
 20
0.0
 30
0.0
  9
$PLIMCHECK
 70
     0
  9
$PEXTMIN
 10
1.0E20
 20
1.0E20
 30
1.0E20
  9
$PEXTMAX
 10
-1.0E20
 20
-1.0E20
 30
-1.0E20
  9
$PLIMMIN
 10
0.0
 20
0.0
  9
$PLIMMAX
 10
12.0
 20
9.0
  9
$UNITMODE
 70
     0
  9
$VISRETAIN
 70
     0
  0
ENDSEC
  0
SECTION
  2
TABLES
  0
TABLE
  2
VPORT
 70
     1
  0
VPORT
  2
*ACTIVE
 70
     0
 10
0.0
 20
0.0
 11
1.0
 21
1.0
 12
6.801242
 22
4.5
 13
0.0
 23
0.0
 14
1.0
 24
1.0
 15
0.0
 25
0.0
 16
0.0
 26
0.0
 36
1.0
 17
0.0
 27
0.0
 37
0.0
 40
9.0
 41
1.511387
 42
50.0
 43
0.0
 44
0.0
 50
0.0
 51
0.0
 71
     0
 72
   100
 73
     1
 74
     1
 75
     0
 76
     0
 77
     0
 78
     0
  0
ENDTAB
  0
TABLE
  2
LTYPE
 70
    41
  0
LTYPE
  2
BYBLOCK
 70
     0
  3

 72
    65
 73
     0
 40
0.0
  0
LTYPE
  2
BYLAYER
 70
     0
  3

 72
    65
 73
     0
 40
0.0
  0
LTYPE
  2
CONTINUOUS
 70
     0
  3
Solid line
 72
    65
 73
     0
 40
0.0
  0
LTYPE
  2
BORDER
 70
    64
  3
__ __ . __ __ . __ __ . __ __ . __ __ . __ __ .
 72
    65
 73
     6
 40
1.75
 49
0.5
 49
-0.25
 49
0.5
 49
-0.25
 49
0.0
 49
-0.25
  0
LTYPE
  2
BORDER2
 70
    64
  3
__.__.__.__.__.__.__.__.__.__.__.__.__.__.__.__
 72
    65
 73
     6
 40
0.875
 49
0.25
 49
-0.125
 49
0.25
 49
-0.125
 49
0.0
 49
-0.125
  0
LTYPE
  2
BORDERX2
 70
    64
  3
____  ____  .  ____  ____  .  ____  ____  .  __
 72
    65
 73
     6
 40
3.5
 49
1.0
 49
-0.5
 49
1.0
 49
-0.5
 49
0.0
 49
-0.5
  0
LTYPE
  2
CENTER
 70
    64
  3
____ _ ____ _ ____ _ ____ _ ____ _ ____ _ ____
 72
    65
 73
     4
 40
2.0
 49
1.25
 49
-0.25
 49
0.25
 49
-0.25
  0
LTYPE
  2
CENTER2
 70
    64
  3
___ _ ___ _ ___ _ ___ _ ___ _ ___ _ ___ _ ___ _
 72
    65
 73
     4
 40
1.125
 49
0.75
 49
-0.125
 49
0.125
 49
-0.125
  0
LTYPE
  2
CENTERX2
 70
    64
  3
________  __  ________  __  ________  __  _____
 72
    65
 73
     4
 40
4.0
 49
2.5
 49
-0.5
 49
0.5
 49
-0.5
  0
LTYPE
  2
DASHDOT
 70
    64
  3
__ . __ . __ . __ . __ . __ . __ . __ . __ . __
 72
    65
 73
     4
 40
1.0
 49
0.5
 49
-0.25
 49
0.0
 49
-0.25
  0
LTYPE
  2
DASHDOT2
 70
    64
  3
_._._._._._._._._._._._._._._._._._._._._._._._
 72
    65
 73
     4
 40
0.5
 49
0.25
 49
-0.125
 49
0.0
 49
-0.125
  0
LTYPE
  2
DASHDOTX2
 70
    64
  3
____  .  ____  .  ____  .  ____  .  ____  .  __
 72
    65
 73
     4
 40
2.0
 49
1.0
 49
-0.5
 49
0.0
 49
-0.5
  0
LTYPE
  2
DASHED
 70
    64
  3
__ __ __ __ __ __ __ __ __ __ __ __ __ __ __ __
 72
    65
 73
     2
 40
0.75
 49
0.5
 49
-0.25
  0
LTYPE
  2
DASHED2
 70
    64
  3
_ _ _ _ _ _ _ _ _ _ _ _ _ _ _ _ _ _ _ _ _ _ _ _
 72
    65
 73
     2
 40
0.375
 49
0.25
 49
-0.125
  0
LTYPE
  2
DASHEDX2
 70
    64
  3
____  ____  ____  ____  ____  ____  ____  ____
 72
    65
 73
     2
 40
1.5
 49
1.0
 49
-0.5
  0
LTYPE
  2
DIVIDE
 70
    64
  3
____ . . ____ . . ____ . . ____ . . ____ . . __
 72
    65
 73
     6
 40
1.25
 49
0.5
 49
-0.25
 49
0.0
 49
-0.25
 49
0.0
 49
-0.25
  0
LTYPE
  2
DIVIDE2
 70
    64
  3
__..__..__..__..__..__..__..__..__..__..__..__.
 72
    65
 73
     6
 40
0.625
 49
0.25
 49
-0.125
 49
0.0
 49
-0.125
 49
0.0
 49
-0.125
  0
LTYPE
  2
DIVIDEX2
 70
    64
  3
________  .  .  ________  .  .  ________  .  .
 72
    65
 73
     6
 40
2.5
 49
1.0
 49
-0.5
 49
0.0
 49
-0.5
 49
0.0
 49
-0.5
  0
LTYPE
  2
DOT
 70
    64
  3
. . . . . . . . . . . . . . . . . . . . . . . .
 72
    65
 73
     2
 40
0.25
 49
0.0
 49
-0.25
  0
LTYPE
  2
DOT2
 70
    64
  3
...............................................
 72
    65
 73
     2
 40
0.125
 49
0.0
 49
-0.125
  0
LTYPE
  2
DOTX2
 70
    64
  3
.  .  .  .  .  .  .  .  .  .  .  .  .  .  .  .
 72
    65
 73
     2
 40
0.5
 49
0.0
 49
-0.5
  0
LTYPE
  2
HIDDEN
 70
    64
  3
__ __ __ __ __ __ __ __ __ __ __ __ __ __ __ __
 72
    65
 73
     2
 40
0.375
 49
0.25
 49
-0.125
  0
LTYPE
  2
HIDDEN2
 70
    64
  3
_ _ _ _ _ _ _ _ _ _ _ _ _ _ _ _ _ _ _ _ _ _ _ _
 72
    65
 73
     2
 40
0.1875
 49
0.125
 49
-0.0625
  0
LTYPE
  2
HIDDENX2
 70
    64
  3
____ ____ ____ ____ ____ ____ ____ ____ ____ __
 72
    65
 73
     2
 40
0.75
 49
0.5
 49
-0.25
  0
LTYPE
  2
PHANTOM
 70
    64
  3
______  __  __  ______  __  __  ______  __  __
 72
    65
 73
     6
 40
2.5
 49
1.25
 49
-0.25
 49
0.25
 49
-0.25
 49
0.25
 49
-0.25
  0
LTYPE
  2
PHANTOM2
 70
    64
  3
___ _ _ ___ _ _ ___ _ _ ___ _ _ ___ _ _ ___ _ _
 72
    65
 73
     6
 40
1.25
 49
0.625
 49
-0.125
 49
0.125
 49
-0.125
 49
0.125
 49
-0.125
  0
LTYPE
  2
PHANTOMX2
 70
    64
  3
____________    ____    ____    ____________
 72
    65
 73
     6
 40
5.0
 49
2.5
 49
-0.5
 49
0.5
 49
-0.5
 49
0.5
 49
-0.5
  0
LTYPE
  2
ACAD_ISO02W100
 70
    64
  3
__ __ __ __ __ __ __ __ __ __ __ __ __ __ __ __
 72
    65
 73
     2
 40
15.0
 49
12.0
 49
-3.0
  0
LTYPE
  2
ACAD_ISO03W100
 70
    64
  3
__    __    __    __    __    __    __    __
 72
    65
 73
     2
 40
30.0
 49
12.0
 49
-18.0
  0
LTYPE
  2
ACAD_ISO04W100
 70
    64
  3
____ . ____ . ____ . ____ . ____ . ____ . ____
 72
    65
 73
     4
 40
30.5
 49
24.0
 49
-3.0
 49
0.5
 49
-3.0
  0
LTYPE
  2
ACAD_ISO05W100
 70
    64
  3
____ .. ____ .. ____ .. ____ .. ____ .. ____ ..
 72
    65
 73
     6
 40
34.0
 49
24.0
 49
-3.0
 49
0.5
 49
-3.0
 49
0.5
 49
-3.0
  0
LTYPE
  2
ACAD_ISO06W100
 70
    64
  3
____ ... ____ ... ____ ... ____ ... ____ ... __
 72
    65
 73
     8
 40
37.5
 49
24.0
 49
-3.0
 49
0.5
 49
-3.0
 49
0.5
 49
-3.0
 49
0.5
 49
-3.0
  0
LTYPE
  2
ACAD_ISO07W100
 70
    64
  3
. . . . . . . . . . . . . . . . . . . . . . . .
 72
    65
 73
     2
 40
3.5
 49
0.5
 49
-3.0
  0
LTYPE
  2
ACAD_ISO08W100
 70
    64
  3
____ __ ____ __ ____ __ ____ ____ __ __ ____ __
 72
    65
 73
     4
 40
36.0
 49
24.0
 49
-3.0
 49
6.0
 49
-3.0
  0
LTYPE
  2
ACAD_ISO09W100
 70
    64
  3
____ __ __ ____ __ __ ____ __ __ ____ __ __ ___
 72
    65
 73
     6
 40
45.0
 49
24.0
 49
-3.0
 49
6.0
 49
-3.0
 49
6.0
 49
-3.0
  0
LTYPE
  2
ACAD_ISO10W100
 70
    64
  3
__ . __ . __ . __ . __ . __ . __ . __ . __ . __
 72
    65
 73
     4
 40
18.5
 49
12.0
 49
-3.0
 49
0.5
 49
-3.0
  0
LTYPE
  2
ACAD_ISO11W100
 70
    64
  3
__ __ . __ __ . __ __ . __ __ . __ __ . __ __ .
 72
    65
 73
     6
 40
33.5
 49
12.0
 49
-3.0
 49
12.0
 49
-3.0
 49
0.5
 49
-3.0
  0
LTYPE
  2
ACAD_ISO12W100
 70
    64
  3
__ . . __ . . __ . . __ . . __ . . __ . . __ .
 72
    65
 73
     6
 40
22.0
 49
12.0
 49
-3.0
 49
0.5
 49
-3.0
 49
0.5
 49
-3.0
  0
LTYPE
  2
ACAD_ISO13W100
 70
    64
  3
__ __ . . __ __ . . __ __ . . __ __ . . __ __ .
 72
    65
 73
     8
 40
37.0
 49
12.0
 49
-3.0
 49
12.0
 49
-3.0
 49
0.5
 49
-3.0
 49
0.5
 49
-3.0
  0
LTYPE
  2
ACAD_ISO14W100
 70
    64
  3
__ . . . __ . . . __ . . . __ . . . __ . . . __
 72
    65
 73
     8
 40
25.5
 49
12.0
 49
-3.0
 49
0.5
 49
-3.0
 49
0.5
 49
-3.0
 49
0.5
 49
-3.0
  0
LTYPE
  2
ACAD_ISO15W100
 70
    64
  3
__ __ . . . __ __ . . . __ __ . . . __ __ . . .
 72
    65
 73
    10
 40
40.5
 49
12.0
 49
-3.0
 49
12.0
 49
-3.0
 49
0.5
 49
-3.0
 49
0.5
 49
-3.0
 49
0.5
 49
-3.0
  0
ENDTAB
  0
TABLE
  2
STYLE
 70
     4
  0
STYLE
  2
STANDARD
 70
    64
 40
0.0
 41
1.0
 50
0.0
 71
     0
 42
0.2
  3
txt
  4

  0
STYLE
  2
TOLERANCE
 70
    64
 40
0.0
 41
1.0
 50
0.0
 71
     0
 42
0.2
  3
../igesfont/iges1003.shx
  4

  0
STYLE
  2
ROMANS
 70
    64
 40
0.0
 41
1.0
 50
0.0
 71
     0
 42
0.2
  3
romans.shx
  4

  0
STYLE
  2
ROMANC
 70
    64
 40
0.0
 41
1.0
 50
0.0
 71
     0
 42
0.2
  3
romanc.shx
  4

  0
ENDTAB
  0
TABLE
  2
DIMSTYLE
 70
     2
  0
DIMSTYLE
  2
UNNAMED
 70
     0
  3

  4

  5

  6

  7

 40
1.0
 41
0.18
 42
0.0625
 43
0.38
 44
0.18
 45
0.0
 46
0.0
 47
0.0
 48
0.0
140
0.18
141
0.09
142
0.0
143
25.4
144
1.0
145
0.0
146
1.0
147
0.09
 71
     0
 72
     0
 73
     1
 74
     1
 75
     0
 76
     0
 77
     0
 78
     0
170
     0
171
     2
172
     0
173
     0
174
     0
175
     0
176
     0
177
     0
178
     0
  0
DIMSTYLE
  2
STANDARD
 70
     0
  3

  4

  5

  6

  7

 40
1.0
 41
0.18
 42
0.0625
 43
0.38
 44
0.18
 45
0.0
 46
0.0
 47
0.0
 48
0.0
140
0.18
141
0.09
142
0.0
143
25.4
144
1.0
145
0.0
146
1.0
147
0.09
 71
     0
 72
     0
 73
     1
 74
     1
 75
     0
 76
     0
 77
     0
 78
     0
170
     0
171
     2
172
     0
173
     0
174
     0
175
     0
176
     0
177
     0
178
     0
  0
ENDTAB
  0
TABLE
  2
LAYER
 70
     2
  0
LAYER
  2
0
 70
     0
 62
     7
  6
CONTINUOUS
  0
LAYER
  2
255
 70
     0
 62
     7
  6
CONTINUOUS
  0
ENDTAB
  0
ENDSEC
  0
SECTION
  2
BLOCKS
  0
BLOCK
  5
     B
  8
0
  6
CONTINUOUS
 62
     7
  2
MOSTRA
 70
    64
 10
0.0
 20
0.0
 30
0.0
  3
MOSTRA
  0
LINE
  5
     C
  8
0
  6
CONTINUOUS
 62
     2
 10
175.338317871094
 20
34.312744140625
 30
0.0
 11
210.838317871094
 21
34.312744140625
 31
0.0
  0
LINE
  5
     D
  8
0
  6
CONTINUOUS
 62
     2
 10
175.338317871094
 20
49.312744140625
 30
0.0
 11
210.838317871094
 21
49.312744140625
 31
0.0
  0
LINE
  5
     E
  8
0
  6
CONTINUOUS
 62
     2
 10
210.838317871094
 20
33.312744140625
 30
0.0
 11
210.838317871094
 21
50.312744140625
 31
0.0
  0
LINE
  5
     F
  8
0
  6
CONTINUOUS
 62
     2
 10
175.338317871094
 20
34.312744140625
 30
0.0
 11
175.338317871094
 21
49.312744140625
 31
0.0
  0
LINE
  5
    10
  8
0
  6
CONTINUOUS
 62
     2
 10
210.838317871094
 20
50.312744140625
 30
0.0
 11
210.838317871094
 21
148.306442260742
 31
0.0
  0
LINE
  5
    11
  8
0
  6
CONTINUOUS
 62
     2
 10
210.838317871094
 20
-10.187255859375
 30
0.0
 11
210.838317871094
 21
33.3127403259278
 31
0.0
  0
LINE
  5
    12
  8
0
  6
CONTINUOUS
 62
     2
 10
37.5883140563965
 20
-11.437255859375
 30
0.0
 11
209.588317871094
 21
-11.437255859375
 31
0.0
  0
LINE
  5
    13
  8
0
  6
CONTINUOUS
 62
     2
 10
36.3383140563965
 20
-10.187255859375
 30
0.0
 11
36.3383140563965
 21
148.306442260742
 31
0.0
  0
LINE
  5
    14
  8
0
  6
CONTINUOUS
 62
     2
 10
175.338317871094
 20
128.562744140625
 30
0.0
 11
175.338317871094
 21
129.562744140625
 31
0.0
  0
LINE
  5
    15
  8
0
  6
CONTINUOUS
 62
     2
 10
45.3383140563965
 20
128.562744140625
 30
0.0
 11
45.3383140563965
 21
129.562744140625
 31
0.0
  0
LINE
  5
    16
  8
0
  6
CONTINUOUS
 62
     2
 10
175.338317871094
 20
8.56274414062501
 30
0.0
 11
175.338317871094
 21
9.56274414062501
 31
0.0
  0
LINE
  5
    17
  8
0
  6
CONTINUOUS
 62
     2
 10
46.3383140563965
 20
8.562744140625
 30
0.0
 11
174.338314056396
 21
8.56274414062501
 31
0.0
  0
LINE
  5
    18
  8
0
  6
CONTINUOUS
 62
     2
 10
45.3383140563965
 20
8.562744140625
 30
0.0
 11
45.3383140563965
 21
9.562744140625
 31
0.0
  0
LINE
  5
    19
  8
0
  6
CONTINUOUS
 62
     2
 10
174.338317871094
 20
-11.437255859375
 30
0.0
 11
174.338317871094
 21
8.56274414062501
 31
0.0
  0
LINE
  5
    1A
  8
0
  6
CONTINUOUS
 62
     2
 10
175.338317871094
 20
129.562744140625
 30
0.0
 11
175.338317871094
 21
149.562744140625
 31
0.0
  0
LINE
  5
    1B
  8
0
  6
CONTINUOUS
 62
     2
 10
175.338317871094
 20
9.56274414062501
 30
0.0
 11
175.338317871094
 21
33.312744140625
 31
0.0
  0
LINE
  5
    1C
  8
0
  6
CONTINUOUS
 62
     2
 10
175.338317871094
 20
50.312744140625
 30
0.0
 11
175.338317871094
 21
128.562744140625
 31
0.0
  0
LINE
  5
    1D
  8
0
  6
CONTINUOUS
 62
     2
 10
175.338317871094
 20
-11.437255859375
 30
0.0
 11
175.338317871094
 21
8.56274414062501
 31
0.0
  0
LINE
  5
    1E
  8
0
  6
CONTINUOUS
 62
     2
 10
45.3383140563965
 20
129.562744140625
 30
0.0
 11
45.3383140563965
 21
149.562744140625
 31
0.0
  0
LINE
  5
    1F
  8
0
  6
CONTINUOUS
 62
     2
 10
45.3383140563965
 20
9.562744140625
 30
0.0
 11
45.3383140563965
 21
128.562744140625
 31
0.0
  0
LINE
  5
    20
  8
0
  6
CONTINUOUS
 62
     2
 10
45.3383140563965
 20
-11.437255859375
 30
0.0
 11
45.3383140563965
 21
8.562744140625
 31
0.0
  0
LINE
  5
    21
  8
0
  6
CONTINUOUS
 62
     2
 10
46.3383140563965
 20
-11.437255859375
 30
0.0
 11
46.3383140563965
 21
8.562744140625
 31
0.0
  0
LINE
  5
    22
  8
0
  6
CONTINUOUS
 62
     2
 10
175.338317871094
 20
33.312744140625
 30
0.0
 11
210.838317871094
 21
33.312744140625
 31
0.0
  0
LINE
  5
    23
  8
0
  6
CONTINUOUS
 62
     2
 10
175.338317871094
 20
50.312744140625
 30
0.0
 11
210.838317871094
 21
50.312744140625
 31
0.0
  0
LINE
  5
    24
  8
0
  6
CONTINUOUS
 62
     2
 10
175.388320922852
 20
49.312744140625
 30
0.0
 11
175.388320922852
 21
50.312744140625
 31
0.0
  0
LINE
  5
    25
  8
0
  6
CONTINUOUS
 62
     2
 10
175.388320922852
 20
33.312744140625
 30
0.0
 11
175.388320922852
 21
34.312744140625
 31
0.0
  0
LINE
  5
    26
  8
0
  6
CONTINUOUS
 62
     2
 10
46.3383140563965
 20
128.562744140625
 30
0.0
 11
174.338314056396
 21
128.562744140625
 31
0.0
  0
LINE
  5
    27
  8
0
  6
CONTINUOUS
 62
     2
 10
46.3383140563965
 20
9.562744140625
 30
0.0
 11
174.338314056396
 21
9.56274414062501
 31
0.0
  0
LINE
  5
    28
  8
0
  6
CONTINUOUS
 62
     2
 10
174.338317871094
 20
9.56274414062501
 30
0.0
 11
174.338317871094
 21
128.562744140625
 31
0.0
  0
LINE
  5
    29
  8
0
  6
CONTINUOUS
 62
     2
 10
46.3383140563965
 20
9.562744140625
 30
0.0
 11
46.3383140563965
 21
128.562744140625
 31
0.0
  0
LINE
  5
    2A
  8
0
  6
CONTINUOUS
 62
     2
 10
167.338315963745
 20
121.562743016692
 30
0.0
 11
174.338312295455
 21
128.562739348402
 31
0.0
  0
LINE
  5
    2B
  8
0
  6
CONTINUOUS
 62
     2
 10
46.3383156391412
 20
128.562746004959
 30
0.0
 11
62.3383159637451
 21
121.033336629486
 31
0.0
  0
LINE
  5
    2C
  8
0
  6
CONTINUOUS
 62
     2
 10
167.338315963745
 20
16.5627619426901
 30
0.0
 11
174.338335117812
 21
9.56273924827786
 31
0.0
  0
LINE
  5
    2D
  8
0
  6
CONTINUOUS
 62
     2
 10
46.3383186567184
 20
9.56274576222224
 30
0.0
 11
62.3383159637451
 21
17.092157375641
 31
0.0
  0
LINE
  5
    2E
  8
0
  6
CONTINUOUS
 62
     2
 10
174.338256835938
 20
129.556442260742
 30
0.0
 11
174.338256835938
 21
149.556442260742
 31
0.0
  0
LINE
  5
    2F
  8
0
  6
CONTINUOUS
 62
     2
 10
45.3383140563965
 20
129.556442260742
 30
0.0
 11
175.338317871094
 21
129.556442260742
 31
0.0
  0
LINE
  5
    30
  8
0
  6
CONTINUOUS
 62
     2
 10
37.5883140563965
 20
149.556442260742
 30
0.0
 11
45.3383140563965
 21
149.556442260742
 31
0.0
  0
LINE
  5
    31
  8
0
  6
CONTINUOUS
 62
     2
 10
115.343585020102
 20
149.556442260742
 30
0.0
 11
175.338317871094
 21
149.556442260742
 31
0.0
  0
ARC
  5
    32
  8
0
  6
CONTINUOUS
 62
     2
 10
110.338285446167
 20
153.703627621259
 30
0.0
 40
6.50016693934245
 50
219.643748317915
 51
320.356251682085
  0
LINE
  5
    33
  8
0
  6
CONTINUOUS
 62
     2
 10
105.332985872232
 20
149.556442260742
 30
0.0
 11
115.343585020102
 21
149.556442260742
 31
0.0
  0
LINE
  5
    34
  8
0
  6
CONTINUOUS
 62
     2
 10
46.3383140563965
 20
129.562744140625
 30
0.0
 11
46.3383140563965
 21
149.562744140625
 31
0.0
  0
LINE
  5
    35
  8
0
  6
CONTINUOUS
 62
     2
 10
45.3383140563965
 20
149.556442260742
 30
0.0
 11
105.332985872232
 21
149.556442260742
 31
0.0
  0
LINE
  5
    36
  8
0
  6
CONTINUOUS
 62
     2
 10
175.338317871094
 20
149.556442260742
 30
0.0
 11
209.588317871094
 21
149.556442260742
 31
0.0
  0
POINT
  5
    37
  8
0
  6
CONTINUOUS
 62
     2
 10
114.838315963745
 20
69.062744140625
 30
0.0
  0
ARC
  5
    38
  8
0
  6
CONTINUOUS
 62
     2
 10
37.5883140563965
 20
148.306442260742
 30
0.0
 40
1.25
 50
90.0
 51
180.0
  0
ARC
  5
    39
  8
0
  6
CONTINUOUS
 62
     2
 10
37.5883140563965
 20
-10.187255859375
 30
0.0
 40
1.25
 50
180.0
 51
270.0
  0
ARC
  5
    3A
  8
0
  6
CONTINUOUS
 62
     2
 10
209.588317871094
 20
-10.187255859375
 30
0.0
 40
1.25
 50
270.0
 51
360.0
  0
ARC
  5
    3B
  8
0
  6
CONTINUOUS
 62
     2
 10
209.588317871094
 20
148.306442260742
 30
0.0
 40
1.25
 50
0.0
 51
90.0
  0
ENDBLK
  5
    3C
  8
0
  6
CONTINUOUS
 62
     7
  0
BLOCK
  5
    3D
  8
0
  6
CONTINUOUS
 62
     7
  2
*UDIM107
 70
    65
 10
0.0
 20
0.0
 30
0.0
  3
*UDIM107
  0
TEXT
  5
    3E
  8
0
  6
CONTINUOUS
 62
     7
 10
-443.298075679497
 20
37.6824351803824
 30
0.0
 40
3.00000002980232
  1
161
 50
89.9999999480344
 41
0.933333333333333
 72
     1
 11
-444.798075690866
 21
41.582435220484
 31
0.0
 73
     2
  0
LINE
  5
    3F
  8
0
  6
CONTINUOUS
 62
     7
 10
-433.973026585416
 20
1.6090106964152
 30
0.0
 11
-444.298075675964
 21
1.6090106964152
 31
0.0
  0
LINE
  5
    40
  8
0
  6
CONTINUOUS
 62
     7
 10
-430.098026585416
 20
82.1058597564738
 30
0.0
 11
-444.298075675964
 21
82.1058597564738
 31
0.0
  0
LINE
  5
    41
  8
0
  6
CONTINUOUS
 62
     7
 10
-442.298075675964
 20
1.6090106964152
 30
0.0
 11
-442.298075675964
 21
82.1058597564738
 31
0.0
  0
LINE
  5
    42
  8
0
  6
CONTINUOUS
 62
     7
 10
-442.819020105916
 20
4.56343397362216
 30
0.0
 11
-442.298075675964
 21
1.6090106964152
 31
0.0
  0
LINE
  5
    43
  8
0
  6
CONTINUOUS
 62
     7
 10
-442.298075675964
 20
1.6090106964152
 30
0.0
 11
-441.777131246013
 21
4.56343397362216
 31
0.0
  0
LINE
  5
    44
  8
0
  6
CONTINUOUS
 62
     7
 10
-441.777131246013
 20
79.1514364792668
 30
0.0
 11
-442.298075675964
 21
82.1058597564738
 31
0.0
  0
LINE
  5
    45
  8
0
  6
CONTINUOUS
 62
     7
 10
-442.298075675964
 20
82.1058597564738
 30
0.0
 11
-442.819020105916
 21
79.1514364792668
 31
0.0
  0
ENDBLK
  5
    46
  8
0
  6
CONTINUOUS
 62
     7
  0
BLOCK
  5
    47
  8
0
  6
CONTINUOUS
 62
     7
  2
*UDIM108
 70
    65
 10
0.0
 20
0.0
 30
0.0
  3
*UDIM108
  0
TEXT
  5
    48
  8
0
  6
CONTINUOUS
 62
     7
 10
-373.123022475042
 20
110.059686663021
 30
0.0
 40
3.00000002980232
  1
96
 50
359.999999948034
 41
0.933333333333333
 72
     1
 11
-370.623022448854
 21
111.559686675668
 31
0.0
 73
     2
  0
LINE
  5
    49
  8
0
  6
CONTINUOUS
 62
     7
 10
-346.348024678068
 20
82.4808597564738
 30
0.0
 11
-346.348024678068
 21
111.059686660767
 31
0.0
  0
LINE
  5
    4A
  8
0
  6
CONTINUOUS
 62
     7
 10
-394.348025631742
 20
95.3364788960624
 30
0.0
 11
-394.348025631742
 21
111.059686660767
 31
0.0
  0
LINE
  5
    4B
  8
0
  6
CONTINUOUS
 62
     7
 10
-346.348024678068
 20
109.059686660767
 30
0.0
 11
-394.348025631742
 21
109.059686660767
 31
0.0
  0
LINE
  5
    4C
  8
0
  6
CONTINUOUS
 62
     7
 10
-349.302447955274
 20
108.538742230815
 30
0.0
 11
-346.348024678068
 21
109.059686660767
 31
0.0
  0
LINE
  5
    4D
  8
0
  6
CONTINUOUS
 62
     7
 10
-346.348024678068
 20
109.059686660767
 30
0.0
 11
-349.302447955274
 21
109.580631090718
 31
0.0
  0
LINE
  5
    4E
  8
0
  6
CONTINUOUS
 62
     7
 10
-391.393602354535
 20
109.580631090718
 30
0.0
 11
-394.348025631742
 21
109.059686660767
 31
0.0
  0
LINE
  5
    4F
  8
0
  6
CONTINUOUS
 62
     7
 10
-394.348025631742
 20
109.059686660767
 30
0.0
 11
-391.393602354535
 21
108.538742230815
 31
0.0
  0
ENDBLK
  5
    50
  8
0
  6
CONTINUOUS
 62
     7
  0
BLOCK
  5
    51
  8
0
  6
CONTINUOUS
 62
     7
  2
*UDIM109
 70
    65
 10
0.0
 20
0.0
 30
0.0
  3
*UDIM109
  0
TEXT
  5
    52
  8
0
  6
CONTINUOUS
 62
     7
 10
-419.548022502858
 20
110.059686665547
 30
0.0
 40
3.00000002980232
  1
78,5
 50
359.999999948034
 41
0.933333333333333
 72
     1
 11
-414.248022448854
 21
111.559686675668
 31
0.0
 73
     2
  0
LINE
  5
    53
  8
0
  6
CONTINUOUS
 62
     7
 10
-433.598026585416
 20
82.4808597564738
 30
0.0
 11
-433.598026585416
 21
111.059686660767
 31
0.0
  0
LINE
  5
    54
  8
0
  6
CONTINUOUS
 62
     7
 10
-394.348025631742
 20
109.059686660767
 30
0.0
 11
-433.598026585416
 21
109.059686660767
 31
0.0
  0
LINE
  5
    55
  8
0
  6
CONTINUOUS
 62
     7
 10
-397.302448908949
 20
108.538742230815
 30
0.0
 11
-394.348025631742
 21
109.059686660767
 31
0.0
  0
LINE
  5
    56
  8
0
  6
CONTINUOUS
 62
     7
 10
-394.348025631742
 20
109.059686660767
 30
0.0
 11
-397.302448908949
 21
109.580631090718
 31
0.0
  0
LINE
  5
    57
  8
0
  6
CONTINUOUS
 62
     7
 10
-430.643603308209
 20
109.580631090718
 30
0.0
 11
-433.598026585416
 21
109.059686660767
 31
0.0
  0
LINE
  5
    58
  8
0
  6
CONTINUOUS
 62
     7
 10
-433.598026585416
 20
109.059686660767
 30
0.0
 11
-430.643603308209
 21
108.538742230815
 31
0.0
  0
ENDBLK
  5
    59
  8
0
  6
CONTINUOUS
 62
     7
  0
BLOCK
  5
    5A
  8
0
  6
CONTINUOUS
 62
     7
  2
*UDIM110
 70
    65
 10
0.0
 20
0.0
 30
0.0
  3
*UDIM110
  0
TEXT
  5
    5B
  8
0
  6
CONTINUOUS
 62
     7
 10
-450.312907701839
 20
57.321495363749
 30
0.0
 40
3.00000002980232
  1
89,75
 50
89.9999999480344
 41
0.933333333333333
 72
     1
 11
-451.812907710671
 21
64.0214954316661
 31
0.0
 73
     2
  0
LINE
  5
    5C
  8
0
  6
CONTINUOUS
 62
     7
 10
-438.47303425942
 20
86.7339801788379
 30
0.0
 11
-451.31290769577
 21
86.7339801788379
 31
0.0
  0
LINE
  5
    5D
  8
0
  6
CONTINUOUS
 62
     7
 10
-449.31290769577
 20
41.8590106964152
 30
0.0
 11
-449.31290769577
 21
86.7339801788379
 31
0.0
  0
LINE
  5
    5E
  8
0
  6
CONTINUOUS
 62
     7
 10
-449.833852125722
 20
44.8134339736222
 30
0.0
 11
-449.31290769577
 21
41.8590106964152
 31
0.0
  0
LINE
  5
    5F
  8
0
  6
CONTINUOUS
 62
     7
 10
-449.31290769577
 20
41.8590106964152
 30
0.0
 11
-448.791963265819
 21
44.8134339736222
 31
0.0
  0
LINE
  5
    60
  8
0
  6
CONTINUOUS
 62
     7
 10
-448.791963265819
 20
83.779556901631
 30
0.0
 11
-449.31290769577
 21
86.7339801788379
 31
0.0
  0
LINE
  5
    61
  8
0
  6
CONTINUOUS
 62
     7
 10
-449.31290769577
 20
86.7339801788379
 30
0.0
 11
-449.833852125722
 21
83.779556901631
 31
0.0
  0
ENDBLK
  5
    62
  8
0
  6
CONTINUOUS
 62
     7
  0
BLOCK
  5
    63
  8
0
  6
CONTINUOUS
 62
     7
  2
*UDIM111
 70
    65
 10
0.0
 20
0.0
 30
0.0
  3
*UDIM111
  0
TEXT
  5
    64
  8
0
  6
CONTINUOUS
 62
     7
 10
-398.523037764165
 20
94.6135654484639
 30
0.0
 40
3.00000002980232
  1
105
 50
359.999999948034
 41
0.933333333333333
 72
     1
 11
-394.623037724069
 21
96.1135654598475
 31
0.0
 73
     2
  0
LINE
  5
    65
  8
0
  6
CONTINUOUS
 62
     7
 10
-368.09803425942
 20
2.6090106964152
 30
0.0
 11
-368.09803425942
 21
95.6135654449463
 31
0.0
  0
LINE
  5
    66
  8
0
  6
CONTINUOUS
 62
     7
 10
-420.598035812378
 20
63.1089820861817
 30
0.0
 11
-420.598035812378
 21
95.6135654449463
 31
0.0
  0
LINE
  5
    67
  8
0
  6
CONTINUOUS
 62
     7
 10
-368.09803425942
 20
93.6135654449463
 30
0.0
 11
-420.598035812378
 21
93.6135654449463
 31
0.0
  0
LINE
  5
    68
  8
0
  6
CONTINUOUS
 62
     7
 10
-371.052457536627
 20
93.0926210149946
 30
0.0
 11
-368.09803425942
 21
93.6135654449463
 31
0.0
  0
LINE
  5
    69
  8
0
  6
CONTINUOUS
 62
     7
 10
-368.09803425942
 20
93.6135654449463
 30
0.0
 11
-371.052457536627
 21
94.134509874898
 31
0.0
  0
LINE
  5
    6A
  8
0
  6
CONTINUOUS
 62
     7
 10
-417.643612535171
 20
94.134509874898
 30
0.0
 11
-420.598035812378
 21
93.6135654449463
 31
0.0
  0
LINE
  5
    6B
  8
0
  6
CONTINUOUS
 62
     7
 10
-420.598035812378
 20
93.6135654449463
 30
0.0
 11
-417.643612535171
 21
93.0926210149946
 31
0.0
  0
ENDBLK
  5
    6C
  8
0
  6
CONTINUOUS
 62
     7
  0
BLOCK
  5
    6D
  8
0
  6
CONTINUOUS
 62
     7
  2
*UDIM112
 70
    65
 10
0.0
 20
0.0
 30
0.0
  3
*UDIM112
  0
TEXT
  5
    6E
  8
0
  6
CONTINUOUS
 62
     7
 10
-376.123014869571
 20
-11.4030607320171
 30
0.0
 40
3.00000002980232
  1
84
 50
359.999999948034
 41
0.933333333333333
 72
     1
 11
-373.623014843383
 21
-9.90306071937084
 31
0.0
 73
     2
  0
LINE
  5
    6F
  8
0
  6
CONTINUOUS
 62
     7
 10
-352.348007202148
 20
34.9839572906494
 30
0.0
 11
-352.348007202148
 21
-14.403060734272
 31
0.0
  0
LINE
  5
    70
  8
0
  6
CONTINUOUS
 62
     7
 10
-352.348007202148
 20
-12.403060734272
 30
0.0
 11
-394.348025631742
 21
-12.403060734272
 31
0.0
  0
LINE
  5
    71
  8
0
  6
CONTINUOUS
 62
     7
 10
-355.302430479355
 20
-12.9240051642237
 30
0.0
 11
-352.348007202148
 21
-12.403060734272
 31
0.0
  0
LINE
  5
    72
  8
0
  6
CONTINUOUS
 62
     7
 10
-352.348007202148
 20
-12.403060734272
 30
0.0
 11
-355.302430479355
 21
-11.8821163043203
 31
0.0
  0
LINE
  5
    73
  8
0
  6
CONTINUOUS
 62
     7
 10
-391.393602354535
 20
-11.8821163043203
 30
0.0
 11
-394.348025631742
 21
-12.403060734272
 31
0.0
  0
LINE
  5
    74
  8
0
  6
CONTINUOUS
 62
     7
 10
-394.348025631742
 20
-12.403060734272
 30
0.0
 11
-391.393602354535
 21
-12.9240051642237
 31
0.0
  0
ENDBLK
  5
    75
  8
0
  6
CONTINUOUS
 62
     7
  0
BLOCK
  5
    76
  8
0
  6
CONTINUOUS
 62
     7
  2
*UDIM113
 70
    65
 10
0.0
 20
0.0
 30
0.0
  3
*UDIM113
  0
TEXT
  5
    77
  8
0
  6
CONTINUOUS
 62
     7
 10
-386.798030134073
 20
-5.75759648798702
 30
0.0
 40
3.00000002980232
  1
52,5
 50
359.999999948034
 41
0.933333333333333
 72
     1
 11
-381.498030080069
 21
-4.25759647786617
 31
0.0
 73
     2
  0
LINE
  5
    78
  8
0
  6
CONTINUOUS
 62
     7
 10
-368.098034656365
 20
-1.14101982117183
 30
0.0
 11
-368.098037679726
 21
-8.75759649276718
 31
0.0
  0
LINE
  5
    79
  8
0
  6
CONTINUOUS
 62
     7
 10
-368.098036885836
 20
-6.75759649276733
 30
0.0
 11
-394.348020997404
 21
-6.75759649276733
 31
0.0
  0
LINE
  5
    7A
  8
0
  6
CONTINUOUS
 62
     7
 10
-371.052460163043
 20
-7.278540922719
 30
0.0
 11
-368.098036885836
 21
-6.75759649276733
 31
0.0
  0
LINE
  5
    7B
  8
0
  6
CONTINUOUS
 62
     7
 10
-368.098036885836
 20
-6.75759649276733
 30
0.0
 11
-371.052460163043
 21
-6.23665206281567
 31
0.0
  0
LINE
  5
    7C
  8
0
  6
CONTINUOUS
 62
     7
 10
-391.393597720198
 20
-6.23665206281567
 30
0.0
 11
-394.348020997404
 21
-6.75759649276733
 31
0.0
  0
LINE
  5
    7D
  8
0
  6
CONTINUOUS
 62
     7
 10
-394.348020997404
 20
-6.75759649276733
 30
0.0
 11
-391.393597720198
 21
-7.278540922719
 31
0.0
  0
ENDBLK
  5
    7E
  8
0
  6
CONTINUOUS
 62
     7
  0
BLOCK
  5
    7F
  8
0
  6
CONTINUOUS
 62
     7
  2
*UDIM114
 70
    65
 10
0.0
 20
0.0
 30
0.0
  3
*UDIM114
  0
TEXT
  5
    80
  8
0
  6
CONTINUOUS
 62
     7
 10
-407.273037752862
 20
102.572702411355
 30
0.0
 40
3.00000002980232
  1
140
 50
359.999999948034
 41
0.933333333333333
 72
     1
 11
-403.373037712766
 21
104.072702422738
 31
0.0
 73
     2
  0
LINE
  5
    81
  8
0
  6
CONTINUOUS
 62
     7
 10
-368.098033945518
 20
87.1089801788379
 30
0.0
 11
-368.098028777284
 21
103.572702407837
 31
0.0
  0
LINE
  5
    82
  8
0
  6
CONTINUOUS
 62
     7
 10
-438.098033673989
 20
87.1089801788378
 30
0.0
 11
-438.09802403561
 21
103.572702407837
 31
0.0
  0
LINE
  5
    83
  8
0
  6
CONTINUOUS
 62
     7
 10
-368.098029405117
 20
101.572702407837
 30
0.0
 11
-438.098025206472
 21
101.572702407837
 31
0.0
  0
LINE
  5
    84
  8
0
  6
CONTINUOUS
 62
     7
 10
-371.052452682324
 20
101.051757977885
 30
0.0
 11
-368.098029405117
 21
101.572702407837
 31
0.0
  0
LINE
  5
    85
  8
0
  6
CONTINUOUS
 62
     7
 10
-368.098029405117
 20
101.572702407837
 30
0.0
 11
-371.052452682324
 21
102.093646837789
 31
0.0
  0
LINE
  5
    86
  8
0
  6
CONTINUOUS
 62
     7
 10
-435.143601929266
 20
102.093646837789
 30
0.0
 11
-438.098025206472
 21
101.572702407837
 31
0.0
  0
LINE
  5
    87
  8
0
  6
CONTINUOUS
 62
     7
 10
-438.098025206472
 20
101.572702407837
 30
0.0
 11
-435.143601929266
 21
101.051757977885
 31
0.0
  0
ENDBLK
  5
    88
  8
0
  6
CONTINUOUS
 62
     7
  0
BLOCK
  5
    89
  8
0
  6
CONTINUOUS
 62
     7
  2
*UDIM115
 70
    65
 10
0.0
 20
0.0
 30
0.0
  3
*UDIM115
  0
TEXT
  5
    8A
  8
0
  6
CONTINUOUS
 62
     7
 10
-458.204594138817
 20
31.1447344378952
 30
0.0
 40
3.00000002980232
  1
175
 50
89.9999999480344
 41
0.933333333333333
 72
     1
 11
-459.704594150186
 21
35.0447344779968
 31
0.0
 73
     2
  0
LINE
  5
    8B
  8
0
  6
CONTINUOUS
 62
     7
 10
-438.47303425942
 20
-0.766019821171918
 30
0.0
 11
-459.204594135285
 21
-0.766019821171918
 31
0.0
  0
LINE
  5
    8C
  8
0
  6
CONTINUOUS
 62
     7
 10
-438.47303425942
 20
86.7339801788379
 30
0.0
 11
-459.204594135285
 21
86.7339801788379
 31
0.0
  0
LINE
  5
    8D
  8
0
  6
CONTINUOUS
 62
     7
 10
-457.204594135284
 20
-0.766019821171918
 30
0.0
 11
-457.204594135284
 21
86.7339801788379
 31
0.0
  0
LINE
  5
    8E
  8
0
  6
CONTINUOUS
 62
     7
 10
-457.725538565236
 20
2.18840345603505
 30
0.0
 11
-457.204594135284
 21
-0.766019821171918
 31
0.0
  0
LINE
  5
    8F
  8
0
  6
CONTINUOUS
 62
     7
 10
-457.204594135284
 20
-0.766019821171918
 30
0.0
 11
-456.683649705333
 21
2.18840345603505
 31
0.0
  0
LINE
  5
    90
  8
0
  6
CONTINUOUS
 62
     7
 10
-456.683649705333
 20
83.779556901631
 30
0.0
 11
-457.204594135284
 21
86.7339801788379
 31
0.0
  0
LINE
  5
    91
  8
0
  6
CONTINUOUS
 62
     7
 10
-457.204594135284
 20
86.7339801788379
 30
0.0
 11
-457.725538565236
 21
83.779556901631
 31
0.0
  0
ENDBLK
  5
    92
  8
0
  6
CONTINUOUS
 62
     7
  0
BLOCK
  5
    93
  8
0
  6
CONTINUOUS
 62
     7
  2
*HATCH17
 70
    65
 10
0.0
 20
0.0
 30
0.0
  3
*HATCH17
  0
LINE
  5
    94
  8
0
  6
CONTINUOUS
 62
    52
 10
175.264511108398
 20
39.4999961853027
 30
0.0
 11
173.264511108398
 21
37.4999961853027
 31
0.0
  0
ENDBLK
  5
    95
  8
0
  6
CONTINUOUS
 62
     7
  0
BLOCK
  5
    96
  8
0
  6
CONTINUOUS
 62
     7
  2
*HATCH18
 70
    65
 10
0.0
 20
0.0
 30
0.0
  3
*HATCH18
  0
LINE
  5
    97
  8
0
  6
CONTINUOUS
 62
    52
 10
187.992431640625
 20
39.4999961853027
 30
0.0
 11
185.992431640625
 21
37.4999961853027
 31
0.0
  0
LINE
  5
    98
  8
0
  6
CONTINUOUS
 62
    52
 10
192.235076904297
 20
39.4999961853027
 30
0.0
 11
190.235076904297
 21
37.4999961853027
 31
0.0
  0
LINE
  5
    99
  8
0
  6
CONTINUOUS
 62
    52
 10
196.477722167969
 20
39.4999961853027
 30
0.0
 11
194.477722167969
 21
37.4999961853027
 31
0.0
  0
LINE
  5
    9A
  8
0
  6
CONTINUOUS
 62
    52
 10
200.720367431641
 20
39.4999961853027
 30
0.0
 11
198.720367431641
 21
37.4999961853027
 31
0.0
  0
LINE
  5
    9B
  8
0
  6
CONTINUOUS
 62
    52
 10
204.963012695313
 20
39.4999961853027
 30
0.0
 11
202.963012695313
 21
37.4999961853027
 31
0.0
  0
LINE
  5
    9C
  8
0
  6
CONTINUOUS
 62
    52
 10
209.205657958984
 20
39.4999961853027
 30
0.0
 11
207.205657958984
 21
37.4999961853027
 31
0.0
  0
LINE
  5
    9D
  8
0
  6
CONTINUOUS
 62
    52
 10
213.448303222656
 20
39.4999961853027
 30
0.0
 11
211.448303222656
 21
37.4999961853027
 31
0.0
  0
LINE
  5
    9E
  8
0
  6
CONTINUOUS
 62
    52
 10
217.690948486328
 20
39.4999961853027
 30
0.0
 11
215.690948486328
 21
37.4999961853027
 31
0.0
  0
LINE
  5
    9F
  8
0
  6
CONTINUOUS
 62
    52
 10
221.93359375
 20
39.4999961853027
 30
0.0
 11
219.93359375
 21
37.4999961853027
 31
0.0
  0
LINE
  5
    A0
  8
0
  6
CONTINUOUS
 62
    52
 10
226.176239013672
 20
39.4999961853027
 30
0.0
 11
224.176239013672
 21
37.4999961853027
 31
0.0
  0
LINE
  5
    A1
  8
0
  6
CONTINUOUS
 62
    52
 10
230.418884277344
 20
39.4999961853027
 30
0.0
 11
228.418884277344
 21
37.4999961853027
 31
0.0
  0
LINE
  5
    A2
  8
0
  6
CONTINUOUS
 62
    52
 10
234.661529541016
 20
39.4999961853027
 30
0.0
 11
232.661529541016
 21
37.4999961853027
 31
0.0
  0
LINE
  5
    A3
  8
0
  6
CONTINUOUS
 62
    52
 10
238.904174804688
 20
39.4999961853027
 30
0.0
 11
236.904174804688
 21
37.4999961853027
 31
0.0
  0
LINE
  5
    A4
  8
0
  6
CONTINUOUS
 62
    52
 10
243.146820068359
 20
39.4999961853027
 30
0.0
 11
241.146820068359
 21
37.4999961853027
 31
0.0
  0
ENDBLK
  5
    A5
  8
0
  6
CONTINUOUS
 62
     7
  0
BLOCK
  5
    A6
  8
0
  6
CONTINUOUS
 62
     7
  2
*HATCH19
 70
    65
 10
0.0
 20
0.0
 30
0.0
  3
*HATCH19
  0
LINE
  5
    A7
  8
0
  6
CONTINUOUS
 62
    52
 10
45.8639602661133
 20
39.4999961853027
 30
0.0
 11
43.8639602661133
 21
37.4999961853027
 31
0.0
  0
ENDBLK
  5
    A8
  8
0
  6
CONTINUOUS
 62
     7
  0
BLOCK
  5
    A9
  8
0
  6
CONTINUOUS
 62
     7
  2
*HATCH20
 70
    65
 10
0.0
 20
0.0
 30
0.0
  3
*HATCH20
  0
LINE
  5
    AA
  8
0
  6
CONTINUOUS
 62
    52
 10
-17.7756519317627
 20
39.4999961853027
 30
0.0
 11
-19.7756519317627
 21
37.4999961853027
 31
0.0
  0
LINE
  5
    AB
  8
0
  6
CONTINUOUS
 62
    52
 10
-13.5330104827881
 20
39.4999961853027
 30
0.0
 11
-15.5330104827881
 21
37.4999961853027
 31
0.0
  0
LINE
  5
    AC
  8
0
  6
CONTINUOUS
 62
    52
 10
-9.29036903381348
 20
39.4999961853027
 30
0.0
 11
-11.2903690338135
 21
37.4999961853027
 31
0.0
  0
LINE
  5
    AD
  8
0
  6
CONTINUOUS
 62
    52
 10
-5.04772853851318
 20
39.4999961853027
 30
0.0
 11
-7.04772758483887
 21
37.4999961853027
 31
0.0
  0
LINE
  5
    AE
  8
0
  6
CONTINUOUS
 62
    52
 10
-0.805088043212891
 20
39.4999961853027
 30
0.0
 11
-2.80508637428284
 21
37.4999961853027
 31
0.0
  0
LINE
  5
    AF
  8
0
  6
CONTINUOUS
 62
    52
 10
3.4375524520874
 20
39.4999961853027
 30
0.0
 11
1.43755459785461
 21
37.4999961853027
 31
0.0
  0
LINE
  5
    B0
  8
0
  6
CONTINUOUS
 62
    52
 10
7.6801929473877
 20
39.4999961853027
 30
0.0
 11
5.68019580841064
 21
37.4999961853027
 31
0.0
  0
LINE
  5
    B1
  8
0
  6
CONTINUOUS
 62
    52
 10
11.9228343963623
 20
39.4999961853027
 30
0.0
 11
9.92283725738525
 21
37.4999961853027
 31
0.0
  0
LINE
  5
    B2
  8
0
  6
CONTINUOUS
 62
    52
 10
16.1654758453369
 20
39.4999961853027
 30
0.0
 11
14.1654787063599
 21
37.4999961853027
 31
0.0
  0
LINE
  5
    B3
  8
0
  6
CONTINUOUS
 62
    52
 10
20.4081172943115
 20
39.4999961853027
 30
0.0
 11
18.4081192016602
 21
37.4999961853027
 31
0.0
  0
LINE
  5
    B4
  8
0
  6
CONTINUOUS
 62
    52
 10
24.6507587432861
 20
39.4999961853027
 30
0.0
 11
22.6507606506348
 21
37.4999961853027
 31
0.0
  0
LINE
  5
    B5
  8
0
  6
CONTINUOUS
 62
    52
 10
28.8934001922607
 20
39.4999961853027
 30
0.0
 11
26.8934020996094
 21
37.4999961853027
 31
0.0
  0
LINE
  5
    B6
  8
0
  6
CONTINUOUS
 62
    52
 10
33.1360397338867
 20
39.4999961853027
 30
0.0
 11
31.136043548584
 21
37.4999961853027
 31
0.0
  0
LINE
  5
    B7
  8
0
  6
CONTINUOUS
 62
    52
 10
35.4869270324707
 20
37.6082458496094
 30
0.0
 11
35.3786773681641
 21
37.4999961853027
 31
0.0
  0
ENDBLK
  5
    B8
  8
0
  6
CONTINUOUS
 62
     7
  0
BLOCK
  5
    B9
  8
0
  6
CONTINUOUS
 62
     7
  2
*HATCH21
 70
    65
 10
0.0
 20
0.0
 30
0.0
  3
*HATCH21
  0
LINE
  5
    BA
  8
0
  6
CONTINUOUS
 62
    52
 10
166.264511108398
 20
30.5000038146973
 30
0.0
 11
163.987106323242
 21
28.2225971221924
 31
0.0
  0
LINE
  5
    BB
  8
0
  6
CONTINUOUS
 62
    52
 10
170.50715637207
 20
30.5000038146973
 30
0.0
 11
168.00715637207
 21
27.9999980926514
 31
0.0
  0
LINE
  5
    BC
  8
0
  6
CONTINUOUS
 62
    52
 10
172.987106323242
 20
28.7373161315918
 30
0.0
 11
172.249786376953
 21
27.9999980926514
 31
0.0
  0
ENDBLK
  5
    BD
  8
0
  6
CONTINUOUS
 62
     7
  0
BLOCK
  5
    BE
  8
0
  6
CONTINUOUS
 62
     7
  2
*UDIM116
 70
    65
 10
0.0
 20
0.0
 30
0.0
  3
*UDIM116
  0
TEXT
  5
    BF
  8
0
  6
CONTINUOUS
 62
     7
 10
-586.999451999032
 20
33.0078254524542
 30
0.0
 40
3.00000002980232
  1
5,5
 50
309.359790756258
 41
0.933333333333333
 72
     1
 11
-583.366350268903
 21
30.943710105525
 31
0.0
 73
     2
  0
TEXT
  5
    C0
  8
0
  6
CONTINUOUS
 62
     7
 10
-588.997144414634
 20
35.4433387608211
 30
0.0
 40
3.00000002980232
  1
Ø
 50
309.359790756258
 41
0.933333333333334
 72
     1
 11
-587.139769284499
 21
35.5441241501469
 31
0.0
 73
     2
  0
LINE
  5
    C1
  8
0
  6
CONTINUOUS
 62
     7
 10
-582.825963864446
 20
26.3428424796766
 30
0.0
 11
-595.707122863546
 21
42.0470790157021
 31
0.0
  0
LINE
  5
    C2
  8
0
  6
CONTINUOUS
 62
     7
 10
-591.686661740359
 20
37.9669155418206
 30
0.0
 11
-593.963104926984
 21
39.9208363227301
 31
0.0
  0
LINE
  5
    C3
  8
0
  6
CONTINUOUS
 62
     7
 10
-593.963104926984
 20
39.9208363227301
 30
0.0
 11
-592.49222814601
 21
37.3061620609543
 31
0.0
  0
LINE
  5
    C4
  8
0
  6
CONTINUOUS
 62
     7
 10
-597.983566050171
 20
44.0009997966117
 30
0.0
 11
-595.707122863546
 21
42.0470790157021
 31
0.0
  0
LINE
  5
    C5
  8
0
  6
CONTINUOUS
 62
     7
 10
-595.707122863546
 20
42.0470790157021
 30
0.0
 11
-597.17799964452
 21
44.661753277478
 31
0.0
  0
ENDBLK
  5
    C6
  8
0
  6
CONTINUOUS
 62
     7
  0
BLOCK
  5
    C7
  8
0
  6
CONTINUOUS
 62
     7
  2
*UDIM117
 70
    65
 10
0.0
 20
0.0
 30
0.0
  3
*UDIM117
  0
TEXT
  5
    C8
  8
0
  6
CONTINUOUS
 62
     7
 10
-634.862509590747
 20
113.292520527852
 30
0.0
 40
3.00000002980232
  1
27,5
 50
359.999999948034
 41
0.933333333333333
 72
     1
 11
-629.562509536743
 21
114.792520537972
 31
0.0
 73
     2
  0
TEXT
  5
    C9
  8
0
  6
CONTINUOUS
 62
     7
 10
-623.712509473524
 20
113.292520558157
 30
0.0
 40
3.00000002980232
  1
       CORSA DI SEZIONAMENTO
 50
359.999999948034
 41
0.933333333333333
 72
     1
 11
-584.812509085735
 21
114.792520537972
 31
0.0
 73
     2
  0
LINE
  5
    CA
  8
0
  6
CONTINUOUS
 62
     7
 10
-609.085081100464
 20
83.1089191436768
 30
0.0
 11
-609.085081100464
 21
114.292520523071
 31
0.0
  0
LINE
  5
    CB
  8
0
  6
CONTINUOUS
 62
     7
 10
-622.835081100464
 20
69.1090106964111
 30
0.0
 11
-622.835081100464
 21
114.292520523071
 31
0.0
  0
LINE
  5
    CC
  8
0
  6
CONTINUOUS
 62
     7
 10
-545.912508699298
 20
112.292520523071
 30
0.0
 11
-634.862509589394
 21
112.292520523071
 31
0.0
  0
LINE
  5
    CD
  8
0
  6
CONTINUOUS
 62
     7
 10
-606.130657823257
 20
112.813464953023
 30
0.0
 11
-609.085081100464
 21
112.292520523071
 31
0.0
  0
LINE
  5
    CE
  8
0
  6
CONTINUOUS
 62
     7
 10
-609.085081100464
 20
112.292520523071
 30
0.0
 11
-606.130657823257
 21
111.77157609312
 31
0.0
  0
LINE
  5
    CF
  8
0
  6
CONTINUOUS
 62
     7
 10
-625.789504377671
 20
111.77157609312
 30
0.0
 11
-622.835081100464
 21
112.292520523071
 31
0.0
  0
LINE
  5
    D0
  8
0
  6
CONTINUOUS
 62
     7
 10
-622.835081100464
 20
112.292520523071
 30
0.0
 11
-625.789504377671
 21
112.813464953023
 31
0.0
  0
ENDBLK
  5
    D1
  8
0
  6
CONTINUOUS
 62
     7
  0
BLOCK
  5
    D2
  8
0
  6
CONTINUOUS
 62
     7
  2
*UDIM118
 70
    65
 10
0.0
 20
0.0
 30
0.0
  3
*UDIM118
  0
TEXT
  5
    D3
  8
0
  6
CONTINUOUS
 62
     7
 10
-469.53624725695
 20
38.8090106503491
 30
0.0
 40
3.00000002980232
  1
143
 50
89.9999999480344
 41
0.933333333333333
 72
     1
 11
-471.036247268319
 21
42.7090106904507
 31
0.0
 73
     2
  0
LINE
  5
    D4
  8
0
  6
CONTINUOUS
 62
     7
 10
-468.536247253418
 20
7.23401069641113
 30
0.0
 11
-468.536247253418
 21
78.7340106964111
 31
0.0
  0
LINE
  5
    D5
  8
0
  6
CONTINUOUS
 62
     7
 10
-469.05719168337
 20
10.1884339736181
 30
0.0
 11
-468.536247253418
 21
7.23401069641113
 31
0.0
  0
LINE
  5
    D6
  8
0
  6
CONTINUOUS
 62
     7
 10
-468.536247253418
 20
7.23401069641113
 30
0.0
 11
-468.015302823466
 21
10.1884339736181
 31
0.0
  0
LINE
  5
    D7
  8
0
  6
CONTINUOUS
 62
     7
 10
-468.015302823466
 20
75.7795874192042
 30
0.0
 11
-468.536247253418
 21
78.7340106964111
 31
0.0
  0
LINE
  5
    D8
  8
0
  6
CONTINUOUS
 62
     7
 10
-468.536247253418
 20
78.7340106964111
 30
0.0
 11
-469.05719168337
 21
75.7795874192042
 31
0.0
  0
ENDBLK
  5
    D9
  8
0
  6
CONTINUOUS
 62
     7
  0
BLOCK
  5
    DA
  8
0
  6
CONTINUOUS
 62
     7
  2
*UDIM119
 70
    65
 10
0.0
 20
0.0
 30
0.0
  3
*UDIM119
  0
TEXT
  5
    DB
  8
0
  6
CONTINUOUS
 62
     7
 10
-485.607841497768
 20
53.3215106225336
 30
0.0
 40
3.00000002980232
  1
73,75
 50
89.9999999480344
 41
0.933333333333333
 72
     1
 11
-487.1078415066
 21
60.0215106904507
 31
0.0
 73
     2
  0
LINE
  5
    DC
  8
0
  6
CONTINUOUS
 62
     7
 10
-484.607841491699
 20
41.8590106964111
 30
0.0
 11
-484.607841491699
 21
78.7340106964111
 31
0.0
  0
LINE
  5
    DD
  8
0
  6
CONTINUOUS
 62
     7
 10
-485.128785921651
 20
44.8134339736181
 30
0.0
 11
-484.607841491699
 21
41.8590106964111
 31
0.0
  0
LINE
  5
    DE
  8
0
  6
CONTINUOUS
 62
     7
 10
-484.607841491699
 20
41.8590106964111
 30
0.0
 11
-484.086897061748
 21
44.8134339736181
 31
0.0
  0
LINE
  5
    DF
  8
0
  6
CONTINUOUS
 62
     7
 10
-484.086897061748
 20
75.7795874192042
 30
0.0
 11
-484.607841491699
 21
78.7340106964111
 31
0.0
  0
LINE
  5
    E0
  8
0
  6
CONTINUOUS
 62
     7
 10
-484.607841491699
 20
78.7340106964111
 30
0.0
 11
-485.128785921651
 21
75.7795874192042
 31
0.0
  0
ENDBLK
  5
    E1
  8
0
  6
CONTINUOUS
 62
     7
  0
BLOCK
  5
    E2
  8
0
  6
CONTINUOUS
 62
     7
  2
*UDIM120
 70
    65
 10
0.0
 20
0.0
 30
0.0
  3
*UDIM120
  0
TEXT
  5
    E3
  8
0
  6
CONTINUOUS
 62
     7
 10
-500.302199948194
 20
-23.2612638463589
 30
0.0
 40
3.00000002980232
  1
3
 50
359.999999948034
 41
0.933333333333334
 72
     1
 11
-499.202199935913
 21
-21.7612638324499
 31
0.0
 73
     2
  0
TEXT
  5
    E4
  8
0
  6
CONTINUOUS
 62
     7
 10
-503.052199981969
 20
-23.2612638463589
 30
0.0
 40
3.00000002980232
  1
_
 50
359.999999948034
 41
0.933333333333334
 72
     1
 11
-501.952199969689
 21
-21.7612638324499
 31
0.0
 73
     2
  0
LINE
  5
    E5
  8
0
  6
CONTINUOUS
 62
     7
 10
-509.835090637207
 20
-18.5091613047294
 30
0.0
 11
-509.835090637207
 21
-26.2612638473511
 31
0.0
  0
LINE
  5
    E6
  8
0
  6
CONTINUOUS
 62
     7
 10
-511.335090637207
 20
-17.9825016845383
 30
0.0
 11
-511.335090637207
 21
-26.2612638473511
 31
0.0
  0
LINE
  5
    E7
  8
0
  6
CONTINUOUS
 62
     7
 10
-498.102199924986
 20
-24.2612638473511
 30
0.0
 11
-511.335090637207
 21
-24.2612638473511
 31
0.0
  0
LINE
  5
    E8
  8
0
  6
CONTINUOUS
 62
     7
 10
-506.88066736
 20
-23.7403194173994
 30
0.0
 11
-509.835090637207
 21
-24.2612638473511
 31
0.0
  0
LINE
  5
    E9
  8
0
  6
CONTINUOUS
 62
     7
 10
-509.835090637207
 20
-24.2612638473511
 30
0.0
 11
-506.88066736
 21
-24.7822082773027
 31
0.0
  0
LINE
  5
    EA
  8
0
  6
CONTINUOUS
 62
     7
 10
-514.289513914414
 20
-24.7822082773027
 30
0.0
 11
-511.335090637207
 21
-24.2612638473511
 31
0.0
  0
LINE
  5
    EB
  8
0
  6
CONTINUOUS
 62
     7
 10
-511.335090637207
 20
-24.2612638473511
 30
0.0
 11
-514.289513914414
 21
-23.7403194173994
 31
0.0
  0
ENDBLK
  5
    EC
  8
0
  6
CONTINUOUS
 62
     7
  0
BLOCK
  5
    ED
  8
0
  6
CONTINUOUS
 62
     7
  2
*UDIM121
 70
    65
 10
0.0
 20
0.0
 30
0.0
  3
*UDIM121
  0
TEXT
  5
    EE
  8
0
  6
CONTINUOUS
 62
     7
 10
-557.260102129022
 20
-23.2612638438335
 30
0.0
 40
3.00000002980232
  1
167
 50
359.999999948034
 41
0.933333333333333
 72
     1
 11
-553.360102088926
 21
-21.7612638324499
 31
0.0
 73
     2
  0
LINE
  5
    EF
  8
0
  6
CONTINUOUS
 62
     7
 10
-594.835115793701
 20
33.4839560105154
 30
0.0
 11
-594.835115793701
 21
-26.2612638473511
 31
0.0
  0
LINE
  5
    F0
  8
0
  6
CONTINUOUS
 62
     7
 10
-511.335090637207
 20
-24.2612638473511
 30
0.0
 11
-594.835115793701
 21
-24.2612638473511
 31
0.0
  0
LINE
  5
    F1
  8
0
  6
CONTINUOUS
 62
     7
 10
-514.289513914414
 20
-24.7822082773027
 30
0.0
 11
-511.335090637207
 21
-24.2612638473511
 31
0.0
  0
LINE
  5
    F2
  8
0
  6
CONTINUOUS
 62
     7
 10
-511.335090637207
 20
-24.2612638473511
 30
0.0
 11
-514.289513914414
 21
-23.7403194173994
 31
0.0
  0
LINE
  5
    F3
  8
0
  6
CONTINUOUS
 62
     7
 10
-591.880692516494
 20
-23.7403194173994
 30
0.0
 11
-594.835115793701
 21
-24.2612638473511
 31
0.0
  0
LINE
  5
    F4
  8
0
  6
CONTINUOUS
 62
     7
 10
-594.835115793701
 20
-24.2612638473511
 30
0.0
 11
-591.880692516494
 21
-24.7822082773027
 31
0.0
  0
ENDBLK
  5
    F5
  8
0
  6
CONTINUOUS
 62
     7
  0
BLOCK
  5
    F6
  8
0
  6
CONTINUOUS
 62
     7
  2
*UDIM122
 70
    65
 10
0.0
 20
0.0
 30
0.0
  3
*UDIM122
  0
TEXT
  5
    F7
  8
0
  6
CONTINUOUS
 62
     7
 10
-570.968740468057
 20
26.9089569100783
 30
0.0
 40
3.00000002980232
  1
1,75
 50
89.9999999480344
 41
0.933333333333333
 72
     1
 11
-572.468740478158
 21
32.2089569640876
 31
0.0
 73
     2
  0
LINE
  5
    F8
  8
0
  6
CONTINUOUS
 62
     7
 10
-587.33511592963
 20
40.9839558745864
 30
0.0
 11
-567.968740463257
 21
40.9839558745864
 31
0.0
  0
LINE
  5
    F9
  8
0
  6
CONTINUOUS
 62
     7
 10
-569.968740463257
 20
26.9089569114369
 30
0.0
 11
-569.968740463257
 21
41.8590106964111
 31
0.0
  0
LINE
  5
    FA
  8
0
  6
CONTINUOUS
 62
     7
 10
-569.447796033305
 20
38.0295325973794
 30
0.0
 11
-569.968740463257
 21
40.9839558745864
 31
0.0
  0
LINE
  5
    FB
  8
0
  6
CONTINUOUS
 62
     7
 10
-569.968740463257
 20
40.9839558745864
 30
0.0
 11
-570.489684893209
 21
38.0295325973794
 31
0.0
  0
LINE
  5
    FC
  8
0
  6
CONTINUOUS
 62
     7
 10
-570.489684893209
 20
44.8134339736181
 30
0.0
 11
-569.968740463257
 21
41.8590106964111
 31
0.0
  0
LINE
  5
    FD
  8
0
  6
CONTINUOUS
 62
     7
 10
-569.968740463257
 20
41.8590106964111
 30
0.0
 11
-569.447796033305
 21
44.8134339736181
 31
0.0
  0
ENDBLK
  5
    FE
  8
0
  6
CONTINUOUS
 62
     7
  0
BLOCK
  5
    FF
  8
0
  6
CONTINUOUS
 62
     7
  2
*UDIM123
 70
    65
 10
0.0
 20
0.0
 30
0.0
  3
*UDIM123
  0
TEXT
  5
   100
  8
0
  6
CONTINUOUS
 62
     7
 10
-629.153800967888
 20
31.8958063678269
 30
0.0
 40
3.00000002980232
  1
105
 50
89.9999999480344
 41
0.933333333333333
 72
     1
 11
-630.653800979257
 21
35.7958064079285
 31
0.0
 73
     2
  0
LINE
  5
   101
  8
0
  6
CONTINUOUS
 62
     7
 10
-607.335081100464
 20
15.6089839935303
 30
0.0
 11
-630.153800964356
 21
15.6089839935303
 31
0.0
  0
LINE
  5
   102
  8
0
  6
CONTINUOUS
 62
     7
 10
-607.335081100464
 20
68.1090106964111
 30
0.0
 11
-630.153800964356
 21
68.1090106964111
 31
0.0
  0
LINE
  5
   103
  8
0
  6
CONTINUOUS
 62
     7
 10
-628.153800964355
 20
15.6089839935303
 30
0.0
 11
-628.153800964355
 21
68.1090106964111
 31
0.0
  0
LINE
  5
   104
  8
0
  6
CONTINUOUS
 62
     7
 10
-628.674745394307
 20
18.5634072707372
 30
0.0
 11
-628.153800964355
 21
15.6089839935303
 31
0.0
  0
LINE
  5
   105
  8
0
  6
CONTINUOUS
 62
     7
 10
-628.153800964355
 20
15.6089839935303
 30
0.0
 11
-627.632856534404
 21
18.5634072707372
 31
0.0
  0
LINE
  5
   106
  8
0
  6
CONTINUOUS
 62
     7
 10
-627.632856534404
 20
65.1545874192042
 30
0.0
 11
-628.153800964355
 21
68.1090106964111
 31
0.0
  0
LINE
  5
   107
  8
0
  6
CONTINUOUS
 62
     7
 10
-628.153800964355
 20
68.1090106964111
 30
0.0
 11
-628.674745394307
 21
65.1545874192042
 31
0.0
  0
ENDBLK
  5
   108
  8
0
  6
CONTINUOUS
 62
     7
  0
BLOCK
  5
   109
  8
0
  6
CONTINUOUS
 62
     7
  2
*UDIM124
 70
    65
 10
0.0
 20
0.0
 30
0.0
  3
*UDIM124
  0
TEXT
  5
   10A
  8
0
  6
CONTINUOUS
 62
     7
 10
-567.185086896382
 20
-38.8477096497187
 30
0.0
 40
3.00000002980232
  1
195,5
 50
359.999999948034
 41
0.933333333333333
 72
     1
 11
-560.48508682847
 21
-37.3477096408606
 31
0.0
 73
     2
  0
LINE
  5
   10B
  8
0
  6
CONTINUOUS
 62
     7
 10
-511.335090637207
 20
-17.9825016845383
 30
0.0
 11
-511.335090637207
 21
-41.8477096557617
 31
0.0
  0
LINE
  5
   10C
  8
0
  6
CONTINUOUS
 62
     7
 10
-609.085081100464
 20
0.608921051025391
 30
0.0
 11
-609.085081100464
 21
-41.8477096557617
 31
0.0
  0
LINE
  5
   10D
  8
0
  6
CONTINUOUS
 62
     7
 10
-511.335090637207
 20
-39.8477096557617
 30
0.0
 11
-609.085081100464
 21
-39.8477096557617
 31
0.0
  0
LINE
  5
   10E
  8
0
  6
CONTINUOUS
 62
     7
 10
-514.289513914414
 20
-40.3686540857134
 30
0.0
 11
-511.335090637207
 21
-39.8477096557617
 31
0.0
  0
LINE
  5
   10F
  8
0
  6
CONTINUOUS
 62
     7
 10
-511.335090637207
 20
-39.8477096557617
 30
0.0
 11
-514.289513914414
 21
-39.3267652258101
 31
0.0
  0
LINE
  5
   110
  8
0
  6
CONTINUOUS
 62
     7
 10
-606.130657823257
 20
-39.3267652258101
 30
0.0
 11
-609.085081100464
 21
-39.8477096557617
 31
0.0
  0
LINE
  5
   111
  8
0
  6
CONTINUOUS
 62
     7
 10
-609.085081100464
 20
-39.8477096557617
 30
0.0
 11
-606.130657823257
 21
-40.3686540857134
 31
0.0
  0
ENDBLK
  5
   112
  8
0
  6
CONTINUOUS
 62
     7
  0
BLOCK
  5
   113
  8
0
  6
CONTINUOUS
 62
     7
  2
*UDIM125
 70
    65
 10
0.0
 20
0.0
 30
0.0
  3
*UDIM125
  0
TEXT
  5
   114
  8
0
  6
CONTINUOUS
 62
     7
 10
-563.010086868566
 20
-30.3541488612285
 30
0.0
 40
3.00000002980232
  1
190
 50
359.999999948034
 41
0.933333333333333
 72
     1
 11
-559.11008682847
 21
-28.8541488498449
 31
0.0
 73
     2
  0
LINE
  5
   115
  8
0
  6
CONTINUOUS
 62
     7
 10
-511.335090637207
 20
-17.9825016845383
 30
0.0
 11
-511.335090637207
 21
-33.3541488647461
 31
0.0
  0
LINE
  5
   116
  8
0
  6
CONTINUOUS
 62
     7
 10
-606.335081100464
 20
-24.4975731748844
 30
0.0
 11
-606.335081100464
 21
-33.3541488647461
 31
0.0
  0
LINE
  5
   117
  8
0
  6
CONTINUOUS
 62
     7
 10
-511.335090637207
 20
-31.3541488647461
 30
0.0
 11
-606.335081100464
 21
-31.3541488647461
 31
0.0
  0
LINE
  5
   118
  8
0
  6
CONTINUOUS
 62
     7
 10
-514.289513914414
 20
-31.8750932946978
 30
0.0
 11
-511.335090637207
 21
-31.3541488647461
 31
0.0
  0
LINE
  5
   119
  8
0
  6
CONTINUOUS
 62
     7
 10
-511.335090637207
 20
-31.3541488647461
 30
0.0
 11
-514.289513914414
 21
-30.8332044347944
 31
0.0
  0
LINE
  5
   11A
  8
0
  6
CONTINUOUS
 62
     7
 10
-603.380657823257
 20
-30.8332044347944
 30
0.0
 11
-606.335081100464
 21
-31.3541488647461
 31
0.0
  0
LINE
  5
   11B
  8
0
  6
CONTINUOUS
 62
     7
 10
-606.335081100464
 20
-31.3541488647461
 30
0.0
 11
-603.380657823257
 21
-31.8750932946978
 31
0.0
  0
ENDBLK
  5
   11C
  8
0
  6
CONTINUOUS
 62
     7
  0
BLOCK
  5
   11D
  8
0
  6
CONTINUOUS
 62
     7
  2
*UDIM126
 70
    65
 10
0.0
 20
0.0
 30
0.0
  3
*UDIM126
  0
TEXT
  5
   11E
  8
0
  6
CONTINUOUS
 62
     7
 10
-603.196754563214
 20
-30.354148863754
 30
0.0
 40
3.00000002980232
  1
2
 50
359.999999948034
 41
0.933333333333334
 72
     1
 11
-602.096754550934
 21
-28.8541488498449
 31
0.0
 73
     2
  0
LINE
  5
   11F
  8
0
  6
CONTINUOUS
 62
     7
 10
-607.335081100464
 20
-24.800851863409
 30
0.0
 11
-607.335081100464
 21
-33.3541488647461
 31
0.0
  0
LINE
  5
   120
  8
0
  6
CONTINUOUS
 62
     7
 10
-600.996754540006
 20
-31.3541488647461
 30
0.0
 11
-607.335081100464
 21
-31.3541488647461
 31
0.0
  0
LINE
  5
   121
  8
0
  6
CONTINUOUS
 62
     7
 10
-603.380657823257
 20
-30.8332044347944
 30
0.0
 11
-606.335081100464
 21
-31.3541488647461
 31
0.0
  0
LINE
  5
   122
  8
0
  6
CONTINUOUS
 62
     7
 10
-606.335081100464
 20
-31.3541488647461
 30
0.0
 11
-603.380657823257
 21
-31.8750932946978
 31
0.0
  0
LINE
  5
   123
  8
0
  6
CONTINUOUS
 62
     7
 10
-610.289504377671
 20
-31.8750932946978
 30
0.0
 11
-607.335081100464
 21
-31.3541488647461
 31
0.0
  0
LINE
  5
   124
  8
0
  6
CONTINUOUS
 62
     7
 10
-607.335081100464
 20
-31.3541488647461
 30
0.0
 11
-610.289504377671
 21
-30.8332044347944
 31
0.0
  0
ENDBLK
  5
   125
  8
0
  6
CONTINUOUS
 62
     7
  0
BLOCK
  5
   126
  8
0
  6
CONTINUOUS
 62
     7
  2
*UDIM127
 70
    65
 10
0.0
 20
0.0
 30
0.0
  3
*UDIM127
  0
TEXT
  5
   127
  8
0
  6
CONTINUOUS
 62
     7
 10
-564.900365857016
 20
-64.7115631058293
 30
0.0
 40
3.00000002980232
  1
35
 50
359.999999896069
 41
0.933333333333333
 72
     1
 11
-562.400365829468
 21
-63.2115630954504
 31
0.0
 73
     2
  0
LINE
  5
   128
  8
0
  6
CONTINUOUS
 62
     7
 10
-567.875366210938
 20
-69.0803170844208
 30
0.0
 11
-567.875366210938
 21
-63.7115631103516
 31
0.0
  0
LINE
  5
   129
  8
0
  6
CONTINUOUS
 62
     7
 10
-559.900365804633
 20
-65.7115631103516
 30
0.0
 11
-576.625366210938
 21
-65.7115631103516
 31
0.0
  0
LINE
  5
   12A
  8
0
  6
CONTINUOUS
 62
     7
 10
-564.920942933731
 20
-65.1906186803999
 30
0.0
 11
-567.875366210938
 21
-65.7115631103516
 31
0.0
  0
LINE
  5
   12B
  8
0
  6
CONTINUOUS
 62
     7
 10
-567.875366210938
 20
-65.7115631103516
 30
0.0
 11
-564.920942933731
 21
-66.2325075403032
 31
0.0
  0
LINE
  5
   12C
  8
0
  6
CONTINUOUS
 62
     7
 10
-579.579789488145
 20
-66.2325075403032
 30
0.0
 11
-576.625366210938
 21
-65.7115631103516
 31
0.0
  0
LINE
  5
   12D
  8
0
  6
CONTINUOUS
 62
     7
 10
-576.625366210938
 20
-65.7115631103516
 30
0.0
 11
-579.579789488145
 21
-65.1906186803999
 31
0.0
  0
ENDBLK
  5
   12E
  8
0
  6
CONTINUOUS
 62
     7
  0
BLOCK
  5
   12F
  8
0
  6
CONTINUOUS
 62
     7
  2
*UDIM128
 70
    65
 10
0.0
 20
0.0
 30
0.0
  3
*UDIM128
  0
TEXT
  5
   130
  8
0
  6
CONTINUOUS
 62
     7
 10
-546.41290665884
 20
-97.0023009098862
 30
0.0
 40
3.00000002980232
  1
73,75
 50
449.999999896069
 41
0.933333333333333
 72
     1
 11
-547.91290666163
 21
-90.3023008406162
 31
0.0
 73
     2
  0
LINE
  5
   131
  8
0
  6
CONTINUOUS
 62
     7
 10
-547.074331593266
 20
-81.3480606079102
 30
0.0
 11
-543.412906646729
 21
-81.3480606079102
 31
0.0
  0
LINE
  5
   132
  8
0
  6
CONTINUOUS
 62
     7
 10
-554.244021133902
 20
-99.7855606079102
 30
0.0
 11
-543.412906646729
 21
-99.7855606079102
 31
0.0
  0
LINE
  5
   133
  8
0
  6
CONTINUOUS
 62
     7
 10
-545.412906646729
 20
-81.3480606079102
 30
0.0
 11
-545.412906646729
 21
-99.7855606079102
 31
0.0
  0
LINE
  5
   134
  8
0
  6
CONTINUOUS
 62
     7
 10
-544.891962216777
 20
-84.3024838851171
 30
0.0
 11
-545.412906646729
 21
-81.3480606079102
 31
0.0
  0
LINE
  5
   135
  8
0
  6
CONTINUOUS
 62
     7
 10
-545.412906646729
 20
-81.3480606079102
 30
0.0
 11
-545.93385107668
 21
-84.3024838851171
 31
0.0
  0
LINE
  5
   136
  8
0
  6
CONTINUOUS
 62
     7
 10
-545.93385107668
 20
-96.8311373307032
 30
0.0
 11
-545.412906646729
 21
-99.7855606079102
 31
0.0
  0
LINE
  5
   137
  8
0
  6
CONTINUOUS
 62
     7
 10
-545.412906646729
 20
-99.7855606079102
 30
0.0
 11
-544.891962216777
 21
-96.8311373307032
 31
0.0
  0
ENDBLK
  5
   138
  8
0
  6
CONTINUOUS
 62
     7
  0
BLOCK
  5
   139
  8
0
  6
CONTINUOUS
 62
     7
  2
*UDIM129
 70
    65
 10
0.0
 20
0.0
 30
0.0
  3
*UDIM129
  0
TEXT
  5
   13A
  8
0
  6
CONTINUOUS
 62
     7
 10
-612.772926337616
 20
-103.398060655325
 30
0.0
 40
3.00000002980232
  1
100
 50
449.999999896069
 41
0.933333333333333
 72
     1
 11
-614.272926345468
 21
-99.4980606138706
 31
0.0
 73
     2
  0
LINE
  5
   13B
  8
0
  6
CONTINUOUS
 62
     7
 10
-596.457041842579
 20
-86.7230606079102
 30
0.0
 11
-613.772926330566
 21
-86.7230606079102
 31
0.0
  0
LINE
  5
   13C
  8
0
  6
CONTINUOUS
 62
     7
 10
-596.90202645316
 20
-111.72306060791
 30
0.0
 11
-613.772926330566
 21
-111.72306060791
 31
0.0
  0
LINE
  5
   13D
  8
0
  6
CONTINUOUS
 62
     7
 10
-611.772926330567
 20
-86.7230606079102
 30
0.0
 11
-611.772926330567
 21
-111.72306060791
 31
0.0
  0
LINE
  5
   13E
  8
0
  6
CONTINUOUS
 62
     7
 10
-611.251981900615
 20
-89.6774838851171
 30
0.0
 11
-611.772926330567
 21
-86.7230606079102
 31
0.0
  0
LINE
  5
   13F
  8
0
  6
CONTINUOUS
 62
     7
 10
-611.772926330567
 20
-86.7230606079102
 30
0.0
 11
-612.293870760518
 21
-89.6774838851171
 31
0.0
  0
LINE
  5
   140
  8
0
  6
CONTINUOUS
 62
     7
 10
-612.293870760518
 20
-108.768637330703
 30
0.0
 11
-611.772926330567
 21
-111.72306060791
 31
0.0
  0
LINE
  5
   141
  8
0
  6
CONTINUOUS
 62
     7
 10
-611.772926330567
 20
-111.72306060791
 30
0.0
 11
-611.251981900615
 21
-108.768637330703
 31
0.0
  0
ENDBLK
  5
   142
  8
0
  6
CONTINUOUS
 62
     7
  0
BLOCK
  5
   143
  8
0
  6
CONTINUOUS
 62
     7
  2
*UDIM130
 70
    65
 10
0.0
 20
0.0
 30
0.0
  3
*UDIM130
  0
TEXT
  5
   144
  8
0
  6
CONTINUOUS
 62
     7
 10
-606.0140361907
 20
-83.8230602957104
 30
0.0
 40
3.00000002980232
  1
52,25
 50
449.999999896069
 41
0.933333333333333
 72
     1
 11
-607.51403619349
 21
-77.1230602264404
 31
0.0
 73
     2
  0
LINE
  5
   145
  8
0
  6
CONTINUOUS
 62
     7
 10
-596.457041842579
 20
-86.7230606079102
 30
0.0
 11
-607.014036178589
 21
-86.7230606079102
 31
0.0
  0
LINE
  5
   146
  8
0
  6
CONTINUOUS
 62
     7
 10
-605.014036178589
 20
-70.4230601598819
 30
0.0
 11
-605.014036178589
 21
-99.7855606079102
 31
0.0
  0
LINE
  5
   147
  8
0
  6
CONTINUOUS
 62
     7
 10
-604.493091748637
 20
-89.6774838851171
 30
0.0
 11
-605.014036178589
 21
-86.7230606079102
 31
0.0
  0
LINE
  5
   148
  8
0
  6
CONTINUOUS
 62
     7
 10
-605.014036178589
 20
-86.7230606079102
 30
0.0
 11
-605.534980608541
 21
-89.6774838851171
 31
0.0
  0
LINE
  5
   149
  8
0
  6
CONTINUOUS
 62
     7
 10
-605.534980608541
 20
-96.8311373307032
 30
0.0
 11
-605.014036178589
 21
-99.7855606079102
 31
0.0
  0
LINE
  5
   14A
  8
0
  6
CONTINUOUS
 62
     7
 10
-605.014036178589
 20
-99.7855606079102
 30
0.0
 11
-604.493091748637
 21
-96.8311373307032
 31
0.0
  0
ENDBLK
  5
   14B
  8
0
  6
CONTINUOUS
 62
     7
  0
BLOCK
  5
   14C
  8
0
  6
CONTINUOUS
 62
     7
  2
*UDIM131
 70
    65
 10
0.0
 20
0.0
 30
0.0
  3
*UDIM131
  0
TEXT
  5
   14D
  8
0
  6
CONTINUOUS
 62
     7
 10
-538.793788916962
 20
-103.398062094417
 30
0.0
 40
3.00000002980232
  1
143
 50
449.999999896069
 41
0.933333333333333
 72
     1
 11
-540.293788924813
 21
-99.498062052963
 31
0.0
 73
     2
  0
LINE
  5
   14E
  8
0
  6
CONTINUOUS
 62
     7
 10
-547.074331593266
 20
-81.3480609218266
 30
0.0
 11
-535.793788909912
 21
-81.3480644629748
 31
0.0
  0
LINE
  5
   14F
  8
0
  6
CONTINUOUS
 62
     7
 10
-547.074331593266
 20
-117.098060921827
 30
0.0
 11
-535.793788909912
 21
-117.098064462975
 31
0.0
  0
LINE
  5
   150
  8
0
  6
CONTINUOUS
 62
     7
 10
-537.793788909912
 20
-81.3480638351419
 30
0.0
 11
-537.793788909912
 21
-117.098063835142
 31
0.0
  0
LINE
  5
   151
  8
0
  6
CONTINUOUS
 62
     7
 10
-537.272844479961
 20
-84.3024871123488
 30
0.0
 11
-537.793788909912
 21
-81.3480638351419
 31
0.0
  0
LINE
  5
   152
  8
0
  6
CONTINUOUS
 62
     7
 10
-537.793788909912
 20
-81.3480638351419
 30
0.0
 11
-538.314733339864
 21
-84.3024871123488
 31
0.0
  0
LINE
  5
   153
  8
0
  6
CONTINUOUS
 62
     7
 10
-538.314733339864
 20
-114.143640557935
 30
0.0
 11
-537.793788909912
 21
-117.098063835142
 31
0.0
  0
LINE
  5
   154
  8
0
  6
CONTINUOUS
 62
     7
 10
-537.793788909912
 20
-117.098063835142
 30
0.0
 11
-537.272844479961
 21
-114.143640557935
 31
0.0
  0
ENDBLK
  5
   155
  8
0
  6
CONTINUOUS
 62
     7
  0
BLOCK
  5
   156
  8
0
  6
CONTINUOUS
 62
     7
  2
*UDIM132
 70
    65
 10
0.0
 20
0.0
 30
0.0
  3
*UDIM132
  0
TEXT
  5
   157
  8
0
  6
CONTINUOUS
 62
     7
 10
-585.175366258354
 20
-55.5401725698495
 30
0.0
 40
3.00000002980232
  1
105
 50
359.999999896069
 41
0.933333333333333
 72
     1
 11
-581.275366216898
 21
-54.0401725620031
 31
0.0
 73
     2
  0
LINE
  5
   158
  8
0
  6
CONTINUOUS
 62
     7
 10
-567.875366210938
 20
-69.0803170844208
 30
0.0
 11
-567.875366210938
 21
-54.5401725769043
 31
0.0
  0
LINE
  5
   159
  8
0
  6
CONTINUOUS
 62
     7
 10
-594.125366210938
 20
-69.0803170844208
 30
0.0
 11
-594.125366210938
 21
-54.5401725769043
 31
0.0
  0
LINE
  5
   15A
  8
0
  6
CONTINUOUS
 62
     7
 10
-567.875366210938
 20
-56.5401725769043
 30
0.0
 11
-594.125366210938
 21
-56.5401725769043
 31
0.0
  0
LINE
  5
   15B
  8
0
  6
CONTINUOUS
 62
     7
 10
-570.829789488145
 20
-57.061117006856
 30
0.0
 11
-567.875366210938
 21
-56.5401725769043
 31
0.0
  0
LINE
  5
   15C
  8
0
  6
CONTINUOUS
 62
     7
 10
-567.875366210938
 20
-56.5401725769043
 30
0.0
 11
-570.829789488145
 21
-56.0192281469526
 31
0.0
  0
LINE
  5
   15D
  8
0
  6
CONTINUOUS
 62
     7
 10
-591.170942933731
 20
-56.0192281469526
 30
0.0
 11
-594.125366210938
 21
-56.5401725769043
 31
0.0
  0
LINE
  5
   15E
  8
0
  6
CONTINUOUS
 62
     7
 10
-594.125366210938
 20
-56.5401725769043
 30
0.0
 11
-591.170942933731
 21
-57.061117006856
 31
0.0
  0
ENDBLK
  5
   15F
  8
0
  6
CONTINUOUS
 62
     7
  0
BLOCK
  5
   160
  8
0
  6
CONTINUOUS
 62
     7
  2
*UDIM133
 70
    65
 10
0.0
 20
0.0
 30
0.0
  3
*UDIM133
  0
TEXT
  5
   161
  8
0
  6
CONTINUOUS
 62
     7
 10
-553.599851657166
 20
-76.610846215949
 30
0.0
 40
3.00000002980232
  1
14
 50
374.545888780971
 41
0.933333333333333
 72
     1
 11
-551.556717626637
 21
-74.5310376905856
 31
0.0
 73
     2
  0
TEXT
  5
   162
  8
0
  6
CONTINUOUS
 62
     7
 10
-556.261705382355
 20
-77.3015233702412
 30
0.0
 40
3.00000002980232
  1
R
 50
374.545888780971
 41
0.933333333333334
 72
     1
 11
-555.573696882428
 21
-75.5733323007202
 31
0.0
 73
     2
  0
LINE
  5
   163
  8
0
  6
CONTINUOUS
 62
     7
 10
-548.508962292954
 20
-76.3230163803845
 30
0.0
 11
-579.006754382219
 21
-84.2363468437715
 31
0.0
  0
LINE
  5
   164
  8
0
  6
CONTINUOUS
 62
     7
 10
-567.216439001781
 20
-81.715282601511
 30
0.0
 11
-564.487552419678
 21
-80.4690169709089
 31
0.0
  0
LINE
  5
   165
  8
0
  6
CONTINUOUS
 62
     7
 10
-564.487552419678
 20
-80.4690169709089
 30
0.0
 11
-567.478114936855
 21
-80.7067896162138
 31
0.0
  0
ENDBLK
  5
   166
  8
0
  6
CONTINUOUS
 62
     7
  0
BLOCK
  5
   167
  8
0
  6
CONTINUOUS
 62
     7
  2
*UDIM134
 70
    65
 10
0.0
 20
0.0
 30
0.0
  3
*UDIM134
  0
TEXT
  5
   168
  8
0
  6
CONTINUOUS
 62
     7
 10
-629.202955002211
 20
-131.452347686302
 30
0.0
 40
3.00000002980232
  1
5
 50
392.704034205866
 41
0.933333333333334
 72
     1
 11
-629.087784340579
 21
-129.595809028627
 31
0.0
 73
     2
  0
TEXT
  5
   169
  8
0
  6
CONTINUOUS
 62
     7
 10
-631.853594143031
 20
-133.154291342166
 30
0.0
 40
3.00000002980232
  1
Ø
 50
392.704034205866
 41
0.933333333333334
 72
     1
 11
-631.738423481399
 21
-131.297752684491
 31
0.0
 73
     2
  0
TEXT
  5
   16A
  8
0
  6
CONTINUOUS
 62
     7
 10
-626.888904942986
 20
-129.966523837668
 30
0.0
 40
3.00000002980232
  1
 (M4)
 50
392.704034205866
 41
0.933333333333333
 72
     1
 11
-622.061486882473
 21
-125.084307557574
 31
0.0
 73
     2
  0
LINE
  5
   16B
  8
0
  6
CONTINUOUS
 62
     7
 10
-596.099445748148
 20
-111.385373375669
 30
0.0
 11
-631.313294568088
 21
-133.995764082838
 31
0.0
  0
LINE
  5
   16C
  8
0
  6
CONTINUOUS
 62
     7
 10
-593.89484514891
 20
-109.350739207608
 30
0.0
 11
-596.099445748148
 21
-111.385373375669
 31
0.0
  0
LINE
  5
   16D
  8
0
  6
CONTINUOUS
 62
     7
 10
-596.099445748148
 20
-111.385373375669
 30
0.0
 11
-593.331913044263
 21
-110.22746028181
 31
0.0
  0
LINE
  5
   16E
  8
0
  6
CONTINUOUS
 62
     7
 10
-599.355887272965
 20
-114.095382008212
 30
0.0
 11
-597.151286673727
 21
-112.060747840152
 31
0.0
  0
LINE
  5
   16F
  8
0
  6
CONTINUOUS
 62
     7
 10
-597.151286673727
 20
-112.060747840152
 30
0.0
 11
-599.918819377612
 21
-113.21866093401
 31
0.0
  0
ENDBLK
  5
   170
  8
0
  6
CONTINUOUS
 62
     7
  0
BLOCK
  5
   171
  8
0
  6
CONTINUOUS
 62
     7
  2
*UDIM135
 70
    65
 10
0.0
 20
0.0
 30
0.0
  3
*UDIM135
  0
TEXT
  5
   172
  8
0
  6
CONTINUOUS
 62
     7
 10
-567.400365857016
 20
-133.757133479364
 30
0.0
 40
3.00000002980232
  1
25
 50
359.999999896069
 41
0.933333333333333
 72
     1
 11
-564.900365829468
 21
-132.257133468986
 31
0.0
 73
     2
  0
LINE
  5
   173
  8
0
  6
CONTINUOUS
 62
     7
 10
-570.375366210938
 20
-117.512766212093
 30
0.0
 11
-570.375366210938
 21
-136.757133483887
 31
0.0
  0
LINE
  5
   174
  8
0
  6
CONTINUOUS
 62
     7
 10
-576.625366210938
 20
-131.800974259679
 30
0.0
 11
-576.625366210938
 21
-136.757133483887
 31
0.0
  0
LINE
  5
   175
  8
0
  6
CONTINUOUS
 62
     7
 10
-562.400365804633
 20
-134.757133483887
 30
0.0
 11
-576.625366210938
 21
-134.757133483887
 31
0.0
  0
LINE
  5
   176
  8
0
  6
CONTINUOUS
 62
     7
 10
-573.329789488145
 20
-135.278077913838
 30
0.0
 11
-570.375366210938
 21
-134.757133483887
 31
0.0
  0
LINE
  5
   177
  8
0
  6
CONTINUOUS
 62
     7
 10
-570.375366210938
 20
-134.757133483887
 30
0.0
 11
-573.329789488145
 21
-134.236189053935
 31
0.0
  0
LINE
  5
   178
  8
0
  6
CONTINUOUS
 62
     7
 10
-573.670942933731
 20
-134.236189053935
 30
0.0
 11
-576.625366210938
 21
-134.757133483887
 31
0.0
  0
LINE
  5
   179
  8
0
  6
CONTINUOUS
 62
     7
 10
-576.625366210938
 20
-134.757133483887
 30
0.0
 11
-573.670942933731
 21
-135.278077913838
 31
0.0
  0
ENDBLK
  5
   17A
  8
0
  6
CONTINUOUS
 62
     7
  0
BLOCK
  5
   17B
  8
0
  6
CONTINUOUS
 62
     7
  2
*UDIM136
 70
    65
 10
0.0
 20
0.0
 30
0.0
  3
*UDIM136
  0
TEXT
  5
   17C
  8
0
  6
CONTINUOUS
 62
     7
 10
-589.400366244447
 20
-133.757133479364
 30
0.0
 40
3.00000002980232
  1
80
 50
359.999999896069
 41
0.933333333333333
 72
     1
 11
-586.900366216898
 21
-132.257133468986
 31
0.0
 73
     2
  0
LINE
  5
   17D
  8
0
  6
CONTINUOUS
 62
     7
 10
-596.625366210938
 20
-117.66109441562
 30
0.0
 11
-596.625366210938
 21
-136.757133483887
 31
0.0
  0
LINE
  5
   17E
  8
0
  6
CONTINUOUS
 62
     7
 10
-576.625366210938
 20
-134.757133483887
 30
0.0
 11
-596.625366210938
 21
-134.757133483887
 31
0.0
  0
LINE
  5
   17F
  8
0
  6
CONTINUOUS
 62
     7
 10
-579.579789488145
 20
-135.278077913838
 30
0.0
 11
-576.625366210938
 21
-134.757133483887
 31
0.0
  0
LINE
  5
   180
  8
0
  6
CONTINUOUS
 62
     7
 10
-576.625366210938
 20
-134.757133483887
 30
0.0
 11
-579.579789488145
 21
-134.236189053935
 31
0.0
  0
LINE
  5
   181
  8
0
  6
CONTINUOUS
 62
     7
 10
-593.670942933731
 20
-134.236189053935
 30
0.0
 11
-596.625366210938
 21
-134.757133483887
 31
0.0
  0
LINE
  5
   182
  8
0
  6
CONTINUOUS
 62
     7
 10
-596.625366210938
 20
-134.757133483887
 30
0.0
 11
-593.670942933731
 21
-135.278077913838
 31
0.0
  0
ENDBLK
  5
   183
  8
0
  6
CONTINUOUS
 62
     7
  0
BLOCK
  5
   184
  8
0
  6
CONTINUOUS
 62
     7
  2
*UDIM137
 70
    65
 10
0.0
 20
0.0
 30
0.0
  3
*UDIM137
  0
TEXT
  5
   185
  8
0
  6
CONTINUOUS
 62
     7
 10
-357.120109562625
 20
-57.1968483306264
 30
0.0
 40
3.00000002980232
  1
83
 50
449.999999896069
 41
0.933333333333333
 72
     1
 11
-358.620109573007
 21
-54.6968483030796
 31
0.0
 73
     2
  0
LINE
  5
   186
  8
0
  6
CONTINUOUS
 62
     7
 10
-387.848033261136
 20
-33.7218589782715
 30
0.0
 11
-354.120109558106
 21
-33.7218589782715
 31
0.0
  0
LINE
  5
   187
  8
0
  6
CONTINUOUS
 62
     7
 10
-381.848025631742
 20
-75.1218452453613
 30
0.0
 11
-354.120109558106
 21
-75.1218452453613
 31
0.0
  0
LINE
  5
   188
  8
0
  6
CONTINUOUS
 62
     7
 10
-356.120109558105
 20
-33.7218589782715
 30
0.0
 11
-356.120109558105
 21
-75.1218452453613
 31
0.0
  0
LINE
  5
   189
  8
0
  6
CONTINUOUS
 62
     7
 10
-355.599165128154
 20
-36.6762822554785
 30
0.0
 11
-356.120109558105
 21
-33.7218589782715
 31
0.0
  0
LINE
  5
   18A
  8
0
  6
CONTINUOUS
 62
     7
 10
-356.120109558105
 20
-33.7218589782715
 30
0.0
 11
-356.641053988057
 21
-36.6762822554785
 31
0.0
  0
LINE
  5
   18B
  8
0
  6
CONTINUOUS
 62
     7
 10
-356.641053988057
 20
-72.1674219681544
 30
0.0
 11
-356.120109558105
 21
-75.1218452453613
 31
0.0
  0
LINE
  5
   18C
  8
0
  6
CONTINUOUS
 62
     7
 10
-356.120109558105
 20
-75.1218452453613
 30
0.0
 11
-355.599165128154
 21
-72.1674219681544
 31
0.0
  0
ENDBLK
  5
   18D
  8
0
  6
CONTINUOUS
 62
     7
  0
BLOCK
  5
   18E
  8
0
  6
CONTINUOUS
 62
     7
  2
*UDIM138
 70
    65
 10
0.0
 20
0.0
 30
0.0
  3
*UDIM138
  0
TEXT
  5
   18F
  8
0
  6
CONTINUOUS
 62
     7
 10
-364.301223759402
 20
-70.1968521453236
 30
0.0
 40
3.00000002980232
  1
31
 50
449.999999896069
 41
0.933333333333333
 72
     1
 11
-365.801223769784
 21
-67.6968521177769
 31
0.0
 73
     2
  0
LINE
  5
   190
  8
0
  6
CONTINUOUS
 62
     7
 10
-370.348048519925
 20
-59.7218589782715
 30
0.0
 11
-361.301223754883
 21
-59.7218589782715
 31
0.0
  0
LINE
  5
   191
  8
0
  6
CONTINUOUS
 62
     7
 10
-381.848025631742
 20
-75.1218452453613
 30
0.0
 11
-361.301223754883
 21
-75.1218452453613
 31
0.0
  0
LINE
  5
   192
  8
0
  6
CONTINUOUS
 62
     7
 10
-363.301223754883
 20
-59.7218589782715
 30
0.0
 11
-363.301223754883
 21
-75.1218452453613
 31
0.0
  0
LINE
  5
   193
  8
0
  6
CONTINUOUS
 62
     7
 10
-362.780279324931
 20
-62.6762822554785
 30
0.0
 11
-363.301223754883
 21
-59.7218589782715
 31
0.0
  0
LINE
  5
   194
  8
0
  6
CONTINUOUS
 62
     7
 10
-363.301223754883
 20
-59.7218589782715
 30
0.0
 11
-363.822168184835
 21
-62.6762822554785
 31
0.0
  0
LINE
  5
   195
  8
0
  6
CONTINUOUS
 62
     7
 10
-363.822168184835
 20
-72.1674219681544
 30
0.0
 11
-363.301223754883
 21
-75.1218452453613
 31
0.0
  0
LINE
  5
   196
  8
0
  6
CONTINUOUS
 62
     7
 10
-363.301223754883
 20
-75.1218452453613
 30
0.0
 11
-362.780279324931
 21
-72.1674219681544
 31
0.0
  0
ENDBLK
  5
   197
  8
0
  6
CONTINUOUS
 62
     7
  0
BLOCK
  5
   198
  8
0
  6
CONTINUOUS
 62
     7
  2
*UDIM139
 70
    65
 10
0.0
 20
0.0
 30
0.0
  3
*UDIM139
  0
TEXT
  5
   199
  8
0
  6
CONTINUOUS
 62
     7
 10
-429.563770631519
 20
-15.9737472488957
 30
0.0
 40
3.00000002980232
  1
12
 50
359.999999896069
 41
0.933333333333333
 72
     1
 11
-427.063770603971
 21
-14.4737472385168
 31
0.0
 73
     2
  0
TEXT
  5
   19A
  8
0
  6
CONTINUOUS
 62
     7
 10
-432.313770665295
 20
-15.9737472514282
 30
0.0
 40
3.00000002980232
  1
M
 50
359.999999896069
 41
0.933333333333334
 72
     1
 11
-431.213770651655
 21
-14.4737472385168
 31
0.0
 73
     2
  0
LINE
  5
   19B
  8
0
  6
CONTINUOUS
 62
     7
 10
-426.348033261136
 20
-29.7218589782715
 30
0.0
 11
-426.348033261136
 21
-14.973747253418
 31
0.0
  0
LINE
  5
   19C
  8
0
  6
CONTINUOUS
 62
     7
 10
-432.348033261136
 20
-29.7218589782715
 30
0.0
 11
-432.348033261136
 21
-14.973747253418
 31
0.0
  0
LINE
  5
   19D
  8
0
  6
CONTINUOUS
 62
     7
 10
-424.563770579136
 20
-16.973747253418
 30
0.0
 11
-432.348033261136
 21
-16.973747253418
 31
0.0
  0
LINE
  5
   19E
  8
0
  6
CONTINUOUS
 62
     7
 10
-423.393609983929
 20
-16.4528028234663
 30
0.0
 11
-426.348033261136
 21
-16.973747253418
 31
0.0
  0
LINE
  5
   19F
  8
0
  6
CONTINUOUS
 62
     7
 10
-426.348033261136
 20
-16.973747253418
 30
0.0
 11
-423.393609983929
 21
-17.4946916833696
 31
0.0
  0
LINE
  5
   1A0
  8
0
  6
CONTINUOUS
 62
     7
 10
-435.302456538343
 20
-17.4946916833696
 30
0.0
 11
-432.348033261136
 21
-16.973747253418
 31
0.0
  0
LINE
  5
   1A1
  8
0
  6
CONTINUOUS
 62
     7
 10
-432.348033261136
 20
-16.973747253418
 30
0.0
 11
-435.302456538343
 21
-16.4528028234663
 31
0.0
  0
ENDBLK
  5
   1A2
  8
0
  6
CONTINUOUS
 62
     7
  0
BLOCK
  5
   1A3
  8
0
  6
CONTINUOUS
 62
     7
  2
*UDIM140
 70
    65
 10
0.0
 20
0.0
 30
0.0
  3
*UDIM140
  0
TEXT
  5
   1A4
  8
0
  6
CONTINUOUS
 62
     7
 10
-449.361571324963
 20
-54.2968491074736
 30
0.0
 40
3.00000002980232
  1
100
 50
449.999999896069
 41
0.933333333333333
 72
     1
 11
-450.861571332814
 21
-50.3968490660191
 31
0.0
 73
     2
  0
LINE
  5
   1A5
  8
0
  6
CONTINUOUS
 62
     7
 10
-432.348033261136
 20
-25.1218605041504
 30
0.0
 11
-450.361571317913
 21
-25.1218605041504
 31
0.0
  0
LINE
  5
   1A6
  8
0
  6
CONTINUOUS
 62
     7
 10
-438.598065686063
 20
-75.1218376159668
 30
0.0
 11
-450.361571317913
 21
-75.1218376159668
 31
0.0
  0
LINE
  5
   1A7
  8
0
  6
CONTINUOUS
 62
     7
 10
-448.361571317913
 20
-25.1218605041504
 30
0.0
 11
-448.361571317913
 21
-75.1218376159668
 31
0.0
  0
LINE
  5
   1A8
  8
0
  6
CONTINUOUS
 62
     7
 10
-447.840626887962
 20
-28.0762837813574
 30
0.0
 11
-448.361571317913
 21
-25.1218605041504
 31
0.0
  0
LINE
  5
   1A9
  8
0
  6
CONTINUOUS
 62
     7
 10
-448.361571317913
 20
-25.1218605041504
 30
0.0
 11
-448.882515747865
 21
-28.0762837813574
 31
0.0
  0
LINE
  5
   1AA
  8
0
  6
CONTINUOUS
 62
     7
 10
-448.882515747865
 20
-72.1674143387598
 30
0.0
 11
-448.361571317913
 21
-75.1218376159668
 31
0.0
  0
LINE
  5
   1AB
  8
0
  6
CONTINUOUS
 62
     7
 10
-448.361571317913
 20
-75.1218376159668
 30
0.0
 11
-447.840626887962
 21
-72.1674143387598
 31
0.0
  0
ENDBLK
  5
   1AC
  8
0
  6
CONTINUOUS
 62
     7
  0
BLOCK
  5
   1AD
  8
0
  6
CONTINUOUS
 62
     7
  2
*UDIM141
 70
    65
 10
0.0
 20
0.0
 30
0.0
  3
*UDIM141
  0
TEXT
  5
   1AE
  8
0
  6
CONTINUOUS
 62
     7
 10
-442.584046374312
 20
-65.8968490935658
 30
0.0
 40
3.00000002980232
  1
48
 50
449.999999896069
 41
0.933333333333333
 72
     1
 11
-444.084046384694
 21
-63.3968490660191
 31
0.0
 73
     2
  0
LINE
  5
   1AF
  8
0
  6
CONTINUOUS
 62
     7
 10
-414.848033261136
 20
-51.1218605041504
 30
0.0
 11
-443.584046369793
 21
-51.1218605041504
 31
0.0
  0
LINE
  5
   1B0
  8
0
  6
CONTINUOUS
 62
     7
 10
-438.598065686063
 20
-75.1218376159668
 30
0.0
 11
-443.584046369793
 21
-75.1218376159668
 31
0.0
  0
LINE
  5
   1B1
  8
0
  6
CONTINUOUS
 62
     7
 10
-441.584046369793
 20
-51.1218605041504
 30
0.0
 11
-441.584046369793
 21
-75.1218376159668
 31
0.0
  0
LINE
  5
   1B2
  8
0
  6
CONTINUOUS
 62
     7
 10
-441.063101939841
 20
-54.0762837813574
 30
0.0
 11
-441.584046369793
 21
-51.1218605041504
 31
0.0
  0
LINE
  5
   1B3
  8
0
  6
CONTINUOUS
 62
     7
 10
-441.584046369793
 20
-51.1218605041504
 30
0.0
 11
-442.104990799745
 21
-54.0762837813574
 31
0.0
  0
LINE
  5
   1B4
  8
0
  6
CONTINUOUS
 62
     7
 10
-442.104990799745
 20
-72.1674143387598
 30
0.0
 11
-441.584046369793
 21
-75.1218376159668
 31
0.0
  0
LINE
  5
   1B5
  8
0
  6
CONTINUOUS
 62
     7
 10
-441.584046369793
 20
-75.1218376159668
 30
0.0
 11
-441.063101939841
 21
-72.1674143387598
 31
0.0
  0
ENDBLK
  5
   1B6
  8
0
  6
CONTINUOUS
 62
     7
  0
BLOCK
  5
   1B7
  8
0
  6
CONTINUOUS
 62
     7
  2
*UDIM142
 70
    65
 10
0.0
 20
0.0
 30
0.0
  3
*UDIM142
  0
TEXT
  5
   1B8
  8
0
  6
CONTINUOUS
 62
     7
 10
-388.373022476402
 20
-107.846443171747
 30
0.0
 40
3.00000002980232
  1
35
 50
359.999999896069
 41
0.933333333333333
 72
     1
 11
-385.873022448854
 21
-106.346443161368
 31
0.0
 73
     2
  0
LINE
  5
   1B9
  8
0
  6
CONTINUOUS
 62
     7
 10
-376.848025631742
 20
-104.072155283585
 30
0.0
 11
-376.848025631742
 21
-110.84644317627
 31
0.0
  0
LINE
  5
   1BA
  8
0
  6
CONTINUOUS
 62
     7
 10
-394.348025631742
 20
-104.072155283585
 30
0.0
 11
-394.348025631742
 21
-110.84644317627
 31
0.0
  0
LINE
  5
   1BB
  8
0
  6
CONTINUOUS
 62
     7
 10
-376.848025631742
 20
-108.84644317627
 30
0.0
 11
-394.348025631742
 21
-108.84644317627
 31
0.0
  0
LINE
  5
   1BC
  8
0
  6
CONTINUOUS
 62
     7
 10
-379.802448908949
 20
-109.367387606221
 30
0.0
 11
-376.848025631742
 21
-108.84644317627
 31
0.0
  0
LINE
  5
   1BD
  8
0
  6
CONTINUOUS
 62
     7
 10
-376.848025631742
 20
-108.84644317627
 30
0.0
 11
-379.802448908949
 21
-108.325498746318
 31
0.0
  0
LINE
  5
   1BE
  8
0
  6
CONTINUOUS
 62
     7
 10
-391.393602354535
 20
-108.325498746318
 30
0.0
 11
-394.348025631742
 21
-108.84644317627
 31
0.0
  0
LINE
  5
   1BF
  8
0
  6
CONTINUOUS
 62
     7
 10
-394.348025631742
 20
-108.84644317627
 30
0.0
 11
-391.393602354535
 21
-109.367387606221
 31
0.0
  0
ENDBLK
  5
   1C0
  8
0
  6
CONTINUOUS
 62
     7
  0
BLOCK
  5
   1C1
  8
0
  6
CONTINUOUS
 62
     7
  2
*UDIM143
 70
    65
 10
0.0
 20
0.0
 30
0.0
  3
*UDIM143
  0
TEXT
  5
   1C2
  8
0
  6
CONTINUOUS
 62
     7
 10
-405.873022476402
 20
-107.846443171747
 30
0.0
 40
3.00000002980232
  1
35
 50
359.999999896069
 41
0.933333333333333
 72
     1
 11
-403.373022448854
 21
-106.346443161368
 31
0.0
 73
     2
  0
LINE
  5
   1C3
  8
0
  6
CONTINUOUS
 62
     7
 10
-411.848025631742
 20
-104.18866523163
 30
0.0
 11
-411.848025631742
 21
-110.84644317627
 31
0.0
  0
LINE
  5
   1C4
  8
0
  6
CONTINUOUS
 62
     7
 10
-394.348025631742
 20
-108.84644317627
 30
0.0
 11
-411.848025631742
 21
-108.84644317627
 31
0.0
  0
LINE
  5
   1C5
  8
0
  6
CONTINUOUS
 62
     7
 10
-397.302448908949
 20
-109.367387606221
 30
0.0
 11
-394.348025631742
 21
-108.84644317627
 31
0.0
  0
LINE
  5
   1C6
  8
0
  6
CONTINUOUS
 62
     7
 10
-394.348025631742
 20
-108.84644317627
 30
0.0
 11
-397.302448908949
 21
-108.325498746318
 31
0.0
  0
LINE
  5
   1C7
  8
0
  6
CONTINUOUS
 62
     7
 10
-408.893602354535
 20
-108.325498746318
 30
0.0
 11
-411.848025631742
 21
-108.84644317627
 31
0.0
  0
LINE
  5
   1C8
  8
0
  6
CONTINUOUS
 62
     7
 10
-411.848025631742
 20
-108.84644317627
 30
0.0
 11
-408.893602354535
 21
-109.367387606221
 31
0.0
  0
ENDBLK
  5
   1C9
  8
0
  6
CONTINUOUS
 62
     7
  0
BLOCK
  5
   1CA
  8
0
  6
CONTINUOUS
 62
     7
  2
*UDIM144
 70
    65
 10
0.0
 20
0.0
 30
0.0
  3
*UDIM144
  0
TEXT
  5
   1CB
  8
0
  6
CONTINUOUS
 62
     7
 10
-423.373022476402
 20
-107.846443171747
 30
0.0
 40
3.00000002980232
  1
35
 50
359.999999896069
 41
0.933333333333333
 72
     1
 11
-420.873022448854
 21
-106.346443161368
 31
0.0
 73
     2
  0
LINE
  5
   1CC
  8
0
  6
CONTINUOUS
 62
     7
 10
-429.348025631742
 20
-104.072155283585
 30
0.0
 11
-429.348025631742
 21
-110.84644317627
 31
0.0
  0
LINE
  5
   1CD
  8
0
  6
CONTINUOUS
 62
     7
 10
-411.848025631742
 20
-108.84644317627
 30
0.0
 11
-429.348025631742
 21
-108.84644317627
 31
0.0
  0
LINE
  5
   1CE
  8
0
  6
CONTINUOUS
 62
     7
 10
-414.802448908949
 20
-109.367387606221
 30
0.0
 11
-411.848025631742
 21
-108.84644317627
 31
0.0
  0
LINE
  5
   1CF
  8
0
  6
CONTINUOUS
 62
     7
 10
-411.848025631742
 20
-108.84644317627
 30
0.0
 11
-414.802448908949
 21
-108.325498746318
 31
0.0
  0
LINE
  5
   1D0
  8
0
  6
CONTINUOUS
 62
     7
 10
-426.393602354535
 20
-108.325498746318
 30
0.0
 11
-429.348025631742
 21
-108.84644317627
 31
0.0
  0
LINE
  5
   1D1
  8
0
  6
CONTINUOUS
 62
     7
 10
-429.348025631742
 20
-108.84644317627
 30
0.0
 11
-426.393602354535
 21
-109.367387606221
 31
0.0
  0
ENDBLK
  5
   1D2
  8
0
  6
CONTINUOUS
 62
     7
  0
BLOCK
  5
   1D3
  8
0
  6
CONTINUOUS
 62
     7
  2
*UDIM145
 70
    65
 10
0.0
 20
0.0
 30
0.0
  3
*UDIM145
  0
TEXT
  5
   1D4
  8
0
  6
CONTINUOUS
 62
     7
 10
-260.334287640715
 20
106.14619723773
 30
0.0
 40
3.00000002980232
  1
8
 50
406.249477420785
 41
0.933333333333334
 72
     1
 11
-260.657152517662
 21
107.978070142704
 31
0.0
 73
     2
  0
TEXT
  5
   1D5
  8
0
  6
CONTINUOUS
 62
     7
 10
-262.512574520745
 20
103.870770611606
 30
0.0
 40
3.00000002980232
  1
Ø
 50
406.249477420785
 41
0.933333333333334
 72
     1
 11
-262.835439397692
 21
105.70264351658
 31
0.0
 73
     2
  0
TEXT
  5
   1D6
  8
0
  6
CONTINUOUS
 62
     7
 10
-274.095528662082
 20
91.7712797483391
 30
0.0
 40
3.00000002980232
  1
3 fori
 50
406.249477420785
 41
0.933333333333333
 72
     1
 11
-269.577755981299
 21
98.6596562880636
 31
0.0
 73
     2
  0
LINE
  5
   1D7
  8
0
  6
CONTINUOUS
 62
     7
 10
-258.090586750818
 20
107.0438644571
 30
0.0
 11
-282.557547474304
 21
81.4858103729763
 31
0.0
  0
LINE
  5
   1D8
  8
0
  6
CONTINUOUS
 62
     7
 10
-279.507774659728
 20
85.4249192681832
 30
0.0
 11
-281.174508189758
 21
82.930525686594
 31
0.0
  0
LINE
  5
   1D9
  8
0
  6
CONTINUOUS
 62
     7
 10
-281.174508189758
 20
82.930525686594
 30
0.0
 11
-278.755158264233
 21
84.7044326564944
 31
0.0
  0
LINE
  5
   1DA
  8
0
  6
CONTINUOUS
 62
     7
 10
-284.224281004335
 20
78.9914167913872
 30
0.0
 11
-282.557547474304
 21
81.4858103729763
 31
0.0
  0
LINE
  5
   1DB
  8
0
  6
CONTINUOUS
 62
     7
 10
-282.557547474304
 20
81.4858103729763
 30
0.0
 11
-284.97689739983
 21
79.7119034030759
 31
0.0
  0
ENDBLK
  5
   1DC
  8
0
  6
CONTINUOUS
 62
     7
  0
BLOCK
  5
   1DD
  8
0
  6
CONTINUOUS
 62
     7
  2
*UDIM146
 70
    65
 10
0.0
 20
0.0
 30
0.0
  3
*UDIM146
  0
TEXT
  5
   1DE
  8
0
  6
CONTINUOUS
 62
     7
 10
-269.855245010997
 20
36.5906501284767
 30
0.0
 40
3.00000002980232
  1
7
 50
316.239335107972
 41
0.933333333333334
 72
     1
 11
-268.023314982232
 21
36.9131907281714
 31
0.0
 73
     2
  0
TEXT
  5
   1DF
  8
0
  6
CONTINUOUS
 62
     7
 10
-272.744185971493
 20
39.3572401532526
 30
0.0
 40
3.00000002980232
  1
Ø
 50
316.239335107972
 41
1.2
 72
     1
 11
-270.623361846637
 21
39.4031217490763
 31
0.0
 73
     2
  0
LINE
  5
   1E0
  8
0
  6
CONTINUOUS
 62
     7
 10
-286.109159837249
 20
50.7715970972472
 30
0.0
 11
-268.957974978334
 21
34.3467903715954
 31
0.0
  0
LINE
  5
   1E1
  8
0
  6
CONTINUOUS
 62
     7
 10
-285.127895308487
 20
48.7568154235945
 30
0.0
 11
-282.497983662596
 21
47.3133595930242
 31
0.0
  0
LINE
  5
   1E2
  8
0
  6
CONTINUOUS
 62
     7
 10
-282.497983662596
 20
47.3133595930242
 30
0.0
 11
-284.053826004987
 21
49.8783848571537
 31
0.0
  0
LINE
  5
   1E3
  8
0
  6
CONTINUOUS
 62
     7
 10
-278.604160355576
 20
44.6595206359758
 30
0.0
 11
-281.234072001467
 21
46.1029764665461
 31
0.0
  0
LINE
  5
   1E4
  8
0
  6
CONTINUOUS
 62
     7
 10
-281.234072001467
 20
46.1029764665461
 30
0.0
 11
-279.678229659076
 21
43.5379512024167
 31
0.0
  0
ENDBLK
  5
   1E5
  8
0
  6
CONTINUOUS
 62
     7
  0
BLOCK
  5
   1E6
  8
0
  6
CONTINUOUS
 62
     7
  2
*UDIM147
 70
    65
 10
0.0
 20
0.0
 30
0.0
  3
*UDIM147
  0
TEXT
  5
   1E7
  8
0
  6
CONTINUOUS
 62
     7
 10
-324.473061910107
 20
93.8776199443323
 30
0.0
 40
3.00000002980232
  1
7
 50
317.743488334325
 41
0.933333333333334
 72
     1
 11
-322.650229619633
 21
94.2481364885682
 31
0.0
 73
     2
  0
TEXT
  5
   1E8
  8
0
  6
CONTINUOUS
 62
     7
 10
-327.433628771613
 20
96.5674236726686
 30
0.0
 40
3.00000002980232
  1
Ø
 50
317.743488334325
 41
1.2
 72
     1
 11
-325.314739794911
 21
96.668959842679
 31
0.0
 73
     2
  0
LINE
  5
   1E9
  8
0
  6
CONTINUOUS
 62
     7
 10
-328.10607969821
 20
95.827281956868
 30
0.0
 11
-308.767695285519
 21
78.2575188344071
 31
0.0
  0
LINE
  5
   1EA
  8
0
  6
CONTINUOUS
 62
     7
 10
-316.430547137182
 20
84.1704874110026
 30
0.0
 11
-313.76365182832
 21
82.7965625907989
 31
0.0
  0
LINE
  5
   1EB
  8
0
  6
CONTINUOUS
 62
     7
 10
-313.76365182832
 20
82.7965625907989
 30
0.0
 11
-315.38628846816
 21
85.3198640660587
 31
0.0
  0
LINE
  5
   1EC
  8
0
  6
CONTINUOUS
 62
     7
 10
-309.801508526881
 20
80.2458486485677
 30
0.0
 11
-312.468403835742
 21
81.6197734687715
 31
0.0
  0
LINE
  5
   1ED
  8
0
  6
CONTINUOUS
 62
     7
 10
-312.468403835742
 20
81.6197734687715
 30
0.0
 11
-310.845767195902
 21
79.0964719935117
 31
0.0
  0
ENDBLK
  5
   1EE
  8
0
  6
CONTINUOUS
 62
     7
  0
BLOCK
  5
   1EF
  8
0
  6
CONTINUOUS
 62
     7
  2
*UDIM148
 70
    65
 10
0.0
 20
0.0
 30
0.0
  3
*UDIM148
  0
TEXT
  5
   1F0
  8
0
  6
CONTINUOUS
 62
     7
 10
-300.605701408133
 20
21.8654747343331
 30
0.0
 40
3.00000002980232
  1
R min.200
 50
359.999999844103
 41
0.933333333333333
 72
     1
 11
-288.30570128187
 21
23.3654747158289
 31
0.0
 73
     2
  0
LINE
  5
   1F1
  8
0
  6
CONTINUOUS
 62
     7
 10
-302.116027832031
 20
40.3129867122337
 30
0.0
 11
-302.116027832031
 21
18.8654747009277
 31
0.0
  0
LINE
  5
   1F2
  8
0
  6
CONTINUOUS
 62
     7
 10
-274.15027796476
 20
27.6931777627291
 30
0.0
 11
-274.15027796476
 21
18.8654747009277
 31
0.0
  0
LINE
  5
   1F3
  8
0
  6
CONTINUOUS
 62
     7
 10
-302.116027832031
 20
20.8654747009277
 30
0.0
 11
-274.15027796476
 21
20.8654747009277
 31
0.0
  0
LINE
  5
   1F4
  8
0
  6
CONTINUOUS
 62
     7
 10
-305.070451109238
 20
20.3445302709761
 30
0.0
 11
-302.116027832031
 21
20.8654747009277
 31
0.0
  0
LINE
  5
   1F5
  8
0
  6
CONTINUOUS
 62
     7
 10
-302.116027832031
 20
20.8654747009277
 30
0.0
 11
-305.070451109238
 21
21.3864191308794
 31
0.0
  0
LINE
  5
   1F6
  8
0
  6
CONTINUOUS
 62
     7
 10
-271.195854687553
 20
21.3864191308794
 30
0.0
 11
-274.15027796476
 21
20.8654747009277
 31
0.0
  0
LINE
  5
   1F7
  8
0
  6
CONTINUOUS
 62
     7
 10
-274.15027796476
 20
20.8654747009277
 30
0.0
 11
-271.195854687553
 21
20.3445302709761
 31
0.0
  0
ENDBLK
  5
   1F8
  8
0
  6
CONTINUOUS
 62
     7
  0
BLOCK
  5
   1F9
  8
0
  6
CONTINUOUS
 62
     7
  2
*UDIM149
 70
    65
 10
0.0
 20
0.0
 30
0.0
  3
*UDIM149
  0
TEXT
  5
   1FA
  8
0
  6
CONTINUOUS
 62
     7
 10
-339.655948653304
 20
67.945667967102
 30
0.0
 40
3.00000002980232
  1
72,5
 50
449.999999844103
 41
0.933333333333333
 72
     1
 11
-341.155948653817
 21
73.2456680238247
 31
0.0
 73
     2
  0
LINE
  5
   1FB
  8
0
  6
CONTINUOUS
 62
     7
 10
-310.411027832031
 20
82.5831680297852
 30
0.0
 11
-340.655948638916
 21
82.5831680297852
 31
0.0
  0
LINE
  5
   1FC
  8
0
  6
CONTINUOUS
 62
     7
 10
-330.576752595175
 20
64.4581680297852
 30
0.0
 11
-340.655948638916
 21
64.4581680297852
 31
0.0
  0
LINE
  5
   1FD
  8
0
  6
CONTINUOUS
 62
     7
 10
-338.655948638916
 20
82.5831680297852
 30
0.0
 11
-338.655948638916
 21
64.4581680297852
 31
0.0
  0
LINE
  5
   1FE
  8
0
  6
CONTINUOUS
 62
     7
 10
-338.135004208964
 20
79.6287447525782
 30
0.0
 11
-338.655948638916
 21
82.5831680297852
 31
0.0
  0
LINE
  5
   1FF
  8
0
  6
CONTINUOUS
 62
     7
 10
-338.655948638916
 20
82.5831680297852
 30
0.0
 11
-339.176893068868
 21
79.6287447525782
 31
0.0
  0
LINE
  5
   200
  8
0
  6
CONTINUOUS
 62
     7
 10
-339.176893068868
 20
67.4125913069921
 30
0.0
 11
-338.655948638916
 21
64.4581680297852
 31
0.0
  0
LINE
  5
   201
  8
0
  6
CONTINUOUS
 62
     7
 10
-338.655948638916
 20
64.4581680297852
 30
0.0
 11
-338.135004208964
 21
67.4125913069921
 31
0.0
  0
ENDBLK
  5
   202
  8
0
  6
CONTINUOUS
 62
     7
  0
BLOCK
  5
   203
  8
0
  6
CONTINUOUS
 62
     7
  2
*UDIM150
 70
    65
 10
0.0
 20
0.0
 30
0.0
  3
*UDIM150
  0
TEXT
  5
   204
  8
0
  6
CONTINUOUS
 62
     7
 10
-293.392793684305
 20
93.3157253333278
 30
0.0
 40
3.00000002980232
  1
45
 50
359.999999844103
 41
0.933333333333333
 72
     1
 11
-290.892793655396
 21
94.8157253414393
 31
0.0
 73
     2
  0
LINE
  5
   205
  8
0
  6
CONTINUOUS
 62
     7
 10
-307.741027832031
 20
85.2531680297852
 30
0.0
 11
-307.741027832031
 21
94.3157253265381
 31
0.0
  0
LINE
  5
   206
  8
0
  6
CONTINUOUS
 62
     7
 10
-296.491027832031
 20
85.2531680297852
 30
0.0
 11
-296.491027832031
 21
94.3157253265381
 31
0.0
  0
LINE
  5
   207
  8
0
  6
CONTINUOUS
 62
     7
 10
-307.741027832031
 20
92.3157253265381
 30
0.0
 11
-288.39279363056
 21
92.3157253265381
 31
0.0
  0
LINE
  5
   208
  8
0
  6
CONTINUOUS
 62
     7
 10
-310.695451109238
 20
91.7947808965864
 30
0.0
 11
-307.741027832031
 21
92.3157253265381
 31
0.0
  0
LINE
  5
   209
  8
0
  6
CONTINUOUS
 62
     7
 10
-307.741027832031
 20
92.3157253265381
 30
0.0
 11
-310.695451109238
 21
92.8366697564898
 31
0.0
  0
LINE
  5
   20A
  8
0
  6
CONTINUOUS
 62
     7
 10
-293.536604554824
 20
92.8366697564898
 30
0.0
 11
-296.491027832031
 21
92.3157253265381
 31
0.0
  0
LINE
  5
   20B
  8
0
  6
CONTINUOUS
 62
     7
 10
-296.491027832031
 20
92.3157253265381
 30
0.0
 11
-293.536604554824
 21
91.7947808965864
 31
0.0
  0
ENDBLK
  5
   20C
  8
0
  6
CONTINUOUS
 62
     7
  0
BLOCK
  5
   20D
  8
0
  6
CONTINUOUS
 62
     7
  2
*UDIM151
 70
    65
 10
0.0
 20
0.0
 30
0.0
  3
*UDIM151
  0
TEXT
  5
   20E
  8
0
  6
CONTINUOUS
 62
     7
 10
-264.006671923706
 20
67.3581683406244
 30
0.0
 40
3.00000002980232
  1
27,25
 50
449.999999844103
 41
0.933333333333333
 72
     1
 11
-265.506671920419
 21
74.0581684112549
 31
0.0
 73
     2
  0
LINE
  5
   20F
  8
0
  6
CONTINUOUS
 62
     7
 10
-273.123299531894
 20
64.4581680297852
 30
0.0
 11
-261.006671905518
 21
64.4581680297852
 31
0.0
  0
LINE
  5
   210
  8
0
  6
CONTINUOUS
 62
     7
 10
-275.86072143259
 20
57.6456680297852
 30
0.0
 11
-261.006671905518
 21
57.6456680297852
 31
0.0
  0
LINE
  5
   211
  8
0
  6
CONTINUOUS
 62
     7
 10
-263.006671905518
 20
80.7581684778134
 30
0.0
 11
-263.006671905518
 21
57.6456680297852
 31
0.0
  0
LINE
  5
   212
  8
0
  6
CONTINUOUS
 62
     7
 10
-263.527616335469
 20
67.4125913069921
 30
0.0
 11
-263.006671905518
 21
64.4581680297852
 31
0.0
  0
LINE
  5
   213
  8
0
  6
CONTINUOUS
 62
     7
 10
-263.006671905518
 20
64.4581680297852
 30
0.0
 11
-262.485727475566
 21
67.4125913069921
 31
0.0
  0
LINE
  5
   214
  8
0
  6
CONTINUOUS
 62
     7
 10
-262.485727475566
 20
54.6912447525782
 30
0.0
 11
-263.006671905518
 21
57.6456680297852
 31
0.0
  0
LINE
  5
   215
  8
0
  6
CONTINUOUS
 62
     7
 10
-263.006671905518
 20
57.6456680297852
 30
0.0
 11
-263.527616335469
 21
54.6912447525782
 31
0.0
  0
ENDBLK
  5
   216
  8
0
  6
CONTINUOUS
 62
     7
  0
BLOCK
  5
   217
  8
0
  6
CONTINUOUS
 62
     7
  2
*UDIM152
 70
    65
 10
0.0
 20
0.0
 30
0.0
  3
*UDIM152
  0
TEXT
  5
   218
  8
0
  6
CONTINUOUS
 62
     7
 10
-258.406894686824
 20
72.8914337246627
 30
0.0
 40
3.00000002980232
  1
=
 50
449.999999844103
 41
0.933333333333334
 72
     1
 11
-259.906894698739
 21
73.9914337396622
 31
0.0
 73
     2
  0
LINE
  5
   219
  8
0
  6
CONTINUOUS
 62
     7
 10
-279.241027832031
 20
82.2081680297852
 30
0.0
 11
-255.406894683838
 21
82.2081680297852
 31
0.0
  0
LINE
  5
   21A
  8
0
  6
CONTINUOUS
 62
     7
 10
-279.241027832031
 20
64.4581680297852
 30
0.0
 11
-255.406894683838
 21
64.4581680297852
 31
0.0
  0
LINE
  5
   21B
  8
0
  6
CONTINUOUS
 62
     7
 10
-257.406894683838
 20
82.2081680297852
 30
0.0
 11
-257.406894683838
 21
64.4581680297852
 31
0.0
  0
LINE
  5
   21C
  8
0
  6
CONTINUOUS
 62
     7
 10
-256.885950253886
 20
79.2537447525782
 30
0.0
 11
-257.406894683838
 21
82.2081680297852
 31
0.0
  0
LINE
  5
   21D
  8
0
  6
CONTINUOUS
 62
     7
 10
-257.406894683838
 20
82.2081680297852
 30
0.0
 11
-257.92783911379
 21
79.2537447525782
 31
0.0
  0
LINE
  5
   21E
  8
0
  6
CONTINUOUS
 62
     7
 10
-257.92783911379
 20
67.4125913069921
 30
0.0
 11
-257.406894683838
 21
64.4581680297852
 31
0.0
  0
LINE
  5
   21F
  8
0
  6
CONTINUOUS
 62
     7
 10
-257.406894683838
 20
64.4581680297852
 30
0.0
 11
-256.885950253886
 21
67.4125913069921
 31
0.0
  0
ENDBLK
  5
   220
  8
0
  6
CONTINUOUS
 62
     7
  0
BLOCK
  5
   221
  8
0
  6
CONTINUOUS
 62
     7
  2
*UDIM153
 70
    65
 10
0.0
 20
0.0
 30
0.0
  3
*UDIM153
  0
TEXT
  5
   222
  8
0
  6
CONTINUOUS
 62
     7
 10
-258.406894686824
 20
55.1414337246627
 30
0.0
 40
3.00000002980232
  1
=
 50
449.999999844103
 41
0.933333333333334
 72
     1
 11
-259.906894698739
 21
56.2414337396622
 31
0.0
 73
     2
  0
LINE
  5
   223
  8
0
  6
CONTINUOUS
 62
     7
 10
-279.241027832031
 20
46.7081680297852
 30
0.0
 11
-255.406894683838
 21
46.7081680297852
 31
0.0
  0
LINE
  5
   224
  8
0
  6
CONTINUOUS
 62
     7
 10
-257.406894683838
 20
64.4581680297852
 30
0.0
 11
-257.406894683838
 21
46.7081680297852
 31
0.0
  0
LINE
  5
   225
  8
0
  6
CONTINUOUS
 62
     7
 10
-256.885950253886
 20
61.5037447525782
 30
0.0
 11
-257.406894683838
 21
64.4581680297852
 31
0.0
  0
LINE
  5
   226
  8
0
  6
CONTINUOUS
 62
     7
 10
-257.406894683838
 20
64.4581680297852
 30
0.0
 11
-257.92783911379
 21
61.5037447525782
 31
0.0
  0
LINE
  5
   227
  8
0
  6
CONTINUOUS
 62
     7
 10
-257.92783911379
 20
49.6625913069921
 30
0.0
 11
-257.406894683838
 21
46.7081680297852
 31
0.0
  0
LINE
  5
   228
  8
0
  6
CONTINUOUS
 62
     7
 10
-257.406894683838
 20
46.7081680297852
 30
0.0
 11
-256.885950253886
 21
49.6625913069921
 31
0.0
  0
ENDBLK
  5
   229
  8
0
  6
CONTINUOUS
 62
     7
  0
BLOCK
  5
   22A
  8
0
  6
CONTINUOUS
 62
     7
  2
*UDIM154
 70
    65
 10
0.0
 20
0.0
 30
0.0
  3
*UDIM154
  0
TEXT
  5
   22B
  8
0
  6
CONTINUOUS
 62
     7
 10
-332.259366999723
 20
60.2831679810097
 30
0.0
 40
3.00000002980232
  1
126
 50
449.999999844103
 41
0.933333333333333
 72
     1
 11
-333.759367004037
 21
64.1831680238247
 31
0.0
 73
     2
  0
LINE
  5
   22C
  8
0
  6
CONTINUOUS
 62
     7
 10
-321.116027832031
 20
80.2081680297852
 30
0.0
 11
-333.259366989136
 21
80.2081680297852
 31
0.0
  0
LINE
  5
   22D
  8
0
  6
CONTINUOUS
 62
     7
 10
-321.116027832031
 20
48.7081680297852
 30
0.0
 11
-333.259366989136
 21
48.7081680297852
 31
0.0
  0
LINE
  5
   22E
  8
0
  6
CONTINUOUS
 62
     7
 10
-331.259366989136
 20
80.2081680297852
 30
0.0
 11
-331.259366989136
 21
48.7081680297852
 31
0.0
  0
LINE
  5
   22F
  8
0
  6
CONTINUOUS
 62
     7
 10
-330.738422559184
 20
77.2537447525782
 30
0.0
 11
-331.259366989136
 21
80.2081680297852
 31
0.0
  0
LINE
  5
   230
  8
0
  6
CONTINUOUS
 62
     7
 10
-331.259366989136
 20
80.2081680297852
 30
0.0
 11
-331.780311419087
 21
77.2537447525782
 31
0.0
  0
LINE
  5
   231
  8
0
  6
CONTINUOUS
 62
     7
 10
-331.780311419087
 20
51.6625913069921
 30
0.0
 11
-331.259366989136
 21
48.7081680297852
 31
0.0
  0
LINE
  5
   232
  8
0
  6
CONTINUOUS
 62
     7
 10
-331.259366989136
 20
48.7081680297852
 30
0.0
 11
-330.738422559184
 21
51.6625913069921
 31
0.0
  0
ENDBLK
  5
   233
  8
0
  6
CONTINUOUS
 62
     7
  0
BLOCK
  5
   234
  8
0
  6
CONTINUOUS
 62
     7
  2
*UDIM155
 70
    65
 10
0.0
 20
0.0
 30
0.0
  3
*UDIM155
  0
TEXT
  5
   235
  8
0
  6
CONTINUOUS
 62
     7
 10
-251.709880839445
 20
60.2831679810097
 30
0.0
 40
3.00000002980232
  1
142
 50
449.999999844103
 41
0.933333333333333
 72
     1
 11
-253.209880843759
 21
64.1831680238247
 31
0.0
 73
     2
  0
LINE
  5
   236
  8
0
  6
CONTINUOUS
 62
     7
 10
-310.491027832031
 20
82.2081680297852
 30
0.0
 11
-248.709880828857
 21
82.2081680297852
 31
0.0
  0
LINE
  5
   237
  8
0
  6
CONTINUOUS
 62
     7
 10
-279.241027832031
 20
46.7081680297852
 30
0.0
 11
-248.709880828857
 21
46.7081680297852
 31
0.0
  0
LINE
  5
   238
  8
0
  6
CONTINUOUS
 62
     7
 10
-250.709880828857
 20
82.2081680297852
 30
0.0
 11
-250.709880828857
 21
46.7081680297852
 31
0.0
  0
LINE
  5
   239
  8
0
  6
CONTINUOUS
 62
     7
 10
-250.188936398906
 20
79.2537447525782
 30
0.0
 11
-250.709880828857
 21
82.2081680297852
 31
0.0
  0
LINE
  5
   23A
  8
0
  6
CONTINUOUS
 62
     7
 10
-250.709880828857
 20
82.2081680297852
 30
0.0
 11
-251.230825258809
 21
79.2537447525782
 31
0.0
  0
LINE
  5
   23B
  8
0
  6
CONTINUOUS
 62
     7
 10
-251.230825258809
 20
49.6625913069921
 30
0.0
 11
-250.709880828857
 21
46.7081680297852
 31
0.0
  0
LINE
  5
   23C
  8
0
  6
CONTINUOUS
 62
     7
 10
-250.709880828857
 20
46.7081680297852
 30
0.0
 11
-250.188936398906
 21
49.6625913069921
 31
0.0
  0
ENDBLK
  5
   23D
  8
0
  6
CONTINUOUS
 62
     7
  0
BLOCK
  5
   23E
  8
0
  6
CONTINUOUS
 62
     7
  2
*UDIM156
 70
    65
 10
0.0
 20
0.0
 30
0.0
  3
*UDIM156
  0
TEXT
  5
   23F
  8
0
  6
CONTINUOUS
 62
     7
 10
-295.09855843269
 20
54.9559302935015
 30
0.0
 40
3.00000002980232
  1
16
 50
449.999999844103
 41
0.933333333333333
 72
     1
 11
-296.598558440805
 21
57.4559303224087
 31
0.0
 73
     2
  0
LINE
  5
   240
  8
0
  6
CONTINUOUS
 62
     7
 10
-287.366027832031
 20
59.6456680297852
 30
0.0
 11
-296.098558425903
 21
59.6456680297852
 31
0.0
  0
LINE
  5
   241
  8
0
  6
CONTINUOUS
 62
     7
 10
-287.366027832031
 20
55.6456680297852
 30
0.0
 11
-296.098558425903
 21
55.6456680297852
 31
0.0
  0
LINE
  5
   242
  8
0
  6
CONTINUOUS
 62
     7
 10
-294.098558425903
 20
59.955930347244
 30
0.0
 11
-294.098558425903
 21
54.9559302975734
 31
0.0
  0
LINE
  5
   243
  8
0
  6
CONTINUOUS
 62
     7
 10
-294.619502855855
 20
62.6000913069921
 30
0.0
 11
-294.098558425903
 21
59.6456680297852
 31
0.0
  0
LINE
  5
   244
  8
0
  6
CONTINUOUS
 62
     7
 10
-294.098558425903
 20
59.6456680297852
 30
0.0
 11
-293.577613995952
 21
62.6000913069921
 31
0.0
  0
LINE
  5
   245
  8
0
  6
CONTINUOUS
 62
     7
 10
-293.577613995952
 20
52.6912447525782
 30
0.0
 11
-294.098558425903
 21
55.6456680297852
 31
0.0
  0
LINE
  5
   246
  8
0
  6
CONTINUOUS
 62
     7
 10
-294.098558425903
 20
55.6456680297852
 30
0.0
 11
-294.619502855855
 21
52.6912447525782
 31
0.0
  0
ENDBLK
  5
   247
  8
0
  6
CONTINUOUS
 62
     7
  0
BLOCK
  5
   248
  8
0
  6
CONTINUOUS
 62
     7
  2
*UDIM157
 70
    65
 10
0.0
 20
0.0
 30
0.0
  3
*UDIM157
  0
TEXT
  5
   249
  8
0
  6
CONTINUOUS
 62
     7
 10
-293.141027866901
 20
69.0067493983455
 30
0.0
 40
3.00000002980232
  1
94
 50
359.999999844103
 41
0.933333333333333
 72
     1
 11
-290.641027837992
 21
70.506749406457
 31
0.0
 73
     2
  0
LINE
  5
   24A
  8
0
  6
CONTINUOUS
 62
     7
 10
-278.616027832031
 20
58.5206680297852
 30
0.0
 11
-278.616027832031
 21
70.0067493915558
 31
0.0
  0
LINE
  5
   24B
  8
0
  6
CONTINUOUS
 62
     7
 10
-302.116027832031
 20
68.0067493915558
 30
0.0
 11
-278.616027832031
 21
68.0067493915558
 31
0.0
  0
LINE
  5
   24C
  8
0
  6
CONTINUOUS
 62
     7
 10
-299.161604554824
 20
68.5276938215075
 30
0.0
 11
-302.116027832031
 21
68.0067493915558
 31
0.0
  0
LINE
  5
   24D
  8
0
  6
CONTINUOUS
 62
     7
 10
-302.116027832031
 20
68.0067493915558
 30
0.0
 11
-299.161604554824
 21
67.4858049616041
 31
0.0
  0
LINE
  5
   24E
  8
0
  6
CONTINUOUS
 62
     7
 10
-281.570451109238
 20
67.4858049616041
 30
0.0
 11
-278.616027832031
 21
68.0067493915558
 31
0.0
  0
LINE
  5
   24F
  8
0
  6
CONTINUOUS
 62
     7
 10
-278.616027832031
 20
68.0067493915558
 30
0.0
 11
-281.570451109238
 21
68.5276938215075
 31
0.0
  0
ENDBLK
  5
   250
  8
0
  6
CONTINUOUS
 62
     7
  0
BLOCK
  5
   251
  8
0
  6
CONTINUOUS
 62
     7
  2
*UDIM158
 70
    65
 10
0.0
 20
0.0
 30
0.0
  3
*UDIM158
  0
TEXT
  5
   252
  8
0
  6
CONTINUOUS
 62
     7
 10
-301.666027910611
 20
33.3999862776818
 30
0.0
 40
3.00000002980232
  1
125
 50
359.999999844103
 41
0.933333333333333
 72
     1
 11
-297.766027867794
 21
34.899986281991
 31
0.0
 73
     2
  0
LINE
  5
   253
  8
0
  6
CONTINUOUS
 62
     7
 10
-313.116027832031
 20
44.0831680297852
 30
0.0
 11
-313.116027832031
 21
30.3999862670898
 31
0.0
  0
LINE
  5
   254
  8
0
  6
CONTINUOUS
 62
     7
 10
-281.866027832031
 20
44.0831680297852
 30
0.0
 11
-281.866027832031
 21
30.3999862670898
 31
0.0
  0
LINE
  5
   255
  8
0
  6
CONTINUOUS
 62
     7
 10
-313.116027832031
 20
32.3999862670898
 30
0.0
 11
-281.866027832031
 21
32.3999862670898
 31
0.0
  0
LINE
  5
   256
  8
0
  6
CONTINUOUS
 62
     7
 10
-310.161604554824
 20
32.9209306970415
 30
0.0
 11
-313.116027832031
 21
32.3999862670898
 31
0.0
  0
LINE
  5
   257
  8
0
  6
CONTINUOUS
 62
     7
 10
-313.116027832031
 20
32.3999862670898
 30
0.0
 11
-310.161604554824
 21
31.8790418371382
 31
0.0
  0
LINE
  5
   258
  8
0
  6
CONTINUOUS
 62
     7
 10
-284.820451109238
 20
31.8790418371382
 30
0.0
 11
-281.866027832031
 21
32.3999862670898
 31
0.0
  0
LINE
  5
   259
  8
0
  6
CONTINUOUS
 62
     7
 10
-281.866027832031
 20
32.3999862670898
 30
0.0
 11
-284.820451109238
 21
32.9209306970415
 31
0.0
  0
ENDBLK
  5
   25A
  8
0
  6
CONTINUOUS
 62
     7
  0
BLOCK
  5
   25B
  8
0
  6
CONTINUOUS
 62
     7
  2
*UDIM159
 70
    65
 10
0.0
 20
0.0
 30
0.0
  3
*UDIM159
  0
TEXT
  5
   25C
  8
0
  6
CONTINUOUS
 62
     7
 10
-294.766027866901
 20
40.5032405921169
 30
0.0
 40
3.00000002980232
  1
81
 50
359.999999844103
 41
0.933333333333333
 72
     1
 11
-292.266027837992
 21
42.0032406002283
 31
0.0
 73
     2
  0
LINE
  5
   25D
  8
0
  6
CONTINUOUS
 62
     7
 10
-302.116027832031
 20
40.3129867122337
 30
0.0
 11
-302.116027832031
 21
37.5032405853272
 31
0.0
  0
LINE
  5
   25E
  8
0
  6
CONTINUOUS
 62
     7
 10
-281.866027832031
 20
44.0831680297852
 30
0.0
 11
-281.866027832031
 21
37.5032405853272
 31
0.0
  0
LINE
  5
   25F
  8
0
  6
CONTINUOUS
 62
     7
 10
-302.116027832031
 20
39.5032405853271
 30
0.0
 11
-281.866027832031
 21
39.5032405853271
 31
0.0
  0
LINE
  5
   260
  8
0
  6
CONTINUOUS
 62
     7
 10
-299.161604554824
 20
40.0241850152788
 30
0.0
 11
-302.116027832031
 21
39.5032405853271
 31
0.0
  0
LINE
  5
   261
  8
0
  6
CONTINUOUS
 62
     7
 10
-302.116027832031
 20
39.5032405853271
 30
0.0
 11
-299.161604554824
 21
38.9822961553755
 31
0.0
  0
LINE
  5
   262
  8
0
  6
CONTINUOUS
 62
     7
 10
-284.820451109238
 20
38.9822961553755
 30
0.0
 11
-281.866027832031
 21
39.5032405853271
 31
0.0
  0
LINE
  5
   263
  8
0
  6
CONTINUOUS
 62
     7
 10
-281.866027832031
 20
39.5032405853271
 30
0.0
 11
-284.820451109238
 21
40.0241850152788
 31
0.0
  0
ENDBLK
  5
   264
  8
0
  6
CONTINUOUS
 62
     7
  0
BLOCK
  5
   265
  8
0
  6
CONTINUOUS
 62
     7
  2
*UDIM160
 70
    65
 10
0.0
 20
0.0
 30
0.0
  3
*UDIM160
  0
TEXT
  5
   266
  8
0
  6
CONTINUOUS
 62
     7
 10
-307.416027880809
 20
108.991432200533
 30
0.0
 40
3.00000002980232
  1
135
 50
359.999999844103
 41
0.933333333333333
 72
     1
 11
-303.516027837992
 21
110.491432204843
 31
0.0
 73
     2
  0
LINE
  5
   267
  8
0
  6
CONTINUOUS
 62
     7
 10
-320.116027832031
 20
81.2081680297852
 30
0.0
 11
-320.116027832031
 21
109.991432189941
 31
0.0
  0
LINE
  5
   268
  8
0
  6
CONTINUOUS
 62
     7
 10
-286.366027832031
 20
81.2081680297852
 30
0.0
 11
-286.366027832031
 21
109.991432189941
 31
0.0
  0
LINE
  5
   269
  8
0
  6
CONTINUOUS
 62
     7
 10
-320.116027832031
 20
107.991432189941
 30
0.0
 11
-286.366027832031
 21
107.991432189941
 31
0.0
  0
LINE
  5
   26A
  8
0
  6
CONTINUOUS
 62
     7
 10
-317.161604554824
 20
108.512376619893
 30
0.0
 11
-320.116027832031
 21
107.991432189941
 31
0.0
  0
LINE
  5
   26B
  8
0
  6
CONTINUOUS
 62
     7
 10
-320.116027832031
 20
107.991432189941
 30
0.0
 11
-317.161604554824
 21
107.47048775999
 31
0.0
  0
LINE
  5
   26C
  8
0
  6
CONTINUOUS
 62
     7
 10
-289.320451109238
 20
107.47048775999
 30
0.0
 11
-286.366027832031
 21
107.991432189941
 31
0.0
  0
LINE
  5
   26D
  8
0
  6
CONTINUOUS
 62
     7
 10
-286.366027832031
 20
107.991432189941
 30
0.0
 11
-289.320451109238
 21
108.512376619893
 31
0.0
  0
ENDBLK
  5
   26E
  8
0
  6
CONTINUOUS
 62
     7
  0
BLOCK
  5
   26F
  8
0
  6
CONTINUOUS
 62
     7
  2
*UDIM161
 70
    65
 10
0.0
 20
0.0
 30
0.0
  3
*UDIM161
  0
TEXT
  5
   270
  8
0
  6
CONTINUOUS
 62
     7
 10
-297.016028343738
 20
100.754333502883
 30
0.0
 40
3.00000002980232
  1
63
 50
359.999999844103
 41
0.933333333333333
 72
     1
 11
-294.516028314829
 21
102.254333510995
 31
0.0
 73
     2
  0
LINE
  5
   271
  8
0
  6
CONTINUOUS
 62
     7
 10
-302.116027832031
 20
91.0856591906403
 30
0.0
 11
-302.116027832031
 21
101.754333496094
 31
0.0
  0
LINE
  5
   272
  8
0
  6
CONTINUOUS
 62
     7
 10
-286.366027832031
 20
81.2081680297852
 30
0.0
 11
-286.366027832031
 21
101.754333496094
 31
0.0
  0
LINE
  5
   273
  8
0
  6
CONTINUOUS
 62
     7
 10
-302.116027832031
 20
99.7543334960938
 30
0.0
 11
-286.366027832031
 21
99.7543334960938
 31
0.0
  0
LINE
  5
   274
  8
0
  6
CONTINUOUS
 62
     7
 10
-299.161604554824
 20
100.275277926045
 30
0.0
 11
-302.116027832031
 21
99.7543334960938
 31
0.0
  0
LINE
  5
   275
  8
0
  6
CONTINUOUS
 62
     7
 10
-302.116027832031
 20
99.7543334960938
 30
0.0
 11
-299.161604554824
 21
99.2333890661421
 31
0.0
  0
LINE
  5
   276
  8
0
  6
CONTINUOUS
 62
     7
 10
-289.320451109238
 20
99.2333890661421
 30
0.0
 11
-286.366027832031
 21
99.7543334960938
 31
0.0
  0
LINE
  5
   277
  8
0
  6
CONTINUOUS
 62
     7
 10
-286.366027832031
 20
99.7543334960938
 30
0.0
 11
-289.320451109238
 21
100.275277926045
 31
0.0
  0
ENDBLK
  5
   278
  8
0
  6
CONTINUOUS
 62
     7
  0
BLOCK
  5
   279
  8
0
  6
CONTINUOUS
 62
     7
  2
*HATCH22
 70
    65
 10
0.0
 20
0.0
 30
0.0
  3
*HATCH22
  0
LINE
  5
   27A
  8
0
  6
CONTINUOUS
 62
    52
 10
-11.7279224395752
 20
1.0
 30
0.0
 11
-11.9763488769531
 21
0.75157368183136
 31
0.0
  0
LINE
  5
   27B
  8
0
  6
CONTINUOUS
 62
    52
 10
-9.60660171508789
 20
1.0
 30
0.0
 11
-11.6066026687622
 21
-1.0
 31
0.0
  0
LINE
  5
   27C
  8
0
  6
CONTINUOUS
 62
    52
 10
-7.48528146743774
 20
1.0
 30
0.0
 11
-9.48528289794922
 21
-1.0
 31
0.0
  0
LINE
  5
   27D
  8
0
  6
CONTINUOUS
 62
    52
 10
-5.3639612197876
 20
1.0
 30
0.0
 11
-7.36396265029907
 21
-1.0
 31
0.0
  0
LINE
  5
   27E
  8
0
  6
CONTINUOUS
 62
    52
 10
-3.47947335243225
 20
0.763167560100555
 30
0.0
 11
-5.24264097213745
 21
-1.0
 31
0.0
  0
LINE
  5
   27F
  8
0
  6
CONTINUOUS
 62
    52
 10
-2.51160907745361
 20
-0.390288293361664
 30
0.0
 11
-3.1213207244873
 21
-1.0
 31
0.0
  0
ENDBLK
  5
   280
  8
0
  6
CONTINUOUS
 62
     7
  0
BLOCK
  5
   281
  8
0
  6
CONTINUOUS
 62
     7
  2
*HATCH23
 70
    65
 10
0.0
 20
0.0
 30
0.0
  3
*HATCH23
  0
LINE
  5
   282
  8
0
  6
CONTINUOUS
 62
    52
 10
5.24264097213745
 20
1.0
 30
0.0
 11
3.24264073371887
 21
-1.0
 31
0.0
  0
LINE
  5
   283
  8
0
  6
CONTINUOUS
 62
    52
 10
7.3639612197876
 20
1.0
 30
0.0
 11
5.3639612197876
 21
-1.0
 31
0.0
  0
LINE
  5
   284
  8
0
  6
CONTINUOUS
 62
    52
 10
9.48528099060059
 20
1.0
 30
0.0
 11
7.4852819442749
 21
-1.0
 31
0.0
  0
ENDBLK
  5
   285
  8
0
  6
CONTINUOUS
 62
     7
  0
BLOCK
  5
   286
  8
0
  6
CONTINUOUS
 62
     7
  2
*UDIM162
 70
    65
 10
0.0
 20
0.0
 30
0.0
  3
*UDIM162
  0
TEXT
  5
   287
  8
0
  6
CONTINUOUS
 62
     7
 10
-469.923385618068
 20
-107.100965022102
 30
0.0
 40
3.00000002980232
  1
80
 50
449.160629333818
 41
0.933333333333333
 72
     1
 11
-471.386601529014
 21
-104.579259375751
 31
0.0
 73
     2
  0
TEXT
  5
   288
  8
0
  6
CONTINUOUS
 62
     7
 10
-470.450074960637
 20
-102.09271194985
 30
0.0
 40
3.00000002980232
  1
°
 50
449.160629333818
 41
0.933333333333334
 72
     1
 11
-471.933799832644
 21
-100.970856088818
 31
0.0
 73
     2
  0
LINE
  5
   289
  8
0
  6
CONTINUOUS
 62
     7
 10
-484.989204580319
 20
-107.525393610322
 30
0.0
 11
-472.312685195283
 21
-118.162256350917
 31
0.0
  0
LINE
  5
   28A
  8
0
  6
CONTINUOUS
 62
     7
 10
-484.989204580319
 20
-98.8834198662401
 30
0.0
 11
-472.312685195283
 21
-88.2465571256452
 31
0.0
  0
ARC
  5
   28B
  8
0
  6
CONTINUOUS
 62
     7
 10
-490.138756208626
 20
-103.204406738281
 30
0.0
 40
21.2702830409726
 50
319.999999815233
 51
399.999999769042
  0
LINE
  5
   28C
  8
0
  6
CONTINUOUS
 62
     7
 10
-472.344773990901
 20
-114.27860497251
 30
0.0
 11
-473.844774081521
 21
-116.876681131544
 31
0.0
  0
LINE
  5
   28D
  8
0
  6
CONTINUOUS
 62
     7
 10
-473.844774081521
 20
-116.876681131544
 30
0.0
 11
-471.546640819425
 21
-114.948318222327
 31
0.0
  0
LINE
  5
   28E
  8
0
  6
CONTINUOUS
 62
     7
 10
-471.546640819425
 20
-91.4604952542359
 30
0.0
 11
-473.844774081521
 21
-89.5321323450183
 31
0.0
  0
LINE
  5
   28F
  8
0
  6
CONTINUOUS
 62
     7
 10
-473.844774081521
 20
-89.5321323450183
 30
0.0
 11
-472.344773990901
 21
-92.1302085040522
 31
0.0
  0
ENDBLK
  5
   290
  8
0
  6
CONTINUOUS
 62
     7
  0
BLOCK
  5
   291
  8
0
  6
CONTINUOUS
 62
     7
  2
*UDIM163
 70
    65
 10
0.0
 20
0.0
 30
0.0
  3
*UDIM163
  0
TEXT
  5
   292
  8
0
  6
CONTINUOUS
 62
     7
 10
-508.20091629707
 20
-97.3193397811045
 30
0.0
 40
3.00000002980232
  1
Ø4
 50
449.999999844103
 41
0.933333333333333
 72
     1
 11
-509.700916305184
 21
-94.8193397521973
 31
0.0
 73
     2
  0
LINE
  5
   293
  8
0
  6
CONTINUOUS
 62
     7
 10
-488.755249023438
 20
-101.204406738281
 30
0.0
 11
-509.200916290283
 21
-101.204406738281
 31
0.0
  0
LINE
  5
   294
  8
0
  6
CONTINUOUS
 62
     7
 10
-488.755249023438
 20
-105.204406738281
 30
0.0
 11
-509.200916290283
 21
-105.204406738281
 31
0.0
  0
LINE
  5
   295
  8
0
  6
CONTINUOUS
 62
     7
 10
-507.200916290283
 20
-92.319339727362
 30
0.0
 11
-507.200916290283
 21
-105.204406738281
 31
0.0
  0
LINE
  5
   296
  8
0
  6
CONTINUOUS
 62
     7
 10
-507.721860720235
 20
-98.2499834610743
 30
0.0
 11
-507.200916290283
 21
-101.204406738281
 31
0.0
  0
LINE
  5
   297
  8
0
  6
CONTINUOUS
 62
     7
 10
-507.200916290283
 20
-101.204406738281
 30
0.0
 11
-506.679971860332
 21
-98.2499834610743
 31
0.0
  0
LINE
  5
   298
  8
0
  6
CONTINUOUS
 62
     7
 10
-506.679971860332
 20
-108.158830015488
 30
0.0
 11
-507.200916290283
 21
-105.204406738281
 31
0.0
  0
LINE
  5
   299
  8
0
  6
CONTINUOUS
 62
     7
 10
-507.200916290283
 20
-105.204406738281
 30
0.0
 11
-507.721860720235
 21
-108.158830015488
 31
0.0
  0
ENDBLK
  5
   29A
  8
0
  6
CONTINUOUS
 62
     7
  0
ENDSEC
  0
SECTION
  2
ENTITIES
  0
LINE
  5
   29B
  8
0
  6
CONTINUOUS
 62
     7
 10
-438.098045923409
 20
1.8839801549912
 30
0.0
 11
-438.098045923409
 21
84.0839786529542
 31
0.0
  0
LINE
  5
   29C
  8
0
  6
DASHDOT
 62
     7
 10
-394.348025631742
 20
-21.520559679004
 30
0.0
 11
-394.348025631742
 21
94.3364788960624
 31
0.0
  0
ARC
  5
   29D
  8
0
  6
CONTINUOUS
 62
     7
 10
-394.348068483576
 20
14.9840904924333
 30
0.0
 40
1.37489930370096
 50
152.967149289834
 51
387.032850606235
  0
LINE
  5
   29E
  8
0
  6
DASHDOT
 62
     7
 10
-392.341095895077
 20
14.9840904924333
 30
0.0
 11
-396.168934843263
 21
14.9840904924333
 31
0.0
  0
LINE
  5
   29F
  8
0
  6
CONTINUOUS
 62
     7
 10
-388.973025631742
 20
26.7339763641338
 30
0.0
 11
-388.973025631742
 21
46.7339687347393
 31
0.0
  0
LINE
  5
   2A0
  8
0
  6
CONTINUOUS
 62
     7
 10
-399.723025631742
 20
26.7339763641338
 30
0.0
 11
-399.723025631742
 21
46.7339687347393
 31
0.0
  0
LINE
  5
   2A1
  8
0
  6
CONTINUOUS
 62
     7
 10
-388.973025631742
 20
46.6017360687237
 30
0.0
 11
-399.723025631742
 21
46.6017360687237
 31
0.0
  0
LINE
  5
   2A2
  8
0
  6
CONTINUOUS
 62
     7
 10
-388.973025631742
 20
46.7339687347393
 30
0.0
 11
-399.723025631742
 21
46.7339687347393
 31
0.0
  0
LINE
  5
   2A3
  8
0
  6
CONTINUOUS
 62
     7
 10
-388.973025631742
 20
26.7339763641338
 30
0.0
 11
-399.723025631742
 21
26.7339763641338
 31
0.0
  0
LINE
  5
   2A4
  8
0
  6
CONTINUOUS
 62
     7
 10
-388.973025631742
 20
26.8662242889385
 30
0.0
 11
-399.723025631742
 21
26.8662242889385
 31
0.0
  0
LINE
  5
   2A5
  8
0
  6
CONTINUOUS
 62
     7
 10
-388.973025631742
 20
33.7966367188435
 30
0.0
 11
-399.723025631742
 21
33.7966367188435
 31
0.0
  0
LINE
  5
   2A6
  8
0
  6
CONTINUOUS
 62
     7
 10
-388.973025631742
 20
30.738403966035
 30
0.0
 11
-399.723025631742
 21
30.738403966035
 31
0.0
  0
LINE
  5
   2A7
  8
0
  6
CONTINUOUS
 62
     7
 10
-388.973025631742
 20
27.7644946529292
 30
0.0
 11
-399.723025631742
 21
27.7644946529292
 31
0.0
  0
LINE
  5
   2A8
  8
0
  6
CONTINUOUS
 62
     7
 10
-388.973025631742
 20
27.3631210890701
 30
0.0
 11
-399.723025631742
 21
27.3631210890701
 31
0.0
  0
LINE
  5
   2A9
  8
0
  6
CONTINUOUS
 62
     7
 10
-433.598026585416
 20
68.1089839935283
 30
0.0
 11
-438.098045923409
 21
68.1089839935283
 31
0.0
  0
LINE
  5
   2AA
  8
0
  6
CONTINUOUS
 62
     7
 10
-433.598026585416
 20
15.6089839935283
 30
0.0
 11
-438.098045923409
 21
15.6089839935283
 31
0.0
  0
LINE
  5
   2AB
  8
0
  6
CONTINUOUS
 62
     3
 10
-368.09803425942
 20
-0.141019821171911
 30
0.0
 11
-368.09803425942
 21
1.6090106964152
 31
0.0
  0
LINE
  5
   2AC
  8
0
  6
CONTINUOUS
 62
     7
 10
-368.723042203415
 20
86.7339801788379
 30
0.0
 11
-437.47303425942
 21
86.7339801788379
 31
0.0
  0
LINE
  5
   2AD
  8
0
  6
CONTINUOUS
 62
     7
 10
-433.598026585416
 20
72.2339878082374
 30
0.0
 11
-437.59803425942
 21
72.2339878082374
 31
0.0
  0
LINE
  5
   2AE
  8
0
  6
CONTINUOUS
 62
     7
 10
-368.098034259434
 20
82.1058597564738
 30
0.0
 11
-368.098034259434
 21
86.1089801788379
 31
0.0
  0
LINE
  5
   2AF
  8
0
  6
CONTINUOUS
 62
     7
 10
-438.09803425942
 20
72.7339878082325
 30
0.0
 11
-438.09803425942
 21
86.108980178838
 31
0.0
  0
LINE
  5
   2B0
  8
0
  6
CONTINUOUS
 62
     7
 10
-433.598026585416
 20
72.7339878082325
 30
0.0
 11
-437.97303425942
 21
72.7339878082325
 31
0.0
  0
LINE
  5
   2B1
  8
0
  6
CONTINUOUS
 62
     7
 10
-437.59803425942
 20
72.2339878082375
 30
0.0
 11
-437.59803425942
 21
72.7339878082375
 31
0.0
  0
LINE
  5
   2B2
  8
0
  6
CONTINUOUS
 62
     7
 10
-437.973034289223
 20
72.7339878082325
 30
0.0
 11
-438.09803425942
 21
72.7339878082325
 31
0.0
  0
LINE
  5
   2B3
  8
0
  6
CONTINUOUS
 62
     7
 10
-436.073034164053
 20
-0.766019821171918
 30
0.0
 11
-436.073034164053
 21
86.7339801788379
 31
0.0
  0
LINE
  5
   2B4
  8
0
  6
CONTINUOUS
 62
     7
 10
-432.47303425942
 20
-0.766019821171918
 30
0.0
 11
-432.47303425942
 21
1.6090106964152
 31
0.0
  0
LINE
  5
   2B5
  8
0
  6
CONTINUOUS
 62
     7
 10
-428.873035785299
 20
-0.766019821171918
 30
0.0
 11
-428.873035785299
 21
1.6090106964152
 31
0.0
  0
LINE
  5
   2B6
  8
0
  6
CONTINUOUS
 62
     7
 10
-423.47303425942
 20
-0.766019821171918
 30
0.0
 11
-423.47303425942
 21
1.6090106964152
 31
0.0
  0
LINE
  5
   2B7
  8
0
  6
CONTINUOUS
 62
     7
 10
-421.673038837057
 20
-0.766019821171918
 30
0.0
 11
-421.673038837057
 21
1.6090106964152
 31
0.0
  0
LINE
  5
   2B8
  8
0
  6
CONTINUOUS
 62
     7
 10
-419.873035785299
 20
82.1058597564738
 30
0.0
 11
-419.873035785299
 21
86.7339801788379
 31
0.0
  0
LINE
  5
   2B9
  8
0
  6
CONTINUOUS
 62
     7
 10
-418.073040362936
 20
82.1058597564738
 30
0.0
 11
-418.073040362936
 21
86.7339801788379
 31
0.0
  0
LINE
  5
   2BA
  8
0
  6
CONTINUOUS
 62
     7
 10
-416.273037311178
 20
82.1058597564738
 30
0.0
 11
-416.273037311178
 21
86.7339801788379
 31
0.0
  0
LINE
  5
   2BB
  8
0
  6
CONTINUOUS
 62
     7
 10
-414.47303425942
 20
82.1058597564738
 30
0.0
 11
-414.47303425942
 21
86.7339801788379
 31
0.0
  0
LINE
  5
   2BC
  8
0
  6
CONTINUOUS
 62
     7
 10
-412.673038837057
 20
82.1058597564738
 30
0.0
 11
-412.673038837057
 21
86.7339801788379
 31
0.0
  0
LINE
  5
   2BD
  8
0
  6
CONTINUOUS
 62
     7
 10
-410.873035785299
 20
82.1058597564738
 30
0.0
 11
-410.873035785299
 21
86.7339801788379
 31
0.0
  0
LINE
  5
   2BE
  8
0
  6
CONTINUOUS
 62
     7
 10
-409.073040362936
 20
82.1058597564738
 30
0.0
 11
-409.073040362936
 21
86.7339801788379
 31
0.0
  0
LINE
  5
   2BF
  8
0
  6
CONTINUOUS
 62
     7
 10
-407.273037311178
 20
82.1058597564738
 30
0.0
 11
-407.273037311178
 21
86.7339801788379
 31
0.0
  0
LINE
  5
   2C0
  8
0
  6
CONTINUOUS
 62
     7
 10
-405.47303425942
 20
82.1058597564738
 30
0.0
 11
-405.47303425942
 21
86.7339801788379
 31
0.0
  0
LINE
  5
   2C1
  8
0
  6
CONTINUOUS
 62
     7
 10
-403.673038837057
 20
82.1058597564738
 30
0.0
 11
-403.673038837057
 21
86.7339801788379
 31
0.0
  0
LINE
  5
   2C2
  8
0
  6
CONTINUOUS
 62
     7
 10
-401.873035785299
 20
82.1058597564738
 30
0.0
 11
-401.873035785299
 21
86.7339801788379
 31
0.0
  0
LINE
  5
   2C3
  8
0
  6
CONTINUOUS
 62
     7
 10
-400.073040362936
 20
82.1058597564738
 30
0.0
 11
-400.073040362936
 21
86.7339801788379
 31
0.0
  0
LINE
  5
   2C4
  8
0
  6
CONTINUOUS
 62
     7
 10
-398.273037311178
 20
82.1058597564738
 30
0.0
 11
-398.273037311178
 21
86.7339801788379
 31
0.0
  0
LINE
  5
   2C5
  8
0
  6
CONTINUOUS
 62
     7
 10
-396.47303425942
 20
82.1058597564738
 30
0.0
 11
-396.47303425942
 21
86.7339801788379
 31
0.0
  0
LINE
  5
   2C6
  8
0
  6
CONTINUOUS
 62
     7
 10
-394.673038837057
 20
82.1058597564738
 30
0.0
 11
-394.673038837057
 21
86.7339801788379
 31
0.0
  0
LINE
  5
   2C7
  8
0
  6
CONTINUOUS
 62
     7
 10
-392.873035785299
 20
82.1058597564738
 30
0.0
 11
-392.873035785299
 21
86.7339801788379
 31
0.0
  0
LINE
  5
   2C8
  8
0
  6
CONTINUOUS
 62
     7
 10
-391.073040362936
 20
82.1058597564738
 30
0.0
 11
-391.073040362936
 21
86.7339801788379
 31
0.0
  0
LINE
  5
   2C9
  8
0
  6
CONTINUOUS
 62
     7
 10
-389.273037311178
 20
82.1058597564738
 30
0.0
 11
-389.273037311178
 21
86.7339801788379
 31
0.0
  0
LINE
  5
   2CA
  8
0
  6
CONTINUOUS
 62
     7
 10
-387.47303425942
 20
82.1058597564738
 30
0.0
 11
-387.47303425942
 21
86.7339801788379
 31
0.0
  0
LINE
  5
   2CB
  8
0
  6
CONTINUOUS
 62
     7
 10
-385.673038837057
 20
82.1058597564738
 30
0.0
 11
-385.673038837057
 21
86.7339801788379
 31
0.0
  0
LINE
  5
   2CC
  8
0
  6
CONTINUOUS
 62
     7
 10
-383.873035785299
 20
82.1058597564738
 30
0.0
 11
-383.873035785299
 21
86.7339801788379
 31
0.0
  0
LINE
  5
   2CD
  8
0
  6
CONTINUOUS
 62
     7
 10
-382.073040362936
 20
82.1058597564738
 30
0.0
 11
-382.073040362936
 21
86.7339801788379
 31
0.0
  0
LINE
  5
   2CE
  8
0
  6
CONTINUOUS
 62
     7
 10
-380.273037311178
 20
82.1058597564738
 30
0.0
 11
-380.273037311178
 21
86.7339801788379
 31
0.0
  0
LINE
  5
   2CF
  8
0
  6
CONTINUOUS
 62
     7
 10
-378.47303425942
 20
82.1058597564738
 30
0.0
 11
-378.47303425942
 21
86.7339801788379
 31
0.0
  0
LINE
  5
   2D0
  8
0
  6
CONTINUOUS
 62
     7
 10
-376.673038837057
 20
82.1058597564738
 30
0.0
 11
-376.673038837057
 21
86.7339801788379
 31
0.0
  0
LINE
  5
   2D1
  8
0
  6
CONTINUOUS
 62
     7
 10
-374.873035785299
 20
82.1058597564738
 30
0.0
 11
-374.873035785299
 21
86.7339801788379
 31
0.0
  0
LINE
  5
   2D2
  8
0
  6
CONTINUOUS
 62
     7
 10
-373.073040362936
 20
82.1058597564738
 30
0.0
 11
-373.073040362936
 21
86.7339801788379
 31
0.0
  0
LINE
  5
   2D3
  8
0
  6
CONTINUOUS
 62
     7
 10
-371.273037311178
 20
82.1058597564738
 30
0.0
 11
-371.273037311178
 21
86.7339801788379
 31
0.0
  0
LINE
  5
   2D4
  8
0
  6
CONTINUOUS
 62
     7
 10
-369.47303425942
 20
82.1058597564738
 30
0.0
 11
-369.47303425942
 21
86.7339801788379
 31
0.0
  0
ARC
  5
   2D5
  8
0
  6
CONTINUOUS
 62
     7
 10
-437.47303425942
 20
86.108980178838
 30
0.0
 40
0.625
 50
449.999999948034
 51
539.999999948034
  0
ARC
  5
   2D6
  8
0
  6
CONTINUOUS
 62
     7
 10
-368.723042203415
 20
86.1089801788379
 30
0.0
 40
0.625
 50
360.000036000188
 51
449.999999948034
  0
LINE
  5
   2D7
  8
0
  6
CONTINUOUS
 62
     7
 10
-368.723042203415
 20
-0.766019821171918
 30
0.0
 11
-437.47303425942
 21
-0.766019821171918
 31
0.0
  0
LINE
  5
   2D8
  8
0
  6
CONTINUOUS
 62
     7
 10
-438.09803425942
 20
-0.141019821171925
 30
0.0
 11
-438.09803425942
 21
13.2339725494335
 31
0.0
  0
LINE
  5
   2D9
  8
0
  6
CONTINUOUS
 62
     7
 10
-433.598026585416
 20
13.2339725494336
 30
0.0
 11
-437.97303425942
 21
13.2339725494336
 31
0.0
  0
LINE
  5
   2DA
  8
0
  6
CONTINUOUS
 62
     7
 10
-437.59803425942
 20
13.2339725494285
 30
0.0
 11
-437.59803425942
 21
13.7339725494285
 31
0.0
  0
LINE
  5
   2DB
  8
0
  6
CONTINUOUS
 62
     7
 10
-437.973034289222
 20
13.2339725494336
 30
0.0
 11
-438.09803425942
 21
13.2339725494336
 31
0.0
  0
LINE
  5
   2DC
  8
0
  6
CONTINUOUS
 62
     7
 10
-434.273033973318
 20
-0.766019821171918
 30
0.0
 11
-434.273033973318
 21
86.7339801788379
 31
0.0
  0
LINE
  5
   2DD
  8
0
  6
CONTINUOUS
 62
     7
 10
-430.673034068685
 20
-0.766019821171918
 30
0.0
 11
-430.673034068685
 21
1.6090106964152
 31
0.0
  0
LINE
  5
   2DE
  8
0
  6
CONTINUOUS
 62
     7
 10
-427.073040362936
 20
-0.766019821171918
 30
0.0
 11
-427.073040362936
 21
1.6090106964152
 31
0.0
  0
LINE
  5
   2DF
  8
0
  6
CONTINUOUS
 62
     7
 10
-425.273037311178
 20
-0.766019821171918
 30
0.0
 11
-425.273037311178
 21
1.6090106964152
 31
0.0
  0
LINE
  5
   2E0
  8
0
  6
CONTINUOUS
 62
     7
 10
-419.873035785299
 20
-0.766019821171918
 30
0.0
 11
-419.873035785299
 21
1.6090106964152
 31
0.0
  0
LINE
  5
   2E1
  8
0
  6
CONTINUOUS
 62
     7
 10
-418.073040362936
 20
-0.766019821171918
 30
0.0
 11
-418.073040362936
 21
1.6090106964152
 31
0.0
  0
LINE
  5
   2E2
  8
0
  6
CONTINUOUS
 62
     7
 10
-416.273037311178
 20
-0.766019821171918
 30
0.0
 11
-416.273037311178
 21
1.6090106964152
 31
0.0
  0
LINE
  5
   2E3
  8
0
  6
CONTINUOUS
 62
     7
 10
-414.47303425942
 20
-0.766019821171918
 30
0.0
 11
-414.47303425942
 21
1.6090106964152
 31
0.0
  0
LINE
  5
   2E4
  8
0
  6
CONTINUOUS
 62
     7
 10
-412.673038837057
 20
-0.766019821171918
 30
0.0
 11
-412.673038837057
 21
1.6090106964152
 31
0.0
  0
LINE
  5
   2E5
  8
0
  6
CONTINUOUS
 62
     7
 10
-410.873035785299
 20
-0.766019821171918
 30
0.0
 11
-410.873035785299
 21
1.6090106964152
 31
0.0
  0
LINE
  5
   2E6
  8
0
  6
CONTINUOUS
 62
     7
 10
-409.073040362936
 20
-0.766019821171918
 30
0.0
 11
-409.073040362936
 21
1.6090106964152
 31
0.0
  0
LINE
  5
   2E7
  8
0
  6
CONTINUOUS
 62
     7
 10
-407.273037311178
 20
-0.766019821171918
 30
0.0
 11
-407.273037311178
 21
1.6090106964152
 31
0.0
  0
LINE
  5
   2E8
  8
0
  6
CONTINUOUS
 62
     7
 10
-405.47303425942
 20
-0.766019821171918
 30
0.0
 11
-405.47303425942
 21
1.6090106964152
 31
0.0
  0
LINE
  5
   2E9
  8
0
  6
CONTINUOUS
 62
     7
 10
-403.673038837057
 20
-0.766019821171918
 30
0.0
 11
-403.673038837057
 21
1.6090106964152
 31
0.0
  0
LINE
  5
   2EA
  8
0
  6
CONTINUOUS
 62
     7
 10
-401.873035785299
 20
-0.766019821171918
 30
0.0
 11
-401.873035785299
 21
1.6090106964152
 31
0.0
  0
LINE
  5
   2EB
  8
0
  6
CONTINUOUS
 62
     7
 10
-400.073040362936
 20
-0.766019821171918
 30
0.0
 11
-400.073040362936
 21
1.6090106964152
 31
0.0
  0
LINE
  5
   2EC
  8
0
  6
CONTINUOUS
 62
     7
 10
-398.273037311178
 20
-0.766019821171918
 30
0.0
 11
-398.273037311178
 21
1.6090106964152
 31
0.0
  0
LINE
  5
   2ED
  8
0
  6
CONTINUOUS
 62
     7
 10
-396.47303425942
 20
-0.766019821171918
 30
0.0
 11
-396.47303425942
 21
1.6090106964152
 31
0.0
  0
LINE
  5
   2EE
  8
0
  6
CONTINUOUS
 62
     7
 10
-394.673038837057
 20
-0.766019821171918
 30
0.0
 11
-394.673038837057
 21
1.6090106964152
 31
0.0
  0
LINE
  5
   2EF
  8
0
  6
CONTINUOUS
 62
     7
 10
-392.873035785299
 20
-0.766019821171918
 30
0.0
 11
-392.873035785299
 21
1.6090106964152
 31
0.0
  0
LINE
  5
   2F0
  8
0
  6
CONTINUOUS
 62
     7
 10
-391.073040362936
 20
-0.766019821171918
 30
0.0
 11
-391.073040362936
 21
1.6090106964152
 31
0.0
  0
LINE
  5
   2F1
  8
0
  6
CONTINUOUS
 62
     7
 10
-389.273037311178
 20
-0.766019821171918
 30
0.0
 11
-389.273037311178
 21
1.6090106964152
 31
0.0
  0
LINE
  5
   2F2
  8
0
  6
CONTINUOUS
 62
     7
 10
-387.47303425942
 20
-0.766019821171918
 30
0.0
 11
-387.47303425942
 21
1.6090106964152
 31
0.0
  0
LINE
  5
   2F3
  8
0
  6
CONTINUOUS
 62
     7
 10
-385.673038837057
 20
-0.766019821171918
 30
0.0
 11
-385.673038837057
 21
1.6090106964152
 31
0.0
  0
LINE
  5
   2F4
  8
0
  6
CONTINUOUS
 62
     7
 10
-383.873035785299
 20
-0.766019821171918
 30
0.0
 11
-383.873035785299
 21
1.6090106964152
 31
0.0
  0
LINE
  5
   2F5
  8
0
  6
CONTINUOUS
 62
     7
 10
-382.073040362936
 20
-0.766019821171918
 30
0.0
 11
-382.073040362936
 21
1.6090106964152
 31
0.0
  0
LINE
  5
   2F6
  8
0
  6
CONTINUOUS
 62
     7
 10
-380.273037311178
 20
-0.766019821171918
 30
0.0
 11
-380.273037311178
 21
1.6090106964152
 31
0.0
  0
LINE
  5
   2F7
  8
0
  6
CONTINUOUS
 62
     7
 10
-378.47303425942
 20
-0.766019821171918
 30
0.0
 11
-378.47303425942
 21
1.6090106964152
 31
0.0
  0
LINE
  5
   2F8
  8
0
  6
CONTINUOUS
 62
     7
 10
-376.673038837057
 20
-0.766019821171918
 30
0.0
 11
-376.673038837057
 21
1.6090106964152
 31
0.0
  0
LINE
  5
   2F9
  8
0
  6
CONTINUOUS
 62
     7
 10
-374.873035785299
 20
-0.766019821171918
 30
0.0
 11
-374.873035785299
 21
1.6090106964152
 31
0.0
  0
LINE
  5
   2FA
  8
0
  6
CONTINUOUS
 62
     7
 10
-373.073040362936
 20
-0.766019821171918
 30
0.0
 11
-373.073040362936
 21
1.6090106964152
 31
0.0
  0
LINE
  5
   2FB
  8
0
  6
CONTINUOUS
 62
     7
 10
-371.273037311178
 20
-0.766019821171918
 30
0.0
 11
-371.273037311178
 21
1.6090106964152
 31
0.0
  0
LINE
  5
   2FC
  8
0
  6
CONTINUOUS
 62
     7
 10
-369.47303425942
 20
-0.766019821171918
 30
0.0
 11
-369.47303425942
 21
1.6090106964152
 31
0.0
  0
ARC
  5
   2FD
  8
0
  6
CONTINUOUS
 62
     7
 10
-437.47303425942
 20
-0.141019821171925
 30
0.0
 40
0.625
 50
179.999999948034
 51
269.999999948034
  0
ARC
  5
   2FE
  8
0
  6
CONTINUOUS
 62
     7
 10
-368.723042203415
 20
-0.141019821171911
 30
0.0
 40
0.625
 50
269.999999948034
 51
359.99996389588
  0
LINE
  5
   2FF
  8
0
  6
DASHDOT
 62
     7
 10
-394.348002012652
 20
-12.5660119680698
 30
0.0
 11
-394.348002012652
 21
-6.4660154512575
 31
0.0
  0
LINE
  5
   300
  8
0
  6
DASHDOT
 62
     7
 10
-394.348002012652
 20
92.4339758089235
 30
0.0
 11
-394.348002012652
 21
98.5339723257358
 31
0.0
  0
LINE
  5
   301
  8
0
  6
CONTINUOUS
 62
     5
 10
-420.524805479117
 20
68.0357977821757
 30
0.0
 11
-420.348024775277
 21
68.1090323414319
 31
0.0
  0
LINE
  5
   302
  8
0
  6
CONTINUOUS
 62
     5
 10
-420.598029222289
 20
67.8590224196094
 30
0.0
 11
-420.524806108178
 21
68.0358031248652
 31
0.0
  0
LINE
  5
   303
  8
0
  6
CONTINUOUS
 62
     5
 10
-420.598041534424
 20
15.8589897155762
 30
0.0
 11
-420.598041534424
 21
16.1090049743652
 31
0.0
  0
LINE
  5
   304
  8
0
  6
CONTINUOUS
 62
     5
 10
-420.598033905029
 20
62.1089725494385
 30
0.0
 11
-420.598033905029
 21
67.8590106964111
 31
0.0
  0
LINE
  5
   305
  8
0
  6
CONTINUOUS
 62
     5
 10
-420.524811179169
 20
15.6822121879641
 30
0.0
 11
-420.598041923258
 21
15.8589890692976
 31
0.0
  0
LINE
  5
   306
  8
0
  6
CONTINUOUS
 62
     5
 10
-420.348041624444
 20
15.6090210588452
 30
0.0
 11
-420.524808977593
 21
15.6822136560357
 31
0.0
  0
LINE
  5
   307
  8
0
  6
CONTINUOUS
 62
     5
 10
-368.348007202101
 20
15.6089839935384
 30
0.0
 11
-383.598007202102
 21
15.6089954376304
 31
0.0
  0
LINE
  5
   308
  8
0
  6
CONTINUOUS
 62
     5
 10
-420.098033905029
 20
15.6090202331543
 30
0.0
 11
-420.348043441772
 21
15.6090202331543
 31
0.0
  0
LINE
  5
   309
  8
0
  6
CONTINUOUS
 62
     5
 10
-368.34800405245
 20
15.6089851880217
 30
0.0
 11
-368.171223356922
 21
15.6822102067753
 31
0.0
  0
LINE
  5
   30A
  8
0
  6
CONTINUOUS
 62
     5
 10
-368.171223826233
 20
15.6822111083338
 30
0.0
 11
-368.097996897142
 21
15.858987997722
 31
0.0
  0
LINE
  5
   30B
  8
0
  6
CONTINUOUS
 62
     5
 10
-368.097999572753
 20
15.8589878082293
 30
0.0
 11
-368.098007202148
 21
67.8590106964129
 31
0.0
  0
LINE
  5
   30C
  8
0
  6
CONTINUOUS
 62
     5
 10
-368.098004708359
 20
67.8590151636773
 30
0.0
 11
-368.17124689796
 21
68.0357958626692
 31
0.0
  0
LINE
  5
   30D
  8
0
  6
CONTINUOUS
 62
     5
 10
-368.171250342318
 20
68.035790913832
 30
0.0
 11
-368.348031046565
 21
68.1090102129948
 31
0.0
  0
LINE
  5
   30E
  8
0
  6
CONTINUOUS
 62
     5
 10
-368.348030090329
 20
68.1090106964141
 30
0.0
 11
-420.348030090329
 21
68.1090259552037
 31
0.0
  0
LINE
  5
   30F
  8
0
  6
CONTINUOUS
 62
     7
 10
-381.748039245605
 20
20.8242588043213
 30
0.0
 11
-381.748039245605
 21
24.8936557769775
 31
0.0
  0
LINE
  5
   310
  8
0
  6
CONTINUOUS
 62
     7
 10
-381.049108544696
 20
20.0208900335667
 30
0.0
 11
-381.748044981557
 21
20.8242576421417
 31
0.0
  0
LINE
  5
   311
  8
0
  6
CONTINUOUS
 62
     7
 10
-380.15248307824
 20
19.4463448745043
 30
0.0
 11
-381.049097169126
 21
20.0208916694567
 31
0.0
  0
LINE
  5
   312
  8
0
  6
CONTINUOUS
 62
     7
 10
-379.130516034703
 20
19.1469974538255
 30
0.0
 11
-380.152488711131
 21
19.4463443648145
 31
0.0
  0
LINE
  5
   313
  8
0
  6
CONTINUOUS
 62
     7
 10
-378.065612792969
 20
19.1469974517822
 30
0.0
 11
-379.130516052246
 21
19.1469974517822
 31
0.0
  0
LINE
  5
   314
  8
0
  6
CONTINUOUS
 62
     7
 10
-378.065613737135
 20
19.146997101953
 30
0.0
 11
-377.043641074753
 21
19.4463402203054
 31
0.0
  0
LINE
  5
   315
  8
0
  6
CONTINUOUS
 62
     7
 10
-377.043629737889
 20
19.4463461102765
 30
0.0
 11
-376.147008005431
 21
20.0208929507656
 31
0.0
  0
LINE
  5
   316
  8
0
  6
CONTINUOUS
 62
     7
 10
-376.147023928224
 20
20.0208834290631
 30
0.0
 11
-375.448064552108
 21
20.824300638371
 31
0.0
  0
LINE
  5
   317
  8
0
  6
CONTINUOUS
 62
     7
 10
-375.448059080824
 20
20.8243045817628
 30
0.0
 11
-375.448036192641
 21
24.8936786662354
 31
0.0
  0
LINE
  5
   318
  8
0
  6
CONTINUOUS
 62
     7
 10
-375.448037622962
 20
24.8936783191297
 30
0.0
 11
-376.146996988948
 21
25.6970764580696
 31
0.0
  0
LINE
  5
   319
  8
0
  6
CONTINUOUS
 62
     7
 10
-376.146987480416
 20
25.6970779380935
 30
0.0
 11
-377.043609212874
 21
26.2716247785826
 31
0.0
  0
LINE
  5
   31A
  8
0
  6
CONTINUOUS
 62
     7
 10
-377.043614117213
 20
26.2716241382868
 30
0.0
 11
-378.06557911537
 21
26.5709672419364
 31
0.0
  0
LINE
  5
   31B
  8
0
  6
CONTINUOUS
 62
     7
 10
-378.065582275391
 20
26.5709667205811
 30
0.0
 11
-379.130493164063
 21
26.5709667205811
 31
0.0
  0
LINE
  5
   31C
  8
0
  6
CONTINUOUS
 62
     7
 10
-380.152454622551
 20
26.2716250879209
 30
0.0
 11
-379.130489624395
 21
26.5709681915705
 31
0.0
  0
LINE
  5
   31D
  8
0
  6
CONTINUOUS
 62
     7
 10
-381.049069785647
 20
25.697082798562
 30
0.0
 11
-380.152448053189
 21
26.2716296390512
 31
0.0
  0
LINE
  5
   31E
  8
0
  6
CONTINUOUS
 62
     7
 10
-381.74804502634
 20
24.8936511944244
 30
0.0
 11
-381.049085676573
 21
25.6970722125397
 31
0.0
  0
LINE
  5
   31F
  8
0
  6
CONTINUOUS
 62
     7
 10
-383.598007201884
 20
62.1089801789789
 30
0.0
 11
-368.098007201884
 21
62.1090106965561
 31
0.0
  0
LINE
  5
   320
  8
0
  6
CONTINUOUS
 62
     7
 10
-368.098007202148
 20
67.1090106964111
 30
0.0
 11
-420.598037719727
 21
67.1090106964111
 31
0.0
  0
LINE
  5
   321
  8
0
  6
CONTINUOUS
 62
     7
 10
-373.845804290491
 20
58.4839459532948
 30
0.0
 11
-373.902895047611
 21
58.7709637732311
 31
0.0
  0
LINE
  5
   322
  8
0
  6
CONTINUOUS
 62
     7
 10
-373.902892166052
 20
58.770968606314
 30
0.0
 11
-374.065466942277
 21
59.014285256108
 31
0.0
  0
LINE
  5
   323
  8
0
  6
CONTINUOUS
 62
     7
 10
-374.065469633764
 20
59.0142830604427
 30
0.0
 11
-374.308793916434
 21
59.1768578224562
 31
0.0
  0
LINE
  5
   324
  8
0
  6
CONTINUOUS
 62
     7
 10
-374.30879894618
 20
59.1768559224274
 30
0.0
 11
-374.595809132945
 21
59.2339466810052
 31
0.0
  0
LINE
  5
   325
  8
0
  6
CONTINUOUS
 62
     7
 10
-374.882820667182
 20
59.1768544568165
 30
0.0
 11
-374.595810480417
 21
59.2339452153944
 31
0.0
  0
LINE
  5
   326
  8
0
  6
CONTINUOUS
 62
     7
 10
-375.126127007205
 20
59.0142858318569
 30
0.0
 11
-374.882810357411
 21
59.1768606080822
 31
0.0
  0
LINE
  5
   327
  8
0
  6
CONTINUOUS
 62
     7
 10
-375.288711191336
 20
58.7709679032719
 30
0.0
 11
-375.126128796388
 21
59.0142845484331
 31
0.0
  0
LINE
  5
   328
  8
0
  6
CONTINUOUS
 62
     7
 10
-375.345805053619
 20
58.4839450814674
 30
0.0
 11
-375.288714296499
 21
58.7709629014037
 31
0.0
  0
LINE
  5
   329
  8
0
  6
CONTINUOUS
 62
     7
 10
-375.345802307129
 20
56.9839496612549
 30
0.0
 11
-375.345802307129
 21
58.4839496612549
 31
0.0
  0
LINE
  5
   32A
  8
0
  6
CONTINUOUS
 62
     7
 10
-375.288714813524
 20
56.6969334159803
 30
0.0
 11
-375.345805572102
 21
56.9839436027451
 31
0.0
  0
LINE
  5
   32B
  8
0
  6
CONTINUOUS
 62
     7
 10
-375.126128968118
 20
56.4536230380868
 30
0.0
 11
-375.288711363065
 21
56.696939683248
 31
0.0
  0
LINE
  5
   32C
  8
0
  6
CONTINUOUS
 62
     7
 10
-374.882812237988
 20
56.2910405685366
 30
0.0
 11
-375.126128883149
 21
56.4536229634844
 31
0.0
  0
LINE
  5
   32D
  8
0
  6
CONTINUOUS
 62
     7
 10
-374.595809139052
 20
56.2339468300828
 30
0.0
 11
-374.882819325817
 21
56.2910375886606
 31
0.0
  0
LINE
  5
   32E
  8
0
  6
CONTINUOUS
 62
     7
 10
-374.59581047431
 20
56.2339453644719
 30
0.0
 11
-374.308800287545
 21
56.2910361230498
 31
0.0
  0
LINE
  5
   32F
  8
0
  6
CONTINUOUS
 62
     7
 10
-374.308791454523
 20
56.2910409304491
 30
0.0
 11
-374.065467176528
 21
56.4536233286911
 31
0.0
  0
LINE
  5
   330
  8
0
  6
CONTINUOUS
 62
     7
 10
-374.065466080079
 20
56.4536248314504
 30
0.0
 11
-373.902891303853
 21
56.6969414812444
 31
0.0
  0
LINE
  5
   331
  8
0
  6
CONTINUOUS
 62
     7
 10
-373.902897724967
 20
56.6969319553172
 30
0.0
 11
-373.845806966389
 21
56.9839421420821
 31
0.0
  0
LINE
  5
   332
  8
0
  6
CONTINUOUS
 62
     7
 10
-373.845802307129
 20
56.9839496612549
 30
0.0
 11
-373.845802307129
 21
58.4839496612549
 31
0.0
  0
LINE
  5
   333
  8
0
  6
CONTINUOUS
 62
     7
 10
-373.848007202148
 20
46.2339611053467
 30
0.0
 11
-375.348007202148
 21
46.2339611053467
 31
0.0
  0
LINE
  5
   334
  8
0
  6
CONTINUOUS
 62
     7
 10
-375.348007202148
 20
32.7339611053467
 30
0.0
 11
-375.348007202148
 21
46.2339611053467
 31
0.0
  0
LINE
  5
   335
  8
0
  6
CONTINUOUS
 62
     7
 10
-373.848007202148
 20
32.7339611053467
 30
0.0
 11
-375.348007202148
 21
32.7339611053467
 31
0.0
  0
LINE
  5
   336
  8
0
  6
CONTINUOUS
 62
     7
 10
-373.848007202148
 20
32.7339611053467
 30
0.0
 11
-373.848007202148
 21
46.2339611053467
 31
0.0
  0
LINE
  5
   337
  8
0
  6
CONTINUOUS
 62
     5
 10
-384.598007202148
 20
17.3589744567871
 30
0.0
 11
-384.598007202148
 21
60.6089744567871
 31
0.0
  0
LINE
  5
   338
  8
0
  6
CONTINUOUS
 62
     7
 10
-383.598007202148
 20
62.1089725494385
 30
0.0
 11
-418.848049163818
 21
62.1089725494385
 31
0.0
  0
LINE
  5
   339
  8
0
  6
CONTINUOUS
 62
     5
 10
-385.098007202149
 20
61.1089725494385
 30
0.0
 11
-418.848049163818
 21
61.1089725494385
 31
0.0
  0
LINE
  5
   33A
  8
0
  6
CONTINUOUS
 62
     5
 10
-384.598008295442
 20
60.6089712311142
 30
0.0
 11
-385.098008278327
 21
61.1089712139999
 31
0.0
  0
LINE
  5
   33B
  8
0
  6
CONTINUOUS
 62
     5
 10
-419.348048475781
 20
60.6089741612993
 30
0.0
 11
-419.201602247498
 21
60.9625279333339
 31
0.0
  0
LINE
  5
   33C
  8
0
  6
CONTINUOUS
 62
     5
 10
-419.201601986399
 20
60.962527373844
 30
0.0
 11
-418.848048214364
 21
61.1089736021271
 31
0.0
  0
LINE
  5
   33D
  8
0
  6
CONTINUOUS
 62
     7
 10
-418.848049163226
 20
62.1089725501533
 30
0.0
 11
-420.598035811786
 21
62.1089801795481
 31
0.0
  0
LINE
  5
   33E
  8
0
  6
CONTINUOUS
 62
     5
 10
-420.598037719727
 20
16.1090049743653
 30
0.0
 11
-420.598035812378
 21
62.1089820861817
 31
0.0
  0
LINE
  5
   33F
  8
0
  6
CONTINUOUS
 62
     5
 10
-384.098007201051
 20
15.6088638307994
 30
0.0
 11
-420.098037718629
 21
15.6090087892911
 31
0.0
  0
LINE
  5
   340
  8
0
  6
CONTINUOUS
 62
     5
 10
-383.598007186277
 20
15.6088562045179
 30
0.0
 11
-384.098007186277
 21
15.6088638339125
 31
0.0
  0
LINE
  5
   341
  8
0
  6
CONTINUOUS
 62
     5
 10
-384.744452478245
 20
17.0054215504472
 30
0.0
 11
-384.598006249962
 21
17.3589753224819
 31
0.0
  0
LINE
  5
   342
  8
0
  6
CONTINUOUS
 62
     5
 10
-385.098005734653
 20
16.8589750902878
 30
0.0
 11
-384.744451962618
 21
17.005421318571
 31
0.0
  0
LINE
  5
   343
  8
0
  6
CONTINUOUS
 62
     5
 10
-385.098007202149
 20
16.8589744567871
 30
0.0
 11
-418.848049163818
 21
16.8589744567871
 31
0.0
  0
LINE
  5
   344
  8
0
  6
CONTINUOUS
 62
     5
 10
-418.848048615326
 20
16.858974704277
 30
0.0
 11
-419.201602387361
 21
17.0054209325601
 31
0.0
  0
LINE
  5
   345
  8
0
  6
CONTINUOUS
 62
     5
 10
-419.201602645529
 20
17.0054211673673
 30
0.0
 11
-419.348048873812
 21
17.3589749394019
 31
0.0
  0
LINE
  5
   346
  8
0
  6
CONTINUOUS
 62
     5
 10
-419.348049163818
 20
17.3589744567871
 30
0.0
 11
-419.348049163818
 21
60.6089744567871
 31
0.0
  0
LINE
  5
   347
  8
0
  6
CONTINUOUS
 62
     5
 10
-399.72301864624
 20
26.1980533599854
 30
0.0
 11
-399.72301864624
 21
47.0866146087647
 31
0.0
  0
LINE
  5
   348
  8
0
  6
CONTINUOUS
 62
     5
 10
-388.97301864624
 20
26.1980533599854
 30
0.0
 11
-388.97301864624
 21
47.0866146087647
 31
0.0
  0
LINE
  5
   349
  8
0
  6
CONTINUOUS
 62
     7
 10
-370.597999572754
 20
29.0691699981689
 30
0.0
 11
-371.597999572754
 21
29.0691699981689
 31
0.0
  0
LINE
  5
   34A
  8
0
  6
CONTINUOUS
 62
     7
 10
-371.774768382166
 20
28.9959524659031
 30
0.0
 11
-371.59798767691
 21
29.069175580015
 31
0.0
  0
LINE
  5
   34B
  8
0
  6
CONTINUOUS
 62
     7
 10
-371.847999906214
 20
28.8191696660737
 30
0.0
 11
-371.774780606971
 21
28.9959465486996
 31
0.0
  0
LINE
  5
   34C
  8
0
  6
CONTINUOUS
 62
     7
 10
-371.847999572754
 20
23.3191699981689
 30
0.0
 11
-371.847999572754
 21
28.8191699981689
 31
0.0
  0
LINE
  5
   34D
  8
0
  6
CONTINUOUS
 62
     7
 10
-371.774780520525
 20
23.1423929901394
 30
0.0
 11
-371.847999819767
 21
23.3191698727652
 31
0.0
  0
LINE
  5
   34E
  8
0
  6
CONTINUOUS
 62
     7
 10
-371.597989693561
 20
23.0691709556767
 30
0.0
 11
-371.774770398817
 21
23.1423940697886
 31
0.0
  0
LINE
  5
   34F
  8
0
  6
CONTINUOUS
 62
     7
 10
-370.597999572754
 20
23.0691699981689
 30
0.0
 11
-371.597999572754
 21
23.0691699981689
 31
0.0
  0
LINE
  5
   350
  8
0
  6
CONTINUOUS
 62
     7
 10
-369.847999572754
 20
23.0691699981689
 30
0.0
 11
-370.597999572754
 21
23.0691699981689
 31
0.0
  0
LINE
  5
   351
  8
0
  6
CONTINUOUS
 62
     7
 10
-369.848007971547
 20
23.0691664015776
 30
0.0
 11
-369.671234904747
 21
23.1423895156993
 31
0.0
  0
LINE
  5
   352
  8
0
  6
CONTINUOUS
 62
     7
 10
-369.671223803071
 20
23.1423955411362
 30
0.0
 11
-369.59799687398
 21
23.3191724305244
 31
0.0
  0
LINE
  5
   353
  8
0
  6
CONTINUOUS
 62
     7
 10
-369.597999572754
 20
23.3191699981689
 30
0.0
 11
-369.597999572754
 21
28.8191699981689
 31
0.0
  0
LINE
  5
   354
  8
0
  6
CONTINUOUS
 62
     7
 10
-369.597997570134
 20
28.8191712272098
 30
0.0
 11
-369.671224499224
 21
28.995948116598
 31
0.0
  0
LINE
  5
   355
  8
0
  6
CONTINUOUS
 62
     7
 10
-369.671233492872
 20
28.995945902474
 30
0.0
 11
-369.848006559671
 21
29.0691690165958
 31
0.0
  0
LINE
  5
   356
  8
0
  6
CONTINUOUS
 62
     7
 10
-369.847999572754
 20
29.0691699981689
 30
0.0
 11
-370.597999572754
 21
29.0691699981689
 31
0.0
  0
LINE
  5
   357
  8
0
  6
CONTINUOUS
 62
     5
 10
-384.598030090332
 20
48.6089839935303
 30
0.0
 11
-384.598030090332
 21
49.1089839935303
 31
0.0
  0
LINE
  5
   358
  8
0
  6
CONTINUOUS
 62
     7
 10
-384.598030090332
 20
49.1089839935303
 30
0.0
 11
-419.348052978516
 21
49.1089839935303
 31
0.0
  0
LINE
  5
   359
  8
0
  6
CONTINUOUS
 62
     7
 10
-384.598030090332
 20
48.6089839935303
 30
0.0
 11
-419.348052978516
 21
48.6089839935303
 31
0.0
  0
LINE
  5
   35A
  8
0
  6
CONTINUOUS
 62
     5
 10
-384.598030090332
 20
24.1089839935303
 30
0.0
 11
-384.598030090332
 21
24.6089839935303
 31
0.0
  0
LINE
  5
   35B
  8
0
  6
CONTINUOUS
 62
     7
 10
-384.598030090332
 20
24.6089839935303
 30
0.0
 11
-419.348052978516
 21
24.6089839935303
 31
0.0
  0
LINE
  5
   35C
  8
0
  6
CONTINUOUS
 62
     7
 10
-384.598030090332
 20
24.1089839935303
 30
0.0
 11
-419.348052978516
 21
24.1089839935303
 31
0.0
  0
LINE
  5
   35D
  8
0
  6
CONTINUOUS
 62
     7
 10
-399.723033905029
 20
42.6089839935303
 30
0.0
 11
-419.348052978516
 21
42.6089839935303
 31
0.0
  0
LINE
  5
   35E
  8
0
  6
CONTINUOUS
 62
     7
 10
-399.723033905029
 20
42.1089839935303
 30
0.0
 11
-419.348052978516
 21
42.1089839935303
 31
0.0
  0
LINE
  5
   35F
  8
0
  6
CONTINUOUS
 62
     7
 10
-399.723037719727
 20
31.1089839935303
 30
0.0
 11
-419.348052978516
 21
31.1089839935303
 31
0.0
  0
LINE
  5
   360
  8
0
  6
CONTINUOUS
 62
     7
 10
-399.723037719727
 20
30.6089839935303
 30
0.0
 11
-419.348052978516
 21
30.6089839935303
 31
0.0
  0
LINE
  5
   361
  8
0
  6
CONTINUOUS
 62
     5
 10
-384.598030090332
 20
42.1089839935303
 30
0.0
 11
-384.598030090332
 21
42.6089839935303
 31
0.0
  0
LINE
  5
   362
  8
0
  6
CONTINUOUS
 62
     7
 10
-384.598030090332
 20
42.6089839935303
 30
0.0
 11
-388.97301864624
 21
42.6089839935303
 31
0.0
  0
LINE
  5
   363
  8
0
  6
CONTINUOUS
 62
     7
 10
-384.598030090332
 20
42.1089839935303
 30
0.0
 11
-388.97301864624
 21
42.1089839935303
 31
0.0
  0
LINE
  5
   364
  8
0
  6
CONTINUOUS
 62
     5
 10
-384.598030090332
 20
30.6089839935303
 30
0.0
 11
-384.598030090332
 21
31.1089839935303
 31
0.0
  0
LINE
  5
   365
  8
0
  6
CONTINUOUS
 62
     7
 10
-384.598030090332
 20
31.1089839935303
 30
0.0
 11
-388.973022460938
 21
31.1089839935303
 31
0.0
  0
LINE
  5
   366
  8
0
  6
CONTINUOUS
 62
     7
 10
-384.598030090332
 20
30.6089839935303
 30
0.0
 11
-388.973022460938
 21
30.6089839935303
 31
0.0
  0
LINE
  5
   367
  8
0
  6
CONTINUOUS
 62
     7
 10
-364.098007202148
 20
11.4839744567871
 30
0.0
 11
-364.098007202148
 21
13.7339763641357
 31
0.0
  0
LINE
  5
   368
  8
0
  6
DOT
 62
   130
 10
-352.847999572754
 20
79.483980178833
 30
0.0
 11
-368.098034259434
 21
79.483980178833
 31
0.0
  0
LINE
  5
   369
  8
0
  6
CONTINUOUS
 62
   130
 10
-364.098052978516
 20
25.6089572906494
 30
0.0
 11
-364.098052978516
 21
30.8589572906494
 31
0.0
  0
LINE
  5
   36A
  8
0
  6
CONTINUOUS
 62
   130
 10
-364.098052978516
 20
51.4839649200439
 30
0.0
 11
-364.098052978516
 21
63.4839878082275
 31
0.0
  0
LINE
  5
   36B
  8
0
  6
DOT
 62
   130
 10
-352.847999572754
 20
7.10897254943848
 30
0.0
 11
-368.09803425942
 21
7.10897254943848
 31
0.0
  0
LINE
  5
   36C
  8
0
  6
DOT
 62
   130
 10
-352.847999572754
 20
7.10897254943848
 30
0.0
 11
-352.847999572754
 21
79.483980178833
 31
0.0
  0
LINE
  5
   36D
  8
0
  6
CONTINUOUS
 62
     7
 10
-364.097999572754
 20
69.2339878082275
 30
0.0
 11
-364.097999572754
 21
72.8589878082275
 31
0.0
  0
LINE
  5
   36E
  8
0
  6
DOT
 62
   130
 10
-352.348007202148
 20
35.9839572906494
 30
0.0
 11
-352.348007202148
 21
45.9839572906494
 31
0.0
  0
LINE
  5
   36F
  8
0
  6
CONTINUOUS
 62
   130
 10
-364.597999572754
 20
30.8589572906494
 30
0.0
 11
-364.597999572754
 21
48.4839649200439
 31
0.0
  0
LINE
  5
   370
  8
0
  6
CONTINUOUS
 62
     7
 10
-364.597999572754
 20
18.983980178833
 30
0.0
 11
-364.597999572754
 21
21.4839611053467
 31
0.0
  0
LINE
  5
   371
  8
0
  6
CONTINUOUS
 62
     5
 10
-420.415719129651
 20
15.6370400850335
 30
0.0
 11
-420.414980985729
 21
15.637778228956
 31
0.0
  0
LINE
  5
   372
  8
0
  6
CONTINUOUS
 62
     5
 10
-420.41498013721
 20
68.0804047193615
 30
0.0
 11
-420.415603840194
 21
68.0810303297081
 31
0.0
  0
LINE
  5
   373
  8
0
  6
CONTINUOUS
 62
     5
 10
-388.97301864624
 20
46.8662052154541
 30
0.0
 11
-399.72301864624
 21
46.8662052154541
 31
0.0
  0
LINE
  5
   374
  8
0
  6
CONTINUOUS
 62
     5
 10
-388.97301864624
 20
47.0866146087647
 30
0.0
 11
-399.72301864624
 21
47.0866146087647
 31
0.0
  0
LINE
  5
   375
  8
0
  6
CONTINUOUS
 62
     5
 10
-388.97301864624
 20
26.1980533599854
 30
0.0
 11
-399.72301864624
 21
26.1980533599854
 31
0.0
  0
LINE
  5
   376
  8
0
  6
CONTINUOUS
 62
     5
 10
-388.97301864624
 20
26.5329914093018
 30
0.0
 11
-399.72301864624
 21
26.5329914093018
 31
0.0
  0
LINE
  5
   377
  8
0
  6
DOT
 62
   130
 10
-352.348007202148
 20
45.9839572906494
 30
0.0
 11
-352.847999572754
 21
45.9839572906494
 31
0.0
  0
LINE
  5
   378
  8
0
  6
DOT
 62
   130
 10
-352.348007202148
 20
35.9839572906494
 30
0.0
 11
-352.848007202148
 21
35.9839572906494
 31
0.0
  0
LINE
  5
   379
  8
0
  6
CONTINUOUS
 62
   130
 10
-364.597999572754
 20
21.4839611053467
 30
0.0
 11
-364.597999572754
 21
25.6089572906494
 31
0.0
  0
CIRCLE
  5
   37A
  8
0
  6
CONTINUOUS
 62
   130
 10
-359.597993593458
 20
28.2339124986694
 30
0.0
 40
2.62504375496636
  0
LINE
  5
   37B
  8
0
  6
DASHDOT
 62
     7
 10
-359.597993593458
 20
24.1088687437031
 30
0.0
 11
-359.597993593458
 21
32.3589562536358
 31
0.0
  0
LINE
  5
   37C
  8
0
  6
DASHDOT
 62
     7
 10
-355.472949838492
 20
28.2339124986694
 30
0.0
 11
-363.723037348424
 21
28.2339124986694
 31
0.0
  0
LINE
  5
   37D
  8
0
  6
DASHDOT
 62
     7
 10
-343.975495702532
 20
41.8590106964152
 30
0.0
 11
-464.725303300025
 21
41.8590106964152
 31
0.0
  0
INSERT
  5
   37E
  8
255
  6
CONTINUOUS
 62
     7
  2
MOSTRA
 10
-451.767183613614
 20
7.3276386261027
 30
0.0
 41
0.5
 42
0.5
 50
359.999999792138
 43
0.5
  0
LINE
  5
   37F
  8
0
  6
CONTINUOUS
 62
     7
 10
-430.673034068685
 20
82.1058597564738
 30
0.0
 11
-430.673034068685
 21
86.7339801788379
 31
0.0
  0
LINE
  5
   380
  8
0
  6
CONTINUOUS
 62
     7
 10
-428.873035785299
 20
82.1058597564738
 30
0.0
 11
-428.873035785299
 21
86.7339801788379
 31
0.0
  0
LINE
  5
   381
  8
0
  6
CONTINUOUS
 62
     7
 10
-427.073040362936
 20
82.1058597564738
 30
0.0
 11
-427.073040362936
 21
86.7339801788379
 31
0.0
  0
LINE
  5
   382
  8
0
  6
CONTINUOUS
 62
     7
 10
-425.273037311178
 20
82.1058597564738
 30
0.0
 11
-425.273037311178
 21
86.7339801788379
 31
0.0
  0
LINE
  5
   383
  8
0
  6
CONTINUOUS
 62
     7
 10
-423.47303425942
 20
82.1058597564738
 30
0.0
 11
-423.47303425942
 21
86.7339801788379
 31
0.0
  0
LINE
  5
   384
  8
0
  6
CONTINUOUS
 62
     7
 10
-421.673038837057
 20
82.1058597564738
 30
0.0
 11
-421.673038837057
 21
86.7339801788379
 31
0.0
  0
LINE
  5
   385
  8
0
  6
DOT
 62
   130
 10
-368.098034259434
 20
1.6090106964152
 30
0.0
 11
-368.098034259434
 21
15.6090282251446
 31
0.0
  0
LINE
  5
   386
  8
0
  6
DOT
 62
   130
 10
-368.098034259434
 20
68.1090015067562
 30
0.0
 11
-368.098034259434
 21
82.1058597564738
 31
0.0
  0
LINE
  5
   387
  8
0
  6
CONTINUOUS
 62
     7
 10
-309.054397900018
 20
84.4108464445176
 30
0.0
 11
-330.565290652254
 21
114.287086378179
 31
0.0
  0
LINE
  5
   388
  8
0
  6
CONTINUOUS
 62
     7
 10
-309.054397900018
 20
84.4108464445176
 30
0.0
 11
-312.103930798241
 21
86.9020743389999
 31
0.0
  0
LINE
  5
   389
  8
0
  6
CONTINUOUS
 62
     7
 10
-309.054397900018
 20
84.4108464445176
 30
0.0
 11
-310.461098287675
 21
88.1230084564494
 31
0.0
  0
LINE
  5
   38A
  8
0
  6
CONTINUOUS
 62
     7
 10
-330.565290652254
 20
114.287086378179
 30
0.0
 11
-359.603997475272
 21
114.287086378179
 31
0.0
  0
LINE
  5
   38B
  8
0
  6
CONTINUOUS
 62
     7
 10
-432.47303425942
 20
82.1058597564738
 30
0.0
 11
-432.47303425942
 21
86.7339801788379
 31
0.0
  0
TEXT
  5
   38C
  8
0
  6
CONTINUOUS
 62
     7
 10
-439.449069970374
 20
31.9843812854413
 30
0.0
 40
3.00000002980232
  1
=     =
 50
89.9999999480344
 41
0.916666604744064
 72
     1
 11
-440.949069976807
 21
41.3343807458878
 31
0.0
 73
     2
  0
INSERT
  5
   38D
  8
0
  6
CONTINUOUS
 62
     7
  2
*UDIM107
 10
0.0
 20
0.0
 30
0.0
  0
INSERT
  5
   38E
  8
0
  6
CONTINUOUS
 62
     7
  2
*UDIM108
 10
0.0
 20
0.0
 30
0.0
  0
INSERT
  5
   38F
  8
0
  6
CONTINUOUS
 62
     7
  2
*UDIM109
 10
0.0
 20
0.0
 30
0.0
  0
TEXT
  5
   390
  8
0
  6
CONTINUOUS
 62
     7
 10
-357.347604866528
 20
115.760782179655
 30
0.0
 40
4.00000017881393
  1
PART. Z
 50
359.999999948034
 41
0.915624995566905
 72
     1
 11
-344.895104378462
 21
117.760782257831
 31
0.0
 73
     2
  0
INSERT
  5
   391
  8
0
  6
CONTINUOUS
 62
     7
  2
*UDIM110
 10
0.0
 20
0.0
 30
0.0
  0
INSERT
  5
   392
  8
0
  6
CONTINUOUS
 62
     7
  2
*UDIM111
 10
0.0
 20
0.0
 30
0.0
  0
INSERT
  5
   393
  8
0
  6
CONTINUOUS
 62
     7
  2
*UDIM112
 10
0.0
 20
0.0
 30
0.0
  0
TEXT
  5
   394
  8
0
  6
CONTINUOUS
 62
     7
 10
-411.776670377314
 20
90.9728877870772
 30
0.0
 40
3.00000002980232
  1
=          =
 50
359.999999948034
 41
0.916666604744064
 72
     2
 11
-379.326672251383
 21
90.972887757809
 31
0.0
  0
INSERT
  5
   395
  8
0
  6
CONTINUOUS
 62
     7
  2
*UDIM113
 10
0.0
 20
0.0
 30
0.0
  0
INSERT
  5
   396
  8
0
  6
CONTINUOUS
 62
     7
  2
*UDIM114
 10
0.0
 20
0.0
 30
0.0
  0
INSERT
  5
   397
  8
0
  6
CONTINUOUS
 62
     7
  2
*UDIM115
 10
0.0
 20
0.0
 30
0.0
  0
TEXT
  5
   398
  8
0
  6
CONTINUOUS
 62
     7
 10
-395.603922207522
 20
113.895145063789
 30
0.0
 40
3.00000002980232
  1
Y
 50
359.999999948034
 41
0.916666604744064
 72
     2
 11
-393.403922338652
 21
113.895145061805
 31
0.0
  0
LINE
  5
   399
  8
0
  6
CONTINUOUS
 62
     7
 10
-537.085113525391
 20
1.88400269676657
 30
0.0
 11
-573.085113525391
 21
1.88400269676657
 31
0.0
  0
LINE
  5
   39A
  8
0
  6
CONTINUOUS
 62
     7
 10
-537.085113525391
 20
-0.76599692176371
 30
0.0
 11
-537.085113525391
 21
7.10897254943848
 31
0.0
  0
LINE
  5
   39B
  8
0
  6
CONTINUOUS
 62
     7
 10
-537.085113525391
 20
79.483980178833
 30
0.0
 11
-537.085113525391
 21
86.7339954488417
 31
0.0
  0
LINE
  5
   39C
  8
0
  6
CONTINUOUS
 62
     7
 10
-536.085113525391
 20
80.1487980001113
 30
0.0
 11
-536.085113525391
 21
80.2339801900527
 31
0.0
  0
LINE
  5
   39D
  8
0
  6
CONTINUOUS
 62
     7
 10
-536.085113525391
 20
5.73398829628439
 30
0.0
 11
-537.085113525391
 21
5.73398829628439
 31
0.0
  0
LINE
  5
   39E
  8
0
  6
CONTINUOUS
 62
     7
 10
-536.085113525391
 20
80.2339801900527
 30
0.0
 11
-537.085113525391
 21
80.2339801900527
 31
0.0
  0
LINE
  5
   39F
  8
0
  6
CONTINUOUS
 62
     7
 10
-537.085113525391
 20
84.0840015523574
 30
0.0
 11
-584.185112000108
 21
84.0840015523574
 31
0.0
  0
LINE
  5
   3A0
  8
0
  6
CONTINUOUS
 62
     7
 10
-573.085113525987
 20
1.88400269676656
 30
0.0
 11
-584.185112000108
 21
1.88400269676656
 31
0.0
  0
LINE
  5
   3A1
  8
0
  6
CONTINUOUS
 62
     3
 10
-573.085113525391
 20
79.483980178833
 30
0.0
 11
-573.085113525391
 21
84.0840015523574
 31
0.0
  0
LINE
  5
   3A2
  8
0
  6
CONTINUOUS
 62
     7
 10
-584.185112000108
 20
1.8840046041152
 30
0.0
 11
-584.185112000108
 21
7.48397254943848
 31
0.0
  0
LINE
  5
   3A3
  8
0
  6
CONTINUOUS
 62
     7
 10
-584.185112000108
 20
79.483980178833
 30
0.0
 11
-584.185112000108
 21
84.0840015523574
 31
0.0
  0
LINE
  5
   3A4
  8
0
  6
CONTINUOUS
 62
   210
 10
-512.335101627454
 20
27.9839754108316
 30
0.0
 11
-513.335084545522
 21
27.9839792254637
 31
0.0
  0
LINE
  5
   3A5
  8
0
  6
CONTINUOUS
 62
   210
 10
-512.335099720105
 20
24.4839754107989
 30
0.0
 11
-513.335084131524
 21
24.4839792254367
 31
0.0
  0
LINE
  5
   3A6
  8
0
  6
CONTINUOUS
 62
   210
 10
-512.085098266602
 20
0.983987808227539
 30
0.0
 11
-512.085098266602
 21
13.4839878082275
 31
0.0
  0
LINE
  5
   3A7
  8
0
  6
CONTINUOUS
 62
   210
 10
-512.085090637207
 20
72.4839878082275
 30
0.0
 11
-512.085090637207
 21
84.9839878082275
 31
0.0
  0
LINE
  5
   3A8
  8
0
  6
CONTINUOUS
 62
     3
 10
-517.585090637207
 20
1.88398933410645
 30
0.0
 11
-536.085113525391
 21
1.88398933410645
 31
0.0
  0
LINE
  5
   3A9
  8
0
  6
CONTINUOUS
 62
   210
 10
-517.585090637207
 20
0.483987808227539
 30
0.0
 11
-536.085113525391
 21
0.483987808227539
 31
0.0
  0
LINE
  5
   3AA
  8
0
  6
CONTINUOUS
 62
   210
 10
-517.585090637207
 20
85.4839878082275
 30
0.0
 11
-536.085113525391
 21
85.4839878082275
 31
0.0
  0
LINE
  5
   3AB
  8
0
  6
CONTINUOUS
 62
     3
 10
-517.585090637207
 20
84.0839939117432
 30
0.0
 11
-536.085113525391
 21
84.0839939117432
 31
0.0
  0
LINE
  5
   3AC
  8
0
  6
CONTINUOUS
 62
   210
 10
-536.085113525391
 20
79.483980178833
 30
0.0
 11
-536.085113525391
 21
85.4839878082275
 31
0.0
  0
LINE
  5
   3AD
  8
0
  6
CONTINUOUS
 62
   210
 10
-517.585096105696
 20
0.483985399029738
 30
0.0
 11
-517.585096306471
 21
0.983987808227536
 31
0.0
  0
LINE
  5
   3AE
  8
0
  6
CONTINUOUS
 62
     3
 10
-536.085122369973
 20
21.2339808820756
 30
0.0
 11
-535.585137644159
 21
21.7339884934528
 31
0.0
  0
LINE
  5
   3AF
  8
0
  6
CONTINUOUS
 62
   210
 10
-511.335092830334
 20
14.7339857541813
 30
0.0
 11
-511.335100459728
 21
21.2339857541813
 31
0.0
  0
LINE
  5
   3B0
  8
0
  6
CONTINUOUS
 62
   210
 10
-511.335098420883
 20
64.7339822330315
 30
0.0
 11
-511.335090791489
 21
71.2339822330315
 31
0.0
  0
LINE
  5
   3B1
  8
0
  6
CONTINUOUS
 62
     2
 10
-511.585098266602
 20
71.4839878082275
 30
0.0
 11
-512.335098266602
 21
71.4839878082275
 31
0.0
  0
LINE
  5
   3B2
  8
0
  6
CONTINUOUS
 62
     2
 10
-511.585098266602
 20
14.4839878082275
 30
0.0
 11
-512.335098266602
 21
14.4839878082275
 31
0.0
  0
LINE
  5
   3B3
  8
0
  6
CONTINUOUS
 62
     2
 10
-512.335098266602
 20
71.2339878082275
 30
0.0
 11
-512.335098266602
 21
71.4839878082275
 31
0.0
  0
LINE
  5
   3B4
  8
0
  6
CONTINUOUS
 62
     2
 10
-512.335098266602
 20
21.2340412139893
 30
0.0
 11
-512.335098266602
 21
64.7339878082275
 31
0.0
  0
LINE
  5
   3B5
  8
0
  6
CONTINUOUS
 62
     2
 10
-512.335098266602
 20
14.4839878082275
 30
0.0
 11
-512.335098266602
 21
14.7340259552002
 31
0.0
  0
LINE
  5
   3B6
  8
0
  6
CONTINUOUS
 62
     2
 10
-511.585098266602
 20
14.4839878082275
 30
0.0
 11
-511.585098266602
 21
14.733980178833
 31
0.0
  0
LINE
  5
   3B7
  8
0
  6
CONTINUOUS
 62
     2
 10
-511.585098266602
 20
21.233980178833
 30
0.0
 11
-511.585098266602
 21
64.7339496612549
 31
0.0
  0
LINE
  5
   3B8
  8
0
  6
CONTINUOUS
 62
     2
 10
-511.585098266602
 20
71.2339496612549
 30
0.0
 11
-511.585098266602
 21
71.4839878082275
 31
0.0
  0
LINE
  5
   3B9
  8
0
  6
CONTINUOUS
 62
   210
 10
-515.58521270752
 20
0.983987808227539
 30
0.0
 11
-517.585098266602
 21
0.983987808227539
 31
0.0
  0
LINE
  5
   3BA
  8
0
  6
CONTINUOUS
 62
   210
 10
-515.585105895996
 20
84.9839878082275
 30
0.0
 11
-517.585090637207
 21
84.9839878082275
 31
0.0
  0
LINE
  5
   3BB
  8
0
  6
CONTINUOUS
 62
   210
 10
-511.335090637207
 20
14.7339878082275
 30
0.0
 11
-513.335082978245
 21
14.7339878082275
 31
0.0
  0
LINE
  5
   3BC
  8
0
  6
CONTINUOUS
 62
   210
 10
-511.335098266602
 20
21.2339878082275
 30
0.0
 11
-513.335083747098
 21
21.2339878082275
 31
0.0
  0
LINE
  5
   3BD
  8
0
  6
CONTINUOUS
 62
   210
 10
-511.335090637207
 20
71.2339878082275
 30
0.0
 11
-513.335089661355
 21
71.2339878082275
 31
0.0
  0
LINE
  5
   3BE
  8
0
  6
CONTINUOUS
 62
   210
 10
-511.335098266602
 20
64.7339878082275
 30
0.0
 11
-513.335088892502
 21
64.7339878082275
 31
0.0
  0
LINE
  5
   3BF
  8
0
  6
CONTINUOUS
 62
   210
 10
-512.335098266602
 20
62.9839878082275
 30
0.0
 11
-513.335088685503
 21
62.9839878082275
 31
0.0
  0
LINE
  5
   3C0
  8
0
  6
CONTINUOUS
 62
   210
 10
-512.335098266602
 20
58.9839878082275
 30
0.0
 11
-513.335088212362
 21
58.9839878082275
 31
0.0
  0
LINE
  5
   3C1
  8
0
  6
DASHDOT
 62
     7
 10
-504.724776933136
 20
67.9839954488418
 30
0.0
 11
-523.957638527894
 21
67.9839954488418
 31
0.0
  0
LINE
  5
   3C2
  8
0
  6
DASHDOT
 62
     7
 10
-504.724776933136
 20
17.9839954488418
 30
0.0
 11
-523.957638527894
 21
17.9839954488418
 31
0.0
  0
LINE
  5
   3C3
  8
0
  6
CONTINUOUS
 62
   210
 10
-512.085090637207
 20
84.9839878082275
 30
0.0
 11
-515.585105895996
 21
84.9839878082275
 31
0.0
  0
LINE
  5
   3C4
  8
0
  6
CONTINUOUS
 62
   210
 10
-512.085090637207
 20
72.4839878082275
 30
0.0
 11
-513.335089809212
 21
72.4839878082275
 31
0.0
  0
LINE
  5
   3C5
  8
0
  6
CONTINUOUS
 62
   210
 10
-517.585090637207
 20
84.9839878082275
 30
0.0
 11
-517.585090637207
 21
85.4839878082275
 31
0.0
  0
LINE
  5
   3C6
  8
0
  6
CONTINUOUS
 62
     3
 10
-517.585090637207
 20
79.483980178833
 30
0.0
 11
-517.585090637207
 21
84.9839878082275
 31
0.0
  0
LINE
  5
   3C7
  8
0
  6
CONTINUOUS
 62
     3
 10
-517.585096306471
 20
0.983987808227536
 30
0.0
 11
-517.58509971958
 21
9.483858963651
 31
0.0
  0
LINE
  5
   3C8
  8
0
  6
CONTINUOUS
 62
   210
 10
-512.085098266602
 20
0.983987808227539
 30
0.0
 11
-515.58521270752
 21
0.983987808227539
 31
0.0
  0
LINE
  5
   3C9
  8
0
  6
CONTINUOUS
 62
   210
 10
-512.085098266602
 20
13.4839878082275
 30
0.0
 11
-513.335085088399
 21
13.4839878082275
 31
0.0
  0
LINE
  5
   3CA
  8
0
  6
DASHDOT
 62
     7
 10
-511.335090637207
 20
71.2339878082275
 30
0.0
 11
-511.335090637207
 21
101.823130970236
 31
0.0
  0
LINE
  5
   3CB
  8
0
  6
CONTINUOUS
 62
     7
 10
-511.335098266602
 20
21.2339878082275
 30
0.0
 11
-511.335098266602
 21
64.7339878082275
 31
0.0
  0
LINE
  5
   3CC
  8
0
  6
DASHDOT
 62
     7
 10
-511.335090637207
 20
-16.9825016845383
 30
0.0
 11
-511.335090637207
 21
14.7339878082275
 31
0.0
  0
LINE
  5
   3CD
  8
0
  6
DASHDOT
 62
     7
 10
-509.835090637207
 20
-17.5091613047294
 30
0.0
 11
-509.835090637207
 21
102.349790590427
 31
0.0
  0
LINE
  5
   3CE
  8
0
  6
CONTINUOUS
 62
     3
 10
-506.983390451175
 20
-18.5624805451115
 30
0.0
 11
-514.444401737215
 21
-15.8414058407909
 31
0.0
  0
LINE
  5
   3CF
  8
0
  6
CONTINUOUS
 62
     3
 10
-513.829965513659
 20
98.4437317406761
 30
0.0
 11
-506.763948942762
 21
103.973657752683
 31
0.0
  0
LINE
  5
   3D0
  8
0
  6
CONTINUOUS
 62
     1
 10
-602.335081100464
 20
24.9840221405029
 30
0.0
 11
-602.335081100464
 21
31.483922958374
 31
0.0
  0
LINE
  5
   3D1
  8
0
  6
CONTINUOUS
 62
     1
 10
-607.335081100464
 20
1.60892105102539
 30
0.0
 11
-607.335081100464
 21
82.1089210510254
 31
0.0
  0
LINE
  5
   3D2
  8
0
  6
CONTINUOUS
 62
     1
 10
-607.335081100464
 20
1.60892105102539
 30
0.0
 11
-609.085081100464
 21
1.60892105102539
 31
0.0
  0
LINE
  5
   3D3
  8
0
  6
CONTINUOUS
 62
     1
 10
-609.085081100464
 20
1.60892105102539
 30
0.0
 11
-609.085081100464
 21
23.983922958374
 31
0.0
  0
LINE
  5
   3D4
  8
0
  6
CONTINUOUS
 62
     1
 10
-609.085081100464
 20
32.483922958374
 30
0.0
 11
-609.085081100464
 21
82.1089191436768
 31
0.0
  0
LINE
  5
   3D5
  8
0
  6
CONTINUOUS
 62
     1
 10
-607.335081100464
 20
82.1089191436768
 30
0.0
 11
-609.085081100464
 21
82.1089191436768
 31
0.0
  0
LINE
  5
   3D6
  8
0
  6
CONTINUOUS
 62
     1
 10
-606.335081100464
 20
43.358922958374
 30
0.0
 11
-606.335081100464
 21
72.8589191436768
 31
0.0
  0
LINE
  5
   3D7
  8
0
  6
CONTINUOUS
 62
     1
 10
-606.335081100464
 20
31.4839267730713
 30
0.0
 11
-606.335081100464
 21
40.3589267730713
 31
0.0
  0
LINE
  5
   3D8
  8
0
  6
CONTINUOUS
 62
     1
 10
-606.335081100464
 20
10.8589210510254
 30
0.0
 11
-606.335081100464
 21
24.9839267730713
 31
0.0
  0
LINE
  5
   3D9
  8
0
  6
CONTINUOUS
 62
     1
 10
-606.335081100464
 20
10.8589210510254
 30
0.0
 11
-607.335081100464
 21
10.8589210510254
 31
0.0
  0
LINE
  5
   3DA
  8
0
  6
CONTINUOUS
 62
     1
 10
-606.335081100464
 20
72.8589191436768
 30
0.0
 11
-607.335081100464
 21
72.8589191436768
 31
0.0
  0
LINE
  5
   3DB
  8
0
  6
CONTINUOUS
 62
     1
 10
-604.085081100464
 20
5.14759635925293
 30
0.0
 11
-604.085081100464
 21
7.57024574279785
 31
0.0
  0
LINE
  5
   3DC
  8
0
  6
CONTINUOUS
 62
     1
 10
-604.085081100464
 20
76.1475925445557
 30
0.0
 11
-604.085081100464
 21
78.5702457427979
 31
0.0
  0
LINE
  5
   3DD
  8
0
  6
CONTINUOUS
 62
     1
 10
-604.085081100464
 20
40.6475963592529
 30
0.0
 11
-604.085081100464
 21
43.0702457427979
 31
0.0
  0
LINE
  5
   3DE
  8
0
  6
CONTINUOUS
 62
     3
 10
-608.585081100464
 20
23.983922958374
 30
0.0
 11
-609.085081100464
 21
23.983922958374
 31
0.0
  0
LINE
  5
   3DF
  8
0
  6
CONTINUOUS
 62
     3
 10
-608.585081100464
 20
23.983922958374
 30
0.0
 11
-608.585081100464
 21
32.483922958374
 31
0.0
  0
LINE
  5
   3E0
  8
0
  6
CONTINUOUS
 62
     3
 10
-608.585081100464
 20
32.483922958374
 30
0.0
 11
-609.085081100464
 21
32.483922958374
 31
0.0
  0
LINE
  5
   3E1
  8
0
  6
CONTINUOUS
 62
     3
 10
-608.585081100464
 20
22.483922958374
 30
0.0
 11
-608.585081100464
 21
23.983922958374
 31
0.0
  0
LINE
  5
   3E2
  8
0
  6
CONTINUOUS
 62
     3
 10
-608.585081100464
 20
32.483922958374
 30
0.0
 11
-608.585081100464
 21
33.983922958374
 31
0.0
  0
LINE
  5
   3E3
  8
0
  6
CONTINUOUS
 62
     3
 10
-608.085081100464
 20
22.483922958374
 30
0.0
 11
-608.585081100464
 21
22.483922958374
 31
0.0
  0
LINE
  5
   3E4
  8
0
  6
CONTINUOUS
 62
     3
 10
-608.085081100464
 20
22.483922958374
 30
0.0
 11
-608.085081100464
 21
33.983922958374
 31
0.0
  0
LINE
  5
   3E5
  8
0
  6
CONTINUOUS
 62
     3
 10
-608.085081100464
 20
33.983922958374
 30
0.0
 11
-608.585081100464
 21
33.983922958374
 31
0.0
  0
LINE
  5
   3E6
  8
0
  6
CONTINUOUS
 62
   130
 10
-600.83504963031
 20
14.9839668320533
 30
0.0
 11
-600.835075379517
 21
16.9839801834938
 31
0.0
  0
LINE
  5
   3E7
  8
0
  6
CONTINUOUS
 62
     3
 10
-593.985725403858
 20
11.4839649220171
 30
0.0
 11
-593.835075856281
 21
11.4839668293657
 31
0.0
  0
LINE
  5
   3E8
  8
0
  6
CONTINUOUS
 62
   130
 10
-600.835075379436
 20
9.48396873821779
 30
0.0
 11
-600.835050583904
 21
11.4839611088233
 31
0.0
  0
LINE
  5
   3E9
  8
0
  6
CONTINUOUS
 62
   130
 10
-535.085105688007
 20
9.48390965173147
 30
0.0
 11
-536.085105688007
 21
9.48397259423636
 31
0.0
  0
LINE
  5
   3EA
  8
0
  6
CONTINUOUS
 62
   130
 10
-598.335075378418
 20
9.48396873474124
 30
0.0
 11
-538.58511352539
 21
9.48397254943852
 31
0.0
  0
LINE
  5
   3EB
  8
0
  6
CONTINUOUS
 62
   130
 10
-513.335090637207
 20
79.483980178833
 30
0.0
 11
-535.085113525391
 21
79.483980178833
 31
0.0
  0
LINE
  5
   3EC
  8
0
  6
CONTINUOUS
 62
   130
 10
-513.335090636585
 20
9.48384666452342
 30
0.0
 11
-535.085105895374
 21
9.4839096070271
 31
0.0
  0
LINE
  5
   3ED
  8
0
  6
CONTINUOUS
 62
   130
 10
-513.335090637136
 20
9.48384666447223
 30
0.0
 11
-513.335083007741
 21
14.9839553833443
 31
0.0
  0
LINE
  5
   3EE
  8
0
  6
CONTINUOUS
 62
     3
 10
-555.585083007813
 20
63.4839878082275
 30
0.0
 11
-600.835075378418
 21
63.4839878082275
 31
0.0
  0
LINE
  5
   3EF
  8
0
  6
CONTINUOUS
 62
     3
 10
-555.585083007813
 20
48.4839649200439
 30
0.0
 11
-572.835092544556
 21
48.4839649200439
 31
0.0
  0
LINE
  5
   3F0
  8
0
  6
CONTINUOUS
 62
   130
 10
-600.835050582886
 20
11.4839611053485
 30
0.0
 11
-600.835049629212
 21
14.9839668273944
 31
0.0
  0
LINE
  5
   3F1
  8
0
  6
CONTINUOUS
 62
   130
 10
-535.085113525391
 20
79.483980178833
 30
0.0
 11
-600.835075378418
 21
79.483980178833
 31
0.0
  0
LINE
  5
   3F2
  8
0
  6
CONTINUOUS
 62
   130
 10
-600.835075378418
 20
63.4839878082275
 30
0.0
 11
-600.835075378418
 21
79.483980178833
 31
0.0
  0
LINE
  5
   3F3
  8
0
  6
CONTINUOUS
 62
     3
 10
-549.710113525225
 20
11.4839916229654
 30
0.0
 11
-537.08510589583
 21
11.4840145111489
 31
0.0
  0
LINE
  5
   3F4
  8
0
  6
CONTINUOUS
 62
     3
 10
-570.147583007799
 20
11.4839801788382
 30
0.0
 11
-551.710113525377
 21
11.4839916229296
 31
0.0
  0
LINE
  5
   3F5
  8
0
  6
CONTINUOUS
 62
     3
 10
-598.835021018976
 20
11.4839611053521
 30
0.0
 11
-572.147582054132
 21
11.4839782714895
 31
0.0
  0
LINE
  5
   3F6
  8
0
  6
CONTINUOUS
 62
     3
 10
-598.835016250604
 20
13.7339668273979
 30
0.0
 11
-572.147581100458
 21
13.7339839935358
 31
0.0
  0
LINE
  5
   3F7
  8
0
  6
CONTINUOUS
 62
     3
 10
-570.14758110045
 20
13.7339859008844
 30
0.0
 11
-551.71010971068
 21
13.7339973449759
 31
0.0
  0
LINE
  5
   3F8
  8
0
  6
CONTINUOUS
 62
     3
 10
-549.710109710675
 20
13.7339992523242
 30
0.0
 11
-537.085105895978
 21
13.7340068817188
 31
0.0
  0
LINE
  5
   3F9
  8
0
  6
CONTINUOUS
 62
     3
 10
-598.835021018998
 20
11.4839611054174
 30
0.0
 11
-598.835017204301
 21
13.7339668274633
 31
0.0
  0
LINE
  5
   3FA
  8
0
  6
CONTINUOUS
 62
     3
 10
-537.085105895996
 20
11.4840145111084
 30
0.0
 11
-537.085105895996
 21
13.7340068817139
 31
0.0
  0
LINE
  5
   3FB
  8
0
  6
CONTINUOUS
 62
     3
 10
-549.710113525336
 20
11.483991623002
 30
0.0
 11
-549.710109710639
 21
13.7340087891397
 31
0.0
  0
LINE
  5
   3FC
  8
0
  6
CONTINUOUS
 62
     3
 10
-551.710113525339
 20
11.4839916229956
 30
0.0
 11
-551.710109710642
 21
13.7340068817846
 31
0.0
  0
LINE
  5
   3FD
  8
0
  6
CONTINUOUS
 62
     3
 10
-570.147583007806
 20
11.4839801788523
 30
0.0
 11
-570.147581100458
 21
13.7339954376414
 31
0.0
  0
LINE
  5
   3FE
  8
0
  6
CONTINUOUS
 62
     3
 10
-572.147582054133
 20
11.4839782715021
 30
0.0
 11
-572.147580146784
 21
13.7339954376398
 31
0.0
  0
LINE
  5
   3FF
  8
0
  6
CONTINUOUS
 62
   130
 10
-584.835076093674
 20
7.48397254943848
 30
0.0
 11
-584.835076093674
 21
9.48397254943848
 31
0.0
  0
LINE
  5
   400
  8
0
  6
CONTINUOUS
 62
   130
 10
-582.835075855255
 20
7.48397254943848
 30
0.0
 11
-582.835075855255
 21
9.48397254943848
 31
0.0
  0
LINE
  5
   401
  8
0
  6
CONTINUOUS
 62
   130
 10
-582.835075855255
 20
7.48397254943848
 30
0.0
 11
-584.835076093674
 21
7.48397254943848
 31
0.0
  0
LINE
  5
   402
  8
0
  6
CONTINUOUS
 62
   130
 10
-542.960075378418
 20
7.48399925231934
 30
0.0
 11
-542.960075378418
 21
9.48396492004395
 31
0.0
  0
LINE
  5
   403
  8
0
  6
CONTINUOUS
 62
   130
 10
-540.960075378418
 20
7.48399925231934
 30
0.0
 11
-540.960075378418
 21
9.48396492004395
 31
0.0
  0
LINE
  5
   404
  8
0
  6
CONTINUOUS
 62
   130
 10
-540.960075378418
 20
7.48399925231934
 30
0.0
 11
-542.960075378418
 21
7.48399925231934
 31
0.0
  0
LINE
  5
   405
  8
0
  6
CONTINUOUS
 62
   130
 10
-598.335075378418
 20
7.10897254943848
 30
0.0
 11
-598.335075378418
 21
8.35897254943848
 31
0.0
  0
LINE
  5
   406
  8
0
  6
CONTINUOUS
 62
   130
 10
-600.835075378418
 20
7.10897254943848
 30
0.0
 11
-600.835075378418
 21
9.48396873474121
 31
0.0
  0
LINE
  5
   407
  8
0
  6
CONTINUOUS
 62
   130
 10
-598.335075378418
 20
7.10897254943848
 30
0.0
 11
-600.835075378418
 21
7.10897254943848
 31
0.0
  0
LINE
  5
   408
  8
0
  6
CONTINUOUS
 62
   130
 10
-598.335075378418
 20
8.35897254943848
 30
0.0
 11
-598.335075378418
 21
9.48397254943848
 31
0.0
  0
LINE
  5
   409
  8
0
  6
CONTINUOUS
 62
   130
 10
-538.585121154785
 20
7.10897254943848
 30
0.0
 11
-538.585121154785
 21
8.35897254943848
 31
0.0
  0
LINE
  5
   40A
  8
0
  6
CONTINUOUS
 62
   130
 10
-536.085121154785
 20
7.10897254943848
 30
0.0
 11
-538.585121154785
 21
7.10897254943848
 31
0.0
  0
LINE
  5
   40B
  8
0
  6
CONTINUOUS
 62
   130
 10
-536.085121153722
 20
7.10897255027409
 30
0.0
 11
-536.085105894933
 21
9.48397255027409
 31
0.0
  0
LINE
  5
   40C
  8
0
  6
CONTINUOUS
 62
   130
 10
-538.585121153658
 20
8.35897255042701
 30
0.0
 11
-538.585113524264
 21
9.48396492103248
 31
0.0
  0
LINE
  5
   40D
  8
0
  6
CONTINUOUS
 62
     3
 10
-597.335079127652
 20
69.2339964359331
 30
0.0
 11
-598.835079160603
 21
70.733996468884
 31
0.0
  0
LINE
  5
   40E
  8
0
  6
CONTINUOUS
 62
   130
 10
-600.835075378418
 20
16.983980178833
 30
0.0
 11
-600.835075378418
 21
48.4839763641357
 31
0.0
  0
LINE
  5
   40F
  8
0
  6
CONTINUOUS
 62
     3
 10
-572.835094451905
 20
48.4839725494391
 30
0.0
 11
-600.835075378418
 21
48.4839763641363
 31
0.0
  0
LINE
  5
   410
  8
0
  6
CONTINUOUS
 62
     3
 10
-555.585083007813
 20
48.4839649200439
 30
0.0
 11
-555.585083007813
 21
63.4839878082275
 31
0.0
  0
LINE
  5
   411
  8
0
  6
CONTINUOUS
 62
     3
 10
-593.085075855255
 20
63.2339878082275
 30
0.0
 11
-593.085075855255
 21
63.4839878082275
 31
0.0
  0
LINE
  5
   412
  8
0
  6
CONTINUOUS
 62
     3
 10
-549.710113525372
 20
72.8589801788485
 30
0.0
 11
-537.085105895978
 21
72.8589878082433
 31
0.0
  0
LINE
  5
   413
  8
0
  6
CONTINUOUS
 62
     3
 10
-549.710113525391
 20
69.233980178833
 30
0.0
 11
-549.710113525391
 21
72.858980178833
 31
0.0
  0
LINE
  5
   414
  8
0
  6
CONTINUOUS
 62
     3
 10
-549.710113525372
 20
69.2339801788479
 30
0.0
 11
-537.085105895978
 21
69.2339878082426
 31
0.0
  0
LINE
  5
   415
  8
0
  6
CONTINUOUS
 62
     3
 10
-537.085105895996
 20
69.2339878082275
 30
0.0
 11
-537.085105895996
 21
72.8589878082275
 31
0.0
  0
LINE
  5
   416
  8
0
  6
CONTINUOUS
 62
     3
 10
-572.147582054138
 20
69.2339878082275
 30
0.0
 11
-572.147582054138
 21
72.8589878082275
 31
0.0
  0
LINE
  5
   417
  8
0
  6
CONTINUOUS
 62
     3
 10
-551.710113525391
 20
69.2339878082275
 30
0.0
 11
-572.147583007813
 21
69.2339878082275
 31
0.0
  0
LINE
  5
   418
  8
0
  6
CONTINUOUS
 62
     3
 10
-551.710113525391
 20
69.2339878082275
 30
0.0
 11
-551.710113525391
 21
72.8589878082275
 31
0.0
  0
LINE
  5
   419
  8
0
  6
CONTINUOUS
 62
     3
 10
-551.710113525391
 20
72.8589878082275
 30
0.0
 11
-572.147583007813
 21
72.8589878082275
 31
0.0
  0
LINE
  5
   41A
  8
0
  6
CONTINUOUS
 62
     3
 10
-574.147582054138
 20
69.2339878082275
 30
0.0
 11
-598.835074424744
 21
69.2339878082275
 31
0.0
  0
LINE
  5
   41B
  8
0
  6
CONTINUOUS
 62
     3
 10
-574.147582054138
 20
69.2339878082275
 30
0.0
 11
-574.147582054138
 21
72.8589878082275
 31
0.0
  0
LINE
  5
   41C
  8
0
  6
CONTINUOUS
 62
     3
 10
-574.147582054138
 20
72.8589878082275
 30
0.0
 11
-598.835074424744
 21
72.8589878082275
 31
0.0
  0
LINE
  5
   41D
  8
0
  6
CONTINUOUS
 62
     3
 10
-598.835075378418
 20
69.2339878082275
 30
0.0
 11
-598.835075378418
 21
72.8589878082275
 31
0.0
  0
LINE
  5
   41E
  8
0
  6
CONTINUOUS
 62
     3
 10
-593.835075855255
 20
11.4839668273926
 30
0.0
 11
-593.835075855255
 21
13.7339782714844
 31
0.0
  0
LINE
  5
   41F
  8
0
  6
CONTINUOUS
 62
     3
 10
-591.835074424744
 20
11.4839668273926
 30
0.0
 11
-591.835074424744
 21
13.733980178833
 31
0.0
  0
LINE
  5
   420
  8
0
  6
CONTINUOUS
 62
     3
 10
-598.834879875184
 20
11.4839477539107
 30
0.0
 11
-598.83487892151
 21
13.733966827397
 31
0.0
  0
LINE
  5
   421
  8
0
  6
CONTINUOUS
 62
   130
 10
-600.835075378514
 20
9.48394203218944
 30
0.0
 11
-600.835073471166
 21
9.98397827181347
 31
0.0
  0
LINE
  5
   422
  8
0
  6
CONTINUOUS
 62
   130
 10
-535.08510969847
 20
9.48390960956666
 30
0.0
 11
-536.085105883773
 21
9.48392486835572
 31
0.0
  0
LINE
  5
   423
  8
0
  6
CONTINUOUS
 62
   130
 10
-513.335083007812
 20
14.9839553833012
 30
0.0
 11
-513.335090637207
 21
79.4839782714848
 31
0.0
  0
LINE
  5
   424
  8
0
  6
CONTINUOUS
 62
     3
 10
-549.68408203125
 20
11.4839820861816
 30
0.0
 11
-549.68408203125
 21
13.7339992523193
 31
0.0
  0
LINE
  5
   425
  8
0
  6
CONTINUOUS
 62
     3
 10
-551.710720062256
 20
11.483959197998
 30
0.0
 11
-551.710720062256
 21
13.7339973449707
 31
0.0
  0
LINE
  5
   426
  8
0
  6
CONTINUOUS
 62
     3
 10
-562.835075378418
 20
63.2339878082275
 30
0.0
 11
-600.835075378418
 21
63.2339878082275
 31
0.0
  0
LINE
  5
   427
  8
0
  6
CONTINUOUS
 62
     3
 10
-562.835075378418
 20
48.4839649200439
 30
0.0
 11
-562.835075378418
 21
63.2339878082275
 31
0.0
  0
LINE
  5
   428
  8
0
  6
CONTINUOUS
 62
     7
 10
-600.835075378418
 20
48.4839763641357
 30
0.0
 11
-600.835075378418
 21
63.2339878082275
 31
0.0
  0
LINE
  5
   429
  8
0
  6
CONTINUOUS
 62
     5
 10
-600.835057258606
 20
15.6089839935303
 30
0.0
 11
-606.335081100464
 21
15.6089839935303
 31
0.0
  0
LINE
  5
   42A
  8
0
  6
CONTINUOUS
 62
     5
 10
-600.835075378418
 20
68.1090106964111
 30
0.0
 11
-606.335081100464
 21
68.1090106964111
 31
0.0
  0
LINE
  5
   42B
  8
0
  6
CONTINUOUS
 62
     5
 10
-609.08522576333
 20
15.8587084374379
 30
0.0
 11
-609.085082712188
 21
15.8597326836808
 31
0.0
  0
LINE
  5
   42C
  8
0
  6
CONTINUOUS
 62
     1
 10
-602.335081100464
 20
24.9840221405029
 30
0.0
 11
-607.335081100464
 21
24.9840221405029
 31
0.0
  0
LINE
  5
   42D
  8
0
  6
CONTINUOUS
 62
     1
 10
-602.335081100464
 20
31.483922958374
 30
0.0
 11
-607.335081100464
 21
31.483922958374
 31
0.0
  0
LINE
  5
   42E
  8
0
  6
CONTINUOUS
 62
     1
 10
-609.085081100464
 20
23.983922958374
 30
0.0
 11
-609.085081100464
 21
32.483922958374
 31
0.0
  0
LINE
  5
   42F
  8
0
  6
CONTINUOUS
 62
     1
 10
-604.585081100464
 20
4.85892105102539
 30
0.0
 11
-607.335081100464
 21
4.85892105102539
 31
0.0
  0
LINE
  5
   430
  8
0
  6
CONTINUOUS
 62
     1
 10
-604.585081100464
 20
7.85892105102539
 30
0.0
 11
-607.335081100464
 21
7.85892105102539
 31
0.0
  0
LINE
  5
   431
  8
0
  6
CONTINUOUS
 62
     1
 10
-604.585081100464
 20
7.7447395324707
 30
0.0
 11
-604.585081100464
 21
7.85892105102539
 31
0.0
  0
LINE
  5
   432
  8
0
  6
CONTINUOUS
 62
     1
 10
-604.585081100464
 20
7.41958045959473
 30
0.0
 11
-604.585081100464
 21
7.7447395324707
 31
0.0
  0
LINE
  5
   433
  8
0
  6
CONTINUOUS
 62
     1
 10
-604.585081100464
 20
6.93294715881348
 30
0.0
 11
-604.585081100464
 21
7.41958045959473
 31
0.0
  0
LINE
  5
   434
  8
0
  6
CONTINUOUS
 62
     1
 10
-604.585081100464
 20
6.35892105102539
 30
0.0
 11
-604.585081100464
 21
6.93294715881348
 31
0.0
  0
LINE
  5
   435
  8
0
  6
CONTINUOUS
 62
     1
 10
-604.585081100464
 20
5.78489685058594
 30
0.0
 11
-604.585081100464
 21
6.35892105102539
 31
0.0
  0
LINE
  5
   436
  8
0
  6
CONTINUOUS
 62
     1
 10
-604.585081100464
 20
5.29826164245605
 30
0.0
 11
-604.585081100464
 21
5.78489685058594
 31
0.0
  0
LINE
  5
   437
  8
0
  6
CONTINUOUS
 62
     1
 10
-604.585081100464
 20
4.97310256958008
 30
0.0
 11
-604.585081100464
 21
5.29826164245605
 31
0.0
  0
LINE
  5
   438
  8
0
  6
CONTINUOUS
 62
     1
 10
-604.585081100464
 20
4.85892105102539
 30
0.0
 11
-604.585081100464
 21
4.97310256958008
 31
0.0
  0
LINE
  5
   439
  8
0
  6
CONTINUOUS
 62
     1
 10
-604.58508050116
 20
4.85892063807374
 30
0.0
 11
-604.085080484696
 21
5.14759593033028
 31
0.0
  0
LINE
  5
   43A
  8
0
  6
CONTINUOUS
 62
     1
 10
-604.085080023949
 20
7.57024484165912
 30
0.0
 11
-604.585080040413
 21
7.85892013391566
 31
0.0
  0
LINE
  5
   43B
  8
0
  6
CONTINUOUS
 62
     1
 10
-604.585081100464
 20
75.8589191436768
 30
0.0
 11
-607.335081100464
 21
75.8589191436768
 31
0.0
  0
LINE
  5
   43C
  8
0
  6
CONTINUOUS
 62
     1
 10
-604.585081100464
 20
78.8589191436768
 30
0.0
 11
-607.335081100464
 21
78.8589191436768
 31
0.0
  0
LINE
  5
   43D
  8
0
  6
CONTINUOUS
 62
     1
 10
-604.585081100464
 20
78.7447376251221
 30
0.0
 11
-604.585081100464
 21
78.8589191436768
 31
0.0
  0
LINE
  5
   43E
  8
0
  6
CONTINUOUS
 62
     1
 10
-604.585081100464
 20
78.4195804595947
 30
0.0
 11
-604.585081100464
 21
78.7447376251221
 31
0.0
  0
LINE
  5
   43F
  8
0
  6
CONTINUOUS
 62
     1
 10
-604.585081100464
 20
77.9329471588135
 30
0.0
 11
-604.585081100464
 21
78.4195804595947
 31
0.0
  0
LINE
  5
   440
  8
0
  6
CONTINUOUS
 62
     1
 10
-604.585081100464
 20
77.3589191436768
 30
0.0
 11
-604.585081100464
 21
77.9329471588135
 31
0.0
  0
LINE
  5
   441
  8
0
  6
CONTINUOUS
 62
     1
 10
-604.585081100464
 20
76.7848987579346
 30
0.0
 11
-604.585081100464
 21
77.3589191436768
 31
0.0
  0
LINE
  5
   442
  8
0
  6
CONTINUOUS
 62
     1
 10
-604.585081100464
 20
76.2982578277588
 30
0.0
 11
-604.585081100464
 21
76.7848987579346
 31
0.0
  0
LINE
  5
   443
  8
0
  6
CONTINUOUS
 62
     1
 10
-604.585081100464
 20
75.9731006622314
 30
0.0
 11
-604.585081100464
 21
76.2982578277588
 31
0.0
  0
LINE
  5
   444
  8
0
  6
CONTINUOUS
 62
     1
 10
-604.585081100464
 20
75.8589191436768
 30
0.0
 11
-604.585081100464
 21
75.9731006622314
 31
0.0
  0
LINE
  5
   445
  8
0
  6
CONTINUOUS
 62
     1
 10
-604.585081191171
 20
75.8589180711097
 30
0.0
 11
-604.085081174707
 21
76.1475914756079
 31
0.0
  0
LINE
  5
   446
  8
0
  6
CONTINUOUS
 62
     1
 10
-604.085080365542
 20
78.5702444758839
 30
0.0
 11
-604.585080382005
 21
78.8589178803821
 31
0.0
  0
LINE
  5
   447
  8
0
  6
CONTINUOUS
 62
     1
 10
-604.585081100464
 20
40.358922958374
 30
0.0
 11
-607.335081100464
 21
40.358922958374
 31
0.0
  0
LINE
  5
   448
  8
0
  6
CONTINUOUS
 62
     1
 10
-604.585081100464
 20
43.358922958374
 30
0.0
 11
-607.335081100464
 21
43.358922958374
 31
0.0
  0
LINE
  5
   449
  8
0
  6
CONTINUOUS
 62
     1
 10
-604.585081100464
 20
43.2447414398193
 30
0.0
 11
-604.585081100464
 21
43.358922958374
 31
0.0
  0
LINE
  5
   44A
  8
0
  6
CONTINUOUS
 62
     1
 10
-604.585081100464
 20
42.9195804595947
 30
0.0
 11
-604.585081100464
 21
43.2447414398193
 31
0.0
  0
LINE
  5
   44B
  8
0
  6
CONTINUOUS
 62
     1
 10
-604.585081100464
 20
42.4329471588135
 30
0.0
 11
-604.585081100464
 21
42.9195804595947
 31
0.0
  0
LINE
  5
   44C
  8
0
  6
CONTINUOUS
 62
     1
 10
-604.585081100464
 20
41.858922958374
 30
0.0
 11
-604.585081100464
 21
42.4329471588135
 31
0.0
  0
LINE
  5
   44D
  8
0
  6
CONTINUOUS
 62
     1
 10
-604.585081100464
 20
41.2848949432373
 30
0.0
 11
-604.585081100464
 21
41.858922958374
 31
0.0
  0
LINE
  5
   44E
  8
0
  6
CONTINUOUS
 62
     1
 10
-604.585081100464
 20
40.7982616424561
 30
0.0
 11
-604.585081100464
 21
41.2848949432373
 31
0.0
  0
LINE
  5
   44F
  8
0
  6
CONTINUOUS
 62
     1
 10
-604.585081100464
 20
40.4731006622314
 30
0.0
 11
-604.585081100464
 21
40.7982616424561
 31
0.0
  0
LINE
  5
   450
  8
0
  6
CONTINUOUS
 62
     1
 10
-604.585081100464
 20
40.358922958374
 30
0.0
 11
-604.585081100464
 21
40.4731006622314
 31
0.0
  0
LINE
  5
   451
  8
0
  6
CONTINUOUS
 62
     1
 10
-604.585081032456
 20
40.3589223439786
 30
0.0
 11
-604.085081015992
 21
40.6475957484768
 31
0.0
  0
LINE
  5
   452
  8
0
  6
CONTINUOUS
 62
     1
 10
-604.085080300664
 20
43.0702446172035
 30
0.0
 11
-604.585080317127
 21
43.3589218316359
 31
0.0
  0
LINE
  5
   453
  8
0
  6
CONTINUOUS
 62
     3
 10
-597.335016250611
 20
11.4839744567919
 30
0.0
 11
-597.335017204286
 21
13.7339763641406
 31
0.0
  0
LINE
  5
   454
  8
0
  6
CONTINUOUS
 62
     3
 10
-537.085105895996
 20
69.9839878082275
 30
0.0
 11
-549.710105895996
 21
69.9839878082275
 31
0.0
  0
LINE
  5
   455
  8
0
  6
CONTINUOUS
 62
     3
 10
-551.710109710693
 20
69.9839878082275
 30
0.0
 11
-572.147577285767
 21
69.9839878082275
 31
0.0
  0
LINE
  5
   456
  8
0
  6
CONTINUOUS
 62
     3
 10
-574.147577285767
 20
69.9839878082275
 30
0.0
 11
-597.335075378418
 21
69.9839878082275
 31
0.0
  0
LINE
  5
   457
  8
0
  6
CONTINUOUS
 62
     3
 10
-597.710073577226
 20
69.6089958482733
 30
0.0
 11
-597.335073568989
 21
69.983995856511
 31
0.0
  0
LINE
  5
   458
  8
0
  6
CONTINUOUS
 62
     3
 10
-597.335075378418
 20
69.9839878082275
 30
0.0
 11
-597.335075378418
 21
72.8589878082275
 31
0.0
  0
CIRCLE
  5
   459
  8
0
  6
CONTINUOUS
 62
   130
 10
-594.835113895265
 20
40.9839576692161
 30
0.0
 40
1.37500059567855
  0
CIRCLE
  5
   45A
  8
0
  6
CONTINUOUS
 62
   130
 10
-594.835115793701
 20
40.9839558745864
 30
0.0
 40
4.99999986407101
  0
CIRCLE
  5
   45B
  8
0
  6
CONTINUOUS
 62
   130
 10
-523.585098933017
 20
67.9839474329788
 30
0.0
 40
3.0000302339575
  0
CIRCLE
  5
   45C
  8
0
  6
CONTINUOUS
 62
   130
 10
-523.585090957915
 20
67.9839963397048
 30
0.0
 40
1.6250002059247
  0
CIRCLE
  5
   45D
  8
0
  6
CONTINUOUS
 62
   130
 10
-523.58509616482
 20
17.9839678408598
 30
0.0
 40
3.00000374068708
  0
CIRCLE
  5
   45E
  8
0
  6
CONTINUOUS
 62
   130
 10
-523.585109860307
 20
17.9839777003374
 30
0.0
 40
1.62499836700228
  0
LINE
  5
   45F
  8
0
  6
DASHDOT
 62
     7
 10
-523.58509616482
 20
13.4839641001727
 30
0.0
 11
-523.58509616482
 21
22.4839715815469
 31
0.0
  0
LINE
  5
   460
  8
0
  6
DASHDOT
 62
     7
 10
-519.085092424133
 20
17.9839678408598
 30
0.0
 11
-528.085099905507
 21
17.9839678408598
 31
0.0
  0
LINE
  5
   461
  8
0
  6
DASHDOT
 62
     7
 10
-523.585098933017
 20
63.4839171990213
 30
0.0
 11
-523.585098933017
 21
72.4839776669363
 31
0.0
  0
LINE
  5
   462
  8
0
  6
DASHDOT
 62
     7
 10
-519.085068699059
 20
67.9839474329788
 30
0.0
 11
-528.085129166974
 21
67.9839474329788
 31
0.0
  0
LINE
  5
   463
  8
0
  6
CONTINUOUS
 62
     7
 10
-536.085113525391
 20
0.483987808227536
 30
0.0
 11
-536.085113525391
 21
7.10897254943847
 31
0.0
  0
LINE
  5
   464
  8
0
  6
CONTINUOUS
 62
     7
 10
-607.335081100464
 20
82.1089191436767
 30
0.0
 11
-607.335081100464
 21
108.618432456915
 31
0.0
  0
LINE
  5
   465
  8
0
  6
CONTINUOUS
 62
     7
 10
-606.335081100464
 20
72.8589191436767
 30
0.0
 11
-606.335081100464
 21
75.8589191436768
 31
0.0
  0
LINE
  5
   466
  8
0
  6
CONTINUOUS
 62
     7
 10
-607.335081100464
 20
-23.800851863409
 30
0.0
 11
-607.335081100464
 21
1.60892105102539
 31
0.0
  0
LINE
  5
   467
  8
0
  6
CONTINUOUS
 62
     7
 10
-606.335081100464
 20
-23.4975731748844
 30
0.0
 11
-606.335081100464
 21
4.85892105102539
 31
0.0
  0
LINE
  5
   468
  8
0
  6
CONTINUOUS
 62
     3
 10
-611.049643732571
 20
-24.927399546917
 30
0.0
 11
-601.314409539228
 21
-21.9749104882801
 31
0.0
  0
LINE
  5
   469
  8
0
  6
CONTINUOUS
 62
     3
 10
-611.927410750004
 20
108.493187102837
 30
0.0
 11
-603.149740575678
 21
108.732578107591
 31
0.0
  0
LINE
  5
   46A
  8
0
  6
CONTINUOUS
 62
     7
 10
-606.335081100464
 20
8.10892105102539
 30
0.0
 11
-607.335081100464
 21
8.10892105102539
 31
0.0
  0
LINE
  5
   46B
  8
0
  6
CONTINUOUS
 62
     7
 10
-606.335081100464
 20
4.60892105102539
 30
0.0
 11
-607.335081100464
 21
4.60892105102539
 31
0.0
  0
LINE
  5
   46C
  8
0
  6
CONTINUOUS
 62
     7
 10
-606.335081100464
 20
75.6089191436768
 30
0.0
 11
-607.335081100464
 21
75.6089191436768
 31
0.0
  0
LINE
  5
   46D
  8
0
  6
CONTINUOUS
 62
     7
 10
-606.335081100464
 20
79.1089191436768
 30
0.0
 11
-607.335081100464
 21
79.1089191436768
 31
0.0
  0
LINE
  5
   46E
  8
0
  6
CONTINUOUS
 62
     7
 10
-606.335081100464
 20
78.8589191436768
 30
0.0
 11
-606.335081100464
 21
108.645705184188
 31
0.0
  0
LINE
  5
   46F
  8
0
  6
CONTINUOUS
 62
     7
 10
-606.335081100464
 20
7.85892105102539
 30
0.0
 11
-606.335081100464
 21
10.8589210510254
 31
0.0
  0
LINE
  5
   470
  8
0
  6
CONTINUOUS
 62
     7
 10
-606.335081100464
 20
10.3589210510254
 30
0.0
 11
-607.335081100464
 21
10.3589210510254
 31
0.0
  0
LINE
  5
   471
  8
0
  6
CONTINUOUS
 62
     7
 10
-606.335081100464
 20
73.3589191436768
 30
0.0
 11
-607.335081100464
 21
73.3589191436768
 31
0.0
  0
INSERT
  5
   472
  8
0
  6
CONTINUOUS
 62
     7
  2
*HATCH17
 10
-587.585083007813
 20
-13.13454246521
 30
0.0
 41
0.5
 42
0.5
 50
89.9999999480344
 43
0.5
  0
INSERT
  5
   473
  8
0
  6
CONTINUOUS
 62
     7
  2
*HATCH18
 10
-587.585083007813
 20
-13.13454246521
 30
0.0
 41
0.5
 42
0.5
 50
89.9999999480344
 43
0.5
  0
INSERT
  5
   474
  8
0
  6
CONTINUOUS
 62
     7
  2
*HATCH19
 10
-587.585083007813
 20
-13.13454246521
 30
0.0
 41
0.5
 42
0.5
 50
89.9999999480344
 43
0.5
  0
INSERT
  5
   475
  8
0
  6
CONTINUOUS
 62
     7
  2
*HATCH20
 10
-587.585083007813
 20
-13.13454246521
 30
0.0
 41
0.5
 42
0.5
 50
89.9999999480344
 43
0.5
  0
LINE
  5
   476
  8
0
  6
DASHDOT
 62
     7
 10
-594.835115793701
 20
34.4839560105154
 30
0.0
 11
-594.835115793701
 21
47.4839557386574
 31
0.0
  0
LINE
  5
   477
  8
0
  6
DASHDOT
 62
     7
 10
-588.33511592963
 20
40.9839558745864
 30
0.0
 11
-601.335115657772
 21
40.9839558745864
 31
0.0
  0
LINE
  5
   478
  8
0
  6
DASHDOT
 62
     7
 10
-477.50713676412
 20
41.8590106964111
 30
0.0
 11
-631.46750593266
 21
41.8590106964111
 31
0.0
  0
LINE
  5
   479
  8
0
  6
CONTINUOUS
 62
     7
 10
-537.085113525391
 20
86.7339954488417
 30
0.0
 11
-586.335113525987
 21
86.7339954488417
 31
0.0
  0
LINE
  5
   47A
  8
0
  6
CONTINUOUS
 62
     7
 10
-586.835113525987
 20
79.483980178833
 30
0.0
 11
-586.835113525987
 21
86.2339954488418
 31
0.0
  0
LINE
  5
   47B
  8
0
  6
CONTINUOUS
 62
     7
 10
-537.085113525391
 20
-0.76599692176371
 30
0.0
 11
-586.335113525987
 21
-0.76599692176371
 31
0.0
  0
LINE
  5
   47C
  8
0
  6
CONTINUOUS
 62
     7
 10
-586.835113525987
 20
-0.26599692176371
 30
0.0
 11
-586.835113525987
 21
9.48396946894879
 31
0.0
  0
ARC
  5
   47D
  8
0
  6
CONTINUOUS
 62
     7
 10
-586.335113525987
 20
-0.26599692176371
 30
0.0
 40
0.5
 50
179.999999948034
 51
269.999999948034
  0
ARC
  5
   47E
  8
0
  6
CONTINUOUS
 62
     7
 10
-586.335113525987
 20
86.2339954488418
 30
0.0
 40
0.5
 50
89.9999999480344
 51
179.999999948034
  0
LINE
  5
   47F
  8
0
  6
DASHDOT
 62
     7
 10
-457.999306236708
 20
78.7340106964111
 30
0.0
 11
-516.508303986561
 21
78.7340106964111
 31
0.0
  0
LINE
  5
   480
  8
0
  6
DASHDOT
 62
     7
 10
-459.535964750456
 20
7.23401069641113
 30
0.0
 11
-516.914213782645
 21
7.23401069641113
 31
0.0
  0
LINE
  5
   481
  8
0
  6
CONTINUOUS
 62
   253
 10
-504.085105895996
 20
1.73401069641113
 30
0.0
 11
-504.085105895996
 21
12.7340106964111
 31
0.0
  0
LINE
  5
   482
  8
0
  6
CONTINUOUS
 62
     7
 10
-497.185104370117
 20
73.2340106964111
 30
0.0
 11
-497.185104370117
 21
75.9502623081207
 31
0.0
  0
LINE
  5
   483
  8
0
  6
CONTINUOUS
 62
     7
 10
-497.185104370117
 20
76.0907733440399
 30
0.0
 11
-497.185104370117
 21
81.3772490024567
 31
0.0
  0
LINE
  5
   484
  8
0
  6
CONTINUOUS
 62
     7
 10
-497.185104370117
 20
81.5177597999573
 30
0.0
 11
-497.185104370117
 21
84.2340106964111
 31
0.0
  0
LINE
  5
   485
  8
0
  6
CONTINUOUS
 62
     7
 10
-495.935104370117
 20
73.2340106964111
 30
0.0
 11
-495.935104370117
 21
84.2340106964111
 31
0.0
  0
LINE
  5
   486
  8
0
  6
CONTINUOUS
 62
     7
 10
-492.935104370117
 20
73.2340106964111
 30
0.0
 11
-492.935104370117
 21
84.2340106964111
 31
0.0
  0
LINE
  5
   487
  8
0
  6
CONTINUOUS
 62
     7
 10
-491.685104370117
 20
81.5177590847015
 30
0.0
 11
-491.685104370117
 21
84.2340106964111
 31
0.0
  0
LINE
  5
   488
  8
0
  6
CONTINUOUS
 62
     7
 10
-491.685104370117
 20
76.0907723903656
 30
0.0
 11
-491.685104370117
 21
81.3772480487824
 31
0.0
  0
LINE
  5
   489
  8
0
  6
CONTINUOUS
 62
     7
 10
-491.685104370117
 20
73.2340106964111
 30
0.0
 11
-491.685104370117
 21
75.950261592865
 31
0.0
  0
LINE
  5
   48A
  8
0
  6
CONTINUOUS
 62
     7
 10
-503.685104370117
 20
82.1709170341492
 30
0.0
 11
-503.685104370117
 21
83.5507283210754
 31
0.0
  0
LINE
  5
   48B
  8
0
  6
CONTINUOUS
 62
     7
 10
-503.685104370117
 20
77.1785635948181
 30
0.0
 11
-503.685104370117
 21
80.289457321167
 31
0.0
  0
LINE
  5
   48C
  8
0
  6
CONTINUOUS
 62
     7
 10
-503.685104370117
 20
73.9172930717468
 30
0.0
 11
-503.685104370117
 21
75.2971038818359
 31
0.0
  0
LINE
  5
   48D
  8
0
  6
CONTINUOUS
 62
     3
 10
-500.685104370117
 20
73.249183177948
 30
0.0
 11
-500.685104370117
 21
84.2188382148743
 31
0.0
  0
LINE
  5
   48E
  8
0
  6
CONTINUOUS
 62
     3
 10
-503.685104370117
 20
73.249183177948
 30
0.0
 11
-503.685104370117
 21
73.9172930717468
 31
0.0
  0
LINE
  5
   48F
  8
0
  6
CONTINUOUS
 62
     3
 10
-503.685104370117
 20
75.2971019744873
 30
0.0
 11
-503.685104370117
 21
77.1785638332367
 31
0.0
  0
LINE
  5
   490
  8
0
  6
CONTINUOUS
 62
     3
 10
-503.685104370117
 20
80.289457321167
 30
0.0
 11
-503.685104370117
 21
82.170914888382
 31
0.0
  0
LINE
  5
   491
  8
0
  6
CONTINUOUS
 62
     3
 10
-503.685104370117
 20
83.5507283210754
 30
0.0
 11
-503.685104370117
 21
84.2188382148743
 31
0.0
  0
LINE
  5
   492
  8
0
  6
CONTINUOUS
 62
     3
 10
-497.185104370117
 20
81.3772463798523
 30
0.0
 11
-497.185104370117
 21
81.5177595615387
 31
0.0
  0
LINE
  5
   493
  8
0
  6
CONTINUOUS
 62
     3
 10
-497.185104370117
 20
75.9502630233765
 30
0.0
 11
-497.185104370117
 21
76.0907697677612
 31
0.0
  0
LINE
  5
   494
  8
0
  6
CONTINUOUS
 62
     3
 10
-500.185104370117
 20
73.249183177948
 30
0.0
 11
-500.185104370117
 21
84.2188382148743
 31
0.0
  0
LINE
  5
   495
  8
0
  6
CONTINUOUS
 62
     3
 10
-491.685104370117
 20
75.950263261795
 30
0.0
 11
-491.685104370117
 21
76.0907700061798
 31
0.0
  0
LINE
  5
   496
  8
0
  6
CONTINUOUS
 62
     3
 10
-491.685104370117
 20
81.377247095108
 30
0.0
 11
-491.685104370117
 21
81.5177597999573
 31
0.0
  0
LINE
  5
   497
  8
0
  6
CONTINUOUS
 62
     3
 10
-488.685104370117
 20
73.249183177948
 30
0.0
 11
-488.685104370117
 21
84.2188382148743
 31
0.0
  0
LINE
  5
   498
  8
0
  6
CONTINUOUS
 62
   212
 10
-487.335105895996
 20
76.7340106964111
 30
0.0
 11
-487.335105895996
 21
80.7340106964111
 31
0.0
  0
LINE
  5
   499
  8
0
  6
CONTINUOUS
 62
   253
 10
-504.085083007813
 20
12.7340106964111
 30
0.0
 11
-504.085083007813
 21
13.2340106964111
 31
0.0
  0
LINE
  5
   49A
  8
0
  6
CONTINUOUS
 62
   253
 10
-504.085083007813
 20
1.23401069641113
 30
0.0
 11
-504.085083007813
 21
1.73401021957397
 31
0.0
  0
LINE
  5
   49B
  8
0
  6
CONTINUOUS
 62
     7
 10
-466.935104370117
 20
1.73401069641113
 30
0.0
 11
-466.935104370117
 21
12.7340106964111
 31
0.0
  0
LINE
  5
   49C
  8
0
  6
CONTINUOUS
 62
     7
 10
-465.685104370117
 20
10.0177590847015
 30
0.0
 11
-465.685104370117
 21
12.7340106964111
 31
0.0
  0
LINE
  5
   49D
  8
0
  6
CONTINUOUS
 62
     7
 10
-465.685104370117
 20
4.5907723903656
 30
0.0
 11
-465.685104370117
 21
9.87724804878235
 31
0.0
  0
LINE
  5
   49E
  8
0
  6
CONTINUOUS
 62
     7
 10
-465.685104370117
 20
1.73401069641113
 30
0.0
 11
-465.685104370117
 21
4.45026159286499
 31
0.0
  0
LINE
  5
   49F
  8
0
  6
CONTINUOUS
 62
     7
 10
-471.185104370117
 20
1.73401069641113
 30
0.0
 11
-471.185104370117
 21
4.45026254653931
 31
0.0
  0
LINE
  5
   4A0
  8
0
  6
CONTINUOUS
 62
     7
 10
-471.185104370117
 20
4.59077334403992
 30
0.0
 11
-471.185104370117
 21
9.87724900245667
 31
0.0
  0
LINE
  5
   4A1
  8
0
  6
CONTINUOUS
 62
     7
 10
-471.185104370117
 20
10.0177597999573
 30
0.0
 11
-471.185104370117
 21
12.7340106964111
 31
0.0
  0
LINE
  5
   4A2
  8
0
  6
CONTINUOUS
 62
     7
 10
-469.935104370117
 20
1.73401069641113
 30
0.0
 11
-469.935104370117
 21
12.7340106964111
 31
0.0
  0
LINE
  5
   4A3
  8
0
  6
CONTINUOUS
 62
     7
 10
-478.085105895996
 20
2.23401069641113
 30
0.0
 11
-478.085105895996
 21
12.2340106964111
 31
0.0
  0
LINE
  5
   4A4
  8
0
  6
CONTINUOUS
 62
     7
 10
-477.685104370117
 20
10.6709144115448
 30
0.0
 11
-477.685104370117
 21
12.0507278442383
 31
0.0
  0
LINE
  5
   4A5
  8
0
  6
CONTINUOUS
 62
     7
 10
-477.685104370117
 20
5.67855584621429
 30
0.0
 11
-477.685104370117
 21
8.78946483135223
 31
0.0
  0
LINE
  5
   4A6
  8
0
  6
CONTINUOUS
 62
     7
 10
-477.685104370117
 20
2.41729307174683
 30
0.0
 11
-477.685104370117
 21
3.79710721969604
 31
0.0
  0
LINE
  5
   4A7
  8
0
  6
CONTINUOUS
 62
     3
 10
-465.685104370117
 20
4.45026135444641
 30
0.0
 11
-465.685104370117
 21
4.59077429771423
 31
0.0
  0
LINE
  5
   4A8
  8
0
  6
CONTINUOUS
 62
     3
 10
-465.685104370117
 20
9.8772509098053
 30
0.0
 11
-465.685104370117
 21
10.0177583694458
 31
0.0
  0
LINE
  5
   4A9
  8
0
  6
CONTINUOUS
 62
     3
 10
-462.685104370117
 20
1.749183177948
 30
0.0
 11
-462.685104370117
 21
12.7188382148743
 31
0.0
  0
LINE
  5
   4AA
  8
0
  6
CONTINUOUS
 62
     3
 10
-474.685104370117
 20
1.749183177948
 30
0.0
 11
-474.685104370117
 21
12.7188382148743
 31
0.0
  0
LINE
  5
   4AB
  8
0
  6
CONTINUOUS
 62
     3
 10
-477.685104370117
 20
1.749183177948
 30
0.0
 11
-477.685104370117
 21
2.41729307174683
 31
0.0
  0
LINE
  5
   4AC
  8
0
  6
CONTINUOUS
 62
     3
 10
-477.685104370117
 20
3.79710674285889
 30
0.0
 11
-477.685104370117
 21
5.67855620384216
 31
0.0
  0
LINE
  5
   4AD
  8
0
  6
CONTINUOUS
 62
     3
 10
-477.685104370117
 20
8.7894651889801
 30
0.0
 11
-477.685104370117
 21
10.6709141731262
 31
0.0
  0
LINE
  5
   4AE
  8
0
  6
CONTINUOUS
 62
     3
 10
-477.685104370117
 20
12.0507283210754
 30
0.0
 11
-477.685104370117
 21
12.7188382148743
 31
0.0
  0
LINE
  5
   4AF
  8
0
  6
CONTINUOUS
 62
     3
 10
-471.185104370117
 20
9.87725067138672
 30
0.0
 11
-471.185104370117
 21
10.0177576541901
 31
0.0
  0
LINE
  5
   4B0
  8
0
  6
CONTINUOUS
 62
     3
 10
-471.185104370117
 20
4.45026111602783
 30
0.0
 11
-471.185104370117
 21
4.59077382087708
 31
0.0
  0
LINE
  5
   4B1
  8
0
  6
CONTINUOUS
 62
     3
 10
-474.185104370117
 20
1.749183177948
 30
0.0
 11
-474.185104370117
 21
12.7188382148743
 31
0.0
  0
LINE
  5
   4B2
  8
0
  6
CONTINUOUS
 62
   212
 10
-461.335105895996
 20
5.23401069641113
 30
0.0
 11
-461.335105895996
 21
9.23401069641113
 31
0.0
  0
LINE
  5
   4B3
  8
0
  6
CONTINUOUS
 62
   253
 10
-504.585105895996
 20
1.23401069641113
 30
0.0
 11
-512.085105895996
 21
1.23401069641113
 31
0.0
  0
LINE
  5
   4B4
  8
0
  6
CONTINUOUS
 62
   253
 10
-504.085107995758
 20
12.7340112795323
 30
0.0
 11
-504.585107978644
 21
13.234011262418
 31
0.0
  0
LINE
  5
   4B5
  8
0
  6
CONTINUOUS
 62
   253
 10
-504.585107972115
 20
1.23401014999079
 30
0.0
 11
-504.085107989229
 21
1.73401013287652
 31
0.0
  0
LINE
  5
   4B6
  8
0
  6
CONTINUOUS
 62
     7
 10
-495.935104370117
 20
84.2340106964111
 30
0.0
 11
-497.185104370117
 21
84.2340106964111
 31
0.0
  0
LINE
  5
   4B7
  8
0
  6
CONTINUOUS
 62
     7
 10
-495.935104370117
 20
73.2340106964111
 30
0.0
 11
-497.185104370117
 21
73.2340106964111
 31
0.0
  0
LINE
  5
   4B8
  8
0
  6
CONTINUOUS
 62
     7
 10
-491.685104370117
 20
84.2340106964111
 30
0.0
 11
-492.935104370117
 21
84.2340106964111
 31
0.0
  0
LINE
  5
   4B9
  8
0
  6
CONTINUOUS
 62
     7
 10
-491.685104370117
 20
73.2340106964111
 30
0.0
 11
-492.935104370117
 21
73.2340106964111
 31
0.0
  0
LINE
  5
   4BA
  8
0
  6
CONTINUOUS
 62
     7
 10
-503.685104370117
 20
83.7340106964111
 30
0.0
 11
-504.085105895996
 21
83.7340106964111
 31
0.0
  0
LINE
  5
   4BB
  8
0
  6
CONTINUOUS
 62
     7
 10
-503.685104370117
 20
73.7340106964111
 30
0.0
 11
-504.085105895996
 21
73.7340106964111
 31
0.0
  0
LINE
  5
   4BC
  8
0
  6
CONTINUOUS
 62
     3
 10
-500.685104370117
 20
84.2188382148743
 30
0.0
 11
-503.685104370117
 21
84.2188382148743
 31
0.0
  0
LINE
  5
   4BD
  8
0
  6
CONTINUOUS
 62
     3
 10
-500.685104370117
 20
81.4764244556427
 30
0.0
 11
-503.685104370117
 21
81.4764244556427
 31
0.0
  0
LINE
  5
   4BE
  8
0
  6
CONTINUOUS
 62
     3
 10
-500.685104370117
 20
75.9915969371796
 30
0.0
 11
-503.685104370117
 21
75.9915969371796
 31
0.0
  0
LINE
  5
   4BF
  8
0
  6
CONTINUOUS
 62
     3
 10
-500.685104370117
 20
73.249183177948
 30
0.0
 11
-503.685104370117
 21
73.249183177948
 31
0.0
  0
LINE
  5
   4C0
  8
0
  6
CONTINUOUS
 62
     3
 10
-497.185104370117
 20
84.2188382148743
 30
0.0
 11
-500.185104370117
 21
84.2188382148743
 31
0.0
  0
LINE
  5
   4C1
  8
0
  6
CONTINUOUS
 62
     3
 10
-497.185104370117
 20
81.4764244556427
 30
0.0
 11
-500.185104370117
 21
81.4764244556427
 31
0.0
  0
LINE
  5
   4C2
  8
0
  6
CONTINUOUS
 62
     3
 10
-497.185104370117
 20
75.9915969371796
 30
0.0
 11
-500.185104370117
 21
75.9915969371796
 31
0.0
  0
LINE
  5
   4C3
  8
0
  6
CONTINUOUS
 62
     3
 10
-497.185104370117
 20
73.249183177948
 30
0.0
 11
-500.185104370117
 21
73.249183177948
 31
0.0
  0
LINE
  5
   4C4
  8
0
  6
CONTINUOUS
 62
     3
 10
-488.685104370117
 20
84.2188382148743
 30
0.0
 11
-491.685104370117
 21
84.2188382148743
 31
0.0
  0
LINE
  5
   4C5
  8
0
  6
CONTINUOUS
 62
     3
 10
-488.685104370117
 20
81.4764244556427
 30
0.0
 11
-491.685104370117
 21
81.4764244556427
 31
0.0
  0
LINE
  5
   4C6
  8
0
  6
CONTINUOUS
 62
     3
 10
-488.685104370117
 20
75.9915969371796
 30
0.0
 11
-491.685104370117
 21
75.9915969371796
 31
0.0
  0
LINE
  5
   4C7
  8
0
  6
CONTINUOUS
 62
     3
 10
-488.685104370117
 20
73.249183177948
 30
0.0
 11
-491.685104370117
 21
73.249183177948
 31
0.0
  0
LINE
  5
   4C8
  8
0
  6
CONTINUOUS
 62
   212
 10
-487.335108455704
 20
80.7340115127142
 30
0.0
 11
-488.335108421476
 21
81.7340114784857
 31
0.0
  0
LINE
  5
   4C9
  8
0
  6
CONTINUOUS
 62
   212
 10
-488.335108414947
 20
75.7340099339231
 30
0.0
 11
-487.335108449175
 21
76.7340098996946
 31
0.0
  0
LINE
  5
   4CA
  8
0
  6
CONTINUOUS
 62
   212
 10
-488.335105895996
 20
75.7340106964111
 30
0.0
 11
-488.335105895996
 21
75.880841255188
 31
0.0
  0
LINE
  5
   4CB
  8
0
  6
CONTINUOUS
 62
   212
 10
-488.335105895996
 20
75.880841255188
 30
0.0
 11
-488.335105895996
 21
76.3069596290588
 31
0.0
  0
LINE
  5
   4CC
  8
0
  6
CONTINUOUS
 62
   212
 10
-488.335105895996
 20
76.3069596290588
 30
0.0
 11
-488.335105895996
 21
76.970654964447
 31
0.0
  0
LINE
  5
   4CD
  8
0
  6
CONTINUOUS
 62
   212
 10
-488.335105895996
 20
76.970654964447
 30
0.0
 11
-488.335105895996
 21
77.8069597482681
 31
0.0
  0
LINE
  5
   4CE
  8
0
  6
CONTINUOUS
 62
   212
 10
-488.335105895996
 20
77.8069597482681
 30
0.0
 11
-488.335105895996
 21
78.7340106964111
 31
0.0
  0
LINE
  5
   4CF
  8
0
  6
CONTINUOUS
 62
   212
 10
-488.335105895996
 20
78.7340106964111
 30
0.0
 11
-488.335105895996
 21
79.6610617041588
 31
0.0
  0
LINE
  5
   4D0
  8
0
  6
CONTINUOUS
 62
   212
 10
-488.335105895996
 20
79.6610617041588
 30
0.0
 11
-488.335105895996
 21
80.4973664283752
 31
0.0
  0
LINE
  5
   4D1
  8
0
  6
CONTINUOUS
 62
   212
 10
-488.335105895996
 20
80.4973664283752
 30
0.0
 11
-488.335105895996
 21
81.1610617637634
 31
0.0
  0
LINE
  5
   4D2
  8
0
  6
CONTINUOUS
 62
   212
 10
-488.335105895996
 20
81.1610617637634
 30
0.0
 11
-488.335105895996
 21
81.5871801376343
 31
0.0
  0
LINE
  5
   4D3
  8
0
  6
CONTINUOUS
 62
   212
 10
-488.335105895996
 20
81.5871801376343
 30
0.0
 11
-488.335105895996
 21
81.7340106964111
 31
0.0
  0
LINE
  5
   4D4
  8
0
  6
CONTINUOUS
 62
   212
 10
-488.335105895996
 20
81.7340106964111
 30
0.0
 11
-488.685104370117
 21
81.7340106964111
 31
0.0
  0
LINE
  5
   4D5
  8
0
  6
CONTINUOUS
 62
   212
 10
-492.935104370117
 20
81.7340106964111
 30
0.0
 11
-495.935104370117
 21
81.7340106964111
 31
0.0
  0
LINE
  5
   4D6
  8
0
  6
CONTINUOUS
 62
   212
 10
-500.185104370117
 20
81.7340106964111
 30
0.0
 11
-500.685104370117
 21
81.7340106964111
 31
0.0
  0
LINE
  5
   4D7
  8
0
  6
CONTINUOUS
 62
   212
 10
-488.335105895996
 20
75.7340106964111
 30
0.0
 11
-488.685104370117
 21
75.7340106964111
 31
0.0
  0
LINE
  5
   4D8
  8
0
  6
CONTINUOUS
 62
   212
 10
-492.935104370117
 20
75.7340106964111
 30
0.0
 11
-495.935104370117
 21
75.7340106964111
 31
0.0
  0
LINE
  5
   4D9
  8
0
  6
CONTINUOUS
 62
   212
 10
-500.185104370117
 20
75.7340106964111
 30
0.0
 11
-500.685104370117
 21
75.7340106964111
 31
0.0
  0
LINE
  5
   4DA
  8
0
  6
CONTINUOUS
 62
   253
 10
-504.085083007813
 20
13.2340106964111
 30
0.0
 11
-512.085098266602
 21
13.2340106964111
 31
0.0
  0
LINE
  5
   4DB
  8
0
  6
CONTINUOUS
 62
   253
 10
-504.085083007813
 20
1.23401069641113
 30
0.0
 11
-504.585105895996
 21
1.23401069641113
 31
0.0
  0
LINE
  5
   4DC
  8
0
  6
CONTINUOUS
 62
   253
 10
-500.185104370117
 20
83.7340106964111
 30
0.0
 11
-500.685104370117
 21
83.7340106964111
 31
0.0
  0
LINE
  5
   4DD
  8
0
  6
CONTINUOUS
 62
   253
 10
-492.935104370117
 20
83.7340106964111
 30
0.0
 11
-495.935104370117
 21
83.7340106964111
 31
0.0
  0
LINE
  5
   4DE
  8
0
  6
CONTINUOUS
 62
   253
 10
-478.585083007813
 20
12.2340106964111
 30
0.0
 11
-488.685104370117
 21
12.2340106964111
 31
0.0
  0
LINE
  5
   4DF
  8
0
  6
CONTINUOUS
 62
   253
 10
-500.185104370117
 20
73.7340106964111
 30
0.0
 11
-500.685104370117
 21
73.7340106964111
 31
0.0
  0
LINE
  5
   4E0
  8
0
  6
CONTINUOUS
 62
   253
 10
-492.935104370117
 20
73.7340106964111
 30
0.0
 11
-495.935104370117
 21
73.7340106964111
 31
0.0
  0
LINE
  5
   4E1
  8
0
  6
CONTINUOUS
 62
   253
 10
-478.585083007813
 20
2.23401069641113
 30
0.0
 11
-488.685104370117
 21
2.23401069641113
 31
0.0
  0
LINE
  5
   4E2
  8
0
  6
CONTINUOUS
 62
   253
 10
-478.231535336058
 20
12.0875650027199
 30
0.0
 11
-478.585089118351
 21
12.2340117100071
 31
0.0
  0
LINE
  5
   4E3
  8
0
  6
CONTINUOUS
 62
   253
 10
-478.085089162562
 20
11.7340122064504
 30
0.0
 11
-478.231535390845
 21
12.0875655017734
 31
0.0
  0
LINE
  5
   4E4
  8
0
  6
CONTINUOUS
 62
   253
 10
-478.585089110126
 20
2.23400970948577
 30
0.0
 11
-478.231535327833
 21
2.38045641677297
 31
0.0
  0
LINE
  5
   4E5
  8
0
  6
CONTINUOUS
 62
   253
 10
-478.231535377433
 20
2.38045596136688
 30
0.0
 11
-478.085089149149
 21
2.73400925668992
 31
0.0
  0
LINE
  5
   4E6
  8
0
  6
CONTINUOUS
 62
     7
 10
-465.685104370117
 20
12.7340106964111
 30
0.0
 11
-466.935104370117
 21
12.7340106964111
 31
0.0
  0
LINE
  5
   4E7
  8
0
  6
CONTINUOUS
 62
     7
 10
-465.685104370117
 20
1.73401069641113
 30
0.0
 11
-466.935104370117
 21
1.73401069641113
 31
0.0
  0
LINE
  5
   4E8
  8
0
  6
CONTINUOUS
 62
     7
 10
-469.935104370117
 20
12.7340106964111
 30
0.0
 11
-471.185104370117
 21
12.7340106964111
 31
0.0
  0
LINE
  5
   4E9
  8
0
  6
CONTINUOUS
 62
     7
 10
-469.935104370117
 20
1.73401069641113
 30
0.0
 11
-471.185104370117
 21
1.73401069641113
 31
0.0
  0
LINE
  5
   4EA
  8
0
  6
CONTINUOUS
 62
     7
 10
-477.685104370117
 20
12.2340106964111
 30
0.0
 11
-478.085105895996
 21
12.2340106964111
 31
0.0
  0
LINE
  5
   4EB
  8
0
  6
CONTINUOUS
 62
     7
 10
-477.685104370117
 20
2.23401069641113
 30
0.0
 11
-478.085105895996
 21
2.23401069641113
 31
0.0
  0
LINE
  5
   4EC
  8
0
  6
CONTINUOUS
 62
     3
 10
-462.685104370117
 20
12.7188382148743
 30
0.0
 11
-465.685104370117
 21
12.7188382148743
 31
0.0
  0
LINE
  5
   4ED
  8
0
  6
CONTINUOUS
 62
     3
 10
-462.685104370117
 20
1.749183177948
 30
0.0
 11
-465.685104370117
 21
1.749183177948
 31
0.0
  0
LINE
  5
   4EE
  8
0
  6
CONTINUOUS
 62
     3
 10
-462.685104370117
 20
4.49159693717957
 30
0.0
 11
-465.685104370117
 21
4.49159693717957
 31
0.0
  0
LINE
  5
   4EF
  8
0
  6
CONTINUOUS
 62
     3
 10
-462.685104370117
 20
9.9764244556427
 30
0.0
 11
-465.685104370117
 21
9.9764244556427
 31
0.0
  0
LINE
  5
   4F0
  8
0
  6
CONTINUOUS
 62
     3
 10
-474.685104370117
 20
12.7188382148743
 30
0.0
 11
-477.685104370117
 21
12.7188382148743
 31
0.0
  0
LINE
  5
   4F1
  8
0
  6
CONTINUOUS
 62
     3
 10
-474.685104370117
 20
1.749183177948
 30
0.0
 11
-477.685104370117
 21
1.749183177948
 31
0.0
  0
LINE
  5
   4F2
  8
0
  6
CONTINUOUS
 62
     3
 10
-474.685104370117
 20
9.9764244556427
 30
0.0
 11
-477.685104370117
 21
9.9764244556427
 31
0.0
  0
LINE
  5
   4F3
  8
0
  6
CONTINUOUS
 62
     3
 10
-474.685104370117
 20
4.49159693717957
 30
0.0
 11
-477.685104370117
 21
4.49159693717957
 31
0.0
  0
LINE
  5
   4F4
  8
0
  6
CONTINUOUS
 62
     3
 10
-471.185104370117
 20
12.7188382148743
 30
0.0
 11
-474.185104370117
 21
12.7188382148743
 31
0.0
  0
LINE
  5
   4F5
  8
0
  6
CONTINUOUS
 62
     3
 10
-471.185104370117
 20
1.749183177948
 30
0.0
 11
-474.185104370117
 21
1.749183177948
 31
0.0
  0
LINE
  5
   4F6
  8
0
  6
CONTINUOUS
 62
     3
 10
-471.185104370117
 20
9.9764244556427
 30
0.0
 11
-474.185104370117
 21
9.9764244556427
 31
0.0
  0
LINE
  5
   4F7
  8
0
  6
CONTINUOUS
 62
     3
 10
-471.185104370117
 20
4.49159693717957
 30
0.0
 11
-474.185104370117
 21
4.49159693717957
 31
0.0
  0
LINE
  5
   4F8
  8
0
  6
CONTINUOUS
 62
   212
 10
-461.335109123161
 20
9.23401173519972
 30
0.0
 11
-462.335109088932
 21
10.2340117009712
 31
0.0
  0
LINE
  5
   4F9
  8
0
  6
CONTINUOUS
 62
   212
 10
-462.335109082403
 20
4.2340097114376
 30
0.0
 11
-461.335109116632
 21
5.23400967720907
 31
0.0
  0
LINE
  5
   4FA
  8
0
  6
CONTINUOUS
 62
   212
 10
-462.335105895996
 20
10.2340106964111
 30
0.0
 11
-462.685104370117
 21
10.2340106964111
 31
0.0
  0
LINE
  5
   4FB
  8
0
  6
CONTINUOUS
 62
   212
 10
-466.935104370117
 20
10.2340106964111
 30
0.0
 11
-469.935104370117
 21
10.2340106964111
 31
0.0
  0
LINE
  5
   4FC
  8
0
  6
CONTINUOUS
 62
   212
 10
-474.185104370117
 20
10.2340106964111
 30
0.0
 11
-474.685104370117
 21
10.2340106964111
 31
0.0
  0
LINE
  5
   4FD
  8
0
  6
CONTINUOUS
 62
   212
 10
-462.335105895996
 20
10.0871801376343
 30
0.0
 11
-462.335105895996
 21
10.2340106964111
 31
0.0
  0
LINE
  5
   4FE
  8
0
  6
CONTINUOUS
 62
   212
 10
-462.335105895996
 20
9.66106176376343
 30
0.0
 11
-462.335105895996
 21
10.0871801376343
 31
0.0
  0
LINE
  5
   4FF
  8
0
  6
CONTINUOUS
 62
   212
 10
-462.335105895996
 20
8.99736642837524
 30
0.0
 11
-462.335105895996
 21
9.66106176376343
 31
0.0
  0
LINE
  5
   500
  8
0
  6
CONTINUOUS
 62
   212
 10
-462.335105895996
 20
8.16106170415878
 30
0.0
 11
-462.335105895996
 21
8.99736642837524
 31
0.0
  0
LINE
  5
   501
  8
0
  6
CONTINUOUS
 62
   212
 10
-462.335105895996
 20
7.23401069641113
 30
0.0
 11
-462.335105895996
 21
8.16106170415878
 31
0.0
  0
LINE
  5
   502
  8
0
  6
CONTINUOUS
 62
   212
 10
-462.335105895996
 20
6.30695974826813
 30
0.0
 11
-462.335105895996
 21
7.23401069641113
 31
0.0
  0
LINE
  5
   503
  8
0
  6
CONTINUOUS
 62
   212
 10
-462.335105895996
 20
5.47065496444702
 30
0.0
 11
-462.335105895996
 21
6.30695974826813
 31
0.0
  0
LINE
  5
   504
  8
0
  6
CONTINUOUS
 62
   212
 10
-462.335105895996
 20
4.80695962905884
 30
0.0
 11
-462.335105895996
 21
5.47065496444702
 31
0.0
  0
LINE
  5
   505
  8
0
  6
CONTINUOUS
 62
   212
 10
-462.335105895996
 20
4.38084125518799
 30
0.0
 11
-462.335105895996
 21
4.80695962905884
 31
0.0
  0
LINE
  5
   506
  8
0
  6
CONTINUOUS
 62
   212
 10
-462.335105895996
 20
4.23401069641113
 30
0.0
 11
-462.685104370117
 21
4.23401069641113
 31
0.0
  0
LINE
  5
   507
  8
0
  6
CONTINUOUS
 62
   212
 10
-466.935104370117
 20
4.23401069641113
 30
0.0
 11
-469.935104370117
 21
4.23401069641113
 31
0.0
  0
LINE
  5
   508
  8
0
  6
CONTINUOUS
 62
   212
 10
-474.185104370117
 20
4.23401069641113
 30
0.0
 11
-474.685104370117
 21
4.23401069641113
 31
0.0
  0
LINE
  5
   509
  8
0
  6
CONTINUOUS
 62
   212
 10
-462.335105895996
 20
4.23401069641113
 30
0.0
 11
-462.335105895996
 21
4.38084125518799
 31
0.0
  0
LINE
  5
   50A
  8
0
  6
CONTINUOUS
 62
   253
 10
-504.085105895996
 20
73.2340106964111
 30
0.0
 11
-504.085105895996
 21
84.2340106964111
 31
0.0
  0
LINE
  5
   50B
  8
0
  6
CONTINUOUS
 62
   253
 10
-504.085083007813
 20
84.2340106964111
 30
0.0
 11
-504.085083007813
 21
84.7340106964111
 31
0.0
  0
LINE
  5
   50C
  8
0
  6
CONTINUOUS
 62
   253
 10
-504.085083007813
 20
72.7340106964111
 30
0.0
 11
-504.085083007813
 21
73.234010219574
 31
0.0
  0
LINE
  5
   50D
  8
0
  6
CONTINUOUS
 62
     7
 10
-466.935104370117
 20
73.2340106964111
 30
0.0
 11
-466.935104370117
 21
84.2340106964111
 31
0.0
  0
LINE
  5
   50E
  8
0
  6
CONTINUOUS
 62
     7
 10
-465.685104370117
 20
81.5177590847015
 30
0.0
 11
-465.685104370117
 21
84.2340106964111
 31
0.0
  0
LINE
  5
   50F
  8
0
  6
CONTINUOUS
 62
     7
 10
-465.685104370117
 20
76.0907723903656
 30
0.0
 11
-465.685104370117
 21
81.3772480487824
 31
0.0
  0
LINE
  5
   510
  8
0
  6
CONTINUOUS
 62
     7
 10
-465.685104370117
 20
73.2340106964111
 30
0.0
 11
-465.685104370117
 21
75.950261592865
 31
0.0
  0
LINE
  5
   511
  8
0
  6
CONTINUOUS
 62
     7
 10
-471.185104370117
 20
73.2340106964111
 30
0.0
 11
-471.185104370117
 21
75.9502625465393
 31
0.0
  0
LINE
  5
   512
  8
0
  6
CONTINUOUS
 62
     7
 10
-471.185104370117
 20
76.0907733440399
 30
0.0
 11
-471.185104370117
 21
81.3772490024567
 31
0.0
  0
LINE
  5
   513
  8
0
  6
CONTINUOUS
 62
     7
 10
-471.185104370117
 20
81.5177597999573
 30
0.0
 11
-471.185104370117
 21
84.2340106964111
 31
0.0
  0
LINE
  5
   514
  8
0
  6
CONTINUOUS
 62
     7
 10
-469.935104370117
 20
73.2340106964111
 30
0.0
 11
-469.935104370117
 21
84.2340106964111
 31
0.0
  0
LINE
  5
   515
  8
0
  6
CONTINUOUS
 62
     7
 10
-478.085105895996
 20
73.7340106964111
 30
0.0
 11
-478.085105895996
 21
83.7340106964111
 31
0.0
  0
LINE
  5
   516
  8
0
  6
CONTINUOUS
 62
     7
 10
-477.685104370117
 20
82.1709144115448
 30
0.0
 11
-477.685104370117
 21
83.5507278442383
 31
0.0
  0
LINE
  5
   517
  8
0
  6
CONTINUOUS
 62
     7
 10
-477.685104370117
 20
77.1785558462143
 30
0.0
 11
-477.685104370117
 21
80.2894648313522
 31
0.0
  0
LINE
  5
   518
  8
0
  6
CONTINUOUS
 62
     7
 10
-477.685104370117
 20
73.9172930717468
 30
0.0
 11
-477.685104370117
 21
75.297107219696
 31
0.0
  0
LINE
  5
   519
  8
0
  6
CONTINUOUS
 62
     3
 10
-465.685104370117
 20
75.9502613544464
 30
0.0
 11
-465.685104370117
 21
76.0907742977142
 31
0.0
  0
LINE
  5
   51A
  8
0
  6
CONTINUOUS
 62
     3
 10
-465.685104370117
 20
81.3772509098053
 30
0.0
 11
-465.685104370117
 21
81.5177583694458
 31
0.0
  0
LINE
  5
   51B
  8
0
  6
CONTINUOUS
 62
     3
 10
-462.685104370117
 20
73.249183177948
 30
0.0
 11
-462.685104370117
 21
84.2188382148743
 31
0.0
  0
LINE
  5
   51C
  8
0
  6
CONTINUOUS
 62
     3
 10
-474.685104370117
 20
73.249183177948
 30
0.0
 11
-474.685104370117
 21
84.2188382148743
 31
0.0
  0
LINE
  5
   51D
  8
0
  6
CONTINUOUS
 62
     3
 10
-477.685104370117
 20
73.249183177948
 30
0.0
 11
-477.685104370117
 21
73.9172930717468
 31
0.0
  0
LINE
  5
   51E
  8
0
  6
CONTINUOUS
 62
     3
 10
-477.685104370117
 20
75.2971067428589
 30
0.0
 11
-477.685104370117
 21
77.1785562038422
 31
0.0
  0
LINE
  5
   51F
  8
0
  6
CONTINUOUS
 62
     3
 10
-477.685104370117
 20
80.2894651889801
 30
0.0
 11
-477.685104370117
 21
82.1709141731262
 31
0.0
  0
LINE
  5
   520
  8
0
  6
CONTINUOUS
 62
     3
 10
-477.685104370117
 20
83.5507283210754
 30
0.0
 11
-477.685104370117
 21
84.2188382148743
 31
0.0
  0
LINE
  5
   521
  8
0
  6
CONTINUOUS
 62
     3
 10
-471.185104370117
 20
81.3772506713867
 30
0.0
 11
-471.185104370117
 21
81.5177576541901
 31
0.0
  0
LINE
  5
   522
  8
0
  6
CONTINUOUS
 62
     3
 10
-471.185104370117
 20
75.9502611160278
 30
0.0
 11
-471.185104370117
 21
76.0907738208771
 31
0.0
  0
LINE
  5
   523
  8
0
  6
CONTINUOUS
 62
     3
 10
-474.185104370117
 20
73.249183177948
 30
0.0
 11
-474.185104370117
 21
84.2188382148743
 31
0.0
  0
LINE
  5
   524
  8
0
  6
CONTINUOUS
 62
   212
 10
-461.335105895996
 20
76.7340106964111
 30
0.0
 11
-461.335105895996
 21
80.7340106964111
 31
0.0
  0
LINE
  5
   525
  8
0
  6
CONTINUOUS
 62
   253
 10
-504.585105895996
 20
84.7340106964111
 30
0.0
 11
-512.085105895996
 21
84.7340106964111
 31
0.0
  0
LINE
  5
   526
  8
0
  6
CONTINUOUS
 62
   253
 10
-504.585105895996
 20
72.7340106964111
 30
0.0
 11
-512.085105895996
 21
72.7340106964111
 31
0.0
  0
LINE
  5
   527
  8
0
  6
CONTINUOUS
 62
   253
 10
-504.085107995758
 20
84.2340112795323
 30
0.0
 11
-504.585107978644
 21
84.734011262418
 31
0.0
  0
LINE
  5
   528
  8
0
  6
CONTINUOUS
 62
   253
 10
-504.585107972115
 20
72.7340101499908
 30
0.0
 11
-504.085107989229
 21
73.2340101328765
 31
0.0
  0
LINE
  5
   529
  8
0
  6
CONTINUOUS
 62
   253
 10
-504.085083007813
 20
84.7340106964111
 30
0.0
 11
-504.585105895996
 21
84.7340106964111
 31
0.0
  0
LINE
  5
   52A
  8
0
  6
CONTINUOUS
 62
   253
 10
-504.085083007813
 20
72.7340106964111
 30
0.0
 11
-504.585105895996
 21
72.7340106964111
 31
0.0
  0
LINE
  5
   52B
  8
0
  6
CONTINUOUS
 62
   253
 10
-478.585083007813
 20
83.7340106964111
 30
0.0
 11
-488.685104370117
 21
83.7340106964111
 31
0.0
  0
LINE
  5
   52C
  8
0
  6
CONTINUOUS
 62
   253
 10
-478.585083007813
 20
73.7340106964111
 30
0.0
 11
-488.685104370117
 21
73.7340106964111
 31
0.0
  0
LINE
  5
   52D
  8
0
  6
CONTINUOUS
 62
   253
 10
-478.231535336058
 20
83.5875650027199
 30
0.0
 11
-478.585089118351
 21
83.7340117100071
 31
0.0
  0
LINE
  5
   52E
  8
0
  6
CONTINUOUS
 62
   253
 10
-478.085089162562
 20
83.2340122064504
 30
0.0
 11
-478.231535390845
 21
83.5875655017734
 31
0.0
  0
LINE
  5
   52F
  8
0
  6
CONTINUOUS
 62
   253
 10
-478.585089110126
 20
73.7340097094858
 30
0.0
 11
-478.231535327833
 21
73.880456416773
 31
0.0
  0
LINE
  5
   530
  8
0
  6
CONTINUOUS
 62
   253
 10
-478.231535377433
 20
73.8804559613669
 30
0.0
 11
-478.085089149149
 21
74.2340092566899
 31
0.0
  0
LINE
  5
   531
  8
0
  6
CONTINUOUS
 62
     7
 10
-465.685104370117
 20
84.2340106964111
 30
0.0
 11
-466.935104370117
 21
84.2340106964111
 31
0.0
  0
LINE
  5
   532
  8
0
  6
CONTINUOUS
 62
     7
 10
-465.685104370117
 20
73.2340106964111
 30
0.0
 11
-466.935104370117
 21
73.2340106964111
 31
0.0
  0
LINE
  5
   533
  8
0
  6
CONTINUOUS
 62
     7
 10
-469.935104370117
 20
84.2340106964111
 30
0.0
 11
-471.185104370117
 21
84.2340106964111
 31
0.0
  0
LINE
  5
   534
  8
0
  6
CONTINUOUS
 62
     7
 10
-469.935104370117
 20
73.2340106964111
 30
0.0
 11
-471.185104370117
 21
73.2340106964111
 31
0.0
  0
LINE
  5
   535
  8
0
  6
CONTINUOUS
 62
     7
 10
-477.685104370117
 20
83.7340106964111
 30
0.0
 11
-478.085105895996
 21
83.7340106964111
 31
0.0
  0
LINE
  5
   536
  8
0
  6
CONTINUOUS
 62
     7
 10
-477.685104370117
 20
73.7340106964111
 30
0.0
 11
-478.085105895996
 21
73.7340106964111
 31
0.0
  0
LINE
  5
   537
  8
0
  6
CONTINUOUS
 62
     3
 10
-462.685104370117
 20
84.2188382148743
 30
0.0
 11
-465.685104370117
 21
84.2188382148743
 31
0.0
  0
LINE
  5
   538
  8
0
  6
CONTINUOUS
 62
     3
 10
-462.685104370117
 20
73.249183177948
 30
0.0
 11
-465.685104370117
 21
73.249183177948
 31
0.0
  0
LINE
  5
   539
  8
0
  6
CONTINUOUS
 62
     3
 10
-462.685104370117
 20
75.9915969371796
 30
0.0
 11
-465.685104370117
 21
75.9915969371796
 31
0.0
  0
LINE
  5
   53A
  8
0
  6
CONTINUOUS
 62
     3
 10
-462.685104370117
 20
81.4764244556427
 30
0.0
 11
-465.685104370117
 21
81.4764244556427
 31
0.0
  0
LINE
  5
   53B
  8
0
  6
CONTINUOUS
 62
     3
 10
-474.685104370117
 20
84.2188382148743
 30
0.0
 11
-477.685104370117
 21
84.2188382148743
 31
0.0
  0
LINE
  5
   53C
  8
0
  6
CONTINUOUS
 62
     3
 10
-474.685104370117
 20
73.249183177948
 30
0.0
 11
-477.685104370117
 21
73.249183177948
 31
0.0
  0
LINE
  5
   53D
  8
0
  6
CONTINUOUS
 62
     3
 10
-474.685104370117
 20
81.4764244556427
 30
0.0
 11
-477.685104370117
 21
81.4764244556427
 31
0.0
  0
LINE
  5
   53E
  8
0
  6
CONTINUOUS
 62
     3
 10
-474.685104370117
 20
75.9915969371796
 30
0.0
 11
-477.685104370117
 21
75.9915969371796
 31
0.0
  0
LINE
  5
   53F
  8
0
  6
CONTINUOUS
 62
     3
 10
-471.185104370117
 20
84.2188382148743
 30
0.0
 11
-474.185104370117
 21
84.2188382148743
 31
0.0
  0
LINE
  5
   540
  8
0
  6
CONTINUOUS
 62
     3
 10
-471.185104370117
 20
73.249183177948
 30
0.0
 11
-474.185104370117
 21
73.249183177948
 31
0.0
  0
LINE
  5
   541
  8
0
  6
CONTINUOUS
 62
     3
 10
-471.185104370117
 20
81.4764244556427
 30
0.0
 11
-474.185104370117
 21
81.4764244556427
 31
0.0
  0
LINE
  5
   542
  8
0
  6
CONTINUOUS
 62
     3
 10
-471.185104370117
 20
75.9915969371796
 30
0.0
 11
-474.185104370117
 21
75.9915969371796
 31
0.0
  0
LINE
  5
   543
  8
0
  6
CONTINUOUS
 62
   212
 10
-461.335109123161
 20
80.7340117351997
 30
0.0
 11
-462.335109088932
 21
81.7340117009712
 31
0.0
  0
LINE
  5
   544
  8
0
  6
CONTINUOUS
 62
   212
 10
-462.335109082403
 20
75.7340097114376
 30
0.0
 11
-461.335109116632
 21
76.7340096772091
 31
0.0
  0
LINE
  5
   545
  8
0
  6
CONTINUOUS
 62
   212
 10
-462.335105895996
 20
81.7340106964111
 30
0.0
 11
-462.685104370117
 21
81.7340106964111
 31
0.0
  0
LINE
  5
   546
  8
0
  6
CONTINUOUS
 62
   212
 10
-466.935104370117
 20
81.7340106964111
 30
0.0
 11
-469.935104370117
 21
81.7340106964111
 31
0.0
  0
LINE
  5
   547
  8
0
  6
CONTINUOUS
 62
   212
 10
-474.185104370117
 20
81.7340106964111
 30
0.0
 11
-474.685104370117
 21
81.7340106964111
 31
0.0
  0
LINE
  5
   548
  8
0
  6
CONTINUOUS
 62
   212
 10
-462.335105895996
 20
81.5871801376343
 30
0.0
 11
-462.335105895996
 21
81.7340106964111
 31
0.0
  0
LINE
  5
   549
  8
0
  6
CONTINUOUS
 62
   212
 10
-462.335105895996
 20
81.1610617637634
 30
0.0
 11
-462.335105895996
 21
81.5871801376343
 31
0.0
  0
LINE
  5
   54A
  8
0
  6
CONTINUOUS
 62
   212
 10
-462.335105895996
 20
80.4973664283752
 30
0.0
 11
-462.335105895996
 21
81.1610617637634
 31
0.0
  0
LINE
  5
   54B
  8
0
  6
CONTINUOUS
 62
   212
 10
-462.335105895996
 20
79.6610617041588
 30
0.0
 11
-462.335105895996
 21
80.4973664283752
 31
0.0
  0
LINE
  5
   54C
  8
0
  6
CONTINUOUS
 62
   212
 10
-462.335105895996
 20
78.7340106964111
 30
0.0
 11
-462.335105895996
 21
79.6610617041588
 31
0.0
  0
LINE
  5
   54D
  8
0
  6
CONTINUOUS
 62
   212
 10
-462.335105895996
 20
77.8069597482681
 30
0.0
 11
-462.335105895996
 21
78.7340106964111
 31
0.0
  0
LINE
  5
   54E
  8
0
  6
CONTINUOUS
 62
   212
 10
-462.335105895996
 20
76.970654964447
 30
0.0
 11
-462.335105895996
 21
77.8069597482681
 31
0.0
  0
LINE
  5
   54F
  8
0
  6
CONTINUOUS
 62
   212
 10
-462.335105895996
 20
76.3069596290588
 30
0.0
 11
-462.335105895996
 21
76.970654964447
 31
0.0
  0
LINE
  5
   550
  8
0
  6
CONTINUOUS
 62
   212
 10
-462.335105895996
 20
75.880841255188
 30
0.0
 11
-462.335105895996
 21
76.3069596290588
 31
0.0
  0
LINE
  5
   551
  8
0
  6
CONTINUOUS
 62
   212
 10
-462.335105895996
 20
75.7340106964111
 30
0.0
 11
-462.685104370117
 21
75.7340106964111
 31
0.0
  0
LINE
  5
   552
  8
0
  6
CONTINUOUS
 62
   212
 10
-466.935104370117
 20
75.7340106964111
 30
0.0
 11
-469.935104370117
 21
75.7340106964111
 31
0.0
  0
LINE
  5
   553
  8
0
  6
CONTINUOUS
 62
   212
 10
-474.185104370117
 20
75.7340106964111
 30
0.0
 11
-474.685104370117
 21
75.7340106964111
 31
0.0
  0
LINE
  5
   554
  8
0
  6
CONTINUOUS
 62
   212
 10
-462.335105895996
 20
75.7340106964111
 30
0.0
 11
-462.335105895996
 21
75.880841255188
 31
0.0
  0
LINE
  5
   555
  8
0
  6
CONTINUOUS
 62
     3
 10
-461.335109123161
 20
80.7340117351997
 30
0.0
 11
-462.685104370117
 21
80.7340117351997
 31
0.0
  0
LINE
  5
   556
  8
0
  6
CONTINUOUS
 62
     3
 10
-461.335105895996
 20
76.7340106964111
 30
0.0
 11
-462.685104370117
 21
76.7340106964111
 31
0.0
  0
LINE
  5
   557
  8
0
  6
CONTINUOUS
 62
     3
 10
-461.335109123161
 20
9.23401173519971
 30
0.0
 11
-462.685104370117
 21
9.23401173519971
 31
0.0
  0
LINE
  5
   558
  8
0
  6
CONTINUOUS
 62
     3
 10
-461.335105895996
 20
5.23401069641113
 30
0.0
 11
-462.685104370117
 21
5.23401069641113
 31
0.0
  0
LINE
  5
   559
  8
0
  6
CONTINUOUS
 62
     3
 10
-487.335105895996
 20
80.7340106964111
 30
0.0
 11
-488.685104370117
 21
80.7340106964111
 31
0.0
  0
LINE
  5
   55A
  8
0
  6
CONTINUOUS
 62
     3
 10
-487.335105895996
 20
76.7340106964111
 30
0.0
 11
-488.685104370117
 21
76.7340106964111
 31
0.0
  0
LINE
  5
   55B
  8
0
  6
CONTINUOUS
 62
     3
 10
-492.935104370117
 20
80.7340106964111
 30
0.0
 11
-495.935104370117
 21
80.7340106964111
 31
0.0
  0
LINE
  5
   55C
  8
0
  6
CONTINUOUS
 62
     3
 10
-492.935104370117
 20
76.7340106964111
 30
0.0
 11
-495.935104370117
 21
76.7340106964111
 31
0.0
  0
LINE
  5
   55D
  8
0
  6
CONTINUOUS
 62
     3
 10
-466.935104370117
 20
9.23401173519971
 30
0.0
 11
-469.935104370117
 21
9.23401173519971
 31
0.0
  0
LINE
  5
   55E
  8
0
  6
CONTINUOUS
 62
     3
 10
-466.935104370117
 20
5.23401069641113
 30
0.0
 11
-469.935104370117
 21
5.23401069641113
 31
0.0
  0
LINE
  5
   55F
  8
0
  6
CONTINUOUS
 62
     3
 10
-466.935104370117
 20
80.7340117351997
 30
0.0
 11
-469.935104370117
 21
80.7340117351997
 31
0.0
  0
LINE
  5
   560
  8
0
  6
CONTINUOUS
 62
     3
 10
-466.935104370117
 20
76.7340106964111
 30
0.0
 11
-469.935104370117
 21
76.7340106964111
 31
0.0
  0
LINE
  5
   561
  8
0
  6
CONTINUOUS
 62
     7
 10
-601.585082054138
 20
68.8590106964111
 30
0.0
 11
-602.835084915161
 21
68.8590106964111
 31
0.0
  0
LINE
  5
   562
  8
0
  6
CONTINUOUS
 62
     7
 10
-601.585082054138
 20
68.8590106964111
 30
0.0
 11
-601.585082054138
 21
74.1090106964111
 31
0.0
  0
LINE
  5
   563
  8
0
  6
CONTINUOUS
 62
     7
 10
-603.335084915161
 20
75.8590106964111
 30
0.0
 11
-604.585084915161
 21
75.8590106964111
 31
0.0
  0
LINE
  5
   564
  8
0
  6
CONTINUOUS
 62
     7
 10
-605.085084915161
 20
78.8589191436768
 30
0.0
 11
-605.085084915161
 21
80.3590106964111
 31
0.0
  0
LINE
  5
   565
  8
0
  6
CONTINUOUS
 62
     7
 10
-605.085084915161
 20
80.3590106964111
 30
0.0
 11
-606.335081100464
 21
80.3590106964111
 31
0.0
  0
LINE
  5
   566
  8
0
  6
CONTINUOUS
 62
     7
 10
-603.335084915161
 20
74.6090106964111
 30
0.0
 11
-604.585084915161
 21
74.6090106964111
 31
0.0
  0
LINE
  5
   567
  8
0
  6
CONTINUOUS
 62
     7
 10
-602.835084915161
 20
68.8590106964111
 30
0.0
 11
-602.835084915161
 21
74.1090106964111
 31
0.0
  0
ARC
  5
   568
  8
0
  6
CONTINUOUS
 62
     7
 10
-603.335092241915
 20
74.1090043532589
 30
0.0
 40
1.75000922655776
 50
360.000319242658
 51
449.999813057862
  0
ARC
  5
   569
  8
0
  6
CONTINUOUS
 62
     7
 10
-603.335062791086
 20
74.1090311438023
 30
0.0
 40
0.499974910621752
 50
359.998830132094
 51
450.002235749312
  0
ARC
  5
   56A
  8
0
  6
CONTINUOUS
 62
     7
 10
-604.585094591352
 20
76.358994672944
 30
0.0
 40
1.74998552797211
 50
196.604271282219
 51
270.000346548696
  0
LINE
  5
   56B
  8
0
  6
CONTINUOUS
 62
     7
 10
-601.585082054138
 20
73.3590106964111
 30
0.0
 11
-602.835084915161
 21
73.3590106964111
 31
0.0
  0
INSERT
  5
   56C
  8
0
  6
CONTINUOUS
 62
     7
  2
*HATCH21
 10
-587.585083007813
 20
-13.13454246521
 30
0.0
 41
0.5
 42
0.5
 50
89.9999999480344
 43
0.5
  0
LINE
  5
   56D
  8
0
  6
CONTINUOUS
 62
     7
 10
-604.585081100464
 20
68.1090106964111
 30
0.0
 11
-604.585081100464
 21
71.6090106964111
 31
0.0
  0
LINE
  5
   56E
  8
0
  6
CONTINUOUS
 62
     7
 10
-603.585081100464
 20
68.1090106964111
 30
0.0
 11
-603.585081100464
 21
71.6090106964111
 31
0.0
  0
LINE
  5
   56F
  8
0
  6
CONTINUOUS
 62
     7
 10
-603.585081100464
 20
71.6090106964111
 30
0.0
 11
-604.585081100464
 21
71.6090106964111
 31
0.0
  0
LINE
  5
   570
  8
0
  6
DOT
 62
     7
 10
-622.835081100464
 20
15.6089839935303
 30
0.0
 11
-622.835081100464
 21
68.1090106964111
 31
0.0
  0
LINE
  5
   571
  8
0
  6
DOT
 62
     7
 10
-612.988734526188
 20
68.0838132745585
 30
0.0
 11
-622.835081100464
 21
68.0838132745585
 31
0.0
  0
LINE
  5
   572
  8
0
  6
DOT
 62
     7
 10
-612.092085280726
 20
15.6089839935303
 30
0.0
 11
-622.835081100464
 21
15.6089839935303
 31
0.0
  0
LINE
  5
   573
  8
0
  6
CONTINUOUS
 62
     7
 10
-508.235090637207
 20
66.0339954488418
 30
0.0
 11
-508.235090637207
 21
69.9339954488418
 31
0.0
  0
LINE
  5
   574
  8
0
  6
CONTINUOUS
 62
     7
 10
-506.635090637207
 20
66.9839954488418
 30
0.0
 11
-506.635090637207
 21
68.9839954488418
 31
0.0
  0
LINE
  5
   575
  8
0
  6
CONTINUOUS
 62
     7
 10
-508.235090637207
 20
69.9339954488418
 30
0.0
 11
-509.835090637207
 21
69.9339954488418
 31
0.0
  0
LINE
  5
   576
  8
0
  6
CONTINUOUS
 62
     7
 10
-508.235090637207
 20
66.0339954488418
 30
0.0
 11
-509.835090637207
 21
66.0339954488418
 31
0.0
  0
LINE
  5
   577
  8
0
  6
CONTINUOUS
 62
     7
 10
-506.635090637207
 20
68.9839954488418
 30
0.0
 11
-509.835090637207
 21
68.9839954488418
 31
0.0
  0
LINE
  5
   578
  8
0
  6
CONTINUOUS
 62
     7
 10
-506.635090637207
 20
66.9839954488418
 30
0.0
 11
-509.835090637207
 21
66.9839954488418
 31
0.0
  0
LINE
  5
   579
  8
0
  6
CONTINUOUS
 62
     7
 10
-508.235090637207
 20
19.9339954488418
 30
0.0
 11
-509.835090637207
 21
19.9339954488418
 31
0.0
  0
LINE
  5
   57A
  8
0
  6
CONTINUOUS
 62
     7
 10
-506.635090637207
 20
18.9839954488418
 30
0.0
 11
-509.835090637207
 21
18.9839954488418
 31
0.0
  0
LINE
  5
   57B
  8
0
  6
CONTINUOUS
 62
     7
 10
-506.635090637207
 20
16.9839954488418
 30
0.0
 11
-509.835090637207
 21
16.9839954488418
 31
0.0
  0
LINE
  5
   57C
  8
0
  6
CONTINUOUS
 62
     7
 10
-508.235090637207
 20
16.0339954488418
 30
0.0
 11
-509.835090637207
 21
16.0339954488418
 31
0.0
  0
LINE
  5
   57D
  8
0
  6
CONTINUOUS
 62
     7
 10
-508.235090637207
 20
16.0339954488418
 30
0.0
 11
-508.235090637207
 21
19.9339954488418
 31
0.0
  0
LINE
  5
   57E
  8
0
  6
CONTINUOUS
 62
     7
 10
-506.635090637207
 20
16.9839954488418
 30
0.0
 11
-506.635090637207
 21
18.9839954488418
 31
0.0
  0
CIRCLE
  5
   57F
  8
0
  6
CONTINUOUS
 62
     7
 10
-508.365652910943
 20
17.9005955064609
 30
0.0
 40
0.1
  0
LINE
  5
   580
  8
0
  6
CONTINUOUS
 62
     7
 10
-497.185104370117
 20
1.73401069641113
 30
0.0
 11
-497.185104370117
 21
4.45026230812073
 31
0.0
  0
LINE
  5
   581
  8
0
  6
CONTINUOUS
 62
     7
 10
-497.185104370117
 20
4.59077334403992
 30
0.0
 11
-497.185104370117
 21
9.87724900245667
 31
0.0
  0
LINE
  5
   582
  8
0
  6
CONTINUOUS
 62
     7
 10
-497.185104370117
 20
10.0177597999573
 30
0.0
 11
-497.185104370117
 21
12.7340106964111
 31
0.0
  0
LINE
  5
   583
  8
0
  6
CONTINUOUS
 62
     7
 10
-495.935104370117
 20
1.73401069641113
 30
0.0
 11
-495.935104370117
 21
12.7340106964111
 31
0.0
  0
LINE
  5
   584
  8
0
  6
CONTINUOUS
 62
     7
 10
-492.935104370117
 20
1.73401069641113
 30
0.0
 11
-492.935104370117
 21
12.7340106964111
 31
0.0
  0
LINE
  5
   585
  8
0
  6
CONTINUOUS
 62
     7
 10
-491.685104370117
 20
10.0177590847015
 30
0.0
 11
-491.685104370117
 21
12.7340106964111
 31
0.0
  0
LINE
  5
   586
  8
0
  6
CONTINUOUS
 62
     7
 10
-491.685104370117
 20
4.5907723903656
 30
0.0
 11
-491.685104370117
 21
9.87724804878235
 31
0.0
  0
LINE
  5
   587
  8
0
  6
CONTINUOUS
 62
     7
 10
-491.685104370117
 20
1.73401069641113
 30
0.0
 11
-491.685104370117
 21
4.45026159286499
 31
0.0
  0
LINE
  5
   588
  8
0
  6
CONTINUOUS
 62
     7
 10
-503.685104370117
 20
10.6709170341492
 30
0.0
 11
-503.685104370117
 21
12.0507283210754
 31
0.0
  0
LINE
  5
   589
  8
0
  6
CONTINUOUS
 62
     7
 10
-503.685104370117
 20
5.67856359481812
 30
0.0
 11
-503.685104370117
 21
8.78945732116699
 31
0.0
  0
LINE
  5
   58A
  8
0
  6
CONTINUOUS
 62
     7
 10
-503.685104370117
 20
2.41729307174683
 30
0.0
 11
-503.685104370117
 21
3.79710388183594
 31
0.0
  0
LINE
  5
   58B
  8
0
  6
CONTINUOUS
 62
     3
 10
-500.685104370117
 20
1.749183177948
 30
0.0
 11
-500.685104370117
 21
12.7188382148743
 31
0.0
  0
LINE
  5
   58C
  8
0
  6
CONTINUOUS
 62
     3
 10
-503.685104370117
 20
1.749183177948
 30
0.0
 11
-503.685104370117
 21
2.41729307174683
 31
0.0
  0
LINE
  5
   58D
  8
0
  6
CONTINUOUS
 62
     3
 10
-503.685104370117
 20
3.7971019744873
 30
0.0
 11
-503.685104370117
 21
5.67856383323669
 31
0.0
  0
LINE
  5
   58E
  8
0
  6
CONTINUOUS
 62
     3
 10
-503.685104370117
 20
8.78945732116699
 30
0.0
 11
-503.685104370117
 21
10.670914888382
 31
0.0
  0
LINE
  5
   58F
  8
0
  6
CONTINUOUS
 62
     3
 10
-503.685104370117
 20
12.0507283210754
 30
0.0
 11
-503.685104370117
 21
12.7188382148743
 31
0.0
  0
LINE
  5
   590
  8
0
  6
CONTINUOUS
 62
     3
 10
-497.185104370117
 20
9.87724637985229
 30
0.0
 11
-497.185104370117
 21
10.0177595615387
 31
0.0
  0
LINE
  5
   591
  8
0
  6
CONTINUOUS
 62
     3
 10
-497.185104370117
 20
4.45026302337646
 30
0.0
 11
-497.185104370117
 21
4.59076976776123
 31
0.0
  0
LINE
  5
   592
  8
0
  6
CONTINUOUS
 62
     3
 10
-500.185104370117
 20
1.749183177948
 30
0.0
 11
-500.185104370117
 21
12.7188382148743
 31
0.0
  0
LINE
  5
   593
  8
0
  6
CONTINUOUS
 62
     3
 10
-491.685104370117
 20
4.45026326179504
 30
0.0
 11
-491.685104370117
 21
4.59077000617981
 31
0.0
  0
LINE
  5
   594
  8
0
  6
CONTINUOUS
 62
     3
 10
-491.685104370117
 20
9.87724709510803
 30
0.0
 11
-491.685104370117
 21
10.0177597999573
 31
0.0
  0
LINE
  5
   595
  8
0
  6
CONTINUOUS
 62
     3
 10
-488.685104370117
 20
1.749183177948
 30
0.0
 11
-488.685104370117
 21
12.7188382148743
 31
0.0
  0
LINE
  5
   596
  8
0
  6
CONTINUOUS
 62
   212
 10
-487.335105895996
 20
5.23401069641113
 30
0.0
 11
-487.335105895996
 21
9.23401069641113
 31
0.0
  0
LINE
  5
   597
  8
0
  6
CONTINUOUS
 62
     7
 10
-495.935104370117
 20
12.7340106964111
 30
0.0
 11
-497.185104370117
 21
12.7340106964111
 31
0.0
  0
LINE
  5
   598
  8
0
  6
CONTINUOUS
 62
     7
 10
-495.935104370117
 20
1.73401069641113
 30
0.0
 11
-497.185104370117
 21
1.73401069641113
 31
0.0
  0
LINE
  5
   599
  8
0
  6
CONTINUOUS
 62
     7
 10
-491.685104370117
 20
12.7340106964111
 30
0.0
 11
-492.935104370117
 21
12.7340106964111
 31
0.0
  0
LINE
  5
   59A
  8
0
  6
CONTINUOUS
 62
     7
 10
-491.685104370117
 20
1.73401069641113
 30
0.0
 11
-492.935104370117
 21
1.73401069641113
 31
0.0
  0
LINE
  5
   59B
  8
0
  6
CONTINUOUS
 62
     7
 10
-503.685104370117
 20
12.2340106964111
 30
0.0
 11
-504.085105895996
 21
12.2340106964111
 31
0.0
  0
LINE
  5
   59C
  8
0
  6
CONTINUOUS
 62
     7
 10
-503.685104370117
 20
2.23401069641113
 30
0.0
 11
-504.085105895996
 21
2.23401069641113
 31
0.0
  0
LINE
  5
   59D
  8
0
  6
CONTINUOUS
 62
     3
 10
-500.685104370117
 20
12.7188382148743
 30
0.0
 11
-503.685104370117
 21
12.7188382148743
 31
0.0
  0
LINE
  5
   59E
  8
0
  6
CONTINUOUS
 62
     3
 10
-500.685104370117
 20
9.9764244556427
 30
0.0
 11
-503.685104370117
 21
9.9764244556427
 31
0.0
  0
LINE
  5
   59F
  8
0
  6
CONTINUOUS
 62
     3
 10
-500.685104370117
 20
4.49159693717957
 30
0.0
 11
-503.685104370117
 21
4.49159693717957
 31
0.0
  0
LINE
  5
   5A0
  8
0
  6
CONTINUOUS
 62
     3
 10
-500.685104370117
 20
1.749183177948
 30
0.0
 11
-503.685104370117
 21
1.749183177948
 31
0.0
  0
LINE
  5
   5A1
  8
0
  6
CONTINUOUS
 62
     3
 10
-497.185104370117
 20
12.7188382148743
 30
0.0
 11
-500.185104370117
 21
12.7188382148743
 31
0.0
  0
LINE
  5
   5A2
  8
0
  6
CONTINUOUS
 62
     3
 10
-497.185104370117
 20
9.9764244556427
 30
0.0
 11
-500.185104370117
 21
9.9764244556427
 31
0.0
  0
LINE
  5
   5A3
  8
0
  6
CONTINUOUS
 62
     3
 10
-497.185104370117
 20
4.49159693717957
 30
0.0
 11
-500.185104370117
 21
4.49159693717957
 31
0.0
  0
LINE
  5
   5A4
  8
0
  6
CONTINUOUS
 62
     3
 10
-497.185104370117
 20
1.749183177948
 30
0.0
 11
-500.185104370117
 21
1.749183177948
 31
0.0
  0
LINE
  5
   5A5
  8
0
  6
CONTINUOUS
 62
     3
 10
-488.685104370117
 20
12.7188382148743
 30
0.0
 11
-491.685104370117
 21
12.7188382148743
 31
0.0
  0
LINE
  5
   5A6
  8
0
  6
CONTINUOUS
 62
     3
 10
-488.685104370117
 20
9.9764244556427
 30
0.0
 11
-491.685104370117
 21
9.9764244556427
 31
0.0
  0
LINE
  5
   5A7
  8
0
  6
CONTINUOUS
 62
     3
 10
-488.685104370117
 20
4.49159693717957
 30
0.0
 11
-491.685104370117
 21
4.49159693717957
 31
0.0
  0
LINE
  5
   5A8
  8
0
  6
CONTINUOUS
 62
     3
 10
-488.685104370117
 20
1.749183177948
 30
0.0
 11
-491.685104370117
 21
1.749183177948
 31
0.0
  0
LINE
  5
   5A9
  8
0
  6
CONTINUOUS
 62
   212
 10
-487.335108455704
 20
9.2340115127142
 30
0.0
 11
-488.335108421476
 21
10.2340114784857
 31
0.0
  0
LINE
  5
   5AA
  8
0
  6
CONTINUOUS
 62
   212
 10
-488.335108414947
 20
4.2340099339231
 30
0.0
 11
-487.335108449175
 21
5.23400989969458
 31
0.0
  0
LINE
  5
   5AB
  8
0
  6
CONTINUOUS
 62
   212
 10
-488.335105895996
 20
4.23401069641113
 30
0.0
 11
-488.335105895996
 21
4.38084125518799
 31
0.0
  0
LINE
  5
   5AC
  8
0
  6
CONTINUOUS
 62
   212
 10
-488.335105895996
 20
4.38084125518799
 30
0.0
 11
-488.335105895996
 21
4.80695962905884
 31
0.0
  0
LINE
  5
   5AD
  8
0
  6
CONTINUOUS
 62
   212
 10
-488.335105895996
 20
4.80695962905884
 30
0.0
 11
-488.335105895996
 21
5.47065496444702
 31
0.0
  0
LINE
  5
   5AE
  8
0
  6
CONTINUOUS
 62
   212
 10
-488.335105895996
 20
5.47065496444702
 30
0.0
 11
-488.335105895996
 21
6.30695974826813
 31
0.0
  0
LINE
  5
   5AF
  8
0
  6
CONTINUOUS
 62
   212
 10
-488.335105895996
 20
6.30695974826813
 30
0.0
 11
-488.335105895996
 21
7.23401069641113
 31
0.0
  0
LINE
  5
   5B0
  8
0
  6
CONTINUOUS
 62
   212
 10
-488.335105895996
 20
7.23401069641113
 30
0.0
 11
-488.335105895996
 21
8.16106170415878
 31
0.0
  0
LINE
  5
   5B1
  8
0
  6
CONTINUOUS
 62
   212
 10
-488.335105895996
 20
8.16106170415878
 30
0.0
 11
-488.335105895996
 21
8.99736642837524
 31
0.0
  0
LINE
  5
   5B2
  8
0
  6
CONTINUOUS
 62
   212
 10
-488.335105895996
 20
8.99736642837524
 30
0.0
 11
-488.335105895996
 21
9.66106176376343
 31
0.0
  0
LINE
  5
   5B3
  8
0
  6
CONTINUOUS
 62
   212
 10
-488.335105895996
 20
9.66106176376343
 30
0.0
 11
-488.335105895996
 21
10.0871801376343
 31
0.0
  0
LINE
  5
   5B4
  8
0
  6
CONTINUOUS
 62
   212
 10
-488.335105895996
 20
10.0871801376343
 30
0.0
 11
-488.335105895996
 21
10.2340106964111
 31
0.0
  0
LINE
  5
   5B5
  8
0
  6
CONTINUOUS
 62
   212
 10
-488.335105895996
 20
10.2340106964111
 30
0.0
 11
-488.685104370117
 21
10.2340106964111
 31
0.0
  0
LINE
  5
   5B6
  8
0
  6
CONTINUOUS
 62
   212
 10
-492.935104370117
 20
10.2340106964111
 30
0.0
 11
-495.935104370117
 21
10.2340106964111
 31
0.0
  0
LINE
  5
   5B7
  8
0
  6
CONTINUOUS
 62
   212
 10
-500.185104370117
 20
10.2340106964111
 30
0.0
 11
-500.685104370117
 21
10.2340106964111
 31
0.0
  0
LINE
  5
   5B8
  8
0
  6
CONTINUOUS
 62
   212
 10
-488.335105895996
 20
4.23401069641113
 30
0.0
 11
-488.685104370117
 21
4.23401069641113
 31
0.0
  0
LINE
  5
   5B9
  8
0
  6
CONTINUOUS
 62
   212
 10
-492.935104370117
 20
4.23401069641113
 30
0.0
 11
-495.935104370117
 21
4.23401069641113
 31
0.0
  0
LINE
  5
   5BA
  8
0
  6
CONTINUOUS
 62
   212
 10
-500.185104370117
 20
4.23401069641113
 30
0.0
 11
-500.685104370117
 21
4.23401069641113
 31
0.0
  0
LINE
  5
   5BB
  8
0
  6
CONTINUOUS
 62
   253
 10
-500.185104370117
 20
12.2340106964111
 30
0.0
 11
-500.685104370117
 21
12.2340106964111
 31
0.0
  0
LINE
  5
   5BC
  8
0
  6
CONTINUOUS
 62
   253
 10
-492.935104370117
 20
12.2340106964111
 30
0.0
 11
-495.935104370117
 21
12.2340106964111
 31
0.0
  0
LINE
  5
   5BD
  8
0
  6
CONTINUOUS
 62
   253
 10
-500.185104370117
 20
2.23401069641113
 30
0.0
 11
-500.685104370117
 21
2.23401069641113
 31
0.0
  0
LINE
  5
   5BE
  8
0
  6
CONTINUOUS
 62
   253
 10
-492.935104370117
 20
2.23401069641113
 30
0.0
 11
-495.935104370117
 21
2.23401069641113
 31
0.0
  0
LINE
  5
   5BF
  8
0
  6
CONTINUOUS
 62
     3
 10
-487.335105895996
 20
9.23401069641113
 30
0.0
 11
-488.685104370117
 21
9.23401069641113
 31
0.0
  0
LINE
  5
   5C0
  8
0
  6
CONTINUOUS
 62
     3
 10
-487.335105895996
 20
5.23401069641113
 30
0.0
 11
-488.685104370117
 21
5.23401069641113
 31
0.0
  0
LINE
  5
   5C1
  8
0
  6
CONTINUOUS
 62
     3
 10
-492.935104370117
 20
9.23401069641113
 30
0.0
 11
-495.935104370117
 21
9.23401069641113
 31
0.0
  0
LINE
  5
   5C2
  8
0
  6
CONTINUOUS
 62
     3
 10
-492.935104370117
 20
5.23401069641113
 30
0.0
 11
-495.935104370117
 21
5.23401069641113
 31
0.0
  0
TEXT
  5
   5C3
  8
0
  6
CONTINUOUS
 62
     7
 10
-604.182408231608
 20
119.313669223906
 30
0.0
 40
3.00000002980232
  1
ISOLATING DISTANCE
 50
359.999999948034
 41
0.916666689183977
 72
     1
 11
-579.707407385111
 21
120.813669216733
 31
0.0
 73
     2
  0
INSERT
  5
   5C4
  8
0
  6
CONTINUOUS
 62
     7
  2
*UDIM116
 10
0.0
 20
0.0
 30
0.0
  0
TEXT
  5
   5C5
  8
0
  6
CONTINUOUS
 62
     7
 10
-344.285049350423
 20
62.9750308971595
 30
0.0
 40
3.00000002980232
  1
X
 50
359.999999948034
 41
0.916666604744064
 72
     1
 11
-343.185049414635
 21
64.4750309110685
 31
0.0
 73
     2
  0
TEXT
  5
   5C6
  8
0
  6
CONTINUOUS
 62
     7
 10
-341.418411166829
 20
40.176828382511
 30
0.0
 40
3.00000002980232
  1
X
 50
359.999999948034
 41
0.916666604744064
 72
     1
 11
-340.318411231041
 21
41.67682839642
 31
0.0
 73
     2
  0
INSERT
  5
   5C7
  8
0
  6
CONTINUOUS
 62
     7
  2
*UDIM117
 10
0.0
 20
0.0
 30
0.0
  0
INSERT
  5
   5C8
  8
0
  6
CONTINUOUS
 62
     7
  2
*UDIM118
 10
0.0
 20
0.0
 30
0.0
  0
INSERT
  5
   5C9
  8
0
  6
CONTINUOUS
 62
     7
  2
*UDIM119
 10
0.0
 20
0.0
 30
0.0
  0
INSERT
  5
   5CA
  8
0
  6
CONTINUOUS
 62
     7
  2
*UDIM120
 10
0.0
 20
0.0
 30
0.0
  0
INSERT
  5
   5CB
  8
0
  6
CONTINUOUS
 62
     7
  2
*UDIM121
 10
0.0
 20
0.0
 30
0.0
  0
INSERT
  5
   5CC
  8
0
  6
CONTINUOUS
 62
     7
  2
*UDIM122
 10
0.0
 20
0.0
 30
0.0
  0
TEXT
  5
   5CD
  8
0
  6
CONTINUOUS
 62
     7
 10
-624.996036544236
 20
25.7274742256924
 30
0.0
 40
3.00000002980232
  1
=          =
 50
89.9999999480344
 41
0.916666604744064
 72
     2
 11
-624.996036514846
 21
58.177472351623
 31
0.0
  0
INSERT
  5
   5CE
  8
0
  6
CONTINUOUS
 62
     7
  2
*UDIM123
 10
0.0
 20
0.0
 30
0.0
  0
INSERT
  5
   5CF
  8
0
  6
CONTINUOUS
 62
     7
  2
*UDIM124
 10
0.0
 20
0.0
 30
0.0
  0
INSERT
  5
   5D0
  8
0
  6
CONTINUOUS
 62
     7
  2
*UDIM125
 10
0.0
 20
0.0
 30
0.0
  0
INSERT
  5
   5D1
  8
0
  6
CONTINUOUS
 62
     7
  2
*UDIM126
 10
0.0
 20
0.0
 30
0.0
  0
TEXT
  5
   5D2
  8
0
  6
CONTINUOUS
 62
     7
 10
-636.028719360988
 20
40.9132682039349
 30
0.0
 40
3.00000002980232
  1
X
 50
359.999999948034
 41
0.916666604744064
 72
     2
 11
-633.828719492118
 21
40.9132682019506
 31
0.0
  0
TEXT
  5
   5D3
  8
0
  6
CONTINUOUS
 62
     7
 10
-476.815000946681
 20
40.3674842073529
 30
0.0
 40
3.00000002980232
  1
X
 50
359.999999948034
 41
0.916666604744064
 72
     2
 11
-474.615001077811
 21
40.3674842053686
 31
0.0
  0
LINE
  5
   5D4
  8
0
  6
DASHDOT
 62
     7
 10
-576.625366210938
 20
-61.1733450634316
 30
0.0
 11
-576.625366210938
 21
-130.800974259679
 31
0.0
  0
LINE
  5
   5D5
  8
0
  6
CONTINUOUS
 62
     3
 10
-557.250366210938
 20
-72.8303973090817
 30
0.0
 11
-557.250366210938
 21
-124.09806060791
 31
0.0
  0
LINE
  5
   5D6
  8
0
  6
CONTINUOUS
 62
     3
 10
-557.250366210938
 20
-124.09806060791
 30
0.0
 11
-601.625366210938
 21
-124.09806060791
 31
0.0
  0
LINE
  5
   5D7
  8
0
  6
CONTINUOUS
 62
     3
 10
-601.625366210938
 20
-72.8303973090817
 30
0.0
 11
-601.625366210938
 21
-124.09806060791
 31
0.0
  0
LINE
  5
   5D8
  8
0
  6
CONTINUOUS
 62
     3
 10
-557.250366210938
 20
-72.8303973090817
 30
0.0
 11
-601.625366210938
 21
-72.8303973090817
 31
0.0
  0
LINE
  5
   5D9
  8
0
  6
DASHDOT
 62
     7
 10
-570.375366210938
 20
-82.6939358079502
 30
0.0
 11
-570.375366210938
 21
-116.512766212093
 31
0.0
  0
LINE
  5
   5DA
  8
0
  6
DASHDOT
 62
     7
 10
-596.625366210938
 20
-82.3972794008963
 30
0.0
 11
-596.625366210938
 21
-116.66109441562
 31
0.0
  0
LINE
  5
   5DB
  8
0
  6
DASHDOT
 62
     7
 10
-562.973165270179
 20
-86.7230606079102
 30
0.0
 11
-595.457041842579
 21
-86.7230606079102
 31
0.0
  0
LINE
  5
   5DC
  8
0
  6
DASHDOT
 62
     7
 10
-562.528180659598
 20
-111.72306060791
 30
0.0
 11
-595.90202645316
 21
-111.72306060791
 31
0.0
  0
CIRCLE
  5
   5DD
  8
0
  6
CONTINUOUS
 62
     7
 10
-596.625366210938
 20
-86.7230606079102
 30
0.0
 40
0.625
  0
CIRCLE
  5
   5DE
  8
0
  6
CONTINUOUS
 62
     7
 10
-570.375366210938
 20
-86.7230606079102
 30
0.0
 40
0.625
  0
CIRCLE
  5
   5DF
  8
0
  6
CONTINUOUS
 62
     7
 10
-596.625366210938
 20
-111.72306060791
 30
0.0
 40
0.625
  0
CIRCLE
  5
   5E0
  8
0
  6
CONTINUOUS
 62
     7
 10
-570.375366210938
 20
-111.72306060791
 30
0.0
 40
0.625
  0
LINE
  5
   5E1
  8
0
  6
DASHDOT
 62
     7
 10
-548.074331593266
 20
-81.3480606079102
 30
0.0
 11
-595.920255652381
 21
-81.3480606079102
 31
0.0
  0
LINE
  5
   5E2
  8
0
  6
DASHDOT
 62
     7
 10
-548.074331593266
 20
-117.09806060791
 30
0.0
 11
-603.888423852651
 21
-117.09806060791
 31
0.0
  0
LINE
  5
   5E3
  8
0
  6
DASHDOT
 62
     7
 10
-567.875366210938
 20
-70.0803170844208
 30
0.0
 11
-567.875366210938
 21
-130.490495872807
 31
0.0
  0
LINE
  5
   5E4
  8
0
  6
DASHDOT
 62
     7
 10
-594.125366210938
 20
-70.0803170844208
 30
0.0
 11
-594.125366210938
 21
-130.490495872807
 31
0.0
  0
ARC
  5
   5E5
  8
0
  6
CONTINUOUS
 62
     7
 10
-567.875366210938
 20
-81.3480606079102
 30
0.0
 40
3.5
 50
269.999999896069
 51
449.999999896069
  0
ARC
  5
   5E6
  8
0
  6
CONTINUOUS
 62
     7
 10
-594.125366210938
 20
-81.3480606079102
 30
0.0
 40
3.5
 50
449.999999896069
 51
629.999999896069
  0
ARC
  5
   5E7
  8
0
  6
CONTINUOUS
 62
     7
 10
-594.125366210938
 20
-117.09806060791
 30
0.0
 40
3.5
 50
449.999999896069
 51
629.999999896069
  0
ARC
  5
   5E8
  8
0
  6
CONTINUOUS
 62
     7
 10
-567.875366210938
 20
-117.09806060791
 30
0.0
 40
3.5
 50
269.999999896069
 51
449.999999896069
  0
LINE
  5
   5E9
  8
0
  6
CONTINUOUS
 62
     7
 10
-567.875366210938
 20
-113.59806060791
 30
0.0
 11
-594.125366210938
 21
-113.59806060791
 31
0.0
  0
LINE
  5
   5EA
  8
0
  6
CONTINUOUS
 62
     7
 10
-567.875366210938
 20
-120.59806060791
 30
0.0
 11
-594.125366210938
 21
-120.59806060791
 31
0.0
  0
LINE
  5
   5EB
  8
0
  6
CONTINUOUS
 62
     7
 10
-567.875366210938
 20
-84.8480606079102
 30
0.0
 11
-594.125366210938
 21
-84.8480606079102
 31
0.0
  0
LINE
  5
   5EC
  8
0
  6
CONTINUOUS
 62
     7
 10
-567.875366210938
 20
-77.8480606079102
 30
0.0
 11
-594.125366210938
 21
-77.8480606079102
 31
0.0
  0
LINE
  5
   5ED
  8
0
  6
DASHDOT
 62
     7
 10
-576.625366210938
 20
-44.5050418008124
 30
0.0
 11
-576.625366210938
 21
-53.1265779711327
 31
0.0
  0
CIRCLE
  5
   5EE
  8
0
  6
CONTINUOUS
 62
     7
 10
-594.158715560393
 20
-76.2478168288974
 30
0.0
 40
0.05
  0
LINE
  5
   5EF
  8
0
  6
DASHDOT
 62
     7
 10
-555.244021133902
 20
-99.7855606079102
 30
0.0
 11
-605.62848080936
 21
-99.7855606079102
 31
0.0
  0
INSERT
  5
   5F0
  8
0
  6
CONTINUOUS
 62
     7
  2
*UDIM127
 10
0.0
 20
0.0
 30
0.0
  0
INSERT
  5
   5F1
  8
0
  6
CONTINUOUS
 62
     7
  2
*UDIM128
 10
0.0
 20
0.0
 30
0.0
  0
INSERT
  5
   5F2
  8
0
  6
CONTINUOUS
 62
     7
  2
*UDIM129
 10
0.0
 20
0.0
 30
0.0
  0
INSERT
  5
   5F3
  8
0
  6
CONTINUOUS
 62
     7
  2
*UDIM130
 10
0.0
 20
0.0
 30
0.0
  0
INSERT
  5
   5F4
  8
0
  6
CONTINUOUS
 62
     7
  2
*UDIM131
 10
0.0
 20
0.0
 30
0.0
  0
INSERT
  5
   5F5
  8
0
  6
CONTINUOUS
 62
     7
  2
*UDIM132
 10
0.0
 20
0.0
 30
0.0
  0
INSERT
  5
   5F6
  8
0
  6
CONTINUOUS
 62
     7
  2
*UDIM133
 10
0.0
 20
0.0
 30
0.0
  0
INSERT
  5
   5F7
  8
0
  6
CONTINUOUS
 62
     7
  2
*UDIM134
 10
0.0
 20
0.0
 30
0.0
  0
INSERT
  5
   5F8
  8
0
  6
CONTINUOUS
 62
     7
  2
*UDIM135
 10
0.0
 20
0.0
 30
0.0
  0
INSERT
  5
   5F9
  8
0
  6
CONTINUOUS
 62
     7
  2
*UDIM136
 10
0.0
 20
0.0
 30
0.0
  0
TEXT
  5
   5FA
  8
0
  6
CONTINUOUS
 62
     7
 10
-577.509329083295
 20
-151.931903866924
 30
0.0
 40
3.00000002980232
  1
Y
 50
359.999999896069
 41
0.916666604744064
 72
     2
 11
-575.309329214425
 21
-151.931903870903
 31
0.0
  0
TEXT
  5
   5FB
  8
0
  6
CONTINUOUS
 62
     7
 10
-575.264923813672
 20
-49.2293472568164
 30
0.0
 40
3.00000002980232
  1
Y
 50
359.999999896069
 41
0.916666604744064
 72
     2
 11
-573.064923944802
 21
-49.229347260796
 31
0.0
  0
TEXT
  5
   5FC
  8
0
  6
CONTINUOUS
 62
     7
 10
-620.212390902372
 20
-98.0749664584766
 30
0.0
 40
3.00000002980232
  1
X
 50
359.999999896069
 41
0.916666604744064
 72
     2
 11
-618.012391033502
 21
-98.0749664624562
 31
0.0
  0
TEXT
  5
   5FD
  8
0
  6
CONTINUOUS
 62
     7
 10
-534.475791933866
 20
-101.021860984958
 30
0.0
 40
3.00000002980232
  1
X
 50
359.999999896069
 41
0.916666604744064
 72
     2
 11
-532.275792064996
 21
-101.021860988938
 31
0.0
  0
LINE
  5
   5FE
  8
0
  6
CONTINUOUS
 62
     7
 10
-370.598040890531
 20
-75.8718376159668
 30
0.0
 11
-370.848025631742
 21
-75.8718376159668
 31
0.0
  0
LINE
  5
   5FF
  8
0
  6
CONTINUOUS
 62
     7
 10
-388.098025631742
 20
-75.8718376159668
 30
0.0
 11
-400.598025631742
 21
-75.8718376159668
 31
0.0
  0
LINE
  5
   600
  8
0
  6
CONTINUOUS
 62
     7
 10
-405.598018002347
 20
-75.8718376159668
 30
0.0
 11
-418.098018002347
 21
-75.8718376159668
 31
0.0
  0
LINE
  5
   601
  8
0
  6
CONTINUOUS
 62
   210
 10
-438.098004650907
 20
-78.1218376159668
 30
0.0
 11
-438.098004650907
 21
-99.8718605041504
 31
0.0
  0
LINE
  5
   602
  8
0
  6
CONTINUOUS
 62
   210
 10
-368.098002743328
 20
-78.1218376202923
 30
0.0
 11
-368.098010372722
 21
-81.3718376203771
 31
0.0
  0
LINE
  5
   603
  8
0
  6
CONTINUOUS
 62
   210
 10
-368.098018002347
 20
-81.3718376159668
 30
0.0
 11
-368.098018002347
 21
-99.8718605041504
 31
0.0
  0
LINE
  5
   604
  8
0
  6
CONTINUOUS
 62
   210
 10
-368.098018002347
 20
-99.8718605041504
 30
0.0
 11
-370.598018425377
 21
-99.8718605041504
 31
0.0
  0
LINE
  5
   605
  8
0
  6
CONTINUOUS
 62
   210
 10
-383.098018345472
 20
-99.8718605041504
 30
0.0
 11
-385.598025631742
 21
-99.8718605041504
 31
0.0
  0
LINE
  5
   606
  8
0
  6
CONTINUOUS
 62
   210
 10
-400.59801825599
 20
-99.8718605041504
 30
0.0
 11
-403.098025631742
 21
-99.8718605041504
 31
0.0
  0
LINE
  5
   607
  8
0
  6
CONTINUOUS
 62
   210
 10
-435.598018166509
 20
-99.8718605041504
 30
0.0
 11
-438.098004650907
 21
-99.8718605041504
 31
0.0
  0
LINE
  5
   608
  8
0
  6
CONTINUOUS
 62
     7
 10
-368.098019909696
 20
-81.3718376159668
 30
0.0
 11
-385.598025631742
 21
-81.3718376159668
 31
0.0
  0
LINE
  5
   609
  8
0
  6
CONTINUOUS
 62
   210
 10
-436.098018002347
 20
-78.1218376159668
 30
0.0
 11
-438.098004650907
 21
-78.1218376159668
 31
0.0
  0
LINE
  5
   60A
  8
0
  6
CONTINUOUS
 62
     7
 10
-400.598025631742
 20
-78.1218376159668
 30
0.0
 11
-405.598018002347
 21
-78.1218376159668
 31
0.0
  0
LINE
  5
   60B
  8
0
  6
CONTINUOUS
 62
     7
 10
-386.848063778714
 20
-78.1218376159668
 30
0.0
 11
-388.098025631742
 21
-78.1218376159668
 31
0.0
  0
LINE
  5
   60C
  8
0
  6
CONTINUOUS
 62
   210
 10
-368.098002743558
 20
-78.1218376159668
 30
0.0
 11
-370.598033261136
 21
-78.1218376159668
 31
0.0
  0
LINE
  5
   60D
  8
0
  6
CONTINUOUS
 62
   210
 10
-435.348025631742
 20
-75.1218376159668
 30
0.0
 11
-437.598065686063
 21
-75.1218376159668
 31
0.0
  0
LINE
  5
   60E
  8
0
  6
CONTINUOUS
 62
   210
 10
-389.223025631742
 20
-90.6218605041504
 30
0.0
 11
-399.473025631742
 21
-90.6218605041504
 31
0.0
  0
LINE
  5
   60F
  8
0
  6
CONTINUOUS
 62
   210
 10
-399.473025631742
 20
-90.6218605041504
 30
0.0
 11
-399.473025631742
 21
-94.3718605041504
 31
0.0
  0
LINE
  5
   610
  8
0
  6
CONTINUOUS
 62
   210
 10
-389.223025631742
 20
-90.6218605041504
 30
0.0
 11
-389.223025631742
 21
-94.3718605041504
 31
0.0
  0
LINE
  5
   611
  8
0
  6
CONTINUOUS
 62
   210
 10
-406.723025631742
 20
-90.6218605041504
 30
0.0
 11
-416.973025631742
 21
-90.6218605041504
 31
0.0
  0
LINE
  5
   612
  8
0
  6
CONTINUOUS
 62
   210
 10
-416.973025631742
 20
-90.6218605041504
 30
0.0
 11
-416.973025631742
 21
-94.3718605041504
 31
0.0
  0
LINE
  5
   613
  8
0
  6
CONTINUOUS
 62
   210
 10
-406.723025631742
 20
-90.6218605041504
 30
0.0
 11
-406.723025631742
 21
-94.3718605041504
 31
0.0
  0
LINE
  5
   614
  8
0
  6
CONTINUOUS
 62
   210
 10
-371.723025631742
 20
-90.6218605041504
 30
0.0
 11
-381.973025631742
 21
-90.6218605041504
 31
0.0
  0
LINE
  5
   615
  8
0
  6
CONTINUOUS
 62
   210
 10
-381.973025631742
 20
-90.6218605041504
 30
0.0
 11
-381.973025631742
 21
-94.3718605041504
 31
0.0
  0
LINE
  5
   616
  8
0
  6
CONTINUOUS
 62
   210
 10
-371.723025631742
 20
-90.6218605041504
 30
0.0
 11
-371.723025631742
 21
-94.3718605041504
 31
0.0
  0
LINE
  5
   617
  8
0
  6
CONTINUOUS
 62
     7
 10
-369.348018002347
 20
-81.3718376159668
 30
0.0
 11
-369.348018002347
 21
-99.8718605041504
 31
0.0
  0
LINE
  5
   618
  8
0
  6
CONTINUOUS
 62
     7
 10
-436.848018002347
 20
-81.3718376159668
 30
0.0
 11
-436.848018002347
 21
-99.8718605041504
 31
0.0
  0
LINE
  5
   619
  8
0
  6
CONTINUOUS
 62
   253
 10
-405.848025631742
 20
-67.8718376159668
 30
0.0
 11
-417.848025631742
 21
-67.8718376159668
 31
0.0
  0
LINE
  5
   61A
  8
0
  6
CONTINUOUS
 62
   253
 10
-370.848025631742
 20
-67.8718376159668
 30
0.0
 11
-382.848025631742
 21
-67.8718376159668
 31
0.0
  0
LINE
  5
   61B
  8
0
  6
CONTINUOUS
 62
   253
 10
-388.848033261136
 20
-67.8718605041504
 30
0.0
 11
-399.848033261136
 21
-67.8718605041504
 31
0.0
  0
LINE
  5
   61C
  8
0
  6
CONTINUOUS
 62
     7
 10
-371.348048519925
 20
-56.7218589782715
 30
0.0
 11
-382.348048519925
 21
-56.7218589782715
 31
0.0
  0
LINE
  5
   61D
  8
0
  6
CONTINUOUS
 62
     7
 10
-381.598048519925
 20
-55.4718589782715
 30
0.0
 11
-382.348048519925
 21
-55.4718589782715
 31
0.0
  0
LINE
  5
   61E
  8
0
  6
CONTINUOUS
 62
     7
 10
-372.169642758207
 20
-55.4718589782715
 30
0.0
 11
-381.526454281644
 21
-55.4718589782715
 31
0.0
  0
LINE
  5
   61F
  8
0
  6
CONTINUOUS
 62
     7
 10
-371.348048519925
 20
-55.4718589782715
 30
0.0
 11
-372.098048519925
 21
-55.4718589782715
 31
0.0
  0
LINE
  5
   620
  8
0
  6
CONTINUOUS
 62
     7
 10
-371.348048519925
 20
-60.9718589782715
 30
0.0
 11
-372.098048519925
 21
-60.9718589782715
 31
0.0
  0
LINE
  5
   621
  8
0
  6
CONTINUOUS
 62
     7
 10
-372.169642758207
 20
-60.9718589782715
 30
0.0
 11
-381.526454281644
 21
-60.9718589782715
 31
0.0
  0
LINE
  5
   622
  8
0
  6
CONTINUOUS
 62
     7
 10
-381.598048519925
 20
-60.9718589782715
 30
0.0
 11
-382.348048519925
 21
-60.9718589782715
 31
0.0
  0
LINE
  5
   623
  8
0
  6
CONTINUOUS
 62
     7
 10
-371.348048519925
 20
-59.7218589782715
 30
0.0
 11
-382.348048519925
 21
-59.7218589782715
 31
0.0
  0
LINE
  5
   624
  8
0
  6
CONTINUOUS
 62
     3
 10
-372.098048519925
 20
-64.4718589782715
 30
0.0
 11
-372.098048519925
 21
-67.4718589782715
 31
0.0
  0
LINE
  5
   625
  8
0
  6
CONTINUOUS
 62
     3
 10
-381.598048519925
 20
-64.4718589782715
 30
0.0
 11
-381.598048519925
 21
-67.4718589782715
 31
0.0
  0
LINE
  5
   626
  8
0
  6
CONTINUOUS
 62
     3
 10
-372.098048519925
 20
-64.4718589782715
 30
0.0
 11
-381.598048519925
 21
-64.4718589782715
 31
0.0
  0
LINE
  5
   627
  8
0
  6
CONTINUOUS
 62
     3
 10
-372.098048519925
 20
-67.4718589782715
 30
0.0
 11
-373.300959896879
 21
-67.4718589782715
 31
0.0
  0
LINE
  5
   628
  8
0
  6
CONTINUOUS
 62
     3
 10
-375.690852475004
 20
-67.4718589782715
 30
0.0
 11
-378.005252194242
 21
-67.4718589782715
 31
0.0
  0
LINE
  5
   629
  8
0
  6
CONTINUOUS
 62
     3
 10
-380.395156216459
 20
-67.4718589782715
 30
0.0
 11
-381.598048519925
 21
-67.4718589782715
 31
0.0
  0
LINE
  5
   62A
  8
0
  6
CONTINUOUS
 62
     3
 10
-372.098048519925
 20
-60.9718589782715
 30
0.0
 11
-372.098048519925
 21
-63.9718589782715
 31
0.0
  0
LINE
  5
   62B
  8
0
  6
CONTINUOUS
 62
     3
 10
-381.598048519925
 20
-60.9718589782715
 30
0.0
 11
-381.598048519925
 21
-63.9718589782715
 31
0.0
  0
LINE
  5
   62C
  8
0
  6
CONTINUOUS
 62
     3
 10
-381.526454281644
 20
-60.9718589782715
 30
0.0
 11
-381.598048519925
 21
-60.9718589782715
 31
0.0
  0
LINE
  5
   62D
  8
0
  6
CONTINUOUS
 62
     3
 10
-372.098048519925
 20
-60.9718589782715
 30
0.0
 11
-372.169646572904
 21
-60.9718589782715
 31
0.0
  0
LINE
  5
   62E
  8
0
  6
CONTINUOUS
 62
     3
 10
-372.098048519925
 20
-63.9718589782715
 30
0.0
 11
-381.598048519925
 21
-63.9718589782715
 31
0.0
  0
LINE
  5
   62F
  8
0
  6
CONTINUOUS
 62
     3
 10
-372.098048519925
 20
-52.4718589782715
 30
0.0
 11
-372.098048519925
 21
-55.4718589782715
 31
0.0
  0
LINE
  5
   630
  8
0
  6
CONTINUOUS
 62
     3
 10
-381.598048519925
 20
-52.4718589782715
 30
0.0
 11
-381.598048519925
 21
-55.4718589782715
 31
0.0
  0
LINE
  5
   631
  8
0
  6
CONTINUOUS
 62
     3
 10
-372.098048519925
 20
-55.4718589782715
 30
0.0
 11
-372.169646572904
 21
-55.4718589782715
 31
0.0
  0
LINE
  5
   632
  8
0
  6
CONTINUOUS
 62
     3
 10
-381.526454281644
 20
-55.4718589782715
 30
0.0
 11
-381.598048519925
 21
-55.4718589782715
 31
0.0
  0
LINE
  5
   633
  8
0
  6
CONTINUOUS
 62
     3
 10
-372.098048519925
 20
-52.4718589782715
 30
0.0
 11
-381.598048519925
 21
-52.4718589782715
 31
0.0
  0
LINE
  5
   634
  8
0
  6
CONTINUOUS
 62
     7
 10
-381.598048519925
 20
-67.4718589782715
 30
0.0
 11
-381.848048519925
 21
-67.4718589782715
 31
0.0
  0
LINE
  5
   635
  8
0
  6
CONTINUOUS
 62
     7
 10
-378.005259823636
 20
-67.4718589782715
 30
0.0
 11
-380.395144772367
 21
-67.4718589782715
 31
0.0
  0
LINE
  5
   636
  8
0
  6
CONTINUOUS
 62
     7
 10
-373.300944638089
 20
-67.4718589782715
 30
0.0
 11
-375.690844845609
 21
-67.4718589782715
 31
0.0
  0
LINE
  5
   637
  8
0
  6
CONTINUOUS
 62
     7
 10
-371.848048519925
 20
-67.4718589782715
 30
0.0
 11
-372.098048519925
 21
-67.4718589782715
 31
0.0
  0
LINE
  5
   638
  8
0
  6
CONTINUOUS
 62
   212
 10
-374.848033261136
 20
-51.1218605041504
 30
0.0
 11
-378.848033261136
 21
-51.1218605041504
 31
0.0
  0
LINE
  5
   639
  8
0
  6
CONTINUOUS
 62
   212
 10
-398.598033261136
 20
-91.6218605041504
 30
0.0
 11
-398.598033261136
 21
-91.8718605041504
 31
0.0
  0
LINE
  5
   63A
  8
0
  6
CONTINUOUS
 62
   212
 10
-390.098033261136
 20
-91.6218605041504
 30
0.0
 11
-390.098033261136
 21
-91.8718605041504
 31
0.0
  0
LINE
  5
   63B
  8
0
  6
CONTINUOUS
 62
   212
 10
-392.598033261136
 20
-91.6218605041504
 30
0.0
 11
-392.598033261136
 21
-91.8718605041504
 31
0.0
  0
LINE
  5
   63C
  8
0
  6
CONTINUOUS
 62
   212
 10
-396.098033261136
 20
-91.6218605041504
 30
0.0
 11
-396.098033261136
 21
-91.8718605041504
 31
0.0
  0
LINE
  5
   63D
  8
0
  6
CONTINUOUS
 62
   212
 10
-381.098033261136
 20
-91.6218605041504
 30
0.0
 11
-381.098033261136
 21
-91.8718605041504
 31
0.0
  0
LINE
  5
   63E
  8
0
  6
CONTINUOUS
 62
   212
 10
-372.598033261136
 20
-91.6218605041504
 30
0.0
 11
-372.598033261136
 21
-91.8718605041504
 31
0.0
  0
LINE
  5
   63F
  8
0
  6
CONTINUOUS
 62
   212
 10
-378.598033261136
 20
-91.6218605041504
 30
0.0
 11
-378.598033261136
 21
-91.8718605041504
 31
0.0
  0
LINE
  5
   640
  8
0
  6
CONTINUOUS
 62
   212
 10
-375.098033261136
 20
-91.6218605041504
 30
0.0
 11
-375.098033261136
 21
-91.8718605041504
 31
0.0
  0
LINE
  5
   641
  8
0
  6
CONTINUOUS
 62
   212
 10
-416.098033261136
 20
-91.6218605041504
 30
0.0
 11
-416.098033261136
 21
-91.8718605041504
 31
0.0
  0
LINE
  5
   642
  8
0
  6
CONTINUOUS
 62
   212
 10
-407.598033261136
 20
-91.6218605041504
 30
0.0
 11
-407.598033261136
 21
-91.8718605041504
 31
0.0
  0
LINE
  5
   643
  8
0
  6
CONTINUOUS
 62
   212
 10
-413.598033261136
 20
-91.6218605041504
 30
0.0
 11
-413.598033261136
 21
-91.8718605041504
 31
0.0
  0
LINE
  5
   644
  8
0
  6
CONTINUOUS
 62
   212
 10
-410.098033261136
 20
-91.6218605041504
 30
0.0
 11
-410.098033261136
 21
-91.8718605041504
 31
0.0
  0
LINE
  5
   645
  8
0
  6
CONTINUOUS
 62
   210
 10
-400.598029446439
 20
-76.1218376159668
 30
0.0
 11
-405.598021817045
 21
-76.1218376159668
 31
0.0
  0
LINE
  5
   646
  8
0
  6
CONTINUOUS
 62
     3
 10
-400.348033261136
 20
-75.3718376159668
 30
0.0
 11
-405.848025631742
 21
-75.3718376159668
 31
0.0
  0
LINE
  5
   647
  8
0
  6
CONTINUOUS
 62
     3
 10
-382.848025631742
 20
-75.3718376159668
 30
0.0
 11
-388.348033261136
 21
-75.3718376159668
 31
0.0
  0
LINE
  5
   648
  8
0
  6
CONTINUOUS
 62
   253
 10
-399.848033261136
 20
-67.8718376159668
 30
0.0
 11
-400.348025631742
 21
-67.8718376159668
 31
0.0
  0
LINE
  5
   649
  8
0
  6
CONTINUOUS
 62
   253
 10
-388.348025631742
 20
-67.8718376159668
 30
0.0
 11
-388.848033261136
 21
-67.8718376159668
 31
0.0
  0
LINE
  5
   64A
  8
0
  6
CONTINUOUS
 62
     7
 10
-388.848033261136
 20
-34.9718589782715
 30
0.0
 11
-389.598033261136
 21
-34.9718589782715
 31
0.0
  0
LINE
  5
   64B
  8
0
  6
CONTINUOUS
 62
     7
 10
-389.669627499418
 20
-34.9718589782715
 30
0.0
 11
-399.026442837552
 21
-34.9718589782715
 31
0.0
  0
LINE
  5
   64C
  8
0
  6
CONTINUOUS
 62
     7
 10
-399.098033261136
 20
-34.9718589782715
 30
0.0
 11
-399.848033261136
 21
-34.9718589782715
 31
0.0
  0
LINE
  5
   64D
  8
0
  6
CONTINUOUS
 62
     7
 10
-388.848033261136
 20
-33.7218589782715
 30
0.0
 11
-399.848033261136
 21
-33.7218589782715
 31
0.0
  0
LINE
  5
   64E
  8
0
  6
CONTINUOUS
 62
     7
 10
-388.848033261136
 20
-30.7218589782715
 30
0.0
 11
-399.848033261136
 21
-30.7218589782715
 31
0.0
  0
LINE
  5
   64F
  8
0
  6
CONTINUOUS
 62
     7
 10
-399.098033261136
 20
-29.4718589782715
 30
0.0
 11
-399.848033261136
 21
-29.4718589782715
 31
0.0
  0
LINE
  5
   650
  8
0
  6
CONTINUOUS
 62
     7
 10
-389.669627499418
 20
-29.4718589782715
 30
0.0
 11
-399.026442837552
 21
-29.4718589782715
 31
0.0
  0
LINE
  5
   651
  8
0
  6
CONTINUOUS
 62
     7
 10
-388.848033261136
 20
-29.4718589782715
 30
0.0
 11
-389.598033261136
 21
-29.4718589782715
 31
0.0
  0
LINE
  5
   652
  8
0
  6
CONTINUOUS
 62
     3
 10
-399.098033261136
 20
-38.4718589782715
 30
0.0
 11
-399.098033261136
 21
-41.4718589782715
 31
0.0
  0
LINE
  5
   653
  8
0
  6
CONTINUOUS
 62
     3
 10
-389.598033261136
 20
-38.4718589782715
 30
0.0
 11
-389.598033261136
 21
-41.4718589782715
 31
0.0
  0
LINE
  5
   654
  8
0
  6
CONTINUOUS
 62
     3
 10
-389.598033261136
 20
-38.4718589782715
 30
0.0
 11
-399.098033261136
 21
-38.4718589782715
 31
0.0
  0
LINE
  5
   655
  8
0
  6
CONTINUOUS
 62
     3
 10
-389.598033261136
 20
-41.4718589782715
 30
0.0
 11
-390.800933193998
 21
-41.4718589782715
 31
0.0
  0
LINE
  5
   656
  8
0
  6
CONTINUOUS
 62
     3
 10
-393.19082958682
 20
-41.4718589782715
 30
0.0
 11
-395.505233120755
 21
-41.4718589782715
 31
0.0
  0
LINE
  5
   657
  8
0
  6
CONTINUOUS
 62
     3
 10
-397.89514095767
 20
-41.4718589782715
 30
0.0
 11
-399.098033261136
 21
-41.4718589782715
 31
0.0
  0
LINE
  5
   658
  8
0
  6
CONTINUOUS
 62
     3
 10
-399.098033261136
 20
-34.9718589782715
 30
0.0
 11
-399.098033261136
 21
-37.9718589782715
 31
0.0
  0
LINE
  5
   659
  8
0
  6
CONTINUOUS
 62
     3
 10
-389.598033261136
 20
-34.9718589782715
 30
0.0
 11
-389.598033261136
 21
-37.9718589782715
 31
0.0
  0
LINE
  5
   65A
  8
0
  6
CONTINUOUS
 62
     3
 10
-399.026442837552
 20
-34.9718589782715
 30
0.0
 11
-399.098033261136
 21
-34.9718589782715
 31
0.0
  0
LINE
  5
   65B
  8
0
  6
CONTINUOUS
 62
     3
 10
-389.598033261136
 20
-34.9718589782715
 30
0.0
 11
-389.669631314115
 21
-34.9718589782715
 31
0.0
  0
LINE
  5
   65C
  8
0
  6
CONTINUOUS
 62
     3
 10
-389.598033261136
 20
-37.9718589782715
 30
0.0
 11
-399.098033261136
 21
-37.9718589782715
 31
0.0
  0
LINE
  5
   65D
  8
0
  6
CONTINUOUS
 62
     3
 10
-399.098033261136
 20
-26.4718589782715
 30
0.0
 11
-399.098033261136
 21
-29.4718589782715
 31
0.0
  0
LINE
  5
   65E
  8
0
  6
CONTINUOUS
 62
     3
 10
-389.598033261136
 20
-26.4718589782715
 30
0.0
 11
-389.598033261136
 21
-29.4718589782715
 31
0.0
  0
LINE
  5
   65F
  8
0
  6
CONTINUOUS
 62
     3
 10
-389.598033261136
 20
-29.4718589782715
 30
0.0
 11
-389.669631314115
 21
-29.4718589782715
 31
0.0
  0
LINE
  5
   660
  8
0
  6
CONTINUOUS
 62
     3
 10
-399.026442837552
 20
-29.4718589782715
 30
0.0
 11
-399.098033261136
 21
-29.4718589782715
 31
0.0
  0
LINE
  5
   661
  8
0
  6
CONTINUOUS
 62
     3
 10
-389.598033261136
 20
-26.4718589782715
 30
0.0
 11
-399.098033261136
 21
-26.4718589782715
 31
0.0
  0
LINE
  5
   662
  8
0
  6
CONTINUOUS
 62
     7
 10
-389.348033261136
 20
-41.8718605041504
 30
0.0
 11
-399.348033261136
 21
-41.8718605041504
 31
0.0
  0
LINE
  5
   663
  8
0
  6
CONTINUOUS
 62
     7
 10
-399.098033261136
 20
-41.4718589782715
 30
0.0
 11
-399.348033261136
 21
-41.4718589782715
 31
0.0
  0
LINE
  5
   664
  8
0
  6
CONTINUOUS
 62
     7
 10
-395.505236935453
 20
-41.4718589782715
 30
0.0
 11
-397.895144772367
 21
-41.4718589782715
 31
0.0
  0
LINE
  5
   665
  8
0
  6
CONTINUOUS
 62
     7
 10
-390.800937008695
 20
-41.4718589782715
 30
0.0
 11
-393.190833401517
 21
-41.4718589782715
 31
0.0
  0
LINE
  5
   666
  8
0
  6
CONTINUOUS
 62
     7
 10
-389.348033261136
 20
-41.4718589782715
 30
0.0
 11
-389.598033261136
 21
-41.4718589782715
 31
0.0
  0
LINE
  5
   667
  8
0
  6
CONTINUOUS
 62
   212
 10
-392.348033261136
 20
-25.1218605041504
 30
0.0
 11
-396.348033261136
 21
-25.1218605041504
 31
0.0
  0
LINE
  5
   668
  8
0
  6
CONTINUOUS
 62
     7
 10
-383.098040890531
 20
-78.1218376159668
 30
0.0
 11
-383.098040890531
 21
-81.3718376159668
 31
0.0
  0
LINE
  5
   669
  8
0
  6
CONTINUOUS
 62
     7
 10
-370.598040890531
 20
-78.1218452453613
 30
0.0
 11
-370.598040890531
 21
-81.3718376159668
 31
0.0
  0
LINE
  5
   66A
  8
0
  6
CONTINUOUS
 62
     7
 10
-400.598025631742
 20
-78.1218376159668
 30
0.0
 11
-400.598025631742
 21
-81.3718376159668
 31
0.0
  0
LINE
  5
   66B
  8
0
  6
CONTINUOUS
 62
     7
 10
-388.098025631742
 20
-78.1218376159668
 30
0.0
 11
-388.098025631742
 21
-81.3718376159668
 31
0.0
  0
LINE
  5
   66C
  8
0
  6
CONTINUOUS
 62
     7
 10
-435.598018002347
 20
-75.8718376159668
 30
0.0
 11
-435.598018002347
 21
-81.3718376159668
 31
0.0
  0
LINE
  5
   66D
  8
0
  6
CONTINUOUS
 62
     7
 10
-405.598018002347
 20
-78.1218376159668
 30
0.0
 11
-405.598018002347
 21
-81.3718376159668
 31
0.0
  0
LINE
  5
   66E
  8
0
  6
CONTINUOUS
 62
     7
 10
-436.098018002347
 20
-78.1218376159668
 30
0.0
 11
-436.098018002347
 21
-81.3718376159668
 31
0.0
  0
LINE
  5
   66F
  8
0
  6
CONTINUOUS
 62
     7
 10
-369.848018002347
 20
-81.3718376159668
 30
0.0
 11
-369.848018002347
 21
-99.8718605041504
 31
0.0
  0
LINE
  5
   670
  8
0
  6
CONTINUOUS
 62
     7
 10
-436.348018002347
 20
-81.3718376159668
 30
0.0
 11
-436.348018002347
 21
-99.8718605041504
 31
0.0
  0
LINE
  5
   671
  8
0
  6
CONTINUOUS
 62
   253
 10
-405.848025631742
 20
-67.8718376159668
 30
0.0
 11
-405.848025631742
 21
-75.8718376159668
 31
0.0
  0
LINE
  5
   672
  8
0
  6
CONTINUOUS
 62
   253
 10
-417.848025631742
 20
-67.8718376159668
 30
0.0
 11
-417.848025631742
 21
-75.8718376159668
 31
0.0
  0
LINE
  5
   673
  8
0
  6
CONTINUOUS
 62
   253
 10
-370.848025631742
 20
-67.8718376159668
 30
0.0
 11
-370.848025631742
 21
-75.8718376159668
 31
0.0
  0
LINE
  5
   674
  8
0
  6
CONTINUOUS
 62
   253
 10
-382.848025631742
 20
-67.8718376159668
 30
0.0
 11
-382.848025631742
 21
-75.8718376159668
 31
0.0
  0
LINE
  5
   675
  8
0
  6
CONTINUOUS
 62
   253
 10
-388.348033261136
 20
-68.3718605041504
 30
0.0
 11
-388.348033261136
 21
-75.8718605041504
 31
0.0
  0
LINE
  5
   676
  8
0
  6
CONTINUOUS
 62
   253
 10
-400.348033261136
 20
-68.3718605041504
 30
0.0
 11
-400.348033261136
 21
-75.8718605041504
 31
0.0
  0
LINE
  5
   677
  8
0
  6
CONTINUOUS
 62
   253
 10
-388.348034178952
 20
-68.3718620921905
 30
0.0
 11
-388.848034161838
 21
-67.8718621093048
 31
0.0
  0
LINE
  5
   678
  8
0
  6
CONTINUOUS
 62
   253
 10
-399.848035308494
 20
-67.8718630919912
 30
0.0
 11
-400.34803529138
 21
-68.3718630748769
 31
0.0
  0
LINE
  5
   679
  8
0
  6
CONTINUOUS
 62
     7
 10
-371.348048519925
 20
-55.4718589782715
 30
0.0
 11
-371.348048519925
 21
-56.7218589782715
 31
0.0
  0
LINE
  5
   67A
  8
0
  6
CONTINUOUS
 62
     7
 10
-382.348048519925
 20
-55.4718589782715
 30
0.0
 11
-382.348048519925
 21
-56.7218589782715
 31
0.0
  0
LINE
  5
   67B
  8
0
  6
CONTINUOUS
 62
     7
 10
-371.348048519925
 20
-59.7218589782715
 30
0.0
 11
-371.348048519925
 21
-60.9718589782715
 31
0.0
  0
LINE
  5
   67C
  8
0
  6
CONTINUOUS
 62
     7
 10
-382.348048519925
 20
-59.7218589782715
 30
0.0
 11
-382.348048519925
 21
-60.9718589782715
 31
0.0
  0
LINE
  5
   67D
  8
0
  6
CONTINUOUS
 62
     3
 10
-394.348048519925
 20
-64.4718589782715
 30
0.0
 11
-394.348048519925
 21
-67.4718589782715
 31
0.0
  0
LINE
  5
   67E
  8
0
  6
CONTINUOUS
 62
     3
 10
-394.348048519925
 20
-60.9718589782715
 30
0.0
 11
-394.348048519925
 21
-63.9718589782715
 31
0.0
  0
LINE
  5
   67F
  8
0
  6
CONTINUOUS
 62
     3
 10
-394.348048519925
 20
-52.4718589782715
 30
0.0
 11
-394.348048519925
 21
-55.4718589782715
 31
0.0
  0
LINE
  5
   680
  8
0
  6
CONTINUOUS
 62
     7
 10
-371.848048519925
 20
-67.4718589782715
 30
0.0
 11
-371.848048519925
 21
-67.8718605041504
 31
0.0
  0
LINE
  5
   681
  8
0
  6
CONTINUOUS
 62
     7
 10
-381.848048519925
 20
-67.4718589782715
 30
0.0
 11
-381.848048519925
 21
-67.8718605041504
 31
0.0
  0
LINE
  5
   682
  8
0
  6
CONTINUOUS
 62
   212
 10
-373.848033962885
 20
-52.1218625350222
 30
0.0
 11
-374.848033928656
 21
-51.1218625692508
 31
0.0
  0
LINE
  5
   683
  8
0
  6
CONTINUOUS
 62
   212
 10
-378.848035541676
 20
-51.1218635519372
 30
0.0
 11
-379.848035507447
 21
-52.1218635177087
 31
0.0
  0
LINE
  5
   684
  8
0
  6
CONTINUOUS
 62
   212
 10
-373.848033261136
 20
-52.1218605041504
 30
0.0
 11
-373.848033261136
 21
-52.4718589782715
 31
0.0
  0
LINE
  5
   685
  8
0
  6
CONTINUOUS
 62
   212
 10
-373.848033261136
 20
-56.7218589782715
 30
0.0
 11
-373.848033261136
 21
-59.7218589782715
 31
0.0
  0
LINE
  5
   686
  8
0
  6
CONTINUOUS
 62
   212
 10
-373.848033261136
 20
-63.9718589782715
 30
0.0
 11
-373.848033261136
 21
-64.4718589782715
 31
0.0
  0
LINE
  5
   687
  8
0
  6
CONTINUOUS
 62
   212
 10
-373.848033261136
 20
-52.1218605041504
 30
0.0
 11
-379.848033261136
 21
-52.1218605041504
 31
0.0
  0
LINE
  5
   688
  8
0
  6
CONTINUOUS
 62
   212
 10
-379.848033261136
 20
-52.1218605041504
 30
0.0
 11
-379.848033261136
 21
-52.4718589782715
 31
0.0
  0
LINE
  5
   689
  8
0
  6
CONTINUOUS
 62
   212
 10
-379.848033261136
 20
-56.7218589782715
 30
0.0
 11
-379.848033261136
 21
-59.7218589782715
 31
0.0
  0
LINE
  5
   68A
  8
0
  6
CONTINUOUS
 62
   212
 10
-379.848033261136
 20
-63.9718589782715
 30
0.0
 11
-379.848033261136
 21
-64.4718589782715
 31
0.0
  0
LINE
  5
   68B
  8
0
  6
CONTINUOUS
 62
   253
 10
-388.348025631742
 20
-67.8718376159668
 30
0.0
 11
-388.348025631742
 21
-68.3718605041504
 31
0.0
  0
LINE
  5
   68C
  8
0
  6
CONTINUOUS
 62
   253
 10
-400.348025631742
 20
-67.8718376159668
 30
0.0
 11
-400.348025631742
 21
-68.3718605041504
 31
0.0
  0
LINE
  5
   68D
  8
0
  6
CONTINUOUS
 62
   253
 10
-389.348025631742
 20
-42.3718376159668
 30
0.0
 11
-389.348025631742
 21
-67.8718605041504
 31
0.0
  0
LINE
  5
   68E
  8
0
  6
CONTINUOUS
 62
   253
 10
-399.348025631742
 20
-42.3718376159668
 30
0.0
 11
-399.348025631742
 21
-67.8718605041504
 31
0.0
  0
LINE
  5
   68F
  8
0
  6
CONTINUOUS
 62
   253
 10
-389.348025225208
 20
-42.3718354004245
 30
0.0
 11
-389.494475262725
 21
-42.0182816250139
 31
0.0
  0
LINE
  5
   690
  8
0
  6
CONTINUOUS
 62
   253
 10
-389.494477212232
 20
-42.0182859143915
 30
0.0
 11
-389.848027165043
 21
-41.8718396861158
 31
0.0
  0
LINE
  5
   691
  8
0
  6
CONTINUOUS
 62
   253
 10
-399.201578330336
 20
-42.0182814441349
 30
0.0
 11
-399.348024558619
 21
-42.3718352161695
 31
0.0
  0
LINE
  5
   692
  8
0
  6
CONTINUOUS
 62
   253
 10
-398.848024150967
 20
-41.8718360495119
 30
0.0
 11
-399.201577923002
 21
-42.018282277795
 31
0.0
  0
LINE
  5
   693
  8
0
  6
CONTINUOUS
 62
     7
 10
-399.848033261136
 20
-33.7218589782715
 30
0.0
 11
-399.848033261136
 21
-34.9718589782715
 31
0.0
  0
LINE
  5
   694
  8
0
  6
CONTINUOUS
 62
     7
 10
-388.848033261136
 20
-33.7218589782715
 30
0.0
 11
-388.848033261136
 21
-34.9718589782715
 31
0.0
  0
LINE
  5
   695
  8
0
  6
CONTINUOUS
 62
     7
 10
-399.848033261136
 20
-29.4718589782715
 30
0.0
 11
-399.848033261136
 21
-30.7218589782715
 31
0.0
  0
LINE
  5
   696
  8
0
  6
CONTINUOUS
 62
     7
 10
-388.848033261136
 20
-29.4718589782715
 30
0.0
 11
-388.848033261136
 21
-30.7218589782715
 31
0.0
  0
LINE
  5
   697
  8
0
  6
CONTINUOUS
 62
     3
 10
-394.348033261136
 20
-38.4718589782715
 30
0.0
 11
-394.348033261136
 21
-41.4718589782715
 31
0.0
  0
LINE
  5
   698
  8
0
  6
CONTINUOUS
 62
     3
 10
-394.348033261136
 20
-34.9718589782715
 30
0.0
 11
-394.348033261136
 21
-37.9718589782715
 31
0.0
  0
LINE
  5
   699
  8
0
  6
CONTINUOUS
 62
     3
 10
-394.348033261136
 20
-26.4718589782715
 30
0.0
 11
-394.348033261136
 21
-29.4718589782715
 31
0.0
  0
LINE
  5
   69A
  8
0
  6
CONTINUOUS
 62
     7
 10
-399.348033261136
 20
-41.4718589782715
 30
0.0
 11
-399.348033261136
 21
-41.8718605041504
 31
0.0
  0
LINE
  5
   69B
  8
0
  6
CONTINUOUS
 62
     7
 10
-389.348033261136
 20
-41.4718589782715
 30
0.0
 11
-389.348033261136
 21
-41.8718605041504
 31
0.0
  0
LINE
  5
   69C
  8
0
  6
CONTINUOUS
 62
   212
 10
-396.348035764161
 20
-25.1218642193938
 30
0.0
 11
-397.348035729933
 21
-26.1218641851652
 31
0.0
  0
LINE
  5
   69D
  8
0
  6
CONTINUOUS
 62
   212
 10
-391.348033740399
 20
-26.1218632024788
 30
0.0
 11
-392.348033706171
 21
-25.1218632367073
 31
0.0
  0
LINE
  5
   69E
  8
0
  6
CONTINUOUS
 62
   212
 10
-397.348033261136
 20
-26.1218605041504
 30
0.0
 11
-397.348033261136
 21
-26.4718589782715
 31
0.0
  0
LINE
  5
   69F
  8
0
  6
CONTINUOUS
 62
   212
 10
-397.348033261136
 20
-30.7218589782715
 30
0.0
 11
-397.348033261136
 21
-33.7218589782715
 31
0.0
  0
LINE
  5
   6A0
  8
0
  6
CONTINUOUS
 62
   212
 10
-397.348033261136
 20
-37.9718589782715
 30
0.0
 11
-397.348033261136
 21
-38.4718589782715
 31
0.0
  0
LINE
  5
   6A1
  8
0
  6
CONTINUOUS
 62
   212
 10
-391.348033261136
 20
-26.1218605041504
 30
0.0
 11
-397.348033261136
 21
-26.1218605041504
 31
0.0
  0
LINE
  5
   6A2
  8
0
  6
CONTINUOUS
 62
   212
 10
-391.348033261136
 20
-26.1218605041504
 30
0.0
 11
-391.348033261136
 21
-26.4718589782715
 31
0.0
  0
LINE
  5
   6A3
  8
0
  6
CONTINUOUS
 62
   212
 10
-391.348033261136
 20
-30.7218589782715
 30
0.0
 11
-391.348033261136
 21
-33.7218589782715
 31
0.0
  0
LINE
  5
   6A4
  8
0
  6
CONTINUOUS
 62
   212
 10
-391.348033261136
 20
-37.9718589782715
 30
0.0
 11
-391.348033261136
 21
-38.4718589782715
 31
0.0
  0
LINE
  5
   6A5
  8
0
  6
CONTINUOUS
 62
     7
 10
-385.598025631742
 20
-81.3718376159668
 30
0.0
 11
-403.098025631742
 21
-81.3718376159668
 31
0.0
  0
LINE
  5
   6A6
  8
0
  6
CONTINUOUS
 62
     7
 10
-403.098025631742
 20
-81.3718376159668
 30
0.0
 11
-420.598004650907
 21
-81.3718376159668
 31
0.0
  0
LINE
  5
   6A7
  8
0
  6
CONTINUOUS
 62
   210
 10
-403.098025631742
 20
-99.8718605041504
 30
0.0
 11
-405.598018246415
 21
-99.8718605041504
 31
0.0
  0
LINE
  5
   6A8
  8
0
  6
CONTINUOUS
 62
   210
 10
-385.598025631742
 20
-99.8718605041504
 30
0.0
 11
-388.098018335896
 21
-99.8718605041504
 31
0.0
  0
LINE
  5
   6A9
  8
0
  6
CONTINUOUS
 62
     7
 10
-383.098040890531
 20
-76.1218452453613
 30
0.0
 11
-383.098040890531
 21
-78.1218376159668
 31
0.0
  0
LINE
  5
   6AA
  8
0
  6
CONTINUOUS
 62
     7
 10
-388.098025631742
 20
-76.1218452453613
 30
0.0
 11
-388.098025631742
 21
-78.1218376159668
 31
0.0
  0
LINE
  5
   6AB
  8
0
  6
CONTINUOUS
 62
     7
 10
-400.598025631742
 20
-76.1218376159668
 30
0.0
 11
-400.598025631742
 21
-78.1218376159668
 31
0.0
  0
LINE
  5
   6AC
  8
0
  6
CONTINUOUS
 62
     7
 10
-405.598018002347
 20
-76.1218376159668
 30
0.0
 11
-405.598018002347
 21
-78.1218376159668
 31
0.0
  0
LINE
  5
   6AD
  8
0
  6
CONTINUOUS
 62
   210
 10
-436.098018002347
 20
-75.1218376159668
 30
0.0
 11
-436.098018002347
 21
-78.1218376159668
 31
0.0
  0
LINE
  5
   6AE
  8
0
  6
CONTINUOUS
 62
     2
 10
-398.973033261136
 20
-91.8718605041504
 30
0.0
 11
-398.973033261136
 21
-94.3718605041504
 31
0.0
  0
LINE
  5
   6AF
  8
0
  6
CONTINUOUS
 62
     2
 10
-389.723033261136
 20
-91.8718605041504
 30
0.0
 11
-389.723033261136
 21
-94.3718605041504
 31
0.0
  0
LINE
  5
   6B0
  8
0
  6
CONTINUOUS
 62
     2
 10
-389.723033261136
 20
-91.8718605041504
 30
0.0
 11
-398.973033261136
 21
-91.8718605041504
 31
0.0
  0
LINE
  5
   6B1
  8
0
  6
CONTINUOUS
 62
     2
 10
-398.973022688395
 20
-94.3718605041201
 30
0.0
 11
-398.973022688395
 21
-99.3718605041201
 31
0.0
  0
LINE
  5
   6B2
  8
0
  6
CONTINUOUS
 62
     2
 10
-389.723022688397
 20
-94.3718605041172
 30
0.0
 11
-389.723022688397
 21
-99.3718605041172
 31
0.0
  0
LINE
  5
   6B3
  8
0
  6
CONTINUOUS
 62
     2
 10
-398.973021817045
 20
-94.3718605041504
 30
0.0
 11
-400.848018002347
 21
-94.3718605041504
 31
0.0
  0
LINE
  5
   6B4
  8
0
  6
CONTINUOUS
 62
     2
 10
-387.848018002347
 20
-94.3718605041504
 30
0.0
 11
-389.723018002347
 21
-94.3718605041504
 31
0.0
  0
LINE
  5
   6B5
  8
0
  6
CONTINUOUS
 62
     2
 10
-387.848018002347
 20
-99.8718605041504
 30
0.0
 11
-389.348018002347
 21
-99.8718605041504
 31
0.0
  0
LINE
  5
   6B6
  8
0
  6
CONTINUOUS
 62
     2
 10
-399.348018002347
 20
-99.8718605041504
 30
0.0
 11
-400.848018002347
 21
-99.8718605041504
 31
0.0
  0
LINE
  5
   6B7
  8
0
  6
CONTINUOUS
 62
     2
 10
-399.348018002347
 20
-99.3718605041504
 30
0.0
 11
-399.348018002347
 21
-99.8718605041504
 31
0.0
  0
LINE
  5
   6B8
  8
0
  6
CONTINUOUS
 62
     2
 10
-389.348018002347
 20
-99.3718605041504
 30
0.0
 11
-389.348018002347
 21
-99.8718605041504
 31
0.0
  0
LINE
  5
   6B9
  8
0
  6
CONTINUOUS
 62
     2
 10
-389.348018002347
 20
-99.8718605041504
 30
0.0
 11
-399.348018002347
 21
-99.8718605041504
 31
0.0
  0
LINE
  5
   6BA
  8
0
  6
CONTINUOUS
 62
     2
 10
-389.348018002347
 20
-99.3718605041504
 30
0.0
 11
-389.723033261136
 21
-99.3718605041504
 31
0.0
  0
LINE
  5
   6BB
  8
0
  6
CONTINUOUS
 62
     2
 10
-398.973033261136
 20
-99.3718605041504
 30
0.0
 11
-399.348018002347
 21
-99.3718605041504
 31
0.0
  0
LINE
  5
   6BC
  8
0
  6
CONTINUOUS
 62
     2
 10
-398.973033261136
 20
-96.2378845214844
 30
0.0
 11
-399.473010372953
 21
-96.2378845214844
 31
0.0
  0
LINE
  5
   6BD
  8
0
  6
CONTINUOUS
 62
     2
 10
-398.973022662131
 20
-94.3718620357604
 30
0.0
 11
-399.473011235881
 21
-96.2378860053488
 31
0.0
  0
LINE
  5
   6BE
  8
0
  6
CONTINUOUS
 62
     2
 10
-389.223006558256
 20
-96.2378845214844
 30
0.0
 11
-389.723006558255
 21
-96.2378845214844
 31
0.0
  0
LINE
  5
   6BF
  8
0
  6
CONTINUOUS
 62
     2
 10
-389.223008523865
 20
-96.2378878972737
 30
0.0
 11
-389.72301994254
 21
-94.3718639276818
 31
0.0
  0
LINE
  5
   6C0
  8
0
  6
CONTINUOUS
 62
     2
 10
-381.473033261136
 20
-91.8718605041504
 30
0.0
 11
-381.473033261136
 21
-94.3718605041504
 31
0.0
  0
LINE
  5
   6C1
  8
0
  6
CONTINUOUS
 62
     2
 10
-372.223033261136
 20
-91.8718605041504
 30
0.0
 11
-372.223033261136
 21
-94.3718605041504
 31
0.0
  0
LINE
  5
   6C2
  8
0
  6
CONTINUOUS
 62
     2
 10
-372.223033261136
 20
-91.8718605041504
 30
0.0
 11
-381.473033261136
 21
-91.8718605041504
 31
0.0
  0
LINE
  5
   6C3
  8
0
  6
CONTINUOUS
 62
     2
 10
-381.473033261136
 20
-94.3718605041504
 30
0.0
 11
-381.473033261136
 21
-99.3718605041504
 31
0.0
  0
LINE
  5
   6C4
  8
0
  6
CONTINUOUS
 62
     2
 10
-372.223033261136
 20
-94.3718605041504
 30
0.0
 11
-372.223033261136
 21
-99.3718605041504
 31
0.0
  0
LINE
  5
   6C5
  8
0
  6
CONTINUOUS
 62
     2
 10
-381.473018002347
 20
-94.3718605041504
 30
0.0
 11
-383.348018002347
 21
-94.3718605041504
 31
0.0
  0
LINE
  5
   6C6
  8
0
  6
CONTINUOUS
 62
     2
 10
-370.348018002347
 20
-94.3718605041504
 30
0.0
 11
-372.223018002347
 21
-94.3718605041504
 31
0.0
  0
LINE
  5
   6C7
  8
0
  6
CONTINUOUS
 62
     2
 10
-370.348018002347
 20
-99.8718605041504
 30
0.0
 11
-371.848018002347
 21
-99.8718605041504
 31
0.0
  0
LINE
  5
   6C8
  8
0
  6
CONTINUOUS
 62
     2
 10
-381.848018002347
 20
-99.8718605041504
 30
0.0
 11
-383.348018002347
 21
-99.8718605041504
 31
0.0
  0
LINE
  5
   6C9
  8
0
  6
CONTINUOUS
 62
     2
 10
-381.848018002347
 20
-99.3718605041504
 30
0.0
 11
-381.848018002347
 21
-99.8718605041504
 31
0.0
  0
LINE
  5
   6CA
  8
0
  6
CONTINUOUS
 62
     2
 10
-371.848018002347
 20
-99.3718605041504
 30
0.0
 11
-371.848018002347
 21
-99.8718605041504
 31
0.0
  0
LINE
  5
   6CB
  8
0
  6
CONTINUOUS
 62
     2
 10
-371.848018002347
 20
-99.8718605041504
 30
0.0
 11
-381.848018002347
 21
-99.8718605041504
 31
0.0
  0
LINE
  5
   6CC
  8
0
  6
CONTINUOUS
 62
     2
 10
-371.848018002347
 20
-99.3718605041504
 30
0.0
 11
-372.223033261136
 21
-99.3718605041504
 31
0.0
  0
LINE
  5
   6CD
  8
0
  6
CONTINUOUS
 62
     2
 10
-381.473033261136
 20
-99.3718605041504
 30
0.0
 11
-381.848018002347
 21
-99.3718605041504
 31
0.0
  0
LINE
  5
   6CE
  8
0
  6
CONTINUOUS
 62
     2
 10
-381.473033261136
 20
-96.2378845214844
 30
0.0
 11
-381.973010372953
 21
-96.2378845214844
 31
0.0
  0
LINE
  5
   6CF
  8
0
  6
CONTINUOUS
 62
     2
 10
-381.473017521134
 20
-94.3718599030808
 30
0.0
 11
-381.973009911269
 21
-96.2378838726721
 31
0.0
  0
LINE
  5
   6D0
  8
0
  6
CONTINUOUS
 62
     2
 10
-371.723010372953
 20
-96.2378845214844
 30
0.0
 11
-372.223010372953
 21
-96.2378845214844
 31
0.0
  0
LINE
  5
   6D1
  8
0
  6
CONTINUOUS
 62
     2
 10
-371.723014295956
 20
-96.2378892628352
 30
0.0
 11
-372.223021898227
 21
-94.3718652932415
 31
0.0
  0
LINE
  5
   6D2
  8
0
  6
CONTINUOUS
 62
     2
 10
-416.473033261136
 20
-91.8718605041504
 30
0.0
 11
-416.473033261136
 21
-94.3718605041504
 31
0.0
  0
LINE
  5
   6D3
  8
0
  6
CONTINUOUS
 62
     2
 10
-407.223033261136
 20
-91.8718605041504
 30
0.0
 11
-407.223033261136
 21
-94.3718605041504
 31
0.0
  0
LINE
  5
   6D4
  8
0
  6
CONTINUOUS
 62
     2
 10
-407.223033261136
 20
-91.8718605041504
 30
0.0
 11
-416.473033261136
 21
-91.8718605041504
 31
0.0
  0
LINE
  5
   6D5
  8
0
  6
CONTINUOUS
 62
     2
 10
-416.473022688398
 20
-94.3718605041201
 30
0.0
 11
-416.473022688398
 21
-99.3718643188174
 31
0.0
  0
LINE
  5
   6D6
  8
0
  6
CONTINUOUS
 62
     2
 10
-407.223022688385
 20
-94.3718605041172
 30
0.0
 11
-407.223022688385
 21
-99.3718566894199
 31
0.0
  0
LINE
  5
   6D7
  8
0
  6
CONTINUOUS
 62
     2
 10
-416.473021817045
 20
-94.3718605041504
 30
0.0
 11
-418.348018002347
 21
-94.3718605041504
 31
0.0
  0
LINE
  5
   6D8
  8
0
  6
CONTINUOUS
 62
     2
 10
-405.348018002347
 20
-94.3718605041504
 30
0.0
 11
-407.223018002347
 21
-94.3718605041504
 31
0.0
  0
LINE
  5
   6D9
  8
0
  6
CONTINUOUS
 62
     2
 10
-405.348018002347
 20
-99.8718605041504
 30
0.0
 11
-406.848018002347
 21
-99.8718605041504
 31
0.0
  0
LINE
  5
   6DA
  8
0
  6
CONTINUOUS
 62
     2
 10
-416.848018002347
 20
-99.8718605041504
 30
0.0
 11
-418.348018002347
 21
-99.8718605041504
 31
0.0
  0
LINE
  5
   6DB
  8
0
  6
CONTINUOUS
 62
     2
 10
-416.848018002347
 20
-99.3718605041504
 30
0.0
 11
-416.848018002347
 21
-99.8718605041504
 31
0.0
  0
LINE
  5
   6DC
  8
0
  6
CONTINUOUS
 62
     2
 10
-406.848018002347
 20
-99.3718605041504
 30
0.0
 11
-406.848018002347
 21
-99.8718605041504
 31
0.0
  0
LINE
  5
   6DD
  8
0
  6
CONTINUOUS
 62
     2
 10
-406.848018002347
 20
-99.8718605041504
 30
0.0
 11
-416.848018002347
 21
-99.8718605041504
 31
0.0
  0
LINE
  5
   6DE
  8
0
  6
CONTINUOUS
 62
     2
 10
-406.848018002347
 20
-99.3718605041504
 30
0.0
 11
-407.223033261136
 21
-99.3718605041504
 31
0.0
  0
LINE
  5
   6DF
  8
0
  6
CONTINUOUS
 62
     2
 10
-416.473033261136
 20
-99.3718605041504
 30
0.0
 11
-416.848018002347
 21
-99.3718605041504
 31
0.0
  0
LINE
  5
   6E0
  8
0
  6
CONTINUOUS
 62
     2
 10
-416.473033261136
 20
-96.2378845214844
 30
0.0
 11
-416.973010372953
 21
-96.2378845214844
 31
0.0
  0
LINE
  5
   6E1
  8
0
  6
CONTINUOUS
 62
     2
 10
-416.473022430559
 20
-94.3718619815031
 30
0.0
 11
-416.97301100431
 21
-96.2378859510915
 31
0.0
  0
LINE
  5
   6E2
  8
0
  6
CONTINUOUS
 62
     2
 10
-406.723006558256
 20
-96.2378845214844
 30
0.0
 11
-407.223006558255
 21
-96.2378845214844
 31
0.0
  0
LINE
  5
   6E3
  8
0
  6
CONTINUOUS
 62
     2
 10
-406.723007830714
 20
-96.2378880596851
 30
0.0
 11
-407.223019249389
 21
-94.3718640900932
 31
0.0
  0
LINE
  5
   6E4
  8
0
  6
CONTINUOUS
 62
     2
 10
-400.848018002347
 20
-94.3718605041504
 30
0.0
 11
-400.848018002347
 21
-99.8718605041504
 31
0.0
  0
LINE
  5
   6E5
  8
0
  6
CONTINUOUS
 62
     2
 10
-387.848018002347
 20
-94.3718605041504
 30
0.0
 11
-387.848018002347
 21
-99.8718605041504
 31
0.0
  0
LINE
  5
   6E6
  8
0
  6
CONTINUOUS
 62
     2
 10
-388.098018347859
 20
-99.871860863016
 30
0.0
 11
-388.131351666993
 21
-100.871860504151
 31
0.0
  0
LINE
  5
   6E7
  8
0
  6
CONTINUOUS
 62
     2
 10
-400.564684924893
 20
-100.87186050415
 30
0.0
 11
-400.59801824468
 21
-99.8718608434641
 31
0.0
  0
LINE
  5
   6E8
  8
0
  6
CONTINUOUS
 62
     2
 10
-383.348018002347
 20
-94.3718605041504
 30
0.0
 11
-383.348018002347
 21
-99.8718605041504
 31
0.0
  0
LINE
  5
   6E9
  8
0
  6
CONTINUOUS
 62
     2
 10
-370.348018002347
 20
-94.3718605041504
 30
0.0
 11
-370.348018002347
 21
-99.8718605041504
 31
0.0
  0
LINE
  5
   6EA
  8
0
  6
CONTINUOUS
 62
     2
 10
-370.598018437439
 20
-99.8718608659951
 30
0.0
 11
-370.631351756474
 21
-100.87186050415
 31
0.0
  0
LINE
  5
   6EB
  8
0
  6
CONTINUOUS
 62
     2
 10
-383.064685014375
 20
-100.871860504151
 30
0.0
 11
-383.09801833426
 21
-99.8718608404852
 31
0.0
  0
LINE
  5
   6EC
  8
0
  6
CONTINUOUS
 62
     2
 10
-418.348018002347
 20
-94.3718605041504
 30
0.0
 11
-418.348018002347
 21
-99.8718605041504
 31
0.0
  0
LINE
  5
   6ED
  8
0
  6
CONTINUOUS
 62
     2
 10
-405.348018002347
 20
-94.3718605041504
 30
0.0
 11
-405.348018002347
 21
-99.8718605041504
 31
0.0
  0
LINE
  5
   6EE
  8
0
  6
CONTINUOUS
 62
     2
 10
-405.598018258278
 20
-99.8718608600365
 30
0.0
 11
-405.631351577512
 21
-100.87186050415
 31
0.0
  0
LINE
  5
   6EF
  8
0
  6
CONTINUOUS
 62
     2
 10
-418.064684835412
 20
-100.87186050415
 30
0.0
 11
-418.098018155099
 21
-99.8718608464439
 31
0.0
  0
LINE
  5
   6F0
  8
0
  6
CONTINUOUS
 62
   210
 10
-424.223025631742
 20
-90.6218605041504
 30
0.0
 11
-434.473025631742
 21
-90.6218605041504
 31
0.0
  0
LINE
  5
   6F1
  8
0
  6
CONTINUOUS
 62
   210
 10
-434.473025631742
 20
-90.6218605041504
 30
0.0
 11
-434.473025631742
 21
-94.3718605041504
 31
0.0
  0
LINE
  5
   6F2
  8
0
  6
CONTINUOUS
 62
   210
 10
-424.223025631742
 20
-90.6218605041504
 30
0.0
 11
-424.223025631742
 21
-94.3718605041504
 31
0.0
  0
LINE
  5
   6F3
  8
0
  6
CONTINUOUS
 62
   212
 10
-433.598033261136
 20
-91.6218605041504
 30
0.0
 11
-433.598033261136
 21
-91.8718605041504
 31
0.0
  0
LINE
  5
   6F4
  8
0
  6
CONTINUOUS
 62
   212
 10
-425.098033261136
 20
-91.6218605041504
 30
0.0
 11
-425.098033261136
 21
-91.8718605041504
 31
0.0
  0
LINE
  5
   6F5
  8
0
  6
CONTINUOUS
 62
   212
 10
-431.098033261136
 20
-91.6218605041504
 30
0.0
 11
-431.098033261136
 21
-91.8718605041504
 31
0.0
  0
LINE
  5
   6F6
  8
0
  6
CONTINUOUS
 62
   212
 10
-427.598033261136
 20
-91.6218605041504
 30
0.0
 11
-427.598033261136
 21
-91.8718605041504
 31
0.0
  0
LINE
  5
   6F7
  8
0
  6
CONTINUOUS
 62
   210
 10
-420.598025631742
 20
-99.8718605041504
 30
0.0
 11
-423.098018246415
 21
-99.8718605041504
 31
0.0
  0
LINE
  5
   6F8
  8
0
  6
CONTINUOUS
 62
     2
 10
-433.973033261136
 20
-91.8718605041504
 30
0.0
 11
-433.973033261136
 21
-94.3718605041504
 31
0.0
  0
LINE
  5
   6F9
  8
0
  6
CONTINUOUS
 62
     2
 10
-424.723033261136
 20
-91.8718605041504
 30
0.0
 11
-424.723033261136
 21
-94.3718605041504
 31
0.0
  0
LINE
  5
   6FA
  8
0
  6
CONTINUOUS
 62
     2
 10
-424.723033261136
 20
-91.8718605041504
 30
0.0
 11
-433.973033261136
 21
-91.8718605041504
 31
0.0
  0
LINE
  5
   6FB
  8
0
  6
CONTINUOUS
 62
     2
 10
-433.973022688388
 20
-94.3718605041201
 30
0.0
 11
-433.973022688388
 21
-99.3718643188174
 31
0.0
  0
LINE
  5
   6FC
  8
0
  6
CONTINUOUS
 62
     2
 10
-424.723022688374
 20
-94.3718605041172
 30
0.0
 11
-424.723022688374
 21
-99.3718566894199
 31
0.0
  0
LINE
  5
   6FD
  8
0
  6
CONTINUOUS
 62
     2
 10
-433.973021817045
 20
-94.3718605041504
 30
0.0
 11
-435.848018002347
 21
-94.3718605041504
 31
0.0
  0
LINE
  5
   6FE
  8
0
  6
CONTINUOUS
 62
     2
 10
-422.848018002347
 20
-94.3718605041504
 30
0.0
 11
-424.723018002347
 21
-94.3718605041504
 31
0.0
  0
LINE
  5
   6FF
  8
0
  6
CONTINUOUS
 62
     2
 10
-422.848018002347
 20
-99.8718605041504
 30
0.0
 11
-424.348018002347
 21
-99.8718605041504
 31
0.0
  0
LINE
  5
   700
  8
0
  6
CONTINUOUS
 62
     2
 10
-434.348018002347
 20
-99.8718605041504
 30
0.0
 11
-435.848018002347
 21
-99.8718605041504
 31
0.0
  0
LINE
  5
   701
  8
0
  6
CONTINUOUS
 62
     2
 10
-434.348018002347
 20
-99.3718605041504
 30
0.0
 11
-434.348018002347
 21
-99.8718605041504
 31
0.0
  0
LINE
  5
   702
  8
0
  6
CONTINUOUS
 62
     2
 10
-424.348018002347
 20
-99.3718605041504
 30
0.0
 11
-424.348018002347
 21
-99.8718605041504
 31
0.0
  0
LINE
  5
   703
  8
0
  6
CONTINUOUS
 62
     2
 10
-424.348018002347
 20
-99.8718605041504
 30
0.0
 11
-434.348018002347
 21
-99.8718605041504
 31
0.0
  0
LINE
  5
   704
  8
0
  6
CONTINUOUS
 62
     2
 10
-424.348018002347
 20
-99.3718605041504
 30
0.0
 11
-424.723033261136
 21
-99.3718605041504
 31
0.0
  0
LINE
  5
   705
  8
0
  6
CONTINUOUS
 62
     2
 10
-433.973033261136
 20
-99.3718605041504
 30
0.0
 11
-434.348018002347
 21
-99.3718605041504
 31
0.0
  0
LINE
  5
   706
  8
0
  6
CONTINUOUS
 62
     2
 10
-433.973033261136
 20
-96.2378845214844
 30
0.0
 11
-434.473010372953
 21
-96.2378845214844
 31
0.0
  0
LINE
  5
   707
  8
0
  6
CONTINUOUS
 62
     2
 10
-433.973022430559
 20
-94.3718619815032
 30
0.0
 11
-434.47301100431
 21
-96.2378859510915
 31
0.0
  0
LINE
  5
   708
  8
0
  6
CONTINUOUS
 62
     2
 10
-424.223006558256
 20
-96.2378845214844
 30
0.0
 11
-424.723006558256
 21
-96.2378845214844
 31
0.0
  0
LINE
  5
   709
  8
0
  6
CONTINUOUS
 62
     2
 10
-424.223007830714
 20
-96.2378880596851
 30
0.0
 11
-424.723019249388
 21
-94.3718640900932
 31
0.0
  0
LINE
  5
   70A
  8
0
  6
CONTINUOUS
 62
     2
 10
-435.848018002347
 20
-94.3718605041504
 30
0.0
 11
-435.848018002347
 21
-99.8718605041504
 31
0.0
  0
LINE
  5
   70B
  8
0
  6
CONTINUOUS
 62
     2
 10
-422.848018002347
 20
-94.3718605041504
 30
0.0
 11
-422.848018002347
 21
-99.8718605041504
 31
0.0
  0
LINE
  5
   70C
  8
0
  6
CONTINUOUS
 62
     2
 10
-423.098018258278
 20
-99.8718608600366
 30
0.0
 11
-423.131351577512
 21
-100.87186050415
 31
0.0
  0
LINE
  5
   70D
  8
0
  6
CONTINUOUS
 62
     2
 10
-435.564684835412
 20
-100.871860504151
 30
0.0
 11
-435.598018155099
 21
-99.8718608464439
 31
0.0
  0
LINE
  5
   70E
  8
0
  6
CONTINUOUS
 62
   210
 10
-418.09801825599
 20
-99.8718605041504
 30
0.0
 11
-420.598025631742
 21
-99.8718605041504
 31
0.0
  0
LINE
  5
   70F
  8
0
  6
CONTINUOUS
 62
     7
 10
-420.598025631742
 20
-81.3718376159668
 30
0.0
 11
-438.098004650907
 21
-81.3718376159668
 31
0.0
  0
LINE
  5
   710
  8
0
  6
CONTINUOUS
 62
   253
 10
-423.848033261136
 20
-67.8718605041504
 30
0.0
 11
-434.848033261136
 21
-67.8718605041504
 31
0.0
  0
LINE
  5
   711
  8
0
  6
CONTINUOUS
 62
     7
 10
-406.348048519925
 20
-56.7218589782715
 30
0.0
 11
-417.348048519925
 21
-56.7218589782715
 31
0.0
  0
LINE
  5
   712
  8
0
  6
CONTINUOUS
 62
     7
 10
-416.598048519925
 20
-55.4718589782715
 30
0.0
 11
-417.348048519925
 21
-55.4718589782715
 31
0.0
  0
LINE
  5
   713
  8
0
  6
CONTINUOUS
 62
     7
 10
-407.169642758207
 20
-55.4718589782715
 30
0.0
 11
-416.526454281644
 21
-55.4718589782715
 31
0.0
  0
LINE
  5
   714
  8
0
  6
CONTINUOUS
 62
     7
 10
-406.348048519925
 20
-55.4718589782715
 30
0.0
 11
-407.098048519925
 21
-55.4718589782715
 31
0.0
  0
LINE
  5
   715
  8
0
  6
CONTINUOUS
 62
     7
 10
-406.348048519925
 20
-60.9718589782715
 30
0.0
 11
-407.098048519925
 21
-60.9718589782715
 31
0.0
  0
LINE
  5
   716
  8
0
  6
CONTINUOUS
 62
     7
 10
-407.169642758207
 20
-60.9718589782715
 30
0.0
 11
-416.526454281644
 21
-60.9718589782715
 31
0.0
  0
LINE
  5
   717
  8
0
  6
CONTINUOUS
 62
     7
 10
-416.598048519925
 20
-60.9718589782715
 30
0.0
 11
-417.348048519925
 21
-60.9718589782715
 31
0.0
  0
LINE
  5
   718
  8
0
  6
CONTINUOUS
 62
     7
 10
-406.348048519925
 20
-59.7218589782715
 30
0.0
 11
-417.348048519925
 21
-59.7218589782715
 31
0.0
  0
LINE
  5
   719
  8
0
  6
CONTINUOUS
 62
     3
 10
-407.098048519925
 20
-64.4718589782715
 30
0.0
 11
-407.098048519925
 21
-67.4718589782715
 31
0.0
  0
LINE
  5
   71A
  8
0
  6
CONTINUOUS
 62
     3
 10
-416.598048519925
 20
-64.4718589782715
 30
0.0
 11
-416.598048519925
 21
-67.4718589782715
 31
0.0
  0
LINE
  5
   71B
  8
0
  6
CONTINUOUS
 62
     3
 10
-407.098048519925
 20
-64.4718589782715
 30
0.0
 11
-416.598048519925
 21
-64.4718589782715
 31
0.0
  0
LINE
  5
   71C
  8
0
  6
CONTINUOUS
 62
     3
 10
-407.098048519925
 20
-67.4718589782715
 30
0.0
 11
-408.300959896879
 21
-67.4718589782715
 31
0.0
  0
LINE
  5
   71D
  8
0
  6
CONTINUOUS
 62
     3
 10
-410.690852475004
 20
-67.4718589782715
 30
0.0
 11
-413.005252194242
 21
-67.4718589782715
 31
0.0
  0
LINE
  5
   71E
  8
0
  6
CONTINUOUS
 62
     3
 10
-415.395156216459
 20
-67.4718589782715
 30
0.0
 11
-416.598048519925
 21
-67.4718589782715
 31
0.0
  0
LINE
  5
   71F
  8
0
  6
CONTINUOUS
 62
     3
 10
-407.098048519925
 20
-60.9718589782715
 30
0.0
 11
-407.098048519925
 21
-63.9718589782715
 31
0.0
  0
LINE
  5
   720
  8
0
  6
CONTINUOUS
 62
     3
 10
-416.598048519925
 20
-60.9718589782715
 30
0.0
 11
-416.598048519925
 21
-63.9718589782715
 31
0.0
  0
LINE
  5
   721
  8
0
  6
CONTINUOUS
 62
     3
 10
-416.526454281644
 20
-60.9718589782715
 30
0.0
 11
-416.598048519925
 21
-60.9718589782715
 31
0.0
  0
LINE
  5
   722
  8
0
  6
CONTINUOUS
 62
     3
 10
-407.098048519925
 20
-60.9718589782715
 30
0.0
 11
-407.169646572904
 21
-60.9718589782715
 31
0.0
  0
LINE
  5
   723
  8
0
  6
CONTINUOUS
 62
     3
 10
-407.098048519925
 20
-63.9718589782715
 30
0.0
 11
-416.598048519925
 21
-63.9718589782715
 31
0.0
  0
LINE
  5
   724
  8
0
  6
CONTINUOUS
 62
     3
 10
-407.098048519925
 20
-52.4718589782715
 30
0.0
 11
-407.098048519925
 21
-55.4718589782715
 31
0.0
  0
LINE
  5
   725
  8
0
  6
CONTINUOUS
 62
     3
 10
-416.598048519925
 20
-52.4718589782715
 30
0.0
 11
-416.598048519925
 21
-55.4718589782715
 31
0.0
  0
LINE
  5
   726
  8
0
  6
CONTINUOUS
 62
     3
 10
-407.098048519925
 20
-55.4718589782715
 30
0.0
 11
-407.169646572904
 21
-55.4718589782715
 31
0.0
  0
LINE
  5
   727
  8
0
  6
CONTINUOUS
 62
     3
 10
-416.526454281644
 20
-55.4718589782715
 30
0.0
 11
-416.598048519925
 21
-55.4718589782715
 31
0.0
  0
LINE
  5
   728
  8
0
  6
CONTINUOUS
 62
     3
 10
-407.098048519925
 20
-52.4718589782715
 30
0.0
 11
-416.598048519925
 21
-52.4718589782715
 31
0.0
  0
LINE
  5
   729
  8
0
  6
CONTINUOUS
 62
     7
 10
-416.598048519925
 20
-67.4718589782715
 30
0.0
 11
-416.848048519925
 21
-67.4718589782715
 31
0.0
  0
LINE
  5
   72A
  8
0
  6
CONTINUOUS
 62
     7
 10
-413.005259823636
 20
-67.4718589782715
 30
0.0
 11
-415.395144772367
 21
-67.4718589782715
 31
0.0
  0
LINE
  5
   72B
  8
0
  6
CONTINUOUS
 62
     7
 10
-408.300944638089
 20
-67.4718589782715
 30
0.0
 11
-410.690844845609
 21
-67.4718589782715
 31
0.0
  0
LINE
  5
   72C
  8
0
  6
CONTINUOUS
 62
     7
 10
-406.848048519925
 20
-67.4718589782715
 30
0.0
 11
-407.098048519925
 21
-67.4718589782715
 31
0.0
  0
LINE
  5
   72D
  8
0
  6
CONTINUOUS
 62
   212
 10
-409.848033261136
 20
-51.1218605041504
 30
0.0
 11
-413.848033261136
 21
-51.1218605041504
 31
0.0
  0
LINE
  5
   72E
  8
0
  6
CONTINUOUS
 62
   253
 10
-434.848033261136
 20
-67.8718376159668
 30
0.0
 11
-435.348025631742
 21
-67.8718376159668
 31
0.0
  0
LINE
  5
   72F
  8
0
  6
CONTINUOUS
 62
   253
 10
-423.348025631742
 20
-67.8718376159668
 30
0.0
 11
-423.848033261136
 21
-67.8718376159668
 31
0.0
  0
LINE
  5
   730
  8
0
  6
CONTINUOUS
 62
     7
 10
-423.848033261136
 20
-34.9718589782715
 30
0.0
 11
-424.598033261136
 21
-34.9718589782715
 31
0.0
  0
LINE
  5
   731
  8
0
  6
CONTINUOUS
 62
     7
 10
-424.669627499418
 20
-34.9718589782715
 30
0.0
 11
-434.026442837552
 21
-34.9718589782715
 31
0.0
  0
LINE
  5
   732
  8
0
  6
CONTINUOUS
 62
     7
 10
-434.098033261136
 20
-34.9718589782715
 30
0.0
 11
-434.848033261136
 21
-34.9718589782715
 31
0.0
  0
LINE
  5
   733
  8
0
  6
CONTINUOUS
 62
     7
 10
-423.848033261136
 20
-33.7218589782715
 30
0.0
 11
-434.848033261136
 21
-33.7218589782715
 31
0.0
  0
LINE
  5
   734
  8
0
  6
CONTINUOUS
 62
     7
 10
-423.848033261136
 20
-30.7218589782715
 30
0.0
 11
-434.848033261136
 21
-30.7218589782715
 31
0.0
  0
LINE
  5
   735
  8
0
  6
CONTINUOUS
 62
     7
 10
-434.098033261136
 20
-29.4718589782715
 30
0.0
 11
-434.848033261136
 21
-29.4718589782715
 31
0.0
  0
LINE
  5
   736
  8
0
  6
CONTINUOUS
 62
     7
 10
-424.669627499418
 20
-29.4718589782715
 30
0.0
 11
-434.026442837552
 21
-29.4718589782715
 31
0.0
  0
LINE
  5
   737
  8
0
  6
CONTINUOUS
 62
     7
 10
-423.848033261136
 20
-29.4718589782715
 30
0.0
 11
-424.598033261136
 21
-29.4718589782715
 31
0.0
  0
LINE
  5
   738
  8
0
  6
CONTINUOUS
 62
     3
 10
-434.098033261136
 20
-38.4718589782715
 30
0.0
 11
-434.098033261136
 21
-41.4718589782715
 31
0.0
  0
LINE
  5
   739
  8
0
  6
CONTINUOUS
 62
     3
 10
-424.598033261136
 20
-38.4718589782715
 30
0.0
 11
-424.598033261136
 21
-41.4718589782715
 31
0.0
  0
LINE
  5
   73A
  8
0
  6
CONTINUOUS
 62
     3
 10
-424.598033261136
 20
-38.4718589782715
 30
0.0
 11
-434.098033261136
 21
-38.4718589782715
 31
0.0
  0
LINE
  5
   73B
  8
0
  6
CONTINUOUS
 62
     3
 10
-424.598033261136
 20
-41.4718589782715
 30
0.0
 11
-425.800933193998
 21
-41.4718589782715
 31
0.0
  0
LINE
  5
   73C
  8
0
  6
CONTINUOUS
 62
     3
 10
-428.19082958682
 20
-41.4718589782715
 30
0.0
 11
-430.505233120755
 21
-41.4718589782715
 31
0.0
  0
LINE
  5
   73D
  8
0
  6
CONTINUOUS
 62
     3
 10
-432.89514095767
 20
-41.4718589782715
 30
0.0
 11
-434.098033261136
 21
-41.4718589782715
 31
0.0
  0
LINE
  5
   73E
  8
0
  6
CONTINUOUS
 62
     3
 10
-434.098033261136
 20
-34.9718589782715
 30
0.0
 11
-434.098033261136
 21
-37.9718589782715
 31
0.0
  0
LINE
  5
   73F
  8
0
  6
CONTINUOUS
 62
     3
 10
-424.598033261136
 20
-34.9718589782715
 30
0.0
 11
-424.598033261136
 21
-37.9718589782715
 31
0.0
  0
LINE
  5
   740
  8
0
  6
CONTINUOUS
 62
     3
 10
-434.026442837552
 20
-34.9718589782715
 30
0.0
 11
-434.098033261136
 21
-34.9718589782715
 31
0.0
  0
LINE
  5
   741
  8
0
  6
CONTINUOUS
 62
     3
 10
-424.598033261136
 20
-34.9718589782715
 30
0.0
 11
-424.669631314115
 21
-34.9718589782715
 31
0.0
  0
LINE
  5
   742
  8
0
  6
CONTINUOUS
 62
     3
 10
-424.598033261136
 20
-37.9718589782715
 30
0.0
 11
-434.098033261136
 21
-37.9718589782715
 31
0.0
  0
LINE
  5
   743
  8
0
  6
CONTINUOUS
 62
     3
 10
-434.098033261136
 20
-26.4718589782715
 30
0.0
 11
-434.098033261136
 21
-29.4718589782715
 31
0.0
  0
LINE
  5
   744
  8
0
  6
CONTINUOUS
 62
     3
 10
-424.598033261136
 20
-26.4718589782715
 30
0.0
 11
-424.598033261136
 21
-29.4718589782715
 31
0.0
  0
LINE
  5
   745
  8
0
  6
CONTINUOUS
 62
     3
 10
-424.598033261136
 20
-29.4718589782715
 30
0.0
 11
-424.669631314115
 21
-29.4718589782715
 31
0.0
  0
LINE
  5
   746
  8
0
  6
CONTINUOUS
 62
     3
 10
-434.026442837552
 20
-29.4718589782715
 30
0.0
 11
-434.098033261136
 21
-29.4718589782715
 31
0.0
  0
LINE
  5
   747
  8
0
  6
CONTINUOUS
 62
     3
 10
-424.598033261136
 20
-26.4718589782715
 30
0.0
 11
-434.098033261136
 21
-26.4718589782715
 31
0.0
  0
LINE
  5
   748
  8
0
  6
CONTINUOUS
 62
     7
 10
-424.348033261136
 20
-41.8718605041504
 30
0.0
 11
-434.348033261136
 21
-41.8718605041504
 31
0.0
  0
LINE
  5
   749
  8
0
  6
CONTINUOUS
 62
     7
 10
-434.098033261136
 20
-41.4718589782715
 30
0.0
 11
-434.348033261136
 21
-41.4718589782715
 31
0.0
  0
LINE
  5
   74A
  8
0
  6
CONTINUOUS
 62
     7
 10
-430.505236935453
 20
-41.4718589782715
 30
0.0
 11
-432.895144772367
 21
-41.4718589782715
 31
0.0
  0
LINE
  5
   74B
  8
0
  6
CONTINUOUS
 62
     7
 10
-425.800937008695
 20
-41.4718589782715
 30
0.0
 11
-428.190833401517
 21
-41.4718589782715
 31
0.0
  0
LINE
  5
   74C
  8
0
  6
CONTINUOUS
 62
     7
 10
-424.348033261136
 20
-41.4718589782715
 30
0.0
 11
-424.598033261136
 21
-41.4718589782715
 31
0.0
  0
LINE
  5
   74D
  8
0
  6
CONTINUOUS
 62
   212
 10
-427.348033261136
 20
-25.1218605041504
 30
0.0
 11
-431.348033261136
 21
-25.1218605041504
 31
0.0
  0
LINE
  5
   74E
  8
0
  6
CONTINUOUS
 62
   253
 10
-423.348033261136
 20
-68.3718605041504
 30
0.0
 11
-423.348033261136
 21
-75.8718605041504
 31
0.0
  0
LINE
  5
   74F
  8
0
  6
CONTINUOUS
 62
   253
 10
-435.348033261136
 20
-68.3718605041504
 30
0.0
 11
-435.348033261136
 21
-75.8718605041504
 31
0.0
  0
LINE
  5
   750
  8
0
  6
CONTINUOUS
 62
   253
 10
-423.348034178952
 20
-68.3718620921905
 30
0.0
 11
-423.848034161838
 21
-67.8718621093048
 31
0.0
  0
LINE
  5
   751
  8
0
  6
CONTINUOUS
 62
   253
 10
-434.848035308494
 20
-67.8718630919912
 30
0.0
 11
-435.34803529138
 21
-68.3718630748769
 31
0.0
  0
LINE
  5
   752
  8
0
  6
CONTINUOUS
 62
     7
 10
-406.348048519925
 20
-55.4718589782715
 30
0.0
 11
-406.348048519925
 21
-56.7218589782715
 31
0.0
  0
LINE
  5
   753
  8
0
  6
CONTINUOUS
 62
     7
 10
-417.348048519925
 20
-55.4718589782715
 30
0.0
 11
-417.348048519925
 21
-56.7218589782715
 31
0.0
  0
LINE
  5
   754
  8
0
  6
CONTINUOUS
 62
     7
 10
-406.348048519925
 20
-59.7218589782715
 30
0.0
 11
-406.348048519925
 21
-60.9718589782715
 31
0.0
  0
LINE
  5
   755
  8
0
  6
CONTINUOUS
 62
     7
 10
-417.348048519925
 20
-59.7218589782715
 30
0.0
 11
-417.348048519925
 21
-60.9718589782715
 31
0.0
  0
LINE
  5
   756
  8
0
  6
CONTINUOUS
 62
     3
 10
-429.348048519925
 20
-64.4718589782715
 30
0.0
 11
-429.348048519925
 21
-67.4718589782715
 31
0.0
  0
LINE
  5
   757
  8
0
  6
CONTINUOUS
 62
     3
 10
-429.348048519925
 20
-60.9718589782715
 30
0.0
 11
-429.348048519925
 21
-63.9718589782715
 31
0.0
  0
LINE
  5
   758
  8
0
  6
CONTINUOUS
 62
     3
 10
-429.348048519925
 20
-52.4718589782715
 30
0.0
 11
-429.348048519925
 21
-55.4718589782715
 31
0.0
  0
LINE
  5
   759
  8
0
  6
CONTINUOUS
 62
     7
 10
-406.848048519925
 20
-67.4718589782715
 30
0.0
 11
-406.848048519925
 21
-67.8718605041504
 31
0.0
  0
LINE
  5
   75A
  8
0
  6
CONTINUOUS
 62
     7
 10
-416.848048519925
 20
-67.4718589782715
 30
0.0
 11
-416.848048519925
 21
-67.8718605041504
 31
0.0
  0
LINE
  5
   75B
  8
0
  6
CONTINUOUS
 62
   212
 10
-408.848033962885
 20
-52.1218625350222
 30
0.0
 11
-409.848033928656
 21
-51.1218625692508
 31
0.0
  0
LINE
  5
   75C
  8
0
  6
CONTINUOUS
 62
   212
 10
-413.848035541676
 20
-51.1218635519372
 30
0.0
 11
-414.848035507447
 21
-52.1218635177087
 31
0.0
  0
LINE
  5
   75D
  8
0
  6
CONTINUOUS
 62
   212
 10
-408.848033261136
 20
-52.1218605041504
 30
0.0
 11
-408.848033261136
 21
-52.4718589782715
 31
0.0
  0
LINE
  5
   75E
  8
0
  6
CONTINUOUS
 62
   212
 10
-408.848033261136
 20
-56.7218589782715
 30
0.0
 11
-408.848033261136
 21
-59.7218589782715
 31
0.0
  0
LINE
  5
   75F
  8
0
  6
CONTINUOUS
 62
   212
 10
-408.848033261136
 20
-63.9718589782715
 30
0.0
 11
-408.848033261136
 21
-64.4718589782715
 31
0.0
  0
LINE
  5
   760
  8
0
  6
CONTINUOUS
 62
   212
 10
-408.848033261136
 20
-52.1218605041504
 30
0.0
 11
-414.848033261136
 21
-52.1218605041504
 31
0.0
  0
LINE
  5
   761
  8
0
  6
CONTINUOUS
 62
   212
 10
-414.848033261136
 20
-52.1218605041504
 30
0.0
 11
-414.848033261136
 21
-52.4718589782715
 31
0.0
  0
LINE
  5
   762
  8
0
  6
CONTINUOUS
 62
   212
 10
-414.848033261136
 20
-56.7218589782715
 30
0.0
 11
-414.848033261136
 21
-59.7218589782715
 31
0.0
  0
LINE
  5
   763
  8
0
  6
CONTINUOUS
 62
   212
 10
-414.848033261136
 20
-63.9718589782715
 30
0.0
 11
-414.848033261136
 21
-64.4718589782715
 31
0.0
  0
LINE
  5
   764
  8
0
  6
CONTINUOUS
 62
   253
 10
-423.348025631742
 20
-67.8718376159668
 30
0.0
 11
-423.348025631742
 21
-68.3718605041504
 31
0.0
  0
LINE
  5
   765
  8
0
  6
CONTINUOUS
 62
   253
 10
-435.348025631742
 20
-67.8718376159668
 30
0.0
 11
-435.348025631742
 21
-68.3718605041504
 31
0.0
  0
LINE
  5
   766
  8
0
  6
CONTINUOUS
 62
   253
 10
-424.348025631742
 20
-42.3718376159668
 30
0.0
 11
-424.348025631742
 21
-67.8718605041504
 31
0.0
  0
LINE
  5
   767
  8
0
  6
CONTINUOUS
 62
   253
 10
-434.348025631742
 20
-42.3718376159668
 30
0.0
 11
-434.348025631742
 21
-67.8718605041504
 31
0.0
  0
LINE
  5
   768
  8
0
  6
CONTINUOUS
 62
   253
 10
-424.348025225208
 20
-42.3718354004246
 30
0.0
 11
-424.494475262725
 21
-42.0182816250139
 31
0.0
  0
LINE
  5
   769
  8
0
  6
CONTINUOUS
 62
   253
 10
-424.494477212231
 20
-42.0182859143914
 30
0.0
 11
-424.848027165043
 21
-41.8718396861158
 31
0.0
  0
LINE
  5
   76A
  8
0
  6
CONTINUOUS
 62
   253
 10
-434.201578330336
 20
-42.0182814441349
 30
0.0
 11
-434.348024558619
 21
-42.3718352161695
 31
0.0
  0
LINE
  5
   76B
  8
0
  6
CONTINUOUS
 62
   253
 10
-433.848024150967
 20
-41.8718360495119
 30
0.0
 11
-434.201577923002
 21
-42.018282277795
 31
0.0
  0
LINE
  5
   76C
  8
0
  6
CONTINUOUS
 62
     7
 10
-434.848033261136
 20
-33.7218589782715
 30
0.0
 11
-434.848033261136
 21
-34.9718589782715
 31
0.0
  0
LINE
  5
   76D
  8
0
  6
CONTINUOUS
 62
     7
 10
-423.848033261136
 20
-33.7218589782715
 30
0.0
 11
-423.848033261136
 21
-34.9718589782715
 31
0.0
  0
LINE
  5
   76E
  8
0
  6
CONTINUOUS
 62
     7
 10
-434.848033261136
 20
-29.4718589782715
 30
0.0
 11
-434.848033261136
 21
-30.7218589782715
 31
0.0
  0
LINE
  5
   76F
  8
0
  6
CONTINUOUS
 62
     7
 10
-423.848033261136
 20
-29.4718589782715
 30
0.0
 11
-423.848033261136
 21
-30.7218589782715
 31
0.0
  0
LINE
  5
   770
  8
0
  6
CONTINUOUS
 62
     3
 10
-429.348033261136
 20
-38.4718589782715
 30
0.0
 11
-429.348033261136
 21
-41.4718589782715
 31
0.0
  0
LINE
  5
   771
  8
0
  6
CONTINUOUS
 62
     3
 10
-429.348033261136
 20
-34.9718589782715
 30
0.0
 11
-429.348033261136
 21
-37.9718589782715
 31
0.0
  0
LINE
  5
   772
  8
0
  6
CONTINUOUS
 62
     3
 10
-429.348033261136
 20
-26.4718589782715
 30
0.0
 11
-429.348033261136
 21
-29.4718589782715
 31
0.0
  0
LINE
  5
   773
  8
0
  6
CONTINUOUS
 62
     7
 10
-434.348033261136
 20
-41.4718589782715
 30
0.0
 11
-434.348033261136
 21
-41.8718605041504
 31
0.0
  0
LINE
  5
   774
  8
0
  6
CONTINUOUS
 62
     7
 10
-424.348033261136
 20
-41.4718589782715
 30
0.0
 11
-424.348033261136
 21
-41.8718605041504
 31
0.0
  0
LINE
  5
   775
  8
0
  6
CONTINUOUS
 62
   212
 10
-431.348035764161
 20
-25.1218642193937
 30
0.0
 11
-432.348035729933
 21
-26.1218641851652
 31
0.0
  0
LINE
  5
   776
  8
0
  6
CONTINUOUS
 62
   212
 10
-426.348033740399
 20
-26.1218632024788
 30
0.0
 11
-427.348033706171
 21
-25.1218632367073
 31
0.0
  0
LINE
  5
   777
  8
0
  6
CONTINUOUS
 62
   212
 10
-432.348033261136
 20
-30.7218589782715
 30
0.0
 11
-432.348033261136
 21
-33.7218589782715
 31
0.0
  0
LINE
  5
   778
  8
0
  6
CONTINUOUS
 62
   212
 10
-432.348033261136
 20
-37.9718589782715
 30
0.0
 11
-432.348033261136
 21
-38.4718589782715
 31
0.0
  0
LINE
  5
   779
  8
0
  6
CONTINUOUS
 62
   212
 10
-426.348033261136
 20
-26.1218605041504
 30
0.0
 11
-432.348033261136
 21
-26.1218605041504
 31
0.0
  0
LINE
  5
   77A
  8
0
  6
CONTINUOUS
 62
   212
 10
-426.348033261136
 20
-30.7218589782715
 30
0.0
 11
-426.348033261136
 21
-33.7218589782715
 31
0.0
  0
LINE
  5
   77B
  8
0
  6
CONTINUOUS
 62
   212
 10
-426.348033261136
 20
-37.9718589782715
 30
0.0
 11
-426.348033261136
 21
-38.4718589782715
 31
0.0
  0
LINE
  5
   77C
  8
0
  6
CONTINUOUS
 62
     3
 10
-417.848025631742
 20
-75.3718376159668
 30
0.0
 11
-423.348033261136
 21
-75.3718376159668
 31
0.0
  0
LINE
  5
   77D
  8
0
  6
CONTINUOUS
 62
   210
 10
-418.098040890531
 20
-76.1218376159668
 30
0.0
 11
-423.098025631742
 21
-76.1218376159668
 31
0.0
  0
LINE
  5
   77E
  8
0
  6
CONTINUOUS
 62
     7
 10
-423.098025631742
 20
-76.1218376159668
 30
0.0
 11
-423.098025631742
 21
-81.3718376159668
 31
0.0
  0
LINE
  5
   77F
  8
0
  6
CONTINUOUS
 62
     7
 10
-418.098040890531
 20
-76.1218376159668
 30
0.0
 11
-418.098040890531
 21
-81.3718376159668
 31
0.0
  0
LINE
  5
   780
  8
0
  6
CONTINUOUS
 62
     7
 10
-418.098040890531
 20
-78.1218376159668
 30
0.0
 11
-423.098025631742
 21
-78.1218376159668
 31
0.0
  0
LINE
  5
   781
  8
0
  6
CONTINUOUS
 62
   210
 10
-423.098025631742
 20
-75.8718376159668
 30
0.0
 11
-435.348033261136
 21
-75.8718376159668
 31
0.0
  0
LINE
  5
   782
  8
0
  6
DASHDOT
 62
     7
 10
-376.848025631742
 20
-21.1709847845125
 30
0.0
 11
-376.848025631742
 21
-103.072155283585
 31
0.0
  0
LINE
  5
   783
  8
0
  6
DASHDOT
 62
     7
 10
-394.348025631742
 20
-21.1709847845125
 30
0.0
 11
-394.348025631742
 21
-103.072155283585
 31
0.0
  0
LINE
  5
   784
  8
0
  6
DASHDOT
 62
     7
 10
-411.848025631742
 20
-21.1709847845125
 30
0.0
 11
-411.848025631742
 21
-103.18866523163
 31
0.0
  0
LINE
  5
   785
  8
0
  6
DASHDOT
 62
     7
 10
-429.348025631742
 20
-21.1709847845125
 30
0.0
 11
-429.348025631742
 21
-103.072155283585
 31
0.0
  0
LINE
  5
   786
  8
0
  6
CONTINUOUS
 62
     7
 10
-391.848025631742
 20
-30.7218589782715
 30
0.0
 11
-391.848025631742
 21
-33.7218589782715
 31
0.0
  0
LINE
  5
   787
  8
0
  6
CONTINUOUS
 62
     7
 10
-396.848025631742
 20
-30.7218589782715
 30
0.0
 11
-396.848025631742
 21
-33.7218589782715
 31
0.0
  0
LINE
  5
   788
  8
0
  6
CONTINUOUS
 62
     7
 10
-426.848025631742
 20
-30.7218589782715
 30
0.0
 11
-426.848025631742
 21
-33.7218589782715
 31
0.0
  0
LINE
  5
   789
  8
0
  6
CONTINUOUS
 62
     7
 10
-431.848025631742
 20
-30.7218589782715
 30
0.0
 11
-431.848025631742
 21
-33.7218589782715
 31
0.0
  0
LINE
  5
   78A
  8
0
  6
CONTINUOUS
 62
     7
 10
-409.348025631742
 20
-56.7218589782715
 30
0.0
 11
-409.348025631742
 21
-59.7218589782715
 31
0.0
  0
LINE
  5
   78B
  8
0
  6
CONTINUOUS
 62
     7
 10
-414.348025631742
 20
-56.7218589782715
 30
0.0
 11
-414.348025631742
 21
-59.7218589782715
 31
0.0
  0
LINE
  5
   78C
  8
0
  6
CONTINUOUS
 62
     7
 10
-379.348025631742
 20
-56.7218589782715
 30
0.0
 11
-379.348025631742
 21
-59.7218589782715
 31
0.0
  0
LINE
  5
   78D
  8
0
  6
CONTINUOUS
 62
     7
 10
-374.348025631742
 20
-56.7218589782715
 30
0.0
 11
-374.348025631742
 21
-59.7218589782715
 31
0.0
  0
LINE
  5
   78E
  8
0
  6
CONTINUOUS
 62
   210
 10
-405.598029446439
 20
-75.8718452453613
 30
0.0
 11
-418.098029446439
 21
-75.8718452453613
 31
0.0
  0
LINE
  5
   78F
  8
0
  6
CONTINUOUS
 62
   210
 10
-388.098029446439
 20
-75.8718452453613
 30
0.0
 11
-400.598029446439
 21
-75.8718452453613
 31
0.0
  0
LINE
  5
   790
  8
0
  6
CONTINUOUS
 62
     7
 10
-384.723063778715
 20
-81.3718452453613
 30
0.0
 11
-384.723063778715
 21
-99.8718681335449
 31
0.0
  0
LINE
  5
   791
  8
0
  6
CONTINUOUS
 62
     7
 10
-386.473063778714
 20
-81.3718452453613
 30
0.0
 11
-386.473063778714
 21
-99.8718681335449
 31
0.0
  0
LINE
  5
   792
  8
0
  6
CONTINUOUS
 62
     7
 10
-402.223063778715
 20
-81.3718452453613
 30
0.0
 11
-402.223063778715
 21
-99.8718681335449
 31
0.0
  0
LINE
  5
   793
  8
0
  6
CONTINUOUS
 62
     7
 10
-403.973063778714
 20
-81.3718452453613
 30
0.0
 11
-403.973063778714
 21
-99.8718681335449
 31
0.0
  0
LINE
  5
   794
  8
0
  6
CONTINUOUS
 62
   210
 10
-382.848025631742
 20
-75.1218452453613
 30
0.0
 11
-385.098063778715
 21
-75.1218452453613
 31
0.0
  0
LINE
  5
   795
  8
0
  6
CONTINUOUS
 62
     3
 10
-383.098040890531
 20
-76.1218452453613
 30
0.0
 11
-384.899150204496
 21
-76.1218452453613
 31
0.0
  0
LINE
  5
   796
  8
0
  6
CONTINUOUS
 62
     7
 10
-435.348029446439
 20
-90.6218681335449
 30
0.0
 11
-435.348029446439
 21
-94.3718605041504
 31
0.0
  0
LINE
  5
   797
  8
0
  6
CONTINUOUS
 62
     7
 10
-405.848029446439
 20
-90.6218681335449
 30
0.0
 11
-405.848029446439
 21
-94.3718605041504
 31
0.0
  0
LINE
  5
   798
  8
0
  6
CONTINUOUS
 62
     7
 10
-434.473029446439
 20
-90.6218681335449
 30
0.0
 11
-435.348029446439
 21
-90.6218681335449
 31
0.0
  0
LINE
  5
   799
  8
0
  6
CONTINUOUS
 62
     7
 10
-405.848029446439
 20
-90.6218681335449
 30
0.0
 11
-406.723029446439
 21
-90.6218681335449
 31
0.0
  0
LINE
  5
   79A
  8
0
  6
CONTINUOUS
 62
     7
 10
-435.348029446439
 20
-82.8718681335449
 30
0.0
 11
-435.348029446439
 21
-90.6218681335449
 31
0.0
  0
LINE
  5
   79B
  8
0
  6
CONTINUOUS
 62
     7
 10
-434.473029446439
 20
-82.8718681335449
 30
0.0
 11
-434.473029446439
 21
-90.6218681335449
 31
0.0
  0
LINE
  5
   79C
  8
0
  6
CONTINUOUS
 62
     7
 10
-405.848029446439
 20
-87.3718681335449
 30
0.0
 11
-405.848029446439
 21
-90.6218681335449
 31
0.0
  0
LINE
  5
   79D
  8
0
  6
CONTINUOUS
 62
     7
 10
-406.723029446439
 20
-87.3718681335449
 30
0.0
 11
-406.723029446439
 21
-90.6218681335449
 31
0.0
  0
LINE
  5
   79E
  8
0
  6
CONTINUOUS
 62
     7
 10
-400.348029446439
 20
-90.6218681335449
 30
0.0
 11
-400.348029446439
 21
-94.3718605041504
 31
0.0
  0
LINE
  5
   79F
  8
0
  6
CONTINUOUS
 62
     7
 10
-388.348029446439
 20
-90.6218681335449
 30
0.0
 11
-388.348029446439
 21
-94.3718605041504
 31
0.0
  0
LINE
  5
   7A0
  8
0
  6
CONTINUOUS
 62
     7
 10
-399.473029446439
 20
-90.6218681335449
 30
0.0
 11
-400.348029446439
 21
-90.6218681335449
 31
0.0
  0
LINE
  5
   7A1
  8
0
  6
CONTINUOUS
 62
     7
 10
-388.348029446439
 20
-90.6218681335449
 30
0.0
 11
-389.223029446439
 21
-90.6218681335449
 31
0.0
  0
LINE
  5
   7A2
  8
0
  6
CONTINUOUS
 62
     7
 10
-400.348029446439
 20
-87.3718681335449
 30
0.0
 11
-400.348029446439
 21
-90.6218681335449
 31
0.0
  0
LINE
  5
   7A3
  8
0
  6
CONTINUOUS
 62
     7
 10
-399.473029446439
 20
-87.3718681335449
 30
0.0
 11
-399.473029446439
 21
-90.6218681335449
 31
0.0
  0
LINE
  5
   7A4
  8
0
  6
CONTINUOUS
 62
     7
 10
-388.348029446439
 20
-87.3718681335449
 30
0.0
 11
-388.348029446439
 21
-90.6218681335449
 31
0.0
  0
LINE
  5
   7A5
  8
0
  6
CONTINUOUS
 62
     7
 10
-389.223029446439
 20
-87.3718681335449
 30
0.0
 11
-389.223029446439
 21
-90.6218681335449
 31
0.0
  0
LINE
  5
   7A6
  8
0
  6
CONTINUOUS
 62
     7
 10
-382.848025631742
 20
-90.6218681335449
 30
0.0
 11
-382.848025631742
 21
-94.3718605041504
 31
0.0
  0
LINE
  5
   7A7
  8
0
  6
CONTINUOUS
 62
     7
 10
-370.848025631742
 20
-90.6218681335449
 30
0.0
 11
-370.848025631742
 21
-94.3718605041504
 31
0.0
  0
LINE
  5
   7A8
  8
0
  6
CONTINUOUS
 62
     7
 10
-381.973025631742
 20
-90.6218681335449
 30
0.0
 11
-382.848025631742
 21
-90.6218681335449
 31
0.0
  0
LINE
  5
   7A9
  8
0
  6
CONTINUOUS
 62
     7
 10
-370.848025631742
 20
-90.6218681335449
 30
0.0
 11
-371.723025631742
 21
-90.6218681335449
 31
0.0
  0
LINE
  5
   7AA
  8
0
  6
CONTINUOUS
 62
     7
 10
-382.848025631742
 20
-87.3718681335449
 30
0.0
 11
-382.848025631742
 21
-90.6218681335449
 31
0.0
  0
LINE
  5
   7AB
  8
0
  6
CONTINUOUS
 62
     7
 10
-381.973025631742
 20
-87.3718681335449
 30
0.0
 11
-381.973025631742
 21
-90.6218681335449
 31
0.0
  0
LINE
  5
   7AC
  8
0
  6
CONTINUOUS
 62
     7
 10
-370.848025631742
 20
-82.8718681335449
 30
0.0
 11
-370.848025631742
 21
-90.6218681335449
 31
0.0
  0
LINE
  5
   7AD
  8
0
  6
CONTINUOUS
 62
     7
 10
-371.723025631742
 20
-82.8718681335449
 30
0.0
 11
-371.723025631742
 21
-90.6218681335449
 31
0.0
  0
LINE
  5
   7AE
  8
0
  6
CONTINUOUS
 62
     7
 10
-410.848029446439
 20
-89.3718681335449
 30
0.0
 11
-410.848029446439
 21
-90.6218681335449
 31
0.0
  0
LINE
  5
   7AF
  8
0
  6
CONTINUOUS
 62
     7
 10
-412.848029446439
 20
-89.3718681335449
 30
0.0
 11
-412.848029446439
 21
-90.6218681335449
 31
0.0
  0
LINE
  5
   7B0
  8
0
  6
CONTINUOUS
 62
     7
 10
-410.848029446439
 20
-89.3718681335449
 30
0.0
 11
-412.848029446439
 21
-89.3718681335449
 31
0.0
  0
LINE
  5
   7B1
  8
0
  6
CONTINUOUS
 62
     7
 10
-393.348029446439
 20
-89.3718681335449
 30
0.0
 11
-393.348029446439
 21
-90.6218681335449
 31
0.0
  0
LINE
  5
   7B2
  8
0
  6
CONTINUOUS
 62
     7
 10
-395.348029446439
 20
-89.3718681335449
 30
0.0
 11
-395.348029446439
 21
-90.6218681335449
 31
0.0
  0
LINE
  5
   7B3
  8
0
  6
CONTINUOUS
 62
     7
 10
-393.348029446439
 20
-89.3718681335449
 30
0.0
 11
-395.348029446439
 21
-89.3718681335449
 31
0.0
  0
LINE
  5
   7B4
  8
0
  6
CONTINUOUS
 62
     7
 10
-375.848025631742
 20
-89.3718681335449
 30
0.0
 11
-375.848025631742
 21
-90.6218681335449
 31
0.0
  0
LINE
  5
   7B5
  8
0
  6
CONTINUOUS
 62
     7
 10
-377.848025631742
 20
-89.3718681335449
 30
0.0
 11
-377.848025631742
 21
-90.6218681335449
 31
0.0
  0
LINE
  5
   7B6
  8
0
  6
CONTINUOUS
 62
     7
 10
-375.848025631742
 20
-89.3718681335449
 30
0.0
 11
-377.848025631742
 21
-89.3718681335449
 31
0.0
  0
LINE
  5
   7B7
  8
0
  6
CONTINUOUS
 62
     7
 10
-437.598065686063
 20
-78.1218376159668
 30
0.0
 11
-437.598065686063
 21
-81.3718376159668
 31
0.0
  0
LINE
  5
   7B8
  8
0
  6
CONTINUOUS
 62
   210
 10
-385.098063778715
 20
-75.1218452453613
 30
0.0
 11
-385.098063778715
 21
-75.3718376159668
 31
0.0
  0
LINE
  5
   7B9
  8
0
  6
CONTINUOUS
 62
     7
 10
-384.899150204496
 20
-76.1218452453613
 30
0.0
 11
-384.899150204496
 21
-81.3718528747559
 31
0.0
  0
LINE
  5
   7BA
  8
0
  6
CONTINUOUS
 62
     7
 10
-434.473029446439
 20
-82.8718681335449
 30
0.0
 11
-435.348029446439
 21
-82.8718681335449
 31
0.0
  0
LINE
  5
   7BB
  8
0
  6
CONTINUOUS
 62
     7
 10
-405.848029446439
 20
-87.3718681335449
 30
0.0
 11
-406.723029446439
 21
-87.3718681335449
 31
0.0
  0
LINE
  5
   7BC
  8
0
  6
CONTINUOUS
 62
     7
 10
-399.473029446439
 20
-87.3718681335449
 30
0.0
 11
-400.348029446439
 21
-87.3718681335449
 31
0.0
  0
LINE
  5
   7BD
  8
0
  6
CONTINUOUS
 62
     7
 10
-388.348029446439
 20
-87.3718681335449
 30
0.0
 11
-389.223029446439
 21
-87.3718681335449
 31
0.0
  0
LINE
  5
   7BE
  8
0
  6
CONTINUOUS
 62
     7
 10
-381.973025631742
 20
-87.3718681335449
 30
0.0
 11
-382.848025631742
 21
-87.3718681335449
 31
0.0
  0
LINE
  5
   7BF
  8
0
  6
CONTINUOUS
 62
     7
 10
-370.848025631742
 20
-82.8718681335449
 30
0.0
 11
-371.723025631742
 21
-82.8718681335449
 31
0.0
  0
LINE
  5
   7C0
  8
0
  6
CONTINUOUS
 62
   210
 10
-383.098040890531
 20
-75.8718376159668
 30
0.0
 11
-383.098040890531
 21
-76.1218452453613
 31
0.0
  0
LINE
  5
   7C1
  8
0
  6
CONTINUOUS
 62
   210
 10
-388.098025631742
 20
-75.8718376159668
 30
0.0
 11
-388.098025631742
 21
-76.1218452453613
 31
0.0
  0
LINE
  5
   7C2
  8
0
  6
CONTINUOUS
 62
   210
 10
-418.098040890531
 20
-75.8718376159668
 30
0.0
 11
-418.098040890531
 21
-76.1218376159668
 31
0.0
  0
LINE
  5
   7C3
  8
0
  6
CONTINUOUS
 62
   210
 10
-423.098025631742
 20
-75.8718376159668
 30
0.0
 11
-423.098025631742
 21
-76.1218376159668
 31
0.0
  0
LINE
  5
   7C4
  8
0
  6
CONTINUOUS
 62
   210
 10
-405.598018002347
 20
-75.8718376159668
 30
0.0
 11
-405.598018002347
 21
-76.1218376159668
 31
0.0
  0
LINE
  5
   7C5
  8
0
  6
CONTINUOUS
 62
   210
 10
-400.598025631742
 20
-75.8718376159668
 30
0.0
 11
-400.598025631742
 21
-76.1218376159668
 31
0.0
  0
LINE
  5
   7C6
  8
0
  6
CONTINUOUS
 62
     7
 10
-419.723063778715
 20
-81.3718452453613
 30
0.0
 11
-419.723063778715
 21
-99.8718681335449
 31
0.0
  0
LINE
  5
   7C7
  8
0
  6
CONTINUOUS
 62
     7
 10
-421.473063778714
 20
-81.3718452453613
 30
0.0
 11
-421.473063778714
 21
-99.8718681335449
 31
0.0
  0
LINE
  5
   7C8
  8
0
  6
CONTINUOUS
 62
     7
 10
-417.848029446439
 20
-87.3718681335449
 30
0.0
 11
-417.848029446439
 21
-90.6218681335449
 31
0.0
  0
LINE
  5
   7C9
  8
0
  6
CONTINUOUS
 62
     7
 10
-417.848029446439
 20
-90.6218681335449
 30
0.0
 11
-417.848029446439
 21
-94.3718605041504
 31
0.0
  0
LINE
  5
   7CA
  8
0
  6
CONTINUOUS
 62
     7
 10
-416.973029446439
 20
-90.6218681335449
 30
0.0
 11
-417.848029446439
 21
-90.6218681335449
 31
0.0
  0
LINE
  5
   7CB
  8
0
  6
CONTINUOUS
 62
     7
 10
-416.973029446439
 20
-87.3718681335449
 30
0.0
 11
-416.973029446439
 21
-90.6218681335449
 31
0.0
  0
LINE
  5
   7CC
  8
0
  6
CONTINUOUS
 62
     7
 10
-416.973029446439
 20
-87.3718681335449
 30
0.0
 11
-417.848029446439
 21
-87.3718681335449
 31
0.0
  0
LINE
  5
   7CD
  8
0
  6
CONTINUOUS
 62
     7
 10
-428.348029446439
 20
-89.3718681335449
 30
0.0
 11
-428.348029446439
 21
-90.6218681335449
 31
0.0
  0
LINE
  5
   7CE
  8
0
  6
CONTINUOUS
 62
     7
 10
-430.348029446439
 20
-89.3718681335449
 30
0.0
 11
-430.348029446439
 21
-90.6218681335449
 31
0.0
  0
LINE
  5
   7CF
  8
0
  6
CONTINUOUS
 62
     7
 10
-428.348029446439
 20
-89.3718681335449
 30
0.0
 11
-430.348029446439
 21
-89.3718681335449
 31
0.0
  0
LINE
  5
   7D0
  8
0
  6
CONTINUOUS
 62
     7
 10
-424.223029446439
 20
-87.3718681335449
 30
0.0
 11
-424.223029446439
 21
-90.6218681335449
 31
0.0
  0
LINE
  5
   7D1
  8
0
  6
CONTINUOUS
 62
     7
 10
-423.348029446439
 20
-87.3718681335449
 30
0.0
 11
-424.223029446439
 21
-87.3718681335449
 31
0.0
  0
LINE
  5
   7D2
  8
0
  6
CONTINUOUS
 62
     7
 10
-423.348029446439
 20
-87.3718681335449
 30
0.0
 11
-423.348029446439
 21
-90.6218681335449
 31
0.0
  0
LINE
  5
   7D3
  8
0
  6
CONTINUOUS
 62
     7
 10
-423.348029446439
 20
-90.6218681335449
 30
0.0
 11
-423.348029446439
 21
-94.3718605041504
 31
0.0
  0
LINE
  5
   7D4
  8
0
  6
CONTINUOUS
 62
     7
 10
-423.348029446439
 20
-90.6218681335449
 30
0.0
 11
-424.223029446439
 21
-90.6218681335449
 31
0.0
  0
LINE
  5
   7D5
  8
0
  6
CONTINUOUS
 62
     7
 10
-435.348033261136
 20
-75.8718376159668
 30
0.0
 11
-435.598025631742
 21
-75.8718376159668
 31
0.0
  0
LINE
  5
   7D6
  8
0
  6
CONTINUOUS
 62
   210
 10
-370.848025631742
 20
-75.8718376159668
 30
0.0
 11
-383.098040890531
 21
-75.8718376159668
 31
0.0
  0
LINE
  5
   7D7
  8
0
  6
CONTINUOUS
 62
   210
 10
-437.598065686063
 20
-75.1218452453613
 30
0.0
 11
-437.598065686063
 21
-78.1218376159668
 31
0.0
  0
LINE
  5
   7D8
  8
0
  6
CONTINUOUS
 62
     7
 10
-386.848063778714
 20
-76.1218452453613
 30
0.0
 11
-386.848063778714
 21
-81.3718376159668
 31
0.0
  0
LINE
  5
   7D9
  8
0
  6
CONTINUOUS
 62
   210
 10
-384.899150204496
 20
-76.1218452453613
 30
0.0
 11
-388.098029446439
 21
-76.1218452453613
 31
0.0
  0
LINE
  5
   7DA
  8
0
  6
CONTINUOUS
 62
   210
 10
-370.598040890531
 20
-75.8718376159668
 30
0.0
 11
-370.598040890531
 21
-78.1218452453613
 31
0.0
  0
LINE
  5
   7DB
  8
0
  6
CONTINUOUS
 62
     3
 10
-346.950521625483
 20
-100.87186050415
 30
0.0
 11
-439.490944727921
 21
-100.87186050415
 31
0.0
  0
LINE
  5
   7DC
  8
0
  6
CONTINUOUS
 62
   130
 10
-352.848007202148
 20
-76.8718376159668
 30
0.0
 11
-370.848025631742
 21
-76.8718376159668
 31
0.0
  0
LINE
  5
   7DD
  8
0
  6
CONTINUOUS
 62
   130
 10
-352.848007202148
 20
-76.8718376159668
 30
0.0
 11
-352.848007202148
 21
-100.87186050415
 31
0.0
  0
TEXT
  5
   7DE
  8
0
  6
CONTINUOUS
 62
     1
 10
-404.477979986688
 20
-138.403738039918
 30
0.0
 40
2.00000008940697
  1
M 3076 95-01-16
 50
359.999999896069
 41
0.749999861419206
 72
     1
 11
-393.377981543541
 21
-137.403738015294
 31
0.0
 73
     2
  0
TEXT
  5
   7DF
  8
0
  6
CONTINUOUS
 62
     1
 10
-378.887980091742
 20
-138.403738041275
 30
0.0
 40
2.00000008940697
  1
M4504 98-11-17
 50
359.999999896069
 41
0.749999861419206
 72
     1
 11
-368.537981543541
 21
-137.403738015294
 31
0.0
 73
     2
  0
TEXT
  5
   7E0
  8
0
  6
CONTINUOUS
 62
     1
 10
-416.895767213723
 20
-131.492771223436
 30
0.0
 40
2.00000008940697
  1
SCARPELLINI
 50
359.999999896069
 41
0.749999861419206
 72
     2
 11
-400.69576949062
 21
-131.492771252741
 31
0.0
  0
TEXT
  5
   7E1
  8
0
  6
CONTINUOUS
 62
     1
 10
-309.306701663774
 20
-149.360412743231
 30
0.0
 40
4.00000017881393
  1
601812/371
 50
359.999999896069
 41
0.937499973922969
 72
     2
 11
-272.556701064002
 21
-149.360412809709
 31
0.0
  0
INSERT
  5
   7E2
  8
0
  6
CONTINUOUS
 62
     7
  2
*UDIM137
 10
0.0
 20
0.0
 30
0.0
  0
INSERT
  5
   7E3
  8
0
  6
CONTINUOUS
 62
     7
  2
*UDIM138
 10
0.0
 20
0.0
 30
0.0
  0
INSERT
  5
   7E4
  8
0
  6
CONTINUOUS
 62
     7
  2
*UDIM139
 10
0.0
 20
0.0
 30
0.0
  0
TEXT
  5
   7E5
  8
0
  6
CONTINUOUS
 62
     7
 10
-394.958343198625
 20
-115.432820173892
 30
0.0
 40
3.00000002980232
  1
Y
 50
359.999999896069
 41
0.916666604744064
 72
     2
 11
-392.758343329755
 21
-115.432820177872
 31
0.0
  0
TEXT
  5
   7E6
  8
0
  6
CONTINUOUS
 62
     7
 10
-395.616981199113
 20
-20.212623449954
 30
0.0
 40
3.00000002980232
  1
Y
 50
359.999999896069
 41
0.916666604744064
 72
     2
 11
-393.416981330243
 21
-20.2126234539336
 31
0.0
  0
INSERT
  5
   7E7
  8
0
  6
CONTINUOUS
 62
     7
  2
*UDIM140
 10
0.0
 20
0.0
 30
0.0
  0
INSERT
  5
   7E8
  8
0
  6
CONTINUOUS
 62
     7
  2
*UDIM141
 10
0.0
 20
0.0
 30
0.0
  0
INSERT
  5
   7E9
  8
0
  6
CONTINUOUS
 62
     7
  2
*UDIM142
 10
0.0
 20
0.0
 30
0.0
  0
INSERT
  5
   7EA
  8
0
  6
CONTINUOUS
 62
     7
  2
*UDIM143
 10
0.0
 20
0.0
 30
0.0
  0
INSERT
  5
   7EB
  8
0
  6
CONTINUOUS
 62
     7
  2
*UDIM144
 10
0.0
 20
0.0
 30
0.0
  0
TEXT
  5
   7EC
  8
0
  6
CONTINUOUS
 62
     1
 10
-416.895767213723
 20
-123.02602011395
 30
0.0
 40
2.00000008940697
  1
93-04-05 FERRARI M.
 50
359.999999896069
 41
0.749999861419206
 72
     2
 11
-388.695771171471
 21
-123.026020164962
 31
0.0
  0
TEXT
  5
   7ED
  8
0
  6
CONTINUOUS
 62
     1
 10
-298.221008303495
 20
-140.37882998138
 30
0.0
 40
3.00000002980232
  1
S3
 50
359.999999896069
 41
0.916666604744064
 72
     2
 11
-293.271008593074
 21
-140.378829990334
 31
0.0
  0
TEXT
  5
   7EE
  8
0
  6
CONTINUOUS
 62
     1
 10
-319.755428026935
 20
-122.068557731322
 30
0.0
 40
2.00000008940697
  1
4POLE LOW VOLTAGE M.C.C.B SERIES ISOMAX
 50
359.999999896069
 41
0.749999861419206
 72
     1
 11
-290.655432105064
 21
-121.068557739258
 31
0.0
 73
     2
  0
TEXT
  5
   7EF
  8
0
  6
CONTINUOUS
 62
     1
 10
-317.505428342095
 20
-125.068557735392
 30
0.0
 40
2.00000008940697
  1
WITHDRAWABLE VERSION REAR  TERMINALS
 50
359.999999896069
 41
0.749999861419206
 72
     1
 11
-290.655432105064
 21
-124.068557739258
 31
0.0
 73
     2
  0
TEXT
  5
   7F0
  8
0
  6
CONTINUOUS
 62
     1
 10
-316.553036394289
 20
-130.138824467165
 30
0.0
 40
2.00000008940697
  1
INTERR.AUTOMATICO SERIE ISOMAX
 50
359.999999896069
 41
0.749999861419206
 72
     1
 11
-294.203039526939
 21
-129.138824462891
 31
0.0
 73
     2
  0
TEXT
  5
   7F1
  8
0
  6
CONTINUOUS
 62
     1
 10
-328.553034713438
 20
-133.138824445458
 30
0.0
 40
2.00000008940697
  1
TETRAP.ESECUZIONE ESTRAIBILE TERMIN.POSTERIORI
 50
359.999999896069
 41
0.749999861419206
 72
     1
 11
-294.203039526939
 21
-132.138824462891
 31
0.0
 73
     2
  0
LINE
  5
   7F2
  8
0
  6
CONTINUOUS
 62
     7
 10
-320.116027832031
 20
48.7081680297852
 30
0.0
 11
-286.366027832031
 21
48.7081680297852
 31
0.0
  0
LINE
  5
   7F3
  8
0
  6
CONTINUOUS
 62
     7
 10
-320.116027832031
 20
80.2081680297852
 30
0.0
 11
-286.366027832031
 21
80.2081680297852
 31
0.0
  0
LINE
  5
   7F4
  8
0
  6
CONTINUOUS
 62
     7
 10
-286.366027832031
 20
80.2081680297852
 30
0.0
 11
-286.366027832031
 21
59.6456680297852
 31
0.0
  0
LINE
  5
   7F5
  8
0
  6
CONTINUOUS
 62
     7
 10
-320.116027832031
 20
80.2081680297852
 30
0.0
 11
-320.116027832031
 21
48.7081680297852
 31
0.0
  0
LINE
  5
   7F6
  8
0
  6
DASHDOT
 62
     7
 10
-290.841014378626
 20
57.6456680297852
 30
0.0
 11
-276.86072143259
 21
57.6456680297852
 31
0.0
  0
LINE
  5
   7F7
  8
0
  6
CONTINUOUS
 62
     7
 10
-286.366027832031
 20
59.6456680297852
 30
0.0
 11
-280.616027832031
 21
59.6456680297852
 31
0.0
  0
LINE
  5
   7F8
  8
0
  6
CONTINUOUS
 62
     7
 10
-286.366027832031
 20
55.6456680297852
 30
0.0
 11
-280.616027832031
 21
55.6456680297852
 31
0.0
  0
ARC
  5
   7F9
  8
0
  6
CONTINUOUS
 62
     7
 10
-280.616027832031
 20
57.6456680297852
 30
0.0
 40
2.0
 50
269.999999844103
 51
449.999999844103
  0
LINE
  5
   7FA
  8
0
  6
CONTINUOUS
 62
     7
 10
-286.366027832031
 20
55.6456680297852
 30
0.0
 11
-286.366027832031
 21
48.7081680297852
 31
0.0
  0
LINE
  5
   7FB
  8
0
  6
DASHDOT
 62
     7
 10
-302.116027832031
 20
90.0856591906403
 30
0.0
 11
-302.116027832031
 21
41.3129867122337
 31
0.0
  0
CIRCLE
  5
   7FC
  8
0
  6
CONTINUOUS
 62
     7
 10
-313.116027832031
 20
82.2081680297852
 30
0.0
 40
0.875
  0
CIRCLE
  5
   7FD
  8
0
  6
CONTINUOUS
 62
     7
 10
-281.866027832031
 20
82.2081680297852
 30
0.0
 40
1.0
  0
CIRCLE
  5
   7FE
  8
0
  6
CONTINUOUS
 62
     7
 10
-281.866027832031
 20
64.4581680297852
 30
0.0
 40
1.0
  0
CIRCLE
  5
   7FF
  8
0
  6
CONTINUOUS
 62
     7
 10
-281.866027832031
 20
46.7081680297852
 30
0.0
 40
0.875
  0
CIRCLE
  5
   800
  8
0
  6
CONTINUOUS
 62
     7
 10
-313.116027832031
 20
46.7081680297852
 30
0.0
 40
1.0
  0
LINE
  5
   801
  8
0
  6
DASHDOT
 62
     7
 10
-313.116027832031
 20
83.8331680297852
 30
0.0
 11
-313.116027832031
 21
80.5831680297852
 31
0.0
  0
LINE
  5
   802
  8
0
  6
DASHDOT
 62
     7
 10
-314.741027832031
 20
82.2081680297852
 30
0.0
 11
-311.491027832031
 21
82.2081680297852
 31
0.0
  0
LINE
  5
   803
  8
0
  6
DASHDOT
 62
     7
 10
-281.866027832031
 20
83.8331680297852
 30
0.0
 11
-281.866027832031
 21
80.5831680297852
 31
0.0
  0
LINE
  5
   804
  8
0
  6
DASHDOT
 62
     7
 10
-283.491027832031
 20
82.2081680297852
 30
0.0
 11
-280.241027832031
 21
82.2081680297852
 31
0.0
  0
LINE
  5
   805
  8
0
  6
DASHDOT
 62
     7
 10
-281.866027832031
 20
66.0831680297852
 30
0.0
 11
-281.866027832031
 21
62.8331680297852
 31
0.0
  0
LINE
  5
   806
  8
0
  6
DASHDOT
 62
     7
 10
-283.491027832031
 20
64.4581680297852
 30
0.0
 11
-280.241027832031
 21
64.4581680297852
 31
0.0
  0
LINE
  5
   807
  8
0
  6
DASHDOT
 62
     7
 10
-281.866027832031
 20
48.3331680297852
 30
0.0
 11
-281.866027832031
 21
45.0831680297852
 31
0.0
  0
LINE
  5
   808
  8
0
  6
DASHDOT
 62
     7
 10
-283.491027832031
 20
46.7081680297852
 30
0.0
 11
-280.241027832031
 21
46.7081680297852
 31
0.0
  0
LINE
  5
   809
  8
0
  6
DASHDOT
 62
     7
 10
-313.116027832031
 20
48.3331680297852
 30
0.0
 11
-313.116027832031
 21
45.0831680297852
 31
0.0
  0
LINE
  5
   80A
  8
0
  6
DASHDOT
 62
     7
 10
-314.741027832031
 20
46.7081680297852
 30
0.0
 11
-311.491027832031
 21
46.7081680297852
 31
0.0
  0
LINE
  5
   80B
  8
0
  6
CONTINUOUS
 62
     7
 10
-326.040586909424
 20
85.2081680297852
 30
0.0
 11
-276.453528434161
 21
85.2081680297852
 31
0.0
  0
LINE
  5
   80C
  8
0
  6
CONTINUOUS
 62
     7
 10
-326.673998240313
 20
43.7081680297852
 30
0.0
 11
-276.001091769241
 21
43.7081680297852
 31
0.0
  0
LINE
  5
   80D
  8
0
  6
CONTINUOUS
 62
     7
 10
-276.866027832031
 20
86.038213077382
 30
0.0
 11
-276.866027832031
 21
42.7852679110029
 31
0.0
  0
LINE
  5
   80E
  8
0
  6
CONTINUOUS
 62
     7
 10
-325.116027832031
 20
86.038213077382
 30
0.0
 11
-325.116027832031
 21
42.1971002466065
 31
0.0
  0
POINT
  5
   80F
  8
0
  6
CONTINUOUS
 62
     7
 10
-278.616027832031
 20
57.5206680297852
 30
0.0
  0
LINE
  5
   810
  8
0
  6
DASHDOT
 62
     7
 10
-329.576752595175
 20
64.4581680297852
 30
0.0
 11
-274.123299531894
 21
64.4581680297852
 31
0.0
  0
CIRCLE
  5
   811
  8
0
  6
CONTINUOUS
 62
     7
 10
-296.491027832031
 20
82.5831680297852
 30
0.0
 40
0.5
  0
CIRCLE
  5
   812
  8
0
  6
CONTINUOUS
 62
     7
 10
-307.741027832031
 20
82.5831680297852
 30
0.0
 40
0.5
  0
CIRCLE
  5
   813
  8
0
  6
CONTINUOUS
 62
     7
 10
-296.491027832031
 20
82.5831680297852
 30
0.0
 40
0.92
  0
CIRCLE
  5
   814
  8
0
  6
CONTINUOUS
 62
     7
 10
-307.741027832031
 20
82.5831680297852
 30
0.0
 40
0.92
  0
LINE
  5
   815
  8
0
  6
DASHDOT
 62
     7
 10
-296.491027832031
 20
84.2531680297852
 30
0.0
 11
-296.491027832031
 21
80.9131680297852
 31
0.0
  0
LINE
  5
   816
  8
0
  6
DASHDOT
 62
     7
 10
-298.161027832031
 20
82.5831680297852
 30
0.0
 11
-294.821027832031
 21
82.5831680297852
 31
0.0
  0
LINE
  5
   817
  8
0
  6
DASHDOT
 62
     7
 10
-307.741027832031
 20
84.2531680297852
 30
0.0
 11
-307.741027832031
 21
80.9131680297852
 31
0.0
  0
LINE
  5
   818
  8
0
  6
DASHDOT
 62
     7
 10
-309.411027832031
 20
82.5831680297852
 30
0.0
 11
-306.071027832031
 21
82.5831680297852
 31
0.0
  0
LINE
  5
   819
  8
0
  6
CONTINUOUS
 62
     7
 10
-275.50925433232
 20
80.9865883864097
 30
0.0
 11
-275.50925433232
 21
73.0501663998636
 31
0.0
  0
LINE
  5
   81A
  8
0
  6
CONTINUOUS
 62
     7
 10
-272.791301597201
 20
80.9865883864097
 30
0.0
 11
-272.791301597201
 21
73.0501663998636
 31
0.0
  0
LINE
  5
   81B
  8
0
  6
CONTINUOUS
 62
     7
 10
-275.50925433232
 20
80.9865883864097
 30
0.0
 11
-272.791301597201
 21
80.9865883864097
 31
0.0
  0
LINE
  5
   81C
  8
0
  6
CONTINUOUS
 62
     7
 10
-275.50925433232
 20
73.0501663998636
 30
0.0
 11
-272.791301597201
 21
73.0501663998636
 31
0.0
  0
LINE
  5
   81D
  8
0
  6
CONTINUOUS
 62
     7
 10
-275.50925433232
 20
55.8661696597067
 30
0.0
 11
-275.50925433232
 21
47.9297476731606
 31
0.0
  0
LINE
  5
   81E
  8
0
  6
CONTINUOUS
 62
     7
 10
-272.791301597201
 20
55.8661696597067
 30
0.0
 11
-272.791301597201
 21
47.9297476731606
 31
0.0
  0
LINE
  5
   81F
  8
0
  6
CONTINUOUS
 62
     7
 10
-275.50925433232
 20
55.8661696597067
 30
0.0
 11
-272.791301597201
 21
55.8661696597067
 31
0.0
  0
LINE
  5
   820
  8
0
  6
CONTINUOUS
 62
     7
 10
-275.50925433232
 20
47.9297476731606
 30
0.0
 11
-272.791301597201
 21
47.9297476731606
 31
0.0
  0
LINE
  5
   821
  8
0
  6
DASHDOT
 62
     7
 10
-274.15027796476
 20
85.0091584343851
 30
0.0
 11
-274.15027796476
 21
28.6931777627291
 31
0.0
  0
INSERT
  5
   822
  8
0
  6
CONTINUOUS
 62
     7
  2
*UDIM145
 10
0.0
 20
0.0
 30
0.0
  0
INSERT
  5
   823
  8
0
  6
CONTINUOUS
 62
     7
  2
*UDIM146
 10
0.0
 20
0.0
 30
0.0
  0
INSERT
  5
   824
  8
0
  6
CONTINUOUS
 62
     7
  2
*UDIM147
 10
0.0
 20
0.0
 30
0.0
  0
INSERT
  5
   825
  8
0
  6
CONTINUOUS
 62
     7
  2
*UDIM148
 10
0.0
 20
0.0
 30
0.0
  0
INSERT
  5
   826
  8
0
  6
CONTINUOUS
 62
     7
  2
*UDIM149
 10
0.0
 20
0.0
 30
0.0
  0
INSERT
  5
   827
  8
0
  6
CONTINUOUS
 62
     7
  2
*UDIM150
 10
0.0
 20
0.0
 30
0.0
  0
TEXT
  5
   828
  8
0
  6
CONTINUOUS
 62
     7
 10
-327.637156423704
 20
55.2677024055571
 30
0.0
 40
3.00000002980232
  1
=     =
 50
449.999999844103
 41
0.916666604744064
 72
     2
 11
-327.637156372941
 21
73.9677013237328
 31
0.0
  0
INSERT
  5
   829
  8
0
  6
CONTINUOUS
 62
     7
  2
*UDIM151
 10
0.0
 20
0.0
 30
0.0
  0
INSERT
  5
   82A
  8
0
  6
CONTINUOUS
 62
     7
  2
*UDIM152
 10
0.0
 20
0.0
 30
0.0
  0
INSERT
  5
   82B
  8
0
  6
CONTINUOUS
 62
     7
  2
*UDIM153
 10
0.0
 20
0.0
 30
0.0
  0
INSERT
  5
   82C
  8
0
  6
CONTINUOUS
 62
     7
  2
*UDIM154
 10
0.0
 20
0.0
 30
0.0
  0
INSERT
  5
   82D
  8
0
  6
CONTINUOUS
 62
     7
  2
*UDIM155
 10
0.0
 20
0.0
 30
0.0
  0
INSERT
  5
   82E
  8
0
  6
CONTINUOUS
 62
     7
  2
*UDIM156
 10
0.0
 20
0.0
 30
0.0
  0
INSERT
  5
   82F
  8
0
  6
CONTINUOUS
 62
     7
  2
*UDIM157
 10
0.0
 20
0.0
 30
0.0
  0
INSERT
  5
   830
  8
0
  6
CONTINUOUS
 62
     7
  2
*UDIM158
 10
0.0
 20
0.0
 30
0.0
  0
INSERT
  5
   831
  8
0
  6
CONTINUOUS
 62
     7
  2
*UDIM159
 10
0.0
 20
0.0
 30
0.0
  0
INSERT
  5
   832
  8
0
  6
CONTINUOUS
 62
     7
  2
*UDIM160
 10
0.0
 20
0.0
 30
0.0
  0
INSERT
  5
   833
  8
0
  6
CONTINUOUS
 62
     7
  2
*UDIM161
 10
0.0
 20
0.0
 30
0.0
  0
TEXT
  5
   834
  8
0
  6
CONTINUOUS
 62
     7
 10
-303.264419327282
 20
14.9946975016645
 30
0.0
 40
3.00000002980232
  1
Y
 50
359.999999844103
 41
0.916666604744064
 72
     2
 11
-301.064419458412
 21
14.9946974956895
 31
0.0
  0
TEXT
  5
   835
  8
0
  6
CONTINUOUS
 62
     7
 10
-303.414416919254
 20
115.598144462114
 30
0.0
 40
3.00000002980232
  1
Y
 50
359.999999844103
 41
0.916666604744064
 72
     2
 11
-301.214417050384
 21
115.598144456139
 31
0.0
  0
TEXT
  5
   836
  8
0
  6
CONTINUOUS
 62
     7
 10
-249.61416996529
 20
63.7538452649167
 30
0.0
 40
3.00000002980232
  1
X
 50
359.999999844103
 41
0.916666604744064
 72
     2
 11
-247.41417009642
 21
63.7538452589418
 31
0.0
  0
LINE
  5
   837
  8
0
  6
CONTINUOUS
 62
     7
 10
-485.755249023438
 20
-91.2461459951799
 30
0.0
 11
-485.755249023438
 21
-115.162667481383
 31
0.0
  0
LINE
  5
   838
  8
0
  6
CONTINUOUS
 62
     7
 10
-487.755249023438
 20
-91.2461459951799
 30
0.0
 11
-487.755249023438
 21
-115.162667481383
 31
0.0
  0
LINE
  5
   839
  8
0
  6
DASHDOT
 62
     7
 10
-490.957852125835
 20
-103.204406738281
 30
0.0
 11
-482.531632933397
 21
-103.204406738281
 31
0.0
  0
POINT
  5
   83A
  8
0
  6
CONTINUOUS
 62
     7
 10
-487.755249023438
 20
-101.204406738281
 30
0.0
  0
POINT
  5
   83B
  8
0
  6
CONTINUOUS
 62
     7
 10
-487.755249023438
 20
-105.204406738281
 30
0.0
  0
LINE
  5
   83C
  8
0
  6
CONTINUOUS
 62
     7
 10
-485.755249023438
 20
-99.5262074759267
 30
0.0
 11
-487.755249023438
 21
-101.204406738281
 31
0.0
  0
LINE
  5
   83D
  8
0
  6
CONTINUOUS
 62
     7
 10
-487.755249023438
 20
-105.204406738281
 30
0.0
 11
-485.755249023438
 21
-106.882606000636
 31
0.0
  0
LINE
  5
   83E
  8
0
  6
CONTINUOUS
 62
     7
 10
-487.755249023438
 20
-112.704406738281
 30
0.0
 11
-485.755249023438
 21
-112.704406738281
 31
0.0
  0
CIRCLE
  5
   83F
  8
0
  6
CONTINUOUS
 62
     7
 10
-486.755249023438
 20
-103.204406738281
 30
0.0
 40
12.0
  0
LINE
  5
   840
  8
0
  6
CONTINUOUS
 62
     7
 10
-493.755241394043
 20
-107.704406738281
 30
0.0
 11
-491.255241394043
 21
-107.704406738281
 31
0.0
  0
LINE
  5
   841
  8
0
  6
CONTINUOUS
 62
     7
 10
-490.255241394043
 20
-98.7044067382813
 30
0.0
 11
-490.255241394043
 21
-106.704406738281
 31
0.0
  0
LINE
  5
   842
  8
0
  6
CONTINUOUS
 62
     7
 10
-490.255241394043
 20
-98.7044067382813
 30
0.0
 11
-487.755249023438
 21
-98.7044067382813
 31
0.0
  0
LINE
  5
   843
  8
0
  6
CONTINUOUS
 62
     7
 10
-493.755241394043
 20
-110.204406738281
 30
0.0
 11
-491.255241394043
 21
-110.204406738281
 31
0.0
  0
LINE
  5
   844
  8
0
  6
CONTINUOUS
 62
     7
 10
-494.755241394043
 20
-111.204406738281
 30
0.0
 11
-494.755241394043
 21
-112.148685472212
 31
0.0
  0
ARC
  5
   845
  8
0
  6
CONTINUOUS
 62
     7
 10
-491.255237246763
 20
-106.70440740962
 30
0.0
 40
0.999996977799109
 50
629.999840735313
 51
720.000252836193
  0
ARC
  5
   846
  8
0
  6
CONTINUOUS
 62
     7
 10
-493.755226740536
 20
-111.204419424586
 30
0.0
 40
3.50001845311552
 50
450.000186734275
 51
513.408761128067
  0
ARC
  5
   847
  8
0
  6
CONTINUOUS
 62
     7
 10
-493.755285642193
 20
-111.204365843499
 30
0.0
 40
0.999949821243504
 50
449.997764042825
 51
540.001169660043
  0
ARC
  5
   848
  8
0
  6
CONTINUOUS
 62
     7
 10
-491.255222041661
 20
-106.704438785216
 30
0.0
 40
3.49997105594423
 50
629.999653243441
 51
720.000420168909
  0
INSERT
  5
   849
  8
0
  6
CONTINUOUS
 62
     7
  2
*HATCH22
 10
-486.755249023438
 20
-103.204406738281
 30
0.0
 50
269.999999844103
  0
INSERT
  5
   84A
  8
0
  6
CONTINUOUS
 62
     7
  2
*HATCH23
 10
-486.755249023438
 20
-103.204406738281
 30
0.0
 50
269.999999844103
  0
TEXT
  5
   84B
  8
0
  6
CONTINUOUS
 62
     7
 10
-502.095972179726
 20
-80.9917755726502
 30
0.0
 40
4.00000017881393
  1
PART. Z
 50
359.999999844103
 41
0.915624995566905
 72
     1
 11
-489.643471688032
 21
-78.9917755170628
 31
0.0
 73
     2
  0
INSERT
  5
   84C
  8
0
  6
CONTINUOUS
 62
     7
  2
*UDIM162
 10
0.0
 20
0.0
 30
0.0
  0
INSERT
  5
   84D
  8
0
  6
CONTINUOUS
 62
     7
  2
*UDIM163
 10
0.0
 20
0.0
 30
0.0
  0
ENDSEC
  0
EOF
