  0
SECTION
  2
HEADER
  9
$ACADVER
  1
AC1009
999
I-DEAS Drafting Master Series 7m3 Not Encoded
  9
$EXTMIN
 10
0.0
 20
0.0
  9
$EXTMAX
 10
2.91E+002
 20
2.54E+002
  9
$TEXTSIZE
 40
1.25E-001
  9
$LTSCALE
 40
1.0
  9
$CLAYER
  8
1
  9
$CECOLOR
 62
1
  9
$DIMASZ
 40
1.25E-001
  9
$DIMEXO
 40
6.25E-002
  9
$DIMDLI
 40
2.5E-001
  9
$DIMEXE
 40
1.25E-001
  9
$DIMTP
 40
5.0E-003
  9
$DIMTM
 40
-5.0E-003
  9
$DIMTXT
 40
1.25E-001
  9
$DIMLIM
 70
0
  9
$DIMTIH
 70
1
  9
$DIMTOH
 70
1
  9
$DIMSE1
 70
0
  9
$DIMSE2
 70
0
  9
$DIMTAD
 70
0
  9
$DIMASO
 70
1
  9
$DIMALT
 70
0
  9
$DIMALTD
 70
0
  9
$DIMTOFL
 70
1
  9
$DIMTIX
 70
0
  9
$DIMSAH
 70
0
  9
$DIMTFAC
 40
1.0
  9
$DIMGAP
 40
6.25E-002
  9
$LUNITS
 70
2
  9
$LUPREC
 70
3
  9
$FILLETRAD
 40
2.5E-001
  9
$AUNITS
 70
0
  9
$AUPREC
 70
1
  9
$CHAMFERA
 40
2.5E-001
  9
$CHAMFERB
 40
2.5E-001
  9
$ANGBASE
 50
0.0
  9
$ANGDIR
 70
0
  9
$PDMODE
 70
2
  9
$PDSIZE
 40
-1.0E-002
  9
$SPLINETYPE
 70
6
  0
ENDSEC
  0
SECTION
  2
TABLES
  0
TABLE
  2
LTYPE
 70
13
  0
LTYPE
  2
HIDDENNEW00
  3
_ 
 70
64
 72
65
 73
2
 40
1.875E-001
 49
1.25E-001
 49
-6.25E-002
  0
LTYPE
  2
HIDDENNEW01
  3
_ 
 70
64
 72
65
 73
2
 40
1.875E-001
 49
1.25E-001
 49
-6.25E-002
  0
LTYPE
  2
HIDDEN
  3
_ 
 70
64
 72
65
 73
2
 40
1.875E-001
 49
1.25E-001
 49
-6.25E-002
  0
LTYPE
  2
CENTERLINE
  3
_ 
 70
64
 72
65
 73
4
 40
1.25
 49
1.0
 49
-6.25E-002
 49
1.25E-001
 49
-6.25E-002
  0
LTYPE
  2
PHANTOM
  3
_ 
 70
64
 72
65
 73
6
 40
1.1875
 49
7.5E-001
 49
-6.25E-002
 49
1.25E-001
 49
-6.25E-002
 49
1.25E-001
 49
-6.25E-002
  0
LTYPE
  2
SHORT_DASH
  3
_ 
 70
64
 72
65
 73
2
 40
1.25E-001
 49
6.25E-002
 49
-6.25E-002
  0
LTYPE
  2
LONG_DASH
  3
_ 
 70
64
 72
65
 73
2
 40
3.75E-001
 49
1.875E-001
 49
-1.875E-001
  0
LTYPE
  2
DASHED
  3
_ 
 70
64
 72
65
 73
2
 40
1.0
 49
7.5E-001
 49
-2.5E-001
  0
LTYPE
  2
CENTER
  3
_ 
 70
64
 72
65
 73
4
 40
2.625
 49
1.875
 49
-2.5E-001
 49
2.5E-001
 49
-2.5E-001
  0
LTYPE
  2
DOT
  3
_ 
 70
64
 72
65
 73
2
 40
2.5375E-001
 49
3.75E-003
 49
-2.5E-001
  0
LTYPE
  2
DASHDOT
  3
_ 
 70
64
 72
65
 73
4
 40
1.26
 49
7.5E-001
 49
-2.5E-001
 49
1.0E-002
 49
-2.5E-001
  0
LTYPE
  2
BORDER
  3
_ 
 70
64
 72
65
 73
6
 40
2.0175
 49
7.5E-001
 49
-2.5E-001
 49
5.0E-001
 49
-2.5E-001
 49
1.75E-002
 49
-2.5E-001
  0
LTYPE
  2
DIVIDE
  3
_ 
 70
64
 72
65
 73
6
 40
1.525
 49
7.5E-001
 49
-2.5E-001
 49
1.25E-002
 49
-2.5E-001
 49
1.25E-002
 49
-2.5E-001
  0
ENDTAB
  0
TABLE
  2
LAYER
 70
258
  0
LAYER
  2
1
 70
0
 62
7
  6
CONTINUOUS
  0
LAYER
  2
Drafting_Hidden_Entities
 70
1
 62
7
  6
CONTINUOUS
  0
ENDTAB
  0
TABLE
  2
STYLE
 70
1
  0
STYLE
  2
STANDARD
 70
64
 40
0.0
 41
1.0
 50
0.0
 71
0
 42
1.0
  3
monotxt.shx
  4

  0
ENDTAB
  0
TABLE
  2
VIEW
 70
0
  0
ENDTAB
  0
TABLE
  2
DIMSTYLE
 70
0
  0
ENDTAB
  0
ENDSEC
  0
SECTION
  2
BLOCKS
  0
ENDSEC
  0
SECTION
  2
ENTITIES
  0
LINE
  8
1
  6
CONTINUOUS
 62
40
 10
1.293E+002
 20
1.174E+002
 11
1.355E+002
 21
1.174E+002
  0
LINE
  8
1
  6
CONTINUOUS
 62
40
 10
1.293E+002
 20
3.1E+001
 11
1.355E+002
 21
3.1E+001
  0
LINE
  8
1
  6
CONTINUOUS
 62
40
 10
1.617E+002
 20
3.1E+001
 11
1.617E+002
 21
1.174E+002
  0
LINE
  8
1
  6
CONTINUOUS
 62
40
 10
1.293E+002
 20
3.1E+001
 11
1.293E+002
 21
1.174E+002
  0
LINE
  8
1
  6
CONTINUOUS
 62
40
 10
1.2875E+002
 20
1.14E+002
 11
1.293E+002
 21
1.14E+002
  0
LINE
  8
1
  6
CONTINUOUS
 62
40
 10
1.2875E+002
 20
1.05E+002
 11
1.293E+002
 21
1.05E+002
  0
LINE
  8
1
  6
CONTINUOUS
 62
40
 10
1.267E+002
 20
1.113E+002
 11
1.2725E+002
 21
1.113E+002
  0
LINE
  8
1
  6
CONTINUOUS
 62
40
 10
1.267E+002
 20
1.078E+002
 11
1.2725E+002
 21
1.078E+002
  0
LINE
  8
1
  6
CONTINUOUS
 62
40
 10
1.267E+002
 20
1.078E+002
 11
1.267E+002
 21
1.113E+002
  0
LINE
  8
1
  6
CONTINUOUS
 62
40
 10
1.617E+002
 20
1.14E+002
 11
1.6225E+002
 21
1.14E+002
  0
LINE
  8
1
  6
CONTINUOUS
 62
40
 10
1.617E+002
 20
1.05E+002
 11
1.6225E+002
 21
1.05E+002
  0
LINE
  8
1
  6
CONTINUOUS
 62
40
 10
1.2875E+002
 20
3.3E+001
 11
1.293E+002
 21
3.3E+001
  0
LINE
  8
1
  6
CONTINUOUS
 62
40
 10
1.2875E+002
 20
4.2E+001
 11
1.293E+002
 21
4.2E+001
  0
LINE
  8
1
  6
CONTINUOUS
 62
40
 10
1.617E+002
 20
3.3E+001
 11
1.6225E+002
 21
3.3E+001
  0
LINE
  8
1
  6
CONTINUOUS
 62
40
 10
1.617E+002
 20
4.2E+001
 11
1.6225E+002
 21
4.2E+001
  0
LINE
  8
1
  6
CONTINUOUS
 62
40
 10
1.455E+002
 20
1.38E+002
 11
1.555E+002
 21
1.38E+002
  0
LINE
  8
1
  6
CONTINUOUS
 62
40
 10
1.555E+002
 20
1.174E+002
 11
1.555E+002
 21
1.38E+002
  0
LINE
  8
1
  6
CONTINUOUS
 62
40
 10
1.355E+002
 20
1.38E+002
 11
1.455E+002
 21
1.38E+002
  0
LINE
  8
1
  6
CONTINUOUS
 62
40
 10
1.355E+002
 20
1.174E+002
 11
1.355E+002
 21
1.38E+002
  0
CIRCLE
  8
1
  6
CONTINUOUS
 62
40
 10
1.455E+002
 20
8.6E+001
 40
3.75
  0
CIRCLE
  8
1
  6
CONTINUOUS
 62
40
 10
1.455E+002
 20
6.1E+001
 40
3.75
  0
CIRCLE
  8
1
  6
CONTINUOUS
 62
40
 10
1.455E+002
 20
8.6E+001
 40
7.25
  0
CIRCLE
  8
1
  6
CONTINUOUS
 62
40
 10
1.455E+002
 20
6.1E+001
 40
7.25
  0
LINE
  8
1
  6
CONTINUOUS
 62
40
 10
1.643E+002
 20
3.48E+001
 11
1.643E+002
 21
4.02E+001
  0
LINE
  8
1
  6
CONTINUOUS
 62
40
 10
1.6375E+002
 20
3.48E+001
 11
1.643E+002
 21
3.48E+001
  0
LINE
  8
1
  6
CONTINUOUS
 62
40
 10
1.6375E+002
 20
4.02E+001
 11
1.643E+002
 21
4.02E+001
  0
LINE
  8
1
  6
CONTINUOUS
 62
40
 10
1.355E+002
 20
2.63E+001
 11
1.355E+002
 21
3.1E+001
  0
LINE
  8
1
  6
CONTINUOUS
 62
40
 10
1.555E+002
 20
2.63E+001
 11
1.555E+002
 21
3.1E+001
  0
LINE
  8
1
  6
CONTINUOUS
 62
40
 10
1.455E+002
 20
1.048E+002
 11
1.555E+002
 21
1.048E+002
  0
LINE
  8
1
  6
CONTINUOUS
 62
40
 10
1.5125E+002
 20
1.068E+002
 11
1.555E+002
 21
1.068E+002
  0
LINE
  8
1
  6
CONTINUOUS
 62
40
 10
1.48E+002
 20
1.16E+002
 11
1.555E+002
 21
1.16E+002
  0
LINE
  8
1
  6
CONTINUOUS
 62
40
 10
1.555E+002
 20
1.048E+002
 11
1.555E+002
 21
1.174E+002
  0
LINE
  8
1
  6
CONTINUOUS
 62
40
 10
1.48E+002
 20
1.106E+002
 11
1.48E+002
 21
1.16E+002
  0
LINE
  8
1
  6
CONTINUOUS
 62
40
 10
1.4975E+002
 20
9.68E+001
 11
1.4975E+002
 21
1.048E+002
  0
LINE
  8
1
  6
CONTINUOUS
 62
40
 10
1.455E+002
 20
9.68E+001
 11
1.4975E+002
 21
9.68E+001
  0
ARC
  8
1
  6
CONTINUOUS
 62
40
 10
1.5175E+002
 20
1.1225E+002
 40
3.0
 50
2.6041E+002
 51
5.7337E+002
  0
LINE
  8
1
  6
CONTINUOUS
 62
40
 10
1.5225E+002
 20
1.1025E+002
 11
1.5225E+002
 21
1.1175E+002
  0
LINE
  8
1
  6
CONTINUOUS
 62
40
 10
1.5125E+002
 20
1.085E+002
 11
1.5125E+002
 21
1.0975E+002
  0
LINE
  8
1
  6
CONTINUOUS
 62
40
 10
1.4975E+002
 20
1.1275E+002
 11
1.5125E+002
 21
1.1275E+002
  0
LINE
  8
1
  6
CONTINUOUS
 62
40
 10
1.4975E+002
 20
1.1175E+002
 11
1.5125E+002
 21
1.1175E+002
  0
LINE
  8
1
  6
CONTINUOUS
 62
40
 10
1.5375E+002
 20
1.1175E+002
 11
1.5375E+002
 21
1.1275E+002
  0
LINE
  8
1
  6
CONTINUOUS
 62
40
 10
1.4975E+002
 20
1.1175E+002
 11
1.4975E+002
 21
1.1275E+002
  0
LINE
  8
1
  6
CONTINUOUS
 62
40
 10
1.5125E+002
 20
1.1425E+002
 11
1.5225E+002
 21
1.1425E+002
  0
LINE
  8
1
  6
CONTINUOUS
 62
40
 10
1.5125E+002
 20
1.1025E+002
 11
1.5225E+002
 21
1.1025E+002
  0
LINE
  8
1
  6
CONTINUOUS
 62
40
 10
1.5125E+002
 20
1.1275E+002
 11
1.5125E+002
 21
1.1425E+002
  0
LINE
  8
1
  6
CONTINUOUS
 62
40
 10
1.5225E+002
 20
1.1275E+002
 11
1.5225E+002
 21
1.1425E+002
  0
LINE
  8
1
  6
CONTINUOUS
 62
40
 10
1.5225E+002
 20
1.1175E+002
 11
1.5375E+002
 21
1.1175E+002
  0
LINE
  8
1
  6
CONTINUOUS
 62
40
 10
1.5225E+002
 20
1.1275E+002
 11
1.5375E+002
 21
1.1275E+002
  0
LINE
  8
1
  6
CONTINUOUS
 62
40
 10
1.355E+002
 20
1.048E+002
 11
1.355E+002
 21
1.174E+002
  0
LINE
  8
1
  6
CONTINUOUS
 62
40
 10
1.355E+002
 20
1.048E+002
 11
1.455E+002
 21
1.048E+002
  0
LINE
  8
1
  6
CONTINUOUS
 62
40
 10
1.3975E+002
 20
1.056E+002
 11
1.3975E+002
 21
1.106E+002
  0
LINE
  8
1
  6
CONTINUOUS
 62
40
 10
1.4325E+002
 20
1.048E+002
 11
1.4325E+002
 21
1.106E+002
  0
LINE
  8
1
  6
CONTINUOUS
 62
40
 10
1.4125E+002
 20
9.68E+001
 11
1.4125E+002
 21
1.048E+002
  0
LINE
  8
1
  6
CONTINUOUS
 62
40
 10
1.4125E+002
 20
9.68E+001
 11
1.455E+002
 21
9.68E+001
  0
LINE
  8
1
  6
CONTINUOUS
 62
40
 10
1.355E+002
 20
1.068E+002
 11
1.3975E+002
 21
1.068E+002
  0
LINE
  8
1
  6
CONTINUOUS
 62
40
 10
1.4325E+002
 20
1.068E+002
 11
1.4775E+002
 21
1.068E+002
  0
LINE
  8
1
  6
CONTINUOUS
 62
40
 10
1.4125E+002
 20
4.22E+001
 11
1.4125E+002
 21
5.02E+001
  0
LINE
  8
1
  6
CONTINUOUS
 62
40
 10
1.4975E+002
 20
4.22E+001
 11
1.4975E+002
 21
5.02E+001
  0
LINE
  8
1
  6
CONTINUOUS
 62
40
 10
1.455E+002
 20
5.02E+001
 11
1.4975E+002
 21
5.02E+001
  0
LINE
  8
1
  6
CONTINUOUS
 62
40
 10
1.455E+002
 20
4.22E+001
 11
1.555E+002
 21
4.22E+001
  0
LINE
  8
1
  6
CONTINUOUS
 62
40
 10
1.355E+002
 20
4.22E+001
 11
1.455E+002
 21
4.22E+001
  0
LINE
  8
1
  6
CONTINUOUS
 62
40
 10
1.4125E+002
 20
5.02E+001
 11
1.455E+002
 21
5.02E+001
  0
LINE
  8
1
  6
CONTINUOUS
 62
40
 10
1.555E+002
 20
2.96E+001
 11
1.555E+002
 21
4.22E+001
  0
LINE
  8
1
  6
CONTINUOUS
 62
40
 10
1.355E+002
 20
2.96E+001
 11
1.355E+002
 21
4.22E+001
  0
LINE
  8
1
  6
CONTINUOUS
 62
40
 10
1.355E+002
 20
3.1E+001
 11
1.43E+002
 21
3.1E+001
  0
LINE
  8
1
  6
CONTINUOUS
 62
40
 10
1.43E+002
 20
3.1E+001
 11
1.43E+002
 21
3.64E+001
  0
ARC
  8
1
  6
CONTINUOUS
 62
40
 10
1.3925E+002
 20
3.475E+001
 40
3.0
 50
8.041E+001
 51
3.9337E+002
  0
LINE
  8
1
  6
CONTINUOUS
 62
40
 10
1.4325E+002
 20
4.02E+001
 11
1.4775E+002
 21
4.02E+001
  0
LINE
  8
1
  6
CONTINUOUS
 62
40
 10
1.355E+002
 20
4.02E+001
 11
1.3975E+002
 21
4.02E+001
  0
LINE
  8
1
  6
CONTINUOUS
 62
40
 10
1.5125E+002
 20
4.02E+001
 11
1.555E+002
 21
4.02E+001
  0
LINE
  8
1
  6
CONTINUOUS
 62
40
 10
1.3975E+002
 20
3.425E+001
 11
1.4125E+002
 21
3.425E+001
  0
LINE
  8
1
  6
CONTINUOUS
 62
40
 10
1.4125E+002
 20
3.425E+001
 11
1.4125E+002
 21
3.525E+001
  0
LINE
  8
1
  6
CONTINUOUS
 62
40
 10
1.3975E+002
 20
3.525E+001
 11
1.4125E+002
 21
3.525E+001
  0
LINE
  8
1
  6
CONTINUOUS
 62
40
 10
1.3975E+002
 20
3.525E+001
 11
1.3975E+002
 21
3.65E+001
  0
LINE
  8
1
  6
CONTINUOUS
 62
40
 10
1.3875E+002
 20
3.675E+001
 11
1.3975E+002
 21
3.675E+001
  0
LINE
  8
1
  6
CONTINUOUS
 62
40
 10
1.3875E+002
 20
3.525E+001
 11
1.3875E+002
 21
3.675E+001
  0
LINE
  8
1
  6
CONTINUOUS
 62
40
 10
1.3725E+002
 20
3.525E+001
 11
1.3875E+002
 21
3.525E+001
  0
LINE
  8
1
  6
CONTINUOUS
 62
40
 10
1.3725E+002
 20
3.425E+001
 11
1.3725E+002
 21
3.525E+001
  0
LINE
  8
1
  6
CONTINUOUS
 62
40
 10
1.3725E+002
 20
3.425E+001
 11
1.3875E+002
 21
3.425E+001
  0
LINE
  8
1
  6
CONTINUOUS
 62
40
 10
1.3875E+002
 20
3.275E+001
 11
1.3875E+002
 21
3.425E+001
  0
LINE
  8
1
  6
CONTINUOUS
 62
40
 10
1.3875E+002
 20
3.275E+001
 11
1.3975E+002
 21
3.275E+001
  0
LINE
  8
1
  6
CONTINUOUS
 62
40
 10
1.3975E+002
 20
3.275E+001
 11
1.3975E+002
 21
3.425E+001
  0
TEXT
  8
1
  6
CONTINUOUS
 62
40
 10
1.388688E+002
 20
7.464E+001
 40
1.8
  1
OFAX 00 P1L
 41
8.6590909E-001
  0
LINE
  8
1
  6
CONTINUOUS
 62
40
 10
1.555E+002
 20
1.174E+002
 11
1.617E+002
 21
1.174E+002
  0
LINE
  8
1
  6
CONTINUOUS
 62
40
 10
1.555E+002
 20
3.1E+001
 11
1.617E+002
 21
3.1E+001
  0
LINE
  8
1
  6
CONTINUOUS
 62
40
 10
1.3975E+002
 20
1.106E+002
 11
1.4325E+002
 21
1.106E+002
  0
LINE
  8
1
  6
CONTINUOUS
 62
40
 10
1.3975E+002
 20
1.056E+002
 11
1.4325E+002
 21
1.056E+002
  0
LINE
  8
1
  6
CONTINUOUS
 62
40
 10
1.5125E+002
 20
1.056E+002
 11
1.5125E+002
 21
1.1175E+002
  0
LINE
  8
1
  6
CONTINUOUS
 62
40
 10
1.4775E+002
 20
1.048E+002
 11
1.4775E+002
 21
1.106E+002
  0
LINE
  8
1
  6
CONTINUOUS
 62
40
 10
1.4775E+002
 20
1.106E+002
 11
1.5125E+002
 21
1.106E+002
  0
LINE
  8
1
  6
CONTINUOUS
 62
40
 10
1.4775E+002
 20
1.056E+002
 11
1.5125E+002
 21
1.056E+002
  0
LINE
  8
1
  6
CONTINUOUS
 62
40
 10
1.5125E+002
 20
1.088E+002
 11
1.555E+002
 21
1.088E+002
  0
LINE
  8
1
  6
CONTINUOUS
 62
40
 10
1.355E+002
 20
3.82E+001
 11
1.3975E+002
 21
3.82E+001
  0
LINE
  8
1
  6
CONTINUOUS
 62
40
 10
1.5125E+002
 20
3.64E+001
 11
1.5125E+002
 21
4.14E+001
  0
LINE
  8
1
  6
CONTINUOUS
 62
40
 10
1.4775E+002
 20
3.64E+001
 11
1.4775E+002
 21
4.22E+001
  0
LINE
  8
1
  6
CONTINUOUS
 62
40
 10
1.4775E+002
 20
4.14E+001
 11
1.5125E+002
 21
4.14E+001
  0
LINE
  8
1
  6
CONTINUOUS
 62
40
 10
1.4775E+002
 20
3.64E+001
 11
1.5125E+002
 21
3.64E+001
  0
LINE
  8
1
  6
CONTINUOUS
 62
40
 10
1.3975E+002
 20
3.64E+001
 11
1.4325E+002
 21
3.64E+001
  0
LINE
  8
1
  6
CONTINUOUS
 62
40
 10
1.3975E+002
 20
3.525E+001
 11
1.3975E+002
 21
4.14E+001
  0
LINE
  8
1
  6
CONTINUOUS
 62
40
 10
1.3975E+002
 20
4.14E+001
 11
1.4325E+002
 21
4.14E+001
  0
LINE
  8
1
  6
CONTINUOUS
 62
40
 10
1.4325E+002
 20
3.64E+001
 11
1.4325E+002
 21
4.22E+001
  0
LINE
  8
1
  6
CONTINUOUS
 62
40
 10
1.617E+002
 20
1.585E+002
 11
1.617E+002
 21
1.84E+002
  0
LINE
  8
1
  6
CONTINUOUS
 62
40
 10
1.293E+002
 20
1.585E+002
 11
1.293E+002
 21
1.84E+002
  0
LINE
  8
1
  6
CONTINUOUS
 62
40
 10
1.293E+002
 20
1.585E+002
 11
1.617E+002
 21
1.585E+002
  0
LINE
  8
1
  6
CONTINUOUS
 62
40
 10
1.293E+002
 20
1.84E+002
 11
1.617E+002
 21
1.84E+002
  0
LINE
  8
1
  6
CONTINUOUS
 62
40
 10
1.38E+002
 20
1.84E+002
 11
1.53E+002
 21
1.84E+002
  0
LINE
  8
1
  6
CONTINUOUS
 62
40
 10
1.38E+002
 20
1.82E+002
 11
1.53E+002
 21
1.82E+002
  0
LINE
  8
1
  6
CONTINUOUS
 62
40
 10
1.355E+002
 20
1.82E+002
 11
1.355E+002
 21
1.84E+002
  0
LINE
  8
1
  6
CONTINUOUS
 62
40
 10
1.555E+002
 20
1.82E+002
 11
1.555E+002
 21
1.84E+002
  0
LINE
  8
1
  6
CONTINUOUS
 62
40
 10
1.355E+002
 20
1.82E+002
 11
1.555E+002
 21
1.82E+002
  0
LINE
  8
1
  6
CONTINUOUS
 62
40
 10
1.643E+002
 20
1.72E+002
 11
1.643E+002
 21
1.76E+002
  0
LINE
  8
1
  6
CONTINUOUS
 62
40
 10
1.617E+002
 20
1.82E+002
 11
1.6225E+002
 21
1.82E+002
  0
LINE
  8
1
  6
CONTINUOUS
 62
40
 10
1.617E+002
 20
1.67E+002
 11
1.6375E+002
 21
1.67E+002
  0
LINE
  8
1
  6
CONTINUOUS
 62
40
 10
1.2875E+002
 20
1.82E+002
 11
1.293E+002
 21
1.82E+002
  0
LINE
  8
1
  6
CONTINUOUS
 62
40
 10
1.2725E+002
 20
1.67E+002
 11
1.293E+002
 21
1.67E+002
  0
LINE
  8
1
  6
CONTINUOUS
 62
40
 10
1.6375E+002
 20
1.76E+002
 11
1.643E+002
 21
1.76E+002
  0
LINE
  8
1
  6
CONTINUOUS
 62
40
 10
1.6375E+002
 20
1.72E+002
 11
1.643E+002
 21
1.72E+002
  0
LINE
  8
1
  6
CONTINUOUS
 62
40
 10
1.4325E+002
 20
2.04E+002
 11
1.4325E+002
 21
2.195E+002
  0
LINE
  8
1
  6
CONTINUOUS
 62
40
 10
1.4125E+002
 20
2.04E+002
 11
1.4325E+002
 21
2.04E+002
  0
LINE
  8
1
  6
CONTINUOUS
 62
40
 10
1.36E+002
 20
2.1429E+002
 11
1.4125E+002
 21
2.1738E+002
  0
LINE
  8
1
  6
CONTINUOUS
 62
40
 10
1.4125E+002
 20
2.04E+002
 11
1.4125E+002
 21
2.1895E+002
  0
LINE
  8
1
  6
CONTINUOUS
 62
40
 10
1.3975E+002
 20
2.22E+002
 11
1.4096E+002
 21
2.1998E+002
  0
LINE
  8
1
  6
CONTINUOUS
 62
40
 10
1.4146E+002
 20
2.2303E+002
 11
1.4296E+002
 21
2.2053E+002
  0
LINE
  8
1
  6
CONTINUOUS
 62
40
 10
1.3975E+002
 20
2.22E+002
 11
1.4146E+002
 21
2.2303E+002
  0
LINE
  8
1
  6
CONTINUOUS
 62
40
 10
1.4225E+002
 20
2.02E+002
 11
1.45E+002
 21
2.02E+002
  0
ARC
  8
1
  6
CONTINUOUS
 62
40
 10
1.4225E+002
 20
2.03E+002
 40
1.0
 50
9.0E+001
 51
1.8E+002
  0
ARC
  8
1
  6
CONTINUOUS
 62
40
 10
1.4225E+002
 20
2.03E+002
 40
1.0
 50
1.8E+002
 51
2.7E+002
  0
LINE
  8
1
  6
CENTERLINE
 62
40
 10
1.36E+002
 20
2.1145E+002
 11
1.36E+002
 21
2.1429E+002
  0
LINE
  8
1
  6
CONTINUOUS
 62
40
 10
1.355E+002
 20
1.84E+002
 11
1.36E+002
 21
2.1429E+002
  0
LINE
  8
1
  6
CONTINUOUS
 62
40
 10
1.375E+002
 20
1.91E+002
 11
1.375E+002
 21
2.15E+002
  0
LINE
  8
1
  6
CONTINUOUS
 62
40
 10
1.415E+002
 20
1.89E+002
 11
1.455E+002
 21
1.89E+002
  0
LINE
  8
1
  6
CONTINUOUS
 62
40
 10
1.4239E+002
 20
1.94E+002
 11
1.455E+002
 21
1.94E+002
  0
LINE
  8
1
  6
CONTINUOUS
 62
40
 10
1.375E+002
 20
2.15E+002
 11
1.3965E+002
 21
2.1578E+002
  0
LINE
  8
1
  6
CONTINUOUS
 62
40
 10
1.407E+002
 20
2.1555E+002
 11
1.4125E+002
 21
2.15E+002
  0
LINE
  8
1
  6
CONTINUOUS
 62
40
 10
1.3954E+002
 20
2.117E+002
 11
1.404E+002
 21
1.9589E+002
  0
LINE
  8
1
  6
CONTINUOUS
 62
40
 10
1.4027E+002
 20
2.1272E+002
 11
1.4125E+002
 21
2.13E+002
  0
LINE
  8
1
  6
CONTINUOUS
 62
40
 10
1.375E+002
 20
1.91E+002
 11
1.415E+002
 21
1.89E+002
  0
ARC
  8
1
  6
CONTINUOUS
 62
40
 10
1.4239E+002
 20
1.96E+002
 40
2.0
 50
1.8309E+002
 51
2.7E+002
  0
ARC
  8
1
  6
CONTINUOUS
 62
40
 10
1.4054E+002
 20
2.1176E+002
 40
1.0
 50
1.0595E+002
 51
1.8309E+002
  0
ARC
  8
1
  6
CONTINUOUS
 62
40
 10
1.3999E+002
 20
2.1484E+002
 40
1.0
 50
4.5E+001
 51
1.0998E+002
  0
ARC
  8
1
  6
CONTINUOUS
 62
40
 10
1.4125E+002
 20
2.195E+002
 40
2.0
 50
0.0
 51
3.096E+001
  0
ARC
  8
1
  6
CONTINUOUS
 62
40
 10
1.3925E+002
 20
2.1895E+002
 40
2.0
 50
0.0
 51
3.096E+001
  0
LINE
  8
1
  6
CONTINUOUS
 62
40
 10
1.4775E+002
 20
2.04E+002
 11
1.4775E+002
 21
2.195E+002
  0
ARC
  8
1
  6
CONTINUOUS
 62
40
 10
1.4975E+002
 20
2.195E+002
 40
2.0
 50
1.4904E+002
 51
1.8E+002
  0
LINE
  8
1
  6
CONTINUOUS
 62
40
 10
1.4804E+002
 20
2.2053E+002
 11
1.4954E+002
 21
2.2303E+002
  0
LINE
  8
1
  6
CONTINUOUS
 62
40
 10
1.4954E+002
 20
2.2303E+002
 11
1.5125E+002
 21
2.22E+002
  0
ARC
  8
1
  6
CONTINUOUS
 62
40
 10
1.5175E+002
 20
2.1895E+002
 40
2.0
 50
1.4904E+002
 51
1.8E+002
  0
LINE
  8
1
  6
CONTINUOUS
 62
40
 10
1.5004E+002
 20
2.1998E+002
 11
1.5125E+002
 21
2.22E+002
  0
LINE
  8
1
  6
CONTINUOUS
 62
40
 10
1.4975E+002
 20
2.04E+002
 11
1.4975E+002
 21
2.1895E+002
  0
LINE
  8
1
  6
CONTINUOUS
 62
40
 10
1.4975E+002
 20
2.1738E+002
 11
1.55E+002
 21
2.1429E+002
  0
LINE
  8
1
  6
CONTINUOUS
 62
40
 10
1.5135E+002
 20
2.1578E+002
 11
1.535E+002
 21
2.15E+002
  0
ARC
  8
1
  6
CONTINUOUS
 62
40
 10
1.5101E+002
 20
2.1484E+002
 40
1.0
 50
7.002E+001
 51
1.35E+002
  0
LINE
  8
1
  6
CONTINUOUS
 62
40
 10
1.4975E+002
 20
2.15E+002
 11
1.503E+002
 21
2.1555E+002
  0
ARC
  8
1
  6
CONTINUOUS
 62
40
 10
1.5046E+002
 20
2.1176E+002
 40
1.0
 50
3.5691E+002
 51
4.3405E+002
  0
LINE
  8
1
  6
CONTINUOUS
 62
40
 10
1.4975E+002
 20
2.13E+002
 11
1.5073E+002
 21
2.1272E+002
  0
LINE
  8
1
  6
CONTINUOUS
 62
40
 10
1.506E+002
 20
1.9589E+002
 11
1.5146E+002
 21
2.117E+002
  0
LINE
  8
1
  6
CONTINUOUS
 62
40
 10
1.535E+002
 20
1.91E+002
 11
1.535E+002
 21
2.15E+002
  0
LINE
  8
1
  6
CONTINUOUS
 62
40
 10
1.55E+002
 20
2.1429E+002
 11
1.555E+002
 21
1.84E+002
  0
LINE
  8
1
  6
CONTINUOUS
 62
40
 10
1.495E+002
 20
1.89E+002
 11
1.535E+002
 21
1.91E+002
  0
LINE
  8
1
  6
CONTINUOUS
 62
40
 10
1.495E+002
 20
1.84E+002
 11
1.495E+002
 21
1.89E+002
  0
LINE
  8
1
  6
CONTINUOUS
 62
40
 10
1.455E+002
 20
1.89E+002
 11
1.495E+002
 21
1.89E+002
  0
LINE
  8
1
  6
CONTINUOUS
 62
40
 10
1.455E+002
 20
1.94E+002
 11
1.4861E+002
 21
1.94E+002
  0
ARC
  8
1
  6
CONTINUOUS
 62
40
 10
1.4861E+002
 20
1.96E+002
 40
2.0
 50
2.7E+002
 51
3.5691E+002
  0
LINE
  8
1
  6
CONTINUOUS
 62
40
 10
1.4775E+002
 20
2.04E+002
 11
1.4975E+002
 21
2.04E+002
  0
ARC
  8
1
  6
CONTINUOUS
 62
40
 10
1.4875E+002
 20
2.03E+002
 40
1.0
 50
0.0
 51
9.0E+001
  0
ARC
  8
1
  6
CONTINUOUS
 62
40
 10
1.4875E+002
 20
2.03E+002
 40
1.0
 50
2.7E+002
 51
3.6E+002
  0
LINE
  8
1
  6
CONTINUOUS
 62
40
 10
1.46E+002
 20
1.94E+002
 11
1.46E+002
 21
2.02E+002
  0
LINE
  8
1
  6
CONTINUOUS
 62
40
 10
1.45E+002
 20
1.94E+002
 11
1.45E+002
 21
2.02E+002
  0
LINE
  8
1
  6
CONTINUOUS
 62
40
 10
1.46E+002
 20
2.02E+002
 11
1.4875E+002
 21
2.02E+002
  0
LINE
  8
1
  6
CONTINUOUS
 62
40
 10
1.4225E+002
 20
1.87E+002
 11
1.4225E+002
 21
1.88E+002
  0
LINE
  8
1
  6
CONTINUOUS
 62
40
 10
1.3625E+002
 20
1.87E+002
 11
1.3625E+002
 21
1.88E+002
  0
LINE
  8
1
  6
CONTINUOUS
 62
40
 10
1.43E+002
 20
1.84E+002
 11
1.43E+002
 21
1.87E+002
  0
LINE
  8
1
  6
CONTINUOUS
 62
40
 10
1.355E+002
 20
1.87E+002
 11
1.43E+002
 21
1.87E+002
  0
LINE
  8
1
  6
CONTINUOUS
 62
40
 10
1.3725E+002
 20
1.89E+002
 11
1.4125E+002
 21
1.89E+002
  0
ARC
  8
1
  6
CONTINUOUS
 62
40
 10
1.3725E+002
 20
1.88E+002
 40
1.0
 50
9.0E+001
 51
1.8E+002
  0
ARC
  8
1
  6
CONTINUOUS
 62
40
 10
1.4125E+002
 20
1.88E+002
 40
1.0
 50
0.0
 51
9.0E+001
  0
LINE
  8
1
  6
CONTINUOUS
 62
40
 10
1.3875E+002
 20
1.875E+002
 11
1.3975E+002
 21
1.875E+002
  0
LINE
  8
1
  6
CONTINUOUS
 62
40
 10
1.3975E+002
 20
1.875E+002
 11
1.3975E+002
 21
1.89E+002
  0
LINE
  8
1
  6
CONTINUOUS
 62
40
 10
1.3875E+002
 20
1.875E+002
 11
1.3875E+002
 21
1.89E+002
  0
LINE
  8
1
  6
LONG_DASH
 62
40
 10
3.8E+001
 20
1.088E+002
 11
6.5E+001
 21
1.088E+002
  0
LINE
  8
1
  6
LONG_DASH
 62
40
 10
6.5E+001
 20
1.068E+002
 11
6.5E+001
 21
1.088E+002
  0
LINE
  8
1
  6
LONG_DASH
 62
40
 10
3.8E+001
 20
1.068E+002
 11
3.8E+001
 21
1.088E+002
  0
LINE
  8
1
  6
CONTINUOUS
 62
40
 10
8.7E+001
 20
9.5E+001
 11
9.4E+001
 21
9.5E+001
  0
LINE
  8
1
  6
CONTINUOUS
 62
40
 10
8.7E+001
 20
5.2E+001
 11
9.4E+001
 21
5.2E+001
  0
LINE
  8
1
  6
CONTINUOUS
 62
40
 10
9.55E+001
 20
3.1E+001
 11
9.55E+001
 21
3.82E+001
  0
LINE
  8
1
  6
LONG_DASH
 62
40
 10
7.0E+001
 20
1.174E+002
 11
8.7E+001
 21
1.174E+002
  0
LINE
  8
1
  6
LONG_DASH
 62
40
 10
7.0E+001
 20
3.1E+001
 11
8.7E+001
 21
3.1E+001
  0
LINE
  8
1
  6
LONG_DASH
 62
40
 10
7.0E+001
 20
1.38E+002
 11
7.2E+001
 21
1.38E+002
  0
LINE
  8
1
  6
LONG_DASH
 62
40
 10
7.0E+001
 20
9.0
 11
7.2E+001
 21
9.0
  0
LINE
  8
1
  6
LONG_DASH
 62
40
 10
7.0E+001
 20
3.1E+001
 11
7.0E+001
 21
4.4E+001
  0
LINE
  8
1
  6
CONTINUOUS
 62
40
 10
9.2E+001
 20
1.144E+002
 11
9.2E+001
 21
1.174E+002
  0
LINE
  8
1
  6
LONG_DASH
 62
40
 10
7.2E+001
 20
1.174E+002
 11
7.2E+001
 21
1.38E+002
  0
LINE
  8
1
  6
LONG_DASH
 62
40
 10
7.0E+001
 20
1.174E+002
 11
7.0E+001
 21
1.38E+002
  0
LINE
  8
1
  6
LONG_DASH
 62
40
 10
7.2E+001
 20
9.0
 11
7.2E+001
 21
3.1E+001
  0
LINE
  8
1
  6
LONG_DASH
 62
40
 10
7.0E+001
 20
9.0
 11
7.0E+001
 21
3.1E+001
  0
LINE
  8
1
  6
LONG_DASH
 62
40
 10
3.15E+001
 20
1.106E+002
 11
5.0E+001
 21
1.106E+002
  0
LINE
  8
1
  6
LONG_DASH
 62
40
 10
3.75E+001
 20
1.048E+002
 11
7.0E+001
 21
1.048E+002
  0
LINE
  8
1
  6
LONG_DASH
 62
40
 10
3.15E+001
 20
1.056E+002
 11
3.75E+001
 21
1.056E+002
  0
LINE
  8
1
  6
LONG_DASH
 62
40
 10
3.75E+001
 20
1.068E+002
 11
7.0E+001
 21
1.068E+002
  0
LINE
  8
1
  6
LONG_DASH
 62
40
 10
3.75E+001
 20
1.048E+002
 11
3.75E+001
 21
1.068E+002
  0
LINE
  8
1
  6
LONG_DASH
 62
40
 10
3.15E+001
 20
1.056E+002
 11
3.15E+001
 21
1.106E+002
  0
LINE
  8
1
  6
LONG_DASH
 62
40
 10
5.0E+001
 20
1.088E+002
 11
5.0E+001
 21
1.106E+002
  0
LINE
  8
1
  6
LONG_DASH
 62
40
 10
6.8E+001
 20
1.16E+002
 11
7.0E+001
 21
1.16E+002
  0
LINE
  8
1
  6
LONG_DASH
 62
40
 10
6.8E+001
 20
1.088E+002
 11
7.0E+001
 21
1.088E+002
  0
LINE
  8
1
  6
LONG_DASH
 62
40
 10
6.5E+001
 20
1.104E+002
 11
6.5E+001
 21
1.144E+002
  0
LINE
  8
1
  6
LONG_DASH
 62
40
 10
6.7E+001
 20
1.124E+002
 11
6.8E+001
 21
1.16E+002
  0
LINE
  8
1
  6
LONG_DASH
 62
40
 10
6.7E+001
 20
1.124E+002
 11
6.8E+001
 21
1.088E+002
  0
LINE
  8
1
  6
LONG_DASH
 62
40
 10
6.908E+001
 20
1.124E+002
 11
7.0E+001
 21
1.1573E+002
  0
LINE
  8
1
  6
LONG_DASH
 62
40
 10
6.908E+001
 20
1.124E+002
 11
7.0E+001
 21
1.0907E+002
  0
LINE
  8
1
  6
LONG_DASH
 62
40
 10
6.6E+001
 20
1.154E+002
 11
6.7E+001
 21
1.154E+002
  0
LINE
  8
1
  6
CONTINUOUS
 62
40
 10
6.6E+001
 20
1.094E+002
 11
6.7E+001
 21
1.094E+002
  0
LINE
  8
1
  6
LONG_DASH
 62
40
 10
6.7E+001
 20
1.094E+002
 11
6.7E+001
 21
1.154E+002
  0
ARC
  8
1
  6
LONG_DASH
 62
40
 10
6.6E+001
 20
1.144E+002
 40
1.0
 50
9.0E+001
 51
1.8E+002
  0
ARC
  8
1
  6
LONG_DASH
 62
40
 10
6.6E+001
 20
1.104E+002
 40
1.0
 50
1.8E+002
 51
2.7E+002
  0
LINE
  8
1
  6
CONTINUOUS
 62
40
 10
7.0E+001
 20
1.03E+002
 11
7.2E+001
 21
1.03E+002
  0
LINE
  8
1
  6
CONTINUOUS
 62
40
 10
7.0E+001
 20
4.4E+001
 11
7.2E+001
 21
4.4E+001
  0
LINE
  8
1
  6
CONTINUOUS
 62
40
 10
8.7E+001
 20
3.3E+001
 11
8.7E+001
 21
5.2E+001
  0
LINE
  8
1
  6
CONTINUOUS
 62
40
 10
8.7E+001
 20
3.53E+001
 11
9.55E+001
 21
3.53E+001
  0
LINE
  8
1
  6
CONTINUOUS
 62
40
 10
9.12E+001
 20
3.53E+001
 11
9.12E+001
 21
3.82E+001
  0
LINE
  8
1
  6
CONTINUOUS
 62
40
 10
9.12E+001
 20
3.82E+001
 11
9.55E+001
 21
3.82E+001
  0
LINE
  8
1
  6
LONG_DASH
 62
40
 10
7.2E+001
 20
4.4E+001
 11
7.2E+001
 21
1.03E+002
  0
LINE
  8
1
  6
CONTINUOUS
 62
40
 10
7.0E+001
 20
1.03E+002
 11
7.0E+001
 21
1.174E+002
  0
LINE
  8
1
  6
CONTINUOUS
 62
40
 10
9.55E+001
 20
5.35E+001
 11
9.55E+001
 21
9.35E+001
  0
LINE
  8
1
  6
CONTINUOUS
 62
40
 10
8.7E+001
 20
1.131E+002
 11
9.03E+001
 21
1.131E+002
  0
LINE
  8
1
  6
CONTINUOUS
 62
40
 10
8.7E+001
 20
6.05E+001
 11
8.7E+001
 21
8.65E+001
  0
LINE
  8
1
  6
CONTINUOUS
 62
40
 10
8.7E+001
 20
9.5E+001
 11
8.7E+001
 21
1.14E+002
  0
LINE
  8
1
  6
CONTINUOUS
 62
40
 10
9.03E+001
 20
1.131E+002
 11
9.2E+001
 21
1.144E+002
  0
LINE
  8
1
  6
CONTINUOUS
 62
40
 10
9.5E+001
 20
1.134E+002
 11
9.5E+001
 21
1.174E+002
  0
LINE
  8
1
  6
CONTINUOUS
 62
40
 10
9.0E+001
 20
1.104E+002
 11
9.0E+001
 21
1.131E+002
  0
LINE
  8
1
  6
CONTINUOUS
 62
40
 10
9.0E+001
 20
1.104E+002
 11
9.5E+001
 21
1.134E+002
  0
LINE
  8
1
  6
CONTINUOUS
 62
40
 10
8.7E+001
 20
8.65E+001
 11
9.481E+001
 21
9.156E+001
  0
LINE
  8
1
  6
CONTINUOUS
 62
40
 10
9.55E+001
 20
9.282E+001
 11
9.55E+001
 21
9.35E+001
  0
ARC
  8
1
  6
CONTINUOUS
 62
40
 10
9.4E+001
 20
9.282E+001
 40
1.5
 50
3.0291E+002
 51
3.6E+002
  0
ARC
  8
1
  6
CONTINUOUS
 62
40
 10
9.4E+001
 20
9.35E+001
 40
1.5
 50
0.0
 51
9.0E+001
  0
LINE
  8
1
  6
CONTINUOUS
 62
40
 10
8.7E+001
 20
6.05E+001
 11
9.481E+001
 21
5.544E+001
  0
ARC
  8
1
  6
CONTINUOUS
 62
40
 10
9.4E+001
 20
5.35E+001
 40
1.5
 50
2.7E+002
 51
3.6E+002
  0
ARC
  8
1
  6
CONTINUOUS
 62
40
 10
9.4E+001
 20
5.418E+001
 40
1.5
 50
0.0
 51
5.709E+001
  0
LINE
  8
1
  6
CONTINUOUS
 62
40
 10
7.2E+001
 20
1.14E+002
 11
8.7E+001
 21
1.14E+002
  0
LINE
  8
1
  6
CONTINUOUS
 62
40
 10
7.2E+001
 20
1.05E+002
 11
8.7E+001
 21
1.05E+002
  0
LINE
  8
1
  6
CONTINUOUS
 62
40
 10
7.2E+001
 20
3.3E+001
 11
7.2E+001
 21
4.2E+001
  0
LINE
  8
1
  6
CONTINUOUS
 62
40
 10
7.2E+001
 20
4.2E+001
 11
8.7E+001
 21
4.2E+001
  0
LINE
  8
1
  6
CONTINUOUS
 62
40
 10
7.8E+001
 20
4.02E+001
 11
8.2E+001
 21
4.02E+001
  0
LINE
  8
1
  6
CONTINUOUS
 62
40
 10
7.8E+001
 20
3.48E+001
 11
8.2E+001
 21
3.48E+001
  0
LINE
  8
1
  6
CONTINUOUS
 62
40
 10
7.2E+001
 20
3.3E+001
 11
8.7E+001
 21
3.3E+001
  0
LINE
  8
1
  6
CONTINUOUS
 62
40
 10
7.2E+001
 20
1.05E+002
 11
7.2E+001
 21
1.14E+002
  0
LINE
  8
1
  6
CONTINUOUS
 62
40
 10
8.2E+001
 20
3.48E+001
 11
8.2E+001
 21
4.02E+001
  0
LINE
  8
1
  6
CONTINUOUS
 62
40
 10
7.8E+001
 20
3.48E+001
 11
7.8E+001
 21
4.02E+001
  0
LINE
  8
1
  6
LONG_DASH
 62
40
 10
3.15E+001
 20
3.64E+001
 11
5.0E+001
 21
3.64E+001
  0
LINE
  8
1
  6
LONG_DASH
 62
40
 10
3.75E+001
 20
4.22E+001
 11
7.0E+001
 21
4.22E+001
  0
LINE
  8
1
  6
LONG_DASH
 62
40
 10
3.15E+001
 20
4.14E+001
 11
3.75E+001
 21
4.14E+001
  0
LINE
  8
1
  6
LONG_DASH
 62
40
 10
3.75E+001
 20
4.02E+001
 11
7.0E+001
 21
4.02E+001
  0
LINE
  8
1
  6
LONG_DASH
 62
40
 10
3.75E+001
 20
4.02E+001
 11
3.75E+001
 21
4.22E+001
  0
LINE
  8
1
  6
LONG_DASH
 62
40
 10
3.15E+001
 20
3.64E+001
 11
3.15E+001
 21
4.14E+001
  0
LINE
  8
1
  6
LONG_DASH
 62
40
 10
6.8E+001
 20
3.1E+001
 11
7.0E+001
 21
3.1E+001
  0
LINE
  8
1
  6
LONG_DASH
 62
40
 10
6.8E+001
 20
3.82E+001
 11
7.0E+001
 21
3.82E+001
  0
LINE
  8
1
  6
LONG_DASH
 62
40
 10
6.5E+001
 20
3.26E+001
 11
6.5E+001
 21
3.66E+001
  0
LINE
  8
1
  6
LONG_DASH
 62
40
 10
6.7E+001
 20
3.46E+001
 11
6.8E+001
 21
3.1E+001
  0
LINE
  8
1
  6
LONG_DASH
 62
40
 10
6.7E+001
 20
3.46E+001
 11
6.8E+001
 21
3.82E+001
  0
LINE
  8
1
  6
CONTINUOUS
 62
40
 10
6.6E+001
 20
3.16E+001
 11
6.7E+001
 21
3.16E+001
  0
LINE
  8
1
  6
CONTINUOUS
 62
40
 10
6.6E+001
 20
3.76E+001
 11
6.7E+001
 21
3.76E+001
  0
LINE
  8
1
  6
LONG_DASH
 62
40
 10
6.7E+001
 20
3.16E+001
 11
6.7E+001
 21
3.76E+001
  0
ARC
  8
1
  6
LONG_DASH
 62
40
 10
6.6E+001
 20
3.26E+001
 40
1.0
 50
1.8E+002
 51
2.7E+002
  0
ARC
  8
1
  6
LONG_DASH
 62
40
 10
6.6E+001
 20
3.66E+001
 40
1.0
 50
9.0E+001
 51
1.8E+002
  0
LINE
  8
1
  6
LONG_DASH
 62
40
 10
6.908E+001
 20
3.46E+001
 11
7.0E+001
 21
3.127E+001
  0
LINE
  8
1
  6
LONG_DASH
 62
40
 10
6.908E+001
 20
3.46E+001
 11
7.0E+001
 21
3.793E+001
  0
LINE
  8
1
  6
LONG_DASH
 62
40
 10
3.8E+001
 20
3.82E+001
 11
3.8E+001
 21
4.02E+001
  0
LINE
  8
1
  6
LONG_DASH
 62
40
 10
3.8E+001
 20
3.82E+001
 11
6.5E+001
 21
3.82E+001
  0
LINE
  8
1
  6
LONG_DASH
 62
40
 10
6.5E+001
 20
3.82E+001
 11
6.5E+001
 21
4.02E+001
  0
LINE
  8
1
  6
CONTINUOUS
 62
40
 10
5.0E+001
 20
3.64E+001
 11
5.0E+001
 21
3.82E+001
  0
ARC
  8
1
  6
CONTINUOUS
 62
40
 10
1.455E+002
 20
1.275E+002
 40
4.5
 50
0.0
 51
1.8E+002
  0
ARC
  8
1
  6
CONTINUOUS
 62
40
 10
1.455E+002
 20
1.235E+002
 40
4.5
 50
1.8E+002
 51
3.6E+002
  0
LINE
  8
1
  6
CONTINUOUS
 62
40
 10
1.5E+002
 20
1.235E+002
 11
1.5E+002
 21
1.275E+002
  0
LINE
  8
1
  6
CONTINUOUS
 62
40
 10
1.41E+002
 20
1.235E+002
 11
1.41E+002
 21
1.275E+002
  0
ARC
  8
1
  6
CONTINUOUS
 62
40
 10
1.455E+002
 20
2.35E+001
 40
4.5
 50
0.0
 51
1.8E+002
  0
ARC
  8
1
  6
CONTINUOUS
 62
40
 10
1.455E+002
 20
1.95E+001
 40
4.5
 50
1.8E+002
 51
3.6E+002
  0
LINE
  8
1
  6
CONTINUOUS
 62
40
 10
1.5E+002
 20
1.95E+001
 11
1.5E+002
 21
2.35E+001
  0
LINE
  8
1
  6
CONTINUOUS
 62
40
 10
1.41E+002
 20
1.95E+001
 11
1.41E+002
 21
2.35E+001
  0
LINE
  8
1
  6
CONTINUOUS
 62
40
 10
1.355E+002
 20
9.0
 11
1.355E+002
 21
2.96E+001
  0
LINE
  8
1
  6
CONTINUOUS
 62
40
 10
1.555E+002
 20
9.0
 11
1.555E+002
 21
2.96E+001
  0
LINE
  8
1
  6
CONTINUOUS
 62
40
 10
1.455E+002
 20
9.0
 11
1.555E+002
 21
9.0
  0
LINE
  8
1
  6
CONTINUOUS
 62
40
 10
1.355E+002
 20
9.0
 11
1.455E+002
 21
9.0
  0
LINE
  8
1
  6
CONTINUOUS
 62
40
 10
1.5E+002
 20
1.82E+002
 11
1.5E+002
 21
1.84E+002
  0
LINE
  8
1
  6
CONTINUOUS
 62
40
 10
1.41E+002
 20
1.82E+002
 11
1.41E+002
 21
1.84E+002
  0
LINE
  8
1
  6
LONG_DASH
 62
40
 10
6.653E+001
 20
1.255E+002
 11
7.569E+001
 21
1.255E+002
  0
LINE
  8
1
  6
LONG_DASH
 62
40
 10
6.653E+001
 20
2.15E+001
 11
7.569E+001
 21
2.15E+001
  0
LINE
  8
1
  6
LONG_DASH
 62
40
 10
7.0E+001
 20
1.32E+002
 11
7.2E+001
 21
1.32E+002
  0
LINE
  8
1
  6
LONG_DASH
 62
40
 10
7.0E+001
 20
1.19E+002
 11
7.2E+001
 21
1.19E+002
  0
LINE
  8
1
  6
LONG_DASH
 62
40
 10
7.0E+001
 20
2.8E+001
 11
7.2E+001
 21
2.8E+001
  0
LINE
  8
1
  6
LONG_DASH
 62
40
 10
7.0E+001
 20
1.5E+001
 11
7.2E+001
 21
1.5E+001
  0
LINE
  8
1
  6
CONTINUOUS
 62
40
 10
8.7E+001
 20
1.174E+002
 11
9.5E+001
 21
1.174E+002
  0
LINE
  8
1
  6
CONTINUOUS
 62
40
 10
8.7E+001
 20
3.1E+001
 11
9.55E+001
 21
3.1E+001
  0
LINE
  8
1
  6
CONTINUOUS
 62
40
 10
1.2725E+002
 20
1.46E+002
 11
1.2875E+002
 21
1.46E+002
  0
LINE
  8
1
  6
CONTINUOUS
 62
40
 10
1.2875E+002
 20
1.0
 11
1.2875E+002
 21
1.46E+002
  0
LINE
  8
1
  6
CONTINUOUS
 62
40
 10
1.2725E+002
 20
1.0
 11
1.2725E+002
 21
1.46E+002
  0
LINE
  8
1
  6
CONTINUOUS
 62
40
 10
1.2725E+002
 20
1.0
 11
1.2875E+002
 21
1.0
  0
LINE
  8
1
  6
CONTINUOUS
 62
40
 10
1.6225E+002
 20
1.0
 11
1.6375E+002
 21
1.0
  0
LINE
  8
1
  6
CONTINUOUS
 62
40
 10
1.6225E+002
 20
1.0
 11
1.6225E+002
 21
1.46E+002
  0
LINE
  8
1
  6
CONTINUOUS
 62
40
 10
1.6375E+002
 20
1.0
 11
1.6375E+002
 21
1.46E+002
  0
LINE
  8
1
  6
CONTINUOUS
 62
40
 10
1.6225E+002
 20
1.46E+002
 11
1.6375E+002
 21
1.46E+002
  0
ARC
  8
1
  6
CONTINUOUS
 62
40
 10
8.6E+001
 20
1.45E+002
 40
1.0
 50
0.0
 51
9.0E+001
  0
LINE
  8
1
  6
CONTINUOUS
 62
40
 10
8.7E+001
 20
1.14E+002
 11
8.7E+001
 21
1.45E+002
  0
LINE
  8
1
  6
CONTINUOUS
 62
40
 10
7.1E+001
 20
1.15E+002
 11
8.7E+001
 21
1.15E+002
  0
LINE
  8
1
  6
CONTINUOUS
 62
40
 10
7.1E+001
 20
1.04E+002
 11
7.1E+001
 21
1.15E+002
  0
LINE
  8
1
  6
CONTINUOUS
 62
40
 10
7.1E+001
 20
1.04E+002
 11
8.7E+001
 21
1.04E+002
  0
LINE
  8
1
  6
CONTINUOUS
 62
40
 10
8.7E+001
 20
6.05E+001
 11
8.7E+001
 21
8.65E+001
  0
LINE
  8
1
  6
CONTINUOUS
 62
40
 10
7.1E+001
 20
4.3E+001
 11
8.7E+001
 21
4.3E+001
  0
LINE
  8
1
  6
CONTINUOUS
 62
40
 10
7.1E+001
 20
3.2E+001
 11
7.1E+001
 21
4.3E+001
  0
LINE
  8
1
  6
CONTINUOUS
 62
40
 10
7.1E+001
 20
3.2E+001
 11
8.7E+001
 21
3.2E+001
  0
LINE
  8
1
  6
CONTINUOUS
 62
40
 10
8.7E+001
 20
2.0
 11
8.7E+001
 21
3.3E+001
  0
ARC
  8
1
  6
CONTINUOUS
 62
40
 10
8.6E+001
 20
2.0
 40
1.0
 50
2.7E+002
 51
3.6E+002
  0
LINE
  8
1
  6
CONTINUOUS
 62
40
 10
1.8E+001
 20
1.0
 11
8.6E+001
 21
1.0
  0
ARC
  8
1
  6
CONTINUOUS
 62
40
 10
1.8E+001
 20
2.0
 40
1.0
 50
1.8E+002
 51
2.7E+002
  0
LINE
  8
1
  6
CONTINUOUS
 62
40
 10
1.7E+001
 20
2.0
 11
1.7E+001
 21
3.54E+001
  0
ARC
  8
1
  6
CONTINUOUS
 62
40
 10
1.6E+001
 20
3.54E+001
 40
1.0
 50
0.0
 51
6.156E+001
  0
LINE
  8
1
  6
CONTINUOUS
 62
40
 10
5.52
 20
4.222E+001
 11
1.648E+001
 21
3.628E+001
  0
ARC
  8
1
  6
CONTINUOUS
 62
40
 10
6.0
 20
4.31E+001
 40
1.0
 50
1.8E+002
 51
2.4156E+002
  0
LINE
  8
1
  6
CONTINUOUS
 62
40
 10
5.0
 20
4.31E+001
 11
5.0
 21
6.838E+001
  0
ARC
  8
1
  6
CONTINUOUS
 62
40
 10
4.0
 20
6.838E+001
 40
1.0
 50
0.0
 51
6.343E+001
  0
LINE
  8
1
  6
CONTINUOUS
 62
40
 10
1.55
 20
7.072E+001
 11
4.45
 21
6.928E+001
  0
ARC
  8
1
  6
CONTINUOUS
 62
40
 10
2.0
 20
7.162E+001
 40
1.0
 50
1.8E+002
 51
2.4343E+002
  0
LINE
  8
1
  6
CONTINUOUS
 62
40
 10
1.0
 20
7.162E+001
 11
1.0
 21
7.35E+001
  0
LINE
  8
1
  6
CONTINUOUS
 62
40
 10
1.0
 20
7.35E+001
 11
1.0
 21
7.538E+001
  0
ARC
  8
1
  6
CONTINUOUS
 62
40
 10
2.0
 20
7.538E+001
 40
1.0
 50
1.1657E+002
 51
1.8E+002
  0
LINE
  8
1
  6
CONTINUOUS
 62
40
 10
1.55
 20
7.628E+001
 11
4.45
 21
7.772E+001
  0
ARC
  8
1
  6
CONTINUOUS
 62
40
 10
4.0
 20
7.862E+001
 40
1.0
 50
2.9657E+002
 51
3.6E+002
  0
CIRCLE
  8
1
  6
CONTINUOUS
 62
40
 10
5.0
 20
7.35E+001
 40
1.0
  0
LINE
  8
1
  6
CONTINUOUS
 62
40
 10
5.0
 20
7.862E+001
 11
5.0
 21
1.039E+002
  0
ARC
  8
1
  6
CONTINUOUS
 62
40
 10
6.0
 20
1.039E+002
 40
1.0
 50
1.1844E+002
 51
1.8E+002
  0
LINE
  8
1
  6
CONTINUOUS
 62
40
 10
5.52
 20
1.0478E+002
 11
1.648E+001
 21
1.1072E+002
  0
ARC
  8
1
  6
CONTINUOUS
 62
40
 10
1.6E+001
 20
1.116E+002
 40
1.0
 50
2.9844E+002
 51
3.6E+002
  0
LINE
  8
1
  6
CONTINUOUS
 62
40
 10
1.7E+001
 20
1.116E+002
 11
1.7E+001
 21
1.45E+002
  0
ARC
  8
1
  6
CONTINUOUS
 62
40
 10
1.8E+001
 20
1.45E+002
 40
1.0
 50
9.0E+001
 51
1.8E+002
  0
LINE
  8
1
  6
CONTINUOUS
 62
40
 10
1.8E+001
 20
1.46E+002
 11
8.6E+001
 21
1.46E+002
  0
LINE
  8
1
  6
CONTINUOUS
 62
40
 10
4.12E+001
 20
8.0E+001
 11
4.12E+001
 21
8.35E+001
  0
LINE
  8
1
  6
CONTINUOUS
 62
40
 10
4.12E+001
 20
8.35E+001
 11
6.86E+001
 21
8.35E+001
  0
LINE
  8
1
  6
CONTINUOUS
 62
40
 10
4.12E+001
 20
8.0E+001
 11
6.86E+001
 21
8.0E+001
  0
LINE
  8
1
  6
CONTINUOUS
 62
40
 10
6.86E+001
 20
8.0E+001
 11
6.86E+001
 21
8.35E+001
  0
LINE
  8
1
  6
CONTINUOUS
 62
40
 10
4.12E+001
 20
7.8E+001
 11
6.86E+001
 21
7.8E+001
  0
LINE
  8
1
  6
CONTINUOUS
 62
40
 10
4.12E+001
 20
7.45E+001
 11
4.12E+001
 21
7.8E+001
  0
LINE
  8
1
  6
CONTINUOUS
 62
40
 10
4.12E+001
 20
7.45E+001
 11
6.86E+001
 21
7.45E+001
  0
LINE
  8
1
  6
CONTINUOUS
 62
40
 10
6.86E+001
 20
7.45E+001
 11
6.86E+001
 21
7.8E+001
  0
LINE
  8
1
  6
CONTINUOUS
 62
40
 10
4.12E+001
 20
7.25E+001
 11
6.86E+001
 21
7.25E+001
  0
LINE
  8
1
  6
CONTINUOUS
 62
40
 10
6.86E+001
 20
6.9E+001
 11
6.86E+001
 21
7.25E+001
  0
LINE
  8
1
  6
CONTINUOUS
 62
40
 10
4.12E+001
 20
6.9E+001
 11
6.86E+001
 21
6.9E+001
  0
LINE
  8
1
  6
CONTINUOUS
 62
40
 10
4.12E+001
 20
6.9E+001
 11
4.12E+001
 21
7.25E+001
  0
LINE
  8
1
  6
CONTINUOUS
 62
40
 10
4.12E+001
 20
6.7E+001
 11
6.86E+001
 21
6.7E+001
  0
LINE
  8
1
  6
CONTINUOUS
 62
40
 10
4.12E+001
 20
6.35E+001
 11
4.12E+001
 21
6.7E+001
  0
LINE
  8
1
  6
CONTINUOUS
 62
40
 10
4.12E+001
 20
6.35E+001
 11
6.86E+001
 21
6.35E+001
  0
LINE
  8
1
  6
CONTINUOUS
 62
40
 10
6.86E+001
 20
6.35E+001
 11
6.86E+001
 21
6.7E+001
  0
LINE
  8
1
  6
CONTINUOUS
 62
40
 10
1.2725E+002
 20
2.37E+002
 11
1.2875E+002
 21
2.37E+002
  0
LINE
  8
1
  6
CONTINUOUS
 62
40
 10
1.6225E+002
 20
2.37E+002
 11
1.6375E+002
 21
2.37E+002
  0
LINE
  8
1
  6
CONTINUOUS
 62
40
 10
1.6225E+002
 20
2.49E+002
 11
1.6375E+002
 21
2.49E+002
  0
LINE
  8
1
  6
CONTINUOUS
 62
40
 10
1.2725E+002
 20
2.49E+002
 11
1.2875E+002
 21
2.49E+002
  0
LINE
  8
1
  6
CONTINUOUS
 62
40
 10
1.2725E+002
 20
2.53E+002
 11
1.2875E+002
 21
2.53E+002
  0
LINE
  8
1
  6
CONTINUOUS
 62
40
 10
1.6225E+002
 20
2.53E+002
 11
1.6375E+002
 21
2.53E+002
  0
LINE
  8
1
  6
CONTINUOUS
 62
40
 10
1.2725E+002
 20
1.67E+002
 11
1.2725E+002
 21
2.53E+002
  0
LINE
  8
1
  6
CONTINUOUS
 62
40
 10
1.2875E+002
 20
1.67E+002
 11
1.2875E+002
 21
2.53E+002
  0
LINE
  8
1
  6
CONTINUOUS
 62
40
 10
1.6225E+002
 20
1.67E+002
 11
1.6225E+002
 21
2.53E+002
  0
LINE
  8
1
  6
CONTINUOUS
 62
40
 10
1.6375E+002
 20
1.67E+002
 11
1.6375E+002
 21
2.53E+002
  0
LINE
  8
1
  6
LONG_DASH
 62
40
 10
2.26E+002
 20
1.088E+002
 11
2.53E+002
 21
1.088E+002
  0
LINE
  8
1
  6
LONG_DASH
 62
40
 10
2.26E+002
 20
1.068E+002
 11
2.26E+002
 21
1.088E+002
  0
LINE
  8
1
  6
LONG_DASH
 62
40
 10
2.53E+002
 20
1.068E+002
 11
2.53E+002
 21
1.088E+002
  0
LINE
  8
1
  6
CONTINUOUS
 62
40
 10
1.97E+002
 20
9.5E+001
 11
2.04E+002
 21
9.5E+001
  0
LINE
  8
1
  6
CONTINUOUS
 62
40
 10
1.97E+002
 20
5.2E+001
 11
2.04E+002
 21
5.2E+001
  0
LINE
  8
1
  6
CONTINUOUS
 62
40
 10
1.955E+002
 20
3.1E+001
 11
1.955E+002
 21
3.82E+001
  0
LINE
  8
1
  6
LONG_DASH
 62
40
 10
2.04E+002
 20
1.174E+002
 11
2.21E+002
 21
1.174E+002
  0
LINE
  8
1
  6
LONG_DASH
 62
40
 10
2.04E+002
 20
3.1E+001
 11
2.21E+002
 21
3.1E+001
  0
LINE
  8
1
  6
LONG_DASH
 62
40
 10
2.19E+002
 20
1.38E+002
 11
2.21E+002
 21
1.38E+002
  0
LINE
  8
1
  6
LONG_DASH
 62
40
 10
2.19E+002
 20
9.0
 11
2.21E+002
 21
9.0
  0
LINE
  8
1
  6
LONG_DASH
 62
40
 10
2.21E+002
 20
3.1E+001
 11
2.21E+002
 21
4.4E+001
  0
LINE
  8
1
  6
CONTINUOUS
 62
40
 10
1.99E+002
 20
1.144E+002
 11
1.99E+002
 21
1.174E+002
  0
LINE
  8
1
  6
LONG_DASH
 62
40
 10
2.19E+002
 20
1.174E+002
 11
2.19E+002
 21
1.38E+002
  0
LINE
  8
1
  6
LONG_DASH
 62
40
 10
2.21E+002
 20
1.174E+002
 11
2.21E+002
 21
1.38E+002
  0
LINE
  8
1
  6
LONG_DASH
 62
40
 10
2.19E+002
 20
9.0
 11
2.19E+002
 21
3.1E+001
  0
LINE
  8
1
  6
LONG_DASH
 62
40
 10
2.21E+002
 20
9.0
 11
2.21E+002
 21
3.1E+001
  0
LINE
  8
1
  6
LONG_DASH
 62
40
 10
2.41E+002
 20
1.106E+002
 11
2.595E+002
 21
1.106E+002
  0
LINE
  8
1
  6
LONG_DASH
 62
40
 10
2.21E+002
 20
1.048E+002
 11
2.535E+002
 21
1.048E+002
  0
LINE
  8
1
  6
LONG_DASH
 62
40
 10
2.535E+002
 20
1.056E+002
 11
2.595E+002
 21
1.056E+002
  0
LINE
  8
1
  6
LONG_DASH
 62
40
 10
2.21E+002
 20
1.068E+002
 11
2.535E+002
 21
1.068E+002
  0
LINE
  8
1
  6
LONG_DASH
 62
40
 10
2.535E+002
 20
1.048E+002
 11
2.535E+002
 21
1.068E+002
  0
LINE
  8
1
  6
LONG_DASH
 62
40
 10
2.595E+002
 20
1.056E+002
 11
2.595E+002
 21
1.106E+002
  0
LINE
  8
1
  6
LONG_DASH
 62
40
 10
2.41E+002
 20
1.088E+002
 11
2.41E+002
 21
1.106E+002
  0
LINE
  8
1
  6
LONG_DASH
 62
40
 10
2.21E+002
 20
1.16E+002
 11
2.23E+002
 21
1.16E+002
  0
LINE
  8
1
  6
LONG_DASH
 62
40
 10
2.21E+002
 20
1.088E+002
 11
2.23E+002
 21
1.088E+002
  0
LINE
  8
1
  6
LONG_DASH
 62
40
 10
2.26E+002
 20
1.104E+002
 11
2.26E+002
 21
1.144E+002
  0
LINE
  8
1
  6
LONG_DASH
 62
40
 10
2.23E+002
 20
1.16E+002
 11
2.24E+002
 21
1.124E+002
  0
LINE
  8
1
  6
LONG_DASH
 62
40
 10
2.23E+002
 20
1.088E+002
 11
2.24E+002
 21
1.124E+002
  0
LINE
  8
1
  6
LONG_DASH
 62
40
 10
2.21E+002
 20
1.1573E+002
 11
2.2192E+002
 21
1.124E+002
  0
LINE
  8
1
  6
LONG_DASH
 62
40
 10
2.21E+002
 20
1.0907E+002
 11
2.2192E+002
 21
1.124E+002
  0
LINE
  8
1
  6
LONG_DASH
 62
40
 10
2.24E+002
 20
1.154E+002
 11
2.25E+002
 21
1.154E+002
  0
LINE
  8
1
  6
CONTINUOUS
 62
40
 10
2.24E+002
 20
1.094E+002
 11
2.25E+002
 21
1.094E+002
  0
LINE
  8
1
  6
LONG_DASH
 62
40
 10
2.24E+002
 20
1.094E+002
 11
2.24E+002
 21
1.154E+002
  0
ARC
  8
1
  6
LONG_DASH
 62
40
 10
2.25E+002
 20
1.144E+002
 40
1.0
 50
0.0
 51
9.0E+001
  0
ARC
  8
1
  6
LONG_DASH
 62
40
 10
2.25E+002
 20
1.104E+002
 40
1.0
 50
2.7E+002
 51
3.6E+002
  0
LINE
  8
1
  6
CONTINUOUS
 62
40
 10
2.19E+002
 20
1.03E+002
 11
2.21E+002
 21
1.03E+002
  0
LINE
  8
1
  6
CONTINUOUS
 62
40
 10
2.19E+002
 20
4.4E+001
 11
2.21E+002
 21
4.4E+001
  0
LINE
  8
1
  6
CONTINUOUS
 62
40
 10
2.04E+002
 20
3.3E+001
 11
2.04E+002
 21
5.2E+001
  0
LINE
  8
1
  6
CONTINUOUS
 62
40
 10
1.955E+002
 20
3.53E+001
 11
2.04E+002
 21
3.53E+001
  0
LINE
  8
1
  6
CONTINUOUS
 62
40
 10
1.998E+002
 20
3.53E+001
 11
1.998E+002
 21
3.82E+001
  0
LINE
  8
1
  6
CONTINUOUS
 62
40
 10
1.955E+002
 20
3.82E+001
 11
1.998E+002
 21
3.82E+001
  0
LINE
  8
1
  6
LONG_DASH
 62
40
 10
2.19E+002
 20
4.4E+001
 11
2.19E+002
 21
1.03E+002
  0
LINE
  8
1
  6
CONTINUOUS
 62
40
 10
2.21E+002
 20
1.03E+002
 11
2.21E+002
 21
1.174E+002
  0
LINE
  8
1
  6
CONTINUOUS
 62
40
 10
1.955E+002
 20
5.35E+001
 11
1.955E+002
 21
9.35E+001
  0
LINE
  8
1
  6
CONTINUOUS
 62
40
 10
2.007E+002
 20
1.131E+002
 11
2.04E+002
 21
1.131E+002
  0
LINE
  8
1
  6
CONTINUOUS
 62
40
 10
2.04E+002
 20
6.05E+001
 11
2.04E+002
 21
8.65E+001
  0
LINE
  8
1
  6
CONTINUOUS
 62
40
 10
2.04E+002
 20
9.5E+001
 11
2.04E+002
 21
1.14E+002
  0
LINE
  8
1
  6
CONTINUOUS
 62
40
 10
1.99E+002
 20
1.144E+002
 11
2.007E+002
 21
1.131E+002
  0
LINE
  8
1
  6
CONTINUOUS
 62
40
 10
1.96E+002
 20
1.134E+002
 11
1.96E+002
 21
1.174E+002
  0
LINE
  8
1
  6
CONTINUOUS
 62
40
 10
2.01E+002
 20
1.104E+002
 11
2.01E+002
 21
1.131E+002
  0
LINE
  8
1
  6
CONTINUOUS
 62
40
 10
1.96E+002
 20
1.134E+002
 11
2.01E+002
 21
1.104E+002
  0
LINE
  8
1
  6
CONTINUOUS
 62
40
 10
1.9619E+002
 20
9.156E+001
 11
2.04E+002
 21
8.65E+001
  0
LINE
  8
1
  6
CONTINUOUS
 62
40
 10
1.955E+002
 20
9.282E+001
 11
1.955E+002
 21
9.35E+001
  0
ARC
  8
1
  6
CONTINUOUS
 62
40
 10
1.97E+002
 20
9.282E+001
 40
1.5
 50
1.8E+002
 51
2.3709E+002
  0
ARC
  8
1
  6
CONTINUOUS
 62
40
 10
1.97E+002
 20
9.35E+001
 40
1.5
 50
9.0E+001
 51
1.8E+002
  0
LINE
  8
1
  6
CONTINUOUS
 62
40
 10
1.9619E+002
 20
5.544E+001
 11
2.04E+002
 21
6.05E+001
  0
ARC
  8
1
  6
CONTINUOUS
 62
40
 10
1.97E+002
 20
5.35E+001
 40
1.5
 50
1.8E+002
 51
2.7E+002
  0
ARC
  8
1
  6
CONTINUOUS
 62
40
 10
1.97E+002
 20
5.418E+001
 40
1.5
 50
1.2291E+002
 51
1.8E+002
  0
LINE
  8
1
  6
CONTINUOUS
 62
40
 10
2.04E+002
 20
1.14E+002
 11
2.19E+002
 21
1.14E+002
  0
LINE
  8
1
  6
CONTINUOUS
 62
40
 10
2.04E+002
 20
1.05E+002
 11
2.19E+002
 21
1.05E+002
  0
LINE
  8
1
  6
CONTINUOUS
 62
40
 10
2.19E+002
 20
3.3E+001
 11
2.19E+002
 21
4.2E+001
  0
LINE
  8
1
  6
CONTINUOUS
 62
40
 10
2.04E+002
 20
4.2E+001
 11
2.19E+002
 21
4.2E+001
  0
LINE
  8
1
  6
CONTINUOUS
 62
40
 10
2.09E+002
 20
4.02E+001
 11
2.13E+002
 21
4.02E+001
  0
LINE
  8
1
  6
CONTINUOUS
 62
40
 10
2.09E+002
 20
3.48E+001
 11
2.13E+002
 21
3.48E+001
  0
LINE
  8
1
  6
CONTINUOUS
 62
40
 10
2.04E+002
 20
3.3E+001
 11
2.19E+002
 21
3.3E+001
  0
LINE
  8
1
  6
CONTINUOUS
 62
40
 10
2.19E+002
 20
1.05E+002
 11
2.19E+002
 21
1.14E+002
  0
LINE
  8
1
  6
CONTINUOUS
 62
40
 10
2.09E+002
 20
3.48E+001
 11
2.09E+002
 21
4.02E+001
  0
LINE
  8
1
  6
CONTINUOUS
 62
40
 10
2.13E+002
 20
3.48E+001
 11
2.13E+002
 21
4.02E+001
  0
LINE
  8
1
  6
LONG_DASH
 62
40
 10
2.41E+002
 20
3.64E+001
 11
2.595E+002
 21
3.64E+001
  0
LINE
  8
1
  6
LONG_DASH
 62
40
 10
2.21E+002
 20
4.22E+001
 11
2.535E+002
 21
4.22E+001
  0
LINE
  8
1
  6
LONG_DASH
 62
40
 10
2.535E+002
 20
4.14E+001
 11
2.595E+002
 21
4.14E+001
  0
LINE
  8
1
  6
LONG_DASH
 62
40
 10
2.21E+002
 20
4.02E+001
 11
2.535E+002
 21
4.02E+001
  0
LINE
  8
1
  6
LONG_DASH
 62
40
 10
2.535E+002
 20
4.02E+001
 11
2.535E+002
 21
4.22E+001
  0
LINE
  8
1
  6
LONG_DASH
 62
40
 10
2.595E+002
 20
3.64E+001
 11
2.595E+002
 21
4.14E+001
  0
LINE
  8
1
  6
LONG_DASH
 62
40
 10
2.21E+002
 20
3.1E+001
 11
2.23E+002
 21
3.1E+001
  0
LINE
  8
1
  6
LONG_DASH
 62
40
 10
2.21E+002
 20
3.82E+001
 11
2.23E+002
 21
3.82E+001
  0
LINE
  8
1
  6
LONG_DASH
 62
40
 10
2.26E+002
 20
3.26E+001
 11
2.26E+002
 21
3.66E+001
  0
LINE
  8
1
  6
LONG_DASH
 62
40
 10
2.23E+002
 20
3.1E+001
 11
2.24E+002
 21
3.46E+001
  0
LINE
  8
1
  6
LONG_DASH
 62
40
 10
2.23E+002
 20
3.82E+001
 11
2.24E+002
 21
3.46E+001
  0
LINE
  8
1
  6
CONTINUOUS
 62
40
 10
2.24E+002
 20
3.16E+001
 11
2.25E+002
 21
3.16E+001
  0
LINE
  8
1
  6
CONTINUOUS
 62
40
 10
2.24E+002
 20
3.76E+001
 11
2.25E+002
 21
3.76E+001
  0
LINE
  8
1
  6
LONG_DASH
 62
40
 10
2.24E+002
 20
3.16E+001
 11
2.24E+002
 21
3.76E+001
  0
ARC
  8
1
  6
LONG_DASH
 62
40
 10
2.25E+002
 20
3.26E+001
 40
1.0
 50
2.7E+002
 51
3.6E+002
  0
ARC
  8
1
  6
LONG_DASH
 62
40
 10
2.25E+002
 20
3.66E+001
 40
1.0
 50
0.0
 51
9.0E+001
  0
LINE
  8
1
  6
LONG_DASH
 62
40
 10
2.21E+002
 20
3.127E+001
 11
2.2192E+002
 21
3.46E+001
  0
LINE
  8
1
  6
LONG_DASH
 62
40
 10
2.21E+002
 20
3.793E+001
 11
2.2192E+002
 21
3.46E+001
  0
LINE
  8
1
  6
LONG_DASH
 62
40
 10
2.53E+002
 20
3.82E+001
 11
2.53E+002
 21
4.02E+001
  0
LINE
  8
1
  6
LONG_DASH
 62
40
 10
2.26E+002
 20
3.82E+001
 11
2.53E+002
 21
3.82E+001
  0
LINE
  8
1
  6
LONG_DASH
 62
40
 10
2.26E+002
 20
3.82E+001
 11
2.26E+002
 21
4.02E+001
  0
LINE
  8
1
  6
CONTINUOUS
 62
40
 10
2.41E+002
 20
3.64E+001
 11
2.41E+002
 21
3.82E+001
  0
LINE
  8
1
  6
LONG_DASH
 62
40
 10
2.1531E+002
 20
1.255E+002
 11
2.2447E+002
 21
1.255E+002
  0
LINE
  8
1
  6
LONG_DASH
 62
40
 10
2.1531E+002
 20
2.15E+001
 11
2.2447E+002
 21
2.15E+001
  0
LINE
  8
1
  6
LONG_DASH
 62
40
 10
2.19E+002
 20
1.32E+002
 11
2.21E+002
 21
1.32E+002
  0
LINE
  8
1
  6
LONG_DASH
 62
40
 10
2.19E+002
 20
1.19E+002
 11
2.21E+002
 21
1.19E+002
  0
LINE
  8
1
  6
LONG_DASH
 62
40
 10
2.19E+002
 20
2.8E+001
 11
2.21E+002
 21
2.8E+001
  0
LINE
  8
1
  6
LONG_DASH
 62
40
 10
2.19E+002
 20
1.5E+001
 11
2.21E+002
 21
1.5E+001
  0
LINE
  8
1
  6
CONTINUOUS
 62
40
 10
1.96E+002
 20
1.174E+002
 11
2.04E+002
 21
1.174E+002
  0
LINE
  8
1
  6
CONTINUOUS
 62
40
 10
1.955E+002
 20
3.1E+001
 11
2.04E+002
 21
3.1E+001
  0
ARC
  8
1
  6
CONTINUOUS
 62
40
 10
2.05E+002
 20
1.45E+002
 40
1.0
 50
9.0E+001
 51
1.8E+002
  0
LINE
  8
1
  6
CONTINUOUS
 62
40
 10
2.04E+002
 20
1.14E+002
 11
2.04E+002
 21
1.45E+002
  0
LINE
  8
1
  6
CONTINUOUS
 62
40
 10
2.04E+002
 20
1.15E+002
 11
2.2E+002
 21
1.15E+002
  0
LINE
  8
1
  6
CONTINUOUS
 62
40
 10
2.2E+002
 20
1.04E+002
 11
2.2E+002
 21
1.15E+002
  0
LINE
  8
1
  6
CONTINUOUS
 62
40
 10
2.04E+002
 20
1.04E+002
 11
2.2E+002
 21
1.04E+002
  0
LINE
  8
1
  6
CONTINUOUS
 62
40
 10
2.04E+002
 20
6.05E+001
 11
2.04E+002
 21
8.65E+001
  0
LINE
  8
1
  6
CONTINUOUS
 62
40
 10
2.04E+002
 20
4.3E+001
 11
2.2E+002
 21
4.3E+001
  0
LINE
  8
1
  6
CONTINUOUS
 62
40
 10
2.2E+002
 20
3.2E+001
 11
2.2E+002
 21
4.3E+001
  0
LINE
  8
1
  6
CONTINUOUS
 62
40
 10
2.04E+002
 20
3.2E+001
 11
2.2E+002
 21
3.2E+001
  0
LINE
  8
1
  6
CONTINUOUS
 62
40
 10
2.04E+002
 20
2.0
 11
2.04E+002
 21
3.3E+001
  0
ARC
  8
1
  6
CONTINUOUS
 62
40
 10
2.05E+002
 20
2.0
 40
1.0
 50
1.8E+002
 51
2.7E+002
  0
LINE
  8
1
  6
CONTINUOUS
 62
40
 10
2.05E+002
 20
1.0
 11
2.73E+002
 21
1.0
  0
ARC
  8
1
  6
CONTINUOUS
 62
40
 10
2.73E+002
 20
2.0
 40
1.0
 50
2.7E+002
 51
3.6E+002
  0
LINE
  8
1
  6
CONTINUOUS
 62
40
 10
2.74E+002
 20
2.0
 11
2.74E+002
 21
3.54E+001
  0
ARC
  8
1
  6
CONTINUOUS
 62
40
 10
2.75E+002
 20
3.54E+001
 40
1.0
 50
1.1844E+002
 51
1.8E+002
  0
LINE
  8
1
  6
CONTINUOUS
 62
40
 10
2.7452E+002
 20
3.628E+001
 11
2.8548E+002
 21
4.222E+001
  0
ARC
  8
1
  6
CONTINUOUS
 62
40
 10
2.85E+002
 20
4.31E+001
 40
1.0
 50
2.9844E+002
 51
3.6E+002
  0
LINE
  8
1
  6
CONTINUOUS
 62
40
 10
2.86E+002
 20
4.31E+001
 11
2.86E+002
 21
6.838E+001
  0
ARC
  8
1
  6
CONTINUOUS
 62
40
 10
2.87E+002
 20
6.838E+001
 40
1.0
 50
1.1657E+002
 51
1.8E+002
  0
LINE
  8
1
  6
CONTINUOUS
 62
40
 10
2.8655E+002
 20
6.928E+001
 11
2.8945E+002
 21
7.072E+001
  0
ARC
  8
1
  6
CONTINUOUS
 62
40
 10
2.89E+002
 20
7.162E+001
 40
1.0
 50
2.9657E+002
 51
3.6E+002
  0
LINE
  8
1
  6
CONTINUOUS
 62
40
 10
2.9E+002
 20
7.162E+001
 11
2.9E+002
 21
7.35E+001
  0
LINE
  8
1
  6
CONTINUOUS
 62
40
 10
2.9E+002
 20
7.35E+001
 11
2.9E+002
 21
7.538E+001
  0
ARC
  8
1
  6
CONTINUOUS
 62
40
 10
2.89E+002
 20
7.538E+001
 40
1.0
 50
0.0
 51
6.343E+001
  0
LINE
  8
1
  6
CONTINUOUS
 62
40
 10
2.8655E+002
 20
7.772E+001
 11
2.8945E+002
 21
7.628E+001
  0
ARC
  8
1
  6
CONTINUOUS
 62
40
 10
2.87E+002
 20
7.862E+001
 40
1.0
 50
1.8E+002
 51
2.4343E+002
  0
CIRCLE
  8
1
  6
CONTINUOUS
 62
40
 10
2.86E+002
 20
7.35E+001
 40
1.0
  0
LINE
  8
1
  6
CONTINUOUS
 62
40
 10
2.86E+002
 20
7.862E+001
 11
2.86E+002
 21
1.039E+002
  0
ARC
  8
1
  6
CONTINUOUS
 62
40
 10
2.85E+002
 20
1.039E+002
 40
1.0
 50
0.0
 51
6.156E+001
  0
LINE
  8
1
  6
CONTINUOUS
 62
40
 10
2.7452E+002
 20
1.1072E+002
 11
2.8548E+002
 21
1.0478E+002
  0
ARC
  8
1
  6
CONTINUOUS
 62
40
 10
2.75E+002
 20
1.116E+002
 40
1.0
 50
1.8E+002
 51
2.4156E+002
  0
LINE
  8
1
  6
CONTINUOUS
 62
40
 10
2.74E+002
 20
1.116E+002
 11
2.74E+002
 21
1.45E+002
  0
ARC
  8
1
  6
CONTINUOUS
 62
40
 10
2.73E+002
 20
1.45E+002
 40
1.0
 50
0.0
 51
9.0E+001
  0
LINE
  8
1
  6
CONTINUOUS
 62
40
 10
2.05E+002
 20
1.46E+002
 11
2.73E+002
 21
1.46E+002
  0
LINE
  8
1
  6
CONTINUOUS
 62
40
 10
2.498E+002
 20
8.0E+001
 11
2.498E+002
 21
8.35E+001
  0
LINE
  8
1
  6
CONTINUOUS
 62
40
 10
2.224E+002
 20
8.35E+001
 11
2.498E+002
 21
8.35E+001
  0
LINE
  8
1
  6
CONTINUOUS
 62
40
 10
2.224E+002
 20
8.0E+001
 11
2.498E+002
 21
8.0E+001
  0
LINE
  8
1
  6
CONTINUOUS
 62
40
 10
2.224E+002
 20
8.0E+001
 11
2.224E+002
 21
8.35E+001
  0
LINE
  8
1
  6
CONTINUOUS
 62
40
 10
2.224E+002
 20
7.8E+001
 11
2.498E+002
 21
7.8E+001
  0
LINE
  8
1
  6
CONTINUOUS
 62
40
 10
2.498E+002
 20
7.45E+001
 11
2.498E+002
 21
7.8E+001
  0
LINE
  8
1
  6
CONTINUOUS
 62
40
 10
2.224E+002
 20
7.45E+001
 11
2.498E+002
 21
7.45E+001
  0
LINE
  8
1
  6
CONTINUOUS
 62
40
 10
2.224E+002
 20
7.45E+001
 11
2.224E+002
 21
7.8E+001
  0
LINE
  8
1
  6
CONTINUOUS
 62
40
 10
2.224E+002
 20
7.25E+001
 11
2.498E+002
 21
7.25E+001
  0
LINE
  8
1
  6
CONTINUOUS
 62
40
 10
2.224E+002
 20
6.9E+001
 11
2.224E+002
 21
7.25E+001
  0
LINE
  8
1
  6
CONTINUOUS
 62
40
 10
2.224E+002
 20
6.9E+001
 11
2.498E+002
 21
6.9E+001
  0
LINE
  8
1
  6
CONTINUOUS
 62
40
 10
2.498E+002
 20
6.9E+001
 11
2.498E+002
 21
7.25E+001
  0
LINE
  8
1
  6
CONTINUOUS
 62
40
 10
2.224E+002
 20
6.7E+001
 11
2.498E+002
 21
6.7E+001
  0
LINE
  8
1
  6
CONTINUOUS
 62
40
 10
2.498E+002
 20
6.35E+001
 11
2.498E+002
 21
6.7E+001
  0
LINE
  8
1
  6
CONTINUOUS
 62
40
 10
2.224E+002
 20
6.35E+001
 11
2.498E+002
 21
6.35E+001
  0
LINE
  8
1
  6
CONTINUOUS
 62
40
 10
2.224E+002
 20
6.35E+001
 11
2.224E+002
 21
6.7E+001
  0
ENDSEC
  0
EOF
