  0
SECTION
  2
HEADER
  9
$ACADVER
  1
AC1009
  9
$INSBASE
 10
0.0
 20
0.0
 30
0.0
  9
$EXTMIN
 10
128.5021
 20
152.4877
 30
0.0
  9
$EXTMAX
 10
2344.695
 20
1654.843
 30
0.0
  9
$LIMMIN
 10
0.0
 20
0.0
  9
$LIMMAX
 10
12.0
 20
9.0
  9
$ORTHOMODE
 70
     0
  9
$REGENMODE
 70
     1
  9
$FILLMODE
 70
     1
  9
$QTEXTMODE
 70
     0
  9
$MIRRTEXT
 70
     1
  9
$DRAGMODE
 70
     2
  9
$LTSCALE
 40
20.0
  9
$OSMODE
 70
  1023
  9
$ATTMODE
 70
     1
  9
$TEXTSIZE
 40
0.2
  9
$TRACEWID
 40
0.05
  9
$TEXTSTYLE
  7
STANDARD
  9
$CLAYER
  8
0
  9
$CELTYPE
  6
CONTINUOUS
  9
$CECOLOR
 62
   256
  9
$DIMSCALE
 40
1.0
  9
$DIMASZ
 40
10.0
  9
$DIMEXO
 40
0.0625
  9
$DIMDLI
 40
0.38
  9
$DIMRND
 40
0.0
  9
$DIMDLE
 40
0.0
  9
$DIMEXE
 40
0.18
  9
$DIMTP
 40
0.0
  9
$DIMTM
 40
0.0
  9
$DIMTXT
 40
10.0
  9
$DIMCEN
 40
0.09
  9
$DIMTSZ
 40
0.0
  9
$DIMTOL
 70
     0
  9
$DIMLIM
 70
     0
  9
$DIMTIH
 70
     1
  9
$DIMTOH
 70
     1
  9
$DIMSE1
 70
     0
  9
$DIMSE2
 70
     0
  9
$DIMTAD
 70
     0
  9
$DIMZIN
 70
     0
  9
$DIMBLK
  1

  9
$DIMASO
 70
     1
  9
$DIMSHO
 70
     1
  9
$DIMPOST
  1

  9
$DIMAPOST
  1

  9
$DIMALT
 70
     0
  9
$DIMALTD
 70
     2
  9
$DIMALTF
 40
25.4
  9
$DIMLFAC
 40
1.0
  9
$DIMTOFL
 70
     0
  9
$DIMTVP
 40
0.0
  9
$DIMTIX
 70
     0
  9
$DIMSOXD
 70
     0
  9
$DIMSAH
 70
     0
  9
$DIMBLK1
  1

  9
$DIMBLK2
  1

  9
$DIMSTYLE
  2
STANDARD
  9
$DIMCLRD
 70
     1
  9
$DIMCLRE
 70
     1
  9
$DIMCLRT
 70
     1
  9
$DIMTFAC
 40
1.0
  9
$DIMGAP
 40
10.0
  9
$LUNITS
 70
     2
  9
$LUPREC
 70
     4
  9
$SKETCHINC
 40
0.1
  9
$FILLETRAD
 40
0.0
  9
$AUNITS
 70
     0
  9
$AUPREC
 70
     0
  9
$MENU
  1
acad
  9
$ELEVATION
 40
0.0
  9
$PELEVATION
 40
0.0
  9
$THICKNESS
 40
0.0
  9
$LIMCHECK
 70
     0
  9
$BLIPMODE
 70
     0
  9
$CHAMFERA
 40
0.0
  9
$CHAMFERB
 40
0.0
  9
$SKPOLY
 70
     0
  9
$TDCREATE
 40
2452054.579892
  9
$TDUPDATE
 40
2452058.378601
  9
$TDINDWG
 40
0.007584
  9
$TDUSRTIMER
 40
0.007584
  9
$USRTIMER
 70
     1
  9
$ANGBASE
 50
0.0
  9
$ANGDIR
 70
     0
  9
$PDMODE
 70
     0
  9
$PDSIZE
 40
0.0
  9
$PLINEWID
 40
0.0
  9
$COORDS
 70
     1
  9
$SPLFRAME
 70
     0
  9
$SPLINETYPE
 70
     6
  9
$SPLINESEGS
 70
     8
  9
$ATTDIA
 70
     0
  9
$ATTREQ
 70
     1
  9
$HANDLING
 70
     1
  9
$HANDSEED
  5
68E
  9
$SURFTAB1
 70
     6
  9
$SURFTAB2
 70
     6
  9
$SURFTYPE
 70
     6
  9
$SURFU
 70
     6
  9
$SURFV
 70
     6
  9
$UCSNAME
  2

  9
$UCSORG
 10
0.0
 20
0.0
 30
0.0
  9
$UCSXDIR
 10
1.0
 20
0.0
 30
0.0
  9
$UCSYDIR
 10
0.0
 20
1.0
 30
0.0
  9
$PUCSNAME
  2

  9
$PUCSORG
 10
0.0
 20
0.0
 30
0.0
  9
$PUCSXDIR
 10
1.0
 20
0.0
 30
0.0
  9
$PUCSYDIR
 10
0.0
 20
1.0
 30
0.0
  9
$USERI1
 70
     0
  9
$USERI2
 70
     0
  9
$USERI3
 70
     0
  9
$USERI4
 70
     0
  9
$USERI5
 70
     0
  9
$USERR1
 40
0.0
  9
$USERR2
 40
0.0
  9
$USERR3
 40
0.0
  9
$USERR4
 40
0.0
  9
$USERR5
 40
0.0
  9
$WORLDVIEW
 70
     1
  9
$SHADEDGE
 70
     3
  9
$SHADEDIF
 70
    70
  9
$TILEMODE
 70
     1
  9
$MAXACTVP
 70
    48
  9
$PLIMCHECK
 70
     0
  9
$PEXTMIN
 10
1.000000E+020
 20
1.000000E+020
 30
1.000000E+020
  9
$PEXTMAX
 10
-1.000000E+020
 20
-1.000000E+020
 30
-1.000000E+020
  9
$PLIMMIN
 10
0.0
 20
0.0
  9
$PLIMMAX
 10
12.0
 20
9.0
  9
$UNITMODE
 70
     0
  9
$VISRETAIN
 70
     1
  9
$PLINEGEN
 70
     0
  9
$PSLTSCALE
 70
     1
  0
ENDSEC
  0
SECTION
  2
TABLES
  0
TABLE
  2
VPORT
 70
     2
  0
VPORT
  2
*ACTIVE
 70
     0
 10
0.0
 20
0.0
 11
1.0
 21
1.0
 12
1236.638805
 22
968.442874
 13
0.0
 23
0.0
 14
1.0
 24
1.0
 15
0.0
 25
0.0
 16
0.0
 26
0.0
 36
1.0
 17
0.0
 27
0.0
 37
0.0
 40
1642.474622
 41
1.679787
 42
50.0
 43
0.0
 44
0.0
 50
0.0
 51
0.0
 71
     0
 72
   100
 73
     1
 74
     1
 75
     0
 76
     0
 77
     0
 78
     0
  0
ENDTAB
  0
TABLE
  2
LTYPE
 70
     3
  0
LTYPE
  2
CONTINUOUS
 70
     0
  3
Solid line
 72
    65
 73
     0
 40
0.0
  0
LTYPE
  2
CENTER
 70
     0
  3
____ _ ____ _ ____ _ ____ _ ____ _ ____
 72
    65
 73
     4
 40
2.0
 49
1.25
 49
-0.25
 49
0.25
 49
-0.25
  0
LTYPE
  2
DASHED
 70
     0
  3
_ _ _ _ _ _ _ _ _ _ _ _ _ _ _ _ _ _ _ _ _
 72
    65
 73
     2
 40
0.75
 49
0.5
 49
-0.25
  0
ENDTAB
  0
TABLE
  2
LAYER
 70
     5
  0
LAYER
  2
0
 70
     0
 62
     7
  6
CONTINUOUS
  0
LAYER
  2
5
 70
     0
 62
     7
  6
CONTINUOUS
  0
LAYER
  2
6
 70
     0
 62
     5
  6
CENTER
  0
LAYER
  2
7
 70
     0
 62
     3
  6
DASHED
  0
LAYER
  2
BYLAYER
 70
     0
 62
     7
  6
CONTINUOUS
  0
ENDTAB
  0
TABLE
  2
STYLE
 70
     1
  0
STYLE
  2
STANDARD
 70
     0
 40
0.0
 41
1.0
 50
0.0
 71
     0
 42
0.2
  3
txt
  4

  0
ENDTAB
  0
TABLE
  2
VIEW
 70
     0
  0
ENDTAB
  0
TABLE
  2
UCS
 70
     0
  0
ENDTAB
  0
TABLE
  2
APPID
 70
     1
  0
APPID
  2
ACAD
 70
     0
  0
ENDTAB
  0
TABLE
  2
DIMSTYLE
 70
     1
  0
DIMSTYLE
  2
STANDARD
 70
     0
  3

  4

  5

  6

  7

 40
1.0
 41
0.18
 42
0.0625
 43
0.38
 44
0.18
 45
0.0
 46
0.0
 47
0.0
 48
0.0
140
0.18
141
0.09
142
0.0
143
25.4
144
1.0
145
0.0
146
1.0
147
0.09
 71
     0
 72
     0
 73
     1
 74
     1
 75
     0
 76
     0
 77
     0
 78
     0
170
     0
171
     2
172
     0
173
     0
174
     0
175
     0
176
     0
177
     0
178
     0
  0
ENDTAB
  0
ENDSEC
  0
SECTION
  2
BLOCKS
  0
BLOCK
  8
0
  2
$MODEL_SPACE
 70
     0
 10
0.0
 20
0.0
 30
0.0
  3
$MODEL_SPACE
  1

  0
ENDBLK
  5
1A
  8
0
  0
BLOCK
 67
     1
  8
0
  2
$PAPER_SPACE
 70
     0
 10
0.0
 20
0.0
 30
0.0
  3
$PAPER_SPACE
  1

  0
ENDBLK
  5
17
 67
     1
  8
0
  0
BLOCK
  8
0
  2
A$C05293501
 70
     0
 10
0.0
 20
0.0
 30
0.0
  3
A$C05293501
  1

  0
LINE
  5
66A
  8
5
  6
CONTINUOUS
 10
60.4918
 20
70.750001
 30
0.0
 11
60.4918
 21
0.000001
 31
0.0
  0
LINE
  5
66B
  8
5
  6
CENTER
 10
60.4918
 20
70.750001
 30
0.0
 11
60.4918
 21
0.000001
 31
0.0
  0
LINE
  5
66C
  8
5
  6
CONTINUOUS
 10
50.4918
 20
70.750001
 30
0.0
 11
50.4918
 21
0.000001
 31
0.0
  0
LINE
  5
66D
  8
5
  6
CENTER
 10
50.4918
 20
70.750001
 30
0.0
 11
50.4918
 21
0.000001
 31
0.0
  0
LINE
  5
66E
  8
5
  6
CONTINUOUS
 10
40.4918
 20
70.750001
 30
0.0
 11
40.4918
 21
0.000001
 31
0.0
  0
LINE
  5
66F
  8
5
  6
CENTER
 10
40.4918
 20
70.750001
 30
0.0
 11
40.4918
 21
0.000001
 31
0.0
  0
LINE
  5
670
  8
5
  6
CONTINUOUS
 10
30.4918
 20
70.750001
 30
0.0
 11
30.4918
 21
0.000001
 31
0.0
  0
LINE
  5
671
  8
5
  6
CENTER
 10
30.4918
 20
70.750001
 30
0.0
 11
30.4918
 21
0.000001
 31
0.0
  0
LINE
  5
672
  8
5
  6
CONTINUOUS
 10
20.4918
 20
70.750001
 30
0.0
 11
20.4918
 21
13.187001
 31
0.0
  0
LINE
  5
673
  8
5
  6
CENTER
 10
20.4918
 20
70.750001
 30
0.0
 11
20.4918
 21
12.818001
 31
0.0
  0
LINE
  5
674
  8
5
  6
CONTINUOUS
 10
10.4918
 20
70.750001
 30
0.0
 11
10.4918
 21
35.248001
 31
0.0
  0
LINE
  5
675
  8
5
  6
CENTER
 10
10.4918
 20
70.750001
 30
0.0
 11
10.4918
 21
35.248001
 31
0.0
  0
LINE
  5
676
  8
5
  6
CONTINUOUS
 10
0.7536
 20
40.776001
 30
0.0
 11
70.6364
 21
40.776001
 31
0.0
  0
LINE
  5
677
  8
5
  6
CONTINUOUS
 10
0.0
 20
40.776001
 30
0.0
 11
70.6364
 21
40.776001
 31
0.0
  0
LINE
  5
678
  8
5
  6
CONTINUOUS
 10
10.8588
 20
30.776001
 30
0.0
 11
70.6364
 21
30.776001
 31
0.0
  0
LINE
  5
679
  8
5
  6
CONTINUOUS
 10
6.8688
 20
30.776001
 30
0.0
 11
70.6364
 21
30.776001
 31
0.0
  0
LINE
  5
67A
  8
5
  6
CONTINUOUS
 10
10.4918
 20
20.776001
 30
0.0
 11
70.6364
 21
20.776001
 31
0.0
  0
LINE
  5
67B
  8
5
  6
CONTINUOUS
 10
10.4918
 20
20.776001
 30
0.0
 11
70.6364
 21
20.776001
 31
0.0
  0
LINE
  5
67C
  8
5
  6
CONTINUOUS
 10
23.4865
 20
10.776001
 30
0.0
 11
70.6364
 21
10.776001
 31
0.0
  0
LINE
  5
67D
  8
5
  6
CONTINUOUS
 10
22.9952
 20
10.776001
 30
0.0
 11
70.6364
 21
10.776001
 31
0.0
  0
LINE
  5
67E
  8
5
  6
CONTINUOUS
 10
1.2561
 20
60.776001
 30
0.0
 11
70.6364
 21
60.776001
 31
0.0
  0
LINE
  5
67F
  8
5
  6
CONTINUOUS
 10
1.2561
 20
60.776001
 30
0.0
 11
70.6364
 21
60.776001
 31
0.0
  0
LINE
  5
680
  8
5
  6
CONTINUOUS
 10
0.2512
 20
50.776001
 30
0.0
 11
70.6364
 21
50.776001
 31
0.0
  0
LINE
  5
681
  8
5
  6
CONTINUOUS
 10
0.2512
 20
50.776001
 30
0.0
 11
70.6364
 21
50.776001
 31
0.0
  0
ENDBLK
  5
683
  8
0
  0
BLOCK
  8
0
  2
A$C27E33DB7
 70
     0
 10
0.0
 20
0.0
 30
0.0
  3
A$C27E33DB7
  1

  0
INSERT
  5
685
  8
0
  6
CONTINUOUS
  2
A$C05293501
 10
0.0
 20
-0.000001
 30
0.0
  0
ENDBLK
  5
687
  8
0
  0
ENDSEC
  0
SECTION
  2
ENTITIES
  0
LINE
  5
25
  8
5
  6
CONTINUOUS
 10
910.358
 20
1047.223
 30
0.0
 11
910.358
 21
1046.192
 31
0.0
  0
LINE
  5
26
  8
5
  6
CONTINUOUS
 10
912.158
 20
1033.505
 30
0.0
 11
912.158
 21
1410.18
 31
0.0
  0
LINE
  5
27
  8
5
  6
CONTINUOUS
 10
965.6669
 20
1002.842
 30
0.0
 11
965.6678
 21
1002.842
 31
0.0
  0
LINE
  5
28
  8
5
  6
CONTINUOUS
 10
1404.358
 20
1072.242
 30
0.0
 11
968.358
 21
1072.242
 31
0.0
  0
LINE
  5
29
  8
5
  6
CONTINUOUS
 10
966.129
 20
1089.642
 30
0.0
 11
966.1355
 21
1089.592
 31
0.0
  0
LINE
  5
2A
  8
5
  6
CONTINUOUS
 10
966.1355
 20
1354.093
 30
0.0
 11
966.129
 21
1354.042
 31
0.0
  0
LINE
  5
2B
  8
5
  6
CONTINUOUS
 10
757.8579
 20
1258.342
 30
0.0
 11
748.858
 21
1258.342
 31
0.0
  0
LINE
  5
2C
  8
5
  6
CONTINUOUS
 10
978.358
 20
1469.842
 30
0.0
 11
978.358
 21
1506.142
 31
0.0
  0
LINE
  5
2D
  8
5
  6
CONTINUOUS
 10
1221.358
 20
1506.142
 30
0.0
 11
1221.358
 21
1469.842
 31
0.0
  0
LINE
  5
2E
  8
5
  6
CONTINUOUS
 10
1223.858
 20
1506.142
 30
0.0
 11
975.858
 21
1506.142
 31
0.0
  0
LINE
  5
2F
  8
5
  6
CONTINUOUS
 10
985.858
 20
1531.642
 30
0.0
 11
1213.858
 21
1531.642
 31
0.0
  0
LINE
  5
30
  8
5
  6
CONTINUOUS
 10
985.858
 20
1554.642
 30
0.0
 11
944.858
 21
1554.642
 31
0.0
  0
LINE
  5
31
  8
5
  6
CONTINUOUS
 10
1254.858
 20
1554.642
 30
0.0
 11
1213.858
 21
1554.642
 31
0.0
  0
LINE
  5
32
  8
5
  6
CONTINUOUS
 10
951.858
 20
1530.142
 30
0.0
 11
975.858
 21
1506.142
 31
0.0
  0
LINE
  5
33
  8
5
  6
CONTINUOUS
 10
1247.858
 20
1530.142
 30
0.0
 11
1223.858
 21
1506.142
 31
0.0
  0
LINE
  5
34
  8
5
  6
CONTINUOUS
 10
1247.858
 20
1530.142
 30
0.0
 11
1247.858
 21
1554.642
 31
0.0
  0
LINE
  5
35
  8
5
  6
CONTINUOUS
 10
951.858
 20
1530.142
 30
0.0
 11
951.858
 21
1554.642
 31
0.0
  0
LINE
  5
36
  8
5
  6
CONTINUOUS
 10
989.858
 20
1650.642
 30
0.0
 11
1209.858
 21
1650.642
 31
0.0
  0
LINE
  5
37
  8
5
  6
CONTINUOUS
 10
1058.852
 20
1654.842
 30
0.0
 11
1058.852
 21
1650.642
 31
0.0
  0
LINE
  5
38
  8
5
  6
CONTINUOUS
 10
1060.952
 20
1650.642
 30
0.0
 11
1060.952
 21
1654.842
 31
0.0
  0
LINE
  5
39
  8
5
  6
CONTINUOUS
 10
1095.974
 20
1650.642
 30
0.0
 11
1095.974
 21
1654.842
 31
0.0
  0
LINE
  5
3A
  8
5
  6
CONTINUOUS
 10
1109.752
 20
1650.642
 30
0.0
 11
1109.752
 21
1654.842
 31
0.0
  0
LINE
  5
3B
  8
5
  6
CONTINUOUS
 10
1111.852
 20
1650.642
 30
0.0
 11
1111.852
 21
1654.842
 31
0.0
  0
LINE
  5
3D
  8
5
  6
CONTINUOUS
 10
1157.498
 20
1650.642
 30
0.0
 11
1157.498
 21
1654.842
 31
0.0
  0
LINE
  5
3E
  8
5
  6
CONTINUOUS
 10
1141.619
 20
1650.642
 30
0.0
 11
1141.619
 21
1654.842
 31
0.0
  0
LINE
  5
3F
  8
5
  6
CONTINUOUS
 10
1155.398
 20
1650.642
 30
0.0
 11
1155.398
 21
1654.842
 31
0.0
  0
LINE
  5
40
  8
5
  6
CONTINUOUS
 10
1401.358
 20
1001.842
 30
0.0
 11
1401.358
 21
1048.11
 31
0.0
  0
LINE
  5
41
  8
5
  6
CONTINUOUS
 10
1317.858
 20
1072.242
 30
0.0
 11
1317.858
 21
1001.842
 31
0.0
  0
LINE
  5
42
  8
5
  6
CONTINUOUS
 10
1034.855
 20
1654.842
 30
0.0
 11
1043.718
 21
1654.842
 31
0.0
  0
LINE
  5
43
  8
5
  6
CONTINUOUS
 10
1043.718
 20
1654.842
 30
0.0
 11
1047.408
 21
1654.842
 31
0.0
  0
LINE
  5
44
  8
5
  6
CONTINUOUS
 10
1047.408
 20
1654.842
 30
0.0
 11
1058.852
 21
1654.842
 31
0.0
  0
LINE
  5
45
  8
5
  6
CONTINUOUS
 10
1060.952
 20
1654.842
 30
0.0
 11
1072.346
 21
1654.842
 31
0.0
  0
LINE
  5
46
  8
5
  6
CONTINUOUS
 10
1072.346
 20
1654.842
 30
0.0
 11
1076.186
 21
1654.842
 31
0.0
  0
LINE
  5
47
  8
5
  6
CONTINUOUS
 10
1076.186
 20
1654.842
 30
0.0
 11
1085.686
 21
1654.842
 31
0.0
  0
LINE
  5
48
  8
5
  6
CONTINUOUS
 10
1095.974
 20
1654.842
 30
0.0
 11
1109.752
 21
1654.842
 31
0.0
  0
LINE
  5
49
  8
5
  6
CONTINUOUS
 10
1111.852
 20
1654.842
 30
0.0
 11
1116.654
 21
1654.842
 31
0.0
  0
LINE
  5
4A
  8
5
  6
CONTINUOUS
 10
1116.654
 20
1654.842
 30
0.0
 11
1131.482
 21
1654.842
 31
0.0
  0
LINE
  5
4B
  8
5
  6
CONTINUOUS
 10
1411.858
 20
1440.843
 30
0.0
 11
1407.048
 21
1440.842
 31
0.0
  0
LINE
  5
4C
  8
5
  6
CONTINUOUS
 10
584.5488
 20
1398.633
 30
0.0
 11
584.5488
 21
1398.633
 31
0.0
  0
LINE
  5
4D
  8
5
  6
CONTINUOUS
 10
1888.648
 20
1398.633
 30
0.0
 11
1888.648
 21
1398.633
 31
0.0
  0
LINE
  5
4E
  8
5
  6
CONTINUOUS
 10
2095.636
 20
1654.842
 30
0.0
 11
2095.636
 21
1654.842
 31
0.0
  0
LINE
  5
4F
  8
5
  6
CONTINUOUS
 10
1077.858
 20
1001.842
 30
0.0
 11
1077.858
 21
1072.242
 31
0.0
  0
LINE
  5
50
  8
5
  6
CONTINUOUS
 10
994.358
 20
1048.11
 30
0.0
 11
994.358
 21
1001.842
 31
0.0
  0
LINE
  5
52
  8
5
  6
CONTINUOUS
 10
968.358
 20
981.8425
 30
0.0
 11
965.9881
 21
1000.342
 31
0.0
  0
LINE
  5
53
  8
5
  6
CONTINUOUS
 10
965.9881
 20
1000.342
 30
0.0
 11
963.8584
 21
1016.967
 31
0.0
  0
LINE
  5
54
  8
5
  6
CONTINUOUS
 10
1689.858
 20
1425.136
 30
0.0
 11
1689.858
 21
1305.136
 31
0.0
  0
LINE
  5
55
  8
5
  6
CONTINUOUS
 10
968.358
 20
981.8425
 30
0.0
 11
974.358
 21
981.8424
 31
0.0
  0
LINE
  5
56
  8
5
  6
CONTINUOUS
 10
977.6725
 20
1412.26
 30
0.0
 11
979.6834
 21
1469.842
 31
0.0
  0
LINE
  5
57
  8
5
  6
CONTINUOUS
 10
907.0792
 20
1121.842
 30
0.0
 11
906.9584
 21
1121.842
 31
0.0
  0
LINE
  5
58
  8
5
  6
CONTINUOUS
 10
1404.371
 20
1461.743
 30
0.0
 11
1406.577
 21
1444.518
 31
0.0
  0
LINE
  5
59
  8
5
  6
CONTINUOUS
 10
1408.803
 20
1427.142
 30
0.0
 11
1406.577
 21
1444.518
 31
0.0
  0
LINE
  5
5A
  8
5
  6
CONTINUOUS
 10
1404.358
 20
1461.842
 30
0.0
 11
1404.371
 21
1461.743
 31
0.0
  0
LINE
  5
5B
  8
5
  6
CONTINUOUS
 10
1410.339
 20
1415.155
 30
0.0
 11
1408.803
 21
1427.142
 31
0.0
  0
LINE
  5
5C
  8
5
  6
CONTINUOUS
 10
1257.878
 20
1444.493
 30
0.0
 11
1279.235
 21
1461.743
 31
0.0
  0
LINE
  5
5D
  8
5
  6
CONTINUOUS
 10
1279.235
 20
1461.743
 30
0.0
 11
1279.358
 21
1461.842
 31
0.0
  0
LINE
  5
5E
  8
5
  6
CONTINUOUS
 10
1253.358
 20
1440.842
 30
0.0
 11
1257.878
 21
1444.493
 31
0.0
  0
LINE
  5
5F
  8
5
  6
CONTINUOUS
 10
1279.358
 20
1461.842
 30
0.0
 11
1404.358
 21
1461.842
 31
0.0
  0
LINE
  5
60
  8
5
  6
CONTINUOUS
 10
1406.574
 20
1089.642
 30
0.0
 11
1406.58
 21
1089.592
 31
0.0
  0
LINE
  5
61
  8
5
  6
CONTINUOUS
 10
1406.58
 20
1354.093
 30
0.0
 11
1406.574
 21
1354.042
 31
0.0
  0
LINE
  5
62
  8
5
  6
CONTINUOUS
 10
966.1355
 20
1089.592
 30
0.0
 11
966.142
 21
1089.642
 31
0.0
  0
LINE
  5
63
  8
5
  6
CONTINUOUS
 10
966.1419
 20
1354.042
 30
0.0
 11
966.1355
 21
1354.093
 31
0.0
  0
LINE
  5
64
  8
5
  6
CONTINUOUS
 10
1253.358
 20
1427.342
 30
0.0
 11
1253.358
 21
1381.783
 31
0.0
  0
LINE
  5
65
  8
5
  6
CONTINUOUS
 10
1253.358
 20
1427.342
 30
0.0
 11
1253.358
 21
1440.842
 31
0.0
  0
LINE
  5
66
  8
5
  6
CONTINUOUS
 10
968.358
 20
1371.442
 30
0.0
 11
1404.358
 21
1371.442
 31
0.0
  0
LINE
  5
67
  8
5
  6
CONTINUOUS
 10
1406.587
 20
1354.042
 30
0.0
 11
1408.829
 21
1336.542
 31
0.0
  0
LINE
  5
68
  8
5
  6
CONTINUOUS
 10
1408.829
 20
1336.542
 30
0.0
 11
1410.339
 21
1324.755
 31
0.0
  0
LINE
  5
69
  8
5
  6
CONTINUOUS
 10
1404.358
 20
1371.442
 30
0.0
 11
1406.58
 21
1354.093
 31
0.0
  0
LINE
  5
6A
  8
5
  6
CONTINUOUS
 10
902.158
 20
1397.492
 30
0.0
 11
902.158
 21
1047.223
 31
0.0
  0
LINE
  5
6B
  8
5
  6
CONTINUOUS
 10
1408.829
 20
1107.142
 30
0.0
 11
1410.339
 21
1118.929
 31
0.0
  0
LINE
  5
6C
  8
5
  6
CONTINUOUS
 10
1406.58
 20
1089.592
 30
0.0
 11
1404.358
 21
1072.242
 31
0.0
  0
CIRCLE
  5
6D
  8
5
  6
CONTINUOUS
 10
906.558
 20
1123.242
 30
0.0
 40
1.5
  0
LINE
  5
6E
  8
5
  6
CONTINUOUS
 10
1406.587
 20
1089.642
 30
0.0
 11
1408.829
 21
1107.142
 31
0.0
  0
LINE
  5
6F
  8
5
  6
CONTINUOUS
 10
966.129
 20
1354.042
 30
0.0
 11
963.8872
 21
1336.542
 31
0.0
  0
LINE
  5
70
  8
5
  6
CONTINUOUS
 10
963.8872
 20
1336.542
 30
0.0
 11
962.3772
 21
1324.755
 31
0.0
  0
LINE
  5
71
  8
5
  6
CONTINUOUS
 10
966.1355
 20
1354.093
 30
0.0
 11
968.358
 21
1371.442
 31
0.0
  0
LINE
  5
72
  8
5
  6
CONTINUOUS
 10
963.8872
 20
1107.142
 30
0.0
 11
962.3772
 21
1118.929
 31
0.0
  0
LINE
  5
73
  8
5
  6
CONTINUOUS
 10
1689.858
 20
1405.136
 30
0.0
 11
1707.178
 21
1415.136
 31
0.0
  0
LINE
  5
74
  8
5
  6
CONTINUOUS
 10
968.358
 20
1072.242
 30
0.0
 11
966.1355
 21
1089.592
 31
0.0
  0
LINE
  5
75
  8
5
  6
CONTINUOUS
 10
966.129
 20
1089.642
 30
0.0
 11
963.8872
 21
1107.142
 31
0.0
  0
LINE
  5
76
  8
5
  6
CONTINUOUS
 10
1540.858
 20
1100.789
 30
0.0
 11
1540.858
 21
1342.896
 31
0.0
  0
LINE
  5
77
  8
5
  6
CONTINUOUS
 10
1540.858
 20
1100.789
 30
0.0
 11
1540.858
 21
989.3425
 31
0.0
  0
LINE
  5
78
  8
5
  6
CONTINUOUS
 10
1540.858
 20
1454.342
 30
0.0
 11
1540.858
 21
1342.896
 31
0.0
  0
LINE
  5
79
  8
5
  6
CONTINUOUS
 10
1613.858
 20
1361.842
 30
0.0
 11
1613.858
 21
1081.842
 31
0.0
  0
LINE
  5
7A
  8
5
  6
CONTINUOUS
 10
1472.358
 20
986.3425
 30
0.0
 11
1421.358
 21
986.3425
 31
0.0
  0
LINE
  5
7B
  8
5
  6
CONTINUOUS
 10
1689.858
 20
1385.136
 30
0.0
 11
1707.178
 21
1395.136
 31
0.0
  0
LINE
  5
7C
  8
5
  6
CONTINUOUS
 10
1472.358
 20
1457.342
 30
0.0
 11
1411.858
 21
1457.342
 31
0.0
  0
LINE
  5
7D
  8
5
  6
CONTINUOUS
 10
1472.358
 20
1454.342
 30
0.0
 11
1540.858
 21
1454.342
 31
0.0
  0
LINE
  5
7E
  8
5
  6
CONTINUOUS
 10
1472.358
 20
989.3425
 30
0.0
 11
1540.858
 21
989.3425
 31
0.0
  0
LINE
  5
7F
  8
5
  6
CONTINUOUS
 10
1472.358
 20
1099.546
 30
0.0
 11
1472.358
 21
986.3425
 31
0.0
  0
LINE
  5
80
  8
5
  6
CONTINUOUS
 10
1472.358
 20
1457.342
 30
0.0
 11
1472.358
 21
1344.138
 31
0.0
  0
LINE
  5
81
  8
5
  6
CONTINUOUS
 10
1472.358
 20
1099.546
 30
0.0
 11
1472.358
 21
1344.138
 31
0.0
  0
LINE
  5
82
  8
5
  6
CONTINUOUS
 10
1411.858
 20
1344.138
 30
0.0
 11
1411.858
 21
1099.546
 31
0.0
  0
LINE
  5
83
  8
5
  6
CONTINUOUS
 10
1411.858
 20
1344.138
 30
0.0
 11
1411.858
 21
1457.342
 31
0.0
  0
LINE
  5
84
  8
5
  6
CONTINUOUS
 10
1689.858
 20
1365.136
 30
0.0
 11
1707.178
 21
1375.136
 31
0.0
  0
LINE
  5
85
  8
5
  6
CONTINUOUS
 10
1411.858
 20
1001.842
 30
0.0
 11
1411.858
 21
1099.546
 31
0.0
  0
LINE
  5
86
  8
5
  6
CONTINUOUS
 10
1689.858
 20
1345.136
 30
0.0
 11
1707.178
 21
1355.136
 31
0.0
  0
LINE
  5
87
  8
5
  6
CONTINUOUS
 10
1689.858
 20
1325.136
 30
0.0
 11
1707.178
 21
1335.136
 31
0.0
  0
LINE
  5
88
  8
5
  6
CONTINUOUS
 10
859.858
 20
1258.342
 30
0.0
 11
757.8579
 21
1258.342
 31
0.0
  0
LINE
  5
89
  8
5
  6
CONTINUOUS
 10
868.858
 20
1258.342
 30
0.0
 11
859.858
 21
1258.342
 31
0.0
  0
LINE
  5
8A
  8
5
  6
CONTINUOUS
 10
738.858
 20
1189.342
 30
0.0
 11
738.858
 21
1254.342
 31
0.0
  0
LINE
  5
8B
  8
5
  6
CONTINUOUS
 10
878.858
 20
1221.842
 30
0.0
 11
878.858
 21
1259.342
 31
0.0
  0
LINE
  5
8C
  8
5
  6
CONTINUOUS
 10
878.858
 20
1184.342
 30
0.0
 11
878.858
 21
1221.842
 31
0.0
  0
LINE
  5
8D
  8
5
  6
CONTINUOUS
 10
748.858
 20
1254.342
 30
0.0
 11
738.8581
 21
1254.342
 31
0.0
  0
LINE
  5
8E
  8
5
  6
CONTINUOUS
 10
878.8579
 20
1254.342
 30
0.0
 11
868.8578
 21
1254.342
 31
0.0
  0
LINE
  5
8F
  8
5
  6
CONTINUOUS
 10
738.8581
 20
1189.343
 30
0.0
 11
878.8579
 21
1189.343
 31
0.0
  0
LINE
  5
90
  8
5
  6
CONTINUOUS
 10
896.858
 20
1156.083
 30
0.0
 11
896.858
 21
1128.343
 31
0.0
  0
LINE
  5
91
  8
5
  6
CONTINUOUS
 10
902.158
 20
1128.342
 30
0.0
 11
896.858
 21
1128.342
 31
0.0
  0
LINE
  5
92
  8
5
  6
CONTINUOUS
 10
892.858
 20
1286.842
 30
0.0
 11
892.858
 21
1156.842
 31
0.0
  0
LINE
  5
93
  8
5
  6
CONTINUOUS
 10
1307.358
 20
971.8425
 30
0.0
 11
1307.358
 21
981.8425
 31
0.0
  0
LINE
  5
94
  8
5
  6
CONTINUOUS
 10
1307.358
 20
981.8425
 30
0.0
 11
1088.358
 21
981.8425
 31
0.0
  0
LINE
  5
95
  8
5
  6
CONTINUOUS
 10
1088.358
 20
981.8425
 30
0.0
 11
1088.358
 21
971.8425
 31
0.0
  0
LINE
  5
96
  8
5
  6
CONTINUOUS
 10
1421.358
 20
1001.842
 30
0.0
 11
1421.358
 21
971.8425
 31
0.0
  0
LINE
  5
97
  8
5
  6
CONTINUOUS
 10
974.358
 20
971.8425
 30
0.0
 11
974.358
 21
1001.842
 31
0.0
  0
LINE
  5
98
  8
5
  6
CONTINUOUS
 10
1077.858
 20
1001.842
 30
0.0
 11
974.358
 21
1001.842
 31
0.0
  0
LINE
  5
99
  8
5
  6
CONTINUOUS
 10
1421.358
 20
1001.842
 30
0.0
 11
1317.858
 21
1001.842
 31
0.0
  0
LINE
  5
9A
  8
5
  6
CONTINUOUS
 10
1421.358
 20
971.8425
 30
0.0
 11
1307.358
 21
971.8425
 31
0.0
  0
LINE
  5
9B
  8
5
  6
CONTINUOUS
 10
1088.358
 20
971.8425
 30
0.0
 11
974.358
 21
971.8425
 31
0.0
  0
LINE
  5
9C
  8
5
  6
CONTINUOUS
 10
1157.498
 20
1654.842
 30
0.0
 11
1162.3
 21
1654.842
 31
0.0
  0
LINE
  5
9D
  8
5
  6
CONTINUOUS
 10
1162.3
 20
1654.842
 30
0.0
 11
1177.128
 21
1654.842
 31
0.0
  0
LINE
  5
9E
  8
5
  6
CONTINUOUS
 10
1141.619
 20
1654.842
 30
0.0
 11
1155.398
 21
1654.842
 31
0.0
  0
LINE
  5
9F
  8
5
  6
CONTINUOUS
 10
1259.358
 20
1576.642
 30
0.0
 11
1259.358
 21
1599.642
 31
0.0
  0
LINE
  5
A0
  8
5
  6
CONTINUOUS
 10
940.358
 20
1599.642
 30
0.0
 11
940.358
 21
1576.642
 31
0.0
  0
LINE
  5
A1
  8
5
  6
CONTINUOUS
 10
1209.858
 20
1650.642
 30
0.0
 11
1259.358
 21
1599.642
 31
0.0
  0
LINE
  5
A2
  8
5
  6
CONTINUOUS
 10
940.358
 20
1599.642
 30
0.0
 11
989.858
 21
1650.642
 31
0.0
  0
LINE
  5
A3
  8
5
  6
CONTINUOUS
 10
1259.358
 20
1599.642
 30
0.0
 11
1213.358
 21
1599.642
 31
0.0
  0
LINE
  5
A4
  8
5
  6
CONTINUOUS
 10
986.358
 20
1599.642
 30
0.0
 11
940.358
 21
1599.642
 31
0.0
  0
LINE
  5
A5
  8
5
  6
CONTINUOUS
 10
986.358
 20
1631.142
 30
0.0
 11
1213.358
 21
1631.142
 31
0.0
  0
LINE
  5
A7
  8
5
  6
CONTINUOUS
 10
1220.033
 20
1469.842
 30
0.0
 11
1222.043
 21
1412.26
 31
0.0
  0
LINE
  5
A8
  8
5
  6
CONTINUOUS
 10
985.858
 20
1579.642
 30
0.0
 11
985.858
 21
1531.642
 31
0.0
  0
LINE
  5
A9
  8
5
  6
CONTINUOUS
 10
1213.858
 20
1531.642
 30
0.0
 11
1213.858
 21
1579.642
 31
0.0
  0
LINE
  5
AA
  8
5
  6
CONTINUOUS
 10
1254.858
 20
1554.642
 30
0.0
 11
1254.858
 21
1576.642
 31
0.0
  0
LINE
  5
AB
  8
5
  6
CONTINUOUS
 10
944.858
 20
1554.642
 30
0.0
 11
944.858
 21
1576.642
 31
0.0
  0
LINE
  5
AC
  8
5
  6
CONTINUOUS
 10
986.358
 20
1631.142
 30
0.0
 11
986.358
 21
1579.642
 31
0.0
  0
LINE
  5
AD
  8
5
  6
CONTINUOUS
 10
1213.358
 20
1579.642
 30
0.0
 11
1213.358
 21
1631.142
 31
0.0
  0
LINE
  5
AE
  8
5
  6
CONTINUOUS
 10
940.358
 20
1576.642
 30
0.0
 11
985.858
 21
1576.642
 31
0.0
  0
LINE
  5
AF
  8
5
  6
CONTINUOUS
 10
1213.858
 20
1576.642
 30
0.0
 11
1259.358
 21
1576.642
 31
0.0
  0
LINE
  5
B0
  8
5
  6
CONTINUOUS
 10
1221.358
 20
1469.842
 30
0.0
 11
1206.358
 21
1469.842
 31
0.0
  0
LINE
  5
B1
  8
5
  6
CONTINUOUS
 10
993.358
 20
1469.842
 30
0.0
 11
1206.358
 21
1469.842
 31
0.0
  0
LINE
  5
B2
  8
5
  6
CONTINUOUS
 10
993.358
 20
1469.842
 30
0.0
 11
978.358
 21
1469.842
 31
0.0
  0
LINE
  5
B3
  8
5
  6
CONTINUOUS
 10
978.6688
 20
1440.843
 30
0.0
 11
954.3579
 21
1440.843
 31
0.0
  0
LINE
  5
B4
  8
5
  6
CONTINUOUS
 10
993.358
 20
1506.143
 30
0.0
 11
993.358
 21
1469.842
 31
0.0
  0
LINE
  5
B5
  8
5
  6
CONTINUOUS
 10
1206.358
 20
1469.842
 30
0.0
 11
1206.358
 21
1506.143
 31
0.0
  0
LINE
  5
B6
  8
5
  6
CONTINUOUS
 10
951.858
 20
1530.142
 30
0.0
 11
1247.858
 21
1530.142
 31
0.0
  0
LINE
  5
B7
  8
5
  6
CONTINUOUS
 10
1034.855
 20
1650.642
 30
0.0
 11
1034.855
 21
1654.842
 31
0.0
  0
LINE
  5
B8
  8
5
  6
CONTINUOUS
 10
1043.718
 20
1650.642
 30
0.0
 11
1043.718
 21
1654.842
 31
0.0
  0
LINE
  5
B9
  8
5
  6
CONTINUOUS
 10
1047.408
 20
1650.642
 30
0.0
 11
1047.408
 21
1654.842
 31
0.0
  0
LINE
  5
BA
  8
5
  6
CONTINUOUS
 10
1072.346
 20
1650.642
 30
0.0
 11
1072.346
 21
1654.842
 31
0.0
  0
LINE
  5
BB
  8
5
  6
CONTINUOUS
 10
757.8579
 20
1253.072
 30
0.0
 11
859.858
 21
1253.072
 31
0.0
  0
LINE
  5
BC
  8
5
  6
CONTINUOUS
 10
892.858
 20
1259.342
 30
0.0
 11
878.858
 21
1259.342
 31
0.0
  0
LINE
  5
BD
  8
5
  6
CONTINUOUS
 10
878.8579
 20
1184.343
 30
0.0
 11
892.858
 21
1184.343
 31
0.0
  0
LINE
  5
BE
  8
5
  6
CONTINUOUS
 10
868.858
 20
1254.342
 30
0.0
 11
868.858
 21
1258.342
 31
0.0
  0
LINE
  5
BF
  8
5
  6
CONTINUOUS
 10
748.858
 20
1258.342
 30
0.0
 11
748.858
 21
1254.343
 31
0.0
  0
LINE
  5
C0
  8
5
  6
CONTINUOUS
 10
1253.358
 20
1440.843
 30
0.0
 11
1221.047
 21
1440.843
 31
0.0
  0
LINE
  5
C1
  8
5
  6
CONTINUOUS
 10
738.8579
 20
370.9877
 30
0.0
 11
738.8579
 21
435.9877
 31
0.0
  0
ARC
  5
C2
  8
5
  6
CONTINUOUS
 10
859.8579
 20
403.4877
 30
0.0
 40
9.0
 50
270.0
 51
90.0
  0
LINE
  5
C3
  8
5
  6
CONTINUOUS
 10
859.8579
 20
394.4877
 30
0.0
 11
757.858
 21
394.4877
 31
0.0
  0
ARC
  5
C4
  8
5
  6
CONTINUOUS
 10
757.8579
 20
403.4877
 30
0.0
 40
9.0
 50
90.0
 51
270.0
  0
LINE
  5
C5
  8
5
  6
CONTINUOUS
 10
757.858
 20
412.4877
 30
0.0
 11
859.8579
 21
412.4877
 31
0.0
  0
LINE
  5
C6
  8
5
  6
CONTINUOUS
 10
878.8579
 20
365.9877
 30
0.0
 11
878.8579
 21
440.9877
 31
0.0
  0
LINE
  5
C7
  8
5
  6
CONTINUOUS
 10
738.858
 20
370.9877
 30
0.0
 11
878.858
 21
370.9877
 31
0.0
  0
LINE
  5
C8
  8
5
  6
CONTINUOUS
 10
965.9881
 20
1024.042
 30
0.0
 11
965.9881
 21
1000.342
 31
0.0
  0
LINE
  5
C9
  8
5
  6
CONTINUOUS
 10
968.358
 20
1033.947
 30
0.0
 11
968.358
 21
981.8425
 31
0.0
  0
LINE
  5
CA
  8
5
  6
CONTINUOUS
 10
954.3579
 20
1440.843
 30
0.0
 11
926.1581
 21
1429.449
 31
0.0
  0
LINE
  5
CB
  8
5
  6
CONTINUOUS
 10
926.1581
 20
1429.449
 30
0.0
 11
926.1581
 21
1014.236
 31
0.0
  0
LINE
  5
CC
  8
5
  6
CONTINUOUS
 10
926.1581
 20
1014.236
 30
0.0
 11
954.3579
 21
1002.842
 31
0.0
  0
LINE
  5
CD
  8
5
  6
CONTINUOUS
 10
954.3579
 20
1221.842
 30
0.0
 11
954.3579
 21
1002.842
 31
0.0
  0
LINE
  5
CE
  8
5
  6
CONTINUOUS
 10
954.3579
 20
1440.843
 30
0.0
 11
954.3579
 21
1221.842
 31
0.0
  0
LINE
  5
CF
  8
5
  6
CONTINUOUS
 10
994.358
 20
1048.11
 30
0.0
 11
1077.858
 21
1048.11
 31
0.0
  0
LINE
  5
D0
  8
5
  6
CONTINUOUS
 10
1317.858
 20
1048.11
 30
0.0
 11
1401.358
 21
1048.11
 31
0.0
  0
LINE
  5
D1
  8
5
  6
CONTINUOUS
 10
968.358
 20
1033.947
 30
0.0
 11
994.358
 21
1033.947
 31
0.0
  0
LINE
  5
D2
  8
5
  6
CONTINUOUS
 10
1077.858
 20
1001.843
 30
0.0
 11
1317.858
 21
1001.843
 31
0.0
  0
LINE
  5
D3
  8
5
  6
CONTINUOUS
 10
902.158
 20
1047.223
 30
0.0
 11
910.358
 21
1047.223
 31
0.0
  0
LINE
  5
D4
  8
5
  6
CONTINUOUS
 10
878.858
 20
435.9877
 30
0.0
 11
738.858
 21
435.9877
 31
0.0
  0
LINE
  5
D5
  8
5
  6
CONTINUOUS
 10
892.8578
 20
440.9878
 30
0.0
 11
878.8579
 21
440.9877
 31
0.0
  0
LINE
  5
D6
  8
5
  6
CONTINUOUS
 10
878.8579
 20
365.9877
 30
0.0
 11
892.8578
 21
365.9878
 31
0.0
  0
LINE
  5
D7
  8
5
  6
CONTINUOUS
 10
2102.695
 20
1258.343
 30
0.0
 11
2084.695
 21
1258.343
 31
0.0
  0
CIRCLE
  5
D8
  8
5
  6
CONTINUOUS
 10
2093.695
 20
1221.843
 30
0.0
 40
32.5
  0
ARC
  5
D9
  8
5
  6
CONTINUOUS
 10
2093.695
 20
1221.843
 30
0.0
 40
37.49995
 50
0.000002
 51
101.3744
  0
ARC
  5
DA
  8
5
  6
CONTINUOUS
 10
2093.695
 20
1221.843
 30
0.0
 40
37.50001
 50
103.8866
 51
0.0
  0
ARC
  5
DB
  8
5
  6
CONTINUOUS
 10
2093.695
 20
1221.843
 30
0.0
 40
76.28278
 50
289.9279
 51
308.7401
  0
LINE
  5
DC
  8
5
  6
CONTINUOUS
 10
892.858
 20
1156.842
 30
0.0
 11
896.858
 21
1151.13
 31
0.0
  0
LINE
  5
DD
  8
5
  6
CONTINUOUS
 10
900.5603
 20
1297.843
 30
0.0
 11
892.858
 21
1286.842
 31
0.0
  0
LINE
  5
DE
  8
5
  6
CONTINUOUS
 10
900.5603
 20
1297.843
 30
0.0
 11
900.5603
 21
1150.428
 31
0.0
  0
LINE
  5
DF
  8
5
  6
CONTINUOUS
 10
859.858
 20
1258.342
 30
0.0
 11
859.858
 21
1253.072
 31
0.0
  0
LINE
  5
E0
  8
5
  6
CONTINUOUS
 10
757.8579
 20
1258.342
 30
0.0
 11
757.8579
 21
1253.072
 31
0.0
  0
LINE
  5
E1
  8
5
  6
CONTINUOUS
 10
954.3579
 20
1002.842
 30
0.0
 11
965.6669
 21
1002.842
 31
0.0
  0
LINE
  5
E2
  8
5
  6
CONTINUOUS
 10
1076.186
 20
1650.642
 30
0.0
 11
1076.186
 21
1654.842
 31
0.0
  0
LINE
  5
E3
  8
5
  6
CONTINUOUS
 10
993.6918
 20
1469.843
 30
0.0
 11
991.3711
 21
1403.38
 31
0.0
  0
LINE
  5
E4
  8
5
  6
CONTINUOUS
 10
558.6009
 20
1424.581
 30
0.0
 11
558.6009
 21
1424.581
 31
0.0
  0
LINE
  5
E5
  8
5
  6
CONTINUOUS
 10
1404.371
 20
1461.743
 30
0.0
 11
1279.235
 21
1461.743
 31
0.0
  0
LINE
  5
E6
  8
5
  6
CONTINUOUS
 10
1257.878
 20
1444.493
 30
0.0
 11
1406.574
 21
1444.493
 31
0.0
  0
LINE
  5
E7
  8
5
  6
CONTINUOUS
 10
1406.577
 20
1444.518
 30
0.0
 11
1406.574
 21
1444.493
 31
0.0
  0
LINE
  5
E8
  8
5
  6
CONTINUOUS
 10
1404.358
 20
1427.343
 30
0.0
 11
1384.138
 21
1427.342
 31
0.0
  0
LINE
  5
E9
  8
5
  6
CONTINUOUS
 10
1289.578
 20
1427.342
 30
0.0
 11
1253.358
 21
1427.342
 31
0.0
  0
LINE
  5
EA
  8
5
  6
CONTINUOUS
 10
1406.574
 20
1444.493
 30
0.0
 11
1404.358
 21
1427.343
 31
0.0
  0
LINE
  5
EB
  8
5
  6
CONTINUOUS
 10
1406.574
 20
1089.642
 30
0.0
 11
966.1421
 21
1089.642
 31
0.0
  0
LINE
  5
EC
  8
5
  6
CONTINUOUS
 10
1404.358
 20
1106.742
 30
0.0
 11
1406.574
 21
1089.642
 31
0.0
  0
LINE
  5
ED
  8
5
  6
CONTINUOUS
 10
968.358
 20
1106.742
 30
0.0
 11
1404.358
 21
1106.742
 31
0.0
  0
LINE
  5
EE
  8
5
  6
CONTINUOUS
 10
966.142
 20
1089.642
 30
0.0
 11
968.358
 21
1106.742
 31
0.0
  0
LINE
  5
EF
  8
5
  6
CONTINUOUS
 10
1406.574
 20
1354.042
 30
0.0
 11
966.1419
 21
1354.042
 31
0.0
  0
LINE
  5
F0
  8
5
  6
CONTINUOUS
 10
968.358
 20
1336.542
 30
0.0
 11
966.1419
 21
1354.042
 31
0.0
  0
LINE
  5
F1
  8
5
  6
CONTINUOUS
 10
1404.358
 20
1336.542
 30
0.0
 11
968.358
 21
1336.542
 31
0.0
  0
LINE
  5
F2
  8
5
  6
CONTINUOUS
 10
1406.574
 20
1354.042
 30
0.0
 11
1404.358
 21
1336.542
 31
0.0
  0
LINE
  5
F3
  8
5
  6
CONTINUOUS
 10
1404.358
 20
1336.542
 30
0.0
 11
1408.829
 21
1336.542
 31
0.0
  0
LINE
  5
F4
  8
5
  6
CONTINUOUS
 10
1408.829
 20
1107.142
 30
0.0
 11
1404.358
 21
1107.142
 31
0.0
  0
LINE
  5
F5
  8
5
  6
CONTINUOUS
 10
1404.358
 20
1106.742
 30
0.0
 11
1404.358
 21
1107.142
 31
0.0
  0
LINE
  5
F6
  8
5
  6
CONTINUOUS
 10
1407.048
 20
1221.842
 30
0.0
 11
1404.358
 21
1221.842
 31
0.0
  0
LINE
  5
F7
  8
5
  6
CONTINUOUS
 10
1404.358
 20
1204.542
 30
0.0
 11
1404.358
 21
1221.842
 31
0.0
  0
LINE
  5
F8
  8
5
  6
CONTINUOUS
 10
1404.358
 20
1204.542
 30
0.0
 11
1407.136
 21
1204.542
 31
0.0
  0
LINE
  5
F9
  8
5
  6
CONTINUOUS
 10
1407.398
 20
1256.342
 30
0.0
 11
1404.358
 21
1256.342
 31
0.0
  0
LINE
  5
FA
  8
5
  6
CONTINUOUS
 10
1404.358
 20
1239.143
 30
0.0
 11
1404.358
 21
1256.342
 31
0.0
  0
LINE
  5
FB
  8
5
  6
CONTINUOUS
 10
1404.358
 20
1239.143
 30
0.0
 11
1407.136
 21
1239.143
 31
0.0
  0
LINE
  5
FC
  8
5
  6
CONTINUOUS
 10
1408.289
 20
1286.242
 30
0.0
 11
1404.358
 21
1286.242
 31
0.0
  0
LINE
  5
FD
  8
5
  6
CONTINUOUS
 10
1404.358
 20
1271.342
 30
0.0
 11
1404.358
 21
1286.242
 31
0.0
  0
LINE
  5
FE
  8
5
  6
CONTINUOUS
 10
1404.358
 20
1271.342
 30
0.0
 11
1407.774
 21
1271.342
 31
0.0
  0
LINE
  5
FF
  8
5
  6
CONTINUOUS
 10
1409.912
 20
1318.242
 30
0.0
 11
1404.358
 21
1318.242
 31
0.0
  0
LINE
  5
100
  8
5
  6
CONTINUOUS
 10
1404.358
 20
1301.243
 30
0.0
 11
1404.358
 21
1318.242
 31
0.0
  0
LINE
  5
101
  8
5
  6
CONTINUOUS
 10
1404.358
 20
1301.243
 30
0.0
 11
1408.957
 21
1301.243
 31
0.0
  0
LINE
  5
102
  8
5
  6
CONTINUOUS
 10
1407.398
 20
1187.343
 30
0.0
 11
1404.358
 21
1187.343
 31
0.0
  0
LINE
  5
103
  8
5
  6
CONTINUOUS
 10
1404.358
 20
1172.442
 30
0.0
 11
1404.358
 21
1187.343
 31
0.0
  0
LINE
  5
104
  8
5
  6
CONTINUOUS
 10
1404.358
 20
1172.442
 30
0.0
 11
1407.771
 21
1172.442
 31
0.0
  0
LINE
  5
105
  8
5
  6
CONTINUOUS
 10
1408.289
 20
1157.443
 30
0.0
 11
1404.358
 21
1157.443
 31
0.0
  0
LINE
  5
106
  8
5
  6
CONTINUOUS
 10
1404.358
 20
1142.442
 30
0.0
 11
1404.358
 21
1157.443
 31
0.0
  0
LINE
  5
107
  8
5
  6
CONTINUOUS
 10
1404.358
 20
1142.442
 30
0.0
 11
1408.957
 21
1142.442
 31
0.0
  0
LINE
  5
108
  8
5
  6
CONTINUOUS
 10
1409.912
 20
1125.442
 30
0.0
 11
1404.358
 21
1125.442
 31
0.0
  0
LINE
  5
109
  8
5
  6
CONTINUOUS
 10
1404.358
 20
1107.142
 30
0.0
 11
1404.358
 21
1125.442
 31
0.0
  0
LINE
  5
10A
  8
5
  6
CONTINUOUS
 10
1404.358
 20
1187.343
 30
0.0
 11
1404.358
 21
1204.542
 31
0.0
  0
LINE
  5
10B
  8
5
  6
CONTINUOUS
 10
1404.358
 20
1221.842
 30
0.0
 11
1404.358
 21
1239.143
 31
0.0
  0
LINE
  5
10C
  8
5
  6
CONTINUOUS
 10
1404.358
 20
1256.342
 30
0.0
 11
1404.358
 21
1271.342
 31
0.0
  0
LINE
  5
10D
  8
5
  6
CONTINUOUS
 10
1404.358
 20
1286.242
 30
0.0
 11
1404.358
 21
1301.243
 31
0.0
  0
LINE
  5
10E
  8
5
  6
CONTINUOUS
 10
1404.358
 20
1318.242
 30
0.0
 11
1404.358
 21
1336.542
 31
0.0
  0
LINE
  5
10F
  8
5
  6
CONTINUOUS
 10
1404.358
 20
1157.443
 30
0.0
 11
1404.358
 21
1172.442
 31
0.0
  0
LINE
  5
110
  8
5
  6
CONTINUOUS
 10
1404.358
 20
1125.442
 30
0.0
 11
1404.358
 21
1142.442
 31
0.0
  0
LINE
  5
111
  8
5
  6
CONTINUOUS
 10
963.8872
 20
1336.542
 30
0.0
 11
968.358
 21
1336.542
 31
0.0
  0
LINE
  5
112
  8
5
  6
CONTINUOUS
 10
968.358
 20
1107.142
 30
0.0
 11
963.8872
 21
1107.142
 31
0.0
  0
LINE
  5
113
  8
5
  6
CONTINUOUS
 10
968.358
 20
1107.142
 30
0.0
 11
968.358
 21
1106.742
 31
0.0
  0
LINE
  5
114
  8
5
  6
CONTINUOUS
 10
965.5801
 20
1204.542
 30
0.0
 11
968.358
 21
1204.542
 31
0.0
  0
LINE
  5
115
  8
5
  6
CONTINUOUS
 10
968.358
 20
1221.842
 30
0.0
 11
968.358
 21
1204.542
 31
0.0
  0
LINE
  5
116
  8
5
  6
CONTINUOUS
 10
968.358
 20
1221.842
 30
0.0
 11
965.6678
 21
1221.842
 31
0.0
  0
LINE
  5
117
  8
5
  6
CONTINUOUS
 10
965.5801
 20
1239.143
 30
0.0
 11
968.358
 21
1239.143
 31
0.0
  0
LINE
  5
118
  8
5
  6
CONTINUOUS
 10
968.358
 20
1256.342
 30
0.0
 11
968.358
 21
1239.143
 31
0.0
  0
LINE
  5
119
  8
5
  6
CONTINUOUS
 10
968.358
 20
1256.342
 30
0.0
 11
965.3175
 21
1256.342
 31
0.0
  0
LINE
  5
11A
  8
5
  6
CONTINUOUS
 10
964.9419
 20
1271.342
 30
0.0
 11
968.358
 21
1271.342
 31
0.0
  0
LINE
  5
11B
  8
5
  6
CONTINUOUS
 10
968.358
 20
1286.242
 30
0.0
 11
968.358
 21
1271.342
 31
0.0
  0
LINE
  5
11C
  8
5
  6
CONTINUOUS
 10
968.358
 20
1286.242
 30
0.0
 11
964.4274
 21
1286.242
 31
0.0
  0
LINE
  5
11D
  8
5
  6
CONTINUOUS
 10
963.759
 20
1301.243
 30
0.0
 11
968.358
 21
1301.243
 31
0.0
  0
LINE
  5
11E
  8
5
  6
CONTINUOUS
 10
968.358
 20
1318.242
 30
0.0
 11
968.358
 21
1301.243
 31
0.0
  0
LINE
  5
11F
  8
5
  6
CONTINUOUS
 10
968.358
 20
1318.242
 30
0.0
 11
962.8037
 21
1318.242
 31
0.0
  0
LINE
  5
120
  8
5
  6
CONTINUOUS
 10
964.9447
 20
1172.442
 30
0.0
 11
968.358
 21
1172.442
 31
0.0
  0
LINE
  5
121
  8
5
  6
CONTINUOUS
 10
968.358
 20
1187.343
 30
0.0
 11
968.358
 21
1172.442
 31
0.0
  0
LINE
  5
122
  8
5
  6
CONTINUOUS
 10
968.358
 20
1187.343
 30
0.0
 11
965.3175
 21
1187.343
 31
0.0
  0
LINE
  5
123
  8
5
  6
CONTINUOUS
 10
963.759
 20
1142.442
 30
0.0
 11
968.358
 21
1142.442
 31
0.0
  0
LINE
  5
124
  8
5
  6
CONTINUOUS
 10
968.358
 20
1157.443
 30
0.0
 11
968.358
 21
1142.442
 31
0.0
  0
LINE
  5
125
  8
5
  6
CONTINUOUS
 10
968.358
 20
1157.443
 30
0.0
 11
964.4274
 21
1157.443
 31
0.0
  0
LINE
  5
126
  8
5
  6
CONTINUOUS
 10
968.358
 20
1125.442
 30
0.0
 11
968.358
 21
1107.142
 31
0.0
  0
LINE
  5
127
  8
5
  6
CONTINUOUS
 10
968.358
 20
1125.442
 30
0.0
 11
962.8037
 21
1125.442
 31
0.0
  0
LINE
  5
128
  8
5
  6
CONTINUOUS
 10
968.358
 20
1204.542
 30
0.0
 11
968.358
 21
1187.343
 31
0.0
  0
LINE
  5
129
  8
5
  6
CONTINUOUS
 10
968.358
 20
1239.143
 30
0.0
 11
968.358
 21
1221.842
 31
0.0
  0
LINE
  5
12A
  8
5
  6
CONTINUOUS
 10
968.358
 20
1271.342
 30
0.0
 11
968.358
 21
1256.342
 31
0.0
  0
LINE
  5
12B
  8
5
  6
CONTINUOUS
 10
968.358
 20
1301.243
 30
0.0
 11
968.358
 21
1286.242
 31
0.0
  0
LINE
  5
12C
  8
5
  6
CONTINUOUS
 10
968.358
 20
1336.542
 30
0.0
 11
968.358
 21
1318.242
 31
0.0
  0
LINE
  5
12D
  8
5
  6
CONTINUOUS
 10
968.358
 20
1172.442
 30
0.0
 11
968.358
 21
1157.443
 31
0.0
  0
LINE
  5
12E
  8
5
  6
CONTINUOUS
 10
968.358
 20
1142.442
 30
0.0
 11
968.358
 21
1125.442
 31
0.0
  0
LINE
  5
12F
  8
5
  6
CONTINUOUS
 10
1404.358
 20
1125.442
 30
0.0
 11
968.358
 21
1125.442
 31
0.0
  0
LINE
  5
130
  8
5
  6
CONTINUOUS
 10
968.358
 20
1107.142
 30
0.0
 11
1404.358
 21
1107.142
 31
0.0
  0
LINE
  5
131
  8
5
  6
CONTINUOUS
 10
1404.358
 20
1157.443
 30
0.0
 11
968.358
 21
1157.443
 31
0.0
  0
LINE
  5
132
  8
5
  6
CONTINUOUS
 10
968.358
 20
1142.442
 30
0.0
 11
1404.358
 21
1142.442
 31
0.0
  0
LINE
  5
133
  8
5
  6
CONTINUOUS
 10
1404.358
 20
1187.343
 30
0.0
 11
968.358
 21
1187.343
 31
0.0
  0
LINE
  5
134
  8
5
  6
CONTINUOUS
 10
968.358
 20
1172.442
 30
0.0
 11
1404.358
 21
1172.442
 31
0.0
  0
LINE
  5
135
  8
5
  6
CONTINUOUS
 10
1404.358
 20
1318.242
 30
0.0
 11
968.358
 21
1318.242
 31
0.0
  0
LINE
  5
136
  8
5
  6
CONTINUOUS
 10
968.358
 20
1301.243
 30
0.0
 11
1404.358
 21
1301.243
 31
0.0
  0
LINE
  5
137
  8
5
  6
CONTINUOUS
 10
1404.358
 20
1286.242
 30
0.0
 11
968.358
 21
1286.242
 31
0.0
  0
LINE
  5
138
  8
5
  6
CONTINUOUS
 10
968.358
 20
1271.342
 30
0.0
 11
1404.358
 21
1271.342
 31
0.0
  0
LINE
  5
139
  8
5
  6
CONTINUOUS
 10
1404.358
 20
1256.342
 30
0.0
 11
968.358
 21
1256.342
 31
0.0
  0
LINE
  5
13A
  8
5
  6
CONTINUOUS
 10
968.358
 20
1239.143
 30
0.0
 11
1404.358
 21
1239.143
 31
0.0
  0
LINE
  5
13C
  8
5
  6
CONTINUOUS
 10
968.358
 20
1204.542
 30
0.0
 11
1404.358
 21
1204.542
 31
0.0
  0
LINE
  5
13D
  8
5
  6
CONTINUOUS
 10
213.7714
 20
1001.842
 30
0.0
 11
225.2759
 21
1018.273
 31
0.0
  0
LINE
  5
13E
  8
5
  6
CONTINUOUS
 10
1408.803
 20
1408.28
 30
0.0
 11
1408.803
 21
1427.142
 31
0.0
  0
LINE
  5
13F
  8
5
  6
CONTINUOUS
 10
1406.574
 20
1444.493
 30
0.0
 11
1406.574
 21
1396.364
 31
0.0
  0
LINE
  5
140
  8
5
  6
CONTINUOUS
 10
1404.358
 20
1381.783
 30
0.0
 11
1404.358
 21
1427.343
 31
0.0
  0
LINE
  5
141
  8
5
  6
CONTINUOUS
 10
1307.358
 20
1425.136
 30
0.0
 11
1290.242
 21
1411.036
 31
0.0
  0
LINE
  5
142
  8
5
  6
CONTINUOUS
 10
1307.358
 20
1442.813
 30
0.0
 11
1307.358
 21
1425.136
 31
0.0
  0
LINE
  5
143
  8
5
  6
CONTINUOUS
 10
1290.242
 20
1433.113
 30
0.0
 11
1307.358
 21
1442.813
 31
0.0
  0
LINE
  5
144
  8
5
  6
CONTINUOUS
 10
1290.242
 20
1411.036
 30
0.0
 11
1290.242
 21
1433.113
 31
0.0
  0
LINE
  5
145
  8
5
  6
CONTINUOUS
 10
1366.358
 20
1442.813
 30
0.0
 11
1383.474
 21
1433.113
 31
0.0
  0
LINE
  5
146
  8
5
  6
CONTINUOUS
 10
1366.358
 20
1425.136
 30
0.0
 11
1366.358
 21
1442.813
 31
0.0
  0
LINE
  5
147
  8
5
  6
CONTINUOUS
 10
1383.474
 20
1411.036
 30
0.0
 11
1366.358
 21
1425.136
 31
0.0
  0
LINE
  5
148
  8
5
  6
CONTINUOUS
 10
1383.474
 20
1433.113
 30
0.0
 11
1383.474
 21
1411.036
 31
0.0
  0
LINE
  5
149
  8
5
  6
CONTINUOUS
 10
545.233
 20
1001.842
 30
0.0
 11
533.7284
 21
1018.273
 31
0.0
  0
LINE
  5
14A
  8
5
  6
CONTINUOUS
 10
492.0022
 20
986.3424
 30
0.0
 11
492.0022
 21
981.8424
 31
0.0
  0
LINE
  5
14B
  8
5
  6
CONTINUOUS
 10
1318.858
 20
1391.566
 30
0.0
 11
1326.858
 21
1398.633
 31
0.0
  0
LINE
  5
14C
  8
5
  6
CONTINUOUS
 10
1346.858
 20
1398.633
 30
0.0
 11
1354.858
 21
1391.566
 31
0.0
  0
LINE
  5
14D
  8
5
  6
CONTINUOUS
 10
1326.858
 20
1398.633
 30
0.0
 11
1346.858
 21
1398.633
 31
0.0
  0
LINE
  5
14E
  8
5
  6
CONTINUOUS
 10
1366.358
 20
1425.136
 30
0.0
 11
1307.358
 21
1425.136
 31
0.0
  0
LINE
  5
14F
  8
5
  6
CONTINUOUS
 10
1307.358
 20
1442.813
 30
0.0
 11
1366.358
 21
1442.813
 31
0.0
  0
LINE
  5
150
  8
5
  6
CONTINUOUS
 10
1318.858
 20
1381.783
 30
0.0
 11
1354.858
 21
1381.783
 31
0.0
  0
LINE
  5
151
  8
5
  6
CONTINUOUS
 10
267.0022
 20
981.8424
 30
0.0
 11
267.0022
 21
986.3424
 31
0.0
  0
LINE
  5
152
  8
5
  6
CONTINUOUS
 10
2102.695
 20
1258.343
 30
0.0
 11
2102.695
 21
1253.072
 31
0.0
  0
LINE
  5
153
  8
5
  6
CONTINUOUS
 10
2084.695
 20
1258.343
 30
0.0
 11
2084.695
 21
1253.072
 31
0.0
  0
LINE
  5
154
  8
5
  6
CONTINUOUS
 10
1253.358
 20
1381.783
 30
0.0
 11
1285.685
 21
1381.783
 31
0.0
  0
LINE
  5
155
  8
5
  6
CONTINUOUS
 10
1208.345
 20
1403.38
 30
0.0
 11
991.3711
 21
1403.38
 31
0.0
  0
LINE
  5
156
  8
5
  6
CONTINUOUS
 10
1388.031
 20
1381.783
 30
0.0
 11
1404.358
 21
1381.783
 31
0.0
  0
LINE
  5
157
  8
5
  6
CONTINUOUS
 10
1387.013
 20
1402.353
 30
0.0
 11
1388.031
 21
1381.783
 31
0.0
  0
LINE
  5
158
  8
5
  6
CONTINUOUS
 10
1285.685
 20
1381.783
 30
0.0
 11
1286.702
 21
1402.353
 31
0.0
  0
LINE
  5
159
  8
5
  6
CONTINUOUS
 10
1085.686
 20
1650.642
 30
0.0
 11
1085.686
 21
1654.842
 31
0.0
  0
LINE
  5
15A
  8
5
  6
CONTINUOUS
 10
1290.242
 20
1411.036
 30
0.0
 11
1287.108
 21
1371.443
 31
0.0
  0
LINE
  5
15B
  8
5
  6
CONTINUOUS
 10
1286.702
 20
1402.353
 30
0.0
 11
1290.242
 21
1433.113
 31
0.0
  0
LINE
  5
15C
  8
5
  6
CONTINUOUS
 10
1387.013
 20
1402.353
 30
0.0
 11
1383.474
 21
1433.113
 31
0.0
  0
LINE
  5
15D
  8
5
  6
CONTINUOUS
 10
1383.474
 20
1411.036
 30
0.0
 11
1386.608
 21
1371.443
 31
0.0
  0
LINE
  5
15E
  8
5
  6
CONTINUOUS
 10
1318.858
 20
1371.442
 30
0.0
 11
1318.858
 21
1391.566
 31
0.0
  0
LINE
  5
15F
  8
5
  6
CONTINUOUS
 10
1354.858
 20
1391.566
 30
0.0
 11
1354.858
 21
1371.442
 31
0.0
  0
LINE
  5
160
  8
5
  6
CONTINUOUS
 10
1604.858
 20
1081.843
 30
0.0
 11
1540.858
 21
998.3424
 31
0.0
  0
LINE
  5
161
  8
5
  6
CONTINUOUS
 10
1604.858
 20
1361.842
 30
0.0
 11
1540.858
 21
1445.342
 31
0.0
  0
LINE
  5
162
  8
5
  6
CONTINUOUS
 10
1604.858
 20
1361.842
 30
0.0
 11
1604.858
 21
1081.843
 31
0.0
  0
LINE
  5
163
  8
5
  6
CONTINUOUS
 10
1613.858
 20
1081.843
 30
0.0
 11
1604.858
 21
1081.843
 31
0.0
  0
LINE
  5
164
  8
5
  6
CONTINUOUS
 10
1613.858
 20
1361.842
 30
0.0
 11
1604.858
 21
1361.842
 31
0.0
  0
LINE
  5
165
  8
5
  6
CONTINUOUS
 10
1411.858
 20
1099.546
 30
0.0
 11
1472.358
 21
1099.546
 31
0.0
  0
LINE
  5
166
  8
5
  6
CONTINUOUS
 10
1472.358
 20
1344.138
 30
0.0
 11
1411.858
 21
1344.138
 31
0.0
  0
LINE
  5
167
  8
5
  6
CONTINUOUS
 10
1540.858
 20
1342.896
 30
0.0
 11
1472.358
 21
1342.896
 31
0.0
  0
LINE
  5
168
  8
5
  6
CONTINUOUS
 10
1472.358
 20
1100.789
 30
0.0
 11
1540.858
 21
1100.789
 31
0.0
  0
LINE
  5
169
  8
5
  6
CONTINUOUS
 10
226.5022
 20
981.8424
 30
0.0
 11
241.0005
 21
1002.548
 31
0.0
  0
LINE
  5
16A
  8
5
  6
CONTINUOUS
 10
181.0053
 20
1062.543
 30
0.0
 11
138.5022
 21
1001.842
 31
0.0
  0
LINE
  5
16B
  8
5
  6
CONTINUOUS
 10
532.5022
 20
981.8424
 30
0.0
 11
518.0039
 21
1002.548
 31
0.0
  0
LINE
  5
16C
  8
5
  6
CONTINUOUS
 10
1116.654
 20
1650.642
 30
0.0
 11
1116.654
 21
1654.842
 31
0.0
  0
LINE
  5
16D
  8
5
  6
CONTINUOUS
 10
1131.482
 20
1650.642
 30
0.0
 11
1131.482
 21
1654.842
 31
0.0
  0
LINE
  5
16E
  8
5
  6
CONTINUOUS
 10
1162.3
 20
1650.642
 30
0.0
 11
1162.3
 21
1654.842
 31
0.0
  0
LINE
  5
16F
  8
5
  6
CONTINUOUS
 10
620.5022
 20
1001.842
 30
0.0
 11
577.999
 21
1062.543
 31
0.0
  0
LINE
  5
170
  8
5
  6
CONTINUOUS
 10
285.5022
 20
981.8424
 30
0.0
 11
267.0022
 21
981.8424
 31
0.0
  0
LINE
  5
171
  8
5
  6
CONTINUOUS
 10
473.5022
 20
981.8424
 30
0.0
 11
456.5022
 21
981.8424
 31
0.0
  0
LINE
  5
172
  8
5
  6
CONTINUOUS
 10
1177.128
 20
1650.642
 30
0.0
 11
1177.128
 21
1654.842
 31
0.0
  0
LINE
  5
173
  8
5
  6
CONTINUOUS
 10
1209.858
 20
1631.143
 30
0.0
 11
1209.858
 21
1650.642
 31
0.0
  0
LINE
  5
174
  8
5
  6
CONTINUOUS
 10
439.5022
 20
981.8424
 30
0.0
 11
424.5022
 21
981.8424
 31
0.0
  0
LINE
  5
175
  8
5
  6
CONTINUOUS
 10
409.5022
 20
981.8424
 30
0.0
 11
394.5022
 21
981.8424
 31
0.0
  0
LINE
  5
176
  8
5
  6
CONTINUOUS
 10
319.5022
 20
981.8424
 30
0.0
 11
302.5022
 21
981.8424
 31
0.0
  0
LINE
  5
177
  8
5
  6
CONTINUOUS
 10
349.5022
 20
981.8424
 30
0.0
 11
334.5022
 21
981.8424
 31
0.0
  0
LINE
  5
178
  8
5
  6
CONTINUOUS
 10
379.5022
 20
981.8424
 30
0.0
 11
364.5022
 21
981.8424
 31
0.0
  0
LINE
  5
179
  8
5
  6
CONTINUOUS
 10
912.1579
 20
1397.493
 30
0.0
 11
902.158
 21
1397.492
 31
0.0
  0
LINE
  5
17A
  8
5
  6
CONTINUOUS
 10
910.358
 20
1046.192
 30
0.0
 11
912.1579
 21
1046.192
 31
0.0
  0
LINE
  5
17B
  8
5
  6
CONTINUOUS
 10
926.1581
 20
1429.449
 30
0.0
 11
912.158
 21
1410.18
 31
0.0
  0
LINE
  5
17C
  8
5
  6
CONTINUOUS
 10
912.158
 20
1033.505
 30
0.0
 11
926.1581
 21
1014.236
 31
0.0
  0
LINE
  5
17D
  8
5
  6
CONTINUOUS
 10
302.5022
 20
981.8424
 30
0.0
 11
285.5022
 21
981.8424
 31
0.0
  0
LINE
  5
17E
  8
5
  6
CONTINUOUS
 10
902.158
 20
1297.898
 30
0.0
 11
900.5603
 21
1297.843
 31
0.0
  0
LINE
  5
17F
  8
5
  6
CONTINUOUS
 10
492.0022
 20
981.8424
 30
0.0
 11
473.5022
 21
981.8424
 31
0.0
  0
LINE
  5
180
  8
5
  6
CONTINUOUS
 10
900.5603
 20
1150.428
 30
0.0
 11
902.158
 21
1150.369
 31
0.0
  0
LINE
  5
181
  8
5
  6
CONTINUOUS
 10
989.858
 20
1650.642
 30
0.0
 11
989.858
 21
1631.143
 31
0.0
  0
LINE
  5
182
  8
5
  6
CONTINUOUS
 10
258.0022
 20
1469.842
 30
0.0
 11
258.0022
 21
1506.142
 31
0.0
  0
LINE
  5
183
  8
5
  6
CONTINUOUS
 10
501.0022
 20
1506.142
 30
0.0
 11
501.0022
 21
1469.842
 31
0.0
  0
LINE
  5
184
  8
5
  6
CONTINUOUS
 10
456.5022
 20
981.8424
 30
0.0
 11
439.5022
 21
981.8424
 31
0.0
  0
LINE
  5
185
  8
5
  6
CONTINUOUS
 10
424.5022
 20
981.8424
 30
0.0
 11
409.5022
 21
981.8424
 31
0.0
  0
LINE
  5
186
  8
5
  6
CONTINUOUS
 10
394.5022
 20
981.8424
 30
0.0
 11
379.5022
 21
981.8424
 31
0.0
  0
LINE
  5
187
  8
5
  6
CONTINUOUS
 10
1208.345
 20
1403.38
 30
0.0
 11
1206.024
 21
1469.843
 31
0.0
  0
LINE
  5
188
  8
5
  6
CONTINUOUS
 10
334.5022
 20
981.8424
 30
0.0
 11
319.5022
 21
981.8424
 31
0.0
  0
LINE
  5
189
  8
5
  6
CONTINUOUS
 10
364.5022
 20
981.8424
 30
0.0
 11
349.5022
 21
981.8424
 31
0.0
  0
LINE
  5
18A
  8
5
  6
CONTINUOUS
 10
128.5022
 20
1124.742
 30
0.0
 11
128.5022
 21
1121.742
 31
0.0
  0
LINE
  5
18B
  8
5
  6
CONTINUOUS
 10
226.5022
 20
971.8424
 30
0.0
 11
226.5022
 21
1001.842
 31
0.0
  0
LINE
  5
18C
  8
5
  6
CONTINUOUS
 10
138.5022
 20
1001.842
 30
0.0
 11
138.5022
 21
971.8424
 31
0.0
  0
LINE
  5
18D
  8
5
  6
CONTINUOUS
 10
226.5022
 20
1001.842
 30
0.0
 11
138.5022
 21
1001.842
 31
0.0
  0
LINE
  5
18E
  8
5
  6
CONTINUOUS
 10
138.5022
 20
971.8424
 30
0.0
 11
226.5022
 21
971.8424
 31
0.0
  0
LINE
  5
18F
  8
5
  6
CONTINUOUS
 10
532.5022
 20
971.8424
 30
0.0
 11
532.5022
 21
1001.842
 31
0.0
  0
LINE
  5
190
  8
5
  6
CONTINUOUS
 10
620.5022
 20
1001.842
 30
0.0
 11
620.5022
 21
971.8424
 31
0.0
  0
LINE
  5
191
  8
5
  6
CONTINUOUS
 10
532.5022
 20
1001.842
 30
0.0
 11
620.5022
 21
1001.842
 31
0.0
  0
LINE
  5
192
  8
5
  6
CONTINUOUS
 10
620.5022
 20
971.8424
 30
0.0
 11
532.5022
 21
971.8424
 31
0.0
  0
LINE
  5
193
  8
5
  6
CONTINUOUS
 10
503.5022
 20
1506.142
 30
0.0
 11
255.5022
 21
1506.142
 31
0.0
  0
LINE
  5
194
  8
5
  6
CONTINUOUS
 10
492.0022
 20
981.8424
 30
0.0
 11
487.5022
 21
986.3424
 31
0.0
  0
LINE
  5
195
  8
5
  6
CONTINUOUS
 10
267.0021
 20
981.8424
 30
0.0
 11
271.5022
 21
986.3424
 31
0.0
  0
LINE
  5
196
  8
5
  6
CONTINUOUS
 10
285.5022
 20
981.8424
 30
0.0
 11
285.5022
 21
986.3424
 31
0.0
  0
LINE
  5
197
  8
5
  6
CONTINUOUS
 10
473.5022
 20
986.3424
 30
0.0
 11
473.5022
 21
981.8424
 31
0.0
  0
LINE
  5
198
  8
5
  6
CONTINUOUS
 10
364.5022
 20
986.3424
 30
0.0
 11
364.5021
 21
981.8424
 31
0.0
  0
LINE
  5
199
  8
5
  6
CONTINUOUS
 10
379.5022
 20
981.8424
 30
0.0
 11
379.5022
 21
986.3424
 31
0.0
  0
LINE
  5
19A
  8
5
  6
CONTINUOUS
 10
334.5022
 20
986.3424
 30
0.0
 11
334.5022
 21
981.8424
 31
0.0
  0
LINE
  5
19B
  8
5
  6
CONTINUOUS
 10
349.5022
 20
981.8424
 30
0.0
 11
349.5022
 21
986.3424
 31
0.0
  0
LINE
  5
19C
  8
5
  6
CONTINUOUS
 10
302.5022
 20
986.3424
 30
0.0
 11
302.5021
 21
981.8424
 31
0.0
  0
LINE
  5
19D
  8
5
  6
CONTINUOUS
 10
319.5023
 20
981.8424
 30
0.0
 11
319.5022
 21
986.3424
 31
0.0
  0
LINE
  5
19E
  8
5
  6
CONTINUOUS
 10
394.5022
 20
986.3424
 30
0.0
 11
394.5022
 21
981.8424
 31
0.0
  0
LINE
  5
19F
  8
5
  6
CONTINUOUS
 10
409.5021
 20
981.8424
 30
0.0
 11
409.5022
 21
986.3424
 31
0.0
  0
LINE
  5
1A0
  8
5
  6
CONTINUOUS
 10
424.5022
 20
986.3424
 30
0.0
 11
424.5022
 21
981.8424
 31
0.0
  0
LINE
  5
1A1
  8
5
  6
CONTINUOUS
 10
439.5022
 20
981.8424
 30
0.0
 11
439.5022
 21
986.3424
 31
0.0
  0
LINE
  5
1A2
  8
5
  6
CONTINUOUS
 10
456.5022
 20
986.3424
 30
0.0
 11
456.5022
 21
981.8424
 31
0.0
  0
LINE
  5
1A3
  8
5
  6
CONTINUOUS
 10
128.5021
 20
1121.742
 30
0.0
 11
139.5022
 21
1121.742
 31
0.0
  0
LINE
  5
1A4
  8
5
  6
CONTINUOUS
 10
139.5022
 20
1124.742
 30
0.0
 11
128.5021
 21
1124.742
 31
0.0
  0
LINE
  5
1A5
  8
5
  6
CONTINUOUS
 10
1317.858
 20
644.4877
 30
0.0
 11
1317.858
 21
643.4877
 31
0.0
  0
LINE
  5
1A6
  8
5
  6
CONTINUOUS
 10
1317.858
 20
163.4877
 30
0.0
 11
1317.858
 21
162.4877
 31
0.0
  0
LINE
  5
1A7
  8
5
  6
CONTINUOUS
 10
1077.858
 20
643.4877
 30
0.0
 11
1077.858
 21
644.4877
 31
0.0
  0
LINE
  5
1A8
  8
5
  6
CONTINUOUS
 10
1077.858
 20
162.4877
 30
0.0
 11
1077.858
 21
163.4877
 31
0.0
  0
LINE
  5
1A9
  8
5
  6
CONTINUOUS
 10
231.5022
 20
1531.642
 30
0.0
 11
187.0022
 21
1531.642
 31
0.0
  0
LINE
  5
1AA
  8
5
  6
CONTINUOUS
 10
231.5022
 20
1530.142
 30
0.0
 11
231.5022
 21
1554.642
 31
0.0
  0
LINE
  5
1AB
  8
5
  6
CONTINUOUS
 10
534.5022
 20
1554.642
 30
0.0
 11
222.0022
 21
1554.642
 31
0.0
  0
LINE
  5
1AC
  8
5
  6
CONTINUOUS
 10
187.0022
 20
1531.642
 30
0.0
 11
187.0022
 21
1579.642
 31
0.0
  0
LINE
  5
1AD
  8
5
  6
CONTINUOUS
 10
231.5022
 20
1530.142
 30
0.0
 11
255.5022
 21
1506.142
 31
0.0
  0
LINE
  5
1AE
  8
5
  6
CONTINUOUS
 10
527.5022
 20
1530.142
 30
0.0
 11
503.5022
 21
1506.142
 31
0.0
  0
LINE
  5
1AF
  8
5
  6
CONTINUOUS
 10
527.5022
 20
1554.642
 30
0.0
 11
527.5022
 21
1530.142
 31
0.0
  0
LINE
  5
1B0
  8
5
  6
CONTINUOUS
 10
266.5022
 20
1650.642
 30
0.0
 11
489.5096
 21
1650.642
 31
0.0
  0
LINE
  5
1B1
  8
5
  6
CONTINUOUS
 10
379.6655
 20
1650.642
 30
0.0
 11
379.6655
 21
1654.842
 31
0.0
  0
LINE
  5
1B2
  8
5
  6
CONTINUOUS
 10
404.5626
 20
1650.642
 30
0.0
 11
404.5626
 21
1654.842
 31
0.0
  0
LINE
  5
1B3
  8
5
  6
CONTINUOUS
 10
351.499
 20
1650.642
 30
0.0
 11
351.499
 21
1654.842
 31
0.0
  0
LINE
  5
1B4
  8
5
  6
CONTINUOUS
 10
377.5655
 20
1650.642
 30
0.0
 11
377.5655
 21
1654.842
 31
0.0
  0
LINE
  5
1B5
  8
5
  6
CONTINUOUS
 10
351.499
 20
1654.842
 30
0.0
 11
351.499
 21
1654.842
 31
0.0
  0
LINE
  5
1B6
  8
5
  6
CONTINUOUS
 10
379.6655
 20
1654.842
 30
0.0
 11
379.6655
 21
1654.842
 31
0.0
  0
LINE
  5
1B7
  8
5
  6
CONTINUOUS
 10
351.499
 20
1654.842
 30
0.0
 11
351.499
 21
1654.842
 31
0.0
  0
LINE
  5
1B8
  8
5
  6
CONTINUOUS
 10
379.6655
 20
1654.842
 30
0.0
 11
379.6655
 21
1654.842
 31
0.0
  0
LINE
  5
1B9
  8
5
  6
CONTINUOUS
 10
379.6655
 20
1654.842
 30
0.0
 11
382.2202
 21
1654.842
 31
0.0
  0
LINE
  5
1BA
  8
5
  6
CONTINUOUS
 10
382.2202
 20
1654.842
 30
0.0
 11
394.1234
 21
1654.842
 31
0.0
  0
LINE
  5
1BB
  8
5
  6
CONTINUOUS
 10
394.1234
 20
1654.842
 30
0.0
 11
404.5626
 21
1654.842
 31
0.0
  0
LINE
  5
1BC
  8
5
  6
CONTINUOUS
 10
351.499
 20
1654.842
 30
0.0
 11
366.328
 21
1654.842
 31
0.0
  0
LINE
  5
1BD
  8
5
  6
CONTINUOUS
 10
366.328
 20
1654.842
 30
0.0
 11
377.5655
 21
1654.842
 31
0.0
  0
LINE
  5
1BE
  8
5
  6
CONTINUOUS
 10
539.0022
 20
1599.642
 30
0.0
 11
539.0022
 21
1576.642
 31
0.0
  0
LINE
  5
1BF
  8
5
  6
CONTINUOUS
 10
539.0022
 20
1599.642
 30
0.0
 11
489.5022
 21
1599.642
 31
0.0
  0
LINE
  5
1C0
  8
5
  6
CONTINUOUS
 10
489.5096
 20
1650.642
 30
0.0
 11
539.0022
 21
1599.642
 31
0.0
  0
LINE
  5
1C1
  8
5
  6
CONTINUOUS
 10
266.5022
 20
1599.642
 30
0.0
 11
217.0022
 21
1599.642
 31
0.0
  0
LINE
  5
1C2
  8
5
  6
CONTINUOUS
 10
247.5733
 20
1631.142
 30
0.0
 11
266.5022
 21
1650.642
 31
0.0
  0
LINE
  5
1C3
  8
5
  6
CONTINUOUS
 10
188.0022
 20
1631.142
 30
0.0
 11
251.0711
 21
1631.142
 31
0.0
  0
LINE
  5
1C4
  8
5
  6
CONTINUOUS
 10
187.0022
 20
1579.642
 30
0.0
 11
217.0022
 21
1579.642
 31
0.0
  0
LINE
  5
1C5
  8
5
  6
CONTINUOUS
 10
222.0022
 20
1554.642
 30
0.0
 11
222.0022
 21
1576.642
 31
0.0
  0
LINE
  5
1C6
  8
5
  6
CONTINUOUS
 10
534.5022
 20
1576.642
 30
0.0
 11
534.5022
 21
1554.642
 31
0.0
  0
LINE
  5
1C7
  8
5
  6
CONTINUOUS
 10
188.0022
 20
1579.642
 30
0.0
 11
188.0022
 21
1631.142
 31
0.0
  0
LINE
  5
1C8
  8
5
  6
CONTINUOUS
 10
217.0022
 20
1576.642
 30
0.0
 11
217.0022
 21
1599.642
 31
0.0
  0
LINE
  5
1C9
  8
5
  6
CONTINUOUS
 10
539.0022
 20
1576.642
 30
0.0
 11
217.0022
 21
1576.642
 31
0.0
  0
LINE
  5
1CA
  8
5
  6
CONTINUOUS
 10
501.0022
 20
1469.842
 30
0.0
 11
486.0022
 21
1469.842
 31
0.0
  0
LINE
  5
1CB
  8
5
  6
CONTINUOUS
 10
486.0022
 20
1469.842
 30
0.0
 11
273.0022
 21
1469.842
 31
0.0
  0
LINE
  5
1CC
  8
5
  6
CONTINUOUS
 10
273.0022
 20
1469.842
 30
0.0
 11
258.0022
 21
1469.842
 31
0.0
  0
LINE
  5
1CD
  8
5
  6
CONTINUOUS
 10
273.0022
 20
1506.142
 30
0.0
 11
273.0022
 21
1469.842
 31
0.0
  0
LINE
  5
1CE
  8
5
  6
CONTINUOUS
 10
486.0022
 20
1469.842
 30
0.0
 11
486.0022
 21
1506.142
 31
0.0
  0
LINE
  5
1CF
  8
5
  6
CONTINUOUS
 10
231.5021
 20
1530.142
 30
0.0
 11
527.5022
 21
1530.142
 31
0.0
  0
LINE
  5
1D0
  8
5
  6
CONTINUOUS
 10
382.2202
 20
1650.642
 30
0.0
 11
382.2202
 21
1654.842
 31
0.0
  0
LINE
  5
1D1
  8
5
  6
CONTINUOUS
 10
912.1579
 20
403.4877
 30
0.0
 11
912.1579
 21
591.8248
 31
0.0
  0
LINE
  5
1D2
  8
5
  6
CONTINUOUS
 10
912.1579
 20
215.1506
 30
0.0
 11
912.1579
 21
403.4877
 31
0.0
  0
LINE
  5
1D3
  8
5
  6
CONTINUOUS
 10
394.1235
 20
1650.642
 30
0.0
 11
394.1234
 21
1654.842
 31
0.0
  0
LINE
  5
1D4
  8
5
  6
CONTINUOUS
 10
366.328
 20
1650.642
 30
0.0
 11
366.328
 21
1654.842
 31
0.0
  0
LINE
  5
1D5
  8
5
  6
CONTINUOUS
 10
489.5022
 20
1599.642
 30
0.0
 11
266.5022
 21
1599.642
 31
0.0
  0
LINE
  5
1D6
  8
5
  6
CONTINUOUS
 10
489.5022
 20
1599.642
 30
0.0
 11
489.5096
 21
1650.642
 31
0.0
  0
LINE
  5
1D7
  8
5
  6
CONTINUOUS
 10
266.5022
 20
1650.642
 30
0.0
 11
266.5022
 21
1599.642
 31
0.0
  0
LINE
  5
1D8
  8
5
  6
CONTINUOUS
 10
251.0711
 20
1631.142
 30
0.0
 11
220.5022
 21
1599.642
 31
0.0
  0
LINE
  5
1D9
  8
5
  6
CONTINUOUS
 10
985.8579
 20
210.9877
 30
0.0
 11
1213.858
 21
210.9877
 31
0.0
  0
LINE
  5
1DA
  8
5
  6
CONTINUOUS
 10
1053.058
 20
428.5443
 30
0.0
 11
1044.517
 21
403.6469
 31
0.0
  0
LINE
  5
1DB
  8
5
  6
CONTINUOUS
 10
1044.517
 20
403.6469
 30
0.0
 11
1058.852
 21
403.6473
 31
0.0
  0
LINE
  5
1DC
  8
5
  6
CONTINUOUS
 10
1058.852
 20
403.6473
 30
0.0
 11
1058.851
 21
428.5446
 31
0.0
  0
LINE
  5
1DD
  8
5
  6
CONTINUOUS
 10
1058.851
 20
428.5446
 30
0.0
 11
1053.058
 21
428.5443
 31
0.0
  0
LINE
  5
1DE
  8
5
  6
CONTINUOUS
 10
1058.852
 20
386.2383
 30
0.0
 11
1058.852
 21
401.5472
 31
0.0
  0
LINE
  5
1DF
  8
5
  6
CONTINUOUS
 10
1058.852
 20
401.5472
 30
0.0
 11
1043.797
 21
401.5468
 31
0.0
  0
LINE
  5
1E0
  8
5
  6
CONTINUOUS
 10
1043.797
 20
401.5468
 30
0.0
 11
1034.855
 21
375.4802
 31
0.0
  0
LINE
  5
1E1
  8
5
  6
CONTINUOUS
 10
1034.855
 20
375.4802
 30
0.0
 11
1043.718
 21
375.4805
 31
0.0
  0
LINE
  5
1E2
  8
5
  6
CONTINUOUS
 10
1043.718
 20
375.4805
 30
0.0
 11
1047.408
 21
386.238
 31
0.0
  0
LINE
  5
1E3
  8
5
  6
CONTINUOUS
 10
1047.408
 20
386.238
 30
0.0
 11
1058.852
 21
386.2383
 31
0.0
  0
LINE
  5
1E4
  8
5
  6
CONTINUOUS
 10
1060.952
 20
403.6473
 30
0.0
 11
1075.631
 21
403.6478
 31
0.0
  0
LINE
  5
1E5
  8
5
  6
CONTINUOUS
 10
1075.631
 20
403.6478
 30
0.0
 11
1066.744
 21
428.5449
 31
0.0
  0
LINE
  5
1E6
  8
5
  6
CONTINUOUS
 10
544.8906
 20
1414.25
 30
0.0
 11
569.9231
 21
1433.113
 31
0.0
  0
LINE
  5
1E7
  8
5
  6
CONTINUOUS
 10
569.9231
 20
1433.113
 30
0.0
 11
582.7954
 21
1442.813
 31
0.0
  0
LINE
  5
1E8
  8
5
  6
CONTINUOUS
 10
600.473
 20
1425.136
 30
0.0
 11
592.0009
 21
1411.036
 31
0.0
  0
LINE
  5
1E9
  8
5
  6
CONTINUOUS
 10
592.0009
 20
1411.036
 30
0.0
 11
575.5252
 21
1383.615
 31
0.0
  0
LINE
  5
1EA
  8
5
  6
CONTINUOUS
 10
582.7954
 20
1442.813
 30
0.0
 11
600.473
 21
1425.136
 31
0.0
  0
LINE
  5
1EB
  8
5
  6
CONTINUOUS
 10
498.8413
 20
1457.342
 30
0.0
 11
494.3022
 21
1461.842
 31
0.0
  0
LINE
  5
1EC
  8
5
  6
CONTINUOUS
 10
264.6022
 20
1461.743
 30
0.0
 11
260.163
 21
1457.342
 31
0.0
  0
LINE
  5
1ED
  8
5
  6
CONTINUOUS
 10
264.7022
 20
1461.842
 30
0.0
 11
264.6022
 21
1461.743
 31
0.0
  0
LINE
  5
1EE
  8
5
  6
CONTINUOUS
 10
1066.744
 20
428.5449
 30
0.0
 11
1060.951
 21
428.5447
 31
0.0
  0
LINE
  5
1EF
  8
5
  6
CONTINUOUS
 10
475.8022
 20
1461.842
 30
0.0
 11
494.1022
 21
1461.842
 31
0.0
  0
LINE
  5
1F0
  8
5
  6
CONTINUOUS
 10
443.8022
 20
1461.842
 30
0.0
 11
458.8022
 21
1461.842
 31
0.0
  0
LINE
  5
1F1
  8
5
  6
CONTINUOUS
 10
413.9022
 20
1461.842
 30
0.0
 11
428.8022
 21
1461.842
 31
0.0
  0
LINE
  5
1F2
  8
5
  6
CONTINUOUS
 10
379.4022
 20
1461.842
 30
0.0
 11
396.7022
 21
1461.842
 31
0.0
  0
LINE
  5
1F3
  8
5
  6
CONTINUOUS
 10
344.9022
 20
1461.842
 30
0.0
 11
362.1022
 21
1461.842
 31
0.0
  0
LINE
  5
1F4
  8
5
  6
CONTINUOUS
 10
315.0022
 20
1461.842
 30
0.0
 11
330.0022
 21
1461.842
 31
0.0
  0
LINE
  5
1F5
  8
5
  6
CONTINUOUS
 10
283.0022
 20
1461.842
 30
0.0
 11
300.0022
 21
1461.842
 31
0.0
  0
LINE
  5
1F6
  8
5
  6
CONTINUOUS
 10
494.1022
 20
1461.842
 30
0.0
 11
494.3022
 21
1461.842
 31
0.0
  0
LINE
  5
1F7
  8
5
  6
CONTINUOUS
 10
458.8022
 20
1461.842
 30
0.0
 11
475.8022
 21
1461.842
 31
0.0
  0
LINE
  5
1F8
  8
5
  6
CONTINUOUS
 10
428.8022
 20
1461.842
 30
0.0
 11
443.8022
 21
1461.842
 31
0.0
  0
LINE
  5
1F9
  8
5
  6
CONTINUOUS
 10
396.7022
 20
1461.842
 30
0.0
 11
413.9022
 21
1461.842
 31
0.0
  0
LINE
  5
1FA
  8
5
  6
CONTINUOUS
 10
362.1022
 20
1461.842
 30
0.0
 11
379.4022
 21
1461.842
 31
0.0
  0
LINE
  5
1FB
  8
5
  6
CONTINUOUS
 10
330.0022
 20
1461.842
 30
0.0
 11
344.9022
 21
1461.842
 31
0.0
  0
LINE
  5
1FC
  8
5
  6
CONTINUOUS
 10
300.0022
 20
1461.842
 30
0.0
 11
315.0022
 21
1461.842
 31
0.0
  0
LINE
  5
1FD
  8
5
  6
CONTINUOUS
 10
264.7022
 20
1461.842
 30
0.0
 11
283.0022
 21
1461.842
 31
0.0
  0
LINE
  5
1FE
  8
5
  6
CONTINUOUS
 10
1060.951
 20
428.5447
 30
0.0
 11
1060.952
 21
403.6473
 31
0.0
  0
LINE
  5
1FF
  8
5
  6
CONTINUOUS
 10
1076.381
 20
401.5479
 30
0.0
 11
1060.952
 21
401.5475
 31
0.0
  0
LINE
  5
200
  8
5
  6
CONTINUOUS
 10
1060.952
 20
401.5475
 30
0.0
 11
1060.952
 21
386.2385
 31
0.0
  0
LINE
  5
201
  8
5
  6
CONTINUOUS
 10
615.0022
 20
1102.59
 30
0.0
 11
619.5022
 21
1107.142
 31
0.0
  0
LINE
  5
202
  8
5
  6
CONTINUOUS
 10
619.5022
 20
1336.542
 30
0.0
 11
615.0022
 21
1341.095
 31
0.0
  0
LINE
  5
203
  8
5
  6
CONTINUOUS
 10
1060.952
 20
386.2385
 30
0.0
 11
1072.346
 21
386.2388
 31
0.0
  0
LINE
  5
204
  8
5
  6
CONTINUOUS
 10
1072.346
 20
386.2388
 30
0.0
 11
1076.186
 21
375.4816
 31
0.0
  0
LINE
  5
205
  8
5
  6
CONTINUOUS
 10
1076.186
 20
375.4816
 30
0.0
 11
1085.686
 21
375.4819
 31
0.0
  0
LINE
  5
206
  8
5
  6
CONTINUOUS
 10
1085.686
 20
375.4819
 30
0.0
 11
1076.381
 21
401.5479
 31
0.0
  0
LINE
  5
207
  8
5
  6
CONTINUOUS
 10
1109.751
 20
428.5463
 30
0.0
 11
1095.972
 21
428.5458
 31
0.0
  0
LINE
  5
208
  8
5
  6
CONTINUOUS
 10
139.5022
 20
1106.742
 30
0.0
 11
144.0022
 21
1102.294
 31
0.0
  0
LINE
  5
209
  8
5
  6
CONTINUOUS
 10
1095.972
 20
428.5458
 30
0.0
 11
1095.973
 21
403.6486
 31
0.0
  0
LINE
  5
20A
  8
5
  6
CONTINUOUS
 10
1095.973
 20
403.6484
 30
0.0
 11
1109.751
 21
403.6491
 31
0.0
  0
LINE
  5
20B
  8
5
  6
CONTINUOUS
 10
144.0022
 20
1341.095
 30
0.0
 11
139.5022
 21
1336.542
 31
0.0
  0
LINE
  5
20C
  8
5
  6
CONTINUOUS
 10
1109.751
 20
403.6491
 30
0.0
 11
1109.751
 21
428.5463
 31
0.0
  0
LINE
  5
20D
  8
5
  6
CONTINUOUS
 10
1109.751
 20
401.549
 30
0.0
 11
1095.973
 21
401.5486
 31
0.0
  0
LINE
  5
20E
  8
5
  6
CONTINUOUS
 10
619.5022
 20
1221.842
 30
0.0
 11
619.5022
 21
1204.542
 31
0.0
  0
LINE
  5
20F
  8
5
  6
CONTINUOUS
 10
619.5022
 20
1256.342
 30
0.0
 11
619.5022
 21
1239.142
 31
0.0
  0
LINE
  5
210
  8
5
  6
CONTINUOUS
 10
619.5022
 20
1286.242
 30
0.0
 11
619.5022
 21
1271.342
 31
0.0
  0
LINE
  5
211
  8
5
  6
CONTINUOUS
 10
619.5022
 20
1318.242
 30
0.0
 11
619.5022
 21
1301.242
 31
0.0
  0
LINE
  5
212
  8
5
  6
CONTINUOUS
 10
619.5022
 20
1187.342
 30
0.0
 11
619.5022
 21
1172.442
 31
0.0
  0
LINE
  5
213
  8
5
  6
CONTINUOUS
 10
619.5022
 20
1157.442
 30
0.0
 11
619.5022
 21
1142.442
 31
0.0
  0
LINE
  5
214
  8
5
  6
CONTINUOUS
 10
619.5022
 20
1125.442
 30
0.0
 11
619.5022
 21
1107.142
 31
0.0
  0
LINE
  5
215
  8
5
  6
CONTINUOUS
 10
619.5022
 20
1204.542
 30
0.0
 11
619.5022
 21
1187.342
 31
0.0
  0
LINE
  5
216
  8
5
  6
CONTINUOUS
 10
619.5022
 20
1239.142
 30
0.0
 11
619.5022
 21
1221.842
 31
0.0
  0
LINE
  5
217
  8
5
  6
CONTINUOUS
 10
619.5022
 20
1271.342
 30
0.0
 11
619.5022
 21
1256.342
 31
0.0
  0
LINE
  5
218
  8
5
  6
CONTINUOUS
 10
619.5022
 20
1301.242
 30
0.0
 11
619.5022
 21
1286.242
 31
0.0
  0
LINE
  5
219
  8
5
  6
CONTINUOUS
 10
619.5022
 20
1336.542
 30
0.0
 11
619.5022
 21
1318.242
 31
0.0
  0
LINE
  5
21A
  8
5
  6
CONTINUOUS
 10
619.5022
 20
1172.442
 30
0.0
 11
619.5022
 21
1157.442
 31
0.0
  0
LINE
  5
21B
  8
5
  6
CONTINUOUS
 10
619.5022
 20
1142.442
 30
0.0
 11
619.5022
 21
1125.442
 31
0.0
  0
LINE
  5
21C
  8
5
  6
CONTINUOUS
 10
139.5022
 20
1107.142
 30
0.0
 11
139.5022
 21
1125.442
 31
0.0
  0
LINE
  5
21D
  8
5
  6
CONTINUOUS
 10
139.5022
 20
1142.442
 30
0.0
 11
139.5022
 21
1157.442
 31
0.0
  0
LINE
  5
21E
  8
5
  6
CONTINUOUS
 10
139.5022
 20
1172.442
 30
0.0
 11
139.5022
 21
1187.342
 31
0.0
  0
LINE
  5
21F
  8
5
  6
CONTINUOUS
 10
139.5022
 20
1301.242
 30
0.0
 11
139.5022
 21
1318.242
 31
0.0
  0
LINE
  5
220
  8
5
  6
CONTINUOUS
 10
139.5022
 20
1271.342
 30
0.0
 11
139.5022
 21
1286.242
 31
0.0
  0
LINE
  5
221
  8
5
  6
CONTINUOUS
 10
139.5022
 20
1239.142
 30
0.0
 11
139.5022
 21
1256.342
 31
0.0
  0
LINE
  5
222
  8
5
  6
CONTINUOUS
 10
139.5022
 20
1204.542
 30
0.0
 11
139.5022
 21
1221.842
 31
0.0
  0
LINE
  5
223
  8
5
  6
CONTINUOUS
 10
139.5022
 20
1125.442
 30
0.0
 11
139.5022
 21
1142.442
 31
0.0
  0
LINE
  5
224
  8
5
  6
CONTINUOUS
 10
139.5022
 20
1106.742
 30
0.0
 11
139.5022
 21
1107.142
 31
0.0
  0
LINE
  5
225
  8
5
  6
CONTINUOUS
 10
139.5022
 20
1157.442
 30
0.0
 11
139.5022
 21
1172.442
 31
0.0
  0
LINE
  5
226
  8
5
  6
CONTINUOUS
 10
139.5022
 20
1187.342
 30
0.0
 11
139.5022
 21
1204.542
 31
0.0
  0
LINE
  5
227
  8
5
  6
CONTINUOUS
 10
139.5022
 20
1318.242
 30
0.0
 11
139.5022
 21
1336.542
 31
0.0
  0
LINE
  5
228
  8
5
  6
CONTINUOUS
 10
139.5022
 20
1286.242
 30
0.0
 11
139.5022
 21
1301.242
 31
0.0
  0
LINE
  5
229
  8
5
  6
CONTINUOUS
 10
139.5022
 20
1256.342
 30
0.0
 11
139.5022
 21
1271.342
 31
0.0
  0
LINE
  5
22A
  8
5
  6
CONTINUOUS
 10
139.5022
 20
1221.842
 30
0.0
 11
139.5022
 21
1239.142
 31
0.0
  0
LINE
  5
22B
  8
5
  6
CONTINUOUS
 10
1095.973
 20
401.5486
 30
0.0
 11
1095.974
 21
375.4823
 31
0.0
  0
LINE
  5
22C
  8
5
  6
CONTINUOUS
 10
1095.974
 20
375.4823
 30
0.0
 11
1109.752
 21
375.4829
 31
0.0
  0
LINE
  5
22D
  8
5
  6
CONTINUOUS
 10
1109.752
 20
375.4829
 30
0.0
 11
1109.751
 21
401.549
 31
0.0
  0
LINE
  5
22E
  8
5
  6
CONTINUOUS
 10
1126.428
 20
401.5497
 30
0.0
 11
1111.851
 21
401.549
 31
0.0
  0
LINE
  5
22F
  8
5
  6
CONTINUOUS
 10
1111.851
 20
401.549
 30
0.0
 11
1111.852
 21
375.4829
 31
0.0
  0
LINE
  5
230
  8
5
  6
CONTINUOUS
 10
158.5313
 20
1425.136
 30
0.0
 11
176.209
 21
1442.813
 31
0.0
  0
LINE
  5
231
  8
5
  6
CONTINUOUS
 10
1111.852
 20
375.4829
 30
0.0
 11
1116.654
 21
375.4831
 31
0.0
  0
ARC
  5
232
  8
5
  6
CONTINUOUS
 10
1116.654
 20
390.3115
 30
0.0
 40
14.82839
 50
270.002
 51
0.0019
  0
LINE
  5
233
  8
5
  6
CONTINUOUS
 10
167.0035
 20
1411.036
 30
0.0
 11
183.4792
 21
1383.615
 31
0.0
  0
ARC
  5
234
  8
5
  6
CONTINUOUS
 10
1114.668
 20
389.5056
 30
0.0
 40
16.83332
 50
2.745839
 51
45.68338
  0
LINE
  5
235
  8
5
  6
CONTINUOUS
 10
167.0035
 20
1411.036
 30
0.0
 11
158.5313
 21
1425.136
 31
0.0
  0
LINE
  5
236
  8
5
  6
CONTINUOUS
 10
176.209
 20
1442.813
 30
0.0
 11
189.0813
 21
1433.113
 31
0.0
  0
LINE
  5
237
  8
5
  6
CONTINUOUS
 10
1111.851
 20
403.6491
 30
0.0
 11
1123.796
 21
403.6495
 31
0.0
  0
LINE
  5
238
  8
5
  6
CONTINUOUS
 10
214.1137
 20
1414.25
 30
0.0
 11
189.0813
 21
1433.113
 31
0.0
  0
CIRCLE
  5
239
  8
5
  6
CONTINUOUS
 10
379.5022
 20
1221.842
 30
0.0
 40
140.0
  0
LINE
  5
23A
  8
5
  6
CONTINUOUS
 10
144.0022
 20
1099.546
 30
0.0
 11
257.2062
 21
986.3424
 31
0.0
  0
LINE
  5
23B
  8
5
  6
CONTINUOUS
 10
257.2062
 20
986.3424
 30
0.0
 11
501.7982
 21
986.3424
 31
0.0
  0
LINE
  5
23C
  8
5
  6
CONTINUOUS
 10
501.7982
 20
986.3424
 30
0.0
 11
615.0022
 21
1099.546
 31
0.0
  0
LINE
  5
23D
  8
5
  6
CONTINUOUS
 10
615.0022
 20
1099.546
 30
0.0
 11
615.0022
 21
1344.138
 31
0.0
  0
LINE
  5
23E
  8
5
  6
CONTINUOUS
 10
615.0022
 20
1344.138
 30
0.0
 11
501.7982
 21
1457.342
 31
0.0
  0
LINE
  5
23F
  8
5
  6
CONTINUOUS
 10
501.7982
 20
1457.342
 30
0.0
 11
257.2062
 21
1457.342
 31
0.0
  0
LINE
  5
240
  8
5
  6
CONTINUOUS
 10
257.2062
 20
1457.342
 30
0.0
 11
144.0022
 21
1344.138
 31
0.0
  0
LINE
  5
241
  8
5
  6
CONTINUOUS
 10
144.0022
 20
1099.546
 30
0.0
 11
144.0022
 21
1344.138
 31
0.0
  0
LINE
  5
242
  8
5
  6
CONTINUOUS
 10
258.4489
 20
1454.342
 30
0.0
 11
147.0022
 21
1342.896
 31
0.0
  0
LINE
  5
243
  8
5
  6
CONTINUOUS
 10
500.5556
 20
1454.342
 30
0.0
 11
258.4489
 21
1454.342
 31
0.0
  0
LINE
  5
244
  8
5
  6
CONTINUOUS
 10
612.0022
 20
1342.896
 30
0.0
 11
500.5556
 21
1454.342
 31
0.0
  0
LINE
  5
245
  8
5
  6
CONTINUOUS
 10
612.0022
 20
1100.789
 30
0.0
 11
612.0022
 21
1342.896
 31
0.0
  0
LINE
  5
246
  8
5
  6
CONTINUOUS
 10
500.5556
 20
989.3424
 30
0.0
 11
612.0022
 21
1100.789
 31
0.0
  0
LINE
  5
247
  8
5
  6
CONTINUOUS
 10
258.4489
 20
989.3424
 30
0.0
 11
500.5556
 21
989.3424
 31
0.0
  0
LINE
  5
248
  8
5
  6
CONTINUOUS
 10
147.0022
 20
1100.789
 30
0.0
 11
258.4489
 21
989.3424
 31
0.0
  0
LINE
  5
249
  8
5
  6
CONTINUOUS
 10
147.0022
 20
1100.789
 30
0.0
 11
147.0022
 21
1342.896
 31
0.0
  0
ARC
  5
24A
  8
5
  6
CONTINUOUS
 10
1114.668
 20
389.5056
 30
0.0
 40
16.83334
 50
57.16511
 51
82.74766
  0
ARC
  5
24B
  8
5
  6
CONTINUOUS
 10
1113.622
 20
419.3553
 30
0.0
 40
13.5281
 50
283.5581
 51
354.7072
  0
ARC
  5
24C
  8
5
  6
CONTINUOUS
 10
1116.653
 20
418.1071
 30
0.0
 40
10.43949
 50
0.001947
 51
90.00195
  0
LINE
  5
24D
  8
5
  6
CONTINUOUS
 10
1116.653
 20
428.5465
 30
0.0
 11
1111.851
 21
428.5464
 31
0.0
  0
LINE
  5
24E
  8
5
  6
CONTINUOUS
 10
1111.851
 20
428.5464
 30
0.0
 11
1111.851
 21
403.6491
 31
0.0
  0
LINE
  5
24F
  8
5
  6
CONTINUOUS
 10
1141.618
 20
403.6502
 30
0.0
 11
1155.397
 21
403.6506
 31
0.0
  0
LINE
  5
250
  8
5
  6
CONTINUOUS
 10
1155.397
 20
403.6506
 30
0.0
 11
1155.396
 21
428.5479
 31
0.0
  0
LINE
  5
251
  8
5
  6
CONTINUOUS
 10
1155.396
 20
428.5479
 30
0.0
 11
1141.618
 21
428.5474
 31
0.0
  0
LINE
  5
252
  8
5
  6
CONTINUOUS
 10
1141.618
 20
428.5474
 30
0.0
 11
1141.618
 21
403.6502
 31
0.0
  0
LINE
  5
253
  8
5
  6
CONTINUOUS
 10
1157.497
 20
403.6506
 30
0.0
 11
1169.441
 21
403.6511
 31
0.0
  0
ARC
  5
254
  8
5
  6
CONTINUOUS
 10
1160.314
 20
389.5071
 30
0.0
 40
16.83337
 50
57.16491
 51
82.74766
  0
ARC
  5
255
  8
5
  6
CONTINUOUS
 10
1159.268
 20
419.3569
 30
0.0
 40
13.5281
 50
283.5581
 51
354.7072
  0
ARC
  5
256
  8
5
  6
CONTINUOUS
 10
1162.298
 20
418.1086
 30
0.0
 40
10.43949
 50
0.001947
 51
90.00195
  0
LINE
  5
257
  8
5
  6
CONTINUOUS
 10
1162.298
 20
428.5481
 30
0.0
 11
1157.496
 21
428.5479
 31
0.0
  0
LINE
  5
258
  8
5
  6
CONTINUOUS
 10
1157.496
 20
428.5479
 30
0.0
 11
1157.497
 21
403.6506
 31
0.0
  0
LINE
  5
259
  8
5
  6
CONTINUOUS
 10
1157.497
 20
401.5508
 30
0.0
 11
1157.498
 21
375.4844
 31
0.0
  0
LINE
  5
25A
  8
5
  6
CONTINUOUS
 10
1157.498
 20
375.4844
 30
0.0
 11
1162.3
 21
375.4846
 31
0.0
  0
ARC
  5
25B
  8
5
  6
CONTINUOUS
 10
1162.299
 20
390.313
 30
0.0
 40
14.82841
 50
270.0022
 51
0.0019
  0
ARC
  5
25C
  8
5
  6
CONTINUOUS
 10
1160.314
 20
389.5071
 30
0.0
 40
16.83332
 50
2.745839
 51
45.68319
  0
LINE
  5
25D
  8
5
  6
CONTINUOUS
 10
1172.074
 20
401.5511
 30
0.0
 11
1157.497
 21
401.5508
 31
0.0
  0
LINE
  5
25E
  8
5
  6
CONTINUOUS
 10
1141.619
 20
401.5501
 30
0.0
 11
1155.397
 21
401.5505
 31
0.0
  0
LINE
  5
25F
  8
5
  6
CONTINUOUS
 10
1141.619
 20
401.5501
 30
0.0
 11
1141.619
 21
375.4837
 31
0.0
  0
LINE
  5
260
  8
5
  6
CONTINUOUS
 10
1141.619
 20
375.4837
 30
0.0
 11
1155.398
 21
375.4844
 31
0.0
  0
LINE
  5
261
  8
5
  6
CONTINUOUS
 10
1155.398
 20
375.4844
 30
0.0
 11
1155.397
 21
401.5505
 31
0.0
  0
LINE
  5
262
  8
5
  6
CONTINUOUS
 10
1259.358
 20
290.4877
 30
0.0
 11
1259.358
 21
240.9877
 31
0.0
  0
LINE
  5
263
  8
5
  6
CONTINUOUS
 10
1259.358
 20
562.9877
 30
0.0
 11
1259.358
 21
513.4877
 31
0.0
  0
LINE
  5
264
  8
5
  6
CONTINUOUS
 10
1259.358
 20
513.4877
 30
0.0
 11
1259.358
 21
290.4877
 31
0.0
  0
LINE
  5
265
  8
5
  6
CONTINUOUS
 10
940.3579
 20
562.9877
 30
0.0
 11
989.8579
 21
562.9877
 31
0.0
  0
LINE
  5
266
  8
5
  6
CONTINUOUS
 10
989.8579
 20
562.9877
 30
0.0
 11
1209.858
 21
562.9877
 31
0.0
  0
LINE
  5
267
  8
5
  6
CONTINUOUS
 10
912.1578
 20
579.1377
 30
0.0
 11
902.1579
 21
579.1377
 31
0.0
  0
LINE
  5
268
  8
5
  6
CONTINUOUS
 10
902.1578
 20
227.8377
 30
0.0
 11
912.1578
 21
227.8377
 31
0.0
  0
LINE
  5
269
  8
5
  6
CONTINUOUS
 10
912.1579
 20
215.1506
 30
0.0
 11
926.1579
 21
195.8811
 31
0.0
  0
LINE
  5
26A
  8
5
  6
CONTINUOUS
 10
926.1579
 20
611.0942
 30
0.0
 11
912.1579
 21
591.8248
 31
0.0
  0
LINE
  5
26B
  8
5
  6
CONTINUOUS
 10
902.1579
 20
479.5435
 30
0.0
 11
900.5602
 21
479.4877
 31
0.0
  0
LINE
  5
26C
  8
5
  6
CONTINUOUS
 10
900.5602
 20
327.4877
 30
0.0
 11
902.1579
 21
327.4319
 31
0.0
  0
LINE
  5
26D
  8
5
  6
CONTINUOUS
 10
1209.858
 20
562.9877
 30
0.0
 11
1259.358
 21
562.9877
 31
0.0
  0
LINE
  5
26E
  8
5
  6
CONTINUOUS
 10
940.3579
 20
513.4877
 30
0.0
 11
940.3579
 21
562.9877
 31
0.0
  0
LINE
  5
26F
  8
5
  6
CONTINUOUS
 10
940.3579
 20
240.9877
 30
0.0
 11
940.3579
 21
290.4877
 31
0.0
  0
LINE
  5
270
  8
5
  6
CONTINUOUS
 10
940.3579
 20
290.4877
 30
0.0
 11
940.3579
 21
513.4877
 31
0.0
  0
LINE
  5
271
  8
5
  6
CONTINUOUS
 10
985.8579
 20
240.9877
 30
0.0
 11
985.8579
 21
210.9877
 31
0.0
  0
LINE
  5
272
  8
5
  6
CONTINUOUS
 10
1213.858
 20
210.9877
 30
0.0
 11
1213.858
 21
240.9877
 31
0.0
  0
LINE
  5
273
  8
5
  6
CONTINUOUS
 10
986.3579
 20
211.9877
 30
0.0
 11
1213.358
 21
211.9877
 31
0.0
  0
LINE
  5
274
  8
5
  6
CONTINUOUS
 10
986.3579
 20
240.9877
 30
0.0
 11
940.3579
 21
240.9877
 31
0.0
  0
LINE
  5
275
  8
5
  6
CONTINUOUS
 10
1259.358
 20
240.9877
 30
0.0
 11
1213.358
 21
240.9877
 31
0.0
  0
LINE
  5
276
  8
5
  6
CONTINUOUS
 10
986.3579
 20
275.0566
 30
0.0
 11
986.3579
 21
211.9877
 31
0.0
  0
LINE
  5
277
  8
5
  6
CONTINUOUS
 10
1213.358
 20
211.9877
 30
0.0
 11
1213.358
 21
275.0566
 31
0.0
  0
LINE
  5
278
  8
5
  6
CONTINUOUS
 10
258.8911
 20
1457.342
 30
0.0
 11
259.3276
 21
1469.842
 31
0.0
  0
LINE
  5
279
  8
5
  6
CONTINUOUS
 10
989.8579
 20
290.4802
 30
0.0
 11
1209.858
 21
290.4802
 31
0.0
  0
LINE
  5
27A
  8
5
  6
CONTINUOUS
 10
499.6768
 20
1469.842
 30
0.0
 11
500.1133
 21
1457.342
 31
0.0
  0
LINE
  5
27B
  8
5
  6
CONTINUOUS
 10
1209.858
 20
290.4802
 30
0.0
 11
1209.858
 21
513.4951
 31
0.0
  0
LINE
  5
27C
  8
5
  6
CONTINUOUS
 10
1209.858
 20
513.4951
 30
0.0
 11
989.8504
 21
513.4876
 31
0.0
  0
LINE
  5
27D
  8
5
  6
CONTINUOUS
 10
989.8504
 20
513.4876
 30
0.0
 11
989.8579
 21
290.4802
 31
0.0
  0
ARC
  5
27E
  8
5
  6
CONTINUOUS
 10
2093.695
 20
1221.843
 30
0.0
 40
175.65
 50
263.7902
 51
276.2098
  0
LINE
  5
27F
  8
5
  6
CONTINUOUS
 10
1259.358
 20
513.4877
 30
0.0
 11
1209.858
 21
562.9877
 31
0.0
  0
LINE
  5
280
  8
5
  6
CONTINUOUS
 10
989.8579
 20
562.9877
 30
0.0
 11
940.3579
 21
513.4877
 31
0.0
  0
LINE
  5
281
  8
5
  6
CONTINUOUS
 10
1209.858
 20
513.4951
 30
0.0
 11
1209.858
 21
562.9877
 31
0.0
  0
LINE
  5
282
  8
5
  6
CONTINUOUS
 10
1259.358
 20
513.4877
 30
0.0
 11
1209.858
 21
513.4951
 31
0.0
  0
LINE
  5
283
  8
5
  6
CONTINUOUS
 10
1209.858
 20
290.4802
 30
0.0
 11
1259.358
 21
290.4877
 31
0.0
  0
LINE
  5
284
  8
5
  6
CONTINUOUS
 10
989.8504
 20
513.4876
 30
0.0
 11
940.3579
 21
513.4877
 31
0.0
  0
LINE
  5
285
  8
5
  6
CONTINUOUS
 10
989.8579
 20
562.9877
 30
0.0
 11
989.8504
 21
513.4876
 31
0.0
  0
LINE
  5
286
  8
5
  6
CONTINUOUS
 10
940.3579
 20
290.4877
 30
0.0
 11
989.8579
 21
290.4802
 31
0.0
  0
LINE
  5
287
  8
5
  6
CONTINUOUS
 10
1213.358
 20
244.4877
 30
0.0
 11
1259.358
 21
290.4877
 31
0.0
  0
LINE
  5
288
  8
5
  6
CONTINUOUS
 10
940.3579
 20
290.4877
 30
0.0
 11
986.3579
 21
244.4877
 31
0.0
  0
LINE
  5
289
  8
5
  6
CONTINUOUS
 10
1209.858
 20
271.5589
 30
0.0
 11
1209.858
 21
290.4802
 31
0.0
  0
LINE
  5
28A
  8
5
  6
CONTINUOUS
 10
1209.858
 20
271.5589
 30
0.0
 11
1213.358
 21
275.0566
 31
0.0
  0
LINE
  5
28B
  8
5
  6
CONTINUOUS
 10
986.3579
 20
275.0566
 30
0.0
 11
989.8579
 21
271.5589
 31
0.0
  0
LINE
  5
28C
  8
5
  6
CONTINUOUS
 10
989.8579
 20
290.4802
 30
0.0
 11
989.8579
 21
271.5589
 31
0.0
  0
LINE
  5
28D
  8
5
  6
CONTINUOUS
 10
989.8579
 20
271.5589
 30
0.0
 11
1209.858
 21
271.5589
 31
0.0
  0
LINE
  5
28E
  8
5
  6
CONTINUOUS
 10
2215.195
 20
1506.143
 30
0.0
 11
2215.195
 21
1469.843
 31
0.0
  0
LINE
  5
28F
  8
5
  6
CONTINUOUS
 10
1972.195
 20
1469.843
 30
0.0
 11
1972.195
 21
1506.143
 31
0.0
  0
LINE
  5
290
  8
5
  6
CONTINUOUS
 10
2217.695
 20
1506.143
 30
0.0
 11
1969.695
 21
1506.143
 31
0.0
  0
LINE
  5
291
  8
5
  6
CONTINUOUS
 10
2241.695
 20
1531.643
 30
0.0
 11
2286.195
 21
1531.643
 31
0.0
  0
LINE
  5
292
  8
5
  6
CONTINUOUS
 10
2241.695
 20
1530.143
 30
0.0
 11
2241.695
 21
1554.643
 31
0.0
  0
LINE
  5
293
  8
5
  6
CONTINUOUS
 10
2251.195
 20
1554.643
 30
0.0
 11
1938.695
 21
1554.643
 31
0.0
  0
LINE
  5
294
  8
5
  6
CONTINUOUS
 10
2286.195
 20
1579.643
 30
0.0
 11
2286.195
 21
1531.643
 31
0.0
  0
LINE
  5
295
  8
5
  6
CONTINUOUS
 10
2241.695
 20
1530.143
 30
0.0
 11
2217.695
 21
1506.143
 31
0.0
  0
LINE
  5
296
  8
5
  6
CONTINUOUS
 10
1969.695
 20
1506.143
 30
0.0
 11
1945.695
 21
1530.143
 31
0.0
  0
LINE
  5
297
  8
5
  6
CONTINUOUS
 10
1945.695
 20
1530.143
 30
0.0
 11
1945.695
 21
1554.643
 31
0.0
  0
LINE
  5
298
  8
5
  6
CONTINUOUS
 10
1983.695
 20
1650.643
 30
0.0
 11
2206.702
 21
1650.643
 31
0.0
  0
LINE
  5
299
  8
5
  6
CONTINUOUS
 10
2093.536
 20
1650.643
 30
0.0
 11
2093.536
 21
1654.842
 31
0.0
  0
LINE
  5
29A
  8
5
  6
CONTINUOUS
 10
2068.638
 20
1654.843
 30
0.0
 11
2068.638
 21
1650.643
 31
0.0
  0
LINE
  5
29B
  8
5
  6
CONTINUOUS
 10
2095.636
 20
1650.643
 30
0.0
 11
2095.636
 21
1654.842
 31
0.0
  0
LINE
  5
29C
  8
5
  6
CONTINUOUS
 10
2121.703
 20
1650.643
 30
0.0
 11
2121.703
 21
1654.843
 31
0.0
  0
LINE
  5
29D
  8
5
  6
CONTINUOUS
 10
2095.636
 20
1650.643
 30
0.0
 11
2095.636
 21
1650.643
 31
0.0
  0
LINE
  5
29E
  8
5
  6
CONTINUOUS
 10
2068.638
 20
1654.843
 30
0.0
 11
2093.536
 21
1654.842
 31
0.0
  0
LINE
  5
29F
  8
5
  6
CONTINUOUS
 10
2095.636
 20
1654.842
 30
0.0
 11
2121.703
 21
1654.843
 31
0.0
  0
LINE
  5
2A0
  8
5
  6
CONTINUOUS
 10
902.1579
 20
579.1377
 30
0.0
 11
902.1579
 21
403.4877
 31
0.0
  0
LINE
  5
2A1
  8
5
  6
CONTINUOUS
 10
902.1579
 20
403.4877
 30
0.0
 11
902.1578
 21
227.8377
 31
0.0
  0
LINE
  5
2A2
  8
5
  6
CONTINUOUS
 10
905.0579
 20
152.4877
 30
0.0
 11
908.0579
 21
152.4877
 31
0.0
  0
LINE
  5
2A3
  8
5
  6
CONTINUOUS
 10
1914.596
 20
1424.582
 30
0.0
 11
1914.596
 21
1424.582
 31
0.0
  0
LINE
  5
2A4
  8
5
  6
CONTINUOUS
 10
592.0009
 20
1411.036
 30
0.0
 11
569.9231
 21
1433.113
 31
0.0
  0
LINE
  5
2A5
  8
5
  6
CONTINUOUS
 10
892.8579
 20
403.4877
 30
0.0
 11
892.8579
 21
338.4877
 31
0.0
  0
LINE
  5
2A6
  8
5
  6
CONTINUOUS
 10
892.8579
 20
468.4877
 30
0.0
 11
892.8579
 21
403.4877
 31
0.0
  0
LINE
  5
2A7
  8
5
  6
CONTINUOUS
 10
1421.358
 20
167.9877
 30
0.0
 11
1421.358
 21
162.4877
 31
0.0
  0
LINE
  5
2A8
  8
5
  6
CONTINUOUS
 10
974.3579
 20
162.4877
 30
0.0
 11
974.3579
 21
163.4877
 31
0.0
  0
LINE
  5
2A9
  8
5
  6
CONTINUOUS
 10
1077.858
 20
162.4877
 30
0.0
 11
974.3579
 21
162.4877
 31
0.0
  0
LINE
  5
2AA
  8
5
  6
CONTINUOUS
 10
1077.858
 20
162.4877
 30
0.0
 11
1317.858
 21
162.4877
 31
0.0
  0
LINE
  5
2AB
  8
5
  6
CONTINUOUS
 10
1421.358
 20
162.4877
 30
0.0
 11
1317.858
 21
162.4877
 31
0.0
  0
LINE
  5
2AC
  8
5
  6
CONTINUOUS
 10
1421.358
 20
638.9877
 30
0.0
 11
1421.358
 21
644.4877
 31
0.0
  0
LINE
  5
2AD
  8
5
  6
CONTINUOUS
 10
974.3579
 20
644.4877
 30
0.0
 11
974.3579
 21
643.4877
 31
0.0
  0
LINE
  5
2AE
  8
5
  6
CONTINUOUS
 10
1077.858
 20
644.4877
 30
0.0
 11
974.3579
 21
644.4877
 31
0.0
  0
LINE
  5
2AF
  8
5
  6
CONTINUOUS
 10
264.6022
 20
1457.342
 30
0.0
 11
264.6022
 21
1461.743
 31
0.0
  0
LINE
  5
2B0
  8
5
  6
CONTINUOUS
 10
1077.858
 20
644.4877
 30
0.0
 11
1317.858
 21
644.4877
 31
0.0
  0
LINE
  5
2B1
  8
5
  6
CONTINUOUS
 10
494.1022
 20
1461.842
 30
0.0
 11
494.1022
 21
1457.342
 31
0.0
  0
LINE
  5
2B2
  8
5
  6
CONTINUOUS
 10
1421.358
 20
644.4877
 30
0.0
 11
1317.858
 21
644.4877
 31
0.0
  0
LINE
  5
2B3
  8
5
  6
CONTINUOUS
 10
300.0022
 20
1457.342
 30
0.0
 11
300.0021
 21
1461.842
 31
0.0
  0
LINE
  5
2B4
  8
5
  6
CONTINUOUS
 10
283.0021
 20
1461.842
 30
0.0
 11
283.0022
 21
1457.342
 31
0.0
  0
LINE
  5
2B5
  8
5
  6
CONTINUOUS
 10
330.0022
 20
1457.342
 30
0.0
 11
330.0022
 21
1461.842
 31
0.0
  0
LINE
  5
2B6
  8
5
  6
CONTINUOUS
 10
315.0022
 20
1461.842
 30
0.0
 11
315.0022
 21
1457.342
 31
0.0
  0
LINE
  5
2B7
  8
5
  6
CONTINUOUS
 10
362.1022
 20
1457.342
 30
0.0
 11
362.1021
 21
1461.842
 31
0.0
  0
LINE
  5
2B8
  8
5
  6
CONTINUOUS
 10
344.9022
 20
1461.842
 30
0.0
 11
344.9022
 21
1457.342
 31
0.0
  0
LINE
  5
2B9
  8
5
  6
CONTINUOUS
 10
396.7022
 20
1457.342
 30
0.0
 11
396.7022
 21
1461.842
 31
0.0
  0
LINE
  5
2BA
  8
5
  6
CONTINUOUS
 10
379.4021
 20
1461.842
 30
0.0
 11
379.4022
 21
1457.342
 31
0.0
  0
LINE
  5
2BB
  8
5
  6
CONTINUOUS
 10
428.8022
 20
1457.342
 30
0.0
 11
428.8022
 21
1461.842
 31
0.0
  0
LINE
  5
2BC
  8
5
  6
CONTINUOUS
 10
413.9022
 20
1461.842
 30
0.0
 11
413.9022
 21
1457.342
 31
0.0
  0
LINE
  5
2BD
  8
5
  6
CONTINUOUS
 10
458.8022
 20
1457.342
 30
0.0
 11
458.8022
 21
1461.842
 31
0.0
  0
LINE
  5
2BE
  8
5
  6
CONTINUOUS
 10
443.8022
 20
1461.842
 30
0.0
 11
443.8022
 21
1457.342
 31
0.0
  0
LINE
  5
2BF
  8
5
  6
CONTINUOUS
 10
475.8022
 20
1461.842
 30
0.0
 11
475.8022
 21
1457.342
 31
0.0
  0
LINE
  5
2C0
  8
5
  6
CONTINUOUS
 10
2068.638
 20
1654.843
 30
0.0
 11
2068.638
 21
1654.843
 31
0.0
  0
LINE
  5
2C1
  8
5
  6
CONTINUOUS
 10
2095.636
 20
1654.842
 30
0.0
 11
2095.636
 21
1654.842
 31
0.0
  0
LINE
  5
2C2
  8
5
  6
CONTINUOUS
 10
1934.195
 20
1599.643
 30
0.0
 11
1934.195
 21
1576.643
 31
0.0
  0
LINE
  5
2C3
  8
5
  6
CONTINUOUS
 10
1983.695
 20
1599.643
 30
0.0
 11
1934.195
 21
1599.643
 31
0.0
  0
LINE
  5
2C4
  8
5
  6
CONTINUOUS
 10
1934.195
 20
1599.643
 30
0.0
 11
1983.695
 21
1650.643
 31
0.0
  0
LINE
  5
2C5
  8
5
  6
CONTINUOUS
 10
615.0022
 20
1336.542
 30
0.0
 11
619.5022
 21
1336.542
 31
0.0
  0
LINE
  5
2C6
  8
5
  6
CONTINUOUS
 10
2256.195
 20
1599.643
 30
0.0
 11
2206.695
 21
1599.643
 31
0.0
  0
LINE
  5
2C7
  8
5
  6
CONTINUOUS
 10
2206.702
 20
1650.643
 30
0.0
 11
2225.624
 21
1631.143
 31
0.0
  0
LINE
  5
2C8
  8
5
  6
CONTINUOUS
 10
2222.126
 20
1631.143
 30
0.0
 11
2285.195
 21
1631.143
 31
0.0
  0
LINE
  5
2C9
  8
5
  6
CONTINUOUS
 10
619.5021
 20
1107.142
 30
0.0
 11
615.0022
 21
1107.142
 31
0.0
  0
LINE
  5
2CA
  8
5
  6
CONTINUOUS
 10
2256.195
 20
1579.643
 30
0.0
 11
2286.195
 21
1579.643
 31
0.0
  0
LINE
  5
2CB
  8
5
  6
CONTINUOUS
 10
2251.195
 20
1554.643
 30
0.0
 11
2251.195
 21
1576.643
 31
0.0
  0
LINE
  5
2CC
  8
5
  6
CONTINUOUS
 10
1938.695
 20
1554.643
 30
0.0
 11
1938.695
 21
1576.643
 31
0.0
  0
LINE
  5
2CD
  8
5
  6
CONTINUOUS
 10
615.0022
 20
1204.542
 30
0.0
 11
619.5021
 21
1204.542
 31
0.0
  0
LINE
  5
2CE
  8
5
  6
CONTINUOUS
 10
619.5022
 20
1221.842
 30
0.0
 11
615.0022
 21
1221.842
 31
0.0
  0
LINE
  5
2CF
  8
5
  6
CONTINUOUS
 10
2285.195
 20
1631.143
 30
0.0
 11
2285.195
 21
1579.643
 31
0.0
  0
LINE
  5
2D0
  8
5
  6
CONTINUOUS
 10
2256.195
 20
1599.643
 30
0.0
 11
2256.195
 21
1576.643
 31
0.0
  0
LINE
  5
2D1
  8
5
  6
CONTINUOUS
 10
615.0022
 20
1239.142
 30
0.0
 11
619.5022
 21
1239.142
 31
0.0
  0
LINE
  5
2D2
  8
5
  6
CONTINUOUS
 10
619.5022
 20
1256.342
 30
0.0
 11
615.0022
 21
1256.342
 31
0.0
  0
LINE
  5
2D3
  8
5
  6
CONTINUOUS
 10
2256.195
 20
1576.643
 30
0.0
 11
1934.195
 21
1576.643
 31
0.0
  0
LINE
  5
2D4
  8
5
  6
CONTINUOUS
 10
2215.195
 20
1469.843
 30
0.0
 11
2200.195
 21
1469.843
 31
0.0
  0
LINE
  5
2D5
  8
5
  6
CONTINUOUS
 10
615.0022
 20
1271.342
 30
0.0
 11
619.5022
 21
1271.342
 31
0.0
  0
LINE
  5
2D6
  8
5
  6
CONTINUOUS
 10
619.5022
 20
1286.242
 30
0.0
 11
615.0022
 21
1286.242
 31
0.0
  0
LINE
  5
2D7
  8
5
  6
CONTINUOUS
 10
2200.195
 20
1469.843
 30
0.0
 11
1987.195
 21
1469.843
 31
0.0
  0
LINE
  5
2D8
  8
5
  6
CONTINUOUS
 10
1987.195
 20
1469.843
 30
0.0
 11
1972.195
 21
1469.843
 31
0.0
  0
LINE
  5
2D9
  8
5
  6
CONTINUOUS
 10
615.0022
 20
1301.242
 30
0.0
 11
619.5022
 21
1301.242
 31
0.0
  0
LINE
  5
2DA
  8
5
  6
CONTINUOUS
 10
619.5022
 20
1318.242
 30
0.0
 11
615.0022
 21
1318.242
 31
0.0
  0
LINE
  5
2DB
  8
5
  6
CONTINUOUS
 10
1987.195
 20
1506.142
 30
0.0
 11
1987.195
 21
1469.842
 31
0.0
  0
LINE
  5
2DC
  8
5
  6
CONTINUOUS
 10
2200.195
 20
1469.843
 30
0.0
 11
2200.195
 21
1506.142
 31
0.0
  0
LINE
  5
2DD
  8
5
  6
CONTINUOUS
 10
615.0022
 20
1172.442
 30
0.0
 11
619.5021
 21
1172.442
 31
0.0
  0
LINE
  5
2DE
  8
5
  6
CONTINUOUS
 10
619.5021
 20
1187.342
 30
0.0
 11
615.0022
 21
1187.342
 31
0.0
  0
LINE
  5
2DF
  8
5
  6
CONTINUOUS
 10
1945.695
 20
1530.143
 30
0.0
 11
2241.695
 21
1530.143
 31
0.0
  0
LINE
  5
2E0
  8
5
  6
CONTINUOUS
 10
2206.695
 20
1599.643
 30
0.0
 11
1983.695
 21
1599.643
 31
0.0
  0
LINE
  5
2E1
  8
5
  6
CONTINUOUS
 10
615.0022
 20
1142.442
 30
0.0
 11
619.5021
 21
1142.442
 31
0.0
  0
LINE
  5
2E2
  8
5
  6
CONTINUOUS
 10
619.5021
 20
1157.442
 30
0.0
 11
615.0022
 21
1157.442
 31
0.0
  0
LINE
  5
2E3
  8
5
  6
CONTINUOUS
 10
1983.695
 20
1650.643
 30
0.0
 11
1983.695
 21
1599.643
 31
0.0
  0
LINE
  5
2E4
  8
5
  6
CONTINUOUS
 10
2206.695
 20
1599.643
 30
0.0
 11
2206.702
 21
1650.643
 31
0.0
  0
LINE
  5
2E5
  8
5
  6
CONTINUOUS
 10
619.5021
 20
1125.442
 30
0.0
 11
615.0022
 21
1125.442
 31
0.0
  0
LINE
  5
2E6
  8
5
  6
CONTINUOUS
 10
2252.695
 20
1599.643
 30
0.0
 11
2222.126
 21
1631.143
 31
0.0
  0
LINE
  5
2E7
  8
5
  6
CONTINUOUS
 10
139.5022
 20
1336.542
 30
0.0
 11
144.0022
 21
1336.542
 31
0.0
  0
LINE
  5
2E8
  8
5
  6
CONTINUOUS
 10
144.0022
 20
1107.142
 30
0.0
 11
139.5022
 21
1107.142
 31
0.0
  0
LINE
  5
2E9
  8
5
  6
CONTINUOUS
 10
144.0022
 20
1221.842
 30
0.0
 11
139.5022
 21
1221.842
 31
0.0
  0
LINE
  5
2EA
  8
5
  6
CONTINUOUS
 10
139.5022
 20
1204.542
 30
0.0
 11
144.0022
 21
1204.542
 31
0.0
  0
LINE
  5
2EB
  8
5
  6
CONTINUOUS
 10
144.0022
 20
1256.342
 30
0.0
 11
139.5022
 21
1256.342
 31
0.0
  0
LINE
  5
2EC
  8
5
  6
CONTINUOUS
 10
139.5022
 20
1239.142
 30
0.0
 11
144.0022
 21
1239.142
 31
0.0
  0
LINE
  5
2ED
  8
5
  6
CONTINUOUS
 10
144.0022
 20
1286.242
 30
0.0
 11
139.5022
 21
1286.242
 31
0.0
  0
LINE
  5
2EE
  8
5
  6
CONTINUOUS
 10
139.5022
 20
1271.342
 30
0.0
 11
144.0022
 21
1271.342
 31
0.0
  0
LINE
  5
2EF
  8
5
  6
CONTINUOUS
 10
144.0022
 20
1318.242
 30
0.0
 11
139.5022
 21
1318.242
 31
0.0
  0
LINE
  5
2F0
  8
5
  6
CONTINUOUS
 10
139.5022
 20
1301.242
 30
0.0
 11
144.0022
 21
1301.242
 31
0.0
  0
LINE
  5
2F1
  8
5
  6
CONTINUOUS
 10
144.0022
 20
1187.342
 30
0.0
 11
139.5022
 21
1187.342
 31
0.0
  0
LINE
  5
2F2
  8
5
  6
CONTINUOUS
 10
139.5022
 20
1172.442
 30
0.0
 11
144.0022
 21
1172.442
 31
0.0
  0
LINE
  5
2F3
  8
5
  6
CONTINUOUS
 10
144.0022
 20
1157.442
 30
0.0
 11
139.5022
 21
1157.442
 31
0.0
  0
LINE
  5
2F4
  8
5
  6
CONTINUOUS
 10
139.5022
 20
1142.442
 30
0.0
 11
144.0022
 21
1142.442
 31
0.0
  0
LINE
  5
2F5
  8
5
  6
CONTINUOUS
 10
144.0022
 20
1125.442
 30
0.0
 11
139.5022
 21
1125.442
 31
0.0
  0
LINE
  5
2F6
  8
5
  6
CONTINUOUS
 10
926.1579
 20
195.8811
 30
0.0
 11
954.3578
 21
184.4877
 31
0.0
  0
LINE
  5
2F7
  8
5
  6
CONTINUOUS
 10
954.3578
 20
622.4877
 30
0.0
 11
954.3579
 21
562.9877
 31
0.0
  0
LINE
  5
2F8
  8
5
  6
CONTINUOUS
 10
954.3579
 20
240.9877
 30
0.0
 11
954.3578
 21
184.4877
 31
0.0
  0
LINE
  5
2F9
  8
5
  6
CONTINUOUS
 10
954.3578
 20
622.4877
 30
0.0
 11
926.1579
 21
611.0942
 31
0.0
  0
LINE
  5
2FA
  8
5
  6
CONTINUOUS
 10
908.0579
 20
152.4877
 30
0.0
 11
908.0579
 21
227.8377
 31
0.0
  0
LINE
  5
2FB
  8
5
  6
CONTINUOUS
 10
905.0579
 20
152.4877
 30
0.0
 11
905.0579
 21
227.8377
 31
0.0
  0
LINE
  5
2FC
  8
5
  6
CONTINUOUS
 10
900.5602
 20
479.4877
 30
0.0
 11
900.5602
 21
327.4877
 31
0.0
  0
LINE
  5
2FD
  8
5
  6
CONTINUOUS
 10
892.8579
 20
338.4877
 30
0.0
 11
900.5602
 21
327.4877
 31
0.0
  0
LINE
  5
2FE
  8
5
  6
CONTINUOUS
 10
900.5602
 20
479.4877
 30
0.0
 11
892.8579
 21
468.4877
 31
0.0
  0
LINE
  5
2FF
  8
5
  6
CONTINUOUS
 10
189.0813
 20
1433.113
 30
0.0
 11
167.0035
 21
1411.036
 31
0.0
  0
CIRCLE
  5
300
  8
5
  6
CONTINUOUS
 10
379.5022
 20
1221.842
 30
0.0
 40
223.5
  0
LINE
  5
301
  8
5
  6
CONTINUOUS
 10
273.336
 20
1469.842
 30
0.0
 11
273.0567
 21
1461.842
 31
0.0
  0
LINE
  5
302
  8
5
  6
CONTINUOUS
 10
485.9476
 20
1461.842
 30
0.0
 11
485.6683
 21
1469.842
 31
0.0
  0
ARC
  5
303
  8
5
  6
CONTINUOUS
 10
2093.695
 20
1221.843
 30
0.0
 40
188.3371
 50
90.0
 51
327.8936
  0
ARC
  5
304
  8
5
  6
CONTINUOUS
 10
2093.695
 20
1221.843
 30
0.0
 40
188.3371
 50
328.9648
 51
90.0
  0
LINE
  5
305
  8
5
  6
CONTINUOUS
 10
954.3578
 20
184.4877
 30
0.0
 11
965.6678
 21
184.4877
 31
0.0
  0
LINE
  5
306
  8
5
  6
CONTINUOUS
 10
1411.858
 20
622.4877
 30
0.0
 11
1407.048
 21
622.4877
 31
0.0
  0
ARC
  5
307
  8
5
  6
CONTINUOUS
 10
2093.695
 20
1221.843
 30
0.0
 40
76.28278
 50
51.25989
 51
128.7401
  0
ARC
  5
308
  8
5
  6
CONTINUOUS
 10
2093.695
 20
1221.843
 30
0.0
 40
76.28283
 50
128.7401
 51
146.1419
  0
ARC
  5
309
  8
5
  6
CONTINUOUS
 10
2093.695
 20
1221.843
 30
0.0
 40
76.28275
 50
146.1419
 51
160.4711
  0
ARC
  5
30A
  8
5
  6
CONTINUOUS
 10
2093.695
 20
1221.843
 30
0.0
 40
76.28268
 50
160.4711
 51
173.6024
  0
ARC
  5
30B
  8
5
  6
CONTINUOUS
 10
2093.695
 20
1221.843
 30
0.0
 40
76.28278
 50
173.6024
 51
186.3976
  0
ARC
  5
30C
  8
5
  6
CONTINUOUS
 10
2093.695
 20
1221.843
 30
0.0
 40
76.28278
 50
186.3976
 51
199.5289
  0
ARC
  5
30D
  8
5
  6
CONTINUOUS
 10
2093.695
 20
1221.843
 30
0.0
 40
76.28278
 50
199.5289
 51
213.8581
  0
ARC
  5
30E
  8
5
  6
CONTINUOUS
 10
2093.695
 20
1221.843
 30
0.0
 40
76.28275
 50
213.8581
 51
231.2599
  0
ARC
  5
30F
  8
5
  6
CONTINUOUS
 10
2093.695
 20
1221.843
 30
0.0
 40
76.28278
 50
308.7401
 51
326.1419
  0
ARC
  5
310
  8
5
  6
CONTINUOUS
 10
2093.695
 20
1221.843
 30
0.0
 40
76.28277
 50
326.1419
 51
340.4711
  0
ARC
  5
311
  8
5
  6
CONTINUOUS
 10
2093.695
 20
1221.843
 30
0.0
 40
76.28278
 50
340.4711
 51
353.6024
  0
ARC
  5
312
  8
5
  6
CONTINUOUS
 10
2093.695
 20
1221.843
 30
0.0
 40
76.28278
 50
353.6024
 51
6.3976
  0
ARC
  5
313
  8
5
  6
CONTINUOUS
 10
2093.695
 20
1221.843
 30
0.0
 40
76.28275
 50
6.3976
 51
19.52888
  0
LINE
  5
314
  8
5
  6
CONTINUOUS
 10
2227.029
 20
1048.11
 30
0.0
 11
2259.426
 21
1001.843
 31
0.0
  0
LINE
  5
315
  8
5
  6
CONTINUOUS
 10
1960.361
 20
1048.11
 30
0.0
 11
1927.964
 21
1001.843
 31
0.0
  0
LINE
  5
316
  8
5
  6
CONTINUOUS
 10
1981.195
 20
981.8425
 30
0.0
 11
1981.195
 21
1033.947
 31
0.0
  0
LINE
  5
317
  8
5
  6
CONTINUOUS
 10
2206.195
 20
1033.947
 30
0.0
 11
2206.195
 21
981.8425
 31
0.0
  0
LINE
  5
318
  8
5
  6
CONTINUOUS
 10
2209.011
 20
1035.662
 30
0.0
 11
2246.695
 21
981.8425
 31
0.0
  0
LINE
  5
319
  8
5
  6
CONTINUOUS
 10
2334.695
 20
1001.843
 30
0.0
 11
2285.4
 21
1072.243
 31
0.0
  0
LINE
  5
31A
  8
5
  6
CONTINUOUS
 10
1978.38
 20
1035.662
 30
0.0
 11
1940.695
 21
981.8425
 31
0.0
  0
LINE
  5
31B
  8
5
  6
CONTINUOUS
 10
1901.99
 20
1072.243
 30
0.0
 11
1852.695
 21
1001.843
 31
0.0
  0
LINE
  5
31C
  8
5
  6
CONTINUOUS
 10
2298.795
 20
1072.243
 30
0.0
 11
2253.635
 21
1072.243
 31
0.0
  0
LINE
  5
31D
  8
5
  6
CONTINUOUS
 10
1933.755
 20
1072.243
 30
0.0
 11
1888.195
 21
1072.243
 31
0.0
  0
LINE
  5
31E
  8
5
  6
CONTINUOUS
 10
2206.195
 20
981.8425
 30
0.0
 11
2187.695
 21
981.8425
 31
0.0
  0
LINE
  5
31F
  8
5
  6
CONTINUOUS
 10
2016.695
 20
981.8425
 30
0.0
 11
1999.695
 21
981.8425
 31
0.0
  0
LINE
  5
320
  8
5
  6
CONTINUOUS
 10
2048.695
 20
981.8425
 30
0.0
 11
2033.695
 21
981.8425
 31
0.0
  0
LINE
  5
321
  8
5
  6
CONTINUOUS
 10
2078.695
 20
981.8425
 30
0.0
 11
2063.695
 21
981.8425
 31
0.0
  0
LINE
  5
322
  8
5
  6
CONTINUOUS
 10
2170.695
 20
981.8425
 30
0.0
 11
2153.695
 21
981.8425
 31
0.0
  0
LINE
  5
323
  8
5
  6
CONTINUOUS
 10
2138.695
 20
981.8425
 30
0.0
 11
2123.695
 21
981.8425
 31
0.0
  0
LINE
  5
324
  8
5
  6
CONTINUOUS
 10
2108.695
 20
981.8425
 30
0.0
 11
2093.695
 21
981.8425
 31
0.0
  0
LINE
  5
325
  8
5
  6
CONTINUOUS
 10
2187.695
 20
981.8425
 30
0.0
 11
2170.695
 21
981.8425
 31
0.0
  0
LINE
  5
326
  8
5
  6
CONTINUOUS
 10
1999.695
 20
981.8425
 30
0.0
 11
1981.195
 21
981.8425
 31
0.0
  0
LINE
  5
327
  8
5
  6
CONTINUOUS
 10
2033.695
 20
981.8425
 30
0.0
 11
2016.695
 21
981.8425
 31
0.0
  0
LINE
  5
328
  8
5
  6
CONTINUOUS
 10
2063.695
 20
981.8425
 30
0.0
 11
2048.695
 21
981.8425
 31
0.0
  0
LINE
  5
329
  8
5
  6
CONTINUOUS
 10
2093.695
 20
981.8425
 30
0.0
 11
2078.695
 21
981.8425
 31
0.0
  0
LINE
  5
32A
  8
5
  6
CONTINUOUS
 10
2153.695
 20
981.8425
 30
0.0
 11
2138.695
 21
981.8425
 31
0.0
  0
LINE
  5
32B
  8
5
  6
CONTINUOUS
 10
2123.695
 20
981.8425
 30
0.0
 11
2108.695
 21
981.8425
 31
0.0
  0
LINE
  5
32C
  8
5
  6
CONTINUOUS
 10
2112.695
 20
1106.343
 30
0.0
 11
2112.695
 21
1056.098
 31
0.0
  0
LINE
  5
32D
  8
5
  6
CONTINUOUS
 10
2112.695
 20
1056.098
 30
0.0
 11
2112.695
 21
1052.908
 31
0.0
  0
LINE
  5
32E
  8
5
  6
CONTINUOUS
 10
2112.695
 20
1052.908
 30
0.0
 11
2112.695
 21
1047.223
 31
0.0
  0
LINE
  5
32F
  8
5
  6
CONTINUOUS
 10
2112.695
 20
1121.843
 30
0.0
 11
2112.695
 21
1121.743
 31
0.0
  0
LINE
  5
330
  8
5
  6
CONTINUOUS
 10
2074.695
 20
1056.098
 30
0.0
 11
2074.695
 21
1106.343
 31
0.0
  0
LINE
  5
331
  8
5
  6
CONTINUOUS
 10
2074.695
 20
1047.223
 30
0.0
 11
2074.695
 21
1052.908
 31
0.0
  0
LINE
  5
332
  8
5
  6
CONTINUOUS
 10
2074.695
 20
1052.908
 30
0.0
 11
2074.695
 21
1056.098
 31
0.0
  0
LINE
  5
333
  8
5
  6
CONTINUOUS
 10
2093.695
 20
1121.843
 30
0.0
 11
2112.695
 21
1121.843
 31
0.0
  0
ARC
  5
334
  8
5
  6
CONTINUOUS
 10
2093.695
 20
1221.843
 30
0.0
 40
175.65
 50
90.0
 51
263.7902
  0
ARC
  5
335
  8
5
  6
CONTINUOUS
 10
2093.695
 20
1221.843
 30
0.0
 40
175.65
 50
276.2098
 51
90.0
  0
LINE
  5
336
  8
5
  6
CONTINUOUS
 10
2093.695
 20
1124.743
 30
0.0
 11
2093.695
 21
1123.243
 31
0.0
  0
LINE
  5
337
  8
5
  6
CONTINUOUS
 10
2093.695
 20
1123.243
 30
0.0
 11
2093.695
 21
1121.843
 31
0.0
  0
LINE
  5
338
  8
5
  6
CONTINUOUS
 10
2344.695
 20
1123.243
 30
0.0
 11
2344.695
 21
1124.743
 31
0.0
  0
LINE
  5
339
  8
5
  6
CONTINUOUS
 10
2344.695
 20
1121.743
 30
0.0
 11
2344.695
 21
1123.243
 31
0.0
  0
LINE
  5
33A
  8
5
  6
CONTINUOUS
 10
2074.695
 20
1106.343
 30
0.0
 11
2112.695
 21
1106.343
 31
0.0
  0
LINE
  5
33B
  8
5
  6
CONTINUOUS
 10
2112.695
 20
1106.343
 30
0.0
 11
2129.695
 21
1106.343
 31
0.0
  0
LINE
  5
33C
  8
5
  6
CONTINUOUS
 10
2040.695
 20
1106.343
 30
0.0
 11
2057.695
 21
1106.343
 31
0.0
  0
LINE
  5
33D
  8
5
  6
CONTINUOUS
 10
2146.695
 20
1106.343
 30
0.0
 11
2214.077
 21
1106.343
 31
0.0
  0
LINE
  5
33E
  8
5
  6
CONTINUOUS
 10
1973.313
 20
1106.343
 30
0.0
 11
2040.695
 21
1106.343
 31
0.0
  0
LINE
  5
33F
  8
5
  6
CONTINUOUS
 10
2129.695
 20
1106.343
 30
0.0
 11
2146.695
 21
1106.343
 31
0.0
  0
LINE
  5
340
  8
5
  6
CONTINUOUS
 10
2057.695
 20
1106.343
 30
0.0
 11
2074.695
 21
1106.343
 31
0.0
  0
LINE
  5
341
  8
5
  6
CONTINUOUS
 10
2067.695
 20
1156.083
 30
0.0
 11
2067.695
 21
1128.343
 31
0.0
  0
LINE
  5
342
  8
5
  6
CONTINUOUS
 10
2119.695
 20
1156.083
 30
0.0
 11
2119.695
 21
1128.343
 31
0.0
  0
LINE
  5
343
  8
5
  6
CONTINUOUS
 10
2119.695
 20
1128.343
 30
0.0
 11
2067.695
 21
1128.343
 31
0.0
  0
LINE
  5
344
  8
5
  6
CONTINUOUS
 10
1955.529
 20
1128.343
 30
0.0
 11
2067.695
 21
1128.343
 31
0.0
  0
LINE
  5
345
  8
5
  6
CONTINUOUS
 10
2119.695
 20
1128.343
 30
0.0
 11
2231.861
 21
1128.343
 31
0.0
  0
ARC
  5
346
  8
5
  6
CONTINUOUS
 10
2093.695
 20
1221.843
 30
0.0
 40
76.28271
 50
19.52888
 51
33.85807
  0
LINE
  5
347
  8
5
  6
CONTINUOUS
 10
2246.695
 20
1001.843
 30
0.0
 11
2246.695
 21
971.8425
 31
0.0
  0
LINE
  5
348
  8
5
  6
CONTINUOUS
 10
2334.695
 20
971.8425
 30
0.0
 11
2334.695
 21
1001.843
 31
0.0
  0
LINE
  5
349
  8
5
  6
CONTINUOUS
 10
2334.695
 20
1001.843
 30
0.0
 11
2246.695
 21
1001.843
 31
0.0
  0
LINE
  5
34A
  8
5
  6
CONTINUOUS
 10
2334.695
 20
971.8425
 30
0.0
 11
2246.695
 21
971.8425
 31
0.0
  0
LINE
  5
34B
  8
5
  6
CONTINUOUS
 10
1940.695
 20
1001.843
 30
0.0
 11
1940.695
 21
971.8425
 31
0.0
  0
LINE
  5
34C
  8
5
  6
CONTINUOUS
 10
1852.695
 20
971.8425
 30
0.0
 11
1852.695
 21
1001.843
 31
0.0
  0
LINE
  5
34D
  8
5
  6
CONTINUOUS
 10
1852.695
 20
1001.843
 30
0.0
 11
1940.695
 21
1001.843
 31
0.0
  0
LINE
  5
34E
  8
5
  6
CONTINUOUS
 10
1852.695
 20
971.8425
 30
0.0
 11
1940.695
 21
971.8425
 31
0.0
  0
LINE
  5
34F
  8
5
  6
CONTINUOUS
 10
1957.712
 20
1440.843
 30
0.0
 11
1944.195
 21
1427.442
 31
0.0
  0
LINE
  5
350
  8
5
  6
CONTINUOUS
 10
1961.595
 20
1444.692
 30
0.0
 11
1957.712
 21
1440.843
 31
0.0
  0
LINE
  5
351
  8
5
  6
CONTINUOUS
 10
1973.038
 20
1456.036
 30
0.0
 11
1961.595
 21
1444.692
 31
0.0
  0
LINE
  5
352
  8
5
  6
CONTINUOUS
 10
1944.195
 20
1427.442
 30
0.0
 11
1944.095
 21
1427.343
 31
0.0
  0
LINE
  5
353
  8
5
  6
CONTINUOUS
 10
2225.995
 20
1444.493
 30
0.0
 11
2214.352
 21
1456.036
 31
0.0
  0
LINE
  5
354
  8
5
  6
CONTINUOUS
 10
2229.678
 20
1440.843
 30
0.0
 11
2225.995
 21
1444.493
 31
0.0
  0
LINE
  5
355
  8
5
  6
CONTINUOUS
 10
2243.295
 20
1427.343
 30
0.0
 11
2229.678
 21
1440.843
 31
0.0
  0
LINE
  5
356
  8
5
  6
CONTINUOUS
 10
1871.044
 20
1089.592
 30
0.0
 11
1888.195
 21
1072.243
 31
0.0
  0
LINE
  5
357
  8
5
  6
CONTINUOUS
 10
1870.994
 20
1089.643
 30
0.0
 11
1871.044
 21
1089.592
 31
0.0
  0
LINE
  5
358
  8
5
  6
CONTINUOUS
 10
1853.695
 20
1107.143
 30
0.0
 11
1870.994
 21
1089.643
 31
0.0
  0
LINE
  5
359
  8
5
  6
CONTINUOUS
 10
1870.994
 20
1354.043
 30
0.0
 11
1853.695
 21
1336.543
 31
0.0
  0
LINE
  5
35A
  8
5
  6
CONTINUOUS
 10
1871.044
 20
1354.093
 30
0.0
 11
1870.994
 21
1354.043
 31
0.0
  0
LINE
  5
35B
  8
5
  6
CONTINUOUS
 10
1888.195
 20
1371.443
 30
0.0
 11
1871.044
 21
1354.093
 31
0.0
  0
LINE
  5
35C
  8
5
  6
CONTINUOUS
 10
2316.346
 20
1089.592
 30
0.0
 11
2316.397
 21
1089.643
 31
0.0
  0
LINE
  5
35D
  8
5
  6
CONTINUOUS
 10
2298.795
 20
1072.243
 30
0.0
 11
2316.346
 21
1089.592
 31
0.0
  0
LINE
  5
35E
  8
5
  6
CONTINUOUS
 10
2316.397
 20
1089.643
 30
0.0
 11
2333.695
 21
1106.743
 31
0.0
  0
LINE
  5
35F
  8
5
  6
CONTINUOUS
 10
2333.695
 20
1336.543
 30
0.0
 11
2316.396
 21
1354.043
 31
0.0
  0
LINE
  5
360
  8
5
  6
CONTINUOUS
 10
2316.346
 20
1354.093
 30
0.0
 11
2299.195
 21
1371.443
 31
0.0
  0
LINE
  5
361
  8
5
  6
CONTINUOUS
 10
2316.396
 20
1354.043
 30
0.0
 11
2316.346
 21
1354.093
 31
0.0
  0
LINE
  5
362
  8
5
  6
CONTINUOUS
 10
1853.695
 20
1204.543
 30
0.0
 11
1853.695
 21
1221.843
 31
0.0
  0
LINE
  5
363
  8
5
  6
CONTINUOUS
 10
1853.695
 20
1239.143
 30
0.0
 11
1853.695
 21
1256.343
 31
0.0
  0
LINE
  5
364
  8
5
  6
CONTINUOUS
 10
1853.695
 20
1271.343
 30
0.0
 11
1853.695
 21
1286.243
 31
0.0
  0
LINE
  5
365
  8
5
  6
CONTINUOUS
 10
1853.695
 20
1172.443
 30
0.0
 11
1853.695
 21
1187.343
 31
0.0
  0
LINE
  5
366
  8
5
  6
CONTINUOUS
 10
1853.695
 20
1142.443
 30
0.0
 11
1853.695
 21
1157.443
 31
0.0
  0
LINE
  5
367
  8
5
  6
CONTINUOUS
 10
1853.695
 20
1187.343
 30
0.0
 11
1853.695
 21
1204.543
 31
0.0
  0
LINE
  5
368
  8
5
  6
CONTINUOUS
 10
1853.695
 20
1221.843
 30
0.0
 11
1853.695
 21
1239.143
 31
0.0
  0
LINE
  5
369
  8
5
  6
CONTINUOUS
 10
1853.695
 20
1256.343
 30
0.0
 11
1853.695
 21
1271.343
 31
0.0
  0
LINE
  5
36A
  8
5
  6
CONTINUOUS
 10
1853.695
 20
1286.243
 30
0.0
 11
1853.695
 21
1301.243
 31
0.0
  0
LINE
  5
36B
  8
5
  6
CONTINUOUS
 10
1853.695
 20
1157.443
 30
0.0
 11
1853.695
 21
1172.443
 31
0.0
  0
LINE
  5
36C
  8
5
  6
CONTINUOUS
 10
2333.695
 20
1121.743
 30
0.0
 11
2333.695
 21
1107.143
 31
0.0
  0
LINE
  5
36D
  8
5
  6
CONTINUOUS
 10
2333.695
 20
1157.443
 30
0.0
 11
2333.695
 21
1142.443
 31
0.0
  0
LINE
  5
36E
  8
5
  6
CONTINUOUS
 10
2333.695
 20
1187.343
 30
0.0
 11
2333.695
 21
1172.443
 31
0.0
  0
LINE
  5
36F
  8
5
  6
CONTINUOUS
 10
2333.695
 20
1286.243
 30
0.0
 11
2333.695
 21
1271.343
 31
0.0
  0
LINE
  5
370
  8
5
  6
CONTINUOUS
 10
2333.695
 20
1256.343
 30
0.0
 11
2333.695
 21
1239.143
 31
0.0
  0
LINE
  5
371
  8
5
  6
CONTINUOUS
 10
2333.695
 20
1221.843
 30
0.0
 11
2333.695
 21
1204.543
 31
0.0
  0
LINE
  5
372
  8
5
  6
CONTINUOUS
 10
2333.695
 20
1107.143
 30
0.0
 11
2333.695
 21
1106.743
 31
0.0
  0
LINE
  5
373
  8
5
  6
CONTINUOUS
 10
2333.695
 20
1172.443
 30
0.0
 11
2333.695
 21
1157.443
 31
0.0
  0
LINE
  5
374
  8
5
  6
CONTINUOUS
 10
2333.695
 20
1204.543
 30
0.0
 11
2333.695
 21
1187.343
 31
0.0
  0
LINE
  5
375
  8
5
  6
CONTINUOUS
 10
2333.695
 20
1301.243
 30
0.0
 11
2333.695
 21
1286.243
 31
0.0
  0
LINE
  5
376
  8
5
  6
CONTINUOUS
 10
2333.695
 20
1271.343
 30
0.0
 11
2333.695
 21
1256.343
 31
0.0
  0
LINE
  5
377
  8
5
  6
CONTINUOUS
 10
2333.695
 20
1239.143
 30
0.0
 11
2333.695
 21
1221.843
 31
0.0
  0
LINE
  5
378
  8
5
  6
CONTINUOUS
 10
1944.095
 20
1427.343
 30
0.0
 11
1944.095
 21
1402.353
 31
0.0
  0
LINE
  5
379
  8
5
  6
CONTINUOUS
 10
2253.635
 20
1371.443
 30
0.0
 11
2299.195
 21
1371.443
 31
0.0
  0
LINE
  5
37A
  8
5
  6
CONTINUOUS
 10
1888.195
 20
1371.443
 30
0.0
 11
1933.755
 21
1371.443
 31
0.0
  0
ARC
  5
37B
  8
5
  6
CONTINUOUS
 10
2093.695
 20
1221.843
 30
0.0
 40
219.0
 50
333.6803
 51
0.0
  0
ARC
  5
37C
  8
5
  6
CONTINUOUS
 10
2093.695
 20
1221.843
 30
0.0
 40
219.0
 50
90.0
 51
332.8013
  0
ARC
  5
37D
  8
5
  6
CONTINUOUS
 10
2093.695
 20
1221.843
 30
0.0
 40
219.0
 50
0.0
 51
90.0
  0
LINE
  5
37E
  8
5
  6
CONTINUOUS
 10
2243.295
 20
1427.343
 30
0.0
 11
2243.295
 21
1381.783
 31
0.0
  0
LINE
  5
37F
  8
5
  6
CONTINUOUS
 10
2215.991
 20
986.3425
 30
0.0
 11
2232.197
 21
1002.548
 31
0.0
  0
LINE
  5
380
  8
5
  6
CONTINUOUS
 10
2292.192
 20
1062.543
 30
0.0
 11
2329.195
 21
1099.546
 31
0.0
  0
LINE
  5
381
  8
5
  6
CONTINUOUS
 10
1971.399
 20
986.3425
 30
0.0
 11
1981.195
 21
986.3425
 31
0.0
  0
LINE
  5
382
  8
5
  6
CONTINUOUS
 10
2206.195
 20
986.3425
 30
0.0
 11
2215.991
 21
986.3425
 31
0.0
  0
LINE
  5
383
  8
5
  6
CONTINUOUS
 10
1858.195
 20
1099.546
 30
0.0
 11
1895.198
 21
1062.543
 31
0.0
  0
LINE
  5
384
  8
5
  6
CONTINUOUS
 10
1955.193
 20
1002.548
 30
0.0
 11
1971.399
 21
986.3425
 31
0.0
  0
LINE
  5
385
  8
5
  6
CONTINUOUS
 10
1858.195
 20
1344.139
 30
0.0
 11
1858.195
 21
1341.095
 31
0.0
  0
LINE
  5
386
  8
5
  6
CONTINUOUS
 10
1858.195
 20
1102.59
 30
0.0
 11
1858.195
 21
1099.546
 31
0.0
  0
LINE
  5
387
  8
5
  6
CONTINUOUS
 10
1971.399
 20
1457.343
 30
0.0
 11
1928.307
 21
1414.25
 31
0.0
  0
LINE
  5
388
  8
5
  6
CONTINUOUS
 10
1897.672
 20
1383.615
 30
0.0
 11
1858.195
 21
1344.139
 31
0.0
  0
LINE
  5
389
  8
5
  6
CONTINUOUS
 10
2215.991
 20
1457.343
 30
0.0
 11
2214.306
 21
1457.343
 31
0.0
  0
LINE
  5
38A
  8
5
  6
CONTINUOUS
 10
1410.339
 20
506.4007
 30
0.0
 11
1408.842
 21
518.0877
 31
0.0
  0
LINE
  5
38B
  8
5
  6
CONTINUOUS
 10
1404.371
 20
552.9877
 30
0.0
 11
1406.577
 21
535.763
 31
0.0
  0
LINE
  5
38C
  8
5
  6
CONTINUOUS
 10
1406.6
 20
535.5877
 30
0.0
 11
1406.577
 21
535.763
 31
0.0
  0
LINE
  5
38D
  8
5
  6
CONTINUOUS
 10
1408.842
 20
518.0877
 30
0.0
 11
1406.6
 21
535.5877
 31
0.0
  0
LINE
  5
38E
  8
5
  6
CONTINUOUS
 10
1404.358
 20
553.0877
 30
0.0
 11
1404.371
 21
552.9877
 31
0.0
  0
LINE
  5
38F
  8
5
  6
CONTINUOUS
 10
1406.587
 20
626.0877
 30
0.0
 11
1408.829
 21
608.5877
 31
0.0
  0
LINE
  5
390
  8
5
  6
CONTINUOUS
 10
1404.358
 20
643.4877
 30
0.0
 11
1406.574
 21
626.1883
 31
0.0
  0
LINE
  5
391
  8
5
  6
CONTINUOUS
 10
1406.574
 20
626.1883
 30
0.0
 11
1406.58
 21
626.1383
 31
0.0
  0
LINE
  5
392
  8
5
  6
CONTINUOUS
 10
1406.58
 20
626.1383
 30
0.0
 11
1406.587
 21
626.0877
 31
0.0
  0
LINE
  5
393
  8
5
  6
CONTINUOUS
 10
1973.084
 20
1457.343
 30
0.0
 11
1971.399
 21
1457.343
 31
0.0
  0
LINE
  5
394
  8
5
  6
CONTINUOUS
 10
1408.829
 20
608.5877
 30
0.0
 11
1410.339
 21
596.8007
 31
0.0
  0
LINE
  5
395
  8
5
  6
CONTINUOUS
 10
1406.574
 20
180.7871
 30
0.0
 11
1404.358
 21
163.4877
 31
0.0
  0
LINE
  5
396
  8
5
  6
CONTINUOUS
 10
1406.587
 20
180.8877
 30
0.0
 11
1408.829
 21
198.3877
 31
0.0
  0
LINE
  5
397
  8
5
  6
CONTINUOUS
 10
1406.58
 20
180.8371
 30
0.0
 11
1406.587
 21
180.8877
 31
0.0
  0
LINE
  5
398
  8
5
  6
CONTINUOUS
 10
1406.58
 20
180.8371
 30
0.0
 11
1406.574
 21
180.7871
 31
0.0
  0
LINE
  5
399
  8
5
  6
CONTINUOUS
 10
1408.829
 20
198.3877
 30
0.0
 11
1410.339
 21
210.1747
 31
0.0
  0
LINE
  5
39A
  8
5
  6
CONTINUOUS
 10
966.1418
 20
626.1883
 30
0.0
 11
968.3579
 21
643.4877
 31
0.0
  0
LINE
  5
39B
  8
5
  6
CONTINUOUS
 10
966.1289
 20
626.0877
 30
0.0
 11
963.8871
 21
608.5877
 31
0.0
  0
LINE
  5
39C
  8
5
  6
CONTINUOUS
 10
966.1354
 20
626.1383
 30
0.0
 11
966.1289
 21
626.0877
 31
0.0
  0
LINE
  5
39D
  8
5
  6
CONTINUOUS
 10
966.1354
 20
626.1383
 30
0.0
 11
966.1418
 21
626.1883
 31
0.0
  0
LINE
  5
39E
  8
5
  6
CONTINUOUS
 10
2329.195
 20
1344.139
 30
0.0
 11
2289.718
 21
1383.616
 31
0.0
  0
LINE
  5
39F
  8
5
  6
CONTINUOUS
 10
963.8871
 20
608.5877
 30
0.0
 11
962.3772
 21
596.8007
 31
0.0
  0
LINE
  5
3A0
  8
5
  6
CONTINUOUS
 10
966.1289
 20
180.8877
 30
0.0
 11
963.8871
 21
198.3877
 31
0.0
  0
LINE
  5
3A1
  8
5
  6
CONTINUOUS
 10
968.3579
 20
163.4877
 30
0.0
 11
966.1418
 21
180.7871
 31
0.0
  0
LINE
  5
3A2
  8
5
  6
CONTINUOUS
 10
966.1418
 20
180.7871
 30
0.0
 11
966.1354
 21
180.8371
 31
0.0
  0
LINE
  5
3A3
  8
5
  6
CONTINUOUS
 10
966.1354
 20
180.8371
 30
0.0
 11
966.1289
 21
180.8877
 31
0.0
  0
LINE
  5
3A4
  8
5
  6
CONTINUOUS
 10
963.8871
 20
198.3877
 30
0.0
 11
962.3772
 21
210.1747
 31
0.0
  0
LINE
  5
3A5
  8
5
  6
CONTINUOUS
 10
968.3579
 20
643.4877
 30
0.0
 11
1404.358
 21
643.4877
 31
0.0
  0
LINE
  5
3A6
  8
5
  6
CONTINUOUS
 10
1404.358
 20
163.4877
 30
0.0
 11
968.3579
 21
163.4877
 31
0.0
  0
LINE
  5
3A7
  8
5
  6
CONTINUOUS
 10
2259.083
 20
1414.25
 30
0.0
 11
2215.991
 21
1457.343
 31
0.0
  0
LINE
  5
3A8
  8
5
  6
CONTINUOUS
 10
1259.358
 20
553.0876
 30
0.0
 11
1404.358
 21
553.0877
 31
0.0
  0
LINE
  5
3A9
  8
5
  6
CONTINUOUS
 10
1408.803
 20
288.5877
 30
0.0
 11
1406.577
 21
271.2124
 31
0.0
  0
LINE
  5
3AA
  8
5
  6
CONTINUOUS
 10
1406.577
 20
271.2124
 30
0.0
 11
1406.574
 21
271.1877
 31
0.0
  0
LINE
  5
3AB
  8
5
  6
CONTINUOUS
 10
1410.339
 20
300.5747
 30
0.0
 11
1408.803
 21
288.5877
 31
0.0
  0
LINE
  5
3AC
  8
5
  6
CONTINUOUS
 10
1406.574
 20
271.1877
 30
0.0
 11
1404.358
 21
253.8877
 31
0.0
  0
LINE
  5
3AD
  8
5
  6
CONTINUOUS
 10
2329.195
 20
1344.139
 30
0.0
 11
2329.195
 21
1341.095
 31
0.0
  0
LINE
  5
3AE
  8
5
  6
CONTINUOUS
 10
2329.195
 20
1102.294
 30
0.0
 11
2329.195
 21
1099.546
 31
0.0
  0
LINE
  5
3AF
  8
5
  6
CONTINUOUS
 10
1404.358
 20
253.8877
 30
0.0
 11
1259.358
 21
253.8878
 31
0.0
  0
LINE
  5
3B0
  8
5
  6
CONTINUOUS
 10
1540.858
 20
635.9878
 30
0.0
 11
1540.858
 21
524.5412
 31
0.0
  0
LINE
  5
3B1
  8
5
  6
CONTINUOUS
 10
1540.858
 20
524.5412
 30
0.0
 11
1540.858
 21
282.4344
 31
0.0
  0
LINE
  5
3B2
  8
5
  6
CONTINUOUS
 10
1540.858
 20
282.4344
 30
0.0
 11
1540.858
 21
170.9878
 31
0.0
  0
LINE
  5
3B3
  8
5
  6
CONTINUOUS
 10
1613.858
 20
543.4877
 30
0.0
 11
1613.858
 21
263.4877
 31
0.0
  0
LINE
  5
3B4
  8
5
  6
CONTINUOUS
 10
1472.358
 20
638.9877
 30
0.0
 11
1411.858
 21
638.9877
 31
0.0
  0
LINE
  5
3B5
  8
5
  6
CONTINUOUS
 10
1472.358
 20
167.9877
 30
0.0
 11
1411.858
 21
167.9877
 31
0.0
  0
LINE
  5
3B6
  8
5
  6
CONTINUOUS
 10
1472.358
 20
635.9878
 30
0.0
 11
1540.858
 21
635.9878
 31
0.0
  0
LINE
  5
3B7
  8
5
  6
CONTINUOUS
 10
1540.858
 20
170.9878
 30
0.0
 11
1472.358
 21
170.9878
 31
0.0
  0
LINE
  5
3B8
  8
5
  6
CONTINUOUS
 10
1472.358
 20
638.9877
 30
0.0
 11
1472.358
 21
525.7837
 31
0.0
  0
LINE
  5
3B9
  8
5
  6
CONTINUOUS
 10
1472.358
 20
525.7837
 30
0.0
 11
1472.358
 21
281.1917
 31
0.0
  0
LINE
  5
3BA
  8
5
  6
CONTINUOUS
 10
1472.358
 20
281.1917
 30
0.0
 11
1472.358
 21
167.9877
 31
0.0
  0
LINE
  5
3BB
  8
5
  6
CONTINUOUS
 10
1411.858
 20
167.9877
 30
0.0
 11
1411.858
 21
281.1917
 31
0.0
  0
LINE
  5
3BC
  8
5
  6
CONTINUOUS
 10
1411.858
 20
281.1917
 30
0.0
 11
1411.858
 21
525.7837
 31
0.0
  0
LINE
  5
3BD
  8
5
  6
CONTINUOUS
 10
1411.858
 20
525.7837
 30
0.0
 11
1411.858
 21
638.9877
 31
0.0
  0
LINE
  5
3BE
  8
5
  6
CONTINUOUS
 10
2187.695
 20
1024.042
 30
0.0
 11
2187.695
 21
1000.343
 31
0.0
  0
LINE
  5
3C1
  8
5
  6
CONTINUOUS
 10
1999.695
 20
1024.042
 30
0.0
 11
1999.695
 21
1000.343
 31
0.0
  0
ARC
  5
3C4
  8
5
  6
CONTINUOUS
 10
2093.695
 20
1221.843
 30
0.0
 40
207.6065
 50
332.1141
 51
90.0
  0
ARC
  5
3C5
  8
5
  6
CONTINUOUS
 10
2093.695
 20
1221.843
 30
0.0
 40
207.6065
 50
90.0
 51
331.1733
  0
LINE
  5
3C6
  8
5
  6
CONTINUOUS
 10
2187.695
 20
1000.343
 30
0.0
 11
2187.695
 21
981.8425
 31
0.0
  0
LINE
  5
3C7
  8
5
  6
CONTINUOUS
 10
1999.695
 20
981.8425
 30
0.0
 11
1999.695
 21
1000.343
 31
0.0
  0
LINE
  5
3C8
  8
5
  6
CONTINUOUS
 10
2093.695
 20
1002.843
 30
0.0
 11
2093.695
 21
981.8425
 31
0.0
  0
LINE
  5
3C9
  8
5
  6
CONTINUOUS
 10
2108.695
 20
981.8425
 30
0.0
 11
2108.695
 21
1003.357
 31
0.0
  0
LINE
  5
3CA
  8
5
  6
CONTINUOUS
 10
2123.695
 20
1004.907
 30
0.0
 11
2123.695
 21
981.8425
 31
0.0
  0
LINE
  5
3CB
  8
5
  6
CONTINUOUS
 10
2138.695
 20
981.8425
 30
0.0
 11
2138.695
 21
1007.516
 31
0.0
  0
LINE
  5
3CC
  8
5
  6
CONTINUOUS
 10
2153.695
 20
1011.222
 30
0.0
 11
2153.695
 21
981.8425
 31
0.0
  0
LINE
  5
3CD
  8
5
  6
CONTINUOUS
 10
2170.695
 20
981.8425
 30
0.0
 11
2170.695
 21
1016.825
 31
0.0
  0
LINE
  5
3CE
  8
5
  6
CONTINUOUS
 10
2063.695
 20
1004.907
 30
0.0
 11
2063.695
 21
981.8425
 31
0.0
  0
LINE
  5
3CF
  8
5
  6
CONTINUOUS
 10
2078.695
 20
981.8425
 30
0.0
 11
2078.695
 21
1003.357
 31
0.0
  0
LINE
  5
3D0
  8
5
  6
CONTINUOUS
 10
2033.695
 20
1011.222
 30
0.0
 11
2033.695
 21
981.8425
 31
0.0
  0
LINE
  5
3D1
  8
5
  6
CONTINUOUS
 10
2048.695
 20
981.8425
 30
0.0
 11
2048.695
 21
1007.516
 31
0.0
  0
LINE
  5
3D2
  8
5
  6
CONTINUOUS
 10
2016.695
 20
981.8425
 30
0.0
 11
2016.695
 21
1016.825
 31
0.0
  0
ARC
  5
3D3
  8
5
  6
CONTINUOUS
 10
2093.695
 20
1221.843
 30
0.0
 40
170.0
 50
276.4171
 51
263.5829
  0
ARC
  5
3D4
  8
5
  6
CONTINUOUS
 10
2093.695
 20
1221.843
 30
0.0
 40
166.8297
 50
159.1053
 51
165.2412
  0
ARC
  5
3D5
  8
5
  6
CONTINUOUS
 10
2093.695
 20
1221.843
 30
0.0
 40
166.8297
 50
14.75882
 51
20.89467
  0
ARC
  5
3D6
  8
5
  6
CONTINUOUS
 10
2093.695
 20
1221.843
 30
0.0
 40
166.8297
 50
171.2078
 51
177.0795
  0
ARC
  5
3D7
  8
5
  6
CONTINUOUS
 10
2093.695
 20
1221.843
 30
0.0
 40
166.8297
 50
2.920493
 51
8.79215
  0
ARC
  5
3D8
  8
5
  6
CONTINUOUS
 10
2093.695
 20
1221.843
 30
0.0
 40
166.8297
 50
182.9205
 51
188.7922
  0
ARC
  5
3D9
  8
5
  6
CONTINUOUS
 10
2093.695
 20
1221.843
 30
0.0
 40
166.8297
 50
351.2078
 51
357.0795
  0
ARC
  5
3DA
  8
5
  6
CONTINUOUS
 10
2093.695
 20
1221.843
 30
0.0
 40
166.8297
 50
194.7588
 51
200.8947
  0
ARC
  5
3DB
  8
5
  6
CONTINUOUS
 10
2093.695
 20
1221.843
 30
0.0
 40
166.8297
 50
339.1053
 51
345.2412
  0
ARC
  5
3DC
  8
5
  6
CONTINUOUS
 10
2093.695
 20
1221.843
 30
0.0
 40
166.8297
 50
152.7063
 51
159.1053
  0
ARC
  5
3DD
  8
5
  6
CONTINUOUS
 10
2093.695
 20
1221.843
 30
0.0
 40
166.8297
 50
20.89467
 51
27.29367
  0
ARC
  5
3DE
  8
5
  6
CONTINUOUS
 10
2093.695
 20
1221.843
 30
0.0
 40
166.8297
 50
165.2412
 51
171.2078
  0
ARC
  5
3DF
  8
5
  6
CONTINUOUS
 10
2093.695
 20
1221.843
 30
0.0
 40
166.8297
 50
8.79215
 51
14.75882
  0
ARC
  5
3E0
  8
5
  6
CONTINUOUS
 10
2093.695
 20
1221.843
 30
0.0
 40
166.8297
 50
177.0795
 51
182.9205
  0
ARC
  5
3E1
  8
5
  6
CONTINUOUS
 10
2093.695
 20
1221.843
 30
0.0
 40
166.8297
 50
357.0795
 51
2.9205
  0
ARC
  5
3E2
  8
5
  6
CONTINUOUS
 10
2093.695
 20
1221.843
 30
0.0
 40
166.8297
 50
188.7922
 51
194.7588
  0
ARC
  5
3E3
  8
5
  6
CONTINUOUS
 10
2093.695
 20
1221.843
 30
0.0
 40
166.8297
 50
345.2412
 51
351.2078
  0
ARC
  5
3E4
  8
5
  6
CONTINUOUS
 10
2093.695
 20
1221.843
 30
0.0
 40
166.8297
 50
145.913
 51
152.7063
  0
ARC
  5
3E5
  8
5
  6
CONTINUOUS
 10
2093.695
 20
1221.843
 30
0.0
 40
166.8297
 50
325.913
 51
332.7063
  0
ARC
  5
3E6
  8
5
  6
CONTINUOUS
 10
2093.695
 20
1221.843
 30
0.0
 40
163.0742
 50
323.4564
 51
325.0152
  0
ARC
  5
3E7
  8
5
  6
CONTINUOUS
 10
2093.695
 20
1221.843
 30
0.0
 40
163.0742
 50
314.9059
 51
322.133
  0
ARC
  5
3E8
  8
5
  6
CONTINUOUS
 10
2093.695
 20
1221.843
 30
0.0
 40
166.8297
 50
288.5232
 51
316.1858
  0
ARC
  5
3E9
  8
5
  6
CONTINUOUS
 10
2093.695
 20
1221.843
 30
0.0
 40
166.8297
 50
251.4768
 51
257.5382
  0
ARC
  5
3EA
  8
5
  6
CONTINUOUS
 10
2093.695
 20
1221.843
 30
0.0
 40
166.8297
 50
276.5395
 51
282.4618
  0
ARC
  5
3EB
  8
5
  6
CONTINUOUS
 10
2093.695
 20
1221.843
 30
0.0
 40
166.8297
 50
257.5382
 51
263.4605
  0
ARC
  5
3EC
  8
5
  6
CONTINUOUS
 10
2093.695
 20
1221.843
 30
0.0
 40
166.8297
 50
282.4618
 51
288.5232
  0
ARC
  5
3ED
  8
5
  6
CONTINUOUS
 10
2093.695
 20
1221.843
 30
0.0
 40
166.8297
 50
223.8142
 51
251.4768
  0
ARC
  5
3EE
  8
5
  6
CONTINUOUS
 10
2093.695
 20
1221.843
 30
0.0
 40
163.0742
 50
214.9848
 51
225.0941
  0
ARC
  5
3EF
  8
5
  6
CONTINUOUS
 10
2093.695
 20
1221.843
 30
0.0
 40
166.8297
 50
207.2937
 51
214.087
  0
ARC
  5
3F0
  8
5
  6
CONTINUOUS
 10
2093.695
 20
1221.843
 30
0.0
 40
166.8297
 50
27.29367
 51
34.08704
  0
ARC
  5
3F1
  8
5
  6
CONTINUOUS
 10
2093.695
 20
1221.843
 30
0.0
 40
166.8297
 50
124.9205
 51
145.913
  0
ARC
  5
3F2
  8
5
  6
CONTINUOUS
 10
2093.695
 20
1221.843
 30
0.0
 40
166.8297
 50
34.08704
 51
55.07946
  0
ARC
  5
3F3
  8
5
  6
CONTINUOUS
 10
2093.695
 20
1221.843
 30
0.0
 40
166.8297
 50
61.93067
 51
68.36828
  0
ARC
  5
3F4
  8
5
  6
CONTINUOUS
 10
2093.695
 20
1221.843
 30
0.0
 40
166.8297
 50
74.52969
 51
80.51213
  0
ARC
  5
3F5
  8
5
  6
CONTINUOUS
 10
2093.695
 20
1221.843
 30
0.0
 40
166.8297
 50
86.39151
 51
93.60849
  0
ARC
  5
3F6
  8
5
  6
CONTINUOUS
 10
2093.695
 20
1221.843
 30
0.0
 40
166.8297
 50
99.48787
 51
105.4703
  0
ARC
  5
3F7
  8
5
  6
CONTINUOUS
 10
2093.695
 20
1221.843
 30
0.0
 40
166.8297
 50
111.6317
 51
118.0693
  0
ARC
  5
3F8
  8
5
  6
CONTINUOUS
 10
2093.695
 20
1221.843
 30
0.0
 40
166.8297
 50
118.0693
 51
124.9205
  0
ARC
  5
3F9
  8
5
  6
CONTINUOUS
 10
2093.695
 20
1221.843
 30
0.0
 40
166.8297
 50
55.07946
 51
61.93067
  0
ARC
  5
3FA
  8
5
  6
CONTINUOUS
 10
2093.695
 20
1221.843
 30
0.0
 40
166.8297
 50
68.36828
 51
74.52969
  0
ARC
  5
3FB
  8
5
  6
CONTINUOUS
 10
2093.695
 20
1221.843
 30
0.0
 40
166.8297
 50
80.51213
 51
86.39151
  0
ARC
  5
3FC
  8
5
  6
CONTINUOUS
 10
2093.695
 20
1221.843
 30
0.0
 40
166.8297
 50
93.60849
 51
99.48787
  0
ARC
  5
3FD
  8
5
  6
CONTINUOUS
 10
2093.695
 20
1221.843
 30
0.0
 40
166.8297
 50
105.4703
 51
111.6317
  0
ARC
  5
3FE
  8
5
  6
CONTINUOUS
 10
2093.695
 20
1221.843
 30
0.0
 40
166.8297
 50
200.8947
 51
207.2937
  0
ARC
  5
3FF
  8
5
  6
CONTINUOUS
 10
2093.695
 20
1221.843
 30
0.0
 40
166.8297
 50
332.7063
 51
339.1053
  0
LINE
  5
400
  8
5
  6
CONTINUOUS
 10
2238.031
 20
1121.743
 30
0.0
 11
2344.695
 21
1121.743
 31
0.0
  0
LINE
  5
401
  8
5
  6
CONTINUOUS
 10
2344.695
 20
1124.743
 30
0.0
 11
2240.066
 21
1124.743
 31
0.0
  0
LINE
  5
402
  8
5
  6
CONTINUOUS
 10
2112.695
 20
1121.743
 30
0.0
 11
2228.436
 21
1121.743
 31
0.0
  0
LINE
  5
403
  8
5
  6
CONTINUOUS
 10
2230.613
 20
1124.743
 30
0.0
 11
2093.695
 21
1124.743
 31
0.0
  0
LINE
  5
404
  8
5
  6
CONTINUOUS
 10
2057.695
 20
1058.943
 30
0.0
 11
2057.695
 21
1106.343
 31
0.0
  0
LINE
  5
405
  8
5
  6
CONTINUOUS
 10
2040.695
 20
1106.343
 30
0.0
 11
2040.695
 21
1063.655
 31
0.0
  0
LINE
  5
406
  8
5
  6
CONTINUOUS
 10
2146.695
 20
1063.655
 30
0.0
 11
2146.695
 21
1106.343
 31
0.0
  0
LINE
  5
407
  8
5
  6
CONTINUOUS
 10
2129.695
 20
1106.343
 30
0.0
 11
2129.695
 21
1058.943
 31
0.0
  0
LINE
  5
408
  8
5
  6
CONTINUOUS
 10
1932.37
 20
1264.343
 30
0.0
 11
2030.348
 21
1264.343
 31
0.0
  0
ARC
  5
409
  8
5
  6
CONTINUOUS
 10
2093.695
 20
1221.843
 30
0.0
 40
76.28278
 50
33.85807
 51
51.25989
  0
LINE
  5
40A
  8
5
  6
CONTINUOUS
 10
2045.958
 20
1281.343
 30
0.0
 11
1937.836
 21
1281.343
 31
0.0
  0
LINE
  5
40B
  8
5
  6
CONTINUOUS
 10
2249.554
 20
1281.343
 30
0.0
 11
2141.432
 21
1281.343
 31
0.0
  0
LINE
  5
40C
  8
5
  6
CONTINUOUS
 10
2157.042
 20
1264.343
 30
0.0
 11
2255.021
 21
1264.343
 31
0.0
  0
LINE
  5
40D
  8
5
  6
CONTINUOUS
 10
1927.082
 20
1230.343
 30
0.0
 11
2017.887
 21
1230.343
 31
0.0
  0
LINE
  5
40E
  8
5
  6
CONTINUOUS
 10
2021.801
 20
1247.342
 30
0.0
 11
1928.826
 21
1247.343
 31
0.0
  0
LINE
  5
40F
  8
5
  6
CONTINUOUS
 10
2258.564
 20
1247.343
 30
0.0
 11
2165.589
 21
1247.342
 31
0.0
  0
LINE
  5
410
  8
5
  6
CONTINUOUS
 10
2169.503
 20
1230.343
 30
0.0
 11
2260.308
 21
1230.343
 31
0.0
  0
LINE
  5
411
  8
5
  6
CONTINUOUS
 10
1928.826
 20
1196.343
 30
0.0
 11
2021.801
 21
1196.343
 31
0.0
  0
LINE
  5
412
  8
5
  6
CONTINUOUS
 10
2017.887
 20
1213.343
 30
0.0
 11
1927.082
 21
1213.343
 31
0.0
  0
LINE
  5
413
  8
5
  6
CONTINUOUS
 10
2260.308
 20
1213.343
 30
0.0
 11
2169.503
 21
1213.343
 31
0.0
  0
LINE
  5
414
  8
5
  6
CONTINUOUS
 10
2165.589
 20
1196.343
 30
0.0
 11
2258.564
 21
1196.343
 31
0.0
  0
LINE
  5
415
  8
5
  6
CONTINUOUS
 10
1937.836
 20
1162.343
 30
0.0
 11
2045.958
 21
1162.343
 31
0.0
  0
LINE
  5
416
  8
5
  6
CONTINUOUS
 10
2030.348
 20
1179.342
 30
0.0
 11
1932.37
 21
1179.342
 31
0.0
  0
LINE
  5
417
  8
5
  6
CONTINUOUS
 10
2255.021
 20
1179.342
 30
0.0
 11
2157.042
 21
1179.342
 31
0.0
  0
LINE
  5
418
  8
5
  6
CONTINUOUS
 10
2141.432
 20
1162.343
 30
0.0
 11
2249.554
 21
1162.343
 31
0.0
  0
LINE
  5
419
  8
5
  6
CONTINUOUS
 10
2241.951
 20
1298.342
 30
0.0
 11
1945.439
 21
1298.343
 31
0.0
  0
LINE
  5
41A
  8
5
  6
CONTINUOUS
 10
2231.861
 20
1315.343
 30
0.0
 11
2189.195
 21
1315.342
 31
0.0
  0
LINE
  5
41B
  8
5
  6
CONTINUOUS
 10
2189.195
 20
1315.342
 30
0.0
 11
2172.195
 21
1315.342
 31
0.0
  0
LINE
  5
41C
  8
5
  6
CONTINUOUS
 10
2172.195
 20
1315.342
 30
0.0
 11
2155.195
 21
1315.342
 31
0.0
  0
LINE
  5
41D
  8
5
  6
CONTINUOUS
 10
2155.195
 20
1315.342
 30
0.0
 11
2138.195
 21
1315.342
 31
0.0
  0
LINE
  5
41E
  8
5
  6
CONTINUOUS
 10
2138.195
 20
1315.342
 30
0.0
 11
2121.195
 21
1315.342
 31
0.0
  0
LINE
  5
41F
  8
5
  6
CONTINUOUS
 10
2121.195
 20
1315.342
 30
0.0
 11
2104.195
 21
1315.342
 31
0.0
  0
LINE
  5
420
  8
5
  6
CONTINUOUS
 10
2104.195
 20
1315.342
 30
0.0
 11
2083.195
 21
1315.342
 31
0.0
  0
LINE
  5
421
  8
5
  6
CONTINUOUS
 10
2083.195
 20
1315.342
 30
0.0
 11
2066.195
 21
1315.342
 31
0.0
  0
LINE
  5
422
  8
5
  6
CONTINUOUS
 10
2066.195
 20
1315.342
 30
0.0
 11
2049.195
 21
1315.342
 31
0.0
  0
LINE
  5
423
  8
5
  6
CONTINUOUS
 10
2049.195
 20
1315.342
 30
0.0
 11
2032.195
 21
1315.342
 31
0.0
  0
LINE
  5
424
  8
5
  6
CONTINUOUS
 10
2032.195
 20
1315.342
 30
0.0
 11
2015.195
 21
1315.342
 31
0.0
  0
LINE
  5
425
  8
5
  6
CONTINUOUS
 10
2015.195
 20
1315.342
 30
0.0
 11
1998.195
 21
1315.342
 31
0.0
  0
LINE
  5
426
  8
5
  6
CONTINUOUS
 10
1998.195
 20
1315.342
 30
0.0
 11
1955.529
 21
1315.343
 31
0.0
  0
LINE
  5
427
  8
5
  6
CONTINUOUS
 10
1998.195
 20
1315.342
 30
0.0
 11
1998.195
 21
1358.634
 31
0.0
  0
LINE
  5
428
  8
5
  6
CONTINUOUS
 10
2189.195
 20
1358.634
 30
0.0
 11
2189.195
 21
1315.342
 31
0.0
  0
LINE
  5
429
  8
5
  6
CONTINUOUS
 10
2155.195
 20
1376.923
 30
0.0
 11
2155.195
 21
1315.342
 31
0.0
  0
LINE
  5
42A
  8
5
  6
CONTINUOUS
 10
2172.195
 20
1315.342
 30
0.0
 11
2172.195
 21
1369.05
 31
0.0
  0
LINE
  5
42B
  8
5
  6
CONTINUOUS
 10
2121.195
 20
1386.39
 30
0.0
 11
2121.195
 21
1315.342
 31
0.0
  0
LINE
  5
42C
  8
5
  6
CONTINUOUS
 10
2138.195
 20
1315.342
 30
0.0
 11
2138.195
 21
1382.628
 31
0.0
  0
LINE
  5
42D
  8
5
  6
CONTINUOUS
 10
2083.195
 20
1388.341
 30
0.0
 11
2083.195
 21
1315.342
 31
0.0
  0
LINE
  5
42E
  8
5
  6
CONTINUOUS
 10
2104.195
 20
1315.342
 30
0.0
 11
2104.195
 21
1388.342
 31
0.0
  0
LINE
  5
42F
  8
5
  6
CONTINUOUS
 10
2049.195
 20
1382.628
 30
0.0
 11
2049.195
 21
1315.342
 31
0.0
  0
LINE
  5
430
  8
5
  6
CONTINUOUS
 10
2066.195
 20
1315.342
 30
0.0
 11
2066.195
 21
1386.39
 31
0.0
  0
LINE
  5
431
  8
5
  6
CONTINUOUS
 10
2015.195
 20
1369.05
 30
0.0
 11
2015.195
 21
1315.342
 31
0.0
  0
LINE
  5
432
  8
5
  6
CONTINUOUS
 10
2032.195
 20
1315.342
 30
0.0
 11
2032.195
 21
1376.923
 31
0.0
  0
LINE
  5
433
  8
5
  6
CONTINUOUS
 10
2067.695
 20
1145.343
 30
0.0
 11
1945.439
 21
1145.343
 31
0.0
  0
LINE
  5
434
  8
5
  6
CONTINUOUS
 10
2241.951
 20
1145.343
 30
0.0
 11
2119.695
 21
1145.343
 31
0.0
  0
ARC
  5
435
  8
5
  6
CONTINUOUS
 10
2093.695
 20
1221.843
 30
0.0
 40
76.28278
 50
231.2599
 51
250.0721
  0
LINE
  5
436
  8
5
  6
CONTINUOUS
 10
1080.155
 20
562.9877
 30
0.0
 11
1077.474
 21
593.9086
 31
0.0
  0
LINE
  5
437
  8
5
  6
CONTINUOUS
 10
1077.474
 20
593.9086
 30
0.0
 11
1060.358
 21
606.7809
 31
0.0
  0
LINE
  5
438
  8
5
  6
CONTINUOUS
 10
1060.358
 20
606.7809
 30
0.0
 11
1001.358
 21
606.7809
 31
0.0
  0
LINE
  5
439
  8
5
  6
CONTINUOUS
 10
1001.358
 20
606.7809
 30
0.0
 11
984.2417
 21
593.9086
 31
0.0
  0
ARC
  5
43A
  8
5
  6
CONTINUOUS
 10
2093.695
 20
1221.843
 30
0.0
 40
70.71259
 50
248.427
 51
291.573
  0
LINE
  5
43B
  8
5
  6
CONTINUOUS
 10
981.5608
 20
562.9877
 30
0.0
 11
984.2417
 21
593.9086
 31
0.0
  0
CIRCLE
  5
43C
  8
5
  6
CONTINUOUS
 10
2093.695
 20
1221.843
 30
0.0
 40
65.0
  0
ARC
  5
43D
  8
5
  6
CONTINUOUS
 10
2093.695
 20
1221.843
 30
0.0
 40
76.0
 50
290.0052
 51
249.9948
  0
LINE
  5
43E
  8
5
  6
CONTINUOUS
 10
1012.858
 20
562.9878
 30
0.0
 11
1012.858
 21
576.1345
 31
0.0
  0
LINE
  5
43F
  8
5
  6
CONTINUOUS
 10
1012.858
 20
576.1345
 30
0.0
 11
1020.858
 21
582.5864
 31
0.0
  0
LINE
  5
440
  8
5
  6
CONTINUOUS
 10
1020.858
 20
582.5864
 30
0.0
 11
1040.858
 21
582.5864
 31
0.0
  0
LINE
  5
441
  8
5
  6
CONTINUOUS
 10
1040.858
 20
582.5864
 30
0.0
 11
1048.858
 21
576.1345
 31
0.0
  0
LINE
  5
442
  8
5
  6
CONTINUOUS
 10
1048.858
 20
576.1345
 30
0.0
 11
1048.858
 21
562.9878
 31
0.0
  0
LINE
  5
443
  8
5
  6
CONTINUOUS
 10
1961.595
 20
1440.842
 30
0.0
 11
1961.595
 21
1444.692
 31
0.0
  0
LINE
  5
444
  8
5
  6
CONTINUOUS
 10
1961.595
 20
1440.842
 30
0.0
 11
1957.712
 21
1440.843
 31
0.0
  0
LINE
  5
445
  8
5
  6
CONTINUOUS
 10
2225.995
 20
1440.842
 30
0.0
 11
2214.882
 21
1440.843
 31
0.0
  0
LINE
  5
446
  8
5
  6
CONTINUOUS
 10
984.2417
 20
615.9863
 30
0.0
 11
981.1077
 21
592.1965
 31
0.0
  0
LINE
  5
447
  8
5
  6
CONTINUOUS
 10
984.2417
 20
615.9863
 30
0.0
 11
1001.358
 21
624.4585
 31
0.0
  0
LINE
  5
448
  8
5
  6
CONTINUOUS
 10
1001.358
 20
624.4585
 30
0.0
 11
1060.358
 21
624.4585
 31
0.0
  0
LINE
  5
449
  8
5
  6
CONTINUOUS
 10
1060.358
 20
624.4585
 30
0.0
 11
1077.474
 21
615.9863
 31
0.0
  0
LINE
  5
44A
  8
5
  6
CONTINUOUS
 10
1077.474
 20
615.9863
 30
0.0
 11
1080.608
 21
592.1965
 31
0.0
  0
LINE
  5
44B
  8
5
  6
CONTINUOUS
 10
2225.995
 20
1440.842
 30
0.0
 11
2225.995
 21
1444.493
 31
0.0
  0
LINE
  5
44C
  8
5
  6
CONTINUOUS
 10
984.2417
 20
593.9086
 30
0.0
 11
984.2417
 21
615.9863
 31
0.0
  0
LINE
  5
44D
  8
5
  6
CONTINUOUS
 10
979.6852
 20
563.4278
 30
0.0
 11
981.1077
 21
592.1965
 31
0.0
  0
LINE
  5
44E
  8
5
  6
CONTINUOUS
 10
1972.508
 20
1440.843
 30
0.0
 11
1961.595
 21
1440.842
 31
0.0
  0
LINE
  5
44F
  8
5
  6
CONTINUOUS
 10
1080.608
 20
592.1965
 30
0.0
 11
1082.03
 21
563.4278
 31
0.0
  0
LINE
  5
450
  8
5
  6
CONTINUOUS
 10
1077.474
 20
615.9863
 30
0.0
 11
1077.474
 21
593.9086
 31
0.0
  0
LINE
  5
451
  8
5
  6
CONTINUOUS
 10
1060.358
 20
606.7809
 30
0.0
 11
1060.358
 21
624.4585
 31
0.0
  0
LINE
  5
452
  8
5
  6
CONTINUOUS
 10
1001.358
 20
624.4585
 30
0.0
 11
1001.358
 21
606.7809
 31
0.0
  0
LINE
  5
453
  8
5
  6
CONTINUOUS
 10
2229.678
 20
1440.843
 30
0.0
 11
2225.995
 21
1440.842
 31
0.0
  0
LINE
  5
454
  8
5
  6
CONTINUOUS
 10
1871.095
 20
1354.043
 30
0.0
 11
1870.994
 21
1354.043
 31
0.0
  0
LINE
  5
455
  8
5
  6
CONTINUOUS
 10
1853.695
 20
1336.542
 30
0.0
 11
1888.595
 21
1336.542
 31
0.0
  0
LINE
  5
457
  8
5
  6
CONTINUOUS
 10
1871.095
 20
1089.642
 30
0.0
 11
1870.995
 21
1089.642
 31
0.0
  0
LINE
  5
458
  8
5
  6
CONTINUOUS
 10
1871.095
 20
1089.642
 30
0.0
 11
1871.044
 21
1089.592
 31
0.0
  0
LINE
  5
459
  8
5
  6
CONTINUOUS
 10
1871.044
 20
1354.093
 30
0.0
 11
1871.095
 21
1354.043
 31
0.0
  0
LINE
  5
45A
  8
5
  6
CONTINUOUS
 10
1888.595
 20
1107.143
 30
0.0
 11
1853.695
 21
1107.143
 31
0.0
  0
LINE
  5
45C
  8
5
  6
CONTINUOUS
 10
1874.695
 20
1221.842
 30
0.0
 11
1853.695
 21
1221.842
 31
0.0
  0
LINE
  5
45D
  8
5
  6
CONTINUOUS
 10
1853.695
 20
1204.542
 30
0.0
 11
1875.379
 21
1204.542
 31
0.0
  0
LINE
  5
45E
  8
5
  6
CONTINUOUS
 10
1877.43
 20
1256.342
 30
0.0
 11
1853.695
 21
1256.342
 31
0.0
  0
LINE
  5
45F
  8
5
  6
CONTINUOUS
 10
1853.695
 20
1239.143
 30
0.0
 11
1875.379
 21
1239.143
 31
0.0
  0
LINE
  5
460
  8
5
  6
CONTINUOUS
 10
1884.378
 20
1286.243
 30
0.0
 11
1853.695
 21
1286.243
 31
0.0
  0
LINE
  5
461
  8
5
  6
CONTINUOUS
 10
1259.358
 20
535.5877
 30
0.0
 11
1406.555
 21
535.5877
 31
0.0
  0
LINE
  5
462
  8
5
  6
CONTINUOUS
 10
1406.577
 20
535.763
 30
0.0
 11
1406.555
 21
535.5877
 31
0.0
  0
LINE
  5
463
  8
5
  6
CONTINUOUS
 10
1404.371
 20
552.9877
 30
0.0
 11
1259.358
 21
552.9877
 31
0.0
  0
LINE
  5
464
  8
5
  6
CONTINUOUS
 10
1853.695
 20
1271.343
 30
0.0
 11
1880.363
 21
1271.343
 31
0.0
  0
LINE
  5
465
  8
5
  6
CONTINUOUS
 10
1853.695
 20
1301.242
 30
0.0
 11
1889.596
 21
1301.242
 31
0.0
  0
LINE
  5
466
  8
5
  6
CONTINUOUS
 10
1279.358
 20
518.2878
 30
0.0
 11
1259.358
 21
534.582
 31
0.0
  0
LINE
  5
467
  8
5
  6
CONTINUOUS
 10
1404.358
 20
518.2878
 30
0.0
 11
1279.358
 21
518.2878
 31
0.0
  0
LINE
  5
468
  8
5
  6
CONTINUOUS
 10
1406.555
 20
535.5877
 30
0.0
 11
1404.358
 21
518.2878
 31
0.0
  0
LINE
  5
469
  8
5
  6
CONTINUOUS
 10
1404.371
 20
288.5877
 30
0.0
 11
1279.235
 21
288.5877
 31
0.0
  0
LINE
  5
46A
  8
5
  6
CONTINUOUS
 10
1259.358
 20
272.3934
 30
0.0
 11
1279.235
 21
288.5877
 31
0.0
  0
LINE
  5
46B
  8
5
  6
CONTINUOUS
 10
1259.358
 20
271.1877
 30
0.0
 11
1406.574
 21
271.1877
 31
0.0
  0
LINE
  5
46C
  8
5
  6
CONTINUOUS
 10
1404.371
 20
288.5877
 30
0.0
 11
1406.577
 21
271.2124
 31
0.0
  0
LINE
  5
46D
  8
5
  6
CONTINUOUS
 10
1404.358
 20
288.6878
 30
0.0
 11
1404.371
 21
288.5877
 31
0.0
  0
LINE
  5
46E
  8
5
  6
CONTINUOUS
 10
1279.358
 20
288.6878
 30
0.0
 11
1404.358
 21
288.6878
 31
0.0
  0
LINE
  5
46F
  8
5
  6
CONTINUOUS
 10
1279.235
 20
288.5877
 30
0.0
 11
1279.358
 21
288.6878
 31
0.0
  0
LINE
  5
470
  8
5
  6
CONTINUOUS
 10
1877.43
 20
1187.343
 30
0.0
 11
1853.695
 21
1187.343
 31
0.0
  0
LINE
  5
471
  8
5
  6
CONTINUOUS
 10
1406.555
 20
535.5877
 30
0.0
 11
1406.6
 21
535.5877
 31
0.0
  0
LINE
  5
472
  8
5
  6
CONTINUOUS
 10
1408.803
 20
288.5877
 30
0.0
 11
1404.371
 21
288.5877
 31
0.0
  0
LINE
  5
473
  8
5
  6
CONTINUOUS
 10
1404.358
 20
518.0877
 30
0.0
 11
1408.842
 21
518.0877
 31
0.0
  0
LINE
  5
474
  8
5
  6
CONTINUOUS
 10
1404.358
 20
518.0877
 30
0.0
 11
1404.358
 21
518.2878
 31
0.0
  0
LINE
  5
475
  8
5
  6
CONTINUOUS
 10
1408.962
 20
323.9877
 30
0.0
 11
1404.358
 21
323.9877
 31
0.0
  0
LINE
  5
476
  8
5
  6
CONTINUOUS
 10
1404.358
 20
306.9877
 30
0.0
 11
1404.358
 21
323.9877
 31
0.0
  0
LINE
  5
477
  8
5
  6
CONTINUOUS
 10
1404.358
 20
306.9877
 30
0.0
 11
1409.918
 21
306.9877
 31
0.0
  0
LINE
  5
478
  8
5
  6
CONTINUOUS
 10
1407.774
 20
353.9877
 30
0.0
 11
1404.358
 21
353.9877
 31
0.0
  0
LINE
  5
479
  8
5
  6
CONTINUOUS
 10
1404.358
 20
338.9876
 30
0.0
 11
1404.358
 21
353.9877
 31
0.0
  0
LINE
  5
47A
  8
5
  6
CONTINUOUS
 10
1404.358
 20
338.9876
 30
0.0
 11
1408.293
 21
338.9876
 31
0.0
  0
LINE
  5
47B
  8
5
  6
CONTINUOUS
 10
1407.137
 20
386.0877
 30
0.0
 11
1404.358
 21
386.0877
 31
0.0
  0
LINE
  5
47C
  8
5
  6
CONTINUOUS
 10
1404.358
 20
368.8878
 30
0.0
 11
1404.358
 21
386.0877
 31
0.0
  0
LINE
  5
47D
  8
5
  6
CONTINUOUS
 10
1404.358
 20
368.8878
 30
0.0
 11
1407.4
 21
368.8878
 31
0.0
  0
LINE
  5
47E
  8
5
  6
CONTINUOUS
 10
1407.135
 20
420.6878
 30
0.0
 11
1404.358
 21
420.6878
 31
0.0
  0
LINE
  5
47F
  8
5
  6
CONTINUOUS
 10
1404.358
 20
403.3876
 30
0.0
 11
1404.358
 21
420.6878
 31
0.0
  0
LINE
  5
480
  8
5
  6
CONTINUOUS
 10
1404.358
 20
403.3876
 30
0.0
 11
1407.048
 21
403.3876
 31
0.0
  0
LINE
  5
481
  8
5
  6
CONTINUOUS
 10
1407.768
 20
452.7877
 30
0.0
 11
1404.358
 21
452.7877
 31
0.0
  0
LINE
  5
482
  8
5
  6
CONTINUOUS
 10
1404.358
 20
437.8876
 30
0.0
 11
1404.358
 21
452.7877
 31
0.0
  0
LINE
  5
483
  8
5
  6
CONTINUOUS
 10
1404.358
 20
437.8876
 30
0.0
 11
1407.396
 21
437.8876
 31
0.0
  0
LINE
  5
484
  8
5
  6
CONTINUOUS
 10
1408.952
 20
482.7877
 30
0.0
 11
1404.358
 21
482.7877
 31
0.0
  0
LINE
  5
485
  8
5
  6
CONTINUOUS
 10
1404.358
 20
467.7876
 30
0.0
 11
1404.358
 21
482.7877
 31
0.0
  0
LINE
  5
486
  8
5
  6
CONTINUOUS
 10
1404.358
 20
467.7876
 30
0.0
 11
1408.285
 21
467.7876
 31
0.0
  0
LINE
  5
487
  8
5
  6
CONTINUOUS
 10
1404.358
 20
499.7877
 30
0.0
 11
1404.358
 21
518.0877
 31
0.0
  0
LINE
  5
488
  8
5
  6
CONTINUOUS
 10
1404.358
 20
499.7877
 30
0.0
 11
1409.906
 21
499.7877
 31
0.0
  0
LINE
  5
489
  8
5
  6
CONTINUOUS
 10
1404.358
 20
288.6878
 30
0.0
 11
1404.358
 21
306.9877
 31
0.0
  0
LINE
  5
48A
  8
5
  6
CONTINUOUS
 10
1404.358
 20
323.9877
 30
0.0
 11
1404.358
 21
338.9876
 31
0.0
  0
LINE
  5
48B
  8
5
  6
CONTINUOUS
 10
1404.358
 20
353.9877
 30
0.0
 11
1404.358
 21
368.8878
 31
0.0
  0
LINE
  5
48C
  8
5
  6
CONTINUOUS
 10
1404.358
 20
386.0877
 30
0.0
 11
1404.358
 21
403.3876
 31
0.0
  0
LINE
  5
48D
  8
5
  6
CONTINUOUS
 10
1404.358
 20
420.6878
 30
0.0
 11
1404.358
 21
437.8876
 31
0.0
  0
LINE
  5
48E
  8
5
  6
CONTINUOUS
 10
1404.358
 20
452.7877
 30
0.0
 11
1404.358
 21
467.7876
 31
0.0
  0
LINE
  5
48F
  8
5
  6
CONTINUOUS
 10
1404.358
 20
482.7877
 30
0.0
 11
1404.358
 21
499.7877
 31
0.0
  0
LINE
  5
490
  8
5
  6
CONTINUOUS
 10
1259.358
 20
306.9877
 30
0.0
 11
1279.358
 21
306.9877
 31
0.0
  0
LINE
  5
491
  8
5
  6
CONTINUOUS
 10
1279.358
 20
323.9877
 30
0.0
 11
1279.358
 21
306.9877
 31
0.0
  0
LINE
  5
492
  8
5
  6
CONTINUOUS
 10
1279.358
 20
323.9877
 30
0.0
 11
1259.358
 21
323.9877
 31
0.0
  0
LINE
  5
493
  8
5
  6
CONTINUOUS
 10
1259.358
 20
338.9877
 30
0.0
 11
1279.358
 21
338.9876
 31
0.0
  0
LINE
  5
494
  8
5
  6
CONTINUOUS
 10
1279.358
 20
353.9877
 30
0.0
 11
1279.358
 21
338.9876
 31
0.0
  0
LINE
  5
495
  8
5
  6
CONTINUOUS
 10
1279.358
 20
353.9877
 30
0.0
 11
1259.358
 21
353.9877
 31
0.0
  0
LINE
  5
496
  8
5
  6
CONTINUOUS
 10
1259.358
 20
368.8877
 30
0.0
 11
1279.358
 21
368.8878
 31
0.0
  0
LINE
  5
497
  8
5
  6
CONTINUOUS
 10
1279.358
 20
386.0877
 30
0.0
 11
1279.358
 21
368.8878
 31
0.0
  0
LINE
  5
498
  8
5
  6
CONTINUOUS
 10
1279.358
 20
386.0877
 30
0.0
 11
1259.358
 21
386.0877
 31
0.0
  0
LINE
  5
499
  8
5
  6
CONTINUOUS
 10
1279.358
 20
452.7877
 30
0.0
 11
1259.358
 21
452.7877
 31
0.0
  0
LINE
  5
49A
  8
5
  6
CONTINUOUS
 10
1259.358
 20
437.8877
 30
0.0
 11
1279.358
 21
437.8876
 31
0.0
  0
LINE
  5
49B
  8
5
  6
CONTINUOUS
 10
1279.358
 20
452.7877
 30
0.0
 11
1279.358
 21
437.8876
 31
0.0
  0
LINE
  5
49C
  8
5
  6
CONTINUOUS
 10
1279.358
 20
482.7877
 30
0.0
 11
1259.358
 21
482.7877
 31
0.0
  0
LINE
  5
49D
  8
5
  6
CONTINUOUS
 10
1259.358
 20
467.7877
 30
0.0
 11
1279.358
 21
467.7876
 31
0.0
  0
LINE
  5
49E
  8
5
  6
CONTINUOUS
 10
1279.358
 20
482.7877
 30
0.0
 11
1279.358
 21
467.7876
 31
0.0
  0
LINE
  5
49F
  8
5
  6
CONTINUOUS
 10
1279.358
 20
518.0877
 30
0.0
 11
1259.358
 21
518.0877
 31
0.0
  0
LINE
  5
4A0
  8
5
  6
CONTINUOUS
 10
1259.358
 20
499.7877
 30
0.0
 11
1279.358
 21
499.7877
 31
0.0
  0
LINE
  5
4A1
  8
5
  6
CONTINUOUS
 10
1279.358
 20
518.0877
 30
0.0
 11
1279.358
 21
499.7877
 31
0.0
  0
LINE
  5
4A2
  8
5
  6
CONTINUOUS
 10
1279.235
 20
288.5877
 30
0.0
 11
1259.358
 21
288.5877
 31
0.0
  0
LINE
  5
4A3
  8
5
  6
CONTINUOUS
 10
1279.358
 20
306.9877
 30
0.0
 11
1279.358
 21
288.6878
 31
0.0
  0
LINE
  5
4A4
  8
5
  6
CONTINUOUS
 10
1279.358
 20
338.9876
 30
0.0
 11
1279.358
 21
323.9877
 31
0.0
  0
LINE
  5
4A5
  8
5
  6
CONTINUOUS
 10
1279.358
 20
368.8878
 30
0.0
 11
1279.358
 21
353.9877
 31
0.0
  0
LINE
  5
4A6
  8
5
  6
CONTINUOUS
 10
1279.358
 20
403.3876
 30
0.0
 11
1279.358
 21
386.0877
 31
0.0
  0
LINE
  5
4A7
  8
5
  6
CONTINUOUS
 10
1279.358
 20
403.3876
 30
0.0
 11
1259.358
 21
403.3877
 31
0.0
  0
LINE
  5
4A8
  8
5
  6
CONTINUOUS
 10
1259.358
 20
420.6877
 30
0.0
 11
1279.358
 21
420.6878
 31
0.0
  0
LINE
  5
4A9
  8
5
  6
CONTINUOUS
 10
1279.358
 20
437.8876
 30
0.0
 11
1279.358
 21
420.6878
 31
0.0
  0
LINE
  5
4AA
  8
5
  6
CONTINUOUS
 10
1279.358
 20
467.7876
 30
0.0
 11
1279.358
 21
452.7877
 31
0.0
  0
LINE
  5
4AB
  8
5
  6
CONTINUOUS
 10
1279.358
 20
499.7877
 30
0.0
 11
1279.358
 21
482.7877
 31
0.0
  0
LINE
  5
4AC
  8
5
  6
CONTINUOUS
 10
1279.358
 20
518.2878
 30
0.0
 11
1279.358
 21
518.0877
 31
0.0
  0
LINE
  5
4AD
  8
5
  6
CONTINUOUS
 10
1279.358
 20
420.6878
 30
0.0
 11
1279.358
 21
403.3876
 31
0.0
  0
LINE
  5
4AE
  8
5
  6
CONTINUOUS
 10
1404.358
 20
518.0877
 30
0.0
 11
1279.358
 21
518.0877
 31
0.0
  0
LINE
  5
4AF
  8
5
  6
CONTINUOUS
 10
1279.358
 20
499.7877
 30
0.0
 11
1404.358
 21
499.7877
 31
0.0
  0
LINE
  5
4B0
  8
5
  6
CONTINUOUS
 10
1279.358
 20
467.7876
 30
0.0
 11
1404.358
 21
467.7876
 31
0.0
  0
LINE
  5
4B1
  8
5
  6
CONTINUOUS
 10
1404.358
 20
482.7877
 30
0.0
 11
1279.358
 21
482.7877
 31
0.0
  0
LINE
  5
4B2
  8
5
  6
CONTINUOUS
 10
1279.358
 20
437.8876
 30
0.0
 11
1404.358
 21
437.8876
 31
0.0
  0
LINE
  5
4B3
  8
5
  6
CONTINUOUS
 10
1404.358
 20
452.7877
 30
0.0
 11
1279.358
 21
452.7877
 31
0.0
  0
LINE
  5
4B5
  8
5
  6
CONTINUOUS
 10
1404.358
 20
420.6878
 30
0.0
 11
1279.358
 21
420.6878
 31
0.0
  0
LINE
  5
4B6
  8
5
  6
CONTINUOUS
 10
1404.358
 20
386.0877
 30
0.0
 11
1279.358
 21
386.0877
 31
0.0
  0
LINE
  5
4B7
  8
5
  6
CONTINUOUS
 10
1279.358
 20
368.8878
 30
0.0
 11
1404.358
 21
368.8878
 31
0.0
  0
LINE
  5
4B8
  8
5
  6
CONTINUOUS
 10
1404.358
 20
353.9877
 30
0.0
 11
1279.358
 21
353.9877
 31
0.0
  0
LINE
  5
4B9
  8
5
  6
CONTINUOUS
 10
1279.358
 20
338.9876
 30
0.0
 11
1404.358
 21
338.9876
 31
0.0
  0
LINE
  5
4BA
  8
5
  6
CONTINUOUS
 10
1404.358
 20
323.9877
 30
0.0
 11
1279.358
 21
323.9877
 31
0.0
  0
LINE
  5
4BB
  8
5
  6
CONTINUOUS
 10
1279.358
 20
306.9877
 30
0.0
 11
1404.358
 21
306.9877
 31
0.0
  0
LINE
  5
4BC
  8
5
  6
CONTINUOUS
 10
966.1418
 20
626.1883
 30
0.0
 11
1406.574
 21
626.1883
 31
0.0
  0
LINE
  5
4BD
  8
5
  6
CONTINUOUS
 10
968.3579
 20
608.9877
 30
0.0
 11
966.1354
 21
626.1383
 31
0.0
  0
LINE
  5
4BE
  8
5
  6
CONTINUOUS
 10
1404.358
 20
608.9877
 30
0.0
 11
1078.396
 21
608.9877
 31
0.0
  0
LINE
  5
4BF
  8
5
  6
CONTINUOUS
 10
983.3198
 20
608.9877
 30
0.0
 11
968.3579
 21
608.9877
 31
0.0
  0
LINE
  5
4C0
  8
5
  6
CONTINUOUS
 10
1406.58
 20
626.1383
 30
0.0
 11
1404.358
 21
608.9877
 31
0.0
  0
LINE
  5
4C1
  8
5
  6
CONTINUOUS
 10
1406.574
 20
180.7871
 30
0.0
 11
966.1418
 21
180.7871
 31
0.0
  0
LINE
  5
4C2
  8
5
  6
CONTINUOUS
 10
1404.358
 20
197.9876
 30
0.0
 11
1406.58
 21
180.8371
 31
0.0
  0
LINE
  5
4C3
  8
5
  6
CONTINUOUS
 10
968.3579
 20
197.9876
 30
0.0
 11
1289.32
 21
197.9877
 31
0.0
  0
LINE
  5
4C4
  8
5
  6
CONTINUOUS
 10
1384.396
 20
197.9877
 30
0.0
 11
1404.358
 21
197.9876
 31
0.0
  0
LINE
  5
4C5
  8
5
  6
CONTINUOUS
 10
966.1354
 20
180.8371
 30
0.0
 11
968.3579
 21
197.9876
 31
0.0
  0
LINE
  5
4C6
  8
5
  6
CONTINUOUS
 10
1287.108
 20
214.7789
 30
0.0
 11
1285.685
 21
243.5475
 31
0.0
  0
LINE
  5
4C7
  8
5
  6
CONTINUOUS
 10
1285.685
 20
243.5475
 30
0.0
 11
1259.358
 21
243.5476
 31
0.0
  0
LINE
  5
4C8
  8
5
  6
CONTINUOUS
 10
968.3579
 20
240.9877
 30
0.0
 11
968.3579
 21
197.9876
 31
0.0
  0
LINE
  5
4C9
  8
5
  6
CONTINUOUS
 10
1404.358
 20
197.9876
 30
0.0
 11
1404.358
 21
243.5475
 31
0.0
  0
LINE
  5
4CA
  8
5
  6
CONTINUOUS
 10
1404.358
 20
243.5475
 30
0.0
 11
1388.031
 21
243.5475
 31
0.0
  0
LINE
  5
4CB
  8
5
  6
CONTINUOUS
 10
1388.031
 20
243.5475
 30
0.0
 11
1386.608
 21
214.7789
 31
0.0
  0
LINE
  5
4CC
  8
5
  6
CONTINUOUS
 10
1354.858
 20
243.5475
 30
0.0
 11
1318.858
 21
243.5475
 31
0.0
  0
LINE
  5
4CD
  8
5
  6
CONTINUOUS
 10
1082.03
 20
563.4278
 30
0.0
 11
1404.358
 21
563.4278
 31
0.0
  0
LINE
  5
4CE
  8
5
  6
CONTINUOUS
 10
1404.358
 20
563.4278
 30
0.0
 11
1404.358
 21
608.9877
 31
0.0
  0
LINE
  5
4CF
  8
5
  6
CONTINUOUS
 10
968.3579
 20
608.9877
 30
0.0
 11
968.3579
 21
563.4278
 31
0.0
  0
LINE
  5
4D0
  8
5
  6
CONTINUOUS
 10
968.3579
 20
563.4278
 30
0.0
 11
979.6852
 21
563.4278
 31
0.0
  0
LINE
  5
4D1
  8
5
  6
CONTINUOUS
 10
1012.858
 20
563.4278
 30
0.0
 11
1048.858
 21
563.4278
 31
0.0
  0
LINE
  5
4D2
  8
5
  6
CONTINUOUS
 10
1406.587
 20
228.8905
 30
0.0
 11
1406.587
 21
180.8877
 31
0.0
  0
LINE
  5
4D3
  8
5
  6
CONTINUOUS
 10
1408.829
 20
198.3877
 30
0.0
 11
1408.829
 21
216.9269
 31
0.0
  0
LINE
  5
4D4
  8
5
  6
CONTINUOUS
 10
1408.829
 20
590.0484
 30
0.0
 11
1408.829
 21
608.5877
 31
0.0
  0
LINE
  5
4D5
  8
5
  6
CONTINUOUS
 10
1406.587
 20
626.0877
 30
0.0
 11
1406.587
 21
578.0849
 31
0.0
  0
LINE
  5
4D6
  8
5
  6
CONTINUOUS
 10
963.8872
 20
216.9269
 30
0.0
 11
963.8872
 21
198.3877
 31
0.0
  0
LINE
  5
4D7
  8
5
  6
CONTINUOUS
 10
966.1289
 20
180.8877
 30
0.0
 11
966.1289
 21
228.8905
 31
0.0
  0
LINE
  5
4D8
  8
5
  6
CONTINUOUS
 10
966.1289
 20
578.0849
 30
0.0
 11
966.1289
 21
626.0877
 31
0.0
  0
LINE
  5
4D9
  8
5
  6
CONTINUOUS
 10
963.8871
 20
608.5877
 30
0.0
 11
963.8872
 21
590.0484
 31
0.0
  0
LINE
  5
4DA
  8
5
  6
CONTINUOUS
 10
1307.358
 20
182.5169
 30
0.0
 11
1290.242
 21
190.989
 31
0.0
  0
LINE
  5
4DB
  8
5
  6
CONTINUOUS
 10
1307.358
 20
200.1944
 30
0.0
 11
1307.358
 21
182.5169
 31
0.0
  0
LINE
  5
4DC
  8
5
  6
CONTINUOUS
 10
1290.242
 20
213.0667
 30
0.0
 11
1307.358
 21
200.1944
 31
0.0
  0
LINE
  5
4DD
  8
5
  6
CONTINUOUS
 10
1290.242
 20
190.989
 30
0.0
 11
1290.242
 21
213.0667
 31
0.0
  0
LINE
  5
4DE
  8
5
  6
CONTINUOUS
 10
1366.358
 20
200.1944
 30
0.0
 11
1383.474
 21
213.0667
 31
0.0
  0
LINE
  5
4DF
  8
5
  6
CONTINUOUS
 10
1366.358
 20
182.5169
 30
0.0
 11
1366.358
 21
200.1944
 31
0.0
  0
LINE
  5
4E0
  8
5
  6
CONTINUOUS
 10
1383.474
 20
190.989
 30
0.0
 11
1366.358
 21
182.5169
 31
0.0
  0
LINE
  5
4E1
  8
5
  6
CONTINUOUS
 10
1383.474
 20
213.0667
 30
0.0
 11
1383.474
 21
190.989
 31
0.0
  0
LINE
  5
4E2
  8
5
  6
CONTINUOUS
 10
1326.858
 20
224.389
 30
0.0
 11
1318.858
 21
230.8408
 31
0.0
  0
LINE
  5
4E3
  8
5
  6
CONTINUOUS
 10
1354.858
 20
230.8408
 30
0.0
 11
1346.858
 21
224.389
 31
0.0
  0
LINE
  5
4E4
  8
5
  6
CONTINUOUS
 10
1346.858
 20
224.389
 30
0.0
 11
1326.858
 21
224.389
 31
0.0
  0
LINE
  5
4E5
  8
5
  6
CONTINUOUS
 10
1366.358
 20
182.5169
 30
0.0
 11
1307.358
 21
182.5169
 31
0.0
  0
LINE
  5
4E6
  8
5
  6
CONTINUOUS
 10
1307.358
 20
200.1944
 30
0.0
 11
1366.358
 21
200.1944
 31
0.0
  0
LINE
  5
4E7
  8
5
  6
CONTINUOUS
 10
1853.695
 20
1172.443
 30
0.0
 11
1880.339
 21
1172.443
 31
0.0
  0
LINE
  5
4E8
  8
5
  6
CONTINUOUS
 10
1884.378
 20
1157.442
 30
0.0
 11
1853.695
 21
1157.442
 31
0.0
  0
LINE
  5
4E9
  8
5
  6
CONTINUOUS
 10
1853.695
 20
1142.443
 30
0.0
 11
1889.596
 21
1142.443
 31
0.0
  0
LINE
  5
4EB
  8
5
  6
CONTINUOUS
 10
1290.242
 20
190.989
 30
0.0
 11
1287.108
 21
214.7789
 31
0.0
  0
LINE
  5
4EC
  8
5
  6
CONTINUOUS
 10
1286.702
 20
253.8878
 30
0.0
 11
1290.242
 21
213.0667
 31
0.0
  0
LINE
  5
4ED
  8
5
  6
CONTINUOUS
 10
1387.013
 20
253.8878
 30
0.0
 11
1383.474
 21
213.0667
 31
0.0
  0
LINE
  5
4EE
  8
5
  6
CONTINUOUS
 10
1383.474
 20
190.989
 30
0.0
 11
1386.608
 21
214.7789
 31
0.0
  0
LINE
  5
4EF
  8
5
  6
CONTINUOUS
 10
1354.858
 20
253.8877
 30
0.0
 11
1354.858
 21
230.8408
 31
0.0
  0
LINE
  5
4F0
  8
5
  6
CONTINUOUS
 10
1318.858
 20
230.8408
 30
0.0
 11
1318.858
 21
253.8877
 31
0.0
  0
LINE
  5
4F1
  8
5
  6
CONTINUOUS
 10
1604.858
 20
543.4876
 30
0.0
 11
1540.858
 21
626.9877
 31
0.0
  0
LINE
  5
4F2
  8
5
  6
CONTINUOUS
 10
1604.858
 20
543.4876
 30
0.0
 11
1604.858
 21
263.4877
 31
0.0
  0
LINE
  5
4F3
  8
5
  6
CONTINUOUS
 10
1540.858
 20
179.9877
 30
0.0
 11
1604.858
 21
263.4877
 31
0.0
  0
LINE
  5
4F4
  8
5
  6
CONTINUOUS
 10
1613.858
 20
543.4877
 30
0.0
 11
1604.858
 21
543.4876
 31
0.0
  0
LINE
  5
4F5
  8
5
  6
CONTINUOUS
 10
1604.858
 20
263.4877
 30
0.0
 11
1613.858
 21
263.4877
 31
0.0
  0
LINE
  5
4F6
  8
5
  6
CONTINUOUS
 10
1472.358
 20
525.7837
 30
0.0
 11
1411.858
 21
525.7837
 31
0.0
  0
LINE
  5
4F7
  8
5
  6
CONTINUOUS
 10
1472.358
 20
281.1917
 30
0.0
 11
1411.858
 21
281.1917
 31
0.0
  0
LINE
  5
4F8
  8
5
  6
CONTINUOUS
 10
1472.358
 20
282.4343
 30
0.0
 11
1540.858
 21
282.4344
 31
0.0
  0
LINE
  5
4F9
  8
5
  6
CONTINUOUS
 10
1472.358
 20
524.5411
 30
0.0
 11
1540.858
 21
524.5412
 31
0.0
  0
LINE
  5
4FB
  8
5
  6
CONTINUOUS
 10
2316.396
 20
1354.043
 30
0.0
 11
2316.295
 21
1354.043
 31
0.0
  0
LINE
  5
4FD
  8
5
  6
CONTINUOUS
 10
2298.795
 20
1336.542
 30
0.0
 11
2333.695
 21
1336.543
 31
0.0
  0
LINE
  5
4FE
  8
5
  6
CONTINUOUS
 10
2316.397
 20
1089.642
 30
0.0
 11
2316.295
 21
1089.642
 31
0.0
  0
LINE
  5
4FF
  8
5
  6
CONTINUOUS
 10
2316.346
 20
1089.592
 30
0.0
 11
2316.295
 21
1089.642
 31
0.0
  0
LINE
  5
500
  8
5
  6
CONTINUOUS
 10
2316.346
 20
1354.093
 30
0.0
 11
2316.295
 21
1354.043
 31
0.0
  0
LINE
  5
501
  8
5
  6
CONTINUOUS
 10
2333.695
 20
1107.143
 30
0.0
 11
2298.795
 21
1107.143
 31
0.0
  0
LINE
  5
503
  8
5
  6
CONTINUOUS
 10
2312.011
 20
1204.542
 30
0.0
 11
2333.695
 21
1204.542
 31
0.0
  0
LINE
  5
504
  8
5
  6
CONTINUOUS
 10
2333.695
 20
1221.843
 30
0.0
 11
2312.695
 21
1221.843
 31
0.0
  0
LINE
  5
505
  8
5
  6
CONTINUOUS
 10
2312.011
 20
1239.143
 30
0.0
 11
2333.695
 21
1239.143
 31
0.0
  0
LINE
  5
506
  8
5
  6
CONTINUOUS
 10
2333.695
 20
1256.343
 30
0.0
 11
2309.961
 21
1256.342
 31
0.0
  0
LINE
  5
507
  8
5
  6
CONTINUOUS
 10
2307.028
 20
1271.343
 30
0.0
 11
2333.695
 21
1271.343
 31
0.0
  0
LINE
  5
508
  8
5
  6
CONTINUOUS
 10
2333.695
 20
1286.243
 30
0.0
 11
2303.012
 21
1286.243
 31
0.0
  0
LINE
  5
509
  8
5
  6
CONTINUOUS
 10
2297.795
 20
1301.242
 30
0.0
 11
2333.695
 21
1301.243
 31
0.0
  0
LINE
  5
50A
  8
5
  6
CONTINUOUS
 10
2307.051
 20
1172.443
 30
0.0
 11
2333.695
 21
1172.443
 31
0.0
  0
LINE
  5
50B
  8
5
  6
CONTINUOUS
 10
2333.695
 20
1187.343
 30
0.0
 11
2309.961
 21
1187.343
 31
0.0
  0
LINE
  5
50C
  8
5
  6
CONTINUOUS
 10
2297.795
 20
1142.443
 30
0.0
 11
2333.695
 21
1142.443
 31
0.0
  0
LINE
  5
50D
  8
5
  6
CONTINUOUS
 10
2333.695
 20
1157.442
 30
0.0
 11
2303.012
 21
1157.442
 31
0.0
  0
LINE
  5
510
  8
5
  6
CONTINUOUS
 10
1961.595
 20
1396.515
 30
0.0
 11
1961.595
 21
1440.842
 31
0.0
  0
LINE
  5
511
  8
5
  6
CONTINUOUS
 10
1944.195
 20
1427.442
 30
0.0
 11
1944.195
 21
1402.277
 31
0.0
  0
LINE
  5
512
  8
5
  6
CONTINUOUS
 10
2225.995
 20
1396.364
 30
0.0
 11
2225.995
 21
1440.842
 31
0.0
  0
LINE
  5
513
  8
5
  6
CONTINUOUS
 10
2280.256
 20
1336.542
 30
0.0
 11
2298.795
 21
1336.542
 31
0.0
  0
LINE
  5
514
  8
5
  6
CONTINUOUS
 10
2316.295
 20
1354.043
 30
0.0
 11
2268.292
 21
1354.043
 31
0.0
  0
LINE
  5
515
  8
5
  6
CONTINUOUS
 10
1919.098
 20
1354.043
 30
0.0
 11
1871.095
 21
1354.043
 31
0.0
  0
LINE
  5
516
  8
5
  6
CONTINUOUS
 10
1888.595
 20
1336.542
 30
0.0
 11
1907.134
 21
1336.542
 31
0.0
  0
LINE
  5
517
  8
5
  6
CONTINUOUS
 10
1888.595
 20
1107.143
 30
0.0
 11
1907.134
 21
1107.143
 31
0.0
  0
LINE
  5
518
  8
5
  6
CONTINUOUS
 10
2280.256
 20
1107.143
 30
0.0
 11
2298.795
 21
1107.143
 31
0.0
  0
LINE
  5
519
  8
5
  6
CONTINUOUS
 10
1919.098
 20
1089.642
 30
0.0
 11
1871.095
 21
1089.642
 31
0.0
  0
LINE
  5
51A
  8
5
  6
CONTINUOUS
 10
2316.295
 20
1089.642
 30
0.0
 11
2268.292
 21
1089.642
 31
0.0
  0
LINE
  5
51B
  8
5
  6
CONTINUOUS
 10
1987.529
 20
1469.842
 30
0.0
 11
1985.518
 21
1412.26
 31
0.0
  0
LINE
  5
51C
  8
5
  6
CONTINUOUS
 10
2201.872
 20
1412.26
 30
0.0
 11
2199.861
 21
1469.842
 31
0.0
  0
LINE
  5
51D
  8
5
  6
CONTINUOUS
 10
1890.402
 20
1442.813
 30
0.0
 11
1903.274
 21
1433.113
 31
0.0
  0
LINE
  5
51E
  8
5
  6
CONTINUOUS
 10
1881.196
 20
1411.036
 30
0.0
 11
1904.986
 21
1371.443
 31
0.0
  0
LINE
  5
51F
  8
5
  6
CONTINUOUS
 10
1881.196
 20
1411.036
 30
0.0
 11
1872.724
 21
1425.136
 31
0.0
  0
LINE
  5
520
  8
5
  6
CONTINUOUS
 10
1872.724
 20
1425.136
 30
0.0
 11
1890.402
 21
1442.813
 31
0.0
  0
LINE
  5
521
  8
5
  6
CONTINUOUS
 10
1853.695
 20
1318.243
 30
0.0
 11
1853.695
 21
1336.543
 31
0.0
  0
LINE
  5
522
  8
5
  6
CONTINUOUS
 10
1853.695
 20
1125.443
 30
0.0
 11
1853.695
 21
1142.443
 31
0.0
  0
LINE
  5
523
  8
5
  6
CONTINUOUS
 10
2333.695
 20
1125.443
 30
0.0
 11
2333.695
 21
1124.743
 31
0.0
  0
LINE
  5
524
  8
5
  6
CONTINUOUS
 10
2333.695
 20
1318.243
 30
0.0
 11
2333.695
 21
1301.243
 31
0.0
  0
LINE
  5
525
  8
5
  6
CONTINUOUS
 10
2296.988
 20
1442.813
 30
0.0
 11
2314.666
 21
1425.136
 31
0.0
  0
LINE
  5
526
  8
5
  6
CONTINUOUS
 10
2314.666
 20
1425.136
 30
0.0
 11
2306.194
 21
1411.036
 31
0.0
  0
LINE
  5
527
  8
5
  6
CONTINUOUS
 10
2306.194
 20
1411.036
 30
0.0
 11
2282.404
 21
1371.443
 31
0.0
  0
LINE
  5
528
  8
5
  6
CONTINUOUS
 10
2284.116
 20
1433.113
 30
0.0
 11
2296.988
 21
1442.813
 31
0.0
  0
LINE
  5
529
  8
5
  6
CONTINUOUS
 10
2213.87
 20
1469.843
 30
0.0
 11
2216.191
 21
1403.38
 31
0.0
  0
LINE
  5
52A
  8
5
  6
CONTINUOUS
 10
965.6677
 20
622.4877
 30
0.0
 11
954.3578
 21
622.4877
 31
0.0
  0
LINE
  5
52B
  8
5
  6
CONTINUOUS
 10
1407.048
 20
184.4877
 30
0.0
 11
1411.858
 21
184.4877
 31
0.0
  0
LINE
  5
52C
  8
5
  6
CONTINUOUS
 10
1903.274
 20
1433.113
 30
0.0
 11
1881.196
 21
1411.036
 31
0.0
  0
LINE
  5
52D
  8
5
  6
CONTINUOUS
 10
2333.695
 20
1318.243
 30
0.0
 11
2290.337
 21
1318.243
 31
0.0
  0
LINE
  5
52E
  8
5
  6
CONTINUOUS
 10
2333.695
 20
1125.442
 30
0.0
 11
2290.337
 21
1125.442
 31
0.0
  0
LINE
  5
52F
  8
5
  6
CONTINUOUS
 10
2306.194
 20
1411.036
 30
0.0
 11
2284.116
 21
1433.113
 31
0.0
  0
LINE
  5
530
  8
6
  6
CENTER
 10
2296.695
 20
964.3425
 30
0.0
 11
2296.695
 21
1009.343
 31
0.0
  0
LINE
  5
531
  8
7
  6
DASHED
 10
2308.695
 20
971.8425
 30
0.0
 11
2308.695
 21
1001.843
 31
0.0
  0
LINE
  5
532
  8
6
  6
CENTER
 10
1890.695
 20
964.3425
 30
0.0
 11
1890.695
 21
1009.343
 31
0.0
  0
LINE
  5
533
  8
7
  6
DASHED
 10
2284.695
 20
971.8425
 30
0.0
 11
2284.695
 21
1001.843
 31
0.0
  0
LINE
  5
534
  8
7
  6
DASHED
 10
1902.695
 20
971.8425
 30
0.0
 11
1902.695
 21
1001.843
 31
0.0
  0
LINE
  5
535
  8
7
  6
DASHED
 10
1878.695
 20
971.8425
 30
0.0
 11
1878.695
 21
1001.843
 31
0.0
  0
LINE
  5
536
  8
7
  6
DASHED
 10
1407.858
 20
971.8425
 30
0.0
 11
1407.858
 21
1001.842
 31
0.0
  0
LINE
  5
537
  8
7
  6
DASHED
 10
1383.858
 20
971.8425
 30
0.0
 11
1383.858
 21
1001.842
 31
0.0
  0
LINE
  5
538
  8
7
  6
DASHED
 10
1369.858
 20
971.8425
 30
0.0
 11
1369.858
 21
1001.842
 31
0.0
  0
LINE
  5
539
  8
7
  6
DASHED
 10
1345.858
 20
971.8425
 30
0.0
 11
1345.858
 21
1001.842
 31
0.0
  0
LINE
  5
53A
  8
7
  6
DASHED
 10
1058.858
 20
971.8425
 30
0.0
 11
1058.858
 21
1001.842
 31
0.0
  0
LINE
  5
53B
  8
7
  6
DASHED
 10
1034.858
 20
971.8425
 30
0.0
 11
1034.858
 21
1001.842
 31
0.0
  0
LINE
  5
53C
  8
7
  6
DASHED
 10
594.5021
 20
971.8424
 30
0.0
 11
594.5021
 21
1001.842
 31
0.0
  0
LINE
  5
53D
  8
7
  6
DASHED
 10
570.5022
 20
971.8424
 30
0.0
 11
570.5022
 21
1001.842
 31
0.0
  0
LINE
  5
53E
  8
7
  6
DASHED
 10
164.5022
 20
971.8424
 30
0.0
 11
164.5022
 21
1001.842
 31
0.0
  0
LINE
  5
53F
  8
7
  6
DASHED
 10
188.5021
 20
971.8424
 30
0.0
 11
188.5021
 21
1001.842
 31
0.0
  0
LINE
  5
540
  8
6
  6
CENTER
 10
1395.858
 20
964.3425
 30
0.0
 11
1395.858
 21
1009.342
 31
0.0
  0
LINE
  5
541
  8
6
  6
CENTER
 10
1357.858
 20
964.3425
 30
0.0
 11
1357.858
 21
1009.342
 31
0.0
  0
LINE
  5
542
  8
6
  6
CENTER
 10
1046.858
 20
964.3425
 30
0.0
 11
1046.858
 21
1009.342
 31
0.0
  0
LINE
  5
543
  8
6
  6
CENTER
 10
582.5021
 20
964.3424
 30
0.0
 11
582.5021
 21
1009.342
 31
0.0
  0
LINE
  5
544
  8
6
  6
CENTER
 10
176.5021
 20
964.3424
 30
0.0
 11
176.5021
 21
1009.342
 31
0.0
  0
LINE
  5
545
  8
6
  6
CENTER
 10
2093.695
 20
1009.236
 30
0.0
 11
2093.695
 21
1434.449
 31
0.0
  0
LINE
  5
546
  8
6
  6
CENTER
 10
1881.089
 20
1221.843
 30
0.0
 11
2306.301
 21
1221.843
 31
0.0
  0
LINE
  5
547
  8
5
  6
CONTINUOUS
 10
1956.797
 20
1392.781
 30
0.0
 11
1903.274
 21
1433.113
 31
0.0
  0
LINE
  5
548
  8
5
  6
CONTINUOUS
 10
1853.695
 20
1301.243
 30
0.0
 11
1853.695
 21
1318.243
 31
0.0
  0
LINE
  5
549
  8
5
  6
CONTINUOUS
 10
1853.695
 20
1107.143
 30
0.0
 11
1853.695
 21
1125.443
 31
0.0
  0
LINE
  5
54A
  8
5
  6
CONTINUOUS
 10
2333.695
 20
1142.443
 30
0.0
 11
2333.695
 21
1125.443
 31
0.0
  0
LINE
  5
54B
  8
5
  6
CONTINUOUS
 10
2333.695
 20
1336.543
 30
0.0
 11
2333.695
 21
1318.243
 31
0.0
  0
LINE
  5
54C
  8
5
  6
CONTINUOUS
 10
2243.295
 20
1402.353
 30
0.0
 11
2284.116
 21
1433.113
 31
0.0
  0
LINE
  5
54D
  8
5
  6
CONTINUOUS
 10
1971.2
 20
1403.38
 30
0.0
 11
1973.52
 21
1469.843
 31
0.0
  0
LINE
  5
54E
  8
5
  6
CONTINUOUS
 10
1897.053
 20
1318.243
 30
0.0
 11
1853.695
 21
1318.243
 31
0.0
  0
LINE
  5
54F
  8
5
  6
CONTINUOUS
 10
1897.053
 20
1125.442
 30
0.0
 11
1853.695
 21
1125.442
 31
0.0
  0
LINE
  5
551
  8
6
  6
CENTER
 10
1638.858
 20
403.4877
 30
0.0
 11
1209.858
 21
403.4877
 31
0.0
  0
ARC
  5
553
  8
5
  6
CENTER
 10
2093.695
 20
1221.843
 30
0.0
 40
250.0
 50
22.35838
 51
22.68099
  0
LINE
  5
554
  8
6
  6
CENTER
 10
713.858
 20
1221.842
 30
0.0
 11
1638.858
 21
1221.842
 31
0.0
  0
LINE
  5
555
  8
6
  6
CENTER
 10
382.5022
 20
1221.842
 30
0.0
 11
376.5022
 21
1221.842
 31
0.0
  0
LINE
  5
556
  8
6
  6
CENTER
 10
379.5022
 20
1224.842
 30
0.0
 11
379.5022
 21
1218.842
 31
0.0
  0
LINE
  5
557
  8
6
  6
CENTER
 10
384.0022
 20
1221.842
 30
0.0
 11
606.0022
 21
1221.842
 31
0.0
  0
LINE
  5
558
  8
6
  6
CENTER
 10
379.5022
 20
1226.342
 30
0.0
 11
379.5022
 21
1448.342
 31
0.0
  0
LINE
  5
559
  8
6
  6
CENTER
 10
375.0022
 20
1221.842
 30
0.0
 11
153.0022
 21
1221.842
 31
0.0
  0
LINE
  5
55A
  8
6
  6
CENTER
 10
379.5022
 20
1217.342
 30
0.0
 11
379.5022
 21
995.3424
 31
0.0
  0
LINE
  5
565
  8
6
  6
CENTER
 10
989.854099
 20
403.4877
 30
0.0
 11
713.8579
 21
403.4877
 31
0.0
  0
LINE
  5
568
  8
0
  6
CONTINUOUS
 10
748.858
 20
1254.342
 30
0.0
 11
757.8579
 21
1253.072
 31
0.0
  0
LINE
  5
569
  8
0
  6
CONTINUOUS
 10
868.8578
 20
1254.342
 30
0.0
 11
859.858
 21
1253.072
 31
0.0
  0
LINE
  5
56C
  8
5
  6
CONTINUOUS
 10
1024.961676
 20
1558.012615
 30
0.0
 11
1033.824676
 21
1558.012915
 31
0.0
  0
LINE
  5
56D
  8
5
  6
CONTINUOUS
 10
1033.903676
 20
1584.079215
 30
0.0
 11
1024.961676
 21
1558.012615
 31
0.0
  0
LINE
  5
56E
  8
5
  6
CONTINUOUS
 10
1051.057676
 20
1611.077115
 30
0.0
 11
1051.058676
 21
1586.179715
 31
0.0
  0
LINE
  5
56F
  8
5
  6
CONTINUOUS
 10
1065.737676
 20
1586.180215
 30
0.0
 11
1056.850676
 21
1611.077315
 31
0.0
  0
LINE
  5
570
  8
5
  6
CONTINUOUS
 10
1048.958676
 20
1586.179715
 30
0.0
 11
1048.957676
 21
1611.077015
 31
0.0
  0
LINE
  5
571
  8
5
  6
CONTINUOUS
 10
1043.164676
 20
1611.076715
 30
0.0
 11
1034.623676
 21
1586.179315
 31
0.0
  0
LINE
  5
572
  8
5
  6
CONTINUOUS
 10
1051.058676
 20
1568.770915
 30
0.0
 11
1062.452676
 21
1568.771215
 31
0.0
  0
LINE
  5
573
  8
5
  6
CONTINUOUS
 10
1066.487676
 20
1584.080315
 30
0.0
 11
1051.058676
 21
1584.079915
 31
0.0
  0
LINE
  5
574
  8
5
  6
CONTINUOUS
 10
1051.058676
 20
1586.179715
 30
0.0
 11
1065.737676
 21
1586.180215
 31
0.0
  0
LINE
  5
575
  8
5
  6
CONTINUOUS
 10
1051.058676
 20
1584.079915
 30
0.0
 11
1051.058676
 21
1568.770915
 31
0.0
  0
LINE
  5
576
  8
5
  6
CONTINUOUS
 10
1037.514676
 20
1568.770415
 30
0.0
 11
1048.958676
 21
1568.770715
 31
0.0
  0
LINE
  5
577
  8
5
  6
CONTINUOUS
 10
1033.824676
 20
1558.012915
 30
0.0
 11
1037.514676
 21
1568.770415
 31
0.0
  0
LINE
  5
578
  8
5
  6
CONTINUOUS
 10
1048.958676
 20
1584.079615
 30
0.0
 11
1033.903676
 21
1584.079215
 31
0.0
  0
LINE
  5
579
  8
5
  6
CONTINUOUS
 10
1048.958676
 20
1568.770715
 30
0.0
 11
1048.958676
 21
1584.079615
 31
0.0
  0
LINE
  5
57A
  8
5
  6
CONTINUOUS
 10
1034.623676
 20
1586.179315
 30
0.0
 11
1048.958676
 21
1586.179715
 31
0.0
  0
LINE
  5
57B
  8
5
  6
CONTINUOUS
 10
1075.792676
 20
1558.014315
 30
0.0
 11
1066.487676
 21
1584.080315
 31
0.0
  0
LINE
  5
57C
  8
5
  6
CONTINUOUS
 10
1066.292676
 20
1558.014015
 30
0.0
 11
1075.792676
 21
1558.014315
 31
0.0
  0
LINE
  5
57D
  8
5
  6
CONTINUOUS
 10
1062.452676
 20
1568.771215
 30
0.0
 11
1066.292676
 21
1558.014015
 31
0.0
  0
LINE
  5
57E
  8
5
  6
CONTINUOUS
 10
1056.850676
 20
1611.077315
 30
0.0
 11
1051.057676
 21
1611.077115
 31
0.0
  0
LINE
  5
57F
  8
5
  6
CONTINUOUS
 10
1048.957676
 20
1611.077015
 30
0.0
 11
1043.164676
 21
1611.076715
 31
0.0
  0
ARC
  5
580
  8
5
  6
CONTINUOUS
 10
1152.405676
 20
1572.845415
 30
0.0
 40
14.82841
 50
270.0022
 51
0.0019
  0
ARC
  5
581
  8
5
  6
CONTINUOUS
 10
1106.760676
 20
1572.843915
 30
0.0
 40
14.82839
 50
270.002
 51
0.0019
  0
LINE
  5
582
  8
5
  6
CONTINUOUS
 10
1101.957676
 20
1611.078815
 30
0.0
 11
1101.957676
 21
1586.181515
 31
0.0
  0
ARC
  5
583
  8
5
  6
CONTINUOUS
 10
1103.728676
 20
1601.887715
 30
0.0
 40
13.5281
 50
283.5581
 51
354.7072
  0
LINE
  5
584
  8
5
  6
CONTINUOUS
 10
1099.857676
 20
1586.181515
 30
0.0
 11
1099.857676
 21
1611.078715
 31
0.0
  0
LINE
  5
585
  8
5
  6
CONTINUOUS
 10
1086.078676
 20
1611.078215
 30
0.0
 11
1086.079676
 21
1586.181015
 31
0.0
  0
LINE
  5
586
  8
5
  6
CONTINUOUS
 10
1101.957676
 20
1586.181515
 30
0.0
 11
1113.902676
 21
1586.181915
 31
0.0
  0
LINE
  5
587
  8
5
  6
CONTINUOUS
 10
1101.958676
 20
1558.015315
 30
0.0
 11
1106.760676
 21
1558.015515
 31
0.0
  0
LINE
  5
588
  8
5
  6
CONTINUOUS
 10
1116.534676
 20
1584.082115
 30
0.0
 11
1101.957676
 21
1584.081415
 31
0.0
  0
LINE
  5
589
  8
5
  6
CONTINUOUS
 10
1101.957676
 20
1584.081415
 30
0.0
 11
1101.958676
 21
1558.015315
 31
0.0
  0
LINE
  5
58A
  8
5
  6
CONTINUOUS
 10
1099.858676
 20
1558.015315
 30
0.0
 11
1099.857676
 21
1584.081415
 31
0.0
  0
LINE
  5
58B
  8
5
  6
CONTINUOUS
 10
1086.080676
 20
1558.014715
 30
0.0
 11
1099.858676
 21
1558.015315
 31
0.0
  0
LINE
  5
58C
  8
5
  6
CONTINUOUS
 10
1086.079676
 20
1584.081015
 30
0.0
 11
1086.080676
 21
1558.014715
 31
0.0
  0
LINE
  5
58D
  8
5
  6
CONTINUOUS
 10
1099.857676
 20
1584.081415
 30
0.0
 11
1086.079676
 21
1584.081015
 31
0.0
  0
LINE
  5
58E
  8
5
  6
CONTINUOUS
 10
1086.079676
 20
1586.180815
 30
0.0
 11
1099.857676
 21
1586.181515
 31
0.0
  0
ARC
  5
58F
  8
5
  6
CONTINUOUS
 10
1104.774676
 20
1572.038015
 30
0.0
 40
16.83334
 50
57.16511
 51
82.74766
  0
ARC
  5
590
  8
5
  6
CONTINUOUS
 10
1104.774676
 20
1572.038015
 30
0.0
 40
16.83332
 50
2.745839
 51
45.68338
  0
LINE
  5
591
  8
5
  6
CONTINUOUS
 10
1106.759676
 20
1611.078915
 30
0.0
 11
1101.957676
 21
1611.078815
 31
0.0
  0
LINE
  5
592
  8
5
  6
CONTINUOUS
 10
1099.857676
 20
1611.078715
 30
0.0
 11
1086.078676
 21
1611.078215
 31
0.0
  0
ARC
  5
593
  8
5
  6
CONTINUOUS
 10
1106.759676
 20
1600.639515
 30
0.0
 40
10.43949
 50
0.001947
 51
90.00195
  0
LINE
  5
594
  8
5
  6
CONTINUOUS
 10
1147.602676
 20
1611.080315
 30
0.0
 11
1147.603676
 21
1586.183015
 31
0.0
  0
ARC
  5
595
  8
5
  6
CONTINUOUS
 10
1149.374676
 20
1601.889315
 30
0.0
 40
13.5281
 50
283.5581
 51
354.7072
  0
LINE
  5
596
  8
5
  6
CONTINUOUS
 10
1131.724676
 20
1611.079815
 30
0.0
 11
1131.724676
 21
1586.182615
 31
0.0
  0
LINE
  5
597
  8
5
  6
CONTINUOUS
 10
1145.503676
 20
1586.183015
 30
0.0
 11
1145.502676
 21
1611.080315
 31
0.0
  0
LINE
  5
598
  8
5
  6
CONTINUOUS
 10
1162.180676
 20
1584.083515
 30
0.0
 11
1147.603676
 21
1584.083215
 31
0.0
  0
LINE
  5
599
  8
5
  6
CONTINUOUS
 10
1147.604676
 20
1558.016815
 30
0.0
 11
1152.406676
 21
1558.017015
 31
0.0
  0
LINE
  5
59A
  8
5
  6
CONTINUOUS
 10
1147.603676
 20
1586.183015
 30
0.0
 11
1159.547676
 21
1586.183515
 31
0.0
  0
LINE
  5
59B
  8
5
  6
CONTINUOUS
 10
1145.504676
 20
1558.016815
 30
0.0
 11
1145.503676
 21
1584.082915
 31
0.0
  0
LINE
  5
59C
  8
5
  6
CONTINUOUS
 10
1131.725676
 20
1558.016115
 30
0.0
 11
1145.504676
 21
1558.016815
 31
0.0
  0
LINE
  5
59D
  8
5
  6
CONTINUOUS
 10
1131.725676
 20
1584.082515
 30
0.0
 11
1131.725676
 21
1558.016115
 31
0.0
  0
LINE
  5
59E
  8
5
  6
CONTINUOUS
 10
1131.725676
 20
1584.082515
 30
0.0
 11
1145.503676
 21
1584.082915
 31
0.0
  0
LINE
  5
59F
  8
5
  6
CONTINUOUS
 10
1147.603676
 20
1584.083215
 30
0.0
 11
1147.604676
 21
1558.016815
 31
0.0
  0
LINE
  5
5A0
  8
5
  6
CONTINUOUS
 10
1131.724676
 20
1586.182615
 30
0.0
 11
1145.503676
 21
1586.183015
 31
0.0
  0
ARC
  5
5A1
  8
5
  6
CONTINUOUS
 10
1150.420676
 20
1572.039515
 30
0.0
 40
16.83332
 50
2.745839
 51
45.68319
  0
ARC
  5
5A2
  8
5
  6
CONTINUOUS
 10
1150.420676
 20
1572.039515
 30
0.0
 40
16.83337
 50
57.16491
 51
82.74766
  0
LINE
  5
5A3
  8
5
  6
CONTINUOUS
 10
1152.404676
 20
1611.080515
 30
0.0
 11
1147.602676
 21
1611.080315
 31
0.0
  0
LINE
  5
5A4
  8
5
  6
CONTINUOUS
 10
1145.502676
 20
1611.080315
 30
0.0
 11
1131.724676
 21
1611.079815
 31
0.0
  0
ARC
  5
5A5
  8
5
  6
CONTINUOUS
 10
1152.404676
 20
1600.641015
 30
0.0
 40
10.43949
 50
0.001947
 51
90.00195
  0
ARC
  5
5E0
  8
5
  6
CONTINUOUS
 10
448.915699
 20
1262.457255
 30
0.0
 40
9.46967
 50
283.5581
 51
354.7072
  0
ARC
  5
5E1
  8
5
  6
CONTINUOUS
 10
449.647899
 20
1241.562465
 30
0.0
 40
11.783338
 50
57.16511
 51
82.74766
  0
ARC
  5
5E2
  8
5
  6
CONTINUOUS
 10
451.037399
 20
1261.583515
 30
0.0
 40
7.307643
 50
0.001947
 51
90.00195
  0
ARC
  5
5E3
  8
5
  6
CONTINUOUS
 10
451.038099
 20
1242.126595
 30
0.0
 40
10.379873
 50
270.002
 51
0.0019
  0
LINE
  5
5E4
  8
5
  6
CONTINUOUS
 10
447.675999
 20
1251.462915
 30
0.0
 11
456.037499
 21
1251.463195
 31
0.0
  0
LINE
  5
5E5
  8
5
  6
CONTINUOUS
 10
457.879899
 20
1249.993335
 30
0.0
 11
447.675999
 21
1249.992845
 31
0.0
  0
LINE
  5
5E6
  8
5
  6
CONTINUOUS
 10
410.575999
 20
1268.889765
 30
0.0
 11
406.520899
 21
1268.889555
 31
0.0
  0
LINE
  5
5E7
  8
5
  6
CONTINUOUS
 10
400.542199
 20
1251.461375
 30
0.0
 11
410.576699
 21
1251.461655
 31
0.0
  0
LINE
  5
5E8
  8
5
  6
CONTINUOUS
 10
402.565899
 20
1239.275145
 30
0.0
 11
410.576699
 21
1239.275355
 31
0.0
  0
LINE
  5
5E9
  8
5
  6
CONTINUOUS
 10
410.576699
 20
1249.991585
 30
0.0
 11
400.038199
 21
1249.991305
 31
0.0
  0
LINE
  5
5EA
  8
5
  6
CONTINUOUS
 10
400.038199
 20
1249.991305
 30
0.0
 11
393.778799
 21
1231.744685
 31
0.0
  0
LINE
  5
5EB
  8
5
  6
CONTINUOUS
 10
393.778799
 20
1231.744685
 30
0.0
 11
399.982899
 21
1231.744895
 31
0.0
  0
LINE
  5
5EC
  8
5
  6
CONTINUOUS
 10
399.982899
 20
1231.744895
 30
0.0
 11
402.565899
 21
1239.275145
 31
0.0
  0
LINE
  5
5ED
  8
5
  6
CONTINUOUS
 10
406.520899
 20
1268.889555
 30
0.0
 11
400.542199
 21
1251.461375
 31
0.0
  0
LINE
  5
5EE
  8
5
  6
CONTINUOUS
 10
447.675999
 20
1249.992845
 30
0.0
 11
447.676699
 21
1231.746575
 31
0.0
  0
LINE
  5
5EF
  8
5
  6
CONTINUOUS
 10
446.206699
 20
1231.746575
 30
0.0
 11
446.205999
 21
1249.992845
 31
0.0
  0
LINE
  5
5F0
  8
5
  6
CONTINUOUS
 10
436.561399
 20
1249.992565
 30
0.0
 11
436.562099
 21
1231.746155
 31
0.0
  0
LINE
  5
5F1
  8
5
  6
CONTINUOUS
 10
429.360499
 20
1231.745875
 30
0.0
 11
422.846999
 21
1249.992075
 31
0.0
  0
LINE
  5
5F2
  8
5
  6
CONTINUOUS
 10
412.046699
 20
1249.991795
 30
0.0
 11
412.046699
 21
1239.275495
 31
0.0
  0
LINE
  5
5F3
  8
5
  6
CONTINUOUS
 10
410.576699
 20
1239.275355
 30
0.0
 11
410.576699
 21
1249.991585
 31
0.0
  0
LINE
  5
5F4
  8
5
  6
CONTINUOUS
 10
422.710499
 20
1231.745665
 30
0.0
 11
429.360499
 21
1231.745875
 31
0.0
  0
LINE
  5
5F5
  8
5
  6
CONTINUOUS
 10
420.022499
 20
1239.275705
 30
0.0
 11
422.710499
 21
1231.745665
 31
0.0
  0
LINE
  5
5F6
  8
5
  6
CONTINUOUS
 10
412.046699
 20
1239.275495
 30
0.0
 11
420.022499
 21
1239.275705
 31
0.0
  0
LINE
  5
5F7
  8
5
  6
CONTINUOUS
 10
436.562099
 20
1231.746155
 30
0.0
 11
446.206699
 21
1231.746575
 31
0.0
  0
LINE
  5
5F8
  8
5
  6
CONTINUOUS
 10
447.676699
 20
1231.746575
 30
0.0
 11
451.038099
 21
1231.746715
 31
0.0
  0
LINE
  5
5F9
  8
5
  6
CONTINUOUS
 10
412.045999
 20
1268.889835
 30
0.0
 11
412.046699
 21
1251.461655
 31
0.0
  0
LINE
  5
5FA
  8
5
  6
CONTINUOUS
 10
410.576699
 20
1251.461655
 30
0.0
 11
410.575999
 21
1268.889765
 31
0.0
  0
LINE
  5
5FB
  8
5
  6
CONTINUOUS
 10
416.101099
 20
1268.889975
 30
0.0
 11
412.045999
 21
1268.889835
 31
0.0
  0
LINE
  5
5FC
  8
5
  6
CONTINUOUS
 10
422.321999
 20
1251.462005
 30
0.0
 11
416.101099
 21
1268.889975
 31
0.0
  0
LINE
  5
5FD
  8
5
  6
CONTINUOUS
 10
422.846999
 20
1249.992075
 30
0.0
 11
412.046699
 21
1249.991795
 31
0.0
  0
LINE
  5
5FE
  8
5
  6
CONTINUOUS
 10
412.046699
 20
1251.461655
 30
0.0
 11
422.321999
 21
1251.462005
 31
0.0
  0
LINE
  5
5FF
  8
5
  6
CONTINUOUS
 10
447.675999
 20
1268.891025
 30
0.0
 11
447.675999
 21
1251.462915
 31
0.0
  0
LINE
  5
600
  8
5
  6
CONTINUOUS
 10
446.205999
 20
1251.462915
 30
0.0
 11
446.205999
 21
1268.890955
 31
0.0
  0
LINE
  5
601
  8
5
  6
CONTINUOUS
 10
436.560699
 20
1268.890605
 30
0.0
 11
436.561399
 21
1251.462565
 31
0.0
  0
LINE
  5
602
  8
5
  6
CONTINUOUS
 10
436.561399
 20
1251.462425
 30
0.0
 11
446.205999
 21
1251.462915
 31
0.0
  0
LINE
  5
603
  8
5
  6
CONTINUOUS
 10
446.205999
 20
1268.890955
 30
0.0
 11
436.560699
 21
1268.890605
 31
0.0
  0
LINE
  5
604
  8
5
  6
CONTINUOUS
 10
446.205999
 20
1249.992845
 30
0.0
 11
436.561399
 21
1249.992565
 31
0.0
  0
LINE
  5
605
  8
5
  6
CONTINUOUS
 10
451.037399
 20
1268.891095
 30
0.0
 11
447.675999
 21
1268.891025
 31
0.0
  0
ARC
  5
606
  8
5
  6
CONTINUOUS
 10
481.600099
 20
1241.563515
 30
0.0
 40
11.783324
 50
2.745839
 51
45.68319
  0
LINE
  5
607
  8
5
  6
CONTINUOUS
 10
478.158899
 20
1231.747625
 30
0.0
 11
478.158199
 21
1249.993895
 31
0.0
  0
LINE
  5
608
  8
5
  6
CONTINUOUS
 10
468.513599
 20
1249.993615
 30
0.0
 11
468.513599
 21
1231.747135
 31
0.0
  0
LINE
  5
609
  8
5
  6
CONTINUOUS
 10
479.628199
 20
1249.994105
 30
0.0
 11
479.628899
 21
1231.747625
 31
0.0
  0
ARC
  5
60A
  8
5
  6
CONTINUOUS
 10
449.647899
 20
1241.562465
 30
0.0
 40
11.783324
 50
2.745839
 51
45.68338
  0
LINE
  5
60B
  8
5
  6
CONTINUOUS
 10
468.513599
 20
1231.747135
 30
0.0
 11
478.158899
 21
1231.747625
 31
0.0
  0
ARC
  5
60C
  8
5
  6
CONTINUOUS
 10
482.989599
 20
1242.127645
 30
0.0
 40
10.379887
 50
270.0022
 51
0.0019
  0
LINE
  5
60D
  8
5
  6
CONTINUOUS
 10
479.628899
 20
1231.747625
 30
0.0
 11
482.990299
 21
1231.747765
 31
0.0
  0
LINE
  5
60E
  8
5
  6
CONTINUOUS
 10
468.512899
 20
1251.463685
 30
0.0
 11
478.158199
 21
1251.463965
 31
0.0
  0
LINE
  5
60F
  8
5
  6
CONTINUOUS
 10
478.157499
 20
1268.892075
 30
0.0
 11
468.512899
 21
1268.891725
 31
0.0
  0
LINE
  5
610
  8
5
  6
CONTINUOUS
 10
468.513599
 20
1249.993615
 30
0.0
 11
478.158199
 21
1249.993895
 31
0.0
  0
LINE
  5
611
  8
5
  6
CONTINUOUS
 10
468.512899
 20
1268.891725
 30
0.0
 11
468.512899
 21
1251.463685
 31
0.0
  0
ARC
  5
612
  8
5
  6
CONTINUOUS
 10
480.867899
 20
1262.458375
 30
0.0
 40
9.46967
 50
283.5581
 51
354.7072
  0
ARC
  5
613
  8
5
  6
CONTINUOUS
 10
481.600099
 20
1241.563515
 30
0.0
 40
11.783359
 50
57.16491
 51
82.74766
  0
ARC
  5
614
  8
5
  6
CONTINUOUS
 10
482.988899
 20
1261.584565
 30
0.0
 40
7.307643
 50
0.001947
 51
90.00195
  0
LINE
  5
615
  8
5
  6
CONTINUOUS
 10
479.627499
 20
1268.892075
 30
0.0
 11
479.628199
 21
1251.463965
 31
0.0
  0
LINE
  5
616
  8
5
  6
CONTINUOUS
 10
478.158199
 20
1251.463965
 30
0.0
 11
478.157499
 21
1268.892075
 31
0.0
  0
LINE
  5
617
  8
5
  6
CONTINUOUS
 10
489.832099
 20
1249.994315
 30
0.0
 11
479.628199
 21
1249.994105
 31
0.0
  0
LINE
  5
618
  8
5
  6
CONTINUOUS
 10
479.628199
 20
1251.463965
 30
0.0
 11
487.988999
 21
1251.464315
 31
0.0
  0
LINE
  5
619
  8
5
  6
CONTINUOUS
 10
482.988899
 20
1268.892215
 30
0.0
 11
479.627499
 21
1268.892075
 31
0.0
  0
ARC
  5
61A
  8
5
  6
CONTINUOUS
 10
2096.901862
 20
1638.487336
 30
0.0
 40
9.46967
 50
283.5581
 51
354.7072
  0
ARC
  5
61B
  8
5
  6
CONTINUOUS
 10
2097.634062
 20
1617.592546
 30
0.0
 40
11.783338
 50
57.16511
 51
82.74766
  0
ARC
  5
61C
  8
5
  6
CONTINUOUS
 10
2099.023562
 20
1637.613596
 30
0.0
 40
7.307643
 50
0.001947
 51
90.00195
  0
ARC
  5
61D
  8
5
  6
CONTINUOUS
 10
2099.024262
 20
1618.156676
 30
0.0
 40
10.379873
 50
270.002
 51
0.0019
  0
LINE
  5
61E
  8
5
  6
CONTINUOUS
 10
2095.662162
 20
1627.492996
 30
0.0
 11
2104.023662
 21
1627.493276
 31
0.0
  0
LINE
  5
61F
  8
5
  6
CONTINUOUS
 10
2105.866062
 20
1626.023416
 30
0.0
 11
2095.662162
 21
1626.022926
 31
0.0
  0
LINE
  5
620
  8
5
  6
CONTINUOUS
 10
2058.562162
 20
1644.919846
 30
0.0
 11
2054.507062
 21
1644.919636
 31
0.0
  0
LINE
  5
621
  8
5
  6
CONTINUOUS
 10
2048.528362
 20
1627.491456
 30
0.0
 11
2058.562862
 21
1627.491736
 31
0.0
  0
LINE
  5
622
  8
5
  6
CONTINUOUS
 10
2050.552062
 20
1615.305226
 30
0.0
 11
2058.562862
 21
1615.305436
 31
0.0
  0
LINE
  5
623
  8
5
  6
CONTINUOUS
 10
2058.562862
 20
1626.021666
 30
0.0
 11
2048.024362
 21
1626.021386
 31
0.0
  0
LINE
  5
624
  8
5
  6
CONTINUOUS
 10
2048.024362
 20
1626.021386
 30
0.0
 11
2041.764962
 21
1607.774766
 31
0.0
  0
LINE
  5
625
  8
5
  6
CONTINUOUS
 10
2041.764962
 20
1607.774766
 30
0.0
 11
2047.969062
 21
1607.774976
 31
0.0
  0
LINE
  5
626
  8
5
  6
CONTINUOUS
 10
2047.969062
 20
1607.774976
 30
0.0
 11
2050.552062
 21
1615.305226
 31
0.0
  0
LINE
  5
627
  8
5
  6
CONTINUOUS
 10
2054.507062
 20
1644.919636
 30
0.0
 11
2048.528362
 21
1627.491456
 31
0.0
  0
LINE
  5
628
  8
5
  6
CONTINUOUS
 10
2095.662162
 20
1626.022926
 30
0.0
 11
2095.662862
 21
1607.776656
 31
0.0
  0
LINE
  5
629
  8
5
  6
CONTINUOUS
 10
2094.192862
 20
1607.776656
 30
0.0
 11
2094.192162
 21
1626.022926
 31
0.0
  0
LINE
  5
62A
  8
5
  6
CONTINUOUS
 10
2084.547562
 20
1626.022646
 30
0.0
 11
2084.548262
 21
1607.776236
 31
0.0
  0
LINE
  5
62B
  8
5
  6
CONTINUOUS
 10
2077.346662
 20
1607.775956
 30
0.0
 11
2070.833162
 21
1626.022156
 31
0.0
  0
LINE
  5
62C
  8
5
  6
CONTINUOUS
 10
2060.032862
 20
1626.021876
 30
0.0
 11
2060.032862
 21
1615.305576
 31
0.0
  0
LINE
  5
62D
  8
5
  6
CONTINUOUS
 10
2058.562862
 20
1615.305436
 30
0.0
 11
2058.562862
 21
1626.021666
 31
0.0
  0
LINE
  5
62E
  8
5
  6
CONTINUOUS
 10
2070.696662
 20
1607.775746
 30
0.0
 11
2077.346662
 21
1607.775956
 31
0.0
  0
LINE
  5
62F
  8
5
  6
CONTINUOUS
 10
2068.008662
 20
1615.305786
 30
0.0
 11
2070.696662
 21
1607.775746
 31
0.0
  0
LINE
  5
630
  8
5
  6
CONTINUOUS
 10
2060.032862
 20
1615.305576
 30
0.0
 11
2068.008662
 21
1615.305786
 31
0.0
  0
LINE
  5
631
  8
5
  6
CONTINUOUS
 10
2084.548262
 20
1607.776236
 30
0.0
 11
2094.192862
 21
1607.776656
 31
0.0
  0
LINE
  5
632
  8
5
  6
CONTINUOUS
 10
2095.662862
 20
1607.776656
 30
0.0
 11
2099.024262
 21
1607.776796
 31
0.0
  0
LINE
  5
633
  8
5
  6
CONTINUOUS
 10
2060.032162
 20
1644.919916
 30
0.0
 11
2060.032862
 21
1627.491736
 31
0.0
  0
LINE
  5
634
  8
5
  6
CONTINUOUS
 10
2058.562862
 20
1627.491736
 30
0.0
 11
2058.562162
 21
1644.919846
 31
0.0
  0
LINE
  5
635
  8
5
  6
CONTINUOUS
 10
2064.087262
 20
1644.920056
 30
0.0
 11
2060.032162
 21
1644.919916
 31
0.0
  0
LINE
  5
636
  8
5
  6
CONTINUOUS
 10
2070.308162
 20
1627.492086
 30
0.0
 11
2064.087262
 21
1644.920056
 31
0.0
  0
LINE
  5
637
  8
5
  6
CONTINUOUS
 10
2070.833162
 20
1626.022156
 30
0.0
 11
2060.032862
 21
1626.021876
 31
0.0
  0
LINE
  5
638
  8
5
  6
CONTINUOUS
 10
2060.032862
 20
1627.491736
 30
0.0
 11
2070.308162
 21
1627.492086
 31
0.0
  0
LINE
  5
639
  8
5
  6
CONTINUOUS
 10
2095.662162
 20
1644.921106
 30
0.0
 11
2095.662162
 21
1627.492996
 31
0.0
  0
LINE
  5
63A
  8
5
  6
CONTINUOUS
 10
2094.192162
 20
1627.492996
 30
0.0
 11
2094.192162
 21
1644.921036
 31
0.0
  0
LINE
  5
63B
  8
5
  6
CONTINUOUS
 10
2084.546862
 20
1644.920686
 30
0.0
 11
2084.547562
 21
1627.492646
 31
0.0
  0
LINE
  5
63C
  8
5
  6
CONTINUOUS
 10
2084.547562
 20
1627.492506
 30
0.0
 11
2094.192162
 21
1627.492996
 31
0.0
  0
LINE
  5
63D
  8
5
  6
CONTINUOUS
 10
2094.192162
 20
1644.921036
 30
0.0
 11
2084.546862
 21
1644.920686
 31
0.0
  0
LINE
  5
63E
  8
5
  6
CONTINUOUS
 10
2094.192162
 20
1626.022926
 30
0.0
 11
2084.547562
 21
1626.022646
 31
0.0
  0
LINE
  5
63F
  8
5
  6
CONTINUOUS
 10
2099.023562
 20
1644.921176
 30
0.0
 11
2095.662162
 21
1644.921106
 31
0.0
  0
ARC
  5
640
  8
5
  6
CONTINUOUS
 10
2129.586262
 20
1617.593596
 30
0.0
 40
11.783324
 50
2.745839
 51
45.68319
  0
LINE
  5
641
  8
5
  6
CONTINUOUS
 10
2126.145062
 20
1607.777706
 30
0.0
 11
2126.144362
 21
1626.023976
 31
0.0
  0
LINE
  5
642
  8
5
  6
CONTINUOUS
 10
2116.499762
 20
1626.023696
 30
0.0
 11
2116.499762
 21
1607.777216
 31
0.0
  0
LINE
  5
643
  8
5
  6
CONTINUOUS
 10
2127.614362
 20
1626.024186
 30
0.0
 11
2127.615062
 21
1607.777706
 31
0.0
  0
ARC
  5
644
  8
5
  6
CONTINUOUS
 10
2097.634062
 20
1617.592546
 30
0.0
 40
11.783324
 50
2.745839
 51
45.68338
  0
LINE
  5
645
  8
5
  6
CONTINUOUS
 10
2116.499762
 20
1607.777216
 30
0.0
 11
2126.145062
 21
1607.777706
 31
0.0
  0
ARC
  5
646
  8
5
  6
CONTINUOUS
 10
2130.975762
 20
1618.157726
 30
0.0
 40
10.379887
 50
270.0022
 51
0.0019
  0
LINE
  5
647
  8
5
  6
CONTINUOUS
 10
2127.615062
 20
1607.777706
 30
0.0
 11
2130.976462
 21
1607.777846
 31
0.0
  0
LINE
  5
648
  8
5
  6
CONTINUOUS
 10
2116.499062
 20
1627.493766
 30
0.0
 11
2126.144362
 21
1627.494046
 31
0.0
  0
LINE
  5
649
  8
5
  6
CONTINUOUS
 10
2126.143662
 20
1644.922156
 30
0.0
 11
2116.499062
 21
1644.921806
 31
0.0
  0
LINE
  5
64A
  8
5
  6
CONTINUOUS
 10
2116.499762
 20
1626.023696
 30
0.0
 11
2126.144362
 21
1626.023976
 31
0.0
  0
LINE
  5
64B
  8
5
  6
CONTINUOUS
 10
2116.499062
 20
1644.921806
 30
0.0
 11
2116.499062
 21
1627.493766
 31
0.0
  0
ARC
  5
64C
  8
5
  6
CONTINUOUS
 10
2128.854062
 20
1638.488456
 30
0.0
 40
9.46967
 50
283.5581
 51
354.7072
  0
ARC
  5
64D
  8
5
  6
CONTINUOUS
 10
2129.586262
 20
1617.593596
 30
0.0
 40
11.783359
 50
57.16491
 51
82.74766
  0
ARC
  5
64E
  8
5
  6
CONTINUOUS
 10
2130.975062
 20
1637.614646
 30
0.0
 40
7.307643
 50
0.001947
 51
90.00195
  0
LINE
  5
64F
  8
5
  6
CONTINUOUS
 10
2127.613662
 20
1644.922156
 30
0.0
 11
2127.614362
 21
1627.494046
 31
0.0
  0
LINE
  5
650
  8
5
  6
CONTINUOUS
 10
2126.144362
 20
1627.494046
 30
0.0
 11
2126.143662
 21
1644.922156
 31
0.0
  0
LINE
  5
651
  8
5
  6
CONTINUOUS
 10
2137.818262
 20
1626.024396
 30
0.0
 11
2127.614362
 21
1626.024186
 31
0.0
  0
LINE
  5
652
  8
5
  6
CONTINUOUS
 10
2127.614362
 20
1627.494046
 30
0.0
 11
2135.975162
 21
1627.494396
 31
0.0
  0
LINE
  5
653
  8
5
  6
CONTINUOUS
 10
2130.975062
 20
1644.922296
 30
0.0
 11
2127.613662
 21
1644.922156
 31
0.0
  0
INSERT
  5
688
  8
0
  6
CONTINUOUS
  2
A$C27E33DB7
 10
295.478507
 20
1136.632378
 30
0.0
  0
ENDSEC
  0
EOF
