  0
SECTION
  2
HEADER
  9
$ACADVER
  1
AC1009
  9
$DWGCODEPAGE
  3
iso8859-1
  9
$INSBASE
 10
0.0
 20
0.0
 30
0.0
  9
$EXTMIN
 10
1.0E20
 20
1.0E20
 30
1.0E20
  9
$EXTMAX
 10
-1.0E20
 20
-1.0E20
 30
-1.0E20
  9
$LIMMIN
 10
0.0
 20
0.0
  9
$LIMMAX
 10
12.0
 20
9.0
  9
$ORTHOMODE
 70
     0
  9
$REGENMODE
 70
     1
  9
$FILLMODE
 70
     1
  9
$QTEXTMODE
 70
     0
  9
$MIRRTEXT
 70
     1
  9
$DRAGMODE
 70
     2
  9
$LTSCALE
 40
15.0
  9
$OSMODE
 70
     0
  9
$ATTMODE
 70
     1
  9
$TEXTSIZE
 40
0.2
  9
$TRACEWID
 40
0.05
  9
$TEXTSTYLE
  7
STANDARD
  9
$CLAYER
  8
0
  9
$CELTYPE
  6
DASHED
  9
$CECOLOR
 62
   256
  9
$DIMSCALE
 40
1.0
  9
$DIMASZ
 40
0.18
  9
$DIMEXO
 40
0.0625
  9
$DIMDLI
 40
0.38
  9
$DIMRND
 40
0.0
  9
$DIMDLE
 40
0.0
  9
$DIMEXE
 40
0.18
  9
$DIMTP
 40
0.0
  9
$DIMTM
 40
0.0
  9
$DIMTXT
 40
0.18
  9
$DIMCEN
 40
0.09
  9
$DIMTSZ
 40
0.0
  9
$DIMTOL
 70
     0
  9
$DIMLIM
 70
     0
  9
$DIMTIH
 70
     1
  9
$DIMTOH
 70
     1
  9
$DIMSE1
 70
     0
  9
$DIMSE2
 70
     0
  9
$DIMTAD
 70
     0
  9
$DIMZIN
 70
     0
  9
$DIMBLK
  1

  9
$DIMASO
 70
     1
  9
$DIMSHO
 70
     1
  9
$DIMPOST
  1

  9
$DIMAPOST
  1

  9
$DIMALT
 70
     0
  9
$DIMALTD
 70
     2
  9
$DIMALTF
 40
25.4
  9
$DIMLFAC
 40
1.0
  9
$DIMTOFL
 70
     0
  9
$DIMTVP
 40
0.0
  9
$DIMTIX
 70
     0
  9
$DIMSOXD
 70
     0
  9
$DIMSAH
 70
     0
  9
$DIMBLK1
  1

  9
$DIMBLK2
  1

  9
$DIMSTYLE
  2
STANDARD
  9
$DIMCLRD
 70
     0
  9
$DIMCLRE
 70
     0
  9
$DIMCLRT
 70
     0
  9
$DIMTFAC
 40
1.0
  9
$DIMGAP
 40
0.09
  9
$LUNITS
 70
     2
  9
$LUPREC
 70
     4
  9
$AXISMODE
 70
     0
  9
$AXISUNIT
 10
0.0
 20
0.0
  9
$SKETCHINC
 40
0.1
  9
$FILLETRAD
 40
0.0
  9
$AUNITS
 70
     0
  9
$AUPREC
 70
     0
  9
$MENU
  1
acad
  9
$ELEVATION
 40
0.0
  9
$PELEVATION
 40
0.0
  9
$THICKNESS
 40
0.0
  9
$LIMCHECK
 70
     0
  9
$BLIPMODE
 70
     1
  9
$CHAMFERA
 40
0.0
  9
$CHAMFERB
 40
0.0
  9
$SKPOLY
 70
     0
  9
$TDCREATE
 40
2450267.486451955
  9
$TDUPDATE
 40
2450267.486451955
  9
$TDINDWG
 40
0.0
  9
$TDUSRTIMER
 40
0.0
  9
$USRTIMER
 70
     1
  9
$ANGBASE
 50
0.0
  9
$ANGDIR
 70
     0
  9
$PDMODE
 70
     0
  9
$PDSIZE
 40
0.0
  9
$PLINEWID
 40
0.0
  9
$COORDS
 70
     1
  9
$SPLFRAME
 70
     0
  9
$SPLINETYPE
 70
     6
  9
$SPLINESEGS
 70
     8
  9
$ATTDIA
 70
     0
  9
$ATTREQ
 70
     1
  9
$HANDLING
 70
     1
  9
$HANDSEED
  5
   704
  9
$SURFTAB1
 70
     6
  9
$SURFTAB2
 70
     6
  9
$SURFTYPE
 70
     6
  9
$SURFU
 70
     6
  9
$SURFV
 70
     6
  9
$UCSNAME
  2

  9
$UCSORG
 10
0.0
 20
0.0
 30
0.0
  9
$UCSXDIR
 10
1.0
 20
0.0
 30
0.0
  9
$UCSYDIR
 10
0.0
 20
1.0
 30
0.0
  9
$PUCSNAME
  2

  9
$PUCSORG
 10
0.0
 20
0.0
 30
0.0
  9
$PUCSXDIR
 10
1.0
 20
0.0
 30
0.0
  9
$PUCSYDIR
 10
0.0
 20
1.0
 30
0.0
  9
$USERI1
 70
     0
  9
$USERI2
 70
     0
  9
$USERI3
 70
     0
  9
$USERI4
 70
     0
  9
$USERI5
 70
     0
  9
$USERR1
 40
0.0
  9
$USERR2
 40
0.0
  9
$USERR3
 40
0.0
  9
$USERR4
 40
0.0
  9
$USERR5
 40
0.0
  9
$WORLDVIEW
 70
     1
  9
$SHADEDGE
 70
     3
  9
$SHADEDIF
 70
    70
  9
$TILEMODE
 70
     1
  9
$MAXACTVP
 70
    16
  9
$PINSBASE
 10
0.0
 20
0.0
 30
0.0
  9
$PLIMCHECK
 70
     0
  9
$PEXTMIN
 10
1.0E20
 20
1.0E20
 30
1.0E20
  9
$PEXTMAX
 10
-1.0E20
 20
-1.0E20
 30
-1.0E20
  9
$PLIMMIN
 10
0.0
 20
0.0
  9
$PLIMMAX
 10
12.0
 20
9.0
  9
$UNITMODE
 70
     0
  9
$VISRETAIN
 70
     0
  0
ENDSEC
  0
SECTION
  2
TABLES
  0
TABLE
  2
VPORT
 70
     1
  0
VPORT
  2
*ACTIVE
 70
     0
 10
0.0
 20
0.0
 11
1.0
 21
1.0
 12
6.801242
 22
4.5
 13
0.0
 23
0.0
 14
1.0
 24
1.0
 15
0.0
 25
0.0
 16
0.0
 26
0.0
 36
1.0
 17
0.0
 27
0.0
 37
0.0
 40
9.0
 41
1.511387
 42
50.0
 43
0.0
 44
0.0
 50
0.0
 51
0.0
 71
     0
 72
   100
 73
     1
 74
     1
 75
     0
 76
     0
 77
     0
 78
     0
  0
ENDTAB
  0
TABLE
  2
LTYPE
 70
    41
  0
LTYPE
  2
BYBLOCK
 70
     0
  3

 72
    65
 73
     0
 40
0.0
  0
LTYPE
  2
BYLAYER
 70
     0
  3

 72
    65
 73
     0
 40
0.0
  0
LTYPE
  2
CONTINUOUS
 70
     0
  3
Solid line
 72
    65
 73
     0
 40
0.0
  0
LTYPE
  2
BORDER
 70
    64
  3
__ __ . __ __ . __ __ . __ __ . __ __ . __ __ .
 72
    65
 73
     6
 40
1.75
 49
0.5
 49
-0.25
 49
0.5
 49
-0.25
 49
0.0
 49
-0.25
  0
LTYPE
  2
BORDER2
 70
    64
  3
__.__.__.__.__.__.__.__.__.__.__.__.__.__.__.__
 72
    65
 73
     6
 40
0.875
 49
0.25
 49
-0.125
 49
0.25
 49
-0.125
 49
0.0
 49
-0.125
  0
LTYPE
  2
BORDERX2
 70
    64
  3
____  ____  .  ____  ____  .  ____  ____  .  __
 72
    65
 73
     6
 40
3.5
 49
1.0
 49
-0.5
 49
1.0
 49
-0.5
 49
0.0
 49
-0.5
  0
LTYPE
  2
CENTER
 70
    64
  3
____ _ ____ _ ____ _ ____ _ ____ _ ____ _ ____
 72
    65
 73
     4
 40
2.0
 49
1.25
 49
-0.25
 49
0.25
 49
-0.25
  0
LTYPE
  2
CENTER2
 70
    64
  3
___ _ ___ _ ___ _ ___ _ ___ _ ___ _ ___ _ ___ _
 72
    65
 73
     4
 40
1.125
 49
0.75
 49
-0.125
 49
0.125
 49
-0.125
  0
LTYPE
  2
CENTERX2
 70
    64
  3
________  __  ________  __  ________  __  _____
 72
    65
 73
     4
 40
4.0
 49
2.5
 49
-0.5
 49
0.5
 49
-0.5
  0
LTYPE
  2
DASHDOT
 70
    64
  3
__ . __ . __ . __ . __ . __ . __ . __ . __ . __
 72
    65
 73
     4
 40
1.0
 49
0.5
 49
-0.25
 49
0.0
 49
-0.25
  0
LTYPE
  2
DASHDOT2
 70
    64
  3
_._._._._._._._._._._._._._._._._._._._._._._._
 72
    65
 73
     4
 40
0.5
 49
0.25
 49
-0.125
 49
0.0
 49
-0.125
  0
LTYPE
  2
DASHDOTX2
 70
    64
  3
____  .  ____  .  ____  .  ____  .  ____  .  __
 72
    65
 73
     4
 40
2.0
 49
1.0
 49
-0.5
 49
0.0
 49
-0.5
  0
LTYPE
  2
DASHED
 70
    64
  3
__ __ __ __ __ __ __ __ __ __ __ __ __ __ __ __
 72
    65
 73
     2
 40
0.75
 49
0.5
 49
-0.25
  0
LTYPE
  2
DASHED2
 70
    64
  3
_ _ _ _ _ _ _ _ _ _ _ _ _ _ _ _ _ _ _ _ _ _ _ _
 72
    65
 73
     2
 40
0.375
 49
0.25
 49
-0.125
  0
LTYPE
  2
DASHEDX2
 70
    64
  3
____  ____  ____  ____  ____  ____  ____  ____
 72
    65
 73
     2
 40
1.5
 49
1.0
 49
-0.5
  0
LTYPE
  2
DIVIDE
 70
    64
  3
____ . . ____ . . ____ . . ____ . . ____ . . __
 72
    65
 73
     6
 40
1.25
 49
0.5
 49
-0.25
 49
0.0
 49
-0.25
 49
0.0
 49
-0.25
  0
LTYPE
  2
DIVIDE2
 70
    64
  3
__..__..__..__..__..__..__..__..__..__..__..__.
 72
    65
 73
     6
 40
0.625
 49
0.25
 49
-0.125
 49
0.0
 49
-0.125
 49
0.0
 49
-0.125
  0
LTYPE
  2
DIVIDEX2
 70
    64
  3
________  .  .  ________  .  .  ________  .  .
 72
    65
 73
     6
 40
2.5
 49
1.0
 49
-0.5
 49
0.0
 49
-0.5
 49
0.0
 49
-0.5
  0
LTYPE
  2
DOT
 70
    64
  3
. . . . . . . . . . . . . . . . . . . . . . . .
 72
    65
 73
     2
 40
0.25
 49
0.0
 49
-0.25
  0
LTYPE
  2
DOT2
 70
    64
  3
...............................................
 72
    65
 73
     2
 40
0.125
 49
0.0
 49
-0.125
  0
LTYPE
  2
DOTX2
 70
    64
  3
.  .  .  .  .  .  .  .  .  .  .  .  .  .  .  .
 72
    65
 73
     2
 40
0.5
 49
0.0
 49
-0.5
  0
LTYPE
  2
HIDDEN
 70
    64
  3
__ __ __ __ __ __ __ __ __ __ __ __ __ __ __ __
 72
    65
 73
     2
 40
0.375
 49
0.25
 49
-0.125
  0
LTYPE
  2
HIDDEN2
 70
    64
  3
_ _ _ _ _ _ _ _ _ _ _ _ _ _ _ _ _ _ _ _ _ _ _ _
 72
    65
 73
     2
 40
0.1875
 49
0.125
 49
-0.0625
  0
LTYPE
  2
HIDDENX2
 70
    64
  3
____ ____ ____ ____ ____ ____ ____ ____ ____ __
 72
    65
 73
     2
 40
0.75
 49
0.5
 49
-0.25
  0
LTYPE
  2
PHANTOM
 70
    64
  3
______  __  __  ______  __  __  ______  __  __
 72
    65
 73
     6
 40
2.5
 49
1.25
 49
-0.25
 49
0.25
 49
-0.25
 49
0.25
 49
-0.25
  0
LTYPE
  2
PHANTOM2
 70
    64
  3
___ _ _ ___ _ _ ___ _ _ ___ _ _ ___ _ _ ___ _ _
 72
    65
 73
     6
 40
1.25
 49
0.625
 49
-0.125
 49
0.125
 49
-0.125
 49
0.125
 49
-0.125
  0
LTYPE
  2
PHANTOMX2
 70
    64
  3
____________    ____    ____    ____________
 72
    65
 73
     6
 40
5.0
 49
2.5
 49
-0.5
 49
0.5
 49
-0.5
 49
0.5
 49
-0.5
  0
LTYPE
  2
ACAD_ISO02W100
 70
    64
  3
__ __ __ __ __ __ __ __ __ __ __ __ __ __ __ __
 72
    65
 73
     2
 40
15.0
 49
12.0
 49
-3.0
  0
LTYPE
  2
ACAD_ISO03W100
 70
    64
  3
__    __    __    __    __    __    __    __
 72
    65
 73
     2
 40
30.0
 49
12.0
 49
-18.0
  0
LTYPE
  2
ACAD_ISO04W100
 70
    64
  3
____ . ____ . ____ . ____ . ____ . ____ . ____
 72
    65
 73
     4
 40
30.5
 49
24.0
 49
-3.0
 49
0.5
 49
-3.0
  0
LTYPE
  2
ACAD_ISO05W100
 70
    64
  3
____ .. ____ .. ____ .. ____ .. ____ .. ____ ..
 72
    65
 73
     6
 40
34.0
 49
24.0
 49
-3.0
 49
0.5
 49
-3.0
 49
0.5
 49
-3.0
  0
LTYPE
  2
ACAD_ISO06W100
 70
    64
  3
____ ... ____ ... ____ ... ____ ... ____ ... __
 72
    65
 73
     8
 40
37.5
 49
24.0
 49
-3.0
 49
0.5
 49
-3.0
 49
0.5
 49
-3.0
 49
0.5
 49
-3.0
  0
LTYPE
  2
ACAD_ISO07W100
 70
    64
  3
. . . . . . . . . . . . . . . . . . . . . . . .
 72
    65
 73
     2
 40
3.5
 49
0.5
 49
-3.0
  0
LTYPE
  2
ACAD_ISO08W100
 70
    64
  3
____ __ ____ __ ____ __ ____ ____ __ __ ____ __
 72
    65
 73
     4
 40
36.0
 49
24.0
 49
-3.0
 49
6.0
 49
-3.0
  0
LTYPE
  2
ACAD_ISO09W100
 70
    64
  3
____ __ __ ____ __ __ ____ __ __ ____ __ __ ___
 72
    65
 73
     6
 40
45.0
 49
24.0
 49
-3.0
 49
6.0
 49
-3.0
 49
6.0
 49
-3.0
  0
LTYPE
  2
ACAD_ISO10W100
 70
    64
  3
__ . __ . __ . __ . __ . __ . __ . __ . __ . __
 72
    65
 73
     4
 40
18.5
 49
12.0
 49
-3.0
 49
0.5
 49
-3.0
  0
LTYPE
  2
ACAD_ISO11W100
 70
    64
  3
__ __ . __ __ . __ __ . __ __ . __ __ . __ __ .
 72
    65
 73
     6
 40
33.5
 49
12.0
 49
-3.0
 49
12.0
 49
-3.0
 49
0.5
 49
-3.0
  0
LTYPE
  2
ACAD_ISO12W100
 70
    64
  3
__ . . __ . . __ . . __ . . __ . . __ . . __ .
 72
    65
 73
     6
 40
22.0
 49
12.0
 49
-3.0
 49
0.5
 49
-3.0
 49
0.5
 49
-3.0
  0
LTYPE
  2
ACAD_ISO13W100
 70
    64
  3
__ __ . . __ __ . . __ __ . . __ __ . . __ __ .
 72
    65
 73
     8
 40
37.0
 49
12.0
 49
-3.0
 49
12.0
 49
-3.0
 49
0.5
 49
-3.0
 49
0.5
 49
-3.0
  0
LTYPE
  2
ACAD_ISO14W100
 70
    64
  3
__ . . . __ . . . __ . . . __ . . . __ . . . __
 72
    65
 73
     8
 40
25.5
 49
12.0
 49
-3.0
 49
0.5
 49
-3.0
 49
0.5
 49
-3.0
 49
0.5
 49
-3.0
  0
LTYPE
  2
ACAD_ISO15W100
 70
    64
  3
__ __ . . . __ __ . . . __ __ . . . __ __ . . .
 72
    65
 73
    10
 40
40.5
 49
12.0
 49
-3.0
 49
12.0
 49
-3.0
 49
0.5
 49
-3.0
 49
0.5
 49
-3.0
 49
0.5
 49
-3.0
  0
ENDTAB
  0
TABLE
  2
STYLE
 70
     4
  0
STYLE
  2
STANDARD
 70
    64
 40
0.0
 41
1.0
 50
0.0
 71
     0
 42
0.2
  3
txt
  4

  0
STYLE
  2
TOLERANCE
 70
    64
 40
0.0
 41
1.0
 50
0.0
 71
     0
 42
0.2
  3
iges1003.shx
  4

  0
STYLE
  2
ROMANS
 70
    64
 40
0.0
 41
1.0
 50
0.0
 71
     0
 42
0.2
  3
romans.shx
  4

  0
STYLE
  2
ROMANC
 70
    64
 40
0.0
 41
1.0
 50
0.0
 71
     0
 42
0.2
  3
romanc.shx
  4

  0
ENDTAB
  0
TABLE
  2
DIMSTYLE
 70
     2
  0
DIMSTYLE
  2
UNNAMED
 70
     0
  3

  4

  5

  6

  7

 40
1.0
 41
0.18
 42
0.0625
 43
0.38
 44
0.18
 45
0.0
 46
0.0
 47
0.0
 48
0.0
140
0.18
141
0.09
142
0.0
143
25.4
144
1.0
145
0.0
146
1.0
147
0.09
 71
     0
 72
     0
 73
     1
 74
     1
 75
     0
 76
     0
 77
     0
 78
     0
170
     0
171
     2
172
     0
173
     0
174
     0
175
     0
176
     0
177
     0
178
     0
  0
DIMSTYLE
  2
STANDARD
 70
     0
  3

  4

  5

  6

  7

 40
1.0
 41
0.18
 42
0.0625
 43
0.38
 44
0.18
 45
0.0
 46
0.0
 47
0.0
 48
0.0
140
0.18
141
0.09
142
0.0
143
25.4
144
1.0
145
0.0
146
1.0
147
0.09
 71
     0
 72
     0
 73
     1
 74
     1
 75
     0
 76
     0
 77
     0
 78
     0
170
     0
171
     2
172
     0
173
     0
174
     0
175
     0
176
     0
177
     0
178
     0
  0
ENDTAB
  0
TABLE
  2
LAYER
 70
     2
  0
LAYER
  2
0
 70
     0
 62
     7
  6
CONTINUOUS
  0
LAYER
  2
255
 70
     0
 62
     7
  6
CONTINUOUS
  0
ENDTAB
  0
ENDSEC
  0
SECTION
  2
BLOCKS
  0
BLOCK
  5
     B
  8
0
  6
CONTINUOUS
 62
     7
  2
TABELL_________
 70
    64
 10
0.0
 20
0.0
 30
0.0
  3
TABELL_________
  0
LINE
  5
     C
  8
0
  6
CONTINUOUS
 62
     7
 10
185.865085111827
 20
-41.3516925132404
 30
0.0
 11
185.865085111827
 21
-17.8955555684779
 31
0.0
  0
LINE
  5
     D
  8
0
  6
CONTINUOUS
 62
     7
 10
185.865085111827
 20
-17.8955555684779
 30
0.0
 11
276.842651116485
 21
-17.8955555684779
 31
0.0
  0
LINE
  5
     E
  8
0
  6
CONTINUOUS
 62
     7
 10
185.865085111827
 20
-25.7142678833987
 30
0.0
 11
276.842651116485
 21
-25.7142678833987
 31
0.0
  0
LINE
  5
     F
  8
0
  6
CONTINUOUS
 62
     7
 10
246.445970822728
 20
-41.3516925132404
 30
0.0
 11
246.445970822728
 21
-10.0768432535571
 31
0.0
  0
TEXT
  5
    10
  8
0
  6
CONTINUOUS
 62
     7
 10
237.180130357331
 20
-22.8049139611125
 30
0.0
 40
2.00000447034836
  1
83
 41
0.933333333333333
 72
     1
 11
238.846800749288
 21
-21.8049117259384
 31
0.0
 73
     2
  0
LINE
  5
    11
  8
0
  6
CONTINUOUS
 62
     7
 10
216.04929052897
 20
-41.3516925132404
 30
0.0
 11
216.04929052897
 21
-10.0768432535571
 31
0.0
  0
TEXT
  5
    12
  8
0
  6
CONTINUOUS
 62
     7
 10
238.113465776827
 20
-14.9862016461917
 30
0.0
 40
2.00000447034836
  1
B
 41
0.933333333333333
 72
     1
 11
238.846800749288
 21
-13.9861994110175
 31
0.0
 73
     2
  0
LINE
  5
    13
  8
0
  6
CONTINUOUS
 62
     7
 10
216.04929052897
 20
-10.0768432535571
 30
0.0
 11
276.842651116485
 21
-10.0768432535571
 31
0.0
  0
LINE
  5
    14
  8
0
  6
CONTINUOUS
 62
     7
 10
231.247630675849
 20
-41.3516925132404
 30
0.0
 11
231.247630675849
 21
-10.0768432535571
 31
0.0
  0
TEXT
  5
    15
  8
0
  6
CONTINUOUS
 62
     7
 10
222.915125629949
 20
-14.9862016461917
 30
0.0
 40
2.00000447034836
  1
A
 41
0.933333333333333
 72
     1
 11
223.64846060241
 21
-13.9861994110175
 31
0.0
 73
     2
  0
LINE
  5
    16
  8
0
  6
CONTINUOUS
 62
     7
 10
185.865085111827
 20
-41.3516925132404
 30
0.0
 11
276.842651116485
 21
-41.3516925132404
 31
0.0
  0
TEXT
  5
    17
  8
0
  6
CONTINUOUS
 62
     7
 10
221.981790210453
 20
-38.4423385909541
 30
0.0
 40
2.00000447034836
  1
71
 41
0.933333333333333
 72
     1
 11
223.64846060241
 21
-37.44233635578
 31
0.0
 73
     2
  0
TEXT
  5
    18
  8
0
  6
CONTINUOUS
 62
     7
 10
221.981790210453
 20
-30.6236262760333
 30
0.0
 40
2.00000447034836
  1
79
 41
0.933333333333333
 72
     1
 11
223.64846060241
 21
-29.6236240408592
 31
0.0
 73
     2
  0
TEXT
  5
    19
  8
0
  6
CONTINUOUS
 62
     7
 10
221.981790210453
 20
-22.8049139611125
 30
0.0
 40
2.00000447034836
  1
79
 41
0.933333333333333
 72
     1
 11
223.64846060241
 21
-21.8049117259384
 31
0.0
 73
     2
  0
LINE
  5
    1A
  8
0
  6
CONTINUOUS
 62
     7
 10
216.04929052897
 20
-33.5329801983196
 30
0.0
 11
276.842651116485
 21
-33.5329801983196
 31
0.0
  0
LINE
  5
    1B
  8
0
  6
CONTINUOUS
 62
     7
 10
261.644310969606
 20
-41.3516925132404
 30
0.0
 11
261.644310969606
 21
-10.0768432535571
 31
0.0
  0
TEXT
  5
    1C
  8
0
  6
CONTINUOUS
 62
     7
 10
252.37847050421
 20
-38.4423385909541
 30
0.0
 40
2.00000447034836
  1
47
 41
0.933333333333333
 72
     1
 11
254.045140896167
 21
-37.44233635578
 31
0.0
 73
     2
  0
TEXT
  5
    1D
  8
0
  6
CONTINUOUS
 62
     7
 10
235.31345951834
 20
-30.6236262760333
 30
0.0
 40
2.00000447034836
  1
78.2
 41
0.933333333333333
 72
     1
 11
238.846800749288
 21
-29.6236240408592
 31
0.0
 73
     2
  0
TEXT
  5
    1E
  8
0
  6
CONTINUOUS
 62
     7
 10
252.37847050421
 20
-30.6236262760333
 30
0.0
 40
2.00000447034836
  1
47
 41
0.933333333333333
 72
     1
 11
254.045140896167
 21
-29.6236240408592
 31
0.0
 73
     2
  0
TEXT
  5
    1F
  8
0
  6
CONTINUOUS
 62
     7
 10
235.313467258003
 20
-38.4423364004834
 30
0.0
 40
2.00000008940697
  1
78.2
 41
0.933333333333333
 72
     1
 11
238.846800749288
 21
-37.44233635578
 31
0.0
 73
     2
  0
TEXT
  5
    20
  8
0
  6
CONTINUOUS
 62
     7
 10
252.37847050421
 20
-22.8049139611125
 30
0.0
 40
2.00000447034836
  1
58
 41
0.933333333333333
 72
     1
 11
254.045140896167
 21
-21.8049117259384
 31
0.0
 73
     2
  0
TEXT
  5
    21
  8
0
  6
CONTINUOUS
 62
     7
 10
253.311805923706
 20
-14.9862016461917
 30
0.0
 40
2.00000447034836
  1
C
 41
0.933333333333333
 72
     1
 11
254.045140896167
 21
-13.9861994110175
 31
0.0
 73
     2
  0
TEXT
  5
    22
  8
0
  6
CONTINUOUS
 62
     7
 10
268.510146070585
 20
-14.9862016461917
 30
0.0
 40
2.00000447034836
  1
D
 41
0.933333333333333
 72
     1
 11
269.243481043046
 21
-13.9861994110175
 31
0.0
 73
     2
  0
LINE
  5
    23
  8
0
  6
CONTINUOUS
 62
     7
 10
276.842651116485
 20
-41.3516925132404
 30
0.0
 11
276.842651116485
 21
-10.0768432535571
 31
0.0
  0
TEXT
  5
    24
  8
0
  6
CONTINUOUS
 62
     7
 10
267.576814301873
 20
-30.6236240855626
 30
0.0
 40
2.00000008940697
  1
18
 41
0.933333333333334
 72
     1
 11
269.243481043046
 21
-29.6236240408592
 31
0.0
 73
     2
  0
TEXT
  5
    25
  8
0
  6
CONTINUOUS
 62
     7
 10
265.71014755176
 20
-22.8049117706418
 30
0.0
 40
2.00000008940697
  1
23.5
 41
0.933333333333333
 72
     1
 11
269.243481043046
 21
-21.8049117259384
 31
0.0
 73
     2
  0
TEXT
  5
    26
  8
0
  6
CONTINUOUS
 62
     7
 10
267.576814301873
 20
-38.4423364004834
 30
0.0
 40
2.00000008940697
  1
18
 41
0.933333333333334
 72
     1
 11
269.243481043046
 21
-37.44233635578
 31
0.0
 73
     2
  0
TEXT
  5
    27
  8
0
  6
CONTINUOUS
 62
     7
 10
189.631383553694
 20
-24.1447160661403
 30
0.0
 40
2.00000447034836
  1
CON MOSTRINA
 41
0.933333333333333
 72
     1
 11
200.63140814061
 21
-23.1447138309661
 31
0.0
 73
     2
  0
TEXT
  5
    28
  8
0
  6
CONTINUOUS
 62
     7
 10
190.564741023928
 20
-21.4651096656141
 30
0.0
 40
2.00000008940697
  1
WITH FLANGE
 41
0.933333333333333
 72
     1
 11
200.63140814061
 21
-20.4651096209106
 31
0.0
 73
     2
  0
TEXT
  5
    29
  8
0
  6
CONTINUOUS
 62
     7
 10
188.416300258335
 20
-36.2077328743077
 30
0.0
 40
2.00000008940697
  1
SENZA MOSTRINA
 41
0.933333333333333
 72
     1
 11
201.282967500187
 21
-35.2077328296043
 31
0.0
 73
     2
  0
TEXT
  5
    2A
  8
0
  6
CONTINUOUS
 62
     7
 10
188.416300258335
 20
-32.8582276117383
 30
0.0
 40
2.00000008940697
  1
WITHOUT FLANGE
 41
0.933333333333333
 72
     1
 11
201.282967500187
 21
-31.8582275670348
 31
0.0
 73
     2
  0
ENDBLK
  5
    2B
  8
0
  6
CONTINUOUS
 62
     7
  0
BLOCK
  5
    2C
  8
0
  6
CONTINUOUS
 62
     7
  2
*UDIM3066
 70
    65
 10
0.0
 20
0.0
 30
0.0
  3
*UDIM3066
  0
LINE
  5
    2D
  8
0
  6
CONTINUOUS
 62
     7
 10
362.81192990274
 20
409.336929185666
 30
0.0
 11
400.36506889506
 21
393.09493262823
 31
0.0
  0
LINE
  5
    2E
  8
0
  6
CONTINUOUS
 62
     7
 10
391.155908202872
 20
396.231990724817
 30
0.0
 11
394.12381065024
 21
395.794320685967
 31
0.0
  0
LINE
  5
    2F
  8
0
  6
CONTINUOUS
 62
     7
 10
394.12381065024
 20
395.794320685967
 30
0.0
 11
391.772366781435
 21
397.657305316032
 31
0.0
  0
LINE
  5
    30
  8
0
  6
CONTINUOUS
 62
     7
 10
398.743810886397
 20
394.642106741652
 30
0.0
 11
395.775908439029
 21
395.079776780502
 31
0.0
  0
LINE
  5
    31
  8
0
  6
CONTINUOUS
 62
     7
 10
395.775908439029
 20
395.079776780502
 30
0.0
 11
398.127352307835
 21
393.216792150437
 31
0.0
  0
TEXT
  5
    32
  8
0
  6
CONTINUOUS
 62
     7
 10
366.880227051517
 20
408.666885975147
 30
0.0
 40
2.99999994933605
  1
4,5
 50
336.61117832515
 41
0.933333333333333
 72
     1
 11
371.055225382396
 21
408.495455676098
 31
0.0
 73
     2
  0
TEXT
  5
    33
  8
0
  6
CONTINUOUS
 62
     7
 10
363.208898733198
 20
410.254761276863
 30
0.0
 40
2.99999994933605
  1
Ø
 50
336.61117832515
 41
1.2
 72
     1
 11
365.181100082379
 21
411.036056154805
 31
0.0
 73
     2
  0
TEXT
  5
    34
  8
0
  6
CONTINUOUS
 62
     7
 10
374.957149333222
 20
405.173560319427
 30
0.0
 40
2.99999994933605
  1
 - M4
 50
336.61117832515
 41
0.933333333333333
 72
     1
 11
381.702077476082
 21
403.89061731389
 31
0.0
 73
     2
  0
ENDBLK
  5
    35
  8
0
  6
CONTINUOUS
 62
     7
  0
BLOCK
  5
    36
  8
0
  6
CONTINUOUS
 62
     7
  2
*UDIM3067
 70
    65
 10
0.0
 20
0.0
 30
0.0
  3
*UDIM3067
  0
LINE
  5
    37
  8
0
  6
CONTINUOUS
 62
     7
 10
394.949859544635
 20
398.424053944679
 30
0.0
 11
394.949859544635
 21
411.591148821966
 31
0.0
  0
LINE
  5
    38
  8
0
  6
CONTINUOUS
 62
     7
 10
404.949859693647
 20
356.028798820692
 30
0.0
 11
404.949859693647
 21
411.591148821966
 31
0.0
  0
LINE
  5
    39
  8
0
  6
CONTINUOUS
 62
     7
 10
389.949859544635
 20
409.591148821966
 30
0.0
 11
409.949859693647
 21
409.591148821966
 31
0.0
  0
LINE
  5
    3A
  8
0
  6
CONTINUOUS
 62
     7
 10
392.052082071424
 20
408.814691665548
 30
0.0
 11
394.949859544635
 21
409.591148821966
 31
0.0
  0
LINE
  5
    3B
  8
0
  6
CONTINUOUS
 62
     7
 10
394.949859544635
 20
409.591148821966
 30
0.0
 11
392.052082071424
 21
410.367605978385
 31
0.0
  0
LINE
  5
    3C
  8
0
  6
CONTINUOUS
 62
     7
 10
407.847637166857
 20
410.367605978385
 30
0.0
 11
404.949859693647
 21
409.591148821966
 31
0.0
  0
LINE
  5
    3D
  8
0
  6
CONTINUOUS
 62
     7
 10
404.949859693647
 20
409.591148821966
 30
0.0
 11
407.847637166857
 21
408.814691665548
 31
0.0
  0
TEXT
  5
    3E
  8
0
  6
CONTINUOUS
 62
     7
 10
397.449859661361
 20
410.591148821966
 30
0.0
 40
2.99999994933605
  1
25
 41
0.933333333333333
 72
     1
 11
399.949859619141
 21
412.091148796634
 31
0.0
 73
     2
  0
ENDBLK
  5
    3F
  8
0
  6
CONTINUOUS
 62
     7
  0
BLOCK
  5
    40
  8
0
  6
CONTINUOUS
 62
     7
  2
*UDIM3068
 70
    65
 10
0.0
 20
0.0
 30
0.0
  3
*UDIM3068
  0
LINE
  5
    41
  8
0
  6
CONTINUOUS
 62
     7
 10
401.942101944323
 20
352.637048095465
 30
0.0
 11
363.931760925323
 21
352.637048095465
 31
0.0
  0
LINE
  5
    42
  8
0
  6
CONTINUOUS
 62
     7
 10
392.269859515429
 20
395.437048733234
 30
0.0
 11
363.931760925323
 21
395.437048733234
 31
0.0
  0
LINE
  5
    43
  8
0
  6
CONTINUOUS
 62
     7
 10
365.931760925323
 20
352.637048095465
 30
0.0
 11
365.931760925323
 21
395.437048733234
 31
0.0
  0
LINE
  5
    44
  8
0
  6
CONTINUOUS
 62
     7
 10
365.155303768904
 20
355.534825568675
 30
0.0
 11
365.931760925323
 21
352.637048095465
 31
0.0
  0
LINE
  5
    45
  8
0
  6
CONTINUOUS
 62
     7
 10
365.931760925323
 20
352.637048095465
 30
0.0
 11
366.708218081741
 21
355.534825568675
 31
0.0
  0
LINE
  5
    46
  8
0
  6
CONTINUOUS
 62
     7
 10
366.708218081741
 20
392.539271260024
 30
0.0
 11
365.931760925323
 21
395.437048733234
 31
0.0
  0
LINE
  5
    47
  8
0
  6
CONTINUOUS
 62
     7
 10
365.931760925323
 20
395.437048733234
 30
0.0
 11
365.155303768904
 21
392.539271260024
 31
0.0
  0
TEXT
  5
    48
  8
0
  6
CONTINUOUS
 62
     7
 10
364.931760925327
 20
370.137048480215
 30
0.0
 40
2.99999994933605
  1
107
 50
90.0
 41
0.933333333333333
 72
     1
 11
363.431760950655
 21
374.03704841435
 31
0.0
 73
     2
  0
ENDBLK
  5
    49
  8
0
  6
CONTINUOUS
 62
     7
  0
BLOCK
  5
    4A
  8
0
  6
CONTINUOUS
 62
     7
  2
*UDIM3069
 70
    65
 10
0.0
 20
0.0
 30
0.0
  3
*UDIM3069
  0
LINE
  5
    4B
  8
0
  6
CONTINUOUS
 62
     7
 10
386.327424492321
 20
374.03704841435
 30
0.0
 11
373.605718153471
 21
374.03704841435
 31
0.0
  0
LINE
  5
    4C
  8
0
  6
CONTINUOUS
 62
     7
 10
392.269859515429
 20
395.437048733234
 30
0.0
 11
373.605718153471
 21
395.437048733234
 31
0.0
  0
LINE
  5
    4D
  8
0
  6
CONTINUOUS
 62
     7
 10
375.605718153471
 20
374.03704841435
 30
0.0
 11
375.605718153471
 21
395.437048733234
 31
0.0
  0
LINE
  5
    4E
  8
0
  6
CONTINUOUS
 62
     7
 10
374.829260997053
 20
376.93482588756
 30
0.0
 11
375.605718153471
 21
374.03704841435
 31
0.0
  0
LINE
  5
    4F
  8
0
  6
CONTINUOUS
 62
     7
 10
375.605718153471
 20
374.03704841435
 30
0.0
 11
376.38217530989
 21
376.93482588756
 31
0.0
  0
LINE
  5
    50
  8
0
  6
CONTINUOUS
 62
     7
 10
376.38217530989
 20
392.539271260024
 30
0.0
 11
375.605718153471
 21
395.437048733234
 31
0.0
  0
LINE
  5
    51
  8
0
  6
CONTINUOUS
 62
     7
 10
375.605718153471
 20
395.437048733234
 30
0.0
 11
374.829260997053
 21
392.539271260024
 31
0.0
  0
TEXT
  5
    52
  8
0
  6
CONTINUOUS
 62
     7
 10
374.605718153478
 20
379.4370486633
 30
0.0
 40
2.99999994933605
  1
53,5
 50
90.0
 41
0.933333333333333
 72
     1
 11
373.105718178803
 21
384.737048573792
 31
0.0
 73
     2
  0
ENDBLK
  5
    53
  8
0
  6
CONTINUOUS
 62
     7
  0
BLOCK
  5
    54
  8
0
  6
CONTINUOUS
 62
     7
  2
*HATCH2581
 70
    65
 10
0.0
 20
0.0
 30
0.0
  3
*HATCH2581
  0
LINE
  5
    55
  8
0
  6
CONTINUOUS
 62
    92
 10
235.274844110268
 20
350.916000970329
 30
0.0
 11
236.216515877229
 21
349.974329203367
 31
0.0
  0
LINE
  5
    56
  8
0
  6
CONTINUOUS
 62
    92
 10
236.001809453132
 20
353.583148837221
 30
0.0
 11
237.625097441188
 21
351.959860849165
 31
0.0
  0
LINE
  5
    57
  8
0
  6
CONTINUOUS
 62
    92
 10
237.630988859732
 20
355.348084166255
 30
0.0
 11
239.404740717218
 21
353.574329257011
 31
0.0
  0
LINE
  5
    58
  8
0
  6
CONTINUOUS
 62
    92
 10
240.798853897172
 20
355.574329286814
 30
0.0
 11
242.798851638156
 21
353.574329257011
 31
0.0
  0
LINE
  5
    59
  8
0
  6
CONTINUOUS
 62
    92
 10
244.19296405517
 20
355.574329286814
 30
0.0
 11
246.192962177623
 21
353.574329257011
 31
0.0
  0
LINE
  5
    5A
  8
0
  6
CONTINUOUS
 62
    92
 10
247.587074976107
 20
355.574329286814
 30
0.0
 11
249.514363823185
 21
353.647037387978
 31
0.0
  0
LINE
  5
    5B
  8
0
  6
CONTINUOUS
 62
    92
 10
250.019886940154
 20
356.535629960318
 30
0.0
 11
251.520525685889
 21
355.034989068816
 31
0.0
  0
LINE
  5
    5C
  8
0
  6
CONTINUOUS
 62
    92
 10
250.057693451643
 20
359.891937993729
 30
0.0
 11
252.057693481445
 21
357.891934912169
 31
0.0
  0
LINE
  5
    5D
  8
0
  6
CONTINUOUS
 62
    92
 10
250.057693451643
 20
363.286054255243
 30
0.0
 11
252.057693481445
 21
361.286048121925
 31
0.0
  0
LINE
  5
    5E
  8
0
  6
CONTINUOUS
 62
    92
 10
251.163529191998
 20
365.574329435825
 30
0.0
 11
252.057693481445
 21
364.680164383439
 31
0.0
  0
ENDBLK
  5
    5F
  8
0
  6
CONTINUOUS
 62
     7
  0
BLOCK
  5
    60
  8
0
  6
CONTINUOUS
 62
     7
  2
*UDIM3070
 70
    65
 10
0.0
 20
0.0
 30
0.0
  3
*UDIM3070
  0
LINE
  5
    61
  8
0
  6
CONTINUOUS
 62
     7
 10
232.457693189383
 20
378.720385021004
 30
0.0
 11
232.457693189383
 21
392.388118658008
 31
0.0
  0
LINE
  5
    62
  8
0
  6
CONTINUOUS
 62
     7
 10
252.057693481445
 20
366.574329435825
 30
0.0
 11
252.057693481445
 21
392.388118658008
 31
0.0
  0
LINE
  5
    63
  8
0
  6
CONTINUOUS
 62
     7
 10
232.457693189383
 20
390.388118658008
 30
0.0
 11
252.057693481445
 21
390.388118658008
 31
0.0
  0
LINE
  5
    64
  8
0
  6
CONTINUOUS
 62
     7
 10
235.355470662593
 20
391.164575814426
 30
0.0
 11
232.457693189383
 21
390.388118658008
 31
0.0
  0
LINE
  5
    65
  8
0
  6
CONTINUOUS
 62
     7
 10
232.457693189383
 20
390.388118658008
 30
0.0
 11
235.355470662593
 21
389.611661501589
 31
0.0
  0
LINE
  5
    66
  8
0
  6
CONTINUOUS
 62
     7
 10
249.159916008235
 20
389.611661501589
 30
0.0
 11
252.057693481445
 21
390.388118658008
 31
0.0
  0
LINE
  5
    67
  8
0
  6
CONTINUOUS
 62
     7
 10
252.057693481445
 20
390.388118658008
 30
0.0
 11
249.159916008235
 21
391.164575814426
 31
0.0
  0
TEXT
  5
    68
  8
0
  6
CONTINUOUS
 62
     7
 10
236.95769342492
 20
391.388118658008
 30
0.0
 40
2.99999994933605
  1
24,5
 41
0.933333333333333
 72
     1
 11
242.257693335414
 21
392.888118632676
 31
0.0
 73
     2
  0
ENDBLK
  5
    69
  8
0
  6
CONTINUOUS
 62
     7
  0
BLOCK
  5
    6A
  8
0
  6
CONTINUOUS
 62
     7
  2
*UDIM3071
 70
    65
 10
0.0
 20
0.0
 30
0.0
  3
*UDIM3071
  0
LINE
  5
    6B
  8
0
  6
CONTINUOUS
 62
     7
 10
232.457693189383
 20
350.974329203367
 30
0.0
 11
232.457693189383
 21
401.049163123703
 31
0.0
  0
LINE
  5
    6C
  8
0
  6
CONTINUOUS
 62
     7
 10
288.45545110526
 20
359.614328721762
 30
0.0
 11
288.45545110526
 21
401.049163123703
 31
0.0
  0
LINE
  5
    6D
  8
0
  6
CONTINUOUS
 62
     7
 10
232.457693189383
 20
399.049163123703
 30
0.0
 11
288.45545110526
 21
399.049163123703
 31
0.0
  0
LINE
  5
    6E
  8
0
  6
CONTINUOUS
 62
     7
 10
235.355470662593
 20
399.825620280121
 30
0.0
 11
232.457693189383
 21
399.049163123703
 31
0.0
  0
LINE
  5
    6F
  8
0
  6
CONTINUOUS
 62
     7
 10
232.457693189383
 20
399.049163123703
 30
0.0
 11
235.355470662593
 21
398.272705967284
 31
0.0
  0
LINE
  5
    70
  8
0
  6
CONTINUOUS
 62
     7
 10
285.55767363205
 20
398.272705967284
 30
0.0
 11
288.45545110526
 21
399.049163123703
 31
0.0
  0
LINE
  5
    71
  8
0
  6
CONTINUOUS
 62
     7
 10
288.45545110526
 20
399.049163123703
 30
0.0
 11
285.55767363205
 21
399.825620280121
 31
0.0
  0
TEXT
  5
    72
  8
0
  6
CONTINUOUS
 62
     7
 10
257.956572189541
 20
400.049163123703
 30
0.0
 40
2.99999994933605
  1
70
 41
0.933333333333333
 72
     1
 11
260.456572147321
 21
401.549163098371
 31
0.0
 73
     2
  0
ENDBLK
  5
    73
  8
0
  6
CONTINUOUS
 62
     7
  0
BLOCK
  5
    74
  8
0
  6
CONTINUOUS
 62
     7
  2
*UDIM3072
 70
    65
 10
0.0
 20
0.0
 30
0.0
  3
*UDIM3072
  0
LINE
  5
    75
  8
0
  6
CONTINUOUS
 62
     7
 10
232.457693189383
 20
350.974329203367
 30
0.0
 11
232.457693189383
 21
409.09474343862
 31
0.0
  0
LINE
  5
    76
  8
0
  6
CONTINUOUS
 62
     7
 10
298.855450193147
 20
333.534329553843
 30
0.0
 11
298.855450193147
 21
409.09474343862
 31
0.0
  0
LINE
  5
    77
  8
0
  6
CONTINUOUS
 62
     7
 10
232.457693189383
 20
407.09474343862
 30
0.0
 11
298.855450193147
 21
407.09474343862
 31
0.0
  0
LINE
  5
    78
  8
0
  6
CONTINUOUS
 62
     7
 10
235.355470662593
 20
407.871200595038
 30
0.0
 11
232.457693189383
 21
407.09474343862
 31
0.0
  0
LINE
  5
    79
  8
0
  6
CONTINUOUS
 62
     7
 10
232.457693189383
 20
407.09474343862
 30
0.0
 11
235.355470662593
 21
406.318286282201
 31
0.0
  0
LINE
  5
    7A
  8
0
  6
CONTINUOUS
 62
     7
 10
295.957672719936
 20
406.318286282201
 30
0.0
 11
298.855450193147
 21
407.09474343862
 31
0.0
  0
LINE
  5
    7B
  8
0
  6
CONTINUOUS
 62
     7
 10
298.855450193147
 20
407.09474343862
 30
0.0
 11
295.957672719936
 21
407.871200595038
 31
0.0
  0
TEXT
  5
    7C
  8
0
  6
CONTINUOUS
 62
     7
 10
263.156571733485
 20
408.09474343862
 30
0.0
 40
2.99999994933605
  1
83
 41
0.933333333333333
 72
     1
 11
265.656571691265
 21
409.594743413288
 31
0.0
 73
     2
  0
ENDBLK
  5
    7D
  8
0
  6
CONTINUOUS
 62
     7
  0
BLOCK
  5
    7E
  8
0
  6
CONTINUOUS
 62
     7
  2
*UDIM3073
 70
    65
 10
0.0
 20
0.0
 30
0.0
  3
*UDIM3073
  0
LINE
  5
    7F
  8
0
  6
CONTINUOUS
 62
     7
 10
244.007693376392
 20
278.774328142405
 30
0.0
 11
196.929122413642
 21
278.774328142405
 31
0.0
  0
LINE
  5
    80
  8
0
  6
CONTINUOUS
 62
     7
 10
244.007693376392
 20
361.974329382181
 30
0.0
 11
196.929122413642
 21
361.974329382181
 31
0.0
  0
LINE
  5
    81
  8
0
  6
CONTINUOUS
 62
     7
 10
198.929122413642
 20
278.774328142405
 30
0.0
 11
198.929122413642
 21
361.974329382181
 31
0.0
  0
LINE
  5
    82
  8
0
  6
CONTINUOUS
 62
     7
 10
198.152665257224
 20
281.672105615615
 30
0.0
 11
198.929122413642
 21
278.774328142405
 31
0.0
  0
LINE
  5
    83
  8
0
  6
CONTINUOUS
 62
     7
 10
198.929122413642
 20
278.774328142405
 30
0.0
 11
199.705579570061
 21
281.672105615615
 31
0.0
  0
LINE
  5
    84
  8
0
  6
CONTINUOUS
 62
     7
 10
199.705579570061
 20
359.076551908971
 30
0.0
 11
198.929122413642
 21
361.974329382181
 31
0.0
  0
LINE
  5
    85
  8
0
  6
CONTINUOUS
 62
     7
 10
198.929122413642
 20
361.974329382181
 30
0.0
 11
198.152665257224
 21
359.076551908971
 31
0.0
  0
TEXT
  5
    86
  8
0
  6
CONTINUOUS
 62
     7
 10
197.929122413647
 20
316.474328828158
 30
0.0
 40
2.99999994933605
  1
104
 50
90.0
 41
0.933333333333333
 72
     1
 11
196.429122438974
 21
320.374328762293
 31
0.0
 73
     2
  0
ENDBLK
  5
    87
  8
0
  6
CONTINUOUS
 62
     7
  0
BLOCK
  5
    88
  8
0
  6
CONTINUOUS
 62
     7
  2
*UDIM3074
 70
    65
 10
0.0
 20
0.0
 30
0.0
  3
*UDIM3074
  0
LINE
  5
    89
  8
0
  6
CONTINUOUS
 62
     7
 10
230.05769315362
 20
263.740230971308
 30
0.0
 11
230.05769315362
 21
231.902677132871
 31
0.0
  0
LINE
  5
    8A
  8
0
  6
CONTINUOUS
 62
     7
 10
232.457693189383
 20
289.774328321218
 30
0.0
 11
232.457693189383
 21
231.902677132871
 31
0.0
  0
LINE
  5
    8B
  8
0
  6
CONTINUOUS
 62
     7
 10
219.657693227927
 20
233.902677132871
 30
0.0
 11
237.457693189383
 21
233.902677132871
 31
0.0
  0
LINE
  5
    8C
  8
0
  6
CONTINUOUS
 62
     7
 10
227.159915680409
 20
233.126219976452
 30
0.0
 11
230.05769315362
 21
233.902677132871
 31
0.0
  0
LINE
  5
    8D
  8
0
  6
CONTINUOUS
 62
     7
 10
230.05769315362
 20
233.902677132871
 30
0.0
 11
227.159915680409
 21
234.67913428929
 31
0.0
  0
LINE
  5
    8E
  8
0
  6
CONTINUOUS
 62
     7
 10
235.355470662593
 20
234.67913428929
 30
0.0
 11
232.457693189383
 21
233.902677132871
 31
0.0
  0
LINE
  5
    8F
  8
0
  6
CONTINUOUS
 62
     7
 10
232.457693189383
 20
233.902677132871
 30
0.0
 11
235.355470662593
 21
233.126219976452
 31
0.0
  0
TEXT
  5
    90
  8
0
  6
CONTINUOUS
 62
     7
 10
222.857693190773
 20
234.902677132871
 30
0.0
 40
2.99999994933605
  1
3
 41
0.933333333333333
 72
     1
 11
223.957693172197
 21
236.402677107539
 31
0.0
 73
     2
  0
TEXT
  5
    91
  8
0
  6
CONTINUOUS
 62
     7
 10
219.657693227927
 20
234.902677132871
 30
0.0
 40
2.99999994933605
  1
_
 41
0.933333333333333
 72
     1
 11
220.75769320935
 21
236.402677107539
 31
0.0
 73
     2
  0
ENDBLK
  5
    92
  8
0
  6
CONTINUOUS
 62
     7
  0
BLOCK
  5
    93
  8
0
  6
CONTINUOUS
 62
     7
  2
*UDIM3075
 70
    65
 10
0.0
 20
0.0
 30
0.0
  3
*UDIM3075
  0
LINE
  5
    94
  8
0
  6
CONTINUOUS
 62
     7
 10
232.457693189383
 20
320.574328780174
 30
0.0
 11
232.457693189383
 21
231.902677132871
 31
0.0
  0
LINE
  5
    95
  8
0
  6
CONTINUOUS
 62
     7
 10
314.05545148673
 20
310.974328637123
 30
0.0
 11
314.05545148673
 21
231.902677132871
 31
0.0
  0
LINE
  5
    96
  8
0
  6
CONTINUOUS
 62
     7
 10
232.457693189383
 20
233.902677132871
 30
0.0
 11
314.05545148673
 21
233.902677132871
 31
0.0
  0
LINE
  5
    97
  8
0
  6
CONTINUOUS
 62
     7
 10
235.355470662593
 20
234.67913428929
 30
0.0
 11
232.457693189383
 21
233.902677132871
 31
0.0
  0
LINE
  5
    98
  8
0
  6
CONTINUOUS
 62
     7
 10
232.457693189383
 20
233.902677132871
 30
0.0
 11
235.355470662593
 21
233.126219976452
 31
0.0
  0
LINE
  5
    99
  8
0
  6
CONTINUOUS
 62
     7
 10
311.157674013519
 20
233.126219976452
 30
0.0
 11
314.05545148673
 21
233.902677132871
 31
0.0
  0
LINE
  5
    9A
  8
0
  6
CONTINUOUS
 62
     7
 10
314.05545148673
 20
233.902677132871
 30
0.0
 11
311.157674013519
 21
234.67913428929
 31
0.0
  0
TEXT
  5
    9B
  8
0
  6
CONTINUOUS
 62
     7
 10
269.356572403919
 20
234.902677132871
 30
0.0
 40
2.99999994933605
  1
102
 41
0.933333333333333
 72
     1
 11
273.256572338056
 21
236.402677107539
 31
0.0
 73
     2
  0
ENDBLK
  5
    9C
  8
0
  6
CONTINUOUS
 62
     7
  0
BLOCK
  5
    9D
  8
0
  6
CONTINUOUS
 62
     7
  2
*UDIM3076
 70
    65
 10
0.0
 20
0.0
 30
0.0
  3
*UDIM3076
  0
LINE
  5
    9E
  8
0
  6
CONTINUOUS
 62
     7
 10
222.921455805518
 20
320.374328762293
 30
0.0
 11
204.939765429523
 21
320.374328762293
 31
0.0
  0
LINE
  5
    9F
  8
0
  6
CONTINUOUS
 62
     7
 10
244.007693376392
 20
361.974329382181
 30
0.0
 11
204.939765429523
 21
361.974329382181
 31
0.0
  0
LINE
  5
    A0
  8
0
  6
CONTINUOUS
 62
     7
 10
206.939765429523
 20
320.374328762293
 30
0.0
 11
206.939765429523
 21
361.974329382181
 31
0.0
  0
LINE
  5
    A1
  8
0
  6
CONTINUOUS
 62
     7
 10
206.163308273105
 20
323.272106235503
 30
0.0
 11
206.939765429523
 21
320.374328762293
 31
0.0
  0
LINE
  5
    A2
  8
0
  6
CONTINUOUS
 62
     7
 10
206.939765429523
 20
320.374328762293
 30
0.0
 11
207.716222585942
 21
323.272106235503
 31
0.0
  0
LINE
  5
    A3
  8
0
  6
CONTINUOUS
 62
     7
 10
207.716222585942
 20
359.076551908971
 30
0.0
 11
206.939765429523
 21
361.974329382181
 31
0.0
  0
LINE
  5
    A4
  8
0
  6
CONTINUOUS
 62
     7
 10
206.939765429523
 20
361.974329382181
 30
0.0
 11
206.163308273105
 21
359.076551908971
 31
0.0
  0
TEXT
  5
    A5
  8
0
  6
CONTINUOUS
 62
     7
 10
205.939765429526
 20
338.674329114459
 30
0.0
 40
2.99999994933605
  1
52
 50
90.0
 41
0.933333333333333
 72
     1
 11
204.439765454855
 21
341.174329072237
 31
0.0
 73
     2
  0
ENDBLK
  5
    A6
  8
0
  6
CONTINUOUS
 62
     7
  0
BLOCK
  5
    A7
  8
0
  6
CONTINUOUS
 62
     7
  2
DADO
 70
    64
 10
0.0
 20
0.0
 30
0.0
  3
DADO
  0
POINT
  5
    A8
  8
0
  6
CONTINUOUS
 62
     7
 10
0.0
 20
0.0
 30
0.0
  0
ARC
  5
    A9
  8
0
  6
CONTINUOUS
 62
     7
 10
-5.0899999999997
 20
-1.4210854715202E-14
 30
0.0
 40
5.08999999999974
 50
334.391467869424
 51
385.608532130576
  0
ARC
  5
    AA
  8
0
  6
CONTINUOUS
 62
     7
 10
-5.0899999999997
 20
-1.4210854715202E-14
 30
0.0
 40
5.08999999999974
 50
334.391467869424
 51
385.608532130576
  0
ARC
  5
    AB
  8
0
  6
CONTINUOUS
 62
     7
 10
-0.94722499999996
 20
3.03499999999998
 30
0.0
 40
0.947225000000001
 50
298.173448635746
 51
421.826551364258
  0
LINE
  5
    AC
  8
0
  6
CONTINUOUS
 62
     7
 10
-3.50000000000001
 20
3.87
 30
0.0
 11
-0.499999999999954
 21
3.87
 31
0.0
  0
ARC
  5
    AD
  8
0
  6
CONTINUOUS
 62
     7
 10
-3.05277500000004
 20
3.03499999999998
 30
0.0
 40
0.947225000000001
 50
118.173448635742
 51
241.826551364254
  0
ARC
  5
    AE
  8
0
  6
CONTINUOUS
 62
     7
 10
1.0899999999997
 20
-1.4210854715202E-14
 30
0.0
 40
5.08999999999974
 50
154.391467869424
 51
205.608532130576
  0
LINE
  5
    AF
  8
0
  6
CONTINUOUS
 62
     7
 10
-8.0
 20
1.5
 30
0.0
 11
-4.0
 21
1.5
 31
0.0
  0
LINE
  5
    B0
  8
0
  6
CONTINUOUS
 62
     7
 10
-7.49999999999999
 20
2.0
 30
0.0
 11
-4.0
 21
2.0
 31
0.0
  0
LINE
  5
    B1
  8
0
  6
CONTINUOUS
 62
     7
 10
-8.0
 20
-1.5
 30
0.0
 11
-8.0
 21
1.5
 31
0.0
  0
LINE
  5
    B2
  8
0
  6
DASHDOT
 62
     7
 10
-9.54698811797346
 20
0.0
 30
0.0
 11
0.0
 21
0.0
 31
0.0
  0
LINE
  5
    B3
  8
0
  6
CONTINUOUS
 62
     7
 10
-7.99999999999999
 20
1.5
 30
0.0
 11
-7.49999999999999
 21
2.00000000000001
 31
0.0
  0
LINE
  5
    B4
  8
0
  6
CONTINUOUS
 62
     7
 10
-7.5
 20
-2.0
 30
0.0
 11
-7.5
 21
2.0
 31
0.0
  0
LINE
  5
    B5
  8
0
  6
CONTINUOUS
 62
     7
 10
-8.0
 20
-1.49999999999999
 30
0.0
 11
-7.49999999999999
 21
-2.0
 31
0.0
  0
LINE
  5
    B6
  8
0
  6
CONTINUOUS
 62
     7
 10
-7.5
 20
-2.0
 30
0.0
 11
-4.0
 21
-2.0
 31
0.0
  0
ARC
  5
    B7
  8
0
  6
CONTINUOUS
 62
     7
 10
-3.05277499999966
 20
-3.035
 30
0.0
 40
0.947225000000154
 50
118.173448635768
 51
241.826551364238
  0
LINE
  5
    B8
  8
0
  6
CONTINUOUS
 62
     7
 10
-4.0
 20
-3.035
 30
0.0
 11
-4.0
 21
3.03499999999998
 31
0.0
  0
LINE
  5
    B9
  8
0
  6
CONTINUOUS
 62
     7
 10
-3.50000000000001
 20
-2.2
 30
0.0
 11
-0.499999999999972
 21
-2.2
 31
0.0
  0
ARC
  5
    BA
  8
0
  6
CONTINUOUS
 62
     7
 10
-0.947225000000337
 20
-3.035
 30
0.0
 40
0.947225000000154
 50
298.173448635762
 51
421.826551364232
  0
ARC
  5
    BB
  8
0
  6
CONTINUOUS
 62
     7
 10
-0.947225000000337
 20
-3.035
 30
0.0
 40
0.947225000000154
 50
298.173448635762
 51
421.826551364232
  0
LINE
  5
    BC
  8
0
  6
CONTINUOUS
 62
     7
 10
-3.50000000000011
 20
-3.87
 30
0.0
 11
-0.499999999999968
 21
-3.87
 31
0.0
  0
LINE
  5
    BD
  8
0
  6
CONTINUOUS
 62
     7
 10
-3.50000000000009
 20
2.2
 30
0.0
 11
-0.499999999999876
 21
2.2
 31
0.0
  0
LINE
  5
    BE
  8
0
  6
CONTINUOUS
 62
     7
 10
0.0
 20
-3.035
 30
0.0
 11
0.0
 21
3.03499999999998
 31
0.0
  0
LINE
  5
    BF
  8
0
  6
CONTINUOUS
 62
     7
 10
-8.0
 20
-1.5
 30
0.0
 11
-4.0
 21
-1.5
 31
0.0
  0
ENDBLK
  5
    C0
  8
0
  6
CONTINUOUS
 62
     7
  0
BLOCK
  5
    C1
  8
0
  6
CONTINUOUS
 62
     7
  2
*UDIM3077
 70
    65
 10
0.0
 20
0.0
 30
0.0
  3
*UDIM3077
  0
LINE
  5
    C2
  8
0
  6
CONTINUOUS
 62
     7
 10
251.057693481445
 20
357.374329313636
 30
0.0
 11
213.115402181148
 21
357.374329313636
 31
0.0
  0
LINE
  5
    C3
  8
0
  6
CONTINUOUS
 62
     7
 10
249.457693457603
 20
366.574329450727
 30
0.0
 11
213.115402181148
 21
366.574329450727
 31
0.0
  0
LINE
  5
    C4
  8
0
  6
CONTINUOUS
 62
     7
 10
215.115402181148
 20
352.374329313636
 30
0.0
 11
215.115402181148
 21
381.561719642292
 31
0.0
  0
LINE
  5
    C5
  8
0
  6
CONTINUOUS
 62
     7
 10
215.891859337567
 20
354.476551840425
 30
0.0
 11
215.115402181148
 21
357.374329313636
 31
0.0
  0
LINE
  5
    C6
  8
0
  6
CONTINUOUS
 62
     7
 10
215.115402181148
 20
357.374329313636
 30
0.0
 11
214.33894502473
 21
354.476551840425
 31
0.0
  0
LINE
  5
    C7
  8
0
  6
CONTINUOUS
 62
     7
 10
214.33894502473
 20
369.472106923937
 30
0.0
 11
215.115402181148
 21
366.574329450727
 31
0.0
  0
LINE
  5
    C8
  8
0
  6
CONTINUOUS
 62
     7
 10
215.115402181148
 20
366.574329450727
 30
0.0
 11
215.891859337567
 21
369.472106923937
 31
0.0
  0
TEXT
  5
    C9
  8
0
  6
CONTINUOUS
 62
     7
 10
214.115402181155
 20
370.961719821307
 30
0.0
 40
2.99999994933605
  1
11,5
 50
90.0
 41
0.933333333333333
 72
     1
 11
212.61540220648
 21
376.261719731799
 31
0.0
 73
     2
  0
ENDBLK
  5
    CA
  8
0
  6
CONTINUOUS
 62
     7
  0
BLOCK
  5
    CB
  8
0
  6
CONTINUOUS
 62
     7
  2
*HATCH2582
 70
    65
 10
0.0
 20
0.0
 30
0.0
  3
*HATCH2582
  0
LINE
  5
    CC
  8
0
  6
CONTINUOUS
 62
    92
 10
250.057693451643
 20
278.433184338493
 30
0.0
 11
251.657693475485
 21
276.833181262893
 31
0.0
  0
LINE
  5
    CD
  8
0
  6
CONTINUOUS
 62
    92
 10
250.057693451643
 20
281.827300600007
 30
0.0
 11
251.657693475485
 21
280.227294472649
 31
0.0
  0
LINE
  5
    CE
  8
0
  6
CONTINUOUS
 62
    92
 10
250.359495900598
 20
284.919610216398
 30
0.0
 11
251.661481326875
 21
283.617623502661
 31
0.0
  0
LINE
  5
    CF
  8
0
  6
CONTINUOUS
 62
    92
 10
252.125966752593
 20
286.547251537039
 30
0.0
 11
253.498889086264
 21
285.174328237772
 31
0.0
  0
LINE
  5
    D0
  8
0
  6
CONTINUOUS
 62
    92
 10
255.293001604606
 20
286.774328261614
 30
0.0
 11
256.8929997211
 21
285.174328237772
 31
0.0
  0
LINE
  5
    D1
  8
0
  6
CONTINUOUS
 62
    92
 10
258.687112525544
 20
286.774328261614
 30
0.0
 11
260.287110260567
 21
285.174328237772
 31
0.0
  0
LINE
  5
    D2
  8
0
  6
CONTINUOUS
 62
    92
 10
262.081222683542
 20
286.774328261614
 30
0.0
 11
264.268871489334
 21
284.586675641125
 31
0.0
  0
LINE
  5
    D3
  8
0
  6
CONTINUOUS
 62
    92
 10
267.075331339503
 20
285.174328237772
 30
0.0
 11
268.675329837466
 21
283.57432821393
 31
0.0
  0
LINE
  5
    D4
  8
0
  6
CONTINUOUS
 62
    92
 10
270.469441497501
 20
285.174328237772
 30
0.0
 11
272.069439995464
 21
283.57432821393
 31
0.0
  0
LINE
  5
    D5
  8
0
  6
CONTINUOUS
 62
    92
 10
273.863551655499
 20
285.174328237772
 30
0.0
 11
275.463550153462
 21
283.57432821393
 31
0.0
  0
LINE
  5
    D6
  8
0
  6
CONTINUOUS
 62
    92
 10
277.257661813497
 20
285.174328237772
 30
0.0
 11
278.557693876326
 21
283.874294649064
 31
0.0
  0
ENDBLK
  5
    D7
  8
0
  6
CONTINUOUS
 62
     7
  0
BLOCK
  5
    D8
  8
0
  6
CONTINUOUS
 62
     7
  2
*HATCH2583
 70
    65
 10
0.0
 20
0.0
 30
0.0
  3
*HATCH2583
  0
LINE
  5
    D9
  8
0
  6
CONTINUOUS
 62
    92
 10
233.040029623841
 20
281.174328178167
 30
0.0
 11
232.457693189383
 21
280.591991743709
 31
0.0
  0
LINE
  5
    DA
  8
0
  6
CONTINUOUS
 62
    92
 10
235.281806695821
 20
280.02199356627
 30
0.0
 11
234.034141271955
 21
278.774328142405
 31
0.0
  0
LINE
  5
    DB
  8
0
  6
CONTINUOUS
 62
    92
 10
238.628254499593
 20
279.974328160286
 30
0.0
 11
237.428254481711
 21
278.774328142405
 31
0.0
  0
LINE
  5
    DC
  8
0
  6
CONTINUOUS
 62
    92
 10
242.022367709349
 20
279.974328160286
 30
0.0
 11
240.822366928528
 21
278.774328142405
 31
0.0
  0
LINE
  5
    DD
  8
0
  6
CONTINUOUS
 62
    92
 10
245.416480919105
 20
279.974328160286
 30
0.0
 11
244.216479375344
 21
278.774328142405
 31
0.0
  0
LINE
  5
    DE
  8
0
  6
CONTINUOUS
 62
    92
 10
248.057693421841
 20
279.221428979145
 30
0.0
 11
247.6105925851
 21
278.774328142405
 31
0.0
  0
ENDBLK
  5
    DF
  8
0
  6
CONTINUOUS
 62
     7
  0
BLOCK
  5
    E0
  8
0
  6
CONTINUOUS
 62
     7
  2
*HATCH2584
 70
    65
 10
0.0
 20
0.0
 30
0.0
  3
*HATCH2584
  0
LINE
  5
    E1
  8
0
  6
CONTINUOUS
 62
    92
 10
263.175268720352
 20
273.974328070879
 30
0.0
 11
262.057693630457
 21
272.856752980984
 31
0.0
  0
LINE
  5
    E2
  8
0
  6
CONTINUOUS
 62
    92
 10
266.569380404229
 20
273.974328070879
 30
0.0
 11
264.169381131406
 21
271.574328035116
 31
0.0
  0
LINE
  5
    E3
  8
0
  6
CONTINUOUS
 62
    92
 10
269.963492088106
 20
273.974328070879
 30
0.0
 11
267.563493578222
 21
271.574328035116
 31
0.0
  0
LINE
  5
    E4
  8
0
  6
CONTINUOUS
 62
    92
 10
272.057693779469
 20
272.674416552485
 30
0.0
 11
269.657693743706
 21
270.274416516723
 31
0.0
  0
LINE
  5
    E5
  8
0
  6
CONTINUOUS
 62
    92
 10
272.057693779469
 20
269.280303342729
 30
0.0
 11
271.151718424172
 21
268.374327987433
 31
0.0
  0
ENDBLK
  5
    E6
  8
0
  6
CONTINUOUS
 62
     7
  0
BLOCK
  5
    E7
  8
0
  6
CONTINUOUS
 62
     7
  2
*HATCH2585
 70
    65
 10
0.0
 20
0.0
 30
0.0
  3
*HATCH2585
  0
LINE
  5
    E8
  8
0
  6
CONTINUOUS
 62
    92
 10
234.057693213224
 20
288.980216661183
 30
0.0
 11
232.457693189383
 21
287.380216637342
 31
0.0
  0
LINE
  5
    E9
  8
0
  6
CONTINUOUS
 62
    92
 10
234.057693213224
 20
285.586104977306
 30
0.0
 11
232.457693189383
 21
283.986104953465
 31
0.0
  0
LINE
  5
    EA
  8
0
  6
CONTINUOUS
 62
    92
 10
234.057693213224
 20
282.19199176755
 30
0.0
 11
233.200028710698
 21
281.334328790903
 31
0.0
  0
ENDBLK
  5
    EB
  8
0
  6
CONTINUOUS
 62
     7
  0
BLOCK
  5
    EC
  8
0
  6
CONTINUOUS
 62
     7
  2
*HATCH2586
 70
    65
 10
0.0
 20
0.0
 30
0.0
  3
*HATCH2586
  0
LINE
  5
    ED
  8
0
  6
CONTINUOUS
 62
    92
 10
233.78721896603
 20
366.774329453707
 30
0.0
 11
232.457693189383
 21
365.444806728817
 31
0.0
  0
LINE
  5
    EE
  8
0
  6
CONTINUOUS
 62
    92
 10
237.181330649907
 20
366.774329453707
 30
0.0
 11
235.581330626065
 21
365.174329429865
 31
0.0
  0
LINE
  5
    EF
  8
0
  6
CONTINUOUS
 62
    92
 10
240.575443096723
 20
366.774329453707
 30
0.0
 11
238.975443835821
 21
365.174329429865
 31
0.0
  0
LINE
  5
    F0
  8
0
  6
CONTINUOUS
 62
    92
 10
243.969557069419
 20
366.774329453707
 30
0.0
 11
242.369556282637
 21
365.174329429865
 31
0.0
  0
LINE
  5
    F1
  8
0
  6
CONTINUOUS
 62
    92
 10
234.369555400489
 20
357.174329310656
 30
0.0
 11
232.457693189383
 21
355.262467099549
 31
0.0
  0
LINE
  5
    F2
  8
0
  6
CONTINUOUS
 62
    92
 10
247.363669516235
 20
366.774329453707
 30
0.0
 11
245.763669492393
 21
365.174329429865
 31
0.0
  0
LINE
  5
    F3
  8
0
  6
CONTINUOUS
 62
    92
 10
237.763668610245
 20
357.174329310656
 30
0.0
 11
236.163668586403
 21
355.574329286814
 31
0.0
  0
LINE
  5
    F4
  8
0
  6
CONTINUOUS
 62
    92
 10
234.057693213224
 20
353.468353913635
 30
0.0
 11
232.457693189383
 21
351.868353889794
 31
0.0
  0
LINE
  5
    F5
  8
0
  6
CONTINUOUS
 62
    92
 10
248.057693421841
 20
364.074237860738
 30
0.0
 11
246.457693397999
 21
362.474243940412
 31
0.0
  0
LINE
  5
    F6
  8
0
  6
CONTINUOUS
 62
    92
 10
241.157781057061
 20
357.174329310656
 30
0.0
 11
239.557781033219
 21
355.574329286814
 31
0.0
  0
LINE
  5
    F7
  8
0
  6
CONTINUOUS
 62
    92
 10
234.057693213224
 20
350.074240703879
 30
0.0
 11
233.957780186833
 21
349.974329203367
 31
0.0
  0
LINE
  5
    F8
  8
0
  6
CONTINUOUS
 62
    92
 10
248.057693421841
 20
360.68012770274
 30
0.0
 11
246.457693397999
 21
359.080127678898
 31
0.0
  0
LINE
  5
    F9
  8
0
  6
CONTINUOUS
 62
    92
 10
244.551894266817
 20
357.174329310656
 30
0.0
 11
242.951894242975
 21
355.574329286814
 31
0.0
  0
LINE
  5
    FA
  8
0
  6
CONTINUOUS
 62
    92
 10
248.057693421841
 20
357.286014492984
 30
0.0
 11
246.346006689792
 21
355.574329286814
 31
0.0
  0
ENDBLK
  5
    FB
  8
0
  6
CONTINUOUS
 62
     7
  0
BLOCK
  5
    FC
  8
0
  6
CONTINUOUS
 62
     7
  2
*HATCH2587
 70
    65
 10
0.0
 20
0.0
 30
0.0
  3
*HATCH2587
  0
LINE
  5
    FD
  8
0
  6
CONTINUOUS
 62
    92
 10
263.340120865143
 20
369.17432948947
 30
0.0
 11
262.057693630457
 21
367.891901491844
 31
0.0
  0
LINE
  5
    FE
  8
0
  6
CONTINUOUS
 62
    92
 10
269.657693743706
 20
372.097791447095
 30
0.0
 11
267.257693707943
 21
369.697791411332
 31
0.0
  0
LINE
  5
    FF
  8
0
  6
CONTINUOUS
 62
    92
 10
266.734233311959
 20
369.17432948947
 30
0.0
 11
264.334233276196
 21
366.774329453707
 31
0.0
  0
LINE
  5
   100
  8
0
  6
CONTINUOUS
 62
    92
 10
270.128346521715
 20
369.17432948947
 30
0.0
 11
267.728346485952
 21
366.774329453707
 31
0.0
  0
LINE
  5
   101
  8
0
  6
CONTINUOUS
 62
    92
 10
272.057693779469
 20
367.709565063346
 30
0.0
 11
271.122458169829
 21
366.774329453707
 31
0.0
  0
ENDBLK
  5
   102
  8
0
  6
CONTINUOUS
 62
     7
  0
BLOCK
  5
   103
  8
0
  6
CONTINUOUS
 62
     7
  2
*HATCH2588
 70
    65
 10
0.0
 20
0.0
 30
0.0
  3
*HATCH2588
  0
LINE
  5
   104
  8
0
  6
CONTINUOUS
 62
    92
 10
248.816480206829
 20
283.37432821095
 30
0.0
 11
248.057693421841
 21
282.615542188901
 31
0.0
  0
LINE
  5
   105
  8
0
  6
CONTINUOUS
 62
    92
 10
250.057693451643
 20
281.221429008947
 30
0.0
 11
248.057693421841
 21
279.221428979145
 31
0.0
  0
LINE
  5
   106
  8
0
  6
CONTINUOUS
 62
    92
 10
250.057693451643
 20
277.827315799191
 30
0.0
 11
248.057693421841
 21
275.827315769389
 31
0.0
  0
LINE
  5
   107
  8
0
  6
CONTINUOUS
 62
    92
 10
250.057693451643
 20
274.433202589436
 30
0.0
 11
249.798817410188
 21
274.174328073859
 31
0.0
  0
ENDBLK
  5
   108
  8
0
  6
CONTINUOUS
 62
     7
  0
BLOCK
  5
   109
  8
0
  6
CONTINUOUS
 62
     7
  2
*HATCH2589
 70
    65
 10
0.0
 20
0.0
 30
0.0
  3
*HATCH2589
  0
LINE
  5
   10A
  8
0
  6
CONTINUOUS
 62
    92
 10
261.461155840806
 20
275.65432687521
 30
0.0
 11
259.981155513577
 21
274.174328073859
 31
0.0
  0
ENDBLK
  5
   10B
  8
0
  6
CONTINUOUS
 62
     7
  0
BLOCK
  5
   10C
  8
0
  6
CONTINUOUS
 62
     7
  2
*HATCH2590
 70
    65
 10
0.0
 20
0.0
 30
0.0
  3
*HATCH2590
  0
LINE
  5
   10D
  8
0
  6
CONTINUOUS
 62
    92
 10
262.392930757034
 20
283.37432821095
 30
0.0
 11
260.912931192744
 21
281.894329409599
 31
0.0
  0
ENDBLK
  5
   10E
  8
0
  6
CONTINUOUS
 62
     7
  0
BLOCK
  5
   10F
  8
0
  6
CONTINUOUS
 62
     7
  2
*HATCH2591
 70
    65
 10
0.0
 20
0.0
 30
0.0
  3
*HATCH2591
  0
LINE
  5
   110
  8
0
  6
CONTINUOUS
 62
    92
 10
248.816480206829
 20
283.37432821095
 30
0.0
 11
248.057693421841
 21
282.615542188901
 31
0.0
  0
LINE
  5
   111
  8
0
  6
CONTINUOUS
 62
    92
 10
250.057693451643
 20
281.221429008947
 30
0.0
 11
248.057693421841
 21
279.221428979145
 31
0.0
  0
LINE
  5
   112
  8
0
  6
CONTINUOUS
 62
    92
 10
250.057693451643
 20
277.827315799191
 30
0.0
 11
248.057693421841
 21
275.827315769389
 31
0.0
  0
LINE
  5
   113
  8
0
  6
CONTINUOUS
 62
    92
 10
250.057693451643
 20
274.433202589436
 30
0.0
 11
249.798817410188
 21
274.174328073859
 31
0.0
  0
ENDBLK
  5
   114
  8
0
  6
CONTINUOUS
 62
     7
  0
BLOCK
  5
   115
  8
0
  6
CONTINUOUS
 62
     7
  2
*HATCH2592
 70
    65
 10
0.0
 20
0.0
 30
0.0
  3
*HATCH2592
  0
LINE
  5
   116
  8
0
  6
CONTINUOUS
 62
    92
 10
261.461155840806
 20
275.65432687521
 30
0.0
 11
259.981155513577
 21
274.174328073859
 31
0.0
  0
ENDBLK
  5
   117
  8
0
  6
CONTINUOUS
 62
     7
  0
BLOCK
  5
   118
  8
0
  6
CONTINUOUS
 62
     7
  2
*HATCH2593
 70
    65
 10
0.0
 20
0.0
 30
0.0
  3
*HATCH2593
  0
LINE
  5
   119
  8
0
  6
CONTINUOUS
 62
    92
 10
262.392930757034
 20
283.37432821095
 30
0.0
 11
260.912931192744
 21
281.894329409599
 31
0.0
  0
ENDBLK
  5
   11A
  8
0
  6
CONTINUOUS
 62
     7
  0
BLOCK
  5
   11B
  8
0
  6
CONTINUOUS
 62
     7
  2
*HATCH2594
 70
    65
 10
0.0
 20
0.0
 30
0.0
  3
*HATCH2594
  0
LINE
  5
   11C
  8
0
  6
CONTINUOUS
 62
    92
 10
250.057693451643
 20
366.07423789054
 30
0.0
 11
248.057693421841
 21
364.074237860738
 31
0.0
  0
LINE
  5
   11D
  8
0
  6
CONTINUOUS
 62
    92
 10
250.057693451643
 20
362.680127732542
 30
0.0
 11
248.057693421841
 21
360.680124650982
 31
0.0
  0
LINE
  5
   11E
  8
0
  6
CONTINUOUS
 62
    92
 10
250.057693451643
 20
359.286014522786
 30
0.0
 11
248.146006716614
 21
357.374329313636
 31
0.0
  0
ENDBLK
  5
   11F
  8
0
  6
CONTINUOUS
 62
     7
  0
BLOCK
  5
   120
  8
0
  6
CONTINUOUS
 62
     7
  2
*HATCH2595
 70
    65
 10
0.0
 20
0.0
 30
0.0
  3
*HATCH2595
  0
LINE
  5
   121
  8
0
  6
CONTINUOUS
 62
    92
 10
259.808345147232
 20
358.854328114986
 30
0.0
 11
259.657693594694
 21
358.703678088327
 31
0.0
  0
LINE
  5
   122
  8
0
  6
CONTINUOUS
 62
    92
 10
262.457693636417
 20
358.109564920295
 30
0.0
 11
261.722458029758
 21
357.374329313636
 31
0.0
  0
ENDBLK
  5
   123
  8
0
  6
CONTINUOUS
 62
     7
  0
BLOCK
  5
   124
  8
0
  6
CONTINUOUS
 62
     7
  2
*HATCH2596
 70
    65
 10
0.0
 20
0.0
 30
0.0
  3
*HATCH2596
  0
LINE
  5
   125
  8
0
  6
CONTINUOUS
 62
    92
 10
260.74012006346
 20
366.574329450727
 30
0.0
 11
259.657693594694
 21
365.491901456081
 31
0.0
  0
ENDBLK
  5
   126
  8
0
  6
CONTINUOUS
 62
     7
  0
BLOCK
  5
   127
  8
0
  6
CONTINUOUS
 62
     7
  2
*HATCH2597
 70
    65
 10
0.0
 20
0.0
 30
0.0
  3
*HATCH2597
  0
LINE
  5
   128
  8
0
  6
CONTINUOUS
 62
    92
 10
272.351718442053
 20
269.574328005314
 30
0.0
 11
272.057693779469
 21
269.280303342729
 31
0.0
  0
LINE
  5
   129
  8
0
  6
CONTINUOUS
 62
    92
 10
275.745831651809
 20
269.574328005314
 30
0.0
 11
274.545831633928
 21
268.374327987433
 31
0.0
  0
LINE
  5
   12A
  8
0
  6
CONTINUOUS
 62
    92
 10
278.557693876326
 20
268.992077020075
 30
0.0
 11
277.939944843683
 21
268.374327987433
 31
0.0
  0
ENDBLK
  5
   12B
  8
0
  6
CONTINUOUS
 62
     7
  0
BLOCK
  5
   12C
  8
0
  6
CONTINUOUS
 62
     7
  2
*HATCH2598
 70
    65
 10
0.0
 20
0.0
 30
0.0
  3
*HATCH2598
  0
LINE
  5
   12D
  8
0
  6
CONTINUOUS
 62
    92
 10
271.963493643788
 20
275.974328100681
 30
0.0
 11
270.363493619946
 21
274.37432807684
 31
0.0
  0
LINE
  5
   12E
  8
0
  6
CONTINUOUS
 62
    92
 10
275.357606853543
 20
275.974328100681
 30
0.0
 11
273.757606829702
 21
274.37432807684
 31
0.0
  0
LINE
  5
   12F
  8
0
  6
CONTINUOUS
 62
    92
 10
278.557693876326
 20
275.780303439587
 30
0.0
 11
277.151720039457
 21
274.37432807684
 31
0.0
  0
ENDBLK
  5
   130
  8
0
  6
CONTINUOUS
 62
     7
  0
BLOCK
  5
   131
  8
0
  6
CONTINUOUS
 62
     7
  2
*HATCH2599
 70
    65
 10
0.0
 20
0.0
 30
0.0
  3
*HATCH2599
  0
LINE
  5
   132
  8
0
  6
CONTINUOUS
 62
    92
 10
268.981157173566
 20
283.17432820797
 30
0.0
 11
268.257693722844
 21
282.450866283127
 31
0.0
  0
LINE
  5
   133
  8
0
  6
CONTINUOUS
 62
    92
 10
272.375268857443
 20
283.17432820797
 30
0.0
 11
270.775268833601
 21
281.574328184128
 31
0.0
  0
LINE
  5
   134
  8
0
  6
CONTINUOUS
 62
    92
 10
275.769382067199
 20
283.17432820797
 30
0.0
 11
274.169382043357
 21
281.574328184128
 31
0.0
  0
LINE
  5
   135
  8
0
  6
CONTINUOUS
 62
    92
 10
278.557693876326
 20
282.568526807341
 30
0.0
 11
277.563495253113
 21
281.574328184128
 31
0.0
  0
ENDBLK
  5
   136
  8
0
  6
CONTINUOUS
 62
     7
  0
BLOCK
  5
   137
  8
0
  6
CONTINUOUS
 62
     7
  2
*HATCH2600
 70
    65
 10
0.0
 20
0.0
 30
0.0
  3
*HATCH2600
  0
LINE
  5
   138
  8
0
  6
CONTINUOUS
 62
    92
 10
277.887134173951
 20
353.174329251051
 30
0.0
 11
276.057693839073
 21
351.344888916173
 31
0.0
  0
ENDBLK
  5
   139
  8
0
  6
CONTINUOUS
 62
     7
  0
BLOCK
  5
   13A
  8
0
  6
CONTINUOUS
 62
     7
  2
*HATCH2601
 70
    65
 10
0.0
 20
0.0
 30
0.0
  3
*HATCH2601
  0
LINE
  5
   13B
  8
0
  6
CONTINUOUS
 62
    92
 10
269.710682941273
 20
358.574329331517
 30
0.0
 11
268.710682926372
 21
357.574329316616
 31
0.0
  0
LINE
  5
   13C
  8
0
  6
CONTINUOUS
 62
    92
 10
273.704796159969
 20
359.174329340458
 30
0.0
 11
272.104796136128
 21
357.574329316616
 31
0.0
  0
LINE
  5
   13D
  8
0
  6
CONTINUOUS
 62
    92
 10
277.098909369725
 20
359.174329340458
 30
0.0
 11
275.498909345883
 21
357.574329316616
 31
0.0
  0
ENDBLK
  5
   13E
  8
0
  6
CONTINUOUS
 62
     7
  0
BLOCK
  5
   13F
  8
0
  6
CONTINUOUS
 62
     7
  2
*HATCH2602
 70
    65
 10
0.0
 20
0.0
 30
0.0
  3
*HATCH2602
  0
LINE
  5
   140
  8
0
  6
CONTINUOUS
 62
    92
 10
270.722458163869
 20
366.374329447746
 30
0.0
 11
269.722458148968
 21
365.374329432845
 31
0.0
  0
LINE
  5
   141
  8
0
  6
CONTINUOUS
 62
    92
 10
274.118773216919
 20
366.37653281692
 30
0.0
 11
272.516571349783
 21
364.774329423904
 31
0.0
  0
LINE
  5
   142
  8
0
  6
CONTINUOUS
 62
    92
 10
277.512886426675
 20
366.37653281692
 30
0.0
 11
275.910684559539
 21
364.774329423904
 31
0.0
  0
ENDBLK
  5
   143
  8
0
  6
CONTINUOUS
 62
     7
  0
BLOCK
  5
   144
  8
0
  6
CONTINUOUS
 62
     7
  2
*HATCH2603
 70
    65
 10
0.0
 20
0.0
 30
0.0
  3
*HATCH2603
  0
LINE
  5
   145
  8
0
  6
CONTINUOUS
 62
    92
 10
273.277690440714
 20
372.323676460227
 30
0.0
 11
272.057693779469
 21
371.103675221344
 31
0.0
  0
LINE
  5
   146
  8
0
  6
CONTINUOUS
 62
    92
 10
276.67180365047
 20
372.323676460227
 30
0.0
 11
272.504384154777
 21
368.156256964533
 31
0.0
  0
LINE
  5
   147
  8
0
  6
CONTINUOUS
 62
    92
 10
278.557693876326
 20
370.81544889869
 30
0.0
 11
275.898497364533
 21
368.156256964533
 31
0.0
  0
ENDBLK
  5
   148
  8
0
  6
CONTINUOUS
 62
     7
  0
BLOCK
  5
   149
  8
0
  6
CONTINUOUS
 62
     7
  2
*HATCH2604
 70
    65
 10
0.0
 20
0.0
 30
0.0
  3
*HATCH2604
  0
LINE
  5
   14A
  8
0
  6
CONTINUOUS
 62
    52
 10
253.210592000975
 20
284.374328225851
 30
0.0
 11
251.657693475485
 21
282.821429032789
 31
0.0
  0
LINE
  5
   14B
  8
0
  6
CONTINUOUS
 62
    52
 10
254.907648510485
 20
284.374328225851
 30
0.0
 11
251.657693475485
 21
281.12437395379
 31
0.0
  0
LINE
  5
   14C
  8
0
  6
CONTINUOUS
 62
    52
 10
256.604705115363
 20
284.374328225851
 30
0.0
 11
251.657693475485
 21
279.427318874791
 31
0.0
  0
LINE
  5
   14D
  8
0
  6
CONTINUOUS
 62
    52
 10
258.301761720241
 20
284.374328225851
 30
0.0
 11
251.657693475485
 21
277.730263795792
 31
0.0
  0
LINE
  5
   14E
  8
0
  6
CONTINUOUS
 62
    52
 10
259.657693594694
 20
284.033202732487
 30
0.0
 11
251.657693475485
 21
276.033202613277
 31
0.0
  0
LINE
  5
   14F
  8
0
  6
CONTINUOUS
 62
    52
 10
259.657693594694
 20
282.336147653488
 30
0.0
 11
251.657693475485
 21
274.336147534278
 31
0.0
  0
LINE
  5
   150
  8
0
  6
CONTINUOUS
 62
    52
 10
259.657693594694
 20
280.639089522731
 30
0.0
 11
252.392930155028
 21
273.374328061938
 31
0.0
  0
LINE
  5
   151
  8
0
  6
CONTINUOUS
 62
    52
 10
259.657693594694
 20
278.942034443732
 30
0.0
 11
254.089986449961
 21
273.374328061938
 31
0.0
  0
LINE
  5
   152
  8
0
  6
CONTINUOUS
 62
    52
 10
259.657693594694
 20
277.244979364733
 30
0.0
 11
255.787042673369
 21
273.374328061938
 31
0.0
  0
LINE
  5
   153
  8
0
  6
CONTINUOUS
 62
    52
 10
259.657693594694
 20
275.547924285734
 30
0.0
 11
257.484098896778
 21
273.374328061938
 31
0.0
  0
LINE
  5
   154
  8
0
  6
CONTINUOUS
 62
    52
 10
259.657693594694
 20
273.850869206735
 30
0.0
 11
259.181155501656
 21
273.374328061938
 31
0.0
  0
ENDBLK
  5
   155
  8
0
  6
CONTINUOUS
 62
     7
  0
BLOCK
  5
   156
  8
0
  6
CONTINUOUS
 62
     7
  2
*HATCH2605
 70
    65
 10
0.0
 20
0.0
 30
0.0
  3
*HATCH2605
  0
LINE
  5
   157
  8
0
  6
CONTINUOUS
 62
    52
 10
258.173275466496
 20
260.487053699981
 30
0.0
 11
256.337336031789
 21
258.651116172623
 31
0.0
  0
LINE
  5
   158
  8
0
  6
CONTINUOUS
 62
    52
 10
259.487539783565
 20
260.104262556582
 30
0.0
 11
257.565082632115
 21
258.181804642193
 31
0.0
  0
LINE
  5
   159
  8
0
  6
CONTINUOUS
 62
    52
 10
260.421087008169
 20
259.340752413369
 30
0.0
 11
259.684846610235
 21
258.604515830132
 31
0.0
  0
ENDBLK
  5
   15A
  8
0
  6
CONTINUOUS
 62
     7
  0
BLOCK
  5
   15B
  8
0
  6
CONTINUOUS
 62
     7
  2
*UDIM3078
 70
    65
 10
0.0
 20
0.0
 30
0.0
  3
*UDIM3078
  0
LINE
  5
   15C
  8
0
  6
CONTINUOUS
 62
     7
 10
252.057693481445
 20
366.574329435825
 30
0.0
 11
252.057693481445
 21
392.388118658008
 31
0.0
  0
LINE
  5
   15D
  8
0
  6
CONTINUOUS
 62
     7
 10
259.657693594694
 20
367.574329450727
 30
0.0
 11
259.657693594694
 21
392.388118658008
 31
0.0
  0
LINE
  5
   15E
  8
0
  6
CONTINUOUS
 62
     7
 10
247.057693481445
 20
390.388118658008
 30
0.0
 11
284.057693283955
 21
390.388118658008
 31
0.0
  0
LINE
  5
   15F
  8
0
  6
CONTINUOUS
 62
     7
 10
249.159916008235
 20
389.611661501589
 30
0.0
 11
252.057693481445
 21
390.388118658008
 31
0.0
  0
LINE
  5
   160
  8
0
  6
CONTINUOUS
 62
     7
 10
252.057693481445
 20
390.388118658008
 30
0.0
 11
249.159916008235
 21
391.164575814426
 31
0.0
  0
LINE
  5
   161
  8
0
  6
CONTINUOUS
 62
     7
 10
262.555471067905
 20
391.164575814426
 30
0.0
 11
259.657693594694
 21
390.388118658008
 31
0.0
  0
LINE
  5
   162
  8
0
  6
CONTINUOUS
 62
     7
 10
259.657693594694
 20
390.388118658008
 30
0.0
 11
262.555471067905
 21
389.611661501589
 31
0.0
  0
TEXT
  5
   163
  8
0
  6
CONTINUOUS
 62
     7
 10
264.657693594694
 20
391.388118658008
 30
0.0
 40
2.99999994933605
  1
9,5
 41
0.933333333333333
 72
     1
 11
268.557693528831
 21
392.888118632676
 31
0.0
 73
     2
  0
TEXT
  5
   164
  8
0
  6
CONTINUOUS
 62
     7
 10
273.457693462968
 20
391.388118658008
 30
0.0
 40
2.99999994933605
  1
x9,5
 41
0.933333333333333
 72
     1
 11
278.757693373462
 21
392.888118632676
 31
0.0
 73
     2
  0
ENDBLK
  5
   165
  8
0
  6
CONTINUOUS
 62
     7
  0
BLOCK
  5
   166
  8
0
  6
CONTINUOUS
 62
     7
  2
*UDIM3079
 70
    65
 10
0.0
 20
0.0
 30
0.0
  3
*UDIM3079
  0
LINE
  5
   167
  8
0
  6
CONTINUOUS
 62
     7
 10
295.255450139502
 20
275.217060417928
 30
0.0
 11
295.255450139502
 21
242.690184680442
 31
0.0
  0
LINE
  5
   168
  8
0
  6
CONTINUOUS
 62
     7
 10
296.855450163344
 20
274.660538670505
 30
0.0
 11
296.855450163344
 21
242.690184680442
 31
0.0
  0
LINE
  5
   169
  8
0
  6
CONTINUOUS
 62
     7
 10
290.255450139502
 20
244.690184680442
 30
0.0
 11
306.636003710397
 21
244.690184680442
 31
0.0
  0
LINE
  5
   16A
  8
0
  6
CONTINUOUS
 62
     7
 10
292.357672666292
 20
243.913727524023
 30
0.0
 11
295.255450139502
 21
244.690184680442
 31
0.0
  0
LINE
  5
   16B
  8
0
  6
CONTINUOUS
 62
     7
 10
295.255450139502
 20
244.690184680442
 30
0.0
 11
292.357672666292
 21
245.46664183686
 31
0.0
  0
LINE
  5
   16C
  8
0
  6
CONTINUOUS
 62
     7
 10
299.753227636555
 20
245.46664183686
 30
0.0
 11
296.855450163344
 21
244.690184680442
 31
0.0
  0
LINE
  5
   16D
  8
0
  6
CONTINUOUS
 62
     7
 10
296.855450163344
 20
244.690184680442
 30
0.0
 11
299.753227636555
 21
243.913727524023
 31
0.0
  0
TEXT
  5
   16E
  8
0
  6
CONTINUOUS
 62
     7
 10
304.436003747551
 20
245.690184680442
 30
0.0
 40
2.99999994933605
  1
2
 41
0.933333333333333
 72
     1
 11
305.536003728974
 21
247.19018465511
 31
0.0
 73
     2
  0
TEXT
  5
   16F
  8
0
  6
CONTINUOUS
 62
     7
 10
301.236003784704
 20
245.690184680442
 30
0.0
 40
2.99999994933605
  1
_
 41
0.933333333333333
 72
     1
 11
302.336003766128
 21
247.19018465511
 31
0.0
 73
     2
  0
ENDBLK
  5
   170
  8
0
  6
CONTINUOUS
 62
     7
  0
BLOCK
  5
   171
  8
0
  6
CONTINUOUS
 62
     7
  2
*UDIM3080
 70
    65
 10
0.0
 20
0.0
 30
0.0
  3
*UDIM3080
  0
LINE
  5
   172
  8
0
  6
CONTINUOUS
 62
     7
 10
232.457693189383
 20
289.774328321218
 30
0.0
 11
232.457693189383
 21
242.690184680442
 31
0.0
  0
LINE
  5
   173
  8
0
  6
CONTINUOUS
 62
     7
 10
295.255450139502
 20
275.217060417928
 30
0.0
 11
295.255450139502
 21
242.690184680442
 31
0.0
  0
LINE
  5
   174
  8
0
  6
CONTINUOUS
 62
     7
 10
232.457693189383
 20
244.690184680442
 30
0.0
 11
295.255450139502
 21
244.690184680442
 31
0.0
  0
LINE
  5
   175
  8
0
  6
CONTINUOUS
 62
     7
 10
235.355470662593
 20
245.46664183686
 30
0.0
 11
232.457693189383
 21
244.690184680442
 31
0.0
  0
LINE
  5
   176
  8
0
  6
CONTINUOUS
 62
     7
 10
232.457693189383
 20
244.690184680442
 30
0.0
 11
235.355470662593
 21
243.913727524023
 31
0.0
  0
LINE
  5
   177
  8
0
  6
CONTINUOUS
 62
     7
 10
292.357672666292
 20
243.913727524023
 30
0.0
 11
295.255450139502
 21
244.690184680442
 31
0.0
  0
LINE
  5
   178
  8
0
  6
CONTINUOUS
 62
     7
 10
295.255450139502
 20
244.690184680442
 30
0.0
 11
292.357672666292
 21
245.46664183686
 31
0.0
  0
TEXT
  5
   179
  8
0
  6
CONTINUOUS
 62
     7
 10
266.506805198375
 20
245.690184680442
 30
0.0
 40
2.99999994933605
  1
A
 41
0.933333333333333
 72
     1
 11
267.606805179798
 21
247.19018465511
 31
0.0
 73
     2
  0
ENDBLK
  5
   17A
  8
0
  6
CONTINUOUS
 62
     7
  0
BLOCK
  5
   17B
  8
0
  6
CONTINUOUS
 62
     7
  2
*UDIM3081
 70
    65
 10
0.0
 20
0.0
 30
0.0
  3
*UDIM3081
  0
LINE
  5
   17C
  8
0
  6
CONTINUOUS
 62
     7
 10
294.255451053348
 20
297.974328428507
 30
0.0
 11
337.097889635392
 21
297.974328428507
 31
0.0
  0
LINE
  5
   17D
  8
0
  6
CONTINUOUS
 62
     7
 10
294.255451053348
 20
333.97432896495
 30
0.0
 11
337.097889635392
 21
333.97432896495
 31
0.0
  0
LINE
  5
   17E
  8
0
  6
CONTINUOUS
 62
     7
 10
335.097889635392
 20
297.974328428507
 30
0.0
 11
335.097889635392
 21
333.97432896495
 31
0.0
  0
LINE
  5
   17F
  8
0
  6
CONTINUOUS
 62
     7
 10
334.321432478974
 20
300.872105901717
 30
0.0
 11
335.097889635392
 21
297.974328428507
 31
0.0
  0
LINE
  5
   180
  8
0
  6
CONTINUOUS
 62
     7
 10
335.097889635392
 20
297.974328428507
 30
0.0
 11
335.874346791811
 21
300.872105901717
 31
0.0
  0
LINE
  5
   181
  8
0
  6
CONTINUOUS
 62
     7
 10
335.874346791811
 20
331.076551491739
 30
0.0
 11
335.097889635392
 21
333.97432896495
 31
0.0
  0
LINE
  5
   182
  8
0
  6
CONTINUOUS
 62
     7
 10
335.097889635392
 20
333.97432896495
 30
0.0
 11
334.321432478974
 21
331.076551491739
 31
0.0
  0
TEXT
  5
   183
  8
0
  6
CONTINUOUS
 62
     7
 10
334.097889635396
 20
313.47432873895
 30
0.0
 40
2.99999994933605
  1
45
 50
90.0
 41
0.933333333333333
 72
     1
 11
332.597889660724
 21
315.974328696728
 31
0.0
 73
     2
  0
ENDBLK
  5
   184
  8
0
  6
CONTINUOUS
 62
     7
  0
BLOCK
  5
   185
  8
0
  6
CONTINUOUS
 62
     7
  2
*UDIM3082
 70
    65
 10
0.0
 20
0.0
 30
0.0
  3
*UDIM3082
  0
LINE
  5
   186
  8
0
  6
CONTINUOUS
 62
     7
 10
318.348454988465
 20
320.374328762293
 30
0.0
 11
328.128324093848
 21
320.374328762293
 31
0.0
  0
LINE
  5
   187
  8
0
  6
CONTINUOUS
 62
     7
 10
294.255451053348
 20
333.97432896495
 30
0.0
 11
328.128324093848
 21
333.97432896495
 31
0.0
  0
LINE
  5
   188
  8
0
  6
CONTINUOUS
 62
     7
 10
326.128324093848
 20
315.374328762293
 30
0.0
 11
326.128324093848
 21
338.97432896495
 31
0.0
  0
LINE
  5
   189
  8
0
  6
CONTINUOUS
 62
     7
 10
326.904781250266
 20
317.476551289082
 30
0.0
 11
326.128324093848
 21
320.374328762293
 31
0.0
  0
LINE
  5
   18A
  8
0
  6
CONTINUOUS
 62
     7
 10
326.128324093848
 20
320.374328762293
 30
0.0
 11
325.351866937429
 21
317.476551289082
 31
0.0
  0
LINE
  5
   18B
  8
0
  6
CONTINUOUS
 62
     7
 10
325.351866937429
 20
336.87210643816
 30
0.0
 11
326.128324093848
 21
333.97432896495
 31
0.0
  0
LINE
  5
   18C
  8
0
  6
CONTINUOUS
 62
     7
 10
326.128324093848
 20
333.97432896495
 30
0.0
 11
326.904781250266
 21
336.87210643816
 31
0.0
  0
TEXT
  5
   18D
  8
0
  6
CONTINUOUS
 62
     7
 10
325.128324093851
 20
324.674328905843
 30
0.0
 40
2.99999994933605
  1
17
 50
90.0
 41
0.933333333333333
 72
     1
 11
323.62832411918
 21
327.174328863621
 31
0.0
 73
     2
  0
ENDBLK
  5
   18E
  8
0
  6
CONTINUOUS
 62
     7
  0
BLOCK
  5
   18F
  8
0
  6
CONTINUOUS
 62
     7
  2
*UDIM3083
 70
    65
 10
0.0
 20
0.0
 30
0.0
  3
*UDIM3083
  0
LINE
  5
   190
  8
0
  6
CONTINUOUS
 62
     7
 10
134.815139770508
 20
366.334329440593
 30
0.0
 11
134.815139770508
 21
385.866477280603
 31
0.0
  0
LINE
  5
   191
  8
0
  6
CONTINUOUS
 62
     7
 10
154.815140068531
 20
366.334329440592
 30
0.0
 11
154.815140068531
 21
385.866477280603
 31
0.0
  0
LINE
  5
   192
  8
0
  6
CONTINUOUS
 62
     7
 10
134.815139770508
 20
383.866477280603
 30
0.0
 11
154.815140068531
 21
383.866477280603
 31
0.0
  0
LINE
  5
   193
  8
0
  6
CONTINUOUS
 62
     7
 10
137.712917243718
 20
384.642934437022
 30
0.0
 11
134.815139770508
 21
383.866477280603
 31
0.0
  0
LINE
  5
   194
  8
0
  6
CONTINUOUS
 62
     7
 10
134.815139770508
 20
383.866477280603
 30
0.0
 11
137.712917243718
 21
383.090020124185
 31
0.0
  0
LINE
  5
   195
  8
0
  6
CONTINUOUS
 62
     7
 10
151.917362595321
 20
383.090020124185
 30
0.0
 11
154.815140068531
 21
383.866477280603
 31
0.0
  0
LINE
  5
   196
  8
0
  6
CONTINUOUS
 62
     7
 10
154.815140068531
 20
383.866477280603
 30
0.0
 11
151.917362595321
 21
384.642934437022
 31
0.0
  0
TEXT
  5
   197
  8
0
  6
CONTINUOUS
 62
     7
 10
142.31513996174
 20
384.866477280603
 30
0.0
 40
2.99999994933605
  1
25
 41
0.933333333333333
 72
     1
 11
144.81513991952
 21
386.366477255271
 31
0.0
 73
     2
  0
ENDBLK
  5
   198
  8
0
  6
CONTINUOUS
 62
     7
  0
BLOCK
  5
   199
  8
0
  6
CONTINUOUS
 62
     7
  2
*UDIM3084
 70
    65
 10
0.0
 20
0.0
 30
0.0
  3
*UDIM3084
  0
LINE
  5
   19A
  8
0
  6
CONTINUOUS
 62
     7
 10
114.815139472485
 20
366.334329440594
 30
0.0
 11
114.815139472485
 21
385.866477280603
 31
0.0
  0
LINE
  5
   19B
  8
0
  6
CONTINUOUS
 62
     7
 10
134.815139770508
 20
366.334329440593
 30
0.0
 11
134.815139770508
 21
385.866477280603
 31
0.0
  0
LINE
  5
   19C
  8
0
  6
CONTINUOUS
 62
     7
 10
114.815139472485
 20
383.866477280603
 30
0.0
 11
134.815139770508
 21
383.866477280603
 31
0.0
  0
LINE
  5
   19D
  8
0
  6
CONTINUOUS
 62
     7
 10
117.712916945695
 20
384.642934437022
 30
0.0
 11
114.815139472485
 21
383.866477280603
 31
0.0
  0
LINE
  5
   19E
  8
0
  6
CONTINUOUS
 62
     7
 10
114.815139472485
 20
383.866477280603
 30
0.0
 11
117.712916945695
 21
383.090020124185
 31
0.0
  0
LINE
  5
   19F
  8
0
  6
CONTINUOUS
 62
     7
 10
131.917362297297
 20
383.090020124185
 30
0.0
 11
134.815139770508
 21
383.866477280603
 31
0.0
  0
LINE
  5
   1A0
  8
0
  6
CONTINUOUS
 62
     7
 10
134.815139770508
 20
383.866477280603
 30
0.0
 11
131.917362297297
 21
384.642934437022
 31
0.0
  0
TEXT
  5
   1A1
  8
0
  6
CONTINUOUS
 62
     7
 10
122.315139663716
 20
384.866477280603
 30
0.0
 40
2.99999994933605
  1
25
 41
0.933333333333333
 72
     1
 11
124.815139621496
 21
386.366477255271
 31
0.0
 73
     2
  0
ENDBLK
  5
   1A2
  8
0
  6
CONTINUOUS
 62
     7
  0
BLOCK
  5
   1A3
  8
0
  6
CONTINUOUS
 62
     7
  2
*UDIM3085
 70
    65
 10
0.0
 20
0.0
 30
0.0
  3
*UDIM3085
  0
LINE
  5
   1A4
  8
0
  6
CONTINUOUS
 62
     7
 10
104.33513931632
 20
368.574329465628
 30
0.0
 11
104.33513931632
 21
393.923139099665
 31
0.0
  0
LINE
  5
   1A5
  8
0
  6
CONTINUOUS
 62
     7
 10
165.295140224695
 20
362.574329376221
 30
0.0
 11
165.295140224695
 21
393.923139099665
 31
0.0
  0
LINE
  5
   1A6
  8
0
  6
CONTINUOUS
 62
     7
 10
104.33513931632
 20
391.923139099665
 30
0.0
 11
165.295140224695
 21
391.923139099665
 31
0.0
  0
LINE
  5
   1A7
  8
0
  6
CONTINUOUS
 62
     7
 10
107.232916789531
 20
392.699596256084
 30
0.0
 11
104.33513931632
 21
391.923139099665
 31
0.0
  0
LINE
  5
   1A8
  8
0
  6
CONTINUOUS
 62
     7
 10
104.33513931632
 20
391.923139099665
 30
0.0
 11
107.232916789531
 21
391.146681943247
 31
0.0
  0
LINE
  5
   1A9
  8
0
  6
CONTINUOUS
 62
     7
 10
162.397362751485
 20
391.146681943247
 30
0.0
 11
165.295140224695
 21
391.923139099665
 31
0.0
  0
LINE
  5
   1AA
  8
0
  6
CONTINUOUS
 62
     7
 10
165.295140224695
 20
391.923139099665
 30
0.0
 11
162.397362751485
 21
392.699596256084
 31
0.0
  0
TEXT
  5
   1AB
  8
0
  6
CONTINUOUS
 62
     7
 10
129.515139860014
 20
392.923139099665
 30
0.0
 40
2.99999994933605
  1
76,2
 41
0.933333333333333
 72
     1
 11
134.815139770508
 21
394.423139074333
 31
0.0
 73
     2
  0
TEXT
  5
   1AC
  8
0
  6
CONTINUOUS
 62
     7
 10
130.915139836371
 20
388.923139150329
 30
0.0
 40
2.99999994933605
  1
= =
 41
0.933333333333333
 72
     1
 11
134.815139770508
 21
390.423139124997
 31
0.0
 73
     2
  0
ENDBLK
  5
   1AD
  8
0
  6
CONTINUOUS
 62
     7
  0
BLOCK
  5
   1AE
  8
0
  6
CONTINUOUS
 62
     7
  2
*UDIM3086
 70
    65
 10
0.0
 20
0.0
 30
0.0
  3
*UDIM3086
  0
LINE
  5
   1AF
  8
0
  6
CONTINUOUS
 62
     7
 10
105.335140566826
 20
268.374327985423
 30
0.0
 11
78.0597296289365
 21
268.374327985423
 31
0.0
  0
LINE
  5
   1B0
  8
0
  6
CONTINUOUS
 62
     7
 10
105.335140566826
 20
372.374329537153
 30
0.0
 11
78.0597296289365
 21
372.374329537153
 31
0.0
  0
LINE
  5
   1B1
  8
0
  6
CONTINUOUS
 62
     7
 10
80.0597296289365
 20
268.374327985423
 30
0.0
 11
80.0597296289365
 21
372.374329537153
 31
0.0
  0
LINE
  5
   1B2
  8
0
  6
CONTINUOUS
 62
     7
 10
79.283272472518
 20
271.272105458634
 30
0.0
 11
80.0597296289365
 21
268.374327985423
 31
0.0
  0
LINE
  5
   1B3
  8
0
  6
CONTINUOUS
 62
     7
 10
80.0597296289365
 20
268.374327985423
 30
0.0
 11
80.836186785355
 21
271.272105458634
 31
0.0
  0
LINE
  5
   1B4
  8
0
  6
CONTINUOUS
 62
     7
 10
80.836186785355
 20
369.476552063943
 30
0.0
 11
80.0597296289365
 21
372.374329537153
 31
0.0
  0
LINE
  5
   1B5
  8
0
  6
CONTINUOUS
 62
     7
 10
80.0597296289365
 20
372.374329537153
 30
0.0
 11
79.283272472518
 21
369.476552063943
 31
0.0
  0
TEXT
  5
   1B6
  8
0
  6
CONTINUOUS
 62
     7
 10
79.0597296289414
 20
316.474328827153
 30
0.0
 40
2.99999994933605
  1
130
 50
90.0
 41
0.933333333333333
 72
     1
 11
77.5597296542685
 21
320.374328761288
 31
0.0
 73
     2
  0
ENDBLK
  5
   1B7
  8
0
  6
CONTINUOUS
 62
     7
  0
BLOCK
  5
   1B8
  8
0
  6
CONTINUOUS
 62
     7
  2
*UDIM3087
 70
    65
 10
0.0
 20
0.0
 30
0.0
  3
*UDIM3087
  0
LINE
  5
   1B9
  8
0
  6
CONTINUOUS
 62
     7
 10
96.2878365578934
 20
320.374328762293
 30
0.0
 11
86.3327265594329
 21
320.374328762293
 31
0.0
  0
LINE
  5
   1BA
  8
0
  6
CONTINUOUS
 62
     7
 10
105.335140566826
 20
372.374329537153
 30
0.0
 11
86.3327265594329
 21
372.374329537153
 31
0.0
  0
LINE
  5
   1BB
  8
0
  6
CONTINUOUS
 62
     7
 10
88.3327265594329
 20
320.374328762293
 30
0.0
 11
88.3327265594329
 21
372.374329537153
 31
0.0
  0
LINE
  5
   1BC
  8
0
  6
CONTINUOUS
 62
     7
 10
87.5562694030143
 20
323.272106235503
 30
0.0
 11
88.3327265594329
 21
320.374328762293
 31
0.0
  0
LINE
  5
   1BD
  8
0
  6
CONTINUOUS
 62
     7
 10
88.3327265594329
 20
320.374328762293
 30
0.0
 11
89.1091837158514
 21
323.272106235503
 31
0.0
  0
LINE
  5
   1BE
  8
0
  6
CONTINUOUS
 62
     7
 10
89.1091837158514
 20
369.476552063943
 30
0.0
 11
88.3327265594329
 21
372.374329537153
 31
0.0
  0
LINE
  5
   1BF
  8
0
  6
CONTINUOUS
 62
     7
 10
88.3327265594329
 20
372.374329537153
 30
0.0
 11
87.5562694030143
 21
369.476552063943
 31
0.0
  0
TEXT
  5
   1C0
  8
0
  6
CONTINUOUS
 62
     7
 10
87.332726559436
 20
343.874329191945
 30
0.0
 40
2.99999994933605
  1
65
 50
90.0
 41
0.933333333333333
 72
     1
 11
85.8327265847648
 21
346.374329149723
 31
0.0
 73
     2
  0
ENDBLK
  5
   1C1
  8
0
  6
CONTINUOUS
 62
     7
  0
BLOCK
  5
   1C2
  8
0
  6
CONTINUOUS
 62
     7
  2
*UDIM3088
 70
    65
 10
0.0
 20
0.0
 30
0.0
  3
*UDIM3088
  0
LINE
  5
   1C3
  8
0
  6
CONTINUOUS
 62
     7
 10
382.349856057675
 20
287.214245945215
 30
0.0
 11
355.023368657675
 21
287.214245945215
 31
0.0
  0
LINE
  5
   1C4
  8
0
  6
CONTINUOUS
 62
     7
 10
382.349856057675
 20
310.414246290922
 30
0.0
 11
355.023368657675
 21
310.414246290922
 31
0.0
  0
LINE
  5
   1C5
  8
0
  6
CONTINUOUS
 62
     7
 10
357.023368657675
 20
287.214245945215
 30
0.0
 11
357.023368657675
 21
310.414246290922
 31
0.0
  0
LINE
  5
   1C6
  8
0
  6
CONTINUOUS
 62
     7
 10
356.246911501256
 20
290.112023418426
 30
0.0
 11
357.023368657675
 21
287.214245945215
 31
0.0
  0
LINE
  5
   1C7
  8
0
  6
CONTINUOUS
 62
     7
 10
357.023368657675
 20
287.214245945215
 30
0.0
 11
357.799825814094
 21
290.112023418426
 31
0.0
  0
LINE
  5
   1C8
  8
0
  6
CONTINUOUS
 62
     7
 10
357.799825814094
 20
307.516468817712
 30
0.0
 11
357.023368657675
 21
310.414246290922
 31
0.0
  0
LINE
  5
   1C9
  8
0
  6
CONTINUOUS
 62
     7
 10
357.023368657675
 20
310.414246290922
 30
0.0
 11
356.246911501256
 21
307.516468817712
 31
0.0
  0
TEXT
  5
   1CA
  8
0
  6
CONTINUOUS
 62
     7
 10
356.023368657676
 20
297.714246136647
 30
0.0
 40
2.99999994933605
  1
C
 50
90.0
 41
0.933333333333333
 72
     1
 11
354.523368683007
 21
298.814246118069
 31
0.0
 73
     2
  0
ENDBLK
  5
   1CB
  8
0
  6
CONTINUOUS
 62
     7
  0
BLOCK
  5
   1CC
  8
0
  6
CONTINUOUS
 62
     7
  2
*UDIM3089
 70
    65
 10
0.0
 20
0.0
 30
0.0
  3
*UDIM3089
  0
LINE
  5
   1CD
  8
0
  6
CONTINUOUS
 62
     7
 10
383.349855447326
 20
311.414246290922
 30
0.0
 11
383.349855447326
 21
331.168769524427
 31
0.0
  0
LINE
  5
   1CE
  8
0
  6
CONTINUOUS
 62
     7
 10
416.549855942044
 20
311.414246290922
 30
0.0
 11
416.549855942044
 21
331.168769524427
 31
0.0
  0
LINE
  5
   1CF
  8
0
  6
CONTINUOUS
 62
     7
 10
383.349855447326
 20
329.168769524427
 30
0.0
 11
416.549855942044
 21
329.168769524427
 31
0.0
  0
LINE
  5
   1D0
  8
0
  6
CONTINUOUS
 62
     7
 10
386.247632920536
 20
329.945226680846
 30
0.0
 11
383.349855447326
 21
329.168769524427
 31
0.0
  0
LINE
  5
   1D1
  8
0
  6
CONTINUOUS
 62
     7
 10
383.349855447326
 20
329.168769524427
 30
0.0
 11
386.247632920536
 21
328.392312368009
 31
0.0
  0
LINE
  5
   1D2
  8
0
  6
CONTINUOUS
 62
     7
 10
413.652078468834
 20
328.392312368009
 30
0.0
 11
416.549855942044
 21
329.168769524427
 31
0.0
  0
LINE
  5
   1D3
  8
0
  6
CONTINUOUS
 62
     7
 10
416.549855942044
 20
329.168769524427
 30
0.0
 11
413.652078468834
 21
329.945226680846
 31
0.0
  0
TEXT
  5
   1D4
  8
0
  6
CONTINUOUS
 62
     7
 10
396.049855760548
 20
326.168769575091
 30
0.0
 40
2.99999994933605
  1
= =
 41
0.933333333333333
 72
     1
 11
399.949855694685
 21
327.668769549759
 31
0.0
 73
     2
  0
TEXT
  5
   1D5
  8
0
  6
CONTINUOUS
 62
     7
 10
398.849855713262
 20
330.168769524427
 30
0.0
 40
2.99999994933605
  1
B
 41
0.933333333333333
 72
     1
 11
399.949855694685
 21
331.668769499095
 31
0.0
 73
     2
  0
ENDBLK
  5
   1D6
  8
0
  6
CONTINUOUS
 62
     7
  0
BLOCK
  5
   1D7
  8
0
  6
CONTINUOUS
 62
     7
  2
*UDIM3090
 70
    65
 10
0.0
 20
0.0
 30
0.0
  3
*UDIM3090
  0
LINE
  5
   1D8
  8
0
  6
CONTINUOUS
 62
     7
 10
375.86454369756
 20
301.014246150851
 30
0.0
 11
362.887808706458
 21
301.014246150851
 31
0.0
  0
LINE
  5
   1D9
  8
0
  6
CONTINUOUS
 62
     7
 10
382.349856057675
 20
310.414246290922
 30
0.0
 11
362.887808706458
 21
310.414246290922
 31
0.0
  0
LINE
  5
   1DA
  8
0
  6
CONTINUOUS
 62
     7
 10
364.887808706458
 20
296.014246150851
 30
0.0
 11
364.887808706458
 21
315.414246290922
 31
0.0
  0
LINE
  5
   1DB
  8
0
  6
CONTINUOUS
 62
     7
 10
365.664265862876
 20
298.116468677641
 30
0.0
 11
364.887808706458
 21
301.014246150851
 31
0.0
  0
LINE
  5
   1DC
  8
0
  6
CONTINUOUS
 62
     7
 10
364.887808706458
 20
301.014246150851
 30
0.0
 11
364.111351550039
 21
298.116468677641
 31
0.0
  0
LINE
  5
   1DD
  8
0
  6
CONTINUOUS
 62
     7
 10
364.111351550039
 20
313.312023764133
 30
0.0
 11
364.887808706458
 21
310.414246290922
 31
0.0
  0
LINE
  5
   1DE
  8
0
  6
CONTINUOUS
 62
     7
 10
364.887808706458
 20
310.414246290922
 30
0.0
 11
365.664265862876
 21
313.312023764133
 31
0.0
  0
TEXT
  5
   1DF
  8
0
  6
CONTINUOUS
 62
     7
 10
363.887808706459
 20
304.614246239465
 30
0.0
 40
2.99999994933605
  1
D
 50
90.0
 41
0.933333333333333
 72
     1
 11
362.38780873179
 21
305.714246220887
 31
0.0
 73
     2
  0
ENDBLK
  5
   1E0
  8
0
  6
CONTINUOUS
 62
     7
  0
BLOCK
  5
   1E1
  8
0
  6
CONTINUOUS
 62
     7
  2
*UDIM3091
 70
    65
 10
0.0
 20
0.0
 30
0.0
  3
*UDIM3091
  0
LINE
  5
   1E2
  8
0
  6
CONTINUOUS
 62
     7
 10
116.265140533447
 20
178.835159301758
 30
0.0
 11
83.8408434370049
 21
178.835159301758
 31
0.0
  0
LINE
  5
   1E3
  8
0
  6
CONTINUOUS
 62
     7
 10
117.850940704346
 20
217.835159301758
 30
0.0
 11
83.8408434370049
 21
217.835159301758
 31
0.0
  0
LINE
  5
   1E4
  8
0
  6
CONTINUOUS
 62
     7
 10
85.8408434370049
 20
178.835159301758
 30
0.0
 11
85.8408434370049
 21
217.835159301758
 31
0.0
  0
LINE
  5
   1E5
  8
0
  6
CONTINUOUS
 62
     7
 10
85.0643862805864
 20
181.732936774968
 30
0.0
 11
85.8408434370049
 21
178.835159301758
 31
0.0
  0
LINE
  5
   1E6
  8
0
  6
CONTINUOUS
 62
     7
 10
85.8408434370049
 20
178.835159301758
 30
0.0
 11
86.6173005934235
 21
181.732936774968
 31
0.0
  0
LINE
  5
   1E7
  8
0
  6
CONTINUOUS
 62
     7
 10
86.6173005934235
 20
214.937381828547
 30
0.0
 11
85.8408434370049
 21
217.835159301758
 31
0.0
  0
LINE
  5
   1E8
  8
0
  6
CONTINUOUS
 62
     7
 10
85.8408434370049
 20
217.835159301758
 30
0.0
 11
85.0643862805864
 21
214.937381828547
 31
0.0
  0
TEXT
  5
   1E9
  8
0
  6
CONTINUOUS
 62
     7
 10
84.8408434370081
 20
195.835159276924
 30
0.0
 40
3.00000002980232
  1
78
 50
90.0
 41
0.933333333333333
 72
     1
 11
83.3408434221038
 21
198.335159301758
 31
0.0
 73
     2
  0
ENDBLK
  5
   1EA
  8
0
  6
CONTINUOUS
 62
     7
  0
BLOCK
  5
   1EB
  8
0
  6
CONTINUOUS
 62
     7
  2
*UDIM3092
 70
    65
 10
0.0
 20
0.0
 30
0.0
  3
*UDIM3092
  0
LINE
  5
   1EC
  8
0
  6
CONTINUOUS
 62
     7
 10
112.765139770511
 20
218.835159301758
 30
0.0
 11
112.765139770511
 21
234.643006550909
 31
0.0
  0
LINE
  5
   1ED
  8
0
  6
CONTINUOUS
 62
     7
 10
156.865139770508
 20
218.835159301758
 30
0.0
 11
156.865139770508
 21
234.643006550909
 31
0.0
  0
LINE
  5
   1EE
  8
0
  6
CONTINUOUS
 62
     7
 10
112.765139770511
 20
232.643006550909
 30
0.0
 11
156.865139770508
 21
232.643006550909
 31
0.0
  0
LINE
  5
   1EF
  8
0
  6
CONTINUOUS
 62
     7
 10
115.662917243722
 20
233.419463707327
 30
0.0
 11
112.765139770511
 21
232.643006550909
 31
0.0
  0
LINE
  5
   1F0
  8
0
  6
CONTINUOUS
 62
     7
 10
112.765139770511
 20
232.643006550909
 30
0.0
 11
115.662917243722
 21
231.86654939449
 31
0.0
  0
LINE
  5
   1F1
  8
0
  6
CONTINUOUS
 62
     7
 10
153.967362297297
 20
231.86654939449
 30
0.0
 11
156.865139770508
 21
232.643006550909
 31
0.0
  0
LINE
  5
   1F2
  8
0
  6
CONTINUOUS
 62
     7
 10
156.865139770508
 20
232.643006550909
 30
0.0
 11
153.967362297297
 21
233.419463707327
 31
0.0
  0
TEXT
  5
   1F3
  8
0
  6
CONTINUOUS
 62
     7
 10
129.515139717859
 20
233.643006550909
 30
0.0
 40
3.00000002980232
  1
88,2
 41
0.933333333333333
 72
     1
 11
134.815139770509
 21
235.14300656581
 31
0.0
 73
     2
  0
TEXT
  5
   1F4
  8
0
  6
CONTINUOUS
 62
     7
 10
130.915139731766
 20
229.643006521106
 30
0.0
 40
3.00000002980232
  1
= =
 41
0.933333333333333
 72
     1
 11
134.815139770509
 21
231.143006536008
 31
0.0
 73
     2
  0
ENDBLK
  5
   1F5
  8
0
  6
CONTINUOUS
 62
     7
  0
BLOCK
  5
   1F6
  8
0
  6
CONTINUOUS
 62
     7
  2
*UDIM3093
 70
    65
 10
0.0
 20
0.0
 30
0.0
  3
*UDIM3093
  0
LINE
  5
   1F7
  8
0
  6
CONTINUOUS
 62
     7
 10
104.052522672167
 20
201.085159301758
 30
0.0
 11
94.1820687299134
 21
201.085159301758
 31
0.0
  0
LINE
  5
   1F8
  8
0
  6
CONTINUOUS
 62
     7
 10
117.850940704346
 20
217.835159301758
 30
0.0
 11
94.1820687299134
 21
217.835159301758
 31
0.0
  0
LINE
  5
   1F9
  8
0
  6
CONTINUOUS
 62
     7
 10
96.1820687299134
 20
196.085159301758
 30
0.0
 11
96.1820687299134
 21
222.835159301758
 31
0.0
  0
LINE
  5
   1FA
  8
0
  6
CONTINUOUS
 62
     7
 10
96.958525886332
 20
198.187381828547
 30
0.0
 11
96.1820687299134
 21
201.085159301758
 31
0.0
  0
LINE
  5
   1FB
  8
0
  6
CONTINUOUS
 62
     7
 10
96.1820687299134
 20
201.085159301758
 30
0.0
 11
95.4056115734949
 21
198.187381828547
 31
0.0
  0
LINE
  5
   1FC
  8
0
  6
CONTINUOUS
 62
     7
 10
95.4056115734949
 20
220.732936774968
 30
0.0
 11
96.1820687299134
 21
217.835159301758
 31
0.0
  0
LINE
  5
   1FD
  8
0
  6
CONTINUOUS
 62
     7
 10
96.1820687299134
 20
217.835159301758
 30
0.0
 11
96.958525886332
 21
220.732936774968
 31
0.0
  0
TEXT
  5
   1FE
  8
0
  6
CONTINUOUS
 62
     7
 10
95.1820687299201
 20
204.160159249109
 30
0.0
 40
3.00000002980232
  1
33,5
 50
90.0
 41
0.933333333333333
 72
     1
 11
93.6820687150123
 21
209.460159301758
 31
0.0
 73
     2
  0
ENDBLK
  5
   1FF
  8
0
  6
CONTINUOUS
 62
     7
  0
ENDSEC
  0
SECTION
  2
ENTITIES
  0
TEXT
  5
   200
  8
0
  6
CONTINUOUS
 62
     1
 10
377.724227114771
 20
178.820598544478
 30
0.0
 40
2.00000008940697
  1
FIXED VER. FRONT TERMINALS FOR Cu-Al CABLE
 41
0.749999861419206
 72
     1
 11
409.074222719674
 21
179.820598589182
 31
0.0
 73
     2
  0
TEXT
  5
   201
  8
0
  6
CONTINUOUS
 62
     1
 10
382.224226222184
 20
181.820598544478
 30
0.0
 40
2.00000008940697
  1
3POLE LOW VOLTAGE M.C.C.B SERIES "T"
 41
0.749999861419206
 72
     1
 11
409.074222457405
 21
182.820598589181
 31
0.0
 73
     2
  0
TEXT
  5
   202
  8
0
  6
CONTINUOUS
 62
     1
 10
369.526620218162
 20
170.750347079634
 30
0.0
 40
2.00000008940697
  1
TRIPOL. ESECU. FISSA TERM. ANT. X CAVI IN Cu-Al
 41
0.749999861419206
 72
     1
 11
404.626615297798
 21
171.750347124338
 31
0.0
 73
     2
  0
TEXT
  5
   203
  8
0
  6
CONTINUOUS
 62
     1
 10
384.52661785483
 20
173.750347079634
 30
0.0
 40
2.00000008940697
  1
INTERR.AUTOMATICO SERIE "T"
 41
0.749999861419206
 72
     1
 11
404.62661503553
 21
174.750347124338
 31
0.0
 73
     2
  0
TEXT
  5
   204
  8
0
  6
CONTINUOUS
 62
     1
 10
294.521838147504
 20
165.657107055732
 30
0.0
 40
2.00000008940697
  1
N0026 00-01-25
 41
0.799999960511924
  0
TEXT
  5
   205
  8
0
  6
CONTINUOUS
 62
     1
 10
389.522953208293
 20
154.528760430265
 30
0.0
 40
4.00000017881393
  1
RH0011.102
 41
0.937499973922969
 72
     2
 11
426.272953808064
 21
154.528760430265
 31
0.0
  0
TEXT
  5
   206
  8
0
  6
CONTINUOUS
 62
     1
 10
407.608646523956
 20
163.510357089645
 30
0.0
 40
3.00000002980232
  1
T1
 41
0.916666604744064
 72
     2
 11
412.558646234377
 21
163.510357089645
 31
0.0
  0
POINT
  5
   207
  8
0
  6
CONTINUOUS
 62
     7
 10
463.85694321491
 20
141.892742190764
 30
0.0
  0
POINT
  5
   208
  8
0
  6
CONTINUOUS
 62
     7
 10
43.85694321491
 20
141.892742190764
 30
0.0
  0
TEXT
  5
   209
  8
0
  6
CONTINUOUS
 62
     7
 10
224.490191689641
 20
316.898874448801
 30
0.0
 40
3.00000002980232
  1
X
 41
0.933333333333334
 72
     1
 11
225.590191700569
 21
318.398874463703
 31
0.0
 73
     2
  0
INSERT
  5
   20A
  8
255
  6
CONTINUOUS
 62
     7
  2
TABELL_________
 10
-11.2196649604809
 20
224.848583422165
 30
0.0
  0
ARC
  5
   20B
  8
0
  6
CONTINUOUS
 62
   253
 10
402.093992739268
 20
351.193433102823
 30
0.0
 40
0.400000005956701
 50
158.15347104401
 51
165.000075835682
  0
LINE
  5
   20C
  8
0
  6
DASHDOT
 62
     7
 10
404.085859587073
 20
352.637048093456
 30
0.0
 11
405.828259802389
 21
352.637048093456
 31
0.0
  0
LINE
  5
   20D
  8
0
  6
DASHDOT
 62
     7
 10
404.949859693647
 20
351.773047986882
 30
0.0
 11
404.949859693647
 21
353.501048200029
 31
0.0
  0
LINE
  5
   20E
  8
0
  6
DASHDOT
 62
     7
 10
404.085859587073
 20
352.637048093456
 30
0.0
 11
405.828259802389
 21
352.637048093456
 31
0.0
  0
LINE
  5
   20F
  8
0
  6
DASHDOT
 62
     7
 10
404.949859693647
 20
351.773047986882
 30
0.0
 11
404.949859693647
 21
353.501048200029
 31
0.0
  0
LINE
  5
   210
  8
0
  6
DASHDOT
 62
     7
 10
394.085859438062
 20
395.437048733235
 30
0.0
 11
395.828259653378
 21
395.437048733235
 31
0.0
  0
LINE
  5
   211
  8
0
  6
DASHDOT
 62
     7
 10
394.949859544635
 20
394.573048626661
 30
0.0
 11
394.949859544635
 21
396.301048839808
 31
0.0
  0
LINE
  5
   212
  8
0
  6
DASHDOT
 62
     7
 10
394.085859438062
 20
395.437048733235
 30
0.0
 11
395.828259653378
 21
395.437048733235
 31
0.0
  0
LINE
  5
   213
  8
0
  6
DASHDOT
 62
     7
 10
394.949859544635
 20
394.573048626661
 30
0.0
 11
394.949859544635
 21
396.301048839808
 31
0.0
  0
LINE
  5
   214
  8
0
  6
DASHDOT
 62
     7
 10
402.942101944323
 20
352.637048095465
 30
0.0
 11
407.72375733849
 21
352.637048095465
 31
0.0
  0
LINE
  5
   215
  8
0
  6
DASHDOT
 62
     7
 10
404.949859693647
 20
350.430651260526
 30
0.0
 11
404.949859693647
 21
355.028798820692
 31
0.0
  0
LINE
  5
   216
  8
0
  6
DASHDOT
 62
     7
 10
393.269859515429
 20
395.437048733234
 30
0.0
 11
396.657859575093
 21
395.437048733234
 31
0.0
  0
LINE
  5
   217
  8
0
  6
DASHDOT
 62
     7
 10
393.557859520435
 20
395.437048733234
 30
0.0
 11
396.365059569871
 21
395.437048733234
 31
0.0
  0
LINE
  5
   218
  8
0
  6
DASHDOT
 62
     7
 10
393.941859527111
 20
395.437048733234
 30
0.0
 11
395.97465956291
 21
395.437048733234
 31
0.0
  0
LINE
  5
   219
  8
0
  6
DASHDOT
 62
     7
 10
394.949859544635
 20
394.429048715711
 30
0.0
 11
394.949859544635
 21
396.445048750758
 31
0.0
  0
LINE
  5
   21A
  8
0
  6
DASHDOT
 62
     7
 10
394.949859544635
 20
393.14365342447
 30
0.0
 11
394.949859544635
 21
397.424053944679
 31
0.0
  0
LINE
  5
   21B
  8
0
  6
CONTINUOUS
 62
     7
 10
390.94985948503
 20
399.437048792839
 30
0.0
 11
408.949859753251
 21
399.437048792839
 31
0.0
  0
LINE
  5
   21C
  8
0
  6
CONTINUOUS
 62
     7
 10
390.94985948503
 20
348.63704803586
 30
0.0
 11
390.94985948503
 21
399.437048792839
 31
0.0
  0
LINE
  5
   21D
  8
0
  6
CONTINUOUS
 62
     7
 10
390.94985948503
 20
348.63704803586
 30
0.0
 11
408.949859753251
 21
348.63704803586
 31
0.0
  0
LINE
  5
   21E
  8
0
  6
CONTINUOUS
 62
     7
 10
408.949859753251
 20
348.63704803586
 30
0.0
 11
408.949859753251
 21
399.437048792839
 31
0.0
  0
CIRCLE
  5
   21F
  8
0
  6
CONTINUOUS
 62
     7
 10
394.949859544635
 20
395.437048733234
 30
0.0
 40
0.900000013411045
  0
CIRCLE
  5
   220
  8
0
  6
CONTINUOUS
 62
     7
 10
404.949859693647
 20
352.637048095465
 30
0.0
 40
0.900000013411045
  0
LINE
  5
   221
  8
0
  6
DASHDOT
 62
     7
 10
399.949859619141
 20
343.411542889082
 30
0.0
 11
399.949859619141
 21
409.591148821966
 31
0.0
  0
LINE
  5
   222
  8
0
  6
DASHDOT
 62
     7
 10
387.327424492321
 20
374.03704841435
 30
0.0
 11
417.984875406162
 21
374.03704841435
 31
0.0
  0
LINE
  5
   223
  8
0
  6
DASHDOT
 62
     7
 10
399.949859619141
 20
413.885909004164
 30
0.0
 11
399.949859619141
 21
417.788910968555
 31
0.0
  0
TEXT
  5
   224
  8
0
  6
CONTINUOUS
 62
     7
 10
397.338389780493
 20
416.2259593493
 30
0.0
 40
2.99999994933605
  1
Y
 41
0.933333333333333
 72
     1
 11
398.438389761916
 21
417.725959323968
 31
0.0
 73
     2
  0
TEXT
  5
   225
  8
0
  6
CONTINUOUS
 62
     7
 10
397.149534846732
 20
342.100397848174
 30
0.0
 40
2.99999994933605
  1
Y
 41
0.933333333333333
 72
     1
 11
398.249534828155
 21
343.600397822842
 31
0.0
 73
     2
  0
TEXT
  5
   226
  8
0
  6
CONTINUOUS
 62
     7
 10
414.933374442544
 20
374.583446455037
 30
0.0
 40
2.99999994933605
  1
X
 41
0.933333333333333
 72
     1
 11
416.033374423967
 21
376.083446429705
 31
0.0
 73
     2
  0
TEXT
  5
   227
  8
0
  6
CONTINUOUS
 62
     7
 10
385.818238821082
 20
374.42606734357
 30
0.0
 40
2.99999994933605
  1
X
 41
0.933333333333333
 72
     1
 11
386.918238802506
 21
375.926067318238
 31
0.0
 73
     2
  0
INSERT
  5
   228
  8
0
  6
CONTINUOUS
 62
     7
  2
*UDIM3066
 10
0.0
 20
0.0
 30
0.0
  0
INSERT
  5
   229
  8
0
  6
CONTINUOUS
 62
     7
  2
*UDIM3067
 10
0.0
 20
0.0
 30
0.0
  0
INSERT
  5
   22A
  8
0
  6
CONTINUOUS
 62
     7
  2
*UDIM3068
 10
0.0
 20
0.0
 30
0.0
  0
INSERT
  5
   22B
  8
0
  6
CONTINUOUS
 62
     7
  2
*UDIM3069
 10
0.0
 20
0.0
 30
0.0
  0
INSERT
  5
   22C
  8
0
  6
CONTINUOUS
 62
     7
  2
*HATCH2581
 10
0.0
 20
0.0
 30
0.0
  0
LINE
  5
   22D
  8
0
  6
CONTINUOUS
 62
     7
 10
278.557693876326
 20
349.974329203367
 30
0.0
 11
278.557693876326
 21
374.414293287756
 31
0.0
  0
LINE
  5
   22E
  8
0
  6
CONTINUOUS
 62
     7
 10
231.236147329194
 20
349.974329203367
 30
0.0
 11
278.557693876326
 21
349.974329203367
 31
0.0
  0
LINE
  5
   22F
  8
0
  6
CONTINUOUS
 62
     7
 10
231.078768368556
 20
290.774328321219
 30
0.0
 11
278.557693876326
 21
290.774328321219
 31
0.0
  0
LINE
  5
   230
  8
0
  6
CONTINUOUS
 62
     7
 10
278.557693876326
 20
266.33436423683
 30
0.0
 11
278.557693876326
 21
290.774328321219
 31
0.0
  0
LINE
  5
   231
  8
0
  6
DASHDOT
 62
     7
 10
232.457693189383
 20
372.374329537153
 30
0.0
 11
232.457693189383
 21
377.720385021004
 31
0.0
  0
LINE
  5
   232
  8
0
  6
CONTINUOUS
 62
   253
 10
232.457693189383
 20
321.574328780174
 30
0.0
 11
232.457693189383
 21
349.974329203367
 31
0.0
  0
LINE
  5
   233
  8
0
  6
CONTINUOUS
 62
   253
 10
232.457693189383
 20
290.774328321219
 30
0.0
 11
232.457693189383
 21
313.174328655005
 31
0.0
  0
LINE
  5
   234
  8
0
  6
CONTINUOUS
 62
     5
 10
250.457693457603
 20
366.574329450727
 30
0.0
 11
257.257693558931
 21
366.574329450727
 31
0.0
  0
LINE
  5
   235
  8
0
  6
CONTINUOUS
 62
     5
 10
252.057693481445
 20
357.374329313636
 30
0.0
 11
257.257693558931
 21
357.374329313636
 31
0.0
  0
LINE
  5
   236
  8
0
  6
CONTINUOUS
 62
   218
 10
252.057693481445
 20
356.774329304695
 30
0.0
 11
252.057693481445
 21
365.574329435825
 31
0.0
  0
LINE
  5
   237
  8
0
  6
CONTINUOUS
 62
     1
 10
298.855450193147
 20
299.414328602552
 30
0.0
 11
298.855450193147
 21
332.534329553843
 31
0.0
  0
LINE
  5
   238
  8
0
  6
CONTINUOUS
 62
     2
 10
288.45545110526
 20
333.974328964949
 30
0.0
 11
288.45545110526
 21
358.614328721762
 31
0.0
  0
LINE
  5
   239
  8
0
  6
CONTINUOUS
 62
     2
 10
286.055450946059
 20
333.97432896495
 30
0.0
 11
293.255451053348
 21
333.97432896495
 31
0.0
  0
LINE
  5
   23A
  8
0
  6
CONTINUOUS
 62
     2
 10
286.055450946059
 20
297.974328428507
 30
0.0
 11
293.255451053348
 21
297.974328428507
 31
0.0
  0
LINE
  5
   23B
  8
0
  6
DASHDOT
 62
     7
 10
245.007693376392
 20
361.974329382181
 30
0.0
 11
281.607693921775
 21
361.974329382181
 31
0.0
  0
LINE
  5
   23C
  8
0
  6
DASHDOT
 62
     7
 10
245.007693376392
 20
278.774328142405
 30
0.0
 11
281.607693921775
 21
278.774328142405
 31
0.0
  0
INSERT
  5
   23D
  8
0
  6
CONTINUOUS
 62
     7
  2
*UDIM3070
 10
0.0
 20
0.0
 30
0.0
  0
LINE
  5
   23E
  8
0
  6
DASHDOT
 62
     7
 10
230.05769315362
 20
264.740230971308
 30
0.0
 11
230.05769315362
 21
378.089059725293
 31
0.0
  0
LINE
  5
   23F
  8
0
  6
CONTINUOUS
 62
     7
 10
228.492731087878
 20
378.329460524548
 30
0.0
 11
234.190169305926
 21
377.454251641656
 31
0.0
  0
LINE
  5
   240
  8
0
  6
CONTINUOUS
 62
     7
 10
228.752232609495
 20
265.157184148899
 30
0.0
 11
233.794903887867
 21
263.546597124628
 31
0.0
  0
INSERT
  5
   241
  8
0
  6
CONTINUOUS
 62
     7
  2
*UDIM3071
 10
0.0
 20
0.0
 30
0.0
  0
INSERT
  5
   242
  8
0
  6
CONTINUOUS
 62
     7
  2
*UDIM3072
 10
0.0
 20
0.0
 30
0.0
  0
INSERT
  5
   243
  8
0
  6
CONTINUOUS
 62
     7
  2
*UDIM3073
 10
0.0
 20
0.0
 30
0.0
  0
LINE
  5
   244
  8
0
  6
CONTINUOUS
 62
   252
 10
296.855450163344
 20
284.774328231811
 30
0.0
 11
297.655451118913
 21
284.774328231811
 31
0.0
  0
LINE
  5
   245
  8
0
  6
CONTINUOUS
 62
   252
 10
298.055450181226
 20
284.774328231812
 30
0.0
 11
298.055450181226
 21
347.174329161644
 31
0.0
  0
LINE
  5
   246
  8
0
  6
CONTINUOUS
 62
   252
 10
297.655451118913
 20
284.774328231811
 30
0.0
 11
298.855451136794
 21
284.774328231811
 31
0.0
  0
LINE
  5
   247
  8
0
  6
CONTINUOUS
 62
   252
 10
298.855450193144
 20
284.774328231812
 30
0.0
 11
298.855450193144
 21
296.774328410625
 31
0.0
  0
LINE
  5
   248
  8
0
  6
CONTINUOUS
 62
   252
 10
298.855450193144
 20
335.17432898283
 30
0.0
 11
298.855450193144
 21
347.174329161644
 31
0.0
  0
LINE
  5
   249
  8
0
  6
CONTINUOUS
 62
   252
 10
296.855450163344
 20
347.174329161644
 30
0.0
 11
297.255451112952
 21
347.174329161644
 31
0.0
  0
LINE
  5
   24A
  8
0
  6
CONTINUOUS
 62
   252
 10
297.255451112952
 20
347.174329161644
 30
0.0
 11
297.655451118913
 21
347.174329161644
 31
0.0
  0
LINE
  5
   24B
  8
0
  6
CONTINUOUS
 62
   252
 10
297.655451118913
 20
347.174329161644
 30
0.0
 11
298.855451136794
 21
347.174329161644
 31
0.0
  0
LINE
  5
   24C
  8
0
  6
CONTINUOUS
 62
   252
 10
298.055450181226
 20
296.774328410625
 30
0.0
 11
298.855451136794
 21
296.774328410625
 31
0.0
  0
LINE
  5
   24D
  8
0
  6
CONTINUOUS
 62
   252
 10
298.055450181226
 20
335.17432898283
 30
0.0
 11
298.855451136794
 21
335.17432898283
 31
0.0
  0
LINE
  5
   24E
  8
0
  6
CONTINUOUS
 62
     3
 10
296.855450163344
 20
275.660538670505
 30
0.0
 11
296.855450163344
 21
362.240899364265
 31
0.0
  0
LINE
  5
   24F
  8
0
  6
CONTINUOUS
 62
     3
 10
295.255450139502
 20
276.217060417928
 30
0.0
 11
295.255450139502
 21
363.040899376186
 31
0.0
  0
LINE
  5
   250
  8
0
  6
CONTINUOUS
 62
     7
 10
293.314849227662
 20
364.011199832106
 30
0.0
 11
298.23925423929
 21
361.548997326292
 31
0.0
  0
LINE
  5
   251
  8
0
  6
CONTINUOUS
 62
     7
 10
294.00426592929
 20
276.652254925828
 30
0.0
 11
298.534718539988
 21
275.076445322107
 31
0.0
  0
INSERT
  5
   252
  8
0
  6
CONTINUOUS
 62
     7
  2
*UDIM3074
 10
0.0
 20
0.0
 30
0.0
  0
ARC
  5
   253
  8
0
  6
DASHDOT
 62
     7
 10
264.457694581748
 20
311.974328637123
 30
0.0
 40
49.5977569049814
 50
346.299086131067
 51
379.886818727366
  0
INSERT
  5
   254
  8
0
  6
CONTINUOUS
 62
     7
  2
*UDIM3075
 10
0.0
 20
0.0
 30
0.0
  0
LINE
  5
   255
  8
0
  6
DASHDOT
 62
     7
 10
223.921455805518
 20
320.374328762293
 30
0.0
 11
317.348454988465
 21
320.374328762293
 31
0.0
  0
INSERT
  5
   256
  8
0
  6
CONTINUOUS
 62
     7
  2
*UDIM3076
 10
0.0
 20
0.0
 30
0.0
  0
INSERT
  5
   257
  8
255
  6
CONTINUOUS
 62
     7
  2
DADO
 10
230.05769315362
 20
363.174329400063
 30
0.0
 41
0.800000011920929
 42
0.800000011920929
 43
0.800000011920929
  0
INSERT
  5
   258
  8
255
  6
CONTINUOUS
 62
     7
  2
DADO
 10
230.05769315362
 20
277.574328120505
 30
0.0
 41
0.800000011920929
 42
0.800000011920929
 43
0.800000011920929
  0
LINE
  5
   259
  8
0
  6
CONTINUOUS
 62
     7
 10
251.872052832624
 20
284.374328225851
 30
0.0
 11
259.657693594694
 21
284.374328225851
 31
0.0
  0
LINE
  5
   25A
  8
0
  6
CONTINUOUS
 62
     7
 10
250.857693463564
 20
273.374328061938
 30
0.0
 11
260.457693606615
 21
273.374328061938
 31
0.0
  0
LINE
  5
   25B
  8
0
  6
CONTINUOUS
 62
     7
 10
250.857693463564
 20
259.305060869628
 30
0.0
 11
250.857693463564
 21
273.374328061938
 31
0.0
  0
INSERT
  5
   25C
  8
0
  6
CONTINUOUS
 62
     7
  2
*UDIM3077
 10
0.0
 20
0.0
 30
0.0
  0
TEXT
  5
   25D
  8
0
  6
CONTINUOUS
 62
     7
 10
217.060830406131
 20
359.096599118853
 30
0.0
 40
2.00000007748604
  1
=
 50
90.0
 41
0.933333333333333
 72
     1
 11
216.060830367387
 21
359.829932480596
 31
0.0
 73
     2
  0
TEXT
  5
   25E
  8
0
  6
CONTINUOUS
 62
     7
 10
217.060830406131
 20
363.385392922022
 30
0.0
 40
2.00000007748604
  1
=
 50
90.0
 41
0.933333333333333
 72
     1
 11
216.060830367387
 21
364.118726283766
 31
0.0
 73
     2
  0
INSERT
  5
   25F
  8
0
  6
CONTINUOUS
 62
     7
  2
*HATCH2582
 10
0.0
 20
0.0
 30
0.0
  0
LINE
  5
   260
  8
0
  6
CONTINUOUS
 62
   253
 10
255.10390267143
 20
314.049757440022
 30
0.0
 11
255.135319374168
 21
309.1743285954
 31
0.0
  0
LINE
  5
   261
  8
0
  6
CONTINUOUS
 62
   253
 10
286.857694000006
 20
367.574329465628
 30
0.0
 11
286.857694000006
 21
370.774329513311
 31
0.0
  0
LINE
  5
   262
  8
0
  6
CONTINUOUS
 62
   253
 10
278.557693876326
 20
372.374329537153
 30
0.0
 11
286.057693988085
 21
372.374329537153
 31
0.0
  0
LINE
  5
   263
  8
0
  6
CONTINUOUS
 62
   253
 10
278.557693876326
 20
268.374327985423
 30
0.0
 11
286.057693988085
 21
268.374327985423
 31
0.0
  0
LINE
  5
   264
  8
0
  6
CONTINUOUS
 62
   253
 10
272.057693779469
 20
352.774329245091
 30
0.0
 11
276.599333556617
 21
352.774329245091
 31
0.0
  0
LINE
  5
   265
  8
0
  6
CONTINUOUS
 62
   253
 10
272.057693779469
 20
372.374329535144
 30
0.0
 11
278.557693876326
 21
372.374329535144
 31
0.0
  0
LINE
  5
   266
  8
0
  6
CONTINUOUS
 62
   253
 10
270.057693749666
 20
372.374329535144
 30
0.0
 11
272.057693779469
 21
372.374329535144
 31
0.0
  0
LINE
  5
   267
  8
0
  6
CONTINUOUS
 62
   253
 10
270.057693749666
 20
370.270801673777
 30
0.0
 11
270.057693749666
 21
372.374329537153
 31
0.0
  0
LINE
  5
   268
  8
0
  6
CONTINUOUS
 62
   253
 10
270.057693749666
 20
369.974329501391
 30
0.0
 11
270.057693749666
 21
370.270801673777
 31
0.0
  0
LINE
  5
   269
  8
0
  6
CONTINUOUS
 62
   253
 10
270.057693749666
 20
369.974329499381
 30
0.0
 11
272.057693779469
 21
369.974329499381
 31
0.0
  0
LINE
  5
   26A
  8
0
  6
CONTINUOUS
 62
   253
 10
272.057693779469
 20
353.213263577803
 30
0.0
 11
272.057693779469
 21
353.463757966301
 31
0.0
  0
LINE
  5
   26B
  8
0
  6
CONTINUOUS
 62
   253
 10
272.057693779469
 20
354.344354903251
 30
0.0
 11
272.057693779469
 21
354.535800828956
 31
0.0
  0
LINE
  5
   26C
  8
0
  6
CONTINUOUS
 62
   253
 10
278.557693876326
 20
269.974328011274
 30
0.0
 11
286.057693988085
 21
269.974328011274
 31
0.0
  0
LINE
  5
   26D
  8
0
  6
CONTINUOUS
 62
   253
 10
286.857694000006
 20
269.974328011274
 30
0.0
 11
286.857694000006
 21
273.174328058958
 31
0.0
  0
LINE
  5
   26E
  8
0
  6
CONTINUOUS
 62
   253
 10
272.057693779469
 20
290.774328321219
 30
0.0
 11
272.057693779469
 21
299.334328296185
 31
0.0
  0
LINE
  5
   26F
  8
0
  6
CONTINUOUS
 62
   253
 10
272.057693779469
 20
299.334328296185
 30
0.0
 11
272.057693779469
 21
300.37432846427
 31
0.0
  0
LINE
  5
   270
  8
0
  6
CONTINUOUS
 62
   253
 10
278.557693876326
 20
273.174328058958
 30
0.0
 11
282.05769392848
 21
273.174328058958
 31
0.0
  0
LINE
  5
   271
  8
0
  6
CONTINUOUS
 62
   253
 10
278.557693876326
 20
367.574329465628
 30
0.0
 11
282.05769392848
 21
367.574329465628
 31
0.0
  0
LINE
  5
   272
  8
0
  6
CONTINUOUS
 62
   253
 10
278.557693876326
 20
370.774329513311
 30
0.0
 11
286.057693988085
 21
370.774329513311
 31
0.0
  0
LINE
  5
   273
  8
0
  6
CONTINUOUS
 62
   253
 10
272.057693779469
 20
285.174328237772
 30
0.0
 11
272.057693779469
 21
290.774328321219
 31
0.0
  0
LINE
  5
   274
  8
0
  6
CONTINUOUS
 62
   253
 10
270.657693758607
 20
359.174329340458
 30
0.0
 11
270.657693758607
 21
359.336936154404
 31
0.0
  0
LINE
  5
   275
  8
0
  6
CONTINUOUS
 62
   253
 10
270.657693758607
 20
364.611304519131
 30
0.0
 11
270.657693758607
 21
364.774329423904
 31
0.0
  0
LINE
  5
   276
  8
0
  6
CONTINUOUS
 62
   253
 10
268.257693722844
 20
358.574329331517
 30
0.0
 11
268.257693722844
 21
358.854328114986
 31
0.0
  0
LINE
  5
   277
  8
0
  6
CONTINUOUS
 62
   253
 10
268.257693722844
 20
365.094330649376
 30
0.0
 11
268.257693722844
 21
365.374329432845
 31
0.0
  0
LINE
  5
   278
  8
0
  6
CONTINUOUS
 62
   253
 10
270.657693758607
 20
275.974328100681
 30
0.0
 11
270.657693758607
 21
281.654605949707
 31
0.0
  0
LINE
  5
   279
  8
0
  6
CONTINUOUS
 62
   253
 10
270.657693758607
 20
281.411303279355
 30
0.0
 11
270.657693758607
 21
281.574328184128
 31
0.0
  0
LINE
  5
   27A
  8
0
  6
CONTINUOUS
 62
   253
 10
268.257693722844
 20
281.894329409599
 30
0.0
 11
268.257693722844
 21
282.174328193069
 31
0.0
  0
LINE
  5
   27B
  8
0
  6
CONTINUOUS
 62
   253
 10
268.257693722844
 20
275.374328091741
 30
0.0
 11
268.257693722844
 21
275.65432687521
 31
0.0
  0
LINE
  5
   27C
  8
0
  6
CONTINUOUS
 62
   253
 10
272.057693779469
 20
321.574328778165
 30
0.0
 11
281.257693916559
 21
321.574328778165
 31
0.0
  0
LINE
  5
   27D
  8
0
  6
CONTINUOUS
 62
   253
 10
272.057693779469
 20
314.774328676837
 30
0.0
 11
281.257693916559
 21
314.774328676837
 31
0.0
  0
LINE
  5
   27E
  8
0
  6
CONTINUOUS
 62
   253
 10
257.277871018949
 20
300.37432846427
 30
0.0
 11
272.057693779469
 21
300.37432846427
 31
0.0
  0
LINE
  5
   27F
  8
0
  6
CONTINUOUS
 62
   253
 10
261.469927355829
 20
321.574328778165
 30
0.0
 11
272.057693779469
 21
321.574328778165
 31
0.0
  0
LINE
  5
   280
  8
0
  6
CONTINUOUS
 62
   253
 10
257.384074862694
 20
314.774328676837
 30
0.0
 11
272.057693779469
 21
314.774328676837
 31
0.0
  0
LINE
  5
   281
  8
0
  6
CONTINUOUS
 62
   253
 10
257.305807530386
 20
314.644070142522
 30
0.0
 11
257.384074783682
 21
314.774328726322
 31
0.0
  0
LINE
  5
   282
  8
0
  6
CONTINUOUS
 62
   253
 10
255.101268622929
 20
300.37432846427
 30
0.0
 11
255.143173454486
 21
300.37432846427
 31
0.0
  0
LINE
  5
   283
  8
0
  6
CONTINUOUS
 62
   253
 10
255.101268563427
 20
300.37432846427
 30
0.0
 11
255.101268563427
 21
313.974328666925
 31
0.0
  0
LINE
  5
   284
  8
0
  6
CONTINUOUS
 62
   253
 10
255.143173454486
 20
300.37432846427
 30
0.0
 11
257.277871018949
 21
300.37432846427
 31
0.0
  0
LINE
  5
   285
  8
0
  6
CONTINUOUS
 62
   253
 10
255.143173487442
 20
300.37432846427
 30
0.0
 11
255.143173487442
 21
309.1743285954
 31
0.0
  0
LINE
  5
   286
  8
0
  6
CONTINUOUS
 62
   253
 10
257.305807553574
 20
314.644070116725
 30
0.0
 11
257.305807553574
 21
314.774328678846
 31
0.0
  0
LINE
  5
   287
  8
0
  6
CONTINUOUS
 62
   253
 10
256.542725820616
 20
314.774328676837
 30
0.0
 11
257.30580757332
 21
314.774328676837
 31
0.0
  0
LINE
  5
   288
  8
0
  6
CONTINUOUS
 62
   253
 10
255.10126856357
 20
313.974328668998
 30
0.0
 11
255.10390259439
 21
314.049757442712
 31
0.0
  0
LINE
  5
   289
  8
0
  6
CONTINUOUS
 62
   253
 10
269.897693747282
 20
339.794351634682
 30
0.0
 11
269.897693747282
 21
349.974329203367
 31
0.0
  0
LINE
  5
   28A
  8
0
  6
CONTINUOUS
 62
   253
 10
255.10390267143
 20
314.774328676837
 30
0.0
 11
256.542725820616
 21
314.774328676837
 31
0.0
  0
LINE
  5
   28B
  8
0
  6
CONTINUOUS
 62
   253
 10
255.103902597373
 20
309.1743285954
 30
0.0
 11
255.103902597373
 21
314.774328678846
 31
0.0
  0
LINE
  5
   28C
  8
0
  6
CONTINUOUS
 62
   253
 10
262.555162710601
 20
327.574329024064
 30
0.0
 11
269.897693081103
 21
339.794351668226
 31
0.0
  0
LINE
  5
   28D
  8
0
  6
CONTINUOUS
 62
   253
 10
258.949998576824
 20
321.574328778165
 30
0.0
 11
261.257693618536
 21
321.574328778165
 31
0.0
  0
LINE
  5
   28E
  8
0
  6
CONTINUOUS
 62
   253
 10
258.949998777457
 20
321.574328659622
 30
0.0
 11
261.257693802327
 21
325.414978141034
 31
0.0
  0
LINE
  5
   28F
  8
0
  6
CONTINUOUS
 62
   253
 10
282.05769392848
 20
353.174329251051
 30
0.0
 11
282.05769392848
 21
357.174329310656
 31
0.0
  0
LINE
  5
   290
  8
0
  6
CONTINUOUS
 62
   253
 10
282.05769392848
 20
273.174328058958
 30
0.0
 11
282.05769392848
 21
301.334328325987
 31
0.0
  0
LINE
  5
   291
  8
0
  6
CONTINUOUS
 62
   253
 10
282.05769392848
 20
353.174329251051
 30
0.0
 11
282.615451505151
 21
353.174329251051
 31
0.0
  0
LINE
  5
   292
  8
0
  6
CONTINUOUS
 62
   253
 10
282.05769392848
 20
346.374329149723
 30
0.0
 11
282.05769392848
 21
353.174329251051
 31
0.0
  0
LINE
  5
   293
  8
0
  6
CONTINUOUS
 62
   253
 10
282.05769392848
 20
313.174328655005
 30
0.0
 11
282.05769392848
 21
313.974328666925
 31
0.0
  0
LINE
  5
   294
  8
0
  6
CONTINUOUS
 62
   253
 10
282.05769392848
 20
322.374328792095
 30
0.0
 11
282.05769392848
 21
323.094328497648
 31
0.0
  0
LINE
  5
   295
  8
0
  6
CONTINUOUS
 62
   253
 10
282.05769392848
 20
357.174329310656
 30
0.0
 11
282.615451505151
 21
357.174329310656
 31
0.0
  0
LINE
  5
   296
  8
0
  6
CONTINUOUS
 62
   253
 10
282.05769392848
 20
357.174329310656
 30
0.0
 11
282.05769392848
 21
367.574329465628
 31
0.0
  0
LINE
  5
   297
  8
0
  6
CONTINUOUS
 62
   253
 10
278.057693868876
 20
314.774328678846
 30
0.0
 11
278.057693868876
 21
321.574328780174
 31
0.0
  0
LINE
  5
   298
  8
0
  6
CONTINUOUS
 62
   253
 10
286.857694000006
 20
370.774329513311
 30
0.0
 11
286.857694000006
 21
371.574329525232
 31
0.0
  0
LINE
  5
   299
  8
0
  6
CONTINUOUS
 62
   253
 10
286.057693988085
 20
370.774329513311
 30
0.0
 11
286.857694000006
 21
370.774329513311
 31
0.0
  0
ARC
  5
   29A
  8
0
  6
CONTINUOUS
 62
   253
 10
286.057655056887
 20
371.574207679729
 30
0.0
 40
0.800112810435008
 50
8.7261165555694E-3
 51
89.9972121830145
  0
LINE
  5
   29B
  8
0
  6
CONTINUOUS
 62
   253
 10
286.857694000006
 20
269.174327999353
 30
0.0
 11
286.857694000006
 21
269.974328011274
 31
0.0
  0
LINE
  5
   29C
  8
0
  6
CONTINUOUS
 62
   253
 10
286.057693988085
 20
269.974328011274
 30
0.0
 11
286.857694000006
 21
269.974328011274
 31
0.0
  0
ARC
  5
   29D
  8
0
  6
CONTINUOUS
 62
   253
 10
286.057885130284
 20
269.174446495969
 30
0.0
 40
0.799890568960073
 50
269.986312476243
 51
359.991511277
  0
LINE
  5
   29E
  8
0
  6
CONTINUOUS
 62
   253
 10
257.257694310996
 20
314.774328678846
 30
0.0
 11
257.257694310996
 21
321.574328780174
 31
0.0
  0
LINE
  5
   29F
  8
0
  6
CONTINUOUS
 62
   253
 10
258.77737284183
 20
322.374328790086
 30
0.0
 11
259.43068706055
 21
322.374328790086
 31
0.0
  0
LINE
  5
   2A0
  8
0
  6
CONTINUOUS
 62
   253
 10
281.257693916559
 20
321.574328780174
 30
0.0
 11
281.257693916559
 21
322.374328792095
 31
0.0
  0
LINE
  5
   2A1
  8
0
  6
CONTINUOUS
 62
   253
 10
281.257693916559
 20
322.374328790086
 30
0.0
 11
282.05769392848
 21
322.374328790086
 31
0.0
  0
LINE
  5
   2A2
  8
0
  6
CONTINUOUS
 62
   253
 10
281.257693916559
 20
313.974328666925
 30
0.0
 11
281.257693916559
 21
314.774328678846
 31
0.0
  0
LINE
  5
   2A3
  8
0
  6
CONTINUOUS
 62
   253
 10
281.257693916559
 20
313.974328664916
 30
0.0
 11
282.05769392848
 21
313.974328664916
 31
0.0
  0
LINE
  5
   2A4
  8
0
  6
CONTINUOUS
 62
   253
 10
261.901847986045
 20
327.574328869581
 30
0.0
 11
262.555162967704
 21
327.574328869581
 31
0.0
  0
LINE
  5
   2A5
  8
0
  6
CONTINUOUS
 62
   253
 10
261.257693802327
 20
325.414978141034
 30
0.0
 11
262.555162710601
 21
327.574329024064
 31
0.0
  0
LINE
  5
   2A6
  8
0
  6
CONTINUOUS
 62
   253
 10
261.257693618536
 20
321.574328778165
 30
0.0
 11
261.469927355829
 21
321.574328778165
 31
0.0
  0
LINE
  5
   2A7
  8
0
  6
CONTINUOUS
 62
   253
 10
272.057693779469
 20
274.180236277072
 30
0.0
 11
272.057693779469
 21
274.37432807684
 31
0.0
  0
LINE
  5
   2A8
  8
0
  6
CONTINUOUS
 62
   253
 10
272.057693779469
 20
273.974328070879
 30
0.0
 11
272.057693779469
 21
274.180236277072
 31
0.0
  0
LINE
  5
   2A9
  8
0
  6
CONTINUOUS
 62
   253
 10
272.057693779469
 20
366.375428080575
 30
0.0
 11
272.057693779469
 21
366.774329453707
 31
0.0
  0
LINE
  5
   2AA
  8
0
  6
CONTINUOUS
 62
     5
 10
282.05769392848
 20
323.094328497648
 30
0.0
 11
282.05769392848
 21
346.374329149723
 31
0.0
  0
LINE
  5
   2AB
  8
0
  6
CONTINUOUS
 62
     5
 10
282.05769392848
 20
301.334328325987
 30
0.0
 11
282.05769392848
 21
313.174328655005
 31
0.0
  0
LINE
  5
   2AC
  8
0
  6
CONTINUOUS
 62
   253
 10
268.257693722844
 20
357.574329316616
 30
0.0
 11
268.257693722844
 21
358.574329331517
 31
0.0
  0
LINE
  5
   2AD
  8
0
  6
CONTINUOUS
 62
   253
 10
268.257693722844
 20
365.374329432845
 30
0.0
 11
268.257693722844
 21
366.374329447746
 31
0.0
  0
LINE
  5
   2AE
  8
0
  6
CONTINUOUS
 62
   253
 10
268.257693722844
 20
357.574329316616
 30
0.0
 11
272.057693779469
 21
357.574329316616
 31
0.0
  0
LINE
  5
   2AF
  8
0
  6
CONTINUOUS
 62
   253
 10
268.257693722844
 20
366.374329447746
 30
0.0
 11
272.057693779469
 21
366.374329447746
 31
0.0
  0
LINE
  5
   2B0
  8
0
  6
CONTINUOUS
 62
   253
 10
270.657693758607
 20
359.174329340458
 30
0.0
 11
272.057693779469
 21
359.174329340458
 31
0.0
  0
LINE
  5
   2B1
  8
0
  6
CONTINUOUS
 62
   253
 10
270.657693758607
 20
364.774329423904
 30
0.0
 11
272.057693779469
 21
364.774329423904
 31
0.0
  0
LINE
  5
   2B2
  8
0
  6
CONTINUOUS
 62
   253
 10
272.057693779469
 20
368.156256964533
 30
0.0
 11
272.057693779469
 21
372.323676460227
 31
0.0
  0
LINE
  5
   2B3
  8
0
  6
CONTINUOUS
 62
   253
 10
270.657693758607
 20
358.574329331517
 30
0.0
 11
270.657693758607
 21
365.374329432845
 31
0.0
  0
LINE
  5
   2B4
  8
0
  6
CONTINUOUS
 62
   253
 10
270.657693758607
 20
359.094051574879
 30
0.0
 11
270.657693758607
 21
364.854607189484
 31
0.0
  0
LINE
  5
   2B5
  8
0
  6
CONTINUOUS
 62
   253
 10
268.257693722844
 20
358.574329331517
 30
0.0
 11
270.657693758607
 21
358.574329331517
 31
0.0
  0
LINE
  5
   2B6
  8
0
  6
CONTINUOUS
 62
   253
 10
268.257693722844
 20
365.374329432845
 30
0.0
 11
270.657693758607
 21
365.374329432845
 31
0.0
  0
LINE
  5
   2B7
  8
0
  6
CONTINUOUS
 62
   253
 10
277.657693862915
 20
353.174329251051
 30
0.0
 11
278.557693876326
 21
353.174329251051
 31
0.0
  0
ARC
  5
   2B8
  8
0
  6
CONTINUOUS
 62
   253
 10
277.657693862915
 20
351.574329227209
 30
0.0
 40
1.60000002384197
 50
90.0
 51
180.0
  0
LINE
  5
   2B9
  8
0
  6
CONTINUOUS
 62
   253
 10
276.057693839073
 20
349.974329203367
 30
0.0
 11
276.057693839073
 21
351.574329227209
 31
0.0
  0
LINE
  5
   2BA
  8
0
  6
CONTINUOUS
 62
   253
 10
278.457693874836
 20
351.574329227209
 30
0.0
 11
278.557693876326
 21
351.574329227209
 31
0.0
  0
ARC
  5
   2BB
  8
0
  6
CONTINUOUS
 62
   253
 10
278.457693874835
 20
351.174329221249
 30
0.0
 40
0.400000005959839
 50
89.9999999999186
 51
180.0
  0
LINE
  5
   2BC
  8
0
  6
CONTINUOUS
 62
   253
 10
278.057693868876
 20
349.974329203367
 30
0.0
 11
278.057693868876
 21
351.174329221249
 31
0.0
  0
LINE
  5
   2BD
  8
0
  6
CONTINUOUS
 62
   253
 10
272.057693779469
 20
357.574329316616
 30
0.0
 11
278.557693876326
 21
357.574329316616
 31
0.0
  0
LINE
  5
   2BE
  8
0
  6
CONTINUOUS
 62
   253
 10
272.057693779469
 20
372.32367410151
 30
0.0
 11
278.557693876326
 21
372.32367410151
 31
0.0
  0
LINE
  5
   2BF
  8
0
  6
CONTINUOUS
 62
   253
 10
272.057693779469
 20
359.174329340458
 30
0.0
 11
278.557693876326
 21
359.174329340458
 31
0.0
  0
LINE
  5
   2C0
  8
0
  6
CONTINUOUS
 62
   253
 10
272.057693779469
 20
364.774329423904
 30
0.0
 11
278.557693876326
 21
364.774329423904
 31
0.0
  0
LINE
  5
   2C1
  8
0
  6
CONTINUOUS
 62
   253
 10
272.057693779469
 20
366.376531981985
 30
0.0
 11
278.557693876326
 21
366.376531981985
 31
0.0
  0
LINE
  5
   2C2
  8
0
  6
CONTINUOUS
 62
   253
 10
272.057693779469
 20
368.156254762549
 30
0.0
 11
278.557693876326
 21
368.156254762549
 31
0.0
  0
LINE
  5
   2C3
  8
0
  6
CONTINUOUS
 62
   253
 10
272.057693779469
 20
268.374327985423
 30
0.0
 11
278.557693876326
 21
268.374327985423
 31
0.0
  0
LINE
  5
   2C4
  8
0
  6
CONTINUOUS
 62
   253
 10
268.257693722844
 20
282.174328193069
 30
0.0
 11
268.257693722844
 21
283.17432820797
 31
0.0
  0
LINE
  5
   2C5
  8
0
  6
CONTINUOUS
 62
   253
 10
268.257693722844
 20
274.37432807684
 30
0.0
 11
268.257693722844
 21
275.374328091741
 31
0.0
  0
LINE
  5
   2C6
  8
0
  6
CONTINUOUS
 62
   253
 10
268.257693722844
 20
274.374328072821
 30
0.0
 11
272.057693779469
 21
274.374328072821
 31
0.0
  0
LINE
  5
   2C7
  8
0
  6
CONTINUOUS
 62
   253
 10
268.257693722844
 20
283.174328203951
 30
0.0
 11
272.057693779469
 21
283.174328203951
 31
0.0
  0
LINE
  5
   2C8
  8
0
  6
CONTINUOUS
 62
   253
 10
270.657693758607
 20
281.574328180109
 30
0.0
 11
272.057693779469
 21
281.574328180109
 31
0.0
  0
LINE
  5
   2C9
  8
0
  6
CONTINUOUS
 62
   253
 10
270.657693758607
 20
275.974328096663
 30
0.0
 11
272.057693779469
 21
275.974328096663
 31
0.0
  0
LINE
  5
   2CA
  8
0
  6
CONTINUOUS
 62
   253
 10
272.057693779469
 20
268.374327987433
 30
0.0
 11
272.057693779469
 21
269.574328005314
 31
0.0
  0
LINE
  5
   2CB
  8
0
  6
CONTINUOUS
 62
   253
 10
270.657693758607
 20
281.574328184128
 30
0.0
 11
270.657693758607
 21
282.174328193069
 31
0.0
  0
LINE
  5
   2CC
  8
0
  6
CONTINUOUS
 62
   253
 10
270.657693758607
 20
275.374328091741
 30
0.0
 11
270.657693758607
 21
275.974328100681
 31
0.0
  0
LINE
  5
   2CD
  8
0
  6
CONTINUOUS
 62
   253
 10
268.257693722844
 20
275.374328091741
 30
0.0
 11
270.657693758607
 21
275.374328091741
 31
0.0
  0
LINE
  5
   2CE
  8
0
  6
CONTINUOUS
 62
   253
 10
268.257693722844
 20
282.174328193069
 30
0.0
 11
270.657693758607
 21
282.174328193069
 31
0.0
  0
LINE
  5
   2CF
  8
0
  6
CONTINUOUS
 62
   253
 10
272.057693779469
 20
283.174328203951
 30
0.0
 11
278.557693876326
 21
283.174328203951
 31
0.0
  0
LINE
  5
   2D0
  8
0
  6
CONTINUOUS
 62
   253
 10
272.057693779469
 20
281.574328180109
 30
0.0
 11
278.557693876326
 21
281.574328180109
 31
0.0
  0
LINE
  5
   2D1
  8
0
  6
CONTINUOUS
 62
   253
 10
272.057693779469
 20
275.974328096663
 30
0.0
 11
278.557693876326
 21
275.974328096663
 31
0.0
  0
LINE
  5
   2D2
  8
0
  6
CONTINUOUS
 62
   253
 10
272.057693779469
 20
274.374328072821
 30
0.0
 11
278.557693876326
 21
274.374328072821
 31
0.0
  0
LINE
  5
   2D3
  8
0
  6
CONTINUOUS
 62
   253
 10
272.057693779469
 20
269.574328003305
 30
0.0
 11
278.557693876326
 21
269.574328003305
 31
0.0
  0
LINE
  5
   2D4
  8
0
  6
CONTINUOUS
 62
   255
 10
301.561188443628
 20
330.575049440029
 30
0.0
 11
308.804288449715
 21
331.464390293852
 31
0.0
  0
LINE
  5
   2D5
  8
0
  6
CONTINUOUS
 62
   255
 10
309.68430035233
 20
330.836682601223
 30
0.0
 11
310.419070979959
 21
327.379858582915
 31
0.0
  0
LINE
  5
   2D6
  8
0
  6
CONTINUOUS
 62
   255
 10
298.855451158421
 20
323.456947419862
 30
0.0
 11
302.891822139168
 21
324.314904557154
 31
0.0
  0
LINE
  5
   2D7
  8
0
  6
CONTINUOUS
 62
   255
 10
301.561183207862
 20
330.575048246558
 30
0.0
 11
301.693350889886
 21
329.785269442659
 31
0.0
  0
LINE
  5
   2D8
  8
0
  6
CONTINUOUS
 62
   255
 10
298.855451081957
 20
329.999927308243
 30
0.0
 11
301.561188396874
 21
330.575049528684
 31
0.0
  0
ARC
  5
   2D9
  8
0
  6
CONTINUOUS
 62
   255
 10
309.636552913117
 20
327.213529106553
 30
0.0
 40
0.800000011920537
 50
287.000022888776
 51
372.000008871005
  0
LINE
  5
   2DA
  8
0
  6
CONTINUOUS
 62
   255
 10
302.891822177528
 20
324.314904564479
 30
0.0
 11
309.870450586107
 21
326.448485383481
 31
0.0
  0
LINE
  5
   2DB
  8
0
  6
CONTINUOUS
 62
   255
 10
302.691327633408
 20
325.090159819651
 30
0.0
 11
302.891815934497
 21
324.314903412255
 31
0.0
  0
ARC
  5
   2DC
  8
0
  6
CONTINUOUS
 62
   255
 10
308.901789720142
 20
330.670363590962
 30
0.0
 40
0.800000011920915
 50
11.9993863702046
 51
97.0005011880953
  0
ARC
  5
   2DD
  8
0
  6
CONTINUOUS
 62
   218
 10
248.857693433762
 20
356.774329304695
 30
0.0
 40
1.20000001788128
 50
269.999999999993
 51
360.0
  0
LINE
  5
   2DE
  8
0
  6
CONTINUOUS
 62
   218
 10
250.057693451643
 20
356.774329304695
 30
0.0
 11
250.057693451643
 21
365.574329435825
 31
0.0
  0
LINE
  5
   2DF
  8
0
  6
CONTINUOUS
 62
   218
 10
250.057693451643
 20
365.574329435825
 30
0.0
 11
252.057693481445
 21
365.574329435825
 31
0.0
  0
LINE
  5
   2E0
  8
0
  6
CONTINUOUS
 62
   218
 10
252.057693481445
 20
356.774329304695
 30
0.0
 11
252.057693481445
 21
365.574329435825
 31
0.0
  0
ARC
  5
   2E1
  8
0
  6
CONTINUOUS
 62
   218
 10
248.857693433762
 20
356.774329304695
 30
0.0
 40
3.20000004768372
 50
270.0
 51
360.0
  0
LINE
  5
   2E2
  8
0
  6
CONTINUOUS
 62
   218
 10
237.093076212508
 20
349.974329378044
 30
0.0
 11
237.898814305556
 21
352.981384878892
 31
0.0
  0
ARC
  5
   2E3
  8
0
  6
CONTINUOUS
 62
   218
 10
238.67155487236
 20
352.77432924509
 30
0.0
 40
0.800000011921203
 50
90.0000362681607
 51
164.999970739351
  0
LINE
  5
   2E4
  8
0
  6
CONTINUOUS
 62
   218
 10
238.671554365961
 20
353.574329257011
 30
0.0
 11
248.857693433762
 21
353.574329257011
 31
0.0
  0
LINE
  5
   2E5
  8
0
  6
CONTINUOUS
 62
   218
 10
238.671554365961
 20
355.574329286814
 30
0.0
 11
248.857693433762
 21
355.574329286814
 31
0.0
  0
ARC
  5
   2E6
  8
0
  6
CONTINUOUS
 62
   218
 10
238.67155487236
 20
352.77432924509
 30
0.0
 40
2.80000004172347
 50
90.0000103623293
 51
164.999968075088
  0
LINE
  5
   2E7
  8
0
  6
CONTINUOUS
 62
   218
 10
235.02252373857
 20
349.974329071033
 30
0.0
 11
235.966962922243
 21
353.499024089161
 31
0.0
  0
LINE
  5
   2E8
  8
0
  6
CONTINUOUS
 62
     2
 10
273.65769380331
 20
289.174328297377
 30
0.0
 11
274.057693809271
 21
289.174328297377
 31
0.0
  0
LINE
  5
   2E9
  8
0
  6
CONTINUOUS
 62
     2
 10
273.65769380331
 20
289.174328297377
 30
0.0
 11
273.65769380331
 21
290.774328321219
 31
0.0
  0
LINE
  5
   2EA
  8
0
  6
CONTINUOUS
 62
   218
 10
251.657693475485
 20
273.374328061938
 30
0.0
 11
251.657693475485
 21
283.57432821393
 31
0.0
  0
ARC
  5
   2EB
  8
0
  6
CONTINUOUS
 62
   218
 10
253.257693499327
 20
283.57432821393
 30
0.0
 40
1.60000002384191
 50
90.0
 51
180.0
  0
ARC
  5
   2EC
  8
0
  6
CONTINUOUS
 62
   218
 10
253.257693499327
 20
283.57432821393
 30
0.0
 40
3.20000004768372
 50
90.0
 51
180.0
  0
LINE
  5
   2ED
  8
0
  6
CONTINUOUS
 62
   218
 10
250.057693451643
 20
275.574328094721
 30
0.0
 11
250.057693451643
 21
283.57432821393
 31
0.0
  0
LINE
  5
   2EE
  8
0
  6
CONTINUOUS
 62
   218
 10
250.057693451643
 20
275.574328094721
 30
0.0
 11
251.657693475485
 21
275.574328094721
 31
0.0
  0
LINE
  5
   2EF
  8
0
  6
CONTINUOUS
 62
   218
 10
266.348869536686
 20
285.174328237772
 30
0.0
 11
278.557693876326
 21
285.174328237772
 31
0.0
  0
ARC
  5
   2F0
  8
0
  6
CONTINUOUS
 62
   218
 10
266.348869881814
 20
285.974328249693
 30
0.0
 40
0.800000011921188
 50
229.99997325182
 51
269.999975282032
  0
LINE
  5
   2F1
  8
0
  6
CONTINUOUS
 62
   218
 10
264.820049332255
 20
286.212835161941
 30
0.0
 11
265.834639500305
 21
285.361492926134
 31
0.0
  0
ARC
  5
   2F2
  8
0
  6
CONTINUOUS
 62
   218
 10
263.277359338242
 20
284.374328225851
 30
0.0
 40
2.40000003576286
 50
50.0000091069928
 51
90.0000038738294
  0
LINE
  5
   2F3
  8
0
  6
CONTINUOUS
 62
   218
 10
260.057693600655
 20
286.774328261614
 30
0.0
 11
263.277359175975
 21
286.774328261614
 31
0.0
  0
LINE
  5
   2F4
  8
0
  6
CONTINUOUS
 62
   218
 10
260.057693600655
 20
285.174328237772
 30
0.0
 11
263.277359175975
 21
285.174328237772
 31
0.0
  0
ARC
  5
   2F5
  8
0
  6
CONTINUOUS
 62
   218
 10
263.277359338242
 20
284.374328225851
 30
0.0
 40
0.800000011920909
 50
50.0000010894421
 51
90.0000116215003
  0
LINE
  5
   2F6
  8
0
  6
CONTINUOUS
 62
   218
 10
263.791589422003
 20
284.987163799258
 30
0.0
 11
264.806179590053
 21
284.13582156345
 31
0.0
  0
ARC
  5
   2F7
  8
0
  6
CONTINUOUS
 62
   218
 10
266.348869881814
 20
285.974328249693
 30
0.0
 40
2.40000003576301
 50
229.999999827782
 51
269.999991760677
  0
LINE
  5
   2F8
  8
0
  6
CONTINUOUS
 62
   218
 10
266.348869536686
 20
283.57432821393
 30
0.0
 11
278.557693876326
 21
283.57432821393
 31
0.0
  0
LINE
  5
   2F9
  8
0
  6
CONTINUOUS
 62
   218
 10
274.057693809271
 20
289.174328297377
 30
0.0
 11
278.557693876326
 21
289.174328297377
 31
0.0
  0
LINE
  5
   2FA
  8
0
  6
CONTINUOUS
 62
   218
 10
253.257693499327
 20
286.774328261614
 30
0.0
 11
260.057693600655
 21
286.774328261614
 31
0.0
  0
LINE
  5
   2FB
  8
0
  6
CONTINUOUS
 62
   218
 10
253.257693499327
 20
285.174328237772
 30
0.0
 11
260.057693600655
 21
285.174328237772
 31
0.0
  0
LINE
  5
   2FC
  8
0
  6
CONTINUOUS
 62
     2
 10
274.057693809271
 20
289.174328297377
 30
0.0
 11
274.057693809271
 21
290.774328321219
 31
0.0
  0
LINE
  5
   2FD
  8
0
  6
CONTINUOUS
 62
     2
 10
253.257693499327
 20
366.574329450727
 30
0.0
 11
259.657693594694
 21
366.574329450727
 31
0.0
  0
LINE
  5
   2FE
  8
0
  6
CONTINUOUS
 62
     2
 10
253.257693499327
 20
357.374329313636
 30
0.0
 11
259.657693594694
 21
357.374329313636
 31
0.0
  0
LINE
  5
   2FF
  8
0
  6
CONTINUOUS
 62
     2
 10
252.057693481445
 20
366.574329450727
 30
0.0
 11
253.257693499327
 21
366.574329450727
 31
0.0
  0
LINE
  5
   300
  8
0
  6
CONTINUOUS
 62
     2
 10
252.057693481445
 20
357.374329313636
 30
0.0
 11
253.257693499327
 21
357.374329313636
 31
0.0
  0
LINE
  5
   301
  8
0
  6
CONTINUOUS
 62
     2
 10
253.257693499327
 20
357.374329313636
 30
0.0
 11
253.257693499327
 21
366.574329450727
 31
0.0
  0
LINE
  5
   302
  8
0
  6
CONTINUOUS
 62
     2
 10
252.057693481445
 20
365.574329435825
 30
0.0
 11
252.057693481445
 21
366.574329450727
 31
0.0
  0
LINE
  5
   303
  8
0
  6
CONTINUOUS
 62
     2
 10
250.057693451643
 20
366.574329450727
 30
0.0
 11
252.057693481445
 21
366.574329450727
 31
0.0
  0
LINE
  5
   304
  8
0
  6
CONTINUOUS
 62
     2
 10
259.657693594694
 20
358.854328114986
 30
0.0
 11
259.657693594694
 21
365.094330649376
 31
0.0
  0
LINE
  5
   305
  8
0
  6
CONTINUOUS
 62
     2
 10
248.057693421841
 20
366.574329450727
 30
0.0
 11
250.057693451643
 21
366.574329450727
 31
0.0
  0
LINE
  5
   306
  8
0
  6
CONTINUOUS
 62
     2
 10
259.657693594694
 20
366.574329450727
 30
0.0
 11
262.457693636417
 21
366.574329450727
 31
0.0
  0
LINE
  5
   307
  8
0
  6
CONTINUOUS
 62
     2
 10
248.057693421841
 20
357.374329313636
 30
0.0
 11
250.057693451643
 21
357.374329313636
 31
0.0
  0
LINE
  5
   308
  8
0
  6
CONTINUOUS
 62
     2
 10
259.657693594694
 20
357.374329313636
 30
0.0
 11
262.457693636417
 21
357.374329313636
 31
0.0
  0
LINE
  5
   309
  8
0
  6
CONTINUOUS
 62
     2
 10
262.457693636417
 20
365.094330649376
 30
0.0
 11
262.457693636417
 21
366.574329450727
 31
0.0
  0
LINE
  5
   30A
  8
0
  6
CONTINUOUS
 62
     2
 10
262.457693636417
 20
357.374329313636
 30
0.0
 11
262.457693636417
 21
358.854328114986
 31
0.0
  0
LINE
  5
   30B
  8
0
  6
CONTINUOUS
 62
     2
 10
248.057693421841
 20
357.374329313636
 30
0.0
 11
248.057693421841
 21
366.574329450727
 31
0.0
  0
LINE
  5
   30C
  8
0
  6
CONTINUOUS
 62
     2
 10
259.657693594694
 20
357.374329313636
 30
0.0
 11
259.657693594694
 21
358.854328114986
 31
0.0
  0
LINE
  5
   30D
  8
0
  6
CONTINUOUS
 62
     2
 10
259.657693594694
 20
365.094330649376
 30
0.0
 11
259.657693594694
 21
366.574329450727
 31
0.0
  0
LINE
  5
   30E
  8
0
  6
CONTINUOUS
 62
     2
 10
250.057693451643
 20
357.374329313636
 30
0.0
 11
250.057693451643
 21
366.574329450727
 31
0.0
  0
LINE
  5
   30F
  8
0
  6
CONTINUOUS
 62
     2
 10
259.657693594694
 20
365.094329428673
 30
0.0
 11
262.457693636417
 21
365.094329428673
 31
0.0
  0
LINE
  5
   310
  8
0
  6
CONTINUOUS
 62
     2
 10
259.657693594694
 20
358.85432933569
 30
0.0
 11
262.457693636417
 21
358.85432933569
 31
0.0
  0
POLYLINE
  5
   311
  8
0
  6
CONTINUOUS
 62
     2
 66
     1
 10
0.0
 20
0.0
 30
0.0
  0
VERTEX
  5
   312
  8
0
  6
CONTINUOUS
 10
270.42098660996
 20
365.094329428669
 30
0.0
 40
0.0
 41
0.0
  0
VERTEX
  5
   313
  8
0
  6
CONTINUOUS
 10
270.65779051748
 20
364.854509096142
 30
0.0
 40
0.0
 41
0.0
  0
SEQEND
  5
   314
  8
0
  6
CONTINUOUS
 62
     2
  0
POLYLINE
  5
   315
  8
0
  6
CONTINUOUS
 62
     2
 66
     1
 10
0.0
 20
0.0
 30
0.0
  0
VERTEX
  5
   316
  8
0
  6
CONTINUOUS
 10
270.657884661545
 20
359.094245110738
 30
0.0
 40
0.0
 41
0.0
  0
VERTEX
  5
   317
  8
0
  6
CONTINUOUS
 10
270.420986609976
 20
358.854329335678
 30
0.0
 40
0.0
 41
0.0
  0
SEQEND
  5
   318
  8
0
  6
CONTINUOUS
 62
     2
  0
ARC
  5
   319
  8
0
  6
CONTINUOUS
 62
     2
 10
260.457693606611
 20
361.97432938218
 30
0.0
 40
0.800000011916684
 50
179.507746902039
 51
209.507896894452
  0
ARC
  5
   31A
  8
0
  6
CONTINUOUS
 62
     2
 10
260.457693606612
 20
361.974329382182
 30
0.0
 40
0.800000011918205
 50
149.999987601793
 51
179.507746902118
  0
LINE
  5
   31B
  8
0
  6
CONTINUOUS
 62
     2
 10
259.761438035834
 20
361.580279381985
 30
0.0
 11
261.335266613107
 21
358.854328323744
 31
0.0
  0
LINE
  5
   31C
  8
0
  6
CONTINUOUS
 62
     2
 10
259.764873359819
 20
362.37432953806
 30
0.0
 11
261.335266613107
 21
365.094330440618
 31
0.0
  0
LINE
  5
   31D
  8
0
  6
CONTINUOUS
 62
     2
 10
261.335266251528
 20
358.85432933569
 30
0.0
 11
270.420986609968
 21
358.85432933569
 31
0.0
  0
LINE
  5
   31E
  8
0
  6
CONTINUOUS
 62
     2
 10
261.335266251528
 20
365.094329428673
 30
0.0
 11
270.420986609968
 21
365.094329428673
 31
0.0
  0
LINE
  5
   31F
  8
0
  6
CONTINUOUS
 62
     2
 10
259.657693594694
 20
275.65432687521
 30
0.0
 11
259.657693594694
 21
281.894329409599
 31
0.0
  0
LINE
  5
   320
  8
0
  6
CONTINUOUS
 62
     2
 10
248.057693421841
 20
274.174328073859
 30
0.0
 11
250.057693451643
 21
274.174328073859
 31
0.0
  0
LINE
  5
   321
  8
0
  6
CONTINUOUS
 62
     2
 10
259.657693594694
 20
274.174328073859
 30
0.0
 11
262.457693636417
 21
274.174328073859
 31
0.0
  0
LINE
  5
   322
  8
0
  6
CONTINUOUS
 62
     2
 10
259.657693594694
 20
283.37432821095
 30
0.0
 11
262.457693636417
 21
283.37432821095
 31
0.0
  0
LINE
  5
   323
  8
0
  6
CONTINUOUS
 62
     2
 10
248.057693421841
 20
283.37432821095
 30
0.0
 11
250.057693451643
 21
283.37432821095
 31
0.0
  0
LINE
  5
   324
  8
0
  6
CONTINUOUS
 62
     2
 10
262.457693636417
 20
274.174328073859
 30
0.0
 11
262.457693636417
 21
275.65432687521
 31
0.0
  0
LINE
  5
   325
  8
0
  6
CONTINUOUS
 62
     2
 10
262.457693636417
 20
281.894329409599
 30
0.0
 11
262.457693636417
 21
283.37432821095
 31
0.0
  0
LINE
  5
   326
  8
0
  6
CONTINUOUS
 62
     2
 10
248.057693421841
 20
274.174328073859
 30
0.0
 11
248.057693421841
 21
283.37432821095
 31
0.0
  0
LINE
  5
   327
  8
0
  6
CONTINUOUS
 62
     2
 10
259.657693594694
 20
281.894329409599
 30
0.0
 11
259.657693594694
 21
283.37432821095
 31
0.0
  0
LINE
  5
   328
  8
0
  6
CONTINUOUS
 62
     2
 10
259.657693594694
 20
274.174328073859
 30
0.0
 11
259.657693594694
 21
275.65432687521
 31
0.0
  0
LINE
  5
   329
  8
0
  6
CONTINUOUS
 62
     2
 10
250.057693451643
 20
274.174328073859
 30
0.0
 11
250.057693451643
 21
283.37432821095
 31
0.0
  0
LINE
  5
   32A
  8
0
  6
CONTINUOUS
 62
     2
 10
259.657693594694
 20
281.894328188896
 30
0.0
 11
262.457693636417
 21
281.894328188896
 31
0.0
  0
LINE
  5
   32B
  8
0
  6
CONTINUOUS
 62
     2
 10
259.657693594694
 20
275.654328095913
 30
0.0
 11
262.457693636417
 21
275.654328095913
 31
0.0
  0
POLYLINE
  5
   32C
  8
0
  6
CONTINUOUS
 62
     2
 66
     1
 10
0.0
 20
0.0
 30
0.0
  0
VERTEX
  5
   32D
  8
0
  6
CONTINUOUS
 10
270.657884661545
 20
275.894243870961
 30
0.0
 40
0.0
 41
0.0
  0
VERTEX
  5
   32E
  8
0
  6
CONTINUOUS
 10
270.45769434283
 20
275.691472871845
 30
0.0
 40
0.0
 41
0.0
  0
SEQEND
  5
   32F
  8
0
  6
CONTINUOUS
 62
     2
  0
POLYLINE
  5
   330
  8
0
  6
CONTINUOUS
 62
     2
 66
     1
 10
0.0
 20
0.0
 30
0.0
  0
VERTEX
  5
   331
  8
0
  6
CONTINUOUS
 10
270.457694052733
 20
281.857183706525
 30
0.0
 40
0.0
 41
0.0
  0
VERTEX
  5
   332
  8
0
  6
CONTINUOUS
 10
270.65779051748
 20
281.654507856366
 30
0.0
 40
0.0
 41
0.0
  0
SEQEND
  5
   333
  8
0
  6
CONTINUOUS
 62
     2
  0
ARC
  5
   334
  8
0
  6
CONTINUOUS
 62
     2
 10
260.457693606617
 20
278.774328142404
 30
0.0
 40
0.800000011922464
 50
149.999987601908
 51
179.015457555776
  0
ARC
  5
   335
  8
0
  6
CONTINUOUS
 62
     2
 10
260.457693606615
 20
278.774328142404
 30
0.0
 40
0.800000011920615
 50
179.01545755579
 51
209.507706664879
  0
LINE
  5
   336
  8
0
  6
CONTINUOUS
 62
     2
 10
259.761436714384
 20
278.380280431026
 30
0.0
 11
261.335266613107
 21
275.654327083968
 31
0.0
  0
LINE
  5
   337
  8
0
  6
CONTINUOUS
 62
     2
 10
259.764873359819
 20
279.174328298283
 30
0.0
 11
261.335266613107
 21
281.894329200841
 31
0.0
  0
LINE
  5
   338
  8
0
  6
CONTINUOUS
 62
     2
 10
261.335266251528
 20
281.894328188896
 30
0.0
 11
269.417694350481
 21
281.894328188896
 31
0.0
  0
LINE
  5
   339
  8
0
  6
CONTINUOUS
 62
     2
 10
261.335266251528
 20
275.654328095913
 30
0.0
 11
269.417694350481
 21
275.654328095913
 31
0.0
  0
LINE
  5
   33A
  8
0
  6
CONTINUOUS
 62
     2
 10
250.057693451643
 20
274.174328073859
 30
0.0
 11
251.657693475485
 21
274.174328073859
 31
0.0
  0
LINE
  5
   33B
  8
0
  6
CONTINUOUS
 62
     2
 10
259.657693594694
 20
275.65432687521
 30
0.0
 11
259.657693594694
 21
281.894329409599
 31
0.0
  0
LINE
  5
   33C
  8
0
  6
CONTINUOUS
 62
     2
 10
248.057693421841
 20
274.174328073859
 30
0.0
 11
250.057693451643
 21
274.174328073859
 31
0.0
  0
LINE
  5
   33D
  8
0
  6
CONTINUOUS
 62
     2
 10
259.657693594694
 20
274.174328073859
 30
0.0
 11
262.457693636417
 21
274.174328073859
 31
0.0
  0
LINE
  5
   33E
  8
0
  6
CONTINUOUS
 62
     2
 10
259.657693594694
 20
283.37432821095
 30
0.0
 11
262.457693636417
 21
283.37432821095
 31
0.0
  0
LINE
  5
   33F
  8
0
  6
CONTINUOUS
 62
     2
 10
248.057693421841
 20
283.37432821095
 30
0.0
 11
250.057693451643
 21
283.37432821095
 31
0.0
  0
LINE
  5
   340
  8
0
  6
CONTINUOUS
 62
     2
 10
262.457693636417
 20
274.174328073859
 30
0.0
 11
262.457693636417
 21
275.65432687521
 31
0.0
  0
LINE
  5
   341
  8
0
  6
CONTINUOUS
 62
     2
 10
262.457693636417
 20
281.894329409599
 30
0.0
 11
262.457693636417
 21
283.37432821095
 31
0.0
  0
LINE
  5
   342
  8
0
  6
CONTINUOUS
 62
     2
 10
248.057693421841
 20
274.174328073859
 30
0.0
 11
248.057693421841
 21
283.37432821095
 31
0.0
  0
LINE
  5
   343
  8
0
  6
CONTINUOUS
 62
     2
 10
259.657693594694
 20
273.374328061938
 30
0.0
 11
259.657693594694
 21
275.65432687521
 31
0.0
  0
LINE
  5
   344
  8
0
  6
CONTINUOUS
 62
     2
 10
259.657693594694
 20
273.374328061938
 30
0.0
 11
259.657693594694
 21
284.374328225851
 31
0.0
  0
LINE
  5
   345
  8
0
  6
CONTINUOUS
 62
     2
 10
250.057693451643
 20
274.174328073859
 30
0.0
 11
250.057693451643
 21
283.37432821095
 31
0.0
  0
LINE
  5
   346
  8
0
  6
CONTINUOUS
 62
     2
 10
259.657693594694
 20
275.654328095913
 30
0.0
 11
262.457693636417
 21
275.654328095913
 31
0.0
  0
LINE
  5
   347
  8
0
  6
CONTINUOUS
 62
     2
 10
259.657693594694
 20
281.894328188896
 30
0.0
 11
262.457693636417
 21
281.894328188896
 31
0.0
  0
POLYLINE
  5
   348
  8
0
  6
CONTINUOUS
 62
     2
 66
     1
 10
0.0
 20
0.0
 30
0.0
  0
VERTEX
  5
   349
  8
0
  6
CONTINUOUS
 10
270.42098660996
 20
281.894328188892
 30
0.0
 40
0.0
 41
0.0
  0
VERTEX
  5
   34A
  8
0
  6
CONTINUOUS
 10
270.65779051748
 20
281.654507856366
 30
0.0
 40
0.0
 41
0.0
  0
SEQEND
  5
   34B
  8
0
  6
CONTINUOUS
 62
     2
  0
POLYLINE
  5
   34C
  8
0
  6
CONTINUOUS
 62
     2
 66
     1
 10
0.0
 20
0.0
 30
0.0
  0
VERTEX
  5
   34D
  8
0
  6
CONTINUOUS
 10
270.657884661545
 20
275.894243870961
 30
0.0
 40
0.0
 41
0.0
  0
VERTEX
  5
   34E
  8
0
  6
CONTINUOUS
 10
270.420986609976
 20
275.654328095901
 30
0.0
 40
0.0
 41
0.0
  0
SEQEND
  5
   34F
  8
0
  6
CONTINUOUS
 62
     2
  0
ARC
  5
   350
  8
0
  6
CONTINUOUS
 62
     2
 10
260.457693606615
 20
278.774328142404
 30
0.0
 40
0.800000011920615
 50
179.01545755579
 51
209.507706664879
  0
ARC
  5
   351
  8
0
  6
CONTINUOUS
 62
     2
 10
260.457693606617
 20
278.774328142404
 30
0.0
 40
0.800000011922464
 50
149.999987601908
 51
179.015457555776
  0
LINE
  5
   352
  8
0
  6
CONTINUOUS
 62
     2
 10
259.761436714384
 20
278.380280431026
 30
0.0
 11
261.335266613107
 21
275.654327083968
 31
0.0
  0
LINE
  5
   353
  8
0
  6
CONTINUOUS
 62
     2
 10
259.764873359819
 20
279.174328298283
 30
0.0
 11
261.335266613107
 21
281.894329200841
 31
0.0
  0
LINE
  5
   354
  8
0
  6
CONTINUOUS
 62
     2
 10
261.335266251528
 20
275.654328095913
 30
0.0
 11
270.420986609968
 21
275.654328095913
 31
0.0
  0
LINE
  5
   355
  8
0
  6
CONTINUOUS
 62
     2
 10
261.335266251528
 20
281.894328188896
 30
0.0
 11
270.420986609968
 21
281.894328188896
 31
0.0
  0
LINE
  5
   356
  8
0
  6
CONTINUOUS
 62
   212
 10
232.457693189383
 20
278.374328136444
 30
0.0
 11
232.457693189383
 21
278.774328142405
 31
0.0
  0
LINE
  5
   357
  8
0
  6
CONTINUOUS
 62
   212
 10
232.457693189383
 20
278.374328136443
 30
0.0
 11
241.878519288016
 21
278.374328136443
 31
0.0
  0
LINE
  5
   358
  8
0
  6
CONTINUOUS
 62
   212
 10
248.057693421841
 20
278.774328142405
 30
0.0
 11
248.057693421841
 21
279.974328160286
 31
0.0
  0
LINE
  5
   359
  8
0
  6
CONTINUOUS
 62
   212
 10
237.086205831595
 20
279.974328160286
 30
0.0
 11
248.057693421841
 21
279.974328160286
 31
0.0
  0
LINE
  5
   35A
  8
0
  6
CONTINUOUS
 62
   212
 10
233.257693201303
 20
279.974328160307
 30
0.0
 11
234.057693213224
 21
279.974328160307
 31
0.0
  0
LINE
  5
   35B
  8
0
  6
CONTINUOUS
 62
   212
 10
232.457693189383
 20
278.774328142389
 30
0.0
 11
248.057693421841
 21
278.774328142389
 31
0.0
  0
LINE
  5
   35C
  8
0
  6
CONTINUOUS
 62
   212
 10
232.457693189383
 20
278.774328142405
 30
0.0
 11
232.457693189383
 21
279.974328160286
 31
0.0
  0
LINE
  5
   35D
  8
0
  6
CONTINUOUS
 62
   212
 10
232.457693189383
 20
281.174328178189
 30
0.0
 11
233.257693201303
 21
281.174328178189
 31
0.0
  0
LINE
  5
   35E
  8
0
  6
CONTINUOUS
 62
   212
 10
232.457693189384
 20
279.974328160286
 30
0.0
 11
232.457693189384
 21
281.174328178167
 31
0.0
  0
LINE
  5
   35F
  8
0
  6
CONTINUOUS
 62
   212
 10
233.257693201305
 20
279.974328160286
 30
0.0
 11
233.257693201305
 21
281.174328178167
 31
0.0
  0
LINE
  5
   360
  8
0
  6
CONTINUOUS
 62
   212
 10
234.057693213224
 20
279.974328160286
 30
0.0
 11
234.057693213224
 21
280.054326940775
 31
0.0
  0
LINE
  5
   361
  8
0
  6
CONTINUOUS
 62
   212
 10
234.057693245448
 20
280.054328160627
 30
0.0
 11
237.086205831556
 21
279.974328158797
 31
0.0
  0
LINE
  5
   362
  8
0
  6
CONTINUOUS
 62
   253
 10
234.857693225145
 20
288.374328285456
 30
0.0
 11
260.457693606615
 21
288.374328285456
 31
0.0
  0
LINE
  5
   363
  8
0
  6
CONTINUOUS
 62
   253
 10
232.457693189383
 20
271.574328035116
 30
0.0
 11
250.857693463564
 21
271.574328035116
 31
0.0
  0
LINE
  5
   364
  8
0
  6
CONTINUOUS
 62
   253
 10
232.457693189383
 20
272.774328052998
 30
0.0
 11
250.857693463564
 21
272.774328052998
 31
0.0
  0
LINE
  5
   365
  8
0
  6
CONTINUOUS
 62
   253
 10
232.457693189383
 20
369.17432948947
 30
0.0
 11
262.057693630457
 21
369.17432948947
 31
0.0
  0
LINE
  5
   366
  8
0
  6
CONTINUOUS
 62
   253
 10
232.457693189383
 20
367.974329471588
 30
0.0
 11
262.057693630457
 21
367.974329471588
 31
0.0
  0
LINE
  5
   367
  8
0
  6
CONTINUOUS
 62
   253
 10
248.057693421841
 20
366.774329453707
 30
0.0
 11
262.057693630457
 21
366.774329453707
 31
0.0
  0
LINE
  5
   368
  8
0
  6
CONTINUOUS
 62
   253
 10
248.057693421841
 20
283.37432821095
 30
0.0
 11
248.057693421841
 21
283.57432821393
 31
0.0
  0
LINE
  5
   369
  8
0
  6
CONTINUOUS
 62
   253
 10
259.657693594694
 20
273.974328070879
 30
0.0
 11
262.057693630457
 21
273.974328070879
 31
0.0
  0
LINE
  5
   36A
  8
0
  6
CONTINUOUS
 62
   253
 10
259.657693594694
 20
283.57432821393
 30
0.0
 11
265.257693678141
 21
283.57432821393
 31
0.0
  0
LINE
  5
   36B
  8
0
  6
CONTINUOUS
 62
   253
 10
248.057693421841
 20
283.57432821393
 30
0.0
 11
250.057693451643
 21
283.57432821393
 31
0.0
  0
LINE
  5
   36C
  8
0
  6
CONTINUOUS
 62
   253
 10
260.457693606615
 20
287.174328267574
 30
0.0
 11
260.457693606615
 21
288.374328285456
 31
0.0
  0
LINE
  5
   36D
  8
0
  6
CONTINUOUS
 62
   253
 10
260.457693606615
 20
286.774328261614
 30
0.0
 11
260.457693606615
 21
287.174328267574
 31
0.0
  0
LINE
  5
   36E
  8
0
  6
CONTINUOUS
 62
   253
 10
272.057693779469
 20
285.174328237772
 30
0.0
 11
272.057693779469
 21
290.774328321219
 31
0.0
  0
LINE
  5
   36F
  8
0
  6
CONTINUOUS
 62
   253
 10
272.057693779469
 20
349.974329203367
 30
0.0
 11
272.057693779469
 21
351.048386226208
 31
0.0
  0
LINE
  5
   370
  8
0
  6
CONTINUOUS
 62
   253
 10
272.057693779469
 20
351.048386226208
 30
0.0
 11
272.057693779469
 21
352.056381846697
 31
0.0
  0
LINE
  5
   371
  8
0
  6
CONTINUOUS
 62
   253
 10
272.057693779469
 20
353.463757966301
 30
0.0
 11
272.057693779469
 21
354.344354903251
 31
0.0
  0
LINE
  5
   372
  8
0
  6
CONTINUOUS
 62
   253
 10
272.057693779469
 20
352.835867942297
 30
0.0
 11
272.057693779469
 21
353.213263577803
 31
0.0
  0
LINE
  5
   373
  8
0
  6
CONTINUOUS
 62
   253
 10
272.057693779469
 20
354.535800828956
 30
0.0
 11
272.057693779469
 21
354.874310965836
 31
0.0
  0
LINE
  5
   374
  8
0
  6
CONTINUOUS
 62
   253
 10
272.057693779469
 20
357.174329310656
 30
0.0
 11
272.057693779469
 21
357.574329316616
 31
0.0
  0
LINE
  5
   375
  8
0
  6
CONTINUOUS
 62
   253
 10
272.057693779469
 20
283.17432820797
 30
0.0
 11
272.057693779469
 21
283.57432821393
 31
0.0
  0
LINE
  5
   376
  8
0
  6
CONTINUOUS
 62
   253
 10
232.457693189383
 20
369.17432948947
 30
0.0
 11
232.457693189383
 21
372.374329537153
 31
0.0
  0
LINE
  5
   377
  8
0
  6
CONTINUOUS
 62
   253
 10
232.457693189383
 20
268.374327987433
 30
0.0
 11
232.457693189383
 21
271.574328035116
 31
0.0
  0
LINE
  5
   378
  8
0
  6
CONTINUOUS
 62
   253
 10
232.457693189383
 20
271.574328035116
 30
0.0
 11
232.457693189383
 21
272.774328052998
 31
0.0
  0
LINE
  5
   379
  8
0
  6
CONTINUOUS
 62
   253
 10
232.457693189383
 20
272.774328052998
 30
0.0
 11
232.457693189383
 21
273.974328070879
 31
0.0
  0
LINE
  5
   37A
  8
0
  6
CONTINUOUS
 62
   253
 10
232.457693189383
 20
367.974329471588
 30
0.0
 11
232.457693189383
 21
369.17432948947
 31
0.0
  0
LINE
  5
   37B
  8
0
  6
CONTINUOUS
 62
   253
 10
232.457693189383
 20
366.774329453707
 30
0.0
 11
232.457693189383
 21
367.974329471588
 31
0.0
  0
LINE
  5
   37C
  8
0
  6
CONTINUOUS
 62
   253
 10
232.457693189383
 20
372.374329537153
 30
0.0
 11
267.257693707943
 21
372.374329537153
 31
0.0
  0
LINE
  5
   37D
  8
0
  6
CONTINUOUS
 62
   253
 10
269.657693743706
 20
372.374329537153
 30
0.0
 11
270.057693749666
 21
372.374329537153
 31
0.0
  0
LINE
  5
   37E
  8
0
  6
CONTINUOUS
 62
   253
 10
232.457693189383
 20
290.774328321219
 30
0.0
 11
232.457693189383
 21
313.174328655005
 31
0.0
  0
LINE
  5
   37F
  8
0
  6
CONTINUOUS
 62
   253
 10
232.457693189383
 20
321.574328780174
 30
0.0
 11
232.457693189383
 21
349.974329203367
 31
0.0
  0
LINE
  5
   380
  8
0
  6
CONTINUOUS
 62
   253
 10
232.457693189383
 20
268.374327987433
 30
0.0
 11
250.857693463564
 21
268.374327987433
 31
0.0
  0
LINE
  5
   381
  8
0
  6
CONTINUOUS
 62
   253
 10
254.543902589029
 20
300.37432846427
 30
0.0
 11
254.543902589029
 21
314.774328676837
 31
0.0
  0
LINE
  5
   382
  8
0
  6
CONTINUOUS
 62
   253
 10
261.901847926941
 20
327.574328905094
 30
0.0
 11
269.337694291451
 21
339.949655443458
 31
0.0
  0
LINE
  5
   383
  8
0
  6
CONTINUOUS
 62
   253
 10
269.337693738937
 20
339.949655592074
 30
0.0
 11
269.337693738937
 21
349.974329203367
 31
0.0
  0
LINE
  5
   384
  8
0
  6
CONTINUOUS
 62
   253
 10
254.543902624938
 20
300.37432846427
 30
0.0
 11
255.131998870884
 21
300.37432846427
 31
0.0
  0
LINE
  5
   385
  8
0
  6
CONTINUOUS
 62
   253
 10
254.543902624938
 20
299.814328455925
 30
0.0
 11
271.497693160772
 21
299.814328455925
 31
0.0
  0
LINE
  5
   386
  8
0
  6
CONTINUOUS
 62
   253
 10
254.543902589029
 20
299.814328608513
 30
0.0
 11
254.543902589029
 21
300.37432846427
 31
0.0
  0
LINE
  5
   387
  8
0
  6
CONTINUOUS
 62
   253
 10
271.497693771124
 20
290.774328321219
 30
0.0
 11
271.497693771124
 21
299.814328608513
 31
0.0
  0
LINE
  5
   388
  8
0
  6
CONTINUOUS
 62
   253
 10
272.057693779469
 20
354.874310965836
 30
0.0
 11
272.057693779469
 21
355.330597593729
 31
0.0
  0
LINE
  5
   389
  8
0
  6
CONTINUOUS
 62
   253
 10
272.057693779469
 20
352.056381846697
 30
0.0
 11
272.057693779469
 21
352.835867942297
 31
0.0
  0
LINE
  5
   38A
  8
0
  6
CONTINUOUS
 62
   253
 10
258.296684094987
 20
321.574328709061
 30
0.0
 11
261.901847926941
 21
327.574328905094
 31
0.0
  0
LINE
  5
   38B
  8
0
  6
CONTINUOUS
 62
   253
 10
257.263902741763
 20
321.574328778165
 30
0.0
 11
258.296683976635
 21
321.574328778165
 31
0.0
  0
LINE
  5
   38C
  8
0
  6
CONTINUOUS
 62
   253
 10
249.657693445683
 20
357.174329310656
 30
0.0
 11
250.057693451643
 21
357.174329310656
 31
0.0
  0
LINE
  5
   38D
  8
0
  6
CONTINUOUS
 62
   253
 10
252.057693481445
 20
357.174329310656
 30
0.0
 11
272.057693779469
 21
357.174329310656
 31
0.0
  0
LINE
  5
   38E
  8
0
  6
CONTINUOUS
 62
   253
 10
272.057693779469
 20
355.574329286814
 30
0.0
 11
272.057693779469
 21
357.174329310656
 31
0.0
  0
LINE
  5
   38F
  8
0
  6
CONTINUOUS
 62
   253
 10
272.057693779469
 20
355.330597593729
 30
0.0
 11
272.057693779469
 21
355.574329286814
 31
0.0
  0
LINE
  5
   390
  8
0
  6
CONTINUOUS
 62
   253
 10
251.654356044481
 20
355.330645903297
 30
0.0
 11
272.057693779469
 21
355.330645903297
 31
0.0
  0
LINE
  5
   391
  8
0
  6
CONTINUOUS
 62
   253
 10
232.457693189383
 20
357.174329310656
 30
0.0
 11
232.457693189383
 21
365.174329429865
 31
0.0
  0
LINE
  5
   392
  8
0
  6
CONTINUOUS
 62
   253
 10
232.457693189383
 20
276.774328112602
 30
0.0
 11
232.457693189383
 21
278.374328136444
 31
0.0
  0
LINE
  5
   393
  8
0
  6
CONTINUOUS
 62
   253
 10
232.457693189383
 20
273.974328070879
 30
0.0
 11
246.457693397999
 21
273.974328070879
 31
0.0
  0
LINE
  5
   394
  8
0
  6
CONTINUOUS
 62
   253
 10
232.457693189383
 20
273.974328070879
 30
0.0
 11
232.457693189383
 21
276.774328112602
 31
0.0
  0
LINE
  5
   395
  8
0
  6
CONTINUOUS
 62
   253
 10
232.457693189383
 20
276.774328112602
 30
0.0
 11
246.457693397999
 21
276.774328112602
 31
0.0
  0
LINE
  5
   396
  8
0
  6
CONTINUOUS
 62
   253
 10
246.457693397999
 20
273.974328070879
 30
0.0
 11
251.657693475485
 21
273.974328070879
 31
0.0
  0
LINE
  5
   397
  8
0
  6
CONTINUOUS
 62
   253
 10
248.057693421841
 20
273.974328070879
 30
0.0
 11
248.057693421841
 21
274.174328073859
 31
0.0
  0
LINE
  5
   398
  8
0
  6
CONTINUOUS
 62
   253
 10
246.457693397999
 20
276.774328112602
 30
0.0
 11
246.457693397999
 21
278.374328136444
 31
0.0
  0
LINE
  5
   399
  8
0
  6
CONTINUOUS
 62
   253
 10
246.457693397999
 20
273.974328070879
 30
0.0
 11
246.457693397999
 21
276.774328112602
 31
0.0
  0
LINE
  5
   39A
  8
0
  6
CONTINUOUS
 62
   253
 10
246.457693397999
 20
278.374328136444
 30
0.0
 11
246.457693397999
 21
278.774328142405
 31
0.0
  0
LINE
  5
   39B
  8
0
  6
CONTINUOUS
 62
   253
 10
241.878519288016
 20
278.374328136444
 30
0.0
 11
246.457693397999
 21
278.374328136444
 31
0.0
  0
LINE
  5
   39C
  8
0
  6
CONTINUOUS
 62
   253
 10
265.257693678141
 20
283.57432821393
 30
0.0
 11
265.257693678141
 21
283.88705099691
 31
0.0
  0
LINE
  5
   39D
  8
0
  6
CONTINUOUS
 62
     3
 10
232.457693189383
 20
281.174328178167
 30
0.0
 11
232.457693189383
 21
281.334328790903
 31
0.0
  0
LINE
  5
   39E
  8
0
  6
CONTINUOUS
 62
     3
 10
232.457693189383
 20
321.574328778165
 30
0.0
 11
257.263902741763
 21
321.574328778165
 31
0.0
  0
LINE
  5
   39F
  8
0
  6
CONTINUOUS
 62
     3
 10
257.26390262956
 20
314.774328678846
 30
0.0
 11
257.26390262956
 21
321.574328780174
 31
0.0
  0
LINE
  5
   3A0
  8
0
  6
CONTINUOUS
 62
     3
 10
232.457693189383
 20
313.174328655005
 30
0.0
 11
232.457693189383
 21
321.574328780174
 31
0.0
  0
LINE
  5
   3A1
  8
0
  6
CONTINUOUS
 62
     3
 10
254.863902515265
 20
313.974328664916
 30
0.0
 11
255.101268622929
 21
313.974328664916
 31
0.0
  0
LINE
  5
   3A2
  8
0
  6
CONTINUOUS
 62
     3
 10
255.114698837057
 20
312.374328641074
 30
0.0
 11
255.117366836364
 21
312.374328641074
 31
0.0
  0
LINE
  5
   3A3
  8
0
  6
CONTINUOUS
 62
     3
 10
254.543902627015
 20
313.985503309994
 30
0.0
 11
254.863902515291
 21
313.974328667658
 31
0.0
  0
LINE
  5
   3A4
  8
0
  6
CONTINUOUS
 62
     3
 10
232.457693189383
 20
314.774328676837
 30
0.0
 11
254.543902624938
 21
314.774328676837
 31
0.0
  0
ARC
  5
   3A5
  8
0
  6
CONTINUOUS
 62
     3
 10
234.857735697718
 20
289.174448295024
 30
0.0
 40
0.800116680472555
 50
180.008593742013
 51
269.996958582302
  0
LINE
  5
   3A6
  8
0
  6
CONTINUOUS
 62
   253
 10
234.057693213224
 20
349.974329203367
 30
0.0
 11
234.057693213224
 21
354.774329274893
 31
0.0
  0
LINE
  5
   3A7
  8
0
  6
CONTINUOUS
 62
   253
 10
234.857693225145
 20
355.574329286814
 30
0.0
 11
248.857693433762
 21
355.574329286814
 31
0.0
  0
LINE
  5
   3A8
  8
0
  6
CONTINUOUS
 62
   253
 10
267.257693707943
 20
369.17432948947
 30
0.0
 11
267.257693707943
 21
372.374329537153
 31
0.0
  0
LINE
  5
   3A9
  8
0
  6
CONTINUOUS
 62
   253
 10
262.057693630457
 20
369.17432948947
 30
0.0
 11
267.257693707943
 21
369.17432948947
 31
0.0
  0
LINE
  5
   3AA
  8
0
  6
CONTINUOUS
 62
   253
 10
262.057693630457
 20
366.774329453707
 30
0.0
 11
262.057693630457
 21
369.17432948947
 31
0.0
  0
LINE
  5
   3AB
  8
0
  6
CONTINUOUS
 62
   253
 10
232.457693189383
 20
366.774329453707
 30
0.0
 11
248.057693421841
 21
366.774329453707
 31
0.0
  0
LINE
  5
   3AC
  8
0
  6
CONTINUOUS
 62
   253
 10
248.057693421841
 20
357.174329310656
 30
0.0
 11
248.057693421841
 21
366.774329453707
 31
0.0
  0
LINE
  5
   3AD
  8
0
  6
CONTINUOUS
 62
   253
 10
262.057693630457
 20
366.774329453707
 30
0.0
 11
272.057693779469
 21
366.774329453707
 31
0.0
  0
LINE
  5
   3AE
  8
0
  6
CONTINUOUS
 62
   253
 10
248.057693421841
 20
357.174329310656
 30
0.0
 11
249.657693445683
 21
357.174329310656
 31
0.0
  0
LINE
  5
   3AF
  8
0
  6
CONTINUOUS
 62
   253
 10
269.657693743706
 20
369.17432948947
 30
0.0
 11
269.657693743706
 21
372.374329537153
 31
0.0
  0
LINE
  5
   3B0
  8
0
  6
CONTINUOUS
 62
   253
 10
269.657693743706
 20
369.17432948947
 30
0.0
 11
272.057693779469
 21
369.17432948947
 31
0.0
  0
LINE
  5
   3B1
  8
0
  6
CONTINUOUS
 62
   253
 10
272.057693779469
 20
366.774329453707
 30
0.0
 11
272.057693779469
 21
369.17432948947
 31
0.0
  0
LINE
  5
   3B2
  8
0
  6
CONTINUOUS
 62
   253
 10
232.457693189383
 20
349.974329203367
 30
0.0
 11
232.457693189383
 21
357.174329310656
 31
0.0
  0
LINE
  5
   3B3
  8
0
  6
CONTINUOUS
 62
   253
 10
232.457693189383
 20
365.174329429865
 30
0.0
 11
232.457693189383
 21
366.774329453707
 31
0.0
  0
LINE
  5
   3B4
  8
0
  6
CONTINUOUS
 62
   253
 10
267.257693707943
 20
372.374329537153
 30
0.0
 11
269.657693743706
 21
372.374329537153
 31
0.0
  0
ARC
  5
   3B5
  8
0
  6
CONTINUOUS
 62
   253
 10
234.857693225145
 20
354.774329274893
 30
0.0
 40
0.800000011920872
 50
89.9999999999919
 51
180.0
  0
LINE
  5
   3B6
  8
0
  6
CONTINUOUS
 62
   253
 10
249.657693445683
 20
356.374329298735
 30
0.0
 11
249.657693445683
 21
357.174329310656
 31
0.0
  0
LINE
  5
   3B7
  8
0
  6
CONTINUOUS
 62
   253
 10
248.857693433762
 20
355.574329286814
 30
0.0
 11
249.657693445683
 21
356.374329298735
 31
0.0
  0
LINE
  5
   3B8
  8
0
  6
CONTINUOUS
 62
   253
 10
246.457693397999
 20
357.174329310656
 30
0.0
 11
246.457693397999
 21
365.174329429865
 31
0.0
  0
LINE
  5
   3B9
  8
0
  6
CONTINUOUS
 62
   253
 10
232.457693189383
 20
365.174329429865
 30
0.0
 11
246.457693397999
 21
365.174329429865
 31
0.0
  0
LINE
  5
   3BA
  8
0
  6
CONTINUOUS
 62
   253
 10
232.457693189383
 20
357.174329310656
 30
0.0
 11
246.457693397999
 21
357.174329310656
 31
0.0
  0
LINE
  5
   3BB
  8
0
  6
CONTINUOUS
 62
   253
 10
234.057693213224
 20
279.974328160286
 30
0.0
 11
234.057693213224
 21
290.774328321219
 31
0.0
  0
LINE
  5
   3BC
  8
0
  6
CONTINUOUS
 62
   253
 10
269.657693743706
 20
268.374327987433
 30
0.0
 11
269.657693743706
 21
271.574328035116
 31
0.0
  0
LINE
  5
   3BD
  8
0
  6
CONTINUOUS
 62
   253
 10
262.057693630457
 20
271.574328035116
 30
0.0
 11
269.657693743706
 21
271.574328035116
 31
0.0
  0
LINE
  5
   3BE
  8
0
  6
CONTINUOUS
 62
   253
 10
262.057693630457
 20
271.574328035116
 30
0.0
 11
262.057693630457
 21
273.974328070879
 31
0.0
  0
LINE
  5
   3BF
  8
0
  6
CONTINUOUS
 62
   253
 10
262.057693630457
 20
273.974328070879
 30
0.0
 11
272.057693779469
 21
273.974328070879
 31
0.0
  0
LINE
  5
   3C0
  8
0
  6
CONTINUOUS
 62
   253
 10
272.057693779469
 20
268.374327987433
 30
0.0
 11
272.057693779469
 21
273.974328070879
 31
0.0
  0
LINE
  5
   3C1
  8
0
  6
CONTINUOUS
 62
   253
 10
232.457693189383
 20
281.334328790903
 30
0.0
 11
232.457693189383
 21
290.774328321219
 31
0.0
  0
LINE
  5
   3C2
  8
0
  6
CONTINUOUS
 62
   253
 10
260.457693606615
 20
268.374327987433
 30
0.0
 11
272.057693779469
 21
268.374327987433
 31
0.0
  0
LINE
  5
   3C3
  8
0
  6
CONTINUOUS
 62
   253
 10
233.257693201303
 20
279.974328160286
 30
0.0
 11
234.057693213224
 21
279.974328160286
 31
0.0
  0
LINE
  5
   3C4
  8
0
  6
CONTINUOUS
 62
     3
 10
233.257693201303
 20
279.974328160286
 30
0.0
 11
233.257693201303
 21
281.334328790903
 31
0.0
  0
LINE
  5
   3C5
  8
0
  6
CONTINUOUS
 62
     3
 10
232.457693189383
 20
281.334328180552
 30
0.0
 11
233.257693201303
 21
281.334328180552
 31
0.0
  0
ARC
  5
   3C6
  8
0
  6
CONTINUOUS
 62
     1
 10
298.695451757967
 20
299.41432688276
 30
0.0
 40
0.160000002382884
 50
269.99955813384
 51
360.000615857297
  0
ARC
  5
   3C7
  8
0
  6
CONTINUOUS
 62
     1
 10
298.695450190636
 20
332.534328943365
 30
0.0
 40
0.160000002383327
 50
2.18611071775736E-4
 51
90.0075304280183
  0
LINE
  5
   3C8
  8
0
  6
CONTINUOUS
 62
     1
 10
298.055450181226
 20
299.25432844758
 30
0.0
 11
298.695450524058
 21
299.25432844758
 31
0.0
  0
LINE
  5
   3C9
  8
0
  6
CONTINUOUS
 62
     1
 10
298.055450181226
 20
332.694328945875
 30
0.0
 11
298.695429161753
 21
332.694328945875
 31
0.0
  0
LINE
  5
   3CA
  8
0
  6
CONTINUOUS
 62
     1
 10
298.855450193147
 20
299.414328602552
 30
0.0
 11
298.855450193147
 21
332.534329553843
 31
0.0
  0
LINE
  5
   3CB
  8
0
  6
CONTINUOUS
 62
     2
 10
286.055450946059
 20
358.614329332113
 30
0.0
 11
288.455450981822
 21
358.614329332113
 31
0.0
  0
LINE
  5
   3CC
  8
0
  6
CONTINUOUS
 62
     2
 10
288.45545110526
 20
333.974328964949
 30
0.0
 11
288.45545110526
 21
358.614328721762
 31
0.0
  0
LINE
  5
   3CD
  8
0
  6
CONTINUOUS
 62
     2
 10
287.895451096915
 20
358.614328721762
 30
0.0
 11
287.895451096915
 21
359.174329340458
 31
0.0
  0
LINE
  5
   3CE
  8
0
  6
CONTINUOUS
 62
     2
 10
286.857694000006
 20
359.174329340458
 30
0.0
 11
286.857694000006
 21
367.574329465628
 31
0.0
  0
LINE
  5
   3CF
  8
0
  6
CONTINUOUS
 62
     2
 10
286.055450946059
 20
282.134328192473
 30
0.0
 11
288.455450981822
 21
282.134328192473
 31
0.0
  0
LINE
  5
   3D0
  8
0
  6
CONTINUOUS
 62
     2
 10
288.45545110526
 20
282.134328802824
 30
0.0
 11
288.45545110526
 21
297.974328428507
 31
0.0
  0
LINE
  5
   3D1
  8
0
  6
CONTINUOUS
 62
     2
 10
287.895451096915
 20
281.574328184128
 30
0.0
 11
287.895451096915
 21
282.134328802824
 31
0.0
  0
LINE
  5
   3D2
  8
0
  6
CONTINUOUS
 62
     2
 10
285.495450327363
 20
281.574328184128
 30
0.0
 11
287.895450363126
 21
281.574328184128
 31
0.0
  0
LINE
  5
   3D3
  8
0
  6
CONTINUOUS
 62
     2
 10
286.857694000006
 20
273.174328058958
 30
0.0
 11
286.857694000006
 21
281.574328184128
 31
0.0
  0
LINE
  5
   3D4
  8
0
  6
CONTINUOUS
 62
     2
 10
298.855450193147
 20
297.974328428507
 30
0.0
 11
298.855450193147
 21
299.174328446388
 31
0.0
  0
LINE
  5
   3D5
  8
0
  6
CONTINUOUS
 62
     2
 10
298.055450181226
 20
297.974328428507
 30
0.0
 11
298.855451136794
 21
297.974328428507
 31
0.0
  0
LINE
  5
   3D6
  8
0
  6
CONTINUOUS
 62
     2
 10
298.055450181226
 20
299.174328446389
 30
0.0
 11
298.855451136794
 21
299.174328446389
 31
0.0
  0
LINE
  5
   3D7
  8
0
  6
CONTINUOUS
 62
     2
 10
298.855450193147
 20
332.774328947067
 30
0.0
 11
298.855450193147
 21
333.974328964949
 31
0.0
  0
LINE
  5
   3D8
  8
0
  6
CONTINUOUS
 62
     2
 10
298.055450181226
 20
332.774328947068
 30
0.0
 11
298.855451136794
 21
332.774328947068
 31
0.0
  0
LINE
  5
   3D9
  8
0
  6
CONTINUOUS
 62
     2
 10
298.055450181226
 20
333.974328964949
 30
0.0
 11
298.855451136794
 21
333.974328964949
 31
0.0
  0
LINE
  5
   3DA
  8
0
  6
CONTINUOUS
 62
     2
 10
286.057693988085
 20
367.574329465627
 30
0.0
 11
286.857694000006
 21
367.574329465627
 31
0.0
  0
LINE
  5
   3DB
  8
0
  6
CONTINUOUS
 62
     2
 10
282.05769392848
 20
367.574329465628
 30
0.0
 11
285.257693976164
 21
367.574329465628
 31
0.0
  0
LINE
  5
   3DC
  8
0
  6
CONTINUOUS
 62
     2
 10
285.257693976164
 20
367.574329465628
 30
0.0
 11
286.057693988085
 21
367.574329465628
 31
0.0
  0
LINE
  5
   3DD
  8
0
  6
CONTINUOUS
 62
     2
 10
286.057693988085
 20
273.174328058958
 30
0.0
 11
286.857694000006
 21
273.174328058958
 31
0.0
  0
LINE
  5
   3DE
  8
0
  6
CONTINUOUS
 62
     2
 10
285.257693976164
 20
273.174328058958
 30
0.0
 11
286.057693988085
 21
273.174328058958
 31
0.0
  0
LINE
  5
   3DF
  8
0
  6
CONTINUOUS
 62
     2
 10
282.615451505151
 20
282.134328192473
 30
0.0
 11
286.055450946059
 21
282.134328192473
 31
0.0
  0
LINE
  5
   3E0
  8
0
  6
CONTINUOUS
 62
     2
 10
282.615451505151
 20
358.614329332113
 30
0.0
 11
286.055450946059
 21
358.614329332113
 31
0.0
  0
LINE
  5
   3E1
  8
0
  6
CONTINUOUS
 62
     2
 10
282.615451018237
 20
353.174329251051
 30
0.0
 11
282.615451018237
 21
357.174329310656
 31
0.0
  0
LINE
  5
   3E2
  8
0
  6
CONTINUOUS
 62
     2
 10
286.055450946059
 20
333.97432896495
 30
0.0
 11
293.255451053348
 21
333.97432896495
 31
0.0
  0
LINE
  5
   3E3
  8
0
  6
CONTINUOUS
 62
     2
 10
293.255451053348
 20
333.97432896495
 30
0.0
 11
295.255450139502
 21
333.97432896495
 31
0.0
  0
LINE
  5
   3E4
  8
0
  6
CONTINUOUS
 62
     2
 10
286.055450946059
 20
297.974328428507
 30
0.0
 11
293.255451053348
 21
297.974328428507
 31
0.0
  0
LINE
  5
   3E5
  8
0
  6
CONTINUOUS
 62
     2
 10
293.255451053348
 20
297.974328428508
 30
0.0
 11
295.255450139502
 21
297.974328428508
 31
0.0
  0
LINE
  5
   3E6
  8
0
  6
CONTINUOUS
 62
     2
 10
285.495450327363
 20
359.174329340458
 30
0.0
 11
287.895450363126
 21
359.174329340458
 31
0.0
  0
LINE
  5
   3E7
  8
0
  6
CONTINUOUS
 62
     2
 10
282.05769392848
 20
359.174329340458
 30
0.0
 11
285.495450327363
 21
359.174329340458
 31
0.0
  0
LINE
  5
   3E8
  8
0
  6
CONTINUOUS
 62
     2
 10
282.05769392848
 20
273.174328058958
 30
0.0
 11
285.257693976164
 21
273.174328058958
 31
0.0
  0
LINE
  5
   3E9
  8
0
  6
CONTINUOUS
 62
     2
 10
282.05769392848
 20
281.574328184128
 30
0.0
 11
285.495450327363
 21
281.574328184128
 31
0.0
  0
LINE
  5
   3EA
  8
0
  6
CONTINUOUS
 62
     2
 10
282.615451018237
 20
357.174329310656
 30
0.0
 11
282.615451018237
 21
358.614328721762
 31
0.0
  0
LINE
  5
   3EB
  8
0
  6
CONTINUOUS
 62
     2
 10
282.615451018237
 20
282.134328802824
 30
0.0
 11
282.615451018237
 21
353.174329251051
 31
0.0
  0
LINE
  5
   3EC
  8
0
  6
CONTINUOUS
 62
     2
 10
282.055451009893
 20
313.974328666925
 30
0.0
 11
282.055451009893
 21
322.374328792095
 31
0.0
  0
LINE
  5
   3ED
  8
0
  6
DASHDOT
 62
     7
 10
257.76769356653
 20
361.974329382181
 30
0.0
 11
280.447693904489
 21
361.974329382181
 31
0.0
  0
LINE
  5
   3EE
  8
0
  6
DASHDOT
 62
     7
 10
257.76769356653
 20
278.774328138386
 30
0.0
 11
280.447693904489
 21
278.774328138386
 31
0.0
  0
INSERT
  5
   3EF
  8
0
  6
CONTINUOUS
 62
     7
  2
*HATCH2583
 10
0.0
 20
0.0
 30
0.0
  0
INSERT
  5
   3F0
  8
0
  6
CONTINUOUS
 62
     7
  2
*HATCH2584
 10
0.0
 20
0.0
 30
0.0
  0
INSERT
  5
   3F1
  8
0
  6
CONTINUOUS
 62
     7
  2
*HATCH2585
 10
0.0
 20
0.0
 30
0.0
  0
INSERT
  5
   3F2
  8
0
  6
CONTINUOUS
 62
     7
  2
*HATCH2586
 10
0.0
 20
0.0
 30
0.0
  0
INSERT
  5
   3F3
  8
0
  6
CONTINUOUS
 62
     7
  2
*HATCH2587
 10
0.0
 20
0.0
 30
0.0
  0
INSERT
  5
   3F4
  8
0
  6
CONTINUOUS
 62
     7
  2
*HATCH2588
 10
0.0
 20
0.0
 30
0.0
  0
INSERT
  5
   3F5
  8
0
  6
CONTINUOUS
 62
     7
  2
*HATCH2589
 10
0.0
 20
0.0
 30
0.0
  0
INSERT
  5
   3F6
  8
0
  6
CONTINUOUS
 62
     7
  2
*HATCH2590
 10
0.0
 20
0.0
 30
0.0
  0
INSERT
  5
   3F7
  8
0
  6
CONTINUOUS
 62
     7
  2
*HATCH2591
 10
0.0
 20
0.0
 30
0.0
  0
INSERT
  5
   3F8
  8
0
  6
CONTINUOUS
 62
     7
  2
*HATCH2592
 10
0.0
 20
0.0
 30
0.0
  0
INSERT
  5
   3F9
  8
0
  6
CONTINUOUS
 62
     7
  2
*HATCH2593
 10
0.0
 20
0.0
 30
0.0
  0
INSERT
  5
   3FA
  8
0
  6
CONTINUOUS
 62
     7
  2
*HATCH2594
 10
0.0
 20
0.0
 30
0.0
  0
INSERT
  5
   3FB
  8
0
  6
CONTINUOUS
 62
     7
  2
*HATCH2595
 10
0.0
 20
0.0
 30
0.0
  0
INSERT
  5
   3FC
  8
0
  6
CONTINUOUS
 62
     7
  2
*HATCH2596
 10
0.0
 20
0.0
 30
0.0
  0
INSERT
  5
   3FD
  8
0
  6
CONTINUOUS
 62
     7
  2
*HATCH2597
 10
0.0
 20
0.0
 30
0.0
  0
INSERT
  5
   3FE
  8
0
  6
CONTINUOUS
 62
     7
  2
*HATCH2598
 10
0.0
 20
0.0
 30
0.0
  0
INSERT
  5
   3FF
  8
0
  6
CONTINUOUS
 62
     7
  2
*HATCH2599
 10
0.0
 20
0.0
 30
0.0
  0
INSERT
  5
   400
  8
0
  6
CONTINUOUS
 62
     7
  2
*HATCH2600
 10
0.0
 20
0.0
 30
0.0
  0
INSERT
  5
   401
  8
0
  6
CONTINUOUS
 62
     7
  2
*HATCH2601
 10
0.0
 20
0.0
 30
0.0
  0
INSERT
  5
   402
  8
0
  6
CONTINUOUS
 62
     7
  2
*HATCH2602
 10
0.0
 20
0.0
 30
0.0
  0
INSERT
  5
   403
  8
0
  6
CONTINUOUS
 62
     7
  2
*HATCH2603
 10
0.0
 20
0.0
 30
0.0
  0
LINE
  5
   404
  8
0
  6
CONTINUOUS
 62
     7
 10
270.420986609968
 20
275.654328095913
 30
0.0
 11
270.420986609968
 21
281.894328188896
 31
0.0
  0
LINE
  5
   405
  8
0
  6
CONTINUOUS
 62
     7
 10
260.457693606615
 20
259.305060869628
 30
0.0
 11
260.457693606615
 21
273.374328061938
 31
0.0
  0
LINE
  5
   406
  8
0
  6
CONTINUOUS
 62
   253
 10
260.457693606615
 20
272.774328052998
 30
0.0
 11
262.057693630457
 21
272.774328052998
 31
0.0
  0
LINE
  5
   407
  8
0
  6
CONTINUOUS
 62
   253
 10
260.457693606615
 20
271.574328035116
 30
0.0
 11
262.057693630457
 21
271.574328035116
 31
0.0
  0
LINE
  5
   408
  8
0
  6
CONTINUOUS
 62
     7
 10
261.335266613107
 20
275.654327083968
 30
0.0
 11
261.335266613107
 21
281.894329200841
 31
0.0
  0
LINE
  5
   409
  8
0
  6
CONTINUOUS
 62
     7
 10
261.104325917743
 20
281.494328182936
 30
0.0
 11
270.420986609968
 21
281.494328182936
 31
0.0
  0
LINE
  5
   40A
  8
0
  6
CONTINUOUS
 62
     7
 10
261.104325917743
 20
276.054328101873
 30
0.0
 11
270.420986609968
 21
276.054328101873
 31
0.0
  0
INSERT
  5
   40B
  8
0
  6
CONTINUOUS
 62
     7
  2
*HATCH2604
 10
0.0
 20
0.0
 30
0.0
  0
ARC
  5
   40C
  8
0
  6
CONTINUOUS
 62
     7
 10
253.257693499327
 20
261.10506089645
 30
0.0
 40
3.00000004470344
 50
216.869897645842
 51
323.130102354155
  0
ARC
  5
   40D
  8
0
  6
CONTINUOUS
 62
     7
 10
258.057693570852
 20
257.505060842805
 30
0.0
 40
3.00000004470359
 50
36.8698976458466
 51
143.130102354155
  0
ARC
  5
   40E
  8
0
  6
CONTINUOUS
 62
     7
 10
258.057693570852
 20
261.10506089645
 30
0.0
 40
3.00000004470343
 50
216.869897645843
 51
323.130102354157
  0
INSERT
  5
   40F
  8
0
  6
CONTINUOUS
 62
     7
  2
*HATCH2605
 10
0.0
 20
0.0
 30
0.0
  0
INSERT
  5
   410
  8
0
  6
CONTINUOUS
 62
     7
  2
*UDIM3078
 10
0.0
 20
0.0
 30
0.0
  0
INSERT
  5
   411
  8
0
  6
CONTINUOUS
 62
     7
  2
*UDIM3079
 10
0.0
 20
0.0
 30
0.0
  0
LINE
  5
   412
  8
0
  6
CONTINUOUS
 62
     7
 10
261.335266613107
 20
358.854328327763
 30
0.0
 11
261.335266613107
 21
365.094330444636
 31
0.0
  0
LINE
  5
   413
  8
0
  6
CONTINUOUS
 62
     7
 10
261.104325917743
 20
364.694329426731
 30
0.0
 11
270.420986609968
 21
364.694329426731
 31
0.0
  0
LINE
  5
   414
  8
0
  6
CONTINUOUS
 62
     7
 10
261.104325917743
 20
359.254329345668
 30
0.0
 11
270.420986609968
 21
359.254329345668
 31
0.0
  0
LINE
  5
   415
  8
0
  6
CONTINUOUS
 62
     7
 10
270.420986609968
 20
358.854329339708
 30
0.0
 11
270.420986609968
 21
365.094329432691
 31
0.0
  0
INSERT
  5
   416
  8
0
  6
CONTINUOUS
 62
     7
  2
*UDIM3080
 10
0.0
 20
0.0
 30
0.0
  0
INSERT
  5
   417
  8
0
  6
CONTINUOUS
 62
     7
  2
*UDIM3081
 10
0.0
 20
0.0
 30
0.0
  0
INSERT
  5
   418
  8
0
  6
CONTINUOUS
 62
     7
  2
*UDIM3082
 10
0.0
 20
0.0
 30
0.0
  0
TEXT
  5
   419
  8
0
  6
CONTINUOUS
 62
     7
 10
240.921363100445
 20
245.724389603679
 30
0.0
 40
1.40000452697284
  1
PROFONDITA' QUADRO
 41
0.933333333333333
 11
240.921363100445
 21
246.424391867165
 31
0.0
 73
     2
  0
TEXT
  5
   41A
  8
0
  6
CONTINUOUS
 62
     7
 10
240.921363100445
 20
247.964389637057
 30
0.0
 40
1.40000452697284
  1
COMPARTMENT DEPTH
 41
0.933333333333333
 11
240.921363100445
 21
248.664391900544
 31
0.0
 73
     2
  0
LINE
  5
   41B
  8
0
  6
CONTINUOUS
 62
     7
 10
142.815139889717
 20
326.955621584971
 30
0.0
 11
142.876353574711
 21
326.847381837265
 31
0.0
  0
LINE
  5
   41C
  8
0
  6
CONTINUOUS
 62
     7
 10
126.753871034663
 20
326.847398621933
 30
0.0
 11
126.815139651299
 21
326.955713137707
 31
0.0
  0
LINE
  5
   41D
  8
0
  6
CONTINUOUS
 62
     3
 10
160.088276682764
 20
301.894328547943
 30
0.0
 11
160.295139326227
 21
302.101191191406
 31
0.0
  0
LINE
  5
   41E
  8
0
  6
CONTINUOUS
 62
     3
 10
160.295139539837
 20
302.101191588146
 30
0.0
 11
160.295139539837
 21
302.647465399997
 31
0.0
  0
LINE
  5
   41F
  8
0
  6
CONTINUOUS
 62
     3
 10
160.088276682767
 20
302.854328440205
 30
0.0
 11
160.29513932623
 21
302.647465796742
 31
0.0
  0
LINE
  5
   420
  8
0
  6
CONTINUOUS
 62
     3
 10
159.168277340429
 20
302.854328501228
 30
0.0
 11
160.088277048962
 21
302.854328501228
 31
0.0
  0
LINE
  5
   421
  8
0
  6
CONTINUOUS
 62
     3
 10
159.055139384047
 20
302.967465725216
 30
0.0
 11
159.168276821646
 21
302.854328287617
 31
0.0
  0
LINE
  5
   422
  8
0
  6
CONTINUOUS
 62
     3
 10
159.055139521359
 20
302.96746586253
 30
0.0
 11
159.055139521359
 21
303.381191149456
 31
0.0
  0
LINE
  5
   423
  8
0
  6
CONTINUOUS
 62
     3
 10
159.055139384043
 20
303.381191286773
 30
0.0
 11
159.168276821642
 21
303.494328724372
 31
0.0
  0
LINE
  5
   424
  8
0
  6
CONTINUOUS
 62
     3
 10
159.168277340429
 20
303.494328510765
 30
0.0
 11
160.022002023561
 21
303.494328510765
 31
0.0
  0
LINE
  5
   425
  8
0
  6
CONTINUOUS
 62
     3
 10
160.022002389758
 20
303.494328571783
 30
0.0
 11
160.182002621025
 21
303.334328340517
 31
0.0
  0
LINE
  5
   426
  8
0
  6
CONTINUOUS
 62
     3
 10
160.182002468433
 20
303.334328523653
 30
0.0
 11
160.295139143092
 21
303.447465198312
 31
0.0
  0
LINE
  5
   427
  8
0
  6
CONTINUOUS
 62
     3
 10
160.088276682767
 20
303.654328452126
 30
0.0
 11
160.29513932623
 21
303.447465808663
 31
0.0
  0
LINE
  5
   428
  8
0
  6
CONTINUOUS
 62
     3
 10
159.102002315027
 20
303.654328513149
 30
0.0
 11
160.088277048962
 21
303.654328513149
 31
0.0
  0
LINE
  5
   429
  8
0
  6
CONTINUOUS
 62
     3
 10
158.895139122231
 20
303.447465198312
 30
0.0
 11
159.102002528634
 21
303.654328604715
 31
0.0
  0
LINE
  5
   42A
  8
0
  6
CONTINUOUS
 62
     3
 10
158.895139518975
 20
302.901191600067
 30
0.0
 11
158.895139518975
 21
303.447465411918
 31
0.0
  0
LINE
  5
   42B
  8
0
  6
CONTINUOUS
 62
     3
 10
158.895139122234
 20
302.901191813677
 30
0.0
 11
159.102002528637
 21
302.694328407274
 31
0.0
  0
LINE
  5
   42C
  8
0
  6
CONTINUOUS
 62
     3
 10
159.102002315027
 20
302.694328498844
 30
0.0
 11
160.022002023561
 21
302.694328498844
 31
0.0
  0
LINE
  5
   42D
  8
0
  6
CONTINUOUS
 62
     3
 10
160.022002389758
 20
302.694328559862
 30
0.0
 11
160.135139827357
 21
302.581191122263
 31
0.0
  0
LINE
  5
   42E
  8
0
  6
CONTINUOUS
 62
     3
 10
160.135139537452
 20
302.167465850609
 30
0.0
 11
160.135139537452
 21
302.581191137535
 31
0.0
  0
LINE
  5
   42F
  8
0
  6
CONTINUOUS
 62
     3
 10
160.022002389755
 20
302.054328428285
 30
0.0
 11
160.135139827354
 21
302.167465865884
 31
0.0
  0
LINE
  5
   430
  8
0
  6
CONTINUOUS
 62
     3
 10
159.168277340429
 20
302.054328489307
 30
0.0
 11
160.022002023561
 21
302.054328489307
 31
0.0
  0
LINE
  5
   431
  8
0
  6
CONTINUOUS
 62
     3
 10
159.00827659038
 20
302.214328506962
 30
0.0
 11
159.168276821646
 21
302.054328275696
 31
0.0
  0
LINE
  5
   432
  8
0
  6
CONTINUOUS
 62
     3
 10
158.895139305365
 20
302.101191191406
 30
0.0
 11
159.008276742964
 21
302.214328629005
 31
0.0
  0
LINE
  5
   433
  8
0
  6
CONTINUOUS
 62
     3
 10
158.895139122234
 20
302.101191801756
 30
0.0
 11
159.102002528637
 21
301.894328395353
 31
0.0
  0
LINE
  5
   434
  8
0
  6
CONTINUOUS
 62
     3
 10
159.102002315027
 20
301.894328486923
 30
0.0
 11
160.088277048962
 21
301.894328486923
 31
0.0
  0
LINE
  5
   435
  8
0
  6
CONTINUOUS
 62
     3
 10
161.295139554738
 20
301.894328181744
 30
0.0
 11
161.295139554738
 21
303.494328205585
 31
0.0
  0
LINE
  5
   436
  8
0
  6
CONTINUOUS
 62
     3
 10
161.135138331652
 20
301.894328486923
 30
0.0
 11
161.295138944387
 21
301.894328486923
 31
0.0
  0
LINE
  5
   437
  8
0
  6
CONTINUOUS
 62
     3
 10
161.135139552354
 20
301.894328181744
 30
0.0
 11
161.135139552354
 21
303.494328205585
 31
0.0
  0
LINE
  5
   438
  8
0
  6
CONTINUOUS
 62
     3
 10
160.535138322711
 20
303.494328510765
 30
0.0
 11
161.135138331652
 21
303.494328510765
 31
0.0
  0
LINE
  5
   439
  8
0
  6
CONTINUOUS
 62
     3
 10
160.535139543413
 20
303.494328205585
 30
0.0
 11
160.535139543413
 21
303.654328818321
 31
0.0
  0
LINE
  5
   43A
  8
0
  6
CONTINUOUS
 62
     3
 10
160.535138322711
 20
303.654328513149
 30
0.0
 11
161.895138953328
 21
303.654328513149
 31
0.0
  0
LINE
  5
   43B
  8
0
  6
CONTINUOUS
 62
     3
 10
161.895139563679
 20
303.494328205585
 30
0.0
 11
161.895139563679
 21
303.654328818321
 31
0.0
  0
LINE
  5
   43C
  8
0
  6
CONTINUOUS
 62
     3
 10
161.295138944387
 20
303.494328510765
 30
0.0
 11
161.895138953328
 21
303.494328510765
 31
0.0
  0
LINE
  5
   43D
  8
0
  6
CONTINUOUS
 62
     3
 10
156.495139483212
 20
301.894328181744
 30
0.0
 11
156.495139483212
 21
303.494328205585
 31
0.0
  0
LINE
  5
   43E
  8
0
  6
CONTINUOUS
 62
     3
 10
156.495138872862
 20
303.494328510765
 30
0.0
 11
157.095138881803
 21
303.494328510765
 31
0.0
  0
LINE
  5
   43F
  8
0
  6
CONTINUOUS
 62
     3
 10
157.095139492153
 20
303.494328205585
 30
0.0
 11
157.095139492153
 21
303.654328818321
 31
0.0
  0
LINE
  5
   440
  8
0
  6
CONTINUOUS
 62
     3
 10
155.735139777064
 20
303.654328513149
 30
0.0
 11
157.095138881803
 21
303.654328513149
 31
0.0
  0
LINE
  5
   441
  8
0
  6
CONTINUOUS
 62
     3
 10
155.735139471887
 20
303.494328205585
 30
0.0
 11
155.735139471887
 21
303.654328818321
 31
0.0
  0
LINE
  5
   442
  8
0
  6
CONTINUOUS
 62
     3
 10
155.735139777064
 20
303.494328510765
 30
0.0
 11
156.335139786005
 21
303.494328510765
 31
0.0
  0
LINE
  5
   443
  8
0
  6
CONTINUOUS
 62
     3
 10
156.335139480828
 20
301.894328181744
 30
0.0
 11
156.335139480828
 21
303.494328205585
 31
0.0
  0
LINE
  5
   444
  8
0
  6
CONTINUOUS
 62
     3
 10
156.335139786005
 20
301.894328486923
 30
0.0
 11
156.495138872862
 21
301.894328486923
 31
0.0
  0
LINE
  5
   445
  8
0
  6
CONTINUOUS
 62
     3
 10
158.415139511822
 20
302.694328193665
 30
0.0
 11
158.415139511822
 21
302.8543288064
 31
0.0
  0
LINE
  5
   446
  8
0
  6
CONTINUOUS
 62
     3
 10
157.495138887763
 20
302.854328501228
 30
0.0
 11
158.415140122175
 21
302.854328501228
 31
0.0
  0
LINE
  5
   447
  8
0
  6
CONTINUOUS
 62
     3
 10
157.495139498113
 20
302.8543288064
 30
0.0
 11
157.495139498113
 21
303.494328205585
 31
0.0
  0
LINE
  5
   448
  8
0
  6
CONTINUOUS
 62
     3
 10
157.495138887763
 20
303.494328510765
 30
0.0
 11
158.695138905644
 21
303.494328510765
 31
0.0
  0
LINE
  5
   449
  8
0
  6
CONTINUOUS
 62
     3
 10
158.695139515995
 20
303.494328205585
 30
0.0
 11
158.695139515995
 21
303.654328818321
 31
0.0
  0
LINE
  5
   44A
  8
0
  6
CONTINUOUS
 62
     3
 10
157.335139800906
 20
303.654328513149
 30
0.0
 11
158.695138905644
 21
303.654328513149
 31
0.0
  0
LINE
  5
   44B
  8
0
  6
CONTINUOUS
 62
     3
 10
157.335139495729
 20
301.894328181744
 30
0.0
 11
157.335139495729
 21
303.654328818321
 31
0.0
  0
LINE
  5
   44C
  8
0
  6
CONTINUOUS
 62
     3
 10
157.335139800906
 20
301.894328486923
 30
0.0
 11
158.695138905644
 21
301.894328486923
 31
0.0
  0
LINE
  5
   44D
  8
0
  6
CONTINUOUS
 62
     3
 10
158.695139515995
 20
301.894328181744
 30
0.0
 11
158.695139515995
 21
302.054328794479
 31
0.0
  0
LINE
  5
   44E
  8
0
  6
CONTINUOUS
 62
     3
 10
157.495138887763
 20
302.054328489307
 30
0.0
 11
158.695138905644
 21
302.054328489307
 31
0.0
  0
LINE
  5
   44F
  8
0
  6
CONTINUOUS
 62
     3
 10
157.495139498113
 20
302.054328794479
 30
0.0
 11
157.495139498113
 21
302.694328193665
 31
0.0
  0
LINE
  5
   450
  8
0
  6
CONTINUOUS
 62
     3
 10
157.495138887763
 20
302.694328498844
 30
0.0
 11
158.415140122175
 21
302.694328498844
 31
0.0
  0
POLYLINE
  5
   451
  8
0
  6
CONTINUOUS
 62
     1
 66
     1
 10
0.0
 20
0.0
 30
0.0
  0
VERTEX
  5
   452
  8
0
  6
CONTINUOUS
 10
162.735138965841
 20
302.774328500036
 30
0.0
 40
0.0
 41
0.0
  0
VERTEX
  5
   453
  8
0
  6
CONTINUOUS
 10
162.590557957696
 20
303.2865002096
 30
0.0
 40
0.0
 41
0.0
  0
VERTEX
  5
   454
  8
0
  6
CONTINUOUS
 10
162.024115870231
 20
303.872234610506
 30
0.0
 40
0.0
 41
0.0
  0
VERTEX
  5
   455
  8
0
  6
CONTINUOUS
 10
160.813391467707
 20
304.423458831179
 30
0.0
 40
0.0
 41
0.0
  0
VERTEX
  5
   456
  8
0
  6
CONTINUOUS
 10
159.502706304691
 20
304.664253145694
 30
0.0
 40
0.0
 41
0.0
  0
VERTEX
  5
   457
  8
0
  6
CONTINUOUS
 10
157.892750584621
 20
304.640055236629
 30
0.0
 40
0.0
 41
0.0
  0
VERTEX
  5
   458
  8
0
  6
CONTINUOUS
 10
156.338286614081
 20
304.257781536852
 30
0.0
 40
0.0
 41
0.0
  0
VERTEX
  5
   459
  8
0
  6
CONTINUOUS
 10
155.393571139441
 20
303.705925843988
 30
0.0
 40
0.0
 41
0.0
  0
VERTEX
  5
   45A
  8
0
  6
CONTINUOUS
 10
155.046249558695
 20
303.297707926459
 30
0.0
 40
0.0
 41
0.0
  0
VERTEX
  5
   45B
  8
0
  6
CONTINUOUS
 10
154.895140069725
 20
302.774328500036
 30
0.0
 40
0.0
 41
0.0
  0
SEQEND
  5
   45C
  8
0
  6
CONTINUOUS
 62
     1
  0
POLYLINE
  5
   45D
  8
0
  6
CONTINUOUS
 62
     1
 66
     1
 10
0.0
 20
0.0
 30
0.0
  0
VERTEX
  5
   45E
  8
0
  6
CONTINUOUS
 10
154.895140069725
 20
302.774328500029
 30
0.0
 40
0.0
 41
0.0
  0
VERTEX
  5
   45F
  8
0
  6
CONTINUOUS
 10
155.03972107787
 20
302.262156790465
 30
0.0
 40
0.0
 41
0.0
  0
VERTEX
  5
   460
  8
0
  6
CONTINUOUS
 10
155.606163165336
 20
301.676422389558
 30
0.0
 40
0.0
 41
0.0
  0
VERTEX
  5
   461
  8
0
  6
CONTINUOUS
 10
156.816887567858
 20
301.125198168886
 30
0.0
 40
0.0
 41
0.0
  0
VERTEX
  5
   462
  8
0
  6
CONTINUOUS
 10
158.127572730875
 20
300.884403854371
 30
0.0
 40
0.0
 41
0.0
  0
VERTEX
  5
   463
  8
0
  6
CONTINUOUS
 10
159.737528450945
 20
300.908601763436
 30
0.0
 40
0.0
 41
0.0
  0
VERTEX
  5
   464
  8
0
  6
CONTINUOUS
 10
161.291992421486
 20
301.290875463213
 30
0.0
 40
0.0
 41
0.0
  0
VERTEX
  5
   465
  8
0
  6
CONTINUOUS
 10
162.236707896124
 20
301.842731156076
 30
0.0
 40
0.0
 41
0.0
  0
VERTEX
  5
   466
  8
0
  6
CONTINUOUS
 10
162.58402947687
 20
302.250949073606
 30
0.0
 40
0.0
 41
0.0
  0
VERTEX
  5
   467
  8
0
  6
CONTINUOUS
 10
162.735138965841
 20
302.774328500029
 30
0.0
 40
0.0
 41
0.0
  0
SEQEND
  5
   468
  8
0
  6
CONTINUOUS
 62
     1
  0
ARC
  5
   469
  8
0
  6
CONTINUOUS
 62
     1
 10
142.815134881321
 20
302.214333499815
 30
0.0
 40
0.400010689129067
 50
270.000717391242
 51
359.999304504023
  0
ARC
  5
   46A
  8
0
  6
CONTINUOUS
 62
     1
 10
126.815155794152
 20
302.214344634807
 30
0.0
 40
0.40002177537242
 50
180.002290382395
 51
269.997687798967
  0
ARC
  5
   46B
  8
0
  6
CONTINUOUS
 62
     1
 10
126.815144659425
 20
330.134323899332
 30
0.0
 40
0.400010689129121
 50
90.0007173512585
 51
179.99919518349
  0
ARC
  5
   46C
  8
0
  6
CONTINUOUS
 62
     1
 10
142.815123746598
 20
330.134312764874
 30
0.0
 40
0.400021775372257
 50
2.39962314552732E-3
 51
89.9976877653575
  0
LINE
  5
   46D
  8
0
  6
CONTINUOUS
 62
     1
 10
164.945184775145
 20
299.414328602552
 30
0.0
 11
164.945184775145
 21
332.534329553843
 31
0.0
  0
LINE
  5
   46E
  8
0
  6
CONTINUOUS
 62
     1
 10
104.685094765871
 20
299.414328602552
 30
0.0
 11
104.685094765871
 21
332.534329553843
 31
0.0
  0
LINE
  5
   46F
  8
0
  6
CONTINUOUS
 62
     2
 10
108.815139383078
 20
332.694328640699
 30
0.0
 11
108.815139383078
 21
332.774328947067
 31
0.0
  0
LINE
  5
   470
  8
0
  6
CONTINUOUS
 62
     2
 10
112.815139442682
 20
332.694328640699
 30
0.0
 11
112.815139442682
 21
332.774328947067
 31
0.0
  0
LINE
  5
   471
  8
0
  6
CONTINUOUS
 62
     2
 10
160.815140157938
 20
332.694328640699
 30
0.0
 11
160.815140157938
 21
332.774328947067
 31
0.0
  0
LINE
  5
   472
  8
0
  6
CONTINUOUS
 62
     2
 10
156.815140098333
 20
332.694328640699
 30
0.0
 11
156.815140098333
 21
332.774328947067
 31
0.0
  0
LINE
  5
   473
  8
0
  6
CONTINUOUS
 62
     2
 10
160.815140157938
 20
299.174328446388
 30
0.0
 11
160.815140157938
 21
299.254328752756
 31
0.0
  0
LINE
  5
   474
  8
0
  6
CONTINUOUS
 62
     2
 10
156.815140098333
 20
299.174328446388
 30
0.0
 11
156.815140098333
 21
299.254328752756
 31
0.0
  0
LINE
  5
   475
  8
0
  6
CONTINUOUS
 62
     2
 10
108.815139383078
 20
299.174328446388
 30
0.0
 11
108.815139383078
 21
299.254328752756
 31
0.0
  0
LINE
  5
   476
  8
0
  6
CONTINUOUS
 62
     2
 10
112.815139442682
 20
299.174328446388
 30
0.0
 11
112.815139442682
 21
299.254328752756
 31
0.0
  0
POLYLINE
  5
   477
  8
0
  6
CONTINUOUS
 62
     1
 66
     1
 10
0.0
 20
0.0
 30
0.0
  0
VERTEX
  5
   478
  8
0
  6
CONTINUOUS
 10
165.134528039683
 20
299.254328447583
 30
0.0
 40
0.0
 41
0.0
  0
VERTEX
  5
   479
  8
0
  6
CONTINUOUS
 10
165.295140224695
 20
299.414328602554
 30
0.0
 40
0.0
 41
0.0
  0
SEQEND
  5
   47A
  8
0
  6
CONTINUOUS
 62
     1
  0
POLYLINE
  5
   47B
  8
0
  6
CONTINUOUS
 62
     1
 66
     1
 10
0.0
 20
0.0
 30
0.0
  0
VERTEX
  5
   47C
  8
0
  6
CONTINUOUS
 10
165.295140224694
 20
332.534329553847
 30
0.0
 40
0.0
 41
0.0
  0
VERTEX
  5
   47D
  8
0
  6
CONTINUOUS
 10
165.134528039683
 20
332.694328945872
 30
0.0
 40
0.0
 41
0.0
  0
SEQEND
  5
   47E
  8
0
  6
CONTINUOUS
 62
     1
  0
POLYLINE
  5
   47F
  8
0
  6
CONTINUOUS
 62
     1
 66
     1
 10
0.0
 20
0.0
 30
0.0
  0
VERTEX
  5
   480
  8
0
  6
CONTINUOUS
 10
104.495751501333
 20
332.694328945872
 30
0.0
 40
0.0
 41
0.0
  0
VERTEX
  5
   481
  8
0
  6
CONTINUOUS
 10
104.335139316322
 20
332.534329553847
 30
0.0
 40
0.0
 41
0.0
  0
SEQEND
  5
   482
  8
0
  6
CONTINUOUS
 62
     1
  0
POLYLINE
  5
   483
  8
0
  6
CONTINUOUS
 62
     1
 66
     1
 10
0.0
 20
0.0
 30
0.0
  0
VERTEX
  5
   484
  8
0
  6
CONTINUOUS
 10
104.33513931632
 20
299.414328602552
 30
0.0
 40
0.0
 41
0.0
  0
VERTEX
  5
   485
  8
0
  6
CONTINUOUS
 10
104.495751501334
 20
299.254328447583
 30
0.0
 40
0.0
 41
0.0
  0
SEQEND
  5
   486
  8
0
  6
CONTINUOUS
 62
     1
  0
LINE
  5
   487
  8
0
  6
CONTINUOUS
 62
     1
 10
126.815139651299
 20
301.814328485727
 30
0.0
 11
142.815139889717
 21
301.814328485727
 31
0.0
  0
LINE
  5
   488
  8
0
  6
CONTINUOUS
 62
     1
 10
143.215139895678
 20
302.214328644276
 30
0.0
 11
143.215139895678
 21
330.13432951808
 31
0.0
  0
LINE
  5
   489
  8
0
  6
CONTINUOUS
 62
     1
 10
126.415139645338
 20
302.214328644276
 30
0.0
 11
126.415139645338
 21
330.13432951808
 31
0.0
  0
LINE
  5
   48A
  8
0
  6
CONTINUOUS
 62
     2
 10
165.295140224695
 20
299.414328602552
 30
0.0
 11
165.295140224695
 21
332.534329553843
 31
0.0
  0
LINE
  5
   48B
  8
0
  6
CONTINUOUS
 62
     2
 10
104.33513931632
 20
299.414328602552
 30
0.0
 11
104.33513931632
 21
332.534329553843
 31
0.0
  0
LINE
  5
   48C
  8
0
  6
CONTINUOUS
 62
     1
 10
162.751565968043
 20
299.25432844758
 30
0.0
 11
164.977466269766
 21
299.25432844758
 31
0.0
  0
LINE
  5
   48D
  8
0
  6
CONTINUOUS
 62
     1
 10
104.652813271249
 20
299.25432844758
 30
0.0
 11
106.884289134579
 21
299.25432844758
 31
0.0
  0
LINE
  5
   48E
  8
0
  6
CONTINUOUS
 62
     1
 10
164.977466269766
 20
299.25432844758
 30
0.0
 11
165.134528039685
 21
299.25432844758
 31
0.0
  0
LINE
  5
   48F
  8
0
  6
CONTINUOUS
 62
     1
 10
106.884289134579
 20
299.25432844758
 30
0.0
 11
162.751565968043
 21
299.25432844758
 31
0.0
  0
LINE
  5
   490
  8
0
  6
CONTINUOUS
 62
     1
 10
104.495751501331
 20
299.25432844758
 30
0.0
 11
104.652813271249
 21
299.25432844758
 31
0.0
  0
LINE
  5
   491
  8
0
  6
CONTINUOUS
 62
     2
 10
156.815140098333
 20
304.506379230798
 30
0.0
 11
157.531996493293
 21
304.646976004133
 31
0.0
  0
POLYLINE
  5
   492
  8
0
  6
CONTINUOUS
 62
     1
 66
     1
 10
0.0
 20
0.0
 30
0.0
  0
VERTEX
  5
   493
  8
0
  6
CONTINUOUS
 10
162.554829312583
 20
302.064624963925
 30
0.0
 40
0.0
 41
0.0
  0
VERTEX
  5
   494
  8
0
  6
CONTINUOUS
 10
162.800950715252
 20
302.605862240569
 30
0.0
 40
0.0
 41
0.0
  0
VERTEX
  5
   495
  8
0
  6
CONTINUOUS
 10
162.815138967033
 20
302.774328500029
 30
0.0
 40
0.0
 41
0.0
  0
SEQEND
  5
   496
  8
0
  6
CONTINUOUS
 62
     1
  0
POLYLINE
  5
   497
  8
0
  6
CONTINUOUS
 62
     1
 66
     1
 10
0.0
 20
0.0
 30
0.0
  0
VERTEX
  5
   498
  8
0
  6
CONTINUOUS
 10
162.815138967033
 20
302.774328500036
 30
0.0
 40
0.0
 41
0.0
  0
VERTEX
  5
   499
  8
0
  6
CONTINUOUS
 10
162.660384201074
 20
303.325297135272
 30
0.0
 40
0.0
 41
0.0
  0
VERTEX
  5
   49A
  8
0
  6
CONTINUOUS
 10
162.554829312583
 20
303.48403203614
 30
0.0
 40
0.0
 41
0.0
  0
SEQEND
  5
   49B
  8
0
  6
CONTINUOUS
 62
     1
  0
POLYLINE
  5
   49C
  8
0
  6
CONTINUOUS
 62
     1
 66
     1
 10
0.0
 20
0.0
 30
0.0
  0
VERTEX
  5
   49D
  8
0
  6
CONTINUOUS
 10
162.551274609042
 20
303.488483747608
 30
0.0
 40
0.0
 41
0.0
  0
VERTEX
  5
   49E
  8
0
  6
CONTINUOUS
 10
162.074226216165
 20
303.933973297258
 30
0.0
 40
0.0
 41
0.0
  0
VERTEX
  5
   49F
  8
0
  6
CONTINUOUS
 10
161.388606971871
 20
304.305429630909
 30
0.0
 40
0.0
 41
0.0
  0
VERTEX
  5
   4A0
  8
0
  6
CONTINUOUS
 10
159.578885384351
 20
304.737515802902
 30
0.0
 40
0.0
 41
0.0
  0
VERTEX
  5
   4A1
  8
0
  6
CONTINUOUS
 10
157.577853502908
 20
304.676204856103
 30
0.0
 40
0.0
 41
0.0
  0
SEQEND
  5
   4A2
  8
0
  6
CONTINUOUS
 62
     1
  0
POLYLINE
  5
   4A3
  8
0
  6
CONTINUOUS
 62
     1
 66
     1
 10
0.0
 20
0.0
 30
0.0
  0
VERTEX
  5
   4A4
  8
0
  6
CONTINUOUS
 10
156.815154502907
 20
304.506329328075
 30
0.0
 40
0.0
 41
0.0
  0
VERTEX
  5
   4A5
  8
0
  6
CONTINUOUS
 10
155.75075453283
 20
304.059839709691
 30
0.0
 40
0.0
 41
0.0
  0
VERTEX
  5
   4A6
  8
0
  6
CONTINUOUS
 10
155.056533967086
 20
303.458325920117
 30
0.0
 40
0.0
 41
0.0
  0
VERTEX
  5
   4A7
  8
0
  6
CONTINUOUS
 10
154.815140068533
 20
302.774328500036
 30
0.0
 40
0.0
 41
0.0
  0
SEQEND
  5
   4A8
  8
0
  6
CONTINUOUS
 62
     1
  0
POLYLINE
  5
   4A9
  8
0
  6
CONTINUOUS
 62
     1
 66
     1
 10
0.0
 20
0.0
 30
0.0
  0
VERTEX
  5
   4AA
  8
0
  6
CONTINUOUS
 10
154.815140068533
 20
302.774328500029
 30
0.0
 40
0.0
 41
0.0
  0
VERTEX
  5
   4AB
  8
0
  6
CONTINUOUS
 10
154.967874217803
 20
302.227542546338
 30
0.0
 40
0.0
 41
0.0
  0
SEQEND
  5
   4AC
  8
0
  6
CONTINUOUS
 62
     1
  0
POLYLINE
  5
   4AD
  8
0
  6
CONTINUOUS
 62
     1
 66
     1
 10
0.0
 20
0.0
 30
0.0
  0
VERTEX
  5
   4AE
  8
0
  6
CONTINUOUS
 10
155.088211453087
 20
302.048229240508
 30
0.0
 40
0.0
 41
0.0
  0
VERTEX
  5
   4AF
  8
0
  6
CONTINUOUS
 10
155.949966121175
 20
301.378702449027
 30
0.0
 40
0.0
 41
0.0
  0
VERTEX
  5
   4B0
  8
0
  6
CONTINUOUS
 10
157.266349041508
 20
300.930385602362
 30
0.0
 40
0.0
 41
0.0
  0
VERTEX
  5
   4B1
  8
0
  6
CONTINUOUS
 10
158.827568655796
 20
300.77433831662
 30
0.0
 40
0.0
 41
0.0
  0
VERTEX
  5
   4B2
  8
0
  6
CONTINUOUS
 10
160.386827105493
 20
300.935236068634
 30
0.0
 40
0.0
 41
0.0
  0
VERTEX
  5
   4B3
  8
0
  6
CONTINUOUS
 10
161.697615782419
 20
301.38763578401
 30
0.0
 40
0.0
 41
0.0
  0
VERTEX
  5
   4B4
  8
0
  6
CONTINUOUS
 10
162.551010879387
 20
302.059827925201
 30
0.0
 40
0.0
 41
0.0
  0
SEQEND
  5
   4B5
  8
0
  6
CONTINUOUS
 62
     1
  0
POLYLINE
  5
   4B6
  8
0
  6
CONTINUOUS
 62
     1
 66
     1
 10
0.0
 20
0.0
 30
0.0
  0
VERTEX
  5
   4B7
  8
0
  6
CONTINUOUS
 10
157.528415101361
 20
304.668030053198
 30
0.0
 40
0.0
 41
0.0
  0
VERTEX
  5
   4B8
  8
0
  6
CONTINUOUS
 10
159.44445417156
 20
304.749439411569
 30
0.0
 40
0.0
 41
0.0
  0
VERTEX
  5
   4B9
  8
0
  6
CONTINUOUS
 10
160.079777470661
 20
304.671751054924
 30
0.0
 40
0.0
 41
0.0
  0
SEQEND
  5
   4BA
  8
0
  6
CONTINUOUS
 62
     1
  0
LINE
  5
   4BB
  8
0
  6
CONTINUOUS
 62
     1
 10
104.652813271249
 20
332.694328945875
 30
0.0
 11
106.878713572973
 21
332.694328945875
 31
0.0
  0
LINE
  5
   4BC
  8
0
  6
CONTINUOUS
 62
     1
 10
162.745990406436
 20
332.694328945875
 30
0.0
 11
164.977466269766
 21
332.694328945875
 31
0.0
  0
LINE
  5
   4BD
  8
0
  6
CONTINUOUS
 62
     1
 10
104.495751501331
 20
332.694328945875
 30
0.0
 11
104.652813271249
 21
332.694328945875
 31
0.0
  0
LINE
  5
   4BE
  8
0
  6
CONTINUOUS
 62
     1
 10
106.878713572973
 20
332.694328945875
 30
0.0
 11
162.745990406436
 21
332.694328945875
 31
0.0
  0
LINE
  5
   4BF
  8
0
  6
CONTINUOUS
 62
     1
 10
164.977466269766
 20
332.694328945875
 30
0.0
 11
165.134528039685
 21
332.694328945875
 31
0.0
  0
LINE
  5
   4C0
  8
0
  6
CONTINUOUS
 62
     2
 10
107.295138139725
 20
281.574328184128
 30
0.0
 11
162.335141401291
 21
281.574328184128
 31
0.0
  0
LINE
  5
   4C1
  8
0
  6
CONTINUOUS
 62
     2
 10
106.735140572786
 20
282.134328192473
 30
0.0
 11
162.895138968229
 21
282.134328192473
 31
0.0
  0
LINE
  5
   4C2
  8
0
  6
CONTINUOUS
 62
     2
 10
107.295138139725
 20
359.174329340458
 30
0.0
 11
162.335141401291
 21
359.174329340458
 31
0.0
  0
LINE
  5
   4C3
  8
0
  6
CONTINUOUS
 62
     2
 10
106.735140572786
 20
358.614329332113
 30
0.0
 11
162.895138968229
 21
358.614329332113
 31
0.0
  0
LINE
  5
   4C4
  8
0
  6
CONTINUOUS
 62
     2
 10
162.895138968229
 20
358.614329332113
 30
0.0
 11
165.295139003992
 21
358.614329332113
 31
0.0
  0
LINE
  5
   4C5
  8
0
  6
CONTINUOUS
 62
     2
 10
162.335141401291
 20
359.174329340458
 30
0.0
 11
164.735141437054
 21
359.174329340458
 31
0.0
  0
LINE
  5
   4C6
  8
0
  6
CONTINUOUS
 62
     2
 10
162.895138968229
 20
282.134328192473
 30
0.0
 11
165.295139003992
 21
282.134328192473
 31
0.0
  0
LINE
  5
   4C7
  8
0
  6
CONTINUOUS
 62
     2
 10
162.335141401291
 20
281.574328184128
 30
0.0
 11
164.735141437054
 21
281.574328184128
 31
0.0
  0
ARC
  5
   4C8
  8
0
  6
CONTINUOUS
 62
     2
 10
142.656068234533
 20
302.373864333881
 30
0.0
 40
0.399066975790688
 50
275.939295791916
 51
360.066640657739
  0
LINE
  5
   4C9
  8
0
  6
CONTINUOUS
 62
     2
 10
143.055139893293
 20
302.374328494072
 30
0.0
 11
143.055139893293
 21
305.396676561569
 31
0.0
  0
LINE
  5
   4CA
  8
0
  6
CONTINUOUS
 62
     2
 10
104.335140537024
 20
358.614329332113
 30
0.0
 11
106.735140572786
 21
358.614329332113
 31
0.0
  0
LINE
  5
   4CB
  8
0
  6
CONTINUOUS
 62
     2
 10
104.895138103962
 20
359.174329340458
 30
0.0
 11
107.295138139725
 21
359.174329340458
 31
0.0
  0
LINE
  5
   4CC
  8
0
  6
CONTINUOUS
 62
     2
 10
104.335140537024
 20
282.134328192473
 30
0.0
 11
106.735140572786
 21
282.134328192473
 31
0.0
  0
LINE
  5
   4CD
  8
0
  6
CONTINUOUS
 62
     2
 10
104.895138103962
 20
281.574328184128
 30
0.0
 11
107.295138139725
 21
281.574328184128
 31
0.0
  0
ARC
  5
   4CE
  8
0
  6
CONTINUOUS
 62
     2
 10
126.974216924944
 20
302.373868634332
 30
0.0
 40
0.39907338952472
 50
179.933977697907
 51
264.05970535963
  0
LINE
  5
   4CF
  8
0
  6
CONTINUOUS
 62
     2
 10
126.575139647722
 20
302.374328494072
 30
0.0
 11
126.575139647722
 21
305.396676561569
 31
0.0
  0
POLYLINE
  5
   4D0
  8
0
  6
CONTINUOUS
 62
     2
 66
     1
 10
0.0
 20
0.0
 30
0.0
  0
VERTEX
  5
   4D1
  8
0
  6
CONTINUOUS
 10
142.255139881372
 20
305.033698091104
 30
0.0
 40
0.0
 41
0.0
  0
VERTEX
  5
   4D2
  8
0
  6
CONTINUOUS
 10
142.665425099738
 20
305.186706854352
 30
0.0
 40
0.0
 41
0.0
  0
SEQEND
  5
   4D3
  8
0
  6
CONTINUOUS
 62
     2
  0
POLYLINE
  5
   4D4
  8
0
  6
CONTINUOUS
 62
     2
 66
     1
 10
0.0
 20
0.0
 30
0.0
  0
VERTEX
  5
   4D5
  8
0
  6
CONTINUOUS
 10
127.375139659643
 20
305.033698091104
 30
0.0
 40
0.0
 41
0.0
  0
VERTEX
  5
   4D6
  8
0
  6
CONTINUOUS
 10
126.964854441277
 20
305.186706854352
 30
0.0
 40
0.0
 41
0.0
  0
SEQEND
  5
   4D7
  8
0
  6
CONTINUOUS
 62
     2
  0
POLYLINE
  5
   4D8
  8
0
  6
CONTINUOUS
 62
     2
 66
     1
 10
0.0
 20
0.0
 30
0.0
  0
VERTEX
  5
   4D9
  8
0
  6
CONTINUOUS
 10
142.697849343816
 20
301.977178921554
 30
0.0
 40
0.0
 41
0.0
  0
VERTEX
  5
   4DA
  8
0
  6
CONTINUOUS
 10
142.255140438557
 20
302.134328490495
 30
0.0
 40
0.0
 41
0.0
  0
SEQEND
  5
   4DB
  8
0
  6
CONTINUOUS
 62
     2
  0
POLYLINE
  5
   4DC
  8
0
  6
CONTINUOUS
 62
     2
 66
     1
 10
0.0
 20
0.0
 30
0.0
  0
VERTEX
  5
   4DD
  8
0
  6
CONTINUOUS
 10
126.932412954675
 20
301.977176899227
 30
0.0
 40
0.0
 41
0.0
  0
VERTEX
  5
   4DE
  8
0
  6
CONTINUOUS
 10
127.375139081504
 20
302.134328490495
 30
0.0
 40
0.0
 41
0.0
  0
SEQEND
  5
   4DF
  8
0
  6
CONTINUOUS
 62
     2
  0
LINE
  5
   4E0
  8
0
  6
CONTINUOUS
 62
     2
 10
142.655140039474
 20
301.974328496357
 30
0.0
 11
142.697397379459
 21
301.976618721616
 31
0.0
  0
LINE
  5
   4E1
  8
0
  6
CONTINUOUS
 62
     2
 10
126.932879379297
 20
301.976618702832
 30
0.0
 11
126.975139501542
 21
301.974328496357
 31
0.0
  0
LINE
  5
   4E2
  8
0
  6
CONTINUOUS
 62
     2
 10
126.975139501095
 20
301.974328488111
 30
0.0
 11
142.655140039921
 21
301.974328488111
 31
0.0
  0
POLYLINE
  5
   4E3
  8
0
  6
CONTINUOUS
 62
     2
 66
     1
 10
0.0
 20
0.0
 30
0.0
  0
VERTEX
  5
   4E4
  8
0
  6
CONTINUOUS
 10
142.665425221482
 20
305.186706876496
 30
0.0
 40
0.0
 41
0.0
  0
VERTEX
  5
   4E5
  8
0
  6
CONTINUOUS
 10
142.950923119251
 20
305.275966713859
 30
0.0
 40
0.0
 41
0.0
  0
VERTEX
  5
   4E6
  8
0
  6
CONTINUOUS
 10
143.055139893293
 20
305.39667656157
 30
0.0
 40
0.0
 41
0.0
  0
SEQEND
  5
   4E7
  8
0
  6
CONTINUOUS
 62
     2
  0
POLYLINE
  5
   4E8
  8
0
  6
CONTINUOUS
 62
     2
 66
     1
 10
0.0
 20
0.0
 30
0.0
  0
VERTEX
  5
   4E9
  8
0
  6
CONTINUOUS
 10
126.575139647722
 20
305.396676561569
 30
0.0
 40
0.0
 41
0.0
  0
VERTEX
  5
   4EA
  8
0
  6
CONTINUOUS
 10
126.679354878058
 20
305.275967545578
 30
0.0
 40
0.0
 41
0.0
  0
VERTEX
  5
   4EB
  8
0
  6
CONTINUOUS
 10
126.964848949096
 20
305.186707857389
 30
0.0
 40
0.0
 41
0.0
  0
SEQEND
  5
   4EC
  8
0
  6
CONTINUOUS
 62
     2
  0
LINE
  5
   4ED
  8
0
  6
CONTINUOUS
 62
     2
 10
143.055139893293
 20
305.396676561569
 30
0.0
 11
143.055139893293
 21
305.567885517978
 31
0.0
  0
LINE
  5
   4EE
  8
0
  6
CONTINUOUS
 62
     2
 10
126.575139647722
 20
305.396676561569
 30
0.0
 11
126.575139647722
 21
305.567885517978
 31
0.0
  0
LINE
  5
   4EF
  8
0
  6
CONTINUOUS
 62
     2
 10
158.015139505794
 20
304.53324576257
 30
0.0
 11
158.015139505794
 21
304.642986975143
 31
0.0
  0
LINE
  5
   4F0
  8
0
  6
CONTINUOUS
 62
     2
 10
159.615139529636
 20
304.643854055845
 30
0.0
 11
159.615139529636
 21
304.651586828787
 31
0.0
  0
LINE
  5
   4F1
  8
0
  6
CONTINUOUS
 62
     1
 10
126.415139645338
 20
328.154628645573
 30
0.0
 11
126.815139651299
 21
328.154628645573
 31
0.0
  0
LINE
  5
   4F2
  8
0
  6
CONTINUOUS
 62
     1
 10
142.815139889717
 20
328.154628645573
 30
0.0
 11
143.215139895678
 21
328.154628645573
 31
0.0
  0
LINE
  5
   4F3
  8
0
  6
CONTINUOUS
 62
     2
 10
126.415139645338
 20
329.853800362085
 30
0.0
 11
126.815139651299
 21
329.853800362085
 31
0.0
  0
LINE
  5
   4F4
  8
0
  6
CONTINUOUS
 62
     2
 10
142.815139889717
 20
329.853800362085
 30
0.0
 11
143.215139895678
 21
329.853800362085
 31
0.0
  0
LINE
  5
   4F5
  8
0
  6
CONTINUOUS
 62
     2
 10
143.055140045881
 20
305.934762421083
 30
0.0
 11
143.215139895678
 21
305.934762421083
 31
0.0
  0
LINE
  5
   4F6
  8
0
  6
CONTINUOUS
 62
     2
 10
126.415139645338
 20
305.934762421083
 30
0.0
 11
126.575139495134
 21
305.934762421083
 31
0.0
  0
LINE
  5
   4F7
  8
0
  6
CONTINUOUS
 62
     2
 10
143.055139893293
 20
305.567885517978
 30
0.0
 11
143.055139893293
 21
305.934762507088
 31
0.0
  0
LINE
  5
   4F8
  8
0
  6
CONTINUOUS
 62
     2
 10
126.575139647722
 20
305.567885517978
 30
0.0
 11
126.575139647722
 21
305.934762507088
 31
0.0
  0
POLYLINE
  5
   4F9
  8
0
  6
CONTINUOUS
 62
     2
 66
     1
 10
0.0
 20
0.0
 30
0.0
  0
VERTEX
  5
   4FA
  8
0
  6
CONTINUOUS
 10
156.902446300971
 20
304.528306599382
 30
0.0
 40
0.0
 41
0.0
  0
VERTEX
  5
   4FB
  8
0
  6
CONTINUOUS
 10
156.713602710781
 20
304.47341218054
 30
0.0
 40
0.0
 41
0.0
  0
SEQEND
  5
   4FC
  8
0
  6
CONTINUOUS
 62
     2
  0
POLYLINE
  5
   4FD
  8
0
  6
CONTINUOUS
 62
     2
 66
     1
 10
0.0
 20
0.0
 30
0.0
  0
VERTEX
  5
   4FE
  8
0
  6
CONTINUOUS
 10
155.599768610958
 20
303.963787286006
 30
0.0
 40
0.0
 41
0.0
  0
VERTEX
  5
   4FF
  8
0
  6
CONTINUOUS
 10
155.293927712739
 20
303.723218621566
 30
0.0
 40
0.0
 41
0.0
  0
SEQEND
  5
   500
  8
0
  6
CONTINUOUS
 62
     2
  0
LINE
  5
   501
  8
0
  6
CONTINUOUS
 62
     2
 10
104.335140537024
 20
297.974328428507
 30
0.0
 11
106.735140572786
 21
297.974328428507
 31
0.0
  0
LINE
  5
   502
  8
0
  6
CONTINUOUS
 62
     2
 10
106.735140572786
 20
297.974328428507
 30
0.0
 11
124.015139609575
 21
297.974328428507
 31
0.0
  0
LINE
  5
   503
  8
0
  6
CONTINUOUS
 62
     2
 10
124.015139609575
 20
297.974328428507
 30
0.0
 11
145.61513993144
 21
297.974328428507
 31
0.0
  0
LINE
  5
   504
  8
0
  6
CONTINUOUS
 62
     2
 10
145.61513993144
 20
297.974328428507
 30
0.0
 11
162.895138968229
 21
297.974328428507
 31
0.0
  0
LINE
  5
   505
  8
0
  6
CONTINUOUS
 62
     2
 10
162.895138968229
 20
297.974328428507
 30
0.0
 11
165.295139003992
 21
297.974328428507
 31
0.0
  0
LINE
  5
   506
  8
0
  6
CONTINUOUS
 62
     2
 10
104.335140537024
 20
299.174328446388
 30
0.0
 11
106.735140572786
 21
299.174328446388
 31
0.0
  0
LINE
  5
   507
  8
0
  6
CONTINUOUS
 62
     2
 10
106.735140572786
 20
299.174328446388
 30
0.0
 11
124.015139609575
 21
299.174328446388
 31
0.0
  0
LINE
  5
   508
  8
0
  6
CONTINUOUS
 62
     2
 10
124.015139609575
 20
299.174328446388
 30
0.0
 11
145.61513993144
 21
299.174328446388
 31
0.0
  0
LINE
  5
   509
  8
0
  6
CONTINUOUS
 62
     2
 10
145.61513993144
 20
299.174328446388
 30
0.0
 11
162.895138968229
 21
299.174328446388
 31
0.0
  0
LINE
  5
   50A
  8
0
  6
CONTINUOUS
 62
     2
 10
162.895138968229
 20
299.174328446388
 30
0.0
 11
165.295139003992
 21
299.174328446388
 31
0.0
  0
LINE
  5
   50B
  8
0
  6
CONTINUOUS
 62
     2
 10
104.335140537024
 20
332.774328947067
 30
0.0
 11
106.735140572786
 21
332.774328947067
 31
0.0
  0
LINE
  5
   50C
  8
0
  6
CONTINUOUS
 62
     2
 10
108.415139377117
 20
332.774328947067
 30
0.0
 11
113.215139448643
 21
332.774328947067
 31
0.0
  0
LINE
  5
   50D
  8
0
  6
CONTINUOUS
 62
     2
 10
106.735140572786
 20
332.774328947067
 30
0.0
 11
108.415139377117
 21
332.774328947067
 31
0.0
  0
LINE
  5
   50E
  8
0
  6
CONTINUOUS
 62
     2
 10
113.215139448643
 20
332.774328947067
 30
0.0
 11
124.015139609575
 21
332.774328947067
 31
0.0
  0
LINE
  5
   50F
  8
0
  6
CONTINUOUS
 62
     2
 10
124.015139609575
 20
332.774328947067
 30
0.0
 11
145.61513993144
 21
332.774328947067
 31
0.0
  0
LINE
  5
   510
  8
0
  6
CONTINUOUS
 62
     2
 10
156.415140092373
 20
332.774328947067
 30
0.0
 11
161.215140163899
 21
332.774328947067
 31
0.0
  0
LINE
  5
   511
  8
0
  6
CONTINUOUS
 62
     2
 10
145.61513993144
 20
332.774328947067
 30
0.0
 11
156.415140092373
 21
332.774328947067
 31
0.0
  0
LINE
  5
   512
  8
0
  6
CONTINUOUS
 62
     2
 10
161.215140163899
 20
332.774328947067
 30
0.0
 11
162.895138968229
 21
332.774328947067
 31
0.0
  0
LINE
  5
   513
  8
0
  6
CONTINUOUS
 62
     2
 10
162.895138968229
 20
332.774328947067
 30
0.0
 11
165.295139003992
 21
332.774328947067
 31
0.0
  0
LINE
  5
   514
  8
0
  6
CONTINUOUS
 62
     2
 10
104.335140537024
 20
333.974328964949
 30
0.0
 11
106.735140572786
 21
333.974328964949
 31
0.0
  0
LINE
  5
   515
  8
0
  6
CONTINUOUS
 62
     2
 10
106.735140572786
 20
333.974328964949
 30
0.0
 11
124.015139609575
 21
333.974328964949
 31
0.0
  0
LINE
  5
   516
  8
0
  6
CONTINUOUS
 62
     2
 10
124.015139609575
 20
333.974328964949
 30
0.0
 11
145.61513993144
 21
333.974328964949
 31
0.0
  0
LINE
  5
   517
  8
0
  6
CONTINUOUS
 62
     2
 10
145.61513993144
 20
333.974328964949
 30
0.0
 11
162.895138968229
 21
333.974328964949
 31
0.0
  0
LINE
  5
   518
  8
0
  6
CONTINUOUS
 62
     2
 10
162.895138968229
 20
333.974328964949
 30
0.0
 11
165.295139003992
 21
333.974328964949
 31
0.0
  0
LINE
  5
   519
  8
0
  6
CONTINUOUS
 62
     2
 10
163.935140204429
 20
332.694328640699
 30
0.0
 11
163.935140204429
 21
332.774328947067
 31
0.0
  0
LINE
  5
   51A
  8
0
  6
CONTINUOUS
 62
     2
 10
163.935140204429
 20
299.174328446388
 30
0.0
 11
163.935140204429
 21
299.254328752756
 31
0.0
  0
LINE
  5
   51B
  8
0
  6
CONTINUOUS
 62
     2
 10
161.215140163899
 20
332.694328640699
 30
0.0
 11
161.215140163899
 21
332.774328947067
 31
0.0
  0
LINE
  5
   51C
  8
0
  6
CONTINUOUS
 62
     2
 10
113.215139448643
 20
332.694328640699
 30
0.0
 11
113.215139448643
 21
332.774328947067
 31
0.0
  0
LINE
  5
   51D
  8
0
  6
CONTINUOUS
 62
     2
 10
108.415139377117
 20
332.694328640699
 30
0.0
 11
108.415139377117
 21
332.774328947067
 31
0.0
  0
LINE
  5
   51E
  8
0
  6
CONTINUOUS
 62
     2
 10
113.215139448643
 20
299.174328446388
 30
0.0
 11
113.215139448643
 21
299.254328752756
 31
0.0
  0
LINE
  5
   51F
  8
0
  6
CONTINUOUS
 62
     2
 10
108.415139377117
 20
299.174328446388
 30
0.0
 11
108.415139377117
 21
299.254328752756
 31
0.0
  0
LINE
  5
   520
  8
0
  6
CONTINUOUS
 62
     2
 10
161.215140163899
 20
299.174328446388
 30
0.0
 11
161.215140163899
 21
299.254328752756
 31
0.0
  0
LINE
  5
   521
  8
0
  6
CONTINUOUS
 62
     2
 10
156.415140092373
 20
332.694328640699
 30
0.0
 11
156.415140092373
 21
332.774328947067
 31
0.0
  0
LINE
  5
   522
  8
0
  6
CONTINUOUS
 62
     2
 10
156.415140092373
 20
299.174328446388
 30
0.0
 11
156.415140092373
 21
299.254328752756
 31
0.0
  0
POLYLINE
  5
   523
  8
0
  6
CONTINUOUS
 62
     2
 66
     1
 10
0.0
 20
0.0
 30
0.0
  0
VERTEX
  5
   524
  8
0
  6
CONTINUOUS
 10
156.093391467857
 20
301.30858708727
 30
0.0
 40
0.0
 41
0.0
  0
VERTEX
  5
   525
  8
0
  6
CONTINUOUS
 10
157.214838300767
 20
300.941267384904
 30
0.0
 40
0.0
 41
0.0
  0
VERTEX
  5
   526
  8
0
  6
CONTINUOUS
 10
159.044181392097
 20
300.777678944802
 30
0.0
 40
0.0
 41
0.0
  0
VERTEX
  5
   527
  8
0
  6
CONTINUOUS
 10
160.669775106059
 20
301.0024262439
 30
0.0
 40
0.0
 41
0.0
  0
VERTEX
  5
   528
  8
0
  6
CONTINUOUS
 10
161.824357082813
 20
301.456656559748
 30
0.0
 40
0.0
 41
0.0
  0
VERTEX
  5
   529
  8
0
  6
CONTINUOUS
 10
162.165417883164
 20
301.681814058678
 30
0.0
 40
0.0
 41
0.0
  0
SEQEND
  5
   52A
  8
0
  6
CONTINUOUS
 62
     2
  0
POLYLINE
  5
   52B
  8
0
  6
CONTINUOUS
 62
     2
 66
     1
 10
0.0
 20
0.0
 30
0.0
  0
VERTEX
  5
   52C
  8
0
  6
CONTINUOUS
 10
162.258990383695
 20
301.757161601681
 30
0.0
 40
0.0
 41
0.0
  0
VERTEX
  5
   52D
  8
0
  6
CONTINUOUS
 10
162.705783855623
 20
302.309289267175
 30
0.0
 40
0.0
 41
0.0
  0
VERTEX
  5
   52E
  8
0
  6
CONTINUOUS
 10
162.815138967033
 20
302.774328500029
 30
0.0
 40
0.0
 41
0.0
  0
SEQEND
  5
   52F
  8
0
  6
CONTINUOUS
 62
     2
  0
POLYLINE
  5
   530
  8
0
  6
CONTINUOUS
 62
     2
 66
     1
 10
0.0
 20
0.0
 30
0.0
  0
VERTEX
  5
   531
  8
0
  6
CONTINUOUS
 10
155.122328506175
 20
302.006120257104
 30
0.0
 40
0.0
 41
0.0
  0
VERTEX
  5
   532
  8
0
  6
CONTINUOUS
 10
155.893430648691
 20
301.408073928798
 30
0.0
 40
0.0
 41
0.0
  0
SEQEND
  5
   533
  8
0
  6
CONTINUOUS
 62
     2
  0
POLYLINE
  5
   534
  8
0
  6
CONTINUOUS
 62
     2
 66
     1
 10
0.0
 20
0.0
 30
0.0
  0
VERTEX
  5
   535
  8
0
  6
CONTINUOUS
 10
154.815140068533
 20
302.774328500029
 30
0.0
 40
0.0
 41
0.0
  0
VERTEX
  5
   536
  8
0
  6
CONTINUOUS
 10
154.921952805547
 20
302.315786294185
 30
0.0
 40
0.0
 41
0.0
  0
SEQEND
  5
   537
  8
0
  6
CONTINUOUS
 62
     2
  0
POLYLINE
  5
   538
  8
0
  6
CONTINUOUS
 62
     2
 66
     1
 10
0.0
 20
0.0
 30
0.0
  0
VERTEX
  5
   539
  8
0
  6
CONTINUOUS
 10
155.371073749757
 20
303.791313492833
 30
0.0
 40
0.0
 41
0.0
  0
VERTEX
  5
   53A
  8
0
  6
CONTINUOUS
 10
154.924448051487
 20
303.239269200903
 30
0.0
 40
0.0
 41
0.0
  0
VERTEX
  5
   53B
  8
0
  6
CONTINUOUS
 10
154.815140068533
 20
302.774328500036
 30
0.0
 40
0.0
 41
0.0
  0
SEQEND
  5
   53C
  8
0
  6
CONTINUOUS
 62
     2
  0
POLYLINE
  5
   53D
  8
0
  6
CONTINUOUS
 62
     2
 66
     1
 10
0.0
 20
0.0
 30
0.0
  0
VERTEX
  5
   53E
  8
0
  6
CONTINUOUS
 10
155.900047508544
 20
304.143920913526
 30
0.0
 40
0.0
 41
0.0
  0
VERTEX
  5
   53F
  8
0
  6
CONTINUOUS
 10
155.475588171773
 20
303.875026142469
 30
0.0
 40
0.0
 41
0.0
  0
SEQEND
  5
   540
  8
0
  6
CONTINUOUS
 62
     2
  0
POLYLINE
  5
   541
  8
0
  6
CONTINUOUS
 62
     2
 66
     1
 10
0.0
 20
0.0
 30
0.0
  0
VERTEX
  5
   542
  8
0
  6
CONTINUOUS
 10
162.503718953064
 20
303.547606660762
 30
0.0
 40
0.0
 41
0.0
  0
VERTEX
  5
   543
  8
0
  6
CONTINUOUS
 10
161.796054262321
 20
304.10824343294
 30
0.0
 40
0.0
 41
0.0
  0
SEQEND
  5
   544
  8
0
  6
CONTINUOUS
 62
     2
  0
POLYLINE
  5
   545
  8
0
  6
CONTINUOUS
 62
     2
 66
     1
 10
0.0
 20
0.0
 30
0.0
  0
VERTEX
  5
   546
  8
0
  6
CONTINUOUS
 10
162.815138967033
 20
302.774328500036
 30
0.0
 40
0.0
 41
0.0
  0
VERTEX
  5
   547
  8
0
  6
CONTINUOUS
 10
162.708326477409
 20
303.232870181671
 30
0.0
 40
0.0
 41
0.0
  0
SEQEND
  5
   548
  8
0
  6
CONTINUOUS
 62
     2
  0
POLYLINE
  5
   549
  8
0
  6
CONTINUOUS
 62
     2
 66
     1
 10
0.0
 20
0.0
 30
0.0
  0
VERTEX
  5
   54A
  8
0
  6
CONTINUOUS
 10
161.536886028618
 20
304.24007062597
 30
0.0
 40
0.0
 41
0.0
  0
VERTEX
  5
   54B
  8
0
  6
CONTINUOUS
 10
160.41544070782
 20
304.607389621059
 30
0.0
 40
0.0
 41
0.0
  0
VERTEX
  5
   54C
  8
0
  6
CONTINUOUS
 10
158.58609759824
 20
304.770978053974
 30
0.0
 40
0.0
 41
0.0
  0
VERTEX
  5
   54D
  8
0
  6
CONTINUOUS
 10
157.067013824388
 20
304.573106146602
 30
0.0
 40
0.0
 41
0.0
  0
VERTEX
  5
   54E
  8
0
  6
CONTINUOUS
 10
155.919858218313
 20
304.154394121247
 30
0.0
 40
0.0
 41
0.0
  0
SEQEND
  5
   54F
  8
0
  6
CONTINUOUS
 62
     2
  0
LINE
  5
   550
  8
0
  6
CONTINUOUS
 62
     2
 10
105.695139336586
 20
299.174328446388
 30
0.0
 11
105.695139336586
 21
299.254328752756
 31
0.0
  0
LINE
  5
   551
  8
0
  6
CONTINUOUS
 62
     2
 10
105.695139336586
 20
332.694328640699
 30
0.0
 11
105.695139336586
 21
332.774328947067
 31
0.0
  0
LINE
  5
   552
  8
0
  6
CONTINUOUS
 62
     2
 10
106.335140566826
 20
367.574329465628
 30
0.0
 11
163.29513897419
 21
367.574329465628
 31
0.0
  0
LINE
  5
   553
  8
0
  6
CONTINUOUS
 62
     2
 10
163.29513897419
 20
367.574329465628
 30
0.0
 11
164.095138986111
 21
367.574329465628
 31
0.0
  0
LINE
  5
   554
  8
0
  6
CONTINUOUS
 62
     2
 10
105.535140554905
 20
367.574329465628
 30
0.0
 11
106.335140566826
 21
367.574329465628
 31
0.0
  0
LINE
  5
   555
  8
0
  6
CONTINUOUS
 62
     2
 10
164.095140206814
 20
359.174329340458
 30
0.0
 11
164.095140206814
 21
367.574329465628
 31
0.0
  0
LINE
  5
   556
  8
0
  6
CONTINUOUS
 62
     2
 10
105.535139334202
 20
359.174329340458
 30
0.0
 11
105.535139334202
 21
367.574329465628
 31
0.0
  0
LINE
  5
   557
  8
0
  6
CONTINUOUS
 62
     2
 10
106.335140566826
 20
273.174328058958
 30
0.0
 11
163.29513897419
 21
273.174328058958
 31
0.0
  0
LINE
  5
   558
  8
0
  6
CONTINUOUS
 62
     2
 10
163.29513897419
 20
273.174328058958
 30
0.0
 11
164.095138986111
 21
273.174328058958
 31
0.0
  0
LINE
  5
   559
  8
0
  6
CONTINUOUS
 62
     2
 10
105.535140554905
 20
273.174328058958
 30
0.0
 11
106.335140566826
 21
273.174328058958
 31
0.0
  0
LINE
  5
   55A
  8
0
  6
CONTINUOUS
 62
     2
 10
164.095140206814
 20
273.174328058958
 30
0.0
 11
164.095140206814
 21
281.574328184128
 31
0.0
  0
LINE
  5
   55B
  8
0
  6
CONTINUOUS
 62
     2
 10
105.535139334202
 20
273.174328058958
 30
0.0
 11
105.535139334202
 21
281.574328184128
 31
0.0
  0
LINE
  5
   55C
  8
0
  6
CONTINUOUS
 62
     2
 10
165.295140224695
 20
333.974328964949
 30
0.0
 11
165.295140224695
 21
358.614328721762
 31
0.0
  0
LINE
  5
   55D
  8
0
  6
CONTINUOUS
 62
     2
 10
165.295140224695
 20
282.134328802824
 30
0.0
 11
165.295140224695
 21
297.974328428507
 31
0.0
  0
LINE
  5
   55E
  8
0
  6
CONTINUOUS
 62
     2
 10
165.295140224695
 20
297.974328428507
 30
0.0
 11
165.295140224695
 21
299.174328446388
 31
0.0
  0
LINE
  5
   55F
  8
0
  6
CONTINUOUS
 62
     2
 10
165.295140224695
 20
332.774328947067
 30
0.0
 11
165.295140224695
 21
333.974328964949
 31
0.0
  0
LINE
  5
   560
  8
0
  6
CONTINUOUS
 62
     2
 10
165.295140224695
 20
299.174328446388
 30
0.0
 11
165.295140224695
 21
332.774328947067
 31
0.0
  0
LINE
  5
   561
  8
0
  6
CONTINUOUS
 62
     2
 10
104.33513931632
 20
333.974328964949
 30
0.0
 11
104.33513931632
 21
358.614328721762
 31
0.0
  0
LINE
  5
   562
  8
0
  6
CONTINUOUS
 62
     2
 10
104.33513931632
 20
282.134328802824
 30
0.0
 11
104.33513931632
 21
297.974328428507
 31
0.0
  0
LINE
  5
   563
  8
0
  6
CONTINUOUS
 62
     2
 10
104.33513931632
 20
297.974328428507
 30
0.0
 11
104.33513931632
 21
299.174328446388
 31
0.0
  0
LINE
  5
   564
  8
0
  6
CONTINUOUS
 62
     2
 10
104.33513931632
 20
332.774328947067
 30
0.0
 11
104.33513931632
 21
333.974328964949
 31
0.0
  0
LINE
  5
   565
  8
0
  6
CONTINUOUS
 62
     2
 10
104.33513931632
 20
299.174328446388
 30
0.0
 11
104.33513931632
 21
332.774328947067
 31
0.0
  0
LINE
  5
   566
  8
0
  6
CONTINUOUS
 62
     2
 10
126.415139645338
 20
307.526584676468
 30
0.0
 11
143.215139895678
 21
307.526584676468
 31
0.0
  0
CIRCLE
  5
   567
  8
0
  6
CONTINUOUS
 62
     2
 10
144.815139919519
 20
363.174329400063
 30
0.0
 40
3.6000000536442
  0
CIRCLE
  5
   568
  8
0
  6
CONTINUOUS
 62
     2
 10
144.815139919519
 20
363.174329400062
 30
0.0
 40
1.68000002503395
  0
CIRCLE
  5
   569
  8
0
  6
CONTINUOUS
 62
     2
 10
124.815139621496
 20
277.574328120505
 30
0.0
 40
3.60000005364419
  0
CIRCLE
  5
   56A
  8
0
  6
CONTINUOUS
 62
     2
 10
124.815139621496
 20
277.574328120505
 30
0.0
 40
1.68000002503394
  0
LINE
  5
   56B
  8
0
  6
CONTINUOUS
 62
     2
 10
104.895139324665
 20
358.614328721762
 30
0.0
 11
104.895139324665
 21
359.174329340458
 31
0.0
  0
LINE
  5
   56C
  8
0
  6
CONTINUOUS
 62
     2
 10
164.735140216351
 20
358.614328721762
 30
0.0
 11
164.735140216351
 21
359.174329340458
 31
0.0
  0
CIRCLE
  5
   56D
  8
0
  6
CONTINUOUS
 62
     2
 10
111.21513941884
 20
295.174328386784
 30
0.0
 40
2.60000003874302
  0
CIRCLE
  5
   56E
  8
0
  6
CONTINUOUS
 62
     2
 10
124.815139621496
 20
363.174329404081
 30
0.0
 40
3.40000005066395
  0
CIRCLE
  5
   56F
  8
0
  6
CONTINUOUS
 62
     2
 10
154.815140068531
 20
361.9743293862
 30
0.0
 40
2.80000004172327
  0
CIRCLE
  5
   570
  8
0
  6
CONTINUOUS
 62
     2
 10
114.815139472485
 20
361.9743293862
 30
0.0
 40
2.80000004172326
  0
LINE
  5
   571
  8
0
  6
CONTINUOUS
 62
     2
 10
104.895139324665
 20
281.574328184128
 30
0.0
 11
104.895139324665
 21
282.134328802824
 31
0.0
  0
LINE
  5
   572
  8
0
  6
CONTINUOUS
 62
     2
 10
164.735140216351
 20
281.574328184128
 30
0.0
 11
164.735140216351
 21
282.134328802824
 31
0.0
  0
CIRCLE
  5
   573
  8
0
  6
CONTINUOUS
 62
     2
 10
154.815140068531
 20
278.774328138386
 30
0.0
 40
2.80000004172324
  0
CIRCLE
  5
   574
  8
0
  6
CONTINUOUS
 62
     2
 10
114.815139472485
 20
278.774328138386
 30
0.0
 40
2.80000004172326
  0
CIRCLE
  5
   575
  8
0
  6
CONTINUOUS
 62
     2
 10
144.815139919519
 20
277.574328120505
 30
0.0
 40
3.40000005066395
  0
CIRCLE
  5
   576
  8
0
  6
CONTINUOUS
 62
     2
 10
134.815139770508
 20
361.9743293862
 30
0.0
 40
2.80000004172326
  0
CIRCLE
  5
   577
  8
0
  6
CONTINUOUS
 62
     2
 10
134.815139770508
 20
278.774328138386
 30
0.0
 40
2.80000004172324
  0
POLYLINE
  5
   578
  8
0
  6
CONTINUOUS
 62
     7
 66
     1
 10
0.0
 20
0.0
 30
0.0
  0
VERTEX
  5
   579
  8
0
  6
CONTINUOUS
 10
126.780938935942
 20
326.971643892803
 30
0.0
 40
0.0
 41
0.0
  0
VERTEX
  5
   57A
  8
0
  6
CONTINUOUS
 10
126.753864229639
 20
326.847399533285
 30
0.0
 40
0.0
 41
0.0
  0
SEQEND
  5
   57B
  8
0
  6
CONTINUOUS
 62
     7
  0
LINE
  5
   57C
  8
0
  6
CONTINUOUS
 62
     7
 10
127.503162275076
 20
321.475443433242
 30
0.0
 11
142.127117265939
 21
321.475443433242
 31
0.0
  0
LINE
  5
   57D
  8
0
  6
CONTINUOUS
 62
     7
 10
127.615139663219
 20
324.314904567199
 30
0.0
 11
142.015139877796
 21
324.314904567199
 31
0.0
  0
POLYLINE
  5
   57E
  8
0
  6
CONTINUOUS
 62
     7
 66
     1
 10
0.0
 20
0.0
 30
0.0
  0
VERTEX
  5
   57F
  8
0
  6
CONTINUOUS
 10
142.01513987779
 20
324.314904567199
 30
0.0
 40
0.0
 41
0.0
  0
VERTEX
  5
   580
  8
0
  6
CONTINUOUS
 10
142.580927757113
 20
324.542080808409
 30
0.0
 40
0.0
 41
0.0
  0
VERTEX
  5
   581
  8
0
  6
CONTINUOUS
 10
142.815139889711
 20
325.090160538171
 30
0.0
 40
0.0
 41
0.0
  0
SEQEND
  5
   582
  8
0
  6
CONTINUOUS
 62
     7
  0
POLYLINE
  5
   583
  8
0
  6
CONTINUOUS
 62
     7
 66
     1
 10
0.0
 20
0.0
 30
0.0
  0
VERTEX
  5
   584
  8
0
  6
CONTINUOUS
 10
142.87645820248
 20
326.847395845022
 30
0.0
 40
0.0
 41
0.0
  0
VERTEX
  5
   585
  8
0
  6
CONTINUOUS
 10
142.849411810543
 20
326.971566984968
 30
0.0
 40
0.0
 41
0.0
  0
SEQEND
  5
   586
  8
0
  6
CONTINUOUS
 62
     7
  0
POLYLINE
  5
   587
  8
0
  6
CONTINUOUS
 62
     7
 66
     1
 10
0.0
 20
0.0
 30
0.0
  0
VERTEX
  5
   588
  8
0
  6
CONTINUOUS
 10
127.615139663225
 20
324.314904567199
 30
0.0
 40
0.0
 41
0.0
  0
VERTEX
  5
   589
  8
0
  6
CONTINUOUS
 10
127.04935178317
 20
324.542080801038
 30
0.0
 40
0.0
 41
0.0
  0
VERTEX
  5
   58A
  8
0
  6
CONTINUOUS
 10
126.815139651304
 20
325.090160580625
 30
0.0
 40
0.0
 41
0.0
  0
SEQEND
  5
   58B
  8
0
  6
CONTINUOUS
 62
     7
  0
LINE
  5
   58C
  8
0
  6
CONTINUOUS
 62
     7
 10
142.746750759059
 20
330.931416627125
 30
0.0
 11
142.815139889717
 21
330.670352475286
 31
0.0
  0
LINE
  5
   58D
  8
0
  6
CONTINUOUS
 62
     7
 10
126.815139651299
 20
330.670352475286
 30
0.0
 11
126.883528781956
 21
330.931416627125
 31
0.0
  0
LINE
  5
   58E
  8
0
  6
CONTINUOUS
 62
     7
 10
127.615139663219
 20
331.464390091603
 30
0.0
 11
142.015139877796
 21
331.464390091603
 31
0.0
  0
LINE
  5
   58F
  8
0
  6
CONTINUOUS
 62
     7
 10
127.615139663219
 20
326.662813047893
 30
0.0
 11
142.015139877796
 21
326.662813047893
 31
0.0
  0
ARC
  5
   590
  8
0
  6
CONTINUOUS
 62
     7
 10
142.018357212094
 20
330.667090766198
 30
0.0
 40
0.797058528642339
 50
31.2286826578034
 51
90.2312040672993
  0
ARC
  5
   591
  8
0
  6
CONTINUOUS
 62
     7
 10
127.611944445214
 20
330.667068506076
 30
0.0
 40
0.797080619592727
 50
89.7703916469982
 51
148.770735227231
  0
LINE
  5
   592
  8
0
  6
CONTINUOUS
 62
     7
 10
142.815139889733
 20
322.379115474284
 30
0.0
 11
142.815139889733
 21
322.445385922049
 31
0.0
  0
LINE
  5
   593
  8
0
  6
CONTINUOUS
 62
     7
 10
142.815139889711
 20
325.090159826217
 30
0.0
 11
142.815139889711
 21
327.213528693306
 31
0.0
  0
LINE
  5
   594
  8
0
  6
CONTINUOUS
 62
     7
 10
142.815139889716
 20
322.44538592206
 30
0.0
 11
142.815139889716
 21
325.090159826217
 31
0.0
  0
LINE
  5
   595
  8
0
  6
CONTINUOUS
 62
     7
 10
142.815139889709
 20
327.213528693306
 30
0.0
 11
142.815139889709
 21
330.670352475286
 31
0.0
  0
LINE
  5
   596
  8
0
  6
CONTINUOUS
 62
     7
 10
126.815139651304
 20
325.090159826217
 30
0.0
 11
126.815139651304
 21
327.213528693306
 31
0.0
  0
LINE
  5
   597
  8
0
  6
CONTINUOUS
 62
     7
 10
126.815139651282
 20
322.379107844889
 30
0.0
 11
126.815139651282
 21
322.445385922049
 31
0.0
  0
LINE
  5
   598
  8
0
  6
CONTINUOUS
 62
     7
 10
126.815139651299
 20
322.44538592206
 30
0.0
 11
126.815139651299
 21
325.090159826217
 31
0.0
  0
LINE
  5
   599
  8
0
  6
CONTINUOUS
 62
     7
 10
126.815139651307
 20
327.213528693306
 30
0.0
 11
126.815139651307
 21
330.670352475286
 31
0.0
  0
ARC
  5
   59A
  8
0
  6
CONTINUOUS
 62
     1
 10
163.295148030908
 20
371.574337361248
 30
0.0
 40
0.800000011920454
 50
359.999438780352
 51
450.000648646013
  0
ARC
  5
   59B
  8
0
  6
CONTINUOUS
 62
     1
 10
106.335131510108
 20
371.574337361247
 30
0.0
 40
0.800000011920695
 50
89.9993513540026
 51
180.000561219648
  0
ARC
  5
   59C
  8
0
  6
CONTINUOUS
 62
     1
 10
106.335131510108
 20
269.17432016133
 30
0.0
 40
0.800000011920801
 50
179.99943863685
 51
270.000648645963
  0
ARC
  5
   59D
  8
0
  6
CONTINUOUS
 62
     1
 10
163.295140194257
 20
269.17432799798
 30
0.0
 40
0.800000011920609
 50
269.999912619111
 51
360.0
  0
LINE
  5
   59E
  8
0
  6
CONTINUOUS
 62
   253
 10
106.735139352083
 20
367.574329465628
 30
0.0
 11
106.735139352083
 21
370.774329513311
 31
0.0
  0
LINE
  5
   59F
  8
0
  6
CONTINUOUS
 62
   253
 10
162.895140188932
 20
367.574329465628
 30
0.0
 11
162.895140188932
 21
370.774329513311
 31
0.0
  0
LINE
  5
   5A0
  8
0
  6
CONTINUOUS
 62
     1
 10
156.254132399544
 20
301.334328478575
 30
0.0
 11
156.309453140114
 21
301.334328478575
 31
0.0
  0
LINE
  5
   5A1
  8
0
  6
CONTINUOUS
 62
     1
 10
161.315704740592
 20
301.334328478575
 30
0.0
 11
161.368304839032
 21
301.334328478575
 31
0.0
  0
LINE
  5
   5A2
  8
0
  6
CONTINUOUS
 62
   253
 10
142.415139883757
 20
271.574328033107
 30
0.0
 11
147.215139955282
 21
271.574328033107
 31
0.0
  0
LINE
  5
   5A3
  8
0
  6
CONTINUOUS
 62
   253
 10
142.415139883757
 20
369.17432948947
 30
0.0
 11
147.215139955282
 21
369.17432948947
 31
0.0
  0
LINE
  5
   5A4
  8
0
  6
CONTINUOUS
 62
   253
 10
122.415139585733
 20
271.574328033107
 30
0.0
 11
127.215139657259
 21
271.574328033107
 31
0.0
  0
LINE
  5
   5A5
  8
0
  6
CONTINUOUS
 62
   253
 10
122.415139585733
 20
369.17432948947
 30
0.0
 11
127.215139657259
 21
369.17432948947
 31
0.0
  0
LINE
  5
   5A6
  8
0
  6
CONTINUOUS
 62
   253
 10
164.095140206814
 20
269.174327999353
 30
0.0
 11
164.095140206814
 21
269.974328011274
 31
0.0
  0
LINE
  5
   5A7
  8
0
  6
CONTINUOUS
 62
   253
 10
147.215139955282
 20
268.374327985423
 30
0.0
 11
163.29513897419
 21
268.374327985423
 31
0.0
  0
LINE
  5
   5A8
  8
0
  6
CONTINUOUS
 62
   253
 10
127.215139657259
 20
268.374327985423
 30
0.0
 11
142.415139883757
 21
268.374327985423
 31
0.0
  0
LINE
  5
   5A9
  8
0
  6
CONTINUOUS
 62
   253
 10
127.215139657259
 20
372.374329535144
 30
0.0
 11
142.415139883757
 21
372.374329535144
 31
0.0
  0
LINE
  5
   5AA
  8
0
  6
CONTINUOUS
 62
   253
 10
147.215139955282
 20
372.374329537153
 30
0.0
 11
163.29513897419
 21
372.374329537153
 31
0.0
  0
LINE
  5
   5AB
  8
0
  6
CONTINUOUS
 62
   253
 10
164.095140206814
 20
370.774329513311
 30
0.0
 11
164.095140206814
 21
371.574329525232
 31
0.0
  0
LINE
  5
   5AC
  8
0
  6
CONTINUOUS
 62
   253
 10
142.415139883757
 20
367.574329465628
 30
0.0
 11
143.615139901638
 21
367.574329465628
 31
0.0
  0
LINE
  5
   5AD
  8
0
  6
CONTINUOUS
 62
   253
 10
146.015139937401
 20
367.574329465628
 30
0.0
 11
147.215139955282
 21
367.574329465628
 31
0.0
  0
LINE
  5
   5AE
  8
0
  6
CONTINUOUS
 62
   253
 10
126.015139639378
 20
367.574329465628
 30
0.0
 11
127.215139657259
 21
367.574329465628
 31
0.0
  0
LINE
  5
   5AF
  8
0
  6
CONTINUOUS
 62
   253
 10
122.415139585733
 20
367.574329465628
 30
0.0
 11
123.615139603615
 21
367.574329465628
 31
0.0
  0
LINE
  5
   5B0
  8
0
  6
CONTINUOUS
 62
   253
 10
142.415139883757
 20
273.174328056949
 30
0.0
 11
143.615139901638
 21
273.174328056949
 31
0.0
  0
LINE
  5
   5B1
  8
0
  6
CONTINUOUS
 62
   253
 10
146.015139937401
 20
273.174328056949
 30
0.0
 11
147.215139955282
 21
273.174328056949
 31
0.0
  0
LINE
  5
   5B2
  8
0
  6
CONTINUOUS
 62
   253
 10
122.415139585733
 20
273.174328056949
 30
0.0
 11
123.615139603615
 21
273.174328056949
 31
0.0
  0
LINE
  5
   5B3
  8
0
  6
CONTINUOUS
 62
   253
 10
126.015139639378
 20
273.174328056949
 30
0.0
 11
127.215139657259
 21
273.174328056949
 31
0.0
  0
LINE
  5
   5B4
  8
0
  6
CONTINUOUS
 62
   253
 10
147.215139955282
 20
269.174327999353
 30
0.0
 11
147.215139955282
 21
269.974328011274
 31
0.0
  0
LINE
  5
   5B5
  8
0
  6
CONTINUOUS
 62
   253
 10
147.215139955282
 20
268.374327987433
 30
0.0
 11
147.215139955282
 21
269.174327999353
 31
0.0
  0
LINE
  5
   5B6
  8
0
  6
CONTINUOUS
 62
   253
 10
142.415139883757
 20
269.174327999353
 30
0.0
 11
142.415139883757
 21
269.974328011274
 31
0.0
  0
LINE
  5
   5B7
  8
0
  6
CONTINUOUS
 62
   253
 10
142.415139883757
 20
268.374327987433
 30
0.0
 11
142.415139883757
 21
269.174327999353
 31
0.0
  0
LINE
  5
   5B8
  8
0
  6
CONTINUOUS
 62
   253
 10
142.415139883757
 20
268.374327985423
 30
0.0
 11
143.615139901638
 21
268.374327985423
 31
0.0
  0
LINE
  5
   5B9
  8
0
  6
CONTINUOUS
 62
   253
 10
146.015139937401
 20
268.374327985423
 30
0.0
 11
147.215139955282
 21
268.374327985423
 31
0.0
  0
LINE
  5
   5BA
  8
0
  6
CONTINUOUS
 62
   253
 10
122.415139585733
 20
269.174327999353
 30
0.0
 11
122.415139585733
 21
269.974328011274
 31
0.0
  0
LINE
  5
   5BB
  8
0
  6
CONTINUOUS
 62
   253
 10
127.215139657259
 20
269.174327999353
 30
0.0
 11
127.215139657259
 21
269.974328011274
 31
0.0
  0
LINE
  5
   5BC
  8
0
  6
CONTINUOUS
 62
   253
 10
127.215139657259
 20
268.374327987433
 30
0.0
 11
127.215139657259
 21
269.174327999353
 31
0.0
  0
LINE
  5
   5BD
  8
0
  6
CONTINUOUS
 62
   253
 10
122.415139585733
 20
268.374327985423
 30
0.0
 11
123.615139603615
 21
268.374327985423
 31
0.0
  0
LINE
  5
   5BE
  8
0
  6
CONTINUOUS
 62
   253
 10
126.015139639378
 20
268.374327985423
 30
0.0
 11
127.215139657259
 21
268.374327985423
 31
0.0
  0
LINE
  5
   5BF
  8
0
  6
CONTINUOUS
 62
   253
 10
147.215139955282
 20
370.774329513311
 30
0.0
 11
147.215139955282
 21
371.574329525232
 31
0.0
  0
LINE
  5
   5C0
  8
0
  6
CONTINUOUS
 62
   253
 10
147.215139955282
 20
371.574329525232
 30
0.0
 11
147.215139955282
 21
372.374329537153
 31
0.0
  0
LINE
  5
   5C1
  8
0
  6
CONTINUOUS
 62
   253
 10
142.415139883757
 20
370.774329513311
 30
0.0
 11
142.415139883757
 21
371.574329525232
 31
0.0
  0
LINE
  5
   5C2
  8
0
  6
CONTINUOUS
 62
   253
 10
142.415139883757
 20
371.574329525232
 30
0.0
 11
142.415139883757
 21
372.374329537153
 31
0.0
  0
LINE
  5
   5C3
  8
0
  6
CONTINUOUS
 62
   253
 10
146.015139937401
 20
372.374329537153
 30
0.0
 11
147.215139955282
 21
372.374329537153
 31
0.0
  0
LINE
  5
   5C4
  8
0
  6
CONTINUOUS
 62
   253
 10
142.415139883757
 20
372.374329537153
 30
0.0
 11
143.615139901638
 21
372.374329537153
 31
0.0
  0
LINE
  5
   5C5
  8
0
  6
CONTINUOUS
 62
   253
 10
122.415139585733
 20
370.774329513311
 30
0.0
 11
122.415139585733
 21
371.574329525232
 31
0.0
  0
LINE
  5
   5C6
  8
0
  6
CONTINUOUS
 62
   253
 10
127.215139657259
 20
370.774329513311
 30
0.0
 11
127.215139657259
 21
371.574329525232
 31
0.0
  0
LINE
  5
   5C7
  8
0
  6
CONTINUOUS
 62
   253
 10
127.215139657259
 20
371.574329525232
 30
0.0
 11
127.215139657259
 21
372.374329537153
 31
0.0
  0
LINE
  5
   5C8
  8
0
  6
CONTINUOUS
 62
   253
 10
122.415139585733
 20
372.374329537153
 30
0.0
 11
123.615139603615
 21
372.374329537153
 31
0.0
  0
LINE
  5
   5C9
  8
0
  6
CONTINUOUS
 62
   253
 10
126.015139639378
 20
372.374329537153
 30
0.0
 11
127.215139657259
 21
372.374329537153
 31
0.0
  0
LINE
  5
   5CA
  8
0
  6
CONTINUOUS
 62
   253
 10
164.095138986111
 20
279.174328146356
 30
0.0
 11
165.295139003992
 21
279.174328146356
 31
0.0
  0
LINE
  5
   5CB
  8
0
  6
CONTINUOUS
 62
   253
 10
164.095138986111
 20
275.574328092712
 30
0.0
 11
165.295139003992
 21
275.574328092712
 31
0.0
  0
LINE
  5
   5CC
  8
0
  6
CONTINUOUS
 62
   253
 10
164.095138986111
 20
361.574329376221
 30
0.0
 11
165.295139003992
 21
361.574329376221
 31
0.0
  0
LINE
  5
   5CD
  8
0
  6
CONTINUOUS
 62
   253
 10
164.095138986111
 20
365.174329429865
 30
0.0
 11
165.295139003992
 21
365.174329429865
 31
0.0
  0
LINE
  5
   5CE
  8
0
  6
CONTINUOUS
 62
   253
 10
162.495140182972
 20
302.193457672285
 30
0.0
 11
162.495140182972
 21
302.316458772751
 31
0.0
  0
LINE
  5
   5CF
  8
0
  6
CONTINUOUS
 62
   253
 10
162.495140182972
 20
302.194845459171
 30
0.0
 11
162.495140182972
 21
302.318125032541
 31
0.0
  0
CIRCLE
  5
   5D0
  8
0
  6
CONTINUOUS
 62
   253
 10
144.815139919519
 20
277.574328120505
 30
0.0
 40
1.68000033020974
  0
CIRCLE
  5
   5D1
  8
0
  6
CONTINUOUS
 62
   253
 10
124.815139621496
 20
277.574328120505
 30
0.0
 40
1.68000033020975
  0
LINE
  5
   5D2
  8
0
  6
CONTINUOUS
 62
   253
 10
122.043858147095
 20
273.174328058958
 30
0.0
 11
122.415139585733
 21
273.174328058958
 31
0.0
  0
CIRCLE
  5
   5D3
  8
0
  6
CONTINUOUS
 62
   253
 10
144.815139919519
 20
363.174329400062
 30
0.0
 40
1.68000033020973
  0
CIRCLE
  5
   5D4
  8
0
  6
CONTINUOUS
 62
   253
 10
124.815139621496
 20
363.174329400063
 30
0.0
 40
1.68000033020973
  0
LINE
  5
   5D5
  8
0
  6
CONTINUOUS
 62
   253
 10
106.335140566826
 20
268.374327985423
 30
0.0
 11
122.415139585733
 21
268.374327985423
 31
0.0
  0
LINE
  5
   5D6
  8
0
  6
CONTINUOUS
 62
   253
 10
122.415139585733
 20
268.374327987433
 30
0.0
 11
122.415139585733
 21
269.174327999353
 31
0.0
  0
LINE
  5
   5D7
  8
0
  6
CONTINUOUS
 62
   253
 10
105.535139334202
 20
269.174327999353
 30
0.0
 11
105.535139334202
 21
269.974328011274
 31
0.0
  0
LINE
  5
   5D8
  8
0
  6
CONTINUOUS
 62
   253
 10
105.535139334202
 20
370.774329513311
 30
0.0
 11
105.535139334202
 21
371.574329525232
 31
0.0
  0
LINE
  5
   5D9
  8
0
  6
CONTINUOUS
 62
   253
 10
106.335140566826
 20
372.374329537153
 30
0.0
 11
122.415139585733
 21
372.374329537153
 31
0.0
  0
LINE
  5
   5DA
  8
0
  6
CONTINUOUS
 62
   253
 10
122.415139585733
 20
371.574329525232
 30
0.0
 11
122.415139585733
 21
372.374329537153
 31
0.0
  0
LINE
  5
   5DB
  8
0
  6
CONTINUOUS
 62
   253
 10
106.735140572786
 20
273.174328057025
 30
0.0
 11
122.415139585733
 21
273.174328057025
 31
0.0
  0
LINE
  5
   5DC
  8
0
  6
CONTINUOUS
 62
   253
 10
127.215139657259
 20
273.174328057025
 30
0.0
 11
142.415139883757
 21
273.174328057025
 31
0.0
  0
LINE
  5
   5DD
  8
0
  6
CONTINUOUS
 62
   253
 10
123.615139603615
 20
273.174328056949
 30
0.0
 11
126.015139639378
 21
273.174328056949
 31
0.0
  0
LINE
  5
   5DE
  8
0
  6
CONTINUOUS
 62
   253
 10
143.615139901638
 20
273.174328057025
 30
0.0
 11
146.015139937401
 21
273.174328057025
 31
0.0
  0
LINE
  5
   5DF
  8
0
  6
CONTINUOUS
 62
   253
 10
147.215139955282
 20
273.174328057025
 30
0.0
 11
162.895138968229
 21
273.174328057025
 31
0.0
  0
LINE
  5
   5E0
  8
0
  6
CONTINUOUS
 62
   253
 10
127.215139657259
 20
367.574329465628
 30
0.0
 11
142.415139883757
 21
367.574329465628
 31
0.0
  0
LINE
  5
   5E1
  8
0
  6
CONTINUOUS
 62
   253
 10
106.735140572786
 20
367.574329465628
 30
0.0
 11
122.415139585733
 21
367.574329465628
 31
0.0
  0
LINE
  5
   5E2
  8
0
  6
CONTINUOUS
 62
   253
 10
147.215139955282
 20
367.574329465628
 30
0.0
 11
162.895138968229
 21
367.574329465628
 31
0.0
  0
LINE
  5
   5E3
  8
0
  6
CONTINUOUS
 62
   253
 10
123.615139603615
 20
367.574329465628
 30
0.0
 11
126.015139639378
 21
367.574329465628
 31
0.0
  0
LINE
  5
   5E4
  8
0
  6
CONTINUOUS
 62
   253
 10
143.615139901638
 20
367.574329465628
 30
0.0
 11
146.015139937401
 21
367.574329465628
 31
0.0
  0
POLYLINE
  5
   5E5
  8
0
  6
CONTINUOUS
 62
   253
 66
     1
 10
0.0
 20
0.0
 30
0.0
  0
VERTEX
  5
   5E6
  8
0
  6
CONTINUOUS
 10
134.14481400444
 20
370.604462567409
 30
0.0
 40
0.0
 41
0.0
  0
VERTEX
  5
   5E7
  8
0
  6
CONTINUOUS
 10
133.918689403597
 20
369.94694903911
 30
0.0
 40
0.0
 41
0.0
  0
VERTEX
  5
   5E8
  8
0
  6
CONTINUOUS
 10
134.177241029779
 20
369.340924950924
 30
0.0
 40
0.0
 41
0.0
  0
SEQEND
  5
   5E9
  8
0
  6
CONTINUOUS
 62
   253
  0
POLYLINE
  5
   5EA
  8
0
  6
CONTINUOUS
 62
   253
 66
     1
 10
0.0
 20
0.0
 30
0.0
  0
VERTEX
  5
   5EB
  8
0
  6
CONTINUOUS
 10
135.485465536574
 20
369.344196435368
 30
0.0
 40
0.0
 41
0.0
  0
VERTEX
  5
   5EC
  8
0
  6
CONTINUOUS
 10
135.71159013742
 20
370.001709963667
 30
0.0
 40
0.0
 41
0.0
  0
VERTEX
  5
   5ED
  8
0
  6
CONTINUOUS
 10
135.453038511241
 20
370.607734051854
 30
0.0
 40
0.0
 41
0.0
  0
SEQEND
  5
   5EE
  8
0
  6
CONTINUOUS
 62
   253
  0
ARC
  5
   5EF
  8
0
  6
CONTINUOUS
 62
     1
 10
134.815021650074
 20
369.974329501396
 30
0.0
 40
0.920097351976017
 50
270.007356296942
 51
449.992643703058
  0
CIRCLE
  5
   5F0
  8
0
  6
CONTINUOUS
 62
   253
 10
134.815139770508
 20
369.974329501396
 30
0.0
 40
0.92000001370913
  0
POLYLINE
  5
   5F1
  8
0
  6
CONTINUOUS
 62
   253
 66
     1
 10
0.0
 20
0.0
 30
0.0
  0
VERTEX
  5
   5F2
  8
0
  6
CONTINUOUS
 10
134.144814004441
 20
271.404458037455
 30
0.0
 40
0.0
 41
0.0
  0
VERTEX
  5
   5F3
  8
0
  6
CONTINUOUS
 10
133.918689440315
 20
270.746956522054
 30
0.0
 40
0.0
 41
0.0
  0
VERTEX
  5
   5F4
  8
0
  6
CONTINUOUS
 10
134.177241029779
 20
270.140920420972
 30
0.0
 40
0.0
 41
0.0
  0
SEQEND
  5
   5F5
  8
0
  6
CONTINUOUS
 62
   253
  0
POLYLINE
  5
   5F6
  8
0
  6
CONTINUOUS
 62
   253
 66
     1
 10
0.0
 20
0.0
 30
0.0
  0
VERTEX
  5
   5F7
  8
0
  6
CONTINUOUS
 10
135.485465536573
 20
270.144198008931
 30
0.0
 40
0.0
 41
0.0
  0
VERTEX
  5
   5F8
  8
0
  6
CONTINUOUS
 10
135.711590100701
 20
270.801699524333
 30
0.0
 40
0.0
 41
0.0
  0
VERTEX
  5
   5F9
  8
0
  6
CONTINUOUS
 10
135.45303851124
 20
271.407735625416
 30
0.0
 40
0.0
 41
0.0
  0
SEQEND
  5
   5FA
  8
0
  6
CONTINUOUS
 62
   253
  0
ARC
  5
   5FB
  8
0
  6
CONTINUOUS
 62
     1
 10
134.815021650074
 20
270.774328020273
 30
0.0
 40
0.92009735197596
 50
270.007356296967
 51
449.992643703079
  0
CIRCLE
  5
   5FC
  8
0
  6
CONTINUOUS
 62
   253
 10
134.815139770508
 20
270.774328020274
 30
0.0
 40
0.920000013708999
  0
CIRCLE
  5
   5FD
  8
0
  6
CONTINUOUS
 62
   253
 10
144.815139919519
 20
277.574328120505
 30
0.0
 40
1.44000017404558
  0
CIRCLE
  5
   5FE
  8
0
  6
CONTINUOUS
 62
   253
 10
124.815139621496
 20
277.574328120505
 30
0.0
 40
1.44000017404556
  0
CIRCLE
  5
   5FF
  8
0
  6
CONTINUOUS
 62
   253
 10
144.815139919519
 20
363.174329400063
 30
0.0
 40
1.44000017404556
  0
CIRCLE
  5
   600
  8
0
  6
CONTINUOUS
 62
   253
 10
124.815139621496
 20
363.174329400063
 30
0.0
 40
1.44000017404556
  0
LINE
  5
   601
  8
0
  6
CONTINUOUS
 62
   253
 10
162.895138968229
 20
269.974328011274
 30
0.0
 11
163.29513897419
 21
269.974328011274
 31
0.0
  0
LINE
  5
   602
  8
0
  6
CONTINUOUS
 62
   253
 10
163.29513897419
 20
269.974328011274
 30
0.0
 11
164.095138986111
 21
269.974328011274
 31
0.0
  0
LINE
  5
   603
  8
0
  6
CONTINUOUS
 62
   253
 10
162.895140188932
 20
269.974328011274
 30
0.0
 11
162.895140188932
 21
273.174328058958
 31
0.0
  0
LINE
  5
   604
  8
0
  6
CONTINUOUS
 62
   253
 10
164.095138986111
 20
273.174328058958
 30
0.0
 11
165.295139003992
 21
273.174328058958
 31
0.0
  0
LINE
  5
   605
  8
0
  6
CONTINUOUS
 62
     1
 10
165.295140224695
 20
361.574329376221
 30
0.0
 11
165.295140224695
 21
365.174329429865
 31
0.0
  0
LINE
  5
   606
  8
0
  6
CONTINUOUS
 62
     1
 10
165.295140224695
 20
275.574328094721
 30
0.0
 11
165.295140224695
 21
279.174328148365
 31
0.0
  0
LINE
  5
   607
  8
0
  6
CONTINUOUS
 62
   253
 10
165.295140224695
 20
279.174328148365
 30
0.0
 11
165.295140224695
 21
282.134328802824
 31
0.0
  0
LINE
  5
   608
  8
0
  6
CONTINUOUS
 62
   253
 10
165.295140224695
 20
273.174328058958
 30
0.0
 11
165.295140224695
 21
275.574328094721
 31
0.0
  0
LINE
  5
   609
  8
0
  6
CONTINUOUS
 62
   253
 10
165.295140224695
 20
365.174329429865
 30
0.0
 11
165.295140224695
 21
367.574329465628
 31
0.0
  0
LINE
  5
   60A
  8
0
  6
CONTINUOUS
 62
   253
 10
165.295140224695
 20
358.614328721762
 30
0.0
 11
165.295140224695
 21
361.574329376221
 31
0.0
  0
LINE
  5
   60B
  8
0
  6
CONTINUOUS
 62
   253
 10
164.095138986111
 20
367.574329465628
 30
0.0
 11
165.295139003992
 21
367.574329465628
 31
0.0
  0
LINE
  5
   60C
  8
0
  6
CONTINUOUS
 62
   253
 10
162.895138968229
 20
370.774329513311
 30
0.0
 11
163.29513897419
 21
370.774329513311
 31
0.0
  0
LINE
  5
   60D
  8
0
  6
CONTINUOUS
 62
   253
 10
163.29513897419
 20
370.774329513311
 30
0.0
 11
164.095138986111
 21
370.774329513311
 31
0.0
  0
LINE
  5
   60E
  8
0
  6
CONTINUOUS
 62
   253
 10
146.015139937401
 20
370.774329513311
 30
0.0
 11
146.015139937401
 21
372.374329537153
 31
0.0
  0
LINE
  5
   60F
  8
0
  6
CONTINUOUS
 62
   253
 10
146.015139937401
 20
370.774329513311
 30
0.0
 11
147.215139955282
 21
370.774329513311
 31
0.0
  0
LINE
  5
   610
  8
0
  6
CONTINUOUS
 62
   253
 10
147.215139955282
 20
369.17432948947
 30
0.0
 11
147.215139955282
 21
370.774329513311
 31
0.0
  0
LINE
  5
   611
  8
0
  6
CONTINUOUS
 62
   253
 10
142.415139883757
 20
369.17432948947
 30
0.0
 11
142.415139883757
 21
370.774329513311
 31
0.0
  0
LINE
  5
   612
  8
0
  6
CONTINUOUS
 62
   253
 10
142.415139883757
 20
370.774329513311
 30
0.0
 11
143.615139901638
 21
370.774329513311
 31
0.0
  0
LINE
  5
   613
  8
0
  6
CONTINUOUS
 62
   253
 10
143.615139901638
 20
370.774329513311
 30
0.0
 11
143.615139901638
 21
372.374329537153
 31
0.0
  0
LINE
  5
   614
  8
0
  6
CONTINUOUS
 62
   253
 10
126.015139639378
 20
370.774329513311
 30
0.0
 11
126.015139639378
 21
372.374329537153
 31
0.0
  0
LINE
  5
   615
  8
0
  6
CONTINUOUS
 62
   253
 10
126.015139639378
 20
370.774329513311
 30
0.0
 11
127.215139657259
 21
370.774329513311
 31
0.0
  0
LINE
  5
   616
  8
0
  6
CONTINUOUS
 62
   253
 10
127.215139657259
 20
369.17432948947
 30
0.0
 11
127.215139657259
 21
370.774329513311
 31
0.0
  0
LINE
  5
   617
  8
0
  6
CONTINUOUS
 62
   253
 10
122.415139585733
 20
369.17432948947
 30
0.0
 11
122.415139585733
 21
370.774329513311
 31
0.0
  0
LINE
  5
   618
  8
0
  6
CONTINUOUS
 62
   253
 10
122.415139585733
 20
370.774329513311
 30
0.0
 11
123.615139603615
 21
370.774329513311
 31
0.0
  0
LINE
  5
   619
  8
0
  6
CONTINUOUS
 62
   253
 10
123.615139603615
 20
370.774329513311
 30
0.0
 11
123.615139603615
 21
372.374329537153
 31
0.0
  0
LINE
  5
   61A
  8
0
  6
CONTINUOUS
 62
   253
 10
106.335140566826
 20
370.774329513311
 30
0.0
 11
106.735140572786
 21
370.774329513311
 31
0.0
  0
LINE
  5
   61B
  8
0
  6
CONTINUOUS
 62
   253
 10
105.535140554905
 20
370.774329513311
 30
0.0
 11
106.335140566826
 21
370.774329513311
 31
0.0
  0
LINE
  5
   61C
  8
0
  6
CONTINUOUS
 62
   253
 10
104.335140537024
 20
367.574329465628
 30
0.0
 11
105.535140554905
 21
367.574329465628
 31
0.0
  0
LINE
  5
   61D
  8
0
  6
CONTINUOUS
 62
   253
 10
104.33513931632
 20
358.614328721762
 30
0.0
 11
104.33513931632
 21
367.574329465628
 31
0.0
  0
LINE
  5
   61E
  8
0
  6
CONTINUOUS
 62
   253
 10
104.33513931632
 20
273.174328058958
 30
0.0
 11
104.33513931632
 21
282.134328802824
 31
0.0
  0
LINE
  5
   61F
  8
0
  6
CONTINUOUS
 62
   253
 10
104.335140537024
 20
273.174328058958
 30
0.0
 11
105.535140554905
 21
273.174328058958
 31
0.0
  0
LINE
  5
   620
  8
0
  6
CONTINUOUS
 62
   253
 10
106.735139352083
 20
269.974328011274
 30
0.0
 11
106.735139352083
 21
273.174328058958
 31
0.0
  0
LINE
  5
   621
  8
0
  6
CONTINUOUS
 62
   253
 10
106.335140566826
 20
269.974328011274
 30
0.0
 11
106.735140572786
 21
269.974328011274
 31
0.0
  0
LINE
  5
   622
  8
0
  6
CONTINUOUS
 62
   253
 10
105.535140554905
 20
269.974328011274
 30
0.0
 11
106.335140566826
 21
269.974328011274
 31
0.0
  0
LINE
  5
   623
  8
0
  6
CONTINUOUS
 62
   253
 10
123.615139603615
 20
268.374327987433
 30
0.0
 11
123.615139603615
 21
269.974328011274
 31
0.0
  0
LINE
  5
   624
  8
0
  6
CONTINUOUS
 62
   253
 10
122.415139585733
 20
269.974328009265
 30
0.0
 11
123.615139603615
 21
269.974328009265
 31
0.0
  0
LINE
  5
   625
  8
0
  6
CONTINUOUS
 62
   253
 10
122.415139585733
 20
269.974328011274
 30
0.0
 11
122.415139585733
 21
271.574328035116
 31
0.0
  0
LINE
  5
   626
  8
0
  6
CONTINUOUS
 62
   253
 10
127.215139657259
 20
269.974328011274
 30
0.0
 11
127.215139657259
 21
271.574328035116
 31
0.0
  0
LINE
  5
   627
  8
0
  6
CONTINUOUS
 62
   253
 10
126.015139639378
 20
269.974328009265
 30
0.0
 11
127.215139657259
 21
269.974328009265
 31
0.0
  0
LINE
  5
   628
  8
0
  6
CONTINUOUS
 62
   253
 10
126.015139639378
 20
268.374327987433
 30
0.0
 11
126.015139639378
 21
269.974328011274
 31
0.0
  0
LINE
  5
   629
  8
0
  6
CONTINUOUS
 62
   253
 10
143.615139901638
 20
268.374327987433
 30
0.0
 11
143.615139901638
 21
269.974328011274
 31
0.0
  0
LINE
  5
   62A
  8
0
  6
CONTINUOUS
 62
   253
 10
142.415139883757
 20
269.974328009265
 30
0.0
 11
143.615139901638
 21
269.974328009265
 31
0.0
  0
LINE
  5
   62B
  8
0
  6
CONTINUOUS
 62
   253
 10
142.415139883757
 20
269.974328011274
 30
0.0
 11
142.415139883757
 21
271.574328035116
 31
0.0
  0
LINE
  5
   62C
  8
0
  6
CONTINUOUS
 62
   253
 10
147.215139955282
 20
269.974328011274
 30
0.0
 11
147.215139955282
 21
271.574328035116
 31
0.0
  0
LINE
  5
   62D
  8
0
  6
CONTINUOUS
 62
   253
 10
146.015139937401
 20
269.974328009265
 30
0.0
 11
147.215139955282
 21
269.974328009265
 31
0.0
  0
LINE
  5
   62E
  8
0
  6
CONTINUOUS
 62
   253
 10
146.015139937401
 20
268.374327987433
 30
0.0
 11
146.015139937401
 21
269.974328011274
 31
0.0
  0
LINE
  5
   62F
  8
0
  6
CONTINUOUS
 62
   253
 10
157.815140113235
 20
300.922570659939
 30
0.0
 11
157.815140113235
 21
300.923932506883
 31
0.0
  0
LINE
  5
   630
  8
0
  6
CONTINUOUS
 62
   253
 10
157.815140113235
 20
300.933357861028
 30
0.0
 11
157.815140113235
 21
300.941089489561
 31
0.0
  0
LINE
  5
   631
  8
0
  6
CONTINUOUS
 62
     1
 10
157.295140105486
 20
300.988873151161
 30
0.0
 11
157.295140105486
 21
301.013398603187
 31
0.0
  0
LINE
  5
   632
  8
0
  6
CONTINUOUS
 62
     1
 10
157.295140105486
 20
301.032832960166
 30
0.0
 11
157.295140105486
 21
301.03543458374
 31
0.0
  0
LINE
  5
   633
  8
0
  6
CONTINUOUS
 62
     1
 10
160.335140150785
 20
301.003973249043
 30
0.0
 11
160.335140150785
 21
301.010503247919
 31
0.0
  0
LINE
  5
   634
  8
0
  6
CONTINUOUS
 62
     1
 10
156.415140092362
 20
301.252635056947
 30
0.0
 11
156.415140092362
 21
301.297578294922
 31
0.0
  0
LINE
  5
   635
  8
0
  6
CONTINUOUS
 62
     1
 10
161.21514016391
 20
301.262278611779
 30
0.0
 11
161.21514016391
 21
301.292931993583
 31
0.0
  0
LINE
  5
   636
  8
0
  6
CONTINUOUS
 62
   253
 10
160.815140157938
 20
304.390169817445
 30
0.0
 11
160.815140157938
 21
304.473305805012
 31
0.0
  0
ARC
  5
   637
  8
0
  6
CONTINUOUS
 62
   253
 10
134.815139770507
 20
361.974329382183
 30
0.0
 40
2.80000004172166
 50
89.9999999999587
 51
133.012073140634
  0
ARC
  5
   638
  8
0
  6
CONTINUOUS
 62
   253
 10
134.815139770508
 20
361.974329382181
 30
0.0
 40
2.80000004172337
 50
180.0
 51
226.987971175203
  0
ARC
  5
   639
  8
0
  6
CONTINUOUS
 62
   253
 10
134.815139770507
 20
361.974329382181
 30
0.0
 40
2.80000004172422
 50
0.0
 51
46.9880273666656
  0
ARC
  5
   63A
  8
0
  6
CONTINUOUS
 62
   253
 10
134.815139770508
 20
361.974329382181
 30
0.0
 40
2.80000004172314
 50
270.000000112888
 51
313.012016949077
  0
ARC
  5
   63B
  8
0
  6
CONTINUOUS
 62
   253
 10
154.815140068531
 20
361.974329382181
 30
0.0
 40
2.80000004172339
 50
180.0
 51
226.987977113061
  0
ARC
  5
   63C
  8
0
  6
CONTINUOUS
 62
   253
 10
154.815140068531
 20
361.974329382181
 30
0.0
 40
2.80000004172382
 50
90.0
 51
133.012067202757
  0
ARC
  5
   63D
  8
0
  6
CONTINUOUS
 62
   253
 10
154.815140068532
 20
361.974329382182
 30
0.0
 40
2.8000000417222
 50
0.0
 51
46.9880214288215
  0
ARC
  5
   63E
  8
0
  6
CONTINUOUS
 62
   253
 10
154.815140068531
 20
361.974329382181
 30
0.0
 40
2.80000004172263
 50
270.0
 51
313.012022886941
  0
ARC
  5
   63F
  8
0
  6
CONTINUOUS
 62
   253
 10
114.815139472485
 20
361.974329382181
 30
0.0
 40
2.80000004172307
 50
0.0
 51
46.9880214288157
  0
ARC
  5
   640
  8
0
  6
CONTINUOUS
 62
   253
 10
114.815139472485
 20
361.974329382181
 30
0.0
 40
2.8000000417228
 50
270.0
 51
313.012022886939
  0
ARC
  5
   641
  8
0
  6
CONTINUOUS
 62
   253
 10
114.815139472484
 20
361.974329382181
 30
0.0
 40
2.80000004172277
 50
180.0
 51
226.987977113067
  0
ARC
  5
   642
  8
0
  6
CONTINUOUS
 62
   253
 10
114.815139472485
 20
361.974329382181
 30
0.0
 40
2.80000004172319
 50
90.0
 51
133.012067202761
  0
ARC
  5
   643
  8
0
  6
CONTINUOUS
 62
   253
 10
154.815140068531
 20
278.774328138386
 30
0.0
 40
2.80000004172316
 50
46.9879771714157
 51
90.0
  0
ARC
  5
   644
  8
0
  6
CONTINUOUS
 62
   253
 10
154.815140068531
 20
278.774328138386
 30
0.0
 40
2.80000004172353
 50
313.012022945292
 51
360.0
  0
ARC
  5
   645
  8
0
  6
CONTINUOUS
 62
   253
 10
154.815140068531
 20
278.774328138386
 30
0.0
 40
2.80000004172276
 50
226.987977054707
 51
270.0
  0
ARC
  5
   646
  8
0
  6
CONTINUOUS
 62
   253
 10
154.815140068531
 20
278.774328138386
 30
0.0
 40
2.8000000417234
 50
133.012022828585
 51
180.0
  0
ARC
  5
   647
  8
0
  6
CONTINUOUS
 62
   253
 10
134.815139770508
 20
278.774328138386
 30
0.0
 40
2.80000004172331
 50
226.987977054712
 51
269.99999999997
  0
ARC
  5
   648
  8
0
  6
CONTINUOUS
 62
   253
 10
134.815139770508
 20
278.774328138386
 30
0.0
 40
2.80000004172344
 50
133.012022828585
 51
180.0
  0
ARC
  5
   649
  8
0
  6
CONTINUOUS
 62
   253
 10
134.815139770508
 20
278.774328138386
 30
0.0
 40
2.80000004172293
 50
46.9879771714138
 51
89.9999999999721
  0
ARC
  5
   64A
  8
0
  6
CONTINUOUS
 62
   253
 10
134.815139770508
 20
278.774328138386
 30
0.0
 40
2.80000004172309
 50
313.012022945289
 51
360.0
  0
ARC
  5
   64B
  8
0
  6
CONTINUOUS
 62
   253
 10
114.815139472485
 20
278.774328138386
 30
0.0
 40
2.80000004172302
 50
313.012022945289
 51
360.0
  0
ARC
  5
   64C
  8
0
  6
CONTINUOUS
 62
   253
 10
114.815139472485
 20
278.774328138386
 30
0.0
 40
2.80000004172299
 50
46.9879771714142
 51
90.0
  0
ARC
  5
   64D
  8
0
  6
CONTINUOUS
 62
   253
 10
114.815139472485
 20
278.774328138387
 30
0.0
 40
2.80000004172409
 50
226.987977054717
 51
269.999999999993
  0
ARC
  5
   64E
  8
0
  6
CONTINUOUS
 62
   253
 10
114.815139472485
 20
278.774328138386
 30
0.0
 40
2.8000000417234
 50
133.012022828585
 51
180.0
  0
LINE
  5
   64F
  8
0
  6
CONTINUOUS
 62
   253
 10
164.095140206814
 20
268.374327987433
 30
0.0
 11
164.095140206814
 21
269.174327999353
 31
0.0
  0
LINE
  5
   650
  8
0
  6
CONTINUOUS
 62
   253
 10
163.29513897419
 20
268.374327987433
 30
0.0
 11
164.095138986111
 21
268.374327987433
 31
0.0
  0
LINE
  5
   651
  8
0
  6
CONTINUOUS
 62
   253
 10
105.535140554905
 20
268.374327987433
 30
0.0
 11
106.335140566826
 21
268.374327987433
 31
0.0
  0
LINE
  5
   652
  8
0
  6
CONTINUOUS
 62
   253
 10
105.535139334202
 20
268.374327987433
 30
0.0
 11
105.535139334202
 21
269.174327999353
 31
0.0
  0
LINE
  5
   653
  8
0
  6
CONTINUOUS
 62
   253
 10
105.535139334202
 20
371.574329525232
 30
0.0
 11
105.535139334202
 21
372.374329537153
 31
0.0
  0
LINE
  5
   654
  8
0
  6
CONTINUOUS
 62
   253
 10
105.535140554905
 20
372.374329537153
 30
0.0
 11
106.335140566826
 21
372.374329537153
 31
0.0
  0
LINE
  5
   655
  8
0
  6
CONTINUOUS
 62
   253
 10
163.29513897419
 20
372.374329537153
 30
0.0
 11
164.095138986111
 21
372.374329537153
 31
0.0
  0
LINE
  5
   656
  8
0
  6
CONTINUOUS
 62
   253
 10
164.095140206814
 20
371.574329525232
 30
0.0
 11
164.095140206814
 21
372.374329537153
 31
0.0
  0
LINE
  5
   657
  8
0
  6
DASHDOT
 62
     7
 10
151.935140018463
 20
361.974329382181
 30
0.0
 11
157.743140120745
 21
361.974329382181
 31
0.0
  0
LINE
  5
   658
  8
0
  6
DASHDOT
 62
     7
 10
154.815140068531
 20
359.094329332113
 30
0.0
 11
154.815140068531
 21
364.854329432249
 31
0.0
  0
LINE
  5
   659
  8
0
  6
DASHDOT
 62
     7
 10
151.935140018463
 20
361.974329382181
 30
0.0
 11
157.743140120745
 21
361.974329382181
 31
0.0
  0
LINE
  5
   65A
  8
0
  6
DASHDOT
 62
     7
 10
154.815140068531
 20
359.094329332113
 30
0.0
 11
154.815140068531
 21
364.854329432249
 31
0.0
  0
LINE
  5
   65B
  8
0
  6
DASHDOT
 62
     7
 10
140.495139844418
 20
363.174329400063
 30
0.0
 11
149.20713999784
 21
363.174329400063
 31
0.0
  0
LINE
  5
   65C
  8
0
  6
DASHDOT
 62
     7
 10
144.815139919519
 20
358.854329324961
 30
0.0
 11
144.815139919519
 21
367.494329475164
 31
0.0
  0
LINE
  5
   65D
  8
0
  6
DASHDOT
 62
     7
 10
142.799139884472
 20
363.174329400062
 30
0.0
 11
146.864739956069
 21
363.174329400062
 31
0.0
  0
LINE
  5
   65E
  8
0
  6
DASHDOT
 62
     7
 10
144.815139919519
 20
361.158329365015
 30
0.0
 11
144.815139919519
 21
365.19032943511
 31
0.0
  0
LINE
  5
   65F
  8
0
  6
DASHDOT
 62
     7
 10
142.799139884472
 20
363.174329400062
 30
0.0
 11
146.864739956069
 21
363.174329400062
 31
0.0
  0
LINE
  5
   660
  8
0
  6
DASHDOT
 62
     7
 10
144.815139919519
 20
361.158329365015
 30
0.0
 11
144.815139919519
 21
365.19032943511
 31
0.0
  0
LINE
  5
   661
  8
0
  6
DASHDOT
 62
     7
 10
120.495139546394
 20
277.574328120505
 30
0.0
 11
129.207139699817
 21
277.574328120505
 31
0.0
  0
LINE
  5
   662
  8
0
  6
DASHDOT
 62
     7
 10
124.815139621496
 20
273.254328045403
 30
0.0
 11
124.815139621496
 21
281.894328195607
 31
0.0
  0
LINE
  5
   663
  8
0
  6
DASHDOT
 62
     7
 10
122.799139586449
 20
277.574328120505
 30
0.0
 11
126.864739658046
 21
277.574328120505
 31
0.0
  0
LINE
  5
   664
  8
0
  6
DASHDOT
 62
     7
 10
124.815139621496
 20
275.558328085457
 30
0.0
 11
124.815139621496
 21
279.590328155552
 31
0.0
  0
LINE
  5
   665
  8
0
  6
DASHDOT
 62
     7
 10
122.799139586449
 20
277.574328120505
 30
0.0
 11
126.864739658046
 21
277.574328120505
 31
0.0
  0
LINE
  5
   666
  8
0
  6
DASHDOT
 62
     7
 10
124.815139621496
 20
275.558328085457
 30
0.0
 11
124.815139621496
 21
279.590328155552
 31
0.0
  0
LINE
  5
   667
  8
0
  6
DASHDOT
 62
     7
 10
108.0951393646
 20
295.174328386784
 30
0.0
 11
114.387139475405
 21
295.174328386784
 31
0.0
  0
LINE
  5
   668
  8
0
  6
DASHDOT
 62
     7
 10
111.21513941884
 20
292.054328332543
 30
0.0
 11
111.21513941884
 21
298.294328441024
 31
0.0
  0
LINE
  5
   669
  8
0
  6
DASHDOT
 62
     7
 10
120.735139550567
 20
363.174329404081
 30
0.0
 11
128.963139695466
 21
363.174329404081
 31
0.0
  0
LINE
  5
   66A
  8
0
  6
DASHDOT
 62
     7
 10
124.815139621496
 20
359.094329333151
 30
0.0
 11
124.815139621496
 21
367.254329475011
 31
0.0
  0
LINE
  5
   66B
  8
0
  6
DASHDOT
 62
     7
 10
151.455140010118
 20
361.9743293862
 30
0.0
 11
158.231140129447
 21
361.9743293862
 31
0.0
  0
LINE
  5
   66C
  8
0
  6
DASHDOT
 62
     7
 10
154.815140068531
 20
358.614329327787
 30
0.0
 11
154.815140068531
 21
365.334329444612
 31
0.0
  0
LINE
  5
   66D
  8
0
  6
DASHDOT
 62
     7
 10
111.455139414072
 20
361.9743293862
 30
0.0
 11
118.231139533401
 21
361.9743293862
 31
0.0
  0
LINE
  5
   66E
  8
0
  6
DASHDOT
 62
     7
 10
114.815139472485
 20
358.614329327787
 30
0.0
 11
114.815139472485
 21
365.334329444612
 31
0.0
  0
LINE
  5
   66F
  8
0
  6
DASHDOT
 62
     7
 10
151.455140010119
 20
278.774328138386
 30
0.0
 11
158.231140129447
 21
278.774328138386
 31
0.0
  0
LINE
  5
   670
  8
0
  6
DASHDOT
 62
     7
 10
154.815140068531
 20
275.414328079974
 30
0.0
 11
154.815140068531
 21
282.134328196799
 31
0.0
  0
LINE
  5
   671
  8
0
  6
DASHDOT
 62
     7
 10
111.455139414072
 20
278.774328138386
 30
0.0
 11
118.231139533401
 21
278.774328138386
 31
0.0
  0
LINE
  5
   672
  8
0
  6
DASHDOT
 62
     7
 10
114.815139472485
 20
275.414328079974
 30
0.0
 11
114.815139472485
 21
282.134328196799
 31
0.0
  0
LINE
  5
   673
  8
0
  6
DASHDOT
 62
     7
 10
140.73513984859
 20
277.574328120505
 30
0.0
 11
148.963139993489
 21
277.574328120505
 31
0.0
  0
LINE
  5
   674
  8
0
  6
DASHDOT
 62
     7
 10
144.815139919519
 20
273.494328049575
 30
0.0
 11
144.815139919519
 21
281.654328191434
 31
0.0
  0
LINE
  5
   675
  8
0
  6
DASHDOT
 62
     7
 10
131.455139712095
 20
361.9743293862
 30
0.0
 11
138.231139831424
 21
361.9743293862
 31
0.0
  0
LINE
  5
   676
  8
0
  6
DASHDOT
 62
     7
 10
134.815139770508
 20
358.614329327787
 30
0.0
 11
134.815139770508
 21
365.334329444612
 31
0.0
  0
LINE
  5
   677
  8
0
  6
DASHDOT
 62
     7
 10
131.455139712095
 20
278.774328138386
 30
0.0
 11
138.231139831424
 21
278.774328138386
 31
0.0
  0
LINE
  5
   678
  8
0
  6
DASHDOT
 62
     7
 10
134.815139770508
 20
275.414328079974
 30
0.0
 11
134.815139770508
 21
282.134328196799
 31
0.0
  0
LINE
  5
   679
  8
0
  6
DASHDOT
 62
     7
 10
151.935140018463
 20
278.774328142405
 30
0.0
 11
157.743140120745
 21
278.774328142405
 31
0.0
  0
LINE
  5
   67A
  8
0
  6
DASHDOT
 62
     7
 10
154.815140068531
 20
275.894328092337
 30
0.0
 11
154.815140068531
 21
281.654328192472
 31
0.0
  0
LINE
  5
   67B
  8
0
  6
DASHDOT
 62
     7
 10
151.935140018463
 20
278.774328142405
 30
0.0
 11
157.743140120745
 21
278.774328142405
 31
0.0
  0
LINE
  5
   67C
  8
0
  6
DASHDOT
 62
     7
 10
154.815140068531
 20
275.894328092337
 30
0.0
 11
154.815140068531
 21
281.654328192472
 31
0.0
  0
LINE
  5
   67D
  8
0
  6
DASHDOT
 62
     7
 10
142.799139518261
 20
277.574328120505
 30
0.0
 11
146.864740328383
 21
277.574328120505
 31
0.0
  0
LINE
  5
   67E
  8
0
  6
DASHDOT
 62
     7
 10
144.815139919519
 20
275.558327719246
 30
0.0
 11
144.815139919519
 21
279.590328521763
 31
0.0
  0
LINE
  5
   67F
  8
0
  6
DASHDOT
 62
     7
 10
142.799139518261
 20
277.574328120505
 30
0.0
 11
146.864740328383
 21
277.574328120505
 31
0.0
  0
LINE
  5
   680
  8
0
  6
DASHDOT
 62
     7
 10
144.815139919519
 20
275.558327719246
 30
0.0
 11
144.815139919519
 21
279.590328521763
 31
0.0
  0
LINE
  5
   681
  8
0
  6
DASHDOT
 62
     7
 10
122.799139220238
 20
277.574328120505
 30
0.0
 11
126.86474003036
 21
277.574328120505
 31
0.0
  0
LINE
  5
   682
  8
0
  6
DASHDOT
 62
     7
 10
124.815139621496
 20
275.558327719246
 30
0.0
 11
124.815139621496
 21
279.590328521763
 31
0.0
  0
LINE
  5
   683
  8
0
  6
DASHDOT
 62
     7
 10
122.799139220238
 20
277.574328120505
 30
0.0
 11
126.86474003036
 21
277.574328120505
 31
0.0
  0
LINE
  5
   684
  8
0
  6
DASHDOT
 62
     7
 10
124.815139621496
 20
275.558327719246
 30
0.0
 11
124.815139621496
 21
279.590328521763
 31
0.0
  0
LINE
  5
   685
  8
0
  6
DASHDOT
 62
     7
 10
142.799139518261
 20
363.174329400062
 30
0.0
 11
146.864740328383
 21
363.174329400062
 31
0.0
  0
LINE
  5
   686
  8
0
  6
DASHDOT
 62
     7
 10
144.815139919519
 20
361.158328998804
 30
0.0
 11
144.815139919519
 21
365.190329801321
 31
0.0
  0
LINE
  5
   687
  8
0
  6
DASHDOT
 62
     7
 10
142.799139518261
 20
363.174329400062
 30
0.0
 11
146.864740328383
 21
363.174329400062
 31
0.0
  0
LINE
  5
   688
  8
0
  6
DASHDOT
 62
     7
 10
144.815139919519
 20
361.158328998804
 30
0.0
 11
144.815139919519
 21
365.190329801321
 31
0.0
  0
LINE
  5
   689
  8
0
  6
DASHDOT
 62
     7
 10
122.799139220238
 20
363.174329400063
 30
0.0
 11
126.86474003036
 21
363.174329400063
 31
0.0
  0
LINE
  5
   68A
  8
0
  6
DASHDOT
 62
     7
 10
124.815139621496
 20
361.158328998804
 30
0.0
 11
124.815139621496
 21
365.190329801321
 31
0.0
  0
LINE
  5
   68B
  8
0
  6
DASHDOT
 62
     7
 10
122.799139220238
 20
363.174329400063
 30
0.0
 11
126.86474003036
 21
363.174329400063
 31
0.0
  0
LINE
  5
   68C
  8
0
  6
DASHDOT
 62
     7
 10
124.815139621496
 20
361.158328998804
 30
0.0
 11
124.815139621496
 21
365.190329801321
 31
0.0
  0
LINE
  5
   68D
  8
0
  6
DASHDOT
 62
     7
 10
133.711139751315
 20
369.974329501396
 30
0.0
 11
135.937539790523
 21
369.974329501396
 31
0.0
  0
LINE
  5
   68E
  8
0
  6
DASHDOT
 62
     7
 10
134.815139770508
 20
368.870329482203
 30
0.0
 11
134.815139770508
 21
371.078329520588
 31
0.0
  0
LINE
  5
   68F
  8
0
  6
DASHDOT
 62
     7
 10
133.711139751315
 20
270.774328020274
 30
0.0
 11
135.937539790523
 21
270.774328020274
 31
0.0
  0
LINE
  5
   690
  8
0
  6
DASHDOT
 62
     7
 10
134.815139770508
 20
269.670328001081
 30
0.0
 11
134.815139770508
 21
271.878328039466
 31
0.0
  0
LINE
  5
   691
  8
0
  6
DASHDOT
 62
     7
 10
143.087139706373
 20
277.574328120505
 30
0.0
 11
146.571940137005
 21
277.574328120505
 31
0.0
  0
LINE
  5
   692
  8
0
  6
DASHDOT
 62
     7
 10
144.815139919519
 20
275.846327907359
 30
0.0
 11
144.815139919519
 21
279.302328333651
 31
0.0
  0
LINE
  5
   693
  8
0
  6
DASHDOT
 62
     7
 10
143.087139706373
 20
277.574328120505
 30
0.0
 11
146.571940137005
 21
277.574328120505
 31
0.0
  0
LINE
  5
   694
  8
0
  6
DASHDOT
 62
     7
 10
144.815139919519
 20
275.846327907359
 30
0.0
 11
144.815139919519
 21
279.302328333651
 31
0.0
  0
LINE
  5
   695
  8
0
  6
DASHDOT
 62
     7
 10
123.08713940835
 20
277.574328120505
 30
0.0
 11
126.571939838982
 21
277.574328120505
 31
0.0
  0
LINE
  5
   696
  8
0
  6
DASHDOT
 62
     7
 10
124.815139621496
 20
275.846327907359
 30
0.0
 11
124.815139621496
 21
279.302328333651
 31
0.0
  0
LINE
  5
   697
  8
0
  6
DASHDOT
 62
     7
 10
123.08713940835
 20
277.574328120505
 30
0.0
 11
126.571939838982
 21
277.574328120505
 31
0.0
  0
LINE
  5
   698
  8
0
  6
DASHDOT
 62
     7
 10
124.815139621496
 20
275.846327907359
 30
0.0
 11
124.815139621496
 21
279.302328333651
 31
0.0
  0
LINE
  5
   699
  8
0
  6
DASHDOT
 62
     7
 10
143.087139706373
 20
363.174329400063
 30
0.0
 11
146.571940137005
 21
363.174329400063
 31
0.0
  0
LINE
  5
   69A
  8
0
  6
DASHDOT
 62
     7
 10
144.815139919519
 20
361.446329186917
 30
0.0
 11
144.815139919519
 21
364.902329613209
 31
0.0
  0
LINE
  5
   69B
  8
0
  6
DASHDOT
 62
     7
 10
143.087139706373
 20
363.174329400063
 30
0.0
 11
146.571940137005
 21
363.174329400063
 31
0.0
  0
LINE
  5
   69C
  8
0
  6
DASHDOT
 62
     7
 10
144.815139919519
 20
361.446329186917
 30
0.0
 11
144.815139919519
 21
364.902329613209
 31
0.0
  0
LINE
  5
   69D
  8
0
  6
DASHDOT
 62
     7
 10
123.08713940835
 20
363.174329400063
 30
0.0
 11
126.571939838982
 21
363.174329400063
 31
0.0
  0
LINE
  5
   69E
  8
0
  6
DASHDOT
 62
     7
 10
124.815139621496
 20
361.446329186917
 30
0.0
 11
124.815139621496
 21
364.902329613209
 31
0.0
  0
LINE
  5
   69F
  8
0
  6
DASHDOT
 62
     7
 10
123.08713940835
 20
363.174329400063
 30
0.0
 11
126.571939838982
 21
363.174329400063
 31
0.0
  0
LINE
  5
   6A0
  8
0
  6
DASHDOT
 62
     7
 10
124.815139621496
 20
361.446329186917
 30
0.0
 11
124.815139621496
 21
364.902329613209
 31
0.0
  0
LINE
  5
   6A1
  8
0
  6
DASHDOT
 62
     7
 10
131.455139712096
 20
361.974329382181
 30
0.0
 11
138.231139831424
 21
361.974329382181
 31
0.0
  0
LINE
  5
   6A2
  8
0
  6
DASHDOT
 62
     7
 10
134.815139770508
 20
358.614329323769
 30
0.0
 11
134.815139770508
 21
365.334329440593
 31
0.0
  0
LINE
  5
   6A3
  8
0
  6
DASHDOT
 62
     7
 10
151.45514001012
 20
361.974329382181
 30
0.0
 11
158.231140129447
 21
361.974329382181
 31
0.0
  0
LINE
  5
   6A4
  8
0
  6
DASHDOT
 62
     7
 10
154.815140068531
 20
358.614329323769
 30
0.0
 11
154.815140068531
 21
365.334329440592
 31
0.0
  0
LINE
  5
   6A5
  8
0
  6
DASHDOT
 62
     7
 10
111.455139414072
 20
361.974329382181
 30
0.0
 11
118.2311395334
 21
361.974329382181
 31
0.0
  0
LINE
  5
   6A6
  8
0
  6
DASHDOT
 62
     7
 10
114.815139472485
 20
358.614329323769
 30
0.0
 11
114.815139472485
 21
365.334329440594
 31
0.0
  0
LINE
  5
   6A7
  8
0
  6
DASHDOT
 62
     7
 10
151.455140010118
 20
278.774328138386
 30
0.0
 11
158.231140129447
 21
278.774328138386
 31
0.0
  0
LINE
  5
   6A8
  8
0
  6
DASHDOT
 62
     7
 10
154.815140068531
 20
275.414328079973
 30
0.0
 11
154.815140068531
 21
282.134328196799
 31
0.0
  0
LINE
  5
   6A9
  8
0
  6
DASHDOT
 62
     7
 10
131.455139712096
 20
278.774328138386
 30
0.0
 11
138.231139831424
 21
278.774328138386
 31
0.0
  0
LINE
  5
   6AA
  8
0
  6
DASHDOT
 62
     7
 10
134.815139770508
 20
260.441568836526
 30
0.0
 11
134.815139770508
 21
402.879936621594
 31
0.0
  0
LINE
  5
   6AB
  8
0
  6
DASHDOT
 62
     7
 10
114.815139472485
 20
275.414328079973
 30
0.0
 11
114.815139472485
 21
282.134328196799
 31
0.0
  0
INSERT
  5
   6AC
  8
0
  6
CONTINUOUS
 62
     7
  2
*UDIM3083
 10
0.0
 20
0.0
 30
0.0
  0
INSERT
  5
   6AD
  8
0
  6
CONTINUOUS
 62
     7
  2
*UDIM3084
 10
0.0
 20
0.0
 30
0.0
  0
INSERT
  5
   6AE
  8
0
  6
CONTINUOUS
 62
     7
  2
*UDIM3085
 10
0.0
 20
0.0
 30
0.0
  0
INSERT
  5
   6AF
  8
0
  6
CONTINUOUS
 62
     7
  2
*UDIM3086
 10
0.0
 20
0.0
 30
0.0
  0
LINE
  5
   6B0
  8
0
  6
DASHDOT
 62
     7
 10
97.2878365578934
 20
320.374328762293
 30
0.0
 11
172.138767943651
 21
320.374328762293
 31
0.0
  0
INSERT
  5
   6B1
  8
0
  6
CONTINUOUS
 62
     7
  2
*UDIM3087
 10
0.0
 20
0.0
 30
0.0
  0
TEXT
  5
   6B2
  8
0
  6
CONTINUOUS
 62
     7
 10
170.423217539647
 20
320.989051457946
 30
0.0
 40
2.99999994933605
  1
X
 41
0.933333333333333
 72
     1
 11
171.52321752107
 21
322.489051432614
 31
0.0
 73
     2
  0
TEXT
  5
   6B3
  8
0
  6
CONTINUOUS
 62
     7
 10
95.9416164074381
 20
321.112161542462
 30
0.0
 40
2.99999994933605
  1
X
 41
0.933333333333333
 72
     1
 11
97.0416163888613
 21
322.61216151713
 31
0.0
 73
     2
  0
TEXT
  5
   6B4
  8
0
  6
CONTINUOUS
 62
     7
 10
131.39732074806
 20
401.503046731442
 30
0.0
 40
2.99999994933605
  1
Y
 41
0.933333333333333
 72
     1
 11
132.497320729483
 21
403.00304670611
 31
0.0
 73
     2
  0
TEXT
  5
   6B5
  8
0
  6
CONTINUOUS
 62
     7
 10
131.520430832576
 20
261.403770552179
 30
0.0
 40
2.99999994933605
  1
Y
 41
0.933333333333333
 72
     1
 11
132.620430813999
 21
262.903770526847
 31
0.0
 73
     2
  0
LINE
  5
   6B6
  8
0
  6
CONTINUOUS
 62
     3
 10
383.349856057675
 20
310.414246290922
 30
0.0
 11
416.549855942044
 21
310.414246290922
 31
0.0
  0
LINE
  5
   6B7
  8
0
  6
CONTINUOUS
 62
     3
 10
383.349855447326
 20
287.214245945215
 30
0.0
 11
383.349855447326
 21
310.414246290922
 31
0.0
  0
LINE
  5
   6B8
  8
0
  6
CONTINUOUS
 62
     3
 10
383.349856057675
 20
287.214245945215
 30
0.0
 11
416.549855942044
 21
287.214245945215
 31
0.0
  0
INSERT
  5
   6B9
  8
0
  6
CONTINUOUS
 62
     7
  2
*UDIM3088
 10
0.0
 20
0.0
 30
0.0
  0
LINE
  5
   6BA
  8
0
  6
CONTINUOUS
 62
     3
 10
416.549855942044
 20
287.214245945215
 30
0.0
 11
416.549855942044
 21
310.414246290922
 31
0.0
  0
INSERT
  5
   6BB
  8
0
  6
CONTINUOUS
 62
     7
  2
*UDIM3089
 10
0.0
 20
0.0
 30
0.0
  0
LINE
  5
   6BC
  8
0
  6
CONTINUOUS
 62
     7
 10
379.349855387721
 20
314.414246350527
 30
0.0
 11
420.549856001649
 21
314.414246350527
 31
0.0
  0
LINE
  5
   6BD
  8
0
  6
CONTINUOUS
 62
     7
 10
420.549856001649
 20
283.214245885611
 30
0.0
 11
420.549856001649
 21
314.414246350527
 31
0.0
  0
LINE
  5
   6BE
  8
0
  6
CONTINUOUS
 62
     7
 10
379.349855387721
 20
283.214245885611
 30
0.0
 11
379.349855387721
 21
314.414246350527
 31
0.0
  0
LINE
  5
   6BF
  8
0
  6
CONTINUOUS
 62
     7
 10
379.349855387721
 20
283.214245885611
 30
0.0
 11
420.549856001649
 21
283.214245885611
 31
0.0
  0
LINE
  5
   6C0
  8
0
  6
DASHDOT
 62
     7
 10
376.86454369756
 20
301.014246150851
 30
0.0
 11
428.367257464573
 21
301.014246150851
 31
0.0
  0
INSERT
  5
   6C1
  8
0
  6
CONTINUOUS
 62
     7
  2
*UDIM3090
 10
0.0
 20
0.0
 30
0.0
  0
LINE
  5
   6C2
  8
0
  6
DASHDOT
 62
     7
 10
399.949855694685
 20
274.411149183826
 30
0.0
 11
399.949855694685
 21
329.168769524427
 31
0.0
  0
TEXT
  5
   6C3
  8
0
  6
CONTINUOUS
 62
     7
 10
424.406634233793
 20
301.569964078135
 30
0.0
 40
2.99999994933605
  1
X
 41
0.933333333333333
 72
     1
 11
425.506634215216
 21
303.069964052803
 31
0.0
 73
     2
  0
TEXT
  5
   6C4
  8
0
  6
CONTINUOUS
 62
     7
 10
396.980331852203
 20
274.688377119042
 30
0.0
 40
2.99999994933605
  1
Y
 41
0.933333333333333
 72
     1
 11
398.080331833626
 21
276.18837709371
 31
0.0
 73
     2
  0
TEXT
  5
   6C5
  8
0
  6
CONTINUOUS
 62
     7
 10
397.263876543304
 20
319.595539057204
 30
0.0
 40
2.99999994933605
  1
Y
 41
0.933333333333333
 72
     1
 11
398.363876524727
 21
321.095539031872
 31
0.0
 73
     2
  0
TEXT
  5
   6C6
  8
0
  6
CONTINUOUS
 62
     7
 10
373.113781880228
 20
301.709157707318
 30
0.0
 40
2.99999994933605
  1
X
 41
0.933333333333333
 72
     1
 11
374.213781861651
 21
303.209157681986
 31
0.0
 73
     2
  0
LINE
  5
   6C7
  8
0
  6
CONTINUOUS
 62
   252
 10
118.850940704346
 20
211.585159301758
 30
0.0
 11
150.779368400574
 21
211.585159301758
 31
0.0
  0
LINE
  5
   6C8
  8
0
  6
CONTINUOUS
 62
   252
 10
118.850941466926
 20
211.085159301758
 30
0.0
 11
118.850941466926
 21
211.585159301758
 31
0.0
  0
LINE
  5
   6C9
  8
0
  6
CONTINUOUS
 62
   252
 10
150.77936859167
 20
211.085159301758
 30
0.0
 11
150.77936859167
 21
211.585159301758
 31
0.0
  0
LINE
  5
   6CA
  8
0
  6
CONTINUOUS
 62
   252
 10
118.850940704346
 20
211.085159301758
 30
0.0
 11
150.779368400574
 21
211.085159301758
 31
0.0
  0
LINE
  5
   6CB
  8
0
  6
CONTINUOUS
 62
   252
 10
150.77936859167
 20
211.585159301758
 30
0.0
 11
150.77936859167
 21
217.835159301758
 31
0.0
  0
LINE
  5
   6CC
  8
0
  6
CONTINUOUS
 62
   252
 10
118.850941466926
 20
211.585159301758
 30
0.0
 11
118.850941466926
 21
217.835159301758
 31
0.0
  0
LINE
  5
   6CD
  8
0
  6
CONTINUOUS
 62
   252
 10
117.265140533447
 20
178.835159301758
 30
0.0
 11
152.365139961243
 21
178.835159301758
 31
0.0
  0
LINE
  5
   6CE
  8
0
  6
CONTINUOUS
 62
   252
 10
152.365139961243
 20
178.835159301758
 30
0.0
 11
153.779353380203
 21
178.835159301758
 31
0.0
  0
LINE
  5
   6CF
  8
0
  6
CONTINUOUS
 62
   252
 10
153.779353380203
 20
178.835159301758
 30
0.0
 11
154.615139722824
 21
178.835159301758
 31
0.0
  0
LINE
  5
   6D0
  8
0
  6
CONTINUOUS
 62
   252
 10
153.779353332881
 20
178.835159301758
 30
0.0
 11
153.779353332881
 21
186.335159301758
 31
0.0
  0
LINE
  5
   6D1
  8
0
  6
CONTINUOUS
 62
   252
 10
153.779353332881
 20
210.335159301758
 30
0.0
 11
153.779353332881
 21
217.835159301758
 31
0.0
  0
LINE
  5
   6D2
  8
0
  6
CONTINUOUS
 62
   252
 10
154.615139722824
 20
178.835159301758
 30
0.0
 11
154.865139722824
 21
178.835159301758
 31
0.0
  0
LINE
  5
   6D3
  8
0
  6
CONTINUOUS
 62
   252
 10
154.615139770507
 20
178.835159301758
 30
0.0
 11
154.615139770507
 21
186.335159301758
 31
0.0
  0
LINE
  5
   6D4
  8
0
  6
CONTINUOUS
 62
   252
 10
154.615139770507
 20
210.335159301758
 30
0.0
 11
154.615139770507
 21
217.835159301758
 31
0.0
  0
LINE
  5
   6D5
  8
0
  6
CONTINUOUS
 62
   252
 10
154.865139722824
 20
178.835159301758
 30
0.0
 11
156.615139767528
 21
178.835159301758
 31
0.0
  0
LINE
  5
   6D6
  8
0
  6
CONTINUOUS
 62
   252
 10
156.615139767528
 20
178.835159301758
 30
0.0
 11
156.865139767528
 21
178.835159301758
 31
0.0
  0
LINE
  5
   6D7
  8
0
  6
CONTINUOUS
 62
   252
 10
156.865139770508
 20
178.835159301758
 30
0.0
 11
156.865139770508
 21
217.835159301758
 31
0.0
  0
LINE
  5
   6D8
  8
0
  6
CONTINUOUS
 62
   252
 10
112.765140533447
 20
178.835159301758
 30
0.0
 11
113.015140533447
 21
178.835159301758
 31
0.0
  0
LINE
  5
   6D9
  8
0
  6
CONTINUOUS
 62
   252
 10
112.765139770511
 20
178.835159301758
 30
0.0
 11
112.765139770511
 21
217.835159301758
 31
0.0
  0
LINE
  5
   6DA
  8
0
  6
CONTINUOUS
 62
   252
 10
113.015140533447
 20
178.835159301758
 30
0.0
 11
114.765140533447
 21
178.835159301758
 31
0.0
  0
LINE
  5
   6DB
  8
0
  6
CONTINUOUS
 62
   252
 10
114.765140533447
 20
178.835159301758
 30
0.0
 11
115.015140533447
 21
178.835159301758
 31
0.0
  0
LINE
  5
   6DC
  8
0
  6
CONTINUOUS
 62
   252
 10
115.015140533447
 20
178.835159301758
 30
0.0
 11
115.850925445557
 21
178.835159301758
 31
0.0
  0
LINE
  5
   6DD
  8
0
  6
CONTINUOUS
 62
   252
 10
115.015139770511
 20
210.335159301758
 30
0.0
 11
115.015139770511
 21
217.835159301758
 31
0.0
  0
LINE
  5
   6DE
  8
0
  6
CONTINUOUS
 62
   252
 10
115.015139770511
 20
178.835159301758
 30
0.0
 11
115.015139770511
 21
186.335159301758
 31
0.0
  0
LINE
  5
   6DF
  8
0
  6
CONTINUOUS
 62
   252
 10
115.850925445557
 20
178.835159301758
 30
0.0
 11
117.265140533447
 21
178.835159301758
 31
0.0
  0
LINE
  5
   6E0
  8
0
  6
CONTINUOUS
 62
   252
 10
115.850926208138
 20
210.335159301758
 30
0.0
 11
115.850926208138
 21
217.835159301758
 31
0.0
  0
LINE
  5
   6E1
  8
0
  6
CONTINUOUS
 62
   252
 10
115.850926207905
 20
178.835159301758
 30
0.0
 11
115.850926207905
 21
186.335159301758
 31
0.0
  0
LINE
  5
   6E2
  8
0
  6
CONTINUOUS
 62
   252
 10
118.850940704346
 20
217.835159301758
 30
0.0
 11
150.779368400574
 21
217.835159301758
 31
0.0
  0
LINE
  5
   6E3
  8
0
  6
CONTINUOUS
 62
   252
 10
150.779368400574
 20
217.835159301758
 30
0.0
 11
152.365139961243
 21
217.835159301758
 31
0.0
  0
LINE
  5
   6E4
  8
0
  6
CONTINUOUS
 62
   252
 10
117.265140533447
 20
217.835159301758
 30
0.0
 11
118.850940704346
 21
217.835159301758
 31
0.0
  0
LINE
  5
   6E5
  8
0
  6
CONTINUOUS
 62
   252
 10
152.365139961243
 20
217.835159301758
 30
0.0
 11
153.779353380203
 21
217.835159301758
 31
0.0
  0
LINE
  5
   6E6
  8
0
  6
CONTINUOUS
 62
   252
 10
153.779353380203
 20
217.835159301758
 30
0.0
 11
154.615139722824
 21
217.835159301758
 31
0.0
  0
LINE
  5
   6E7
  8
0
  6
CONTINUOUS
 62
   252
 10
154.615139722824
 20
217.835159301758
 30
0.0
 11
154.865139722824
 21
217.835159301758
 31
0.0
  0
LINE
  5
   6E8
  8
0
  6
CONTINUOUS
 62
   252
 10
154.865139722824
 20
217.835159301758
 30
0.0
 11
156.615139767528
 21
217.835159301758
 31
0.0
  0
LINE
  5
   6E9
  8
0
  6
CONTINUOUS
 62
   252
 10
156.615139767528
 20
217.835159301758
 30
0.0
 11
156.865139767528
 21
217.835159301758
 31
0.0
  0
LINE
  5
   6EA
  8
0
  6
CONTINUOUS
 62
   252
 10
112.765140533447
 20
217.835159301758
 30
0.0
 11
113.015140533447
 21
217.835159301758
 31
0.0
  0
LINE
  5
   6EB
  8
0
  6
CONTINUOUS
 62
   252
 10
113.015140533447
 20
217.835159301758
 30
0.0
 11
114.765140533447
 21
217.835159301758
 31
0.0
  0
LINE
  5
   6EC
  8
0
  6
CONTINUOUS
 62
   252
 10
114.765140533447
 20
217.835159301758
 30
0.0
 11
115.015140533447
 21
217.835159301758
 31
0.0
  0
LINE
  5
   6ED
  8
0
  6
CONTINUOUS
 62
   252
 10
115.015140533447
 20
217.835159301758
 30
0.0
 11
115.850925445557
 21
217.835159301758
 31
0.0
  0
LINE
  5
   6EE
  8
0
  6
CONTINUOUS
 62
   252
 10
115.850925445557
 20
217.835159301758
 30
0.0
 11
117.265140533447
 21
217.835159301758
 31
0.0
  0
LINE
  5
   6EF
  8
0
  6
CONTINUOUS
 62
   252
 10
154.615139770507
 20
186.335159301758
 30
0.0
 11
154.615139770507
 21
210.335159301758
 31
0.0
  0
LINE
  5
   6F0
  8
0
  6
CONTINUOUS
 62
   252
 10
115.015139770511
 20
186.335159301758
 30
0.0
 11
115.015139770511
 21
210.335159301758
 31
0.0
  0
LINE
  5
   6F1
  8
0
  6
CONTINUOUS
 62
   252
 10
117.265140533447
 20
186.335159301758
 30
0.0
 11
152.365139961243
 21
186.335159301758
 31
0.0
  0
LINE
  5
   6F2
  8
0
  6
CONTINUOUS
 62
   252
 10
152.365139961243
 20
186.335159301758
 30
0.0
 11
153.779353380203
 21
186.335159301758
 31
0.0
  0
LINE
  5
   6F3
  8
0
  6
CONTINUOUS
 62
   252
 10
153.779353380203
 20
186.335159301758
 30
0.0
 11
154.615139722824
 21
186.335159301758
 31
0.0
  0
LINE
  5
   6F4
  8
0
  6
CONTINUOUS
 62
   252
 10
115.015140533447
 20
186.335159301758
 30
0.0
 11
115.850925445557
 21
186.335159301758
 31
0.0
  0
LINE
  5
   6F5
  8
0
  6
CONTINUOUS
 62
   252
 10
115.850925445557
 20
186.335159301758
 30
0.0
 11
117.265140533447
 21
186.335159301758
 31
0.0
  0
LINE
  5
   6F6
  8
0
  6
CONTINUOUS
 62
   252
 10
117.265140533447
 20
210.335159301758
 30
0.0
 11
152.365139961243
 21
210.335159301758
 31
0.0
  0
LINE
  5
   6F7
  8
0
  6
CONTINUOUS
 62
   252
 10
152.365139961243
 20
210.335159301758
 30
0.0
 11
153.779353380203
 21
210.335159301758
 31
0.0
  0
LINE
  5
   6F8
  8
0
  6
CONTINUOUS
 62
   252
 10
153.779353380203
 20
210.335159301758
 30
0.0
 11
154.615139722824
 21
210.335159301758
 31
0.0
  0
LINE
  5
   6F9
  8
0
  6
CONTINUOUS
 62
   252
 10
115.015140533447
 20
210.335159301758
 30
0.0
 11
115.850925445557
 21
210.335159301758
 31
0.0
  0
LINE
  5
   6FA
  8
0
  6
CONTINUOUS
 62
   252
 10
115.850925445557
 20
210.335159301758
 30
0.0
 11
117.265140533447
 21
210.335159301758
 31
0.0
  0
LINE
  5
   6FB
  8
0
  6
DASHDOT
 62
     7
 10
134.815139770509
 20
171.12338764673
 30
0.0
 11
134.815139770509
 21
232.643006550909
 31
0.0
  0
TEXT
  5
   6FC
  8
0
  6
CONTINUOUS
 62
     7
 10
130.356960863476
 20
222.432264036301
 30
0.0
 40
3.00000002980232
  1
Y
 41
0.933333333333334
 72
     1
 11
131.456960874404
 21
223.932264051202
 31
0.0
 73
     2
  0
TEXT
  5
   6FD
  8
0
  6
CONTINUOUS
 62
     7
 10
130.356960863476
 20
170.712230444292
 30
0.0
 40
3.00000002980232
  1
Y
 41
0.933333333333334
 72
     1
 11
131.456960874404
 21
172.212230459193
 31
0.0
 73
     2
  0
LINE
  5
   6FE
  8
0
  6
DASHDOT
 62
     7
 10
105.052522672167
 20
201.085159301758
 30
0.0
 11
165.755509466999
 21
201.085159301758
 31
0.0
  0
TEXT
  5
   6FF
  8
0
  6
CONTINUOUS
 62
     7
 10
105.313576176819
 20
202.288672005729
 30
0.0
 40
3.00000002980232
  1
X
 41
0.933333333333334
 72
     1
 11
106.413576187747
 21
203.78867202063
 31
0.0
 73
     2
  0
TEXT
  5
   700
  8
0
  6
CONTINUOUS
 62
     7
 10
162.477823831145
 20
202.288672005729
 30
0.0
 40
3.00000002980232
  1
X
 41
0.933333333333334
 72
     1
 11
163.577823842072
 21
203.78867202063
 31
0.0
 73
     2
  0
INSERT
  5
   701
  8
0
  6
CONTINUOUS
 62
     7
  2
*UDIM3091
 10
0.0
 20
0.0
 30
0.0
  0
INSERT
  5
   702
  8
0
  6
CONTINUOUS
 62
     7
  2
*UDIM3092
 10
0.0
 20
0.0
 30
0.0
  0
INSERT
  5
   703
  8
0
  6
CONTINUOUS
 62
     7
  2
*UDIM3093
 10
0.0
 20
0.0
 30
0.0
  0
ENDSEC
  0
EOF
