  0
SECTION
  2
HEADER
  9
$ACADVER
  1
AC1009
999
I-DEAS Drafting Master Series 7m3 Not Encoded
  9
$EXTMIN
 10
0.0
 20
0.0
  9
$EXTMAX
 10
2.2863396E+002
 20
2.7379038E+002
  9
$TEXTSIZE
 40
1.25E-001
  9
$LTSCALE
 40
1.0
  9
$CLAYER
  8
AUTOCAD0
  9
$CECOLOR
 62
2
  9
$DIMASZ
 40
1.25E-001
  9
$DIMEXO
 40
6.25E-002
  9
$DIMDLI
 40
2.5E-001
  9
$DIMEXE
 40
1.25E-001
  9
$DIMTP
 40
5.0E-003
  9
$DIMTM
 40
-5.0E-003
  9
$DIMTXT
 40
3.0
  9
$DIMLIM
 70
0
  9
$DIMTIH
 70
1
  9
$DIMTOH
 70
1
  9
$DIMSE1
 70
0
  9
$DIMSE2
 70
0
  9
$DIMTAD
 70
0
  9
$DIMASO
 70
1
  9
$DIMALT
 70
0
  9
$DIMALTD
 70
0
  9
$DIMTOFL
 70
1
  9
$DIMTIX
 70
0
  9
$DIMSAH
 70
0
  9
$DIMTFAC
 40
1.0
  9
$DIMGAP
 40
6.25E-002
  9
$LUNITS
 70
2
  9
$LUPREC
 70
3
  9
$FILLETRAD
 40
1.0E+001
  9
$AUNITS
 70
0
  9
$AUPREC
 70
1
  9
$CHAMFERA
 40
6.0
  9
$CHAMFERB
 40
6.0
  9
$ANGBASE
 50
0.0
  9
$ANGDIR
 70
0
  9
$PDMODE
 70
2
  9
$PDSIZE
 40
-1.0E-002
  9
$SPLINETYPE
 70
6
  0
ENDSEC
  0
SECTION
  2
TABLES
  0
TABLE
  2
LTYPE
 70
8
  0
LTYPE
  2
HIDDENNEW00
  3
_ 
 70
64
 72
65
 73
2
 40
4.5
 49
3.0
 49
-1.5
  0
LTYPE
  2
HIDDENNEW01
  3
_ 
 70
64
 72
65
 73
2
 40
4.5
 49
3.0
 49
-1.5
  0
LTYPE
  2
HIDDEN
  3
_ 
 70
64
 72
65
 73
2
 40
4.5
 49
3.0
 49
-1.5
  0
LTYPE
  2
CENTERLINE
  3
_ 
 70
64
 72
65
 73
4
 40
3.0E+001
 49
2.4E+001
 49
-1.5
 49
3.0
 49
-1.5
  0
LTYPE
  2
PHANTOM
  3
_ 
 70
64
 72
65
 73
6
 40
2.95E+001
 49
1.9E+001
 49
-1.5
 49
3.0
 49
-1.5
 49
3.0
 49
-1.5
  0
LTYPE
  2
SHORT_DASH
  3
_ 
 70
64
 72
65
 73
2
 40
3.0
 49
1.5
 49
-1.5
  0
LTYPE
  2
LONG_DASH
  3
_ 
 70
64
 72
65
 73
2
 40
9.0
 49
4.5
 49
-4.5
  0
LTYPE
  2
PKV1
  3
_ 
 70
64
 72
65
 73
4
 40
8.06
 49
6.0
 49
-1.0
 49
6.0E-002
 49
-1.0
  0
ENDTAB
  0
TABLE
  2
LAYER
 70
258
  0
LAYER
  2
AUTOCAD0
 70
0
 62
7
  6
HIDDENNEW00
  0
LAYER
  2
Drafting_Hidden_Entities
 70
1
 62
7
  6
CONTINUOUS
  0
ENDTAB
  0
TABLE
  2
STYLE
 70
1
  0
STYLE
  2
STANDARD
 70
64
 40
0.0
 41
1.0
 50
0.0
 71
0
 42
1.0
  3
monotxt.shx
  4

  0
ENDTAB
  0
TABLE
  2
VIEW
 70
0
  0
ENDTAB
  0
TABLE
  2
DIMSTYLE
 70
0
  0
ENDTAB
  0
ENDSEC
  0
SECTION
  2
BLOCKS
  0
ENDSEC
  0
SECTION
  2
ENTITIES
  0
LINE
  8
AUTOCAD0
  6
PKV1
 62
40
 10
1.9313396E+002
 20
2.7379038E+002
 11
1.9313396E+002
 21
1.5306813E+002
  0
LINE
  8
AUTOCAD0
  6
PKV1
 62
40
 10
1.9313396E+002
 20
0.0
 11
1.9313396E+002
 21
1.3301324E+002
  0
TEXT
  8
AUTOCAD0
  6
CONTINUOUS
 62
40
 10
1.6832617E+002
 20
1.2169216E+002
 40
2.0
  1
OESAZX 102
 41
9.095E-001
  0
LINE
  8
AUTOCAD0
  6
CONTINUOUS
 62
40
 10
1.6063396E+002
 20
1.6347575E+002
 11
1.6063396E+002
 21
2.6547575E+002
  0
LINE
  8
AUTOCAD0
  6
CONTINUOUS
 62
40
 10
1.9313396E+002
 20
2.6747575E+002
 11
1.5963396E+002
 21
2.6747575E+002
  0
ARC
  8
AUTOCAD0
  6
CONTINUOUS
 62
40
 10
1.9313396E+002
 20
2.2647575E+002
 40
1.6E+001
 50
9.0E+001
 51
1.8E+002
  0
LINE
  8
AUTOCAD0
  6
CONTINUOUS
 62
40
 10
1.7713396E+002
 20
2.2647575E+002
 11
1.7713396E+002
 21
1.6347575E+002
  0
LINE
  8
AUTOCAD0
  6
CONTINUOUS
 62
40
 10
1.6063396E+002
 20
2.4447575E+002
 11
1.5763396E+002
 21
2.4447575E+002
  0
LINE
  8
AUTOCAD0
  6
CONTINUOUS
 62
40
 10
1.5763396E+002
 20
1.6847575E+002
 11
1.5763396E+002
 21
1.8847575E+002
  0
LINE
  8
AUTOCAD0
  6
CONTINUOUS
 62
40
 10
1.6063396E+002
 20
2.1647575E+002
 11
1.5763396E+002
 21
2.1647575E+002
  0
LINE
  8
AUTOCAD0
  6
CONTINUOUS
 62
40
 10
1.6063396E+002
 20
2.3247575E+002
 11
1.5763396E+002
 21
2.3247575E+002
  0
LINE
  8
AUTOCAD0
  6
CONTINUOUS
 62
40
 10
1.6063396E+002
 20
1.6847575E+002
 11
1.5763396E+002
 21
1.6847575E+002
  0
LINE
  8
AUTOCAD0
  6
CONTINUOUS
 62
40
 10
1.6063396E+002
 20
1.8847575E+002
 11
1.5763396E+002
 21
1.8847575E+002
  0
LINE
  8
AUTOCAD0
  6
CONTINUOUS
 62
40
 10
1.5763396E+002
 20
2.4447575E+002
 11
1.5763396E+002
 21
2.6547575E+002
  0
LINE
  8
AUTOCAD0
  6
CONTINUOUS
 62
40
 10
1.5763396E+002
 20
2.1647575E+002
 11
1.5763396E+002
 21
2.3247575E+002
  0
ARC
  8
AUTOCAD0
  6
CONTINUOUS
 62
40
 10
1.6263396E+002
 20
2.6547575E+002
 40
2.0
 50
9.0E+001
 51
1.8E+002
  0
ARC
  8
AUTOCAD0
  6
CONTINUOUS
 62
40
 10
1.5963396E+002
 20
2.6547575E+002
 40
2.0
 50
9.0E+001
 51
1.8E+002
  0
LINE
  8
AUTOCAD0
  6
CONTINUOUS
 62
40
 10
1.7713396E+002
 20
1.6347575E+002
 11
1.6063396E+002
 21
1.6347575E+002
  0
LINE
  8
AUTOCAD0
  6
CONTINUOUS
 62
40
 10
1.9313396E+002
 20
2.6597575E+002
 11
1.6413396E+002
 21
2.6597575E+002
  0
LINE
  8
AUTOCAD0
  6
CONTINUOUS
 62
40
 10
1.6213396E+002
 20
1.6347575E+002
 11
1.6213396E+002
 21
2.6397575E+002
  0
ARC
  8
AUTOCAD0
  6
CONTINUOUS
 62
40
 10
1.6413396E+002
 20
2.6397575E+002
 40
2.0
 50
9.0E+001
 51
1.8E+002
  0
ARC
  8
AUTOCAD0
  6
CONTINUOUS
 62
40
 10
1.9313396E+002
 20
2.2647575E+002
 40
2.1E+001
 50
9.0E+001
 51
1.8E+002
  0
LINE
  8
AUTOCAD0
  6
CONTINUOUS
 62
40
 10
1.7213396E+002
 20
2.2647575E+002
 11
1.7213396E+002
 21
1.6347575E+002
  0
LINE
  8
AUTOCAD0
  6
CONTINUOUS
 62
40
 10
1.5763396E+002
 20
1.2927283E+002
 11
2.2863396E+002
 21
1.2927283E+002
  0
LINE
  8
AUTOCAD0
  6
CONTINUOUS
 62
40
 10
2.1413396E+002
 20
2.2647575E+002
 11
2.1413396E+002
 21
1.6347575E+002
  0
ARC
  8
AUTOCAD0
  6
CONTINUOUS
 62
40
 10
1.9313396E+002
 20
2.2647575E+002
 40
2.1E+001
 50
0.0
 51
9.0E+001
  0
ARC
  8
AUTOCAD0
  6
CONTINUOUS
 62
40
 10
2.2213396E+002
 20
2.6397575E+002
 40
2.0
 50
0.0
 51
9.0E+001
  0
LINE
  8
AUTOCAD0
  6
CONTINUOUS
 62
40
 10
2.2413396E+002
 20
1.6347575E+002
 11
2.2413396E+002
 21
2.6397575E+002
  0
LINE
  8
AUTOCAD0
  6
CONTINUOUS
 62
40
 10
1.9313396E+002
 20
2.6597575E+002
 11
2.2213396E+002
 21
2.6597575E+002
  0
LINE
  8
AUTOCAD0
  6
CONTINUOUS
 62
40
 10
2.0913396E+002
 20
1.6347575E+002
 11
2.2563396E+002
 21
1.6347575E+002
  0
ARC
  8
AUTOCAD0
  6
CONTINUOUS
 62
40
 10
2.2363396E+002
 20
2.6547575E+002
 40
2.0
 50
0.0
 51
9.0E+001
  0
LINE
  8
AUTOCAD0
  6
CONTINUOUS
 62
40
 10
2.2863396E+002
 20
2.1647575E+002
 11
2.2863396E+002
 21
2.3247575E+002
  0
LINE
  8
AUTOCAD0
  6
CONTINUOUS
 62
40
 10
2.2563396E+002
 20
1.8847575E+002
 11
2.2863396E+002
 21
1.8847575E+002
  0
LINE
  8
AUTOCAD0
  6
CONTINUOUS
 62
40
 10
2.2563396E+002
 20
1.6847575E+002
 11
2.2863396E+002
 21
1.6847575E+002
  0
LINE
  8
AUTOCAD0
  6
CONTINUOUS
 62
40
 10
2.2563396E+002
 20
2.3247575E+002
 11
2.2863396E+002
 21
2.3247575E+002
  0
LINE
  8
AUTOCAD0
  6
CONTINUOUS
 62
40
 10
2.2563396E+002
 20
2.1647575E+002
 11
2.2863396E+002
 21
2.1647575E+002
  0
LINE
  8
AUTOCAD0
  6
CONTINUOUS
 62
40
 10
2.2863396E+002
 20
1.6847575E+002
 11
2.2863396E+002
 21
1.8847575E+002
  0
LINE
  8
AUTOCAD0
  6
CONTINUOUS
 62
40
 10
2.0913396E+002
 20
2.2647575E+002
 11
2.0913396E+002
 21
1.6347575E+002
  0
ARC
  8
AUTOCAD0
  6
CONTINUOUS
 62
40
 10
1.9313396E+002
 20
2.2647575E+002
 40
1.6E+001
 50
0.0
 51
9.0E+001
  0
LINE
  8
AUTOCAD0
  6
CONTINUOUS
 62
40
 10
1.9313396E+002
 20
2.6747575E+002
 11
2.2363396E+002
 21
2.6747575E+002
  0
LINE
  8
AUTOCAD0
  6
CONTINUOUS
 62
40
 10
2.2563396E+002
 20
1.6347575E+002
 11
2.2563396E+002
 21
2.6547575E+002
  0
LINE
  8
AUTOCAD0
  6
CONTINUOUS
 62
40
 10
1.6113396E+002
 20
6.4272833E+001
 11
2.2513396E+002
 21
6.4272833E+001
  0
LINE
  8
AUTOCAD0
  6
CONTINUOUS
 62
40
 10
1.6559857E+002
 20
8.272833
 11
2.2066936E+002
 21
8.272833
  0
LINE
  8
AUTOCAD0
  6
CONTINUOUS
 62
40
 10
1.6067242E+002
 20
1.2427283E+002
 11
1.6113396E+002
 21
6.4272833E+001
  0
LINE
  8
AUTOCAD0
  6
CONTINUOUS
 62
40
 10
1.6263396E+002
 20
6.4272833E+001
 11
1.6359888E+002
 21
1.0237125E+001
  0
LINE
  8
AUTOCAD0
  6
CONTINUOUS
 62
40
 10
1.5763396E+002
 20
1.2427283E+002
 11
1.6067242E+002
 21
1.2427283E+002
  0
LINE
  8
AUTOCAD0
  6
CONTINUOUS
 62
40
 10
1.5763396E+002
 20
1.2927283E+002
 11
1.5763396E+002
 21
1.2427283E+002
  0
LINE
  8
AUTOCAD0
  6
CONTINUOUS
 62
40
 10
2.2863396E+002
 20
1.2927283E+002
 11
2.2863396E+002
 21
1.2677283E+002
  0
LINE
  8
AUTOCAD0
  6
CONTINUOUS
 62
40
 10
2.2561473E+002
 20
1.2677283E+002
 11
2.2863396E+002
 21
1.2677283E+002
  0
LINE
  8
AUTOCAD0
  6
CONTINUOUS
 62
40
 10
2.2563396E+002
 20
1.2927283E+002
 11
2.2513396E+002
 21
6.4272833E+001
  0
LINE
  8
AUTOCAD0
  6
CONTINUOUS
 62
40
 10
2.2363396E+002
 20
6.4272833E+001
 11
2.2266904E+002
 21
1.0237125E+001
  0
LINE
  8
AUTOCAD0
  6
CONTINUOUS
 62
40
 10
1.7213396E+002
 20
7.272833
 11
2.1413396E+002
 21
7.272833
  0
LINE
  8
AUTOCAD0
  6
CONTINUOUS
 62
40
 10
1.7213396E+002
 20
8.272833
 11
1.7213396E+002
 21
7.272833
  0
LINE
  8
AUTOCAD0
  6
CONTINUOUS
 62
40
 10
2.1413396E+002
 20
8.272833
 11
2.1413396E+002
 21
7.272833
  0
LINE
  8
AUTOCAD0
  6
CONTINUOUS
 62
40
 10
1.04E+002
 20
1.2927283E+002
 11
0.0
 21
1.2927283E+002
  0
LINE
  8
AUTOCAD0
  6
CONTINUOUS
 62
40
 10
1.04E+002
 20
8.272833
 11
7.929879
 21
8.272833
  0
LINE
  8
AUTOCAD0
  6
CONTINUOUS
 62
40
 10
1.04E+002
 20
1.2927283E+002
 11
1.04E+002
 21
7.272833
  0
LINE
  8
AUTOCAD0
  6
CONTINUOUS
 62
40
 10
1.04E+002
 20
6.4272833E+001
 11
2.5
 21
6.4272833E+001
  0
LINE
  8
AUTOCAD0
  6
CONTINUOUS
 62
40
 10
0.0
 20
1.2927283E+002
 11
2.5
 21
6.4272833E+001
  0
LINE
  8
AUTOCAD0
  6
CONTINUOUS
 62
40
 10
3.998892
 20
6.4330483E+001
 11
5.931152
 21
1.0201484E+001
  0
LINE
  8
AUTOCAD0
  6
CONTINUOUS
 62
40
 10
9.9E+001
 20
1.2677283E+002
 11
7.9E+001
 21
1.2677283E+002
  0
LINE
  8
AUTOCAD0
  6
CONTINUOUS
 62
40
 10
9.9E+001
 20
1.2927283E+002
 11
9.9E+001
 21
1.2677283E+002
  0
LINE
  8
AUTOCAD0
  6
CONTINUOUS
 62
40
 10
7.9E+001
 20
1.2927283E+002
 11
7.9E+001
 21
1.2677283E+002
  0
LINE
  8
AUTOCAD0
  6
CONTINUOUS
 62
40
 10
5.1E+001
 20
1.2927283E+002
 11
5.1E+001
 21
1.2677283E+002
  0
LINE
  8
AUTOCAD0
  6
CONTINUOUS
 62
40
 10
3.5E+001
 20
1.2927283E+002
 11
3.5E+001
 21
1.2677283E+002
  0
LINE
  8
AUTOCAD0
  6
CONTINUOUS
 62
40
 10
5.1E+001
 20
1.2677283E+002
 11
3.5E+001
 21
1.2677283E+002
  0
LINE
  8
AUTOCAD0
  6
CONTINUOUS
 62
40
 10
2.0E+001
 20
8.272833
 11
2.0E+001
 21
7.272833
  0
LINE
  8
AUTOCAD0
  6
CONTINUOUS
 62
40
 10
1.04E+002
 20
7.272833
 11
2.0E+001
 21
7.272833
  0
ARC
  8
AUTOCAD0
  6
CONTINUOUS
 62
40
 10
7.929879
 20
1.0272833E+001
 40
2.0
 50
1.8204444E+002
 51
2.7E+002
  0
ARC
  8
AUTOCAD0
  6
CONTINUOUS
 62
40
 10
1.6559857E+002
 20
1.0272833E+001
 40
2.0
 50
1.8102303E+002
 51
2.7E+002
  0
ARC
  8
AUTOCAD0
  6
CONTINUOUS
 62
40
 10
2.2066936E+002
 20
1.0272833E+001
 40
2.0
 50
2.7E+002
 51
3.5897697E+002
  0
ENDSEC
  0
EOF
