  0
SECTION
  2
HEADER
  9
$ACADVER
  1
AC1009
  9
$INSBASE
 10
0.0
 20
0.0
 30
0.0
  9
$EXTMIN
 10
0.237099
 20
0.237999
 30
0.0
  9
$EXTMAX
 10
392.237099
 20
262.737999
 30
0.0
  9
$LIMMIN
 10
0.0
 20
0.0
  9
$LIMMAX
 10
12.0
 20
9.0
  9
$ORTHOMODE
 70
     1
  9
$REGENMODE
 70
     1
  9
$FILLMODE
 70
     1
  9
$QTEXTMODE
 70
     0
  9
$MIRRTEXT
 70
     1
  9
$DRAGMODE
 70
     2
  9
$LTSCALE
 40
5.0
  9
$OSMODE
 70
     0
  9
$ATTMODE
 70
     1
  9
$TEXTSIZE
 40
2.0
  9
$TRACEWID
 40
0.05
  9
$TEXTSTYLE
  7
ROMANS
  9
$CLAYER
  8
0
  9
$CELTYPE
  6
CONTINUOUS
  9
$CECOLOR
 62
   256
  9
$DIMSCALE
 40
1.0
  9
$DIMASZ
 40
0.18
  9
$DIMEXO
 40
0.0625
  9
$DIMDLI
 40
0.38
  9
$DIMRND
 40
0.0
  9
$DIMDLE
 40
0.0
  9
$DIMEXE
 40
0.18
  9
$DIMTP
 40
0.0
  9
$DIMTM
 40
0.0
  9
$DIMTXT
 40
0.18
  9
$DIMCEN
 40
0.09
  9
$DIMTSZ
 40
0.0
  9
$DIMTOL
 70
     0
  9
$DIMLIM
 70
     0
  9
$DIMTIH
 70
     1
  9
$DIMTOH
 70
     1
  9
$DIMSE1
 70
     0
  9
$DIMSE2
 70
     0
  9
$DIMTAD
 70
     0
  9
$DIMZIN
 70
     0
  9
$DIMBLK
  1

  9
$DIMASO
 70
     1
  9
$DIMSHO
 70
     1
  9
$DIMPOST
  1

  9
$DIMAPOST
  1

  9
$DIMALT
 70
     0
  9
$DIMALTD
 70
     2
  9
$DIMALTF
 40
25.4
  9
$DIMLFAC
 40
1.0
  9
$DIMTOFL
 70
     0
  9
$DIMTVP
 40
0.0
  9
$DIMTIX
 70
     0
  9
$DIMSOXD
 70
     0
  9
$DIMSAH
 70
     0
  9
$DIMBLK1
  1

  9
$DIMBLK2
  1

  9
$DIMSTYLE
  2
*UNNAMED
  9
$DIMCLRD
 70
     0
  9
$DIMCLRE
 70
     0
  9
$DIMCLRT
 70
     0
  9
$DIMTFAC
 40
1.0
  9
$DIMGAP
 40
0.09
  9
$LUNITS
 70
     2
  9
$LUPREC
 70
     4
  9
$SKETCHINC
 40
0.1
  9
$FILLETRAD
 40
1.5
  9
$AUNITS
 70
     0
  9
$AUPREC
 70
     0
  9
$MENU
  1
acad
  9
$ELEVATION
 40
0.0
  9
$PELEVATION
 40
0.0
  9
$THICKNESS
 40
0.0
  9
$LIMCHECK
 70
     0
  9
$BLIPMODE
 70
     1
  9
$CHAMFERA
 40
0.0
  9
$CHAMFERB
 40
0.0
  9
$SKPOLY
 70
     0
  9
$TDCREATE
 40
2449169.551921643
  9
$TDUPDATE
 40
2449169.551921643
  9
$TDINDWG
 40
0.0000000000
  9
$TDUSRTIMER
 40
0.0000000000
  9
$USRTIMER
 70
     1
  9
$ANGBASE
 50
0.0
  9
$ANGDIR
 70
     0
  9
$PDMODE
 70
     0
  9
$PDSIZE
 40
0.0
  9
$PLINEWID
 40
0.0
  9
$COORDS
 70
     2
  9
$SPLFRAME
 70
     0
  9
$SPLINETYPE
 70
     6
  9
$SPLINESEGS
 70
     8
  9
$ATTDIA
 70
     0
  9
$ATTREQ
 70
     1
  9
$HANDLING
 70
     0
  9
$HANDSEED
  5
0
  9
$SURFTAB1
 70
   100
  9
$SURFTAB2
 70
   100
  9
$SURFTYPE
 70
     6
  9
$SURFU
 70
     6
  9
$SURFV
 70
     6
  9
$UCSNAME
  2

  9
$UCSORG
 10
0.0
 20
0.0
 30
0.0
  9
$UCSXDIR
 10
1.0
 20
0.0
 30
0.0
  9
$UCSYDIR
 10
0.0
 20
1.0
 30
0.0
  9
$PUCSNAME
  2

  9
$PUCSORG
 10
0.0
 20
0.0
 30
0.0
  9
$PUCSXDIR
 10
1.0
 20
0.0
 30
0.0
  9
$PUCSYDIR
 10
0.0
 20
1.0
 30
0.0
  9
$USERI1
 70
     0
  9
$USERI2
 70
     0
  9
$USERI3
 70
     0
  9
$USERI4
 70
     0
  9
$USERI5
 70
     0
  9
$USERR1
 40
0.0
  9
$USERR2
 40
0.0
  9
$USERR3
 40
0.0
  9
$USERR4
 40
0.0
  9
$USERR5
 40
0.0
  9
$WORLDVIEW
 70
     1
  9
$SHADEDGE
 70
     3
  9
$SHADEDIF
 70
    70
  9
$TILEMODE
 70
     1
  9
$MAXACTVP
 70
    16
  9
$PINSBASE
 10
0.0
 20
0.0
 30
0.0
  9
$PLIMCHECK
 70
     0
  9
$PEXTMIN
 10
1.000000E+20
 20
1.000000E+20
 30
1.000000E+20
  9
$PEXTMAX
 10
-1.000000E+20
 20
-1.000000E+20
 30
-1.000000E+20
  9
$PLIMMIN
 10
0.0
 20
0.0
  9
$PLIMMAX
 10
12.0
 20
9.0
  9
$UNITMODE
 70
     0
  9
$VISRETAIN
 70
     0
  9
$PLINEGEN
 70
     0
  9
$PSLTSCALE
 70
     0
  9
$TREEDEPTH
 70
  3020
  9
$DWGCODEPAGE
  3
undefined
  0
ENDSEC
  0
SECTION
  2
TABLES
  0
TABLE
  2
VPORT
 70
     2
  0
VPORT
  2
*ACTIVE
 70
     0
 10
0.0
 20
0.0
 11
1.0
 21
1.0
 12
222.522843
 22
142.040485
 13
0.0
 23
0.0
 14
2.5
 24
2.5
 15
0.0
 25
0.0
 16
0.0
 26
0.0
 36
1.0
 17
0.0
 27
0.0
 37
0.0
 40
284.080971
 41
1.566616
 42
50.0
 43
0.0
 44
0.0
 50
0.0
 51
0.0
 71
     0
 72
   100
 73
     1
 74
     1
 75
     1
 76
     0
 77
     0
 78
     0
  0
ENDTAB
  0
TABLE
  2
LTYPE
 70
     4
  0
LTYPE
  2
CONTINUOUS
 70
    64
  3
Solid line
 72
    65
 73
     0
 40
0.0
  0
LTYPE
  2
DASHED
 70
    64
  3
__ __ __ __ __ __ __ __ __ __ __ __ __ __ __ __
 72
    65
 73
     2
 40
0.75
 49
0.5
 49
-0.25
  0
LTYPE
  2
CENTER
 70
    64
  3
____ _ ____ _ ____ _ ____ _ ____ _ ____ _ ____ 
 72
    65
 73
     4
 40
2.0
 49
1.25
 49
-0.25
 49
0.25
 49
-0.25
  0
LTYPE
  2
HIDDEN
 70
    64
  3
__ __ __ __ __ __ __ __ __ __ __ __ __ __ __ __
 72
    65
 73
     2
 40
0.375
 49
0.25
 49
-0.125
  0
ENDTAB
  0
TABLE
  2
LAYER
 70
    13
  0
LAYER
  2
0
 70
    64
 62
     7
  6
CONTINUOUS
  0
LAYER
  2
RAAMI
 70
    64
 62
    -4
  6
CONTINUOUS
  0
LAYER
  2
PAKSU
 70
    64
 62
    -3
  6
CONTINUOUS
  0
LAYER
  2
OHUT
 70
    64
 62
    -6
  6
CONTINUOUS
  0
LAYER
  2
SWEDEN
 70
    64
 62
    -7
  6
CONTINUOUS
  0
LAYER
  2
SWEDEN2
 70
    64
 62
    -5
  6
CONTINUOUS
  0
LAYER
  2
BASE
 70
    64
 62
    -7
  6
CONTINUOUS
  0
LAYER
  2
21
 70
    64
 62
    -2
  6
CONTINUOUS
  0
LAYER
  2
HEL035
 70
    64
 62
    -7
  6
CONTINUOUS
  0
LAYER
  2
MUO
 70
    64
 62
    -7
  6
CONTINUOUS
  0
LAYER
  2
1
 70
    64
 62
    -2
  6
CONTINUOUS
  0
LAYER
  2
BASE1
 70
    64
 62
    -5
  6
CONTINUOUS
  0
LAYER
  2
TEKS
 70
    64
 62
    -5
  6
CONTINUOUS
  0
ENDTAB
  0
TABLE
  2
STYLE
 70
     3
  0
STYLE
  2
STANDARD
 70
    64
 40
0.0
 41
1.0
 50
0.0
 71
     0
 42
2.5
  3
txt
  4

  0
STYLE
  2
ROMANS
 70
    64
 40
0.0
 41
1.0
 50
0.0
 71
     0
 42
2.0
  3
romans
  4

  0
STYLE
  2
GREEKS
 70
    64
 40
0.0
 41
1.0
 50
0.0
 71
     0
 42
2.5
  3
TXT
  4

  0
ENDTAB
  0
TABLE
  2
VIEW
 70
     0
  0
ENDTAB
  0
TABLE
  2
UCS
 70
     0
  0
ENDTAB
  0
TABLE
  2
APPID
 70
     1
  0
APPID
  2
ACAD
 70
    64
  0
ENDTAB
  0
TABLE
  2
DIMSTYLE
 70
     0
  0
ENDTAB
  0
ENDSEC
  0
SECTION
  2
BLOCKS
  0
BLOCK
  8
0
  2
1
 70
    64
 10
0.0
 20
0.0
 30
0.0
  3
1
  0
ENDBLK
  8
0
  0
BLOCK
  8
0
  2
BLC16
 70
     0
 10
0.0
 20
0.0
 30
0.0
  3
BLC16
  0
LINE
  8
0
  6
CONTINUOUS
 10
0.007689
 20
38.054928
 30
0.0
 11
19.983683
 21
38.054928
 31
0.0
  0
LINE
  8
0
  6
CONTINUOUS
 10
19.983683
 20
38.054928
 30
0.0
 11
19.983683
 21
-0.003751
 31
0.0
  0
LINE
  8
0
  6
CONTINUOUS
 10
19.983683
 20
-0.003751
 30
0.0
 11
0.007689
 21
-0.003751
 31
0.0
  0
LINE
  8
0
  6
CONTINUOUS
 10
0.007689
 20
-0.003751
 30
0.0
 11
0.007689
 21
38.054928
 31
0.0
  0
LINE
  8
0
  6
CONTINUOUS
 10
14.152643
 20
36.919738
 30
0.0
 11
14.152643
 21
33.528469
 31
0.0
  0
LINE
  8
0
  6
CONTINUOUS
 10
14.152643
 20
33.528469
 30
0.0
 11
11.560435
 21
33.528469
 31
0.0
  0
LINE
  8
0
  6
CONTINUOUS
 10
11.560435
 20
33.528469
 30
0.0
 11
11.560435
 21
30.778433
 31
0.0
  0
LINE
  8
0
  6
CONTINUOUS
 10
11.560435
 20
30.778433
 30
0.0
 11
14.152643
 21
30.778433
 31
0.0
  0
LINE
  8
0
  6
CONTINUOUS
 10
14.152643
 20
30.778433
 30
0.0
 11
14.152643
 21
27.387164
 31
0.0
  0
TEXT
  8
0
  6
CONTINUOUS
 10
6.558569
 20
30.805266
 30
0.0
 40
2.5
  1
2
 11
6.558569
 21
29.971932
 31
0.0
 73
     1
  0
TEXT
  8
0
  6
CONTINUOUS
 10
6.553289
 20
23.854078
 30
0.0
 40
2.5
  1
2 I
 11
6.553289
 21
23.020744
 31
0.0
 73
     1
  0
LINE
  8
0
  6
CONTINUOUS
 10
12.942534
 20
26.359129
 30
0.0
 11
15.288299
 21
25.023775
 31
0.0
  0
LINE
  8
0
  6
CONTINUOUS
 10
15.288299
 20
25.023775
 30
0.0
 11
12.942534
 21
23.833856
 31
0.0
  0
LINE
  8
0
  6
CONTINUOUS
 10
14.169823
 20
26.359129
 30
0.0
 11
16.515589
 21
25.023775
 31
0.0
  0
LINE
  8
0
  6
CONTINUOUS
 10
16.515589
 20
25.023775
 30
0.0
 11
14.169823
 21
23.833856
 31
0.0
  0
TEXT
  8
0
  6
CONTINUOUS
 10
11.566446
 20
19.235679
 30
0.0
 40
2.5
  1
I
 11
11.566446
 21
18.402346
 31
0.0
 73
     1
  0
TEXT
  8
0
  6
CONTINUOUS
 10
13.018181
 20
18.902346
 30
0.0
 40
1.5
  1
2
 11
13.018181
 21
18.402346
 31
0.0
 73
     1
  0
LINE
  8
0
  6
CONTINUOUS
 10
10.65733
 20
12.773825
 30
0.0
 11
13.003095
 21
13.963744
 31
0.0
  0
LINE
  8
0
  6
CONTINUOUS
 10
13.003095
 20
11.438471
 30
0.0
 11
10.65733
 21
12.773825
 31
0.0
  0
LINE
  8
0
  6
CONTINUOUS
 10
6.557002
 20
16.714658
 30
0.0
 11
15.281743
 21
16.714658
 31
0.0
  0
LINE
  8
0
  6
CONTINUOUS
 10
6.557002
 20
17.523984
 30
0.0
 11
6.557002
 21
15.908791
 31
0.0
  0
LINE
  8
0
  6
CONTINUOUS
 10
15.286518
 20
17.523984
 30
0.0
 11
15.286518
 21
15.908791
 31
0.0
  0
ARC
  8
0
  6
CONTINUOUS
 10
12.684846
 20
18.508045
 30
0.0
 40
2.922744
 50
193.105513
 51
283.105513
  0
TEXT
  8
0
  6
CONTINUOUS
 10
6.557002
 20
11.567974
 30
0.0
 40
2.5
  1
2I
 11
6.557002
 21
10.734641
 31
0.0
 73
     1
  0
LINE
  8
0
  6
CONTINUOUS
 10
6.557002
 20
9.441103
 30
0.0
 11
15.281743
 21
9.441103
 31
0.0
  0
LINE
  8
0
  6
CONTINUOUS
 10
15.286518
 20
10.250429
 30
0.0
 11
15.286518
 21
8.635236
 31
0.0
  0
LINE
  8
0
  6
CONTINUOUS
 10
6.557002
 20
10.250429
 30
0.0
 11
6.557002
 21
8.635236
 31
0.0
  0
TEXT
  8
0
  6
CONTINUOUS
 10
6.557002
 20
4.778631
 30
0.0
 40
2.5
  1
I
 11
6.557002
 21
3.945298
 31
0.0
 73
     1
  0
LINE
  8
0
  6
CONTINUOUS
 10
9.509029
 20
6.822462
 30
0.0
 11
9.509029
 21
5.477736
 31
0.0
  0
LINE
  8
0
  6
CONTINUOUS
 10
8.615065
 20
5.477736
 30
0.0
 11
9.52622
 21
5.477736
 31
0.0
  0
LINE
  8
0
  6
CONTINUOUS
 10
9.509029
 20
5.477736
 30
0.0
 11
10.402992
 21
5.477736
 31
0.0
  0
LINE
  8
0
  6
CONTINUOUS
 10
8.901592
 20
5.082328
 30
0.0
 11
9.509029
 21
5.082328
 31
0.0
  0
LINE
  8
0
  6
CONTINUOUS
 10
9.509029
 20
5.082328
 30
0.0
 11
10.150849
 21
5.082328
 31
0.0
  0
LINE
  8
0
  6
CONTINUOUS
 10
9.981861
 20
4.719969
 30
0.0
 11
9.072041
 21
4.719969
 31
0.0
  0
LINE
  8
0
  6
CONTINUOUS
 10
15.286518
 20
2.797924
 30
0.0
 11
15.286518
 21
1.182731
 31
0.0
  0
LINE
  8
0
  6
CONTINUOUS
 10
6.557002
 20
1.988598
 30
0.0
 11
15.281743
 21
1.988598
 31
0.0
  0
LINE
  8
0
  6
CONTINUOUS
 10
6.557002
 20
2.797924
 30
0.0
 11
6.557002
 21
1.182731
 31
0.0
  0
ENDBLK
  8
0
  0
BLOCK
  8
0
  2
BLC27
 70
     0
 10
0.0
 20
0.0
 30
0.0
  3
BLC27
  0
INSERT
  8
SWEDEN2
  6
CENTER
  2
BLC26
 10
0.08063
 20
0.037985
 30
0.0
 41
1.006225
 42
1.006225
 43
1.006225
  0
ENDBLK
  8
0
  0
BLOCK
  8
0
  2
BLC26
 70
    64
 10
0.0
 20
0.0
 30
0.0
  3
BLC26
  0
ARC
  8
0
  6
CONTINUOUS
 10
-0.180576
 20
1.17922
 30
0.0
 40
1.196859
 50
90.0
 51
265.706237
  0
LINE
  8
0
  6
CONTINUOUS
 10
-0.186638
 20
-0.01092
 30
0.0
 11
0.458942
 21
-0.01092
 31
0.0
  0
LINE
  8
0
  6
CONTINUOUS
 10
-0.186638
 20
2.375671
 30
0.0
 11
0.45288
 21
2.375671
 31
0.0
  0
LINE
  8
0
  6
CONTINUOUS
 10
-0.185509
 20
-2.404629
 30
0.0
 11
0.460071
 21
-2.404629
 31
0.0
  0
ARC
  8
0
  6
CONTINUOUS
 10
-0.180576
 20
-1.207779
 30
0.0
 40
1.196859
 50
90.0
 51
270.0
  0
LINE
  8
0
  6
CONTINUOUS
 10
0.451525
 20
-2.404586
 30
0.0
 11
1.401805
 21
-2.404586
 31
0.0
  0
LINE
  8
0
  6
CONTINUOUS
 10
0.446785
 20
2.375674
 30
0.0
 11
1.418544
 21
2.375674
 31
0.0
  0
LINE
  8
0
  6
CONTINUOUS
 10
0.456627
 20
-0.010911
 30
0.0
 11
1.422749
 21
-0.010911
 31
0.0
  0
ENDBLK
  8
0
  0
BLOCK
  8
0
  2
BLC28
 70
     0
 10
0.0
 20
0.0
 30
0.0
  3
BLC28
  0
LINE
  8
0
  6
CONTINUOUS
 10
0.484576
 20
2.400948
 30
0.0
 11
1.456712
 21
2.400948
 31
0.0
  0
LINE
  8
0
  6
CONTINUOUS
 10
0.474673
 20
4.802388
 30
0.0
 11
1.452481
 21
4.802388
 31
0.0
  0
LINE
  8
0
  6
CONTINUOUS
 10
0.479442
 20
-0.007627
 30
0.0
 11
1.435637
 21
-0.007627
 31
0.0
  0
ARC
  8
0
  6
CONTINUOUS
 10
-0.156593
 20
1.19663
 30
0.0
 40
1.204309
 50
90.0
 51
270.0
  0
LINE
  8
0
  6
CONTINUOUS
 10
-0.161557
 20
-0.007671
 30
0.0
 11
0.488041
 21
-0.007671
 31
0.0
  0
LINE
  8
0
  6
CONTINUOUS
 10
-0.162693
 20
4.802386
 30
0.0
 11
0.480806
 21
4.802386
 31
0.0
  0
LINE
  8
0
  6
CONTINUOUS
 10
-0.162693
 20
2.400939
 30
0.0
 11
0.486905
 21
2.400939
 31
0.0
  0
ARC
  8
0
  6
CONTINUOUS
 10
-0.156593
 20
3.598487
 30
0.0
 40
1.204309
 50
90.0
 51
265.706237
  0
LINE
  8
0
  6
CONTINUOUS
 10
0.484576
 20
-2.362961
 30
0.0
 11
1.456712
 21
-2.362961
 31
0.0
  0
LINE
  8
0
  6
CONTINUOUS
 10
0.479442
 20
-4.771537
 30
0.0
 11
1.435637
 21
-4.771537
 31
0.0
  0
ARC
  8
0
  6
CONTINUOUS
 10
-0.156593
 20
-3.567279
 30
0.0
 40
1.204309
 50
90.0
 51
270.0
  0
LINE
  8
0
  6
CONTINUOUS
 10
-0.161557
 20
-4.77158
 30
0.0
 11
0.488041
 21
-4.77158
 31
0.0
  0
LINE
  8
0
  6
CONTINUOUS
 10
-0.162693
 20
-2.36297
 30
0.0
 11
0.486905
 21
-2.36297
 31
0.0
  0
ARC
  8
0
  6
CONTINUOUS
 10
-0.156593
 20
-1.165422
 30
0.0
 40
1.204309
 50
101.28465
 51
265.706237
  0
ENDBLK
  8
0
  0
BLOCK
  8
0
  2
BLC22
 70
     0
 10
0.0
 20
0.0
 30
0.0
  3
BLC22
  0
LINE
  8
HEL035
 10
0.0
 20
-0.00155
 30
0.0
 11
0.0
 21
9.99845
 31
0.0
  0
LINE
  8
21
 10
2.5
 20
10.0
 30
0.0
 11
5.0
 21
10.0
 31
0.0
  0
LINE
  8
HEL035
 10
0.0
 20
9.99845
 30
0.0
 11
2.5
 21
9.99845
 31
0.0
  0
LINE
  8
HEL035
 10
-2.5
 20
5.0
 30
0.0
 11
2.5
 21
5.0
 31
0.0
  0
LINE
  8
21
 10
2.5
 20
5.0
 30
0.0
 11
5.0
 21
5.0
 31
0.0
  0
LINE
  8
21
 10
5.0
 20
5.0
 30
0.0
 11
5.0
 21
7.9
 31
0.0
  0
LINE
  8
HEL035
 10
3.88095
 20
6.944425
 30
0.0
 11
4.560313
 21
6.008681
 31
0.0
  0
LINE
  8
21
 10
10.0
 20
10.0
 30
0.0
 11
4.2
 21
6.5
 31
0.0
  0
LINE
  8
HEL035
 10
2.5
 20
-0.00155
 30
0.0
 11
0.0
 21
-0.00155
 31
0.0
  0
LINE
  8
21
 10
2.5
 20
0.0
 30
0.0
 11
5.0
 21
0.0
 31
0.0
  0
ENDBLK
  8
0
  0
BLOCK
  8
0
  2
BLC18
 70
     0
 10
0.0
 20
0.0
 30
0.0
  3
BLC18
  0
LINE
  8
MUO
 10
-0.056268
 20
0.849555
 30
0.0
 11
8.307242
 21
9.215502
 31
0.0
  0
LINE
  8
MUO
 10
0.928025
 20
-0.107047
 30
0.0
 11
9.268386
 21
8.2307
 31
0.0
  0
LINE
  8
MUO
 10
-0.056268
 20
-0.107047
 30
0.0
 11
-0.056268
 21
9.215502
 31
0.0
  0
LINE
  8
MUO
 10
9.268386
 20
-0.107047
 30
0.0
 11
-0.056268
 21
-0.107047
 31
0.0
  0
LINE
  8
MUO
 10
9.268386
 20
9.215502
 30
0.0
 11
9.268386
 21
-0.107047
 31
0.0
  0
LINE
  8
MUO
 10
-0.056268
 20
9.215502
 30
0.0
 11
9.268386
 21
9.215502
 31
0.0
  0
ENDBLK
  8
0
  0
BLOCK
  8
0
  2
BLC29
 70
     0
 10
0.0
 20
0.0
 30
0.0
  3
BLC29
  0
LINE
  8
0
  6
CONTINUOUS
 10
0.004865
 20
1.206889
 30
0.0
 11
2.350631
 21
-0.128465
 31
0.0
  0
LINE
  8
0
  6
CONTINUOUS
 10
2.350631
 20
-0.128465
 30
0.0
 11
0.004865
 21
-1.318384
 31
0.0
  0
ENDBLK
  8
0
  0
BLOCK
  8
0
  2
WKU130
 70
     0
 10
190.0
 20
250.0
 30
0.0
  3
WKU130
  0
ARC
  8
21
 10
191.083333
 20
249.916667
 30
0.0
 40
1.086534
 50
32.471192
 51
175.601295
  0
ARC
  8
21
 10
192.916667
 20
251.083333
 30
0.0
 40
1.086534
 50
212.471192
 51
355.601295
  0
ENDBLK
  8
0
  0
BLOCK
  8
0
  2
BLC15
 70
     0
 10
0.0
 20
0.0
 30
0.0
  3
BLC15
  0
LINE
  8
0
  6
CONTINUOUS
 10
0.142084
 20
3.490022
 30
0.0
 11
0.142084
 21
0.844365
 31
0.0
  0
LINE
  8
0
  6
CONTINUOUS
 10
-0.461611
 20
-0.937188
 30
0.0
 11
0.745779
 21
-0.937188
 31
0.0
  0
LINE
  8
0
  6
CONTINUOUS
 10
-0.894108
 20
-0.049675
 30
0.0
 11
1.169267
 21
-0.049675
 31
0.0
  0
LINE
  8
0
  6
CONTINUOUS
 10
-1.389679
 20
0.844365
 30
0.0
 11
1.673848
 21
0.844365
 31
0.0
  0
ENDBLK
  8
0
  0
BLOCK
  8
0
  2
BLC5
 70
     0
 10
0.0
 20
0.0
 30
0.0
  3
BLC5
  0
TEXT
  8
0
 10
-3.043704
 20
-6.645912
 30
0.0
 40
3.2
  1
PE
  0
LINE
  8
0
 10
-2.946392
 20
1.181176
 30
0.0
 11
2.135458
 21
1.181176
 31
0.0
  0
LINE
  8
0
 10
-0.48656
 20
2.238362
 30
0.0
 11
-0.48656
 21
6.930438
 31
0.0
  0
LINE
  8
0
 10
-1.973271
 20
0.065258
 30
0.0
 11
1.225411
 21
0.065258
 31
0.0
  0
LINE
  8
0
 10
2.685091
 20
2.238362
 30
0.0
 11
1.68494
 21
2.238362
 31
0.0
  0
LINE
  8
0
 10
-3.505035
 20
2.238362
 30
0.0
 11
2.649049
 21
2.238362
 31
0.0
  0
CIRCLE
  8
0
 10
-0.47755
 20
1.422632
 30
0.0
 40
3.804563
  0
ENDBLK
  8
0
  0
BLOCK
  8
0
  2
BLC25
 70
     0
 10
0.0
 20
0.0
 30
0.0
  3
BLC25
  0
TEXT
  8
0
  6
CONTINUOUS
 10
2.0
 20
30.666667
 30
0.0
 40
2.0
  1
1)
 11
2.0
 21
30.0
 31
0.0
 73
     1
  0
TEXT
  8
0
 10
6.0
 20
2.0
 30
0.0
 40
2.0
  1
7B    27     26
 11
6.0
 21
1.333333
 31
0.0
 73
     1
  0
TEXT
  8
0
 10
6.0
 20
5.333333
 30
0.0
 40
2.0
  1
5B     9      8
 11
6.0
 21
4.666667
 31
0.0
 73
     1
  0
TEXT
  8
0
 10
6.0
 20
8.666667
 30
0.0
 40
2.0
  1
3B     3      2
 11
6.0
 21
8.0
 31
0.0
 73
     1
  0
TEXT
  8
0
 10
32.0
 20
12.666667
 30
0.0
 40
2.0
  1
In=5A
 11
32.0
 21
12.0
 31
0.0
 73
     1
  0
TEXT
  8
0
 10
16.0
 20
12.666667
 30
0.0
 40
2.0
  1
In=1A 
 11
16.0
 21
12.0
 31
0.0
 73
     1
  0
TEXT
  8
0
 10
26.0
 20
18.666667
 30
0.0
 40
2.0
  1
108:
 11
26.0
 21
18.0
 31
0.0
 73
     1
  0
TEXT
  8
0
 10
6.0
 20
18.666667
 30
0.0
 40
2.0
  1
101:       
 11
6.0
 21
18.0
 31
0.0
 73
     1
  0
TEXT
  8
0
 10
6.0
 20
24.666667
 30
0.0
 40
2.0
  1
TERMINALS / UTTAG
 11
6.0
 21
24.0
 31
0.0
 73
     1
  0
LINE
  8
0
 10
0.0
 20
12.0
 30
0.0
 11
44.0
 21
12.0
 31
0.0
  0
LINE
  8
0
 10
28.0
 20
18.0
 30
0.0
 11
28.0
 21
0.0
 31
0.0
  0
LINE
  8
0
 10
14.0
 20
18.0
 30
0.0
 11
44.0
 21
18.0
 31
0.0
  0
LINE
  8
0
 10
14.0
 20
24.0
 30
0.0
 11
14.0
 21
0.0
 31
0.0
  0
LINE
  8
0
 10
0.0
 20
24.0
 30
0.0
 11
44.0
 21
24.0
 31
0.0
  0
LINE
  8
0
 10
44.0
 20
0.0
 30
0.0
 11
44.0
 21
30.0
 31
0.0
  0
LINE
  8
0
 10
0.0
 20
0.0
 30
0.0
 11
44.0
 21
0.0
 31
0.0
  0
LINE
  8
0
 10
0.0
 20
30.0
 30
0.0
 11
0.0
 21
0.0
 31
0.0
  0
LINE
  8
0
 10
44.0
 20
30.0
 30
0.0
 11
0.0
 21
30.0
 31
0.0
  0
ENDBLK
  8
0
  0
BLOCK
  8
0
  2
*X12
 70
    65
 10
0.0
 20
0.0
 30
0.0
  3
*X
  0
LINE
  8
0
  6
CONTINUOUS
 62
     0
 10
78.706597
 20
140.0
 30
0.0
 11
80.0
 21
140.0
 31
0.0
  0
ENDBLK
  8
0
  0
BLOCK
  8
0
  2
ABBA3V
 70
    64
 10
0.0
 20
0.0
 30
0.0
  3
ABBA3V
  0
TEXT
  8
RAAMI
  6
DASHED
 10
292.217194
 20
11.813359
 30
0.0
 40
3.0
  1
A3
  7
GREEKS
  0
TEXT
  8
RAAMI
  6
DASHED
 10
351.818577
 20
15.69253
 30
0.0
 40
1.4
  1
LEHTI SHEET
  7
GREEKS
  0
LINE
  8
PAKSU
 10
0.237099
 20
262.737999
 30
0.0
 11
392.237099
 21
262.737999
 31
0.0
  0
LINE
  8
RAAMI
 10
18.237099
 20
0.237999
 30
0.0
 11
0.237099
 21
0.237999
 31
0.0
  0
LINE
  8
PAKSU
 10
209.237099
 20
0.237999
 30
0.0
 11
392.237099
 21
0.237999
 31
0.0
  0
LINE
  8
PAKSU
 10
209.237099
 20
0.237999
 30
0.0
 11
209.237099
 21
35.237999
 31
0.0
  0
LINE
  8
PAKSU
 10
392.237099
 20
0.237999
 30
0.0
 11
392.237099
 21
35.237999
 31
0.0
  0
LINE
  8
OHUT
 10
209.237099
 20
18.237999
 30
0.0
 11
392.237099
 21
18.237999
 31
0.0
  0
LINE
  8
OHUT
 10
209.237099
 20
9.737999
 30
0.0
 11
392.237099
 21
9.737999
 31
0.0
  0
LINE
  8
OHUT
 10
209.237099
 20
26.737999
 30
0.0
 11
307.237099
 21
26.737999
 31
0.0
  0
LINE
  8
PAKSU
 10
209.237099
 20
35.237999
 30
0.0
 11
392.237099
 21
35.237999
 31
0.0
  0
TEXT
  8
RAAMI
 10
210.237099
 20
23.971333
 30
0.0
 40
1.4
  1
TARKASTI  CHECKED
  7
ROMANS
  0
TEXT
  8
RAAMI
 10
209.979934
 20
15.704666
 30
0.0
 40
1.4
  1
HYVÄKSYI  APPROVED
  7
ROMANS
  0
LINE
  8
OHUT
 10
307.237099
 20
0.237999
 30
0.0
 11
307.237099
 21
35.237999
 31
0.0
  0
TEXT
  8
RAAMI
 10
259.237099
 20
32.737999
 30
0.0
 40
1.4
  1
LIITTYY  CONCERNING
  7
ROMANS
  0
TEXT
  8
RAAMI
 10
259.237099
 20
23.737999
 30
0.0
 40
1.4
  1
TOLERANSSIT  TOLERANCES
  7
ROMANS
  0
TEXT
  8
RAAMI
 10
259.237099
 20
15.737999
 30
0.0
 40
1.4
  1
SUHDE  SCALE
  7
ROMANS
  0
TEXT
  8
RAAMI
 10
309.237099
 20
32.737999
 30
0.0
 40
1.4
  1
NIMITYS  NAME
  7
ROMANS
  0
TEXT
  8
RAAMI
 10
309.237099
 20
15.737999
 30
0.0
 40
1.4
  1
KOODI  CODE
  7
ROMANS
  0
TEXT
  8
RAAMI
 10
309.237099
 20
7.237999
 30
0.0
 40
1.4
  1
PIIRUSTUS NO  DRAWING NR
  7
ROMANS
  0
LINE
  8
OHUT
 10
349.737099
 20
9.737999
 30
0.0
 11
349.737099
 21
18.237999
 31
0.0
  0
TEXT
  8
RAAMI
 10
371.237099
 20
7.237999
 30
0.0
 40
1.4
  1
PAINOS  REVISION
  7
ROMANS
  0
LINE
  8
OHUT
 10
369.737099
 20
9.737999
 30
0.0
 11
369.737099
 21
0.237999
 31
0.0
  0
LINE
  8
RAAMI
 10
210.187099
 20
1.737999
 30
0.0
 11
211.937099
 21
1.737999
 31
0.0
  0
LINE
  8
RAAMI
 10
215.437099
 20
1.737999
 30
0.0
 11
217.187099
 21
1.737999
 31
0.0
  0
LINE
  8
RAAMI
 10
212.637099
 20
8.737999
 30
0.0
 11
211.459571
 21
5.373634
 31
0.0
  0
LINE
  8
RAAMI
 10
212.425886
 20
3.137999
 30
0.0
 11
213.547099
 21
3.137999
 31
0.0
  0
LINE
  8
RAAMI
 10
212.425889
 20
3.134542
 30
0.0
 11
211.937099
 21
1.737999
 31
0.0
  0
LINE
  8
RAAMI
 10
214.737099
 20
8.737999
 30
0.0
 11
215.913452
 21
5.376991
 31
0.0
  0
LINE
  8
RAAMI
 10
214.948197
 20
3.134863
 30
0.0
 11
215.437099
 21
1.737999
 31
0.0
  0
LINE
  8
RAAMI
 10
214.737099
 20
8.737999
 30
0.0
 11
213.827099
 21
8.737999
 31
0.0
  0
LINE
  8
RAAMI
 10
213.547099
 20
8.737999
 30
0.0
 11
213.547099
 21
5.377999
 31
0.0
  0
LINE
  8
RAAMI
 10
213.827099
 20
8.737999
 30
0.0
 11
213.827099
 21
5.377999
 31
0.0
  0
LINE
  8
RAAMI
 10
213.827099
 20
3.137999
 30
0.0
 11
214.946992
 21
3.137999
 31
0.0
  0
LINE
  8
RAAMI
 10
213.547099
 20
8.737999
 30
0.0
 11
212.637099
 21
8.737999
 31
0.0
  0
LINE
  8
RAAMI
 10
211.45904
 20
5.377999
 30
0.0
 11
213.547099
 21
5.377999
 31
0.0
  0
LINE
  8
RAAMI
 10
211.360082
 20
5.097999
 30
0.0
 11
213.547099
 21
5.097999
 31
0.0
  0
LINE
  8
RAAMI
 10
216.011591
 20
5.096594
 30
0.0
 11
217.187099
 21
1.737999
 31
0.0
  0
LINE
  8
RAAMI
 10
213.827099
 20
5.377999
 30
0.0
 11
215.912213
 21
5.377999
 31
0.0
  0
LINE
  8
RAAMI
 10
213.827099
 20
5.097999
 30
0.0
 11
216.010356
 21
5.097999
 31
0.0
  0
LINE
  8
RAAMI
 10
213.827099
 20
5.097999
 30
0.0
 11
213.827099
 21
3.137999
 31
0.0
  0
LINE
  8
RAAMI
 10
213.547099
 20
5.097999
 30
0.0
 11
213.547099
 21
3.137999
 31
0.0
  0
LINE
  8
RAAMI
 10
211.356988
 20
5.080538
 30
0.0
 11
210.187099
 21
1.737999
 31
0.0
  0
INSERT
  8
RAAMI
  2
*X14
 10
210.187099
 20
1.737999
 30
0.0
 41
0.7
 42
0.7
 43
0.7
  0
INSERT
  8
RAAMI
  2
*X15
 10
210.187099
 20
1.737999
 30
0.0
 41
0.7
 42
0.7
 43
0.7
  0
INSERT
  8
RAAMI
  2
*X16
 10
210.187099
 20
1.737999
 30
0.0
 41
0.7
 42
0.7
 43
0.7
  0
INSERT
  8
RAAMI
  2
*X17
 10
210.187099
 20
1.737999
 30
0.0
 41
0.7
 42
0.7
 43
0.7
  0
LINE
  8
RAAMI
 10
217.677099
 20
1.737999
 30
0.0
 11
217.677099
 21
5.097999
 31
0.0
  0
LINE
  8
RAAMI
 10
217.677099
 20
8.737999
 30
0.0
 11
219.637099
 21
8.737999
 31
0.0
  0
LINE
  8
RAAMI
 10
219.637099
 20
8.737999
 30
0.0
 11
219.637099
 21
5.377999
 31
0.0
  0
LINE
  8
RAAMI
 10
219.637099
 20
5.377999
 30
0.0
 11
217.677099
 21
5.377999
 31
0.0
  0
LINE
  8
RAAMI
 10
217.677099
 20
5.097999
 30
0.0
 11
219.637099
 21
5.097999
 31
0.0
  0
LINE
  8
RAAMI
 10
219.637099
 20
5.097999
 30
0.0
 11
219.637099
 21
1.737999
 31
0.0
  0
LINE
  8
RAAMI
 10
219.637099
 20
1.737999
 30
0.0
 11
217.677099
 21
1.737999
 31
0.0
  0
LINE
  8
RAAMI
 10
217.677099
 20
5.377999
 30
0.0
 11
217.677099
 21
8.737999
 31
0.0
  0
ARC
  8
RAAMI
 10
220.477099
 20
7.162999
 30
0.0
 40
1.575
 50
298.455859
 51
90.052437
  0
LINE
  8
RAAMI
 10
219.917099
 20
8.737999
 30
0.0
 11
220.475658
 21
8.737999
 31
0.0
  0
LINE
  8
RAAMI
 10
219.917099
 20
8.737999
 30
0.0
 11
219.917099
 21
5.377999
 31
0.0
  0
LINE
  8
RAAMI
 10
219.917099
 20
5.377999
 30
0.0
 11
221.901542
 21
5.377999
 31
0.0
  0
LINE
  8
RAAMI
 10
222.157099
 20
5.097999
 30
0.0
 11
219.917099
 21
5.097999
 31
0.0
  0
LINE
  8
RAAMI
 10
219.917099
 20
5.097999
 30
0.0
 11
219.917099
 21
1.737999
 31
0.0
  0
ARC
  8
RAAMI
 10
220.477099
 20
3.837999
 30
0.0
 40
2.1
 50
269.937724
 51
37.056553
  0
LINE
  8
RAAMI
 10
219.917099
 20
1.737999
 30
0.0
 11
220.474817
 21
1.738
 31
0.0
  0
ARC
  8
RAAMI
 10
220.477099
 20
3.837999
 30
0.0
 40
2.1
 50
47.28622
 51
68.787999
  0
INSERT
  8
RAAMI
  2
*X18
 10
210.187099
 20
1.737999
 30
0.0
 41
0.7
 42
0.7
 43
0.7
  0
INSERT
  8
RAAMI
  2
*X19
 10
210.187099
 20
1.737999
 30
0.0
 41
0.7
 42
0.7
 43
0.7
  0
INSERT
  8
RAAMI
  2
*X20
 10
210.187099
 20
1.737999
 30
0.0
 41
0.7
 42
0.7
 43
0.7
  0
INSERT
  8
RAAMI
  2
*X21
 10
210.187099
 20
1.737999
 30
0.0
 41
0.7
 42
0.7
 43
0.7
  0
INSERT
  8
RAAMI
  2
*X21
 10
215.647099
 20
1.737999
 30
0.0
 41
0.7
 42
0.7
 43
0.7
  0
INSERT
  8
RAAMI
  2
*X20
 10
215.647099
 20
1.737999
 30
0.0
 41
0.7
 42
0.7
 43
0.7
  0
INSERT
  8
RAAMI
  2
*X19
 10
215.647099
 20
1.737999
 30
0.0
 41
0.7
 42
0.7
 43
0.7
  0
INSERT
  8
RAAMI
  2
*X18
 10
215.647099
 20
1.737999
 30
0.0
 41
0.7
 42
0.7
 43
0.7
  0
ARC
  8
RAAMI
 10
225.937099
 20
3.837999
 30
0.0
 40
2.1
 50
47.28622
 51
68.787999
  0
LINE
  8
RAAMI
 10
225.377099
 20
1.737999
 30
0.0
 11
225.934817
 21
1.738
 31
0.0
  0
ARC
  8
RAAMI
 10
225.937099
 20
3.837999
 30
0.0
 40
2.1
 50
269.937724
 51
37.056553
  0
LINE
  8
RAAMI
 10
225.377099
 20
5.097999
 30
0.0
 11
225.377099
 21
1.737999
 31
0.0
  0
LINE
  8
RAAMI
 10
227.617099
 20
5.097999
 30
0.0
 11
225.377099
 21
5.097999
 31
0.0
  0
LINE
  8
RAAMI
 10
225.377099
 20
5.377999
 30
0.0
 11
227.361542
 21
5.377999
 31
0.0
  0
LINE
  8
RAAMI
 10
225.377099
 20
8.737999
 30
0.0
 11
225.377099
 21
5.377999
 31
0.0
  0
LINE
  8
RAAMI
 10
225.377099
 20
8.737999
 30
0.0
 11
225.935658
 21
8.737999
 31
0.0
  0
ARC
  8
RAAMI
 10
225.937099
 20
7.162999
 30
0.0
 40
1.575
 50
298.455859
 51
90.052437
  0
LINE
  8
RAAMI
 10
223.137099
 20
5.377999
 30
0.0
 11
223.137099
 21
8.737999
 31
0.0
  0
LINE
  8
RAAMI
 10
225.097099
 20
1.737999
 30
0.0
 11
223.137099
 21
1.737999
 31
0.0
  0
LINE
  8
RAAMI
 10
225.097099
 20
5.097999
 30
0.0
 11
225.097099
 21
1.737999
 31
0.0
  0
LINE
  8
RAAMI
 10
223.137099
 20
5.097999
 30
0.0
 11
225.097099
 21
5.097999
 31
0.0
  0
LINE
  8
RAAMI
 10
225.097099
 20
5.377999
 30
0.0
 11
223.137099
 21
5.377999
 31
0.0
  0
LINE
  8
RAAMI
 10
225.097099
 20
8.737999
 30
0.0
 11
225.097099
 21
5.377999
 31
0.0
  0
LINE
  8
RAAMI
 10
223.137099
 20
8.737999
 30
0.0
 11
225.097099
 21
8.737999
 31
0.0
  0
LINE
  8
RAAMI
 10
223.137099
 20
1.737999
 30
0.0
 11
223.137099
 21
5.097999
 31
0.0
  0
TEXT
  8
RAAMI
 10
229.737099
 20
1.737999
 30
0.0
 40
3.0
  1
ABB 
 41
0.8
  7
ROMANS
  0
TEXT
  8
RAAMI
 10
237.737099
 20
1.737999
 30
0.0
 40
3.0
  1
Strömberg
 41
0.8
  7
ROMANS
  0
LINE
  8
OHUT
 10
282.237099
 20
9.737999
 30
0.0
 11
282.237099
 21
18.237999
 31
0.0
  0
TEXT
  8
RAAMI
 10
27.737099
 20
4.737999
 30
0.0
 40
1.4
  1
MUUTOS
  7
ROMANS
  0
TEXT
  8
RAAMI
 10
27.737099
 20
2.471333
 30
0.0
 40
1.4
  1
REVISION
  7
ROMANS
  0
LINE
  8
OHUT
 10
46.737099
 20
9.237999
 30
0.0
 11
209.237099
 21
9.237999
 31
0.0
  0
LINE
  8
OHUT
 10
46.737099
 20
0.237999
 30
0.0
 11
46.737099
 21
9.237999
 31
0.0
  0
LINE
  8
OHUT
 10
40.737099
 20
4.737999
 30
0.0
 11
209.237099
 21
4.737999
 31
0.0
  0
LINE
  8
OHUT
 10
257.237099
 20
9.737999
 30
0.0
 11
257.237099
 21
35.237999
 31
0.0
  0
LINE
  8
OHUT
 10
271.237099
 20
9.737999
 30
0.0
 11
271.237099
 21
0.237999
 31
0.0
  0
TEXT
  8
RAAMI
 10
210.237099
 20
32.237999
 30
0.0
 40
1.4
  1
TEKI  PREPARED
  7
ROMANS
  0
TEXT
  8
RAAMI
 10
273.237099
 20
7.237999
 30
0.0
 40
1.4
  1
VAST.OSASTO RESP.DEPT.
  7
ROMANS
  0
TEXT
  8
RAAMI
 10
257.407006
 20
1.741783
 30
0.0
 40
3.0
  1
Power
 41
0.8
  7
ROMANS
  0
TEXT
  8
RAAMI
 10
42.237099
 20
1.195292
 30
0.0
 40
2.5
  1
B
  7
ROMANS
  0
TEXT
  8
RAAMI
 10
42.237099
 20
5.587508
 30
0.0
 40
2.5
  1
C
  7
ROMANS
  0
LINE
  8
PAKSU
 10
0.237099
 20
0.237999
 30
0.0
 11
392.237099
 21
0.237999
 31
0.0
  0
LINE
  8
PAKSU
 10
392.237099
 20
262.737999
 30
0.0
 11
392.237099
 21
0.237999
 31
0.0
  0
LINE
  8
PAKSU
 10
0.237099
 20
0.237999
 30
0.0
 11
0.237099
 21
262.737999
 31
0.0
  0
ENDBLK
  8
0
  0
BLOCK
  8
0
  2
*X14
 70
    65
 10
0.0
 20
0.0
 30
0.0
  3
*X
  0
LINE
  8
0
 62
     0
 10
2.284499
 20
6.52714
 30
0.0
 11
4.8
 21
9.042641
 31
0.0
  0
LINE
  8
0
 62
     0
 10
2.379686
 20
6.799104
 30
0.0
 11
4.8
 21
9.219417
 31
0.0
  0
LINE
  8
0
 62
     0
 10
2.474874
 20
7.071068
 30
0.0
 11
4.8
 21
9.396194
 31
0.0
  0
LINE
  8
0
 62
     0
 10
2.570061
 20
7.343032
 30
0.0
 11
4.8
 21
9.572971
 31
0.0
  0
LINE
  8
0
 62
     0
 10
2.665249
 20
7.614996
 30
0.0
 11
4.8
 21
9.749747
 31
0.0
  0
LINE
  8
0
 62
     0
 10
2.760436
 20
7.88696
 30
0.0
 11
4.8
 21
9.926524
 31
0.0
  0
LINE
  8
0
 62
     0
 10
2.855624
 20
8.158924
 30
0.0
 11
4.696699
 21
10.0
 31
0.0
  0
LINE
  8
0
 62
     0
 10
2.950811
 20
8.430889
 30
0.0
 11
4.519922
 21
10.0
 31
0.0
  0
LINE
  8
0
 62
     0
 10
3.045998
 20
8.702853
 30
0.0
 11
4.343146
 21
10.0
 31
0.0
  0
LINE
  8
0
 62
     0
 10
3.141186
 20
8.974817
 30
0.0
 11
4.166369
 21
10.0
 31
0.0
  0
LINE
  8
0
 62
     0
 10
3.236373
 20
9.246781
 30
0.0
 11
3.989592
 21
10.0
 31
0.0
  0
LINE
  8
0
 62
     0
 10
3.331561
 20
9.518745
 30
0.0
 11
3.812816
 21
10.0
 31
0.0
  0
LINE
  8
0
 62
     0
 10
3.426748
 20
9.790709
 30
0.0
 11
3.636039
 21
10.0
 31
0.0
  0
LINE
  8
0
 62
     0
 10
2.189311
 20
6.255175
 30
0.0
 11
4.8
 21
8.865864
 31
0.0
  0
LINE
  8
0
 62
     0
 10
2.094124
 20
5.983211
 30
0.0
 11
4.8
 21
8.689087
 31
0.0
  0
LINE
  8
0
 62
     0
 10
1.998936
 20
5.711247
 30
0.0
 11
4.8
 21
8.512311
 31
0.0
  0
LINE
  8
0
 62
     0
 10
1.903749
 20
5.439283
 30
0.0
 11
4.8
 21
8.335534
 31
0.0
  0
LINE
  8
0
 62
     0
 10
1.841243
 20
5.2
 30
0.0
 11
4.8
 21
8.158757
 31
0.0
  0
LINE
  8
0
 62
     0
 10
2.018019
 20
5.2
 30
0.0
 11
4.8
 21
7.981981
 31
0.0
  0
LINE
  8
0
 62
     0
 10
2.194796
 20
5.2
 30
0.0
 11
4.8
 21
7.805204
 31
0.0
  0
LINE
  8
0
 62
     0
 10
2.371573
 20
5.2
 30
0.0
 11
4.8
 21
7.628427
 31
0.0
  0
LINE
  8
0
 62
     0
 10
2.54835
 20
5.2
 30
0.0
 11
4.8
 21
7.45165
 31
0.0
  0
LINE
  8
0
 62
     0
 10
2.725126
 20
5.2
 30
0.0
 11
4.8
 21
7.274874
 31
0.0
  0
LINE
  8
0
 62
     0
 10
2.901903
 20
5.2
 30
0.0
 11
4.8
 21
7.098097
 31
0.0
  0
LINE
  8
0
 62
     0
 10
3.07868
 20
5.2
 30
0.0
 11
4.8
 21
6.92132
 31
0.0
  0
LINE
  8
0
 62
     0
 10
3.255456
 20
5.2
 30
0.0
 11
4.8
 21
6.744544
 31
0.0
  0
LINE
  8
0
 62
     0
 10
3.432233
 20
5.2
 30
0.0
 11
4.8
 21
6.567767
 31
0.0
  0
LINE
  8
0
 62
     0
 10
3.60901
 20
5.2
 30
0.0
 11
4.8
 21
6.39099
 31
0.0
  0
LINE
  8
0
 62
     0
 10
3.785786
 20
5.2
 30
0.0
 11
4.8
 21
6.214214
 31
0.0
  0
LINE
  8
0
 62
     0
 10
3.962563
 20
5.2
 30
0.0
 11
4.8
 21
6.037437
 31
0.0
  0
LINE
  8
0
 62
     0
 10
4.13934
 20
5.2
 30
0.0
 11
4.8
 21
5.86066
 31
0.0
  0
LINE
  8
0
 62
     0
 10
4.316117
 20
5.2
 30
0.0
 11
4.8
 21
5.683883
 31
0.0
  0
LINE
  8
0
 62
     0
 10
4.492893
 20
5.2
 30
0.0
 11
4.8
 21
5.507107
 31
0.0
  0
LINE
  8
0
 62
     0
 10
4.66967
 20
5.2
 30
0.0
 11
4.8
 21
5.33033
 31
0.0
  0
ENDBLK
  8
0
  0
BLOCK
  8
0
  2
*X15
 70
    65
 10
0.0
 20
0.0
 30
0.0
  3
*X
  0
LINE
  8
0
 62
     0
 10
5.2
 20
6.083883
 30
0.0
 11
7.178252
 21
8.062136
 31
0.0
  0
LINE
  8
0
 62
     0
 10
5.2
 20
6.26066
 30
0.0
 11
7.132421
 21
8.193082
 31
0.0
  0
LINE
  8
0
 62
     0
 10
5.2
 20
6.437437
 30
0.0
 11
7.08659
 21
8.324027
 31
0.0
  0
LINE
  8
0
 62
     0
 10
5.2
 20
6.614214
 30
0.0
 11
7.040759
 21
8.454973
 31
0.0
  0
LINE
  8
0
 62
     0
 10
5.2
 20
6.79099
 30
0.0
 11
6.994928
 21
8.585919
 31
0.0
  0
LINE
  8
0
 62
     0
 10
5.2
 20
6.967767
 30
0.0
 11
6.949097
 21
8.716864
 31
0.0
  0
LINE
  8
0
 62
     0
 10
5.2
 20
7.144544
 30
0.0
 11
6.903266
 21
8.84781
 31
0.0
  0
LINE
  8
0
 62
     0
 10
5.2
 20
7.32132
 30
0.0
 11
6.857435
 21
8.978756
 31
0.0
  0
LINE
  8
0
 62
     0
 10
5.2
 20
7.498097
 30
0.0
 11
6.811604
 21
9.109702
 31
0.0
  0
LINE
  8
0
 62
     0
 10
5.2
 20
7.674874
 30
0.0
 11
6.765773
 21
9.240647
 31
0.0
  0
LINE
  8
0
 62
     0
 10
5.2
 20
7.85165
 30
0.0
 11
6.719942
 21
9.371593
 31
0.0
  0
LINE
  8
0
 62
     0
 10
5.2
 20
8.028427
 30
0.0
 11
6.674111
 21
9.502539
 31
0.0
  0
LINE
  8
0
 62
     0
 10
5.2
 20
8.205204
 30
0.0
 11
6.62828
 21
9.633484
 31
0.0
  0
LINE
  8
0
 62
     0
 10
5.2
 20
8.381981
 30
0.0
 11
6.582449
 21
9.76443
 31
0.0
  0
LINE
  8
0
 62
     0
 10
5.2
 20
8.558757
 30
0.0
 11
6.536619
 21
9.895376
 31
0.0
  0
LINE
  8
0
 62
     0
 10
5.2
 20
8.735534
 30
0.0
 11
6.464466
 21
10.0
 31
0.0
  0
LINE
  8
0
 62
     0
 10
5.2
 20
8.912311
 30
0.0
 11
6.287689
 21
10.0
 31
0.0
  0
LINE
  8
0
 62
     0
 10
5.2
 20
9.089087
 30
0.0
 11
6.110913
 21
10.0
 31
0.0
  0
LINE
  8
0
 62
     0
 10
5.2
 20
9.265864
 30
0.0
 11
5.934136
 21
10.0
 31
0.0
  0
LINE
  8
0
 62
     0
 10
5.2
 20
9.442641
 30
0.0
 11
5.757359
 21
10.0
 31
0.0
  0
LINE
  8
0
 62
     0
 10
5.2
 20
9.619417
 30
0.0
 11
5.580583
 21
10.0
 31
0.0
  0
LINE
  8
0
 62
     0
 10
5.2
 20
9.796194
 30
0.0
 11
5.403806
 21
10.0
 31
0.0
  0
LINE
  8
0
 62
     0
 10
5.2
 20
9.972971
 30
0.0
 11
5.227029
 21
10.0
 31
0.0
  0
LINE
  8
0
 62
     0
 10
5.2
 20
5.907107
 30
0.0
 11
7.224083
 21
7.93119
 31
0.0
  0
LINE
  8
0
 62
     0
 10
5.2
 20
5.73033
 30
0.0
 11
7.269914
 21
7.800245
 31
0.0
  0
LINE
  8
0
 62
     0
 10
5.2
 20
5.553553
 30
0.0
 11
7.315745
 21
7.669299
 31
0.0
  0
LINE
  8
0
 62
     0
 10
5.2
 20
5.376777
 30
0.0
 11
7.361576
 21
7.538353
 31
0.0
  0
LINE
  8
0
 62
     0
 10
5.2
 20
5.2
 30
0.0
 11
7.407407
 21
7.407407
 31
0.0
  0
LINE
  8
0
 62
     0
 10
5.376777
 20
5.2
 30
0.0
 11
7.453238
 21
7.276462
 31
0.0
  0
LINE
  8
0
 62
     0
 10
5.553553
 20
5.2
 30
0.0
 11
7.499069
 21
7.145516
 31
0.0
  0
LINE
  8
0
 62
     0
 10
5.73033
 20
5.2
 30
0.0
 11
7.5449
 21
7.01457
 31
0.0
  0
LINE
  8
0
 62
     0
 10
5.907107
 20
5.2
 30
0.0
 11
7.590731
 21
6.883625
 31
0.0
  0
LINE
  8
0
 62
     0
 10
6.083883
 20
5.2
 30
0.0
 11
7.636562
 21
6.752679
 31
0.0
  0
LINE
  8
0
 62
     0
 10
6.26066
 20
5.2
 30
0.0
 11
7.682393
 21
6.621733
 31
0.0
  0
LINE
  8
0
 62
     0
 10
6.437437
 20
5.2
 30
0.0
 11
7.728224
 21
6.490788
 31
0.0
  0
LINE
  8
0
 62
     0
 10
6.614214
 20
5.2
 30
0.0
 11
7.774055
 21
6.359842
 31
0.0
  0
LINE
  8
0
 62
     0
 10
6.79099
 20
5.2
 30
0.0
 11
7.819886
 21
6.228896
 31
0.0
  0
LINE
  8
0
 62
     0
 10
6.967767
 20
5.2
 30
0.0
 11
7.865717
 21
6.09795
 31
0.0
  0
LINE
  8
0
 62
     0
 10
7.144544
 20
5.2
 30
0.0
 11
7.911548
 21
5.967005
 31
0.0
  0
LINE
  8
0
 62
     0
 10
7.32132
 20
5.2
 30
0.0
 11
7.957379
 21
5.836059
 31
0.0
  0
LINE
  8
0
 62
     0
 10
7.498097
 20
5.2
 30
0.0
 11
8.00321
 21
5.705113
 31
0.0
  0
LINE
  8
0
 62
     0
 10
7.674874
 20
5.2
 30
0.0
 11
8.049041
 21
5.574168
 31
0.0
  0
LINE
  8
0
 62
     0
 10
7.85165
 20
5.2
 30
0.0
 11
8.094872
 21
5.443222
 31
0.0
  0
LINE
  8
0
 62
     0
 10
8.028427
 20
5.2
 30
0.0
 11
8.140703
 21
5.312276
 31
0.0
  0
ENDBLK
  8
0
  0
BLOCK
  8
0
  2
*X16
 70
    65
 10
0.0
 20
0.0
 30
0.0
  3
*X
  0
LINE
  8
0
 62
     0
 10
0.0
 20
0.0
 30
0.0
 11
4.8
 21
4.8
 31
0.0
  0
LINE
  8
0
 62
     0
 10
0.095187
 20
0.271964
 30
0.0
 11
4.623223
 21
4.8
 31
0.0
  0
LINE
  8
0
 62
     0
 10
0.190375
 20
0.543928
 30
0.0
 11
4.446447
 21
4.8
 31
0.0
  0
LINE
  8
0
 62
     0
 10
0.285562
 20
0.815892
 30
0.0
 11
4.26967
 21
4.8
 31
0.0
  0
LINE
  8
0
 62
     0
 10
0.38075
 20
1.087857
 30
0.0
 11
4.092893
 21
4.8
 31
0.0
  0
LINE
  8
0
 62
     0
 10
0.475937
 20
1.359821
 30
0.0
 11
3.916117
 21
4.8
 31
0.0
  0
LINE
  8
0
 62
     0
 10
0.571125
 20
1.631785
 30
0.0
 11
3.73934
 21
4.8
 31
0.0
  0
LINE
  8
0
 62
     0
 10
0.666312
 20
1.903749
 30
0.0
 11
3.562563
 21
4.8
 31
0.0
  0
LINE
  8
0
 62
     0
 10
0.7615
 20
2.175713
 30
0.0
 11
3.385786
 21
4.8
 31
0.0
  0
LINE
  8
0
 62
     0
 10
0.856687
 20
2.447677
 30
0.0
 11
3.20901
 21
4.8
 31
0.0
  0
LINE
  8
0
 62
     0
 10
0.951875
 20
2.719641
 30
0.0
 11
3.032233
 21
4.8
 31
0.0
  0
LINE
  8
0
 62
     0
 10
1.047062
 20
2.991606
 30
0.0
 11
2.855456
 21
4.8
 31
0.0
  0
LINE
  8
0
 62
     0
 10
1.142249
 20
3.26357
 30
0.0
 11
2.67868
 21
4.8
 31
0.0
  0
LINE
  8
0
 62
     0
 10
1.237437
 20
3.535534
 30
0.0
 11
2.501903
 21
4.8
 31
0.0
  0
LINE
  8
0
 62
     0
 10
1.332624
 20
3.807498
 30
0.0
 11
2.325126
 21
4.8
 31
0.0
  0
LINE
  8
0
 62
     0
 10
1.427812
 20
4.079462
 30
0.0
 11
2.14835
 21
4.8
 31
0.0
  0
LINE
  8
0
 62
     0
 10
1.522999
 20
4.351426
 30
0.0
 11
1.971573
 21
4.8
 31
0.0
  0
LINE
  8
0
 62
     0
 10
1.618187
 20
4.62339
 30
0.0
 11
1.794796
 21
4.8
 31
0.0
  0
LINE
  8
0
 62
     0
 10
0.176777
 20
0.0
 30
0.0
 11
4.8
 21
4.623223
 31
0.0
  0
LINE
  8
0
 62
     0
 10
0.353553
 20
0.0
 30
0.0
 11
4.8
 21
4.446447
 31
0.0
  0
LINE
  8
0
 62
     0
 10
0.53033
 20
0.0
 30
0.0
 11
4.8
 21
4.26967
 31
0.0
  0
LINE
  8
0
 62
     0
 10
0.707107
 20
0.0
 30
0.0
 11
4.8
 21
4.092893
 31
0.0
  0
LINE
  8
0
 62
     0
 10
0.883883
 20
0.0
 30
0.0
 11
4.8
 21
3.916117
 31
0.0
  0
LINE
  8
0
 62
     0
 10
1.06066
 20
0.0
 30
0.0
 11
4.8
 21
3.73934
 31
0.0
  0
LINE
  8
0
 62
     0
 10
1.237437
 20
0.0
 30
0.0
 11
3.179842
 21
1.942405
 31
0.0
  0
LINE
  8
0
 62
     0
 10
3.237437
 20
2.0
 30
0.0
 11
4.8
 21
3.562563
 31
0.0
  0
LINE
  8
0
 62
     0
 10
1.414214
 20
0.0
 30
0.0
 11
3.084654
 21
1.670441
 31
0.0
  0
LINE
  8
0
 62
     0
 10
3.414214
 20
2.0
 30
0.0
 11
4.8
 21
3.385786
 31
0.0
  0
LINE
  8
0
 62
     0
 10
1.59099
 20
0.0
 30
0.0
 11
2.989467
 21
1.398477
 31
0.0
  0
LINE
  8
0
 62
     0
 10
3.59099
 20
2.0
 30
0.0
 11
4.8
 21
3.20901
 31
0.0
  0
LINE
  8
0
 62
     0
 10
1.767767
 20
0.0
 30
0.0
 11
2.894279
 21
1.126512
 31
0.0
  0
LINE
  8
0
 62
     0
 10
3.767767
 20
2.0
 30
0.0
 11
4.8
 21
3.032233
 31
0.0
  0
LINE
  8
0
 62
     0
 10
1.944544
 20
0.0
 30
0.0
 11
2.799092
 21
0.854548
 31
0.0
  0
LINE
  8
0
 62
     0
 10
3.944544
 20
2.0
 30
0.0
 11
4.8
 21
2.855456
 31
0.0
  0
LINE
  8
0
 62
     0
 10
2.12132
 20
0.0
 30
0.0
 11
2.703904
 21
0.582584
 31
0.0
  0
LINE
  8
0
 62
     0
 10
4.12132
 20
2.0
 30
0.0
 11
4.8
 21
2.67868
 31
0.0
  0
LINE
  8
0
 62
     0
 10
2.298097
 20
0.0
 30
0.0
 11
2.608717
 21
0.31062
 31
0.0
  0
LINE
  8
0
 62
     0
 10
4.298097
 20
2.0
 30
0.0
 11
4.8
 21
2.501903
 31
0.0
  0
LINE
  8
0
 62
     0
 10
2.474874
 20
0.0
 30
0.0
 11
2.51353
 21
0.038656
 31
0.0
  0
LINE
  8
0
 62
     0
 10
4.474874
 20
2.0
 30
0.0
 11
4.8
 21
2.325126
 31
0.0
  0
LINE
  8
0
 62
     0
 10
4.65165
 20
2.0
 30
0.0
 11
4.8
 21
2.14835
 31
0.0
  0
ENDBLK
  8
0
  0
BLOCK
  8
0
  2
*X17
 70
    65
 10
0.0
 20
0.0
 30
0.0
  3
*X
  0
LINE
  8
0
 62
     0
 10
6.884654
 20
1.75813
 30
0.0
 11
8.736506
 21
3.609982
 31
0.0
  0
LINE
  8
0
 62
     0
 10
6.838823
 20
1.889076
 30
0.0
 11
8.690675
 21
3.740928
 31
0.0
  0
LINE
  8
0
 62
     0
 10
6.772971
 20
2.0
 30
0.0
 11
8.644844
 21
3.871874
 31
0.0
  0
LINE
  8
0
 62
     0
 10
6.596194
 20
2.0
 30
0.0
 11
8.599013
 21
4.002819
 31
0.0
  0
LINE
  8
0
 62
     0
 10
6.419417
 20
2.0
 30
0.0
 11
8.553182
 21
4.133765
 31
0.0
  0
LINE
  8
0
 62
     0
 10
6.242641
 20
2.0
 30
0.0
 11
8.507351
 21
4.264711
 31
0.0
  0
LINE
  8
0
 62
     0
 10
6.065864
 20
2.0
 30
0.0
 11
8.46152
 21
4.395656
 31
0.0
  0
LINE
  8
0
 62
     0
 10
5.889087
 20
2.0
 30
0.0
 11
8.415689
 21
4.526602
 31
0.0
  0
LINE
  8
0
 62
     0
 10
5.712311
 20
2.0
 30
0.0
 11
8.369858
 21
4.657548
 31
0.0
  0
LINE
  8
0
 62
     0
 10
5.535534
 20
2.0
 30
0.0
 11
8.324027
 21
4.788493
 31
0.0
  0
LINE
  8
0
 62
     0
 10
5.358757
 20
2.0
 30
0.0
 11
8.158757
 21
4.8
 31
0.0
  0
LINE
  8
0
 62
     0
 10
5.2
 20
2.018019
 30
0.0
 11
7.981981
 21
4.8
 31
0.0
  0
LINE
  8
0
 62
     0
 10
5.2
 20
2.194796
 30
0.0
 11
7.805204
 21
4.8
 31
0.0
  0
LINE
  8
0
 62
     0
 10
5.2
 20
2.371573
 30
0.0
 11
7.628427
 21
4.8
 31
0.0
  0
LINE
  8
0
 62
     0
 10
5.2
 20
2.54835
 30
0.0
 11
7.45165
 21
4.8
 31
0.0
  0
LINE
  8
0
 62
     0
 10
5.2
 20
2.725126
 30
0.0
 11
7.274874
 21
4.8
 31
0.0
  0
LINE
  8
0
 62
     0
 10
5.2
 20
2.901903
 30
0.0
 11
7.098097
 21
4.8
 31
0.0
  0
LINE
  8
0
 62
     0
 10
5.2
 20
3.07868
 30
0.0
 11
6.92132
 21
4.8
 31
0.0
  0
LINE
  8
0
 62
     0
 10
5.2
 20
3.255456
 30
0.0
 11
6.744544
 21
4.8
 31
0.0
  0
LINE
  8
0
 62
     0
 10
5.2
 20
3.432233
 30
0.0
 11
6.567767
 21
4.8
 31
0.0
  0
LINE
  8
0
 62
     0
 10
5.2
 20
3.60901
 30
0.0
 11
6.39099
 21
4.8
 31
0.0
  0
LINE
  8
0
 62
     0
 10
5.2
 20
3.785786
 30
0.0
 11
6.214214
 21
4.8
 31
0.0
  0
LINE
  8
0
 62
     0
 10
5.2
 20
3.962563
 30
0.0
 11
6.037437
 21
4.8
 31
0.0
  0
LINE
  8
0
 62
     0
 10
5.2
 20
4.13934
 30
0.0
 11
5.86066
 21
4.8
 31
0.0
  0
LINE
  8
0
 62
     0
 10
5.2
 20
4.316117
 30
0.0
 11
5.683883
 21
4.8
 31
0.0
  0
LINE
  8
0
 62
     0
 10
5.2
 20
4.492893
 30
0.0
 11
5.507107
 21
4.8
 31
0.0
  0
LINE
  8
0
 62
     0
 10
5.2
 20
4.66967
 30
0.0
 11
5.33033
 21
4.8
 31
0.0
  0
LINE
  8
0
 62
     0
 10
6.930485
 20
1.627185
 30
0.0
 11
8.782337
 21
3.479036
 31
0.0
  0
LINE
  8
0
 62
     0
 10
6.976316
 20
1.496239
 30
0.0
 11
8.828168
 21
3.348091
 31
0.0
  0
LINE
  8
0
 62
     0
 10
7.022147
 20
1.365293
 30
0.0
 11
8.873999
 21
3.217145
 31
0.0
  0
LINE
  8
0
 62
     0
 10
7.067978
 20
1.234347
 30
0.0
 11
8.91983
 21
3.086199
 31
0.0
  0
LINE
  8
0
 62
     0
 10
7.113809
 20
1.103402
 30
0.0
 11
8.965661
 21
2.955254
 31
0.0
  0
LINE
  8
0
 62
     0
 10
7.15964
 20
0.972456
 30
0.0
 11
9.011492
 21
2.824308
 31
0.0
  0
LINE
  8
0
 62
     0
 10
7.205471
 20
0.84151
 30
0.0
 11
9.057323
 21
2.693362
 31
0.0
  0
LINE
  8
0
 62
     0
 10
7.251302
 20
0.710565
 30
0.0
 11
9.103154
 21
2.562416
 31
0.0
  0
LINE
  8
0
 62
     0
 10
7.297133
 20
0.579619
 30
0.0
 11
9.148985
 21
2.431471
 31
0.0
  0
LINE
  8
0
 62
     0
 10
7.342964
 20
0.448673
 30
0.0
 11
9.194816
 21
2.300525
 31
0.0
  0
LINE
  8
0
 62
     0
 10
7.388795
 20
0.317728
 30
0.0
 11
9.240647
 21
2.169579
 31
0.0
  0
LINE
  8
0
 62
     0
 10
7.434626
 20
0.186782
 30
0.0
 11
9.286478
 21
2.038634
 31
0.0
  0
LINE
  8
0
 62
     0
 10
7.480457
 20
0.055836
 30
0.0
 11
9.332309
 21
1.907688
 31
0.0
  0
LINE
  8
0
 62
     0
 10
7.601398
 20
0.0
 30
0.0
 11
9.37814
 21
1.776742
 31
0.0
  0
LINE
  8
0
 62
     0
 10
7.778175
 20
0.0
 30
0.0
 11
9.423971
 21
1.645797
 31
0.0
  0
LINE
  8
0
 62
     0
 10
7.954951
 20
0.0
 30
0.0
 11
9.469802
 21
1.514851
 31
0.0
  0
LINE
  8
0
 62
     0
 10
8.131728
 20
0.0
 30
0.0
 11
9.515633
 21
1.383905
 31
0.0
  0
LINE
  8
0
 62
     0
 10
8.308505
 20
0.0
 30
0.0
 11
9.561464
 21
1.252959
 31
0.0
  0
LINE
  8
0
 62
     0
 10
8.485281
 20
0.0
 30
0.0
 11
9.607295
 21
1.122014
 31
0.0
  0
LINE
  8
0
 62
     0
 10
8.662058
 20
0.0
 30
0.0
 11
9.653126
 21
0.991068
 31
0.0
  0
LINE
  8
0
 62
     0
 10
8.838835
 20
0.0
 30
0.0
 11
9.698957
 21
0.860122
 31
0.0
  0
LINE
  8
0
 62
     0
 10
9.015611
 20
0.0
 30
0.0
 11
9.744788
 21
0.729177
 31
0.0
  0
LINE
  8
0
 62
     0
 10
9.192388
 20
0.0
 30
0.0
 11
9.790619
 21
0.598231
 31
0.0
  0
LINE
  8
0
 62
     0
 10
9.369165
 20
0.0
 30
0.0
 11
9.83645
 21
0.467285
 31
0.0
  0
LINE
  8
0
 62
     0
 10
9.545942
 20
0.0
 30
0.0
 11
9.882281
 21
0.33634
 31
0.0
  0
LINE
  8
0
 62
     0
 10
9.722718
 20
0.0
 30
0.0
 11
9.928112
 21
0.205394
 31
0.0
  0
LINE
  8
0
 62
     0
 10
9.899495
 20
0.0
 30
0.0
 11
9.973943
 21
0.074448
 31
0.0
  0
ENDBLK
  8
0
  0
BLOCK
  8
0
  2
*X18
 70
    65
 10
0.0
 20
0.0
 30
0.0
  3
*X
  0
LINE
  8
0
 62
     0
 10
10.7
 20
6.280583
 30
0.0
 11
13.5
 21
9.080583
 31
0.0
  0
LINE
  8
0
 62
     0
 10
10.7
 20
6.457359
 30
0.0
 11
13.5
 21
9.257359
 31
0.0
  0
LINE
  8
0
 62
     0
 10
10.7
 20
6.634136
 30
0.0
 11
13.5
 21
9.434136
 31
0.0
  0
LINE
  8
0
 62
     0
 10
10.7
 20
6.810913
 30
0.0
 11
13.5
 21
9.610913
 31
0.0
  0
LINE
  8
0
 62
     0
 10
10.7
 20
6.987689
 30
0.0
 11
13.5
 21
9.787689
 31
0.0
  0
LINE
  8
0
 62
     0
 10
10.7
 20
7.164466
 30
0.0
 11
13.5
 21
9.964466
 31
0.0
  0
LINE
  8
0
 62
     0
 10
10.7
 20
7.341243
 30
0.0
 11
13.358757
 21
10.0
 31
0.0
  0
LINE
  8
0
 62
     0
 10
10.7
 20
7.518019
 30
0.0
 11
13.181981
 21
10.0
 31
0.0
  0
LINE
  8
0
 62
     0
 10
10.7
 20
7.694796
 30
0.0
 11
13.005204
 21
10.0
 31
0.0
  0
LINE
  8
0
 62
     0
 10
10.7
 20
7.871573
 30
0.0
 11
12.828427
 21
10.0
 31
0.0
  0
LINE
  8
0
 62
     0
 10
10.7
 20
8.04835
 30
0.0
 11
12.65165
 21
10.0
 31
0.0
  0
LINE
  8
0
 62
     0
 10
10.7
 20
8.225126
 30
0.0
 11
12.474874
 21
10.0
 31
0.0
  0
LINE
  8
0
 62
     0
 10
10.7
 20
8.401903
 30
0.0
 11
12.298097
 21
10.0
 31
0.0
  0
LINE
  8
0
 62
     0
 10
10.7
 20
8.57868
 30
0.0
 11
12.12132
 21
10.0
 31
0.0
  0
LINE
  8
0
 62
     0
 10
10.7
 20
8.755456
 30
0.0
 11
11.944544
 21
10.0
 31
0.0
  0
LINE
  8
0
 62
     0
 10
10.7
 20
8.932233
 30
0.0
 11
11.767767
 21
10.0
 31
0.0
  0
LINE
  8
0
 62
     0
 10
10.7
 20
9.10901
 30
0.0
 11
11.59099
 21
10.0
 31
0.0
  0
LINE
  8
0
 62
     0
 10
10.7
 20
9.285786
 30
0.0
 11
11.414214
 21
10.0
 31
0.0
  0
LINE
  8
0
 62
     0
 10
10.7
 20
9.462563
 30
0.0
 11
11.237437
 21
10.0
 31
0.0
  0
LINE
  8
0
 62
     0
 10
10.7
 20
9.63934
 30
0.0
 11
11.06066
 21
10.0
 31
0.0
  0
LINE
  8
0
 62
     0
 10
10.7
 20
9.816117
 30
0.0
 11
10.883883
 21
10.0
 31
0.0
  0
LINE
  8
0
 62
     0
 10
10.7
 20
9.992893
 30
0.0
 11
10.707107
 21
10.0
 31
0.0
  0
LINE
  8
0
 62
     0
 10
10.7
 20
6.103806
 30
0.0
 11
13.5
 21
8.903806
 31
0.0
  0
LINE
  8
0
 62
     0
 10
10.7
 20
5.927029
 30
0.0
 11
13.5
 21
8.727029
 31
0.0
  0
LINE
  8
0
 62
     0
 10
10.7
 20
5.750253
 30
0.0
 11
13.5
 21
8.550253
 31
0.0
  0
LINE
  8
0
 62
     0
 10
10.7
 20
5.573476
 30
0.0
 11
13.5
 21
8.373476
 31
0.0
  0
LINE
  8
0
 62
     0
 10
10.7
 20
5.396699
 30
0.0
 11
13.5
 21
8.196699
 31
0.0
  0
LINE
  8
0
 62
     0
 10
10.7
 20
5.219922
 30
0.0
 11
13.5
 21
8.019922
 31
0.0
  0
LINE
  8
0
 62
     0
 10
10.856854
 20
5.2
 30
0.0
 11
13.5
 21
7.843146
 31
0.0
  0
LINE
  8
0
 62
     0
 10
11.033631
 20
5.2
 30
0.0
 11
13.5
 21
7.666369
 31
0.0
  0
LINE
  8
0
 62
     0
 10
11.210408
 20
5.2
 30
0.0
 11
13.5
 21
7.489592
 31
0.0
  0
LINE
  8
0
 62
     0
 10
11.387184
 20
5.2
 30
0.0
 11
13.5
 21
7.312816
 31
0.0
  0
LINE
  8
0
 62
     0
 10
11.563961
 20
5.2
 30
0.0
 11
13.5
 21
7.136039
 31
0.0
  0
LINE
  8
0
 62
     0
 10
11.740738
 20
5.2
 30
0.0
 11
13.5
 21
6.959262
 31
0.0
  0
LINE
  8
0
 62
     0
 10
11.917514
 20
5.2
 30
0.0
 11
13.5
 21
6.782486
 31
0.0
  0
LINE
  8
0
 62
     0
 10
12.094291
 20
5.2
 30
0.0
 11
13.5
 21
6.605709
 31
0.0
  0
LINE
  8
0
 62
     0
 10
12.271068
 20
5.2
 30
0.0
 11
13.5
 21
6.428932
 31
0.0
  0
LINE
  8
0
 62
     0
 10
12.447845
 20
5.2
 30
0.0
 11
13.5
 21
6.252155
 31
0.0
  0
LINE
  8
0
 62
     0
 10
12.624621
 20
5.2
 30
0.0
 11
13.5
 21
6.075379
 31
0.0
  0
LINE
  8
0
 62
     0
 10
12.801398
 20
5.2
 30
0.0
 11
13.5
 21
5.898602
 31
0.0
  0
LINE
  8
0
 62
     0
 10
12.978175
 20
5.2
 30
0.0
 11
13.5
 21
5.721825
 31
0.0
  0
LINE
  8
0
 62
     0
 10
13.154951
 20
5.2
 30
0.0
 11
13.5
 21
5.545049
 31
0.0
  0
LINE
  8
0
 62
     0
 10
13.331728
 20
5.2
 30
0.0
 11
13.5
 21
5.368272
 31
0.0
  0
ENDBLK
  8
0
  0
BLOCK
  8
0
  2
*X19
 70
    65
 10
0.0
 20
0.0
 30
0.0
  3
*X
  0
LINE
  8
0
 62
     0
 10
10.7
 20
1.154058
 30
0.0
 11
13.5
 21
3.954058
 31
0.0
  0
LINE
  8
0
 62
     0
 10
10.7
 20
1.330835
 30
0.0
 11
13.5
 21
4.130835
 31
0.0
  0
LINE
  8
0
 62
     0
 10
10.7
 20
1.507612
 30
0.0
 11
13.5
 21
4.307612
 31
0.0
  0
LINE
  8
0
 62
     0
 10
10.7
 20
1.684389
 30
0.0
 11
13.5
 21
4.484389
 31
0.0
  0
LINE
  8
0
 62
     0
 10
10.7
 20
1.861165
 30
0.0
 11
13.5
 21
4.661165
 31
0.0
  0
LINE
  8
0
 62
     0
 10
10.7
 20
2.037942
 30
0.0
 11
13.462058
 21
4.8
 31
0.0
  0
LINE
  8
0
 62
     0
 10
10.7
 20
2.214719
 30
0.0
 11
13.285281
 21
4.8
 31
0.0
  0
LINE
  8
0
 62
     0
 10
10.7
 20
2.391495
 30
0.0
 11
13.108505
 21
4.8
 31
0.0
  0
LINE
  8
0
 62
     0
 10
10.7
 20
2.568272
 30
0.0
 11
12.931728
 21
4.8
 31
0.0
  0
LINE
  8
0
 62
     0
 10
10.7
 20
2.745049
 30
0.0
 11
12.754951
 21
4.8
 31
0.0
  0
LINE
  8
0
 62
     0
 10
10.7
 20
2.921825
 30
0.0
 11
12.578175
 21
4.8
 31
0.0
  0
LINE
  8
0
 62
     0
 10
10.7
 20
3.098602
 30
0.0
 11
12.401398
 21
4.8
 31
0.0
  0
LINE
  8
0
 62
     0
 10
10.7
 20
3.275379
 30
0.0
 11
12.224621
 21
4.8
 31
0.0
  0
LINE
  8
0
 62
     0
 10
10.7
 20
3.452155
 30
0.0
 11
12.047845
 21
4.8
 31
0.0
  0
LINE
  8
0
 62
     0
 10
10.7
 20
3.628932
 30
0.0
 11
11.871068
 21
4.8
 31
0.0
  0
LINE
  8
0
 62
     0
 10
10.7
 20
3.805709
 30
0.0
 11
11.694291
 21
4.8
 31
0.0
  0
LINE
  8
0
 62
     0
 10
10.7
 20
3.982486
 30
0.0
 11
11.517514
 21
4.8
 31
0.0
  0
LINE
  8
0
 62
     0
 10
10.7
 20
4.159262
 30
0.0
 11
11.340738
 21
4.8
 31
0.0
  0
LINE
  8
0
 62
     0
 10
10.7
 20
4.336039
 30
0.0
 11
11.163961
 21
4.8
 31
0.0
  0
LINE
  8
0
 62
     0
 10
10.7
 20
4.512816
 30
0.0
 11
10.987184
 21
4.8
 31
0.0
  0
LINE
  8
0
 62
     0
 10
10.7
 20
4.689592
 30
0.0
 11
10.810408
 21
4.8
 31
0.0
  0
LINE
  8
0
 62
     0
 10
10.7
 20
0.977282
 30
0.0
 11
13.5
 21
3.777282
 31
0.0
  0
LINE
  8
0
 62
     0
 10
10.7
 20
0.800505
 30
0.0
 11
13.5
 21
3.600505
 31
0.0
  0
LINE
  8
0
 62
     0
 10
10.7
 20
0.623728
 30
0.0
 11
13.5
 21
3.423728
 31
0.0
  0
LINE
  8
0
 62
     0
 10
10.7
 20
0.446952
 30
0.0
 11
13.5
 21
3.246952
 31
0.0
  0
LINE
  8
0
 62
     0
 10
10.7
 20
0.270175
 30
0.0
 11
13.5
 21
3.070175
 31
0.0
  0
LINE
  8
0
 62
     0
 10
10.7
 20
0.093398
 30
0.0
 11
13.5
 21
2.893398
 31
0.0
  0
LINE
  8
0
 62
     0
 10
10.783378
 20
0.0
 30
0.0
 11
13.5
 21
2.716622
 31
0.0
  0
LINE
  8
0
 62
     0
 10
10.960155
 20
0.0
 30
0.0
 11
13.5
 21
2.539845
 31
0.0
  0
LINE
  8
0
 62
     0
 10
11.136932
 20
0.0
 30
0.0
 11
13.5
 21
2.363068
 31
0.0
  0
LINE
  8
0
 62
     0
 10
11.313708
 20
0.0
 30
0.0
 11
13.5
 21
2.186292
 31
0.0
  0
LINE
  8
0
 62
     0
 10
11.490485
 20
0.0
 30
0.0
 11
13.5
 21
2.009515
 31
0.0
  0
LINE
  8
0
 62
     0
 10
11.667262
 20
0.0
 30
0.0
 11
13.5
 21
1.832738
 31
0.0
  0
LINE
  8
0
 62
     0
 10
11.844039
 20
0.0
 30
0.0
 11
13.5
 21
1.655961
 31
0.0
  0
LINE
  8
0
 62
     0
 10
12.020815
 20
0.0
 30
0.0
 11
13.5
 21
1.479185
 31
0.0
  0
LINE
  8
0
 62
     0
 10
12.197592
 20
0.0
 30
0.0
 11
13.5
 21
1.302408
 31
0.0
  0
LINE
  8
0
 62
     0
 10
12.374369
 20
0.0
 30
0.0
 11
13.5
 21
1.125631
 31
0.0
  0
LINE
  8
0
 62
     0
 10
12.551145
 20
0.0
 30
0.0
 11
13.5
 21
0.948855
 31
0.0
  0
LINE
  8
0
 62
     0
 10
12.727922
 20
0.0
 30
0.0
 11
13.5
 21
0.772078
 31
0.0
  0
LINE
  8
0
 62
     0
 10
12.904699
 20
0.0
 30
0.0
 11
13.5
 21
0.595301
 31
0.0
  0
LINE
  8
0
 62
     0
 10
13.081475
 20
0.0
 30
0.0
 11
13.5
 21
0.418525
 31
0.0
  0
LINE
  8
0
 62
     0
 10
13.258252
 20
0.0
 30
0.0
 11
13.5
 21
0.241748
 31
0.0
  0
LINE
  8
0
 62
     0
 10
13.435029
 20
0.0
 30
0.0
 11
13.5
 21
0.064971
 31
0.0
  0
ENDBLK
  8
0
  0
BLOCK
  8
0
  2
*X20
 70
    65
 10
0.0
 20
0.0
 30
0.0
  3
*X
  0
LINE
  8
0
 62
     0
 10
13.9
 20
6.298602
 30
0.0
 11
16.582995
 21
8.981597
 31
0.0
  0
LINE
  8
0
 62
     0
 10
13.9
 20
6.475379
 30
0.0
 11
16.510503
 21
9.085882
 31
0.0
  0
LINE
  8
0
 62
     0
 10
13.9
 20
6.652155
 30
0.0
 11
16.432927
 21
9.185083
 31
0.0
  0
LINE
  8
0
 62
     0
 10
13.9
 20
6.828932
 30
0.0
 11
16.350372
 21
9.279304
 31
0.0
  0
LINE
  8
0
 62
     0
 10
13.9
 20
7.005709
 30
0.0
 11
16.262892
 21
9.368601
 31
0.0
  0
LINE
  8
0
 62
     0
 10
13.9
 20
7.182486
 30
0.0
 11
16.170495
 21
9.452981
 31
0.0
  0
LINE
  8
0
 62
     0
 10
13.9
 20
7.359262
 30
0.0
 11
16.073145
 21
9.532407
 31
0.0
  0
LINE
  8
0
 62
     0
 10
13.9
 20
7.536039
 30
0.0
 11
15.970755
 21
9.606794
 31
0.0
  0
LINE
  8
0
 62
     0
 10
13.9
 20
7.712816
 30
0.0
 11
15.863189
 21
9.676004
 31
0.0
  0
LINE
  8
0
 62
     0
 10
13.9
 20
7.889592
 30
0.0
 11
15.75025
 21
9.739843
 31
0.0
  0
LINE
  8
0
 62
     0
 10
13.9
 20
8.066369
 30
0.0
 11
15.631675
 21
9.798044
 31
0.0
  0
LINE
  8
0
 62
     0
 10
13.9
 20
8.243146
 30
0.0
 11
15.50711
 21
9.850256
 31
0.0
  0
LINE
  8
0
 62
     0
 10
13.9
 20
8.419922
 30
0.0
 11
15.376096
 21
9.896018
 31
0.0
  0
LINE
  8
0
 62
     0
 10
13.9
 20
8.596699
 30
0.0
 11
15.238027
 21
9.934726
 31
0.0
  0
LINE
  8
0
 62
     0
 10
13.9
 20
8.773476
 30
0.0
 11
15.092096
 21
9.965572
 31
0.0
  0
LINE
  8
0
 62
     0
 10
13.9
 20
8.950253
 30
0.0
 11
14.937209
 21
9.987461
 31
0.0
  0
LINE
  8
0
 62
     0
 10
13.9
 20
9.127029
 30
0.0
 11
14.771824
 21
9.998853
 31
0.0
  0
LINE
  8
0
 62
     0
 10
13.9
 20
9.303806
 30
0.0
 11
14.596193
 21
9.999999
 31
0.0
  0
LINE
  8
0
 62
     0
 10
13.9
 20
9.480583
 30
0.0
 11
14.419417
 21
9.999999
 31
0.0
  0
LINE
  8
0
 62
     0
 10
13.9
 20
9.657359
 30
0.0
 11
14.24264
 21
10.0
 31
0.0
  0
LINE
  8
0
 62
     0
 10
13.9
 20
9.834136
 30
0.0
 11
14.065864
 21
10.0
 31
0.0
  0
LINE
  8
0
 62
     0
 10
13.9
 20
6.121825
 30
0.0
 11
16.650245
 21
8.872071
 31
0.0
  0
LINE
  8
0
 62
     0
 10
13.9
 20
5.945049
 30
0.0
 11
16.712035
 21
8.757083
 31
0.0
  0
LINE
  8
0
 62
     0
 10
13.9
 20
5.768272
 30
0.0
 11
16.768067
 21
8.636339
 31
0.0
  0
LINE
  8
0
 62
     0
 10
13.9
 20
5.591495
 30
0.0
 11
16.817955
 21
8.509451
 31
0.0
  0
LINE
  8
0
 62
     0
 10
13.9
 20
5.414719
 30
0.0
 11
16.861189
 21
8.375908
 31
0.0
  0
LINE
  8
0
 62
     0
 10
13.9
 20
5.237942
 30
0.0
 11
16.897097
 21
8.235039
 31
0.0
  0
LINE
  8
0
 62
     0
 10
14.038835
 20
5.2
 30
0.0
 11
16.924779
 21
8.085944
 31
0.0
  0
LINE
  8
0
 62
     0
 10
14.215611
 20
5.2
 30
0.0
 11
16.942997
 21
7.927385
 31
0.0
  0
LINE
  8
0
 62
     0
 10
14.392388
 20
5.2
 30
0.0
 11
16.949987
 21
7.757599
 31
0.0
  0
LINE
  8
0
 62
     0
 10
14.569165
 20
5.2
 30
0.0
 11
16.943101
 21
7.573936
 31
0.0
  0
LINE
  8
0
 62
     0
 10
14.745942
 20
5.2
 30
0.0
 11
16.918037
 21
7.372095
 31
0.0
  0
LINE
  8
0
 62
     0
 10
14.922718
 20
5.2
 30
0.0
 11
16.866909
 21
7.144191
 31
0.0
  0
LINE
  8
0
 62
     0
 10
15.099495
 20
5.2
 30
0.0
 11
16.771715
 21
6.87222
 31
0.0
  0
LINE
  8
0
 62
     0
 10
15.276272
 20
5.2
 30
0.0
 11
15.847951
 21
5.77168
 31
0.0
  0
LINE
  8
0
 62
     0
 10
15.96673
 20
5.890458
 30
0.0
 11
16.559542
 21
6.48327
 31
0.0
  0
LINE
  8
0
 62
     0
 10
15.453048
 20
5.2
 30
0.0
 11
15.970661
 21
5.717613
 31
0.0
  0
LINE
  8
0
 62
     0
 10
15.629825
 20
5.2
 30
0.0
 11
16.088934
 21
5.659109
 31
0.0
  0
LINE
  8
0
 62
     0
 10
15.806602
 20
5.2
 30
0.0
 11
16.202964
 21
5.596363
 31
0.0
  0
LINE
  8
0
 62
     0
 10
15.983378
 20
5.2
 30
0.0
 11
16.312909
 21
5.529531
 31
0.0
  0
LINE
  8
0
 62
     0
 10
16.160155
 20
5.2
 30
0.0
 11
16.418895
 21
5.45874
 31
0.0
  0
LINE
  8
0
 62
     0
 10
16.336932
 20
5.2
 30
0.0
 11
16.521021
 21
5.384089
 31
0.0
  0
LINE
  8
0
 62
     0
 10
16.513708
 20
5.2
 30
0.0
 11
16.619363
 21
5.305655
 31
0.0
  0
LINE
  8
0
 62
     0
 10
16.690485
 20
5.2
 30
0.0
 11
16.713975
 21
5.22349
 31
0.0
  0
ENDBLK
  8
0
  0
BLOCK
  8
0
  2
*X21
 70
    65
 10
0.0
 20
0.0
 30
0.0
  3
*X
  0
LINE
  8
0
 62
     0
 10
13.9
 20
0.818525
 30
0.0
 11
17.39645
 21
4.314974
 31
0.0
  0
LINE
  8
0
 62
     0
 10
13.9
 20
0.995301
 30
0.0
 11
17.336354
 21
4.431655
 31
0.0
  0
LINE
  8
0
 62
     0
 10
13.9
 20
1.172078
 30
0.0
 11
17.272078
 21
4.544156
 31
0.0
  0
LINE
  8
0
 62
     0
 10
13.9
 20
1.348855
 30
0.0
 11
17.203766
 21
4.652621
 31
0.0
  0
LINE
  8
0
 62
     0
 10
13.9
 20
1.525631
 30
0.0
 11
17.131535
 21
4.757167
 31
0.0
  0
LINE
  8
0
 62
     0
 10
13.9
 20
1.702408
 30
0.0
 11
16.997592
 21
4.8
 31
0.0
  0
LINE
  8
0
 62
     0
 10
13.9
 20
1.879185
 30
0.0
 11
16.820815
 21
4.8
 31
0.0
  0
LINE
  8
0
 62
     0
 10
13.9
 20
2.055961
 30
0.0
 11
16.644039
 21
4.8
 31
0.0
  0
LINE
  8
0
 62
     0
 10
13.9
 20
2.232738
 30
0.0
 11
16.467262
 21
4.8
 31
0.0
  0
LINE
  8
0
 62
     0
 10
13.9
 20
2.409515
 30
0.0
 11
16.290485
 21
4.8
 31
0.0
  0
LINE
  8
0
 62
     0
 10
13.9
 20
2.586292
 30
0.0
 11
16.113708
 21
4.8
 31
0.0
  0
LINE
  8
0
 62
     0
 10
13.9
 20
2.763068
 30
0.0
 11
15.936932
 21
4.8
 31
0.0
  0
LINE
  8
0
 62
     0
 10
13.9
 20
2.939845
 30
0.0
 11
15.760155
 21
4.8
 31
0.0
  0
LINE
  8
0
 62
     0
 10
13.9
 20
3.116622
 30
0.0
 11
15.583378
 21
4.8
 31
0.0
  0
LINE
  8
0
 62
     0
 10
13.9
 20
3.293398
 30
0.0
 11
15.406602
 21
4.8
 31
0.0
  0
LINE
  8
0
 62
     0
 10
13.9
 20
3.470175
 30
0.0
 11
15.229825
 21
4.8
 31
0.0
  0
LINE
  8
0
 62
     0
 10
13.9
 20
3.646952
 30
0.0
 11
15.053048
 21
4.8
 31
0.0
  0
LINE
  8
0
 62
     0
 10
13.9
 20
3.823728
 30
0.0
 11
14.876272
 21
4.8
 31
0.0
  0
LINE
  8
0
 62
     0
 10
13.9
 20
4.000505
 30
0.0
 11
14.699495
 21
4.8
 31
0.0
  0
LINE
  8
0
 62
     0
 10
13.9
 20
4.177282
 30
0.0
 11
14.522718
 21
4.8
 31
0.0
  0
LINE
  8
0
 62
     0
 10
13.9
 20
4.354058
 30
0.0
 11
14.345942
 21
4.8
 31
0.0
  0
LINE
  8
0
 62
     0
 10
13.9
 20
4.530835
 30
0.0
 11
14.169165
 21
4.8
 31
0.0
  0
LINE
  8
0
 62
     0
 10
13.9
 20
4.707612
 30
0.0
 11
13.992388
 21
4.8
 31
0.0
  0
LINE
  8
0
 62
     0
 10
13.9
 20
0.641748
 30
0.0
 11
17.452185
 21
4.193933
 31
0.0
  0
LINE
  8
0
 62
     0
 10
13.9
 20
0.464971
 30
0.0
 11
17.503339
 21
4.068311
 31
0.0
  0
LINE
  8
0
 62
     0
 10
13.9
 20
0.288194
 30
0.0
 11
17.549642
 21
3.937837
 31
0.0
  0
LINE
  8
0
 62
     0
 10
13.9
 20
0.111418
 30
0.0
 11
17.590762
 21
3.80218
 31
0.0
  0
LINE
  8
0
 62
     0
 10
13.965359
 20
0.0
 30
0.0
 11
17.62629
 21
3.660931
 31
0.0
  0
LINE
  8
0
 62
     0
 10
14.142136
 20
0.000001
 30
0.0
 11
17.655713
 21
3.513577
 31
0.0
  0
LINE
  8
0
 62
     0
 10
14.318913
 20
0.000001
 30
0.0
 11
17.678385
 21
3.359473
 31
0.0
  0
LINE
  8
0
 62
     0
 10
14.49569
 20
0.000001
 30
0.0
 11
17.693473
 21
3.197784
 31
0.0
  0
LINE
  8
0
 62
     0
 10
14.672467
 20
0.000002
 30
0.0
 11
17.699875
 21
3.027409
 31
0.0
  0
LINE
  8
0
 62
     0
 10
14.853154
 20
0.003912
 30
0.0
 11
17.696088
 21
2.846846
 31
0.0
  0
LINE
  8
0
 62
     0
 10
15.046044
 20
0.020025
 30
0.0
 11
17.679975
 21
2.653956
 31
0.0
  0
LINE
  8
0
 62
     0
 10
15.254483
 20
0.051687
 30
0.0
 11
17.648313
 21
2.445517
 31
0.0
  0
LINE
  8
0
 62
     0
 10
15.483762
 20
0.10419
 30
0.0
 11
17.59581
 21
2.216238
 31
0.0
  0
LINE
  8
0
 62
     0
 10
15.743786
 20
0.187437
 30
0.0
 11
17.512563
 21
1.956214
 31
0.0
  0
LINE
  8
0
 62
     0
 10
16.058176
 20
0.32505
 30
0.0
 11
17.37495
 21
1.641824
 31
0.0
  0
LINE
  8
0
 62
     0
 10
16.54193
 20
0.632028
 30
0.0
 11
17.067972
 21
1.15807
 31
0.0
  0
ENDBLK
  8
0
  0
ENDSEC
  0
SECTION
  2
ENTITIES
  0
INSERT
  8
0
  2
1
 10
65.405438
 20
98.713066
 30
0.0
  0
INSERT
  8
0
  2
1
 10
72.541652
 20
49.71056
 30
0.0
  0
INSERT
  8
0
  2
1
 10
85.390443
 20
73.497234
 30
0.0
  0
TEXT
  8
0
  6
CONTINUOUS
 62
     7
 10
115.540778
 20
75.274255
 30
0.0
 40
2.5
  1
1
 11
115.540778
 21
74.440922
 31
0.0
 73
     1
  0
LINE
  8
0
  6
CONTINUOUS
 62
     7
 10
111.106916
 20
77.934349
 30
0.0
 11
113.452682
 21
76.598995
 31
0.0
  0
LINE
  8
0
  6
CONTINUOUS
 62
     7
 10
111.098875
 20
74.609062
 30
0.0
 11
113.482335
 21
75.797254
 31
0.0
  0
LINE
  8
0
  6
CONTINUOUS
 62
     7
 10
113.452682
 20
76.598995
 30
0.0
 11
111.106916
 21
75.409076
 31
0.0
  0
LINE
  8
0
  6
CONTINUOUS
 62
     7
 10
120.0
 20
80.0
 30
0.0
 11
120.0
 21
132.048165
 31
0.0
  0
LINE
  8
0
  6
CONTINUOUS
 62
     7
 10
115.741025
 20
80.0
 30
0.0
 11
115.741025
 21
88.885304
 31
0.0
  0
LINE
  8
0
  6
CONTINUOUS
 62
     7
 10
111.688985
 20
80.0
 30
0.0
 11
111.688985
 21
92.500049
 31
0.0
  0
LINE
  8
0
  6
CONTINUOUS
 62
     7
 10
122.5
 20
80.0
 30
0.0
 11
105.0
 21
80.0
 31
0.0
  0
LINE
  8
0
  6
CONTINUOUS
 62
     7
 10
122.5
 20
72.5
 30
0.0
 11
122.5
 21
80.0
 31
0.0
  0
LINE
  8
0
  6
CONTINUOUS
 62
     7
 10
105.0
 20
72.5
 30
0.0
 11
122.5
 21
72.5
 31
0.0
  0
LINE
  8
0
  6
CONTINUOUS
 62
     7
 10
105.0
 20
80.0
 30
0.0
 11
105.0
 21
72.5
 31
0.0
  0
LINE
  8
0
  6
CONTINUOUS
 62
     7
 10
107.5
 20
80.0
 30
0.0
 11
107.5
 21
96.152485
 31
0.0
  0
LINE
  8
0
  6
CONTINUOUS
 62
     7
 10
115.741025
 20
132.048165
 30
0.0
 11
115.741025
 21
110.0
 31
0.0
  0
LINE
  8
0
  6
CONTINUOUS
 62
     7
 10
111.688985
 20
144.548165
 30
0.0
 11
111.688985
 21
110.0
 31
0.0
  0
LINE
  8
0
  6
CONTINUOUS
 62
     7
 10
107.5
 20
157.048165
 30
0.0
 11
107.5
 21
110.0
 31
0.0
  0
CIRCLE
  8
0
  6
CONTINUOUS
 62
     7
 10
111.69879
 20
93.19998
 30
0.0
 40
0.7
  0
CIRCLE
  8
0
  6
CONTINUOUS
 62
     7
 10
107.505242
 20
96.852465
 30
0.0
 40
0.7
  0
LINE
  8
0
  6
CONTINUOUS
 62
     7
 10
107.5
 20
105.0
 30
0.0
 11
107.5
 21
97.552445
 31
0.0
  0
LINE
  8
0
  6
CONTINUOUS
 62
     7
 10
105.0
 20
102.5
 30
0.0
 11
115.0
 21
102.5
 31
0.0
  0
LINE
  8
0
  6
CONTINUOUS
 62
     7
 10
115.741025
 20
101.601912
 30
0.0
 11
114.447622
 21
102.5
 31
0.0
  0
LINE
  8
0
  6
CONTINUOUS
 62
     7
 10
114.447622
 20
102.5
 30
0.0
 11
115.741025
 21
103.406769
 31
0.0
  0
LINE
  8
0
  6
CONTINUOUS
 62
     7
 10
111.688985
 20
101.601912
 30
0.0
 11
110.395582
 21
102.5
 31
0.0
  0
LINE
  8
0
  6
CONTINUOUS
 62
     7
 10
110.395582
 20
102.5
 30
0.0
 11
111.688985
 21
103.406769
 31
0.0
  0
LINE
  8
0
  6
CONTINUOUS
 62
     7
 10
107.5
 20
101.601912
 30
0.0
 11
106.206597
 21
102.5
 31
0.0
  0
LINE
  8
0
  6
CONTINUOUS
 62
     7
 10
106.206597
 20
102.5
 30
0.0
 11
107.5
 21
103.406769
 31
0.0
  0
LINE
  8
0
  6
CONTINUOUS
 62
     7
 10
115.741025
 20
105.0
 30
0.0
 11
114.023235
 21
110.014966
 31
0.0
  0
LINE
  8
0
  6
CONTINUOUS
 62
     7
 10
111.688985
 20
105.0
 30
0.0
 11
109.971195
 21
110.014966
 31
0.0
  0
LINE
  8
0
  6
CONTINUOUS
 62
     7
 10
107.5
 20
105.0
 30
0.0
 11
105.78221
 21
110.014966
 31
0.0
  0
LINE
  8
0
  6
CONTINUOUS
 62
     7
 10
106.805852
 20
96.823245
 30
0.0
 11
105.145492
 21
96.823245
 31
0.0
  0
LINE
  8
0
  6
CONTINUOUS
 62
     7
 10
110.999151
 20
93.1775
 30
0.0
 11
105.339749
 21
93.1775
 31
0.0
  0
LINE
  8
0
  6
CONTINUOUS
 62
     7
 10
101.290766
 20
93.130553
 30
0.0
 11
94.950891
 21
93.130553
 31
0.0
  0
LINE
  8
0
  6
CONTINUOUS
 62
     7
 10
101.290766
 20
96.854176
 30
0.0
 11
94.950891
 21
96.854176
 31
0.0
  0
LINE
  8
0
  6
CONTINUOUS
 62
     7
 10
105.339749
 20
93.1775
 30
0.0
 11
101.290766
 21
91.619972
 31
0.0
  0
LINE
  8
0
  6
CONTINUOUS
 62
     7
 10
105.145492
 20
96.823245
 30
0.0
 11
101.290766
 21
95.340443
 31
0.0
  0
TEXT
  8
0
  6
CONTINUOUS
 62
     7
 10
87.499188
 20
97.761802
 30
0.0
 40
1.5
  1
SEAL. IN
  7
ROMANS
  0
LINE
  8
0
  6
CONTINUOUS
 62
     7
 10
105.0
 20
102.5
 30
0.0
 11
95.0
 21
102.5
 31
0.0
  0
LINE
  8
0
  6
CONTINUOUS
 62
     7
 10
95.0
 20
147.5
 30
0.0
 11
95.0
 21
140.0
 31
0.0
  0
LINE
  8
0
  6
CONTINUOUS
 62
     7
 10
95.0
 20
135.0
 30
0.0
 11
95.0
 21
130.0
 31
0.0
  0
LINE
  8
0
  6
CONTINUOUS
 62
     7
 10
95.0
 20
135.0
 30
0.0
 11
92.629915
 21
139.92295
 31
0.0
  0
LINE
  8
0
  6
CONTINUOUS
 62
     7
 10
95.0
 20
102.5
 30
0.0
 11
95.0
 21
115.0
 31
0.0
  0
LINE
  8
0
  6
CONTINUOUS
 62
     7
 10
95.0
 20
118.648475
 30
0.0
 11
95.0
 21
115.0
 31
0.0
  0
LINE
  8
0
  6
CONTINUOUS
 62
     7
 10
95.0
 20
126.8384
 30
0.0
 11
95.0
 21
130.0
 31
0.0
  0
LINE
  8
0
 62
     7
 10
101.635737
 20
118.648475
 30
0.0
 11
101.635737
 21
126.8384
 31
0.0
  0
LINE
  8
0
 62
     7
 10
88.557914
 20
118.648475
 30
0.0
 11
101.635737
 21
118.648475
 31
0.0
  0
LINE
  8
0
 62
     7
 10
101.635737
 20
126.8384
 30
0.0
 11
88.557914
 21
126.8384
 31
0.0
  0
LINE
  8
0
 62
     7
 10
88.557914
 20
126.8384
 30
0.0
 11
88.557914
 21
118.648475
 31
0.0
  0
TEXT
  8
0
  6
DASHED
 62
     7
 10
90.325205
 20
119.868566
 30
0.0
 40
1.5
  1
0,1...1s
  7
ROMANS
  0
LINE
  8
0
  6
CONTINUOUS
 62
     7
 10
98.919243
 20
124.742384
 30
0.0
 11
98.919243
 21
122.954253
 31
0.0
  0
LINE
  8
0
  6
CONTINUOUS
 62
     7
 10
95.941712
 20
126.095268
 30
0.0
 11
96.842388
 21
124.971519
 31
0.0
  0
LINE
  8
0
  6
CONTINUOUS
 62
     7
 10
93.519724
 20
122.729503
 30
0.0
 11
96.395834
 21
125.558062
 31
0.0
  0
LINE
  8
0
  6
CONTINUOUS
 62
     7
 10
91.135579
 20
123.897106
 30
0.0
 11
98.923784
 21
123.897106
 31
0.0
  0
LINE
  8
0
  6
CONTINUOUS
 62
     7
 10
91.104548
 20
124.742384
 30
0.0
 11
91.104548
 21
122.954253
 31
0.0
  0
LINE
  8
0
  6
CONTINUOUS
 62
     7
 10
70.0
 20
167.5
 30
0.0
 11
64.256076
 21
164.285297
 31
0.0
  0
LINE
  8
0
  6
CONTINUOUS
 62
     7
 10
70.0
 20
175.0
 30
0.0
 11
64.256076
 21
171.785297
 31
0.0
  0
LINE
  8
0
  6
CONTINUOUS
 62
     7
 10
70.0
 20
167.5
 30
0.0
 11
75.0
 21
167.5
 31
0.0
  0
LINE
  8
0
  6
CONTINUOUS
 62
     7
 10
70.0
 20
175.0
 30
0.0
 11
75.0
 21
175.0
 31
0.0
  0
LINE
  8
0
  6
CONTINUOUS
 62
     7
 10
45.0
 20
167.5
 30
0.0
 11
45.0
 21
247.5
 31
0.0
  0
LINE
  8
0
  6
CONTINUOUS
 62
     7
 10
65.0
 20
167.5
 30
0.0
 11
45.0
 21
167.5
 31
0.0
  0
LINE
  8
0
  6
CONTINUOUS
 62
     7
 10
65.0
 20
175.0
 30
0.0
 11
45.0
 21
175.0
 31
0.0
  0
LINE
  8
0
  6
CONTINUOUS
 62
     7
 10
62.5
 20
52.5
 30
0.0
 11
267.5
 21
52.5
 31
0.0
  0
LINE
  8
0
  6
CONTINUOUS
 62
     7
 10
204.079891
 20
80.0
 30
0.0
 11
204.079891
 21
72.5
 31
0.0
  0
LINE
  8
0
  6
CONTINUOUS
 62
     7
 10
204.079891
 20
72.5
 30
0.0
 11
232.5
 21
72.5
 31
0.0
  0
LINE
  8
0
  6
CONTINUOUS
 62
     7
 10
232.5
 20
72.5
 30
0.0
 11
232.5
 21
80.0
 31
0.0
  0
LINE
  8
0
  6
CONTINUOUS
 62
     7
 10
232.5
 20
80.0
 30
0.0
 11
204.079891
 21
80.0
 31
0.0
  0
LINE
  8
0
  6
CONTINUOUS
 62
     7
 10
218.241025
 20
80.0
 30
0.0
 11
218.241025
 21
92.5
 31
0.0
  0
LINE
  8
0
  6
CONTINUOUS
 62
     7
 10
222.5
 20
80.0
 30
0.0
 11
222.5
 21
92.5
 31
0.0
  0
LINE
  8
0
  6
CONTINUOUS
 62
     7
 10
218.067739
 20
76.598995
 30
0.0
 11
215.721973
 21
75.409076
 31
0.0
  0
LINE
  8
0
  6
CONTINUOUS
 62
     7
 10
215.713932
 20
74.609062
 30
0.0
 11
218.097392
 21
75.797254
 31
0.0
  0
LINE
  8
0
  6
CONTINUOUS
 62
     7
 10
215.721973
 20
77.934349
 30
0.0
 11
218.067739
 21
76.598995
 31
0.0
  0
TEXT
  8
0
  6
CONTINUOUS
 62
     7
 10
220.155835
 20
75.274255
 30
0.0
 40
2.5
  1
1
 11
220.155835
 21
74.440922
 31
0.0
 73
     1
  0
LINE
  8
0
  6
CONTINUOUS
 62
     7
 10
214.188985
 20
80.0
 30
0.0
 11
214.188985
 21
92.5
 31
0.0
  0
LINE
  8
0
  6
CONTINUOUS
 62
     7
 10
210.0
 20
80.0
 30
0.0
 11
210.0
 21
92.5
 31
0.0
  0
LINE
  8
0
  6
CONTINUOUS
 62
     7
 10
210.0
 20
165.0
 30
0.0
 11
210.0
 21
97.5
 31
0.0
  0
LINE
  8
0
  6
CONTINUOUS
 62
     7
 10
222.5
 20
144.548165
 30
0.0
 11
222.5
 21
97.5
 31
0.0
  0
LINE
  8
0
  6
CONTINUOUS
 62
     7
 10
218.241025
 20
152.5
 30
0.0
 11
218.241025
 21
97.5
 31
0.0
  0
LINE
  8
0
  6
CONTINUOUS
 62
     7
 10
214.188985
 20
157.048165
 30
0.0
 11
214.188985
 21
97.5
 31
0.0
  0
LINE
  8
0
  6
CONTINUOUS
 62
     7
 10
210.0
 20
92.5
 30
0.0
 11
208.28221
 21
97.514966
 31
0.0
  0
LINE
  8
0
  6
CONTINUOUS
 62
     7
 10
214.188985
 20
92.5
 30
0.0
 11
212.471195
 21
97.514966
 31
0.0
  0
LINE
  8
0
  6
CONTINUOUS
 62
     7
 10
218.241025
 20
92.5
 30
0.0
 11
216.523235
 21
97.514966
 31
0.0
  0
LINE
  8
0
  6
CONTINUOUS
 62
     7
 10
222.5
 20
92.5
 30
0.0
 11
220.78221
 21
97.514966
 31
0.0
  0
LINE
  8
0
  6
CONTINUOUS
 62
     7
 10
147.5
 20
92.5
 30
0.0
 11
145.78221
 21
97.514966
 31
0.0
  0
LINE
  8
0
  6
CONTINUOUS
 62
     7
 10
143.241025
 20
92.5
 30
0.0
 11
141.523235
 21
97.514966
 31
0.0
  0
LINE
  8
0
  6
CONTINUOUS
 62
     7
 10
139.188985
 20
92.5
 30
0.0
 11
137.471195
 21
97.514966
 31
0.0
  0
LINE
  8
0
  6
CONTINUOUS
 62
     7
 10
135.0
 20
92.5
 30
0.0
 11
133.28221
 21
97.514966
 31
0.0
  0
LINE
  8
0
  6
CONTINUOUS
 62
     7
 10
147.5
 20
80.0
 30
0.0
 11
147.5
 21
92.5
 31
0.0
  0
LINE
  8
0
  6
CONTINUOUS
 62
     7
 10
143.241025
 20
80.0
 30
0.0
 11
143.241025
 21
92.5
 31
0.0
  0
LINE
  8
0
  6
CONTINUOUS
 62
     7
 10
139.188985
 20
80.0
 30
0.0
 11
139.188985
 21
92.5
 31
0.0
  0
LINE
  8
0
  6
CONTINUOUS
 62
     7
 10
135.0
 20
52.5
 30
0.0
 11
135.0
 21
92.5
 31
0.0
  0
LINE
  8
0
  6
CONTINUOUS
 62
     7
 10
135.0
 20
152.5
 30
0.0
 11
135.0
 21
97.5
 31
0.0
  0
LINE
  8
0
  6
CONTINUOUS
 62
     7
 10
139.188985
 20
157.048165
 30
0.0
 11
139.188985
 21
97.5
 31
0.0
  0
LINE
  8
0
  6
CONTINUOUS
 62
     7
 10
143.241025
 20
144.548165
 30
0.0
 11
143.241025
 21
97.5
 31
0.0
  0
LINE
  8
0
  6
CONTINUOUS
 62
     7
 10
147.5
 20
132.048165
 30
0.0
 11
147.5
 21
97.5
 31
0.0
  0
LINE
  8
0
  6
CONTINUOUS
 62
     7
 10
165.0
 20
132.048165
 30
0.0
 11
165.0
 21
97.5
 31
0.0
  0
LINE
  8
0
  6
CONTINUOUS
 62
     7
 10
160.741025
 20
144.548165
 30
0.0
 11
160.741025
 21
97.5
 31
0.0
  0
LINE
  8
0
  6
CONTINUOUS
 62
     7
 10
156.688985
 20
157.048165
 30
0.0
 11
156.688985
 21
97.5
 31
0.0
  0
LINE
  8
0
  6
CONTINUOUS
 62
     7
 10
152.5
 20
157.048165
 30
0.0
 11
152.5
 21
97.5
 31
0.0
  0
LINE
  8
0
  6
CONTINUOUS
 62
     7
 10
152.5
 20
52.5
 30
0.0
 11
152.5
 21
92.5
 31
0.0
  0
LINE
  8
0
  6
CONTINUOUS
 62
     7
 10
156.688985
 20
80.0
 30
0.0
 11
156.688985
 21
92.5
 31
0.0
  0
LINE
  8
0
  6
CONTINUOUS
 62
     7
 10
160.741025
 20
80.0
 30
0.0
 11
160.741025
 21
92.5
 31
0.0
  0
LINE
  8
0
  6
CONTINUOUS
 62
     7
 10
165.0
 20
80.0
 30
0.0
 11
165.0
 21
92.5
 31
0.0
  0
LINE
  8
0
  6
CONTINUOUS
 62
     7
 10
152.5
 20
92.5
 30
0.0
 11
150.78221
 21
97.514966
 31
0.0
  0
LINE
  8
0
  6
CONTINUOUS
 62
     7
 10
156.688985
 20
92.5
 30
0.0
 11
154.971195
 21
97.514966
 31
0.0
  0
LINE
  8
0
  6
CONTINUOUS
 62
     7
 10
160.741025
 20
92.5
 30
0.0
 11
159.023235
 21
97.514966
 31
0.0
  0
LINE
  8
0
  6
CONTINUOUS
 62
     7
 10
165.0
 20
92.5
 30
0.0
 11
163.28221
 21
97.514966
 31
0.0
  0
LINE
  8
0
  6
CONTINUOUS
 62
     7
 10
262.5
 20
167.5
 30
0.0
 11
262.5
 21
130.0
 31
0.0
  0
LINE
  8
0
  6
CONTINUOUS
 62
     7
 10
280.957662
 20
132.606751
 30
0.0
 11
280.957662
 21
130.81862
 31
0.0
  0
LINE
  8
0
  6
CONTINUOUS
 62
     7
 10
275.558142
 20
130.59387
 30
0.0
 11
278.434253
 21
133.422428
 31
0.0
  0
LINE
  8
0
  6
CONTINUOUS
 62
     7
 10
278.003549
 20
133.959635
 30
0.0
 11
278.904226
 21
132.835886
 31
0.0
  0
LINE
  8
0
  6
CONTINUOUS
 62
     7
 10
273.173998
 20
131.761472
 30
0.0
 11
280.962203
 21
131.761472
 31
0.0
  0
LINE
  8
0
  6
CONTINUOUS
 62
     7
 10
273.142966
 20
132.606751
 30
0.0
 11
273.142966
 21
130.81862
 31
0.0
  0
LINE
  8
0
  6
CONTINUOUS
 62
     7
 10
266.194963
 20
133.369227
 30
0.0
 11
268.540729
 21
132.033873
 31
0.0
  0
LINE
  8
0
  6
CONTINUOUS
 62
     7
 10
268.540729
 20
132.033873
 30
0.0
 11
266.194963
 21
130.843954
 31
0.0
  0
LINE
  8
0
  6
CONTINUOUS
 62
     7
 10
267.637729
 20
133.369227
 30
0.0
 11
269.983494
 21
132.033873
 31
0.0
  0
LINE
  8
0
  6
CONTINUOUS
 62
     7
 10
269.983494
 20
132.033873
 30
0.0
 11
267.637729
 21
130.843954
 31
0.0
  0
TEXT
  8
0
  6
CONTINUOUS
 62
     7
 10
263.770128
 20
130.831269
 30
0.0
 40
2.5
  1
I
 11
263.770128
 21
129.997936
 31
0.0
 73
     1
  0
LINE
  8
0
  6
CONTINUOUS
 62
     7
 10
271.430886
 20
132.033873
 30
0.0
 11
269.08512
 21
130.843954
 31
0.0
  0
LINE
  8
0
  6
CONTINUOUS
 62
     7
 10
269.08512
 20
133.369227
 30
0.0
 11
271.430886
 21
132.033873
 31
0.0
  0
LINE
  8
0
  6
CONTINUOUS
 62
     7
 10
269.08512
 20
141.232238
 30
0.0
 11
271.430886
 21
139.896885
 31
0.0
  0
LINE
  8
0
  6
CONTINUOUS
 62
     7
 10
271.430886
 20
139.896885
 30
0.0
 11
269.08512
 21
138.706966
 31
0.0
  0
TEXT
  8
0
  6
CONTINUOUS
 62
     7
 10
263.770128
 20
138.694281
 30
0.0
 40
2.5
  1
I
 11
263.770128
 21
137.860948
 31
0.0
 73
     1
  0
LINE
  8
0
  6
CONTINUOUS
 62
     7
 10
269.983494
 20
139.896885
 30
0.0
 11
267.637729
 21
138.706966
 31
0.0
  0
LINE
  8
0
  6
CONTINUOUS
 62
     7
 10
267.637729
 20
141.232238
 30
0.0
 11
269.983494
 21
139.896885
 31
0.0
  0
LINE
  8
0
  6
CONTINUOUS
 62
     7
 10
268.540729
 20
139.896885
 30
0.0
 11
266.194963
 21
138.706966
 31
0.0
  0
LINE
  8
0
  6
CONTINUOUS
 62
     7
 10
266.194963
 20
141.232238
 30
0.0
 11
268.540729
 21
139.896885
 31
0.0
  0
LINE
  8
0
  6
HIDDEN
 62
     7
 10
262.5
 20
137.5
 30
0.0
 11
282.5
 21
137.5
 31
0.0
  0
LINE
  8
0
  6
HIDDEN
 62
     7
 10
262.5
 20
142.5
 30
0.0
 11
282.5
 21
142.5
 31
0.0
  0
TEXT
  8
0
  6
CONTINUOUS
 62
     7
 10
263.770128
 20
163.241357
 30
0.0
 40
2.5
  1
I
 11
263.770128
 21
162.408023
 31
0.0
 73
     1
  0
LINE
  8
0
  6
CONTINUOUS
 62
     7
 10
268.906117
 20
164.44396
 30
0.0
 11
266.560351
 21
163.254041
 31
0.0
  0
LINE
  8
0
  6
CONTINUOUS
 62
     7
 10
266.560351
 20
165.779314
 30
0.0
 11
268.906117
 21
164.44396
 31
0.0
  0
LINE
  8
0
  6
CONTINUOUS
 62
     7
 10
266.560351
 20
158.270306
 30
0.0
 11
268.906117
 21
156.934952
 31
0.0
  0
LINE
  8
0
  6
CONTINUOUS
 62
     7
 10
268.906117
 20
156.934952
 30
0.0
 11
266.560351
 21
155.745033
 31
0.0
  0
TEXT
  8
0
  6
CONTINUOUS
 62
     7
 10
263.770128
 20
155.732349
 30
0.0
 40
2.5
  1
I
 11
263.770128
 21
154.899015
 31
0.0
 73
     1
  0
LINE
  8
0
  6
HIDDEN
 62
     7
 10
262.5
 20
162.5
 30
0.0
 11
282.5
 21
162.5
 31
0.0
  0
TEXT
  8
0
  6
CONTINUOUS
 62
     7
 10
263.770128
 20
151.192977
 30
0.0
 40
2.5
  1
I
 11
263.770128
 21
150.359644
 31
0.0
 73
     1
  0
LINE
  8
0
  6
CONTINUOUS
 62
     7
 10
270.091232
 20
152.395581
 30
0.0
 11
267.745466
 21
151.205662
 31
0.0
  0
LINE
  8
0
  6
CONTINUOUS
 62
     7
 10
267.745466
 20
153.730934
 30
0.0
 11
270.091232
 21
152.395581
 31
0.0
  0
LINE
  8
0
  6
CONTINUOUS
 62
     7
 10
268.540729
 20
152.395581
 30
0.0
 11
266.194963
 21
151.205662
 31
0.0
  0
LINE
  8
0
  6
CONTINUOUS
 62
     7
 10
266.194963
 20
153.730934
 30
0.0
 11
268.540729
 21
152.395581
 31
0.0
  0
LINE
  8
0
  6
HIDDEN
 62
     7
 10
262.5
 20
155.0
 30
0.0
 11
282.5
 21
155.0
 31
0.0
  0
LINE
  8
0
  6
CONTINUOUS
 62
     7
 10
273.142966
 20
144.974627
 30
0.0
 11
273.142966
 21
143.186496
 31
0.0
  0
LINE
  8
0
  6
CONTINUOUS
 62
     7
 10
273.173998
 20
144.129349
 30
0.0
 11
280.962203
 21
144.129349
 31
0.0
  0
LINE
  8
0
  6
CONTINUOUS
 62
     7
 10
278.003549
 20
146.327511
 30
0.0
 11
278.904226
 21
145.203762
 31
0.0
  0
LINE
  8
0
  6
CONTINUOUS
 62
     7
 10
275.558142
 20
142.961746
 30
0.0
 11
278.434253
 21
145.790304
 31
0.0
  0
LINE
  8
0
  6
CONTINUOUS
 62
     7
 10
280.957662
 20
144.974627
 30
0.0
 11
280.957662
 21
143.186496
 31
0.0
  0
LINE
  8
0
  6
CONTINUOUS
 62
     7
 10
266.194963
 20
145.737103
 30
0.0
 11
268.540729
 21
144.401749
 31
0.0
  0
LINE
  8
0
  6
CONTINUOUS
 62
     7
 10
268.540729
 20
144.401749
 30
0.0
 11
266.194963
 21
143.21183
 31
0.0
  0
LINE
  8
0
  6
CONTINUOUS
 62
     7
 10
267.745466
 20
145.737103
 30
0.0
 11
270.091232
 21
144.401749
 31
0.0
  0
LINE
  8
0
  6
CONTINUOUS
 62
     7
 10
270.091232
 20
144.401749
 30
0.0
 11
267.745466
 21
143.21183
 31
0.0
  0
TEXT
  8
0
  6
CONTINUOUS
 62
     7
 10
263.770128
 20
143.199145
 30
0.0
 40
2.5
  1
I
 11
263.770128
 21
142.365812
 31
0.0
 73
     1
  0
LINE
  8
0
  6
HIDDEN
 62
     7
 10
262.5
 20
150.0
 30
0.0
 11
282.5
 21
150.0
 31
0.0
  0
LINE
  8
0
  6
CONTINUOUS
 62
     7
 10
273.142512
 20
157.690524
 30
0.0
 11
273.142512
 21
155.902393
 31
0.0
  0
LINE
  8
0
  6
CONTINUOUS
 62
     7
 10
273.173544
 20
156.845245
 30
0.0
 11
280.961749
 21
156.845245
 31
0.0
  0
LINE
  8
0
  6
CONTINUOUS
 62
     7
 10
278.003095
 20
159.043408
 30
0.0
 11
278.903772
 21
157.919659
 31
0.0
  0
ARC
  8
0
  6
HIDDEN
 62
     7
 10
279.868412
 20
160.77379
 30
0.0
 40
4.998196
 50
206.402922
 51
282.21115
  0
LINE
  8
0
  6
CONTINUOUS
 62
     7
 10
275.557688
 20
155.677643
 30
0.0
 11
278.433799
 21
158.506201
 31
0.0
  0
LINE
  8
0
  6
CONTINUOUS
 62
     7
 10
280.957208
 20
157.690524
 30
0.0
 11
280.957208
 21
155.902393
 31
0.0
  0
LINE
  8
0
  6
CONTINUOUS
 62
     7
 10
262.5
 20
130.0
 30
0.0
 11
282.5
 21
130.0
 31
0.0
  0
LINE
  8
0
  6
CONTINUOUS
 62
     7
 10
282.5
 20
130.0
 30
0.0
 11
282.5
 21
167.5
 31
0.0
  0
LINE
  8
0
  6
CONTINUOUS
 62
     7
 10
282.5
 20
167.5
 30
0.0
 11
262.5
 21
167.5
 31
0.0
  0
TEXT
  8
0
  6
CONTINUOUS
 62
     7
 10
263.535496
 20
134.833857
 30
0.0
 40
1.5
  1
EN
  0
CIRCLE
  8
0
  6
CONTINUOUS
 62
     7
 10
261.499834
 20
135.587359
 30
0.0
 40
1.0
  0
LINE
  8
0
  6
CONTINUOUS
 62
     7
 10
105.339749
 20
89.562818
 30
0.0
 11
101.290766
 21
88.00529
 31
0.0
  0
LINE
  8
0
  6
CONTINUOUS
 62
     7
 10
101.290766
 20
89.515871
 30
0.0
 11
94.950891
 21
89.515871
 31
0.0
  0
LINE
  8
0
  6
CONTINUOUS
 62
     7
 10
115.044233
 20
89.562818
 30
0.0
 11
105.339749
 21
89.562818
 31
0.0
  0
CIRCLE
  8
0
  6
CONTINUOUS
 62
     7
 10
115.743872
 20
89.585299
 30
0.0
 40
0.7
  0
LINE
  8
0
  6
CONTINUOUS
 62
     7
 10
115.741025
 20
90.285293
 30
0.0
 11
115.741025
 21
105.0
 31
0.0
  0
LINE
  8
0
  6
CONTINUOUS
 62
     7
 10
111.688985
 20
93.899912
 30
0.0
 11
111.688985
 21
105.0
 31
0.0
  0
LINE
  8
0
  6
CONTINUOUS
 62
     7
 10
226.670366
 20
92.5
 30
0.0
 11
224.952577
 21
97.514966
 31
0.0
  0
LINE
  8
0
  6
CONTINUOUS
 62
     7
 10
226.670366
 20
80.0
 30
0.0
 11
226.670366
 21
92.5
 31
0.0
  0
LINE
  8
0
  6
CONTINUOUS
 62
     7
 10
226.670366
 20
140.0
 30
0.0
 11
226.670366
 21
97.5
 31
0.0
  0
LINE
  8
0
  6
CONTINUOUS
 62
     7
 10
230.840732
 20
92.5
 30
0.0
 11
229.122943
 21
97.514966
 31
0.0
  0
LINE
  8
0
  6
CONTINUOUS
 62
     7
 10
230.840732
 20
132.048165
 30
0.0
 11
230.840732
 21
97.5
 31
0.0
  0
LINE
  8
0
  6
CONTINUOUS
 62
     7
 10
230.840732
 20
80.0
 30
0.0
 11
230.840732
 21
92.5
 31
0.0
  0
LINE
  8
0
  6
CONTINUOUS
 62
     7
 10
205.818586
 20
80.0
 30
0.0
 11
205.818586
 21
147.5
 31
0.0
  0
LINE
  8
0
  6
CONTINUOUS
 62
     7
 10
262.5
 20
140.0
 30
0.0
 11
226.670366
 21
140.0
 31
0.0
  0
LINE
  8
0
  6
CONTINUOUS
 62
     7
 10
262.5
 20
132.048165
 30
0.0
 11
115.741025
 21
132.048165
 31
0.0
  0
LINE
  8
0
  6
CONTINUOUS
 62
     7
 10
262.5
 20
152.5
 30
0.0
 11
135.0
 21
152.5
 31
0.0
  0
LINE
  8
0
  6
CONTINUOUS
 62
     7
 10
262.5
 20
165.0
 30
0.0
 11
180.0
 21
165.0
 31
0.0
  0
LINE
  8
0
  6
CONTINUOUS
 62
     7
 10
262.5
 20
144.548165
 30
0.0
 11
111.688985
 21
144.548165
 31
0.0
  0
LINE
  8
0
  6
CONTINUOUS
 62
     7
 10
262.5
 20
157.048165
 30
0.0
 11
107.5
 21
157.048165
 31
0.0
  0
LINE
  8
0
  6
CONTINUOUS
 62
     7
 10
95.0
 20
147.5
 30
0.0
 11
205.818586
 21
147.5
 31
0.0
  0
LINE
  8
0
  6
CONTINUOUS
 62
     7
 10
135.0
 20
80.0
 30
0.0
 11
147.5
 21
80.0
 31
0.0
  0
LINE
  8
0
  6
CONTINUOUS
 62
     7
 10
152.5
 20
80.0
 30
0.0
 11
165.0
 21
80.0
 31
0.0
  0
LINE
  8
0
  6
CONTINUOUS
 62
     7
 10
135.0
 20
67.5
 30
0.0
 11
142.5
 21
67.5
 31
0.0
  0
LINE
  8
0
  6
CONTINUOUS
 62
     7
 10
142.5
 20
67.5
 30
0.0
 11
142.5
 21
52.5
 31
0.0
  0
LINE
  8
0
  6
CONTINUOUS
 62
     7
 10
184.188985
 20
80.0
 30
0.0
 11
184.188985
 21
92.5
 31
0.0
  0
LINE
  8
0
  6
CONTINUOUS
 62
     7
 10
188.241025
 20
80.0
 30
0.0
 11
188.241025
 21
92.5
 31
0.0
  0
LINE
  8
0
  6
CONTINUOUS
 62
     7
 10
180.0
 20
92.5
 30
0.0
 11
178.28221
 21
97.514966
 31
0.0
  0
LINE
  8
0
  6
CONTINUOUS
 62
     7
 10
184.188985
 20
92.5
 30
0.0
 11
182.471195
 21
97.514966
 31
0.0
  0
LINE
  8
0
  6
CONTINUOUS
 62
     7
 10
188.241025
 20
92.5
 30
0.0
 11
186.523235
 21
97.514966
 31
0.0
  0
LINE
  8
0
  6
CONTINUOUS
 62
     7
 10
180.0
 20
52.5
 30
0.0
 11
180.0
 21
92.5
 31
0.0
  0
LINE
  8
0
  6
CONTINUOUS
 62
     7
 10
180.0
 20
80.0
 30
0.0
 11
188.241025
 21
80.0
 31
0.0
  0
LINE
  8
0
  6
CONTINUOUS
 62
     7
 10
188.241025
 20
157.048165
 30
0.0
 11
188.241025
 21
97.5
 31
0.0
  0
LINE
  8
0
  6
CONTINUOUS
 62
     7
 10
184.188985
 20
152.5
 30
0.0
 11
184.188985
 21
97.5
 31
0.0
  0
LINE
  8
0
  6
CONTINUOUS
 62
     7
 10
180.0
 20
165.0
 30
0.0
 11
180.0
 21
97.5
 31
0.0
  0
LINE
  8
0
  6
CONTINUOUS
 62
     7
 10
180.0
 20
67.5
 30
0.0
 11
187.5
 21
67.5
 31
0.0
  0
LINE
  8
0
  6
CONTINUOUS
 62
     7
 10
187.5
 20
67.5
 30
0.0
 11
187.5
 21
52.5
 31
0.0
  0
LINE
  8
0
  6
CONTINUOUS
 62
     7
 10
70.0
 20
182.5
 30
0.0
 11
64.256076
 21
179.285297
 31
0.0
  0
LINE
  8
0
  6
CONTINUOUS
 62
     7
 10
65.0
 20
182.5
 30
0.0
 11
45.0
 21
182.5
 31
0.0
  0
LINE
  8
0
  6
CONTINUOUS
 62
     7
 10
70.0
 20
182.5
 30
0.0
 11
75.0
 21
182.5
 31
0.0
  0
LINE
  8
0
  6
CONTINUOUS
 62
     7
 10
70.0
 20
190.0
 30
0.0
 11
75.0
 21
190.0
 31
0.0
  0
LINE
  8
0
  6
CONTINUOUS
 62
     7
 10
70.0
 20
190.0
 30
0.0
 11
64.256076
 21
186.785297
 31
0.0
  0
LINE
  8
0
  6
CONTINUOUS
 62
     7
 10
65.0
 20
190.0
 30
0.0
 11
45.0
 21
190.0
 31
0.0
  0
LINE
  8
0
  6
CONTINUOUS
 62
     7
 10
70.0
 20
197.5
 30
0.0
 11
75.0
 21
197.5
 31
0.0
  0
LINE
  8
0
  6
CONTINUOUS
 62
     7
 10
70.0
 20
197.5
 30
0.0
 11
64.256076
 21
194.285297
 31
0.0
  0
LINE
  8
0
  6
CONTINUOUS
 62
     7
 10
65.0
 20
197.5
 30
0.0
 11
45.0
 21
197.5
 31
0.0
  0
LINE
  8
0
  6
CONTINUOUS
 62
     7
 10
70.0
 20
205.0
 30
0.0
 11
75.0
 21
205.0
 31
0.0
  0
LINE
  8
0
  6
CONTINUOUS
 62
     7
 10
70.0
 20
205.0
 30
0.0
 11
64.256076
 21
201.785297
 31
0.0
  0
LINE
  8
0
  6
CONTINUOUS
 62
     7
 10
65.0
 20
205.0
 30
0.0
 11
45.0
 21
205.0
 31
0.0
  0
LINE
  8
0
  6
CONTINUOUS
 62
     7
 10
70.0
 20
212.5
 30
0.0
 11
75.0
 21
212.5
 31
0.0
  0
LINE
  8
0
  6
CONTINUOUS
 62
     7
 10
70.0
 20
212.5
 30
0.0
 11
64.256076
 21
209.285297
 31
0.0
  0
LINE
  8
0
  6
CONTINUOUS
 62
     7
 10
65.0
 20
212.5
 30
0.0
 11
45.0
 21
212.5
 31
0.0
  0
LINE
  8
0
  6
CONTINUOUS
 62
     7
 10
70.0
 20
220.0
 30
0.0
 11
64.256076
 21
216.785297
 31
0.0
  0
LINE
  8
0
  6
CONTINUOUS
 62
     7
 10
65.0
 20
220.0
 30
0.0
 11
45.0
 21
220.0
 31
0.0
  0
LINE
  8
0
  6
CONTINUOUS
 62
     7
 10
70.0
 20
220.0
 30
0.0
 11
75.0
 21
220.0
 31
0.0
  0
LINE
  8
0
  6
CONTINUOUS
 62
     7
 10
62.5
 20
52.5
 30
0.0
 11
35.0
 21
52.5
 31
0.0
  0
LINE
  8
0
  6
CONTINUOUS
 62
     7
 10
35.0
 20
52.5
 30
0.0
 11
35.0
 21
247.5
 31
0.0
  0
LINE
  8
0
  6
CONTINUOUS
 62
     7
 10
35.0
 20
247.5
 30
0.0
 11
292.5
 21
247.5
 31
0.0
  0
LINE
  8
0
  6
CONTINUOUS
 62
     7
 10
292.5
 20
247.5
 30
0.0
 11
292.5
 21
52.5
 31
0.0
  0
LINE
  8
0
  6
CONTINUOUS
 62
     7
 10
292.5
 20
52.5
 30
0.0
 11
267.5
 21
52.5
 31
0.0
  0
LINE
  8
0
  6
CONTINUOUS
 62
     7
 10
132.5
 20
220.0
 30
0.0
 11
137.5
 21
220.0
 31
0.0
  0
LINE
  8
0
  6
CONTINUOUS
 62
     7
 10
127.5
 20
220.0
 30
0.0
 11
107.5
 21
220.0
 31
0.0
  0
LINE
  8
0
  6
CONTINUOUS
 62
     7
 10
132.5
 20
220.0
 30
0.0
 11
126.756076
 21
216.785297
 31
0.0
  0
LINE
  8
0
  6
CONTINUOUS
 62
     7
 10
127.5
 20
212.5
 30
0.0
 11
107.5
 21
212.5
 31
0.0
  0
LINE
  8
0
  6
CONTINUOUS
 62
     7
 10
132.5
 20
212.5
 30
0.0
 11
126.756076
 21
209.285297
 31
0.0
  0
LINE
  8
0
  6
CONTINUOUS
 62
     7
 10
132.5
 20
212.5
 30
0.0
 11
137.5
 21
212.5
 31
0.0
  0
LINE
  8
0
  6
CONTINUOUS
 62
     7
 10
127.5
 20
205.0
 30
0.0
 11
107.5
 21
205.0
 31
0.0
  0
LINE
  8
0
  6
CONTINUOUS
 62
     7
 10
132.5
 20
205.0
 30
0.0
 11
126.756076
 21
201.785297
 31
0.0
  0
LINE
  8
0
  6
CONTINUOUS
 62
     7
 10
132.5
 20
205.0
 30
0.0
 11
137.5
 21
205.0
 31
0.0
  0
LINE
  8
0
  6
CONTINUOUS
 62
     7
 10
127.5
 20
197.5
 30
0.0
 11
107.5
 21
197.5
 31
0.0
  0
LINE
  8
0
  6
CONTINUOUS
 62
     7
 10
132.5
 20
197.5
 30
0.0
 11
126.756076
 21
194.285297
 31
0.0
  0
LINE
  8
0
  6
CONTINUOUS
 62
     7
 10
132.5
 20
197.5
 30
0.0
 11
137.5
 21
197.5
 31
0.0
  0
LINE
  8
0
  6
CONTINUOUS
 62
     7
 10
127.5
 20
190.0
 30
0.0
 11
107.5
 21
190.0
 31
0.0
  0
LINE
  8
0
  6
CONTINUOUS
 62
     7
 10
132.5
 20
190.0
 30
0.0
 11
126.756076
 21
186.785297
 31
0.0
  0
LINE
  8
0
  6
CONTINUOUS
 62
     7
 10
132.5
 20
190.0
 30
0.0
 11
137.5
 21
190.0
 31
0.0
  0
LINE
  8
0
  6
CONTINUOUS
 62
     7
 10
132.5
 20
182.5
 30
0.0
 11
137.5
 21
182.5
 31
0.0
  0
LINE
  8
0
  6
CONTINUOUS
 62
     7
 10
127.5
 20
182.5
 30
0.0
 11
107.5
 21
182.5
 31
0.0
  0
LINE
  8
0
  6
CONTINUOUS
 62
     7
 10
132.5
 20
182.5
 30
0.0
 11
126.756076
 21
179.285297
 31
0.0
  0
LINE
  8
0
  6
CONTINUOUS
 62
     7
 10
127.5
 20
175.0
 30
0.0
 11
107.5
 21
175.0
 31
0.0
  0
LINE
  8
0
  6
CONTINUOUS
 62
     7
 10
127.5
 20
167.5
 30
0.0
 11
107.5
 21
167.5
 31
0.0
  0
LINE
  8
0
  6
CONTINUOUS
 62
     7
 10
132.5
 20
175.0
 30
0.0
 11
137.5
 21
175.0
 31
0.0
  0
LINE
  8
0
  6
CONTINUOUS
 62
     7
 10
132.5
 20
167.5
 30
0.0
 11
137.5
 21
167.5
 31
0.0
  0
LINE
  8
0
  6
CONTINUOUS
 62
     7
 10
132.5
 20
175.0
 30
0.0
 11
126.756076
 21
171.785297
 31
0.0
  0
LINE
  8
0
  6
CONTINUOUS
 62
     7
 10
132.5
 20
167.5
 30
0.0
 11
126.756076
 21
164.285297
 31
0.0
  0
LINE
  8
0
  6
CONTINUOUS
 62
     7
 10
107.5
 20
167.5
 30
0.0
 11
107.5
 21
247.5
 31
0.0
  0
TEXT
  8
0
  6
CONTINUOUS
 62
     7
 10
140.0
 20
196.717554
 30
0.0
 40
1.5
  1
RESERVED
  7
ROMANS
  0
TEXT
  8
0
  6
CONTINUOUS
 62
     7
 10
140.0
 20
190.459607
 30
0.0
 40
1.5
  1
REMOTE
  7
ROMANS
  0
TEXT
  8
0
  6
CONTINUOUS
 62
     7
 10
140.0
 20
187.959607
 30
0.0
 40
1.5
  1
SETTINGS
  7
ROMANS
  0
TEXT
  8
0
  6
CONTINUOUS
 62
     7
 10
140.0
 20
182.946962
 30
0.0
 40
1.5
  1
TRIP INDIC.
  7
ROMANS
  0
TEXT
  8
0
  6
CONTINUOUS
 62
     7
 10
140.0
 20
180.446962
 30
0.0
 40
1.5
  1
RESET
  7
ROMANS
  0
TEXT
  8
0
  6
CONTINUOUS
 62
     7
 10
140.0
 20
174.189016
 30
0.0
 40
1.5
  1
RELAY RESET
  7
ROMANS
  0
TEXT
  8
0
  6
CONTINUOUS
 62
     7
 10
140.0
 20
167.931069
 30
0.0
 40
1.5
  1
COMPLETE
  7
ROMANS
  0
TEXT
  8
0
  6
CONTINUOUS
 62
     7
 10
140.0
 20
165.431069
 30
0.0
 40
1.5
  1
RELAY RESET
  7
ROMANS
  0
TEXT
  8
0
  6
CONTINUOUS
 62
     7
 10
77.5
 20
165.431069
 30
0.0
 40
1.5
  1
RELAY RESET
  7
ROMANS
  0
TEXT
  8
0
  6
CONTINUOUS
 62
     7
 10
77.5
 20
167.931069
 30
0.0
 40
1.5
  1
COMPLETE
  7
ROMANS
  0
TEXT
  8
0
  6
CONTINUOUS
 62
     7
 10
77.5
 20
174.189016
 30
0.0
 40
1.5
  1
RELAY RESET
  7
ROMANS
  0
TEXT
  8
0
  6
CONTINUOUS
 62
     7
 10
77.5
 20
180.446962
 30
0.0
 40
1.5
  1
RESET
  7
ROMANS
  0
TEXT
  8
0
  6
CONTINUOUS
 62
     7
 10
77.5
 20
182.946962
 30
0.0
 40
1.5
  1
TRIP INDIC.
  7
ROMANS
  0
TEXT
  8
0
  6
CONTINUOUS
 62
     7
 10
77.5
 20
187.959607
 30
0.0
 40
1.5
  1
SETTINGS
  7
ROMANS
  0
TEXT
  8
0
  6
CONTINUOUS
 62
     7
 10
77.5
 20
190.459607
 30
0.0
 40
1.5
  1
REMOTE
  7
ROMANS
  0
TEXT
  8
0
  6
CONTINUOUS
 62
     7
 10
77.5
 20
196.717554
 30
0.0
 40
1.5
  1
RESERVED
  7
ROMANS
  0
LINE
  8
0
  6
CONTINUOUS
 62
     7
 10
192.5
 20
220.0
 30
0.0
 11
172.5
 21
220.0
 31
0.0
  0
LINE
  8
0
  6
CONTINUOUS
 62
     7
 10
197.5
 20
220.0
 30
0.0
 11
191.756076
 21
216.785297
 31
0.0
  0
LINE
  8
0
  6
CONTINUOUS
 62
     7
 10
197.5
 20
220.0
 30
0.0
 11
202.5
 21
220.0
 31
0.0
  0
LINE
  8
0
  6
CONTINUOUS
 62
     7
 10
197.5
 20
212.5
 30
0.0
 11
202.5
 21
212.5
 31
0.0
  0
LINE
  8
0
  6
CONTINUOUS
 62
     7
 10
197.5
 20
212.5
 30
0.0
 11
191.756076
 21
209.285297
 31
0.0
  0
LINE
  8
0
  6
CONTINUOUS
 62
     7
 10
192.5
 20
212.5
 30
0.0
 11
172.5
 21
212.5
 31
0.0
  0
LINE
  8
0
  6
CONTINUOUS
 62
     7
 10
197.5
 20
205.0
 30
0.0
 11
191.756076
 21
201.785297
 31
0.0
  0
LINE
  8
0
  6
CONTINUOUS
 62
     7
 10
197.5
 20
205.0
 30
0.0
 11
202.5
 21
205.0
 31
0.0
  0
LINE
  8
0
  6
CONTINUOUS
 62
     7
 10
192.5
 20
205.0
 30
0.0
 11
172.5
 21
205.0
 31
0.0
  0
LINE
  8
0
  6
CONTINUOUS
 62
     7
 10
197.5
 20
197.5
 30
0.0
 11
191.756076
 21
194.285297
 31
0.0
  0
LINE
  8
0
  6
CONTINUOUS
 62
     7
 10
192.5
 20
197.5
 30
0.0
 11
172.5
 21
197.5
 31
0.0
  0
LINE
  8
0
  6
CONTINUOUS
 62
     7
 10
197.5
 20
197.5
 30
0.0
 11
202.5
 21
197.5
 31
0.0
  0
LINE
  8
0
  6
CONTINUOUS
 62
     7
 10
197.5
 20
190.0
 30
0.0
 11
191.756076
 21
186.785297
 31
0.0
  0
LINE
  8
0
  6
CONTINUOUS
 62
     7
 10
192.5
 20
190.0
 30
0.0
 11
172.5
 21
190.0
 31
0.0
  0
LINE
  8
0
  6
CONTINUOUS
 62
     7
 10
197.5
 20
190.0
 30
0.0
 11
202.5
 21
190.0
 31
0.0
  0
LINE
  8
0
  6
CONTINUOUS
 62
     7
 10
172.5
 20
190.0
 30
0.0
 11
172.5
 21
247.5
 31
0.0
  0
TEXT
  8
0
  6
CONTINUOUS
 62
     7
 10
205.0
 20
196.728574
 30
0.0
 40
1.5
  1
REMOTE SETTINGS
  7
ROMANS
  0
TEXT
  8
0
  6
CONTINUOUS
 62
     7
 10
205.0
 20
189.214305
 30
0.0
 40
1.5
  1
COMPLETE RELAY RESET
  7
ROMANS
  0
LINE
  8
0
  6
CONTINUOUS
 62
     7
 10
202.5
 20
205.0
 30
0.0
 11
242.5
 21
205.0
 31
0.0
  0
LINE
  8
0
  6
CONTINUOUS
 62
     7
 10
242.5
 20
205.0
 30
0.0
 11
242.5
 21
135.583152
 31
0.0
  0
LINE
  8
0
  6
CONTINUOUS
 62
     7
 10
242.5
 20
135.583152
 30
0.0
 11
260.499843
 21
135.583152
 31
0.0
  0
TEXT
  8
0
  6
CONTINUOUS
 62
     7
 10
263.535496
 20
147.333857
 30
0.0
 40
1.5
  1
EN
  0
CIRCLE
  8
0
  6
CONTINUOUS
 62
     7
 10
261.499834
 20
148.087359
 30
0.0
 40
1.0
  0
LINE
  8
0
  6
CONTINUOUS
 62
     7
 10
250.0
 20
148.083152
 30
0.0
 11
260.499843
 21
148.083152
 31
0.0
  0
TEXT
  8
0
  6
CONTINUOUS
 62
     7
 10
263.535496
 20
159.833857
 30
0.0
 40
1.5
  1
EN
  0
CIRCLE
  8
0
  6
CONTINUOUS
 62
     7
 10
261.499834
 20
160.587359
 30
0.0
 40
1.0
  0
LINE
  8
0
  6
CONTINUOUS
 62
     7
 10
257.5
 20
160.583152
 30
0.0
 11
260.499843
 21
160.583152
 31
0.0
  0
LINE
  8
0
  6
CONTINUOUS
 62
     7
 10
202.5
 20
212.5
 30
0.0
 11
250.0
 21
212.5
 31
0.0
  0
LINE
  8
0
  6
CONTINUOUS
 62
     7
 10
250.0
 20
212.5
 30
0.0
 11
250.0
 21
148.083152
 31
0.0
  0
LINE
  8
0
  6
CONTINUOUS
 62
     7
 10
202.5
 20
220.0
 30
0.0
 11
257.5
 21
220.0
 31
0.0
  0
LINE
  8
0
  6
CONTINUOUS
 62
     7
 10
257.5
 20
220.0
 30
0.0
 11
257.5
 21
160.583152
 31
0.0
  0
LINE
  8
0
  6
CONTINUOUS
 62
     7
 10
200.0
 20
220.0
 30
0.0
 11
200.0
 21
227.5
 31
0.0
  0
LINE
  8
0
  6
CONTINUOUS
 62
     7
 10
200.0
 20
227.5
 30
0.0
 11
85.0
 21
227.5
 31
0.0
  0
LINE
  8
0
  6
CONTINUOUS
 62
     7
 10
205.0
 20
212.5
 30
0.0
 11
205.0
 21
232.5
 31
0.0
  0
LINE
  8
0
  6
CONTINUOUS
 62
     7
 10
205.0
 20
232.5
 30
0.0
 11
80.0
 21
232.5
 31
0.0
  0
LINE
  8
0
  6
CONTINUOUS
 62
     7
 10
85.0
 20
227.5
 30
0.0
 11
75.0
 21
227.5
 31
0.0
  0
LINE
  8
0
  6
CONTINUOUS
 62
     7
 10
75.0
 20
227.5
 30
0.0
 11
75.0
 21
220.0
 31
0.0
  0
LINE
  8
0
  6
CONTINUOUS
 62
     7
 10
80.0
 20
232.5
 30
0.0
 11
80.0
 21
212.5
 31
0.0
  0
LINE
  8
0
  6
CONTINUOUS
 62
     7
 10
80.0
 20
212.5
 30
0.0
 11
75.0
 21
212.5
 31
0.0
  0
LINE
  8
0
  6
CONTINUOUS
 62
     7
 10
210.0
 20
205.0
 30
0.0
 11
210.0
 21
237.5
 31
0.0
  0
LINE
  8
0
  6
CONTINUOUS
 62
     7
 10
210.0
 20
237.5
 30
0.0
 11
85.0
 21
237.5
 31
0.0
  0
LINE
  8
0
  6
CONTINUOUS
 62
     7
 10
85.0
 20
237.5
 30
0.0
 11
85.0
 21
205.0
 31
0.0
  0
LINE
  8
0
  6
CONTINUOUS
 62
     7
 10
85.0
 20
205.0
 30
0.0
 11
75.0
 21
205.0
 31
0.0
  0
LINE
  8
0
  6
CONTINUOUS
 62
     7
 10
137.5
 20
220.0
 30
0.0
 11
140.0
 21
220.0
 31
0.0
  0
LINE
  8
0
  6
CONTINUOUS
 62
     7
 10
140.0
 20
220.0
 30
0.0
 11
140.0
 21
227.5
 31
0.0
  0
LINE
  8
0
  6
CONTINUOUS
 62
     7
 10
137.5
 20
212.5
 30
0.0
 11
145.0
 21
212.5
 31
0.0
  0
LINE
  8
0
  6
CONTINUOUS
 62
     7
 10
145.0
 20
212.5
 30
0.0
 11
145.0
 21
232.5
 31
0.0
  0
LINE
  8
0
  6
CONTINUOUS
 62
     7
 10
137.5
 20
205.0
 30
0.0
 11
150.0
 21
205.0
 31
0.0
  0
LINE
  8
0
  6
CONTINUOUS
 62
     7
 10
150.0
 20
205.0
 30
0.0
 11
150.0
 21
237.5
 31
0.0
  0
LINE
  8
0
  6
CONTINUOUS
 62
     7
 10
112.5
 20
72.5
 30
0.0
 11
112.5
 21
52.5
 31
0.0
  0
LINE
  8
0
  6
CONTINUOUS
 62
     7
 10
220.0
 20
72.5
 30
0.0
 11
220.0
 21
52.5
 31
0.0
  0
LINE
  8
0
  6
CONTINUOUS
 62
     7
 10
45.0
 20
247.5
 30
0.0
 11
45.0
 21
257.5
 31
0.0
  0
LINE
  8
0
  6
CONTINUOUS
 62
     7
 10
107.5
 20
247.5
 30
0.0
 11
107.5
 21
257.5
 31
0.0
  0
LINE
  8
0
  6
CONTINUOUS
 62
     7
 10
172.5
 20
247.5
 30
0.0
 11
172.5
 21
257.5
 31
0.0
  0
TEXT
  8
0
  6
CONTINUOUS
 62
     7
 10
35.0
 20
250.0
 30
0.0
 40
2.0
  1
RRES
  7
ROMANS
  0
TEXT
  8
0
  6
CONTINUOUS
 62
     7
 10
97.5
 20
250.0
 30
0.0
 40
2.0
  1
BS 2
  7
ROMANS
  0
TEXT
  8
0
  6
CONTINUOUS
 62
     7
 10
162.5
 20
250.0
 30
0.0
 40
2.0
  1
BS 1
  7
ROMANS
  0
LINE
  8
0
  6
CONTINUOUS
 62
     7
 10
112.5
 20
52.5
 30
0.0
 11
112.5
 21
42.5
 31
0.0
  0
LINE
  8
0
  6
CONTINUOUS
 62
     7
 10
135.0
 20
52.5
 30
0.0
 11
135.0
 21
42.5
 31
0.0
  0
LINE
  8
0
  6
CONTINUOUS
 62
     7
 10
152.5
 20
52.5
 30
0.0
 11
152.5
 21
42.5
 31
0.0
  0
LINE
  8
0
  6
CONTINUOUS
 62
     7
 10
180.0
 20
52.5
 30
0.0
 11
180.0
 21
42.5
 31
0.0
  0
LINE
  8
0
  6
CONTINUOUS
 62
     7
 10
220.0
 20
52.5
 30
0.0
 11
220.0
 21
42.5
 31
0.0
  0
LINE
  8
0
  6
CONTINUOUS
 62
     7
 10
142.5
 20
52.5
 30
0.0
 11
142.5
 21
45.0
 31
0.0
  0
LINE
  8
0
  6
CONTINUOUS
 62
     7
 10
187.5
 20
52.5
 30
0.0
 11
187.5
 21
45.0
 31
0.0
  0
TEXT
  8
0
  6
CONTINUOUS
 62
     7
 10
113.565126
 20
32.5
 30
0.0
 40
2.0
  1
TS 2
 50
90.0
  7
ROMANS
  0
TEXT
  8
0
  6
CONTINUOUS
 62
     7
 10
135.994638
 20
32.5
 30
0.0
 40
2.0
  1
SS3
 50
90.0
  7
ROMANS
  0
TEXT
  8
0
  6
CONTINUOUS
 62
     7
 10
143.451529
 20
32.5
 30
0.0
 40
2.0
  1
AR 1
 50
90.0
  7
ROMANS
  0
TEXT
  8
0
  6
CONTINUOUS
 62
     7
 10
153.495153
 20
32.5
 30
0.0
 40
2.0
  1
SS 2
 50
90.0
  7
ROMANS
  0
TEXT
  8
0
  6
CONTINUOUS
 62
     7
 10
180.976405
 20
32.5
 30
0.0
 40
2.0
  1
SS 1
 50
90.0
  7
ROMANS
  0
TEXT
  8
0
  6
CONTINUOUS
 62
     7
 10
188.585456
 20
32.5
 30
0.0
 40
2.0
  1
AR 2
 50
90.0
  7
ROMANS
  0
TEXT
  8
0
  6
CONTINUOUS
 62
     7
 10
223.128422
 20
37.5
 30
0.0
 40
2.0
  1
TS 1
 50
90.0
  7
ROMANS
  0
TEXT
  8
0
  6
CONTINUOUS
 62
     7
 10
138.534693
 20
32.5
 30
0.0
 40
1.5
  1
(NOT USED)
 50
90.0
  7
ROMANS
  0
TEXT
  8
0
  6
CONTINUOUS
 62
     7
 10
47.5
 20
240.0
 30
0.0
 40
2.0
  1
SPCJ 4D12
  0
TEXT
  8
0
  6
CONTINUOUS
 62
     7
 10
47.5
 20
217.5
 30
0.0
 40
1.5
  1
SGB3/1
  7
ROMANS
  0
TEXT
  8
0
  6
CONTINUOUS
 62
     7
 10
47.5
 20
210.0
 30
0.0
 40
1.5
  1
SGB3/2
  7
ROMANS
  0
TEXT
  8
0
  6
CONTINUOUS
 62
     7
 10
47.5
 20
202.5
 30
0.0
 40
1.5
  1
SGB3/3
  7
ROMANS
  0
TEXT
  8
0
  6
CONTINUOUS
 62
     7
 10
47.5
 20
195.0
 30
0.0
 40
1.5
  1
SGB3/4
  7
ROMANS
  0
TEXT
  8
0
  6
CONTINUOUS
 62
     7
 10
47.5
 20
187.5
 30
0.0
 40
1.5
  1
SGB3/5
  7
ROMANS
  0
TEXT
  8
0
  6
CONTINUOUS
 62
     7
 10
47.5
 20
180.0
 30
0.0
 40
1.5
  1
SGB3/6
  7
ROMANS
  0
TEXT
  8
0
  6
CONTINUOUS
 62
     7
 10
47.5
 20
172.5
 30
0.0
 40
1.5
  1
SGB3/7
  7
ROMANS
  0
TEXT
  8
0
  6
CONTINUOUS
 62
     7
 10
47.5
 20
165.0
 30
0.0
 40
1.5
  1
SGB3/8
  7
ROMANS
  0
TEXT
  8
0
  6
CONTINUOUS
 62
     7
 10
110.0
 20
217.5
 30
0.0
 40
1.5
  1
SGB2/1
  7
ROMANS
  0
TEXT
  8
0
  6
CONTINUOUS
 62
     7
 10
110.0
 20
210.0
 30
0.0
 40
1.5
  1
SGB2/2
  7
ROMANS
  0
TEXT
  8
0
  6
CONTINUOUS
 62
     7
 10
110.0
 20
202.5
 30
0.0
 40
1.5
  1
SGB2/3
  7
ROMANS
  0
TEXT
  8
0
  6
CONTINUOUS
 62
     7
 10
110.0
 20
195.0
 30
0.0
 40
1.5
  1
SGB2/4
  7
ROMANS
  0
TEXT
  8
0
  6
CONTINUOUS
 62
     7
 10
110.0
 20
187.5
 30
0.0
 40
1.5
  1
SGB2/5
  7
ROMANS
  0
TEXT
  8
0
  6
CONTINUOUS
 62
     7
 10
110.0
 20
180.0
 30
0.0
 40
1.5
  1
SGB2/6
  7
ROMANS
  0
TEXT
  8
0
  6
CONTINUOUS
 62
     7
 10
110.0
 20
172.5
 30
0.0
 40
1.5
  1
SGB2/7
  7
ROMANS
  0
TEXT
  8
0
  6
CONTINUOUS
 62
     7
 10
110.0
 20
165.0
 30
0.0
 40
1.5
  1
SGB2/8
  7
ROMANS
  0
TEXT
  8
0
  6
CONTINUOUS
 62
     7
 10
175.0
 20
217.5
 30
0.0
 40
1.5
  1
SGB1/1
  7
ROMANS
  0
TEXT
  8
0
  6
CONTINUOUS
 62
     7
 10
175.0
 20
210.0
 30
0.0
 40
1.5
  1
SGB1/2
  7
ROMANS
  0
TEXT
  8
0
  6
CONTINUOUS
 62
     7
 10
175.0
 20
202.5
 30
0.0
 40
1.5
  1
SGB1/3
  7
ROMANS
  0
TEXT
  8
0
  6
CONTINUOUS
 62
     7
 10
175.0
 20
195.0
 30
0.0
 40
1.5
  1
SGB1/7
  7
ROMANS
  0
TEXT
  8
0
  6
CONTINUOUS
 62
     7
 10
175.0
 20
187.5
 30
0.0
 40
1.5
  1
SGB1/8
  7
ROMANS
  0
TEXT
  8
0
  6
CONTINUOUS
 62
     7
 10
277.5
 20
237.5
 30
0.0
 40
2.5
  1
U3
  0
TEXT
  8
0
  6
CONTINUOUS
 62
     7
 10
87.469632
 20
94.411044
 30
0.0
 40
1.5
  1
SGB1/4
  7
ROMANS
  0
TEXT
  8
0
  6
CONTINUOUS
 62
     7
 10
87.469632
 20
90.974312
 30
0.0
 40
1.5
  1
SGB1/5
  7
ROMANS
  0
TEXT
  8
0
  6
CONTINUOUS
 62
     7
 10
87.469632
 20
87.240031
 30
0.0
 40
1.5
  1
SGB1/6
  7
ROMANS
  0
TEXT
  8
0
  6
CONTINUOUS
 62
     7
 10
94.14949
 20
141.567214
 30
0.0
 40
1.5
  1
SGF1/4
 50
90.0
  7
ROMANS
  0
TEXT
  8
0
  6
CONTINUOUS
 62
     7
 10
106.717972
 20
113.222818
 30
0.0
 40
1.5
  1
SGR1/2
 50
90.0
  7
ROMANS
  0
TEXT
  8
0
  6
CONTINUOUS
 62
     7
 10
111.074334
 20
113.222818
 30
0.0
 40
1.5
  1
SGR1/4
 50
90.0
  7
ROMANS
  0
TEXT
  8
0
  6
CONTINUOUS
 62
     7
 10
115.056383
 20
113.222818
 30
0.0
 40
1.5
  1
SGR1/6
 50
90.0
  7
ROMANS
  0
TEXT
  8
0
  6
CONTINUOUS
 62
     7
 10
134.061266
 20
102.555098
 30
0.0
 40
1.5
  1
SGF2/4
 50
90.0
  7
ROMANS
  0
TEXT
  8
0
  6
CONTINUOUS
 62
     7
 10
138.326332
 20
102.555098
 30
0.0
 40
1.5
  1
SGR1/6
 50
90.0
  7
ROMANS
  0
TEXT
  8
0
  6
CONTINUOUS
 62
     7
 10
142.393588
 20
102.555098
 30
0.0
 40
1.5
  1
SGR1/8
 50
90.0
  7
ROMANS
  0
TEXT
  8
0
  6
CONTINUOUS
 62
     7
 10
146.689085
 20
102.555098
 30
0.0
 40
1.5
  1
SGR2/8
 50
90.0
  7
ROMANS
  0
TEXT
  8
0
  6
CONTINUOUS
 62
     7
 10
151.593226
 20
102.555098
 30
0.0
 40
1.5
  1
SGF2/8
 50
90.0
  7
ROMANS
  0
TEXT
  8
0
  6
CONTINUOUS
 62
     7
 10
155.873507
 20
102.555098
 30
0.0
 40
1.5
  1
SGR1/5
 50
90.0
  7
ROMANS
  0
TEXT
  8
0
  6
CONTINUOUS
 62
     7
 10
159.819034
 20
102.555098
 30
0.0
 40
1.5
  1
SGR1/7
 50
90.0
  7
ROMANS
  0
TEXT
  8
0
  6
CONTINUOUS
 62
     7
 10
164.205828
 20
102.555098
 30
0.0
 40
1.5
  1
SGR2/7
 50
90.0
  7
ROMANS
  0
TEXT
  8
0
  6
CONTINUOUS
 62
     7
 10
179.152581
 20
102.555098
 30
0.0
 40
1.5
  1
SGR1/1
 50
90.0
  7
ROMANS
  0
TEXT
  8
0
  6
CONTINUOUS
 62
     7
 10
183.432862
 20
102.555098
 30
0.0
 40
1.5
  1
SGR1/3
 50
90.0
  7
ROMANS
  0
TEXT
  8
0
  6
CONTINUOUS
 62
     7
 10
187.500119
 20
102.555098
 30
0.0
 40
1.5
  1
SGF2/7
 50
90.0
  7
ROMANS
  0
TEXT
  8
0
  6
CONTINUOUS
 62
     7
 10
209.198266
 20
102.555098
 30
0.0
 40
1.5
  1
SGR2/1
 50
90.0
  7
ROMANS
  0
TEXT
  8
0
  6
CONTINUOUS
 62
     7
 10
213.493763
 20
102.555098
 30
0.0
 40
1.5
  1
SGR2/2
 50
90.0
  7
ROMANS
  0
TEXT
  8
0
  6
CONTINUOUS
 62
     7
 10
217.576235
 20
102.555098
 30
0.0
 40
1.5
  1
SGR2/3
 50
90.0
  7
ROMANS
  0
TEXT
  8
0
  6
CONTINUOUS
 62
     7
 10
221.704356
 20
102.555098
 30
0.0
 40
1.5
  1
SGR2/4
 50
90.0
  7
ROMANS
  0
TEXT
  8
0
  6
CONTINUOUS
 62
     7
 10
225.786828
 20
102.555098
 30
0.0
 40
1.5
  1
SGR2/5
 50
90.0
  7
ROMANS
  0
TEXT
  8
0
  6
CONTINUOUS
 62
     7
 10
230.173622
 20
102.555098
 30
0.0
 40
1.5
  1
SGR2/6
 50
90.0
  7
ROMANS
  0
TEXT
  8
0
  6
CONTINUOUS
 62
     7
 10
368.388887
 20
11.493768
 30
0.0
 40
2.0
  1
4/4
  7
ROMANS
  0
TEXT
  8
0
  6
CONTINUOUS
 62
     7
 10
212.941421
 20
27.704735
 30
0.0
 40
2.0
  1
1992-03-11 J RANTALA
  7
ROMANS
  0
TEXT
  8
0
  6
CONTINUOUS
 62
     7
 10
317.5
 20
27.5
 30
0.0
 40
2.0
  1
CIRCUIT DIAGRAM; PROGRAMMING OF U3 /
  7
ROMANS
  0
TEXT
  8
0
  6
CONTINUOUS
 62
     7
 10
317.5
 20
24.166667
 30
0.0
 40
2.0
  1
KRETSSCHEMA; PROGRAMMERING AV U3
  7
ROMANS
  0
TEXT
  8
0
  6
CONTINUOUS
 62
     7
 10
317.5
 20
20.833333
 30
0.0
 40
2.0
  1
SPAC 683 C / E 222
  7
ROMANS
  0
TEXT
  8
0
  6
CONTINUOUS
 62
     7
 10
317.5
 20
2.5
 30
0.0
 40
2.5
  1
RS 10174-AA
  7
ROMANS
  0
TEXT
  8
0
  6
CONTINUOUS
 62
     7
 10
380.0
 20
2.5
 30
0.0
 40
2.5
  1
B
  7
ROMANS
  0
TEXT
  8
0
  6
CONTINUOUS
 62
     7
 10
56.137334
 20
1.174784
 30
0.0
 40
2.0
  1
A CHANGE FOR THE FONT 1993-06-29  KM / RITU Power
  7
ROMANS
  0
TEXT
  8
0
  6
DASHED
 62
     7
 10
292.217194
 20
11.813359
 30
0.0
 40
3.0
  1
A3
  7
GREEKS
  0
TEXT
  8
0
  6
DASHED
 62
     7
 10
351.818577
 20
15.69253
 30
0.0
 40
1.4
  1
LEHTI SHEET
  7
GREEKS
  0
LINE
  8
0
 62
     7
 10
0.237099
 20
262.737999
 30
0.0
 11
392.237099
 21
262.737999
 31
0.0
  0
LINE
  8
0
 62
     7
 10
18.237099
 20
0.237999
 30
0.0
 11
0.237099
 21
0.237999
 31
0.0
  0
LINE
  8
0
 62
     7
 10
209.237099
 20
0.237999
 30
0.0
 11
392.237099
 21
0.237999
 31
0.0
  0
LINE
  8
0
 62
     7
 10
209.237099
 20
0.237999
 30
0.0
 11
209.237099
 21
35.237999
 31
0.0
  0
LINE
  8
0
 62
     7
 10
392.237099
 20
0.237999
 30
0.0
 11
392.237099
 21
35.237999
 31
0.0
  0
LINE
  8
0
 62
     7
 10
209.237099
 20
18.237999
 30
0.0
 11
392.237099
 21
18.237999
 31
0.0
  0
LINE
  8
0
 62
     7
 10
209.237099
 20
9.737999
 30
0.0
 11
392.237099
 21
9.737999
 31
0.0
  0
LINE
  8
0
 62
     7
 10
209.237099
 20
26.737999
 30
0.0
 11
307.237099
 21
26.737999
 31
0.0
  0
LINE
  8
0
 62
     7
 10
209.237099
 20
35.237999
 30
0.0
 11
392.237099
 21
35.237999
 31
0.0
  0
TEXT
  8
0
 62
     7
 10
210.237099
 20
23.971333
 30
0.0
 40
1.4
  1
TARKASTI  CHECKED
  7
ROMANS
  0
TEXT
  8
0
 62
     7
 10
209.979934
 20
15.704666
 30
0.0
 40
1.4
  1
HYVÄKSYI  APPROVED
  7
ROMANS
  0
LINE
  8
0
 62
     7
 10
307.237099
 20
0.237999
 30
0.0
 11
307.237099
 21
35.237999
 31
0.0
  0
TEXT
  8
0
 62
     7
 10
259.237099
 20
32.737999
 30
0.0
 40
1.4
  1
LIITTYY  CONCERNING
  7
ROMANS
  0
TEXT
  8
0
 62
     7
 10
259.237099
 20
23.737999
 30
0.0
 40
1.4
  1
TOLERANSSIT  TOLERANCES
  7
ROMANS
  0
TEXT
  8
0
 62
     7
 10
259.237099
 20
15.737999
 30
0.0
 40
1.4
  1
SUHDE  SCALE
  7
ROMANS
  0
TEXT
  8
0
 62
     7
 10
309.237099
 20
32.737999
 30
0.0
 40
1.4
  1
NIMITYS  NAME
  7
ROMANS
  0
TEXT
  8
0
 62
     7
 10
309.237099
 20
15.737999
 30
0.0
 40
1.4
  1
KOODI  CODE
  7
ROMANS
  0
TEXT
  8
0
 62
     7
 10
309.237099
 20
7.237999
 30
0.0
 40
1.4
  1
PIIRUSTUS NO  DRAWING NR
  7
ROMANS
  0
LINE
  8
0
 62
     7
 10
349.737099
 20
9.737999
 30
0.0
 11
349.737099
 21
18.237999
 31
0.0
  0
TEXT
  8
0
 62
     7
 10
371.237099
 20
7.237999
 30
0.0
 40
1.4
  1
PAINOS  REVISION
  7
ROMANS
  0
LINE
  8
0
 62
     7
 10
369.737099
 20
9.737999
 30
0.0
 11
369.737099
 21
0.237999
 31
0.0
  0
LINE
  8
0
 62
     7
 10
210.187099
 20
1.737999
 30
0.0
 11
211.937099
 21
1.737999
 31
0.0
  0
LINE
  8
0
 62
     7
 10
215.437099
 20
1.737999
 30
0.0
 11
217.187099
 21
1.737999
 31
0.0
  0
LINE
  8
0
 62
     7
 10
212.637099
 20
8.737999
 30
0.0
 11
211.459571
 21
5.373634
 31
0.0
  0
LINE
  8
0
 62
     7
 10
212.425886
 20
3.137999
 30
0.0
 11
213.547099
 21
3.137999
 31
0.0
  0
LINE
  8
0
 62
     7
 10
212.425889
 20
3.134542
 30
0.0
 11
211.937099
 21
1.737999
 31
0.0
  0
LINE
  8
0
 62
     7
 10
214.737099
 20
8.737999
 30
0.0
 11
215.913452
 21
5.376991
 31
0.0
  0
LINE
  8
0
 62
     7
 10
214.948197
 20
3.134863
 30
0.0
 11
215.437099
 21
1.737999
 31
0.0
  0
LINE
  8
0
 62
     7
 10
214.737099
 20
8.737999
 30
0.0
 11
213.827099
 21
8.737999
 31
0.0
  0
LINE
  8
0
 62
     7
 10
213.547099
 20
8.737999
 30
0.0
 11
213.547099
 21
5.377999
 31
0.0
  0
LINE
  8
0
 62
     7
 10
213.827099
 20
8.737999
 30
0.0
 11
213.827099
 21
5.377999
 31
0.0
  0
LINE
  8
0
 62
     7
 10
213.827099
 20
3.137999
 30
0.0
 11
214.946992
 21
3.137999
 31
0.0
  0
LINE
  8
0
 62
     7
 10
213.547099
 20
8.737999
 30
0.0
 11
212.637099
 21
8.737999
 31
0.0
  0
LINE
  8
0
 62
     7
 10
211.45904
 20
5.377999
 30
0.0
 11
213.547099
 21
5.377999
 31
0.0
  0
LINE
  8
0
 62
     7
 10
211.360082
 20
5.097999
 30
0.0
 11
213.547099
 21
5.097999
 31
0.0
  0
LINE
  8
0
 62
     7
 10
216.011591
 20
5.096594
 30
0.0
 11
217.187099
 21
1.737999
 31
0.0
  0
LINE
  8
0
 62
     7
 10
213.827099
 20
5.377999
 30
0.0
 11
215.912213
 21
5.377999
 31
0.0
  0
LINE
  8
0
 62
     7
 10
213.827099
 20
5.097999
 30
0.0
 11
216.010356
 21
5.097999
 31
0.0
  0
LINE
  8
0
 62
     7
 10
213.827099
 20
5.097999
 30
0.0
 11
213.827099
 21
3.137999
 31
0.0
  0
LINE
  8
0
 62
     7
 10
213.547099
 20
5.097999
 30
0.0
 11
213.547099
 21
3.137999
 31
0.0
  0
LINE
  8
0
 62
     7
 10
211.356988
 20
5.080538
 30
0.0
 11
210.187099
 21
1.737999
 31
0.0
  0
INSERT
  8
0
 62
     7
  2
*X14
 10
210.187099
 20
1.737999
 30
0.0
 41
0.7
 42
0.7
 43
0.7
  0
INSERT
  8
0
 62
     7
  2
*X15
 10
210.187099
 20
1.737999
 30
0.0
 41
0.7
 42
0.7
 43
0.7
  0
INSERT
  8
0
 62
     7
  2
*X16
 10
210.187099
 20
1.737999
 30
0.0
 41
0.7
 42
0.7
 43
0.7
  0
INSERT
  8
0
 62
     7
  2
*X17
 10
210.187099
 20
1.737999
 30
0.0
 41
0.7
 42
0.7
 43
0.7
  0
LINE
  8
0
 62
     7
 10
217.677099
 20
1.737999
 30
0.0
 11
217.677099
 21
5.097999
 31
0.0
  0
LINE
  8
0
 62
     7
 10
217.677099
 20
8.737999
 30
0.0
 11
219.637099
 21
8.737999
 31
0.0
  0
LINE
  8
0
 62
     7
 10
219.637099
 20
8.737999
 30
0.0
 11
219.637099
 21
5.377999
 31
0.0
  0
LINE
  8
0
 62
     7
 10
219.637099
 20
5.377999
 30
0.0
 11
217.677099
 21
5.377999
 31
0.0
  0
LINE
  8
0
 62
     7
 10
217.677099
 20
5.097999
 30
0.0
 11
219.637099
 21
5.097999
 31
0.0
  0
LINE
  8
0
 62
     7
 10
219.637099
 20
5.097999
 30
0.0
 11
219.637099
 21
1.737999
 31
0.0
  0
LINE
  8
0
 62
     7
 10
219.637099
 20
1.737999
 30
0.0
 11
217.677099
 21
1.737999
 31
0.0
  0
LINE
  8
0
 62
     7
 10
217.677099
 20
5.377999
 30
0.0
 11
217.677099
 21
8.737999
 31
0.0
  0
ARC
  8
0
 62
     7
 10
220.477099
 20
7.162999
 30
0.0
 40
1.575
 50
298.455859
 51
90.052437
  0
LINE
  8
0
 62
     7
 10
219.917099
 20
8.737999
 30
0.0
 11
220.475658
 21
8.737999
 31
0.0
  0
LINE
  8
0
 62
     7
 10
219.917099
 20
8.737999
 30
0.0
 11
219.917099
 21
5.377999
 31
0.0
  0
LINE
  8
0
 62
     7
 10
219.917099
 20
5.377999
 30
0.0
 11
221.901542
 21
5.377999
 31
0.0
  0
LINE
  8
0
 62
     7
 10
222.157099
 20
5.097999
 30
0.0
 11
219.917099
 21
5.097999
 31
0.0
  0
LINE
  8
0
 62
     7
 10
219.917099
 20
5.097999
 30
0.0
 11
219.917099
 21
1.737999
 31
0.0
  0
ARC
  8
0
 62
     7
 10
220.477099
 20
3.837999
 30
0.0
 40
2.1
 50
269.937724
 51
37.056553
  0
LINE
  8
0
 62
     7
 10
219.917099
 20
1.737999
 30
0.0
 11
220.474817
 21
1.738
 31
0.0
  0
ARC
  8
0
 62
     7
 10
220.477099
 20
3.837999
 30
0.0
 40
2.1
 50
47.28622
 51
68.787999
  0
INSERT
  8
0
 62
     7
  2
*X18
 10
210.187099
 20
1.737999
 30
0.0
 41
0.7
 42
0.7
 43
0.7
  0
INSERT
  8
0
 62
     7
  2
*X19
 10
210.187099
 20
1.737999
 30
0.0
 41
0.7
 42
0.7
 43
0.7
  0
INSERT
  8
0
 62
     7
  2
*X20
 10
210.187099
 20
1.737999
 30
0.0
 41
0.7
 42
0.7
 43
0.7
  0
INSERT
  8
0
 62
     7
  2
*X21
 10
210.187099
 20
1.737999
 30
0.0
 41
0.7
 42
0.7
 43
0.7
  0
INSERT
  8
0
 62
     7
  2
*X21
 10
215.647099
 20
1.737999
 30
0.0
 41
0.7
 42
0.7
 43
0.7
  0
INSERT
  8
0
 62
     7
  2
*X20
 10
215.647099
 20
1.737999
 30
0.0
 41
0.7
 42
0.7
 43
0.7
  0
INSERT
  8
0
 62
     7
  2
*X19
 10
215.647099
 20
1.737999
 30
0.0
 41
0.7
 42
0.7
 43
0.7
  0
INSERT
  8
0
 62
     7
  2
*X18
 10
215.647099
 20
1.737999
 30
0.0
 41
0.7
 42
0.7
 43
0.7
  0
ARC
  8
0
 62
     7
 10
225.937099
 20
3.837999
 30
0.0
 40
2.1
 50
47.28622
 51
68.787999
  0
LINE
  8
0
 62
     7
 10
225.377099
 20
1.737999
 30
0.0
 11
225.934817
 21
1.738
 31
0.0
  0
ARC
  8
0
 62
     7
 10
225.937099
 20
3.837999
 30
0.0
 40
2.1
 50
269.937724
 51
37.056553
  0
LINE
  8
0
 62
     7
 10
225.377099
 20
5.097999
 30
0.0
 11
225.377099
 21
1.737999
 31
0.0
  0
LINE
  8
0
 62
     7
 10
227.617099
 20
5.097999
 30
0.0
 11
225.377099
 21
5.097999
 31
0.0
  0
LINE
  8
0
 62
     7
 10
225.377099
 20
5.377999
 30
0.0
 11
227.361542
 21
5.377999
 31
0.0
  0
LINE
  8
0
 62
     7
 10
225.377099
 20
8.737999
 30
0.0
 11
225.377099
 21
5.377999
 31
0.0
  0
LINE
  8
0
 62
     7
 10
225.377099
 20
8.737999
 30
0.0
 11
225.935658
 21
8.737999
 31
0.0
  0
ARC
  8
0
 62
     7
 10
225.937099
 20
7.162999
 30
0.0
 40
1.575
 50
298.455859
 51
90.052437
  0
LINE
  8
0
 62
     7
 10
223.137099
 20
5.377999
 30
0.0
 11
223.137099
 21
8.737999
 31
0.0
  0
LINE
  8
0
 62
     7
 10
225.097099
 20
1.737999
 30
0.0
 11
223.137099
 21
1.737999
 31
0.0
  0
LINE
  8
0
 62
     7
 10
225.097099
 20
5.097999
 30
0.0
 11
225.097099
 21
1.737999
 31
0.0
  0
LINE
  8
0
 62
     7
 10
223.137099
 20
5.097999
 30
0.0
 11
225.097099
 21
5.097999
 31
0.0
  0
LINE
  8
0
 62
     7
 10
225.097099
 20
5.377999
 30
0.0
 11
223.137099
 21
5.377999
 31
0.0
  0
LINE
  8
0
 62
     7
 10
225.097099
 20
8.737999
 30
0.0
 11
225.097099
 21
5.377999
 31
0.0
  0
LINE
  8
0
 62
     7
 10
223.137099
 20
8.737999
 30
0.0
 11
225.097099
 21
8.737999
 31
0.0
  0
LINE
  8
0
 62
     7
 10
223.137099
 20
1.737999
 30
0.0
 11
223.137099
 21
5.097999
 31
0.0
  0
TEXT
  8
0
 62
     7
 10
229.737099
 20
1.737999
 30
0.0
 40
3.0
  1
ABB 
 41
0.8
  7
ROMANS
  0
TEXT
  8
0
 62
     7
 10
237.737099
 20
1.737999
 30
0.0
 40
3.0
  1
Strömberg
 41
0.8
  7
ROMANS
  0
LINE
  8
0
 62
     7
 10
282.237099
 20
9.737999
 30
0.0
 11
282.237099
 21
18.237999
 31
0.0
  0
TEXT
  8
0
 62
     7
 10
27.737099
 20
4.737999
 30
0.0
 40
1.4
  1
MUUTOS
  7
ROMANS
  0
TEXT
  8
0
 62
     7
 10
27.737099
 20
2.471333
 30
0.0
 40
1.4
  1
REVISION
  7
ROMANS
  0
LINE
  8
0
 62
     7
 10
46.737099
 20
9.237999
 30
0.0
 11
209.237099
 21
9.237999
 31
0.0
  0
LINE
  8
0
 62
     7
 10
46.737099
 20
0.237999
 30
0.0
 11
46.737099
 21
9.237999
 31
0.0
  0
LINE
  8
0
 62
     7
 10
40.737099
 20
4.737999
 30
0.0
 11
209.237099
 21
4.737999
 31
0.0
  0
LINE
  8
0
 62
     7
 10
257.237099
 20
9.737999
 30
0.0
 11
257.237099
 21
35.237999
 31
0.0
  0
LINE
  8
0
 62
     7
 10
271.237099
 20
9.737999
 30
0.0
 11
271.237099
 21
0.237999
 31
0.0
  0
TEXT
  8
0
 62
     7
 10
210.237099
 20
32.237999
 30
0.0
 40
1.4
  1
TEKI  PREPARED
  7
ROMANS
  0
TEXT
  8
0
 62
     7
 10
273.237099
 20
7.237999
 30
0.0
 40
1.4
  1
VAST.OSASTO RESP.DEPT.
  7
ROMANS
  0
TEXT
  8
0
 62
     7
 10
257.407006
 20
1.741783
 30
0.0
 40
3.0
  1
Power
 41
0.8
  7
ROMANS
  0
TEXT
  8
0
 62
     7
 10
42.237099
 20
1.195292
 30
0.0
 40
2.5
  1
B
  7
ROMANS
  0
TEXT
  8
0
 62
     7
 10
42.237099
 20
5.587508
 30
0.0
 40
2.5
  1
C
  7
ROMANS
  0
LINE
  8
0
 62
     7
 10
0.237099
 20
0.237999
 30
0.0
 11
392.237099
 21
0.237999
 31
0.0
  0
LINE
  8
0
 62
     7
 10
392.237099
 20
262.737999
 30
0.0
 11
392.237099
 21
0.237999
 31
0.0
  0
LINE
  8
0
 62
     7
 10
0.237099
 20
0.237999
 30
0.0
 11
0.237099
 21
262.737999
 31
0.0
  0
ARC
  8
0
  6
CONTINUOUS
 62
     7
 10
165.0
 20
132.048165
 30
0.0
 40
0.5
 50
180.0
 51
0.0
  0
ARC
  8
0
  6
CONTINUOUS
 62
     7
 10
165.0
 20
132.048165
 30
0.0
 40
0.5
 50
0.0
 51
180.0
  0
ARC
  8
0
  6
CONTINUOUS
 62
     7
 10
147.5
 20
132.048165
 30
0.0
 40
0.5
 50
180.0
 51
0.0
  0
ARC
  8
0
  6
CONTINUOUS
 62
     7
 10
147.5
 20
132.048165
 30
0.0
 40
0.5
 50
0.0
 51
180.0
  0
ARC
  8
0
  6
CONTINUOUS
 62
     7
 10
135.0
 20
80.0
 30
0.0
 40
0.5
 50
180.0
 51
0.0
  0
ARC
  8
0
  6
CONTINUOUS
 62
     7
 10
135.0
 20
80.0
 30
0.0
 40
0.5
 50
0.0
 51
180.0
  0
ARC
  8
0
  6
CONTINUOUS
 62
     7
 10
135.0
 20
67.5
 30
0.0
 40
0.5
 50
180.0
 51
0.0
  0
ARC
  8
0
  6
CONTINUOUS
 62
     7
 10
135.0
 20
67.5
 30
0.0
 40
0.5
 50
0.0
 51
180.0
  0
3DFACE
  8
0
  6
CONTINUOUS
 62
     7
 10
106.206597
 20
102.5
 30
0.0
 11
106.219531
 21
102.491019
 31
0.0
 12
106.219531
 22
102.509068
 32
0.0
 13
106.206597
 23
102.5
 33
0.0
  0
3DFACE
  8
0
  6
CONTINUOUS
 62
     7
 10
106.219531
 20
102.491019
 30
0.0
 11
106.232465
 21
102.482038
 31
0.0
 12
106.232465
 22
102.518136
 32
0.0
 13
106.219531
 23
102.509068
 33
0.0
  0
3DFACE
  8
0
  6
CONTINUOUS
 62
     7
 10
106.232465
 20
102.482038
 30
0.0
 11
106.245399
 21
102.473057
 31
0.0
 12
106.245399
 22
102.527203
 32
0.0
 13
106.232465
 23
102.518136
 33
0.0
  0
3DFACE
  8
0
  6
CONTINUOUS
 62
     7
 10
106.245399
 20
102.473057
 30
0.0
 11
106.258333
 21
102.464077
 31
0.0
 12
106.258333
 22
102.536271
 32
0.0
 13
106.245399
 23
102.527203
 33
0.0
  0
3DFACE
  8
0
  6
CONTINUOUS
 62
     7
 10
106.258333
 20
102.464077
 30
0.0
 11
106.271267
 21
102.455096
 31
0.0
 12
106.271267
 22
102.545339
 32
0.0
 13
106.258333
 23
102.536271
 33
0.0
  0
3DFACE
  8
0
  6
CONTINUOUS
 62
     7
 10
106.271267
 20
102.455096
 30
0.0
 11
106.284202
 21
102.446115
 31
0.0
 12
106.284202
 22
102.554406
 32
0.0
 13
106.271267
 23
102.545339
 33
0.0
  0
3DFACE
  8
0
  6
CONTINUOUS
 62
     7
 10
106.284202
 20
102.446115
 30
0.0
 11
106.297136
 21
102.437134
 31
0.0
 12
106.297136
 22
102.563474
 32
0.0
 13
106.284202
 23
102.554406
 33
0.0
  0
3DFACE
  8
0
  6
CONTINUOUS
 62
     7
 10
106.297136
 20
102.437134
 30
0.0
 11
106.31007
 21
102.428153
 31
0.0
 12
106.31007
 22
102.572542
 32
0.0
 13
106.297136
 23
102.563474
 33
0.0
  0
3DFACE
  8
0
  6
CONTINUOUS
 62
     7
 10
106.31007
 20
102.428153
 30
0.0
 11
106.323004
 21
102.419172
 31
0.0
 12
106.323004
 22
102.581609
 32
0.0
 13
106.31007
 23
102.572542
 33
0.0
  0
3DFACE
  8
0
  6
CONTINUOUS
 62
     7
 10
106.323004
 20
102.419172
 30
0.0
 11
106.335938
 21
102.410191
 31
0.0
 12
106.335938
 22
102.590677
 32
0.0
 13
106.323004
 23
102.581609
 33
0.0
  0
3DFACE
  8
0
  6
CONTINUOUS
 62
     7
 10
106.335938
 20
102.410191
 30
0.0
 11
106.348872
 21
102.40121
 31
0.0
 12
106.348872
 22
102.599745
 32
0.0
 13
106.335938
 23
102.590677
 33
0.0
  0
3DFACE
  8
0
  6
CONTINUOUS
 62
     7
 10
106.348872
 20
102.40121
 30
0.0
 11
106.361806
 21
102.39223
 31
0.0
 12
106.361806
 22
102.608812
 32
0.0
 13
106.348872
 23
102.599745
 33
0.0
  0
3DFACE
  8
0
  6
CONTINUOUS
 62
     7
 10
106.361806
 20
102.39223
 30
0.0
 11
106.37474
 21
102.383249
 31
0.0
 12
106.37474
 22
102.61788
 32
0.0
 13
106.361806
 23
102.608812
 33
0.0
  0
3DFACE
  8
0
  6
CONTINUOUS
 62
     7
 10
106.37474
 20
102.383249
 30
0.0
 11
106.387674
 21
102.374268
 31
0.0
 12
106.387674
 22
102.626948
 32
0.0
 13
106.37474
 23
102.61788
 33
0.0
  0
3DFACE
  8
0
  6
CONTINUOUS
 62
     7
 10
106.387674
 20
102.374268
 30
0.0
 11
106.400608
 21
102.365287
 31
0.0
 12
106.400608
 22
102.636015
 32
0.0
 13
106.387674
 23
102.626948
 33
0.0
  0
3DFACE
  8
0
  6
CONTINUOUS
 62
     7
 10
106.400608
 20
102.365287
 30
0.0
 11
106.413542
 21
102.356306
 31
0.0
 12
106.413542
 22
102.645083
 32
0.0
 13
106.400608
 23
102.636015
 33
0.0
  0
3DFACE
  8
0
  6
CONTINUOUS
 62
     7
 10
106.413542
 20
102.356306
 30
0.0
 11
106.426476
 21
102.347325
 31
0.0
 12
106.426476
 22
102.654151
 32
0.0
 13
106.413542
 23
102.645083
 33
0.0
  0
3DFACE
  8
0
  6
CONTINUOUS
 62
     7
 10
106.426476
 20
102.347325
 30
0.0
 11
106.43941
 21
102.338344
 31
0.0
 12
106.43941
 22
102.663219
 32
0.0
 13
106.426476
 23
102.654151
 33
0.0
  0
3DFACE
  8
0
  6
CONTINUOUS
 62
     7
 10
106.43941
 20
102.338344
 30
0.0
 11
106.452344
 21
102.329363
 31
0.0
 12
106.452344
 22
102.672286
 32
0.0
 13
106.43941
 23
102.663219
 33
0.0
  0
3DFACE
  8
0
  6
CONTINUOUS
 62
     7
 10
106.452344
 20
102.329363
 30
0.0
 11
106.465278
 21
102.320383
 31
0.0
 12
106.465278
 22
102.681354
 32
0.0
 13
106.452344
 23
102.672286
 33
0.0
  0
3DFACE
  8
0
  6
CONTINUOUS
 62
     7
 10
106.465278
 20
102.320383
 30
0.0
 11
106.478212
 21
102.311402
 31
0.0
 12
106.478212
 22
102.690422
 32
0.0
 13
106.465278
 23
102.681354
 33
0.0
  0
3DFACE
  8
0
  6
CONTINUOUS
 62
     7
 10
106.478212
 20
102.311402
 30
0.0
 11
106.491146
 21
102.302421
 31
0.0
 12
106.491146
 22
102.699489
 32
0.0
 13
106.478212
 23
102.690422
 33
0.0
  0
3DFACE
  8
0
  6
CONTINUOUS
 62
     7
 10
106.491146
 20
102.302421
 30
0.0
 11
106.50408
 21
102.29344
 31
0.0
 12
106.50408
 22
102.708557
 32
0.0
 13
106.491146
 23
102.699489
 33
0.0
  0
3DFACE
  8
0
  6
CONTINUOUS
 62
     7
 10
106.50408
 20
102.29344
 30
0.0
 11
106.517014
 21
102.284459
 31
0.0
 12
106.517014
 22
102.717625
 32
0.0
 13
106.50408
 23
102.708557
 33
0.0
  0
3DFACE
  8
0
  6
CONTINUOUS
 62
     7
 10
106.517014
 20
102.284459
 30
0.0
 11
106.529948
 21
102.275478
 31
0.0
 12
106.529948
 22
102.726692
 32
0.0
 13
106.517014
 23
102.717625
 33
0.0
  0
3DFACE
  8
0
  6
CONTINUOUS
 62
     7
 10
106.529948
 20
102.275478
 30
0.0
 11
106.542882
 21
102.266497
 31
0.0
 12
106.542882
 22
102.73576
 32
0.0
 13
106.529948
 23
102.726692
 33
0.0
  0
3DFACE
  8
0
  6
CONTINUOUS
 62
     7
 10
106.542882
 20
102.266497
 30
0.0
 11
106.555816
 21
102.257516
 31
0.0
 12
106.555816
 22
102.744828
 32
0.0
 13
106.542882
 23
102.73576
 33
0.0
  0
3DFACE
  8
0
  6
CONTINUOUS
 62
     7
 10
106.555816
 20
102.257516
 30
0.0
 11
106.56875
 21
102.248536
 31
0.0
 12
106.56875
 22
102.753895
 32
0.0
 13
106.555816
 23
102.744828
 33
0.0
  0
3DFACE
  8
0
  6
CONTINUOUS
 62
     7
 10
106.56875
 20
102.248536
 30
0.0
 11
106.581684
 21
102.239555
 31
0.0
 12
106.581684
 22
102.762963
 32
0.0
 13
106.56875
 23
102.753895
 33
0.0
  0
3DFACE
  8
0
  6
CONTINUOUS
 62
     7
 10
106.581684
 20
102.239555
 30
0.0
 11
106.594618
 21
102.230574
 31
0.0
 12
106.594618
 22
102.772031
 32
0.0
 13
106.581684
 23
102.762963
 33
0.0
  0
3DFACE
  8
0
  6
CONTINUOUS
 62
     7
 10
106.594618
 20
102.230574
 30
0.0
 11
106.607552
 21
102.221593
 31
0.0
 12
106.607552
 22
102.781098
 32
0.0
 13
106.594618
 23
102.772031
 33
0.0
  0
3DFACE
  8
0
  6
CONTINUOUS
 62
     7
 10
106.607552
 20
102.221593
 30
0.0
 11
106.620486
 21
102.212612
 31
0.0
 12
106.620486
 22
102.790166
 32
0.0
 13
106.607552
 23
102.781098
 33
0.0
  0
3DFACE
  8
0
  6
CONTINUOUS
 62
     7
 10
106.620486
 20
102.212612
 30
0.0
 11
106.63342
 21
102.203631
 31
0.0
 12
106.63342
 22
102.799234
 32
0.0
 13
106.620486
 23
102.790166
 33
0.0
  0
3DFACE
  8
0
  6
CONTINUOUS
 62
     7
 10
106.63342
 20
102.203631
 30
0.0
 11
106.646354
 21
102.19465
 31
0.0
 12
106.646354
 22
102.808301
 32
0.0
 13
106.63342
 23
102.799234
 33
0.0
  0
3DFACE
  8
0
  6
CONTINUOUS
 62
     7
 10
106.646354
 20
102.19465
 30
0.0
 11
106.659288
 21
102.185669
 31
0.0
 12
106.659288
 22
102.817369
 32
0.0
 13
106.646354
 23
102.808301
 33
0.0
  0
3DFACE
  8
0
  6
CONTINUOUS
 62
     7
 10
106.659288
 20
102.185669
 30
0.0
 11
106.672222
 21
102.176689
 31
0.0
 12
106.672222
 22
102.826437
 32
0.0
 13
106.659288
 23
102.817369
 33
0.0
  0
3DFACE
  8
0
  6
CONTINUOUS
 62
     7
 10
106.672222
 20
102.176689
 30
0.0
 11
106.685156
 21
102.167708
 31
0.0
 12
106.685156
 22
102.835505
 32
0.0
 13
106.672222
 23
102.826437
 33
0.0
  0
3DFACE
  8
0
  6
CONTINUOUS
 62
     7
 10
106.685156
 20
102.167708
 30
0.0
 11
106.69809
 21
102.158727
 31
0.0
 12
106.69809
 22
102.844572
 32
0.0
 13
106.685156
 23
102.835505
 33
0.0
  0
3DFACE
  8
0
  6
CONTINUOUS
 62
     7
 10
106.69809
 20
102.158727
 30
0.0
 11
106.711024
 21
102.149746
 31
0.0
 12
106.711024
 22
102.85364
 32
0.0
 13
106.69809
 23
102.844572
 33
0.0
  0
3DFACE
  8
0
  6
CONTINUOUS
 62
     7
 10
106.711024
 20
102.149746
 30
0.0
 11
106.723958
 21
102.140765
 31
0.0
 12
106.723958
 22
102.862708
 32
0.0
 13
106.711024
 23
102.85364
 33
0.0
  0
3DFACE
  8
0
  6
CONTINUOUS
 62
     7
 10
106.723958
 20
102.140765
 30
0.0
 11
106.736892
 21
102.131784
 31
0.0
 12
106.736892
 22
102.871775
 32
0.0
 13
106.723958
 23
102.862708
 33
0.0
  0
3DFACE
  8
0
  6
CONTINUOUS
 62
     7
 10
106.736892
 20
102.131784
 30
0.0
 11
106.749826
 21
102.122803
 31
0.0
 12
106.749826
 22
102.880843
 32
0.0
 13
106.736892
 23
102.871775
 33
0.0
  0
3DFACE
  8
0
  6
CONTINUOUS
 62
     7
 10
106.749826
 20
102.122803
 30
0.0
 11
106.76276
 21
102.113822
 31
0.0
 12
106.76276
 22
102.889911
 32
0.0
 13
106.749826
 23
102.880843
 33
0.0
  0
3DFACE
  8
0
  6
CONTINUOUS
 62
     7
 10
106.76276
 20
102.113822
 30
0.0
 11
106.775695
 21
102.104842
 31
0.0
 12
106.775695
 22
102.898978
 32
0.0
 13
106.76276
 23
102.889911
 33
0.0
  0
3DFACE
  8
0
  6
CONTINUOUS
 62
     7
 10
106.775695
 20
102.104842
 30
0.0
 11
106.788629
 21
102.095861
 31
0.0
 12
106.788629
 22
102.908046
 32
0.0
 13
106.775695
 23
102.898978
 33
0.0
  0
3DFACE
  8
0
  6
CONTINUOUS
 62
     7
 10
106.788629
 20
102.095861
 30
0.0
 11
106.801563
 21
102.08688
 31
0.0
 12
106.801563
 22
102.917114
 32
0.0
 13
106.788629
 23
102.908046
 33
0.0
  0
3DFACE
  8
0
  6
CONTINUOUS
 62
     7
 10
106.801563
 20
102.08688
 30
0.0
 11
106.814497
 21
102.077899
 31
0.0
 12
106.814497
 22
102.926181
 32
0.0
 13
106.801563
 23
102.917114
 33
0.0
  0
3DFACE
  8
0
  6
CONTINUOUS
 62
     7
 10
106.814497
 20
102.077899
 30
0.0
 11
106.827431
 21
102.068918
 31
0.0
 12
106.827431
 22
102.935249
 32
0.0
 13
106.814497
 23
102.926181
 33
0.0
  0
3DFACE
  8
0
  6
CONTINUOUS
 62
     7
 10
106.827431
 20
102.068918
 30
0.0
 11
106.840365
 21
102.059937
 31
0.0
 12
106.840365
 22
102.944317
 32
0.0
 13
106.827431
 23
102.935249
 33
0.0
  0
3DFACE
  8
0
  6
CONTINUOUS
 62
     7
 10
106.840365
 20
102.059937
 30
0.0
 11
106.853299
 21
102.050956
 31
0.0
 12
106.853299
 22
102.953384
 32
0.0
 13
106.840365
 23
102.944317
 33
0.0
  0
3DFACE
  8
0
  6
CONTINUOUS
 62
     7
 10
106.853299
 20
102.050956
 30
0.0
 11
106.866233
 21
102.041975
 31
0.0
 12
106.866233
 22
102.962452
 32
0.0
 13
106.853299
 23
102.953384
 33
0.0
  0
3DFACE
  8
0
  6
CONTINUOUS
 62
     7
 10
106.866233
 20
102.041975
 30
0.0
 11
106.879167
 21
102.032995
 31
0.0
 12
106.879167
 22
102.97152
 32
0.0
 13
106.866233
 23
102.962452
 33
0.0
  0
3DFACE
  8
0
  6
CONTINUOUS
 62
     7
 10
106.879167
 20
102.032995
 30
0.0
 11
106.892101
 21
102.024014
 31
0.0
 12
106.892101
 22
102.980588
 32
0.0
 13
106.879167
 23
102.97152
 33
0.0
  0
3DFACE
  8
0
  6
CONTINUOUS
 62
     7
 10
106.892101
 20
102.024014
 30
0.0
 11
106.905035
 21
102.015033
 31
0.0
 12
106.905035
 22
102.989655
 32
0.0
 13
106.892101
 23
102.980588
 33
0.0
  0
3DFACE
  8
0
  6
CONTINUOUS
 62
     7
 10
106.905035
 20
102.015033
 30
0.0
 11
106.917969
 21
102.006052
 31
0.0
 12
106.917969
 22
102.998723
 32
0.0
 13
106.905035
 23
102.989655
 33
0.0
  0
3DFACE
  8
0
  6
CONTINUOUS
 62
     7
 10
106.917969
 20
102.006052
 30
0.0
 11
106.930903
 21
101.997071
 31
0.0
 12
106.930903
 22
103.007791
 32
0.0
 13
106.917969
 23
102.998723
 33
0.0
  0
3DFACE
  8
0
  6
CONTINUOUS
 62
     7
 10
106.930903
 20
101.997071
 30
0.0
 11
106.943837
 21
101.98809
 31
0.0
 12
106.943837
 22
103.016858
 32
0.0
 13
106.930903
 23
103.007791
 33
0.0
  0
3DFACE
  8
0
  6
CONTINUOUS
 62
     7
 10
106.943837
 20
101.98809
 30
0.0
 11
106.956771
 21
101.979109
 31
0.0
 12
106.956771
 22
103.025926
 32
0.0
 13
106.943837
 23
103.016858
 33
0.0
  0
3DFACE
  8
0
  6
CONTINUOUS
 62
     7
 10
106.956771
 20
101.979109
 30
0.0
 11
106.969705
 21
101.970128
 31
0.0
 12
106.969705
 22
103.034994
 32
0.0
 13
106.956771
 23
103.025926
 33
0.0
  0
3DFACE
  8
0
  6
CONTINUOUS
 62
     7
 10
106.969705
 20
101.970128
 30
0.0
 11
106.982639
 21
101.961147
 31
0.0
 12
106.982639
 22
103.044061
 32
0.0
 13
106.969705
 23
103.034994
 33
0.0
  0
3DFACE
  8
0
  6
CONTINUOUS
 62
     7
 10
106.982639
 20
101.961147
 30
0.0
 11
106.995573
 21
101.952167
 31
0.0
 12
106.995573
 22
103.053129
 32
0.0
 13
106.982639
 23
103.044061
 33
0.0
  0
3DFACE
  8
0
  6
CONTINUOUS
 62
     7
 10
106.995573
 20
101.952167
 30
0.0
 11
107.008507
 21
101.943186
 31
0.0
 12
107.008507
 22
103.062197
 32
0.0
 13
106.995573
 23
103.053129
 33
0.0
  0
3DFACE
  8
0
  6
CONTINUOUS
 62
     7
 10
107.008507
 20
101.943186
 30
0.0
 11
107.021441
 21
101.934205
 31
0.0
 12
107.021441
 22
103.071264
 32
0.0
 13
107.008507
 23
103.062197
 33
0.0
  0
3DFACE
  8
0
  6
CONTINUOUS
 62
     7
 10
107.021441
 20
101.934205
 30
0.0
 11
107.034375
 21
101.925224
 31
0.0
 12
107.034375
 22
103.080332
 32
0.0
 13
107.021441
 23
103.071264
 33
0.0
  0
3DFACE
  8
0
  6
CONTINUOUS
 62
     7
 10
107.034375
 20
101.925224
 30
0.0
 11
107.047309
 21
101.916243
 31
0.0
 12
107.047309
 22
103.0894
 32
0.0
 13
107.034375
 23
103.080332
 33
0.0
  0
3DFACE
  8
0
  6
CONTINUOUS
 62
     7
 10
107.047309
 20
101.916243
 30
0.0
 11
107.060243
 21
101.907262
 31
0.0
 12
107.060243
 22
103.098467
 32
0.0
 13
107.047309
 23
103.0894
 33
0.0
  0
3DFACE
  8
0
  6
CONTINUOUS
 62
     7
 10
107.060243
 20
101.907262
 30
0.0
 11
107.073177
 21
101.898281
 31
0.0
 12
107.073177
 22
103.107535
 32
0.0
 13
107.060243
 23
103.098467
 33
0.0
  0
3DFACE
  8
0
  6
CONTINUOUS
 62
     7
 10
107.073177
 20
101.898281
 30
0.0
 11
107.086111
 21
101.8893
 31
0.0
 12
107.086111
 22
103.116603
 32
0.0
 13
107.073177
 23
103.107535
 33
0.0
  0
3DFACE
  8
0
  6
CONTINUOUS
 62
     7
 10
107.086111
 20
101.8893
 30
0.0
 11
107.099045
 21
101.88032
 31
0.0
 12
107.099045
 22
103.125671
 32
0.0
 13
107.086111
 23
103.116603
 33
0.0
  0
3DFACE
  8
0
  6
CONTINUOUS
 62
     7
 10
107.099045
 20
101.88032
 30
0.0
 11
107.111979
 21
101.871339
 31
0.0
 12
107.111979
 22
103.134738
 32
0.0
 13
107.099045
 23
103.125671
 33
0.0
  0
3DFACE
  8
0
  6
CONTINUOUS
 62
     7
 10
107.111979
 20
101.871339
 30
0.0
 11
107.124913
 21
101.862358
 31
0.0
 12
107.124913
 22
103.143806
 32
0.0
 13
107.111979
 23
103.134738
 33
0.0
  0
3DFACE
  8
0
  6
CONTINUOUS
 62
     7
 10
107.124913
 20
101.862358
 30
0.0
 11
107.137847
 21
101.853377
 31
0.0
 12
107.137847
 22
103.152874
 32
0.0
 13
107.124913
 23
103.143806
 33
0.0
  0
3DFACE
  8
0
  6
CONTINUOUS
 62
     7
 10
107.137847
 20
101.853377
 30
0.0
 11
107.150781
 21
101.844396
 31
0.0
 12
107.150781
 22
103.161941
 32
0.0
 13
107.137847
 23
103.152874
 33
0.0
  0
3DFACE
  8
0
  6
CONTINUOUS
 62
     7
 10
107.150781
 20
101.844396
 30
0.0
 11
107.163715
 21
101.835415
 31
0.0
 12
107.163715
 22
103.171009
 32
0.0
 13
107.150781
 23
103.161941
 33
0.0
  0
3DFACE
  8
0
  6
CONTINUOUS
 62
     7
 10
107.163715
 20
101.835415
 30
0.0
 11
107.176649
 21
101.826434
 31
0.0
 12
107.176649
 22
103.180077
 32
0.0
 13
107.163715
 23
103.171009
 33
0.0
  0
3DFACE
  8
0
  6
CONTINUOUS
 62
     7
 10
107.176649
 20
101.826434
 30
0.0
 11
107.189583
 21
101.817453
 31
0.0
 12
107.189583
 22
103.189144
 32
0.0
 13
107.176649
 23
103.180077
 33
0.0
  0
3DFACE
  8
0
  6
CONTINUOUS
 62
     7
 10
107.189583
 20
101.817453
 30
0.0
 11
107.202517
 21
101.808473
 31
0.0
 12
107.202517
 22
103.198212
 32
0.0
 13
107.189583
 23
103.189144
 33
0.0
  0
3DFACE
  8
0
  6
CONTINUOUS
 62
     7
 10
107.202517
 20
101.808473
 30
0.0
 11
107.215451
 21
101.799492
 31
0.0
 12
107.215451
 22
103.20728
 32
0.0
 13
107.202517
 23
103.198212
 33
0.0
  0
3DFACE
  8
0
  6
CONTINUOUS
 62
     7
 10
107.215451
 20
101.799492
 30
0.0
 11
107.228385
 21
101.790511
 31
0.0
 12
107.228385
 22
103.216347
 32
0.0
 13
107.215451
 23
103.20728
 33
0.0
  0
3DFACE
  8
0
  6
CONTINUOUS
 62
     7
 10
107.228385
 20
101.790511
 30
0.0
 11
107.241319
 21
101.78153
 31
0.0
 12
107.241319
 22
103.225415
 32
0.0
 13
107.228385
 23
103.216347
 33
0.0
  0
3DFACE
  8
0
  6
CONTINUOUS
 62
     7
 10
107.241319
 20
101.78153
 30
0.0
 11
107.254253
 21
101.772549
 31
0.0
 12
107.254253
 22
103.234483
 32
0.0
 13
107.241319
 23
103.225415
 33
0.0
  0
3DFACE
  8
0
  6
CONTINUOUS
 62
     7
 10
107.254253
 20
101.772549
 30
0.0
 11
107.267188
 21
101.763568
 31
0.0
 12
107.267188
 22
103.24355
 32
0.0
 13
107.254253
 23
103.234483
 33
0.0
  0
3DFACE
  8
0
  6
CONTINUOUS
 62
     7
 10
107.267188
 20
101.763568
 30
0.0
 11
107.280122
 21
101.754587
 31
0.0
 12
107.280122
 22
103.252618
 32
0.0
 13
107.267188
 23
103.24355
 33
0.0
  0
3DFACE
  8
0
  6
CONTINUOUS
 62
     7
 10
107.280122
 20
101.754587
 30
0.0
 11
107.293056
 21
101.745606
 31
0.0
 12
107.293056
 22
103.261686
 32
0.0
 13
107.280122
 23
103.252618
 33
0.0
  0
3DFACE
  8
0
  6
CONTINUOUS
 62
     7
 10
107.293056
 20
101.745606
 30
0.0
 11
107.30599
 21
101.736626
 31
0.0
 12
107.30599
 22
103.270754
 32
0.0
 13
107.293056
 23
103.261686
 33
0.0
  0
3DFACE
  8
0
  6
CONTINUOUS
 62
     7
 10
107.30599
 20
101.736626
 30
0.0
 11
107.318924
 21
101.727645
 31
0.0
 12
107.318924
 22
103.279821
 32
0.0
 13
107.30599
 23
103.270754
 33
0.0
  0
3DFACE
  8
0
  6
CONTINUOUS
 62
     7
 10
107.318924
 20
101.727645
 30
0.0
 11
107.331858
 21
101.718664
 31
0.0
 12
107.331858
 22
103.288889
 32
0.0
 13
107.318924
 23
103.279821
 33
0.0
  0
3DFACE
  8
0
  6
CONTINUOUS
 62
     7
 10
107.331858
 20
101.718664
 30
0.0
 11
107.344792
 21
101.709683
 31
0.0
 12
107.344792
 22
103.297957
 32
0.0
 13
107.331858
 23
103.288889
 33
0.0
  0
3DFACE
  8
0
  6
CONTINUOUS
 62
     7
 10
107.344792
 20
101.709683
 30
0.0
 11
107.357726
 21
101.700702
 31
0.0
 12
107.357726
 22
103.307024
 32
0.0
 13
107.344792
 23
103.297957
 33
0.0
  0
3DFACE
  8
0
  6
CONTINUOUS
 62
     7
 10
107.357726
 20
101.700702
 30
0.0
 11
107.37066
 21
101.691721
 31
0.0
 12
107.37066
 22
103.316092
 32
0.0
 13
107.357726
 23
103.307024
 33
0.0
  0
3DFACE
  8
0
  6
CONTINUOUS
 62
     7
 10
107.37066
 20
101.691721
 30
0.0
 11
107.383594
 21
101.68274
 31
0.0
 12
107.383594
 22
103.32516
 32
0.0
 13
107.37066
 23
103.316092
 33
0.0
  0
3DFACE
  8
0
  6
CONTINUOUS
 62
     7
 10
107.383594
 20
101.68274
 30
0.0
 11
107.396528
 21
101.673759
 31
0.0
 12
107.396528
 22
103.334227
 32
0.0
 13
107.383594
 23
103.32516
 33
0.0
  0
3DFACE
  8
0
  6
CONTINUOUS
 62
     7
 10
107.396528
 20
101.673759
 30
0.0
 11
107.409462
 21
101.664779
 31
0.0
 12
107.409462
 22
103.343295
 32
0.0
 13
107.396528
 23
103.334227
 33
0.0
  0
3DFACE
  8
0
  6
CONTINUOUS
 62
     7
 10
107.409462
 20
101.664779
 30
0.0
 11
107.422396
 21
101.655798
 31
0.0
 12
107.422396
 22
103.352363
 32
0.0
 13
107.409462
 23
103.343295
 33
0.0
  0
3DFACE
  8
0
  6
CONTINUOUS
 62
     7
 10
107.422396
 20
101.655798
 30
0.0
 11
107.43533
 21
101.646817
 31
0.0
 12
107.43533
 22
103.36143
 32
0.0
 13
107.422396
 23
103.352363
 33
0.0
  0
3DFACE
  8
0
  6
CONTINUOUS
 62
     7
 10
107.43533
 20
101.646817
 30
0.0
 11
107.448264
 21
101.637836
 31
0.0
 12
107.448264
 22
103.370498
 32
0.0
 13
107.43533
 23
103.36143
 33
0.0
  0
3DFACE
  8
0
  6
CONTINUOUS
 62
     7
 10
107.448264
 20
101.637836
 30
0.0
 11
107.461198
 21
101.628855
 31
0.0
 12
107.461198
 22
103.379566
 32
0.0
 13
107.448264
 23
103.370498
 33
0.0
  0
3DFACE
  8
0
  6
CONTINUOUS
 62
     7
 10
107.461198
 20
101.628855
 30
0.0
 11
107.474132
 21
101.619874
 31
0.0
 12
107.474132
 22
103.388633
 32
0.0
 13
107.461198
 23
103.379566
 33
0.0
  0
3DFACE
  8
0
  6
CONTINUOUS
 62
     7
 10
107.474132
 20
101.619874
 30
0.0
 11
107.487066
 21
101.610893
 31
0.0
 12
107.487066
 22
103.397701
 32
0.0
 13
107.474132
 23
103.388633
 33
0.0
  0
3DFACE
  8
0
  6
CONTINUOUS
 62
     7
 10
107.487066
 20
101.610893
 30
0.0
 11
107.5
 21
101.601912
 31
0.0
 12
107.5
 22
103.406769
 32
0.0
 13
107.487066
 23
103.397701
 33
0.0
  0
LINE
  8
0
  6
CONTINUOUS
 62
     7
 10
106.206597
 20
102.5
 30
0.0
 11
107.5
 21
102.5
 31
0.0
  0
3DFACE
  8
0
  6
CONTINUOUS
 62
     7
 10
110.395582
 20
102.5
 30
0.0
 11
110.408516
 21
102.491019
 31
0.0
 12
110.408516
 22
102.509068
 32
0.0
 13
110.395582
 23
102.5
 33
0.0
  0
3DFACE
  8
0
  6
CONTINUOUS
 62
     7
 10
110.408516
 20
102.491019
 30
0.0
 11
110.42145
 21
102.482038
 31
0.0
 12
110.42145
 22
102.518136
 32
0.0
 13
110.408516
 23
102.509068
 33
0.0
  0
3DFACE
  8
0
  6
CONTINUOUS
 62
     7
 10
110.42145
 20
102.482038
 30
0.0
 11
110.434384
 21
102.473057
 31
0.0
 12
110.434384
 22
102.527203
 32
0.0
 13
110.42145
 23
102.518136
 33
0.0
  0
3DFACE
  8
0
  6
CONTINUOUS
 62
     7
 10
110.434384
 20
102.473057
 30
0.0
 11
110.447318
 21
102.464077
 31
0.0
 12
110.447318
 22
102.536271
 32
0.0
 13
110.434384
 23
102.527203
 33
0.0
  0
3DFACE
  8
0
  6
CONTINUOUS
 62
     7
 10
110.447318
 20
102.464077
 30
0.0
 11
110.460252
 21
102.455096
 31
0.0
 12
110.460252
 22
102.545339
 32
0.0
 13
110.447318
 23
102.536271
 33
0.0
  0
3DFACE
  8
0
  6
CONTINUOUS
 62
     7
 10
110.460252
 20
102.455096
 30
0.0
 11
110.473186
 21
102.446115
 31
0.0
 12
110.473186
 22
102.554406
 32
0.0
 13
110.460252
 23
102.545339
 33
0.0
  0
3DFACE
  8
0
  6
CONTINUOUS
 62
     7
 10
110.473186
 20
102.446115
 30
0.0
 11
110.48612
 21
102.437134
 31
0.0
 12
110.48612
 22
102.563474
 32
0.0
 13
110.473186
 23
102.554406
 33
0.0
  0
3DFACE
  8
0
  6
CONTINUOUS
 62
     7
 10
110.48612
 20
102.437134
 30
0.0
 11
110.499054
 21
102.428153
 31
0.0
 12
110.499054
 22
102.572542
 32
0.0
 13
110.48612
 23
102.563474
 33
0.0
  0
3DFACE
  8
0
  6
CONTINUOUS
 62
     7
 10
110.499054
 20
102.428153
 30
0.0
 11
110.511988
 21
102.419172
 31
0.0
 12
110.511988
 22
102.581609
 32
0.0
 13
110.499054
 23
102.572542
 33
0.0
  0
3DFACE
  8
0
  6
CONTINUOUS
 62
     7
 10
110.511988
 20
102.419172
 30
0.0
 11
110.524922
 21
102.410191
 31
0.0
 12
110.524922
 22
102.590677
 32
0.0
 13
110.511988
 23
102.581609
 33
0.0
  0
3DFACE
  8
0
  6
CONTINUOUS
 62
     7
 10
110.524922
 20
102.410191
 30
0.0
 11
110.537856
 21
102.40121
 31
0.0
 12
110.537856
 22
102.599745
 32
0.0
 13
110.524922
 23
102.590677
 33
0.0
  0
3DFACE
  8
0
  6
CONTINUOUS
 62
     7
 10
110.537856
 20
102.40121
 30
0.0
 11
110.55079
 21
102.39223
 31
0.0
 12
110.55079
 22
102.608812
 32
0.0
 13
110.537856
 23
102.599745
 33
0.0
  0
3DFACE
  8
0
  6
CONTINUOUS
 62
     7
 10
110.55079
 20
102.39223
 30
0.0
 11
110.563724
 21
102.383249
 31
0.0
 12
110.563724
 22
102.61788
 32
0.0
 13
110.55079
 23
102.608812
 33
0.0
  0
3DFACE
  8
0
  6
CONTINUOUS
 62
     7
 10
110.563724
 20
102.383249
 30
0.0
 11
110.576659
 21
102.374268
 31
0.0
 12
110.576659
 22
102.626948
 32
0.0
 13
110.563724
 23
102.61788
 33
0.0
  0
3DFACE
  8
0
  6
CONTINUOUS
 62
     7
 10
110.576659
 20
102.374268
 30
0.0
 11
110.589593
 21
102.365287
 31
0.0
 12
110.589593
 22
102.636015
 32
0.0
 13
110.576659
 23
102.626948
 33
0.0
  0
3DFACE
  8
0
  6
CONTINUOUS
 62
     7
 10
110.589593
 20
102.365287
 30
0.0
 11
110.602527
 21
102.356306
 31
0.0
 12
110.602527
 22
102.645083
 32
0.0
 13
110.589593
 23
102.636015
 33
0.0
  0
3DFACE
  8
0
  6
CONTINUOUS
 62
     7
 10
110.602527
 20
102.356306
 30
0.0
 11
110.615461
 21
102.347325
 31
0.0
 12
110.615461
 22
102.654151
 32
0.0
 13
110.602527
 23
102.645083
 33
0.0
  0
3DFACE
  8
0
  6
CONTINUOUS
 62
     7
 10
110.615461
 20
102.347325
 30
0.0
 11
110.628395
 21
102.338344
 31
0.0
 12
110.628395
 22
102.663219
 32
0.0
 13
110.615461
 23
102.654151
 33
0.0
  0
3DFACE
  8
0
  6
CONTINUOUS
 62
     7
 10
110.628395
 20
102.338344
 30
0.0
 11
110.641329
 21
102.329363
 31
0.0
 12
110.641329
 22
102.672286
 32
0.0
 13
110.628395
 23
102.663219
 33
0.0
  0
3DFACE
  8
0
  6
CONTINUOUS
 62
     7
 10
110.641329
 20
102.329363
 30
0.0
 11
110.654263
 21
102.320383
 31
0.0
 12
110.654263
 22
102.681354
 32
0.0
 13
110.641329
 23
102.672286
 33
0.0
  0
3DFACE
  8
0
  6
CONTINUOUS
 62
     7
 10
110.654263
 20
102.320383
 30
0.0
 11
110.667197
 21
102.311402
 31
0.0
 12
110.667197
 22
102.690422
 32
0.0
 13
110.654263
 23
102.681354
 33
0.0
  0
3DFACE
  8
0
  6
CONTINUOUS
 62
     7
 10
110.667197
 20
102.311402
 30
0.0
 11
110.680131
 21
102.302421
 31
0.0
 12
110.680131
 22
102.699489
 32
0.0
 13
110.667197
 23
102.690422
 33
0.0
  0
3DFACE
  8
0
  6
CONTINUOUS
 62
     7
 10
110.680131
 20
102.302421
 30
0.0
 11
110.693065
 21
102.29344
 31
0.0
 12
110.693065
 22
102.708557
 32
0.0
 13
110.680131
 23
102.699489
 33
0.0
  0
3DFACE
  8
0
  6
CONTINUOUS
 62
     7
 10
110.693065
 20
102.29344
 30
0.0
 11
110.705999
 21
102.284459
 31
0.0
 12
110.705999
 22
102.717625
 32
0.0
 13
110.693065
 23
102.708557
 33
0.0
  0
3DFACE
  8
0
  6
CONTINUOUS
 62
     7
 10
110.705999
 20
102.284459
 30
0.0
 11
110.718933
 21
102.275478
 31
0.0
 12
110.718933
 22
102.726692
 32
0.0
 13
110.705999
 23
102.717625
 33
0.0
  0
3DFACE
  8
0
  6
CONTINUOUS
 62
     7
 10
110.718933
 20
102.275478
 30
0.0
 11
110.731867
 21
102.266497
 31
0.0
 12
110.731867
 22
102.73576
 32
0.0
 13
110.718933
 23
102.726692
 33
0.0
  0
3DFACE
  8
0
  6
CONTINUOUS
 62
     7
 10
110.731867
 20
102.266497
 30
0.0
 11
110.744801
 21
102.257516
 31
0.0
 12
110.744801
 22
102.744828
 32
0.0
 13
110.731867
 23
102.73576
 33
0.0
  0
3DFACE
  8
0
  6
CONTINUOUS
 62
     7
 10
110.744801
 20
102.257516
 30
0.0
 11
110.757735
 21
102.248536
 31
0.0
 12
110.757735
 22
102.753895
 32
0.0
 13
110.744801
 23
102.744828
 33
0.0
  0
3DFACE
  8
0
  6
CONTINUOUS
 62
     7
 10
110.757735
 20
102.248536
 30
0.0
 11
110.770669
 21
102.239555
 31
0.0
 12
110.770669
 22
102.762963
 32
0.0
 13
110.757735
 23
102.753895
 33
0.0
  0
3DFACE
  8
0
  6
CONTINUOUS
 62
     7
 10
110.770669
 20
102.239555
 30
0.0
 11
110.783603
 21
102.230574
 31
0.0
 12
110.783603
 22
102.772031
 32
0.0
 13
110.770669
 23
102.762963
 33
0.0
  0
3DFACE
  8
0
  6
CONTINUOUS
 62
     7
 10
110.783603
 20
102.230574
 30
0.0
 11
110.796537
 21
102.221593
 31
0.0
 12
110.796537
 22
102.781098
 32
0.0
 13
110.783603
 23
102.772031
 33
0.0
  0
3DFACE
  8
0
  6
CONTINUOUS
 62
     7
 10
110.796537
 20
102.221593
 30
0.0
 11
110.809471
 21
102.212612
 31
0.0
 12
110.809471
 22
102.790166
 32
0.0
 13
110.796537
 23
102.781098
 33
0.0
  0
3DFACE
  8
0
  6
CONTINUOUS
 62
     7
 10
110.809471
 20
102.212612
 30
0.0
 11
110.822405
 21
102.203631
 31
0.0
 12
110.822405
 22
102.799234
 32
0.0
 13
110.809471
 23
102.790166
 33
0.0
  0
3DFACE
  8
0
  6
CONTINUOUS
 62
     7
 10
110.822405
 20
102.203631
 30
0.0
 11
110.835339
 21
102.19465
 31
0.0
 12
110.835339
 22
102.808301
 32
0.0
 13
110.822405
 23
102.799234
 33
0.0
  0
3DFACE
  8
0
  6
CONTINUOUS
 62
     7
 10
110.835339
 20
102.19465
 30
0.0
 11
110.848273
 21
102.185669
 31
0.0
 12
110.848273
 22
102.817369
 32
0.0
 13
110.835339
 23
102.808301
 33
0.0
  0
3DFACE
  8
0
  6
CONTINUOUS
 62
     7
 10
110.848273
 20
102.185669
 30
0.0
 11
110.861207
 21
102.176689
 31
0.0
 12
110.861207
 22
102.826437
 32
0.0
 13
110.848273
 23
102.817369
 33
0.0
  0
3DFACE
  8
0
  6
CONTINUOUS
 62
     7
 10
110.861207
 20
102.176689
 30
0.0
 11
110.874141
 21
102.167708
 31
0.0
 12
110.874141
 22
102.835505
 32
0.0
 13
110.861207
 23
102.826437
 33
0.0
  0
3DFACE
  8
0
  6
CONTINUOUS
 62
     7
 10
110.874141
 20
102.167708
 30
0.0
 11
110.887075
 21
102.158727
 31
0.0
 12
110.887075
 22
102.844572
 32
0.0
 13
110.874141
 23
102.835505
 33
0.0
  0
3DFACE
  8
0
  6
CONTINUOUS
 62
     7
 10
110.887075
 20
102.158727
 30
0.0
 11
110.900009
 21
102.149746
 31
0.0
 12
110.900009
 22
102.85364
 32
0.0
 13
110.887075
 23
102.844572
 33
0.0
  0
3DFACE
  8
0
  6
CONTINUOUS
 62
     7
 10
110.900009
 20
102.149746
 30
0.0
 11
110.912943
 21
102.140765
 31
0.0
 12
110.912943
 22
102.862708
 32
0.0
 13
110.900009
 23
102.85364
 33
0.0
  0
3DFACE
  8
0
  6
CONTINUOUS
 62
     7
 10
110.912943
 20
102.140765
 30
0.0
 11
110.925877
 21
102.131784
 31
0.0
 12
110.925877
 22
102.871775
 32
0.0
 13
110.912943
 23
102.862708
 33
0.0
  0
3DFACE
  8
0
  6
CONTINUOUS
 62
     7
 10
110.925877
 20
102.131784
 30
0.0
 11
110.938811
 21
102.122803
 31
0.0
 12
110.938811
 22
102.880843
 32
0.0
 13
110.925877
 23
102.871775
 33
0.0
  0
3DFACE
  8
0
  6
CONTINUOUS
 62
     7
 10
110.938811
 20
102.122803
 30
0.0
 11
110.951745
 21
102.113822
 31
0.0
 12
110.951745
 22
102.889911
 32
0.0
 13
110.938811
 23
102.880843
 33
0.0
  0
3DFACE
  8
0
  6
CONTINUOUS
 62
     7
 10
110.951745
 20
102.113822
 30
0.0
 11
110.964679
 21
102.104842
 31
0.0
 12
110.964679
 22
102.898978
 32
0.0
 13
110.951745
 23
102.889911
 33
0.0
  0
3DFACE
  8
0
  6
CONTINUOUS
 62
     7
 10
110.964679
 20
102.104842
 30
0.0
 11
110.977613
 21
102.095861
 31
0.0
 12
110.977613
 22
102.908046
 32
0.0
 13
110.964679
 23
102.898978
 33
0.0
  0
3DFACE
  8
0
  6
CONTINUOUS
 62
     7
 10
110.977613
 20
102.095861
 30
0.0
 11
110.990547
 21
102.08688
 31
0.0
 12
110.990547
 22
102.917114
 32
0.0
 13
110.977613
 23
102.908046
 33
0.0
  0
3DFACE
  8
0
  6
CONTINUOUS
 62
     7
 10
110.990547
 20
102.08688
 30
0.0
 11
111.003481
 21
102.077899
 31
0.0
 12
111.003481
 22
102.926181
 32
0.0
 13
110.990547
 23
102.917114
 33
0.0
  0
3DFACE
  8
0
  6
CONTINUOUS
 62
     7
 10
111.003481
 20
102.077899
 30
0.0
 11
111.016415
 21
102.068918
 31
0.0
 12
111.016415
 22
102.935249
 32
0.0
 13
111.003481
 23
102.926181
 33
0.0
  0
3DFACE
  8
0
  6
CONTINUOUS
 62
     7
 10
111.016415
 20
102.068918
 30
0.0
 11
111.029349
 21
102.059937
 31
0.0
 12
111.029349
 22
102.944317
 32
0.0
 13
111.016415
 23
102.935249
 33
0.0
  0
3DFACE
  8
0
  6
CONTINUOUS
 62
     7
 10
111.029349
 20
102.059937
 30
0.0
 11
111.042283
 21
102.050956
 31
0.0
 12
111.042283
 22
102.953384
 32
0.0
 13
111.029349
 23
102.944317
 33
0.0
  0
3DFACE
  8
0
  6
CONTINUOUS
 62
     7
 10
111.042283
 20
102.050956
 30
0.0
 11
111.055217
 21
102.041975
 31
0.0
 12
111.055217
 22
102.962452
 32
0.0
 13
111.042283
 23
102.953384
 33
0.0
  0
3DFACE
  8
0
  6
CONTINUOUS
 62
     7
 10
111.055217
 20
102.041975
 30
0.0
 11
111.068152
 21
102.032995
 31
0.0
 12
111.068152
 22
102.97152
 32
0.0
 13
111.055217
 23
102.962452
 33
0.0
  0
3DFACE
  8
0
  6
CONTINUOUS
 62
     7
 10
111.068152
 20
102.032995
 30
0.0
 11
111.081086
 21
102.024014
 31
0.0
 12
111.081086
 22
102.980588
 32
0.0
 13
111.068152
 23
102.97152
 33
0.0
  0
3DFACE
  8
0
  6
CONTINUOUS
 62
     7
 10
111.081086
 20
102.024014
 30
0.0
 11
111.09402
 21
102.015033
 31
0.0
 12
111.09402
 22
102.989655
 32
0.0
 13
111.081086
 23
102.980588
 33
0.0
  0
3DFACE
  8
0
  6
CONTINUOUS
 62
     7
 10
111.09402
 20
102.015033
 30
0.0
 11
111.106954
 21
102.006052
 31
0.0
 12
111.106954
 22
102.998723
 32
0.0
 13
111.09402
 23
102.989655
 33
0.0
  0
3DFACE
  8
0
  6
CONTINUOUS
 62
     7
 10
111.106954
 20
102.006052
 30
0.0
 11
111.119888
 21
101.997071
 31
0.0
 12
111.119888
 22
103.007791
 32
0.0
 13
111.106954
 23
102.998723
 33
0.0
  0
3DFACE
  8
0
  6
CONTINUOUS
 62
     7
 10
111.119888
 20
101.997071
 30
0.0
 11
111.132822
 21
101.98809
 31
0.0
 12
111.132822
 22
103.016858
 32
0.0
 13
111.119888
 23
103.007791
 33
0.0
  0
3DFACE
  8
0
  6
CONTINUOUS
 62
     7
 10
111.132822
 20
101.98809
 30
0.0
 11
111.145756
 21
101.979109
 31
0.0
 12
111.145756
 22
103.025926
 32
0.0
 13
111.132822
 23
103.016858
 33
0.0
  0
3DFACE
  8
0
  6
CONTINUOUS
 62
     7
 10
111.145756
 20
101.979109
 30
0.0
 11
111.15869
 21
101.970128
 31
0.0
 12
111.15869
 22
103.034994
 32
0.0
 13
111.145756
 23
103.025926
 33
0.0
  0
3DFACE
  8
0
  6
CONTINUOUS
 62
     7
 10
111.15869
 20
101.970128
 30
0.0
 11
111.171624
 21
101.961147
 31
0.0
 12
111.171624
 22
103.044061
 32
0.0
 13
111.15869
 23
103.034994
 33
0.0
  0
3DFACE
  8
0
  6
CONTINUOUS
 62
     7
 10
111.171624
 20
101.961147
 30
0.0
 11
111.184558
 21
101.952167
 31
0.0
 12
111.184558
 22
103.053129
 32
0.0
 13
111.171624
 23
103.044061
 33
0.0
  0
3DFACE
  8
0
  6
CONTINUOUS
 62
     7
 10
111.184558
 20
101.952167
 30
0.0
 11
111.197492
 21
101.943186
 31
0.0
 12
111.197492
 22
103.062197
 32
0.0
 13
111.184558
 23
103.053129
 33
0.0
  0
3DFACE
  8
0
  6
CONTINUOUS
 62
     7
 10
111.197492
 20
101.943186
 30
0.0
 11
111.210426
 21
101.934205
 31
0.0
 12
111.210426
 22
103.071264
 32
0.0
 13
111.197492
 23
103.062197
 33
0.0
  0
3DFACE
  8
0
  6
CONTINUOUS
 62
     7
 10
111.210426
 20
101.934205
 30
0.0
 11
111.22336
 21
101.925224
 31
0.0
 12
111.22336
 22
103.080332
 32
0.0
 13
111.210426
 23
103.071264
 33
0.0
  0
3DFACE
  8
0
  6
CONTINUOUS
 62
     7
 10
111.22336
 20
101.925224
 30
0.0
 11
111.236294
 21
101.916243
 31
0.0
 12
111.236294
 22
103.0894
 32
0.0
 13
111.22336
 23
103.080332
 33
0.0
  0
3DFACE
  8
0
  6
CONTINUOUS
 62
     7
 10
111.236294
 20
101.916243
 30
0.0
 11
111.249228
 21
101.907262
 31
0.0
 12
111.249228
 22
103.098467
 32
0.0
 13
111.236294
 23
103.0894
 33
0.0
  0
3DFACE
  8
0
  6
CONTINUOUS
 62
     7
 10
111.249228
 20
101.907262
 30
0.0
 11
111.262162
 21
101.898281
 31
0.0
 12
111.262162
 22
103.107535
 32
0.0
 13
111.249228
 23
103.098467
 33
0.0
  0
3DFACE
  8
0
  6
CONTINUOUS
 62
     7
 10
111.262162
 20
101.898281
 30
0.0
 11
111.275096
 21
101.8893
 31
0.0
 12
111.275096
 22
103.116603
 32
0.0
 13
111.262162
 23
103.107535
 33
0.0
  0
3DFACE
  8
0
  6
CONTINUOUS
 62
     7
 10
111.275096
 20
101.8893
 30
0.0
 11
111.28803
 21
101.88032
 31
0.0
 12
111.28803
 22
103.125671
 32
0.0
 13
111.275096
 23
103.116603
 33
0.0
  0
3DFACE
  8
0
  6
CONTINUOUS
 62
     7
 10
111.28803
 20
101.88032
 30
0.0
 11
111.300964
 21
101.871339
 31
0.0
 12
111.300964
 22
103.134738
 32
0.0
 13
111.28803
 23
103.125671
 33
0.0
  0
3DFACE
  8
0
  6
CONTINUOUS
 62
     7
 10
111.300964
 20
101.871339
 30
0.0
 11
111.313898
 21
101.862358
 31
0.0
 12
111.313898
 22
103.143806
 32
0.0
 13
111.300964
 23
103.134738
 33
0.0
  0
3DFACE
  8
0
  6
CONTINUOUS
 62
     7
 10
111.313898
 20
101.862358
 30
0.0
 11
111.326832
 21
101.853377
 31
0.0
 12
111.326832
 22
103.152874
 32
0.0
 13
111.313898
 23
103.143806
 33
0.0
  0
3DFACE
  8
0
  6
CONTINUOUS
 62
     7
 10
111.326832
 20
101.853377
 30
0.0
 11
111.339766
 21
101.844396
 31
0.0
 12
111.339766
 22
103.161941
 32
0.0
 13
111.326832
 23
103.152874
 33
0.0
  0
3DFACE
  8
0
  6
CONTINUOUS
 62
     7
 10
111.339766
 20
101.844396
 30
0.0
 11
111.3527
 21
101.835415
 31
0.0
 12
111.3527
 22
103.171009
 32
0.0
 13
111.339766
 23
103.161941
 33
0.0
  0
3DFACE
  8
0
  6
CONTINUOUS
 62
     7
 10
111.3527
 20
101.835415
 30
0.0
 11
111.365634
 21
101.826434
 31
0.0
 12
111.365634
 22
103.180077
 32
0.0
 13
111.3527
 23
103.171009
 33
0.0
  0
3DFACE
  8
0
  6
CONTINUOUS
 62
     7
 10
111.365634
 20
101.826434
 30
0.0
 11
111.378568
 21
101.817453
 31
0.0
 12
111.378568
 22
103.189144
 32
0.0
 13
111.365634
 23
103.180077
 33
0.0
  0
3DFACE
  8
0
  6
CONTINUOUS
 62
     7
 10
111.378568
 20
101.817453
 30
0.0
 11
111.391502
 21
101.808473
 31
0.0
 12
111.391502
 22
103.198212
 32
0.0
 13
111.378568
 23
103.189144
 33
0.0
  0
3DFACE
  8
0
  6
CONTINUOUS
 62
     7
 10
111.391502
 20
101.808473
 30
0.0
 11
111.404436
 21
101.799492
 31
0.0
 12
111.404436
 22
103.20728
 32
0.0
 13
111.391502
 23
103.198212
 33
0.0
  0
3DFACE
  8
0
  6
CONTINUOUS
 62
     7
 10
111.404436
 20
101.799492
 30
0.0
 11
111.41737
 21
101.790511
 31
0.0
 12
111.41737
 22
103.216347
 32
0.0
 13
111.404436
 23
103.20728
 33
0.0
  0
3DFACE
  8
0
  6
CONTINUOUS
 62
     7
 10
111.41737
 20
101.790511
 30
0.0
 11
111.430304
 21
101.78153
 31
0.0
 12
111.430304
 22
103.225415
 32
0.0
 13
111.41737
 23
103.216347
 33
0.0
  0
3DFACE
  8
0
  6
CONTINUOUS
 62
     7
 10
111.430304
 20
101.78153
 30
0.0
 11
111.443238
 21
101.772549
 31
0.0
 12
111.443238
 22
103.234483
 32
0.0
 13
111.430304
 23
103.225415
 33
0.0
  0
3DFACE
  8
0
  6
CONTINUOUS
 62
     7
 10
111.443238
 20
101.772549
 30
0.0
 11
111.456172
 21
101.763568
 31
0.0
 12
111.456172
 22
103.24355
 32
0.0
 13
111.443238
 23
103.234483
 33
0.0
  0
3DFACE
  8
0
  6
CONTINUOUS
 62
     7
 10
111.456172
 20
101.763568
 30
0.0
 11
111.469106
 21
101.754587
 31
0.0
 12
111.469106
 22
103.252618
 32
0.0
 13
111.456172
 23
103.24355
 33
0.0
  0
3DFACE
  8
0
  6
CONTINUOUS
 62
     7
 10
111.469106
 20
101.754587
 30
0.0
 11
111.48204
 21
101.745606
 31
0.0
 12
111.48204
 22
103.261686
 32
0.0
 13
111.469106
 23
103.252618
 33
0.0
  0
3DFACE
  8
0
  6
CONTINUOUS
 62
     7
 10
111.48204
 20
101.745606
 30
0.0
 11
111.494974
 21
101.736626
 31
0.0
 12
111.494974
 22
103.270754
 32
0.0
 13
111.48204
 23
103.261686
 33
0.0
  0
3DFACE
  8
0
  6
CONTINUOUS
 62
     7
 10
111.494974
 20
101.736626
 30
0.0
 11
111.507908
 21
101.727645
 31
0.0
 12
111.507908
 22
103.279821
 32
0.0
 13
111.494974
 23
103.270754
 33
0.0
  0
3DFACE
  8
0
  6
CONTINUOUS
 62
     7
 10
111.507908
 20
101.727645
 30
0.0
 11
111.520842
 21
101.718664
 31
0.0
 12
111.520842
 22
103.288889
 32
0.0
 13
111.507908
 23
103.279821
 33
0.0
  0
3DFACE
  8
0
  6
CONTINUOUS
 62
     7
 10
111.520842
 20
101.718664
 30
0.0
 11
111.533776
 21
101.709683
 31
0.0
 12
111.533776
 22
103.297957
 32
0.0
 13
111.520842
 23
103.288889
 33
0.0
  0
3DFACE
  8
0
  6
CONTINUOUS
 62
     7
 10
111.533776
 20
101.709683
 30
0.0
 11
111.546711
 21
101.700702
 31
0.0
 12
111.546711
 22
103.307024
 32
0.0
 13
111.533776
 23
103.297957
 33
0.0
  0
3DFACE
  8
0
  6
CONTINUOUS
 62
     7
 10
111.546711
 20
101.700702
 30
0.0
 11
111.559645
 21
101.691721
 31
0.0
 12
111.559645
 22
103.316092
 32
0.0
 13
111.546711
 23
103.307024
 33
0.0
  0
3DFACE
  8
0
  6
CONTINUOUS
 62
     7
 10
111.559645
 20
101.691721
 30
0.0
 11
111.572579
 21
101.68274
 31
0.0
 12
111.572579
 22
103.32516
 32
0.0
 13
111.559645
 23
103.316092
 33
0.0
  0
3DFACE
  8
0
  6
CONTINUOUS
 62
     7
 10
111.572579
 20
101.68274
 30
0.0
 11
111.585513
 21
101.673759
 31
0.0
 12
111.585513
 22
103.334227
 32
0.0
 13
111.572579
 23
103.32516
 33
0.0
  0
3DFACE
  8
0
  6
CONTINUOUS
 62
     7
 10
111.585513
 20
101.673759
 30
0.0
 11
111.598447
 21
101.664779
 31
0.0
 12
111.598447
 22
103.343295
 32
0.0
 13
111.585513
 23
103.334227
 33
0.0
  0
3DFACE
  8
0
  6
CONTINUOUS
 62
     7
 10
111.598447
 20
101.664779
 30
0.0
 11
111.611381
 21
101.655798
 31
0.0
 12
111.611381
 22
103.352363
 32
0.0
 13
111.598447
 23
103.343295
 33
0.0
  0
3DFACE
  8
0
  6
CONTINUOUS
 62
     7
 10
111.611381
 20
101.655798
 30
0.0
 11
111.624315
 21
101.646817
 31
0.0
 12
111.624315
 22
103.36143
 32
0.0
 13
111.611381
 23
103.352363
 33
0.0
  0
3DFACE
  8
0
  6
CONTINUOUS
 62
     7
 10
111.624315
 20
101.646817
 30
0.0
 11
111.637249
 21
101.637836
 31
0.0
 12
111.637249
 22
103.370498
 32
0.0
 13
111.624315
 23
103.36143
 33
0.0
  0
3DFACE
  8
0
  6
CONTINUOUS
 62
     7
 10
111.637249
 20
101.637836
 30
0.0
 11
111.650183
 21
101.628855
 31
0.0
 12
111.650183
 22
103.379566
 32
0.0
 13
111.637249
 23
103.370498
 33
0.0
  0
3DFACE
  8
0
  6
CONTINUOUS
 62
     7
 10
111.650183
 20
101.628855
 30
0.0
 11
111.663117
 21
101.619874
 31
0.0
 12
111.663117
 22
103.388633
 32
0.0
 13
111.650183
 23
103.379566
 33
0.0
  0
3DFACE
  8
0
  6
CONTINUOUS
 62
     7
 10
111.663117
 20
101.619874
 30
0.0
 11
111.676051
 21
101.610893
 31
0.0
 12
111.676051
 22
103.397701
 32
0.0
 13
111.663117
 23
103.388633
 33
0.0
  0
3DFACE
  8
0
  6
CONTINUOUS
 62
     7
 10
111.676051
 20
101.610893
 30
0.0
 11
111.688985
 21
101.601912
 31
0.0
 12
111.688985
 22
103.406769
 32
0.0
 13
111.676051
 23
103.397701
 33
0.0
  0
3DFACE
  8
0
  6
CONTINUOUS
 62
     7
 10
114.447622
 20
102.5
 30
0.0
 11
114.460556
 21
102.491019
 31
0.0
 12
114.460556
 22
102.509068
 32
0.0
 13
114.447622
 23
102.5
 33
0.0
  0
3DFACE
  8
0
  6
CONTINUOUS
 62
     7
 10
114.460556
 20
102.491019
 30
0.0
 11
114.47349
 21
102.482038
 31
0.0
 12
114.47349
 22
102.518136
 32
0.0
 13
114.460556
 23
102.509068
 33
0.0
  0
3DFACE
  8
0
  6
CONTINUOUS
 62
     7
 10
114.47349
 20
102.482038
 30
0.0
 11
114.486424
 21
102.473057
 31
0.0
 12
114.486424
 22
102.527203
 32
0.0
 13
114.47349
 23
102.518136
 33
0.0
  0
3DFACE
  8
0
  6
CONTINUOUS
 62
     7
 10
114.486424
 20
102.473057
 30
0.0
 11
114.499358
 21
102.464077
 31
0.0
 12
114.499358
 22
102.536271
 32
0.0
 13
114.486424
 23
102.527203
 33
0.0
  0
3DFACE
  8
0
  6
CONTINUOUS
 62
     7
 10
114.499358
 20
102.464077
 30
0.0
 11
114.512292
 21
102.455096
 31
0.0
 12
114.512292
 22
102.545339
 32
0.0
 13
114.499358
 23
102.536271
 33
0.0
  0
3DFACE
  8
0
  6
CONTINUOUS
 62
     7
 10
114.512292
 20
102.455096
 30
0.0
 11
114.525226
 21
102.446115
 31
0.0
 12
114.525226
 22
102.554406
 32
0.0
 13
114.512292
 23
102.545339
 33
0.0
  0
3DFACE
  8
0
  6
CONTINUOUS
 62
     7
 10
114.525226
 20
102.446115
 30
0.0
 11
114.53816
 21
102.437134
 31
0.0
 12
114.53816
 22
102.563474
 32
0.0
 13
114.525226
 23
102.554406
 33
0.0
  0
3DFACE
  8
0
  6
CONTINUOUS
 62
     7
 10
114.53816
 20
102.437134
 30
0.0
 11
114.551094
 21
102.428153
 31
0.0
 12
114.551094
 22
102.572542
 32
0.0
 13
114.53816
 23
102.563474
 33
0.0
  0
3DFACE
  8
0
  6
CONTINUOUS
 62
     7
 10
114.551094
 20
102.428153
 30
0.0
 11
114.564028
 21
102.419172
 31
0.0
 12
114.564028
 22
102.581609
 32
0.0
 13
114.551094
 23
102.572542
 33
0.0
  0
3DFACE
  8
0
  6
CONTINUOUS
 62
     7
 10
114.564028
 20
102.419172
 30
0.0
 11
114.576962
 21
102.410191
 31
0.0
 12
114.576962
 22
102.590677
 32
0.0
 13
114.564028
 23
102.581609
 33
0.0
  0
3DFACE
  8
0
  6
CONTINUOUS
 62
     7
 10
114.576962
 20
102.410191
 30
0.0
 11
114.589897
 21
102.40121
 31
0.0
 12
114.589897
 22
102.599745
 32
0.0
 13
114.576962
 23
102.590677
 33
0.0
  0
3DFACE
  8
0
  6
CONTINUOUS
 62
     7
 10
114.589897
 20
102.40121
 30
0.0
 11
114.602831
 21
102.39223
 31
0.0
 12
114.602831
 22
102.608812
 32
0.0
 13
114.589897
 23
102.599745
 33
0.0
  0
3DFACE
  8
0
  6
CONTINUOUS
 62
     7
 10
114.602831
 20
102.39223
 30
0.0
 11
114.615765
 21
102.383249
 31
0.0
 12
114.615765
 22
102.61788
 32
0.0
 13
114.602831
 23
102.608812
 33
0.0
  0
3DFACE
  8
0
  6
CONTINUOUS
 62
     7
 10
114.615765
 20
102.383249
 30
0.0
 11
114.628699
 21
102.374268
 31
0.0
 12
114.628699
 22
102.626948
 32
0.0
 13
114.615765
 23
102.61788
 33
0.0
  0
3DFACE
  8
0
  6
CONTINUOUS
 62
     7
 10
114.628699
 20
102.374268
 30
0.0
 11
114.641633
 21
102.365287
 31
0.0
 12
114.641633
 22
102.636015
 32
0.0
 13
114.628699
 23
102.626948
 33
0.0
  0
3DFACE
  8
0
  6
CONTINUOUS
 62
     7
 10
114.641633
 20
102.365287
 30
0.0
 11
114.654567
 21
102.356306
 31
0.0
 12
114.654567
 22
102.645083
 32
0.0
 13
114.641633
 23
102.636015
 33
0.0
  0
3DFACE
  8
0
  6
CONTINUOUS
 62
     7
 10
114.654567
 20
102.356306
 30
0.0
 11
114.667501
 21
102.347325
 31
0.0
 12
114.667501
 22
102.654151
 32
0.0
 13
114.654567
 23
102.645083
 33
0.0
  0
3DFACE
  8
0
  6
CONTINUOUS
 62
     7
 10
114.667501
 20
102.347325
 30
0.0
 11
114.680435
 21
102.338344
 31
0.0
 12
114.680435
 22
102.663219
 32
0.0
 13
114.667501
 23
102.654151
 33
0.0
  0
3DFACE
  8
0
  6
CONTINUOUS
 62
     7
 10
114.680435
 20
102.338344
 30
0.0
 11
114.693369
 21
102.329363
 31
0.0
 12
114.693369
 22
102.672286
 32
0.0
 13
114.680435
 23
102.663219
 33
0.0
  0
3DFACE
  8
0
  6
CONTINUOUS
 62
     7
 10
114.693369
 20
102.329363
 30
0.0
 11
114.706303
 21
102.320383
 31
0.0
 12
114.706303
 22
102.681354
 32
0.0
 13
114.693369
 23
102.672286
 33
0.0
  0
3DFACE
  8
0
  6
CONTINUOUS
 62
     7
 10
114.706303
 20
102.320383
 30
0.0
 11
114.719237
 21
102.311402
 31
0.0
 12
114.719237
 22
102.690422
 32
0.0
 13
114.706303
 23
102.681354
 33
0.0
  0
3DFACE
  8
0
  6
CONTINUOUS
 62
     7
 10
114.719237
 20
102.311402
 30
0.0
 11
114.732171
 21
102.302421
 31
0.0
 12
114.732171
 22
102.699489
 32
0.0
 13
114.719237
 23
102.690422
 33
0.0
  0
3DFACE
  8
0
  6
CONTINUOUS
 62
     7
 10
114.732171
 20
102.302421
 30
0.0
 11
114.745105
 21
102.29344
 31
0.0
 12
114.745105
 22
102.708557
 32
0.0
 13
114.732171
 23
102.699489
 33
0.0
  0
3DFACE
  8
0
  6
CONTINUOUS
 62
     7
 10
114.745105
 20
102.29344
 30
0.0
 11
114.758039
 21
102.284459
 31
0.0
 12
114.758039
 22
102.717625
 32
0.0
 13
114.745105
 23
102.708557
 33
0.0
  0
3DFACE
  8
0
  6
CONTINUOUS
 62
     7
 10
114.758039
 20
102.284459
 30
0.0
 11
114.770973
 21
102.275478
 31
0.0
 12
114.770973
 22
102.726692
 32
0.0
 13
114.758039
 23
102.717625
 33
0.0
  0
3DFACE
  8
0
  6
CONTINUOUS
 62
     7
 10
114.770973
 20
102.275478
 30
0.0
 11
114.783907
 21
102.266497
 31
0.0
 12
114.783907
 22
102.73576
 32
0.0
 13
114.770973
 23
102.726692
 33
0.0
  0
3DFACE
  8
0
  6
CONTINUOUS
 62
     7
 10
114.783907
 20
102.266497
 30
0.0
 11
114.796841
 21
102.257516
 31
0.0
 12
114.796841
 22
102.744828
 32
0.0
 13
114.783907
 23
102.73576
 33
0.0
  0
3DFACE
  8
0
  6
CONTINUOUS
 62
     7
 10
114.796841
 20
102.257516
 30
0.0
 11
114.809775
 21
102.248536
 31
0.0
 12
114.809775
 22
102.753895
 32
0.0
 13
114.796841
 23
102.744828
 33
0.0
  0
3DFACE
  8
0
  6
CONTINUOUS
 62
     7
 10
114.809775
 20
102.248536
 30
0.0
 11
114.822709
 21
102.239555
 31
0.0
 12
114.822709
 22
102.762963
 32
0.0
 13
114.809775
 23
102.753895
 33
0.0
  0
3DFACE
  8
0
  6
CONTINUOUS
 62
     7
 10
114.822709
 20
102.239555
 30
0.0
 11
114.835643
 21
102.230574
 31
0.0
 12
114.835643
 22
102.772031
 32
0.0
 13
114.822709
 23
102.762963
 33
0.0
  0
3DFACE
  8
0
  6
CONTINUOUS
 62
     7
 10
114.835643
 20
102.230574
 30
0.0
 11
114.848577
 21
102.221593
 31
0.0
 12
114.848577
 22
102.781098
 32
0.0
 13
114.835643
 23
102.772031
 33
0.0
  0
3DFACE
  8
0
  6
CONTINUOUS
 62
     7
 10
114.848577
 20
102.221593
 30
0.0
 11
114.861511
 21
102.212612
 31
0.0
 12
114.861511
 22
102.790166
 32
0.0
 13
114.848577
 23
102.781098
 33
0.0
  0
3DFACE
  8
0
  6
CONTINUOUS
 62
     7
 10
114.861511
 20
102.212612
 30
0.0
 11
114.874445
 21
102.203631
 31
0.0
 12
114.874445
 22
102.799234
 32
0.0
 13
114.861511
 23
102.790166
 33
0.0
  0
3DFACE
  8
0
  6
CONTINUOUS
 62
     7
 10
114.874445
 20
102.203631
 30
0.0
 11
114.887379
 21
102.19465
 31
0.0
 12
114.887379
 22
102.808301
 32
0.0
 13
114.874445
 23
102.799234
 33
0.0
  0
3DFACE
  8
0
  6
CONTINUOUS
 62
     7
 10
114.887379
 20
102.19465
 30
0.0
 11
114.900313
 21
102.185669
 31
0.0
 12
114.900313
 22
102.817369
 32
0.0
 13
114.887379
 23
102.808301
 33
0.0
  0
3DFACE
  8
0
  6
CONTINUOUS
 62
     7
 10
114.900313
 20
102.185669
 30
0.0
 11
114.913247
 21
102.176689
 31
0.0
 12
114.913247
 22
102.826437
 32
0.0
 13
114.900313
 23
102.817369
 33
0.0
  0
3DFACE
  8
0
  6
CONTINUOUS
 62
     7
 10
114.913247
 20
102.176689
 30
0.0
 11
114.926181
 21
102.167708
 31
0.0
 12
114.926181
 22
102.835505
 32
0.0
 13
114.913247
 23
102.826437
 33
0.0
  0
3DFACE
  8
0
  6
CONTINUOUS
 62
     7
 10
114.926181
 20
102.167708
 30
0.0
 11
114.939115
 21
102.158727
 31
0.0
 12
114.939115
 22
102.844572
 32
0.0
 13
114.926181
 23
102.835505
 33
0.0
  0
3DFACE
  8
0
  6
CONTINUOUS
 62
     7
 10
114.939115
 20
102.158727
 30
0.0
 11
114.952049
 21
102.149746
 31
0.0
 12
114.952049
 22
102.85364
 32
0.0
 13
114.939115
 23
102.844572
 33
0.0
  0
3DFACE
  8
0
  6
CONTINUOUS
 62
     7
 10
114.952049
 20
102.149746
 30
0.0
 11
114.964983
 21
102.140765
 31
0.0
 12
114.964983
 22
102.862708
 32
0.0
 13
114.952049
 23
102.85364
 33
0.0
  0
3DFACE
  8
0
  6
CONTINUOUS
 62
     7
 10
114.964983
 20
102.140765
 30
0.0
 11
114.977917
 21
102.131784
 31
0.0
 12
114.977917
 22
102.871775
 32
0.0
 13
114.964983
 23
102.862708
 33
0.0
  0
3DFACE
  8
0
  6
CONTINUOUS
 62
     7
 10
114.977917
 20
102.131784
 30
0.0
 11
114.990851
 21
102.122803
 31
0.0
 12
114.990851
 22
102.880843
 32
0.0
 13
114.977917
 23
102.871775
 33
0.0
  0
3DFACE
  8
0
  6
CONTINUOUS
 62
     7
 10
114.990851
 20
102.122803
 30
0.0
 11
115.003785
 21
102.113822
 31
0.0
 12
115.003785
 22
102.889911
 32
0.0
 13
114.990851
 23
102.880843
 33
0.0
  0
3DFACE
  8
0
  6
CONTINUOUS
 62
     7
 10
115.003785
 20
102.113822
 30
0.0
 11
115.016719
 21
102.104842
 31
0.0
 12
115.016719
 22
102.898978
 32
0.0
 13
115.003785
 23
102.889911
 33
0.0
  0
3DFACE
  8
0
  6
CONTINUOUS
 62
     7
 10
115.016719
 20
102.104842
 30
0.0
 11
115.029653
 21
102.095861
 31
0.0
 12
115.029653
 22
102.908046
 32
0.0
 13
115.016719
 23
102.898978
 33
0.0
  0
3DFACE
  8
0
  6
CONTINUOUS
 62
     7
 10
115.029653
 20
102.095861
 30
0.0
 11
115.042587
 21
102.08688
 31
0.0
 12
115.042587
 22
102.917114
 32
0.0
 13
115.029653
 23
102.908046
 33
0.0
  0
3DFACE
  8
0
  6
CONTINUOUS
 62
     7
 10
115.042587
 20
102.08688
 30
0.0
 11
115.055521
 21
102.077899
 31
0.0
 12
115.055521
 22
102.926181
 32
0.0
 13
115.042587
 23
102.917114
 33
0.0
  0
3DFACE
  8
0
  6
CONTINUOUS
 62
     7
 10
115.055521
 20
102.077899
 30
0.0
 11
115.068456
 21
102.068918
 31
0.0
 12
115.068456
 22
102.935249
 32
0.0
 13
115.055521
 23
102.926181
 33
0.0
  0
3DFACE
  8
0
  6
CONTINUOUS
 62
     7
 10
115.068456
 20
102.068918
 30
0.0
 11
115.08139
 21
102.059937
 31
0.0
 12
115.08139
 22
102.944317
 32
0.0
 13
115.068456
 23
102.935249
 33
0.0
  0
3DFACE
  8
0
  6
CONTINUOUS
 62
     7
 10
115.08139
 20
102.059937
 30
0.0
 11
115.094324
 21
102.050956
 31
0.0
 12
115.094324
 22
102.953384
 32
0.0
 13
115.08139
 23
102.944317
 33
0.0
  0
3DFACE
  8
0
  6
CONTINUOUS
 62
     7
 10
115.094324
 20
102.050956
 30
0.0
 11
115.107258
 21
102.041975
 31
0.0
 12
115.107258
 22
102.962452
 32
0.0
 13
115.094324
 23
102.953384
 33
0.0
  0
3DFACE
  8
0
  6
CONTINUOUS
 62
     7
 10
115.107258
 20
102.041975
 30
0.0
 11
115.120192
 21
102.032995
 31
0.0
 12
115.120192
 22
102.97152
 32
0.0
 13
115.107258
 23
102.962452
 33
0.0
  0
3DFACE
  8
0
  6
CONTINUOUS
 62
     7
 10
115.120192
 20
102.032995
 30
0.0
 11
115.133126
 21
102.024014
 31
0.0
 12
115.133126
 22
102.980588
 32
0.0
 13
115.120192
 23
102.97152
 33
0.0
  0
3DFACE
  8
0
  6
CONTINUOUS
 62
     7
 10
115.133126
 20
102.024014
 30
0.0
 11
115.14606
 21
102.015033
 31
0.0
 12
115.14606
 22
102.989655
 32
0.0
 13
115.133126
 23
102.980588
 33
0.0
  0
3DFACE
  8
0
  6
CONTINUOUS
 62
     7
 10
115.14606
 20
102.015033
 30
0.0
 11
115.158994
 21
102.006052
 31
0.0
 12
115.158994
 22
102.998723
 32
0.0
 13
115.14606
 23
102.989655
 33
0.0
  0
3DFACE
  8
0
  6
CONTINUOUS
 62
     7
 10
115.158994
 20
102.006052
 30
0.0
 11
115.171928
 21
101.997071
 31
0.0
 12
115.171928
 22
103.007791
 32
0.0
 13
115.158994
 23
102.998723
 33
0.0
  0
3DFACE
  8
0
  6
CONTINUOUS
 62
     7
 10
115.171928
 20
101.997071
 30
0.0
 11
115.184862
 21
101.98809
 31
0.0
 12
115.184862
 22
103.016858
 32
0.0
 13
115.171928
 23
103.007791
 33
0.0
  0
3DFACE
  8
0
  6
CONTINUOUS
 62
     7
 10
115.184862
 20
101.98809
 30
0.0
 11
115.197796
 21
101.979109
 31
0.0
 12
115.197796
 22
103.025926
 32
0.0
 13
115.184862
 23
103.016858
 33
0.0
  0
3DFACE
  8
0
  6
CONTINUOUS
 62
     7
 10
115.197796
 20
101.979109
 30
0.0
 11
115.21073
 21
101.970128
 31
0.0
 12
115.21073
 22
103.034994
 32
0.0
 13
115.197796
 23
103.025926
 33
0.0
  0
3DFACE
  8
0
  6
CONTINUOUS
 62
     7
 10
115.21073
 20
101.970128
 30
0.0
 11
115.223664
 21
101.961147
 31
0.0
 12
115.223664
 22
103.044061
 32
0.0
 13
115.21073
 23
103.034994
 33
0.0
  0
3DFACE
  8
0
  6
CONTINUOUS
 62
     7
 10
115.223664
 20
101.961147
 30
0.0
 11
115.236598
 21
101.952167
 31
0.0
 12
115.236598
 22
103.053129
 32
0.0
 13
115.223664
 23
103.044061
 33
0.0
  0
3DFACE
  8
0
  6
CONTINUOUS
 62
     7
 10
115.236598
 20
101.952167
 30
0.0
 11
115.249532
 21
101.943186
 31
0.0
 12
115.249532
 22
103.062197
 32
0.0
 13
115.236598
 23
103.053129
 33
0.0
  0
3DFACE
  8
0
  6
CONTINUOUS
 62
     7
 10
115.249532
 20
101.943186
 30
0.0
 11
115.262466
 21
101.934205
 31
0.0
 12
115.262466
 22
103.071264
 32
0.0
 13
115.249532
 23
103.062197
 33
0.0
  0
3DFACE
  8
0
  6
CONTINUOUS
 62
     7
 10
115.262466
 20
101.934205
 30
0.0
 11
115.2754
 21
101.925224
 31
0.0
 12
115.2754
 22
103.080332
 32
0.0
 13
115.262466
 23
103.071264
 33
0.0
  0
3DFACE
  8
0
  6
CONTINUOUS
 62
     7
 10
115.2754
 20
101.925224
 30
0.0
 11
115.288334
 21
101.916243
 31
0.0
 12
115.288334
 22
103.0894
 32
0.0
 13
115.2754
 23
103.080332
 33
0.0
  0
3DFACE
  8
0
  6
CONTINUOUS
 62
     7
 10
115.288334
 20
101.916243
 30
0.0
 11
115.301268
 21
101.907262
 31
0.0
 12
115.301268
 22
103.098467
 32
0.0
 13
115.288334
 23
103.0894
 33
0.0
  0
3DFACE
  8
0
  6
CONTINUOUS
 62
     7
 10
115.301268
 20
101.907262
 30
0.0
 11
115.314202
 21
101.898281
 31
0.0
 12
115.314202
 22
103.107535
 32
0.0
 13
115.301268
 23
103.098467
 33
0.0
  0
3DFACE
  8
0
  6
CONTINUOUS
 62
     7
 10
115.314202
 20
101.898281
 30
0.0
 11
115.327136
 21
101.8893
 31
0.0
 12
115.327136
 22
103.116603
 32
0.0
 13
115.314202
 23
103.107535
 33
0.0
  0
3DFACE
  8
0
  6
CONTINUOUS
 62
     7
 10
115.327136
 20
101.8893
 30
0.0
 11
115.34007
 21
101.88032
 31
0.0
 12
115.34007
 22
103.125671
 32
0.0
 13
115.327136
 23
103.116603
 33
0.0
  0
3DFACE
  8
0
  6
CONTINUOUS
 62
     7
 10
115.34007
 20
101.88032
 30
0.0
 11
115.353004
 21
101.871339
 31
0.0
 12
115.353004
 22
103.134738
 32
0.0
 13
115.34007
 23
103.125671
 33
0.0
  0
3DFACE
  8
0
  6
CONTINUOUS
 62
     7
 10
115.353004
 20
101.871339
 30
0.0
 11
115.365938
 21
101.862358
 31
0.0
 12
115.365938
 22
103.143806
 32
0.0
 13
115.353004
 23
103.134738
 33
0.0
  0
3DFACE
  8
0
  6
CONTINUOUS
 62
     7
 10
115.365938
 20
101.862358
 30
0.0
 11
115.378872
 21
101.853377
 31
0.0
 12
115.378872
 22
103.152874
 32
0.0
 13
115.365938
 23
103.143806
 33
0.0
  0
3DFACE
  8
0
  6
CONTINUOUS
 62
     7
 10
115.378872
 20
101.853377
 30
0.0
 11
115.391806
 21
101.844396
 31
0.0
 12
115.391806
 22
103.161941
 32
0.0
 13
115.378872
 23
103.152874
 33
0.0
  0
3DFACE
  8
0
  6
CONTINUOUS
 62
     7
 10
115.391806
 20
101.844396
 30
0.0
 11
115.40474
 21
101.835415
 31
0.0
 12
115.40474
 22
103.171009
 32
0.0
 13
115.391806
 23
103.161941
 33
0.0
  0
3DFACE
  8
0
  6
CONTINUOUS
 62
     7
 10
115.40474
 20
101.835415
 30
0.0
 11
115.417674
 21
101.826434
 31
0.0
 12
115.417674
 22
103.180077
 32
0.0
 13
115.40474
 23
103.171009
 33
0.0
  0
3DFACE
  8
0
  6
CONTINUOUS
 62
     7
 10
115.417674
 20
101.826434
 30
0.0
 11
115.430608
 21
101.817453
 31
0.0
 12
115.430608
 22
103.189144
 32
0.0
 13
115.417674
 23
103.180077
 33
0.0
  0
3DFACE
  8
0
  6
CONTINUOUS
 62
     7
 10
115.430608
 20
101.817453
 30
0.0
 11
115.443542
 21
101.808473
 31
0.0
 12
115.443542
 22
103.198212
 32
0.0
 13
115.430608
 23
103.189144
 33
0.0
  0
3DFACE
  8
0
  6
CONTINUOUS
 62
     7
 10
115.443542
 20
101.808473
 30
0.0
 11
115.456476
 21
101.799492
 31
0.0
 12
115.456476
 22
103.20728
 32
0.0
 13
115.443542
 23
103.198212
 33
0.0
  0
3DFACE
  8
0
  6
CONTINUOUS
 62
     7
 10
115.456476
 20
101.799492
 30
0.0
 11
115.46941
 21
101.790511
 31
0.0
 12
115.46941
 22
103.216347
 32
0.0
 13
115.456476
 23
103.20728
 33
0.0
  0
3DFACE
  8
0
  6
CONTINUOUS
 62
     7
 10
115.46941
 20
101.790511
 30
0.0
 11
115.482344
 21
101.78153
 31
0.0
 12
115.482344
 22
103.225415
 32
0.0
 13
115.46941
 23
103.216347
 33
0.0
  0
3DFACE
  8
0
  6
CONTINUOUS
 62
     7
 10
115.482344
 20
101.78153
 30
0.0
 11
115.495278
 21
101.772549
 31
0.0
 12
115.495278
 22
103.234483
 32
0.0
 13
115.482344
 23
103.225415
 33
0.0
  0
3DFACE
  8
0
  6
CONTINUOUS
 62
     7
 10
115.495278
 20
101.772549
 30
0.0
 11
115.508212
 21
101.763568
 31
0.0
 12
115.508212
 22
103.24355
 32
0.0
 13
115.495278
 23
103.234483
 33
0.0
  0
3DFACE
  8
0
  6
CONTINUOUS
 62
     7
 10
115.508212
 20
101.763568
 30
0.0
 11
115.521146
 21
101.754587
 31
0.0
 12
115.521146
 22
103.252618
 32
0.0
 13
115.508212
 23
103.24355
 33
0.0
  0
3DFACE
  8
0
  6
CONTINUOUS
 62
     7
 10
115.521146
 20
101.754587
 30
0.0
 11
115.53408
 21
101.745606
 31
0.0
 12
115.53408
 22
103.261686
 32
0.0
 13
115.521146
 23
103.252618
 33
0.0
  0
3DFACE
  8
0
  6
CONTINUOUS
 62
     7
 10
115.53408
 20
101.745606
 30
0.0
 11
115.547014
 21
101.736626
 31
0.0
 12
115.547014
 22
103.270754
 32
0.0
 13
115.53408
 23
103.261686
 33
0.0
  0
3DFACE
  8
0
  6
CONTINUOUS
 62
     7
 10
115.547014
 20
101.736626
 30
0.0
 11
115.559949
 21
101.727645
 31
0.0
 12
115.559949
 22
103.279821
 32
0.0
 13
115.547014
 23
103.270754
 33
0.0
  0
3DFACE
  8
0
  6
CONTINUOUS
 62
     7
 10
115.559949
 20
101.727645
 30
0.0
 11
115.572883
 21
101.718664
 31
0.0
 12
115.572883
 22
103.288889
 32
0.0
 13
115.559949
 23
103.279821
 33
0.0
  0
3DFACE
  8
0
  6
CONTINUOUS
 62
     7
 10
115.572883
 20
101.718664
 30
0.0
 11
115.585817
 21
101.709683
 31
0.0
 12
115.585817
 22
103.297957
 32
0.0
 13
115.572883
 23
103.288889
 33
0.0
  0
3DFACE
  8
0
  6
CONTINUOUS
 62
     7
 10
115.585817
 20
101.709683
 30
0.0
 11
115.598751
 21
101.700702
 31
0.0
 12
115.598751
 22
103.307024
 32
0.0
 13
115.585817
 23
103.297957
 33
0.0
  0
3DFACE
  8
0
  6
CONTINUOUS
 62
     7
 10
115.598751
 20
101.700702
 30
0.0
 11
115.611685
 21
101.691721
 31
0.0
 12
115.611685
 22
103.316092
 32
0.0
 13
115.598751
 23
103.307024
 33
0.0
  0
3DFACE
  8
0
  6
CONTINUOUS
 62
     7
 10
115.611685
 20
101.691721
 30
0.0
 11
115.624619
 21
101.68274
 31
0.0
 12
115.624619
 22
103.32516
 32
0.0
 13
115.611685
 23
103.316092
 33
0.0
  0
3DFACE
  8
0
  6
CONTINUOUS
 62
     7
 10
115.624619
 20
101.68274
 30
0.0
 11
115.637553
 21
101.673759
 31
0.0
 12
115.637553
 22
103.334227
 32
0.0
 13
115.624619
 23
103.32516
 33
0.0
  0
3DFACE
  8
0
  6
CONTINUOUS
 62
     7
 10
115.637553
 20
101.673759
 30
0.0
 11
115.650487
 21
101.664779
 31
0.0
 12
115.650487
 22
103.343295
 32
0.0
 13
115.637553
 23
103.334227
 33
0.0
  0
3DFACE
  8
0
  6
CONTINUOUS
 62
     7
 10
115.650487
 20
101.664779
 30
0.0
 11
115.663421
 21
101.655798
 31
0.0
 12
115.663421
 22
103.352363
 32
0.0
 13
115.650487
 23
103.343295
 33
0.0
  0
3DFACE
  8
0
  6
CONTINUOUS
 62
     7
 10
115.663421
 20
101.655798
 30
0.0
 11
115.676355
 21
101.646817
 31
0.0
 12
115.676355
 22
103.36143
 32
0.0
 13
115.663421
 23
103.352363
 33
0.0
  0
3DFACE
  8
0
  6
CONTINUOUS
 62
     7
 10
115.676355
 20
101.646817
 30
0.0
 11
115.689289
 21
101.637836
 31
0.0
 12
115.689289
 22
103.370498
 32
0.0
 13
115.676355
 23
103.36143
 33
0.0
  0
3DFACE
  8
0
  6
CONTINUOUS
 62
     7
 10
115.689289
 20
101.637836
 30
0.0
 11
115.702223
 21
101.628855
 31
0.0
 12
115.702223
 22
103.379566
 32
0.0
 13
115.689289
 23
103.370498
 33
0.0
  0
3DFACE
  8
0
  6
CONTINUOUS
 62
     7
 10
115.702223
 20
101.628855
 30
0.0
 11
115.715157
 21
101.619874
 31
0.0
 12
115.715157
 22
103.388633
 32
0.0
 13
115.702223
 23
103.379566
 33
0.0
  0
3DFACE
  8
0
  6
CONTINUOUS
 62
     7
 10
115.715157
 20
101.619874
 30
0.0
 11
115.728091
 21
101.610893
 31
0.0
 12
115.728091
 22
103.397701
 32
0.0
 13
115.715157
 23
103.388633
 33
0.0
  0
3DFACE
  8
0
  6
CONTINUOUS
 62
     7
 10
115.728091
 20
101.610893
 30
0.0
 11
115.741025
 21
101.601912
 31
0.0
 12
115.741025
 22
103.406769
 32
0.0
 13
115.728091
 23
103.397701
 33
0.0
  0
ARC
  8
0
  6
CONTINUOUS
 62
     7
 10
143.241025
 20
80.0
 30
0.0
 40
0.5
 50
180.0
 51
0.0
  0
ARC
  8
0
  6
CONTINUOUS
 62
     7
 10
143.241025
 20
80.0
 30
0.0
 40
0.5
 50
0.0
 51
180.0
  0
ARC
  8
0
  6
CONTINUOUS
 62
     7
 10
139.188985
 20
80.0
 30
0.0
 40
0.5
 50
180.0
 51
0.0
  0
ARC
  8
0
  6
CONTINUOUS
 62
     7
 10
139.188985
 20
80.0
 30
0.0
 40
0.5
 50
0.0
 51
180.0
  0
ARC
  8
0
  6
CONTINUOUS
 62
     7
 10
160.741025
 20
80.0
 30
0.0
 40
0.5
 50
180.0
 51
0.0
  0
ARC
  8
0
  6
CONTINUOUS
 62
     7
 10
160.741025
 20
80.0
 30
0.0
 40
0.5
 50
0.0
 51
180.0
  0
ARC
  8
0
  6
CONTINUOUS
 62
     7
 10
156.688985
 20
80.0
 30
0.0
 40
0.5
 50
180.0
 51
0.0
  0
ARC
  8
0
  6
CONTINUOUS
 62
     7
 10
156.688985
 20
80.0
 30
0.0
 40
0.5
 50
0.0
 51
180.0
  0
ARC
  8
0
  6
CONTINUOUS
 62
     7
 10
152.5
 20
80.0
 30
0.0
 40
0.5
 50
180.0
 51
0.0
  0
ARC
  8
0
  6
CONTINUOUS
 62
     7
 10
152.5
 20
80.0
 30
0.0
 40
0.5
 50
0.0
 51
180.0
  0
ARC
  8
0
  6
CONTINUOUS
 62
     7
 10
180.0
 20
67.5
 30
0.0
 40
0.5
 50
180.0
 51
0.0
  0
ARC
  8
0
  6
CONTINUOUS
 62
     7
 10
180.0
 20
67.5
 30
0.0
 40
0.5
 50
0.0
 51
180.0
  0
ARC
  8
0
  6
CONTINUOUS
 62
     7
 10
180.0
 20
80.0
 30
0.0
 40
0.5
 50
180.0
 51
0.0
  0
ARC
  8
0
  6
CONTINUOUS
 62
     7
 10
180.0
 20
80.0
 30
0.0
 40
0.5
 50
0.0
 51
180.0
  0
ARC
  8
0
  6
CONTINUOUS
 62
     7
 10
184.188985
 20
80.0
 30
0.0
 40
0.5
 50
180.0
 51
0.0
  0
ARC
  8
0
  6
CONTINUOUS
 62
     7
 10
184.188985
 20
80.0
 30
0.0
 40
0.5
 50
0.0
 51
180.0
  0
ARC
  8
0
  6
CONTINUOUS
 62
     7
 10
45.0
 20
182.5
 30
0.0
 40
0.5
 50
180.0
 51
0.0
  0
ARC
  8
0
  6
CONTINUOUS
 62
     7
 10
45.0
 20
182.5
 30
0.0
 40
0.5
 50
0.0
 51
180.0
  0
ARC
  8
0
  6
CONTINUOUS
 62
     7
 10
45.0
 20
175.0
 30
0.0
 40
0.5
 50
180.0
 51
0.0
  0
ARC
  8
0
  6
CONTINUOUS
 62
     7
 10
45.0
 20
175.0
 30
0.0
 40
0.5
 50
0.0
 51
180.0
  0
ARC
  8
0
  6
CONTINUOUS
 62
     7
 10
45.0
 20
190.0
 30
0.0
 40
0.5
 50
180.0
 51
0.0
  0
ARC
  8
0
  6
CONTINUOUS
 62
     7
 10
45.0
 20
190.0
 30
0.0
 40
0.5
 50
0.0
 51
180.0
  0
ARC
  8
0
  6
CONTINUOUS
 62
     7
 10
45.0
 20
197.5
 30
0.0
 40
0.5
 50
180.0
 51
0.0
  0
ARC
  8
0
  6
CONTINUOUS
 62
     7
 10
45.0
 20
197.5
 30
0.0
 40
0.5
 50
0.0
 51
180.0
  0
ARC
  8
0
  6
CONTINUOUS
 62
     7
 10
45.0
 20
205.0
 30
0.0
 40
0.5
 50
180.0
 51
0.0
  0
ARC
  8
0
  6
CONTINUOUS
 62
     7
 10
45.0
 20
205.0
 30
0.0
 40
0.5
 50
0.0
 51
180.0
  0
ARC
  8
0
  6
CONTINUOUS
 62
     7
 10
45.0
 20
212.5
 30
0.0
 40
0.5
 50
180.0
 51
0.0
  0
ARC
  8
0
  6
CONTINUOUS
 62
     7
 10
45.0
 20
212.5
 30
0.0
 40
0.5
 50
0.0
 51
180.0
  0
ARC
  8
0
  6
CONTINUOUS
 62
     7
 10
45.0
 20
220.0
 30
0.0
 40
0.5
 50
180.0
 51
0.0
  0
ARC
  8
0
  6
CONTINUOUS
 62
     7
 10
45.0
 20
220.0
 30
0.0
 40
0.5
 50
0.0
 51
180.0
  0
ARC
  8
0
  6
CONTINUOUS
 62
     7
 10
107.5
 20
182.5
 30
0.0
 40
0.5
 50
180.0
 51
0.0
  0
ARC
  8
0
  6
CONTINUOUS
 62
     7
 10
107.5
 20
182.5
 30
0.0
 40
0.5
 50
0.0
 51
180.0
  0
ARC
  8
0
  6
CONTINUOUS
 62
     7
 10
107.5
 20
175.0
 30
0.0
 40
0.5
 50
180.0
 51
0.0
  0
ARC
  8
0
  6
CONTINUOUS
 62
     7
 10
107.5
 20
175.0
 30
0.0
 40
0.5
 50
0.0
 51
180.0
  0
ARC
  8
0
  6
CONTINUOUS
 62
     7
 10
107.5
 20
190.0
 30
0.0
 40
0.5
 50
180.0
 51
0.0
  0
ARC
  8
0
  6
CONTINUOUS
 62
     7
 10
107.5
 20
190.0
 30
0.0
 40
0.5
 50
0.0
 51
180.0
  0
ARC
  8
0
  6
CONTINUOUS
 62
     7
 10
107.5
 20
197.5
 30
0.0
 40
0.5
 50
180.0
 51
0.0
  0
ARC
  8
0
  6
CONTINUOUS
 62
     7
 10
107.5
 20
197.5
 30
0.0
 40
0.5
 50
0.0
 51
180.0
  0
ARC
  8
0
  6
CONTINUOUS
 62
     7
 10
107.5
 20
205.0
 30
0.0
 40
0.5
 50
180.0
 51
0.0
  0
ARC
  8
0
  6
CONTINUOUS
 62
     7
 10
107.5
 20
205.0
 30
0.0
 40
0.5
 50
0.0
 51
180.0
  0
ARC
  8
0
  6
CONTINUOUS
 62
     7
 10
107.5
 20
212.5
 30
0.0
 40
0.5
 50
180.0
 51
0.0
  0
ARC
  8
0
  6
CONTINUOUS
 62
     7
 10
107.5
 20
212.5
 30
0.0
 40
0.5
 50
0.0
 51
180.0
  0
ARC
  8
0
  6
CONTINUOUS
 62
     7
 10
143.241025
 20
144.548165
 30
0.0
 40
0.5
 50
180.0
 51
0.0
  0
ARC
  8
0
  6
CONTINUOUS
 62
     7
 10
143.241025
 20
144.548165
 30
0.0
 40
0.5
 50
0.0
 51
180.0
  0
ARC
  8
0
  6
CONTINUOUS
 62
     7
 10
160.741025
 20
144.548165
 30
0.0
 40
0.5
 50
180.0
 51
0.0
  0
ARC
  8
0
  6
CONTINUOUS
 62
     7
 10
160.741025
 20
144.548165
 30
0.0
 40
0.5
 50
0.0
 51
180.0
  0
ARC
  8
0
  6
CONTINUOUS
 62
     7
 10
139.188985
 20
157.048165
 30
0.0
 40
0.5
 50
180.0
 51
0.0
  0
ARC
  8
0
  6
CONTINUOUS
 62
     7
 10
139.188985
 20
157.048165
 30
0.0
 40
0.5
 50
0.0
 51
180.0
  0
ARC
  8
0
  6
CONTINUOUS
 62
     7
 10
156.688985
 20
157.048165
 30
0.0
 40
0.5
 50
180.0
 51
0.0
  0
ARC
  8
0
  6
CONTINUOUS
 62
     7
 10
156.688985
 20
157.048165
 30
0.0
 40
0.5
 50
0.0
 51
180.0
  0
ARC
  8
0
  6
CONTINUOUS
 62
     7
 10
152.5
 20
157.048165
 30
0.0
 40
0.5
 50
180.0
 51
0.0
  0
ARC
  8
0
  6
CONTINUOUS
 62
     7
 10
152.5
 20
157.048165
 30
0.0
 40
0.5
 50
0.0
 51
180.0
  0
ARC
  8
0
  6
CONTINUOUS
 62
     7
 10
184.188985
 20
152.5
 30
0.0
 40
0.5
 50
180.0
 51
0.0
  0
ARC
  8
0
  6
CONTINUOUS
 62
     7
 10
184.188985
 20
152.5
 30
0.0
 40
0.5
 50
0.0
 51
180.0
  0
ARC
  8
0
  6
CONTINUOUS
 62
     7
 10
188.241025
 20
157.048165
 30
0.0
 40
0.5
 50
180.0
 51
0.0
  0
ARC
  8
0
  6
CONTINUOUS
 62
     7
 10
188.241025
 20
157.048165
 30
0.0
 40
0.5
 50
0.0
 51
180.0
  0
ARC
  8
0
  6
CONTINUOUS
 62
     7
 10
172.5
 20
197.5
 30
0.0
 40
0.5
 50
180.0
 51
0.0
  0
ARC
  8
0
  6
CONTINUOUS
 62
     7
 10
172.5
 20
197.5
 30
0.0
 40
0.5
 50
0.0
 51
180.0
  0
ARC
  8
0
  6
CONTINUOUS
 62
     7
 10
172.5
 20
212.5
 30
0.0
 40
0.5
 50
180.0
 51
0.0
  0
ARC
  8
0
  6
CONTINUOUS
 62
     7
 10
172.5
 20
212.5
 30
0.0
 40
0.5
 50
0.0
 51
180.0
  0
ARC
  8
0
  6
CONTINUOUS
 62
     7
 10
172.5
 20
205.0
 30
0.0
 40
0.5
 50
180.0
 51
0.0
  0
ARC
  8
0
  6
CONTINUOUS
 62
     7
 10
172.5
 20
205.0
 30
0.0
 40
0.5
 50
0.0
 51
180.0
  0
ARC
  8
0
  6
CONTINUOUS
 62
     7
 10
107.5
 20
220.0
 30
0.0
 40
0.5
 50
180.0
 51
0.0
  0
ARC
  8
0
  6
CONTINUOUS
 62
     7
 10
107.5
 20
220.0
 30
0.0
 40
0.5
 50
0.0
 51
180.0
  0
ARC
  8
0
  6
CONTINUOUS
 62
     7
 10
140.0
 20
227.5
 30
0.0
 40
0.5
 50
180.0
 51
0.0
  0
ARC
  8
0
  6
CONTINUOUS
 62
     7
 10
140.0
 20
227.5
 30
0.0
 40
0.5
 50
0.0
 51
180.0
  0
ARC
  8
0
  6
CONTINUOUS
 62
     7
 10
145.0
 20
232.5
 30
0.0
 40
0.5
 50
180.0
 51
0.0
  0
ARC
  8
0
  6
CONTINUOUS
 62
     7
 10
145.0
 20
232.5
 30
0.0
 40
0.5
 50
0.0
 51
180.0
  0
ARC
  8
0
  6
CONTINUOUS
 62
     7
 10
150.0
 20
237.5
 30
0.0
 40
0.5
 50
180.0
 51
0.0
  0
ARC
  8
0
  6
CONTINUOUS
 62
     7
 10
150.0
 20
237.5
 30
0.0
 40
0.5
 50
0.0
 51
180.0
  0
ARC
  8
0
  6
CONTINUOUS
 62
     7
 10
172.5
 20
220.0
 30
0.0
 40
0.5
 50
180.0
 51
0.0
  0
ARC
  8
0
  6
CONTINUOUS
 62
     7
 10
172.5
 20
220.0
 30
0.0
 40
0.5
 50
0.0
 51
180.0
  0
ARC
  8
0
  6
CONTINUOUS
 62
     7
 10
230.840732
 20
132.048165
 30
0.0
 40
0.5
 50
180.0
 51
0.0
  0
ARC
  8
0
  6
CONTINUOUS
 62
     7
 10
230.840732
 20
132.048165
 30
0.0
 40
0.5
 50
0.0
 51
180.0
  0
ARC
  8
0
  6
CONTINUOUS
 62
     7
 10
218.241025
 20
152.5
 30
0.0
 40
0.5
 50
180.0
 51
0.0
  0
ARC
  8
0
  6
CONTINUOUS
 62
     7
 10
218.241025
 20
152.5
 30
0.0
 40
0.5
 50
0.0
 51
180.0
  0
ARC
  8
0
  6
CONTINUOUS
 62
     7
 10
222.5
 20
144.548165
 30
0.0
 40
0.5
 50
180.0
 51
0.0
  0
ARC
  8
0
  6
CONTINUOUS
 62
     7
 10
222.5
 20
144.548165
 30
0.0
 40
0.5
 50
0.0
 51
180.0
  0
ARC
  8
0
  6
CONTINUOUS
 62
     7
 10
210.0
 20
165.0
 30
0.0
 40
0.5
 50
180.0
 51
0.0
  0
ARC
  8
0
  6
CONTINUOUS
 62
     7
 10
210.0
 20
165.0
 30
0.0
 40
0.5
 50
0.0
 51
180.0
  0
ARC
  8
0
  6
CONTINUOUS
 62
     7
 10
214.188985
 20
157.048165
 30
0.0
 40
0.5
 50
180.0
 51
0.0
  0
ARC
  8
0
  6
CONTINUOUS
 62
     7
 10
214.188985
 20
157.048165
 30
0.0
 40
0.5
 50
0.0
 51
180.0
  0
ARC
  8
0
  6
CONTINUOUS
 62
     7
 10
210.0
 20
205.0
 30
0.0
 40
0.5
 50
180.0
 51
0.0
  0
ARC
  8
0
  6
CONTINUOUS
 62
     7
 10
210.0
 20
205.0
 30
0.0
 40
0.5
 50
0.0
 51
180.0
  0
ARC
  8
0
  6
CONTINUOUS
 62
     7
 10
205.0
 20
212.5
 30
0.0
 40
0.5
 50
180.0
 51
0.0
  0
ARC
  8
0
  6
CONTINUOUS
 62
     7
 10
205.0
 20
212.5
 30
0.0
 40
0.5
 50
0.0
 51
180.0
  0
ARC
  8
0
  6
CONTINUOUS
 62
     7
 10
200.0
 20
220.0
 30
0.0
 40
0.5
 50
180.0
 51
0.0
  0
ARC
  8
0
  6
CONTINUOUS
 62
     7
 10
200.0
 20
220.0
 30
0.0
 40
0.5
 50
0.0
 51
180.0
  0
ENDSEC
  0
EOF
