  0
SECTION
  2
HEADER
  9
$ACADVER
  1
AC1009
  9
$DWGCODEPAGE
  3
iso8859-1
  9
$INSBASE
 10
0.0
 20
0.0
 30
0.0
  9
$EXTMIN
 10
1.0E20
 20
1.0E20
  9
$EXTMAX
 10
-1.0E20
 20
-1.0E20
  9
$LIMMIN
 10
0.0
 20
0.0
  9
$LIMMAX
 10
12.0
 20
9.0
  9
$ORTHOMODE
 70
     0
  9
$REGENMODE
 70
     1
  9
$FILLMODE
 70
     1
  9
$QTEXTMODE
 70
     0
  9
$MIRRTEXT
 70
     1
  9
$DRAGMODE
 70
     2
  9
$LTSCALE
 40
15.0
  9
$OSMODE
 70
     0
  9
$ATTMODE
 70
     1
  9
$TEXTSIZE
 40
0.2
  9
$TRACEWID
 40
0.05
  9
$TEXTSTYLE
  7
STANDARD
  9
$CLAYER
  8
0
  9
$CELTYPE
  6
DASHED
  9
$CECOLOR
 62
   256
  9
$DIMSCALE
 40
1.0
  9
$DIMASZ
 40
0.18
  9
$DIMEXO
 40
0.0625
  9
$DIMDLI
 40
0.38
  9
$DIMRND
 40
0.0
  9
$DIMDLE
 40
0.0
  9
$DIMEXE
 40
0.18
  9
$DIMTP
 40
0.0
  9
$DIMTM
 40
0.0
  9
$DIMTXT
 40
0.18
  9
$DIMCEN
 40
0.09
  9
$DIMTSZ
 40
0.0
  9
$DIMTOL
 70
     0
  9
$DIMLIM
 70
     0
  9
$DIMTIH
 70
     1
  9
$DIMTOH
 70
     1
  9
$DIMSE1
 70
     0
  9
$DIMSE2
 70
     0
  9
$DIMTAD
 70
     0
  9
$DIMZIN
 70
     0
  9
$DIMBLK
  1

  9
$DIMASO
 70
     1
  9
$DIMSHO
 70
     1
  9
$DIMPOST
  1

  9
$DIMAPOST
  1

  9
$DIMALT
 70
     0
  9
$DIMALTD
 70
     2
  9
$DIMALTF
 40
25.4
  9
$DIMLFAC
 40
1.0
  9
$DIMTOFL
 70
     0
  9
$DIMTVP
 40
0.0
  9
$DIMTIX
 70
     0
  9
$DIMSOXD
 70
     0
  9
$DIMSAH
 70
     0
  9
$DIMBLK1
  1

  9
$DIMBLK2
  1

  9
$DIMSTYLE
  2
STANDARD
  9
$DIMCLRD
 70
     0
  9
$DIMCLRE
 70
     0
  9
$DIMCLRT
 70
     0
  9
$DIMTFAC
 40
1.0
  9
$DIMGAP
 40
0.09
  9
$LUNITS
 70
     2
  9
$LUPREC
 70
     4
  9
$AXISMODE
 70
     0
  9
$AXISUNIT
 10
0.0
 20
0.0
  9
$SKETCHINC
 40
0.1
  9
$FILLETRAD
 40
0.0
  9
$AUNITS
 70
     0
  9
$AUPREC
 70
     0
  9
$MENU
  1
acad
  9
$ELEVATION
 40
0.0
  9
$PELEVATION
 40
0.0
  9
$THICKNESS
 40
0.0
  9
$LIMCHECK
 70
     0
  9
$BLIPMODE
 70
     1
  9
$CHAMFERA
 40
0.0
  9
$CHAMFERB
 40
0.0
  9
$SKPOLY
 70
     0
  9
$TDCREATE
 40
0.000000000
  9
$TDUPDATE
 40
0.000000000
  9
$TDINDWG
 40
0.0
  9
$TDUSRTIMER
 40
0.0
  9
$USRTIMER
 70
     1
  9
$ANGBASE
 50
0.0
  9
$ANGDIR
 70
     0
  9
$PDMODE
 70
     0
  9
$PDSIZE
 40
0.0
  9
$PLINEWID
 40
0.0
  9
$COORDS
 70
     1
  9
$SPLFRAME
 70
     0
  9
$SPLINETYPE
 70
     6
  9
$SPLINESEGS
 70
     8
  9
$ATTDIA
 70
     0
  9
$ATTREQ
 70
     1
  9
$HANDLING
 70
     1
  9
$HANDSEED
  5
   5DC
  9
$SURFTAB1
 70
     6
  9
$SURFTAB2
 70
     6
  9
$SURFTYPE
 70
     6
  9
$SURFU
 70
     6
  9
$SURFV
 70
     6
  9
$UCSNAME
  2

  9
$UCSORG
 10
0.0
 20
0.0
 30
0.0
  9
$UCSXDIR
 10
1.0
 20
0.0
 30
0.0
  9
$UCSYDIR
 10
0.0
 20
1.0
 30
0.0
  9
$PUCSNAME
  2

  9
$PUCSORG
 10
0.0
 20
0.0
 30
0.0
  9
$PUCSXDIR
 10
1.0
 20
0.0
 30
0.0
  9
$PUCSYDIR
 10
0.0
 20
1.0
 30
0.0
  9
$USERI1
 70
     0
  9
$USERI2
 70
     0
  9
$USERI3
 70
     0
  9
$USERI4
 70
     0
  9
$USERI5
 70
     0
  9
$USERR1
 40
0.0
  9
$USERR2
 40
0.0
  9
$USERR3
 40
0.0
  9
$USERR4
 40
0.0
  9
$USERR5
 40
0.0
  9
$WORLDVIEW
 70
     1
  9
$SHADEDGE
 70
     3
  9
$SHADEDIF
 70
    70
  9
$TILEMODE
 70
     1
  9
$MAXACTVP
 70
    16
  9
$PINSBASE
 10
0.0
 20
0.0
 30
0.0
  9
$PLIMCHECK
 70
     0
  9
$PEXTMIN
 10
1.0E20
 20
1.0E20
 30
1.0E20
  9
$PEXTMAX
 10
-1.0E20
 20
-1.0E20
 30
-1.0E20
  9
$PLIMMIN
 10
0.0
 20
0.0
  9
$PLIMMAX
 10
12.0
 20
9.0
  9
$UNITMODE
 70
     0
  9
$VISRETAIN
 70
     0
  0
ENDSEC
  0
SECTION
  2
TABLES
  0
TABLE
  2
VPORT
 70
     1
  0
VPORT
  2
*ACTIVE
 70
     0
 10
0.0
 20
0.0
 11
1.0
 21
1.0
 12
6.801242
 22
4.5
 13
0.0
 23
0.0
 14
1.0
 24
1.0
 15
0.0
 25
0.0
 16
0.0
 26
0.0
 36
1.0
 17
0.0
 27
0.0
 37
0.0
 40
9.0
 41
1.511387
 42
50.0
 43
0.0
 44
0.0
 50
0.0
 51
0.0
 71
     0
 72
   100
 73
     1
 74
     1
 75
     0
 76
     0
 77
     0
 78
     0
  0
ENDTAB
  0
TABLE
  2
LTYPE
 70
    41
  0
LTYPE
  2
BYBLOCK
 70
     0
  3

 72
    65
 73
     0
 40
0.0
  0
LTYPE
  2
BYLAYER
 70
     0
  3

 72
    65
 73
     0
 40
0.0
  0
LTYPE
  2
CONTINUOUS
 70
     0
  3
Solid line
 72
    65
 73
     0
 40
0.0
  0
LTYPE
  2
BORDER
 70
    64
  3
__ __ . __ __ . __ __ . __ __ . __ __ . __ __ .
 72
    65
 73
     6
 40
1.75
 49
0.5
 49
-0.25
 49
0.5
 49
-0.25
 49
0.0
 49
-0.25
  0
LTYPE
  2
BORDER2
 70
    64
  3
__.__.__.__.__.__.__.__.__.__.__.__.__.__.__.__
 72
    65
 73
     6
 40
0.875
 49
0.25
 49
-0.125
 49
0.25
 49
-0.125
 49
0.0
 49
-0.125
  0
LTYPE
  2
BORDERX2
 70
    64
  3
____  ____  .  ____  ____  .  ____  ____  .  __
 72
    65
 73
     6
 40
3.5
 49
1.0
 49
-0.5
 49
1.0
 49
-0.5
 49
0.0
 49
-0.5
  0
LTYPE
  2
CENTER
 70
    64
  3
____ _ ____ _ ____ _ ____ _ ____ _ ____ _ ____
 72
    65
 73
     4
 40
2.0
 49
1.25
 49
-0.25
 49
0.25
 49
-0.25
  0
LTYPE
  2
CENTER2
 70
    64
  3
___ _ ___ _ ___ _ ___ _ ___ _ ___ _ ___ _ ___ _
 72
    65
 73
     4
 40
1.125
 49
0.75
 49
-0.125
 49
0.125
 49
-0.125
  0
LTYPE
  2
CENTERX2
 70
    64
  3
________  __  ________  __  ________  __  _____
 72
    65
 73
     4
 40
4.0
 49
2.5
 49
-0.5
 49
0.5
 49
-0.5
  0
LTYPE
  2
DASHDOT
 70
    64
  3
__ . __ . __ . __ . __ . __ . __ . __ . __ . __
 72
    65
 73
     4
 40
1.0
 49
0.5
 49
-0.25
 49
0.0
 49
-0.25
  0
LTYPE
  2
DASHDOT2
 70
    64
  3
_._._._._._._._._._._._._._._._._._._._._._._._
 72
    65
 73
     4
 40
0.5
 49
0.25
 49
-0.125
 49
0.0
 49
-0.125
  0
LTYPE
  2
DASHDOTX2
 70
    64
  3
____  .  ____  .  ____  .  ____  .  ____  .  __
 72
    65
 73
     4
 40
2.0
 49
1.0
 49
-0.5
 49
0.0
 49
-0.5
  0
LTYPE
  2
DASHED
 70
    64
  3
__ __ __ __ __ __ __ __ __ __ __ __ __ __ __ __
 72
    65
 73
     2
 40
0.75
 49
0.5
 49
-0.25
  0
LTYPE
  2
DASHED2
 70
    64
  3
_ _ _ _ _ _ _ _ _ _ _ _ _ _ _ _ _ _ _ _ _ _ _ _
 72
    65
 73
     2
 40
0.375
 49
0.25
 49
-0.125
  0
LTYPE
  2
DASHEDX2
 70
    64
  3
____  ____  ____  ____  ____  ____  ____  ____
 72
    65
 73
     2
 40
1.5
 49
1.0
 49
-0.5
  0
LTYPE
  2
DIVIDE
 70
    64
  3
____ . . ____ . . ____ . . ____ . . ____ . . __
 72
    65
 73
     6
 40
1.25
 49
0.5
 49
-0.25
 49
0.0
 49
-0.25
 49
0.0
 49
-0.25
  0
LTYPE
  2
DIVIDE2
 70
    64
  3
__..__..__..__..__..__..__..__..__..__..__..__.
 72
    65
 73
     6
 40
0.625
 49
0.25
 49
-0.125
 49
0.0
 49
-0.125
 49
0.0
 49
-0.125
  0
LTYPE
  2
DIVIDEX2
 70
    64
  3
________  .  .  ________  .  .  ________  .  .
 72
    65
 73
     6
 40
2.5
 49
1.0
 49
-0.5
 49
0.0
 49
-0.5
 49
0.0
 49
-0.5
  0
LTYPE
  2
DOT
 70
    64
  3
. . . . . . . . . . . . . . . . . . . . . . . .
 72
    65
 73
     2
 40
0.25
 49
0.0
 49
-0.25
  0
LTYPE
  2
DOT2
 70
    64
  3
...............................................
 72
    65
 73
     2
 40
0.125
 49
0.0
 49
-0.125
  0
LTYPE
  2
DOTX2
 70
    64
  3
.  .  .  .  .  .  .  .  .  .  .  .  .  .  .  .
 72
    65
 73
     2
 40
0.5
 49
0.0
 49
-0.5
  0
LTYPE
  2
HIDDEN
 70
    64
  3
__ __ __ __ __ __ __ __ __ __ __ __ __ __ __ __
 72
    65
 73
     2
 40
0.375
 49
0.25
 49
-0.125
  0
LTYPE
  2
HIDDEN2
 70
    64
  3
_ _ _ _ _ _ _ _ _ _ _ _ _ _ _ _ _ _ _ _ _ _ _ _
 72
    65
 73
     2
 40
0.1875
 49
0.125
 49
-0.0625
  0
LTYPE
  2
HIDDENX2
 70
    64
  3
____ ____ ____ ____ ____ ____ ____ ____ ____ __
 72
    65
 73
     2
 40
0.75
 49
0.5
 49
-0.25
  0
LTYPE
  2
PHANTOM
 70
    64
  3
______  __  __  ______  __  __  ______  __  __
 72
    65
 73
     6
 40
2.5
 49
1.25
 49
-0.25
 49
0.25
 49
-0.25
 49
0.25
 49
-0.25
  0
LTYPE
  2
PHANTOM2
 70
    64
  3
___ _ _ ___ _ _ ___ _ _ ___ _ _ ___ _ _ ___ _ _
 72
    65
 73
     6
 40
1.25
 49
0.625
 49
-0.125
 49
0.125
 49
-0.125
 49
0.125
 49
-0.125
  0
LTYPE
  2
PHANTOMX2
 70
    64
  3
____________    ____    ____    ____________
 72
    65
 73
     6
 40
5.0
 49
2.5
 49
-0.5
 49
0.5
 49
-0.5
 49
0.5
 49
-0.5
  0
LTYPE
  2
ACAD_ISO02W100
 70
    64
  3
__ __ __ __ __ __ __ __ __ __ __ __ __ __ __ __
 72
    65
 73
     2
 40
15.0
 49
12.0
 49
-3.0
  0
LTYPE
  2
ACAD_ISO03W100
 70
    64
  3
__    __    __    __    __    __    __    __
 72
    65
 73
     2
 40
30.0
 49
12.0
 49
-18.0
  0
LTYPE
  2
ACAD_ISO04W100
 70
    64
  3
____ . ____ . ____ . ____ . ____ . ____ . ____
 72
    65
 73
     4
 40
30.5
 49
24.0
 49
-3.0
 49
0.5
 49
-3.0
  0
LTYPE
  2
ACAD_ISO05W100
 70
    64
  3
____ .. ____ .. ____ .. ____ .. ____ .. ____ ..
 72
    65
 73
     6
 40
34.0
 49
24.0
 49
-3.0
 49
0.5
 49
-3.0
 49
0.5
 49
-3.0
  0
LTYPE
  2
ACAD_ISO06W100
 70
    64
  3
____ ... ____ ... ____ ... ____ ... ____ ... __
 72
    65
 73
     8
 40
37.5
 49
24.0
 49
-3.0
 49
0.5
 49
-3.0
 49
0.5
 49
-3.0
 49
0.5
 49
-3.0
  0
LTYPE
  2
ACAD_ISO07W100
 70
    64
  3
. . . . . . . . . . . . . . . . . . . . . . . .
 72
    65
 73
     2
 40
3.5
 49
0.5
 49
-3.0
  0
LTYPE
  2
ACAD_ISO08W100
 70
    64
  3
____ __ ____ __ ____ __ ____ ____ __ __ ____ __
 72
    65
 73
     4
 40
36.0
 49
24.0
 49
-3.0
 49
6.0
 49
-3.0
  0
LTYPE
  2
ACAD_ISO09W100
 70
    64
  3
____ __ __ ____ __ __ ____ __ __ ____ __ __ ___
 72
    65
 73
     6
 40
45.0
 49
24.0
 49
-3.0
 49
6.0
 49
-3.0
 49
6.0
 49
-3.0
  0
LTYPE
  2
ACAD_ISO10W100
 70
    64
  3
__ . __ . __ . __ . __ . __ . __ . __ . __ . __
 72
    65
 73
     4
 40
18.5
 49
12.0
 49
-3.0
 49
0.5
 49
-3.0
  0
LTYPE
  2
ACAD_ISO11W100
 70
    64
  3
__ __ . __ __ . __ __ . __ __ . __ __ . __ __ .
 72
    65
 73
     6
 40
33.5
 49
12.0
 49
-3.0
 49
12.0
 49
-3.0
 49
0.5
 49
-3.0
  0
LTYPE
  2
ACAD_ISO12W100
 70
    64
  3
__ . . __ . . __ . . __ . . __ . . __ . . __ .
 72
    65
 73
     6
 40
22.0
 49
12.0
 49
-3.0
 49
0.5
 49
-3.0
 49
0.5
 49
-3.0
  0
LTYPE
  2
ACAD_ISO13W100
 70
    64
  3
__ __ . . __ __ . . __ __ . . __ __ . . __ __ .
 72
    65
 73
     8
 40
37.0
 49
12.0
 49
-3.0
 49
12.0
 49
-3.0
 49
0.5
 49
-3.0
 49
0.5
 49
-3.0
  0
LTYPE
  2
ACAD_ISO14W100
 70
    64
  3
__ . . . __ . . . __ . . . __ . . . __ . . . __
 72
    65
 73
     8
 40
25.5
 49
12.0
 49
-3.0
 49
0.5
 49
-3.0
 49
0.5
 49
-3.0
 49
0.5
 49
-3.0
  0
LTYPE
  2
ACAD_ISO15W100
 70
    64
  3
__ __ . . . __ __ . . . __ __ . . . __ __ . . .
 72
    65
 73
    10
 40
40.5
 49
12.0
 49
-3.0
 49
12.0
 49
-3.0
 49
0.5
 49
-3.0
 49
0.5
 49
-3.0
 49
0.5
 49
-3.0
  0
ENDTAB
  0
TABLE
  2
STYLE
 70
     4
  0
STYLE
  2
STANDARD
 70
    64
 40
0.0
 41
1.0
 50
0.0
 71
     0
 42
0.2
  3
txt
  4

  0
STYLE
  2
TOLERANCE
 70
    64
 40
0.0
 41
1.0
 50
0.0
 71
     0
 42
0.2
  3
../igesfont/iges1003.shx
  4

  0
STYLE
  2
ROMANS
 70
    64
 40
0.0
 41
1.0
 50
0.0
 71
     0
 42
0.2
  3
romans.shx
  4

  0
STYLE
  2
ROMANC
 70
    64
 40
0.0
 41
1.0
 50
0.0
 71
     0
 42
0.2
  3
romanc.shx
  4

  0
ENDTAB
  0
TABLE
  2
DIMSTYLE
 70
     2
  0
DIMSTYLE
  2
UNNAMED
 70
     0
  3

  4

  5

  6

  7

 40
1.0
 41
0.18
 42
0.0625
 43
0.38
 44
0.18
 45
0.0
 46
0.0
 47
0.0
 48
0.0
140
0.18
141
0.09
142
0.0
143
25.4
144
1.0
145
0.0
146
1.0
147
0.09
 71
     0
 72
     0
 73
     1
 74
     1
 75
     0
 76
     0
 77
     0
 78
     0
170
     0
171
     2
172
     0
173
     0
174
     0
175
     0
176
     0
177
     0
178
     0
  0
DIMSTYLE
  2
STANDARD
 70
     0
  3

  4

  5

  6

  7

 40
1.0
 41
0.18
 42
0.0625
 43
0.38
 44
0.18
 45
0.0
 46
0.0
 47
0.0
 48
0.0
140
0.18
141
0.09
142
0.0
143
25.4
144
1.0
145
0.0
146
1.0
147
0.09
 71
     0
 72
     0
 73
     1
 74
     1
 75
     0
 76
     0
 77
     0
 78
     0
170
     0
171
     2
172
     0
173
     0
174
     0
175
     0
176
     0
177
     0
178
     0
  0
ENDTAB
  0
TABLE
  2
LAYER
 70
     2
  0
LAYER
  2
0
 70
     0
 62
     7
  6
CONTINUOUS
  0
LAYER
  2
255
 70
     0
 62
     7
  6
CONTINUOUS
  0
ENDTAB
  0
ENDSEC
  0
SECTION
  2
BLOCKS
  0
BLOCK
  5
     B
  8
0
  6
CONTINUOUS
 62
     7
  2
*HATCH798
 70
    65
 10
0.0
 20
0.0
 30
0.0
  3
*HATCH798
  0
LINE
  5
     C
  8
0
  6
CONTINUOUS
 62
     7
 10
-6.72705316543579
 20
2.18249082565308
 30
0.0
 11
-7.30467510223389
 21
1.60486936569214
 31
0.0
  0
LINE
  5
     D
  8
0
  6
CONTINUOUS
 62
     7
 10
-6.27154493331909
 20
2.21373534202576
 30
0.0
 11
-7.22455787658691
 21
1.26072216033936
 31
0.0
  0
LINE
  5
     E
  8
0
  6
CONTINUOUS
 62
     7
 10
-5.84726810455322
 20
2.21374821662903
 30
0.0
 11
-6.39466667175293
 21
1.66634941101074
 31
0.0
  0
LINE
  5
     F
  8
0
  6
CONTINUOUS
 62
     7
 10
-6.66426229476929
 20
1.39675414562225
 30
0.0
 11
-7.0505313873291
 21
1.01048505306244
 31
0.0
  0
LINE
  5
    10
  8
0
  6
CONTINUOUS
 62
     7
 10
-5.806396484375
 20
1.83035564422607
 30
0.0
 11
-5.97040271759033
 21
1.66634941101074
 31
0.0
  0
LINE
  5
    11
  8
0
  6
CONTINUOUS
 62
     7
 10
-6.29627180099487
 20
1.34048020839691
 30
0.0
 11
-6.75053644180298
 21
0.886215686798096
 31
0.0
  0
LINE
  5
    12
  8
0
  6
CONTINUOUS
 62
     7
 10
-7.08935260772705
 20
0.547399520874023
 30
0.0
 11
-7.25539398193359
 21
0.381358295679092
 31
0.0
  0
LINE
  5
    13
  8
0
  6
CONTINUOUS
 62
     7
 10
-5.99627304077148
 20
1.2162150144577
 30
0.0
 11
-6.38071584701538
 21
0.83177250623703
 31
0.0
  0
LINE
  5
    14
  8
0
  6
CONTINUOUS
 62
     7
 10
-6.66508865356445
 20
0.547399520874023
 30
0.0
 11
-7.21248769760132
 21
5.17343551109661E-7
 31
0.0
  0
LINE
  5
    15
  8
0
  6
CONTINUOUS
 62
     7
 10
-5.83309316635132
 20
0.955130934715271
 30
0.0
 11
-6.78821849822998
 21
5.63298863198725E-6
 31
0.0
  0
LINE
  5
    16
  8
0
  6
CONTINUOUS
 62
     7
 10
-5.76708984375
 20
0.596870422363281
 30
0.0
 11
-6.32275247573853
 21
4.12076637148857E-2
 31
0.0
  0
ENDBLK
  5
    17
  8
0
  6
CONTINUOUS
 62
     7
  0
BLOCK
  5
    18
  8
0
  6
CONTINUOUS
 62
     7
  2
*HATCH799
 70
    65
 10
0.0
 20
0.0
 30
0.0
  3
*HATCH799
  0
LINE
  5
    19
  8
0
  6
CONTINUOUS
 62
     7
 10
-4.99874639511108
 20
2.21374201774597
 30
0.0
 11
-5.11600208282471
 21
2.09648633003235
 31
0.0
  0
LINE
  5
    1A
  8
0
  6
CONTINUOUS
 62
     7
 10
-4.5744776725769
 20
2.21374702453613
 30
0.0
 11
-5.29006290435791
 21
1.49816131591797
 31
0.0
  0
LINE
  5
    1B
  8
0
  6
CONTINUOUS
 62
     7
 10
-4.31070804595947
 20
2.05325198173523
 30
0.0
 11
-5.46412372589111
 21
0.899836301803589
 31
0.0
  0
LINE
  5
    1C
  8
0
  6
CONTINUOUS
 62
     7
 10
-4.21509790420532
 20
1.72459805011749
 30
0.0
 11
-4.65671157836914
 21
1.28298437595367
 31
0.0
  0
LINE
  5
    1D
  8
0
  6
CONTINUOUS
 62
     7
 10
-4.8342022895813
 20
1.10549378395081
 30
0.0
 11
-5.63818502426147
 21
0.301511287689209
 31
0.0
  0
LINE
  5
    1E
  8
0
  6
CONTINUOUS
 62
     7
 10
-4.11948823928833
 20
1.39594399929047
 30
0.0
 11
-5.51543140411377
 21
5.84804922709736E-7
 31
0.0
  0
LINE
  5
    1F
  8
0
  6
CONTINUOUS
 62
     7
 10
-4.02387809753418
 20
1.06729006767273
 30
0.0
 11
-4.64841794967651
 21
0.442750215530396
 31
0.0
  0
LINE
  5
    20
  8
0
  6
CONTINUOUS
 62
     7
 10
-3.92826819419861
 20
0.738636076450348
 30
0.0
 11
-4.36988687515259
 21
0.297017365694046
 31
0.0
  0
LINE
  5
    21
  8
0
  6
CONTINUOUS
 62
     7
 10
-3.83265805244446
 20
0.409982055425644
 30
0.0
 11
-4.24264001846313
 21
-1.59405963984227E-8
 31
0.0
  0
LINE
  5
    22
  8
0
  6
CONTINUOUS
 62
     7
 10
-3.73704814910889
 20
8.13280642032623E-2
 30
0.0
 11
-3.81837606430054
 21
-1.81517350483773E-7
 31
0.0
  0
ENDBLK
  5
    23
  8
0
  6
CONTINUOUS
 62
     7
  0
BLOCK
  5
    24
  8
0
  6
CONTINUOUS
 62
     7
  2
*HATCH800
 70
    65
 10
0.0
 20
0.0
 30
0.0
  3
*HATCH800
  0
LINE
  5
    25
  8
0
  6
CONTINUOUS
 62
     7
 10
-2.9884078502655
 20
2.10276007652283
 30
0.0
 11
-3.5777416229248
 21
1.51342642307281
 31
0.0
  0
LINE
  5
    26
  8
0
  6
CONTINUOUS
 62
     7
 10
-2.51154756546021
 20
2.15535640716553
 30
0.0
 11
-3.66166138648987
 21
1.00524282455444
 31
0.0
  0
LINE
  5
    27
  8
0
  6
CONTINUOUS
 62
     7
 10
-2.14052557945251
 20
2.10211443901062
 30
0.0
 11
-2.58813261985779
 21
1.65450739860535
 31
0.0
  0
LINE
  5
    28
  8
0
  6
CONTINUOUS
 62
     7
 10
-3.09122323989868
 20
1.15141689777374
 30
0.0
 11
-3.58603048324585
 21
0.65660959482193
 31
0.0
  0
LINE
  5
    29
  8
0
  6
CONTINUOUS
 62
     7
 10
-1.91638314723969
 20
1.90199279785156
 30
0.0
 11
-2.31821155548096
 21
1.50016450881958
 31
0.0
  0
LINE
  5
    2A
  8
0
  6
CONTINUOUS
 62
     7
 10
-3.04562044143677
 20
0.772755563259125
 30
0.0
 11
-3.43465447425842
 21
0.383721768856049
 31
0.0
  0
LINE
  5
    2B
  8
0
  6
CONTINUOUS
 62
     7
 10
-1.69224071502686
 20
1.70187127590179
 30
0.0
 11
-1.84102010726929
 21
1.55309188365936
 31
0.0
  0
LINE
  5
    2C
  8
0
  6
CONTINUOUS
 62
     7
 10
-2.80736231803894
 20
0.586749851703644
 30
0.0
 11
-3.20844173431396
 21
0.185670480132103
 31
0.0
  0
LINE
  5
    2D
  8
0
  6
CONTINUOUS
 62
     7
 10
-2.35260963439941
 20
0.617238461971283
 30
0.0
 11
-2.92059206962585
 21
4.92561422288418E-2
 31
0.0
  0
LINE
  5
    2E
  8
0
  6
CONTINUOUS
 62
     7
 10
-1.86875593662262
 20
0.676828145980835
 30
0.0
 11
-2.53638815879822
 21
9.19588841497898E-3
 31
0.0
  0
ENDBLK
  5
    2F
  8
0
  6
CONTINUOUS
 62
     7
  0
BLOCK
  5
    30
  8
0
  6
CONTINUOUS
 62
     7
  2
*HATCH801
 70
    65
 10
0.0
 20
0.0
 30
0.0
  3
*HATCH801
  0
LINE
  5
    31
  8
0
  6
CONTINUOUS
 62
     7
 10
-1.18036293983459
 20
2.21374893188477
 30
0.0
 11
-1.44899749755859
 21
1.94511449337006
 31
0.0
  0
LINE
  5
    32
  8
0
  6
CONTINUOUS
 62
     7
 10
-0.756098747253418
 20
2.21374917030334
 30
0.0
 11
-1.44899749755859
 21
1.52085041999817
 31
0.0
  0
LINE
  5
    33
  8
0
  6
CONTINUOUS
 62
     7
 10
-0.331834644079208
 20
2.21374940872192
 30
0.0
 11
-0.879234552383423
 21
1.66634941101074
 31
0.0
  0
LINE
  5
    34
  8
0
  6
CONTINUOUS
 62
     7
 10
-0.901596069335938
 20
1.64398789405823
 30
0.0
 11
-1.44899749755859
 21
1.09658646583557
 31
0.0
  0
LINE
  5
    35
  8
0
  6
CONTINUOUS
 62
     7
 10
1.8455197529913E-16
 20
2.12132000923157
 30
0.0
 11
-0.45497053861618
 21
1.66634941101074
 31
0.0
  0
LINE
  5
    36
  8
0
  6
CONTINUOUS
 62
     7
 10
-0.740745306015015
 20
1.38057470321655
 30
0.0
 11
-1.44899749755859
 21
0.672322511672974
 31
0.0
  0
LINE
  5
    37
  8
0
  6
CONTINUOUS
 62
     7
 10
1.24556434776123E-17
 20
1.69705593585968
 30
0.0
 11
-3.07065322995186E-2
 21
1.66634941101074
 31
0.0
  0
LINE
  5
    38
  8
0
  6
CONTINUOUS
 62
     7
 10
-0.31648126244545
 20
1.38057470321655
 30
0.0
 11
-0.863881289958954
 21
0.833174705505371
 31
0.0
  0
LINE
  5
    39
  8
0
  6
CONTINUOUS
 62
     7
 10
-0.901596069335938
 20
0.795459926128387
 30
0.0
 11
-1.44899749755859
 21
0.248058557510376
 31
0.0
  0
LINE
  5
    3A
  8
0
  6
CONTINUOUS
 62
     7
 10
-0.120750427246094
 20
1.15204155445099
 30
0.0
 11
-0.439617276191711
 21
0.833174705505371
 31
0.0
  0
LINE
  5
    3B
  8
0
  6
CONTINUOUS
 62
     7
 10
-0.725392460823059
 20
0.547399520874023
 30
0.0
 11
-1.27279210090637
 21
1.13804191595359E-15
 31
0.0
  0
LINE
  5
    3C
  8
0
  6
CONTINUOUS
 62
     7
 10
-0.301128476858139
 20
0.547399520874023
 30
0.0
 11
-0.848528027534485
 21
7.58694610635728E-16
 31
0.0
  0
LINE
  5
    3D
  8
0
  6
CONTINUOUS
 62
     7
 10
0.0
 20
0.42426398396492
 30
0.0
 11
-0.424264013767242
 21
3.79347305317864E-16
 31
0.0
  0
LINE
  5
    3E
  8
0
  6
CONTINUOUS
 62
     7
 10
0.0
 20
0.0
 30
0.0
 11
0.0
 21
2.64697796016969E-23
 31
0.0
  0
ENDBLK
  5
    3F
  8
0
  6
CONTINUOUS
 62
     7
  0
BLOCK
  5
    40
  8
0
  6
CONTINUOUS
 62
     7
  2
*HATCH802
 70
    65
 10
0.0
 20
0.0
 30
0.0
  3
*HATCH802
  0
LINE
  5
    41
  8
0
  6
CONTINUOUS
 62
     7
 10
3.48652029037476
 20
2.2137279510498
 30
0.0
 11
2.70458126068115
 21
1.43178904056549
 31
0.0
  0
LINE
  5
    42
  8
0
  6
CONTINUOUS
 62
     7
 10
3.91079711914063
 20
2.21374082565308
 30
0.0
 11
3.36340570449829
 21
1.66634941101074
 31
0.0
  0
LINE
  5
    43
  8
0
  6
CONTINUOUS
 62
     7
 10
3.21820473670959
 20
1.52114868164063
 30
0.0
 11
2.82884836196899
 21
1.13179218769073
 31
0.0
  0
LINE
  5
    44
  8
0
  6
CONTINUOUS
 62
     7
 10
4.193603515625
 20
2.07228326797485
 30
0.0
 11
3.78766965866089
 21
1.66634941101074
 31
0.0
  0
LINE
  5
    45
  8
0
  6
CONTINUOUS
 62
     7
 10
3.51397061347961
 20
1.39265036582947
 30
0.0
 11
3.07839775085449
 21
0.95707768201828
 31
0.0
  0
LINE
  5
    46
  8
0
  6
CONTINUOUS
 62
     7
 10
3.8326587677002
 20
1.28707456588745
 30
0.0
 11
3.39083480834961
 21
0.84525054693222
 31
0.0
  0
LINE
  5
    47
  8
0
  6
CONTINUOUS
 62
     7
 10
3.09298372268677
 20
0.547399520874023
 30
0.0
 11
2.74460601806641
 21
0.199021905660629
 31
0.0
  0
LINE
  5
    48
  8
0
  6
CONTINUOUS
 62
     7
 10
4.0960488319397
 20
1.12620043754578
 30
0.0
 11
3.71637558937073
 21
0.746527493000031
 31
0.0
  0
LINE
  5
    49
  8
0
  6
CONTINUOUS
 62
     7
 10
3.51724767684937
 20
0.547399520874023
 30
0.0
 11
2.96985077857971
 21
2.7158998818777E-6
 31
0.0
  0
LINE
  5
    4A
  8
0
  6
CONTINUOUS
 62
     7
 10
4.22031116485596
 20
0.826198935508728
 30
0.0
 11
3.39411997795105
 21
7.83154519012896E-6
 31
0.0
  0
LINE
  5
    4B
  8
0
  6
CONTINUOUS
 62
     7
 10
4.10397624969482
 20
0.285600155591965
 30
0.0
 11
3.98851370811462
 21
0.17013755440712
 31
0.0
  0
ENDBLK
  5
    4C
  8
0
  6
CONTINUOUS
 62
     7
  0
BLOCK
  5
    4D
  8
0
  6
CONTINUOUS
 62
     7
  2
$5SACE
 70
    64
 10
0.0
 20
0.0
 30
0.0
  3
$5SACE
  0
LINE
  5
    4E
  8
0
  6
CONTINUOUS
 62
     7
 10
-6.65164184570313
 20
0.84524965286255
 30
0.0
 11
-6.42221832275391
 21
0.84524965286255
 31
0.0
  0
LINE
  5
    4F
  8
0
  6
CONTINUOUS
 62
     7
 10
-6.42220611590814
 20
0.845254519188986
 30
0.0
 11
-6.33467408742227
 21
0.816812141576352
 31
0.0
  0
LINE
  5
    50
  8
0
  6
CONTINUOUS
 62
     7
 10
-6.33467505266625
 20
0.816811912229196
 30
0.0
 11
-6.28057502527593
 21
0.742349507885549
 31
0.0
  0
LINE
  5
    51
  8
0
  6
CONTINUOUS
 62
     7
 10
-6.28058624267578
 20
0.650304317474365
 30
0.0
 11
-6.28058624267578
 21
0.742344856262207
 31
0.0
  0
LINE
  5
    52
  8
0
  6
CONTINUOUS
 62
     7
 10
-6.33467905122843
 20
0.575845194549703
 30
0.0
 11
-6.28057902383813
 21
0.65030759889333
 31
0.0
  0
LINE
  5
    53
  8
0
  6
CONTINUOUS
 62
     7
 10
-6.42220857841173
 20
0.5474028190401
 30
0.0
 11
-6.33467654992582
 21
0.575845196652747
 31
0.0
  0
LINE
  5
    54
  8
0
  6
CONTINUOUS
 62
     7
 10
-7.25539398193359
 20
0.547399520874025
 30
0.0
 11
-6.42221832275391
 21
0.547399520874025
 31
0.0
  0
LINE
  5
    55
  8
0
  6
CONTINUOUS
 62
     7
 10
-7.25539398193359
 20
0.0
 30
0.0
 11
-7.25539398193359
 21
0.547399520874023
 31
0.0
  0
LINE
  5
    56
  8
0
  6
CONTINUOUS
 62
     7
 10
-7.25539398193359
 20
1.29559252739714E-15
 30
0.0
 11
-6.42221832275391
 21
1.29559252739714E-15
 31
0.0
  0
LINE
  5
    57
  8
0
  6
CONTINUOUS
 62
     7
 10
-6.65164184570313
 20
1.39264965057373
 30
0.0
 11
-6.42221832275391
 21
1.39264965057373
 31
0.0
  0
LINE
  5
    58
  8
0
  6
CONTINUOUS
 62
     7
 10
-6.73207774966845
 20
1.41878793231365
 30
0.0
 11
-6.65163341489544
 21
1.39265201188207
 31
0.0
  0
LINE
  5
    59
  8
0
  6
CONTINUOUS
 62
     7
 10
-6.78179637679859
 20
1.48720936665429
 30
0.0
 11
-6.73208324200653
 21
1.41878418569267
 31
0.0
  0
LINE
  5
    5A
  8
0
  6
CONTINUOUS
 62
     7
 10
-6.78179931640625
 20
1.48721075057983
 30
0.0
 11
-6.78179931640625
 21
1.57178831100464
 31
0.0
  0
LINE
  5
    5B
  8
0
  6
CONTINUOUS
 62
     7
 10
-6.78178899286177
 20
1.57178600254942
 30
0.0
 11
-6.73207585806973
 21
1.64021118351102
 31
0.0
  0
LINE
  5
    5C
  8
0
  6
CONTINUOUS
 62
     7
 10
-6.73207464437523
 20
1.64021722966892
 30
0.0
 11
-6.65163030960224
 21
1.66635315010049
 31
0.0
  0
LINE
  5
    5D
  8
0
  6
CONTINUOUS
 62
     7
 10
-6.65164184570313
 20
1.66634941101074
 30
0.0
 11
-5.806396484375
 21
1.66634941101074
 31
0.0
  0
LINE
  5
    5E
  8
0
  6
CONTINUOUS
 62
     7
 10
-5.806396484375
 20
1.66634941101074
 30
0.0
 11
-5.806396484375
 21
2.21374940872192
 31
0.0
  0
LINE
  5
    5F
  8
0
  6
CONTINUOUS
 62
     7
 10
-6.65164184570313
 20
2.21374940872193
 30
0.0
 11
-5.806396484375
 21
2.21374940872193
 31
0.0
  0
LINE
  5
    60
  8
0
  6
CONTINUOUS
 62
     7
 10
-5.72589874267578
 20
1.29559252739714E-15
 30
0.0
 11
-5.15579986572266
 21
1.29559252739714E-15
 31
0.0
  0
LINE
  5
    61
  8
0
  6
CONTINUOUS
 62
     7
 10
-5.1557939203843
 20
1.58409603323584E-6
 30
0.0
 11
-5.02699448583549
 21
0.442751079827253
 31
0.0
  0
LINE
  5
    62
  8
0
  6
CONTINUOUS
 62
     7
 10
-5.02700042724609
 20
0.442749500274659
 30
0.0
 11
-4.41228485107422
 21
0.442749500274659
 31
0.0
  0
LINE
  5
    63
  8
0
  6
CONTINUOUS
 62
     7
 10
-4.41228013668901
 20
0.44275068065938
 30
0.0
 11
-4.2834807021402
 21
1.18492813605542E-6
 31
0.0
  0
LINE
  5
    64
  8
0
  6
CONTINUOUS
 62
     7
 10
-4.28348541259766
 20
1.29559252739714E-15
 30
0.0
 11
-3.71339416503906
 21
1.29559252739714E-15
 31
0.0
  0
LINE
  5
    65
  8
0
  6
CONTINUOUS
 62
     7
 10
-4.35739354898064
 20
2.21374974704771
 30
0.0
 11
-3.71338855826095
 21
-2.22490754153704E-7
 31
0.0
  0
LINE
  5
    66
  8
0
  6
CONTINUOUS
 62
     7
 10
-5.08189392089844
 20
2.21374940872193
 30
0.0
 11
-4.35739898681641
 21
2.21374940872193
 31
0.0
  0
LINE
  5
    67
  8
0
  6
CONTINUOUS
 62
     7
 10
-5.72589584497131
 20
-8.9938235985354E-6
 30
0.0
 11
-5.08189085425162
 21
2.21374097571487
 31
0.0
  0
LINE
  5
    68
  8
0
  6
CONTINUOUS
 62
     7
 10
-4.71963825721332
 20
1.49929173564375
 30
0.0
 11
-4.57152874572855
 21
0.990149564360234
 31
0.0
  0
LINE
  5
    69
  8
0
  6
CONTINUOUS
 62
     7
 10
-4.86775970458984
 20
0.990149497985841
 30
0.0
 11
-4.571533203125
 21
0.990149497985841
 31
0.0
  0
LINE
  5
    6A
  8
0
  6
CONTINUOUS
 62
     7
 10
-4.86775077081381
 20
0.990150342992026
 30
0.0
 11
-4.71963371649822
 21
1.4992922341155
 31
0.0
  0
LINE
  5
    6B
  8
0
  6
CONTINUOUS
 62
     7
 10
-3.56278593292238
 20
0.549459587100848
 30
0.0
 11
-3.38675290737703
 21
0.321762682109787
 31
0.0
  0
LINE
  5
    6C
  8
0
  6
CONTINUOUS
 62
     7
 10
-3.38674988776631
 20
0.321757463405608
 30
0.0
 11
-3.15795960623514
 21
0.14714302843915
 31
0.0
  0
LINE
  5
    6D
  8
0
  6
CONTINUOUS
 62
     7
 10
-3.15796427280975
 20
0.147145556821385
 30
0.0
 11
-2.89188914343168
 21
3.74196068128748E-2
 31
0.0
  0
LINE
  5
    6E
  8
0
  6
CONTINUOUS
 62
     7
 10
-2.8918863014344
 20
3.74182762057862E-2
 30
0.0
 11
-2.60651643426088
 21
-8.77137409371898E-8
 31
0.0
  0
LINE
  5
    6F
  8
0
  6
CONTINUOUS
 62
     7
 10
-2.6065123212118
 20
9.81649358466896E-7
 30
0.0
 11
-2.32114245403815
 21
3.74193455689014E-2
 31
0.0
  0
LINE
  5
    70
  8
0
  6
CONTINUOUS
 62
     7
 10
-2.32115153010861
 20
3.74184405847323E-2
 30
0.0
 11
-2.05507640073053
 21
0.147144390593243
 31
0.0
  0
LINE
  5
    71
  8
0
  6
CONTINUOUS
 62
     7
 10
-2.05506873210346
 20
0.147150154788858
 30
0.0
 11
-1.82627845057229
 21
0.321764589755317
 31
0.0
  0
LINE
  5
    72
  8
0
  6
CONTINUOUS
 62
     7
 10
-1.82628033847405
 20
0.321759408316239
 30
0.0
 11
-1.65023969094006
 21
0.549456298035748
 31
0.0
  0
LINE
  5
    73
  8
0
  6
CONTINUOUS
 62
     7
 10
-2.12316137878389
 20
0.825127035253691
 30
0.0
 11
-1.65023815182741
 21
0.549457975118036
 31
0.0
  0
LINE
  5
    74
  8
0
  6
CONTINUOUS
 62
     7
 10
-2.24808598157176
 20
0.677293469343914
 30
0.0
 11
-2.12316989668348
 21
0.825121583594019
 31
0.0
  0
LINE
  5
    75
  8
0
  6
CONTINUOUS
 62
     7
 10
-2.41589982592873
 20
0.580876247378224
 30
0.0
 11
-2.24808363129394
 21
0.677297507055141
 31
0.0
  0
LINE
  5
    76
  8
0
  6
CONTINUOUS
 62
     7
 10
-2.60651568365088
 20
0.547399641475173
 30
0.0
 11
-2.41589523762909
 21
0.580875516622462
 31
0.0
  0
LINE
  5
    77
  8
0
  6
CONTINUOUS
 62
     7
 10
-2.79714562109014
 20
0.580875730809506
 30
0.0
 11
-2.60652517506844
 21
0.547399855662232
 31
0.0
  0
LINE
  5
    78
  8
0
  6
CONTINUOUS
 62
     7
 10
-2.96495823289931
 20
0.677298823896134
 30
0.0
 11
-2.7971420382645
 21
0.580877564219204
 31
0.0
  0
LINE
  5
    79
  8
0
  6
CONTINUOUS
 62
     7
 10
-3.08987367938059
 20
0.825127877682344
 30
0.0
 11
-2.96495759449232
 21
0.677299763432247
 31
0.0
  0
LINE
  5
    7A
  8
0
  6
CONTINUOUS
 62
     7
 10
-2.12315784078463
 20
1.38863138085445
 30
0.0
 11
-1.65023461382815
 21
1.6643004409901
 31
0.0
  0
LINE
  5
    7B
  8
0
  6
CONTINUOUS
 62
     7
 10
-1.44899749755859
 20
0.0
 30
0.0
 11
-1.44899749755859
 21
2.21374893188477
 31
0.0
  0
LINE
  5
    7C
  8
0
  6
CONTINUOUS
 62
     7
 10
-1.44899749755859
 20
1.29559252739714E-15
 30
0.0
 11
7.93321620838069E-32
 21
1.29559252739714E-15
 31
0.0
  0
LINE
  5
    7D
  8
0
  6
CONTINUOUS
 62
     7
 10
0.0
 20
0.0
 30
0.0
 11
0.0
 21
0.547399520874023
 31
0.0
  0
LINE
  5
    7E
  8
0
  6
CONTINUOUS
 62
     7
 10
-0.901596069335938
 20
0.547399520874025
 30
0.0
 11
3.35185535546584E-17
 21
0.547399520874025
 31
0.0
  0
LINE
  5
    7F
  8
0
  6
CONTINUOUS
 62
     7
 10
-0.901596069335938
 20
0.547399520874023
 30
0.0
 11
-0.901596069335938
 21
0.833174705505371
 31
0.0
  0
LINE
  5
    80
  8
0
  6
CONTINUOUS
 62
     7
 10
-0.901596069335938
 20
0.833174705505373
 30
0.0
 11
-0.120750427246094
 21
0.833174705505373
 31
0.0
  0
LINE
  5
    81
  8
0
  6
CONTINUOUS
 62
     7
 10
-0.120750427246094
 20
0.833174705505371
 30
0.0
 11
-0.120750427246094
 21
1.38057470321655
 31
0.0
  0
LINE
  5
    82
  8
0
  6
CONTINUOUS
 62
     7
 10
-0.901596069335937
 20
1.38057470321655
 30
0.0
 11
-0.120750427246094
 21
1.38057470321655
 31
0.0
  0
LINE
  5
    83
  8
0
  6
CONTINUOUS
 62
     7
 10
-0.901596069335938
 20
1.38057470321655
 30
0.0
 11
-0.901596069335938
 21
1.66634938120842
 31
0.0
  0
LINE
  5
    84
  8
0
  6
CONTINUOUS
 62
     7
 10
-0.901596069335937
 20
1.66634941101074
 30
0.0
 11
1.02034473622769E-16
 21
1.66634941101074
 31
0.0
  0
LINE
  5
    85
  8
0
  6
CONTINUOUS
 62
     7
 10
0.0
 20
1.66634941101074
 30
0.0
 11
0.0
 21
2.21374940872192
 31
0.0
  0
LINE
  5
    86
  8
0
  6
CONTINUOUS
 62
     7
 10
-1.44899749755859
 20
2.21374940872193
 30
0.0
 11
1.35553056375283E-16
 21
2.21374940872193
 31
0.0
  0
ARC
  5
    87
  8
0
  6
CONTINUOUS
 62
     7
 10
-6.65167272329478
 20
1.52950251971625
 30
0.0
 40
0.684221325991138
 50
89.9975452090749
 51
270.002590974911
  0
ARC
  5
    88
  8
0
  6
CONTINUOUS
 62
     7
 10
-6.4222121249208
 20
0.696328140844565
 30
0.0
 40
0.696318094728419
 50
269.999920898491
 51
449.999499220325
  0
ARC
  5
    89
  8
0
  6
CONTINUOUS
 62
     7
 10
-2.60648164577671
 20
1.10683590907698
 30
0.0
 40
1.10692783346537
 50
30.24104526357
 51
210.235617348036
  0
ARC
  5
    8A
  8
0
  6
CONTINUOUS
 62
     7
 10
-2.60650097665835
 20
1.10686381958204
 30
0.0
 40
0.5594873152035
 50
30.2406197505008
 51
210.236398393491
  0
INSERT
  5
    8B
  8
0
  6
CONTINUOUS
 62
     7
  2
*HATCH798
 10
0.0
 20
0.0
 30
0.0
  0
INSERT
  5
    8C
  8
0
  6
CONTINUOUS
 62
     7
  2
*HATCH799
 10
0.0
 20
0.0
 30
0.0
  0
INSERT
  5
    8D
  8
0
  6
CONTINUOUS
 62
     7
  2
*HATCH800
 10
0.0
 20
0.0
 30
0.0
  0
INSERT
  5
    8E
  8
0
  6
CONTINUOUS
 62
     7
  2
*HATCH801
 10
0.0
 20
0.0
 30
0.0
  0
INSERT
  5
    8F
  8
0
  6
CONTINUOUS
 62
     7
  2
*HATCH802
 10
0.0
 20
0.0
 30
0.0
  0
LINE
  5
    90
  8
0
  6
CONTINUOUS
 62
     7
 10
3.34835815429688
 20
1.66634941101074
 30
0.0
 11
4.193603515625
 21
1.66634941101074
 31
0.0
  0
LINE
  5
    91
  8
0
  6
CONTINUOUS
 62
     7
 10
4.193603515625
 20
1.66634941101074
 30
0.0
 11
4.193603515625
 21
2.21374940872192
 31
0.0
  0
LINE
  5
    92
  8
0
  6
CONTINUOUS
 62
     7
 10
3.34835815429688
 20
2.21374940872193
 30
0.0
 11
4.193603515625
 21
2.21374940872193
 31
0.0
  0
ARC
  5
    93
  8
0
  6
CONTINUOUS
 62
     7
 10
3.34832727670522
 20
1.52950251971625
 30
0.0
 40
0.684221325991138
 50
89.9975452090749
 51
270.002590974911
  0
LINE
  5
    94
  8
0
  6
CONTINUOUS
 62
     7
 10
3.21820068359375
 20
1.48721075057983
 30
0.0
 11
3.21820068359375
 21
1.57178831100464
 31
0.0
  0
LINE
  5
    95
  8
0
  6
CONTINUOUS
 62
     7
 10
3.34835815429688
 20
1.39264965057373
 30
0.0
 11
3.57778167724609
 21
1.39264965057373
 31
0.0
  0
ARC
  5
    96
  8
0
  6
CONTINUOUS
 62
     7
 10
3.5777878750792
 20
0.696328140844565
 30
0.0
 40
0.696318094728419
 50
269.999920898491
 51
449.999499220325
  0
LINE
  5
    97
  8
0
  6
CONTINUOUS
 62
     7
 10
3.66532494733375
 20
0.8168119122292
 30
0.0
 11
3.71942497472407
 21
0.742349507885553
 31
0.0
  0
LINE
  5
    98
  8
0
  6
CONTINUOUS
 62
     7
 10
2.74460601806641
 20
0.547399520874025
 30
0.0
 11
3.57778167724609
 21
0.547399520874025
 31
0.0
  0
LINE
  5
    99
  8
0
  6
CONTINUOUS
 62
     7
 10
2.74460601806641
 20
1.29559252739714E-15
 30
0.0
 11
3.57778167724609
 21
1.29559252739714E-15
 31
0.0
  0
LINE
  5
    9A
  8
0
  6
CONTINUOUS
 62
     7
 10
2.74460601806641
 20
0.0
 30
0.0
 11
2.74460601806641
 21
0.547399520874023
 31
0.0
  0
LINE
  5
    9B
  8
0
  6
CONTINUOUS
 62
     7
 10
3.57779388409186
 20
0.845254519188985
 30
0.0
 11
3.66532591257773
 21
0.816812141576352
 31
0.0
  0
LINE
  5
    9C
  8
0
  6
CONTINUOUS
 62
     7
 10
3.66532094877157
 20
0.5758451945497
 30
0.0
 11
3.71942097616187
 21
0.650307598893327
 31
0.0
  0
LINE
  5
    9D
  8
0
  6
CONTINUOUS
 62
     7
 10
3.26792535562477
 20
1.64021722966892
 30
0.0
 11
3.34836969039776
 21
1.66635315010049
 31
0.0
  0
LINE
  5
    9E
  8
0
  6
CONTINUOUS
 62
     7
 10
3.26792225033155
 20
1.41878793231365
 30
0.0
 11
3.34836658510456
 21
1.39265201188207
 31
0.0
  0
LINE
  5
    9F
  8
0
  6
CONTINUOUS
 62
     7
 10
3.66532094877157
 20
0.5758451945497
 30
0.0
 11
3.71942097616187
 21
0.650307598893327
 31
0.0
  0
ENDBLK
  5
    A0
  8
0
  6
CONTINUOUS
 62
     7
  0
BLOCK
  5
    A1
  8
0
  6
CONTINUOUS
 62
     7
  2
*HATCH803
 70
    65
 10
0.0
 20
0.0
 30
0.0
  3
*HATCH803
  0
LINE
  5
    A2
  8
0
  6
CONTINUOUS
 62
     7
 10
-3.7039635181427
 20
2.659996509552
 30
0.0
 11
-4.09285688400269
 21
2.27110314369202
 31
0.0
  0
LINE
  5
    A3
  8
0
  6
CONTINUOUS
 62
     7
 10
-3.6409957408905
 20
2.2987003326416
 30
0.0
 11
-4.3212947845459
 21
1.61840128898621
 31
0.0
  0
LINE
  5
    A4
  8
0
  6
CONTINUOUS
 62
     7
 10
-3.6409957408905
 20
1.87443625926971
 30
0.0
 11
-4.10218858718872
 21
1.41324353218079
 31
0.0
  0
LINE
  5
    A5
  8
0
  6
CONTINUOUS
 62
     7
 10
-3.6409957408905
 20
1.45017230510712
 30
0.0
 11
-3.67792463302612
 21
1.41324353218079
 31
0.0
  0
ENDBLK
  5
    A6
  8
0
  6
CONTINUOUS
 62
     7
  0
BLOCK
  5
    A7
  8
0
  6
CONTINUOUS
 62
     7
  2
*HATCH804
 70
    65
 10
0.0
 20
0.0
 30
0.0
  3
*HATCH804
  0
LINE
  5
    A8
  8
0
  6
CONTINUOUS
 62
     7
 10
-4.26868629455566
 20
1.24674582481384
 30
0.0
 11
-4.54975318908691
 21
0.965678870677948
 31
0.0
  0
LINE
  5
    A9
  8
0
  6
CONTINUOUS
 62
     7
 10
-3.84442234039307
 20
1.24674582481384
 30
0.0
 11
-4.77821111679077
 21
0.312956929206848
 31
0.0
  0
LINE
  5
    AA
  8
0
  6
CONTINUOUS
 62
     7
 10
-3.6409957408905
 20
1.02590835094452
 30
0.0
 11
-4.66690492630005
 21
-4.98909855650709E-7
 31
0.0
  0
LINE
  5
    AB
  8
0
  6
CONTINUOUS
 62
     7
 10
-3.6409957408905
 20
0.601644337177277
 30
0.0
 11
-3.71064043045044
 21
0.531999588012695
 31
0.0
  0
LINE
  5
    AC
  8
0
  6
CONTINUOUS
 62
     7
 10
-4.21202754974365
 20
3.06128244847059E-2
 30
0.0
 11
-4.24264144897461
 21
-1.45736464673973E-6
 31
0.0
  0
ENDBLK
  5
    AD
  8
0
  6
CONTINUOUS
 62
     7
  0
BLOCK
  5
    AE
  8
0
  6
CONTINUOUS
 62
     7
  2
*HATCH805
 70
    65
 10
0.0
 20
0.0
 30
0.0
  3
*HATCH805
  0
LINE
  5
    AF
  8
0
  6
CONTINUOUS
 62
     7
 10
-3.42015838623047
 20
1.24674582481384
 30
0.0
 11
-3.47449803352356
 21
1.19240605831146
 31
0.0
  0
LINE
  5
    B0
  8
0
  6
CONTINUOUS
 62
     7
 10
-2.99589443206787
 20
1.24674582481384
 30
0.0
 11
-3.47449803352356
 21
0.768142104148865
 31
0.0
  0
LINE
  5
    B1
  8
0
  6
CONTINUOUS
 62
     7
 10
-2.64012384414673
 20
1.17825222015381
 30
0.0
 11
-3.28637623786926
 21
0.532000005245209
 31
0.0
  0
LINE
  5
    B2
  8
0
  6
CONTINUOUS
 62
     7
 10
-2.53012871742249
 20
0.863983333110809
 30
0.0
 11
-3.02272534370422
 21
0.371386826038361
 31
0.0
  0
LINE
  5
    B3
  8
0
  6
CONTINUOUS
 62
     7
 10
-2.42013359069824
 20
0.54971444606781
 30
0.0
 11
-2.91273474693298
 21
0.057113379240036
 31
0.0
  0
LINE
  5
    B4
  8
0
  6
CONTINUOUS
 62
     7
 10
-2.310138463974
 20
0.235445529222488
 30
0.0
 11
-2.54558539390564
 21
-1.36076994294854E-6
 31
0.0
  0
ENDBLK
  5
    B5
  8
0
  6
CONTINUOUS
 62
     7
  0
BLOCK
  5
    B6
  8
0
  6
CONTINUOUS
 62
     7
  2
*HATCH806
 70
    65
 10
0.0
 20
0.0
 30
0.0
  3
*HATCH806
  0
LINE
  5
    B7
  8
0
  6
CONTINUOUS
 62
     7
 10
-3.27970123291016
 20
2.65999484062195
 30
0.0
 11
-3.47449803352356
 21
2.46519804000854
 31
0.0
  0
LINE
  5
    B8
  8
0
  6
CONTINUOUS
 62
     7
 10
-3.08010387420654
 20
2.43532824516296
 30
0.0
 11
-3.47449803352356
 21
2.04093408584595
 31
0.0
  0
LINE
  5
    B9
  8
0
  6
CONTINUOUS
 62
     7
 10
-2.97010922431946
 20
2.12105894088745
 30
0.0
 11
-3.47449803352356
 21
1.61667013168335
 31
0.0
  0
LINE
  5
    BA
  8
0
  6
CONTINUOUS
 62
     7
 10
-2.86011457443237
 20
1.80678939819336
 30
0.0
 11
-3.25366044044495
 21
1.41324353218079
 31
0.0
  0
LINE
  5
    BB
  8
0
  6
CONTINUOUS
 62
     7
 10
-2.75011992454529
 20
1.49252009391785
 30
0.0
 11
-2.82939648628235
 21
1.41324353218079
 31
0.0
  0
ENDBLK
  5
    BC
  8
0
  6
CONTINUOUS
 62
     7
  0
BLOCK
  5
    BD
  8
0
  6
CONTINUOUS
 62
     7
  2
*HATCH807
 70
    65
 10
0.0
 20
0.0
 30
0.0
  3
*HATCH807
  0
LINE
  5
    BE
  8
0
  6
CONTINUOUS
 62
     7
 10
-2.00690746307373
 20
2.659996509552
 30
0.0
 11
-2.06149291992188
 21
2.60541105270386
 31
0.0
  0
LINE
  5
    BF
  8
0
  6
CONTINUOUS
 62
     7
 10
-1.58264350891113
 20
2.659996509552
 30
0.0
 11
-2.06149291992188
 21
2.18114709854126
 31
0.0
  0
LINE
  5
    C0
  8
0
  6
CONTINUOUS
 62
     7
 10
-1.34674525260925
 20
2.47163057327271
 30
0.0
 11
-2.06149291992188
 21
1.75688314437866
 31
0.0
  0
LINE
  5
    C1
  8
0
  6
CONTINUOUS
 62
     7
 10
-1.34674525260925
 20
2.04736661911011
 30
0.0
 11
-1.98086845874786
 21
1.41324353218079
 31
0.0
  0
LINE
  5
    C2
  8
0
  6
CONTINUOUS
 62
     7
 10
-1.34674525260925
 20
1.62310266494751
 30
0.0
 11
-1.55660438537598
 21
1.41324353218079
 31
0.0
  0
ENDBLK
  5
    C3
  8
0
  6
CONTINUOUS
 62
     7
  0
BLOCK
  5
    C4
  8
0
  6
CONTINUOUS
 62
     7
  2
*HATCH808
 70
    65
 10
0.0
 20
0.0
 30
0.0
  3
*HATCH808
  0
LINE
  5
    C5
  8
0
  6
CONTINUOUS
 62
     7
 10
-1.72310221195221
 20
1.24674582481384
 30
0.0
 11
-2.06149291992188
 21
0.908355116844177
 31
0.0
  0
LINE
  5
    C6
  8
0
  6
CONTINUOUS
 62
     7
 10
-1.34674525260925
 20
1.19883871078491
 30
0.0
 11
-2.06149291992188
 21
0.484091132879257
 31
0.0
  0
LINE
  5
    C7
  8
0
  6
CONTINUOUS
 62
     7
 10
-1.34674525260925
 20
0.774574756622314
 30
0.0
 11
-2.06149291992188
 21
5.98271489143372E-2
 31
0.0
  0
LINE
  5
    C8
  8
0
  6
CONTINUOUS
 62
     7
 10
-1.34674525260925
 20
0.350310742855072
 30
0.0
 11
-1.69705605506897
 21
6.53578086579266E-16
 31
0.0
  0
ENDBLK
  5
    C9
  8
0
  6
CONTINUOUS
 62
     7
  0
BLOCK
  5
    CA
  8
0
  6
CONTINUOUS
 62
     7
  2
*HATCH809
 70
    65
 10
0.0
 20
0.0
 30
0.0
  3
*HATCH809
  0
LINE
  5
    CB
  8
0
  6
CONTINUOUS
 62
     7
 10
-1.15837943553925
 20
2.659996509552
 30
0.0
 11
-1.18024754524231
 21
2.63812851905823
 31
0.0
  0
LINE
  5
    CC
  8
0
  6
CONTINUOUS
 62
     7
 10
-0.823453903198242
 20
2.57065796852112
 30
0.0
 11
-1.18024754524231
 21
2.21386456489563
 31
0.0
  0
LINE
  5
    CD
  8
0
  6
CONTINUOUS
 62
     7
 10
-0.5418501496315
 20
2.42799782752991
 30
0.0
 11
-1.18024754524231
 21
1.78960049152374
 31
0.0
  0
LINE
  5
    CE
  8
0
  6
CONTINUOUS
 62
     7
 10
-0.449764907360077
 20
2.09581899642944
 30
0.0
 11
-1.13234043121338
 21
1.41324353218079
 31
0.0
  0
LINE
  5
    CF
  8
0
  6
CONTINUOUS
 62
     7
 10
-0.638074100017548
 20
1.48324584960938
 30
0.0
 11
-0.708076417446136
 21
1.41324353218079
 31
0.0
  0
ENDBLK
  5
    D0
  8
0
  6
CONTINUOUS
 62
     7
  0
BLOCK
  5
    D1
  8
0
  6
CONTINUOUS
 62
     7
  2
*HATCH810
 70
    65
 10
0.0
 20
0.0
 30
0.0
  3
*HATCH810
  0
LINE
  5
    D2
  8
0
  6
CONTINUOUS
 62
     7
 10
-0.874574244022369
 20
1.24674582481384
 30
0.0
 11
-1.18024754524231
 21
0.941072523593903
 31
0.0
  0
LINE
  5
    D3
  8
0
  6
CONTINUOUS
 62
     7
 10
-0.450310230255127
 20
1.24674582481384
 30
0.0
 11
-1.18024754524231
 21
0.51680850982666
 31
0.0
  0
LINE
  5
    D4
  8
0
  6
CONTINUOUS
 62
     7
 10
-0.281659334897995
 20
0.991132616996765
 30
0.0
 11
-1.18024754524231
 21
9.25445482134819E-2
 31
0.0
  0
LINE
  5
    D5
  8
0
  6
CONTINUOUS
 62
     7
 10
-0.263972669839859
 20
0.584555327892303
 30
0.0
 11
-0.764747977256775
 21
8.37800353765488E-2
 31
0.0
  0
ENDBLK
  5
    D6
  8
0
  6
CONTINUOUS
 62
     7
  0
BLOCK
  5
    D7
  8
0
  6
CONTINUOUS
 62
     7
  2
*HATCH811
 70
    65
 10
0.0
 20
0.0
 30
0.0
  3
*HATCH811
  0
LINE
  5
    D8
  8
0
  6
CONTINUOUS
 62
     7
 10
0.114412605762482
 20
2.659996509552
 30
0.0
 11
0.0
 21
2.54558396339417
 31
0.0
  0
LINE
  5
    D9
  8
0
  6
CONTINUOUS
 62
     7
 10
0.538676619529724
 20
2.659996509552
 30
0.0
 11
0.0
 21
2.12132000923157
 31
0.0
  0
LINE
  5
    DA
  8
0
  6
CONTINUOUS
 62
     7
 10
0.714747607707977
 20
2.41180348396301
 30
0.0
 11
0.0
 21
1.69705593585968
 31
0.0
  0
LINE
  5
    DB
  8
0
  6
CONTINUOUS
 62
     7
 10
0.714747607707977
 20
1.98753952980042
 30
0.0
 11
0.140451639890671
 21
1.41324353218079
 31
0.0
  0
LINE
  5
    DC
  8
0
  6
CONTINUOUS
 62
     7
 10
0.714747607707977
 20
1.56327557563782
 30
0.0
 11
0.564715623855591
 21
1.41324353218079
 31
0.0
  0
ENDBLK
  5
    DD
  8
0
  6
CONTINUOUS
 62
     7
  0
BLOCK
  5
    DE
  8
0
  6
CONTINUOUS
 62
     7
  2
*HATCH812
 70
    65
 10
0.0
 20
0.0
 30
0.0
  3
*HATCH812
  0
LINE
  5
    DF
  8
0
  6
CONTINUOUS
 62
     7
 10
0.962940633296967
 20
2.659996509552
 30
0.0
 11
0.88124543428421
 21
2.57830119132996
 31
0.0
  0
LINE
  5
    E0
  8
0
  6
CONTINUOUS
 62
     7
 10
1.2789386510849
 20
2.55173063278198
 30
0.0
 11
0.88124543428421
 21
2.15403723716736
 31
0.0
  0
LINE
  5
    E1
  8
0
  6
CONTINUOUS
 62
     7
 10
1.53262805938721
 20
2.3811559677124
 30
0.0
 11
0.88124543428421
 21
1.72977328300476
 31
0.0
  0
LINE
  5
    E2
  8
0
  6
CONTINUOUS
 62
     7
 10
1.62471330165863
 20
2.04897713661194
 30
0.0
 11
0.988979697227478
 21
1.41324353218079
 31
0.0
  0
LINE
  5
    E3
  8
0
  6
CONTINUOUS
 62
     7
 10
1.46331548690796
 20
1.46331536769867
 30
0.0
 11
1.41324365139008
 21
1.41324353218079
 31
0.0
  0
ENDBLK
  5
    E4
  8
0
  6
CONTINUOUS
 62
     7
  0
BLOCK
  5
    E5
  8
0
  6
CONTINUOUS
 62
     7
  2
*HATCH813
 70
    65
 10
0.0
 20
0.0
 30
0.0
  3
*HATCH813
  0
LINE
  5
    E6
  8
0
  6
CONTINUOUS
 62
     7
 10
0.39821782708168
 20
1.24674582481384
 30
0.0
 11
0.0
 21
0.84852796792984
 31
0.0
  0
LINE
  5
    E7
  8
0
  6
CONTINUOUS
 62
     7
 10
0.714747607707977
 20
1.13901150226593
 30
0.0
 11
0.0
 21
0.42426398396492
 31
0.0
  0
LINE
  5
    E8
  8
0
  6
CONTINUOUS
 62
     7
 10
0.714747607707977
 20
0.714747548103333
 30
0.0
 11
0.0
 21
0.0
 31
0.0
  0
LINE
  5
    E9
  8
0
  6
CONTINUOUS
 62
     7
 10
0.714747607707977
 20
0.290483593940735
 30
0.0
 11
0.424264013767242
 21
7.91553348000328E-16
 31
0.0
  0
ENDBLK
  5
    EA
  8
0
  6
CONTINUOUS
 62
     7
  0
BLOCK
  5
    EB
  8
0
  6
CONTINUOUS
 62
     7
  2
*HATCH814
 70
    65
 10
0.0
 20
0.0
 30
0.0
  3
*HATCH814
  0
LINE
  5
    EC
  8
0
  6
CONTINUOUS
 62
     7
 10
1.24674582481384
 20
1.24674582481384
 30
0.0
 11
0.88124543428421
 21
0.881245374679565
 31
0.0
  0
LINE
  5
    ED
  8
0
  6
CONTINUOUS
 62
     7
 10
1.67100977897644
 20
1.24674582481384
 30
0.0
 11
0.88124543428421
 21
0.456981390714645
 31
0.0
  0
LINE
  5
    EE
  8
0
  6
CONTINUOUS
 62
     7
 10
1.79262113571167
 20
0.944092988967896
 30
0.0
 11
0.88124543428421
 21
3.27173843979836E-2
 31
0.0
  0
LINE
  5
    EF
  8
0
  6
CONTINUOUS
 62
     7
 10
1.73607635498047
 20
0.463284254074097
 30
0.0
 11
1.39401113986969
 21
0.121219135820866
 31
0.0
  0
ENDBLK
  5
    F0
  8
0
  6
CONTINUOUS
 62
     7
  0
BLOCK
  5
    F1
  8
0
  6
CONTINUOUS
 62
     7
  2
$5ABB
 70
    64
 10
0.0
 20
0.0
 30
0.0
  3
$5ABB
  0
LINE
  5
    F2
  8
0
  6
CONTINUOUS
 62
     7
 10
-4.39309755866065
 20
1.41324357986451
 30
0.0
 11
-3.95674135031761
 21
2.65999238488041
 31
0.0
  0
LINE
  5
    F3
  8
0
  6
CONTINUOUS
 62
     7
 10
-4.88774871826172
 20
1.33351129624183E-15
 30
0.0
 11
-4.22274780273438
 21
1.33351129624183E-15
 31
0.0
  0
LINE
  5
    F4
  8
0
  6
CONTINUOUS
 62
     7
 10
-4.22274218828809
 20
-1.50231959361591E-6
 30
0.0
 11
-4.0365391926282
 21
0.531998110619613
 31
0.0
  0
LINE
  5
    F5
  8
0
  6
CONTINUOUS
 62
     7
 10
-4.03654479980469
 20
0.531999588012697
 30
0.0
 11
-3.64099578857422
 21
0.531999588012697
 31
0.0
  0
LINE
  5
    F6
  8
0
  6
CONTINUOUS
 62
     7
 10
-4.88774327593104
 20
-2.42794669125246E-6
 30
0.0
 11
-4.45137756989492
 21
1.24674577713013
 31
0.0
  0
LINE
  5
    F7
  8
0
  6
CONTINUOUS
 62
     7
 10
-2.66409674425225
 20
1.24674577713013
 30
0.0
 11
-2.22773097566292
 21
-2.60666856599645E-6
 31
0.0
  0
LINE
  5
    F8
  8
0
  6
CONTINUOUS
 62
     7
 10
-3.47449798583984
 20
0.531999588012697
 30
0.0
 11
-3.07894897460938
 21
0.531999588012697
 31
0.0
  0
LINE
  5
    F9
  8
0
  6
CONTINUOUS
 62
     7
 10
-3.07893739163377
 20
0.532000427880589
 30
0.0
 11
-2.89273439597387
 21
8.14941383042722E-7
 31
0.0
  0
LINE
  5
    FA
  8
0
  6
CONTINUOUS
 62
     7
 10
-2.89274597167969
 20
1.33351129624183E-15
 30
0.0
 11
-2.22774505615234
 21
1.33351129624183E-15
 31
0.0
  0
LINE
  5
    FB
  8
0
  6
CONTINUOUS
 62
     7
 10
-3.15873717506253
 20
2.65999387867798
 30
0.0
 11
-2.72237316510625
 21
1.4132435798645
 31
0.0
  0
LINE
  5
    FC
  8
0
  6
CONTINUOUS
 62
     7
 10
-2.06149291992188
 20
1.33351129624183E-15
 30
0.0
 11
-1.34674530029297
 21
1.33351129624183E-15
 31
0.0
  0
LINE
  5
    FD
  8
0
  6
CONTINUOUS
 62
     7
 10
-0.698249011125256
 20
1.51330638523267
 30
0.0
 11
-0.497944258065633
 21
1.4132435798645
 31
0.0
  0
LINE
  5
    FE
  8
0
  6
CONTINUOUS
 62
     7
 10
-1.18024749755859
 20
1.33351129624183E-15
 30
0.0
 11
-0.982933044433594
 21
1.33351129624183E-15
 31
0.0
  0
LINE
  5
    FF
  8
0
  6
CONTINUOUS
 62
     7
 10
-2.06149291992188
 20
0.0
 30
0.0
 11
-2.06149291992188
 21
1.24674577713013
 31
0.0
  0
LINE
  5
   100
  8
0
  6
CONTINUOUS
 62
     7
 10
-3.95674896240234
 20
2.659996509552
 30
0.0
 11
-3.64099578857422
 21
2.659996509552
 31
0.0
  0
LINE
  5
   101
  8
0
  6
CONTINUOUS
 62
     7
 10
-3.47449798583984
 20
2.659996509552
 30
0.0
 11
-3.15874481201172
 21
2.659996509552
 31
0.0
  0
LINE
  5
   102
  8
0
  6
CONTINUOUS
 62
     7
 10
-2.06149291992188
 20
2.659996509552
 30
0.0
 11
-1.34674530029297
 21
2.659996509552
 31
0.0
  0
LINE
  5
   103
  8
0
  6
CONTINUOUS
 62
     7
 10
-1.18024749755859
 20
2.659996509552
 30
0.0
 11
-1.01650238037109
 21
2.659996509552
 31
0.0
  0
LINE
  5
   104
  8
0
  6
CONTINUOUS
 62
     7
 10
-3.47449798583984
 20
1.4132435798645
 30
0.0
 11
-3.47449798583984
 21
2.659996509552
 31
0.0
  0
LINE
  5
   105
  8
0
  6
CONTINUOUS
 62
     7
 10
-3.47449798583984
 20
0.531999588012695
 30
0.0
 11
-3.47449798583984
 21
1.24674577713013
 31
0.0
  0
LINE
  5
   106
  8
0
  6
CONTINUOUS
 62
     7
 10
-3.64099578857422
 20
1.4132435798645
 30
0.0
 11
-3.64099578857422
 21
2.659996509552
 31
0.0
  0
LINE
  5
   107
  8
0
  6
CONTINUOUS
 62
     7
 10
-3.64099578857422
 20
0.531999588012695
 30
0.0
 11
-3.64099578857422
 21
1.24674577713013
 31
0.0
  0
LINE
  5
   108
  8
0
  6
CONTINUOUS
 62
     7
 10
-4.39309755866065
 20
1.4132435798645
 30
0.0
 11
-3.64099578857422
 21
1.4132435798645
 31
0.0
  0
LINE
  5
   109
  8
0
  6
CONTINUOUS
 62
     7
 10
-4.45137756989492
 20
1.24674577713013
 30
0.0
 11
-3.64099578857422
 21
1.24674577713013
 31
0.0
  0
LINE
  5
   10A
  8
0
  6
CONTINUOUS
 62
     7
 10
-3.47449798583984
 20
1.24674577713013
 30
0.0
 11
-2.66409674425225
 21
1.24674577713013
 31
0.0
  0
LINE
  5
   10B
  8
0
  6
CONTINUOUS
 62
     7
 10
-1.34674530029297
 20
1.4132435798645
 30
0.0
 11
-1.34674530029297
 21
2.659996509552
 31
0.0
  0
LINE
  5
   10C
  8
0
  6
CONTINUOUS
 62
     7
 10
-2.06149291992188
 20
1.4132435798645
 30
0.0
 11
-1.34674530029297
 21
1.4132435798645
 31
0.0
  0
LINE
  5
   10D
  8
0
  6
CONTINUOUS
 62
     7
 10
-1.18024749755859
 20
1.4132435798645
 30
0.0
 11
-1.18024749755859
 21
2.659996509552
 31
0.0
  0
LINE
  5
   10E
  8
0
  6
CONTINUOUS
 62
     7
 10
-1.18024749755859
 20
1.4132435798645
 30
0.0
 11
-0.497944258065633
 21
1.4132435798645
 31
0.0
  0
LINE
  5
   10F
  8
0
  6
CONTINUOUS
 62
     7
 10
-2.06149291992188
 20
1.24674577713013
 30
0.0
 11
-1.34674530029297
 21
1.24674577713013
 31
0.0
  0
LINE
  5
   110
  8
0
  6
CONTINUOUS
 62
     7
 10
-1.18024749755859
 20
1.24674577713013
 30
0.0
 11
-0.351146494976341
 21
1.24674577713013
 31
0.0
  0
LINE
  5
   111
  8
0
  6
CONTINUOUS
 62
     7
 10
-1.18024749755859
 20
0.0
 30
0.0
 11
-1.18024749755859
 21
1.24674577713013
 31
0.0
  0
LINE
  5
   112
  8
0
  6
CONTINUOUS
 62
     7
 10
-1.34674530029297
 20
0.0
 30
0.0
 11
-1.34674530029297
 21
1.24674577713013
 31
0.0
  0
ARC
  5
   113
  8
0
  6
CONTINUOUS
 62
     7
 10
-1.01636629288394
 20
2.0426469527994
 30
0.0
 40
0.617302755021266
 50
300.988438672012
 51
450.0
  0
ARC
  5
   114
  8
0
  6
CONTINUOUS
 62
     7
 10
-0.983116632612569
 20
0.783417365308862
 30
0.0
 40
0.783619468916367
 50
270.01347311298
 51
396.246977192996
  0
LINE
  5
   115
  8
0
  6
CONTINUOUS
 62
     7
 10
-2.06149291992188
 20
1.4132435798645
 30
0.0
 11
-2.06149291992188
 21
2.659996509552
 31
0.0
  0
LINE
  5
   116
  8
0
  6
CONTINUOUS
 62
     7
 10
-3.47449798583984
 20
1.4132435798645
 30
0.0
 11
-2.72237316510625
 21
1.4132435798645
 31
0.0
  0
LINE
  5
   117
  8
0
  6
CONTINUOUS
 62
     7
 10
0.0
 20
1.33351129624183E-15
 30
0.0
 11
0.714747619628906
 21
1.33351129624183E-15
 31
0.0
  0
LINE
  5
   118
  8
0
  6
CONTINUOUS
 62
     7
 10
1.36324390879662
 20
1.51330638523267
 30
0.0
 11
1.56354866185624
 21
1.4132435798645
 31
0.0
  0
LINE
  5
   119
  8
0
  6
CONTINUOUS
 62
     7
 10
0.881245422363281
 20
1.33351129624183E-15
 30
0.0
 11
1.07855987548828
 21
1.33351129624183E-15
 31
0.0
  0
LINE
  5
   11A
  8
0
  6
CONTINUOUS
 62
     7
 10
0.0
 20
0.0
 30
0.0
 11
0.0
 21
1.24674577713013
 31
0.0
  0
LINE
  5
   11B
  8
0
  6
CONTINUOUS
 62
     7
 10
0.0
 20
2.659996509552
 30
0.0
 11
0.714747619628906
 21
2.659996509552
 31
0.0
  0
LINE
  5
   11C
  8
0
  6
CONTINUOUS
 62
     7
 10
0.881245422363281
 20
2.659996509552
 30
0.0
 11
1.04499053955078
 21
2.659996509552
 31
0.0
  0
LINE
  5
   11D
  8
0
  6
CONTINUOUS
 62
     7
 10
0.714747619628906
 20
1.4132435798645
 30
0.0
 11
0.714747619628906
 21
2.659996509552
 31
0.0
  0
LINE
  5
   11E
  8
0
  6
CONTINUOUS
 62
     7
 10
0.0
 20
1.4132435798645
 30
0.0
 11
0.714747619628906
 21
1.4132435798645
 31
0.0
  0
LINE
  5
   11F
  8
0
  6
CONTINUOUS
 62
     7
 10
0.881245422363281
 20
1.4132435798645
 30
0.0
 11
0.881245422363281
 21
2.659996509552
 31
0.0
  0
LINE
  5
   120
  8
0
  6
CONTINUOUS
 62
     7
 10
0.881245422363281
 20
1.4132435798645
 30
0.0
 11
1.56354866185624
 21
1.4132435798645
 31
0.0
  0
LINE
  5
   121
  8
0
  6
CONTINUOUS
 62
     7
 10
0.0
 20
1.24674577713013
 30
0.0
 11
0.714747619628906
 21
1.24674577713013
 31
0.0
  0
LINE
  5
   122
  8
0
  6
CONTINUOUS
 62
     7
 10
0.881245422363281
 20
1.24674577713013
 30
0.0
 11
1.71034642494553
 21
1.24674577713013
 31
0.0
  0
LINE
  5
   123
  8
0
  6
CONTINUOUS
 62
     7
 10
0.881245422363281
 20
0.0
 30
0.0
 11
0.881245422363281
 21
1.24674577713013
 31
0.0
  0
LINE
  5
   124
  8
0
  6
CONTINUOUS
 62
     7
 10
0.714747619628906
 20
0.0
 30
0.0
 11
0.714747619628906
 21
1.24674577713013
 31
0.0
  0
ARC
  5
   125
  8
0
  6
CONTINUOUS
 62
     7
 10
1.04512662703793
 20
2.0426469527994
 30
0.0
 40
0.617302755021266
 50
300.988438672012
 51
450.0
  0
ARC
  5
   126
  8
0
  6
CONTINUOUS
 62
     7
 10
1.07837628730931
 20
0.783417365308862
 30
0.0
 40
0.783619468916367
 50
270.01347311298
 51
396.246977192996
  0
LINE
  5
   127
  8
0
  6
CONTINUOUS
 62
     7
 10
0.0
 20
1.4132435798645
 30
0.0
 11
0.0
 21
2.659996509552
 31
0.0
  0
INSERT
  5
   128
  8
0
  6
CONTINUOUS
 62
     7
  2
*HATCH803
 10
0.0
 20
0.0
 30
0.0
  0
INSERT
  5
   129
  8
0
  6
CONTINUOUS
 62
     7
  2
*HATCH804
 10
0.0
 20
0.0
 30
0.0
  0
INSERT
  5
   12A
  8
0
  6
CONTINUOUS
 62
     7
  2
*HATCH805
 10
0.0
 20
0.0
 30
0.0
  0
INSERT
  5
   12B
  8
0
  6
CONTINUOUS
 62
     7
  2
*HATCH806
 10
0.0
 20
0.0
 30
0.0
  0
INSERT
  5
   12C
  8
0
  6
CONTINUOUS
 62
     7
  2
*HATCH807
 10
0.0
 20
0.0
 30
0.0
  0
INSERT
  5
   12D
  8
0
  6
CONTINUOUS
 62
     7
  2
*HATCH808
 10
0.0
 20
0.0
 30
0.0
  0
INSERT
  5
   12E
  8
0
  6
CONTINUOUS
 62
     7
  2
*HATCH809
 10
0.0
 20
0.0
 30
0.0
  0
INSERT
  5
   12F
  8
0
  6
CONTINUOUS
 62
     7
  2
*HATCH810
 10
0.0
 20
0.0
 30
0.0
  0
INSERT
  5
   130
  8
0
  6
CONTINUOUS
 62
     7
  2
*HATCH811
 10
0.0
 20
0.0
 30
0.0
  0
INSERT
  5
   131
  8
0
  6
CONTINUOUS
 62
     7
  2
*HATCH812
 10
0.0
 20
0.0
 30
0.0
  0
INSERT
  5
   132
  8
0
  6
CONTINUOUS
 62
     7
  2
*HATCH813
 10
0.0
 20
0.0
 30
0.0
  0
INSERT
  5
   133
  8
0
  6
CONTINUOUS
 62
     7
  2
*HATCH814
 10
0.0
 20
0.0
 30
0.0
  0
ENDBLK
  5
   134
  8
0
  6
CONTINUOUS
 62
     7
  0
BLOCK
  5
   135
  8
0
  6
CONTINUOUS
 62
     7
  2
*HATCH815
 70
    65
 10
0.0
 20
0.0
 30
0.0
  3
*HATCH815
  0
LINE
  5
   136
  8
0
  6
CONTINUOUS
 62
     1
 10
46.7267319599997
 20
-58.2209538020997
 30
0.0
 11
47.3785180685283
 21
-58.2209538020997
 31
0.0
  0
LINE
  5
   137
  8
0
  6
CONTINUOUS
 62
     1
 10
46.5033902534937
 20
-57.9209538020997
 30
0.0
 11
47.806962470551
 21
-57.9209538020997
 31
0.0
  0
LINE
  5
   138
  8
0
  6
CONTINUOUS
 62
     1
 10
46.2800485469878
 20
-57.6209538020997
 30
0.0
 11
48.2354068725736
 21
-57.6209538020997
 31
0.0
  0
LINE
  5
   139
  8
0
  6
CONTINUOUS
 62
     1
 10
46.0469117750895
 20
-57.3209538020997
 30
0.0
 11
48.6638512745962
 21
-57.3209538020997
 31
0.0
  0
LINE
  5
   13A
  8
0
  6
CONTINUOUS
 62
     1
 10
45.7951819042368
 20
-57.0209538020997
 30
0.0
 11
49.0922956766189
 21
-57.0209538020997
 31
0.0
  0
LINE
  5
   13B
  8
0
  6
CONTINUOUS
 62
     1
 10
45.5434520333841
 20
-56.7209538020997
 30
0.0
 11
49.5207400786415
 21
-56.7209538020997
 31
0.0
  0
LINE
  5
   13C
  8
0
  6
CONTINUOUS
 62
     1
 10
45.2917221625315
 20
-56.4209538020997
 30
0.0
 11
46.6084225657113
 21
-56.4209538020997
 31
0.0
  0
LINE
  5
   13D
  8
0
  6
CONTINUOUS
 62
     1
 10
47.0442467771149
 20
-56.4209538020997
 30
0.0
 11
49.9491844806641
 21
-56.4209538020997
 31
0.0
  0
LINE
  5
   13E
  8
0
  6
CONTINUOUS
 62
     1
 10
45.0132424362606
 20
-56.1209538020998
 30
0.0
 11
46.3575568347176
 21
-56.1209538020998
 31
0.0
  0
LINE
  5
   13F
  8
0
  6
CONTINUOUS
 62
     1
 10
47.4017728548931
 20
-56.1209538020998
 30
0.0
 11
50.3776288826868
 21
-56.1209538020998
 31
0.0
  0
LINE
  5
   140
  8
0
  6
CONTINUOUS
 62
     1
 10
44.7302070572271
 20
-55.8209538020998
 30
0.0
 11
46.203575105811
 21
-55.8209538020998
 31
0.0
  0
LINE
  5
   141
  8
0
  6
CONTINUOUS
 62
     1
 10
47.7592989326714
 20
-55.8209538020998
 30
0.0
 11
50.8060732847094
 21
-55.8209538020998
 31
0.0
  0
LINE
  5
   142
  8
0
  6
CONTINUOUS
 62
     1
 10
44.4471716781936
 20
-55.5209538020998
 30
0.0
 11
46.5611011835892
 21
-55.5209538020998
 31
0.0
  0
LINE
  5
   143
  8
0
  6
CONTINUOUS
 62
     1
 10
48.1168250104496
 20
-55.5209538020998
 30
0.0
 11
51.234517686732
 21
-55.5209538020998
 31
0.0
  0
LINE
  5
   144
  8
0
  6
CONTINUOUS
 62
     1
 10
44.4790466902938
 20
-55.2209538020998
 30
0.0
 11
46.9186272613675
 21
-55.2209538020998
 31
0.0
  0
LINE
  5
   145
  8
0
  6
CONTINUOUS
 62
     1
 10
48.4743510882279
 20
-55.2209538020998
 30
0.0
 11
51.6629620887547
 21
-55.2209538020998
 31
0.0
  0
LINE
  5
   146
  8
0
  6
CONTINUOUS
 62
     1
 10
44.7790466902938
 20
-54.9209538020998
 30
0.0
 11
47.2761533391458
 21
-54.9209538020998
 31
0.0
  0
LINE
  5
   147
  8
0
  6
CONTINUOUS
 62
     1
 10
48.8318771660062
 20
-54.9209538020998
 30
0.0
 11
52.0914064907773
 21
-54.9209538020998
 31
0.0
  0
LINE
  5
   148
  8
0
  6
CONTINUOUS
 62
     1
 10
45.0790466902938
 20
-54.6209538020998
 30
0.0
 11
47.633679416924
 21
-54.6209538020998
 31
0.0
  0
LINE
  5
   149
  8
0
  6
CONTINUOUS
 62
     1
 10
49.1894032437844
 20
-54.6209538020998
 30
0.0
 11
52.5198508927999
 21
-54.6209538020998
 31
0.0
  0
LINE
  5
   14A
  8
0
  6
CONTINUOUS
 62
     1
 10
45.3790466902938
 20
-54.3209538020998
 30
0.0
 11
47.9912054947023
 21
-54.3209538020998
 31
0.0
  0
LINE
  5
   14B
  8
0
  6
CONTINUOUS
 62
     1
 10
49.5469293215627
 20
-54.3209538020998
 30
0.0
 11
52.5464366852231
 21
-54.3209538020998
 31
0.0
  0
LINE
  5
   14C
  8
0
  6
CONTINUOUS
 62
     1
 10
45.6790466902938
 20
-54.0209538020998
 30
0.0
 11
48.3487315724805
 21
-54.0209538020998
 31
0.0
  0
LINE
  5
   14D
  8
0
  6
CONTINUOUS
 62
     1
 10
49.904455399341
 20
-54.0209538020998
 30
0.0
 11
52.3230949743358
 21
-54.0209538020998
 31
0.0
  0
LINE
  5
   14E
  8
0
  6
CONTINUOUS
 62
     1
 10
45.9790466902938
 20
-53.7209538020998
 30
0.0
 11
48.7062576502588
 21
-53.7209538020998
 31
0.0
  0
LINE
  5
   14F
  8
0
  6
CONTINUOUS
 62
     1
 10
50.2619814771192
 20
-53.7209538020998
 30
0.0
 11
52.0997532634485
 21
-53.7209538020998
 31
0.0
  0
LINE
  5
   150
  8
0
  6
CONTINUOUS
 62
     1
 10
46.2790466902938
 20
-53.4209538020998
 30
0.0
 11
49.0637837280371
 21
-53.4209538020998
 31
0.0
  0
LINE
  5
   151
  8
0
  6
CONTINUOUS
 62
     1
 10
50.6143376198169
 20
-53.4209538020998
 30
0.0
 11
51.8764115525612
 21
-53.4209538020998
 31
0.0
  0
LINE
  5
   152
  8
0
  6
CONTINUOUS
 62
     1
 10
46.5790466902938
 20
-53.1209538020998
 30
0.0
 11
49.4213098058153
 21
-53.1209538020998
 31
0.0
  0
LINE
  5
   153
  8
0
  6
CONTINUOUS
 62
     1
 10
50.3654825613434
 20
-53.1209538020998
 30
0.0
 11
51.653069841674
 21
-53.1209538020998
 31
0.0
  0
LINE
  5
   154
  8
0
  6
CONTINUOUS
 62
     1
 10
46.8790466902938
 20
-52.8209538020998
 30
0.0
 11
49.7788358835936
 21
-52.8209538020998
 31
0.0
  0
LINE
  5
   155
  8
0
  6
CONTINUOUS
 62
     1
 10
50.1140317492523
 20
-52.8209538020998
 30
0.0
 11
51.4049486980198
 21
-52.8209538020998
 31
0.0
  0
LINE
  5
   156
  8
0
  6
CONTINUOUS
 62
     1
 10
47.1790466902938
 20
-52.5209538020998
 30
0.0
 11
51.1532188226115
 21
-52.5209538020998
 31
0.0
  0
LINE
  5
   157
  8
0
  6
CONTINUOUS
 62
     1
 10
47.4790466902938
 20
-52.2209538020998
 30
0.0
 11
50.9014889472033
 21
-52.2209538020998
 31
0.0
  0
LINE
  5
   158
  8
0
  6
CONTINUOUS
 62
     1
 10
47.7790466902938
 20
-51.9209538020998
 30
0.0
 11
50.6497590717951
 21
-51.9209538020998
 31
0.0
  0
LINE
  5
   159
  8
0
  6
CONTINUOUS
 62
     1
 10
48.0790466902938
 20
-51.6209538020998
 30
0.0
 11
50.3873047406854
 21
-51.6209538020998
 31
0.0
  0
LINE
  5
   15A
  8
0
  6
CONTINUOUS
 62
     1
 10
48.3790466902938
 20
-51.3209538020998
 30
0.0
 11
50.1042693568743
 21
-51.3209538020998
 31
0.0
  0
LINE
  5
   15B
  8
0
  6
CONTINUOUS
 62
     1
 10
48.6790466902938
 20
-51.0209538020998
 30
0.0
 11
49.8212339730632
 21
-51.0209538020998
 31
0.0
  0
LINE
  5
   15C
  8
0
  6
CONTINUOUS
 62
     1
 10
48.9790466902938
 20
-50.7209538020998
 30
0.0
 11
49.5381985892522
 21
-50.7209538020998
 31
0.0
  0
ENDBLK
  5
   15D
  8
0
  6
CONTINUOUS
 62
     7
  0
BLOCK
  5
   15E
  8
0
  6
CONTINUOUS
 62
     7
  2
*HATCH816
 70
    65
 10
0.0
 20
0.0
 30
0.0
  3
*HATCH816
  0
LINE
  5
   15F
  8
0
  6
CONTINUOUS
 62
     3
 10
50.2526893615723
 20
-80.2085113525391
 30
0.0
 11
49.3299293518066
 21
-81.1312713623047
 31
0.0
  0
LINE
  5
   160
  8
0
  6
CONTINUOUS
 62
     3
 10
51.0303192138672
 20
-80.4915390014648
 30
0.0
 11
48.3561973571777
 21
-83.1656646728516
 31
0.0
  0
LINE
  5
   161
  8
0
  6
CONTINUOUS
 62
     3
 10
51.8079452514649
 20
-80.7745742797852
 30
0.0
 11
46.4439582824707
 21
-86.1385650634766
 31
0.0
  0
LINE
  5
   162
  8
0
  6
CONTINUOUS
 62
     3
 10
52.5855712890625
 20
-81.0576095581055
 30
0.0
 11
43.2573776245117
 21
-90.3858032226563
 31
0.0
  0
LINE
  5
   163
  8
0
  6
CONTINUOUS
 62
     3
 10
53.3632011413574
 20
-81.3406448364258
 30
0.0
 11
49.8053436279297
 21
-84.8984985351563
 31
0.0
  0
LINE
  5
   164
  8
0
  6
CONTINUOUS
 62
     3
 10
47.4179992675781
 20
-87.2858428955078
 30
0.0
 11
43.7877044677734
 21
-90.916130065918
 31
0.0
  0
LINE
  5
   165
  8
0
  6
CONTINUOUS
 62
     3
 10
54.1408271789551
 20
-81.6236724853516
 30
0.0
 11
50.7253608703613
 21
-85.0391387939453
 31
0.0
  0
LINE
  5
   166
  8
0
  6
CONTINUOUS
 62
     3
 10
47.5623779296875
 20
-88.2021179199219
 30
0.0
 11
44.3180351257324
 21
-91.4464645385742
 31
0.0
  0
LINE
  5
   167
  8
0
  6
CONTINUOUS
 62
     3
 10
54.9184532165527
 20
-81.9067077636719
 30
0.0
 11
51.4130439758301
 21
-85.4121170043945
 31
0.0
  0
LINE
  5
   168
  8
0
  6
CONTINUOUS
 62
     3
 10
47.9387359619141
 20
-88.8864212036133
 30
0.0
 11
44.8483657836914
 21
-91.9767913818359
 31
0.0
  0
LINE
  5
   169
  8
0
  6
CONTINUOUS
 62
     3
 10
55.6960792541504
 20
-82.1897430419922
 30
0.0
 11
51.9342651367188
 21
-85.9515533447266
 31
0.0
  0
LINE
  5
   16A
  8
0
  6
CONTINUOUS
 62
     3
 10
48.4800148010254
 20
-89.4058074951172
 30
0.0
 11
45.3786964416504
 21
-92.5071258544922
 31
0.0
  0
LINE
  5
   16B
  8
0
  6
CONTINUOUS
 62
     3
 10
56.2534294128418
 20
-82.6930541992188
 30
0.0
 11
52.2820854187012
 21
-86.6643981933594
 31
0.0
  0
LINE
  5
   16C
  8
0
  6
CONTINUOUS
 62
     3
 10
49.1979293823242
 20
-89.7485504150391
 30
0.0
 11
45.9090270996094
 21
-93.0374526977539
 31
0.0
  0
LINE
  5
   16D
  8
0
  6
CONTINUOUS
 62
     3
 10
55.5162963867188
 20
-84.4908447265625
 30
0.0
 11
52.3593292236328
 21
-87.6478118896484
 31
0.0
  0
LINE
  5
   16E
  8
0
  6
CONTINUOUS
 62
     3
 10
50.1921310424805
 20
-89.8150100708008
 30
0.0
 11
46.4393577575684
 21
-93.5677871704102
 31
0.0
  0
LINE
  5
   16F
  8
0
  6
CONTINUOUS
 62
     3
 10
54.4650497436523
 20
-86.6027526855469
 30
0.0
 11
46.9696884155273
 21
-94.0981140136719
 31
0.0
  0
LINE
  5
   170
  8
0
  6
CONTINUOUS
 62
     3
 10
52.7300186157227
 20
-89.3984451293945
 30
0.0
 11
47.6284599304199
 21
-94.5
 31
0.0
  0
ENDBLK
  5
   171
  8
0
  6
CONTINUOUS
 62
     7
  0
BLOCK
  5
   172
  8
0
  6
CONTINUOUS
 62
     7
  2
*HATCH817
 70
    65
 10
0.0
 20
0.0
 30
0.0
  3
*HATCH817
  0
LINE
  5
   173
  8
0
  6
CONTINUOUS
 62
     3
 10
52.4727287292481
 20
-54.6539497375488
 30
0.0
 11
50.8530235290527
 21
-56.2736511230469
 31
0.0
  0
LINE
  5
   174
  8
0
  6
CONTINUOUS
 62
     3
 10
53.076789855957
 20
-55.1105499267578
 30
0.0
 11
51.2706298828125
 21
-56.9167060852051
 31
0.0
  0
LINE
  5
   175
  8
0
  6
CONTINUOUS
 62
     3
 10
53.4943962097168
 20
-55.753604888916
 30
0.0
 11
51.6882362365723
 21
-57.5597610473633
 31
0.0
  0
LINE
  5
   176
  8
0
  6
CONTINUOUS
 62
     3
 10
53.9055557250977
 20
-56.4031028747559
 30
0.0
 11
52.0676689147949
 21
-58.2409896850586
 31
0.0
  0
LINE
  5
   177
  8
0
  6
CONTINUOUS
 62
     3
 10
54.2838172912598
 20
-57.0855026245117
 30
0.0
 11
52.445930480957
 21
-58.9233894348145
 31
0.0
  0
LINE
  5
   178
  8
0
  6
CONTINUOUS
 62
     3
 10
54.6620750427246
 20
-57.7679023742676
 30
0.0
 11
52.8051338195801
 21
-59.6248435974121
 31
0.0
  0
LINE
  5
   179
  8
0
  6
CONTINUOUS
 62
     3
 10
55.0225105285645
 20
-58.4681282043457
 30
0.0
 11
53.1424369812012
 21
-60.3481979370117
 31
0.0
  0
LINE
  5
   17A
  8
0
  6
CONTINUOUS
 62
     3
 10
55.3598175048828
 20
-59.1914825439453
 30
0.0
 11
53.4790267944336
 21
-61.0722694396973
 31
0.0
  0
LINE
  5
   17B
  8
0
  6
CONTINUOUS
 62
     3
 10
55.6971244812012
 20
-59.9148368835449
 30
0.0
 11
53.7732391357422
 21
-61.8387184143066
 31
0.0
  0
LINE
  5
   17C
  8
0
  6
CONTINUOUS
 62
     3
 10
56.001335144043
 20
-60.6712837219238
 30
0.0
 11
54.0674514770508
 21
-62.605167388916
 31
0.0
  0
LINE
  5
   17D
  8
0
  6
CONTINUOUS
 62
     3
 10
56.2955474853516
 20
-61.4377326965332
 30
0.0
 11
54.3324890136719
 21
-63.4007873535156
 31
0.0
  0
LINE
  5
   17E
  8
0
  6
CONTINUOUS
 62
     3
 10
56.5817375183105
 20
-62.2122001647949
 30
0.0
 11
54.5808372497559
 21
-64.2130966186523
 31
0.0
  0
LINE
  5
   17F
  8
0
  6
CONTINUOUS
 62
     3
 10
56.8300895690918
 20
-63.0245094299316
 30
0.0
 11
55.2316932678223
 21
-64.6229019165039
 31
0.0
  0
LINE
  5
   180
  8
0
  6
CONTINUOUS
 62
     3
 10
57.0784378051758
 20
-63.8368225097656
 30
0.0
 11
56.6805839538574
 21
-64.2346725463867
 31
0.0
  0
ENDBLK
  5
   181
  8
0
  6
CONTINUOUS
 62
     7
  0
BLOCK
  5
   182
  8
0
  6
CONTINUOUS
 62
     7
  2
*HATCH818
 70
    65
 10
0.0
 20
0.0
 30
0.0
  3
*HATCH818
  0
LINE
  5
   183
  8
0
  6
CONTINUOUS
 62
    52
 10
50.1045761108398
 20
-64.9538879394531
 30
0.0
 11
50.9270248413086
 21
-65.7763366699219
 31
0.0
  0
LINE
  5
   184
  8
0
  6
CONTINUOUS
 62
    52
 10
48.6696014404297
 20
-61.3975944519043
 30
0.0
 11
52.6000556945801
 21
-65.3280487060547
 31
0.0
  0
LINE
  5
   185
  8
0
  6
CONTINUOUS
 62
    52
 10
47.5171890258789
 20
-58.1238555908203
 30
0.0
 11
54.2730865478516
 21
-64.8797607421875
 31
0.0
  0
LINE
  5
   186
  8
0
  6
CONTINUOUS
 62
    52
 10
48.7648696899414
 20
-57.2502174377441
 30
0.0
 11
54.0348281860352
 21
-62.5201835632324
 31
0.0
  0
LINE
  5
   187
  8
0
  6
CONTINUOUS
 62
    52
 10
50.0125541687012
 20
-56.3765830993652
 30
0.0
 11
52.3048553466797
 21
-58.6688842773438
 31
0.0
  0
ENDBLK
  5
   188
  8
0
  6
CONTINUOUS
 62
     7
  0
BLOCK
  5
   189
  8
0
  6
CONTINUOUS
 62
     7
  2
*HATCH819
 70
    65
 10
0.0
 20
0.0
 30
0.0
  3
*HATCH819
  0
LINE
  5
   18A
  8
0
  6
CONTINUOUS
 62
     7
 10
46.5397654227205
 20
-56.338005615914
 30
0.0
 11
47.1431005760009
 21
-56.338005615914
 31
0.0
  0
LINE
  5
   18B
  8
0
  6
CONTINUOUS
 62
     7
 10
46.2860094421819
 20
-56.038005615914
 30
0.0
 11
47.5006266537791
 21
-56.038005615914
 31
0.0
  0
LINE
  5
   18C
  8
0
  6
CONTINUOUS
 62
     7
 10
46.302428904697
 20
-55.738005615914
 30
0.0
 11
47.8581527315574
 21
-55.738005615914
 31
0.0
  0
LINE
  5
   18D
  8
0
  6
CONTINUOUS
 62
     7
 10
46.6599549824752
 20
-55.438005615914
 30
0.0
 11
48.2156788093356
 21
-55.438005615914
 31
0.0
  0
LINE
  5
   18E
  8
0
  6
CONTINUOUS
 62
     7
 10
47.0174810602535
 20
-55.1380056159141
 30
0.0
 11
48.5732048871139
 21
-55.1380056159141
 31
0.0
  0
LINE
  5
   18F
  8
0
  6
CONTINUOUS
 62
     7
 10
47.3750071380318
 20
-54.838005615914
 30
0.0
 11
48.9307309648922
 21
-54.838005615914
 31
0.0
  0
LINE
  5
   190
  8
0
  6
CONTINUOUS
 62
     7
 10
47.73253321581
 20
-54.5380056159141
 30
0.0
 11
49.2882570426704
 21
-54.5380056159141
 31
0.0
  0
LINE
  5
   191
  8
0
  6
CONTINUOUS
 62
     7
 10
48.0900592935883
 20
-54.2380056159141
 30
0.0
 11
49.6457831204487
 21
-54.2380056159141
 31
0.0
  0
LINE
  5
   192
  8
0
  6
CONTINUOUS
 62
     7
 10
48.4475853713665
 20
-53.9380056159141
 30
0.0
 11
50.0033091982269
 21
-53.9380056159141
 31
0.0
  0
LINE
  5
   193
  8
0
  6
CONTINUOUS
 62
     7
 10
48.8051114491448
 20
-53.6380056159141
 30
0.0
 11
50.3608352760052
 21
-53.6380056159141
 31
0.0
  0
LINE
  5
   194
  8
0
  6
CONTINUOUS
 62
     7
 10
49.1626375269231
 20
-53.3380056159141
 30
0.0
 11
50.5463424354912
 21
-53.3380056159141
 31
0.0
  0
LINE
  5
   195
  8
0
  6
CONTINUOUS
 62
     7
 10
49.5201636047013
 20
-53.0380056159141
 30
0.0
 11
50.2966627823104
 21
-53.0380056159141
 31
0.0
  0
LINE
  5
   196
  8
0
  6
CONTINUOUS
 62
     7
 10
49.8776896824796
 20
-52.7380056159141
 30
0.0
 11
50.0420307050529
 21
-52.7380056159141
 31
0.0
  0
ENDBLK
  5
   197
  8
0
  6
CONTINUOUS
 62
     7
  0
BLOCK
  5
   198
  8
0
  6
CONTINUOUS
 62
     7
  2
*HATCH820
 70
    65
 10
0.0
 20
0.0
 30
0.0
  3
*HATCH820
  0
LINE
  5
   199
  8
0
  6
CONTINUOUS
 62
     7
 10
48.7836484653958
 20
-89.5605153730517
 30
0.0
 11
51.0260147629892
 21
-89.5605153730517
 31
0.0
  0
LINE
  5
   19A
  8
0
  6
CONTINUOUS
 62
     7
 10
48.3128259985915
 20
-89.2605153730517
 30
0.0
 11
51.4968372297936
 21
-89.2605153730517
 31
0.0
  0
LINE
  5
   19B
  8
0
  6
CONTINUOUS
 62
     7
 10
48.0128259984935
 20
-88.9605153730517
 30
0.0
 11
51.7968372298915
 21
-88.9605153730517
 31
0.0
  0
LINE
  5
   19C
  8
0
  6
CONTINUOUS
 62
     7
 10
47.7959433513304
 20
-88.6605153730517
 30
0.0
 11
49.2023688087429
 21
-88.6605153730517
 31
0.0
  0
LINE
  5
   19D
  8
0
  6
CONTINUOUS
 62
     7
 10
50.6072944196421
 20
-88.6605153730517
 30
0.0
 11
52.0137198770547
 21
-88.6605153730517
 31
0.0
  0
LINE
  5
   19E
  8
0
  6
CONTINUOUS
 62
     7
 10
47.643085716646
 20
-88.3605153730517
 30
0.0
 11
48.8036396121725
 21
-88.3605153730517
 31
0.0
  0
LINE
  5
   19F
  8
0
  6
CONTINUOUS
 62
     7
 10
51.0060236162126
 20
-88.3605153730517
 30
0.0
 11
52.166577511739
 21
-88.3605153730517
 31
0.0
  0
LINE
  5
   1A0
  8
0
  6
CONTINUOUS
 62
     7
 10
47.5157007233052
 20
-88.0605153730517
 30
0.0
 11
48.6031860206093
 21
-88.0605153730517
 31
0.0
  0
LINE
  5
   1A1
  8
0
  6
CONTINUOUS
 62
     7
 10
51.2064772077758
 20
-88.0605153730517
 30
0.0
 11
52.29396250508
 21
-88.0605153730517
 31
0.0
  0
LINE
  5
   1A2
  8
0
  6
CONTINUOUS
 62
     7
 10
47.4681853908288
 20
-87.7605153730517
 30
0.0
 11
48.4843965614862
 21
-87.7605153730517
 31
0.0
  0
LINE
  5
   1A3
  8
0
  6
CONTINUOUS
 62
     7
 10
51.3252666668992
 20
-87.7605153730517
 30
0.0
 11
52.3414778375571
 21
-87.7605153730517
 31
0.0
  0
LINE
  5
   1A4
  8
0
  6
CONTINUOUS
 62
     7
 10
47.4206700583523
 20
-87.4605153730517
 30
0.0
 11
48.4247228510159
 21
-87.4605153730517
 31
0.0
  0
LINE
  5
   1A5
  8
0
  6
CONTINUOUS
 62
     7
 10
51.3849403773699
 20
-87.4605153730517
 30
0.0
 11
52.3889931700343
 21
-87.4605153730517
 31
0.0
  0
LINE
  5
   1A6
  8
0
  6
CONTINUOUS
 62
     7
 10
47.4400970105507
 20
-87.1605153730517
 30
0.0
 11
48.4504803092065
 21
-87.1605153730517
 31
0.0
  0
LINE
  5
   1A7
  8
0
  6
CONTINUOUS
 62
     7
 10
51.3591829191799
 20
-87.1605153730517
 30
0.0
 11
52.3695662178367
 21
-87.1605153730517
 31
0.0
  0
LINE
  5
   1A8
  8
0
  6
CONTINUOUS
 62
     7
 10
47.4929951050819
 20
-86.8605153730517
 30
0.0
 11
48.5189533517228
 21
-86.8605153730517
 31
0.0
  0
LINE
  5
   1A9
  8
0
  6
CONTINUOUS
 62
     7
 10
51.2907098766627
 20
-86.8605153730517
 30
0.0
 11
52.3166681233044
 21
-86.8605153730517
 31
0.0
  0
LINE
  5
   1AA
  8
0
  6
CONTINUOUS
 62
     7
 10
47.5458931996132
 20
-86.5605153730517
 30
0.0
 11
48.6723409201276
 21
-86.5605153730517
 31
0.0
  0
LINE
  5
   1AB
  8
0
  6
CONTINUOUS
 62
     7
 10
51.1373223082574
 20
-86.5605153730517
 30
0.0
 11
52.263770028772
 21
-86.5605153730517
 31
0.0
  0
LINE
  5
   1AC
  8
0
  6
CONTINUOUS
 62
     7
 10
47.6970218048356
 20
-86.2605153730517
 30
0.0
 11
48.9115829370333
 21
-86.2605153730517
 31
0.0
  0
LINE
  5
   1AD
  8
0
  6
CONTINUOUS
 62
     7
 10
50.8980802913517
 20
-86.2605153730517
 30
0.0
 11
52.1126414235494
 21
-86.2605153730517
 31
0.0
  0
LINE
  5
   1AE
  8
0
  6
CONTINUOUS
 62
     7
 10
47.8702268856084
 20
-85.9605153730517
 30
0.0
 11
49.4414921638529
 21
-85.9605153730517
 31
0.0
  0
LINE
  5
   1AF
  8
0
  6
CONTINUOUS
 62
     7
 10
50.3681710645321
 20
-85.9605153730517
 30
0.0
 11
51.9394363427767
 21
-85.9605153730517
 31
0.0
  0
LINE
  5
   1B0
  8
0
  6
CONTINUOUS
 62
     7
 10
48.100590507309
 20
-85.6605153730517
 30
0.0
 11
51.709072721076
 21
-85.6605153730517
 31
0.0
  0
LINE
  5
   1B1
  8
0
  6
CONTINUOUS
 62
     7
 10
48.458116584569
 20
-85.3605153730517
 30
0.0
 11
51.351546643816
 21
-85.3605153730517
 31
0.0
  0
LINE
  5
   1B2
  8
0
  6
CONTINUOUS
 62
     7
 10
49.0255665751996
 20
-85.0605153730517
 30
0.0
 11
50.7840966531854
 21
-85.0605153730517
 31
0.0
  0
ENDBLK
  5
   1B3
  8
0
  6
CONTINUOUS
 62
     7
  0
BLOCK
  5
   1B4
  8
0
  6
CONTINUOUS
 62
     7
  2
TC_M4_CROCE____F
 70
    64
 10
0.0
 20
0.0
 30
0.0
  3
TC_M4_CROCE____F
  0
CIRCLE
  5
   1B5
  8
0
  6
CONTINUOUS
 62
     3
 10
0.0
 20
0.0
 30
0.0
 40
4.0
  0
LINE
  5
   1B6
  8
0
  6
CONTINUOUS
 62
     3
 10
-2.3
 20
0.565
 30
0.0
 11
-0.565
 21
0.565
 31
0.0
  0
LINE
  5
   1B7
  8
0
  6
CONTINUOUS
 62
     3
 10
-2.3
 20
-0.565
 30
0.0
 11
-0.565
 21
-0.565
 31
0.0
  0
LINE
  5
   1B8
  8
0
  6
CONTINUOUS
 62
     3
 10
-0.565
 20
-2.3
 30
0.0
 11
-0.565
 21
-0.565
 31
0.0
  0
LINE
  5
   1B9
  8
0
  6
CONTINUOUS
 62
     3
 10
0.565
 20
-2.3
 30
0.0
 11
0.565
 21
-0.565
 31
0.0
  0
LINE
  5
   1BA
  8
0
  6
CONTINUOUS
 62
     3
 10
-0.565
 20
2.3
 30
0.0
 11
0.565
 21
2.3
 31
0.0
  0
LINE
  5
   1BB
  8
0
  6
CONTINUOUS
 62
     3
 10
-0.565
 20
-2.3
 30
0.0
 11
0.565
 21
-2.3
 31
0.0
  0
LINE
  5
   1BC
  8
0
  6
CONTINUOUS
 62
     3
 10
-2.3
 20
-0.565
 30
0.0
 11
-2.3
 21
0.565
 31
0.0
  0
LINE
  5
   1BD
  8
0
  6
CONTINUOUS
 62
     3
 10
2.3
 20
-0.565
 30
0.0
 11
2.3
 21
0.565
 31
0.0
  0
LINE
  5
   1BE
  8
0
  6
CONTINUOUS
 62
     3
 10
0.565
 20
0.565
 30
0.0
 11
2.3
 21
0.565
 31
0.0
  0
LINE
  5
   1BF
  8
0
  6
CONTINUOUS
 62
     3
 10
0.565
 20
-0.565
 30
0.0
 11
2.3
 21
-0.565
 31
0.0
  0
LINE
  5
   1C0
  8
0
  6
CONTINUOUS
 62
     3
 10
0.565
 20
0.565
 30
0.0
 11
0.565
 21
2.3
 31
0.0
  0
LINE
  5
   1C1
  8
0
  6
CONTINUOUS
 62
     3
 10
-0.565
 20
0.565
 30
0.0
 11
-0.565
 21
2.3
 31
0.0
  0
LINE
  5
   1C2
  8
0
  6
DASHDOT
 62
     7
 10
0.0
 20
-6.0
 30
0.0
 11
0.0
 21
6.0
 31
0.0
  0
LINE
  5
   1C3
  8
0
  6
DASHDOT
 62
     7
 10
-6.0
 20
0.0
 30
0.0
 11
6.0
 21
0.0
 31
0.0
  0
ENDBLK
  5
   1C4
  8
0
  6
CONTINUOUS
 62
     7
  0
BLOCK
  5
   1C5
  8
0
  6
CONTINUOUS
 62
     3
  2
*UDIM1228
 70
    65
 10
0.0
 20
0.0
 30
0.0
  3
*UDIM1228
  0
TEXT
  5
   1C6
  8
0
  6
CONTINUOUS
 62
     3
 10
32.5321130355199
 20
214.532714784334
 30
0.0
 40
3.5
  1
78
 41
0.933333333333333
 72
     1
 11
35.4487797021866
 21
216.282714784334
 31
0.0
 73
     2
  0
TEXT
  5
   1C7
  8
0
  6
CONTINUOUS
 62
     3
 10
11.2987797021866
 20
208.032714784334
 30
0.0
 40
3.5
  1
=             =
 41
0.933333333333333
 72
     1
 11
35.4487797021866
 21
209.782714784334
 31
0.0
 73
     2
  0
LINE
  5
   1C8
  8
0
  6
CONTINUOUS
 62
     3
 10
-2.4868643283844
 20
172.118091583252
 30
0.0
 11
-2.4868643283844
 21
215.532714784334
 31
0.0
  0
LINE
  5
   1C9
  8
0
  6
CONTINUOUS
 62
     3
 10
75.5131356716156
 20
172.118091583252
 30
0.0
 11
75.5131356716156
 21
215.532714784334
 31
0.0
  0
LINE
  5
   1CA
  8
0
  6
CONTINUOUS
 62
     3
 10
-2.4868643283844
 20
213.532714784334
 30
0.0
 11
75.5131356716156
 21
213.532714784334
 31
0.0
  0
LINE
  5
   1CB
  8
0
  6
CONTINUOUS
 62
     3
 10
0.410913144826135
 20
214.309171940753
 30
0.0
 11
-2.4868643283844
 21
213.532714784334
 31
0.0
  0
LINE
  5
   1CC
  8
0
  6
CONTINUOUS
 62
     3
 10
-2.4868643283844
 20
213.532714784334
 30
0.0
 11
0.410913144826135
 21
212.756257627916
 31
0.0
  0
LINE
  5
   1CD
  8
0
  6
CONTINUOUS
 62
     3
 10
72.6153581984051
 20
212.756257627916
 30
0.0
 11
75.5131356716156
 21
213.532714784334
 31
0.0
  0
LINE
  5
   1CE
  8
0
  6
CONTINUOUS
 62
     3
 10
75.5131356716156
 20
213.532714784334
 30
0.0
 11
72.6153581984051
 21
214.309171940753
 31
0.0
  0
ENDBLK
  5
   1CF
  8
0
  6
CONTINUOUS
 62
     3
  0
BLOCK
  5
   1D0
  8
0
  6
CONTINUOUS
 62
     7
  2
*UDIM1229
 70
    65
 10
0.0
 20
0.0
 30
0.0
  3
*UDIM1229
  0
TEXT
  5
   1D1
  8
0
  6
CONTINUOUS
 62
     7
 10
33.1337793966135
 20
46.7183088421089
 30
0.0
 40
3.5
  1
91
 41
0.933333333333333
 72
     1
 11
36.0504460632802
 21
48.4683088421089
 31
0.0
 73
     2
  0
TEXT
  5
   1D2
  8
0
  6
CONTINUOUS
 62
     7
 10
11.9004460632802
 20
40.2183088421089
 30
0.0
 40
3.5
  1
=             =
 41
0.933333333333333
 72
     1
 11
36.0504460632802
 21
41.9683088421089
 31
0.0
 73
     2
  0
LINE
  5
   1D3
  8
0
  6
CONTINUOUS
 62
     7
 10
-8.98686337471003
 20
67.6681604385376
 30
0.0
 11
-8.98686337471003
 21
43.7183088421089
 31
0.0
  0
LINE
  5
   1D4
  8
0
  6
CONTINUOUS
 62
     7
 10
82.01313662529
 20
67.6681604385376
 30
0.0
 11
82.01313662529
 21
43.7183088421089
 31
0.0
  0
LINE
  5
   1D5
  8
0
  6
CONTINUOUS
 62
     7
 10
-8.98686337471003
 20
45.7183088421089
 30
0.0
 11
82.01313662529
 21
45.7183088421089
 31
0.0
  0
LINE
  5
   1D6
  8
0
  6
CONTINUOUS
 62
     3
 10
-6.08908590149949
 20
46.4947659985274
 30
0.0
 11
-8.98686337471003
 21
45.7183088421089
 31
0.0
  0
LINE
  5
   1D7
  8
0
  6
CONTINUOUS
 62
     3
 10
-8.98686337471003
 20
45.7183088421089
 30
0.0
 11
-6.08908590149949
 21
44.9418516856904
 31
0.0
  0
LINE
  5
   1D8
  8
0
  6
CONTINUOUS
 62
     3
 10
79.1153591520794
 20
44.9418516856904
 30
0.0
 11
82.01313662529
 21
45.7183088421089
 31
0.0
  0
LINE
  5
   1D9
  8
0
  6
CONTINUOUS
 62
     3
 10
82.01313662529
 20
45.7183088421089
 30
0.0
 11
79.1153591520794
 21
46.4947659985274
 31
0.0
  0
ENDBLK
  5
   1DA
  8
0
  6
CONTINUOUS
 62
     7
  0
BLOCK
  5
   1DB
  8
0
  6
CONTINUOUS
 62
     7
  2
*UDIM1230
 70
    65
 10
0.0
 20
0.0
 30
0.0
  3
*UDIM1230
  0
TEXT
  5
   1DC
  8
0
  6
CONTINUOUS
 62
     7
 10
108.059743101424
 20
88.1250900824861
 30
0.0
 40
3.5
  1
50
 50
90.0
 41
0.933333333333333
 72
     1
 11
106.30974310142
 21
91.0417567491506
 31
0.0
 73
     2
  0
LINE
  5
   1DD
  8
0
  6
CONTINUOUS
 62
     7
 10
76.0131356716156
 20
65.4180908203125
 30
0.0
 11
111.05974310142
 21
65.4180908203125
 31
0.0
  0
LINE
  5
   1DE
  8
0
  6
CONTINUOUS
 62
     7
 10
88.5105925523529
 20
115.418090820307
 30
0.0
 11
111.05974310142
 21
115.418090820307
 31
0.0
  0
LINE
  5
   1DF
  8
0
  6
CONTINUOUS
 62
     7
 10
109.05974310142
 20
65.4180908203125
 30
0.0
 11
109.05974310142
 21
115.418090820307
 31
0.0
  0
LINE
  5
   1E0
  8
0
  6
CONTINUOUS
 62
     3
 10
108.283285945001
 20
68.315868293523
 30
0.0
 11
109.05974310142
 21
65.4180908203125
 31
0.0
  0
LINE
  5
   1E1
  8
0
  6
CONTINUOUS
 62
     3
 10
109.05974310142
 20
65.4180908203125
 30
0.0
 11
109.836200257839
 21
68.315868293523
 31
0.0
  0
LINE
  5
   1E2
  8
0
  6
CONTINUOUS
 62
     3
 10
109.836200257839
 20
112.520313347097
 30
0.0
 11
109.05974310142
 21
115.418090820307
 31
0.0
  0
LINE
  5
   1E3
  8
0
  6
CONTINUOUS
 62
     3
 10
109.05974310142
 20
115.418090820307
 30
0.0
 11
108.283285945001
 21
112.520313347097
 31
0.0
  0
ENDBLK
  5
   1E4
  8
0
  6
CONTINUOUS
 62
     7
  0
BLOCK
  5
   1E5
  8
0
  6
CONTINUOUS
 62
     7
  2
*UDIM1231
 70
    65
 10
0.0
 20
0.0
 30
0.0
  3
*UDIM1231
  0
TEXT
  5
   1E6
  8
0
  6
CONTINUOUS
 62
     7
 10
98.1512262373326
 20
125.384757486979
 30
0.0
 40
3.5
  1
=
 50
90.0
 41
0.933333333333334
 72
     1
 11
96.401226237331
 21
126.66809082031
 31
0.0
 73
     2
  0
LINE
  5
   1E7
  8
0
  6
CONTINUOUS
 62
     7
 10
88.5105925523529
 20
115.418090820307
 30
0.0
 11
101.151226237331
 21
115.418090820307
 31
0.0
  0
LINE
  5
   1E8
  8
0
  6
CONTINUOUS
 62
     7
 10
76.5131356716156
 20
137.918090820313
 30
0.0
 11
101.151226237331
 21
137.918090820313
 31
0.0
  0
LINE
  5
   1E9
  8
0
  6
CONTINUOUS
 62
     7
 10
99.151226237331
 20
115.418090820307
 30
0.0
 11
99.151226237331
 21
137.918090820313
 31
0.0
  0
LINE
  5
   1EA
  8
0
  6
CONTINUOUS
 62
     3
 10
98.3747690809125
 20
118.315868293518
 30
0.0
 11
99.151226237331
 21
115.418090820307
 31
0.0
  0
LINE
  5
   1EB
  8
0
  6
CONTINUOUS
 62
     3
 10
99.151226237331
 20
115.418090820307
 30
0.0
 11
99.9276833937496
 21
118.315868293518
 31
0.0
  0
LINE
  5
   1EC
  8
0
  6
CONTINUOUS
 62
     3
 10
99.9276833937496
 20
135.020313347102
 30
0.0
 11
99.151226237331
 21
137.918090820313
 31
0.0
  0
LINE
  5
   1ED
  8
0
  6
CONTINUOUS
 62
     3
 10
99.151226237331
 20
137.918090820313
 30
0.0
 11
98.3747690809125
 21
135.020313347102
 31
0.0
  0
ENDBLK
  5
   1EE
  8
0
  6
CONTINUOUS
 62
     7
  0
BLOCK
  5
   1EF
  8
0
  6
CONTINUOUS
 62
     7
  2
*UDIM1232
 70
    65
 10
0.0
 20
0.0
 30
0.0
  3
*UDIM1232
  0
TEXT
  5
   1F0
  8
0
  6
CONTINUOUS
 62
     7
 10
98.1512262373326
 20
102.884757486979
 30
0.0
 40
3.5
  1
=
 50
90.0
 41
0.933333333333334
 72
     1
 11
96.401226237331
 21
104.16809082031
 31
0.0
 73
     2
  0
LINE
  5
   1F1
  8
0
  6
CONTINUOUS
 62
     7
 10
76.5131356716156
 20
92.9180908203125
 30
0.0
 11
101.151226237331
 21
92.9180908203125
 31
0.0
  0
LINE
  5
   1F2
  8
0
  6
CONTINUOUS
 62
     7
 10
99.151226237331
 20
92.9180908203125
 30
0.0
 11
99.151226237331
 21
115.418090820307
 31
0.0
  0
LINE
  5
   1F3
  8
0
  6
CONTINUOUS
 62
     3
 10
98.3747690809125
 20
95.815868293523
 30
0.0
 11
99.151226237331
 21
92.9180908203125
 31
0.0
  0
LINE
  5
   1F4
  8
0
  6
CONTINUOUS
 62
     3
 10
99.151226237331
 20
92.9180908203125
 30
0.0
 11
99.9276833937496
 21
95.815868293523
 31
0.0
  0
LINE
  5
   1F5
  8
0
  6
CONTINUOUS
 62
     3
 10
99.9276833937496
 20
112.520313347097
 30
0.0
 11
99.151226237331
 21
115.418090820307
 31
0.0
  0
LINE
  5
   1F6
  8
0
  6
CONTINUOUS
 62
     3
 10
99.151226237331
 20
115.418090820307
 30
0.0
 11
98.3747690809125
 21
112.520313347097
 31
0.0
  0
ENDBLK
  5
   1F7
  8
0
  6
CONTINUOUS
 62
     7
  0
BLOCK
  5
   1F8
  8
0
  6
CONTINUOUS
 62
     7
  2
*UDIM1233
 70
    65
 10
0.0
 20
0.0
 30
0.0
  3
*UDIM1233
  0
TEXT
  5
   1F9
  8
0
  6
CONTINUOUS
 62
     7
 10
131.712575545698
 20
122.868090820315
 30
0.0
 40
3.5
  1
124
 50
90.0
 41
0.933333333333333
 72
     1
 11
129.962575545692
 21
127.418090820313
 31
0.0
 73
     2
  0
LINE
  5
   1FA
  8
0
  6
CONTINUOUS
 62
     7
 10
76.0131356716156
 20
65.4180908203125
 30
0.0
 11
134.712575545692
 21
65.4180908203125
 31
0.0
  0
LINE
  5
   1FB
  8
0
  6
CONTINUOUS
 62
     7
 10
76.0131356716156
 20
189.418090820313
 30
0.0
 11
134.712575545692
 21
189.418090820313
 31
0.0
  0
LINE
  5
   1FC
  8
0
  6
CONTINUOUS
 62
     7
 10
132.712575545692
 20
65.4180908203125
 30
0.0
 11
132.712575545692
 21
189.418090820313
 31
0.0
  0
LINE
  5
   1FD
  8
0
  6
CONTINUOUS
 62
     3
 10
131.936118389273
 20
68.315868293523
 30
0.0
 11
132.712575545692
 21
65.4180908203125
 31
0.0
  0
LINE
  5
   1FE
  8
0
  6
CONTINUOUS
 62
     3
 10
132.712575545692
 20
65.4180908203125
 30
0.0
 11
133.48903270211
 21
68.315868293523
 31
0.0
  0
LINE
  5
   1FF
  8
0
  6
CONTINUOUS
 62
     3
 10
133.48903270211
 20
186.520313347102
 30
0.0
 11
132.712575545692
 21
189.418090820313
 31
0.0
  0
LINE
  5
   200
  8
0
  6
CONTINUOUS
 62
     3
 10
132.712575545692
 20
189.418090820313
 30
0.0
 11
131.936118389273
 21
186.520313347102
 31
0.0
  0
ENDBLK
  5
   201
  8
0
  6
CONTINUOUS
 62
     7
  0
BLOCK
  5
   202
  8
0
  6
CONTINUOUS
 62
     7
  2
*UDIM1234
 70
    65
 10
0.0
 20
0.0
 30
0.0
  3
*UDIM1234
  0
TEXT
  5
   203
  8
0
  6
CONTINUOUS
 62
     7
 10
118.973053863295
 20
112.501493771873
 30
0.0
 40
3.5
  1
96
 50
90.0
 41
0.933333333333333
 72
     1
 11
117.223053863292
 21
115.418160438538
 31
0.0
 73
     2
  0
TEXT
  5
   204
  8
0
  6
CONTINUOUS
 62
     7
 10
127.473053863328
 20
86.3681604385398
 30
0.0
 40
3.5
  1
=                =
 50
90.0
 41
0.933333333333333
 72
     1
 11
125.723053863292
 21
115.418160438538
 31
0.0
 73
     2
  0
LINE
  5
   205
  8
0
  6
CONTINUOUS
 62
     7
 10
81.76313662529
 20
67.4181604385376
 30
0.0
 11
121.973053863292
 21
67.4181604385376
 31
0.0
  0
LINE
  5
   206
  8
0
  6
CONTINUOUS
 62
     7
 10
81.76313662529
 20
163.418160438538
 30
0.0
 11
121.973053863292
 21
163.418160438538
 31
0.0
  0
LINE
  5
   207
  8
0
  6
CONTINUOUS
 62
     7
 10
119.973053863292
 20
67.4181604385376
 30
0.0
 11
119.973053863292
 21
163.418160438538
 31
0.0
  0
LINE
  5
   208
  8
0
  6
CONTINUOUS
 62
     3
 10
119.196596706873
 20
70.3159379117481
 30
0.0
 11
119.973053863292
 21
67.4181604385376
 31
0.0
  0
LINE
  5
   209
  8
0
  6
CONTINUOUS
 62
     3
 10
119.973053863292
 20
67.4181604385376
 30
0.0
 11
120.74951101971
 21
70.3159379117481
 31
0.0
  0
LINE
  5
   20A
  8
0
  6
CONTINUOUS
 62
     3
 10
120.74951101971
 20
160.520382965327
 30
0.0
 11
119.973053863292
 21
163.418160438538
 31
0.0
  0
LINE
  5
   20B
  8
0
  6
CONTINUOUS
 62
     3
 10
119.973053863292
 20
163.418160438538
 30
0.0
 11
119.196596706873
 21
160.520382965327
 31
0.0
  0
ENDBLK
  5
   20C
  8
0
  6
CONTINUOUS
 62
     7
  0
BLOCK
  5
   20D
  8
0
  6
CONTINUOUS
 62
     7
  2
*UDIM1235
 70
    65
 10
0.0
 20
0.0
 30
0.0
  3
*UDIM1235
  0
TEXT
  5
   20E
  8
0
  6
CONTINUOUS
 62
     7
 10
32.9585516887254
 20
222.590184776846
 30
0.0
 40
3.5
  1
90
 41
0.933333333333333
 72
     1
 11
35.875218355392
 21
224.340184776846
 31
0.0
 73
     2
  0
TEXT
  5
   20F
  8
0
  6
CONTINUOUS
 62
     7
 10
6.82521835539202
 20
216.090184776846
 30
0.0
 40
3.5
  1
=                =
 41
0.933333333333333
 72
     1
 11
35.875218355392
 21
217.840184776846
 31
0.0
 73
     2
  0
LINE
  5
   210
  8
0
  6
CONTINUOUS
 62
     7
 10
-8.48681232948894
 20
183.417973518372
 30
0.0
 11
-8.48681232948894
 21
223.590184776846
 31
0.0
  0
LINE
  5
   211
  8
0
  6
CONTINUOUS
 62
     7
 10
81.5131571527989
 20
183.418060302734
 30
0.0
 11
81.5131571527989
 21
223.590184776846
 31
0.0
  0
LINE
  5
   212
  8
0
  6
CONTINUOUS
 62
     7
 10
-8.48681232948894
 20
221.590184776846
 30
0.0
 11
81.5131571527989
 21
221.590184776846
 31
0.0
  0
LINE
  5
   213
  8
0
  6
CONTINUOUS
 62
     3
 10
-5.58903485627841
 20
222.366641933264
 30
0.0
 11
-8.48681232948894
 21
221.590184776846
 31
0.0
  0
LINE
  5
   214
  8
0
  6
CONTINUOUS
 62
     3
 10
-8.48681232948894
 20
221.590184776846
 30
0.0
 11
-5.58903485627841
 21
220.813727620427
 31
0.0
  0
LINE
  5
   215
  8
0
  6
CONTINUOUS
 62
     3
 10
78.6153796795884
 20
220.813727620427
 30
0.0
 11
81.5131571527989
 21
221.590184776846
 31
0.0
  0
LINE
  5
   216
  8
0
  6
CONTINUOUS
 62
     3
 10
81.5131571527989
 20
221.590184776846
 30
0.0
 11
78.6153796795884
 21
222.366641933264
 31
0.0
  0
ENDBLK
  5
   217
  8
0
  6
CONTINUOUS
 62
     7
  0
BLOCK
  5
   218
  8
0
  6
CONTINUOUS
 62
     7
  2
*UDIM1236
 70
    65
 10
0.0
 20
0.0
 30
0.0
  3
*UDIM1236
  0
TEXT
  5
   219
  8
0
  6
CONTINUOUS
 62
     7
 10
13.3677974818542
 20
230.103231121214
 30
0.0
 40
3.5
  1
120
 41
0.933333333333333
 72
     1
 11
17.9177974818542
 21
231.853231121214
 31
0.0
 73
     2
  0
LINE
  5
   21A
  8
0
  6
CONTINUOUS
 62
     7
 10
-38.4868521213416
 20
183.418094161004
 30
0.0
 11
-38.4868521213416
 21
231.103231121214
 31
0.0
  0
LINE
  5
   21B
  8
0
  6
CONTINUOUS
 62
     7
 10
81.5131571527989
 20
183.418060302734
 30
0.0
 11
81.5131571527989
 21
231.103231121214
 31
0.0
  0
LINE
  5
   21C
  8
0
  6
CONTINUOUS
 62
     7
 10
-38.4868521213416
 20
229.103231121214
 30
0.0
 11
81.5131571527989
 21
229.103231121214
 31
0.0
  0
LINE
  5
   21D
  8
0
  6
CONTINUOUS
 62
     3
 10
-35.589074648131
 20
229.879688277633
 30
0.0
 11
-38.4868521213416
 21
229.103231121214
 31
0.0
  0
LINE
  5
   21E
  8
0
  6
CONTINUOUS
 62
     3
 10
-38.4868521213416
 20
229.103231121214
 30
0.0
 11
-35.589074648131
 21
228.326773964796
 31
0.0
  0
LINE
  5
   21F
  8
0
  6
CONTINUOUS
 62
     3
 10
78.6153796795884
 20
228.326773964796
 30
0.0
 11
81.5131571527989
 21
229.103231121214
 31
0.0
  0
LINE
  5
   220
  8
0
  6
CONTINUOUS
 62
     3
 10
81.5131571527989
 20
229.103231121214
 30
0.0
 11
78.6153796795884
 21
229.879688277633
 31
0.0
  0
ENDBLK
  5
   221
  8
0
  6
CONTINUOUS
 62
     7
  0
BLOCK
  5
   222
  8
0
  6
CONTINUOUS
 62
     7
  2
TC_M3_CROCE____F
 70
    64
 10
0.0
 20
0.0
 30
0.0
  3
TC_M3_CROCE____F
  0
CIRCLE
  5
   223
  8
0
  6
CONTINUOUS
 62
     3
 10
0.0
 20
0.0
 30
0.0
 40
3.0
  0
LINE
  5
   224
  8
0
  6
CONTINUOUS
 62
     3
 10
-0.37
 20
1.55
 30
0.0
 11
0.37
 21
1.55
 31
0.0
  0
LINE
  5
   225
  8
0
  6
CONTINUOUS
 62
     3
 10
-0.37
 20
-1.55
 30
0.0
 11
0.37
 21
-1.55
 31
0.0
  0
LINE
  5
   226
  8
0
  6
CONTINUOUS
 62
     3
 10
-1.55
 20
-0.37
 30
0.0
 11
-1.55
 21
0.37
 31
0.0
  0
LINE
  5
   227
  8
0
  6
CONTINUOUS
 62
     3
 10
1.55
 20
-0.37
 30
0.0
 11
1.55
 21
0.37
 31
0.0
  0
LINE
  5
   228
  8
0
  6
CONTINUOUS
 62
     3
 10
-1.55
 20
0.37
 30
0.0
 11
-0.37
 21
0.37
 31
0.0
  0
LINE
  5
   229
  8
0
  6
CONTINUOUS
 62
     3
 10
-1.55
 20
-0.37
 30
0.0
 11
-0.37
 21
-0.37
 31
0.0
  0
LINE
  5
   22A
  8
0
  6
CONTINUOUS
 62
     3
 10
-0.37
 20
-1.55
 30
0.0
 11
-0.37
 21
-0.37
 31
0.0
  0
LINE
  5
   22B
  8
0
  6
CONTINUOUS
 62
     3
 10
0.37
 20
-1.55
 30
0.0
 11
0.37
 21
-0.37
 31
0.0
  0
LINE
  5
   22C
  8
0
  6
CONTINUOUS
 62
     3
 10
-0.37
 20
0.37
 30
0.0
 11
-0.37
 21
1.55
 31
0.0
  0
LINE
  5
   22D
  8
0
  6
CONTINUOUS
 62
     3
 10
0.37
 20
0.37
 30
0.0
 11
0.37
 21
1.55
 31
0.0
  0
LINE
  5
   22E
  8
0
  6
CONTINUOUS
 62
     3
 10
0.37
 20
0.37
 30
0.0
 11
1.55
 21
0.37
 31
0.0
  0
LINE
  5
   22F
  8
0
  6
CONTINUOUS
 62
     3
 10
0.37
 20
-0.37
 30
0.0
 11
1.55
 21
-0.37
 31
0.0
  0
LINE
  5
   230
  8
0
  6
DASHDOT
 62
     7
 10
0.0
 20
-5.0
 30
0.0
 11
0.0
 21
5.0
 31
0.0
  0
LINE
  5
   231
  8
0
  6
DASHDOT
 62
     7
 10
-5.0
 20
0.0
 30
0.0
 11
5.0
 21
0.0
 31
0.0
  0
ENDBLK
  5
   232
  8
0
  6
CONTINUOUS
 62
     7
  0
BLOCK
  5
   233
  8
0
  6
CONTINUOUS
 62
     7
  2
*HATCH821
 70
    65
 10
0.0
 20
0.0
 30
0.0
  3
*HATCH821
  0
LINE
  5
   234
  8
0
  6
CONTINUOUS
 62
     7
 10
39.1731452941895
 20
-80.045036315918
 30
0.0
 11
35.7450370788574
 21
-83.47314453125
 31
0.0
  0
LINE
  5
   235
  8
0
  6
CONTINUOUS
 62
     7
 10
39.2628021240234
 20
-80.3796463012695
 30
0.0
 11
36.0796432495117
 21
-83.5628051757813
 31
0.0
  0
LINE
  5
   236
  8
0
  6
CONTINUOUS
 62
     7
 10
39.3524589538574
 20
-80.7142562866211
 30
0.0
 11
36.414249420166
 21
-83.6524658203125
 31
0.0
  0
LINE
  5
   237
  8
0
  6
CONTINUOUS
 62
     7
 10
39.4421157836914
 20
-81.0488662719727
 30
0.0
 11
36.7488555908203
 21
-83.7421264648438
 31
0.0
  0
LINE
  5
   238
  8
0
  6
CONTINUOUS
 62
     7
 10
39.5317726135254
 20
-81.3834762573242
 30
0.0
 11
37.0834617614746
 21
-83.831787109375
 31
0.0
  0
LINE
  5
   239
  8
0
  6
CONTINUOUS
 62
     7
 10
39.6214294433594
 20
-81.7180862426758
 30
0.0
 11
37.4180679321289
 21
-83.9214477539062
 31
0.0
  0
LINE
  5
   23A
  8
0
  6
CONTINUOUS
 62
     7
 10
39.7110862731934
 20
-82.0526962280274
 30
0.0
 11
37.7526741027832
 21
-84.0111083984375
 31
0.0
  0
LINE
  5
   23B
  8
0
  6
CONTINUOUS
 62
     7
 10
39.8007431030273
 20
-82.3873062133789
 30
0.0
 11
38.0872802734375
 21
-84.1007690429688
 31
0.0
  0
LINE
  5
   23C
  8
0
  6
CONTINUOUS
 62
     7
 10
39.8903999328613
 20
-82.7219161987305
 30
0.0
 11
38.4218864440918
 21
-84.1904296875
 31
0.0
  0
LINE
  5
   23D
  8
0
  6
CONTINUOUS
 62
     7
 10
39.9800567626953
 20
-83.056526184082
 30
0.0
 11
38.7564926147461
 21
-84.2800903320313
 31
0.0
  0
LINE
  5
   23E
  8
0
  6
CONTINUOUS
 62
     7
 10
40.0697135925293
 20
-83.3911361694336
 30
0.0
 11
39.0910987854004
 21
-84.3697509765625
 31
0.0
  0
LINE
  5
   23F
  8
0
  6
CONTINUOUS
 62
     7
 10
40.1593704223633
 20
-83.7257461547852
 30
0.0
 11
39.4257049560547
 21
-84.4594116210938
 31
0.0
  0
LINE
  5
   240
  8
0
  6
CONTINUOUS
 62
     7
 10
40.2490272521973
 20
-84.0603561401367
 30
0.0
 11
39.760311126709
 21
-84.549072265625
 31
0.0
  0
LINE
  5
   241
  8
0
  6
CONTINUOUS
 62
     7
 10
40.3386840820313
 20
-84.3949661254883
 30
0.0
 11
40.0949172973633
 21
-84.6387329101563
 31
0.0
  0
ENDBLK
  5
   242
  8
0
  6
CONTINUOUS
 62
     7
  0
BLOCK
  5
   243
  8
0
  6
CONTINUOUS
 62
     7
  2
*UDIM1237
 70
    65
 10
0.0
 20
0.0
 30
0.0
  3
*UDIM1237
  0
TEXT
  5
   244
  8
0
  6
CONTINUOUS
 62
     7
 10
-29.8538417385029
 20
194.500983301804
 30
0.0
 40
3.5
  1
24.5
 50
90.0
 41
0.933333333333333
 72
     1
 11
-31.6038417385106
 21
200.684316635135
 31
0.0
 73
     2
  0
LINE
  5
   245
  8
0
  6
CONTINUOUS
 62
     7
 10
19.7631356716156
 20
211.918090820316
 30
0.0
 11
-30.8538417385106
 21
211.918090820316
 31
0.0
  0
LINE
  5
   246
  8
0
  6
CONTINUOUS
 62
     7
 10
-28.8538417385106
 20
187.418090820316
 30
0.0
 11
-28.8538417385106
 21
211.918090820316
 31
0.0
  0
LINE
  5
   247
  8
0
  6
CONTINUOUS
 62
     3
 10
-29.6302988949292
 20
190.315868293526
 30
0.0
 11
-28.8538417385106
 21
187.418090820316
 31
0.0
  0
LINE
  5
   248
  8
0
  6
CONTINUOUS
 62
     3
 10
-28.8538417385106
 20
187.418090820316
 30
0.0
 11
-28.0773845820921
 21
190.315868293526
 31
0.0
  0
LINE
  5
   249
  8
0
  6
CONTINUOUS
 62
     3
 10
-28.0773845820921
 20
209.020313347105
 30
0.0
 11
-28.8538417385106
 21
211.918090820316
 31
0.0
  0
LINE
  5
   24A
  8
0
  6
CONTINUOUS
 62
     3
 10
-28.8538417385106
 20
211.918090820316
 30
0.0
 11
-29.6302988949292
 21
209.020313347105
 31
0.0
  0
ENDBLK
  5
   24B
  8
0
  6
CONTINUOUS
 62
     7
  0
BLOCK
  5
   24C
  8
0
  6
CONTINUOUS
 62
     7
  2
*HATCH822
 70
    65
 10
0.0
 20
0.0
 30
0.0
  3
*HATCH822
  0
LINE
  5
   24D
  8
0
  6
CONTINUOUS
 62
    52
 10
77.8234481811523
 20
-23.9999313354492
 30
0.0
 11
76.8000106811524
 21
-25.0233707427979
 31
0.0
  0
LINE
  5
   24E
  8
0
  6
CONTINUOUS
 62
    52
 10
79.8000106811523
 20
-24.1446914672852
 30
0.0
 11
76.8000106811524
 21
-27.1446914672852
 31
0.0
  0
LINE
  5
   24F
  8
0
  6
CONTINUOUS
 62
    52
 10
79.8000106811523
 20
-26.2660121917725
 30
0.0
 11
76.8000106811524
 21
-29.2660121917725
 31
0.0
  0
LINE
  5
   250
  8
0
  6
CONTINUOUS
 62
    52
 10
79.8000106811523
 20
-28.3873329162598
 30
0.0
 11
76.8000106811524
 21
-31.3873329162598
 31
0.0
  0
LINE
  5
   251
  8
0
  6
CONTINUOUS
 62
    52
 10
79.8000106811523
 20
-30.5086536407471
 30
0.0
 11
76.8000106811524
 21
-33.5086517333984
 31
0.0
  0
LINE
  5
   252
  8
0
  6
CONTINUOUS
 62
    52
 10
79.8000106811523
 20
-32.6299743652344
 30
0.0
 11
76.8000106811524
 21
-35.6299705505371
 31
0.0
  0
LINE
  5
   253
  8
0
  6
CONTINUOUS
 62
    52
 10
79.8000106811523
 20
-34.751293182373
 30
0.0
 11
76.8000106811524
 21
-37.7512893676758
 31
0.0
  0
LINE
  5
   254
  8
0
  6
CONTINUOUS
 62
    52
 10
79.8000106811523
 20
-36.8726119995117
 30
0.0
 11
76.8000106811524
 21
-39.8726081848145
 31
0.0
  0
LINE
  5
   255
  8
0
  6
CONTINUOUS
 62
    52
 10
79.8000106811523
 20
-38.9939308166504
 30
0.0
 11
76.8000106811524
 21
-41.9939270019531
 31
0.0
  0
LINE
  5
   256
  8
0
  6
CONTINUOUS
 62
    52
 10
79.8000106811523
 20
-41.1152496337891
 30
0.0
 11
76.8000106811524
 21
-44.1152458190918
 31
0.0
  0
LINE
  5
   257
  8
0
  6
CONTINUOUS
 62
    52
 10
79.8000106811523
 20
-43.236572265625
 30
0.0
 11
76.8000106811524
 21
-46.236572265625
 31
0.0
  0
LINE
  5
   258
  8
0
  6
CONTINUOUS
 62
    52
 10
76.0366516113281
 20
-46.9999313354492
 30
0.0
 11
75.3000106811523
 21
-47.736572265625
 31
0.0
  0
LINE
  5
   259
  8
0
  6
CONTINUOUS
 62
    52
 10
79.8000106811523
 20
-45.3578948974609
 30
0.0
 11
76.6579666137695
 21
-48.4999313354492
 31
0.0
  0
LINE
  5
   25A
  8
0
  6
CONTINUOUS
 62
    52
 10
79.8000106811523
 20
-47.4792137145996
 30
0.0
 11
78.7792892456055
 21
-48.4999313354492
 31
0.0
  0
ENDBLK
  5
   25B
  8
0
  6
CONTINUOUS
 62
     7
  0
BLOCK
  5
   25C
  8
0
  6
CONTINUOUS
 62
     7
  2
*HATCH823
 70
    65
 10
0.0
 20
0.0
 30
0.0
  3
*HATCH823
  0
LINE
  5
   25D
  8
0
  6
CONTINUOUS
 62
    52
 10
76.327018737793
 20
-95.4999313354492
 30
0.0
 11
75.3000106811523
 21
-96.5269393920899
 31
0.0
  0
LINE
  5
   25E
  8
0
  6
CONTINUOUS
 62
    52
 10
78.4483337402344
 20
-95.4999313354492
 30
0.0
 11
76.8000106811524
 21
-97.1482620239258
 31
0.0
  0
LINE
  5
   25F
  8
0
  6
CONTINUOUS
 62
    52
 10
79.8000106811523
 20
-96.2695770263672
 30
0.0
 11
76.8000106811524
 21
-99.2695770263672
 31
0.0
  0
LINE
  5
   260
  8
0
  6
CONTINUOUS
 62
    52
 10
79.8000106811523
 20
-98.3908996582031
 30
0.0
 11
76.8000106811524
 21
-101.390899658203
 31
0.0
  0
LINE
  5
   261
  8
0
  6
CONTINUOUS
 62
    52
 10
79.8000106811523
 20
-100.512222290039
 30
0.0
 11
76.8000106811524
 21
-103.512222290039
 31
0.0
  0
LINE
  5
   262
  8
0
  6
CONTINUOUS
 62
    52
 10
79.8000106811523
 20
-102.633544921875
 30
0.0
 11
76.8000106811524
 21
-105.633544921875
 31
0.0
  0
LINE
  5
   263
  8
0
  6
CONTINUOUS
 62
    52
 10
79.8000106811523
 20
-104.754867553711
 30
0.0
 11
76.8000106811524
 21
-107.754867553711
 31
0.0
  0
LINE
  5
   264
  8
0
  6
CONTINUOUS
 62
    52
 10
79.8000106811523
 20
-106.876190185547
 30
0.0
 11
76.8000106811524
 21
-109.876190185547
 31
0.0
  0
LINE
  5
   265
  8
0
  6
CONTINUOUS
 62
    52
 10
79.8000106811523
 20
-108.997512817383
 30
0.0
 11
76.8000106811524
 21
-111.997512817383
 31
0.0
  0
LINE
  5
   266
  8
0
  6
CONTINUOUS
 62
    52
 10
79.8000106811523
 20
-111.118835449219
 30
0.0
 11
76.8000106811524
 21
-114.118835449219
 31
0.0
  0
LINE
  5
   267
  8
0
  6
CONTINUOUS
 62
    52
 10
79.8000106811523
 20
-113.240158081055
 30
0.0
 11
76.8000106811524
 21
-116.240158081055
 31
0.0
  0
LINE
  5
   268
  8
0
  6
CONTINUOUS
 62
    52
 10
79.8000106811523
 20
-115.361480712891
 30
0.0
 11
76.8000106811524
 21
-118.361480712891
 31
0.0
  0
LINE
  5
   269
  8
0
  6
CONTINUOUS
 62
    52
 10
79.8000106811523
 20
-117.482780456543
 30
0.0
 11
77.2828598022461
 21
-119.999931335449
 31
0.0
  0
LINE
  5
   26A
  8
0
  6
CONTINUOUS
 62
    52
 10
79.8000106811523
 20
-119.604103088379
 30
0.0
 11
79.404182434082
 21
-119.999931335449
 31
0.0
  0
ENDBLK
  5
   26B
  8
0
  6
CONTINUOUS
 62
     7
  0
BLOCK
  5
   26C
  8
0
  6
CONTINUOUS
 62
     7
  2
*UDIM1238
 70
    65
 10
0.0
 20
0.0
 30
0.0
  3
*UDIM1238
  0
TEXT
  5
   26D
  8
0
  6
CONTINUOUS
 62
     7
 10
329.358502642195
 20
112.70084670683
 30
0.0
 40
3.5
  1
45
 50
90.0
 41
0.933333333333333
 72
     1
 11
327.608502642191
 21
115.617513373494
 31
0.0
 73
     2
  0
LINE
  5
   26E
  8
0
  6
CONTINUOUS
 62
     7
 10
301.488586425781
 20
92.9180908203125
 30
0.0
 11
332.358502642191
 21
92.9180908203125
 31
0.0
  0
LINE
  5
   26F
  8
0
  6
CONTINUOUS
 62
     7
 10
301.488586425781
 20
137.918090820313
 30
0.0
 11
332.358502642191
 21
137.918090820313
 31
0.0
  0
LINE
  5
   270
  8
0
  6
CONTINUOUS
 62
     7
 10
330.358502642191
 20
92.9180908203125
 30
0.0
 11
330.358502642191
 21
137.918090820313
 31
0.0
  0
LINE
  5
   271
  8
0
  6
CONTINUOUS
 62
     3
 10
329.582045485773
 20
95.815868293523
 30
0.0
 11
330.358502642191
 21
92.9180908203125
 31
0.0
  0
LINE
  5
   272
  8
0
  6
CONTINUOUS
 62
     3
 10
330.358502642191
 20
92.9180908203125
 30
0.0
 11
331.13495979861
 21
95.815868293523
 31
0.0
  0
LINE
  5
   273
  8
0
  6
CONTINUOUS
 62
     3
 10
331.13495979861
 20
135.020313347102
 30
0.0
 11
330.358502642191
 21
137.918090820313
 31
0.0
  0
LINE
  5
   274
  8
0
  6
CONTINUOUS
 62
     3
 10
330.358502642191
 20
137.918090820313
 30
0.0
 11
329.582045485773
 21
135.020313347102
 31
0.0
  0
ENDBLK
  5
   275
  8
0
  6
CONTINUOUS
 62
     7
  0
BLOCK
  5
   276
  8
0
  6
CONTINUOUS
 62
     7
  2
*UDIM1239
 70
    65
 10
0.0
 20
0.0
 30
0.0
  3
*UDIM1239
  0
TEXT
  5
   277
  8
0
  6
CONTINUOUS
 62
     7
 10
218.68421933651
 20
219.105873428733
 30
0.0
 40
3.5
  1
147
 41
0.933333333333333
 72
     1
 11
223.23421933651
 21
220.855873428733
 31
0.0
 73
     2
  0
LINE
  5
   278
  8
0
  6
CONTINUOUS
 62
     7
 10
150.288505554199
 20
197.194523236458
 30
0.0
 11
150.288505554199
 21
220.105873428733
 31
0.0
  0
LINE
  5
   279
  8
0
  6
CONTINUOUS
 62
     7
 10
297.288594055176
 20
200.05949804068
 30
0.0
 11
297.288594055176
 21
220.105873428733
 31
0.0
  0
LINE
  5
   27A
  8
0
  6
CONTINUOUS
 62
     7
 10
150.288505554199
 20
218.105873428733
 30
0.0
 11
297.288594055176
 21
218.105873428733
 31
0.0
  0
LINE
  5
   27B
  8
0
  6
CONTINUOUS
 62
     3
 10
153.18628302741
 20
218.882330585151
 30
0.0
 11
150.288505554199
 21
218.105873428733
 31
0.0
  0
LINE
  5
   27C
  8
0
  6
CONTINUOUS
 62
     3
 10
150.288505554199
 20
218.105873428733
 30
0.0
 11
153.18628302741
 21
217.329416272314
 31
0.0
  0
LINE
  5
   27D
  8
0
  6
CONTINUOUS
 62
     3
 10
294.390816581965
 20
217.329416272314
 30
0.0
 11
297.288594055176
 21
218.105873428733
 31
0.0
  0
LINE
  5
   27E
  8
0
  6
CONTINUOUS
 62
     3
 10
297.288594055176
 20
218.105873428733
 30
0.0
 11
294.390816581965
 21
218.882330585151
 31
0.0
  0
ENDBLK
  5
   27F
  8
0
  6
CONTINUOUS
 62
     7
  0
BLOCK
  5
   280
  8
0
  6
CONTINUOUS
 62
     7
  2
*UDIM1240
 70
    65
 10
0.0
 20
0.0
 30
0.0
  3
*UDIM1240
  0
TEXT
  5
   281
  8
0
  6
CONTINUOUS
 62
     7
 10
269.860046386719
 20
197.26217673667
 30
0.0
 40
3.5
  1
1.5
 41
0.933333333333333
 72
     1
 11
274.410046386719
 21
199.01217673667
 31
0.0
 73
     2
  0
TEXT
  5
   282
  8
0
  6
CONTINUOUS
 62
     7
 10
279.960046386719
 20
197.26217673667
 30
0.0
 40
3.5
  1
-2
 41
0.933333333333333
 72
     1
 11
282.876713053385
 21
199.01217673667
 31
0.0
 73
     2
  0
LINE
  5
   283
  8
0
  6
CONTINUOUS
 62
     7
 10
269.860046386719
 20
196.26217673667
 30
0.0
 11
302.288594055176
 21
196.26217673667
 31
0.0
  0
LINE
  5
   284
  8
0
  6
CONTINUOUS
 62
     3
 10
292.890816581965
 20
195.485719580252
 30
0.0
 11
295.788594055176
 21
196.26217673667
 31
0.0
  0
LINE
  5
   285
  8
0
  6
CONTINUOUS
 62
     3
 10
295.788594055176
 20
196.26217673667
 30
0.0
 11
292.890816581965
 21
197.038633893089
 31
0.0
  0
LINE
  5
   286
  8
0
  6
CONTINUOUS
 62
     3
 10
300.186371528386
 20
197.038633893089
 30
0.0
 11
297.288594055176
 21
196.26217673667
 31
0.0
  0
LINE
  5
   287
  8
0
  6
CONTINUOUS
 62
     3
 10
297.288594055176
 20
196.26217673667
 30
0.0
 11
300.186371528386
 21
195.485719580252
 31
0.0
  0
ENDBLK
  5
   288
  8
0
  6
CONTINUOUS
 62
     7
  0
BLOCK
  5
   289
  8
0
  6
CONTINUOUS
 62
     7
  2
*UDIM1241
 70
    65
 10
0.0
 20
0.0
 30
0.0
  3
*UDIM1241
  0
TEXT
  5
   28A
  8
0
  6
CONTINUOUS
 62
     7
 10
212.671879323324
 20
49.9282869971037
 30
0.0
 40
3.5
  1
140.5
 41
0.933333333333333
 72
     1
 11
220.48854598999
 21
51.6782869971037
 31
0.0
 73
     2
  0
LINE
  5
   28B
  8
0
  6
CONTINUOUS
 62
     7
 10
150.288505554199
 20
54.034339374443
 30
0.0
 11
150.288505554199
 21
46.9282869971037
 31
0.0
  0
LINE
  5
   28C
  8
0
  6
CONTINUOUS
 62
     7
 10
290.688586425781
 20
64.4180908203125
 30
0.0
 11
290.688586425781
 21
46.9282869971037
 31
0.0
  0
LINE
  5
   28D
  8
0
  6
CONTINUOUS
 62
     7
 10
150.288505554199
 20
48.9282869971037
 30
0.0
 11
290.688586425781
 21
48.9282869971037
 31
0.0
  0
LINE
  5
   28E
  8
0
  6
CONTINUOUS
 62
     3
 10
153.18628302741
 20
49.7047441535222
 30
0.0
 11
150.288505554199
 21
48.9282869971037
 31
0.0
  0
LINE
  5
   28F
  8
0
  6
CONTINUOUS
 62
     3
 10
150.288505554199
 20
48.9282869971037
 30
0.0
 11
153.18628302741
 21
48.1518298406852
 31
0.0
  0
LINE
  5
   290
  8
0
  6
CONTINUOUS
 62
     3
 10
287.790808952571
 20
48.1518298406852
 30
0.0
 11
290.688586425781
 21
48.9282869971037
 31
0.0
  0
LINE
  5
   291
  8
0
  6
CONTINUOUS
 62
     3
 10
290.688586425781
 20
48.9282869971037
 30
0.0
 11
287.790808952571
 21
49.7047441535222
 31
0.0
  0
ENDBLK
  5
   292
  8
0
  6
CONTINUOUS
 62
     7
  0
BLOCK
  5
   293
  8
0
  6
CONTINUOUS
 62
     7
  2
*UDIM1242
 70
    65
 10
0.0
 20
0.0
 30
0.0
  3
*UDIM1242
  0
TEXT
  5
   294
  8
0
  6
CONTINUOUS
 62
     7
 10
299.271919759115
 20
49.9282869971037
 30
0.0
 40
3.5
  1
23
 41
0.933333333333333
 72
     1
 11
302.188586425781
 21
51.6782869971037
 31
0.0
 73
     2
  0
LINE
  5
   295
  8
0
  6
CONTINUOUS
 62
     7
 10
313.688586425781
 20
114.418090820313
 30
0.0
 11
313.688586425781
 21
46.9282869971037
 31
0.0
  0
LINE
  5
   296
  8
0
  6
CONTINUOUS
 62
     7
 10
290.688586425781
 20
48.9282869971037
 30
0.0
 11
313.688586425781
 21
48.9282869971037
 31
0.0
  0
LINE
  5
   297
  8
0
  6
CONTINUOUS
 62
     3
 10
293.586363898992
 20
49.7047441535222
 30
0.0
 11
290.688586425781
 21
48.9282869971037
 31
0.0
  0
LINE
  5
   298
  8
0
  6
CONTINUOUS
 62
     3
 10
290.688586425781
 20
48.9282869971037
 30
0.0
 11
293.586363898992
 21
48.1518298406852
 31
0.0
  0
LINE
  5
   299
  8
0
  6
CONTINUOUS
 62
     3
 10
310.790808952571
 20
48.1518298406852
 30
0.0
 11
313.688586425781
 21
48.9282869971037
 31
0.0
  0
LINE
  5
   29A
  8
0
  6
CONTINUOUS
 62
     3
 10
313.688586425781
 20
48.9282869971037
 30
0.0
 11
310.790808952571
 21
49.7047441535222
 31
0.0
  0
ENDBLK
  5
   29B
  8
0
  6
CONTINUOUS
 62
     7
  0
BLOCK
  5
   29C
  8
0
  6
CONTINUOUS
 62
     7
  2
*UDIM1243
 70
    65
 10
0.0
 20
0.0
 30
0.0
  3
*UDIM1243
  0
TEXT
  5
   29D
  8
0
  6
CONTINUOUS
 62
     7
 10
220.738549804687
 20
229.341038013814
 30
0.0
 40
3.5
  1
150
 41
0.933333333333333
 72
     1
 11
225.288549804688
 21
231.091038013814
 31
0.0
 73
     2
  0
LINE
  5
   29E
  8
0
  6
CONTINUOUS
 62
     7
 10
150.288505554199
 20
197.194523236458
 30
0.0
 11
150.288505554199
 21
230.341038013814
 31
0.0
  0
LINE
  5
   29F
  8
0
  6
CONTINUOUS
 62
     7
 10
300.288594055176
 20
164.418159484863
 30
0.0
 11
300.288594055176
 21
230.341038013814
 31
0.0
  0
LINE
  5
   2A0
  8
0
  6
CONTINUOUS
 62
     7
 10
150.288505554199
 20
228.341038013814
 30
0.0
 11
300.288594055176
 21
228.341038013814
 31
0.0
  0
LINE
  5
   2A1
  8
0
  6
CONTINUOUS
 62
     3
 10
153.18628302741
 20
229.117495170233
 30
0.0
 11
150.288505554199
 21
228.341038013814
 31
0.0
  0
LINE
  5
   2A2
  8
0
  6
CONTINUOUS
 62
     3
 10
150.288505554199
 20
228.341038013814
 30
0.0
 11
153.18628302741
 21
227.564580857396
 31
0.0
  0
LINE
  5
   2A3
  8
0
  6
CONTINUOUS
 62
     3
 10
297.390816581965
 20
227.564580857396
 30
0.0
 11
300.288594055176
 21
228.341038013814
 31
0.0
  0
LINE
  5
   2A4
  8
0
  6
CONTINUOUS
 62
     3
 10
300.288594055176
 20
228.341038013814
 30
0.0
 11
297.390816581965
 21
229.117495170233
 31
0.0
  0
ENDBLK
  5
   2A5
  8
0
  6
CONTINUOUS
 62
     7
  0
BLOCK
  5
   2A6
  8
0
  6
CONTINUOUS
 62
     3
  2
*UDIM1244
 70
    65
 10
0.0
 20
0.0
 30
0.0
  3
*UDIM1244
  0
TEXT
  5
   2A7
  8
0
  6
CONTINUOUS
 62
     3
 10
-26.1650528948479
 20
27.4592967086065
 30
0.0
 40
3.00000002980232
  1
4
 50
307.906099244487
 41
0.933333333333334
 72
     1
 11
-24.3057187278413
 21
27.5129299459305
 31
0.0
 73
     2
  0
TEXT
  5
   2A8
  8
0
  6
CONTINUOUS
 62
     3
 10
-27.8545682049203
 20
29.6290981287367
 30
0.0
 40
3.00000002980232
  1
Ø
 50
307.906099244487
 41
0.933333333333334
 72
     1
 11
-25.9952340379137
 21
29.6827313660607
 31
0.0
 73
     2
  0
LINE
  5
   2A9
  8
0
  6
CONTINUOUS
 62
     3
 10
-17.9293272431492
 20
15.2546785404893
 30
0.0
 11
-28.6435868934588
 21
29.0147289326278
 31
0.0
  0
LINE
  5
   2AA
  8
0
  6
CONTINUOUS
 62
     3
 10
-15.7031856984207
 20
13.2436355715715
 30
0.0
 11
-17.9293272431492
 21
15.2546785404893
 31
0.0
  0
LINE
  5
   2AB
  8
0
  6
CONTINUOUS
 62
     3
 10
-17.9293272431492
 20
15.2546785404893
 30
0.0
 11
-16.5252554802643
 21
12.6035311502695
 31
0.0
  0
LINE
  5
   2AC
  8
0
  6
CONTINUOUS
 62
     3
 10
-21.3842071801115
 20
18.8437588864838
 30
0.0
 11
-19.158065635383
 21
16.832715917566
 31
0.0
  0
LINE
  5
   2AD
  8
0
  6
CONTINUOUS
 62
     3
 10
-19.158065635383
 20
16.832715917566
 30
0.0
 11
-20.5621373982679
 21
19.4838633077858
 31
0.0
  0
ENDBLK
  5
   2AE
  8
0
  6
CONTINUOUS
 62
     3
  0
BLOCK
  5
   2AF
  8
0
  6
CONTINUOUS
 62
     3
  2
*UDIM1245
 70
    65
 10
0.0
 20
0.0
 30
0.0
  3
*UDIM1245
  0
TEXT
  5
   2B0
  8
0
  6
CONTINUOUS
 62
     3
 10
3.31256025931009
 20
-6.47607851029699
 30
0.0
 40
3.00000002980232
  1
85
 50
360.0
 41
0.933333333333333
 72
     1
 11
5.81256028413782
 21
-4.97607849538326
 31
0.0
 73
     2
  0
LINE
  5
   2B1
  8
0
  6
CONTINUOUS
 62
     3
 10
23.5813035607339
 20
-7.47607851028442
 30
0.0
 11
-18.9186964392661
 21
-7.47607851028442
 31
0.0
  0
LINE
  5
   2B2
  8
0
  6
CONTINUOUS
 62
     3
 10
20.6268802835269
 20
-7.99702294023609
 30
0.0
 11
23.5813035607339
 21
-7.47607851028442
 31
0.0
  0
LINE
  5
   2B3
  8
0
  6
CONTINUOUS
 62
     3
 10
23.5813035607339
 20
-7.47607851028442
 30
0.0
 11
20.6268802835269
 21
-6.95513408033276
 31
0.0
  0
LINE
  5
   2B4
  8
0
  6
CONTINUOUS
 62
     3
 10
-15.9642731620592
 20
-6.95513408033276
 30
0.0
 11
-18.9186964392661
 21
-7.47607851028442
 31
0.0
  0
LINE
  5
   2B5
  8
0
  6
CONTINUOUS
 62
     3
 10
-18.9186964392661
 20
-7.47607851028442
 30
0.0
 11
-15.9642731620592
 21
-7.99702294023609
 31
0.0
  0
ENDBLK
  5
   2B6
  8
0
  6
CONTINUOUS
 62
     3
  0
BLOCK
  5
   2B7
  8
0
  6
CONTINUOUS
 62
     3
  2
*UDIM1246
 70
    65
 10
0.0
 20
0.0
 30
0.0
  3
*UDIM1246
  0
TEXT
  5
   2B8
  8
0
  6
CONTINUOUS
 62
     3
 10
52.8921046257051
 20
-2.73130220571974
 30
0.0
 40
3.00000002980232
  1
53
 50
90.0
 41
0.933333333333333
 72
     1
 11
51.3921046108007
 21
-0.23130218088636
 31
0.0
 73
     2
  0
LINE
  5
   2B9
  8
0
  6
CONTINUOUS
 62
     3
 10
22.8313035607339
 20
13.2936972290277
 30
0.0
 11
55.8921046257019
 21
13.2936972290277
 31
0.0
  0
LINE
  5
   2BA
  8
0
  6
CONTINUOUS
 62
     3
 10
22.8313035607339
 20
-13.2063027709723
 30
0.0
 11
55.8921046257019
 21
-13.2063027709723
 31
0.0
  0
LINE
  5
   2BB
  8
0
  6
CONTINUOUS
 62
     3
 10
53.8921046257019
 20
13.2936972290277
 30
0.0
 11
53.8921046257019
 21
-13.2063027709723
 31
0.0
  0
LINE
  5
   2BC
  8
0
  6
CONTINUOUS
 62
     3
 10
54.4130490556536
 20
10.3392739518207
 30
0.0
 11
53.8921046257019
 21
13.2936972290277
 31
0.0
  0
LINE
  5
   2BD
  8
0
  6
CONTINUOUS
 62
     3
 10
53.8921046257019
 20
13.2936972290277
 30
0.0
 11
53.3711601957502
 21
10.3392739518207
 31
0.0
  0
LINE
  5
   2BE
  8
0
  6
CONTINUOUS
 62
     3
 10
53.3711601957502
 20
-10.2518794937654
 30
0.0
 11
53.8921046257019
 21
-13.2063027709723
 31
0.0
  0
LINE
  5
   2BF
  8
0
  6
CONTINUOUS
 62
     3
 10
53.8921046257019
 20
-13.2063027709723
 30
0.0
 11
54.4130490556536
 21
-10.2518794937654
 31
0.0
  0
ENDBLK
  5
   2C0
  8
0
  6
CONTINUOUS
 62
     3
  0
BLOCK
  5
   2C1
  8
0
  6
CONTINUOUS
 62
     7
  2
*UDIM1247
 70
    65
 10
0.0
 20
0.0
 30
0.0
  3
*UDIM1247
  0
TEXT
  5
   2C2
  8
0
  6
CONTINUOUS
 62
     7
 10
13.9363259209226
 20
4.35334469359654
 30
0.0
 40
3.00000002980232
  1
1.5
 50
47.3823388077977
 41
0.933333333333333
 72
     1
 11
15.4731943866131
 21
8.23896377761202
 31
0.0
 73
     2
  0
TEXT
  5
   2C3
  8
0
  6
CONTINUOUS
 62
     7
 10
11.2279145548587
 20
1.40979104017104
 30
0.0
 40
3.00000002980232
  1
R
 50
47.3823388077977
 41
1.2
 72
     1
 11
11.1397361968769
 21
3.52927792774327
 31
0.0
 73
     2
  0
LINE
  5
   2C4
  8
0
  6
CONTINUOUS
 62
     7
 10
23.339130688087
 20
13.095613534933
 30
0.0
 11
11.9638029627312
 21
0.732688203700113
 31
0.0
  0
LINE
  5
   2C5
  8
0
  6
CONTINUOUS
 62
     3
 10
21.9484231621339
 20
10.4374313407903
 30
0.0
 11
23.339130688087
 21
13.095613534933
 31
0.0
  0
LINE
  5
   2C6
  8
0
  6
CONTINUOUS
 62
     3
 10
23.339130688087
 20
13.095613534933
 30
0.0
 11
20.8056515208957
 21
11.4889140268085
 31
0.0
  0
ENDBLK
  5
   2C7
  8
0
  6
CONTINUOUS
 62
     7
  0
BLOCK
  5
   2C8
  8
0
  6
CONTINUOUS
 62
     7
  2
*UDIM1248
 70
    65
 10
0.0
 20
0.0
 30
0.0
  3
*UDIM1248
  0
TEXT
  5
   2C9
  8
0
  6
CONTINUOUS
 62
     7
 10
-46.2948994240809
 20
-9.39463601112155
 30
0.0
 40
3.5
  1
64
 50
90.0
 41
0.933333333333333
 72
     1
 11
-48.0448994240846
 21
-6.47796934445708
 31
0.0
 73
     2
  0
TEXT
  5
   2CA
  8
0
  6
CONTINUOUS
 62
     7
 10
-46.8198994449394
 20
-1.46130267778888
 30
0.0
 40
2.44999995827675
  1
±0.15
 50
90.0
 41
0.933333333333333
 72
     1
 11
-48.0448994240846
 21
4.01036389569433
 31
0.0
 73
     2
  0
LINE
  5
   2CB
  8
0
  6
CONTINUOUS
 62
     7
 10
-24.5436964392661
 20
16.0436972290277
 30
0.0
 11
-47.2948994240846
 21
16.0436972290277
 31
0.0
  0
LINE
  5
   2CC
  8
0
  6
CONTINUOUS
 62
     7
 10
-24.5436964392661
 20
-15.9563027709723
 30
0.0
 11
-47.2948994240846
 21
-15.9563027709723
 31
0.0
  0
LINE
  5
   2CD
  8
0
  6
CONTINUOUS
 62
     7
 10
-45.2948994240846
 20
16.0436972290277
 30
0.0
 11
-45.2948994240846
 21
-15.9563027709723
 31
0.0
  0
LINE
  5
   2CE
  8
0
  6
CONTINUOUS
 62
     3
 10
-44.5184422676661
 20
13.1459197558171
 30
0.0
 11
-45.2948994240846
 21
16.0436972290277
 31
0.0
  0
LINE
  5
   2CF
  8
0
  6
CONTINUOUS
 62
     3
 10
-45.2948994240846
 20
16.0436972290277
 30
0.0
 11
-46.0713565805032
 21
13.1459197558171
 31
0.0
  0
LINE
  5
   2D0
  8
0
  6
CONTINUOUS
 62
     3
 10
-46.0713565805032
 20
-13.0585252977618
 30
0.0
 11
-45.2948994240846
 21
-15.9563027709723
 31
0.0
  0
LINE
  5
   2D1
  8
0
  6
CONTINUOUS
 62
     3
 10
-45.2948994240846
 20
-15.9563027709723
 30
0.0
 11
-44.5184422676661
 21
-13.0585252977618
 31
0.0
  0
ENDBLK
  5
   2D2
  8
0
  6
CONTINUOUS
 62
     7
  0
BLOCK
  5
   2D3
  8
0
  6
CONTINUOUS
 62
     7
  2
*UDIM1249
 70
    65
 10
0.0
 20
0.0
 30
0.0
  3
*UDIM1249
  0
TEXT
  5
   2D4
  8
0
  6
CONTINUOUS
 62
     7
 10
-10.3736963460754
 20
34.4006069777668
 30
0.0
 40
3.5
  1
83.5
 50
360.0
 41
0.933333333333333
 72
     1
 11
-4.19036301275085
 21
36.1506069777978
 31
0.0
 73
     2
  0
TEXT
  5
   2D5
  8
0
  6
CONTINUOUS
 62
     7
 10
4.09297032058864
 20
34.925606998632
 30
0.0
 40
2.44999995827675
  1
±0.15
 50
360.0
 41
0.933333333333333
 72
     1
 11
9.56463689406722
 21
36.1506069777978
 31
0.0
 73
     2
  0
LINE
  5
   2D6
  8
0
  6
CONTINUOUS
 62
     7
 10
23.2063035607339
 20
22.0436972290277
 30
0.0
 11
23.2063035607339
 21
35.4006069777978
 31
0.0
  0
LINE
  5
   2D7
  8
0
  6
CONTINUOUS
 62
     7
 10
-18.5436964392661
 20
22.0436972290277
 30
0.0
 11
-18.5436964392661
 21
35.4006069777978
 31
0.0
  0
LINE
  5
   2D8
  8
0
  6
CONTINUOUS
 62
     7
 10
23.2063035607339
 20
33.4006069777978
 30
0.0
 11
-18.5436964392661
 21
33.4006069777978
 31
0.0
  0
LINE
  5
   2D9
  8
0
  6
CONTINUOUS
 62
     3
 10
20.3085260875234
 20
32.6241498213793
 30
0.0
 11
23.2063035607339
 21
33.4006069777978
 31
0.0
  0
LINE
  5
   2DA
  8
0
  6
CONTINUOUS
 62
     3
 10
23.2063035607339
 20
33.4006069777978
 30
0.0
 11
20.3085260875234
 21
34.1770641342164
 31
0.0
  0
LINE
  5
   2DB
  8
0
  6
CONTINUOUS
 62
     3
 10
-15.6459189660556
 20
34.1770641342164
 30
0.0
 11
-18.5436964392661
 21
33.4006069777978
 31
0.0
  0
LINE
  5
   2DC
  8
0
  6
CONTINUOUS
 62
     3
 10
-18.5436964392661
 20
33.4006069777978
 30
0.0
 11
-15.6459189660556
 21
32.6241498213793
 31
0.0
  0
ENDBLK
  5
   2DD
  8
0
  6
CONTINUOUS
 62
     7
  0
ENDSEC
  0
SECTION
  2
ENTITIES
  0
LINE
  5
   2DE
  8
0
  6
CONTINUOUS
 62
     7
 10
66.5835472580872
 20
95.7082987072142
 30
0.0
 11
68.0179160110324
 21
95.7082987072142
 31
0.0
  0
LINE
  5
   2DF
  8
0
  6
CONTINUOUS
 62
     7
 10
70.6365332483009
 20
96.2082987072142
 30
0.0
 11
71.6365332483008
 21
95.2082987072142
 31
0.0
  0
LINE
  5
   2E0
  8
0
  6
CONTINUOUS
 62
     7
 10
70.6365332483009
 20
95.2082987072142
 30
0.0
 11
71.6365332483009
 21
96.2082987072142
 31
0.0
  0
LINE
  5
   2E1
  8
0
  6
CONTINUOUS
 62
     7
 10
68.0179160110324
 20
95.7082987072142
 30
0.0
 11
69.5487126081601
 21
96.6118939207966
 31
0.0
  0
LINE
  5
   2E2
  8
0
  6
CONTINUOUS
 62
     7
 10
69.5675173144117
 20
95.7082987072142
 30
0.0
 11
72.5862560681106
 21
95.7082987072142
 31
0.0
  0
LINE
  5
   2E3
  8
0
  6
CONTINUOUS
 62
     7
 10
69.5675173144117
 20
95.3737344805365
 30
0.0
 11
69.5675173144117
 21
96.0428629338919
 31
0.0
  0
LINE
  5
   2E4
  8
0
  6
CONTINUOUS
 62
     7
 10
65.0131356716156
 20
93.9180908203125
 30
0.0
 11
65.0131356716156
 21
101.918090820313
 31
0.0
  0
LINE
  5
   2E5
  8
0
  6
CONTINUOUS
 62
     7
 10
53.0131356716156
 20
97.9180908203125
 30
0.0
 11
74.5131356716156
 21
97.9180908203125
 31
0.0
  0
TEXT
  5
   2E6
  8
0
  6
CONTINUOUS
 62
     7
 10
53.763135659198
 20
99.1680908128619
 30
0.0
 40
1.50000001490116
  1
S1
 41
0.933333333333333
 72
     1
 11
55.0131356716156
 21
99.9180908203125
 31
0.0
 73
     2
  0
TEXT
  5
   2E7
  8
0
  6
CONTINUOUS
 62
     7
 10
53.763135659198
 20
95.1680908128619
 30
0.0
 40
1.50000001490116
  1
S2
 41
0.933333333333333
 72
     1
 11
55.0131356716156
 21
95.9180908203125
 31
0.0
 73
     2
  0
TEXT
  5
   2E8
  8
0
  6
CONTINUOUS
 62
     7
 10
60.9631356313825
 20
99.1680908128619
 30
0.0
 40
1.50000001490116
  1
   Ith
 41
0.933333333333333
 72
     1
 11
65.0131356716156
 21
99.9180908203125
 31
0.0
 73
     2
  0
LINE
  5
   2E9
  8
0
  6
CONTINUOUS
 62
     7
 10
64.5131356716156
 20
94.6680908203125
 30
0.0
 11
64.5131356716156
 21
97.1680908203125
 31
0.0
  0
LINE
  5
   2EA
  8
0
  6
CONTINUOUS
 62
     7
 10
62.0131356716156
 20
94.6680908203125
 30
0.0
 11
62.0131356716156
 21
97.1680908203125
 31
0.0
  0
LINE
  5
   2EB
  8
0
  6
CONTINUOUS
 62
     7
 10
62.0131356716156
 20
94.6680908203125
 30
0.0
 11
64.5131356716156
 21
94.6680908203125
 31
0.0
  0
LINE
  5
   2EC
  8
0
  6
CONTINUOUS
 62
     7
 10
62.0131356716156
 20
97.1680908203125
 30
0.0
 11
64.5131356716156
 21
97.1680908203125
 31
0.0
  0
LINE
  5
   2ED
  8
0
  6
CONTINUOUS
 62
     7
 10
62.0131356716156
 20
101.168090820313
 30
0.0
 11
64.5131356716156
 21
101.168090820313
 31
0.0
  0
LINE
  5
   2EE
  8
0
  6
CONTINUOUS
 62
     7
 10
64.5131356716156
 20
98.6680908203125
 30
0.0
 11
64.5131356716156
 21
101.168090820313
 31
0.0
  0
LINE
  5
   2EF
  8
0
  6
CONTINUOUS
 62
     7
 10
62.0131356716156
 20
98.6680908203125
 30
0.0
 11
62.0131356716156
 21
101.168090820313
 31
0.0
  0
LINE
  5
   2F0
  8
0
  6
CONTINUOUS
 62
     7
 10
62.0131356716156
 20
98.6680908203125
 30
0.0
 11
64.5131356716156
 21
98.6680908203125
 31
0.0
  0
TEXT
  5
   2F1
  8
0
  6
CONTINUOUS
 62
     7
 10
57.0631356522441
 20
95.1680908128619
 30
0.0
 40
1.50000001490116
  1
160
 41
0.933333333333333
 72
     1
 11
59.0131356716156
 21
95.9180908203125
 31
0.0
 73
     2
  0
TEXT
  5
   2F2
  8
0
  6
CONTINUOUS
 62
     7
 10
57.0631356522441
 20
99.1680908128619
 30
0.0
 40
1.50000001490116
  1
125
 41
0.933333333333333
 72
     1
 11
59.0131356716156
 21
99.9180908203125
 31
0.0
 73
     2
  0
INSERT
  5
   2F3
  8
255
  6
CONTINUOUS
 62
     7
  2
$5SACE
 10
68.9227499077494
 20
133.66942375089
 30
0.0
 41
1.2
 42
1.2
 50
359.999999792138
 43
1.2
  0
INSERT
  5
   2F4
  8
255
  6
CONTINUOUS
 62
     7
  2
$5ABB
 10
6.58388870404156
 20
133.602012202017
 30
0.0
 41
1.2
 42
1.2
 50
359.999999792138
 43
1.2
  0
LINE
  5
   2F5
  8
0
  6
CONTINUOUS
 62
     7
 10
63.7631356716156
 20
105.164161682129
 30
0.0
 11
63.7631356716156
 21
125.664157867432
 31
0.0
  0
LINE
  5
   2F6
  8
0
  6
CONTINUOUS
 62
     7
 10
63.7631356716156
 20
125.664157867432
 30
0.0
 11
66.2631356716156
 21
125.664157867432
 31
0.0
  0
LINE
  5
   2F7
  8
0
  6
CONTINUOUS
 62
     7
 10
63.7631356716156
 20
105.164161682129
 30
0.0
 11
66.2631356716156
 21
105.164161682129
 31
0.0
  0
LINE
  5
   2F8
  8
0
  6
CONTINUOUS
 62
     7
 10
66.2631356716156
 20
105.164161682129
 30
0.0
 11
66.2631356716156
 21
125.664157867432
 31
0.0
  0
LINE
  5
   2F9
  8
0
  6
DASHDOT
 62
     7
 10
-2.48686432838437
 20
132.418090820313
 30
0.0
 11
13.7566904552128
 21
132.418090820313
 31
0.0
  0
LINE
  5
   2FA
  8
0
  6
DASHDOT
 62
     7
 10
36.6695810072281
 20
132.418090820313
 30
0.0
 11
41.4381172588747
 21
132.418090820313
 31
0.0
  0
LINE
  5
   2FB
  8
0
  6
CONTINUOUS
 62
     7
 10
38.0291466885301
 20
131.418090820313
 30
0.0
 11
42.4250509084587
 21
131.418090820313
 31
0.0
  0
LINE
  5
   2FC
  8
0
  6
CONTINUOUS
 62
     7
 10
-2.4868643283844
 20
131.418090820313
 30
0.0
 11
12.3971247739109
 21
131.418090820313
 31
0.0
  0
ARC
  5
   2FD
  8
0
  6
CONTINUOUS
 62
     7
 10
25.2131357312205
 20
115.418091572451
 30
0.0
 40
30.5
 50
312.46372285886
 51
404.999998426019
  0
ARC
  5
   2FE
  8
0
  6
CONTINUOUS
 62
     7
 10
25.2131357312205
 20
115.418091572451
 30
0.0
 40
23.5
 50
310.117855386919
 51
404.999997957173
  0
LINE
  5
   2FF
  8
0
  6
CONTINUOUS
 62
     7
 10
41.8301456815681
 20
132.035100337871
 30
0.0
 11
46.779893149874
 21
136.984847806177
 31
0.0
  0
LINE
  5
   300
  8
0
  6
CONTINUOUS
 62
     7
 10
40.3556421433286
 20
97.4471567175457
 30
0.0
 11
44.8847080405618
 21
92.9180908203125
 31
0.0
  0
LINE
  5
   301
  8
0
  6
DASHDOT
 62
     7
 10
50.5360507603541
 20
132.418090820313
 30
0.0
 11
75.5131356716156
 21
132.418090820313
 31
0.0
  0
LINE
  5
   302
  8
0
  6
CONTINUOUS
 62
     7
 10
51.179460539873
 20
131.418090820313
 30
0.0
 11
75.5131356716156
 21
131.418090820313
 31
0.0
  0
LINE
  5
   303
  8
0
  6
CONTINUOUS
 62
     7
 10
47.2959119096821
 20
107.380617077813
 30
0.0
 11
53.8737602551834
 21
104.986476074533
 31
0.0
  0
LINE
  5
   304
  8
0
  6
CONTINUOUS
 62
     7
 10
47.9123929574271
 20
121.500337981345
 30
0.0
 11
54.6738737414506
 21
123.312071297063
 31
0.0
  0
LINE
  5
   305
  8
0
  6
CONTINUOUS
 62
     7
 10
44.4632093381213
 20
128.897137018213
 30
0.0
 11
50.1972736481443
 21
132.91217207267
 31
0.0
  0
ARC
  5
   306
  8
0
  6
CONTINUOUS
 62
     7
 10
25.2131357312205
 20
115.418091572451
 30
0.0
 40
28.0
 50
14.9999975616174
 51
34.9999979803609
  0
LINE
  5
   307
  8
0
  6
CONTINUOUS
 62
     7
 10
43.6559225887955
 20
131.546129671553
 30
0.0
 11
47.4868074148345
 21
134.760623716164
 31
0.0
  0
LINE
  5
   308
  8
0
  6
CONTINUOUS
 62
     7
 10
44.2987101698382
 20
130.780085204398
 30
0.0
 11
48.1295950007336
 21
133.994579253085
 31
0.0
  0
ARC
  5
   309
  8
0
  6
CONTINUOUS
 62
     7
 10
25.2131357312205
 20
115.418091572451
 30
0.0
 40
29.5
 50
39.0288368118471
 51
40.9711596298208
  0
ARC
  5
   30A
  8
0
  6
CONTINUOUS
 62
     7
 10
25.2131357312205
 20
115.418091572451
 30
0.0
 40
24.5
 50
38.8306150519863
 51
41.1693806632144
  0
CIRCLE
  5
   30B
  8
0
  6
CONTINUOUS
 62
     7
 10
47.4179672858081
 20
100.057575447256
 30
0.0
 40
2.5
  0
CIRCLE
  5
   30C
  8
0
  6
CONTINUOUS
 62
     7
 10
47.4179672858081
 20
100.057575447256
 30
0.0
 40
1.5
  0
INSERT
  5
   30D
  8
0
  6
CONTINUOUS
 62
     7
  2
*HATCH815
 10
-2.4868643283844
 20
187.418090820313
 30
0.0
  0
INSERT
  5
   30E
  8
0
  6
CONTINUOUS
 62
     7
  2
*HATCH816
 10
-2.4868643283844
 20
187.418090820313
 30
0.0
  0
INSERT
  5
   30F
  8
0
  6
CONTINUOUS
 62
     7
  2
*HATCH817
 10
-2.4868643283844
 20
187.418090820313
 30
0.0
  0
INSERT
  5
   310
  8
0
  6
CONTINUOUS
 62
     7
  2
*HATCH818
 10
-2.4868643283844
 20
187.418090820313
 30
0.0
  0
INSERT
  5
   311
  8
0
  6
CONTINUOUS
 62
     7
  2
*HATCH819
 10
-2.4868643283844
 20
187.418090820313
 30
0.0
  0
INSERT
  5
   312
  8
0
  6
CONTINUOUS
 62
     7
  2
*HATCH820
 10
-2.4868643283844
 20
187.418090820313
 30
0.0
  0
LINE
  5
   313
  8
0
  6
CONTINUOUS
 62
     7
 10
33.1114284107935
 20
103.984264186003
 30
0.0
 11
37.9410575422388
 21
102.69016896049
 31
0.0
  0
LINE
  5
   314
  8
0
  6
CONTINUOUS
 62
     7
 10
36.6469623167262
 20
107.519798091935
 30
0.0
 11
37.9410575422388
 21
102.69016896049
 31
0.0
  0
LINE
  5
   315
  8
0
  6
CONTINUOUS
 62
     7
 10
33.1114284107935
 20
103.984264186003
 30
0.0
 11
36.6469623167262
 21
107.519798091935
 31
0.0
  0
LINE
  5
   316
  8
0
  6
CONTINUOUS
 62
   130
 10
-38.4868521213416
 20
171.418079054798
 30
0.0
 11
-38.4868521213416
 21
182.418094161004
 31
0.0
  0
ARC
  5
   317
  8
0
  6
CONTINUOUS
 62
   130
 10
-34.9868755435901
 20
186.418094313587
 30
0.0
 40
1.0
 50
90.0
 51
180.00000874264
  0
ARC
  5
   318
  8
0
  6
CONTINUOUS
 62
   130
 10
-34.9868755435901
 20
68.4180943135871
 30
0.0
 40
1.0
 50
179.99999125736
 51
270.0
  0
LINE
  5
   319
  8
0
  6
CONTINUOUS
 62
   130
 10
-35.9868826389193
 20
183.418094313587
 30
0.0
 11
-35.9868826389193
 21
186.418094160999
 31
0.0
  0
LINE
  5
   31A
  8
0
  6
CONTINUOUS
 62
   130
 10
-37.4868749332387
 20
183.418094313587
 30
0.0
 11
-35.9868750858265
 21
183.418094313587
 31
0.0
  0
LINE
  5
   31B
  8
0
  6
CONTINUOUS
 62
   130
 10
-37.4868581485766
 20
71.4181095723761
 30
0.0
 11
-35.9868750858242
 21
71.4181095723761
 31
0.0
  0
ARC
  5
   31C
  8
0
  6
CONTINUOUS
 62
   130
 10
-37.4868749332387
 20
182.418094313587
 30
0.0
 40
1.0
 50
90.0
 51
180.00000874264
  0
ARC
  5
   31D
  8
0
  6
CONTINUOUS
 62
   130
 10
-37.4868581485766
 20
72.4181095723761
 30
0.0
 40
1.0
 50
179.801071549146
 51
270.0
  0
CIRCLE
  5
   31E
  8
0
  6
CONTINUOUS
 62
   130
 10
-23.4868941242057
 20
76.218082447076
 30
0.0
 40
3.0
  0
CIRCLE
  5
   31F
  8
0
  6
CONTINUOUS
 62
   130
 10
-23.4868785602441
 20
70.4181060791034
 30
0.0
 40
1.25
  0
LINE
  5
   320
  8
0
  6
CONTINUOUS
 62
   130
 10
-34.9868755435901
 20
67.4181060791034
 30
0.0
 11
-19.2258901698116
 21
67.4181060791034
 31
0.0
  0
CIRCLE
  5
   321
  8
0
  6
CONTINUOUS
 62
   130
 10
-23.4868563526208
 20
184.418081665049
 30
0.0
 40
1.25
  0
CIRCLE
  5
   322
  8
0
  6
CONTINUOUS
 62
   130
 10
-23.4868941242057
 20
178.618099193553
 30
0.0
 40
3.0
  0
LINE
  5
   323
  8
0
  6
CONTINUOUS
 62
   130
 10
-34.9868758487639
 20
187.418090820316
 30
0.0
 11
-19.2258901698116
 21
187.418090820316
 31
0.0
  0
LINE
  5
   324
  8
0
  6
CONTINUOUS
 62
   130
 10
-35.9868504428822
 20
68.4180944661749
 30
0.0
 11
-35.9868504428822
 21
71.4181095723761
 31
0.0
  0
LINE
  5
   325
  8
0
  6
CONTINUOUS
 62
   130
 10
-19.2868345325648
 20
83.4181095723761
 30
0.0
 11
-19.2868345325648
 21
171.418079054798
 31
0.0
  0
LINE
  5
   326
  8
0
  6
CONTINUOUS
 62
   130
 10
-20.5868345325648
 20
83.4181095723761
 30
0.0
 11
-20.5868345325648
 21
171.418079054798
 31
0.0
  0
LINE
  5
   327
  8
0
  6
CONTINUOUS
 62
   130
 10
-21.0868345325648
 20
83.4181095723761
 30
0.0
 11
-21.0868345325648
 21
171.418079054798
 31
0.0
  0
LINE
  5
   328
  8
0
  6
CONTINUOUS
 62
   130
 10
-22.3868345325648
 20
83.4181095723761
 30
0.0
 11
-22.3868345325648
 21
171.418079054798
 31
0.0
  0
LINE
  5
   329
  8
0
  6
CONTINUOUS
 62
   130
 10
-22.8868345325648
 20
83.4181095723761
 30
0.0
 11
-22.8868345325648
 21
171.418079054798
 31
0.0
  0
LINE
  5
   32A
  8
0
  6
CONTINUOUS
 62
   130
 10
-24.1868345325648
 20
83.4181095723761
 30
0.0
 11
-24.1868345325648
 21
171.418079054798
 31
0.0
  0
LINE
  5
   32B
  8
0
  6
CONTINUOUS
 62
   130
 10
-24.1868345325648
 20
83.4181095723761
 30
0.0
 11
-24.1868345325648
 21
171.418079054798
 31
0.0
  0
LINE
  5
   32C
  8
0
  6
CONTINUOUS
 62
   130
 10
-24.6868345325648
 20
83.4181095723761
 30
0.0
 11
-24.6868345325648
 21
171.418079054798
 31
0.0
  0
LINE
  5
   32D
  8
0
  6
CONTINUOUS
 62
   130
 10
-25.9868345325648
 20
83.4181095723761
 30
0.0
 11
-25.9868345325648
 21
171.418079054798
 31
0.0
  0
LINE
  5
   32E
  8
0
  6
CONTINUOUS
 62
   130
 10
-26.4868345325648
 20
83.4181095723761
 30
0.0
 11
-26.4868345325648
 21
171.418079054798
 31
0.0
  0
LINE
  5
   32F
  8
0
  6
CONTINUOUS
 62
   130
 10
-27.7868345325648
 20
83.4181095723761
 30
0.0
 11
-27.7868345325648
 21
171.418079054798
 31
0.0
  0
LINE
  5
   330
  8
0
  6
CONTINUOUS
 62
   130
 10
-28.2868345325648
 20
83.4181095723761
 30
0.0
 11
-28.2868345325648
 21
171.418079054798
 31
0.0
  0
LINE
  5
   331
  8
0
  6
CONTINUOUS
 62
   130
 10
-29.5868345325648
 20
83.4181095723761
 30
0.0
 11
-29.5868345325648
 21
171.418079054798
 31
0.0
  0
LINE
  5
   332
  8
0
  6
CONTINUOUS
 62
   130
 10
-30.0868345325648
 20
83.4181095723761
 30
0.0
 11
-30.0868345325648
 21
171.418079054798
 31
0.0
  0
LINE
  5
   333
  8
0
  6
CONTINUOUS
 62
   130
 10
-31.3868345325648
 20
83.4181095723761
 30
0.0
 11
-31.3868345325648
 21
171.418079054798
 31
0.0
  0
LINE
  5
   334
  8
0
  6
CONTINUOUS
 62
   130
 10
-31.8868345325648
 20
83.4181095723761
 30
0.0
 11
-31.8868345325648
 21
171.418079054798
 31
0.0
  0
LINE
  5
   335
  8
0
  6
CONTINUOUS
 62
   130
 10
-33.1868345325648
 20
83.4181095723761
 30
0.0
 11
-33.1868345325648
 21
171.418079054798
 31
0.0
  0
LINE
  5
   336
  8
0
  6
CONTINUOUS
 62
   130
 10
-33.6868345325648
 20
83.4181095723761
 30
0.0
 11
-33.6868345325648
 21
171.418079054798
 31
0.0
  0
LINE
  5
   337
  8
0
  6
CONTINUOUS
 62
   130
 10
-34.9868345325648
 20
83.4181095723761
 30
0.0
 11
-34.9868345325648
 21
171.418079054798
 31
0.0
  0
LINE
  5
   338
  8
0
  6
CONTINUOUS
 62
   130
 10
-35.4868345325648
 20
83.4181095723761
 30
0.0
 11
-35.4868345325648
 21
171.418079054798
 31
0.0
  0
LINE
  5
   339
  8
0
  6
CONTINUOUS
 62
   130
 10
-36.7868345325647
 20
83.4181095723761
 30
0.0
 11
-36.7868345325647
 21
171.418079054798
 31
0.0
  0
LINE
  5
   33A
  8
0
  6
CONTINUOUS
 62
   130
 10
-37.2868345325648
 20
83.4181095723761
 30
0.0
 11
-37.2868345325648
 21
171.418079054798
 31
0.0
  0
LINE
  5
   33B
  8
0
  6
CONTINUOUS
 62
   130
 10
-38.4868521213416
 20
72.421581521844
 30
0.0
 11
-38.4868521213416
 21
171.418079054798
 31
0.0
  0
LINE
  5
   33C
  8
0
  6
DASHDOT
 62
   130
 10
6.51314364737917
 20
182.168081665049
 30
0.0
 11
6.51314364737917
 21
186.668081665049
 31
0.0
  0
TEXT
  5
   33D
  8
0
  6
CONTINUOUS
 62
     2
 10
-45.5240101061059
 20
113.78865042697
 30
0.0
 40
3.00000002980232
  1
X
 41
0.916666674282816
 72
     1
 11
-44.4240100673629
 21
115.288650441871
 31
0.0
 73
     2
  0
LINE
  5
   33E
  8
0
  6
CONTINUOUS
 62
     7
 10
82.01313662529
 20
68.6681604385376
 30
0.0
 11
82.01313662529
 21
162.168160438538
 31
0.0
  0
LINE
  5
   33F
  8
0
  6
CONTINUOUS
 62
     7
 10
-7.73686337471003
 20
67.4181604385376
 30
0.0
 11
80.76313662529
 21
67.4181604385376
 31
0.0
  0
LINE
  5
   340
  8
0
  6
CONTINUOUS
 62
     7
 10
-8.98686337471003
 20
68.6681604385376
 30
0.0
 11
-8.98686337471003
 21
162.168160438538
 31
0.0
  0
LINE
  5
   341
  8
0
  6
CONTINUOUS
 62
     7
 10
-7.73686337471003
 20
163.418160438538
 30
0.0
 11
80.76313662529
 21
163.418160438538
 31
0.0
  0
LINE
  5
   342
  8
0
  6
CONTINUOUS
 62
     7
 10
-3.98686337471003
 20
91.4181604385376
 30
0.0
 11
77.01313662529
 21
91.4181604385376
 31
0.0
  0
LINE
  5
   343
  8
0
  6
CONTINUOUS
 62
     7
 10
-3.98686337471003
 20
139.418160438538
 30
0.0
 11
77.01313662529
 21
139.418160438538
 31
0.0
  0
LINE
  5
   344
  8
0
  6
CONTINUOUS
 62
     7
 10
-4.48686337471003
 20
67.4181604385376
 30
0.0
 11
-4.48686337471003
 21
163.418160438538
 31
0.0
  0
LINE
  5
   345
  8
0
  6
CONTINUOUS
 62
     7
 10
-3.48686337471003
 20
139.418160438538
 30
0.0
 11
-3.48686337471003
 21
149.918160438538
 31
0.0
  0
LINE
  5
   346
  8
0
  6
CONTINUOUS
 62
     7
 10
-3.48686337471003
 20
80.9181604385376
 30
0.0
 11
-3.48686337471003
 21
91.4181604385376
 31
0.0
  0
LINE
  5
   347
  8
0
  6
CONTINUOUS
 62
     7
 10
-3.48686337471003
 20
67.4181604385376
 30
0.0
 11
-3.48686337471003
 21
79.9181604385376
 31
0.0
  0
LINE
  5
   348
  8
0
  6
CONTINUOUS
 62
     7
 10
77.51313662529
 20
67.4181604385376
 30
0.0
 11
77.51313662529
 21
163.418160438538
 31
0.0
  0
LINE
  5
   349
  8
0
  6
CONTINUOUS
 62
     7
 10
76.51313662529
 20
80.9181604385376
 30
0.0
 11
76.51313662529
 21
91.4181604385376
 31
0.0
  0
LINE
  5
   34A
  8
0
  6
CONTINUOUS
 62
     7
 10
76.51313662529
 20
67.4181604385376
 30
0.0
 11
76.51313662529
 21
79.9181604385376
 31
0.0
  0
LINE
  5
   34B
  8
0
  6
CONTINUOUS
 62
     7
 10
76.51313662529
 20
139.418160438538
 30
0.0
 11
76.51313662529
 21
149.918160438538
 31
0.0
  0
LINE
  5
   34C
  8
0
  6
CONTINUOUS
 62
     7
 10
-4.48686337471003
 20
150.918160438538
 30
0.0
 11
77.51313662529
 21
150.918160438538
 31
0.0
  0
LINE
  5
   34D
  8
0
  6
CONTINUOUS
 62
     7
 10
-3.48686337471003
 20
149.918160438538
 30
0.0
 11
76.51313662529
 21
149.918160438538
 31
0.0
  0
LINE
  5
   34E
  8
0
  6
CONTINUOUS
 62
     7
 10
-3.48686337471003
 20
79.9181604385376
 30
0.0
 11
76.51313662529
 21
79.9181604385376
 31
0.0
  0
LINE
  5
   34F
  8
0
  6
CONTINUOUS
 62
     7
 10
-3.48686337471003
 20
80.9181604385376
 30
0.0
 11
76.51313662529
 21
80.9181604385376
 31
0.0
  0
LINE
  5
   350
  8
0
  6
CONTINUOUS
 62
     7
 10
-4.48686337471003
 20
157.918160438538
 30
0.0
 11
-4.18686032295221
 21
157.918160438538
 31
0.0
  0
LINE
  5
   351
  8
0
  6
CONTINUOUS
 62
     7
 10
-4.48686337471003
 20
156.418160438538
 30
0.0
 11
-4.18686032295221
 21
156.418160438538
 31
0.0
  0
LINE
  5
   352
  8
0
  6
CONTINUOUS
 62
     7
 10
77.2131364345551
 20
157.918160438538
 30
0.0
 11
77.51313662529
 21
157.918160438538
 31
0.0
  0
LINE
  5
   353
  8
0
  6
CONTINUOUS
 62
     7
 10
77.2131364345551
 20
156.418160438538
 30
0.0
 11
77.51313662529
 21
156.418160438538
 31
0.0
  0
ARC
  5
   354
  8
0
  6
CONTINUOUS
 62
     7
 10
-4.18690026562822
 20
157.168135520583
 30
0.0
 40
0.750043449440929
 50
270.002994872341
 51
449.997011910154
  0
ARC
  5
   355
  8
0
  6
CONTINUOUS
 62
     7
 10
77.2131512976727
 20
157.168154928407
 30
0.0
 40
0.750014940188872
 50
90.0011356573896
 51
269.998857743064
  0
ARC
  5
   356
  8
0
  6
CONTINUOUS
 62
     7
 10
80.76313662529
 20
162.168160438538
 30
0.0
 40
1.25
 50
0.0
 51
90.0
  0
ARC
  5
   357
  8
0
  6
CONTINUOUS
 62
     7
 10
-7.73686337471003
 20
162.168160438538
 30
0.0
 40
1.25
 50
90.0
 51
180.0
  0
ARC
  5
   358
  8
0
  6
CONTINUOUS
 62
     7
 10
-7.73686337471003
 20
68.6681604385376
 30
0.0
 40
1.25
 50
180.0
 51
270.0
  0
ARC
  5
   359
  8
0
  6
CONTINUOUS
 62
     7
 10
80.76313662529
 20
68.6681604385376
 30
0.0
 40
1.25
 50
270.0
 51
360.0
  0
LINE
  5
   35A
  8
0
  6
CONTINUOUS
 62
     7
 10
77.01313662529
 20
91.4181604385376
 30
0.0
 11
77.01313662529
 21
139.418160438538
 31
0.0
  0
LINE
  5
   35B
  8
0
  6
CONTINUOUS
 62
     7
 10
-3.98686337471003
 20
91.4181604385376
 30
0.0
 11
-3.98686337471003
 21
139.418160438538
 31
0.0
  0
LINE
  5
   35C
  8
0
  6
CONTINUOUS
 62
   130
 10
-2.4868643283844
 20
187.418090820313
 30
0.0
 11
-2.4868643283844
 21
187.418090820313
 31
0.0
  0
LINE
  5
   35D
  8
0
  6
CONTINUOUS
 62
   130
 10
-2.4868643283844
 20
187.418090820313
 30
0.0
 11
-2.4868643283844
 21
187.418090820313
 31
0.0
  0
LINE
  5
   35E
  8
0
  6
CONTINUOUS
 62
   130
 10
-2.4868643283844
 20
187.418090820313
 30
0.0
 11
-2.4868643283844
 21
187.418090820313
 31
0.0
  0
LINE
  5
   35F
  8
0
  6
CONTINUOUS
 62
   130
 10
-2.4868643283844
 20
187.418090820313
 30
0.0
 11
-2.4868643283844
 21
187.418090820313
 31
0.0
  0
LINE
  5
   360
  8
0
  6
CONTINUOUS
 62
   130
 10
-2.4868643283844
 20
187.418090820313
 30
0.0
 11
-2.4868643283844
 21
187.418090820313
 31
0.0
  0
LINE
  5
   361
  8
0
  6
CONTINUOUS
 62
   130
 10
-2.4868643283844
 20
187.418090820313
 30
0.0
 11
-2.4868643283844
 21
187.418090820313
 31
0.0
  0
LINE
  5
   362
  8
0
  6
CONTINUOUS
 62
   130
 10
-2.4868643283844
 20
187.418090820313
 30
0.0
 11
-2.4868643283844
 21
187.418090820313
 31
0.0
  0
LINE
  5
   363
  8
0
  6
CONTINUOUS
 62
   130
 10
-2.4868643283844
 20
187.418090820313
 30
0.0
 11
-2.4868643283844
 21
187.418090820313
 31
0.0
  0
LINE
  5
   364
  8
0
  6
CONTINUOUS
 62
   130
 10
-2.4868643283844
 20
187.418090820313
 30
0.0
 11
-2.4868643283844
 21
187.418090820313
 31
0.0
  0
LINE
  5
   365
  8
0
  6
CONTINUOUS
 62
   130
 10
-2.4868643283844
 20
187.418090820313
 30
0.0
 11
-2.4868643283844
 21
187.418090820313
 31
0.0
  0
LINE
  5
   366
  8
0
  6
CONTINUOUS
 62
   130
 10
-2.4868643283844
 20
187.418090820313
 30
0.0
 11
-2.4868643283844
 21
187.418090820313
 31
0.0
  0
LINE
  5
   367
  8
0
  6
CONTINUOUS
 62
   130
 10
-2.4868643283844
 20
187.418090820313
 30
0.0
 11
-2.4868643283844
 21
187.418090820313
 31
0.0
  0
LINE
  5
   368
  8
0
  6
CONTINUOUS
 62
   130
 10
-2.4868643283844
 20
187.418090820313
 30
0.0
 11
-2.4868643283844
 21
187.418090820313
 31
0.0
  0
LINE
  5
   369
  8
0
  6
CONTINUOUS
 62
   130
 10
-2.4868643283844
 20
187.418090820313
 30
0.0
 11
-2.4868643283844
 21
187.418090820313
 31
0.0
  0
LINE
  5
   36A
  8
0
  6
CONTINUOUS
 62
   130
 10
-2.4868643283844
 20
187.418090820313
 30
0.0
 11
-2.4868643283844
 21
187.418090820313
 31
0.0
  0
LINE
  5
   36B
  8
0
  6
CONTINUOUS
 62
   130
 10
-2.4868643283844
 20
187.418090820313
 30
0.0
 11
-2.4868643283844
 21
187.418090820313
 31
0.0
  0
LINE
  5
   36C
  8
0
  6
CONTINUOUS
 62
   130
 10
-2.4868643283844
 20
187.418090820313
 30
0.0
 11
-2.4868643283844
 21
187.418090820313
 31
0.0
  0
LINE
  5
   36D
  8
0
  6
CONTINUOUS
 62
   130
 10
-2.4868643283844
 20
187.418090820313
 30
0.0
 11
-2.4868643283844
 21
187.418090820313
 31
0.0
  0
LINE
  5
   36E
  8
0
  6
CONTINUOUS
 62
   130
 10
-2.4868643283844
 20
187.418090820313
 30
0.0
 11
-2.4868643283844
 21
187.418090820313
 31
0.0
  0
LINE
  5
   36F
  8
0
  6
CONTINUOUS
 62
   130
 10
-2.4868643283844
 20
187.418090820313
 30
0.0
 11
-2.4868643283844
 21
187.418090820313
 31
0.0
  0
LINE
  5
   370
  8
0
  6
CONTINUOUS
 62
   130
 10
-2.4868643283844
 20
187.418090820313
 30
0.0
 11
-2.4868643283844
 21
187.418090820313
 31
0.0
  0
LINE
  5
   371
  8
0
  6
CONTINUOUS
 62
   130
 10
-2.4868643283844
 20
187.418090820313
 30
0.0
 11
-2.4868643283844
 21
187.418090820313
 31
0.0
  0
LINE
  5
   372
  8
0
  6
CONTINUOUS
 62
   130
 10
-2.4868643283844
 20
187.418090820313
 30
0.0
 11
-2.4868643283844
 21
187.418090820313
 31
0.0
  0
LINE
  5
   373
  8
0
  6
CONTINUOUS
 62
   130
 10
-2.4868643283844
 20
187.418090820313
 30
0.0
 11
-2.4868643283844
 21
187.418090820313
 31
0.0
  0
LINE
  5
   374
  8
0
  6
CONTINUOUS
 62
   130
 10
-2.4868643283844
 20
187.418090820313
 30
0.0
 11
-2.4868643283844
 21
187.418090820313
 31
0.0
  0
LINE
  5
   375
  8
0
  6
CONTINUOUS
 62
   130
 10
-2.4868643283844
 20
187.418090820313
 30
0.0
 11
-2.4868643283844
 21
187.418090820313
 31
0.0
  0
LINE
  5
   376
  8
0
  6
CONTINUOUS
 62
   130
 10
-2.4868643283844
 20
187.418090820313
 30
0.0
 11
-2.4868643283844
 21
187.418090820313
 31
0.0
  0
LINE
  5
   377
  8
0
  6
CONTINUOUS
 62
   130
 10
-2.4868643283844
 20
187.418090820313
 30
0.0
 11
-2.4868643283844
 21
187.418090820313
 31
0.0
  0
LINE
  5
   378
  8
0
  6
CONTINUOUS
 62
   130
 10
-2.4868643283844
 20
187.418090820313
 30
0.0
 11
-2.4868643283844
 21
187.418090820313
 31
0.0
  0
LINE
  5
   379
  8
0
  6
DASHDOT
 62
   130
 10
-41.6724912279751
 20
115.418090820307
 30
0.0
 11
87.5105925523529
 21
115.418090820307
 31
0.0
  0
LINE
  5
   37A
  8
0
  6
CONTINUOUS
 62
   252
 10
75.5131356716156
 20
163.418160438538
 30
0.0
 11
75.5131356716156
 21
171.118091583252
 31
0.0
  0
LINE
  5
   37B
  8
0
  6
CONTINUOUS
 62
   252
 10
-2.4868643283844
 20
163.418160438538
 30
0.0
 11
-2.4868643283844
 21
171.118091583252
 31
0.0
  0
LINE
  5
   37C
  8
0
  6
CONTINUOUS
 62
   252
 10
25.2131364345551
 20
92.9180908203125
 30
0.0
 11
75.5131356716156
 21
92.9180908203125
 31
0.0
  0
LINE
  5
   37D
  8
0
  6
CONTINUOUS
 62
   252
 10
25.2131364345551
 20
137.918090820313
 30
0.0
 11
75.5131356716156
 21
137.918090820313
 31
0.0
  0
LINE
  5
   37E
  8
0
  6
CONTINUOUS
 62
   252
 10
-1.9868643283844
 20
189.418090820313
 30
0.0
 11
75.0131356716156
 21
189.418090820313
 31
0.0
  0
LINE
  5
   37F
  8
0
  6
CONTINUOUS
 62
   252
 10
-1.9868643283844
 20
65.4180908203125
 30
0.0
 11
75.0131356716156
 21
65.4180908203125
 31
0.0
  0
LINE
  5
   380
  8
0
  6
DASHDOT
 62
     7
 10
69.5132785438401
 20
161.168072513509
 30
0.0
 11
69.5132785438401
 21
173.668072513509
 31
0.0
  0
LINE
  5
   381
  8
0
  6
DASHDOT
 62
     7
 10
63.26327854384
 20
167.418072513509
 30
0.0
 11
75.7632785438401
 21
167.418072513509
 31
0.0
  0
INSERT
  5
   382
  8
255
  6
CONTINUOUS
 62
     7
  2
TC_M4_CROCE____F
 10
69.5132785438401
 20
167.418072513509
 30
0.0
 50
89.9999999480344
  0
LINE
  5
   383
  8
0
  6
DASHDOT
 62
     7
 10
25.2131356716156
 20
99.3428348027287
 30
0.0
 11
25.2131356716156
 21
130.920594786794
 31
0.0
  0
ARC
  5
   384
  8
0
  6
CONTINUOUS
 62
     7
 10
75.0131356716156
 20
188.918090820313
 30
0.0
 40
0.5
 50
0.0
 51
90.0
  0
ARC
  5
   385
  8
0
  6
CONTINUOUS
 62
     7
 10
-1.9868643283844
 20
188.918090820313
 30
0.0
 40
0.5
 50
90.0
 51
180.0
  0
ARC
  5
   386
  8
0
  6
CONTINUOUS
 62
     7
 10
-1.9868643283844
 20
65.9180908203125
 30
0.0
 40
0.5
 50
180.0
 51
270.0
  0
ARC
  5
   387
  8
0
  6
CONTINUOUS
 62
     7
 10
75.0131356716156
 20
65.9180908203125
 30
0.0
 40
0.5
 50
270.0
 51
360.0
  0
LINE
  5
   388
  8
0
  6
CONTINUOUS
 62
     7
 10
-1.4868643283844
 20
173.118090629578
 30
0.0
 11
-1.4868643283844
 21
189.418090820313
 31
0.0
  0
LINE
  5
   389
  8
0
  6
CONTINUOUS
 62
     7
 10
-0.486864328384399
 20
173.118090629578
 30
0.0
 11
-0.486864328384399
 21
189.418090820313
 31
0.0
  0
LINE
  5
   38A
  8
0
  6
CONTINUOUS
 62
     7
 10
0.513135671615601
 20
173.118090629578
 30
0.0
 11
0.513135671615601
 21
189.418090820313
 31
0.0
  0
LINE
  5
   38B
  8
0
  6
CONTINUOUS
 62
     7
 10
1.5131356716156
 20
173.118090629578
 30
0.0
 11
1.5131356716156
 21
189.418090820313
 31
0.0
  0
LINE
  5
   38C
  8
0
  6
CONTINUOUS
 62
     7
 10
2.5131356716156
 20
173.118090629578
 30
0.0
 11
2.5131356716156
 21
189.418090820313
 31
0.0
  0
LINE
  5
   38D
  8
0
  6
CONTINUOUS
 62
     7
 10
3.5131356716156
 20
173.118090629578
 30
0.0
 11
3.5131356716156
 21
189.418090820313
 31
0.0
  0
LINE
  5
   38E
  8
0
  6
CONTINUOUS
 62
     7
 10
4.5131356716156
 20
173.118090629578
 30
0.0
 11
4.5131356716156
 21
189.418090820313
 31
0.0
  0
LINE
  5
   38F
  8
0
  6
CONTINUOUS
 62
     7
 10
5.5131356716156
 20
173.118090629578
 30
0.0
 11
5.5131356716156
 21
189.418090820313
 31
0.0
  0
LINE
  5
   390
  8
0
  6
CONTINUOUS
 62
     7
 10
6.5131356716156
 20
173.118090629578
 30
0.0
 11
6.5131356716156
 21
189.418090820313
 31
0.0
  0
LINE
  5
   391
  8
0
  6
CONTINUOUS
 62
     7
 10
7.5131356716156
 20
173.118090629578
 30
0.0
 11
7.5131356716156
 21
189.418090820313
 31
0.0
  0
LINE
  5
   392
  8
0
  6
CONTINUOUS
 62
     7
 10
8.5131356716156
 20
173.118090629578
 30
0.0
 11
8.5131356716156
 21
189.418090820313
 31
0.0
  0
LINE
  5
   393
  8
0
  6
CONTINUOUS
 62
     7
 10
9.5131356716156
 20
173.118090629578
 30
0.0
 11
9.5131356716156
 21
189.418090820313
 31
0.0
  0
LINE
  5
   394
  8
0
  6
CONTINUOUS
 62
     7
 10
10.5131356716156
 20
173.118090629578
 30
0.0
 11
10.5131356716156
 21
189.418090820313
 31
0.0
  0
LINE
  5
   395
  8
0
  6
CONTINUOUS
 62
     7
 10
11.5131356716156
 20
173.118090629578
 30
0.0
 11
11.5131356716156
 21
189.418090820313
 31
0.0
  0
LINE
  5
   396
  8
0
  6
CONTINUOUS
 62
     7
 10
12.5131356716156
 20
173.118090629578
 30
0.0
 11
12.5131356716156
 21
189.418090820313
 31
0.0
  0
LINE
  5
   397
  8
0
  6
CONTINUOUS
 62
     7
 10
13.5131356716156
 20
173.118090629578
 30
0.0
 11
13.5131356716156
 21
189.418090820313
 31
0.0
  0
LINE
  5
   398
  8
0
  6
CONTINUOUS
 62
     7
 10
14.5131356716156
 20
173.118090629578
 30
0.0
 11
14.5131356716156
 21
189.418090820313
 31
0.0
  0
LINE
  5
   399
  8
0
  6
CONTINUOUS
 62
     7
 10
15.5131356716156
 20
173.118090629578
 30
0.0
 11
15.5131356716156
 21
189.418090820313
 31
0.0
  0
LINE
  5
   39A
  8
0
  6
CONTINUOUS
 62
     7
 10
16.5131356716156
 20
173.118090629578
 30
0.0
 11
16.5131356716156
 21
189.418090820313
 31
0.0
  0
LINE
  5
   39B
  8
0
  6
CONTINUOUS
 62
     7
 10
17.5131356716156
 20
173.118090629578
 30
0.0
 11
17.5131356716156
 21
189.418090820313
 31
0.0
  0
LINE
  5
   39C
  8
0
  6
CONTINUOUS
 62
     7
 10
18.5131356716156
 20
173.118090629578
 30
0.0
 11
18.5131356716156
 21
189.418090820313
 31
0.0
  0
LINE
  5
   39D
  8
0
  6
CONTINUOUS
 62
     7
 10
19.5131356716156
 20
173.118090629578
 30
0.0
 11
19.5131356716156
 21
189.418090820313
 31
0.0
  0
LINE
  5
   39E
  8
0
  6
CONTINUOUS
 62
     7
 10
20.5131356716156
 20
173.118090629578
 30
0.0
 11
20.5131356716156
 21
189.418090820313
 31
0.0
  0
LINE
  5
   39F
  8
0
  6
CONTINUOUS
 62
     7
 10
21.5131356716156
 20
173.118090629578
 30
0.0
 11
21.5131356716156
 21
189.418090820313
 31
0.0
  0
LINE
  5
   3A0
  8
0
  6
CONTINUOUS
 62
     7
 10
22.5131356716156
 20
173.118090629578
 30
0.0
 11
22.5131356716156
 21
189.418090820313
 31
0.0
  0
LINE
  5
   3A1
  8
0
  6
CONTINUOUS
 62
     7
 10
23.5131356716156
 20
173.118090629578
 30
0.0
 11
23.5131356716156
 21
189.418090820313
 31
0.0
  0
LINE
  5
   3A2
  8
0
  6
CONTINUOUS
 62
     7
 10
24.5131356716156
 20
173.118090629578
 30
0.0
 11
24.5131356716156
 21
189.418090820313
 31
0.0
  0
LINE
  5
   3A3
  8
0
  6
CONTINUOUS
 62
     7
 10
25.5131356716156
 20
173.118090629578
 30
0.0
 11
25.5131356716156
 21
189.418090820313
 31
0.0
  0
LINE
  5
   3A4
  8
0
  6
CONTINUOUS
 62
     7
 10
26.5131356716156
 20
173.118090629578
 30
0.0
 11
26.5131356716156
 21
189.418090820313
 31
0.0
  0
LINE
  5
   3A5
  8
0
  6
CONTINUOUS
 62
     7
 10
27.5131356716156
 20
173.118090629578
 30
0.0
 11
27.5131356716156
 21
189.418090820313
 31
0.0
  0
LINE
  5
   3A6
  8
0
  6
CONTINUOUS
 62
     7
 10
28.5131356716156
 20
173.118090629578
 30
0.0
 11
28.5131356716156
 21
189.418090820313
 31
0.0
  0
LINE
  5
   3A7
  8
0
  6
CONTINUOUS
 62
     7
 10
29.5131356716156
 20
173.118090629578
 30
0.0
 11
29.5131356716156
 21
189.418090820313
 31
0.0
  0
LINE
  5
   3A8
  8
0
  6
CONTINUOUS
 62
     7
 10
30.5131356716156
 20
173.118090629578
 30
0.0
 11
30.5131356716156
 21
189.418090820313
 31
0.0
  0
LINE
  5
   3A9
  8
0
  6
CONTINUOUS
 62
     7
 10
31.5131356716156
 20
173.118090629578
 30
0.0
 11
31.5131356716156
 21
189.418090820313
 31
0.0
  0
LINE
  5
   3AA
  8
0
  6
CONTINUOUS
 62
     7
 10
32.5131356716156
 20
173.118090629578
 30
0.0
 11
32.5131356716156
 21
189.418090820313
 31
0.0
  0
LINE
  5
   3AB
  8
0
  6
CONTINUOUS
 62
     7
 10
33.5131356716156
 20
173.118090629578
 30
0.0
 11
33.5131356716156
 21
189.418090820313
 31
0.0
  0
LINE
  5
   3AC
  8
0
  6
CONTINUOUS
 62
     7
 10
34.5131356716156
 20
173.118090629578
 30
0.0
 11
34.5131356716156
 21
189.418090820313
 31
0.0
  0
LINE
  5
   3AD
  8
0
  6
CONTINUOUS
 62
     7
 10
35.5131356716156
 20
173.118090629578
 30
0.0
 11
35.5131356716156
 21
189.418090820313
 31
0.0
  0
LINE
  5
   3AE
  8
0
  6
CONTINUOUS
 62
     7
 10
36.5131356716156
 20
173.118090629578
 30
0.0
 11
36.5131356716156
 21
189.418090820313
 31
0.0
  0
LINE
  5
   3AF
  8
0
  6
CONTINUOUS
 62
     7
 10
37.5131356716156
 20
173.118090629578
 30
0.0
 11
37.5131356716156
 21
189.418090820313
 31
0.0
  0
LINE
  5
   3B0
  8
0
  6
CONTINUOUS
 62
     7
 10
38.5131356716156
 20
173.118090629578
 30
0.0
 11
38.5131356716156
 21
189.418090820313
 31
0.0
  0
LINE
  5
   3B1
  8
0
  6
CONTINUOUS
 62
     7
 10
39.5131356716156
 20
173.118090629578
 30
0.0
 11
39.5131356716156
 21
189.418090820313
 31
0.0
  0
LINE
  5
   3B2
  8
0
  6
CONTINUOUS
 62
     7
 10
40.5131356716156
 20
173.118090629578
 30
0.0
 11
40.5131356716156
 21
189.418090820313
 31
0.0
  0
LINE
  5
   3B3
  8
0
  6
CONTINUOUS
 62
     7
 10
41.5131356716156
 20
173.118090629578
 30
0.0
 11
41.5131356716156
 21
189.418090820313
 31
0.0
  0
LINE
  5
   3B4
  8
0
  6
CONTINUOUS
 62
     7
 10
42.5131356716156
 20
173.118090629578
 30
0.0
 11
42.5131356716156
 21
189.418090820313
 31
0.0
  0
LINE
  5
   3B5
  8
0
  6
CONTINUOUS
 62
     7
 10
43.5131356716156
 20
173.118090629578
 30
0.0
 11
43.5131356716156
 21
189.418090820313
 31
0.0
  0
LINE
  5
   3B6
  8
0
  6
CONTINUOUS
 62
     7
 10
44.5131356716156
 20
173.118090629578
 30
0.0
 11
44.5131356716156
 21
189.418090820313
 31
0.0
  0
LINE
  5
   3B7
  8
0
  6
CONTINUOUS
 62
     7
 10
45.5131356716156
 20
173.118090629578
 30
0.0
 11
45.5131356716156
 21
189.418090820313
 31
0.0
  0
LINE
  5
   3B8
  8
0
  6
CONTINUOUS
 62
     7
 10
46.5131356716156
 20
173.118090629578
 30
0.0
 11
46.5131356716156
 21
189.418090820313
 31
0.0
  0
LINE
  5
   3B9
  8
0
  6
CONTINUOUS
 62
     7
 10
47.5131356716156
 20
173.118090629578
 30
0.0
 11
47.5131356716156
 21
189.418090820313
 31
0.0
  0
LINE
  5
   3BA
  8
0
  6
CONTINUOUS
 62
     7
 10
48.5131356716156
 20
173.118090629578
 30
0.0
 11
48.5131356716156
 21
189.418090820313
 31
0.0
  0
LINE
  5
   3BB
  8
0
  6
CONTINUOUS
 62
     7
 10
49.5131356716156
 20
173.118090629578
 30
0.0
 11
49.5131356716156
 21
189.418090820313
 31
0.0
  0
LINE
  5
   3BC
  8
0
  6
CONTINUOUS
 62
     7
 10
50.5131356716156
 20
173.118090629578
 30
0.0
 11
50.5131356716156
 21
189.418090820313
 31
0.0
  0
LINE
  5
   3BD
  8
0
  6
CONTINUOUS
 62
     7
 10
51.5131356716156
 20
173.118090629578
 30
0.0
 11
51.5131356716156
 21
189.418090820313
 31
0.0
  0
LINE
  5
   3BE
  8
0
  6
CONTINUOUS
 62
     7
 10
52.5131356716156
 20
173.118090629578
 30
0.0
 11
52.5131356716156
 21
189.418090820313
 31
0.0
  0
LINE
  5
   3BF
  8
0
  6
CONTINUOUS
 62
     7
 10
53.5131356716156
 20
173.118090629578
 30
0.0
 11
53.5131356716156
 21
189.418090820313
 31
0.0
  0
LINE
  5
   3C0
  8
0
  6
CONTINUOUS
 62
     7
 10
54.5131356716156
 20
173.118090629578
 30
0.0
 11
54.5131356716156
 21
189.418090820313
 31
0.0
  0
LINE
  5
   3C1
  8
0
  6
CONTINUOUS
 62
     7
 10
55.5131356716156
 20
173.118090629578
 30
0.0
 11
55.5131356716156
 21
189.418090820313
 31
0.0
  0
LINE
  5
   3C2
  8
0
  6
CONTINUOUS
 62
     7
 10
56.5131356716156
 20
173.118090629578
 30
0.0
 11
56.5131356716156
 21
189.418090820313
 31
0.0
  0
LINE
  5
   3C3
  8
0
  6
CONTINUOUS
 62
     7
 10
57.5131356716156
 20
173.118090629578
 30
0.0
 11
57.5131356716156
 21
189.418090820313
 31
0.0
  0
LINE
  5
   3C4
  8
0
  6
CONTINUOUS
 62
     7
 10
58.5131356716156
 20
173.118090629578
 30
0.0
 11
58.5131356716156
 21
189.418090820313
 31
0.0
  0
LINE
  5
   3C5
  8
0
  6
CONTINUOUS
 62
     7
 10
59.5131356716156
 20
173.118090629578
 30
0.0
 11
59.5131356716156
 21
189.418090820313
 31
0.0
  0
LINE
  5
   3C6
  8
0
  6
CONTINUOUS
 62
     7
 10
60.5131356716156
 20
173.118090629578
 30
0.0
 11
60.5131356716156
 21
189.418090820313
 31
0.0
  0
LINE
  5
   3C7
  8
0
  6
CONTINUOUS
 62
     7
 10
61.5131356716156
 20
173.118090629578
 30
0.0
 11
61.5131356716156
 21
189.418090820313
 31
0.0
  0
LINE
  5
   3C8
  8
0
  6
CONTINUOUS
 62
     7
 10
62.5131356716156
 20
173.118090629578
 30
0.0
 11
62.5131356716156
 21
189.418090820313
 31
0.0
  0
LINE
  5
   3C9
  8
0
  6
CONTINUOUS
 62
     7
 10
63.5131356716156
 20
173.118090629578
 30
0.0
 11
63.5131356716156
 21
189.418090820313
 31
0.0
  0
LINE
  5
   3CA
  8
0
  6
CONTINUOUS
 62
     7
 10
64.5131356716156
 20
173.118090629578
 30
0.0
 11
64.5131356716156
 21
189.418090820313
 31
0.0
  0
LINE
  5
   3CB
  8
0
  6
CONTINUOUS
 62
     7
 10
65.5131356716156
 20
173.118090629578
 30
0.0
 11
65.5131356716156
 21
189.418090820313
 31
0.0
  0
LINE
  5
   3CC
  8
0
  6
CONTINUOUS
 62
     7
 10
66.5131356716156
 20
173.118090629578
 30
0.0
 11
66.5131356716156
 21
189.418090820313
 31
0.0
  0
LINE
  5
   3CD
  8
0
  6
CONTINUOUS
 62
     7
 10
67.5131356716156
 20
173.118090629578
 30
0.0
 11
67.5131356716156
 21
189.418090820313
 31
0.0
  0
LINE
  5
   3CE
  8
0
  6
CONTINUOUS
 62
     7
 10
68.5131356716156
 20
173.118090629578
 30
0.0
 11
68.5131356716156
 21
189.418090820313
 31
0.0
  0
LINE
  5
   3CF
  8
0
  6
CONTINUOUS
 62
     7
 10
69.5131356716156
 20
173.118090629578
 30
0.0
 11
69.5131356716156
 21
189.418090820313
 31
0.0
  0
LINE
  5
   3D0
  8
0
  6
CONTINUOUS
 62
     7
 10
70.5131356716156
 20
173.118090629578
 30
0.0
 11
70.5131356716156
 21
189.418090820313
 31
0.0
  0
LINE
  5
   3D1
  8
0
  6
CONTINUOUS
 62
     7
 10
71.5131356716156
 20
173.118090629578
 30
0.0
 11
71.5131356716156
 21
189.418090820313
 31
0.0
  0
LINE
  5
   3D2
  8
0
  6
CONTINUOUS
 62
     7
 10
72.5131356716156
 20
173.118090629578
 30
0.0
 11
72.5131356716156
 21
189.418090820313
 31
0.0
  0
LINE
  5
   3D3
  8
0
  6
CONTINUOUS
 62
     7
 10
73.5131356716156
 20
173.118090629578
 30
0.0
 11
73.5131356716156
 21
189.418090820313
 31
0.0
  0
LINE
  5
   3D4
  8
0
  6
CONTINUOUS
 62
     7
 10
74.5131356716156
 20
173.118090629578
 30
0.0
 11
74.5131356716156
 21
189.418090820313
 31
0.0
  0
INSERT
  5
   3D5
  8
0
  6
CONTINUOUS
 62
     3
  2
*UDIM1228
 10
0.0
 20
0.0
 30
0.0
  0
INSERT
  5
   3D6
  8
0
  6
CONTINUOUS
 62
     7
  2
*UDIM1229
 10
0.0
 20
0.0
 30
0.0
  0
INSERT
  5
   3D7
  8
0
  6
CONTINUOUS
 62
     7
  2
*UDIM1230
 10
0.0
 20
0.0
 30
0.0
  0
INSERT
  5
   3D8
  8
0
  6
CONTINUOUS
 62
     7
  2
*UDIM1231
 10
0.0
 20
0.0
 30
0.0
  0
INSERT
  5
   3D9
  8
0
  6
CONTINUOUS
 62
     7
  2
*UDIM1232
 10
0.0
 20
0.0
 30
0.0
  0
INSERT
  5
   3DA
  8
0
  6
CONTINUOUS
 62
     7
  2
*UDIM1233
 10
0.0
 20
0.0
 30
0.0
  0
INSERT
  5
   3DB
  8
0
  6
CONTINUOUS
 62
     7
  2
*UDIM1234
 10
0.0
 20
0.0
 30
0.0
  0
TEXT
  5
   3DC
  8
0
  6
CONTINUOUS
 62
     2
 10
90.5726112568113
 20
113.407537349192
 30
0.0
 40
3.5
  1
X
 41
0.933333333333334
 72
     1
 11
91.8559445901446
 21
115.157537349192
 31
0.0
 73
     2
  0
LINE
  5
   3DD
  8
0
  6
DASHDOT
 62
     7
 10
36.5131356716156
 20
58.162481139299
 30
0.0
 11
36.5131356716156
 21
193.82989440417
 31
0.0
  0
TEXT
  5
   3DE
  8
0
  6
CONTINUOUS
 62
     2
 10
35.3041718580257
 20
53.3962818425754
 30
0.0
 40
3.5
  1
Y
 41
0.933333333333334
 72
     1
 11
36.5875051913591
 21
55.1462818425754
 31
0.0
 73
     2
  0
TEXT
  5
   3DF
  8
0
  6
CONTINUOUS
 62
     2
 10
35.119506594961
 20
196.6349708931
 30
0.0
 40
3.5
  1
Y
 41
0.933333333333334
 72
     1
 11
36.4028399282944
 21
198.3849708931
 31
0.0
 73
     2
  0
LINE
  5
   3E0
  8
0
  6
CONTINUOUS
 62
   252
 10
78.0131661891937
 20
67.4180603027344
 30
0.0
 11
78.026052236557
 21
67.4180755615234
 31
0.0
  0
LINE
  5
   3E1
  8
0
  6
CONTINUOUS
 62
   252
 10
81.5131204128266
 20
72.4122543334945
 30
0.0
 11
81.5131585597992
 21
72.417991638182
 31
0.0
  0
LINE
  5
   3E2
  8
0
  6
CONTINUOUS
 62
     7
 10
45.2109391689301
 20
115.26975250244
 30
0.0
 11
45.2131402492523
 21
115.418090820312
 31
0.0
  0
LINE
  5
   3E3
  8
0
  6
CONTINUOUS
 62
     7
 10
44.8127534389496
 20
113.511077880859
 30
0.0
 11
45.2109391689301
 21
115.269752502441
 31
0.0
  0
LINE
  5
   3E4
  8
0
  6
CONTINUOUS
 62
     7
 10
5.21313881874085
 20
115.418090820312
 30
0.0
 11
5.21533989906311
 21
115.566429138183
 31
0.0
  0
LINE
  5
   3E5
  8
0
  6
CONTINUOUS
 62
     7
 10
5.21533989906312
 20
115.566429138184
 30
0.0
 11
5.61352419853211
 21
117.325103759766
 31
0.0
  0
LINE
  5
   3E6
  8
0
  6
CONTINUOUS
 62
     7
 10
-3.98686337471003
 20
111.718090820313
 30
0.0
 11
-2.4868643283844
 21
111.718090820313
 31
0.0
  0
LINE
  5
   3E7
  8
0
  6
CONTINUOUS
 62
     7
 10
-3.98686337471003
 20
125.118090820312
 30
0.0
 11
-2.4868643283844
 21
125.118090820312
 31
0.0
  0
LINE
  5
   3E8
  8
0
  6
CONTINUOUS
 62
     7
 10
-3.98686337471003
 20
127.118090820313
 30
0.0
 11
-2.4868643283844
 21
127.118090820313
 31
0.0
  0
LINE
  5
   3E9
  8
0
  6
CONTINUOUS
 62
     7
 10
-3.98686337471003
 20
109.718090820312
 30
0.0
 11
-2.4868643283844
 21
109.718090820312
 31
0.0
  0
LINE
  5
   3EA
  8
0
  6
CONTINUOUS
 62
   252
 10
-7.23682294176834
 20
163.418160438538
 30
0.0
 11
-7.23682294176834
 21
169.418060302734
 31
0.0
  0
LINE
  5
   3EB
  8
0
  6
CONTINUOUS
 62
   252
 10
80.2631770581021
 20
163.418160438538
 30
0.0
 11
80.2631770581021
 21
169.418060302734
 31
0.0
  0
LINE
  5
   3EC
  8
0
  6
CONTINUOUS
 62
   252
 10
75.5131356716156
 20
169.418060302722
 30
0.0
 11
80.2631738185883
 21
169.418060302722
 31
0.0
  0
LINE
  5
   3ED
  8
0
  6
CONTINUOUS
 62
   252
 10
-7.23682284355164
 20
169.418060302722
 30
0.0
 11
-2.48686432838441
 21
169.418060302722
 31
0.0
  0
LINE
  5
   3EE
  8
0
  6
CONTINUOUS
 62
   252
 10
75.5131356716156
 20
171.418060302722
 30
0.0
 11
81.5131585597992
 21
171.418060302722
 31
0.0
  0
LINE
  5
   3EF
  8
0
  6
CONTINUOUS
 62
   252
 10
-8.48680758476257
 20
171.418060302722
 30
0.0
 11
-2.4868643283844
 21
171.418060302722
 31
0.0
  0
LINE
  5
   3F0
  8
0
  6
CONTINUOUS
 62
   252
 10
75.5131356716156
 20
172.918060302722
 30
0.0
 11
81.5131585597992
 21
172.918060302722
 31
0.0
  0
LINE
  5
   3F1
  8
0
  6
CONTINUOUS
 62
   252
 10
-8.48680996894836
 20
172.918060302722
 30
0.0
 11
-2.4868643283844
 21
172.918060302722
 31
0.0
  0
ARC
  5
   3F2
  8
0
  6
CONTINUOUS
 62
   252
 10
80.513161689523
 20
182.417973654
 30
0.0
 40
1.0000000000321
 50
4.96462232477837E-3
 51
90.0010534928974
  0
LINE
  5
   3F3
  8
0
  6
CONTINUOUS
 62
   252
 10
79.0131433010101
 20
183.418060302722
 30
0.0
 11
80.5131433010101
 21
183.418060302722
 31
0.0
  0
LINE
  5
   3F4
  8
0
  6
CONTINUOUS
 62
   252
 10
79.0131463953589
 20
183.418060302734
 30
0.0
 11
79.0131463953589
 21
186.418017148972
 31
0.0
  0
ARC
  5
   3F5
  8
0
  6
CONTINUOUS
 62
   252
 10
78.0131610791862
 20
186.417973653453
 30
0.0
 40
1.00000000003194
 50
2.49215401277593E-3
 51
90.0005814319655
  0
ARC
  5
   3F6
  8
0
  6
CONTINUOUS
 62
   252
 10
-4.98678508145199
 20
186.417973654001
 30
0.0
 40
1.00000000003177
 50
90.0009614123363
 51
179.995028638295
  0
LINE
  5
   3F7
  8
0
  6
CONTINUOUS
 62
   252
 10
-5.98680068079256
 20
183.418060302734
 30
0.0
 11
-5.98680068079256
 21
186.418060421944
 31
0.0
  0
LINE
  5
   3F8
  8
0
  6
CONTINUOUS
 62
   252
 10
-7.4868152141571
 20
183.418060302722
 30
0.0
 11
-5.98680067062378
 21
183.418060302722
 31
0.0
  0
ARC
  5
   3F9
  8
0
  6
CONTINUOUS
 62
   252
 10
-7.48680779277807
 20
182.41797365444
 30
0.0
 40
1.00000000003176
 50
90.000425176856
 51
180.000007731249
  0
LINE
  5
   3FA
  8
0
  6
CONTINUOUS
 62
   252
 10
-4.98680186271667
 20
187.418060302722
 30
0.0
 11
-2.4868643283844
 21
187.418060302722
 31
0.0
  0
LINE
  5
   3FB
  8
0
  6
CONTINUOUS
 62
   252
 10
75.5131356716156
 20
187.418060302722
 30
0.0
 11
78.0131509304047
 21
187.418060302722
 31
0.0
  0
LINE
  5
   3FC
  8
0
  6
CONTINUOUS
 62
   252
 10
-8.48679947853088
 20
137.918075562103
 30
0.0
 11
-8.48679900169373
 21
137.618076325043
 31
0.0
  0
LINE
  5
   3FD
  8
0
  6
CONTINUOUS
 62
   252
 10
-8.48680768297662
 20
163.418160438538
 30
0.0
 11
-8.48680768297662
 21
171.418060302734
 31
0.0
  0
LINE
  5
   3FE
  8
0
  6
CONTINUOUS
 62
   252
 10
-8.4868097481078
 20
171.418060302734
 30
0.0
 11
-8.4868097481078
 21
172.918060302734
 31
0.0
  0
LINE
  5
   3FF
  8
0
  6
CONTINUOUS
 62
   252
 10
-8.48681232948894
 20
172.918060302734
 30
0.0
 11
-8.48681232948894
 21
182.417973518372
 31
0.0
  0
LINE
  5
   400
  8
0
  6
CONTINUOUS
 62
   252
 10
81.5131597341801
 20
171.418060302734
 30
0.0
 11
81.5131597341801
 21
172.918060302734
 31
0.0
  0
LINE
  5
   401
  8
0
  6
CONTINUOUS
 62
   252
 10
81.5131571527989
 20
163.418160438538
 30
0.0
 11
81.5131571527989
 21
182.418060302734
 31
0.0
  0
ARC
  5
   402
  8
0
  6
CONTINUOUS
 62
     7
 10
25.2131356716156
 20
115.418090820313
 30
0.0
 40
20.0
 50
180.000371563232
 51
270.000002185661
  0
ARC
  5
   403
  8
0
  6
CONTINUOUS
 62
     7
 10
25.2131356716156
 20
115.418090820313
 30
0.0
 40
20.0
 50
270.000002185661
 51
359.575003140817
  0
ARC
  5
   404
  8
0
  6
CONTINUOUS
 62
     7
 10
25.2131356716156
 20
115.418090820313
 30
0.0
 40
20.0
 50
89.9999978143395
 51
179.575002976655
  0
ARC
  5
   405
  8
0
  6
CONTINUOUS
 62
     7
 10
25.2131356716156
 20
115.418090820313
 30
0.0
 40
20.0
 50
6.77556938829495E-4
 51
89.9999978143394
  0
POLYLINE
  5
   406
  8
0
  6
CONTINUOUS
 62
     7
 66
     1
 10
0.0
 20
0.0
 30
0.0
  0
VERTEX
  5
   407
  8
0
  6
CONTINUOUS
 10
5.59433213934017
 20
117.33306071006
 30
0.0
 40
0.0
 41
0.0
  0
VERTEX
  5
   408
  8
0
  6
CONTINUOUS
 10
5.65271107363258
 20
117.468206821308
 30
0.0
 40
0.0
 41
0.0
  0
VERTEX
  5
   409
  8
0
  6
CONTINUOUS
 10
5.71504572653929
 20
117.601573470836
 30
0.0
 40
0.0
 41
0.0
  0
VERTEX
  5
   40A
  8
0
  6
CONTINUOUS
 10
5.78128166358939
 20
117.733045341089
 30
0.0
 40
0.0
 41
0.0
  0
VERTEX
  5
   40B
  8
0
  6
CONTINUOUS
 10
5.85136101267851
 20
117.862508825166
 30
0.0
 40
0.0
 41
0.0
  0
VERTEX
  5
   40C
  8
0
  6
CONTINUOUS
 10
5.92522254030923
 20
117.989852103058
 30
0.0
 40
0.0
 41
0.0
  0
VERTEX
  5
   40D
  8
0
  6
CONTINUOUS
 10
6.00280172783149
 20
118.114965217884
 30
0.0
 40
0.0
 41
0.0
  0
VERTEX
  5
   40E
  8
0
  6
CONTINUOUS
 10
6.08403084768303
 20
118.237740152139
 30
0.0
 40
0.0
 41
0.0
  0
VERTEX
  5
   40F
  8
0
  6
CONTINUOUS
 10
6.16883903962981
 20
118.358070903929
 30
0.0
 40
0.0
 41
0.0
  0
VERTEX
  5
   410
  8
0
  6
CONTINUOUS
 10
6.25715238700639
 20
118.475853563213
 30
0.0
 40
0.0
 41
0.0
  0
VERTEX
  5
   411
  8
0
  6
CONTINUOUS
 10
6.34889399295639
 20
118.590986388044
 30
0.0
 40
0.0
 41
0.0
  0
VERTEX
  5
   412
  8
0
  6
CONTINUOUS
 10
6.44398405667291
 20
118.703369880809
 30
0.0
 40
0.0
 41
0.0
  0
VERTEX
  5
   413
  8
0
  6
CONTINUOUS
 10
6.5423399496389
 20
118.812906864471
 30
0.0
 40
0.0
 41
0.0
  0
VERTEX
  5
   414
  8
0
  6
CONTINUOUS
 10
6.64387629186765
 20
118.919502558806
 30
0.0
 40
0.0
 41
0.0
  0
VERTEX
  5
   415
  8
0
  6
CONTINUOUS
 10
6.74850502814314
 20
119.023064656647
 30
0.0
 40
0.0
 41
0.0
  0
VERTEX
  5
   416
  8
0
  6
CONTINUOUS
 10
6.85613550426051
 20
119.123503400122
 30
0.0
 40
0.0
 41
0.0
  0
VERTEX
  5
   417
  8
0
  6
CONTINUOUS
 10
6.96667454326644
 20
119.220731656897
 30
0.0
 40
0.0
 41
0.0
  0
VERTEX
  5
   418
  8
0
  6
CONTINUOUS
 10
7.0800265216996
 20
119.314664996413
 30
0.0
 40
0.0
 41
0.0
  0
VERTEX
  5
   419
  8
0
  6
CONTINUOUS
 10
7.19609344583106
 20
119.405221766132
 30
0.0
 40
0.0
 41
0.0
  0
VERTEX
  5
   41A
  8
0
  6
CONTINUOUS
 10
7.31477502790469
 20
119.492323167769
 30
0.0
 40
0.0
 41
0.0
  0
VERTEX
  5
   41B
  8
0
  6
CONTINUOUS
 10
7.43596876237761
 20
119.575893333542
 30
0.0
 40
0.0
 41
0.0
  0
VERTEX
  5
   41C
  8
0
  6
CONTINUOUS
 10
7.55957000216057
 20
119.655859402406
 30
0.0
 40
0.0
 41
0.0
  0
VERTEX
  5
   41D
  8
0
  6
CONTINUOUS
 10
7.68547203485841
 20
119.732151596296
 30
0.0
 40
0.0
 41
0.0
  0
VERTEX
  5
   41E
  8
0
  6
CONTINUOUS
 10
7.81356615901045
 20
119.804703296366
 30
0.0
 40
0.0
 41
0.0
  0
VERTEX
  5
   41F
  8
0
  6
CONTINUOUS
 10
7.94374176033092
 20
119.873451119231
 30
0.0
 40
0.0
 41
0.0
  0
VERTEX
  5
   420
  8
0
  6
CONTINUOUS
 10
8.07588638794939
 20
119.938334993208
 30
0.0
 40
0.0
 41
0.0
  0
VERTEX
  5
   421
  8
0
  6
CONTINUOUS
 10
8.20988583065114
 20
119.999298234554
 30
0.0
 40
0.0
 41
0.0
  0
VERTEX
  5
   422
  8
0
  6
CONTINUOUS
 10
8.34562419311765
 20
120.056287623709
 30
0.0
 40
0.0
 41
0.0
  0
VERTEX
  5
   423
  8
0
  6
CONTINUOUS
 10
8.48298397216698
 20
120.109253481533
 30
0.0
 40
0.0
 41
0.0
  0
VERTEX
  5
   424
  8
0
  6
CONTINUOUS
 10
8.62184613299416
 20
120.158149745552
 30
0.0
 40
0.0
 41
0.0
  0
VERTEX
  5
   425
  8
0
  6
CONTINUOUS
 10
8.76209018541168
 20
120.202934046193
 30
0.0
 40
0.0
 41
0.0
  0
VERTEX
  5
   426
  8
0
  6
CONTINUOUS
 10
8.90359426008983
 20
120.243567783028
 30
0.0
 40
0.0
 41
0.0
  0
VERTEX
  5
   427
  8
0
  6
CONTINUOUS
 10
9.04623518479721
 20
120.280016201014
 30
0.0
 40
0.0
 41
0.0
  0
VERTEX
  5
   428
  8
0
  6
CONTINUOUS
 10
9.18988856064104
 20
120.31224846673
 30
0.0
 40
0.0
 41
0.0
  0
VERTEX
  5
   429
  8
0
  6
CONTINUOUS
 10
9.33442883830767
 20
120.340237744624
 30
0.0
 40
0.0
 41
0.0
  0
VERTEX
  5
   42A
  8
0
  6
CONTINUOUS
 10
9.47972939430296
 20
120.363961273246
 30
0.0
 40
0.0
 41
0.0
  0
VERTEX
  5
   42B
  8
0
  6
CONTINUOUS
 10
9.62566260719268
 20
120.383400441495
 30
0.0
 40
0.0
 41
0.0
  0
VERTEX
  5
   42C
  8
0
  6
CONTINUOUS
 10
9.77209993384298
 20
120.398540864856
 30
0.0
 40
0.0
 41
0.0
  0
VERTEX
  5
   42D
  8
0
  6
CONTINUOUS
 10
9.91891198566078
 20
120.409372461641
 30
0.0
 40
0.0
 41
0.0
  0
VERTEX
  5
   42E
  8
0
  6
CONTINUOUS
 10
10.0659686048342
 20
120.415889529229
 30
0.0
 40
0.0
 41
0.0
  0
VERTEX
  5
   42F
  8
0
  6
CONTINUOUS
 10
10.2131389405728
 20
120.418090820307
 30
0.0
 40
0.0
 41
0.0
  0
SEQEND
  5
   430
  8
0
  6
CONTINUOUS
 62
     7
  0
POLYLINE
  5
   431
  8
0
  6
CONTINUOUS
 62
     7
 66
     1
 10
0.0
 20
0.0
 30
0.0
  0
VERTEX
  5
   432
  8
0
  6
CONTINUOUS
 10
10.2131389405809
 20
110.418090820322
 30
0.0
 40
0.0
 41
0.0
  0
VERTEX
  5
   433
  8
0
  6
CONTINUOUS
 10
10.0168759250377
 20
110.421987060838
 30
0.0
 40
0.0
 41
0.0
  0
VERTEX
  5
   434
  8
0
  6
CONTINUOUS
 10
9.8208929107278
 20
110.433559702254
 30
0.0
 40
0.0
 41
0.0
  0
VERTEX
  5
   435
  8
0
  6
CONTINUOUS
 10
9.62549950412495
 20
110.452800489769
 30
0.0
 40
0.0
 41
0.0
  0
VERTEX
  5
   436
  8
0
  6
CONTINUOUS
 10
9.43100295811221
 20
110.4796872329
 30
0.0
 40
0.0
 41
0.0
  0
VERTEX
  5
   437
  8
0
  6
CONTINUOUS
 10
9.23770785025683
 20
110.514184127198
 30
0.0
 40
0.0
 41
0.0
  0
VERTEX
  5
   438
  8
0
  6
CONTINUOUS
 10
9.04591576108524
 20
110.556242075979
 30
0.0
 40
0.0
 41
0.0
  0
VERTEX
  5
   439
  8
0
  6
CONTINUOUS
 10
8.85592495235803
 20
110.605799012049
 30
0.0
 40
0.0
 41
0.0
  0
VERTEX
  5
   43A
  8
0
  6
CONTINUOUS
 10
8.6680300453449
 20
110.662780219423
 30
0.0
 40
0.0
 41
0.0
  0
VERTEX
  5
   43B
  8
0
  6
CONTINUOUS
 10
8.48252169909967
 20
110.727098655057
 30
0.0
 40
0.0
 41
0.0
  0
VERTEX
  5
   43C
  8
0
  6
CONTINUOUS
 10
8.29968628873522
 20
110.798655270567
 30
0.0
 40
0.0
 41
0.0
  0
VERTEX
  5
   43D
  8
0
  6
CONTINUOUS
 10
8.11980558369846
 20
110.877339333957
 30
0.0
 40
0.0
 41
0.0
  0
VERTEX
  5
   43E
  8
0
  6
CONTINUOUS
 10
7.94315642604535
 20
110.963028751342
 30
0.0
 40
0.0
 41
0.0
  0
VERTEX
  5
   43F
  8
0
  6
CONTINUOUS
 10
7.77001040871583
 20
111.055590388674
 30
0.0
 40
0.0
 41
0.0
  0
VERTEX
  5
   440
  8
0
  6
CONTINUOUS
 10
7.6006335538088
 20
111.154880393467
 30
0.0
 40
0.0
 41
0.0
  0
VERTEX
  5
   441
  8
0
  6
CONTINUOUS
 10
7.43528599085711
 20
111.260744516521
 30
0.0
 40
0.0
 41
0.0
  0
VERTEX
  5
   442
  8
0
  6
CONTINUOUS
 10
7.27422163510254
 20
111.373018433644
 30
0.0
 40
0.0
 41
0.0
  0
VERTEX
  5
   443
  8
0
  6
CONTINUOUS
 10
7.11768786577072
 20
111.491528067384
 30
0.0
 40
0.0
 41
0.0
  0
VERTEX
  5
   444
  8
0
  6
CONTINUOUS
 10
6.96592520434617
 20
111.616089908746
 30
0.0
 40
0.0
 41
0.0
  0
VERTEX
  5
   445
  8
0
  6
CONTINUOUS
 10
6.81916699284725
 20
111.746511338921
 30
0.0
 40
0.0
 41
0.0
  0
VERTEX
  5
   446
  8
0
  6
CONTINUOUS
 10
6.67763907210112
 20
111.882590951011
 30
0.0
 40
0.0
 41
0.0
  0
VERTEX
  5
   447
  8
0
  6
CONTINUOUS
 10
6.54155946001872
 20
112.024118871749
 30
0.0
 40
0.0
 41
0.0
  0
VERTEX
  5
   448
  8
0
  6
CONTINUOUS
 10
6.41113802986974
 20
112.170877083232
 30
0.0
 40
0.0
 41
0.0
  0
VERTEX
  5
   449
  8
0
  6
CONTINUOUS
 10
6.28657618855763
 20
112.322639744639
 30
0.0
 40
0.0
 41
0.0
  0
VERTEX
  5
   44A
  8
0
  6
CONTINUOUS
 10
6.16806655489453
 20
112.479173513955
 30
0.0
 40
0.0
 41
0.0
  0
VERTEX
  5
   44B
  8
0
  6
CONTINUOUS
 10
6.05579263787623
 20
112.640237869704
 30
0.0
 40
0.0
 41
0.0
  0
VERTEX
  5
   44C
  8
0
  6
CONTINUOUS
 10
5.94992851495723
 20
112.805585432664
 30
0.0
 40
0.0
 41
0.0
  0
VERTEX
  5
   44D
  8
0
  6
CONTINUOUS
 10
5.8506385103256
 20
112.974962287598
 30
0.0
 40
0.0
 41
0.0
  0
VERTEX
  5
   44E
  8
0
  6
CONTINUOUS
 10
5.75807687317804
 20
113.148108304977
 30
0.0
 40
0.0
 41
0.0
  0
VERTEX
  5
   44F
  8
0
  6
CONTINUOUS
 10
5.67238745599482
 20
113.324757462702
 30
0.0
 40
0.0
 41
0.0
  0
VERTEX
  5
   450
  8
0
  6
CONTINUOUS
 10
5.59370339281474
 20
113.504638167836
 30
0.0
 40
0.0
 41
0.0
  0
VERTEX
  5
   451
  8
0
  6
CONTINUOUS
 10
5.52214677751015
 20
113.687473578319
 30
0.0
 40
0.0
 41
0.0
  0
VERTEX
  5
   452
  8
0
  6
CONTINUOUS
 10
5.45782834206188
 20
113.872981924702
 30
0.0
 40
0.0
 41
0.0
  0
VERTEX
  5
   453
  8
0
  6
CONTINUOUS
 10
5.40084713483421
 20
114.060876831864
 30
0.0
 40
0.0
 41
0.0
  0
VERTEX
  5
   454
  8
0
  6
CONTINUOUS
 10
5.35129019884989
 20
114.250867640744
 30
0.0
 40
0.0
 41
0.0
  0
VERTEX
  5
   455
  8
0
  6
CONTINUOUS
 10
5.30923225006506
 20
114.44265973006
 30
0.0
 40
0.0
 41
0.0
  0
VERTEX
  5
   456
  8
0
  6
CONTINUOUS
 10
5.27473535564429
 20
114.635954838035
 30
0.0
 40
0.0
 41
0.0
  0
VERTEX
  5
   457
  8
0
  6
CONTINUOUS
 10
5.24784861223546
 20
114.830451384124
 30
0.0
 40
0.0
 41
0.0
  0
VERTEX
  5
   458
  8
0
  6
CONTINUOUS
 10
5.22860782424482
 20
115.025844790738
 30
0.0
 40
0.0
 41
0.0
  0
VERTEX
  5
   459
  8
0
  6
CONTINUOUS
 10
5.21703518211193
 20
115.221827804966
 30
0.0
 40
0.0
 41
0.0
  0
VERTEX
  5
   45A
  8
0
  6
CONTINUOUS
 10
5.21313894058462
 20
115.418090820304
 30
0.0
 40
0.0
 41
0.0
  0
SEQEND
  5
   45B
  8
0
  6
CONTINUOUS
 62
     7
  0
LINE
  5
   45C
  8
0
  6
CONTINUOUS
 62
     7
 10
10.213139295578
 20
110.418090820313
 30
0.0
 11
40.2131402492523
 21
110.418090820313
 31
0.0
  0
POLYLINE
  5
   45D
  8
0
  6
CONTINUOUS
 62
     7
 66
     1
 10
0.0
 20
0.0
 30
0.0
  0
VERTEX
  5
   45E
  8
0
  6
CONTINUOUS
 10
44.8319457044704
 20
113.503120844622
 30
0.0
 40
0.0
 41
0.0
  0
VERTEX
  5
   45F
  8
0
  6
CONTINUOUS
 10
44.7735667687844
 20
113.367974736484
 30
0.0
 40
0.0
 41
0.0
  0
VERTEX
  5
   460
  8
0
  6
CONTINUOUS
 10
44.7112321146375
 20
113.234608090097
 30
0.0
 40
0.0
 41
0.0
  0
VERTEX
  5
   461
  8
0
  6
CONTINUOUS
 10
44.6449961764957
 20
113.103136223006
 30
0.0
 40
0.0
 41
0.0
  0
VERTEX
  5
   462
  8
0
  6
CONTINUOUS
 10
44.5749168264593
 20
112.973672742106
 30
0.0
 40
0.0
 41
0.0
  0
VERTEX
  5
   463
  8
0
  6
CONTINUOUS
 10
44.5010552980223
 20
112.8463294674
 30
0.0
 40
0.0
 41
0.0
  0
VERTEX
  5
   464
  8
0
  6
CONTINUOUS
 10
44.4234761098318
 20
112.721216355761
 30
0.0
 40
0.0
 41
0.0
  0
VERTEX
  5
   465
  8
0
  6
CONTINUOUS
 10
44.3422469894474
 20
112.598441424686
 30
0.0
 40
0.0
 41
0.0
  0
VERTEX
  5
   466
  8
0
  6
CONTINUOUS
 10
44.2574387971011
 20
112.478110676061
 30
0.0
 40
0.0
 41
0.0
  0
VERTEX
  5
   467
  8
0
  6
CONTINUOUS
 10
44.1691254494566
 20
112.360328019919
 30
0.0
 40
0.0
 41
0.0
  0
VERTEX
  5
   468
  8
0
  6
CONTINUOUS
 10
44.0773838433688
 20
112.245195198198
 30
0.0
 40
0.0
 41
0.0
  0
VERTEX
  5
   469
  8
0
  6
CONTINUOUS
 10
43.9822937796435
 20
112.132811708503
 30
0.0
 40
0.0
 41
0.0
  0
VERTEX
  5
   46A
  8
0
  6
CONTINUOUS
 10
43.8839378867965
 20
112.023274727864
 30
0.0
 40
0.0
 41
0.0
  0
VERTEX
  5
   46B
  8
0
  6
CONTINUOUS
 10
43.7824015448138
 20
111.916679036496
 30
0.0
 40
0.0
 41
0.0
  0
VERTEX
  5
   46C
  8
0
  6
CONTINUOUS
 10
43.6777728089104
 20
111.813116941558
 30
0.0
 40
0.0
 41
0.0
  0
VERTEX
  5
   46D
  8
0
  6
CONTINUOUS
 10
43.5701423332903
 20
111.712678200915
 30
0.0
 40
0.0
 41
0.0
  0
VERTEX
  5
   46E
  8
0
  6
CONTINUOUS
 10
43.459603294906
 20
111.615449946893
 30
0.0
 40
0.0
 41
0.0
  0
VERTEX
  5
   46F
  8
0
  6
CONTINUOUS
 10
43.3462513172177
 20
111.521516610044
 30
0.0
 40
0.0
 41
0.0
  0
VERTEX
  5
   470
  8
0
  6
CONTINUOUS
 10
43.2301843939531
 20
111.430959842901
 30
0.0
 40
0.0
 41
0.0
  0
VERTEX
  5
   471
  8
0
  6
CONTINUOUS
 10
43.1115028128669
 20
111.343858443742
 30
0.0
 40
0.0
 41
0.0
  0
VERTEX
  5
   472
  8
0
  6
CONTINUOUS
 10
42.9903090795003
 20
111.260288280345
 30
0.0
 40
0.0
 41
0.0
  0
VERTEX
  5
   473
  8
0
  6
CONTINUOUS
 10
42.8667078409403
 20
111.18032221375
 30
0.0
 40
0.0
 41
0.0
  0
VERTEX
  5
   474
  8
0
  6
CONTINUOUS
 10
42.7408058095797
 20
111.104030022018
 30
0.0
 40
0.0
 41
0.0
  0
VERTEX
  5
   475
  8
0
  6
CONTINUOUS
 10
42.612711686876
 20
111.031478323993
 30
0.0
 40
0.0
 41
0.0
  0
VERTEX
  5
   476
  8
0
  6
CONTINUOUS
 10
42.4825360871116
 20
110.962730503057
 30
0.0
 40
0.0
 41
0.0
  0
VERTEX
  5
   477
  8
0
  6
CONTINUOUS
 10
42.3503914611528
 20
110.897846630894
 30
0.0
 40
0.0
 41
0.0
  0
VERTEX
  5
   478
  8
0
  6
CONTINUOUS
 10
42.2163920202096
 20
110.836883391245
 30
0.0
 40
0.0
 41
0.0
  0
VERTEX
  5
   479
  8
0
  6
CONTINUOUS
 10
42.080653659595
 20
110.779894003674
 30
0.0
 40
0.0
 41
0.0
  0
VERTEX
  5
   47A
  8
0
  6
CONTINUOUS
 10
41.9432938824847
 20
110.726928147321
 30
0.0
 40
0.0
 41
0.0
  0
VERTEX
  5
   47B
  8
0
  6
CONTINUOUS
 10
41.8044317236766
 20
110.678031884664
 30
0.0
 40
0.0
 41
0.0
  0
VERTEX
  5
   47C
  8
0
  6
CONTINUOUS
 10
41.6641876733504
 20
110.633247585283
 30
0.0
 40
0.0
 41
0.0
  0
VERTEX
  5
   47D
  8
0
  6
CONTINUOUS
 10
41.5226836008269
 20
110.59261384961
 30
0.0
 40
0.0
 41
0.0
  0
VERTEX
  5
   47E
  8
0
  6
CONTINUOUS
 10
41.3800426783275
 20
110.556165432699
 30
0.0
 40
0.0
 41
0.0
  0
VERTEX
  5
   47F
  8
0
  6
CONTINUOUS
 10
41.2363893047342
 20
110.523933167978
 30
0.0
 40
0.0
 41
0.0
  0
VERTEX
  5
   480
  8
0
  6
CONTINUOUS
 10
41.0918490293485
 20
110.495943891012
 30
0.0
 40
0.0
 41
0.0
  0
VERTEX
  5
   481
  8
0
  6
CONTINUOUS
 10
40.9465484756514
 20
110.472220363262
 30
0.0
 40
0.0
 41
0.0
  0
VERTEX
  5
   482
  8
0
  6
CONTINUOUS
 10
40.8006152650625
 20
110.452781195846
 30
0.0
 40
0.0
 41
0.0
  0
VERTEX
  5
   483
  8
0
  6
CONTINUOUS
 10
40.6541779407001
 20
110.437640773294
 30
0.0
 40
0.0
 41
0.0
  0
VERTEX
  5
   484
  8
0
  6
CONTINUOUS
 10
40.50736589114
 20
110.426809177313
 30
0.0
 40
0.0
 41
0.0
  0
VERTEX
  5
   485
  8
0
  6
CONTINUOUS
 10
40.3603092741757
 20
110.420292110545
 30
0.0
 40
0.0
 41
0.0
  0
VERTEX
  5
   486
  8
0
  6
CONTINUOUS
 10
40.2131389405775
 20
110.418090820322
 30
0.0
 40
0.0
 41
0.0
  0
SEQEND
  5
   487
  8
0
  6
CONTINUOUS
 62
     7
  0
POLYLINE
  5
   488
  8
0
  6
CONTINUOUS
 62
     7
 66
     1
 10
0.0
 20
0.0
 30
0.0
  0
VERTEX
  5
   489
  8
0
  6
CONTINUOUS
 10
40.2131389405776
 20
120.418090820302
 30
0.0
 40
0.0
 41
0.0
  0
VERTEX
  5
   48A
  8
0
  6
CONTINUOUS
 10
40.4094019561209
 20
120.414194579786
 30
0.0
 40
0.0
 41
0.0
  0
VERTEX
  5
   48B
  8
0
  6
CONTINUOUS
 10
40.6053849704309
 20
120.402621938371
 30
0.0
 40
0.0
 41
0.0
  0
VERTEX
  5
   48C
  8
0
  6
CONTINUOUS
 10
40.8007783770338
 20
120.383381150855
 30
0.0
 40
0.0
 41
0.0
  0
VERTEX
  5
   48D
  8
0
  6
CONTINUOUS
 10
40.9952749230465
 20
120.356494407725
 30
0.0
 40
0.0
 41
0.0
  0
VERTEX
  5
   48E
  8
0
  6
CONTINUOUS
 10
41.1885700309018
 20
120.321997513427
 30
0.0
 40
0.0
 41
0.0
  0
VERTEX
  5
   48F
  8
0
  6
CONTINUOUS
 10
41.3803621200733
 20
120.279939564645
 30
0.0
 40
0.0
 41
0.0
  0
VERTEX
  5
   490
  8
0
  6
CONTINUOUS
 10
41.5703529288004
 20
120.230382628575
 30
0.0
 40
0.0
 41
0.0
  0
VERTEX
  5
   491
  8
0
  6
CONTINUOUS
 10
41.7582478358134
 20
120.173401421201
 30
0.0
 40
0.0
 41
0.0
  0
VERTEX
  5
   492
  8
0
  6
CONTINUOUS
 10
41.9437561820585
 20
120.109082985567
 30
0.0
 40
0.0
 41
0.0
  0
VERTEX
  5
   493
  8
0
  6
CONTINUOUS
 10
42.1265915924229
 20
120.037526370057
 30
0.0
 40
0.0
 41
0.0
  0
VERTEX
  5
   494
  8
0
  6
CONTINUOUS
 10
42.3064722974596
 20
119.958842306668
 30
0.0
 40
0.0
 41
0.0
  0
VERTEX
  5
   495
  8
0
  6
CONTINUOUS
 10
42.4831214551127
 20
119.873152889283
 30
0.0
 40
0.0
 41
0.0
  0
VERTEX
  5
   496
  8
0
  6
CONTINUOUS
 10
42.6562674724421
 20
119.78059125195
 30
0.0
 40
0.0
 41
0.0
  0
VERTEX
  5
   497
  8
0
  6
CONTINUOUS
 10
42.8256443273491
 20
119.681301247157
 30
0.0
 40
0.0
 41
0.0
  0
VERTEX
  5
   498
  8
0
  6
CONTINUOUS
 10
42.9909918903008
 20
119.575437124104
 30
0.0
 40
0.0
 41
0.0
  0
VERTEX
  5
   499
  8
0
  6
CONTINUOUS
 10
43.1520562460554
 20
119.46316320698
 30
0.0
 40
0.0
 41
0.0
  0
VERTEX
  5
   49A
  8
0
  6
CONTINUOUS
 10
43.3085900153872
 20
119.34465357324
 30
0.0
 40
0.0
 41
0.0
  0
VERTEX
  5
   49B
  8
0
  6
CONTINUOUS
 10
43.4603526768118
 20
119.220091731878
 30
0.0
 40
0.0
 41
0.0
  0
VERTEX
  5
   49C
  8
0
  6
CONTINUOUS
 10
43.6071108883108
 20
119.089670301703
 30
0.0
 40
0.0
 41
0.0
  0
VERTEX
  5
   49D
  8
0
  6
CONTINUOUS
 10
43.748638809057
 20
118.953590689614
 30
0.0
 40
0.0
 41
0.0
  0
VERTEX
  5
   49E
  8
0
  6
CONTINUOUS
 10
43.8847184211394
 20
118.812062768875
 30
0.0
 40
0.0
 41
0.0
  0
VERTEX
  5
   49F
  8
0
  6
CONTINUOUS
 10
44.0151398512884
 20
118.665304557392
 30
0.0
 40
0.0
 41
0.0
  0
VERTEX
  5
   4A0
  8
0
  6
CONTINUOUS
 10
44.1397016926006
 20
118.513541895986
 30
0.0
 40
0.0
 41
0.0
  0
VERTEX
  5
   4A1
  8
0
  6
CONTINUOUS
 10
44.2582113262637
 20
118.357008126669
 30
0.0
 40
0.0
 41
0.0
  0
VERTEX
  5
   4A2
  8
0
  6
CONTINUOUS
 10
44.370485243282
 20
118.19594377092
 30
0.0
 40
0.0
 41
0.0
  0
VERTEX
  5
   4A3
  8
0
  6
CONTINUOUS
 10
44.476349366201
 20
118.03059620796
 30
0.0
 40
0.0
 41
0.0
  0
VERTEX
  5
   4A4
  8
0
  6
CONTINUOUS
 10
44.5756393708326
 20
117.861219353026
 30
0.0
 40
0.0
 41
0.0
  0
VERTEX
  5
   4A5
  8
0
  6
CONTINUOUS
 10
44.6682010079801
 20
117.688073335648
 30
0.0
 40
0.0
 41
0.0
  0
VERTEX
  5
   4A6
  8
0
  6
CONTINUOUS
 10
44.7538904251633
 20
117.511424177922
 30
0.0
 40
0.0
 41
0.0
  0
VERTEX
  5
   4A7
  8
0
  6
CONTINUOUS
 10
44.8325744883433
 20
117.331543472789
 30
0.0
 40
0.0
 41
0.0
  0
VERTEX
  5
   4A8
  8
0
  6
CONTINUOUS
 10
44.9041311036478
 20
117.148708062305
 30
0.0
 40
0.0
 41
0.0
  0
VERTEX
  5
   4A9
  8
0
  6
CONTINUOUS
 10
44.968449539096
 20
116.963199715923
 30
0.0
 40
0.0
 41
0.0
  0
VERTEX
  5
   4AA
  8
0
  6
CONTINUOUS
 10
45.0254307463235
 20
116.77530480876
 30
0.0
 40
0.0
 41
0.0
  0
VERTEX
  5
   4AB
  8
0
  6
CONTINUOUS
 10
45.0749876823078
 20
116.58531399988
 30
0.0
 40
0.0
 41
0.0
  0
VERTEX
  5
   4AC
  8
0
  6
CONTINUOUS
 10
45.1170456310925
 20
116.393521910564
 30
0.0
 40
0.0
 41
0.0
  0
VERTEX
  5
   4AD
  8
0
  6
CONTINUOUS
 10
45.1515425255132
 20
116.200226802589
 30
0.0
 40
0.0
 41
0.0
  0
VERTEX
  5
   4AE
  8
0
  6
CONTINUOUS
 10
45.178429268922
 20
116.0057302565
 30
0.0
 40
0.0
 41
0.0
  0
VERTEX
  5
   4AF
  8
0
  6
CONTINUOUS
 10
45.1976700569127
 20
115.810336849886
 30
0.0
 40
0.0
 41
0.0
  0
VERTEX
  5
   4B0
  8
0
  6
CONTINUOUS
 10
45.2092426990456
 20
115.614353835658
 30
0.0
 40
0.0
 41
0.0
  0
VERTEX
  5
   4B1
  8
0
  6
CONTINUOUS
 10
45.2131389405731
 20
115.41809082032
 30
0.0
 40
0.0
 41
0.0
  0
SEQEND
  5
   4B2
  8
0
  6
CONTINUOUS
 62
     7
  0
LINE
  5
   4B3
  8
0
  6
CONTINUOUS
 62
     7
 10
10.213139295578
 20
120.418090820313
 30
0.0
 11
40.2131402492523
 21
120.418090820313
 31
0.0
  0
LINE
  5
   4B4
  8
0
  6
CONTINUOUS
 62
   252
 10
75.5131356716156
 20
65.9180908203125
 30
0.0
 11
75.5131356716156
 21
67.4181604385376
 31
0.0
  0
LINE
  5
   4B5
  8
0
  6
CONTINUOUS
 62
   252
 10
-2.4868643283844
 20
65.9180908203125
 30
0.0
 11
-2.4868643283844
 21
67.4181604385376
 31
0.0
  0
LINE
  5
   4B6
  8
0
  6
CONTINUOUS
 62
   252
 10
75.5131356716156
 20
173.118090629578
 30
0.0
 11
75.5131356716156
 21
189.418090820313
 31
0.0
  0
LINE
  5
   4B7
  8
0
  6
CONTINUOUS
 62
   252
 10
-2.4868643283844
 20
173.118090629578
 30
0.0
 11
-2.4868643283844
 21
189.418090820313
 31
0.0
  0
LINE
  5
   4B8
  8
0
  6
CONTINUOUS
 62
   252
 10
71.604306936264
 20
171.118090820313
 30
0.0
 11
75.5131356716156
 21
171.118090820313
 31
0.0
  0
LINE
  5
   4B9
  8
0
  6
CONTINUOUS
 62
   252
 10
-2.4868643283844
 20
171.118090820313
 30
0.0
 11
67.4222543239594
 21
171.118090820313
 31
0.0
  0
LINE
  5
   4BA
  8
0
  6
CONTINUOUS
 62
   252
 10
75.5131356716156
 20
163.418160438538
 30
0.0
 11
75.5131356716156
 21
171.118091583252
 31
0.0
  0
LINE
  5
   4BB
  8
0
  6
CONTINUOUS
 62
   252
 10
-2.4868643283844
 20
163.418160438538
 30
0.0
 11
-2.4868643283844
 21
171.118091583252
 31
0.0
  0
LINE
  5
   4BC
  8
0
  6
CONTINUOUS
 62
   252
 10
25.2131364345551
 20
92.9180908203125
 30
0.0
 11
75.5131356716156
 21
92.9180908203125
 31
0.0
  0
LINE
  5
   4BD
  8
0
  6
CONTINUOUS
 62
   252
 10
-2.4868643283844
 20
92.9180908203125
 30
0.0
 11
25.2131364345551
 21
92.9180908203125
 31
0.0
  0
LINE
  5
   4BE
  8
0
  6
CONTINUOUS
 62
   252
 10
25.2131364345551
 20
137.918090820313
 30
0.0
 11
75.5131356716156
 21
137.918090820313
 31
0.0
  0
LINE
  5
   4BF
  8
0
  6
CONTINUOUS
 62
   252
 10
-2.4868643283844
 20
137.918090820313
 30
0.0
 11
25.2131364345551
 21
137.918090820313
 31
0.0
  0
LINE
  5
   4C0
  8
0
  6
CONTINUOUS
 62
   252
 10
66.2631356716156
 20
105.164161682129
 30
0.0
 11
66.2631356716156
 21
125.664157867432
 31
0.0
  0
LINE
  5
   4C1
  8
0
  6
CONTINUOUS
 62
   252
 10
63.7631356716156
 20
105.164159700478
 30
0.0
 11
66.2631356716156
 21
105.164159700478
 31
0.0
  0
LINE
  5
   4C2
  8
0
  6
CONTINUOUS
 62
   252
 10
63.7631356716156
 20
125.664159700478
 30
0.0
 11
66.2631356716156
 21
125.664159700478
 31
0.0
  0
LINE
  5
   4C3
  8
0
  6
CONTINUOUS
 62
   252
 10
63.7631356716156
 20
105.164161682129
 30
0.0
 11
63.7631356716156
 21
125.664157867432
 31
0.0
  0
LINE
  5
   4C4
  8
0
  6
CONTINUOUS
 62
   252
 10
75.5131356716156
 20
92.9180908203125
 30
0.0
 11
75.5131356716156
 21
137.918090820313
 31
0.0
  0
LINE
  5
   4C5
  8
0
  6
CONTINUOUS
 62
   252
 10
-2.4868643283844
 20
92.9180908203125
 30
0.0
 11
-2.4868643283844
 21
137.918090820313
 31
0.0
  0
LINE
  5
   4C6
  8
0
  6
CONTINUOUS
 62
   252
 10
-2.4868643283844
 20
171.118091583252
 30
0.0
 11
-2.4868643283844
 21
173.118090629578
 31
0.0
  0
LINE
  5
   4C7
  8
0
  6
CONTINUOUS
 62
   252
 10
-2.4868643283844
 20
173.118090820313
 30
0.0
 11
75.5131356716156
 21
173.118090820313
 31
0.0
  0
LINE
  5
   4C8
  8
0
  6
CONTINUOUS
 62
   252
 10
75.5131356716156
 20
171.118091583252
 30
0.0
 11
75.5131356716156
 21
173.118090629578
 31
0.0
  0
LINE
  5
   4C9
  8
0
  6
CONTINUOUS
 62
   252
 10
-2.4868643283844
 20
189.418090820313
 30
0.0
 11
75.5131356716156
 21
189.418090820313
 31
0.0
  0
LINE
  5
   4CA
  8
0
  6
CONTINUOUS
 62
     7
 10
-19.2258901698116
 20
62.2857085884016
 30
0.0
 11
-19.2258901698116
 21
193.779345754933
 31
0.0
  0
LINE
  5
   4CB
  8
0
  6
CONTINUOUS
 62
     7
 10
-38.4868521213416
 20
171.418079054798
 30
0.0
 11
-19.2868345325648
 21
171.418079054798
 31
0.0
  0
LINE
  5
   4CC
  8
0
  6
CONTINUOUS
 62
     7
 10
-38.4868521213416
 20
83.4181095723761
 30
0.0
 11
-19.2868345325648
 21
83.4181095723761
 31
0.0
  0
LINE
  5
   4CD
  8
0
  6
CONTINUOUS
 62
     7
 10
-38.4868521213416
 20
137.918090820313
 30
0.0
 11
-19.2258901698116
 21
137.918090820313
 31
0.0
  0
LINE
  5
   4CE
  8
0
  6
CONTINUOUS
 62
     7
 10
-38.4868521213416
 20
92.9180908203125
 30
0.0
 11
-19.2258901698116
 21
92.9180908203125
 31
0.0
  0
INSERT
  5
   4CF
  8
0
  6
CONTINUOUS
 62
     7
  2
*UDIM1235
 10
0.0
 20
0.0
 30
0.0
  0
INSERT
  5
   4D0
  8
0
  6
CONTINUOUS
 62
     7
  2
*UDIM1236
 10
0.0
 20
0.0
 30
0.0
  0
LINE
  5
   4D1
  8
0
  6
DASHDOT
 62
     7
 10
-23.4868941242057
 20
173.618099193553
 30
0.0
 11
-23.4868941242057
 21
187.668081665049
 31
0.0
  0
LINE
  5
   4D2
  8
0
  6
DASHDOT
 62
     7
 10
-28.4868941242057
 20
178.618099193553
 30
0.0
 11
-18.4868941242057
 21
178.618099193553
 31
0.0
  0
LINE
  5
   4D3
  8
0
  6
DASHDOT
 62
     7
 10
-23.4868941242057
 20
67.1681060791034
 30
0.0
 11
-23.4868941242057
 21
81.218082447076
 31
0.0
  0
LINE
  5
   4D4
  8
0
  6
DASHDOT
 62
     7
 10
-28.4868941242057
 20
76.218082447076
 30
0.0
 11
-18.4868941242057
 21
76.218082447076
 31
0.0
  0
LINE
  5
   4D5
  8
0
  6
DASHDOT
 62
     7
 10
-26.7368785602441
 20
70.4181060791034
 30
0.0
 11
-20.2368785602441
 21
70.4181060791034
 31
0.0
  0
LINE
  5
   4D6
  8
0
  6
DASHDOT
 62
     7
 10
-26.7368563526208
 20
184.418081665049
 30
0.0
 11
-20.2368563526208
 21
184.418081665049
 31
0.0
  0
INSERT
  5
   4D7
  8
255
  6
CONTINUOUS
 62
     7
  2
TC_M3_CROCE____F
 10
3.51327854384005
 20
167.418072513509
 30
0.0
  0
INSERT
  5
   4D8
  8
0
  6
CONTINUOUS
 62
     7
  2
*HATCH821
 10
-2.4868643283844
 20
187.418090820313
 30
0.0
  0
LINE
  5
   4D9
  8
0
  6
CONTINUOUS
 62
     7
 10
53.0131356716156
 20
93.9180908203125
 30
0.0
 11
74.5131356716156
 21
93.9180908203125
 31
0.0
  0
LINE
  5
   4DA
  8
0
  6
CONTINUOUS
 62
     7
 10
53.0131356716156
 20
101.918090820313
 30
0.0
 11
74.5131356716156
 21
101.918090820313
 31
0.0
  0
LINE
  5
   4DB
  8
0
  6
CONTINUOUS
 62
     7
 10
74.5131356716156
 20
93.9180908203125
 30
0.0
 11
74.5131356716156
 21
101.918090820313
 31
0.0
  0
LINE
  5
   4DC
  8
0
  6
CONTINUOUS
 62
     7
 10
53.0131356716156
 20
93.9180908203125
 30
0.0
 11
53.0131356716156
 21
101.918090820313
 31
0.0
  0
LINE
  5
   4DD
  8
0
  6
CONTINUOUS
 62
     7
 10
20.7631356716156
 20
211.918090820316
 30
0.0
 11
22.2631356716156
 21
211.918090820316
 31
0.0
  0
LINE
  5
   4DE
  8
0
  6
CONTINUOUS
 62
     7
 10
20.7631356716156
 20
189.418090820313
 30
0.0
 11
20.7631356716156
 21
211.918090820316
 31
0.0
  0
LINE
  5
   4DF
  8
0
  6
CONTINUOUS
 62
     7
 10
22.2631356716156
 20
189.418090820313
 30
0.0
 11
22.2631356716156
 21
211.918090820316
 31
0.0
  0
LINE
  5
   4E0
  8
0
  6
CONTINUOUS
 62
     7
 10
52.2631356716156
 20
189.418090820313
 30
0.0
 11
52.2631356716156
 21
211.918090820316
 31
0.0
  0
LINE
  5
   4E1
  8
0
  6
CONTINUOUS
 62
     7
 10
50.7631356716156
 20
189.418090820313
 30
0.0
 11
50.7631356716156
 21
211.918090820316
 31
0.0
  0
LINE
  5
   4E2
  8
0
  6
CONTINUOUS
 62
     7
 10
50.7631356716156
 20
211.918090820316
 30
0.0
 11
52.2631356716156
 21
211.918090820316
 31
0.0
  0
INSERT
  5
   4E3
  8
0
  6
CONTINUOUS
 62
     7
  2
*UDIM1237
 10
0.0
 20
0.0
 30
0.0
  0
LINE
  5
   4E4
  8
0
  6
CONTINUOUS
 62
   130
 10
300.4885866642
 20
92.9181594848633
 30
0.0
 11
300.4885866642
 21
137.918159484863
 31
0.0
  0
LINE
  5
   4E5
  8
0
  6
DASHDOT
 62
   130
 10
297.288594055176
 20
61.6610731915245
 30
0.0
 11
297.288594055176
 21
199.05949804068
 31
0.0
  0
LINE
  5
   4E6
  8
0
  6
CONTINUOUS
 62
   130
 10
297.288594055176
 20
163.418159484863
 30
0.0
 11
300.288594055176
 21
163.418159484863
 31
0.0
  0
LINE
  5
   4E7
  8
0
  6
CONTINUOUS
 62
   130
 10
297.288594055176
 20
67.4181594848633
 30
0.0
 11
300.288594055176
 21
67.4181594848633
 31
0.0
  0
LINE
  5
   4E8
  8
0
  6
CONTINUOUS
 62
   130
 10
297.288594055176
 20
67.4181594848633
 30
0.0
 11
297.288594055176
 21
90.4181594848633
 31
0.0
  0
LINE
  5
   4E9
  8
0
  6
CONTINUOUS
 62
   130
 10
300.288594055176
 20
67.4181594848633
 30
0.0
 11
300.288594055176
 21
163.418159484863
 31
0.0
  0
LINE
  5
   4EA
  8
0
  6
CONTINUOUS
 62
   130
 10
295.288594055176
 20
148.918159484863
 30
0.0
 11
297.288594055176
 21
148.918159484863
 31
0.0
  0
LINE
  5
   4EB
  8
0
  6
CONTINUOUS
 62
   130
 10
295.288594055176
 20
145.918159484863
 30
0.0
 11
297.288594055176
 21
145.918159484863
 31
0.0
  0
LINE
  5
   4EC
  8
0
  6
DOT
 62
   130
 10
293.288594055176
 20
148.319142451179
 30
0.0
 11
295.288594055176
 21
149.668159484863
 31
0.0
  0
LINE
  5
   4ED
  8
0
  6
DOT
 62
   130
 10
293.288594055176
 20
146.517176518548
 30
0.0
 11
295.288594055176
 21
145.168159484863
 31
0.0
  0
LINE
  5
   4EE
  8
0
  6
DOT
 62
   130
 10
293.288594055176
 20
146.517176518548
 30
0.0
 11
293.288594055176
 21
148.319142451178
 31
0.0
  0
LINE
  5
   4EF
  8
0
  6
DOT
 62
   130
 10
293.288594055176
 20
82.5171765185482
 30
0.0
 11
295.288594055176
 21
81.1681594848633
 31
0.0
  0
LINE
  5
   4F0
  8
0
  6
DOT
 62
   130
 10
293.288594055176
 20
82.5171765185482
 30
0.0
 11
293.288594055176
 21
84.3191424511785
 31
0.0
  0
LINE
  5
   4F1
  8
0
  6
DOT
 62
   130
 10
293.288594055176
 20
84.3191424511785
 30
0.0
 11
295.288594055176
 21
85.6681594848633
 31
0.0
  0
LINE
  5
   4F2
  8
0
  6
CONTINUOUS
 62
   130
 10
295.288594055176
 20
81.9181594848633
 30
0.0
 11
297.288594055176
 21
81.9181594848633
 31
0.0
  0
LINE
  5
   4F3
  8
0
  6
CONTINUOUS
 62
   130
 10
295.288594055176
 20
84.9181594848633
 30
0.0
 11
297.288594055176
 21
84.9181594848633
 31
0.0
  0
LINE
  5
   4F4
  8
0
  6
CONTINUOUS
 62
   130
 10
297.288594055176
 20
138.918159484863
 30
0.0
 11
300.288594055176
 21
138.918159484863
 31
0.0
  0
LINE
  5
   4F5
  8
0
  6
DASHDOT
 62
   130
 10
295.788594055176
 20
62.6459543868552
 30
0.0
 11
295.788594055176
 21
199.05949804068
 31
0.0
  0
INSERT
  5
   4F6
  8
0
  6
CONTINUOUS
 62
     7
  2
*HATCH822
 10
220.488586425781
 20
187.418090820313
 30
0.0
  0
INSERT
  5
   4F7
  8
0
  6
CONTINUOUS
 62
     7
  2
*HATCH823
 10
220.488586425781
 20
187.418090820313
 30
0.0
  0
LINE
  5
   4F8
  8
0
  6
CONTINUOUS
 62
   253
 10
220.488506990056
 20
83.4180755615234
 30
0.0
 11
220.488506990056
 21
92.9180755615234
 31
0.0
  0
LINE
  5
   4F9
  8
0
  6
CONTINUOUS
 62
   253
 10
220.488506990056
 20
137.918075561523
 30
0.0
 11
220.488506990056
 21
171.418075561523
 31
0.0
  0
LINE
  5
   4FA
  8
0
  6
CONTINUOUS
 62
   253
 10
220.488506990056
 20
137.918075561523
 30
0.0
 11
225.588507175446
 21
137.918075561523
 31
0.0
  0
LINE
  5
   4FB
  8
0
  6
CONTINUOUS
 62
   253
 10
220.488506990056
 20
92.9180755615234
 30
0.0
 11
225.588507175446
 21
92.9180755615234
 31
0.0
  0
LINE
  5
   4FC
  8
0
  6
CONTINUOUS
 62
   253
 10
214.488506793976
 20
67.4180755615234
 30
0.0
 11
217.788506984711
 21
67.4180755615234
 31
0.0
  0
LINE
  5
   4FD
  8
0
  6
CONTINUOUS
 62
   253
 10
214.488506793976
 20
71.4180755615234
 30
0.0
 11
214.488506793976
 21
81.9180755615234
 31
0.0
  0
LINE
  5
   4FE
  8
0
  6
CONTINUOUS
 62
   253
 10
214.488506793976
 20
81.9180755615234
 30
0.0
 11
214.488506793976
 21
83.4180755615234
 31
0.0
  0
LINE
  5
   4FF
  8
0
  6
CONTINUOUS
 62
   253
 10
193.788507461548
 20
71.4180755615234
 30
0.0
 11
214.488506793976
 21
71.4180755615234
 31
0.0
  0
LINE
  5
   500
  8
0
  6
CONTINUOUS
 62
   253
 10
193.788507461548
 20
67.4180755615234
 30
0.0
 11
214.488506793976
 21
67.4180755615234
 31
0.0
  0
LINE
  5
   501
  8
0
  6
CONTINUOUS
 62
   253
 10
219.288506984711
 20
81.9180755615234
 30
0.0
 11
219.288506984711
 21
83.4180755615234
 31
0.0
  0
LINE
  5
   502
  8
0
  6
CONTINUOUS
 62
   253
 10
214.488506793976
 20
187.418075561511
 30
0.0
 11
217.788506984711
 21
187.418075561511
 31
0.0
  0
LINE
  5
   503
  8
0
  6
CONTINUOUS
 62
   253
 10
214.488506793976
 20
172.918075561523
 30
0.0
 11
214.488506793976
 21
183.418075561523
 31
0.0
  0
LINE
  5
   504
  8
0
  6
CONTINUOUS
 62
   253
 10
214.488506793976
 20
171.418075561523
 30
0.0
 11
214.488506793976
 21
172.918075561523
 31
0.0
  0
LINE
  5
   505
  8
0
  6
CONTINUOUS
 62
   253
 10
193.788507461548
 20
183.418075561523
 30
0.0
 11
214.488506793976
 21
183.418075561523
 31
0.0
  0
LINE
  5
   506
  8
0
  6
CONTINUOUS
 62
   253
 10
193.788507461548
 20
187.418075561511
 30
0.0
 11
214.488506793976
 21
187.418075561511
 31
0.0
  0
LINE
  5
   507
  8
0
  6
CONTINUOUS
 62
   253
 10
219.288506984711
 20
171.418075561523
 30
0.0
 11
219.288506984711
 21
172.918075561523
 31
0.0
  0
LINE
  5
   508
  8
0
  6
CONTINUOUS
 62
   253
 10
214.488506793976
 20
83.4180755615234
 30
0.0
 11
220.488506990056
 21
83.4180755615234
 31
0.0
  0
LINE
  5
   509
  8
0
  6
CONTINUOUS
 62
   253
 10
214.488506793976
 20
81.9180755615234
 30
0.0
 11
219.288506984711
 21
81.9180755615234
 31
0.0
  0
LINE
  5
   50A
  8
0
  6
CONTINUOUS
 62
   253
 10
217.788506984711
 20
67.4180755615234
 30
0.0
 11
217.788506984711
 21
81.9180755615234
 31
0.0
  0
LINE
  5
   50B
  8
0
  6
CONTINUOUS
 62
   253
 10
214.488506793976
 20
171.418075561523
 30
0.0
 11
220.488506990056
 21
171.418075561523
 31
0.0
  0
LINE
  5
   50C
  8
0
  6
CONTINUOUS
 62
   253
 10
214.488506793976
 20
172.918075561523
 30
0.0
 11
219.288506984711
 21
172.918075561523
 31
0.0
  0
LINE
  5
   50D
  8
0
  6
CONTINUOUS
 62
   253
 10
217.788506984711
 20
172.918075561523
 30
0.0
 11
217.788506984711
 21
187.418075561511
 31
0.0
  0
ARC
  5
   50E
  8
0
  6
CONTINUOUS
 62
    98
 10
304.638586425781
 20
108.414159700478
 30
0.0
 40
3.00000000000029
 50
270.000029142165
 51
360.000037846352
  0
LINE
  5
   50F
  8
0
  6
CONTINUOUS
 62
    98
 10
300.488586425781
 20
105.414159700478
 30
0.0
 11
304.63858795166
 21
105.414159700478
 31
0.0
  0
LINE
  5
   510
  8
0
  6
CONTINUOUS
 62
    98
 10
307.638586425781
 20
120.418090820313
 30
0.0
 11
307.638586425781
 21
122.414161682129
 31
0.0
  0
LINE
  5
   511
  8
0
  6
CONTINUOUS
 62
    98
 10
307.638586425781
 20
108.414161682129
 30
0.0
 11
307.638586425781
 21
110.418090820313
 31
0.0
  0
ARC
  5
   512
  8
0
  6
CONTINUOUS
 62
    98
 10
304.638586425781
 20
122.414159700478
 30
0.0
 40
3.0000000000002
 50
3.78463518413777E-5
 51
89.9999708578363
  0
LINE
  5
   513
  8
0
  6
CONTINUOUS
 62
    98
 10
300.488586425781
 20
125.414159700478
 30
0.0
 11
304.63858795166
 21
125.414159700478
 31
0.0
  0
LINE
  5
   514
  8
0
  6
CONTINUOUS
 62
     7
 10
225.988428071986
 20
127.118091583252
 30
0.0
 11
225.988428071986
 21
137.918075561523
 31
0.0
  0
LINE
  5
   515
  8
0
  6
CONTINUOUS
 62
     7
 10
225.988428071986
 20
111.71809387207
 30
0.0
 11
225.988428071986
 21
125.118091583252
 31
0.0
  0
LINE
  5
   516
  8
0
  6
CONTINUOUS
 62
     7
 10
225.988428071986
 20
92.9180755615235
 30
0.0
 11
225.988428071986
 21
109.71809387207
 31
0.0
  0
LINE
  5
   517
  8
0
  6
CONTINUOUS
 62
     7
 10
225.988586425781
 20
125.118091583252
 30
0.0
 11
225.988586425781
 21
127.118091583252
 31
0.0
  0
LINE
  5
   518
  8
0
  6
CONTINUOUS
 62
     7
 10
225.988586425781
 20
125.118090820312
 30
0.0
 11
263.988586425781
 21
125.118090820312
 31
0.0
  0
LINE
  5
   519
  8
0
  6
CONTINUOUS
 62
     7
 10
263.988586425781
 20
125.118091583252
 30
0.0
 11
263.988586425781
 21
127.118091583252
 31
0.0
  0
LINE
  5
   51A
  8
0
  6
CONTINUOUS
 62
     7
 10
225.988586425781
 20
127.118090820313
 30
0.0
 11
263.988586425781
 21
127.118090820313
 31
0.0
  0
LINE
  5
   51B
  8
0
  6
CONTINUOUS
 62
     7
 10
225.988586425781
 20
109.71809387207
 30
0.0
 11
225.988586425781
 21
111.71809387207
 31
0.0
  0
LINE
  5
   51C
  8
0
  6
CONTINUOUS
 62
     7
 10
225.988586425781
 20
109.718090820312
 30
0.0
 11
263.988586425781
 21
109.718090820312
 31
0.0
  0
LINE
  5
   51D
  8
0
  6
CONTINUOUS
 62
     7
 10
263.988586425781
 20
109.71809387207
 30
0.0
 11
263.988586425781
 21
111.71809387207
 31
0.0
  0
LINE
  5
   51E
  8
0
  6
CONTINUOUS
 62
     7
 10
225.988586425781
 20
111.718090820313
 30
0.0
 11
263.988586425781
 21
111.718090820313
 31
0.0
  0
LINE
  5
   51F
  8
0
  6
CONTINUOUS
 62
     7
 10
220.488585908119
 20
137.918075561523
 30
0.0
 11
220.488585908119
 21
189.418090820313
 31
0.0
  0
LINE
  5
   520
  8
0
  6
CONTINUOUS
 62
     7
 10
220.488585908119
 20
65.4180908203125
 30
0.0
 11
220.488585908119
 21
92.9180755615234
 31
0.0
  0
LINE
  5
   521
  8
0
  6
CONTINUOUS
 62
     7
 10
220.488581525232
 20
92.9180755615114
 30
0.0
 11
225.988428115845
 21
92.9180755615114
 31
0.0
  0
LINE
  5
   522
  8
0
  6
CONTINUOUS
 62
     7
 10
220.488428071985
 20
137.918075561511
 30
0.0
 11
225.988428115845
 21
137.918075561511
 31
0.0
  0
LINE
  5
   523
  8
0
  6
CONTINUOUS
 62
     7
 10
275.488585908119
 20
65.4180908203125
 30
0.0
 11
275.488585908119
 21
189.418090820313
 31
0.0
  0
LINE
  5
   524
  8
0
  6
CONTINUOUS
 62
     7
 10
220.488428071985
 20
189.418090820313
 30
0.0
 11
275.488586425781
 21
189.418090820313
 31
0.0
  0
LINE
  5
   525
  8
0
  6
CONTINUOUS
 62
     7
 10
220.488571786012
 20
65.4180908203126
 30
0.0
 11
275.488586425781
 21
65.4180908203126
 31
0.0
  0
ARC
  5
   526
  8
0
  6
CONTINUOUS
 62
     7
 10
312.688586424985
 20
111.418090821109
 30
0.0
 40
1.00000000000155
 50
270.000000045648
 51
360.0
  0
ARC
  5
   527
  8
0
  6
CONTINUOUS
 62
     7
 10
312.688586424985
 20
119.418090819516
 30
0.0
 40
1.00000000000104
 50
0.0
 51
89.9999999543897
  0
LINE
  5
   528
  8
0
  6
CONTINUOUS
 62
     7
 10
313.688586425781
 20
115.418090820313
 30
0.0
 11
313.688586425781
 21
119.418090820313
 31
0.0
  0
LINE
  5
   529
  8
0
  6
CONTINUOUS
 62
     7
 10
313.688586425781
 20
111.418090820313
 30
0.0
 11
313.688586425781
 21
115.418090820313
 31
0.0
  0
LINE
  5
   52A
  8
0
  6
CONTINUOUS
 62
     7
 10
300.488586425781
 20
120.418090820313
 30
0.0
 11
312.688586424985
 21
120.418090820313
 31
0.0
  0
LINE
  5
   52B
  8
0
  6
CONTINUOUS
 62
     7
 10
300.488586425781
 20
110.418090820313
 30
0.0
 11
312.688586424985
 21
110.418090820313
 31
0.0
  0
LINE
  5
   52C
  8
0
  6
CONTINUOUS
 62
   252
 10
290.688586425781
 20
83.7180938720703
 30
0.0
 11
290.688586425781
 21
92.9180908203125
 31
0.0
  0
LINE
  5
   52D
  8
0
  6
CONTINUOUS
 62
   252
 10
290.688586425781
 20
65.4180908203125
 30
0.0
 11
290.688586425781
 21
81.7180938720703
 31
0.0
  0
LINE
  5
   52E
  8
0
  6
CONTINUOUS
 62
   252
 10
290.688586425781
 20
173.118090629578
 30
0.0
 11
290.688586425781
 21
189.418090820313
 31
0.0
  0
LINE
  5
   52F
  8
0
  6
CONTINUOUS
 62
   252
 10
290.688586425781
 20
137.918090820313
 30
0.0
 11
290.688586425781
 21
171.118091583252
 31
0.0
  0
LINE
  5
   530
  8
0
  6
CONTINUOUS
 62
   252
 10
290.688583374024
 20
137.918090820313
 30
0.0
 11
300.488586425781
 21
137.918090820313
 31
0.0
  0
LINE
  5
   531
  8
0
  6
CONTINUOUS
 62
   252
 10
300.488586425781
 20
92.9180908203125
 30
0.0
 11
300.488586425781
 21
137.918090820313
 31
0.0
  0
LINE
  5
   532
  8
0
  6
CONTINUOUS
 62
   252
 10
290.688583374024
 20
92.9180908203125
 30
0.0
 11
300.488586425781
 21
92.9180908203125
 31
0.0
  0
LINE
  5
   533
  8
0
  6
CONTINUOUS
 62
   252
 10
289.488586425781
 20
81.7180938720703
 30
0.0
 11
289.488586425781
 21
83.7180938720703
 31
0.0
  0
LINE
  5
   534
  8
0
  6
CONTINUOUS
 62
   252
 10
289.488586425781
 20
81.7180908203125
 30
0.0
 11
290.688583374024
 21
81.7180908203125
 31
0.0
  0
LINE
  5
   535
  8
0
  6
CONTINUOUS
 62
   252
 10
289.488586425781
 20
83.7180908203125
 30
0.0
 11
290.688583374024
 21
83.7180908203125
 31
0.0
  0
LINE
  5
   536
  8
0
  6
CONTINUOUS
 62
   252
 10
289.488586425781
 20
171.118091583252
 30
0.0
 11
289.488586425781
 21
173.118090629578
 31
0.0
  0
LINE
  5
   537
  8
0
  6
CONTINUOUS
 62
   252
 10
289.488586425781
 20
171.118090820313
 30
0.0
 11
290.688583374024
 21
171.118090820313
 31
0.0
  0
LINE
  5
   538
  8
0
  6
CONTINUOUS
 62
   252
 10
289.488586425781
 20
173.118090820313
 30
0.0
 11
290.688583374024
 21
173.118090820313
 31
0.0
  0
LINE
  5
   539
  8
0
  6
CONTINUOUS
 62
   252
 10
275.488586425781
 20
189.418090820313
 30
0.0
 11
290.688583374024
 21
189.418090820313
 31
0.0
  0
LINE
  5
   53A
  8
0
  6
CONTINUOUS
 62
   252
 10
275.488586425781
 20
65.4180908203125
 30
0.0
 11
275.488586425781
 21
189.418090820313
 31
0.0
  0
LINE
  5
   53B
  8
0
  6
CONTINUOUS
 62
   252
 10
275.488586425781
 20
65.4180908203125
 30
0.0
 11
290.688583374024
 21
65.4180908203125
 31
0.0
  0
TEXT
  5
   53C
  8
0
  6
CONTINUOUS
 62
     2
 10
168.762977600098
 20
-8.28322222828859
 30
0.0
 40
2.50000005960464
  1
97-08-19
 41
1.09999991695086
 11
168.762977600098
 21
-7.03322219848627
 31
0.0
 73
     2
  0
TEXT
  5
   53D
  8
0
  6
CONTINUOUS
 62
     2
 10
168.762977600098
 20
-12.2832222282886
 30
0.0
 40
2.50000005960464
  1
MAZZOLENI
 41
1.09799996061325
 11
168.762977600098
 21
-11.0332221984863
 31
0.0
 73
     2
  0
TEXT
  5
   53E
  8
0
  6
CONTINUOUS
 62
     2
 10
180.229713439941
 20
-24.9686231911182
 30
0.0
 40
2.50000005960464
  1
M4375 97-09-15
 41
0.64999958527089
 11
180.229713439941
 21
-23.7186231613159
 31
0.0
 73
     2
  0
TEXT
  5
   53F
  8
0
  6
CONTINUOUS
 62
     2
 10
270.234707640111
 20
-36.5520600974559
 30
0.0
 40
4.49999994039536
  1
601855/391
 41
1.09999994414824
 72
     1
 11
294.159706115723
 21
-34.3020601272582
 31
0.0
 73
     2
  0
TEXT
  5
   540
  8
0
  6
CONTINUOUS
 62
     2
 10
278.243040071925
 20
-27.0853100121021
 30
0.0
 40
2.50000005960464
  1
S2 III IV
 41
1.09999991695086
 72
     1
 11
290.159706115723
 21
-25.8353099822997
 31
0.0
 73
     2
  0
TEXT
  5
   541
  8
0
  6
CONTINUOUS
 62
     2
 10
264.823039181729
 20
-12.235196724534
 30
0.0
 40
2.20000007748604
  1
SUPERIMPOSED REMOTE CONTROL
 41
0.86666664481163
 72
     1
 11
290.159706115723
 21
-11.135196685791
 31
0.0
 73
     2
  0
TEXT
  5
   542
  8
0
  6
CONTINUOUS
 62
     2
 10
262.916372495989
 20
-16.235196724534
 30
0.0
 40
2.20000007748604
  1
COMANDO SOLENOIDE SOVRAPPOSTO
 41
0.86666664481163
 72
     1
 11
290.159706115723
 21
-15.135196685791
 31
0.0
 73
     2
  0
TEXT
  5
   543
  8
0
  6
CONTINUOUS
 62
     2
 10
329.747693576415
 20
-37.8573952019214
 30
0.0
 40
2.50000005960464
  1
1/1
 41
1.09999991695086
 72
     1
 11
333.414360046387
 21
-36.6073951721191
 31
0.0
 73
     2
  0
TEXT
  5
   544
  8
0
  6
CONTINUOUS
 62
     2
 10
329.747693576415
 20
-29.3905983269214
 30
0.0
 40
2.50000005960464
  1
1:1
 41
1.09999991695086
 72
     1
 11
333.414360046387
 21
-28.1405982971191
 31
0.0
 73
     2
  0
TEXT
  5
   545
  8
0
  6
CONTINUOUS
 62
     2
 10
331.122693505387
 20
-20.9238167107105
 30
0.0
 40
2.50000005960464
  1
IT
 41
1.09999991695086
 72
     1
 11
333.414360046387
 21
-19.6738166809081
 31
0.0
 73
     2
  0
TEXT
  5
   546
  8
0
  6
CONTINUOUS
 62
     2
 10
168.762977600098
 20
-20.7499222282886
 30
0.0
 40
2.50000005960464
  1
GIUPPONI
 41
1.09799996061325
 11
168.762977600098
 21
-19.4999221984863
 31
0.0
 73
     2
  0
TEXT
  5
   547
  8
0
  6
CONTINUOUS
 62
     2
 10
168.762977600098
 20
-16.7499222282886
 30
0.0
 40
2.50000005960464
  1
97-08-19
 41
1.09999991695086
 11
168.762977600098
 21
-15.4999221984863
 31
0.0
 73
     2
  0
LINE
  5
   548
  8
0
  6
DASHDOT
 62
   130
 10
148.288505554199
 20
55.034339374443
 30
0.0
 11
148.288505554199
 21
195.222600659047
 31
0.0
  0
LINE
  5
   549
  8
0
  6
DASHDOT
 62
   130
 10
150.288505554199
 20
55.034339374443
 30
0.0
 11
150.288505554199
 21
196.194523236458
 31
0.0
  0
INSERT
  5
   54A
  8
0
  6
CONTINUOUS
 62
     7
  2
*UDIM1238
 10
0.0
 20
0.0
 30
0.0
  0
LINE
  5
   54B
  8
0
  6
DASHDOT
 62
   130
 10
142.453471009477
 20
115.418090820307
 30
0.0
 11
318.74171374076
 21
115.418090820307
 31
0.0
  0
LINE
  5
   54C
  8
0
  6
CONTINUOUS
 62
     7
 10
150.288429260254
 20
187.418045043923
 30
0.0
 11
195.788425445557
 21
187.418045043923
 31
0.0
  0
LINE
  5
   54D
  8
0
  6
CONTINUOUS
 62
     7
 10
150.288429260254
 20
186.418045163155
 30
0.0
 11
150.288429260254
 21
187.102898865938
 31
0.0
  0
LINE
  5
   54E
  8
0
  6
CONTINUOUS
 62
     7
 10
150.288429260254
 20
187.102898865938
 30
0.0
 11
150.288429260254
 21
187.418045043923
 31
0.0
  0
LINE
  5
   54F
  8
0
  6
CONTINUOUS
 62
     7
 10
195.788425445557
 20
187.102898865938
 30
0.0
 11
195.788425445557
 21
187.418045043923
 31
0.0
  0
LINE
  5
   550
  8
0
  6
CONTINUOUS
 62
     7
 10
195.788425445557
 20
186.418045163155
 30
0.0
 11
195.788425445557
 21
187.102898865938
 31
0.0
  0
LINE
  5
   551
  8
0
  6
CONTINUOUS
 62
     7
 10
150.288429260254
 20
183.418045043945
 30
0.0
 11
150.288429260254
 21
186.418045163155
 31
0.0
  0
LINE
  5
   552
  8
0
  6
CONTINUOUS
 62
     7
 10
195.788425445557
 20
183.418045043945
 30
0.0
 11
195.788425445557
 21
186.418045163155
 31
0.0
  0
LINE
  5
   553
  8
0
  6
CONTINUOUS
 62
     7
 10
150.288429260254
 20
183.418045043945
 30
0.0
 11
195.788425445557
 21
183.418045043945
 31
0.0
  0
LINE
  5
   554
  8
0
  6
CONTINUOUS
 62
     7
 10
150.288429260254
 20
182.418045043945
 30
0.0
 11
150.288429260254
 21
183.102898597717
 31
0.0
  0
LINE
  5
   555
  8
0
  6
CONTINUOUS
 62
     7
 10
150.288429260254
 20
183.102898597717
 30
0.0
 11
150.288429260254
 21
183.418045043945
 31
0.0
  0
LINE
  5
   556
  8
0
  6
CONTINUOUS
 62
     7
 10
195.788425445557
 20
183.102898597717
 30
0.0
 11
195.788425445557
 21
183.418045043945
 31
0.0
  0
LINE
  5
   557
  8
0
  6
CONTINUOUS
 62
     7
 10
195.788425445557
 20
182.418045043945
 30
0.0
 11
195.788425445557
 21
183.102898597717
 31
0.0
  0
LINE
  5
   558
  8
0
  6
CONTINUOUS
 62
     7
 10
195.788425445557
 20
120.118041992188
 30
0.0
 11
195.788425445557
 21
182.418045043945
 31
0.0
  0
LINE
  5
   559
  8
0
  6
CONTINUOUS
 62
     7
 10
195.788425445557
 20
119.618041992188
 30
0.0
 11
195.788425445557
 21
120.118041992188
 31
0.0
  0
LINE
  5
   55A
  8
0
  6
CONTINUOUS
 62
     7
 10
195.788425445557
 20
110.218048095703
 30
0.0
 11
195.788425445557
 21
119.618041992188
 31
0.0
  0
LINE
  5
   55B
  8
0
  6
CONTINUOUS
 62
     7
 10
195.788425445557
 20
109.718048095703
 30
0.0
 11
195.788425445557
 21
110.218048095703
 31
0.0
  0
LINE
  5
   55C
  8
0
  6
CONTINUOUS
 62
     7
 10
195.788425445557
 20
72.4180603027344
 30
0.0
 11
195.788425445557
 21
109.718048095703
 31
0.0
  0
LINE
  5
   55D
  8
0
  6
CONTINUOUS
 62
     7
 10
150.288429260254
 20
71.4180603027344
 30
0.0
 11
150.288429260254
 21
71.7316513061524
 31
0.0
  0
LINE
  5
   55E
  8
0
  6
CONTINUOUS
 62
     7
 10
150.288429260254
 20
71.7316513061524
 30
0.0
 11
150.288429260254
 21
72.4180603027344
 31
0.0
  0
LINE
  5
   55F
  8
0
  6
CONTINUOUS
 62
     7
 10
195.788425445557
 20
71.7316513061524
 30
0.0
 11
195.788425445557
 21
72.4180603027344
 31
0.0
  0
LINE
  5
   560
  8
0
  6
CONTINUOUS
 62
     7
 10
195.788425445557
 20
71.4180603027344
 30
0.0
 11
195.788425445557
 21
71.7316513061524
 31
0.0
  0
LINE
  5
   561
  8
0
  6
CONTINUOUS
 62
     7
 10
150.288429260254
 20
71.4180603027344
 30
0.0
 11
195.788425445557
 21
71.4180603027344
 31
0.0
  0
LINE
  5
   562
  8
0
  6
CONTINUOUS
 62
     7
 10
150.288429260254
 20
68.4180603027344
 30
0.0
 11
150.288429260254
 21
71.4180603027344
 31
0.0
  0
LINE
  5
   563
  8
0
  6
CONTINUOUS
 62
     7
 10
195.788425445557
 20
68.4180603027344
 30
0.0
 11
195.788425445557
 21
71.4180603027344
 31
0.0
  0
LINE
  5
   564
  8
0
  6
CONTINUOUS
 62
     7
 10
150.288429260254
 20
67.4180603027344
 30
0.0
 11
150.288429260254
 21
67.7316513061523
 31
0.0
  0
LINE
  5
   565
  8
0
  6
CONTINUOUS
 62
     7
 10
150.288429260254
 20
67.7316513061523
 30
0.0
 11
150.288429260254
 21
68.4180603027344
 31
0.0
  0
LINE
  5
   566
  8
0
  6
CONTINUOUS
 62
     7
 10
195.788425445557
 20
67.7316513061523
 30
0.0
 11
195.788425445557
 21
68.4180603027344
 31
0.0
  0
LINE
  5
   567
  8
0
  6
CONTINUOUS
 62
     7
 10
195.788425445557
 20
67.4180603027344
 30
0.0
 11
195.788425445557
 21
67.7316513061523
 31
0.0
  0
LINE
  5
   568
  8
0
  6
CONTINUOUS
 62
     7
 10
150.288429260254
 20
67.4180603027344
 30
0.0
 11
195.788425445557
 21
67.4180603027344
 31
0.0
  0
LINE
  5
   569
  8
0
  6
CONTINUOUS
 62
     7
 10
152.288452148438
 20
110.218048095703
 30
0.0
 11
152.788436889648
 21
110.718032836914
 31
0.0
  0
LINE
  5
   56A
  8
0
  6
CONTINUOUS
 62
     7
 10
151.788452148438
 20
109.718048095703
 30
0.0
 11
195.788425445557
 21
109.718048095703
 31
0.0
  0
LINE
  5
   56B
  8
0
  6
CONTINUOUS
 62
     7
 10
150.288429260254
 20
108.218017578125
 30
0.0
 11
151.788452148438
 21
109.718048095703
 31
0.0
  0
LINE
  5
   56C
  8
0
  6
CONTINUOUS
 62
     7
 10
150.288429260254
 20
72.4180603027344
 30
0.0
 11
150.288429260254
 21
108.218017578125
 31
0.0
  0
LINE
  5
   56D
  8
0
  6
CONTINUOUS
 62
     7
 10
152.788436889648
 20
120.118041992188
 30
0.0
 11
152.788436889648
 21
164.418029785156
 31
0.0
  0
LINE
  5
   56E
  8
0
  6
CONTINUOUS
 62
     7
 10
152.788436889648
 20
120.118041992188
 30
0.0
 11
195.788425445557
 21
120.118041992188
 31
0.0
  0
LINE
  5
   56F
  8
0
  6
CONTINUOUS
 62
     7
 10
152.788436889648
 20
110.718032836914
 30
0.0
 11
152.788436889648
 21
119.618041992188
 31
0.0
  0
LINE
  5
   570
  8
0
  6
CONTINUOUS
 62
     7
 10
150.288429260254
 20
166.918043136597
 30
0.0
 11
152.788436889648
 21
164.418029785156
 31
0.0
  0
LINE
  5
   571
  8
0
  6
CONTINUOUS
 62
     7
 10
150.288429260254
 20
166.918043136597
 30
0.0
 11
150.288429260254
 21
210.918090820316
 31
0.0
  0
LINE
  5
   572
  8
0
  6
CONTINUOUS
 62
     7
 10
151.788452148438
 20
109.718048095703
 30
0.0
 11
152.288452148438
 21
110.218048095703
 31
0.0
  0
LINE
  5
   573
  8
0
  6
CONTINUOUS
 62
     7
 10
152.788436889648
 20
119.618041992188
 30
0.0
 11
152.788436889648
 21
120.118041992188
 31
0.0
  0
LINE
  5
   574
  8
0
  6
CONTINUOUS
 62
     7
 10
297.288594055176
 20
138.918159484863
 30
0.0
 11
297.288594055176
 21
163.418159484863
 31
0.0
  0
TEXT
  5
   575
  8
0
  6
CONTINUOUS
 62
     7
 10
141.631824890772
 20
113.438166888902
 30
0.0
 40
3.5
  1
X
 41
0.933333333333334
 72
     1
 11
142.915158224105
 21
115.188166888902
 31
0.0
 73
     2
  0
TEXT
  5
   576
  8
0
  6
CONTINUOUS
 62
     7
 10
318.896214316563
 20
113.764821169171
 30
0.0
 40
3.5
  1
X
 41
0.933333333333334
 72
     1
 11
320.179547649897
 21
115.514821169171
 31
0.0
 73
     2
  0
INSERT
  5
   577
  8
0
  6
CONTINUOUS
 62
     7
  2
*UDIM1239
 10
0.0
 20
0.0
 30
0.0
  0
INSERT
  5
   578
  8
0
  6
CONTINUOUS
 62
     7
  2
*UDIM1240
 10
0.0
 20
0.0
 30
0.0
  0
INSERT
  5
   579
  8
0
  6
CONTINUOUS
 62
     7
  2
*UDIM1241
 10
0.0
 20
0.0
 30
0.0
  0
INSERT
  5
   57A
  8
0
  6
CONTINUOUS
 62
     7
  2
*UDIM1242
 10
0.0
 20
0.0
 30
0.0
  0
INSERT
  5
   57B
  8
0
  6
CONTINUOUS
 62
     7
  2
*UDIM1243
 10
0.0
 20
0.0
 30
0.0
  0
LINE
  5
   57C
  8
0
  6
CONTINUOUS
 62
     7
 10
151.288429260254
 20
211.918090820316
 30
0.0
 11
199.288429260254
 21
211.918090820316
 31
0.0
  0
LINE
  5
   57D
  8
0
  6
CONTINUOUS
 62
     7
 10
200.288429260254
 20
187.418075561511
 30
0.0
 11
200.288429260254
 21
210.918090820316
 31
0.0
  0
ARC
  5
   57E
  8
0
  6
CONTINUOUS
 62
     7
 10
151.288429260254
 20
210.918090820316
 30
0.0
 40
1.0
 50
90.0
 51
180.0
  0
ARC
  5
   57F
  8
0
  6
CONTINUOUS
 62
     7
 10
199.288429260254
 20
210.918090820316
 30
0.0
 40
1.0
 50
0.0
 51
90.0
  0
LINE
  5
   580
  8
0
  6
CONTINUOUS
 62
   130
 10
-29.0981446090887
 20
20.7530640175754
 30
0.0
 11
33.5885660290716
 21
20.7530640175754
 31
0.0
  0
LINE
  5
   581
  8
0
  6
DASHDOT
 62
   130
 10
2.33130356073389
 20
-27.9903425223696
 30
0.0
 11
2.33130356073389
 21
23.3025226302296
 31
0.0
  0
LINE
  5
   582
  8
0
  6
CONTINUOUS
 62
   130
 10
-29.0981446090887
 20
-24.5233402964709
 30
0.0
 11
-29.0981446090887
 21
20.7530640175754
 31
0.0
  0
LINE
  5
   583
  8
0
  6
CONTINUOUS
 62
   130
 10
33.5885660290716
 20
-24.5233402964709
 30
0.0
 11
33.5885660290716
 21
20.7530640175754
 31
0.0
  0
LINE
  5
   584
  8
0
  6
DASHDOT
 62
   130
 10
-38.5156883624227
 20
4.36972290276572E-2
 30
0.0
 11
40.8661306896738
 21
4.36972290276572E-2
 31
0.0
  0
LINE
  5
   585
  8
0
  6
CONTINUOUS
 62
   130
 10
-29.0981446090887
 20
-24.5233402964709
 30
0.0
 11
33.5885660290716
 21
-24.5233402964709
 31
0.0
  0
LINE
  5
   586
  8
0
  6
CONTINUOUS
 62
   130
 10
23.5813035607339
 20
-12.4563027709723
 30
0.0
 11
23.5813035607339
 21
12.5436972290277
 31
0.0
  0
LINE
  5
   587
  8
0
  6
CONTINUOUS
 62
   130
 10
-18.9186964392661
 20
-12.4563027709723
 30
0.0
 11
-18.9186964392661
 21
12.5436972290277
 31
0.0
  0
LINE
  5
   588
  8
0
  6
CONTINUOUS
 62
   130
 10
-18.1686964392661
 20
13.2936972290277
 30
0.0
 11
22.8313035607339
 21
13.2936972290277
 31
0.0
  0
LINE
  5
   589
  8
0
  6
CONTINUOUS
 62
   130
 10
-18.1686964392661
 20
-13.2063027709723
 30
0.0
 11
22.8313035607339
 21
-13.2063027709723
 31
0.0
  0
ARC
  5
   58A
  8
0
  6
CONTINUOUS
 62
   130
 10
-18.1686964392661
 20
12.5436972290277
 30
0.0
 40
0.75
 50
90.0
 51
180.0
  0
ARC
  5
   58B
  8
0
  6
CONTINUOUS
 62
   130
 10
-18.1686964392661
 20
-12.4563027709723
 30
0.0
 40
0.75
 50
180.0
 51
270.0
  0
ARC
  5
   58C
  8
0
  6
CONTINUOUS
 62
   130
 10
22.8313035607339
 20
-12.4563027709723
 30
0.0
 40
0.75
 50
270.0
 51
360.0
  0
ARC
  5
   58D
  8
0
  6
CONTINUOUS
 62
   130
 10
22.8313035607339
 20
12.5436972290277
 30
0.0
 40
0.75
 50
360.0
 51
450.0
  0
CIRCLE
  5
   58E
  8
0
  6
CONTINUOUS
 62
   130
 10
-18.5436964392661
 20
16.0436972290277
 30
0.0
 40
1.0
  0
CIRCLE
  5
   58F
  8
0
  6
CONTINUOUS
 62
   130
 10
23.2063035607339
 20
16.0436972290277
 30
0.0
 40
1.0
  0
CIRCLE
  5
   590
  8
0
  6
CONTINUOUS
 62
   130
 10
23.2063035607339
 20
-15.9563027709723
 30
0.0
 40
1.0
  0
CIRCLE
  5
   591
  8
0
  6
CONTINUOUS
 62
   130
 10
-18.5436964392661
 20
-15.9563027709723
 30
0.0
 40
1.0
  0
LINE
  5
   592
  8
0
  6
DASHDOT
 62
   130
 10
23.2063035607339
 20
11.0436972290277
 30
0.0
 11
23.2063035607339
 21
21.0436972290277
 31
0.0
  0
LINE
  5
   593
  8
0
  6
DASHDOT
 62
   130
 10
18.2063035607339
 20
16.0436972290277
 30
0.0
 11
28.2063035607339
 21
16.0436972290277
 31
0.0
  0
LINE
  5
   594
  8
0
  6
DASHDOT
 62
   130
 10
-18.5436964392661
 20
11.0436972290277
 30
0.0
 11
-18.5436964392661
 21
21.0436972290277
 31
0.0
  0
LINE
  5
   595
  8
0
  6
DASHDOT
 62
   130
 10
-23.5436964392661
 20
16.0436972290277
 30
0.0
 11
-13.5436964392661
 21
16.0436972290277
 31
0.0
  0
LINE
  5
   596
  8
0
  6
DASHDOT
 62
   130
 10
-18.5436964392661
 20
-20.9563027709723
 30
0.0
 11
-18.5436964392661
 21
-10.9563027709723
 31
0.0
  0
LINE
  5
   597
  8
0
  6
DASHDOT
 62
   130
 10
-23.5436964392661
 20
-15.9563027709723
 30
0.0
 11
-13.5436964392661
 21
-15.9563027709723
 31
0.0
  0
LINE
  5
   598
  8
0
  6
DASHDOT
 62
   130
 10
23.2063035607339
 20
-20.9563027709723
 30
0.0
 11
23.2063035607339
 21
-10.9563027709723
 31
0.0
  0
LINE
  5
   599
  8
0
  6
DASHDOT
 62
   130
 10
18.2063035607339
 20
-15.9563027709723
 30
0.0
 11
28.2063035607339
 21
-15.9563027709723
 31
0.0
  0
TEXT
  5
   59A
  8
0
  6
CONTINUOUS
 62
     2
 10
1.30119501055041
 20
-32.1163392216022
 30
0.0
 40
3.00000002980232
  1
Y
 50
360.0
 41
0.916666674282816
 72
     1
 11
2.40119504928589
 21
-30.6163392066956
 31
0.0
 73
     2
  0
TEXT
  5
   59B
  8
0
  6
CONTINUOUS
 62
     2
 10
43.1375597566442
 20
-0.854000583296581
 30
0.0
 40
3.00000002980232
  1
X
 50
360.0
 41
0.916666674282816
 72
     1
 11
44.2375597953796
 21
0.645999431610107
 31
0.0
 73
     2
  0
TEXT
  5
   59C
  8
0
  6
CONTINUOUS
 62
     2
 10
-42.9871159940883
 20
-1.1604938656147
 30
0.0
 40
3.00000002980232
  1
X
 50
360.0
 41
0.916666674282816
 72
     1
 11
-41.8871159553528
 21
0.339506149291992
 31
0.0
 73
     2
  0
TEXT
  5
   59D
  8
0
  6
CONTINUOUS
 62
     2
 10
1.60768876970568
 20
27.343402370805
 30
0.0
 40
3.00000002980232
  1
Y
 50
360.0
 41
0.916666674282816
 72
     1
 11
2.70768880844116
 21
28.8434023857117
 31
0.0
 73
     2
  0
INSERT
  5
   59E
  8
0
  6
CONTINUOUS
 62
     3
  2
*UDIM1244
 10
0.0
 20
0.0
 30
0.0
  0
INSERT
  5
   59F
  8
0
  6
CONTINUOUS
 62
     3
  2
*UDIM1245
 10
0.0
 20
0.0
 30
0.0
  0
INSERT
  5
   5A0
  8
0
  6
CONTINUOUS
 62
     3
  2
*UDIM1246
 10
0.0
 20
0.0
 30
0.0
  0
INSERT
  5
   5A1
  8
0
  6
CONTINUOUS
 62
     7
  2
*UDIM1247
 10
0.0
 20
0.0
 30
0.0
  0
INSERT
  5
   5A2
  8
0
  6
CONTINUOUS
 62
     7
  2
*UDIM1248
 10
0.0
 20
0.0
 30
0.0
  0
INSERT
  5
   5A3
  8
0
  6
CONTINUOUS
 62
     7
  2
*UDIM1249
 10
0.0
 20
0.0
 30
0.0
  0
ENDSEC
  0
EOF
