ISO-10303-21;
HEADER;
FILE_DESCRIPTION(('CATIA V5 STEP'),'2;1');

FILE_NAME('X:\\ABBSaceSpa_1429\\Bergamo\\CAD_E14-0073_ViewerEmax2XtFormula\\Lavoro\\Nuovi STEP\\1SDH001252R0045_1PA_001_00_E1.2_IV_F_FLOOR_FIXING.stp','2014-03-07T07:03:43+00:00',('none'),('none'),'CATIA Version 5 Release 20 SP 1 (IN-10)','CATIA V5 STEP AP214','none');

FILE_SCHEMA(('AUTOMOTIVE_DESIGN { 1 0 10303 214 1 1 1 1 }'));

ENDSEC;
/* file written by CATIA V5R20 */
DATA;
#5=PRODUCT('1SDH001252R0045_1PA_001_00_E1.2_IV_F_FLOOR_FIXING','','',(#2)) ;
#2=PRODUCT_CONTEXT(' ',#1,'mechanical') ;
#1=APPLICATION_CONTEXT('automotive design') ;
#10=PRODUCT_DEFINITION('',' ',#6,#3) ;
#3=PRODUCT_DEFINITION_CONTEXT('part definition',#1,' ') ;
#11=PRODUCT_DEFINITION_SHAPE(' ',' ',#10) ;
#442=MECHANICAL_DESIGN_GEOMETRIC_PRESENTATION_REPRESENTATION(' ',(#30),#17) ;
#20=SHAPE_REPRESENTATION(' ',(#19),#17) ;
#19=AXIS2_PLACEMENT_3D(' ',#18,$,$) ;
#35=AXIS2_PLACEMENT_3D('Plane Axis2P3D',#32,#33,#34) ;
#75=AXIS2_PLACEMENT_3D('Plane Axis2P3D',#72,#73,#74) ;
#106=AXIS2_PLACEMENT_3D('Plane Axis2P3D',#103,#104,#105) ;
#137=AXIS2_PLACEMENT_3D('Plane Axis2P3D',#134,#135,#136) ;
#159=AXIS2_PLACEMENT_3D('Cylinder Axis2P3D',#156,#157,#158) ;
#163=AXIS2_PLACEMENT_3D('Circle Axis2P3D',#161,#162,$) ;
#179=AXIS2_PLACEMENT_3D('Circle Axis2P3D',#177,#178,$) ;
#198=AXIS2_PLACEMENT_3D('Circle Axis2P3D',#196,#197,$) ;
#203=AXIS2_PLACEMENT_3D('Circle Axis2P3D',#201,#202,$) ;
#216=AXIS2_PLACEMENT_3D('Cylinder Axis2P3D',#213,#214,#215) ;
#220=AXIS2_PLACEMENT_3D('Circle Axis2P3D',#218,#219,$) ;
#236=AXIS2_PLACEMENT_3D('Circle Axis2P3D',#234,#235,$) ;
#255=AXIS2_PLACEMENT_3D('Circle Axis2P3D',#253,#254,$) ;
#260=AXIS2_PLACEMENT_3D('Circle Axis2P3D',#258,#259,$) ;
#273=AXIS2_PLACEMENT_3D('Cylinder Axis2P3D',#270,#271,#272) ;
#277=AXIS2_PLACEMENT_3D('Circle Axis2P3D',#275,#276,$) ;
#293=AXIS2_PLACEMENT_3D('Circle Axis2P3D',#291,#292,$) ;
#312=AXIS2_PLACEMENT_3D('Circle Axis2P3D',#310,#311,$) ;
#317=AXIS2_PLACEMENT_3D('Circle Axis2P3D',#315,#316,$) ;
#330=AXIS2_PLACEMENT_3D('Cylinder Axis2P3D',#327,#328,#329) ;
#334=AXIS2_PLACEMENT_3D('Circle Axis2P3D',#332,#333,$) ;
#350=AXIS2_PLACEMENT_3D('Circle Axis2P3D',#348,#349,$) ;
#369=AXIS2_PLACEMENT_3D('Circle Axis2P3D',#367,#368,$) ;
#374=AXIS2_PLACEMENT_3D('Circle Axis2P3D',#372,#373,$) ;
#387=AXIS2_PLACEMENT_3D('Plane Axis2P3D',#384,#385,#386) ;
#415=AXIS2_PLACEMENT_3D('Plane Axis2P3D',#412,#413,#414) ;
#18=CARTESIAN_POINT(' ',(0.,0.,0.)) ;
#32=CARTESIAN_POINT('Axis2P3D Location',(-217.,150.,-23.5)) ;
#37=CARTESIAN_POINT('Line Origine',(-217.,150.,-18.5)) ;
#41=CARTESIAN_POINT('Vertex',(-217.,150.,-23.5)) ;
#43=CARTESIAN_POINT('Vertex',(-217.,150.,-13.5)) ;
#46=CARTESIAN_POINT('Line Origine',(-217.,50.,-23.5)) ;
#50=CARTESIAN_POINT('Vertex',(-217.,-50.,-23.5)) ;
#53=CARTESIAN_POINT('Line Origine',(-217.,-50.,-18.5)) ;
#57=CARTESIAN_POINT('Vertex',(-217.,-50.,-13.5)) ;
#60=CARTESIAN_POINT('Line Origine',(-217.,50.,-13.5)) ;
#72=CARTESIAN_POINT('Axis2P3D Location',(287.,-50.,-23.5)) ;
#77=CARTESIAN_POINT('Line Origine',(35.,-50.,-23.5)) ;
#81=CARTESIAN_POINT('Vertex',(287.,-50.,-23.5)) ;
#84=CARTESIAN_POINT('Line Origine',(287.,-50.,-18.5)) ;
#88=CARTESIAN_POINT('Vertex',(287.,-50.,-13.5)) ;
#91=CARTESIAN_POINT('Line Origine',(35.,-50.,-13.5)) ;
#103=CARTESIAN_POINT('Axis2P3D Location',(287.,-50.,-23.5)) ;
#108=CARTESIAN_POINT('Line Origine',(287.,50.,-23.5)) ;
#112=CARTESIAN_POINT('Vertex',(287.,150.,-23.5)) ;
#115=CARTESIAN_POINT('Line Origine',(287.,150.,-18.5)) ;
#119=CARTESIAN_POINT('Vertex',(287.,150.,-13.5)) ;
#122=CARTESIAN_POINT('Line Origine',(287.,50.,-13.5)) ;
#134=CARTESIAN_POINT('Axis2P3D Location',(-217.,150.,-23.5)) ;
#139=CARTESIAN_POINT('Line Origine',(35.,150.,-23.5)) ;
#144=CARTESIAN_POINT('Line Origine',(35.,150.,-13.5)) ;
#156=CARTESIAN_POINT('Axis2P3D Location',(-117.,90.,-18.5)) ;
#161=CARTESIAN_POINT('Axis2P3D Location',(-117.,90.,-13.5)) ;
#165=CARTESIAN_POINT('Vertex',(-119.5,90.,-13.5)) ;
#167=CARTESIAN_POINT('Vertex',(-114.5,90.,-13.5)) ;
#170=CARTESIAN_POINT('Line Origine',(-114.5,90.,-18.5)) ;
#174=CARTESIAN_POINT('Vertex',(-114.5,90.,-23.5)) ;
#177=CARTESIAN_POINT('Axis2P3D Location',(-117.,90.,-23.5)) ;
#181=CARTESIAN_POINT('Vertex',(-119.5,90.,-23.5)) ;
#184=CARTESIAN_POINT('Line Origine',(-119.5,90.,-18.5)) ;
#196=CARTESIAN_POINT('Axis2P3D Location',(-117.,90.,-13.5)) ;
#201=CARTESIAN_POINT('Axis2P3D Location',(-117.,90.,-23.5)) ;
#213=CARTESIAN_POINT('Axis2P3D Location',(187.,90.,-18.5)) ;
#218=CARTESIAN_POINT('Axis2P3D Location',(187.,90.,-13.5)) ;
#222=CARTESIAN_POINT('Vertex',(184.5,90.,-13.5)) ;
#224=CARTESIAN_POINT('Vertex',(189.5,90.,-13.5)) ;
#227=CARTESIAN_POINT('Line Origine',(189.5,90.,-18.5)) ;
#231=CARTESIAN_POINT('Vertex',(189.5,90.,-23.5)) ;
#234=CARTESIAN_POINT('Axis2P3D Location',(187.,90.,-23.5)) ;
#238=CARTESIAN_POINT('Vertex',(184.5,90.,-23.5)) ;
#241=CARTESIAN_POINT('Line Origine',(184.5,90.,-18.5)) ;
#253=CARTESIAN_POINT('Axis2P3D Location',(187.,90.,-13.5)) ;
#258=CARTESIAN_POINT('Axis2P3D Location',(187.,90.,-23.5)) ;
#270=CARTESIAN_POINT('Axis2P3D Location',(-117.,10.,-18.5)) ;
#275=CARTESIAN_POINT('Axis2P3D Location',(-117.,10.,-13.5)) ;
#279=CARTESIAN_POINT('Vertex',(-119.5,10.,-13.5)) ;
#281=CARTESIAN_POINT('Vertex',(-114.5,10.,-13.5)) ;
#284=CARTESIAN_POINT('Line Origine',(-114.5,10.,-18.5)) ;
#288=CARTESIAN_POINT('Vertex',(-114.5,10.,-23.5)) ;
#291=CARTESIAN_POINT('Axis2P3D Location',(-117.,10.,-23.5)) ;
#295=CARTESIAN_POINT('Vertex',(-119.5,10.,-23.5)) ;
#298=CARTESIAN_POINT('Line Origine',(-119.5,10.,-18.5)) ;
#310=CARTESIAN_POINT('Axis2P3D Location',(-117.,10.,-13.5)) ;
#315=CARTESIAN_POINT('Axis2P3D Location',(-117.,10.,-23.5)) ;
#327=CARTESIAN_POINT('Axis2P3D Location',(187.,10.,-18.5)) ;
#332=CARTESIAN_POINT('Axis2P3D Location',(187.,10.,-13.5)) ;
#336=CARTESIAN_POINT('Vertex',(184.5,10.,-13.5)) ;
#338=CARTESIAN_POINT('Vertex',(189.5,10.,-13.5)) ;
#341=CARTESIAN_POINT('Line Origine',(189.5,10.,-18.5)) ;
#345=CARTESIAN_POINT('Vertex',(189.5,10.,-23.5)) ;
#348=CARTESIAN_POINT('Axis2P3D Location',(187.,10.,-23.5)) ;
#352=CARTESIAN_POINT('Vertex',(184.5,10.,-23.5)) ;
#355=CARTESIAN_POINT('Line Origine',(184.5,10.,-18.5)) ;
#367=CARTESIAN_POINT('Axis2P3D Location',(187.,10.,-13.5)) ;
#372=CARTESIAN_POINT('Axis2P3D Location',(187.,10.,-23.5)) ;
#384=CARTESIAN_POINT('Axis2P3D Location',(70.,50.,-23.5)) ;
#412=CARTESIAN_POINT('Axis2P3D Location',(70.,50.,-13.5)) ;
#33=DIRECTION('Axis2P3D Direction',(-1.,0.,0.)) ;
#34=DIRECTION('Axis2P3D XDirection',(0.,-1.,0.)) ;
#38=DIRECTION('Vector Direction',(0.,0.,1.)) ;
#47=DIRECTION('Vector Direction',(0.,-1.,0.)) ;
#54=DIRECTION('Vector Direction',(0.,0.,1.)) ;
#61=DIRECTION('Vector Direction',(0.,-1.,0.)) ;
#73=DIRECTION('Axis2P3D Direction',(0.,1.,-0.)) ;
#74=DIRECTION('Axis2P3D XDirection',(-1.,0.,0.)) ;
#78=DIRECTION('Vector Direction',(-1.,0.,0.)) ;
#85=DIRECTION('Vector Direction',(0.,0.,1.)) ;
#92=DIRECTION('Vector Direction',(-1.,0.,0.)) ;
#104=DIRECTION('Axis2P3D Direction',(1.,0.,0.)) ;
#105=DIRECTION('Axis2P3D XDirection',(0.,1.,0.)) ;
#109=DIRECTION('Vector Direction',(0.,1.,0.)) ;
#116=DIRECTION('Vector Direction',(0.,0.,1.)) ;
#123=DIRECTION('Vector Direction',(0.,1.,0.)) ;
#135=DIRECTION('Axis2P3D Direction',(0.,-1.,0.)) ;
#136=DIRECTION('Axis2P3D XDirection',(1.,0.,0.)) ;
#140=DIRECTION('Vector Direction',(1.,0.,0.)) ;
#145=DIRECTION('Vector Direction',(1.,0.,0.)) ;
#157=DIRECTION('Axis2P3D Direction',(0.,0.,1.)) ;
#158=DIRECTION('Axis2P3D XDirection',(1.,0.,0.)) ;
#162=DIRECTION('Axis2P3D Direction',(0.,0.,1.)) ;
#171=DIRECTION('Vector Direction',(0.,0.,1.)) ;
#178=DIRECTION('Axis2P3D Direction',(0.,0.,1.)) ;
#185=DIRECTION('Vector Direction',(0.,0.,1.)) ;
#197=DIRECTION('Axis2P3D Direction',(0.,0.,1.)) ;
#202=DIRECTION('Axis2P3D Direction',(0.,0.,1.)) ;
#214=DIRECTION('Axis2P3D Direction',(0.,0.,1.)) ;
#215=DIRECTION('Axis2P3D XDirection',(1.,0.,0.)) ;
#219=DIRECTION('Axis2P3D Direction',(0.,0.,1.)) ;
#228=DIRECTION('Vector Direction',(0.,0.,1.)) ;
#235=DIRECTION('Axis2P3D Direction',(0.,0.,1.)) ;
#242=DIRECTION('Vector Direction',(0.,0.,1.)) ;
#254=DIRECTION('Axis2P3D Direction',(0.,0.,1.)) ;
#259=DIRECTION('Axis2P3D Direction',(0.,0.,1.)) ;
#271=DIRECTION('Axis2P3D Direction',(0.,0.,1.)) ;
#272=DIRECTION('Axis2P3D XDirection',(1.,0.,0.)) ;
#276=DIRECTION('Axis2P3D Direction',(0.,0.,1.)) ;
#285=DIRECTION('Vector Direction',(0.,0.,1.)) ;
#292=DIRECTION('Axis2P3D Direction',(0.,0.,1.)) ;
#299=DIRECTION('Vector Direction',(0.,0.,1.)) ;
#311=DIRECTION('Axis2P3D Direction',(0.,0.,1.)) ;
#316=DIRECTION('Axis2P3D Direction',(0.,0.,1.)) ;
#328=DIRECTION('Axis2P3D Direction',(0.,0.,1.)) ;
#329=DIRECTION('Axis2P3D XDirection',(1.,0.,0.)) ;
#333=DIRECTION('Axis2P3D Direction',(0.,0.,1.)) ;
#342=DIRECTION('Vector Direction',(0.,0.,1.)) ;
#349=DIRECTION('Axis2P3D Direction',(0.,0.,1.)) ;
#356=DIRECTION('Vector Direction',(0.,0.,1.)) ;
#368=DIRECTION('Axis2P3D Direction',(0.,0.,1.)) ;
#373=DIRECTION('Axis2P3D Direction',(0.,0.,1.)) ;
#385=DIRECTION('Axis2P3D Direction',(0.,0.,1.)) ;
#386=DIRECTION('Axis2P3D XDirection',(1.,0.,0.)) ;
#413=DIRECTION('Axis2P3D Direction',(0.,0.,1.)) ;
#414=DIRECTION('Axis2P3D XDirection',(1.,0.,0.)) ;
#8=PRODUCT_RELATED_PRODUCT_CATEGORY('part',$,(#5)) ;
#7=PRODUCT_CATEGORY('part','specification') ;
#30=STYLED_ITEM(' ',(#29),#22) ;
#29=PRESENTATION_STYLE_ASSIGNMENT((#28)) ;
#28=SURFACE_STYLE_USAGE(.BOTH.,#27) ;
#27=SURFACE_SIDE_STYLE(' ',(#26)) ;
#26=SURFACE_STYLE_FILL_AREA(#25) ;
#25=FILL_AREA_STYLE(' ',(#24)) ;
#24=FILL_AREA_STYLE_COLOUR(' ',#23) ;
#39=VECTOR('Line Direction',#38,1.) ;
#48=VECTOR('Line Direction',#47,1.) ;
#55=VECTOR('Line Direction',#54,1.) ;
#62=VECTOR('Line Direction',#61,1.) ;
#79=VECTOR('Line Direction',#78,1.) ;
#86=VECTOR('Line Direction',#85,1.) ;
#93=VECTOR('Line Direction',#92,1.) ;
#110=VECTOR('Line Direction',#109,1.) ;
#117=VECTOR('Line Direction',#116,1.) ;
#124=VECTOR('Line Direction',#123,1.) ;
#141=VECTOR('Line Direction',#140,1.) ;
#146=VECTOR('Line Direction',#145,1.) ;
#172=VECTOR('Line Direction',#171,1.) ;
#186=VECTOR('Line Direction',#185,1.) ;
#229=VECTOR('Line Direction',#228,1.) ;
#243=VECTOR('Line Direction',#242,1.) ;
#286=VECTOR('Line Direction',#285,1.) ;
#300=VECTOR('Line Direction',#299,1.) ;
#343=VECTOR('Line Direction',#342,1.) ;
#357=VECTOR('Line Direction',#356,1.) ;
#16=UNCERTAINTY_MEASURE_WITH_UNIT(LENGTH_MEASURE(0.005),#12,'distance_accuracy_value','CONFUSED CURVE UNCERTAINTY') ;
#441=SHAPE_REPRESENTATION_RELATIONSHIP(' ',' ',#20,#440) ;
#66=ORIENTED_EDGE('',*,*,#45,.F.) ;
#67=ORIENTED_EDGE('',*,*,#52,.T.) ;
#68=ORIENTED_EDGE('',*,*,#59,.T.) ;
#69=ORIENTED_EDGE('',*,*,#64,.F.) ;
#97=ORIENTED_EDGE('',*,*,#59,.F.) ;
#98=ORIENTED_EDGE('',*,*,#83,.T.) ;
#99=ORIENTED_EDGE('',*,*,#90,.T.) ;
#100=ORIENTED_EDGE('',*,*,#95,.F.) ;
#128=ORIENTED_EDGE('',*,*,#90,.F.) ;
#129=ORIENTED_EDGE('',*,*,#114,.T.) ;
#130=ORIENTED_EDGE('',*,*,#121,.T.) ;
#131=ORIENTED_EDGE('',*,*,#126,.F.) ;
#150=ORIENTED_EDGE('',*,*,#121,.F.) ;
#151=ORIENTED_EDGE('',*,*,#143,.T.) ;
#152=ORIENTED_EDGE('',*,*,#45,.T.) ;
#153=ORIENTED_EDGE('',*,*,#148,.F.) ;
#190=ORIENTED_EDGE('',*,*,#169,.T.) ;
#191=ORIENTED_EDGE('',*,*,#176,.F.) ;
#192=ORIENTED_EDGE('',*,*,#183,.F.) ;
#193=ORIENTED_EDGE('',*,*,#188,.T.) ;
#207=ORIENTED_EDGE('',*,*,#200,.T.) ;
#208=ORIENTED_EDGE('',*,*,#188,.F.) ;
#209=ORIENTED_EDGE('',*,*,#205,.F.) ;
#210=ORIENTED_EDGE('',*,*,#176,.T.) ;
#247=ORIENTED_EDGE('',*,*,#226,.T.) ;
#248=ORIENTED_EDGE('',*,*,#233,.F.) ;
#249=ORIENTED_EDGE('',*,*,#240,.F.) ;
#250=ORIENTED_EDGE('',*,*,#245,.T.) ;
#264=ORIENTED_EDGE('',*,*,#257,.T.) ;
#265=ORIENTED_EDGE('',*,*,#245,.F.) ;
#266=ORIENTED_EDGE('',*,*,#262,.F.) ;
#267=ORIENTED_EDGE('',*,*,#233,.T.) ;
#304=ORIENTED_EDGE('',*,*,#283,.T.) ;
#305=ORIENTED_EDGE('',*,*,#290,.F.) ;
#306=ORIENTED_EDGE('',*,*,#297,.F.) ;
#307=ORIENTED_EDGE('',*,*,#302,.T.) ;
#321=ORIENTED_EDGE('',*,*,#314,.T.) ;
#322=ORIENTED_EDGE('',*,*,#302,.F.) ;
#323=ORIENTED_EDGE('',*,*,#319,.F.) ;
#324=ORIENTED_EDGE('',*,*,#290,.T.) ;
#361=ORIENTED_EDGE('',*,*,#340,.T.) ;
#362=ORIENTED_EDGE('',*,*,#347,.F.) ;
#363=ORIENTED_EDGE('',*,*,#354,.F.) ;
#364=ORIENTED_EDGE('',*,*,#359,.T.) ;
#378=ORIENTED_EDGE('',*,*,#371,.T.) ;
#379=ORIENTED_EDGE('',*,*,#359,.F.) ;
#380=ORIENTED_EDGE('',*,*,#376,.F.) ;
#381=ORIENTED_EDGE('',*,*,#347,.T.) ;
#390=ORIENTED_EDGE('',*,*,#143,.F.) ;
#391=ORIENTED_EDGE('',*,*,#114,.F.) ;
#392=ORIENTED_EDGE('',*,*,#83,.F.) ;
#393=ORIENTED_EDGE('',*,*,#52,.F.) ;
#396=ORIENTED_EDGE('',*,*,#205,.T.) ;
#397=ORIENTED_EDGE('',*,*,#183,.T.) ;
#400=ORIENTED_EDGE('',*,*,#262,.T.) ;
#401=ORIENTED_EDGE('',*,*,#240,.T.) ;
#404=ORIENTED_EDGE('',*,*,#319,.T.) ;
#405=ORIENTED_EDGE('',*,*,#297,.T.) ;
#408=ORIENTED_EDGE('',*,*,#376,.T.) ;
#409=ORIENTED_EDGE('',*,*,#354,.T.) ;
#418=ORIENTED_EDGE('',*,*,#64,.T.) ;
#419=ORIENTED_EDGE('',*,*,#95,.T.) ;
#420=ORIENTED_EDGE('',*,*,#126,.T.) ;
#421=ORIENTED_EDGE('',*,*,#148,.T.) ;
#424=ORIENTED_EDGE('',*,*,#169,.F.) ;
#425=ORIENTED_EDGE('',*,*,#200,.F.) ;
#428=ORIENTED_EDGE('',*,*,#226,.F.) ;
#429=ORIENTED_EDGE('',*,*,#257,.F.) ;
#432=ORIENTED_EDGE('',*,*,#283,.F.) ;
#433=ORIENTED_EDGE('',*,*,#314,.F.) ;
#436=ORIENTED_EDGE('',*,*,#340,.F.) ;
#437=ORIENTED_EDGE('',*,*,#371,.F.) ;
#398=FACE_BOUND('',#395,.T.) ;
#402=FACE_BOUND('',#399,.T.) ;
#406=FACE_BOUND('',#403,.T.) ;
#410=FACE_BOUND('',#407,.T.) ;
#426=FACE_BOUND('',#423,.T.) ;
#430=FACE_BOUND('',#427,.T.) ;
#434=FACE_BOUND('',#431,.T.) ;
#438=FACE_BOUND('',#435,.T.) ;
#31=CLOSED_SHELL('Closed Shell',(#71,#102,#133,#155,#195,#212,#252,#269,#309,#326,#366,#383,#411,#439)) ;
#440=ADVANCED_BREP_SHAPE_REPRESENTATION('NONE',(#22),#17) ;
#71=ADVANCED_FACE('E1.2_IV_F_FLOOR_FIXING',(#70),#36,.T.) ;
#102=ADVANCED_FACE('E1.2_IV_F_FLOOR_FIXING',(#101),#76,.F.) ;
#133=ADVANCED_FACE('E1.2_IV_F_FLOOR_FIXING',(#132),#107,.T.) ;
#155=ADVANCED_FACE('E1.2_IV_F_FLOOR_FIXING',(#154),#138,.F.) ;
#195=ADVANCED_FACE('E1.2_IV_F_FLOOR_FIXING',(#194),#160,.F.) ;
#212=ADVANCED_FACE('E1.2_IV_F_FLOOR_FIXING',(#211),#160,.F.) ;
#252=ADVANCED_FACE('E1.2_IV_F_FLOOR_FIXING',(#251),#217,.F.) ;
#269=ADVANCED_FACE('E1.2_IV_F_FLOOR_FIXING',(#268),#217,.F.) ;
#309=ADVANCED_FACE('E1.2_IV_F_FLOOR_FIXING',(#308),#274,.F.) ;
#326=ADVANCED_FACE('E1.2_IV_F_FLOOR_FIXING',(#325),#274,.F.) ;
#366=ADVANCED_FACE('E1.2_IV_F_FLOOR_FIXING',(#365),#331,.F.) ;
#383=ADVANCED_FACE('E1.2_IV_F_FLOOR_FIXING',(#382),#331,.F.) ;
#411=ADVANCED_FACE('E1.2_IV_F_FLOOR_FIXING',(#394,#398,#402,#406,#410),#388,.F.) ;
#439=ADVANCED_FACE('E1.2_IV_F_FLOOR_FIXING',(#422,#426,#430,#434,#438),#416,.T.) ;
#4=APPLICATION_PROTOCOL_DEFINITION('international standard','automotive_design',2001,#1) ;
#22=MANIFOLD_SOLID_BREP('E1.2_IV_F_FLOOR_FIXING',#31) ;
#164=CIRCLE('generated circle',#163,2.5) ;
#180=CIRCLE('generated circle',#179,2.5) ;
#199=CIRCLE('generated circle',#198,2.5) ;
#204=CIRCLE('generated circle',#203,2.5) ;
#221=CIRCLE('generated circle',#220,2.5) ;
#237=CIRCLE('generated circle',#236,2.5) ;
#256=CIRCLE('generated circle',#255,2.5) ;
#261=CIRCLE('generated circle',#260,2.5) ;
#278=CIRCLE('generated circle',#277,2.5) ;
#294=CIRCLE('generated circle',#293,2.5) ;
#313=CIRCLE('generated circle',#312,2.5) ;
#318=CIRCLE('generated circle',#317,2.5) ;
#335=CIRCLE('generated circle',#334,2.5) ;
#351=CIRCLE('generated circle',#350,2.5) ;
#370=CIRCLE('generated circle',#369,2.5) ;
#375=CIRCLE('generated circle',#374,2.5) ;
#23=COLOUR_RGB('Colour',0.752941176471,0.76862745098,0.749019607843) ;
#160=CYLINDRICAL_SURFACE('generated cylinder',#159,2.5) ;
#217=CYLINDRICAL_SURFACE('generated cylinder',#216,2.5) ;
#274=CYLINDRICAL_SURFACE('generated cylinder',#273,2.5) ;
#331=CYLINDRICAL_SURFACE('generated cylinder',#330,2.5) ;
#45=EDGE_CURVE('',#42,#44,#40,.T.) ;
#52=EDGE_CURVE('',#42,#51,#49,.T.) ;
#59=EDGE_CURVE('',#51,#58,#56,.T.) ;
#64=EDGE_CURVE('',#44,#58,#63,.T.) ;
#83=EDGE_CURVE('',#51,#82,#80,.F.) ;
#90=EDGE_CURVE('',#82,#89,#87,.T.) ;
#95=EDGE_CURVE('',#58,#89,#94,.F.) ;
#114=EDGE_CURVE('',#82,#113,#111,.T.) ;
#121=EDGE_CURVE('',#113,#120,#118,.T.) ;
#126=EDGE_CURVE('',#89,#120,#125,.T.) ;
#143=EDGE_CURVE('',#113,#42,#142,.F.) ;
#148=EDGE_CURVE('',#120,#44,#147,.F.) ;
#169=EDGE_CURVE('',#166,#168,#164,.T.) ;
#176=EDGE_CURVE('',#175,#168,#173,.T.) ;
#183=EDGE_CURVE('',#182,#175,#180,.T.) ;
#188=EDGE_CURVE('',#182,#166,#187,.T.) ;
#200=EDGE_CURVE('',#168,#166,#199,.T.) ;
#205=EDGE_CURVE('',#175,#182,#204,.T.) ;
#226=EDGE_CURVE('',#223,#225,#221,.T.) ;
#233=EDGE_CURVE('',#232,#225,#230,.T.) ;
#240=EDGE_CURVE('',#239,#232,#237,.T.) ;
#245=EDGE_CURVE('',#239,#223,#244,.T.) ;
#257=EDGE_CURVE('',#225,#223,#256,.T.) ;
#262=EDGE_CURVE('',#232,#239,#261,.T.) ;
#283=EDGE_CURVE('',#280,#282,#278,.T.) ;
#290=EDGE_CURVE('',#289,#282,#287,.T.) ;
#297=EDGE_CURVE('',#296,#289,#294,.T.) ;
#302=EDGE_CURVE('',#296,#280,#301,.T.) ;
#314=EDGE_CURVE('',#282,#280,#313,.T.) ;
#319=EDGE_CURVE('',#289,#296,#318,.T.) ;
#340=EDGE_CURVE('',#337,#339,#335,.T.) ;
#347=EDGE_CURVE('',#346,#339,#344,.T.) ;
#354=EDGE_CURVE('',#353,#346,#351,.T.) ;
#359=EDGE_CURVE('',#353,#337,#358,.T.) ;
#371=EDGE_CURVE('',#339,#337,#370,.T.) ;
#376=EDGE_CURVE('',#346,#353,#375,.T.) ;
#65=EDGE_LOOP('',(#66,#67,#68,#69)) ;
#96=EDGE_LOOP('',(#97,#98,#99,#100)) ;
#127=EDGE_LOOP('',(#128,#129,#130,#131)) ;
#149=EDGE_LOOP('',(#150,#151,#152,#153)) ;
#189=EDGE_LOOP('',(#190,#191,#192,#193)) ;
#206=EDGE_LOOP('',(#207,#208,#209,#210)) ;
#246=EDGE_LOOP('',(#247,#248,#249,#250)) ;
#263=EDGE_LOOP('',(#264,#265,#266,#267)) ;
#303=EDGE_LOOP('',(#304,#305,#306,#307)) ;
#320=EDGE_LOOP('',(#321,#322,#323,#324)) ;
#360=EDGE_LOOP('',(#361,#362,#363,#364)) ;
#377=EDGE_LOOP('',(#378,#379,#380,#381)) ;
#389=EDGE_LOOP('',(#390,#391,#392,#393)) ;
#395=EDGE_LOOP('',(#396,#397)) ;
#399=EDGE_LOOP('',(#400,#401)) ;
#403=EDGE_LOOP('',(#404,#405)) ;
#407=EDGE_LOOP('',(#408,#409)) ;
#417=EDGE_LOOP('',(#418,#419,#420,#421)) ;
#423=EDGE_LOOP('',(#424,#425)) ;
#427=EDGE_LOOP('',(#428,#429)) ;
#431=EDGE_LOOP('',(#432,#433)) ;
#435=EDGE_LOOP('',(#436,#437)) ;
#70=FACE_OUTER_BOUND('',#65,.T.) ;
#101=FACE_OUTER_BOUND('',#96,.T.) ;
#132=FACE_OUTER_BOUND('',#127,.T.) ;
#154=FACE_OUTER_BOUND('',#149,.T.) ;
#194=FACE_OUTER_BOUND('',#189,.T.) ;
#211=FACE_OUTER_BOUND('',#206,.T.) ;
#251=FACE_OUTER_BOUND('',#246,.T.) ;
#268=FACE_OUTER_BOUND('',#263,.T.) ;
#308=FACE_OUTER_BOUND('',#303,.T.) ;
#325=FACE_OUTER_BOUND('',#320,.T.) ;
#365=FACE_OUTER_BOUND('',#360,.T.) ;
#382=FACE_OUTER_BOUND('',#377,.T.) ;
#394=FACE_OUTER_BOUND('',#389,.T.) ;
#422=FACE_OUTER_BOUND('',#417,.T.) ;
#40=LINE('Line',#37,#39) ;
#49=LINE('Line',#46,#48) ;
#56=LINE('Line',#53,#55) ;
#63=LINE('Line',#60,#62) ;
#80=LINE('Line',#77,#79) ;
#87=LINE('Line',#84,#86) ;
#94=LINE('Line',#91,#93) ;
#111=LINE('Line',#108,#110) ;
#118=LINE('Line',#115,#117) ;
#125=LINE('Line',#122,#124) ;
#142=LINE('Line',#139,#141) ;
#147=LINE('Line',#144,#146) ;
#173=LINE('Line',#170,#172) ;
#187=LINE('Line',#184,#186) ;
#230=LINE('Line',#227,#229) ;
#244=LINE('Line',#241,#243) ;
#287=LINE('Line',#284,#286) ;
#301=LINE('Line',#298,#300) ;
#344=LINE('Line',#341,#343) ;
#358=LINE('Line',#355,#357) ;
#36=PLANE('',#35) ;
#76=PLANE('',#75) ;
#107=PLANE('',#106) ;
#138=PLANE('',#137) ;
#388=PLANE('',#387) ;
#416=PLANE('',#415) ;
#14=PLANE_ANGLE_MEASURE_WITH_UNIT(PLANE_ANGLE_MEASURE(0.0174532925199),#13) ;
#9=PRODUCT_CATEGORY_RELATIONSHIP(' ',' ',#7,#8) ;
#6=PRODUCT_DEFINITION_FORMATION_WITH_SPECIFIED_SOURCE('',' ',#5,.NOT_KNOWN.) ;
#21=SHAPE_DEFINITION_REPRESENTATION(#11,#20) ;
#42=VERTEX_POINT('',#41) ;
#44=VERTEX_POINT('',#43) ;
#51=VERTEX_POINT('',#50) ;
#58=VERTEX_POINT('',#57) ;
#82=VERTEX_POINT('',#81) ;
#89=VERTEX_POINT('',#88) ;
#113=VERTEX_POINT('',#112) ;
#120=VERTEX_POINT('',#119) ;
#166=VERTEX_POINT('',#165) ;
#168=VERTEX_POINT('',#167) ;
#175=VERTEX_POINT('',#174) ;
#182=VERTEX_POINT('',#181) ;
#223=VERTEX_POINT('',#222) ;
#225=VERTEX_POINT('',#224) ;
#232=VERTEX_POINT('',#231) ;
#239=VERTEX_POINT('',#238) ;
#280=VERTEX_POINT('',#279) ;
#282=VERTEX_POINT('',#281) ;
#289=VERTEX_POINT('',#288) ;
#296=VERTEX_POINT('',#295) ;
#337=VERTEX_POINT('',#336) ;
#339=VERTEX_POINT('',#338) ;
#346=VERTEX_POINT('',#345) ;
#353=VERTEX_POINT('',#352) ;
#12=(LENGTH_UNIT()NAMED_UNIT(*)SI_UNIT(.MILLI.,.METRE.)) ;
#13=(NAMED_UNIT(*)PLANE_ANGLE_UNIT()SI_UNIT($,.RADIAN.)) ;
#15=(NAMED_UNIT(*)SI_UNIT($,.STERADIAN.)SOLID_ANGLE_UNIT()) ;
#17=(GEOMETRIC_REPRESENTATION_CONTEXT(3)GLOBAL_UNCERTAINTY_ASSIGNED_CONTEXT((#16))GLOBAL_UNIT_ASSIGNED_CONTEXT((#12,#13,#15))REPRESENTATION_CONTEXT(' ',' ')) ;
ENDSEC;
END-ISO-10303-21;
