  0
SECTION
  2
HEADER
  9
$ACADVER
  1
AC1009
  9
$DWGCODEPAGE
  3
iso8859-1
  9
$INSBASE
 10
0.0
 20
0.0
 30
0.0
  9
$EXTMIN
 10
1.0E20
 20
1.0E20
  9
$EXTMAX
 10
-1.0E20
 20
-1.0E20
  9
$LIMMIN
 10
0.0
 20
0.0
  9
$LIMMAX
 10
12.0
 20
9.0
  9
$ORTHOMODE
 70
     0
  9
$REGENMODE
 70
     1
  9
$FILLMODE
 70
     1
  9
$QTEXTMODE
 70
     0
  9
$MIRRTEXT
 70
     1
  9
$DRAGMODE
 70
     2
  9
$LTSCALE
 40
15.0
  9
$OSMODE
 70
     0
  9
$ATTMODE
 70
     1
  9
$TEXTSIZE
 40
0.2
  9
$TRACEWID
 40
0.05
  9
$TEXTSTYLE
  7
STANDARD
  9
$CLAYER
  8
0
  9
$CELTYPE
  6
DASHED
  9
$CECOLOR
 62
   256
  9
$DIMSCALE
 40
1.0
  9
$DIMASZ
 40
0.18
  9
$DIMEXO
 40
0.0625
  9
$DIMDLI
 40
0.38
  9
$DIMRND
 40
0.0
  9
$DIMDLE
 40
0.0
  9
$DIMEXE
 40
0.18
  9
$DIMTP
 40
0.0
  9
$DIMTM
 40
0.0
  9
$DIMTXT
 40
0.18
  9
$DIMCEN
 40
0.09
  9
$DIMTSZ
 40
0.0
  9
$DIMTOL
 70
     0
  9
$DIMLIM
 70
     0
  9
$DIMTIH
 70
     1
  9
$DIMTOH
 70
     1
  9
$DIMSE1
 70
     0
  9
$DIMSE2
 70
     0
  9
$DIMTAD
 70
     0
  9
$DIMZIN
 70
     0
  9
$DIMBLK
  1

  9
$DIMASO
 70
     1
  9
$DIMSHO
 70
     1
  9
$DIMPOST
  1

  9
$DIMAPOST
  1

  9
$DIMALT
 70
     0
  9
$DIMALTD
 70
     2
  9
$DIMALTF
 40
25.4
  9
$DIMLFAC
 40
1.0
  9
$DIMTOFL
 70
     0
  9
$DIMTVP
 40
0.0
  9
$DIMTIX
 70
     0
  9
$DIMSOXD
 70
     0
  9
$DIMSAH
 70
     0
  9
$DIMBLK1
  1

  9
$DIMBLK2
  1

  9
$DIMSTYLE
  2
STANDARD
  9
$DIMCLRD
 70
     0
  9
$DIMCLRE
 70
     0
  9
$DIMCLRT
 70
     0
  9
$DIMTFAC
 40
1.0
  9
$DIMGAP
 40
0.09
  9
$LUNITS
 70
     2
  9
$LUPREC
 70
     4
  9
$AXISMODE
 70
     0
  9
$AXISUNIT
 10
0.0
 20
0.0
  9
$SKETCHINC
 40
0.1
  9
$FILLETRAD
 40
0.0
  9
$AUNITS
 70
     0
  9
$AUPREC
 70
     0
  9
$MENU
  1
acad
  9
$ELEVATION
 40
0.0
  9
$PELEVATION
 40
0.0
  9
$THICKNESS
 40
0.0
  9
$LIMCHECK
 70
     0
  9
$BLIPMODE
 70
     1
  9
$CHAMFERA
 40
0.0
  9
$CHAMFERB
 40
0.0
  9
$SKPOLY
 70
     0
  9
$TDCREATE
 40
0.000000000
  9
$TDUPDATE
 40
0.000000000
  9
$TDINDWG
 40
0.0
  9
$TDUSRTIMER
 40
0.0
  9
$USRTIMER
 70
     1
  9
$ANGBASE
 50
0.0
  9
$ANGDIR
 70
     0
  9
$PDMODE
 70
     0
  9
$PDSIZE
 40
0.0
  9
$PLINEWID
 40
0.0
  9
$COORDS
 70
     1
  9
$SPLFRAME
 70
     0
  9
$SPLINETYPE
 70
     6
  9
$SPLINESEGS
 70
     8
  9
$ATTDIA
 70
     0
  9
$ATTREQ
 70
     1
  9
$HANDLING
 70
     1
  9
$HANDSEED
  5
   689
  9
$SURFTAB1
 70
     6
  9
$SURFTAB2
 70
     6
  9
$SURFTYPE
 70
     6
  9
$SURFU
 70
     6
  9
$SURFV
 70
     6
  9
$UCSNAME
  2

  9
$UCSORG
 10
0.0
 20
0.0
 30
0.0
  9
$UCSXDIR
 10
1.0
 20
0.0
 30
0.0
  9
$UCSYDIR
 10
0.0
 20
1.0
 30
0.0
  9
$PUCSNAME
  2

  9
$PUCSORG
 10
0.0
 20
0.0
 30
0.0
  9
$PUCSXDIR
 10
1.0
 20
0.0
 30
0.0
  9
$PUCSYDIR
 10
0.0
 20
1.0
 30
0.0
  9
$USERI1
 70
     0
  9
$USERI2
 70
     0
  9
$USERI3
 70
     0
  9
$USERI4
 70
     0
  9
$USERI5
 70
     0
  9
$USERR1
 40
0.0
  9
$USERR2
 40
0.0
  9
$USERR3
 40
0.0
  9
$USERR4
 40
0.0
  9
$USERR5
 40
0.0
  9
$WORLDVIEW
 70
     1
  9
$SHADEDGE
 70
     3
  9
$SHADEDIF
 70
    70
  9
$TILEMODE
 70
     1
  9
$MAXACTVP
 70
    16
  9
$PINSBASE
 10
0.0
 20
0.0
 30
0.0
  9
$PLIMCHECK
 70
     0
  9
$PEXTMIN
 10
1.0E20
 20
1.0E20
 30
1.0E20
  9
$PEXTMAX
 10
-1.0E20
 20
-1.0E20
 30
-1.0E20
  9
$PLIMMIN
 10
0.0
 20
0.0
  9
$PLIMMAX
 10
12.0
 20
9.0
  9
$UNITMODE
 70
     0
  9
$VISRETAIN
 70
     0
  0
ENDSEC
  0
SECTION
  2
TABLES
  0
TABLE
  2
VPORT
 70
     1
  0
VPORT
  2
*ACTIVE
 70
     0
 10
0.0
 20
0.0
 11
1.0
 21
1.0
 12
6.801242
 22
4.5
 13
0.0
 23
0.0
 14
1.0
 24
1.0
 15
0.0
 25
0.0
 16
0.0
 26
0.0
 36
1.0
 17
0.0
 27
0.0
 37
0.0
 40
9.0
 41
1.511387
 42
50.0
 43
0.0
 44
0.0
 50
0.0
 51
0.0
 71
     0
 72
   100
 73
     1
 74
     1
 75
     0
 76
     0
 77
     0
 78
     0
  0
ENDTAB
  0
TABLE
  2
LTYPE
 70
    41
  0
LTYPE
  2
BYBLOCK
 70
     0
  3

 72
    65
 73
     0
 40
0.0
  0
LTYPE
  2
BYLAYER
 70
     0
  3

 72
    65
 73
     0
 40
0.0
  0
LTYPE
  2
CONTINUOUS
 70
     0
  3
Solid line
 72
    65
 73
     0
 40
0.0
  0
LTYPE
  2
BORDER
 70
    64
  3
__ __ . __ __ . __ __ . __ __ . __ __ . __ __ .
 72
    65
 73
     6
 40
1.75
 49
0.5
 49
-0.25
 49
0.5
 49
-0.25
 49
0.0
 49
-0.25
  0
LTYPE
  2
BORDER2
 70
    64
  3
__.__.__.__.__.__.__.__.__.__.__.__.__.__.__.__
 72
    65
 73
     6
 40
0.875
 49
0.25
 49
-0.125
 49
0.25
 49
-0.125
 49
0.0
 49
-0.125
  0
LTYPE
  2
BORDERX2
 70
    64
  3
____  ____  .  ____  ____  .  ____  ____  .  __
 72
    65
 73
     6
 40
3.5
 49
1.0
 49
-0.5
 49
1.0
 49
-0.5
 49
0.0
 49
-0.5
  0
LTYPE
  2
CENTER
 70
    64
  3
____ _ ____ _ ____ _ ____ _ ____ _ ____ _ ____
 72
    65
 73
     4
 40
2.0
 49
1.25
 49
-0.25
 49
0.25
 49
-0.25
  0
LTYPE
  2
CENTER2
 70
    64
  3
___ _ ___ _ ___ _ ___ _ ___ _ ___ _ ___ _ ___ _
 72
    65
 73
     4
 40
1.125
 49
0.75
 49
-0.125
 49
0.125
 49
-0.125
  0
LTYPE
  2
CENTERX2
 70
    64
  3
________  __  ________  __  ________  __  _____
 72
    65
 73
     4
 40
4.0
 49
2.5
 49
-0.5
 49
0.5
 49
-0.5
  0
LTYPE
  2
DASHDOT
 70
    64
  3
__ . __ . __ . __ . __ . __ . __ . __ . __ . __
 72
    65
 73
     4
 40
1.0
 49
0.5
 49
-0.25
 49
0.0
 49
-0.25
  0
LTYPE
  2
DASHDOT2
 70
    64
  3
_._._._._._._._._._._._._._._._._._._._._._._._
 72
    65
 73
     4
 40
0.5
 49
0.25
 49
-0.125
 49
0.0
 49
-0.125
  0
LTYPE
  2
DASHDOTX2
 70
    64
  3
____  .  ____  .  ____  .  ____  .  ____  .  __
 72
    65
 73
     4
 40
2.0
 49
1.0
 49
-0.5
 49
0.0
 49
-0.5
  0
LTYPE
  2
DASHED
 70
    64
  3
__ __ __ __ __ __ __ __ __ __ __ __ __ __ __ __
 72
    65
 73
     2
 40
0.75
 49
0.5
 49
-0.25
  0
LTYPE
  2
DASHED2
 70
    64
  3
_ _ _ _ _ _ _ _ _ _ _ _ _ _ _ _ _ _ _ _ _ _ _ _
 72
    65
 73
     2
 40
0.375
 49
0.25
 49
-0.125
  0
LTYPE
  2
DASHEDX2
 70
    64
  3
____  ____  ____  ____  ____  ____  ____  ____
 72
    65
 73
     2
 40
1.5
 49
1.0
 49
-0.5
  0
LTYPE
  2
DIVIDE
 70
    64
  3
____ . . ____ . . ____ . . ____ . . ____ . . __
 72
    65
 73
     6
 40
1.25
 49
0.5
 49
-0.25
 49
0.0
 49
-0.25
 49
0.0
 49
-0.25
  0
LTYPE
  2
DIVIDE2
 70
    64
  3
__..__..__..__..__..__..__..__..__..__..__..__.
 72
    65
 73
     6
 40
0.625
 49
0.25
 49
-0.125
 49
0.0
 49
-0.125
 49
0.0
 49
-0.125
  0
LTYPE
  2
DIVIDEX2
 70
    64
  3
________  .  .  ________  .  .  ________  .  .
 72
    65
 73
     6
 40
2.5
 49
1.0
 49
-0.5
 49
0.0
 49
-0.5
 49
0.0
 49
-0.5
  0
LTYPE
  2
DOT
 70
    64
  3
. . . . . . . . . . . . . . . . . . . . . . . .
 72
    65
 73
     2
 40
0.25
 49
0.0
 49
-0.25
  0
LTYPE
  2
DOT2
 70
    64
  3
...............................................
 72
    65
 73
     2
 40
0.125
 49
0.0
 49
-0.125
  0
LTYPE
  2
DOTX2
 70
    64
  3
.  .  .  .  .  .  .  .  .  .  .  .  .  .  .  .
 72
    65
 73
     2
 40
0.5
 49
0.0
 49
-0.5
  0
LTYPE
  2
HIDDEN
 70
    64
  3
__ __ __ __ __ __ __ __ __ __ __ __ __ __ __ __
 72
    65
 73
     2
 40
0.375
 49
0.25
 49
-0.125
  0
LTYPE
  2
HIDDEN2
 70
    64
  3
_ _ _ _ _ _ _ _ _ _ _ _ _ _ _ _ _ _ _ _ _ _ _ _
 72
    65
 73
     2
 40
0.1875
 49
0.125
 49
-0.0625
  0
LTYPE
  2
HIDDENX2
 70
    64
  3
____ ____ ____ ____ ____ ____ ____ ____ ____ __
 72
    65
 73
     2
 40
0.75
 49
0.5
 49
-0.25
  0
LTYPE
  2
PHANTOM
 70
    64
  3
______  __  __  ______  __  __  ______  __  __
 72
    65
 73
     6
 40
2.5
 49
1.25
 49
-0.25
 49
0.25
 49
-0.25
 49
0.25
 49
-0.25
  0
LTYPE
  2
PHANTOM2
 70
    64
  3
___ _ _ ___ _ _ ___ _ _ ___ _ _ ___ _ _ ___ _ _
 72
    65
 73
     6
 40
1.25
 49
0.625
 49
-0.125
 49
0.125
 49
-0.125
 49
0.125
 49
-0.125
  0
LTYPE
  2
PHANTOMX2
 70
    64
  3
____________    ____    ____    ____________
 72
    65
 73
     6
 40
5.0
 49
2.5
 49
-0.5
 49
0.5
 49
-0.5
 49
0.5
 49
-0.5
  0
LTYPE
  2
ACAD_ISO02W100
 70
    64
  3
__ __ __ __ __ __ __ __ __ __ __ __ __ __ __ __
 72
    65
 73
     2
 40
15.0
 49
12.0
 49
-3.0
  0
LTYPE
  2
ACAD_ISO03W100
 70
    64
  3
__    __    __    __    __    __    __    __
 72
    65
 73
     2
 40
30.0
 49
12.0
 49
-18.0
  0
LTYPE
  2
ACAD_ISO04W100
 70
    64
  3
____ . ____ . ____ . ____ . ____ . ____ . ____
 72
    65
 73
     4
 40
30.5
 49
24.0
 49
-3.0
 49
0.5
 49
-3.0
  0
LTYPE
  2
ACAD_ISO05W100
 70
    64
  3
____ .. ____ .. ____ .. ____ .. ____ .. ____ ..
 72
    65
 73
     6
 40
34.0
 49
24.0
 49
-3.0
 49
0.5
 49
-3.0
 49
0.5
 49
-3.0
  0
LTYPE
  2
ACAD_ISO06W100
 70
    64
  3
____ ... ____ ... ____ ... ____ ... ____ ... __
 72
    65
 73
     8
 40
37.5
 49
24.0
 49
-3.0
 49
0.5
 49
-3.0
 49
0.5
 49
-3.0
 49
0.5
 49
-3.0
  0
LTYPE
  2
ACAD_ISO07W100
 70
    64
  3
. . . . . . . . . . . . . . . . . . . . . . . .
 72
    65
 73
     2
 40
3.5
 49
0.5
 49
-3.0
  0
LTYPE
  2
ACAD_ISO08W100
 70
    64
  3
____ __ ____ __ ____ __ ____ ____ __ __ ____ __
 72
    65
 73
     4
 40
36.0
 49
24.0
 49
-3.0
 49
6.0
 49
-3.0
  0
LTYPE
  2
ACAD_ISO09W100
 70
    64
  3
____ __ __ ____ __ __ ____ __ __ ____ __ __ ___
 72
    65
 73
     6
 40
45.0
 49
24.0
 49
-3.0
 49
6.0
 49
-3.0
 49
6.0
 49
-3.0
  0
LTYPE
  2
ACAD_ISO10W100
 70
    64
  3
__ . __ . __ . __ . __ . __ . __ . __ . __ . __
 72
    65
 73
     4
 40
18.5
 49
12.0
 49
-3.0
 49
0.5
 49
-3.0
  0
LTYPE
  2
ACAD_ISO11W100
 70
    64
  3
__ __ . __ __ . __ __ . __ __ . __ __ . __ __ .
 72
    65
 73
     6
 40
33.5
 49
12.0
 49
-3.0
 49
12.0
 49
-3.0
 49
0.5
 49
-3.0
  0
LTYPE
  2
ACAD_ISO12W100
 70
    64
  3
__ . . __ . . __ . . __ . . __ . . __ . . __ .
 72
    65
 73
     6
 40
22.0
 49
12.0
 49
-3.0
 49
0.5
 49
-3.0
 49
0.5
 49
-3.0
  0
LTYPE
  2
ACAD_ISO13W100
 70
    64
  3
__ __ . . __ __ . . __ __ . . __ __ . . __ __ .
 72
    65
 73
     8
 40
37.0
 49
12.0
 49
-3.0
 49
12.0
 49
-3.0
 49
0.5
 49
-3.0
 49
0.5
 49
-3.0
  0
LTYPE
  2
ACAD_ISO14W100
 70
    64
  3
__ . . . __ . . . __ . . . __ . . . __ . . . __
 72
    65
 73
     8
 40
25.5
 49
12.0
 49
-3.0
 49
0.5
 49
-3.0
 49
0.5
 49
-3.0
 49
0.5
 49
-3.0
  0
LTYPE
  2
ACAD_ISO15W100
 70
    64
  3
__ __ . . . __ __ . . . __ __ . . . __ __ . . .
 72
    65
 73
    10
 40
40.5
 49
12.0
 49
-3.0
 49
12.0
 49
-3.0
 49
0.5
 49
-3.0
 49
0.5
 49
-3.0
 49
0.5
 49
-3.0
  0
ENDTAB
  0
TABLE
  2
STYLE
 70
     4
  0
STYLE
  2
STANDARD
 70
    64
 40
0.0
 41
1.0
 50
0.0
 71
     0
 42
0.2
  3
txt
  4

  0
STYLE
  2
TOLERANCE
 70
    64
 40
0.0
 41
1.0
 50
0.0
 71
     0
 42
0.2
  3
../igesfont/iges1003.shx
  4

  0
STYLE
  2
ROMANS
 70
    64
 40
0.0
 41
1.0
 50
0.0
 71
     0
 42
0.2
  3
romans.shx
  4

  0
STYLE
  2
ROMANC
 70
    64
 40
0.0
 41
1.0
 50
0.0
 71
     0
 42
0.2
  3
romanc.shx
  4

  0
ENDTAB
  0
TABLE
  2
DIMSTYLE
 70
     2
  0
DIMSTYLE
  2
UNNAMED
 70
     0
  3

  4

  5

  6

  7

 40
1.0
 41
0.18
 42
0.0625
 43
0.38
 44
0.18
 45
0.0
 46
0.0
 47
0.0
 48
0.0
140
0.18
141
0.09
142
0.0
143
25.4
144
1.0
145
0.0
146
1.0
147
0.09
 71
     0
 72
     0
 73
     1
 74
     1
 75
     0
 76
     0
 77
     0
 78
     0
170
     0
171
     2
172
     0
173
     0
174
     0
175
     0
176
     0
177
     0
178
     0
  0
DIMSTYLE
  2
STANDARD
 70
     0
  3

  4

  5

  6

  7

 40
1.0
 41
0.18
 42
0.0625
 43
0.38
 44
0.18
 45
0.0
 46
0.0
 47
0.0
 48
0.0
140
0.18
141
0.09
142
0.0
143
25.4
144
1.0
145
0.0
146
1.0
147
0.09
 71
     0
 72
     0
 73
     1
 74
     1
 75
     0
 76
     0
 77
     0
 78
     0
170
     0
171
     2
172
     0
173
     0
174
     0
175
     0
176
     0
177
     0
178
     0
  0
ENDTAB
  0
TABLE
  2
LAYER
 70
     2
  0
LAYER
  2
0
 70
     0
 62
     7
  6
CONTINUOUS
  0
LAYER
  2
255
 70
     0
 62
     7
  6
CONTINUOUS
  0
ENDTAB
  0
ENDSEC
  0
SECTION
  2
BLOCKS
  0
BLOCK
  5
     B
  8
0
  6
CONTINUOUS
 62
     7
  2
*UDIM895
 70
    65
 10
0.0
 20
0.0
 30
0.0
  3
*UDIM895
  0
TEXT
  5
     C
  8
0
  6
CONTINUOUS
 62
     7
 10
-355.069882347391
 20
7.53322089523296
 30
0.0
 40
3.5
  1
4
 50
397.553740605302
 41
0.933333333333334
 72
     1
 11
-355.119113029241
 21
9.70278785304022
 31
0.0
 73
     2
  0
TEXT
  5
     D
  8
0
  6
CONTINUOUS
 62
     7
 10
-358.637401357819
 20
4.79044709664306
 30
0.0
 40
3.5
  1
R
 50
397.553740605302
 41
1.2
 72
     1
 11
-358.316667104793
 21
7.24444985518591
 31
0.0
 73
     2
  0
LINE
  5
     E
  8
0
  6
CONTINUOUS
 62
     7
 10
-344.457156962641
 20
13.1697164703649
 30
0.0
 11
-357.418390775933
 21
3.20488309165677
 31
0.0
  0
LINE
  5
     F
  8
0
  6
CONTINUOUS
 62
     7
 10
-346.281208046487
 20
10.7879445158067
 30
0.0
 11
-344.457156962641
 21
13.1697164703649
 31
0.0
  0
LINE
  5
    10
  8
0
  6
CONTINUOUS
 62
     7
 10
-344.457156962641
 20
13.1697164703649
 30
0.0
 11
-347.227717533096
 21
12.0190670339876
 31
0.0
  0
ENDBLK
  5
    11
  8
0
  6
CONTINUOUS
 62
     7
  0
BLOCK
  5
    12
  8
0
  6
CONTINUOUS
 62
     7
  2
*UDIM896
 70
    65
 10
0.0
 20
0.0
 30
0.0
  3
*UDIM896
  0
TEXT
  5
    13
  8
0
  6
CONTINUOUS
 62
     7
 10
-369.802255693008
 20
-54.4162758317153
 30
0.0
 40
3.00000002980232
  1
4
 50
382.237802739693
 41
0.933333333333334
 72
     1
 11
-369.351749855126
 21
-52.6115474425171
 31
0.0
 73
     2
  0
TEXT
  5
    14
  8
0
  6
CONTINUOUS
 62
     7
 10
-373.504740080734
 20
-55.9300821591785
 30
0.0
 40
3.00000002980232
  1
R
 50
382.237802739693
 41
1.2
 72
     1
 11
-372.683985802913
 21
-53.9739731374607
 31
0.0
 73
     2
  0
LINE
  5
    15
  8
0
  6
CONTINUOUS
 62
     7
 10
-380.17556005481
 20
-60.8182403975729
 30
0.0
 11
-366.291243705313
 21
-55.1414667093699
 31
0.0
  0
LINE
  5
    16
  8
0
  6
CONTINUOUS
 62
     7
 10
-377.787167548615
 20
-59.0028668171906
 30
0.0
 11
-380.17556005481
 21
-60.8182403975729
 31
0.0
  0
LINE
  5
    17
  8
0
  6
CONTINUOUS
 62
     7
 10
-380.17556005481
 20
-60.8182403975729
 30
0.0
 11
-377.199464674539
 21
-60.4402770560634
 31
0.0
  0
ENDBLK
  5
    18
  8
0
  6
CONTINUOUS
 62
     7
  0
BLOCK
  5
    19
  8
0
  6
CONTINUOUS
 62
     7
  2
*UDIM897
 70
    65
 10
0.0
 20
0.0
 30
0.0
  3
*UDIM897
  0
TEXT
  5
    1A
  8
0
  6
CONTINUOUS
 62
     7
 10
-368.31077317733
 20
-37.0358613425383
 30
0.0
 40
3.00000002980232
  1
6
 50
378.15626938813
 41
0.933333333333334
 72
     1
 11
-367.732956644982
 21
-35.2677753367994
 31
0.0
 73
     2
  0
TEXT
  5
    1B
  8
0
  6
CONTINUOUS
 62
     7
 10
-371.303935196213
 20
-38.0174321200658
 30
0.0
 40
3.00000002980232
  1
Ø
 50
378.15626938813
 41
0.933333333333334
 72
     1
 11
-370.726118663866
 21
-36.2493461143269
 31
0.0
 73
     2
  0
TEXT
  5
    1C
  8
0
  6
CONTINUOUS
 62
     7
 10
-365.697695203638
 20
-36.1789344558216
 30
0.0
 40
3.00000002980232
  1
 (M5)
 50
378.15626938813
 41
0.933333333333333
 72
     1
 11
-359.798701709595
 21
-32.6658337322704
 31
0.0
 73
     2
  0
LINE
  5
    1D
  8
0
  6
CONTINUOUS
 62
     7
 10
-352.653269133974
 20
-32.953573673282
 30
0.0
 11
-377.33759658614
 21
-41.0484961456051
 31
0.0
  0
LINE
  5
    1E
  8
0
  6
CONTINUOUS
 62
     7
 10
-373.267289697322
 20
-39.1654476431864
 30
0.0
 11
-375.912281343548
 21
-40.5810814911137
 31
0.0
  0
LINE
  5
    1F
  8
0
  6
CONTINUOUS
 62
     7
 10
-375.912281343548
 20
-40.5810814911137
 30
0.0
 11
-372.942626949675
 21
-40.1554610252581
 31
0.0
  0
LINE
  5
    20
  8
0
  6
CONTINUOUS
 62
     7
 10
-379.982588232366
 20
-42.4641299935323
 30
0.0
 11
-377.33759658614
 21
-41.0484961456051
 31
0.0
  0
LINE
  5
    21
  8
0
  6
CONTINUOUS
 62
     7
 10
-377.33759658614
 20
-41.0484961456051
 30
0.0
 11
-380.307250980012
 21
-41.4741166114606
 31
0.0
  0
ENDBLK
  5
    22
  8
0
  6
CONTINUOUS
 62
     7
  0
BLOCK
  5
    23
  8
0
  6
CONTINUOUS
 62
     7
  2
*UDIM898
 70
    65
 10
0.0
 20
0.0
 30
0.0
  3
*UDIM898
  0
TEXT
  5
    24
  8
0
  6
CONTINUOUS
 62
     7
 10
-328.213184361209
 20
2.6602111481334
 30
0.0
 40
3.00000002980232
  1
65
 50
449.999999896069
 41
0.933333333333333
 72
     1
 11
-329.713184371591
 21
5.16021117568016
 31
0.0
 73
     2
  0
LINE
  5
    25
  8
0
  6
CONTINUOUS
 62
     7
 10
-344.249938964844
 20
13.5602111816406
 30
0.0
 11
-325.213184356689
 21
13.5602111816406
 31
0.0
  0
LINE
  5
    26
  8
0
  6
CONTINUOUS
 62
     7
 10
-344.249938964844
 20
-2.68978881835938
 30
0.0
 11
-325.213184356689
 21
-2.68978881835938
 31
0.0
  0
LINE
  5
    27
  8
0
  6
CONTINUOUS
 62
     7
 10
-327.213184356689
 20
13.5602111816406
 30
0.0
 11
-327.213184356689
 21
-2.68978881835938
 31
0.0
  0
LINE
  5
    28
  8
0
  6
CONTINUOUS
 62
     7
 10
-326.692239926738
 20
10.6057879044337
 30
0.0
 11
-327.213184356689
 21
13.5602111816406
 31
0.0
  0
LINE
  5
    29
  8
0
  6
CONTINUOUS
 62
     7
 10
-327.213184356689
 20
13.5602111816406
 30
0.0
 11
-327.734128786641
 21
10.6057879044337
 31
0.0
  0
LINE
  5
    2A
  8
0
  6
CONTINUOUS
 62
     7
 10
-327.734128786641
 20
0.264634458847585
 30
0.0
 11
-327.213184356689
 21
-2.68978881835938
 31
0.0
  0
LINE
  5
    2B
  8
0
  6
CONTINUOUS
 62
     7
 10
-327.213184356689
 20
-2.68978881835938
 30
0.0
 11
-326.692239926738
 21
0.264634458847585
 31
0.0
  0
ENDBLK
  5
    2C
  8
0
  6
CONTINUOUS
 62
     7
  0
BLOCK
  5
    2D
  8
0
  6
CONTINUOUS
 62
     7
  2
*UDIM899
 70
    65
 10
0.0
 20
0.0
 30
0.0
  3
*UDIM899
  0
TEXT
  5
    2E
  8
0
  6
CONTINUOUS
 62
     7
 10
-328.213184368801
 20
-20.0710388935899
 30
0.0
 40
3.00000002980232
  1
83,25
 50
449.999999896069
 41
0.933333333333333
 72
     1
 11
-329.713184371591
 21
-13.3710388243198
 31
0.0
 73
     2
  0
LINE
  5
    2F
  8
0
  6
CONTINUOUS
 62
     7
 10
-334.806708271655
 20
-23.5022888183594
 30
0.0
 11
-325.213184356689
 21
-23.5022888183594
 31
0.0
  0
LINE
  5
    30
  8
0
  6
CONTINUOUS
 62
     7
 10
-327.213184356689
 20
-2.68978881835938
 30
0.0
 11
-327.213184356689
 21
-23.5022888183594
 31
0.0
  0
LINE
  5
    31
  8
0
  6
CONTINUOUS
 62
     7
 10
-326.692239926738
 20
-5.64421209556634
 30
0.0
 11
-327.213184356689
 21
-2.68978881835938
 31
0.0
  0
LINE
  5
    32
  8
0
  6
CONTINUOUS
 62
     7
 10
-327.213184356689
 20
-2.68978881835938
 30
0.0
 11
-327.734128786641
 21
-5.64421209556634
 31
0.0
  0
LINE
  5
    33
  8
0
  6
CONTINUOUS
 62
     7
 10
-327.734128786641
 20
-20.5478655411524
 30
0.0
 11
-327.213184356689
 21
-23.5022888183594
 31
0.0
  0
LINE
  5
    34
  8
0
  6
CONTINUOUS
 62
     7
 10
-327.213184356689
 20
-23.5022888183594
 30
0.0
 11
-326.692239926738
 21
-20.5478655411524
 31
0.0
  0
ENDBLK
  5
    35
  8
0
  6
CONTINUOUS
 62
     7
  0
BLOCK
  5
    36
  8
0
  6
CONTINUOUS
 62
     7
  2
*UDIM900
 70
    65
 10
0.0
 20
0.0
 30
0.0
  3
*UDIM900
  0
TEXT
  5
    37
  8
0
  6
CONTINUOUS
 62
     7
 10
-328.213184368801
 20
-41.3210388935899
 30
0.0
 40
3.00000002980232
  1
86,75
 50
449.999999896069
 41
0.933333333333333
 72
     1
 11
-329.713184371591
 21
-34.6210388243198
 31
0.0
 73
     2
  0
LINE
  5
    38
  8
0
  6
CONTINUOUS
 62
     7
 10
-344.249938964844
 20
-45.1897888183594
 30
0.0
 11
-325.213184356689
 21
-45.1897888183594
 31
0.0
  0
LINE
  5
    39
  8
0
  6
CONTINUOUS
 62
     7
 10
-327.213184356689
 20
-23.5022888183594
 30
0.0
 11
-327.213184356689
 21
-45.1897888183594
 31
0.0
  0
LINE
  5
    3A
  8
0
  6
CONTINUOUS
 62
     7
 10
-326.692239926738
 20
-26.4567120955663
 30
0.0
 11
-327.213184356689
 21
-23.5022888183594
 31
0.0
  0
LINE
  5
    3B
  8
0
  6
CONTINUOUS
 62
     7
 10
-327.213184356689
 20
-23.5022888183594
 30
0.0
 11
-327.734128786641
 21
-26.4567120955663
 31
0.0
  0
LINE
  5
    3C
  8
0
  6
CONTINUOUS
 62
     7
 10
-327.734128786641
 20
-42.2353655411524
 30
0.0
 11
-327.213184356689
 21
-45.1897888183594
 31
0.0
  0
LINE
  5
    3D
  8
0
  6
CONTINUOUS
 62
     7
 10
-327.213184356689
 20
-45.1897888183594
 30
0.0
 11
-326.692239926738
 21
-42.2353655411524
 31
0.0
  0
ENDBLK
  5
    3E
  8
0
  6
CONTINUOUS
 62
     7
  0
BLOCK
  5
    3F
  8
0
  6
CONTINUOUS
 62
     7
  2
*UDIM901
 70
    65
 10
0.0
 20
0.0
 30
0.0
  3
*UDIM901
  0
TEXT
  5
    40
  8
0
  6
CONTINUOUS
 62
     7
 10
-328.213184361209
 20
-56.0897888518666
 30
0.0
 40
3.00000002980232
  1
65
 50
449.999999896069
 41
0.933333333333333
 72
     1
 11
-329.713184371591
 21
-53.5897888243198
 31
0.0
 73
     2
  0
LINE
  5
    41
  8
0
  6
CONTINUOUS
 62
     7
 10
-344.249938964844
 20
-61.4397888183594
 30
0.0
 11
-325.213184356689
 21
-61.4397888183594
 31
0.0
  0
LINE
  5
    42
  8
0
  6
CONTINUOUS
 62
     7
 10
-327.213184356689
 20
-45.1897888183594
 30
0.0
 11
-327.213184356689
 21
-61.4397888183594
 31
0.0
  0
LINE
  5
    43
  8
0
  6
CONTINUOUS
 62
     7
 10
-326.692239926738
 20
-48.1442120955663
 30
0.0
 11
-327.213184356689
 21
-45.1897888183594
 31
0.0
  0
LINE
  5
    44
  8
0
  6
CONTINUOUS
 62
     7
 10
-327.213184356689
 20
-45.1897888183594
 30
0.0
 11
-327.734128786641
 21
-48.1442120955663
 31
0.0
  0
LINE
  5
    45
  8
0
  6
CONTINUOUS
 62
     7
 10
-327.734128786641
 20
-58.4853655411524
 30
0.0
 11
-327.213184356689
 21
-61.4397888183594
 31
0.0
  0
LINE
  5
    46
  8
0
  6
CONTINUOUS
 62
     7
 10
-327.213184356689
 20
-61.4397888183594
 30
0.0
 11
-326.692239926738
 21
-58.4853655411524
 31
0.0
  0
ENDBLK
  5
    47
  8
0
  6
CONTINUOUS
 62
     7
  0
BLOCK
  5
    48
  8
0
  6
CONTINUOUS
 62
     7
  2
*UDIM902
 70
    65
 10
0.0
 20
0.0
 30
0.0
  3
*UDIM902
  0
TEXT
  5
    49
  8
0
  6
CONTINUOUS
 62
     7
 10
-366.424939012261
 20
-81.1801605154062
 30
0.0
 40
3.00000002980232
  1
144
 50
359.999999896069
 41
0.933333333333333
 72
     1
 11
-362.524938970804
 21
-79.6801605075598
 31
0.0
 73
     2
  0
LINE
  5
    4A
  8
0
  6
CONTINUOUS
 62
     7
 10
-344.249938964844
 20
-61.4397888183594
 30
0.0
 11
-344.249938964844
 21
-84.1801605224609
 31
0.0
  0
LINE
  5
    4B
  8
0
  6
CONTINUOUS
 62
     7
 10
-380.249938964844
 20
-61.4397888183594
 30
0.0
 11
-380.249938964844
 21
-84.1801605224609
 31
0.0
  0
LINE
  5
    4C
  8
0
  6
CONTINUOUS
 62
     7
 10
-344.249938964844
 20
-82.1801605224609
 30
0.0
 11
-380.249938964844
 21
-82.1801605224609
 31
0.0
  0
LINE
  5
    4D
  8
0
  6
CONTINUOUS
 62
     7
 10
-347.204362242051
 20
-82.7011049524126
 30
0.0
 11
-344.249938964844
 21
-82.1801605224609
 31
0.0
  0
LINE
  5
    4E
  8
0
  6
CONTINUOUS
 62
     7
 10
-344.249938964844
 20
-82.1801605224609
 30
0.0
 11
-347.204362242051
 21
-81.6592160925093
 31
0.0
  0
LINE
  5
    4F
  8
0
  6
CONTINUOUS
 62
     7
 10
-377.295515687637
 20
-81.6592160925093
 30
0.0
 11
-380.249938964844
 21
-82.1801605224609
 31
0.0
  0
LINE
  5
    50
  8
0
  6
CONTINUOUS
 62
     7
 10
-380.249938964844
 20
-82.1801605224609
 30
0.0
 11
-377.295515687637
 21
-82.7011049524126
 31
0.0
  0
ENDBLK
  5
    51
  8
0
  6
CONTINUOUS
 62
     7
  0
BLOCK
  5
    52
  8
0
  6
CONTINUOUS
 62
     5
  2
*UDIM903
 70
    65
 10
0.0
 20
0.0
 30
0.0
  3
*UDIM903
  0
TEXT
  5
    53
  8
0
  6
CONTINUOUS
 62
     5
 10
-393.825246823024
 20
-21.7086788929795
 30
0.0
 40
3.00000002980232
  1
65,75
 50
449.999999896069
 41
0.933333333333333
 72
     1
 11
-395.325246825814
 21
-15.0086788237095
 31
0.0
 73
     2
  0
LINE
  5
    54
  8
0
  6
CONTINUOUS
 62
     5
 10
-380.621151773799
 20
-7.06478881835938
 30
0.0
 11
-394.825246810913
 21
-7.06478881835938
 31
0.0
  0
LINE
  5
    55
  8
0
  6
CONTINUOUS
 62
     5
 10
-392.825246810913
 20
-7.06478881835938
 30
0.0
 11
-392.825246810913
 21
-23.5022888183594
 31
0.0
  0
LINE
  5
    56
  8
0
  6
CONTINUOUS
 62
     5
 10
-392.304302380962
 20
-10.0192120955663
 30
0.0
 11
-392.825246810913
 21
-7.06478881835938
 31
0.0
  0
LINE
  5
    57
  8
0
  6
CONTINUOUS
 62
     5
 10
-392.825246810913
 20
-7.06478881835938
 30
0.0
 11
-393.346191240865
 21
-10.0192120955663
 31
0.0
  0
LINE
  5
    58
  8
0
  6
CONTINUOUS
 62
     5
 10
-393.346191240865
 20
-20.5478655411524
 30
0.0
 11
-392.825246810913
 21
-23.5022888183594
 31
0.0
  0
LINE
  5
    59
  8
0
  6
CONTINUOUS
 62
     5
 10
-392.825246810913
 20
-23.5022888183594
 30
0.0
 11
-392.304302380962
 21
-20.5478655411524
 31
0.0
  0
ENDBLK
  5
    5A
  8
0
  6
CONTINUOUS
 62
     5
  0
BLOCK
  5
    5B
  8
0
  6
CONTINUOUS
 62
     7
  2
*UDIM904
 70
    65
 10
0.0
 20
0.0
 30
0.0
  3
*UDIM904
  0
TEXT
  5
    5C
  8
0
  6
CONTINUOUS
 62
     7
 10
-364.85251695487
 20
-74.7287063528085
 30
0.0
 40
3.00000002980232
  1
115
 50
359.999999896069
 41
0.933333333333333
 72
     1
 11
-360.952516913414
 21
-73.2287063449621
 31
0.0
 73
     2
  0
LINE
  5
    5D
  8
0
  6
CONTINUOUS
 62
     7
 10
-347.874938964844
 20
-46.6038370573083
 30
0.0
 11
-347.874938964844
 21
-77.7287063598633
 31
0.0
  0
LINE
  5
    5E
  8
0
  6
CONTINUOUS
 62
     7
 10
-376.624938964844
 20
-45.7754842815427
 30
0.0
 11
-376.624938964844
 21
-77.7287063598633
 31
0.0
  0
LINE
  5
    5F
  8
0
  6
CONTINUOUS
 62
     7
 10
-347.874938964844
 20
-75.7287063598633
 30
0.0
 11
-376.624938964844
 21
-75.7287063598633
 31
0.0
  0
LINE
  5
    60
  8
0
  6
CONTINUOUS
 62
     7
 10
-350.829362242051
 20
-76.249650789815
 30
0.0
 11
-347.874938964844
 21
-75.7287063598633
 31
0.0
  0
LINE
  5
    61
  8
0
  6
CONTINUOUS
 62
     7
 10
-347.874938964844
 20
-75.7287063598633
 30
0.0
 11
-350.829362242051
 21
-75.2077619299116
 31
0.0
  0
LINE
  5
    62
  8
0
  6
CONTINUOUS
 62
     7
 10
-373.670515687637
 20
-75.2077619299116
 30
0.0
 11
-376.624938964844
 21
-75.7287063598633
 31
0.0
  0
LINE
  5
    63
  8
0
  6
CONTINUOUS
 62
     7
 10
-376.624938964844
 20
-75.7287063598633
 30
0.0
 11
-373.670515687637
 21
-76.249650789815
 31
0.0
  0
ENDBLK
  5
    64
  8
0
  6
CONTINUOUS
 62
     7
  0
BLOCK
  5
    65
  8
0
  6
CONTINUOUS
 62
     7
  2
*UDIM905
 70
    65
 10
0.0
 20
0.0
 30
0.0
  3
*UDIM905
  0
TEXT
  5
    66
  8
0
  6
CONTINUOUS
 62
     7
 10
-402.641593940155
 20
-28.114786472977
 30
0.0
 40
3.00000002980232
  1
135
 50
449.999999896069
 41
0.933333333333333
 72
     1
 11
-404.141593948007
 21
-24.2147864315225
 31
0.0
 73
     2
  0
LINE
  5
    67
  8
0
  6
CONTINUOUS
 62
     7
 10
-380.621151773799
 20
-7.06478800457884
 30
0.0
 11
-403.641593933105
 21
-7.06476927099099
 31
0.0
  0
LINE
  5
    68
  8
0
  6
CONTINUOUS
 62
     7
 10
-380.672923822284
 20
-40.814788002661
 30
0.0
 11
-403.641593933105
 21
-40.8147692671554
 31
0.0
  0
LINE
  5
    69
  8
0
  6
CONTINUOUS
 62
     7
 10
-401.641593933106
 20
-7.06477089855207
 30
0.0
 11
-401.641593933106
 21
-40.8147708985521
 31
0.0
  0
LINE
  5
    6A
  8
0
  6
CONTINUOUS
 62
     7
 10
-401.120649503154
 20
-10.019194175759
 30
0.0
 11
-401.641593933106
 21
-7.06477089855207
 31
0.0
  0
LINE
  5
    6B
  8
0
  6
CONTINUOUS
 62
     7
 10
-401.641593933106
 20
-7.06477089855207
 30
0.0
 11
-402.162538363057
 21
-10.019194175759
 31
0.0
  0
LINE
  5
    6C
  8
0
  6
CONTINUOUS
 62
     7
 10
-402.162538363057
 20
-37.8603476213451
 30
0.0
 11
-401.641593933106
 21
-40.8147708985521
 31
0.0
  0
LINE
  5
    6D
  8
0
  6
CONTINUOUS
 62
     7
 10
-401.641593933106
 20
-40.8147708985521
 30
0.0
 11
-401.120649503154
 21
-37.8603476213451
 31
0.0
  0
ENDBLK
  5
    6E
  8
0
  6
CONTINUOUS
 62
     7
  0
BLOCK
  5
    6F
  8
0
  6
CONTINUOUS
 62
     7
  2
MOSTRA
 70
    64
 10
0.0
 20
0.0
 30
0.0
  3
MOSTRA
  0
LINE
  5
    70
  8
0
  6
CONTINUOUS
 62
     2
 10
175.338317871094
 20
34.312744140625
 30
0.0
 11
210.838317871094
 21
34.312744140625
 31
0.0
  0
LINE
  5
    71
  8
0
  6
CONTINUOUS
 62
     2
 10
175.338317871094
 20
49.312744140625
 30
0.0
 11
210.838317871094
 21
49.312744140625
 31
0.0
  0
LINE
  5
    72
  8
0
  6
CONTINUOUS
 62
     2
 10
210.838317871094
 20
33.312744140625
 30
0.0
 11
210.838317871094
 21
50.312744140625
 31
0.0
  0
LINE
  5
    73
  8
0
  6
CONTINUOUS
 62
     2
 10
175.338317871094
 20
34.312744140625
 30
0.0
 11
175.338317871094
 21
49.312744140625
 31
0.0
  0
LINE
  5
    74
  8
0
  6
CONTINUOUS
 62
     2
 10
210.838317871094
 20
50.312744140625
 30
0.0
 11
210.838317871094
 21
148.306442260742
 31
0.0
  0
LINE
  5
    75
  8
0
  6
CONTINUOUS
 62
     2
 10
210.838317871094
 20
-10.187255859375
 30
0.0
 11
210.838317871094
 21
33.3127403259278
 31
0.0
  0
LINE
  5
    76
  8
0
  6
CONTINUOUS
 62
     2
 10
37.5883140563965
 20
-11.437255859375
 30
0.0
 11
209.588317871094
 21
-11.437255859375
 31
0.0
  0
LINE
  5
    77
  8
0
  6
CONTINUOUS
 62
     2
 10
36.3383140563965
 20
-10.187255859375
 30
0.0
 11
36.3383140563965
 21
148.306442260742
 31
0.0
  0
LINE
  5
    78
  8
0
  6
CONTINUOUS
 62
     2
 10
175.338317871094
 20
128.562744140625
 30
0.0
 11
175.338317871094
 21
129.562744140625
 31
0.0
  0
LINE
  5
    79
  8
0
  6
CONTINUOUS
 62
     2
 10
45.3383140563965
 20
128.562744140625
 30
0.0
 11
45.3383140563965
 21
129.562744140625
 31
0.0
  0
LINE
  5
    7A
  8
0
  6
CONTINUOUS
 62
     2
 10
175.338317871094
 20
8.56274414062501
 30
0.0
 11
175.338317871094
 21
9.56274414062501
 31
0.0
  0
LINE
  5
    7B
  8
0
  6
CONTINUOUS
 62
     2
 10
46.3383140563965
 20
8.562744140625
 30
0.0
 11
174.338314056396
 21
8.56274414062501
 31
0.0
  0
LINE
  5
    7C
  8
0
  6
CONTINUOUS
 62
     2
 10
45.3383140563965
 20
8.562744140625
 30
0.0
 11
45.3383140563965
 21
9.562744140625
 31
0.0
  0
LINE
  5
    7D
  8
0
  6
CONTINUOUS
 62
     2
 10
174.338317871094
 20
-11.437255859375
 30
0.0
 11
174.338317871094
 21
8.56274414062501
 31
0.0
  0
LINE
  5
    7E
  8
0
  6
CONTINUOUS
 62
     2
 10
175.338317871094
 20
129.562744140625
 30
0.0
 11
175.338317871094
 21
149.562744140625
 31
0.0
  0
LINE
  5
    7F
  8
0
  6
CONTINUOUS
 62
     2
 10
175.338317871094
 20
9.56274414062501
 30
0.0
 11
175.338317871094
 21
33.312744140625
 31
0.0
  0
LINE
  5
    80
  8
0
  6
CONTINUOUS
 62
     2
 10
175.338317871094
 20
50.312744140625
 30
0.0
 11
175.338317871094
 21
128.562744140625
 31
0.0
  0
LINE
  5
    81
  8
0
  6
CONTINUOUS
 62
     2
 10
175.338317871094
 20
-11.437255859375
 30
0.0
 11
175.338317871094
 21
8.56274414062501
 31
0.0
  0
LINE
  5
    82
  8
0
  6
CONTINUOUS
 62
     2
 10
45.3383140563965
 20
129.562744140625
 30
0.0
 11
45.3383140563965
 21
149.562744140625
 31
0.0
  0
LINE
  5
    83
  8
0
  6
CONTINUOUS
 62
     2
 10
45.3383140563965
 20
9.562744140625
 30
0.0
 11
45.3383140563965
 21
128.562744140625
 31
0.0
  0
LINE
  5
    84
  8
0
  6
CONTINUOUS
 62
     2
 10
45.3383140563965
 20
-11.437255859375
 30
0.0
 11
45.3383140563965
 21
8.562744140625
 31
0.0
  0
LINE
  5
    85
  8
0
  6
CONTINUOUS
 62
     2
 10
46.3383140563965
 20
-11.437255859375
 30
0.0
 11
46.3383140563965
 21
8.562744140625
 31
0.0
  0
LINE
  5
    86
  8
0
  6
CONTINUOUS
 62
     2
 10
175.338317871094
 20
33.312744140625
 30
0.0
 11
210.838317871094
 21
33.312744140625
 31
0.0
  0
LINE
  5
    87
  8
0
  6
CONTINUOUS
 62
     2
 10
175.338317871094
 20
50.312744140625
 30
0.0
 11
210.838317871094
 21
50.312744140625
 31
0.0
  0
LINE
  5
    88
  8
0
  6
CONTINUOUS
 62
     2
 10
175.388320922852
 20
49.312744140625
 30
0.0
 11
175.388320922852
 21
50.312744140625
 31
0.0
  0
LINE
  5
    89
  8
0
  6
CONTINUOUS
 62
     2
 10
175.388320922852
 20
33.312744140625
 30
0.0
 11
175.388320922852
 21
34.312744140625
 31
0.0
  0
LINE
  5
    8A
  8
0
  6
CONTINUOUS
 62
     2
 10
46.3383140563965
 20
128.562744140625
 30
0.0
 11
174.338314056396
 21
128.562744140625
 31
0.0
  0
LINE
  5
    8B
  8
0
  6
CONTINUOUS
 62
     2
 10
46.3383140563965
 20
9.562744140625
 30
0.0
 11
174.338314056396
 21
9.56274414062501
 31
0.0
  0
LINE
  5
    8C
  8
0
  6
CONTINUOUS
 62
     2
 10
174.338317871094
 20
9.56274414062501
 30
0.0
 11
174.338317871094
 21
128.562744140625
 31
0.0
  0
LINE
  5
    8D
  8
0
  6
CONTINUOUS
 62
     2
 10
46.3383140563965
 20
9.562744140625
 30
0.0
 11
46.3383140563965
 21
128.562744140625
 31
0.0
  0
LINE
  5
    8E
  8
0
  6
CONTINUOUS
 62
     2
 10
167.338315963745
 20
121.562743016692
 30
0.0
 11
174.338312295455
 21
128.562739348402
 31
0.0
  0
LINE
  5
    8F
  8
0
  6
CONTINUOUS
 62
     2
 10
46.3383156391412
 20
128.562746004959
 30
0.0
 11
62.3383159637451
 21
121.033336629486
 31
0.0
  0
LINE
  5
    90
  8
0
  6
CONTINUOUS
 62
     2
 10
167.338315963745
 20
16.5627619426901
 30
0.0
 11
174.338335117812
 21
9.56273924827786
 31
0.0
  0
LINE
  5
    91
  8
0
  6
CONTINUOUS
 62
     2
 10
46.3383186567184
 20
9.56274576222224
 30
0.0
 11
62.3383159637451
 21
17.092157375641
 31
0.0
  0
LINE
  5
    92
  8
0
  6
CONTINUOUS
 62
     2
 10
174.338256835938
 20
129.556442260742
 30
0.0
 11
174.338256835938
 21
149.556442260742
 31
0.0
  0
LINE
  5
    93
  8
0
  6
CONTINUOUS
 62
     2
 10
45.3383140563965
 20
129.556442260742
 30
0.0
 11
175.338317871094
 21
129.556442260742
 31
0.0
  0
LINE
  5
    94
  8
0
  6
CONTINUOUS
 62
     2
 10
37.5883140563965
 20
149.556442260742
 30
0.0
 11
45.3383140563965
 21
149.556442260742
 31
0.0
  0
LINE
  5
    95
  8
0
  6
CONTINUOUS
 62
     2
 10
115.343585020102
 20
149.556442260742
 30
0.0
 11
175.338317871094
 21
149.556442260742
 31
0.0
  0
ARC
  5
    96
  8
0
  6
CONTINUOUS
 62
     2
 10
110.338285446167
 20
153.703627621259
 30
0.0
 40
6.50016693934245
 50
219.643748317915
 51
320.356251682085
  0
LINE
  5
    97
  8
0
  6
CONTINUOUS
 62
     2
 10
105.332985872232
 20
149.556442260742
 30
0.0
 11
115.343585020102
 21
149.556442260742
 31
0.0
  0
LINE
  5
    98
  8
0
  6
CONTINUOUS
 62
     2
 10
46.3383140563965
 20
129.562744140625
 30
0.0
 11
46.3383140563965
 21
149.562744140625
 31
0.0
  0
LINE
  5
    99
  8
0
  6
CONTINUOUS
 62
     2
 10
45.3383140563965
 20
149.556442260742
 30
0.0
 11
105.332985872232
 21
149.556442260742
 31
0.0
  0
LINE
  5
    9A
  8
0
  6
CONTINUOUS
 62
     2
 10
175.338317871094
 20
149.556442260742
 30
0.0
 11
209.588317871094
 21
149.556442260742
 31
0.0
  0
POINT
  5
    9B
  8
0
  6
CONTINUOUS
 62
     2
 10
114.838315963745
 20
69.062744140625
 30
0.0
  0
ARC
  5
    9C
  8
0
  6
CONTINUOUS
 62
     2
 10
37.5883140563965
 20
148.306442260742
 30
0.0
 40
1.25
 50
90.0
 51
180.0
  0
ARC
  5
    9D
  8
0
  6
CONTINUOUS
 62
     2
 10
37.5883140563965
 20
-10.187255859375
 30
0.0
 40
1.25
 50
180.0
 51
270.0
  0
ARC
  5
    9E
  8
0
  6
CONTINUOUS
 62
     2
 10
209.588317871094
 20
-10.187255859375
 30
0.0
 40
1.25
 50
270.0
 51
360.0
  0
ARC
  5
    9F
  8
0
  6
CONTINUOUS
 62
     2
 10
209.588317871094
 20
148.306442260742
 30
0.0
 40
1.25
 50
0.0
 51
90.0
  0
ENDBLK
  5
    A0
  8
0
  6
CONTINUOUS
 62
     7
  0
BLOCK
  5
    A1
  8
0
  6
CONTINUOUS
 62
     7
  2
TERM_400_FT_
 70
    64
 10
0.0
 20
0.0
 30
0.0
  3
TERM_400_FT_
  0
LINE
  5
    A2
  8
0
  6
DASHDOT
 62
     7
 10
-53.5499717146979
 20
246.443231191352
 30
0.0
 11
-53.5499717146979
 21
284.545618433223
 31
0.0
  0
LINE
  5
    A3
  8
0
  6
DASHDOT
 62
     7
 10
-97.2999687194824
 20
247.556784339915
 30
0.0
 11
-97.2999687194824
 21
284.545618433223
 31
0.0
  0
LINE
  5
    A4
  8
0
  6
DASHDOT
 62
     7
 10
-141.049964904786
 20
246.860813622064
 30
0.0
 11
-141.049964904786
 21
283.571266281189
 31
0.0
  0
LINE
  5
    A5
  8
0
  6
CONTINUOUS
 62
   130
 10
-84.7998886108399
 20
254.040756225586
 30
0.0
 11
-84.7998886108399
 21
257.237060546875
 31
0.0
  0
LINE
  5
    A6
  8
0
  6
CONTINUOUS
 62
   130
 10
-87.5498886108399
 20
257.237060546875
 30
0.0
 11
-84.7998886108399
 21
257.237060546875
 31
0.0
  0
LINE
  5
    A7
  8
0
  6
CONTINUOUS
 62
   130
 10
-87.5498886108399
 20
257.237060546875
 30
0.0
 11
-87.5498886108399
 21
282.237060546875
 31
0.0
  0
LINE
  5
    A8
  8
0
  6
CONTINUOUS
 62
   130
 10
-107.04988861084
 20
282.237060546875
 30
0.0
 11
-87.5498886108399
 21
282.237060546875
 31
0.0
  0
LINE
  5
    A9
  8
0
  6
CONTINUOUS
 62
   130
 10
-107.04988861084
 20
257.237060546875
 30
0.0
 11
-107.04988861084
 21
282.237060546875
 31
0.0
  0
LINE
  5
    AA
  8
0
  6
CONTINUOUS
 62
   130
 10
-109.79988861084
 20
257.237060546875
 30
0.0
 11
-107.04988861084
 21
257.237060546875
 31
0.0
  0
LINE
  5
    AB
  8
0
  6
CONTINUOUS
 62
   130
 10
-109.79988861084
 20
254.040756225586
 30
0.0
 11
-109.79988861084
 21
257.237060546875
 31
0.0
  0
LINE
  5
    AC
  8
0
  6
CONTINUOUS
 62
   130
 10
-84.7998886108399
 20
250.058898925781
 30
0.0
 11
-84.7998886108399
 21
251.980316162109
 31
0.0
  0
LINE
  5
    AD
  8
0
  6
CONTINUOUS
 62
   130
 10
-84.7998886108399
 20
248.406158447266
 30
0.0
 11
-84.7998886108399
 21
250.058898925781
 31
0.0
  0
LINE
  5
    AE
  8
0
  6
CONTINUOUS
 62
   130
 10
-84.7998886108399
 20
247.133590698242
 30
0.0
 11
-84.7998886108399
 21
248.406158447266
 31
0.0
  0
LINE
  5
    AF
  8
0
  6
CONTINUOUS
 62
   130
 10
-84.7998886108399
 20
243.237016575898
 30
0.0
 11
-84.7998886108399
 21
247.133590698242
 31
0.0
  0
LINE
  5
    B0
  8
0
  6
CONTINUOUS
 62
   130
 10
-84.7998886108399
 20
251.980316162109
 30
0.0
 11
-84.7998886108399
 21
254.040756225586
 31
0.0
  0
LINE
  5
    B1
  8
0
  6
CONTINUOUS
 62
   130
 10
-109.79988861084
 20
246.327056884766
 30
0.0
 11
-109.79988861084
 21
247.133590698242
 31
0.0
  0
LINE
  5
    B2
  8
0
  6
CONTINUOUS
 62
   130
 10
-109.79988861084
 20
250.058898925781
 30
0.0
 11
-109.79988861084
 21
251.980316162109
 31
0.0
  0
LINE
  5
    B3
  8
0
  6
CONTINUOUS
 62
   130
 10
-109.79988861084
 20
247.133590698242
 30
0.0
 11
-109.79988861084
 21
248.406158447266
 31
0.0
  0
LINE
  5
    B4
  8
0
  6
CONTINUOUS
 62
   130
 10
-109.79988861084
 20
251.980316162109
 30
0.0
 11
-109.79988861084
 21
254.040756225586
 31
0.0
  0
LINE
  5
    B5
  8
0
  6
CONTINUOUS
 62
   130
 10
-109.79988861084
 20
248.406158447266
 30
0.0
 11
-109.79988861084
 21
250.058898925781
 31
0.0
  0
LINE
  5
    B6
  8
0
  6
CONTINUOUS
 62
   130
 10
-109.79988861084
 20
243.237028223804
 30
0.0
 11
-109.79988861084
 21
246.327056884766
 31
0.0
  0
CIRCLE
  5
    B7
  8
0
  6
CONTINUOUS
 62
   130
 10
-97.2999386586023
 20
268.237135538299
 30
0.0
 40
5.09993111210575
  0
LINE
  5
    B8
  8
0
  6
CONTINUOUS
 62
   130
 10
-150.799884796143
 20
282.237046830361
 30
0.0
 11
-131.299884796143
 21
282.237046830361
 31
0.0
  0
LINE
  5
    B9
  8
0
  6
CONTINUOUS
 62
   130
 10
-150.799884796143
 20
257.237046830361
 30
0.0
 11
-150.799884796143
 21
282.237046830361
 31
0.0
  0
LINE
  5
    BA
  8
0
  6
CONTINUOUS
 62
   130
 10
-131.299884796143
 20
257.237046830361
 30
0.0
 11
-131.299884796143
 21
282.237046830361
 31
0.0
  0
CIRCLE
  5
    BB
  8
0
  6
CONTINUOUS
 62
   130
 10
-141.049934843906
 20
268.237121821785
 30
0.0
 40
5.09993111210575
  0
LINE
  5
    BC
  8
0
  6
CONTINUOUS
 62
   130
 10
-153.549884796143
 20
257.237046830361
 30
0.0
 11
-150.799884796143
 21
257.237046830361
 31
0.0
  0
LINE
  5
    BD
  8
0
  6
CONTINUOUS
 62
   130
 10
-131.299884796143
 20
257.237046830361
 30
0.0
 11
-128.549884796143
 21
257.237046830361
 31
0.0
  0
LINE
  5
    BE
  8
0
  6
CONTINUOUS
 62
   130
 10
-128.549884796143
 20
243.237030029297
 30
0.0
 11
-128.549884796143
 21
257.237046830361
 31
0.0
  0
LINE
  5
    BF
  8
0
  6
CONTINUOUS
 62
   130
 10
-153.549884796143
 20
243.237030029297
 30
0.0
 11
-153.549884796143
 21
257.237046830361
 31
0.0
  0
LINE
  5
    C0
  8
0
  6
CONTINUOUS
 62
   130
 10
-63.2998916060554
 20
282.237008820714
 30
0.0
 11
-43.7998916060554
 21
282.237008820714
 31
0.0
  0
CIRCLE
  5
    C1
  8
0
  6
CONTINUOUS
 62
   130
 10
-53.5499416538178
 20
268.237083812138
 30
0.0
 40
5.09993111210575
  0
LINE
  5
    C2
  8
0
  6
CONTINUOUS
 62
   130
 10
-63.2998916060554
 20
257.237008820714
 30
0.0
 11
-63.2998916060554
 21
282.237008820714
 31
0.0
  0
LINE
  5
    C3
  8
0
  6
CONTINUOUS
 62
   130
 10
-43.7998916060554
 20
257.237008820714
 30
0.0
 11
-43.7998916060554
 21
282.237008820714
 31
0.0
  0
LINE
  5
    C4
  8
0
  6
CONTINUOUS
 62
   130
 10
-41.0498916060554
 20
243.236992019649
 30
0.0
 11
-41.0498916060554
 21
257.237008820714
 31
0.0
  0
LINE
  5
    C5
  8
0
  6
CONTINUOUS
 62
   130
 10
-66.0498916060554
 20
243.236992019649
 30
0.0
 11
-66.0498916060554
 21
257.237008820714
 31
0.0
  0
LINE
  5
    C6
  8
0
  6
CONTINUOUS
 62
   130
 10
-66.0498916060554
 20
257.237008820714
 30
0.0
 11
-63.2998916060554
 21
257.237008820714
 31
0.0
  0
LINE
  5
    C7
  8
0
  6
CONTINUOUS
 62
   130
 10
-43.7998916060554
 20
257.237008820714
 30
0.0
 11
-41.0498916060554
 21
257.237008820714
 31
0.0
  0
LINE
  5
    C8
  8
0
  6
DASHDOT
 62
     7
 10
-61.6498727659236
 20
268.237083812138
 30
0.0
 11
-45.4500105417121
 21
268.237083812138
 31
0.0
  0
LINE
  5
    C9
  8
0
  6
DASHDOT
 62
     7
 10
-105.399869770708
 20
268.237135538299
 30
0.0
 11
-89.2000075464965
 21
268.237135538299
 31
0.0
  0
LINE
  5
    CA
  8
0
  6
DASHDOT
 62
     7
 10
-149.149865956011
 20
268.237121821785
 30
0.0
 11
-132.9500037318
 21
268.237121821785
 31
0.0
  0
POINT
  5
    CB
  8
0
  6
CONTINUOUS
 62
     7
 10
-97.2999687194824
 20
243.237022399888
 30
0.0
  0
ENDBLK
  5
    CC
  8
0
  6
CONTINUOUS
 62
     7
  0
BLOCK
  5
    CD
  8
0
  6
CONTINUOUS
 62
     7
  2
*UDIM906
 70
    65
 10
0.0
 20
0.0
 30
0.0
  3
*UDIM906
  0
TEXT
  5
    CE
  8
0
  6
CONTINUOUS
 62
     7
 10
-403.910071391253
 20
200.30759103159
 30
0.0
 40
2.99999997871263
  1
43,75
 50
359.999999948034
 41
0.933333333333333
 72
     1
 11
-397.210071437442
 21
201.807591014903
 31
0.0
 73
     2
  0
LINE
  5
    CF
  8
0
  6
CONTINUOUS
 62
     7
 10
-362.249934760928
 20
184.149604281971
 30
0.0
 11
-362.249934760928
 21
200.307591025547
 31
0.0
  0
LINE
  5
    D0
  8
0
  6
CONTINUOUS
 62
     7
 10
-377.562433165014
 20
183.808581034567
 30
0.0
 11
-377.562433165014
 21
200.307591025547
 31
0.0
  0
LINE
  5
    D1
  8
0
  6
CONTINUOUS
 62
     7
 10
-362.249934760928
 20
198.307591025547
 30
0.0
 11
-403.9100713899
 21
198.307591025547
 31
0.0
  0
CIRCLE
  5
    D2
  8
0
  6
CONTINUOUS
 62
     7
 10
-362.249934760928
 20
198.307591025547
 30
0.0
 40
0.999999999999998
  0
LINE
  5
    D3
  8
0
  6
CONTINUOUS
 62
     7
 10
-380.460210638225
 20
197.531133869128
 30
0.0
 11
-377.562433165014
 21
198.307591025547
 31
0.0
  0
LINE
  5
    D4
  8
0
  6
CONTINUOUS
 62
     7
 10
-377.562433165014
 20
198.307591025547
 30
0.0
 11
-380.460210638225
 21
199.084048181965
 31
0.0
  0
ENDBLK
  5
    D5
  8
0
  6
CONTINUOUS
 62
     7
  0
BLOCK
  5
    D6
  8
0
  6
CONTINUOUS
 62
     7
  2
*UDIM907
 70
    65
 10
0.0
 20
0.0
 30
0.0
  3
*UDIM907
  0
TEXT
  5
    D7
  8
0
  6
CONTINUOUS
 62
     7
 10
-333.357019737868
 20
200.30759103159
 30
0.0
 40
2.99999997871263
  1
43,75
 50
359.999999948034
 41
0.933333333333333
 72
     1
 11
-326.657019784057
 21
201.807591014903
 31
0.0
 73
     2
  0
LINE
  5
    D8
  8
0
  6
CONTINUOUS
 62
     7
 10
-346.937436070024
 20
184.149604281971
 30
0.0
 11
-346.937436070024
 21
200.307591025547
 31
0.0
  0
LINE
  5
    D9
  8
0
  6
CONTINUOUS
 62
     7
 10
-319.957019831599
 20
198.307591025547
 30
0.0
 11
-362.249934760928
 21
198.307591025547
 31
0.0
  0
LINE
  5
    DA
  8
0
  6
CONTINUOUS
 62
     7
 10
-344.039658596814
 20
199.084048181965
 30
0.0
 11
-346.937436070024
 21
198.307591025547
 31
0.0
  0
LINE
  5
    DB
  8
0
  6
CONTINUOUS
 62
     7
 10
-346.937436070024
 20
198.307591025547
 30
0.0
 11
-344.039658596814
 21
197.531133869128
 31
0.0
  0
CIRCLE
  5
    DC
  8
0
  6
CONTINUOUS
 62
     7
 10
-362.249934760928
 20
198.307591025547
 30
0.0
 40
0.999999999999998
  0
ENDBLK
  5
    DD
  8
0
  6
CONTINUOUS
 62
     7
  0
BLOCK
  5
    DE
  8
0
  6
CONTINUOUS
 62
     7
  2
*UDIM908
 70
    65
 10
0.0
 20
0.0
 30
0.0
  3
*UDIM908
  0
TEXT
  5
    DF
  8
0
  6
CONTINUOUS
 62
     7
 10
-366.424956975238
 20
207.552996473013
 30
0.0
 40
2.99999997871263
  1
140
 50
359.999999948034
 41
0.933333333333333
 72
     1
 11
-362.524957001558
 21
209.052996458852
 31
0.0
 73
     2
  0
LINE
  5
    E0
  8
0
  6
CONTINUOUS
 62
     7
 10
-337.74995551017
 20
167.329103178654
 30
0.0
 11
-337.74995551017
 21
208.552996469496
 31
0.0
  0
LINE
  5
    E1
  8
0
  6
CONTINUOUS
 62
     7
 10
-386.749954675695
 20
167.329104065331
 30
0.0
 11
-386.749954675695
 21
208.552996469496
 31
0.0
  0
LINE
  5
    E2
  8
0
  6
CONTINUOUS
 62
     7
 10
-337.74995551017
 20
206.552996469496
 30
0.0
 11
-386.749954675695
 21
206.552996469496
 31
0.0
  0
LINE
  5
    E3
  8
0
  6
CONTINUOUS
 62
     7
 10
-340.704378787377
 20
206.032052039544
 30
0.0
 11
-337.74995551017
 21
206.552996469496
 31
0.0
  0
LINE
  5
    E4
  8
0
  6
CONTINUOUS
 62
     7
 10
-337.74995551017
 20
206.552996469496
 30
0.0
 11
-340.704378787377
 21
207.073940899447
 31
0.0
  0
LINE
  5
    E5
  8
0
  6
CONTINUOUS
 62
     7
 10
-383.795531398488
 20
207.073940899447
 30
0.0
 11
-386.749954675695
 21
206.552996469496
 31
0.0
  0
LINE
  5
    E6
  8
0
  6
CONTINUOUS
 62
     7
 10
-386.749954675695
 20
206.552996469496
 30
0.0
 11
-383.795531398488
 21
206.032052039544
 31
0.0
  0
ENDBLK
  5
    E7
  8
0
  6
CONTINUOUS
 62
     7
  0
BLOCK
  5
    E8
  8
0
  6
CONTINUOUS
 62
     7
  2
*UDIM909
 70
    65
 10
0.0
 20
0.0
 30
0.0
  3
*UDIM909
  0
TEXT
  5
    E9
  8
0
  6
CONTINUOUS
 62
     7
 10
-403.687985523736
 20
54.4695208505332
 30
0.0
 40
2.99999997871263
  1
19,5
 50
359.999999948034
 41
0.933333333333333
 72
     1
 11
-398.387985559991
 21
55.9695208351092
 31
0.0
 73
     2
  0
LINE
  5
    EA
  8
0
  6
CONTINUOUS
 62
     7
 10
-374.149905185104
 20
59.5416265916829
 30
0.0
 11
-374.149905185104
 21
50.4695208457528
 31
0.0
  0
LINE
  5
    EB
  8
0
  6
CONTINUOUS
 62
     7
 10
-380.974905068875
 20
59.5416265916829
 30
0.0
 11
-380.974905068875
 21
50.4695208457528
 31
0.0
  0
LINE
  5
    EC
  8
0
  6
CONTINUOUS
 62
     7
 10
-369.149905185104
 20
52.4695208457528
 30
0.0
 11
-403.687985522383
 21
52.4695208457528
 31
0.0
  0
LINE
  5
    ED
  8
0
  6
CONTINUOUS
 62
     7
 10
-371.252127711894
 20
53.2459780021714
 30
0.0
 11
-374.149905185104
 21
52.4695208457528
 31
0.0
  0
LINE
  5
    EE
  8
0
  6
CONTINUOUS
 62
     7
 10
-374.149905185104
 20
52.4695208457528
 30
0.0
 11
-371.252127711894
 21
51.6930636893343
 31
0.0
  0
LINE
  5
    EF
  8
0
  6
CONTINUOUS
 62
     7
 10
-383.872682542086
 20
51.6930636893343
 30
0.0
 11
-380.974905068875
 21
52.4695208457528
 31
0.0
  0
LINE
  5
    F0
  8
0
  6
CONTINUOUS
 62
     7
 10
-380.974905068875
 20
52.4695208457528
 30
0.0
 11
-383.872682542086
 21
53.2459780021714
 31
0.0
  0
ENDBLK
  5
    F1
  8
0
  6
CONTINUOUS
 62
     7
  0
BLOCK
  5
    F2
  8
0
  6
CONTINUOUS
 62
     7
  2
*UDIM910
 70
    65
 10
0.0
 20
0.0
 30
0.0
  3
*UDIM910
  0
TEXT
  5
    F3
  8
0
  6
CONTINUOUS
 62
     7
 10
-349.437408015613
 20
54.4695208480077
 30
0.0
 40
2.99999997871263
  1
25
 50
359.999999948034
 41
0.933333333333333
 72
     1
 11
-346.937408032
 21
55.9695208351092
 31
0.0
 73
     2
  0
LINE
  5
    F4
  8
0
  6
CONTINUOUS
 62
     7
 10
-342.562408106505
 20
68.2916397460477
 30
0.0
 11
-342.562408106505
 21
50.4695208457528
 31
0.0
  0
LINE
  5
    F5
  8
0
  6
CONTINUOUS
 62
     7
 10
-351.312407957494
 20
68.2916397460477
 30
0.0
 11
-351.312407957494
 21
50.4695208457528
 31
0.0
  0
LINE
  5
    F6
  8
0
  6
CONTINUOUS
 62
     7
 10
-337.562408106505
 20
52.4695208457528
 30
0.0
 11
-356.312407957494
 21
52.4695208457528
 31
0.0
  0
LINE
  5
    F7
  8
0
  6
CONTINUOUS
 62
     7
 10
-339.664630633295
 20
53.2459780021714
 30
0.0
 11
-342.562408106505
 21
52.4695208457528
 31
0.0
  0
LINE
  5
    F8
  8
0
  6
CONTINUOUS
 62
     7
 10
-342.562408106505
 20
52.4695208457528
 30
0.0
 11
-339.664630633295
 21
51.6930636893343
 31
0.0
  0
LINE
  5
    F9
  8
0
  6
CONTINUOUS
 62
     7
 10
-354.210185430704
 20
51.6930636893343
 30
0.0
 11
-351.312407957494
 21
52.4695208457528
 31
0.0
  0
LINE
  5
    FA
  8
0
  6
CONTINUOUS
 62
     7
 10
-351.312407957494
 20
52.4695208457528
 30
0.0
 11
-354.210185430704
 21
53.2459780021714
 31
0.0
  0
ENDBLK
  5
    FB
  8
0
  6
CONTINUOUS
 62
     7
  0
BLOCK
  5
    FC
  8
0
  6
CONTINUOUS
 62
     7
  2
*UDIM911
 70
    65
 10
0.0
 20
0.0
 30
0.0
  3
*UDIM911
  0
TEXT
  5
    FD
  8
0
  6
CONTINUOUS
 62
     7
 10
-327.702502976353
 20
175.46659102224
 30
0.0
 40
2.99999997871263
  1
25
 50
89.9999999480344
 41
0.933333333333333
 72
     1
 11
-329.202502963445
 21
177.966591005859
 31
0.0
 73
     2
  0
LINE
  5
    FE
  8
0
  6
CONTINUOUS
 62
     7
 10
-341.562408106506
 20
173.591591080365
 30
0.0
 11
-323.702502974089
 21
173.591591080365
 31
0.0
  0
LINE
  5
    FF
  8
0
  6
CONTINUOUS
 62
     7
 10
-342.524908090114
 20
182.341590931353
 30
0.0
 11
-323.702502974089
 21
182.341590931353
 31
0.0
  0
LINE
  5
   100
  8
0
  6
CONTINUOUS
 62
     7
 10
-325.702502974089
 20
168.591591080365
 30
0.0
 11
-325.702502974089
 21
187.341590931353
 31
0.0
  0
LINE
  5
   101
  8
0
  6
CONTINUOUS
 62
     7
 10
-324.926045817671
 20
170.693813607154
 30
0.0
 11
-325.702502974089
 21
173.591591080365
 31
0.0
  0
LINE
  5
   102
  8
0
  6
CONTINUOUS
 62
     7
 10
-325.702502974089
 20
173.591591080365
 30
0.0
 11
-326.478960130508
 21
170.693813607154
 31
0.0
  0
LINE
  5
   103
  8
0
  6
CONTINUOUS
 62
     7
 10
-326.478960130508
 20
185.239368404564
 30
0.0
 11
-325.702502974089
 21
182.341590931353
 31
0.0
  0
LINE
  5
   104
  8
0
  6
CONTINUOUS
 62
     7
 10
-325.702502974089
 20
182.341590931353
 30
0.0
 11
-324.926045817671
 21
185.239368404564
 31
0.0
  0
ENDBLK
  5
   105
  8
0
  6
CONTINUOUS
 62
     7
  0
BLOCK
  5
   106
  8
0
  6
CONTINUOUS
 62
     7
  2
*UDIM912
 70
    65
 10
0.0
 20
0.0
 30
0.0
  3
*UDIM912
  0
TEXT
  5
   107
  8
0
  6
CONTINUOUS
 62
     7
 10
-415.964897216405
 20
141.647877253146
 30
0.0
 40
2.99999997871263
  1
158,25
 50
89.9999999480344
 41
0.933333333333333
 72
     1
 11
-417.464897198425
 21
149.747877197028
 31
0.0
 73
     2
  0
LINE
  5
   108
  8
0
  6
CONTINUOUS
 62
     7
 10
-411.441018562536
 20
122.054123828882
 30
0.0
 11
-415.964897209068
 21
122.054123828882
 31
0.0
  0
LINE
  5
   109
  8
0
  6
CONTINUOUS
 62
     7
 10
-381.397398484664
 20
177.441630565174
 30
0.0
 11
-415.964897209068
 21
177.441630565174
 31
0.0
  0
LINE
  5
   10A
  8
0
  6
CONTINUOUS
 62
     7
 10
-413.964897209068
 20
122.054123828882
 30
0.0
 11
-413.964897209068
 21
177.441630565174
 31
0.0
  0
LINE
  5
   10B
  8
0
  6
CONTINUOUS
 62
     7
 10
-414.741354365487
 20
124.951901302093
 30
0.0
 11
-413.964897209068
 21
122.054123828882
 31
0.0
  0
LINE
  5
   10C
  8
0
  6
CONTINUOUS
 62
     7
 10
-413.964897209068
 20
122.054123828882
 30
0.0
 11
-413.18844005265
 21
124.951901302093
 31
0.0
  0
LINE
  5
   10D
  8
0
  6
CONTINUOUS
 62
     7
 10
-413.18844005265
 20
174.543853091964
 30
0.0
 11
-413.964897209068
 21
177.441630565174
 31
0.0
  0
LINE
  5
   10E
  8
0
  6
CONTINUOUS
 62
     7
 10
-413.964897209068
 20
177.441630565174
 30
0.0
 11
-414.741354365487
 21
174.543853091964
 31
0.0
  0
ENDBLK
  5
   10F
  8
0
  6
CONTINUOUS
 62
     7
  0
BLOCK
  5
   110
  8
0
  6
CONTINUOUS
 62
     7
  2
*UDIM913
 70
    65
 10
0.0
 20
0.0
 30
0.0
  3
*UDIM913
  0
TEXT
  5
   111
  8
0
  6
CONTINUOUS
 62
     7
 10
-422.463738940553
 20
177.391617416333
 30
0.0
 40
2.99999997871263
  1
14
 50
89.9999999480344
 41
0.933333333333333
 72
     1
 11
-423.963738927645
 21
179.891617399952
 31
0.0
 73
     2
  0
LINE
  5
   112
  8
0
  6
CONTINUOUS
 62
     7
 10
-381.397398484664
 20
177.441630565174
 30
0.0
 11
-422.463738938289
 21
177.441630565174
 31
0.0
  0
LINE
  5
   113
  8
0
  6
CONTINUOUS
 62
     7
 10
-381.974905068875
 20
182.34160423473
 30
0.0
 11
-422.463738938289
 21
182.34160423473
 31
0.0
  0
LINE
  5
   114
  8
0
  6
CONTINUOUS
 62
     7
 10
-420.463738938289
 20
177.391617417691
 30
0.0
 11
-420.463738938289
 21
187.34160423473
 31
0.0
  0
LINE
  5
   115
  8
0
  6
CONTINUOUS
 62
     7
 10
-419.68728178187
 20
174.543853091964
 30
0.0
 11
-420.463738938289
 21
177.441630565174
 31
0.0
  0
LINE
  5
   116
  8
0
  6
CONTINUOUS
 62
     7
 10
-420.463738938289
 20
177.441630565174
 30
0.0
 11
-421.240196094707
 21
174.543853091964
 31
0.0
  0
LINE
  5
   117
  8
0
  6
CONTINUOUS
 62
     7
 10
-421.240196094707
 20
185.23938170794
 30
0.0
 11
-420.463738938289
 21
182.34160423473
 31
0.0
  0
LINE
  5
   118
  8
0
  6
CONTINUOUS
 62
     7
 10
-420.463738938289
 20
182.34160423473
 30
0.0
 11
-419.68728178187
 21
185.23938170794
 31
0.0
  0
ENDBLK
  5
   119
  8
0
  6
CONTINUOUS
 62
     7
  0
BLOCK
  5
   11A
  8
0
  6
CONTINUOUS
 62
     7
  2
*UDIM914
 70
    65
 10
0.0
 20
0.0
 30
0.0
  3
*UDIM914
  0
TEXT
  5
   11B
  8
0
  6
CONTINUOUS
 62
     7
 10
-422.463738940553
 20
60.4916134428417
 30
0.0
 40
2.99999997871263
  1
14
 50
89.9999999480344
 41
0.933333333333333
 72
     1
 11
-423.963738927645
 21
62.9916134264607
 31
0.0
 73
     2
  0
LINE
  5
   11C
  8
0
  6
CONTINUOUS
 62
     7
 10
-381.974905068875
 20
60.5416265916829
 30
0.0
 11
-422.463738938289
 21
60.5416265916829
 31
0.0
  0
LINE
  5
   11D
  8
0
  6
CONTINUOUS
 62
     7
 10
-420.463738938289
 20
55.5416265916829
 30
0.0
 11
-420.463738938289
 21
65.4916134087213
 31
0.0
  0
LINE
  5
   11E
  8
0
  6
CONTINUOUS
 62
     7
 10
-419.68728178187
 20
57.6438491184724
 30
0.0
 11
-420.463738938289
 21
60.5416265916829
 31
0.0
  0
LINE
  5
   11F
  8
0
  6
CONTINUOUS
 62
     7
 10
-420.463738938289
 20
60.5416265916829
 30
0.0
 11
-421.240196094707
 21
57.6438491184724
 31
0.0
  0
LINE
  5
   120
  8
0
  6
CONTINUOUS
 62
     7
 10
-421.240196094707
 20
68.3393777344491
 30
0.0
 11
-420.463738938289
 21
65.4416002612386
 31
0.0
  0
LINE
  5
   121
  8
0
  6
CONTINUOUS
 62
     7
 10
-420.463738938289
 20
65.4416002612386
 30
0.0
 11
-419.68728178187
 21
68.3393777344491
 31
0.0
  0
ENDBLK
  5
   122
  8
0
  6
CONTINUOUS
 62
     7
  0
BLOCK
  5
   123
  8
0
  6
CONTINUOUS
 62
     7
  2
*UDIM915
 70
    65
 10
0.0
 20
0.0
 30
0.0
  3
*UDIM915
  0
TEXT
  5
   124
  8
0
  6
CONTINUOUS
 62
     7
 10
-422.463738941821
 20
117.541615439521
 30
0.0
 40
2.99999997871263
  1
320
 50
89.9999999480344
 41
0.933333333333333
 72
     1
 11
-423.963738927645
 21
121.441615413206
 31
0.0
 73
     2
  0
LINE
  5
   125
  8
0
  6
CONTINUOUS
 62
     7
 10
-381.397398484664
 20
65.4416002612386
 30
0.0
 11
-422.463738938289
 21
65.4416002612386
 31
0.0
  0
LINE
  5
   126
  8
0
  6
CONTINUOUS
 62
     7
 10
-420.463738938289
 20
65.4416002612386
 30
0.0
 11
-420.463738938289
 21
177.441630565174
 31
0.0
  0
LINE
  5
   127
  8
0
  6
CONTINUOUS
 62
     7
 10
-421.240196094707
 20
68.3393777344491
 30
0.0
 11
-420.463738938289
 21
65.4416002612386
 31
0.0
  0
LINE
  5
   128
  8
0
  6
CONTINUOUS
 62
     7
 10
-420.463738938289
 20
65.4416002612386
 30
0.0
 11
-419.68728178187
 21
68.3393777344491
 31
0.0
  0
LINE
  5
   129
  8
0
  6
CONTINUOUS
 62
     7
 10
-419.68728178187
 20
174.543853091964
 30
0.0
 11
-420.463738938289
 21
177.441630565174
 31
0.0
  0
LINE
  5
   12A
  8
0
  6
CONTINUOUS
 62
     7
 10
-420.463738938289
 20
177.441630565174
 30
0.0
 11
-421.240196094707
 21
174.543853091964
 31
0.0
  0
ENDBLK
  5
   12B
  8
0
  6
CONTINUOUS
 62
     7
  0
BLOCK
  5
   12C
  8
0
  6
CONTINUOUS
 62
     7
  2
*UDIM916
 70
    65
 10
0.0
 20
0.0
 30
0.0
  3
*UDIM916
  0
TEXT
  5
   12D
  8
0
  6
CONTINUOUS
 62
     7
 10
-321.786270519666
 20
51.1496401574184
 30
0.0
 40
2.99999997871263
  1
10,2
 50
326.428487368281
 41
0.933333333333333
 72
     1
 11
-316.540864225657
 21
49.46865461905
 31
0.0
 73
     2
  0
TEXT
  5
   12E
  8
0
  6
CONTINUOUS
 62
     7
 10
-325.119055638329
 20
53.3615495548663
 30
0.0
 40
2.99999997871263
  1
Ø
 50
326.428487368281
 41
1.2
 72
     1
 11
-323.039795197736
 21
53.7818779459175
 31
0.0
 73
     2
  0
LINE
  5
   12F
  8
0
  6
CONTINUOUS
 62
     7
 10
-314.060344683456
 20
43.6216876850225
 30
0.0
 11
-352.590642218792
 21
69.1935515553346
 31
0.0
  0
LINE
  5
   130
  8
0
  6
CONTINUOUS
 62
     7
 10
-342.606409652227
 20
63.4990982393392
 30
0.0
 11
-345.45019029677
 21
64.4545623389911
 31
0.0
  0
LINE
  5
   131
  8
0
  6
CONTINUOUS
 62
     7
 10
-345.45019029677
 20
64.4545623389911
 30
0.0
 11
-343.465136098405
 21
62.205215805094
 31
0.0
  0
LINE
  5
   132
  8
0
  6
CONTINUOUS
 62
     7
 10
-351.268441445206
 20
67.3841288898907
 30
0.0
 11
-348.424660800663
 21
66.4286647902389
 31
0.0
  0
LINE
  5
   133
  8
0
  6
CONTINUOUS
 62
     7
 10
-348.424660800663
 20
66.4286647902389
 30
0.0
 11
-350.409714999027
 21
68.678011324136
 31
0.0
  0
ENDBLK
  5
   134
  8
0
  6
CONTINUOUS
 62
     7
  0
BLOCK
  5
   135
  8
0
  6
CONTINUOUS
 62
     7
  2
*UDIM917
 70
    65
 10
0.0
 20
0.0
 30
0.0
  3
*UDIM917
  0
TEXT
  5
   136
  8
0
  6
CONTINUOUS
 62
     7
 10
-305.339845304191
 20
117.266615888259
 30
0.0
 40
2.99999997871263
  1
270
 50
89.9999999480344
 41
0.933333333333333
 72
     1
 11
-306.839845290015
 21
121.166615861944
 31
0.0
 73
     2
  0
LINE
  5
   137
  8
0
  6
CONTINUOUS
 62
     7
 10
-337.974942316552
 20
74.1916374601508
 30
0.0
 11
-302.339845300659
 21
74.1916374601508
 31
0.0
  0
LINE
  5
   138
  8
0
  6
CONTINUOUS
 62
     7
 10
-337.974942316552
 20
168.691593366262
 30
0.0
 11
-302.339845300659
 21
168.691593366262
 31
0.0
  0
LINE
  5
   139
  8
0
  6
CONTINUOUS
 62
     7
 10
-304.339845300659
 20
74.1916374601508
 30
0.0
 11
-304.339845300659
 21
168.691593366262
 31
0.0
  0
LINE
  5
   13A
  8
0
  6
CONTINUOUS
 62
     7
 10
-304.860789730611
 20
77.1460607373578
 30
0.0
 11
-304.339845300659
 21
74.1916374601508
 31
0.0
  0
LINE
  5
   13B
  8
0
  6
CONTINUOUS
 62
     7
 10
-304.339845300659
 20
74.1916374601508
 30
0.0
 11
-303.818900870708
 21
77.1460607373578
 31
0.0
  0
LINE
  5
   13C
  8
0
  6
CONTINUOUS
 62
     7
 10
-303.818900870708
 20
165.737170089055
 30
0.0
 11
-304.339845300659
 21
168.691593366262
 31
0.0
  0
LINE
  5
   13D
  8
0
  6
CONTINUOUS
 62
     7
 10
-304.339845300659
 20
168.691593366262
 30
0.0
 11
-304.860789730611
 21
165.737170089055
 31
0.0
  0
ENDBLK
  5
   13E
  8
0
  6
CONTINUOUS
 62
     7
  0
BLOCK
  5
   13F
  8
0
  6
CONTINUOUS
 62
     7
  2
*UDIM918
 70
    65
 10
0.0
 20
0.0
 30
0.0
  3
*UDIM918
  0
TEXT
  5
   140
  8
0
  6
CONTINUOUS
 62
     7
 10
-313.350983133908
 20
136.99785528475
 30
0.0
 40
2.99999997871263
  1
133,25
 50
89.9999999480344
 41
0.933333333333333
 72
     1
 11
-314.850983115928
 21
145.097855228633
 31
0.0
 73
     2
  0
LINE
  5
   141
  8
0
  6
CONTINUOUS
 62
     7
 10
-320.728349766348
 20
122.054123828882
 30
0.0
 11
-310.350983126572
 21
122.054123828882
 31
0.0
  0
LINE
  5
   142
  8
0
  6
CONTINUOUS
 62
     7
 10
-337.974942316552
 20
168.691593366262
 30
0.0
 11
-310.350983126572
 21
168.691593366262
 31
0.0
  0
LINE
  5
   143
  8
0
  6
CONTINUOUS
 62
     7
 10
-312.350983126572
 20
122.054123828882
 30
0.0
 11
-312.350983126572
 21
168.691593366262
 31
0.0
  0
LINE
  5
   144
  8
0
  6
CONTINUOUS
 62
     7
 10
-312.871927556523
 20
125.008547106089
 30
0.0
 11
-312.350983126572
 21
122.054123828882
 31
0.0
  0
LINE
  5
   145
  8
0
  6
CONTINUOUS
 62
     7
 10
-312.350983126572
 20
122.054123828882
 30
0.0
 11
-311.83003869662
 21
125.008547106089
 31
0.0
  0
LINE
  5
   146
  8
0
  6
CONTINUOUS
 62
     7
 10
-311.83003869662
 20
165.737170089055
 30
0.0
 11
-312.350983126572
 21
168.691593366262
 31
0.0
  0
LINE
  5
   147
  8
0
  6
CONTINUOUS
 62
     7
 10
-312.350983126572
 20
168.691593366262
 30
0.0
 11
-312.871927556523
 21
165.737170089055
 31
0.0
  0
ENDBLK
  5
   148
  8
0
  6
CONTINUOUS
 62
     7
  0
BLOCK
  5
   149
  8
0
  6
CONTINUOUS
 62
     3
  2
*UDIM919
 70
    65
 10
0.0
 20
0.0
 30
0.0
  3
*UDIM919
  0
TEXT
  5
   14A
  8
0
  6
CONTINUOUS
 62
     3
 10
-394.396405448334
 20
117.878021057742
 30
0.0
 40
2.99999997871263
  1
161
 50
89.9999999480344
 41
0.933333333333333
 72
     1
 11
-395.896405434158
 21
121.778021031427
 31
0.0
 73
     2
  0
LINE
  5
   14B
  8
0
  6
CONTINUOUS
 62
     3
 10
-390.287452805333
 20
93.8791243086997
 30
0.0
 11
-395.396405444802
 21
93.8791243086997
 31
0.0
  0
LINE
  5
   14C
  8
0
  6
CONTINUOUS
 62
     3
 10
-387.574952851527
 20
150.226917691144
 30
0.0
 11
-395.396405444802
 21
150.226917691144
 31
0.0
  0
LINE
  5
   14D
  8
0
  6
CONTINUOUS
 62
     3
 10
-393.396405444802
 20
93.8791243086997
 30
0.0
 11
-393.396405444802
 21
150.226917691144
 31
0.0
  0
LINE
  5
   14E
  8
0
  6
CONTINUOUS
 62
     3
 10
-393.917349874753
 20
96.8335475859067
 30
0.0
 11
-393.396405444802
 21
93.8791243086997
 31
0.0
  0
LINE
  5
   14F
  8
0
  6
CONTINUOUS
 62
     3
 10
-393.396405444802
 20
93.8791243086997
 30
0.0
 11
-392.87546101485
 21
96.8335475859067
 31
0.0
  0
LINE
  5
   150
  8
0
  6
CONTINUOUS
 62
     3
 10
-392.87546101485
 20
147.272494413937
 30
0.0
 11
-393.396405444802
 21
150.226917691144
 31
0.0
  0
LINE
  5
   151
  8
0
  6
CONTINUOUS
 62
     3
 10
-393.396405444802
 20
150.226917691144
 30
0.0
 11
-393.917349874753
 21
147.272494413937
 31
0.0
  0
ENDBLK
  5
   152
  8
0
  6
CONTINUOUS
 62
     3
  0
BLOCK
  5
   153
  8
0
  6
CONTINUOUS
 62
     7
  2
*UDIM920
 70
    65
 10
0.0
 20
0.0
 30
0.0
  3
*UDIM920
  0
TEXT
  5
   154
  8
0
  6
CONTINUOUS
 62
     7
 10
-348.224952523493
 20
37.4858246259216
 30
0.0
 40
2.99999997871263
  1
96
 50
359.999999948034
 41
0.933333333333333
 72
     1
 11
-345.72495253988
 21
38.9858246130231
 31
0.0
 73
     2
  0
LINE
  5
   155
  8
0
  6
CONTINUOUS
 62
     7
 10
-328.64995250284
 20
93.3166243012491
 30
0.0
 11
-328.64995250284
 21
34.4858246236668
 31
0.0
  0
LINE
  5
   156
  8
0
  6
CONTINUOUS
 62
     7
 10
-362.249952598207
 20
64.0306314336594
 30
0.0
 11
-362.249952598207
 21
34.4858246236668
 31
0.0
  0
LINE
  5
   157
  8
0
  6
CONTINUOUS
 62
     7
 10
-328.64995250284
 20
36.4858246236668
 30
0.0
 11
-362.249952598207
 21
36.4858246236668
 31
0.0
  0
LINE
  5
   158
  8
0
  6
CONTINUOUS
 62
     7
 10
-331.604375780047
 20
35.9648801937151
 30
0.0
 11
-328.64995250284
 21
36.4858246236668
 31
0.0
  0
LINE
  5
   159
  8
0
  6
CONTINUOUS
 62
     7
 10
-328.64995250284
 20
36.4858246236668
 30
0.0
 11
-331.604375780047
 21
37.0067690536184
 31
0.0
  0
LINE
  5
   15A
  8
0
  6
CONTINUOUS
 62
     7
 10
-359.295529321
 20
37.0067690536184
 30
0.0
 11
-362.249952598207
 21
36.4858246236668
 31
0.0
  0
LINE
  5
   15B
  8
0
  6
CONTINUOUS
 62
     7
 10
-362.249952598207
 20
36.4858246236668
 30
0.0
 11
-359.295529321
 21
35.9648801937151
 31
0.0
  0
ENDBLK
  5
   15C
  8
0
  6
CONTINUOUS
 62
     7
  0
BLOCK
  5
   15D
  8
0
  6
CONTINUOUS
 62
     7
  2
*UDIM921
 70
    65
 10
0.0
 20
0.0
 30
0.0
  3
*UDIM921
  0
TEXT
  5
   15E
  8
0
  6
CONTINUOUS
 62
     7
 10
-381.562449459318
 20
37.4858246284471
 30
0.0
 40
2.99999997871263
  1
78,5
 50
359.999999948034
 41
0.933333333333333
 72
     1
 11
-376.262449495573
 21
38.9858246130231
 31
0.0
 73
     2
  0
LINE
  5
   15F
  8
0
  6
CONTINUOUS
 62
     7
 10
-389.724952797883
 20
93.3166243012491
 30
0.0
 11
-389.724952797883
 21
34.4858246236668
 31
0.0
  0
LINE
  5
   160
  8
0
  6
CONTINUOUS
 62
     7
 10
-362.249952598207
 20
36.4858246236668
 30
0.0
 11
-389.724952797883
 21
36.4858246236668
 31
0.0
  0
LINE
  5
   161
  8
0
  6
CONTINUOUS
 62
     7
 10
-365.204375875414
 20
35.9648801937151
 30
0.0
 11
-362.249952598207
 21
36.4858246236668
 31
0.0
  0
LINE
  5
   162
  8
0
  6
CONTINUOUS
 62
     7
 10
-362.249952598207
 20
36.4858246236668
 30
0.0
 11
-365.204375875414
 21
37.0067690536184
 31
0.0
  0
LINE
  5
   163
  8
0
  6
CONTINUOUS
 62
     7
 10
-386.770529520676
 20
37.0067690536184
 30
0.0
 11
-389.724952797883
 21
36.4858246236668
 31
0.0
  0
LINE
  5
   164
  8
0
  6
CONTINUOUS
 62
     7
 10
-389.724952797883
 20
36.4858246236668
 30
0.0
 11
-386.770529520676
 21
35.9648801937151
 31
0.0
  0
ENDBLK
  5
   165
  8
0
  6
CONTINUOUS
 62
     7
  0
BLOCK
  5
   166
  8
0
  6
CONTINUOUS
 62
     5
  2
*UDIM922
 70
    65
 10
0.0
 20
0.0
 30
0.0
  3
*UDIM922
  0
TEXT
  5
   167
  8
0
  6
CONTINUOUS
 62
     5
 10
-400.82687027793
 20
136.035355301141
 30
0.0
 40
2.99999997871263
  1
127,75
 50
89.9999999480344
 41
0.933333333333333
 72
     1
 11
-402.32687025995
 21
144.135355245024
 31
0.0
 73
     2
  0
LINE
  5
   168
  8
0
  6
CONTINUOUS
 62
     5
 10
-387.312454260287
 20
166.766593399044
 30
0.0
 11
-401.826870270594
 21
166.766593399044
 31
0.0
  0
LINE
  5
   169
  8
0
  6
CONTINUOUS
 62
     5
 10
-399.826870270594
 20
122.054123828882
 30
0.0
 11
-399.826870270594
 21
166.766593399044
 31
0.0
  0
LINE
  5
   16A
  8
0
  6
CONTINUOUS
 62
     5
 10
-400.347814700546
 20
125.008547106089
 30
0.0
 11
-399.826870270594
 21
122.054123828882
 31
0.0
  0
LINE
  5
   16B
  8
0
  6
CONTINUOUS
 62
     5
 10
-399.826870270594
 20
122.054123828882
 30
0.0
 11
-399.305925840642
 21
125.008547106089
 31
0.0
  0
LINE
  5
   16C
  8
0
  6
CONTINUOUS
 62
     5
 10
-399.305925840642
 20
163.812170121838
 30
0.0
 11
-399.826870270594
 21
166.766593399044
 31
0.0
  0
LINE
  5
   16D
  8
0
  6
CONTINUOUS
 62
     5
 10
-399.826870270594
 20
166.766593399044
 30
0.0
 11
-400.347814700546
 21
163.812170121838
 31
0.0
  0
ENDBLK
  5
   16E
  8
0
  6
CONTINUOUS
 62
     5
  0
BLOCK
  5
   16F
  8
0
  6
CONTINUOUS
 62
     7
  2
*UDIM923
 70
    65
 10
0.0
 20
0.0
 30
0.0
  3
*UDIM923
  0
TEXT
  5
   170
  8
0
  6
CONTINUOUS
 62
     7
 10
-351.462448055831
 20
31.4505303904492
 30
0.0
 40
2.99999997871263
  1
101,5
 50
359.999999948034
 41
0.933333333333333
 72
     1
 11
-344.762448102019
 21
32.9505303737625
 31
0.0
 73
     2
  0
LINE
  5
   171
  8
0
  6
CONTINUOUS
 62
     7
 10
-326.724938703776
 20
116.941602121371
 30
0.0
 11
-326.724938703776
 21
28.4505303844062
 31
0.0
  0
LINE
  5
   172
  8
0
  6
CONTINUOUS
 62
     7
 10
-362.249952598207
 20
64.0306314336594
 30
0.0
 11
-362.249952598207
 21
28.4505303844062
 31
0.0
  0
LINE
  5
   173
  8
0
  6
CONTINUOUS
 62
     7
 10
-326.724938703776
 20
30.4505303844062
 30
0.0
 11
-362.249952598207
 21
30.4505303844062
 31
0.0
  0
LINE
  5
   174
  8
0
  6
CONTINUOUS
 62
     7
 10
-329.679361980983
 20
29.9295859544545
 30
0.0
 11
-326.724938703776
 21
30.4505303844062
 31
0.0
  0
LINE
  5
   175
  8
0
  6
CONTINUOUS
 62
     7
 10
-326.724938703776
 20
30.4505303844062
 30
0.0
 11
-329.679361980983
 21
30.9714748143579
 31
0.0
  0
LINE
  5
   176
  8
0
  6
CONTINUOUS
 62
     7
 10
-359.295529321
 20
30.9714748143579
 30
0.0
 11
-362.249952598207
 21
30.4505303844062
 31
0.0
  0
LINE
  5
   177
  8
0
  6
CONTINUOUS
 62
     7
 10
-362.249952598207
 20
30.4505303844062
 30
0.0
 11
-359.295529321
 21
29.9295859544545
 31
0.0
  0
ENDBLK
  5
   178
  8
0
  6
CONTINUOUS
 62
     7
  0
BLOCK
  5
   179
  8
0
  6
CONTINUOUS
 62
     7
  2
*UDIM924
 70
    65
 10
0.0
 20
0.0
 30
0.0
  3
*UDIM924
  0
TEXT
  5
   17A
  8
0
  6
CONTINUOUS
 62
     7
 10
-407.472886091121
 20
114.462292677021
 30
0.0
 40
2.99999997871263
  1
259
 50
89.9999999480344
 41
0.933333333333333
 72
     1
 11
-408.972886076945
 21
118.362292650706
 31
0.0
 73
     2
  0
LINE
  5
   17B
  8
0
  6
CONTINUOUS
 62
     7
 10
-387.312454260287
 20
76.1166374273683
 30
0.0
 11
-408.472886087589
 21
76.1166374273683
 31
0.0
  0
LINE
  5
   17C
  8
0
  6
CONTINUOUS
 62
     7
 10
-387.312454260287
 20
166.766593399044
 30
0.0
 11
-408.472886087589
 21
166.766593399044
 31
0.0
  0
LINE
  5
   17D
  8
0
  6
CONTINUOUS
 62
     7
 10
-406.472886087589
 20
76.1166374273683
 30
0.0
 11
-406.472886087589
 21
166.766593399044
 31
0.0
  0
LINE
  5
   17E
  8
0
  6
CONTINUOUS
 62
     7
 10
-406.993830517541
 20
79.0710607045752
 30
0.0
 11
-406.472886087589
 21
76.1166374273683
 31
0.0
  0
LINE
  5
   17F
  8
0
  6
CONTINUOUS
 62
     7
 10
-406.472886087589
 20
76.1166374273683
 30
0.0
 11
-405.951941657637
 21
79.0710607045752
 31
0.0
  0
LINE
  5
   180
  8
0
  6
CONTINUOUS
 62
     7
 10
-405.951941657637
 20
163.812170121838
 30
0.0
 11
-406.472886087589
 21
166.766593399044
 31
0.0
  0
LINE
  5
   181
  8
0
  6
CONTINUOUS
 62
     7
 10
-406.472886087589
 20
166.766593399044
 30
0.0
 11
-406.993830517541
 21
163.812170121838
 31
0.0
  0
ENDBLK
  5
   182
  8
0
  6
CONTINUOUS
 62
     7
  0
BLOCK
  5
   183
  8
0
  6
CONTINUOUS
 62
     7
  2
*HATCH201
 70
    65
 10
0.0
 20
0.0
 30
0.0
  3
*HATCH201
  0
LINE
  5
   184
  8
0
  6
CONTINUOUS
 62
    52
 10
187.992431640625
 20
39.5
 30
0.0
 11
185.992431640625
 21
37.5
 31
0.0
  0
LINE
  5
   185
  8
0
  6
CONTINUOUS
 62
    52
 10
192.235076904297
 20
39.5
 30
0.0
 11
190.235076904297
 21
37.5
 31
0.0
  0
LINE
  5
   186
  8
0
  6
CONTINUOUS
 62
    52
 10
196.477722167969
 20
39.5
 30
0.0
 11
194.477722167969
 21
37.5
 31
0.0
  0
LINE
  5
   187
  8
0
  6
CONTINUOUS
 62
    52
 10
200.720367431641
 20
39.5
 30
0.0
 11
198.720367431641
 21
37.5
 31
0.0
  0
LINE
  5
   188
  8
0
  6
CONTINUOUS
 62
    52
 10
204.963012695313
 20
39.5
 30
0.0
 11
202.963012695313
 21
37.5
 31
0.0
  0
LINE
  5
   189
  8
0
  6
CONTINUOUS
 62
    52
 10
209.205657958984
 20
39.5
 30
0.0
 11
207.205657958984
 21
37.5
 31
0.0
  0
LINE
  5
   18A
  8
0
  6
CONTINUOUS
 62
    52
 10
213.448303222656
 20
39.5
 30
0.0
 11
211.448303222656
 21
37.5
 31
0.0
  0
LINE
  5
   18B
  8
0
  6
CONTINUOUS
 62
    52
 10
217.690948486328
 20
39.5
 30
0.0
 11
215.690948486328
 21
37.5
 31
0.0
  0
LINE
  5
   18C
  8
0
  6
CONTINUOUS
 62
    52
 10
221.93359375
 20
39.5
 30
0.0
 11
219.93359375
 21
37.5
 31
0.0
  0
LINE
  5
   18D
  8
0
  6
CONTINUOUS
 62
    52
 10
226.176239013672
 20
39.5
 30
0.0
 11
224.176239013672
 21
37.5
 31
0.0
  0
LINE
  5
   18E
  8
0
  6
CONTINUOUS
 62
    52
 10
229.369522094727
 20
38.4506874084473
 30
0.0
 11
228.418838500977
 21
37.5
 31
0.0
  0
ENDBLK
  5
   18F
  8
0
  6
CONTINUOUS
 62
     7
  0
BLOCK
  5
   190
  8
0
  6
CONTINUOUS
 62
     7
  2
*HATCH202
 70
    65
 10
0.0
 20
0.0
 30
0.0
  3
*HATCH202
  0
LINE
  5
   191
  8
0
  6
CONTINUOUS
 62
    52
 10
115.867530822754
 20
39.4999961853027
 30
0.0
 11
113.867530822754
 21
37.4999961853027
 31
0.0
  0
LINE
  5
   192
  8
0
  6
CONTINUOUS
 62
    52
 10
120.110176086426
 20
39.4999961853027
 30
0.0
 11
118.110176086426
 21
37.4999961853027
 31
0.0
  0
LINE
  5
   193
  8
0
  6
CONTINUOUS
 62
    52
 10
124.352821350098
 20
39.4999961853027
 30
0.0
 11
122.352821350098
 21
37.4999961853027
 31
0.0
  0
LINE
  5
   194
  8
0
  6
CONTINUOUS
 62
    52
 10
128.595458984375
 20
39.4999961853027
 30
0.0
 11
126.59546661377
 21
37.4999961853027
 31
0.0
  0
LINE
  5
   195
  8
0
  6
CONTINUOUS
 62
    52
 10
132.838104248047
 20
39.4999961853027
 30
0.0
 11
130.838104248047
 21
37.4999961853027
 31
0.0
  0
LINE
  5
   196
  8
0
  6
CONTINUOUS
 62
    52
 10
137.080749511719
 20
39.4999961853027
 30
0.0
 11
135.080749511719
 21
37.4999961853027
 31
0.0
  0
LINE
  5
   197
  8
0
  6
CONTINUOUS
 62
    52
 10
141.323394775391
 20
39.4999961853027
 30
0.0
 11
139.323394775391
 21
37.4999961853027
 31
0.0
  0
LINE
  5
   198
  8
0
  6
CONTINUOUS
 62
    52
 10
145.566040039063
 20
39.4999961853027
 30
0.0
 11
143.566040039063
 21
37.4999961853027
 31
0.0
  0
LINE
  5
   199
  8
0
  6
CONTINUOUS
 62
    52
 10
149.808685302734
 20
39.4999961853027
 30
0.0
 11
147.808685302734
 21
37.4999961853027
 31
0.0
  0
LINE
  5
   19A
  8
0
  6
CONTINUOUS
 62
    52
 10
154.051330566406
 20
39.4999961853027
 30
0.0
 11
152.051330566406
 21
37.4999961853027
 31
0.0
  0
LINE
  5
   19B
  8
0
  6
CONTINUOUS
 62
    52
 10
158.293975830078
 20
39.4999961853027
 30
0.0
 11
156.293975830078
 21
37.4999961853027
 31
0.0
  0
LINE
  5
   19C
  8
0
  6
CONTINUOUS
 62
    52
 10
162.53662109375
 20
39.4999961853027
 30
0.0
 11
160.53662109375
 21
37.4999961853027
 31
0.0
  0
LINE
  5
   19D
  8
0
  6
CONTINUOUS
 62
    52
 10
166.779266357422
 20
39.4999961853027
 30
0.0
 11
164.779266357422
 21
37.4999961853027
 31
0.0
  0
LINE
  5
   19E
  8
0
  6
CONTINUOUS
 62
    52
 10
171.021911621094
 20
39.4999961853027
 30
0.0
 11
169.021911621094
 21
37.4999961853027
 31
0.0
  0
LINE
  5
   19F
  8
0
  6
CONTINUOUS
 62
    52
 10
175.264556884766
 20
39.4999961853027
 30
0.0
 11
173.264556884766
 21
37.4999961853027
 31
0.0
  0
ENDBLK
  5
   1A0
  8
0
  6
CONTINUOUS
 62
     7
  0
BLOCK
  5
   1A1
  8
0
  6
CONTINUOUS
 62
     7
  2
*HATCH203
 70
    65
 10
0.0
 20
0.0
 30
0.0
  3
*HATCH203
  0
LINE
  5
   1A2
  8
0
  6
CONTINUOUS
 62
    52
 10
92.5330123901367
 20
39.4999961853027
 30
0.0
 11
90.5330123901367
 21
37.4999961853027
 31
0.0
  0
LINE
  5
   1A3
  8
0
  6
CONTINUOUS
 62
    52
 10
96.7756576538086
 20
39.4999961853027
 30
0.0
 11
94.7756576538086
 21
37.4999961853027
 31
0.0
  0
LINE
  5
   1A4
  8
0
  6
CONTINUOUS
 62
    52
 10
101.01830291748
 20
39.4999961853027
 30
0.0
 11
99.0183029174805
 21
37.4999961853027
 31
0.0
  0
LINE
  5
   1A5
  8
0
  6
CONTINUOUS
 62
    52
 10
105.260948181152
 20
39.4999961853027
 30
0.0
 11
103.260948181152
 21
37.4999961853027
 31
0.0
  0
ENDBLK
  5
   1A6
  8
0
  6
CONTINUOUS
 62
     7
  0
BLOCK
  5
   1A7
  8
0
  6
CONTINUOUS
 62
     7
  2
*HATCH204
 70
    65
 10
0.0
 20
0.0
 30
0.0
  3
*HATCH204
  0
LINE
  5
   1A8
  8
0
  6
CONTINUOUS
 62
    52
 10
45.8639602661133
 20
39.4999961853027
 30
0.0
 11
43.8639640808105
 21
37.5
 31
0.0
  0
LINE
  5
   1A9
  8
0
  6
CONTINUOUS
 62
    52
 10
50.1065979003906
 20
39.4999961853027
 30
0.0
 11
48.1066017150879
 21
37.5
 31
0.0
  0
LINE
  5
   1AA
  8
0
  6
CONTINUOUS
 62
    52
 10
54.349235534668
 20
39.4999961853027
 30
0.0
 11
52.3492393493652
 21
37.5
 31
0.0
  0
LINE
  5
   1AB
  8
0
  6
CONTINUOUS
 62
    52
 10
58.5918731689453
 20
39.4999961853027
 30
0.0
 11
56.5918769836426
 21
37.5
 31
0.0
  0
LINE
  5
   1AC
  8
0
  6
CONTINUOUS
 62
    52
 10
62.8345108032227
 20
39.4999961853027
 30
0.0
 11
60.8345146179199
 21
37.5
 31
0.0
  0
LINE
  5
   1AD
  8
0
  6
CONTINUOUS
 62
    52
 10
67.0771560668945
 20
39.4999961853027
 30
0.0
 11
65.0771560668945
 21
37.5
 31
0.0
  0
LINE
  5
   1AE
  8
0
  6
CONTINUOUS
 62
    52
 10
71.3198013305664
 20
39.4999961853027
 30
0.0
 11
69.3198013305664
 21
37.5
 31
0.0
  0
LINE
  5
   1AF
  8
0
  6
CONTINUOUS
 62
    52
 10
75.2370758056641
 20
39.1746253967285
 30
0.0
 11
73.5624465942383
 21
37.4999961853027
 31
0.0
  0
ENDBLK
  5
   1B0
  8
0
  6
CONTINUOUS
 62
     7
  0
BLOCK
  5
   1B1
  8
0
  6
CONTINUOUS
 62
     7
  2
*HATCH205
 70
    65
 10
0.0
 20
0.0
 30
0.0
  3
*HATCH205
  0
LINE
  5
   1B2
  8
0
  6
CONTINUOUS
 62
    52
 10
-34.7462120056152
 20
39.5
 30
0.0
 11
-36.7462120056152
 21
37.5
 31
0.0
  0
LINE
  5
   1B3
  8
0
  6
CONTINUOUS
 62
    52
 10
-30.5035724639893
 20
39.5
 30
0.0
 11
-32.5035743713379
 21
37.5
 31
0.0
  0
LINE
  5
   1B4
  8
0
  6
CONTINUOUS
 62
    52
 10
-26.2609310150147
 20
39.5
 30
0.0
 11
-28.2609329223633
 21
37.5
 31
0.0
  0
LINE
  5
   1B5
  8
0
  6
CONTINUOUS
 62
    52
 10
-22.01828956604
 20
39.5
 30
0.0
 11
-24.0182914733887
 21
37.5
 31
0.0
  0
LINE
  5
   1B6
  8
0
  6
CONTINUOUS
 62
    52
 10
-17.7756481170654
 20
39.5
 30
0.0
 11
-19.7756500244141
 21
37.5
 31
0.0
  0
LINE
  5
   1B7
  8
0
  6
CONTINUOUS
 62
    52
 10
-13.5330066680908
 20
39.5
 30
0.0
 11
-15.5330085754395
 21
37.5
 31
0.0
  0
LINE
  5
   1B8
  8
0
  6
CONTINUOUS
 62
    52
 10
-9.29036521911621
 20
39.5
 30
0.0
 11
-11.2903671264648
 21
37.5
 31
0.0
  0
LINE
  5
   1B9
  8
0
  6
CONTINUOUS
 62
    52
 10
-5.0477237701416
 20
39.5
 30
0.0
 11
-7.04772567749023
 21
37.5
 31
0.0
  0
LINE
  5
   1BA
  8
0
  6
CONTINUOUS
 62
    52
 10
-0.80508279800415
 20
39.5
 30
0.0
 11
-2.8050844669342
 21
37.5
 31
0.0
  0
LINE
  5
   1BB
  8
0
  6
CONTINUOUS
 62
    52
 10
3.4375581741333
 20
39.5
 30
0.0
 11
1.43755650520325
 21
37.5
 31
0.0
  0
LINE
  5
   1BC
  8
0
  6
CONTINUOUS
 62
    52
 10
7.68019962310791
 20
39.5
 30
0.0
 11
5.68019771575928
 21
37.5
 31
0.0
  0
LINE
  5
   1BD
  8
0
  6
CONTINUOUS
 62
    52
 10
11.9228410720825
 20
39.5
 30
0.0
 11
9.92283916473389
 21
37.5
 31
0.0
  0
LINE
  5
   1BE
  8
0
  6
CONTINUOUS
 62
    52
 10
16.1654815673828
 20
39.5
 30
0.0
 11
14.1654806137085
 21
37.5
 31
0.0
  0
LINE
  5
   1BF
  8
0
  6
CONTINUOUS
 62
    52
 10
20.4081230163574
 20
39.5
 30
0.0
 11
18.4081211090088
 21
37.5
 31
0.0
  0
LINE
  5
   1C0
  8
0
  6
CONTINUOUS
 62
    52
 10
24.650764465332
 20
39.5
 30
0.0
 11
22.6507625579834
 21
37.5
 31
0.0
  0
LINE
  5
   1C1
  8
0
  6
CONTINUOUS
 62
    52
 10
28.8934059143066
 20
39.5
 30
0.0
 11
26.893404006958
 21
37.5
 31
0.0
  0
LINE
  5
   1C2
  8
0
  6
CONTINUOUS
 62
    52
 10
33.1360473632813
 20
39.5
 30
0.0
 11
31.1360454559326
 21
37.5
 31
0.0
  0
LINE
  5
   1C3
  8
0
  6
CONTINUOUS
 62
    52
 10
35.486873626709
 20
37.6081924438477
 30
0.0
 11
35.3786811828613
 21
37.5
 31
0.0
  0
ENDBLK
  5
   1C4
  8
0
  6
CONTINUOUS
 62
     7
  0
BLOCK
  5
   1C5
  8
0
  6
CONTINUOUS
 62
     7
  2
*HATCH206
 70
    65
 10
0.0
 20
0.0
 30
0.0
  3
*HATCH206
  0
LINE
  5
   1C6
  8
0
  6
CONTINUOUS
 62
    52
 10
166.264526367187
 20
30.5000076293945
 30
0.0
 11
163.987060546875
 21
28.2225513458252
 31
0.0
  0
LINE
  5
   1C7
  8
0
  6
CONTINUOUS
 62
    52
 10
170.50715637207
 20
30.5000076293945
 30
0.0
 11
168.00715637207
 21
28.0000019073486
 31
0.0
  0
LINE
  5
   1C8
  8
0
  6
CONTINUOUS
 62
    52
 10
172.987060546875
 20
28.7372703552246
 30
0.0
 11
172.249786376953
 21
28.0000019073486
 31
0.0
  0
ENDBLK
  5
   1C9
  8
0
  6
CONTINUOUS
 62
     7
  0
BLOCK
  5
   1CA
  8
0
  6
CONTINUOUS
 62
     7
  2
DIAFR_POS_LT_
 70
    64
 10
0.0
 20
0.0
 30
0.0
  3
DIAFR_POS_LT_
  0
LINE
  5
   1CB
  8
0
  6
CONTINUOUS
 62
   212
 10
-67.5
 20
245.937057495117
 30
0.0
 11
-52.4999885559082
 21
257.236907958984
 31
0.0
  0
LINE
  5
   1CC
  8
0
  6
CONTINUOUS
 62
   212
 10
-69.5
 20
223.737045288086
 30
0.0
 11
-69.5
 21
242.237060546875
 31
0.0
  0
LINE
  5
   1CD
  8
0
  6
CONTINUOUS
 62
   212
 10
-66.9999915459389
 20
234.437118530274
 30
0.0
 11
-66.9999694824219
 21
223.737045286797
 31
0.0
  0
LINE
  5
   1CE
  8
0
  6
CONTINUOUS
 62
   212
 10
-69.5
 20
223.737045288086
 30
0.0
 11
-66.9999694824219
 21
223.737045288086
 31
0.0
  0
LINE
  5
   1CF
  8
0
  6
CONTINUOUS
 62
   212
 10
-69.5
 20
242.23706054467
 30
0.0
 11
-69.4999923706055
 21
244.937042234182
 31
0.0
  0
LINE
  5
   1D0
  8
0
  6
CONTINUOUS
 62
   212
 10
-68.4997425678887
 20
245.937107562901
 30
0.0
 11
-52.4997463825787
 21
245.937107562901
 31
0.0
  0
LINE
  5
   1D1
  8
0
  6
CONTINUOUS
 62
   212
 10
-52.4999809265137
 20
245.937057495117
 30
0.0
 11
-52.4999809265137
 21
246.737060546875
 31
0.0
  0
LINE
  5
   1D2
  8
0
  6
CONTINUOUS
 62
   212
 10
-50.0000686645508
 20
246.737060546845
 30
0.0
 11
-49.9999122628449
 21
234.437118530248
 31
0.0
  0
LINE
  5
   1D3
  8
0
  6
CONTINUOUS
 62
   212
 10
-52.4999809265137
 20
246.737060546875
 30
0.0
 11
-52.4999809265137
 21
257.236907958984
 31
0.0
  0
LINE
  5
   1D4
  8
0
  6
CONTINUOUS
 62
   212
 10
-52.4999809265137
 20
257.236907958985
 30
0.0
 11
-49.999984741211
 21
257.23666381836
 31
0.0
  0
LINE
  5
   1D5
  8
0
  6
CONTINUOUS
 62
   212
 10
-50.0000686645508
 20
246.737060548215
 30
0.0
 11
-49.999984741211
 21
257.23666381978
 31
0.0
  0
LINE
  5
   1D6
  8
0
  6
CONTINUOUS
 62
   212
 10
-66.9999915459389
 20
234.437118530273
 30
0.0
 11
-49.9999122628448
 21
234.437118530273
 31
0.0
  0
LINE
  5
   1D7
  8
0
  6
DASHDOT
 62
     7
 10
-73.8090871198216
 20
228.737057495117
 30
0.0
 11
-55.337192222057
 21
228.737057495117
 31
0.0
  0
LINE
  5
   1D8
  8
0
  6
CONTINUOUS
 62
     1
 10
-70.6941125496954
 20
225.935476594044
 30
0.0
 11
-70.6941125496954
 21
231.535476594044
 31
0.0
  0
ARC
  5
   1D9
  8
0
  6
CONTINUOUS
 62
     1
 10
-67.3
 20
228.735476594044
 30
0.0
 40
4.4
 50
140.478803641358
 51
219.521196358642
  0
LINE
  5
   1DA
  8
0
  6
CONTINUOUS
 62
     1
 10
-70.6941125496954
 20
225.935476594044
 30
0.0
 11
-69.5
 21
225.935476594044
 31
0.0
  0
LINE
  5
   1DB
  8
0
  6
CONTINUOUS
 62
     1
 10
-69.5
 20
225.935476594044
 30
0.0
 11
-69.5
 21
231.535476594044
 31
0.0
  0
LINE
  5
   1DC
  8
0
  6
CONTINUOUS
 62
     1
 10
-70.6941125496954
 20
231.535476594044
 30
0.0
 11
-69.5
 21
231.535476594044
 31
0.0
  0
ARC
  5
   1DD
  8
0
  6
CONTINUOUS
 62
   212
 10
-68.4999689263313
 20
244.937018791814
 30
0.0
 40
1.00002344454905
 50
90.0
 51
179.999838098122
  0
ENDBLK
  5
   1DE
  8
0
  6
CONTINUOUS
 62
     7
  0
BLOCK
  5
   1DF
  8
0
  6
CONTINUOUS
 62
     7
  2
TERM_400_LT_
 70
    64
 10
0.0
 20
0.0
 30
0.0
  3
TERM_400_LT_
  0
LINE
  5
   1E0
  8
0
  6
CONTINUOUS
 62
   130
 10
-12.5
 20
270.188751220703
 30
0.0
 11
-12.5
 21
271.843292236328
 31
0.0
  0
LINE
  5
   1E1
  8
0
  6
CONTINUOUS
 62
   130
 10
-12.5
 20
268.237060546875
 30
0.0
 11
-12.5
 21
270.188751220703
 31
0.0
  0
LINE
  5
   1E2
  8
0
  6
CONTINUOUS
 62
   130
 10
-12.5
 20
271.843292236328
 30
0.0
 11
-12.5
 21
272.948852539063
 31
0.0
  0
LINE
  5
   1E3
  8
0
  6
CONTINUOUS
 62
   130
 10
-12.5
 20
272.948852539063
 30
0.0
 11
-12.5
 21
273.337066650391
 31
0.0
  0
LINE
  5
   1E4
  8
0
  6
CONTINUOUS
 62
   130
 10
-12.5
 20
263.137054443359
 30
0.0
 11
-12.5
 21
263.525268554688
 31
0.0
  0
LINE
  5
   1E5
  8
0
  6
CONTINUOUS
 62
   130
 10
-12.5
 20
263.525268554688
 30
0.0
 11
-12.5
 21
264.630828857422
 31
0.0
  0
LINE
  5
   1E6
  8
0
  6
CONTINUOUS
 62
   130
 10
-12.5
 20
264.630828857422
 30
0.0
 11
-12.5
 21
266.285369873047
 31
0.0
  0
LINE
  5
   1E7
  8
0
  6
CONTINUOUS
 62
   130
 10
-12.5
 20
266.285369873047
 30
0.0
 11
-12.5
 21
268.237060546875
 31
0.0
  0
LINE
  5
   1E8
  8
0
  6
CONTINUOUS
 62
   130
 10
-18.5
 20
268.237060546875
 30
0.0
 11
-18.5
 21
270.188751220703
 31
0.0
  0
LINE
  5
   1E9
  8
0
  6
CONTINUOUS
 62
   130
 10
-18.5
 20
264.630828857422
 30
0.0
 11
-18.5
 21
266.285369873047
 31
0.0
  0
LINE
  5
   1EA
  8
0
  6
CONTINUOUS
 62
   130
 10
-18.5
 20
270.188751220703
 30
0.0
 11
-18.5
 21
271.843292236328
 31
0.0
  0
LINE
  5
   1EB
  8
0
  6
CONTINUOUS
 62
   130
 10
-18.5
 20
271.843292236328
 30
0.0
 11
-18.5
 21
272.948852539063
 31
0.0
  0
LINE
  5
   1EC
  8
0
  6
CONTINUOUS
 62
   130
 10
-18.5
 20
272.948852539063
 30
0.0
 11
-18.5
 21
273.337066650391
 31
0.0
  0
LINE
  5
   1ED
  8
0
  6
CONTINUOUS
 62
   130
 10
-18.5
 20
263.137054443359
 30
0.0
 11
-18.5
 21
263.525268554688
 31
0.0
  0
LINE
  5
   1EE
  8
0
  6
CONTINUOUS
 62
   130
 10
-18.5
 20
263.525268554688
 30
0.0
 11
-18.5
 21
264.630828857422
 31
0.0
  0
LINE
  5
   1EF
  8
0
  6
CONTINUOUS
 62
   130
 10
-18.5
 20
266.285369873047
 30
0.0
 11
-18.5
 21
268.237060546875
 31
0.0
  0
LINE
  5
   1F0
  8
0
  6
CONTINUOUS
 62
   130
 10
-12.5
 20
254.040756225586
 30
0.0
 11
-12.5
 21
263.137054443359
 31
0.0
  0
LINE
  5
   1F1
  8
0
  6
CONTINUOUS
 62
   130
 10
-39.6276134505609
 20
246.706911718197
 30
0.0
 11
-19.9697322845459
 21
252.112335205078
 31
0.0
  0
LINE
  5
   1F2
  8
0
  6
CONTINUOUS
 62
   130
 10
-18.5
 20
254.040756225586
 30
0.0
 11
-18.5
 21
263.137054443359
 31
0.0
  0
LINE
  5
   1F3
  8
0
  6
CONTINUOUS
 62
   130
 10
-29.6163374570825
 20
243.237060546875
 30
0.0
 11
-18.3789310455323
 21
246.327056884766
 31
0.0
  0
LINE
  5
   1F4
  8
0
  6
CONTINUOUS
 62
   130
 10
-18.5
 20
282.237060546875
 30
0.0
 11
-12.5
 21
282.237060546875
 31
0.0
  0
LINE
  5
   1F5
  8
0
  6
CONTINUOUS
 62
   130
 10
-12.5
 20
273.337066650391
 30
0.0
 11
-12.5
 21
282.237060546875
 31
0.0
  0
LINE
  5
   1F6
  8
0
  6
CONTINUOUS
 62
   130
 10
-18.5
 20
273.337066650391
 30
0.0
 11
-18.5
 21
282.237060546875
 31
0.0
  0
ARC
  5
   1F7
  8
0
  6
CONTINUOUS
 62
   130
 10
-20.4999773130108
 20
254.040753678998
 30
0.0
 40
1.99997731301166
 50
285.374913087062
 51
360.0
  0
ARC
  5
   1F8
  8
0
  6
CONTINUOUS
 62
   130
 10
-20.4999139628122
 20
254.040714279146
 30
0.0
 40
7.99990616987769
 50
285.374874568989
 51
360.0
  0
ARC
  5
   1F9
  8
0
  6
CONTINUOUS
 62
   130
 10
-37.4999949731402
 20
238.994998546714
 30
0.0
 40
8.00002282184024
 50
105.423501773071
 51
147.977230613379
  0
LINE
  5
   1FA
  8
0
  6
DASHDOT
 62
     7
 10
-25.200698728066
 20
268.237060546875
 30
0.0
 11
-6.91878895331445
 21
268.237060546875
 31
0.0
  0
LINE
  5
   1FB
  8
0
  6
CONTINUOUS
 62
   130
 10
-18.5
 20
257.237060546875
 30
0.0
 11
-12.5
 21
257.237060546875
 31
0.0
  0
POINT
  5
   1FC
  8
0
  6
CONTINUOUS
 62
     7
 10
-67.0
 20
219.237060546875
 30
0.0
  0
ENDBLK
  5
   1FD
  8
0
  6
CONTINUOUS
 62
     7
  0
BLOCK
  5
   1FE
  8
0
  6
CONTINUOUS
 62
     7
  2
*UDIM925
 70
    65
 10
0.0
 20
0.0
 30
0.0
  3
*UDIM925
  0
TEXT
  5
   1FF
  8
0
  6
CONTINUOUS
 62
     7
 10
-478.180083119833
 20
205.400409186491
 30
0.0
 40
3.50000002384186
  1
6
 50
359.999999948034
 41
0.933333333333333
 72
     1
 11
-476.89674977618
 21
207.150409197254
 31
0.0
 73
     2
  0
LINE
  5
   200
  8
0
  6
CONTINUOUS
 62
     7
 10
-467.5969676584
 20
183.341624294299
 30
0.0
 11
-467.5969676584
 21
205.400409185333
 31
0.0
  0
LINE
  5
   201
  8
0
  6
CONTINUOUS
 62
     7
 10
-469.696967622637
 20
183.341624294299
 30
0.0
 11
-469.696967622637
 21
205.400409185333
 31
0.0
  0
LINE
  5
   202
  8
0
  6
CONTINUOUS
 62
     7
 10
-467.5969676584
 20
203.400409185333
 30
0.0
 11
-478.180083118255
 21
203.400409185333
 31
0.0
  0
LINE
  5
   203
  8
0
  6
CONTINUOUS
 62
     7
 10
-464.69919018519
 20
204.176866341752
 30
0.0
 11
-467.5969676584
 21
203.400409185333
 31
0.0
  0
LINE
  5
   204
  8
0
  6
CONTINUOUS
 62
     7
 10
-467.5969676584
 20
203.400409185333
 30
0.0
 11
-464.69919018519
 21
202.623952028915
 31
0.0
  0
LINE
  5
   205
  8
0
  6
CONTINUOUS
 62
     7
 10
-472.594745095848
 20
202.623952028915
 30
0.0
 11
-469.696967622637
 21
203.400409185333
 31
0.0
  0
LINE
  5
   206
  8
0
  6
CONTINUOUS
 62
     7
 10
-469.696967622637
 20
203.400409185333
 30
0.0
 11
-472.594745095848
 21
204.176866341752
 31
0.0
  0
ENDBLK
  5
   207
  8
0
  6
CONTINUOUS
 62
     7
  0
BLOCK
  5
   208
  8
0
  6
CONTINUOUS
 62
     7
  2
*UDIM926
 70
    65
 10
0.0
 20
0.0
 30
0.0
  3
*UDIM926
  0
TEXT
  5
   209
  8
0
  6
CONTINUOUS
 62
     7
 10
-465.088625092893
 20
205.400409187964
 30
0.0
 40
3.50000002384186
  1
31
 50
359.999999948034
 41
0.933333333333333
 72
     1
 11
-462.171958404779
 21
207.150409197254
 31
0.0
 73
     2
  0
LINE
  5
   20A
  8
0
  6
CONTINUOUS
 62
     7
 10
-456.746949151158
 20
177.329380066525
 30
0.0
 11
-456.746949151158
 21
205.400409185333
 31
0.0
  0
LINE
  5
   20B
  8
0
  6
CONTINUOUS
 62
     7
 10
-456.746949151158
 20
203.400409185333
 30
0.0
 11
-467.5969676584
 21
203.400409185333
 31
0.0
  0
LINE
  5
   20C
  8
0
  6
CONTINUOUS
 62
     7
 10
-459.644726624369
 20
202.623952028915
 30
0.0
 11
-456.746949151158
 21
203.400409185333
 31
0.0
  0
LINE
  5
   20D
  8
0
  6
CONTINUOUS
 62
     7
 10
-456.746949151158
 20
203.400409185333
 30
0.0
 11
-459.644726624369
 21
204.176866341752
 31
0.0
  0
CIRCLE
  5
   20E
  8
0
  6
CONTINUOUS
 62
     7
 10
-467.5969676584
 20
203.400409185333
 30
0.0
 40
0.500000000000001
  0
ENDBLK
  5
   20F
  8
0
  6
CONTINUOUS
 62
     7
  0
BLOCK
  5
   210
  8
0
  6
CONTINUOUS
 62
     7
  2
*UDIM927
 70
    65
 10
0.0
 20
0.0
 30
0.0
  3
*UDIM927
  0
TEXT
  5
   211
  8
0
  6
CONTINUOUS
 62
     7
 10
-446.145260343087
 20
205.400409186491
 30
0.0
 40
3.50000002384186
  1
3
 50
359.999999948034
 41
0.933333333333333
 72
     1
 11
-444.861926999433
 21
207.150409197254
 31
0.0
 73
     2
  0
TEXT
  5
   212
  8
0
  6
CONTINUOUS
 62
     7
 10
-449.711927027238
 20
205.400409186491
 30
0.0
 40
3.50000002384186
  1
_
 50
359.999999948034
 41
0.933333333333333
 72
     1
 11
-448.428593683584
 21
207.150409197254
 31
0.0
 73
     2
  0
LINE
  5
   213
  8
0
  6
CONTINUOUS
 62
     7
 10
-455.69694916904
 20
177.481553976977
 30
0.0
 11
-455.69694916904
 21
205.400409185333
 31
0.0
  0
LINE
  5
   214
  8
0
  6
CONTINUOUS
 62
     7
 10
-443.578593657358
 20
203.400409185333
 30
0.0
 11
-456.746949151158
 21
203.400409185333
 31
0.0
  0
LINE
  5
   215
  8
0
  6
CONTINUOUS
 62
     7
 10
-452.799171695829
 20
204.176866341752
 30
0.0
 11
-455.69694916904
 21
203.400409185333
 31
0.0
  0
LINE
  5
   216
  8
0
  6
CONTINUOUS
 62
     7
 10
-455.69694916904
 20
203.400409185333
 30
0.0
 11
-452.799171695829
 21
202.623952028915
 31
0.0
  0
CIRCLE
  5
   217
  8
0
  6
CONTINUOUS
 62
     7
 10
-456.746949151158
 20
203.400409185333
 30
0.0
 40
0.500000000000001
  0
ENDBLK
  5
   218
  8
0
  6
CONTINUOUS
 62
     7
  0
BLOCK
  5
   219
  8
0
  6
CONTINUOUS
 62
     7
  2
*UDIM928
 70
    65
 10
0.0
 20
0.0
 30
0.0
  3
*UDIM928
  0
TEXT
  5
   21A
  8
0
  6
CONTINUOUS
 62
     7
 10
-509.367531422793
 20
115.188037680043
 30
0.0
 40
2.99999997871263
  1
5,5
 50
306.27250751355
 41
0.933333333333333
 72
     1
 11
-505.850870106799
 21
112.93124948865
 31
0.0
 73
     2
  0
TEXT
  5
   21B
  8
0
  6
CONTINUOUS
 62
     7
 10
-511.231154566249
 20
117.72760626658
 30
0.0
 40
2.99999997871263
  1
Ø
 50
306.27250751355
 41
0.933333333333333
 72
     1
 11
-509.371047154425
 21
117.728212380868
 31
0.0
 73
     2
  0
LINE
  5
   21C
  8
0
  6
CONTINUOUS
 62
     7
 10
-505.559057800468
 20
108.307955715938
 30
0.0
 11
-515.766410015961
 21
122.217565699485
 31
0.0
  0
LINE
  5
   21D
  8
0
  6
CONTINUOUS
 62
     7
 10
-512.459620953019
 20
118.591917068429
 30
0.0
 11
-514.627527543194
 21
120.665604850203
 31
0.0
  0
LINE
  5
   21E
  8
0
  6
CONTINUOUS
 62
     7
 10
-514.627527543194
 20
120.665604850203
 30
0.0
 11
-513.29960452253
 21
117.975508113803
 31
0.0
  0
LINE
  5
   21F
  8
0
  6
CONTINUOUS
 62
     7
 10
-517.934316606136
 20
124.291253481259
 30
0.0
 11
-515.766410015961
 21
122.217565699485
 31
0.0
  0
LINE
  5
   220
  8
0
  6
CONTINUOUS
 62
     7
 10
-515.766410015961
 20
122.217565699485
 30
0.0
 11
-517.094333036625
 21
124.907662435885
 31
0.0
  0
ENDBLK
  5
   221
  8
0
  6
CONTINUOUS
 62
     7
  0
BLOCK
  5
   222
  8
0
  6
CONTINUOUS
 62
     7
  2
*UDIM929
 70
    65
 10
0.0
 20
0.0
 30
0.0
  3
*UDIM929
  0
TEXT
  5
   223
  8
0
  6
CONTINUOUS
 62
     7
 10
-535.54828100451
 20
197.633155427766
 30
0.0
 40
2.99999997871263
  1
27,5
 50
359.999999948034
 41
0.933333333333333
 72
     1
 11
-530.248281040765
 21
199.133155412342
 31
0.0
 73
     2
  0
LINE
  5
   224
  8
0
  6
CONTINUOUS
 62
     7
 10
-525.171946650744
 20
151.229060754258
 30
0.0
 11
-525.171946650744
 21
198.633155422986
 31
0.0
  0
LINE
  5
   225
  8
0
  6
CONTINUOUS
 62
     7
 10
-534.796946486831
 20
141.429125008064
 30
0.0
 11
-534.796946486831
 21
198.633155422986
 31
0.0
  0
LINE
  5
   226
  8
0
  6
CONTINUOUS
 62
     7
 10
-524.948281078373
 20
196.633155422986
 30
0.0
 11
-535.548281003157
 21
196.633155422986
 31
0.0
  0
LINE
  5
   227
  8
0
  6
CONTINUOUS
 62
     7
 10
-522.217523373537
 20
197.154099852937
 30
0.0
 11
-525.171946650744
 21
196.633155422986
 31
0.0
  0
LINE
  5
   228
  8
0
  6
CONTINUOUS
 62
     7
 10
-525.171946650744
 20
196.633155422986
 30
0.0
 11
-522.217523373537
 21
196.112210993034
 31
0.0
  0
LINE
  5
   229
  8
0
  6
CONTINUOUS
 62
     7
 10
-537.751369764038
 20
196.112210993034
 30
0.0
 11
-534.796946486831
 21
196.633155422986
 31
0.0
  0
LINE
  5
   22A
  8
0
  6
CONTINUOUS
 62
     7
 10
-534.796946486831
 20
196.633155422986
 30
0.0
 11
-537.751369764038
 21
197.154099852937
 31
0.0
  0
ENDBLK
  5
   22B
  8
0
  6
CONTINUOUS
 62
     7
  0
BLOCK
  5
   22C
  8
0
  6
CONTINUOUS
 62
     7
  2
*UDIM930
 70
    65
 10
0.0
 20
0.0
 30
0.0
  3
*UDIM930
  0
TEXT
  5
   22D
  8
0
  6
CONTINUOUS
 62
     7
 10
-509.572363835358
 20
43.4635867501994
 30
0.0
 40
2.99999997871263
  1
195,5
 50
359.999999948034
 41
0.933333333333333
 72
     1
 11
-502.872363881547
 21
44.9635867335127
 31
0.0
 73
     2
  0
LINE
  5
   22E
  8
0
  6
CONTINUOUS
 62
     7
 10
-456.746949151158
 20
63.8728382510523
 30
0.0
 11
-456.746949151158
 21
40.4635867441564
 31
0.0
  0
LINE
  5
   22F
  8
0
  6
CONTINUOUS
 62
     7
 10
-525.171946650744
 20
92.8790597111769
 30
0.0
 11
-525.171946650744
 21
40.4635867441564
 31
0.0
  0
LINE
  5
   230
  8
0
  6
CONTINUOUS
 62
     7
 10
-456.746949151158
 20
42.4635867441564
 30
0.0
 11
-525.171946650744
 21
42.4635867441564
 31
0.0
  0
LINE
  5
   231
  8
0
  6
CONTINUOUS
 62
     7
 10
-459.701372428365
 20
41.9426423142047
 30
0.0
 11
-456.746949151158
 21
42.4635867441564
 31
0.0
  0
LINE
  5
   232
  8
0
  6
CONTINUOUS
 62
     7
 10
-456.746949151158
 20
42.4635867441564
 30
0.0
 11
-459.701372428365
 21
42.984531174108
 31
0.0
  0
LINE
  5
   233
  8
0
  6
CONTINUOUS
 62
     7
 10
-522.217523373537
 20
42.984531174108
 30
0.0
 11
-525.171946650744
 21
42.4635867441564
 31
0.0
  0
LINE
  5
   234
  8
0
  6
CONTINUOUS
 62
     7
 10
-525.171946650744
 20
42.4635867441564
 30
0.0
 11
-522.217523373537
 21
41.9426423142047
 31
0.0
  0
ENDBLK
  5
   235
  8
0
  6
CONTINUOUS
 62
     7
  0
BLOCK
  5
   236
  8
0
  6
CONTINUOUS
 62
     7
  2
*UDIM931
 70
    65
 10
0.0
 20
0.0
 30
0.0
  3
*UDIM931
  0
TEXT
  5
   237
  8
0
  6
CONTINUOUS
 62
     7
 10
-505.229747132687
 20
49.7426782850288
 30
0.0
 40
2.99999997871263
  1
190
 50
359.999999948034
 41
0.933333333333333
 72
     1
 11
-501.329747159008
 21
51.2426782708675
 31
0.0
 73
     2
  0
LINE
  5
   238
  8
0
  6
CONTINUOUS
 62
     7
 10
-456.746949151158
 20
63.8728382510523
 30
0.0
 11
-456.746949151158
 21
46.7426782815112
 31
0.0
  0
LINE
  5
   239
  8
0
  6
CONTINUOUS
 62
     7
 10
-523.24694801867
 20
69.0900112907712
 30
0.0
 11
-523.24694801867
 21
46.7426782815112
 31
0.0
  0
LINE
  5
   23A
  8
0
  6
CONTINUOUS
 62
     7
 10
-456.746949151158
 20
48.7426782815112
 30
0.0
 11
-523.24694801867
 21
48.7426782815112
 31
0.0
  0
LINE
  5
   23B
  8
0
  6
CONTINUOUS
 62
     7
 10
-459.701372428365
 20
48.2217338515595
 30
0.0
 11
-456.746949151158
 21
48.7426782815112
 31
0.0
  0
LINE
  5
   23C
  8
0
  6
CONTINUOUS
 62
     7
 10
-456.746949151158
 20
48.7426782815112
 30
0.0
 11
-459.701372428365
 21
49.2636227114629
 31
0.0
  0
LINE
  5
   23D
  8
0
  6
CONTINUOUS
 62
     7
 10
-520.292524741463
 20
49.2636227114629
 30
0.0
 11
-523.24694801867
 21
48.7426782815112
 31
0.0
  0
LINE
  5
   23E
  8
0
  6
CONTINUOUS
 62
     7
 10
-523.24694801867
 20
48.7426782815112
 30
0.0
 11
-520.292524741463
 21
48.2217338515595
 31
0.0
  0
ENDBLK
  5
   23F
  8
0
  6
CONTINUOUS
 62
     7
  0
BLOCK
  5
   240
  8
0
  6
CONTINUOUS
 62
     7
  2
*UDIM932
 70
    65
 10
0.0
 20
0.0
 30
0.0
  3
*UDIM932
  0
TEXT
  5
   241
  8
0
  6
CONTINUOUS
 62
     7
 10
-519.674123852064
 20
49.7426782825033
 30
0.0
 40
2.99999997871263
  1
2
 50
359.999999948034
 41
0.933333333333333
 72
     1
 11
-518.574123858517
 21
51.2426782708675
 31
0.0
 73
     2
  0
LINE
  5
   242
  8
0
  6
CONTINUOUS
 62
     7
 10
-523.946948006749
 20
68.9720337646905
 30
0.0
 11
-523.946948006749
 21
46.7426782815112
 31
0.0
  0
LINE
  5
   243
  8
0
  6
CONTINUOUS
 62
     7
 10
-517.474123866322
 20
48.7426782815112
 30
0.0
 11
-523.946948006749
 21
48.7426782815112
 31
0.0
  0
LINE
  5
   244
  8
0
  6
CONTINUOUS
 62
     7
 10
-520.292524741463
 20
49.2636227114629
 30
0.0
 11
-523.24694801867
 21
48.7426782815112
 31
0.0
  0
LINE
  5
   245
  8
0
  6
CONTINUOUS
 62
     7
 10
-523.24694801867
 20
48.7426782815112
 30
0.0
 11
-520.292524741463
 21
48.2217338515595
 31
0.0
  0
LINE
  5
   246
  8
0
  6
CONTINUOUS
 62
     7
 10
-526.901371283956
 20
48.2217338515595
 30
0.0
 11
-523.946948006749
 21
48.7426782815112
 31
0.0
  0
LINE
  5
   247
  8
0
  6
CONTINUOUS
 62
     7
 10
-523.946948006749
 20
48.7426782815112
 30
0.0
 11
-526.901371283956
 21
49.2636227114629
 31
0.0
  0
ENDBLK
  5
   248
  8
0
  6
CONTINUOUS
 62
     7
  0
BLOCK
  5
   249
  8
0
  6
CONTINUOUS
 62
     7
  2
*UDIM933
 70
    65
 10
0.0
 20
0.0
 30
0.0
  3
*UDIM933
  0
TEXT
  5
   24A
  8
0
  6
CONTINUOUS
 62
     7
 10
-490.14695886436
 20
56.0694905399547
 30
0.0
 40
2.99999997871263
  1
167
 50
359.999999948034
 41
0.933333333333333
 72
     1
 11
-486.246958890681
 21
57.5694905257934
 31
0.0
 73
     2
  0
LINE
  5
   24B
  8
0
  6
CONTINUOUS
 62
     7
 10
-456.746949151158
 20
63.8728382510523
 30
0.0
 11
-456.746949151158
 21
53.0694905364371
 31
0.0
  0
LINE
  5
   24C
  8
0
  6
CONTINUOUS
 62
     7
 10
-515.196971822458
 20
116.591590417485
 30
0.0
 11
-515.196971822458
 21
53.0694905364371
 31
0.0
  0
LINE
  5
   24D
  8
0
  6
CONTINUOUS
 62
     7
 10
-456.746949151158
 20
55.0694905364371
 30
0.0
 11
-515.196971822458
 21
55.0694905364371
 31
0.0
  0
LINE
  5
   24E
  8
0
  6
CONTINUOUS
 62
     7
 10
-459.701372428365
 20
54.5485461064855
 30
0.0
 11
-456.746949151158
 21
55.0694905364371
 31
0.0
  0
LINE
  5
   24F
  8
0
  6
CONTINUOUS
 62
     7
 10
-456.746949151158
 20
55.0694905364371
 30
0.0
 11
-459.701372428365
 21
55.5904349663888
 31
0.0
  0
LINE
  5
   250
  8
0
  6
CONTINUOUS
 62
     7
 10
-512.242548545251
 20
55.5904349663888
 30
0.0
 11
-515.196971822458
 21
55.0694905364371
 31
0.0
  0
LINE
  5
   251
  8
0
  6
CONTINUOUS
 62
     7
 10
-515.196971822458
 20
55.0694905364371
 30
0.0
 11
-512.242548545251
 21
54.5485461064855
 31
0.0
  0
ENDBLK
  5
   252
  8
0
  6
CONTINUOUS
 62
     7
  0
BLOCK
  5
   253
  8
0
  6
CONTINUOUS
 62
     7
  2
*UDIM934
 70
    65
 10
0.0
 20
0.0
 30
0.0
  3
*UDIM934
  0
TEXT
  5
   254
  8
0
  6
CONTINUOUS
 62
     7
 10
-542.686144104059
 20
117.879117785177
 30
0.0
 40
2.99999997871263
  1
105
 50
89.9999999480344
 41
0.933333333333333
 72
     1
 11
-544.186144089883
 21
121.779117758862
 31
0.0
 73
     2
  0
LINE
  5
   255
  8
0
  6
CONTINUOUS
 62
     7
 10
-524.246946683526
 20
103.679108277041
 30
0.0
 11
-543.686144100527
 21
103.679108277041
 31
0.0
  0
LINE
  5
   256
  8
0
  6
CONTINUOUS
 62
     7
 10
-524.246946683526
 20
140.429125008064
 30
0.0
 11
-543.686144100527
 21
140.429125008064
 31
0.0
  0
LINE
  5
   257
  8
0
  6
CONTINUOUS
 62
     7
 10
-541.686144100527
 20
103.679108277041
 30
0.0
 11
-541.686144100527
 21
140.429125008064
 31
0.0
  0
LINE
  5
   258
  8
0
  6
CONTINUOUS
 62
     7
 10
-542.207088530478
 20
106.633531554248
 30
0.0
 11
-541.686144100527
 21
103.679108277041
 31
0.0
  0
LINE
  5
   259
  8
0
  6
CONTINUOUS
 62
     7
 10
-541.686144100527
 20
103.679108277041
 30
0.0
 11
-541.165199670575
 21
106.633531554248
 31
0.0
  0
LINE
  5
   25A
  8
0
  6
CONTINUOUS
 62
     7
 10
-541.165199670575
 20
137.474701730857
 30
0.0
 11
-541.686144100527
 21
140.429125008064
 31
0.0
  0
LINE
  5
   25B
  8
0
  6
CONTINUOUS
 62
     7
 10
-541.686144100527
 20
140.429125008064
 30
0.0
 11
-542.207088530478
 21
137.474701730857
 31
0.0
  0
ENDBLK
  5
   25C
  8
0
  6
CONTINUOUS
 62
     7
  0
BLOCK
  5
   25D
  8
0
  6
CONTINUOUS
 62
     7
  2
*UDIM935
 70
    65
 10
0.0
 20
0.0
 30
0.0
  3
*UDIM935
  0
TEXT
  5
   25E
  8
0
  6
CONTINUOUS
 62
     7
 10
-497.404566431033
 20
110.411036741068
 30
0.0
 40
2.99999997871263
  1
1,75
 50
89.9999999480344
 41
0.933333333333333
 72
     1
 11
-498.904566415589
 21
115.711036704819
 31
0.0
 73
     2
  0
LINE
  5
   25F
  8
0
  6
CONTINUOUS
 62
     7
 10
-510.346974868686
 20
121.441587371257
 30
0.0
 11
-494.404566426233
 21
121.441587371257
 31
0.0
  0
LINE
  5
   260
  8
0
  6
CONTINUOUS
 62
     7
 10
-496.404566426233
 20
110.411036742427
 30
0.0
 11
-496.404566426233
 21
122.054125320989
 31
0.0
  0
LINE
  5
   261
  8
0
  6
CONTINUOUS
 62
     7
 10
-495.883621996281
 20
118.48716409405
 30
0.0
 11
-496.404566426233
 21
121.441587371257
 31
0.0
  0
LINE
  5
   262
  8
0
  6
CONTINUOUS
 62
     7
 10
-496.404566426233
 20
121.441587371257
 30
0.0
 11
-496.925510856184
 21
118.48716409405
 31
0.0
  0
LINE
  5
   263
  8
0
  6
CONTINUOUS
 62
     7
 10
-496.925510856184
 20
125.008548598196
 30
0.0
 11
-496.404566426233
 21
122.054125320989
 31
0.0
  0
LINE
  5
   264
  8
0
  6
CONTINUOUS
 62
     7
 10
-496.404566426233
 20
122.054125320989
 30
0.0
 11
-495.883621996281
 21
125.008548598196
 31
0.0
  0
ENDBLK
  5
   265
  8
0
  6
CONTINUOUS
 62
     7
  0
BLOCK
  5
   266
  8
0
  6
CONTINUOUS
 62
     7
  2
*UDIM936
 70
    65
 10
0.0
 20
0.0
 30
0.0
  3
*UDIM936
  0
TEXT
  5
   267
  8
0
  6
CONTINUOUS
 62
     7
 10
-510.683120219004
 20
11.748005546604
 30
0.0
 40
3.50000458955765
  1
PART. Z
 50
359.999999844103
 41
0.933333333333333
 72
     1
 11
-499.599772347319
 21
13.4980078112817
 31
0.0
 73
     2
  0
LINE
  5
   268
  8
0
  6
CONTINUOUS
 62
     7
 10
-472.932514913697
 20
-4.81083476716125
 30
0.0
 11
-483.516424525104
 21
9.7480053247109
 31
0.0
  0
LINE
  5
   269
  8
0
  6
CONTINUOUS
 62
     7
 10
-510.683120258969
 20
9.7480056486705
 30
0.0
 11
-483.516424525104
 21
9.7480053247109
 31
0.0
  0
LINE
  5
   26A
  8
0
  6
CONTINUOUS
 62
     7
 10
-475.264486740045
 20
-2.92353314815161
 30
0.0
 11
-472.932514913697
 21
-4.81083476716125
 31
0.0
  0
LINE
  5
   26B
  8
0
  6
CONTINUOUS
 62
     7
 10
-472.932514913697
 20
-4.81083476716125
 30
0.0
 11
-474.008410905916
 21
-2.0103976916448
 31
0.0
  0
ENDBLK
  5
   26C
  8
0
  6
CONTINUOUS
 62
     7
  0
BLOCK
  5
   26D
  8
0
  6
CONTINUOUS
 62
     7
  2
*UDIM937
 70
    65
 10
0.0
 20
0.0
 30
0.0
  3
*UDIM937
  0
TEXT
  5
   26E
  8
0
  6
CONTINUOUS
 62
     7
 10
-491.953220861296
 20
3.06038875410262
 30
0.0
 40
3.00000002980232
  1
7
 50
331.882439988545
 41
0.933333333333334
 72
     1
 11
-490.276116808865
 21
3.86495203070982
 31
0.0
 73
     2
  0
TEXT
  5
   26F
  8
0
  6
CONTINUOUS
 62
     7
 10
-495.481150767645
 20
4.94551761290953
 30
0.0
 40
3.00000002980232
  1
Ø
 50
331.882439988545
 41
1.2
 72
     1
 11
-493.451253724164
 21
5.56156800230542
 31
0.0
 73
     2
  0
LINE
  5
   270
  8
0
  6
CONTINUOUS
 62
     7
 10
-495.952432976922
 20
4.06353513725178
 30
0.0
 11
-472.40093355431
 21
-8.52107180769549
 31
0.0
  0
LINE
  5
   271
  8
0
  6
CONTINUOUS
 62
     7
 10
-481.276034606918
 20
-4.65906751013825
 30
0.0
 11
-478.354315227782
 21
-5.33991688377742
 31
0.0
  0
LINE
  5
   272
  8
0
  6
CONTINUOUS
 62
     7
 10
-478.354315227782
 20
-5.33991688377742
 30
0.0
 11
-480.544173716147
 21
-3.28942430858024
 31
0.0
  0
LINE
  5
   273
  8
0
  6
CONTINUOUS
 62
     7
 10
-473.889126525895
 20
-6.8455101265805
 30
0.0
 11
-476.81084590503
 21
-6.16466075294133
 31
0.0
  0
LINE
  5
   274
  8
0
  6
CONTINUOUS
 62
     7
 10
-476.81084590503
 20
-6.16466075294133
 30
0.0
 11
-474.620987416666
 21
-8.21515332813851
 31
0.0
  0
ENDBLK
  5
   275
  8
0
  6
CONTINUOUS
 62
     7
  0
BLOCK
  5
   276
  8
0
  6
CONTINUOUS
 62
     7
  2
*UDIM938
 70
    65
 10
0.0
 20
0.0
 30
0.0
  3
*UDIM938
  0
TEXT
  5
   277
  8
0
  6
CONTINUOUS
 62
     7
 10
-428.599237914546
 20
-51.6834485445218
 30
0.0
 40
3.00000002980232
  1
7
 50
326.748988405133
 41
0.933333333333334
 72
     1
 11
-426.85687178255
 21
-51.0321726192684
 31
0.0
 73
     2
  0
TEXT
  5
   278
  8
0
  6
CONTINUOUS
 62
     7
 10
-431.944343845793
 20
-49.4902165578963
 30
0.0
 40
3.00000002980232
  1
Ø
 50
326.748988405133
 41
1.2
 72
     1
 11
-429.867467120377
 21
-49.058263832668
 31
0.0
 73
     2
  0
LINE
  5
   279
  8
0
  6
CONTINUOUS
 62
     7
 10
-451.245704867194
 20
-38.0309793633383
 30
0.0
 11
-427.307737638039
 21
-53.7260026211246
 31
0.0
  0
LINE
  5
   27A
  8
0
  6
CONTINUOUS
 62
     7
 10
-449.913403283766
 20
-39.8329776315639
 30
0.0
 11
-447.064322483545
 21
-40.7725193250583
 31
0.0
  0
LINE
  5
   27B
  8
0
  6
CONTINUOUS
 62
     7
 10
-447.064322483545
 20
-40.7725193250583
 30
0.0
 11
-449.061927954612
 21
-38.5343119213612
 31
0.0
  0
LINE
  5
   27C
  8
0
  6
CONTINUOUS
 62
     7
 10
-442.751757849047
 20
-42.6716000051548
 30
0.0
 11
-445.600838649268
 21
-41.7320583116605
 31
0.0
  0
LINE
  5
   27D
  8
0
  6
CONTINUOUS
 62
     7
 10
-445.600838649268
 20
-41.7320583116605
 30
0.0
 11
-443.603233178201
 21
-43.9702657153576
 31
0.0
  0
ENDBLK
  5
   27E
  8
0
  6
CONTINUOUS
 62
     7
  0
BLOCK
  5
   27F
  8
0
  6
CONTINUOUS
 62
     7
  2
*UDIM939
 70
    65
 10
0.0
 20
0.0
 30
0.0
  3
*UDIM939
  0
TEXT
  5
   280
  8
0
  6
CONTINUOUS
 62
     7
 10
-425.840986151967
 20
8.649833780882
 30
0.0
 40
3.00000002980232
  1
8
 50
392.812542019881
 41
0.933333333333334
 72
     1
 11
-425.729331642242
 21
10.506587221488
 31
0.0
 73
     2
  0
TEXT
  5
   281
  8
0
  6
CONTINUOUS
 62
     7
 10
-428.48839736726
 20
6.94287334791208
 30
0.0
 40
3.00000002980232
  1
Ø
 50
392.812542019881
 41
0.933333333333334
 72
     1
 11
-428.376742857535
 21
8.79962678851804
 31
0.0
 73
     2
  0
TEXT
  5
   282
  8
0
  6
CONTINUOUS
 62
     7
 10
-442.565901559759
 20
-2.13382106694803
 30
0.0
 40
3.00000002980232
  1
3 fori
 50
392.812542019881
 41
0.933333333333333
 72
     1
 11
-436.571110965859
 21
3.51617779000232
 31
0.0
 73
     2
  0
LINE
  5
   283
  8
0
  6
CONTINUOUS
 62
     7
 10
-423.450108324473
 20
9.00154862853194
 30
0.0
 11
-447.173028568611
 21
-6.29418101759326
 31
0.0
  0
LINE
  5
   284
  8
0
  6
CONTINUOUS
 62
     7
 10
-443.291389146032
 20
-3.17159098655964
 30
0.0
 11
-445.492132564202
 21
-5.21039661912549
 31
0.0
  0
LINE
  5
   285
  8
0
  6
CONTINUOUS
 62
     7
 10
-445.492132564202
 20
-5.21039661912549
 30
0.0
 11
-442.726797700382
 21
-4.04724439738448
 31
0.0
  0
LINE
  5
   286
  8
0
  6
CONTINUOUS
 62
     7
 10
-449.373771986781
 20
-8.33298665015911
 30
0.0
 11
-447.173028568611
 21
-6.29418101759326
 31
0.0
  0
LINE
  5
   287
  8
0
  6
CONTINUOUS
 62
     7
 10
-447.173028568611
 20
-6.29418101759326
 30
0.0
 11
-449.938363432431
 21
-7.45733323933427
 31
0.0
  0
ENDBLK
  5
   288
  8
0
  6
CONTINUOUS
 62
     7
  0
BLOCK
  5
   289
  8
0
  6
CONTINUOUS
 62
     7
  2
*UDIM940
 70
    65
 10
0.0
 20
0.0
 30
0.0
  3
*UDIM940
  0
TEXT
  5
   28A
  8
0
  6
CONTINUOUS
 62
     7
 10
-464.588422139163
 20
-62.0828818940848
 30
0.0
 40
3.00000002980232
  1
R min.200
 50
359.999999844103
 41
0.933333333333333
 72
     1
 11
-452.2884220129
 21
-60.5828819125891
 31
0.0
 73
     2
  0
LINE
  5
   28B
  8
0
  6
CONTINUOUS
 62
     7
 10
-466.582580566406
 20
-47.6474701359108
 30
0.0
 11
-466.582580566406
 21
-65.0828819274902
 31
0.0
  0
LINE
  5
   28C
  8
0
  6
CONTINUOUS
 62
     7
 10
-437.940204602131
 20
-60.0831506267515
 30
0.0
 11
-437.940204602131
 21
-65.0828819274902
 31
0.0
  0
LINE
  5
   28D
  8
0
  6
CONTINUOUS
 62
     7
 10
-466.582580566406
 20
-63.0828819274902
 30
0.0
 11
-437.940204602131
 21
-63.0828819274902
 31
0.0
  0
LINE
  5
   28E
  8
0
  6
CONTINUOUS
 62
     7
 10
-469.537003843613
 20
-63.6038263574419
 30
0.0
 11
-466.582580566406
 21
-63.0828819274902
 31
0.0
  0
LINE
  5
   28F
  8
0
  6
CONTINUOUS
 62
     7
 10
-466.582580566406
 20
-63.0828819274902
 30
0.0
 11
-469.537003843613
 21
-62.5619374975386
 31
0.0
  0
LINE
  5
   290
  8
0
  6
CONTINUOUS
 62
     7
 10
-434.985781324924
 20
-62.5619374975386
 30
0.0
 11
-437.940204602131
 21
-63.0828819274902
 31
0.0
  0
LINE
  5
   291
  8
0
  6
CONTINUOUS
 62
     7
 10
-437.940204602131
 20
-63.0828819274902
 30
0.0
 11
-434.985781324924
 21
-63.6038263574419
 31
0.0
  0
ENDBLK
  5
   292
  8
0
  6
CONTINUOUS
 62
     7
  0
BLOCK
  5
   293
  8
0
  6
CONTINUOUS
 62
     7
  2
*UDIM941
 70
    65
 10
0.0
 20
0.0
 30
0.0
  3
*UDIM941
  0
TEXT
  5
   294
  8
0
  6
CONTINUOUS
 62
     7
 10
-504.122501387679
 20
-20.0147888810426
 30
0.0
 40
3.00000002980232
  1
72,5
 50
449.999999844103
 41
0.933333333333333
 72
     1
 11
-505.622501388192
 21
-14.7147888243198
 31
0.0
 73
     2
  0
LINE
  5
   295
  8
0
  6
CONTINUOUS
 62
     7
 10
-474.877580566406
 20
-5.37728881835938
 30
0.0
 11
-505.122501373291
 21
-5.37728881835938
 31
0.0
  0
LINE
  5
   296
  8
0
  6
CONTINUOUS
 62
     7
 10
-495.04330532955
 20
-23.5022888183594
 30
0.0
 11
-505.122501373291
 21
-23.5022888183594
 31
0.0
  0
LINE
  5
   297
  8
0
  6
CONTINUOUS
 62
     7
 10
-503.122501373291
 20
-5.37728881835938
 30
0.0
 11
-503.122501373291
 21
-23.5022888183594
 31
0.0
  0
LINE
  5
   298
  8
0
  6
CONTINUOUS
 62
     7
 10
-502.601556943339
 20
-8.33171209556634
 30
0.0
 11
-503.122501373291
 21
-5.37728881835938
 31
0.0
  0
LINE
  5
   299
  8
0
  6
CONTINUOUS
 62
     7
 10
-503.122501373291
 20
-5.37728881835938
 30
0.0
 11
-503.643445803243
 21
-8.33171209556634
 31
0.0
  0
LINE
  5
   29A
  8
0
  6
CONTINUOUS
 62
     7
 10
-503.643445803243
 20
-20.5478655411524
 30
0.0
 11
-503.122501373291
 21
-23.5022888183594
 31
0.0
  0
LINE
  5
   29B
  8
0
  6
CONTINUOUS
 62
     7
 10
-503.122501373291
 20
-23.5022888183594
 30
0.0
 11
-502.601556943339
 21
-20.5478655411524
 31
0.0
  0
ENDBLK
  5
   29C
  8
0
  6
CONTINUOUS
 62
     7
  0
BLOCK
  5
   29D
  8
0
  6
CONTINUOUS
 62
     7
  2
*UDIM942
 70
    65
 10
0.0
 20
0.0
 30
0.0
  3
*UDIM942
  0
TEXT
  5
   29E
  8
0
  6
CONTINUOUS
 62
     7
 10
-457.278561621011
 20
5.35526848518327
 30
0.0
 40
3.00000002980232
  1
45
 50
359.999999844103
 41
0.933333333333333
 72
     1
 11
-454.778561592102
 21
6.85526849329472
 31
0.0
 73
     2
  0
LINE
  5
   29F
  8
0
  6
CONTINUOUS
 62
     7
 10
-472.207580566406
 20
-2.70728881835937
 30
0.0
 11
-472.207580566406
 21
6.35526847839355
 31
0.0
  0
LINE
  5
   2A0
  8
0
  6
CONTINUOUS
 62
     7
 10
-460.957580566406
 20
-2.70728881835937
 30
0.0
 11
-460.957580566406
 21
6.35526847839355
 31
0.0
  0
LINE
  5
   2A1
  8
0
  6
CONTINUOUS
 62
     7
 10
-472.207580566406
 20
4.35526847839355
 30
0.0
 11
-452.278561567267
 21
4.35526847839355
 31
0.0
  0
LINE
  5
   2A2
  8
0
  6
CONTINUOUS
 62
     7
 10
-475.162003843613
 20
3.83432404844189
 30
0.0
 11
-472.207580566406
 21
4.35526847839355
 31
0.0
  0
LINE
  5
   2A3
  8
0
  6
CONTINUOUS
 62
     7
 10
-472.207580566406
 20
4.35526847839355
 30
0.0
 11
-475.162003843613
 21
4.87621290834522
 31
0.0
  0
LINE
  5
   2A4
  8
0
  6
CONTINUOUS
 62
     7
 10
-458.003157289199
 20
4.87621290834522
 30
0.0
 11
-460.957580566406
 21
4.35526847839355
 31
0.0
  0
LINE
  5
   2A5
  8
0
  6
CONTINUOUS
 62
     7
 10
-460.957580566406
 20
4.35526847839355
 30
0.0
 11
-458.003157289199
 21
3.83432404844189
 31
0.0
  0
ENDBLK
  5
   2A6
  8
0
  6
CONTINUOUS
 62
     7
  0
BLOCK
  5
   2A7
  8
0
  6
CONTINUOUS
 62
     7
  2
*UDIM943
 70
    65
 10
0.0
 20
0.0
 30
0.0
  3
*UDIM943
  0
TEXT
  5
   2A8
  8
0
  6
CONTINUOUS
 62
     7
 10
-428.290924090454
 20
-20.6022885075201
 30
0.0
 40
3.00000002980232
  1
27,25
 50
449.999999844103
 41
0.933333333333333
 72
     1
 11
-429.790924087167
 21
-13.9022884368896
 31
0.0
 73
     2
  0
LINE
  5
   2A9
  8
0
  6
CONTINUOUS
 62
     7
 10
-437.589852266269
 20
-23.5022888183594
 30
0.0
 11
-425.290924072266
 21
-23.5022888183594
 31
0.0
  0
LINE
  5
   2AA
  8
0
  6
CONTINUOUS
 62
     7
 10
-440.327274166965
 20
-30.3147888183594
 30
0.0
 11
-425.290924072266
 21
-30.3147888183594
 31
0.0
  0
LINE
  5
   2AB
  8
0
  6
CONTINUOUS
 62
     7
 10
-427.290924072266
 20
-7.20228837033113
 30
0.0
 11
-427.290924072266
 21
-30.3147888183594
 31
0.0
  0
LINE
  5
   2AC
  8
0
  6
CONTINUOUS
 62
     7
 10
-427.811868502217
 20
-20.5478655411524
 30
0.0
 11
-427.290924072266
 21
-23.5022888183594
 31
0.0
  0
LINE
  5
   2AD
  8
0
  6
CONTINUOUS
 62
     7
 10
-427.290924072266
 20
-23.5022888183594
 30
0.0
 11
-426.769979642314
 21
-20.5478655411524
 31
0.0
  0
LINE
  5
   2AE
  8
0
  6
CONTINUOUS
 62
     7
 10
-426.769979642314
 20
-33.2692120955663
 30
0.0
 11
-427.290924072266
 21
-30.3147888183594
 31
0.0
  0
LINE
  5
   2AF
  8
0
  6
CONTINUOUS
 62
     7
 10
-427.290924072266
 20
-30.3147888183594
 30
0.0
 11
-427.811868502217
 21
-33.2692120955663
 31
0.0
  0
ENDBLK
  5
   2B0
  8
0
  6
CONTINUOUS
 62
     7
  0
BLOCK
  5
   2B1
  8
0
  6
CONTINUOUS
 62
     7
  2
*UDIM944
 70
    65
 10
0.0
 20
0.0
 30
0.0
  3
*UDIM944
  0
TEXT
  5
   2B2
  8
0
  6
CONTINUOUS
 62
     7
 10
-422.873447421199
 20
-15.0690231234818
 30
0.0
 40
3.00000002980232
  1
=
 50
449.999999844103
 41
0.933333333333334
 72
     1
 11
-424.373447433114
 21
-13.9690231084824
 31
0.0
 73
     2
  0
LINE
  5
   2B3
  8
0
  6
CONTINUOUS
 62
     7
 10
-443.707580566406
 20
-5.75228881835938
 30
0.0
 11
-419.873447418213
 21
-5.75228881835938
 31
0.0
  0
LINE
  5
   2B4
  8
0
  6
CONTINUOUS
 62
     7
 10
-443.707580566406
 20
-23.5022888183594
 30
0.0
 11
-419.873447418213
 21
-23.5022888183594
 31
0.0
  0
LINE
  5
   2B5
  8
0
  6
CONTINUOUS
 62
     7
 10
-421.873447418213
 20
-5.75228881835938
 30
0.0
 11
-421.873447418213
 21
-23.5022888183594
 31
0.0
  0
LINE
  5
   2B6
  8
0
  6
CONTINUOUS
 62
     7
 10
-421.352502988261
 20
-8.70671209556634
 30
0.0
 11
-421.873447418213
 21
-5.75228881835938
 31
0.0
  0
LINE
  5
   2B7
  8
0
  6
CONTINUOUS
 62
     7
 10
-421.873447418213
 20
-5.75228881835938
 30
0.0
 11
-422.394391848165
 21
-8.70671209556634
 31
0.0
  0
LINE
  5
   2B8
  8
0
  6
CONTINUOUS
 62
     7
 10
-422.394391848165
 20
-20.5478655411524
 30
0.0
 11
-421.873447418213
 21
-23.5022888183594
 31
0.0
  0
LINE
  5
   2B9
  8
0
  6
CONTINUOUS
 62
     7
 10
-421.873447418213
 20
-23.5022888183594
 30
0.0
 11
-421.352502988261
 21
-20.5478655411524
 31
0.0
  0
ENDBLK
  5
   2BA
  8
0
  6
CONTINUOUS
 62
     7
  0
BLOCK
  5
   2BB
  8
0
  6
CONTINUOUS
 62
     7
  2
*UDIM945
 70
    65
 10
0.0
 20
0.0
 30
0.0
  3
*UDIM945
  0
TEXT
  5
   2BC
  8
0
  6
CONTINUOUS
 62
     7
 10
-422.873447421199
 20
-32.8190231234818
 30
0.0
 40
3.00000002980232
  1
=
 50
449.999999844103
 41
0.933333333333334
 72
     1
 11
-424.373447433114
 21
-31.7190231084824
 31
0.0
 73
     2
  0
LINE
  5
   2BD
  8
0
  6
CONTINUOUS
 62
     7
 10
-443.707580566406
 20
-41.2522888183594
 30
0.0
 11
-419.873447418213
 21
-41.2522888183594
 31
0.0
  0
LINE
  5
   2BE
  8
0
  6
CONTINUOUS
 62
     7
 10
-421.873447418213
 20
-23.5022888183594
 30
0.0
 11
-421.873447418213
 21
-41.2522888183594
 31
0.0
  0
LINE
  5
   2BF
  8
0
  6
CONTINUOUS
 62
     7
 10
-421.352502988261
 20
-26.4567120955663
 30
0.0
 11
-421.873447418213
 21
-23.5022888183594
 31
0.0
  0
LINE
  5
   2C0
  8
0
  6
CONTINUOUS
 62
     7
 10
-421.873447418213
 20
-23.5022888183594
 30
0.0
 11
-422.394391848165
 21
-26.4567120955663
 31
0.0
  0
LINE
  5
   2C1
  8
0
  6
CONTINUOUS
 62
     7
 10
-422.394391848165
 20
-38.2978655411524
 30
0.0
 11
-421.873447418213
 21
-41.2522888183594
 31
0.0
  0
LINE
  5
   2C2
  8
0
  6
CONTINUOUS
 62
     7
 10
-421.873447418213
 20
-41.2522888183594
 30
0.0
 11
-421.352502988261
 21
-38.2978655411524
 31
0.0
  0
ENDBLK
  5
   2C3
  8
0
  6
CONTINUOUS
 62
     7
  0
BLOCK
  5
   2C4
  8
0
  6
CONTINUOUS
 62
     7
  2
*UDIM946
 70
    65
 10
0.0
 20
0.0
 30
0.0
  3
*UDIM946
  0
TEXT
  5
   2C5
  8
0
  6
CONTINUOUS
 62
     7
 10
-496.725919734098
 20
-27.6772888671348
 30
0.0
 40
3.00000002980232
  1
126
 50
449.999999844103
 41
0.933333333333333
 72
     1
 11
-498.225919738412
 21
-23.7772888243198
 31
0.0
 73
     2
  0
LINE
  5
   2C6
  8
0
  6
CONTINUOUS
 62
     7
 10
-485.582580566406
 20
-7.75228881835938
 30
0.0
 11
-497.725919723511
 21
-7.75228881835938
 31
0.0
  0
LINE
  5
   2C7
  8
0
  6
CONTINUOUS
 62
     7
 10
-485.582580566406
 20
-39.2522888183594
 30
0.0
 11
-497.725919723511
 21
-39.2522888183594
 31
0.0
  0
LINE
  5
   2C8
  8
0
  6
CONTINUOUS
 62
     7
 10
-495.725919723511
 20
-7.75228881835938
 30
0.0
 11
-495.725919723511
 21
-39.2522888183594
 31
0.0
  0
LINE
  5
   2C9
  8
0
  6
CONTINUOUS
 62
     7
 10
-495.204975293559
 20
-10.7067120955663
 30
0.0
 11
-495.725919723511
 21
-7.75228881835938
 31
0.0
  0
LINE
  5
   2CA
  8
0
  6
CONTINUOUS
 62
     7
 10
-495.725919723511
 20
-7.75228881835938
 30
0.0
 11
-496.246864153462
 21
-10.7067120955663
 31
0.0
  0
LINE
  5
   2CB
  8
0
  6
CONTINUOUS
 62
     7
 10
-496.246864153462
 20
-36.2978655411524
 30
0.0
 11
-495.725919723511
 21
-39.2522888183594
 31
0.0
  0
LINE
  5
   2CC
  8
0
  6
CONTINUOUS
 62
     7
 10
-495.725919723511
 20
-39.2522888183594
 30
0.0
 11
-495.204975293559
 21
-36.2978655411524
 31
0.0
  0
ENDBLK
  5
   2CD
  8
0
  6
CONTINUOUS
 62
     7
  0
BLOCK
  5
   2CE
  8
0
  6
CONTINUOUS
 62
     7
  2
*UDIM947
 70
    65
 10
0.0
 20
0.0
 30
0.0
  3
*UDIM947
  0
TEXT
  5
   2CF
  8
0
  6
CONTINUOUS
 62
     7
 10
-416.17643357382
 20
-27.6772888671348
 30
0.0
 40
3.00000002980232
  1
142
 50
449.999999844103
 41
0.933333333333333
 72
     1
 11
-417.676433578134
 21
-23.7772888243198
 31
0.0
 73
     2
  0
LINE
  5
   2D0
  8
0
  6
CONTINUOUS
 62
     7
 10
-474.957580566406
 20
-5.75228881835938
 30
0.0
 11
-413.176433563233
 21
-5.75228881835938
 31
0.0
  0
LINE
  5
   2D1
  8
0
  6
CONTINUOUS
 62
     7
 10
-443.707580566406
 20
-41.2522888183594
 30
0.0
 11
-413.176433563233
 21
-41.2522888183594
 31
0.0
  0
LINE
  5
   2D2
  8
0
  6
CONTINUOUS
 62
     7
 10
-415.176433563232
 20
-5.75228881835938
 30
0.0
 11
-415.176433563232
 21
-41.2522888183594
 31
0.0
  0
LINE
  5
   2D3
  8
0
  6
CONTINUOUS
 62
     7
 10
-414.655489133281
 20
-8.70671209556634
 30
0.0
 11
-415.176433563232
 21
-5.75228881835938
 31
0.0
  0
LINE
  5
   2D4
  8
0
  6
CONTINUOUS
 62
     7
 10
-415.176433563232
 20
-5.75228881835938
 30
0.0
 11
-415.697377993184
 21
-8.70671209556634
 31
0.0
  0
LINE
  5
   2D5
  8
0
  6
CONTINUOUS
 62
     7
 10
-415.697377993184
 20
-38.2978655411524
 30
0.0
 11
-415.176433563232
 21
-41.2522888183594
 31
0.0
  0
LINE
  5
   2D6
  8
0
  6
CONTINUOUS
 62
     7
 10
-415.176433563232
 20
-41.2522888183594
 30
0.0
 11
-414.655489133281
 21
-38.2978655411524
 31
0.0
  0
ENDBLK
  5
   2D7
  8
0
  6
CONTINUOUS
 62
     7
  0
BLOCK
  5
   2D8
  8
0
  6
CONTINUOUS
 62
     7
  2
*UDIM948
 70
    65
 10
0.0
 20
0.0
 30
0.0
  3
*UDIM948
  0
TEXT
  5
   2D9
  8
0
  6
CONTINUOUS
 62
     7
 10
-459.565111167065
 20
-33.0045265546431
 30
0.0
 40
3.00000002980232
  1
16
 50
449.999999844103
 41
0.933333333333333
 72
     1
 11
-461.06511117518
 21
-30.5045265257359
 31
0.0
 73
     2
  0
LINE
  5
   2DA
  8
0
  6
CONTINUOUS
 62
     7
 10
-451.832580566406
 20
-28.3147888183594
 30
0.0
 11
-460.565111160278
 21
-28.3147888183594
 31
0.0
  0
LINE
  5
   2DB
  8
0
  6
CONTINUOUS
 62
     7
 10
-451.832580566406
 20
-32.3147888183594
 30
0.0
 11
-460.565111160278
 21
-32.3147888183594
 31
0.0
  0
LINE
  5
   2DC
  8
0
  6
CONTINUOUS
 62
     7
 10
-458.565111160278
 20
-28.0045265009006
 30
0.0
 11
-458.565111160278
 21
-33.0045265505711
 31
0.0
  0
LINE
  5
   2DD
  8
0
  6
CONTINUOUS
 62
     7
 10
-459.08605559023
 20
-25.3603655411524
 30
0.0
 11
-458.565111160278
 21
-28.3147888183594
 31
0.0
  0
LINE
  5
   2DE
  8
0
  6
CONTINUOUS
 62
     7
 10
-458.565111160278
 20
-28.3147888183594
 30
0.0
 11
-458.044166730327
 21
-25.3603655411524
 31
0.0
  0
LINE
  5
   2DF
  8
0
  6
CONTINUOUS
 62
     7
 10
-458.044166730327
 20
-35.2692120955663
 30
0.0
 11
-458.565111160278
 21
-32.3147888183594
 31
0.0
  0
LINE
  5
   2E0
  8
0
  6
CONTINUOUS
 62
     7
 10
-458.565111160278
 20
-32.3147888183594
 30
0.0
 11
-459.08605559023
 21
-35.2692120955663
 31
0.0
  0
ENDBLK
  5
   2E1
  8
0
  6
CONTINUOUS
 62
     7
  0
BLOCK
  5
   2E2
  8
0
  6
CONTINUOUS
 62
     7
  2
*UDIM949
 70
    65
 10
0.0
 20
0.0
 30
0.0
  3
*UDIM949
  0
TEXT
  5
   2E3
  8
0
  6
CONTINUOUS
 62
     7
 10
-457.607580601276
 20
-18.953707449799
 30
0.0
 40
3.00000002980232
  1
94
 50
359.999999844103
 41
0.933333333333333
 72
     1
 11
-455.107580572367
 21
-17.4537074416876
 31
0.0
 73
     2
  0
LINE
  5
   2E4
  8
0
  6
CONTINUOUS
 62
     7
 10
-443.082580566406
 20
-29.4397888183594
 30
0.0
 11
-443.082580566406
 21
-17.9537074565887
 31
0.0
  0
LINE
  5
   2E5
  8
0
  6
CONTINUOUS
 62
     7
 10
-466.582580566406
 20
-19.9537074565887
 30
0.0
 11
-443.082580566406
 21
-19.9537074565887
 31
0.0
  0
LINE
  5
   2E6
  8
0
  6
CONTINUOUS
 62
     7
 10
-463.628157289199
 20
-19.4327630266371
 30
0.0
 11
-466.582580566406
 21
-19.9537074565887
 31
0.0
  0
LINE
  5
   2E7
  8
0
  6
CONTINUOUS
 62
     7
 10
-466.582580566406
 20
-19.9537074565887
 30
0.0
 11
-463.628157289199
 21
-20.4746518865404
 31
0.0
  0
LINE
  5
   2E8
  8
0
  6
CONTINUOUS
 62
     7
 10
-446.037003843613
 20
-20.4746518865404
 30
0.0
 11
-443.082580566406
 21
-19.9537074565887
 31
0.0
  0
LINE
  5
   2E9
  8
0
  6
CONTINUOUS
 62
     7
 10
-443.082580566406
 20
-19.9537074565887
 30
0.0
 11
-446.037003843613
 21
-19.4327630266371
 31
0.0
  0
ENDBLK
  5
   2EA
  8
0
  6
CONTINUOUS
 62
     7
  0
BLOCK
  5
   2EB
  8
0
  6
CONTINUOUS
 62
     7
  2
*UDIM950
 70
    65
 10
0.0
 20
0.0
 30
0.0
  3
*UDIM950
  0
TEXT
  5
   2EC
  8
0
  6
CONTINUOUS
 62
     7
 10
-466.132580644986
 20
-56.3435783280311
 30
0.0
 40
3.00000002980232
  1
125
 50
359.999999844103
 41
0.933333333333333
 72
     1
 11
-462.232580602169
 21
-54.8435783237219
 31
0.0
 73
     2
  0
LINE
  5
   2ED
  8
0
  6
CONTINUOUS
 62
     7
 10
-477.582580566406
 20
-43.8772888183594
 30
0.0
 11
-477.582580566406
 21
-59.343578338623
 31
0.0
  0
LINE
  5
   2EE
  8
0
  6
CONTINUOUS
 62
     7
 10
-446.332580566406
 20
-43.8772888183594
 30
0.0
 11
-446.332580566406
 21
-59.343578338623
 31
0.0
  0
LINE
  5
   2EF
  8
0
  6
CONTINUOUS
 62
     7
 10
-477.582580566406
 20
-57.343578338623
 30
0.0
 11
-446.332580566406
 21
-57.343578338623
 31
0.0
  0
LINE
  5
   2F0
  8
0
  6
CONTINUOUS
 62
     7
 10
-474.628157289199
 20
-56.8226339086714
 30
0.0
 11
-477.582580566406
 21
-57.343578338623
 31
0.0
  0
LINE
  5
   2F1
  8
0
  6
CONTINUOUS
 62
     7
 10
-477.582580566406
 20
-57.343578338623
 30
0.0
 11
-474.628157289199
 21
-57.8645227685747
 31
0.0
  0
LINE
  5
   2F2
  8
0
  6
CONTINUOUS
 62
     7
 10
-449.287003843613
 20
-57.8645227685747
 30
0.0
 11
-446.332580566406
 21
-57.343578338623
 31
0.0
  0
LINE
  5
   2F3
  8
0
  6
CONTINUOUS
 62
     7
 10
-446.332580566406
 20
-57.343578338623
 30
0.0
 11
-449.287003843613
 21
-56.8226339086714
 31
0.0
  0
ENDBLK
  5
   2F4
  8
0
  6
CONTINUOUS
 62
     7
  0
BLOCK
  5
   2F5
  8
0
  6
CONTINUOUS
 62
     7
  2
*UDIM951
 70
    65
 10
0.0
 20
0.0
 30
0.0
  3
*UDIM951
  0
TEXT
  5
   2F6
  8
0
  6
CONTINUOUS
 62
     7
 10
-459.232580601276
 20
-49.9149818352513
 30
0.0
 40
3.00000002980232
  1
81
 50
359.999999844103
 41
0.933333333333333
 72
     1
 11
-456.732580572367
 21
-48.4149818271399
 31
0.0
 73
     2
  0
LINE
  5
   2F7
  8
0
  6
CONTINUOUS
 62
     7
 10
-466.582580566406
 20
-47.6474701359108
 30
0.0
 11
-466.582580566406
 21
-52.914981842041
 31
0.0
  0
LINE
  5
   2F8
  8
0
  6
CONTINUOUS
 62
     7
 10
-446.332580566406
 20
-43.8772888183594
 30
0.0
 11
-446.332580566406
 21
-52.914981842041
 31
0.0
  0
LINE
  5
   2F9
  8
0
  6
CONTINUOUS
 62
     7
 10
-466.582580566406
 20
-50.914981842041
 30
0.0
 11
-446.332580566406
 21
-50.914981842041
 31
0.0
  0
LINE
  5
   2FA
  8
0
  6
CONTINUOUS
 62
     7
 10
-463.628157289199
 20
-50.3940374120894
 30
0.0
 11
-466.582580566406
 21
-50.914981842041
 31
0.0
  0
LINE
  5
   2FB
  8
0
  6
CONTINUOUS
 62
     7
 10
-466.582580566406
 20
-50.914981842041
 30
0.0
 11
-463.628157289199
 21
-51.4359262719927
 31
0.0
  0
LINE
  5
   2FC
  8
0
  6
CONTINUOUS
 62
     7
 10
-449.287003843613
 20
-51.4359262719927
 30
0.0
 11
-446.332580566406
 21
-50.914981842041
 31
0.0
  0
LINE
  5
   2FD
  8
0
  6
CONTINUOUS
 62
     7
 10
-446.332580566406
 20
-50.914981842041
 30
0.0
 11
-449.287003843613
 21
-50.3940374120894
 31
0.0
  0
ENDBLK
  5
   2FE
  8
0
  6
CONTINUOUS
 62
     7
  0
BLOCK
  5
   2FF
  8
0
  6
CONTINUOUS
 62
     7
  2
*UDIM952
 70
    65
 10
0.0
 20
0.0
 30
0.0
  3
*UDIM952
  0
TEXT
  5
   300
  8
0
  6
CONTINUOUS
 62
     7
 10
-471.882580615184
 20
20.1823387251916
 30
0.0
 40
3.00000002980232
  1
135
 50
359.999999844103
 41
0.933333333333333
 72
     1
 11
-467.982580572367
 21
21.6823387295008
 31
0.0
 73
     2
  0
LINE
  5
   301
  8
0
  6
CONTINUOUS
 62
     7
 10
-484.582580566406
 20
-6.75228881835938
 30
0.0
 11
-484.582580566406
 21
21.1823387145996
 31
0.0
  0
LINE
  5
   302
  8
0
  6
CONTINUOUS
 62
     7
 10
-450.832580566406
 20
-6.75228881835938
 30
0.0
 11
-450.832580566406
 21
21.1823387145996
 31
0.0
  0
LINE
  5
   303
  8
0
  6
CONTINUOUS
 62
     7
 10
-484.582580566406
 20
19.1823387145996
 30
0.0
 11
-450.832580566406
 21
19.1823387145996
 31
0.0
  0
LINE
  5
   304
  8
0
  6
CONTINUOUS
 62
     7
 10
-481.628157289199
 20
19.7032831445513
 30
0.0
 11
-484.582580566406
 21
19.1823387145996
 31
0.0
  0
LINE
  5
   305
  8
0
  6
CONTINUOUS
 62
     7
 10
-484.582580566406
 20
19.1823387145996
 30
0.0
 11
-481.628157289199
 21
18.6613942846479
 31
0.0
  0
LINE
  5
   306
  8
0
  6
CONTINUOUS
 62
     7
 10
-453.787003843613
 20
18.6613942846479
 30
0.0
 11
-450.832580566406
 21
19.1823387145996
 31
0.0
  0
LINE
  5
   307
  8
0
  6
CONTINUOUS
 62
     7
 10
-450.832580566406
 20
19.1823387145996
 30
0.0
 11
-453.787003843613
 21
19.7032831445513
 31
0.0
  0
ENDBLK
  5
   308
  8
0
  6
CONTINUOUS
 62
     7
  0
BLOCK
  5
   309
  8
0
  6
CONTINUOUS
 62
     7
  2
*UDIM953
 70
    65
 10
0.0
 20
0.0
 30
0.0
  3
*UDIM953
  0
TEXT
  5
   30A
  8
0
  6
CONTINUOUS
 62
     7
 10
-461.482581078113
 20
12.7938766547389
 30
0.0
 40
3.00000002980232
  1
63
 50
359.999999844103
 41
0.933333333333333
 72
     1
 11
-458.982581049204
 21
14.2938766628504
 31
0.0
 73
     2
  0
LINE
  5
   30B
  8
0
  6
CONTINUOUS
 62
     7
 10
-466.582580566406
 20
3.12520234249573
 30
0.0
 11
-466.582580566406
 21
13.7938766479492
 31
0.0
  0
LINE
  5
   30C
  8
0
  6
CONTINUOUS
 62
     7
 10
-450.832580566406
 20
-6.75228881835938
 30
0.0
 11
-450.832580566406
 21
13.7938766479492
 31
0.0
  0
LINE
  5
   30D
  8
0
  6
CONTINUOUS
 62
     7
 10
-466.582580566406
 20
11.7938766479492
 30
0.0
 11
-450.832580566406
 21
11.7938766479492
 31
0.0
  0
LINE
  5
   30E
  8
0
  6
CONTINUOUS
 62
     7
 10
-463.628157289199
 20
12.3148210779009
 30
0.0
 11
-466.582580566406
 21
11.7938766479492
 31
0.0
  0
LINE
  5
   30F
  8
0
  6
CONTINUOUS
 62
     7
 10
-466.582580566406
 20
11.7938766479492
 30
0.0
 11
-463.628157289199
 21
11.2729322179976
 31
0.0
  0
LINE
  5
   310
  8
0
  6
CONTINUOUS
 62
     7
 10
-453.787003843613
 20
11.2729322179976
 30
0.0
 11
-450.832580566406
 21
11.7938766479492
 31
0.0
  0
LINE
  5
   311
  8
0
  6
CONTINUOUS
 62
     7
 10
-450.832580566406
 20
11.7938766479492
 30
0.0
 11
-453.787003843613
 21
12.3148210779009
 31
0.0
  0
ENDBLK
  5
   312
  8
0
  6
CONTINUOUS
 62
     7
  0
BLOCK
  5
   313
  8
0
  6
CONTINUOUS
 62
     7
  2
*HATCH207
 70
    65
 10
0.0
 20
0.0
 30
0.0
  3
*HATCH207
  0
LINE
  5
   314
  8
0
  6
CONTINUOUS
 62
    52
 10
-11.7279224395752
 20
1.0
 30
0.0
 11
-11.9763488769531
 21
0.75157368183136
 31
0.0
  0
LINE
  5
   315
  8
0
  6
CONTINUOUS
 62
    52
 10
-9.60660171508789
 20
1.0
 30
0.0
 11
-11.6066026687622
 21
-1.0
 31
0.0
  0
LINE
  5
   316
  8
0
  6
CONTINUOUS
 62
    52
 10
-7.48528146743774
 20
1.0
 30
0.0
 11
-9.48528289794922
 21
-1.0
 31
0.0
  0
LINE
  5
   317
  8
0
  6
CONTINUOUS
 62
    52
 10
-5.3639612197876
 20
1.0
 30
0.0
 11
-7.36396265029907
 21
-1.0
 31
0.0
  0
LINE
  5
   318
  8
0
  6
CONTINUOUS
 62
    52
 10
-3.47947335243225
 20
0.763167560100555
 30
0.0
 11
-5.24264097213745
 21
-1.0
 31
0.0
  0
LINE
  5
   319
  8
0
  6
CONTINUOUS
 62
    52
 10
-2.51160907745361
 20
-0.390288293361664
 30
0.0
 11
-3.1213207244873
 21
-1.0
 31
0.0
  0
ENDBLK
  5
   31A
  8
0
  6
CONTINUOUS
 62
     7
  0
BLOCK
  5
   31B
  8
0
  6
CONTINUOUS
 62
     7
  2
*HATCH208
 70
    65
 10
0.0
 20
0.0
 30
0.0
  3
*HATCH208
  0
LINE
  5
   31C
  8
0
  6
CONTINUOUS
 62
    52
 10
5.24264097213745
 20
1.0
 30
0.0
 11
3.24264073371887
 21
-1.0
 31
0.0
  0
LINE
  5
   31D
  8
0
  6
CONTINUOUS
 62
    52
 10
7.3639612197876
 20
1.0
 30
0.0
 11
5.3639612197876
 21
-1.0
 31
0.0
  0
LINE
  5
   31E
  8
0
  6
CONTINUOUS
 62
    52
 10
9.48528099060059
 20
1.0
 30
0.0
 11
7.4852819442749
 21
-1.0
 31
0.0
  0
ENDBLK
  5
   31F
  8
0
  6
CONTINUOUS
 62
     7
  0
BLOCK
  5
   320
  8
0
  6
CONTINUOUS
 62
     7
  2
*UDIM954
 70
    65
 10
0.0
 20
0.0
 30
0.0
  3
*UDIM954
  0
TEXT
  5
   321
  8
0
  6
CONTINUOUS
 62
     7
 10
-518.30543732269
 20
-20.8965225947602
 30
0.0
 40
3.00000002980232
  1
80
 50
449.241125536518
 41
0.933333333333333
 72
     1
 11
-519.772194592625
 21
-18.3768751432358
 31
0.0
 73
     2
  0
TEXT
  5
   322
  8
0
  6
CONTINUOUS
 62
     7
 10
-518.839162356951
 20
-15.8890144233141
 30
0.0
 40
3.00000002980232
  1
°
 50
449.241125536518
 41
0.933333333333334
 72
     1
 11
-520.324461886113
 21
-14.7692441891072
 31
0.0
 73
     2
  0
LINE
  5
   323
  8
0
  6
CONTINUOUS
 62
     7
 10
-535.367866689694
 20
-21.322981958711
 30
0.0
 11
-521.165899523463
 21
-33.2398473698869
 31
0.0
  0
LINE
  5
   324
  8
0
  6
CONTINUOUS
 62
     7
 10
-535.367866689694
 20
-12.6810082146288
 30
0.0
 11
-521.165899523463
 21
-0.764142803452966
 31
0.0
  0
ARC
  5
   325
  8
0
  6
CONTINUOUS
 62
     7
 10
-540.517418318001
 20
-17.0019950866699
 30
0.0
 40
23.2616136940404
 50
319.999999815233
 51
399.999999769042
  0
LINE
  5
   326
  8
0
  6
CONTINUOUS
 62
     7
 10
-521.197988319081
 20
-29.3561959914799
 30
0.0
 11
-522.697988409701
 21
-31.9542721505138
 31
0.0
  0
LINE
  5
   327
  8
0
  6
CONTINUOUS
 62
     7
 10
-522.697988409701
 20
-31.9542721505138
 30
0.0
 11
-520.399855147605
 21
-30.0259092412962
 31
0.0
  0
LINE
  5
   328
  8
0
  6
CONTINUOUS
 62
     7
 10
-520.399855147605
 20
-3.97808093204365
 30
0.0
 11
-522.697988409701
 21
-2.04971802282605
 31
0.0
  0
LINE
  5
   329
  8
0
  6
CONTINUOUS
 62
     7
 10
-522.697988409701
 20
-2.04971802282605
 30
0.0
 11
-521.197988319081
 21
-4.64779418185995
 31
0.0
  0
ENDBLK
  5
   32A
  8
0
  6
CONTINUOUS
 62
     7
  0
BLOCK
  5
   32B
  8
0
  6
CONTINUOUS
 62
     7
  2
*UDIM955
 70
    65
 10
0.0
 20
0.0
 30
0.0
  3
*UDIM955
  0
TEXT
  5
   32C
  8
0
  6
CONTINUOUS
 62
     7
 10
-558.579578406445
 20
-11.1169281294932
 30
0.0
 40
3.00000002980232
  1
Ø4
 50
449.999999844103
 41
0.933333333333333
 72
     1
 11
-560.079578414559
 21
-8.61692810058594
 31
0.0
 73
     2
  0
LINE
  5
   32D
  8
0
  6
CONTINUOUS
 62
     7
 10
-539.133911132813
 20
-15.0019950866699
 30
0.0
 11
-559.579578399658
 21
-15.0019950866699
 31
0.0
  0
LINE
  5
   32E
  8
0
  6
CONTINUOUS
 62
     7
 10
-539.133911132813
 20
-19.0019950866699
 30
0.0
 11
-559.579578399658
 21
-19.0019950866699
 31
0.0
  0
LINE
  5
   32F
  8
0
  6
CONTINUOUS
 62
     7
 10
-557.579578399658
 20
-6.11692807575067
 30
0.0
 11
-557.579578399658
 21
-19.0019950866699
 31
0.0
  0
LINE
  5
   330
  8
0
  6
CONTINUOUS
 62
     7
 10
-558.10052282961
 20
-12.047571809463
 30
0.0
 11
-557.579578399658
 21
-15.0019950866699
 31
0.0
  0
LINE
  5
   331
  8
0
  6
CONTINUOUS
 62
     7
 10
-557.579578399658
 20
-15.0019950866699
 30
0.0
 11
-557.058633969707
 21
-12.047571809463
 31
0.0
  0
LINE
  5
   332
  8
0
  6
CONTINUOUS
 62
     7
 10
-557.058633969707
 20
-21.9564183638769
 30
0.0
 11
-557.579578399658
 21
-19.0019950866699
 31
0.0
  0
LINE
  5
   333
  8
0
  6
CONTINUOUS
 62
     7
 10
-557.579578399658
 20
-19.0019950866699
 30
0.0
 11
-558.10052282961
 21
-21.9564183638769
 31
0.0
  0
ENDBLK
  5
   334
  8
0
  6
CONTINUOUS
 62
     7
  0
ENDSEC
  0
SECTION
  2
ENTITIES
  0
LINE
  5
   335
  8
0
  6
DASHDOT
 62
     7
 10
-362.249938964844
 20
18.625818599694
 30
0.0
 11
-362.249938964844
 21
-69.262315174265
 31
0.0
  0
LINE
  5
   336
  8
0
  6
CONTINUOUS
 62
     7
 10
-382.937438964844
 20
15.7296080321079
 30
0.0
 11
-382.937438964844
 21
-65.6897888183594
 31
0.0
  0
LINE
  5
   337
  8
0
  6
CONTINUOUS
 62
     7
 10
-341.562438964844
 20
15.7296080321079
 30
0.0
 11
-341.562438964844
 21
-65.6897888183594
 31
0.0
  0
LINE
  5
   338
  8
0
  6
CONTINUOUS
 62
     7
 10
-338.383162480497
 20
-65.6897888183594
 30
0.0
 11
-384.370731564052
 21
-65.6897888183594
 31
0.0
  0
LINE
  5
   339
  8
0
  6
DASHDOT
 62
     7
 10
-344.556958918126
 20
-7.06478881835938
 30
0.0
 11
-379.6211517738
 21
-7.06478881835938
 31
0.0
  0
LINE
  5
   33A
  8
0
  6
DASHDOT
 62
     7
 10
-344.556958918126
 20
-40.8147888183594
 30
0.0
 11
-379.672923822285
 21
-40.8147888183594
 31
0.0
  0
LINE
  5
   33B
  8
0
  6
DASHDOT
 62
     7
 10
-376.624938964844
 20
-3.31470211952505
 30
0.0
 11
-376.624938964844
 21
-44.7754842815427
 31
0.0
  0
LINE
  5
   33C
  8
0
  6
DASHDOT
 62
     7
 10
-347.874938964844
 20
-4.08265417205774
 30
0.0
 11
-347.874938964844
 21
-45.6038370573083
 31
0.0
  0
CIRCLE
  5
   33D
  8
0
  6
CONTINUOUS
 62
     7
 10
-376.624938964844
 20
-7.06478881835938
 30
0.0
 40
0.75
  0
CIRCLE
  5
   33E
  8
0
  6
CONTINUOUS
 62
     7
 10
-347.874938964844
 20
-7.06478881835938
 30
0.0
 40
0.75
  0
CIRCLE
  5
   33F
  8
0
  6
CONTINUOUS
 62
     7
 10
-376.624938964844
 20
-40.8147888183594
 30
0.0
 40
0.75
  0
CIRCLE
  5
   340
  8
0
  6
CONTINUOUS
 62
     7
 10
-347.874938964844
 20
-40.8147888183594
 30
0.0
 40
0.75
  0
LINE
  5
   341
  8
0
  6
CONTINUOUS
 62
     7
 10
-339.69136209216
 20
15.7296080321079
 30
0.0
 11
-384.204811515733
 21
15.7296080321079
 31
0.0
  0
LINE
  5
   342
  8
0
  6
DASHDOT
 62
     7
 10
-335.806708271655
 20
-23.5022888183594
 30
0.0
 11
-401.892410902533
 21
-23.5022888183594
 31
0.0
  0
TEXT
  5
   343
  8
0
  6
CONTINUOUS
 62
     1
 10
-455.522125475568
 20
-160.518469303139
 30
0.0
 40
2.00000008940697
  1
M 4329 96-09-24
 50
359.999999896069
 41
0.749999861419206
 72
     1
 11
-444.42212703242
 21
-159.518469278514
 31
0.0
 73
     2
  0
LINE
  5
   344
  8
0
  6
CONTINUOUS
 62
     7
 10
-345.249938964844
 20
-45.1897888183594
 30
0.0
 11
-379.249938964844
 21
-45.1897888183594
 31
0.0
  0
LINE
  5
   345
  8
0
  6
CONTINUOUS
 62
     7
 10
-380.249938964844
 20
-46.1897888183594
 30
0.0
 11
-380.249938964844
 21
-60.4397888183594
 31
0.0
  0
LINE
  5
   346
  8
0
  6
CONTINUOUS
 62
     7
 10
-344.249938964844
 20
-46.1897888183594
 30
0.0
 11
-344.249938964844
 21
-60.4397888183594
 31
0.0
  0
ARC
  5
   347
  8
0
  6
CONTINUOUS
 62
     7
 10
-345.249938964844
 20
-46.1897888183594
 30
0.0
 40
1.0
 50
359.999999896069
 51
449.999999896069
  0
ARC
  5
   348
  8
0
  6
CONTINUOUS
 62
     7
 10
-379.249938964844
 20
-46.1897888183594
 30
0.0
 40
1.0
 50
449.999999896069
 51
539.999999896069
  0
LINE
  5
   349
  8
0
  6
CONTINUOUS
 62
     7
 10
-345.249938964844
 20
-2.68978881835938
 30
0.0
 11
-379.249938964844
 21
-2.68978881835938
 31
0.0
  0
LINE
  5
   34A
  8
0
  6
CONTINUOUS
 62
     7
 10
-345.249938964844
 20
13.5602111816406
 30
0.0
 11
-379.249938964844
 21
13.5602111816406
 31
0.0
  0
LINE
  5
   34B
  8
0
  6
CONTINUOUS
 62
     7
 10
-344.249938964844
 20
12.5602111816406
 30
0.0
 11
-344.249938964844
 21
-1.68978881835938
 31
0.0
  0
LINE
  5
   34C
  8
0
  6
CONTINUOUS
 62
     7
 10
-380.249938964844
 20
12.5602111816406
 30
0.0
 11
-380.249938964844
 21
-1.68978881835938
 31
0.0
  0
ARC
  5
   34D
  8
0
  6
CONTINUOUS
 62
     7
 10
-379.249938964844
 20
12.5602111816406
 30
0.0
 40
1.0
 50
449.999999896069
 51
539.999999896069
  0
ARC
  5
   34E
  8
0
  6
CONTINUOUS
 62
     7
 10
-379.249938964844
 20
-1.68978881835938
 30
0.0
 40
1.0
 50
179.999999896069
 51
269.999999896069
  0
ARC
  5
   34F
  8
0
  6
CONTINUOUS
 62
     7
 10
-345.249938964844
 20
-1.68978881835938
 30
0.0
 40
1.0
 50
269.999999896069
 51
359.999999896069
  0
ARC
  5
   350
  8
0
  6
CONTINUOUS
 62
     7
 10
-345.249938964844
 20
12.5602111816406
 30
0.0
 40
1.0
 50
359.999999896069
 51
449.999999896069
  0
LINE
  5
   351
  8
0
  6
CONTINUOUS
 62
     7
 10
-345.249938964844
 20
-61.4397888183594
 30
0.0
 11
-379.249938964844
 21
-61.4397888183594
 31
0.0
  0
ARC
  5
   352
  8
0
  6
CONTINUOUS
 62
     7
 10
-379.249938964844
 20
-60.4397888183594
 30
0.0
 40
1.0
 50
179.999999896069
 51
269.999999896069
  0
ARC
  5
   353
  8
0
  6
CONTINUOUS
 62
     7
 10
-345.249938964844
 20
-60.4397888183594
 30
0.0
 40
1.0
 50
269.999999896069
 51
359.999999896069
  0
TEXT
  5
   354
  8
0
  6
CONTINUOUS
 62
     1
 10
-349.354736330838
 20
-162.6377868632
 30
0.0
 40
3.00000002980232
  1
S5/630 (400A)
 50
359.999999896069
 41
0.916666604744064
 72
     2
 11
-314.154738363357
 21
-162.637786926874
 31
0.0
  0
INSERT
  5
   355
  8
0
  6
CONTINUOUS
 62
     7
  2
*UDIM895
 10
0.0
 20
0.0
 30
0.0
  0
INSERT
  5
   356
  8
0
  6
CONTINUOUS
 62
     7
  2
*UDIM896
 10
0.0
 20
0.0
 30
0.0
  0
TEXT
  5
   357
  8
0
  6
CONTINUOUS
 62
     1
 10
-360.440429691118
 20
-171.619369652411
 30
0.0
 40
4.00000017881393
  1
601812/951
 50
359.999999896069
 41
0.937499973922969
 72
     2
 11
-323.690429091346
 21
-171.619369718889
 31
0.0
  0
TEXT
  5
   358
  8
0
  6
CONTINUOUS
 62
     1
 10
-430.682125475568
 20
-160.518469303139
 30
0.0
 40
2.00000008940697
  1
M 4504 98-11-17
 50
359.999999896069
 41
0.749999861419206
 72
     1
 11
-419.58212703242
 21
-159.518469278514
 31
0.0
 73
     2
  0
TEXT
  5
   359
  8
0
  6
CONTINUOUS
 62
     1
 10
-469.410064699075
 20
-154.453149870287
 30
0.0
 40
2.00000008940697
  1
SCARPELLINI
 50
359.999999896069
 41
0.749999861419206
 72
     2
 11
-453.210066975972
 21
-154.453149899591
 31
0.0
  0
INSERT
  5
   35A
  8
0
  6
CONTINUOUS
 62
     7
  2
*UDIM897
 10
0.0
 20
0.0
 30
0.0
  0
INSERT
  5
   35B
  8
0
  6
CONTINUOUS
 62
     7
  2
*UDIM898
 10
0.0
 20
0.0
 30
0.0
  0
INSERT
  5
   35C
  8
0
  6
CONTINUOUS
 62
     7
  2
*UDIM899
 10
0.0
 20
0.0
 30
0.0
  0
INSERT
  5
   35D
  8
0
  6
CONTINUOUS
 62
     7
  2
*UDIM900
 10
0.0
 20
0.0
 30
0.0
  0
INSERT
  5
   35E
  8
0
  6
CONTINUOUS
 62
     7
  2
*UDIM901
 10
0.0
 20
0.0
 30
0.0
  0
INSERT
  5
   35F
  8
0
  6
CONTINUOUS
 62
     7
  2
*UDIM902
 10
0.0
 20
0.0
 30
0.0
  0
TEXT
  5
   360
  8
0
  6
CONTINUOUS
 62
     1
 10
-469.410064699075
 20
-145.986404482847
 30
0.0
 40
2.00000008940697
  1
96-11-29 M.COLLEONI
 50
359.999999896069
 41
0.749999861419206
 72
     2
 11
-441.210068656823
 21
-145.986404533858
 31
0.0
  0
TEXT
  5
   361
  8
0
  6
CONTINUOUS
 62
     5
 10
-360.491857292981
 20
17.1894187649121
 30
0.0
 40
3.00000002980232
  1
Y
 50
359.999999896069
 41
0.916666604744064
 72
     2
 11
-358.291857424112
 21
17.1894187609325
 31
0.0
  0
INSERT
  5
   362
  8
0
  6
CONTINUOUS
 62
     5
  2
*UDIM903
 10
0.0
 20
0.0
 30
0.0
  0
TEXT
  5
   363
  8
0
  6
CONTINUOUS
 62
     7
 10
-370.388469698758
 20
-78.4020729218704
 30
0.0
 40
3.00000002980232
  1
=    =
 50
359.999999896069
 41
0.916666604744064
 72
     2
 11
-354.438470622134
 21
-78.4020729507226
 31
0.0
  0
INSERT
  5
   364
  8
0
  6
CONTINUOUS
 62
     7
  2
*UDIM904
 10
0.0
 20
0.0
 30
0.0
  0
INSERT
  5
   365
  8
0
  6
CONTINUOUS
 62
     7
  2
*UDIM905
 10
0.0
 20
0.0
 30
0.0
  0
TEXT
  5
   366
  8
0
  6
CONTINUOUS
 62
     7
 10
-387.833478930326
 20
-21.8861494342456
 30
0.0
 40
3.00000002980232
  1
X
 50
359.999999896069
 41
0.916666604744064
 72
     2
 11
-385.633479061456
 21
-21.8861494382252
 31
0.0
  0
TEXT
  5
   367
  8
0
  6
CONTINUOUS
 62
     7
 10
-321.358909609647
 20
-27.2504264394412
 30
0.0
 40
3.00000002980232
  1
X
 50
359.999999896069
 41
0.916666604744064
 72
     2
 11
-319.158909740777
 21
-27.2504264434209
 31
0.0
  0
TEXT
  5
   368
  8
0
  6
CONTINUOUS
 62
     7
 10
-366.209573510022
 20
-70.6060676852832
 30
0.0
 40
3.00000002980232
  1
Y
 50
359.999999896069
 41
0.916666604744064
 72
     2
 11
-364.009573641153
 21
-70.6060676892628
 31
0.0
  0
TEXT
  5
   369
  8
0
  6
CONTINUOUS
 62
     1
 10
-370.889156054279
 20
-144.327514640502
 30
0.0
 40
2.00000008940697
  1
3POLE LOW VOLTAGE M.C.C.B SERIES ISOMAX
 50
359.999999896069
 41
0.749999861419206
 72
     1
 11
-341.789160132408
 21
-143.327514648438
 31
0.0
 73
     2
  0
TEXT
  5
   36A
  8
0
  6
CONTINUOUS
 62
     1
 10
-368.639156369439
 20
-147.327514644572
 30
0.0
 40
2.00000008940697
  1
WITHDRAWABLE VERSION FRONT TERMINALS
 50
359.999999896069
 41
0.749999861419206
 72
     1
 11
-341.789160132408
 21
-146.327514648438
 31
0.0
 73
     2
  0
TEXT
  5
   36B
  8
0
  6
CONTINUOUS
 62
     1
 10
-367.686764421633
 20
-152.397781376345
 30
0.0
 40
2.00000008940697
  1
INTERR.AUTOMATICO SERIE ISOMAX
 50
359.999999896069
 41
0.749999861419206
 72
     1
 11
-345.336767554283
 21
-151.39778137207
 31
0.0
 73
     2
  0
TEXT
  5
   36C
  8
0
  6
CONTINUOUS
 62
     1
 10
-378.936762845835
 20
-155.397781355994
 30
0.0
 40
2.00000008940697
  1
TRIPOL.ESECUZIONE ESTRAIBILE TERMIN.ANTERIORI
 50
359.999999896069
 41
0.749999861419206
 72
     1
 11
-345.336767554283
 21
-154.39778137207
 31
0.0
 73
     2
  0
LINE
  5
   36D
  8
0
  6
CONTINUOUS
 62
     7
 10
-386.749935680313
 20
157.491620139855
 30
0.0
 11
-386.749935680313
 21
164.911614672917
 31
0.0
  0
LINE
  5
   36E
  8
0
  6
CONTINUOUS
 62
     7
 10
-337.749952878501
 20
77.9716345250653
 30
0.0
 11
-337.749952878501
 21
93.8791243086997
 31
0.0
  0
LINE
  5
   36F
  8
0
  6
CONTINUOUS
 62
     7
 10
-386.749952044036
 20
77.9716334402608
 30
0.0
 11
-386.749952044036
 21
93.8791243086997
 31
0.0
  0
LINE
  5
   370
  8
0
  6
CONTINUOUS
 62
     1
 10
-337.74995301544
 20
150.226917691144
 30
0.0
 11
-337.74995301544
 21
157.491620139855
 31
0.0
  0
LINE
  5
   371
  8
0
  6
CONTINUOUS
 62
     1
 10
-386.749952180975
 20
150.226917691144
 30
0.0
 11
-386.749952180975
 21
157.491620139855
 31
0.0
  0
LINE
  5
   372
  8
0
  6
DOT
 62
     1
 10
-337.74995301544
 20
93.8791243086997
 30
0.0
 11
-337.74995301544
 21
150.226917691144
 31
0.0
  0
LINE
  5
   373
  8
0
  6
CONTINUOUS
 62
     1
 10
-343.752456117563
 20
103.85411571272
 30
0.0
 11
-343.752456117563
 21
140.604115086871
 31
0.0
  0
LINE
  5
   374
  8
0
  6
CONTINUOUS
 62
     1
 10
-343.752456117563
 20
150.226917691144
 30
0.0
 11
-343.752456117563
 21
157.491614799279
 31
0.0
  0
LINE
  5
   375
  8
0
  6
CONTINUOUS
 62
     1
 10
-343.752456117563
 20
76.1166374273683
 30
0.0
 11
-343.752456117563
 21
93.8791243086997
 31
0.0
  0
LINE
  5
   376
  8
0
  6
CONTINUOUS
 62
     1
 10
-380.099952294223
 20
150.226917691144
 30
0.0
 11
-380.099952294223
 21
155.741620169657
 31
0.0
  0
LINE
  5
   377
  8
0
  6
CONTINUOUS
 62
     1
 10
-344.399952902191
 20
150.226917691144
 30
0.0
 11
-344.399952902191
 21
155.741620169657
 31
0.0
  0
LINE
  5
   378
  8
0
  6
CONTINUOUS
 62
     1
 10
-344.399952902191
 20
155.741620169657
 30
0.0
 11
-380.099952294223
 21
155.741620169657
 31
0.0
  0
LINE
  5
   379
  8
0
  6
DASHDOT
 62
     3
 10
-362.249952598207
 20
65.0306314336594
 30
0.0
 11
-362.249952598207
 21
132.974962058062
 31
0.0
  0
LINE
  5
   37A
  8
0
  6
DASHDOT
 62
     3
 10
-362.249952598207
 20
132.704505613286
 30
0.0
 11
-362.249952598207
 21
171.032848878006
 31
0.0
  0
LINE
  5
   37B
  8
0
  6
CONTINUOUS
 62
     7
 10
-358.487452662282
 20
114.503926350826
 30
0.0
 11
-366.012452534132
 21
114.503926350826
 31
0.0
  0
LINE
  5
   37C
  8
0
  6
CONTINUOUS
 62
     7
 10
-358.487452662282
 20
116.235068732925
 30
0.0
 11
-366.012452534132
 21
116.235068732925
 31
0.0
  0
LINE
  5
   37D
  8
0
  6
CONTINUOUS
 62
     7
 10
-358.487452662282
 20
111.731593319614
 30
0.0
 11
-366.012452534132
 21
111.731593319614
 31
0.0
  0
LINE
  5
   37E
  8
0
  6
CONTINUOUS
 62
     3
 10
-386.749954675695
 20
156.966602824477
 30
0.0
 11
-386.749954675695
 21
166.329104065331
 31
0.0
  0
LINE
  5
   37F
  8
0
  6
CONTINUOUS
 62
     3
 10
-338.0999555042
 20
156.616602851297
 30
0.0
 11
-386.399954681656
 21
156.616602851297
 31
0.0
  0
LINE
  5
   380
  8
0
  6
CONTINUOUS
 62
     3
 10
-337.74995551017
 20
156.966602864929
 30
0.0
 11
-337.74995551017
 21
166.329103178654
 31
0.0
  0
LINE
  5
   381
  8
0
  6
CONTINUOUS
 62
     3
 10
-384.072454854807
 20
76.1166374273683
 30
0.0
 11
-384.072454854807
 21
93.8791243086997
 31
0.0
  0
LINE
  5
   382
  8
0
  6
CONTINUOUS
 62
     3
 10
-382.812455076537
 20
76.1166374273683
 30
0.0
 11
-382.812455076537
 21
93.8791243086997
 31
0.0
  0
LINE
  5
   383
  8
0
  6
CONTINUOUS
 62
     3
 10
-380.292455853781
 20
156.966602824477
 30
0.0
 11
-380.292455853781
 21
166.766593399044
 31
0.0
  0
LINE
  5
   384
  8
0
  6
CONTINUOUS
 62
     3
 10
-379.032459079584
 20
156.966602824477
 30
0.0
 11
-379.032459079584
 21
166.766593399044
 31
0.0
  0
LINE
  5
   385
  8
0
  6
CONTINUOUS
 62
     3
 10
-377.772456964812
 20
156.966602824477
 30
0.0
 11
-377.772456964812
 21
166.766593399044
 31
0.0
  0
LINE
  5
   386
  8
0
  6
CONTINUOUS
 62
     3
 10
-376.512460190615
 20
156.966602824477
 30
0.0
 11
-376.512460190615
 21
166.766593399044
 31
0.0
  0
LINE
  5
   387
  8
0
  6
CONTINUOUS
 62
     3
 10
-375.252458075842
 20
156.966602824477
 30
0.0
 11
-375.252458075842
 21
166.766593399044
 31
0.0
  0
LINE
  5
   388
  8
0
  6
CONTINUOUS
 62
     3
 10
-373.992455961069
 20
156.966602824477
 30
0.0
 11
-373.992455961069
 21
166.766593399044
 31
0.0
  0
LINE
  5
   389
  8
0
  6
CONTINUOUS
 62
     3
 10
-372.732459186873
 20
156.966602824477
 30
0.0
 11
-372.732459186873
 21
166.766593399044
 31
0.0
  0
LINE
  5
   38A
  8
0
  6
CONTINUOUS
 62
     3
 10
-371.4724570721
 20
156.966602824477
 30
0.0
 11
-371.4724570721
 21
166.766593399044
 31
0.0
  0
LINE
  5
   38B
  8
0
  6
CONTINUOUS
 62
     3
 10
-370.212460297903
 20
156.966602824477
 30
0.0
 11
-370.212460297903
 21
166.766593399044
 31
0.0
  0
LINE
  5
   38C
  8
0
  6
CONTINUOUS
 62
     3
 10
-368.952458183131
 20
156.966602824477
 30
0.0
 11
-368.952458183131
 21
166.766593399044
 31
0.0
  0
LINE
  5
   38D
  8
0
  6
CONTINUOUS
 62
     3
 10
-367.692456068358
 20
156.966602824477
 30
0.0
 11
-367.692456068358
 21
166.766593399044
 31
0.0
  0
LINE
  5
   38E
  8
0
  6
CONTINUOUS
 62
     3
 10
-366.432459294161
 20
156.966602824477
 30
0.0
 11
-366.432459294161
 21
166.766593399044
 31
0.0
  0
LINE
  5
   38F
  8
0
  6
CONTINUOUS
 62
     3
 10
-365.172457179388
 20
156.966602824477
 30
0.0
 11
-365.172457179388
 21
166.766593399044
 31
0.0
  0
LINE
  5
   390
  8
0
  6
CONTINUOUS
 62
     3
 10
-363.912460405192
 20
156.966602824477
 30
0.0
 11
-363.912460405192
 21
166.766593399044
 31
0.0
  0
LINE
  5
   391
  8
0
  6
CONTINUOUS
 62
     3
 10
-362.652458290419
 20
156.966602824477
 30
0.0
 11
-362.652458290419
 21
166.766593399044
 31
0.0
  0
LINE
  5
   392
  8
0
  6
CONTINUOUS
 62
     3
 10
-361.392456175646
 20
156.966602824477
 30
0.0
 11
-361.392456175646
 21
166.766593399044
 31
0.0
  0
LINE
  5
   393
  8
0
  6
CONTINUOUS
 62
     3
 10
-360.132459401449
 20
156.966602824477
 30
0.0
 11
-360.132459401449
 21
166.766593399044
 31
0.0
  0
LINE
  5
   394
  8
0
  6
CONTINUOUS
 62
     3
 10
-358.872457286677
 20
156.966602824477
 30
0.0
 11
-358.872457286677
 21
166.766593399044
 31
0.0
  0
LINE
  5
   395
  8
0
  6
CONTINUOUS
 62
     3
 10
-357.61246051248
 20
156.966602824477
 30
0.0
 11
-357.61246051248
 21
166.766593399044
 31
0.0
  0
LINE
  5
   396
  8
0
  6
CONTINUOUS
 62
     3
 10
-356.352458397707
 20
156.966602824477
 30
0.0
 11
-356.352458397707
 21
166.766593399044
 31
0.0
  0
LINE
  5
   397
  8
0
  6
CONTINUOUS
 62
     3
 10
-355.092456282935
 20
156.966602824477
 30
0.0
 11
-355.092456282935
 21
166.766593399044
 31
0.0
  0
LINE
  5
   398
  8
0
  6
CONTINUOUS
 62
     3
 10
-353.832459508738
 20
156.966602824477
 30
0.0
 11
-353.832459508738
 21
166.766593399044
 31
0.0
  0
LINE
  5
   399
  8
0
  6
CONTINUOUS
 62
     3
 10
-352.572457393965
 20
156.966602824477
 30
0.0
 11
-352.572457393965
 21
166.766593399044
 31
0.0
  0
LINE
  5
   39A
  8
0
  6
CONTINUOUS
 62
     3
 10
-351.312460619768
 20
156.966602824477
 30
0.0
 11
-351.312460619768
 21
166.766593399044
 31
0.0
  0
LINE
  5
   39B
  8
0
  6
CONTINUOUS
 62
     3
 10
-350.052458504996
 20
156.966602824477
 30
0.0
 11
-350.052458504996
 21
166.766593399044
 31
0.0
  0
LINE
  5
   39C
  8
0
  6
CONTINUOUS
 62
     3
 10
-348.792456390223
 20
156.966602824477
 30
0.0
 11
-348.792456390223
 21
166.766593399044
 31
0.0
  0
LINE
  5
   39D
  8
0
  6
CONTINUOUS
 62
     3
 10
-347.532459616026
 20
156.966602824477
 30
0.0
 11
-347.532459616026
 21
166.766593399044
 31
0.0
  0
LINE
  5
   39E
  8
0
  6
CONTINUOUS
 62
     3
 10
-346.272457501254
 20
156.966602824477
 30
0.0
 11
-346.272457501254
 21
166.766593399044
 31
0.0
  0
LINE
  5
   39F
  8
0
  6
CONTINUOUS
 62
     3
 10
-345.012460727057
 20
156.966602824477
 30
0.0
 11
-345.012460727057
 21
166.766593399044
 31
0.0
  0
LINE
  5
   3A0
  8
0
  6
CONTINUOUS
 62
     3
 10
-343.752458612284
 20
156.966602824477
 30
0.0
 11
-343.752458612284
 21
166.766593399044
 31
0.0
  0
LINE
  5
   3A1
  8
0
  6
CONTINUOUS
 62
     3
 10
-342.492456497511
 20
76.1166374273683
 30
0.0
 11
-342.492456497511
 21
93.8791243086997
 31
0.0
  0
LINE
  5
   3A2
  8
0
  6
CONTINUOUS
 62
     3
 10
-339.972457608542
 20
76.1166374273683
 30
0.0
 11
-339.972457608542
 21
93.8791243086997
 31
0.0
  0
LINE
  5
   3A3
  8
0
  6
CONTINUOUS
 62
     3
 10
-337.786204816341
 20
156.966602824477
 30
0.0
 11
-386.713711002153
 21
156.966602824477
 31
0.0
  0
LINE
  5
   3A4
  8
0
  6
CONTINUOUS
 62
     3
 10
-337.749955567139
 20
156.966598843964
 30
0.0
 11
-337.878097349625
 21
156.966598843964
 31
0.0
  0
LINE
  5
   3A5
  8
0
  6
CONTINUOUS
 62
     3
 10
-338.0999555042
 20
156.616602851299
 30
0.0
 11
-338.0999555042
 21
156.966602824477
 31
0.0
  0
LINE
  5
   3A6
  8
0
  6
CONTINUOUS
 62
     3
 10
-386.713711002153
 20
156.966602824477
 30
0.0
 11
-386.749954675695
 21
156.966602824477
 31
0.0
  0
LINE
  5
   3A7
  8
0
  6
CONTINUOUS
 62
     3
 10
-386.399954681656
 20
156.616602851297
 30
0.0
 11
-386.399954681656
 21
156.966602824475
 31
0.0
  0
ARC
  5
   3A8
  8
0
  6
CONTINUOUS
 62
     3
 10
-386.312464502335
 20
166.329104065331
 30
0.0
 40
0.437490505257948
 50
449.998658602021
 51
540.001080379242
  0
ARC
  5
   3A9
  8
0
  6
CONTINUOUS
 62
     3
 10
-338.187451234215
 20
166.329103178654
 30
0.0
 40
0.43748904916687
 50
359.998931305817
 51
450.001731127297
  0
LINE
  5
   3AA
  8
0
  6
CONTINUOUS
 62
     7
 10
-338.187464452849
 20
166.766593399044
 30
0.0
 11
-386.312454260287
 21
166.766593399044
 31
0.0
  0
LINE
  5
   3AB
  8
0
  6
CONTINUOUS
 62
     3
 10
-386.749954675695
 20
76.5541267610821
 30
0.0
 11
-386.749954675695
 21
85.9166280019354
 31
0.0
  0
LINE
  5
   3AC
  8
0
  6
CONTINUOUS
 62
     3
 10
-338.0999555042
 20
86.2666279751154
 30
0.0
 11
-386.399954681656
 21
86.2666279751154
 31
0.0
  0
LINE
  5
   3AD
  8
0
  6
CONTINUOUS
 62
     3
 10
-337.74995551017
 20
76.554127647759
 30
0.0
 11
-337.74995551017
 21
85.916627961484
 31
0.0
  0
LINE
  5
   3AE
  8
0
  6
CONTINUOUS
 62
     3
 10
-385.332454966864
 20
76.1166374273683
 30
0.0
 11
-385.332454966864
 21
93.8791243086997
 31
0.0
  0
LINE
  5
   3AF
  8
0
  6
CONTINUOUS
 62
     3
 10
-381.55245496448
 20
76.1166374273683
 30
0.0
 11
-381.55245496448
 21
93.8791243086997
 31
0.0
  0
LINE
  5
   3B0
  8
0
  6
CONTINUOUS
 62
     3
 10
-380.292455853781
 20
76.1166374273683
 30
0.0
 11
-380.292455853781
 21
85.9166280019354
 31
0.0
  0
LINE
  5
   3B1
  8
0
  6
CONTINUOUS
 62
     3
 10
-379.032459079584
 20
76.1166374273683
 30
0.0
 11
-379.032459079584
 21
85.9166280019354
 31
0.0
  0
LINE
  5
   3B2
  8
0
  6
CONTINUOUS
 62
     3
 10
-377.772456964812
 20
76.1166374273683
 30
0.0
 11
-377.772456964812
 21
85.9166280019354
 31
0.0
  0
LINE
  5
   3B3
  8
0
  6
CONTINUOUS
 62
     3
 10
-376.512460190615
 20
76.1166374273683
 30
0.0
 11
-376.512460190615
 21
85.9166280019354
 31
0.0
  0
LINE
  5
   3B4
  8
0
  6
CONTINUOUS
 62
     3
 10
-375.252458075842
 20
76.1166374273683
 30
0.0
 11
-375.252458075842
 21
85.9166280019354
 31
0.0
  0
LINE
  5
   3B5
  8
0
  6
CONTINUOUS
 62
     3
 10
-373.992455961069
 20
76.1166374273683
 30
0.0
 11
-373.992455961069
 21
85.9166280019354
 31
0.0
  0
LINE
  5
   3B6
  8
0
  6
CONTINUOUS
 62
     3
 10
-372.732459186873
 20
76.1166374273683
 30
0.0
 11
-372.732459186873
 21
85.9166280019354
 31
0.0
  0
LINE
  5
   3B7
  8
0
  6
CONTINUOUS
 62
     3
 10
-371.4724570721
 20
76.1166374273683
 30
0.0
 11
-371.4724570721
 21
85.9166280019354
 31
0.0
  0
LINE
  5
   3B8
  8
0
  6
CONTINUOUS
 62
     3
 10
-370.212460297903
 20
76.1166374273683
 30
0.0
 11
-370.212460297903
 21
85.9166280019354
 31
0.0
  0
LINE
  5
   3B9
  8
0
  6
CONTINUOUS
 62
     3
 10
-368.952458183131
 20
76.1166374273683
 30
0.0
 11
-368.952458183131
 21
85.9166280019354
 31
0.0
  0
LINE
  5
   3BA
  8
0
  6
CONTINUOUS
 62
     3
 10
-367.692456068358
 20
76.1166374273683
 30
0.0
 11
-367.692456068358
 21
85.9166280019354
 31
0.0
  0
LINE
  5
   3BB
  8
0
  6
CONTINUOUS
 62
     3
 10
-366.432459294161
 20
76.1166374273683
 30
0.0
 11
-366.432459294161
 21
85.9166280019354
 31
0.0
  0
LINE
  5
   3BC
  8
0
  6
CONTINUOUS
 62
     3
 10
-365.172457179388
 20
76.1166374273683
 30
0.0
 11
-365.172457179388
 21
85.9166280019354
 31
0.0
  0
LINE
  5
   3BD
  8
0
  6
CONTINUOUS
 62
     3
 10
-363.912460405192
 20
76.1166374273683
 30
0.0
 11
-363.912460405192
 21
85.9166280019354
 31
0.0
  0
LINE
  5
   3BE
  8
0
  6
CONTINUOUS
 62
     3
 10
-362.652458290419
 20
76.1166374273683
 30
0.0
 11
-362.652458290419
 21
85.9166280019354
 31
0.0
  0
LINE
  5
   3BF
  8
0
  6
CONTINUOUS
 62
     3
 10
-361.392456175646
 20
76.1166374273683
 30
0.0
 11
-361.392456175646
 21
85.9166280019354
 31
0.0
  0
LINE
  5
   3C0
  8
0
  6
CONTINUOUS
 62
     3
 10
-360.132459401449
 20
76.1166374273683
 30
0.0
 11
-360.132459401449
 21
85.9166280019354
 31
0.0
  0
LINE
  5
   3C1
  8
0
  6
CONTINUOUS
 62
     3
 10
-358.872457286677
 20
76.1166374273683
 30
0.0
 11
-358.872457286677
 21
85.9166280019354
 31
0.0
  0
LINE
  5
   3C2
  8
0
  6
CONTINUOUS
 62
     3
 10
-357.61246051248
 20
76.1166374273683
 30
0.0
 11
-357.61246051248
 21
85.9166280019354
 31
0.0
  0
LINE
  5
   3C3
  8
0
  6
CONTINUOUS
 62
     3
 10
-356.352458397707
 20
76.1166374273683
 30
0.0
 11
-356.352458397707
 21
85.9166280019354
 31
0.0
  0
LINE
  5
   3C4
  8
0
  6
CONTINUOUS
 62
     3
 10
-355.092456282935
 20
76.1166374273683
 30
0.0
 11
-355.092456282935
 21
85.9166280019354
 31
0.0
  0
LINE
  5
   3C5
  8
0
  6
CONTINUOUS
 62
     3
 10
-353.832459508738
 20
76.1166374273683
 30
0.0
 11
-353.832459508738
 21
85.9166280019354
 31
0.0
  0
LINE
  5
   3C6
  8
0
  6
CONTINUOUS
 62
     3
 10
-352.572457393965
 20
76.1166374273683
 30
0.0
 11
-352.572457393965
 21
85.9166280019354
 31
0.0
  0
LINE
  5
   3C7
  8
0
  6
CONTINUOUS
 62
     3
 10
-351.312460619768
 20
76.1166374273683
 30
0.0
 11
-351.312460619768
 21
85.9166280019354
 31
0.0
  0
LINE
  5
   3C8
  8
0
  6
CONTINUOUS
 62
     3
 10
-350.052458504996
 20
76.1166374273683
 30
0.0
 11
-350.052458504996
 21
85.9166280019354
 31
0.0
  0
LINE
  5
   3C9
  8
0
  6
CONTINUOUS
 62
     3
 10
-348.792456390223
 20
76.1166374273683
 30
0.0
 11
-348.792456390223
 21
85.9166280019354
 31
0.0
  0
LINE
  5
   3CA
  8
0
  6
CONTINUOUS
 62
     3
 10
-347.532459616026
 20
76.1166374273683
 30
0.0
 11
-347.532459616026
 21
85.9166280019354
 31
0.0
  0
LINE
  5
   3CB
  8
0
  6
CONTINUOUS
 62
     3
 10
-346.272457501253
 20
76.1166374273683
 30
0.0
 11
-346.272457501253
 21
85.9166280019354
 31
0.0
  0
LINE
  5
   3CC
  8
0
  6
CONTINUOUS
 62
     3
 10
-345.012460727057
 20
76.1166374273683
 30
0.0
 11
-345.012460727057
 21
85.9166280019354
 31
0.0
  0
LINE
  5
   3CD
  8
0
  6
CONTINUOUS
 62
     3
 10
-341.232459723315
 20
76.1166374273683
 30
0.0
 11
-341.232459723315
 21
93.8791243086997
 31
0.0
  0
LINE
  5
   3CE
  8
0
  6
CONTINUOUS
 62
     3
 10
-338.712460834345
 20
76.1166374273683
 30
0.0
 11
-338.712460834345
 21
93.8791243086997
 31
0.0
  0
LINE
  5
   3CF
  8
0
  6
CONTINUOUS
 62
     3
 10
-337.786204816341
 20
85.9166280019354
 30
0.0
 11
-386.713711002153
 21
85.9166280019354
 31
0.0
  0
LINE
  5
   3D0
  8
0
  6
CONTINUOUS
 62
     3
 10
-337.749955567139
 20
85.9166319824491
 30
0.0
 11
-337.878097349625
 21
85.9166319824491
 31
0.0
  0
LINE
  5
   3D1
  8
0
  6
CONTINUOUS
 62
     3
 10
-338.0999555042
 20
85.9166280019354
 30
0.0
 11
-338.0999555042
 21
86.2666279751133
 31
0.0
  0
LINE
  5
   3D2
  8
0
  6
CONTINUOUS
 62
     3
 10
-386.713711002153
 20
85.9166280019354
 30
0.0
 11
-386.749954675695
 21
85.9166280019354
 31
0.0
  0
LINE
  5
   3D3
  8
0
  6
CONTINUOUS
 62
     3
 10
-386.399954681656
 20
85.9166280019375
 30
0.0
 11
-386.399954681656
 21
86.2666279751154
 31
0.0
  0
ARC
  5
   3D4
  8
0
  6
CONTINUOUS
 62
     3
 10
-386.312464502335
 20
76.5541267610821
 30
0.0
 40
0.437490505257948
 50
179.998919516826
 51
270.001341294048
  0
ARC
  5
   3D5
  8
0
  6
CONTINUOUS
 62
     3
 10
-338.187451234215
 20
76.554127647759
 30
0.0
 40
0.43748904916687
 50
269.998268768772
 51
360.001068590252
  0
LINE
  5
   3D6
  8
0
  6
CONTINUOUS
 62
     7
 10
-338.187464452849
 20
76.1166374273683
 30
0.0
 11
-386.312454260287
 21
76.1166374273683
 31
0.0
  0
LINE
  5
   3D7
  8
0
  6
CONTINUOUS
 62
   130
 10
-327.074940617085
 20
148.391620294827
 30
0.0
 11
-328.64995250284
 21
148.391620294827
 31
0.0
  0
LINE
  5
   3D8
  8
0
  6
CONTINUOUS
 62
   130
 10
-327.074935526848
 20
97.7291144818838
 30
0.0
 11
-328.64995250284
 21
97.7291144818838
 31
0.0
  0
LINE
  5
   3D9
  8
0
  6
CONTINUOUS
 62
   130
 10
-327.074935526848
 20
97.729114481884
 30
0.0
 11
-327.074935693741
 21
99.3916117832837
 31
0.0
  0
LINE
  5
   3DA
  8
0
  6
CONTINUOUS
 62
   130
 10
-327.074935693741
 20
99.3916104481402
 30
0.0
 11
-327.074940617085
 21
148.391620294827
 31
0.0
  0
LINE
  5
   3DB
  8
0
  6
CONTINUOUS
 62
   130
 10
-326.724938703776
 20
117.941602121371
 30
0.0
 11
-326.72493836999
 21
124.941602002162
 31
0.0
  0
LINE
  5
   3DC
  8
0
  6
CONTINUOUS
 62
   130
 10
-326.72493836999
 20
124.941602002162
 30
0.0
 11
-327.074937446118
 21
124.941602002162
 31
0.0
  0
LINE
  5
   3DD
  8
0
  6
CONTINUOUS
 62
   130
 10
-326.724938703776
 20
117.941602121371
 30
0.0
 11
-327.074937779904
 21
117.941602121371
 31
0.0
  0
CIRCLE
  5
   3DE
  8
0
  6
CONTINUOUS
 62
   130
 10
-331.799884194134
 20
112.516606256167
 30
0.0
 40
1.8374785624272
  0
LINE
  5
   3DF
  8
0
  6
DASHDOT
 62
     7
 10
-331.799884194134
 20
110.3291276997
 30
0.0
 11
-331.799884194134
 21
114.704084812633
 31
0.0
  0
LINE
  5
   3E0
  8
0
  6
DASHDOT
 62
     7
 10
-329.612405637667
 20
112.516606256167
 30
0.0
 11
-333.9873627506
 21
112.516606256167
 31
0.0
  0
LINE
  5
   3E1
  8
0
  6
CONTINUOUS
 62
   150
 10
-355.42493402241
 20
104.904088020702
 30
0.0
 11
-355.42493402241
 21
135.179087505121
 31
0.0
  0
LINE
  5
   3E2
  8
0
  6
CONTINUOUS
 62
   150
 10
-380.573692388007
 20
140.377863744359
 30
0.0
 11
-380.449945897427
 21
140.429127934965
 31
0.0
  0
LINE
  5
   3E3
  8
0
  6
CONTINUOUS
 62
   150
 10
-380.624949007355
 20
140.25412099267
 30
0.0
 11
-380.57369282835
 21
140.377867484241
 31
0.0
  0
LINE
  5
   3E4
  8
0
  6
CONTINUOUS
 62
   150
 10
-380.624957625849
 20
103.864416257699
 30
0.0
 11
-380.624957625849
 21
104.204553894919
 31
0.0
  0
LINE
  5
   3E5
  8
0
  6
CONTINUOUS
 62
   150
 10
-380.624952285273
 20
136.229086152096
 30
0.0
 11
-380.624952285273
 21
140.254112786431
 31
0.0
  0
LINE
  5
   3E6
  8
0
  6
CONTINUOUS
 62
   150
 10
-380.573696378044
 20
103.730354452514
 30
0.0
 11
-380.624957898033
 21
103.85409826734
 31
0.0
  0
LINE
  5
   3E7
  8
0
  6
CONTINUOUS
 62
   150
 10
-380.449957691843
 20
103.679120663003
 30
0.0
 11
-380.57369483694
 21
103.730355480164
 31
0.0
  0
LINE
  5
   3E8
  8
0
  6
CONTINUOUS
 62
   150
 10
-380.274952291233
 20
103.67912008502
 30
0.0
 11
-380.449958963973
 21
103.67912008502
 31
0.0
  0
LINE
  5
   3E9
  8
0
  6
CONTINUOUS
 62
   150
 10
-344.020240205134
 20
103.678741895774
 30
0.0
 11
-343.874927005601
 21
104.029542014249
 31
0.0
  0
LINE
  5
   3EA
  8
0
  6
CONTINUOUS
 62
   150
 10
-343.874925900798
 20
104.029541881605
 30
0.0
 11
-343.874925900798
 21
140.429557283445
 31
0.0
  0
LINE
  5
   3EB
  8
0
  6
CONTINUOUS
 62
   150
 10
-343.874932473453
 20
140.254115913517
 30
0.0
 11
-343.9262020053
 21
140.377862400704
 31
0.0
  0
LINE
  5
   3EC
  8
0
  6
CONTINUOUS
 62
   150
 10
-343.926204416351
 20
140.377858936518
 30
0.0
 11
-344.049950907216
 21
140.429112445059
 31
0.0
  0
LINE
  5
   3ED
  8
0
  6
CONTINUOUS
 62
   150
 10
-344.049950237852
 20
140.429123515958
 30
0.0
 11
-380.449949617963
 21
140.429123515958
 31
0.0
  0
LINE
  5
   3EE
  8
0
  6
CONTINUOUS
 62
     3
 10
-353.429956486804
 20
107.329787022666
 30
0.0
 11
-353.429956486804
 21
110.178364855015
 31
0.0
  0
LINE
  5
   3EF
  8
0
  6
CONTINUOUS
 62
     3
 10
-352.9407050045
 20
106.767428892715
 30
0.0
 11
-353.429960501971
 21
107.32978620914
 31
0.0
  0
LINE
  5
   3F0
  8
0
  6
CONTINUOUS
 62
     3
 10
-352.313067188669
 20
106.36524728822
 30
0.0
 11
-352.9406970416
 21
106.767430037838
 31
0.0
  0
LINE
  5
   3F1
  8
0
  6
CONTINUOUS
 62
     3
 10
-351.597690270376
 20
106.155704097314
 30
0.0
 11
-352.313071131693
 21
106.365246931437
 31
0.0
  0
LINE
  5
   3F2
  8
0
  6
CONTINUOUS
 62
     3
 10
-350.852258013857
 20
106.155704095883
 30
0.0
 11
-351.597690282656
 21
106.155704095883
 31
0.0
  0
LINE
  5
   3F3
  8
0
  6
CONTINUOUS
 62
     3
 10
-350.852258674773
 20
106.155703851003
 30
0.0
 11
-350.136877823288
 21
106.365244030281
 31
0.0
  0
LINE
  5
   3F4
  8
0
  6
CONTINUOUS
 62
     3
 10
-350.136869887484
 20
106.365248153261
 30
0.0
 11
-349.509234685452
 21
106.767430934754
 31
0.0
  0
LINE
  5
   3F5
  8
0
  6
CONTINUOUS
 62
     3
 10
-349.509245831406
 20
106.767424269562
 30
0.0
 11
-349.019974276458
 21
107.3298163065
 31
0.0
  0
LINE
  5
   3F6
  8
0
  6
CONTINUOUS
 62
     3
 10
-349.019970446559
 20
107.329819062947
 30
0.0
 11
-349.019954424831
 21
110.178380874165
 31
0.0
  0
LINE
  5
   3F7
  8
0
  6
CONTINUOUS
 62
     3
 10
-349.019955426055
 20
110.178380634521
 30
0.0
 11
-349.509226973914
 21
110.740759322201
 31
0.0
  0
LINE
  5
   3F8
  8
0
  6
CONTINUOUS
 62
     3
 10
-349.509220317942
 20
110.740760358218
 30
0.0
 11
-350.136855519974
 21
111.142943139711
 31
0.0
  0
LINE
  5
   3F9
  8
0
  6
CONTINUOUS
 62
     3
 10
-350.136858953011
 20
111.142942691504
 30
0.0
 11
-350.852234439538
 21
111.352482860491
 31
0.0
  0
LINE
  5
   3FA
  8
0
  6
CONTINUOUS
 62
     3
 10
-350.852236651552
 20
111.352482495542
 30
0.0
 11
-351.597674260928
 21
111.352482495542
 31
0.0
  0
LINE
  5
   3FB
  8
0
  6
CONTINUOUS
 62
     3
 10
-352.313047269687
 20
111.142943356248
 30
0.0
 11
-351.59767178316
 21
111.352483525234
 31
0.0
  0
LINE
  5
   3FC
  8
0
  6
CONTINUOUS
 62
     3
 10
-352.940677873166
 20
110.740763760546
 30
0.0
 11
-352.313042671134
 21
111.142946542039
 31
0.0
  0
LINE
  5
   3FD
  8
0
  6
CONTINUOUS
 62
     3
 10
-353.429960533319
 20
110.178361647227
 30
0.0
 11
-352.940688996814
 21
110.740756350331
 31
0.0
  0
LINE
  5
   3FE
  8
0
  6
CONTINUOUS
 62
     3
 10
-354.724934031828
 20
136.229091492774
 30
0.0
 11
-343.874934216603
 21
136.229112855078
 31
0.0
  0
LINE
  5
   3FF
  8
0
  6
CONTINUOUS
 62
     3
 10
-343.874934219106
 20
139.729112795372
 30
0.0
 11
-380.624954955561
 21
139.729112795372
 31
0.0
  0
LINE
  5
   400
  8
0
  6
CONTINUOUS
 62
     3
 10
-347.898392112426
 20
133.691567578009
 30
0.0
 11
-347.93835564173
 21
133.892480048543
 31
0.0
  0
LINE
  5
   401
  8
0
  6
CONTINUOUS
 62
     3
 10
-347.938353624638
 20
133.892483431701
 30
0.0
 11
-348.052155966058
 21
134.062805083656
 31
0.0
  0
LINE
  5
   402
  8
0
  6
CONTINUOUS
 62
     3
 10
-348.052157850099
 20
134.062803546691
 30
0.0
 11
-348.222484845067
 21
134.176605878162
 31
0.0
  0
LINE
  5
   403
  8
0
  6
CONTINUOUS
 62
     3
 10
-348.222488365889
 20
134.176604548142
 30
0.0
 11
-348.423395493203
 21
134.216568078466
 31
0.0
  0
LINE
  5
   404
  8
0
  6
CONTINUOUS
 62
     3
 10
-348.624303563748
 20
134.176603522214
 30
0.0
 11
-348.423396436434
 21
134.216567052538
 31
0.0
  0
LINE
  5
   405
  8
0
  6
CONTINUOUS
 62
     3
 10
-348.794617998864
 20
134.062805486681
 30
0.0
 11
-348.624296346908
 21
134.1766078281
 31
0.0
  0
LINE
  5
   406
  8
0
  6
CONTINUOUS
 62
     3
 10
-348.908426925817
 20
133.892482939572
 30
0.0
 11
-348.794619251291
 21
134.062804588284
 31
0.0
  0
LINE
  5
   407
  8
0
  6
CONTINUOUS
 62
     3
 10
-348.948392628734
 20
133.69156696773
 30
0.0
 11
-348.908429099431
 21
133.892479438264
 31
0.0
  0
LINE
  5
   408
  8
0
  6
CONTINUOUS
 62
     3
 10
-348.948390706191
 20
132.641570191463
 30
0.0
 11
-348.948390706191
 21
133.691570173581
 31
0.0
  0
LINE
  5
   409
  8
0
  6
CONTINUOUS
 62
     3
 10
-348.908429461348
 20
132.440658823192
 30
0.0
 11
-348.948392991672
 21
132.641565950506
 31
0.0
  0
LINE
  5
   40A
  8
0
  6
CONTINUOUS
 62
     3
 10
-348.794619371502
 20
132.270341561567
 30
0.0
 11
-348.908427046028
 21
132.440663210279
 31
0.0
  0
LINE
  5
   40B
  8
0
  6
CONTINUOUS
 62
     3
 10
-348.624297663312
 20
132.15653383482
 30
0.0
 11
-348.794619312024
 21
132.270341509345
 31
0.0
  0
LINE
  5
   40C
  8
0
  6
CONTINUOUS
 62
     3
 10
-348.423395497478
 20
132.116568218583
 30
0.0
 11
-348.624302624792
 21
132.156531748907
 31
0.0
  0
LINE
  5
   40D
  8
0
  6
CONTINUOUS
 62
     3
 10
-348.423396432159
 20
132.116567192655
 30
0.0
 11
-348.222489304845
 21
132.156530722979
 31
0.0
  0
LINE
  5
   40E
  8
0
  6
CONTINUOUS
 62
     3
 10
-348.22248312173
 20
132.156534088159
 30
0.0
 11
-348.052156130034
 21
132.27034176499
 31
0.0
  0
LINE
  5
   40F
  8
0
  6
CONTINUOUS
 62
     3
 10
-348.052155362519
 20
132.270342816921
 30
0.0
 11
-347.938353021099
 21
132.440664468877
 31
0.0
  0
LINE
  5
   410
  8
0
  6
CONTINUOUS
 62
     3
 10
-347.938357515878
 20
132.440657800728
 30
0.0
 11
-347.898393985555
 21
132.641564928042
 31
0.0
  0
LINE
  5
   411
  8
0
  6
CONTINUOUS
 62
     3
 10
-347.898390724073
 20
132.641570191463
 30
0.0
 11
-347.898390724073
 21
133.691570173581
 31
0.0
  0
LINE
  5
   412
  8
0
  6
CONTINUOUS
 62
     3
 10
-347.89993415056
 20
125.116578330477
 30
0.0
 11
-348.949934132679
 21
125.116578330477
 31
0.0
  0
LINE
  5
   413
  8
0
  6
CONTINUOUS
 62
     3
 10
-348.949934132679
 20
115.666578491409
 30
0.0
 11
-348.949934132679
 21
125.116578330477
 31
0.0
  0
LINE
  5
   414
  8
0
  6
CONTINUOUS
 62
     3
 10
-347.89993415056
 20
115.666578491409
 30
0.0
 11
-348.949934132679
 21
115.666578491409
 31
0.0
  0
LINE
  5
   415
  8
0
  6
CONTINUOUS
 62
     3
 10
-347.89993415056
 20
115.666578491409
 30
0.0
 11
-347.89993415056
 21
125.116578330477
 31
0.0
  0
LINE
  5
   416
  8
0
  6
CONTINUOUS
 62
     3
 10
-354.724934034331
 20
136.229086152096
 30
0.0
 11
-379.399962987287
 21
136.229086152096
 31
0.0
  0
LINE
  5
   417
  8
0
  6
CONTINUOUS
 62
   150
 10
-355.77493401645
 20
135.529086164017
 30
0.0
 11
-379.399962987287
 21
135.529086164017
 31
0.0
  0
LINE
  5
   418
  8
0
  6
CONTINUOUS
 62
   150
 10
-355.424934787715
 20
135.17908524715
 30
0.0
 11
-355.774934769775
 21
135.52908522921
 31
0.0
  0
LINE
  5
   419
  8
0
  6
CONTINUOUS
 62
   150
 10
-379.7499624997
 20
135.17908729828
 30
0.0
 11
-379.647450141648
 21
135.42657493449
 31
0.0
  0
LINE
  5
   41A
  8
0
  6
CONTINUOUS
 62
   150
 10
-379.647449958878
 20
135.426574542847
 30
0.0
 11
-379.399962322669
 21
135.529086900899
 31
0.0
  0
LINE
  5
   41B
  8
0
  6
CONTINUOUS
 62
     3
 10
-379.39996297607
 20
136.229086152596
 30
0.0
 11
-380.624953609272
 21
136.229091493173
 31
0.0
  0
LINE
  5
   41C
  8
0
  6
CONTINUOUS
 62
   150
 10
-380.624955804352
 20
104.204553894919
 30
0.0
 11
-380.624955804352
 21
136.404537324828
 31
0.0
  0
LINE
  5
   41D
  8
0
  6
CONTINUOUS
 62
   150
 10
-355.527445713932
 20
104.656600990478
 30
0.0
 11
-355.424933355879
 21
104.904088626688
 31
0.0
  0
LINE
  5
   41E
  8
0
  6
CONTINUOUS
 62
   150
 10
-355.774932989203
 20
104.554088470113
 30
0.0
 11
-355.527445352993
 21
104.656600828165
 31
0.0
  0
LINE
  5
   41F
  8
0
  6
CONTINUOUS
 62
   150
 10
-355.77493401645
 20
104.554088026662
 30
0.0
 11
-379.399962987287
 21
104.554088026662
 31
0.0
  0
LINE
  5
   420
  8
0
  6
CONTINUOUS
 62
   150
 10
-379.399962603342
 20
104.554088199905
 30
0.0
 11
-379.647450239552
 21
104.656600557957
 31
0.0
  0
LINE
  5
   421
  8
0
  6
CONTINUOUS
 62
   150
 10
-379.64745042027
 20
104.656600722322
 30
0.0
 11
-379.749962778322
 21
104.904088358532
 31
0.0
  0
LINE
  5
   422
  8
0
  6
CONTINUOUS
 62
   150
 10
-379.749962981326
 20
104.904088020702
 30
0.0
 11
-379.749962981326
 21
135.179087505121
 31
0.0
  0
LINE
  5
   423
  8
0
  6
CONTINUOUS
 62
   150
 10
-366.01244185297
 20
111.09144314757
 30
0.0
 11
-366.01244185297
 21
125.713435772705
 31
0.0
  0
LINE
  5
   424
  8
0
  6
CONTINUOUS
 62
   150
 10
-358.48744198112
 20
111.09144314757
 30
0.0
 11
-358.48744198112
 21
125.713435772705
 31
0.0
  0
LINE
  5
   425
  8
0
  6
CONTINUOUS
 62
     3
 10
-345.624928848727
 20
113.101224760072
 30
0.0
 11
-346.324928836806
 21
113.101224760072
 31
0.0
  0
LINE
  5
   426
  8
0
  6
CONTINUOUS
 62
     3
 10
-346.448667001287
 20
113.049972488359
 30
0.0
 11
-346.324920509716
 21
113.101228667365
 31
0.0
  0
LINE
  5
   427
  8
0
  6
CONTINUOUS
 62
     3
 10
-346.499929067248
 20
112.926224530586
 30
0.0
 11
-346.448675558651
 21
113.049968346317
 31
0.0
  0
LINE
  5
   428
  8
0
  6
CONTINUOUS
 62
     3
 10
-346.499928833826
 20
109.076224828618
 30
0.0
 11
-346.499928833826
 21
112.926224763053
 31
0.0
  0
LINE
  5
   429
  8
0
  6
CONTINUOUS
 62
     3
 10
-346.448675498138
 20
108.952480925104
 30
0.0
 11
-346.499929006735
 21
109.076224740835
 31
0.0
  0
LINE
  5
   42A
  8
0
  6
CONTINUOUS
 62
     3
 10
-346.324921921371
 20
108.901225501853
 30
0.0
 11
-346.448668412943
 21
108.952481680859
 31
0.0
  0
LINE
  5
   42B
  8
0
  6
CONTINUOUS
 62
     3
 10
-345.624928848727
 20
108.901224831598
 30
0.0
 11
-346.324928836806
 21
108.901224831598
 31
0.0
  0
LINE
  5
   42C
  8
0
  6
CONTINUOUS
 62
     3
 10
-345.099928857668
 20
108.901224831598
 30
0.0
 11
-345.624928848727
 21
108.901224831598
 31
0.0
  0
LINE
  5
   42D
  8
0
  6
CONTINUOUS
 62
     3
 10
-345.099934736823
 20
108.901222313984
 30
0.0
 11
-344.97619359217
 21
108.952478492996
 31
0.0
  0
LINE
  5
   42E
  8
0
  6
CONTINUOUS
 62
     3
 10
-344.976185820997
 20
108.952482710802
 30
0.0
 11
-344.924926971507
 21
109.076226531267
 31
0.0
  0
LINE
  5
   42F
  8
0
  6
CONTINUOUS
 62
     3
 10
-344.924928860648
 20
109.076224828618
 30
0.0
 11
-344.924928860648
 21
112.926224763053
 31
0.0
  0
LINE
  5
   430
  8
0
  6
CONTINUOUS
 62
     3
 10
-344.924927458814
 20
112.926225623381
 30
0.0
 11
-344.976186308304
 21
113.049969443846
 31
0.0
  0
LINE
  5
   431
  8
0
  6
CONTINUOUS
 62
     3
 10
-344.976192603857
 20
113.049967893959
 30
0.0
 11
-345.09993374851
 21
113.101224072971
 31
0.0
  0
LINE
  5
   432
  8
0
  6
CONTINUOUS
 62
     3
 10
-345.099928857668
 20
113.101224760072
 30
0.0
 11
-345.624928848727
 21
113.101224760072
 31
0.0
  0
LINE
  5
   433
  8
0
  6
CONTINUOUS
 62
   150
 10
-355.424950044138
 20
126.954538820905
 30
0.0
 11
-355.424950044138
 21
127.304538814944
 31
0.0
  0
LINE
  5
   434
  8
0
  6
CONTINUOUS
 62
     3
 10
-355.424950044138
 20
127.129094317932
 30
0.0
 11
-379.749965651614
 21
127.129094317932
 31
0.0
  0
LINE
  5
   435
  8
0
  6
CONTINUOUS
 62
     3
 10
-355.424950044138
 20
126.779094323893
 30
0.0
 11
-379.749965651614
 21
126.779094323893
 31
0.0
  0
LINE
  5
   436
  8
0
  6
CONTINUOUS
 62
   150
 10
-355.424950044138
 20
109.804539112968
 30
0.0
 11
-355.424950044138
 21
110.154539107007
 31
0.0
  0
LINE
  5
   437
  8
0
  6
CONTINUOUS
 62
     3
 10
-355.424950044138
 20
109.979094609995
 30
0.0
 11
-379.749965651614
 21
109.979094609995
 31
0.0
  0
LINE
  5
   438
  8
0
  6
CONTINUOUS
 62
     3
 10
-355.424950044138
 20
109.629094615955
 30
0.0
 11
-379.749965651614
 21
109.629094615955
 31
0.0
  0
LINE
  5
   439
  8
0
  6
CONTINUOUS
 62
     3
 10
-366.012452534122
 20
122.579094395418
 30
0.0
 11
-379.749965651614
 21
122.579094395418
 31
0.0
  0
LINE
  5
   43A
  8
0
  6
CONTINUOUS
 62
     3
 10
-366.012452534122
 20
122.229094401379
 30
0.0
 11
-379.749965651614
 21
122.229094401379
 31
0.0
  0
LINE
  5
   43B
  8
0
  6
CONTINUOUS
 62
     3
 10
-366.01245520441
 20
114.529094532509
 30
0.0
 11
-379.749965651614
 21
114.529094532509
 31
0.0
  0
LINE
  5
   43C
  8
0
  6
CONTINUOUS
 62
     3
 10
-366.01245520441
 20
114.179094538469
 30
0.0
 11
-379.749965651614
 21
114.179094538469
 31
0.0
  0
LINE
  5
   43D
  8
0
  6
CONTINUOUS
 62
   150
 10
-355.424950044138
 20
122.404538898391
 30
0.0
 11
-355.424950044138
 21
122.75453889243
 31
0.0
  0
LINE
  5
   43E
  8
0
  6
CONTINUOUS
 62
     3
 10
-355.424950044138
 20
122.579094395418
 30
0.0
 11
-358.48744198112
 21
122.579094395418
 31
0.0
  0
LINE
  5
   43F
  8
0
  6
CONTINUOUS
 62
     3
 10
-355.424950044138
 20
122.229094401379
 30
0.0
 11
-358.48744198112
 21
122.229094401379
 31
0.0
  0
LINE
  5
   440
  8
0
  6
CONTINUOUS
 62
   150
 10
-355.424950044138
 20
114.354539035482
 30
0.0
 11
-355.424950044138
 21
114.704539029521
 31
0.0
  0
LINE
  5
   441
  8
0
  6
CONTINUOUS
 62
     3
 10
-355.424950044138
 20
114.529094532509
 30
0.0
 11
-358.487444651408
 21
114.529094532509
 31
0.0
  0
LINE
  5
   442
  8
0
  6
CONTINUOUS
 62
     3
 10
-355.424950044138
 20
114.179094538469
 30
0.0
 11
-358.487444651408
 21
114.179094538469
 31
0.0
  0
LINE
  5
   443
  8
0
  6
CONTINUOUS
 62
   150
 10
-344.020240205134
 20
103.678741895774
 30
0.0
 11
-380.451195293892
 21
103.679627445692
 31
0.0
  0
LINE
  5
   444
  8
0
  6
CONTINUOUS
 62
   150
 10
-358.48744198112
 20
125.559149200015
 30
0.0
 11
-366.01244185297
 21
125.559149200015
 31
0.0
  0
LINE
  5
   445
  8
0
  6
CONTINUOUS
 62
   150
 10
-358.48744198112
 20
125.713435772705
 30
0.0
 11
-366.01244185297
 21
125.713435772705
 31
0.0
  0
LINE
  5
   446
  8
0
  6
CONTINUOUS
 62
   150
 10
-358.48744198112
 20
111.266887644583
 30
0.0
 11
-366.01244185297
 21
111.266887644583
 31
0.0
  0
LINE
  5
   447
  8
0
  6
CONTINUOUS
 62
   150
 10
-358.48744198112
 20
111.325899778099
 30
0.0
 11
-366.01244185297
 21
111.325899778099
 31
0.0
  0
LINE
  5
   448
  8
0
  6
DASHDOT
 62
     3
 10
-321.728349766348
 20
122.054123828882
 30
0.0
 11
-410.441018562536
 21
122.054123828882
 31
0.0
  0
INSERT
  5
   449
  8
255
  6
CONTINUOUS
 62
     7
  2
MOSTRA
 10
-402.443362501028
 20
97.8821637913096
 30
0.0
 41
0.349999994039536
 42
0.349999994039536
 50
359.999999792138
 43
0.349999994039536
  0
LINE
  5
   44A
  8
0
  6
CONTINUOUS
 62
     3
 10
-385.332454966864
 20
150.226917691144
 30
0.0
 11
-385.332454966864
 21
166.766593399044
 31
0.0
  0
LINE
  5
   44B
  8
0
  6
CONTINUOUS
 62
     3
 10
-384.072454854807
 20
150.226917691144
 30
0.0
 11
-384.072454854807
 21
166.766593399044
 31
0.0
  0
LINE
  5
   44C
  8
0
  6
CONTINUOUS
 62
     3
 10
-382.812455076537
 20
150.226917691144
 30
0.0
 11
-382.812455076537
 21
166.766593399044
 31
0.0
  0
LINE
  5
   44D
  8
0
  6
CONTINUOUS
 62
     3
 10
-381.55245496448
 20
150.226917691144
 30
0.0
 11
-381.55245496448
 21
166.766593399044
 31
0.0
  0
LINE
  5
   44E
  8
0
  6
CONTINUOUS
 62
     3
 10
-342.492456497511
 20
150.226917691144
 30
0.0
 11
-342.492456497511
 21
166.766593399044
 31
0.0
  0
LINE
  5
   44F
  8
0
  6
CONTINUOUS
 62
     3
 10
-341.232459723315
 20
150.226917691144
 30
0.0
 11
-341.232459723315
 21
166.766593399044
 31
0.0
  0
LINE
  5
   450
  8
0
  6
CONTINUOUS
 62
     3
 10
-339.972457608542
 20
150.226917691144
 30
0.0
 11
-339.972457608542
 21
166.766593399044
 31
0.0
  0
LINE
  5
   451
  8
0
  6
CONTINUOUS
 62
     3
 10
-338.712460834345
 20
150.226917691144
 30
0.0
 11
-338.712460834345
 21
166.766593399044
 31
0.0
  0
LINE
  5
   452
  8
0
  6
DOT
 62
     1
 10
-328.64995250284
 20
148.391620294827
 30
0.0
 11
-337.749945859313
 21
148.391620294827
 31
0.0
  0
LINE
  5
   453
  8
0
  6
DOT
 62
     1
 10
-328.64995250284
 20
97.7291144818838
 30
0.0
 11
-337.74995301544
 21
97.7291144818838
 31
0.0
  0
LINE
  5
   454
  8
0
  6
CONTINUOUS
 62
     3
 10
-338.974942316552
 20
168.691593366262
 30
0.0
 11
-353.718632835598
 21
168.691593366262
 31
0.0
  0
LINE
  5
   455
  8
0
  6
CONTINUOUS
 62
     3
 10
-338.624942322512
 20
166.766593399044
 30
0.0
 11
-338.624942322512
 21
168.341593372222
 31
0.0
  0
LINE
  5
   456
  8
0
  6
CONTINUOUS
 62
     3
 10
-385.874933288566
 20
166.766593399044
 30
0.0
 11
-385.874933288566
 21
168.341593372222
 31
0.0
  0
ARC
  5
   457
  8
0
  6
CONTINUOUS
 62
     3
 10
-385.524933294527
 20
168.341593372222
 30
0.0
 40
0.349999994039536
 50
89.9999999480344
 51
179.999999948034
  0
ARC
  5
   458
  8
0
  6
CONTINUOUS
 62
     3
 10
-338.974942316552
 20
168.341593372222
 30
0.0
 40
0.349999994039536
 50
359.999999948034
 51
449.999999948034
  0
LINE
  5
   459
  8
0
  6
CONTINUOUS
 62
     3
 10
-385.874933288566
 20
74.5416374541904
 30
0.0
 11
-385.874933288566
 21
76.1166374273683
 31
0.0
  0
ARC
  5
   45A
  8
0
  6
CONTINUOUS
 62
     3
 10
-385.524933294527
 20
74.5416374541904
 30
0.0
 40
0.349999994039536
 50
179.999999948034
 51
269.999999948034
  0
LINE
  5
   45B
  8
0
  6
CONTINUOUS
 62
     3
 10
-338.974942316552
 20
74.1916374601508
 30
0.0
 11
-353.718632835598
 21
74.1916374601508
 31
0.0
  0
ARC
  5
   45C
  8
0
  6
CONTINUOUS
 62
     3
 10
-338.974942316552
 20
74.5416374541904
 30
0.0
 40
0.349999994039536
 50
269.999999948034
 51
359.999999948034
  0
LINE
  5
   45D
  8
0
  6
CONTINUOUS
 62
     3
 10
-338.624942322512
 20
74.5416374541904
 30
0.0
 11
-338.624942322512
 21
76.1166374273683
 31
0.0
  0
ARC
  5
   45E
  8
0
  6
CONTINUOUS
 62
   212
 10
-385.6998932224
 20
79.6165309265514
 30
0.0
 40
1.40012256240389
 50
138.587317597995
 51
179.996076345753
  0
LINE
  5
   45F
  8
0
  6
CONTINUOUS
 62
   212
 10
-387.099983738064
 20
77.2716225731889
 30
0.0
 11
-387.100015781521
 21
79.6166268057147
 31
0.0
  0
LINE
  5
   460
  8
0
  6
CONTINUOUS
 62
   212
 10
-386.749954675695
 20
77.2716225741083
 30
0.0
 11
-387.099957035184
 21
77.2716225741083
 31
0.0
  0
LINE
  5
   461
  8
0
  6
CONTINUOUS
 62
   212
 10
-386.224951709509
 20
74.1216332974206
 30
0.0
 11
-386.224955091892
 21
76.1166374273683
 31
0.0
  0
LINE
  5
   462
  8
0
  6
CONTINUOUS
 62
   212
 10
-381.937405052484
 20
69.2917449852861
 30
0.0
 11
-385.699983761906
 21
69.2917449852861
 31
0.0
  0
LINE
  5
   463
  8
0
  6
CONTINUOUS
 62
   212
 10
-381.937405052484
 20
74.1215891737148
 30
0.0
 11
-386.224951709509
 21
74.1215891737148
 31
0.0
  0
LINE
  5
   464
  8
0
  6
CONTINUOUS
 62
   212
 10
-366.624906648398
 20
74.1215834897259
 30
0.0
 11
-367.631132598669
 21
74.1215834897259
 31
0.0
  0
LINE
  5
   465
  8
0
  6
CONTINUOUS
 62
   212
 10
-351.312407957494
 20
74.1215935988991
 30
0.0
 11
-352.31863285944
 21
74.1215935988991
 31
0.0
  0
LINE
  5
   466
  8
0
  6
CONTINUOUS
 62
   212
 10
-337.3999834594
 20
70.6918939874299
 30
0.0
 11
-337.3999834594
 21
74.1216012654481
 31
0.0
  0
LINE
  5
   467
  8
0
  6
CONTINUOUS
 62
   212
 10
-337.400038657783
 20
77.2716012119521
 30
0.0
 11
-337.400018630623
 21
79.6166268067821
 31
0.0
  0
LINE
  5
   468
  8
0
  6
CONTINUOUS
 62
   212
 10
-387.100053165553
 20
73.349156363014
 30
0.0
 11
-387.100021122097
 21
73.5966439991802
 31
0.0
  0
LINE
  5
   469
  8
0
  6
CONTINUOUS
 62
   212
 10
-387.100015781521
 20
70.6918939876852
 30
0.0
 11
-387.099983738064
 21
74.1216333091599
 31
0.0
  0
LINE
  5
   46A
  8
0
  6
CONTINUOUS
 62
   212
 10
-337.400010619758
 20
77.271601211804
 30
0.0
 11
-337.74995551017
 21
77.271601211804
 31
0.0
  0
LINE
  5
   46B
  8
0
  6
CONTINUOUS
 62
   212
 10
-337.400016627907
 20
74.1216012657515
 30
0.0
 11
-337.400010619758
 21
77.2716012121074
 31
0.0
  0
LINE
  5
   46C
  8
0
  6
CONTINUOUS
 62
   212
 10
-338.275016613005
 20
74.1216012657515
 30
0.0
 11
-338.275012807776
 21
76.1166374273683
 31
0.0
  0
LINE
  5
   46D
  8
0
  6
CONTINUOUS
 62
   212
 10
-387.099983738064
 20
74.1216333082243
 30
0.0
 11
-387.099957035184
 21
77.271622573428
 31
0.0
  0
LINE
  5
   46E
  8
0
  6
CONTINUOUS
 62
   212
 10
-367.631132598669
 20
72.9666215793068
 30
0.0
 11
-367.631132598669
 21
74.1216226277525
 31
0.0
  0
LINE
  5
   46F
  8
0
  6
CONTINUOUS
 62
   212
 10
-367.631132598669
 20
74.1216226277525
 30
0.0
 11
-367.631132598669
 21
74.1916324027028
 31
0.0
  0
LINE
  5
   470
  8
0
  6
CONTINUOUS
 62
   212
 10
-372.181132521183
 20
72.9666215793068
 30
0.0
 11
-372.181132521183
 21
74.1216226277525
 31
0.0
  0
LINE
  5
   471
  8
0
  6
CONTINUOUS
 62
   212
 10
-372.181132521183
 20
74.1216226277525
 30
0.0
 11
-372.181132521183
 21
74.1916322395973
 31
0.0
  0
LINE
  5
   472
  8
0
  6
CONTINUOUS
 62
   212
 10
-352.31863285944
 20
72.9666215793068
 30
0.0
 11
-352.31863285944
 21
74.1216119466003
 31
0.0
  0
LINE
  5
   473
  8
0
  6
CONTINUOUS
 62
   212
 10
-352.31863285944
 20
74.1216119466003
 30
0.0
 11
-352.31863285944
 21
74.1916375801734
 31
0.0
  0
LINE
  5
   474
  8
0
  6
CONTINUOUS
 62
   212
 10
-356.868632781954
 20
72.9666215793068
 30
0.0
 11
-356.868632781954
 21
74.1216119466003
 31
0.0
  0
LINE
  5
   475
  8
0
  6
CONTINUOUS
 62
   212
 10
-356.868632781954
 20
74.1216119466003
 30
0.0
 11
-356.868632781954
 21
74.1916374171263
 31
0.0
  0
ARC
  5
   476
  8
0
  6
CONTINUOUS
 62
   212
 10
-338.800002016093
 20
70.6919135266669
 30
0.0
 40
1.40002150898079
 50
270.000632287253
 51
359.999200284775
  0
ARC
  5
   477
  8
0
  6
CONTINUOUS
 62
   212
 10
-338.799931179405
 20
79.6166958619058
 30
0.0
 40
1.39991255048541
 50
359.997173646046
 51
401.406508072683
  0
ARC
  5
   478
  8
0
  6
CONTINUOUS
 62
   212
 10
-385.699957941046
 20
70.6919251488665
 30
0.0
 40
1.4000380025546
 50
180.001275194491
 51
269.998943331161
  0
LINE
  5
   479
  8
0
  6
CONTINUOUS
 62
   212
 10
-372.181132521183
 20
74.1215891737148
 30
0.0
 11
-373.187405201496
 21
74.1215891737148
 31
0.0
  0
LINE
  5
   47A
  8
0
  6
CONTINUOUS
 62
   212
 10
-356.868632781954
 20
74.1215834897259
 30
0.0
 11
-357.87490679741
 21
74.1215834897259
 31
0.0
  0
LINE
  5
   47B
  8
0
  6
CONTINUOUS
 62
   212
 10
-338.275016613005
 20
74.1215935988991
 30
0.0
 11
-342.562408106505
 21
74.1215935988991
 31
0.0
  0
LINE
  5
   47C
  8
0
  6
CONTINUOUS
 62
   212
 10
-366.624906648398
 20
69.2917449852861
 30
0.0
 11
-373.187405201496
 21
69.2917449852861
 31
0.0
  0
LINE
  5
   47D
  8
0
  6
CONTINUOUS
 62
   212
 10
-351.312407957494
 20
69.2917449852861
 30
0.0
 11
-357.87490679741
 21
69.2917449852861
 31
0.0
  0
LINE
  5
   47E
  8
0
  6
CONTINUOUS
 62
   212
 10
-338.799986563324
 20
69.2917449852861
 30
0.0
 11
-342.562408106505
 21
69.2917449852861
 31
0.0
  0
LINE
  5
   47F
  8
0
  6
CONTINUOUS
 62
   212
 10
-367.631132598669
 20
72.9666215793068
 30
0.0
 11
-372.181132521183
 21
72.9666215793068
 31
0.0
  0
LINE
  5
   480
  8
0
  6
CONTINUOUS
 62
   212
 10
-352.31863285944
 20
72.9666215793068
 30
0.0
 11
-356.868632781954
 21
72.9666215793068
 31
0.0
  0
ARC
  5
   481
  8
0
  6
CONTINUOUS
 62
   212
 10
-385.6998932224
 20
163.266699899861
 30
0.0
 40
1.40012256240389
 50
180.003923550316
 51
221.412682298073
  0
LINE
  5
   482
  8
0
  6
CONTINUOUS
 62
   212
 10
-387.100015781521
 20
163.266604020698
 30
0.0
 11
-387.099983738064
 21
165.611608253224
 31
0.0
  0
LINE
  5
   483
  8
0
  6
CONTINUOUS
 62
   212
 10
-386.749954675695
 20
165.611608252304
 30
0.0
 11
-387.099957035184
 21
165.611608252304
 31
0.0
  0
LINE
  5
   484
  8
0
  6
CONTINUOUS
 62
   212
 10
-386.224955091892
 20
166.766593399045
 30
0.0
 11
-386.224951709509
 21
168.761597528992
 31
0.0
  0
LINE
  5
   485
  8
0
  6
CONTINUOUS
 62
   212
 10
-381.937405052484
 20
173.591485841127
 30
0.0
 11
-385.699983761906
 21
173.591485841127
 31
0.0
  0
LINE
  5
   486
  8
0
  6
CONTINUOUS
 62
   212
 10
-381.937405052484
 20
168.761641652698
 30
0.0
 11
-386.224951709509
 21
168.761641652698
 31
0.0
  0
LINE
  5
   487
  8
0
  6
CONTINUOUS
 62
   212
 10
-366.624906648398
 20
168.761647336687
 30
0.0
 11
-367.631132598669
 21
168.761647336687
 31
0.0
  0
LINE
  5
   488
  8
0
  6
CONTINUOUS
 62
   212
 10
-351.312407957494
 20
168.761637227514
 30
0.0
 11
-352.31863285944
 21
168.761637227514
 31
0.0
  0
LINE
  5
   489
  8
0
  6
CONTINUOUS
 62
   212
 10
-337.3999834594
 20
168.761629560965
 30
0.0
 11
-337.3999834594
 21
172.191336838983
 31
0.0
  0
LINE
  5
   48A
  8
0
  6
CONTINUOUS
 62
   212
 10
-337.400018630623
 20
163.266604019631
 30
0.0
 11
-337.400038657783
 21
165.611629614461
 31
0.0
  0
LINE
  5
   48B
  8
0
  6
CONTINUOUS
 62
   212
 10
-387.100021122097
 20
169.286586827233
 30
0.0
 11
-387.100053165553
 21
169.534074463399
 31
0.0
  0
LINE
  5
   48C
  8
0
  6
CONTINUOUS
 62
   212
 10
-387.099983738064
 20
168.761597517253
 30
0.0
 11
-387.100015781521
 21
172.191336838728
 31
0.0
  0
LINE
  5
   48D
  8
0
  6
CONTINUOUS
 62
   212
 10
-337.400010619758
 20
165.611629614609
 30
0.0
 11
-337.74995551017
 21
165.611629614609
 31
0.0
  0
LINE
  5
   48E
  8
0
  6
CONTINUOUS
 62
   212
 10
-337.400010619758
 20
165.611629614305
 30
0.0
 11
-337.400016627907
 21
168.761629560661
 31
0.0
  0
LINE
  5
   48F
  8
0
  6
CONTINUOUS
 62
   212
 10
-338.275012807776
 20
166.766593399044
 30
0.0
 11
-338.275016613005
 21
168.761629560661
 31
0.0
  0
LINE
  5
   490
  8
0
  6
CONTINUOUS
 62
   212
 10
-387.099957035184
 20
165.611608252985
 30
0.0
 11
-387.099983738064
 21
168.761597518188
 31
0.0
  0
LINE
  5
   491
  8
0
  6
CONTINUOUS
 62
   212
 10
-367.631132598669
 20
168.76160819866
 30
0.0
 11
-367.631132598669
 21
169.916609247106
 31
0.0
  0
LINE
  5
   492
  8
0
  6
CONTINUOUS
 62
   212
 10
-367.631132598669
 20
168.69159842371
 30
0.0
 11
-367.631132598669
 21
168.76160819866
 31
0.0
  0
LINE
  5
   493
  8
0
  6
CONTINUOUS
 62
   212
 10
-372.181132521183
 20
168.76160819866
 30
0.0
 11
-372.181132521183
 21
169.916609247106
 31
0.0
  0
LINE
  5
   494
  8
0
  6
CONTINUOUS
 62
   212
 10
-372.181132521183
 20
168.691598586815
 30
0.0
 11
-372.181132521183
 21
168.76160819866
 31
0.0
  0
LINE
  5
   495
  8
0
  6
CONTINUOUS
 62
   212
 10
-352.31863285944
 20
168.761618879812
 30
0.0
 11
-352.31863285944
 21
169.916609247106
 31
0.0
  0
LINE
  5
   496
  8
0
  6
CONTINUOUS
 62
   212
 10
-352.31863285944
 20
168.691593246239
 30
0.0
 11
-352.31863285944
 21
168.761618879812
 31
0.0
  0
LINE
  5
   497
  8
0
  6
CONTINUOUS
 62
   212
 10
-356.868632781954
 20
168.761618879812
 30
0.0
 11
-356.868632781954
 21
169.916609247106
 31
0.0
  0
LINE
  5
   498
  8
0
  6
CONTINUOUS
 62
   212
 10
-356.868632781954
 20
168.691593409286
 30
0.0
 11
-356.868632781954
 21
168.761618879812
 31
0.0
  0
ARC
  5
   499
  8
0
  6
CONTINUOUS
 62
   212
 10
-338.800002016093
 20
172.191317299746
 30
0.0
 40
1.40002150898079
 50
360.000799611294
 51
449.999367608816
  0
ARC
  5
   49A
  8
0
  6
CONTINUOUS
 62
   212
 10
-338.799931179405
 20
163.266534964507
 30
0.0
 40
1.39991255048541
 50
318.593491823386
 51
360.002826250023
  0
ARC
  5
   49B
  8
0
  6
CONTINUOUS
 62
   212
 10
-385.699957941046
 20
172.191305677546
 30
0.0
 40
1.4000380025546
 50
90.0010565649075
 51
179.998724701578
  0
LINE
  5
   49C
  8
0
  6
CONTINUOUS
 62
   212
 10
-372.181132521183
 20
168.761641652698
 30
0.0
 11
-373.187405201496
 21
168.761641652698
 31
0.0
  0
LINE
  5
   49D
  8
0
  6
CONTINUOUS
 62
   212
 10
-356.868632781954
 20
168.761647336687
 30
0.0
 11
-357.87490679741
 21
168.761647336687
 31
0.0
  0
LINE
  5
   49E
  8
0
  6
CONTINUOUS
 62
   212
 10
-338.275016613005
 20
168.761637227514
 30
0.0
 11
-342.562408106505
 21
168.761637227514
 31
0.0
  0
LINE
  5
   49F
  8
0
  6
CONTINUOUS
 62
   212
 10
-366.624906648398
 20
173.591485841127
 30
0.0
 11
-373.187405201496
 21
173.591485841127
 31
0.0
  0
LINE
  5
   4A0
  8
0
  6
CONTINUOUS
 62
   212
 10
-351.312407957494
 20
173.591485841127
 30
0.0
 11
-357.87490679741
 21
173.591485841127
 31
0.0
  0
LINE
  5
   4A1
  8
0
  6
CONTINUOUS
 62
   212
 10
-338.799986563324
 20
173.591485841127
 30
0.0
 11
-342.562408106505
 21
173.591485841127
 31
0.0
  0
LINE
  5
   4A2
  8
0
  6
CONTINUOUS
 62
   212
 10
-367.631132598669
 20
169.916609247106
 30
0.0
 11
-372.181132521183
 21
169.916609247106
 31
0.0
  0
LINE
  5
   4A3
  8
0
  6
CONTINUOUS
 62
   212
 10
-352.31863285944
 20
169.916609247106
 30
0.0
 11
-356.868632781954
 21
169.916609247106
 31
0.0
  0
LINE
  5
   4A4
  8
0
  6
CONTINUOUS
 62
     3
 10
-369.031132574828
 20
74.1916374601508
 30
0.0
 11
-369.031132574828
 21
76.1166374273683
 31
0.0
  0
LINE
  5
   4A5
  8
0
  6
CONTINUOUS
 62
     3
 10
-370.781132545025
 20
74.1916374601508
 30
0.0
 11
-370.781132545025
 21
76.1166374273683
 31
0.0
  0
LINE
  5
   4A6
  8
0
  6
CONTINUOUS
 62
     3
 10
-353.718632835598
 20
74.1916374601508
 30
0.0
 11
-353.718632835598
 21
76.1166374273683
 31
0.0
  0
LINE
  5
   4A7
  8
0
  6
CONTINUOUS
 62
     3
 10
-355.468632805796
 20
74.1916374601508
 30
0.0
 11
-355.468632805796
 21
76.1166374273683
 31
0.0
  0
LINE
  5
   4A8
  8
0
  6
CONTINUOUS
 62
     3
 10
-355.468632805796
 20
74.1916374601508
 30
0.0
 11
-369.031132574828
 21
74.1916374601508
 31
0.0
  0
LINE
  5
   4A9
  8
0
  6
CONTINUOUS
 62
     3
 10
-370.781132545025
 20
74.1916374601508
 30
0.0
 11
-385.524933294527
 21
74.1916374601508
 31
0.0
  0
INSERT
  5
   4AA
  8
255
  6
CONTINUOUS
 62
     7
  2
TERM_400_FT_
 10
-328.194946289062
 20
83.5586395263672
 30
0.0
 41
0.349999994039536
 42
0.349999994039536
 50
3.50835464724173E-15
 43
0.349999994039536
  0
INSERT
  5
   4AB
  8
255
  6
CONTINUOUS
 62
     7
  2
TERM_400_FT_
 10
-328.194946289062
 20
159.324591300046
 30
0.0
 41
0.349999994039536
 42
-0.349999994039536
 50
1.03931142803049E-7
 43
0.349999994039536
  0
INSERT
  5
   4AC
  8
0
  6
CONTINUOUS
 62
     7
  2
*UDIM906
 10
0.0
 20
0.0
 30
0.0
  0
INSERT
  5
   4AD
  8
0
  6
CONTINUOUS
 62
     7
  2
*UDIM907
 10
0.0
 20
0.0
 30
0.0
  0
INSERT
  5
   4AE
  8
0
  6
CONTINUOUS
 62
     7
  2
*UDIM908
 10
0.0
 20
0.0
 30
0.0
  0
TEXT
  5
   4AF
  8
0
  6
CONTINUOUS
 62
     7
 10
-363.094472224915
 20
214.943421237789
 30
0.0
 40
2.99999997871263
  1
Y
 50
359.999999948034
 41
0.91666663951344
 72
     1
 11
-361.994472255706
 21
216.443421226153
 31
0.0
 73
     2
  0
INSERT
  5
   4B0
  8
0
  6
CONTINUOUS
 62
     7
  2
*UDIM909
 10
0.0
 20
0.0
 30
0.0
  0
INSERT
  5
   4B1
  8
0
  6
CONTINUOUS
 62
     7
  2
*UDIM910
 10
0.0
 20
0.0
 30
0.0
  0
INSERT
  5
   4B2
  8
0
  6
CONTINUOUS
 62
     7
  2
*UDIM911
 10
0.0
 20
0.0
 30
0.0
  0
INSERT
  5
   4B3
  8
0
  6
CONTINUOUS
 62
     7
  2
*UDIM912
 10
0.0
 20
0.0
 30
0.0
  0
INSERT
  5
   4B4
  8
0
  6
CONTINUOUS
 62
     7
  2
*UDIM913
 10
0.0
 20
0.0
 30
0.0
  0
INSERT
  5
   4B5
  8
0
  6
CONTINUOUS
 62
     7
  2
*UDIM914
 10
0.0
 20
0.0
 30
0.0
  0
INSERT
  5
   4B6
  8
0
  6
CONTINUOUS
 62
     7
  2
*UDIM915
 10
0.0
 20
0.0
 30
0.0
  0
TEXT
  5
   4B7
  8
0
  6
CONTINUOUS
 62
     7
 10
-431.494781424963
 20
120.568054001262
 30
0.0
 40
2.99999997871263
  1
X
 50
359.999999948034
 41
0.91666663951344
 72
     1
 11
-430.394781455754
 21
122.068053989626
 31
0.0
 73
     2
  0
INSERT
  5
   4B8
  8
0
  6
CONTINUOUS
 62
     7
  2
*UDIM916
 10
0.0
 20
0.0
 30
0.0
  0
LINE
  5
   4B9
  8
0
  6
CONTINUOUS
 62
     3
 10
-353.718632835598
 20
166.766593399044
 30
0.0
 11
-353.718632835598
 21
168.691593366262
 31
0.0
  0
LINE
  5
   4BA
  8
0
  6
CONTINUOUS
 62
     3
 10
-355.468632805796
 20
166.766593399044
 30
0.0
 11
-355.468632805796
 21
168.691593366262
 31
0.0
  0
LINE
  5
   4BB
  8
0
  6
CONTINUOUS
 62
     3
 10
-370.781132545025
 20
166.766593399044
 30
0.0
 11
-370.781132545025
 21
168.691593366262
 31
0.0
  0
LINE
  5
   4BC
  8
0
  6
CONTINUOUS
 62
     3
 10
-369.031132574828
 20
166.766593399044
 30
0.0
 11
-369.031132574828
 21
168.691593366262
 31
0.0
  0
LINE
  5
   4BD
  8
0
  6
CONTINUOUS
 62
     3
 10
-355.468632805796
 20
168.691593366262
 30
0.0
 11
-369.031132574828
 21
168.691593366262
 31
0.0
  0
LINE
  5
   4BE
  8
0
  6
CONTINUOUS
 62
     3
 10
-370.781132545025
 20
168.691593366262
 30
0.0
 11
-385.524933294527
 21
168.691593366262
 31
0.0
  0
INSERT
  5
   4BF
  8
0
  6
CONTINUOUS
 62
     7
  2
*UDIM917
 10
0.0
 20
0.0
 30
0.0
  0
INSERT
  5
   4C0
  8
0
  6
CONTINUOUS
 62
     7
  2
*UDIM918
 10
0.0
 20
0.0
 30
0.0
  0
TEXT
  5
   4C1
  8
0
  6
CONTINUOUS
 62
     3
 10
-390.319170856017
 20
112.676069533873
 30
0.0
 40
2.99999997871263
  1
=     =
 50
89.9999999480344
 41
0.91666663951344
 72
     2
 11
-390.31917083908
 21
131.376068863746
 31
0.0
  0
INSERT
  5
   4C2
  8
0
  6
CONTINUOUS
 62
     3
  2
*UDIM919
 10
0.0
 20
0.0
 30
0.0
  0
INSERT
  5
   4C3
  8
0
  6
CONTINUOUS
 62
     7
  2
*UDIM920
 10
0.0
 20
0.0
 30
0.0
  0
INSERT
  5
   4C4
  8
0
  6
CONTINUOUS
 62
     7
  2
*UDIM921
 10
0.0
 20
0.0
 30
0.0
  0
INSERT
  5
   4C5
  8
0
  6
CONTINUOUS
 62
     5
  2
*UDIM922
 10
0.0
 20
0.0
 30
0.0
  0
INSERT
  5
   4C6
  8
0
  6
CONTINUOUS
 62
     7
  2
*UDIM923
 10
0.0
 20
0.0
 30
0.0
  0
INSERT
  5
   4C7
  8
0
  6
CONTINUOUS
 62
     7
  2
*UDIM924
 10
0.0
 20
0.0
 30
0.0
  0
TEXT
  5
   4C8
  8
0
  6
CONTINUOUS
 62
     7
 10
-361.678784398019
 20
52.6058082682101
 30
0.0
 40
2.99999997871263
  1
Y
 50
359.999999948034
 41
0.91666663951344
 72
     2
 11
-359.478784462307
 21
52.6058082662258
 31
0.0
  0
LINE
  5
   4C9
  8
0
  6
DASHDOT
 62
     3
 10
-449.187380016303
 20
122.054125320989
 30
0.0
 11
-539.971260071091
 21
122.054125320989
 31
0.0
  0
LINE
  5
   4CA
  8
0
  6
CONTINUOUS
 62
     5
 10
-474.771964865923
 20
166.766608537811
 30
0.0
 11
-509.246958938241
 21
166.766608537811
 31
0.0
  0
LINE
  5
   4CB
  8
0
  6
CONTINUOUS
 62
     5
 10
-509.59695893228
 20
157.666620655661
 30
0.0
 11
-509.59695893228
 21
166.416608543771
 31
0.0
  0
ARC
  5
   4CC
  8
0
  6
CONTINUOUS
 62
     5
 10
-509.246958938241
 20
166.416608543771
 30
0.0
 40
0.349999994039536
 50
89.9999999480344
 51
179.999999948034
  0
LINE
  5
   4CD
  8
0
  6
CONTINUOUS
 62
     5
 10
-509.246958938241
 20
157.316620661622
 30
0.0
 11
-509.246958938241
 21
157.666620655661
 31
0.0
  0
LINE
  5
   4CE
  8
0
  6
CONTINUOUS
 62
     5
 10
-509.246958938241
 20
157.666620655661
 30
0.0
 11
-509.59695893228
 21
157.666620655661
 31
0.0
  0
LINE
  5
   4CF
  8
0
  6
CONTINUOUS
 62
     5
 10
-474.771964532137
 20
76.1166327256015
 30
0.0
 11
-509.246958938241
 21
76.1166327256015
 31
0.0
  0
LINE
  5
   4D0
  8
0
  6
CONTINUOUS
 62
     5
 10
-509.59695893228
 20
76.466632719641
 30
0.0
 11
-509.59695893228
 21
85.0416272330334
 31
0.0
  0
ARC
  5
   4D1
  8
0
  6
CONTINUOUS
 62
     5
 10
-509.246958938241
 20
76.466632719641
 30
0.0
 40
0.349999994039536
 50
179.999999948034
 51
269.999999948034
  0
LINE
  5
   4D2
  8
0
  6
CONTINUOUS
 62
     5
 10
-509.246958938241
 20
85.0416272330334
 30
0.0
 11
-509.59695893228
 21
85.0416272330334
 31
0.0
  0
LINE
  5
   4D3
  8
0
  6
CONTINUOUS
 62
     5
 10
-509.246958938241
 20
85.0416272330334
 30
0.0
 11
-509.246958938241
 21
85.3916272270729
 31
0.0
  0
LINE
  5
   4D4
  8
0
  6
CONTINUOUS
 62
     2
 10
-474.771932822304
 20
150.841592787284
 30
0.0
 11
-474.771932822304
 21
158.056711072614
 31
0.0
  0
LINE
  5
   4D5
  8
0
  6
CONTINUOUS
 62
     7
 10
-498.746953776479
 20
157.141592679996
 30
0.0
 11
-499.971953755617
 21
157.141592679996
 31
0.0
  0
LINE
  5
   4D6
  8
0
  6
CONTINUOUS
 62
     7
 10
-498.746916392198
 20
151.016589732579
 30
0.0
 11
-498.746916392198
 21
157.141589628271
 31
0.0
  0
LINE
  5
   4D7
  8
0
  6
CONTINUOUS
 62
     7
 10
-474.771954184771
 20
151.716592772383
 30
0.0
 11
-476.171954160929
 21
151.716592772383
 31
0.0
  0
LINE
  5
   4D8
  8
0
  6
CONTINUOUS
 62
     7
 10
-476.171955050897
 20
151.716588328617
 30
0.0
 11
-476.171988607561
 21
164.911608783012
 31
0.0
  0
LINE
  5
   4D9
  8
0
  6
CONTINUOUS
 62
     2
 10
-474.596964868903
 20
150.841592787284
 30
0.0
 11
-474.771954184771
 21
150.841592787284
 31
0.0
  0
LINE
  5
   4DA
  8
0
  6
CONTINUOUS
 62
     2
 10
-474.071964877844
 20
156.441592691916
 30
0.0
 11
-474.771964865923
 21
156.441592691916
 31
0.0
  0
LINE
  5
   4DB
  8
0
  6
CONTINUOUS
 62
     2
 10
-474.071964877844
 20
160.291592626351
 30
0.0
 11
-474.771964865923
 21
160.291592626351
 31
0.0
  0
LINE
  5
   4DC
  8
0
  6
CONTINUOUS
 62
     2
 10
-474.071964877844
 20
159.35066857011
 30
0.0
 11
-474.771964865923
 21
159.35066857011
 31
0.0
  0
LINE
  5
   4DD
  8
0
  6
CONTINUOUS
 62
     2
 10
-474.071964877844
 20
158.056711072614
 30
0.0
 11
-474.771964865923
 21
158.056711072614
 31
0.0
  0
LINE
  5
   4DE
  8
0
  6
CONTINUOUS
 62
     7
 10
-499.971953755617
 20
156.966599305278
 30
0.0
 11
-499.971953755617
 21
157.316604639893
 31
0.0
  0
LINE
  5
   4DF
  8
0
  6
CONTINUOUS
 62
     7
 10
-507.74195255518
 20
157.316604639893
 30
0.0
 11
-507.846953621507
 21
157.316604639893
 31
0.0
  0
LINE
  5
   4E0
  8
0
  6
CONTINUOUS
 62
     7
 10
-498.921953773499
 20
156.96660998643
 30
0.0
 11
-499.971953755617
 21
156.96660998643
 31
0.0
  0
LINE
  5
   4E1
  8
0
  6
CONTINUOUS
 62
     7
 10
-498.921953773499
 20
148.391603510159
 30
0.0
 11
-498.921953773499
 21
156.96660998643
 31
0.0
  0
LINE
  5
   4E2
  8
0
  6
CONTINUOUS
 62
     7
 10
-507.741941874027
 20
148.391603510159
 30
0.0
 11
-507.741941874027
 21
157.316600260419
 31
0.0
  0
LINE
  5
   4E3
  8
0
  6
CONTINUOUS
 62
     2
 10
-474.771932822304
 20
164.911608783012
 30
0.0
 11
-507.741957895756
 21
164.911608783012
 31
0.0
  0
LINE
  5
   4E4
  8
0
  6
CONTINUOUS
 62
     2
 10
-507.741920511718
 20
157.316602228055
 30
0.0
 11
-507.741920511718
 21
164.911606371174
 31
0.0
  0
LINE
  5
   4E5
  8
0
  6
CONTINUOUS
 62
     7
 10
-499.971953755617
 20
157.316609980469
 30
0.0
 11
-499.971953755617
 21
164.911608783012
 31
0.0
  0
LINE
  5
   4E6
  8
0
  6
CONTINUOUS
 62
     7
 10
-509.59695893228
 20
97.9916323530725
 30
0.0
 11
-509.59695893228
 21
99.3915963337602
 31
0.0
  0
LINE
  5
   4E7
  8
0
  6
CONTINUOUS
 62
     7
 10
-509.59695893228
 20
148.391603510159
 30
0.0
 11
-509.59695893228
 21
157.316620661622
 31
0.0
  0
LINE
  5
   4E8
  8
0
  6
CONTINUOUS
 62
     7
 10
-507.846958962083
 20
157.316620661622
 30
0.0
 11
-509.59695893228
 21
157.316620661622
 31
0.0
  0
LINE
  5
   4E9
  8
0
  6
CONTINUOUS
 62
     7
 10
-507.846958962083
 20
97.9916323530725
 30
0.0
 11
-509.59695893228
 21
97.9916323530725
 31
0.0
  0
LINE
  5
   4EA
  8
0
  6
CONTINUOUS
 62
   218
 10
-474.771964532137
 20
77.971632426982
 30
0.0
 11
-507.74195756197
 21
77.971632426982
 31
0.0
  0
LINE
  5
   4EB
  8
0
  6
CONTINUOUS
 62
   218
 10
-507.741960365332
 20
86.7916272029176
 30
0.0
 11
-507.846958961768
 21
86.7916284353389
 31
0.0
  0
LINE
  5
   4EC
  8
0
  6
CONTINUOUS
 62
   218
 10
-507.741963236332
 20
85.3916272270729
 30
0.0
 11
-509.246958938241
 21
85.3916272270729
 31
0.0
  0
LINE
  5
   4ED
  8
0
  6
CONTINUOUS
 62
   218
 10
-507.741963236332
 20
77.9716337621261
 30
0.0
 11
-507.741963236332
 21
86.7916325438071
 31
0.0
  0
LINE
  5
   4EE
  8
0
  6
CONTINUOUS
 62
   218
 10
-507.741963236332
 20
86.7916325438071
 30
0.0
 11
-507.741963236332
 21
97.991597692746
 31
0.0
  0
LINE
  5
   4EF
  8
0
  6
CONTINUOUS
 62
     7
 10
-507.741963236332
 20
97.6416323590328
 30
0.0
 11
-507.846958962083
 21
97.6416323590328
 31
0.0
  0
LINE
  5
   4F0
  8
0
  6
CONTINUOUS
 62
   218
 10
-474.07196487773
 20
88.8916271678146
 30
0.0
 11
-474.771964532007
 21
88.8916325083907
 31
0.0
  0
LINE
  5
   4F1
  8
0
  6
CONTINUOUS
 62
   218
 10
-474.771964532137
 20
76.1166327256015
 30
0.0
 11
-474.771964532137
 21
88.8916271674684
 31
0.0
  0
LINE
  5
   4F2
  8
0
  6
CONTINUOUS
 62
   218
 10
-474.071964877844
 20
85.1291272315433
 30
0.0
 11
-474.771964865923
 21
85.1291272315433
 31
0.0
  0
LINE
  5
   4F3
  8
0
  6
CONTINUOUS
 62
   218
 10
-474.071964877844
 20
82.0779703335072
 30
0.0
 11
-474.771964865923
 21
82.0779703335072
 31
0.0
  0
LINE
  5
   4F4
  8
0
  6
CONTINUOUS
 62
   218
 10
-474.071964877844
 20
82.9365163374867
 30
0.0
 11
-474.771964865923
 21
82.9365163374867
 31
0.0
  0
LINE
  5
   4F5
  8
0
  6
CONTINUOUS
 62
     7
 10
-507.846958962083
 20
97.8166323560527
 30
0.0
 11
-509.59695893228
 21
97.8166323560527
 31
0.0
  0
LINE
  5
   4F6
  8
0
  6
CONTINUOUS
 62
     7
 10
-507.846958962083
 20
85.5666325646689
 30
0.0
 11
-509.59695893228
 21
85.5666325646689
 31
0.0
  0
LINE
  5
   4F7
  8
0
  6
CONTINUOUS
 62
     7
 10
-509.59695893228
 20
85.5666325646689
 30
0.0
 11
-509.59695893228
 21
97.8166323560527
 31
0.0
  0
LINE
  5
   4F8
  8
0
  6
CONTINUOUS
 62
     7
 10
-508.896958944201
 20
85.5666325646689
 30
0.0
 11
-508.896958944201
 21
97.8166323560527
 31
0.0
  0
LINE
  5
   4F9
  8
0
  6
CONTINUOUS
 62
     7
 10
-507.846958962083
 20
85.5666325646689
 30
0.0
 11
-507.846958962083
 21
97.8166323560527
 31
0.0
  0
LINE
  5
   4FA
  8
0
  6
CONTINUOUS
 62
     2
 10
-474.771932822304
 20
159.35066857011
 30
0.0
 11
-474.771932822304
 21
166.766608537811
 31
0.0
  0
LINE
  5
   4FB
  8
0
  6
CONTINUOUS
 62
     7
 10
-474.071964877844
 20
156.441592691916
 30
0.0
 11
-474.071964877844
 21
160.291592626351
 31
0.0
  0
LINE
  5
   4FC
  8
0
  6
CONTINUOUS
 62
     7
 10
-474.071964877844
 20
82.0779703335067
 30
0.0
 11
-474.071964877844
 21
85.1291272315428
 31
0.0
  0
LINE
  5
   4FD
  8
0
  6
CONTINUOUS
 62
     7
 10
-457.446949139237
 20
109.891593484658
 30
0.0
 11
-458.146949913913
 21
109.891593484658
 31
0.0
  0
LINE
  5
   4FE
  8
0
  6
CONTINUOUS
 62
     7
 10
-457.446949139237
 20
112.341588102359
 30
0.0
 11
-458.146950203711
 21
112.341588102359
 31
0.0
  0
LINE
  5
   4FF
  8
0
  6
CONTINUOUS
 62
     7
 10
-474.071964877844
 20
77.9716154573141
 30
0.0
 11
-474.071964877844
 21
83.2915992782296
 31
0.0
  0
LINE
  5
   500
  8
0
  6
CONTINUOUS
 62
     3
 10
-456.921949148178
 20
100.791604320782
 30
0.0
 11
-457.446949139237
 21
100.791604320782
 31
0.0
  0
LINE
  5
   501
  8
0
  6
CONTINUOUS
 62
     3
 10
-456.921949148178
 20
94.8416044221103
 30
0.0
 11
-457.446949139237
 21
94.8416044221103
 31
0.0
  0
LINE
  5
   502
  8
0
  6
CONTINUOUS
 62
     3
 10
-456.921949148178
 20
90.9916044876754
 30
0.0
 11
-457.446949139237
 21
90.9916044876754
 31
0.0
  0
LINE
  5
   503
  8
0
  6
CONTINUOUS
 62
     3
 10
-456.921949148178
 20
151.891603450555
 30
0.0
 11
-457.446949139237
 21
151.891603450555
 31
0.0
  0
LINE
  5
   504
  8
0
  6
CONTINUOUS
 62
     3
 10
-456.921949148178
 20
148.04160351612
 30
0.0
 11
-457.446949139237
 21
148.04160351612
 31
0.0
  0
LINE
  5
   505
  8
0
  6
CONTINUOUS
 62
     3
 10
-456.921949148178
 20
142.091603617448
 30
0.0
 11
-457.446949139237
 21
142.091603617448
 31
0.0
  0
LINE
  5
   506
  8
0
  6
CONTINUOUS
 62
     3
 10
-457.446949139237
 20
147.691608862656
 30
0.0
 11
-457.446949139237
 21
151.891603450555
 31
0.0
  0
LINE
  5
   507
  8
0
  6
CONTINUOUS
 62
     3
 10
-457.446949139237
 20
100.441657732504
 30
0.0
 11
-457.446949139237
 21
142.441619633215
 31
0.0
  0
LINE
  5
   508
  8
0
  6
CONTINUOUS
 62
     3
 10
-457.446949139237
 20
90.9916044876754
 30
0.0
 11
-457.446949139237
 21
95.1916578219107
 31
0.0
  0
LINE
  5
   509
  8
0
  6
CONTINUOUS
 62
     3
 10
-456.921949148178
 20
90.9916044876754
 30
0.0
 11
-456.921949148178
 21
95.1916257784542
 31
0.0
  0
LINE
  5
   50A
  8
0
  6
CONTINUOUS
 62
     3
 10
-456.921949148178
 20
100.441620348471
 30
0.0
 11
-456.921949148178
 21
142.441571568031
 31
0.0
  0
LINE
  5
   50B
  8
0
  6
CONTINUOUS
 62
     3
 10
-456.921949148178
 20
147.691582159776
 30
0.0
 11
-456.921949148178
 21
151.891603450555
 31
0.0
  0
LINE
  5
   50C
  8
0
  6
DASHDOT
 62
     7
 10
-456.746949151158
 20
100.441631029623
 30
0.0
 11
-456.746949151158
 21
142.441608952063
 31
0.0
  0
LINE
  5
   50D
  8
0
  6
DASHDOT
 62
     7
 10
-456.746949151158
 20
64.8728382510523
 30
0.0
 11
-456.746949151158
 21
95.1916311190303
 31
0.0
  0
LINE
  5
   50E
  8
0
  6
DASHDOT
 62
     7
 10
-456.746949151158
 20
147.691608862656
 30
0.0
 11
-456.746949151158
 21
176.329380066525
 31
0.0
  0
LINE
  5
   50F
  8
0
  6
DASHDOT
 62
     7
 10
-455.69694916904
 20
66.2841038943275
 30
0.0
 11
-455.69694916904
 21
176.481553976977
 31
0.0
  0
LINE
  5
   510
  8
0
  6
CONTINUOUS
 62
     7
 10
-458.158126584076
 20
176.124861597986
 30
0.0
 11
-454.285247227414
 21
176.686148461271
 31
0.0
  0
LINE
  5
   511
  8
0
  6
CONTINUOUS
 62
     7
 10
-458.208385825298
 20
65.0477043097079
 30
0.0
 11
-454.459437609626
 21
66.8933403543468
 31
0.0
  0
LINE
  5
   512
  8
0
  6
DASHDOT
 62
     7
 10
-452.26393813938
 20
145.06660890736
 30
0.0
 11
-463.022265194687
 21
145.06660890736
 31
0.0
  0
LINE
  5
   513
  8
0
  6
DASHDOT
 62
     7
 10
-452.461338635808
 20
97.8166097120225
 30
0.0
 11
-463.811867180397
 21
97.8166097120225
 31
0.0
  0
LINE
  5
   514
  8
0
  6
CONTINUOUS
 62
   130
 10
-519.396924719984
 20
103.241592266026
 30
0.0
 11
-519.396942744428
 21
104.641601588192
 31
0.0
  0
LINE
  5
   515
  8
0
  6
CONTINUOUS
 62
   130
 10
-519.396942744372
 20
99.3915936659057
 30
0.0
 11
-519.3969253875
 21
100.791588301488
 31
0.0
  0
LINE
  5
   516
  8
0
  6
CONTINUOUS
 62
   130
 10
-473.371964744172
 20
99.391552305366
 30
0.0
 11
-474.071964732251
 21
99.3915963651187
 31
0.0
  0
LINE
  5
   517
  8
0
  6
CONTINUOUS
 62
   130
 10
-475.821970188617
 20
99.3915963337602
 30
0.0
 11
-517.646942773461
 21
99.3915963337602
 31
0.0
  0
LINE
  5
   518
  8
0
  6
CONTINUOUS
 62
   130
 10
-458.146954467893
 20
148.391603510159
 30
0.0
 11
-473.371970230341
 21
148.391603510159
 31
0.0
  0
LINE
  5
   519
  8
0
  6
CONTINUOUS
 62
   130
 10
-458.146954467457
 20
99.3915082143211
 30
0.0
 11
-473.371964889329
 21
99.391552274073
 31
0.0
  0
LINE
  5
   51A
  8
0
  6
CONTINUOUS
 62
   130
 10
-458.146954467843
 20
99.3915082142853
 30
0.0
 11
-458.146949127267
 21
103.241584251929
 31
0.0
  0
LINE
  5
   51B
  8
0
  6
CONTINUOUS
 62
     7
 10
-487.721948623657
 20
137.19160904147
 30
0.0
 11
-519.396942743659
 21
137.19160904147
 31
0.0
  0
LINE
  5
   51C
  8
0
  6
CONTINUOUS
 62
     7
 10
-487.721948623657
 20
126.691590528268
 30
0.0
 11
-519.396942743659
 21
126.691590528268
 31
0.0
  0
LINE
  5
   51D
  8
0
  6
CONTINUOUS
 62
   130
 10
-519.396925386787
 20
100.791588299055
 30
0.0
 11
-519.396924719215
 21
103.241592262764
 31
0.0
  0
LINE
  5
   51E
  8
0
  6
CONTINUOUS
 62
   130
 10
-473.371970230341
 20
148.391603510159
 30
0.0
 11
-519.396942743659
 21
148.391603510159
 31
0.0
  0
LINE
  5
   51F
  8
0
  6
CONTINUOUS
 62
   130
 10
-519.396942743659
 20
137.19160904147
 30
0.0
 11
-519.396942743659
 21
148.391603510159
 31
0.0
  0
LINE
  5
   520
  8
0
  6
CONTINUOUS
 62
     7
 10
-483.609470055881
 20
100.791609661387
 30
0.0
 11
-474.771964865807
 21
100.791625683115
 31
0.0
  0
LINE
  5
   521
  8
0
  6
CONTINUOUS
 62
     7
 10
-497.915698450049
 20
100.791601650498
 30
0.0
 11
-485.009470032146
 21
100.791609661362
 31
0.0
  0
LINE
  5
   522
  8
0
  6
CONTINUOUS
 62
     7
 10
-517.996904715892
 20
100.791589634202
 30
0.0
 11
-499.31569775864
 21
100.791601650498
 31
0.0
  0
LINE
  5
   523
  8
0
  6
CONTINUOUS
 62
     7
 10
-517.996901378032
 20
102.366592277668
 30
0.0
 11
-499.315697091068
 21
102.366604293964
 31
0.0
  0
LINE
  5
   524
  8
0
  6
CONTINUOUS
 62
     7
 10
-497.915697114905
 20
102.366605629108
 30
0.0
 11
-485.009467361857
 21
102.366613639972
 31
0.0
  0
LINE
  5
   525
  8
0
  6
CONTINUOUS
 62
     7
 10
-483.609467385696
 20
102.366614975116
 30
0.0
 11
-474.77196486591
 21
102.366620315692
 31
0.0
  0
LINE
  5
   526
  8
0
  6
CONTINUOUS
 62
     7
 10
-517.996904715908
 20
100.791589634248
 30
0.0
 11
-517.99690204562
 21
102.366592277714
 31
0.0
  0
LINE
  5
   527
  8
0
  6
CONTINUOUS
 62
     7
 10
-474.771964865923
 20
100.791625683087
 30
0.0
 11
-474.771964865923
 21
102.366620315689
 31
0.0
  0
LINE
  5
   528
  8
0
  6
CONTINUOUS
 62
     7
 10
-483.609470055959
 20
100.791609661413
 30
0.0
 11
-483.609467385671
 21
102.366622986031
 31
0.0
  0
LINE
  5
   529
  8
0
  6
CONTINUOUS
 62
     7
 10
-485.009470032119
 20
100.791609661408
 30
0.0
 11
-485.009467361831
 21
102.366621650882
 31
0.0
  0
LINE
  5
   52A
  8
0
  6
CONTINUOUS
 62
     7
 10
-497.915698450054
 20
100.791601650508
 30
0.0
 11
-497.91569711491
 21
102.366613639982
 31
0.0
  0
LINE
  5
   52B
  8
0
  6
CONTINUOUS
 62
     7
 10
-499.315697758641
 20
100.791601650507
 30
0.0
 11
-499.315696423497
 21
102.366612304837
 31
0.0
  0
LINE
  5
   52C
  8
0
  6
CONTINUOUS
 62
   130
 10
-508.196943435073
 20
97.991597692746
 30
0.0
 11
-508.196943435073
 21
99.3915976689042
 31
0.0
  0
LINE
  5
   52D
  8
0
  6
CONTINUOUS
 62
   130
 10
-506.796943292022
 20
97.991597692746
 30
0.0
 11
-506.796943292022
 21
99.3915976689042
 31
0.0
  0
LINE
  5
   52E
  8
0
  6
CONTINUOUS
 62
   130
 10
-506.796943292022
 20
97.991597692746
 30
0.0
 11
-508.196943435073
 21
97.991597692746
 31
0.0
  0
LINE
  5
   52F
  8
0
  6
CONTINUOUS
 62
   130
 10
-478.884443433583
 20
97.9916163847623
 30
0.0
 11
-478.884443433583
 21
99.3915909931841
 31
0.0
  0
LINE
  5
   530
  8
0
  6
CONTINUOUS
 62
   130
 10
-477.484443457425
 20
97.9916163847623
 30
0.0
 11
-477.484443457425
 21
99.3915909931841
 31
0.0
  0
LINE
  5
   531
  8
0
  6
CONTINUOUS
 62
   130
 10
-477.484443457425
 20
97.9916163847623
 30
0.0
 11
-478.884443433583
 21
97.9916163847623
 31
0.0
  0
LINE
  5
   532
  8
0
  6
CONTINUOUS
 62
   130
 10
-517.646942773461
 20
97.7290963620724
 30
0.0
 11
-517.646942773461
 21
98.6040963471712
 31
0.0
  0
LINE
  5
   533
  8
0
  6
CONTINUOUS
 62
   130
 10
-519.396942743659
 20
97.7290963620724
 30
0.0
 11
-519.396942743659
 21
99.3915936634721
 31
0.0
  0
LINE
  5
   534
  8
0
  6
CONTINUOUS
 62
   130
 10
-517.646942773461
 20
97.7290963620724
 30
0.0
 11
-519.396942743659
 21
97.7290963620724
 31
0.0
  0
LINE
  5
   535
  8
0
  6
CONTINUOUS
 62
   130
 10
-517.646942773461
 20
98.6040963471712
 30
0.0
 11
-517.646942773461
 21
99.3915963337602
 31
0.0
  0
LINE
  5
   536
  8
0
  6
CONTINUOUS
 62
   130
 10
-475.821975529194
 20
97.7290963620724
 30
0.0
 11
-475.821975529194
 21
98.6040963471712
 31
0.0
  0
LINE
  5
   537
  8
0
  6
CONTINUOUS
 62
   130
 10
-474.071975558996
 20
97.7290963620724
 30
0.0
 11
-475.821975529194
 21
97.7290963620724
 31
0.0
  0
LINE
  5
   538
  8
0
  6
CONTINUOUS
 62
   130
 10
-474.071975558252
 20
97.7290963626573
 30
0.0
 11
-474.0719648771
 21
99.3915963343451
 31
0.0
  0
LINE
  5
   539
  8
0
  6
CONTINUOUS
 62
   130
 10
-475.821975528405
 20
98.6040963478632
 30
0.0
 11
-475.821970187829
 21
99.3915909938761
 31
0.0
  0
LINE
  5
   53A
  8
0
  6
CONTINUOUS
 62
     7
 10
-516.946945409846
 20
141.216615012317
 30
0.0
 11
-517.99694541503
 21
142.266615017501
 31
0.0
  0
LINE
  5
   53B
  8
0
  6
CONTINUOUS
 62
   130
 10
-519.396942743659
 20
104.641601584929
 30
0.0
 11
-519.396942743659
 21
126.691598539132
 31
0.0
  0
LINE
  5
   53C
  8
0
  6
CONTINUOUS
 62
     7
 10
-487.721948623657
 20
126.691590528268
 30
0.0
 11
-487.721948623657
 21
137.19160904147
 31
0.0
  0
LINE
  5
   53D
  8
0
  6
CONTINUOUS
 62
     7
 10
-513.971943169832
 20
137.01660904445
 30
0.0
 11
-513.971943169832
 21
137.19160904147
 31
0.0
  0
LINE
  5
   53E
  8
0
  6
CONTINUOUS
 62
     7
 10
-483.609470055984
 20
143.754103589146
 30
0.0
 11
-474.77196486591
 21
143.754108929723
 31
0.0
  0
LINE
  5
   53F
  8
0
  6
CONTINUOUS
 62
     7
 10
-483.609470055997
 20
141.216603632349
 30
0.0
 11
-483.609470055997
 21
143.754103589135
 31
0.0
  0
LINE
  5
   540
  8
0
  6
CONTINUOUS
 62
     7
 10
-483.609470055984
 20
141.216603632359
 30
0.0
 11
-474.77196486591
 21
141.216608972935
 31
0.0
  0
LINE
  5
   541
  8
0
  6
CONTINUOUS
 62
     7
 10
-474.771964865923
 20
141.216608972925
 30
0.0
 11
-474.771964865923
 21
143.754108929711
 31
0.0
  0
LINE
  5
   542
  8
0
  6
CONTINUOUS
 62
     7
 10
-499.315697758645
 20
141.216608972925
 30
0.0
 11
-499.315697758645
 21
143.754108929711
 31
0.0
  0
LINE
  5
   543
  8
0
  6
CONTINUOUS
 62
     7
 10
-485.009470032155
 20
141.216608972925
 30
0.0
 11
-499.315698426217
 21
141.216608972925
 31
0.0
  0
LINE
  5
   544
  8
0
  6
CONTINUOUS
 62
     7
 10
-485.009470032155
 20
141.216608972925
 30
0.0
 11
-485.009470032155
 21
143.754108929711
 31
0.0
  0
LINE
  5
   545
  8
0
  6
CONTINUOUS
 62
     7
 10
-485.009470032155
 20
143.754108929711
 30
0.0
 11
-499.315698426217
 21
143.754108929711
 31
0.0
  0
LINE
  5
   546
  8
0
  6
CONTINUOUS
 62
     7
 10
-500.715697734803
 20
141.216608972925
 30
0.0
 11
-517.996942099929
 21
141.216608972925
 31
0.0
  0
LINE
  5
   547
  8
0
  6
CONTINUOUS
 62
     7
 10
-500.715697734803
 20
141.216608972925
 30
0.0
 11
-500.715697734803
 21
143.754108929711
 31
0.0
  0
LINE
  5
   548
  8
0
  6
CONTINUOUS
 62
     7
 10
-500.715697734803
 20
143.754108929711
 30
0.0
 11
-517.996942099929
 21
143.754108929711
 31
0.0
  0
LINE
  5
   549
  8
0
  6
CONTINUOUS
 62
     7
 10
-517.996942767501
 20
141.216608972925
 30
0.0
 11
-517.996942767501
 21
143.754108929711
 31
0.0
  0
LINE
  5
   54A
  8
0
  6
CONTINUOUS
 62
     7
 10
-514.496943160892
 20
100.791592304486
 30
0.0
 11
-514.496943160892
 21
102.366602958816
 31
0.0
  0
LINE
  5
   54B
  8
0
  6
CONTINUOUS
 62
     7
 10
-513.096942183375
 20
100.79159363963
 30
0.0
 11
-513.096942183375
 21
102.366602958816
 31
0.0
  0
LINE
  5
   54C
  8
0
  6
CONTINUOUS
 62
     7
 10
-517.99680591524
 20
100.791581623337
 30
0.0
 11
-517.996805247668
 21
102.366592277667
 31
0.0
  0
LINE
  5
   54D
  8
0
  6
CONTINUOUS
 62
   130
 10
-519.396942743727
 20
99.3915776419743
 30
0.0
 11
-519.396941408583
 21
99.7416030037502
 31
0.0
  0
LINE
  5
   54E
  8
0
  6
CONTINUOUS
 62
   130
 10
-473.371967551496
 20
99.3915549461387
 30
0.0
 11
-474.071964869287
 21
99.3915656272909
 31
0.0
  0
LINE
  5
   54F
  8
0
  6
CONTINUOUS
 62
   130
 10
-458.146949127316
 20
103.241584251899
 30
0.0
 11
-458.146954467892
 21
148.391604845304
 31
0.0
  0
LINE
  5
   550
  8
0
  6
CONTINUOUS
 62
     7
 10
-483.591248010409
 20
100.791604320782
 30
0.0
 11
-483.591248010409
 21
102.366614975113
 31
0.0
  0
LINE
  5
   551
  8
0
  6
CONTINUOUS
 62
     7
 10
-485.009894607954
 20
100.791588299054
 30
0.0
 11
-485.009894607954
 21
102.366613639968
 31
0.0
  0
LINE
  5
   552
  8
0
  6
CONTINUOUS
 62
     7
 10
-492.796943196655
 20
137.01660904445
 30
0.0
 11
-519.396942743659
 21
137.01660904445
 31
0.0
  0
LINE
  5
   553
  8
0
  6
CONTINUOUS
 62
     7
 10
-492.796943196655
 20
126.691590528268
 30
0.0
 11
-492.796943196655
 21
137.01660904445
 31
0.0
  0
LINE
  5
   554
  8
0
  6
CONTINUOUS
 62
     7
 10
-519.396942743659
 20
126.691598539132
 30
0.0
 11
-519.396942743659
 21
137.01660904445
 31
0.0
  0
LINE
  5
   555
  8
0
  6
CONTINUOUS
 62
   150
 10
-519.396930059791
 20
103.679108277041
 30
0.0
 11
-523.246946683526
 21
103.679108277041
 31
0.0
  0
LINE
  5
   556
  8
0
  6
CONTINUOUS
 62
   150
 10
-519.396942743659
 20
140.429125008064
 30
0.0
 11
-523.246946683526
 21
140.429125008064
 31
0.0
  0
LINE
  5
   557
  8
0
  6
CONTINUOUS
 62
   150
 10
-525.172048274267
 20
103.853917811383
 30
0.0
 11
-525.171948138462
 21
103.854642794598
 31
0.0
  0
LINE
  5
   558
  8
0
  6
CONTINUOUS
 62
     7
 10
-516.946901395918
 20
100.79159898021
 30
0.0
 11
-516.94690206349
 21
102.366601623676
 31
0.0
  0
LINE
  5
   559
  8
0
  6
CONTINUOUS
 62
     7
 10
-474.771964865923
 20
141.741608963984
 30
0.0
 11
-483.609464715421
 21
141.741608963984
 31
0.0
  0
LINE
  5
   55A
  8
0
  6
CONTINUOUS
 62
     7
 10
-485.009467361867
 20
141.741608963984
 30
0.0
 11
-499.315694420785
 21
141.741608963984
 31
0.0
  0
LINE
  5
   55B
  8
0
  6
CONTINUOUS
 62
     7
 10
-500.715694396943
 20
141.741608963984
 30
0.0
 11
-516.946942785382
 21
141.741608963984
 31
0.0
  0
LINE
  5
   55C
  8
0
  6
CONTINUOUS
 62
     7
 10
-517.209441520078
 20
141.479114596485
 30
0.0
 11
-516.946941518782
 21
141.741614597781
 31
0.0
  0
LINE
  5
   55D
  8
0
  6
CONTINUOUS
 62
     7
 10
-516.946942785382
 20
141.741608963984
 30
0.0
 11
-516.946942785382
 21
143.754108929711
 31
0.0
  0
CIRCLE
  5
   55E
  8
0
  6
CONTINUOUS
 62
   130
 10
-515.196971822458
 20
121.441587371257
 30
0.0
 40
3.49999695973229
  0
CIRCLE
  5
   55F
  8
0
  6
CONTINUOUS
 62
   130
 10
-515.196968779578
 20
121.441585274844
 30
0.0
 40
0.962501397983491
  0
CIRCLE
  5
   560
  8
0
  6
CONTINUOUS
 62
   130
 10
-465.321951911068
 20
140.341581358766
 30
0.0
 40
2.10002360565626
  0
CIRCLE
  5
   561
  8
0
  6
CONTINUOUS
 62
   130
 10
-465.32196555549
 20
140.341596949412
 30
0.0
 40
1.13750330518346
  0
CIRCLE
  5
   562
  8
0
  6
CONTINUOUS
 62
   130
 10
-465.32196637722
 20
105.341599356915
 30
0.0
 40
2.10000079410038
  0
CIRCLE
  5
   563
  8
0
  6
CONTINUOUS
 62
   130
 10
-465.321962981051
 20
105.34160233973
 30
0.0
 40
1.1375029235037
  0
LINE
  5
   564
  8
0
  6
DASHDOT
 62
     7
 10
-465.321951911068
 20
137.89155775907
 30
0.0
 11
-465.321951911068
 21
142.791604958461
 31
0.0
  0
LINE
  5
   565
  8
0
  6
DASHDOT
 62
     7
 10
-462.871928311372
 20
140.341581358766
 30
0.0
 11
-467.771975510764
 21
140.341581358766
 31
0.0
  0
LINE
  5
   566
  8
0
  6
DASHDOT
 62
     7
 10
-465.32196637722
 20
102.891598568775
 30
0.0
 11
-465.32196637722
 21
107.791600145055
 31
0.0
  0
LINE
  5
   567
  8
0
  6
DASHDOT
 62
     7
 10
-462.871965589081
 20
105.341599356915
 30
0.0
 11
-467.77196716536
 21
105.341599356915
 31
0.0
  0
LINE
  5
   568
  8
0
  6
CONTINUOUS
 62
     7
 10
-474.596964868903
 20
148.391603510159
 30
0.0
 11
-474.596964868903
 21
150.841592787284
 31
0.0
  0
LINE
  5
   569
  8
0
  6
CONTINUOUS
 62
     7
 10
-523.24694801867
 20
70.0900112907712
 30
0.0
 11
-523.24694801867
 21
96.1540603400059
 31
0.0
  0
LINE
  5
   56A
  8
0
  6
CONTINUOUS
 62
     7
 10
-523.946948006749
 20
69.9720337646905
 30
0.0
 11
-523.946948006749
 21
103.679108277041
 31
0.0
  0
LINE
  5
   56B
  8
0
  6
CONTINUOUS
 62
     7
 10
-525.765686356374
 20
69.6655048293605
 30
0.0
 11
-521.22653421026
 21
70.4305304719639
 31
0.0
  0
LINE
  5
   56C
  8
0
  6
CONTINUOUS
 62
     7
 10
-521.634547886315
 20
163.304643484015
 30
0.0
 11
-524.796653875743
 21
164.171672545632
 31
0.0
  0
LINE
  5
   56D
  8
0
  6
CONTINUOUS
 62
     7
 10
-523.946948006749
 20
140.429125008064
 30
0.0
 11
-523.946948006749
 21
163.938688678327
 31
0.0
  0
LINE
  5
   56E
  8
0
  6
DASHDOT
 62
     7
 10
-515.196971822458
 20
117.591590417485
 30
0.0
 11
-515.196971822458
 21
125.291584325029
 31
0.0
  0
LINE
  5
   56F
  8
0
  6
DASHDOT
 62
     7
 10
-511.346974868686
 20
121.441587371257
 30
0.0
 11
-519.04696877623
 21
121.441587371257
 31
0.0
  0
LINE
  5
   570
  8
0
  6
CONTINUOUS
 62
     7
 10
-520.44694673121
 20
110.24163086273
 30
0.0
 11
-520.44694673121
 21
114.791558687467
 31
0.0
  0
LINE
  5
   571
  8
0
  6
CONTINUOUS
 62
     1
 10
-523.946946671605
 20
93.8790597111769
 30
0.0
 11
-523.946946671605
 21
150.229058751542
 31
0.0
  0
LINE
  5
   572
  8
0
  6
CONTINUOUS
 62
     1
 10
-523.946946671605
 20
93.8790597111769
 30
0.0
 11
-525.171946650744
 21
93.8790597111769
 31
0.0
  0
LINE
  5
   573
  8
0
  6
CONTINUOUS
 62
     1
 10
-525.171946650744
 20
93.8790597111769
 30
0.0
 11
-525.171946650744
 21
109.541559444446
 31
0.0
  0
LINE
  5
   574
  8
0
  6
CONTINUOUS
 62
     1
 10
-525.171946650744
 20
115.491558675546
 30
0.0
 11
-525.171946650744
 21
150.229060754258
 31
0.0
  0
LINE
  5
   575
  8
0
  6
CONTINUOUS
 62
     1
 10
-523.946946671605
 20
150.229060754258
 30
0.0
 11
-525.171946650744
 21
150.229060754258
 31
0.0
  0
LINE
  5
   576
  8
0
  6
CONTINUOUS
 62
     1
 10
-523.246946683526
 20
123.104061216194
 30
0.0
 11
-523.246946683526
 21
145.854060828764
 31
0.0
  0
LINE
  5
   577
  8
0
  6
CONTINUOUS
 62
     1
 10
-523.246946683526
 20
114.791561357755
 30
0.0
 11
-523.246946683526
 21
121.004063922245
 31
0.0
  0
LINE
  5
   578
  8
0
  6
CONTINUOUS
 62
     7
 10
-521.671946710348
 20
96.3561330523239
 30
0.0
 11
-521.671946710348
 21
98.0519875919251
 31
0.0
  0
LINE
  5
   579
  8
0
  6
CONTINUOUS
 62
     7
 10
-521.671946710348
 20
146.056132205938
 30
0.0
 11
-521.671946710348
 21
147.751989415827
 31
0.0
  0
LINE
  5
   57A
  8
0
  6
CONTINUOUS
 62
     7
 10
-521.671946710348
 20
121.206132629131
 30
0.0
 11
-521.671946710348
 21
122.901987168732
 31
0.0
  0
LINE
  5
   57B
  8
0
  6
CONTINUOUS
 62
     1
 10
-524.821946656704
 20
109.541558776874
 30
0.0
 11
-525.171946650744
 21
109.541558776874
 31
0.0
  0
LINE
  5
   57C
  8
0
  6
CONTINUOUS
 62
     1
 10
-524.821946656704
 20
115.491558675546
 30
0.0
 11
-525.171946650744
 21
115.491558675546
 31
0.0
  0
LINE
  5
   57D
  8
0
  6
CONTINUOUS
 62
     3
 10
-525.171946650744
 20
109.891558770914
 30
0.0
 11
-525.171946650744
 21
115.141558681507
 31
0.0
  0
LINE
  5
   57E
  8
0
  6
CONTINUOUS
 62
     7
 10
-524.821946656704
 20
109.891558770914
 30
0.0
 11
-525.171946650744
 21
109.891558770914
 31
0.0
  0
LINE
  5
   57F
  8
0
  6
CONTINUOUS
 62
     7
 10
-524.821946656704
 20
108.491558794756
 30
0.0
 11
-524.821946656704
 21
109.891558770914
 31
0.0
  0
LINE
  5
   580
  8
0
  6
CONTINUOUS
 62
     7
 10
-524.471946662664
 20
108.491558794756
 30
0.0
 11
-524.821946656704
 21
108.491558794756
 31
0.0
  0
LINE
  5
   581
  8
0
  6
CONTINUOUS
 62
     7
 10
-524.471946662664
 20
108.491558794756
 30
0.0
 11
-524.471946662664
 21
116.541558657665
 31
0.0
  0
LINE
  5
   582
  8
0
  6
CONTINUOUS
 62
     7
 10
-524.471946662664
 20
116.541558657665
 30
0.0
 11
-524.821946656704
 21
116.541558657665
 31
0.0
  0
LINE
  5
   583
  8
0
  6
CONTINUOUS
 62
     7
 10
-524.821946656704
 20
115.141558681507
 30
0.0
 11
-524.821946656704
 21
116.541558657665
 31
0.0
  0
LINE
  5
   584
  8
0
  6
CONTINUOUS
 62
     7
 10
-524.821946656704
 20
115.141558681507
 30
0.0
 11
-525.171946650744
 21
115.141558681507
 31
0.0
  0
LINE
  5
   585
  8
0
  6
CONTINUOUS
 62
     7
 10
-520.44694673121
 20
110.24163086273
 30
0.0
 11
-523.946946671605
 21
110.24163086273
 31
0.0
  0
LINE
  5
   586
  8
0
  6
CONTINUOUS
 62
     7
 10
-520.44694673121
 20
114.791558687467
 30
0.0
 11
-523.946946671605
 21
114.791558687467
 31
0.0
  0
LINE
  5
   587
  8
0
  6
CONTINUOUS
 62
     1
 10
-525.171946650744
 20
109.541561447162
 30
0.0
 11
-525.171946650744
 21
109.891558770914
 31
0.0
  0
LINE
  5
   588
  8
0
  6
CONTINUOUS
 62
     1
 10
-525.171946650744
 20
115.141558681507
 30
0.0
 11
-525.171946650744
 21
115.491561345834
 31
0.0
  0
LINE
  5
   589
  8
0
  6
CONTINUOUS
 62
     7
 10
-522.021946704388
 20
96.1540603400059
 30
0.0
 11
-523.946946671605
 21
96.1540603400059
 31
0.0
  0
LINE
  5
   58A
  8
0
  6
CONTINUOUS
 62
     7
 10
-522.021946704388
 20
98.2540603042431
 30
0.0
 11
-523.946946671605
 21
98.2540603042431
 31
0.0
  0
LINE
  5
   58B
  8
0
  6
CONTINUOUS
 62
     7
 10
-522.021946704388
 20
98.17413457776
 30
0.0
 11
-522.021946704388
 21
98.2540603042431
 31
0.0
  0
LINE
  5
   58C
  8
0
  6
CONTINUOUS
 62
     7
 10
-522.021946704388
 20
97.946523230623
 30
0.0
 11
-522.021946704388
 21
98.17413457776
 31
0.0
  0
LINE
  5
   58D
  8
0
  6
CONTINUOUS
 62
     7
 10
-522.021946704388
 20
97.6058785907333
 30
0.0
 11
-522.021946704388
 21
97.946523230623
 31
0.0
  0
LINE
  5
   58E
  8
0
  6
CONTINUOUS
 62
     7
 10
-522.021946704388
 20
97.2040603221245
 30
0.0
 11
-522.021946704388
 21
97.6058785907333
 31
0.0
  0
LINE
  5
   58F
  8
0
  6
CONTINUOUS
 62
     7
 10
-522.021946704388
 20
96.8022433886598
 30
0.0
 11
-522.021946704388
 21
97.2040603221245
 31
0.0
  0
LINE
  5
   590
  8
0
  6
CONTINUOUS
 62
     7
 10
-522.021946704388
 20
96.46159874877
 30
0.0
 11
-522.021946704388
 21
96.8022433886598
 31
0.0
  0
LINE
  5
   591
  8
0
  6
CONTINUOUS
 62
     7
 10
-522.021946704388
 20
96.233987401633
 30
0.0
 11
-522.021946704388
 21
96.46159874877
 31
0.0
  0
LINE
  5
   592
  8
0
  6
CONTINUOUS
 62
     7
 10
-522.021946704388
 20
96.1540603400059
 30
0.0
 11
-522.021946704388
 21
96.233987401633
 31
0.0
  0
LINE
  5
   593
  8
0
  6
CONTINUOUS
 62
     7
 10
-522.021946284875
 20
96.1540600509404
 30
0.0
 11
-521.67194627931
 21
96.3561327520787
 31
0.0
  0
LINE
  5
   594
  8
0
  6
CONTINUOUS
 62
     7
 10
-521.671945956788
 20
98.0519869611287
 30
0.0
 11
-522.021945962353
 21
98.254059662267
 31
0.0
  0
LINE
  5
   595
  8
0
  6
CONTINUOUS
 62
     7
 10
-522.021946704388
 20
145.854060828764
 30
0.0
 11
-523.946946671605
 21
145.854060828764
 31
0.0
  0
LINE
  5
   596
  8
0
  6
CONTINUOUS
 62
     7
 10
-522.021946704388
 20
147.954060793001
 30
0.0
 11
-523.946946671605
 21
147.954060793001
 31
0.0
  0
LINE
  5
   597
  8
0
  6
CONTINUOUS
 62
     7
 10
-522.021946704388
 20
147.874133731374
 30
0.0
 11
-522.021946704388
 21
147.954060793001
 31
0.0
  0
LINE
  5
   598
  8
0
  6
CONTINUOUS
 62
     7
 10
-522.021946704388
 20
147.646523719381
 30
0.0
 11
-522.021946704388
 21
147.874133731374
 31
0.0
  0
LINE
  5
   599
  8
0
  6
CONTINUOUS
 62
     7
 10
-522.021946704388
 20
147.305875074059
 30
0.0
 11
-522.021946704388
 21
147.646523719381
 31
0.0
  0
LINE
  5
   59A
  8
0
  6
CONTINUOUS
 62
     7
 10
-522.021946704388
 20
146.904060810883
 30
0.0
 11
-522.021946704388
 21
147.305875074059
 31
0.0
  0
LINE
  5
   59B
  8
0
  6
CONTINUOUS
 62
     7
 10
-522.021946704388
 20
146.50224120713
 30
0.0
 11
-522.021946704388
 21
146.904060810883
 31
0.0
  0
LINE
  5
   59C
  8
0
  6
CONTINUOUS
 62
     7
 10
-522.021946704388
 20
146.161597902384
 30
0.0
 11
-522.021946704388
 21
146.50224120713
 31
0.0
  0
LINE
  5
   59D
  8
0
  6
CONTINUOUS
 62
     7
 10
-522.021946704388
 20
145.933987890391
 30
0.0
 11
-522.021946704388
 21
146.161597902384
 31
0.0
  0
LINE
  5
   59E
  8
0
  6
CONTINUOUS
 62
     7
 10
-522.021946704388
 20
145.854060828764
 30
0.0
 11
-522.021946704388
 21
145.933987890391
 31
0.0
  0
LINE
  5
   59F
  8
0
  6
CONTINUOUS
 62
     7
 10
-522.021946767882
 20
145.854060077967
 30
0.0
 11
-521.671946762318
 21
146.056131457675
 31
0.0
  0
LINE
  5
   5A0
  8
0
  6
CONTINUOUS
 62
     7
 10
-521.671946195903
 20
147.751988528988
 30
0.0
 11
-522.021946201467
 21
147.954059908695
 31
0.0
  0
LINE
  5
   5A1
  8
0
  6
CONTINUOUS
 62
     7
 10
-522.021946704388
 20
121.004061251957
 30
0.0
 11
-523.946946671605
 21
121.004061251957
 31
0.0
  0
LINE
  5
   5A2
  8
0
  6
CONTINUOUS
 62
     7
 10
-522.021946704388
 20
123.104061216194
 30
0.0
 11
-523.946946671605
 21
123.104061216194
 31
0.0
  0
LINE
  5
   5A3
  8
0
  6
CONTINUOUS
 62
     7
 10
-522.021946704388
 20
123.024134154567
 30
0.0
 11
-522.021946704388
 21
123.104061216194
 31
0.0
  0
LINE
  5
   5A4
  8
0
  6
CONTINUOUS
 62
     7
 10
-522.021946704388
 20
122.796521472286
 30
0.0
 11
-522.021946704388
 21
123.024134154567
 31
0.0
  0
LINE
  5
   5A5
  8
0
  6
CONTINUOUS
 62
     7
 10
-522.021946704388
 20
122.45587816754
 30
0.0
 11
-522.021946704388
 21
122.796521472286
 31
0.0
  0
LINE
  5
   5A6
  8
0
  6
CONTINUOUS
 62
     7
 10
-522.021946704388
 20
122.054061234076
 30
0.0
 11
-522.021946704388
 21
122.45587816754
 31
0.0
  0
LINE
  5
   5A7
  8
0
  6
CONTINUOUS
 62
     7
 10
-522.021946704388
 20
121.652241630323
 30
0.0
 11
-522.021946704388
 21
122.054061234076
 31
0.0
  0
LINE
  5
   5A8
  8
0
  6
CONTINUOUS
 62
     7
 10
-522.021946704388
 20
121.311598325577
 30
0.0
 11
-522.021946704388
 21
121.652241630323
 31
0.0
  0
LINE
  5
   5A9
  8
0
  6
CONTINUOUS
 62
     7
 10
-522.021946704388
 20
121.083985643296
 30
0.0
 11
-522.021946704388
 21
121.311598325577
 31
0.0
  0
LINE
  5
   5AA
  8
0
  6
CONTINUOUS
 62
     7
 10
-522.021946704388
 20
121.004061251957
 30
0.0
 11
-522.021946704388
 21
121.083985643296
 31
0.0
  0
LINE
  5
   5AB
  8
0
  6
CONTINUOUS
 62
     7
 10
-522.021946656782
 20
121.00406082188
 30
0.0
 11
-521.671946651218
 21
121.206132201588
 31
0.0
  0
LINE
  5
   5AC
  8
0
  6
CONTINUOUS
 62
     7
 10
-521.671946150489
 20
122.901986380816
 30
0.0
 11
-522.021946156052
 21
123.104060427478
 31
0.0
  0
LINE
  5
   5AD
  8
0
  6
CONTINUOUS
 62
     7
 10
-523.24694801867
 20
98.4290603012629
 30
0.0
 11
-523.946946671605
 21
98.4290603012629
 31
0.0
  0
LINE
  5
   5AE
  8
0
  6
CONTINUOUS
 62
     7
 10
-523.24694801867
 20
95.9790603429862
 30
0.0
 11
-523.946946671605
 21
95.9790603429862
 31
0.0
  0
LINE
  5
   5AF
  8
0
  6
CONTINUOUS
 62
     7
 10
-523.24694801867
 20
98.2540603042431
 30
0.0
 11
-523.24694801867
 21
110.241564105529
 31
0.0
  0
LINE
  5
   5B0
  8
0
  6
CONTINUOUS
 62
     7
 10
-523.246946683526
 20
109.891630868691
 30
0.0
 11
-523.946946671605
 21
109.891630868691
 31
0.0
  0
LINE
  5
   5B1
  8
0
  6
CONTINUOUS
 62
     7
 10
-523.246946683526
 20
115.141558681507
 30
0.0
 11
-523.946946671605
 21
115.141558681507
 31
0.0
  0
LINE
  5
   5B2
  8
0
  6
CONTINUOUS
 62
     7
 10
-523.246946683526
 20
123.279061213214
 30
0.0
 11
-523.946946671605
 21
123.279061213214
 31
0.0
  0
LINE
  5
   5B3
  8
0
  6
CONTINUOUS
 62
     7
 10
-523.246946683526
 20
120.829061254937
 30
0.0
 11
-523.946946671605
 21
120.829061254937
 31
0.0
  0
LINE
  5
   5B4
  8
0
  6
CONTINUOUS
 62
     7
 10
-523.24694801867
 20
147.954060793001
 30
0.0
 11
-523.24694801867
 21
163.746753197725
 31
0.0
  0
LINE
  5
   5B5
  8
0
  6
CONTINUOUS
 62
     7
 10
-523.24694801867
 20
148.129060790021
 30
0.0
 11
-523.946946671605
 21
148.129060790021
 31
0.0
  0
LINE
  5
   5B6
  8
0
  6
CONTINUOUS
 62
     7
 10
-523.24694801867
 20
145.679060831744
 30
0.0
 11
-523.946946671605
 21
145.679060831744
 31
0.0
  0
INSERT
  5
   5B7
  8
0
  6
CONTINUOUS
 62
     7
  2
*HATCH201
 10
-510.121948242188
 20
83.5586547851563
 30
0.0
 41
0.349999994039536
 42
0.349999994039536
 50
89.9999999480344
 43
0.349999994039536
  0
INSERT
  5
   5B8
  8
0
  6
CONTINUOUS
 62
     7
  2
*HATCH202
 10
-510.121948242188
 20
83.5586547851563
 30
0.0
 41
0.349999994039536
 42
0.349999994039536
 50
89.9999999480344
 43
0.349999994039536
  0
INSERT
  5
   5B9
  8
0
  6
CONTINUOUS
 62
     7
  2
*HATCH203
 10
-510.121948242188
 20
83.5586547851563
 30
0.0
 41
0.349999994039536
 42
0.349999994039536
 50
89.9999999480344
 43
0.349999994039536
  0
INSERT
  5
   5BA
  8
0
  6
CONTINUOUS
 62
     7
  2
*HATCH204
 10
-510.121948242188
 20
83.5586547851563
 30
0.0
 41
0.349999994039536
 42
0.349999994039536
 50
89.9999999480344
 43
0.349999994039536
  0
INSERT
  5
   5BB
  8
0
  6
CONTINUOUS
 62
     7
  2
*HATCH205
 10
-510.121948242188
 20
83.5586547851563
 30
0.0
 41
0.349999994039536
 42
0.349999994039536
 50
89.9999999480344
 43
0.349999994039536
  0
CIRCLE
  5
   5BC
  8
0
  6
CONTINUOUS
 62
     7
 10
-523.805763241544
 20
71.7675874008412
 30
0.0
 40
8.74999985098839E-2
  0
LINE
  5
   5BD
  8
0
  6
CONTINUOUS
 62
     3
 10
-522.021946704388
 20
140.429125008064
 30
0.0
 11
-522.021946704388
 21
142.879124966341
 31
0.0
  0
LINE
  5
   5BE
  8
0
  6
CONTINUOUS
 62
     3
 10
-521.321946716309
 20
140.429125008064
 30
0.0
 11
-521.321946716309
 21
142.879124966341
 31
0.0
  0
LINE
  5
   5BF
  8
0
  6
CONTINUOUS
 62
     3
 10
-521.321946716309
 20
142.879124966341
 30
0.0
 11
-522.021946704388
 21
142.879124966341
 31
0.0
  0
LINE
  5
   5C0
  8
0
  6
CONTINUOUS
 62
     7
 10
-519.921948742866
 20
140.954124999123
 30
0.0
 11
-520.796950730681
 21
140.954124999123
 31
0.0
  0
LINE
  5
   5C1
  8
0
  6
CONTINUOUS
 62
     7
 10
-519.921948742867
 20
140.954124999123
 30
0.0
 11
-519.921948742867
 21
144.629124936539
 31
0.0
  0
LINE
  5
   5C2
  8
0
  6
CONTINUOUS
 62
     7
 10
-521.146950724721
 20
145.854124915677
 30
0.0
 11
-522.02195070982
 21
145.854124915677
 31
0.0
  0
LINE
  5
   5C3
  8
0
  6
CONTINUOUS
 62
     7
 10
-522.371950703859
 20
147.954060793001
 30
0.0
 11
-522.371950703859
 21
149.004124862033
 31
0.0
  0
LINE
  5
   5C4
  8
0
  6
CONTINUOUS
 62
     7
 10
-522.371950703859
 20
149.004124862033
 30
0.0
 11
-523.24694801867
 21
149.004124862033
 31
0.0
  0
LINE
  5
   5C5
  8
0
  6
CONTINUOUS
 62
     7
 10
-521.146950724721
 20
144.979124930578
 30
0.0
 11
-522.02195070982
 21
144.979124930578
 31
0.0
  0
LINE
  5
   5C6
  8
0
  6
CONTINUOUS
 62
     7
 10
-520.796950730681
 20
140.954124999123
 30
0.0
 11
-520.796950730681
 21
144.629124936539
 31
0.0
  0
ARC
  5
   5C7
  8
0
  6
CONTINUOUS
 62
     7
 10
-521.146955853448
 20
144.629120496332
 30
0.0
 40
1.2250064377287
 50
360.000319242658
 51
449.999813057862
  0
ARC
  5
   5C8
  8
0
  6
CONTINUOUS
 62
     7
 10
-521.146935237869
 20
144.629139249712
 30
0.0
 40
0.349982431475061
 50
359.998830132094
 51
450.002235749312
  0
ARC
  5
   5C9
  8
0
  6
CONTINUOUS
 62
     7
 10
-522.021957483153
 20
146.20411369329
 30
0.0
 40
1.22498984871903
 50
196.604271282219
 51
270.000346548696
  0
LINE
  5
   5CA
  8
0
  6
CONTINUOUS
 62
     7
 10
-519.921948742866
 20
144.104124945479
 30
0.0
 11
-520.796950730681
 21
144.104124945479
 31
0.0
  0
INSERT
  5
   5CB
  8
0
  6
CONTINUOUS
 62
     7
  2
*HATCH206
 10
-510.121948242188
 20
83.5586547851563
 30
0.0
 41
0.349999994039536
 42
0.349999994039536
 50
89.9999999480344
 43
0.349999994039536
  0
LINE
  5
   5CC
  8
0
  6
DOT
 62
     3
 10
-534.796946486831
 20
103.679108277041
 30
0.0
 11
-534.796946486831
 21
140.429125008064
 31
0.0
  0
LINE
  5
   5CD
  8
0
  6
DOT
 62
     3
 10
-528.212052785659
 20
140.429125008064
 30
0.0
 11
-534.796946486831
 21
140.429125008064
 31
0.0
  0
LINE
  5
   5CE
  8
0
  6
DOT
 62
     3
 10
-528.947003240999
 20
103.679108277041
 30
0.0
 11
-534.796946486831
 21
103.679108277041
 31
0.0
  0
LINE
  5
   5CF
  8
0
  6
CONTINUOUS
 62
     3
 10
-454.296949192882
 20
143.666608931202
 30
0.0
 11
-454.296949192882
 21
146.466608883518
 31
0.0
  0
LINE
  5
   5D0
  8
0
  6
CONTINUOUS
 62
     3
 10
-452.896949216723
 20
144.191608922261
 30
0.0
 11
-452.896949216723
 21
145.941608892459
 31
0.0
  0
LINE
  5
   5D1
  8
0
  6
CONTINUOUS
 62
     3
 10
-454.296949192882
 20
146.466608883518
 30
0.0
 11
-455.69694916904
 21
146.466608883518
 31
0.0
  0
LINE
  5
   5D2
  8
0
  6
CONTINUOUS
 62
     3
 10
-454.296949192882
 20
143.666608931202
 30
0.0
 11
-455.69694916904
 21
143.666608931202
 31
0.0
  0
LINE
  5
   5D3
  8
0
  6
CONTINUOUS
 62
     3
 10
-452.896949216723
 20
145.941608892459
 30
0.0
 11
-455.69694916904
 21
145.941608892459
 31
0.0
  0
LINE
  5
   5D4
  8
0
  6
CONTINUOUS
 62
     3
 10
-452.896949216723
 20
144.191608922261
 30
0.0
 11
-455.69694916904
 21
144.191608922261
 31
0.0
  0
LINE
  5
   5D5
  8
0
  6
CONTINUOUS
 62
     3
 10
-454.296949192882
 20
99.2166096881806
 30
0.0
 11
-455.69694916904
 21
99.2166096881806
 31
0.0
  0
LINE
  5
   5D6
  8
0
  6
CONTINUOUS
 62
     3
 10
-452.896949216723
 20
98.6916096971213
 30
0.0
 11
-455.69694916904
 21
98.6916096971213
 31
0.0
  0
LINE
  5
   5D7
  8
0
  6
CONTINUOUS
 62
     3
 10
-452.896949216723
 20
96.9416097269236
 30
0.0
 11
-455.69694916904
 21
96.9416097269236
 31
0.0
  0
LINE
  5
   5D8
  8
0
  6
CONTINUOUS
 62
     3
 10
-454.296949192882
 20
96.4166097358643
 30
0.0
 11
-455.69694916904
 21
96.4166097358643
 31
0.0
  0
LINE
  5
   5D9
  8
0
  6
CONTINUOUS
 62
     3
 10
-454.296949192882
 20
96.4166097358643
 30
0.0
 11
-454.296949192882
 21
99.2166096881806
 31
0.0
  0
LINE
  5
   5DA
  8
0
  6
CONTINUOUS
 62
     3
 10
-452.896949216723
 20
96.9416097269236
 30
0.0
 11
-452.896949216723
 21
98.6916096971213
 31
0.0
  0
LINE
  5
   5DB
  8
0
  6
CONTINUOUS
 62
     3
 10
-455.69694916904
 20
173.94162443735
 30
0.0
 11
-456.746949151158
 21
173.94162443735
 31
0.0
  0
LINE
  5
   5DC
  8
0
  6
CONTINUOUS
 62
     3
 10
-455.69694916904
 20
151.19162482478
 30
0.0
 11
-456.746949151158
 21
151.19162482478
 31
0.0
  0
LINE
  5
   5DD
  8
0
  6
CONTINUOUS
 62
   210
 10
-474.071964084313
 20
86.7916372702295
 30
0.0
 11
-474.071964084313
 21
97.7290963620724
 31
0.0
  0
LINE
  5
   5DE
  8
0
  6
CONTINUOUS
 62
   210
 10
-474.071969524934
 20
148.391603510159
 30
0.0
 11
-474.071969524934
 21
150.84162483074
 31
0.0
  0
LINE
  5
   5DF
  8
0
  6
CONTINUOUS
 62
   210
 10
-461.121967768669
 20
90.9916285202678
 30
0.0
 11
-461.121967768669
 21
99.3915168237305
 31
0.0
  0
LINE
  5
   5E0
  8
0
  6
CONTINUOUS
 62
   210
 10
-461.121967768669
 20
148.391603510159
 30
0.0
 11
-461.121967768669
 21
151.891624812859
 31
0.0
  0
LINE
  5
   5E1
  8
0
  6
CONTINUOUS
 62
   210
 10
-457.446967831254
 20
109.891622857827
 30
0.0
 11
-458.146949913917
 21
109.891622857827
 31
0.0
  0
LINE
  5
   5E2
  8
0
  6
CONTINUOUS
 62
   210
 10
-457.446967831254
 20
112.341622816103
 30
0.0
 11
-458.146950203715
 21
112.341622816103
 31
0.0
  0
LINE
  5
   5E3
  8
0
  6
CONTINUOUS
 62
   210
 10
-457.446967831254
 20
109.891622857827
 30
0.0
 11
-457.446967831254
 21
112.341622816103
 31
0.0
  0
LINE
  5
   5E4
  8
0
  6
CONTINUOUS
 62
   210
 10
-456.746967843175
 20
142.441630314368
 30
0.0
 11
-456.746967843175
 21
147.691630224961
 31
0.0
  0
LINE
  5
   5E5
  8
0
  6
CONTINUOUS
 62
   210
 10
-456.746967843175
 20
95.1916324541743
 30
0.0
 11
-456.746967843175
 21
100.441632364767
 31
0.0
  0
LINE
  5
   5E6
  8
0
  6
CONTINUOUS
 62
   210
 10
-456.746967843175
 20
147.691630224961
 30
0.0
 11
-458.146954385096
 21
147.691630224961
 31
0.0
  0
LINE
  5
   5E7
  8
0
  6
CONTINUOUS
 62
   210
 10
-456.746967843175
 20
142.441630314368
 30
0.0
 11
-458.146953764099
 21
142.441630314368
 31
0.0
  0
LINE
  5
   5E8
  8
0
  6
CONTINUOUS
 62
   210
 10
-456.746967843175
 20
100.441632364767
 30
0.0
 11
-458.146953011178
 21
100.441632364767
 31
0.0
  0
LINE
  5
   5E9
  8
0
  6
CONTINUOUS
 62
   210
 10
-456.746967843175
 20
95.1916324541743
 30
0.0
 11
-461.121967768669
 21
95.1916324541743
 31
0.0
  0
LINE
  5
   5EA
  8
0
  6
DASHDOT
 62
   210
 10
-463.484467831852
 20
105.341632981118
 30
0.0
 11
-467.15946732273
 21
105.341632981118
 31
0.0
  0
LINE
  5
   5EB
  8
0
  6
DASHDOT
 62
   210
 10
-465.321964841082
 20
107.371159647607
 30
0.0
 11
-465.321964841082
 21
144.235084440945
 31
0.0
  0
LINE
  5
   5EC
  8
0
  6
DASHDOT
 62
   210
 10
-463.484461844622
 20
140.341633161021
 30
0.0
 11
-467.159467837542
 21
140.341633161021
 31
0.0
  0
LINE
  5
   5ED
  8
0
  6
DASHDOT
 62
   210
 10
-453.946589754481
 20
145.066630269664
 30
0.0
 11
-462.429544505386
 21
145.066630269664
 31
0.0
  0
LINE
  5
   5EE
  8
0
  6
DASHDOT
 62
   210
 10
-455.245001195946
 20
97.8166324094708
 30
0.0
 11
-463.771236328233
 21
97.8166324094708
 31
0.0
  0
LINE
  5
   5EF
  8
0
  6
CONTINUOUS
 62
   210
 10
-461.121967768669
 20
149.09163301201
 30
0.0
 11
-474.071964060706
 21
149.09163301201
 31
0.0
  0
LINE
  5
   5F0
  8
0
  6
CONTINUOUS
 62
   210
 10
-461.121967768669
 20
96.5916331301297
 30
0.0
 11
-474.071966123979
 21
96.5916331301297
 31
0.0
  0
LINE
  5
   5F1
  8
0
  6
CONTINUOUS
 62
   210
 10
-457.096962496638
 20
74.1916301415141
 30
0.0
 11
-474.071966860963
 21
74.1916301415141
 31
0.0
  0
LINE
  5
   5F2
  8
0
  6
CONTINUOUS
 62
   210
 10
-457.096962496638
 20
77.9716324804003
 30
0.0
 11
-474.071967548132
 21
77.9716324804003
 31
0.0
  0
LINE
  5
   5F3
  8
0
  6
CONTINUOUS
 62
   210
 10
-457.096962496638
 20
164.911628863591
 30
0.0
 11
-474.071967548132
 21
164.911628863591
 31
0.0
  0
LINE
  5
   5F4
  8
0
  6
CONTINUOUS
 62
   210
 10
-457.096962496638
 20
74.1916301415141
 30
0.0
 11
-457.096962496638
 21
90.9916285202678
 31
0.0
  0
LINE
  5
   5F5
  8
0
  6
CONTINUOUS
 62
   210
 10
-457.096962496638
 20
151.891624812859
 30
0.0
 11
-457.096962496638
 21
168.691624526757
 31
0.0
  0
LINE
  5
   5F6
  8
0
  6
CONTINUOUS
 62
   210
 10
-457.096962496638
 20
90.9916285202678
 30
0.0
 11
-461.121967768669
 21
90.9916285202678
 31
0.0
  0
LINE
  5
   5F7
  8
0
  6
CONTINUOUS
 62
   210
 10
-457.096962496638
 20
151.891624812859
 30
0.0
 11
-461.121967768669
 21
151.891624812859
 31
0.0
  0
LINE
  5
   5F8
  8
0
  6
CONTINUOUS
 62
   210
 10
-450.621967947483
 20
151.891624812859
 30
0.0
 11
-457.096965166926
 21
151.891624812859
 31
0.0
  0
LINE
  5
   5F9
  8
0
  6
CONTINUOUS
 62
   210
 10
-456.57195939016
 20
168.691624526757
 30
0.0
 11
-457.096965166926
 21
168.691624526757
 31
0.0
  0
LINE
  5
   5FA
  8
0
  6
CONTINUOUS
 62
   210
 10
-455.346967867017
 20
151.891624812859
 30
0.0
 11
-455.346967867017
 21
155.648346245464
 31
0.0
  0
LINE
  5
   5FB
  8
0
  6
CONTINUOUS
 62
   210
 10
-455.346996788206
 20
164.934897753586
 30
0.0
 11
-455.346996788206
 21
165.611639532822
 31
0.0
  0
LINE
  5
   5FC
  8
0
  6
CONTINUOUS
 62
   210
 10
-450.621967947483
 20
151.891624812859
 30
0.0
 11
-450.621967947483
 21
161.866613961834
 31
0.0
  0
LINE
  5
   5FD
  8
0
  6
CONTINUOUS
 62
   210
 10
-450.621967946552
 20
90.991618439927
 30
0.0
 11
-457.096965166652
 21
90.9916258499846
 31
0.0
  0
LINE
  5
   5FE
  8
0
  6
CONTINUOUS
 62
   210
 10
-456.571959390278
 20
74.1916260025467
 30
0.0
 11
-457.096965166622
 21
74.1916268036431
 31
0.0
  0
LINE
  5
   5FF
  8
0
  6
CONTINUOUS
 62
   210
 10
-455.346967867017
 20
77.2716017840088
 30
0.0
 11
-455.346967867017
 21
77.9483489038315
 31
0.0
  0
LINE
  5
   600
  8
0
  6
CONTINUOUS
 62
   210
 10
-455.346967867017
 20
87.2349000781563
 30
0.0
 11
-455.346967867017
 21
90.9916238472637
 31
0.0
  0
LINE
  5
   601
  8
0
  6
CONTINUOUS
 62
   210
 10
-450.621967947483
 20
81.016627354997
 30
0.0
 11
-450.621967947483
 21
90.991618439927
 31
0.0
  0
LINE
  5
   602
  8
0
  6
CONTINUOUS
 62
   210
 10
-450.621967947483
 20
155.648346245464
 30
0.0
 11
-455.346967867017
 21
155.648346245464
 31
0.0
  0
LINE
  5
   603
  8
0
  6
CONTINUOUS
 62
   210
 10
-450.621967947483
 20
164.934897753575
 30
0.0
 11
-455.346967867017
 21
164.934897753575
 31
0.0
  0
LINE
  5
   604
  8
0
  6
CONTINUOUS
 62
   210
 10
-450.621967947483
 20
77.9483489038315
 30
0.0
 11
-455.346967867017
 21
77.9483489038315
 31
0.0
  0
LINE
  5
   605
  8
0
  6
CONTINUOUS
 62
   210
 10
-450.621967947483
 20
87.2349000781563
 30
0.0
 11
-455.346967867017
 21
87.2349000781563
 31
0.0
  0
LINE
  5
   606
  8
0
  6
DASHDOT
 62
   210
 10
-448.97954736436
 20
160.291624669808
 30
0.0
 11
-475.744614382736
 21
160.291624669808
 31
0.0
  0
LINE
  5
   607
  8
0
  6
DASHDOT
 62
   210
 10
-448.642880289651
 20
82.5916198895985
 30
0.0
 11
-475.800726326124
 21
82.5916509693343
 31
0.0
  0
LINE
  5
   608
  8
0
  6
CONTINUOUS
 62
   210
 10
-457.096962496636
 20
168.691618956474
 30
0.0
 11
-474.071967548132
 21
168.691618956474
 31
0.0
  0
LINE
  5
   609
  8
0
  6
CONTINUOUS
 62
   210
 10
-473.371965891123
 20
150.84162483074
 30
0.0
 11
-474.071966463327
 21
150.84162483074
 31
0.0
  0
LINE
  5
   60A
  8
0
  6
CONTINUOUS
 62
   210
 10
-473.371965891123
 20
156.091624741333
 30
0.0
 11
-474.071966463327
 21
156.091624741333
 31
0.0
  0
LINE
  5
   60B
  8
0
  6
CONTINUOUS
 62
   210
 10
-473.371965891123
 20
150.84162483074
 30
0.0
 11
-473.371965891123
 21
156.091624741333
 31
0.0
  0
LINE
  5
   60C
  8
0
  6
CONTINUOUS
 62
   210
 10
-473.371965807676
 20
164.911612841862
 30
0.0
 11
-473.371965807676
 21
168.691619186181
 31
0.0
  0
LINE
  5
   60D
  8
0
  6
CONTINUOUS
 62
   210
 10
-473.371965807676
 20
92.0416371808225
 30
0.0
 11
-474.071966463327
 21
92.0416371808225
 31
0.0
  0
LINE
  5
   60E
  8
0
  6
CONTINUOUS
 62
   210
 10
-473.371965807676
 20
86.7916372702295
 30
0.0
 11
-474.071966463327
 21
86.7916372702295
 31
0.0
  0
LINE
  5
   60F
  8
0
  6
CONTINUOUS
 62
   210
 10
-473.37196572423
 20
74.1916354820902
 30
0.0
 11
-473.37196572423
 21
77.9716341493304
 31
0.0
  0
LINE
  5
   610
  8
0
  6
CONTINUOUS
 62
   210
 10
-473.371965807676
 20
86.7916369364435
 30
0.0
 11
-473.371965807676
 21
92.0416371808225
 31
0.0
  0
LINE
  5
   611
  8
0
  6
CONTINUOUS
 62
   210
 10
-474.071967548132
 20
150.84162483074
 30
0.0
 11
-474.071967548132
 21
168.691618956474
 31
0.0
  0
LINE
  5
   612
  8
0
  6
CONTINUOUS
 62
   210
 10
-474.071966860963
 20
74.1916301415141
 30
0.0
 11
-474.071966860963
 21
86.7916372702295
 31
0.0
  0
LINE
  5
   613
  8
0
  6
CONTINUOUS
 62
     3
 10
-455.69694916904
 20
91.6916278073859
 30
0.0
 11
-456.746949151158
 21
91.6916290090174
 31
0.0
  0
LINE
  5
   614
  8
0
  6
DASHDOT
 62
     7
 10
-455.051069810809
 20
160.291477805481
 30
0.0
 11
-463.670669725832
 21
160.291477805481
 31
0.0
  0
LINE
  5
   615
  8
0
  6
DASHDOT
 62
     7
 10
-455.051069810809
 20
82.5917635113492
 30
0.0
 11
-463.670669725832
 21
82.5917635113492
 31
0.0
  0
LINE
  5
   616
  8
0
  6
CONTINUOUS
 62
     3
 10
-455.696954376109
 20
68.9416281948072
 30
0.0
 11
-456.746954358228
 21
68.9416293964386
 31
0.0
  0
INSERT
  5
   617
  8
255
  6
CONTINUOUS
 62
     7
  2
DIAFR_POS_LT_
 10
-474.071967548132
 20
83.5586494445802
 30
0.0
 41
0.349999994039536
 42
-0.349999994039536
 50
180.000000207862
 43
0.349999994039536
  0
INSERT
  5
   618
  8
255
  6
CONTINUOUS
 62
     7
  2
DIAFR_POS_LT_
 10
-474.071967548132
 20
159.32459187225
 30
0.0
 41
0.349999994039536
 42
0.349999994039536
 50
179.999999896069
 43
0.349999994039536
  0
INSERT
  5
   619
  8
255
  6
CONTINUOUS
 62
     7
  2
TERM_400_LT_
 10
-474.071967548132
 20
83.5586547851563
 30
0.0
 41
0.349999994039536
 42
-0.349999994039536
 50
180.000000207862
 43
0.349999994039536
  0
POINT
  5
   61A
  8
0
  6
CONTINUOUS
 62
     7
 10
-450.621967947483
 20
160.291624669808
 30
0.0
  0
INSERT
  5
   61B
  8
255
  6
CONTINUOUS
 62
     7
  2
TERM_400_LT_
 10
-474.071967548132
 20
159.324594312831
 30
0.0
 41
0.349999994039536
 42
0.349999994039536
 50
179.999999896069
 43
0.349999994039536
  0
INSERT
  5
   61C
  8
0
  6
CONTINUOUS
 62
     7
  2
*UDIM925
 10
0.0
 20
0.0
 30
0.0
  0
INSERT
  5
   61D
  8
0
  6
CONTINUOUS
 62
     7
  2
*UDIM926
 10
0.0
 20
0.0
 30
0.0
  0
INSERT
  5
   61E
  8
0
  6
CONTINUOUS
 62
     7
  2
*UDIM927
 10
0.0
 20
0.0
 30
0.0
  0
TEXT
  5
   61F
  8
0
  6
CONTINUOUS
 62
     7
 10
-550.350049114709
 20
206.58126476024
 30
0.0
 40
2.4999999335834
  1
INSULATING DISTANCE
 50
359.999999948034
 41
0.899999947857856
 72
     1
 11
-529.200050904156
 21
207.831264707955
 31
0.0
 73
     2
  0
TEXT
  5
   620
  8
0
  6
CONTINUOUS
 62
     7
 10
-552.600049077569
 20
203.081264762269
 30
0.0
 40
2.4999999335834
  1
CORSA DI SEZIONAMENTO
 50
359.999999948034
 41
0.899999947857856
 72
     1
 11
-529.200051057146
 21
204.331264707955
 31
0.0
 73
     2
  0
INSERT
  5
   621
  8
0
  6
CONTINUOUS
 62
     7
  2
*UDIM928
 10
0.0
 20
0.0
 30
0.0
  0
INSERT
  5
   622
  8
0
  6
CONTINUOUS
 62
     7
  2
*UDIM929
 10
0.0
 20
0.0
 30
0.0
  0
INSERT
  5
   623
  8
0
  6
CONTINUOUS
 62
     7
  2
*UDIM930
 10
0.0
 20
0.0
 30
0.0
  0
INSERT
  5
   624
  8
0
  6
CONTINUOUS
 62
     7
  2
*UDIM931
 10
0.0
 20
0.0
 30
0.0
  0
INSERT
  5
   625
  8
0
  6
CONTINUOUS
 62
     7
  2
*UDIM932
 10
0.0
 20
0.0
 30
0.0
  0
TEXT
  5
   626
  8
0
  6
CONTINUOUS
 62
     7
 10
-551.365677574032
 20
120.930801972683
 30
0.0
 40
2.99999997871263
  1
X
 50
359.999999948034
 41
0.91666663951344
 72
     2
 11
-549.16567763832
 21
120.930801970699
 31
0.0
  0
INSERT
  5
   627
  8
0
  6
CONTINUOUS
 62
     7
  2
*UDIM933
 10
0.0
 20
0.0
 30
0.0
  0
TEXT
  5
   628
  8
0
  6
CONTINUOUS
 62
     5
 10
-539.166313450663
 20
111.020082121528
 30
0.0
 40
2.99999997871263
  1
=       =
 50
89.9999999480344
 41
0.91666663951344
 72
     2
 11
-539.166313428744
 21
135.220081249455
 31
0.0
  0
INSERT
  5
   629
  8
0
  6
CONTINUOUS
 62
     7
  2
*UDIM934
 10
0.0
 20
0.0
 30
0.0
  0
INSERT
  5
   62A
  8
0
  6
CONTINUOUS
 62
     7
  2
*UDIM935
 10
0.0
 20
0.0
 30
0.0
  0
LINE
  5
   62B
  8
0
  6
CONTINUOUS
 62
     7
 10
-484.582580566406
 20
-39.2522888183594
 30
0.0
 11
-450.832580566406
 21
-39.2522888183594
 31
0.0
  0
LINE
  5
   62C
  8
0
  6
CONTINUOUS
 62
     7
 10
-484.582580566406
 20
-7.75228881835938
 30
0.0
 11
-450.832580566406
 21
-7.75228881835938
 31
0.0
  0
LINE
  5
   62D
  8
0
  6
CONTINUOUS
 62
     7
 10
-450.832580566406
 20
-7.75228881835938
 30
0.0
 11
-450.832580566406
 21
-28.3147888183594
 31
0.0
  0
LINE
  5
   62E
  8
0
  6
CONTINUOUS
 62
     7
 10
-484.582580566406
 20
-7.75228881835938
 30
0.0
 11
-484.582580566406
 21
-39.2522888183594
 31
0.0
  0
LINE
  5
   62F
  8
0
  6
DASHDOT
 62
     7
 10
-455.307567113001
 20
-30.3147888183594
 30
0.0
 11
-441.327274166965
 21
-30.3147888183594
 31
0.0
  0
LINE
  5
   630
  8
0
  6
CONTINUOUS
 62
     7
 10
-450.832580566406
 20
-28.3147888183594
 30
0.0
 11
-445.082580566406
 21
-28.3147888183594
 31
0.0
  0
LINE
  5
   631
  8
0
  6
CONTINUOUS
 62
     7
 10
-450.832580566406
 20
-32.3147888183594
 30
0.0
 11
-445.082580566406
 21
-32.3147888183594
 31
0.0
  0
ARC
  5
   632
  8
0
  6
CONTINUOUS
 62
     7
 10
-445.082580566406
 20
-30.3147888183594
 30
0.0
 40
2.0
 50
269.999999844103
 51
449.999999844103
  0
LINE
  5
   633
  8
0
  6
CONTINUOUS
 62
     7
 10
-450.832580566406
 20
-32.3147888183594
 30
0.0
 11
-450.832580566406
 21
-39.2522888183594
 31
0.0
  0
LINE
  5
   634
  8
0
  6
DASHDOT
 62
     7
 10
-466.582580566406
 20
2.12520234249573
 30
0.0
 11
-466.582580566406
 21
-46.6474701359108
 31
0.0
  0
CIRCLE
  5
   635
  8
0
  6
CONTINUOUS
 62
     7
 10
-477.582580566406
 20
-5.75228881835938
 30
0.0
 40
0.875
  0
CIRCLE
  5
   636
  8
0
  6
CONTINUOUS
 62
     7
 10
-446.332580566406
 20
-5.75228881835938
 30
0.0
 40
1.0
  0
CIRCLE
  5
   637
  8
0
  6
CONTINUOUS
 62
     7
 10
-446.332580566406
 20
-23.5022888183594
 30
0.0
 40
1.0
  0
CIRCLE
  5
   638
  8
0
  6
CONTINUOUS
 62
     7
 10
-446.332580566406
 20
-41.2522888183594
 30
0.0
 40
0.875
  0
CIRCLE
  5
   639
  8
0
  6
CONTINUOUS
 62
     7
 10
-477.582580566406
 20
-41.2522888183594
 30
0.0
 40
1.0
  0
LINE
  5
   63A
  8
0
  6
DASHDOT
 62
     7
 10
-477.582580566406
 20
-4.12728881835938
 30
0.0
 11
-477.582580566406
 21
-7.37728881835938
 31
0.0
  0
LINE
  5
   63B
  8
0
  6
DASHDOT
 62
     7
 10
-479.207580566406
 20
-5.75228881835938
 30
0.0
 11
-475.957580566406
 21
-5.75228881835938
 31
0.0
  0
LINE
  5
   63C
  8
0
  6
DASHDOT
 62
     7
 10
-446.332580566406
 20
-4.12728881835938
 30
0.0
 11
-446.332580566406
 21
-7.37728881835938
 31
0.0
  0
LINE
  5
   63D
  8
0
  6
DASHDOT
 62
     7
 10
-447.957580566406
 20
-5.75228881835938
 30
0.0
 11
-444.707580566406
 21
-5.75228881835938
 31
0.0
  0
LINE
  5
   63E
  8
0
  6
DASHDOT
 62
     7
 10
-446.332580566406
 20
-21.8772888183594
 30
0.0
 11
-446.332580566406
 21
-25.1272888183594
 31
0.0
  0
LINE
  5
   63F
  8
0
  6
DASHDOT
 62
     7
 10
-447.957580566406
 20
-23.5022888183594
 30
0.0
 11
-444.707580566406
 21
-23.5022888183594
 31
0.0
  0
LINE
  5
   640
  8
0
  6
DASHDOT
 62
     7
 10
-446.332580566406
 20
-39.6272888183594
 30
0.0
 11
-446.332580566406
 21
-42.8772888183594
 31
0.0
  0
LINE
  5
   641
  8
0
  6
DASHDOT
 62
     7
 10
-447.957580566406
 20
-41.2522888183594
 30
0.0
 11
-444.707580566406
 21
-41.2522888183594
 31
0.0
  0
LINE
  5
   642
  8
0
  6
DASHDOT
 62
     7
 10
-477.582580566406
 20
-39.6272888183594
 30
0.0
 11
-477.582580566406
 21
-42.8772888183594
 31
0.0
  0
LINE
  5
   643
  8
0
  6
DASHDOT
 62
     7
 10
-479.207580566406
 20
-41.2522888183594
 30
0.0
 11
-475.957580566406
 21
-41.2522888183594
 31
0.0
  0
LINE
  5
   644
  8
0
  6
CONTINUOUS
 62
     7
 10
-490.507139643799
 20
-2.75228881835938
 30
0.0
 11
-440.920081168536
 21
-2.75228881835938
 31
0.0
  0
LINE
  5
   645
  8
0
  6
CONTINUOUS
 62
     7
 10
-491.140550974688
 20
-44.2522888183594
 30
0.0
 11
-440.467644503616
 21
-44.2522888183594
 31
0.0
  0
LINE
  5
   646
  8
0
  6
CONTINUOUS
 62
     7
 10
-441.332580566406
 20
-1.92224377076258
 30
0.0
 11
-441.332580566406
 21
-45.1751889371417
 31
0.0
  0
LINE
  5
   647
  8
0
  6
CONTINUOUS
 62
     7
 10
-489.582580566406
 20
-1.92224377076258
 30
0.0
 11
-489.582580566406
 21
-45.763356601538
 31
0.0
  0
POINT
  5
   648
  8
0
  6
CONTINUOUS
 62
     7
 10
-443.082580566406
 20
-30.4397888183594
 30
0.0
  0
LINE
  5
   649
  8
0
  6
DASHDOT
 62
     7
 10
-494.04330532955
 20
-23.5022888183594
 30
0.0
 11
-438.589852266269
 21
-23.5022888183594
 31
0.0
  0
CIRCLE
  5
   64A
  8
0
  6
CONTINUOUS
 62
     7
 10
-460.957580566406
 20
-5.37728881835938
 30
0.0
 40
0.5
  0
CIRCLE
  5
   64B
  8
0
  6
CONTINUOUS
 62
     7
 10
-472.207580566406
 20
-5.37728881835938
 30
0.0
 40
0.5
  0
CIRCLE
  5
   64C
  8
0
  6
CONTINUOUS
 62
     7
 10
-460.957580566406
 20
-5.37728881835938
 30
0.0
 40
0.92
  0
CIRCLE
  5
   64D
  8
0
  6
CONTINUOUS
 62
     7
 10
-472.207580566406
 20
-5.37728881835938
 30
0.0
 40
0.92
  0
LINE
  5
   64E
  8
0
  6
DASHDOT
 62
     7
 10
-460.957580566406
 20
-3.70728881835937
 30
0.0
 11
-460.957580566406
 21
-7.04728881835937
 31
0.0
  0
LINE
  5
   64F
  8
0
  6
DASHDOT
 62
     7
 10
-462.627580566406
 20
-5.37728881835938
 30
0.0
 11
-459.287580566406
 21
-5.37728881835938
 31
0.0
  0
LINE
  5
   650
  8
0
  6
DASHDOT
 62
     7
 10
-472.207580566406
 20
-3.70728881835937
 30
0.0
 11
-472.207580566406
 21
-7.04728881835937
 31
0.0
  0
LINE
  5
   651
  8
0
  6
DASHDOT
 62
     7
 10
-473.877580566406
 20
-5.37728881835938
 30
0.0
 11
-470.537580566406
 21
-5.37728881835938
 31
0.0
  0
LINE
  5
   652
  8
0
  6
CONTINUOUS
 62
     7
 10
-439.240116994257
 20
-7.03665831126455
 30
0.0
 11
-439.240116994257
 21
-15.3360989686813
 31
0.0
  0
LINE
  5
   653
  8
0
  6
CONTINUOUS
 62
     7
 10
-436.640292210005
 20
-7.03665831126455
 30
0.0
 11
-436.640292210005
 21
-15.3360989686813
 31
0.0
  0
LINE
  5
   654
  8
0
  6
CONTINUOUS
 62
     7
 10
-439.240116994257
 20
-7.03665831126455
 30
0.0
 11
-436.640292210005
 21
-7.03665831126455
 31
0.0
  0
LINE
  5
   655
  8
0
  6
CONTINUOUS
 62
     7
 10
-439.240116994257
 20
-15.3360989686813
 30
0.0
 11
-436.640292210005
 21
-15.3360989686813
 31
0.0
  0
LINE
  5
   656
  8
0
  6
CONTINUOUS
 62
     7
 10
-439.240116994257
 20
-39.9679193254542
 30
0.0
 11
-436.640292210005
 21
-39.9679193254542
 31
0.0
  0
LINE
  5
   657
  8
0
  6
CONTINUOUS
 62
     7
 10
-436.640292210005
 20
-31.6684786680374
 30
0.0
 11
-436.640292210005
 21
-39.9679193254542
 31
0.0
  0
LINE
  5
   658
  8
0
  6
CONTINUOUS
 62
     7
 10
-439.240116994257
 20
-31.6684786680374
 30
0.0
 11
-436.640292210005
 21
-31.6684786680374
 31
0.0
  0
LINE
  5
   659
  8
0
  6
CONTINUOUS
 62
     7
 10
-439.240116994257
 20
-31.6684786680374
 30
0.0
 11
-439.240116994257
 21
-39.9679193254542
 31
0.0
  0
LINE
  5
   65A
  8
0
  6
DASHDOT
 62
     7
 10
-437.940204602131
 20
-2.63695483022435
 30
0.0
 11
-437.940204602131
 21
-59.0831506267515
 31
0.0
  0
INSERT
  5
   65B
  8
0
  6
CONTINUOUS
 62
     7
  2
*UDIM936
 10
0.0
 20
0.0
 30
0.0
  0
INSERT
  5
   65C
  8
0
  6
CONTINUOUS
 62
     7
  2
*UDIM937
 10
0.0
 20
0.0
 30
0.0
  0
INSERT
  5
   65D
  8
0
  6
CONTINUOUS
 62
     7
  2
*UDIM938
 10
0.0
 20
0.0
 30
0.0
  0
INSERT
  5
   65E
  8
0
  6
CONTINUOUS
 62
     7
  2
*UDIM939
 10
0.0
 20
0.0
 30
0.0
  0
INSERT
  5
   65F
  8
0
  6
CONTINUOUS
 62
     7
  2
*UDIM940
 10
0.0
 20
0.0
 30
0.0
  0
INSERT
  5
   660
  8
0
  6
CONTINUOUS
 62
     7
  2
*UDIM941
 10
0.0
 20
0.0
 30
0.0
  0
INSERT
  5
   661
  8
0
  6
CONTINUOUS
 62
     7
  2
*UDIM942
 10
0.0
 20
0.0
 30
0.0
  0
TEXT
  5
   662
  8
0
  6
CONTINUOUS
 62
     7
 10
-492.103709158079
 20
-32.6927544425874
 30
0.0
 40
3.00000002980232
  1
=     =
 50
449.999999844103
 41
0.916666604744064
 72
     2
 11
-492.103709107316
 21
-13.9927555244117
 31
0.0
  0
INSERT
  5
   663
  8
0
  6
CONTINUOUS
 62
     7
  2
*UDIM943
 10
0.0
 20
0.0
 30
0.0
  0
INSERT
  5
   664
  8
0
  6
CONTINUOUS
 62
     7
  2
*UDIM944
 10
0.0
 20
0.0
 30
0.0
  0
INSERT
  5
   665
  8
0
  6
CONTINUOUS
 62
     7
  2
*UDIM945
 10
0.0
 20
0.0
 30
0.0
  0
INSERT
  5
   666
  8
0
  6
CONTINUOUS
 62
     7
  2
*UDIM946
 10
0.0
 20
0.0
 30
0.0
  0
INSERT
  5
   667
  8
0
  6
CONTINUOUS
 62
     7
  2
*UDIM947
 10
0.0
 20
0.0
 30
0.0
  0
INSERT
  5
   668
  8
0
  6
CONTINUOUS
 62
     7
  2
*UDIM948
 10
0.0
 20
0.0
 30
0.0
  0
INSERT
  5
   669
  8
0
  6
CONTINUOUS
 62
     7
  2
*UDIM949
 10
0.0
 20
0.0
 30
0.0
  0
INSERT
  5
   66A
  8
0
  6
CONTINUOUS
 62
     7
  2
*UDIM950
 10
0.0
 20
0.0
 30
0.0
  0
INSERT
  5
   66B
  8
0
  6
CONTINUOUS
 62
     7
  2
*UDIM951
 10
0.0
 20
0.0
 30
0.0
  0
INSERT
  5
   66C
  8
0
  6
CONTINUOUS
 62
     7
  2
*UDIM952
 10
0.0
 20
0.0
 30
0.0
  0
INSERT
  5
   66D
  8
0
  6
CONTINUOUS
 62
     7
  2
*UDIM953
 10
0.0
 20
0.0
 30
0.0
  0
TEXT
  5
   66E
  8
0
  6
CONTINUOUS
 62
     7
 10
-467.388405213856
 20
-68.1325417256305
 30
0.0
 40
3.00000002980232
  1
Y
 50
359.999999844103
 41
0.916666604744064
 72
     2
 11
-465.188405344986
 21
-68.1325417316054
 31
0.0
  0
TEXT
  5
   66F
  8
0
  6
CONTINUOUS
 62
     7
 10
-467.880969653629
 20
27.6376876139692
 30
0.0
 40
3.00000002980232
  1
Y
 50
359.999999844103
 41
0.916666604744064
 72
     2
 11
-465.680969784759
 21
27.6376876079942
 31
0.0
  0
TEXT
  5
   670
  8
0
  6
CONTINUOUS
 62
     7
 10
-414.080722699665
 20
-24.2066115832278
 30
0.0
 40
3.00000002980232
  1
X
 50
359.999999844103
 41
0.916666604744064
 72
     2
 11
-411.880722830795
 21
-24.2066115892028
 31
0.0
  0
TEXT
  5
   671
  8
0
  6
CONTINUOUS
 62
     7
 10
-511.264118085407
 20
-24.7495356297442
 30
0.0
 40
3.00000002980232
  1
X
 50
359.999999844103
 41
0.916666604744064
 72
     2
 11
-509.064118216537
 21
-24.7495356357192
 31
0.0
  0
LINE
  5
   672
  8
0
  6
CONTINUOUS
 62
     7
 10
-536.133911132813
 20
-5.04373434356852
 30
0.0
 11
-536.133911132813
 21
-28.9602558297713
 31
0.0
  0
LINE
  5
   673
  8
0
  6
CONTINUOUS
 62
     7
 10
-538.133911132813
 20
-5.04373434356852
 30
0.0
 11
-538.133911132813
 21
-28.9602558297713
 31
0.0
  0
LINE
  5
   674
  8
0
  6
DASHDOT
 62
     7
 10
-541.33651423521
 20
-17.0019950866699
 30
0.0
 11
-532.910295042772
 21
-17.0019950866699
 31
0.0
  0
POINT
  5
   675
  8
0
  6
CONTINUOUS
 62
     7
 10
-538.133911132813
 20
-15.0019950866699
 30
0.0
  0
POINT
  5
   676
  8
0
  6
CONTINUOUS
 62
     7
 10
-538.133911132813
 20
-19.0019950866699
 30
0.0
  0
LINE
  5
   677
  8
0
  6
CONTINUOUS
 62
     7
 10
-536.133911132813
 20
-13.3237958243154
 30
0.0
 11
-538.133911132813
 21
-15.0019950866699
 31
0.0
  0
LINE
  5
   678
  8
0
  6
CONTINUOUS
 62
     7
 10
-538.133911132813
 20
-19.0019950866699
 30
0.0
 11
-536.133911132813
 21
-20.6801943490245
 31
0.0
  0
LINE
  5
   679
  8
0
  6
CONTINUOUS
 62
     7
 10
-538.133911132813
 20
-26.5019950866699
 30
0.0
 11
-536.133911132813
 21
-26.5019950866699
 31
0.0
  0
CIRCLE
  5
   67A
  8
0
  6
CONTINUOUS
 62
     7
 10
-537.133911132813
 20
-17.0019950866699
 30
0.0
 40
12.0
  0
LINE
  5
   67B
  8
0
  6
CONTINUOUS
 62
     7
 10
-544.133903503418
 20
-21.5019950866699
 30
0.0
 11
-541.633903503418
 21
-21.5019950866699
 31
0.0
  0
LINE
  5
   67C
  8
0
  6
CONTINUOUS
 62
     7
 10
-540.633903503418
 20
-12.5019950866699
 30
0.0
 11
-540.633903503418
 21
-20.5019950866699
 31
0.0
  0
LINE
  5
   67D
  8
0
  6
CONTINUOUS
 62
     7
 10
-540.633903503418
 20
-12.5019950866699
 30
0.0
 11
-538.133911132813
 21
-12.5019950866699
 31
0.0
  0
LINE
  5
   67E
  8
0
  6
CONTINUOUS
 62
     7
 10
-544.133903503418
 20
-24.0019950866699
 30
0.0
 11
-541.633903503418
 21
-24.0019950866699
 31
0.0
  0
LINE
  5
   67F
  8
0
  6
CONTINUOUS
 62
     7
 10
-545.133903503418
 20
-25.0019950866699
 30
0.0
 11
-545.133903503418
 21
-25.9462738206011
 31
0.0
  0
ARC
  5
   680
  8
0
  6
CONTINUOUS
 62
     7
 10
-541.633899356138
 20
-20.5019957580086
 30
0.0
 40
0.999996977799109
 50
629.999840735313
 51
720.000252836193
  0
ARC
  5
   681
  8
0
  6
CONTINUOUS
 62
     7
 10
-544.133888849911
 20
-25.0020077729744
 30
0.0
 40
3.50001845311552
 50
450.000186734275
 51
513.408761128067
  0
ARC
  5
   682
  8
0
  6
CONTINUOUS
 62
     7
 10
-544.133947751568
 20
-25.0019541918875
 30
0.0
 40
0.999949821243504
 50
449.997764042825
 51
540.001169660043
  0
ARC
  5
   683
  8
0
  6
CONTINUOUS
 62
     7
 10
-541.633884151036
 20
-20.5020271336042
 30
0.0
 40
3.49997105594423
 50
629.999653243441
 51
720.000420168909
  0
INSERT
  5
   684
  8
0
  6
CONTINUOUS
 62
     7
  2
*HATCH207
 10
-537.133911132813
 20
-17.0019950866699
 30
0.0
 50
269.999999844103
  0
INSERT
  5
   685
  8
0
  6
CONTINUOUS
 62
     7
  2
*HATCH208
 10
-537.133911132813
 20
-17.0019950866699
 30
0.0
 50
269.999999844103
  0
TEXT
  5
   686
  8
0
  6
CONTINUOUS
 62
     7
 10
-549.521506875113
 20
-43.8500061634705
 30
0.0
 40
4.00000017881393
  1
PART. Z
 50
359.999999844103
 41
0.915624995566905
 72
     1
 11
-537.069006383419
 21
-41.8500061078831
 31
0.0
 73
     2
  0
INSERT
  5
   687
  8
0
  6
CONTINUOUS
 62
     7
  2
*UDIM954
 10
0.0
 20
0.0
 30
0.0
  0
INSERT
  5
   688
  8
0
  6
CONTINUOUS
 62
     7
  2
*UDIM955
 10
0.0
 20
0.0
 30
0.0
  0
ENDSEC
  0
EOF
